  0
SECTION
  2
HEADER
  9
$ACADVER
  1
AC1009
  9
$LUNITS
 70
2
  9
$LUPREC
 70
4
  9
$LTSCALE
 40
1.0
  9
$EXTMIN
 10
-30.3177
 20
33.3285
 30
0
  9
$EXTMAX
 10
251.6749
 20
230.337
 30
0
  0
ENDSEC
  0
SECTION
  2
TABLES
  0
TABLE
  2
LTYPE
 70
256
  0
LTYPE
  2
AIGENLINE001
 70
64
  3
generate AI->DXF Converter
 72
65
 73
2
 40
1.4818
 49
1.1114
 49
-0.3705
  0
LTYPE
  2
AIGENLINE002
 70
64
  3
generate AI->DXF Converter
 72
65
 73
4
 40
9.354
 49
5.5568
 49
-1.667
 49
0.4631
 49
-1.667
  0
LTYPE
  2
AIGENLINE003
 70
64
  3
generate AI->DXF Converter
 72
65
 73
2
 40
1.4111
 49
0.7056
 49
-0.7056
  0
ENDTAB
  0
TABLE
  2
LAYER
 70
2
  0
LAYER
  2
LAYER_1
 70
64
 62
7
  6
CONTINUOUS
  0
LAYER
  2
LAYER_2
 70
64
 62
7
  6
CONTINUOUS
  0
ENDTAB
  0
TABLE
  2
STYLE
 70
6
  0
STYLE
  2
STANDARD
 70
0
 40
0
 50
0
 71
0
 41
0
 42
0
  3
TXT
  4
BIGFONT
  0
ENDTAB
  0
ENDSEC
  0
SECTION
  2
BLOCKS
  0
BLOCK
  8
LAYER_2
  2
AIGNBL02040006
 70
64
 10
0
 20
0
 30
0
  3
AIGNBL02040006
  0
POLYLINE
  8
LAYER_2
 40
0.05
 41
0.05
 66
1
 10
0
 20
0
 30
0
 70
1
  0
VERTEX
  8
LAYER_2
 10
146.7545
 20
39.1418
  0
VERTEX
  8
LAYER_2
 10
146.2656
 20
37.9567
  0
VERTEX
  8
LAYER_2
 10
145.6376
 20
37.9567
  0
VERTEX
  8
LAYER_2
 10
147.2372
 20
41.7225
  0
VERTEX
  8
LAYER_2
 10
147.9703
 20
41.7225
  0
VERTEX
  8
LAYER_2
 10
149.5768
 20
37.9567
  0
VERTEX
  8
LAYER_2
 10
148.9267
 20
37.9567
  0
VERTEX
  8
LAYER_2
 10
148.424
 20
39.1418
  0
SEQEND
  0
POLYLINE
  8
LAYER_2
 40
0.05
 41
0.05
 66
1
 10
0
 20
0
 30
0
 70
1
  0
VERTEX
  8
LAYER_2
 10
148.2983
 20
39.5207
  0
VERTEX
  8
LAYER_2
 10
147.8373
 20
40.6056
  0
VERTEX
  8
LAYER_2
 10
147.5927
 20
41.2926
  0
VERTEX
  8
LAYER_2
 10
147.5789
 20
41.2926
  0
VERTEX
  8
LAYER_2
 10
147.3412
 20
40.6101
  0
VERTEX
  8
LAYER_2
 10
146.8806
 20
39.5207
  0
SEQEND
  0
ENDBLK
  0
BLOCK
  8
LAYER_2
  2
AIGNBL02040007
 70
64
 10
0
 20
0
 30
0
  3
AIGNBL02040007
  0
POLYLINE
  8
LAYER_2
 40
0.05
 41
0.05
 66
1
 10
0
 20
0
 30
0
 70
1
  0
VERTEX
  8
LAYER_2
 10
153.942
 20
37.4034
 42
-0.01557776889
  0
VERTEX
  8
LAYER_2
 10
152.1399
 20
37.8395
  0
VERTEX
  8
LAYER_2
 10
151.8533
 20
37.895
 42
-0.08356586593
  0
VERTEX
  8
LAYER_2
 10
150.9892
 20
38.0612
 42
-0.09749891868
  0
VERTEX
  8
LAYER_2
 10
150.3281
 20
38.4671
 42
-0.2129139625
  0
VERTEX
  8
LAYER_2
 10
149.7793
 20
39.7998
 42
-0.09685063121
  0
VERTEX
  8
LAYER_2
 10
149.9239
 20
40.5732
 42
-0.2046489378
  0
VERTEX
  8
LAYER_2
 10
150.9715
 20
41.5974
 42
-0.09824326873
  0
VERTEX
  8
LAYER_2
 10
151.9725
 20
41.7838
 42
-0.08554303155
  0
VERTEX
  8
LAYER_2
 10
152.8411
 20
41.6425
 42
-0.100439485
  0
VERTEX
  8
LAYER_2
 10
153.5062
 20
41.2483
 42
-0.2140965971
  0
VERTEX
  8
LAYER_2
 10
154.0815
 20
39.8784
 42
-0.09539620281
  0
VERTEX
  8
LAYER_2
 10
153.9426
 20
39.1106
 42
-0.2143310008
  0
VERTEX
  8
LAYER_2
 10
152.9198
 20
38.1321
 42
-0.02339132607
  0
VERTEX
  8
LAYER_2
 10
152.7407
 20
38.0738
  0
VERTEX
  8
LAYER_2
 10
152.7407
 20
38.0514
 42
0.01711818545
  0
VERTEX
  8
LAYER_2
 10
154.117
 20
37.8113
  0
SEQEND
  0
POLYLINE
  8
LAYER_2
 40
0.05
 41
0.05
 66
1
 10
0
 20
0
 30
0
 70
1
  0
VERTEX
  8
LAYER_2
 10
153.4394
 20
39.857
 42
0.1071643265
  0
VERTEX
  8
LAYER_2
 10
153.2881
 20
40.5618
 42
0.2976270581
  0
VERTEX
  8
LAYER_2
 10
151.9511
 20
41.3873
 42
0.1072356843
  0
VERTEX
  8
LAYER_2
 10
151.2613
 20
41.2478
 42
0.2385874916
  0
VERTEX
  8
LAYER_2
 10
150.4743
 20
40.2422
 42
0.05751786987
  0
VERTEX
  8
LAYER_2
 10
150.4287
 20
39.8122
 42
0.218058121
  0
VERTEX
  8
LAYER_2
 10
150.9593
 20
38.6168
 42
0.1772828752
  0
VERTEX
  8
LAYER_2
 10
151.9232
 20
38.2912
 42
0.1075205619
  0
VERTEX
  8
LAYER_2
 10
152.6045
 20
38.4302
 42
0.2370768657
  0
VERTEX
  8
LAYER_2
 10
153.3917
 20
39.4298
 42
0.05602139055
  0
SEQEND
  0
ENDBLK
  0
BLOCK
  8
LAYER_2
  2
AIGNBL02040008
 70
64
 10
0
 20
0
 30
0
  3
AIGNBL02040008
  0
POLYLINE
  8
LAYER_2
 40
0.05
 41
0.05
 66
1
 10
0
 20
0
 30
0
 70
1
  0
VERTEX
  8
LAYER_2
 10
155.4089
 20
41.7225
  0
VERTEX
  8
LAYER_2
 10
155.4089
 20
39.4932
 42
0.114533087
  0
VERTEX
  8
LAYER_2
 10
155.5428
 20
38.8274
 42
0.1464774934
  0
VERTEX
  8
LAYER_2
 10
155.8932
 20
38.4422
 42
0.1362552487
  0
VERTEX
  8
LAYER_2
 10
156.5055
 20
38.2912
 42
0.1219300979
  0
VERTEX
  8
LAYER_2
 10
157.1286
 20
38.4259
 42
0.1503016186
  0
VERTEX
  8
LAYER_2
 10
157.5004
 20
38.7949
 42
0.1256239276
  0
VERTEX
  8
LAYER_2
 10
157.651
 20
39.4932
  0
VERTEX
  8
LAYER_2
 10
157.651
 20
41.7225
  0
VERTEX
  8
LAYER_2
 10
158.2656
 20
41.7225
  0
VERTEX
  8
LAYER_2
 10
158.2656
 20
39.5266
 42
-0.09996665729
  0
VERTEX
  8
LAYER_2
 10
158.1307
 20
38.7839
 42
-0.1215019567
  0
VERTEX
  8
LAYER_2
 10
157.7575
 20
38.2772
 42
-0.1106305922
  0
VERTEX
  8
LAYER_2
 10
157.132
 20
37.9706
 42
-0.06128719854
  0
VERTEX
  8
LAYER_2
 10
156.4845
 20
37.895
 42
-0.0941826643
  0
VERTEX
  8
LAYER_2
 10
155.6654
 20
38.0331
 42
-0.2431541134
  0
VERTEX
  8
LAYER_2
 10
154.8618
 20
38.9438
 42
-0.06321248355
  0
VERTEX
  8
LAYER_2
 10
154.7943
 20
39.5045
  0
VERTEX
  8
LAYER_2
 10
154.7943
 20
41.7225
  0
SEQEND
  0
ENDBLK
  0
BLOCK
  8
LAYER_2
  2
AIGNBL02040009
 70
64
 10
0
 20
0
 30
0
  3
AIGNBL02040009
  0
POLYLINE
  8
LAYER_2
 40
0.05
 41
0.05
 66
1
 10
0
 20
0
 30
0
 70
1
  0
VERTEX
  8
LAYER_2
 10
160.0119
 20
39.1418
  0
VERTEX
  8
LAYER_2
 10
159.5227
 20
37.9567
  0
VERTEX
  8
LAYER_2
 10
158.8947
 20
37.9567
  0
VERTEX
  8
LAYER_2
 10
160.4939
 20
41.7225
  0
VERTEX
  8
LAYER_2
 10
161.227
 20
41.7225
  0
VERTEX
  8
LAYER_2
 10
162.8335
 20
37.9567
  0
VERTEX
  8
LAYER_2
 10
162.1841
 20
37.9567
  0
VERTEX
  8
LAYER_2
 10
161.6814
 20
39.1418
  0
SEQEND
  0
POLYLINE
  8
LAYER_2
 40
0.05
 41
0.05
 66
1
 10
0
 20
0
 30
0
 70
1
  0
VERTEX
  8
LAYER_2
 10
161.5553
 20
39.5207
  0
VERTEX
  8
LAYER_2
 10
161.094
 20
40.6056
  0
VERTEX
  8
LAYER_2
 10
160.8494
 20
41.2926
  0
VERTEX
  8
LAYER_2
 10
160.8357
 20
41.2926
  0
VERTEX
  8
LAYER_2
 10
160.5983
 20
40.6101
  0
VERTEX
  8
LAYER_2
 10
160.1373
 20
39.5207
  0
SEQEND
  0
ENDBLK
  0
BLOCK
  8
LAYER_2
  2
AIGNBL0204000A
 70
64
 10
0
 20
0
 30
0
  3
AIGNBL0204000A
  0
POLYLINE
  8
LAYER_2
 40
0.05
 41
0.05
 66
1
 10
0
 20
0
 30
0
 70
1
  0
VERTEX
  8
LAYER_2
 10
163.8742
 20
41.6777
 42
-0.03245918394
  0
VERTEX
  8
LAYER_2
 10
165.0411
 20
41.7508
 42
-0.08084226265
  0
VERTEX
  8
LAYER_2
 10
165.9975
 20
41.619
 42
-0.07815635113
  0
VERTEX
  8
LAYER_2
 10
166.3609
 20
41.4379
 42
-0.2484709269
  0
VERTEX
  8
LAYER_2
 10
166.7726
 20
40.6497
 42
-0.226147
  0
VERTEX
  8
LAYER_2
 10
166.4095
 20
39.8456
 42
-0.1096895144
  0
VERTEX
  8
LAYER_2
 10
165.7812
 20
39.5323
 42
-0.06565832551
  0
VERTEX
  8
LAYER_2
 10
164.9708
 20
39.4319
 42
-0.06238309955
  0
VERTEX
  8
LAYER_2
 10
164.4823
 20
39.4653
  0
VERTEX
  8
LAYER_2
 10
164.4823
 20
37.9567
  0
VERTEX
  8
LAYER_2
 10
163.8742
 20
37.9567
  0
SEQEND
  0
POLYLINE
  8
LAYER_2
 40
0.05
 41
0.05
 66
1
 10
0
 20
0
 30
0
 70
1
  0
VERTEX
  8
LAYER_2
 10
164.4823
 20
39.8622
 42
0.04203451964
  0
VERTEX
  8
LAYER_2
 10
164.9846
 20
39.8229
 42
0.1032111168
  0
VERTEX
  8
LAYER_2
 10
165.7038
 20
39.9502
 42
0.1555938032
  0
VERTEX
  8
LAYER_2
 10
166.0686
 20
40.2546
 42
0.1352673748
  0
VERTEX
  8
LAYER_2
 10
166.1656
 20
40.6273
 42
0.1737047371
  0
VERTEX
  8
LAYER_2
 10
166.0308
 20
41.0346
 42
0.1517050813
  0
VERTEX
  8
LAYER_2
 10
165.6097
 20
41.2941
 42
0.06879756253
  0
VERTEX
  8
LAYER_2
 10
165.0552
 20
41.3649
 42
0.0634356619
  0
VERTEX
  8
LAYER_2
 10
164.4823
 20
41.3257
  0
SEQEND
  0
ENDBLK
  0
BLOCK
  8
LAYER_2
  2
AIGNBL0204000B
 70
64
 10
0
 20
0
 30
0
  3
AIGNBL0204000B
  0
POLYLINE
  8
LAYER_2
 40
0.05
 41
0.05
 66
1
 10
0
 20
0
 30
0
 70
1
  0
VERTEX
  8
LAYER_2
 10
168.3246
 20
41.4207
 42
-0.2767461975
  0
VERTEX
  8
LAYER_2
 10
168.1851
 20
41.1806
 42
-0.1265294091
  0
VERTEX
  8
LAYER_2
 10
167.9329
 20
41.1189
 42
-0.2237518698
  0
VERTEX
  8
LAYER_2
 10
167.6226
 20
41.2513
 42
-0.1708341408
  0
VERTEX
  8
LAYER_2
 10
167.5626
 20
41.4207
 42
-0.2643879937
  0
VERTEX
  8
LAYER_2
 10
167.712
 20
41.6678
 42
-0.1290073663
  0
VERTEX
  8
LAYER_2
 10
167.9467
 20
41.7277
 42
-0.225342086
  0
VERTEX
  8
LAYER_2
 10
168.2635
 20
41.597
 42
-0.1691136206
  0
SEQEND
  0
POLYLINE
  8
LAYER_2
 40
0.05
 41
0.05
 66
1
 10
0
 20
0
 30
0
 70
1
  0
VERTEX
  8
LAYER_2
 10
167.639
 20
37.9567
  0
VERTEX
  8
LAYER_2
 10
167.639
 20
40.6607
  0
VERTEX
  8
LAYER_2
 10
168.2537
 20
40.6607
  0
VERTEX
  8
LAYER_2
 10
168.2537
 20
37.9567
  0
SEQEND
  0
ENDBLK
  0
BLOCK
  8
LAYER_2
  2
AIGNBL0204000C
 70
64
 10
0
 20
0
 30
0
  3
AIGNBL0204000C
  0
POLYLINE
  8
LAYER_2
 40
0.05
 41
0.05
 66
1
 10
0
 20
0
 30
0
 70
1
  0
VERTEX
  8
LAYER_2
 10
170.1254
 20
39.1418
  0
VERTEX
  8
LAYER_2
 10
169.6372
 20
37.9567
  0
VERTEX
  8
LAYER_2
 10
169.0081
 20
37.9567
  0
VERTEX
  8
LAYER_2
 10
170.6077
 20
41.7225
  0
VERTEX
  8
LAYER_2
 10
171.3415
 20
41.7225
  0
VERTEX
  8
LAYER_2
 10
172.9479
 20
37.9567
  0
VERTEX
  8
LAYER_2
 10
172.2982
 20
37.9567
  0
VERTEX
  8
LAYER_2
 10
171.7955
 20
39.1418
  0
SEQEND
  0
POLYLINE
  8
LAYER_2
 40
0.05
 41
0.05
 66
1
 10
0
 20
0
 30
0
 70
1
  0
VERTEX
  8
LAYER_2
 10
171.6695
 20
39.5207
  0
VERTEX
  8
LAYER_2
 10
171.2085
 20
40.6056
  0
VERTEX
  8
LAYER_2
 10
170.9646
 20
41.2926
  0
VERTEX
  8
LAYER_2
 10
170.9498
 20
41.2926
  0
VERTEX
  8
LAYER_2
 10
170.7128
 20
40.6101
  0
VERTEX
  8
LAYER_2
 10
170.2518
 20
39.5207
  0
SEQEND
  0
ENDBLK
  0
BLOCK
  8
LAYER_2
  2
AIGNBL02030005
 70
64
 10
0
 20
0
 30
0
  3
AIGNBL02030005
  0
INSERT
  8
LAYER_2
  2
AIGNBL02040006
 10
0
 20
0
 30
0
  0
INSERT
  8
LAYER_2
  2
AIGNBL02040007
 10
0
 20
0
 30
0
  0
INSERT
  8
LAYER_2
  2
AIGNBL02040008
 10
0
 20
0
 30
0
  0
INSERT
  8
LAYER_2
  2
AIGNBL02040009
 10
0
 20
0
 30
0
  0
INSERT
  8
LAYER_2
  2
AIGNBL0204000A
 10
0
 20
0
 30
0
  0
INSERT
  8
LAYER_2
  2
AIGNBL0204000B
 10
0
 20
0
 30
0
  0
INSERT
  8
LAYER_2
  2
AIGNBL0204000C
 10
0
 20
0
 30
0
  0
ENDBLK
  0
BLOCK
  8
LAYER_2
  2
AIGNBL0203000E
 70
64
 10
0
 20
0
 30
0
  3
AIGNBL0203000E
  0
POLYLINE
  8
LAYER_2
 40
0.05
 41
0.05
 66
1
 10
0
 20
0
 30
0
 70
1
  0
VERTEX
  8
LAYER_2
 10
145.7475
 20
36.0574
  0
VERTEX
  8
LAYER_2
 10
146.3008
 20
36.0574
  0
VERTEX
  8
LAYER_2
 10
146.3008
 20
35.9637
  0
VERTEX
  8
LAYER_2
 10
145.6424
 20
35.9637
  0
VERTEX
  8
LAYER_2
 10
145.6424
 20
36.9969
  0
VERTEX
  8
LAYER_2
 10
146.2832
 20
36.9969
  0
VERTEX
  8
LAYER_2
 10
146.2832
 20
36.9035
  0
VERTEX
  8
LAYER_2
 10
145.7475
 20
36.9035
  0
VERTEX
  8
LAYER_2
 10
145.7475
 20
36.549
  0
VERTEX
  8
LAYER_2
 10
146.2481
 20
36.549
  0
VERTEX
  8
LAYER_2
 10
146.2481
 20
36.4557
  0
VERTEX
  8
LAYER_2
 10
145.7475
 20
36.4557
  0
SEQEND
  0
ENDBLK
  0
BLOCK
  8
LAYER_2
  2
AIGNBL0203000F
 70
64
 10
0
 20
0
 30
0
  3
AIGNBL0203000F
  0
POLYLINE
  8
LAYER_2
 40
0.05
 41
0.05
 66
1
 10
0
 20
0
 30
0
 70
1
  0
VERTEX
  8
LAYER_2
 10
147.4404
 20
36.117
  0
VERTEX
  8
LAYER_2
 10
147.4432
 20
36.117
  0
VERTEX
  8
LAYER_2
 10
147.4432
 20
36.9969
  0
VERTEX
  8
LAYER_2
 10
147.5483
 20
36.9969
  0
VERTEX
  8
LAYER_2
 10
147.5483
 20
35.9637
  0
VERTEX
  8
LAYER_2
 10
147.4174
 20
35.9637
  0
VERTEX
  8
LAYER_2
 10
146.8162
 20
36.8525
  0
VERTEX
  8
LAYER_2
 10
146.8127
 20
36.8525
  0
VERTEX
  8
LAYER_2
 10
146.8127
 20
35.9637
  0
VERTEX
  8
LAYER_2
 10
146.708
 20
35.9637
  0
VERTEX
  8
LAYER_2
 10
146.708
 20
36.9969
  0
VERTEX
  8
LAYER_2
 10
146.8393
 20
36.9969
  0
SEQEND
  0
ENDBLK
  0
BLOCK
  8
LAYER_2
  2
AIGNBL02030010
 70
64
 10
0
 20
0
 30
0
  3
AIGNBL02030010
  0
POLYLINE
  8
LAYER_2
 40
0.05
 41
0.05
 66
1
 10
0
 20
0
 30
0
 70
1
  0
VERTEX
  8
LAYER_2
 10
148.0213
 20
36.1756
  0
VERTEX
  8
LAYER_2
 10
148.0757
 20
36.0725
 42
0.1803975231
  0
VERTEX
  8
LAYER_2
 10
148.1891
 20
36.0309
  0
VERTEX
  8
LAYER_2
 10
148.2783
 20
36.0505
  0
VERTEX
  8
LAYER_2
 10
148.3344
 20
36.1039
  0
VERTEX
  8
LAYER_2
 10
148.3634
 20
36.1804
  0
VERTEX
  8
LAYER_2
 10
148.3717
 20
36.27
  0
VERTEX
  8
LAYER_2
 10
148.3717
 20
36.9969
  0
VERTEX
  8
LAYER_2
 10
148.4767
 20
36.9969
  0
VERTEX
  8
LAYER_2
 10
148.4767
 20
36.2614
  0
VERTEX
  8
LAYER_2
 10
148.4654
 20
36.1535
  0
VERTEX
  8
LAYER_2
 10
148.424
 20
36.0485
  0
VERTEX
  8
LAYER_2
 10
148.3393
 20
35.9689
  0
VERTEX
  8
LAYER_2
 10
148.2004
 20
35.9375
 42
-0.1845231376
  0
VERTEX
  8
LAYER_2
 10
148.0158
 20
35.9974
 42
-0.1765285731
  0
VERTEX
  8
LAYER_2
 10
147.9234
 20
36.149
  0
SEQEND
  0
ENDBLK
  0
BLOCK
  8
LAYER_2
  2
AIGNBL02030011
 70
64
 10
0
 20
0
 30
0
  3
AIGNBL02030011
  0
POLYLINE
  8
LAYER_2
 40
0.05
 41
0.05
 66
1
 10
0
 20
0
 30
0
 70
1
  0
VERTEX
  8
LAYER_2
 10
149.965
 20
36.4805
 42
-0.1041417444
  0
VERTEX
  8
LAYER_2
 10
149.924
 20
36.2631
 42
-0.10057123
  0
VERTEX
  8
LAYER_2
 10
149.8113
 20
36.0915
  0
VERTEX
  8
LAYER_2
 10
149.6405
 20
35.9785
 42
-0.0950295922
  0
VERTEX
  8
LAYER_2
 10
149.4265
 20
35.9375
 42
-0.1010765979
  0
VERTEX
  8
LAYER_2
 10
149.2129
 20
35.9785
 42
-0.1000570207
  0
VERTEX
  8
LAYER_2
 10
149.042
 20
36.0915
 42
-0.09442769366
  0
VERTEX
  8
LAYER_2
 10
148.9287
 20
36.2631
 42
-0.09293305267
  0
VERTEX
  8
LAYER_2
 10
148.8881
 20
36.4805
 42
-0.1024980643
  0
VERTEX
  8
LAYER_2
 10
148.9287
 20
36.6978
 42
-0.1008832254
  0
VERTEX
  8
LAYER_2
 10
149.042
 20
36.8694
 42
-0.09625117665
  0
VERTEX
  8
LAYER_2
 10
149.2129
 20
36.9824
 42
-0.0952064105
  0
VERTEX
  8
LAYER_2
 10
149.4265
 20
37.0234
 42
-0.1012184087
  0
VERTEX
  8
LAYER_2
 10
149.6405
 20
36.9824
 42
-0.09890806396
  0
VERTEX
  8
LAYER_2
 10
149.8113
 20
36.8694
 42
-0.09577200427
  0
VERTEX
  8
LAYER_2
 10
149.924
 20
36.6978
 42
-0.09400765476
  0
SEQEND
  0
POLYLINE
  8
LAYER_2
 40
0.05
 41
0.05
 66
1
 10
0
 20
0
 30
0
 70
1
  0
VERTEX
  8
LAYER_2
 10
149.8541
 20
36.4798
  0
VERTEX
  8
LAYER_2
 10
149.8251
 20
36.6517
  0
VERTEX
  8
LAYER_2
 10
149.7404
 20
36.795
  0
VERTEX
  8
LAYER_2
 10
149.6053
 20
36.8932
  0
VERTEX
  8
LAYER_2
 10
149.4265
 20
36.93
  0
VERTEX
  8
LAYER_2
 10
149.2478
 20
36.8932
  0
VERTEX
  8
LAYER_2
 10
149.113
 20
36.795
  0
VERTEX
  8
LAYER_2
 10
149.0283
 20
36.6517
  0
VERTEX
  8
LAYER_2
 10
148.999
 20
36.4798
  0
VERTEX
  8
LAYER_2
 10
149.0283
 20
36.3079
  0
VERTEX
  8
LAYER_2
 10
149.113
 20
36.1649
  0
VERTEX
  8
LAYER_2
 10
149.2478
 20
36.0674
 42
0.1008814383
  0
VERTEX
  8
LAYER_2
 10
149.4265
 20
36.0309
 42
0.1157330551
  0
VERTEX
  8
LAYER_2
 10
149.6053
 20
36.0674
  0
VERTEX
  8
LAYER_2
 10
149.7404
 20
36.1649
  0
VERTEX
  8
LAYER_2
 10
149.8251
 20
36.3079
  0
SEQEND
  0
ENDBLK
  0
BLOCK
  8
LAYER_2
  2
AIGNBL02030012
 70
64
 10
0
 20
0
 30
0
  3
AIGNBL02030012
  0
POLYLINE
  8
LAYER_2
 40
0.05
 41
0.05
 66
1
 10
0
 20
0
 30
0
 70
1
  0
VERTEX
  8
LAYER_2
 10
150.7398
 20
35.9637
  0
VERTEX
  8
LAYER_2
 10
150.6351
 20
35.9637
  0
VERTEX
  8
LAYER_2
 10
150.6351
 20
36.4091
  0
VERTEX
  8
LAYER_2
 10
150.2482
 20
36.9969
  0
VERTEX
  8
LAYER_2
 10
150.3795
 20
36.9969
  0
VERTEX
  8
LAYER_2
 10
150.6905
 20
36.4967
  0
VERTEX
  8
LAYER_2
 10
151.0041
 20
36.9969
  0
VERTEX
  8
LAYER_2
 10
151.1263
 20
36.9969
  0
VERTEX
  8
LAYER_2
 10
150.7398
 20
36.4091
  0
SEQEND
  0
ENDBLK
  0
BLOCK
  8
LAYER_2
  2
AIGNBL02030013
 70
64
 10
0
 20
0
 30
0
  3
AIGNBL02030013
  0
POLYLINE
  8
LAYER_2
 40
0.05
 41
0.05
 66
1
 10
0
 20
0
 30
0
 70
1
  0
VERTEX
  8
LAYER_2
 10
152.0314
 20
36.9969
  0
VERTEX
  8
LAYER_2
 10
152.339
 20
36.9969
  0
VERTEX
  8
LAYER_2
 10
152.4575
 20
36.9845
  0
VERTEX
  8
LAYER_2
 10
152.5643
 20
36.9421
  0
VERTEX
  8
LAYER_2
 10
152.6422
 20
36.8611
  0
VERTEX
  8
LAYER_2
 10
152.6718
 20
36.733
 42
-0.1790346201
  0
VERTEX
  8
LAYER_2
 10
152.6219
 20
36.5907
 42
-0.1642933266
  0
VERTEX
  8
LAYER_2
 10
152.4885
 20
36.5111
  0
VERTEX
  8
LAYER_2
 10
152.4885
 20
36.5084
 42
-0.1735805246
  0
VERTEX
  8
LAYER_2
 10
152.6553
 20
36.4302
 42
-0.1921994171
  0
VERTEX
  8
LAYER_2
 10
152.7214
 20
36.2496
  0
VERTEX
  8
LAYER_2
 10
152.6942
 20
36.1325
  0
VERTEX
  8
LAYER_2
 10
152.6181
 20
36.0419
  0
VERTEX
  8
LAYER_2
 10
152.4972
 20
35.9844
  0
VERTEX
  8
LAYER_2
 10
152.3373
 20
35.9637
  0
VERTEX
  8
LAYER_2
 10
152.0314
 20
35.9637
  0
SEQEND
  0
POLYLINE
  8
LAYER_2
 40
0.05
 41
0.05
 66
1
 10
0
 20
0
 30
0
 70
1
  0
VERTEX
  8
LAYER_2
 10
152.1364
 20
36.5445
  0
VERTEX
  8
LAYER_2
 10
152.348
 20
36.5445
  0
VERTEX
  8
LAYER_2
 10
152.4248
 20
36.5535
  0
VERTEX
  8
LAYER_2
 10
152.4951
 20
36.5831
  0
VERTEX
  8
LAYER_2
 10
152.5471
 20
36.6396
  0
VERTEX
  8
LAYER_2
 10
152.5668
 20
36.7258
  0
VERTEX
  8
LAYER_2
 10
152.5471
 20
36.8095
  0
VERTEX
  8
LAYER_2
 10
152.494
 20
36.8656
  0
VERTEX
  8
LAYER_2
 10
152.4152
 20
36.897
  0
VERTEX
  8
LAYER_2
 10
152.3187
 20
36.9066
  0
VERTEX
  8
LAYER_2
 10
152.1364
 20
36.9066
  0
SEQEND
  0
POLYLINE
  8
LAYER_2
 40
0.05
 41
0.05
 66
1
 10
0
 20
0
 30
0
 70
1
  0
VERTEX
  8
LAYER_2
 10
152.1364
 20
36.0543
  0
VERTEX
  8
LAYER_2
 10
152.3321
 20
36.0543
  0
VERTEX
  8
LAYER_2
 10
152.4406
 20
36.0653
  0
VERTEX
  8
LAYER_2
 10
152.5313
 20
36.1001
  0
VERTEX
  8
LAYER_2
 10
152.5929
 20
36.1632
  0
VERTEX
  8
LAYER_2
 10
152.6164
 20
36.2559
 42
0.2557371221
  0
VERTEX
  8
LAYER_2
 10
152.5471
 20
36.4081
 42
0.1381508151
  0
VERTEX
  8
LAYER_2
 10
152.3511
 20
36.4584
  0
VERTEX
  8
LAYER_2
 10
152.1364
 20
36.4584
  0
SEQEND
  0
ENDBLK
  0
BLOCK
  8
LAYER_2
  2
AIGNBL02030014
 70
64
 10
0
 20
0
 30
0
  3
AIGNBL02030014
  0
POLYLINE
  8
LAYER_2
 40
0.05
 41
0.05
 66
1
 10
0
 20
0
 30
0
 70
1
  0
VERTEX
  8
LAYER_2
 10
153.1534
 20
35.9637
  0
VERTEX
  8
LAYER_2
 10
153.038
 20
35.9637
  0
VERTEX
  8
LAYER_2
 10
153.4849
 20
36.9969
  0
VERTEX
  8
LAYER_2
 10
153.5872
 20
36.9969
  0
VERTEX
  8
LAYER_2
 10
154.0306
 20
35.9637
  0
VERTEX
  8
LAYER_2
 10
153.9138
 20
35.9637
  0
VERTEX
  8
LAYER_2
 10
153.7997
 20
36.2352
  0
VERTEX
  8
LAYER_2
 10
153.2657
 20
36.2352
  0
SEQEND
  0
POLYLINE
  8
LAYER_2
 40
0.05
 41
0.05
 66
1
 10
0
 20
0
 30
0
 70
1
  0
VERTEX
  8
LAYER_2
 10
153.305
 20
36.3316
  0
VERTEX
  8
LAYER_2
 10
153.7604
 20
36.3316
  0
VERTEX
  8
LAYER_2
 10
153.5327
 20
36.8804
  0
SEQEND
  0
ENDBLK
  0
BLOCK
  8
LAYER_2
  2
AIGNBL02030015
 70
64
 10
0
 20
0
 30
0
  3
AIGNBL02030015
  0
POLYLINE
  8
LAYER_2
 40
0.05
 41
0.05
 66
1
 10
0
 20
0
 30
0
 70
1
  0
VERTEX
  8
LAYER_2
 10
154.7151
 20
35.9637
  0
VERTEX
  8
LAYER_2
 10
154.61
 20
35.9637
  0
VERTEX
  8
LAYER_2
 10
154.61
 20
36.9035
  0
VERTEX
  8
LAYER_2
 10
154.2638
 20
36.9035
  0
VERTEX
  8
LAYER_2
 10
154.2638
 20
36.9969
  0
VERTEX
  8
LAYER_2
 10
155.0606
 20
36.9969
  0
VERTEX
  8
LAYER_2
 10
155.0606
 20
36.9035
  0
VERTEX
  8
LAYER_2
 10
154.7151
 20
36.9035
  0
SEQEND
  0
ENDBLK
  0
BLOCK
  8
LAYER_2
  2
AIGNBL02030016
 70
64
 10
0
 20
0
 30
0
  3
AIGNBL02030016
  0
POLYLINE
  8
LAYER_2
 40
0.05
 41
0.05
 66
1
 10
0
 20
0
 30
0
 70
1
  0
VERTEX
  8
LAYER_2
 10
155.4169
 20
36.9969
  0
VERTEX
  8
LAYER_2
 10
155.5216
 20
36.9969
  0
VERTEX
  8
LAYER_2
 10
155.5216
 20
36.549
  0
VERTEX
  8
LAYER_2
 10
156.0852
 20
36.549
  0
VERTEX
  8
LAYER_2
 10
156.0852
 20
36.9969
  0
VERTEX
  8
LAYER_2
 10
156.1903
 20
36.9969
  0
VERTEX
  8
LAYER_2
 10
156.1903
 20
35.9637
  0
VERTEX
  8
LAYER_2
 10
156.0852
 20
35.9637
  0
VERTEX
  8
LAYER_2
 10
156.0852
 20
36.4529
  0
VERTEX
  8
LAYER_2
 10
155.5216
 20
36.4529
  0
VERTEX
  8
LAYER_2
 10
155.5216
 20
35.9637
  0
VERTEX
  8
LAYER_2
 10
155.4169
 20
35.9637
  0
SEQEND
  0
ENDBLK
  0
BLOCK
  8
LAYER_2
  2
AIGNBL02030017
 70
64
 10
0
 20
0
 30
0
  3
AIGNBL02030017
  0
POLYLINE
  8
LAYER_2
 40
0.05
 41
0.05
 66
1
 10
0
 20
0
 30
0
 70
1
  0
VERTEX
  8
LAYER_2
 10
156.7708
 20
35.9637
  0
VERTEX
  8
LAYER_2
 10
156.6657
 20
35.9637
  0
VERTEX
  8
LAYER_2
 10
156.6657
 20
36.9969
  0
VERTEX
  8
LAYER_2
 10
156.9696
 20
36.9969
  0
VERTEX
  8
LAYER_2
 10
157.1101
 20
36.9824
  0
VERTEX
  8
LAYER_2
 10
157.2228
 20
36.9349
  0
VERTEX
  8
LAYER_2
 10
157.2962
 20
36.8494
  0
VERTEX
  8
LAYER_2
 10
157.3223
 20
36.7213
  0
VERTEX
  8
LAYER_2
 10
157.3024
 20
36.6176
  0
VERTEX
  8
LAYER_2
 10
157.2469
 20
36.5366
  0
VERTEX
  8
LAYER_2
 10
157.1635
 20
36.4818
  0
VERTEX
  8
LAYER_2
 10
157.0585
 20
36.4557
  0
VERTEX
  8
LAYER_2
 10
157.3606
 20
35.9637
  0
VERTEX
  8
LAYER_2
 10
157.2321
 20
35.9637
  0
VERTEX
  8
LAYER_2
 10
156.9461
 20
36.4467
  0
VERTEX
  8
LAYER_2
 10
156.7708
 20
36.4467
  0
SEQEND
  0
POLYLINE
  8
LAYER_2
 40
0.05
 41
0.05
 66
1
 10
0
 20
0
 30
0
 70
1
  0
VERTEX
  8
LAYER_2
 10
156.7708
 20
36.5373
  0
VERTEX
  8
LAYER_2
 10
156.9534
 20
36.5373
 42
0.165389034
  0
VERTEX
  8
LAYER_2
 10
157.1491
 20
36.5831
 42
0.2500512188
  0
VERTEX
  8
LAYER_2
 10
157.2176
 20
36.7213
  0
VERTEX
  8
LAYER_2
 10
157.1983
 20
36.8071
  0
VERTEX
  8
LAYER_2
 10
157.146
 20
36.8643
  0
VERTEX
  8
LAYER_2
 10
157.0643
 20
36.8963
  0
VERTEX
  8
LAYER_2
 10
156.9578
 20
36.9066
  0
VERTEX
  8
LAYER_2
 10
156.7708
 20
36.9066
  0
SEQEND
  0
ENDBLK
  0
BLOCK
  8
LAYER_2
  2
AIGNBL02030018
 70
64
 10
0
 20
0
 30
0
  3
AIGNBL02030018
  0
POLYLINE
  8
LAYER_2
 40
0.05
 41
0.05
 66
1
 10
0
 20
0
 30
0
 70
1
  0
VERTEX
  8
LAYER_2
 10
158.7627
 20
36.4805
 42
-0.1007216321
  0
VERTEX
  8
LAYER_2
 10
158.7221
 20
36.2631
 42
-0.1006914115
  0
VERTEX
  8
LAYER_2
 10
158.6087
 20
36.0915
 42
-0.09598545762
  0
VERTEX
  8
LAYER_2
 10
158.4382
 20
35.9785
 42
-0.09506675375
  0
VERTEX
  8
LAYER_2
 10
158.2243
 20
35.9375
 42
-0.1012083438
  0
VERTEX
  8
LAYER_2
 10
158.0103
 20
35.9785
 42
-0.1000476754
  0
VERTEX
  8
LAYER_2
 10
157.8398
 20
36.0915
 42
-0.09637642458
  0
VERTEX
  8
LAYER_2
 10
157.7268
 20
36.2631
 42
-0.09293305267
  0
VERTEX
  8
LAYER_2
 10
157.6862
 20
36.4805
 42
-0.1024980643
  0
VERTEX
  8
LAYER_2
 10
157.7268
 20
36.6978
 42
-0.101511181
  0
VERTEX
  8
LAYER_2
 10
157.8398
 20
36.8694
 42
-0.09563682649
  0
VERTEX
  8
LAYER_2
 10
158.0103
 20
36.9824
 42
-0.09502028874
  0
VERTEX
  8
LAYER_2
 10
158.2243
 20
37.0234
 42
-0.101175466
  0
VERTEX
  8
LAYER_2
 10
158.4382
 20
36.9824
 42
-0.1020868526
  0
VERTEX
  8
LAYER_2
 10
158.6087
 20
36.8694
 42
-0.09463764759
  0
VERTEX
  8
LAYER_2
 10
158.7221
 20
36.6978
 42
-0.09279149058
  0
SEQEND
  0
POLYLINE
  8
LAYER_2
 40
0.05
 41
0.05
 66
1
 10
0
 20
0
 30
0
 70
1
  0
VERTEX
  8
LAYER_2
 10
158.6518
 20
36.4798
  0
VERTEX
  8
LAYER_2
 10
158.6225
 20
36.6517
  0
VERTEX
  8
LAYER_2
 10
158.5378
 20
36.795
  0
VERTEX
  8
LAYER_2
 10
158.4031
 20
36.8932
  0
VERTEX
  8
LAYER_2
 10
158.2243
 20
36.93
  0
VERTEX
  8
LAYER_2
 10
158.0455
 20
36.8932
  0
VERTEX
  8
LAYER_2
 10
157.9104
 20
36.795
  0
VERTEX
  8
LAYER_2
 10
157.8257
 20
36.6517
  0
VERTEX
  8
LAYER_2
 10
157.7968
 20
36.4798
  0
VERTEX
  8
LAYER_2
 10
157.8257
 20
36.3079
  0
VERTEX
  8
LAYER_2
 10
157.9104
 20
36.1649
  0
VERTEX
  8
LAYER_2
 10
158.0455
 20
36.0674
 42
0.1008280473
  0
VERTEX
  8
LAYER_2
 10
158.2243
 20
36.0309
  0
VERTEX
  8
LAYER_2
 10
158.4031
 20
36.0674
  0
VERTEX
  8
LAYER_2
 10
158.5378
 20
36.1649
  0
VERTEX
  8
LAYER_2
 10
158.6225
 20
36.3079
  0
SEQEND
  0
ENDBLK
  0
BLOCK
  8
LAYER_2
  2
AIGNBL02030019
 70
64
 10
0
 20
0
 30
0
  3
AIGNBL02030019
  0
POLYLINE
  8
LAYER_2
 40
0.05
 41
0.05
 66
1
 10
0
 20
0
 30
0
 70
1
  0
VERTEX
  8
LAYER_2
 10
160.2045
 20
36.4805
 42
-0.1041417444
  0
VERTEX
  8
LAYER_2
 10
160.1635
 20
36.2631
 42
-0.09974098701
  0
VERTEX
  8
LAYER_2
 10
160.0509
 20
36.0915
 42
-0.09536265516
  0
VERTEX
  8
LAYER_2
 10
159.88
 20
35.9785
 42
-0.09506675375
  0
VERTEX
  8
LAYER_2
 10
159.6661
 20
35.9375
 42
-0.1018653774
  0
VERTEX
  8
LAYER_2
 10
159.4524
 20
35.9785
 42
-0.1019766254
  0
VERTEX
  8
LAYER_2
 10
159.2816
 20
36.0915
 42
-0.09463339148
  0
VERTEX
  8
LAYER_2
 10
159.1682
 20
36.2631
 42
-0.09293305267
  0
VERTEX
  8
LAYER_2
 10
159.1276
 20
36.4805
 42
-0.1024980643
  0
VERTEX
  8
LAYER_2
 10
159.1682
 20
36.6978
 42
-0.1011981835
  0
VERTEX
  8
LAYER_2
 10
159.2816
 20
36.8694
 42
-0.09612009159
  0
VERTEX
  8
LAYER_2
 10
159.4524
 20
36.9824
 42
-0.09524800311
  0
VERTEX
  8
LAYER_2
 10
159.6661
 20
37.0234
 42
-0.101175466
  0
VERTEX
  8
LAYER_2
 10
159.88
 20
36.9824
 42
-0.09853409661
  0
VERTEX
  8
LAYER_2
 10
160.0509
 20
36.8694
 42
-0.09555545285
  0
VERTEX
  8
LAYER_2
 10
160.1635
 20
36.6978
 42
-0.09400765476
  0
SEQEND
  0
POLYLINE
  8
LAYER_2
 40
0.05
 41
0.05
 66
1
 10
0
 20
0
 30
0
 70
1
  0
VERTEX
  8
LAYER_2
 10
160.0936
 20
36.4798
  0
VERTEX
  8
LAYER_2
 10
160.0647
 20
36.6517
  0
VERTEX
  8
LAYER_2
 10
159.9799
 20
36.795
  0
VERTEX
  8
LAYER_2
 10
159.8448
 20
36.8932
  0
VERTEX
  8
LAYER_2
 10
159.6661
 20
36.93
  0
VERTEX
  8
LAYER_2
 10
159.4872
 20
36.8932
  0
VERTEX
  8
LAYER_2
 10
159.3525
 20
36.795
  0
VERTEX
  8
LAYER_2
 10
159.2678
 20
36.6517
  0
VERTEX
  8
LAYER_2
 10
159.2385
 20
36.4798
  0
VERTEX
  8
LAYER_2
 10
159.2678
 20
36.3079
  0
VERTEX
  8
LAYER_2
 10
159.3525
 20
36.1649
  0
VERTEX
  8
LAYER_2
 10
159.4872
 20
36.0674
  0
VERTEX
  8
LAYER_2
 10
159.6661
 20
36.0309
  0
VERTEX
  8
LAYER_2
 10
159.8448
 20
36.0674
  0
VERTEX
  8
LAYER_2
 10
159.9799
 20
36.1649
  0
VERTEX
  8
LAYER_2
 10
160.0647
 20
36.3079
  0
SEQEND
  0
ENDBLK
  0
BLOCK
  8
LAYER_2
  2
AIGNBL0203001A
 70
64
 10
0
 20
0
 30
0
  3
AIGNBL0203001A
  0
POLYLINE
  8
LAYER_2
 40
0.05
 41
0.05
 66
1
 10
0
 20
0
 30
0
 70
1
  0
VERTEX
  8
LAYER_2
 10
161.1354
 20
36.1418
  0
VERTEX
  8
LAYER_2
 10
161.1371
 20
36.1418
  0
VERTEX
  8
LAYER_2
 10
161.4826
 20
36.9969
  0
VERTEX
  8
LAYER_2
 10
161.6435
 20
36.9969
  0
VERTEX
  8
LAYER_2
 10
161.6435
 20
35.9637
  0
VERTEX
  8
LAYER_2
 10
161.5381
 20
35.9637
  0
VERTEX
  8
LAYER_2
 10
161.5381
 20
36.8611
  0
VERTEX
  8
LAYER_2
 10
161.5354
 20
36.8611
  0
VERTEX
  8
LAYER_2
 10
161.1619
 20
35.9637
  0
VERTEX
  8
LAYER_2
 10
161.1064
 20
35.9637
  0
VERTEX
  8
LAYER_2
 10
160.7326
 20
36.8611
  0
VERTEX
  8
LAYER_2
 10
160.7299
 20
36.8611
  0
VERTEX
  8
LAYER_2
 10
160.7299
 20
35.9637
  0
VERTEX
  8
LAYER_2
 10
160.6248
 20
35.9637
  0
VERTEX
  8
LAYER_2
 10
160.6248
 20
36.9969
  0
VERTEX
  8
LAYER_2
 10
160.7853
 20
36.9969
  0
SEQEND
  0
ENDBLK
  0
BLOCK
  8
LAYER_2
  2
AIGNBL0203001B
 70
64
 10
0
 20
0
 30
0
  3
AIGNBL0203001B
  0
POLYLINE
  8
LAYER_2
 40
0.05
 41
0.05
 66
1
 10
0
 20
0
 30
0
 70
1
  0
VERTEX
  8
LAYER_2
 10
162.79
 20
36.0574
  0
VERTEX
  8
LAYER_2
 10
163.3433
 20
36.0574
  0
VERTEX
  8
LAYER_2
 10
163.3433
 20
35.9637
  0
VERTEX
  8
LAYER_2
 10
162.685
 20
35.9637
  0
VERTEX
  8
LAYER_2
 10
162.685
 20
36.9969
  0
VERTEX
  8
LAYER_2
 10
163.3258
 20
36.9969
  0
VERTEX
  8
LAYER_2
 10
163.3258
 20
36.9035
  0
VERTEX
  8
LAYER_2
 10
162.79
 20
36.9035
  0
VERTEX
  8
LAYER_2
 10
162.79
 20
36.549
  0
VERTEX
  8
LAYER_2
 10
163.2906
 20
36.549
  0
VERTEX
  8
LAYER_2
 10
163.2906
 20
36.4557
  0
VERTEX
  8
LAYER_2
 10
162.79
 20
36.4557
  0
SEQEND
  0
ENDBLK
  0
BLOCK
  8
LAYER_2
  2
AIGNBL0203001C
 70
64
 10
0
 20
0
 30
0
  3
AIGNBL0203001C
  0
POLYLINE
  8
LAYER_2
 40
0.05
 41
0.05
 66
1
 10
0
 20
0
 30
0
 70
1
  0
VERTEX
  8
LAYER_2
 10
164.0885
 20
36.5797
  0
VERTEX
  8
LAYER_2
 10
164.3707
 20
36.9969
  0
VERTEX
  8
LAYER_2
 10
164.4957
 20
36.9969
  0
VERTEX
  8
LAYER_2
 10
164.1533
 20
36.5053
  0
VERTEX
  8
LAYER_2
 10
164.5326
 20
35.9637
  0
VERTEX
  8
LAYER_2
 10
164.4013
 20
35.9637
  0
VERTEX
  8
LAYER_2
 10
164.0858
 20
36.4295
  0
VERTEX
  8
LAYER_2
 10
163.7722
 20
35.9637
  0
VERTEX
  8
LAYER_2
 10
163.6407
 20
35.9637
  0
VERTEX
  8
LAYER_2
 10
164.0203
 20
36.5066
  0
VERTEX
  8
LAYER_2
 10
163.6744
 20
36.9969
  0
VERTEX
  8
LAYER_2
 10
163.806
 20
36.9969
  0
SEQEND
  0
ENDBLK
  0
BLOCK
  8
LAYER_2
  2
AIGNBL0203001D
 70
64
 10
0
 20
0
 30
0
  3
AIGNBL0203001D
  0
POLYLINE
  8
LAYER_2
 40
0.05
 41
0.05
 66
1
 10
0
 20
0
 30
0
 70
1
  0
VERTEX
  8
LAYER_2
 10
164.8988
 20
36.9969
  0
VERTEX
  8
LAYER_2
 10
165.1909
 20
36.9969
  0
VERTEX
  8
LAYER_2
 10
165.3339
 20
36.9804
  0
VERTEX
  8
LAYER_2
 10
165.4438
 20
36.929
  0
VERTEX
  8
LAYER_2
 10
165.5148
 20
36.8429
  0
VERTEX
  8
LAYER_2
 10
165.5392
 20
36.7213
  0
VERTEX
  8
LAYER_2
 10
165.5141
 20
36.5993
  0
VERTEX
  8
LAYER_2
 10
165.4424
 20
36.5132
  0
VERTEX
  8
LAYER_2
 10
165.3315
 20
36.4615
  0
VERTEX
  8
LAYER_2
 10
165.1878
 20
36.444
  0
VERTEX
  8
LAYER_2
 10
165.0039
 20
36.444
  0
VERTEX
  8
LAYER_2
 10
165.0039
 20
35.9637
  0
VERTEX
  8
LAYER_2
 10
164.8988
 20
35.9637
  0
SEQEND
  0
POLYLINE
  8
LAYER_2
 40
0.05
 41
0.05
 66
1
 10
0
 20
0
 30
0
 70
1
  0
VERTEX
  8
LAYER_2
 10
165.0039
 20
36.5328
  0
VERTEX
  8
LAYER_2
 10
165.1816
 20
36.5328
 42
0.1829732243
  0
VERTEX
  8
LAYER_2
 10
165.3701
 20
36.581
 42
0.2345943979
  0
VERTEX
  8
LAYER_2
 10
165.4345
 20
36.7213
 42
0.26486771
  0
VERTEX
  8
LAYER_2
 10
165.368
 20
36.8622
 42
0.126412566
  0
VERTEX
  8
LAYER_2
 10
165.1816
 20
36.9066
  0
VERTEX
  8
LAYER_2
 10
165.0039
 20
36.9066
  0
SEQEND
  0
ENDBLK
  0
BLOCK
  8
LAYER_2
  2
AIGNBL0203001E
 70
64
 10
0
 20
0
 30
0
  3
AIGNBL0203001E
  0
POLYLINE
  8
LAYER_2
 40
0.05
 41
0.05
 66
1
 10
0
 20
0
 30
0
 70
1
  0
VERTEX
  8
LAYER_2
 10
166.0515
 20
36.0574
  0
VERTEX
  8
LAYER_2
 10
166.6048
 20
36.0574
  0
VERTEX
  8
LAYER_2
 10
166.6048
 20
35.9637
  0
VERTEX
  8
LAYER_2
 10
165.9465
 20
35.9637
  0
VERTEX
  8
LAYER_2
 10
165.9465
 20
36.9969
  0
VERTEX
  8
LAYER_2
 10
166.5872
 20
36.9969
  0
VERTEX
  8
LAYER_2
 10
166.5872
 20
36.9035
  0
VERTEX
  8
LAYER_2
 10
166.0515
 20
36.9035
  0
VERTEX
  8
LAYER_2
 10
166.0515
 20
36.549
  0
VERTEX
  8
LAYER_2
 10
166.5521
 20
36.549
  0
VERTEX
  8
LAYER_2
 10
166.5521
 20
36.4557
  0
VERTEX
  8
LAYER_2
 10
166.0515
 20
36.4557
  0
SEQEND
  0
ENDBLK
  0
BLOCK
  8
LAYER_2
  2
AIGNBL0203001F
 70
64
 10
0
 20
0
 30
0
  3
AIGNBL0203001F
  0
POLYLINE
  8
LAYER_2
 40
0.05
 41
0.05
 66
1
 10
0
 20
0
 30
0
 70
1
  0
VERTEX
  8
LAYER_2
 10
167.1168
 20
35.9637
  0
VERTEX
  8
LAYER_2
 10
167.0117
 20
35.9637
  0
VERTEX
  8
LAYER_2
 10
167.0117
 20
36.9969
  0
VERTEX
  8
LAYER_2
 10
167.3155
 20
36.9969
  0
VERTEX
  8
LAYER_2
 10
167.4561
 20
36.9824
  0
VERTEX
  8
LAYER_2
 10
167.5687
 20
36.9349
  0
VERTEX
  8
LAYER_2
 10
167.6425
 20
36.8494
  0
VERTEX
  8
LAYER_2
 10
167.6683
 20
36.7213
  0
VERTEX
  8
LAYER_2
 10
167.6483
 20
36.6176
  0
VERTEX
  8
LAYER_2
 10
167.5929
 20
36.5366
  0
VERTEX
  8
LAYER_2
 10
167.5095
 20
36.4818
  0
VERTEX
  8
LAYER_2
 10
167.4044
 20
36.4557
  0
VERTEX
  8
LAYER_2
 10
167.7066
 20
35.9637
  0
VERTEX
  8
LAYER_2
 10
167.578
 20
35.9637
  0
VERTEX
  8
LAYER_2
 10
167.2921
 20
36.4467
  0
VERTEX
  8
LAYER_2
 10
167.1168
 20
36.4467
  0
SEQEND
  0
POLYLINE
  8
LAYER_2
 40
0.05
 41
0.05
 66
1
 10
0
 20
0
 30
0
 70
1
  0
VERTEX
  8
LAYER_2
 10
167.1168
 20
36.5373
  0
VERTEX
  8
LAYER_2
 10
167.2994
 20
36.5373
 42
0.1667243505
  0
VERTEX
  8
LAYER_2
 10
167.495
 20
36.5831
 42
0.2503949893
  0
VERTEX
  8
LAYER_2
 10
167.5636
 20
36.7213
  0
VERTEX
  8
LAYER_2
 10
167.5446
 20
36.8071
  0
VERTEX
  8
LAYER_2
 10
167.4919
 20
36.8643
  0
VERTEX
  8
LAYER_2
 10
167.4103
 20
36.8963
  0
VERTEX
  8
LAYER_2
 10
167.3038
 20
36.9066
  0
VERTEX
  8
LAYER_2
 10
167.1168
 20
36.9066
  0
SEQEND
  0
ENDBLK
  0
BLOCK
  8
LAYER_2
  2
AIGNBL02030020
 70
64
 10
0
 20
0
 30
0
  3
AIGNBL02030020
  0
POLYLINE
  8
LAYER_2
 40
0.05
 41
0.05
 66
1
 10
0
 20
0
 30
0
 70
1
  0
VERTEX
  8
LAYER_2
 10
168.1923
 20
35.9637
  0
VERTEX
  8
LAYER_2
 10
168.0876
 20
35.9637
  0
VERTEX
  8
LAYER_2
 10
168.0876
 20
36.9969
  0
VERTEX
  8
LAYER_2
 10
168.1923
 20
36.9969
  0
SEQEND
  0
ENDBLK
  0
BLOCK
  8
LAYER_2
  2
AIGNBL02030021
 70
64
 10
0
 20
0
 30
0
  3
AIGNBL02030021
  0
POLYLINE
  8
LAYER_2
 40
0.05
 41
0.05
 66
1
 10
0
 20
0
 30
0
 70
1
  0
VERTEX
  8
LAYER_2
 10
168.7732
 20
36.0574
  0
VERTEX
  8
LAYER_2
 10
169.3261
 20
36.0574
  0
VERTEX
  8
LAYER_2
 10
169.3261
 20
35.9637
  0
VERTEX
  8
LAYER_2
 10
168.6681
 20
35.9637
  0
VERTEX
  8
LAYER_2
 10
168.6681
 20
36.9969
  0
VERTEX
  8
LAYER_2
 10
169.3089
 20
36.9969
  0
VERTEX
  8
LAYER_2
 10
169.3089
 20
36.9035
  0
VERTEX
  8
LAYER_2
 10
168.7732
 20
36.9035
  0
VERTEX
  8
LAYER_2
 10
168.7732
 20
36.549
  0
VERTEX
  8
LAYER_2
 10
169.2737
 20
36.549
  0
VERTEX
  8
LAYER_2
 10
169.2737
 20
36.4557
  0
VERTEX
  8
LAYER_2
 10
168.7732
 20
36.4557
  0
SEQEND
  0
ENDBLK
  0
BLOCK
  8
LAYER_2
  2
AIGNBL02030022
 70
64
 10
0
 20
0
 30
0
  3
AIGNBL02030022
  0
POLYLINE
  8
LAYER_2
 40
0.05
 41
0.05
 66
1
 10
0
 20
0
 30
0
 70
1
  0
VERTEX
  8
LAYER_2
 10
170.4661
 20
36.117
  0
VERTEX
  8
LAYER_2
 10
170.4689
 20
36.117
  0
VERTEX
  8
LAYER_2
 10
170.4689
 20
36.9969
  0
VERTEX
  8
LAYER_2
 10
170.5739
 20
36.9969
  0
VERTEX
  8
LAYER_2
 10
170.5739
 20
35.9637
  0
VERTEX
  8
LAYER_2
 10
170.4426
 20
35.9637
  0
VERTEX
  8
LAYER_2
 10
169.8415
 20
36.8525
  0
VERTEX
  8
LAYER_2
 10
169.8384
 20
36.8525
  0
VERTEX
  8
LAYER_2
 10
169.8384
 20
35.9637
  0
VERTEX
  8
LAYER_2
 10
169.7333
 20
35.9637
  0
VERTEX
  8
LAYER_2
 10
169.7333
 20
36.9969
  0
VERTEX
  8
LAYER_2
 10
169.8649
 20
36.9969
  0
SEQEND
  0
ENDBLK
  0
BLOCK
  8
LAYER_2
  2
AIGNBL02030023
 70
64
 10
0
 20
0
 30
0
  3
AIGNBL02030023
  0
POLYLINE
  8
LAYER_2
 40
0.05
 41
0.05
 66
1
 10
0
 20
0
 30
0
 70
1
  0
VERTEX
  8
LAYER_2
 10
171.9196
 20
36.1315
  0
VERTEX
  8
LAYER_2
 10
171.8558
 20
36.0571
  0
VERTEX
  8
LAYER_2
 10
171.7697
 20
35.9954
  0
VERTEX
  8
LAYER_2
 10
171.6615
 20
35.953
  0
VERTEX
  8
LAYER_2
 10
171.5327
 20
35.9375
 42
-0.1011939289
  0
VERTEX
  8
LAYER_2
 10
171.3167
 20
35.9785
 42
-0.1032846426
  0
VERTEX
  8
LAYER_2
 10
171.1461
 20
36.0915
 42
-0.0974858305
  0
VERTEX
  8
LAYER_2
 10
171.0345
 20
36.2631
 42
-0.09232404316
  0
VERTEX
  8
LAYER_2
 10
170.9942
 20
36.4805
 42
-0.1041003847
  0
VERTEX
  8
LAYER_2
 10
171.0352
 20
36.6978
 42
-0.1005616574
  0
VERTEX
  8
LAYER_2
 10
171.1479
 20
36.8694
 42
-0.09522588778
  0
VERTEX
  8
LAYER_2
 10
171.3187
 20
36.9824
 42
-0.09501991035
  0
VERTEX
  8
LAYER_2
 10
171.5327
 20
37.0234
  0
VERTEX
  8
LAYER_2
 10
171.6443
 20
37.0114
  0
VERTEX
  8
LAYER_2
 10
171.7473
 20
36.9779
  0
VERTEX
  8
LAYER_2
 10
171.8348
 20
36.9263
  0
VERTEX
  8
LAYER_2
 10
171.9006
 20
36.8584
  0
VERTEX
  8
LAYER_2
 10
171.8131
 20
36.794
  0
VERTEX
  8
LAYER_2
 10
171.7697
 20
36.8439
  0
VERTEX
  8
LAYER_2
 10
171.7063
 20
36.8877
  0
VERTEX
  8
LAYER_2
 10
171.6267
 20
36.9183
  0
VERTEX
  8
LAYER_2
 10
171.5341
 20
36.93
  0
VERTEX
  8
LAYER_2
 10
171.3539
 20
36.8935
  0
VERTEX
  8
LAYER_2
 10
171.2188
 20
36.7954
  0
VERTEX
  8
LAYER_2
 10
171.1341
 20
36.652
  0
VERTEX
  8
LAYER_2
 10
171.1052
 20
36.4805
  0
VERTEX
  8
LAYER_2
 10
171.1351
 20
36.3089
  0
VERTEX
  8
LAYER_2
 10
171.2205
 20
36.1656
  0
VERTEX
  8
LAYER_2
 10
171.3556
 20
36.0674
 42
0.100995487
  0
VERTEX
  8
LAYER_2
 10
171.5341
 20
36.0309
  0
VERTEX
  8
LAYER_2
 10
171.7032
 20
36.0674
 42
0.1321059012
  0
VERTEX
  8
LAYER_2
 10
171.8376
 20
36.1842
  0
SEQEND
  0
ENDBLK
  0
BLOCK
  8
LAYER_2
  2
AIGNBL02030024
 70
64
 10
0
 20
0
 30
0
  3
AIGNBL02030024
  0
POLYLINE
  8
LAYER_2
 40
0.05
 41
0.05
 66
1
 10
0
 20
0
 30
0
 70
1
  0
VERTEX
  8
LAYER_2
 10
172.4067
 20
36.0574
  0
VERTEX
  8
LAYER_2
 10
172.96
 20
36.0574
  0
VERTEX
  8
LAYER_2
 10
172.96
 20
35.9637
  0
VERTEX
  8
LAYER_2
 10
172.3016
 20
35.9637
  0
VERTEX
  8
LAYER_2
 10
172.3016
 20
36.9969
  0
VERTEX
  8
LAYER_2
 10
172.9424
 20
36.9969
  0
VERTEX
  8
LAYER_2
 10
172.9424
 20
36.9035
  0
VERTEX
  8
LAYER_2
 10
172.4067
 20
36.9035
  0
VERTEX
  8
LAYER_2
 10
172.4067
 20
36.549
  0
VERTEX
  8
LAYER_2
 10
172.9073
 20
36.549
  0
VERTEX
  8
LAYER_2
 10
172.9073
 20
36.4557
  0
VERTEX
  8
LAYER_2
 10
172.4067
 20
36.4557
  0
SEQEND
  0
ENDBLK
  0
BLOCK
  8
LAYER_1
  2
AIGNBL01020108
 70
64
 10
0
 20
0
 30
0
  3
AIGNBL01020108
  0
CIRCLE
  8
LAYER_1
 10
159.1641
 20
111.9433
 40
9.002
  0
ENDBLK
  0
BLOCK
  8
LAYER_1
  2
AIGNBL01020109
 70
64
 10
0
 20
0
 30
0
  3
AIGNBL01020109
  0
CIRCLE
  8
LAYER_1
 10
153.6203
 20
108.7426
 40
0.8002
  0
ENDBLK
  0
BLOCK
  8
LAYER_1
  2
AIGNBL0102010A
 70
64
 10
0
 20
0
 30
0
  3
AIGNBL0102010A
  0
CIRCLE
  8
LAYER_1
 10
159.1641
 20
111.9433
 40
1.4003
  0
ENDBLK
  0
BLOCK
  8
LAYER_1
  2
AIGNBL0102010B
 70
64
 10
0
 20
0
 30
0
  3
AIGNBL0102010B
  0
POLYLINE
  8
LAYER_1
 40
0.1058
 41
0.1058
 66
1
 10
0
 20
0
 30
0
  0
VERTEX
  8
LAYER_1
 10
161.5647
 20
113.5436
  0
VERTEX
  8
LAYER_1
 10
160.7645
 20
114.3438
  0
SEQEND
  0
ENDBLK
  0
BLOCK
  8
LAYER_1
  2
AIGNBL0102010C
 70
64
 10
0
 20
0
 30
0
  3
AIGNBL0102010C
  0
CIRCLE
  8
LAYER_1
 10
164.7079
 20
108.7426
 40
0.8002
  0
ENDBLK
  0
BLOCK
  8
LAYER_1
  2
AIGNBL0102010D
 70
64
 10
0
 20
0
 30
0
  3
AIGNBL0102010D
  0
CIRCLE
  8
LAYER_1
 10
159.1641
 20
118.3447
 40
0.8002
  0
ENDBLK
  0
BLOCK
  8
LAYER_1
  2
AIGNBL0102010E
 70
64
 10
0
 20
0
 30
0
  3
AIGNBL0102010E
  0
POLYLINE
  8
LAYER_1
 40
0.1058
 41
0.1058
 66
1
 10
0
 20
0
 30
0
  0
VERTEX
  8
LAYER_1
 10
160.0933
 20
114.287
  0
VERTEX
  8
LAYER_1
 10
162.9352
 20
116.5631
  0
SEQEND
  0
ENDBLK
  0
BLOCK
  8
LAYER_1
  2
AIGNBL0102010F
 70
64
 10
0
 20
0
 30
0
  3
AIGNBL0102010F
  0
POLYLINE
  8
LAYER_1
 40
0.1058
 41
0.1058
 66
1
 10
0
 20
0
 30
0
  0
VERTEX
  8
LAYER_1
 10
162.9352
 20
116.5631
  0
VERTEX
  8
LAYER_1
 10
163.784
 20
115.7144
  0
SEQEND
  0
ENDBLK
  0
BLOCK
  8
LAYER_1
  2
AIGNBL01020110
 70
64
 10
0
 20
0
 30
0
  3
AIGNBL01020110
  0
POLYLINE
  8
LAYER_1
 40
0.1058
 41
0.1058
 66
1
 10
0
 20
0
 30
0
  0
VERTEX
  8
LAYER_1
 10
163.784
 20
115.7144
  0
VERTEX
  8
LAYER_1
 10
161.5079
 20
112.8725
  0
SEQEND
  0
ENDBLK
  0
BLOCK
  8
LAYER_1
  2
AIGNBL01020111
 70
64
 10
0
 20
0
 30
0
  3
AIGNBL01020111
  0
CIRCLE
  8
LAYER_1
 10
159.1641
 20
111.9433
 40
1.4003
  0
ENDBLK
  0
BLOCK
  8
LAYER_1
  2
AIGNBL01020112
 70
64
 10
0
 20
0
 30
0
  3
AIGNBL01020112
  0
POLYLINE
  8
LAYER_1
 40
0.1058
 41
0.1058
 66
1
 10
0
 20
0
 30
0
  0
VERTEX
  8
LAYER_1
 10
159.667
 20
113.2948
  0
VERTEX
  8
LAYER_1
 10
159.8876
 20
113.8083
  0
SEQEND
  0
ENDBLK
  0
BLOCK
  8
LAYER_1
  2
AIGNBL01020113
 70
64
 10
0
 20
0
 30
0
  3
AIGNBL01020113
  0
POLYLINE
  8
LAYER_1
 40
0.1058
 41
0.1058
 66
1
 10
0
 20
0
 30
0
  0
VERTEX
  8
LAYER_1
 10
160.5157
 20
112.4461
  0
VERTEX
  8
LAYER_1
 10
161.0292
 20
112.6668
  0
SEQEND
  0
ENDBLK
  0
BLOCK
  8
LAYER_1
  2
AIGNBL01020114
 70
64
 10
0
 20
0
 30
0
  3
AIGNBL01020114
  0
POLYLINE
  8
LAYER_1
 40
0.1058
 41
0.1058
 66
1
 10
0
 20
0
 30
0
  0
VERTEX
  8
LAYER_1
 10
156.8204
 20
111.0141
  0
VERTEX
  8
LAYER_1
 10
154.5443
 20
108.1722
  0
SEQEND
  0
ENDBLK
  0
BLOCK
  8
LAYER_1
  2
AIGNBL01020115
 70
64
 10
0
 20
0
 30
0
  3
AIGNBL01020115
  0
POLYLINE
  8
LAYER_1
 40
0.1058
 41
0.1058
 66
1
 10
0
 20
0
 30
0
  0
VERTEX
  8
LAYER_1
 10
155.393
 20
107.3235
  0
VERTEX
  8
LAYER_1
 10
158.2349
 20
109.5996
  0
SEQEND
  0
ENDBLK
  0
BLOCK
  8
LAYER_1
  2
AIGNBL01020116
 70
64
 10
0
 20
0
 30
0
  3
AIGNBL01020116
  0
POLYLINE
  8
LAYER_1
 40
0.1058
 41
0.1058
 66
1
 10
0
 20
0
 30
0
  0
VERTEX
  8
LAYER_1
 10
157.8126
 20
111.4405
  0
VERTEX
  8
LAYER_1
 10
157.2991
 20
111.2198
  0
SEQEND
  0
ENDBLK
  0
BLOCK
  8
LAYER_1
  2
AIGNBL01020117
 70
64
 10
0
 20
0
 30
0
  3
AIGNBL01020117
  0
POLYLINE
  8
LAYER_1
 40
0.1058
 41
0.1058
 66
1
 10
0
 20
0
 30
0
  0
VERTEX
  8
LAYER_1
 10
158.6613
 20
110.5917
  0
VERTEX
  8
LAYER_1
 10
158.4407
 20
110.0783
  0
SEQEND
  0
ENDBLK
  0
BLOCK
  8
LAYER_1
  2
AIGNBL01020118
 70
64
 10
0
 20
0
 30
0
  3
AIGNBL01020118
  0
POLYLINE
  8
LAYER_1
 40
0.1058
 41
0.1058
 66
1
 10
0
 20
0
 30
0
  0
VERTEX
  8
LAYER_1
 10
160.0933
 20
114.287
 42
0.4142093534
  0
VERTEX
  8
LAYER_1
 10
156.8204
 20
112.8725
 42
0.1909987667
  0
VERTEX
  8
LAYER_1
 10
156.8204
 20
111.0141
  0
SEQEND
  0
ENDBLK
  0
BLOCK
  8
LAYER_1
  2
AIGNBL01020119
 70
64
 10
0
 20
0
 30
0
  3
AIGNBL01020119
  0
POLYLINE
  8
LAYER_1
 40
0.1058
 41
0.1058
 66
1
 10
0
 20
0
 30
0
  0
VERTEX
  8
LAYER_1
 10
158.2349
 20
109.5996
 42
0.414222053
  0
VERTEX
  8
LAYER_1
 10
161.5079
 20
111.0141
 42
0.1909970113
  0
VERTEX
  8
LAYER_1
 10
161.5079
 20
112.8725
  0
SEQEND
  0
ENDBLK
  0
BLOCK
  8
LAYER_1
  2
AIGNBL0102011A
 70
64
 10
0
 20
0
 30
0
  3
AIGNBL0102011A
  0
POLYLINE
  8
LAYER_1
 40
0.1058
 41
0.1058
 66
1
 10
0
 20
0
 30
0
  0
VERTEX
  8
LAYER_1
 10
159.8876
 20
113.8083
 42
0.4142082107
  0
VERTEX
  8
LAYER_1
 10
157.2991
 20
112.6668
 42
0.1871688573
  0
VERTEX
  8
LAYER_1
 10
157.2991
 20
111.2198
  0
SEQEND
  0
ENDBLK
  0
BLOCK
  8
LAYER_1
  2
AIGNBL0102011B
 70
64
 10
0
 20
0
 30
0
  3
AIGNBL0102011B
  0
POLYLINE
  8
LAYER_1
 40
0.1058
 41
0.1058
 66
1
 10
0
 20
0
 30
0
  0
VERTEX
  8
LAYER_1
 10
158.4407
 20
110.0783
 42
0.4142105589
  0
VERTEX
  8
LAYER_1
 10
161.0292
 20
111.2198
 42
0.1871666892
  0
VERTEX
  8
LAYER_1
 10
161.0292
 20
112.6668
  0
SEQEND
  0
ENDBLK
  0
BLOCK
  8
LAYER_1
  2
AIGNBL0102011C
 70
64
 10
0
 20
0
 30
0
  3
AIGNBL0102011C
  0
POLYLINE
  8
LAYER_1
 40
0.1058
 41
0.1058
 66
1
 10
0
 20
0
 30
0
  0
VERTEX
  8
LAYER_1
 10
154.5443
 20
108.1722
  0
VERTEX
  8
LAYER_1
 10
155.393
 20
107.3235
  0
SEQEND
  0
ENDBLK
  0
BLOCK
  8
LAYER_1
  2
AIGNBL0102011D
 70
64
 10
0
 20
0
 30
0
  3
AIGNBL0102011D
  0
POLYLINE
  8
LAYER_1
 40
0.1058
 41
0.1058
 66
1
 10
0
 20
0
 30
0
  0
VERTEX
  8
LAYER_1
 10
156.1635
 20
107.1422
  0
VERTEX
  8
LAYER_1
 10
156.1635
 20
107.8224
  0
SEQEND
  0
ENDBLK
  0
BLOCK
  8
LAYER_1
  2
AIGNBL0102011E
 70
64
 10
0
 20
0
 30
0
  3
AIGNBL0102011E
  0
POLYLINE
  8
LAYER_1
 40
0.1058
 41
0.1058
 66
1
 10
0
 20
0
 30
0
  0
VERTEX
  8
LAYER_1
 10
155.9634
 20
106.9422
  0
VERTEX
  8
LAYER_1
 10
155.9634
 20
116.9444
  0
SEQEND
  0
ENDBLK
  0
BLOCK
  8
LAYER_1
  2
AIGNBL0102011F
 70
64
 10
0
 20
0
 30
0
  3
AIGNBL0102011F
  0
CIRCLE
  8
LAYER_1
 10
159.1641
 20
111.9433
 40
1.7004
  0
ENDBLK
  0
BLOCK
  8
LAYER_1
  2
AIGNBL01020120
 70
64
 10
0
 20
0
 30
0
  3
AIGNBL01020120
  0
POLYLINE
  8
LAYER_1
 40
0.1058
 41
0.1058
 66
1
 10
0
 20
0
 30
0
  0
VERTEX
  8
LAYER_1
 10
178.178
 20
116.9444
 42
0.4142269184
  0
VERTEX
  8
LAYER_1
 10
177.7779
 20
117.3445
  0
SEQEND
  0
ENDBLK
  0
BLOCK
  8
LAYER_1
  2
AIGNBL01020121
 70
64
 10
0
 20
0
 30
0
  3
AIGNBL01020121
  0
POLYLINE
  8
LAYER_1
 40
0.1058
 41
0.1058
 66
1
 10
0
 20
0
 30
0
  0
VERTEX
  8
LAYER_1
 10
178.178
 20
116.9444
  0
VERTEX
  8
LAYER_1
 10
178.178
 20
106.9422
  0
SEQEND
  0
ENDBLK
  0
BLOCK
  8
LAYER_1
  2
AIGNBL01020122
 70
64
 10
0
 20
0
 30
0
  3
AIGNBL01020122
  0
POLYLINE
  8
LAYER_1
 40
0.1058
 41
0.1058
 66
1
 10
0
 20
0
 30
0
  0
VERTEX
  8
LAYER_1
 10
177.7779
 20
106.5421
 42
0.414243473
  0
VERTEX
  8
LAYER_1
 10
178.178
 20
106.9422
  0
SEQEND
  0
ENDBLK
  0
BLOCK
  8
LAYER_1
  2
AIGNBL01020123
 70
64
 10
0
 20
0
 30
0
  3
AIGNBL01020123
  0
POLYLINE
  8
LAYER_1
 40
0.1058
 41
0.1058
 66
1
 10
0
 20
0
 30
0
  0
VERTEX
  8
LAYER_1
 10
176.7684
 20
117.3445
 42
0.4141961947
  0
VERTEX
  8
LAYER_1
 10
176.3683
 20
116.9444
  0
SEQEND
  0
ENDBLK
  0
BLOCK
  8
LAYER_1
  2
AIGNBL01020124
 70
64
 10
0
 20
0
 30
0
  3
AIGNBL01020124
  0
POLYLINE
  8
LAYER_1
 40
0.1058
 41
0.1058
 66
1
 10
0
 20
0
 30
0
  0
VERTEX
  8
LAYER_1
 10
176.3683
 20
106.9422
 42
0.4142127454
  0
VERTEX
  8
LAYER_1
 10
176.7684
 20
106.5421
  0
SEQEND
  0
ENDBLK
  0
BLOCK
  8
LAYER_1
  2
AIGNBL01020125
 70
64
 10
0
 20
0
 30
0
  3
AIGNBL01020125
  0
POLYLINE
  8
LAYER_1
 40
0.1058
 41
0.1058
 66
1
 10
0
 20
0
 30
0
  0
VERTEX
  8
LAYER_1
 10
177.7779
 20
117.3445
  0
VERTEX
  8
LAYER_1
 10
176.7684
 20
117.3445
  0
SEQEND
  0
ENDBLK
  0
BLOCK
  8
LAYER_1
  2
AIGNBL01020126
 70
64
 10
0
 20
0
 30
0
  3
AIGNBL01020126
  0
POLYLINE
  8
LAYER_1
 40
0.1058
 41
0.1058
 66
1
 10
0
 20
0
 30
0
  0
VERTEX
  8
LAYER_1
 10
176.7684
 20
106.5421
  0
VERTEX
  8
LAYER_1
 10
177.7779
 20
106.5421
  0
SEQEND
  0
ENDBLK
  0
BLOCK
  8
LAYER_1
  2
AIGNBL01020127
 70
64
 10
0
 20
0
 30
0
  3
AIGNBL01020127
  0
POLYLINE
  8
LAYER_1
 40
0.1058
 41
0.1058
 66
1
 10
0
 20
0
 30
0
  0
VERTEX
  8
LAYER_1
 10
155.9634
 20
116.9444
  0
VERTEX
  8
LAYER_1
 10
177.9325
 20
116.9444
  0
SEQEND
  0
ENDBLK
  0
BLOCK
  8
LAYER_1
  2
AIGNBL01020128
 70
64
 10
0
 20
0
 30
0
  3
AIGNBL01020128
  0
POLYLINE
  8
LAYER_1
 40
0.1058
 41
0.1058
 66
1
 10
0
 20
0
 30
0
  0
VERTEX
  8
LAYER_1
 10
177.9325
 20
106.9422
  0
VERTEX
  8
LAYER_1
 10
155.9634
 20
106.9422
  0
SEQEND
  0
ENDBLK
  0
BLOCK
  8
LAYER_1
  2
AIGNBL01020129
 70
64
 10
0
 20
0
 30
0
  3
AIGNBL01020129
  0
POLYLINE
  8
LAYER_1
 40
0.1058
 41
0.1058
 66
1
 10
0
 20
0
 30
0
  0
VERTEX
  8
LAYER_1
 10
150.9133
 20
97.4773
  0
VERTEX
  8
LAYER_1
 10
168.9173
 20
97.4773
  0
SEQEND
  0
ENDBLK
  0
BLOCK
  8
LAYER_1
  2
AIGNBL0102012A
 70
64
 10
0
 20
0
 30
0
  3
AIGNBL0102012A
  0
POLYLINE
  8
LAYER_1
 40
0.1058
 41
0.1058
 66
1
 10
0
 20
0
 30
0
  0
VERTEX
  8
LAYER_1
 10
168.9173
 20
98.0774
  0
VERTEX
  8
LAYER_1
 10
150.9133
 20
98.0774
  0
SEQEND
  0
ENDBLK
  0
BLOCK
  8
LAYER_1
  2
AIGNBL0102012B
 70
64
 10
0
 20
0
 30
0
  3
AIGNBL0102012B
  0
POLYLINE
  8
LAYER_1
 40
0.1058
 41
0.1058
 66
1
 10
0
 20
0
 30
0
  0
VERTEX
  8
LAYER_1
 10
150.9133
 20
98.0774
  0
VERTEX
  8
LAYER_1
 10
150.9133
 20
97.4773
  0
SEQEND
  0
ENDBLK
  0
BLOCK
  8
LAYER_1
  2
AIGNBL0102012C
 70
64
 10
0
 20
0
 30
0
  3
AIGNBL0102012C
  0
POLYLINE
  8
LAYER_1
 40
0.1058
 41
0.1058
 66
1
 10
0
 20
0
 30
0
  0
VERTEX
  8
LAYER_1
 10
168.9173
 20
97.4773
  0
VERTEX
  8
LAYER_1
 10
168.9173
 20
98.0774
  0
SEQEND
  0
ENDBLK
  0
BLOCK
  8
LAYER_1
  2
AIGNBL0102012D
 70
64
 10
0
 20
0
 30
0
  3
AIGNBL0102012D
  0
POLYLINE
  8
LAYER_1
 40
0.1058
 41
0.1058
 66
1
 10
0
 20
0
 30
0
  0
VERTEX
  8
LAYER_1
 10
162.3158
 20
97.4773
  0
VERTEX
  8
LAYER_1
 10
162.3158
 20
95.0767
  0
SEQEND
  0
ENDBLK
  0
BLOCK
  8
LAYER_1
  2
AIGNBL0102012E
 70
64
 10
0
 20
0
 30
0
  3
AIGNBL0102012E
  0
POLYLINE
  8
LAYER_1
 40
0.1058
 41
0.1058
 66
1
 10
0
 20
0
 30
0
  0
VERTEX
  8
LAYER_1
 10
162.3158
 20
95.0767
  0
VERTEX
  8
LAYER_1
 10
157.5148
 20
95.0767
  0
SEQEND
  0
ENDBLK
  0
BLOCK
  8
LAYER_1
  2
AIGNBL0102012F
 70
64
 10
0
 20
0
 30
0
  3
AIGNBL0102012F
  0
POLYLINE
  8
LAYER_1
 40
0.1058
 41
0.1058
 66
1
 10
0
 20
0
 30
0
  0
VERTEX
  8
LAYER_1
 10
157.5148
 20
95.0767
  0
VERTEX
  8
LAYER_1
 10
157.5148
 20
97.4773
  0
SEQEND
  0
ENDBLK
  0
BLOCK
  8
LAYER_1
  2
AIGNBL01020130
 70
64
 10
0
 20
0
 30
0
  3
AIGNBL01020130
  0
POLYLINE
  8
LAYER_1
 40
0.1058
 41
0.1058
 66
1
 10
0
 20
0
 30
0
  0
VERTEX
  8
LAYER_1
 10
161.3156
 20
97.9774
  0
VERTEX
  8
LAYER_1
 10
158.515
 20
97.9774
  0
SEQEND
  0
ENDBLK
  0
BLOCK
  8
LAYER_1
  2
AIGNBL01020131
 70
64
 10
0
 20
0
 30
0
  3
AIGNBL01020131
  0
POLYLINE
  8
LAYER_1
 40
0.1058
 41
0.1058
 66
1
 10
0
 20
0
 30
0
  0
VERTEX
  8
LAYER_1
 10
163.4223
 20
72.7863
 42
0.2216897145
  0
VERTEX
  8
LAYER_1
 10
161.8899
 20
73.5009
  0
SEQEND
  0
ENDBLK
  0
BLOCK
  8
LAYER_1
  2
AIGNBL01020132
 70
64
 10
0
 20
0
 30
0
  3
AIGNBL01020132
  0
POLYLINE
  8
LAYER_1
 40
0.1058
 41
0.1058
 66
1
 10
0
 20
0
 30
0
  0
VERTEX
  8
LAYER_1
 10
161.8899
 20
73.5009
  0
VERTEX
  8
LAYER_1
 10
157.9407
 20
73.5009
  0
SEQEND
  0
ENDBLK
  0
BLOCK
  8
LAYER_1
  2
AIGNBL01020133
 70
64
 10
0
 20
0
 30
0
  3
AIGNBL01020133
  0
POLYLINE
  8
LAYER_1
 40
0.1058
 41
0.1058
 66
1
 10
0
 20
0
 30
0
  0
VERTEX
  8
LAYER_1
 10
157.9407
 20
73.5009
 42
0.2216897159
  0
VERTEX
  8
LAYER_1
 10
156.4083
 20
72.7863
  0
SEQEND
  0
ENDBLK
  0
BLOCK
  8
LAYER_1
  2
AIGNBL01020134
 70
64
 10
0
 20
0
 30
0
  3
AIGNBL01020134
  0
POLYLINE
  8
LAYER_1
 40
0.1058
 41
0.1058
 66
1
 10
0
 20
0
 30
0
  0
VERTEX
  8
LAYER_1
 10
157.2931
 20
72.8131
  0
VERTEX
  8
LAYER_1
 10
157.9148
 20
71.1003
  0
SEQEND
  0
ENDBLK
  0
BLOCK
  8
LAYER_1
  2
AIGNBL01020135
 70
64
 10
0
 20
0
 30
0
  3
AIGNBL01020135
  0
POLYLINE
  8
LAYER_1
 40
0.1058
 41
0.1058
 66
1
 10
0
 20
0
 30
0
  0
VERTEX
  8
LAYER_1
 10
157.5148
 20
71.1003
  0
VERTEX
  8
LAYER_1
 10
157.5148
 20
71.2041
  0
SEQEND
  0
ENDBLK
  0
BLOCK
  8
LAYER_1
  2
AIGNBL01020136
 70
64
 10
0
 20
0
 30
0
  3
AIGNBL01020136
  0
POLYLINE
  8
LAYER_1
 40
0.1058
 41
0.1058
 66
1
 10
0
 20
0
 30
0
  0
VERTEX
  8
LAYER_1
 10
156.5787
 20
68.6324
  0
VERTEX
  8
LAYER_1
 10
156.221
 20
68.2061
  0
SEQEND
  0
ENDBLK
  0
BLOCK
  8
LAYER_1
  2
AIGNBL01020137
 70
64
 10
0
 20
0
 30
0
  3
AIGNBL01020137
  0
POLYLINE
  8
LAYER_1
 40
0.1058
 41
0.1058
 66
1
 10
0
 20
0
 30
0
  0
VERTEX
  8
LAYER_1
 10
155.6574
 20
68.1568
 42
0.4141781557
  0
VERTEX
  8
LAYER_1
 10
156.221
 20
68.2061
  0
SEQEND
  0
ENDBLK
  0
BLOCK
  8
LAYER_1
  2
AIGNBL01020138
 70
64
 10
0
 20
0
 30
0
  3
AIGNBL01020138
  0
POLYLINE
  8
LAYER_1
 40
0.1058
 41
0.1058
 66
1
 10
0
 20
0
 30
0
  0
VERTEX
  8
LAYER_1
 10
156.4083
 20
72.7863
  0
VERTEX
  8
LAYER_1
 10
154.0756
 20
70.0063
  0
SEQEND
  0
ENDBLK
  0
BLOCK
  8
LAYER_1
  2
AIGNBL01020139
 70
64
 10
0
 20
0
 30
0
  3
AIGNBL01020139
  0
POLYLINE
  8
LAYER_1
 40
0.1058
 41
0.1058
 66
1
 10
0
 20
0
 30
0
  0
VERTEX
  8
LAYER_1
 10
155.6574
 20
68.1568
  0
VERTEX
  8
LAYER_1
 10
154.1249
 20
69.4427
  0
SEQEND
  0
ENDBLK
  0
BLOCK
  8
LAYER_1
  2
AIGNBL0102013A
 70
64
 10
0
 20
0
 30
0
  3
AIGNBL0102013A
  0
POLYLINE
  8
LAYER_1
 40
0.1058
 41
0.1058
 66
1
 10
0
 20
0
 30
0
  0
VERTEX
  8
LAYER_1
 10
154.0756
 20
70.0063
 42
0.4141423364
  0
VERTEX
  8
LAYER_1
 10
154.1249
 20
69.4427
  0
SEQEND
  0
ENDBLK
  0
BLOCK
  8
LAYER_1
  2
AIGNBL0102013B
 70
64
 10
0
 20
0
 30
0
  3
AIGNBL0102013B
  0
POLYLINE
  8
LAYER_1
 40
0.1058
 41
0.1058
 66
1
 10
0
 20
0
 30
0
  0
VERTEX
  8
LAYER_1
 10
156.5787
 20
68.6324
 42
0.1696454807
  0
VERTEX
  8
LAYER_1
 10
157.5134
 20
71.1003
  0
SEQEND
  0
ENDBLK
  0
BLOCK
  8
LAYER_1
  2
AIGNBL0102013C
 70
64
 10
0
 20
0
 30
0
  3
AIGNBL0102013C
  0
POLYLINE
  8
LAYER_1
 40
0.1058
 41
0.1058
 66
1
 10
0
 20
0
 30
0
  0
VERTEX
  8
LAYER_1
 10
163.2519
 20
68.6324
  0
VERTEX
  8
LAYER_1
 10
163.6096
 20
68.2061
  0
SEQEND
  0
ENDBLK
  0
BLOCK
  8
LAYER_1
  2
AIGNBL0102013D
 70
64
 10
0
 20
0
 30
0
  3
AIGNBL0102013D
  0
POLYLINE
  8
LAYER_1
 40
0.1058
 41
0.1058
 66
1
 10
0
 20
0
 30
0
  0
VERTEX
  8
LAYER_1
 10
163.6096
 20
68.2061
 42
0.4141781694
  0
VERTEX
  8
LAYER_1
 10
164.1732
 20
68.1568
  0
SEQEND
  0
ENDBLK
  0
BLOCK
  8
LAYER_1
  2
AIGNBL0102013E
 70
64
 10
0
 20
0
 30
0
  3
AIGNBL0102013E
  0
POLYLINE
  8
LAYER_1
 40
0.1058
 41
0.1058
 66
1
 10
0
 20
0
 30
0
  0
VERTEX
  8
LAYER_1
 10
163.4223
 20
72.7863
  0
VERTEX
  8
LAYER_1
 10
165.755
 20
70.0063
  0
SEQEND
  0
ENDBLK
  0
BLOCK
  8
LAYER_1
  2
AIGNBL0102013F
 70
64
 10
0
 20
0
 30
0
  3
AIGNBL0102013F
  0
POLYLINE
  8
LAYER_1
 40
0.1058
 41
0.1058
 66
1
 10
0
 20
0
 30
0
  0
VERTEX
  8
LAYER_1
 10
164.1732
 20
68.1568
  0
VERTEX
  8
LAYER_1
 10
165.7057
 20
69.4427
  0
SEQEND
  0
ENDBLK
  0
BLOCK
  8
LAYER_1
  2
AIGNBL01020140
 70
64
 10
0
 20
0
 30
0
  3
AIGNBL01020140
  0
POLYLINE
  8
LAYER_1
 40
0.1058
 41
0.1058
 66
1
 10
0
 20
0
 30
0
  0
VERTEX
  8
LAYER_1
 10
165.7057
 20
69.4427
 42
0.4141421795
  0
VERTEX
  8
LAYER_1
 10
165.755
 20
70.0063
  0
SEQEND
  0
ENDBLK
  0
BLOCK
  8
LAYER_1
  2
AIGNBL01020141
 70
64
 10
0
 20
0
 30
0
  3
AIGNBL01020141
  0
POLYLINE
  8
LAYER_1
 40
0.1058
 41
0.1058
 66
1
 10
0
 20
0
 30
0
  0
VERTEX
  8
LAYER_1
 10
162.5375
 20
72.8131
  0
VERTEX
  8
LAYER_1
 10
161.9158
 20
71.1003
  0
SEQEND
  0
ENDBLK
  0
BLOCK
  8
LAYER_1
  2
AIGNBL01020142
 70
64
 10
0
 20
0
 30
0
  3
AIGNBL01020142
  0
POLYLINE
  8
LAYER_1
 40
0.1058
 41
0.1058
 66
1
 10
0
 20
0
 30
0
  0
VERTEX
  8
LAYER_1
 10
157.5134
 20
71.1003
  0
VERTEX
  8
LAYER_1
 10
162.3172
 20
71.1003
  0
SEQEND
  0
ENDBLK
  0
BLOCK
  8
LAYER_1
  2
AIGNBL01020143
 70
64
 10
0
 20
0
 30
0
  3
AIGNBL01020143
  0
POLYLINE
  8
LAYER_1
 40
0.1058
 41
0.1058
 66
1
 10
0
 20
0
 30
0
  0
VERTEX
  8
LAYER_1
 10
162.3172
 20
71.1003
 42
0.1696454867
  0
VERTEX
  8
LAYER_1
 10
163.2519
 20
68.6324
  0
SEQEND
  0
ENDBLK
  0
BLOCK
  8
LAYER_1
  2
AIGNBL01020144
 70
64
 10
0
 20
0
 30
0
  3
AIGNBL01020144
  0
POLYLINE
  8
LAYER_1
 40
0.1058
 41
0.1058
 66
1
 10
0
 20
0
 30
0
  0
VERTEX
  8
LAYER_1
 10
156.7146
 20
72.8131
  0
VERTEX
  8
LAYER_1
 10
163.116
 20
72.8131
  0
SEQEND
  0
ENDBLK
  0
BLOCK
  8
LAYER_1
  2
AIGNBL01020145
 70
64
 10
0
 20
0
 30
0
  3
AIGNBL01020145
  0
POLYLINE
  8
LAYER_1
 40
0.1058
 41
0.1058
 66
1
 10
0
 20
0
 30
0
  0
VERTEX
  8
LAYER_1
 10
161.3156
 20
69.9711
  0
VERTEX
  8
LAYER_1
 10
158.515
 20
69.9711
  0
SEQEND
  0
ENDBLK
  0
BLOCK
  8
LAYER_1
  2
AIGNBL01020146
 70
64
 10
0
 20
0
 30
0
  3
AIGNBL01020146
  0
POLYLINE
  8
LAYER_1
 40
0.1058
 41
0.1058
 66
1
 10
0
 20
0
 30
0
  0
VERTEX
  8
LAYER_1
 10
158.515
 20
97.9774
  0
VERTEX
  8
LAYER_1
 10
158.515
 20
69.9711
  0
SEQEND
  0
ENDBLK
  0
BLOCK
  8
LAYER_1
  2
AIGNBL01020147
 70
64
 10
0
 20
0
 30
0
  3
AIGNBL01020147
  0
POLYLINE
  8
LAYER_1
 40
0.1058
 41
0.1058
 66
1
 10
0
 20
0
 30
0
  0
VERTEX
  8
LAYER_1
 10
161.3156
 20
69.9711
  0
VERTEX
  8
LAYER_1
 10
161.3156
 20
97.9774
  0
SEQEND
  0
ENDBLK
  0
BLOCK
  8
LAYER_1
  2
AIGNBL01020148
 70
64
 10
0
 20
0
 30
0
  3
AIGNBL01020148
  0
POLYLINE
  8
LAYER_1
 40
0.1058
 41
0.1058
 66
1
 10
0
 20
0
 30
0
  0
VERTEX
  8
LAYER_1
 10
176.7191
 20
73.5009
 42
0.4142198941
  0
VERTEX
  8
LAYER_1
 10
177.9194
 20
74.7012
  0
SEQEND
  0
ENDBLK
  0
BLOCK
  8
LAYER_1
  2
AIGNBL01020149
 70
64
 10
0
 20
0
 30
0
  3
AIGNBL01020149
  0
POLYLINE
  8
LAYER_1
  6
AIGENLINE001
 40
0.1058
 41
0.1058
 66
1
 10
0
 20
0
 30
0
 70
128
  0
VERTEX
  8
LAYER_1
 10
158.2149
 20
73.5009
  0
VERTEX
  8
LAYER_1
 10
158.2149
 20
74.7812
  0
SEQEND
  0
ENDBLK
  0
BLOCK
  8
LAYER_1
  2
AIGNBL0102014A
 70
64
 10
0
 20
0
 30
0
  3
AIGNBL0102014A
  0
POLYLINE
  8
LAYER_1
  6
AIGENLINE001
 40
0.1058
 41
0.1058
 66
1
 10
0
 20
0
 30
0
 70
128
  0
VERTEX
  8
LAYER_1
 10
161.6157
 20
73.5009
  0
VERTEX
  8
LAYER_1
 10
161.6157
 20
74.7812
  0
SEQEND
  0
ENDBLK
  0
BLOCK
  8
LAYER_1
  2
AIGNBL0102014B
 70
64
 10
0
 20
0
 30
0
  3
AIGNBL0102014B
  0
POLYLINE
  8
LAYER_1
 40
0.1058
 41
0.1058
 66
1
 10
0
 20
0
 30
0
  0
VERTEX
  8
LAYER_1
 10
176.6391
 20
79.3754
  0
VERTEX
  8
LAYER_1
 10
176.6391
 20
74.7812
  0
SEQEND
  0
ENDBLK
  0
BLOCK
  8
LAYER_1
  2
AIGNBL0102014C
 70
64
 10
0
 20
0
 30
0
  3
AIGNBL0102014C
  0
POLYLINE
  8
LAYER_1
 40
0.1058
 41
0.1058
 66
1
 10
0
 20
0
 30
0
  0
VERTEX
  8
LAYER_1
 10
177.9194
 20
74.7012
  0
VERTEX
  8
LAYER_1
 10
177.9194
 20
79.3941
  0
SEQEND
  0
ENDBLK
  0
BLOCK
  8
LAYER_1
  2
AIGNBL0102014D
 70
64
 10
0
 20
0
 30
0
  3
AIGNBL0102014D
  0
POLYLINE
  8
LAYER_1
 40
0.1058
 41
0.1058
 66
1
 10
0
 20
0
 30
0
  0
VERTEX
  8
LAYER_1
 10
176.3607
 20
79.7723
 42
0.3267623607
  0
VERTEX
  8
LAYER_1
 10
176.6391
 20
79.3905
  0
SEQEND
  0
ENDBLK
  0
BLOCK
  8
LAYER_1
  2
AIGNBL0102014E
 70
64
 10
0
 20
0
 30
0
  3
AIGNBL0102014E
  0
POLYLINE
  8
LAYER_1
 40
0.1058
 41
0.1058
 66
1
 10
0
 20
0
 30
0
  0
VERTEX
  8
LAYER_1
 10
177.9194
 20
79.4444
 42
0.3119153359
  0
VERTEX
  8
LAYER_1
 10
178.178
 20
79.8187
  0
SEQEND
  0
ENDBLK
  0
BLOCK
  8
LAYER_1
  2
AIGNBL0102014F
 70
64
 10
0
 20
0
 30
0
  3
AIGNBL0102014F
  0
POLYLINE
  8
LAYER_1
 40
0.1058
 41
0.1058
 66
1
 10
0
 20
0
 30
0
  0
VERTEX
  8
LAYER_1
 10
176.6391
 20
74.7812
  0
VERTEX
  8
LAYER_1
 10
157.9148
 20
74.7812
  0
SEQEND
  0
ENDBLK
  0
BLOCK
  8
LAYER_1
  2
AIGNBL01020150
 70
64
 10
0
 20
0
 30
0
  3
AIGNBL01020150
  0
POLYLINE
  8
LAYER_1
 40
0.1058
 41
0.1058
 66
1
 10
0
 20
0
 30
0
  0
VERTEX
  8
LAYER_1
 10
156.6346
 20
74.5014
 42
0.4142078078
  0
VERTEX
  8
LAYER_1
 10
157.2089
 20
73.5264
  0
VERTEX
  8
LAYER_1
 10
157.4093
 20
73.5009
  0
SEQEND
  0
ENDBLK
  0
BLOCK
  8
LAYER_1
  2
AIGNBL01020151
 70
64
 10
0
 20
0
 30
0
  3
AIGNBL01020151
  0
POLYLINE
  8
LAYER_1
 40
0.1058
 41
0.1058
 66
1
 10
0
 20
0
 30
0
  0
VERTEX
  8
LAYER_1
 10
157.4093
 20
73.5009
  0
VERTEX
  8
LAYER_1
 10
176.7191
 20
73.5009
  0
SEQEND
  0
ENDBLK
  0
BLOCK
  8
LAYER_1
  2
AIGNBL01020152
 70
64
 10
0
 20
0
 30
0
  3
AIGNBL01020152
  0
POLYLINE
  8
LAYER_1
 40
0.1058
 41
0.1058
 66
1
 10
0
 20
0
 30
0
  0
VERTEX
  8
LAYER_1
 10
156.6346
 20
74.5014
  0
VERTEX
  8
LAYER_1
 10
156.6346
 20
80.7825
  0
SEQEND
  0
ENDBLK
  0
BLOCK
  8
LAYER_1
  2
AIGNBL01020153
 70
64
 10
0
 20
0
 30
0
  3
AIGNBL01020153
  0
POLYLINE
  8
LAYER_1
 40
0.1058
 41
0.1058
 66
1
 10
0
 20
0
 30
0
  0
VERTEX
  8
LAYER_1
 10
156.6346
 20
80.7825
  0
VERTEX
  8
LAYER_1
 10
157.9148
 20
80.7825
  0
SEQEND
  0
ENDBLK
  0
BLOCK
  8
LAYER_1
  2
AIGNBL01020154
 70
64
 10
0
 20
0
 30
0
  3
AIGNBL01020154
  0
POLYLINE
  8
LAYER_1
 40
0.1058
 41
0.1058
 66
1
 10
0
 20
0
 30
0
  0
VERTEX
  8
LAYER_1
 10
157.9148
 20
80.7825
  0
VERTEX
  8
LAYER_1
 10
157.9148
 20
74.7812
  0
SEQEND
  0
ENDBLK
  0
BLOCK
  8
LAYER_1
  2
AIGNBL01020155
 70
64
 10
0
 20
0
 30
0
  3
AIGNBL01020155
  0
POLYLINE
  8
LAYER_1
 40
0.1058
 41
0.1058
 66
1
 10
0
 20
0
 30
0
  0
VERTEX
  8
LAYER_1
 10
177.9194
 20
87.384
  0
VERTEX
  8
LAYER_1
 10
176.6391
 20
87.384
  0
SEQEND
  0
ENDBLK
  0
BLOCK
  8
LAYER_1
  2
AIGNBL01020156
 70
64
 10
0
 20
0
 30
0
  3
AIGNBL01020156
  0
POLYLINE
  8
LAYER_1
  6
AIGENLINE001
 40
0.1058
 41
0.1058
 66
1
 10
0
 20
0
 30
0
 70
128
  0
VERTEX
  8
LAYER_1
 10
176.6391
 20
79.3754
  0
VERTEX
  8
LAYER_1
 10
176.6391
 20
86.7839
  0
SEQEND
  0
ENDBLK
  0
BLOCK
  8
LAYER_1
  2
AIGNBL01020157
 70
64
 10
0
 20
0
 30
0
  3
AIGNBL01020157
  0
POLYLINE
  8
LAYER_1
  6
AIGENLINE001
 40
0.1058
 41
0.1058
 66
1
 10
0
 20
0
 30
0
 70
128
  0
VERTEX
  8
LAYER_1
 10
176.6391
 20
86.7839
  0
VERTEX
  8
LAYER_1
 10
177.9194
 20
86.7839
  0
SEQEND
  0
ENDBLK
  0
BLOCK
  8
LAYER_1
  2
AIGNBL01020158
 70
64
 10
0
 20
0
 30
0
  3
AIGNBL01020158
  0
POLYLINE
  8
LAYER_1
  6
AIGENLINE001
 40
0.1058
 41
0.1058
 66
1
 10
0
 20
0
 30
0
 70
128
  0
VERTEX
  8
LAYER_1
 10
177.9194
 20
86.7839
  0
VERTEX
  8
LAYER_1
 10
177.9194
 20
79.3941
  0
SEQEND
  0
ENDBLK
  0
BLOCK
  8
LAYER_1
  2
AIGNBL01020159
 70
64
 10
0
 20
0
 30
0
  3
AIGNBL01020159
  0
POLYLINE
  8
LAYER_1
 40
0.1058
 41
0.1058
 66
1
 10
0
 20
0
 30
0
  0
VERTEX
  8
LAYER_1
 10
176.3607
 20
79.7723
  0
VERTEX
  8
LAYER_1
 10
176.3683
 20
86.7849
  0
SEQEND
  0
ENDBLK
  0
BLOCK
  8
LAYER_1
  2
AIGNBL0102015A
 70
64
 10
0
 20
0
 30
0
  3
AIGNBL0102015A
  0
POLYLINE
  8
LAYER_1
 40
0.1058
 41
0.1058
 66
1
 10
0
 20
0
 30
0
  0
VERTEX
  8
LAYER_1
 10
176.9685
 20
87.384
 42
0.4137223665
  0
VERTEX
  8
LAYER_1
 10
176.3683
 20
86.7849
  0
SEQEND
  0
ENDBLK
  0
BLOCK
  8
LAYER_1
  2
AIGNBL0102015B
 70
64
 10
0
 20
0
 30
0
  3
AIGNBL0102015B
  0
POLYLINE
  8
LAYER_1
 40
0.1058
 41
0.1058
 66
1
 10
0
 20
0
 30
0
  0
VERTEX
  8
LAYER_1
 10
176.9685
 20
87.384
  0
VERTEX
  8
LAYER_1
 10
177.5779
 20
87.384
  0
SEQEND
  0
ENDBLK
  0
BLOCK
  8
LAYER_1
  2
AIGNBL0102015C
 70
64
 10
0
 20
0
 30
0
  3
AIGNBL0102015C
  0
POLYLINE
  8
LAYER_1
 40
0.1058
 41
0.1058
 66
1
 10
0
 20
0
 30
0
  0
VERTEX
  8
LAYER_1
 10
178.178
 20
86.7839
  0
VERTEX
  8
LAYER_1
 10
178.178
 20
79.8187
  0
SEQEND
  0
ENDBLK
  0
BLOCK
  8
LAYER_1
  2
AIGNBL0102015D
 70
64
 10
0
 20
0
 30
0
  3
AIGNBL0102015D
  0
POLYLINE
  8
LAYER_1
 40
0.1058
 41
0.1058
 66
1
 10
0
 20
0
 30
0
  0
VERTEX
  8
LAYER_1
 10
178.178
 20
86.7839
 42
0.4141815274
  0
VERTEX
  8
LAYER_1
 10
177.5779
 20
87.384
  0
SEQEND
  0
ENDBLK
  0
BLOCK
  8
LAYER_1
  2
AIGNBL0102015E
 70
64
 10
0
 20
0
 30
0
  3
AIGNBL0102015E
  0
POLYLINE
  8
LAYER_1
  6
AIGENLINE002
 40
0.1058
 41
0.1058
 66
1
 10
0
 20
0
 30
0
 70
128
  0
VERTEX
  8
LAYER_1
 10
155.2143
 20
111.9433
  0
VERTEX
  8
LAYER_1
 10
163.4675
 20
111.9433
  0
SEQEND
  0
ENDBLK
  0
BLOCK
  8
LAYER_1
  2
AIGNBL0102015F
 70
64
 10
0
 20
0
 30
0
  3
AIGNBL0102015F
  0
POLYLINE
  8
LAYER_1
  6
AIGENLINE002
 40
0.1058
 41
0.1058
 66
1
 10
0
 20
0
 30
0
 70
128
  0
VERTEX
  8
LAYER_1
 10
159.1641
 20
115.2756
  0
VERTEX
  8
LAYER_1
 10
159.1641
 20
107.0935
  0
SEQEND
  0
ENDBLK
  0
BLOCK
  8
LAYER_1
  2
AIGNBL01020160
 70
64
 10
0
 20
0
 30
0
  3
AIGNBL01020160
  0
POLYLINE
  8
LAYER_1
  6
AIGENLINE002
 40
0.1058
 41
0.1058
 66
1
 10
0
 20
0
 30
0
 70
128
  0
VERTEX
  8
LAYER_1
 10
152.1904
 20
108.7426
  0
VERTEX
  8
LAYER_1
 10
155.1601
 20
108.7426
  0
SEQEND
  0
ENDBLK
  0
BLOCK
  8
LAYER_1
  2
AIGNBL01020161
 70
64
 10
0
 20
0
 30
0
  3
AIGNBL01020161
  0
POLYLINE
  8
LAYER_1
  6
AIGENLINE002
 40
0.1058
 41
0.1058
 66
1
 10
0
 20
0
 30
0
 70
128
  0
VERTEX
  8
LAYER_1
 10
153.6203
 20
110.247
  0
VERTEX
  8
LAYER_1
 10
153.6203
 20
107.1313
  0
SEQEND
  0
ENDBLK
  0
BLOCK
  8
LAYER_1
  2
AIGNBL01020162
 70
64
 10
0
 20
0
 30
0
  3
AIGNBL01020162
  0
CIRCLE
  8
LAYER_1
 10
153.6203
 20
108.7426
 40
1.4003
  0
ENDBLK
  0
BLOCK
  8
LAYER_1
  2
AIGNBL01020163
 70
64
 10
0
 20
0
 30
0
  3
AIGNBL01020163
  0
POLYLINE
  8
LAYER_1
 40
0.1058
 41
0.1058
 66
1
 10
0
 20
0
 30
0
  0
VERTEX
  8
LAYER_1
 10
152.6403
 20
108.9426
  0
VERTEX
  8
LAYER_1
 10
152.6403
 20
108.5425
  0
SEQEND
  0
ENDBLK
  0
BLOCK
  8
LAYER_1
  2
AIGNBL01020164
 70
64
 10
0
 20
0
 30
0
  3
AIGNBL01020164
  0
POLYLINE
  8
LAYER_1
 40
0.1058
 41
0.1058
 66
1
 10
0
 20
0
 30
0
  0
VERTEX
  8
LAYER_1
 10
153.4203
 20
109.7226
  0
VERTEX
  8
LAYER_1
 10
153.8204
 20
109.7226
  0
SEQEND
  0
ENDBLK
  0
BLOCK
  8
LAYER_1
  2
AIGNBL01020165
 70
64
 10
0
 20
0
 30
0
  3
AIGNBL01020165
  0
POLYLINE
  8
LAYER_1
 40
0.1058
 41
0.1058
 66
1
 10
0
 20
0
 30
0
  0
VERTEX
  8
LAYER_1
 10
153.0202
 20
108.9426
  0
VERTEX
  8
LAYER_1
 10
152.6403
 20
108.9426
  0
SEQEND
  0
ENDBLK
  0
BLOCK
  8
LAYER_1
  2
AIGNBL01020166
 70
64
 10
0
 20
0
 30
0
  3
AIGNBL01020166
  0
POLYLINE
  8
LAYER_1
 40
0.1058
 41
0.1058
 66
1
 10
0
 20
0
 30
0
  0
VERTEX
  8
LAYER_1
 10
153.4203
 20
109.3427
  0
VERTEX
  8
LAYER_1
 10
153.4203
 20
109.7226
  0
SEQEND
  0
ENDBLK
  0
BLOCK
  8
LAYER_1
  2
AIGNBL01020167
 70
64
 10
0
 20
0
 30
0
  3
AIGNBL01020167
  0
POLYLINE
  8
LAYER_1
 40
0.1058
 41
0.1058
 66
1
 10
0
 20
0
 30
0
  0
VERTEX
  8
LAYER_1
 10
153.0202
 20
108.9426
 42
0.4142058092
  0
VERTEX
  8
LAYER_1
 10
153.4203
 20
109.3427
  0
SEQEND
  0
ENDBLK
  0
BLOCK
  8
LAYER_1
  2
AIGNBL01020168
 70
64
 10
0
 20
0
 30
0
  3
AIGNBL01020168
  0
POLYLINE
  8
LAYER_1
 40
0.1058
 41
0.1058
 66
1
 10
0
 20
0
 30
0
  0
VERTEX
  8
LAYER_1
 10
153.8204
 20
107.7626
  0
VERTEX
  8
LAYER_1
 10
153.4203
 20
107.7626
  0
SEQEND
  0
ENDBLK
  0
BLOCK
  8
LAYER_1
  2
AIGNBL01020169
 70
64
 10
0
 20
0
 30
0
  3
AIGNBL01020169
  0
POLYLINE
  8
LAYER_1
 40
0.1058
 41
0.1058
 66
1
 10
0
 20
0
 30
0
  0
VERTEX
  8
LAYER_1
 10
154.6003
 20
108.5425
  0
VERTEX
  8
LAYER_1
 10
154.6003
 20
108.9426
  0
SEQEND
  0
ENDBLK
  0
BLOCK
  8
LAYER_1
  2
AIGNBL0102016A
 70
64
 10
0
 20
0
 30
0
  3
AIGNBL0102016A
  0
POLYLINE
  8
LAYER_1
 40
0.1058
 41
0.1058
 66
1
 10
0
 20
0
 30
0
  0
VERTEX
  8
LAYER_1
 10
153.8204
 20
108.1424
  0
VERTEX
  8
LAYER_1
 10
153.8204
 20
107.7626
  0
SEQEND
  0
ENDBLK
  0
BLOCK
  8
LAYER_1
  2
AIGNBL0102016B
 70
64
 10
0
 20
0
 30
0
  3
AIGNBL0102016B
  0
POLYLINE
  8
LAYER_1
 40
0.1058
 41
0.1058
 66
1
 10
0
 20
0
 30
0
  0
VERTEX
  8
LAYER_1
 10
154.2205
 20
108.5425
  0
VERTEX
  8
LAYER_1
 10
154.6003
 20
108.5425
  0
SEQEND
  0
ENDBLK
  0
BLOCK
  8
LAYER_1
  2
AIGNBL0102016C
 70
64
 10
0
 20
0
 30
0
  3
AIGNBL0102016C
  0
POLYLINE
  8
LAYER_1
 40
0.1058
 41
0.1058
 66
1
 10
0
 20
0
 30
0
  0
VERTEX
  8
LAYER_1
 10
154.2205
 20
108.5425
 42
0.4142636573
  0
VERTEX
  8
LAYER_1
 10
153.8204
 20
108.1424
  0
SEQEND
  0
ENDBLK
  0
BLOCK
  8
LAYER_1
  2
AIGNBL0102016D
 70
64
 10
0
 20
0
 30
0
  3
AIGNBL0102016D
  0
POLYLINE
  8
LAYER_1
 40
0.1058
 41
0.1058
 66
1
 10
0
 20
0
 30
0
  0
VERTEX
  8
LAYER_1
 10
153.8204
 20
109.7226
  0
VERTEX
  8
LAYER_1
 10
153.8204
 20
109.3427
  0
SEQEND
  0
ENDBLK
  0
BLOCK
  8
LAYER_1
  2
AIGNBL0102016E
 70
64
 10
0
 20
0
 30
0
  3
AIGNBL0102016E
  0
POLYLINE
  8
LAYER_1
 40
0.1058
 41
0.1058
 66
1
 10
0
 20
0
 30
0
  0
VERTEX
  8
LAYER_1
 10
154.6003
 20
108.9426
  0
VERTEX
  8
LAYER_1
 10
154.2205
 20
108.9426
  0
SEQEND
  0
ENDBLK
  0
BLOCK
  8
LAYER_1
  2
AIGNBL0102016F
 70
64
 10
0
 20
0
 30
0
  3
AIGNBL0102016F
  0
POLYLINE
  8
LAYER_1
 40
0.1058
 41
0.1058
 66
1
 10
0
 20
0
 30
0
  0
VERTEX
  8
LAYER_1
 10
153.8204
 20
109.3427
 42
0.4142396547
  0
VERTEX
  8
LAYER_1
 10
154.2205
 20
108.9426
  0
SEQEND
  0
ENDBLK
  0
BLOCK
  8
LAYER_1
  2
AIGNBL01020170
 70
64
 10
0
 20
0
 30
0
  3
AIGNBL01020170
  0
POLYLINE
  8
LAYER_1
 40
0.1058
 41
0.1058
 66
1
 10
0
 20
0
 30
0
  0
VERTEX
  8
LAYER_1
 10
152.6403
 20
108.5425
  0
VERTEX
  8
LAYER_1
 10
153.0202
 20
108.5425
  0
SEQEND
  0
ENDBLK
  0
BLOCK
  8
LAYER_1
  2
AIGNBL01020171
 70
64
 10
0
 20
0
 30
0
  3
AIGNBL01020171
  0
POLYLINE
  8
LAYER_1
 40
0.1058
 41
0.1058
 66
1
 10
0
 20
0
 30
0
  0
VERTEX
  8
LAYER_1
 10
153.4203
 20
107.7626
  0
VERTEX
  8
LAYER_1
 10
153.4203
 20
108.1424
  0
SEQEND
  0
ENDBLK
  0
BLOCK
  8
LAYER_1
  2
AIGNBL01020172
 70
64
 10
0
 20
0
 30
0
  3
AIGNBL01020172
  0
POLYLINE
  8
LAYER_1
 40
0.1058
 41
0.1058
 66
1
 10
0
 20
0
 30
0
  0
VERTEX
  8
LAYER_1
 10
153.4203
 20
108.1424
 42
0.4142328546
  0
VERTEX
  8
LAYER_1
 10
153.0202
 20
108.5425
  0
SEQEND
  0
ENDBLK
  0
BLOCK
  8
LAYER_1
  2
AIGNBL01020173
 70
64
 10
0
 20
0
 30
0
  3
AIGNBL01020173
  0
POLYLINE
  8
LAYER_1
  6
AIGENLINE002
 40
0.1058
 41
0.1058
 66
1
 10
0
 20
0
 30
0
 70
128
  0
VERTEX
  8
LAYER_1
 10
163.278
 20
108.7426
  0
VERTEX
  8
LAYER_1
 10
166.2477
 20
108.7426
  0
SEQEND
  0
ENDBLK
  0
BLOCK
  8
LAYER_1
  2
AIGNBL01020174
 70
64
 10
0
 20
0
 30
0
  3
AIGNBL01020174
  0
POLYLINE
  8
LAYER_1
  6
AIGENLINE002
 40
0.1058
 41
0.1058
 66
1
 10
0
 20
0
 30
0
 70
128
  0
VERTEX
  8
LAYER_1
 10
164.7079
 20
110.247
  0
VERTEX
  8
LAYER_1
 10
164.7079
 20
107.1313
  0
SEQEND
  0
ENDBLK
  0
BLOCK
  8
LAYER_1
  2
AIGNBL01020175
 70
64
 10
0
 20
0
 30
0
  3
AIGNBL01020175
  0
CIRCLE
  8
LAYER_1
 10
164.7079
 20
108.7426
 40
1.4003
  0
ENDBLK
  0
BLOCK
  8
LAYER_1
  2
AIGNBL01020176
 70
64
 10
0
 20
0
 30
0
  3
AIGNBL01020176
  0
POLYLINE
  8
LAYER_1
 40
0.1058
 41
0.1058
 66
1
 10
0
 20
0
 30
0
  0
VERTEX
  8
LAYER_1
 10
163.7279
 20
108.9426
  0
VERTEX
  8
LAYER_1
 10
163.7279
 20
108.5425
  0
SEQEND
  0
ENDBLK
  0
BLOCK
  8
LAYER_1
  2
AIGNBL01020177
 70
64
 10
0
 20
0
 30
0
  3
AIGNBL01020177
  0
POLYLINE
  8
LAYER_1
 40
0.1058
 41
0.1058
 66
1
 10
0
 20
0
 30
0
  0
VERTEX
  8
LAYER_1
 10
164.5079
 20
109.7226
  0
VERTEX
  8
LAYER_1
 10
164.908
 20
109.7226
  0
SEQEND
  0
ENDBLK
  0
BLOCK
  8
LAYER_1
  2
AIGNBL01020178
 70
64
 10
0
 20
0
 30
0
  3
AIGNBL01020178
  0
POLYLINE
  8
LAYER_1
 40
0.1058
 41
0.1058
 66
1
 10
0
 20
0
 30
0
  0
VERTEX
  8
LAYER_1
 10
164.1078
 20
108.9426
  0
VERTEX
  8
LAYER_1
 10
163.7279
 20
108.9426
  0
SEQEND
  0
ENDBLK
  0
BLOCK
  8
LAYER_1
  2
AIGNBL01020179
 70
64
 10
0
 20
0
 30
0
  3
AIGNBL01020179
  0
POLYLINE
  8
LAYER_1
 40
0.1058
 41
0.1058
 66
1
 10
0
 20
0
 30
0
  0
VERTEX
  8
LAYER_1
 10
164.5079
 20
109.3427
  0
VERTEX
  8
LAYER_1
 10
164.5079
 20
109.7226
  0
SEQEND
  0
ENDBLK
  0
BLOCK
  8
LAYER_1
  2
AIGNBL0102017A
 70
64
 10
0
 20
0
 30
0
  3
AIGNBL0102017A
  0
POLYLINE
  8
LAYER_1
 40
0.1058
 41
0.1058
 66
1
 10
0
 20
0
 30
0
  0
VERTEX
  8
LAYER_1
 10
164.1078
 20
108.9426
 42
0.4142209814
  0
VERTEX
  8
LAYER_1
 10
164.5079
 20
109.3427
  0
SEQEND
  0
ENDBLK
  0
BLOCK
  8
LAYER_1
  2
AIGNBL0102017B
 70
64
 10
0
 20
0
 30
0
  3
AIGNBL0102017B
  0
POLYLINE
  8
LAYER_1
 40
0.1058
 41
0.1058
 66
1
 10
0
 20
0
 30
0
  0
VERTEX
  8
LAYER_1
 10
164.908
 20
107.7626
  0
VERTEX
  8
LAYER_1
 10
164.5079
 20
107.7626
  0
SEQEND
  0
ENDBLK
  0
BLOCK
  8
LAYER_1
  2
AIGNBL0102017C
 70
64
 10
0
 20
0
 30
0
  3
AIGNBL0102017C
  0
POLYLINE
  8
LAYER_1
 40
0.1058
 41
0.1058
 66
1
 10
0
 20
0
 30
0
  0
VERTEX
  8
LAYER_1
 10
165.688
 20
108.5425
  0
VERTEX
  8
LAYER_1
 10
165.688
 20
108.9426
  0
SEQEND
  0
ENDBLK
  0
BLOCK
  8
LAYER_1
  2
AIGNBL0102017D
 70
64
 10
0
 20
0
 30
0
  3
AIGNBL0102017D
  0
POLYLINE
  8
LAYER_1
 40
0.1058
 41
0.1058
 66
1
 10
0
 20
0
 30
0
  0
VERTEX
  8
LAYER_1
 10
164.908
 20
108.1424
  0
VERTEX
  8
LAYER_1
 10
164.908
 20
107.7626
  0
SEQEND
  0
ENDBLK
  0
BLOCK
  8
LAYER_1
  2
AIGNBL0102017E
 70
64
 10
0
 20
0
 30
0
  3
AIGNBL0102017E
  0
POLYLINE
  8
LAYER_1
 40
0.1058
 41
0.1058
 66
1
 10
0
 20
0
 30
0
  0
VERTEX
  8
LAYER_1
 10
165.3081
 20
108.5425
  0
VERTEX
  8
LAYER_1
 10
165.688
 20
108.5425
  0
SEQEND
  0
ENDBLK
  0
BLOCK
  8
LAYER_1
  2
AIGNBL0102017F
 70
64
 10
0
 20
0
 30
0
  3
AIGNBL0102017F
  0
POLYLINE
  8
LAYER_1
 40
0.1058
 41
0.1058
 66
1
 10
0
 20
0
 30
0
  0
VERTEX
  8
LAYER_1
 10
165.3081
 20
108.5425
 42
0.414248482
  0
VERTEX
  8
LAYER_1
 10
164.908
 20
108.1424
  0
SEQEND
  0
ENDBLK
  0
BLOCK
  8
LAYER_1
  2
AIGNBL01020180
 70
64
 10
0
 20
0
 30
0
  3
AIGNBL01020180
  0
POLYLINE
  8
LAYER_1
 40
0.1058
 41
0.1058
 66
1
 10
0
 20
0
 30
0
  0
VERTEX
  8
LAYER_1
 10
164.908
 20
109.7226
  0
VERTEX
  8
LAYER_1
 10
164.908
 20
109.3427
  0
SEQEND
  0
ENDBLK
  0
BLOCK
  8
LAYER_1
  2
AIGNBL01020181
 70
64
 10
0
 20
0
 30
0
  3
AIGNBL01020181
  0
POLYLINE
  8
LAYER_1
 40
0.1058
 41
0.1058
 66
1
 10
0
 20
0
 30
0
  0
VERTEX
  8
LAYER_1
 10
165.688
 20
108.9426
  0
VERTEX
  8
LAYER_1
 10
165.3081
 20
108.9426
  0
SEQEND
  0
ENDBLK
  0
BLOCK
  8
LAYER_1
  2
AIGNBL01020182
 70
64
 10
0
 20
0
 30
0
  3
AIGNBL01020182
  0
POLYLINE
  8
LAYER_1
 40
0.1058
 41
0.1058
 66
1
 10
0
 20
0
 30
0
  0
VERTEX
  8
LAYER_1
 10
164.908
 20
109.3427
 42
0.4142244822
  0
VERTEX
  8
LAYER_1
 10
165.3081
 20
108.9426
  0
SEQEND
  0
ENDBLK
  0
BLOCK
  8
LAYER_1
  2
AIGNBL01020183
 70
64
 10
0
 20
0
 30
0
  3
AIGNBL01020183
  0
POLYLINE
  8
LAYER_1
 40
0.1058
 41
0.1058
 66
1
 10
0
 20
0
 30
0
  0
VERTEX
  8
LAYER_1
 10
163.7279
 20
108.5425
  0
VERTEX
  8
LAYER_1
 10
164.1078
 20
108.5425
  0
SEQEND
  0
ENDBLK
  0
BLOCK
  8
LAYER_1
  2
AIGNBL01020184
 70
64
 10
0
 20
0
 30
0
  3
AIGNBL01020184
  0
POLYLINE
  8
LAYER_1
 40
0.1058
 41
0.1058
 66
1
 10
0
 20
0
 30
0
  0
VERTEX
  8
LAYER_1
 10
164.5079
 20
107.7626
  0
VERTEX
  8
LAYER_1
 10
164.5079
 20
108.1424
  0
SEQEND
  0
ENDBLK
  0
BLOCK
  8
LAYER_1
  2
AIGNBL01020185
 70
64
 10
0
 20
0
 30
0
  3
AIGNBL01020185
  0
POLYLINE
  8
LAYER_1
 40
0.1058
 41
0.1058
 66
1
 10
0
 20
0
 30
0
  0
VERTEX
  8
LAYER_1
 10
164.5079
 20
108.1424
 42
0.4142480298
  0
VERTEX
  8
LAYER_1
 10
164.1078
 20
108.5425
  0
SEQEND
  0
ENDBLK
  0
BLOCK
  8
LAYER_1
  2
AIGNBL01020186
 70
64
 10
0
 20
0
 30
0
  3
AIGNBL01020186
  0
POLYLINE
  8
LAYER_1
  6
AIGENLINE002
 40
0.1058
 41
0.1058
 66
1
 10
0
 20
0
 30
0
 70
128
  0
VERTEX
  8
LAYER_1
 10
157.7342
 20
118.3447
  0
VERTEX
  8
LAYER_1
 10
160.7039
 20
118.3447
  0
SEQEND
  0
ENDBLK
  0
BLOCK
  8
LAYER_1
  2
AIGNBL01020187
 70
64
 10
0
 20
0
 30
0
  3
AIGNBL01020187
  0
POLYLINE
  8
LAYER_1
  6
AIGENLINE002
 40
0.1058
 41
0.1058
 66
1
 10
0
 20
0
 30
0
 70
128
  0
VERTEX
  8
LAYER_1
 10
159.1641
 20
119.8492
  0
VERTEX
  8
LAYER_1
 10
159.1641
 20
116.7334
  0
SEQEND
  0
ENDBLK
  0
BLOCK
  8
LAYER_1
  2
AIGNBL01020188
 70
64
 10
0
 20
0
 30
0
  3
AIGNBL01020188
  0
CIRCLE
  8
LAYER_1
 10
159.1641
 20
118.3447
 40
1.4003
  0
ENDBLK
  0
BLOCK
  8
LAYER_1
  2
AIGNBL01020189
 70
64
 10
0
 20
0
 30
0
  3
AIGNBL01020189
  0
POLYLINE
  8
LAYER_1
 40
0.1058
 41
0.1058
 66
1
 10
0
 20
0
 30
0
  0
VERTEX
  8
LAYER_1
 10
158.1841
 20
118.5448
  0
VERTEX
  8
LAYER_1
 10
158.1841
 20
118.1447
  0
SEQEND
  0
ENDBLK
  0
BLOCK
  8
LAYER_1
  2
AIGNBL0102018A
 70
64
 10
0
 20
0
 30
0
  3
AIGNBL0102018A
  0
POLYLINE
  8
LAYER_1
 40
0.1058
 41
0.1058
 66
1
 10
0
 20
0
 30
0
  0
VERTEX
  8
LAYER_1
 10
158.9641
 20
119.3247
  0
VERTEX
  8
LAYER_1
 10
159.3642
 20
119.3247
  0
SEQEND
  0
ENDBLK
  0
BLOCK
  8
LAYER_1
  2
AIGNBL0102018B
 70
64
 10
0
 20
0
 30
0
  3
AIGNBL0102018B
  0
POLYLINE
  8
LAYER_1
 40
0.1058
 41
0.1058
 66
1
 10
0
 20
0
 30
0
  0
VERTEX
  8
LAYER_1
 10
158.564
 20
118.5448
  0
VERTEX
  8
LAYER_1
 10
158.1841
 20
118.5448
  0
SEQEND
  0
ENDBLK
  0
BLOCK
  8
LAYER_1
  2
AIGNBL0102018C
 70
64
 10
0
 20
0
 30
0
  3
AIGNBL0102018C
  0
POLYLINE
  8
LAYER_1
 40
0.1058
 41
0.1058
 66
1
 10
0
 20
0
 30
0
  0
VERTEX
  8
LAYER_1
 10
158.9641
 20
118.9449
  0
VERTEX
  8
LAYER_1
 10
158.9641
 20
119.3247
  0
SEQEND
  0
ENDBLK
  0
BLOCK
  8
LAYER_1
  2
AIGNBL0102018D
 70
64
 10
0
 20
0
 30
0
  3
AIGNBL0102018D
  0
POLYLINE
  8
LAYER_1
 40
0.1058
 41
0.1058
 66
1
 10
0
 20
0
 30
0
  0
VERTEX
  8
LAYER_1
 10
158.564
 20
118.5448
 42
0.4142417245
  0
VERTEX
  8
LAYER_1
 10
158.9641
 20
118.9449
  0
SEQEND
  0
ENDBLK
  0
BLOCK
  8
LAYER_1
  2
AIGNBL0102018E
 70
64
 10
0
 20
0
 30
0
  3
AIGNBL0102018E
  0
POLYLINE
  8
LAYER_1
 40
0.1058
 41
0.1058
 66
1
 10
0
 20
0
 30
0
  0
VERTEX
  8
LAYER_1
 10
159.3642
 20
117.3647
  0
VERTEX
  8
LAYER_1
 10
158.9641
 20
117.3647
  0
SEQEND
  0
ENDBLK
  0
BLOCK
  8
LAYER_1
  2
AIGNBL0102018F
 70
64
 10
0
 20
0
 30
0
  3
AIGNBL0102018F
  0
POLYLINE
  8
LAYER_1
 40
0.1058
 41
0.1058
 66
1
 10
0
 20
0
 30
0
  0
VERTEX
  8
LAYER_1
 10
160.1442
 20
118.1447
  0
VERTEX
  8
LAYER_1
 10
160.1442
 20
118.5448
  0
SEQEND
  0
ENDBLK
  0
BLOCK
  8
LAYER_1
  2
AIGNBL01020190
 70
64
 10
0
 20
0
 30
0
  3
AIGNBL01020190
  0
POLYLINE
  8
LAYER_1
 40
0.1058
 41
0.1058
 66
1
 10
0
 20
0
 30
0
  0
VERTEX
  8
LAYER_1
 10
159.3642
 20
117.7446
  0
VERTEX
  8
LAYER_1
 10
159.3642
 20
117.3647
  0
SEQEND
  0
ENDBLK
  0
BLOCK
  8
LAYER_1
  2
AIGNBL01020191
 70
64
 10
0
 20
0
 30
0
  3
AIGNBL01020191
  0
POLYLINE
  8
LAYER_1
 40
0.1058
 41
0.1058
 66
1
 10
0
 20
0
 30
0
  0
VERTEX
  8
LAYER_1
 10
159.7643
 20
118.1447
  0
VERTEX
  8
LAYER_1
 10
160.1442
 20
118.1447
  0
SEQEND
  0
ENDBLK
  0
BLOCK
  8
LAYER_1
  2
AIGNBL01020192
 70
64
 10
0
 20
0
 30
0
  3
AIGNBL01020192
  0
POLYLINE
  8
LAYER_1
 40
0.1058
 41
0.1058
 66
1
 10
0
 20
0
 30
0
  0
VERTEX
  8
LAYER_1
 10
159.7643
 20
118.1447
 42
0.4142277367
  0
VERTEX
  8
LAYER_1
 10
159.3642
 20
117.7446
  0
SEQEND
  0
ENDBLK
  0
BLOCK
  8
LAYER_1
  2
AIGNBL01020193
 70
64
 10
0
 20
0
 30
0
  3
AIGNBL01020193
  0
POLYLINE
  8
LAYER_1
 40
0.1058
 41
0.1058
 66
1
 10
0
 20
0
 30
0
  0
VERTEX
  8
LAYER_1
 10
159.3642
 20
119.3247
  0
VERTEX
  8
LAYER_1
 10
159.3642
 20
118.9449
  0
SEQEND
  0
ENDBLK
  0
BLOCK
  8
LAYER_1
  2
AIGNBL01020194
 70
64
 10
0
 20
0
 30
0
  3
AIGNBL01020194
  0
POLYLINE
  8
LAYER_1
 40
0.1058
 41
0.1058
 66
1
 10
0
 20
0
 30
0
  0
VERTEX
  8
LAYER_1
 10
160.1442
 20
118.5448
  0
VERTEX
  8
LAYER_1
 10
159.7643
 20
118.5448
  0
SEQEND
  0
ENDBLK
  0
BLOCK
  8
LAYER_1
  2
AIGNBL01020195
 70
64
 10
0
 20
0
 30
0
  3
AIGNBL01020195
  0
POLYLINE
  8
LAYER_1
 40
0.1058
 41
0.1058
 66
1
 10
0
 20
0
 30
0
  0
VERTEX
  8
LAYER_1
 10
159.3642
 20
118.9449
 42
0.4142601537
  0
VERTEX
  8
LAYER_1
 10
159.7643
 20
118.5448
  0
SEQEND
  0
ENDBLK
  0
BLOCK
  8
LAYER_1
  2
AIGNBL01020196
 70
64
 10
0
 20
0
 30
0
  3
AIGNBL01020196
  0
POLYLINE
  8
LAYER_1
 40
0.1058
 41
0.1058
 66
1
 10
0
 20
0
 30
0
  0
VERTEX
  8
LAYER_1
 10
158.1841
 20
118.1447
  0
VERTEX
  8
LAYER_1
 10
158.564
 20
118.1447
  0
SEQEND
  0
ENDBLK
  0
BLOCK
  8
LAYER_1
  2
AIGNBL01020197
 70
64
 10
0
 20
0
 30
0
  3
AIGNBL01020197
  0
POLYLINE
  8
LAYER_1
 40
0.1058
 41
0.1058
 66
1
 10
0
 20
0
 30
0
  0
VERTEX
  8
LAYER_1
 10
158.9641
 20
117.3647
  0
VERTEX
  8
LAYER_1
 10
158.9641
 20
117.7446
  0
SEQEND
  0
ENDBLK
  0
BLOCK
  8
LAYER_1
  2
AIGNBL01020198
 70
64
 10
0
 20
0
 30
0
  3
AIGNBL01020198
  0
POLYLINE
  8
LAYER_1
 40
0.1058
 41
0.1058
 66
1
 10
0
 20
0
 30
0
  0
VERTEX
  8
LAYER_1
 10
158.9641
 20
117.7446
 42
0.4142123608
  0
VERTEX
  8
LAYER_1
 10
158.564
 20
118.1447
  0
SEQEND
  0
ENDBLK
  0
BLOCK
  8
LAYER_1
  2
AIGNBL01020199
 70
64
 10
0
 20
0
 30
0
  3
AIGNBL01020199
  0
POLYLINE
  8
LAYER_1
  6
AIGENLINE002
 40
0.1058
 41
0.1058
 66
1
 10
0
 20
0
 30
0
 70
128
  0
VERTEX
  8
LAYER_1
 10
155.2143
 20
111.9433
  0
VERTEX
  8
LAYER_1
 10
163.4675
 20
111.9433
  0
SEQEND
  0
ENDBLK
  0
BLOCK
  8
LAYER_1
  2
AIGNBL0102019A
 70
64
 10
0
 20
0
 30
0
  3
AIGNBL0102019A
  0
POLYLINE
  8
LAYER_1
  6
AIGENLINE002
 40
0.1058
 41
0.1058
 66
1
 10
0
 20
0
 30
0
 70
128
  0
VERTEX
  8
LAYER_1
 10
159.1641
 20
115.2756
  0
VERTEX
  8
LAYER_1
 10
159.1641
 20
107.0935
  0
SEQEND
  0
ENDBLK
  0
BLOCK
  8
LAYER_1
  2
AIGNBL0102019B
 70
64
 10
0
 20
0
 30
0
  3
AIGNBL0102019B
  0
POLYLINE
  8
LAYER_1
 40
0.1058
 41
0.1058
 66
1
 10
0
 20
0
 30
0
  0
VERTEX
  8
LAYER_1
 10
163.1476
 20
115.078
  0
VERTEX
  8
LAYER_1
 10
161.1232
 20
113.0536
  0
SEQEND
  0
ENDBLK
  0
BLOCK
  8
LAYER_1
  2
AIGNBL0102019C
 70
64
 10
0
 20
0
 30
0
  3
AIGNBL0102019C
  0
POLYLINE
  8
LAYER_1
 40
0.1058
 41
0.1058
 66
1
 10
0
 20
0
 30
0
  0
VERTEX
  8
LAYER_1
 10
162.6088
 20
116.2367
  0
VERTEX
  8
LAYER_1
 10
159.667
 20
113.2948
  0
SEQEND
  0
ENDBLK
  0
BLOCK
  8
LAYER_1
  2
AIGNBL0102019D
 70
64
 10
0
 20
0
 30
0
  3
AIGNBL0102019D
  0
POLYLINE
  8
LAYER_1
 40
0.1058
 41
0.1058
 66
1
 10
0
 20
0
 30
0
  0
VERTEX
  8
LAYER_1
 10
163.4575
 20
115.3879
  0
VERTEX
  8
LAYER_1
 10
160.4831
 20
112.4136
  0
SEQEND
  0
ENDBLK
  0
BLOCK
  8
LAYER_1
  2
AIGNBL0102019E
 70
64
 10
0
 20
0
 30
0
  3
AIGNBL0102019E
  0
POLYLINE
  8
LAYER_1
 40
0.1058
 41
0.1058
 66
1
 10
0
 20
0
 30
0
  0
VERTEX
  8
LAYER_1
 10
156.0294
 20
107.9599
  0
VERTEX
  8
LAYER_1
 10
158.0538
 20
109.9842
  0
SEQEND
  0
ENDBLK
  0
BLOCK
  8
LAYER_1
  2
AIGNBL0102019F
 70
64
 10
0
 20
0
 30
0
  3
AIGNBL0102019F
  0
POLYLINE
  8
LAYER_1
 40
0.1058
 41
0.1058
 66
1
 10
0
 20
0
 30
0
  0
VERTEX
  8
LAYER_1
 10
154.8708
 20
108.4986
  0
VERTEX
  8
LAYER_1
 10
157.8126
 20
111.4405
  0
SEQEND
  0
ENDBLK
  0
BLOCK
  8
LAYER_1
  2
AIGNBL010201A0
 70
64
 10
0
 20
0
 30
0
  3
AIGNBL010201A0
  0
POLYLINE
  8
LAYER_1
 40
0.1058
 41
0.1058
 66
1
 10
0
 20
0
 30
0
  0
VERTEX
  8
LAYER_1
 10
155.7195
 20
107.6499
  0
VERTEX
  8
LAYER_1
 10
158.6939
 20
110.6243
  0
SEQEND
  0
ENDBLK
  0
BLOCK
  8
LAYER_1
  2
AIGNBL010201A1
 70
64
 10
0
 20
0
 30
0
  3
AIGNBL010201A1
  0
POLYLINE
  8
LAYER_1
  6
AIGENLINE002
 40
0.1058
 41
0.1058
 66
1
 10
0
 20
0
 30
0
 70
128
  0
VERTEX
  8
LAYER_1
 10
156.8078
 20
114.2996
  0
VERTEX
  8
LAYER_1
 10
162.5935
 20
108.514
  0
SEQEND
  0
ENDBLK
  0
BLOCK
  8
LAYER_1
  2
AIGNBL010201A2
 70
64
 10
0
 20
0
 30
0
  3
AIGNBL010201A2
  0
POLYLINE
  8
LAYER_1
  6
AIGENLINE002
 40
0.1058
 41
0.1058
 66
1
 10
0
 20
0
 30
0
 70
128
  0
VERTEX
  8
LAYER_1
 10
155.2143
 20
111.9433
  0
VERTEX
  8
LAYER_1
 10
163.4675
 20
111.9433
  0
SEQEND
  0
ENDBLK
  0
BLOCK
  8
LAYER_1
  2
AIGNBL010201A3
 70
64
 10
0
 20
0
 30
0
  3
AIGNBL010201A3
  0
POLYLINE
  8
LAYER_1
  6
AIGENLINE002
 40
0.1058
 41
0.1058
 66
1
 10
0
 20
0
 30
0
 70
128
  0
VERTEX
  8
LAYER_1
 10
159.1641
 20
114.8556
  0
VERTEX
  8
LAYER_1
 10
159.1641
 20
109.2858
  0
SEQEND
  0
ENDBLK
  0
BLOCK
  8
LAYER_1
  2
AIGNBL010201A4
 70
64
 10
0
 20
0
 30
0
  3
AIGNBL010201A4
  0
POLYLINE
  8
LAYER_1
 40
0.1058
 41
0.1058
 66
1
 10
0
 20
0
 30
0
  0
VERTEX
  8
LAYER_1
 10
177.9325
 20
116.9444
  0
VERTEX
  8
LAYER_1
 10
177.9325
 20
106.9422
  0
SEQEND
  0
ENDBLK
  0
BLOCK
  8
LAYER_1
  2
AIGNBL010201A5
 70
64
 10
0
 20
0
 30
0
  3
AIGNBL010201A5
  0
POLYLINE
  8
LAYER_1
 40
0.1058
 41
0.1058
 66
1
 10
0
 20
0
 30
0
  0
VERTEX
  8
LAYER_1
 10
164.0588
 20
97.4773
  0
VERTEX
  8
LAYER_1
 10
164.0588
 20
96.9772
  0
SEQEND
  0
ENDBLK
  0
BLOCK
  8
LAYER_1
  2
AIGNBL010201A6
 70
64
 10
0
 20
0
 30
0
  3
AIGNBL010201A6
  0
POLYLINE
  8
LAYER_1
 40
0.1058
 41
0.1058
 66
1
 10
0
 20
0
 30
0
  0
VERTEX
  8
LAYER_1
 10
164.0588
 20
96.9772
 42
0.4142369356
  0
VERTEX
  8
LAYER_1
 10
164.5589
 20
96.477
  0
SEQEND
  0
ENDBLK
  0
BLOCK
  8
LAYER_1
  2
AIGNBL010201A7
 70
64
 10
0
 20
0
 30
0
  3
AIGNBL010201A7
  0
POLYLINE
  8
LAYER_1
 40
0.1058
 41
0.1058
 66
1
 10
0
 20
0
 30
0
  0
VERTEX
  8
LAYER_1
 10
164.5589
 20
96.477
  0
VERTEX
  8
LAYER_1
 10
166.3593
 20
96.477
  0
SEQEND
  0
ENDBLK
  0
BLOCK
  8
LAYER_1
  2
AIGNBL010201A8
 70
64
 10
0
 20
0
 30
0
  3
AIGNBL010201A8
  0
POLYLINE
  8
LAYER_1
 40
0.1058
 41
0.1058
 66
1
 10
0
 20
0
 30
0
  0
VERTEX
  8
LAYER_1
 10
166.8594
 20
96.9772
  0
VERTEX
  8
LAYER_1
 10
166.8594
 20
97.4773
  0
SEQEND
  0
ENDBLK
  0
BLOCK
  8
LAYER_1
  2
AIGNBL010201A9
 70
64
 10
0
 20
0
 30
0
  3
AIGNBL010201A9
  0
POLYLINE
  8
LAYER_1
 40
0.1058
 41
0.1058
 66
1
 10
0
 20
0
 30
0
  0
VERTEX
  8
LAYER_1
 10
166.3593
 20
96.477
 42
0.4142487376
  0
VERTEX
  8
LAYER_1
 10
166.8594
 20
96.9772
  0
SEQEND
  0
ENDBLK
  0
BLOCK
  8
LAYER_1
  2
AIGNBL010201AA
 70
64
 10
0
 20
0
 30
0
  3
AIGNBL010201AA
  0
POLYLINE
  8
LAYER_1
 40
0.1058
 41
0.1058
 66
1
 10
0
 20
0
 30
0
  0
VERTEX
  8
LAYER_1
 10
166.0592
 20
100.1164
  0
VERTEX
  8
LAYER_1
 10
165.4591
 20
101.0781
  0
SEQEND
  0
ENDBLK
  0
BLOCK
  8
LAYER_1
  2
AIGNBL010201AB
 70
64
 10
0
 20
0
 30
0
  3
AIGNBL010201AB
  0
POLYLINE
  8
LAYER_1
 40
0.1058
 41
0.1058
 66
1
 10
0
 20
0
 30
0
  0
VERTEX
  8
LAYER_1
 10
165.4591
 20
101.0781
  0
VERTEX
  8
LAYER_1
 10
164.859
 20
100.1164
  0
SEQEND
  0
ENDBLK
  0
BLOCK
  8
LAYER_1
  2
AIGNBL010201AC
 70
64
 10
0
 20
0
 30
0
  3
AIGNBL010201AC
  0
POLYLINE
  8
LAYER_1
 40
0.1058
 41
0.1058
 66
1
 10
0
 20
0
 30
0
  0
VERTEX
  8
LAYER_1
 10
164.859
 20
100.1164
  0
VERTEX
  8
LAYER_1
 10
164.859
 20
97.4773
  0
SEQEND
  0
ENDBLK
  0
BLOCK
  8
LAYER_1
  2
AIGNBL010201AD
 70
64
 10
0
 20
0
 30
0
  3
AIGNBL010201AD
  0
POLYLINE
  8
LAYER_1
 40
0.1058
 41
0.1058
 66
1
 10
0
 20
0
 30
0
  0
VERTEX
  8
LAYER_1
 10
166.0592
 20
97.4773
  0
VERTEX
  8
LAYER_1
 10
166.0592
 20
100.1164
  0
SEQEND
  0
ENDBLK
  0
BLOCK
  8
LAYER_1
  2
AIGNBL010201AE
 70
64
 10
0
 20
0
 30
0
  3
AIGNBL010201AE
  0
POLYLINE
  8
LAYER_1
 40
0.1058
 41
0.1058
 66
1
 10
0
 20
0
 30
0
  0
VERTEX
  8
LAYER_1
 10
166.2593
 20
100.1664
  0
VERTEX
  8
LAYER_1
 10
164.6589
 20
100.0664
  0
SEQEND
  0
ENDBLK
  0
BLOCK
  8
LAYER_1
  2
AIGNBL010201AF
 70
64
 10
0
 20
0
 30
0
  3
AIGNBL010201AF
  0
POLYLINE
  8
LAYER_1
 40
0.1058
 41
0.1058
 66
1
 10
0
 20
0
 30
0
  0
VERTEX
  8
LAYER_1
 10
166.2593
 20
99.7663
  0
VERTEX
  8
LAYER_1
 10
164.6589
 20
99.6663
  0
SEQEND
  0
ENDBLK
  0
BLOCK
  8
LAYER_1
  2
AIGNBL010201B0
 70
64
 10
0
 20
0
 30
0
  3
AIGNBL010201B0
  0
POLYLINE
  8
LAYER_1
 40
0.1058
 41
0.1058
 66
1
 10
0
 20
0
 30
0
  0
VERTEX
  8
LAYER_1
 10
166.2593
 20
99.3662
  0
VERTEX
  8
LAYER_1
 10
164.6589
 20
99.2662
  0
SEQEND
  0
ENDBLK
  0
BLOCK
  8
LAYER_1
  2
AIGNBL010201B1
 70
64
 10
0
 20
0
 30
0
  3
AIGNBL010201B1
  0
POLYLINE
  8
LAYER_1
 40
0.1058
 41
0.1058
 66
1
 10
0
 20
0
 30
0
  0
VERTEX
  8
LAYER_1
 10
166.2593
 20
98.9661
  0
VERTEX
  8
LAYER_1
 10
164.6589
 20
98.8661
  0
SEQEND
  0
ENDBLK
  0
BLOCK
  8
LAYER_1
  2
AIGNBL010201B2
 70
64
 10
0
 20
0
 30
0
  3
AIGNBL010201B2
  0
POLYLINE
  8
LAYER_1
 40
0.1058
 41
0.1058
 66
1
 10
0
 20
0
 30
0
  0
VERTEX
  8
LAYER_1
 10
166.2593
 20
98.566
  0
VERTEX
  8
LAYER_1
 10
164.6589
 20
98.466
  0
SEQEND
  0
ENDBLK
  0
BLOCK
  8
LAYER_1
  2
AIGNBL010201B3
 70
64
 10
0
 20
0
 30
0
  3
AIGNBL010201B3
  0
POLYLINE
  8
LAYER_1
 40
0.1058
 41
0.1058
 66
1
 10
0
 20
0
 30
0
  0
VERTEX
  8
LAYER_1
 10
166.2593
 20
98.166
  0
VERTEX
  8
LAYER_1
 10
164.6589
 20
98.0659
  0
SEQEND
  0
ENDBLK
  0
BLOCK
  8
LAYER_1
  2
AIGNBL010201B4
 70
64
 10
0
 20
0
 30
0
  3
AIGNBL010201B4
  0
POLYLINE
  8
LAYER_1
 40
0.1058
 41
0.1058
 66
1
 10
0
 20
0
 30
0
  0
VERTEX
  8
LAYER_1
 10
166.0592
 20
100.554
  0
VERTEX
  8
LAYER_1
 10
164.9582
 20
100.4852
  0
SEQEND
  0
ENDBLK
  0
BLOCK
  8
LAYER_1
  2
AIGNBL010201B5
 70
64
 10
0
 20
0
 30
0
  3
AIGNBL010201B5
  0
POLYLINE
  8
LAYER_1
 40
0.1058
 41
0.1058
 66
1
 10
0
 20
0
 30
0
  0
VERTEX
  8
LAYER_1
 10
152.9712
 20
97.4773
  0
VERTEX
  8
LAYER_1
 10
152.9712
 20
96.9772
  0
SEQEND
  0
ENDBLK
  0
BLOCK
  8
LAYER_1
  2
AIGNBL010201B6
 70
64
 10
0
 20
0
 30
0
  3
AIGNBL010201B6
  0
POLYLINE
  8
LAYER_1
 40
0.1058
 41
0.1058
 66
1
 10
0
 20
0
 30
0
  0
VERTEX
  8
LAYER_1
 10
152.9712
 20
96.9772
 42
0.4142490743
  0
VERTEX
  8
LAYER_1
 10
153.4713
 20
96.477
  0
SEQEND
  0
ENDBLK
  0
BLOCK
  8
LAYER_1
  2
AIGNBL010201B7
 70
64
 10
0
 20
0
 30
0
  3
AIGNBL010201B7
  0
POLYLINE
  8
LAYER_1
 40
0.1058
 41
0.1058
 66
1
 10
0
 20
0
 30
0
  0
VERTEX
  8
LAYER_1
 10
153.4713
 20
96.477
  0
VERTEX
  8
LAYER_1
 10
155.2717
 20
96.477
  0
SEQEND
  0
ENDBLK
  0
BLOCK
  8
LAYER_1
  2
AIGNBL010201B8
 70
64
 10
0
 20
0
 30
0
  3
AIGNBL010201B8
  0
POLYLINE
  8
LAYER_1
 40
0.1058
 41
0.1058
 66
1
 10
0
 20
0
 30
0
  0
VERTEX
  8
LAYER_1
 10
155.7718
 20
96.9772
  0
VERTEX
  8
LAYER_1
 10
155.7718
 20
97.4773
  0
SEQEND
  0
ENDBLK
  0
BLOCK
  8
LAYER_1
  2
AIGNBL010201B9
 70
64
 10
0
 20
0
 30
0
  3
AIGNBL010201B9
  0
POLYLINE
  8
LAYER_1
 40
0.1058
 41
0.1058
 66
1
 10
0
 20
0
 30
0
  0
VERTEX
  8
LAYER_1
 10
155.2717
 20
96.477
 42
0.4142365989
  0
VERTEX
  8
LAYER_1
 10
155.7718
 20
96.9772
  0
SEQEND
  0
ENDBLK
  0
BLOCK
  8
LAYER_1
  2
AIGNBL010201BA
 70
64
 10
0
 20
0
 30
0
  3
AIGNBL010201BA
  0
POLYLINE
  8
LAYER_1
 40
0.1058
 41
0.1058
 66
1
 10
0
 20
0
 30
0
  0
VERTEX
  8
LAYER_1
 10
154.9716
 20
100.1164
  0
VERTEX
  8
LAYER_1
 10
154.3715
 20
101.0781
  0
SEQEND
  0
ENDBLK
  0
BLOCK
  8
LAYER_1
  2
AIGNBL010201BB
 70
64
 10
0
 20
0
 30
0
  3
AIGNBL010201BB
  0
POLYLINE
  8
LAYER_1
 40
0.1058
 41
0.1058
 66
1
 10
0
 20
0
 30
0
  0
VERTEX
  8
LAYER_1
 10
154.3715
 20
101.0781
  0
VERTEX
  8
LAYER_1
 10
153.7714
 20
100.1164
  0
SEQEND
  0
ENDBLK
  0
BLOCK
  8
LAYER_1
  2
AIGNBL010201BC
 70
64
 10
0
 20
0
 30
0
  3
AIGNBL010201BC
  0
POLYLINE
  8
LAYER_1
 40
0.1058
 41
0.1058
 66
1
 10
0
 20
0
 30
0
  0
VERTEX
  8
LAYER_1
 10
153.7714
 20
100.1164
  0
VERTEX
  8
LAYER_1
 10
153.7714
 20
97.4773
  0
SEQEND
  0
ENDBLK
  0
BLOCK
  8
LAYER_1
  2
AIGNBL010201BD
 70
64
 10
0
 20
0
 30
0
  3
AIGNBL010201BD
  0
POLYLINE
  8
LAYER_1
 40
0.1058
 41
0.1058
 66
1
 10
0
 20
0
 30
0
  0
VERTEX
  8
LAYER_1
 10
154.9716
 20
97.4773
  0
VERTEX
  8
LAYER_1
 10
154.9716
 20
100.1164
  0
SEQEND
  0
ENDBLK
  0
BLOCK
  8
LAYER_1
  2
AIGNBL010201BE
 70
64
 10
0
 20
0
 30
0
  3
AIGNBL010201BE
  0
POLYLINE
  8
LAYER_1
 40
0.1058
 41
0.1058
 66
1
 10
0
 20
0
 30
0
  0
VERTEX
  8
LAYER_1
 10
155.1717
 20
100.1664
  0
VERTEX
  8
LAYER_1
 10
153.5713
 20
100.0664
  0
SEQEND
  0
ENDBLK
  0
BLOCK
  8
LAYER_1
  2
AIGNBL010201BF
 70
64
 10
0
 20
0
 30
0
  3
AIGNBL010201BF
  0
POLYLINE
  8
LAYER_1
 40
0.1058
 41
0.1058
 66
1
 10
0
 20
0
 30
0
  0
VERTEX
  8
LAYER_1
 10
155.1717
 20
99.7663
  0
VERTEX
  8
LAYER_1
 10
153.5713
 20
99.6663
  0
SEQEND
  0
ENDBLK
  0
BLOCK
  8
LAYER_1
  2
AIGNBL010201C0
 70
64
 10
0
 20
0
 30
0
  3
AIGNBL010201C0
  0
POLYLINE
  8
LAYER_1
 40
0.1058
 41
0.1058
 66
1
 10
0
 20
0
 30
0
  0
VERTEX
  8
LAYER_1
 10
155.1717
 20
99.3662
  0
VERTEX
  8
LAYER_1
 10
153.5713
 20
99.2662
  0
SEQEND
  0
ENDBLK
  0
BLOCK
  8
LAYER_1
  2
AIGNBL010201C1
 70
64
 10
0
 20
0
 30
0
  3
AIGNBL010201C1
  0
POLYLINE
  8
LAYER_1
 40
0.1058
 41
0.1058
 66
1
 10
0
 20
0
 30
0
  0
VERTEX
  8
LAYER_1
 10
155.1717
 20
98.9661
  0
VERTEX
  8
LAYER_1
 10
153.5713
 20
98.8661
  0
SEQEND
  0
ENDBLK
  0
BLOCK
  8
LAYER_1
  2
AIGNBL010201C2
 70
64
 10
0
 20
0
 30
0
  3
AIGNBL010201C2
  0
POLYLINE
  8
LAYER_1
 40
0.1058
 41
0.1058
 66
1
 10
0
 20
0
 30
0
  0
VERTEX
  8
LAYER_1
 10
155.1717
 20
98.566
  0
VERTEX
  8
LAYER_1
 10
153.5713
 20
98.466
  0
SEQEND
  0
ENDBLK
  0
BLOCK
  8
LAYER_1
  2
AIGNBL010201C3
 70
64
 10
0
 20
0
 30
0
  3
AIGNBL010201C3
  0
POLYLINE
  8
LAYER_1
 40
0.1058
 41
0.1058
 66
1
 10
0
 20
0
 30
0
  0
VERTEX
  8
LAYER_1
 10
155.1717
 20
98.166
  0
VERTEX
  8
LAYER_1
 10
153.5713
 20
98.0659
  0
SEQEND
  0
ENDBLK
  0
BLOCK
  8
LAYER_1
  2
AIGNBL010201C4
 70
64
 10
0
 20
0
 30
0
  3
AIGNBL010201C4
  0
POLYLINE
  8
LAYER_1
 40
0.1058
 41
0.1058
 66
1
 10
0
 20
0
 30
0
  0
VERTEX
  8
LAYER_1
 10
154.9716
 20
100.554
  0
VERTEX
  8
LAYER_1
 10
153.8706
 20
100.4852
  0
SEQEND
  0
ENDBLK
  0
BLOCK
  8
LAYER_1
  2
AIGNBL010201C5
 70
64
 10
0
 20
0
 30
0
  3
AIGNBL010201C5
  0
POLYLINE
  8
LAYER_1
 40
0.1058
 41
0.1058
 66
1
 10
0
 20
0
 30
0
  0
VERTEX
  8
LAYER_1
 10
158.3149
 20
91.776
  0
VERTEX
  8
LAYER_1
 10
161.5157
 20
91.976
  0
SEQEND
  0
ENDBLK
  0
BLOCK
  8
LAYER_1
  2
AIGNBL010201C6
 70
64
 10
0
 20
0
 30
0
  3
AIGNBL010201C6
  0
POLYLINE
  8
LAYER_1
 40
0.1058
 41
0.1058
 66
1
 10
0
 20
0
 30
0
  0
VERTEX
  8
LAYER_1
 10
158.3149
 20
92.1761
  0
VERTEX
  8
LAYER_1
 10
161.5157
 20
92.3761
  0
SEQEND
  0
ENDBLK
  0
BLOCK
  8
LAYER_1
  2
AIGNBL010201C7
 70
64
 10
0
 20
0
 30
0
  3
AIGNBL010201C7
  0
POLYLINE
  8
LAYER_1
 40
0.1058
 41
0.1058
 66
1
 10
0
 20
0
 30
0
  0
VERTEX
  8
LAYER_1
 10
158.3149
 20
92.5762
  0
VERTEX
  8
LAYER_1
 10
161.5157
 20
92.7762
  0
SEQEND
  0
ENDBLK
  0
BLOCK
  8
LAYER_1
  2
AIGNBL010201C8
 70
64
 10
0
 20
0
 30
0
  3
AIGNBL010201C8
  0
POLYLINE
  8
LAYER_1
 40
0.1058
 41
0.1058
 66
1
 10
0
 20
0
 30
0
  0
VERTEX
  8
LAYER_1
 10
158.3149
 20
92.9763
  0
VERTEX
  8
LAYER_1
 10
161.5157
 20
93.1763
  0
SEQEND
  0
ENDBLK
  0
BLOCK
  8
LAYER_1
  2
AIGNBL010201C9
 70
64
 10
0
 20
0
 30
0
  3
AIGNBL010201C9
  0
POLYLINE
  8
LAYER_1
 40
0.1058
 41
0.1058
 66
1
 10
0
 20
0
 30
0
  0
VERTEX
  8
LAYER_1
 10
158.3149
 20
93.3763
  0
VERTEX
  8
LAYER_1
 10
161.5157
 20
93.5764
  0
SEQEND
  0
ENDBLK
  0
BLOCK
  8
LAYER_1
  2
AIGNBL010201CA
 70
64
 10
0
 20
0
 30
0
  3
AIGNBL010201CA
  0
POLYLINE
  8
LAYER_1
 40
0.1058
 41
0.1058
 66
1
 10
0
 20
0
 30
0
  0
VERTEX
  8
LAYER_1
 10
158.3149
 20
93.7764
  0
VERTEX
  8
LAYER_1
 10
161.5157
 20
93.9765
  0
SEQEND
  0
ENDBLK
  0
BLOCK
  8
LAYER_1
  2
AIGNBL010201CB
 70
64
 10
0
 20
0
 30
0
  3
AIGNBL010201CB
  0
POLYLINE
  8
LAYER_1
 40
0.1058
 41
0.1058
 66
1
 10
0
 20
0
 30
0
  0
VERTEX
  8
LAYER_1
 10
158.3149
 20
94.1765
  0
VERTEX
  8
LAYER_1
 10
161.5157
 20
94.3766
  0
SEQEND
  0
ENDBLK
  0
BLOCK
  8
LAYER_1
  2
AIGNBL010201CC
 70
64
 10
0
 20
0
 30
0
  3
AIGNBL010201CC
  0
POLYLINE
  8
LAYER_1
 40
0.1058
 41
0.1058
 66
1
 10
0
 20
0
 30
0
  0
VERTEX
  8
LAYER_1
 10
158.3149
 20
94.5766
  0
VERTEX
  8
LAYER_1
 10
161.5157
 20
94.7767
  0
SEQEND
  0
ENDBLK
  0
BLOCK
  8
LAYER_1
  2
AIGNBL010201CD
 70
64
 10
0
 20
0
 30
0
  3
AIGNBL010201CD
  0
POLYLINE
  8
LAYER_1
 40
0.1058
 41
0.1058
 66
1
 10
0
 20
0
 30
0
  0
VERTEX
  8
LAYER_1
 10
158.3149
 20
94.9767
  0
VERTEX
  8
LAYER_1
 10
161.5157
 20
95.1767
  0
SEQEND
  0
ENDBLK
  0
BLOCK
  8
LAYER_1
  2
AIGNBL010201CE
 70
64
 10
0
 20
0
 30
0
  3
AIGNBL010201CE
  0
POLYLINE
  8
LAYER_1
 40
0.1058
 41
0.1058
 66
1
 10
0
 20
0
 30
0
  0
VERTEX
  8
LAYER_1
 10
158.3149
 20
95.3768
  0
VERTEX
  8
LAYER_1
 10
161.5157
 20
95.5768
  0
SEQEND
  0
ENDBLK
  0
BLOCK
  8
LAYER_1
  2
AIGNBL010201CF
 70
64
 10
0
 20
0
 30
0
  3
AIGNBL010201CF
  0
POLYLINE
  8
LAYER_1
 40
0.1058
 41
0.1058
 66
1
 10
0
 20
0
 30
0
  0
VERTEX
  8
LAYER_1
 10
158.3149
 20
95.7769
  0
VERTEX
  8
LAYER_1
 10
161.5157
 20
95.9769
  0
SEQEND
  0
ENDBLK
  0
BLOCK
  8
LAYER_1
  2
AIGNBL010201D0
 70
64
 10
0
 20
0
 30
0
  3
AIGNBL010201D0
  0
POLYLINE
  8
LAYER_1
 40
0.1058
 41
0.1058
 66
1
 10
0
 20
0
 30
0
  0
VERTEX
  8
LAYER_1
 10
158.3149
 20
96.177
  0
VERTEX
  8
LAYER_1
 10
161.5157
 20
96.377
  0
SEQEND
  0
ENDBLK
  0
BLOCK
  8
LAYER_1
  2
AIGNBL010201D1
 70
64
 10
0
 20
0
 30
0
  3
AIGNBL010201D1
  0
POLYLINE
  8
LAYER_1
 40
0.1058
 41
0.1058
 66
1
 10
0
 20
0
 30
0
  0
VERTEX
  8
LAYER_1
 10
158.3149
 20
96.5771
  0
VERTEX
  8
LAYER_1
 10
161.5157
 20
96.7771
  0
SEQEND
  0
ENDBLK
  0
BLOCK
  8
LAYER_1
  2
AIGNBL010201D2
 70
64
 10
0
 20
0
 30
0
  3
AIGNBL010201D2
  0
POLYLINE
  8
LAYER_1
 40
0.1058
 41
0.1058
 66
1
 10
0
 20
0
 30
0
  0
VERTEX
  8
LAYER_1
 10
158.3149
 20
96.9772
  0
VERTEX
  8
LAYER_1
 10
161.5157
 20
97.1772
  0
SEQEND
  0
ENDBLK
  0
BLOCK
  8
LAYER_1
  2
AIGNBL010201D3
 70
64
 10
0
 20
0
 30
0
  3
AIGNBL010201D3
  0
POLYLINE
  8
LAYER_1
 40
0.1058
 41
0.1058
 66
1
 10
0
 20
0
 30
0
  0
VERTEX
  8
LAYER_1
 10
158.3149
 20
97.3772
  0
VERTEX
  8
LAYER_1
 10
161.5157
 20
97.5773
  0
SEQEND
  0
ENDBLK
  0
BLOCK
  8
LAYER_1
  2
AIGNBL010201D4
 70
64
 10
0
 20
0
 30
0
  3
AIGNBL010201D4
  0
POLYLINE
  8
LAYER_1
 40
0.1058
 41
0.1058
 66
1
 10
0
 20
0
 30
0
  0
VERTEX
  8
LAYER_1
 10
158.3149
 20
88.5753
  0
VERTEX
  8
LAYER_1
 10
161.5157
 20
88.7753
  0
SEQEND
  0
ENDBLK
  0
BLOCK
  8
LAYER_1
  2
AIGNBL010201D5
 70
64
 10
0
 20
0
 30
0
  3
AIGNBL010201D5
  0
POLYLINE
  8
LAYER_1
 40
0.1058
 41
0.1058
 66
1
 10
0
 20
0
 30
0
  0
VERTEX
  8
LAYER_1
 10
158.3149
 20
88.9754
  0
VERTEX
  8
LAYER_1
 10
161.5157
 20
89.1754
  0
SEQEND
  0
ENDBLK
  0
BLOCK
  8
LAYER_1
  2
AIGNBL010201D6
 70
64
 10
0
 20
0
 30
0
  3
AIGNBL010201D6
  0
POLYLINE
  8
LAYER_1
 40
0.1058
 41
0.1058
 66
1
 10
0
 20
0
 30
0
  0
VERTEX
  8
LAYER_1
 10
158.3149
 20
89.3754
  0
VERTEX
  8
LAYER_1
 10
161.5157
 20
89.5755
  0
SEQEND
  0
ENDBLK
  0
BLOCK
  8
LAYER_1
  2
AIGNBL010201D7
 70
64
 10
0
 20
0
 30
0
  3
AIGNBL010201D7
  0
POLYLINE
  8
LAYER_1
 40
0.1058
 41
0.1058
 66
1
 10
0
 20
0
 30
0
  0
VERTEX
  8
LAYER_1
 10
158.3149
 20
89.7755
  0
VERTEX
  8
LAYER_1
 10
161.5157
 20
89.9756
  0
SEQEND
  0
ENDBLK
  0
BLOCK
  8
LAYER_1
  2
AIGNBL010201D8
 70
64
 10
0
 20
0
 30
0
  3
AIGNBL010201D8
  0
POLYLINE
  8
LAYER_1
 40
0.1058
 41
0.1058
 66
1
 10
0
 20
0
 30
0
  0
VERTEX
  8
LAYER_1
 10
158.3149
 20
90.1756
  0
VERTEX
  8
LAYER_1
 10
161.5157
 20
90.3757
  0
SEQEND
  0
ENDBLK
  0
BLOCK
  8
LAYER_1
  2
AIGNBL010201D9
 70
64
 10
0
 20
0
 30
0
  3
AIGNBL010201D9
  0
POLYLINE
  8
LAYER_1
 40
0.1058
 41
0.1058
 66
1
 10
0
 20
0
 30
0
  0
VERTEX
  8
LAYER_1
 10
158.3149
 20
90.5757
  0
VERTEX
  8
LAYER_1
 10
161.5157
 20
90.7758
  0
SEQEND
  0
ENDBLK
  0
BLOCK
  8
LAYER_1
  2
AIGNBL010201DA
 70
64
 10
0
 20
0
 30
0
  3
AIGNBL010201DA
  0
POLYLINE
  8
LAYER_1
 40
0.1058
 41
0.1058
 66
1
 10
0
 20
0
 30
0
  0
VERTEX
  8
LAYER_1
 10
158.3149
 20
90.9758
  0
VERTEX
  8
LAYER_1
 10
161.5157
 20
91.1758
  0
SEQEND
  0
ENDBLK
  0
BLOCK
  8
LAYER_1
  2
AIGNBL010201DB
 70
64
 10
0
 20
0
 30
0
  3
AIGNBL010201DB
  0
POLYLINE
  8
LAYER_1
 40
0.1058
 41
0.1058
 66
1
 10
0
 20
0
 30
0
  0
VERTEX
  8
LAYER_1
 10
158.3149
 20
91.3759
  0
VERTEX
  8
LAYER_1
 10
161.5157
 20
91.5759
  0
SEQEND
  0
ENDBLK
  0
BLOCK
  8
LAYER_1
  2
AIGNBL010201DC
 70
64
 10
0
 20
0
 30
0
  3
AIGNBL010201DC
  0
POLYLINE
  8
LAYER_1
 40
0.1058
 41
0.1058
 66
1
 10
0
 20
0
 30
0
  0
VERTEX
  8
LAYER_1
 10
158.3149
 20
87.7751
  0
VERTEX
  8
LAYER_1
 10
161.5157
 20
87.9751
  0
SEQEND
  0
ENDBLK
  0
BLOCK
  8
LAYER_1
  2
AIGNBL010201DD
 70
64
 10
0
 20
0
 30
0
  3
AIGNBL010201DD
  0
POLYLINE
  8
LAYER_1
 40
0.1058
 41
0.1058
 66
1
 10
0
 20
0
 30
0
  0
VERTEX
  8
LAYER_1
 10
158.3149
 20
88.1752
  0
VERTEX
  8
LAYER_1
 10
161.5157
 20
88.3752
  0
SEQEND
  0
ENDBLK
  0
BLOCK
  8
LAYER_1
  2
AIGNBL010201DE
 70
64
 10
0
 20
0
 30
0
  3
AIGNBL010201DE
  0
POLYLINE
  8
LAYER_1
 40
0.1058
 41
0.1058
 66
1
 10
0
 20
0
 30
0
  0
VERTEX
  8
LAYER_1
 10
158.3149
 20
73.872
  0
VERTEX
  8
LAYER_1
 10
161.5157
 20
74.072
  0
SEQEND
  0
ENDBLK
  0
BLOCK
  8
LAYER_1
  2
AIGNBL010201DF
 70
64
 10
0
 20
0
 30
0
  3
AIGNBL010201DF
  0
POLYLINE
  8
LAYER_1
 40
0.1058
 41
0.1058
 66
1
 10
0
 20
0
 30
0
  0
VERTEX
  8
LAYER_1
 10
158.3149
 20
74.272
  0
VERTEX
  8
LAYER_1
 10
161.5157
 20
74.4721
  0
SEQEND
  0
ENDBLK
  0
BLOCK
  8
LAYER_1
  2
AIGNBL010201E0
 70
64
 10
0
 20
0
 30
0
  3
AIGNBL010201E0
  0
POLYLINE
  8
LAYER_1
 40
0.1058
 41
0.1058
 66
1
 10
0
 20
0
 30
0
  0
VERTEX
  8
LAYER_1
 10
158.3149
 20
74.6721
  0
VERTEX
  8
LAYER_1
 10
161.5157
 20
74.8722
  0
SEQEND
  0
ENDBLK
  0
BLOCK
  8
LAYER_1
  2
AIGNBL010201E1
 70
64
 10
0
 20
0
 30
0
  3
AIGNBL010201E1
  0
POLYLINE
  8
LAYER_1
 40
0.1058
 41
0.1058
 66
1
 10
0
 20
0
 30
0
  0
VERTEX
  8
LAYER_1
 10
158.3149
 20
75.0722
  0
VERTEX
  8
LAYER_1
 10
161.5157
 20
75.2723
  0
SEQEND
  0
ENDBLK
  0
BLOCK
  8
LAYER_1
  2
AIGNBL010201E2
 70
64
 10
0
 20
0
 30
0
  3
AIGNBL010201E2
  0
POLYLINE
  8
LAYER_1
 40
0.1058
 41
0.1058
 66
1
 10
0
 20
0
 30
0
  0
VERTEX
  8
LAYER_1
 10
158.3149
 20
75.4723
  0
VERTEX
  8
LAYER_1
 10
161.5157
 20
75.6724
  0
SEQEND
  0
ENDBLK
  0
BLOCK
  8
LAYER_1
  2
AIGNBL010201E3
 70
64
 10
0
 20
0
 30
0
  3
AIGNBL010201E3
  0
POLYLINE
  8
LAYER_1
 40
0.1058
 41
0.1058
 66
1
 10
0
 20
0
 30
0
  0
VERTEX
  8
LAYER_1
 10
158.3149
 20
75.8724
  0
VERTEX
  8
LAYER_1
 10
161.5157
 20
76.0724
  0
SEQEND
  0
ENDBLK
  0
BLOCK
  8
LAYER_1
  2
AIGNBL010201E4
 70
64
 10
0
 20
0
 30
0
  3
AIGNBL010201E4
  0
POLYLINE
  8
LAYER_1
 40
0.1058
 41
0.1058
 66
1
 10
0
 20
0
 30
0
  0
VERTEX
  8
LAYER_1
 10
158.3149
 20
73.3718
  0
VERTEX
  8
LAYER_1
 10
161.5157
 20
73.5719
  0
SEQEND
  0
ENDBLK
  0
BLOCK
  8
LAYER_1
  2
AIGNBL010201E5
 70
64
 10
0
 20
0
 30
0
  3
AIGNBL010201E5
  0
POLYLINE
  8
LAYER_1
 40
0.1058
 41
0.1058
 66
1
 10
0
 20
0
 30
0
  0
VERTEX
  8
LAYER_1
 10
158.3149
 20
73.7719
  0
VERTEX
  8
LAYER_1
 10
161.5157
 20
73.972
  0
SEQEND
  0
ENDBLK
  0
BLOCK
  8
LAYER_1
  2
AIGNBL010201E6
 70
64
 10
0
 20
0
 30
0
  3
AIGNBL010201E6
  0
POLYLINE
  8
LAYER_1
 40
0.1058
 41
0.1058
 66
1
 10
0
 20
0
 30
0
  0
VERTEX
  8
LAYER_1
 10
158.3149
 20
74.172
  0
VERTEX
  8
LAYER_1
 10
161.5157
 20
74.3721
  0
SEQEND
  0
ENDBLK
  0
BLOCK
  8
LAYER_1
  2
AIGNBL010201E7
 70
64
 10
0
 20
0
 30
0
  3
AIGNBL010201E7
  0
POLYLINE
  8
LAYER_1
 40
0.1058
 41
0.1058
 66
1
 10
0
 20
0
 30
0
  0
VERTEX
  8
LAYER_1
 10
158.3149
 20
74.5721
  0
VERTEX
  8
LAYER_1
 10
161.5157
 20
74.7722
  0
SEQEND
  0
ENDBLK
  0
BLOCK
  8
LAYER_1
  2
AIGNBL010201E8
 70
64
 10
0
 20
0
 30
0
  3
AIGNBL010201E8
  0
POLYLINE
  8
LAYER_1
 40
0.1058
 41
0.1058
 66
1
 10
0
 20
0
 30
0
  0
VERTEX
  8
LAYER_1
 10
158.3149
 20
74.9722
  0
VERTEX
  8
LAYER_1
 10
161.5157
 20
75.1722
  0
SEQEND
  0
ENDBLK
  0
BLOCK
  8
LAYER_1
  2
AIGNBL010201E9
 70
64
 10
0
 20
0
 30
0
  3
AIGNBL010201E9
  0
POLYLINE
  8
LAYER_1
 40
0.1058
 41
0.1058
 66
1
 10
0
 20
0
 30
0
  0
VERTEX
  8
LAYER_1
 10
158.3149
 20
71.3714
  0
VERTEX
  8
LAYER_1
 10
161.5157
 20
71.5714
  0
SEQEND
  0
ENDBLK
  0
BLOCK
  8
LAYER_1
  2
AIGNBL010201EA
 70
64
 10
0
 20
0
 30
0
  3
AIGNBL010201EA
  0
POLYLINE
  8
LAYER_1
 40
0.1058
 41
0.1058
 66
1
 10
0
 20
0
 30
0
  0
VERTEX
  8
LAYER_1
 10
158.3149
 20
71.7715
  0
VERTEX
  8
LAYER_1
 10
161.5157
 20
71.9715
  0
SEQEND
  0
ENDBLK
  0
BLOCK
  8
LAYER_1
  2
AIGNBL010201EB
 70
64
 10
0
 20
0
 30
0
  3
AIGNBL010201EB
  0
POLYLINE
  8
LAYER_1
 40
0.1058
 41
0.1058
 66
1
 10
0
 20
0
 30
0
  0
VERTEX
  8
LAYER_1
 10
158.3149
 20
72.1716
  0
VERTEX
  8
LAYER_1
 10
161.5157
 20
72.3716
  0
SEQEND
  0
ENDBLK
  0
BLOCK
  8
LAYER_1
  2
AIGNBL010201EC
 70
64
 10
0
 20
0
 30
0
  3
AIGNBL010201EC
  0
POLYLINE
  8
LAYER_1
 40
0.1058
 41
0.1058
 66
1
 10
0
 20
0
 30
0
  0
VERTEX
  8
LAYER_1
 10
158.3149
 20
72.5717
  0
VERTEX
  8
LAYER_1
 10
161.5157
 20
72.7717
  0
SEQEND
  0
ENDBLK
  0
BLOCK
  8
LAYER_1
  2
AIGNBL010201ED
 70
64
 10
0
 20
0
 30
0
  3
AIGNBL010201ED
  0
POLYLINE
  8
LAYER_1
 40
0.1058
 41
0.1058
 66
1
 10
0
 20
0
 30
0
  0
VERTEX
  8
LAYER_1
 10
158.3149
 20
72.9717
  0
VERTEX
  8
LAYER_1
 10
161.5157
 20
73.1718
  0
SEQEND
  0
ENDBLK
  0
BLOCK
  8
LAYER_1
  2
AIGNBL010201EE
 70
64
 10
0
 20
0
 30
0
  3
AIGNBL010201EE
  0
POLYLINE
  8
LAYER_1
 40
0.1058
 41
0.1058
 66
1
 10
0
 20
0
 30
0
  0
VERTEX
  8
LAYER_1
 10
158.3149
 20
70.1711
  0
VERTEX
  8
LAYER_1
 10
161.5157
 20
70.3712
  0
SEQEND
  0
ENDBLK
  0
BLOCK
  8
LAYER_1
  2
AIGNBL010201EF
 70
64
 10
0
 20
0
 30
0
  3
AIGNBL010201EF
  0
POLYLINE
  8
LAYER_1
 40
0.1058
 41
0.1058
 66
1
 10
0
 20
0
 30
0
  0
VERTEX
  8
LAYER_1
 10
158.3149
 20
70.5712
  0
VERTEX
  8
LAYER_1
 10
161.5157
 20
70.7713
  0
SEQEND
  0
ENDBLK
  0
BLOCK
  8
LAYER_1
  2
AIGNBL010201F0
 70
64
 10
0
 20
0
 30
0
  3
AIGNBL010201F0
  0
POLYLINE
  8
LAYER_1
 40
0.1058
 41
0.1058
 66
1
 10
0
 20
0
 30
0
  0
VERTEX
  8
LAYER_1
 10
158.3149
 20
70.9713
  0
VERTEX
  8
LAYER_1
 10
161.5157
 20
71.1713
  0
SEQEND
  0
ENDBLK
  0
BLOCK
  8
LAYER_1
  2
AIGNBL010201F1
 70
64
 10
0
 20
0
 30
0
  3
AIGNBL010201F1
  0
POLYLINE
  8
LAYER_1
  6
AIGENLINE002
 40
0.1058
 41
0.1058
 66
1
 10
0
 20
0
 30
0
 70
128
  0
VERTEX
  8
LAYER_1
 10
159.9153
 20
92.9569
  0
VERTEX
  8
LAYER_1
 10
159.9153
 20
69.2058
  0
SEQEND
  0
ENDBLK
  0
BLOCK
  8
LAYER_1
  2
AIGNBL010201F2
 70
64
 10
0
 20
0
 30
0
  3
AIGNBL010201F2
  0
POLYLINE
  8
LAYER_1
  6
AIGENLINE002
 40
0.1058
 41
0.1058
 66
1
 10
0
 20
0
 30
0
 70
128
  0
VERTEX
  8
LAYER_1
 10
159.9153
 20
96.1576
  0
VERTEX
  8
LAYER_1
 10
159.9153
 20
67.176
  0
SEQEND
  0
ENDBLK
  0
BLOCK
  8
LAYER_1
  2
AIGNBL010201F4
 70
64
 10
0
 20
0
 30
0
  3
AIGNBL010201F4
  0
POLYLINE
  8
LAYER_1
 40
0.1058
 41
0.1058
 66
1
 10
0
 20
0
 30
0
  0
VERTEX
  8
LAYER_1
 10
198.6166
 20
166.207
  0
VERTEX
  8
LAYER_1
 10
199.0629
 20
166.207
  0
SEQEND
  0
ENDBLK
  0
BLOCK
  8
LAYER_1
  2
AIGNBL010201F5
 70
64
 10
0
 20
0
 30
0
  3
AIGNBL010201F5
  0
POLYLINE
  8
LAYER_1
 40
0.1058
 41
0.1058
 66
1
 10
0
 20
0
 30
0
  0
VERTEX
  8
LAYER_1
 10
193.4717
 20
160.5072
  0
VERTEX
  8
LAYER_1
 10
199.0629
 20
160.5072
  0
SEQEND
  0
ENDBLK
  0
BLOCK
  8
LAYER_1
  2
AIGNBL010201F6
 70
64
 10
0
 20
0
 30
0
  3
AIGNBL010201F6
  0
POLYLINE
  8
LAYER_1
 40
0.1058
 41
0.1058
 66
1
 10
0
 20
0
 30
0
  0
VERTEX
  8
LAYER_1
 10
198.303
 20
166.207
  0
VERTEX
  8
LAYER_1
 10
198.303
 20
160.5072
  0
SEQEND
  0
ENDBLK
  0
BLOCK
  8
LAYER_1
  2
AIGNBL010201F7
 70
64
 10
0
 20
0
 30
0
  3
AIGNBL010201F7
  0
TEXT
  8
LAYER_1
 10
201.2968
 20
162.2268
 11
201.2968
 21
162.2268
 40
4.028
 41
0.5
 50
89.99999999
  1
15
  0
ENDBLK
  0
BLOCK
  8
LAYER_1
  2
AIGNBL010201F9
 70
64
 10
0
 20
0
 30
0
  3
AIGNBL010201F9
  0
POLYLINE
  8
LAYER_1
 40
0.1058
 41
0.1058
 66
1
 10
0
 20
0
 30
0
  0
VERTEX
  8
LAYER_1
 10
190.8446
 20
167.4229
  0
VERTEX
  8
LAYER_1
 10
182.9551
 20
167.4229
  0
SEQEND
  0
ENDBLK
  0
BLOCK
  8
LAYER_1
  2
AIGNBL010201FA
 70
64
 10
0
 20
0
 30
0
  3
AIGNBL010201FA
  0
POLYLINE
  8
LAYER_1
 40
0.1058
 41
0.1058
 66
1
 10
0
 20
0
 30
0
  0
VERTEX
  8
LAYER_1
 10
190.7358
 20
160.5072
  0
VERTEX
  8
LAYER_1
 10
182.9551
 20
160.5072
  0
SEQEND
  0
ENDBLK
  0
BLOCK
  8
LAYER_1
  2
AIGNBL010201FB
 70
64
 10
0
 20
0
 30
0
  3
AIGNBL010201FB
  0
POLYLINE
  8
LAYER_1
 40
0.1058
 41
0.1058
 66
1
 10
0
 20
0
 30
0
  0
VERTEX
  8
LAYER_1
 10
183.715
 20
167.4229
  0
VERTEX
  8
LAYER_1
 10
183.715
 20
160.5072
  0
SEQEND
  0
ENDBLK
  0
BLOCK
  8
LAYER_1
  2
AIGNBL010201FC
 70
64
 10
0
 20
0
 30
0
  3
AIGNBL010201FC
  0
TEXT
  8
LAYER_1
 10
182.4955
 20
161.2277
 11
182.4955
 21
161.2277
 40
4.028
 41
0.5
 50
89.99999999
  1
18.2
  0
ENDBLK
  0
BLOCK
  8
LAYER_1
  2
AIGNBL010201FE
 70
64
 10
0
 20
0
 30
0
  3
AIGNBL010201FE
  0
POLYLINE
  8
LAYER_1
 40
0.1058
 41
0.1058
 66
1
 10
0
 20
0
 30
0
  0
VERTEX
  8
LAYER_1
 10
210.7017
 20
166.207
  0
VERTEX
  8
LAYER_1
 10
208.6475
 20
166.207
  0
SEQEND
  0
ENDBLK
  0
BLOCK
  8
LAYER_1
  2
AIGNBL010201FF
 70
64
 10
0
 20
0
 30
0
  3
AIGNBL010201FF
  0
POLYLINE
  8
LAYER_1
 40
0.1058
 41
0.1058
 66
1
 10
0
 20
0
 30
0
  0
VERTEX
  8
LAYER_1
 10
211.1267
 20
152.3376
  0
VERTEX
  8
LAYER_1
 10
208.6475
 20
152.3376
  0
SEQEND
  0
ENDBLK
  0
BLOCK
  8
LAYER_1
  2
AIGNBL01020200
 70
64
 10
0
 20
0
 30
0
  3
AIGNBL01020200
  0
POLYLINE
  8
LAYER_1
 40
0.1058
 41
0.1058
 66
1
 10
0
 20
0
 30
0
  0
VERTEX
  8
LAYER_1
 10
209.4075
 20
166.207
  0
VERTEX
  8
LAYER_1
 10
209.4075
 20
152.3376
  0
SEQEND
  0
ENDBLK
  0
BLOCK
  8
LAYER_1
  2
AIGNBL01020201
 70
64
 10
0
 20
0
 30
0
  3
AIGNBL01020201
  0
TEXT
  8
LAYER_1
 10
208.4034
 20
158.1323
 11
208.4034
 21
158.1323
 40
4.028
 41
0.5
 50
89.99999999
  1
30
  0
ENDBLK
  0
BLOCK
  8
LAYER_1
  2
AIGNBL01020203
 70
64
 10
0
 20
0
 30
0
  3
AIGNBL01020203
  0
POLYLINE
  8
LAYER_1
 40
0.1058
 41
0.1058
 66
1
 10
0
 20
0
 30
0
  0
VERTEX
  8
LAYER_1
 10
191.6045
 20
186.412
  0
VERTEX
  8
LAYER_1
 10
191.6045
 20
188.1648
  0
SEQEND
  0
ENDBLK
  0
BLOCK
  8
LAYER_1
  2
AIGNBL01020204
 70
64
 10
0
 20
0
 30
0
  3
AIGNBL01020204
  0
POLYLINE
  8
LAYER_1
 40
0.1058
 41
0.1058
 66
1
 10
0
 20
0
 30
0
  0
VERTEX
  8
LAYER_1
 10
194.7204
 20
183.2771
  0
VERTEX
  8
LAYER_1
 10
194.7204
 20
188.1648
  0
SEQEND
  0
ENDBLK
  0
BLOCK
  8
LAYER_1
  2
AIGNBL01020205
 70
64
 10
0
 20
0
 30
0
  3
AIGNBL01020205
  0
POLYLINE
  8
LAYER_1
 40
0.1058
 41
0.1058
 66
1
 10
0
 20
0
 30
0
  0
VERTEX
  8
LAYER_1
 10
191.6045
 20
187.4049
  0
VERTEX
  8
LAYER_1
 10
194.7204
 20
187.4049
  0
SEQEND
  0
ENDBLK
  0
BLOCK
  8
LAYER_1
  2
AIGNBL01020206
 70
64
 10
0
 20
0
 30
0
  3
AIGNBL01020206
  0
TEXT
  8
LAYER_1
 10
195.589
 20
186.5061
 11
195.589
 21
186.5061
 40
4.028
 41
0.5
  1
8.2
  0
ENDBLK
  0
BLOCK
  8
LAYER_1
  2
AIGNBL01020208
 70
64
 10
0
 20
0
 30
0
  3
AIGNBL01020208
  0
POLYLINE
  8
LAYER_1
 40
0.1058
 41
0.1058
 66
1
 10
0
 20
0
 30
0
  0
VERTEX
  8
LAYER_1
 10
192.9967
 20
165.447
  0
VERTEX
  8
LAYER_1
 10
192.9967
 20
162.4917
  0
SEQEND
  0
ENDBLK
  0
BLOCK
  8
LAYER_1
  2
AIGNBL01020209
 70
64
 10
0
 20
0
 30
0
  3
AIGNBL01020209
  0
POLYLINE
  8
LAYER_1
 40
0.1058
 41
0.1058
 66
1
 10
0
 20
0
 30
0
  0
VERTEX
  8
LAYER_1
 10
196.2266
 20
165.447
  0
VERTEX
  8
LAYER_1
 10
196.2266
 20
162.4917
  0
SEQEND
  0
ENDBLK
  0
BLOCK
  8
LAYER_1
  2
AIGNBL0102020A
 70
64
 10
0
 20
0
 30
0
  3
AIGNBL0102020A
  0
POLYLINE
  8
LAYER_1
 40
0.1058
 41
0.1058
 66
1
 10
0
 20
0
 30
0
  0
VERTEX
  8
LAYER_1
 10
192.9967
 20
163.2517
  0
VERTEX
  8
LAYER_1
 10
196.2266
 20
163.2517
  0
SEQEND
  0
ENDBLK
  0
BLOCK
  8
LAYER_1
  2
AIGNBL0102020B
 70
64
 10
0
 20
0
 30
0
  3
AIGNBL0102020B
  0
TEXT
  8
LAYER_1
 10
192.7096
 20
157.507
 11
192.7096
 21
157.507
 40
4.028
 41
0.5
  1
8.5
  0
ENDBLK
  0
BLOCK
  8
LAYER_1
  2
AIGNBL0102020D
 70
64
 10
0
 20
0
 30
0
  3
AIGNBL0102020D
  0
POLYLINE
  8
LAYER_1
 40
0.1058
 41
0.1058
 66
1
 10
0
 20
0
 30
0
  0
VERTEX
  8
LAYER_1
 10
190.8691
 20
185.652
  0
VERTEX
  8
LAYER_1
 10
189.6777
 20
185.652
  0
SEQEND
  0
ENDBLK
  0
BLOCK
  8
LAYER_1
  2
AIGNBL0102020E
 70
64
 10
0
 20
0
 30
0
  3
AIGNBL0102020E
  0
POLYLINE
  8
LAYER_1
 40
0.1058
 41
0.1058
 66
1
 10
0
 20
0
 30
0
  0
VERTEX
  8
LAYER_1
 10
191.8114
 20
180.9022
  0
VERTEX
  8
LAYER_1
 10
189.6777
 20
180.9022
  0
SEQEND
  0
ENDBLK
  0
BLOCK
  8
LAYER_1
  2
AIGNBL0102020F
 70
64
 10
0
 20
0
 30
0
  3
AIGNBL0102020F
  0
POLYLINE
  8
LAYER_1
 40
0.1058
 41
0.1058
 66
1
 10
0
 20
0
 30
0
  0
VERTEX
  8
LAYER_1
 10
190.4377
 20
185.652
  0
VERTEX
  8
LAYER_1
 10
190.4377
 20
180.9022
  0
SEQEND
  0
ENDBLK
  0
BLOCK
  8
LAYER_1
  2
AIGNBL01020210
 70
64
 10
0
 20
0
 30
0
  3
AIGNBL01020210
  0
TEXT
  8
LAYER_1
 10
189.2342
 20
179.3345
 11
189.2342
 21
179.3345
 40
4.028
 41
0.5
 50
89.99999999
  1
12.5
  0
ENDBLK
  0
BLOCK
  8
LAYER_1
  2
AIGNBL01020212
 70
64
 10
0
 20
0
 30
0
  3
AIGNBL01020212
  0
POLYLINE
  8
LAYER_1
 40
0.1058
 41
0.1058
 66
1
 10
0
 20
0
 30
0
  0
VERTEX
  8
LAYER_1
 10
190.8446
 20
185.652
  0
VERTEX
  8
LAYER_1
 10
185.5808
 20
185.652
  0
SEQEND
  0
ENDBLK
  0
BLOCK
  8
LAYER_1
  2
AIGNBL01020213
 70
64
 10
0
 20
0
 30
0
  3
AIGNBL01020213
  0
POLYLINE
  8
LAYER_1
 40
0.1058
 41
0.1058
 66
1
 10
0
 20
0
 30
0
  0
VERTEX
  8
LAYER_1
 10
190.8446
 20
176.1524
  0
VERTEX
  8
LAYER_1
 10
185.5808
 20
176.1524
  0
SEQEND
  0
ENDBLK
  0
BLOCK
  8
LAYER_1
  2
AIGNBL01020214
 70
64
 10
0
 20
0
 30
0
  3
AIGNBL01020214
  0
POLYLINE
  8
LAYER_1
 40
0.1058
 41
0.1058
 66
1
 10
0
 20
0
 30
0
  0
VERTEX
  8
LAYER_1
 10
186.3408
 20
185.652
  0
VERTEX
  8
LAYER_1
 10
186.3408
 20
176.1524
  0
SEQEND
  0
ENDBLK
  0
BLOCK
  8
LAYER_1
  2
AIGNBL01020215
 70
64
 10
0
 20
0
 30
0
  3
AIGNBL01020215
  0
TEXT
  8
LAYER_1
 10
185.8635
 20
179.6356
 11
185.8635
 21
179.6356
 40
4.028
 41
0.5
 50
89.99999999
  1
25
  0
ENDBLK
  0
BLOCK
  8
LAYER_1
  2
AIGNBL01020217
 70
64
 10
0
 20
0
 30
0
  3
AIGNBL01020217
  0
POLYLINE
  8
LAYER_1
 40
0.1058
 41
0.1058
 66
1
 10
0
 20
0
 30
0
  0
VERTEX
  8
LAYER_1
 10
189.8433
 20
167.4229
  0
VERTEX
  8
LAYER_1
 10
186.8802
 20
167.4229
  0
SEQEND
  0
ENDBLK
  0
BLOCK
  8
LAYER_1
  2
AIGNBL01020218
 70
64
 10
0
 20
0
 30
0
  3
AIGNBL01020218
  0
POLYLINE
  8
LAYER_1
 40
0.1058
 41
0.1058
 66
1
 10
0
 20
0
 30
0
  0
VERTEX
  8
LAYER_1
 10
189.8433
 20
166.207
  0
VERTEX
  8
LAYER_1
 10
186.8802
 20
166.207
  0
SEQEND
  0
ENDBLK
  0
BLOCK
  8
LAYER_1
  2
AIGNBL01020219
 70
64
 10
0
 20
0
 30
0
  3
AIGNBL01020219
  0
POLYLINE
  8
LAYER_1
 40
0.1058
 41
0.1058
 66
1
 10
0
 20
0
 30
0
  0
VERTEX
  8
LAYER_1
 10
187.6402
 20
170.4628
  0
VERTEX
  8
LAYER_1
 10
187.6402
 20
163.1671
  0
SEQEND
  0
ENDBLK
  0
BLOCK
  8
LAYER_1
  2
AIGNBL0102021A
 70
64
 10
0
 20
0
 30
0
  3
AIGNBL0102021A
  0
TEXT
  8
LAYER_1
 10
186.3658
 20
162.1927
 11
186.3658
 21
162.1927
 40
4.028
 41
0.5
 50
89.99999999
  1
3.2
  0
ENDBLK
  0
BLOCK
  8
LAYER_1
  2
AIGNBL0102021C
 70
64
 10
0
 20
0
 30
0
  3
AIGNBL0102021C
  0
POLYLINE
  8
LAYER_1
 40
0.1058
 41
0.1058
 66
1
 10
0
 20
0
 30
0
  0
VERTEX
  8
LAYER_1
 10
192.8205
 20
168.1829
  0
VERTEX
  8
LAYER_1
 10
192.8205
 20
170.5992
  0
SEQEND
  0
ENDBLK
  0
BLOCK
  8
LAYER_1
  2
AIGNBL0102021D
 70
64
 10
0
 20
0
 30
0
  3
AIGNBL0102021D
  0
POLYLINE
  8
LAYER_1
 40
0.1058
 41
0.1058
 66
1
 10
0
 20
0
 30
0
  0
VERTEX
  8
LAYER_1
 10
213.7196
 20
168.1829
  0
VERTEX
  8
LAYER_1
 10
213.7196
 20
170.5992
  0
SEQEND
  0
ENDBLK
  0
BLOCK
  8
LAYER_1
  2
AIGNBL0102021E
 70
64
 10
0
 20
0
 30
0
  3
AIGNBL0102021E
  0
POLYLINE
  8
LAYER_1
 40
0.1058
 41
0.1058
 66
1
 10
0
 20
0
 30
0
  0
VERTEX
  8
LAYER_1
 10
192.8205
 20
169.8392
  0
VERTEX
  8
LAYER_1
 10
213.7196
 20
169.8392
  0
SEQEND
  0
ENDBLK
  0
BLOCK
  8
LAYER_1
  2
AIGNBL0102021F
 70
64
 10
0
 20
0
 30
0
  3
AIGNBL0102021F
  0
TEXT
  8
LAYER_1
 10
202.0024
 20
170.5181
 11
202.0024
 21
170.5181
 40
4.028
 41
0.5
  1
55
  0
ENDBLK
  0
BLOCK
  8
LAYER_1
  2
AIGNBL01020221
 70
64
 10
0
 20
0
 30
0
  3
AIGNBL01020221
  0
POLYLINE
  8
LAYER_1
 40
0.1058
 41
0.1058
 66
1
 10
0
 20
0
 30
0
  0
VERTEX
  8
LAYER_1
 10
192.8205
 20
186.412
  0
VERTEX
  8
LAYER_1
 10
192.8205
 20
191.246
  0
SEQEND
  0
ENDBLK
  0
BLOCK
  8
LAYER_1
  2
AIGNBL01020222
 70
64
 10
0
 20
0
 30
0
  3
AIGNBL01020222
  0
POLYLINE
  8
LAYER_1
 40
0.1058
 41
0.1058
 66
1
 10
0
 20
0
 30
0
  0
VERTEX
  8
LAYER_1
 10
213.7196
 20
186.412
  0
VERTEX
  8
LAYER_1
 10
213.7196
 20
191.246
  0
SEQEND
  0
ENDBLK
  0
BLOCK
  8
LAYER_1
  2
AIGNBL01020223
 70
64
 10
0
 20
0
 30
0
  3
AIGNBL01020223
  0
POLYLINE
  8
LAYER_1
 40
0.1058
 41
0.1058
 66
1
 10
0
 20
0
 30
0
  0
VERTEX
  8
LAYER_1
 10
192.8205
 20
190.486
  0
VERTEX
  8
LAYER_1
 10
213.7196
 20
190.486
  0
SEQEND
  0
ENDBLK
  0
BLOCK
  8
LAYER_1
  2
AIGNBL01020224
 70
64
 10
0
 20
0
 30
0
  3
AIGNBL01020224
  0
TEXT
  8
LAYER_1
 10
202.0024
 20
191.3906
 11
202.0024
 21
191.3906
 40
4.028
 41
0.5
  1
55
  0
ENDBLK
  0
BLOCK
  8
LAYER_1
  2
AIGNBL01020226
 70
64
 10
0
 20
0
 30
0
  3
AIGNBL01020226
  0
POLYLINE
  8
LAYER_1
 40
0.1058
 41
0.1058
 66
1
 10
0
 20
0
 30
0
  0
VERTEX
  8
LAYER_1
 10
193.0761
 20
181.5963
  0
VERTEX
  8
LAYER_1
 10
193.0352
 20
181.5596
  0
SEQEND
  0
ENDBLK
  0
BLOCK
  8
LAYER_1
  2
AIGNBL01020227
 70
64
 10
0
 20
0
 30
0
  3
AIGNBL01020227
  0
POLYLINE
  8
LAYER_1
 40
0.1058
 41
0.1058
 66
1
 10
0
 20
0
 30
0
  0
VERTEX
  8
LAYER_1
 10
195.2336
 20
179.1928
  0
VERTEX
  8
LAYER_1
 10
195.1927
 20
179.1561
  0
SEQEND
  0
ENDBLK
  0
BLOCK
  8
LAYER_1
  2
AIGNBL01020228
 70
64
 10
0
 20
0
 30
0
  3
AIGNBL01020228
  0
POLYLINE
  8
LAYER_1
 40
0.1058
 41
0.1058
 66
1
 10
0
 20
0
 30
0
  0
VERTEX
  8
LAYER_1
 10
191.5701
 20
184.3295
  0
VERTEX
  8
LAYER_1
 10
198.757
 20
176.323
  0
SEQEND
  0
ENDBLK
  0
BLOCK
  8
LAYER_1
  2
AIGNBL01020229
 70
64
 10
0
 20
0
 30
0
  3
AIGNBL01020229
  0
TEXT
  8
LAYER_1
 10
196.2633
 20
180.7022
 11
196.2633
 21
180.7022
 40
4.028
 41
0.5
 50
311.9121313
  1
%%c8.5
  0
ENDBLK
  0
BLOCK
  8
LAYER_1
  2
AIGNBL0102022B
 70
64
 10
0
 20
0
 30
0
  3
AIGNBL0102022B
  0
POLYLINE
  8
LAYER_1
 40
0.1058
 41
0.1058
 66
1
 10
0
 20
0
 30
0
  0
VERTEX
  8
LAYER_1
 10
149.1945
 20
207.856
  0
VERTEX
  8
LAYER_1
 10
149.1945
 20
219.2051
  0
SEQEND
  0
ENDBLK
  0
BLOCK
  8
LAYER_1
  2
AIGNBL0102022C
 70
64
 10
0
 20
0
 30
0
  3
AIGNBL0102022C
  0
POLYLINE
  8
LAYER_1
 40
0.1058
 41
0.1058
 66
1
 10
0
 20
0
 30
0
  0
VERTEX
  8
LAYER_1
 10
166.2938
 20
207.856
  0
VERTEX
  8
LAYER_1
 10
166.2938
 20
219.2051
  0
SEQEND
  0
ENDBLK
  0
BLOCK
  8
LAYER_1
  2
AIGNBL0102022D
 70
64
 10
0
 20
0
 30
0
  3
AIGNBL0102022D
  0
POLYLINE
  8
LAYER_1
 40
0.1058
 41
0.1058
 66
1
 10
0
 20
0
 30
0
  0
VERTEX
  8
LAYER_1
 10
149.1945
 20
218.4451
  0
VERTEX
  8
LAYER_1
 10
166.2938
 20
218.4451
  0
SEQEND
  0
ENDBLK
  0
BLOCK
  8
LAYER_1
  2
AIGNBL0102022E
 70
64
 10
0
 20
0
 30
0
  3
AIGNBL0102022E
  0
TEXT
  8
LAYER_1
 10
156.4768
 20
219.1233
 11
156.4768
 21
219.1233
 40
4.028
 41
0.5
  1
45
  0
ENDBLK
  0
BLOCK
  8
LAYER_1
  2
AIGNBL01020230
 70
64
 10
0
 20
0
 30
0
  3
AIGNBL01020230
  0
POLYLINE
  8
LAYER_1
 40
0.1058
 41
0.1058
 66
1
 10
0
 20
0
 30
0
  0
VERTEX
  8
LAYER_1
 10
151.6644
 20
205.5805
  0
VERTEX
  8
LAYER_1
 10
151.6644
 20
215.4703
  0
SEQEND
  0
ENDBLK
  0
BLOCK
  8
LAYER_1
  2
AIGNBL01020231
 70
64
 10
0
 20
0
 30
0
  3
AIGNBL01020231
  0
POLYLINE
  8
LAYER_1
 40
0.1058
 41
0.1058
 66
1
 10
0
 20
0
 30
0
  0
VERTEX
  8
LAYER_1
 10
163.8239
 20
205.5805
  0
VERTEX
  8
LAYER_1
 10
163.8239
 20
215.4703
  0
SEQEND
  0
ENDBLK
  0
BLOCK
  8
LAYER_1
  2
AIGNBL01020232
 70
64
 10
0
 20
0
 30
0
  3
AIGNBL01020232
  0
POLYLINE
  8
LAYER_1
 40
0.1058
 41
0.1058
 66
1
 10
0
 20
0
 30
0
  0
VERTEX
  8
LAYER_1
 10
151.6644
 20
214.7103
  0
VERTEX
  8
LAYER_1
 10
163.8239
 20
214.7103
  0
SEQEND
  0
ENDBLK
  0
BLOCK
  8
LAYER_1
  2
AIGNBL01020233
 70
64
 10
0
 20
0
 30
0
  3
AIGNBL01020233
  0
TEXT
  8
LAYER_1
 10
156.3046
 20
215.2165
 11
156.3046
 21
215.2165
 40
4.028
 41
0.5
  1
32
  0
ENDBLK
  0
BLOCK
  8
LAYER_1
  2
AIGNBL01020235
 70
64
 10
0
 20
0
 30
0
  3
AIGNBL01020235
  0
POLYLINE
  8
LAYER_1
 40
0.1058
 41
0.1058
 66
1
 10
0
 20
0
 30
0
  0
VERTEX
  8
LAYER_1
 10
148.4346
 20
189.0628
  0
VERTEX
  8
LAYER_1
 10
142.9091
 20
189.0628
  0
SEQEND
  0
ENDBLK
  0
BLOCK
  8
LAYER_1
  2
AIGNBL01020236
 70
64
 10
0
 20
0
 30
0
  3
AIGNBL01020236
  0
POLYLINE
  8
LAYER_1
 40
0.1058
 41
0.1058
 66
1
 10
0
 20
0
 30
0
  0
VERTEX
  8
LAYER_1
 10
148.4346
 20
188.4928
  0
VERTEX
  8
LAYER_1
 10
142.9091
 20
188.4928
  0
SEQEND
  0
ENDBLK
  0
BLOCK
  8
LAYER_1
  2
AIGNBL01020237
 70
64
 10
0
 20
0
 30
0
  3
AIGNBL01020237
  0
POLYLINE
  8
LAYER_1
 40
0.1058
 41
0.1058
 66
1
 10
0
 20
0
 30
0
  0
VERTEX
  8
LAYER_1
 10
143.669
 20
191.9797
  0
VERTEX
  8
LAYER_1
 10
143.669
 20
187.7328
  0
SEQEND
  0
ENDBLK
  0
BLOCK
  8
LAYER_1
  2
AIGNBL01020238
 70
64
 10
0
 20
0
 30
0
  3
AIGNBL01020238
  0
TEXT
  8
LAYER_1
 10
142.4718
 20
189.369
 11
142.4718
 21
189.369
 40
4.028
 41
0.5
 50
89.99999999
  1
1.6
  0
ENDBLK
  0
BLOCK
  8
LAYER_1
  2
AIGNBL01020239
 70
64
 10
0
 20
0
 30
0
  3
AIGNBL01020239
  0
POLYLINE
  8
LAYER_1
 40
0.2222
 41
0.2222
 66
1
 10
0
 20
0
 30
0
 70
1
  0
VERTEX
  8
LAYER_1
 10
143.669
 20
189.1198
 42
0.3925131877
  0
VERTEX
  8
LAYER_1
 10
143.612
 20
189.0628
 42
0.3928603471
  0
VERTEX
  8
LAYER_1
 10
143.669
 20
189.0058
 42
0.3932932771
  0
VERTEX
  8
LAYER_1
 10
143.726
 20
189.0628
 42
0.3929593841
  0
SEQEND
  0
ENDBLK
  0
BLOCK
  8
LAYER_1
  2
AIGNBL0102023A
 70
64
 10
0
 20
0
 30
0
  3
AIGNBL0102023A
  0
POLYLINE
  8
LAYER_1
 40
0.2469
 41
0.2469
 66
1
 10
0
 20
0
 30
0
  0
VERTEX
  8
LAYER_1
 10
143.669
 20
189.1768
  0
VERTEX
  8
LAYER_1
 10
143.669
 20
189.2907
  0
SEQEND
  0
ENDBLK
  0
BLOCK
  8
LAYER_1
  2
AIGNBL0102023B
 70
64
 10
0
 20
0
 30
0
  3
AIGNBL0102023B
  0
POLYLINE
  8
LAYER_1
 40
0.2222
 41
0.2222
 66
1
 10
0
 20
0
 30
0
 70
1
  0
VERTEX
  8
LAYER_1
 10
143.669
 20
188.4358
 42
0.3932932771
  0
VERTEX
  8
LAYER_1
 10
143.726
 20
188.4928
 42
0.3932932771
  0
VERTEX
  8
LAYER_1
 10
143.669
 20
188.5498
 42
0.3929593843
  0
VERTEX
  8
LAYER_1
 10
143.612
 20
188.4928
 42
0.3928603471
  0
SEQEND
  0
ENDBLK
  0
BLOCK
  8
LAYER_1
  2
AIGNBL0102023C
 70
64
 10
0
 20
0
 30
0
  3
AIGNBL0102023C
  0
POLYLINE
  8
LAYER_1
 40
0.2469
 41
0.2469
 66
1
 10
0
 20
0
 30
0
  0
VERTEX
  8
LAYER_1
 10
143.669
 20
188.3788
  0
VERTEX
  8
LAYER_1
 10
143.669
 20
188.2648
  0
SEQEND
  0
ENDBLK
  0
BLOCK
  8
LAYER_1
  2
AIGNBL0102023E
 70
64
 10
0
 20
0
 30
0
  3
AIGNBL0102023E
  0
POLYLINE
  8
LAYER_1
 40
0.1058
 41
0.1058
 66
1
 10
0
 20
0
 30
0
  0
VERTEX
  8
LAYER_1
 10
159.8341
 20
181.6546
  0
VERTEX
  8
LAYER_1
 10
166.7766
 20
181.6546
  0
SEQEND
  0
ENDBLK
  0
BLOCK
  8
LAYER_1
  2
AIGNBL0102023F
 70
64
 10
0
 20
0
 30
0
  3
AIGNBL0102023F
  0
POLYLINE
  8
LAYER_1
 40
0.1058
 41
0.1058
 66
1
 10
0
 20
0
 30
0
  0
VERTEX
  8
LAYER_1
 10
159.8341
 20
155.0558
  0
VERTEX
  8
LAYER_1
 10
166.7766
 20
155.0558
  0
SEQEND
  0
ENDBLK
  0
BLOCK
  8
LAYER_1
  2
AIGNBL01020240
 70
64
 10
0
 20
0
 30
0
  3
AIGNBL01020240
  0
POLYLINE
  8
LAYER_1
 40
0.1058
 41
0.1058
 66
1
 10
0
 20
0
 30
0
  0
VERTEX
  8
LAYER_1
 10
166.0166
 20
181.6546
  0
VERTEX
  8
LAYER_1
 10
166.0166
 20
155.0558
  0
SEQEND
  0
ENDBLK
  0
BLOCK
  8
LAYER_1
  2
AIGNBL01020241
 70
64
 10
0
 20
0
 30
0
  3
AIGNBL01020241
  0
TEXT
  8
LAYER_1
 10
165.2246
 20
167.2153
 11
165.2246
 21
167.2153
 40
4.028
 41
0.5
 50
89.99999999
  1
50
  0
ENDBLK
  0
BLOCK
  8
LAYER_2
  2
AIGNBL02020004
 70
64
 10
0
 20
0
 30
0
  3
AIGNBL02020004
  0
INSERT
  8
LAYER_2
  2
AIGNBL02030005
 10
0
 20
0
 30
0
  0
ENDBLK
  0
BLOCK
  8
LAYER_2
  2
AIGNBL0202000D
 70
64
 10
0
 20
0
 30
0
  3
AIGNBL0202000D
  0
INSERT
  8
LAYER_2
  2
AIGNBL0203000E
 10
0
 20
0
 30
0
  0
INSERT
  8
LAYER_2
  2
AIGNBL0203000F
 10
0
 20
0
 30
0
  0
INSERT
  8
LAYER_2
  2
AIGNBL02030010
 10
0
 20
0
 30
0
  0
INSERT
  8
LAYER_2
  2
AIGNBL02030011
 10
0
 20
0
 30
0
  0
INSERT
  8
LAYER_2
  2
AIGNBL02030012
 10
0
 20
0
 30
0
  0
INSERT
  8
LAYER_2
  2
AIGNBL02030013
 10
0
 20
0
 30
0
  0
INSERT
  8
LAYER_2
  2
AIGNBL02030014
 10
0
 20
0
 30
0
  0
INSERT
  8
LAYER_2
  2
AIGNBL02030015
 10
0
 20
0
 30
0
  0
INSERT
  8
LAYER_2
  2
AIGNBL02030016
 10
0
 20
0
 30
0
  0
INSERT
  8
LAYER_2
  2
AIGNBL02030017
 10
0
 20
0
 30
0
  0
INSERT
  8
LAYER_2
  2
AIGNBL02030018
 10
0
 20
0
 30
0
  0
INSERT
  8
LAYER_2
  2
AIGNBL02030019
 10
0
 20
0
 30
0
  0
INSERT
  8
LAYER_2
  2
AIGNBL0203001A
 10
0
 20
0
 30
0
  0
INSERT
  8
LAYER_2
  2
AIGNBL0203001B
 10
0
 20
0
 30
0
  0
INSERT
  8
LAYER_2
  2
AIGNBL0203001C
 10
0
 20
0
 30
0
  0
INSERT
  8
LAYER_2
  2
AIGNBL0203001D
 10
0
 20
0
 30
0
  0
INSERT
  8
LAYER_2
  2
AIGNBL0203001E
 10
0
 20
0
 30
0
  0
INSERT
  8
LAYER_2
  2
AIGNBL0203001F
 10
0
 20
0
 30
0
  0
INSERT
  8
LAYER_2
  2
AIGNBL02030020
 10
0
 20
0
 30
0
  0
INSERT
  8
LAYER_2
  2
AIGNBL02030021
 10
0
 20
0
 30
0
  0
INSERT
  8
LAYER_2
  2
AIGNBL02030022
 10
0
 20
0
 30
0
  0
INSERT
  8
LAYER_2
  2
AIGNBL02030023
 10
0
 20
0
 30
0
  0
INSERT
  8
LAYER_2
  2
AIGNBL02030024
 10
0
 20
0
 30
0
  0
ENDBLK
  0
BLOCK
  8
LAYER_1
  2
AIGNBL01010002
 70
64
 10
0
 20
0
 30
0
  3
AIGNBL01010002
  0
CIRCLE
  8
LAYER_1
 10
157.7441
 20
202.1098
 40
8.5496
  0
ENDBLK
  0
BLOCK
  8
LAYER_1
  2
AIGNBL01010003
 70
64
 10
0
 20
0
 30
0
  3
AIGNBL01010003
  0
CIRCLE
  8
LAYER_1
 10
152.4789
 20
199.0699
 40
0.76
  0
ENDBLK
  0
BLOCK
  8
LAYER_1
  2
AIGNBL01010004
 70
64
 10
0
 20
0
 30
0
  3
AIGNBL01010004
  0
POLYLINE
  8
LAYER_1
 40
0.1058
 41
0.1058
 66
1
 10
0
 20
0
 30
0
  0
VERTEX
  8
LAYER_1
 10
166.2938
 20
189.0628
  0
VERTEX
  8
LAYER_1
 10
149.1945
 20
189.0628
  0
SEQEND
  0
ENDBLK
  0
BLOCK
  8
LAYER_1
  2
AIGNBL01010005
 70
64
 10
0
 20
0
 30
0
  3
AIGNBL01010005
  0
POLYLINE
  8
LAYER_1
 40
0.1058
 41
0.1058
 66
1
 10
0
 20
0
 30
0
  0
VERTEX
  8
LAYER_1
 10
149.1945
 20
188.4928
  0
VERTEX
  8
LAYER_1
 10
166.2938
 20
188.4928
  0
SEQEND
  0
ENDBLK
  0
BLOCK
  8
LAYER_1
  2
AIGNBL01010006
 70
64
 10
0
 20
0
 30
0
  3
AIGNBL01010006
  0
POLYLINE
  8
LAYER_1
 40
0.1058
 41
0.1058
 66
1
 10
0
 20
0
 30
0
  0
VERTEX
  8
LAYER_1
 10
166.2938
 20
188.4928
  0
VERTEX
  8
LAYER_1
 10
166.2938
 20
189.0628
  0
SEQEND
  0
ENDBLK
  0
BLOCK
  8
LAYER_1
  2
AIGNBL01010007
 70
64
 10
0
 20
0
 30
0
  3
AIGNBL01010007
  0
POLYLINE
  8
LAYER_1
 40
0.1058
 41
0.1058
 66
1
 10
0
 20
0
 30
0
  0
VERTEX
  8
LAYER_1
 10
149.1945
 20
189.0628
  0
VERTEX
  8
LAYER_1
 10
149.1945
 20
188.4928
  0
SEQEND
  0
ENDBLK
  0
BLOCK
  8
LAYER_1
  2
AIGNBL01010008
 70
64
 10
0
 20
0
 30
0
  3
AIGNBL01010008
  0
CIRCLE
  8
LAYER_1
 10
157.7441
 20
202.1098
 40
1.3299
  0
ENDBLK
  0
BLOCK
  8
LAYER_1
  2
AIGNBL01010009
 70
64
 10
0
 20
0
 30
0
  3
AIGNBL01010009
  0
POLYLINE
  8
LAYER_1
 40
0.1058
 41
0.1058
 66
1
 10
0
 20
0
 30
0
  0
VERTEX
  8
LAYER_1
 10
156.2242
 20
204.3897
  0
VERTEX
  8
LAYER_1
 10
155.4642
 20
203.6297
  0
SEQEND
  0
ENDBLK
  0
BLOCK
  8
LAYER_1
  2
AIGNBL0101000A
 70
64
 10
0
 20
0
 30
0
  3
AIGNBL0101000A
  0
POLYLINE
  8
LAYER_1
 40
0.1058
 41
0.1058
 66
1
 10
0
 20
0
 30
0
  0
VERTEX
  8
LAYER_1
 10
155.4642
 20
203.6297
  0
VERTEX
  8
LAYER_1
 10
155.4642
 20
200.5899
  0
SEQEND
  0
ENDBLK
  0
BLOCK
  8
LAYER_1
  2
AIGNBL0101000B
 70
64
 10
0
 20
0
 30
0
  3
AIGNBL0101000B
  0
POLYLINE
  8
LAYER_1
 40
0.1058
 41
0.1058
 66
1
 10
0
 20
0
 30
0
  0
VERTEX
  8
LAYER_1
 10
155.4642
 20
200.5899
  0
VERTEX
  8
LAYER_1
 10
156.2242
 20
199.8299
  0
SEQEND
  0
ENDBLK
  0
BLOCK
  8
LAYER_1
  2
AIGNBL0101000C
 70
64
 10
0
 20
0
 30
0
  3
AIGNBL0101000C
  0
POLYLINE
  8
LAYER_1
 40
0.1058
 41
0.1058
 66
1
 10
0
 20
0
 30
0
  0
VERTEX
  8
LAYER_1
 10
156.2242
 20
199.8299
  0
VERTEX
  8
LAYER_1
 10
159.2641
 20
199.8299
  0
SEQEND
  0
ENDBLK
  0
BLOCK
  8
LAYER_1
  2
AIGNBL0101000D
 70
64
 10
0
 20
0
 30
0
  3
AIGNBL0101000D
  0
POLYLINE
  8
LAYER_1
 40
0.1058
 41
0.1058
 66
1
 10
0
 20
0
 30
0
  0
VERTEX
  8
LAYER_1
 10
159.2641
 20
199.8299
  0
VERTEX
  8
LAYER_1
 10
160.024
 20
200.5899
  0
SEQEND
  0
ENDBLK
  0
BLOCK
  8
LAYER_1
  2
AIGNBL0101000E
 70
64
 10
0
 20
0
 30
0
  3
AIGNBL0101000E
  0
POLYLINE
  8
LAYER_1
 40
0.1058
 41
0.1058
 66
1
 10
0
 20
0
 30
0
  0
VERTEX
  8
LAYER_1
 10
160.024
 20
200.5899
  0
VERTEX
  8
LAYER_1
 10
160.024
 20
203.6297
  0
SEQEND
  0
ENDBLK
  0
BLOCK
  8
LAYER_1
  2
AIGNBL0101000F
 70
64
 10
0
 20
0
 30
0
  3
AIGNBL0101000F
  0
POLYLINE
  8
LAYER_1
 40
0.1058
 41
0.1058
 66
1
 10
0
 20
0
 30
0
  0
VERTEX
  8
LAYER_1
 10
156.2242
 20
204.3897
  0
VERTEX
  8
LAYER_1
 10
159.2641
 20
204.3897
  0
SEQEND
  0
ENDBLK
  0
BLOCK
  8
LAYER_1
  2
AIGNBL01010010
 70
64
 10
0
 20
0
 30
0
  3
AIGNBL01010010
  0
POLYLINE
  8
LAYER_1
 40
0.1058
 41
0.1058
 66
1
 10
0
 20
0
 30
0
  0
VERTEX
  8
LAYER_1
 10
160.024
 20
203.6297
  0
VERTEX
  8
LAYER_1
 10
159.2641
 20
204.3897
  0
SEQEND
  0
ENDBLK
  0
BLOCK
  8
LAYER_1
  2
AIGNBL01010011
 70
64
 10
0
 20
0
 30
0
  3
AIGNBL01010011
  0
POLYLINE
  8
LAYER_1
 40
0.1058
 41
0.1058
 66
1
 10
0
 20
0
 30
0
  0
VERTEX
  8
LAYER_1
 10
155.4642
 20
189.0628
  0
VERTEX
  8
LAYER_1
 10
155.4642
 20
191.3427
  0
SEQEND
  0
ENDBLK
  0
BLOCK
  8
LAYER_1
  2
AIGNBL01010012
 70
64
 10
0
 20
0
 30
0
  3
AIGNBL01010012
  0
POLYLINE
  8
LAYER_1
 40
0.1058
 41
0.1058
 66
1
 10
0
 20
0
 30
0
  0
VERTEX
  8
LAYER_1
 10
155.4642
 20
191.3427
  0
VERTEX
  8
LAYER_1
 10
160.024
 20
191.3427
  0
SEQEND
  0
ENDBLK
  0
BLOCK
  8
LAYER_1
  2
AIGNBL01010013
 70
64
 10
0
 20
0
 30
0
  3
AIGNBL01010013
  0
POLYLINE
  8
LAYER_1
 40
0.1058
 41
0.1058
 66
1
 10
0
 20
0
 30
0
  0
VERTEX
  8
LAYER_1
 10
160.024
 20
191.3427
  0
VERTEX
  8
LAYER_1
 10
160.024
 20
189.0628
  0
SEQEND
  0
ENDBLK
  0
BLOCK
  8
LAYER_1
  2
AIGNBL01010014
 70
64
 10
0
 20
0
 30
0
  3
AIGNBL01010014
  0
POLYLINE
  8
LAYER_1
 40
0.1058
 41
0.1058
 66
1
 10
0
 20
0
 30
0
  0
VERTEX
  8
LAYER_1
 10
159.0741
 20
181.6546
  0
VERTEX
  8
LAYER_1
 10
156.4142
 20
181.6546
  0
SEQEND
  0
ENDBLK
  0
BLOCK
  8
LAYER_1
  2
AIGNBL01010015
 70
64
 10
0
 20
0
 30
0
  3
AIGNBL01010015
  0
CIRCLE
  8
LAYER_1
 10
163.0094
 20
199.0699
 40
0.76
  0
ENDBLK
  0
BLOCK
  8
LAYER_1
  2
AIGNBL01010016
 70
64
 10
0
 20
0
 30
0
  3
AIGNBL01010016
  0
CIRCLE
  8
LAYER_1
 10
157.7441
 20
208.1895
 40
0.76
  0
ENDBLK
  0
BLOCK
  8
LAYER_1
  2
AIGNBL01010017
 70
64
 10
0
 20
0
 30
0
  3
AIGNBL01010017
  0
POLYLINE
  8
LAYER_1
 40
0.1058
 41
0.1058
 66
1
 10
0
 20
0
 30
0
  0
VERTEX
  8
LAYER_1
 10
161.0749
 20
147.7798
 42
0.2216964493
  0
VERTEX
  8
LAYER_1
 10
159.6195
 20
148.4585
  0
SEQEND
  0
ENDBLK
  0
BLOCK
  8
LAYER_1
  2
AIGNBL01010018
 70
64
 10
0
 20
0
 30
0
  3
AIGNBL01010018
  0
POLYLINE
  8
LAYER_1
 40
0.1058
 41
0.1058
 66
1
 10
0
 20
0
 30
0
  0
VERTEX
  8
LAYER_1
 10
159.6195
 20
148.4585
  0
VERTEX
  8
LAYER_1
 10
155.8688
 20
148.4585
  0
SEQEND
  0
ENDBLK
  0
BLOCK
  8
LAYER_1
  2
AIGNBL01010019
 70
64
 10
0
 20
0
 30
0
  3
AIGNBL01010019
  0
POLYLINE
  8
LAYER_1
 40
0.1058
 41
0.1058
 66
1
 10
0
 20
0
 30
0
  0
VERTEX
  8
LAYER_1
 10
155.8688
 20
148.4585
 42
0.2216965832
  0
VERTEX
  8
LAYER_1
 10
154.4134
 20
147.7798
  0
SEQEND
  0
ENDBLK
  0
BLOCK
  8
LAYER_1
  2
AIGNBL0101001A
 70
64
 10
0
 20
0
 30
0
  3
AIGNBL0101001A
  0
POLYLINE
  8
LAYER_1
 40
0.1058
 41
0.1058
 66
1
 10
0
 20
0
 30
0
  0
VERTEX
  8
LAYER_1
 10
155.2538
 20
147.8053
  0
VERTEX
  8
LAYER_1
 10
155.8442
 20
146.1786
  0
SEQEND
  0
ENDBLK
  0
BLOCK
  8
LAYER_1
  2
AIGNBL0101001B
 70
64
 10
0
 20
0
 30
0
  3
AIGNBL0101001B
  0
POLYLINE
  8
LAYER_1
 40
0.1058
 41
0.1058
 66
1
 10
0
 20
0
 30
0
  0
VERTEX
  8
LAYER_1
 10
155.4642
 20
146.1786
  0
VERTEX
  8
LAYER_1
 10
155.4642
 20
146.2772
  0
SEQEND
  0
ENDBLK
  0
BLOCK
  8
LAYER_1
  2
AIGNBL0101001C
 70
64
 10
0
 20
0
 30
0
  3
AIGNBL0101001C
  0
POLYLINE
  8
LAYER_1
 40
0.1058
 41
0.1058
 66
1
 10
0
 20
0
 30
0
  0
VERTEX
  8
LAYER_1
 10
154.5753
 20
143.8347
  0
VERTEX
  8
LAYER_1
 10
154.2355
 20
143.4298
  0
SEQEND
  0
ENDBLK
  0
BLOCK
  8
LAYER_1
  2
AIGNBL0101001D
 70
64
 10
0
 20
0
 30
0
  3
AIGNBL0101001D
  0
POLYLINE
  8
LAYER_1
 40
0.1058
 41
0.1058
 66
1
 10
0
 20
0
 30
0
  0
VERTEX
  8
LAYER_1
 10
153.7002
 20
143.383
 42
0.4141757457
  0
VERTEX
  8
LAYER_1
 10
154.2355
 20
143.4298
  0
SEQEND
  0
ENDBLK
  0
BLOCK
  8
LAYER_1
  2
AIGNBL0101001E
 70
64
 10
0
 20
0
 30
0
  3
AIGNBL0101001E
  0
POLYLINE
  8
LAYER_1
 40
0.1058
 41
0.1058
 66
1
 10
0
 20
0
 30
0
  0
VERTEX
  8
LAYER_1
 10
154.4134
 20
147.7798
  0
VERTEX
  8
LAYER_1
 10
152.198
 20
145.1396
  0
SEQEND
  0
ENDBLK
  0
BLOCK
  8
LAYER_1
  2
AIGNBL0101001F
 70
64
 10
0
 20
0
 30
0
  3
AIGNBL0101001F
  0
POLYLINE
  8
LAYER_1
 40
0.1058
 41
0.1058
 66
1
 10
0
 20
0
 30
0
  0
VERTEX
  8
LAYER_1
 10
153.7002
 20
143.383
  0
VERTEX
  8
LAYER_1
 10
152.2448
 20
144.6042
  0
SEQEND
  0
ENDBLK
  0
BLOCK
  8
LAYER_1
  2
AIGNBL01010020
 70
64
 10
0
 20
0
 30
0
  3
AIGNBL01010020
  0
POLYLINE
  8
LAYER_1
 40
0.1058
 41
0.1058
 66
1
 10
0
 20
0
 30
0
  0
VERTEX
  8
LAYER_1
 10
152.198
 20
145.1396
 42
0.4142768454
  0
VERTEX
  8
LAYER_1
 10
152.2448
 20
144.6042
  0
SEQEND
  0
ENDBLK
  0
BLOCK
  8
LAYER_1
  2
AIGNBL01010021
 70
64
 10
0
 20
0
 30
0
  3
AIGNBL01010021
  0
POLYLINE
  8
LAYER_1
 40
0.1058
 41
0.1058
 66
1
 10
0
 20
0
 30
0
  0
VERTEX
  8
LAYER_1
 10
154.5753
 20
143.8347
 42
0.1696441468
  0
VERTEX
  8
LAYER_1
 10
155.463
 20
146.1786
  0
SEQEND
  0
ENDBLK
  0
BLOCK
  8
LAYER_1
  2
AIGNBL01010022
 70
64
 10
0
 20
0
 30
0
  3
AIGNBL01010022
  0
POLYLINE
  8
LAYER_1
 40
0.1058
 41
0.1058
 66
1
 10
0
 20
0
 30
0
  0
VERTEX
  8
LAYER_1
 10
160.913
 20
143.8347
  0
VERTEX
  8
LAYER_1
 10
161.2528
 20
143.4298
  0
SEQEND
  0
ENDBLK
  0
BLOCK
  8
LAYER_1
  2
AIGNBL01010023
 70
64
 10
0
 20
0
 30
0
  3
AIGNBL01010023
  0
POLYLINE
  8
LAYER_1
 40
0.1058
 41
0.1058
 66
1
 10
0
 20
0
 30
0
  0
VERTEX
  8
LAYER_1
 10
161.2528
 20
143.4298
 42
0.4141760144
  0
VERTEX
  8
LAYER_1
 10
161.7881
 20
143.383
  0
SEQEND
  0
ENDBLK
  0
BLOCK
  8
LAYER_1
  2
AIGNBL01010024
 70
64
 10
0
 20
0
 30
0
  3
AIGNBL01010024
  0
POLYLINE
  8
LAYER_1
 40
0.1058
 41
0.1058
 66
1
 10
0
 20
0
 30
0
  0
VERTEX
  8
LAYER_1
 10
161.0749
 20
147.7798
  0
VERTEX
  8
LAYER_1
 10
163.2903
 20
145.1396
  0
SEQEND
  0
ENDBLK
  0
BLOCK
  8
LAYER_1
  2
AIGNBL01010025
 70
64
 10
0
 20
0
 30
0
  3
AIGNBL01010025
  0
POLYLINE
  8
LAYER_1
 40
0.1058
 41
0.1058
 66
1
 10
0
 20
0
 30
0
  0
VERTEX
  8
LAYER_1
 10
161.7881
 20
143.383
  0
VERTEX
  8
LAYER_1
 10
163.2435
 20
144.6042
  0
SEQEND
  0
ENDBLK
  0
BLOCK
  8
LAYER_1
  2
AIGNBL01010026
 70
64
 10
0
 20
0
 30
0
  3
AIGNBL01010026
  0
POLYLINE
  8
LAYER_1
 40
0.1058
 41
0.1058
 66
1
 10
0
 20
0
 30
0
  0
VERTEX
  8
LAYER_1
 10
163.2435
 20
144.6042
 42
0.4142737686
  0
VERTEX
  8
LAYER_1
 10
163.2903
 20
145.1396
  0
SEQEND
  0
ENDBLK
  0
BLOCK
  8
LAYER_1
  2
AIGNBL01010027
 70
64
 10
0
 20
0
 30
0
  3
AIGNBL01010027
  0
POLYLINE
  8
LAYER_1
 40
0.1058
 41
0.1058
 66
1
 10
0
 20
0
 30
0
  0
VERTEX
  8
LAYER_1
 10
160.2345
 20
147.8053
  0
VERTEX
  8
LAYER_1
 10
159.6441
 20
146.1786
  0
SEQEND
  0
ENDBLK
  0
BLOCK
  8
LAYER_1
  2
AIGNBL01010028
 70
64
 10
0
 20
0
 30
0
  3
AIGNBL01010028
  0
POLYLINE
  8
LAYER_1
 40
0.1058
 41
0.1058
 66
1
 10
0
 20
0
 30
0
  0
VERTEX
  8
LAYER_1
 10
155.463
 20
146.1786
  0
VERTEX
  8
LAYER_1
 10
160.0253
 20
146.1786
  0
SEQEND
  0
ENDBLK
  0
BLOCK
  8
LAYER_1
  2
AIGNBL01010029
 70
64
 10
0
 20
0
 30
0
  3
AIGNBL01010029
  0
POLYLINE
  8
LAYER_1
 40
0.1058
 41
0.1058
 66
1
 10
0
 20
0
 30
0
  0
VERTEX
  8
LAYER_1
 10
160.0253
 20
146.1786
 42
0.1696442651
  0
VERTEX
  8
LAYER_1
 10
160.913
 20
143.8347
  0
SEQEND
  0
ENDBLK
  0
BLOCK
  8
LAYER_1
  2
AIGNBL0101002A
 70
64
 10
0
 20
0
 30
0
  3
AIGNBL0101002A
  0
POLYLINE
  8
LAYER_1
 40
0.1058
 41
0.1058
 66
1
 10
0
 20
0
 30
0
  0
VERTEX
  8
LAYER_1
 10
154.7043
 20
147.8053
  0
VERTEX
  8
LAYER_1
 10
160.784
 20
147.8053
  0
SEQEND
  0
ENDBLK
  0
BLOCK
  8
LAYER_1
  2
AIGNBL0101002B
 70
64
 10
0
 20
0
 30
0
  3
AIGNBL0101002B
  0
POLYLINE
  8
LAYER_1
 40
0.1058
 41
0.1058
 66
1
 10
0
 20
0
 30
0
  0
VERTEX
  8
LAYER_1
 10
175.7383
 20
147.8053
  0
VERTEX
  8
LAYER_1
 10
175.3583
 20
143.2941
  0
SEQEND
  0
ENDBLK
  0
BLOCK
  8
LAYER_1
  2
AIGNBL0101002C
 70
64
 10
0
 20
0
 30
0
  3
AIGNBL0101002C
  0
POLYLINE
  8
LAYER_1
 40
0.1058
 41
0.1058
 66
1
 10
0
 20
0
 30
0
  0
VERTEX
  8
LAYER_1
 10
175.3583
 20
143.2941
  0
VERTEX
  8
LAYER_1
 10
174.2184
 20
143.2941
  0
SEQEND
  0
ENDBLK
  0
BLOCK
  8
LAYER_1
  2
AIGNBL0101002D
 70
64
 10
0
 20
0
 30
0
  3
AIGNBL0101002D
  0
POLYLINE
  8
LAYER_1
 40
0.1058
 41
0.1058
 66
1
 10
0
 20
0
 30
0
  0
VERTEX
  8
LAYER_1
 10
174.2184
 20
143.2941
  0
VERTEX
  8
LAYER_1
 10
173.8384
 20
147.8053
  0
SEQEND
  0
ENDBLK
  0
BLOCK
  8
LAYER_1
  2
AIGNBL0101002E
 70
64
 10
0
 20
0
 30
0
  3
AIGNBL0101002E
  0
POLYLINE
  8
LAYER_1
 40
0.1058
 41
0.1058
 66
1
 10
0
 20
0
 30
0
  0
VERTEX
  8
LAYER_1
 10
172.8884
 20
146.1786
  0
VERTEX
  8
LAYER_1
 10
173.8384
 20
146.1786
  0
SEQEND
  0
ENDBLK
  0
BLOCK
  8
LAYER_1
  2
AIGNBL0101002F
 70
64
 10
0
 20
0
 30
0
  3
AIGNBL0101002F
  0
POLYLINE
  8
LAYER_1
 40
0.1058
 41
0.1058
 66
1
 10
0
 20
0
 30
0
  0
VERTEX
  8
LAYER_1
 10
175.6013
 20
146.1786
  0
VERTEX
  8
LAYER_1
 10
176.6883
 20
146.1786
  0
SEQEND
  0
ENDBLK
  0
BLOCK
  8
LAYER_1
  2
AIGNBL01010030
 70
64
 10
0
 20
0
 30
0
  3
AIGNBL01010030
  0
POLYLINE
  8
LAYER_1
 40
0.1058
 41
0.1058
 66
1
 10
0
 20
0
 30
0
  0
VERTEX
  8
LAYER_1
 10
172.3939
 20
147.5412
  0
VERTEX
  8
LAYER_1
 10
172.8884
 20
146.1786
  0
SEQEND
  0
ENDBLK
  0
BLOCK
  8
LAYER_1
  2
AIGNBL01010031
 70
64
 10
0
 20
0
 30
0
  3
AIGNBL01010031
  0
POLYLINE
  8
LAYER_1
 40
0.1058
 41
0.1058
 66
1
 10
0
 20
0
 30
0
  0
VERTEX
  8
LAYER_1
 10
173.0368
 20
148.4585
 42
0.4142023939
  0
VERTEX
  8
LAYER_1
 10
172.3528
 20
147.7746
 42
0.08723053999
  0
VERTEX
  8
LAYER_1
 10
172.3939
 20
147.5412
  0
SEQEND
  0
ENDBLK
  0
BLOCK
  8
LAYER_1
  2
AIGNBL01010032
 70
64
 10
0
 20
0
 30
0
  3
AIGNBL01010032
  0
POLYLINE
  8
LAYER_1
 40
0.1058
 41
0.1058
 66
1
 10
0
 20
0
 30
0
  0
VERTEX
  8
LAYER_1
 10
177.1829
 20
147.5412
  0
VERTEX
  8
LAYER_1
 10
176.6883
 20
146.1786
  0
SEQEND
  0
ENDBLK
  0
BLOCK
  8
LAYER_1
  2
AIGNBL01010033
 70
64
 10
0
 20
0
 30
0
  3
AIGNBL01010033
  0
POLYLINE
  8
LAYER_1
 40
0.1058
 41
0.1058
 66
1
 10
0
 20
0
 30
0
  0
VERTEX
  8
LAYER_1
 10
176.5399
 20
148.4585
  0
VERTEX
  8
LAYER_1
 10
173.0368
 20
148.4585
  0
SEQEND
  0
ENDBLK
  0
BLOCK
  8
LAYER_1
  2
AIGNBL01010034
 70
64
 10
0
 20
0
 30
0
  3
AIGNBL01010034
  0
POLYLINE
  8
LAYER_1
 40
0.1058
 41
0.1058
 66
1
 10
0
 20
0
 30
0
  0
VERTEX
  8
LAYER_1
 10
177.1829
 20
147.5412
 42
0.4142004983
  0
VERTEX
  8
LAYER_1
 10
176.7733
 20
148.4175
 42
0.08694176573
  0
VERTEX
  8
LAYER_1
 10
176.5399
 20
148.4585
  0
SEQEND
  0
ENDBLK
  0
BLOCK
  8
LAYER_1
  2
AIGNBL01010035
 70
64
 10
0
 20
0
 30
0
  3
AIGNBL01010035
  0
POLYLINE
  8
LAYER_1
 40
0.1058
 41
0.1058
 66
1
 10
0
 20
0
 30
0
  0
VERTEX
  8
LAYER_1
 10
172.6374
 20
147.8053
  0
VERTEX
  8
LAYER_1
 10
173.8384
 20
147.8053
  0
SEQEND
  0
ENDBLK
  0
BLOCK
  8
LAYER_1
  2
AIGNBL01010036
 70
64
 10
0
 20
0
 30
0
  3
AIGNBL01010036
  0
POLYLINE
  8
LAYER_1
 40
0.1058
 41
0.1058
 66
1
 10
0
 20
0
 30
0
  0
VERTEX
  8
LAYER_1
 10
175.7383
 20
147.8053
  0
VERTEX
  8
LAYER_1
 10
176.9042
 20
147.8053
  0
SEQEND
  0
ENDBLK
  0
BLOCK
  8
LAYER_1
  2
AIGNBL01010037
 70
64
 10
0
 20
0
 30
0
  3
AIGNBL01010037
  0
POLYLINE
  8
LAYER_1
 40
0.1058
 41
0.1058
 66
1
 10
0
 20
0
 30
0
  0
VERTEX
  8
LAYER_1
 10
159.9421
 20
136.6171
  0
VERTEX
  8
LAYER_1
 10
163.3792
 20
136.2371
  0
SEQEND
  0
ENDBLK
  0
BLOCK
  8
LAYER_1
  2
AIGNBL01010038
 70
64
 10
0
 20
0
 30
0
  3
AIGNBL01010038
  0
POLYLINE
  8
LAYER_1
 40
0.1058
 41
0.1058
 66
1
 10
0
 20
0
 30
0
  0
VERTEX
  8
LAYER_1
 10
163.3792
 20
136.2371
  0
VERTEX
  8
LAYER_1
 10
163.3792
 20
135.0972
  0
SEQEND
  0
ENDBLK
  0
BLOCK
  8
LAYER_1
  2
AIGNBL01010039
 70
64
 10
0
 20
0
 30
0
  3
AIGNBL01010039
  0
POLYLINE
  8
LAYER_1
 40
0.1058
 41
0.1058
 66
1
 10
0
 20
0
 30
0
  0
VERTEX
  8
LAYER_1
 10
163.3792
 20
135.0972
  0
VERTEX
  8
LAYER_1
 10
159.9421
 20
134.7172
  0
SEQEND
  0
ENDBLK
  0
BLOCK
  8
LAYER_1
  2
AIGNBL0101003A
 70
64
 10
0
 20
0
 30
0
  3
AIGNBL0101003A
  0
CIRCLE
  8
LAYER_1
 10
157.7441
 20
135.6671
 40
1.3299
  0
ENDBLK
  0
BLOCK
  8
LAYER_1
  2
AIGNBL0101003B
 70
64
 10
0
 20
0
 30
0
  3
AIGNBL0101003B
  0
POLYLINE
  8
LAYER_1
 40
0.1058
 41
0.1058
 66
1
 10
0
 20
0
 30
0
  0
VERTEX
  8
LAYER_1
 10
158.9895
 20
136.2371
  0
VERTEX
  8
LAYER_1
 10
159.4825
 20
136.4338
  0
SEQEND
  0
ENDBLK
  0
BLOCK
  8
LAYER_1
  2
AIGNBL0101003C
 70
64
 10
0
 20
0
 30
0
  3
AIGNBL0101003C
  0
POLYLINE
  8
LAYER_1
 40
0.1058
 41
0.1058
 66
1
 10
0
 20
0
 30
0
  0
VERTEX
  8
LAYER_1
 10
158.9895
 20
135.0972
  0
VERTEX
  8
LAYER_1
 10
159.4825
 20
134.9005
  0
SEQEND
  0
ENDBLK
  0
BLOCK
  8
LAYER_1
  2
AIGNBL0101003D
 70
64
 10
0
 20
0
 30
0
  3
AIGNBL0101003D
  0
POLYLINE
  8
LAYER_1
 40
0.1058
 41
0.1058
 66
1
 10
0
 20
0
 30
0
  0
VERTEX
  8
LAYER_1
 10
155.5461
 20
136.6171
  0
VERTEX
  8
LAYER_1
 10
152.1091
 20
136.2371
  0
SEQEND
  0
ENDBLK
  0
BLOCK
  8
LAYER_1
  2
AIGNBL0101003E
 70
64
 10
0
 20
0
 30
0
  3
AIGNBL0101003E
  0
POLYLINE
  8
LAYER_1
 40
0.1058
 41
0.1058
 66
1
 10
0
 20
0
 30
0
  0
VERTEX
  8
LAYER_1
 10
152.1091
 20
135.0972
  0
VERTEX
  8
LAYER_1
 10
155.5461
 20
134.7172
  0
SEQEND
  0
ENDBLK
  0
BLOCK
  8
LAYER_1
  2
AIGNBL0101003F
 70
64
 10
0
 20
0
 30
0
  3
AIGNBL0101003F
  0
POLYLINE
  8
LAYER_1
 40
0.1058
 41
0.1058
 66
1
 10
0
 20
0
 30
0
  0
VERTEX
  8
LAYER_1
 10
156.4988
 20
136.2371
  0
VERTEX
  8
LAYER_1
 10
156.0058
 20
136.4338
  0
SEQEND
  0
ENDBLK
  0
BLOCK
  8
LAYER_1
  2
AIGNBL01010040
 70
64
 10
0
 20
0
 30
0
  3
AIGNBL01010040
  0
POLYLINE
  8
LAYER_1
 40
0.1058
 41
0.1058
 66
1
 10
0
 20
0
 30
0
  0
VERTEX
  8
LAYER_1
 10
156.4988
 20
135.0972
  0
VERTEX
  8
LAYER_1
 10
156.0058
 20
134.9005
  0
SEQEND
  0
ENDBLK
  0
BLOCK
  8
LAYER_1
  2
AIGNBL01010041
 70
64
 10
0
 20
0
 30
0
  3
AIGNBL01010041
  0
POLYLINE
  8
LAYER_1
 40
0.1058
 41
0.1058
 66
1
 10
0
 20
0
 30
0
  0
VERTEX
  8
LAYER_1
 10
159.9421
 20
136.6171
 42
0.41421009
  0
VERTEX
  8
LAYER_1
 10
156.7942
 20
137.8651
 42
0.1909993487
  0
VERTEX
  8
LAYER_1
 10
155.5461
 20
136.6171
  0
SEQEND
  0
ENDBLK
  0
BLOCK
  8
LAYER_1
  2
AIGNBL01010042
 70
64
 10
0
 20
0
 30
0
  3
AIGNBL01010042
  0
POLYLINE
  8
LAYER_1
 40
0.1058
 41
0.1058
 66
1
 10
0
 20
0
 30
0
  0
VERTEX
  8
LAYER_1
 10
155.5461
 20
134.7172
 42
0.414217118
  0
VERTEX
  8
LAYER_1
 10
158.6941
 20
133.4691
 42
0.1910015337
  0
VERTEX
  8
LAYER_1
 10
159.9421
 20
134.7172
  0
SEQEND
  0
ENDBLK
  0
BLOCK
  8
LAYER_1
  2
AIGNBL01010043
 70
64
 10
0
 20
0
 30
0
  3
AIGNBL01010043
  0
POLYLINE
  8
LAYER_1
 40
0.1058
 41
0.1058
 66
1
 10
0
 20
0
 30
0
  0
VERTEX
  8
LAYER_1
 10
159.4825
 20
136.4338
 42
0.4142091661
  0
VERTEX
  8
LAYER_1
 10
156.9775
 20
137.4055
 42
0.1871569483
  0
VERTEX
  8
LAYER_1
 10
156.0058
 20
136.4338
  0
SEQEND
  0
ENDBLK
  0
BLOCK
  8
LAYER_1
  2
AIGNBL01010044
 70
64
 10
0
 20
0
 30
0
  3
AIGNBL01010044
  0
POLYLINE
  8
LAYER_1
 40
0.1058
 41
0.1058
 66
1
 10
0
 20
0
 30
0
  0
VERTEX
  8
LAYER_1
 10
156.0058
 20
134.9005
 42
0.4142118226
  0
VERTEX
  8
LAYER_1
 10
158.5108
 20
133.9287
 42
0.1871651423
  0
VERTEX
  8
LAYER_1
 10
159.4825
 20
134.9005
  0
SEQEND
  0
ENDBLK
  0
BLOCK
  8
LAYER_1
  2
AIGNBL01010045
 70
64
 10
0
 20
0
 30
0
  3
AIGNBL01010045
  0
POLYLINE
  8
LAYER_1
 40
0.1058
 41
0.1058
 66
1
 10
0
 20
0
 30
0
  0
VERTEX
  8
LAYER_1
 10
152.1091
 20
136.2371
  0
VERTEX
  8
LAYER_1
 10
152.1091
 20
135.0972
  0
SEQEND
  0
ENDBLK
  0
BLOCK
  8
LAYER_1
  2
AIGNBL01010046
 70
64
 10
0
 20
0
 30
0
  3
AIGNBL01010046
  0
POLYLINE
  8
LAYER_1
 40
0.1058
 41
0.1058
 66
1
 10
0
 20
0
 30
0
  0
VERTEX
  8
LAYER_1
 10
172.7145
 20
136.6171
  0
VERTEX
  8
LAYER_1
 10
177.2257
 20
136.2371
  0
SEQEND
  0
ENDBLK
  0
BLOCK
  8
LAYER_1
  2
AIGNBL01010047
 70
64
 10
0
 20
0
 30
0
  3
AIGNBL01010047
  0
POLYLINE
  8
LAYER_1
 40
0.1058
 41
0.1058
 66
1
 10
0
 20
0
 30
0
  0
VERTEX
  8
LAYER_1
 10
177.2257
 20
136.2371
  0
VERTEX
  8
LAYER_1
 10
177.2257
 20
135.0972
  0
SEQEND
  0
ENDBLK
  0
BLOCK
  8
LAYER_1
  2
AIGNBL01010048
 70
64
 10
0
 20
0
 30
0
  3
AIGNBL01010048
  0
POLYLINE
  8
LAYER_1
 40
0.1058
 41
0.1058
 66
1
 10
0
 20
0
 30
0
  0
VERTEX
  8
LAYER_1
 10
177.2257
 20
135.0972
  0
VERTEX
  8
LAYER_1
 10
172.7145
 20
134.7172
  0
SEQEND
  0
ENDBLK
  0
BLOCK
  8
LAYER_1
  2
AIGNBL01010049
 70
64
 10
0
 20
0
 30
0
  3
AIGNBL01010049
  0
POLYLINE
  8
LAYER_1
 40
0.1058
 41
0.1058
 66
1
 10
0
 20
0
 30
0
  0
VERTEX
  8
LAYER_1
 10
174.3412
 20
133.7672
  0
VERTEX
  8
LAYER_1
 10
174.3412
 20
134.7172
  0
SEQEND
  0
ENDBLK
  0
BLOCK
  8
LAYER_1
  2
AIGNBL0101004A
 70
64
 10
0
 20
0
 30
0
  3
AIGNBL0101004A
  0
POLYLINE
  8
LAYER_1
 40
0.1058
 41
0.1058
 66
1
 10
0
 20
0
 30
0
  0
VERTEX
  8
LAYER_1
 10
174.3412
 20
136.4801
  0
VERTEX
  8
LAYER_1
 10
174.3412
 20
137.567
  0
SEQEND
  0
ENDBLK
  0
BLOCK
  8
LAYER_1
  2
AIGNBL0101004B
 70
64
 10
0
 20
0
 30
0
  3
AIGNBL0101004B
  0
POLYLINE
  8
LAYER_1
 40
0.1058
 41
0.1058
 66
1
 10
0
 20
0
 30
0
  0
VERTEX
  8
LAYER_1
 10
172.9786
 20
133.2726
  0
VERTEX
  8
LAYER_1
 10
174.3412
 20
133.7672
  0
SEQEND
  0
ENDBLK
  0
BLOCK
  8
LAYER_1
  2
AIGNBL0101004C
 70
64
 10
0
 20
0
 30
0
  3
AIGNBL0101004C
  0
POLYLINE
  8
LAYER_1
 40
0.1058
 41
0.1058
 66
1
 10
0
 20
0
 30
0
  0
VERTEX
  8
LAYER_1
 10
172.0613
 20
133.9156
 42
0.4142493358
  0
VERTEX
  8
LAYER_1
 10
172.7453
 20
133.2316
 42
0.08681448248
  0
VERTEX
  8
LAYER_1
 10
172.9786
 20
133.2726
  0
SEQEND
  0
ENDBLK
  0
BLOCK
  8
LAYER_1
  2
AIGNBL0101004D
 70
64
 10
0
 20
0
 30
0
  3
AIGNBL0101004D
  0
POLYLINE
  8
LAYER_1
 40
0.1058
 41
0.1058
 66
1
 10
0
 20
0
 30
0
  0
VERTEX
  8
LAYER_1
 10
172.9786
 20
138.0616
  0
VERTEX
  8
LAYER_1
 10
174.3412
 20
137.567
  0
SEQEND
  0
ENDBLK
  0
BLOCK
  8
LAYER_1
  2
AIGNBL0101004E
 70
64
 10
0
 20
0
 30
0
  3
AIGNBL0101004E
  0
POLYLINE
  8
LAYER_1
 40
0.1058
 41
0.1058
 66
1
 10
0
 20
0
 30
0
  0
VERTEX
  8
LAYER_1
 10
172.0613
 20
137.4187
  0
VERTEX
  8
LAYER_1
 10
172.0613
 20
133.9156
  0
SEQEND
  0
ENDBLK
  0
BLOCK
  8
LAYER_1
  2
AIGNBL0101004F
 70
64
 10
0
 20
0
 30
0
  3
AIGNBL0101004F
  0
POLYLINE
  8
LAYER_1
 40
0.1058
 41
0.1058
 66
1
 10
0
 20
0
 30
0
  0
VERTEX
  8
LAYER_1
 10
172.9786
 20
138.0616
 42
0.4141994196
  0
VERTEX
  8
LAYER_1
 10
172.1023
 20
137.6521
 42
0.08694176573
  0
VERTEX
  8
LAYER_1
 10
172.0613
 20
137.4187
  0
SEQEND
  0
ENDBLK
  0
BLOCK
  8
LAYER_1
  2
AIGNBL01010050
 70
64
 10
0
 20
0
 30
0
  3
AIGNBL01010050
  0
POLYLINE
  8
LAYER_1
 40
0.1058
 41
0.1058
 66
1
 10
0
 20
0
 30
0
  0
VERTEX
  8
LAYER_1
 10
172.7145
 20
133.5162
  0
VERTEX
  8
LAYER_1
 10
172.7145
 20
134.7172
  0
SEQEND
  0
ENDBLK
  0
BLOCK
  8
LAYER_1
  2
AIGNBL01010051
 70
64
 10
0
 20
0
 30
0
  3
AIGNBL01010051
  0
POLYLINE
  8
LAYER_1
 40
0.1058
 41
0.1058
 66
1
 10
0
 20
0
 30
0
  0
VERTEX
  8
LAYER_1
 10
172.7145
 20
136.6171
  0
VERTEX
  8
LAYER_1
 10
172.7145
 20
137.7829
  0
SEQEND
  0
ENDBLK
  0
BLOCK
  8
LAYER_1
  2
AIGNBL01010052
 70
64
 10
0
 20
0
 30
0
  3
AIGNBL01010052
  0
POLYLINE
  8
LAYER_1
 40
0.1058
 41
0.1058
 66
1
 10
0
 20
0
 30
0
  0
VERTEX
  8
LAYER_1
 10
213.7196
 20
185.652
  0
VERTEX
  8
LAYER_1
 10
213.7196
 20
176.1524
  0
SEQEND
  0
ENDBLK
  0
BLOCK
  8
LAYER_1
  2
AIGNBL01010053
 70
64
 10
0
 20
0
 30
0
  3
AIGNBL01010053
  0
POLYLINE
  8
LAYER_1
  6
AIGENLINE001
 40
0.1058
 41
0.1058
 66
1
 10
0
 20
0
 30
0
 70
128
  0
VERTEX
  8
LAYER_1
 10
212.5036
 20
185.652
  0
VERTEX
  8
LAYER_1
 10
212.5036
 20
176.1524
  0
SEQEND
  0
ENDBLK
  0
BLOCK
  8
LAYER_1
  2
AIGNBL01010054
 70
64
 10
0
 20
0
 30
0
  3
AIGNBL01010054
  0
POLYLINE
  8
LAYER_1
 40
0.1058
 41
0.1058
 66
1
 10
0
 20
0
 30
0
  0
VERTEX
  8
LAYER_1
 10
213.7196
 20
166.2829
 42
0.414227629
  0
VERTEX
  8
LAYER_1
 10
212.5796
 20
167.4229
  0
SEQEND
  0
ENDBLK
  0
BLOCK
  8
LAYER_1
  2
AIGNBL01010055
 70
64
 10
0
 20
0
 30
0
  3
AIGNBL01010055
  0
POLYLINE
  8
LAYER_1
 40
0.1058
 41
0.1058
 66
1
 10
0
 20
0
 30
0
  0
VERTEX
  8
LAYER_1
 10
192.2316
 20
167.4229
  0
VERTEX
  8
LAYER_1
 10
212.5796
 20
167.4229
  0
SEQEND
  0
ENDBLK
  0
BLOCK
  8
LAYER_1
  2
AIGNBL01010056
 70
64
 10
0
 20
0
 30
0
  3
AIGNBL01010056
  0
POLYLINE
  8
LAYER_1
 40
0.1058
 41
0.1058
 66
1
 10
0
 20
0
 30
0
  0
VERTEX
  8
LAYER_1
 10
192.2316
 20
167.4229
 42
0.4142417333
  0
VERTEX
  8
LAYER_1
 10
191.4716
 20
166.6629
  0
VERTEX
  8
LAYER_1
 10
191.4958
 20
166.4727
  0
SEQEND
  0
ENDBLK
  0
BLOCK
  8
LAYER_1
  2
AIGNBL01010057
 70
64
 10
0
 20
0
 30
0
  3
AIGNBL01010057
  0
POLYLINE
  8
LAYER_1
  6
AIGENLINE001
 40
0.1058
 41
0.1058
 66
1
 10
0
 20
0
 30
0
 70
128
  0
VERTEX
  8
LAYER_1
 10
192.8205
 20
176.1524
  0
VERTEX
  8
LAYER_1
 10
192.8205
 20
185.652
  0
SEQEND
  0
ENDBLK
  0
BLOCK
  8
LAYER_1
  2
AIGNBL01010058
 70
64
 10
0
 20
0
 30
0
  3
AIGNBL01010058
  0
POLYLINE
  8
LAYER_1
 40
0.1058
 41
0.1058
 66
1
 10
0
 20
0
 30
0
  0
VERTEX
  8
LAYER_1
 10
191.6045
 20
185.652
  0
VERTEX
  8
LAYER_1
 10
213.7196
 20
185.652
  0
SEQEND
  0
ENDBLK
  0
BLOCK
  8
LAYER_1
  2
AIGNBL01010059
 70
64
 10
0
 20
0
 30
0
  3
AIGNBL01010059
  0
POLYLINE
  8
LAYER_1
 40
0.1058
 41
0.1058
 66
1
 10
0
 20
0
 30
0
  0
VERTEX
  8
LAYER_1
 10
213.7196
 20
176.1524
  0
VERTEX
  8
LAYER_1
 10
191.6045
 20
176.1524
  0
SEQEND
  0
ENDBLK
  0
BLOCK
  8
LAYER_1
  2
AIGNBL0101005A
 70
64
 10
0
 20
0
 30
0
  3
AIGNBL0101005A
  0
POLYLINE
  8
LAYER_1
 40
0.1058
 41
0.1058
 66
1
 10
0
 20
0
 30
0
  0
VERTEX
  8
LAYER_1
 10
191.6045
 20
185.652
  0
VERTEX
  8
LAYER_1
 10
191.6045
 20
176.1524
  0
SEQEND
  0
ENDBLK
  0
BLOCK
  8
LAYER_1
  2
AIGNBL0101005B
 70
64
 10
0
 20
0
 30
0
  3
AIGNBL0101005B
  0
POLYLINE
  8
LAYER_1
 40
0.1058
 41
0.1058
 66
1
 10
0
 20
0
 30
0
  0
VERTEX
  8
LAYER_1
 10
212.5036
 20
161.8436
  0
VERTEX
  8
LAYER_1
 10
212.5036
 20
166.207
  0
SEQEND
  0
ENDBLK
  0
BLOCK
  8
LAYER_1
  2
AIGNBL0101005C
 70
64
 10
0
 20
0
 30
0
  3
AIGNBL0101005C
  0
POLYLINE
  8
LAYER_1
 40
0.1058
 41
0.1058
 66
1
 10
0
 20
0
 30
0
  0
VERTEX
  8
LAYER_1
 10
213.7196
 20
166.2829
  0
VERTEX
  8
LAYER_1
 10
213.7196
 20
161.8259
  0
SEQEND
  0
ENDBLK
  0
BLOCK
  8
LAYER_1
  2
AIGNBL0101005D
 70
64
 10
0
 20
0
 30
0
  3
AIGNBL0101005D
  0
POLYLINE
  8
LAYER_1
 40
0.1058
 41
0.1058
 66
1
 10
0
 20
0
 30
0
  0
VERTEX
  8
LAYER_1
 10
212.5036
 20
161.8292
 42
0.3267587381
  0
VERTEX
  8
LAYER_1
 10
212.2393
 20
161.4666
  0
SEQEND
  0
ENDBLK
  0
BLOCK
  8
LAYER_1
  2
AIGNBL0101005E
 70
64
 10
0
 20
0
 30
0
  3
AIGNBL0101005E
  0
POLYLINE
  8
LAYER_1
 40
0.1058
 41
0.1058
 66
1
 10
0
 20
0
 30
0
  0
VERTEX
  8
LAYER_1
 10
213.9652
 20
161.4226
 42
0.3119132848
  0
VERTEX
  8
LAYER_1
 10
213.7196
 20
161.7781
  0
SEQEND
  0
ENDBLK
  0
BLOCK
  8
LAYER_1
  2
AIGNBL0101005F
 70
64
 10
0
 20
0
 30
0
  3
AIGNBL0101005F
  0
POLYLINE
  8
LAYER_1
 40
0.1058
 41
0.1058
 66
1
 10
0
 20
0
 30
0
  0
VERTEX
  8
LAYER_1
 10
156.4142
 20
181.6546
  0
VERTEX
  8
LAYER_1
 10
156.4142
 20
155.0558
  0
SEQEND
  0
ENDBLK
  0
BLOCK
  8
LAYER_1
  2
AIGNBL01010060
 70
64
 10
0
 20
0
 30
0
  3
AIGNBL01010060
  0
POLYLINE
  8
LAYER_1
 40
0.1058
 41
0.1058
 66
1
 10
0
 20
0
 30
0
  0
VERTEX
  8
LAYER_1
 10
159.0741
 20
155.0558
  0
VERTEX
  8
LAYER_1
 10
159.0741
 20
181.6546
  0
SEQEND
  0
ENDBLK
  0
BLOCK
  8
LAYER_1
  2
AIGNBL01010061
 70
64
 10
0
 20
0
 30
0
  3
AIGNBL01010061
  0
POLYLINE
  8
LAYER_1
 40
0.1058
 41
0.1058
 66
1
 10
0
 20
0
 30
0
  0
VERTEX
  8
LAYER_1
 10
159.0741
 20
155.0558
  0
VERTEX
  8
LAYER_1
 10
156.4142
 20
155.0558
  0
SEQEND
  0
ENDBLK
  0
BLOCK
  8
LAYER_1
  2
AIGNBL01010062
 70
64
 10
0
 20
0
 30
0
  3
AIGNBL01010062
  0
POLYLINE
  8
LAYER_1
 40
0.1058
 41
0.1058
 66
1
 10
0
 20
0
 30
0
  0
VERTEX
  8
LAYER_1
 10
212.5036
 20
166.207
  0
VERTEX
  8
LAYER_1
 10
192.7117
 20
166.207
  0
SEQEND
  0
ENDBLK
  0
BLOCK
  8
LAYER_1
  2
AIGNBL01010063
 70
64
 10
0
 20
0
 30
0
  3
AIGNBL01010063
  0
POLYLINE
  8
LAYER_1
  6
AIGENLINE001
 40
0.1058
 41
0.1058
 66
1
 10
0
 20
0
 30
0
 70
128
  0
VERTEX
  8
LAYER_1
 10
192.9967
 20
167.4229
  0
VERTEX
  8
LAYER_1
 10
192.9967
 20
166.207
  0
SEQEND
  0
ENDBLK
  0
BLOCK
  8
LAYER_1
  2
AIGNBL01010064
 70
64
 10
0
 20
0
 30
0
  3
AIGNBL01010064
  0
POLYLINE
  8
LAYER_1
  6
AIGENLINE001
 40
0.1058
 41
0.1058
 66
1
 10
0
 20
0
 30
0
 70
128
  0
VERTEX
  8
LAYER_1
 10
196.2266
 20
167.4229
  0
VERTEX
  8
LAYER_1
 10
196.2266
 20
166.207
  0
SEQEND
  0
ENDBLK
  0
BLOCK
  8
LAYER_1
  2
AIGNBL01010065
 70
64
 10
0
 20
0
 30
0
  3
AIGNBL01010065
  0
CIRCLE
  8
LAYER_1
 10
194.7204
 20
180.9022
 40
1.6149
  0
ENDBLK
  0
BLOCK
  8
LAYER_1
  2
AIGNBL01010066
 70
64
 10
0
 20
0
 30
0
  3
AIGNBL01010066
  0
POLYLINE
  8
LAYER_1
 40
0.1058
 41
0.1058
 66
1
 10
0
 20
0
 30
0
  0
VERTEX
  8
LAYER_1
 10
213.7196
 20
152.3376
  0
VERTEX
  8
LAYER_1
 10
212.5036
 20
152.3376
  0
SEQEND
  0
ENDBLK
  0
BLOCK
  8
LAYER_1
  2
AIGNBL01010067
 70
64
 10
0
 20
0
 30
0
  3
AIGNBL01010067
  0
POLYLINE
  8
LAYER_1
  6
AIGENLINE001
 40
0.1058
 41
0.1058
 66
1
 10
0
 20
0
 30
0
 70
128
  0
VERTEX
  8
LAYER_1
 10
212.5036
 20
161.8436
  0
VERTEX
  8
LAYER_1
 10
212.5036
 20
152.9075
  0
SEQEND
  0
ENDBLK
  0
BLOCK
  8
LAYER_1
  2
AIGNBL01010068
 70
64
 10
0
 20
0
 30
0
  3
AIGNBL01010068
  0
POLYLINE
  8
LAYER_1
  6
AIGENLINE001
 40
0.1058
 41
0.1058
 66
1
 10
0
 20
0
 30
0
 70
128
  0
VERTEX
  8
LAYER_1
 10
212.5036
 20
152.9075
  0
VERTEX
  8
LAYER_1
 10
213.7196
 20
152.9075
  0
SEQEND
  0
ENDBLK
  0
BLOCK
  8
LAYER_1
  2
AIGNBL01010069
 70
64
 10
0
 20
0
 30
0
  3
AIGNBL01010069
  0
POLYLINE
  8
LAYER_1
  6
AIGENLINE001
 40
0.1058
 41
0.1058
 66
1
 10
0
 20
0
 30
0
 70
128
  0
VERTEX
  8
LAYER_1
 10
213.7196
 20
152.9075
  0
VERTEX
  8
LAYER_1
 10
213.7196
 20
161.8259
  0
SEQEND
  0
ENDBLK
  0
BLOCK
  8
LAYER_1
  2
AIGNBL0101006A
 70
64
 10
0
 20
0
 30
0
  3
AIGNBL0101006A
  0
POLYLINE
  8
LAYER_1
 40
0.1058
 41
0.1058
 66
1
 10
0
 20
0
 30
0
  0
VERTEX
  8
LAYER_1
 10
212.2393
 20
161.4666
  0
VERTEX
  8
LAYER_1
 10
212.2465
 20
152.9065
  0
SEQEND
  0
ENDBLK
  0
BLOCK
  8
LAYER_1
  2
AIGNBL0101006B
 70
64
 10
0
 20
0
 30
0
  3
AIGNBL0101006B
  0
POLYLINE
  8
LAYER_1
 40
0.1058
 41
0.1058
 66
1
 10
0
 20
0
 30
0
  0
VERTEX
  8
LAYER_1
 10
212.2465
 20
152.9065
 42
0.413698054
  0
VERTEX
  8
LAYER_1
 10
212.8165
 20
152.3376
  0
SEQEND
  0
ENDBLK
  0
BLOCK
  8
LAYER_1
  2
AIGNBL0101006C
 70
64
 10
0
 20
0
 30
0
  3
AIGNBL0101006C
  0
POLYLINE
  8
LAYER_1
 40
0.1058
 41
0.1058
 66
1
 10
0
 20
0
 30
0
  0
VERTEX
  8
LAYER_1
 10
212.8165
 20
152.3376
  0
VERTEX
  8
LAYER_1
 10
213.3952
 20
152.3376
  0
SEQEND
  0
ENDBLK
  0
BLOCK
  8
LAYER_1
  2
AIGNBL0101006D
 70
64
 10
0
 20
0
 30
0
  3
AIGNBL0101006D
  0
POLYLINE
  8
LAYER_1
 40
0.1058
 41
0.1058
 66
1
 10
0
 20
0
 30
0
  0
VERTEX
  8
LAYER_1
 10
213.9652
 20
152.9075
  0
VERTEX
  8
LAYER_1
 10
213.9652
 20
161.4226
  0
SEQEND
  0
ENDBLK
  0
BLOCK
  8
LAYER_1
  2
AIGNBL0101006E
 70
64
 10
0
 20
0
 30
0
  3
AIGNBL0101006E
  0
POLYLINE
  8
LAYER_1
 40
0.1058
 41
0.1058
 66
1
 10
0
 20
0
 30
0
  0
VERTEX
  8
LAYER_1
 10
213.3952
 20
152.3376
 42
0.414209658
  0
VERTEX
  8
LAYER_1
 10
213.9652
 20
152.9075
  0
SEQEND
  0
ENDBLK
  0
BLOCK
  8
LAYER_1
  2
AIGNBL0101006F
 70
64
 10
0
 20
0
 30
0
  3
AIGNBL0101006F
  0
POLYLINE
  8
LAYER_1
 40
0.1058
 41
0.1058
 66
1
 10
0
 20
0
 30
0
  0
VERTEX
  8
LAYER_1
 10
191.4958
 20
166.4727
  0
VERTEX
  8
LAYER_1
 10
191.4958
 20
160.5072
  0
SEQEND
  0
ENDBLK
  0
BLOCK
  8
LAYER_1
  2
AIGNBL01010070
 70
64
 10
0
 20
0
 30
0
  3
AIGNBL01010070
  0
POLYLINE
  8
LAYER_1
 40
0.1058
 41
0.1058
 66
1
 10
0
 20
0
 30
0
  0
VERTEX
  8
LAYER_1
 10
191.4958
 20
160.5072
  0
VERTEX
  8
LAYER_1
 10
192.7117
 20
160.5072
  0
SEQEND
  0
ENDBLK
  0
BLOCK
  8
LAYER_1
  2
AIGNBL01010071
 70
64
 10
0
 20
0
 30
0
  3
AIGNBL01010071
  0
POLYLINE
  8
LAYER_1
 40
0.1058
 41
0.1058
 66
1
 10
0
 20
0
 30
0
  0
VERTEX
  8
LAYER_1
 10
192.7117
 20
160.5072
  0
VERTEX
  8
LAYER_1
 10
192.7117
 20
166.207
  0
SEQEND
  0
ENDBLK
  0
BLOCK
  8
LAYER_1
  2
AIGNBL01010072
 70
64
 10
0
 20
0
 30
0
  3
AIGNBL01010072
  0
POLYLINE
  8
LAYER_1
 40
0.1058
 41
0.1058
 66
1
 10
0
 20
0
 30
0
  0
VERTEX
  8
LAYER_1
 10
156.2242
 20
175.7649
  0
VERTEX
  8
LAYER_1
 10
159.2641
 20
175.9549
  0
SEQEND
  0
ENDBLK
  0
BLOCK
  8
LAYER_1
  2
AIGNBL01010073
 70
64
 10
0
 20
0
 30
0
  3
AIGNBL01010073
  0
POLYLINE
  8
LAYER_1
 40
0.1058
 41
0.1058
 66
1
 10
0
 20
0
 30
0
  0
VERTEX
  8
LAYER_1
 10
156.2242
 20
176.1449
  0
VERTEX
  8
LAYER_1
 10
159.2641
 20
176.3349
  0
SEQEND
  0
ENDBLK
  0
BLOCK
  8
LAYER_1
  2
AIGNBL01010074
 70
64
 10
0
 20
0
 30
0
  3
AIGNBL01010074
  0
POLYLINE
  8
LAYER_1
 40
0.1058
 41
0.1058
 66
1
 10
0
 20
0
 30
0
  0
VERTEX
  8
LAYER_1
 10
156.2242
 20
176.5249
  0
VERTEX
  8
LAYER_1
 10
159.2641
 20
176.7148
  0
SEQEND
  0
ENDBLK
  0
BLOCK
  8
LAYER_1
  2
AIGNBL01010075
 70
64
 10
0
 20
0
 30
0
  3
AIGNBL01010075
  0
POLYLINE
  8
LAYER_1
 40
0.1058
 41
0.1058
 66
1
 10
0
 20
0
 30
0
  0
VERTEX
  8
LAYER_1
 10
156.2242
 20
176.9048
  0
VERTEX
  8
LAYER_1
 10
159.2641
 20
177.0948
  0
SEQEND
  0
ENDBLK
  0
BLOCK
  8
LAYER_1
  2
AIGNBL01010076
 70
64
 10
0
 20
0
 30
0
  3
AIGNBL01010076
  0
POLYLINE
  8
LAYER_1
 40
0.1058
 41
0.1058
 66
1
 10
0
 20
0
 30
0
  0
VERTEX
  8
LAYER_1
 10
156.2242
 20
177.2848
  0
VERTEX
  8
LAYER_1
 10
159.2641
 20
177.4748
  0
SEQEND
  0
ENDBLK
  0
BLOCK
  8
LAYER_1
  2
AIGNBL01010077
 70
64
 10
0
 20
0
 30
0
  3
AIGNBL01010077
  0
POLYLINE
  8
LAYER_1
 40
0.1058
 41
0.1058
 66
1
 10
0
 20
0
 30
0
  0
VERTEX
  8
LAYER_1
 10
156.2242
 20
177.6648
  0
VERTEX
  8
LAYER_1
 10
159.2641
 20
177.8548
  0
SEQEND
  0
ENDBLK
  0
BLOCK
  8
LAYER_1
  2
AIGNBL01010078
 70
64
 10
0
 20
0
 30
0
  3
AIGNBL01010078
  0
POLYLINE
  8
LAYER_1
 40
0.1058
 41
0.1058
 66
1
 10
0
 20
0
 30
0
  0
VERTEX
  8
LAYER_1
 10
156.2242
 20
178.0448
  0
VERTEX
  8
LAYER_1
 10
159.2641
 20
178.2348
  0
SEQEND
  0
ENDBLK
  0
BLOCK
  8
LAYER_1
  2
AIGNBL01010079
 70
64
 10
0
 20
0
 30
0
  3
AIGNBL01010079
  0
POLYLINE
  8
LAYER_1
 40
0.1058
 41
0.1058
 66
1
 10
0
 20
0
 30
0
  0
VERTEX
  8
LAYER_1
 10
156.2242
 20
178.4248
  0
VERTEX
  8
LAYER_1
 10
159.2641
 20
178.6148
  0
SEQEND
  0
ENDBLK
  0
BLOCK
  8
LAYER_1
  2
AIGNBL0101007A
 70
64
 10
0
 20
0
 30
0
  3
AIGNBL0101007A
  0
POLYLINE
  8
LAYER_1
 40
0.1058
 41
0.1058
 66
1
 10
0
 20
0
 30
0
  0
VERTEX
  8
LAYER_1
 10
156.2242
 20
178.8048
  0
VERTEX
  8
LAYER_1
 10
159.2641
 20
178.9947
  0
SEQEND
  0
ENDBLK
  0
BLOCK
  8
LAYER_1
  2
AIGNBL0101007B
 70
64
 10
0
 20
0
 30
0
  3
AIGNBL0101007B
  0
POLYLINE
  8
LAYER_1
 40
0.1058
 41
0.1058
 66
1
 10
0
 20
0
 30
0
  0
VERTEX
  8
LAYER_1
 10
156.2242
 20
179.1847
  0
VERTEX
  8
LAYER_1
 10
159.2641
 20
179.3747
  0
SEQEND
  0
ENDBLK
  0
BLOCK
  8
LAYER_1
  2
AIGNBL0101007C
 70
64
 10
0
 20
0
 30
0
  3
AIGNBL0101007C
  0
POLYLINE
  8
LAYER_1
 40
0.1058
 41
0.1058
 66
1
 10
0
 20
0
 30
0
  0
VERTEX
  8
LAYER_1
 10
156.2242
 20
179.5647
  0
VERTEX
  8
LAYER_1
 10
159.2641
 20
179.7547
  0
SEQEND
  0
ENDBLK
  0
BLOCK
  8
LAYER_1
  2
AIGNBL0101007D
 70
64
 10
0
 20
0
 30
0
  3
AIGNBL0101007D
  0
POLYLINE
  8
LAYER_1
 40
0.1058
 41
0.1058
 66
1
 10
0
 20
0
 30
0
  0
VERTEX
  8
LAYER_1
 10
156.2242
 20
179.9447
  0
VERTEX
  8
LAYER_1
 10
159.2641
 20
180.1347
  0
SEQEND
  0
ENDBLK
  0
BLOCK
  8
LAYER_1
  2
AIGNBL0101007E
 70
64
 10
0
 20
0
 30
0
  3
AIGNBL0101007E
  0
POLYLINE
  8
LAYER_1
 40
0.1058
 41
0.1058
 66
1
 10
0
 20
0
 30
0
  0
VERTEX
  8
LAYER_1
 10
156.2242
 20
180.3247
  0
VERTEX
  8
LAYER_1
 10
159.2641
 20
180.5147
  0
SEQEND
  0
ENDBLK
  0
BLOCK
  8
LAYER_1
  2
AIGNBL0101007F
 70
64
 10
0
 20
0
 30
0
  3
AIGNBL0101007F
  0
POLYLINE
  8
LAYER_1
 40
0.1058
 41
0.1058
 66
1
 10
0
 20
0
 30
0
  0
VERTEX
  8
LAYER_1
 10
156.2242
 20
180.7047
  0
VERTEX
  8
LAYER_1
 10
159.2641
 20
180.8947
  0
SEQEND
  0
ENDBLK
  0
BLOCK
  8
LAYER_1
  2
AIGNBL01010080
 70
64
 10
0
 20
0
 30
0
  3
AIGNBL01010080
  0
POLYLINE
  8
LAYER_1
 40
0.1058
 41
0.1058
 66
1
 10
0
 20
0
 30
0
  0
VERTEX
  8
LAYER_1
 10
156.2242
 20
181.0847
  0
VERTEX
  8
LAYER_1
 10
159.2641
 20
181.2746
  0
SEQEND
  0
ENDBLK
  0
BLOCK
  8
LAYER_1
  2
AIGNBL01010081
 70
64
 10
0
 20
0
 30
0
  3
AIGNBL01010081
  0
POLYLINE
  8
LAYER_1
  6
AIGENLINE002
 40
0.1058
 41
0.1058
 66
1
 10
0
 20
0
 30
0
 70
128
  0
VERTEX
  8
LAYER_1
 10
151.1209
 20
199.0699
  0
VERTEX
  8
LAYER_1
 10
153.9414
 20
199.0699
  0
SEQEND
  0
ENDBLK
  0
BLOCK
  8
LAYER_1
  2
AIGNBL01010082
 70
64
 10
0
 20
0
 30
0
  3
AIGNBL01010082
  0
POLYLINE
  8
LAYER_1
  6
AIGENLINE002
 40
0.1058
 41
0.1058
 66
1
 10
0
 20
0
 30
0
 70
128
  0
VERTEX
  8
LAYER_1
 10
152.4789
 20
200.4988
  0
VERTEX
  8
LAYER_1
 10
152.4789
 20
197.5396
  0
SEQEND
  0
ENDBLK
  0
BLOCK
  8
LAYER_1
  2
AIGNBL01010083
 70
64
 10
0
 20
0
 30
0
  3
AIGNBL01010083
  0
CIRCLE
  8
LAYER_1
 10
152.4789
 20
199.0699
 40
1.3299
  0
ENDBLK
  0
BLOCK
  8
LAYER_1
  2
AIGNBL01010084
 70
64
 10
0
 20
0
 30
0
  3
AIGNBL01010084
  0
POLYLINE
  8
LAYER_1
 40
0.1058
 41
0.1058
 66
1
 10
0
 20
0
 30
0
  0
VERTEX
  8
LAYER_1
 10
151.5482
 20
199.2599
  0
VERTEX
  8
LAYER_1
 10
151.5482
 20
198.8799
  0
SEQEND
  0
ENDBLK
  0
BLOCK
  8
LAYER_1
  2
AIGNBL01010085
 70
64
 10
0
 20
0
 30
0
  3
AIGNBL01010085
  0
POLYLINE
  8
LAYER_1
 40
0.1058
 41
0.1058
 66
1
 10
0
 20
0
 30
0
  0
VERTEX
  8
LAYER_1
 10
152.289
 20
200.0007
  0
VERTEX
  8
LAYER_1
 10
152.6689
 20
200.0007
  0
SEQEND
  0
ENDBLK
  0
BLOCK
  8
LAYER_1
  2
AIGNBL01010086
 70
64
 10
0
 20
0
 30
0
  3
AIGNBL01010086
  0
POLYLINE
  8
LAYER_1
 40
0.1058
 41
0.1058
 66
1
 10
0
 20
0
 30
0
  0
VERTEX
  8
LAYER_1
 10
151.909
 20
199.2599
  0
VERTEX
  8
LAYER_1
 10
151.5482
 20
199.2599
  0
SEQEND
  0
ENDBLK
  0
BLOCK
  8
LAYER_1
  2
AIGNBL01010087
 70
64
 10
0
 20
0
 30
0
  3
AIGNBL01010087
  0
POLYLINE
  8
LAYER_1
 40
0.1058
 41
0.1058
 66
1
 10
0
 20
0
 30
0
  0
VERTEX
  8
LAYER_1
 10
152.289
 20
199.6399
  0
VERTEX
  8
LAYER_1
 10
152.289
 20
200.0007
  0
SEQEND
  0
ENDBLK
  0
BLOCK
  8
LAYER_1
  2
AIGNBL01010088
 70
64
 10
0
 20
0
 30
0
  3
AIGNBL01010088
  0
POLYLINE
  8
LAYER_1
 40
0.1058
 41
0.1058
 66
1
 10
0
 20
0
 30
0
  0
VERTEX
  8
LAYER_1
 10
151.909
 20
199.2599
 42
0.4141780713
  0
VERTEX
  8
LAYER_1
 10
152.289
 20
199.6399
  0
SEQEND
  0
ENDBLK
  0
BLOCK
  8
LAYER_1
  2
AIGNBL01010089
 70
64
 10
0
 20
0
 30
0
  3
AIGNBL01010089
  0
POLYLINE
  8
LAYER_1
 40
0.1058
 41
0.1058
 66
1
 10
0
 20
0
 30
0
  0
VERTEX
  8
LAYER_1
 10
152.6689
 20
198.1392
  0
VERTEX
  8
LAYER_1
 10
152.289
 20
198.1392
  0
SEQEND
  0
ENDBLK
  0
BLOCK
  8
LAYER_1
  2
AIGNBL0101008A
 70
64
 10
0
 20
0
 30
0
  3
AIGNBL0101008A
  0
POLYLINE
  8
LAYER_1
 40
0.1058
 41
0.1058
 66
1
 10
0
 20
0
 30
0
  0
VERTEX
  8
LAYER_1
 10
153.4097
 20
198.8799
  0
VERTEX
  8
LAYER_1
 10
153.4097
 20
199.2599
  0
SEQEND
  0
ENDBLK
  0
BLOCK
  8
LAYER_1
  2
AIGNBL0101008B
 70
64
 10
0
 20
0
 30
0
  3
AIGNBL0101008B
  0
POLYLINE
  8
LAYER_1
 40
0.1058
 41
0.1058
 66
1
 10
0
 20
0
 30
0
  0
VERTEX
  8
LAYER_1
 10
152.6689
 20
198.5
  0
VERTEX
  8
LAYER_1
 10
152.6689
 20
198.1392
  0
SEQEND
  0
ENDBLK
  0
BLOCK
  8
LAYER_1
  2
AIGNBL0101008C
 70
64
 10
0
 20
0
 30
0
  3
AIGNBL0101008C
  0
POLYLINE
  8
LAYER_1
 40
0.1058
 41
0.1058
 66
1
 10
0
 20
0
 30
0
  0
VERTEX
  8
LAYER_1
 10
153.0489
 20
198.8799
  0
VERTEX
  8
LAYER_1
 10
153.4097
 20
198.8799
  0
SEQEND
  0
ENDBLK
  0
BLOCK
  8
LAYER_1
  2
AIGNBL0101008D
 70
64
 10
0
 20
0
 30
0
  3
AIGNBL0101008D
  0
POLYLINE
  8
LAYER_1
 40
0.1058
 41
0.1058
 66
1
 10
0
 20
0
 30
0
  0
VERTEX
  8
LAYER_1
 10
153.0489
 20
198.8799
 42
0.4141700889
  0
VERTEX
  8
LAYER_1
 10
152.6689
 20
198.5
  0
SEQEND
  0
ENDBLK
  0
BLOCK
  8
LAYER_1
  2
AIGNBL0101008E
 70
64
 10
0
 20
0
 30
0
  3
AIGNBL0101008E
  0
POLYLINE
  8
LAYER_1
 40
0.1058
 41
0.1058
 66
1
 10
0
 20
0
 30
0
  0
VERTEX
  8
LAYER_1
 10
152.6689
 20
200.0007
  0
VERTEX
  8
LAYER_1
 10
152.6689
 20
199.6399
  0
SEQEND
  0
ENDBLK
  0
BLOCK
  8
LAYER_1
  2
AIGNBL0101008F
 70
64
 10
0
 20
0
 30
0
  3
AIGNBL0101008F
  0
POLYLINE
  8
LAYER_1
 40
0.1058
 41
0.1058
 66
1
 10
0
 20
0
 30
0
  0
VERTEX
  8
LAYER_1
 10
153.4097
 20
199.2599
  0
VERTEX
  8
LAYER_1
 10
153.0489
 20
199.2599
  0
SEQEND
  0
ENDBLK
  0
BLOCK
  8
LAYER_1
  2
AIGNBL01010090
 70
64
 10
0
 20
0
 30
0
  3
AIGNBL01010090
  0
POLYLINE
  8
LAYER_1
 40
0.1058
 41
0.1058
 66
1
 10
0
 20
0
 30
0
  0
VERTEX
  8
LAYER_1
 10
152.6689
 20
199.6399
 42
0.4141899705
  0
VERTEX
  8
LAYER_1
 10
153.0489
 20
199.2599
  0
SEQEND
  0
ENDBLK
  0
BLOCK
  8
LAYER_1
  2
AIGNBL01010091
 70
64
 10
0
 20
0
 30
0
  3
AIGNBL01010091
  0
POLYLINE
  8
LAYER_1
 40
0.1058
 41
0.1058
 66
1
 10
0
 20
0
 30
0
  0
VERTEX
  8
LAYER_1
 10
151.5482
 20
198.8799
  0
VERTEX
  8
LAYER_1
 10
151.909
 20
198.8799
  0
SEQEND
  0
ENDBLK
  0
BLOCK
  8
LAYER_1
  2
AIGNBL01010092
 70
64
 10
0
 20
0
 30
0
  3
AIGNBL01010092
  0
POLYLINE
  8
LAYER_1
 40
0.1058
 41
0.1058
 66
1
 10
0
 20
0
 30
0
  0
VERTEX
  8
LAYER_1
 10
152.289
 20
198.1392
  0
VERTEX
  8
LAYER_1
 10
152.289
 20
198.5
  0
SEQEND
  0
ENDBLK
  0
BLOCK
  8
LAYER_1
  2
AIGNBL01010093
 70
64
 10
0
 20
0
 30
0
  3
AIGNBL01010093
  0
POLYLINE
  8
LAYER_1
 40
0.1058
 41
0.1058
 66
1
 10
0
 20
0
 30
0
  0
VERTEX
  8
LAYER_1
 10
152.289
 20
198.5
 42
0.414161237
  0
VERTEX
  8
LAYER_1
 10
151.909
 20
198.8799
  0
SEQEND
  0
ENDBLK
  0
BLOCK
  8
LAYER_1
  2
AIGNBL01010094
 70
64
 10
0
 20
0
 30
0
  3
AIGNBL01010094
  0
POLYLINE
  8
LAYER_1
  6
AIGENLINE002
 40
0.1058
 41
0.1058
 66
1
 10
0
 20
0
 30
0
 70
128
  0
VERTEX
  8
LAYER_1
 10
161.6513
 20
199.0699
  0
VERTEX
  8
LAYER_1
 10
164.4718
 20
199.0699
  0
SEQEND
  0
ENDBLK
  0
BLOCK
  8
LAYER_1
  2
AIGNBL01010095
 70
64
 10
0
 20
0
 30
0
  3
AIGNBL01010095
  0
POLYLINE
  8
LAYER_1
  6
AIGENLINE002
 40
0.1058
 41
0.1058
 66
1
 10
0
 20
0
 30
0
 70
128
  0
VERTEX
  8
LAYER_1
 10
163.0094
 20
200.4988
  0
VERTEX
  8
LAYER_1
 10
163.0094
 20
197.5396
  0
SEQEND
  0
ENDBLK
  0
BLOCK
  8
LAYER_1
  2
AIGNBL01010096
 70
64
 10
0
 20
0
 30
0
  3
AIGNBL01010096
  0
CIRCLE
  8
LAYER_1
 10
163.0094
 20
199.0699
 40
1.3299
  0
ENDBLK
  0
BLOCK
  8
LAYER_1
  2
AIGNBL01010097
 70
64
 10
0
 20
0
 30
0
  3
AIGNBL01010097
  0
POLYLINE
  8
LAYER_1
 40
0.1058
 41
0.1058
 66
1
 10
0
 20
0
 30
0
  0
VERTEX
  8
LAYER_1
 10
162.0786
 20
199.2599
  0
VERTEX
  8
LAYER_1
 10
162.0786
 20
198.8799
  0
SEQEND
  0
ENDBLK
  0
BLOCK
  8
LAYER_1
  2
AIGNBL01010098
 70
64
 10
0
 20
0
 30
0
  3
AIGNBL01010098
  0
POLYLINE
  8
LAYER_1
 40
0.1058
 41
0.1058
 66
1
 10
0
 20
0
 30
0
  0
VERTEX
  8
LAYER_1
 10
162.8194
 20
200.0007
  0
VERTEX
  8
LAYER_1
 10
163.1993
 20
200.0007
  0
SEQEND
  0
ENDBLK
  0
BLOCK
  8
LAYER_1
  2
AIGNBL01010099
 70
64
 10
0
 20
0
 30
0
  3
AIGNBL01010099
  0
POLYLINE
  8
LAYER_1
 40
0.1058
 41
0.1058
 66
1
 10
0
 20
0
 30
0
  0
VERTEX
  8
LAYER_1
 10
162.4394
 20
199.2599
  0
VERTEX
  8
LAYER_1
 10
162.0786
 20
199.2599
  0
SEQEND
  0
ENDBLK
  0
BLOCK
  8
LAYER_1
  2
AIGNBL0101009A
 70
64
 10
0
 20
0
 30
0
  3
AIGNBL0101009A
  0
POLYLINE
  8
LAYER_1
 40
0.1058
 41
0.1058
 66
1
 10
0
 20
0
 30
0
  0
VERTEX
  8
LAYER_1
 10
162.8194
 20
199.6399
  0
VERTEX
  8
LAYER_1
 10
162.8194
 20
200.0007
  0
SEQEND
  0
ENDBLK
  0
BLOCK
  8
LAYER_1
  2
AIGNBL0101009B
 70
64
 10
0
 20
0
 30
0
  3
AIGNBL0101009B
  0
POLYLINE
  8
LAYER_1
 40
0.1058
 41
0.1058
 66
1
 10
0
 20
0
 30
0
  0
VERTEX
  8
LAYER_1
 10
162.4394
 20
199.2599
 42
0.4141855186
  0
VERTEX
  8
LAYER_1
 10
162.8194
 20
199.6399
  0
SEQEND
  0
ENDBLK
  0
BLOCK
  8
LAYER_1
  2
AIGNBL0101009C
 70
64
 10
0
 20
0
 30
0
  3
AIGNBL0101009C
  0
POLYLINE
  8
LAYER_1
 40
0.1058
 41
0.1058
 66
1
 10
0
 20
0
 30
0
  0
VERTEX
  8
LAYER_1
 10
163.1993
 20
198.1392
  0
VERTEX
  8
LAYER_1
 10
162.8194
 20
198.1392
  0
SEQEND
  0
ENDBLK
  0
BLOCK
  8
LAYER_1
  2
AIGNBL0101009D
 70
64
 10
0
 20
0
 30
0
  3
AIGNBL0101009D
  0
POLYLINE
  8
LAYER_1
 40
0.1058
 41
0.1058
 66
1
 10
0
 20
0
 30
0
  0
VERTEX
  8
LAYER_1
 10
163.9401
 20
198.8799
  0
VERTEX
  8
LAYER_1
 10
163.9401
 20
199.2599
  0
SEQEND
  0
ENDBLK
  0
BLOCK
  8
LAYER_1
  2
AIGNBL0101009E
 70
64
 10
0
 20
0
 30
0
  3
AIGNBL0101009E
  0
POLYLINE
  8
LAYER_1
 40
0.1058
 41
0.1058
 66
1
 10
0
 20
0
 30
0
  0
VERTEX
  8
LAYER_1
 10
163.1993
 20
198.5
  0
VERTEX
  8
LAYER_1
 10
163.1993
 20
198.1392
  0
SEQEND
  0
ENDBLK
  0
BLOCK
  8
LAYER_1
  2
AIGNBL0101009F
 70
64
 10
0
 20
0
 30
0
  3
AIGNBL0101009F
  0
POLYLINE
  8
LAYER_1
 40
0.1058
 41
0.1058
 66
1
 10
0
 20
0
 30
0
  0
VERTEX
  8
LAYER_1
 10
163.5793
 20
198.8799
  0
VERTEX
  8
LAYER_1
 10
163.9401
 20
198.8799
  0
SEQEND
  0
ENDBLK
  0
BLOCK
  8
LAYER_1
  2
AIGNBL010100A0
 70
64
 10
0
 20
0
 30
0
  3
AIGNBL010100A0
  0
POLYLINE
  8
LAYER_1
 40
0.1058
 41
0.1058
 66
1
 10
0
 20
0
 30
0
  0
VERTEX
  8
LAYER_1
 10
163.5793
 20
198.8799
 42
0.4141626406
  0
VERTEX
  8
LAYER_1
 10
163.1993
 20
198.5
  0
SEQEND
  0
ENDBLK
  0
BLOCK
  8
LAYER_1
  2
AIGNBL010100A1
 70
64
 10
0
 20
0
 30
0
  3
AIGNBL010100A1
  0
POLYLINE
  8
LAYER_1
 40
0.1058
 41
0.1058
 66
1
 10
0
 20
0
 30
0
  0
VERTEX
  8
LAYER_1
 10
163.1993
 20
200.0007
  0
VERTEX
  8
LAYER_1
 10
163.1993
 20
199.6399
  0
SEQEND
  0
ENDBLK
  0
BLOCK
  8
LAYER_1
  2
AIGNBL010100A2
 70
64
 10
0
 20
0
 30
0
  3
AIGNBL010100A2
  0
POLYLINE
  8
LAYER_1
 40
0.1058
 41
0.1058
 66
1
 10
0
 20
0
 30
0
  0
VERTEX
  8
LAYER_1
 10
163.9401
 20
199.2599
  0
VERTEX
  8
LAYER_1
 10
163.5793
 20
199.2599
  0
SEQEND
  0
ENDBLK
  0
BLOCK
  8
LAYER_1
  2
AIGNBL010100A3
 70
64
 10
0
 20
0
 30
0
  3
AIGNBL010100A3
  0
POLYLINE
  8
LAYER_1
 40
0.1058
 41
0.1058
 66
1
 10
0
 20
0
 30
0
  0
VERTEX
  8
LAYER_1
 10
163.1993
 20
199.6399
 42
0.4141825232
  0
VERTEX
  8
LAYER_1
 10
163.5793
 20
199.2599
  0
SEQEND
  0
ENDBLK
  0
BLOCK
  8
LAYER_1
  2
AIGNBL010100A4
 70
64
 10
0
 20
0
 30
0
  3
AIGNBL010100A4
  0
POLYLINE
  8
LAYER_1
 40
0.1058
 41
0.1058
 66
1
 10
0
 20
0
 30
0
  0
VERTEX
  8
LAYER_1
 10
162.0786
 20
198.8799
  0
VERTEX
  8
LAYER_1
 10
162.4394
 20
198.8799
  0
SEQEND
  0
ENDBLK
  0
BLOCK
  8
LAYER_1
  2
AIGNBL010100A5
 70
64
 10
0
 20
0
 30
0
  3
AIGNBL010100A5
  0
POLYLINE
  8
LAYER_1
 40
0.1058
 41
0.1058
 66
1
 10
0
 20
0
 30
0
  0
VERTEX
  8
LAYER_1
 10
162.8194
 20
198.1392
  0
VERTEX
  8
LAYER_1
 10
162.8194
 20
198.5
  0
SEQEND
  0
ENDBLK
  0
BLOCK
  8
LAYER_1
  2
AIGNBL010100A6
 70
64
 10
0
 20
0
 30
0
  3
AIGNBL010100A6
  0
POLYLINE
  8
LAYER_1
 40
0.1058
 41
0.1058
 66
1
 10
0
 20
0
 30
0
  0
VERTEX
  8
LAYER_1
 10
162.8194
 20
198.5
 42
0.4141686852
  0
VERTEX
  8
LAYER_1
 10
162.4394
 20
198.8799
  0
SEQEND
  0
ENDBLK
  0
BLOCK
  8
LAYER_1
  2
AIGNBL010100A7
 70
64
 10
0
 20
0
 30
0
  3
AIGNBL010100A7
  0
POLYLINE
  8
LAYER_1
  6
AIGENLINE002
 40
0.1058
 41
0.1058
 66
1
 10
0
 20
0
 30
0
 70
128
  0
VERTEX
  8
LAYER_1
 10
156.3861
 20
208.1895
  0
VERTEX
  8
LAYER_1
 10
159.2066
 20
208.1895
  0
SEQEND
  0
ENDBLK
  0
BLOCK
  8
LAYER_1
  2
AIGNBL010100A8
 70
64
 10
0
 20
0
 30
0
  3
AIGNBL010100A8
  0
POLYLINE
  8
LAYER_1
  6
AIGENLINE002
 40
0.1058
 41
0.1058
 66
1
 10
0
 20
0
 30
0
 70
128
  0
VERTEX
  8
LAYER_1
 10
157.7441
 20
209.6184
  0
VERTEX
  8
LAYER_1
 10
157.7441
 20
206.6592
  0
SEQEND
  0
ENDBLK
  0
BLOCK
  8
LAYER_1
  2
AIGNBL010100A9
 70
64
 10
0
 20
0
 30
0
  3
AIGNBL010100A9
  0
CIRCLE
  8
LAYER_1
 10
157.7441
 20
208.1895
 40
1.3299
  0
ENDBLK
  0
BLOCK
  8
LAYER_1
  2
AIGNBL010100AA
 70
64
 10
0
 20
0
 30
0
  3
AIGNBL010100AA
  0
POLYLINE
  8
LAYER_1
 40
0.1058
 41
0.1058
 66
1
 10
0
 20
0
 30
0
  0
VERTEX
  8
LAYER_1
 10
156.8134
 20
208.3795
  0
VERTEX
  8
LAYER_1
 10
156.8134
 20
207.9996
  0
SEQEND
  0
ENDBLK
  0
BLOCK
  8
LAYER_1
  2
AIGNBL010100AB
 70
64
 10
0
 20
0
 30
0
  3
AIGNBL010100AB
  0
POLYLINE
  8
LAYER_1
 40
0.1058
 41
0.1058
 66
1
 10
0
 20
0
 30
0
  0
VERTEX
  8
LAYER_1
 10
157.5542
 20
209.1203
  0
VERTEX
  8
LAYER_1
 10
157.9341
 20
209.1203
  0
SEQEND
  0
ENDBLK
  0
BLOCK
  8
LAYER_1
  2
AIGNBL010100AC
 70
64
 10
0
 20
0
 30
0
  3
AIGNBL010100AC
  0
POLYLINE
  8
LAYER_1
 40
0.1058
 41
0.1058
 66
1
 10
0
 20
0
 30
0
  0
VERTEX
  8
LAYER_1
 10
157.1742
 20
208.3795
  0
VERTEX
  8
LAYER_1
 10
156.8134
 20
208.3795
  0
SEQEND
  0
ENDBLK
  0
BLOCK
  8
LAYER_1
  2
AIGNBL010100AD
 70
64
 10
0
 20
0
 30
0
  3
AIGNBL010100AD
  0
POLYLINE
  8
LAYER_1
 40
0.1058
 41
0.1058
 66
1
 10
0
 20
0
 30
0
  0
VERTEX
  8
LAYER_1
 10
157.5542
 20
208.7595
  0
VERTEX
  8
LAYER_1
 10
157.5542
 20
209.1203
  0
SEQEND
  0
ENDBLK
  0
BLOCK
  8
LAYER_1
  2
AIGNBL010100AE
 70
64
 10
0
 20
0
 30
0
  3
AIGNBL010100AE
  0
POLYLINE
  8
LAYER_1
 40
0.1058
 41
0.1058
 66
1
 10
0
 20
0
 30
0
  0
VERTEX
  8
LAYER_1
 10
157.1742
 20
208.3795
 42
0.4141792875
  0
VERTEX
  8
LAYER_1
 10
157.5542
 20
208.7595
  0
SEQEND
  0
ENDBLK
  0
BLOCK
  8
LAYER_1
  2
AIGNBL010100AF
 70
64
 10
0
 20
0
 30
0
  3
AIGNBL010100AF
  0
POLYLINE
  8
LAYER_1
 40
0.1058
 41
0.1058
 66
1
 10
0
 20
0
 30
0
  0
VERTEX
  8
LAYER_1
 10
157.9341
 20
207.2588
  0
VERTEX
  8
LAYER_1
 10
157.5542
 20
207.2588
  0
SEQEND
  0
ENDBLK
  0
BLOCK
  8
LAYER_1
  2
AIGNBL010100B0
 70
64
 10
0
 20
0
 30
0
  3
AIGNBL010100B0
  0
POLYLINE
  8
LAYER_1
 40
0.1058
 41
0.1058
 66
1
 10
0
 20
0
 30
0
  0
VERTEX
  8
LAYER_1
 10
158.6749
 20
207.9995
  0
VERTEX
  8
LAYER_1
 10
158.6749
 20
208.3795
  0
SEQEND
  0
ENDBLK
  0
BLOCK
  8
LAYER_1
  2
AIGNBL010100B1
 70
64
 10
0
 20
0
 30
0
  3
AIGNBL010100B1
  0
POLYLINE
  8
LAYER_1
 40
0.1058
 41
0.1058
 66
1
 10
0
 20
0
 30
0
  0
VERTEX
  8
LAYER_1
 10
157.9341
 20
207.6196
  0
VERTEX
  8
LAYER_1
 10
157.9341
 20
207.2588
  0
SEQEND
  0
ENDBLK
  0
BLOCK
  8
LAYER_1
  2
AIGNBL010100B2
 70
64
 10
0
 20
0
 30
0
  3
AIGNBL010100B2
  0
POLYLINE
  8
LAYER_1
 40
0.1058
 41
0.1058
 66
1
 10
0
 20
0
 30
0
  0
VERTEX
  8
LAYER_1
 10
158.3141
 20
207.9995
  0
VERTEX
  8
LAYER_1
 10
158.6749
 20
207.9995
  0
SEQEND
  0
ENDBLK
  0
BLOCK
  8
LAYER_1
  2
AIGNBL010100B3
 70
64
 10
0
 20
0
 30
0
  3
AIGNBL010100B3
  0
POLYLINE
  8
LAYER_1
 40
0.1058
 41
0.1058
 66
1
 10
0
 20
0
 30
0
  0
VERTEX
  8
LAYER_1
 10
158.3141
 20
207.9995
 42
0.4141688721
  0
VERTEX
  8
LAYER_1
 10
157.9341
 20
207.6196
  0
SEQEND
  0
ENDBLK
  0
BLOCK
  8
LAYER_1
  2
AIGNBL010100B4
 70
64
 10
0
 20
0
 30
0
  3
AIGNBL010100B4
  0
POLYLINE
  8
LAYER_1
 40
0.1058
 41
0.1058
 66
1
 10
0
 20
0
 30
0
  0
VERTEX
  8
LAYER_1
 10
157.9341
 20
209.1203
  0
VERTEX
  8
LAYER_1
 10
157.9341
 20
208.7595
  0
SEQEND
  0
ENDBLK
  0
BLOCK
  8
LAYER_1
  2
AIGNBL010100B5
 70
64
 10
0
 20
0
 30
0
  3
AIGNBL010100B5
  0
POLYLINE
  8
LAYER_1
 40
0.1058
 41
0.1058
 66
1
 10
0
 20
0
 30
0
  0
VERTEX
  8
LAYER_1
 10
158.6749
 20
208.3795
  0
VERTEX
  8
LAYER_1
 10
158.3141
 20
208.3795
  0
SEQEND
  0
ENDBLK
  0
BLOCK
  8
LAYER_1
  2
AIGNBL010100B6
 70
64
 10
0
 20
0
 30
0
  3
AIGNBL010100B6
  0
POLYLINE
  8
LAYER_1
 40
0.1058
 41
0.1058
 66
1
 10
0
 20
0
 30
0
  0
VERTEX
  8
LAYER_1
 10
157.9341
 20
208.7595
 42
0.4141834915
  0
VERTEX
  8
LAYER_1
 10
158.3141
 20
208.3795
  0
SEQEND
  0
ENDBLK
  0
BLOCK
  8
LAYER_1
  2
AIGNBL010100B7
 70
64
 10
0
 20
0
 30
0
  3
AIGNBL010100B7
  0
POLYLINE
  8
LAYER_1
 40
0.1058
 41
0.1058
 66
1
 10
0
 20
0
 30
0
  0
VERTEX
  8
LAYER_1
 10
156.8134
 20
207.9996
  0
VERTEX
  8
LAYER_1
 10
157.1742
 20
207.9996
  0
SEQEND
  0
ENDBLK
  0
BLOCK
  8
LAYER_1
  2
AIGNBL010100B8
 70
64
 10
0
 20
0
 30
0
  3
AIGNBL010100B8
  0
POLYLINE
  8
LAYER_1
 40
0.1058
 41
0.1058
 66
1
 10
0
 20
0
 30
0
  0
VERTEX
  8
LAYER_1
 10
157.5542
 20
207.2588
  0
VERTEX
  8
LAYER_1
 10
157.5542
 20
207.6196
  0
SEQEND
  0
ENDBLK
  0
BLOCK
  8
LAYER_1
  2
AIGNBL010100B9
 70
64
 10
0
 20
0
 30
0
  3
AIGNBL010100B9
  0
POLYLINE
  8
LAYER_1
 40
0.1058
 41
0.1058
 66
1
 10
0
 20
0
 30
0
  0
VERTEX
  8
LAYER_1
 10
157.5542
 20
207.6196
 42
0.4141677217
  0
VERTEX
  8
LAYER_1
 10
157.1742
 20
207.9996
  0
SEQEND
  0
ENDBLK
  0
BLOCK
  8
LAYER_1
  2
AIGNBL010100BA
 70
64
 10
0
 20
0
 30
0
  3
AIGNBL010100BA
  0
POLYLINE
  8
LAYER_1
 40
0.1058
 41
0.1058
 66
1
 10
0
 20
0
 30
0
  0
VERTEX
  8
LAYER_1
 10
153.8089
 20
189.0628
  0
VERTEX
  8
LAYER_1
 10
153.8089
 20
189.5377
  0
SEQEND
  0
ENDBLK
  0
BLOCK
  8
LAYER_1
  2
AIGNBL010100BB
 70
64
 10
0
 20
0
 30
0
  3
AIGNBL010100BB
  0
POLYLINE
  8
LAYER_1
 40
0.1058
 41
0.1058
 66
1
 10
0
 20
0
 30
0
  0
VERTEX
  8
LAYER_1
 10
153.8089
 20
189.5377
 42
0.4142402834
  0
VERTEX
  8
LAYER_1
 10
153.3339
 20
190.0127
  0
SEQEND
  0
ENDBLK
  0
BLOCK
  8
LAYER_1
  2
AIGNBL010100BC
 70
64
 10
0
 20
0
 30
0
  3
AIGNBL010100BC
  0
POLYLINE
  8
LAYER_1
 40
0.1058
 41
0.1058
 66
1
 10
0
 20
0
 30
0
  0
VERTEX
  8
LAYER_1
 10
153.3339
 20
190.0127
  0
VERTEX
  8
LAYER_1
 10
151.624
 20
190.0127
  0
SEQEND
  0
ENDBLK
  0
BLOCK
  8
LAYER_1
  2
AIGNBL010100BD
 70
64
 10
0
 20
0
 30
0
  3
AIGNBL010100BD
  0
POLYLINE
  8
LAYER_1
 40
0.1058
 41
0.1058
 66
1
 10
0
 20
0
 30
0
  0
VERTEX
  8
LAYER_1
 10
151.149
 20
189.5377
  0
VERTEX
  8
LAYER_1
 10
151.149
 20
189.0628
  0
SEQEND
  0
ENDBLK
  0
BLOCK
  8
LAYER_1
  2
AIGNBL010100BE
 70
64
 10
0
 20
0
 30
0
  3
AIGNBL010100BE
  0
POLYLINE
  8
LAYER_1
 40
0.1058
 41
0.1058
 66
1
 10
0
 20
0
 30
0
  0
VERTEX
  8
LAYER_1
 10
151.624
 20
190.0127
 42
0.4142486342
  0
VERTEX
  8
LAYER_1
 10
151.149
 20
189.5377
  0
SEQEND
  0
ENDBLK
  0
BLOCK
  8
LAYER_1
  2
AIGNBL010100BF
 70
64
 10
0
 20
0
 30
0
  3
AIGNBL010100BF
  0
POLYLINE
  8
LAYER_1
 40
0.1058
 41
0.1058
 66
1
 10
0
 20
0
 30
0
  0
VERTEX
  8
LAYER_1
 10
151.909
 20
186.5563
  0
VERTEX
  8
LAYER_1
 10
152.4789
 20
185.6429
  0
SEQEND
  0
ENDBLK
  0
BLOCK
  8
LAYER_1
  2
AIGNBL010100C0
 70
64
 10
0
 20
0
 30
0
  3
AIGNBL010100C0
  0
POLYLINE
  8
LAYER_1
 40
0.1058
 41
0.1058
 66
1
 10
0
 20
0
 30
0
  0
VERTEX
  8
LAYER_1
 10
152.4789
 20
185.6429
  0
VERTEX
  8
LAYER_1
 10
153.0489
 20
186.5563
  0
SEQEND
  0
ENDBLK
  0
BLOCK
  8
LAYER_1
  2
AIGNBL010100C1
 70
64
 10
0
 20
0
 30
0
  3
AIGNBL010100C1
  0
POLYLINE
  8
LAYER_1
 40
0.1058
 41
0.1058
 66
1
 10
0
 20
0
 30
0
  0
VERTEX
  8
LAYER_1
 10
153.0489
 20
186.5563
  0
VERTEX
  8
LAYER_1
 10
153.0489
 20
189.0628
  0
SEQEND
  0
ENDBLK
  0
BLOCK
  8
LAYER_1
  2
AIGNBL010100C2
 70
64
 10
0
 20
0
 30
0
  3
AIGNBL010100C2
  0
POLYLINE
  8
LAYER_1
 40
0.1058
 41
0.1058
 66
1
 10
0
 20
0
 30
0
  0
VERTEX
  8
LAYER_1
 10
151.909
 20
189.0628
  0
VERTEX
  8
LAYER_1
 10
151.909
 20
186.5563
  0
SEQEND
  0
ENDBLK
  0
BLOCK
  8
LAYER_1
  2
AIGNBL010100C3
 70
64
 10
0
 20
0
 30
0
  3
AIGNBL010100C3
  0
POLYLINE
  8
LAYER_1
 40
0.1058
 41
0.1058
 66
1
 10
0
 20
0
 30
0
  0
VERTEX
  8
LAYER_1
 10
151.719
 20
186.5088
  0
VERTEX
  8
LAYER_1
 10
153.2389
 20
186.6038
  0
SEQEND
  0
ENDBLK
  0
BLOCK
  8
LAYER_1
  2
AIGNBL010100C4
 70
64
 10
0
 20
0
 30
0
  3
AIGNBL010100C4
  0
POLYLINE
  8
LAYER_1
 40
0.1058
 41
0.1058
 66
1
 10
0
 20
0
 30
0
  0
VERTEX
  8
LAYER_1
 10
151.719
 20
186.8887
  0
VERTEX
  8
LAYER_1
 10
153.2389
 20
186.9837
  0
SEQEND
  0
ENDBLK
  0
BLOCK
  8
LAYER_1
  2
AIGNBL010100C5
 70
64
 10
0
 20
0
 30
0
  3
AIGNBL010100C5
  0
POLYLINE
  8
LAYER_1
 40
0.1058
 41
0.1058
 66
1
 10
0
 20
0
 30
0
  0
VERTEX
  8
LAYER_1
 10
151.719
 20
187.2687
  0
VERTEX
  8
LAYER_1
 10
153.2389
 20
187.3637
  0
SEQEND
  0
ENDBLK
  0
BLOCK
  8
LAYER_1
  2
AIGNBL010100C6
 70
64
 10
0
 20
0
 30
0
  3
AIGNBL010100C6
  0
POLYLINE
  8
LAYER_1
 40
0.1058
 41
0.1058
 66
1
 10
0
 20
0
 30
0
  0
VERTEX
  8
LAYER_1
 10
151.719
 20
187.6487
  0
VERTEX
  8
LAYER_1
 10
153.2389
 20
187.7437
  0
SEQEND
  0
ENDBLK
  0
BLOCK
  8
LAYER_1
  2
AIGNBL010100C7
 70
64
 10
0
 20
0
 30
0
  3
AIGNBL010100C7
  0
POLYLINE
  8
LAYER_1
 40
0.1058
 41
0.1058
 66
1
 10
0
 20
0
 30
0
  0
VERTEX
  8
LAYER_1
 10
151.719
 20
188.0287
  0
VERTEX
  8
LAYER_1
 10
153.2389
 20
188.1237
  0
SEQEND
  0
ENDBLK
  0
BLOCK
  8
LAYER_1
  2
AIGNBL010100C8
 70
64
 10
0
 20
0
 30
0
  3
AIGNBL010100C8
  0
POLYLINE
  8
LAYER_1
 40
0.1058
 41
0.1058
 66
1
 10
0
 20
0
 30
0
  0
VERTEX
  8
LAYER_1
 10
151.719
 20
188.4087
  0
VERTEX
  8
LAYER_1
 10
153.2389
 20
188.5037
  0
SEQEND
  0
ENDBLK
  0
BLOCK
  8
LAYER_1
  2
AIGNBL010100C9
 70
64
 10
0
 20
0
 30
0
  3
AIGNBL010100C9
  0
POLYLINE
  8
LAYER_1
 40
0.1058
 41
0.1058
 66
1
 10
0
 20
0
 30
0
  0
VERTEX
  8
LAYER_1
 10
151.909
 20
186.1407
  0
VERTEX
  8
LAYER_1
 10
152.9547
 20
186.206
  0
SEQEND
  0
ENDBLK
  0
BLOCK
  8
LAYER_1
  2
AIGNBL010100CA
 70
64
 10
0
 20
0
 30
0
  3
AIGNBL010100CA
  0
POLYLINE
  8
LAYER_1
 40
0.1058
 41
0.1058
 66
1
 10
0
 20
0
 30
0
  0
VERTEX
  8
LAYER_1
 10
164.3393
 20
189.0628
  0
VERTEX
  8
LAYER_1
 10
164.3393
 20
189.5377
  0
SEQEND
  0
ENDBLK
  0
BLOCK
  8
LAYER_1
  2
AIGNBL010100CB
 70
64
 10
0
 20
0
 30
0
  3
AIGNBL010100CB
  0
POLYLINE
  8
LAYER_1
 40
0.1058
 41
0.1058
 66
1
 10
0
 20
0
 30
0
  0
VERTEX
  8
LAYER_1
 10
164.3393
 20
189.5377
 42
0.4142462428
  0
VERTEX
  8
LAYER_1
 10
163.8643
 20
190.0127
  0
SEQEND
  0
ENDBLK
  0
BLOCK
  8
LAYER_1
  2
AIGNBL010100CC
 70
64
 10
0
 20
0
 30
0
  3
AIGNBL010100CC
  0
POLYLINE
  8
LAYER_1
 40
0.1058
 41
0.1058
 66
1
 10
0
 20
0
 30
0
  0
VERTEX
  8
LAYER_1
 10
163.8643
 20
190.0127
  0
VERTEX
  8
LAYER_1
 10
162.1544
 20
190.0127
  0
SEQEND
  0
ENDBLK
  0
BLOCK
  8
LAYER_1
  2
AIGNBL010100CD
 70
64
 10
0
 20
0
 30
0
  3
AIGNBL010100CD
  0
POLYLINE
  8
LAYER_1
 40
0.1058
 41
0.1058
 66
1
 10
0
 20
0
 30
0
  0
VERTEX
  8
LAYER_1
 10
161.6794
 20
189.5377
  0
VERTEX
  8
LAYER_1
 10
161.6794
 20
189.0628
  0
SEQEND
  0
ENDBLK
  0
BLOCK
  8
LAYER_1
  2
AIGNBL010100CE
 70
64
 10
0
 20
0
 30
0
  3
AIGNBL010100CE
  0
POLYLINE
  8
LAYER_1
 40
0.1058
 41
0.1058
 66
1
 10
0
 20
0
 30
0
  0
VERTEX
  8
LAYER_1
 10
162.1544
 20
190.0127
 42
0.4142426748
  0
VERTEX
  8
LAYER_1
 10
161.6794
 20
189.5377
  0
SEQEND
  0
ENDBLK
  0
BLOCK
  8
LAYER_1
  2
AIGNBL010100CF
 70
64
 10
0
 20
0
 30
0
  3
AIGNBL010100CF
  0
POLYLINE
  8
LAYER_1
 40
0.1058
 41
0.1058
 66
1
 10
0
 20
0
 30
0
  0
VERTEX
  8
LAYER_1
 10
162.4394
 20
186.5563
  0
VERTEX
  8
LAYER_1
 10
163.0094
 20
185.6429
  0
SEQEND
  0
ENDBLK
  0
BLOCK
  8
LAYER_1
  2
AIGNBL010100D0
 70
64
 10
0
 20
0
 30
0
  3
AIGNBL010100D0
  0
POLYLINE
  8
LAYER_1
 40
0.1058
 41
0.1058
 66
1
 10
0
 20
0
 30
0
  0
VERTEX
  8
LAYER_1
 10
163.0094
 20
185.6429
  0
VERTEX
  8
LAYER_1
 10
163.5793
 20
186.5563
  0
SEQEND
  0
ENDBLK
  0
BLOCK
  8
LAYER_1
  2
AIGNBL010100D1
 70
64
 10
0
 20
0
 30
0
  3
AIGNBL010100D1
  0
POLYLINE
  8
LAYER_1
 40
0.1058
 41
0.1058
 66
1
 10
0
 20
0
 30
0
  0
VERTEX
  8
LAYER_1
 10
163.5793
 20
186.5563
  0
VERTEX
  8
LAYER_1
 10
163.5793
 20
189.0628
  0
SEQEND
  0
ENDBLK
  0
BLOCK
  8
LAYER_1
  2
AIGNBL010100D2
 70
64
 10
0
 20
0
 30
0
  3
AIGNBL010100D2
  0
POLYLINE
  8
LAYER_1
 40
0.1058
 41
0.1058
 66
1
 10
0
 20
0
 30
0
  0
VERTEX
  8
LAYER_1
 10
162.4394
 20
189.0628
  0
VERTEX
  8
LAYER_1
 10
162.4394
 20
186.5563
  0
SEQEND
  0
ENDBLK
  0
BLOCK
  8
LAYER_1
  2
AIGNBL010100D3
 70
64
 10
0
 20
0
 30
0
  3
AIGNBL010100D3
  0
POLYLINE
  8
LAYER_1
 40
0.1058
 41
0.1058
 66
1
 10
0
 20
0
 30
0
  0
VERTEX
  8
LAYER_1
 10
162.2494
 20
186.5088
  0
VERTEX
  8
LAYER_1
 10
163.7693
 20
186.6038
  0
SEQEND
  0
ENDBLK
  0
BLOCK
  8
LAYER_1
  2
AIGNBL010100D4
 70
64
 10
0
 20
0
 30
0
  3
AIGNBL010100D4
  0
POLYLINE
  8
LAYER_1
 40
0.1058
 41
0.1058
 66
1
 10
0
 20
0
 30
0
  0
VERTEX
  8
LAYER_1
 10
162.2494
 20
186.8887
  0
VERTEX
  8
LAYER_1
 10
163.7693
 20
186.9837
  0
SEQEND
  0
ENDBLK
  0
BLOCK
  8
LAYER_1
  2
AIGNBL010100D5
 70
64
 10
0
 20
0
 30
0
  3
AIGNBL010100D5
  0
POLYLINE
  8
LAYER_1
 40
0.1058
 41
0.1058
 66
1
 10
0
 20
0
 30
0
  0
VERTEX
  8
LAYER_1
 10
162.2494
 20
187.2687
  0
VERTEX
  8
LAYER_1
 10
163.7693
 20
187.3637
  0
SEQEND
  0
ENDBLK
  0
BLOCK
  8
LAYER_1
  2
AIGNBL010100D6
 70
64
 10
0
 20
0
 30
0
  3
AIGNBL010100D6
  0
POLYLINE
  8
LAYER_1
 40
0.1058
 41
0.1058
 66
1
 10
0
 20
0
 30
0
  0
VERTEX
  8
LAYER_1
 10
162.2494
 20
187.6487
  0
VERTEX
  8
LAYER_1
 10
163.7693
 20
187.7437
  0
SEQEND
  0
ENDBLK
  0
BLOCK
  8
LAYER_1
  2
AIGNBL010100D7
 70
64
 10
0
 20
0
 30
0
  3
AIGNBL010100D7
  0
POLYLINE
  8
LAYER_1
 40
0.1058
 41
0.1058
 66
1
 10
0
 20
0
 30
0
  0
VERTEX
  8
LAYER_1
 10
162.2494
 20
188.0287
  0
VERTEX
  8
LAYER_1
 10
163.7693
 20
188.1237
  0
SEQEND
  0
ENDBLK
  0
BLOCK
  8
LAYER_1
  2
AIGNBL010100D8
 70
64
 10
0
 20
0
 30
0
  3
AIGNBL010100D8
  0
POLYLINE
  8
LAYER_1
 40
0.1058
 41
0.1058
 66
1
 10
0
 20
0
 30
0
  0
VERTEX
  8
LAYER_1
 10
162.2494
 20
188.4087
  0
VERTEX
  8
LAYER_1
 10
163.7693
 20
188.5037
  0
SEQEND
  0
ENDBLK
  0
BLOCK
  8
LAYER_1
  2
AIGNBL010100D9
 70
64
 10
0
 20
0
 30
0
  3
AIGNBL010100D9
  0
POLYLINE
  8
LAYER_1
 40
0.1058
 41
0.1058
 66
1
 10
0
 20
0
 30
0
  0
VERTEX
  8
LAYER_1
 10
162.4394
 20
186.1407
  0
VERTEX
  8
LAYER_1
 10
163.4851
 20
186.206
  0
SEQEND
  0
ENDBLK
  0
BLOCK
  8
LAYER_1
  2
AIGNBL010100DA
 70
64
 10
0
 20
0
 30
0
  3
AIGNBL010100DA
  0
CIRCLE
  8
LAYER_1
  6
AIGENLINE002
 10
157.7441
 20
202.1098
 40
6.0797
  0
ENDBLK
  0
BLOCK
  8
LAYER_1
  2
AIGNBL010100DB
 70
64
 10
0
 20
0
 30
0
  3
AIGNBL010100DB
  0
POLYLINE
  8
LAYER_1
  6
AIGENLINE002
 40
0.1058
 41
0.1058
 66
1
 10
0
 20
0
 30
0
 70
128
  0
VERTEX
  8
LAYER_1
 10
147.6209
 20
202.1098
  0
VERTEX
  8
LAYER_1
 10
168.976
 20
202.1098
  0
SEQEND
  0
ENDBLK
  0
BLOCK
  8
LAYER_1
  2
AIGNBL010100DC
 70
64
 10
0
 20
0
 30
0
  3
AIGNBL010100DC
  0
POLYLINE
  8
LAYER_1
  6
AIGENLINE002
 40
0.1058
 41
0.1058
 66
1
 10
0
 20
0
 30
0
 70
128
  0
VERTEX
  8
LAYER_1
 10
157.7441
 20
211.7784
  0
VERTEX
  8
LAYER_1
 10
157.7441
 20
192.6114
  0
SEQEND
  0
ENDBLK
  0
BLOCK
  8
LAYER_1
  2
AIGNBL010100DD
 70
64
 10
0
 20
0
 30
0
  3
AIGNBL010100DD
  0
POLYLINE
  8
LAYER_1
 40
0.2469
 41
0.2469
 66
1
 10
0
 20
0
 30
0
  0
VERTEX
  8
LAYER_1
 10
158.6698
 20
209.1445
  0
VERTEX
  8
LAYER_1
 10
159.2404
 20
209.6622
  0
SEQEND
  0
ENDBLK
  0
BLOCK
  8
LAYER_1
  2
AIGNBL010100DE
 70
64
 10
0
 20
0
 30
0
  3
AIGNBL010100DE
  0
POLYLINE
  8
LAYER_1
 40
0.2469
 41
0.2469
 66
1
 10
0
 20
0
 30
0
  0
VERTEX
  8
LAYER_1
 10
158.6698
 20
209.1445
  0
VERTEX
  8
LAYER_1
 10
159.0416
 20
209.8193
  0
SEQEND
  0
ENDBLK
  0
BLOCK
  8
LAYER_1
  2
AIGNBL010100DF
 70
64
 10
0
 20
0
 30
0
  3
AIGNBL010100DF
  0
POLYLINE
  8
LAYER_1
 40
0.2469
 41
0.2469
 66
1
 10
0
 20
0
 30
0
  0
VERTEX
  8
LAYER_1
 10
158.6698
 20
209.1445
  0
VERTEX
  8
LAYER_1
 10
159.141
 20
209.7407
  0
SEQEND
  0
ENDBLK
  0
BLOCK
  8
LAYER_1
  2
AIGNBL010100E0
 70
64
 10
0
 20
0
 30
0
  3
AIGNBL010100E0
  0
POLYLINE
  8
LAYER_1
 40
0.1058
 41
0.1058
 66
1
 10
0
 20
0
 30
0
  0
VERTEX
  8
LAYER_1
 10
158.6698
 20
209.1445
  0
VERTEX
  8
LAYER_1
 10
160.7286
 20
211.7492
  0
VERTEX
  8
LAYER_1
 10
175.8822
 20
211.7492
  0
SEQEND
  0
ENDBLK
  0
BLOCK
  8
LAYER_1
  2
AIGNBL010100E1
 70
64
 10
0
 20
0
 30
0
  3
AIGNBL010100E1
  0
TEXT
  8
LAYER_1
 10
167.1394
 20
212.7546
 11
167.1394
 21
212.7546
 40
4.028
 41
0.5
  1
3"%%c4.2
  0
ENDBLK
  0
BLOCK
  8
LAYER_1
  2
AIGNBL010100E2
 70
64
 10
0
 20
0
 30
0
  3
AIGNBL010100E2
  0
POLYLINE
  8
LAYER_1
  6
AIGENLINE002
 40
0.1058
 41
0.1058
 66
1
 10
0
 20
0
 30
0
 70
128
  0
VERTEX
  8
LAYER_1
 10
157.7441
 20
150.2346
  0
VERTEX
  8
LAYER_1
 10
157.7441
 20
143.4649
  0
SEQEND
  0
ENDBLK
  0
BLOCK
  8
LAYER_1
  2
AIGNBL010100E3
 70
64
 10
0
 20
0
 30
0
  3
AIGNBL010100E3
  0
POLYLINE
  8
LAYER_1
  6
AIGENLINE002
 40
0.1058
 41
0.1058
 66
1
 10
0
 20
0
 30
0
 70
128
  0
VERTEX
  8
LAYER_1
 10
174.7884
 20
150.3533
  0
VERTEX
  8
LAYER_1
 10
174.7884
 20
139.6644
  0
SEQEND
  0
ENDBLK
  0
BLOCK
  8
LAYER_1
  2
AIGNBL010100E4
 70
64
 10
0
 20
0
 30
0
  3
AIGNBL010100E4
  0
POLYLINE
  8
LAYER_1
 40
0.1058
 41
0.1058
 66
1
 10
0
 20
0
 30
0
  0
VERTEX
  8
LAYER_1
 10
162.5245
 20
135.0972
  0
VERTEX
  8
LAYER_1
 10
159.8055
 20
135.0972
  0
SEQEND
  0
ENDBLK
  0
BLOCK
  8
LAYER_1
  2
AIGNBL010100E5
 70
64
 10
0
 20
0
 30
0
  3
AIGNBL010100E5
  0
POLYLINE
  8
LAYER_1
 40
0.1058
 41
0.1058
 66
1
 10
0
 20
0
 30
0
  0
VERTEX
  8
LAYER_1
 10
162.9408
 20
136.2371
  0
VERTEX
  8
LAYER_1
 10
158.9895
 20
136.2371
  0
SEQEND
  0
ENDBLK
  0
BLOCK
  8
LAYER_1
  2
AIGNBL010100E6
 70
64
 10
0
 20
0
 30
0
  3
AIGNBL010100E6
  0
POLYLINE
  8
LAYER_1
 40
0.1058
 41
0.1058
 66
1
 10
0
 20
0
 30
0
  0
VERTEX
  8
LAYER_1
 10
162.9408
 20
135.0972
  0
VERTEX
  8
LAYER_1
 10
158.9458
 20
135.0972
  0
SEQEND
  0
ENDBLK
  0
BLOCK
  8
LAYER_1
  2
AIGNBL010100E7
 70
64
 10
0
 20
0
 30
0
  3
AIGNBL010100E7
  0
POLYLINE
  8
LAYER_1
 40
0.1058
 41
0.1058
 66
1
 10
0
 20
0
 30
0
  0
VERTEX
  8
LAYER_1
 10
152.9638
 20
135.0972
  0
VERTEX
  8
LAYER_1
 10
155.6828
 20
135.0972
  0
SEQEND
  0
ENDBLK
  0
BLOCK
  8
LAYER_1
  2
AIGNBL010100E8
 70
64
 10
0
 20
0
 30
0
  3
AIGNBL010100E8
  0
POLYLINE
  8
LAYER_1
 40
0.1058
 41
0.1058
 66
1
 10
0
 20
0
 30
0
  0
VERTEX
  8
LAYER_1
 10
152.5475
 20
136.2371
  0
VERTEX
  8
LAYER_1
 10
156.4988
 20
136.2371
  0
SEQEND
  0
ENDBLK
  0
BLOCK
  8
LAYER_1
  2
AIGNBL010100E9
 70
64
 10
0
 20
0
 30
0
  3
AIGNBL010100E9
  0
POLYLINE
  8
LAYER_1
 40
0.1058
 41
0.1058
 66
1
 10
0
 20
0
 30
0
  0
VERTEX
  8
LAYER_1
 10
152.5475
 20
135.0972
  0
VERTEX
  8
LAYER_1
 10
156.5425
 20
135.0972
  0
SEQEND
  0
ENDBLK
  0
BLOCK
  8
LAYER_1
  2
AIGNBL010100EA
 70
64
 10
0
 20
0
 30
0
  3
AIGNBL010100EA
  0
POLYLINE
  8
LAYER_1
  6
AIGENLINE002
 40
0.1058
 41
0.1058
 66
1
 10
0
 20
0
 30
0
 70
128
  0
VERTEX
  8
LAYER_1
 10
153.9928
 20
135.6671
  0
VERTEX
  8
LAYER_1
 10
161.8313
 20
135.6671
  0
SEQEND
  0
ENDBLK
  0
BLOCK
  8
LAYER_1
  2
AIGNBL010100EB
 70
64
 10
0
 20
0
 30
0
  3
AIGNBL010100EB
  0
POLYLINE
  8
LAYER_1
  6
AIGENLINE002
 40
0.1058
 41
0.1058
 66
1
 10
0
 20
0
 30
0
 70
128
  0
VERTEX
  8
LAYER_1
 10
170.1665
 20
135.6671
  0
VERTEX
  8
LAYER_1
 10
180.8554
 20
135.6671
  0
SEQEND
  0
ENDBLK
  0
BLOCK
  8
LAYER_1
  2
AIGNBL010100EC
 70
64
 10
0
 20
0
 30
0
  3
AIGNBL010100EC
  0
POLYLINE
  8
LAYER_1
 40
0.1058
 41
0.1058
 66
1
 10
0
 20
0
 30
0
  0
VERTEX
  8
LAYER_1
 10
156.2242
 20
172.725
  0
VERTEX
  8
LAYER_1
 10
159.2641
 20
172.915
  0
SEQEND
  0
ENDBLK
  0
BLOCK
  8
LAYER_1
  2
AIGNBL010100ED
 70
64
 10
0
 20
0
 30
0
  3
AIGNBL010100ED
  0
POLYLINE
  8
LAYER_1
 40
0.1058
 41
0.1058
 66
1
 10
0
 20
0
 30
0
  0
VERTEX
  8
LAYER_1
 10
156.2242
 20
173.105
  0
VERTEX
  8
LAYER_1
 10
159.2641
 20
173.295
  0
SEQEND
  0
ENDBLK
  0
BLOCK
  8
LAYER_1
  2
AIGNBL010100EE
 70
64
 10
0
 20
0
 30
0
  3
AIGNBL010100EE
  0
POLYLINE
  8
LAYER_1
 40
0.1058
 41
0.1058
 66
1
 10
0
 20
0
 30
0
  0
VERTEX
  8
LAYER_1
 10
156.2242
 20
173.485
  0
VERTEX
  8
LAYER_1
 10
159.2641
 20
173.675
  0
SEQEND
  0
ENDBLK
  0
BLOCK
  8
LAYER_1
  2
AIGNBL010100EF
 70
64
 10
0
 20
0
 30
0
  3
AIGNBL010100EF
  0
POLYLINE
  8
LAYER_1
 40
0.1058
 41
0.1058
 66
1
 10
0
 20
0
 30
0
  0
VERTEX
  8
LAYER_1
 10
156.2242
 20
173.865
  0
VERTEX
  8
LAYER_1
 10
159.2641
 20
174.055
  0
SEQEND
  0
ENDBLK
  0
BLOCK
  8
LAYER_1
  2
AIGNBL010100F0
 70
64
 10
0
 20
0
 30
0
  3
AIGNBL010100F0
  0
POLYLINE
  8
LAYER_1
 40
0.1058
 41
0.1058
 66
1
 10
0
 20
0
 30
0
  0
VERTEX
  8
LAYER_1
 10
156.2242
 20
174.245
  0
VERTEX
  8
LAYER_1
 10
159.2641
 20
174.4349
  0
SEQEND
  0
ENDBLK
  0
BLOCK
  8
LAYER_1
  2
AIGNBL010100F1
 70
64
 10
0
 20
0
 30
0
  3
AIGNBL010100F1
  0
POLYLINE
  8
LAYER_1
 40
0.1058
 41
0.1058
 66
1
 10
0
 20
0
 30
0
  0
VERTEX
  8
LAYER_1
 10
156.2242
 20
174.6249
  0
VERTEX
  8
LAYER_1
 10
159.2641
 20
174.8149
  0
SEQEND
  0
ENDBLK
  0
BLOCK
  8
LAYER_1
  2
AIGNBL010100F2
 70
64
 10
0
 20
0
 30
0
  3
AIGNBL010100F2
  0
POLYLINE
  8
LAYER_1
 40
0.1058
 41
0.1058
 66
1
 10
0
 20
0
 30
0
  0
VERTEX
  8
LAYER_1
 10
156.2242
 20
175.0049
  0
VERTEX
  8
LAYER_1
 10
159.2641
 20
175.1949
  0
SEQEND
  0
ENDBLK
  0
BLOCK
  8
LAYER_1
  2
AIGNBL010100F3
 70
64
 10
0
 20
0
 30
0
  3
AIGNBL010100F3
  0
POLYLINE
  8
LAYER_1
 40
0.1058
 41
0.1058
 66
1
 10
0
 20
0
 30
0
  0
VERTEX
  8
LAYER_1
 10
156.2242
 20
175.3849
  0
VERTEX
  8
LAYER_1
 10
159.2641
 20
175.5749
  0
SEQEND
  0
ENDBLK
  0
BLOCK
  8
LAYER_1
  2
AIGNBL010100F4
 70
64
 10
0
 20
0
 30
0
  3
AIGNBL010100F4
  0
POLYLINE
  8
LAYER_1
 40
0.1058
 41
0.1058
 66
1
 10
0
 20
0
 30
0
  0
VERTEX
  8
LAYER_1
 10
156.2242
 20
172.345
  0
VERTEX
  8
LAYER_1
 10
159.2641
 20
172.535
  0
SEQEND
  0
ENDBLK
  0
BLOCK
  8
LAYER_1
  2
AIGNBL010100F5
 70
64
 10
0
 20
0
 30
0
  3
AIGNBL010100F5
  0
POLYLINE
  8
LAYER_1
 40
0.1058
 41
0.1058
 66
1
 10
0
 20
0
 30
0
  0
VERTEX
  8
LAYER_1
 10
156.2242
 20
158.2856
  0
VERTEX
  8
LAYER_1
 10
159.2641
 20
158.4756
  0
SEQEND
  0
ENDBLK
  0
BLOCK
  8
LAYER_1
  2
AIGNBL010100F6
 70
64
 10
0
 20
0
 30
0
  3
AIGNBL010100F6
  0
POLYLINE
  8
LAYER_1
 40
0.1058
 41
0.1058
 66
1
 10
0
 20
0
 30
0
  0
VERTEX
  8
LAYER_1
 10
156.2242
 20
158.6656
  0
VERTEX
  8
LAYER_1
 10
159.2641
 20
158.8556
  0
SEQEND
  0
ENDBLK
  0
BLOCK
  8
LAYER_1
  2
AIGNBL010100F7
 70
64
 10
0
 20
0
 30
0
  3
AIGNBL010100F7
  0
POLYLINE
  8
LAYER_1
 40
0.1058
 41
0.1058
 66
1
 10
0
 20
0
 30
0
  0
VERTEX
  8
LAYER_1
 10
156.2242
 20
159.0456
  0
VERTEX
  8
LAYER_1
 10
159.2641
 20
159.2356
  0
SEQEND
  0
ENDBLK
  0
BLOCK
  8
LAYER_1
  2
AIGNBL010100F8
 70
64
 10
0
 20
0
 30
0
  3
AIGNBL010100F8
  0
POLYLINE
  8
LAYER_1
 40
0.1058
 41
0.1058
 66
1
 10
0
 20
0
 30
0
  0
VERTEX
  8
LAYER_1
 10
156.2242
 20
159.4256
  0
VERTEX
  8
LAYER_1
 10
159.2641
 20
159.6156
  0
SEQEND
  0
ENDBLK
  0
BLOCK
  8
LAYER_1
  2
AIGNBL010100F9
 70
64
 10
0
 20
0
 30
0
  3
AIGNBL010100F9
  0
POLYLINE
  8
LAYER_1
 40
0.1058
 41
0.1058
 66
1
 10
0
 20
0
 30
0
  0
VERTEX
  8
LAYER_1
 10
156.2242
 20
159.8056
  0
VERTEX
  8
LAYER_1
 10
159.2641
 20
159.9956
  0
SEQEND
  0
ENDBLK
  0
BLOCK
  8
LAYER_1
  2
AIGNBL010100FA
 70
64
 10
0
 20
0
 30
0
  3
AIGNBL010100FA
  0
POLYLINE
  8
LAYER_1
 40
0.1058
 41
0.1058
 66
1
 10
0
 20
0
 30
0
  0
VERTEX
  8
LAYER_1
 10
156.2242
 20
156.3857
  0
VERTEX
  8
LAYER_1
 10
159.2641
 20
156.5757
  0
SEQEND
  0
ENDBLK
  0
BLOCK
  8
LAYER_1
  2
AIGNBL010100FB
 70
64
 10
0
 20
0
 30
0
  3
AIGNBL010100FB
  0
POLYLINE
  8
LAYER_1
 40
0.1058
 41
0.1058
 66
1
 10
0
 20
0
 30
0
  0
VERTEX
  8
LAYER_1
 10
156.2242
 20
156.7657
  0
VERTEX
  8
LAYER_1
 10
159.2641
 20
156.9557
  0
SEQEND
  0
ENDBLK
  0
BLOCK
  8
LAYER_1
  2
AIGNBL010100FC
 70
64
 10
0
 20
0
 30
0
  3
AIGNBL010100FC
  0
POLYLINE
  8
LAYER_1
 40
0.1058
 41
0.1058
 66
1
 10
0
 20
0
 30
0
  0
VERTEX
  8
LAYER_1
 10
156.2242
 20
157.1457
  0
VERTEX
  8
LAYER_1
 10
159.2641
 20
157.3357
  0
SEQEND
  0
ENDBLK
  0
BLOCK
  8
LAYER_1
  2
AIGNBL010100FD
 70
64
 10
0
 20
0
 30
0
  3
AIGNBL010100FD
  0
POLYLINE
  8
LAYER_1
 40
0.1058
 41
0.1058
 66
1
 10
0
 20
0
 30
0
  0
VERTEX
  8
LAYER_1
 10
156.2242
 20
157.5257
  0
VERTEX
  8
LAYER_1
 10
159.2641
 20
157.7157
  0
SEQEND
  0
ENDBLK
  0
BLOCK
  8
LAYER_1
  2
AIGNBL010100FE
 70
64
 10
0
 20
0
 30
0
  3
AIGNBL010100FE
  0
POLYLINE
  8
LAYER_1
 40
0.1058
 41
0.1058
 66
1
 10
0
 20
0
 30
0
  0
VERTEX
  8
LAYER_1
 10
156.2242
 20
157.9057
  0
VERTEX
  8
LAYER_1
 10
159.2641
 20
158.0957
  0
SEQEND
  0
ENDBLK
  0
BLOCK
  8
LAYER_1
  2
AIGNBL010100FF
 70
64
 10
0
 20
0
 30
0
  3
AIGNBL010100FF
  0
POLYLINE
  8
LAYER_1
 40
0.1058
 41
0.1058
 66
1
 10
0
 20
0
 30
0
  0
VERTEX
  8
LAYER_1
 10
156.2242
 20
155.2458
  0
VERTEX
  8
LAYER_1
 10
159.2641
 20
155.4358
  0
SEQEND
  0
ENDBLK
  0
BLOCK
  8
LAYER_1
  2
AIGNBL01010100
 70
64
 10
0
 20
0
 30
0
  3
AIGNBL01010100
  0
POLYLINE
  8
LAYER_1
 40
0.1058
 41
0.1058
 66
1
 10
0
 20
0
 30
0
  0
VERTEX
  8
LAYER_1
 10
156.2242
 20
155.6258
  0
VERTEX
  8
LAYER_1
 10
159.2641
 20
155.8158
  0
SEQEND
  0
ENDBLK
  0
BLOCK
  8
LAYER_1
  2
AIGNBL01010101
 70
64
 10
0
 20
0
 30
0
  3
AIGNBL01010101
  0
POLYLINE
  8
LAYER_1
 40
0.1058
 41
0.1058
 66
1
 10
0
 20
0
 30
0
  0
VERTEX
  8
LAYER_1
 10
156.2242
 20
156.0057
  0
VERTEX
  8
LAYER_1
 10
159.2641
 20
156.1957
  0
SEQEND
  0
ENDBLK
  0
BLOCK
  8
LAYER_1
  2
AIGNBL01010102
 70
64
 10
0
 20
0
 30
0
  3
AIGNBL01010102
  0
POLYLINE
  8
LAYER_1
  6
AIGENLINE002
 40
0.1058
 41
0.1058
 66
1
 10
0
 20
0
 30
0
 70
128
  0
VERTEX
  8
LAYER_1
 10
157.7441
 20
183.7262
  0
VERTEX
  8
LAYER_1
 10
157.7441
 20
153.0847
  0
SEQEND
  0
ENDBLK
  0
BLOCK
  8
LAYER_1
  2
AIGNBL01010103
 70
64
 10
0
 20
0
 30
0
  3
AIGNBL01010103
  0
POLYLINE
  8
LAYER_1
 40
0.1058
 41
0.1058
 66
1
 10
0
 20
0
 30
0
  0
VERTEX
  8
LAYER_1
 10
156.2242
 20
159.4256
  0
VERTEX
  8
LAYER_1
 10
159.2641
 20
159.6156
  0
SEQEND
  0
ENDBLK
  0
BLOCK
  8
LAYER_1
  2
AIGNBL01010104
 70
64
 10
0
 20
0
 30
0
  3
AIGNBL01010104
  0
POLYLINE
  8
LAYER_1
 40
0.1058
 41
0.1058
 66
1
 10
0
 20
0
 30
0
  0
VERTEX
  8
LAYER_1
 10
156.2242
 20
159.8056
  0
VERTEX
  8
LAYER_1
 10
159.2641
 20
159.9956
  0
SEQEND
  0
ENDBLK
  0
BLOCK
  8
LAYER_1
  2
AIGNBL01010105
 70
64
 10
0
 20
0
 30
0
  3
AIGNBL01010105
  0
POLYLINE
  8
LAYER_1
 40
0.1058
 41
0.1058
 66
1
 10
0
 20
0
 30
0
  0
VERTEX
  8
LAYER_1
 10
156.2242
 20
160.1856
  0
VERTEX
  8
LAYER_1
 10
159.2641
 20
160.3756
  0
SEQEND
  0
ENDBLK
  0
BLOCK
  8
LAYER_1
  2
AIGNBL01010106
 70
64
 10
0
 20
0
 30
0
  3
AIGNBL01010106
  0
POLYLINE
  8
LAYER_1
 40
0.1058
 41
0.1058
 66
1
 10
0
 20
0
 30
0
  0
VERTEX
  8
LAYER_1
 10
156.2242
 20
160.5655
  0
VERTEX
  8
LAYER_1
 10
159.2641
 20
160.7555
  0
SEQEND
  0
ENDBLK
  0
BLOCK
  8
LAYER_1
  2
AIGNBL01010107
 70
64
 10
0
 20
0
 30
0
  3
AIGNBL01010107
  0
INSERT
  8
LAYER_1
  2
AIGNBL01020108
 10
0
 20
0
 30
0
  0
INSERT
  8
LAYER_1
  2
AIGNBL01020109
 10
0
 20
0
 30
0
  0
INSERT
  8
LAYER_1
  2
AIGNBL0102010A
 10
0
 20
0
 30
0
  0
INSERT
  8
LAYER_1
  2
AIGNBL0102010B
 10
0
 20
0
 30
0
  0
INSERT
  8
LAYER_1
  2
AIGNBL0102010C
 10
0
 20
0
 30
0
  0
INSERT
  8
LAYER_1
  2
AIGNBL0102010D
 10
0
 20
0
 30
0
  0
INSERT
  8
LAYER_1
  2
AIGNBL0102010E
 10
0
 20
0
 30
0
  0
INSERT
  8
LAYER_1
  2
AIGNBL0102010F
 10
0
 20
0
 30
0
  0
INSERT
  8
LAYER_1
  2
AIGNBL01020110
 10
0
 20
0
 30
0
  0
INSERT
  8
LAYER_1
  2
AIGNBL01020111
 10
0
 20
0
 30
0
  0
INSERT
  8
LAYER_1
  2
AIGNBL01020112
 10
0
 20
0
 30
0
  0
INSERT
  8
LAYER_1
  2
AIGNBL01020113
 10
0
 20
0
 30
0
  0
INSERT
  8
LAYER_1
  2
AIGNBL01020114
 10
0
 20
0
 30
0
  0
INSERT
  8
LAYER_1
  2
AIGNBL01020115
 10
0
 20
0
 30
0
  0
INSERT
  8
LAYER_1
  2
AIGNBL01020116
 10
0
 20
0
 30
0
  0
INSERT
  8
LAYER_1
  2
AIGNBL01020117
 10
0
 20
0
 30
0
  0
INSERT
  8
LAYER_1
  2
AIGNBL01020118
 10
0
 20
0
 30
0
  0
INSERT
  8
LAYER_1
  2
AIGNBL01020119
 10
0
 20
0
 30
0
  0
INSERT
  8
LAYER_1
  2
AIGNBL0102011A
 10
0
 20
0
 30
0
  0
INSERT
  8
LAYER_1
  2
AIGNBL0102011B
 10
0
 20
0
 30
0
  0
INSERT
  8
LAYER_1
  2
AIGNBL0102011C
 10
0
 20
0
 30
0
  0
INSERT
  8
LAYER_1
  2
AIGNBL0102011D
 10
0
 20
0
 30
0
  0
INSERT
  8
LAYER_1
  2
AIGNBL0102011E
 10
0
 20
0
 30
0
  0
INSERT
  8
LAYER_1
  2
AIGNBL0102011F
 10
0
 20
0
 30
0
  0
INSERT
  8
LAYER_1
  2
AIGNBL01020120
 10
0
 20
0
 30
0
  0
INSERT
  8
LAYER_1
  2
AIGNBL01020121
 10
0
 20
0
 30
0
  0
INSERT
  8
LAYER_1
  2
AIGNBL01020122
 10
0
 20
0
 30
0
  0
INSERT
  8
LAYER_1
  2
AIGNBL01020123
 10
0
 20
0
 30
0
  0
INSERT
  8
LAYER_1
  2
AIGNBL01020124
 10
0
 20
0
 30
0
  0
INSERT
  8
LAYER_1
  2
AIGNBL01020125
 10
0
 20
0
 30
0
  0
INSERT
  8
LAYER_1
  2
AIGNBL01020126
 10
0
 20
0
 30
0
  0
INSERT
  8
LAYER_1
  2
AIGNBL01020127
 10
0
 20
0
 30
0
  0
INSERT
  8
LAYER_1
  2
AIGNBL01020128
 10
0
 20
0
 30
0
  0
INSERT
  8
LAYER_1
  2
AIGNBL01020129
 10
0
 20
0
 30
0
  0
INSERT
  8
LAYER_1
  2
AIGNBL0102012A
 10
0
 20
0
 30
0
  0
INSERT
  8
LAYER_1
  2
AIGNBL0102012B
 10
0
 20
0
 30
0
  0
INSERT
  8
LAYER_1
  2
AIGNBL0102012C
 10
0
 20
0
 30
0
  0
INSERT
  8
LAYER_1
  2
AIGNBL0102012D
 10
0
 20
0
 30
0
  0
INSERT
  8
LAYER_1
  2
AIGNBL0102012E
 10
0
 20
0
 30
0
  0
INSERT
  8
LAYER_1
  2
AIGNBL0102012F
 10
0
 20
0
 30
0
  0
INSERT
  8
LAYER_1
  2
AIGNBL01020130
 10
0
 20
0
 30
0
  0
INSERT
  8
LAYER_1
  2
AIGNBL01020131
 10
0
 20
0
 30
0
  0
INSERT
  8
LAYER_1
  2
AIGNBL01020132
 10
0
 20
0
 30
0
  0
INSERT
  8
LAYER_1
  2
AIGNBL01020133
 10
0
 20
0
 30
0
  0
INSERT
  8
LAYER_1
  2
AIGNBL01020134
 10
0
 20
0
 30
0
  0
INSERT
  8
LAYER_1
  2
AIGNBL01020135
 10
0
 20
0
 30
0
  0
INSERT
  8
LAYER_1
  2
AIGNBL01020136
 10
0
 20
0
 30
0
  0
INSERT
  8
LAYER_1
  2
AIGNBL01020137
 10
0
 20
0
 30
0
  0
INSERT
  8
LAYER_1
  2
AIGNBL01020138
 10
0
 20
0
 30
0
  0
INSERT
  8
LAYER_1
  2
AIGNBL01020139
 10
0
 20
0
 30
0
  0
INSERT
  8
LAYER_1
  2
AIGNBL0102013A
 10
0
 20
0
 30
0
  0
INSERT
  8
LAYER_1
  2
AIGNBL0102013B
 10
0
 20
0
 30
0
  0
INSERT
  8
LAYER_1
  2
AIGNBL0102013C
 10
0
 20
0
 30
0
  0
INSERT
  8
LAYER_1
  2
AIGNBL0102013D
 10
0
 20
0
 30
0
  0
INSERT
  8
LAYER_1
  2
AIGNBL0102013E
 10
0
 20
0
 30
0
  0
INSERT
  8
LAYER_1
  2
AIGNBL0102013F
 10
0
 20
0
 30
0
  0
INSERT
  8
LAYER_1
  2
AIGNBL01020140
 10
0
 20
0
 30
0
  0
INSERT
  8
LAYER_1
  2
AIGNBL01020141
 10
0
 20
0
 30
0
  0
INSERT
  8
LAYER_1
  2
AIGNBL01020142
 10
0
 20
0
 30
0
  0
INSERT
  8
LAYER_1
  2
AIGNBL01020143
 10
0
 20
0
 30
0
  0
INSERT
  8
LAYER_1
  2
AIGNBL01020144
 10
0
 20
0
 30
0
  0
INSERT
  8
LAYER_1
  2
AIGNBL01020145
 10
0
 20
0
 30
0
  0
INSERT
  8
LAYER_1
  2
AIGNBL01020146
 10
0
 20
0
 30
0
  0
INSERT
  8
LAYER_1
  2
AIGNBL01020147
 10
0
 20
0
 30
0
  0
INSERT
  8
LAYER_1
  2
AIGNBL01020148
 10
0
 20
0
 30
0
  0
INSERT
  8
LAYER_1
  2
AIGNBL01020149
 10
0
 20
0
 30
0
  0
INSERT
  8
LAYER_1
  2
AIGNBL0102014A
 10
0
 20
0
 30
0
  0
INSERT
  8
LAYER_1
  2
AIGNBL0102014B
 10
0
 20
0
 30
0
  0
INSERT
  8
LAYER_1
  2
AIGNBL0102014C
 10
0
 20
0
 30
0
  0
INSERT
  8
LAYER_1
  2
AIGNBL0102014D
 10
0
 20
0
 30
0
  0
INSERT
  8
LAYER_1
  2
AIGNBL0102014E
 10
0
 20
0
 30
0
  0
INSERT
  8
LAYER_1
  2
AIGNBL0102014F
 10
0
 20
0
 30
0
  0
INSERT
  8
LAYER_1
  2
AIGNBL01020150
 10
0
 20
0
 30
0
  0
INSERT
  8
LAYER_1
  2
AIGNBL01020151
 10
0
 20
0
 30
0
  0
INSERT
  8
LAYER_1
  2
AIGNBL01020152
 10
0
 20
0
 30
0
  0
INSERT
  8
LAYER_1
  2
AIGNBL01020153
 10
0
 20
0
 30
0
  0
INSERT
  8
LAYER_1
  2
AIGNBL01020154
 10
0
 20
0
 30
0
  0
INSERT
  8
LAYER_1
  2
AIGNBL01020155
 10
0
 20
0
 30
0
  0
INSERT
  8
LAYER_1
  2
AIGNBL01020156
 10
0
 20
0
 30
0
  0
INSERT
  8
LAYER_1
  2
AIGNBL01020157
 10
0
 20
0
 30
0
  0
INSERT
  8
LAYER_1
  2
AIGNBL01020158
 10
0
 20
0
 30
0
  0
INSERT
  8
LAYER_1
  2
AIGNBL01020159
 10
0
 20
0
 30
0
  0
INSERT
  8
LAYER_1
  2
AIGNBL0102015A
 10
0
 20
0
 30
0
  0
INSERT
  8
LAYER_1
  2
AIGNBL0102015B
 10
0
 20
0
 30
0
  0
INSERT
  8
LAYER_1
  2
AIGNBL0102015C
 10
0
 20
0
 30
0
  0
INSERT
  8
LAYER_1
  2
AIGNBL0102015D
 10
0
 20
0
 30
0
  0
INSERT
  8
LAYER_1
  2
AIGNBL0102015E
 10
0
 20
0
 30
0
  0
INSERT
  8
LAYER_1
  2
AIGNBL0102015F
 10
0
 20
0
 30
0
  0
INSERT
  8
LAYER_1
  2
AIGNBL01020160
 10
0
 20
0
 30
0
  0
INSERT
  8
LAYER_1
  2
AIGNBL01020161
 10
0
 20
0
 30
0
  0
INSERT
  8
LAYER_1
  2
AIGNBL01020162
 10
0
 20
0
 30
0
  0
INSERT
  8
LAYER_1
  2
AIGNBL01020163
 10
0
 20
0
 30
0
  0
INSERT
  8
LAYER_1
  2
AIGNBL01020164
 10
0
 20
0
 30
0
  0
INSERT
  8
LAYER_1
  2
AIGNBL01020165
 10
0
 20
0
 30
0
  0
INSERT
  8
LAYER_1
  2
AIGNBL01020166
 10
0
 20
0
 30
0
  0
INSERT
  8
LAYER_1
  2
AIGNBL01020167
 10
0
 20
0
 30
0
  0
INSERT
  8
LAYER_1
  2
AIGNBL01020168
 10
0
 20
0
 30
0
  0
INSERT
  8
LAYER_1
  2
AIGNBL01020169
 10
0
 20
0
 30
0
  0
INSERT
  8
LAYER_1
  2
AIGNBL0102016A
 10
0
 20
0
 30
0
  0
INSERT
  8
LAYER_1
  2
AIGNBL0102016B
 10
0
 20
0
 30
0
  0
INSERT
  8
LAYER_1
  2
AIGNBL0102016C
 10
0
 20
0
 30
0
  0
INSERT
  8
LAYER_1
  2
AIGNBL0102016D
 10
0
 20
0
 30
0
  0
INSERT
  8
LAYER_1
  2
AIGNBL0102016E
 10
0
 20
0
 30
0
  0
INSERT
  8
LAYER_1
  2
AIGNBL0102016F
 10
0
 20
0
 30
0
  0
INSERT
  8
LAYER_1
  2
AIGNBL01020170
 10
0
 20
0
 30
0
  0
INSERT
  8
LAYER_1
  2
AIGNBL01020171
 10
0
 20
0
 30
0
  0
INSERT
  8
LAYER_1
  2
AIGNBL01020172
 10
0
 20
0
 30
0
  0
INSERT
  8
LAYER_1
  2
AIGNBL01020173
 10
0
 20
0
 30
0
  0
INSERT
  8
LAYER_1
  2
AIGNBL01020174
 10
0
 20
0
 30
0
  0
INSERT
  8
LAYER_1
  2
AIGNBL01020175
 10
0
 20
0
 30
0
  0
INSERT
  8
LAYER_1
  2
AIGNBL01020176
 10
0
 20
0
 30
0
  0
INSERT
  8
LAYER_1
  2
AIGNBL01020177
 10
0
 20
0
 30
0
  0
INSERT
  8
LAYER_1
  2
AIGNBL01020178
 10
0
 20
0
 30
0
  0
INSERT
  8
LAYER_1
  2
AIGNBL01020179
 10
0
 20
0
 30
0
  0
INSERT
  8
LAYER_1
  2
AIGNBL0102017A
 10
0
 20
0
 30
0
  0
INSERT
  8
LAYER_1
  2
AIGNBL0102017B
 10
0
 20
0
 30
0
  0
INSERT
  8
LAYER_1
  2
AIGNBL0102017C
 10
0
 20
0
 30
0
  0
INSERT
  8
LAYER_1
  2
AIGNBL0102017D
 10
0
 20
0
 30
0
  0
INSERT
  8
LAYER_1
  2
AIGNBL0102017E
 10
0
 20
0
 30
0
  0
INSERT
  8
LAYER_1
  2
AIGNBL0102017F
 10
0
 20
0
 30
0
  0
INSERT
  8
LAYER_1
  2
AIGNBL01020180
 10
0
 20
0
 30
0
  0
INSERT
  8
LAYER_1
  2
AIGNBL01020181
 10
0
 20
0
 30
0
  0
INSERT
  8
LAYER_1
  2
AIGNBL01020182
 10
0
 20
0
 30
0
  0
INSERT
  8
LAYER_1
  2
AIGNBL01020183
 10
0
 20
0
 30
0
  0
INSERT
  8
LAYER_1
  2
AIGNBL01020184
 10
0
 20
0
 30
0
  0
INSERT
  8
LAYER_1
  2
AIGNBL01020185
 10
0
 20
0
 30
0
  0
INSERT
  8
LAYER_1
  2
AIGNBL01020186
 10
0
 20
0
 30
0
  0
INSERT
  8
LAYER_1
  2
AIGNBL01020187
 10
0
 20
0
 30
0
  0
INSERT
  8
LAYER_1
  2
AIGNBL01020188
 10
0
 20
0
 30
0
  0
INSERT
  8
LAYER_1
  2
AIGNBL01020189
 10
0
 20
0
 30
0
  0
INSERT
  8
LAYER_1
  2
AIGNBL0102018A
 10
0
 20
0
 30
0
  0
INSERT
  8
LAYER_1
  2
AIGNBL0102018B
 10
0
 20
0
 30
0
  0
INSERT
  8
LAYER_1
  2
AIGNBL0102018C
 10
0
 20
0
 30
0
  0
INSERT
  8
LAYER_1
  2
AIGNBL0102018D
 10
0
 20
0
 30
0
  0
INSERT
  8
LAYER_1
  2
AIGNBL0102018E
 10
0
 20
0
 30
0
  0
INSERT
  8
LAYER_1
  2
AIGNBL0102018F
 10
0
 20
0
 30
0
  0
INSERT
  8
LAYER_1
  2
AIGNBL01020190
 10
0
 20
0
 30
0
  0
INSERT
  8
LAYER_1
  2
AIGNBL01020191
 10
0
 20
0
 30
0
  0
INSERT
  8
LAYER_1
  2
AIGNBL01020192
 10
0
 20
0
 30
0
  0
INSERT
  8
LAYER_1
  2
AIGNBL01020193
 10
0
 20
0
 30
0
  0
INSERT
  8
LAYER_1
  2
AIGNBL01020194
 10
0
 20
0
 30
0
  0
INSERT
  8
LAYER_1
  2
AIGNBL01020195
 10
0
 20
0
 30
0
  0
INSERT
  8
LAYER_1
  2
AIGNBL01020196
 10
0
 20
0
 30
0
  0
INSERT
  8
LAYER_1
  2
AIGNBL01020197
 10
0
 20
0
 30
0
  0
INSERT
  8
LAYER_1
  2
AIGNBL01020198
 10
0
 20
0
 30
0
  0
INSERT
  8
LAYER_1
  2
AIGNBL01020199
 10
0
 20
0
 30
0
  0
INSERT
  8
LAYER_1
  2
AIGNBL0102019A
 10
0
 20
0
 30
0
  0
INSERT
  8
LAYER_1
  2
AIGNBL0102019B
 10
0
 20
0
 30
0
  0
INSERT
  8
LAYER_1
  2
AIGNBL0102019C
 10
0
 20
0
 30
0
  0
INSERT
  8
LAYER_1
  2
AIGNBL0102019D
 10
0
 20
0
 30
0
  0
INSERT
  8
LAYER_1
  2
AIGNBL0102019E
 10
0
 20
0
 30
0
  0
INSERT
  8
LAYER_1
  2
AIGNBL0102019F
 10
0
 20
0
 30
0
  0
INSERT
  8
LAYER_1
  2
AIGNBL010201A0
 10
0
 20
0
 30
0
  0
INSERT
  8
LAYER_1
  2
AIGNBL010201A1
 10
0
 20
0
 30
0
  0
INSERT
  8
LAYER_1
  2
AIGNBL010201A2
 10
0
 20
0
 30
0
  0
INSERT
  8
LAYER_1
  2
AIGNBL010201A3
 10
0
 20
0
 30
0
  0
INSERT
  8
LAYER_1
  2
AIGNBL010201A4
 10
0
 20
0
 30
0
  0
INSERT
  8
LAYER_1
  2
AIGNBL010201A5
 10
0
 20
0
 30
0
  0
INSERT
  8
LAYER_1
  2
AIGNBL010201A6
 10
0
 20
0
 30
0
  0
INSERT
  8
LAYER_1
  2
AIGNBL010201A7
 10
0
 20
0
 30
0
  0
INSERT
  8
LAYER_1
  2
AIGNBL010201A8
 10
0
 20
0
 30
0
  0
INSERT
  8
LAYER_1
  2
AIGNBL010201A9
 10
0
 20
0
 30
0
  0
INSERT
  8
LAYER_1
  2
AIGNBL010201AA
 10
0
 20
0
 30
0
  0
INSERT
  8
LAYER_1
  2
AIGNBL010201AB
 10
0
 20
0
 30
0
  0
INSERT
  8
LAYER_1
  2
AIGNBL010201AC
 10
0
 20
0
 30
0
  0
INSERT
  8
LAYER_1
  2
AIGNBL010201AD
 10
0
 20
0
 30
0
  0
INSERT
  8
LAYER_1
  2
AIGNBL010201AE
 10
0
 20
0
 30
0
  0
INSERT
  8
LAYER_1
  2
AIGNBL010201AF
 10
0
 20
0
 30
0
  0
INSERT
  8
LAYER_1
  2
AIGNBL010201B0
 10
0
 20
0
 30
0
  0
INSERT
  8
LAYER_1
  2
AIGNBL010201B1
 10
0
 20
0
 30
0
  0
INSERT
  8
LAYER_1
  2
AIGNBL010201B2
 10
0
 20
0
 30
0
  0
INSERT
  8
LAYER_1
  2
AIGNBL010201B3
 10
0
 20
0
 30
0
  0
INSERT
  8
LAYER_1
  2
AIGNBL010201B4
 10
0
 20
0
 30
0
  0
INSERT
  8
LAYER_1
  2
AIGNBL010201B5
 10
0
 20
0
 30
0
  0
INSERT
  8
LAYER_1
  2
AIGNBL010201B6
 10
0
 20
0
 30
0
  0
INSERT
  8
LAYER_1
  2
AIGNBL010201B7
 10
0
 20
0
 30
0
  0
INSERT
  8
LAYER_1
  2
AIGNBL010201B8
 10
0
 20
0
 30
0
  0
INSERT
  8
LAYER_1
  2
AIGNBL010201B9
 10
0
 20
0
 30
0
  0
INSERT
  8
LAYER_1
  2
AIGNBL010201BA
 10
0
 20
0
 30
0
  0
INSERT
  8
LAYER_1
  2
AIGNBL010201BB
 10
0
 20
0
 30
0
  0
INSERT
  8
LAYER_1
  2
AIGNBL010201BC
 10
0
 20
0
 30
0
  0
INSERT
  8
LAYER_1
  2
AIGNBL010201BD
 10
0
 20
0
 30
0
  0
INSERT
  8
LAYER_1
  2
AIGNBL010201BE
 10
0
 20
0
 30
0
  0
INSERT
  8
LAYER_1
  2
AIGNBL010201BF
 10
0
 20
0
 30
0
  0
INSERT
  8
LAYER_1
  2
AIGNBL010201C0
 10
0
 20
0
 30
0
  0
INSERT
  8
LAYER_1
  2
AIGNBL010201C1
 10
0
 20
0
 30
0
  0
INSERT
  8
LAYER_1
  2
AIGNBL010201C2
 10
0
 20
0
 30
0
  0
INSERT
  8
LAYER_1
  2
AIGNBL010201C3
 10
0
 20
0
 30
0
  0
INSERT
  8
LAYER_1
  2
AIGNBL010201C4
 10
0
 20
0
 30
0
  0
INSERT
  8
LAYER_1
  2
AIGNBL010201C5
 10
0
 20
0
 30
0
  0
INSERT
  8
LAYER_1
  2
AIGNBL010201C6
 10
0
 20
0
 30
0
  0
INSERT
  8
LAYER_1
  2
AIGNBL010201C7
 10
0
 20
0
 30
0
  0
INSERT
  8
LAYER_1
  2
AIGNBL010201C8
 10
0
 20
0
 30
0
  0
INSERT
  8
LAYER_1
  2
AIGNBL010201C9
 10
0
 20
0
 30
0
  0
INSERT
  8
LAYER_1
  2
AIGNBL010201CA
 10
0
 20
0
 30
0
  0
INSERT
  8
LAYER_1
  2
AIGNBL010201CB
 10
0
 20
0
 30
0
  0
INSERT
  8
LAYER_1
  2
AIGNBL010201CC
 10
0
 20
0
 30
0
  0
INSERT
  8
LAYER_1
  2
AIGNBL010201CD
 10
0
 20
0
 30
0
  0
INSERT
  8
LAYER_1
  2
AIGNBL010201CE
 10
0
 20
0
 30
0
  0
INSERT
  8
LAYER_1
  2
AIGNBL010201CF
 10
0
 20
0
 30
0
  0
INSERT
  8
LAYER_1
  2
AIGNBL010201D0
 10
0
 20
0
 30
0
  0
INSERT
  8
LAYER_1
  2
AIGNBL010201D1
 10
0
 20
0
 30
0
  0
INSERT
  8
LAYER_1
  2
AIGNBL010201D2
 10
0
 20
0
 30
0
  0
INSERT
  8
LAYER_1
  2
AIGNBL010201D3
 10
0
 20
0
 30
0
  0
INSERT
  8
LAYER_1
  2
AIGNBL010201D4
 10
0
 20
0
 30
0
  0
INSERT
  8
LAYER_1
  2
AIGNBL010201D5
 10
0
 20
0
 30
0
  0
INSERT
  8
LAYER_1
  2
AIGNBL010201D6
 10
0
 20
0
 30
0
  0
INSERT
  8
LAYER_1
  2
AIGNBL010201D7
 10
0
 20
0
 30
0
  0
INSERT
  8
LAYER_1
  2
AIGNBL010201D8
 10
0
 20
0
 30
0
  0
INSERT
  8
LAYER_1
  2
AIGNBL010201D9
 10
0
 20
0
 30
0
  0
INSERT
  8
LAYER_1
  2
AIGNBL010201DA
 10
0
 20
0
 30
0
  0
INSERT
  8
LAYER_1
  2
AIGNBL010201DB
 10
0
 20
0
 30
0
  0
INSERT
  8
LAYER_1
  2
AIGNBL010201DC
 10
0
 20
0
 30
0
  0
INSERT
  8
LAYER_1
  2
AIGNBL010201DD
 10
0
 20
0
 30
0
  0
INSERT
  8
LAYER_1
  2
AIGNBL010201DE
 10
0
 20
0
 30
0
  0
INSERT
  8
LAYER_1
  2
AIGNBL010201DF
 10
0
 20
0
 30
0
  0
INSERT
  8
LAYER_1
  2
AIGNBL010201E0
 10
0
 20
0
 30
0
  0
INSERT
  8
LAYER_1
  2
AIGNBL010201E1
 10
0
 20
0
 30
0
  0
INSERT
  8
LAYER_1
  2
AIGNBL010201E2
 10
0
 20
0
 30
0
  0
INSERT
  8
LAYER_1
  2
AIGNBL010201E3
 10
0
 20
0
 30
0
  0
INSERT
  8
LAYER_1
  2
AIGNBL010201E4
 10
0
 20
0
 30
0
  0
INSERT
  8
LAYER_1
  2
AIGNBL010201E5
 10
0
 20
0
 30
0
  0
INSERT
  8
LAYER_1
  2
AIGNBL010201E6
 10
0
 20
0
 30
0
  0
INSERT
  8
LAYER_1
  2
AIGNBL010201E7
 10
0
 20
0
 30
0
  0
INSERT
  8
LAYER_1
  2
AIGNBL010201E8
 10
0
 20
0
 30
0
  0
INSERT
  8
LAYER_1
  2
AIGNBL010201E9
 10
0
 20
0
 30
0
  0
INSERT
  8
LAYER_1
  2
AIGNBL010201EA
 10
0
 20
0
 30
0
  0
INSERT
  8
LAYER_1
  2
AIGNBL010201EB
 10
0
 20
0
 30
0
  0
INSERT
  8
LAYER_1
  2
AIGNBL010201EC
 10
0
 20
0
 30
0
  0
INSERT
  8
LAYER_1
  2
AIGNBL010201ED
 10
0
 20
0
 30
0
  0
INSERT
  8
LAYER_1
  2
AIGNBL010201EE
 10
0
 20
0
 30
0
  0
INSERT
  8
LAYER_1
  2
AIGNBL010201EF
 10
0
 20
0
 30
0
  0
INSERT
  8
LAYER_1
  2
AIGNBL010201F0
 10
0
 20
0
 30
0
  0
INSERT
  8
LAYER_1
  2
AIGNBL010201F1
 10
0
 20
0
 30
0
  0
INSERT
  8
LAYER_1
  2
AIGNBL010201F2
 10
0
 20
0
 30
0
  0
ENDBLK
  0
BLOCK
  8
LAYER_1
  2
AIGNBL010101F3
 70
64
 10
0
 20
0
 30
0
  3
AIGNBL010101F3
  0
INSERT
  8
LAYER_1
  2
AIGNBL010201F4
 10
0
 20
0
 30
0
  0
INSERT
  8
LAYER_1
  2
AIGNBL010201F5
 10
0
 20
0
 30
0
  0
INSERT
  8
LAYER_1
  2
AIGNBL010201F6
 10
0
 20
0
 30
0
  0
INSERT
  8
LAYER_1
  2
AIGNBL010201F7
 10
0
 20
0
 30
0
  0
ENDBLK
  0
BLOCK
  8
LAYER_1
  2
AIGNBL010101F8
 70
64
 10
0
 20
0
 30
0
  3
AIGNBL010101F8
  0
INSERT
  8
LAYER_1
  2
AIGNBL010201F9
 10
0
 20
0
 30
0
  0
INSERT
  8
LAYER_1
  2
AIGNBL010201FA
 10
0
 20
0
 30
0
  0
INSERT
  8
LAYER_1
  2
AIGNBL010201FB
 10
0
 20
0
 30
0
  0
INSERT
  8
LAYER_1
  2
AIGNBL010201FC
 10
0
 20
0
 30
0
  0
ENDBLK
  0
BLOCK
  8
LAYER_1
  2
AIGNBL010101FD
 70
64
 10
0
 20
0
 30
0
  3
AIGNBL010101FD
  0
INSERT
  8
LAYER_1
  2
AIGNBL010201FE
 10
0
 20
0
 30
0
  0
INSERT
  8
LAYER_1
  2
AIGNBL010201FF
 10
0
 20
0
 30
0
  0
INSERT
  8
LAYER_1
  2
AIGNBL01020200
 10
0
 20
0
 30
0
  0
INSERT
  8
LAYER_1
  2
AIGNBL01020201
 10
0
 20
0
 30
0
  0
ENDBLK
  0
BLOCK
  8
LAYER_1
  2
AIGNBL01010202
 70
64
 10
0
 20
0
 30
0
  3
AIGNBL01010202
  0
INSERT
  8
LAYER_1
  2
AIGNBL01020203
 10
0
 20
0
 30
0
  0
INSERT
  8
LAYER_1
  2
AIGNBL01020204
 10
0
 20
0
 30
0
  0
INSERT
  8
LAYER_1
  2
AIGNBL01020205
 10
0
 20
0
 30
0
  0
INSERT
  8
LAYER_1
  2
AIGNBL01020206
 10
0
 20
0
 30
0
  0
ENDBLK
  0
BLOCK
  8
LAYER_1
  2
AIGNBL01010207
 70
64
 10
0
 20
0
 30
0
  3
AIGNBL01010207
  0
INSERT
  8
LAYER_1
  2
AIGNBL01020208
 10
0
 20
0
 30
0
  0
INSERT
  8
LAYER_1
  2
AIGNBL01020209
 10
0
 20
0
 30
0
  0
INSERT
  8
LAYER_1
  2
AIGNBL0102020A
 10
0
 20
0
 30
0
  0
INSERT
  8
LAYER_1
  2
AIGNBL0102020B
 10
0
 20
0
 30
0
  0
ENDBLK
  0
BLOCK
  8
LAYER_1
  2
AIGNBL0101020C
 70
64
 10
0
 20
0
 30
0
  3
AIGNBL0101020C
  0
INSERT
  8
LAYER_1
  2
AIGNBL0102020D
 10
0
 20
0
 30
0
  0
INSERT
  8
LAYER_1
  2
AIGNBL0102020E
 10
0
 20
0
 30
0
  0
INSERT
  8
LAYER_1
  2
AIGNBL0102020F
 10
0
 20
0
 30
0
  0
INSERT
  8
LAYER_1
  2
AIGNBL01020210
 10
0
 20
0
 30
0
  0
ENDBLK
  0
BLOCK
  8
LAYER_1
  2
AIGNBL01010211
 70
64
 10
0
 20
0
 30
0
  3
AIGNBL01010211
  0
INSERT
  8
LAYER_1
  2
AIGNBL01020212
 10
0
 20
0
 30
0
  0
INSERT
  8
LAYER_1
  2
AIGNBL01020213
 10
0
 20
0
 30
0
  0
INSERT
  8
LAYER_1
  2
AIGNBL01020214
 10
0
 20
0
 30
0
  0
INSERT
  8
LAYER_1
  2
AIGNBL01020215
 10
0
 20
0
 30
0
  0
ENDBLK
  0
BLOCK
  8
LAYER_1
  2
AIGNBL01010216
 70
64
 10
0
 20
0
 30
0
  3
AIGNBL01010216
  0
INSERT
  8
LAYER_1
  2
AIGNBL01020217
 10
0
 20
0
 30
0
  0
INSERT
  8
LAYER_1
  2
AIGNBL01020218
 10
0
 20
0
 30
0
  0
INSERT
  8
LAYER_1
  2
AIGNBL01020219
 10
0
 20
0
 30
0
  0
INSERT
  8
LAYER_1
  2
AIGNBL0102021A
 10
0
 20
0
 30
0
  0
ENDBLK
  0
BLOCK
  8
LAYER_1
  2
AIGNBL0101021B
 70
64
 10
0
 20
0
 30
0
  3
AIGNBL0101021B
  0
INSERT
  8
LAYER_1
  2
AIGNBL0102021C
 10
0
 20
0
 30
0
  0
INSERT
  8
LAYER_1
  2
AIGNBL0102021D
 10
0
 20
0
 30
0
  0
INSERT
  8
LAYER_1
  2
AIGNBL0102021E
 10
0
 20
0
 30
0
  0
INSERT
  8
LAYER_1
  2
AIGNBL0102021F
 10
0
 20
0
 30
0
  0
ENDBLK
  0
BLOCK
  8
LAYER_1
  2
AIGNBL01010220
 70
64
 10
0
 20
0
 30
0
  3
AIGNBL01010220
  0
INSERT
  8
LAYER_1
  2
AIGNBL01020221
 10
0
 20
0
 30
0
  0
INSERT
  8
LAYER_1
  2
AIGNBL01020222
 10
0
 20
0
 30
0
  0
INSERT
  8
LAYER_1
  2
AIGNBL01020223
 10
0
 20
0
 30
0
  0
INSERT
  8
LAYER_1
  2
AIGNBL01020224
 10
0
 20
0
 30
0
  0
ENDBLK
  0
BLOCK
  8
LAYER_1
  2
AIGNBL01010225
 70
64
 10
0
 20
0
 30
0
  3
AIGNBL01010225
  0
INSERT
  8
LAYER_1
  2
AIGNBL01020226
 10
0
 20
0
 30
0
  0
INSERT
  8
LAYER_1
  2
AIGNBL01020227
 10
0
 20
0
 30
0
  0
INSERT
  8
LAYER_1
  2
AIGNBL01020228
 10
0
 20
0
 30
0
  0
INSERT
  8
LAYER_1
  2
AIGNBL01020229
 10
0
 20
0
 30
0
  0
ENDBLK
  0
BLOCK
  8
LAYER_1
  2
AIGNBL0101022A
 70
64
 10
0
 20
0
 30
0
  3
AIGNBL0101022A
  0
INSERT
  8
LAYER_1
  2
AIGNBL0102022B
 10
0
 20
0
 30
0
  0
INSERT
  8
LAYER_1
  2
AIGNBL0102022C
 10
0
 20
0
 30
0
  0
INSERT
  8
LAYER_1
  2
AIGNBL0102022D
 10
0
 20
0
 30
0
  0
INSERT
  8
LAYER_1
  2
AIGNBL0102022E
 10
0
 20
0
 30
0
  0
ENDBLK
  0
BLOCK
  8
LAYER_1
  2
AIGNBL0101022F
 70
64
 10
0
 20
0
 30
0
  3
AIGNBL0101022F
  0
INSERT
  8
LAYER_1
  2
AIGNBL01020230
 10
0
 20
0
 30
0
  0
INSERT
  8
LAYER_1
  2
AIGNBL01020231
 10
0
 20
0
 30
0
  0
INSERT
  8
LAYER_1
  2
AIGNBL01020232
 10
0
 20
0
 30
0
  0
INSERT
  8
LAYER_1
  2
AIGNBL01020233
 10
0
 20
0
 30
0
  0
ENDBLK
  0
BLOCK
  8
LAYER_1
  2
AIGNBL01010234
 70
64
 10
0
 20
0
 30
0
  3
AIGNBL01010234
  0
INSERT
  8
LAYER_1
  2
AIGNBL01020235
 10
0
 20
0
 30
0
  0
INSERT
  8
LAYER_1
  2
AIGNBL01020236
 10
0
 20
0
 30
0
  0
INSERT
  8
LAYER_1
  2
AIGNBL01020237
 10
0
 20
0
 30
0
  0
INSERT
  8
LAYER_1
  2
AIGNBL01020238
 10
0
 20
0
 30
0
  0
INSERT
  8
LAYER_1
  2
AIGNBL01020239
 10
0
 20
0
 30
0
  0
INSERT
  8
LAYER_1
  2
AIGNBL0102023A
 10
0
 20
0
 30
0
  0
INSERT
  8
LAYER_1
  2
AIGNBL0102023B
 10
0
 20
0
 30
0
  0
INSERT
  8
LAYER_1
  2
AIGNBL0102023C
 10
0
 20
0
 30
0
  0
ENDBLK
  0
BLOCK
  8
LAYER_1
  2
AIGNBL0101023D
 70
64
 10
0
 20
0
 30
0
  3
AIGNBL0101023D
  0
INSERT
  8
LAYER_1
  2
AIGNBL0102023E
 10
0
 20
0
 30
0
  0
INSERT
  8
LAYER_1
  2
AIGNBL0102023F
 10
0
 20
0
 30
0
  0
INSERT
  8
LAYER_1
  2
AIGNBL01020240
 10
0
 20
0
 30
0
  0
INSERT
  8
LAYER_1
  2
AIGNBL01020241
 10
0
 20
0
 30
0
  0
ENDBLK
  0
BLOCK
  8
LAYER_2
  2
AIGNBL02010002
 70
64
 10
0
 20
0
 30
0
  3
AIGNBL02010002
  0
POLYLINE
  8
LAYER_2
 40
0.7056
 41
0.7056
 66
1
 10
0
 20
0
 30
0
 70
1
  0
VERTEX
  8
LAYER_2
 10
251.6749
 20
230.337
  0
VERTEX
  8
LAYER_2
 10
251.6749
 20
33.3285
  0
VERTEX
  8
LAYER_2
 10
-30.3177
 20
33.3285
  0
VERTEX
  8
LAYER_2
 10
-30.3177
 20
230.337
  0
SEQEND
  0
ENDBLK
  0
BLOCK
  8
LAYER_2
  2
AIGNBL02010003
 70
64
 10
0
 20
0
 30
0
  3
AIGNBL02010003
  0
INSERT
  8
LAYER_2
  2
AIGNBL02020004
 10
0
 20
0
 30
0
  0
INSERT
  8
LAYER_2
  2
AIGNBL0202000D
 10
0
 20
0
 30
0
  0
ENDBLK
  0
ENDSEC
  0
SECTION
  2
ENTITIES
  0
INSERT
  8
LAYER_1
  2
AIGNBL01010002
 10
0
 20
0
 30
0
  0
INSERT
  8
LAYER_1
  2
AIGNBL01010003
 10
0
 20
0
 30
0
  0
INSERT
  8
LAYER_1
  2
AIGNBL01010004
 10
0
 20
0
 30
0
  0
INSERT
  8
LAYER_1
  2
AIGNBL01010005
 10
0
 20
0
 30
0
  0
INSERT
  8
LAYER_1
  2
AIGNBL01010006
 10
0
 20
0
 30
0
  0
INSERT
  8
LAYER_1
  2
AIGNBL01010007
 10
0
 20
0
 30
0
  0
INSERT
  8
LAYER_1
  2
AIGNBL01010008
 10
0
 20
0
 30
0
  0
INSERT
  8
LAYER_1
  2
AIGNBL01010009
 10
0
 20
0
 30
0
  0
INSERT
  8
LAYER_1
  2
AIGNBL0101000A
 10
0
 20
0
 30
0
  0
INSERT
  8
LAYER_1
  2
AIGNBL0101000B
 10
0
 20
0
 30
0
  0
INSERT
  8
LAYER_1
  2
AIGNBL0101000C
 10
0
 20
0
 30
0
  0
INSERT
  8
LAYER_1
  2
AIGNBL0101000D
 10
0
 20
0
 30
0
  0
INSERT
  8
LAYER_1
  2
AIGNBL0101000E
 10
0
 20
0
 30
0
  0
INSERT
  8
LAYER_1
  2
AIGNBL0101000F
 10
0
 20
0
 30
0
  0
INSERT
  8
LAYER_1
  2
AIGNBL01010010
 10
0
 20
0
 30
0
  0
INSERT
  8
LAYER_1
  2
AIGNBL01010011
 10
0
 20
0
 30
0
  0
INSERT
  8
LAYER_1
  2
AIGNBL01010012
 10
0
 20
0
 30
0
  0
INSERT
  8
LAYER_1
  2
AIGNBL01010013
 10
0
 20
0
 30
0
  0
INSERT
  8
LAYER_1
  2
AIGNBL01010014
 10
0
 20
0
 30
0
  0
INSERT
  8
LAYER_1
  2
AIGNBL01010015
 10
0
 20
0
 30
0
  0
INSERT
  8
LAYER_1
  2
AIGNBL01010016
 10
0
 20
0
 30
0
  0
INSERT
  8
LAYER_1
  2
AIGNBL01010017
 10
0
 20
0
 30
0
  0
INSERT
  8
LAYER_1
  2
AIGNBL01010018
 10
0
 20
0
 30
0
  0
INSERT
  8
LAYER_1
  2
AIGNBL01010019
 10
0
 20
0
 30
0
  0
INSERT
  8
LAYER_1
  2
AIGNBL0101001A
 10
0
 20
0
 30
0
  0
INSERT
  8
LAYER_1
  2
AIGNBL0101001B
 10
0
 20
0
 30
0
  0
INSERT
  8
LAYER_1
  2
AIGNBL0101001C
 10
0
 20
0
 30
0
  0
INSERT
  8
LAYER_1
  2
AIGNBL0101001D
 10
0
 20
0
 30
0
  0
INSERT
  8
LAYER_1
  2
AIGNBL0101001E
 10
0
 20
0
 30
0
  0
INSERT
  8
LAYER_1
  2
AIGNBL0101001F
 10
0
 20
0
 30
0
  0
INSERT
  8
LAYER_1
  2
AIGNBL01010020
 10
0
 20
0
 30
0
  0
INSERT
  8
LAYER_1
  2
AIGNBL01010021
 10
0
 20
0
 30
0
  0
INSERT
  8
LAYER_1
  2
AIGNBL01010022
 10
0
 20
0
 30
0
  0
INSERT
  8
LAYER_1
  2
AIGNBL01010023
 10
0
 20
0
 30
0
  0
INSERT
  8
LAYER_1
  2
AIGNBL01010024
 10
0
 20
0
 30
0
  0
INSERT
  8
LAYER_1
  2
AIGNBL01010025
 10
0
 20
0
 30
0
  0
INSERT
  8
LAYER_1
  2
AIGNBL01010026
 10
0
 20
0
 30
0
  0
INSERT
  8
LAYER_1
  2
AIGNBL01010027
 10
0
 20
0
 30
0
  0
INSERT
  8
LAYER_1
  2
AIGNBL01010028
 10
0
 20
0
 30
0
  0
INSERT
  8
LAYER_1
  2
AIGNBL01010029
 10
0
 20
0
 30
0
  0
INSERT
  8
LAYER_1
  2
AIGNBL0101002A
 10
0
 20
0
 30
0
  0
INSERT
  8
LAYER_1
  2
AIGNBL0101002B
 10
0
 20
0
 30
0
  0
INSERT
  8
LAYER_1
  2
AIGNBL0101002C
 10
0
 20
0
 30
0
  0
INSERT
  8
LAYER_1
  2
AIGNBL0101002D
 10
0
 20
0
 30
0
  0
INSERT
  8
LAYER_1
  2
AIGNBL0101002E
 10
0
 20
0
 30
0
  0
INSERT
  8
LAYER_1
  2
AIGNBL0101002F
 10
0
 20
0
 30
0
  0
INSERT
  8
LAYER_1
  2
AIGNBL01010030
 10
0
 20
0
 30
0
  0
INSERT
  8
LAYER_1
  2
AIGNBL01010031
 10
0
 20
0
 30
0
  0
INSERT
  8
LAYER_1
  2
AIGNBL01010032
 10
0
 20
0
 30
0
  0
INSERT
  8
LAYER_1
  2
AIGNBL01010033
 10
0
 20
0
 30
0
  0
INSERT
  8
LAYER_1
  2
AIGNBL01010034
 10
0
 20
0
 30
0
  0
INSERT
  8
LAYER_1
  2
AIGNBL01010035
 10
0
 20
0
 30
0
  0
INSERT
  8
LAYER_1
  2
AIGNBL01010036
 10
0
 20
0
 30
0
  0
INSERT
  8
LAYER_1
  2
AIGNBL01010037
 10
0
 20
0
 30
0
  0
INSERT
  8
LAYER_1
  2
AIGNBL01010038
 10
0
 20
0
 30
0
  0
INSERT
  8
LAYER_1
  2
AIGNBL01010039
 10
0
 20
0
 30
0
  0
INSERT
  8
LAYER_1
  2
AIGNBL0101003A
 10
0
 20
0
 30
0
  0
INSERT
  8
LAYER_1
  2
AIGNBL0101003B
 10
0
 20
0
 30
0
  0
INSERT
  8
LAYER_1
  2
AIGNBL0101003C
 10
0
 20
0
 30
0
  0
INSERT
  8
LAYER_1
  2
AIGNBL0101003D
 10
0
 20
0
 30
0
  0
INSERT
  8
LAYER_1
  2
AIGNBL0101003E
 10
0
 20
0
 30
0
  0
INSERT
  8
LAYER_1
  2
AIGNBL0101003F
 10
0
 20
0
 30
0
  0
INSERT
  8
LAYER_1
  2
AIGNBL01010040
 10
0
 20
0
 30
0
  0
INSERT
  8
LAYER_1
  2
AIGNBL01010041
 10
0
 20
0
 30
0
  0
INSERT
  8
LAYER_1
  2
AIGNBL01010042
 10
0
 20
0
 30
0
  0
INSERT
  8
LAYER_1
  2
AIGNBL01010043
 10
0
 20
0
 30
0
  0
INSERT
  8
LAYER_1
  2
AIGNBL01010044
 10
0
 20
0
 30
0
  0
INSERT
  8
LAYER_1
  2
AIGNBL01010045
 10
0
 20
0
 30
0
  0
INSERT
  8
LAYER_1
  2
AIGNBL01010046
 10
0
 20
0
 30
0
  0
INSERT
  8
LAYER_1
  2
AIGNBL01010047
 10
0
 20
0
 30
0
  0
INSERT
  8
LAYER_1
  2
AIGNBL01010048
 10
0
 20
0
 30
0
  0
INSERT
  8
LAYER_1
  2
AIGNBL01010049
 10
0
 20
0
 30
0
  0
INSERT
  8
LAYER_1
  2
AIGNBL0101004A
 10
0
 20
0
 30
0
  0
INSERT
  8
LAYER_1
  2
AIGNBL0101004B
 10
0
 20
0
 30
0
  0
INSERT
  8
LAYER_1
  2
AIGNBL0101004C
 10
0
 20
0
 30
0
  0
INSERT
  8
LAYER_1
  2
AIGNBL0101004D
 10
0
 20
0
 30
0
  0
INSERT
  8
LAYER_1
  2
AIGNBL0101004E
 10
0
 20
0
 30
0
  0
INSERT
  8
LAYER_1
  2
AIGNBL0101004F
 10
0
 20
0
 30
0
  0
INSERT
  8
LAYER_1
  2
AIGNBL01010050
 10
0
 20
0
 30
0
  0
INSERT
  8
LAYER_1
  2
AIGNBL01010051
 10
0
 20
0
 30
0
  0
INSERT
  8
LAYER_1
  2
AIGNBL01010052
 10
0
 20
0
 30
0
  0
INSERT
  8
LAYER_1
  2
AIGNBL01010053
 10
0
 20
0
 30
0
  0
INSERT
  8
LAYER_1
  2
AIGNBL01010054
 10
0
 20
0
 30
0
  0
INSERT
  8
LAYER_1
  2
AIGNBL01010055
 10
0
 20
0
 30
0
  0
INSERT
  8
LAYER_1
  2
AIGNBL01010056
 10
0
 20
0
 30
0
  0
INSERT
  8
LAYER_1
  2
AIGNBL01010057
 10
0
 20
0
 30
0
  0
INSERT
  8
LAYER_1
  2
AIGNBL01010058
 10
0
 20
0
 30
0
  0
INSERT
  8
LAYER_1
  2
AIGNBL01010059
 10
0
 20
0
 30
0
  0
INSERT
  8
LAYER_1
  2
AIGNBL0101005A
 10
0
 20
0
 30
0
  0
INSERT
  8
LAYER_1
  2
AIGNBL0101005B
 10
0
 20
0
 30
0
  0
INSERT
  8
LAYER_1
  2
AIGNBL0101005C
 10
0
 20
0
 30
0
  0
INSERT
  8
LAYER_1
  2
AIGNBL0101005D
 10
0
 20
0
 30
0
  0
INSERT
  8
LAYER_1
  2
AIGNBL0101005E
 10
0
 20
0
 30
0
  0
INSERT
  8
LAYER_1
  2
AIGNBL0101005F
 10
0
 20
0
 30
0
  0
INSERT
  8
LAYER_1
  2
AIGNBL01010060
 10
0
 20
0
 30
0
  0
INSERT
  8
LAYER_1
  2
AIGNBL01010061
 10
0
 20
0
 30
0
  0
INSERT
  8
LAYER_1
  2
AIGNBL01010062
 10
0
 20
0
 30
0
  0
INSERT
  8
LAYER_1
  2
AIGNBL01010063
 10
0
 20
0
 30
0
  0
INSERT
  8
LAYER_1
  2
AIGNBL01010064
 10
0
 20
0
 30
0
  0
INSERT
  8
LAYER_1
  2
AIGNBL01010065
 10
0
 20
0
 30
0
  0
INSERT
  8
LAYER_1
  2
AIGNBL01010066
 10
0
 20
0
 30
0
  0
INSERT
  8
LAYER_1
  2
AIGNBL01010067
 10
0
 20
0
 30
0
  0
INSERT
  8
LAYER_1
  2
AIGNBL01010068
 10
0
 20
0
 30
0
  0
INSERT
  8
LAYER_1
  2
AIGNBL01010069
 10
0
 20
0
 30
0
  0
INSERT
  8
LAYER_1
  2
AIGNBL0101006A
 10
0
 20
0
 30
0
  0
INSERT
  8
LAYER_1
  2
AIGNBL0101006B
 10
0
 20
0
 30
0
  0
INSERT
  8
LAYER_1
  2
AIGNBL0101006C
 10
0
 20
0
 30
0
  0
INSERT
  8
LAYER_1
  2
AIGNBL0101006D
 10
0
 20
0
 30
0
  0
INSERT
  8
LAYER_1
  2
AIGNBL0101006E
 10
0
 20
0
 30
0
  0
INSERT
  8
LAYER_1
  2
AIGNBL0101006F
 10
0
 20
0
 30
0
  0
INSERT
  8
LAYER_1
  2
AIGNBL01010070
 10
0
 20
0
 30
0
  0
INSERT
  8
LAYER_1
  2
AIGNBL01010071
 10
0
 20
0
 30
0
  0
INSERT
  8
LAYER_1
  2
AIGNBL01010072
 10
0
 20
0
 30
0
  0
INSERT
  8
LAYER_1
  2
AIGNBL01010073
 10
0
 20
0
 30
0
  0
INSERT
  8
LAYER_1
  2
AIGNBL01010074
 10
0
 20
0
 30
0
  0
INSERT
  8
LAYER_1
  2
AIGNBL01010075
 10
0
 20
0
 30
0
  0
INSERT
  8
LAYER_1
  2
AIGNBL01010076
 10
0
 20
0
 30
0
  0
INSERT
  8
LAYER_1
  2
AIGNBL01010077
 10
0
 20
0
 30
0
  0
INSERT
  8
LAYER_1
  2
AIGNBL01010078
 10
0
 20
0
 30
0
  0
INSERT
  8
LAYER_1
  2
AIGNBL01010079
 10
0
 20
0
 30
0
  0
INSERT
  8
LAYER_1
  2
AIGNBL0101007A
 10
0
 20
0
 30
0
  0
INSERT
  8
LAYER_1
  2
AIGNBL0101007B
 10
0
 20
0
 30
0
  0
INSERT
  8
LAYER_1
  2
AIGNBL0101007C
 10
0
 20
0
 30
0
  0
INSERT
  8
LAYER_1
  2
AIGNBL0101007D
 10
0
 20
0
 30
0
  0
INSERT
  8
LAYER_1
  2
AIGNBL0101007E
 10
0
 20
0
 30
0
  0
INSERT
  8
LAYER_1
  2
AIGNBL0101007F
 10
0
 20
0
 30
0
  0
INSERT
  8
LAYER_1
  2
AIGNBL01010080
 10
0
 20
0
 30
0
  0
INSERT
  8
LAYER_1
  2
AIGNBL01010081
 10
0
 20
0
 30
0
  0
INSERT
  8
LAYER_1
  2
AIGNBL01010082
 10
0
 20
0
 30
0
  0
INSERT
  8
LAYER_1
  2
AIGNBL01010083
 10
0
 20
0
 30
0
  0
INSERT
  8
LAYER_1
  2
AIGNBL01010084
 10
0
 20
0
 30
0
  0
INSERT
  8
LAYER_1
  2
AIGNBL01010085
 10
0
 20
0
 30
0
  0
INSERT
  8
LAYER_1
  2
AIGNBL01010086
 10
0
 20
0
 30
0
  0
INSERT
  8
LAYER_1
  2
AIGNBL01010087
 10
0
 20
0
 30
0
  0
INSERT
  8
LAYER_1
  2
AIGNBL01010088
 10
0
 20
0
 30
0
  0
INSERT
  8
LAYER_1
  2
AIGNBL01010089
 10
0
 20
0
 30
0
  0
INSERT
  8
LAYER_1
  2
AIGNBL0101008A
 10
0
 20
0
 30
0
  0
INSERT
  8
LAYER_1
  2
AIGNBL0101008B
 10
0
 20
0
 30
0
  0
INSERT
  8
LAYER_1
  2
AIGNBL0101008C
 10
0
 20
0
 30
0
  0
INSERT
  8
LAYER_1
  2
AIGNBL0101008D
 10
0
 20
0
 30
0
  0
INSERT
  8
LAYER_1
  2
AIGNBL0101008E
 10
0
 20
0
 30
0
  0
INSERT
  8
LAYER_1
  2
AIGNBL0101008F
 10
0
 20
0
 30
0
  0
INSERT
  8
LAYER_1
  2
AIGNBL01010090
 10
0
 20
0
 30
0
  0
INSERT
  8
LAYER_1
  2
AIGNBL01010091
 10
0
 20
0
 30
0
  0
INSERT
  8
LAYER_1
  2
AIGNBL01010092
 10
0
 20
0
 30
0
  0
INSERT
  8
LAYER_1
  2
AIGNBL01010093
 10
0
 20
0
 30
0
  0
INSERT
  8
LAYER_1
  2
AIGNBL01010094
 10
0
 20
0
 30
0
  0
INSERT
  8
LAYER_1
  2
AIGNBL01010095
 10
0
 20
0
 30
0
  0
INSERT
  8
LAYER_1
  2
AIGNBL01010096
 10
0
 20
0
 30
0
  0
INSERT
  8
LAYER_1
  2
AIGNBL01010097
 10
0
 20
0
 30
0
  0
INSERT
  8
LAYER_1
  2
AIGNBL01010098
 10
0
 20
0
 30
0
  0
INSERT
  8
LAYER_1
  2
AIGNBL01010099
 10
0
 20
0
 30
0
  0
INSERT
  8
LAYER_1
  2
AIGNBL0101009A
 10
0
 20
0
 30
0
  0
INSERT
  8
LAYER_1
  2
AIGNBL0101009B
 10
0
 20
0
 30
0
  0
INSERT
  8
LAYER_1
  2
AIGNBL0101009C
 10
0
 20
0
 30
0
  0
INSERT
  8
LAYER_1
  2
AIGNBL0101009D
 10
0
 20
0
 30
0
  0
INSERT
  8
LAYER_1
  2
AIGNBL0101009E
 10
0
 20
0
 30
0
  0
INSERT
  8
LAYER_1
  2
AIGNBL0101009F
 10
0
 20
0
 30
0
  0
INSERT
  8
LAYER_1
  2
AIGNBL010100A0
 10
0
 20
0
 30
0
  0
INSERT
  8
LAYER_1
  2
AIGNBL010100A1
 10
0
 20
0
 30
0
  0
INSERT
  8
LAYER_1
  2
AIGNBL010100A2
 10
0
 20
0
 30
0
  0
INSERT
  8
LAYER_1
  2
AIGNBL010100A3
 10
0
 20
0
 30
0
  0
INSERT
  8
LAYER_1
  2
AIGNBL010100A4
 10
0
 20
0
 30
0
  0
INSERT
  8
LAYER_1
  2
AIGNBL010100A5
 10
0
 20
0
 30
0
  0
INSERT
  8
LAYER_1
  2
AIGNBL010100A6
 10
0
 20
0
 30
0
  0
INSERT
  8
LAYER_1
  2
AIGNBL010100A7
 10
0
 20
0
 30
0
  0
INSERT
  8
LAYER_1
  2
AIGNBL010100A8
 10
0
 20
0
 30
0
  0
INSERT
  8
LAYER_1
  2
AIGNBL010100A9
 10
0
 20
0
 30
0
  0
INSERT
  8
LAYER_1
  2
AIGNBL010100AA
 10
0
 20
0
 30
0
  0
INSERT
  8
LAYER_1
  2
AIGNBL010100AB
 10
0
 20
0
 30
0
  0
INSERT
  8
LAYER_1
  2
AIGNBL010100AC
 10
0
 20
0
 30
0
  0
INSERT
  8
LAYER_1
  2
AIGNBL010100AD
 10
0
 20
0
 30
0
  0
INSERT
  8
LAYER_1
  2
AIGNBL010100AE
 10
0
 20
0
 30
0
  0
INSERT
  8
LAYER_1
  2
AIGNBL010100AF
 10
0
 20
0
 30
0
  0
INSERT
  8
LAYER_1
  2
AIGNBL010100B0
 10
0
 20
0
 30
0
  0
INSERT
  8
LAYER_1
  2
AIGNBL010100B1
 10
0
 20
0
 30
0
  0
INSERT
  8
LAYER_1
  2
AIGNBL010100B2
 10
0
 20
0
 30
0
  0
INSERT
  8
LAYER_1
  2
AIGNBL010100B3
 10
0
 20
0
 30
0
  0
INSERT
  8
LAYER_1
  2
AIGNBL010100B4
 10
0
 20
0
 30
0
  0
INSERT
  8
LAYER_1
  2
AIGNBL010100B5
 10
0
 20
0
 30
0
  0
INSERT
  8
LAYER_1
  2
AIGNBL010100B6
 10
0
 20
0
 30
0
  0
INSERT
  8
LAYER_1
  2
AIGNBL010100B7
 10
0
 20
0
 30
0
  0
INSERT
  8
LAYER_1
  2
AIGNBL010100B8
 10
0
 20
0
 30
0
  0
INSERT
  8
LAYER_1
  2
AIGNBL010100B9
 10
0
 20
0
 30
0
  0
INSERT
  8
LAYER_1
  2
AIGNBL010100BA
 10
0
 20
0
 30
0
  0
INSERT
  8
LAYER_1
  2
AIGNBL010100BB
 10
0
 20
0
 30
0
  0
INSERT
  8
LAYER_1
  2
AIGNBL010100BC
 10
0
 20
0
 30
0
  0
INSERT
  8
LAYER_1
  2
AIGNBL010100BD
 10
0
 20
0
 30
0
  0
INSERT
  8
LAYER_1
  2
AIGNBL010100BE
 10
0
 20
0
 30
0
  0
INSERT
  8
LAYER_1
  2
AIGNBL010100BF
 10
0
 20
0
 30
0
  0
INSERT
  8
LAYER_1
  2
AIGNBL010100C0
 10
0
 20
0
 30
0
  0
INSERT
  8
LAYER_1
  2
AIGNBL010100C1
 10
0
 20
0
 30
0
  0
INSERT
  8
LAYER_1
  2
AIGNBL010100C2
 10
0
 20
0
 30
0
  0
INSERT
  8
LAYER_1
  2
AIGNBL010100C3
 10
0
 20
0
 30
0
  0
INSERT
  8
LAYER_1
  2
AIGNBL010100C4
 10
0
 20
0
 30
0
  0
INSERT
  8
LAYER_1
  2
AIGNBL010100C5
 10
0
 20
0
 30
0
  0
INSERT
  8
LAYER_1
  2
AIGNBL010100C6
 10
0
 20
0
 30
0
  0
INSERT
  8
LAYER_1
  2
AIGNBL010100C7
 10
0
 20
0
 30
0
  0
INSERT
  8
LAYER_1
  2
AIGNBL010100C8
 10
0
 20
0
 30
0
  0
INSERT
  8
LAYER_1
  2
AIGNBL010100C9
 10
0
 20
0
 30
0
  0
INSERT
  8
LAYER_1
  2
AIGNBL010100CA
 10
0
 20
0
 30
0
  0
INSERT
  8
LAYER_1
  2
AIGNBL010100CB
 10
0
 20
0
 30
0
  0
INSERT
  8
LAYER_1
  2
AIGNBL010100CC
 10
0
 20
0
 30
0
  0
INSERT
  8
LAYER_1
  2
AIGNBL010100CD
 10
0
 20
0
 30
0
  0
INSERT
  8
LAYER_1
  2
AIGNBL010100CE
 10
0
 20
0
 30
0
  0
INSERT
  8
LAYER_1
  2
AIGNBL010100CF
 10
0
 20
0
 30
0
  0
INSERT
  8
LAYER_1
  2
AIGNBL010100D0
 10
0
 20
0
 30
0
  0
INSERT
  8
LAYER_1
  2
AIGNBL010100D1
 10
0
 20
0
 30
0
  0
INSERT
  8
LAYER_1
  2
AIGNBL010100D2
 10
0
 20
0
 30
0
  0
INSERT
  8
LAYER_1
  2
AIGNBL010100D3
 10
0
 20
0
 30
0
  0
INSERT
  8
LAYER_1
  2
AIGNBL010100D4
 10
0
 20
0
 30
0
  0
INSERT
  8
LAYER_1
  2
AIGNBL010100D5
 10
0
 20
0
 30
0
  0
INSERT
  8
LAYER_1
  2
AIGNBL010100D6
 10
0
 20
0
 30
0
  0
INSERT
  8
LAYER_1
  2
AIGNBL010100D7
 10
0
 20
0
 30
0
  0
INSERT
  8
LAYER_1
  2
AIGNBL010100D8
 10
0
 20
0
 30
0
  0
INSERT
  8
LAYER_1
  2
AIGNBL010100D9
 10
0
 20
0
 30
0
  0
INSERT
  8
LAYER_1
  2
AIGNBL010100DA
 10
0
 20
0
 30
0
  0
INSERT
  8
LAYER_1
  2
AIGNBL010100DB
 10
0
 20
0
 30
0
  0
INSERT
  8
LAYER_1
  2
AIGNBL010100DC
 10
0
 20
0
 30
0
  0
INSERT
  8
LAYER_1
  2
AIGNBL010100DD
 10
0
 20
0
 30
0
  0
INSERT
  8
LAYER_1
  2
AIGNBL010100DE
 10
0
 20
0
 30
0
  0
INSERT
  8
LAYER_1
  2
AIGNBL010100DF
 10
0
 20
0
 30
0
  0
INSERT
  8
LAYER_1
  2
AIGNBL010100E0
 10
0
 20
0
 30
0
  0
INSERT
  8
LAYER_1
  2
AIGNBL010100E1
 10
0
 20
0
 30
0
  0
INSERT
  8
LAYER_1
  2
AIGNBL010100E2
 10
0
 20
0
 30
0
  0
INSERT
  8
LAYER_1
  2
AIGNBL010100E3
 10
0
 20
0
 30
0
  0
INSERT
  8
LAYER_1
  2
AIGNBL010100E4
 10
0
 20
0
 30
0
  0
INSERT
  8
LAYER_1
  2
AIGNBL010100E5
 10
0
 20
0
 30
0
  0
INSERT
  8
LAYER_1
  2
AIGNBL010100E6
 10
0
 20
0
 30
0
  0
INSERT
  8
LAYER_1
  2
AIGNBL010100E7
 10
0
 20
0
 30
0
  0
INSERT
  8
LAYER_1
  2
AIGNBL010100E8
 10
0
 20
0
 30
0
  0
INSERT
  8
LAYER_1
  2
AIGNBL010100E9
 10
0
 20
0
 30
0
  0
INSERT
  8
LAYER_1
  2
AIGNBL010100EA
 10
0
 20
0
 30
0
  0
INSERT
  8
LAYER_1
  2
AIGNBL010100EB
 10
0
 20
0
 30
0
  0
INSERT
  8
LAYER_1
  2
AIGNBL010100EC
 10
0
 20
0
 30
0
  0
INSERT
  8
LAYER_1
  2
AIGNBL010100ED
 10
0
 20
0
 30
0
  0
INSERT
  8
LAYER_1
  2
AIGNBL010100EE
 10
0
 20
0
 30
0
  0
INSERT
  8
LAYER_1
  2
AIGNBL010100EF
 10
0
 20
0
 30
0
  0
INSERT
  8
LAYER_1
  2
AIGNBL010100F0
 10
0
 20
0
 30
0
  0
INSERT
  8
LAYER_1
  2
AIGNBL010100F1
 10
0
 20
0
 30
0
  0
INSERT
  8
LAYER_1
  2
AIGNBL010100F2
 10
0
 20
0
 30
0
  0
INSERT
  8
LAYER_1
  2
AIGNBL010100F3
 10
0
 20
0
 30
0
  0
INSERT
  8
LAYER_1
  2
AIGNBL010100F4
 10
0
 20
0
 30
0
  0
INSERT
  8
LAYER_1
  2
AIGNBL010100F5
 10
0
 20
0
 30
0
  0
INSERT
  8
LAYER_1
  2
AIGNBL010100F6
 10
0
 20
0
 30
0
  0
INSERT
  8
LAYER_1
  2
AIGNBL010100F7
 10
0
 20
0
 30
0
  0
INSERT
  8
LAYER_1
  2
AIGNBL010100F8
 10
0
 20
0
 30
0
  0
INSERT
  8
LAYER_1
  2
AIGNBL010100F9
 10
0
 20
0
 30
0
  0
INSERT
  8
LAYER_1
  2
AIGNBL010100FA
 10
0
 20
0
 30
0
  0
INSERT
  8
LAYER_1
  2
AIGNBL010100FB
 10
0
 20
0
 30
0
  0
INSERT
  8
LAYER_1
  2
AIGNBL010100FC
 10
0
 20
0
 30
0
  0
INSERT
  8
LAYER_1
  2
AIGNBL010100FD
 10
0
 20
0
 30
0
  0
INSERT
  8
LAYER_1
  2
AIGNBL010100FE
 10
0
 20
0
 30
0
  0
INSERT
  8
LAYER_1
  2
AIGNBL010100FF
 10
0
 20
0
 30
0
  0
INSERT
  8
LAYER_1
  2
AIGNBL01010100
 10
0
 20
0
 30
0
  0
INSERT
  8
LAYER_1
  2
AIGNBL01010101
 10
0
 20
0
 30
0
  0
INSERT
  8
LAYER_1
  2
AIGNBL01010102
 10
0
 20
0
 30
0
  0
INSERT
  8
LAYER_1
  2
AIGNBL01010103
 10
0
 20
0
 30
0
  0
INSERT
  8
LAYER_1
  2
AIGNBL01010104
 10
0
 20
0
 30
0
  0
INSERT
  8
LAYER_1
  2
AIGNBL01010105
 10
0
 20
0
 30
0
  0
INSERT
  8
LAYER_1
  2
AIGNBL01010106
 10
0
 20
0
 30
0
  0
INSERT
  8
LAYER_1
  2
AIGNBL01010107
 10
0
 20
0
 30
0
  0
INSERT
  8
LAYER_1
  2
AIGNBL010101F3
 10
0
 20
0
 30
0
  0
INSERT
  8
LAYER_1
  2
AIGNBL010101F8
 10
0
 20
0
 30
0
  0
INSERT
  8
LAYER_1
  2
AIGNBL010101FD
 10
0
 20
0
 30
0
  0
INSERT
  8
LAYER_1
  2
AIGNBL01010202
 10
0
 20
0
 30
0
  0
INSERT
  8
LAYER_1
  2
AIGNBL01010207
 10
0
 20
0
 30
0
  0
INSERT
  8
LAYER_1
  2
AIGNBL0101020C
 10
0
 20
0
 30
0
  0
INSERT
  8
LAYER_1
  2
AIGNBL01010211
 10
0
 20
0
 30
0
  0
INSERT
  8
LAYER_1
  2
AIGNBL01010216
 10
0
 20
0
 30
0
  0
INSERT
  8
LAYER_1
  2
AIGNBL0101021B
 10
0
 20
0
 30
0
  0
INSERT
  8
LAYER_1
  2
AIGNBL01010220
 10
0
 20
0
 30
0
  0
INSERT
  8
LAYER_1
  2
AIGNBL01010225
 10
0
 20
0
 30
0
  0
INSERT
  8
LAYER_1
  2
AIGNBL0101022A
 10
0
 20
0
 30
0
  0
INSERT
  8
LAYER_1
  2
AIGNBL0101022F
 10
0
 20
0
 30
0
  0
INSERT
  8
LAYER_1
  2
AIGNBL01010234
 10
0
 20
0
 30
0
  0
INSERT
  8
LAYER_1
  2
AIGNBL0101023D
 10
0
 20
0
 30
0
  0
TEXT
  8
LAYER_1
 10
185.4163
 20
215.7557
 11
185.4163
 21
215.7557
 40
3.6341
 41
0.5
  1
固定金具
  0
TEXT
  8
LAYER_1
 10
185.3071
 20
210.1016
 11
185.3071
 21
210.1016
 40
3.4135
 41
0.5
  1
材質：スチール製
  0
TEXT
  8
LAYER_1
 10
185.3071
 20
205.6016
 11
185.3071
 21
205.6016
 40
3.4135
 41
0.5
  1
付属部品：取付け木ネジ
  0
POLYLINE
  8
LAYER_1
 40
0.1058
 41
0.1058
 66
1
 10
0
 20
0
 30
0
  0
VERTEX
  8
LAYER_1
 10
20.5778
 20
87.8654
  0
VERTEX
  8
LAYER_1
 10
20.5778
 20
100.954
  0
SEQEND
  0
POLYLINE
  8
LAYER_1
 40
0.1058
 41
0.1058
 66
1
 10
0
 20
0
 30
0
  0
VERTEX
  8
LAYER_1
 10
78.6927
 20
100.954
  0
VERTEX
  8
LAYER_1
 10
20.5778
 20
100.954
  0
SEQEND
  0
POLYLINE
  8
LAYER_1
 40
0.1058
 41
0.1058
 66
1
 10
0
 20
0
 30
0
  0
VERTEX
  8
LAYER_1
 10
20.5778
 20
87.8654
  0
VERTEX
  8
LAYER_1
 10
18.6717
 20
87.8654
  0
SEQEND
  0
POLYLINE
  8
LAYER_1
 40
0.1058
 41
0.1058
 66
1
 10
0
 20
0
 30
0
  0
VERTEX
  8
LAYER_1
 10
78.6927
 20
100.954
  0
VERTEX
  8
LAYER_1
 10
78.6927
 20
102.8601
  0
SEQEND
  0
POLYLINE
  8
LAYER_1
 40
0.1058
 41
0.1058
 66
1
 10
0
 20
0
 30
0
  0
VERTEX
  8
LAYER_1
 10
22.4839
 20
100.954
  0
VERTEX
  8
LAYER_1
 10
20.5778
 20
99.069
  0
SEQEND
  0
POLYLINE
  8
LAYER_1
 40
0.1058
 41
0.1058
 66
1
 10
0
 20
0
 30
0
  0
VERTEX
  8
LAYER_1
 10
19.3706
 20
102.8601
 42
0.4141816542
  0
VERTEX
  8
LAYER_1
 10
18.6717
 20
102.1612
  0
SEQEND
  0
POLYLINE
  8
LAYER_1
 40
0.1058
 41
0.1058
 66
1
 10
0
 20
0
 30
0
  0
VERTEX
  8
LAYER_1
 10
78.6927
 20
102.8601
  0
VERTEX
  8
LAYER_1
 10
19.3706
 20
102.8601
  0
SEQEND
  0
POLYLINE
  8
LAYER_1
 40
0.1058
 41
0.1058
 66
1
 10
0
 20
0
 30
0
  0
VERTEX
  8
LAYER_1
 10
18.6717
 20
87.8654
  0
VERTEX
  8
LAYER_1
 10
18.6717
 20
102.1612
  0
SEQEND
  0
POLYLINE
  8
LAYER_1
 40
0.1058
 41
0.1058
 66
1
 10
0
 20
0
 30
0
  0
VERTEX
  8
LAYER_1
 10
13.3216
 20
87.8654
  0
VERTEX
  8
LAYER_1
 10
13.3216
 20
102.8601
  0
SEQEND
  0
TEXT
  8
LAYER_1
 10
11.8716
 20
92.989
 11
11.8716
 21
92.989
 40
5.1297
 41
0.5
 50
89.99999999
  1
150
  0
POLYLINE
  8
LAYER_1
 40
0.1058
 41
0.1058
 66
1
 10
0
 20
0
 30
0
  0
VERTEX
  8
LAYER_1
 10
15.0646
 20
87.8654
  0
VERTEX
  8
LAYER_1
 10
11.5783
 20
87.8654
  0
SEQEND
  0
POLYLINE
  8
LAYER_1
 40
0.1058
 41
0.1058
 66
1
 10
0
 20
0
 30
0
  0
VERTEX
  8
LAYER_1
 10
15.0646
 20
102.8601
  0
VERTEX
  8
LAYER_1
 10
11.5783
 20
102.8601
  0
SEQEND
  0
POLYLINE
  8
LAYER_1
 40
0.1058
 41
0.1058
 66
1
 10
0
 20
0
 30
0
  0
VERTEX
  8
LAYER_1
 10
78.6927
 20
108.7339
  0
VERTEX
  8
LAYER_1
 10
18.6717
 20
108.7339
  0
SEQEND
  0
POLYLINE
  8
LAYER_1
 40
0.1058
 41
0.1058
 66
1
 10
0
 20
0
 30
0
  0
VERTEX
  8
LAYER_1
 10
18.6717
 20
106.9907
  0
VERTEX
  8
LAYER_1
 10
18.6717
 20
110.4771
  0
SEQEND
  0
POLYLINE
  8
LAYER_1
 40
0.1058
 41
0.1058
 66
1
 10
0
 20
0
 30
0
  0
VERTEX
  8
LAYER_1
 10
78.6927
 20
106.9907
  0
VERTEX
  8
LAYER_1
 10
78.6927
 20
110.4771
  0
SEQEND
  0
TEXT
  8
LAYER_1
 10
46.2869
 20
109.5744
 11
46.2869
 21
109.5744
 40
5.1297
 41
0.5
  1
600
  0
POLYLINE
  8
LAYER_1
 40
0.1058
 41
0.1058
 66
1
 10
0
 20
0
 30
0
  0
VERTEX
  8
LAYER_1
 10
81.6726
 20
100.9539
  0
VERTEX
  8
LAYER_1
 10
81.6726
 20
102.8601
  0
SEQEND
  0
POLYLINE
  8
LAYER_1
 40
0.1058
 41
0.1058
 66
1
 10
0
 20
0
 30
0
  0
VERTEX
  8
LAYER_1
 10
83.4158
 20
102.8601
  0
VERTEX
  8
LAYER_1
 10
79.9295
 20
102.8601
  0
SEQEND
  0
POLYLINE
  8
LAYER_1
 40
0.1058
 41
0.1058
 66
1
 10
0
 20
0
 30
0
  0
VERTEX
  8
LAYER_1
 10
83.4158
 20
100.9539
  0
VERTEX
  8
LAYER_1
 10
79.9295
 20
100.9539
  0
SEQEND
  0
POLYLINE
  8
LAYER_1
 40
0.1058
 41
0.1058
 66
1
 10
0
 20
0
 30
0
  0
VERTEX
  8
LAYER_1
 10
20.5778
 20
84.2226
  0
VERTEX
  8
LAYER_1
 10
18.6717
 20
84.2226
  0
SEQEND
  0
POLYLINE
  8
LAYER_1
 40
0.1058
 41
0.1058
 66
1
 10
0
 20
0
 30
0
  0
VERTEX
  8
LAYER_1
 10
18.6717
 20
82.4794
  0
VERTEX
  8
LAYER_1
 10
18.6717
 20
85.9657
  0
SEQEND
  0
POLYLINE
  8
LAYER_1
 40
0.1058
 41
0.1058
 66
1
 10
0
 20
0
 30
0
  0
VERTEX
  8
LAYER_1
 10
20.5778
 20
82.4794
  0
VERTEX
  8
LAYER_1
 10
20.5778
 20
85.9657
  0
SEQEND
  0
TEXT
  8
LAYER_1
 10
17.869
 20
77.6717
 11
17.869
 21
77.6717
 40
5.1297
 41
0.5
  1
19
  0
TEXT
  8
LAYER_1
 10
84.6942
 20
100.4876
 11
84.6942
 21
100.4876
 40
5.1297
 41
0.5
  1
19
  0
POLYLINE
  8
LAYER_1
 40
0.1058
 41
0.1058
 66
1
 10
0
 20
0
 30
0
  0
VERTEX
  8
LAYER_1
 10
13.3346
 20
108.176
  0
VERTEX
  8
LAYER_1
 10
14.6477
 20
107.4347
  0
SEQEND
  0
POLYLINE
  8
LAYER_1
 40
0.1058
 41
0.1058
 66
1
 10
0
 20
0
 30
0
  0
VERTEX
  8
LAYER_1
 10
13.3346
 20
108.176
  0
VERTEX
  8
LAYER_1
 10
14.0971
 20
106.884
  0
SEQEND
  0
POLYLINE
  8
LAYER_1
 40
0.1058
 41
0.1058
 66
1
 10
0
 20
0
 30
0
  0
VERTEX
  8
LAYER_1
 10
13.3346
 20
108.176
  0
VERTEX
  8
LAYER_1
 10
17.9728
 20
103.559
  0
SEQEND
  0
TEXT
  8
LAYER_1
 10
9.6032
 20
109.0008
 11
9.6032
 21
109.0008
 40
5.1297
 41
0.5
  1
7R
  0
POLYLINE
  8
LAYER_1
 40
0.1058
 41
0.1058
 66
1
 10
0
 20
0
 30
0
  0
VERTEX
  8
LAYER_1
 10
77.8284
 20
174.089
  0
VERTEX
  8
LAYER_1
 10
77.5531
 20
174.0043
  0
SEQEND
  0
POLYLINE
  8
LAYER_1
 40
0.1058
 41
0.1058
 66
1
 10
0
 20
0
 30
0
  0
VERTEX
  8
LAYER_1
 10
77.8284
 20
174.089
  0
VERTEX
  8
LAYER_1
 10
77.5531
 20
174.1526
  0
SEQEND
  0
POLYLINE
  8
LAYER_1
 40
0.1058
 41
0.1058
 66
1
 10
0
 20
0
 30
0
  0
VERTEX
  8
LAYER_1
 10
31.8278
 20
174.0891
  0
VERTEX
  8
LAYER_1
 10
32.1243
 20
174.0043
  0
SEQEND
  0
POLYLINE
  8
LAYER_1
 40
0.1058
 41
0.1058
 66
1
 10
0
 20
0
 30
0
  0
VERTEX
  8
LAYER_1
 10
31.8278
 20
174.0891
  0
VERTEX
  8
LAYER_1
 10
32.1243
 20
174.1526
  0
SEQEND
  0
POLYLINE
  8
LAYER_1
 40
0.1058
 41
0.1058
 66
1
 10
0
 20
0
 30
0
  0
VERTEX
  8
LAYER_1
 10
54.8281
 20
156.087
  0
VERTEX
  8
LAYER_1
 10
54.8917
 20
156.3835
  0
SEQEND
  0
POLYLINE
  8
LAYER_1
 40
0.1058
 41
0.1058
 66
1
 10
0
 20
0
 30
0
  0
VERTEX
  8
LAYER_1
 10
54.8281
 20
156.087
  0
VERTEX
  8
LAYER_1
 10
54.7434
 20
156.3835
  0
SEQEND
  0
POLYLINE
  8
LAYER_1
 40
0.1058
 41
0.1058
 66
1
 10
0
 20
0
 30
0
  0
VERTEX
  8
LAYER_1
 10
54.8281
 20
192.0911
  0
VERTEX
  8
LAYER_1
 10
54.8917
 20
191.7946
  0
SEQEND
  0
POLYLINE
  8
LAYER_1
 40
0.1058
 41
0.1058
 66
1
 10
0
 20
0
 30
0
  0
VERTEX
  8
LAYER_1
 10
54.8281
 20
192.0911
  0
VERTEX
  8
LAYER_1
 10
54.7434
 20
191.7946
  0
SEQEND
  0
POLYLINE
  8
LAYER_1
 40
0.1058
 41
0.1058
 66
1
 10
0
 20
0
 30
0
  0
VERTEX
  8
LAYER_1
 10
77.8284
 20
174.089
  0
VERTEX
  8
LAYER_1
 10
77.8284
 20
174.5338
  0
SEQEND
  0
POLYLINE
  8
LAYER_1
 40
0.1058
 41
0.1058
 66
1
 10
0
 20
0
 30
0
  0
VERTEX
  8
LAYER_1
 10
77.8284
 20
174.5338
  0
VERTEX
  8
LAYER_1
 10
77.8072
 20
174.9786
  0
SEQEND
  0
POLYLINE
  8
LAYER_1
 40
0.1058
 41
0.1058
 66
1
 10
0
 20
0
 30
0
  0
VERTEX
  8
LAYER_1
 10
77.8072
 20
174.9786
  0
VERTEX
  8
LAYER_1
 10
77.7649
 20
175.4233
  0
SEQEND
  0
POLYLINE
  8
LAYER_1
 40
0.1058
 41
0.1058
 66
1
 10
0
 20
0
 30
0
  0
VERTEX
  8
LAYER_1
 10
77.7649
 20
175.4233
  0
VERTEX
  8
LAYER_1
 10
77.7225
 20
175.8681
  0
SEQEND
  0
POLYLINE
  8
LAYER_1
 40
0.1058
 41
0.1058
 66
1
 10
0
 20
0
 30
0
  0
VERTEX
  8
LAYER_1
 10
77.7225
 20
175.8681
  0
VERTEX
  8
LAYER_1
 10
77.659
 20
176.334
  0
SEQEND
  0
POLYLINE
  8
LAYER_1
 40
0.1058
 41
0.1058
 66
1
 10
0
 20
0
 30
0
  0
VERTEX
  8
LAYER_1
 10
77.659
 20
176.334
  0
VERTEX
  8
LAYER_1
 10
77.5742
 20
176.7788
  0
SEQEND
  0
POLYLINE
  8
LAYER_1
 40
0.1058
 41
0.1058
 66
1
 10
0
 20
0
 30
0
  0
VERTEX
  8
LAYER_1
 10
77.5742
 20
176.7788
  0
VERTEX
  8
LAYER_1
 10
77.4895
 20
177.2235
  0
SEQEND
  0
POLYLINE
  8
LAYER_1
 40
0.1058
 41
0.1058
 66
1
 10
0
 20
0
 30
0
  0
VERTEX
  8
LAYER_1
 10
77.4895
 20
177.2235
  0
VERTEX
  8
LAYER_1
 10
77.3836
 20
177.6471
  0
SEQEND
  0
POLYLINE
  8
LAYER_1
 40
0.1058
 41
0.1058
 66
1
 10
0
 20
0
 30
0
  0
VERTEX
  8
LAYER_1
 10
77.3836
 20
177.6471
  0
VERTEX
  8
LAYER_1
 10
77.2566
 20
178.0919
  0
SEQEND
  0
POLYLINE
  8
LAYER_1
 40
0.1058
 41
0.1058
 66
1
 10
0
 20
0
 30
0
  0
VERTEX
  8
LAYER_1
 10
77.2566
 20
178.0919
  0
VERTEX
  8
LAYER_1
 10
77.1295
 20
178.5366
  0
SEQEND
  0
POLYLINE
  8
LAYER_1
 40
0.1058
 41
0.1058
 66
1
 10
0
 20
0
 30
0
  0
VERTEX
  8
LAYER_1
 10
77.1295
 20
178.5366
  0
VERTEX
  8
LAYER_1
 10
76.9812
 20
178.9602
  0
SEQEND
  0
POLYLINE
  8
LAYER_1
 40
0.1058
 41
0.1058
 66
1
 10
0
 20
0
 30
0
  0
VERTEX
  8
LAYER_1
 10
76.9812
 20
178.9602
  0
VERTEX
  8
LAYER_1
 10
76.8118
 20
179.405
  0
SEQEND
  0
POLYLINE
  8
LAYER_1
 40
0.1058
 41
0.1058
 66
1
 10
0
 20
0
 30
0
  0
VERTEX
  8
LAYER_1
 10
76.8118
 20
179.405
  0
VERTEX
  8
LAYER_1
 10
76.6212
 20
179.8285
  0
SEQEND
  0
POLYLINE
  8
LAYER_1
 40
0.1058
 41
0.1058
 66
1
 10
0
 20
0
 30
0
  0
VERTEX
  8
LAYER_1
 10
76.6212
 20
179.8285
  0
VERTEX
  8
LAYER_1
 10
76.4306
 20
180.2521
  0
SEQEND
  0
POLYLINE
  8
LAYER_1
 40
0.1058
 41
0.1058
 66
1
 10
0
 20
0
 30
0
  0
VERTEX
  8
LAYER_1
 10
76.4306
 20
180.2521
  0
VERTEX
  8
LAYER_1
 10
76.24
 20
180.6757
  0
SEQEND
  0
POLYLINE
  8
LAYER_1
 40
0.1058
 41
0.1058
 66
1
 10
0
 20
0
 30
0
  0
VERTEX
  8
LAYER_1
 10
76.24
 20
180.6757
  0
VERTEX
  8
LAYER_1
 10
76.0282
 20
181.0993
  0
SEQEND
  0
POLYLINE
  8
LAYER_1
 40
0.1058
 41
0.1058
 66
1
 10
0
 20
0
 30
0
  0
VERTEX
  8
LAYER_1
 10
76.0282
 20
181.0993
  0
VERTEX
  8
LAYER_1
 10
75.7952
 20
181.5017
  0
SEQEND
  0
POLYLINE
  8
LAYER_1
 40
0.1058
 41
0.1058
 66
1
 10
0
 20
0
 30
0
  0
VERTEX
  8
LAYER_1
 10
75.7952
 20
181.5017
  0
VERTEX
  8
LAYER_1
 10
75.5411
 20
181.9041
  0
SEQEND
  0
POLYLINE
  8
LAYER_1
 40
0.1058
 41
0.1058
 66
1
 10
0
 20
0
 30
0
  0
VERTEX
  8
LAYER_1
 10
75.5411
 20
181.9041
  0
VERTEX
  8
LAYER_1
 10
75.2869
 20
182.3065
  0
SEQEND
  0
POLYLINE
  8
LAYER_1
 40
0.1058
 41
0.1058
 66
1
 10
0
 20
0
 30
0
  0
VERTEX
  8
LAYER_1
 10
75.2869
 20
182.3065
  0
VERTEX
  8
LAYER_1
 10
75.0116
 20
182.7089
  0
SEQEND
  0
POLYLINE
  8
LAYER_1
 40
0.1058
 41
0.1058
 66
1
 10
0
 20
0
 30
0
  0
VERTEX
  8
LAYER_1
 10
75.0116
 20
182.7089
  0
VERTEX
  8
LAYER_1
 10
74.7363
 20
183.1113
  0
SEQEND
  0
POLYLINE
  8
LAYER_1
 40
0.1058
 41
0.1058
 66
1
 10
0
 20
0
 30
0
  0
VERTEX
  8
LAYER_1
 10
74.7363
 20
183.1113
  0
VERTEX
  8
LAYER_1
 10
74.4398
 20
183.4925
  0
SEQEND
  0
POLYLINE
  8
LAYER_1
 40
0.1058
 41
0.1058
 66
1
 10
0
 20
0
 30
0
  0
VERTEX
  8
LAYER_1
 10
74.4398
 20
183.4925
  0
VERTEX
  8
LAYER_1
 10
74.1433
 20
183.8737
  0
SEQEND
  0
POLYLINE
  8
LAYER_1
 40
0.1058
 41
0.1058
 66
1
 10
0
 20
0
 30
0
  0
VERTEX
  8
LAYER_1
 10
74.1433
 20
183.8737
  0
VERTEX
  8
LAYER_1
 10
73.8256
 20
184.2549
  0
SEQEND
  0
POLYLINE
  8
LAYER_1
 40
0.1058
 41
0.1058
 66
1
 10
0
 20
0
 30
0
  0
VERTEX
  8
LAYER_1
 10
73.8256
 20
184.2549
  0
VERTEX
  8
LAYER_1
 10
73.4867
 20
184.615
  0
SEQEND
  0
POLYLINE
  8
LAYER_1
 40
0.1058
 41
0.1058
 66
1
 10
0
 20
0
 30
0
  0
VERTEX
  8
LAYER_1
 10
73.4867
 20
184.615
  0
VERTEX
  8
LAYER_1
 10
73.1479
 20
184.975
  0
SEQEND
  0
POLYLINE
  8
LAYER_1
 40
0.1058
 41
0.1058
 66
1
 10
0
 20
0
 30
0
  0
VERTEX
  8
LAYER_1
 10
73.1479
 20
184.975
  0
VERTEX
  8
LAYER_1
 10
72.7878
 20
185.335
  0
SEQEND
  0
POLYLINE
  8
LAYER_1
 40
0.1058
 41
0.1058
 66
1
 10
0
 20
0
 30
0
  0
VERTEX
  8
LAYER_1
 10
72.7878
 20
185.335
  0
VERTEX
  8
LAYER_1
 10
72.4278
 20
185.6739
  0
SEQEND
  0
POLYLINE
  8
LAYER_1
 40
0.1058
 41
0.1058
 66
1
 10
0
 20
0
 30
0
  0
VERTEX
  8
LAYER_1
 10
72.4278
 20
185.6739
  0
VERTEX
  8
LAYER_1
 10
72.0466
 20
186.0128
  0
SEQEND
  0
POLYLINE
  8
LAYER_1
 40
0.1058
 41
0.1058
 66
1
 10
0
 20
0
 30
0
  0
VERTEX
  8
LAYER_1
 10
72.0466
 20
186.0128
  0
VERTEX
  8
LAYER_1
 10
71.6653
 20
186.3516
  0
SEQEND
  0
POLYLINE
  8
LAYER_1
 40
0.1058
 41
0.1058
 66
1
 10
0
 20
0
 30
0
  0
VERTEX
  8
LAYER_1
 10
71.6653
 20
186.3516
  0
VERTEX
  8
LAYER_1
 10
71.2629
 20
186.6905
  0
SEQEND
  0
POLYLINE
  8
LAYER_1
 40
0.1058
 41
0.1058
 66
1
 10
0
 20
0
 30
0
  0
VERTEX
  8
LAYER_1
 10
71.2629
 20
186.6905
  0
VERTEX
  8
LAYER_1
 10
70.8605
 20
187.0082
  0
SEQEND
  0
POLYLINE
  8
LAYER_1
 40
0.1058
 41
0.1058
 66
1
 10
0
 20
0
 30
0
  0
VERTEX
  8
LAYER_1
 10
70.8605
 20
187.0082
  0
VERTEX
  8
LAYER_1
 10
70.437
 20
187.3047
  0
SEQEND
  0
POLYLINE
  8
LAYER_1
 40
0.1058
 41
0.1058
 66
1
 10
0
 20
0
 30
0
  0
VERTEX
  8
LAYER_1
 10
70.437
 20
187.3047
  0
VERTEX
  8
LAYER_1
 10
70.0134
 20
187.6012
  0
SEQEND
  0
POLYLINE
  8
LAYER_1
 40
0.1058
 41
0.1058
 66
1
 10
0
 20
0
 30
0
  0
VERTEX
  8
LAYER_1
 10
70.0134
 20
187.6012
  0
VERTEX
  8
LAYER_1
 10
69.5686
 20
187.8977
  0
SEQEND
  0
POLYLINE
  8
LAYER_1
 40
0.1058
 41
0.1058
 66
1
 10
0
 20
0
 30
0
  0
VERTEX
  8
LAYER_1
 10
69.5686
 20
187.8977
  0
VERTEX
  8
LAYER_1
 10
69.1239
 20
188.1942
  0
SEQEND
  0
POLYLINE
  8
LAYER_1
 40
0.1058
 41
0.1058
 66
1
 10
0
 20
0
 30
0
  0
VERTEX
  8
LAYER_1
 10
69.1239
 20
188.1942
  0
VERTEX
  8
LAYER_1
 10
68.6791
 20
188.4695
  0
SEQEND
  0
POLYLINE
  8
LAYER_1
 40
0.1058
 41
0.1058
 66
1
 10
0
 20
0
 30
0
  0
VERTEX
  8
LAYER_1
 10
68.6791
 20
188.4695
  0
VERTEX
  8
LAYER_1
 10
68.2132
 20
188.7237
  0
SEQEND
  0
POLYLINE
  8
LAYER_1
 40
0.1058
 41
0.1058
 66
1
 10
0
 20
0
 30
0
  0
VERTEX
  8
LAYER_1
 10
68.2132
 20
188.7237
  0
VERTEX
  8
LAYER_1
 10
67.7261
 20
188.9778
  0
SEQEND
  0
POLYLINE
  8
LAYER_1
 40
0.1058
 41
0.1058
 66
1
 10
0
 20
0
 30
0
  0
VERTEX
  8
LAYER_1
 10
67.7261
 20
188.9778
  0
VERTEX
  8
LAYER_1
 10
67.2601
 20
189.232
  0
SEQEND
  0
POLYLINE
  8
LAYER_1
 40
0.1058
 41
0.1058
 66
1
 10
0
 20
0
 30
0
  0
VERTEX
  8
LAYER_1
 10
67.2601
 20
189.232
  0
VERTEX
  8
LAYER_1
 10
66.773
 20
189.4649
  0
SEQEND
  0
POLYLINE
  8
LAYER_1
 40
0.1058
 41
0.1058
 66
1
 10
0
 20
0
 30
0
  0
VERTEX
  8
LAYER_1
 10
66.773
 20
189.4649
  0
VERTEX
  8
LAYER_1
 10
66.2647
 20
189.6979
  0
SEQEND
  0
POLYLINE
  8
LAYER_1
 40
0.1058
 41
0.1058
 66
1
 10
0
 20
0
 30
0
  0
VERTEX
  8
LAYER_1
 10
66.2647
 20
189.6979
  0
VERTEX
  8
LAYER_1
 10
65.7776
 20
189.9309
  0
SEQEND
  0
POLYLINE
  8
LAYER_1
 40
0.1058
 41
0.1058
 66
1
 10
0
 20
0
 30
0
  0
VERTEX
  8
LAYER_1
 10
65.7776
 20
189.9309
  0
VERTEX
  8
LAYER_1
 10
65.2693
 20
190.1215
  0
SEQEND
  0
POLYLINE
  8
LAYER_1
 40
0.1058
 41
0.1058
 66
1
 10
0
 20
0
 30
0
  0
VERTEX
  8
LAYER_1
 10
65.2693
 20
190.1215
  0
VERTEX
  8
LAYER_1
 10
64.7398
 20
190.3333
  0
SEQEND
  0
POLYLINE
  8
LAYER_1
 40
0.1058
 41
0.1058
 66
1
 10
0
 20
0
 30
0
  0
VERTEX
  8
LAYER_1
 10
64.7398
 20
190.3333
  0
VERTEX
  8
LAYER_1
 10
64.2316
 20
190.5239
  0
SEQEND
  0
POLYLINE
  8
LAYER_1
 40
0.1058
 41
0.1058
 66
1
 10
0
 20
0
 30
0
  0
VERTEX
  8
LAYER_1
 10
64.2316
 20
190.5239
  0
VERTEX
  8
LAYER_1
 10
63.7021
 20
190.6933
  0
SEQEND
  0
POLYLINE
  8
LAYER_1
 40
0.1058
 41
0.1058
 66
1
 10
0
 20
0
 30
0
  0
VERTEX
  8
LAYER_1
 10
63.7021
 20
190.6933
  0
VERTEX
  8
LAYER_1
 10
63.1514
 20
190.8627
  0
SEQEND
  0
POLYLINE
  8
LAYER_1
 40
0.1058
 41
0.1058
 66
1
 10
0
 20
0
 30
0
  0
VERTEX
  8
LAYER_1
 10
63.1514
 20
190.8627
  0
VERTEX
  8
LAYER_1
 10
62.622
 20
191.0322
  0
SEQEND
  0
POLYLINE
  8
LAYER_1
 40
0.1058
 41
0.1058
 66
1
 10
0
 20
0
 30
0
  0
VERTEX
  8
LAYER_1
 10
62.622
 20
191.0322
  0
VERTEX
  8
LAYER_1
 10
62.0713
 20
191.1804
  0
SEQEND
  0
POLYLINE
  8
LAYER_1
 40
0.1058
 41
0.1058
 66
1
 10
0
 20
0
 30
0
  0
VERTEX
  8
LAYER_1
 10
62.0713
 20
191.1804
  0
VERTEX
  8
LAYER_1
 10
61.5206
 20
191.3075
  0
SEQEND
  0
POLYLINE
  8
LAYER_1
 40
0.1058
 41
0.1058
 66
1
 10
0
 20
0
 30
0
  0
VERTEX
  8
LAYER_1
 10
61.5206
 20
191.3075
  0
VERTEX
  8
LAYER_1
 10
60.97
 20
191.4346
  0
SEQEND
  0
POLYLINE
  8
LAYER_1
 40
0.1058
 41
0.1058
 66
1
 10
0
 20
0
 30
0
  0
VERTEX
  8
LAYER_1
 10
60.97
 20
191.4346
  0
VERTEX
  8
LAYER_1
 10
60.4193
 20
191.5405
  0
SEQEND
  0
POLYLINE
  8
LAYER_1
 40
0.1058
 41
0.1058
 66
1
 10
0
 20
0
 30
0
  0
VERTEX
  8
LAYER_1
 10
60.4193
 20
191.5405
  0
VERTEX
  8
LAYER_1
 10
59.8687
 20
191.6464
  0
SEQEND
  0
POLYLINE
  8
LAYER_1
 40
0.1058
 41
0.1058
 66
1
 10
0
 20
0
 30
0
  0
VERTEX
  8
LAYER_1
 10
59.8687
 20
191.6464
  0
VERTEX
  8
LAYER_1
 10
59.2969
 20
191.7523
  0
SEQEND
  0
POLYLINE
  8
LAYER_1
 40
0.1058
 41
0.1058
 66
1
 10
0
 20
0
 30
0
  0
VERTEX
  8
LAYER_1
 10
59.2969
 20
191.7523
  0
VERTEX
  8
LAYER_1
 10
58.725
 20
191.837
  0
SEQEND
  0
POLYLINE
  8
LAYER_1
 40
0.1058
 41
0.1058
 66
1
 10
0
 20
0
 30
0
  0
VERTEX
  8
LAYER_1
 10
58.725
 20
191.837
  0
VERTEX
  8
LAYER_1
 10
58.1744
 20
191.9005
  0
SEQEND
  0
POLYLINE
  8
LAYER_1
 40
0.1058
 41
0.1058
 66
1
 10
0
 20
0
 30
0
  0
VERTEX
  8
LAYER_1
 10
58.1744
 20
191.9005
  0
VERTEX
  8
LAYER_1
 10
57.6026
 20
191.964
  0
SEQEND
  0
POLYLINE
  8
LAYER_1
 40
0.1058
 41
0.1058
 66
1
 10
0
 20
0
 30
0
  0
VERTEX
  8
LAYER_1
 10
57.6026
 20
191.964
  0
VERTEX
  8
LAYER_1
 10
57.0307
 20
192.0064
  0
SEQEND
  0
POLYLINE
  8
LAYER_1
 40
0.1058
 41
0.1058
 66
1
 10
0
 20
0
 30
0
  0
VERTEX
  8
LAYER_1
 10
57.0307
 20
192.0064
  0
VERTEX
  8
LAYER_1
 10
56.4589
 20
192.0488
  0
SEQEND
  0
POLYLINE
  8
LAYER_1
 40
0.1058
 41
0.1058
 66
1
 10
0
 20
0
 30
0
  0
VERTEX
  8
LAYER_1
 10
56.4589
 20
192.0488
  0
VERTEX
  8
LAYER_1
 10
55.8659
 20
192.0699
  0
SEQEND
  0
POLYLINE
  8
LAYER_1
 40
0.1058
 41
0.1058
 66
1
 10
0
 20
0
 30
0
  0
VERTEX
  8
LAYER_1
 10
55.8659
 20
192.0699
  0
VERTEX
  8
LAYER_1
 10
55.2941
 20
192.0911
  0
SEQEND
  0
POLYLINE
  8
LAYER_1
 40
0.1058
 41
0.1058
 66
1
 10
0
 20
0
 30
0
  0
VERTEX
  8
LAYER_1
 10
55.2941
 20
192.0911
  0
VERTEX
  8
LAYER_1
 10
54.7222
 20
192.0911
  0
SEQEND
  0
POLYLINE
  8
LAYER_1
 40
0.1058
 41
0.1058
 66
1
 10
0
 20
0
 30
0
  0
VERTEX
  8
LAYER_1
 10
54.7222
 20
192.0911
  0
VERTEX
  8
LAYER_1
 10
54.1504
 20
192.0911
  0
SEQEND
  0
POLYLINE
  8
LAYER_1
 40
0.1058
 41
0.1058
 66
1
 10
0
 20
0
 30
0
  0
VERTEX
  8
LAYER_1
 10
54.1504
 20
192.0911
  0
VERTEX
  8
LAYER_1
 10
53.5786
 20
192.0699
  0
SEQEND
  0
POLYLINE
  8
LAYER_1
 40
0.1058
 41
0.1058
 66
1
 10
0
 20
0
 30
0
  0
VERTEX
  8
LAYER_1
 10
53.5786
 20
192.0699
  0
VERTEX
  8
LAYER_1
 10
53.0067
 20
192.0276
  0
SEQEND
  0
POLYLINE
  8
LAYER_1
 40
0.1058
 41
0.1058
 66
1
 10
0
 20
0
 30
0
  0
VERTEX
  8
LAYER_1
 10
53.0067
 20
192.0276
  0
VERTEX
  8
LAYER_1
 10
52.4349
 20
191.9852
  0
SEQEND
  0
POLYLINE
  8
LAYER_1
 40
0.1058
 41
0.1058
 66
1
 10
0
 20
0
 30
0
  0
VERTEX
  8
LAYER_1
 10
52.4349
 20
191.9852
  0
VERTEX
  8
LAYER_1
 10
51.8631
 20
191.9429
  0
SEQEND
  0
POLYLINE
  8
LAYER_1
 40
0.1058
 41
0.1058
 66
1
 10
0
 20
0
 30
0
  0
VERTEX
  8
LAYER_1
 10
51.8631
 20
191.9429
  0
VERTEX
  8
LAYER_1
 10
51.2912
 20
191.8793
  0
SEQEND
  0
POLYLINE
  8
LAYER_1
 40
0.1058
 41
0.1058
 66
1
 10
0
 20
0
 30
0
  0
VERTEX
  8
LAYER_1
 10
51.2912
 20
191.8793
  0
VERTEX
  8
LAYER_1
 10
50.7194
 20
191.7946
  0
SEQEND
  0
POLYLINE
  8
LAYER_1
 40
0.1058
 41
0.1058
 66
1
 10
0
 20
0
 30
0
  0
VERTEX
  8
LAYER_1
 10
50.7194
 20
191.7946
  0
VERTEX
  8
LAYER_1
 10
50.1476
 20
191.7099
  0
SEQEND
  0
POLYLINE
  8
LAYER_1
 40
0.1058
 41
0.1058
 66
1
 10
0
 20
0
 30
0
  0
VERTEX
  8
LAYER_1
 10
50.1476
 20
191.7099
  0
VERTEX
  8
LAYER_1
 10
49.5969
 20
191.6252
  0
SEQEND
  0
POLYLINE
  8
LAYER_1
 40
0.1058
 41
0.1058
 66
1
 10
0
 20
0
 30
0
  0
VERTEX
  8
LAYER_1
 10
49.5969
 20
191.6252
  0
VERTEX
  8
LAYER_1
 10
49.0251
 20
191.5193
  0
SEQEND
  0
POLYLINE
  8
LAYER_1
 40
0.1058
 41
0.1058
 66
1
 10
0
 20
0
 30
0
  0
VERTEX
  8
LAYER_1
 10
49.0251
 20
191.5193
  0
VERTEX
  8
LAYER_1
 10
48.4744
 20
191.3922
  0
SEQEND
  0
POLYLINE
  8
LAYER_1
 40
0.1058
 41
0.1058
 66
1
 10
0
 20
0
 30
0
  0
VERTEX
  8
LAYER_1
 10
48.4744
 20
191.3922
  0
VERTEX
  8
LAYER_1
 10
47.9238
 20
191.2651
  0
SEQEND
  0
POLYLINE
  8
LAYER_1
 40
0.1058
 41
0.1058
 66
1
 10
0
 20
0
 30
0
  0
VERTEX
  8
LAYER_1
 10
47.9238
 20
191.2651
  0
VERTEX
  8
LAYER_1
 10
47.3731
 20
191.1169
  0
SEQEND
  0
POLYLINE
  8
LAYER_1
 40
0.1058
 41
0.1058
 66
1
 10
0
 20
0
 30
0
  0
VERTEX
  8
LAYER_1
 10
47.3731
 20
191.1169
  0
VERTEX
  8
LAYER_1
 10
46.8437
 20
190.9686
  0
SEQEND
  0
POLYLINE
  8
LAYER_1
 40
0.1058
 41
0.1058
 66
1
 10
0
 20
0
 30
0
  0
VERTEX
  8
LAYER_1
 10
46.8437
 20
190.9686
  0
VERTEX
  8
LAYER_1
 10
46.3142
 20
190.8204
  0
SEQEND
  0
POLYLINE
  8
LAYER_1
 40
0.1058
 41
0.1058
 66
1
 10
0
 20
0
 30
0
  0
VERTEX
  8
LAYER_1
 10
46.3142
 20
190.8204
  0
VERTEX
  8
LAYER_1
 10
45.7847
 20
190.6298
  0
SEQEND
  0
POLYLINE
  8
LAYER_1
 40
0.1058
 41
0.1058
 66
1
 10
0
 20
0
 30
0
  0
VERTEX
  8
LAYER_1
 10
45.7847
 20
190.6298
  0
VERTEX
  8
LAYER_1
 10
45.2553
 20
190.4603
  0
SEQEND
  0
POLYLINE
  8
LAYER_1
 40
0.1058
 41
0.1058
 66
1
 10
0
 20
0
 30
0
  0
VERTEX
  8
LAYER_1
 10
45.2553
 20
190.4603
  0
VERTEX
  8
LAYER_1
 10
44.747
 20
190.2697
  0
SEQEND
  0
POLYLINE
  8
LAYER_1
 40
0.1058
 41
0.1058
 66
1
 10
0
 20
0
 30
0
  0
VERTEX
  8
LAYER_1
 10
44.747
 20
190.2697
  0
VERTEX
  8
LAYER_1
 10
44.2387
 20
190.0579
  0
SEQEND
  0
POLYLINE
  8
LAYER_1
 40
0.1058
 41
0.1058
 66
1
 10
0
 20
0
 30
0
  0
VERTEX
  8
LAYER_1
 10
44.2387
 20
190.0579
  0
VERTEX
  8
LAYER_1
 10
43.7304
 20
189.8462
  0
SEQEND
  0
POLYLINE
  8
LAYER_1
 40
0.1058
 41
0.1058
 66
1
 10
0
 20
0
 30
0
  0
VERTEX
  8
LAYER_1
 10
43.7304
 20
189.8462
  0
VERTEX
  8
LAYER_1
 10
43.2221
 20
189.6344
  0
SEQEND
  0
POLYLINE
  8
LAYER_1
 40
0.1058
 41
0.1058
 66
1
 10
0
 20
0
 30
0
  0
VERTEX
  8
LAYER_1
 10
43.2221
 20
189.6344
  0
VERTEX
  8
LAYER_1
 10
42.735
 20
189.4014
  0
SEQEND
  0
POLYLINE
  8
LAYER_1
 40
0.1058
 41
0.1058
 66
1
 10
0
 20
0
 30
0
  0
VERTEX
  8
LAYER_1
 10
42.735
 20
189.4014
  0
VERTEX
  8
LAYER_1
 10
42.2479
 20
189.1472
  0
SEQEND
  0
POLYLINE
  8
LAYER_1
 40
0.1058
 41
0.1058
 66
1
 10
0
 20
0
 30
0
  0
VERTEX
  8
LAYER_1
 10
42.2479
 20
189.1472
  0
VERTEX
  8
LAYER_1
 10
41.7607
 20
188.8931
  0
SEQEND
  0
POLYLINE
  8
LAYER_1
 40
0.1058
 41
0.1058
 66
1
 10
0
 20
0
 30
0
  0
VERTEX
  8
LAYER_1
 10
41.7607
 20
188.8931
  0
VERTEX
  8
LAYER_1
 10
41.2948
 20
188.639
  0
SEQEND
  0
POLYLINE
  8
LAYER_1
 40
0.1058
 41
0.1058
 66
1
 10
0
 20
0
 30
0
  0
VERTEX
  8
LAYER_1
 10
41.2948
 20
188.639
  0
VERTEX
  8
LAYER_1
 10
40.8289
 20
188.3636
  0
SEQEND
  0
POLYLINE
  8
LAYER_1
 40
0.1058
 41
0.1058
 66
1
 10
0
 20
0
 30
0
  0
VERTEX
  8
LAYER_1
 10
40.8289
 20
188.3636
  0
VERTEX
  8
LAYER_1
 10
40.3841
 20
188.0883
  0
SEQEND
  0
POLYLINE
  8
LAYER_1
 40
0.1058
 41
0.1058
 66
1
 10
0
 20
0
 30
0
  0
VERTEX
  8
LAYER_1
 10
40.3841
 20
188.0883
  0
VERTEX
  8
LAYER_1
 10
39.9394
 20
187.813
  0
SEQEND
  0
POLYLINE
  8
LAYER_1
 40
0.1058
 41
0.1058
 66
1
 10
0
 20
0
 30
0
  0
VERTEX
  8
LAYER_1
 10
39.9394
 20
187.813
  0
VERTEX
  8
LAYER_1
 10
39.5158
 20
187.5165
  0
SEQEND
  0
POLYLINE
  8
LAYER_1
 40
0.1058
 41
0.1058
 66
1
 10
0
 20
0
 30
0
  0
VERTEX
  8
LAYER_1
 10
39.5158
 20
187.5165
  0
VERTEX
  8
LAYER_1
 10
39.0922
 20
187.1988
  0
SEQEND
  0
POLYLINE
  8
LAYER_1
 40
0.1058
 41
0.1058
 66
1
 10
0
 20
0
 30
0
  0
VERTEX
  8
LAYER_1
 10
39.0922
 20
187.1988
  0
VERTEX
  8
LAYER_1
 10
38.6686
 20
186.9023
  0
SEQEND
  0
POLYLINE
  8
LAYER_1
 40
0.1058
 41
0.1058
 66
1
 10
0
 20
0
 30
0
  0
VERTEX
  8
LAYER_1
 10
38.6686
 20
186.9023
  0
VERTEX
  8
LAYER_1
 10
38.2662
 20
186.5634
  0
SEQEND
  0
POLYLINE
  8
LAYER_1
 40
0.1058
 41
0.1058
 66
1
 10
0
 20
0
 30
0
  0
VERTEX
  8
LAYER_1
 10
38.2662
 20
186.5634
  0
VERTEX
  8
LAYER_1
 10
37.8638
 20
186.2457
  0
SEQEND
  0
POLYLINE
  8
LAYER_1
 40
0.1058
 41
0.1058
 66
1
 10
0
 20
0
 30
0
  0
VERTEX
  8
LAYER_1
 10
37.8638
 20
186.2457
  0
VERTEX
  8
LAYER_1
 10
37.4826
 20
185.9069
  0
SEQEND
  0
POLYLINE
  8
LAYER_1
 40
0.1058
 41
0.1058
 66
1
 10
0
 20
0
 30
0
  0
VERTEX
  8
LAYER_1
 10
37.4826
 20
185.9069
  0
VERTEX
  8
LAYER_1
 10
37.1226
 20
185.568
  0
SEQEND
  0
POLYLINE
  8
LAYER_1
 40
0.1058
 41
0.1058
 66
1
 10
0
 20
0
 30
0
  0
VERTEX
  8
LAYER_1
 10
37.1226
 20
185.568
  0
VERTEX
  8
LAYER_1
 10
36.7625
 20
185.208
  0
SEQEND
  0
POLYLINE
  8
LAYER_1
 40
0.1058
 41
0.1058
 66
1
 10
0
 20
0
 30
0
  0
VERTEX
  8
LAYER_1
 10
36.7625
 20
185.208
  0
VERTEX
  8
LAYER_1
 10
36.4025
 20
184.8479
  0
SEQEND
  0
POLYLINE
  8
LAYER_1
 40
0.1058
 41
0.1058
 66
1
 10
0
 20
0
 30
0
  0
VERTEX
  8
LAYER_1
 10
36.4025
 20
184.8479
  0
VERTEX
  8
LAYER_1
 10
36.0636
 20
184.4879
  0
SEQEND
  0
POLYLINE
  8
LAYER_1
 40
0.1058
 41
0.1058
 66
1
 10
0
 20
0
 30
0
  0
VERTEX
  8
LAYER_1
 10
36.0636
 20
184.4879
  0
VERTEX
  8
LAYER_1
 10
35.7459
 20
184.1279
  0
SEQEND
  0
POLYLINE
  8
LAYER_1
 40
0.1058
 41
0.1058
 66
1
 10
0
 20
0
 30
0
  0
VERTEX
  8
LAYER_1
 10
35.7459
 20
184.1279
  0
VERTEX
  8
LAYER_1
 10
35.4282
 20
183.7466
  0
SEQEND
  0
POLYLINE
  8
LAYER_1
 40
0.1058
 41
0.1058
 66
1
 10
0
 20
0
 30
0
  0
VERTEX
  8
LAYER_1
 10
35.4282
 20
183.7466
  0
VERTEX
  8
LAYER_1
 10
35.1106
 20
183.3654
  0
SEQEND
  0
POLYLINE
  8
LAYER_1
 40
0.1058
 41
0.1058
 66
1
 10
0
 20
0
 30
0
  0
VERTEX
  8
LAYER_1
 10
35.1106
 20
183.3654
  0
VERTEX
  8
LAYER_1
 10
34.8352
 20
182.9842
  0
SEQEND
  0
POLYLINE
  8
LAYER_1
 40
0.1058
 41
0.1058
 66
1
 10
0
 20
0
 30
0
  0
VERTEX
  8
LAYER_1
 10
34.8352
 20
182.9842
  0
VERTEX
  8
LAYER_1
 10
34.5599
 20
182.5818
  0
SEQEND
  0
POLYLINE
  8
LAYER_1
 40
0.1058
 41
0.1058
 66
1
 10
0
 20
0
 30
0
  0
VERTEX
  8
LAYER_1
 10
34.5599
 20
182.5818
  0
VERTEX
  8
LAYER_1
 10
34.2846
 20
182.1794
  0
SEQEND
  0
POLYLINE
  8
LAYER_1
 40
0.1058
 41
0.1058
 66
1
 10
0
 20
0
 30
0
  0
VERTEX
  8
LAYER_1
 10
34.2846
 20
182.1794
  0
VERTEX
  8
LAYER_1
 10
34.0304
 20
181.777
  0
SEQEND
  0
POLYLINE
  8
LAYER_1
 40
0.1058
 41
0.1058
 66
1
 10
0
 20
0
 30
0
  0
VERTEX
  8
LAYER_1
 10
34.0304
 20
181.777
  0
VERTEX
  8
LAYER_1
 10
33.7975
 20
181.3746
  0
SEQEND
  0
POLYLINE
  8
LAYER_1
 40
0.1058
 41
0.1058
 66
1
 10
0
 20
0
 30
0
  0
VERTEX
  8
LAYER_1
 10
33.7975
 20
181.3746
  0
VERTEX
  8
LAYER_1
 10
33.5645
 20
180.951
  0
SEQEND
  0
POLYLINE
  8
LAYER_1
 40
0.1058
 41
0.1058
 66
1
 10
0
 20
0
 30
0
  0
VERTEX
  8
LAYER_1
 10
33.5645
 20
180.951
  0
VERTEX
  8
LAYER_1
 10
33.3527
 20
180.5274
  0
SEQEND
  0
POLYLINE
  8
LAYER_1
 40
0.1058
 41
0.1058
 66
1
 10
0
 20
0
 30
0
  0
VERTEX
  8
LAYER_1
 10
33.3527
 20
180.5274
  0
VERTEX
  8
LAYER_1
 10
33.1621
 20
180.1039
  0
SEQEND
  0
POLYLINE
  8
LAYER_1
 40
0.1058
 41
0.1058
 66
1
 10
0
 20
0
 30
0
  0
VERTEX
  8
LAYER_1
 10
33.1621
 20
180.1039
  0
VERTEX
  8
LAYER_1
 10
32.9715
 20
179.6803
  0
SEQEND
  0
POLYLINE
  8
LAYER_1
 40
0.1058
 41
0.1058
 66
1
 10
0
 20
0
 30
0
  0
VERTEX
  8
LAYER_1
 10
32.9715
 20
179.6803
  0
VERTEX
  8
LAYER_1
 10
32.8021
 20
179.2567
  0
SEQEND
  0
POLYLINE
  8
LAYER_1
 40
0.1058
 41
0.1058
 66
1
 10
0
 20
0
 30
0
  0
VERTEX
  8
LAYER_1
 10
32.8021
 20
179.2567
  0
VERTEX
  8
LAYER_1
 10
32.6326
 20
178.8331
  0
SEQEND
  0
POLYLINE
  8
LAYER_1
 40
0.1058
 41
0.1058
 66
1
 10
0
 20
0
 30
0
  0
VERTEX
  8
LAYER_1
 10
32.6326
 20
178.8331
  0
VERTEX
  8
LAYER_1
 10
32.5056
 20
178.3884
  0
SEQEND
  0
POLYLINE
  8
LAYER_1
 40
0.1058
 41
0.1058
 66
1
 10
0
 20
0
 30
0
  0
VERTEX
  8
LAYER_1
 10
32.5056
 20
178.3884
  0
VERTEX
  8
LAYER_1
 10
32.3573
 20
177.9436
  0
SEQEND
  0
POLYLINE
  8
LAYER_1
 40
0.1058
 41
0.1058
 66
1
 10
0
 20
0
 30
0
  0
VERTEX
  8
LAYER_1
 10
32.3573
 20
177.9436
  0
VERTEX
  8
LAYER_1
 10
32.2514
 20
177.4989
  0
SEQEND
  0
POLYLINE
  8
LAYER_1
 40
0.1058
 41
0.1058
 66
1
 10
0
 20
0
 30
0
  0
VERTEX
  8
LAYER_1
 10
32.2514
 20
177.4989
  0
VERTEX
  8
LAYER_1
 10
32.1455
 20
177.0753
  0
SEQEND
  0
POLYLINE
  8
LAYER_1
 40
0.1058
 41
0.1058
 66
1
 10
0
 20
0
 30
0
  0
VERTEX
  8
LAYER_1
 10
32.1455
 20
177.0753
  0
VERTEX
  8
LAYER_1
 10
32.0608
 20
176.6305
  0
SEQEND
  0
POLYLINE
  8
LAYER_1
 40
0.1058
 41
0.1058
 66
1
 10
0
 20
0
 30
0
  0
VERTEX
  8
LAYER_1
 10
32.0608
 20
176.6305
  0
VERTEX
  8
LAYER_1
 10
31.9761
 20
176.1646
  0
SEQEND
  0
POLYLINE
  8
LAYER_1
 40
0.1058
 41
0.1058
 66
1
 10
0
 20
0
 30
0
  0
VERTEX
  8
LAYER_1
 10
31.9761
 20
176.1646
  0
VERTEX
  8
LAYER_1
 10
31.9337
 20
175.7198
  0
SEQEND
  0
POLYLINE
  8
LAYER_1
 40
0.1058
 41
0.1058
 66
1
 10
0
 20
0
 30
0
  0
VERTEX
  8
LAYER_1
 10
31.9337
 20
175.7198
  0
VERTEX
  8
LAYER_1
 10
31.8702
 20
175.2751
  0
SEQEND
  0
POLYLINE
  8
LAYER_1
 40
0.1058
 41
0.1058
 66
1
 10
0
 20
0
 30
0
  0
VERTEX
  8
LAYER_1
 10
31.8702
 20
175.2751
  0
VERTEX
  8
LAYER_1
 10
31.849
 20
174.8303
  0
SEQEND
  0
POLYLINE
  8
LAYER_1
 40
0.1058
 41
0.1058
 66
1
 10
0
 20
0
 30
0
  0
VERTEX
  8
LAYER_1
 10
31.849
 20
174.8303
  0
VERTEX
  8
LAYER_1
 10
31.8278
 20
174.3856
  0
SEQEND
  0
POLYLINE
  8
LAYER_1
 40
0.1058
 41
0.1058
 66
1
 10
0
 20
0
 30
0
  0
VERTEX
  8
LAYER_1
 10
31.8278
 20
174.3856
  0
VERTEX
  8
LAYER_1
 10
31.8278
 20
173.9196
  0
SEQEND
  0
POLYLINE
  8
LAYER_1
 40
0.1058
 41
0.1058
 66
1
 10
0
 20
0
 30
0
  0
VERTEX
  8
LAYER_1
 10
31.8278
 20
173.9196
  0
VERTEX
  8
LAYER_1
 10
31.849
 20
173.4749
  0
SEQEND
  0
POLYLINE
  8
LAYER_1
 40
0.1058
 41
0.1058
 66
1
 10
0
 20
0
 30
0
  0
VERTEX
  8
LAYER_1
 10
31.849
 20
173.4749
  0
VERTEX
  8
LAYER_1
 10
31.8702
 20
173.0301
  0
SEQEND
  0
POLYLINE
  8
LAYER_1
 40
0.1058
 41
0.1058
 66
1
 10
0
 20
0
 30
0
  0
VERTEX
  8
LAYER_1
 10
31.8702
 20
173.0301
  0
VERTEX
  8
LAYER_1
 10
31.9125
 20
172.5854
  0
SEQEND
  0
POLYLINE
  8
LAYER_1
 40
0.1058
 41
0.1058
 66
1
 10
0
 20
0
 30
0
  0
VERTEX
  8
LAYER_1
 10
31.9125
 20
172.5854
  0
VERTEX
  8
LAYER_1
 10
31.9549
 20
172.1406
  0
SEQEND
  0
POLYLINE
  8
LAYER_1
 40
0.1058
 41
0.1058
 66
1
 10
0
 20
0
 30
0
  0
VERTEX
  8
LAYER_1
 10
31.9549
 20
172.1406
  0
VERTEX
  8
LAYER_1
 10
32.0396
 20
171.6747
  0
SEQEND
  0
POLYLINE
  8
LAYER_1
 40
0.1058
 41
0.1058
 66
1
 10
0
 20
0
 30
0
  0
VERTEX
  8
LAYER_1
 10
32.0396
 20
171.6747
  0
VERTEX
  8
LAYER_1
 10
32.1243
 20
171.2299
  0
SEQEND
  0
POLYLINE
  8
LAYER_1
 40
0.1058
 41
0.1058
 66
1
 10
0
 20
0
 30
0
  0
VERTEX
  8
LAYER_1
 10
32.1243
 20
171.2299
  0
VERTEX
  8
LAYER_1
 10
32.2091
 20
170.7851
  0
SEQEND
  0
POLYLINE
  8
LAYER_1
 40
0.1058
 41
0.1058
 66
1
 10
0
 20
0
 30
0
  0
VERTEX
  8
LAYER_1
 10
32.2091
 20
170.7851
  0
VERTEX
  8
LAYER_1
 10
32.3149
 20
170.3616
  0
SEQEND
  0
POLYLINE
  8
LAYER_1
 40
0.1058
 41
0.1058
 66
1
 10
0
 20
0
 30
0
  0
VERTEX
  8
LAYER_1
 10
32.3149
 20
170.3616
  0
VERTEX
  8
LAYER_1
 10
32.442
 20
169.938
  0
SEQEND
  0
POLYLINE
  8
LAYER_1
 40
0.1058
 41
0.1058
 66
1
 10
0
 20
0
 30
0
  0
VERTEX
  8
LAYER_1
 10
32.442
 20
169.938
  0
VERTEX
  8
LAYER_1
 10
32.5903
 20
169.4932
  0
SEQEND
  0
POLYLINE
  8
LAYER_1
 40
0.1058
 41
0.1058
 66
1
 10
0
 20
0
 30
0
  0
VERTEX
  8
LAYER_1
 10
32.5903
 20
169.4932
  0
VERTEX
  8
LAYER_1
 10
32.7385
 20
169.0697
  0
SEQEND
  0
POLYLINE
  8
LAYER_1
 40
0.1058
 41
0.1058
 66
1
 10
0
 20
0
 30
0
  0
VERTEX
  8
LAYER_1
 10
32.7385
 20
169.0697
  0
VERTEX
  8
LAYER_1
 10
32.908
 20
168.6249
  0
SEQEND
  0
POLYLINE
  8
LAYER_1
 40
0.1058
 41
0.1058
 66
1
 10
0
 20
0
 30
0
  0
VERTEX
  8
LAYER_1
 10
32.908
 20
168.6249
  0
VERTEX
  8
LAYER_1
 10
33.0986
 20
168.2013
  0
SEQEND
  0
POLYLINE
  8
LAYER_1
 40
0.1058
 41
0.1058
 66
1
 10
0
 20
0
 30
0
  0
VERTEX
  8
LAYER_1
 10
33.0986
 20
168.2013
  0
VERTEX
  8
LAYER_1
 10
33.2892
 20
167.7777
  0
SEQEND
  0
POLYLINE
  8
LAYER_1
 40
0.1058
 41
0.1058
 66
1
 10
0
 20
0
 30
0
  0
VERTEX
  8
LAYER_1
 10
33.2892
 20
167.7777
  0
VERTEX
  8
LAYER_1
 10
33.501
 20
167.3542
  0
SEQEND
  0
POLYLINE
  8
LAYER_1
 40
0.1058
 41
0.1058
 66
1
 10
0
 20
0
 30
0
  0
VERTEX
  8
LAYER_1
 10
33.501
 20
167.3542
  0
VERTEX
  8
LAYER_1
 10
33.7128
 20
166.9518
  0
SEQEND
  0
POLYLINE
  8
LAYER_1
 40
0.1058
 41
0.1058
 66
1
 10
0
 20
0
 30
0
  0
VERTEX
  8
LAYER_1
 10
33.7128
 20
166.9518
  0
VERTEX
  8
LAYER_1
 10
33.9457
 20
166.5282
  0
SEQEND
  0
POLYLINE
  8
LAYER_1
 40
0.1058
 41
0.1058
 66
1
 10
0
 20
0
 30
0
  0
VERTEX
  8
LAYER_1
 10
33.9457
 20
166.5282
  0
VERTEX
  8
LAYER_1
 10
34.1999
 20
166.1258
  0
SEQEND
  0
POLYLINE
  8
LAYER_1
 40
0.1058
 41
0.1058
 66
1
 10
0
 20
0
 30
0
  0
VERTEX
  8
LAYER_1
 10
34.1999
 20
166.1258
  0
VERTEX
  8
LAYER_1
 10
34.454
 20
165.7234
  0
SEQEND
  0
POLYLINE
  8
LAYER_1
 40
0.1058
 41
0.1058
 66
1
 10
0
 20
0
 30
0
  0
VERTEX
  8
LAYER_1
 10
34.454
 20
165.7234
  0
VERTEX
  8
LAYER_1
 10
34.7293
 20
165.3422
  0
SEQEND
  0
POLYLINE
  8
LAYER_1
 40
0.1058
 41
0.1058
 66
1
 10
0
 20
0
 30
0
  0
VERTEX
  8
LAYER_1
 10
34.7293
 20
165.3422
  0
VERTEX
  8
LAYER_1
 10
35.0258
 20
164.9398
  0
SEQEND
  0
POLYLINE
  8
LAYER_1
 40
0.1058
 41
0.1058
 66
1
 10
0
 20
0
 30
0
  0
VERTEX
  8
LAYER_1
 10
35.0258
 20
164.9398
  0
VERTEX
  8
LAYER_1
 10
35.3223
 20
164.5585
  0
SEQEND
  0
POLYLINE
  8
LAYER_1
 40
0.1058
 41
0.1058
 66
1
 10
0
 20
0
 30
0
  0
VERTEX
  8
LAYER_1
 10
35.3223
 20
164.5585
  0
VERTEX
  8
LAYER_1
 10
35.64
 20
164.1773
  0
SEQEND
  0
POLYLINE
  8
LAYER_1
 40
0.1058
 41
0.1058
 66
1
 10
0
 20
0
 30
0
  0
VERTEX
  8
LAYER_1
 10
35.64
 20
164.1773
  0
VERTEX
  8
LAYER_1
 10
35.9577
 20
163.7961
  0
SEQEND
  0
POLYLINE
  8
LAYER_1
 40
0.1058
 41
0.1058
 66
1
 10
0
 20
0
 30
0
  0
VERTEX
  8
LAYER_1
 10
35.9577
 20
163.7961
  0
VERTEX
  8
LAYER_1
 10
36.2966
 20
163.4361
  0
SEQEND
  0
POLYLINE
  8
LAYER_1
 40
0.1058
 41
0.1058
 66
1
 10
0
 20
0
 30
0
  0
VERTEX
  8
LAYER_1
 10
36.2966
 20
163.4361
  0
VERTEX
  8
LAYER_1
 10
36.6354
 20
163.076
  0
SEQEND
  0
POLYLINE
  8
LAYER_1
 40
0.1058
 41
0.1058
 66
1
 10
0
 20
0
 30
0
  0
VERTEX
  8
LAYER_1
 10
36.6354
 20
163.076
  0
VERTEX
  8
LAYER_1
 10
36.9955
 20
162.7372
  0
SEQEND
  0
POLYLINE
  8
LAYER_1
 40
0.1058
 41
0.1058
 66
1
 10
0
 20
0
 30
0
  0
VERTEX
  8
LAYER_1
 10
36.9955
 20
162.7372
  0
VERTEX
  8
LAYER_1
 10
37.3555
 20
162.3771
  0
SEQEND
  0
POLYLINE
  8
LAYER_1
 40
0.1058
 41
0.1058
 66
1
 10
0
 20
0
 30
0
  0
VERTEX
  8
LAYER_1
 10
37.3555
 20
162.3771
  0
VERTEX
  8
LAYER_1
 10
37.7367
 20
162.0383
  0
SEQEND
  0
POLYLINE
  8
LAYER_1
 40
0.1058
 41
0.1058
 66
1
 10
0
 20
0
 30
0
  0
VERTEX
  8
LAYER_1
 10
37.7367
 20
162.0383
  0
VERTEX
  8
LAYER_1
 10
38.1391
 20
161.7206
  0
SEQEND
  0
POLYLINE
  8
LAYER_1
 40
0.1058
 41
0.1058
 66
1
 10
0
 20
0
 30
0
  0
VERTEX
  8
LAYER_1
 10
38.1391
 20
161.7206
  0
VERTEX
  8
LAYER_1
 10
38.5415
 20
161.3817
  0
SEQEND
  0
POLYLINE
  8
LAYER_1
 40
0.1058
 41
0.1058
 66
1
 10
0
 20
0
 30
0
  0
VERTEX
  8
LAYER_1
 10
38.5415
 20
161.3817
  0
VERTEX
  8
LAYER_1
 10
38.9439
 20
161.064
  0
SEQEND
  0
POLYLINE
  8
LAYER_1
 40
0.1058
 41
0.1058
 66
1
 10
0
 20
0
 30
0
  0
VERTEX
  8
LAYER_1
 10
38.9439
 20
161.064
  0
VERTEX
  8
LAYER_1
 10
39.3675
 20
160.7675
  0
SEQEND
  0
POLYLINE
  8
LAYER_1
 40
0.1058
 41
0.1058
 66
1
 10
0
 20
0
 30
0
  0
VERTEX
  8
LAYER_1
 10
39.3675
 20
160.7675
  0
VERTEX
  8
LAYER_1
 10
39.7911
 20
160.471
  0
SEQEND
  0
POLYLINE
  8
LAYER_1
 40
0.1058
 41
0.1058
 66
1
 10
0
 20
0
 30
0
  0
VERTEX
  8
LAYER_1
 10
39.7911
 20
160.471
  0
VERTEX
  8
LAYER_1
 10
40.2359
 20
160.1745
  0
SEQEND
  0
POLYLINE
  8
LAYER_1
 40
0.1058
 41
0.1058
 66
1
 10
0
 20
0
 30
0
  0
VERTEX
  8
LAYER_1
 10
40.2359
 20
160.1745
  0
VERTEX
  8
LAYER_1
 10
40.6806
 20
159.8992
  0
SEQEND
  0
POLYLINE
  8
LAYER_1
 40
0.1058
 41
0.1058
 66
1
 10
0
 20
0
 30
0
  0
VERTEX
  8
LAYER_1
 10
40.6806
 20
159.8992
  0
VERTEX
  8
LAYER_1
 10
41.1465
 20
159.6239
  0
SEQEND
  0
POLYLINE
  8
LAYER_1
 40
0.1058
 41
0.1058
 66
1
 10
0
 20
0
 30
0
  0
VERTEX
  8
LAYER_1
 10
41.1465
 20
159.6239
  0
VERTEX
  8
LAYER_1
 10
41.6125
 20
159.3697
  0
SEQEND
  0
POLYLINE
  8
LAYER_1
 40
0.1058
 41
0.1058
 66
1
 10
0
 20
0
 30
0
  0
VERTEX
  8
LAYER_1
 10
41.6125
 20
159.3697
  0
VERTEX
  8
LAYER_1
 10
42.0784
 20
159.1156
  0
SEQEND
  0
POLYLINE
  8
LAYER_1
 40
0.1058
 41
0.1058
 66
1
 10
0
 20
0
 30
0
  0
VERTEX
  8
LAYER_1
 10
42.0784
 20
159.1156
  0
VERTEX
  8
LAYER_1
 10
42.5655
 20
158.8614
  0
SEQEND
  0
POLYLINE
  8
LAYER_1
 40
0.1058
 41
0.1058
 66
1
 10
0
 20
0
 30
0
  0
VERTEX
  8
LAYER_1
 10
42.5655
 20
158.8614
  0
VERTEX
  8
LAYER_1
 10
43.0526
 20
158.6285
  0
SEQEND
  0
POLYLINE
  8
LAYER_1
 40
0.1058
 41
0.1058
 66
1
 10
0
 20
0
 30
0
  0
VERTEX
  8
LAYER_1
 10
43.0526
 20
158.6285
  0
VERTEX
  8
LAYER_1
 10
43.5609
 20
158.3955
  0
SEQEND
  0
POLYLINE
  8
LAYER_1
 40
0.1058
 41
0.1058
 66
1
 10
0
 20
0
 30
0
  0
VERTEX
  8
LAYER_1
 10
43.5609
 20
158.3955
  0
VERTEX
  8
LAYER_1
 10
44.0692
 20
158.1837
  0
SEQEND
  0
POLYLINE
  8
LAYER_1
 40
0.1058
 41
0.1058
 66
1
 10
0
 20
0
 30
0
  0
VERTEX
  8
LAYER_1
 10
44.0692
 20
158.1837
  0
VERTEX
  8
LAYER_1
 10
44.5775
 20
157.9719
  0
SEQEND
  0
POLYLINE
  8
LAYER_1
 40
0.1058
 41
0.1058
 66
1
 10
0
 20
0
 30
0
  0
VERTEX
  8
LAYER_1
 10
44.5775
 20
157.9719
  0
VERTEX
  8
LAYER_1
 10
45.0858
 20
157.7813
  0
SEQEND
  0
POLYLINE
  8
LAYER_1
 40
0.1058
 41
0.1058
 66
1
 10
0
 20
0
 30
0
  0
VERTEX
  8
LAYER_1
 10
45.0858
 20
157.7813
  0
VERTEX
  8
LAYER_1
 10
45.6153
 20
157.5907
  0
SEQEND
  0
POLYLINE
  8
LAYER_1
 40
0.1058
 41
0.1058
 66
1
 10
0
 20
0
 30
0
  0
VERTEX
  8
LAYER_1
 10
45.6153
 20
157.5907
  0
VERTEX
  8
LAYER_1
 10
46.1448
 20
157.4213
  0
SEQEND
  0
POLYLINE
  8
LAYER_1
 40
0.1058
 41
0.1058
 66
1
 10
0
 20
0
 30
0
  0
VERTEX
  8
LAYER_1
 10
46.1448
 20
157.4213
  0
VERTEX
  8
LAYER_1
 10
46.6531
 20
157.2518
  0
SEQEND
  0
POLYLINE
  8
LAYER_1
 40
0.1058
 41
0.1058
 66
1
 10
0
 20
0
 30
0
  0
VERTEX
  8
LAYER_1
 10
46.6531
 20
157.2518
  0
VERTEX
  8
LAYER_1
 10
47.2037
 20
157.1036
  0
SEQEND
  0
POLYLINE
  8
LAYER_1
 40
0.1058
 41
0.1058
 66
1
 10
0
 20
0
 30
0
  0
VERTEX
  8
LAYER_1
 10
47.2037
 20
157.1036
  0
VERTEX
  8
LAYER_1
 10
47.7544
 20
156.9553
  0
SEQEND
  0
POLYLINE
  8
LAYER_1
 40
0.1058
 41
0.1058
 66
1
 10
0
 20
0
 30
0
  0
VERTEX
  8
LAYER_1
 10
47.7544
 20
156.9553
  0
VERTEX
  8
LAYER_1
 10
48.305
 20
156.8283
  0
SEQEND
  0
POLYLINE
  8
LAYER_1
 40
0.1058
 41
0.1058
 66
1
 10
0
 20
0
 30
0
  0
VERTEX
  8
LAYER_1
 10
48.305
 20
156.8283
  0
VERTEX
  8
LAYER_1
 10
48.8557
 20
156.7012
  0
SEQEND
  0
POLYLINE
  8
LAYER_1
 40
0.1058
 41
0.1058
 66
1
 10
0
 20
0
 30
0
  0
VERTEX
  8
LAYER_1
 10
48.8557
 20
156.7012
  0
VERTEX
  8
LAYER_1
 10
49.4063
 20
156.5953
  0
SEQEND
  0
POLYLINE
  8
LAYER_1
 40
0.1058
 41
0.1058
 66
1
 10
0
 20
0
 30
0
  0
VERTEX
  8
LAYER_1
 10
49.4063
 20
156.5953
  0
VERTEX
  8
LAYER_1
 10
49.9781
 20
156.4894
  0
SEQEND
  0
POLYLINE
  8
LAYER_1
 40
0.1058
 41
0.1058
 66
1
 10
0
 20
0
 30
0
  0
VERTEX
  8
LAYER_1
 10
49.9781
 20
156.4894
  0
VERTEX
  8
LAYER_1
 10
50.5288
 20
156.4047
  0
SEQEND
  0
POLYLINE
  8
LAYER_1
 40
0.1058
 41
0.1058
 66
1
 10
0
 20
0
 30
0
  0
VERTEX
  8
LAYER_1
 10
50.5288
 20
156.4047
  0
VERTEX
  8
LAYER_1
 10
51.1006
 20
156.32
  0
SEQEND
  0
POLYLINE
  8
LAYER_1
 40
0.1058
 41
0.1058
 66
1
 10
0
 20
0
 30
0
  0
VERTEX
  8
LAYER_1
 10
51.1006
 20
156.32
  0
VERTEX
  8
LAYER_1
 10
51.6725
 20
156.2564
  0
SEQEND
  0
POLYLINE
  8
LAYER_1
 40
0.1058
 41
0.1058
 66
1
 10
0
 20
0
 30
0
  0
VERTEX
  8
LAYER_1
 10
51.6725
 20
156.2564
  0
VERTEX
  8
LAYER_1
 10
52.2443
 20
156.1929
  0
SEQEND
  0
POLYLINE
  8
LAYER_1
 40
0.1058
 41
0.1058
 66
1
 10
0
 20
0
 30
0
  0
VERTEX
  8
LAYER_1
 10
52.2443
 20
156.1929
  0
VERTEX
  8
LAYER_1
 10
52.8161
 20
156.1505
  0
SEQEND
  0
POLYLINE
  8
LAYER_1
 40
0.1058
 41
0.1058
 66
1
 10
0
 20
0
 30
0
  0
VERTEX
  8
LAYER_1
 10
52.8161
 20
156.1505
  0
VERTEX
  8
LAYER_1
 10
53.3879
 20
156.1293
  0
SEQEND
  0
POLYLINE
  8
LAYER_1
 40
0.1058
 41
0.1058
 66
1
 10
0
 20
0
 30
0
  0
VERTEX
  8
LAYER_1
 10
53.3879
 20
156.1293
  0
VERTEX
  8
LAYER_1
 10
53.9598
 20
156.1082
  0
SEQEND
  0
POLYLINE
  8
LAYER_1
 40
0.1058
 41
0.1058
 66
1
 10
0
 20
0
 30
0
  0
VERTEX
  8
LAYER_1
 10
53.9598
 20
156.1082
  0
VERTEX
  8
LAYER_1
 10
54.5316
 20
156.087
  0
SEQEND
  0
POLYLINE
  8
LAYER_1
 40
0.1058
 41
0.1058
 66
1
 10
0
 20
0
 30
0
  0
VERTEX
  8
LAYER_1
 10
54.5316
 20
156.087
  0
VERTEX
  8
LAYER_1
 10
55.1034
 20
156.087
  0
SEQEND
  0
POLYLINE
  8
LAYER_1
 40
0.1058
 41
0.1058
 66
1
 10
0
 20
0
 30
0
  0
VERTEX
  8
LAYER_1
 10
55.1034
 20
156.087
  0
VERTEX
  8
LAYER_1
 10
55.6964
 20
156.1082
  0
SEQEND
  0
POLYLINE
  8
LAYER_1
 40
0.1058
 41
0.1058
 66
1
 10
0
 20
0
 30
0
  0
VERTEX
  8
LAYER_1
 10
55.6964
 20
156.1082
  0
VERTEX
  8
LAYER_1
 10
56.2683
 20
156.1293
  0
SEQEND
  0
POLYLINE
  8
LAYER_1
 40
0.1058
 41
0.1058
 66
1
 10
0
 20
0
 30
0
  0
VERTEX
  8
LAYER_1
 10
56.2683
 20
156.1293
  0
VERTEX
  8
LAYER_1
 10
56.8401
 20
156.1505
  0
SEQEND
  0
POLYLINE
  8
LAYER_1
 40
0.1058
 41
0.1058
 66
1
 10
0
 20
0
 30
0
  0
VERTEX
  8
LAYER_1
 10
56.8401
 20
156.1505
  0
VERTEX
  8
LAYER_1
 10
57.4119
 20
156.1929
  0
SEQEND
  0
POLYLINE
  8
LAYER_1
 40
0.1058
 41
0.1058
 66
1
 10
0
 20
0
 30
0
  0
VERTEX
  8
LAYER_1
 10
57.4119
 20
156.1929
  0
VERTEX
  8
LAYER_1
 10
57.9838
 20
156.2564
  0
SEQEND
  0
POLYLINE
  8
LAYER_1
 40
0.1058
 41
0.1058
 66
1
 10
0
 20
0
 30
0
  0
VERTEX
  8
LAYER_1
 10
57.9838
 20
156.2564
  0
VERTEX
  8
LAYER_1
 10
58.5556
 20
156.32
  0
SEQEND
  0
POLYLINE
  8
LAYER_1
 40
0.1058
 41
0.1058
 66
1
 10
0
 20
0
 30
0
  0
VERTEX
  8
LAYER_1
 10
58.5556
 20
156.32
  0
VERTEX
  8
LAYER_1
 10
59.1062
 20
156.4047
  0
SEQEND
  0
POLYLINE
  8
LAYER_1
 40
0.1058
 41
0.1058
 66
1
 10
0
 20
0
 30
0
  0
VERTEX
  8
LAYER_1
 10
59.1062
 20
156.4047
  0
VERTEX
  8
LAYER_1
 10
59.6781
 20
156.4894
  0
SEQEND
  0
POLYLINE
  8
LAYER_1
 40
0.1058
 41
0.1058
 66
1
 10
0
 20
0
 30
0
  0
VERTEX
  8
LAYER_1
 10
59.6781
 20
156.4894
  0
VERTEX
  8
LAYER_1
 10
60.2287
 20
156.5953
  0
SEQEND
  0
POLYLINE
  8
LAYER_1
 40
0.1058
 41
0.1058
 66
1
 10
0
 20
0
 30
0
  0
VERTEX
  8
LAYER_1
 10
60.2287
 20
156.5953
  0
VERTEX
  8
LAYER_1
 10
60.8006
 20
156.7012
  0
SEQEND
  0
POLYLINE
  8
LAYER_1
 40
0.1058
 41
0.1058
 66
1
 10
0
 20
0
 30
0
  0
VERTEX
  8
LAYER_1
 10
60.8006
 20
156.7012
  0
VERTEX
  8
LAYER_1
 10
61.3512
 20
156.8283
  0
SEQEND
  0
POLYLINE
  8
LAYER_1
 40
0.1058
 41
0.1058
 66
1
 10
0
 20
0
 30
0
  0
VERTEX
  8
LAYER_1
 10
61.3512
 20
156.8283
  0
VERTEX
  8
LAYER_1
 10
61.9019
 20
156.9553
  0
SEQEND
  0
POLYLINE
  8
LAYER_1
 40
0.1058
 41
0.1058
 66
1
 10
0
 20
0
 30
0
  0
VERTEX
  8
LAYER_1
 10
61.9019
 20
156.9553
  0
VERTEX
  8
LAYER_1
 10
62.4525
 20
157.1036
  0
SEQEND
  0
POLYLINE
  8
LAYER_1
 40
0.1058
 41
0.1058
 66
1
 10
0
 20
0
 30
0
  0
VERTEX
  8
LAYER_1
 10
62.4525
 20
157.1036
  0
VERTEX
  8
LAYER_1
 10
62.982
 20
157.2518
  0
SEQEND
  0
POLYLINE
  8
LAYER_1
 40
0.1058
 41
0.1058
 66
1
 10
0
 20
0
 30
0
  0
VERTEX
  8
LAYER_1
 10
62.982
 20
157.2518
  0
VERTEX
  8
LAYER_1
 10
63.5115
 20
157.4213
  0
SEQEND
  0
POLYLINE
  8
LAYER_1
 40
0.1058
 41
0.1058
 66
1
 10
0
 20
0
 30
0
  0
VERTEX
  8
LAYER_1
 10
63.5115
 20
157.4213
  0
VERTEX
  8
LAYER_1
 10
64.0409
 20
157.5907
  0
SEQEND
  0
POLYLINE
  8
LAYER_1
 40
0.1058
 41
0.1058
 66
1
 10
0
 20
0
 30
0
  0
VERTEX
  8
LAYER_1
 10
64.0409
 20
157.5907
  0
VERTEX
  8
LAYER_1
 10
64.5704
 20
157.7813
  0
SEQEND
  0
POLYLINE
  8
LAYER_1
 40
0.1058
 41
0.1058
 66
1
 10
0
 20
0
 30
0
  0
VERTEX
  8
LAYER_1
 10
64.5704
 20
157.7813
  0
VERTEX
  8
LAYER_1
 10
65.0999
 20
157.9719
  0
SEQEND
  0
POLYLINE
  8
LAYER_1
 40
0.1058
 41
0.1058
 66
1
 10
0
 20
0
 30
0
  0
VERTEX
  8
LAYER_1
 10
65.0999
 20
157.9719
  0
VERTEX
  8
LAYER_1
 10
65.6082
 20
158.1837
  0
SEQEND
  0
POLYLINE
  8
LAYER_1
 40
0.1058
 41
0.1058
 66
1
 10
0
 20
0
 30
0
  0
VERTEX
  8
LAYER_1
 10
65.6082
 20
158.1837
  0
VERTEX
  8
LAYER_1
 10
66.1165
 20
158.3955
  0
SEQEND
  0
POLYLINE
  8
LAYER_1
 40
0.1058
 41
0.1058
 66
1
 10
0
 20
0
 30
0
  0
VERTEX
  8
LAYER_1
 10
66.1165
 20
158.3955
  0
VERTEX
  8
LAYER_1
 10
66.6036
 20
158.6285
  0
SEQEND
  0
POLYLINE
  8
LAYER_1
 40
0.1058
 41
0.1058
 66
1
 10
0
 20
0
 30
0
  0
VERTEX
  8
LAYER_1
 10
66.6036
 20
158.6285
  0
VERTEX
  8
LAYER_1
 10
67.0907
 20
158.8614
  0
SEQEND
  0
POLYLINE
  8
LAYER_1
 40
0.1058
 41
0.1058
 66
1
 10
0
 20
0
 30
0
  0
VERTEX
  8
LAYER_1
 10
67.0907
 20
158.8614
  0
VERTEX
  8
LAYER_1
 10
67.5778
 20
159.1156
  0
SEQEND
  0
POLYLINE
  8
LAYER_1
 40
0.1058
 41
0.1058
 66
1
 10
0
 20
0
 30
0
  0
VERTEX
  8
LAYER_1
 10
67.5778
 20
159.1156
  0
VERTEX
  8
LAYER_1
 10
68.0649
 20
159.3697
  0
SEQEND
  0
POLYLINE
  8
LAYER_1
 40
0.1058
 41
0.1058
 66
1
 10
0
 20
0
 30
0
  0
VERTEX
  8
LAYER_1
 10
68.0649
 20
159.3697
  0
VERTEX
  8
LAYER_1
 10
68.5309
 20
159.6239
  0
SEQEND
  0
POLYLINE
  8
LAYER_1
 40
0.1058
 41
0.1058
 66
1
 10
0
 20
0
 30
0
  0
VERTEX
  8
LAYER_1
 10
68.5309
 20
159.6239
  0
VERTEX
  8
LAYER_1
 10
68.9756
 20
159.8992
  0
SEQEND
  0
POLYLINE
  8
LAYER_1
 40
0.1058
 41
0.1058
 66
1
 10
0
 20
0
 30
0
  0
VERTEX
  8
LAYER_1
 10
68.9756
 20
159.8992
  0
VERTEX
  8
LAYER_1
 10
69.4204
 20
160.1745
  0
SEQEND
  0
POLYLINE
  8
LAYER_1
 40
0.1058
 41
0.1058
 66
1
 10
0
 20
0
 30
0
  0
VERTEX
  8
LAYER_1
 10
69.4204
 20
160.1745
  0
VERTEX
  8
LAYER_1
 10
69.8651
 20
160.471
  0
SEQEND
  0
POLYLINE
  8
LAYER_1
 40
0.1058
 41
0.1058
 66
1
 10
0
 20
0
 30
0
  0
VERTEX
  8
LAYER_1
 10
69.8651
 20
160.471
  0
VERTEX
  8
LAYER_1
 10
70.2887
 20
160.7675
  0
SEQEND
  0
POLYLINE
  8
LAYER_1
 40
0.1058
 41
0.1058
 66
1
 10
0
 20
0
 30
0
  0
VERTEX
  8
LAYER_1
 10
70.2887
 20
160.7675
  0
VERTEX
  8
LAYER_1
 10
70.7123
 20
161.0852
  0
SEQEND
  0
POLYLINE
  8
LAYER_1
 40
0.1058
 41
0.1058
 66
1
 10
0
 20
0
 30
0
  0
VERTEX
  8
LAYER_1
 10
70.7123
 20
161.0852
  0
VERTEX
  8
LAYER_1
 10
71.1359
 20
161.3817
  0
SEQEND
  0
POLYLINE
  8
LAYER_1
 40
0.1058
 41
0.1058
 66
1
 10
0
 20
0
 30
0
  0
VERTEX
  8
LAYER_1
 10
71.1359
 20
161.3817
  0
VERTEX
  8
LAYER_1
 10
71.5383
 20
161.7206
  0
SEQEND
  0
POLYLINE
  8
LAYER_1
 40
0.1058
 41
0.1058
 66
1
 10
0
 20
0
 30
0
  0
VERTEX
  8
LAYER_1
 10
71.5383
 20
161.7206
  0
VERTEX
  8
LAYER_1
 10
71.9195
 20
162.0383
  0
SEQEND
  0
POLYLINE
  8
LAYER_1
 40
0.1058
 41
0.1058
 66
1
 10
0
 20
0
 30
0
  0
VERTEX
  8
LAYER_1
 10
71.9195
 20
162.0383
  0
VERTEX
  8
LAYER_1
 10
72.3007
 20
162.3771
  0
SEQEND
  0
POLYLINE
  8
LAYER_1
 40
0.1058
 41
0.1058
 66
1
 10
0
 20
0
 30
0
  0
VERTEX
  8
LAYER_1
 10
72.3007
 20
162.3771
  0
VERTEX
  8
LAYER_1
 10
72.6607
 20
162.7372
  0
SEQEND
  0
POLYLINE
  8
LAYER_1
 40
0.1058
 41
0.1058
 66
1
 10
0
 20
0
 30
0
  0
VERTEX
  8
LAYER_1
 10
72.6607
 20
162.7372
  0
VERTEX
  8
LAYER_1
 10
73.0208
 20
163.076
  0
SEQEND
  0
POLYLINE
  8
LAYER_1
 40
0.1058
 41
0.1058
 66
1
 10
0
 20
0
 30
0
  0
VERTEX
  8
LAYER_1
 10
73.0208
 20
163.076
  0
VERTEX
  8
LAYER_1
 10
73.3808
 20
163.4361
  0
SEQEND
  0
POLYLINE
  8
LAYER_1
 40
0.1058
 41
0.1058
 66
1
 10
0
 20
0
 30
0
  0
VERTEX
  8
LAYER_1
 10
73.3808
 20
163.4361
  0
VERTEX
  8
LAYER_1
 10
73.7197
 20
163.8173
  0
SEQEND
  0
POLYLINE
  8
LAYER_1
 40
0.1058
 41
0.1058
 66
1
 10
0
 20
0
 30
0
  0
VERTEX
  8
LAYER_1
 10
73.7197
 20
163.8173
  0
VERTEX
  8
LAYER_1
 10
74.0374
 20
164.1773
  0
SEQEND
  0
POLYLINE
  8
LAYER_1
 40
0.1058
 41
0.1058
 66
1
 10
0
 20
0
 30
0
  0
VERTEX
  8
LAYER_1
 10
74.0374
 20
164.1773
  0
VERTEX
  8
LAYER_1
 10
74.3339
 20
164.5585
  0
SEQEND
  0
POLYLINE
  8
LAYER_1
 40
0.1058
 41
0.1058
 66
1
 10
0
 20
0
 30
0
  0
VERTEX
  8
LAYER_1
 10
74.3339
 20
164.5585
  0
VERTEX
  8
LAYER_1
 10
74.6516
 20
164.9398
  0
SEQEND
  0
POLYLINE
  8
LAYER_1
 40
0.1058
 41
0.1058
 66
1
 10
0
 20
0
 30
0
  0
VERTEX
  8
LAYER_1
 10
74.6516
 20
164.9398
  0
VERTEX
  8
LAYER_1
 10
74.9269
 20
165.3422
  0
SEQEND
  0
POLYLINE
  8
LAYER_1
 40
0.1058
 41
0.1058
 66
1
 10
0
 20
0
 30
0
  0
VERTEX
  8
LAYER_1
 10
74.9269
 20
165.3422
  0
VERTEX
  8
LAYER_1
 10
75.2022
 20
165.7234
  0
SEQEND
  0
POLYLINE
  8
LAYER_1
 40
0.1058
 41
0.1058
 66
1
 10
0
 20
0
 30
0
  0
VERTEX
  8
LAYER_1
 10
75.2022
 20
165.7234
  0
VERTEX
  8
LAYER_1
 10
75.4564
 20
166.1258
  0
SEQEND
  0
POLYLINE
  8
LAYER_1
 40
0.1058
 41
0.1058
 66
1
 10
0
 20
0
 30
0
  0
VERTEX
  8
LAYER_1
 10
75.4564
 20
166.1258
  0
VERTEX
  8
LAYER_1
 10
75.7105
 20
166.5494
  0
SEQEND
  0
POLYLINE
  8
LAYER_1
 40
0.1058
 41
0.1058
 66
1
 10
0
 20
0
 30
0
  0
VERTEX
  8
LAYER_1
 10
75.7105
 20
166.5494
  0
VERTEX
  8
LAYER_1
 10
75.9435
 20
166.9518
  0
SEQEND
  0
POLYLINE
  8
LAYER_1
 40
0.1058
 41
0.1058
 66
1
 10
0
 20
0
 30
0
  0
VERTEX
  8
LAYER_1
 10
75.9435
 20
166.9518
  0
VERTEX
  8
LAYER_1
 10
76.1764
 20
167.3753
  0
SEQEND
  0
POLYLINE
  8
LAYER_1
 40
0.1058
 41
0.1058
 66
1
 10
0
 20
0
 30
0
  0
VERTEX
  8
LAYER_1
 10
76.1764
 20
167.3753
  0
VERTEX
  8
LAYER_1
 10
76.3671
 20
167.7777
  0
SEQEND
  0
POLYLINE
  8
LAYER_1
 40
0.1058
 41
0.1058
 66
1
 10
0
 20
0
 30
0
  0
VERTEX
  8
LAYER_1
 10
76.3671
 20
167.7777
  0
VERTEX
  8
LAYER_1
 10
76.5788
 20
168.2013
  0
SEQEND
  0
POLYLINE
  8
LAYER_1
 40
0.1058
 41
0.1058
 66
1
 10
0
 20
0
 30
0
  0
VERTEX
  8
LAYER_1
 10
76.5788
 20
168.2013
  0
VERTEX
  8
LAYER_1
 10
76.7483
 20
168.6461
  0
SEQEND
  0
POLYLINE
  8
LAYER_1
 40
0.1058
 41
0.1058
 66
1
 10
0
 20
0
 30
0
  0
VERTEX
  8
LAYER_1
 10
76.7483
 20
168.6461
  0
VERTEX
  8
LAYER_1
 10
76.9177
 20
169.0697
  0
SEQEND
  0
POLYLINE
  8
LAYER_1
 40
0.1058
 41
0.1058
 66
1
 10
0
 20
0
 30
0
  0
VERTEX
  8
LAYER_1
 10
76.9177
 20
169.0697
  0
VERTEX
  8
LAYER_1
 10
77.066
 20
169.4932
  0
SEQEND
  0
POLYLINE
  8
LAYER_1
 40
0.1058
 41
0.1058
 66
1
 10
0
 20
0
 30
0
  0
VERTEX
  8
LAYER_1
 10
77.066
 20
169.4932
  0
VERTEX
  8
LAYER_1
 10
77.2142
 20
169.938
  0
SEQEND
  0
POLYLINE
  8
LAYER_1
 40
0.1058
 41
0.1058
 66
1
 10
0
 20
0
 30
0
  0
VERTEX
  8
LAYER_1
 10
77.2142
 20
169.938
  0
VERTEX
  8
LAYER_1
 10
77.3413
 20
170.3616
  0
SEQEND
  0
POLYLINE
  8
LAYER_1
 40
0.1058
 41
0.1058
 66
1
 10
0
 20
0
 30
0
  0
VERTEX
  8
LAYER_1
 10
77.3413
 20
170.3616
  0
VERTEX
  8
LAYER_1
 10
77.4472
 20
170.8063
  0
SEQEND
  0
POLYLINE
  8
LAYER_1
 40
0.1058
 41
0.1058
 66
1
 10
0
 20
0
 30
0
  0
VERTEX
  8
LAYER_1
 10
77.4472
 20
170.8063
  0
VERTEX
  8
LAYER_1
 10
77.5531
 20
171.2511
  0
SEQEND
  0
POLYLINE
  8
LAYER_1
 40
0.1058
 41
0.1058
 66
1
 10
0
 20
0
 30
0
  0
VERTEX
  8
LAYER_1
 10
77.5531
 20
171.2511
  0
VERTEX
  8
LAYER_1
 10
77.6378
 20
171.6958
  0
SEQEND
  0
POLYLINE
  8
LAYER_1
 40
0.1058
 41
0.1058
 66
1
 10
0
 20
0
 30
0
  0
VERTEX
  8
LAYER_1
 10
77.6378
 20
171.6958
  0
VERTEX
  8
LAYER_1
 10
77.7013
 20
172.1406
  0
SEQEND
  0
POLYLINE
  8
LAYER_1
 40
0.1058
 41
0.1058
 66
1
 10
0
 20
0
 30
0
  0
VERTEX
  8
LAYER_1
 10
77.7013
 20
172.1406
  0
VERTEX
  8
LAYER_1
 10
77.7649
 20
172.5854
  0
SEQEND
  0
POLYLINE
  8
LAYER_1
 40
0.1058
 41
0.1058
 66
1
 10
0
 20
0
 30
0
  0
VERTEX
  8
LAYER_1
 10
77.7649
 20
172.5854
  0
VERTEX
  8
LAYER_1
 10
77.8072
 20
173.0301
  0
SEQEND
  0
POLYLINE
  8
LAYER_1
 40
0.1058
 41
0.1058
 66
1
 10
0
 20
0
 30
0
  0
VERTEX
  8
LAYER_1
 10
77.8072
 20
173.0301
  0
VERTEX
  8
LAYER_1
 10
77.8284
 20
173.4749
  0
SEQEND
  0
POLYLINE
  8
LAYER_1
 40
0.1058
 41
0.1058
 66
1
 10
0
 20
0
 30
0
  0
VERTEX
  8
LAYER_1
 10
77.8284
 20
173.4749
  0
VERTEX
  8
LAYER_1
 10
77.8284
 20
173.9408
  0
SEQEND
  0
POLYLINE
  8
LAYER_1
 40
0.1058
 41
0.1058
 66
1
 10
0
 20
0
 30
0
  0
VERTEX
  8
LAYER_1
 10
77.8284
 20
173.9408
  0
VERTEX
  8
LAYER_1
 10
77.8284
 20
174.089
  0
SEQEND
  0
POLYLINE
  8
LAYER_1
 40
0.1058
 41
0.1058
 66
1
 10
0
 20
0
 30
0
  0
VERTEX
  8
LAYER_1
 10
77.8284
 20
174.089
  0
SEQEND
  0
POLYLINE
  8
LAYER_1
 40
0.1058
 41
0.1058
 66
1
 10
0
 20
0
 30
0
  0
VERTEX
  8
LAYER_1
 10
54.8281
 20
156.087
  0
VERTEX
  8
LAYER_1
 10
54.8281
 20
192.0911
  0
SEQEND
  0
POLYLINE
  8
LAYER_1
 40
0.1058
 41
0.1058
 66
1
 10
0
 20
0
 30
0
  0
VERTEX
  8
LAYER_1
 10
31.8278
 20
174.0891
  0
VERTEX
  8
LAYER_1
 10
77.8284
 20
174.089
  0
SEQEND
  0
TEXT
  8
LAYER_1
 10
56.3754
 20
174.5558
 11
56.3754
 21
174.5558
 40
5.1297
 41
0.5
  1
460
  0
TEXT
  8
LAYER_1
 10
54.1793
 20
165.3241
 11
54.1793
 21
165.3241
 40
5.1297
 41
0.5
 50
89.99999999
  1
360
  0
POLYLINE
  8
LAYER_1
 40
0.1058
 41
0.1058
 66
1
 10
0
 20
0
 30
0
  0
VERTEX
  8
LAYER_1
 10
9.823
 20
146.5777
  0
VERTEX
  8
LAYER_1
 10
9.823
 20
206.5987
  0
SEQEND
  0
POLYLINE
  8
LAYER_1
 40
0.1058
 41
0.1058
 66
1
 10
0
 20
0
 30
0
  0
VERTEX
  8
LAYER_1
 10
99.8544
 20
146.5777
  0
VERTEX
  8
LAYER_1
 10
99.8545
 20
206.5987
  0
SEQEND
  0
POLYLINE
  8
LAYER_1
 40
0.1058
 41
0.1058
 66
1
 10
0
 20
0
 30
0
  0
VERTEX
  8
LAYER_1
 10
99.8545
 20
206.5987
  0
VERTEX
  8
LAYER_1
 10
9.823
 20
206.5987
  0
SEQEND
  0
POLYLINE
  8
LAYER_1
 40
0.1058
 41
0.1058
 66
1
 10
0
 20
0
 30
0
  0
VERTEX
  8
LAYER_1
 10
99.8544
 20
146.5777
  0
VERTEX
  8
LAYER_1
 10
9.823
 20
146.5777
  0
SEQEND
  0
TEXT
  8
LAYER_1
 10
33.6369
 20
193.9267
 11
33.6369
 21
193.9267
 40
5.1297
 41
0.5
 50
89.99999999
  1
85
  0
POLYLINE
  8
LAYER_1
 40
0.1058
 41
0.1058
 66
1
 10
0
 20
0
 30
0
  0
VERTEX
  8
LAYER_1
 10
37.5445
 20
192.0911
  0
VERTEX
  8
LAYER_1
 10
34.1347
 20
192.0911
  0
SEQEND
  0
POLYLINE
  8
LAYER_1
 40
0.1058
 41
0.1058
 66
1
 10
0
 20
0
 30
0
  0
VERTEX
  8
LAYER_1
 10
37.5445
 20
200.605
  0
VERTEX
  8
LAYER_1
 10
34.1347
 20
200.605
  0
SEQEND
  0
POLYLINE
  8
LAYER_1
 40
0.1058
 41
0.1058
 66
1
 10
0
 20
0
 30
0
  0
VERTEX
  8
LAYER_1
 10
34.0923
 20
192.0699
  0
VERTEX
  8
LAYER_1
 10
34.0923
 20
192.1123
  0
SEQEND
  0
POLYLINE
  8
LAYER_1
 40
0.1058
 41
0.1058
 66
1
 10
0
 20
0
 30
0
  0
VERTEX
  8
LAYER_1
 10
34.1135
 20
192.0488
  0
VERTEX
  8
LAYER_1
 10
34.1135
 20
192.1335
  0
SEQEND
  0
POLYLINE
  8
LAYER_1
 40
0.1058
 41
0.1058
 66
1
 10
0
 20
0
 30
0
  0
VERTEX
  8
LAYER_1
 10
34.1347
 20
192.0488
  0
VERTEX
  8
LAYER_1
 10
34.1347
 20
192.1335
  0
SEQEND
  0
POLYLINE
  8
LAYER_1
 40
0.1058
 41
0.1058
 66
1
 10
0
 20
0
 30
0
  0
VERTEX
  8
LAYER_1
 10
34.1559
 20
192.0488
  0
VERTEX
  8
LAYER_1
 10
34.1559
 20
192.1335
  0
SEQEND
  0
POLYLINE
  8
LAYER_1
 40
0.1058
 41
0.1058
 66
1
 10
0
 20
0
 30
0
  0
VERTEX
  8
LAYER_1
 10
34.1771
 20
192.0699
  0
VERTEX
  8
LAYER_1
 10
34.1771
 20
192.1123
  0
SEQEND
  0
POLYLINE
  8
LAYER_1
 40
0.1058
 41
0.1058
 66
1
 10
0
 20
0
 30
0
  0
VERTEX
  8
LAYER_1
 10
34.0923
 20
200.5839
  0
VERTEX
  8
LAYER_1
 10
34.0923
 20
200.6262
  0
SEQEND
  0
POLYLINE
  8
LAYER_1
 40
0.1058
 41
0.1058
 66
1
 10
0
 20
0
 30
0
  0
VERTEX
  8
LAYER_1
 10
34.1135
 20
200.5627
  0
VERTEX
  8
LAYER_1
 10
34.1135
 20
200.6474
  0
SEQEND
  0
POLYLINE
  8
LAYER_1
 40
0.1058
 41
0.1058
 66
1
 10
0
 20
0
 30
0
  0
VERTEX
  8
LAYER_1
 10
34.1347
 20
200.5627
  0
VERTEX
  8
LAYER_1
 10
34.1347
 20
200.6474
  0
SEQEND
  0
POLYLINE
  8
LAYER_1
 40
0.1058
 41
0.1058
 66
1
 10
0
 20
0
 30
0
  0
VERTEX
  8
LAYER_1
 10
34.1559
 20
200.5627
  0
VERTEX
  8
LAYER_1
 10
34.1559
 20
200.6474
  0
SEQEND
  0
POLYLINE
  8
LAYER_1
 40
0.1058
 41
0.1058
 66
1
 10
0
 20
0
 30
0
  0
VERTEX
  8
LAYER_1
 10
34.1771
 20
200.5839
  0
VERTEX
  8
LAYER_1
 10
34.1771
 20
200.6262
  0
SEQEND
  0
POLYLINE
  8
LAYER_1
 40
0.1058
 41
0.1058
 66
1
 10
0
 20
0
 30
0
  0
VERTEX
  8
LAYER_1
 10
34.1347
 20
192.0911
  0
VERTEX
  8
LAYER_1
 10
34.1347
 20
200.605
  0
SEQEND
  0
POLYLINE
  8
LAYER_1
 40
0.1058
 41
0.1058
 66
1
 10
0
 20
0
 30
0
  0
VERTEX
  8
LAYER_1
 10
34.1347
 20
200.605
  0
VERTEX
  8
LAYER_1
 10
34.1347
 20
206.5987
  0
SEQEND
  0
POLYLINE
  8
LAYER_1
 40
0.1058
 41
0.1058
 66
1
 10
0
 20
0
 30
0
  0
VERTEX
  8
LAYER_1
 10
45.107
 20
206.5775
  0
VERTEX
  8
LAYER_1
 10
45.107
 20
206.6198
  0
SEQEND
  0
POLYLINE
  8
LAYER_1
 40
0.1058
 41
0.1058
 66
1
 10
0
 20
0
 30
0
  0
VERTEX
  8
LAYER_1
 10
45.1282
 20
206.5563
  0
VERTEX
  8
LAYER_1
 10
45.1282
 20
206.641
  0
SEQEND
  0
POLYLINE
  8
LAYER_1
 40
0.1058
 41
0.1058
 66
1
 10
0
 20
0
 30
0
  0
VERTEX
  8
LAYER_1
 10
45.1494
 20
206.5563
  0
VERTEX
  8
LAYER_1
 10
45.1494
 20
206.641
  0
SEQEND
  0
POLYLINE
  8
LAYER_1
 40
0.1058
 41
0.1058
 66
1
 10
0
 20
0
 30
0
  0
VERTEX
  8
LAYER_1
 10
45.1705
 20
206.5563
  0
VERTEX
  8
LAYER_1
 10
45.1705
 20
206.641
  0
SEQEND
  0
POLYLINE
  8
LAYER_1
 40
0.1058
 41
0.1058
 66
1
 10
0
 20
0
 30
0
  0
VERTEX
  8
LAYER_1
 10
45.1917
 20
206.5775
  0
VERTEX
  8
LAYER_1
 10
45.1917
 20
206.6198
  0
SEQEND
  0
POLYLINE
  8
LAYER_1
 40
0.1058
 41
0.1058
 66
1
 10
0
 20
0
 30
0
  0
VERTEX
  8
LAYER_1
 10
34.0923
 20
200.5839
  0
VERTEX
  8
LAYER_1
 10
34.0923
 20
200.6262
  0
SEQEND
  0
POLYLINE
  8
LAYER_1
 40
0.1058
 41
0.1058
 66
1
 10
0
 20
0
 30
0
  0
VERTEX
  8
LAYER_1
 10
34.1135
 20
200.5627
  0
VERTEX
  8
LAYER_1
 10
34.1135
 20
200.6474
  0
SEQEND
  0
POLYLINE
  8
LAYER_1
 40
0.1058
 41
0.1058
 66
1
 10
0
 20
0
 30
0
  0
VERTEX
  8
LAYER_1
 10
34.1347
 20
200.5627
  0
VERTEX
  8
LAYER_1
 10
34.1347
 20
200.6474
  0
SEQEND
  0
POLYLINE
  8
LAYER_1
 40
0.1058
 41
0.1058
 66
1
 10
0
 20
0
 30
0
  0
VERTEX
  8
LAYER_1
 10
34.1559
 20
200.5627
  0
VERTEX
  8
LAYER_1
 10
34.1559
 20
200.6474
  0
SEQEND
  0
POLYLINE
  8
LAYER_1
 40
0.1058
 41
0.1058
 66
1
 10
0
 20
0
 30
0
  0
VERTEX
  8
LAYER_1
 10
34.1771
 20
200.5839
  0
VERTEX
  8
LAYER_1
 10
34.1771
 20
200.6262
  0
SEQEND
  0
POLYLINE
  8
LAYER_1
 40
0.1058
 41
0.1058
 66
1
 10
0
 20
0
 30
0
  0
VERTEX
  8
LAYER_1
 10
37.5445
 20
200.605
  0
VERTEX
  8
LAYER_1
 10
34.1347
 20
200.605
  0
SEQEND
  0
TEXT
  8
LAYER_1
 10
33.6369
 20
201.1869
 11
33.6369
 21
201.1869
 40
5.1297
 41
0.5
 50
89.99999999
  1
60
  0
POLYLINE
  8
LAYER_1
 40
0.1058
 41
0.1058
 66
1
 10
0
 20
0
 30
0
  0
VERTEX
  8
LAYER_1
 10
45.1494
 20
146.5777
  0
VERTEX
  8
LAYER_1
 10
45.1494
 20
156.087
  0
SEQEND
  0
POLYLINE
  8
LAYER_1
 40
0.1058
 41
0.1058
 66
1
 10
0
 20
0
 30
0
  0
VERTEX
  8
LAYER_1
 10
45.107
 20
156.0658
  0
VERTEX
  8
LAYER_1
 10
45.107
 20
156.1082
  0
SEQEND
  0
POLYLINE
  8
LAYER_1
 40
0.1058
 41
0.1058
 66
1
 10
0
 20
0
 30
0
  0
VERTEX
  8
LAYER_1
 10
45.1282
 20
156.0446
  0
VERTEX
  8
LAYER_1
 10
45.1282
 20
156.1294
  0
SEQEND
  0
POLYLINE
  8
LAYER_1
 40
0.1058
 41
0.1058
 66
1
 10
0
 20
0
 30
0
  0
VERTEX
  8
LAYER_1
 10
45.1494
 20
156.0446
  0
VERTEX
  8
LAYER_1
 10
45.1494
 20
156.1294
  0
SEQEND
  0
POLYLINE
  8
LAYER_1
 40
0.1058
 41
0.1058
 66
1
 10
0
 20
0
 30
0
  0
VERTEX
  8
LAYER_1
 10
45.1705
 20
156.0446
  0
VERTEX
  8
LAYER_1
 10
45.1705
 20
156.1294
  0
SEQEND
  0
POLYLINE
  8
LAYER_1
 40
0.1058
 41
0.1058
 66
1
 10
0
 20
0
 30
0
  0
VERTEX
  8
LAYER_1
 10
45.1917
 20
156.0658
  0
VERTEX
  8
LAYER_1
 10
45.1917
 20
156.1082
  0
SEQEND
  0
POLYLINE
  8
LAYER_1
 40
0.1058
 41
0.1058
 66
1
 10
0
 20
0
 30
0
  0
VERTEX
  8
LAYER_1
 10
45.107
 20
146.5565
  0
VERTEX
  8
LAYER_1
 10
45.107
 20
146.5988
  0
SEQEND
  0
POLYLINE
  8
LAYER_1
 40
0.1058
 41
0.1058
 66
1
 10
0
 20
0
 30
0
  0
VERTEX
  8
LAYER_1
 10
45.1282
 20
146.5353
  0
VERTEX
  8
LAYER_1
 10
45.1282
 20
146.62
  0
SEQEND
  0
POLYLINE
  8
LAYER_1
 40
0.1058
 41
0.1058
 66
1
 10
0
 20
0
 30
0
  0
VERTEX
  8
LAYER_1
 10
45.1494
 20
146.5353
  0
VERTEX
  8
LAYER_1
 10
45.1494
 20
146.62
  0
SEQEND
  0
POLYLINE
  8
LAYER_1
 40
0.1058
 41
0.1058
 66
1
 10
0
 20
0
 30
0
  0
VERTEX
  8
LAYER_1
 10
45.1705
 20
146.5353
  0
VERTEX
  8
LAYER_1
 10
45.1705
 20
146.62
  0
SEQEND
  0
POLYLINE
  8
LAYER_1
 40
0.1058
 41
0.1058
 66
1
 10
0
 20
0
 30
0
  0
VERTEX
  8
LAYER_1
 10
45.1917
 20
146.5565
  0
VERTEX
  8
LAYER_1
 10
45.1917
 20
146.5988
  0
SEQEND
  0
POLYLINE
  8
LAYER_1
 40
0.1058
 41
0.1058
 66
1
 10
0
 20
0
 30
0
  0
VERTEX
  8
LAYER_1
 10
48.5592
 20
156.087
  0
VERTEX
  8
LAYER_1
 10
45.1494
 20
156.087
  0
SEQEND
  0
TEXT
  8
LAYER_1
 10
44.6515
 20
149.7802
 11
44.6515
 21
149.7802
 40
5.1297
 41
0.5
 50
89.99999999
  1
95
  0
POLYLINE
  8
LAYER_1
 40
0.1058
 41
0.1058
 66
1
 10
0
 20
0
 30
0
  0
VERTEX
  8
LAYER_1
 10
99.8544
 20
141.1793
  0
VERTEX
  8
LAYER_1
 10
9.823
 20
141.1793
  0
SEQEND
  0
TEXT
  8
LAYER_1
 10
52.4507
 20
136.7162
 11
52.4507
 21
136.7162
 40
5.1297
 41
0.5
  1
900
  0
POLYLINE
  8
LAYER_1
 40
0.1058
 41
0.1058
 66
1
 10
0
 20
0
 30
0
  0
VERTEX
  8
LAYER_1
 10
9.823
 20
139.4467
  0
VERTEX
  8
LAYER_1
 10
9.823
 20
142.9225
  0
SEQEND
  0
POLYLINE
  8
LAYER_1
 40
0.1058
 41
0.1058
 66
1
 10
0
 20
0
 30
0
  0
VERTEX
  8
LAYER_1
 10
99.8544
 20
139.4467
  0
VERTEX
  8
LAYER_1
 10
99.8544
 20
142.9225
  0
SEQEND
  0
POLYLINE
  8
LAYER_1
 40
0.1058
 41
0.1058
 66
1
 10
0
 20
0
 30
0
  0
VERTEX
  8
LAYER_1
 10
5.7021
 20
146.5777
  0
VERTEX
  8
LAYER_1
 10
5.7021
 20
206.5987
  0
SEQEND
  0
TEXT
  8
LAYER_1
 10
4.019
 20
174.1908
 11
4.019
 21
174.1908
 40
5.1297
 41
0.5
 50
89.99999999
  1
600
  0
POLYLINE
  8
LAYER_1
 40
0.1058
 41
0.1058
 66
1
 10
0
 20
0
 30
0
  0
VERTEX
  8
LAYER_1
 10
7.4453
 20
206.5987
  0
VERTEX
  8
LAYER_1
 10
3.9589
 20
206.5987
  0
SEQEND
  0
POLYLINE
  8
LAYER_1
 40
0.1058
 41
0.1058
 66
1
 10
0
 20
0
 30
0
  0
VERTEX
  8
LAYER_1
 10
7.4453
 20
146.5777
  0
VERTEX
  8
LAYER_1
 10
3.9589
 20
146.5777
  0
SEQEND
  0
POLYLINE
  8
LAYER_1
 40
0.1058
 41
0.1058
 66
1
 10
0
 20
0
 30
0
  0
VERTEX
  8
LAYER_1
 10
57.8249
 20
200.605
  0
VERTEX
  8
LAYER_1
 10
51.8313
 20
200.605
  0
SEQEND
  0
POLYLINE
  8
LAYER_1
 40
0.1058
 41
0.1058
 66
1
 10
0
 20
0
 30
0
  0
VERTEX
  8
LAYER_1
 10
54.8387
 20
197.5976
  0
VERTEX
  8
LAYER_1
 10
54.8387
 20
203.6124
  0
SEQEND
  0
TEXT
  8
LAYER_1
 10
46.3272
 20
212.6767
 11
46.3272
 21
212.6767
 40
5.1297
 41
0.5
  1
100
  0
TEXT
  8
LAYER_1
 10
56.9299
 20
212.6767
 11
56.9299
 21
212.6767
 40
5.1297
 41
0.5
  1
100
  0
POLYLINE
  8
LAYER_1
 40
0.1058
 41
0.1058
 66
1
 10
0
 20
0
 30
0
  0
VERTEX
  8
LAYER_1
 10
44.8387
 20
207.9477
  0
VERTEX
  8
LAYER_1
 10
44.8387
 20
211.3787
  0
SEQEND
  0
POLYLINE
  8
LAYER_1
 40
0.1058
 41
0.1058
 66
1
 10
0
 20
0
 30
0
  0
VERTEX
  8
LAYER_1
 10
54.8387
 20
207.9477
  0
VERTEX
  8
LAYER_1
 10
54.8387
 20
211.3787
  0
SEQEND
  0
POLYLINE
  8
LAYER_1
 40
0.1058
 41
0.1058
 66
1
 10
0
 20
0
 30
0
  0
VERTEX
  8
LAYER_1
 10
64.8387
 20
207.9477
  0
VERTEX
  8
LAYER_1
 10
64.8387
 20
211.3787
  0
SEQEND
  0
POLYLINE
  8
LAYER_1
 40
0.1058
 41
0.1058
 66
1
 10
0
 20
0
 30
0
  0
VERTEX
  8
LAYER_1
 10
44.8386
 20
211.3787
  0
VERTEX
  8
LAYER_1
 10
64.8386
 20
211.3787
  0
SEQEND
  0
CIRCLE
  8
LAYER_1
 10
54.8281
 20
200.605
 40
1.75
  0
POLYLINE
  8
LAYER_1
 40
0.1058
 41
0.1058
 66
1
 10
0
 20
0
 30
0
  0
VERTEX
  8
LAYER_1
 10
67.8249
 20
200.605
  0
VERTEX
  8
LAYER_1
 10
61.8313
 20
200.605
  0
SEQEND
  0
POLYLINE
  8
LAYER_1
 40
0.1058
 41
0.1058
 66
1
 10
0
 20
0
 30
0
  0
VERTEX
  8
LAYER_1
 10
64.8387
 20
197.5976
  0
VERTEX
  8
LAYER_1
 10
64.8387
 20
203.6124
  0
SEQEND
  0
CIRCLE
  8
LAYER_1
  6
AIGENLINE003
 10
64.8281
 20
200.605
 40
1.75
  0
POLYLINE
  8
LAYER_1
 40
0.1058
 41
0.1058
 66
1
 10
0
 20
0
 30
0
  0
VERTEX
  8
LAYER_1
 10
47.8249
 20
200.605
  0
VERTEX
  8
LAYER_1
 10
41.8313
 20
200.605
  0
SEQEND
  0
POLYLINE
  8
LAYER_1
 40
0.1058
 41
0.1058
 66
1
 10
0
 20
0
 30
0
  0
VERTEX
  8
LAYER_1
 10
44.8387
 20
197.5976
  0
VERTEX
  8
LAYER_1
 10
44.8387
 20
203.6124
  0
SEQEND
  0
CIRCLE
  8
LAYER_1
  6
AIGENLINE003
 10
44.8281
 20
200.605
 40
1.75
  0
TEXT
  8
LAYER_1
 10
41.671
 20
193.9653
 11
41.671
 21
193.9653
 40
4.028
 41
0.5
  1
水栓取り付け穴%%c10050
  0
TEXT
  8
LAYER_1
 10
23.2716
 20
126.6981
 11
23.2716
 21
126.6981
 40
4.3636
 41
0.5
  1
水栓取り付け穴は1穴・3穴をお選びいただけます。
  0
TEXT
  8
LAYER_2
 10
-26.2556
 20
43.1712
 11
-26.2556
 21
43.1712
 40
3.2995
 41
0.5
  1
仕様
  0
POLYLINE
  8
LAYER_2
 40
0.3528
 41
0.3528
 66
1
 10
0
 20
0
 30
0
  0
VERTEX
  8
LAYER_2
 10
250.6748
 20
51.9507
  0
VERTEX
  8
LAYER_2
 10
-29.3178
 20
51.9507
  0
SEQEND
  0
INSERT
  8
LAYER_2
  2
AIGNBL02010002
 10
0
 20
0
 30
0
  0
POLYLINE
  8
LAYER_2
 40
0.3528
 41
0.3528
 66
1
 10
0
 20
0
 30
0
  0
VERTEX
  8
LAYER_2
 10
-29.3178
 20
229.3369
  0
VERTEX
  8
LAYER_2
 10
-29.3178
 20
34.3283
  0
VERTEX
  8
LAYER_2
 10
250.6748
 20
34.3283
  0
VERTEX
  8
LAYER_2
 10
250.6748
 20
229.3369
  0
VERTEX
  8
LAYER_2
 10
-29.3178
 20
229.3369
  0
SEQEND
  0
POLYLINE
  8
LAYER_2
 40
0.3528
 41
0.3528
 66
1
 10
0
 20
0
 30
0
  0
VERTEX
  8
LAYER_2
 10
250.6748
 20
60.4597
  0
VERTEX
  8
LAYER_2
 10
-29.3178
 20
60.4597
  0
SEQEND
  0
POLYLINE
  8
LAYER_2
 40
0.3528
 41
0.3528
 66
1
 10
0
 20
0
 30
0
  0
VERTEX
  8
LAYER_2
 10
250.6748
 20
43.4416
  0
VERTEX
  8
LAYER_2
 10
143.5341
 20
43.4416
  0
SEQEND
  0
TEXT
  8
LAYER_2
 10
182.8808
 20
49.4743
 11
182.8808
 21
49.4743
 40
2.1997
 41
0.5
  1
縮尺
  0
POLYLINE
  8
LAYER_2
 40
0.3528
 41
0.3528
 66
1
 10
0
 20
0
 30
0
  0
VERTEX
  8
LAYER_2
 10
181.3526
 20
43.4416
  0
VERTEX
  8
LAYER_2
 10
181.3526
 20
51.9507
  0
SEQEND
  0
TEXT
  8
LAYER_2
 10
144.2327
 20
57.9834
 11
144.2327
 21
57.9834
 40
2.1997
 41
0.5
  1
品番
  0
TEXT
  8
LAYER_2
 10
-28.1609
 20
57.9834
 11
-28.1609
 21
57.9834
 40
2.1997
 41
0.5
  1
品名
  0
TEXT
  8
LAYER_2
 10
144.2327
 20
49.4743
 11
144.2327
 21
49.4743
 40
2.1997
 41
0.5
  1
重量
  0
TEXT
  8
LAYER_2
 10
150.2547
 20
54.1514
 11
150.2547
 21
54.1514
 40
5.9385
 41
0.5
  1
ACA-900/
  0
TEXT
  8
LAYER_2
 10
149.5454
 20
45.7175
 11
149.5454
 21
45.7175
 40
3.7615
 41
0.5
  1
-
  0
POLYLINE
  8
LAYER_2
 40
0.3528
 41
0.3528
 66
1
 10
0
 20
0
 30
0
  0
VERTEX
  8
LAYER_2
 10
143.5341
 20
34.9539
  0
VERTEX
  8
LAYER_2
 10
143.5341
 20
60.4597
  0
SEQEND
  0
TEXT
  8
LAYER_2
 10
-15.2849
 20
54.891
 11
-15.2849
 21
54.891
 40
3.6373
 41
0.5
  1
エンジョイアンダーカウンター洗面器用カウンターセット
  0
TEXT
  8
LAYER_2
 10
-15.8845
 20
47.0531
 11
-15.8845
 21
47.0531
 40
3.5541
 41
0.5
  1
●サイズ：W900×H150×D600mm　　●メラミン化粧板（柾目・横方向）　基材：耐水MDF　
  0
TEXT
  8
LAYER_2
 10
-15.8845
 20
42.303
 11
-15.8845
 21
42.303
 40
3.5541
 41
0.5
  1
●カウンター裏面CIE-EJLASPO専用座彫り加工済み　●ブラケット別途　
  0
TEXT
  8
LAYER_2
 10
237.263
 20
63.2582
 11
237.263
 21
63.2582
 40
2.9618
 41
0.5
  1
単位：mm
  0
TEXT
  8
LAYER_2
 10
176.0254
 20
39.5359
 11
176.0254
 21
39.5359
 40
3.3853
 41
0.5
  1
●TEL 0120-65-1232●FAX 06-6532-1580
  0
TEXT
  8
LAYER_2
 10
176.0254
 20
36.0212
 11
176.0254
 21
36.0212
 40
3.3853
 41
0.5
  1
hits@hiratatile.co.jp
  0
TEXT
  8
LAYER_2
 10
240.3591
 20
225.8432
 11
240.3591
 21
225.8432
 40
2.0732
 41
0.5
  1
200409RT
  0
INSERT
  8
LAYER_2
  2
AIGNBL02010003
 10
0
 20
0
 30
0
  0
ENDSEC
  0
EOF
