  0
SECTION
  2
HEADER
  9
$ACADVER
  1
AC1009
  9
$LUNITS
 70
2
  9
$LUPREC
 70
4
  9
$LTSCALE
 40
1.0
  9
$EXTMIN
 10
-30.3177
 20
33.3285
 30
0
  9
$EXTMAX
 10
251.6749
 20
230.337
 30
0
  0
ENDSEC
  0
SECTION
  2
TABLES
  0
TABLE
  2
LTYPE
 70
256
  0
LTYPE
  2
AIGENLINE001
 70
64
  3
generate AI->DXF Converter
 72
65
 73
4
 40
2
 49
1.25
 49
-0.25
 49
0.25
 49
-0.25
  0
LTYPE
  2
AIGENLINE002
 70
64
  3
generate AI->DXF Converter
 72
65
 73
0
 40
0
  0
LTYPE
  2
AIGENLINE003
 70
64
  3
generate AI->DXF Converter
 72
65
 73
6
 40
2.5
 49
1.25
 49
-0.25
 49
0.25
 49
-0.25
 49
0.25
 49
-0.25
  0
ENDTAB
  0
TABLE
  2
LAYER
 70
2
  0
LAYER
  2
LAYER_1
 70
64
 62
7
  6
CONTINUOUS
  0
LAYER
  2
LAYER_2
 70
64
 62
7
  6
CONTINUOUS
  0
ENDTAB
  0
TABLE
  2
STYLE
 70
6
  0
STYLE
  2
STANDARD
 70
0
 40
0
 50
0
 71
0
 41
0
 42
0
  3
TXT
  4
BIGFONT
  0
ENDTAB
  0
ENDSEC
  0
SECTION
  2
BLOCKS
  0
BLOCK
  8
LAYER_2
  2
AIGNBL02040006
 70
64
 10
0
 20
0
 30
0
  3
AIGNBL02040006
  0
POLYLINE
  8
LAYER_2
 40
0.05
 41
0.05
 66
1
 10
0
 20
0
 30
0
 70
1
  0
VERTEX
  8
LAYER_2
 10
146.7545
 20
39.1418
  0
VERTEX
  8
LAYER_2
 10
146.2656
 20
37.9567
  0
VERTEX
  8
LAYER_2
 10
145.6376
 20
37.9567
  0
VERTEX
  8
LAYER_2
 10
147.2372
 20
41.7225
  0
VERTEX
  8
LAYER_2
 10
147.9703
 20
41.7225
  0
VERTEX
  8
LAYER_2
 10
149.5768
 20
37.9567
  0
VERTEX
  8
LAYER_2
 10
148.9267
 20
37.9567
  0
VERTEX
  8
LAYER_2
 10
148.424
 20
39.1418
  0
SEQEND
  0
POLYLINE
  8
LAYER_2
 40
0.05
 41
0.05
 66
1
 10
0
 20
0
 30
0
 70
1
  0
VERTEX
  8
LAYER_2
 10
148.2983
 20
39.5207
  0
VERTEX
  8
LAYER_2
 10
147.8373
 20
40.6056
 42
-0.02317247198
  0
VERTEX
  8
LAYER_2
 10
147.5927
 20
41.2926
  0
VERTEX
  8
LAYER_2
 10
147.5789
 20
41.2926
 42
-0.02064481114
  0
VERTEX
  8
LAYER_2
 10
147.3412
 20
40.6101
  0
VERTEX
  8
LAYER_2
 10
146.8806
 20
39.5207
  0
SEQEND
  0
ENDBLK
  0
BLOCK
  8
LAYER_2
  2
AIGNBL02040007
 70
64
 10
0
 20
0
 30
0
  3
AIGNBL02040007
  0
POLYLINE
  8
LAYER_2
 40
0.05
 41
0.05
 66
1
 10
0
 20
0
 30
0
 70
1
  0
VERTEX
  8
LAYER_2
 10
153.942
 20
37.4034
 42
-0.01520763512
  0
VERTEX
  8
LAYER_2
 10
152.1399
 20
37.8395
 42
0.09160443264
  0
VERTEX
  8
LAYER_2
 10
151.8533
 20
37.895
 42
-0.09256808484
  0
VERTEX
  8
LAYER_2
 10
150.8994
 20
38.0977
 42
-0.09799469934
  0
VERTEX
  8
LAYER_2
 10
150.2621
 20
38.5324
 42
-0.1630918382
  0
VERTEX
  8
LAYER_2
 10
149.7964
 20
39.5259
 42
-0.0316951694
  0
VERTEX
  8
LAYER_2
 10
149.7793
 20
39.7998
 42
-0.1055313794
  0
VERTEX
  8
LAYER_2
 10
149.9533
 20
40.6417
 42
-0.1619874109
  0
VERTEX
  8
LAYER_2
 10
150.7418
 20
41.4867
 42
-0.09224146328
  0
VERTEX
  8
LAYER_2
 10
151.5409
 20
41.7524
 42
-0.03717154931
  0
VERTEX
  8
LAYER_2
 10
151.9725
 20
41.7838
 42
-0.09530639066
  0
VERTEX
  8
LAYER_2
 10
152.9361
 20
41.6062
 42
-0.1001950085
  0
VERTEX
  8
LAYER_2
 10
153.5732
 20
41.1834
 42
-0.1611155306
  0
VERTEX
  8
LAYER_2
 10
154.0599
 20
40.1825
 42
-0.03590167283
  0
VERTEX
  8
LAYER_2
 10
154.0815
 20
39.8784
 42
-0.1066761192
  0
VERTEX
  8
LAYER_2
 10
153.9051
 20
39.0236
 42
-0.2183970027
  0
VERTEX
  8
LAYER_2
 10
152.7953
 20
38.0897
 42
-0.006706711403
  0
VERTEX
  8
LAYER_2
 10
152.7407
 20
38.0738
  0
VERTEX
  8
LAYER_2
 10
152.7407
 20
38.0514
 42
0.01533555045
  0
VERTEX
  8
LAYER_2
 10
154.117
 20
37.8113
  0
SEQEND
  0
POLYLINE
  8
LAYER_2
 40
0.05
 41
0.05
 66
1
 10
0
 20
0
 30
0
 70
1
  0
VERTEX
  8
LAYER_2
 10
153.4394
 20
39.857
 42
0.1175610784
  0
VERTEX
  8
LAYER_2
 10
153.257
 20
40.6254
 42
0.1170135141
  0
VERTEX
  8
LAYER_2
 10
152.8315
 20
41.1234
 42
0.1200044572
  0
VERTEX
  8
LAYER_2
 10
152.2186
 20
41.3675
 42
0.03774262044
  0
VERTEX
  8
LAYER_2
 10
151.9511
 20
41.3873
 42
0.1153139376
  0
VERTEX
  8
LAYER_2
 10
151.2089
 20
41.2226
 42
0.1853550912
  0
VERTEX
  8
LAYER_2
 10
150.5507
 20
40.4882
 42
0.09859892291
  0
VERTEX
  8
LAYER_2
 10
150.4287
 20
39.8122
 42
0.1178359247
  0
VERTEX
  8
LAYER_2
 10
150.5964
 20
39.0734
 42
0.2866694251
  0
VERTEX
  8
LAYER_2
 10
151.9232
 20
38.2912
 42
0.1188197759
  0
VERTEX
  8
LAYER_2
 10
152.6722
 20
38.4633
 42
0.1796740134
  0
VERTEX
  8
LAYER_2
 10
153.3126
 20
39.18
 42
0.09850052237
  0
SEQEND
  0
ENDBLK
  0
BLOCK
  8
LAYER_2
  2
AIGNBL02040008
 70
64
 10
0
 20
0
 30
0
  3
AIGNBL02040008
  0
POLYLINE
  8
LAYER_2
 40
0.05
 41
0.05
 66
1
 10
0
 20
0
 30
0
 70
1
  0
VERTEX
  8
LAYER_2
 10
155.4089
 20
41.7225
  0
VERTEX
  8
LAYER_2
 10
155.4089
 20
39.4932
 42
0.1220213404
  0
VERTEX
  8
LAYER_2
 10
155.569
 20
38.7775
 42
0.2218709818
  0
VERTEX
  8
LAYER_2
 10
156.2104
 20
38.3206
 42
0.05223876895
  0
VERTEX
  8
LAYER_2
 10
156.5055
 20
38.2912
 42
0.1302821267
  0
VERTEX
  8
LAYER_2
 10
157.1748
 20
38.452
 42
0.1509367336
  0
VERTEX
  8
LAYER_2
 10
157.526
 20
38.8454
 42
0.1174732039
  0
VERTEX
  8
LAYER_2
 10
157.651
 20
39.4932
  0
VERTEX
  8
LAYER_2
 10
157.651
 20
41.7225
  0
VERTEX
  8
LAYER_2
 10
158.2656
 20
41.7225
  0
VERTEX
  8
LAYER_2
 10
158.2656
 20
39.5266
 42
-0.1106199636
  0
VERTEX
  8
LAYER_2
 10
158.0961
 20
38.708
 42
-0.1822316276
  0
VERTEX
  8
LAYER_2
 10
157.4057
 20
38.0637
 42
-0.09768689614
  0
VERTEX
  8
LAYER_2
 10
156.6028
 20
37.8972
 42
-0.01000776787
  0
VERTEX
  8
LAYER_2
 10
156.4845
 20
37.895
 42
-0.09899539667
  0
VERTEX
  8
LAYER_2
 10
155.612
 20
38.0554
 42
-0.120955925
  0
VERTEX
  8
LAYER_2
 10
155.1093
 20
38.4366
 42
-0.1193006487
  0
VERTEX
  8
LAYER_2
 10
154.8407
 20
39.0316
 42
-0.05319923583
  0
VERTEX
  8
LAYER_2
 10
154.7943
 20
39.5045
  0
VERTEX
  8
LAYER_2
 10
154.7943
 20
41.7225
  0
SEQEND
  0
ENDBLK
  0
BLOCK
  8
LAYER_2
  2
AIGNBL02040009
 70
64
 10
0
 20
0
 30
0
  3
AIGNBL02040009
  0
POLYLINE
  8
LAYER_2
 40
0.05
 41
0.05
 66
1
 10
0
 20
0
 30
0
 70
1
  0
VERTEX
  8
LAYER_2
 10
160.0119
 20
39.1418
  0
VERTEX
  8
LAYER_2
 10
159.5227
 20
37.9567
  0
VERTEX
  8
LAYER_2
 10
158.8947
 20
37.9567
  0
VERTEX
  8
LAYER_2
 10
160.4939
 20
41.7225
  0
VERTEX
  8
LAYER_2
 10
161.227
 20
41.7225
  0
VERTEX
  8
LAYER_2
 10
162.8335
 20
37.9567
  0
VERTEX
  8
LAYER_2
 10
162.1841
 20
37.9567
  0
VERTEX
  8
LAYER_2
 10
161.6814
 20
39.1418
  0
SEQEND
  0
POLYLINE
  8
LAYER_2
 40
0.05
 41
0.05
 66
1
 10
0
 20
0
 30
0
 70
1
  0
VERTEX
  8
LAYER_2
 10
161.5553
 20
39.5207
  0
VERTEX
  8
LAYER_2
 10
161.094
 20
40.6056
 42
-0.02227599701
  0
VERTEX
  8
LAYER_2
 10
160.8494
 20
41.2926
  0
VERTEX
  8
LAYER_2
 10
160.8357
 20
41.2926
 42
-0.0208222547
  0
VERTEX
  8
LAYER_2
 10
160.5983
 20
40.6101
  0
VERTEX
  8
LAYER_2
 10
160.1373
 20
39.5207
  0
SEQEND
  0
ENDBLK
  0
BLOCK
  8
LAYER_2
  2
AIGNBL0204000A
 70
64
 10
0
 20
0
 30
0
  3
AIGNBL0204000A
  0
POLYLINE
  8
LAYER_2
 40
0.05
 41
0.05
 66
1
 10
0
 20
0
 30
0
 70
1
  0
VERTEX
  8
LAYER_2
 10
163.8742
 20
41.6777
 42
-0.03334485223
  0
VERTEX
  8
LAYER_2
 10
165.0411
 20
41.7508
 42
-0.08844478427
  0
VERTEX
  8
LAYER_2
 10
166.0871
 20
41.5858
 42
-0.06037505309
  0
VERTEX
  8
LAYER_2
 10
166.3609
 20
41.4379
 42
-0.2472514979
  0
VERTEX
  8
LAYER_2
 10
166.7726
 20
40.6497
 42
-0.1483298328
  0
VERTEX
  8
LAYER_2
 10
166.6029
 20
40.0554
 42
-0.07223194904
  0
VERTEX
  8
LAYER_2
 10
166.4095
 20
39.8456
 42
-0.1209372404
  0
VERTEX
  8
LAYER_2
 10
165.7228
 20
39.517
 42
-0.06224269186
  0
VERTEX
  8
LAYER_2
 10
164.9708
 20
39.4319
 42
-0.05738783264
  0
VERTEX
  8
LAYER_2
 10
164.4823
 20
39.4653
  0
VERTEX
  8
LAYER_2
 10
164.4823
 20
37.9567
  0
VERTEX
  8
LAYER_2
 10
163.8742
 20
37.9567
  0
SEQEND
  0
POLYLINE
  8
LAYER_2
 40
0.05
 41
0.05
 66
1
 10
0
 20
0
 30
0
 70
1
  0
VERTEX
  8
LAYER_2
 10
164.4823
 20
39.8622
 42
0.05012782438
  0
VERTEX
  8
LAYER_2
 10
164.9846
 20
39.8229
 42
0.1135299982
  0
VERTEX
  8
LAYER_2
 10
165.7697
 20
39.9822
 42
0.1653556145
  0
VERTEX
  8
LAYER_2
 10
166.1074
 20
40.3302
 42
0.1044590446
  0
VERTEX
  8
LAYER_2
 10
166.1656
 20
40.6273
 42
0.2826437488
  0
VERTEX
  8
LAYER_2
 10
165.8147
 20
41.2103
 42
0.0629694601
  0
VERTEX
  8
LAYER_2
 10
165.549
 20
41.3107
 42
0.06259589917
  0
VERTEX
  8
LAYER_2
 10
165.0552
 20
41.3649
 42
0.05192366909
  0
VERTEX
  8
LAYER_2
 10
164.4823
 20
41.3257
  0
SEQEND
  0
ENDBLK
  0
BLOCK
  8
LAYER_2
  2
AIGNBL0204000B
 70
64
 10
0
 20
0
 30
0
  3
AIGNBL0204000B
  0
POLYLINE
  8
LAYER_2
 40
0.05
 41
0.05
 66
1
 10
0
 20
0
 30
0
 70
1
  0
VERTEX
  8
LAYER_2
 10
168.3246
 20
41.4207
 42
-0.3048675751
  0
VERTEX
  8
LAYER_2
 10
168.1582
 20
41.1661
 42
-0.1151020929
  0
VERTEX
  8
LAYER_2
 10
167.9329
 20
41.1189
 42
-0.2442513348
  0
VERTEX
  8
LAYER_2
 10
167.6028
 20
41.2794
 42
-0.1394546152
  0
VERTEX
  8
LAYER_2
 10
167.5626
 20
41.4207
 42
-0.287439772
  0
VERTEX
  8
LAYER_2
 10
167.7346
 20
41.6803
 42
-0.1179404017
  0
VERTEX
  8
LAYER_2
 10
167.9467
 20
41.7277
 42
-0.2416274379
  0
VERTEX
  8
LAYER_2
 10
168.2814
 20
41.5719
 42
-0.1426378456
  0
SEQEND
  0
POLYLINE
  8
LAYER_2
 40
0.05
 41
0.05
 66
1
 10
0
 20
0
 30
0
 70
1
  0
VERTEX
  8
LAYER_2
 10
167.639
 20
37.9567
  0
VERTEX
  8
LAYER_2
 10
167.639
 20
40.6607
  0
VERTEX
  8
LAYER_2
 10
168.2537
 20
40.6607
  0
VERTEX
  8
LAYER_2
 10
168.2537
 20
37.9567
  0
SEQEND
  0
ENDBLK
  0
BLOCK
  8
LAYER_2
  2
AIGNBL0204000C
 70
64
 10
0
 20
0
 30
0
  3
AIGNBL0204000C
  0
POLYLINE
  8
LAYER_2
 40
0.05
 41
0.05
 66
1
 10
0
 20
0
 30
0
 70
1
  0
VERTEX
  8
LAYER_2
 10
170.1254
 20
39.1418
  0
VERTEX
  8
LAYER_2
 10
169.6372
 20
37.9567
  0
VERTEX
  8
LAYER_2
 10
169.0081
 20
37.9567
  0
VERTEX
  8
LAYER_2
 10
170.6077
 20
41.7225
  0
VERTEX
  8
LAYER_2
 10
171.3415
 20
41.7225
  0
VERTEX
  8
LAYER_2
 10
172.9479
 20
37.9567
  0
VERTEX
  8
LAYER_2
 10
172.2982
 20
37.9567
  0
VERTEX
  8
LAYER_2
 10
171.7955
 20
39.1418
  0
SEQEND
  0
POLYLINE
  8
LAYER_2
 40
0.05
 41
0.05
 66
1
 10
0
 20
0
 30
0
 70
1
  0
VERTEX
  8
LAYER_2
 10
171.6695
 20
39.5207
  0
VERTEX
  8
LAYER_2
 10
171.2085
 20
40.6056
 42
-0.02430767271
  0
VERTEX
  8
LAYER_2
 10
170.9646
 20
41.2926
  0
VERTEX
  8
LAYER_2
 10
170.9498
 20
41.2926
 42
-0.02034719794
  0
VERTEX
  8
LAYER_2
 10
170.7128
 20
40.6101
  0
VERTEX
  8
LAYER_2
 10
170.2518
 20
39.5207
  0
SEQEND
  0
ENDBLK
  0
BLOCK
  8
LAYER_2
  2
AIGNBL02030005
 70
64
 10
0
 20
0
 30
0
  3
AIGNBL02030005
  0
INSERT
  8
LAYER_2
  2
AIGNBL02040006
 10
0
 20
0
 30
0
  0
INSERT
  8
LAYER_2
  2
AIGNBL02040007
 10
0
 20
0
 30
0
  0
INSERT
  8
LAYER_2
  2
AIGNBL02040008
 10
0
 20
0
 30
0
  0
INSERT
  8
LAYER_2
  2
AIGNBL02040009
 10
0
 20
0
 30
0
  0
INSERT
  8
LAYER_2
  2
AIGNBL0204000A
 10
0
 20
0
 30
0
  0
INSERT
  8
LAYER_2
  2
AIGNBL0204000B
 10
0
 20
0
 30
0
  0
INSERT
  8
LAYER_2
  2
AIGNBL0204000C
 10
0
 20
0
 30
0
  0
ENDBLK
  0
BLOCK
  8
LAYER_2
  2
AIGNBL0203000E
 70
64
 10
0
 20
0
 30
0
  3
AIGNBL0203000E
  0
POLYLINE
  8
LAYER_2
 40
0.05
 41
0.05
 66
1
 10
0
 20
0
 30
0
 70
1
  0
VERTEX
  8
LAYER_2
 10
145.7475
 20
36.0574
  0
VERTEX
  8
LAYER_2
 10
146.3008
 20
36.0574
  0
VERTEX
  8
LAYER_2
 10
146.3008
 20
35.9637
  0
VERTEX
  8
LAYER_2
 10
145.6424
 20
35.9637
  0
VERTEX
  8
LAYER_2
 10
145.6424
 20
36.9969
  0
VERTEX
  8
LAYER_2
 10
146.2832
 20
36.9969
  0
VERTEX
  8
LAYER_2
 10
146.2832
 20
36.9035
  0
VERTEX
  8
LAYER_2
 10
145.7475
 20
36.9035
  0
VERTEX
  8
LAYER_2
 10
145.7475
 20
36.549
  0
VERTEX
  8
LAYER_2
 10
146.2481
 20
36.549
  0
VERTEX
  8
LAYER_2
 10
146.2481
 20
36.4557
  0
VERTEX
  8
LAYER_2
 10
145.7475
 20
36.4557
  0
SEQEND
  0
ENDBLK
  0
BLOCK
  8
LAYER_2
  2
AIGNBL0203000F
 70
64
 10
0
 20
0
 30
0
  3
AIGNBL0203000F
  0
POLYLINE
  8
LAYER_2
 40
0.05
 41
0.05
 66
1
 10
0
 20
0
 30
0
 70
1
  0
VERTEX
  8
LAYER_2
 10
147.4404
 20
36.117
  0
VERTEX
  8
LAYER_2
 10
147.4432
 20
36.117
  0
VERTEX
  8
LAYER_2
 10
147.4432
 20
36.9969
  0
VERTEX
  8
LAYER_2
 10
147.5483
 20
36.9969
  0
VERTEX
  8
LAYER_2
 10
147.5483
 20
35.9637
  0
VERTEX
  8
LAYER_2
 10
147.4174
 20
35.9637
  0
VERTEX
  8
LAYER_2
 10
146.8162
 20
36.8525
  0
VERTEX
  8
LAYER_2
 10
146.8127
 20
36.8525
  0
VERTEX
  8
LAYER_2
 10
146.8127
 20
35.9637
  0
VERTEX
  8
LAYER_2
 10
146.708
 20
35.9637
  0
VERTEX
  8
LAYER_2
 10
146.708
 20
36.9969
  0
VERTEX
  8
LAYER_2
 10
146.8393
 20
36.9969
  0
SEQEND
  0
ENDBLK
  0
BLOCK
  8
LAYER_2
  2
AIGNBL02030010
 70
64
 10
0
 20
0
 30
0
  3
AIGNBL02030010
  0
POLYLINE
  8
LAYER_2
 40
0.05
 41
0.05
 66
1
 10
0
 20
0
 30
0
 70
1
  0
VERTEX
  8
LAYER_2
 10
148.0213
 20
36.1756
 42
0.1557655154
  0
VERTEX
  8
LAYER_2
 10
148.0757
 20
36.0725
 42
0.1918235184
  0
VERTEX
  8
LAYER_2
 10
148.1891
 20
36.0309
  0
VERTEX
  8
LAYER_2
 10
148.2783
 20
36.0505
  0
VERTEX
  8
LAYER_2
 10
148.3344
 20
36.1039
  0
VERTEX
  8
LAYER_2
 10
148.3634
 20
36.1804
  0
VERTEX
  8
LAYER_2
 10
148.3717
 20
36.27
  0
VERTEX
  8
LAYER_2
 10
148.3717
 20
36.9969
  0
VERTEX
  8
LAYER_2
 10
148.4767
 20
36.9969
  0
VERTEX
  8
LAYER_2
 10
148.4767
 20
36.2614
  0
VERTEX
  8
LAYER_2
 10
148.4654
 20
36.1535
 42
-0.0973308998
  0
VERTEX
  8
LAYER_2
 10
148.424
 20
36.0485
 42
-0.1149355521
  0
VERTEX
  8
LAYER_2
 10
148.3393
 20
35.9689
 42
-0.1249341208
  0
VERTEX
  8
LAYER_2
 10
148.2004
 20
35.9375
 42
-0.1793665557
  0
VERTEX
  8
LAYER_2
 10
148.0158
 20
35.9974
 42
-0.1772363953
  0
VERTEX
  8
LAYER_2
 10
147.9234
 20
36.149
  0
SEQEND
  0
ENDBLK
  0
BLOCK
  8
LAYER_2
  2
AIGNBL02030011
 70
64
 10
0
 20
0
 30
0
  3
AIGNBL02030011
  0
POLYLINE
  8
LAYER_2
 40
0.05
 41
0.05
 66
1
 10
0
 20
0
 30
0
 70
1
  0
VERTEX
  8
LAYER_2
 10
149.965
 20
36.4805
 42
-0.1019307791
  0
VERTEX
  8
LAYER_2
 10
149.924
 20
36.2631
 42
-0.1000112985
  0
VERTEX
  8
LAYER_2
 10
149.8113
 20
36.0915
 42
-0.09646612644
  0
VERTEX
  8
LAYER_2
 10
149.6405
 20
35.9785
 42
-0.09758594962
  0
VERTEX
  8
LAYER_2
 10
149.4265
 20
35.9375
 42
-0.1000844711
  0
VERTEX
  8
LAYER_2
 10
149.2129
 20
35.9785
 42
-0.09954994557
  0
VERTEX
  8
LAYER_2
 10
149.042
 20
36.0915
 42
-0.09699237735
  0
VERTEX
  8
LAYER_2
 10
148.9287
 20
36.2631
 42
-0.09653980076
  0
VERTEX
  8
LAYER_2
 10
148.8881
 20
36.4805
 42
-0.1004051845
  0
VERTEX
  8
LAYER_2
 10
148.9287
 20
36.6978
 42
-0.0998654539
  0
VERTEX
  8
LAYER_2
 10
149.042
 20
36.8694
 42
-0.09851519288
  0
VERTEX
  8
LAYER_2
 10
149.2129
 20
36.9824
 42
-0.09768823248
  0
VERTEX
  8
LAYER_2
 10
149.4265
 20
37.0234
 42
-0.1000514256
  0
VERTEX
  8
LAYER_2
 10
149.6405
 20
36.9824
 42
-0.09863053528
  0
VERTEX
  8
LAYER_2
 10
149.8113
 20
36.8694
 42
-0.09807107579
  0
VERTEX
  8
LAYER_2
 10
149.924
 20
36.6978
 42
-0.0978256893
  0
SEQEND
  0
POLYLINE
  8
LAYER_2
 40
0.05
 41
0.05
 66
1
 10
0
 20
0
 30
0
 70
1
  0
VERTEX
  8
LAYER_2
 10
149.8541
 20
36.4798
 42
0.08634913196
  0
VERTEX
  8
LAYER_2
 10
149.8251
 20
36.6517
 42
0.09649608129
  0
VERTEX
  8
LAYER_2
 10
149.7404
 20
36.795
 42
0.1032857511
  0
VERTEX
  8
LAYER_2
 10
149.6053
 20
36.8932
 42
0.1061320656
  0
VERTEX
  8
LAYER_2
 10
149.4265
 20
36.93
 42
0.1115874499
  0
VERTEX
  8
LAYER_2
 10
149.2478
 20
36.8932
 42
0.1058584166
  0
VERTEX
  8
LAYER_2
 10
149.113
 20
36.795
 42
0.09787799956
  0
VERTEX
  8
LAYER_2
 10
149.0283
 20
36.6517
 42
0.08491464556
  0
VERTEX
  8
LAYER_2
 10
148.999
 20
36.4798
 42
0.08693146424
  0
VERTEX
  8
LAYER_2
 10
149.0283
 20
36.3079
 42
0.1009797617
  0
VERTEX
  8
LAYER_2
 10
149.113
 20
36.1649
 42
0.09998489394
  0
VERTEX
  8
LAYER_2
 10
149.2478
 20
36.0674
 42
0.1061678446
  0
VERTEX
  8
LAYER_2
 10
149.4265
 20
36.0309
 42
0.1126980581
  0
VERTEX
  8
LAYER_2
 10
149.6053
 20
36.0674
 42
0.1036982708
  0
VERTEX
  8
LAYER_2
 10
149.7404
 20
36.1649
 42
0.09370250368
  0
VERTEX
  8
LAYER_2
 10
149.8251
 20
36.3079
 42
0.08466662837
  0
SEQEND
  0
ENDBLK
  0
BLOCK
  8
LAYER_2
  2
AIGNBL02030012
 70
64
 10
0
 20
0
 30
0
  3
AIGNBL02030012
  0
POLYLINE
  8
LAYER_2
 40
0.05
 41
0.05
 66
1
 10
0
 20
0
 30
0
 70
1
  0
VERTEX
  8
LAYER_2
 10
150.7398
 20
35.9637
  0
VERTEX
  8
LAYER_2
 10
150.6351
 20
35.9637
  0
VERTEX
  8
LAYER_2
 10
150.6351
 20
36.4091
  0
VERTEX
  8
LAYER_2
 10
150.2482
 20
36.9969
  0
VERTEX
  8
LAYER_2
 10
150.3795
 20
36.9969
  0
VERTEX
  8
LAYER_2
 10
150.6905
 20
36.4967
  0
VERTEX
  8
LAYER_2
 10
151.0041
 20
36.9969
  0
VERTEX
  8
LAYER_2
 10
151.1263
 20
36.9969
  0
VERTEX
  8
LAYER_2
 10
150.7398
 20
36.4091
  0
SEQEND
  0
ENDBLK
  0
BLOCK
  8
LAYER_2
  2
AIGNBL02030013
 70
64
 10
0
 20
0
 30
0
  3
AIGNBL02030013
  0
POLYLINE
  8
LAYER_2
 40
0.05
 41
0.05
 66
1
 10
0
 20
0
 30
0
 70
1
  0
VERTEX
  8
LAYER_2
 10
152.0314
 20
36.9969
  0
VERTEX
  8
LAYER_2
 10
152.339
 20
36.9969
  0
VERTEX
  8
LAYER_2
 10
152.4575
 20
36.9845
  0
VERTEX
  8
LAYER_2
 10
152.5643
 20
36.9421
 42
-0.1168262011
  0
VERTEX
  8
LAYER_2
 10
152.6422
 20
36.8611
 42
-0.1230288266
  0
VERTEX
  8
LAYER_2
 10
152.6718
 20
36.733
 42
-0.1795449175
  0
VERTEX
  8
LAYER_2
 10
152.6219
 20
36.5907
 42
-0.170141964
  0
VERTEX
  8
LAYER_2
 10
152.4885
 20
36.5111
  0
VERTEX
  8
LAYER_2
 10
152.4885
 20
36.5084
 42
-0.1719890535
  0
VERTEX
  8
LAYER_2
 10
152.6553
 20
36.4302
 42
-0.2018462152
  0
VERTEX
  8
LAYER_2
 10
152.7214
 20
36.2496
 42
-0.1247085485
  0
VERTEX
  8
LAYER_2
 10
152.6942
 20
36.1325
 42
-0.1153486961
  0
VERTEX
  8
LAYER_2
 10
152.6181
 20
36.0419
 42
-0.08656795839
  0
VERTEX
  8
LAYER_2
 10
152.4972
 20
35.9844
 42
-0.06557363107
  0
VERTEX
  8
LAYER_2
 10
152.3373
 20
35.9637
  0
VERTEX
  8
LAYER_2
 10
152.0314
 20
35.9637
  0
SEQEND
  0
POLYLINE
  8
LAYER_2
 40
0.05
 41
0.05
 66
1
 10
0
 20
0
 30
0
 70
1
  0
VERTEX
  8
LAYER_2
 10
152.1364
 20
36.5445
  0
VERTEX
  8
LAYER_2
 10
152.348
 20
36.5445
  0
VERTEX
  8
LAYER_2
 10
152.4248
 20
36.5535
  0
VERTEX
  8
LAYER_2
 10
152.4951
 20
36.5831
  0
VERTEX
  8
LAYER_2
 10
152.5471
 20
36.6396
 42
0.1162126025
  0
VERTEX
  8
LAYER_2
 10
152.5668
 20
36.7258
  0
VERTEX
  8
LAYER_2
 10
152.5471
 20
36.8095
  0
VERTEX
  8
LAYER_2
 10
152.494
 20
36.8656
  0
VERTEX
  8
LAYER_2
 10
152.4152
 20
36.897
  0
VERTEX
  8
LAYER_2
 10
152.3187
 20
36.9066
  0
VERTEX
  8
LAYER_2
 10
152.1364
 20
36.9066
  0
SEQEND
  0
POLYLINE
  8
LAYER_2
 40
0.05
 41
0.05
 66
1
 10
0
 20
0
 30
0
 70
1
  0
VERTEX
  8
LAYER_2
 10
152.1364
 20
36.0543
  0
VERTEX
  8
LAYER_2
 10
152.3321
 20
36.0543
  0
VERTEX
  8
LAYER_2
 10
152.4406
 20
36.0653
  0
VERTEX
  8
LAYER_2
 10
152.5313
 20
36.1001
 42
0.1172546835
  0
VERTEX
  8
LAYER_2
 10
152.5929
 20
36.1632
 42
0.1286243504
  0
VERTEX
  8
LAYER_2
 10
152.6164
 20
36.2559
 42
0.2498669706
  0
VERTEX
  8
LAYER_2
 10
152.5471
 20
36.4081
 42
0.1538083763
  0
VERTEX
  8
LAYER_2
 10
152.3511
 20
36.4584
  0
VERTEX
  8
LAYER_2
 10
152.1364
 20
36.4584
  0
SEQEND
  0
ENDBLK
  0
BLOCK
  8
LAYER_2
  2
AIGNBL02030014
 70
64
 10
0
 20
0
 30
0
  3
AIGNBL02030014
  0
POLYLINE
  8
LAYER_2
 40
0.05
 41
0.05
 66
1
 10
0
 20
0
 30
0
 70
1
  0
VERTEX
  8
LAYER_2
 10
153.1534
 20
35.9637
  0
VERTEX
  8
LAYER_2
 10
153.038
 20
35.9637
  0
VERTEX
  8
LAYER_2
 10
153.4849
 20
36.9969
  0
VERTEX
  8
LAYER_2
 10
153.5872
 20
36.9969
  0
VERTEX
  8
LAYER_2
 10
154.0306
 20
35.9637
  0
VERTEX
  8
LAYER_2
 10
153.9138
 20
35.9637
  0
VERTEX
  8
LAYER_2
 10
153.7997
 20
36.2352
  0
VERTEX
  8
LAYER_2
 10
153.2657
 20
36.2352
  0
SEQEND
  0
POLYLINE
  8
LAYER_2
 40
0.05
 41
0.05
 66
1
 10
0
 20
0
 30
0
 70
1
  0
VERTEX
  8
LAYER_2
 10
153.305
 20
36.3316
  0
VERTEX
  8
LAYER_2
 10
153.7604
 20
36.3316
  0
VERTEX
  8
LAYER_2
 10
153.5327
 20
36.8804
  0
SEQEND
  0
ENDBLK
  0
BLOCK
  8
LAYER_2
  2
AIGNBL02030015
 70
64
 10
0
 20
0
 30
0
  3
AIGNBL02030015
  0
POLYLINE
  8
LAYER_2
 40
0.05
 41
0.05
 66
1
 10
0
 20
0
 30
0
 70
1
  0
VERTEX
  8
LAYER_2
 10
154.7151
 20
35.9637
  0
VERTEX
  8
LAYER_2
 10
154.61
 20
35.9637
  0
VERTEX
  8
LAYER_2
 10
154.61
 20
36.9035
  0
VERTEX
  8
LAYER_2
 10
154.2638
 20
36.9035
  0
VERTEX
  8
LAYER_2
 10
154.2638
 20
36.9969
  0
VERTEX
  8
LAYER_2
 10
155.0606
 20
36.9969
  0
VERTEX
  8
LAYER_2
 10
155.0606
 20
36.9035
  0
VERTEX
  8
LAYER_2
 10
154.7151
 20
36.9035
  0
SEQEND
  0
ENDBLK
  0
BLOCK
  8
LAYER_2
  2
AIGNBL02030016
 70
64
 10
0
 20
0
 30
0
  3
AIGNBL02030016
  0
POLYLINE
  8
LAYER_2
 40
0.05
 41
0.05
 66
1
 10
0
 20
0
 30
0
 70
1
  0
VERTEX
  8
LAYER_2
 10
155.4169
 20
36.9969
  0
VERTEX
  8
LAYER_2
 10
155.5216
 20
36.9969
  0
VERTEX
  8
LAYER_2
 10
155.5216
 20
36.549
  0
VERTEX
  8
LAYER_2
 10
156.0852
 20
36.549
  0
VERTEX
  8
LAYER_2
 10
156.0852
 20
36.9969
  0
VERTEX
  8
LAYER_2
 10
156.1903
 20
36.9969
  0
VERTEX
  8
LAYER_2
 10
156.1903
 20
35.9637
  0
VERTEX
  8
LAYER_2
 10
156.0852
 20
35.9637
  0
VERTEX
  8
LAYER_2
 10
156.0852
 20
36.4529
  0
VERTEX
  8
LAYER_2
 10
155.5216
 20
36.4529
  0
VERTEX
  8
LAYER_2
 10
155.5216
 20
35.9637
  0
VERTEX
  8
LAYER_2
 10
155.4169
 20
35.9637
  0
SEQEND
  0
ENDBLK
  0
BLOCK
  8
LAYER_2
  2
AIGNBL02030017
 70
64
 10
0
 20
0
 30
0
  3
AIGNBL02030017
  0
POLYLINE
  8
LAYER_2
 40
0.05
 41
0.05
 66
1
 10
0
 20
0
 30
0
 70
1
  0
VERTEX
  8
LAYER_2
 10
156.7708
 20
35.9637
  0
VERTEX
  8
LAYER_2
 10
156.6657
 20
35.9637
  0
VERTEX
  8
LAYER_2
 10
156.6657
 20
36.9969
  0
VERTEX
  8
LAYER_2
 10
156.9696
 20
36.9969
  0
VERTEX
  8
LAYER_2
 10
157.1101
 20
36.9824
 42
-0.1032885834
  0
VERTEX
  8
LAYER_2
 10
157.2228
 20
36.9349
 42
-0.1280591957
  0
VERTEX
  8
LAYER_2
 10
157.2962
 20
36.8494
 42
-0.1078860225
  0
VERTEX
  8
LAYER_2
 10
157.3223
 20
36.7213
  0
VERTEX
  8
LAYER_2
 10
157.3024
 20
36.6176
  0
VERTEX
  8
LAYER_2
 10
157.2469
 20
36.5366
  0
VERTEX
  8
LAYER_2
 10
157.1635
 20
36.4818
  0
VERTEX
  8
LAYER_2
 10
157.0585
 20
36.4557
  0
VERTEX
  8
LAYER_2
 10
157.3606
 20
35.9637
  0
VERTEX
  8
LAYER_2
 10
157.2321
 20
35.9637
  0
VERTEX
  8
LAYER_2
 10
156.9461
 20
36.4467
  0
VERTEX
  8
LAYER_2
 10
156.7708
 20
36.4467
  0
SEQEND
  0
POLYLINE
  8
LAYER_2
 40
0.05
 41
0.05
 66
1
 10
0
 20
0
 30
0
 70
1
  0
VERTEX
  8
LAYER_2
 10
156.7708
 20
36.5373
  0
VERTEX
  8
LAYER_2
 10
156.9534
 20
36.5373
 42
0.153451873
  0
VERTEX
  8
LAYER_2
 10
157.1491
 20
36.5831
 42
0.2580279849
  0
VERTEX
  8
LAYER_2
 10
157.2176
 20
36.7213
  0
VERTEX
  8
LAYER_2
 10
157.1983
 20
36.8071
  0
VERTEX
  8
LAYER_2
 10
157.146
 20
36.8643
  0
VERTEX
  8
LAYER_2
 10
157.0643
 20
36.8963
  0
VERTEX
  8
LAYER_2
 10
156.9578
 20
36.9066
  0
VERTEX
  8
LAYER_2
 10
156.7708
 20
36.9066
  0
SEQEND
  0
ENDBLK
  0
BLOCK
  8
LAYER_2
  2
AIGNBL02030018
 70
64
 10
0
 20
0
 30
0
  3
AIGNBL02030018
  0
POLYLINE
  8
LAYER_2
 40
0.05
 41
0.05
 66
1
 10
0
 20
0
 30
0
 70
1
  0
VERTEX
  8
LAYER_2
 10
158.7627
 20
36.4805
 42
-0.09904480664
  0
VERTEX
  8
LAYER_2
 10
158.7221
 20
36.2631
 42
-0.09984043552
  0
VERTEX
  8
LAYER_2
 10
158.6087
 20
36.0915
 42
-0.09841590082
  0
VERTEX
  8
LAYER_2
 10
158.4382
 20
35.9785
 42
-0.09758412454
  0
VERTEX
  8
LAYER_2
 10
158.2243
 20
35.9375
 42
-0.09999517154
  0
VERTEX
  8
LAYER_2
 10
158.0103
 20
35.9785
 42
-0.09953435427
  0
VERTEX
  8
LAYER_2
 10
157.8398
 20
36.0915
 42
-0.09853706159
  0
VERTEX
  8
LAYER_2
 10
157.7268
 20
36.2631
 42
-0.09653980076
  0
VERTEX
  8
LAYER_2
 10
157.6862
 20
36.4805
 42
-0.1004051845
  0
VERTEX
  8
LAYER_2
 10
157.7268
 20
36.6978
 42
-0.1008040346
  0
VERTEX
  8
LAYER_2
 10
157.8398
 20
36.8694
 42
-0.09763764092
  0
VERTEX
  8
LAYER_2
 10
158.0103
 20
36.9824
 42
-0.09752919603
  0
VERTEX
  8
LAYER_2
 10
158.2243
 20
37.0234
 42
-0.1000174927
  0
VERTEX
  8
LAYER_2
 10
158.4382
 20
36.9824
 42
-0.1009762109
  0
VERTEX
  8
LAYER_2
 10
158.6087
 20
36.8694
 42
-0.09735230618
  0
VERTEX
  8
LAYER_2
 10
158.7221
 20
36.6978
 42
-0.09580191209
  0
SEQEND
  0
POLYLINE
  8
LAYER_2
 40
0.05
 41
0.05
 66
1
 10
0
 20
0
 30
0
 70
1
  0
VERTEX
  8
LAYER_2
 10
158.6518
 20
36.4798
 42
0.08852014676
  0
VERTEX
  8
LAYER_2
 10
158.6225
 20
36.6517
 42
0.09973444611
  0
VERTEX
  8
LAYER_2
 10
158.5378
 20
36.795
 42
0.1024799068
  0
VERTEX
  8
LAYER_2
 10
158.4031
 20
36.8932
 42
0.1060321998
  0
VERTEX
  8
LAYER_2
 10
158.2243
 20
36.93
 42
0.1116325688
  0
VERTEX
  8
LAYER_2
 10
158.0455
 20
36.8932
 42
0.1060506217
  0
VERTEX
  8
LAYER_2
 10
157.9104
 20
36.795
 42
0.09526104957
  0
VERTEX
  8
LAYER_2
 10
157.8257
 20
36.6517
 42
0.08422602157
  0
VERTEX
  8
LAYER_2
 10
157.7968
 20
36.4798
 42
0.0876992245
  0
VERTEX
  8
LAYER_2
 10
157.8257
 20
36.3079
 42
0.09826867926
  0
VERTEX
  8
LAYER_2
 10
157.9104
 20
36.1649
 42
0.09965756504
  0
VERTEX
  8
LAYER_2
 10
158.0455
 20
36.0674
 42
0.1061654103
  0
VERTEX
  8
LAYER_2
 10
158.2243
 20
36.0309
 42
0.1124388132
  0
VERTEX
  8
LAYER_2
 10
158.4031
 20
36.0674
 42
0.1029122982
  0
VERTEX
  8
LAYER_2
 10
158.5378
 20
36.1649
 42
0.09882210045
  0
VERTEX
  8
LAYER_2
 10
158.6225
 20
36.3079
 42
0.08589740831
  0
SEQEND
  0
ENDBLK
  0
BLOCK
  8
LAYER_2
  2
AIGNBL02030019
 70
64
 10
0
 20
0
 30
0
  3
AIGNBL02030019
  0
POLYLINE
  8
LAYER_2
 40
0.05
 41
0.05
 66
1
 10
0
 20
0
 30
0
 70
1
  0
VERTEX
  8
LAYER_2
 10
160.2045
 20
36.4805
 42
-0.1019307791
  0
VERTEX
  8
LAYER_2
 10
160.1635
 20
36.2631
 42
-0.09929652324
  0
VERTEX
  8
LAYER_2
 10
160.0509
 20
36.0915
 42
-0.09710469009
  0
VERTEX
  8
LAYER_2
 10
159.88
 20
35.9785
 42
-0.09758412454
  0
VERTEX
  8
LAYER_2
 10
159.6661
 20
35.9375
 42
-0.1005051182
  0
VERTEX
  8
LAYER_2
 10
159.4524
 20
35.9785
 42
-0.1009789173
  0
VERTEX
  8
LAYER_2
 10
159.2816
 20
36.0915
 42
-0.09724598852
  0
VERTEX
  8
LAYER_2
 10
159.1682
 20
36.2631
 42
-0.09653980076
  0
VERTEX
  8
LAYER_2
 10
159.1276
 20
36.4805
 42
-0.1004051845
  0
VERTEX
  8
LAYER_2
 10
159.1682
 20
36.6978
 42
-0.1001669327
  0
VERTEX
  8
LAYER_2
 10
159.2816
 20
36.8694
 42
-0.09846843416
  0
VERTEX
  8
LAYER_2
 10
159.4524
 20
36.9824
 42
-0.09783444074
  0
VERTEX
  8
LAYER_2
 10
159.6661
 20
37.0234
 42
-0.1000174927
  0
VERTEX
  8
LAYER_2
 10
159.88
 20
36.9824
 42
-0.098457988
  0
VERTEX
  8
LAYER_2
 10
160.0509
 20
36.8694
 42
-0.09762598086
  0
VERTEX
  8
LAYER_2
 10
160.1635
 20
36.6978
 42
-0.0978256893
  0
SEQEND
  0
POLYLINE
  8
LAYER_2
 40
0.05
 41
0.05
 66
1
 10
0
 20
0
 30
0
 70
1
  0
VERTEX
  8
LAYER_2
 10
160.0936
 20
36.4798
 42
0.08653869446
  0
VERTEX
  8
LAYER_2
 10
160.0647
 20
36.6517
 42
0.09689814906
  0
VERTEX
  8
LAYER_2
 10
159.9799
 20
36.795
 42
0.1032857511
  0
VERTEX
  8
LAYER_2
 10
159.8448
 20
36.8932
 42
0.1061350344
  0
VERTEX
  8
LAYER_2
 10
159.6661
 20
36.93
 42
0.1114208933
  0
VERTEX
  8
LAYER_2
 10
159.4872
 20
36.8932
 42
0.1056595975
  0
VERTEX
  8
LAYER_2
 10
159.3525
 20
36.795
 42
0.09787799956
  0
VERTEX
  8
LAYER_2
 10
159.2678
 20
36.6517
 42
0.08491464556
  0
VERTEX
  8
LAYER_2
 10
159.2385
 20
36.4798
 42
0.08693146424
  0
VERTEX
  8
LAYER_2
 10
159.2678
 20
36.3079
 42
0.1009797617
  0
VERTEX
  8
LAYER_2
 10
159.3525
 20
36.1649
 42
0.09978391674
  0
VERTEX
  8
LAYER_2
 10
159.4872
 20
36.0674
 42
0.1060616244
  0
VERTEX
  8
LAYER_2
 10
159.6661
 20
36.0309
 42
0.1126531325
  0
VERTEX
  8
LAYER_2
 10
159.8448
 20
36.0674
 42
0.1036982708
  0
VERTEX
  8
LAYER_2
 10
159.9799
 20
36.1649
 42
0.09401062747
  0
VERTEX
  8
LAYER_2
 10
160.0647
 20
36.3079
 42
0.0844927763
  0
SEQEND
  0
ENDBLK
  0
BLOCK
  8
LAYER_2
  2
AIGNBL0203001A
 70
64
 10
0
 20
0
 30
0
  3
AIGNBL0203001A
  0
POLYLINE
  8
LAYER_2
 40
0.05
 41
0.05
 66
1
 10
0
 20
0
 30
0
 70
1
  0
VERTEX
  8
LAYER_2
 10
161.1354
 20
36.1418
  0
VERTEX
  8
LAYER_2
 10
161.1371
 20
36.1418
  0
VERTEX
  8
LAYER_2
 10
161.4826
 20
36.9969
  0
VERTEX
  8
LAYER_2
 10
161.6435
 20
36.9969
  0
VERTEX
  8
LAYER_2
 10
161.6435
 20
35.9637
  0
VERTEX
  8
LAYER_2
 10
161.5381
 20
35.9637
  0
VERTEX
  8
LAYER_2
 10
161.5381
 20
36.8611
  0
VERTEX
  8
LAYER_2
 10
161.5354
 20
36.8611
  0
VERTEX
  8
LAYER_2
 10
161.1619
 20
35.9637
  0
VERTEX
  8
LAYER_2
 10
161.1064
 20
35.9637
  0
VERTEX
  8
LAYER_2
 10
160.7326
 20
36.8611
  0
VERTEX
  8
LAYER_2
 10
160.7299
 20
36.8611
  0
VERTEX
  8
LAYER_2
 10
160.7299
 20
35.9637
  0
VERTEX
  8
LAYER_2
 10
160.6248
 20
35.9637
  0
VERTEX
  8
LAYER_2
 10
160.6248
 20
36.9969
  0
VERTEX
  8
LAYER_2
 10
160.7853
 20
36.9969
  0
SEQEND
  0
ENDBLK
  0
BLOCK
  8
LAYER_2
  2
AIGNBL0203001B
 70
64
 10
0
 20
0
 30
0
  3
AIGNBL0203001B
  0
POLYLINE
  8
LAYER_2
 40
0.05
 41
0.05
 66
1
 10
0
 20
0
 30
0
 70
1
  0
VERTEX
  8
LAYER_2
 10
162.79
 20
36.0574
  0
VERTEX
  8
LAYER_2
 10
163.3433
 20
36.0574
  0
VERTEX
  8
LAYER_2
 10
163.3433
 20
35.9637
  0
VERTEX
  8
LAYER_2
 10
162.685
 20
35.9637
  0
VERTEX
  8
LAYER_2
 10
162.685
 20
36.9969
  0
VERTEX
  8
LAYER_2
 10
163.3258
 20
36.9969
  0
VERTEX
  8
LAYER_2
 10
163.3258
 20
36.9035
  0
VERTEX
  8
LAYER_2
 10
162.79
 20
36.9035
  0
VERTEX
  8
LAYER_2
 10
162.79
 20
36.549
  0
VERTEX
  8
LAYER_2
 10
163.2906
 20
36.549
  0
VERTEX
  8
LAYER_2
 10
163.2906
 20
36.4557
  0
VERTEX
  8
LAYER_2
 10
162.79
 20
36.4557
  0
SEQEND
  0
ENDBLK
  0
BLOCK
  8
LAYER_2
  2
AIGNBL0203001C
 70
64
 10
0
 20
0
 30
0
  3
AIGNBL0203001C
  0
POLYLINE
  8
LAYER_2
 40
0.05
 41
0.05
 66
1
 10
0
 20
0
 30
0
 70
1
  0
VERTEX
  8
LAYER_2
 10
164.0885
 20
36.5797
  0
VERTEX
  8
LAYER_2
 10
164.3707
 20
36.9969
  0
VERTEX
  8
LAYER_2
 10
164.4957
 20
36.9969
  0
VERTEX
  8
LAYER_2
 10
164.1533
 20
36.5053
  0
VERTEX
  8
LAYER_2
 10
164.5326
 20
35.9637
  0
VERTEX
  8
LAYER_2
 10
164.4013
 20
35.9637
  0
VERTEX
  8
LAYER_2
 10
164.0858
 20
36.4295
  0
VERTEX
  8
LAYER_2
 10
163.7722
 20
35.9637
  0
VERTEX
  8
LAYER_2
 10
163.6407
 20
35.9637
  0
VERTEX
  8
LAYER_2
 10
164.0203
 20
36.5066
  0
VERTEX
  8
LAYER_2
 10
163.6744
 20
36.9969
  0
VERTEX
  8
LAYER_2
 10
163.806
 20
36.9969
  0
SEQEND
  0
ENDBLK
  0
BLOCK
  8
LAYER_2
  2
AIGNBL0203001D
 70
64
 10
0
 20
0
 30
0
  3
AIGNBL0203001D
  0
POLYLINE
  8
LAYER_2
 40
0.05
 41
0.05
 66
1
 10
0
 20
0
 30
0
 70
1
  0
VERTEX
  8
LAYER_2
 10
164.8988
 20
36.9969
  0
VERTEX
  8
LAYER_2
 10
165.1909
 20
36.9969
  0
VERTEX
  8
LAYER_2
 10
165.3339
 20
36.9804
 42
-0.104160294
  0
VERTEX
  8
LAYER_2
 10
165.4438
 20
36.929
 42
-0.1209616443
  0
VERTEX
  8
LAYER_2
 10
165.5148
 20
36.8429
 42
-0.1032545831
  0
VERTEX
  8
LAYER_2
 10
165.5392
 20
36.7213
 42
-0.1239274235
  0
VERTEX
  8
LAYER_2
 10
165.5141
 20
36.5993
 42
-0.1163667494
  0
VERTEX
  8
LAYER_2
 10
165.4424
 20
36.5132
 42
-0.08715194998
  0
VERTEX
  8
LAYER_2
 10
165.3315
 20
36.4615
 42
-0.06075348808
  0
VERTEX
  8
LAYER_2
 10
165.1878
 20
36.444
  0
VERTEX
  8
LAYER_2
 10
165.0039
 20
36.444
  0
VERTEX
  8
LAYER_2
 10
165.0039
 20
35.9637
  0
VERTEX
  8
LAYER_2
 10
164.8988
 20
35.9637
  0
SEQEND
  0
POLYLINE
  8
LAYER_2
 40
0.05
 41
0.05
 66
1
 10
0
 20
0
 30
0
 70
1
  0
VERTEX
  8
LAYER_2
 10
165.0039
 20
36.5328
  0
VERTEX
  8
LAYER_2
 10
165.1816
 20
36.5328
 42
0.1694225951
  0
VERTEX
  8
LAYER_2
 10
165.3701
 20
36.581
 42
0.2442570363
  0
VERTEX
  8
LAYER_2
 10
165.4345
 20
36.7213
 42
0.2590967024
  0
VERTEX
  8
LAYER_2
 10
165.368
 20
36.8622
 42
0.143072224
  0
VERTEX
  8
LAYER_2
 10
165.1816
 20
36.9066
  0
VERTEX
  8
LAYER_2
 10
165.0039
 20
36.9066
  0
SEQEND
  0
ENDBLK
  0
BLOCK
  8
LAYER_2
  2
AIGNBL0203001E
 70
64
 10
0
 20
0
 30
0
  3
AIGNBL0203001E
  0
POLYLINE
  8
LAYER_2
 40
0.05
 41
0.05
 66
1
 10
0
 20
0
 30
0
 70
1
  0
VERTEX
  8
LAYER_2
 10
166.0515
 20
36.0574
  0
VERTEX
  8
LAYER_2
 10
166.6048
 20
36.0574
  0
VERTEX
  8
LAYER_2
 10
166.6048
 20
35.9637
  0
VERTEX
  8
LAYER_2
 10
165.9465
 20
35.9637
  0
VERTEX
  8
LAYER_2
 10
165.9465
 20
36.9969
  0
VERTEX
  8
LAYER_2
 10
166.5872
 20
36.9969
  0
VERTEX
  8
LAYER_2
 10
166.5872
 20
36.9035
  0
VERTEX
  8
LAYER_2
 10
166.0515
 20
36.9035
  0
VERTEX
  8
LAYER_2
 10
166.0515
 20
36.549
  0
VERTEX
  8
LAYER_2
 10
166.5521
 20
36.549
  0
VERTEX
  8
LAYER_2
 10
166.5521
 20
36.4557
  0
VERTEX
  8
LAYER_2
 10
166.0515
 20
36.4557
  0
SEQEND
  0
ENDBLK
  0
BLOCK
  8
LAYER_2
  2
AIGNBL0203001F
 70
64
 10
0
 20
0
 30
0
  3
AIGNBL0203001F
  0
POLYLINE
  8
LAYER_2
 40
0.05
 41
0.05
 66
1
 10
0
 20
0
 30
0
 70
1
  0
VERTEX
  8
LAYER_2
 10
167.1168
 20
35.9637
  0
VERTEX
  8
LAYER_2
 10
167.0117
 20
35.9637
  0
VERTEX
  8
LAYER_2
 10
167.0117
 20
36.9969
  0
VERTEX
  8
LAYER_2
 10
167.3155
 20
36.9969
  0
VERTEX
  8
LAYER_2
 10
167.4561
 20
36.9824
 42
-0.1039428931
  0
VERTEX
  8
LAYER_2
 10
167.5687
 20
36.9349
 42
-0.1259973384
  0
VERTEX
  8
LAYER_2
 10
167.6425
 20
36.8494
 42
-0.1064650891
  0
VERTEX
  8
LAYER_2
 10
167.6683
 20
36.7213
  0
VERTEX
  8
LAYER_2
 10
167.6483
 20
36.6176
  0
VERTEX
  8
LAYER_2
 10
167.5929
 20
36.5366
  0
VERTEX
  8
LAYER_2
 10
167.5095
 20
36.4818
  0
VERTEX
  8
LAYER_2
 10
167.4044
 20
36.4557
  0
VERTEX
  8
LAYER_2
 10
167.7066
 20
35.9637
  0
VERTEX
  8
LAYER_2
 10
167.578
 20
35.9637
  0
VERTEX
  8
LAYER_2
 10
167.2921
 20
36.4467
  0
VERTEX
  8
LAYER_2
 10
167.1168
 20
36.4467
  0
SEQEND
  0
POLYLINE
  8
LAYER_2
 40
0.05
 41
0.05
 66
1
 10
0
 20
0
 30
0
 70
1
  0
VERTEX
  8
LAYER_2
 10
167.1168
 20
36.5373
  0
VERTEX
  8
LAYER_2
 10
167.2994
 20
36.5373
 42
0.1542400453
  0
VERTEX
  8
LAYER_2
 10
167.495
 20
36.5831
 42
0.2583775622
  0
VERTEX
  8
LAYER_2
 10
167.5636
 20
36.7213
  0
VERTEX
  8
LAYER_2
 10
167.5446
 20
36.8071
  0
VERTEX
  8
LAYER_2
 10
167.4919
 20
36.8643
  0
VERTEX
  8
LAYER_2
 10
167.4103
 20
36.8963
  0
VERTEX
  8
LAYER_2
 10
167.3038
 20
36.9066
  0
VERTEX
  8
LAYER_2
 10
167.1168
 20
36.9066
  0
SEQEND
  0
ENDBLK
  0
BLOCK
  8
LAYER_2
  2
AIGNBL02030020
 70
64
 10
0
 20
0
 30
0
  3
AIGNBL02030020
  0
POLYLINE
  8
LAYER_2
 40
0.05
 41
0.05
 66
1
 10
0
 20
0
 30
0
 70
1
  0
VERTEX
  8
LAYER_2
 10
168.1923
 20
35.9637
  0
VERTEX
  8
LAYER_2
 10
168.0876
 20
35.9637
  0
VERTEX
  8
LAYER_2
 10
168.0876
 20
36.9969
  0
VERTEX
  8
LAYER_2
 10
168.1923
 20
36.9969
  0
SEQEND
  0
ENDBLK
  0
BLOCK
  8
LAYER_2
  2
AIGNBL02030021
 70
64
 10
0
 20
0
 30
0
  3
AIGNBL02030021
  0
POLYLINE
  8
LAYER_2
 40
0.05
 41
0.05
 66
1
 10
0
 20
0
 30
0
 70
1
  0
VERTEX
  8
LAYER_2
 10
168.7732
 20
36.0574
  0
VERTEX
  8
LAYER_2
 10
169.3261
 20
36.0574
  0
VERTEX
  8
LAYER_2
 10
169.3261
 20
35.9637
  0
VERTEX
  8
LAYER_2
 10
168.6681
 20
35.9637
  0
VERTEX
  8
LAYER_2
 10
168.6681
 20
36.9969
  0
VERTEX
  8
LAYER_2
 10
169.3089
 20
36.9969
  0
VERTEX
  8
LAYER_2
 10
169.3089
 20
36.9035
  0
VERTEX
  8
LAYER_2
 10
168.7732
 20
36.9035
  0
VERTEX
  8
LAYER_2
 10
168.7732
 20
36.549
  0
VERTEX
  8
LAYER_2
 10
169.2737
 20
36.549
  0
VERTEX
  8
LAYER_2
 10
169.2737
 20
36.4557
  0
VERTEX
  8
LAYER_2
 10
168.7732
 20
36.4557
  0
SEQEND
  0
ENDBLK
  0
BLOCK
  8
LAYER_2
  2
AIGNBL02030022
 70
64
 10
0
 20
0
 30
0
  3
AIGNBL02030022
  0
POLYLINE
  8
LAYER_2
 40
0.05
 41
0.05
 66
1
 10
0
 20
0
 30
0
 70
1
  0
VERTEX
  8
LAYER_2
 10
170.4661
 20
36.117
  0
VERTEX
  8
LAYER_2
 10
170.4689
 20
36.117
  0
VERTEX
  8
LAYER_2
 10
170.4689
 20
36.9969
  0
VERTEX
  8
LAYER_2
 10
170.5739
 20
36.9969
  0
VERTEX
  8
LAYER_2
 10
170.5739
 20
35.9637
  0
VERTEX
  8
LAYER_2
 10
170.4426
 20
35.9637
  0
VERTEX
  8
LAYER_2
 10
169.8415
 20
36.8525
  0
VERTEX
  8
LAYER_2
 10
169.8384
 20
36.8525
  0
VERTEX
  8
LAYER_2
 10
169.8384
 20
35.9637
  0
VERTEX
  8
LAYER_2
 10
169.7333
 20
35.9637
  0
VERTEX
  8
LAYER_2
 10
169.7333
 20
36.9969
  0
VERTEX
  8
LAYER_2
 10
169.8649
 20
36.9969
  0
SEQEND
  0
ENDBLK
  0
BLOCK
  8
LAYER_2
  2
AIGNBL02030023
 70
64
 10
0
 20
0
 30
0
  3
AIGNBL02030023
  0
POLYLINE
  8
LAYER_2
 40
0.05
 41
0.05
 66
1
 10
0
 20
0
 30
0
 70
1
  0
VERTEX
  8
LAYER_2
 10
171.9196
 20
36.1315
  0
VERTEX
  8
LAYER_2
 10
171.8558
 20
36.0571
  0
VERTEX
  8
LAYER_2
 10
171.7697
 20
35.9954
  0
VERTEX
  8
LAYER_2
 10
171.6615
 20
35.953
  0
VERTEX
  8
LAYER_2
 10
171.5327
 20
35.9375
 42
-0.0997799169
  0
VERTEX
  8
LAYER_2
 10
171.3167
 20
35.9785
 42
-0.102530266
  0
VERTEX
  8
LAYER_2
 10
171.1461
 20
36.0915
 42
-0.09968794278
  0
VERTEX
  8
LAYER_2
 10
171.0345
 20
36.2631
 42
-0.09630702324
  0
VERTEX
  8
LAYER_2
 10
170.9942
 20
36.4805
 42
-0.1018981748
  0
VERTEX
  8
LAYER_2
 10
171.0352
 20
36.6978
 42
-0.09989904409
  0
VERTEX
  8
LAYER_2
 10
171.1479
 20
36.8694
 42
-0.09694965588
  0
VERTEX
  8
LAYER_2
 10
171.3187
 20
36.9824
 42
-0.09744116728
  0
VERTEX
  8
LAYER_2
 10
171.5327
 20
37.0234
  0
VERTEX
  8
LAYER_2
 10
171.6443
 20
37.0114
  0
VERTEX
  8
LAYER_2
 10
171.7473
 20
36.9779
  0
VERTEX
  8
LAYER_2
 10
171.8348
 20
36.9263
  0
VERTEX
  8
LAYER_2
 10
171.9006
 20
36.8584
  0
VERTEX
  8
LAYER_2
 10
171.8131
 20
36.794
  0
VERTEX
  8
LAYER_2
 10
171.7697
 20
36.8439
  0
VERTEX
  8
LAYER_2
 10
171.7063
 20
36.8877
  0
VERTEX
  8
LAYER_2
 10
171.6267
 20
36.9183
  0
VERTEX
  8
LAYER_2
 10
171.5341
 20
36.93
 42
0.1106055686
  0
VERTEX
  8
LAYER_2
 10
171.3539
 20
36.8935
 42
0.1037389517
  0
VERTEX
  8
LAYER_2
 10
171.2188
 20
36.7954
 42
0.09534605581
  0
VERTEX
  8
LAYER_2
 10
171.1341
 20
36.652
 42
0.08447361069
  0
VERTEX
  8
LAYER_2
 10
171.1052
 20
36.4805
 42
0.09038739564
  0
VERTEX
  8
LAYER_2
 10
171.1351
 20
36.3089
 42
0.09795352863
  0
VERTEX
  8
LAYER_2
 10
171.2205
 20
36.1656
 42
0.1034747097
  0
VERTEX
  8
LAYER_2
 10
171.3556
 20
36.0674
 42
0.1064777274
  0
VERTEX
  8
LAYER_2
 10
171.5341
 20
36.0309
 42
0.1092499226
  0
VERTEX
  8
LAYER_2
 10
171.7032
 20
36.0674
 42
0.1370031249
  0
VERTEX
  8
LAYER_2
 10
171.8376
 20
36.1842
  0
SEQEND
  0
ENDBLK
  0
BLOCK
  8
LAYER_2
  2
AIGNBL02030024
 70
64
 10
0
 20
0
 30
0
  3
AIGNBL02030024
  0
POLYLINE
  8
LAYER_2
 40
0.05
 41
0.05
 66
1
 10
0
 20
0
 30
0
 70
1
  0
VERTEX
  8
LAYER_2
 10
172.4067
 20
36.0574
  0
VERTEX
  8
LAYER_2
 10
172.96
 20
36.0574
  0
VERTEX
  8
LAYER_2
 10
172.96
 20
35.9637
  0
VERTEX
  8
LAYER_2
 10
172.3016
 20
35.9637
  0
VERTEX
  8
LAYER_2
 10
172.3016
 20
36.9969
  0
VERTEX
  8
LAYER_2
 10
172.9424
 20
36.9969
  0
VERTEX
  8
LAYER_2
 10
172.9424
 20
36.9035
  0
VERTEX
  8
LAYER_2
 10
172.4067
 20
36.9035
  0
VERTEX
  8
LAYER_2
 10
172.4067
 20
36.549
  0
VERTEX
  8
LAYER_2
 10
172.9073
 20
36.549
  0
VERTEX
  8
LAYER_2
 10
172.9073
 20
36.4557
  0
VERTEX
  8
LAYER_2
 10
172.4067
 20
36.4557
  0
SEQEND
  0
ENDBLK
  0
BLOCK
  8
LAYER_1
  2
AIGNBL01020003
 70
64
 10
0
 20
0
 30
0
  3
AIGNBL01020003
  0
POLYLINE
  8
LAYER_1
 40
0.1058
 41
0.1058
 66
1
 10
0
 20
0
 30
0
  0
VERTEX
  8
LAYER_1
 10
50.551
 20
84.7643
  0
VERTEX
  8
LAYER_1
 10
50.0445
 20
84.2112
  0
SEQEND
  0
POLYLINE
  8
LAYER_1
 40
0.1058
 41
0.1058
 66
1
 10
0
 20
0
 30
0
  0
VERTEX
  8
LAYER_1
 10
49.9523
 20
84.2956
  0
VERTEX
  8
LAYER_1
 10
50.551
 20
84.7643
  0
VERTEX
  8
LAYER_1
 10
50.1367
 20
84.1268
  0
SEQEND
  0
ENDBLK
  0
BLOCK
  8
LAYER_1
  2
AIGNBL01020005
 70
64
 10
0
 20
0
 30
0
  3
AIGNBL01020005
  0
POLYLINE
  8
LAYER_1
 40
0.1058
 41
0.1058
 66
1
 10
0
 20
0
 30
0
  0
VERTEX
  8
LAYER_1
 10
76.9757
 20
144.8393
  0
VERTEX
  8
LAYER_1
 10
76.8507
 20
144.0893
  0
SEQEND
  0
POLYLINE
  8
LAYER_1
 40
0.1058
 41
0.1058
 66
1
 10
0
 20
0
 30
0
  0
VERTEX
  8
LAYER_1
 10
76.8507
 20
144.8393
  0
VERTEX
  8
LAYER_1
 10
76.8507
 20
144.0893
  0
VERTEX
  8
LAYER_1
 10
76.7257
 20
144.8393
  0
SEQEND
  0
ENDBLK
  0
BLOCK
  8
LAYER_1
  2
AIGNBL01020006
 70
64
 10
0
 20
0
 30
0
  3
AIGNBL01020006
  0
POLYLINE
  8
LAYER_1
 40
0.1058
 41
0.1058
 66
1
 10
0
 20
0
 30
0
  0
VERTEX
  8
LAYER_1
 10
76.7257
 20
159.3393
  0
VERTEX
  8
LAYER_1
 10
76.8507
 20
160.0893
  0
SEQEND
  0
POLYLINE
  8
LAYER_1
 40
0.1058
 41
0.1058
 66
1
 10
0
 20
0
 30
0
  0
VERTEX
  8
LAYER_1
 10
76.8507
 20
159.3393
  0
VERTEX
  8
LAYER_1
 10
76.8507
 20
160.0893
  0
VERTEX
  8
LAYER_1
 10
76.9757
 20
159.3393
  0
SEQEND
  0
ENDBLK
  0
BLOCK
  8
LAYER_1
  2
AIGNBL01020007
 70
64
 10
0
 20
0
 30
0
  3
AIGNBL01020007
  0
POLYLINE
  8
LAYER_1
 40
0.7056
 41
0.7056
 66
1
 10
0
 20
0
 30
0
  0
VERTEX
  8
LAYER_1
 10
64.526
 20
144.0893
  0
SEQEND
  0
ENDBLK
  0
BLOCK
  8
LAYER_1
  2
AIGNBL01020008
 70
64
 10
0
 20
0
 30
0
  3
AIGNBL01020008
  0
POLYLINE
  8
LAYER_1
 40
0.7056
 41
0.7056
 66
1
 10
0
 20
0
 30
0
  0
VERTEX
  8
LAYER_1
 10
76.8507
 20
160.0893
  0
SEQEND
  0
ENDBLK
  0
BLOCK
  8
LAYER_1
  2
AIGNBL0102000D
 70
64
 10
0
 20
0
 30
0
  3
AIGNBL0102000D
  0
POLYLINE
  8
LAYER_1
 40
0.1058
 41
0.1058
 66
1
 10
0
 20
0
 30
0
  0
VERTEX
  8
LAYER_1
 10
183.9994
 20
106.6817
  0
VERTEX
  8
LAYER_1
 10
183.2452
 20
106.7782
  0
SEQEND
  0
POLYLINE
  8
LAYER_1
 40
0.1058
 41
0.1058
 66
1
 10
0
 20
0
 30
0
  0
VERTEX
  8
LAYER_1
 10
183.9947
 20
106.8066
  0
VERTEX
  8
LAYER_1
 10
183.2452
 20
106.7782
  0
VERTEX
  8
LAYER_1
 10
183.9899
 20
106.9315
  0
SEQEND
  0
ENDBLK
  0
BLOCK
  8
LAYER_1
  2
AIGNBL0102000E
 70
64
 10
0
 20
0
 30
0
  3
AIGNBL0102000E
  0
POLYLINE
  8
LAYER_1
 40
0.1058
 41
0.1058
 66
1
 10
0
 20
0
 30
0
  0
VERTEX
  8
LAYER_1
 10
187.4614
 20
107.8617
  0
VERTEX
  8
LAYER_1
 10
188.183
 20
108.1012
  0
SEQEND
  0
POLYLINE
  8
LAYER_1
 40
0.1058
 41
0.1058
 66
1
 10
0
 20
0
 30
0
  0
VERTEX
  8
LAYER_1
 10
187.5197
 20
107.7512
  0
VERTEX
  8
LAYER_1
 10
188.183
 20
108.1012
  0
VERTEX
  8
LAYER_1
 10
187.5781
 20
107.6406
  0
SEQEND
  0
ENDBLK
  0
BLOCK
  8
LAYER_1
  2
AIGNBL01020013
 70
64
 10
0
 20
0
 30
0
  3
AIGNBL01020013
  0
POLYLINE
  8
LAYER_1
 40
0.1058
 41
0.1058
 66
1
 10
0
 20
0
 30
0
  0
VERTEX
  8
LAYER_1
 10
195.3829
 20
95.3393
  0
VERTEX
  8
LAYER_1
 10
195.5079
 20
96.0893
  0
SEQEND
  0
POLYLINE
  8
LAYER_1
 40
0.1058
 41
0.1058
 66
1
 10
0
 20
0
 30
0
  0
VERTEX
  8
LAYER_1
 10
195.5079
 20
95.3393
  0
VERTEX
  8
LAYER_1
 10
195.5079
 20
96.0893
  0
VERTEX
  8
LAYER_1
 10
195.6329
 20
95.3393
  0
SEQEND
  0
ENDBLK
  0
BLOCK
  8
LAYER_1
  2
AIGNBL01020014
 70
64
 10
0
 20
0
 30
0
  3
AIGNBL01020014
  0
POLYLINE
  8
LAYER_1
 40
0.1058
 41
0.1058
 66
1
 10
0
 20
0
 30
0
  0
VERTEX
  8
LAYER_1
 10
195.6329
 20
75.5893
  0
VERTEX
  8
LAYER_1
 10
195.5079
 20
74.8393
  0
SEQEND
  0
POLYLINE
  8
LAYER_1
 40
0.1058
 41
0.1058
 66
1
 10
0
 20
0
 30
0
  0
VERTEX
  8
LAYER_1
 10
195.5079
 20
75.5893
  0
VERTEX
  8
LAYER_1
 10
195.5079
 20
74.8393
  0
VERTEX
  8
LAYER_1
 10
195.3829
 20
75.5893
  0
SEQEND
  0
ENDBLK
  0
BLOCK
  8
LAYER_1
  2
AIGNBL01020015
 70
64
 10
0
 20
0
 30
0
  3
AIGNBL01020015
  0
POLYLINE
  8
LAYER_1
 40
0.7056
 41
0.7056
 66
1
 10
0
 20
0
 30
0
  0
VERTEX
  8
LAYER_1
 10
136.8337
 20
74.8393
  0
SEQEND
  0
ENDBLK
  0
BLOCK
  8
LAYER_1
  2
AIGNBL01020018
 70
64
 10
0
 20
0
 30
0
  3
AIGNBL01020018
  0
POLYLINE
  8
LAYER_1
 40
0.1058
 41
0.1058
 66
1
 10
0
 20
0
 30
0
  0
VERTEX
  8
LAYER_1
 10
50.426
 20
109.0657
  0
VERTEX
  8
LAYER_1
 10
49.676
 20
109.1907
  0
SEQEND
  0
POLYLINE
  8
LAYER_1
 40
0.1058
 41
0.1058
 66
1
 10
0
 20
0
 30
0
  0
VERTEX
  8
LAYER_1
 10
50.426
 20
109.1907
  0
VERTEX
  8
LAYER_1
 10
49.676
 20
109.1907
  0
VERTEX
  8
LAYER_1
 10
50.426
 20
109.3157
  0
SEQEND
  0
ENDBLK
  0
BLOCK
  8
LAYER_1
  2
AIGNBL01020019
 70
64
 10
0
 20
0
 30
0
  3
AIGNBL01020019
  0
POLYLINE
  8
LAYER_1
 40
0.1058
 41
0.1058
 66
1
 10
0
 20
0
 30
0
  0
VERTEX
  8
LAYER_1
 10
63.926
 20
109.3157
  0
VERTEX
  8
LAYER_1
 10
64.676
 20
109.1907
  0
SEQEND
  0
POLYLINE
  8
LAYER_1
 40
0.1058
 41
0.1058
 66
1
 10
0
 20
0
 30
0
  0
VERTEX
  8
LAYER_1
 10
63.926
 20
109.1907
  0
VERTEX
  8
LAYER_1
 10
64.676
 20
109.1907
  0
VERTEX
  8
LAYER_1
 10
63.926
 20
109.0657
  0
SEQEND
  0
ENDBLK
  0
BLOCK
  8
LAYER_1
  2
AIGNBL0102001B
 70
64
 10
0
 20
0
 30
0
  3
AIGNBL0102001B
  0
POLYLINE
  8
LAYER_1
 40
0.1058
 41
0.1058
 66
1
 10
0
 20
0
 30
0
  0
VERTEX
  8
LAYER_1
 10
150.926
 20
166.2793
  0
VERTEX
  8
LAYER_1
 10
151.676
 20
166.1543
  0
SEQEND
  0
POLYLINE
  8
LAYER_1
 40
0.1058
 41
0.1058
 66
1
 10
0
 20
0
 30
0
  0
VERTEX
  8
LAYER_1
 10
150.926
 20
166.1543
  0
VERTEX
  8
LAYER_1
 10
151.676
 20
166.1543
  0
VERTEX
  8
LAYER_1
 10
150.926
 20
166.0293
  0
SEQEND
  0
ENDBLK
  0
BLOCK
  8
LAYER_1
  2
AIGNBL0102001C
 70
64
 10
0
 20
0
 30
0
  3
AIGNBL0102001C
  0
POLYLINE
  8
LAYER_1
 40
0.1058
 41
0.1058
 66
1
 10
0
 20
0
 30
0
  0
VERTEX
  8
LAYER_1
 10
132.926
 20
166.0293
  0
VERTEX
  8
LAYER_1
 10
132.176
 20
166.1543
  0
SEQEND
  0
POLYLINE
  8
LAYER_1
 40
0.1058
 41
0.1058
 66
1
 10
0
 20
0
 30
0
  0
VERTEX
  8
LAYER_1
 10
132.926
 20
166.1543
  0
VERTEX
  8
LAYER_1
 10
132.176
 20
166.1543
  0
VERTEX
  8
LAYER_1
 10
132.926
 20
166.2793
  0
SEQEND
  0
ENDBLK
  0
BLOCK
  8
LAYER_1
  2
AIGNBL0102001E
 70
64
 10
0
 20
0
 30
0
  3
AIGNBL0102001E
  0
POLYLINE
  8
LAYER_1
 40
0.1058
 41
0.1058
 66
1
 10
0
 20
0
 30
0
  0
VERTEX
  8
LAYER_1
 10
195.3829
 20
115.9038
  0
VERTEX
  8
LAYER_1
 10
195.5079
 20
116.6538
  0
SEQEND
  0
POLYLINE
  8
LAYER_1
 40
0.1058
 41
0.1058
 66
1
 10
0
 20
0
 30
0
  0
VERTEX
  8
LAYER_1
 10
195.5079
 20
115.9038
  0
VERTEX
  8
LAYER_1
 10
195.5079
 20
116.6538
  0
VERTEX
  8
LAYER_1
 10
195.6329
 20
115.9038
  0
SEQEND
  0
ENDBLK
  0
BLOCK
  8
LAYER_1
  2
AIGNBL0102001F
 70
64
 10
0
 20
0
 30
0
  3
AIGNBL0102001F
  0
POLYLINE
  8
LAYER_1
 40
0.1058
 41
0.1058
 66
1
 10
0
 20
0
 30
0
  0
VERTEX
  8
LAYER_1
 10
195.6329
 20
96.8393
  0
VERTEX
  8
LAYER_1
 10
195.5079
 20
96.0893
  0
SEQEND
  0
POLYLINE
  8
LAYER_1
 40
0.1058
 41
0.1058
 66
1
 10
0
 20
0
 30
0
  0
VERTEX
  8
LAYER_1
 10
195.5079
 20
96.8393
  0
VERTEX
  8
LAYER_1
 10
195.5079
 20
96.0893
  0
VERTEX
  8
LAYER_1
 10
195.3829
 20
96.8393
  0
SEQEND
  0
ENDBLK
  0
BLOCK
  8
LAYER_2
  2
AIGNBL02020004
 70
64
 10
0
 20
0
 30
0
  3
AIGNBL02020004
  0
INSERT
  8
LAYER_2
  2
AIGNBL02030005
 10
0
 20
0
 30
0
  0
ENDBLK
  0
BLOCK
  8
LAYER_2
  2
AIGNBL0202000D
 70
64
 10
0
 20
0
 30
0
  3
AIGNBL0202000D
  0
INSERT
  8
LAYER_2
  2
AIGNBL0203000E
 10
0
 20
0
 30
0
  0
INSERT
  8
LAYER_2
  2
AIGNBL0203000F
 10
0
 20
0
 30
0
  0
INSERT
  8
LAYER_2
  2
AIGNBL02030010
 10
0
 20
0
 30
0
  0
INSERT
  8
LAYER_2
  2
AIGNBL02030011
 10
0
 20
0
 30
0
  0
INSERT
  8
LAYER_2
  2
AIGNBL02030012
 10
0
 20
0
 30
0
  0
INSERT
  8
LAYER_2
  2
AIGNBL02030013
 10
0
 20
0
 30
0
  0
INSERT
  8
LAYER_2
  2
AIGNBL02030014
 10
0
 20
0
 30
0
  0
INSERT
  8
LAYER_2
  2
AIGNBL02030015
 10
0
 20
0
 30
0
  0
INSERT
  8
LAYER_2
  2
AIGNBL02030016
 10
0
 20
0
 30
0
  0
INSERT
  8
LAYER_2
  2
AIGNBL02030017
 10
0
 20
0
 30
0
  0
INSERT
  8
LAYER_2
  2
AIGNBL02030018
 10
0
 20
0
 30
0
  0
INSERT
  8
LAYER_2
  2
AIGNBL02030019
 10
0
 20
0
 30
0
  0
INSERT
  8
LAYER_2
  2
AIGNBL0203001A
 10
0
 20
0
 30
0
  0
INSERT
  8
LAYER_2
  2
AIGNBL0203001B
 10
0
 20
0
 30
0
  0
INSERT
  8
LAYER_2
  2
AIGNBL0203001C
 10
0
 20
0
 30
0
  0
INSERT
  8
LAYER_2
  2
AIGNBL0203001D
 10
0
 20
0
 30
0
  0
INSERT
  8
LAYER_2
  2
AIGNBL0203001E
 10
0
 20
0
 30
0
  0
INSERT
  8
LAYER_2
  2
AIGNBL0203001F
 10
0
 20
0
 30
0
  0
INSERT
  8
LAYER_2
  2
AIGNBL02030020
 10
0
 20
0
 30
0
  0
INSERT
  8
LAYER_2
  2
AIGNBL02030021
 10
0
 20
0
 30
0
  0
INSERT
  8
LAYER_2
  2
AIGNBL02030022
 10
0
 20
0
 30
0
  0
INSERT
  8
LAYER_2
  2
AIGNBL02030023
 10
0
 20
0
 30
0
  0
INSERT
  8
LAYER_2
  2
AIGNBL02030024
 10
0
 20
0
 30
0
  0
ENDBLK
  0
BLOCK
  8
LAYER_1
  2
AIGNBL01010002
 70
64
 10
0
 20
0
 30
0
  3
AIGNBL01010002
  0
INSERT
  8
LAYER_1
  2
AIGNBL01020003
 10
0
 20
0
 30
0
  0
TEXT
  8
LAYER_1
 10
47.7276
 20
75.3448
 11
47.7276
 21
75.3448
 40
3.406
 41
0.5
 72
2
  1
二面幅24-六角
  0
POLYLINE
  8
LAYER_1
 40
0.1058
 41
0.1058
 66
1
 10
0
 20
0
 30
0
  0
VERTEX
  8
LAYER_1
 10
32.0941
 20
78.3964
  0
VERTEX
  8
LAYER_1
 10
44.7205
 20
78.3964
  0
VERTEX
  8
LAYER_1
 10
50.551
 20
84.7643
  0
SEQEND
  0
ENDBLK
  0
BLOCK
  8
LAYER_1
  2
AIGNBL01010004
 70
64
 10
0
 20
0
 30
0
  3
AIGNBL01010004
  0
POLYLINE
  8
LAYER_1
 40
0.1058
 41
0.1058
 66
1
 10
0
 20
0
 30
0
  0
VERTEX
  8
LAYER_1
 10
64.526
 20
144.0893
  0
VERTEX
  8
LAYER_1
 10
77.8507
 20
144.0893
  0
SEQEND
  0
POLYLINE
  8
LAYER_1
 40
0.1058
 41
0.1058
 66
1
 10
0
 20
0
 30
0
  0
VERTEX
  8
LAYER_1
 10
63.926
 20
160.0893
  0
VERTEX
  8
LAYER_1
 10
77.8507
 20
160.0893
  0
SEQEND
  0
POLYLINE
  8
LAYER_1
 40
0.1058
 41
0.1058
 66
1
 10
0
 20
0
 30
0
  0
VERTEX
  8
LAYER_1
 10
76.8507
 20
144.8393
  0
VERTEX
  8
LAYER_1
 10
76.8507
 20
159.3393
  0
SEQEND
  0
INSERT
  8
LAYER_1
  2
AIGNBL01020005
 10
0
 20
0
 30
0
  0
INSERT
  8
LAYER_1
  2
AIGNBL01020006
 10
0
 20
0
 30
0
  0
INSERT
  8
LAYER_1
  2
AIGNBL01020007
 10
0
 20
0
 30
0
  0
INSERT
  8
LAYER_1
  2
AIGNBL01020008
 10
0
 20
0
 30
0
  0
ENDBLK
  0
BLOCK
  8
LAYER_1
  2
AIGNBL01010009
 70
64
 10
0
 20
0
 30
0
  3
AIGNBL01010009
  0
POLYLINE
  8
LAYER_1
 40
0.1058
 41
0.1058
 66
1
 10
0
 20
0
 30
0
  0
VERTEX
  8
LAYER_1
 10
76.9757
 20
96.8393
  0
VERTEX
  8
LAYER_1
 10
76.8507
 20
96.0893
  0
SEQEND
  0
POLYLINE
  8
LAYER_1
 40
0.1058
 41
0.1058
 66
1
 10
0
 20
0
 30
0
  0
VERTEX
  8
LAYER_1
 10
76.8507
 20
96.8393
  0
VERTEX
  8
LAYER_1
 10
76.8507
 20
96.0893
  0
VERTEX
  8
LAYER_1
 10
76.7257
 20
96.8393
  0
SEQEND
  0
ENDBLK
  0
BLOCK
  8
LAYER_1
  2
AIGNBL0101000A
 70
64
 10
0
 20
0
 30
0
  3
AIGNBL0101000A
  0
POLYLINE
  8
LAYER_1
 40
0.1058
 41
0.1058
 66
1
 10
0
 20
0
 30
0
  0
VERTEX
  8
LAYER_1
 10
76.7257
 20
143.3393
  0
VERTEX
  8
LAYER_1
 10
76.8507
 20
144.0893
  0
SEQEND
  0
POLYLINE
  8
LAYER_1
 40
0.1058
 41
0.1058
 66
1
 10
0
 20
0
 30
0
  0
VERTEX
  8
LAYER_1
 10
76.8507
 20
143.3393
  0
VERTEX
  8
LAYER_1
 10
76.8507
 20
144.0893
  0
VERTEX
  8
LAYER_1
 10
76.9757
 20
143.3393
  0
SEQEND
  0
ENDBLK
  0
BLOCK
  8
LAYER_1
  2
AIGNBL0101000B
 70
64
 10
0
 20
0
 30
0
  3
AIGNBL0101000B
  0
POLYLINE
  8
LAYER_1
 40
0.7056
 41
0.7056
 66
1
 10
0
 20
0
 30
0
  0
VERTEX
  8
LAYER_1
 10
64.526
 20
144.0893
  0
SEQEND
  0
ENDBLK
  0
BLOCK
  8
LAYER_1
  2
AIGNBL0101000C
 70
64
 10
0
 20
0
 30
0
  3
AIGNBL0101000C
  0
POLYLINE
  8
LAYER_1
 40
0.1058
 41
0.1058
 66
1
 10
0
 20
0
 30
0
  0
VERTEX
  8
LAYER_1
 10
183.2452
 20
115.4224
  0
VERTEX
  8
LAYER_1
 10
183.2452
 20
105.7782
  0
SEQEND
  0
POLYLINE
  8
LAYER_1
 40
0.1058
 41
0.1058
 66
1
 10
0
 20
0
 30
0
  0
VERTEX
  8
LAYER_1
 10
184.1016
 20
115.1705
  0
VERTEX
  8
LAYER_1
 10
188.683
 20
107.2352
  0
SEQEND
  0
POLYLINE
  8
LAYER_1
 40
0.1058
 41
0.1058
 66
1
 10
0
 20
0
 30
0
  0
VERTEX
  8
LAYER_1
 10
183.9947
 20
106.8066
 42
0.09318556185
  0
VERTEX
  8
LAYER_1
 10
187.5197
 20
107.7512
  0
SEQEND
  0
INSERT
  8
LAYER_1
  2
AIGNBL0102000D
 10
0
 20
0
 30
0
  0
INSERT
  8
LAYER_1
  2
AIGNBL0102000E
 10
0
 20
0
 30
0
  0
ENDBLK
  0
BLOCK
  8
LAYER_1
  2
AIGNBL0101000F
 70
64
 10
0
 20
0
 30
0
  3
AIGNBL0101000F
  0
POLYLINE
  8
LAYER_1
 40
0.1058
 41
0.1058
 66
1
 10
0
 20
0
 30
0
  0
VERTEX
  8
LAYER_1
 10
182.4952
 20
104.7569
  0
VERTEX
  8
LAYER_1
 10
183.2452
 20
104.6319
  0
SEQEND
  0
POLYLINE
  8
LAYER_1
 40
0.1058
 41
0.1058
 66
1
 10
0
 20
0
 30
0
  0
VERTEX
  8
LAYER_1
 10
182.4952
 20
104.6319
  0
VERTEX
  8
LAYER_1
 10
183.2452
 20
104.6319
  0
VERTEX
  8
LAYER_1
 10
182.4952
 20
104.5069
  0
SEQEND
  0
ENDBLK
  0
BLOCK
  8
LAYER_1
  2
AIGNBL01010010
 70
64
 10
0
 20
0
 30
0
  3
AIGNBL01010010
  0
POLYLINE
  8
LAYER_1
 40
0.1058
 41
0.1058
 66
1
 10
0
 20
0
 30
0
  0
VERTEX
  8
LAYER_1
 10
132.926
 20
104.5069
  0
VERTEX
  8
LAYER_1
 10
132.176
 20
104.6319
  0
SEQEND
  0
POLYLINE
  8
LAYER_1
 40
0.1058
 41
0.1058
 66
1
 10
0
 20
0
 30
0
  0
VERTEX
  8
LAYER_1
 10
132.926
 20
104.6319
  0
VERTEX
  8
LAYER_1
 10
132.176
 20
104.6319
  0
VERTEX
  8
LAYER_1
 10
132.926
 20
104.7569
  0
SEQEND
  0
ENDBLK
  0
BLOCK
  8
LAYER_1
  2
AIGNBL01010011
 70
64
 10
0
 20
0
 30
0
  3
AIGNBL01010011
  0
POLYLINE
  8
LAYER_1
 40
0.1058
 41
0.1058
 66
1
 10
0
 20
0
 30
0
  0
VERTEX
  8
LAYER_1
 10
51.9372
 20
93.4683
  0
VERTEX
  8
LAYER_1
 10
51.3226
 20
93.0385
  0
SEQEND
  0
POLYLINE
  8
LAYER_1
 40
0.1058
 41
0.1058
 66
1
 10
0
 20
0
 30
0
  0
VERTEX
  8
LAYER_1
 10
51.251
 20
93.1409
  0
VERTEX
  8
LAYER_1
 10
51.9372
 20
93.4683
  0
VERTEX
  8
LAYER_1
 10
51.3943
 20
92.936
  0
SEQEND
  0
ENDBLK
  0
BLOCK
  8
LAYER_1
  2
AIGNBL01010012
 70
64
 10
0
 20
0
 30
0
  3
AIGNBL01010012
  0
POLYLINE
  8
LAYER_1
 40
0.1058
 41
0.1058
 66
1
 10
0
 20
0
 30
0
  0
VERTEX
  8
LAYER_1
 10
141.926
 20
96.0893
  0
VERTEX
  8
LAYER_1
 10
196.5079
 20
96.0893
  0
SEQEND
  0
POLYLINE
  8
LAYER_1
 40
0.1058
 41
0.1058
 66
1
 10
0
 20
0
 30
0
  0
VERTEX
  8
LAYER_1
 10
136.8337
 20
74.8393
  0
VERTEX
  8
LAYER_1
 10
196.5079
 20
74.8393
  0
SEQEND
  0
POLYLINE
  8
LAYER_1
 40
0.1058
 41
0.1058
 66
1
 10
0
 20
0
 30
0
  0
VERTEX
  8
LAYER_1
 10
195.5079
 20
95.3393
  0
VERTEX
  8
LAYER_1
 10
195.5079
 20
75.5893
  0
SEQEND
  0
INSERT
  8
LAYER_1
  2
AIGNBL01020013
 10
0
 20
0
 30
0
  0
INSERT
  8
LAYER_1
  2
AIGNBL01020014
 10
0
 20
0
 30
0
  0
INSERT
  8
LAYER_1
  2
AIGNBL01020015
 10
0
 20
0
 30
0
  0
ENDBLK
  0
BLOCK
  8
LAYER_1
  2
AIGNBL01010016
 70
64
 10
0
 20
0
 30
0
  3
AIGNBL01010016
  0
POLYLINE
  8
LAYER_1
 40
0.1058
 41
0.1058
 66
1
 10
0
 20
0
 30
0
  0
VERTEX
  8
LAYER_1
 10
48.176
 20
99.7465
  0
VERTEX
  8
LAYER_1
 10
47.426
 20
99.8715
  0
SEQEND
  0
POLYLINE
  8
LAYER_1
 40
0.1058
 41
0.1058
 66
1
 10
0
 20
0
 30
0
  0
VERTEX
  8
LAYER_1
 10
48.176
 20
99.8715
  0
VERTEX
  8
LAYER_1
 10
47.426
 20
99.8715
  0
VERTEX
  8
LAYER_1
 10
48.176
 20
99.9965
  0
SEQEND
  0
ENDBLK
  0
BLOCK
  8
LAYER_1
  2
AIGNBL01010017
 70
64
 10
0
 20
0
 30
0
  3
AIGNBL01010017
  0
POLYLINE
  8
LAYER_1
 40
0.1058
 41
0.1058
 66
1
 10
0
 20
0
 30
0
  0
VERTEX
  8
LAYER_1
 10
49.676
 20
109.1907
  0
VERTEX
  8
LAYER_1
 10
49.676
 20
110.1907
  0
SEQEND
  0
POLYLINE
  8
LAYER_1
 40
0.1058
 41
0.1058
 66
1
 10
0
 20
0
 30
0
  0
VERTEX
  8
LAYER_1
 10
64.676
 20
109.1907
  0
VERTEX
  8
LAYER_1
 10
64.676
 20
110.1907
  0
SEQEND
  0
POLYLINE
  8
LAYER_1
 40
0.1058
 41
0.1058
 66
1
 10
0
 20
0
 30
0
  0
VERTEX
  8
LAYER_1
 10
50.426
 20
109.1907
  0
VERTEX
  8
LAYER_1
 10
63.926
 20
109.1907
  0
SEQEND
  0
INSERT
  8
LAYER_1
  2
AIGNBL01020018
 10
0
 20
0
 30
0
  0
INSERT
  8
LAYER_1
  2
AIGNBL01020019
 10
0
 20
0
 30
0
  0
ENDBLK
  0
BLOCK
  8
LAYER_1
  2
AIGNBL0101001A
 70
64
 10
0
 20
0
 30
0
  3
AIGNBL0101001A
  0
POLYLINE
  8
LAYER_1
 40
0.1058
 41
0.1058
 66
1
 10
0
 20
0
 30
0
  0
VERTEX
  8
LAYER_1
 10
151.676
 20
156.3393
  0
VERTEX
  8
LAYER_1
 10
151.676
 20
167.1543
  0
SEQEND
  0
POLYLINE
  8
LAYER_1
 40
0.1058
 41
0.1058
 66
1
 10
0
 20
0
 30
0
  0
VERTEX
  8
LAYER_1
 10
132.176
 20
160.0893
  0
VERTEX
  8
LAYER_1
 10
132.176
 20
167.1543
  0
SEQEND
  0
POLYLINE
  8
LAYER_1
 40
0.1058
 41
0.1058
 66
1
 10
0
 20
0
 30
0
  0
VERTEX
  8
LAYER_1
 10
150.926
 20
166.1543
  0
VERTEX
  8
LAYER_1
 10
132.926
 20
166.1543
  0
SEQEND
  0
INSERT
  8
LAYER_1
  2
AIGNBL0102001B
 10
0
 20
0
 30
0
  0
INSERT
  8
LAYER_1
  2
AIGNBL0102001C
 10
0
 20
0
 30
0
  0
ENDBLK
  0
BLOCK
  8
LAYER_1
  2
AIGNBL0101001D
 70
64
 10
0
 20
0
 30
0
  3
AIGNBL0101001D
  0
POLYLINE
  8
LAYER_1
 40
0.1058
 41
0.1058
 66
1
 10
0
 20
0
 30
0
  0
VERTEX
  8
LAYER_1
 10
183.2452
 20
116.6538
  0
VERTEX
  8
LAYER_1
 10
196.5079
 20
116.6538
  0
SEQEND
  0
POLYLINE
  8
LAYER_1
 40
0.1058
 41
0.1058
 66
1
 10
0
 20
0
 30
0
  0
VERTEX
  8
LAYER_1
 10
141.926
 20
96.0893
  0
VERTEX
  8
LAYER_1
 10
196.5079
 20
96.0893
  0
SEQEND
  0
POLYLINE
  8
LAYER_1
 40
0.1058
 41
0.1058
 66
1
 10
0
 20
0
 30
0
  0
VERTEX
  8
LAYER_1
 10
195.5079
 20
115.9038
  0
VERTEX
  8
LAYER_1
 10
195.5079
 20
96.8393
  0
SEQEND
  0
INSERT
  8
LAYER_1
  2
AIGNBL0102001E
 10
0
 20
0
 30
0
  0
INSERT
  8
LAYER_1
  2
AIGNBL0102001F
 10
0
 20
0
 30
0
  0
ENDBLK
  0
BLOCK
  8
LAYER_1
  2
AIGNBL01010020
 70
64
 10
0
 20
0
 30
0
  3
AIGNBL01010020
  0
POLYLINE
  8
LAYER_1
 40
0.1058
 41
0.1058
 66
1
 10
0
 20
0
 30
0
  0
VERTEX
  8
LAYER_1
 10
82.6952
 20
159.3393
  0
VERTEX
  8
LAYER_1
 10
82.8202
 20
160.0893
  0
SEQEND
  0
POLYLINE
  8
LAYER_1
 40
0.1058
 41
0.1058
 66
1
 10
0
 20
0
 30
0
  0
VERTEX
  8
LAYER_1
 10
82.8202
 20
159.3393
  0
VERTEX
  8
LAYER_1
 10
82.8202
 20
160.0893
  0
VERTEX
  8
LAYER_1
 10
82.9452
 20
159.3393
  0
SEQEND
  0
ENDBLK
  0
BLOCK
  8
LAYER_1
  2
AIGNBL01010021
 70
64
 10
0
 20
0
 30
0
  3
AIGNBL01010021
  0
POLYLINE
  8
LAYER_1
 40
0.1058
 41
0.1058
 66
1
 10
0
 20
0
 30
0
  0
VERTEX
  8
LAYER_1
 10
82.9452
 20
96.8393
  0
VERTEX
  8
LAYER_1
 10
82.8202
 20
96.0893
  0
SEQEND
  0
POLYLINE
  8
LAYER_1
 40
0.1058
 41
0.1058
 66
1
 10
0
 20
0
 30
0
  0
VERTEX
  8
LAYER_1
 10
82.8202
 20
96.8393
  0
VERTEX
  8
LAYER_1
 10
82.8202
 20
96.0893
  0
VERTEX
  8
LAYER_1
 10
82.6952
 20
96.8393
  0
SEQEND
  0
ENDBLK
  0
BLOCK
  8
LAYER_1
  2
AIGNBL01010022
 70
64
 10
0
 20
0
 30
0
  3
AIGNBL01010022
  0
POLYLINE
  8
LAYER_1
 40
0.1058
 41
0.1058
 66
1
 10
0
 20
0
 30
0
  0
VERTEX
  8
LAYER_1
 10
71.5635
 20
89.1393
  0
VERTEX
  8
LAYER_1
 10
71.4385
 20
88.3893
  0
SEQEND
  0
POLYLINE
  8
LAYER_1
 40
0.1058
 41
0.1058
 66
1
 10
0
 20
0
 30
0
  0
VERTEX
  8
LAYER_1
 10
71.4385
 20
89.1393
  0
VERTEX
  8
LAYER_1
 10
71.4385
 20
88.3893
  0
VERTEX
  8
LAYER_1
 10
71.3135
 20
89.1393
  0
SEQEND
  0
ENDBLK
  0
BLOCK
  8
LAYER_1
  2
AIGNBL01010023
 70
64
 10
0
 20
0
 30
0
  3
AIGNBL01010023
  0
POLYLINE
  8
LAYER_1
 40
0.1058
 41
0.1058
 66
1
 10
0
 20
0
 30
0
  0
VERTEX
  8
LAYER_1
 10
71.3135
 20
95.3393
  0
VERTEX
  8
LAYER_1
 10
71.4385
 20
96.0893
  0
SEQEND
  0
POLYLINE
  8
LAYER_1
 40
0.1058
 41
0.1058
 66
1
 10
0
 20
0
 30
0
  0
VERTEX
  8
LAYER_1
 10
71.4385
 20
95.3393
  0
VERTEX
  8
LAYER_1
 10
71.4385
 20
96.0893
  0
VERTEX
  8
LAYER_1
 10
71.5635
 20
95.3393
  0
SEQEND
  0
ENDBLK
  0
BLOCK
  8
LAYER_1
  2
AIGNBL01010024
 70
64
 10
0
 20
0
 30
0
  3
AIGNBL01010024
  0
POLYLINE
  8
LAYER_1
 40
0.1058
 41
0.1058
 66
1
 10
0
 20
0
 30
0
  0
VERTEX
  8
LAYER_1
 10
149.801
 20
132.0768
  0
VERTEX
  8
LAYER_1
 10
149.676
 20
131.3268
  0
SEQEND
  0
POLYLINE
  8
LAYER_1
 40
0.1058
 41
0.1058
 66
1
 10
0
 20
0
 30
0
  0
VERTEX
  8
LAYER_1
 10
149.676
 20
132.0768
  0
VERTEX
  8
LAYER_1
 10
149.676
 20
131.3268
  0
VERTEX
  8
LAYER_1
 10
149.551
 20
132.0768
  0
SEQEND
  0
ENDBLK
  0
BLOCK
  8
LAYER_1
  2
AIGNBL01010025
 70
64
 10
0
 20
0
 30
0
  3
AIGNBL01010025
  0
POLYLINE
  8
LAYER_1
 40
0.1058
 41
0.1058
 66
1
 10
0
 20
0
 30
0
  0
VERTEX
  8
LAYER_1
 10
149.551
 20
140.1018
  0
VERTEX
  8
LAYER_1
 10
149.676
 20
140.8518
  0
SEQEND
  0
POLYLINE
  8
LAYER_1
 40
0.1058
 41
0.1058
 66
1
 10
0
 20
0
 30
0
  0
VERTEX
  8
LAYER_1
 10
149.676
 20
140.1018
  0
VERTEX
  8
LAYER_1
 10
149.676
 20
140.8518
  0
VERTEX
  8
LAYER_1
 10
149.801
 20
140.1018
  0
SEQEND
  0
ENDBLK
  0
BLOCK
  8
LAYER_2
  2
AIGNBL02010002
 70
64
 10
0
 20
0
 30
0
  3
AIGNBL02010002
  0
POLYLINE
  8
LAYER_2
 40
0.7056
 41
0.7056
 66
1
 10
0
 20
0
 30
0
 70
1
  0
VERTEX
  8
LAYER_2
 10
251.6749
 20
230.337
  0
VERTEX
  8
LAYER_2
 10
251.6749
 20
33.3285
  0
VERTEX
  8
LAYER_2
 10
-30.3177
 20
33.3285
  0
VERTEX
  8
LAYER_2
 10
-30.3177
 20
230.337
  0
SEQEND
  0
ENDBLK
  0
BLOCK
  8
LAYER_2
  2
AIGNBL02010003
 70
64
 10
0
 20
0
 30
0
  3
AIGNBL02010003
  0
INSERT
  8
LAYER_2
  2
AIGNBL02020004
 10
0
 20
0
 30
0
  0
INSERT
  8
LAYER_2
  2
AIGNBL0202000D
 10
0
 20
0
 30
0
  0
ENDBLK
  0
ENDSEC
  0
SECTION
  2
ENTITIES
  0
TEXT
  8
LAYER_1
 10
190.3271
 20
95.5768
 11
190.3271
 21
95.5768
 40
2.9878
 41
0.5
  1
　　　　　　　　
  0
TEXT
  8
LAYER_1
 10
40.206
 20
90.3433
 11
40.206
 21
90.3433
 40
3.406
 41
0.5
 72
2
  1
PJ1/2
  0
INSERT
  8
LAYER_1
  2
AIGNBL01010002
 10
0
 20
0
 30
0
  0
INSERT
  8
LAYER_1
  2
AIGNBL01010004
 10
0
 20
0
 30
0
  0
POLYLINE
  8
LAYER_1
 40
0.1058
 41
0.1058
 66
1
 10
0
 20
0
 30
0
  0
VERTEX
  8
LAYER_1
 10
66.926
 20
96.0893
  0
VERTEX
  8
LAYER_1
 10
77.8507
 20
96.0893
  0
SEQEND
  0
POLYLINE
  8
LAYER_1
 40
0.1058
 41
0.1058
 66
1
 10
0
 20
0
 30
0
  0
VERTEX
  8
LAYER_1
 10
64.526
 20
144.0893
  0
VERTEX
  8
LAYER_1
 10
77.8507
 20
144.0893
  0
SEQEND
  0
POLYLINE
  8
LAYER_1
 40
0.1058
 41
0.1058
 66
1
 10
0
 20
0
 30
0
  0
VERTEX
  8
LAYER_1
 10
76.8507
 20
96.8393
  0
VERTEX
  8
LAYER_1
 10
76.8507
 20
143.3393
  0
SEQEND
  0
INSERT
  8
LAYER_1
  2
AIGNBL01010009
 10
0
 20
0
 30
0
  0
INSERT
  8
LAYER_1
  2
AIGNBL0101000A
 10
0
 20
0
 30
0
  0
INSERT
  8
LAYER_1
  2
AIGNBL0101000B
 10
0
 20
0
 30
0
  0
INSERT
  8
LAYER_1
  2
AIGNBL0101000C
 10
0
 20
0
 30
0
  0
POLYLINE
  8
LAYER_1
 40
0.1058
 41
0.1058
 66
1
 10
0
 20
0
 30
0
  0
VERTEX
  8
LAYER_1
 10
183.2452
 20
116.6538
  0
VERTEX
  8
LAYER_1
 10
183.2452
 20
103.6319
  0
SEQEND
  0
POLYLINE
  8
LAYER_1
 40
0.1058
 41
0.1058
 66
1
 10
0
 20
0
 30
0
  0
VERTEX
  8
LAYER_1
 10
132.176
 20
103.8393
  0
VERTEX
  8
LAYER_1
 10
132.176
 20
105.6319
  0
SEQEND
  0
POLYLINE
  8
LAYER_1
 40
0.1058
 41
0.1058
 66
1
 10
0
 20
0
 30
0
  0
VERTEX
  8
LAYER_1
 10
182.4952
 20
104.6319
  0
VERTEX
  8
LAYER_1
 10
132.926
 20
104.6319
  0
SEQEND
  0
INSERT
  8
LAYER_1
  2
AIGNBL0101000F
 10
0
 20
0
 30
0
  0
INSERT
  8
LAYER_1
  2
AIGNBL01010010
 10
0
 20
0
 30
0
  0
POLYLINE
  8
LAYER_1
 40
0.1058
 41
0.1058
 66
1
 10
0
 20
0
 30
0
  0
VERTEX
  8
LAYER_1
 10
51.9372
 20
93.4683
  0
VERTEX
  8
LAYER_1
 10
44.677
 20
88.3902
  0
VERTEX
  8
LAYER_1
 10
27.6605
 20
88.3911
  0
SEQEND
  0
INSERT
  8
LAYER_1
  2
AIGNBL01010011
 10
0
 20
0
 30
0
  0
INSERT
  8
LAYER_1
  2
AIGNBL01010012
 10
0
 20
0
 30
0
  0
POLYLINE
  8
LAYER_1
 40
0.1058
 41
0.1058
 66
1
 10
0
 20
0
 30
0
  0
VERTEX
  8
LAYER_1
 10
66.926
 20
96.0893
  0
VERTEX
  8
LAYER_1
 10
66.926
 20
100.8715
  0
SEQEND
  0
POLYLINE
  8
LAYER_1
 40
0.1058
 41
0.1058
 66
1
 10
0
 20
0
 30
0
  0
VERTEX
  8
LAYER_1
 10
47.426
 20
96.0893
  0
VERTEX
  8
LAYER_1
 10
47.426
 20
100.8715
  0
SEQEND
  0
POLYLINE
  8
LAYER_1
 40
0.1058
 41
0.1058
 66
1
 10
0
 20
0
 30
0
  0
VERTEX
  8
LAYER_1
 10
66.176
 20
99.8715
  0
VERTEX
  8
LAYER_1
 10
48.176
 20
99.8715
  0
SEQEND
  0
POLYLINE
  8
LAYER_1
 40
0.1058
 41
0.1058
 66
1
 10
0
 20
0
 30
0
  0
VERTEX
  8
LAYER_1
 10
66.176
 20
99.9965
  0
VERTEX
  8
LAYER_1
 10
66.926
 20
99.8715
  0
SEQEND
  0
POLYLINE
  8
LAYER_1
 40
0.1058
 41
0.1058
 66
1
 10
0
 20
0
 30
0
  0
VERTEX
  8
LAYER_1
 10
66.176
 20
99.8715
  0
VERTEX
  8
LAYER_1
 10
66.926
 20
99.8715
  0
VERTEX
  8
LAYER_1
 10
66.176
 20
99.7465
  0
SEQEND
  0
INSERT
  8
LAYER_1
  2
AIGNBL01010016
 10
0
 20
0
 30
0
  0
INSERT
  8
LAYER_1
  2
AIGNBL01010017
 10
0
 20
0
 30
0
  0
POLYLINE
  8
LAYER_1
 40
0.1058
 41
0.1058
 66
1
 10
0
 20
0
 30
0
  0
VERTEX
  8
LAYER_1
 10
61.8337
 20
74.8393
  0
VERTEX
  8
LAYER_1
 10
52.5182
 20
74.8393
  0
SEQEND
  0
POLYLINE
  8
LAYER_1
 40
0.1058
 41
0.1058
 66
1
 10
0
 20
0
 30
0
  0
VERTEX
  8
LAYER_1
 10
137.4147
 20
75.4203
  0
VERTEX
  8
LAYER_1
 10
126.9372
 20
75.4203
  0
SEQEND
  0
POLYLINE
  8
LAYER_1
 40
0.1058
 41
0.1058
 66
1
 10
0
 20
0
 30
0
  0
VERTEX
  8
LAYER_1
 10
139.676
 20
97.7393
  0
VERTEX
  8
LAYER_1
 10
124.676
 20
97.7393
  0
SEQEND
  0
POLYLINE
  8
LAYER_1
 40
0.1058
 41
0.1058
 66
1
 10
0
 20
0
 30
0
  0
VERTEX
  8
LAYER_1
 10
64.676
 20
97.7393
  0
VERTEX
  8
LAYER_1
 10
49.676
 20
97.7393
  0
SEQEND
  0
POLYLINE
  8
LAYER_1
 40
0.1058
 41
0.1058
 66
1
 10
0
 20
0
 30
0
  0
VERTEX
  8
LAYER_1
 10
126.176
 20
86.3893
  0
VERTEX
  8
LAYER_1
 10
126.176
 20
83.1393
  0
VERTEX
  8
LAYER_1
 10
138.176
 20
83.1393
  0
VERTEX
  8
LAYER_1
 10
138.176
 20
86.3893
  0
SEQEND
  0
POLYLINE
  8
LAYER_1
 40
0.1058
 41
0.1058
 66
1
 10
0
 20
0
 30
0
  0
VERTEX
  8
LAYER_1
 10
137.6087
 20
86.3893
  0
VERTEX
  8
LAYER_1
 10
137.6087
 20
83.1393
  0
SEQEND
  0
POLYLINE
  8
LAYER_1
 40
0.1058
 41
0.1058
 66
1
 10
0
 20
0
 30
0
  0
VERTEX
  8
LAYER_1
 10
132.7433
 20
86.3893
  0
VERTEX
  8
LAYER_1
 10
132.7433
 20
83.1393
  0
SEQEND
  0
POLYLINE
  8
LAYER_1
 40
0.1058
 41
0.1058
 66
1
 10
0
 20
0
 30
0
  0
VERTEX
  8
LAYER_1
 10
131.6087
 20
86.3893
  0
VERTEX
  8
LAYER_1
 10
131.6087
 20
83.1393
  0
SEQEND
  0
POLYLINE
  8
LAYER_1
 40
0.1058
 41
0.1058
 66
1
 10
0
 20
0
 30
0
  0
VERTEX
  8
LAYER_1
 10
126.7433
 20
86.3893
  0
VERTEX
  8
LAYER_1
 10
126.7433
 20
83.1393
  0
SEQEND
  0
POLYLINE
  8
LAYER_1
  6
AIGENLINE001
 40
0.1058
 41
0.1058
 66
1
 10
0
 20
0
 30
0
 70
128
  0
VERTEX
  8
LAYER_1
 10
132.176
 20
154.5893
  0
VERTEX
  8
LAYER_1
 10
153.0369
 20
154.5893
  0
SEQEND
  0
INSERT
  8
LAYER_1
  2
AIGNBL0101001A
 10
0
 20
0
 30
0
  0
TEXT
  8
LAYER_1
 10
76.252
 20
150.3163
 11
76.252
 21
150.3163
 40
3.406
 41
0.5
 72
1
  1
32
  0
TEXT
  8
LAYER_1
 10
76.099
 20
124.4891
 11
76.099
 21
124.4891
 40
3.406
 41
0.5
 72
1
  1
96
  0
TEXT
  8
LAYER_1
 10
60.3251
 20
111.3726
 11
60.3251
 21
111.3726
 40
3.406
 41
0.5
 72
1
  1
%%c30
  0
TEXT
  8
LAYER_1
 10
60.4133
 20
102.7295
 11
60.4133
 21
102.7295
 40
3.406
 41
0.5
 72
1
  1
%%c39
  0
TEXT
  8
LAYER_1
 10
144.0005
 20
166.6942
 11
144.0005
 21
166.6942
 40
3.406
 41
0.5
 72
1
  1
39
  0
TEXT
  8
LAYER_1
 10
161.8501
 20
106.1711
 11
161.8501
 21
106.1711
 40
3.406
 41
0.5
 72
1
  1
96
  0
TEXT
  8
LAYER_1
 10
192.7834
 20
86.592
 11
192.7834
 21
86.592
 40
3.406
 41
0.5
 72
1
  1
42.5
  0
TEXT
  8
LAYER_1
 10
189.6402
 20
112.2976
 11
189.6402
 21
112.2976
 40
3.406
 41
0.5
 72
1
  1
30%%d
  0
POLYLINE
  8
LAYER_1
 40
0.2469
 41
0.2469
 66
1
 10
0
 20
0
 30
0
  0
VERTEX
  8
LAYER_1
 10
140.6837
 20
196.7708
 42
0.2715085795
  0
VERTEX
  8
LAYER_1
 10
132.176
 20
201.7583
 42
0.4142146666
  0
VERTEX
  8
LAYER_1
 10
122.426
 20
192.0083
 42
0.4142141257
  0
VERTEX
  8
LAYER_1
 10
132.176
 20
182.2583
 42
0.2715081474
  0
VERTEX
  8
LAYER_1
 10
140.6837
 20
187.2458
  0
SEQEND
  0
CIRCLE
  8
LAYER_1
 10
57.176
 20
154.5893
 40
2
  0
CIRCLE
  8
LAYER_1
 10
132.176
 20
192.0083
 40
4
  0
POLYLINE
  8
LAYER_1
 40
0.2469
 41
0.2469
 66
1
 10
0
 20
0
 30
0
  0
VERTEX
  8
LAYER_1
 10
127.889
 20
192.5083
  0
VERTEX
  8
LAYER_1
 10
127.889
 20
191.5083
  0
SEQEND
  0
POLYLINE
  8
LAYER_1
 40
0.2469
 41
0.2469
 66
1
 10
0
 20
0
 30
0
  0
VERTEX
  8
LAYER_1
 10
138.301
 20
144.0893
  0
VERTEX
  8
LAYER_1
 10
138.301
 20
144.3393
  0
SEQEND
  0
POLYLINE
  8
LAYER_1
 40
0.2469
 41
0.2469
 66
1
 10
0
 20
0
 30
0
  0
VERTEX
  8
LAYER_1
 10
126.051
 20
144.0893
  0
VERTEX
  8
LAYER_1
 10
126.051
 20
144.3393
  0
SEQEND
  0
POLYLINE
  8
LAYER_1
 40
0.2469
 41
0.2469
 66
1
 10
0
 20
0
 30
0
 70
1
  0
VERTEX
  8
LAYER_1
 10
140.676
 20
156.5893
  0
VERTEX
  8
LAYER_1
 10
151.426
 20
156.5893
 42
-0.4142155981
  0
VERTEX
  8
LAYER_1
 10
151.676
 20
156.3393
  0
VERTEX
  8
LAYER_1
 10
151.676
 20
152.8393
 42
-0.4141464949
  0
VERTEX
  8
LAYER_1
 10
151.426
 20
152.5893
  0
VERTEX
  8
LAYER_1
 10
140.676
 20
152.5893
 42
0.4142303323
  0
VERTEX
  8
LAYER_1
 10
139.676
 20
151.5893
  0
VERTEX
  8
LAYER_1
 10
139.676
 20
144.5893
 42
-0.4141464951
  0
VERTEX
  8
LAYER_1
 10
139.426
 20
144.3393
  0
VERTEX
  8
LAYER_1
 10
132.176
 20
144.3393
  0
VERTEX
  8
LAYER_1
 10
124.926
 20
144.3393
 42
-0.4142115113
  0
VERTEX
  8
LAYER_1
 10
124.676
 20
144.5893
  0
VERTEX
  8
LAYER_1
 10
124.676
 20
159.3393
 42
-0.4142359226
  0
VERTEX
  8
LAYER_1
 10
125.426
 20
160.0893
  0
VERTEX
  8
LAYER_1
 10
138.926
 20
160.0893
 42
-0.4142142427
  0
VERTEX
  8
LAYER_1
 10
139.676
 20
159.3393
  0
VERTEX
  8
LAYER_1
 10
139.676
 20
157.5893
 42
0.414213051
  0
SEQEND
  0
POLYLINE
  8
LAYER_1
 40
0.2469
 41
0.2469
 66
1
 10
0
 20
0
 30
0
  0
VERTEX
  8
LAYER_1
 10
126.9372
 20
83.1393
  0
VERTEX
  8
LAYER_1
 10
126.9372
 20
75.4203
  0
VERTEX
  8
LAYER_1
 10
127.5182
 20
74.8393
  0
VERTEX
  8
LAYER_1
 10
132.176
 20
74.8393
  0
VERTEX
  8
LAYER_1
 10
136.8337
 20
74.8393
  0
VERTEX
  8
LAYER_1
 10
137.4147
 20
75.4203
  0
VERTEX
  8
LAYER_1
 10
137.4147
 20
78.3393
  0
VERTEX
  8
LAYER_1
 10
137.4147
 20
83.1393
  0
SEQEND
  0
POLYLINE
  8
LAYER_1
 40
0.2469
 41
0.2469
 66
1
 10
0
 20
0
 30
0
  0
VERTEX
  8
LAYER_1
 10
123.426
 20
96.0893
  0
VERTEX
  8
LAYER_1
 10
123.426
 20
95.0893
  0
VERTEX
  8
LAYER_1
 10
132.176
 20
95.0893
  0
VERTEX
  8
LAYER_1
 10
140.926
 20
95.0893
  0
VERTEX
  8
LAYER_1
 10
140.926
 20
96.0893
  0
SEQEND
  0
POLYLINE
  8
LAYER_1
 40
0.2469
 41
0.2469
 66
1
 10
0
 20
0
 30
0
 70
1
  0
VERTEX
  8
LAYER_1
 10
141.926
 20
96.5893
 42
0.4142146586
  0
VERTEX
  8
LAYER_1
 10
140.926
 20
97.5893
  0
VERTEX
  8
LAYER_1
 10
132.176
 20
97.5893
  0
VERTEX
  8
LAYER_1
 10
123.426
 20
97.5893
 42
0.4142309181
  0
VERTEX
  8
LAYER_1
 10
122.426
 20
96.5893
  0
VERTEX
  8
LAYER_1
 10
122.426
 20
96.0893
  0
VERTEX
  8
LAYER_1
 10
132.176
 20
96.0893
  0
VERTEX
  8
LAYER_1
 10
141.926
 20
96.0893
  0
SEQEND
  0
POLYLINE
  8
LAYER_1
 40
0.2469
 41
0.2469
 66
1
 10
0
 20
0
 30
0
  0
VERTEX
  8
LAYER_1
 10
123.426
 20
86.8893
  0
VERTEX
  8
LAYER_1
 10
123.426
 20
88.3893
  0
VERTEX
  8
LAYER_1
 10
132.176
 20
88.3893
  0
VERTEX
  8
LAYER_1
 10
140.926
 20
88.3893
  0
VERTEX
  8
LAYER_1
 10
140.926
 20
86.8893
  0
SEQEND
  0
POLYLINE
  8
LAYER_1
 40
0.2469
 41
0.2469
 66
1
 10
0
 20
0
 30
0
 70
1
  0
VERTEX
  8
LAYER_1
 10
123.176
 20
86.8893
  0
VERTEX
  8
LAYER_1
 10
123.176
 20
86.3893
  0
VERTEX
  8
LAYER_1
 10
132.176
 20
86.3893
  0
VERTEX
  8
LAYER_1
 10
141.176
 20
86.3893
  0
VERTEX
  8
LAYER_1
 10
141.176
 20
86.8893
  0
VERTEX
  8
LAYER_1
 10
132.176
 20
86.8893
  0
SEQEND
  0
POLYLINE
  8
LAYER_1
 40
0.2469
 41
0.2469
 66
1
 10
0
 20
0
 30
0
  0
VERTEX
  8
LAYER_1
 10
126.176
 20
86.3893
  0
VERTEX
  8
LAYER_1
 10
126.176
 20
83.1393
  0
SEQEND
  0
POLYLINE
  8
LAYER_1
  6
AIGENLINE001
 40
0.1764
 41
0.1764
 66
1
 10
0
 20
0
 30
0
 70
128
  0
VERTEX
  8
LAYER_1
 10
132.176
 20
72.9605
  0
VERTEX
  8
LAYER_1
 10
132.176
 20
161.0531
  0
SEQEND
  0
POLYLINE
  8
LAYER_1
 40
0.2469
 41
0.2469
 66
1
 10
0
 20
0
 30
0
  0
VERTEX
  8
LAYER_1
 10
124.826
 20
97.5893
  0
VERTEX
  8
LAYER_1
 10
124.676
 20
97.7393
  0
VERTEX
  8
LAYER_1
 10
124.676
 20
143.9393
  0
SEQEND
  0
POLYLINE
  8
LAYER_1
 40
0.2469
 41
0.2469
 66
1
 10
0
 20
0
 30
0
 70
1
  0
VERTEX
  8
LAYER_1
 10
66.926
 20
96.5893
 42
0.4142146586
  0
VERTEX
  8
LAYER_1
 10
65.926
 20
97.5893
  0
VERTEX
  8
LAYER_1
 10
48.426
 20
97.5893
 42
0.4142310646
  0
VERTEX
  8
LAYER_1
 10
47.426
 20
96.5893
  0
VERTEX
  8
LAYER_1
 10
47.426
 20
96.0893
  0
VERTEX
  8
LAYER_1
 10
66.926
 20
96.0893
  0
SEQEND
  0
POLYLINE
  8
LAYER_1
 40
0.2469
 41
0.2469
 66
1
 10
0
 20
0
 30
0
  0
VERTEX
  8
LAYER_1
 10
48.426
 20
96.0893
  0
VERTEX
  8
LAYER_1
 10
48.426
 20
95.0893
  0
VERTEX
  8
LAYER_1
 10
57.176
 20
95.0893
  0
VERTEX
  8
LAYER_1
 10
65.926
 20
95.0893
  0
VERTEX
  8
LAYER_1
 10
65.926
 20
96.0893
  0
SEQEND
  0
POLYLINE
  8
LAYER_1
 40
0.2469
 41
0.2469
 66
1
 10
0
 20
0
 30
0
  0
VERTEX
  8
LAYER_1
 10
63.301
 20
144.0893
  0
VERTEX
  8
LAYER_1
 10
63.301
 20
144.3393
  0
SEQEND
  0
POLYLINE
  8
LAYER_1
 40
0.2469
 41
0.2469
 66
1
 10
0
 20
0
 30
0
  0
VERTEX
  8
LAYER_1
 10
51.051
 20
144.0893
  0
VERTEX
  8
LAYER_1
 10
51.051
 20
144.3393
  0
SEQEND
  0
TEXT
  8
LAYER_1
 10
127.6546
 20
214.5638
 11
127.6546
 21
214.5638
 40
2.9878
 41
0.5
  1
吐水位置
  0
TEXT
  8
LAYER_1
 10
142.0773
 20
183.4794
 11
142.0773
 21
183.4794
 40
2.9878
 41
0.5
  1
止水位置
  0
POLYLINE
  8
LAYER_1
  6
AIGENLINE001
 40
0.1764
 41
0.1764
 66
1
 10
0
 20
0
 30
0
 70
128
  0
VERTEX
  8
LAYER_1
 10
120.5978
 20
192.0083
  0
VERTEX
  8
LAYER_1
 10
188.7969
 20
192.0083
  0
SEQEND
  0
POLYLINE
  8
LAYER_1
  6
AIGENLINE001
 40
0.1764
 41
0.1764
 66
1
 10
0
 20
0
 30
0
 70
128
  0
VERTEX
  8
LAYER_1
 10
132.176
 20
212.8232
  0
VERTEX
  8
LAYER_1
 10
132.176
 20
180.9303
  0
SEQEND
  0
POLYLINE
  8
LAYER_1
 40
0.2469
 41
0.2469
 66
1
 10
0
 20
0
 30
0
  0
VERTEX
  8
LAYER_1
 10
60.9676
 20
83.1393
  0
VERTEX
  8
LAYER_1
 10
60.9676
 20
86.3893
  0
SEQEND
  0
POLYLINE
  8
LAYER_1
 40
0.2469
 41
0.2469
 66
1
 10
0
 20
0
 30
0
  0
VERTEX
  8
LAYER_1
 10
59.985
 20
83.1393
  0
VERTEX
  8
LAYER_1
 10
59.985
 20
86.3893
  0
SEQEND
  0
POLYLINE
  8
LAYER_1
 40
0.2469
 41
0.2469
 66
1
 10
0
 20
0
 30
0
  0
VERTEX
  8
LAYER_1
 10
53.3843
 20
83.1393
  0
VERTEX
  8
LAYER_1
 10
53.3843
 20
86.3893
  0
SEQEND
  0
POLYLINE
  8
LAYER_1
 40
0.2469
 41
0.2469
 66
1
 10
0
 20
0
 30
0
  0
VERTEX
  8
LAYER_1
 10
54.367
 20
83.1393
  0
VERTEX
  8
LAYER_1
 10
54.367
 20
86.3893
  0
SEQEND
  0
POLYLINE
  8
LAYER_1
 40
0.2469
 41
0.2469
 66
1
 10
0
 20
0
 30
0
  0
VERTEX
  8
LAYER_1
 10
50.551
 20
86.3893
  0
VERTEX
  8
LAYER_1
 10
50.551
 20
83.1393
  0
VERTEX
  8
LAYER_1
 10
63.801
 20
83.1393
  0
VERTEX
  8
LAYER_1
 10
63.801
 20
86.3893
  0
SEQEND
  0
POLYLINE
  8
LAYER_1
 40
0.2469
 41
0.2469
 66
1
 10
0
 20
0
 30
0
  0
VERTEX
  8
LAYER_1
 10
64.676
 20
143.9393
  0
VERTEX
  8
LAYER_1
 10
64.676
 20
97.7393
  0
VERTEX
  8
LAYER_1
 10
64.526
 20
97.5893
  0
SEQEND
  0
POLYLINE
  8
LAYER_1
  6
AIGENLINE001
 40
0.1764
 41
0.1764
 66
1
 10
0
 20
0
 30
0
 70
128
  0
VERTEX
  8
LAYER_1
 10
57.176
 20
162.0893
  0
VERTEX
  8
LAYER_1
 10
57.176
 20
72.9605
  0
SEQEND
  0
POLYLINE
  8
LAYER_1
 40
0.2469
 41
0.2469
 66
1
 10
0
 20
0
 30
0
  0
VERTEX
  8
LAYER_1
 10
61.9254
 20
126.363
  0
VERTEX
  8
LAYER_1
 10
61.9385
 20
136.0829
  0
VERTEX
  8
LAYER_1
 10
61.9385
 20
136.0893
 42
0.4142136696
  0
VERTEX
  8
LAYER_1
 10
57.176
 20
140.8518
 42
0.4142170837
  0
VERTEX
  8
LAYER_1
 10
52.4135
 20
136.0893
  0
VERTEX
  8
LAYER_1
 10
52.4135
 20
136.0829
  0
VERTEX
  8
LAYER_1
 10
52.4266
 20
126.363
  0
SEQEND
  0
POLYLINE
  8
LAYER_1
 40
0.2469
 41
0.2469
 66
1
 10
0
 20
0
 30
0
  0
VERTEX
  8
LAYER_1
 10
51.9372
 20
75.4203
  0
VERTEX
  8
LAYER_1
 10
51.9372
 20
83.1393
  0
SEQEND
  0
POLYLINE
  8
LAYER_1
 40
0.1764
 41
0.1764
 66
1
 10
0
 20
0
 30
0
  0
VERTEX
  8
LAYER_1
 10
52.5182
 20
95.0893
  0
VERTEX
  8
LAYER_1
 10
52.5182
 20
88.3893
  0
SEQEND
  0
POLYLINE
  8
LAYER_1
 40
0.1764
 41
0.1764
 66
1
 10
0
 20
0
 30
0
  0
VERTEX
  8
LAYER_1
 10
61.8337
 20
95.0893
  0
VERTEX
  8
LAYER_1
 10
61.8337
 20
88.3893
  0
SEQEND
  0
POLYLINE
  8
LAYER_1
 40
0.2469
 41
0.2469
 66
1
 10
0
 20
0
 30
0
  0
VERTEX
  8
LAYER_1
 10
62.4147
 20
75.4203
  0
VERTEX
  8
LAYER_1
 10
62.4147
 20
83.1393
  0
SEQEND
  0
POLYLINE
  8
LAYER_1
 40
0.2469
 41
0.2469
 66
1
 10
0
 20
0
 30
0
  0
VERTEX
  8
LAYER_1
 10
62.4147
 20
88.3893
  0
VERTEX
  8
LAYER_1
 10
62.4147
 20
95.0893
  0
SEQEND
  0
POLYLINE
  8
LAYER_1
 40
0.1764
 41
0.1764
 66
1
 10
0
 20
0
 30
0
  0
VERTEX
  8
LAYER_1
 10
61.8337
 20
83.1393
  0
VERTEX
  8
LAYER_1
 10
61.8337
 20
74.8393
  0
SEQEND
  0
POLYLINE
  8
LAYER_1
 40
0.1764
 41
0.1764
 66
1
 10
0
 20
0
 30
0
  0
VERTEX
  8
LAYER_1
 10
52.5182
 20
83.1393
  0
VERTEX
  8
LAYER_1
 10
52.5182
 20
74.8393
  0
SEQEND
  0
POLYLINE
  8
LAYER_1
 40
0.2469
 41
0.2469
 66
1
 10
0
 20
0
 30
0
  0
VERTEX
  8
LAYER_1
 10
51.9372
 20
88.3893
  0
VERTEX
  8
LAYER_1
 10
51.9372
 20
95.0893
  0
SEQEND
  0
POLYLINE
  8
LAYER_1
 40
0.2469
 41
0.2469
 66
1
 10
0
 20
0
 30
0
 70
1
  0
VERTEX
  8
LAYER_1
 10
66.176
 20
86.3893
  0
VERTEX
  8
LAYER_1
 10
66.176
 20
86.8893
  0
VERTEX
  8
LAYER_1
 10
57.176
 20
86.8893
  0
VERTEX
  8
LAYER_1
 10
48.176
 20
86.8893
  0
VERTEX
  8
LAYER_1
 10
48.176
 20
86.3893
  0
VERTEX
  8
LAYER_1
 10
57.176
 20
86.3893
  0
SEQEND
  0
POLYLINE
  8
LAYER_1
 40
0.2469
 41
0.2469
 66
1
 10
0
 20
0
 30
0
  0
VERTEX
  8
LAYER_1
 10
65.926
 20
86.8893
  0
VERTEX
  8
LAYER_1
 10
65.926
 20
88.3893
  0
VERTEX
  8
LAYER_1
 10
57.176
 20
88.3893
  0
VERTEX
  8
LAYER_1
 10
48.426
 20
88.3893
  0
VERTEX
  8
LAYER_1
 10
48.426
 20
86.8893
  0
SEQEND
  0
POLYLINE
  8
LAYER_1
 40
0.2469
 41
0.2469
 66
1
 10
0
 20
0
 30
0
  0
VERTEX
  8
LAYER_1
 10
49.826
 20
97.5893
  0
VERTEX
  8
LAYER_1
 10
49.676
 20
97.7393
  0
VERTEX
  8
LAYER_1
 10
49.676
 20
143.9393
  0
SEQEND
  0
POLYLINE
  8
LAYER_1
 40
0.2469
 41
0.2469
 66
1
 10
0
 20
0
 30
0
  0
VERTEX
  8
LAYER_1
 10
127.7068
 20
192.5074
  0
VERTEX
  8
LAYER_1
 10
127.676
 20
192.5083
 42
0.414235093
  0
VERTEX
  8
LAYER_1
 10
127.176
 20
192.0083
 42
0.4142245486
  0
VERTEX
  8
LAYER_1
 10
127.676
 20
191.5083
  0
VERTEX
  8
LAYER_1
 10
127.7068
 20
191.5093
  0
SEQEND
  0
POLYLINE
  8
LAYER_1
 40
0.2469
 41
0.2469
 66
1
 10
0
 20
0
 30
0
  0
VERTEX
  8
LAYER_1
 10
128.0814
 20
192.5083
  0
VERTEX
  8
LAYER_1
 10
127.676
 20
192.5083
  0
SEQEND
  0
POLYLINE
  8
LAYER_1
 40
0.2469
 41
0.2469
 66
1
 10
0
 20
0
 30
0
  0
VERTEX
  8
LAYER_1
 10
128.0814
 20
191.5083
  0
VERTEX
  8
LAYER_1
 10
127.676
 20
191.5083
  0
SEQEND
  0
CIRCLE
  8
LAYER_1
 10
132.176
 20
192.0083
 40
7.5
  0
POLYLINE
  8
LAYER_1
 40
0.2469
 41
0.2469
 66
1
 10
0
 20
0
 30
0
  0
VERTEX
  8
LAYER_1
 10
139.1933
 20
189.3613
 42
-0.3121002566
  0
VERTEX
  8
LAYER_1
 10
140.129
 20
190.0083
  0
VERTEX
  8
LAYER_1
 10
151.426
 20
190.0083
 42
0.4141705059
  0
VERTEX
  8
LAYER_1
 10
151.676
 20
190.2583
  0
VERTEX
  8
LAYER_1
 10
151.676
 20
193.7583
 42
0.4141915864
  0
VERTEX
  8
LAYER_1
 10
151.426
 20
194.0083
  0
VERTEX
  8
LAYER_1
 10
140.129
 20
194.0083
 42
-0.3121213057
  0
VERTEX
  8
LAYER_1
 10
139.1933
 20
194.6554
  0
SEQEND
  0
POLYLINE
  8
LAYER_1
  6
AIGENLINE002
 40
0.1764
 41
0.1764
 66
1
 10
0
 20
0
 30
0
 70
128
  0
VERTEX
  8
LAYER_1
 10
129.5289
 20
199.0256
 42
0.312110055
  0
VERTEX
  8
LAYER_1
 10
130.176
 20
199.9613
  0
SEQEND
  0
POLYLINE
  8
LAYER_1
  6
AIGENLINE003
 40
0.1764
 41
0.1764
 66
1
 10
0
 20
0
 30
0
 70
128
  0
VERTEX
  8
LAYER_1
 10
134.176
 20
199.9613
  0
VERTEX
  8
LAYER_1
 10
134.176
 20
211.2583
 42
0.4141915864
  0
VERTEX
  8
LAYER_1
 10
133.926
 20
211.5083
  0
VERTEX
  8
LAYER_1
 10
130.426
 20
211.5083
 42
0.414256625
  0
VERTEX
  8
LAYER_1
 10
130.176
 20
211.2583
  0
VERTEX
  8
LAYER_1
 10
130.176
 20
199.9613
  0
SEQEND
  0
POLYLINE
  8
LAYER_1
  6
AIGENLINE002
 40
0.1764
 41
0.1764
 66
1
 10
0
 20
0
 30
0
 70
128
  0
VERTEX
  8
LAYER_1
 10
134.176
 20
199.9613
 42
0.3120986353
  0
VERTEX
  8
LAYER_1
 10
134.823
 20
199.0256
  0
SEQEND
  0
CIRCLE
  8
LAYER_1
 10
132.176
 20
192.0083
 40
4.125
  0
POLYLINE
  8
LAYER_1
 40
0.2469
 41
0.2469
 66
1
 10
0
 20
0
 30
0
 70
1
  0
VERTEX
  8
LAYER_1
 10
49.676
 20
159.3393
  0
VERTEX
  8
LAYER_1
 10
49.676
 20
144.5893
 42
0.4142115113
  0
VERTEX
  8
LAYER_1
 10
49.926
 20
144.3393
  0
VERTEX
  8
LAYER_1
 10
64.426
 20
144.3393
 42
0.4141464951
  0
VERTEX
  8
LAYER_1
 10
64.676
 20
144.5893
  0
VERTEX
  8
LAYER_1
 10
64.676
 20
159.3393
 42
0.4142142426
  0
VERTEX
  8
LAYER_1
 10
63.926
 20
160.0893
  0
VERTEX
  8
LAYER_1
 10
50.426
 20
160.0893
 42
0.4142359225
  0
SEQEND
  0
POLYLINE
  8
LAYER_1
 40
0.2469
 41
0.2469
 66
1
 10
0
 20
0
 30
0
 70
1
  0
VERTEX
  8
LAYER_1
 10
126.9372
 20
75.4203
  0
VERTEX
  8
LAYER_1
 10
127.5182
 20
74.8393
  0
VERTEX
  8
LAYER_1
 10
136.8337
 20
74.8393
  0
VERTEX
  8
LAYER_1
 10
137.4147
 20
75.4203
  0
VERTEX
  8
LAYER_1
 10
136.8337
 20
74.8393
  0
VERTEX
  8
LAYER_1
 10
127.5182
 20
74.8393
  0
SEQEND
  0
POLYLINE
  8
LAYER_1
 40
0.2469
 41
0.2469
 66
1
 10
0
 20
0
 30
0
  0
VERTEX
  8
LAYER_1
 10
52.426
 20
126.8346
  0
VERTEX
  8
LAYER_1
 10
52.426
 20
116.8719
  0
SEQEND
  0
POLYLINE
  8
LAYER_1
 40
0.2469
 41
0.2469
 66
1
 10
0
 20
0
 30
0
  0
VERTEX
  8
LAYER_1
 10
61.926
 20
126.8346
  0
VERTEX
  8
LAYER_1
 10
61.926
 20
116.8719
  0
SEQEND
  0
POLYLINE
  8
LAYER_1
 40
0.187
 41
0.187
 66
1
 10
0
 20
0
 30
0
 70
1
  0
VERTEX
  8
LAYER_1
 10
61.301
 20
116.6512
 42
0.148833428
  0
VERTEX
  8
LAYER_1
 10
61.1002
 20
117.2886
 42
0.1007164365
  0
VERTEX
  8
LAYER_1
 10
60.5399
 20
117.8451
 42
0.0706284613
  0
VERTEX
  8
LAYER_1
 10
59.5639
 20
118.3332
 42
0.0563146182
  0
VERTEX
  8
LAYER_1
 10
58.1573
 20
118.655
 42
0.03037922643
  0
VERTEX
  8
LAYER_1
 10
57.176
 20
118.7137
 42
0.05452724769
  0
VERTEX
  8
LAYER_1
 10
55.4784
 20
118.5315
 42
0.05967121319
  0
VERTEX
  8
LAYER_1
 10
54.2244
 20
118.092
 42
0.07738321342
  0
VERTEX
  8
LAYER_1
 10
53.4578
 20
117.5453
 42
0.1119433257
  0
VERTEX
  8
LAYER_1
 10
53.0985
 20
116.9653
 42
0.07429983936
  0
VERTEX
  8
LAYER_1
 10
53.051
 20
116.6512
 42
0.1488228446
  0
VERTEX
  8
LAYER_1
 10
53.2518
 20
116.0137
 42
0.1007232124
  0
VERTEX
  8
LAYER_1
 10
53.812
 20
115.4572
 42
0.07063444283
  0
VERTEX
  8
LAYER_1
 10
54.7881
 20
114.9692
 42
0.05631492509
  0
VERTEX
  8
LAYER_1
 10
56.1946
 20
114.6474
 42
0.03037595129
  0
VERTEX
  8
LAYER_1
 10
57.176
 20
114.5887
 42
0.05452380176
  0
VERTEX
  8
LAYER_1
 10
58.8736
 20
114.7709
 42
0.05966950759
  0
VERTEX
  8
LAYER_1
 10
60.1276
 20
115.2104
 42
0.07738503017
  0
VERTEX
  8
LAYER_1
 10
60.8942
 20
115.757
 42
0.1119477851
  0
VERTEX
  8
LAYER_1
 10
61.2535
 20
116.3371
 42
0.07429923354
  0
SEQEND
  0
POLYLINE
  8
LAYER_1
 40
0.187
 41
0.187
 66
1
 10
0
 20
0
 30
0
 70
1
  0
VERTEX
  8
LAYER_1
 10
61.926
 20
116.8693
 42
0.1310638705
  0
VERTEX
  8
LAYER_1
 10
61.7458
 20
117.5284
 42
0.09972324133
  0
VERTEX
  8
LAYER_1
 10
61.2083
 20
118.1424
 42
0.06999657831
  0
VERTEX
  8
LAYER_1
 10
60.2845
 20
118.6897
 42
0.05562366582
  0
VERTEX
  8
LAYER_1
 10
58.9177
 20
119.1098
 42
0.0466431981
  0
VERTEX
  8
LAYER_1
 10
57.2986
 20
119.276
 42
0.003239853955
  0
VERTEX
  8
LAYER_1
 10
57.176
 20
119.2768
 42
0.05023703075
  0
VERTEX
  8
LAYER_1
 10
55.3805
 20
119.0989
 42
0.05242629052
  0
VERTEX
  8
LAYER_1
 10
54.0246
 20
118.6707
 42
0.06762124974
  0
VERTEX
  8
LAYER_1
 10
53.0842
 20
118.0927
 42
0.09308953167
  0
VERTEX
  8
LAYER_1
 10
52.5755
 20
117.471
 42
0.1160527858
  0
VERTEX
  8
LAYER_1
 10
52.426
 20
116.8693
 42
0.1310638705
  0
VERTEX
  8
LAYER_1
 10
52.6062
 20
116.2102
 42
0.09972324133
  0
VERTEX
  8
LAYER_1
 10
53.1437
 20
115.5962
 42
0.06999657831
  0
VERTEX
  8
LAYER_1
 10
54.0675
 20
115.0489
 42
0.05562366582
  0
VERTEX
  8
LAYER_1
 10
55.4343
 20
114.6288
 42
0.0466431981
  0
VERTEX
  8
LAYER_1
 10
57.0534
 20
114.4626
 42
0.003239853955
  0
VERTEX
  8
LAYER_1
 10
57.176
 20
114.4618
 42
0.05023703075
  0
VERTEX
  8
LAYER_1
 10
58.9715
 20
114.6397
 42
0.05242629052
  0
VERTEX
  8
LAYER_1
 10
60.3274
 20
115.0679
 42
0.06762124974
  0
VERTEX
  8
LAYER_1
 10
61.2678
 20
115.6459
 42
0.09308953167
  0
VERTEX
  8
LAYER_1
 10
61.7765
 20
116.2676
 42
0.1160527858
  0
SEQEND
  0
POLYLINE
  8
LAYER_1
 40
0.1799
 41
0.1799
 66
1
 10
0
 20
0
 30
0
  0
VERTEX
  8
LAYER_1
 10
61.926
 20
125.962
 42
0.1442687271
  0
VERTEX
  8
LAYER_1
 10
61.7458
 20
126.5533
 42
0.1007955157
  0
VERTEX
  8
LAYER_1
 10
61.2083
 20
127.1042
 42
0.07136359955
  0
VERTEX
  8
LAYER_1
 10
60.1974
 20
127.6288
 42
0.05157652356
  0
VERTEX
  8
LAYER_1
 10
58.7545
 20
127.9999
 42
0.04010023969
  0
VERTEX
  8
LAYER_1
 10
57.176
 20
128.122
 42
0.04670304691
  0
VERTEX
  8
LAYER_1
 10
55.3271
 20
127.9523
 42
0.05218117528
  0
VERTEX
  8
LAYER_1
 10
53.8988
 20
127.5256
 42
0.07023862182
  0
VERTEX
  8
LAYER_1
 10
52.9722
 20
126.9686
 42
0.1026330909
  0
VERTEX
  8
LAYER_1
 10
52.5225
 20
126.3973
 42
0.1051918908
  0
VERTEX
  8
LAYER_1
 10
52.426
 20
125.962
  0
SEQEND
  0
POLYLINE
  8
LAYER_1
 40
0.1976
 41
0.1976
 66
1
 10
0
 20
0
 30
0
  0
VERTEX
  8
LAYER_1
 10
61.926
 20
126.4378
 42
0.1138725144
  0
VERTEX
  8
LAYER_1
 10
61.7458
 20
127.2071
 42
0.09117197701
  0
VERTEX
  8
LAYER_1
 10
61.2383
 20
127.8949
 42
0.07202788398
  0
VERTEX
  8
LAYER_1
 10
60.3698
 20
128.5178
 42
0.05952891674
  0
VERTEX
  8
LAYER_1
 10
59.1308
 20
128.9996
 42
0.05100072574
  0
VERTEX
  8
LAYER_1
 10
57.6617
 20
129.2333
 42
0.01496469517
  0
VERTEX
  8
LAYER_1
 10
57.176
 20
129.2478
 42
0.05459847332
  0
VERTEX
  8
LAYER_1
 10
55.4884
 20
129.0653
 42
0.05652687162
  0
VERTEX
  8
LAYER_1
 10
54.1546
 20
128.6061
 42
0.06361011329
  0
VERTEX
  8
LAYER_1
 10
53.2372
 20
128.0089
 42
0.08408253253
  0
VERTEX
  8
LAYER_1
 10
52.6572
 20
127.3063
 42
0.1029671324
  0
VERTEX
  8
LAYER_1
 10
52.4322
 20
126.5824
 42
0.02132610121
  0
VERTEX
  8
LAYER_1
 10
52.426
 20
126.4378
  0
SEQEND
  0
POLYLINE
  8
LAYER_1
 40
0.2469
 41
0.2469
 66
1
 10
0
 20
0
 30
0
  0
VERTEX
  8
LAYER_1
 10
183.5793
 20
196.7708
  0
VERTEX
  8
LAYER_1
 10
137.9698
 20
196.7708
  0
SEQEND
  0
POLYLINE
  8
LAYER_1
 40
0.2469
 41
0.2469
 66
1
 10
0
 20
0
 30
0
  0
VERTEX
  8
LAYER_1
 10
137.9698
 20
187.2458
  0
VERTEX
  8
LAYER_1
 10
183.5793
 20
187.2458
  0
SEQEND
  0
POLYLINE
  8
LAYER_1
 40
0.2187
 41
0.2187
 66
1
 10
0
 20
0
 30
0
  0
VERTEX
  8
LAYER_1
 10
183.5793
 20
187.2458
 42
0.1261607461
  0
VERTEX
  8
LAYER_1
 10
184.9388
 20
187.5978
 42
0.07579383123
  0
VERTEX
  8
LAYER_1
 10
185.7656
 20
188.2265
 42
0.06723626107
  0
VERTEX
  8
LAYER_1
 10
186.4613
 20
189.1588
 42
0.06181762105
  0
VERTEX
  8
LAYER_1
 10
186.9576
 20
190.3708
 42
0.05828288416
  0
VERTEX
  8
LAYER_1
 10
187.1711
 20
191.7632
 42
0.009643492507
  0
VERTEX
  8
LAYER_1
 10
187.1758
 20
192.0083
 42
0.05972680169
  0
VERTEX
  8
LAYER_1
 10
187.0007
 20
193.4803
 42
0.05960949421
  0
VERTEX
  8
LAYER_1
 10
186.5371
 20
194.7183
 42
0.06635955411
  0
VERTEX
  8
LAYER_1
 10
185.8335
 20
195.7194
 42
0.07181910533
  0
VERTEX
  8
LAYER_1
 10
185.0194
 20
196.3736
 42
0.07648471029
  0
VERTEX
  8
LAYER_1
 10
184.1716
 20
196.7065
 42
0.05407405905
  0
VERTEX
  8
LAYER_1
 10
183.5793
 20
196.7708
  0
SEQEND
  0
POLYLINE
  8
LAYER_1
 40
0.2187
 41
0.2187
 66
1
 10
0
 20
0
 30
0
  0
VERTEX
  8
LAYER_1
 10
178.5123
 20
187.2458
 42
0.1261607461
  0
VERTEX
  8
LAYER_1
 10
179.8718
 20
187.5978
 42
0.07579383123
  0
VERTEX
  8
LAYER_1
 10
180.6986
 20
188.2265
 42
0.06723626107
  0
VERTEX
  8
LAYER_1
 10
181.3943
 20
189.1588
 42
0.06181762105
  0
VERTEX
  8
LAYER_1
 10
181.8906
 20
190.3708
 42
0.05828288416
  0
VERTEX
  8
LAYER_1
 10
182.1041
 20
191.7632
 42
0.009643492507
  0
VERTEX
  8
LAYER_1
 10
182.1088
 20
192.0083
 42
0.05972680169
  0
VERTEX
  8
LAYER_1
 10
181.9337
 20
193.4803
 42
0.05960949421
  0
VERTEX
  8
LAYER_1
 10
181.4701
 20
194.7183
 42
0.06635955411
  0
VERTEX
  8
LAYER_1
 10
180.7665
 20
195.7194
 42
0.07181910533
  0
VERTEX
  8
LAYER_1
 10
179.9524
 20
196.3736
 42
0.07648471029
  0
VERTEX
  8
LAYER_1
 10
179.1046
 20
196.7065
 42
0.05407405905
  0
VERTEX
  8
LAYER_1
 10
178.5123
 20
196.7708
  0
SEQEND
  0
POLYLINE
  8
LAYER_1
 40
0.2187
 41
0.2187
 66
1
 10
0
 20
0
 30
0
  0
VERTEX
  8
LAYER_1
 10
177.8624
 20
187.2458
 42
0.1261632183
  0
VERTEX
  8
LAYER_1
 10
179.2218
 20
187.5978
 42
0.0757914246
  0
VERTEX
  8
LAYER_1
 10
180.0487
 20
188.2265
 42
0.06723421634
  0
VERTEX
  8
LAYER_1
 10
180.7444
 20
189.1588
 42
0.0618175601
  0
VERTEX
  8
LAYER_1
 10
181.2407
 20
190.3708
 42
0.05828508133
  0
VERTEX
  8
LAYER_1
 10
181.4542
 20
191.7632
 42
0.009644037773
  0
VERTEX
  8
LAYER_1
 10
181.4589
 20
192.0083
 42
0.05972969054
  0
VERTEX
  8
LAYER_1
 10
181.2838
 20
193.4803
 42
0.05961014747
  0
VERTEX
  8
LAYER_1
 10
180.8202
 20
194.7183
 42
0.06635794622
  0
VERTEX
  8
LAYER_1
 10
180.1166
 20
195.7194
 42
0.07181646583
  0
VERTEX
  8
LAYER_1
 10
179.3025
 20
196.3736
 42
0.07648357581
  0
VERTEX
  8
LAYER_1
 10
178.4546
 20
196.7065
 42
0.05407566387
  0
VERTEX
  8
LAYER_1
 10
177.8624
 20
196.7708
  0
SEQEND
  0
POLYLINE
  8
LAYER_1
 40
0.2469
 41
0.2469
 66
1
 10
0
 20
0
 30
0
  0
VERTEX
  8
LAYER_1
 10
173.0208
 20
124.838
  0
VERTEX
  8
LAYER_1
 10
172.2298
 20
126.2081
 42
0.2679500461
  0
VERTEX
  8
LAYER_1
 10
163.3638
 20
131.3268
  0
VERTEX
  8
LAYER_1
 10
139.676
 20
131.3268
  0
VERTEX
  8
LAYER_1
 10
139.676
 20
97.7393
  0
VERTEX
  8
LAYER_1
 10
139.526
 20
97.5893
  0
SEQEND
  0
POLYLINE
  8
LAYER_1
 40
0.2469
 41
0.2469
 66
1
 10
0
 20
0
 30
0
  0
VERTEX
  8
LAYER_1
 10
173.8816
 20
123.372
  0
VERTEX
  8
LAYER_1
 10
178.8816
 20
114.7118
 42
0.2679513095
  0
VERTEX
  8
LAYER_1
 10
179.3146
 20
114.4618
 42
0.1321522771
  0
VERTEX
  8
LAYER_1
 10
179.5646
 20
114.5288
  0
VERTEX
  8
LAYER_1
 10
179.6729
 20
114.5913
  0
VERTEX
  8
LAYER_1
 10
186.8176
 20
118.7163
  0
VERTEX
  8
LAYER_1
 10
186.9258
 20
118.7788
 42
0.2679601871
  0
VERTEX
  8
LAYER_1
 10
187.1758
 20
119.2118
 42
0.1320642946
  0
VERTEX
  8
LAYER_1
 10
187.1088
 20
119.4618
  0
VERTEX
  8
LAYER_1
 10
182.1088
 20
128.122
  0
SEQEND
  0
POLYLINE
  8
LAYER_1
 40
0.2469
 41
0.2469
 66
1
 10
0
 20
0
 30
0
  0
VERTEX
  8
LAYER_1
 10
174.5642
 20
124.6898
  0
VERTEX
  8
LAYER_1
 10
174.8391
 20
124.2135
  0
SEQEND
  0
POLYLINE
  8
LAYER_1
 40
0.2469
 41
0.2469
 66
1
 10
0
 20
0
 30
0
  0
VERTEX
  8
LAYER_1
 10
180.9013
 20
127.7135
  0
VERTEX
  8
LAYER_1
 10
180.6263
 20
128.1898
  0
SEQEND
  0
POLYLINE
  8
LAYER_1
  6
AIGENLINE001
 40
0.1764
 41
0.1764
 66
1
 10
0
 20
0
 30
0
 70
128
  0
VERTEX
  8
LAYER_1
 10
184.1016
 20
115.1705
  0
VERTEX
  8
LAYER_1
 10
176.3542
 20
128.5893
 42
0.2679501377
  0
VERTEX
  8
LAYER_1
 10
163.3638
 20
136.0893
  0
VERTEX
  8
LAYER_1
 10
137.676
 20
136.0893
  0
SEQEND
  0
POLYLINE
  8
LAYER_1
 40
0.2469
 41
0.2469
 66
1
 10
0
 20
0
 30
0
  0
VERTEX
  8
LAYER_1
 10
181.4589
 20
129.2478
  0
VERTEX
  8
LAYER_1
 10
181.6339
 20
128.9447
  0
SEQEND
  0
POLYLINE
  8
LAYER_1
 40
0.2469
 41
0.2469
 66
1
 10
0
 20
0
 30
0
  0
VERTEX
  8
LAYER_1
 10
177.5952
 20
126.4399
  0
VERTEX
  8
LAYER_1
 10
173.6115
 20
124.1398
  0
VERTEX
  8
LAYER_1
 10
173.4066
 20
124.1947
  0
SEQEND
  0
POLYLINE
  8
LAYER_1
 40
0.2469
 41
0.2469
 66
1
 10
0
 20
0
 30
0
  0
VERTEX
  8
LAYER_1
 10
173.2257
 20
124.7831
  0
VERTEX
  8
LAYER_1
 10
173.0208
 20
124.838
  0
VERTEX
  8
LAYER_1
 10
173.2257
 20
124.7831
  0
VERTEX
  8
LAYER_1
 10
177.2202
 20
127.0893
  0
VERTEX
  8
LAYER_1
 10
181.2148
 20
129.3956
  0
VERTEX
  8
LAYER_1
 10
181.2697
 20
129.6005
  0
VERTEX
  8
LAYER_1
 10
180.4787
 20
130.9706
 42
0.2679496888
  0
VERTEX
  8
LAYER_1
 10
163.3638
 20
140.8518
  0
VERTEX
  8
LAYER_1
 10
139.676
 20
140.8518
  0
VERTEX
  8
LAYER_1
 10
139.676
 20
143.9393
  0
SEQEND
  0
POLYLINE
  8
LAYER_1
 40
0.2469
 41
0.2469
 66
1
 10
0
 20
0
 30
0
  0
VERTEX
  8
LAYER_1
 10
52.5182
 20
74.8393
  0
VERTEX
  8
LAYER_1
 10
51.9372
 20
75.4203
  0
VERTEX
  8
LAYER_1
 10
62.4147
 20
75.4203
  0
VERTEX
  8
LAYER_1
 10
61.8337
 20
74.8393
  0
SEQEND
  0
POLYLINE
  8
LAYER_1
 40
0.1764
 41
0.1764
 66
1
 10
0
 20
0
 30
0
  0
VERTEX
  8
LAYER_1
 10
136.8337
 20
95.0893
  0
VERTEX
  8
LAYER_1
 10
136.8337
 20
88.3893
  0
SEQEND
  0
POLYLINE
  8
LAYER_1
 40
0.1764
 41
0.1764
 66
1
 10
0
 20
0
 30
0
  0
VERTEX
  8
LAYER_1
 10
127.5182
 20
95.0893
  0
VERTEX
  8
LAYER_1
 10
127.5182
 20
88.3893
  0
SEQEND
  0
POLYLINE
  8
LAYER_1
 40
0.2469
 41
0.2469
 66
1
 10
0
 20
0
 30
0
  0
VERTEX
  8
LAYER_1
 10
137.4147
 20
88.3893
  0
VERTEX
  8
LAYER_1
 10
137.4147
 20
95.0893
  0
SEQEND
  0
POLYLINE
  8
LAYER_1
 40
0.1764
 41
0.1764
 66
1
 10
0
 20
0
 30
0
  0
VERTEX
  8
LAYER_1
 10
136.8337
 20
83.1393
  0
VERTEX
  8
LAYER_1
 10
136.8337
 20
74.8393
  0
SEQEND
  0
POLYLINE
  8
LAYER_1
 40
0.2469
 41
0.2469
 66
1
 10
0
 20
0
 30
0
  0
VERTEX
  8
LAYER_1
 10
126.9372
 20
88.3893
  0
VERTEX
  8
LAYER_1
 10
126.9372
 20
95.0893
  0
SEQEND
  0
POLYLINE
  8
LAYER_1
 40
0.1764
 41
0.1764
 66
1
 10
0
 20
0
 30
0
  0
VERTEX
  8
LAYER_1
 10
127.5182
 20
83.1393
  0
VERTEX
  8
LAYER_1
 10
127.5182
 20
74.8393
  0
SEQEND
  0
POLYLINE
  8
LAYER_1
 40
0.1058
 41
0.1058
 66
1
 10
0
 20
0
 30
0
  0
VERTEX
  8
LAYER_1
 10
139.0892
 20
140.1374
  0
VERTEX
  8
LAYER_1
 10
139.0845
 20
140.128
 42
-0.03633175162
  0
VERTEX
  8
LAYER_1
 10
138.5279
 20
139.2062
 42
0.08703129617
  0
VERTEX
  8
LAYER_1
 10
138.3367
 20
138.2985
  0
VERTEX
  8
LAYER_1
 10
138.1598
 20
137.2437
 42
0.06427613925
  0
VERTEX
  8
LAYER_1
 10
138.3072
 20
134.555
 42
0.04615733317
  0
VERTEX
  8
LAYER_1
 10
138.4887
 20
133.377
 42
-0.02102875897
  0
VERTEX
  8
LAYER_1
 10
138.9491
 20
132.2345
  0
SEQEND
  0
POLYLINE
  8
LAYER_1
 40
0.1058
 41
0.1058
 66
1
 10
0
 20
0
 30
0
  0
VERTEX
  8
LAYER_1
 10
139.526
 20
156.3393
  0
VERTEX
  8
LAYER_1
 10
139.0529
 20
155.6685
  0
VERTEX
  8
LAYER_1
 10
138.877
 20
155.1056
 42
0.1785984164
  0
VERTEX
  8
LAYER_1
 10
138.9145
 20
154.0689
 42
0.09997903326
  0
VERTEX
  8
LAYER_1
 10
139.1691
 20
153.3349
  0
VERTEX
  8
LAYER_1
 10
139.426
 20
152.8393
  0
SEQEND
  0
POLYLINE
  8
LAYER_1
 40
0.2469
 41
0.2469
 66
1
 10
0
 20
0
 30
0
 70
1
  0
VERTEX
  8
LAYER_1
 10
173.6114
 20
124.1399
  0
VERTEX
  8
LAYER_1
 10
181.579
 20
128.7398
  0
VERTEX
  8
LAYER_1
 10
181.6339
 20
128.9447
  0
VERTEX
  8
LAYER_1
 10
173.4066
 20
124.1948
  0
VERTEX
  8
LAYER_1
 10
173.2316
 20
124.4978
  0
VERTEX
  8
LAYER_1
 10
173.4066
 20
124.1947
  0
SEQEND
  0
POLYLINE
  8
LAYER_1
 40
0.2469
 41
0.2469
 66
1
 10
0
 20
0
 30
0
  0
VERTEX
  8
LAYER_1
 10
181.1173
 20
129.3393
  0
VERTEX
  8
LAYER_1
 10
181.4589
 20
129.2478
  0
VERTEX
  8
LAYER_1
 10
173.2317
 20
124.498
  0
VERTEX
  8
LAYER_1
 10
173.3231
 20
124.8393
  0
SEQEND
  0
POLYLINE
  8
LAYER_1
 40
0.2469
 41
0.2469
 66
1
 10
0
 20
0
 30
0
 70
1
  0
VERTEX
  8
LAYER_1
 10
177.8702
 20
125.9635
  0
VERTEX
  8
LAYER_1
 10
181.7673
 20
128.2135
  0
VERTEX
  8
LAYER_1
 10
182.1088
 20
128.122
  0
VERTEX
  8
LAYER_1
 10
173.8816
 20
123.372
  0
VERTEX
  8
LAYER_1
 10
173.9731
 20
123.7135
  0
SEQEND
  0
POLYLINE
  8
LAYER_1
 40
0.2469
 41
0.2469
 66
1
 10
0
 20
0
 30
0
 70
1
  0
VERTEX
  8
LAYER_1
 10
124.826
 20
144.0893
  0
VERTEX
  8
LAYER_1
 10
124.676
 20
143.9393
  0
VERTEX
  8
LAYER_1
 10
139.676
 20
143.9393
  0
VERTEX
  8
LAYER_1
 10
139.526
 20
144.0893
  0
VERTEX
  8
LAYER_1
 10
132.176
 20
144.0893
  0
SEQEND
  0
POLYLINE
  8
LAYER_1
 40
0.2469
 41
0.2469
 66
1
 10
0
 20
0
 30
0
 70
1
  0
VERTEX
  8
LAYER_1
 10
49.826
 20
144.0893
  0
VERTEX
  8
LAYER_1
 10
49.676
 20
143.9393
  0
VERTEX
  8
LAYER_1
 10
64.676
 20
143.9393
  0
VERTEX
  8
LAYER_1
 10
64.526
 20
144.0893
  0
SEQEND
  0
INSERT
  8
LAYER_1
  2
AIGNBL0101001D
 10
0
 20
0
 30
0
  0
TEXT
  8
LAYER_1
 10
20.2736
 20
84.588
 11
20.2736
 21
84.588
 40
3.406
 41
0.5
  1
取付穴径%%c23～%%c25
  0
POLYLINE
  8
LAYER_1
 40
0.1058
 41
0.1058
 66
1
 10
0
 20
0
 30
0
  0
VERTEX
  8
LAYER_1
 10
63.926
 20
160.0893
  0
VERTEX
  8
LAYER_1
 10
83.8202
 20
160.0893
  0
SEQEND
  0
POLYLINE
  8
LAYER_1
 40
0.1058
 41
0.1058
 66
1
 10
0
 20
0
 30
0
  0
VERTEX
  8
LAYER_1
 10
66.926
 20
96.0893
  0
VERTEX
  8
LAYER_1
 10
83.8202
 20
96.0893
  0
SEQEND
  0
POLYLINE
  8
LAYER_1
 40
0.1058
 41
0.1058
 66
1
 10
0
 20
0
 30
0
  0
VERTEX
  8
LAYER_1
 10
82.8202
 20
159.3393
  0
VERTEX
  8
LAYER_1
 10
82.8202
 20
96.8393
  0
SEQEND
  0
INSERT
  8
LAYER_1
  2
AIGNBL01010020
 10
0
 20
0
 30
0
  0
INSERT
  8
LAYER_1
  2
AIGNBL01010021
 10
0
 20
0
 30
0
  0
POLYLINE
  8
LAYER_1
 40
0.1058
 41
0.1058
 66
1
 10
0
 20
0
 30
0
  0
VERTEX
  8
LAYER_1
 10
65.926
 20
88.3893
  0
VERTEX
  8
LAYER_1
 10
72.4385
 20
88.3893
  0
SEQEND
  0
POLYLINE
  8
LAYER_1
 40
0.1058
 41
0.1058
 66
1
 10
0
 20
0
 30
0
  0
VERTEX
  8
LAYER_1
 10
66.926
 20
96.0893
  0
VERTEX
  8
LAYER_1
 10
72.4385
 20
96.0893
  0
SEQEND
  0
POLYLINE
  8
LAYER_1
 40
0.1058
 41
0.1058
 66
1
 10
0
 20
0
 30
0
  0
VERTEX
  8
LAYER_1
 10
71.4385
 20
89.1393
  0
VERTEX
  8
LAYER_1
 10
71.4385
 20
95.3393
  0
SEQEND
  0
POLYLINE
  8
LAYER_1
 40
0.1058
 41
0.1058
 66
1
 10
0
 20
0
 30
0
  0
VERTEX
  8
LAYER_1
 10
71.4385
 20
96.0893
  0
VERTEX
  8
LAYER_1
 10
71.4385
 20
109.8153
  0
SEQEND
  0
INSERT
  8
LAYER_1
  2
AIGNBL01010022
 10
0
 20
0
 30
0
  0
INSERT
  8
LAYER_1
  2
AIGNBL01010023
 10
0
 20
0
 30
0
  0
POLYLINE
  8
LAYER_1
 40
0.1058
 41
0.1058
 66
1
 10
0
 20
0
 30
0
  0
VERTEX
  8
LAYER_1
 10
149.676
 20
131.3268
  0
VERTEX
  8
LAYER_1
 10
148.676
 20
131.3268
  0
SEQEND
  0
POLYLINE
  8
LAYER_1
 40
0.1058
 41
0.1058
 66
1
 10
0
 20
0
 30
0
  0
VERTEX
  8
LAYER_1
 10
149.676
 20
140.8518
  0
VERTEX
  8
LAYER_1
 10
148.676
 20
140.8518
  0
SEQEND
  0
POLYLINE
  8
LAYER_1
 40
0.1058
 41
0.1058
 66
1
 10
0
 20
0
 30
0
  0
VERTEX
  8
LAYER_1
 10
149.676
 20
132.0768
  0
VERTEX
  8
LAYER_1
 10
149.676
 20
140.1018
  0
SEQEND
  0
INSERT
  8
LAYER_1
  2
AIGNBL01010024
 10
0
 20
0
 30
0
  0
INSERT
  8
LAYER_1
  2
AIGNBL01010025
 10
0
 20
0
 30
0
  0
TEXT
  8
LAYER_1
 10
90.0936
 20
129.5802
 11
90.0936
 21
129.5802
 40
3.406
 41
0.5
 72
1
  1
128
  0
TEXT
  8
LAYER_1
 10
70.5318
 20
110.1845
 11
70.5318
 21
110.1845
 40
3.406
 41
0.5
 50
89.99999999
 72
1
  1
取付板厚24ｍａｘ
  0
TEXT
  8
LAYER_1
 10
151.9159
 20
137.5711
 11
151.9159
 21
137.5711
 40
3.406
 41
0.5
 72
2
  1
%%c19
  0
TEXT
  8
LAYER_1
 10
192.8716
 20
102.2024
 11
192.8716
 21
102.2024
 40
3.406
 41
0.5
 72
1
  1
42.5
  0
TEXT
  8
LAYER_2
 10
-26.2556
 20
43.1712
 11
-26.2556
 21
43.1712
 40
3.2995
 41
0.5
  1
仕様
  0
POLYLINE
  8
LAYER_2
 40
0.3528
 41
0.3528
 66
1
 10
0
 20
0
 30
0
  0
VERTEX
  8
LAYER_2
 10
250.6748
 20
51.9507
  0
VERTEX
  8
LAYER_2
 10
-29.3178
 20
51.9507
  0
SEQEND
  0
INSERT
  8
LAYER_2
  2
AIGNBL02010002
 10
0
 20
0
 30
0
  0
POLYLINE
  8
LAYER_2
 40
0.3528
 41
0.3528
 66
1
 10
0
 20
0
 30
0
  0
VERTEX
  8
LAYER_2
 10
-29.3178
 20
229.3369
  0
VERTEX
  8
LAYER_2
 10
-29.3178
 20
34.3283
  0
VERTEX
  8
LAYER_2
 10
250.6748
 20
34.3283
  0
VERTEX
  8
LAYER_2
 10
250.6748
 20
229.3369
  0
VERTEX
  8
LAYER_2
 10
-29.3178
 20
229.3369
  0
SEQEND
  0
POLYLINE
  8
LAYER_2
 40
0.3528
 41
0.3528
 66
1
 10
0
 20
0
 30
0
  0
VERTEX
  8
LAYER_2
 10
250.6748
 20
60.4597
  0
VERTEX
  8
LAYER_2
 10
-29.3178
 20
60.4597
  0
SEQEND
  0
POLYLINE
  8
LAYER_2
 40
0.3528
 41
0.3528
 66
1
 10
0
 20
0
 30
0
  0
VERTEX
  8
LAYER_2
 10
250.6748
 20
43.4416
  0
VERTEX
  8
LAYER_2
 10
143.5341
 20
43.4416
  0
SEQEND
  0
TEXT
  8
LAYER_2
 10
188.1725
 20
45.7175
 11
188.1725
 21
45.7175
 40
3.7615
 41
0.5
  1
-
  0
TEXT
  8
LAYER_2
 10
182.8808
 20
49.4743
 11
182.8808
 21
49.4743
 40
2.1997
 41
0.5
  1
縮尺
  0
POLYLINE
  8
LAYER_2
 40
0.3528
 41
0.3528
 66
1
 10
0
 20
0
 30
0
  0
VERTEX
  8
LAYER_2
 10
181.3526
 20
43.4416
  0
VERTEX
  8
LAYER_2
 10
181.3526
 20
51.9507
  0
SEQEND
  0
TEXT
  8
LAYER_2
 10
144.2327
 20
57.9834
 11
144.2327
 21
57.9834
 40
2.1997
 41
0.5
  1
品番
  0
TEXT
  8
LAYER_2
 10
-28.1609
 20
57.9834
 11
-28.1609
 21
57.9834
 40
2.1997
 41
0.5
  1
品名
  0
TEXT
  8
LAYER_2
 10
144.2327
 20
49.4743
 11
144.2327
 21
49.4743
 40
2.1997
 41
0.5
  1
重量
  0
TEXT
  8
LAYER_2
 10
150.2547
 20
54.1514
 11
150.2547
 21
54.1514
 40
5.9385
 41
0.5
  1
AQ-LFK612
  0
TEXT
  8
LAYER_2
 10
149.5454
 20
45.7175
 11
149.5454
 21
45.7175
 40
3.7615
 41
0.5
  1
-
  0
POLYLINE
  8
LAYER_2
 40
0.3528
 41
0.3528
 66
1
 10
0
 20
0
 30
0
  0
VERTEX
  8
LAYER_2
 10
143.5341
 20
34.9539
  0
VERTEX
  8
LAYER_2
 10
143.5341
 20
60.4597
  0
SEQEND
  0
TEXT
  8
LAYER_2
 10
-15.2256
 20
54.891
 11
-15.2256
 21
54.891
 40
3.6373
 41
0.5
  1
単水栓
  0
TEXT
  8
LAYER_2
 10
-15.6835
 20
42.9042
 11
-15.6835
 21
42.9042
 40
3.5541
 41
0.5
  1
●排水金具別途●JIS
  0
TEXT
  8
LAYER_2
 10
237.263
 20
63.2582
 11
237.263
 21
63.2582
 40
2.9618
 41
0.5
  1
単位：mm
  0
TEXT
  8
LAYER_2
 10
176.0254
 20
39.5359
 11
176.0254
 21
39.5359
 40
3.3853
 41
0.5
  1
●TEL 0120-65-1232●FAX 06-6532-1580
  0
TEXT
  8
LAYER_2
 10
176.0254
 20
36.0212
 11
176.0254
 21
36.0212
 40
3.3853
 41
0.5
  1
hits@hiratatile.co.jp
  0
INSERT
  8
LAYER_2
  2
AIGNBL02010003
 10
0
 20
0
 30
0
  0
TEXT
  8
LAYER_2
 10
240.3591
 20
225.8432
 11
240.3591
 21
225.8432
 40
2.0732
 41
0.5
  1
200908RT
  0
TEXT
  8
LAYER_2
 10
-18.1128
 20
216.6655
 11
-18.1128
 21
216.6655
 40
3.258
 41
0.5
  1
AQ-LFK612-107
  0
TEXT
  8
LAYER_2
 10
-18.1128
 20
211.6656
 11
-18.1128
 21
211.6656
 40
3.258
 41
0.5
  1
AQ-LFK612X-S
  0
TEXT
  8
LAYER_2
 10
-18.1128
 20
206.6654
 11
-18.1128
 21
206.6654
 40
3.258
 41
0.5
  1
AQ-LFK612X-P
  0
TEXT
  8
LAYER_2
 10
-18.1128
 20
201.6655
 11
-18.1128
 21
201.6655
 40
3.258
 41
0.5
  1
AQ-LFK612X-G
  0
TEXT
  8
LAYER_2
 10
-18.1128
 20
196.6653
 11
-18.1128
 21
196.6653
 40
3.258
 41
0.5
  1
AQ-LFK612X-BN
  0
TEXT
  8
LAYER_2
 10
-18.1128
 20
191.6655
 11
-18.1128
 21
191.6655
 40
3.258
 41
0.5
  1
AQ-LFK612X-BK
  0
TEXT
  8
LAYER_2
 10
7.4948
 20
216.7478
 11
7.4948
 21
216.7478
 40
2.8579
 41
0.5
  1
クロム
  0
TEXT
  8
LAYER_2
 10
7.5964
 20
211.7479
 11
7.5964
 21
211.7479
 40
2.8579
 41
0.5
  1
セントクメッキ
  0
TEXT
  8
LAYER_2
 10
7.6377
 20
206.7477
 11
7.6377
 21
206.7477
 40
2.8579
 41
0.5
  1
パールシルバー
  0
TEXT
  8
LAYER_2
 10
7.5829
 20
201.7479
 11
7.5829
 21
201.7479
 40
2.8579
 41
0.5
  1
ゴールド
  0
TEXT
  8
LAYER_2
 10
7.5774
 20
196.7477
 11
7.5774
 21
196.7477
 40
2.8579
 41
0.5
  1
ダークブラック
  0
TEXT
  8
LAYER_2
 10
7.5471
 20
191.7478
 11
7.5471
 21
191.7478
 40
2.8579
 41
0.5
  1
ブラッククロム
  0
POLYLINE
  8
LAYER_2
 40
0.1764
 41
0.1764
 66
1
 10
0
 20
0
 30
0
 70
1
  0
VERTEX
  8
LAYER_2
 10
6.2247
 20
215.4924
  0
VERTEX
  8
LAYER_2
 10
-19.3713
 20
215.4924
  0
VERTEX
  8
LAYER_2
 10
-19.3713
 20
220.4924
  0
VERTEX
  8
LAYER_2
 10
6.2247
 20
220.4924
  0
SEQEND
  0
POLYLINE
  8
LAYER_2
 40
0.1764
 41
0.1764
 66
1
 10
0
 20
0
 30
0
 70
1
  0
VERTEX
  8
LAYER_2
 10
31.4401
 20
215.4924
  0
VERTEX
  8
LAYER_2
 10
6.2247
 20
215.4924
  0
VERTEX
  8
LAYER_2
 10
6.2247
 20
220.4924
  0
VERTEX
  8
LAYER_2
 10
31.4401
 20
220.4924
  0
SEQEND
  0
POLYLINE
  8
LAYER_2
 40
0.1764
 41
0.1764
 66
1
 10
0
 20
0
 30
0
 70
1
  0
VERTEX
  8
LAYER_2
 10
6.2247
 20
210.4924
  0
VERTEX
  8
LAYER_2
 10
-19.3713
 20
210.4924
  0
VERTEX
  8
LAYER_2
 10
-19.3713
 20
215.4924
  0
VERTEX
  8
LAYER_2
 10
6.2247
 20
215.4924
  0
SEQEND
  0
POLYLINE
  8
LAYER_2
 40
0.1764
 41
0.1764
 66
1
 10
0
 20
0
 30
0
 70
1
  0
VERTEX
  8
LAYER_2
 10
31.4401
 20
210.4924
  0
VERTEX
  8
LAYER_2
 10
6.2247
 20
210.4924
  0
VERTEX
  8
LAYER_2
 10
6.2247
 20
215.4924
  0
VERTEX
  8
LAYER_2
 10
31.4401
 20
215.4924
  0
SEQEND
  0
POLYLINE
  8
LAYER_2
 40
0.1764
 41
0.1764
 66
1
 10
0
 20
0
 30
0
 70
1
  0
VERTEX
  8
LAYER_2
 10
6.2247
 20
205.4924
  0
VERTEX
  8
LAYER_2
 10
-19.3713
 20
205.4924
  0
VERTEX
  8
LAYER_2
 10
-19.3713
 20
210.4924
  0
VERTEX
  8
LAYER_2
 10
6.2247
 20
210.4924
  0
SEQEND
  0
POLYLINE
  8
LAYER_2
 40
0.1764
 41
0.1764
 66
1
 10
0
 20
0
 30
0
 70
1
  0
VERTEX
  8
LAYER_2
 10
31.4401
 20
205.4924
  0
VERTEX
  8
LAYER_2
 10
6.2247
 20
205.4924
  0
VERTEX
  8
LAYER_2
 10
6.2247
 20
210.4924
  0
VERTEX
  8
LAYER_2
 10
31.4401
 20
210.4924
  0
SEQEND
  0
POLYLINE
  8
LAYER_2
 40
0.1764
 41
0.1764
 66
1
 10
0
 20
0
 30
0
 70
1
  0
VERTEX
  8
LAYER_2
 10
6.2247
 20
200.4924
  0
VERTEX
  8
LAYER_2
 10
-19.3713
 20
200.4924
  0
VERTEX
  8
LAYER_2
 10
-19.3713
 20
205.4924
  0
VERTEX
  8
LAYER_2
 10
6.2247
 20
205.4924
  0
SEQEND
  0
POLYLINE
  8
LAYER_2
 40
0.1764
 41
0.1764
 66
1
 10
0
 20
0
 30
0
 70
1
  0
VERTEX
  8
LAYER_2
 10
31.4401
 20
200.4924
  0
VERTEX
  8
LAYER_2
 10
6.2247
 20
200.4924
  0
VERTEX
  8
LAYER_2
 10
6.2247
 20
205.4924
  0
VERTEX
  8
LAYER_2
 10
31.4401
 20
205.4924
  0
SEQEND
  0
POLYLINE
  8
LAYER_2
 40
0.1764
 41
0.1764
 66
1
 10
0
 20
0
 30
0
 70
1
  0
VERTEX
  8
LAYER_2
 10
6.2247
 20
195.4924
  0
VERTEX
  8
LAYER_2
 10
-19.3713
 20
195.4924
  0
VERTEX
  8
LAYER_2
 10
-19.3713
 20
200.4924
  0
VERTEX
  8
LAYER_2
 10
6.2247
 20
200.4924
  0
SEQEND
  0
POLYLINE
  8
LAYER_2
 40
0.1764
 41
0.1764
 66
1
 10
0
 20
0
 30
0
 70
1
  0
VERTEX
  8
LAYER_2
 10
31.4401
 20
195.4924
  0
VERTEX
  8
LAYER_2
 10
6.2247
 20
195.4924
  0
VERTEX
  8
LAYER_2
 10
6.2247
 20
200.4924
  0
VERTEX
  8
LAYER_2
 10
31.4401
 20
200.4924
  0
SEQEND
  0
POLYLINE
  8
LAYER_2
 40
0.1764
 41
0.1764
 66
1
 10
0
 20
0
 30
0
 70
1
  0
VERTEX
  8
LAYER_2
 10
6.2247
 20
190.4924
  0
VERTEX
  8
LAYER_2
 10
-19.3713
 20
190.4924
  0
VERTEX
  8
LAYER_2
 10
-19.3713
 20
195.4924
  0
VERTEX
  8
LAYER_2
 10
6.2247
 20
195.4924
  0
SEQEND
  0
POLYLINE
  8
LAYER_2
 40
0.1764
 41
0.1764
 66
1
 10
0
 20
0
 30
0
 70
1
  0
VERTEX
  8
LAYER_2
 10
31.4401
 20
190.4924
  0
VERTEX
  8
LAYER_2
 10
6.2247
 20
190.4924
  0
VERTEX
  8
LAYER_2
 10
6.2247
 20
195.4924
  0
VERTEX
  8
LAYER_2
 10
31.4401
 20
195.4924
  0
SEQEND
  0
ENDSEC
  0
EOF
