  0
SECTION
  2
HEADER
  9
$ACADVER
  1
AC1009
  9
$LUNITS
 70
2
  9
$LUPREC
 70
4
  9
$LTSCALE
 40
1.0
  9
$EXTMIN
 10
-30.3177
 20
33.3285
 30
0
  9
$EXTMAX
 10
251.6749
 20
230.337
 30
0
  0
ENDSEC
  0
SECTION
  2
TABLES
  0
TABLE
  2
LTYPE
 70
256
  0
LTYPE
  2
AIGENLINE001
 70
64
  3
generate AI->DXF Converter
 72
65
 73
6
 40
1.4111
 49
0.7056
 49
-0.7056
 49
0
 49
0
 49
0
 49
0
  0
ENDTAB
  0
TABLE
  2
LAYER
 70
5
  0
LAYER
  2
LAYER_1
 70
64
 62
7
  6
CONTINUOUS
  0
LAYER
  2
LAYER_2
 70
64
 62
7
  6
CONTINUOUS
  0
LAYER
  2
LAYER_3
 70
64
 62
7
  6
CONTINUOUS
  0
LAYER
  2
LAYER_4
 70
64
 62
7
  6
CONTINUOUS
  0
LAYER
  2
LAYER_5
 70
64
 62
7
  6
CONTINUOUS
  0
ENDTAB
  0
TABLE
  2
STYLE
 70
6
  0
STYLE
  2
STANDARD
 70
0
 40
0
 50
0
 71
0
 41
0
 42
0
  3
TXT
  4
BIGFONT
  0
ENDTAB
  0
ENDSEC
  0
SECTION
  2
BLOCKS
  0
BLOCK
  8
LAYER_5
  2
AIGNBL05040006
 70
64
 10
0
 20
0
 30
0
  3
AIGNBL05040006
  0
POLYLINE
  8
LAYER_5
 40
0.05
 41
0.05
 66
1
 10
0
 20
0
 30
0
 70
1
  0
VERTEX
  8
LAYER_5
 10
146.7545
 20
39.1418
  0
VERTEX
  8
LAYER_5
 10
146.2656
 20
37.9567
  0
VERTEX
  8
LAYER_5
 10
145.6376
 20
37.9567
  0
VERTEX
  8
LAYER_5
 10
147.2372
 20
41.7225
  0
VERTEX
  8
LAYER_5
 10
147.9703
 20
41.7225
  0
VERTEX
  8
LAYER_5
 10
149.5768
 20
37.9567
  0
VERTEX
  8
LAYER_5
 10
148.9267
 20
37.9567
  0
VERTEX
  8
LAYER_5
 10
148.424
 20
39.1418
  0
SEQEND
  0
POLYLINE
  8
LAYER_5
 40
0.05
 41
0.05
 66
1
 10
0
 20
0
 30
0
 70
1
  0
VERTEX
  8
LAYER_5
 10
148.2983
 20
39.5207
  0
VERTEX
  8
LAYER_5
 10
147.8373
 20
40.6056
 42
-0.02317247198
  0
VERTEX
  8
LAYER_5
 10
147.5927
 20
41.2926
  0
VERTEX
  8
LAYER_5
 10
147.5789
 20
41.2926
 42
-0.02064481114
  0
VERTEX
  8
LAYER_5
 10
147.3412
 20
40.6101
  0
VERTEX
  8
LAYER_5
 10
146.8806
 20
39.5207
  0
SEQEND
  0
ENDBLK
  0
BLOCK
  8
LAYER_5
  2
AIGNBL05040007
 70
64
 10
0
 20
0
 30
0
  3
AIGNBL05040007
  0
POLYLINE
  8
LAYER_5
 40
0.05
 41
0.05
 66
1
 10
0
 20
0
 30
0
 70
1
  0
VERTEX
  8
LAYER_5
 10
153.942
 20
37.4034
 42
-0.01520763512
  0
VERTEX
  8
LAYER_5
 10
152.1399
 20
37.8395
 42
0.09160443264
  0
VERTEX
  8
LAYER_5
 10
151.8533
 20
37.895
 42
-0.09256808484
  0
VERTEX
  8
LAYER_5
 10
150.8994
 20
38.0977
 42
-0.09799469934
  0
VERTEX
  8
LAYER_5
 10
150.2621
 20
38.5324
 42
-0.1630918382
  0
VERTEX
  8
LAYER_5
 10
149.7964
 20
39.5259
 42
-0.0316951694
  0
VERTEX
  8
LAYER_5
 10
149.7793
 20
39.7998
 42
-0.1055313794
  0
VERTEX
  8
LAYER_5
 10
149.9533
 20
40.6417
 42
-0.1619874109
  0
VERTEX
  8
LAYER_5
 10
150.7418
 20
41.4867
 42
-0.09224146328
  0
VERTEX
  8
LAYER_5
 10
151.5409
 20
41.7524
 42
-0.03717154931
  0
VERTEX
  8
LAYER_5
 10
151.9725
 20
41.7838
 42
-0.09530639066
  0
VERTEX
  8
LAYER_5
 10
152.9361
 20
41.6062
 42
-0.1001950085
  0
VERTEX
  8
LAYER_5
 10
153.5732
 20
41.1834
 42
-0.1611155306
  0
VERTEX
  8
LAYER_5
 10
154.0599
 20
40.1825
 42
-0.03590167283
  0
VERTEX
  8
LAYER_5
 10
154.0815
 20
39.8784
 42
-0.1066761192
  0
VERTEX
  8
LAYER_5
 10
153.9051
 20
39.0236
 42
-0.2183970027
  0
VERTEX
  8
LAYER_5
 10
152.7953
 20
38.0897
 42
-0.006706711403
  0
VERTEX
  8
LAYER_5
 10
152.7407
 20
38.0738
  0
VERTEX
  8
LAYER_5
 10
152.7407
 20
38.0514
 42
0.01533555045
  0
VERTEX
  8
LAYER_5
 10
154.117
 20
37.8113
  0
SEQEND
  0
POLYLINE
  8
LAYER_5
 40
0.05
 41
0.05
 66
1
 10
0
 20
0
 30
0
 70
1
  0
VERTEX
  8
LAYER_5
 10
153.4394
 20
39.857
 42
0.1175610784
  0
VERTEX
  8
LAYER_5
 10
153.257
 20
40.6254
 42
0.1170135141
  0
VERTEX
  8
LAYER_5
 10
152.8315
 20
41.1234
 42
0.1200044572
  0
VERTEX
  8
LAYER_5
 10
152.2186
 20
41.3675
 42
0.03774262044
  0
VERTEX
  8
LAYER_5
 10
151.9511
 20
41.3873
 42
0.1153139376
  0
VERTEX
  8
LAYER_5
 10
151.2089
 20
41.2226
 42
0.1853550912
  0
VERTEX
  8
LAYER_5
 10
150.5507
 20
40.4882
 42
0.09859892291
  0
VERTEX
  8
LAYER_5
 10
150.4287
 20
39.8122
 42
0.1178359247
  0
VERTEX
  8
LAYER_5
 10
150.5964
 20
39.0734
 42
0.2866694251
  0
VERTEX
  8
LAYER_5
 10
151.9232
 20
38.2912
 42
0.1188197759
  0
VERTEX
  8
LAYER_5
 10
152.6722
 20
38.4633
 42
0.1796740134
  0
VERTEX
  8
LAYER_5
 10
153.3126
 20
39.18
 42
0.09850052237
  0
SEQEND
  0
ENDBLK
  0
BLOCK
  8
LAYER_5
  2
AIGNBL05040008
 70
64
 10
0
 20
0
 30
0
  3
AIGNBL05040008
  0
POLYLINE
  8
LAYER_5
 40
0.05
 41
0.05
 66
1
 10
0
 20
0
 30
0
 70
1
  0
VERTEX
  8
LAYER_5
 10
155.4089
 20
41.7225
  0
VERTEX
  8
LAYER_5
 10
155.4089
 20
39.4932
 42
0.1220213404
  0
VERTEX
  8
LAYER_5
 10
155.569
 20
38.7775
 42
0.2218709818
  0
VERTEX
  8
LAYER_5
 10
156.2104
 20
38.3206
 42
0.05223876895
  0
VERTEX
  8
LAYER_5
 10
156.5055
 20
38.2912
 42
0.1302821267
  0
VERTEX
  8
LAYER_5
 10
157.1748
 20
38.452
 42
0.1509367336
  0
VERTEX
  8
LAYER_5
 10
157.526
 20
38.8454
 42
0.1174732039
  0
VERTEX
  8
LAYER_5
 10
157.651
 20
39.4932
  0
VERTEX
  8
LAYER_5
 10
157.651
 20
41.7225
  0
VERTEX
  8
LAYER_5
 10
158.2656
 20
41.7225
  0
VERTEX
  8
LAYER_5
 10
158.2656
 20
39.5266
 42
-0.1106199636
  0
VERTEX
  8
LAYER_5
 10
158.0961
 20
38.708
 42
-0.1822316276
  0
VERTEX
  8
LAYER_5
 10
157.4057
 20
38.0637
 42
-0.09768689614
  0
VERTEX
  8
LAYER_5
 10
156.6028
 20
37.8972
 42
-0.01000776787
  0
VERTEX
  8
LAYER_5
 10
156.4845
 20
37.895
 42
-0.09899539667
  0
VERTEX
  8
LAYER_5
 10
155.612
 20
38.0554
 42
-0.120955925
  0
VERTEX
  8
LAYER_5
 10
155.1093
 20
38.4366
 42
-0.1193006487
  0
VERTEX
  8
LAYER_5
 10
154.8407
 20
39.0316
 42
-0.05319923583
  0
VERTEX
  8
LAYER_5
 10
154.7943
 20
39.5045
  0
VERTEX
  8
LAYER_5
 10
154.7943
 20
41.7225
  0
SEQEND
  0
ENDBLK
  0
BLOCK
  8
LAYER_5
  2
AIGNBL05040009
 70
64
 10
0
 20
0
 30
0
  3
AIGNBL05040009
  0
POLYLINE
  8
LAYER_5
 40
0.05
 41
0.05
 66
1
 10
0
 20
0
 30
0
 70
1
  0
VERTEX
  8
LAYER_5
 10
160.0119
 20
39.1418
  0
VERTEX
  8
LAYER_5
 10
159.5227
 20
37.9567
  0
VERTEX
  8
LAYER_5
 10
158.8947
 20
37.9567
  0
VERTEX
  8
LAYER_5
 10
160.4939
 20
41.7225
  0
VERTEX
  8
LAYER_5
 10
161.227
 20
41.7225
  0
VERTEX
  8
LAYER_5
 10
162.8335
 20
37.9567
  0
VERTEX
  8
LAYER_5
 10
162.1841
 20
37.9567
  0
VERTEX
  8
LAYER_5
 10
161.6814
 20
39.1418
  0
SEQEND
  0
POLYLINE
  8
LAYER_5
 40
0.05
 41
0.05
 66
1
 10
0
 20
0
 30
0
 70
1
  0
VERTEX
  8
LAYER_5
 10
161.5553
 20
39.5207
  0
VERTEX
  8
LAYER_5
 10
161.094
 20
40.6056
 42
-0.02227599701
  0
VERTEX
  8
LAYER_5
 10
160.8494
 20
41.2926
  0
VERTEX
  8
LAYER_5
 10
160.8357
 20
41.2926
 42
-0.0208222547
  0
VERTEX
  8
LAYER_5
 10
160.5983
 20
40.6101
  0
VERTEX
  8
LAYER_5
 10
160.1373
 20
39.5207
  0
SEQEND
  0
ENDBLK
  0
BLOCK
  8
LAYER_5
  2
AIGNBL0504000A
 70
64
 10
0
 20
0
 30
0
  3
AIGNBL0504000A
  0
POLYLINE
  8
LAYER_5
 40
0.05
 41
0.05
 66
1
 10
0
 20
0
 30
0
 70
1
  0
VERTEX
  8
LAYER_5
 10
163.8742
 20
41.6777
 42
-0.03334485223
  0
VERTEX
  8
LAYER_5
 10
165.0411
 20
41.7508
 42
-0.08844478427
  0
VERTEX
  8
LAYER_5
 10
166.0871
 20
41.5858
 42
-0.06037505309
  0
VERTEX
  8
LAYER_5
 10
166.3609
 20
41.4379
 42
-0.2472514979
  0
VERTEX
  8
LAYER_5
 10
166.7726
 20
40.6497
 42
-0.1483298328
  0
VERTEX
  8
LAYER_5
 10
166.6029
 20
40.0554
 42
-0.07223194904
  0
VERTEX
  8
LAYER_5
 10
166.4095
 20
39.8456
 42
-0.1209372404
  0
VERTEX
  8
LAYER_5
 10
165.7228
 20
39.517
 42
-0.06224269186
  0
VERTEX
  8
LAYER_5
 10
164.9708
 20
39.4319
 42
-0.05738783264
  0
VERTEX
  8
LAYER_5
 10
164.4823
 20
39.4653
  0
VERTEX
  8
LAYER_5
 10
164.4823
 20
37.9567
  0
VERTEX
  8
LAYER_5
 10
163.8742
 20
37.9567
  0
SEQEND
  0
POLYLINE
  8
LAYER_5
 40
0.05
 41
0.05
 66
1
 10
0
 20
0
 30
0
 70
1
  0
VERTEX
  8
LAYER_5
 10
164.4823
 20
39.8622
 42
0.05012782438
  0
VERTEX
  8
LAYER_5
 10
164.9846
 20
39.8229
 42
0.1135299982
  0
VERTEX
  8
LAYER_5
 10
165.7697
 20
39.9822
 42
0.1653556145
  0
VERTEX
  8
LAYER_5
 10
166.1074
 20
40.3302
 42
0.1044590446
  0
VERTEX
  8
LAYER_5
 10
166.1656
 20
40.6273
 42
0.2826437488
  0
VERTEX
  8
LAYER_5
 10
165.8147
 20
41.2103
 42
0.0629694601
  0
VERTEX
  8
LAYER_5
 10
165.549
 20
41.3107
 42
0.06259589917
  0
VERTEX
  8
LAYER_5
 10
165.0552
 20
41.3649
 42
0.05192366909
  0
VERTEX
  8
LAYER_5
 10
164.4823
 20
41.3257
  0
SEQEND
  0
ENDBLK
  0
BLOCK
  8
LAYER_5
  2
AIGNBL0504000B
 70
64
 10
0
 20
0
 30
0
  3
AIGNBL0504000B
  0
POLYLINE
  8
LAYER_5
 40
0.05
 41
0.05
 66
1
 10
0
 20
0
 30
0
 70
1
  0
VERTEX
  8
LAYER_5
 10
168.3246
 20
41.4207
 42
-0.3048675751
  0
VERTEX
  8
LAYER_5
 10
168.1582
 20
41.1661
 42
-0.1151020929
  0
VERTEX
  8
LAYER_5
 10
167.9329
 20
41.1189
 42
-0.2442513348
  0
VERTEX
  8
LAYER_5
 10
167.6028
 20
41.2794
 42
-0.1394546152
  0
VERTEX
  8
LAYER_5
 10
167.5626
 20
41.4207
 42
-0.287439772
  0
VERTEX
  8
LAYER_5
 10
167.7346
 20
41.6803
 42
-0.1179404017
  0
VERTEX
  8
LAYER_5
 10
167.9467
 20
41.7277
 42
-0.2416274379
  0
VERTEX
  8
LAYER_5
 10
168.2814
 20
41.5719
 42
-0.1426378456
  0
SEQEND
  0
POLYLINE
  8
LAYER_5
 40
0.05
 41
0.05
 66
1
 10
0
 20
0
 30
0
 70
1
  0
VERTEX
  8
LAYER_5
 10
167.639
 20
37.9567
  0
VERTEX
  8
LAYER_5
 10
167.639
 20
40.6607
  0
VERTEX
  8
LAYER_5
 10
168.2537
 20
40.6607
  0
VERTEX
  8
LAYER_5
 10
168.2537
 20
37.9567
  0
SEQEND
  0
ENDBLK
  0
BLOCK
  8
LAYER_5
  2
AIGNBL0504000C
 70
64
 10
0
 20
0
 30
0
  3
AIGNBL0504000C
  0
POLYLINE
  8
LAYER_5
 40
0.05
 41
0.05
 66
1
 10
0
 20
0
 30
0
 70
1
  0
VERTEX
  8
LAYER_5
 10
170.1254
 20
39.1418
  0
VERTEX
  8
LAYER_5
 10
169.6372
 20
37.9567
  0
VERTEX
  8
LAYER_5
 10
169.0081
 20
37.9567
  0
VERTEX
  8
LAYER_5
 10
170.6077
 20
41.7225
  0
VERTEX
  8
LAYER_5
 10
171.3415
 20
41.7225
  0
VERTEX
  8
LAYER_5
 10
172.9479
 20
37.9567
  0
VERTEX
  8
LAYER_5
 10
172.2982
 20
37.9567
  0
VERTEX
  8
LAYER_5
 10
171.7955
 20
39.1418
  0
SEQEND
  0
POLYLINE
  8
LAYER_5
 40
0.05
 41
0.05
 66
1
 10
0
 20
0
 30
0
 70
1
  0
VERTEX
  8
LAYER_5
 10
171.6695
 20
39.5207
  0
VERTEX
  8
LAYER_5
 10
171.2085
 20
40.6056
 42
-0.02430767271
  0
VERTEX
  8
LAYER_5
 10
170.9646
 20
41.2926
  0
VERTEX
  8
LAYER_5
 10
170.9498
 20
41.2926
 42
-0.02034719794
  0
VERTEX
  8
LAYER_5
 10
170.7128
 20
40.6101
  0
VERTEX
  8
LAYER_5
 10
170.2518
 20
39.5207
  0
SEQEND
  0
ENDBLK
  0
BLOCK
  8
LAYER_5
  2
AIGNBL05030005
 70
64
 10
0
 20
0
 30
0
  3
AIGNBL05030005
  0
INSERT
  8
LAYER_5
  2
AIGNBL05040006
 10
0
 20
0
 30
0
  0
INSERT
  8
LAYER_5
  2
AIGNBL05040007
 10
0
 20
0
 30
0
  0
INSERT
  8
LAYER_5
  2
AIGNBL05040008
 10
0
 20
0
 30
0
  0
INSERT
  8
LAYER_5
  2
AIGNBL05040009
 10
0
 20
0
 30
0
  0
INSERT
  8
LAYER_5
  2
AIGNBL0504000A
 10
0
 20
0
 30
0
  0
INSERT
  8
LAYER_5
  2
AIGNBL0504000B
 10
0
 20
0
 30
0
  0
INSERT
  8
LAYER_5
  2
AIGNBL0504000C
 10
0
 20
0
 30
0
  0
ENDBLK
  0
BLOCK
  8
LAYER_5
  2
AIGNBL0503000E
 70
64
 10
0
 20
0
 30
0
  3
AIGNBL0503000E
  0
POLYLINE
  8
LAYER_5
 40
0.05
 41
0.05
 66
1
 10
0
 20
0
 30
0
 70
1
  0
VERTEX
  8
LAYER_5
 10
145.7475
 20
36.0574
  0
VERTEX
  8
LAYER_5
 10
146.3008
 20
36.0574
  0
VERTEX
  8
LAYER_5
 10
146.3008
 20
35.9637
  0
VERTEX
  8
LAYER_5
 10
145.6424
 20
35.9637
  0
VERTEX
  8
LAYER_5
 10
145.6424
 20
36.9969
  0
VERTEX
  8
LAYER_5
 10
146.2832
 20
36.9969
  0
VERTEX
  8
LAYER_5
 10
146.2832
 20
36.9035
  0
VERTEX
  8
LAYER_5
 10
145.7475
 20
36.9035
  0
VERTEX
  8
LAYER_5
 10
145.7475
 20
36.549
  0
VERTEX
  8
LAYER_5
 10
146.2481
 20
36.549
  0
VERTEX
  8
LAYER_5
 10
146.2481
 20
36.4557
  0
VERTEX
  8
LAYER_5
 10
145.7475
 20
36.4557
  0
SEQEND
  0
ENDBLK
  0
BLOCK
  8
LAYER_5
  2
AIGNBL0503000F
 70
64
 10
0
 20
0
 30
0
  3
AIGNBL0503000F
  0
POLYLINE
  8
LAYER_5
 40
0.05
 41
0.05
 66
1
 10
0
 20
0
 30
0
 70
1
  0
VERTEX
  8
LAYER_5
 10
147.4404
 20
36.117
  0
VERTEX
  8
LAYER_5
 10
147.4432
 20
36.117
  0
VERTEX
  8
LAYER_5
 10
147.4432
 20
36.9969
  0
VERTEX
  8
LAYER_5
 10
147.5483
 20
36.9969
  0
VERTEX
  8
LAYER_5
 10
147.5483
 20
35.9637
  0
VERTEX
  8
LAYER_5
 10
147.4174
 20
35.9637
  0
VERTEX
  8
LAYER_5
 10
146.8162
 20
36.8525
  0
VERTEX
  8
LAYER_5
 10
146.8127
 20
36.8525
  0
VERTEX
  8
LAYER_5
 10
146.8127
 20
35.9637
  0
VERTEX
  8
LAYER_5
 10
146.708
 20
35.9637
  0
VERTEX
  8
LAYER_5
 10
146.708
 20
36.9969
  0
VERTEX
  8
LAYER_5
 10
146.8393
 20
36.9969
  0
SEQEND
  0
ENDBLK
  0
BLOCK
  8
LAYER_5
  2
AIGNBL05030010
 70
64
 10
0
 20
0
 30
0
  3
AIGNBL05030010
  0
POLYLINE
  8
LAYER_5
 40
0.05
 41
0.05
 66
1
 10
0
 20
0
 30
0
 70
1
  0
VERTEX
  8
LAYER_5
 10
148.0213
 20
36.1756
 42
0.1557655154
  0
VERTEX
  8
LAYER_5
 10
148.0757
 20
36.0725
 42
0.1918235184
  0
VERTEX
  8
LAYER_5
 10
148.1891
 20
36.0309
  0
VERTEX
  8
LAYER_5
 10
148.2783
 20
36.0505
  0
VERTEX
  8
LAYER_5
 10
148.3344
 20
36.1039
  0
VERTEX
  8
LAYER_5
 10
148.3634
 20
36.1804
  0
VERTEX
  8
LAYER_5
 10
148.3717
 20
36.27
  0
VERTEX
  8
LAYER_5
 10
148.3717
 20
36.9969
  0
VERTEX
  8
LAYER_5
 10
148.4767
 20
36.9969
  0
VERTEX
  8
LAYER_5
 10
148.4767
 20
36.2614
  0
VERTEX
  8
LAYER_5
 10
148.4654
 20
36.1535
 42
-0.0973308998
  0
VERTEX
  8
LAYER_5
 10
148.424
 20
36.0485
 42
-0.1149355521
  0
VERTEX
  8
LAYER_5
 10
148.3393
 20
35.9689
 42
-0.1249341208
  0
VERTEX
  8
LAYER_5
 10
148.2004
 20
35.9375
 42
-0.1793665557
  0
VERTEX
  8
LAYER_5
 10
148.0158
 20
35.9974
 42
-0.1772363953
  0
VERTEX
  8
LAYER_5
 10
147.9234
 20
36.149
  0
SEQEND
  0
ENDBLK
  0
BLOCK
  8
LAYER_5
  2
AIGNBL05030011
 70
64
 10
0
 20
0
 30
0
  3
AIGNBL05030011
  0
POLYLINE
  8
LAYER_5
 40
0.05
 41
0.05
 66
1
 10
0
 20
0
 30
0
 70
1
  0
VERTEX
  8
LAYER_5
 10
149.965
 20
36.4805
 42
-0.1019307791
  0
VERTEX
  8
LAYER_5
 10
149.924
 20
36.2631
 42
-0.1000112985
  0
VERTEX
  8
LAYER_5
 10
149.8113
 20
36.0915
 42
-0.09646612644
  0
VERTEX
  8
LAYER_5
 10
149.6405
 20
35.9785
 42
-0.09758594962
  0
VERTEX
  8
LAYER_5
 10
149.4265
 20
35.9375
 42
-0.1000844711
  0
VERTEX
  8
LAYER_5
 10
149.2129
 20
35.9785
 42
-0.09954994557
  0
VERTEX
  8
LAYER_5
 10
149.042
 20
36.0915
 42
-0.09699237735
  0
VERTEX
  8
LAYER_5
 10
148.9287
 20
36.2631
 42
-0.09653980076
  0
VERTEX
  8
LAYER_5
 10
148.8881
 20
36.4805
 42
-0.1004051845
  0
VERTEX
  8
LAYER_5
 10
148.9287
 20
36.6978
 42
-0.0998654539
  0
VERTEX
  8
LAYER_5
 10
149.042
 20
36.8694
 42
-0.09851519288
  0
VERTEX
  8
LAYER_5
 10
149.2129
 20
36.9824
 42
-0.09768823248
  0
VERTEX
  8
LAYER_5
 10
149.4265
 20
37.0234
 42
-0.1000514256
  0
VERTEX
  8
LAYER_5
 10
149.6405
 20
36.9824
 42
-0.09863053528
  0
VERTEX
  8
LAYER_5
 10
149.8113
 20
36.8694
 42
-0.09807107579
  0
VERTEX
  8
LAYER_5
 10
149.924
 20
36.6978
 42
-0.0978256893
  0
SEQEND
  0
POLYLINE
  8
LAYER_5
 40
0.05
 41
0.05
 66
1
 10
0
 20
0
 30
0
 70
1
  0
VERTEX
  8
LAYER_5
 10
149.8541
 20
36.4798
 42
0.08634913196
  0
VERTEX
  8
LAYER_5
 10
149.8251
 20
36.6517
 42
0.09649608129
  0
VERTEX
  8
LAYER_5
 10
149.7404
 20
36.795
 42
0.1032857511
  0
VERTEX
  8
LAYER_5
 10
149.6053
 20
36.8932
 42
0.1061320656
  0
VERTEX
  8
LAYER_5
 10
149.4265
 20
36.93
 42
0.1115874499
  0
VERTEX
  8
LAYER_5
 10
149.2478
 20
36.8932
 42
0.1058584166
  0
VERTEX
  8
LAYER_5
 10
149.113
 20
36.795
 42
0.09787799956
  0
VERTEX
  8
LAYER_5
 10
149.0283
 20
36.6517
 42
0.08491464556
  0
VERTEX
  8
LAYER_5
 10
148.999
 20
36.4798
 42
0.08693146424
  0
VERTEX
  8
LAYER_5
 10
149.0283
 20
36.3079
 42
0.1009797617
  0
VERTEX
  8
LAYER_5
 10
149.113
 20
36.1649
 42
0.09998489394
  0
VERTEX
  8
LAYER_5
 10
149.2478
 20
36.0674
 42
0.1061678446
  0
VERTEX
  8
LAYER_5
 10
149.4265
 20
36.0309
 42
0.1126980581
  0
VERTEX
  8
LAYER_5
 10
149.6053
 20
36.0674
 42
0.1036982708
  0
VERTEX
  8
LAYER_5
 10
149.7404
 20
36.1649
 42
0.09370250368
  0
VERTEX
  8
LAYER_5
 10
149.8251
 20
36.3079
 42
0.08466662837
  0
SEQEND
  0
ENDBLK
  0
BLOCK
  8
LAYER_5
  2
AIGNBL05030012
 70
64
 10
0
 20
0
 30
0
  3
AIGNBL05030012
  0
POLYLINE
  8
LAYER_5
 40
0.05
 41
0.05
 66
1
 10
0
 20
0
 30
0
 70
1
  0
VERTEX
  8
LAYER_5
 10
150.7398
 20
35.9637
  0
VERTEX
  8
LAYER_5
 10
150.6351
 20
35.9637
  0
VERTEX
  8
LAYER_5
 10
150.6351
 20
36.4091
  0
VERTEX
  8
LAYER_5
 10
150.2482
 20
36.9969
  0
VERTEX
  8
LAYER_5
 10
150.3795
 20
36.9969
  0
VERTEX
  8
LAYER_5
 10
150.6905
 20
36.4967
  0
VERTEX
  8
LAYER_5
 10
151.0041
 20
36.9969
  0
VERTEX
  8
LAYER_5
 10
151.1263
 20
36.9969
  0
VERTEX
  8
LAYER_5
 10
150.7398
 20
36.4091
  0
SEQEND
  0
ENDBLK
  0
BLOCK
  8
LAYER_5
  2
AIGNBL05030013
 70
64
 10
0
 20
0
 30
0
  3
AIGNBL05030013
  0
POLYLINE
  8
LAYER_5
 40
0.05
 41
0.05
 66
1
 10
0
 20
0
 30
0
 70
1
  0
VERTEX
  8
LAYER_5
 10
152.0314
 20
36.9969
  0
VERTEX
  8
LAYER_5
 10
152.339
 20
36.9969
  0
VERTEX
  8
LAYER_5
 10
152.4575
 20
36.9845
  0
VERTEX
  8
LAYER_5
 10
152.5643
 20
36.9421
 42
-0.1168262011
  0
VERTEX
  8
LAYER_5
 10
152.6422
 20
36.8611
 42
-0.1230288266
  0
VERTEX
  8
LAYER_5
 10
152.6718
 20
36.733
 42
-0.1795449175
  0
VERTEX
  8
LAYER_5
 10
152.6219
 20
36.5907
 42
-0.170141964
  0
VERTEX
  8
LAYER_5
 10
152.4885
 20
36.5111
  0
VERTEX
  8
LAYER_5
 10
152.4885
 20
36.5084
 42
-0.1719890535
  0
VERTEX
  8
LAYER_5
 10
152.6553
 20
36.4302
 42
-0.2018462152
  0
VERTEX
  8
LAYER_5
 10
152.7214
 20
36.2496
 42
-0.1247085485
  0
VERTEX
  8
LAYER_5
 10
152.6942
 20
36.1325
 42
-0.1153486961
  0
VERTEX
  8
LAYER_5
 10
152.6181
 20
36.0419
 42
-0.08656795839
  0
VERTEX
  8
LAYER_5
 10
152.4972
 20
35.9844
 42
-0.06557363107
  0
VERTEX
  8
LAYER_5
 10
152.3373
 20
35.9637
  0
VERTEX
  8
LAYER_5
 10
152.0314
 20
35.9637
  0
SEQEND
  0
POLYLINE
  8
LAYER_5
 40
0.05
 41
0.05
 66
1
 10
0
 20
0
 30
0
 70
1
  0
VERTEX
  8
LAYER_5
 10
152.1364
 20
36.5445
  0
VERTEX
  8
LAYER_5
 10
152.348
 20
36.5445
  0
VERTEX
  8
LAYER_5
 10
152.4248
 20
36.5535
  0
VERTEX
  8
LAYER_5
 10
152.4951
 20
36.5831
  0
VERTEX
  8
LAYER_5
 10
152.5471
 20
36.6396
 42
0.1162126025
  0
VERTEX
  8
LAYER_5
 10
152.5668
 20
36.7258
  0
VERTEX
  8
LAYER_5
 10
152.5471
 20
36.8095
  0
VERTEX
  8
LAYER_5
 10
152.494
 20
36.8656
  0
VERTEX
  8
LAYER_5
 10
152.4152
 20
36.897
  0
VERTEX
  8
LAYER_5
 10
152.3187
 20
36.9066
  0
VERTEX
  8
LAYER_5
 10
152.1364
 20
36.9066
  0
SEQEND
  0
POLYLINE
  8
LAYER_5
 40
0.05
 41
0.05
 66
1
 10
0
 20
0
 30
0
 70
1
  0
VERTEX
  8
LAYER_5
 10
152.1364
 20
36.0543
  0
VERTEX
  8
LAYER_5
 10
152.3321
 20
36.0543
  0
VERTEX
  8
LAYER_5
 10
152.4406
 20
36.0653
  0
VERTEX
  8
LAYER_5
 10
152.5313
 20
36.1001
 42
0.1172546835
  0
VERTEX
  8
LAYER_5
 10
152.5929
 20
36.1632
 42
0.1286243504
  0
VERTEX
  8
LAYER_5
 10
152.6164
 20
36.2559
 42
0.2498669706
  0
VERTEX
  8
LAYER_5
 10
152.5471
 20
36.4081
 42
0.1538083763
  0
VERTEX
  8
LAYER_5
 10
152.3511
 20
36.4584
  0
VERTEX
  8
LAYER_5
 10
152.1364
 20
36.4584
  0
SEQEND
  0
ENDBLK
  0
BLOCK
  8
LAYER_5
  2
AIGNBL05030014
 70
64
 10
0
 20
0
 30
0
  3
AIGNBL05030014
  0
POLYLINE
  8
LAYER_5
 40
0.05
 41
0.05
 66
1
 10
0
 20
0
 30
0
 70
1
  0
VERTEX
  8
LAYER_5
 10
153.1534
 20
35.9637
  0
VERTEX
  8
LAYER_5
 10
153.038
 20
35.9637
  0
VERTEX
  8
LAYER_5
 10
153.4849
 20
36.9969
  0
VERTEX
  8
LAYER_5
 10
153.5872
 20
36.9969
  0
VERTEX
  8
LAYER_5
 10
154.0306
 20
35.9637
  0
VERTEX
  8
LAYER_5
 10
153.9138
 20
35.9637
  0
VERTEX
  8
LAYER_5
 10
153.7997
 20
36.2352
  0
VERTEX
  8
LAYER_5
 10
153.2657
 20
36.2352
  0
SEQEND
  0
POLYLINE
  8
LAYER_5
 40
0.05
 41
0.05
 66
1
 10
0
 20
0
 30
0
 70
1
  0
VERTEX
  8
LAYER_5
 10
153.305
 20
36.3316
  0
VERTEX
  8
LAYER_5
 10
153.7604
 20
36.3316
  0
VERTEX
  8
LAYER_5
 10
153.5327
 20
36.8804
  0
SEQEND
  0
ENDBLK
  0
BLOCK
  8
LAYER_5
  2
AIGNBL05030015
 70
64
 10
0
 20
0
 30
0
  3
AIGNBL05030015
  0
POLYLINE
  8
LAYER_5
 40
0.05
 41
0.05
 66
1
 10
0
 20
0
 30
0
 70
1
  0
VERTEX
  8
LAYER_5
 10
154.7151
 20
35.9637
  0
VERTEX
  8
LAYER_5
 10
154.61
 20
35.9637
  0
VERTEX
  8
LAYER_5
 10
154.61
 20
36.9035
  0
VERTEX
  8
LAYER_5
 10
154.2638
 20
36.9035
  0
VERTEX
  8
LAYER_5
 10
154.2638
 20
36.9969
  0
VERTEX
  8
LAYER_5
 10
155.0606
 20
36.9969
  0
VERTEX
  8
LAYER_5
 10
155.0606
 20
36.9035
  0
VERTEX
  8
LAYER_5
 10
154.7151
 20
36.9035
  0
SEQEND
  0
ENDBLK
  0
BLOCK
  8
LAYER_5
  2
AIGNBL05030016
 70
64
 10
0
 20
0
 30
0
  3
AIGNBL05030016
  0
POLYLINE
  8
LAYER_5
 40
0.05
 41
0.05
 66
1
 10
0
 20
0
 30
0
 70
1
  0
VERTEX
  8
LAYER_5
 10
155.4169
 20
36.9969
  0
VERTEX
  8
LAYER_5
 10
155.5216
 20
36.9969
  0
VERTEX
  8
LAYER_5
 10
155.5216
 20
36.549
  0
VERTEX
  8
LAYER_5
 10
156.0852
 20
36.549
  0
VERTEX
  8
LAYER_5
 10
156.0852
 20
36.9969
  0
VERTEX
  8
LAYER_5
 10
156.1903
 20
36.9969
  0
VERTEX
  8
LAYER_5
 10
156.1903
 20
35.9637
  0
VERTEX
  8
LAYER_5
 10
156.0852
 20
35.9637
  0
VERTEX
  8
LAYER_5
 10
156.0852
 20
36.4529
  0
VERTEX
  8
LAYER_5
 10
155.5216
 20
36.4529
  0
VERTEX
  8
LAYER_5
 10
155.5216
 20
35.9637
  0
VERTEX
  8
LAYER_5
 10
155.4169
 20
35.9637
  0
SEQEND
  0
ENDBLK
  0
BLOCK
  8
LAYER_5
  2
AIGNBL05030017
 70
64
 10
0
 20
0
 30
0
  3
AIGNBL05030017
  0
POLYLINE
  8
LAYER_5
 40
0.05
 41
0.05
 66
1
 10
0
 20
0
 30
0
 70
1
  0
VERTEX
  8
LAYER_5
 10
156.7708
 20
35.9637
  0
VERTEX
  8
LAYER_5
 10
156.6657
 20
35.9637
  0
VERTEX
  8
LAYER_5
 10
156.6657
 20
36.9969
  0
VERTEX
  8
LAYER_5
 10
156.9696
 20
36.9969
  0
VERTEX
  8
LAYER_5
 10
157.1101
 20
36.9824
 42
-0.1032885834
  0
VERTEX
  8
LAYER_5
 10
157.2228
 20
36.9349
 42
-0.1280591957
  0
VERTEX
  8
LAYER_5
 10
157.2962
 20
36.8494
 42
-0.1078860225
  0
VERTEX
  8
LAYER_5
 10
157.3223
 20
36.7213
  0
VERTEX
  8
LAYER_5
 10
157.3024
 20
36.6176
  0
VERTEX
  8
LAYER_5
 10
157.2469
 20
36.5366
  0
VERTEX
  8
LAYER_5
 10
157.1635
 20
36.4818
  0
VERTEX
  8
LAYER_5
 10
157.0585
 20
36.4557
  0
VERTEX
  8
LAYER_5
 10
157.3606
 20
35.9637
  0
VERTEX
  8
LAYER_5
 10
157.2321
 20
35.9637
  0
VERTEX
  8
LAYER_5
 10
156.9461
 20
36.4467
  0
VERTEX
  8
LAYER_5
 10
156.7708
 20
36.4467
  0
SEQEND
  0
POLYLINE
  8
LAYER_5
 40
0.05
 41
0.05
 66
1
 10
0
 20
0
 30
0
 70
1
  0
VERTEX
  8
LAYER_5
 10
156.7708
 20
36.5373
  0
VERTEX
  8
LAYER_5
 10
156.9534
 20
36.5373
 42
0.153451873
  0
VERTEX
  8
LAYER_5
 10
157.1491
 20
36.5831
 42
0.2580279849
  0
VERTEX
  8
LAYER_5
 10
157.2176
 20
36.7213
  0
VERTEX
  8
LAYER_5
 10
157.1983
 20
36.8071
  0
VERTEX
  8
LAYER_5
 10
157.146
 20
36.8643
  0
VERTEX
  8
LAYER_5
 10
157.0643
 20
36.8963
  0
VERTEX
  8
LAYER_5
 10
156.9578
 20
36.9066
  0
VERTEX
  8
LAYER_5
 10
156.7708
 20
36.9066
  0
SEQEND
  0
ENDBLK
  0
BLOCK
  8
LAYER_5
  2
AIGNBL05030018
 70
64
 10
0
 20
0
 30
0
  3
AIGNBL05030018
  0
POLYLINE
  8
LAYER_5
 40
0.05
 41
0.05
 66
1
 10
0
 20
0
 30
0
 70
1
  0
VERTEX
  8
LAYER_5
 10
158.7627
 20
36.4805
 42
-0.09904480664
  0
VERTEX
  8
LAYER_5
 10
158.7221
 20
36.2631
 42
-0.09984043552
  0
VERTEX
  8
LAYER_5
 10
158.6087
 20
36.0915
 42
-0.09841590082
  0
VERTEX
  8
LAYER_5
 10
158.4382
 20
35.9785
 42
-0.09758412454
  0
VERTEX
  8
LAYER_5
 10
158.2243
 20
35.9375
 42
-0.09999517154
  0
VERTEX
  8
LAYER_5
 10
158.0103
 20
35.9785
 42
-0.09953435427
  0
VERTEX
  8
LAYER_5
 10
157.8398
 20
36.0915
 42
-0.09853706159
  0
VERTEX
  8
LAYER_5
 10
157.7268
 20
36.2631
 42
-0.09653980076
  0
VERTEX
  8
LAYER_5
 10
157.6862
 20
36.4805
 42
-0.1004051845
  0
VERTEX
  8
LAYER_5
 10
157.7268
 20
36.6978
 42
-0.1008040346
  0
VERTEX
  8
LAYER_5
 10
157.8398
 20
36.8694
 42
-0.09763764092
  0
VERTEX
  8
LAYER_5
 10
158.0103
 20
36.9824
 42
-0.09752919603
  0
VERTEX
  8
LAYER_5
 10
158.2243
 20
37.0234
 42
-0.1000174927
  0
VERTEX
  8
LAYER_5
 10
158.4382
 20
36.9824
 42
-0.1009762109
  0
VERTEX
  8
LAYER_5
 10
158.6087
 20
36.8694
 42
-0.09735230618
  0
VERTEX
  8
LAYER_5
 10
158.7221
 20
36.6978
 42
-0.09580191209
  0
SEQEND
  0
POLYLINE
  8
LAYER_5
 40
0.05
 41
0.05
 66
1
 10
0
 20
0
 30
0
 70
1
  0
VERTEX
  8
LAYER_5
 10
158.6518
 20
36.4798
 42
0.08852014676
  0
VERTEX
  8
LAYER_5
 10
158.6225
 20
36.6517
 42
0.09973444611
  0
VERTEX
  8
LAYER_5
 10
158.5378
 20
36.795
 42
0.1024799068
  0
VERTEX
  8
LAYER_5
 10
158.4031
 20
36.8932
 42
0.1060321998
  0
VERTEX
  8
LAYER_5
 10
158.2243
 20
36.93
 42
0.1116325688
  0
VERTEX
  8
LAYER_5
 10
158.0455
 20
36.8932
 42
0.1060506217
  0
VERTEX
  8
LAYER_5
 10
157.9104
 20
36.795
 42
0.09526104957
  0
VERTEX
  8
LAYER_5
 10
157.8257
 20
36.6517
 42
0.08422602157
  0
VERTEX
  8
LAYER_5
 10
157.7968
 20
36.4798
 42
0.0876992245
  0
VERTEX
  8
LAYER_5
 10
157.8257
 20
36.3079
 42
0.09826867926
  0
VERTEX
  8
LAYER_5
 10
157.9104
 20
36.1649
 42
0.09965756504
  0
VERTEX
  8
LAYER_5
 10
158.0455
 20
36.0674
 42
0.1061654103
  0
VERTEX
  8
LAYER_5
 10
158.2243
 20
36.0309
 42
0.1124388132
  0
VERTEX
  8
LAYER_5
 10
158.4031
 20
36.0674
 42
0.1029122982
  0
VERTEX
  8
LAYER_5
 10
158.5378
 20
36.1649
 42
0.09882210045
  0
VERTEX
  8
LAYER_5
 10
158.6225
 20
36.3079
 42
0.08589740831
  0
SEQEND
  0
ENDBLK
  0
BLOCK
  8
LAYER_5
  2
AIGNBL05030019
 70
64
 10
0
 20
0
 30
0
  3
AIGNBL05030019
  0
POLYLINE
  8
LAYER_5
 40
0.05
 41
0.05
 66
1
 10
0
 20
0
 30
0
 70
1
  0
VERTEX
  8
LAYER_5
 10
160.2045
 20
36.4805
 42
-0.1019307791
  0
VERTEX
  8
LAYER_5
 10
160.1635
 20
36.2631
 42
-0.09929652324
  0
VERTEX
  8
LAYER_5
 10
160.0509
 20
36.0915
 42
-0.09710469009
  0
VERTEX
  8
LAYER_5
 10
159.88
 20
35.9785
 42
-0.09758412454
  0
VERTEX
  8
LAYER_5
 10
159.6661
 20
35.9375
 42
-0.1005051182
  0
VERTEX
  8
LAYER_5
 10
159.4524
 20
35.9785
 42
-0.1009789173
  0
VERTEX
  8
LAYER_5
 10
159.2816
 20
36.0915
 42
-0.09724598852
  0
VERTEX
  8
LAYER_5
 10
159.1682
 20
36.2631
 42
-0.09653980076
  0
VERTEX
  8
LAYER_5
 10
159.1276
 20
36.4805
 42
-0.1004051845
  0
VERTEX
  8
LAYER_5
 10
159.1682
 20
36.6978
 42
-0.1001669327
  0
VERTEX
  8
LAYER_5
 10
159.2816
 20
36.8694
 42
-0.09846843416
  0
VERTEX
  8
LAYER_5
 10
159.4524
 20
36.9824
 42
-0.09783444074
  0
VERTEX
  8
LAYER_5
 10
159.6661
 20
37.0234
 42
-0.1000174927
  0
VERTEX
  8
LAYER_5
 10
159.88
 20
36.9824
 42
-0.098457988
  0
VERTEX
  8
LAYER_5
 10
160.0509
 20
36.8694
 42
-0.09762598086
  0
VERTEX
  8
LAYER_5
 10
160.1635
 20
36.6978
 42
-0.0978256893
  0
SEQEND
  0
POLYLINE
  8
LAYER_5
 40
0.05
 41
0.05
 66
1
 10
0
 20
0
 30
0
 70
1
  0
VERTEX
  8
LAYER_5
 10
160.0936
 20
36.4798
 42
0.08653869446
  0
VERTEX
  8
LAYER_5
 10
160.0647
 20
36.6517
 42
0.09689814906
  0
VERTEX
  8
LAYER_5
 10
159.9799
 20
36.795
 42
0.1032857511
  0
VERTEX
  8
LAYER_5
 10
159.8448
 20
36.8932
 42
0.1061350344
  0
VERTEX
  8
LAYER_5
 10
159.6661
 20
36.93
 42
0.1114208933
  0
VERTEX
  8
LAYER_5
 10
159.4872
 20
36.8932
 42
0.1056595975
  0
VERTEX
  8
LAYER_5
 10
159.3525
 20
36.795
 42
0.09787799956
  0
VERTEX
  8
LAYER_5
 10
159.2678
 20
36.6517
 42
0.08491464556
  0
VERTEX
  8
LAYER_5
 10
159.2385
 20
36.4798
 42
0.08693146424
  0
VERTEX
  8
LAYER_5
 10
159.2678
 20
36.3079
 42
0.1009797617
  0
VERTEX
  8
LAYER_5
 10
159.3525
 20
36.1649
 42
0.09978391674
  0
VERTEX
  8
LAYER_5
 10
159.4872
 20
36.0674
 42
0.1060616244
  0
VERTEX
  8
LAYER_5
 10
159.6661
 20
36.0309
 42
0.1126531325
  0
VERTEX
  8
LAYER_5
 10
159.8448
 20
36.0674
 42
0.1036982708
  0
VERTEX
  8
LAYER_5
 10
159.9799
 20
36.1649
 42
0.09401062747
  0
VERTEX
  8
LAYER_5
 10
160.0647
 20
36.3079
 42
0.0844927763
  0
SEQEND
  0
ENDBLK
  0
BLOCK
  8
LAYER_5
  2
AIGNBL0503001A
 70
64
 10
0
 20
0
 30
0
  3
AIGNBL0503001A
  0
POLYLINE
  8
LAYER_5
 40
0.05
 41
0.05
 66
1
 10
0
 20
0
 30
0
 70
1
  0
VERTEX
  8
LAYER_5
 10
161.1354
 20
36.1418
  0
VERTEX
  8
LAYER_5
 10
161.1371
 20
36.1418
  0
VERTEX
  8
LAYER_5
 10
161.4826
 20
36.9969
  0
VERTEX
  8
LAYER_5
 10
161.6435
 20
36.9969
  0
VERTEX
  8
LAYER_5
 10
161.6435
 20
35.9637
  0
VERTEX
  8
LAYER_5
 10
161.5381
 20
35.9637
  0
VERTEX
  8
LAYER_5
 10
161.5381
 20
36.8611
  0
VERTEX
  8
LAYER_5
 10
161.5354
 20
36.8611
  0
VERTEX
  8
LAYER_5
 10
161.1619
 20
35.9637
  0
VERTEX
  8
LAYER_5
 10
161.1064
 20
35.9637
  0
VERTEX
  8
LAYER_5
 10
160.7326
 20
36.8611
  0
VERTEX
  8
LAYER_5
 10
160.7299
 20
36.8611
  0
VERTEX
  8
LAYER_5
 10
160.7299
 20
35.9637
  0
VERTEX
  8
LAYER_5
 10
160.6248
 20
35.9637
  0
VERTEX
  8
LAYER_5
 10
160.6248
 20
36.9969
  0
VERTEX
  8
LAYER_5
 10
160.7853
 20
36.9969
  0
SEQEND
  0
ENDBLK
  0
BLOCK
  8
LAYER_5
  2
AIGNBL0503001B
 70
64
 10
0
 20
0
 30
0
  3
AIGNBL0503001B
  0
POLYLINE
  8
LAYER_5
 40
0.05
 41
0.05
 66
1
 10
0
 20
0
 30
0
 70
1
  0
VERTEX
  8
LAYER_5
 10
162.79
 20
36.0574
  0
VERTEX
  8
LAYER_5
 10
163.3433
 20
36.0574
  0
VERTEX
  8
LAYER_5
 10
163.3433
 20
35.9637
  0
VERTEX
  8
LAYER_5
 10
162.685
 20
35.9637
  0
VERTEX
  8
LAYER_5
 10
162.685
 20
36.9969
  0
VERTEX
  8
LAYER_5
 10
163.3258
 20
36.9969
  0
VERTEX
  8
LAYER_5
 10
163.3258
 20
36.9035
  0
VERTEX
  8
LAYER_5
 10
162.79
 20
36.9035
  0
VERTEX
  8
LAYER_5
 10
162.79
 20
36.549
  0
VERTEX
  8
LAYER_5
 10
163.2906
 20
36.549
  0
VERTEX
  8
LAYER_5
 10
163.2906
 20
36.4557
  0
VERTEX
  8
LAYER_5
 10
162.79
 20
36.4557
  0
SEQEND
  0
ENDBLK
  0
BLOCK
  8
LAYER_5
  2
AIGNBL0503001C
 70
64
 10
0
 20
0
 30
0
  3
AIGNBL0503001C
  0
POLYLINE
  8
LAYER_5
 40
0.05
 41
0.05
 66
1
 10
0
 20
0
 30
0
 70
1
  0
VERTEX
  8
LAYER_5
 10
164.0885
 20
36.5797
  0
VERTEX
  8
LAYER_5
 10
164.3707
 20
36.9969
  0
VERTEX
  8
LAYER_5
 10
164.4957
 20
36.9969
  0
VERTEX
  8
LAYER_5
 10
164.1533
 20
36.5053
  0
VERTEX
  8
LAYER_5
 10
164.5326
 20
35.9637
  0
VERTEX
  8
LAYER_5
 10
164.4013
 20
35.9637
  0
VERTEX
  8
LAYER_5
 10
164.0858
 20
36.4295
  0
VERTEX
  8
LAYER_5
 10
163.7722
 20
35.9637
  0
VERTEX
  8
LAYER_5
 10
163.6407
 20
35.9637
  0
VERTEX
  8
LAYER_5
 10
164.0203
 20
36.5066
  0
VERTEX
  8
LAYER_5
 10
163.6744
 20
36.9969
  0
VERTEX
  8
LAYER_5
 10
163.806
 20
36.9969
  0
SEQEND
  0
ENDBLK
  0
BLOCK
  8
LAYER_5
  2
AIGNBL0503001D
 70
64
 10
0
 20
0
 30
0
  3
AIGNBL0503001D
  0
POLYLINE
  8
LAYER_5
 40
0.05
 41
0.05
 66
1
 10
0
 20
0
 30
0
 70
1
  0
VERTEX
  8
LAYER_5
 10
164.8988
 20
36.9969
  0
VERTEX
  8
LAYER_5
 10
165.1909
 20
36.9969
  0
VERTEX
  8
LAYER_5
 10
165.3339
 20
36.9804
 42
-0.104160294
  0
VERTEX
  8
LAYER_5
 10
165.4438
 20
36.929
 42
-0.1209616443
  0
VERTEX
  8
LAYER_5
 10
165.5148
 20
36.8429
 42
-0.1032545831
  0
VERTEX
  8
LAYER_5
 10
165.5392
 20
36.7213
 42
-0.1239274235
  0
VERTEX
  8
LAYER_5
 10
165.5141
 20
36.5993
 42
-0.1163667494
  0
VERTEX
  8
LAYER_5
 10
165.4424
 20
36.5132
 42
-0.08715194998
  0
VERTEX
  8
LAYER_5
 10
165.3315
 20
36.4615
 42
-0.06075348808
  0
VERTEX
  8
LAYER_5
 10
165.1878
 20
36.444
  0
VERTEX
  8
LAYER_5
 10
165.0039
 20
36.444
  0
VERTEX
  8
LAYER_5
 10
165.0039
 20
35.9637
  0
VERTEX
  8
LAYER_5
 10
164.8988
 20
35.9637
  0
SEQEND
  0
POLYLINE
  8
LAYER_5
 40
0.05
 41
0.05
 66
1
 10
0
 20
0
 30
0
 70
1
  0
VERTEX
  8
LAYER_5
 10
165.0039
 20
36.5328
  0
VERTEX
  8
LAYER_5
 10
165.1816
 20
36.5328
 42
0.1694225951
  0
VERTEX
  8
LAYER_5
 10
165.3701
 20
36.581
 42
0.2442570363
  0
VERTEX
  8
LAYER_5
 10
165.4345
 20
36.7213
 42
0.2590967024
  0
VERTEX
  8
LAYER_5
 10
165.368
 20
36.8622
 42
0.143072224
  0
VERTEX
  8
LAYER_5
 10
165.1816
 20
36.9066
  0
VERTEX
  8
LAYER_5
 10
165.0039
 20
36.9066
  0
SEQEND
  0
ENDBLK
  0
BLOCK
  8
LAYER_5
  2
AIGNBL0503001E
 70
64
 10
0
 20
0
 30
0
  3
AIGNBL0503001E
  0
POLYLINE
  8
LAYER_5
 40
0.05
 41
0.05
 66
1
 10
0
 20
0
 30
0
 70
1
  0
VERTEX
  8
LAYER_5
 10
166.0515
 20
36.0574
  0
VERTEX
  8
LAYER_5
 10
166.6048
 20
36.0574
  0
VERTEX
  8
LAYER_5
 10
166.6048
 20
35.9637
  0
VERTEX
  8
LAYER_5
 10
165.9465
 20
35.9637
  0
VERTEX
  8
LAYER_5
 10
165.9465
 20
36.9969
  0
VERTEX
  8
LAYER_5
 10
166.5872
 20
36.9969
  0
VERTEX
  8
LAYER_5
 10
166.5872
 20
36.9035
  0
VERTEX
  8
LAYER_5
 10
166.0515
 20
36.9035
  0
VERTEX
  8
LAYER_5
 10
166.0515
 20
36.549
  0
VERTEX
  8
LAYER_5
 10
166.5521
 20
36.549
  0
VERTEX
  8
LAYER_5
 10
166.5521
 20
36.4557
  0
VERTEX
  8
LAYER_5
 10
166.0515
 20
36.4557
  0
SEQEND
  0
ENDBLK
  0
BLOCK
  8
LAYER_5
  2
AIGNBL0503001F
 70
64
 10
0
 20
0
 30
0
  3
AIGNBL0503001F
  0
POLYLINE
  8
LAYER_5
 40
0.05
 41
0.05
 66
1
 10
0
 20
0
 30
0
 70
1
  0
VERTEX
  8
LAYER_5
 10
167.1168
 20
35.9637
  0
VERTEX
  8
LAYER_5
 10
167.0117
 20
35.9637
  0
VERTEX
  8
LAYER_5
 10
167.0117
 20
36.9969
  0
VERTEX
  8
LAYER_5
 10
167.3155
 20
36.9969
  0
VERTEX
  8
LAYER_5
 10
167.4561
 20
36.9824
 42
-0.1039428931
  0
VERTEX
  8
LAYER_5
 10
167.5687
 20
36.9349
 42
-0.1259973384
  0
VERTEX
  8
LAYER_5
 10
167.6425
 20
36.8494
 42
-0.1064650891
  0
VERTEX
  8
LAYER_5
 10
167.6683
 20
36.7213
  0
VERTEX
  8
LAYER_5
 10
167.6483
 20
36.6176
  0
VERTEX
  8
LAYER_5
 10
167.5929
 20
36.5366
  0
VERTEX
  8
LAYER_5
 10
167.5095
 20
36.4818
  0
VERTEX
  8
LAYER_5
 10
167.4044
 20
36.4557
  0
VERTEX
  8
LAYER_5
 10
167.7066
 20
35.9637
  0
VERTEX
  8
LAYER_5
 10
167.578
 20
35.9637
  0
VERTEX
  8
LAYER_5
 10
167.2921
 20
36.4467
  0
VERTEX
  8
LAYER_5
 10
167.1168
 20
36.4467
  0
SEQEND
  0
POLYLINE
  8
LAYER_5
 40
0.05
 41
0.05
 66
1
 10
0
 20
0
 30
0
 70
1
  0
VERTEX
  8
LAYER_5
 10
167.1168
 20
36.5373
  0
VERTEX
  8
LAYER_5
 10
167.2994
 20
36.5373
 42
0.1542400453
  0
VERTEX
  8
LAYER_5
 10
167.495
 20
36.5831
 42
0.2583775622
  0
VERTEX
  8
LAYER_5
 10
167.5636
 20
36.7213
  0
VERTEX
  8
LAYER_5
 10
167.5446
 20
36.8071
  0
VERTEX
  8
LAYER_5
 10
167.4919
 20
36.8643
  0
VERTEX
  8
LAYER_5
 10
167.4103
 20
36.8963
  0
VERTEX
  8
LAYER_5
 10
167.3038
 20
36.9066
  0
VERTEX
  8
LAYER_5
 10
167.1168
 20
36.9066
  0
SEQEND
  0
ENDBLK
  0
BLOCK
  8
LAYER_5
  2
AIGNBL05030020
 70
64
 10
0
 20
0
 30
0
  3
AIGNBL05030020
  0
POLYLINE
  8
LAYER_5
 40
0.05
 41
0.05
 66
1
 10
0
 20
0
 30
0
 70
1
  0
VERTEX
  8
LAYER_5
 10
168.1923
 20
35.9637
  0
VERTEX
  8
LAYER_5
 10
168.0876
 20
35.9637
  0
VERTEX
  8
LAYER_5
 10
168.0876
 20
36.9969
  0
VERTEX
  8
LAYER_5
 10
168.1923
 20
36.9969
  0
SEQEND
  0
ENDBLK
  0
BLOCK
  8
LAYER_5
  2
AIGNBL05030021
 70
64
 10
0
 20
0
 30
0
  3
AIGNBL05030021
  0
POLYLINE
  8
LAYER_5
 40
0.05
 41
0.05
 66
1
 10
0
 20
0
 30
0
 70
1
  0
VERTEX
  8
LAYER_5
 10
168.7732
 20
36.0574
  0
VERTEX
  8
LAYER_5
 10
169.3261
 20
36.0574
  0
VERTEX
  8
LAYER_5
 10
169.3261
 20
35.9637
  0
VERTEX
  8
LAYER_5
 10
168.6681
 20
35.9637
  0
VERTEX
  8
LAYER_5
 10
168.6681
 20
36.9969
  0
VERTEX
  8
LAYER_5
 10
169.3089
 20
36.9969
  0
VERTEX
  8
LAYER_5
 10
169.3089
 20
36.9035
  0
VERTEX
  8
LAYER_5
 10
168.7732
 20
36.9035
  0
VERTEX
  8
LAYER_5
 10
168.7732
 20
36.549
  0
VERTEX
  8
LAYER_5
 10
169.2737
 20
36.549
  0
VERTEX
  8
LAYER_5
 10
169.2737
 20
36.4557
  0
VERTEX
  8
LAYER_5
 10
168.7732
 20
36.4557
  0
SEQEND
  0
ENDBLK
  0
BLOCK
  8
LAYER_5
  2
AIGNBL05030022
 70
64
 10
0
 20
0
 30
0
  3
AIGNBL05030022
  0
POLYLINE
  8
LAYER_5
 40
0.05
 41
0.05
 66
1
 10
0
 20
0
 30
0
 70
1
  0
VERTEX
  8
LAYER_5
 10
170.4661
 20
36.117
  0
VERTEX
  8
LAYER_5
 10
170.4689
 20
36.117
  0
VERTEX
  8
LAYER_5
 10
170.4689
 20
36.9969
  0
VERTEX
  8
LAYER_5
 10
170.5739
 20
36.9969
  0
VERTEX
  8
LAYER_5
 10
170.5739
 20
35.9637
  0
VERTEX
  8
LAYER_5
 10
170.4426
 20
35.9637
  0
VERTEX
  8
LAYER_5
 10
169.8415
 20
36.8525
  0
VERTEX
  8
LAYER_5
 10
169.8384
 20
36.8525
  0
VERTEX
  8
LAYER_5
 10
169.8384
 20
35.9637
  0
VERTEX
  8
LAYER_5
 10
169.7333
 20
35.9637
  0
VERTEX
  8
LAYER_5
 10
169.7333
 20
36.9969
  0
VERTEX
  8
LAYER_5
 10
169.8649
 20
36.9969
  0
SEQEND
  0
ENDBLK
  0
BLOCK
  8
LAYER_5
  2
AIGNBL05030023
 70
64
 10
0
 20
0
 30
0
  3
AIGNBL05030023
  0
POLYLINE
  8
LAYER_5
 40
0.05
 41
0.05
 66
1
 10
0
 20
0
 30
0
 70
1
  0
VERTEX
  8
LAYER_5
 10
171.9196
 20
36.1315
  0
VERTEX
  8
LAYER_5
 10
171.8558
 20
36.0571
  0
VERTEX
  8
LAYER_5
 10
171.7697
 20
35.9954
  0
VERTEX
  8
LAYER_5
 10
171.6615
 20
35.953
  0
VERTEX
  8
LAYER_5
 10
171.5327
 20
35.9375
 42
-0.0997799169
  0
VERTEX
  8
LAYER_5
 10
171.3167
 20
35.9785
 42
-0.102530266
  0
VERTEX
  8
LAYER_5
 10
171.1461
 20
36.0915
 42
-0.09968794278
  0
VERTEX
  8
LAYER_5
 10
171.0345
 20
36.2631
 42
-0.09630702324
  0
VERTEX
  8
LAYER_5
 10
170.9942
 20
36.4805
 42
-0.1018981748
  0
VERTEX
  8
LAYER_5
 10
171.0352
 20
36.6978
 42
-0.09989904409
  0
VERTEX
  8
LAYER_5
 10
171.1479
 20
36.8694
 42
-0.09694965588
  0
VERTEX
  8
LAYER_5
 10
171.3187
 20
36.9824
 42
-0.09744116728
  0
VERTEX
  8
LAYER_5
 10
171.5327
 20
37.0234
  0
VERTEX
  8
LAYER_5
 10
171.6443
 20
37.0114
  0
VERTEX
  8
LAYER_5
 10
171.7473
 20
36.9779
  0
VERTEX
  8
LAYER_5
 10
171.8348
 20
36.9263
  0
VERTEX
  8
LAYER_5
 10
171.9006
 20
36.8584
  0
VERTEX
  8
LAYER_5
 10
171.8131
 20
36.794
  0
VERTEX
  8
LAYER_5
 10
171.7697
 20
36.8439
  0
VERTEX
  8
LAYER_5
 10
171.7063
 20
36.8877
  0
VERTEX
  8
LAYER_5
 10
171.6267
 20
36.9183
  0
VERTEX
  8
LAYER_5
 10
171.5341
 20
36.93
 42
0.1106055686
  0
VERTEX
  8
LAYER_5
 10
171.3539
 20
36.8935
 42
0.1037389517
  0
VERTEX
  8
LAYER_5
 10
171.2188
 20
36.7954
 42
0.09534605581
  0
VERTEX
  8
LAYER_5
 10
171.1341
 20
36.652
 42
0.08447361069
  0
VERTEX
  8
LAYER_5
 10
171.1052
 20
36.4805
 42
0.09038739564
  0
VERTEX
  8
LAYER_5
 10
171.1351
 20
36.3089
 42
0.09795352863
  0
VERTEX
  8
LAYER_5
 10
171.2205
 20
36.1656
 42
0.1034747097
  0
VERTEX
  8
LAYER_5
 10
171.3556
 20
36.0674
 42
0.1064777274
  0
VERTEX
  8
LAYER_5
 10
171.5341
 20
36.0309
 42
0.1092499226
  0
VERTEX
  8
LAYER_5
 10
171.7032
 20
36.0674
 42
0.1370031249
  0
VERTEX
  8
LAYER_5
 10
171.8376
 20
36.1842
  0
SEQEND
  0
ENDBLK
  0
BLOCK
  8
LAYER_5
  2
AIGNBL05030024
 70
64
 10
0
 20
0
 30
0
  3
AIGNBL05030024
  0
POLYLINE
  8
LAYER_5
 40
0.05
 41
0.05
 66
1
 10
0
 20
0
 30
0
 70
1
  0
VERTEX
  8
LAYER_5
 10
172.4067
 20
36.0574
  0
VERTEX
  8
LAYER_5
 10
172.96
 20
36.0574
  0
VERTEX
  8
LAYER_5
 10
172.96
 20
35.9637
  0
VERTEX
  8
LAYER_5
 10
172.3016
 20
35.9637
  0
VERTEX
  8
LAYER_5
 10
172.3016
 20
36.9969
  0
VERTEX
  8
LAYER_5
 10
172.9424
 20
36.9969
  0
VERTEX
  8
LAYER_5
 10
172.9424
 20
36.9035
  0
VERTEX
  8
LAYER_5
 10
172.4067
 20
36.9035
  0
VERTEX
  8
LAYER_5
 10
172.4067
 20
36.549
  0
VERTEX
  8
LAYER_5
 10
172.9073
 20
36.549
  0
VERTEX
  8
LAYER_5
 10
172.9073
 20
36.4557
  0
VERTEX
  8
LAYER_5
 10
172.4067
 20
36.4557
  0
SEQEND
  0
ENDBLK
  0
BLOCK
  8
LAYER_5
  2
AIGNBL05020004
 70
64
 10
0
 20
0
 30
0
  3
AIGNBL05020004
  0
INSERT
  8
LAYER_5
  2
AIGNBL05030005
 10
0
 20
0
 30
0
  0
ENDBLK
  0
BLOCK
  8
LAYER_5
  2
AIGNBL0502000D
 70
64
 10
0
 20
0
 30
0
  3
AIGNBL0502000D
  0
INSERT
  8
LAYER_5
  2
AIGNBL0503000E
 10
0
 20
0
 30
0
  0
INSERT
  8
LAYER_5
  2
AIGNBL0503000F
 10
0
 20
0
 30
0
  0
INSERT
  8
LAYER_5
  2
AIGNBL05030010
 10
0
 20
0
 30
0
  0
INSERT
  8
LAYER_5
  2
AIGNBL05030011
 10
0
 20
0
 30
0
  0
INSERT
  8
LAYER_5
  2
AIGNBL05030012
 10
0
 20
0
 30
0
  0
INSERT
  8
LAYER_5
  2
AIGNBL05030013
 10
0
 20
0
 30
0
  0
INSERT
  8
LAYER_5
  2
AIGNBL05030014
 10
0
 20
0
 30
0
  0
INSERT
  8
LAYER_5
  2
AIGNBL05030015
 10
0
 20
0
 30
0
  0
INSERT
  8
LAYER_5
  2
AIGNBL05030016
 10
0
 20
0
 30
0
  0
INSERT
  8
LAYER_5
  2
AIGNBL05030017
 10
0
 20
0
 30
0
  0
INSERT
  8
LAYER_5
  2
AIGNBL05030018
 10
0
 20
0
 30
0
  0
INSERT
  8
LAYER_5
  2
AIGNBL05030019
 10
0
 20
0
 30
0
  0
INSERT
  8
LAYER_5
  2
AIGNBL0503001A
 10
0
 20
0
 30
0
  0
INSERT
  8
LAYER_5
  2
AIGNBL0503001B
 10
0
 20
0
 30
0
  0
INSERT
  8
LAYER_5
  2
AIGNBL0503001C
 10
0
 20
0
 30
0
  0
INSERT
  8
LAYER_5
  2
AIGNBL0503001D
 10
0
 20
0
 30
0
  0
INSERT
  8
LAYER_5
  2
AIGNBL0503001E
 10
0
 20
0
 30
0
  0
INSERT
  8
LAYER_5
  2
AIGNBL0503001F
 10
0
 20
0
 30
0
  0
INSERT
  8
LAYER_5
  2
AIGNBL05030020
 10
0
 20
0
 30
0
  0
INSERT
  8
LAYER_5
  2
AIGNBL05030021
 10
0
 20
0
 30
0
  0
INSERT
  8
LAYER_5
  2
AIGNBL05030022
 10
0
 20
0
 30
0
  0
INSERT
  8
LAYER_5
  2
AIGNBL05030023
 10
0
 20
0
 30
0
  0
INSERT
  8
LAYER_5
  2
AIGNBL05030024
 10
0
 20
0
 30
0
  0
ENDBLK
  0
BLOCK
  8
LAYER_5
  2
AIGNBL05010002
 70
64
 10
0
 20
0
 30
0
  3
AIGNBL05010002
  0
POLYLINE
  8
LAYER_5
 40
0.7056
 41
0.7056
 66
1
 10
0
 20
0
 30
0
 70
1
  0
VERTEX
  8
LAYER_5
 10
251.6749
 20
230.337
  0
VERTEX
  8
LAYER_5
 10
251.6749
 20
33.3285
  0
VERTEX
  8
LAYER_5
 10
-30.3177
 20
33.3285
  0
VERTEX
  8
LAYER_5
 10
-30.3177
 20
230.337
  0
SEQEND
  0
ENDBLK
  0
BLOCK
  8
LAYER_5
  2
AIGNBL05010003
 70
64
 10
0
 20
0
 30
0
  3
AIGNBL05010003
  0
INSERT
  8
LAYER_5
  2
AIGNBL05020004
 10
0
 20
0
 30
0
  0
INSERT
  8
LAYER_5
  2
AIGNBL0502000D
 10
0
 20
0
 30
0
  0
ENDBLK
  0
BLOCK
  8
LAYER_5
  2
AIGNBL05010025
 70
64
 10
0
 20
0
 30
0
  3
AIGNBL05010025
  0
POLYLINE
  8
LAYER_5
 40
0.1058
 41
0.1058
 66
1
 10
0
 20
0
 30
0
  0
VERTEX
  8
LAYER_5
 10
157.7952
 20
145.1626
  0
VERTEX
  8
LAYER_5
 10
157.7952
 20
147.1232
  0
SEQEND
  0
POLYLINE
  8
LAYER_5
 40
0.1058
 41
0.1058
 66
1
 10
0
 20
0
 30
0
  0
VERTEX
  8
LAYER_5
 10
198.7952
 20
147.1232
  0
VERTEX
  8
LAYER_5
 10
157.7952
 20
147.1232
  0
SEQEND
  0
POLYLINE
  8
LAYER_5
 40
0.1058
 41
0.1058
 66
1
 10
0
 20
0
 30
0
  0
VERTEX
  8
LAYER_5
 10
198.7952
 20
145.1626
  0
VERTEX
  8
LAYER_5
 10
198.7952
 20
147.1232
  0
SEQEND
  0
POLYLINE
  8
LAYER_5
 40
0.1058
 41
0.1058
 66
1
 10
0
 20
0
 30
0
  0
VERTEX
  8
LAYER_5
 10
198.7952
 20
145.1626
  0
VERTEX
  8
LAYER_5
 10
157.7952
 20
145.1626
  0
SEQEND
  0
ENDBLK
  0
BLOCK
  8
LAYER_5
  2
AIGNBL05010026
 70
64
 10
0
 20
0
 30
0
  3
AIGNBL05010026
  0
POLYLINE
  8
LAYER_5
 40
0.05
 41
0.05
 66
1
 10
0
 20
0
 30
0
 70
1
  0
VERTEX
  8
LAYER_5
 10
203.2948
 20
175.1772
  0
VERTEX
  8
LAYER_5
 10
193.2948
 20
175.1772
  0
VERTEX
  8
LAYER_5
 10
193.2948
 20
189.1772
  0
VERTEX
  8
LAYER_5
 10
203.2948
 20
189.1772
  0
SEQEND
  0
POLYLINE
  8
LAYER_5
 40
0.05
 41
0.05
 66
1
 10
0
 20
0
 30
0
 70
1
  0
VERTEX
  8
LAYER_5
 10
199.7952
 20
188.177
  0
VERTEX
  8
LAYER_5
 10
196.7952
 20
188.177
  0
VERTEX
  8
LAYER_5
 10
196.7952
 20
187.177
  0
VERTEX
  8
LAYER_5
 10
199.7952
 20
187.177
  0
SEQEND
  0
ENDBLK
  0
BLOCK
  8
LAYER_5
  2
AIGNBL05010027
 70
64
 10
0
 20
0
 30
0
  3
AIGNBL05010027
  0
POLYLINE
  8
LAYER_5
 40
0.05
 41
0.05
 66
1
 10
0
 20
0
 30
0
 70
1
  0
VERTEX
  8
LAYER_5
 10
163.2948
 20
175.1772
  0
VERTEX
  8
LAYER_5
 10
153.2948
 20
175.1772
  0
VERTEX
  8
LAYER_5
 10
153.2948
 20
189.1772
  0
VERTEX
  8
LAYER_5
 10
163.2948
 20
189.1772
  0
SEQEND
  0
POLYLINE
  8
LAYER_5
 40
0.05
 41
0.05
 66
1
 10
0
 20
0
 30
0
 70
1
  0
VERTEX
  8
LAYER_5
 10
159.7952
 20
188.177
  0
VERTEX
  8
LAYER_5
 10
156.7952
 20
188.177
  0
VERTEX
  8
LAYER_5
 10
156.7952
 20
187.177
  0
VERTEX
  8
LAYER_5
 10
159.7952
 20
187.177
  0
SEQEND
  0
ENDBLK
  0
ENDSEC
  0
SECTION
  2
ENTITIES
  0
TEXT
  8
LAYER_5
 10
-26.2556
 20
43.1712
 11
-26.2556
 21
43.1712
 40
3.2995
 41
0.5
  1
仕様
  0
POLYLINE
  8
LAYER_5
 40
0.3528
 41
0.3528
 66
1
 10
0
 20
0
 30
0
  0
VERTEX
  8
LAYER_5
 10
250.6748
 20
51.9507
  0
VERTEX
  8
LAYER_5
 10
-29.3178
 20
51.9507
  0
SEQEND
  0
INSERT
  8
LAYER_5
  2
AIGNBL05010002
 10
0
 20
0
 30
0
  0
POLYLINE
  8
LAYER_5
 40
0.3528
 41
0.3528
 66
1
 10
0
 20
0
 30
0
  0
VERTEX
  8
LAYER_5
 10
-29.3178
 20
229.3369
  0
VERTEX
  8
LAYER_5
 10
-29.3178
 20
34.3283
  0
VERTEX
  8
LAYER_5
 10
250.6748
 20
34.3283
  0
VERTEX
  8
LAYER_5
 10
250.6748
 20
229.3369
  0
VERTEX
  8
LAYER_5
 10
-29.3178
 20
229.3369
  0
SEQEND
  0
POLYLINE
  8
LAYER_5
 40
0.3528
 41
0.3528
 66
1
 10
0
 20
0
 30
0
  0
VERTEX
  8
LAYER_5
 10
250.6748
 20
60.4597
  0
VERTEX
  8
LAYER_5
 10
-29.3178
 20
60.4597
  0
SEQEND
  0
POLYLINE
  8
LAYER_5
 40
0.3528
 41
0.3528
 66
1
 10
0
 20
0
 30
0
  0
VERTEX
  8
LAYER_5
 10
250.6748
 20
43.4416
  0
VERTEX
  8
LAYER_5
 10
143.5341
 20
43.4416
  0
SEQEND
  0
TEXT
  8
LAYER_5
 10
188.1725
 20
45.7175
 11
188.1725
 21
45.7175
 40
3.7615
 41
0.5
  1
-
  0
TEXT
  8
LAYER_5
 10
156.0777
 20
45.7175
 11
156.0777
 21
45.7175
 40
3.7615
 41
0.5
  1
-
  0
TEXT
  8
LAYER_5
 10
182.8808
 20
49.4743
 11
182.8808
 21
49.4743
 40
2.1997
 41
0.5
  1
縮尺
  0
POLYLINE
  8
LAYER_5
 40
0.3528
 41
0.3528
 66
1
 10
0
 20
0
 30
0
  0
VERTEX
  8
LAYER_5
 10
181.3526
 20
43.4416
  0
VERTEX
  8
LAYER_5
 10
181.3526
 20
51.9507
  0
SEQEND
  0
TEXT
  8
LAYER_5
 10
144.2327
 20
57.9834
 11
144.2327
 21
57.9834
 40
2.1997
 41
0.5
  1
品番
  0
TEXT
  8
LAYER_5
 10
-28.1609
 20
57.9834
 11
-28.1609
 21
57.9834
 40
2.1997
 41
0.5
  1
品名
  0
TEXT
  8
LAYER_5
 10
144.2327
 20
49.4743
 11
144.2327
 21
49.4743
 40
2.1997
 41
0.5
  1
重量
  0
TEXT
  8
LAYER_5
 10
150.2547
 20
54.1514
 11
150.2547
 21
54.1514
 40
5.9385
 41
0.5
  1
AQ-SQU740/650
  0
POLYLINE
  8
LAYER_5
 40
0.3528
 41
0.3528
 66
1
 10
0
 20
0
 30
0
  0
VERTEX
  8
LAYER_5
 10
143.5341
 20
34.9539
  0
VERTEX
  8
LAYER_5
 10
143.5341
 20
60.4597
  0
SEQEND
  0
TEXT
  8
LAYER_5
 10
-15.2914
 20
54.891
 11
-15.2914
 21
54.891
 40
3.6373
 41
0.5
  1
スクエアミラー
  0
TEXT
  8
LAYER_5
 10
-15.6835
 20
46.3736
 11
-15.6835
 21
46.3736
 40
3.258
 41
0.5
  1
●ミラー：5mm厚（Agガード加工・小口磨き）
  0
TEXT
  8
LAYER_5
 10
-15.6835
 20
41.6235
 11
-15.6835
 21
41.6235
 40
3.258
 41
0.5
  1
●サイズ：W740×H650×D15mmmm
  0
TEXT
  8
LAYER_5
 10
-15.6835
 20
36.8738
 11
-15.6835
 21
36.8738
 40
2.8579
 41
0.5
  1
●設置方法：壁付け（取り付け金具同梱）
  0
TEXT
  8
LAYER_5
 10
237.263
 20
63.2582
 11
237.263
 21
63.2582
 40
2.9618
 41
0.5
  1
単位：mm
  0
TEXT
  8
LAYER_5
 10
176.0254
 20
39.5359
 11
176.0254
 21
39.5359
 40
3.3853
 41
0.5
  1
●TEL 0120-65-1232●FAX 06-6532-1580
  0
TEXT
  8
LAYER_5
 10
176.0254
 20
36.0212
 11
176.0254
 21
36.0212
 40
3.3853
 41
0.5
  1
hits@hiratatile.co.jp
  0
INSERT
  8
LAYER_5
  2
AIGNBL05010003
 10
0
 20
0
 30
0
  0
TEXT
  8
LAYER_5
 10
41.199
 20
123.0484
 11
41.199
 21
123.0484
 40
5.3312
 41
0.5
  1
19
  0
TEXT
  8
LAYER_5
 10
52.0807
 20
102.7045
 11
52.0807
 21
102.7045
 40
5.3312
 41
0.5
 50
270
  1
70
  0
TEXT
  8
LAYER_5
 10
95.7156
 20
123.0484
 11
95.7156
 21
123.0484
 40
5.3312
 41
0.5
  1
2
  0
POLYLINE
  8
LAYER_5
 40
0.1693
 41
0.1693
 66
1
 10
0
 20
0
 30
0
  0
VERTEX
  8
LAYER_5
 10
98.7119
 20
99.2497
  0
VERTEX
  8
LAYER_5
 10
97.7889
 20
99.2497
  0
SEQEND
  0
POLYLINE
  8
LAYER_5
 40
0.1058
 41
0.1058
 66
1
 10
0
 20
0
 30
0
  0
VERTEX
  8
LAYER_5
 10
80.6582
 20
116.3794
  0
VERTEX
  8
LAYER_5
 10
70.8211
 20
116.3794
  0
SEQEND
  0
POLYLINE
  8
LAYER_5
 40
0.1058
 41
0.1058
 66
1
 10
0
 20
0
 30
0
  0
VERTEX
  8
LAYER_5
 10
80.6582
 20
80.1005
  0
VERTEX
  8
LAYER_5
 10
80.6582
 20
116.3794
  0
SEQEND
  0
POLYLINE
  8
LAYER_5
 40
0.1058
 41
0.1058
 66
1
 10
0
 20
0
 30
0
  0
VERTEX
  8
LAYER_5
 10
80.6582
 20
80.1005
  0
VERTEX
  8
LAYER_5
 10
70.8211
 20
80.1005
  0
SEQEND
  0
POLYLINE
  8
LAYER_5
 40
0.1058
 41
0.1058
 66
1
 10
0
 20
0
 30
0
  0
VERTEX
  8
LAYER_5
 10
70.8211
 20
80.1005
  0
VERTEX
  8
LAYER_5
 10
70.8211
 20
116.3794
  0
SEQEND
  0
POLYLINE
  8
LAYER_5
 40
0.1058
 41
0.1058
 66
1
 10
0
 20
0
 30
0
  0
VERTEX
  8
LAYER_5
 10
73.1486
 20
95.6044
  0
VERTEX
  8
LAYER_5
 10
73.1041
 20
95.6044
 42
0.1995973485
  0
VERTEX
  8
LAYER_5
 10
72.2262
 20
95.2315
 42
0.1945539931
  0
VERTEX
  8
LAYER_5
 10
71.8309
 20
94.2867
 42
0.4142098926
  0
VERTEX
  8
LAYER_5
 10
73.1041
 20
93.0123
  0
VERTEX
  8
LAYER_5
 10
73.1486
 20
93.0123
  0
SEQEND
  0
POLYLINE
  8
LAYER_5
 40
0.1058
 41
0.1058
 66
1
 10
0
 20
0
 30
0
  0
VERTEX
  8
LAYER_5
 10
73.1486
 20
93.0123
 42
0.4142178399
  0
VERTEX
  8
LAYER_5
 10
74.4219
 20
94.2867
 42
0.2564199755
  0
VERTEX
  8
LAYER_5
 10
73.7954
 20
95.3969
 42
0.124517715
  0
VERTEX
  8
LAYER_5
 10
73.1486
 20
95.6044
  0
SEQEND
  0
POLYLINE
  8
LAYER_5
 40
0.1058
 41
0.1058
 66
1
 10
0
 20
0
 30
0
  0
VERTEX
  8
LAYER_5
 10
78.3317
 20
95.6044
  0
VERTEX
  8
LAYER_5
 10
78.2872
 20
95.6044
 42
0.1995979842
  0
VERTEX
  8
LAYER_5
 10
77.4089
 20
95.2315
 42
0.194582493
  0
VERTEX
  8
LAYER_5
 10
77.0139
 20
94.2867
 42
0.4142141059
  0
VERTEX
  8
LAYER_5
 10
78.2872
 20
93.0123
  0
VERTEX
  8
LAYER_5
 10
78.3317
 20
93.0123
  0
SEQEND
  0
POLYLINE
  8
LAYER_5
 40
0.1058
 41
0.1058
 66
1
 10
0
 20
0
 30
0
  0
VERTEX
  8
LAYER_5
 10
78.3317
 20
93.0123
 42
0.3932966134
  0
VERTEX
  8
LAYER_5
 10
79.604
 20
94.2867
 42
0.2563107661
  0
VERTEX
  8
LAYER_5
 10
78.9778
 20
95.3969
 42
0.1245552708
  0
VERTEX
  8
LAYER_5
 10
78.3317
 20
95.6044
  0
SEQEND
  0
POLYLINE
  8
LAYER_5
 40
0.1058
 41
0.1058
 66
1
 10
0
 20
0
 30
0
  0
VERTEX
  8
LAYER_5
 10
78.3317
 20
83.7013
  0
VERTEX
  8
LAYER_5
 10
78.2872
 20
83.7013
 42
0.1996169798
  0
VERTEX
  8
LAYER_5
 10
77.4089
 20
83.3283
 42
0.194565407
  0
VERTEX
  8
LAYER_5
 10
77.0139
 20
82.3835
 42
0.4142096924
  0
VERTEX
  8
LAYER_5
 10
78.2872
 20
81.1102
  0
VERTEX
  8
LAYER_5
 10
78.3317
 20
81.1102
  0
SEQEND
  0
POLYLINE
  8
LAYER_5
 40
0.1058
 41
0.1058
 66
1
 10
0
 20
0
 30
0
  0
VERTEX
  8
LAYER_5
 10
78.3317
 20
81.1102
 42
0.4142092137
  0
VERTEX
  8
LAYER_5
 10
79.604
 20
82.3835
 42
0.2563031105
  0
VERTEX
  8
LAYER_5
 10
78.9778
 20
83.4937
 42
0.1245333431
  0
VERTEX
  8
LAYER_5
 10
78.3317
 20
83.7013
  0
SEQEND
  0
POLYLINE
  8
LAYER_5
 40
0.1058
 41
0.1058
 66
1
 10
0
 20
0
 30
0
  0
VERTEX
  8
LAYER_5
 10
73.1486
 20
83.7013
  0
VERTEX
  8
LAYER_5
 10
73.1041
 20
83.7013
 42
0.1996163395
  0
VERTEX
  8
LAYER_5
 10
72.2262
 20
83.3283
 42
0.1945369115
  0
VERTEX
  8
LAYER_5
 10
71.8309
 20
82.3835
 42
0.4142054754
  0
VERTEX
  8
LAYER_5
 10
73.1041
 20
81.1102
  0
VERTEX
  8
LAYER_5
 10
73.1486
 20
81.1102
  0
SEQEND
  0
POLYLINE
  8
LAYER_5
 40
0.1058
 41
0.1058
 66
1
 10
0
 20
0
 30
0
  0
VERTEX
  8
LAYER_5
 10
73.1486
 20
81.1102
 42
0.4142134296
  0
VERTEX
  8
LAYER_5
 10
74.4219
 20
82.3835
 42
0.2564123185
  0
VERTEX
  8
LAYER_5
 10
73.7954
 20
83.4937
 42
0.1244958278
  0
VERTEX
  8
LAYER_5
 10
73.1486
 20
83.7013
  0
SEQEND
  0
POLYLINE
  8
LAYER_5
 40
0.1058
 41
0.1058
 66
1
 10
0
 20
0
 30
0
  0
VERTEX
  8
LAYER_5
 10
49.4311
 20
116.3794
  0
VERTEX
  8
LAYER_5
 10
39.5485
 20
116.3794
  0
SEQEND
  0
POLYLINE
  8
LAYER_5
 40
0.1058
 41
0.1058
 66
1
 10
0
 20
0
 30
0
  0
VERTEX
  8
LAYER_5
 10
49.4311
 20
80.1005
  0
VERTEX
  8
LAYER_5
 10
49.4311
 20
116.3794
  0
SEQEND
  0
POLYLINE
  8
LAYER_5
 40
0.1058
 41
0.1058
 66
1
 10
0
 20
0
 30
0
  0
VERTEX
  8
LAYER_5
 10
49.4311
 20
80.1005
  0
VERTEX
  8
LAYER_5
 10
39.5485
 20
80.1005
  0
SEQEND
  0
POLYLINE
  8
LAYER_5
 40
0.1058
 41
0.1058
 66
1
 10
0
 20
0
 30
0
  0
VERTEX
  8
LAYER_5
 10
39.5485
 20
80.1005
  0
VERTEX
  8
LAYER_5
 10
39.5485
 20
116.3794
  0
SEQEND
  0
POLYLINE
  8
LAYER_5
 40
0.1058
 41
0.1058
 66
1
 10
0
 20
0
 30
0
  0
VERTEX
  8
LAYER_5
 10
49.4311
 20
98.24
  0
VERTEX
  8
LAYER_5
 10
39.5485
 20
98.24
  0
SEQEND
  0
POLYLINE
  8
LAYER_5
 40
0.1058
 41
0.1058
 66
1
 10
0
 20
0
 30
0
  0
VERTEX
  8
LAYER_5
 10
41.8761
 20
95.6044
  0
VERTEX
  8
LAYER_5
 10
41.8326
 20
95.6044
 42
0.1995979842
  0
VERTEX
  8
LAYER_5
 10
40.9543
 20
95.2315
 42
0.194582493
  0
VERTEX
  8
LAYER_5
 10
40.5593
 20
94.2867
 42
0.4142206436
  0
VERTEX
  8
LAYER_5
 10
41.8326
 20
93.0123
  0
VERTEX
  8
LAYER_5
 10
41.8761
 20
93.0123
  0
SEQEND
  0
POLYLINE
  8
LAYER_5
 40
0.1058
 41
0.1058
 66
1
 10
0
 20
0
 30
0
  0
VERTEX
  8
LAYER_5
 10
41.8761
 20
93.0123
 42
0.4142180004
  0
VERTEX
  8
LAYER_5
 10
43.1505
 20
94.2867
 42
0.256540066
  0
VERTEX
  8
LAYER_5
 10
42.5237
 20
95.3969
 42
0.1244763176
  0
VERTEX
  8
LAYER_5
 10
41.8761
 20
95.6044
  0
SEQEND
  0
POLYLINE
  8
LAYER_5
 40
0.1058
 41
0.1058
 66
1
 10
0
 20
0
 30
0
  0
VERTEX
  8
LAYER_5
 10
47.0592
 20
95.6044
  0
VERTEX
  8
LAYER_5
 10
47.0147
 20
95.6044
 42
0.1997321748
  0
VERTEX
  8
LAYER_5
 10
46.1373
 20
95.2315
 42
0.1944942135
  0
VERTEX
  8
LAYER_5
 10
45.7425
 20
94.2867
 42
0.3925811179
  0
VERTEX
  8
LAYER_5
 10
47.0147
 20
93.0123
  0
VERTEX
  8
LAYER_5
 10
47.0592
 20
93.0123
  0
SEQEND
  0
POLYLINE
  8
LAYER_5
 40
0.1058
 41
0.1058
 66
1
 10
0
 20
0
 30
0
  0
VERTEX
  8
LAYER_5
 10
47.0592
 20
93.0123
 42
0.4142182182
  0
VERTEX
  8
LAYER_5
 10
48.3335
 20
94.2867
 42
0.2566965158
  0
VERTEX
  8
LAYER_5
 10
47.7059
 20
95.3969
 42
0.1243410315
  0
VERTEX
  8
LAYER_5
 10
47.0592
 20
95.6044
  0
SEQEND
  0
POLYLINE
  8
LAYER_5
 40
0.1058
 41
0.1058
 66
1
 10
0
 20
0
 30
0
  0
VERTEX
  8
LAYER_5
 10
47.0592
 20
83.7013
  0
VERTEX
  8
LAYER_5
 10
47.0147
 20
83.7013
 42
0.1997511746
  0
VERTEX
  8
LAYER_5
 10
46.1373
 20
83.3283
 42
0.1944771268
  0
VERTEX
  8
LAYER_5
 10
45.7425
 20
82.3835
 42
0.4142050933
  0
VERTEX
  8
LAYER_5
 10
47.0147
 20
81.1102
  0
VERTEX
  8
LAYER_5
 10
47.0592
 20
81.1102
  0
SEQEND
  0
POLYLINE
  8
LAYER_5
 40
0.1058
 41
0.1058
 66
1
 10
0
 20
0
 30
0
  0
VERTEX
  8
LAYER_5
 10
47.0592
 20
81.1102
 42
0.4142138117
  0
VERTEX
  8
LAYER_5
 10
48.3335
 20
82.3835
 42
0.256688854
  0
VERTEX
  8
LAYER_5
 10
47.7059
 20
83.4937
 42
0.1243191137
  0
VERTEX
  8
LAYER_5
 10
47.0592
 20
83.7013
  0
SEQEND
  0
POLYLINE
  8
LAYER_5
 40
0.1058
 41
0.1058
 66
1
 10
0
 20
0
 30
0
  0
VERTEX
  8
LAYER_5
 10
41.8761
 20
83.7013
  0
VERTEX
  8
LAYER_5
 10
41.8326
 20
83.7013
 42
0.1996169798
  0
VERTEX
  8
LAYER_5
 10
40.9543
 20
83.3283
 42
0.194565407
  0
VERTEX
  8
LAYER_5
 10
40.5593
 20
82.3835
 42
0.4142162356
  0
VERTEX
  8
LAYER_5
 10
41.8326
 20
81.1102
  0
VERTEX
  8
LAYER_5
 10
41.8761
 20
81.1102
  0
SEQEND
  0
POLYLINE
  8
LAYER_5
 40
0.1058
 41
0.1058
 66
1
 10
0
 20
0
 30
0
  0
VERTEX
  8
LAYER_5
 10
41.8761
 20
81.1102
 42
0.414213594
  0
VERTEX
  8
LAYER_5
 10
43.1505
 20
82.3835
 42
0.2565324076
  0
VERTEX
  8
LAYER_5
 10
42.5237
 20
83.4937
 42
0.1244544747
  0
VERTEX
  8
LAYER_5
 10
41.8761
 20
83.7013
  0
SEQEND
  0
POLYLINE
  8
LAYER_5
 40
0.1058
 41
0.1058
 66
1
 10
0
 20
0
 30
0
  0
VERTEX
  8
LAYER_5
 10
80.6582
 20
99.2497
  0
VERTEX
  8
LAYER_5
 10
70.8211
 20
99.2497
  0
SEQEND
  0
POLYLINE
  8
LAYER_5
 40
0.1058
 41
0.1058
 66
1
 10
0
 20
0
 30
0
  0
VERTEX
  8
LAYER_5
 10
97.7889
 20
116.3794
  0
VERTEX
  8
LAYER_5
 10
96.7358
 20
116.3794
  0
SEQEND
  0
POLYLINE
  8
LAYER_5
 40
0.1058
 41
0.1058
 66
1
 10
0
 20
0
 30
0
  0
VERTEX
  8
LAYER_5
 10
97.7889
 20
99.2497
  0
VERTEX
  8
LAYER_5
 10
97.7889
 20
116.3794
  0
SEQEND
  0
POLYLINE
  8
LAYER_5
 40
0.1058
 41
0.1058
 66
1
 10
0
 20
0
 30
0
  0
VERTEX
  8
LAYER_5
 10
99.3268
 20
80.1005
  0
VERTEX
  8
LAYER_5
 10
98.2726
 20
80.1005
  0
SEQEND
  0
POLYLINE
  8
LAYER_5
 40
0.1058
 41
0.1058
 66
1
 10
0
 20
0
 30
0
  0
VERTEX
  8
LAYER_5
 10
98.2726
 20
80.1005
  0
VERTEX
  8
LAYER_5
 10
98.2726
 20
98.24
  0
SEQEND
  0
POLYLINE
  8
LAYER_5
 40
0.1058
 41
0.1058
 66
1
 10
0
 20
0
 30
0
  0
VERTEX
  8
LAYER_5
 10
96.7358
 20
98.8538
  0
VERTEX
  8
LAYER_5
 10
96.7358
 20
116.3794
  0
SEQEND
  0
POLYLINE
  8
LAYER_5
 40
0.1058
 41
0.1058
 66
1
 10
0
 20
0
 30
0
  0
VERTEX
  8
LAYER_5
 10
98.2726
 20
98.24
  0
VERTEX
  8
LAYER_5
 10
97.3497
 20
98.24
  0
SEQEND
  0
POLYLINE
  8
LAYER_5
 40
0.1058
 41
0.1058
 66
1
 10
0
 20
0
 30
0
  0
VERTEX
  8
LAYER_5
 10
96.7358
 20
98.8538
 42
0.4142051369
  0
VERTEX
  8
LAYER_5
 10
97.3497
 20
98.24
  0
SEQEND
  0
POLYLINE
  8
LAYER_5
 40
0.1058
 41
0.1058
 66
1
 10
0
 20
0
 30
0
  0
VERTEX
  8
LAYER_5
 10
99.3268
 20
80.1005
  0
VERTEX
  8
LAYER_5
 10
99.3268
 20
98.6792
  0
SEQEND
  0
POLYLINE
  8
LAYER_5
 40
0.1058
 41
0.1058
 66
1
 10
0
 20
0
 30
0
  0
VERTEX
  8
LAYER_5
 10
99.3268
 20
98.6792
 42
0.4142009364
  0
VERTEX
  8
LAYER_5
 10
98.7119
 20
99.2942
  0
SEQEND
  0
POLYLINE
  8
LAYER_5
 40
0.1058
 41
0.1058
 66
1
 10
0
 20
0
 30
0
  0
VERTEX
  8
LAYER_5
 10
49.4311
 20
120.4639
  0
VERTEX
  8
LAYER_5
 10
39.5485
 20
120.4639
  0
SEQEND
  0
POLYLINE
  8
LAYER_5
 40
0.1058
 41
0.1058
 66
1
 10
0
 20
0
 30
0
  0
VERTEX
  8
LAYER_5
 10
58.3918
 20
80.1005
  0
VERTEX
  8
LAYER_5
 10
58.3918
 20
116.3794
  0
SEQEND
  0
POLYLINE
  8
LAYER_5
 40
0.1058
 41
0.1058
 66
1
 10
0
 20
0
 30
0
  0
VERTEX
  8
LAYER_5
 10
97.7889
 20
120.4639
  0
VERTEX
  8
LAYER_5
 10
96.7358
 20
120.4639
  0
SEQEND
  0
POLYLINE
  8
LAYER_5
 40
0.1058
 41
0.1058
 66
1
 10
0
 20
0
 30
0
  0
VERTEX
  8
LAYER_5
 10
39.5485
 20
118.1601
  0
VERTEX
  8
LAYER_5
 10
39.5485
 20
121.671
  0
SEQEND
  0
POLYLINE
  8
LAYER_5
 40
0.1058
 41
0.1058
 66
1
 10
0
 20
0
 30
0
  0
VERTEX
  8
LAYER_5
 10
96.7358
 20
118.1601
  0
VERTEX
  8
LAYER_5
 10
96.7358
 20
121.671
  0
SEQEND
  0
POLYLINE
  8
LAYER_5
 40
0.1058
 41
0.1058
 66
1
 10
0
 20
0
 30
0
  0
VERTEX
  8
LAYER_5
 10
97.8995
 20
118.1601
  0
VERTEX
  8
LAYER_5
 10
97.8995
 20
121.671
  0
SEQEND
  0
POLYLINE
  8
LAYER_5
 40
0.1058
 41
0.1058
 66
1
 10
0
 20
0
 30
0
  0
VERTEX
  8
LAYER_5
 10
52.3788
 20
116.3794
  0
VERTEX
  8
LAYER_5
 10
60.9932
 20
116.3794
  0
SEQEND
  0
POLYLINE
  8
LAYER_5
 40
0.1058
 41
0.1058
 66
1
 10
0
 20
0
 30
0
  0
VERTEX
  8
LAYER_5
 10
52.3788
 20
80.1005
  0
VERTEX
  8
LAYER_5
 10
60.9932
 20
80.1005
  0
SEQEND
  0
POLYLINE
  8
LAYER_5
 40
0.1058
 41
0.1058
 66
1
 10
0
 20
0
 30
0
  0
VERTEX
  8
LAYER_5
 10
49.4311
 20
118.1601
  0
VERTEX
  8
LAYER_5
 10
49.4311
 20
121.671
  0
SEQEND
  0
TEXT
  8
LAYER_5
 10
44.6856
 20
67.3611
 11
44.6856
 21
67.3611
 40
5.9379
 41
0.5
  1
取り付け金具形状
  0
TEXT
  8
LAYER_5
 10
76.445
 20
205.7813
 11
76.445
 21
205.7813
 40
5.3312
 41
0.5
  1
740
  0
TEXT
  8
LAYER_5
 10
102.0496
 20
152.5663
 11
102.0496
 21
152.5663
 40
5.3312
 41
0.5
 50
313.8481076
  1
150R
  0
POLYLINE
  8
LAYER_5
 40
0.05
 41
0.05
 66
1
 10
0
 20
0
 30
0
  0
VERTEX
  8
LAYER_5
 10
233.1036
 20
175.1772
  0
VERTEX
  8
LAYER_5
 10
233.2503
 20
175.1772
  0
VERTEX
  8
LAYER_5
 10
233.2503
 20
187.2171
  0
SEQEND
  0
POLYLINE
  8
LAYER_5
 40
0.0423
 41
0.0423
 66
1
 10
0
 20
0
 30
0
 70
1
  0
VERTEX
  8
LAYER_5
 10
233.1036
 20
175.1772
  0
VERTEX
  8
LAYER_5
 10
233.2503
 20
175.1772
  0
VERTEX
  8
LAYER_5
 10
233.2503
 20
187.2171
  0
SEQEND
  0
POLYLINE
  8
LAYER_5
 40
0.05
 41
0.05
 66
1
 10
0
 20
0
 30
0
  0
VERTEX
  8
LAYER_5
 10
233.7475
 20
187.2171
  0
VERTEX
  8
LAYER_5
 10
233.7475
 20
188.2119
  0
VERTEX
  8
LAYER_5
 10
233.2503
 20
188.2119
  0
SEQEND
  0
POLYLINE
  8
LAYER_5
 40
0.0423
 41
0.0423
 66
1
 10
0
 20
0
 30
0
 70
1
  0
VERTEX
  8
LAYER_5
 10
233.7475
 20
187.2171
  0
VERTEX
  8
LAYER_5
 10
233.7475
 20
188.2119
  0
VERTEX
  8
LAYER_5
 10
233.2503
 20
188.2119
  0
SEQEND
  0
POLYLINE
  8
LAYER_5
 40
0.05
 41
0.05
 66
1
 10
0
 20
0
 30
0
  0
VERTEX
  8
LAYER_5
 10
233.2503
 20
189.1772
  0
VERTEX
  8
LAYER_5
 10
233.1036
 20
189.1772
  0
VERTEX
  8
LAYER_5
 10
233.1036
 20
175.1772
  0
SEQEND
  0
POLYLINE
  8
LAYER_5
 40
0.0423
 41
0.0423
 66
1
 10
0
 20
0
 30
0
 70
1
  0
VERTEX
  8
LAYER_5
 10
233.2503
 20
189.1772
  0
VERTEX
  8
LAYER_5
 10
233.1036
 20
189.1772
  0
VERTEX
  8
LAYER_5
 10
233.1036
 20
175.1772
  0
SEQEND
  0
POLYLINE
  8
LAYER_5
 40
0.05
 41
0.05
 66
1
 10
0
 20
0
 30
0
  0
VERTEX
  8
LAYER_5
 10
233.2503
 20
189.1772
  0
VERTEX
  8
LAYER_5
 10
233.1036
 20
175.1772
  0
VERTEX
  8
LAYER_5
 10
233.2503
 20
187.2171
  0
SEQEND
  0
POLYLINE
  8
LAYER_5
 40
0.0423
 41
0.0423
 66
1
 10
0
 20
0
 30
0
 70
1
  0
VERTEX
  8
LAYER_5
 10
233.2503
 20
189.1772
  0
VERTEX
  8
LAYER_5
 10
233.1036
 20
175.1772
  0
VERTEX
  8
LAYER_5
 10
233.2503
 20
187.2171
  0
SEQEND
  0
POLYLINE
  8
LAYER_5
 40
0.05
 41
0.05
 66
1
 10
0
 20
0
 30
0
  0
VERTEX
  8
LAYER_5
 10
233.2503
 20
187.2171
  0
VERTEX
  8
LAYER_5
 10
233.7475
 20
187.2171
  0
VERTEX
  8
LAYER_5
 10
233.2503
 20
188.2119
  0
SEQEND
  0
POLYLINE
  8
LAYER_5
 40
0.0423
 41
0.0423
 66
1
 10
0
 20
0
 30
0
 70
1
  0
VERTEX
  8
LAYER_5
 10
233.2503
 20
187.2171
  0
VERTEX
  8
LAYER_5
 10
233.7475
 20
187.2171
  0
VERTEX
  8
LAYER_5
 10
233.2503
 20
188.2119
  0
SEQEND
  0
POLYLINE
  8
LAYER_5
 40
0.1058
 41
0.1058
 66
1
 10
0
 20
0
 30
0
  0
VERTEX
  8
LAYER_5
 10
233.1036
 20
199.1936
  0
VERTEX
  8
LAYER_5
 10
232.6354
 20
199.1936
  0
SEQEND
  0
POLYLINE
  8
LAYER_5
 40
0.1058
 41
0.1058
 66
1
 10
0
 20
0
 30
0
  0
VERTEX
  8
LAYER_5
 10
233.1036
 20
134.0641
  0
VERTEX
  8
LAYER_5
 10
233.1036
 20
199.1936
  0
SEQEND
  0
POLYLINE
  8
LAYER_5
 40
0.1058
 41
0.1058
 66
1
 10
0
 20
0
 30
0
  0
VERTEX
  8
LAYER_5
 10
233.1036
 20
134.0641
  0
VERTEX
  8
LAYER_5
 10
232.6354
 20
134.0641
  0
SEQEND
  0
POLYLINE
  8
LAYER_5
 40
0.1058
 41
0.1058
 66
1
 10
0
 20
0
 30
0
  0
VERTEX
  8
LAYER_5
 10
232.6354
 20
134.0641
  0
VERTEX
  8
LAYER_5
 10
232.6354
 20
199.1936
  0
SEQEND
  0
POLYLINE
  8
LAYER_5
 40
0.1058
 41
0.1058
 66
1
 10
0
 20
0
 30
0
  0
VERTEX
  8
LAYER_5
 10
233.2503
 20
189.1772
  0
VERTEX
  8
LAYER_5
 10
233.1036
 20
189.1772
  0
SEQEND
  0
POLYLINE
  8
LAYER_5
 40
0.1058
 41
0.1058
 66
1
 10
0
 20
0
 30
0
  0
VERTEX
  8
LAYER_5
 10
233.2503
 20
175.1772
  0
VERTEX
  8
LAYER_5
 10
233.2503
 20
189.1772
  0
SEQEND
  0
POLYLINE
  8
LAYER_5
 40
0.1058
 41
0.1058
 66
1
 10
0
 20
0
 30
0
  0
VERTEX
  8
LAYER_5
 10
233.2503
 20
176.1423
  0
VERTEX
  8
LAYER_5
 10
233.1036
 20
176.1423
  0
SEQEND
  0
POLYLINE
  8
LAYER_5
 40
0.1058
 41
0.1058
 66
1
 10
0
 20
0
 30
0
  0
VERTEX
  8
LAYER_5
 10
233.7475
 20
188.2119
  0
VERTEX
  8
LAYER_5
 10
233.2503
 20
188.2119
  0
SEQEND
  0
POLYLINE
  8
LAYER_5
 40
0.1058
 41
0.1058
 66
1
 10
0
 20
0
 30
0
  0
VERTEX
  8
LAYER_5
 10
233.7475
 20
187.2171
  0
VERTEX
  8
LAYER_5
 10
233.7475
 20
188.2119
  0
SEQEND
  0
POLYLINE
  8
LAYER_5
 40
0.1058
 41
0.1058
 66
1
 10
0
 20
0
 30
0
  0
VERTEX
  8
LAYER_5
 10
233.7475
 20
187.2171
  0
VERTEX
  8
LAYER_5
 10
233.2503
 20
187.2171
  0
SEQEND
  0
INSERT
  8
LAYER_5
  2
AIGNBL05010025
 10
0
 20
0
 30
0
  0
POLYLINE
  8
LAYER_5
 40
0.1058
 41
0.1058
 66
1
 10
0
 20
0
 30
0
  0
VERTEX
  8
LAYER_5
 10
235.0642
 20
147.1232
  0
VERTEX
  8
LAYER_5
 10
233.1036
 20
147.1232
  0
SEQEND
  0
POLYLINE
  8
LAYER_5
 40
0.1058
 41
0.1058
 66
1
 10
0
 20
0
 30
0
  0
VERTEX
  8
LAYER_5
 10
235.0642
 20
145.1626
  0
VERTEX
  8
LAYER_5
 10
235.0642
 20
147.1232
  0
SEQEND
  0
POLYLINE
  8
LAYER_5
 40
0.1058
 41
0.1058
 66
1
 10
0
 20
0
 30
0
  0
VERTEX
  8
LAYER_5
 10
235.0642
 20
145.1626
  0
VERTEX
  8
LAYER_5
 10
233.1036
 20
145.1626
  0
SEQEND
  0
POLYLINE
  8
LAYER_5
 40
0.1058
 41
0.1058
 66
1
 10
0
 20
0
 30
0
  0
VERTEX
  8
LAYER_5
 10
41.382
 20
204.0801
  0
VERTEX
  8
LAYER_5
 10
115.382
 20
204.0801
  0
SEQEND
  0
POLYLINE
  8
LAYER_5
 40
0.1058
 41
0.1058
 66
1
 10
0
 20
0
 30
0
  0
VERTEX
  8
LAYER_5
 10
41.382
 20
201.1541
  0
VERTEX
  8
LAYER_5
 10
41.382
 20
204.0801
  0
SEQEND
  0
POLYLINE
  8
LAYER_5
 40
0.1058
 41
0.1058
 66
1
 10
0
 20
0
 30
0
  0
VERTEX
  8
LAYER_5
 10
115.382
 20
201.1541
  0
VERTEX
  8
LAYER_5
 10
115.382
 20
204.0801
  0
SEQEND
  0
TEXT
  8
LAYER_5
 10
32.8714
 20
178.513
 11
32.8714
 21
178.513
 40
5.3312
 41
0.5
 50
270
  1
650
  0
POLYLINE
  8
LAYER_5
 40
0.1058
 41
0.1058
 66
1
 10
0
 20
0
 30
0
  0
VERTEX
  8
LAYER_5
 10
37.5368
 20
200.7493
  0
VERTEX
  8
LAYER_5
 10
37.5368
 20
135.7493
  0
SEQEND
  0
POLYLINE
  8
LAYER_5
 40
0.1058
 41
0.1058
 66
1
 10
0
 20
0
 30
0
  0
VERTEX
  8
LAYER_5
 10
40.4628
 20
200.7493
  0
VERTEX
  8
LAYER_5
 10
37.5368
 20
200.7493
  0
SEQEND
  0
POLYLINE
  8
LAYER_5
 40
0.1058
 41
0.1058
 66
1
 10
0
 20
0
 30
0
  0
VERTEX
  8
LAYER_5
 10
40.4628
 20
135.7493
  0
VERTEX
  8
LAYER_5
 10
37.5368
 20
135.7493
  0
SEQEND
  0
POLYLINE
  8
LAYER_5
 40
0.1058
 41
0.1058
 66
1
 10
0
 20
0
 30
0
  0
VERTEX
  8
LAYER_5
 10
100.6795
 20
151.2313
  0
VERTEX
  8
LAYER_5
 10
111.0375
 20
140.8432
  0
SEQEND
  0
POLYLINE
  8
LAYER_5
  6
AIGENLINE001
 40
0.1058
 41
0.1058
 66
1
 10
0
 20
0
 30
0
 70
128
  0
VERTEX
  8
LAYER_5
 10
215.2948
 20
201.0278
  0
VERTEX
  8
LAYER_5
 10
215.2948
 20
210.4319
  0
SEQEND
  0
POLYLINE
  8
LAYER_5
  6
AIGENLINE001
 40
0.1058
 41
0.1058
 66
1
 10
0
 20
0
 30
0
 70
128
  0
VERTEX
  8
LAYER_5
 10
193.2948
 20
191.0292
  0
VERTEX
  8
LAYER_5
 10
193.2948
 20
210.4319
  0
SEQEND
  0
POLYLINE
  8
LAYER_5
  6
AIGENLINE001
 40
0.1058
 41
0.1058
 66
1
 10
0
 20
0
 30
0
 70
128
  0
VERTEX
  8
LAYER_5
 10
163.2948
 20
191.0292
  0
VERTEX
  8
LAYER_5
 10
163.2948
 20
210.4319
  0
SEQEND
  0
POLYLINE
  8
LAYER_5
  6
AIGENLINE001
 40
0.1058
 41
0.1058
 66
1
 10
0
 20
0
 30
0
 70
128
  0
VERTEX
  8
LAYER_5
 10
153.2948
 20
191.0292
  0
VERTEX
  8
LAYER_5
 10
153.2948
 20
210.4319
  0
SEQEND
  0
POLYLINE
  8
LAYER_5
  6
AIGENLINE001
 40
0.1058
 41
0.1058
 66
1
 10
0
 20
0
 30
0
 70
128
  0
VERTEX
  8
LAYER_5
 10
203.2948
 20
191.0292
  0
VERTEX
  8
LAYER_5
 10
203.2948
 20
210.4319
  0
SEQEND
  0
INSERT
  8
LAYER_5
  2
AIGNBL05010026
 10
0
 20
0
 30
0
  0
INSERT
  8
LAYER_5
  2
AIGNBL05010027
 10
0
 20
0
 30
0
  0
POLYLINE
  8
LAYER_5
 40
0.1058
 41
0.1058
 66
1
 10
0
 20
0
 30
0
  0
VERTEX
  8
LAYER_5
 10
218.014
 20
189.1936
  0
VERTEX
  8
LAYER_5
 10
218.014
 20
199.1936
  0
VERTEX
  8
LAYER_5
 10
214.7329
 20
199.1936
  0
SEQEND
  0
TEXT
  8
LAYER_5
 10
223.6848
 20
190.2812
 11
223.6848
 21
190.2812
 40
5.3152
 41
0.5
 50
89.99999999
  1
100
  0
POLYLINE
  8
LAYER_5
  6
AIGENLINE001
 40
0.1058
 41
0.1058
 66
1
 10
0
 20
0
 30
0
 70
128
  0
VERTEX
  8
LAYER_5
 10
218.014
 20
189.1936
  0
VERTEX
  8
LAYER_5
 10
200.6612
 20
189.1936
  0
SEQEND
  0
POLYLINE
  8
LAYER_5
  6
AIGENLINE001
 40
0.1058
 41
0.1058
 66
1
 10
0
 20
0
 30
0
 70
128
  0
VERTEX
  8
LAYER_5
 10
218.014
 20
199.1791
  0
VERTEX
  8
LAYER_5
 10
205.8692
 20
199.1791
  0
SEQEND
  0
POLYLINE
  8
LAYER_5
 40
0.1058
 41
0.1058
 66
1
 10
0
 20
0
 30
0
  0
VERTEX
  8
LAYER_5
 10
139.1186
 20
187.1936
  0
VERTEX
  8
LAYER_5
 10
139.1186
 20
199.1936
  0
VERTEX
  8
LAYER_5
 10
139.5775
 20
199.1936
  0
SEQEND
  0
TEXT
  8
LAYER_5
 10
137.9743
 20
189.9047
 11
137.9743
 21
189.9047
 40
5.3152
 41
0.5
 50
89.99999999
  1
120
  0
POLYLINE
  8
LAYER_5
  6
AIGENLINE001
 40
0.1058
 41
0.1058
 66
1
 10
0
 20
0
 30
0
 70
128
  0
VERTEX
  8
LAYER_5
 10
139.1186
 20
187.1936
  0
VERTEX
  8
LAYER_5
 10
204.6376
 20
187.1936
  0
SEQEND
  0
POLYLINE
  8
LAYER_5
  6
AIGENLINE001
 40
0.1058
 41
0.1058
 66
1
 10
0
 20
0
 30
0
 70
128
  0
VERTEX
  8
LAYER_5
 10
139.1186
 20
199.174
  0
VERTEX
  8
LAYER_5
 10
149.6337
 20
199.174
  0
SEQEND
  0
POLYLINE
  8
LAYER_5
 40
0.1058
 41
0.1058
 66
1
 10
0
 20
0
 30
0
  0
VERTEX
  8
LAYER_5
 10
218.014
 20
134.1772
  0
VERTEX
  8
LAYER_5
 10
218.014
 20
145.1772
  0
VERTEX
  8
LAYER_5
 10
214.7329
 20
145.1772
  0
SEQEND
  0
TEXT
  8
LAYER_5
 10
223.5086
 20
135.665
 11
223.5086
 21
135.665
 40
5.3152
 41
0.5
 50
89.99999999
  1
110
  0
POLYLINE
  8
LAYER_5
  6
AIGENLINE001
 40
0.1058
 41
0.1058
 66
1
 10
0
 20
0
 30
0
 70
128
  0
VERTEX
  8
LAYER_5
 10
218.014
 20
145.1626
  0
VERTEX
  8
LAYER_5
 10
198.99
 20
145.1626
  0
SEQEND
  0
POLYLINE
  8
LAYER_5
  6
AIGENLINE001
 40
0.1058
 41
0.1058
 66
1
 10
0
 20
0
 30
0
 70
128
  0
VERTEX
  8
LAYER_5
 10
218.014
 20
134.1626
  0
VERTEX
  8
LAYER_5
 10
198.99
 20
134.1626
  0
SEQEND
  0
POLYLINE
  8
LAYER_5
 40
0.1058
 41
0.1058
 66
1
 10
0
 20
0
 30
0
  0
VERTEX
  8
LAYER_5
 10
218.014
 20
145.1772
  0
VERTEX
  8
LAYER_5
 10
218.014
 20
189.1772
  0
VERTEX
  8
LAYER_5
 10
214.7329
 20
189.1772
  0
SEQEND
  0
TEXT
  8
LAYER_5
 10
223.5086
 20
162.6877
 11
223.5086
 21
162.6877
 40
5.3152
 41
0.5
 50
89.99999999
  1
440
  0
TEXT
  8
LAYER_5
 10
174.4424
 20
206.8282
 11
174.4424
 21
206.8282
 40
5.3152
 41
0.5
  1
300
  0
TEXT
  8
LAYER_5
 10
193.7655
 20
206.5931
 11
193.7655
 21
206.5931
 40
5.3152
 41
0.5
  1
100
  0
POLYLINE
  8
LAYER_5
 40
0.1058
 41
0.1058
 66
1
 10
0
 20
0
 30
0
  0
VERTEX
  8
LAYER_5
 10
203.2948
 20
210.4319
  0
VERTEX
  8
LAYER_5
 10
203.2948
 20
213.4319
  0
SEQEND
  0
POLYLINE
  8
LAYER_5
 40
0.1058
 41
0.1058
 66
1
 10
0
 20
0
 30
0
  0
VERTEX
  8
LAYER_5
 10
215.2896
 20
211.9599
  0
VERTEX
  8
LAYER_5
 10
205.2896
 20
211.9599
  0
SEQEND
  0
POLYLINE
  8
LAYER_5
 40
0.1058
 41
0.1058
 66
1
 10
0
 20
0
 30
0
  0
VERTEX
  8
LAYER_5
 10
205.2896
 20
211.9599
  0
VERTEX
  8
LAYER_5
 10
195.2896
 20
211.9599
  0
SEQEND
  0
POLYLINE
  8
LAYER_5
 40
0.1058
 41
0.1058
 66
1
 10
0
 20
0
 30
0
  0
VERTEX
  8
LAYER_5
 10
195.2896
 20
211.9599
  0
VERTEX
  8
LAYER_5
 10
161.2896
 20
211.9599
  0
SEQEND
  0
POLYLINE
  8
LAYER_5
 40
0.1058
 41
0.1058
 66
1
 10
0
 20
0
 30
0
  0
VERTEX
  8
LAYER_5
 10
161.2896
 20
211.9599
  0
VERTEX
  8
LAYER_5
 10
151.2896
 20
211.9599
  0
SEQEND
  0
POLYLINE
  8
LAYER_5
 40
0.1058
 41
0.1058
 66
1
 10
0
 20
0
 30
0
  0
VERTEX
  8
LAYER_5
 10
151.2896
 20
211.9599
  0
VERTEX
  8
LAYER_5
 10
141.2896
 20
211.9599
  0
SEQEND
  0
POLYLINE
  8
LAYER_5
 40
0.1058
 41
0.1058
 66
1
 10
0
 20
0
 30
0
  0
VERTEX
  8
LAYER_5
 10
203.2941
 20
210.4319
  0
VERTEX
  8
LAYER_5
 10
203.2941
 20
213.4319
  0
SEQEND
  0
POLYLINE
  8
LAYER_5
 40
0.1058
 41
0.1058
 66
1
 10
0
 20
0
 30
0
  0
VERTEX
  8
LAYER_5
 10
193.2948
 20
210.4319
  0
VERTEX
  8
LAYER_5
 10
193.2948
 20
213.4319
  0
SEQEND
  0
POLYLINE
  8
LAYER_5
 40
0.1058
 41
0.1058
 66
1
 10
0
 20
0
 30
0
  0
VERTEX
  8
LAYER_5
 10
193.2941
 20
210.4319
  0
VERTEX
  8
LAYER_5
 10
193.2941
 20
213.4319
  0
SEQEND
  0
TEXT
  8
LAYER_5
 10
153.4164
 20
206.5931
 11
153.4164
 21
206.5931
 40
5.3152
 41
0.5
  1
100
  0
TEXT
  8
LAYER_5
 10
142.4211
 20
206.5931
 11
142.4211
 21
206.5931
 40
5.3152
 41
0.5
  1
120
  0
TEXT
  8
LAYER_5
 10
204.9257
 20
206.5931
 11
204.9257
 21
206.5931
 40
5.3152
 41
0.5
  1
120
  0
POLYLINE
  8
LAYER_5
 40
0.1058
 41
0.1058
 66
1
 10
0
 20
0
 30
0
  0
VERTEX
  8
LAYER_5
 10
163.2948
 20
210.4319
  0
VERTEX
  8
LAYER_5
 10
163.2948
 20
213.4319
  0
SEQEND
  0
POLYLINE
  8
LAYER_5
 40
0.1058
 41
0.1058
 66
1
 10
0
 20
0
 30
0
  0
VERTEX
  8
LAYER_5
 10
163.2941
 20
210.4319
  0
VERTEX
  8
LAYER_5
 10
163.2941
 20
213.4319
  0
SEQEND
  0
TEXT
  8
LAYER_5
 10
174.1551
 20
126.2485
 11
174.1551
 21
126.2485
 40
5.3152
 41
0.5
  1
410
  0
POLYLINE
  8
LAYER_5
 40
0.1058
 41
0.1058
 66
1
 10
0
 20
0
 30
0
  0
VERTEX
  8
LAYER_5
 10
155.8055
 20
131.5549
  0
VERTEX
  8
LAYER_5
 10
198.7979
 20
131.5549
  0
SEQEND
  0
POLYLINE
  8
LAYER_5
 40
0.1058
 41
0.1058
 66
1
 10
0
 20
0
 30
0
  0
VERTEX
  8
LAYER_5
 10
157.799
 20
133.0828
  0
VERTEX
  8
LAYER_5
 10
157.799
 20
130.0828
  0
SEQEND
  0
POLYLINE
  8
LAYER_5
  6
AIGENLINE001
 40
0.1058
 41
0.1058
 66
1
 10
0
 20
0
 30
0
 70
128
  0
VERTEX
  8
LAYER_5
 10
198.7904
 20
141.2013
  0
VERTEX
  8
LAYER_5
 10
198.7904
 20
133.0828
  0
SEQEND
  0
POLYLINE
  8
LAYER_5
  6
AIGENLINE001
 40
0.1058
 41
0.1058
 66
1
 10
0
 20
0
 30
0
 70
128
  0
VERTEX
  8
LAYER_5
 10
157.7979
 20
143.8411
  0
VERTEX
  8
LAYER_5
 10
157.7979
 20
133.0828
  0
SEQEND
  0
POLYLINE
  8
LAYER_5
 40
0.1058
 41
0.1058
 66
1
 10
0
 20
0
 30
0
  0
VERTEX
  8
LAYER_5
 10
198.7914
 20
133.0828
  0
VERTEX
  8
LAYER_5
 10
198.7914
 20
130.0828
  0
SEQEND
  0
TEXT
  8
LAYER_5
 10
204.8953
 20
126.2485
 11
204.8953
 21
126.2485
 40
5.3152
 41
0.5
  1
165
  0
POLYLINE
  8
LAYER_5
 40
0.1058
 41
0.1058
 66
1
 10
0
 20
0
 30
0
  0
VERTEX
  8
LAYER_5
 10
198.8011
 20
131.5549
  0
VERTEX
  8
LAYER_5
 10
215.2979
 20
131.5549
  0
SEQEND
  0
POLYLINE
  8
LAYER_5
 40
0.1058
 41
0.1058
 66
1
 10
0
 20
0
 30
0
  0
VERTEX
  8
LAYER_5
 10
198.7984
 20
133.0828
  0
VERTEX
  8
LAYER_5
 10
198.7984
 20
130.0828
  0
SEQEND
  0
POLYLINE
  8
LAYER_5
  6
AIGENLINE001
 40
0.1058
 41
0.1058
 66
1
 10
0
 20
0
 30
0
 70
128
  0
VERTEX
  8
LAYER_5
 10
215.2948
 20
143.8411
  0
VERTEX
  8
LAYER_5
 10
215.2948
 20
133.0828
  0
SEQEND
  0
POLYLINE
  8
LAYER_5
  6
AIGENLINE001
 40
0.1058
 41
0.1058
 66
1
 10
0
 20
0
 30
0
 70
128
  0
VERTEX
  8
LAYER_5
 10
141.2948
 20
143.8411
  0
VERTEX
  8
LAYER_5
 10
141.2948
 20
133.0828
  0
SEQEND
  0
POLYLINE
  8
LAYER_5
  6
AIGENLINE001
 40
0.1058
 41
0.1058
 66
1
 10
0
 20
0
 30
0
 70
128
  0
VERTEX
  8
LAYER_5
 10
198.7979
 20
143.8411
  0
VERTEX
  8
LAYER_5
 10
198.7979
 20
133.0828
  0
SEQEND
  0
POLYLINE
  8
LAYER_5
 40
0.1058
 41
0.1058
 66
1
 10
0
 20
0
 30
0
  0
VERTEX
  8
LAYER_5
 10
215.2952
 20
133.0828
  0
VERTEX
  8
LAYER_5
 10
215.2952
 20
130.0828
  0
SEQEND
  0
TEXT
  8
LAYER_5
 10
147.3953
 20
126.2485
 11
147.3953
 21
126.2485
 40
5.3152
 41
0.5
  1
165
  0
POLYLINE
  8
LAYER_5
 40
0.1058
 41
0.1058
 66
1
 10
0
 20
0
 30
0
  0
VERTEX
  8
LAYER_5
 10
141.3011
 20
131.5549
  0
VERTEX
  8
LAYER_5
 10
157.7979
 20
131.5549
  0
SEQEND
  0
POLYLINE
  8
LAYER_5
 40
0.1058
 41
0.1058
 66
1
 10
0
 20
0
 30
0
  0
VERTEX
  8
LAYER_5
 10
141.2984
 20
133.0828
  0
VERTEX
  8
LAYER_5
 10
141.2984
 20
130.0828
  0
SEQEND
  0
POLYLINE
  8
LAYER_5
 40
0.1058
 41
0.1058
 66
1
 10
0
 20
0
 30
0
  0
VERTEX
  8
LAYER_5
 10
157.7952
 20
133.0828
  0
VERTEX
  8
LAYER_5
 10
157.7952
 20
130.0828
  0
SEQEND
  0
POLYLINE
  8
LAYER_5
 40
0.1058
 41
0.1058
 66
1
 10
0
 20
0
 30
0
  0
VERTEX
  8
LAYER_5
 10
153.2948
 20
210.4319
  0
VERTEX
  8
LAYER_5
 10
153.2948
 20
213.4319
  0
SEQEND
  0
POLYLINE
  8
LAYER_5
  6
AIGENLINE001
 40
0.1058
 41
0.1058
 66
1
 10
0
 20
0
 30
0
 70
128
  0
VERTEX
  8
LAYER_5
 10
141.2948
 20
201.9736
  0
VERTEX
  8
LAYER_5
 10
141.2948
 20
210.4319
  0
SEQEND
  0
POLYLINE
  8
LAYER_5
 40
0.1058
 41
0.1058
 66
1
 10
0
 20
0
 30
0
  0
VERTEX
  8
LAYER_5
 10
141.2948
 20
210.4319
  0
VERTEX
  8
LAYER_5
 10
141.2948
 20
213.4319
  0
SEQEND
  0
POLYLINE
  8
LAYER_5
 40
0.1058
 41
0.1058
 66
1
 10
0
 20
0
 30
0
  0
VERTEX
  8
LAYER_5
 10
215.2948
 20
210.4319
  0
VERTEX
  8
LAYER_5
 10
215.2948
 20
213.4319
  0
SEQEND
  0
POLYLINE
  8
LAYER_5
 40
0.1058
 41
0.1058
 66
1
 10
0
 20
0
 30
0
  0
VERTEX
  8
LAYER_5
 10
215.2941
 20
210.4319
  0
VERTEX
  8
LAYER_5
 10
215.2941
 20
213.4319
  0
SEQEND
  0
TEXT
  8
LAYER_5
 10
175.6291
 20
169.301
 11
175.6291
 21
169.301
 40
5.3152
 41
0.5
  1
400
  0
POLYLINE
  8
LAYER_5
 40
0.1058
 41
0.1058
 66
1
 10
0
 20
0
 30
0
  0
VERTEX
  8
LAYER_5
 10
158.2896
 20
169.2915
  0
VERTEX
  8
LAYER_5
 10
158.2896
 20
166.2915
  0
SEQEND
  0
POLYLINE
  8
LAYER_5
 40
0.1058
 41
0.1058
 66
1
 10
0
 20
0
 30
0
  0
VERTEX
  8
LAYER_5
 10
141.2948
 20
167.7636
  0
VERTEX
  8
LAYER_5
 10
215.2948
 20
167.7636
  0
SEQEND
  0
POLYLINE
  8
LAYER_5
 40
0.1058
 41
0.1058
 66
1
 10
0
 20
0
 30
0
  0
VERTEX
  8
LAYER_5
 10
158.2903
 20
169.2915
  0
VERTEX
  8
LAYER_5
 10
158.2903
 20
166.2915
  0
SEQEND
  0
TEXT
  8
LAYER_5
 10
145.3984
 20
169.3011
 11
145.3984
 21
169.3011
 40
5.3152
 41
0.5
  1
170
  0
TEXT
  8
LAYER_5
 10
201.5355
 20
169.3011
 11
201.5355
 21
169.3011
 40
5.3152
 41
0.5
  1
170
  0
POLYLINE
  8
LAYER_5
  6
AIGENLINE001
 40
0.1058
 41
0.1058
 66
1
 10
0
 20
0
 30
0
 70
128
  0
VERTEX
  8
LAYER_5
 10
158.2896
 20
192.9525
  0
VERTEX
  8
LAYER_5
 10
158.2896
 20
169.2915
  0
SEQEND
  0
POLYLINE
  8
LAYER_5
 40
0.1058
 41
0.1058
 66
1
 10
0
 20
0
 30
0
  0
VERTEX
  8
LAYER_5
 10
198.2896
 20
169.2915
  0
VERTEX
  8
LAYER_5
 10
198.2896
 20
166.2915
  0
SEQEND
  0
POLYLINE
  8
LAYER_5
 40
0.1058
 41
0.1058
 66
1
 10
0
 20
0
 30
0
  0
VERTEX
  8
LAYER_5
 10
198.2903
 20
169.2915
  0
VERTEX
  8
LAYER_5
 10
198.2903
 20
166.2915
  0
SEQEND
  0
POLYLINE
  8
LAYER_5
  6
AIGENLINE001
 40
0.1058
 41
0.1058
 66
1
 10
0
 20
0
 30
0
 70
128
  0
VERTEX
  8
LAYER_5
 10
198.2896
 20
192.9525
  0
VERTEX
  8
LAYER_5
 10
198.2896
 20
169.2915
  0
SEQEND
  0
POLYLINE
  8
LAYER_5
 40
0.1058
 41
0.1058
 66
1
 10
0
 20
0
 30
0
 70
1
  0
VERTEX
  8
LAYER_5
 10
100.382
 20
135.7493
  0
VERTEX
  8
LAYER_5
 10
56.382
 20
135.7493
 42
-0.4142134339
  0
VERTEX
  8
LAYER_5
 10
41.382
 20
150.7493
  0
VERTEX
  8
LAYER_5
 10
41.382
 20
185.7493
 42
-0.4142133419
  0
VERTEX
  8
LAYER_5
 10
56.382
 20
200.7493
  0
VERTEX
  8
LAYER_5
 10
100.382
 20
200.7493
 42
-0.4142136911
  0
VERTEX
  8
LAYER_5
 10
115.382
 20
185.7493
  0
VERTEX
  8
LAYER_5
 10
115.382
 20
150.7493
 42
-0.4142137829
  0
SEQEND
  0
POLYLINE
  8
LAYER_5
 40
0.1058
 41
0.1058
 66
1
 10
0
 20
0
 30
0
 70
1
  0
VERTEX
  8
LAYER_5
 10
200.2948
 20
134.1757
  0
VERTEX
  8
LAYER_5
 10
156.2948
 20
134.1757
 42
-0.4142141584
  0
VERTEX
  8
LAYER_5
 10
141.2948
 20
149.1757
  0
VERTEX
  8
LAYER_5
 10
141.2948
 20
184.1757
 42
-0.4142125344
  0
VERTEX
  8
LAYER_5
 10
156.2948
 20
199.1757
  0
VERTEX
  8
LAYER_5
 10
200.2948
 20
199.1757
 42
-0.4142129666
  0
VERTEX
  8
LAYER_5
 10
215.2948
 20
184.1757
  0
VERTEX
  8
LAYER_5
 10
215.2948
 20
149.1757
 42
-0.4142145904
  0
SEQEND
  0
ENDSEC
  0
EOF
