  0
SECTION
  2
HEADER
  9
$ACADVER
  1
AC1009
  9
$LUNITS
 70
2
  9
$LUPREC
 70
4
  9
$LTSCALE
 40
1.0
  9
$EXTMIN
 10
-30.3177
 20
33.3285
 30
0
  9
$EXTMAX
 10
251.6749
 20
230.337
 30
0
  0
ENDSEC
  0
SECTION
  2
TABLES
  0
TABLE
  2
LTYPE
 70
256
  0
ENDTAB
  0
TABLE
  2
LAYER
 70
10
  0
LAYER
  2
LAYER_1
 70
64
 62
7
  6
CONTINUOUS
  0
LAYER
  2
LAYER_2
 70
64
 62
7
  6
CONTINUOUS
  0
LAYER
  2
LAYER_3
 70
64
 62
7
  6
CONTINUOUS
  0
LAYER
  2
LAYER_4
 70
64
 62
7
  6
CONTINUOUS
  0
LAYER
  2
LAYER_5
 70
64
 62
7
  6
CONTINUOUS
  0
LAYER
  2
LAYER_6
 70
64
 62
7
  6
CONTINUOUS
  0
LAYER
  2
LAYER_7
 70
64
 62
7
  6
CONTINUOUS
  0
LAYER
  2
LAYER_8
 70
64
 62
7
  6
CONTINUOUS
  0
LAYER
  2
LAYER_9
 70
64
 62
7
  6
CONTINUOUS
  0
LAYER
  2
LAYER_10
 70
64
 62
7
  6
CONTINUOUS
  0
ENDTAB
  0
TABLE
  2
STYLE
 70
6
  0
STYLE
  2
STANDARD
 70
0
 40
0
 50
0
 71
0
 41
0
 42
0
  3
TXT
  4
BIGFONT
  0
ENDTAB
  0
ENDSEC
  0
SECTION
  2
BLOCKS
  0
BLOCK
  8
LAYER_10
  2
AIGNBL0A040006
 70
64
 10
0
 20
0
 30
0
  3
AIGNBL0A040006
  0
POLYLINE
  8
LAYER_10
 40
0.05
 41
0.05
 66
1
 10
0
 20
0
 30
0
 70
1
  0
VERTEX
  8
LAYER_10
 10
146.7545
 20
39.1418
  0
VERTEX
  8
LAYER_10
 10
146.2656
 20
37.9567
  0
VERTEX
  8
LAYER_10
 10
145.6376
 20
37.9567
  0
VERTEX
  8
LAYER_10
 10
147.2372
 20
41.7225
  0
VERTEX
  8
LAYER_10
 10
147.9703
 20
41.7225
  0
VERTEX
  8
LAYER_10
 10
149.5768
 20
37.9567
  0
VERTEX
  8
LAYER_10
 10
148.9267
 20
37.9567
  0
VERTEX
  8
LAYER_10
 10
148.424
 20
39.1418
  0
SEQEND
  0
POLYLINE
  8
LAYER_10
 40
0.05
 41
0.05
 66
1
 10
0
 20
0
 30
0
 70
1
  0
VERTEX
  8
LAYER_10
 10
148.2983
 20
39.5207
  0
VERTEX
  8
LAYER_10
 10
147.8373
 20
40.6056
  0
VERTEX
  8
LAYER_10
 10
147.5927
 20
41.2926
  0
VERTEX
  8
LAYER_10
 10
147.5789
 20
41.2926
  0
VERTEX
  8
LAYER_10
 10
147.3412
 20
40.6101
  0
VERTEX
  8
LAYER_10
 10
146.8806
 20
39.5207
  0
SEQEND
  0
ENDBLK
  0
BLOCK
  8
LAYER_10
  2
AIGNBL0A040007
 70
64
 10
0
 20
0
 30
0
  3
AIGNBL0A040007
  0
POLYLINE
  8
LAYER_10
 40
0.05
 41
0.05
 66
1
 10
0
 20
0
 30
0
 70
1
  0
VERTEX
  8
LAYER_10
 10
153.942
 20
37.4034
 42
-0.01557776889
  0
VERTEX
  8
LAYER_10
 10
152.1399
 20
37.8395
  0
VERTEX
  8
LAYER_10
 10
151.8533
 20
37.895
 42
-0.08356586593
  0
VERTEX
  8
LAYER_10
 10
150.9892
 20
38.0612
 42
-0.09749891868
  0
VERTEX
  8
LAYER_10
 10
150.3281
 20
38.4671
 42
-0.2129139625
  0
VERTEX
  8
LAYER_10
 10
149.7793
 20
39.7998
 42
-0.09685063121
  0
VERTEX
  8
LAYER_10
 10
149.9239
 20
40.5732
 42
-0.2046489378
  0
VERTEX
  8
LAYER_10
 10
150.9715
 20
41.5974
 42
-0.09824326873
  0
VERTEX
  8
LAYER_10
 10
151.9725
 20
41.7838
 42
-0.08554303155
  0
VERTEX
  8
LAYER_10
 10
152.8411
 20
41.6425
 42
-0.100439485
  0
VERTEX
  8
LAYER_10
 10
153.5062
 20
41.2483
 42
-0.2140965971
  0
VERTEX
  8
LAYER_10
 10
154.0815
 20
39.8784
 42
-0.09539620281
  0
VERTEX
  8
LAYER_10
 10
153.9426
 20
39.1106
 42
-0.2143310008
  0
VERTEX
  8
LAYER_10
 10
152.9198
 20
38.1321
 42
-0.02339132607
  0
VERTEX
  8
LAYER_10
 10
152.7407
 20
38.0738
  0
VERTEX
  8
LAYER_10
 10
152.7407
 20
38.0514
 42
0.01711818545
  0
VERTEX
  8
LAYER_10
 10
154.117
 20
37.8113
  0
SEQEND
  0
POLYLINE
  8
LAYER_10
 40
0.05
 41
0.05
 66
1
 10
0
 20
0
 30
0
 70
1
  0
VERTEX
  8
LAYER_10
 10
153.4394
 20
39.857
 42
0.1071643265
  0
VERTEX
  8
LAYER_10
 10
153.2881
 20
40.5618
 42
0.2976270581
  0
VERTEX
  8
LAYER_10
 10
151.9511
 20
41.3873
 42
0.1072356843
  0
VERTEX
  8
LAYER_10
 10
151.2613
 20
41.2478
 42
0.2385874916
  0
VERTEX
  8
LAYER_10
 10
150.4743
 20
40.2422
 42
0.05751786987
  0
VERTEX
  8
LAYER_10
 10
150.4287
 20
39.8122
 42
0.218058121
  0
VERTEX
  8
LAYER_10
 10
150.9593
 20
38.6168
 42
0.1772828752
  0
VERTEX
  8
LAYER_10
 10
151.9232
 20
38.2912
 42
0.1075205619
  0
VERTEX
  8
LAYER_10
 10
152.6045
 20
38.4302
 42
0.2370768657
  0
VERTEX
  8
LAYER_10
 10
153.3917
 20
39.4298
 42
0.05602139055
  0
SEQEND
  0
ENDBLK
  0
BLOCK
  8
LAYER_10
  2
AIGNBL0A040008
 70
64
 10
0
 20
0
 30
0
  3
AIGNBL0A040008
  0
POLYLINE
  8
LAYER_10
 40
0.05
 41
0.05
 66
1
 10
0
 20
0
 30
0
 70
1
  0
VERTEX
  8
LAYER_10
 10
155.4089
 20
41.7225
  0
VERTEX
  8
LAYER_10
 10
155.4089
 20
39.4932
 42
0.114533087
  0
VERTEX
  8
LAYER_10
 10
155.5428
 20
38.8274
 42
0.1464774934
  0
VERTEX
  8
LAYER_10
 10
155.8932
 20
38.4422
 42
0.1362552487
  0
VERTEX
  8
LAYER_10
 10
156.5055
 20
38.2912
 42
0.1219300979
  0
VERTEX
  8
LAYER_10
 10
157.1286
 20
38.4259
 42
0.1503016186
  0
VERTEX
  8
LAYER_10
 10
157.5004
 20
38.7949
 42
0.1256239276
  0
VERTEX
  8
LAYER_10
 10
157.651
 20
39.4932
  0
VERTEX
  8
LAYER_10
 10
157.651
 20
41.7225
  0
VERTEX
  8
LAYER_10
 10
158.2656
 20
41.7225
  0
VERTEX
  8
LAYER_10
 10
158.2656
 20
39.5266
 42
-0.09996665729
  0
VERTEX
  8
LAYER_10
 10
158.1307
 20
38.7839
 42
-0.1215019567
  0
VERTEX
  8
LAYER_10
 10
157.7575
 20
38.2772
 42
-0.1106305922
  0
VERTEX
  8
LAYER_10
 10
157.132
 20
37.9706
 42
-0.06128719854
  0
VERTEX
  8
LAYER_10
 10
156.4845
 20
37.895
 42
-0.0941826643
  0
VERTEX
  8
LAYER_10
 10
155.6654
 20
38.0331
 42
-0.2431541134
  0
VERTEX
  8
LAYER_10
 10
154.8618
 20
38.9438
 42
-0.06321248355
  0
VERTEX
  8
LAYER_10
 10
154.7943
 20
39.5045
  0
VERTEX
  8
LAYER_10
 10
154.7943
 20
41.7225
  0
SEQEND
  0
ENDBLK
  0
BLOCK
  8
LAYER_10
  2
AIGNBL0A040009
 70
64
 10
0
 20
0
 30
0
  3
AIGNBL0A040009
  0
POLYLINE
  8
LAYER_10
 40
0.05
 41
0.05
 66
1
 10
0
 20
0
 30
0
 70
1
  0
VERTEX
  8
LAYER_10
 10
160.0119
 20
39.1418
  0
VERTEX
  8
LAYER_10
 10
159.5227
 20
37.9567
  0
VERTEX
  8
LAYER_10
 10
158.8947
 20
37.9567
  0
VERTEX
  8
LAYER_10
 10
160.4939
 20
41.7225
  0
VERTEX
  8
LAYER_10
 10
161.227
 20
41.7225
  0
VERTEX
  8
LAYER_10
 10
162.8335
 20
37.9567
  0
VERTEX
  8
LAYER_10
 10
162.1841
 20
37.9567
  0
VERTEX
  8
LAYER_10
 10
161.6814
 20
39.1418
  0
SEQEND
  0
POLYLINE
  8
LAYER_10
 40
0.05
 41
0.05
 66
1
 10
0
 20
0
 30
0
 70
1
  0
VERTEX
  8
LAYER_10
 10
161.5553
 20
39.5207
  0
VERTEX
  8
LAYER_10
 10
161.094
 20
40.6056
  0
VERTEX
  8
LAYER_10
 10
160.8494
 20
41.2926
  0
VERTEX
  8
LAYER_10
 10
160.8357
 20
41.2926
  0
VERTEX
  8
LAYER_10
 10
160.5983
 20
40.6101
  0
VERTEX
  8
LAYER_10
 10
160.1373
 20
39.5207
  0
SEQEND
  0
ENDBLK
  0
BLOCK
  8
LAYER_10
  2
AIGNBL0A04000A
 70
64
 10
0
 20
0
 30
0
  3
AIGNBL0A04000A
  0
POLYLINE
  8
LAYER_10
 40
0.05
 41
0.05
 66
1
 10
0
 20
0
 30
0
 70
1
  0
VERTEX
  8
LAYER_10
 10
163.8742
 20
41.6777
 42
-0.03245918394
  0
VERTEX
  8
LAYER_10
 10
165.0411
 20
41.7508
 42
-0.08084226265
  0
VERTEX
  8
LAYER_10
 10
165.9975
 20
41.619
 42
-0.07815635113
  0
VERTEX
  8
LAYER_10
 10
166.3609
 20
41.4379
 42
-0.2484709269
  0
VERTEX
  8
LAYER_10
 10
166.7726
 20
40.6497
 42
-0.226147
  0
VERTEX
  8
LAYER_10
 10
166.4095
 20
39.8456
 42
-0.1096895144
  0
VERTEX
  8
LAYER_10
 10
165.7812
 20
39.5323
 42
-0.06565832551
  0
VERTEX
  8
LAYER_10
 10
164.9708
 20
39.4319
 42
-0.06238309955
  0
VERTEX
  8
LAYER_10
 10
164.4823
 20
39.4653
  0
VERTEX
  8
LAYER_10
 10
164.4823
 20
37.9567
  0
VERTEX
  8
LAYER_10
 10
163.8742
 20
37.9567
  0
SEQEND
  0
POLYLINE
  8
LAYER_10
 40
0.05
 41
0.05
 66
1
 10
0
 20
0
 30
0
 70
1
  0
VERTEX
  8
LAYER_10
 10
164.4823
 20
39.8622
 42
0.04203451964
  0
VERTEX
  8
LAYER_10
 10
164.9846
 20
39.8229
 42
0.1032111168
  0
VERTEX
  8
LAYER_10
 10
165.7038
 20
39.9502
 42
0.1555938032
  0
VERTEX
  8
LAYER_10
 10
166.0686
 20
40.2546
 42
0.1352673748
  0
VERTEX
  8
LAYER_10
 10
166.1656
 20
40.6273
 42
0.1737047371
  0
VERTEX
  8
LAYER_10
 10
166.0308
 20
41.0346
 42
0.1517050813
  0
VERTEX
  8
LAYER_10
 10
165.6097
 20
41.2941
 42
0.06879756253
  0
VERTEX
  8
LAYER_10
 10
165.0552
 20
41.3649
 42
0.0634356619
  0
VERTEX
  8
LAYER_10
 10
164.4823
 20
41.3257
  0
SEQEND
  0
ENDBLK
  0
BLOCK
  8
LAYER_10
  2
AIGNBL0A04000B
 70
64
 10
0
 20
0
 30
0
  3
AIGNBL0A04000B
  0
POLYLINE
  8
LAYER_10
 40
0.05
 41
0.05
 66
1
 10
0
 20
0
 30
0
 70
1
  0
VERTEX
  8
LAYER_10
 10
168.3246
 20
41.4207
 42
-0.2767461975
  0
VERTEX
  8
LAYER_10
 10
168.1851
 20
41.1806
 42
-0.1265294091
  0
VERTEX
  8
LAYER_10
 10
167.9329
 20
41.1189
 42
-0.2237518698
  0
VERTEX
  8
LAYER_10
 10
167.6226
 20
41.2513
 42
-0.1708341408
  0
VERTEX
  8
LAYER_10
 10
167.5626
 20
41.4207
 42
-0.2643879937
  0
VERTEX
  8
LAYER_10
 10
167.712
 20
41.6678
 42
-0.1290073663
  0
VERTEX
  8
LAYER_10
 10
167.9467
 20
41.7277
 42
-0.225342086
  0
VERTEX
  8
LAYER_10
 10
168.2635
 20
41.597
 42
-0.1691136206
  0
SEQEND
  0
POLYLINE
  8
LAYER_10
 40
0.05
 41
0.05
 66
1
 10
0
 20
0
 30
0
 70
1
  0
VERTEX
  8
LAYER_10
 10
167.639
 20
37.9567
  0
VERTEX
  8
LAYER_10
 10
167.639
 20
40.6607
  0
VERTEX
  8
LAYER_10
 10
168.2537
 20
40.6607
  0
VERTEX
  8
LAYER_10
 10
168.2537
 20
37.9567
  0
SEQEND
  0
ENDBLK
  0
BLOCK
  8
LAYER_10
  2
AIGNBL0A04000C
 70
64
 10
0
 20
0
 30
0
  3
AIGNBL0A04000C
  0
POLYLINE
  8
LAYER_10
 40
0.05
 41
0.05
 66
1
 10
0
 20
0
 30
0
 70
1
  0
VERTEX
  8
LAYER_10
 10
170.1254
 20
39.1418
  0
VERTEX
  8
LAYER_10
 10
169.6372
 20
37.9567
  0
VERTEX
  8
LAYER_10
 10
169.0081
 20
37.9567
  0
VERTEX
  8
LAYER_10
 10
170.6077
 20
41.7225
  0
VERTEX
  8
LAYER_10
 10
171.3415
 20
41.7225
  0
VERTEX
  8
LAYER_10
 10
172.9479
 20
37.9567
  0
VERTEX
  8
LAYER_10
 10
172.2982
 20
37.9567
  0
VERTEX
  8
LAYER_10
 10
171.7955
 20
39.1418
  0
SEQEND
  0
POLYLINE
  8
LAYER_10
 40
0.05
 41
0.05
 66
1
 10
0
 20
0
 30
0
 70
1
  0
VERTEX
  8
LAYER_10
 10
171.6695
 20
39.5207
  0
VERTEX
  8
LAYER_10
 10
171.2085
 20
40.6056
  0
VERTEX
  8
LAYER_10
 10
170.9646
 20
41.2926
  0
VERTEX
  8
LAYER_10
 10
170.9498
 20
41.2926
  0
VERTEX
  8
LAYER_10
 10
170.7128
 20
40.6101
  0
VERTEX
  8
LAYER_10
 10
170.2518
 20
39.5207
  0
SEQEND
  0
ENDBLK
  0
BLOCK
  8
LAYER_1
  2
AIGNBL01030004
 70
64
 10
0
 20
0
 30
0
  3
AIGNBL01030004
  0
POLYLINE
  8
LAYER_1
 40
0.05
 41
0.05
 66
1
 10
0
 20
0
 30
0
 70
1
  0
VERTEX
  8
LAYER_1
 10
4.9063
 20
217.6157
 42
0.04182914852
  0
VERTEX
  8
LAYER_1
 10
2.9624
 20
213.4547
 42
0.03328315003
  0
VERTEX
  8
LAYER_1
 10
2.9295
 20
213.2259
 42
0.2324486861
  0
VERTEX
  8
LAYER_1
 10
3.0444
 20
212.898
 42
0.1559960625
  0
VERTEX
  8
LAYER_1
 10
3.1996
 20
212.8497
 42
0.1500928252
  0
VERTEX
  8
LAYER_1
 10
3.6854
 20
213.0432
 42
0.07756963584
  0
VERTEX
  8
LAYER_1
 10
4.7782
 20
214.1757
  0
VERTEX
  8
LAYER_1
 10
5.6456
 20
215.3581
 42
-0.4544383592
  0
VERTEX
  8
LAYER_1
 10
5.7311
 20
215.2685
 42
-0.0499497163
  0
VERTEX
  8
LAYER_1
 10
4.8636
 20
214.0145
 42
-0.05593277532
  0
VERTEX
  8
LAYER_1
 10
3.9255
 20
212.9927
 42
-0.1554089988
  0
VERTEX
  8
LAYER_1
 10
3.1852
 20
212.6347
 42
-0.1816423673
  0
VERTEX
  8
LAYER_1
 10
2.7889
 20
212.7759
 42
-0.1562546651
  0
VERTEX
  8
LAYER_1
 10
2.5416
 20
213.2154
 42
-0.05601001246
  0
VERTEX
  8
LAYER_1
 10
2.5023
 20
213.5663
 42
-0.07637831752
  0
VERTEX
  8
LAYER_1
 10
2.6625
 20
214.5207
 42
-0.05256372841
  0
VERTEX
  8
LAYER_1
 10
3.3117
 20
215.9376
 42
-0.01096304361
  0
VERTEX
  8
LAYER_1
 10
3.8535
 20
216.8987
  0
VERTEX
  8
LAYER_1
 10
3.8253
 20
216.9346
 42
0.009995554433
  0
VERTEX
  8
LAYER_1
 10
2.6164
 20
215.2861
 42
-0.3621607613
  0
VERTEX
  8
LAYER_1
 10
2.4169
 20
215.0532
 42
-0.3691981612
  0
VERTEX
  8
LAYER_1
 10
2.3604
 20
215.161
 42
-0.02093898728
  0
VERTEX
  8
LAYER_1
 10
2.7869
 20
215.8059
 42
0.03753217186
  0
VERTEX
  8
LAYER_1
 10
4.0103
 20
217.544
  0
SEQEND
  0
POLYLINE
  8
LAYER_1
 40
0.05
 41
0.05
 66
1
 10
0
 20
0
 30
0
  0
VERTEX
  8
LAYER_1
 10
5.902
 20
221.1272
 42
-0.2645819386
  0
VERTEX
  8
LAYER_1
 10
6.1504
 20
220.979
 42
-0.1313717447
  0
VERTEX
  8
LAYER_1
 10
6.2289
 20
220.6615
 42
-0.1479257762
  0
VERTEX
  8
LAYER_1
 10
6.0808
 20
220.1825
 42
-0.2434861401
  0
VERTEX
  8
LAYER_1
 10
5.7311
 20
219.9807
 42
-0.2645596975
  0
VERTEX
  8
LAYER_1
 10
5.4826
 20
220.1285
 42
-0.1314289649
  0
VERTEX
  8
LAYER_1
 10
5.4041
 20
220.4461
 42
-0.1477699537
  0
VERTEX
  8
LAYER_1
 10
5.5521
 20
220.9252
 42
-0.2436535532
  0
VERTEX
  8
LAYER_1
 10
5.902
 20
221.1272
  0
SEQEND
  0
ENDBLK
  0
BLOCK
  8
LAYER_1
  2
AIGNBL01030005
 70
64
 10
0
 20
0
 30
0
  3
AIGNBL01030005
  0
POLYLINE
  8
LAYER_1
 40
0.05
 41
0.05
 66
1
 10
0
 20
0
 30
0
 70
1
  0
VERTEX
  8
LAYER_1
 10
17.2374
 20
217.5437
  0
VERTEX
  8
LAYER_1
 10
14.8479
 20
212.5631
  0
VERTEX
  8
LAYER_1
 10
14.8764
 20
212.5273
 42
0.06961118952
  0
VERTEX
  8
LAYER_1
 10
15.7752
 20
213.2031
 42
0.05426361819
  0
VERTEX
  8
LAYER_1
 10
17.1805
 20
214.9102
 42
-0.3494868355
  0
VERTEX
  8
LAYER_1
 10
17.4795
 20
215.3043
 42
-0.3344315136
  0
VERTEX
  8
LAYER_1
 10
17.5361
 20
215.2148
 42
-0.1202755307
  0
VERTEX
  8
LAYER_1
 10
17.0245
 20
214.4262
 42
-0.04443239135
  0
VERTEX
  8
LAYER_1
 10
15.8856
 20
213.0938
 42
-0.08006074
  0
VERTEX
  8
LAYER_1
 10
14.7628
 20
212.2585
 42
-0.05738726757
  0
VERTEX
  8
LAYER_1
 10
12.6133
 20
208.2888
 42
-0.06126351635
  0
VERTEX
  8
LAYER_1
 10
11.7787
 20
207.381
 42
-0.1574249189
  0
VERTEX
  8
LAYER_1
 10
11.0217
 20
207.0447
 42
-0.3581647761
  0
VERTEX
  8
LAYER_1
 10
10.3516
 20
207.6025
 42
-0.05793404738
  0
VERTEX
  8
LAYER_1
 10
10.3107
 20
207.9587
 42
-0.09212459477
  0
VERTEX
  8
LAYER_1
 10
10.455
 20
208.7336
 42
-0.07837606923
  0
VERTEX
  8
LAYER_1
 10
10.9484
 20
209.5636
 42
-0.05091410641
  0
VERTEX
  8
LAYER_1
 10
12.0732
 20
210.6612
 42
-0.01559142986
  0
VERTEX
  8
LAYER_1
 10
14.0799
 20
212.1686
 42
-0.009330477856
  0
VERTEX
  8
LAYER_1
 10
15.0756
 20
214.7311
  0
VERTEX
  8
LAYER_1
 10
15.047
 20
214.7669
 42
-0.04805533495
  0
VERTEX
  8
LAYER_1
 10
14.1535
 20
213.4738
 42
-0.07650188253
  0
VERTEX
  8
LAYER_1
 10
13.412
 20
212.8038
 42
-0.138130861
  0
VERTEX
  8
LAYER_1
 10
12.8993
 20
212.6347
 42
-0.335548837
  0
VERTEX
  8
LAYER_1
 10
12.1547
 20
213.1867
 42
-0.0895096586
  0
VERTEX
  8
LAYER_1
 10
12.0173
 20
214.1933
 42
-0.02341423634
  0
VERTEX
  8
LAYER_1
 10
12.1169
 20
215.1248
 42
0.4654868072
  0
VERTEX
  8
LAYER_1
 10
12.0601
 20
215.179
 42
0.1630272392
  0
VERTEX
  8
LAYER_1
 10
11.9037
 20
215.0535
 42
-0.2810220748
  0
VERTEX
  8
LAYER_1
 10
11.8465
 20
215.161
 42
-0.08571449736
  0
VERTEX
  8
LAYER_1
 10
12.3019
 20
215.8418
 42
-0.1123159339
  0
VERTEX
  8
LAYER_1
 10
14.2269
 20
217.4173
 42
-0.1038873949
  0
VERTEX
  8
LAYER_1
 10
15.0046
 20
217.6157
 42
-0.1623419562
  0
VERTEX
  8
LAYER_1
 10
15.4672
 20
217.4842
 42
-0.1728584695
  0
VERTEX
  8
LAYER_1
 10
15.7046
 20
217.1049
 42
-0.05743852387
  0
VERTEX
  8
LAYER_1
 10
15.7443
 20
216.7554
 42
-0.06490921985
  0
VERTEX
  8
LAYER_1
 10
15.6871
 20
216.1284
  0
VERTEX
  8
LAYER_1
 10
15.7157
 20
216.0926
 42
0.02779165918
  0
VERTEX
  8
LAYER_1
 10
16.313
 20
217.4544
  0
SEQEND
  0
POLYLINE
  8
LAYER_1
 40
0.05
 41
0.05
 66
1
 10
0
 20
0
 30
0
  0
VERTEX
  8
LAYER_1
 10
11.093
 20
207.2597
 42
0.1570290008
  0
VERTEX
  8
LAYER_1
 10
11.5382
 20
207.4333
 42
0.07886163841
  0
VERTEX
  8
LAYER_1
 10
12.2027
 20
208.1538
 42
0.0415719359
  0
VERTEX
  8
LAYER_1
 10
13.1204
 20
209.7516
 42
0.03990883278
  0
VERTEX
  8
LAYER_1
 10
13.9663
 20
211.8823
 42
0.03580653757
  0
VERTEX
  8
LAYER_1
 10
12.0043
 20
210.2998
 42
0.05691474061
  0
VERTEX
  8
LAYER_1
 10
11.13
 20
209.2684
 42
0.08256761877
  0
VERTEX
  8
LAYER_1
 10
10.7391
 20
208.4059
 42
0.06228104981
  0
VERTEX
  8
LAYER_1
 10
10.6803
 20
207.9408
 42
0.1597134267
  0
VERTEX
  8
LAYER_1
 10
10.7817
 20
207.3892
 42
0.249960277
  0
VERTEX
  8
LAYER_1
 10
11.093
 20
207.2597
  0
SEQEND
  0
POLYLINE
  8
LAYER_1
 40
0.05
 41
0.05
 66
1
 10
0
 20
0
 30
0
  0
VERTEX
  8
LAYER_1
 10
12.5296
 20
213.405
 42
0.1701444447
  0
VERTEX
  8
LAYER_1
 10
12.6586
 20
212.9647
 42
0.2277208476
  0
VERTEX
  8
LAYER_1
 10
12.8993
 20
212.8497
 42
0.1426984981
  0
VERTEX
  8
LAYER_1
 10
13.3985
 20
213.0258
 42
0.07650960059
  0
VERTEX
  8
LAYER_1
 10
14.1253
 20
213.7165
 42
0.09212086883
  0
VERTEX
  8
LAYER_1
 10
15.5017
 20
216.2876
 42
0.07222213812
  0
VERTEX
  8
LAYER_1
 10
15.5734
 20
216.7375
 42
0.1554336511
  0
VERTEX
  8
LAYER_1
 10
15.462
 20
217.258
 42
0.2515073304
  0
VERTEX
  8
LAYER_1
 10
15.1469
 20
217.4003
 42
0.1320691391
  0
VERTEX
  8
LAYER_1
 10
14.6234
 20
217.239
 42
0.0808049093
  0
VERTEX
  8
LAYER_1
 10
13.9533
 20
216.6568
 42
0.05642940065
  0
VERTEX
  8
LAYER_1
 10
13.1827
 20
215.5144
 42
0.05288632916
  0
VERTEX
  8
LAYER_1
 10
12.6623
 20
214.2397
 42
0.06871674202
  0
VERTEX
  8
LAYER_1
 10
12.5296
 20
213.405
  0
SEQEND
  0
ENDBLK
  0
BLOCK
  8
LAYER_1
  2
AIGNBL01030006
 70
64
 10
0
 20
0
 30
0
  3
AIGNBL01030006
  0
POLYLINE
  8
LAYER_1
 40
0.05
 41
0.05
 66
1
 10
0
 20
0
 30
0
  0
VERTEX
  8
LAYER_1
 10
23.638
 20
214.1399
 42
0.1187240428
  0
VERTEX
  8
LAYER_1
 10
23.7948
 20
214.1037
 42
0.1284066644
  0
VERTEX
  8
LAYER_1
 10
24.3751
 20
214.268
 42
0.116046068
  0
VERTEX
  8
LAYER_1
 10
25.1173
 20
214.9819
 42
-0.366199693
  0
VERTEX
  8
LAYER_1
 10
25.3588
 20
215.2864
 42
-0.4641077838
  0
VERTEX
  8
LAYER_1
 10
25.4301
 20
215.1968
 42
-0.0793271657
  0
VERTEX
  8
LAYER_1
 10
25.0746
 20
214.6594
 42
-0.09563812419
  0
VERTEX
  8
LAYER_1
 10
24.4785
 20
214.1188
 42
-0.1341075092
  0
VERTEX
  8
LAYER_1
 10
23.6666
 20
213.8891
  0
VERTEX
  8
LAYER_1
 10
23.4812
 20
213.907
 42
-0.07008671535
  0
VERTEX
  8
LAYER_1
 10
22.7186
 20
213.0469
 42
-0.16852866
  0
VERTEX
  8
LAYER_1
 10
21.6609
 20
212.6347
 42
-0.1704590036
  0
VERTEX
  8
LAYER_1
 10
21.2429
 20
212.7771
 42
-0.1359890239
  0
VERTEX
  8
LAYER_1
 10
20.9301
 20
213.2379
 42
-0.09059084027
  0
VERTEX
  8
LAYER_1
 10
20.7789
 20
214.2295
 42
-0.04090549856
  0
VERTEX
  8
LAYER_1
 10
20.8502
 20
215.161
 42
0.5049551378
  0
VERTEX
  8
LAYER_1
 10
20.8075
 20
215.2682
 42
0.2187505907
  0
VERTEX
  8
LAYER_1
 10
20.5515
 20
214.9819
 42
-0.3919832673
  0
VERTEX
  8
LAYER_1
 10
20.4661
 20
215.0715
 42
-0.07133494799
  0
VERTEX
  8
LAYER_1
 10
21.2912
 20
216.2004
 42
-0.05997850008
  0
VERTEX
  8
LAYER_1
 10
22.1844
 20
217.0532
 42
-0.07656109021
  0
VERTEX
  8
LAYER_1
 10
23.0356
 20
217.5105
 42
-0.08284960657
  0
VERTEX
  8
LAYER_1
 10
23.6239
 20
217.6153
 42
-0.1643824702
  0
VERTEX
  8
LAYER_1
 10
24.0613
 20
217.473
 42
-0.1421309456
  0
VERTEX
  8
LAYER_1
 10
24.3698
 20
217.0354
 42
-0.08813591137
  0
VERTEX
  8
LAYER_1
 10
24.4772
 20
216.3792
 42
-0.07850896611
  0
VERTEX
  8
LAYER_1
 10
24.2997
 20
215.4131
 42
-0.08172993229
  0
VERTEX
  8
LAYER_1
 10
23.638
 20
214.1399
  0
SEQEND
  0
POLYLINE
  8
LAYER_1
 40
0.05
 41
0.05
 66
1
 10
0
 20
0
 30
0
  0
VERTEX
  8
LAYER_1
 10
23.6666
 20
217.4003
 42
0.1454676042
  0
VERTEX
  8
LAYER_1
 10
23.1574
 20
217.2223
 42
0.08180083461
  0
VERTEX
  8
LAYER_1
 10
22.5192
 20
216.5979
 42
0.107509864
  0
VERTEX
  8
LAYER_1
 10
21.4301
 20
214.23
 42
0.05381109228
  0
VERTEX
  8
LAYER_1
 10
21.3481
 20
213.5125
 42
0.1484986342
  0
VERTEX
  8
LAYER_1
 10
21.4648
 20
212.9835
 42
0.2534317247
  0
VERTEX
  8
LAYER_1
 10
21.7177
 20
212.8497
 42
0.1251568493
  0
VERTEX
  8
LAYER_1
 10
22.2802
 20
213.009
 42
0.08364469171
  0
VERTEX
  8
LAYER_1
 10
22.9358
 20
213.5483
 42
0.06188052107
  0
VERTEX
  8
LAYER_1
 10
23.592
 20
214.5047
 42
0.05969805522
  0
VERTEX
  8
LAYER_1
 10
24.0451
 20
215.6838
 42
0.06123129424
  0
VERTEX
  8
LAYER_1
 10
24.1644
 20
216.5945
 42
0.1300007557
  0
VERTEX
  8
LAYER_1
 10
24.0373
 20
217.1789
 42
0.272872463
  0
VERTEX
  8
LAYER_1
 10
23.6666
 20
217.4003
  0
SEQEND
  0
ENDBLK
  0
BLOCK
  8
LAYER_1
  2
AIGNBL01030007
 70
64
 10
0
 20
0
 30
0
  3
AIGNBL01030007
  0
POLYLINE
  8
LAYER_1
 40
0.05
 41
0.05
 66
1
 10
0
 20
0
 30
0
 70
1
  0
VERTEX
  8
LAYER_1
 10
32.1033
 20
221.0952
 42
-0.3925792471
  0
VERTEX
  8
LAYER_1
 10
33.1558
 20
220.0613
 42
-0.400759026
  0
VERTEX
  8
LAYER_1
 10
32.0967
 20
219.0216
 42
-0.2647078242
  0
VERTEX
  8
LAYER_1
 10
31.1596
 20
219.5604
 42
-0.1266534682
  0
VERTEX
  8
LAYER_1
 10
31.0319
 20
220.0613
 42
-0.3993947861
  0
VERTEX
  8
LAYER_1
 10
32.0967
 20
221.0952
  0
SEQEND
  0
POLYLINE
  8
LAYER_1
 40
0.05
 41
0.05
 66
1
 10
0
 20
0
 30
0
 70
1
  0
VERTEX
  8
LAYER_1
 10
32.0905
 20
220.8868
 42
0.4033780667
  0
VERTEX
  8
LAYER_1
 10
31.2968
 20
220.0613
 42
0.3026429833
  0
VERTEX
  8
LAYER_1
 10
31.8176
 20
219.2851
 42
0.08665446175
  0
VERTEX
  8
LAYER_1
 10
32.1033
 20
219.2355
 42
0.3233845104
  0
VERTEX
  8
LAYER_1
 10
32.8455
 20
219.7751
 42
0.07950063443
  0
VERTEX
  8
LAYER_1
 10
32.8912
 20
220.0613
 42
0.3017509426
  0
VERTEX
  8
LAYER_1
 10
32.3692
 20
220.8399
 42
0.08568518801
  0
VERTEX
  8
LAYER_1
 10
32.0967
 20
220.8868
  0
SEQEND
  0
POLYLINE
  8
LAYER_1
 40
0.05
 41
0.05
 66
1
 10
0
 20
0
 30
0
 70
1
  0
VERTEX
  8
LAYER_1
 10
31.9331
 20
219.5256
  0
VERTEX
  8
LAYER_1
 10
31.6937
 20
219.5256
  0
VERTEX
  8
LAYER_1
 10
31.6937
 20
220.553
  0
VERTEX
  8
LAYER_1
 10
32.0905
 20
220.5908
 42
-0.166692306
  0
VERTEX
  8
LAYER_1
 10
32.4499
 20
220.5089
 42
-0.2197275353
  0
VERTEX
  8
LAYER_1
 10
32.5505
 20
220.2884
 42
-0.3393247594
  0
VERTEX
  8
LAYER_1
 10
32.3365
 20
220.0424
  0
VERTEX
  8
LAYER_1
 10
32.3365
 20
220.03
 42
-0.2859890464
  0
VERTEX
  8
LAYER_1
 10
32.5257
 20
219.7778
 42
0.1810450575
  0
VERTEX
  8
LAYER_1
 10
32.6015
 20
219.5256
  0
VERTEX
  8
LAYER_1
 10
32.3427
 20
219.5256
  0
VERTEX
  8
LAYER_1
 10
32.2608
 20
219.7716
 42
0.4195390437
  0
VERTEX
  8
LAYER_1
 10
32.0464
 20
219.9356
  0
VERTEX
  8
LAYER_1
 10
31.9331
 20
219.9356
  0
SEQEND
  0
POLYLINE
  8
LAYER_1
 40
0.05
 41
0.05
 66
1
 10
0
 20
0
 30
0
 70
1
  0
VERTEX
  8
LAYER_1
 10
31.9397
 20
220.1054
  0
VERTEX
  8
LAYER_1
 10
32.0526
 20
220.1054
 42
0.4040156726
  0
VERTEX
  8
LAYER_1
 10
32.2924
 20
220.257
 42
0.3815136193
  0
VERTEX
  8
LAYER_1
 10
32.1513
 20
220.4072
 42
0.07573353892
  0
VERTEX
  8
LAYER_1
 10
32.0719
 20
220.4141
  0
VERTEX
  8
LAYER_1
 10
31.9397
 20
220.4017
  0
SEQEND
  0
ENDBLK
  0
BLOCK
  8
LAYER_10
  2
AIGNBL0A030005
 70
64
 10
0
 20
0
 30
0
  3
AIGNBL0A030005
  0
INSERT
  8
LAYER_10
  2
AIGNBL0A040006
 10
0
 20
0
 30
0
  0
INSERT
  8
LAYER_10
  2
AIGNBL0A040007
 10
0
 20
0
 30
0
  0
INSERT
  8
LAYER_10
  2
AIGNBL0A040008
 10
0
 20
0
 30
0
  0
INSERT
  8
LAYER_10
  2
AIGNBL0A040009
 10
0
 20
0
 30
0
  0
INSERT
  8
LAYER_10
  2
AIGNBL0A04000A
 10
0
 20
0
 30
0
  0
INSERT
  8
LAYER_10
  2
AIGNBL0A04000B
 10
0
 20
0
 30
0
  0
INSERT
  8
LAYER_10
  2
AIGNBL0A04000C
 10
0
 20
0
 30
0
  0
ENDBLK
  0
BLOCK
  8
LAYER_10
  2
AIGNBL0A03000E
 70
64
 10
0
 20
0
 30
0
  3
AIGNBL0A03000E
  0
POLYLINE
  8
LAYER_10
 40
0.05
 41
0.05
 66
1
 10
0
 20
0
 30
0
 70
1
  0
VERTEX
  8
LAYER_10
 10
145.7475
 20
36.0574
  0
VERTEX
  8
LAYER_10
 10
146.3008
 20
36.0574
  0
VERTEX
  8
LAYER_10
 10
146.3008
 20
35.9637
  0
VERTEX
  8
LAYER_10
 10
145.6424
 20
35.9637
  0
VERTEX
  8
LAYER_10
 10
145.6424
 20
36.9969
  0
VERTEX
  8
LAYER_10
 10
146.2832
 20
36.9969
  0
VERTEX
  8
LAYER_10
 10
146.2832
 20
36.9035
  0
VERTEX
  8
LAYER_10
 10
145.7475
 20
36.9035
  0
VERTEX
  8
LAYER_10
 10
145.7475
 20
36.549
  0
VERTEX
  8
LAYER_10
 10
146.2481
 20
36.549
  0
VERTEX
  8
LAYER_10
 10
146.2481
 20
36.4557
  0
VERTEX
  8
LAYER_10
 10
145.7475
 20
36.4557
  0
SEQEND
  0
ENDBLK
  0
BLOCK
  8
LAYER_10
  2
AIGNBL0A03000F
 70
64
 10
0
 20
0
 30
0
  3
AIGNBL0A03000F
  0
POLYLINE
  8
LAYER_10
 40
0.05
 41
0.05
 66
1
 10
0
 20
0
 30
0
 70
1
  0
VERTEX
  8
LAYER_10
 10
147.4404
 20
36.117
  0
VERTEX
  8
LAYER_10
 10
147.4432
 20
36.117
  0
VERTEX
  8
LAYER_10
 10
147.4432
 20
36.9969
  0
VERTEX
  8
LAYER_10
 10
147.5483
 20
36.9969
  0
VERTEX
  8
LAYER_10
 10
147.5483
 20
35.9637
  0
VERTEX
  8
LAYER_10
 10
147.4174
 20
35.9637
  0
VERTEX
  8
LAYER_10
 10
146.8162
 20
36.8525
  0
VERTEX
  8
LAYER_10
 10
146.8127
 20
36.8525
  0
VERTEX
  8
LAYER_10
 10
146.8127
 20
35.9637
  0
VERTEX
  8
LAYER_10
 10
146.708
 20
35.9637
  0
VERTEX
  8
LAYER_10
 10
146.708
 20
36.9969
  0
VERTEX
  8
LAYER_10
 10
146.8393
 20
36.9969
  0
SEQEND
  0
ENDBLK
  0
BLOCK
  8
LAYER_10
  2
AIGNBL0A030010
 70
64
 10
0
 20
0
 30
0
  3
AIGNBL0A030010
  0
POLYLINE
  8
LAYER_10
 40
0.05
 41
0.05
 66
1
 10
0
 20
0
 30
0
 70
1
  0
VERTEX
  8
LAYER_10
 10
148.0213
 20
36.1756
  0
VERTEX
  8
LAYER_10
 10
148.0757
 20
36.0725
 42
0.1803975231
  0
VERTEX
  8
LAYER_10
 10
148.1891
 20
36.0309
  0
VERTEX
  8
LAYER_10
 10
148.2783
 20
36.0505
  0
VERTEX
  8
LAYER_10
 10
148.3344
 20
36.1039
  0
VERTEX
  8
LAYER_10
 10
148.3634
 20
36.1804
  0
VERTEX
  8
LAYER_10
 10
148.3717
 20
36.27
  0
VERTEX
  8
LAYER_10
 10
148.3717
 20
36.9969
  0
VERTEX
  8
LAYER_10
 10
148.4767
 20
36.9969
  0
VERTEX
  8
LAYER_10
 10
148.4767
 20
36.2614
  0
VERTEX
  8
LAYER_10
 10
148.4654
 20
36.1535
  0
VERTEX
  8
LAYER_10
 10
148.424
 20
36.0485
  0
VERTEX
  8
LAYER_10
 10
148.3393
 20
35.9689
  0
VERTEX
  8
LAYER_10
 10
148.2004
 20
35.9375
 42
-0.1845231376
  0
VERTEX
  8
LAYER_10
 10
148.0158
 20
35.9974
 42
-0.1765285731
  0
VERTEX
  8
LAYER_10
 10
147.9234
 20
36.149
  0
SEQEND
  0
ENDBLK
  0
BLOCK
  8
LAYER_10
  2
AIGNBL0A030011
 70
64
 10
0
 20
0
 30
0
  3
AIGNBL0A030011
  0
POLYLINE
  8
LAYER_10
 40
0.05
 41
0.05
 66
1
 10
0
 20
0
 30
0
 70
1
  0
VERTEX
  8
LAYER_10
 10
149.965
 20
36.4805
 42
-0.1041417444
  0
VERTEX
  8
LAYER_10
 10
149.924
 20
36.2631
 42
-0.10057123
  0
VERTEX
  8
LAYER_10
 10
149.8113
 20
36.0915
  0
VERTEX
  8
LAYER_10
 10
149.6405
 20
35.9785
 42
-0.0950295922
  0
VERTEX
  8
LAYER_10
 10
149.4265
 20
35.9375
 42
-0.1010765979
  0
VERTEX
  8
LAYER_10
 10
149.2129
 20
35.9785
 42
-0.1000570207
  0
VERTEX
  8
LAYER_10
 10
149.042
 20
36.0915
 42
-0.09442769366
  0
VERTEX
  8
LAYER_10
 10
148.9287
 20
36.2631
 42
-0.09293305267
  0
VERTEX
  8
LAYER_10
 10
148.8881
 20
36.4805
 42
-0.1024980643
  0
VERTEX
  8
LAYER_10
 10
148.9287
 20
36.6978
 42
-0.1008832254
  0
VERTEX
  8
LAYER_10
 10
149.042
 20
36.8694
 42
-0.09625117665
  0
VERTEX
  8
LAYER_10
 10
149.2129
 20
36.9824
 42
-0.0952064105
  0
VERTEX
  8
LAYER_10
 10
149.4265
 20
37.0234
 42
-0.1012184087
  0
VERTEX
  8
LAYER_10
 10
149.6405
 20
36.9824
 42
-0.09890806396
  0
VERTEX
  8
LAYER_10
 10
149.8113
 20
36.8694
 42
-0.09577200427
  0
VERTEX
  8
LAYER_10
 10
149.924
 20
36.6978
 42
-0.09400765476
  0
SEQEND
  0
POLYLINE
  8
LAYER_10
 40
0.05
 41
0.05
 66
1
 10
0
 20
0
 30
0
 70
1
  0
VERTEX
  8
LAYER_10
 10
149.8541
 20
36.4798
  0
VERTEX
  8
LAYER_10
 10
149.8251
 20
36.6517
  0
VERTEX
  8
LAYER_10
 10
149.7404
 20
36.795
  0
VERTEX
  8
LAYER_10
 10
149.6053
 20
36.8932
  0
VERTEX
  8
LAYER_10
 10
149.4265
 20
36.93
  0
VERTEX
  8
LAYER_10
 10
149.2478
 20
36.8932
  0
VERTEX
  8
LAYER_10
 10
149.113
 20
36.795
  0
VERTEX
  8
LAYER_10
 10
149.0283
 20
36.6517
  0
VERTEX
  8
LAYER_10
 10
148.999
 20
36.4798
  0
VERTEX
  8
LAYER_10
 10
149.0283
 20
36.3079
  0
VERTEX
  8
LAYER_10
 10
149.113
 20
36.1649
  0
VERTEX
  8
LAYER_10
 10
149.2478
 20
36.0674
 42
0.1008814383
  0
VERTEX
  8
LAYER_10
 10
149.4265
 20
36.0309
 42
0.1157330551
  0
VERTEX
  8
LAYER_10
 10
149.6053
 20
36.0674
  0
VERTEX
  8
LAYER_10
 10
149.7404
 20
36.1649
  0
VERTEX
  8
LAYER_10
 10
149.8251
 20
36.3079
  0
SEQEND
  0
ENDBLK
  0
BLOCK
  8
LAYER_10
  2
AIGNBL0A030012
 70
64
 10
0
 20
0
 30
0
  3
AIGNBL0A030012
  0
POLYLINE
  8
LAYER_10
 40
0.05
 41
0.05
 66
1
 10
0
 20
0
 30
0
 70
1
  0
VERTEX
  8
LAYER_10
 10
150.7398
 20
35.9637
  0
VERTEX
  8
LAYER_10
 10
150.6351
 20
35.9637
  0
VERTEX
  8
LAYER_10
 10
150.6351
 20
36.4091
  0
VERTEX
  8
LAYER_10
 10
150.2482
 20
36.9969
  0
VERTEX
  8
LAYER_10
 10
150.3795
 20
36.9969
  0
VERTEX
  8
LAYER_10
 10
150.6905
 20
36.4967
  0
VERTEX
  8
LAYER_10
 10
151.0041
 20
36.9969
  0
VERTEX
  8
LAYER_10
 10
151.1263
 20
36.9969
  0
VERTEX
  8
LAYER_10
 10
150.7398
 20
36.4091
  0
SEQEND
  0
ENDBLK
  0
BLOCK
  8
LAYER_10
  2
AIGNBL0A030013
 70
64
 10
0
 20
0
 30
0
  3
AIGNBL0A030013
  0
POLYLINE
  8
LAYER_10
 40
0.05
 41
0.05
 66
1
 10
0
 20
0
 30
0
 70
1
  0
VERTEX
  8
LAYER_10
 10
152.0314
 20
36.9969
  0
VERTEX
  8
LAYER_10
 10
152.339
 20
36.9969
  0
VERTEX
  8
LAYER_10
 10
152.4575
 20
36.9845
  0
VERTEX
  8
LAYER_10
 10
152.5643
 20
36.9421
  0
VERTEX
  8
LAYER_10
 10
152.6422
 20
36.8611
  0
VERTEX
  8
LAYER_10
 10
152.6718
 20
36.733
 42
-0.1790346201
  0
VERTEX
  8
LAYER_10
 10
152.6219
 20
36.5907
 42
-0.1642933266
  0
VERTEX
  8
LAYER_10
 10
152.4885
 20
36.5111
  0
VERTEX
  8
LAYER_10
 10
152.4885
 20
36.5084
 42
-0.1735805246
  0
VERTEX
  8
LAYER_10
 10
152.6553
 20
36.4302
 42
-0.1921994171
  0
VERTEX
  8
LAYER_10
 10
152.7214
 20
36.2496
  0
VERTEX
  8
LAYER_10
 10
152.6942
 20
36.1325
  0
VERTEX
  8
LAYER_10
 10
152.6181
 20
36.0419
  0
VERTEX
  8
LAYER_10
 10
152.4972
 20
35.9844
  0
VERTEX
  8
LAYER_10
 10
152.3373
 20
35.9637
  0
VERTEX
  8
LAYER_10
 10
152.0314
 20
35.9637
  0
SEQEND
  0
POLYLINE
  8
LAYER_10
 40
0.05
 41
0.05
 66
1
 10
0
 20
0
 30
0
 70
1
  0
VERTEX
  8
LAYER_10
 10
152.1364
 20
36.5445
  0
VERTEX
  8
LAYER_10
 10
152.348
 20
36.5445
  0
VERTEX
  8
LAYER_10
 10
152.4248
 20
36.5535
  0
VERTEX
  8
LAYER_10
 10
152.4951
 20
36.5831
  0
VERTEX
  8
LAYER_10
 10
152.5471
 20
36.6396
  0
VERTEX
  8
LAYER_10
 10
152.5668
 20
36.7258
  0
VERTEX
  8
LAYER_10
 10
152.5471
 20
36.8095
  0
VERTEX
  8
LAYER_10
 10
152.494
 20
36.8656
  0
VERTEX
  8
LAYER_10
 10
152.4152
 20
36.897
  0
VERTEX
  8
LAYER_10
 10
152.3187
 20
36.9066
  0
VERTEX
  8
LAYER_10
 10
152.1364
 20
36.9066
  0
SEQEND
  0
POLYLINE
  8
LAYER_10
 40
0.05
 41
0.05
 66
1
 10
0
 20
0
 30
0
 70
1
  0
VERTEX
  8
LAYER_10
 10
152.1364
 20
36.0543
  0
VERTEX
  8
LAYER_10
 10
152.3321
 20
36.0543
  0
VERTEX
  8
LAYER_10
 10
152.4406
 20
36.0653
  0
VERTEX
  8
LAYER_10
 10
152.5313
 20
36.1001
  0
VERTEX
  8
LAYER_10
 10
152.5929
 20
36.1632
  0
VERTEX
  8
LAYER_10
 10
152.6164
 20
36.2559
 42
0.2557371221
  0
VERTEX
  8
LAYER_10
 10
152.5471
 20
36.4081
 42
0.1381508151
  0
VERTEX
  8
LAYER_10
 10
152.3511
 20
36.4584
  0
VERTEX
  8
LAYER_10
 10
152.1364
 20
36.4584
  0
SEQEND
  0
ENDBLK
  0
BLOCK
  8
LAYER_10
  2
AIGNBL0A030014
 70
64
 10
0
 20
0
 30
0
  3
AIGNBL0A030014
  0
POLYLINE
  8
LAYER_10
 40
0.05
 41
0.05
 66
1
 10
0
 20
0
 30
0
 70
1
  0
VERTEX
  8
LAYER_10
 10
153.1534
 20
35.9637
  0
VERTEX
  8
LAYER_10
 10
153.038
 20
35.9637
  0
VERTEX
  8
LAYER_10
 10
153.4849
 20
36.9969
  0
VERTEX
  8
LAYER_10
 10
153.5872
 20
36.9969
  0
VERTEX
  8
LAYER_10
 10
154.0306
 20
35.9637
  0
VERTEX
  8
LAYER_10
 10
153.9138
 20
35.9637
  0
VERTEX
  8
LAYER_10
 10
153.7997
 20
36.2352
  0
VERTEX
  8
LAYER_10
 10
153.2657
 20
36.2352
  0
SEQEND
  0
POLYLINE
  8
LAYER_10
 40
0.05
 41
0.05
 66
1
 10
0
 20
0
 30
0
 70
1
  0
VERTEX
  8
LAYER_10
 10
153.305
 20
36.3316
  0
VERTEX
  8
LAYER_10
 10
153.7604
 20
36.3316
  0
VERTEX
  8
LAYER_10
 10
153.5327
 20
36.8804
  0
SEQEND
  0
ENDBLK
  0
BLOCK
  8
LAYER_10
  2
AIGNBL0A030015
 70
64
 10
0
 20
0
 30
0
  3
AIGNBL0A030015
  0
POLYLINE
  8
LAYER_10
 40
0.05
 41
0.05
 66
1
 10
0
 20
0
 30
0
 70
1
  0
VERTEX
  8
LAYER_10
 10
154.7151
 20
35.9637
  0
VERTEX
  8
LAYER_10
 10
154.61
 20
35.9637
  0
VERTEX
  8
LAYER_10
 10
154.61
 20
36.9035
  0
VERTEX
  8
LAYER_10
 10
154.2638
 20
36.9035
  0
VERTEX
  8
LAYER_10
 10
154.2638
 20
36.9969
  0
VERTEX
  8
LAYER_10
 10
155.0606
 20
36.9969
  0
VERTEX
  8
LAYER_10
 10
155.0606
 20
36.9035
  0
VERTEX
  8
LAYER_10
 10
154.7151
 20
36.9035
  0
SEQEND
  0
ENDBLK
  0
BLOCK
  8
LAYER_10
  2
AIGNBL0A030016
 70
64
 10
0
 20
0
 30
0
  3
AIGNBL0A030016
  0
POLYLINE
  8
LAYER_10
 40
0.05
 41
0.05
 66
1
 10
0
 20
0
 30
0
 70
1
  0
VERTEX
  8
LAYER_10
 10
155.4169
 20
36.9969
  0
VERTEX
  8
LAYER_10
 10
155.5216
 20
36.9969
  0
VERTEX
  8
LAYER_10
 10
155.5216
 20
36.549
  0
VERTEX
  8
LAYER_10
 10
156.0852
 20
36.549
  0
VERTEX
  8
LAYER_10
 10
156.0852
 20
36.9969
  0
VERTEX
  8
LAYER_10
 10
156.1903
 20
36.9969
  0
VERTEX
  8
LAYER_10
 10
156.1903
 20
35.9637
  0
VERTEX
  8
LAYER_10
 10
156.0852
 20
35.9637
  0
VERTEX
  8
LAYER_10
 10
156.0852
 20
36.4529
  0
VERTEX
  8
LAYER_10
 10
155.5216
 20
36.4529
  0
VERTEX
  8
LAYER_10
 10
155.5216
 20
35.9637
  0
VERTEX
  8
LAYER_10
 10
155.4169
 20
35.9637
  0
SEQEND
  0
ENDBLK
  0
BLOCK
  8
LAYER_10
  2
AIGNBL0A030017
 70
64
 10
0
 20
0
 30
0
  3
AIGNBL0A030017
  0
POLYLINE
  8
LAYER_10
 40
0.05
 41
0.05
 66
1
 10
0
 20
0
 30
0
 70
1
  0
VERTEX
  8
LAYER_10
 10
156.7708
 20
35.9637
  0
VERTEX
  8
LAYER_10
 10
156.6657
 20
35.9637
  0
VERTEX
  8
LAYER_10
 10
156.6657
 20
36.9969
  0
VERTEX
  8
LAYER_10
 10
156.9696
 20
36.9969
  0
VERTEX
  8
LAYER_10
 10
157.1101
 20
36.9824
  0
VERTEX
  8
LAYER_10
 10
157.2228
 20
36.9349
  0
VERTEX
  8
LAYER_10
 10
157.2962
 20
36.8494
  0
VERTEX
  8
LAYER_10
 10
157.3223
 20
36.7213
  0
VERTEX
  8
LAYER_10
 10
157.3024
 20
36.6176
  0
VERTEX
  8
LAYER_10
 10
157.2469
 20
36.5366
  0
VERTEX
  8
LAYER_10
 10
157.1635
 20
36.4818
  0
VERTEX
  8
LAYER_10
 10
157.0585
 20
36.4557
  0
VERTEX
  8
LAYER_10
 10
157.3606
 20
35.9637
  0
VERTEX
  8
LAYER_10
 10
157.2321
 20
35.9637
  0
VERTEX
  8
LAYER_10
 10
156.9461
 20
36.4467
  0
VERTEX
  8
LAYER_10
 10
156.7708
 20
36.4467
  0
SEQEND
  0
POLYLINE
  8
LAYER_10
 40
0.05
 41
0.05
 66
1
 10
0
 20
0
 30
0
 70
1
  0
VERTEX
  8
LAYER_10
 10
156.7708
 20
36.5373
  0
VERTEX
  8
LAYER_10
 10
156.9534
 20
36.5373
 42
0.165389034
  0
VERTEX
  8
LAYER_10
 10
157.1491
 20
36.5831
 42
0.2500512188
  0
VERTEX
  8
LAYER_10
 10
157.2176
 20
36.7213
  0
VERTEX
  8
LAYER_10
 10
157.1983
 20
36.8071
  0
VERTEX
  8
LAYER_10
 10
157.146
 20
36.8643
  0
VERTEX
  8
LAYER_10
 10
157.0643
 20
36.8963
  0
VERTEX
  8
LAYER_10
 10
156.9578
 20
36.9066
  0
VERTEX
  8
LAYER_10
 10
156.7708
 20
36.9066
  0
SEQEND
  0
ENDBLK
  0
BLOCK
  8
LAYER_10
  2
AIGNBL0A030018
 70
64
 10
0
 20
0
 30
0
  3
AIGNBL0A030018
  0
POLYLINE
  8
LAYER_10
 40
0.05
 41
0.05
 66
1
 10
0
 20
0
 30
0
 70
1
  0
VERTEX
  8
LAYER_10
 10
158.7627
 20
36.4805
 42
-0.1007216321
  0
VERTEX
  8
LAYER_10
 10
158.7221
 20
36.2631
 42
-0.1006914115
  0
VERTEX
  8
LAYER_10
 10
158.6087
 20
36.0915
 42
-0.09598545762
  0
VERTEX
  8
LAYER_10
 10
158.4382
 20
35.9785
 42
-0.09506675375
  0
VERTEX
  8
LAYER_10
 10
158.2243
 20
35.9375
 42
-0.1012083438
  0
VERTEX
  8
LAYER_10
 10
158.0103
 20
35.9785
 42
-0.1000476754
  0
VERTEX
  8
LAYER_10
 10
157.8398
 20
36.0915
 42
-0.09637642458
  0
VERTEX
  8
LAYER_10
 10
157.7268
 20
36.2631
 42
-0.09293305267
  0
VERTEX
  8
LAYER_10
 10
157.6862
 20
36.4805
 42
-0.1024980643
  0
VERTEX
  8
LAYER_10
 10
157.7268
 20
36.6978
 42
-0.101511181
  0
VERTEX
  8
LAYER_10
 10
157.8398
 20
36.8694
 42
-0.09563682649
  0
VERTEX
  8
LAYER_10
 10
158.0103
 20
36.9824
 42
-0.09502028874
  0
VERTEX
  8
LAYER_10
 10
158.2243
 20
37.0234
 42
-0.101175466
  0
VERTEX
  8
LAYER_10
 10
158.4382
 20
36.9824
 42
-0.1020868526
  0
VERTEX
  8
LAYER_10
 10
158.6087
 20
36.8694
 42
-0.09463764759
  0
VERTEX
  8
LAYER_10
 10
158.7221
 20
36.6978
 42
-0.09279149058
  0
SEQEND
  0
POLYLINE
  8
LAYER_10
 40
0.05
 41
0.05
 66
1
 10
0
 20
0
 30
0
 70
1
  0
VERTEX
  8
LAYER_10
 10
158.6518
 20
36.4798
  0
VERTEX
  8
LAYER_10
 10
158.6225
 20
36.6517
  0
VERTEX
  8
LAYER_10
 10
158.5378
 20
36.795
  0
VERTEX
  8
LAYER_10
 10
158.4031
 20
36.8932
  0
VERTEX
  8
LAYER_10
 10
158.2243
 20
36.93
  0
VERTEX
  8
LAYER_10
 10
158.0455
 20
36.8932
  0
VERTEX
  8
LAYER_10
 10
157.9104
 20
36.795
  0
VERTEX
  8
LAYER_10
 10
157.8257
 20
36.6517
  0
VERTEX
  8
LAYER_10
 10
157.7968
 20
36.4798
  0
VERTEX
  8
LAYER_10
 10
157.8257
 20
36.3079
  0
VERTEX
  8
LAYER_10
 10
157.9104
 20
36.1649
  0
VERTEX
  8
LAYER_10
 10
158.0455
 20
36.0674
 42
0.1008280473
  0
VERTEX
  8
LAYER_10
 10
158.2243
 20
36.0309
  0
VERTEX
  8
LAYER_10
 10
158.4031
 20
36.0674
  0
VERTEX
  8
LAYER_10
 10
158.5378
 20
36.1649
  0
VERTEX
  8
LAYER_10
 10
158.6225
 20
36.3079
  0
SEQEND
  0
ENDBLK
  0
BLOCK
  8
LAYER_10
  2
AIGNBL0A030019
 70
64
 10
0
 20
0
 30
0
  3
AIGNBL0A030019
  0
POLYLINE
  8
LAYER_10
 40
0.05
 41
0.05
 66
1
 10
0
 20
0
 30
0
 70
1
  0
VERTEX
  8
LAYER_10
 10
160.2045
 20
36.4805
 42
-0.1041417444
  0
VERTEX
  8
LAYER_10
 10
160.1635
 20
36.2631
 42
-0.09974098701
  0
VERTEX
  8
LAYER_10
 10
160.0509
 20
36.0915
 42
-0.09536265516
  0
VERTEX
  8
LAYER_10
 10
159.88
 20
35.9785
 42
-0.09506675375
  0
VERTEX
  8
LAYER_10
 10
159.6661
 20
35.9375
 42
-0.1018653774
  0
VERTEX
  8
LAYER_10
 10
159.4524
 20
35.9785
 42
-0.1019766254
  0
VERTEX
  8
LAYER_10
 10
159.2816
 20
36.0915
 42
-0.09463339148
  0
VERTEX
  8
LAYER_10
 10
159.1682
 20
36.2631
 42
-0.09293305267
  0
VERTEX
  8
LAYER_10
 10
159.1276
 20
36.4805
 42
-0.1024980643
  0
VERTEX
  8
LAYER_10
 10
159.1682
 20
36.6978
 42
-0.1011981835
  0
VERTEX
  8
LAYER_10
 10
159.2816
 20
36.8694
 42
-0.09612009159
  0
VERTEX
  8
LAYER_10
 10
159.4524
 20
36.9824
 42
-0.09524800311
  0
VERTEX
  8
LAYER_10
 10
159.6661
 20
37.0234
 42
-0.101175466
  0
VERTEX
  8
LAYER_10
 10
159.88
 20
36.9824
 42
-0.09853409661
  0
VERTEX
  8
LAYER_10
 10
160.0509
 20
36.8694
 42
-0.09555545285
  0
VERTEX
  8
LAYER_10
 10
160.1635
 20
36.6978
 42
-0.09400765476
  0
SEQEND
  0
POLYLINE
  8
LAYER_10
 40
0.05
 41
0.05
 66
1
 10
0
 20
0
 30
0
 70
1
  0
VERTEX
  8
LAYER_10
 10
160.0936
 20
36.4798
  0
VERTEX
  8
LAYER_10
 10
160.0647
 20
36.6517
  0
VERTEX
  8
LAYER_10
 10
159.9799
 20
36.795
  0
VERTEX
  8
LAYER_10
 10
159.8448
 20
36.8932
  0
VERTEX
  8
LAYER_10
 10
159.6661
 20
36.93
  0
VERTEX
  8
LAYER_10
 10
159.4872
 20
36.8932
  0
VERTEX
  8
LAYER_10
 10
159.3525
 20
36.795
  0
VERTEX
  8
LAYER_10
 10
159.2678
 20
36.6517
  0
VERTEX
  8
LAYER_10
 10
159.2385
 20
36.4798
  0
VERTEX
  8
LAYER_10
 10
159.2678
 20
36.3079
  0
VERTEX
  8
LAYER_10
 10
159.3525
 20
36.1649
  0
VERTEX
  8
LAYER_10
 10
159.4872
 20
36.0674
  0
VERTEX
  8
LAYER_10
 10
159.6661
 20
36.0309
  0
VERTEX
  8
LAYER_10
 10
159.8448
 20
36.0674
  0
VERTEX
  8
LAYER_10
 10
159.9799
 20
36.1649
  0
VERTEX
  8
LAYER_10
 10
160.0647
 20
36.3079
  0
SEQEND
  0
ENDBLK
  0
BLOCK
  8
LAYER_10
  2
AIGNBL0A03001A
 70
64
 10
0
 20
0
 30
0
  3
AIGNBL0A03001A
  0
POLYLINE
  8
LAYER_10
 40
0.05
 41
0.05
 66
1
 10
0
 20
0
 30
0
 70
1
  0
VERTEX
  8
LAYER_10
 10
161.1354
 20
36.1418
  0
VERTEX
  8
LAYER_10
 10
161.1371
 20
36.1418
  0
VERTEX
  8
LAYER_10
 10
161.4826
 20
36.9969
  0
VERTEX
  8
LAYER_10
 10
161.6435
 20
36.9969
  0
VERTEX
  8
LAYER_10
 10
161.6435
 20
35.9637
  0
VERTEX
  8
LAYER_10
 10
161.5381
 20
35.9637
  0
VERTEX
  8
LAYER_10
 10
161.5381
 20
36.8611
  0
VERTEX
  8
LAYER_10
 10
161.5354
 20
36.8611
  0
VERTEX
  8
LAYER_10
 10
161.1619
 20
35.9637
  0
VERTEX
  8
LAYER_10
 10
161.1064
 20
35.9637
  0
VERTEX
  8
LAYER_10
 10
160.7326
 20
36.8611
  0
VERTEX
  8
LAYER_10
 10
160.7299
 20
36.8611
  0
VERTEX
  8
LAYER_10
 10
160.7299
 20
35.9637
  0
VERTEX
  8
LAYER_10
 10
160.6248
 20
35.9637
  0
VERTEX
  8
LAYER_10
 10
160.6248
 20
36.9969
  0
VERTEX
  8
LAYER_10
 10
160.7853
 20
36.9969
  0
SEQEND
  0
ENDBLK
  0
BLOCK
  8
LAYER_10
  2
AIGNBL0A03001B
 70
64
 10
0
 20
0
 30
0
  3
AIGNBL0A03001B
  0
POLYLINE
  8
LAYER_10
 40
0.05
 41
0.05
 66
1
 10
0
 20
0
 30
0
 70
1
  0
VERTEX
  8
LAYER_10
 10
162.79
 20
36.0574
  0
VERTEX
  8
LAYER_10
 10
163.3433
 20
36.0574
  0
VERTEX
  8
LAYER_10
 10
163.3433
 20
35.9637
  0
VERTEX
  8
LAYER_10
 10
162.685
 20
35.9637
  0
VERTEX
  8
LAYER_10
 10
162.685
 20
36.9969
  0
VERTEX
  8
LAYER_10
 10
163.3258
 20
36.9969
  0
VERTEX
  8
LAYER_10
 10
163.3258
 20
36.9035
  0
VERTEX
  8
LAYER_10
 10
162.79
 20
36.9035
  0
VERTEX
  8
LAYER_10
 10
162.79
 20
36.549
  0
VERTEX
  8
LAYER_10
 10
163.2906
 20
36.549
  0
VERTEX
  8
LAYER_10
 10
163.2906
 20
36.4557
  0
VERTEX
  8
LAYER_10
 10
162.79
 20
36.4557
  0
SEQEND
  0
ENDBLK
  0
BLOCK
  8
LAYER_10
  2
AIGNBL0A03001C
 70
64
 10
0
 20
0
 30
0
  3
AIGNBL0A03001C
  0
POLYLINE
  8
LAYER_10
 40
0.05
 41
0.05
 66
1
 10
0
 20
0
 30
0
 70
1
  0
VERTEX
  8
LAYER_10
 10
164.0885
 20
36.5797
  0
VERTEX
  8
LAYER_10
 10
164.3707
 20
36.9969
  0
VERTEX
  8
LAYER_10
 10
164.4957
 20
36.9969
  0
VERTEX
  8
LAYER_10
 10
164.1533
 20
36.5053
  0
VERTEX
  8
LAYER_10
 10
164.5326
 20
35.9637
  0
VERTEX
  8
LAYER_10
 10
164.4013
 20
35.9637
  0
VERTEX
  8
LAYER_10
 10
164.0858
 20
36.4295
  0
VERTEX
  8
LAYER_10
 10
163.7722
 20
35.9637
  0
VERTEX
  8
LAYER_10
 10
163.6407
 20
35.9637
  0
VERTEX
  8
LAYER_10
 10
164.0203
 20
36.5066
  0
VERTEX
  8
LAYER_10
 10
163.6744
 20
36.9969
  0
VERTEX
  8
LAYER_10
 10
163.806
 20
36.9969
  0
SEQEND
  0
ENDBLK
  0
BLOCK
  8
LAYER_10
  2
AIGNBL0A03001D
 70
64
 10
0
 20
0
 30
0
  3
AIGNBL0A03001D
  0
POLYLINE
  8
LAYER_10
 40
0.05
 41
0.05
 66
1
 10
0
 20
0
 30
0
 70
1
  0
VERTEX
  8
LAYER_10
 10
164.8988
 20
36.9969
  0
VERTEX
  8
LAYER_10
 10
165.1909
 20
36.9969
  0
VERTEX
  8
LAYER_10
 10
165.3339
 20
36.9804
  0
VERTEX
  8
LAYER_10
 10
165.4438
 20
36.929
  0
VERTEX
  8
LAYER_10
 10
165.5148
 20
36.8429
  0
VERTEX
  8
LAYER_10
 10
165.5392
 20
36.7213
  0
VERTEX
  8
LAYER_10
 10
165.5141
 20
36.5993
  0
VERTEX
  8
LAYER_10
 10
165.4424
 20
36.5132
  0
VERTEX
  8
LAYER_10
 10
165.3315
 20
36.4615
  0
VERTEX
  8
LAYER_10
 10
165.1878
 20
36.444
  0
VERTEX
  8
LAYER_10
 10
165.0039
 20
36.444
  0
VERTEX
  8
LAYER_10
 10
165.0039
 20
35.9637
  0
VERTEX
  8
LAYER_10
 10
164.8988
 20
35.9637
  0
SEQEND
  0
POLYLINE
  8
LAYER_10
 40
0.05
 41
0.05
 66
1
 10
0
 20
0
 30
0
 70
1
  0
VERTEX
  8
LAYER_10
 10
165.0039
 20
36.5328
  0
VERTEX
  8
LAYER_10
 10
165.1816
 20
36.5328
 42
0.1829732243
  0
VERTEX
  8
LAYER_10
 10
165.3701
 20
36.581
 42
0.2345943979
  0
VERTEX
  8
LAYER_10
 10
165.4345
 20
36.7213
 42
0.26486771
  0
VERTEX
  8
LAYER_10
 10
165.368
 20
36.8622
 42
0.126412566
  0
VERTEX
  8
LAYER_10
 10
165.1816
 20
36.9066
  0
VERTEX
  8
LAYER_10
 10
165.0039
 20
36.9066
  0
SEQEND
  0
ENDBLK
  0
BLOCK
  8
LAYER_10
  2
AIGNBL0A03001E
 70
64
 10
0
 20
0
 30
0
  3
AIGNBL0A03001E
  0
POLYLINE
  8
LAYER_10
 40
0.05
 41
0.05
 66
1
 10
0
 20
0
 30
0
 70
1
  0
VERTEX
  8
LAYER_10
 10
166.0515
 20
36.0574
  0
VERTEX
  8
LAYER_10
 10
166.6048
 20
36.0574
  0
VERTEX
  8
LAYER_10
 10
166.6048
 20
35.9637
  0
VERTEX
  8
LAYER_10
 10
165.9465
 20
35.9637
  0
VERTEX
  8
LAYER_10
 10
165.9465
 20
36.9969
  0
VERTEX
  8
LAYER_10
 10
166.5872
 20
36.9969
  0
VERTEX
  8
LAYER_10
 10
166.5872
 20
36.9035
  0
VERTEX
  8
LAYER_10
 10
166.0515
 20
36.9035
  0
VERTEX
  8
LAYER_10
 10
166.0515
 20
36.549
  0
VERTEX
  8
LAYER_10
 10
166.5521
 20
36.549
  0
VERTEX
  8
LAYER_10
 10
166.5521
 20
36.4557
  0
VERTEX
  8
LAYER_10
 10
166.0515
 20
36.4557
  0
SEQEND
  0
ENDBLK
  0
BLOCK
  8
LAYER_10
  2
AIGNBL0A03001F
 70
64
 10
0
 20
0
 30
0
  3
AIGNBL0A03001F
  0
POLYLINE
  8
LAYER_10
 40
0.05
 41
0.05
 66
1
 10
0
 20
0
 30
0
 70
1
  0
VERTEX
  8
LAYER_10
 10
167.1168
 20
35.9637
  0
VERTEX
  8
LAYER_10
 10
167.0117
 20
35.9637
  0
VERTEX
  8
LAYER_10
 10
167.0117
 20
36.9969
  0
VERTEX
  8
LAYER_10
 10
167.3155
 20
36.9969
  0
VERTEX
  8
LAYER_10
 10
167.4561
 20
36.9824
  0
VERTEX
  8
LAYER_10
 10
167.5687
 20
36.9349
  0
VERTEX
  8
LAYER_10
 10
167.6425
 20
36.8494
  0
VERTEX
  8
LAYER_10
 10
167.6683
 20
36.7213
  0
VERTEX
  8
LAYER_10
 10
167.6483
 20
36.6176
  0
VERTEX
  8
LAYER_10
 10
167.5929
 20
36.5366
  0
VERTEX
  8
LAYER_10
 10
167.5095
 20
36.4818
  0
VERTEX
  8
LAYER_10
 10
167.4044
 20
36.4557
  0
VERTEX
  8
LAYER_10
 10
167.7066
 20
35.9637
  0
VERTEX
  8
LAYER_10
 10
167.578
 20
35.9637
  0
VERTEX
  8
LAYER_10
 10
167.2921
 20
36.4467
  0
VERTEX
  8
LAYER_10
 10
167.1168
 20
36.4467
  0
SEQEND
  0
POLYLINE
  8
LAYER_10
 40
0.05
 41
0.05
 66
1
 10
0
 20
0
 30
0
 70
1
  0
VERTEX
  8
LAYER_10
 10
167.1168
 20
36.5373
  0
VERTEX
  8
LAYER_10
 10
167.2994
 20
36.5373
 42
0.1667243505
  0
VERTEX
  8
LAYER_10
 10
167.495
 20
36.5831
 42
0.2503949893
  0
VERTEX
  8
LAYER_10
 10
167.5636
 20
36.7213
  0
VERTEX
  8
LAYER_10
 10
167.5446
 20
36.8071
  0
VERTEX
  8
LAYER_10
 10
167.4919
 20
36.8643
  0
VERTEX
  8
LAYER_10
 10
167.4103
 20
36.8963
  0
VERTEX
  8
LAYER_10
 10
167.3038
 20
36.9066
  0
VERTEX
  8
LAYER_10
 10
167.1168
 20
36.9066
  0
SEQEND
  0
ENDBLK
  0
BLOCK
  8
LAYER_10
  2
AIGNBL0A030020
 70
64
 10
0
 20
0
 30
0
  3
AIGNBL0A030020
  0
POLYLINE
  8
LAYER_10
 40
0.05
 41
0.05
 66
1
 10
0
 20
0
 30
0
 70
1
  0
VERTEX
  8
LAYER_10
 10
168.1923
 20
35.9637
  0
VERTEX
  8
LAYER_10
 10
168.0876
 20
35.9637
  0
VERTEX
  8
LAYER_10
 10
168.0876
 20
36.9969
  0
VERTEX
  8
LAYER_10
 10
168.1923
 20
36.9969
  0
SEQEND
  0
ENDBLK
  0
BLOCK
  8
LAYER_10
  2
AIGNBL0A030021
 70
64
 10
0
 20
0
 30
0
  3
AIGNBL0A030021
  0
POLYLINE
  8
LAYER_10
 40
0.05
 41
0.05
 66
1
 10
0
 20
0
 30
0
 70
1
  0
VERTEX
  8
LAYER_10
 10
168.7732
 20
36.0574
  0
VERTEX
  8
LAYER_10
 10
169.3261
 20
36.0574
  0
VERTEX
  8
LAYER_10
 10
169.3261
 20
35.9637
  0
VERTEX
  8
LAYER_10
 10
168.6681
 20
35.9637
  0
VERTEX
  8
LAYER_10
 10
168.6681
 20
36.9969
  0
VERTEX
  8
LAYER_10
 10
169.3089
 20
36.9969
  0
VERTEX
  8
LAYER_10
 10
169.3089
 20
36.9035
  0
VERTEX
  8
LAYER_10
 10
168.7732
 20
36.9035
  0
VERTEX
  8
LAYER_10
 10
168.7732
 20
36.549
  0
VERTEX
  8
LAYER_10
 10
169.2737
 20
36.549
  0
VERTEX
  8
LAYER_10
 10
169.2737
 20
36.4557
  0
VERTEX
  8
LAYER_10
 10
168.7732
 20
36.4557
  0
SEQEND
  0
ENDBLK
  0
BLOCK
  8
LAYER_10
  2
AIGNBL0A030022
 70
64
 10
0
 20
0
 30
0
  3
AIGNBL0A030022
  0
POLYLINE
  8
LAYER_10
 40
0.05
 41
0.05
 66
1
 10
0
 20
0
 30
0
 70
1
  0
VERTEX
  8
LAYER_10
 10
170.4661
 20
36.117
  0
VERTEX
  8
LAYER_10
 10
170.4689
 20
36.117
  0
VERTEX
  8
LAYER_10
 10
170.4689
 20
36.9969
  0
VERTEX
  8
LAYER_10
 10
170.5739
 20
36.9969
  0
VERTEX
  8
LAYER_10
 10
170.5739
 20
35.9637
  0
VERTEX
  8
LAYER_10
 10
170.4426
 20
35.9637
  0
VERTEX
  8
LAYER_10
 10
169.8415
 20
36.8525
  0
VERTEX
  8
LAYER_10
 10
169.8384
 20
36.8525
  0
VERTEX
  8
LAYER_10
 10
169.8384
 20
35.9637
  0
VERTEX
  8
LAYER_10
 10
169.7333
 20
35.9637
  0
VERTEX
  8
LAYER_10
 10
169.7333
 20
36.9969
  0
VERTEX
  8
LAYER_10
 10
169.8649
 20
36.9969
  0
SEQEND
  0
ENDBLK
  0
BLOCK
  8
LAYER_10
  2
AIGNBL0A030023
 70
64
 10
0
 20
0
 30
0
  3
AIGNBL0A030023
  0
POLYLINE
  8
LAYER_10
 40
0.05
 41
0.05
 66
1
 10
0
 20
0
 30
0
 70
1
  0
VERTEX
  8
LAYER_10
 10
171.9196
 20
36.1315
  0
VERTEX
  8
LAYER_10
 10
171.8558
 20
36.0571
  0
VERTEX
  8
LAYER_10
 10
171.7697
 20
35.9954
  0
VERTEX
  8
LAYER_10
 10
171.6615
 20
35.953
  0
VERTEX
  8
LAYER_10
 10
171.5327
 20
35.9375
 42
-0.1011939289
  0
VERTEX
  8
LAYER_10
 10
171.3167
 20
35.9785
 42
-0.1032846426
  0
VERTEX
  8
LAYER_10
 10
171.1461
 20
36.0915
 42
-0.0974858305
  0
VERTEX
  8
LAYER_10
 10
171.0345
 20
36.2631
 42
-0.09232404316
  0
VERTEX
  8
LAYER_10
 10
170.9942
 20
36.4805
 42
-0.1041003847
  0
VERTEX
  8
LAYER_10
 10
171.0352
 20
36.6978
 42
-0.1005616574
  0
VERTEX
  8
LAYER_10
 10
171.1479
 20
36.8694
 42
-0.09522588778
  0
VERTEX
  8
LAYER_10
 10
171.3187
 20
36.9824
 42
-0.09501991035
  0
VERTEX
  8
LAYER_10
 10
171.5327
 20
37.0234
  0
VERTEX
  8
LAYER_10
 10
171.6443
 20
37.0114
  0
VERTEX
  8
LAYER_10
 10
171.7473
 20
36.9779
  0
VERTEX
  8
LAYER_10
 10
171.8348
 20
36.9263
  0
VERTEX
  8
LAYER_10
 10
171.9006
 20
36.8584
  0
VERTEX
  8
LAYER_10
 10
171.8131
 20
36.794
  0
VERTEX
  8
LAYER_10
 10
171.7697
 20
36.8439
  0
VERTEX
  8
LAYER_10
 10
171.7063
 20
36.8877
  0
VERTEX
  8
LAYER_10
 10
171.6267
 20
36.9183
  0
VERTEX
  8
LAYER_10
 10
171.5341
 20
36.93
  0
VERTEX
  8
LAYER_10
 10
171.3539
 20
36.8935
  0
VERTEX
  8
LAYER_10
 10
171.2188
 20
36.7954
  0
VERTEX
  8
LAYER_10
 10
171.1341
 20
36.652
  0
VERTEX
  8
LAYER_10
 10
171.1052
 20
36.4805
  0
VERTEX
  8
LAYER_10
 10
171.1351
 20
36.3089
  0
VERTEX
  8
LAYER_10
 10
171.2205
 20
36.1656
  0
VERTEX
  8
LAYER_10
 10
171.3556
 20
36.0674
 42
0.100995487
  0
VERTEX
  8
LAYER_10
 10
171.5341
 20
36.0309
  0
VERTEX
  8
LAYER_10
 10
171.7032
 20
36.0674
 42
0.1321059012
  0
VERTEX
  8
LAYER_10
 10
171.8376
 20
36.1842
  0
SEQEND
  0
ENDBLK
  0
BLOCK
  8
LAYER_10
  2
AIGNBL0A030024
 70
64
 10
0
 20
0
 30
0
  3
AIGNBL0A030024
  0
POLYLINE
  8
LAYER_10
 40
0.05
 41
0.05
 66
1
 10
0
 20
0
 30
0
 70
1
  0
VERTEX
  8
LAYER_10
 10
172.4067
 20
36.0574
  0
VERTEX
  8
LAYER_10
 10
172.96
 20
36.0574
  0
VERTEX
  8
LAYER_10
 10
172.96
 20
35.9637
  0
VERTEX
  8
LAYER_10
 10
172.3016
 20
35.9637
  0
VERTEX
  8
LAYER_10
 10
172.3016
 20
36.9969
  0
VERTEX
  8
LAYER_10
 10
172.9424
 20
36.9969
  0
VERTEX
  8
LAYER_10
 10
172.9424
 20
36.9035
  0
VERTEX
  8
LAYER_10
 10
172.4067
 20
36.9035
  0
VERTEX
  8
LAYER_10
 10
172.4067
 20
36.549
  0
VERTEX
  8
LAYER_10
 10
172.9073
 20
36.549
  0
VERTEX
  8
LAYER_10
 10
172.9073
 20
36.4557
  0
VERTEX
  8
LAYER_10
 10
172.4067
 20
36.4557
  0
SEQEND
  0
ENDBLK
  0
BLOCK
  8
LAYER_1
  2
AIGNBL01020003
 70
64
 10
0
 20
0
 30
0
  3
AIGNBL01020003
  0
POLYLINE
  8
LAYER_1
 40
0.05
 41
0.05
 66
1
 10
0
 20
0
 30
0
  0
VERTEX
  8
LAYER_1
 10
-12.603
 20
216.8808
 42
0.06800218275
  0
VERTEX
  8
LAYER_1
 10
-12.735
 20
217.9458
 42
0.1001004155
  0
VERTEX
  8
LAYER_1
 10
-13.0684
 20
218.6358
 42
0.2262806174
  0
VERTEX
  8
LAYER_1
 10
-13.8116
 20
219.0126
 42
0.1366958805
  0
VERTEX
  8
LAYER_1
 10
-14.3958
 20
218.8661
 42
-0.1539943469
  0
VERTEX
  8
LAYER_1
 10
-14.8072
 20
218.7263
 42
-0.3034816029
  0
VERTEX
  8
LAYER_1
 10
-15.0178
 20
218.8633
 42
-0.1429710503
  0
VERTEX
  8
LAYER_1
 10
-15.0494
 20
219.0313
 42
-0.4012456973
  0
VERTEX
  8
LAYER_1
 10
-14.7362
 20
219.3713
  0
VERTEX
  8
LAYER_1
 10
-14.3097
 20
219.2996
 42
0.2094874895
  0
VERTEX
  8
LAYER_1
 10
-12.9881
 20
219.8741
 42
0.08294349402
  0
VERTEX
  8
LAYER_1
 10
-12.5155
 20
220.5983
 42
0.06704719638
  0
VERTEX
  8
LAYER_1
 10
-12.2108
 20
221.6557
 42
0.03818897046
  0
VERTEX
  8
LAYER_1
 10
-12.1476
 20
222.4888
 42
0.07658348449
  0
VERTEX
  8
LAYER_1
 10
-12.2769
 20
223.5041
 42
0.1782806624
  0
VERTEX
  8
LAYER_1
 10
-12.8163
 20
224.2444
 42
0.05497932184
  0
VERTEX
  8
LAYER_1
 10
-13.6808
 20
223.2884
 42
0.04243862347
  0
VERTEX
  8
LAYER_1
 10
-14.6121
 20
221.7285
 42
0.01416943297
  0
VERTEX
  8
LAYER_1
 10
-16.2297
 20
218.0456
 42
-0.03233566879
  0
VERTEX
  8
LAYER_1
 10
-17.2926
 20
216.0598
 42
-0.03756952817
  0
VERTEX
  8
LAYER_1
 10
-18.4122
 20
214.5222
 42
-0.04979907742
  0
VERTEX
  8
LAYER_1
 10
-19.5503
 20
213.4193
 42
-0.0614724236
  0
VERTEX
  8
LAYER_1
 10
-20.5579
 20
212.8043
 42
-0.1030694941
  0
VERTEX
  8
LAYER_1
 10
-21.7911
 20
212.5273
 42
-0.08733707862
  0
VERTEX
  8
LAYER_1
 10
-22.6534
 20
212.6666
 42
-0.1115898546
  0
VERTEX
  8
LAYER_1
 10
-23.2335
 20
213.0288
 42
-0.1991514681
  0
VERTEX
  8
LAYER_1
 10
-23.5832
 20
213.907
 42
-0.1251767862
  0
VERTEX
  8
LAYER_1
 10
-23.4551
 20
214.5121
 42
-0.2797306827
  0
VERTEX
  8
LAYER_1
 10
-23.0003
 20
214.7848
 42
-0.2075505772
  0
VERTEX
  8
LAYER_1
 10
-22.6591
 20
214.6453
 42
-0.1925072116
  0
VERTEX
  8
LAYER_1
 10
-22.5025
 20
214.1936
 42
-0.07535666412
  0
VERTEX
  8
LAYER_1
 10
-22.7013
 20
213.423
 42
0.1868272876
  0
VERTEX
  8
LAYER_1
 10
-22.5522
 20
213.0333
 42
0.1499806236
  0
VERTEX
  8
LAYER_1
 10
-22.0985
 20
212.7821
 42
0.05697038536
  0
VERTEX
  8
LAYER_1
 10
-21.7484
 20
212.7422
 42
0.1661318746
  0
VERTEX
  8
LAYER_1
 10
-20.1337
 20
213.2938
 42
0.06617725821
  0
VERTEX
  8
LAYER_1
 10
-19.2963
 20
214.1325
 42
0.04343830721
  0
VERTEX
  8
LAYER_1
 10
-18.379
 20
215.5753
 42
0.02116523787
  0
VERTEX
  8
LAYER_1
 10
-17.1257
 20
218.2602
 42
-0.02734316815
  0
VERTEX
  8
LAYER_1
 10
-15.9119
 20
220.7229
 42
-0.03331214239
  0
VERTEX
  8
LAYER_1
 10
-14.6901
 20
222.5937
 42
-0.05674877934
  0
VERTEX
  8
LAYER_1
 10
-13.0151
 20
224.3701
 42
0.06817224182
  0
VERTEX
  8
LAYER_1
 10
-14.0586
 20
224.7784
 42
0.06210832812
  0
VERTEX
  8
LAYER_1
 10
-15.5327
 20
224.9255
 42
0.1022282755
  0
VERTEX
  8
LAYER_1
 10
-18.3194
 20
224.3429
 42
0.143899296
  0
VERTEX
  8
LAYER_1
 10
-21.6663
 20
221.5642
 42
0.0561416529
  0
VERTEX
  8
LAYER_1
 10
-22.2757
 20
220.3634
 42
0.08684378695
  0
VERTEX
  8
LAYER_1
 10
-22.5731
 20
218.7801
 42
0.0992374136
  0
VERTEX
  8
LAYER_1
 10
-22.4399
 20
218.0549
 42
0.3080847866
  0
VERTEX
  8
LAYER_1
 10
-21.3219
 20
217.329
 42
0.1076304739
  0
VERTEX
  8
LAYER_1
 10
-20.6263
 20
217.5223
 42
0.06526044375
  0
VERTEX
  8
LAYER_1
 10
-19.6447
 20
218.1838
 42
0.05055781251
  0
VERTEX
  8
LAYER_1
 10
-18.6507
 20
219.2431
 42
0.047500616
  0
VERTEX
  8
LAYER_1
 10
-17.7514
 20
220.6794
 42
0.06433606004
  0
VERTEX
  8
LAYER_1
 10
-16.6581
 20
223.7333
 42
-0.01531373772
  0
VERTEX
  8
LAYER_1
 10
-16.6424
 20
223.7431
 42
-0.4776499149
  0
VERTEX
  8
LAYER_1
 10
-16.5428
 20
223.6535
 42
-0.0543919806
  0
VERTEX
  8
LAYER_1
 10
-16.7387
 20
222.3162
 42
-0.0786340584
  0
VERTEX
  8
LAYER_1
 10
-18.0264
 20
219.1909
 42
-0.05218217213
  0
VERTEX
  8
LAYER_1
 10
-18.8268
 20
218.171
 42
-0.06558519721
  0
VERTEX
  8
LAYER_1
 10
-19.6864
 20
217.4889
 42
-0.1338039378
  0
VERTEX
  8
LAYER_1
 10
-21.2936
 20
217.042
 42
-0.3585638456
  0
VERTEX
  8
LAYER_1
 10
-22.6928
 20
218.2458
 42
-0.05357106371
  0
VERTEX
  8
LAYER_1
 10
-22.744
 20
218.7263
 42
-0.06273913933
  0
VERTEX
  8
LAYER_1
 10
-22.5939
 20
219.8763
 42
-0.05639137758
  0
VERTEX
  8
LAYER_1
 10
-22.129
 20
221.083
 42
-0.10163681
  0
VERTEX
  8
LAYER_1
 10
-20.274
 20
223.3548
 42
-0.09645273963
  0
VERTEX
  8
LAYER_1
 10
-17.6152
 20
224.8095
 42
-0.07564001041
  0
VERTEX
  8
LAYER_1
 10
-15.4762
 20
225.1404
 42
-0.05189908776
  0
VERTEX
  8
LAYER_1
 10
-14.0152
 20
224.9946
 42
-0.08695309983
  0
VERTEX
  8
LAYER_1
 10
-12.8018
 20
224.5313
 42
-0.08678604137
  0
VERTEX
  8
LAYER_1
 10
-11.7776
 20
225.1404
 42
-0.2844800539
  0
VERTEX
  8
LAYER_1
 10
-11.7211
 20
224.9971
 42
-0.15812221
  0
VERTEX
  8
LAYER_1
 10
-12.5245
 20
224.5031
 42
0.01165619272
  0
VERTEX
  8
LAYER_1
 10
-12.5886
 20
224.4418
 42
-0.1596323608
  0
VERTEX
  8
LAYER_1
 10
-11.4413
 20
222.9316
 42
-0.08016762901
  0
VERTEX
  8
LAYER_1
 10
-11.2946
 20
222.0051
 42
-0.08703023006
  0
VERTEX
  8
LAYER_1
 10
-11.4481
 20
221.1531
 42
-0.07750465829
  0
VERTEX
  8
LAYER_1
 10
-11.9024
 20
220.3356
 42
-0.1497982917
  0
VERTEX
  8
LAYER_1
 10
-13.5414
 20
219.1827
 42
-0.00246656261
  0
VERTEX
  8
LAYER_1
 10
-13.5697
 20
219.1742
  0
VERTEX
  8
LAYER_1
 10
-13.5697
 20
219.1384
 42
-0.1785257176
  0
VERTEX
  8
LAYER_1
 10
-12.2012
 20
218.1523
 42
-0.08369971714
  0
VERTEX
  8
LAYER_1
 10
-11.8503
 20
217.3484
 42
-0.06209784528
  0
VERTEX
  8
LAYER_1
 10
-11.7493
 20
216.5046
 42
-0.1306103271
  0
VERTEX
  8
LAYER_1
 10
-12.31
 20
214.3833
 42
-0.1357180344
  0
VERTEX
  8
LAYER_1
 10
-13.8201
 20
212.8969
 42
-0.1205531038
  0
VERTEX
  8
LAYER_1
 10
-15.2055
 20
212.5273
 42
-0.1031155088
  0
VERTEX
  8
LAYER_1
 10
-15.9257
 20
212.6657
 42
-0.1210367331
  0
VERTEX
  8
LAYER_1
 10
-16.4433
 20
213.058
 42
-0.1100460923
  0
VERTEX
  8
LAYER_1
 10
-16.7476
 20
213.6909
 42
-0.05900910672
  0
VERTEX
  8
LAYER_1
 10
-16.8133
 20
214.2649
 42
-0.1561751198
  0
VERTEX
  8
LAYER_1
 10
-16.2062
 20
216.1222
 42
-0.07460720295
  0
VERTEX
  8
LAYER_1
 10
-15.5327
 20
216.8438
 42
-0.1894062839
  0
VERTEX
  8
LAYER_1
 10
-15.305
 20
216.9707
 42
-0.4002679601
  0
VERTEX
  8
LAYER_1
 10
-15.2344
 20
216.8808
 42
-0.2381199248
  0
VERTEX
  8
LAYER_1
 10
-15.6458
 20
216.5281
 42
0.04042896582
  0
VERTEX
  8
LAYER_1
 10
-15.9592
 20
216.1821
 42
0.07677726606
  0
VERTEX
  8
LAYER_1
 10
-16.4876
 20
215.2572
 42
0.08936335674
  0
VERTEX
  8
LAYER_1
 10
-16.6424
 20
214.2649
 42
0.1003083384
  0
VERTEX
  8
LAYER_1
 10
-16.505
 20
213.4836
 42
0.2661593185
  0
VERTEX
  8
LAYER_1
 10
-15.5666
 20
212.7729
 42
0.05234588393
  0
VERTEX
  8
LAYER_1
 10
-15.1917
 20
212.7422
 42
0.113736707
  0
VERTEX
  8
LAYER_1
 10
-14.578
 20
212.8899
 42
0.09233737928
  0
VERTEX
  8
LAYER_1
 10
-13.9062
 20
213.4056
 42
0.06710850356
  0
VERTEX
  8
LAYER_1
 10
-13.2571
 20
214.3481
 42
0.1126748496
  0
VERTEX
  8
LAYER_1
 10
-12.603
 20
216.8808
  0
SEQEND
  0
POLYLINE
  8
LAYER_1
 40
0.05
 41
0.05
 66
1
 10
0
 20
0
 30
0
 70
1
  0
VERTEX
  8
LAYER_1
 10
-8.3924
 20
217.6157
 42
0.05879971489
  0
VERTEX
  8
LAYER_1
 10
-10.4068
 20
213.5558
 42
0.06217819466
  0
VERTEX
  8
LAYER_1
 10
-10.455
 20
213.1543
 42
0.3936821116
  0
VERTEX
  8
LAYER_1
 10
-10.2135
 20
212.8493
 42
0.1548692013
  0
VERTEX
  8
LAYER_1
 10
-9.7896
 20
213.0389
 42
0.0604865438
  0
VERTEX
  8
LAYER_1
 10
-8.9122
 20
213.942
 42
0.05731299489
  0
VERTEX
  8
LAYER_1
 10
-6.6857
 20
217.544
  0
VERTEX
  8
LAYER_1
 10
-5.7755
 20
217.6157
 42
-0.002661175339
  0
VERTEX
  8
LAYER_1
 10
-7.3241
 20
214.7314
 42
0.05489518147
  0
VERTEX
  8
LAYER_1
 10
-7.8924
 20
213.3745
 42
0.02829770744
  0
VERTEX
  8
LAYER_1
 10
-7.9232
 20
213.1543
 42
0.2712430007
  0
VERTEX
  8
LAYER_1
 10
-7.8131
 20
212.8804
 42
0.1662478318
  0
VERTEX
  8
LAYER_1
 10
-7.6813
 20
212.8493
 42
0.1580621399
  0
VERTEX
  8
LAYER_1
 10
-7.2305
 20
213.1023
 42
0.05070949294
  0
VERTEX
  8
LAYER_1
 10
-6.3443
 20
214.0858
 42
-0.03545035682
  0
VERTEX
  8
LAYER_1
 10
-5.4341
 20
215.2864
 42
-0.3997360145
  0
VERTEX
  8
LAYER_1
 10
-5.3628
 20
215.1968
 42
-0.02740474733
  0
VERTEX
  8
LAYER_1
 10
-6.202
 20
213.9962
 42
-0.0561476081
  0
VERTEX
  8
LAYER_1
 10
-7.2079
 20
212.8789
 42
-0.1673392659
  0
VERTEX
  8
LAYER_1
 10
-7.7527
 20
212.6351
 42
-0.2105177037
  0
VERTEX
  8
LAYER_1
 10
-8.0778
 20
212.7753
 42
-0.1400518102
  0
VERTEX
  8
LAYER_1
 10
-8.3048
 20
213.2893
 42
-0.04571192486
  0
VERTEX
  8
LAYER_1
 10
-8.3497
 20
213.7816
 42
-0.06893054484
  0
VERTEX
  8
LAYER_1
 10
-8.2505
 20
214.4624
  0
VERTEX
  8
LAYER_1
 10
-8.2787
 20
214.4982
 42
-0.04773064147
  0
VERTEX
  8
LAYER_1
 10
-9.4321
 20
213.0781
 42
-0.1084056337
  0
VERTEX
  8
LAYER_1
 10
-10.0379
 20
212.6679
 42
-0.05776048936
  0
VERTEX
  8
LAYER_1
 10
-10.2273
 20
212.6351
 42
-0.188683644
  0
VERTEX
  8
LAYER_1
 10
-10.6083
 20
212.7744
 42
-0.1531144065
  0
VERTEX
  8
LAYER_1
 10
-10.8412
 20
213.2138
 42
-0.05267684966
  0
VERTEX
  8
LAYER_1
 10
-10.8819
 20
213.6025
 42
-0.0773185652
  0
VERTEX
  8
LAYER_1
 10
-10.729
 20
214.562
 42
-0.05993034017
  0
VERTEX
  8
LAYER_1
 10
-10.1779
 20
215.7236
 42
0.02639908889
  0
VERTEX
  8
LAYER_1
 10
-9.4167
 20
216.9707
  0
VERTEX
  8
LAYER_1
 10
-9.4449
 20
217.0062
 42
0.0436993081
  0
VERTEX
  8
LAYER_1
 10
-10.7537
 20
215.376
 42
-0.3846662524
  0
VERTEX
  8
LAYER_1
 10
-10.9956
 20
215.0715
 42
-0.4181900754
  0
VERTEX
  8
LAYER_1
 10
-11.0527
 20
215.179
 42
-0.07636722953
  0
VERTEX
  8
LAYER_1
 10
-10.3268
 20
216.2001
 42
-0.03128872974
  0
VERTEX
  8
LAYER_1
 10
-9.1889
 20
217.544
  0
SEQEND
  0
POLYLINE
  8
LAYER_1
 40
0.05
 41
0.05
 66
1
 10
0
 20
0
 30
0
 70
1
  0
VERTEX
  8
LAYER_1
 10
-5.2636
 20
212.6347
 42
-0.001656368978
  0
VERTEX
  8
LAYER_1
 10
-3.2707
 20
216.522
 42
0.1072420123
  0
VERTEX
  8
LAYER_1
 10
-3.0732
 20
217.1495
 42
0.4059388052
  0
VERTEX
  8
LAYER_1
 10
-3.3147
 20
217.4003
 42
0.1651313056
  0
VERTEX
  8
LAYER_1
 10
-3.7567
 20
217.1895
 42
0.0537410401
  0
VERTEX
  8
LAYER_1
 10
-4.4244
 20
216.4688
 42
-0.007469288114
  0
VERTEX
  8
LAYER_1
 10
-5.4768
 20
215.0356
 42
-0.4021302667
  0
VERTEX
  8
LAYER_1
 10
-5.5478
 20
215.1252
 42
-0.05560828266
  0
VERTEX
  8
LAYER_1
 10
-4.7089
 20
216.3613
 42
-0.06093607234
  0
VERTEX
  8
LAYER_1
 10
-3.8266
 20
217.3628
 42
-0.1674230258
  0
VERTEX
  8
LAYER_1
 10
-3.2579
 20
217.6153
 42
-0.2141249355
  0
VERTEX
  8
LAYER_1
 10
-2.9261
 20
217.4623
 42
-0.1862667665
  0
VERTEX
  8
LAYER_1
 10
-2.7032
 20
216.7733
 42
-0.08262126589
  0
VERTEX
  8
LAYER_1
 10
-2.9117
 20
215.8207
 42
-0.0433307117
  0
VERTEX
  8
LAYER_1
 10
-3.5996
 20
214.3545
  0
VERTEX
  8
LAYER_1
 10
-3.5707
 20
214.3191
 42
-0.0175469978
  0
VERTEX
  8
LAYER_1
 10
-2.205
 20
216.0889
 42
0.09464616593
  0
VERTEX
  8
LAYER_1
 10
-1.9921
 20
216.5049
 42
-0.09068918588
  0
VERTEX
  8
LAYER_1
 10
-1.6489
 20
217.2649
 42
-0.2306705596
  0
VERTEX
  8
LAYER_1
 10
-1.0533
 20
217.6153
 42
-0.2541517201
  0
VERTEX
  8
LAYER_1
 10
-0.7562
 20
217.506
 42
-0.1313753374
  0
VERTEX
  8
LAYER_1
 10
-0.7119
 20
217.329
 42
-0.1725166426
  0
VERTEX
  8
LAYER_1
 10
-0.8946
 20
216.9002
 42
-0.01441691721
  0
VERTEX
  8
LAYER_1
 10
-1.8009
 20
215.9976
 42
0.09721704026
  0
VERTEX
  8
LAYER_1
 10
-2.2193
 20
215.3387
 42
0.08823705293
  0
VERTEX
  8
LAYER_1
 10
-2.3049
 20
214.8561
 42
0.1670556642
  0
VERTEX
  8
LAYER_1
 10
-2.1663
 20
214.4174
 42
0.2277175601
  0
VERTEX
  8
LAYER_1
 10
-1.8357
 20
214.2474
 42
0.1656245874
  0
VERTEX
  8
LAYER_1
 10
-1.3898
 20
214.4115
 42
0.07156255417
  0
VERTEX
  8
LAYER_1
 10
-1.1956
 20
214.6053
 42
-0.02851279925
  0
VERTEX
  8
LAYER_1
 10
-0.7119
 20
215.2864
 42
-0.3905471973
  0
VERTEX
  8
LAYER_1
 10
-0.6265
 20
215.1968
 42
-0.03053175148
  0
VERTEX
  8
LAYER_1
 10
-0.982
 20
214.6236
 42
-0.1202015889
  0
VERTEX
  8
LAYER_1
 10
-1.4629
 20
214.1682
 42
-0.1237398471
  0
VERTEX
  8
LAYER_1
 10
-1.8502
 20
214.0682
 42
-0.1813194211
  0
VERTEX
  8
LAYER_1
 10
-2.2463
 20
214.2236
 42
-0.2154145601
  0
VERTEX
  8
LAYER_1
 10
-2.4758
 20
214.7666
 42
-0.1490385464
  0
VERTEX
  8
LAYER_1
 10
-2.1913
 20
215.7705
  0
VERTEX
  8
LAYER_1
 10
-2.2195
 20
215.8059
 42
0.03261021665
  0
VERTEX
  8
LAYER_1
 10
-3.6802
 20
213.8211
 42
0.009336155906
  0
VERTEX
  8
LAYER_1
 10
-4.3672
 20
212.7426
  0
SEQEND
  0
POLYLINE
  8
LAYER_1
 40
0.05
 41
0.05
 66
1
 10
0
 20
0
 30
0
 70
1
  0
VERTEX
  8
LAYER_1
 10
4.679
 20
223.4203
 42
0.01429918076
  0
VERTEX
  8
LAYER_1
 10
0.1963
 20
214.4062
 42
0.08590409912
  0
VERTEX
  8
LAYER_1
 10
-0.2145
 20
213.0826
 42
0.3642276366
  0
VERTEX
  8
LAYER_1
 10
0.0133
 20
212.8497
 42
0.1475005758
  0
VERTEX
  8
LAYER_1
 10
0.518
 20
213.0285
 42
0.07003276347
  0
VERTEX
  8
LAYER_1
 10
1.3601
 20
213.8411
 42
0.01276854689
  0
VERTEX
  8
LAYER_1
 10
1.6631
 20
214.2116
 42
-0.02675688263
  0
VERTEX
  8
LAYER_1
 10
2.4741
 20
215.3043
 42
-0.4126096197
  0
VERTEX
  8
LAYER_1
 10
2.5451
 20
215.2148
 42
-0.03511987498
  0
VERTEX
  8
LAYER_1
 10
2.0049
 20
214.4083
 42
-0.04741095423
  0
VERTEX
  8
LAYER_1
 10
0.897
 20
213.1195
 42
-0.09985663679
  0
VERTEX
  8
LAYER_1
 10
0.2334
 20
212.6825
 42
-0.08869915285
  0
VERTEX
  8
LAYER_1
 10
-0.0295
 20
212.6347
 42
-0.1943726663
  0
VERTEX
  8
LAYER_1
 10
-0.4112
 20
212.7712
 42
-0.1623925245
  0
VERTEX
  8
LAYER_1
 10
-0.6152
 20
213.2042
 42
-0.06025697966
  0
VERTEX
  8
LAYER_1
 10
-0.641
 20
213.5308
 42
-0.08305247446
  0
VERTEX
  8
LAYER_1
 10
-0.4951
 20
214.4567
 42
-0.03826773086
  0
VERTEX
  8
LAYER_1
 10
0.8101
 20
217.1499
  0
VERTEX
  8
LAYER_1
 10
0.7812
 20
217.1854
 42
-0.01285485337
  0
VERTEX
  8
LAYER_1
 10
-0.1573
 20
215.8242
 42
-0.2545419652
  0
VERTEX
  8
LAYER_1
 10
-0.826
 20
214.946
 42
-0.3583880142
  0
VERTEX
  8
LAYER_1
 10
-0.8828
 20
215.0356
 42
-0.02940402873
  0
VERTEX
  8
LAYER_1
 10
0.3426
 20
216.8308
 42
0.03219358214
  0
VERTEX
  8
LAYER_1
 10
2.0331
 20
219.7833
  0
VERTEX
  8
LAYER_1
 10
3.7398
 20
223.2949
  0
SEQEND
  0
INSERT
  8
LAYER_1
  2
AIGNBL01030004
 10
0
 20
0
 30
0
  0
POLYLINE
  8
LAYER_1
 40
0.05
 41
0.05
 66
1
 10
0
 20
0
 30
0
 70
1
  0
VERTEX
  8
LAYER_1
 10
5.7307
 20
212.6347
 42
-0.01228769123
  0
VERTEX
  8
LAYER_1
 10
7.491
 20
215.8939
 42
0.07995676707
  0
VERTEX
  8
LAYER_1
 10
8.0066
 20
217.1316
 42
0.4014262609
  0
VERTEX
  8
LAYER_1
 10
7.7933
 20
217.4003
 42
0.1599165506
  0
VERTEX
  8
LAYER_1
 10
7.3426
 20
217.2358
 42
0.07300909206
  0
VERTEX
  8
LAYER_1
 10
6.5724
 20
216.408
 42
0.01170553869
  0
VERTEX
  8
LAYER_1
 10
6.2858
 20
216.0213
 42
-0.4006630121
  0
VERTEX
  8
LAYER_1
 10
5.5747
 20
215.0356
 42
-0.4086133722
  0
VERTEX
  8
LAYER_1
 10
5.5034
 20
215.1431
 42
-0.02599281131
  0
VERTEX
  8
LAYER_1
 10
6.0439
 20
215.9672
 42
-0.0523117677
  0
VERTEX
  8
LAYER_1
 10
7.0089
 20
217.1808
 42
-0.1068141203
  0
VERTEX
  8
LAYER_1
 10
7.5888
 20
217.5692
 42
-0.08674228216
  0
VERTEX
  8
LAYER_1
 10
7.8502
 20
217.6153
 42
-0.2146089401
  0
VERTEX
  8
LAYER_1
 10
8.1792
 20
217.4793
 42
-0.1556948116
  0
VERTEX
  8
LAYER_1
 10
8.3608
 20
217.0073
 42
-0.04318534158
  0
VERTEX
  8
LAYER_1
 10
8.3762
 20
216.7375
 42
-0.08856342094
  0
VERTEX
  8
LAYER_1
 10
8.1826
 20
215.865
 42
-0.04490702306
  0
VERTEX
  8
LAYER_1
 10
7.4802
 20
214.4803
  0
VERTEX
  8
LAYER_1
 10
7.5088
 20
214.4441
 42
-0.03458514027
  0
VERTEX
  8
LAYER_1
 10
9.5644
 20
217.0399
 42
-0.0883839047
  0
VERTEX
  8
LAYER_1
 10
10.2188
 20
217.5625
 42
-0.1219522749
  0
VERTEX
  8
LAYER_1
 10
10.4247
 20
217.6153
 42
-0.2250054861
  0
VERTEX
  8
LAYER_1
 10
10.7277
 20
217.4667
 42
-0.173387746
  0
VERTEX
  8
LAYER_1
 10
10.9366
 20
216.7733
 42
-0.09380305833
  0
VERTEX
  8
LAYER_1
 10
10.769
 20
215.9412
 42
-0.03660087472
  0
VERTEX
  8
LAYER_1
 10
10.4106
 20
215.2327
 42
0.04403934671
  0
VERTEX
  8
LAYER_1
 10
9.5282
 20
213.5255
 42
0.1014468196
  0
VERTEX
  8
LAYER_1
 10
9.4577
 20
213.208
 42
0.2155158183
  0
VERTEX
  8
LAYER_1
 10
9.5819
 20
212.8862
 42
0.1286802317
  0
VERTEX
  8
LAYER_1
 10
9.685
 20
212.8497
 42
0.1650531956
  0
VERTEX
  8
LAYER_1
 10
10.1291
 20
213.0764
 42
0.05884002548
  0
VERTEX
  8
LAYER_1
 10
11.1926
 20
214.2829
 42
-0.08480371735
  0
VERTEX
  8
LAYER_1
 10
11.9467
 20
215.3043
 42
-0.3551880674
  0
VERTEX
  8
LAYER_1
 10
12.0036
 20
215.2148
 42
-0.04873777973
  0
VERTEX
  8
LAYER_1
 10
11.1075
 20
213.907
 42
-0.05647578051
  0
VERTEX
  8
LAYER_1
 10
10.1262
 20
212.8538
 42
-0.1605962059
  0
VERTEX
  8
LAYER_1
 10
9.6564
 20
212.6347
 42
-0.2037765213
  0
VERTEX
  8
LAYER_1
 10
9.3155
 20
212.7773
 42
-0.142100265
  0
VERTEX
  8
LAYER_1
 10
9.0786
 20
213.279
 42
-0.04859533336
  0
VERTEX
  8
LAYER_1
 10
9.0308
 20
213.7812
 42
-0.08513707709
  0
VERTEX
  8
LAYER_1
 10
9.1952
 20
214.6525
 42
-0.05750391016
  0
VERTEX
  8
LAYER_1
 10
9.8349
 20
215.8965
 42
0.1149842255
  0
VERTEX
  8
LAYER_1
 10
10.567
 20
217.1857
 42
0.4233381598
  0
VERTEX
  8
LAYER_1
 10
10.3679
 20
217.4003
 42
0.1652502681
  0
VERTEX
  8
LAYER_1
 10
9.952
 20
217.1703
 42
0.04718463484
  0
VERTEX
  8
LAYER_1
 10
8.8334
 20
215.9196
 42
0.03256330518
  0
VERTEX
  8
LAYER_1
 10
6.684
 20
212.7426
  0
SEQEND
  0
INSERT
  8
LAYER_1
  2
AIGNBL01030005
 10
0
 20
0
 30
0
  0
POLYLINE
  8
LAYER_1
 40
0.05
 41
0.05
 66
1
 10
0
 20
0
 30
0
 70
1
  0
VERTEX
  8
LAYER_1
 10
20.7507
 20
220.9481
  0
VERTEX
  8
LAYER_1
 10
21.6326
 20
221.0198
  0
VERTEX
  8
LAYER_1
 10
20.7079
 20
219.2283
  0
VERTEX
  8
LAYER_1
 10
22.3723
 20
219.2283
 42
-0.3469995172
  0
VERTEX
  8
LAYER_1
 10
22.4433
 20
219.1205
 42
-0.469787885
  0
VERTEX
  8
LAYER_1
 10
22.3723
 20
219.013
  0
VERTEX
  8
LAYER_1
 10
20.6087
 20
219.013
 42
0.02199150341
  0
VERTEX
  8
LAYER_1
 10
18.1696
 20
214.0155
 42
0.08471465058
  0
VERTEX
  8
LAYER_1
 10
17.906
 20
213.1184
 42
0.4613590433
  0
VERTEX
  8
LAYER_1
 10
18.1761
 20
212.8497
 42
0.148487407
  0
VERTEX
  8
LAYER_1
 10
18.6786
 20
213.0319
 42
0.06945325035
  0
VERTEX
  8
LAYER_1
 10
19.5074
 20
213.8355
 42
0.0106944652
  0
VERTEX
  8
LAYER_1
 10
19.7409
 20
214.1216
 42
0.006428086733
  0
VERTEX
  8
LAYER_1
 10
20.6229
 20
215.3043
 42
-0.4715771679
  0
VERTEX
  8
LAYER_1
 10
20.6938
 20
215.1965
 42
-0.04234270057
  0
VERTEX
  8
LAYER_1
 10
19.9256
 20
214.1041
 42
-0.0510538128
  0
VERTEX
  8
LAYER_1
 10
18.8877
 20
212.9815
 42
-0.1615788746
  0
VERTEX
  8
LAYER_1
 10
18.1479
 20
212.6347
 42
-0.1802604331
  0
VERTEX
  8
LAYER_1
 10
17.7436
 20
212.7928
 42
-0.1535295333
  0
VERTEX
  8
LAYER_1
 10
17.5093
 20
213.2324
 42
-0.0618956673
  0
VERTEX
  8
LAYER_1
 10
17.4795
 20
213.5125
 42
-0.07589053047
  0
VERTEX
  8
LAYER_1
 10
17.6384
 20
214.5224
 42
-0.04966442196
  0
VERTEX
  8
LAYER_1
 10
18.3199
 20
216.0408
 42
-0.01055078127
  0
VERTEX
  8
LAYER_1
 10
18.8021
 20
216.9166
  0
VERTEX
  8
LAYER_1
 10
18.7739
 20
216.9528
  0
VERTEX
  8
LAYER_1
 10
17.906
 20
215.6985
 42
-0.1771714214
  0
VERTEX
  8
LAYER_1
 10
17.3514
 20
214.9281
 42
-0.4634352782
  0
VERTEX
  8
LAYER_1
 10
17.2801
 20
214.9998
 42
-0.09946693225
  0
VERTEX
  8
LAYER_1
 10
17.8919
 20
215.9314
 42
0.02782769223
  0
VERTEX
  8
LAYER_1
 10
19.8405
 20
219.013
  0
VERTEX
  8
LAYER_1
 10
19.3286
 20
219.013
 42
-0.4255659197
  0
VERTEX
  8
LAYER_1
 10
19.2572
 20
219.1205
 42
-0.3103426855
  0
VERTEX
  8
LAYER_1
 10
19.3144
 20
219.2283
  0
VERTEX
  8
LAYER_1
 10
19.9114
 20
219.2283
  0
SEQEND
  0
INSERT
  8
LAYER_1
  2
AIGNBL01030006
 10
0
 20
0
 30
0
  0
POLYLINE
  8
LAYER_1
 40
0.05
 41
0.05
 66
1
 10
0
 20
0
 30
0
 70
1
  0
VERTEX
  8
LAYER_1
 10
25.4725
 20
212.6347
 42
-0.01228468897
  0
VERTEX
  8
LAYER_1
 10
27.2327
 20
215.8939
 42
0.07995397451
  0
VERTEX
  8
LAYER_1
 10
27.7483
 20
217.1316
 42
0.4014267626
  0
VERTEX
  8
LAYER_1
 10
27.5351
 20
217.4003
 42
0.1598907122
  0
VERTEX
  8
LAYER_1
 10
27.0845
 20
217.2358
 42
0.07299253401
  0
VERTEX
  8
LAYER_1
 10
26.3142
 20
216.408
 42
0.0117130809
  0
VERTEX
  8
LAYER_1
 10
26.0275
 20
216.0213
 42
-0.4011124954
  0
VERTEX
  8
LAYER_1
 10
25.3165
 20
215.0356
 42
-0.4089240921
  0
VERTEX
  8
LAYER_1
 10
25.2451
 20
215.1431
 42
-0.02611517766
  0
VERTEX
  8
LAYER_1
 10
25.786
 20
215.9672
 42
-0.05229640522
  0
VERTEX
  8
LAYER_1
 10
26.7509
 20
217.1808
 42
-0.1068535034
  0
VERTEX
  8
LAYER_1
 10
27.3308
 20
217.5692
 42
-0.08671269866
  0
VERTEX
  8
LAYER_1
 10
27.5923
 20
217.6153
 42
-0.2146784694
  0
VERTEX
  8
LAYER_1
 10
27.9211
 20
217.4793
 42
-0.1556145244
  0
VERTEX
  8
LAYER_1
 10
28.1025
 20
217.0073
 42
-0.04318154641
  0
VERTEX
  8
LAYER_1
 10
28.118
 20
216.7375
 42
-0.08856342094
  0
VERTEX
  8
LAYER_1
 10
27.9244
 20
215.865
 42
-0.04490702306
  0
VERTEX
  8
LAYER_1
 10
27.222
 20
214.4803
  0
VERTEX
  8
LAYER_1
 10
27.2505
 20
214.4441
 42
-0.03457823013
  0
VERTEX
  8
LAYER_1
 10
29.3061
 20
217.0399
 42
-0.08839059668
  0
VERTEX
  8
LAYER_1
 10
29.9605
 20
217.5625
 42
-0.1219409022
  0
VERTEX
  8
LAYER_1
 10
30.1665
 20
217.6153
 42
-0.2248813482
  0
VERTEX
  8
LAYER_1
 10
30.4696
 20
217.4667
 42
-0.1734693243
  0
VERTEX
  8
LAYER_1
 10
30.6788
 20
216.7733
 42
-0.09390053778
  0
VERTEX
  8
LAYER_1
 10
30.511
 20
215.9412
 42
-0.03654250026
  0
VERTEX
  8
LAYER_1
 10
30.1523
 20
215.2327
 42
0.04398002771
  0
VERTEX
  8
LAYER_1
 10
29.2696
 20
213.5255
 42
0.1015198606
  0
VERTEX
  8
LAYER_1
 10
29.1991
 20
213.208
 42
0.2157068686
  0
VERTEX
  8
LAYER_1
 10
29.3236
 20
212.8862
 42
0.1285035482
  0
VERTEX
  8
LAYER_1
 10
29.4268
 20
212.8497
 42
0.1650972335
  0
VERTEX
  8
LAYER_1
 10
29.871
 20
213.0764
 42
0.05883838877
  0
VERTEX
  8
LAYER_1
 10
30.9344
 20
214.2829
 42
-0.08115875989
  0
VERTEX
  8
LAYER_1
 10
31.6885
 20
215.3043
 42
-0.3572659198
  0
VERTEX
  8
LAYER_1
 10
31.7453
 20
215.2148
 42
-0.04874223084
  0
VERTEX
  8
LAYER_1
 10
30.8493
 20
213.907
 42
-0.05656186682
  0
VERTEX
  8
LAYER_1
 10
29.868
 20
212.8538
 42
-0.1605602844
  0
VERTEX
  8
LAYER_1
 10
29.3982
 20
212.6347
 42
-0.2037771357
  0
VERTEX
  8
LAYER_1
 10
29.0572
 20
212.7773
 42
-0.142116986
  0
VERTEX
  8
LAYER_1
 10
28.8204
 20
213.279
 42
-0.04857905581
  0
VERTEX
  8
LAYER_1
 10
28.7726
 20
213.7812
 42
-0.08513707709
  0
VERTEX
  8
LAYER_1
 10
28.937
 20
214.6525
 42
-0.05750391016
  0
VERTEX
  8
LAYER_1
 10
29.5767
 20
215.8965
 42
0.1149842255
  0
VERTEX
  8
LAYER_1
 10
30.3088
 20
217.1857
 42
0.4238504536
  0
VERTEX
  8
LAYER_1
 10
30.1096
 20
217.4003
 42
0.1652527489
  0
VERTEX
  8
LAYER_1
 10
29.6937
 20
217.1703
 42
0.04717960891
  0
VERTEX
  8
LAYER_1
 10
28.5752
 20
215.9196
 42
0.03256067018
  0
VERTEX
  8
LAYER_1
 10
26.4258
 20
212.7426
  0
SEQEND
  0
INSERT
  8
LAYER_1
  2
AIGNBL01030007
 10
0
 20
0
 30
0
  0
ENDBLK
  0
BLOCK
  8
LAYER_10
  2
AIGNBL0A020004
 70
64
 10
0
 20
0
 30
0
  3
AIGNBL0A020004
  0
INSERT
  8
LAYER_10
  2
AIGNBL0A030005
 10
0
 20
0
 30
0
  0
ENDBLK
  0
BLOCK
  8
LAYER_10
  2
AIGNBL0A02000D
 70
64
 10
0
 20
0
 30
0
  3
AIGNBL0A02000D
  0
INSERT
  8
LAYER_10
  2
AIGNBL0A03000E
 10
0
 20
0
 30
0
  0
INSERT
  8
LAYER_10
  2
AIGNBL0A03000F
 10
0
 20
0
 30
0
  0
INSERT
  8
LAYER_10
  2
AIGNBL0A030010
 10
0
 20
0
 30
0
  0
INSERT
  8
LAYER_10
  2
AIGNBL0A030011
 10
0
 20
0
 30
0
  0
INSERT
  8
LAYER_10
  2
AIGNBL0A030012
 10
0
 20
0
 30
0
  0
INSERT
  8
LAYER_10
  2
AIGNBL0A030013
 10
0
 20
0
 30
0
  0
INSERT
  8
LAYER_10
  2
AIGNBL0A030014
 10
0
 20
0
 30
0
  0
INSERT
  8
LAYER_10
  2
AIGNBL0A030015
 10
0
 20
0
 30
0
  0
INSERT
  8
LAYER_10
  2
AIGNBL0A030016
 10
0
 20
0
 30
0
  0
INSERT
  8
LAYER_10
  2
AIGNBL0A030017
 10
0
 20
0
 30
0
  0
INSERT
  8
LAYER_10
  2
AIGNBL0A030018
 10
0
 20
0
 30
0
  0
INSERT
  8
LAYER_10
  2
AIGNBL0A030019
 10
0
 20
0
 30
0
  0
INSERT
  8
LAYER_10
  2
AIGNBL0A03001A
 10
0
 20
0
 30
0
  0
INSERT
  8
LAYER_10
  2
AIGNBL0A03001B
 10
0
 20
0
 30
0
  0
INSERT
  8
LAYER_10
  2
AIGNBL0A03001C
 10
0
 20
0
 30
0
  0
INSERT
  8
LAYER_10
  2
AIGNBL0A03001D
 10
0
 20
0
 30
0
  0
INSERT
  8
LAYER_10
  2
AIGNBL0A03001E
 10
0
 20
0
 30
0
  0
INSERT
  8
LAYER_10
  2
AIGNBL0A03001F
 10
0
 20
0
 30
0
  0
INSERT
  8
LAYER_10
  2
AIGNBL0A030020
 10
0
 20
0
 30
0
  0
INSERT
  8
LAYER_10
  2
AIGNBL0A030021
 10
0
 20
0
 30
0
  0
INSERT
  8
LAYER_10
  2
AIGNBL0A030022
 10
0
 20
0
 30
0
  0
INSERT
  8
LAYER_10
  2
AIGNBL0A030023
 10
0
 20
0
 30
0
  0
INSERT
  8
LAYER_10
  2
AIGNBL0A030024
 10
0
 20
0
 30
0
  0
ENDBLK
  0
BLOCK
  8
LAYER_1
  2
AIGNBL01010002
 70
64
 10
0
 20
0
 30
0
  3
AIGNBL01010002
  0
INSERT
  8
LAYER_1
  2
AIGNBL01020003
 10
0
 20
0
 30
0
  0
ENDBLK
  0
BLOCK
  8
LAYER_2
  2
AIGNBL02010002
 70
64
 10
0
 20
0
 30
0
  3
AIGNBL02010002
  0
TEXT
  8
LAYER_2
 10
79.4325
 20
162.8223
 11
79.4325
 21
162.8223
 40
2.6656
 41
0.5
  1
46
  0
ENDBLK
  0
BLOCK
  8
LAYER_2
  2
AIGNBL02010003
 70
64
 10
0
 20
0
 30
0
  3
AIGNBL02010003
  0
TEXT
  8
LAYER_2
 10
63.1936
 20
161.9576
 11
63.1936
 21
161.9576
 40
2.6656
 41
0.5
  1
70
  0
ENDBLK
  0
BLOCK
  8
LAYER_2
  2
AIGNBL02010004
 70
64
 10
0
 20
0
 30
0
  3
AIGNBL02010004
  0
TEXT
  8
LAYER_2
 10
63.0013
 20
170.2213
 11
63.0013
 21
170.2213
 40
2.6656
 41
0.5
  1
9
  0
ENDBLK
  0
BLOCK
  8
LAYER_2
  2
AIGNBL02010005
 70
64
 10
0
 20
0
 30
0
  3
AIGNBL02010005
  0
TEXT
  8
LAYER_2
 10
98.8024
 20
169.5213
 11
98.8024
 21
169.5213
 40
2.6656
 41
0.5
  1
35
  0
ENDBLK
  0
BLOCK
  8
LAYER_2
  2
AIGNBL02010006
 70
64
 10
0
 20
0
 30
0
  3
AIGNBL02010006
  0
TEXT
  8
LAYER_2
 10
103.0302
 20
176.92
 11
103.0302
 21
176.92
 40
2.6656
 41
0.5
  1
72
  0
ENDBLK
  0
BLOCK
  8
LAYER_2
  2
AIGNBL02010007
 70
64
 10
0
 20
0
 30
0
  3
AIGNBL02010007
  0
TEXT
  8
LAYER_2
 10
41.1766
 20
174.9208
 11
41.1766
 21
174.9208
 40
2.6656
 41
0.5
  1
129
  0
ENDBLK
  0
BLOCK
  8
LAYER_2
  2
AIGNBL02010008
 70
64
 10
0
 20
0
 30
0
  3
AIGNBL02010008
  0
TEXT
  8
LAYER_2
 10
71.3391
 20
144.5819
 11
71.3391
 21
144.5819
 40
2.6656
 41
0.5
  1
505
  0
ENDBLK
  0
BLOCK
  8
LAYER_2
  2
AIGNBL02010009
 70
64
 10
0
 20
0
 30
0
  3
AIGNBL02010009
  0
TEXT
  8
LAYER_2
 10
8.1917
 20
127.4722
 11
8.1917
 21
127.4722
 40
2.6656
 41
0.5
  1
110
  0
ENDBLK
  0
BLOCK
  8
LAYER_2
  2
AIGNBL0201000A
 70
64
 10
0
 20
0
 30
0
  3
AIGNBL0201000A
  0
TEXT
  8
LAYER_2
 10
114.0252
 20
144.5819
 11
114.0252
 21
144.5819
 40
2.6656
 41
0.5
  1
255
  0
ENDBLK
  0
BLOCK
  8
LAYER_2
  2
AIGNBL0201000B
 70
64
 10
0
 20
0
 30
0
  3
AIGNBL0201000B
  0
TEXT
  8
LAYER_2
 10
161.6502
 20
143.9583
 11
161.6502
 21
143.9583
 40
2.6656
 41
0.5
  1
447
  0
ENDBLK
  0
BLOCK
  8
LAYER_2
  2
AIGNBL0201000C
 70
64
 10
0
 20
0
 30
0
  3
AIGNBL0201000C
  0
TEXT
  8
LAYER_2
 10
97.6211
 20
125.3555
 11
97.6211
 21
125.3555
 40
2.6656
 41
0.5
  1
161
  0
ENDBLK
  0
BLOCK
  8
LAYER_2
  2
AIGNBL0201000D
 70
64
 10
0
 20
0
 30
0
  3
AIGNBL0201000D
  0
TEXT
  8
LAYER_2
 10
131.0587
 20
126.4138
 11
131.0587
 21
126.4138
 40
2.6656
 41
0.5
  1
220
  0
ENDBLK
  0
BLOCK
  8
LAYER_2
  2
AIGNBL0201000E
 70
64
 10
0
 20
0
 30
0
  3
AIGNBL0201000E
  0
TEXT
  8
LAYER_2
 10
93.133
 20
175.4789
 11
93.133
 21
175.4789
 40
2.6656
 41
0.5
  1
40
  0
ENDBLK
  0
BLOCK
  8
LAYER_2
  2
AIGNBL0201000F
 70
64
 10
0
 20
0
 30
0
  3
AIGNBL0201000F
  0
TEXT
  8
LAYER_2
 10
84.9655
 20
174.6138
 11
84.9655
 21
174.6138
 40
2.6656
 41
0.5
  1
41
  0
ENDBLK
  0
BLOCK
  8
LAYER_2
  2
AIGNBL02010010
 70
64
 10
0
 20
0
 30
0
  3
AIGNBL02010010
  0
TEXT
  8
LAYER_2
 10
143.2583
 20
125.4185
 11
143.2583
 21
125.4185
 40
2.6656
 41
0.5
  1
6
  0
ENDBLK
  0
BLOCK
  8
LAYER_2
  2
AIGNBL02010011
 70
64
 10
0
 20
0
 30
0
  3
AIGNBL02010011
  0
TEXT
  8
LAYER_2
 10
78.6999
 20
86.9658
 11
78.6999
 21
86.9658
 40
2.6656
 41
0.5
  1
61
  0
ENDBLK
  0
BLOCK
  8
LAYER_10
  2
AIGNBL0A010002
 70
64
 10
0
 20
0
 30
0
  3
AIGNBL0A010002
  0
POLYLINE
  8
LAYER_10
 40
0.7056
 41
0.7056
 66
1
 10
0
 20
0
 30
0
 70
1
  0
VERTEX
  8
LAYER_10
 10
251.6749
 20
230.337
  0
VERTEX
  8
LAYER_10
 10
251.6749
 20
33.3285
  0
VERTEX
  8
LAYER_10
 10
-30.3177
 20
33.3285
  0
VERTEX
  8
LAYER_10
 10
-30.3177
 20
230.337
  0
SEQEND
  0
ENDBLK
  0
BLOCK
  8
LAYER_10
  2
AIGNBL0A010003
 70
64
 10
0
 20
0
 30
0
  3
AIGNBL0A010003
  0
INSERT
  8
LAYER_10
  2
AIGNBL0A020004
 10
0
 20
0
 30
0
  0
INSERT
  8
LAYER_10
  2
AIGNBL0A02000D
 10
0
 20
0
 30
0
  0
ENDBLK
  0
ENDSEC
  0
SECTION
  2
ENTITIES
  0
INSERT
  8
LAYER_1
  2
AIGNBL01010002
 10
0
 20
0
 30
0
  0
INSERT
  8
LAYER_2
  2
AIGNBL02010002
 10
0
 20
0
 30
0
  0
INSERT
  8
LAYER_2
  2
AIGNBL02010003
 10
0
 20
0
 30
0
  0
INSERT
  8
LAYER_2
  2
AIGNBL02010004
 10
0
 20
0
 30
0
  0
INSERT
  8
LAYER_2
  2
AIGNBL02010005
 10
0
 20
0
 30
0
  0
INSERT
  8
LAYER_2
  2
AIGNBL02010006
 10
0
 20
0
 30
0
  0
INSERT
  8
LAYER_2
  2
AIGNBL02010007
 10
0
 20
0
 30
0
  0
INSERT
  8
LAYER_2
  2
AIGNBL02010008
 10
0
 20
0
 30
0
  0
INSERT
  8
LAYER_2
  2
AIGNBL02010009
 10
0
 20
0
 30
0
  0
INSERT
  8
LAYER_2
  2
AIGNBL0201000A
 10
0
 20
0
 30
0
  0
INSERT
  8
LAYER_2
  2
AIGNBL0201000B
 10
0
 20
0
 30
0
  0
INSERT
  8
LAYER_2
  2
AIGNBL0201000C
 10
0
 20
0
 30
0
  0
INSERT
  8
LAYER_2
  2
AIGNBL0201000D
 10
0
 20
0
 30
0
  0
INSERT
  8
LAYER_2
  2
AIGNBL0201000E
 10
0
 20
0
 30
0
  0
INSERT
  8
LAYER_2
  2
AIGNBL0201000F
 10
0
 20
0
 30
0
  0
INSERT
  8
LAYER_2
  2
AIGNBL02010010
 10
0
 20
0
 30
0
  0
INSERT
  8
LAYER_2
  2
AIGNBL02010011
 10
0
 20
0
 30
0
  0
TEXT
  8
LAYER_10
 10
-26.2556
 20
43.1712
 11
-26.2556
 21
43.1712
 40
3.2995
 41
0.5
  1
仕様
  0
POLYLINE
  8
LAYER_10
 40
0.3528
 41
0.3528
 66
1
 10
0
 20
0
 30
0
  0
VERTEX
  8
LAYER_10
 10
250.6748
 20
51.9507
  0
VERTEX
  8
LAYER_10
 10
-29.3178
 20
51.9507
  0
SEQEND
  0
INSERT
  8
LAYER_10
  2
AIGNBL0A010002
 10
0
 20
0
 30
0
  0
POLYLINE
  8
LAYER_10
 40
0.3528
 41
0.3528
 66
1
 10
0
 20
0
 30
0
  0
VERTEX
  8
LAYER_10
 10
-29.3178
 20
229.3369
  0
VERTEX
  8
LAYER_10
 10
-29.3178
 20
34.3283
  0
VERTEX
  8
LAYER_10
 10
250.6748
 20
34.3283
  0
VERTEX
  8
LAYER_10
 10
250.6748
 20
229.3369
  0
VERTEX
  8
LAYER_10
 10
-29.3178
 20
229.3369
  0
SEQEND
  0
POLYLINE
  8
LAYER_10
 40
0.3528
 41
0.3528
 66
1
 10
0
 20
0
 30
0
  0
VERTEX
  8
LAYER_10
 10
250.6748
 20
60.4597
  0
VERTEX
  8
LAYER_10
 10
-29.3178
 20
60.4597
  0
SEQEND
  0
POLYLINE
  8
LAYER_10
 40
0.3528
 41
0.3528
 66
1
 10
0
 20
0
 30
0
  0
VERTEX
  8
LAYER_10
 10
250.6748
 20
43.4416
  0
VERTEX
  8
LAYER_10
 10
143.5341
 20
43.4416
  0
SEQEND
  0
TEXT
  8
LAYER_10
 10
188.1725
 20
45.7175
 11
188.1725
 21
45.7175
 40
3.7615
 41
0.5
  1
-
  0
TEXT
  8
LAYER_10
 10
182.8808
 20
49.4743
 11
182.8808
 21
49.4743
 40
2.1997
 41
0.5
  1
縮尺
  0
POLYLINE
  8
LAYER_10
 40
0.3528
 41
0.3528
 66
1
 10
0
 20
0
 30
0
  0
VERTEX
  8
LAYER_10
 10
181.3526
 20
43.4416
  0
VERTEX
  8
LAYER_10
 10
181.3526
 20
51.9507
  0
SEQEND
  0
TEXT
  8
LAYER_10
 10
144.2327
 20
57.9834
 11
144.2327
 21
57.9834
 40
2.1997
 41
0.5
  1
品番
  0
TEXT
  8
LAYER_10
 10
-28.1609
 20
57.9834
 11
-28.1609
 21
57.9834
 40
2.1997
 41
0.5
  1
品名
  0
TEXT
  8
LAYER_10
 10
144.2327
 20
49.4743
 11
144.2327
 21
49.4743
 40
2.1997
 41
0.5
  1
重量
  0
TEXT
  8
LAYER_10
 10
150.2547
 20
54.1514
 11
150.2547
 21
54.1514
 40
5.9385
 41
0.5
  1
BUR-P13/WH
  0
POLYLINE
  8
LAYER_10
 40
0.3528
 41
0.3528
 66
1
 10
0
 20
0
 30
0
  0
VERTEX
  8
LAYER_10
 10
143.5341
 20
34.9539
  0
VERTEX
  8
LAYER_10
 10
143.5341
 20
60.4597
  0
SEQEND
  0
TEXT
  8
LAYER_10
 10
-15.4394
 20
54.891
 11
-15.4394
 21
54.891
 40
4.1465
 41
0.5
  1
クロークルーム壁付け手洗器505mm
  0
TEXT
  8
LAYER_10
 10
-15.6835
 20
45.3736
 11
-15.6835
 21
45.3736
 40
3.5541
 41
0.5
  1
●サイズ：W505×D255×H220mm●設置方法：壁付け●l4栓取付zt：１zt
  0
TEXT
  8
LAYER_10
 10
-15.6835
 20
40.6235
 11
-15.6835
 21
40.6235
 40
3.1177
 41
0.5
  1
●オーバーフロー付き●排l4金具別途●取り付けブラケット・ビス・プラグ同梱
  0
TEXT
  8
LAYER_10
 10
237.263
 20
63.2582
 11
237.263
 21
63.2582
 40
2.9618
 41
0.5
  1
単位：mm
  0
TEXT
  8
LAYER_10
 10
38.907
 20
216.6865
 11
38.907
 21
216.6865
 40
2.5981
 41
0.5
  1
※陶器製品は寸法公差が発生します。施工の際は必ず現物を合わせてご確認ください。
  0
TEXT
  8
LAYER_10
 10
38.907
 20
211.9366
 11
38.907
 21
211.9366
 40
2.5981
 41
0.5
  1
※製品と接する部分には必ずコーキング処理を行ってください。
  0
TEXT
  8
LAYER_10
 10
176.0254
 20
39.5359
 11
176.0254
 21
39.5359
 40
3.3853
 41
0.5
  1
●TEL 0120-65-1232●FAX 06-6532-1580
  0
TEXT
  8
LAYER_10
 10
176.0254
 20
36.0212
 11
176.0254
 21
36.0212
 40
3.3853
 41
0.5
  1
hits@hiratatile.co.jp
  0
TEXT
  8
LAYER_10
 10
240.3591
 20
225.8432
 11
240.3591
 21
225.8432
 40
2.0732
 41
0.5
  1
180604RT
  0
INSERT
  8
LAYER_10
  2
AIGNBL0A010003
 10
0
 20
0
 30
0
  0
TEXT
  8
LAYER_10
 10
157.2803
 20
46.4933
 11
157.2803
 21
46.4933
 40
3.7615
 41
0.5
  1
7.1kg
  0
POLYLINE
  8
LAYER_10
 40
0.1058
 41
0.1058
 66
1
 10
0
 20
0
 30
0
  0
VERTEX
  8
LAYER_10
 10
72.4697
 20
168.5227
  0
VERTEX
  8
LAYER_10
 10
45.6964
 20
168.5227
  0
SEQEND
  0
POLYLINE
  8
LAYER_10
 40
0.1058
 41
0.1058
 66
1
 10
0
 20
0
 30
0
  0
VERTEX
  8
LAYER_10
 10
47.3937
 20
181.4439
  0
VERTEX
  8
LAYER_10
 10
45.6964
 20
181.4439
  0
SEQEND
  0
POLYLINE
  8
LAYER_10
 40
0.1058
 41
0.1058
 66
1
 10
0
 20
0
 30
0
  0
VERTEX
  8
LAYER_10
 10
46.1891
 20
170.5076
  0
VERTEX
  8
LAYER_10
 10
46.1891
 20
179.4591
  0
SEQEND
  0
POLYLINE
  8
LAYER_10
 40
0.05
 41
0.05
 66
1
 10
0
 20
0
 30
0
  0
VERTEX
  8
LAYER_10
 10
45.8606
 20
170.5076
  0
VERTEX
  8
LAYER_10
 10
46.5177
 20
170.5076
  0
VERTEX
  8
LAYER_10
 10
46.1891
 20
168.5227
  0
SEQEND
  0
POLYLINE
  8
LAYER_10
 40
0.05
 41
0.05
 66
1
 10
0
 20
0
 30
0
  0
VERTEX
  8
LAYER_10
 10
45.8606
 20
179.4591
  0
VERTEX
  8
LAYER_10
 10
46.5177
 20
179.4591
  0
VERTEX
  8
LAYER_10
 10
46.1891
 20
181.4439
  0
SEQEND
  0
POLYLINE
  8
LAYER_10
 40
0.1058
 41
0.1058
 66
1
 10
0
 20
0
 30
0
 70
1
  0
VERTEX
  8
LAYER_10
 10
92.0843
 20
174.3949
  0
VERTEX
  8
LAYER_10
 10
92.0571
 20
174.6822
  0
VERTEX
  8
LAYER_10
 10
91.9613
 20
174.9697
 42
0.2217693385
  0
VERTEX
  8
LAYER_10
 10
90.9665
 20
175.8368
 42
0.4057056149
  0
VERTEX
  8
LAYER_10
 10
89.1277
 20
174.6822
  0
VERTEX
  8
LAYER_10
 10
89.1003
 20
174.3949
  0
VERTEX
  8
LAYER_10
 10
89.1277
 20
174.1072
 42
0.2182251264
  0
VERTEX
  8
LAYER_10
 10
89.9367
 20
173.0606
 42
0.4093226521
  0
VERTEX
  8
LAYER_10
 10
91.9613
 20
173.8199
  0
VERTEX
  8
LAYER_10
 10
92.0571
 20
174.1072
  0
SEQEND
  0
POLYLINE
  8
LAYER_10
 40
0.1058
 41
0.1058
 66
1
 10
0
 20
0
 30
0
  0
VERTEX
  8
LAYER_10
 10
90.5922
 20
176.2152
  0
VERTEX
  8
LAYER_10
 10
90.5922
 20
172.5743
  0
SEQEND
  0
POLYLINE
  8
LAYER_10
 40
0.1058
 41
0.1058
 66
1
 10
0
 20
0
 30
0
  0
VERTEX
  8
LAYER_10
 10
88.7718
 20
174.3949
  0
VERTEX
  8
LAYER_10
 10
92.4126
 20
174.3949
  0
SEQEND
  0
POLYLINE
  8
LAYER_10
 40
0.1058
 41
0.1058
 66
1
 10
0
 20
0
 30
0
  0
VERTEX
  8
LAYER_10
 10
91.5775
 20
174.3949
  0
VERTEX
  8
LAYER_10
 10
102.309
 20
174.3949
  0
SEQEND
  0
POLYLINE
  8
LAYER_10
 40
0.1058
 41
0.1058
 66
1
 10
0
 20
0
 30
0
  0
VERTEX
  8
LAYER_10
 10
99.462
 20
181.4439
  0
VERTEX
  8
LAYER_10
 10
102.309
 20
181.4439
  0
SEQEND
  0
POLYLINE
  8
LAYER_10
 40
0.1058
 41
0.1058
 66
1
 10
0
 20
0
 30
0
  0
VERTEX
  8
LAYER_10
 10
101.816
 20
176.3794
  0
VERTEX
  8
LAYER_10
 10
101.816
 20
179.4591
  0
SEQEND
  0
POLYLINE
  8
LAYER_10
 40
0.05
 41
0.05
 66
1
 10
0
 20
0
 30
0
  0
VERTEX
  8
LAYER_10
 10
101.4877
 20
176.3794
  0
VERTEX
  8
LAYER_10
 10
102.145
 20
176.3794
  0
VERTEX
  8
LAYER_10
 10
101.816
 20
174.3949
  0
SEQEND
  0
POLYLINE
  8
LAYER_10
 40
0.05
 41
0.05
 66
1
 10
0
 20
0
 30
0
  0
VERTEX
  8
LAYER_10
 10
101.4877
 20
179.4591
  0
VERTEX
  8
LAYER_10
 10
102.145
 20
179.4591
  0
VERTEX
  8
LAYER_10
 10
101.816
 20
181.4439
  0
SEQEND
  0
POLYLINE
  8
LAYER_10
 40
0.1058
 41
0.1058
 66
1
 10
0
 20
0
 30
0
  0
VERTEX
  8
LAYER_10
 10
101.4057
 20
168.9608
  0
VERTEX
  8
LAYER_10
 10
95.8894
 20
168.9608
  0
VERTEX
  8
LAYER_10
 10
93.0148
 20
171.9037
  0
SEQEND
  0
POLYLINE
  8
LAYER_10
 40
0.05
 41
0.05
 66
1
 10
0
 20
0
 30
0
  0
VERTEX
  8
LAYER_10
 10
93.2477
 20
172.1363
  0
VERTEX
  8
LAYER_10
 10
92.7823
 20
171.6848
  0
VERTEX
  8
LAYER_10
 10
91.6327
 20
173.3271
  0
SEQEND
  0
POLYLINE
  8
LAYER_10
 40
0.1058
 41
0.1058
 66
1
 10
0
 20
0
 30
0
 70
1
  0
VERTEX
  8
LAYER_10
 10
57.9744
 20
98.8109
  0
VERTEX
  8
LAYER_10
 10
57.9469
 20
99.0847
  0
VERTEX
  8
LAYER_10
 10
57.8785
 20
99.3445
 42
0.210360233
  0
VERTEX
  8
LAYER_10
 10
56.9487
 20
100.2866
 42
0.4367808231
  0
VERTEX
  8
LAYER_10
 10
54.8671
 20
99.0847
  0
VERTEX
  8
LAYER_10
 10
54.8399
 20
98.8109
  0
VERTEX
  8
LAYER_10
 10
54.8671
 20
98.537
 42
0.2177123897
  0
VERTEX
  8
LAYER_10
 10
55.6374
 20
97.4512
 42
0.4284696652
  0
VERTEX
  8
LAYER_10
 10
57.8785
 20
98.2772
  0
VERTEX
  8
LAYER_10
 10
57.9469
 20
98.537
  0
SEQEND
  0
POLYLINE
  8
LAYER_10
 40
0.1058
 41
0.1058
 66
1
 10
0
 20
0
 30
0
  0
VERTEX
  8
LAYER_10
 10
141.4425
 20
131.8259
  0
VERTEX
  8
LAYER_10
 10
141.4425
 20
143.3783
  0
SEQEND
  0
POLYLINE
  8
LAYER_10
 40
0.1058
 41
0.1058
 66
1
 10
0
 20
0
 30
0
  0
VERTEX
  8
LAYER_10
 10
185.7771
 20
131.8259
  0
VERTEX
  8
LAYER_10
 10
185.7771
 20
143.3783
  0
SEQEND
  0
POLYLINE
  8
LAYER_10
 40
0.1058
 41
0.1058
 66
1
 10
0
 20
0
 30
0
  0
VERTEX
  8
LAYER_10
 10
143.4269
 20
142.8855
  0
VERTEX
  8
LAYER_10
 10
183.7923
 20
142.8855
  0
SEQEND
  0
POLYLINE
  8
LAYER_10
 40
0.05
 41
0.05
 66
1
 10
0
 20
0
 30
0
  0
VERTEX
  8
LAYER_10
 10
143.4269
 20
143.214
  0
VERTEX
  8
LAYER_10
 10
143.4269
 20
142.557
  0
VERTEX
  8
LAYER_10
 10
141.4425
 20
142.8855
  0
SEQEND
  0
POLYLINE
  8
LAYER_10
 40
0.05
 41
0.05
 66
1
 10
0
 20
0
 30
0
  0
VERTEX
  8
LAYER_10
 10
183.7923
 20
143.214
  0
VERTEX
  8
LAYER_10
 10
183.7923
 20
142.557
  0
VERTEX
  8
LAYER_10
 10
185.7771
 20
142.8855
  0
SEQEND
  0
POLYLINE
  8
LAYER_10
 40
0.1058
 41
0.1058
 66
1
 10
0
 20
0
 30
0
  0
VERTEX
  8
LAYER_10
 10
146.2739
 20
124.5026
  0
VERTEX
  8
LAYER_10
 10
142.3183
 20
124.5026
  0
VERTEX
  8
LAYER_10
 10
141.7571
 20
128.5816
  0
SEQEND
  0
POLYLINE
  8
LAYER_10
 40
0.05
 41
0.05
 66
1
 10
0
 20
0
 30
0
  0
VERTEX
  8
LAYER_10
 10
142.0861
 20
128.623
  0
VERTEX
  8
LAYER_10
 10
141.4287
 20
128.5272
  0
VERTEX
  8
LAYER_10
 10
141.4835
 20
130.5391
  0
SEQEND
  0
POLYLINE
  8
LAYER_10
 40
0.1058
 41
0.1058
 66
1
 10
0
 20
0
 30
0
  0
VERTEX
  8
LAYER_10
 10
141.4425
 20
131.4428
  0
VERTEX
  8
LAYER_10
 10
141.4425
 20
130.2243
  0
SEQEND
  0
POLYLINE
  8
LAYER_10
 40
0.1058
 41
0.1058
 66
1
 10
0
 20
0
 30
0
  0
VERTEX
  8
LAYER_10
 10
142.0582
 20
130.8403
  0
VERTEX
  8
LAYER_10
 10
140.84
 20
130.8403
  0
SEQEND
  0
POLYLINE
  8
LAYER_10
 40
0.1058
 41
0.1058
 66
1
 10
0
 20
0
 30
0
  0
VERTEX
  8
LAYER_10
 10
186.3796
 20
130.8403
  0
VERTEX
  8
LAYER_10
 10
185.1614
 20
130.8403
  0
SEQEND
  0
POLYLINE
  8
LAYER_10
 40
0.1058
 41
0.1058
 66
1
 10
0
 20
0
 30
0
  0
VERTEX
  8
LAYER_10
 10
185.7771
 20
131.4428
  0
VERTEX
  8
LAYER_10
 10
185.7771
 20
130.2243
  0
SEQEND
  0
POLYLINE
  8
LAYER_10
 40
0.1058
 41
0.1058
 66
1
 10
0
 20
0
 30
0
 70
1
  0
VERTEX
  8
LAYER_10
 10
141.7436
 20
130.8403
  0
VERTEX
  8
LAYER_10
 10
141.7161
 20
130.9498
  0
VERTEX
  8
LAYER_10
 10
141.6613
 20
131.0456
 42
0.5108531121
  0
VERTEX
  8
LAYER_10
 10
141.1683
 20
130.9498
  0
VERTEX
  8
LAYER_10
 10
141.1552
 20
130.8403
  0
VERTEX
  8
LAYER_10
 10
141.1683
 20
130.7307
  0
VERTEX
  8
LAYER_10
 10
141.2372
 20
130.6212
  0
VERTEX
  8
LAYER_10
 10
141.333
 20
130.5667
  0
VERTEX
  8
LAYER_10
 10
141.4425
 20
130.5391
  0
VERTEX
  8
LAYER_10
 10
141.5652
 20
130.5667
  0
VERTEX
  8
LAYER_10
 10
141.6613
 20
130.6212
  0
VERTEX
  8
LAYER_10
 10
141.7161
 20
130.7307
  0
SEQEND
  0
POLYLINE
  8
LAYER_10
 40
0.1058
 41
0.1058
 66
1
 10
0
 20
0
 30
0
 70
1
  0
VERTEX
  8
LAYER_10
 10
186.0785
 20
130.8403
  0
VERTEX
  8
LAYER_10
 10
186.0506
 20
130.9498
  0
VERTEX
  8
LAYER_10
 10
185.9824
 20
131.0456
  0
VERTEX
  8
LAYER_10
 10
185.8866
 20
131.1138
  0
VERTEX
  8
LAYER_10
 10
185.7771
 20
131.1414
  0
VERTEX
  8
LAYER_10
 10
185.6675
 20
131.1138
  0
VERTEX
  8
LAYER_10
 10
185.5576
 20
131.0456
  0
VERTEX
  8
LAYER_10
 10
185.5035
 20
130.9498
  0
VERTEX
  8
LAYER_10
 10
185.4756
 20
130.8403
  0
VERTEX
  8
LAYER_10
 10
185.5035
 20
130.7307
  0
VERTEX
  8
LAYER_10
 10
185.5576
 20
130.6212
  0
VERTEX
  8
LAYER_10
 10
185.6675
 20
130.5667
  0
VERTEX
  8
LAYER_10
 10
185.7771
 20
130.5391
  0
VERTEX
  8
LAYER_10
 10
185.8866
 20
130.5667
  0
VERTEX
  8
LAYER_10
 10
185.9824
 20
130.6212
  0
VERTEX
  8
LAYER_10
 10
186.0506
 20
130.7307
  0
SEQEND
  0
POLYLINE
  8
LAYER_10
 40
0.1058
 41
0.1058
 66
1
 10
0
 20
0
 30
0
  0
VERTEX
  8
LAYER_10
 10
28.0665
 20
122.4632
  0
VERTEX
  8
LAYER_10
 10
13.0648
 20
122.4632
  0
SEQEND
  0
POLYLINE
  8
LAYER_10
 40
0.1058
 41
0.1058
 66
1
 10
0
 20
0
 30
0
  0
VERTEX
  8
LAYER_10
 10
21.866
 20
133.8516
  0
VERTEX
  8
LAYER_10
 10
13.0648
 20
133.8516
  0
SEQEND
  0
POLYLINE
  8
LAYER_10
 40
0.1058
 41
0.1058
 66
1
 10
0
 20
0
 30
0
  0
VERTEX
  8
LAYER_10
 10
13.5711
 20
124.4482
  0
VERTEX
  8
LAYER_10
 10
13.5711
 20
131.8669
  0
SEQEND
  0
POLYLINE
  8
LAYER_10
 40
0.05
 41
0.05
 66
1
 10
0
 20
0
 30
0
  0
VERTEX
  8
LAYER_10
 10
13.229
 20
124.4482
  0
VERTEX
  8
LAYER_10
 10
13.8996
 20
124.4482
  0
VERTEX
  8
LAYER_10
 10
13.5711
 20
122.4632
  0
SEQEND
  0
POLYLINE
  8
LAYER_10
 40
0.05
 41
0.05
 66
1
 10
0
 20
0
 30
0
  0
VERTEX
  8
LAYER_10
 10
13.229
 20
131.8669
  0
VERTEX
  8
LAYER_10
 10
13.8996
 20
131.8669
  0
VERTEX
  8
LAYER_10
 10
13.5711
 20
133.8516
  0
SEQEND
  0
POLYLINE
  8
LAYER_10
 40
0.1058
 41
0.1058
 66
1
 10
0
 20
0
 30
0
  0
VERTEX
  8
LAYER_10
 10
105.2794
 20
133.8516
  0
VERTEX
  8
LAYER_10
 10
102.2818
 20
133.8516
  0
SEQEND
  0
POLYLINE
  8
LAYER_10
 40
0.1058
 41
0.1058
 66
1
 10
0
 20
0
 30
0
  0
VERTEX
  8
LAYER_10
 10
111.8905
 20
117.7138
  0
VERTEX
  8
LAYER_10
 10
102.2818
 20
117.7138
  0
SEQEND
  0
POLYLINE
  8
LAYER_10
 40
0.1058
 41
0.1058
 66
1
 10
0
 20
0
 30
0
  0
VERTEX
  8
LAYER_10
 10
102.7744
 20
131.8669
  0
VERTEX
  8
LAYER_10
 10
102.7744
 20
119.6988
  0
SEQEND
  0
POLYLINE
  8
LAYER_10
 40
0.05
 41
0.05
 66
1
 10
0
 20
0
 30
0
  0
VERTEX
  8
LAYER_10
 10
102.4461
 20
131.8669
  0
VERTEX
  8
LAYER_10
 10
103.1028
 20
131.8669
  0
VERTEX
  8
LAYER_10
 10
102.7744
 20
133.8516
  0
SEQEND
  0
POLYLINE
  8
LAYER_10
 40
0.05
 41
0.05
 66
1
 10
0
 20
0
 30
0
  0
VERTEX
  8
LAYER_10
 10
102.4461
 20
119.6988
  0
VERTEX
  8
LAYER_10
 10
103.1028
 20
119.6988
  0
VERTEX
  8
LAYER_10
 10
102.7744
 20
117.7138
  0
SEQEND
  0
POLYLINE
  8
LAYER_10
 40
0.1058
 41
0.1058
 66
1
 10
0
 20
0
 30
0
  0
VERTEX
  8
LAYER_10
 10
48.3929
 20
140.2986
  0
VERTEX
  8
LAYER_10
 10
48.3929
 20
143.7206
  0
SEQEND
  0
POLYLINE
  8
LAYER_10
 40
0.1058
 41
0.1058
 66
1
 10
0
 20
0
 30
0
  0
VERTEX
  8
LAYER_10
 10
98.4629
 20
140.2986
  0
VERTEX
  8
LAYER_10
 10
98.4629
 20
143.7206
  0
SEQEND
  0
POLYLINE
  8
LAYER_10
 40
0.1058
 41
0.1058
 66
1
 10
0
 20
0
 30
0
  0
VERTEX
  8
LAYER_10
 10
50.3777
 20
143.2278
  0
VERTEX
  8
LAYER_10
 10
96.4782
 20
143.2278
  0
SEQEND
  0
POLYLINE
  8
LAYER_10
 40
0.05
 41
0.05
 66
1
 10
0
 20
0
 30
0
  0
VERTEX
  8
LAYER_10
 10
50.3777
 20
143.5561
  0
VERTEX
  8
LAYER_10
 10
50.3777
 20
142.8991
  0
VERTEX
  8
LAYER_10
 10
48.3929
 20
143.2278
  0
SEQEND
  0
POLYLINE
  8
LAYER_10
 40
0.05
 41
0.05
 66
1
 10
0
 20
0
 30
0
  0
VERTEX
  8
LAYER_10
 10
96.4782
 20
143.5561
  0
VERTEX
  8
LAYER_10
 10
96.4782
 20
142.8991
  0
VERTEX
  8
LAYER_10
 10
98.4629
 20
143.2278
  0
SEQEND
  0
POLYLINE
  8
LAYER_10
 40
0.1058
 41
0.1058
 66
1
 10
0
 20
0
 30
0
  0
VERTEX
  8
LAYER_10
 10
84.5559
 20
162.1991
  0
VERTEX
  8
LAYER_10
 10
79.0534
 20
162.1991
  0
VERTEX
  8
LAYER_10
 10
76.3297
 20
165.2788
  0
SEQEND
  0
POLYLINE
  8
LAYER_10
 40
0.05
 41
0.05
 66
1
 10
0
 20
0
 30
0
  0
VERTEX
  8
LAYER_10
 10
76.576
 20
165.4978
  0
VERTEX
  8
LAYER_10
 10
76.0832
 20
165.0599
  0
VERTEX
  8
LAYER_10
 10
75.0156
 20
166.7707
  0
SEQEND
  0
POLYLINE
  8
LAYER_10
 40
0.1058
 41
0.1058
 66
1
 10
0
 20
0
 30
0
  0
VERTEX
  8
LAYER_10
 10
62.5323
 20
160.8303
  0
VERTEX
  8
LAYER_10
 10
68.0212
 20
160.8303
  0
VERTEX
  8
LAYER_10
 10
70.4028
 20
164.1974
  0
SEQEND
  0
POLYLINE
  8
LAYER_10
 40
0.05
 41
0.05
 66
1
 10
0
 20
0
 30
0
  0
VERTEX
  8
LAYER_10
 10
70.129
 20
164.3889
  0
VERTEX
  8
LAYER_10
 10
70.6767
 20
164.0059
  0
VERTEX
  8
LAYER_10
 10
71.5526
 20
165.8126
  0
SEQEND
  0
POLYLINE
  8
LAYER_10
 40
0.0847
 41
0.0847
 62
1
 66
1
 10
0
 20
0
 30
0
  0
VERTEX
  8
LAYER_10
 10
77.6575
 20
92.9525
  0
VERTEX
  8
LAYER_10
 10
77.2742
 20
92.9525
  0
SEQEND
  0
POLYLINE
  8
LAYER_10
 40
0.0847
 41
0.0847
 62
1
 66
1
 10
0
 20
0
 30
0
  0
VERTEX
  8
LAYER_10
 10
77.192
 20
92.9525
  0
VERTEX
  8
LAYER_10
 10
76.9731
 20
92.9525
  0
SEQEND
  0
POLYLINE
  8
LAYER_10
 40
0.0847
 41
0.0847
 62
1
 66
1
 10
0
 20
0
 30
0
  0
VERTEX
  8
LAYER_10
 10
76.8907
 20
92.9525
  0
VERTEX
  8
LAYER_10
 10
76.795
 20
92.9525
  0
SEQEND
  0
POLYLINE
  8
LAYER_10
 40
0.0847
 41
0.0847
 62
1
 66
1
 10
0
 20
0
 30
0
  0
VERTEX
  8
LAYER_10
 10
76.713
 20
92.9525
  0
VERTEX
  8
LAYER_10
 10
76.4939
 20
92.9525
  0
SEQEND
  0
POLYLINE
  8
LAYER_10
 40
0.0847
 41
0.0847
 62
1
 66
1
 10
0
 20
0
 30
0
  0
VERTEX
  8
LAYER_10
 10
76.4117
 20
92.9525
  0
VERTEX
  8
LAYER_10
 10
76.1928
 20
92.9525
  0
SEQEND
  0
POLYLINE
  8
LAYER_10
 40
0.0847
 41
0.0847
 62
1
 66
1
 10
0
 20
0
 30
0
  0
VERTEX
  8
LAYER_10
 10
76.097
 20
92.9525
  0
VERTEX
  8
LAYER_10
 10
76.0148
 20
92.9525
  0
SEQEND
  0
POLYLINE
  8
LAYER_10
 40
0.0847
 41
0.0847
 62
1
 66
1
 10
0
 20
0
 30
0
  0
VERTEX
  8
LAYER_10
 10
75.9327
 20
92.9525
  0
VERTEX
  8
LAYER_10
 10
75.7137
 20
92.9525
  0
SEQEND
  0
POLYLINE
  8
LAYER_10
 40
0.0847
 41
0.0847
 62
1
 66
1
 10
0
 20
0
 30
0
  0
VERTEX
  8
LAYER_10
 10
75.6178
 20
92.9525
  0
VERTEX
  8
LAYER_10
 10
75.3988
 20
92.9525
  0
SEQEND
  0
POLYLINE
  8
LAYER_10
 40
0.0847
 41
0.0847
 62
1
 66
1
 10
0
 20
0
 30
0
  0
VERTEX
  8
LAYER_10
 10
75.3167
 20
92.9525
  0
VERTEX
  8
LAYER_10
 10
75.2347
 20
92.9525
  0
SEQEND
  0
POLYLINE
  8
LAYER_10
 40
0.0847
 41
0.0847
 62
1
 66
1
 10
0
 20
0
 30
0
  0
VERTEX
  8
LAYER_10
 10
75.1389
 20
92.9525
  0
VERTEX
  8
LAYER_10
 10
74.9198
 20
92.9525
  0
SEQEND
  0
POLYLINE
  8
LAYER_10
 40
0.0847
 41
0.0847
 62
1
 66
1
 10
0
 20
0
 30
0
  0
VERTEX
  8
LAYER_10
 10
74.8376
 20
92.9525
  0
VERTEX
  8
LAYER_10
 10
74.6187
 20
92.9525
  0
SEQEND
  0
POLYLINE
  8
LAYER_10
 40
0.0847
 41
0.0847
 62
1
 66
1
 10
0
 20
0
 30
0
  0
VERTEX
  8
LAYER_10
 10
74.5365
 20
92.9525
  0
VERTEX
  8
LAYER_10
 10
74.4408
 20
92.9525
  0
SEQEND
  0
POLYLINE
  8
LAYER_10
 40
0.0847
 41
0.0847
 62
1
 66
1
 10
0
 20
0
 30
0
  0
VERTEX
  8
LAYER_10
 10
74.3586
 20
92.9525
  0
VERTEX
  8
LAYER_10
 10
74.1395
 20
92.9525
  0
SEQEND
  0
POLYLINE
  8
LAYER_10
 40
0.0847
 41
0.0847
 62
1
 66
1
 10
0
 20
0
 30
0
  0
VERTEX
  8
LAYER_10
 10
74.0575
 20
92.9525
  0
VERTEX
  8
LAYER_10
 10
73.8384
 20
92.9525
  0
SEQEND
  0
POLYLINE
  8
LAYER_10
 40
0.0847
 41
0.0847
 62
1
 66
1
 10
0
 20
0
 30
0
  0
VERTEX
  8
LAYER_10
 10
73.7426
 20
92.9525
  0
VERTEX
  8
LAYER_10
 10
73.6605
 20
92.9525
  0
SEQEND
  0
POLYLINE
  8
LAYER_10
 40
0.0847
 41
0.0847
 62
1
 66
1
 10
0
 20
0
 30
0
  0
VERTEX
  8
LAYER_10
 10
73.5783
 20
92.9525
  0
VERTEX
  8
LAYER_10
 10
73.3594
 20
92.9525
  0
SEQEND
  0
POLYLINE
  8
LAYER_10
 40
0.0847
 41
0.0847
 62
1
 66
1
 10
0
 20
0
 30
0
  0
VERTEX
  8
LAYER_10
 10
73.2636
 20
92.9525
  0
VERTEX
  8
LAYER_10
 10
73.0446
 20
92.9525
  0
SEQEND
  0
POLYLINE
  8
LAYER_10
 40
0.0847
 41
0.0847
 62
1
 66
1
 10
0
 20
0
 30
0
  0
VERTEX
  8
LAYER_10
 10
72.9625
 20
92.9525
  0
VERTEX
  8
LAYER_10
 10
72.8803
 20
92.9525
  0
SEQEND
  0
POLYLINE
  8
LAYER_10
 40
0.0847
 41
0.0847
 62
1
 66
1
 10
0
 20
0
 30
0
  0
VERTEX
  8
LAYER_10
 10
72.7845
 20
92.9525
  0
VERTEX
  8
LAYER_10
 10
72.5654
 20
92.9525
  0
SEQEND
  0
POLYLINE
  8
LAYER_10
 40
0.0847
 41
0.0847
 62
1
 66
1
 10
0
 20
0
 30
0
  0
VERTEX
  8
LAYER_10
 10
72.4834
 20
92.9525
  0
VERTEX
  8
LAYER_10
 10
72.2643
 20
92.9525
  0
SEQEND
  0
POLYLINE
  8
LAYER_10
 40
0.0847
 41
0.0847
 62
1
 66
1
 10
0
 20
0
 30
0
  0
VERTEX
  8
LAYER_10
 10
72.1822
 20
92.9525
  0
VERTEX
  8
LAYER_10
 10
72.0864
 20
92.9525
  0
SEQEND
  0
POLYLINE
  8
LAYER_10
 40
0.0847
 41
0.0847
 62
1
 66
1
 10
0
 20
0
 30
0
  0
VERTEX
  8
LAYER_10
 10
72.0042
 20
92.9525
  0
VERTEX
  8
LAYER_10
 10
71.7853
 20
92.9525
  0
SEQEND
  0
POLYLINE
  8
LAYER_10
 40
0.0847
 41
0.0847
 62
1
 66
1
 10
0
 20
0
 30
0
  0
VERTEX
  8
LAYER_10
 10
71.7031
 20
92.9525
  0
VERTEX
  8
LAYER_10
 10
71.4842
 20
92.9525
  0
SEQEND
  0
POLYLINE
  8
LAYER_10
 40
0.0847
 41
0.0847
 62
1
 66
1
 10
0
 20
0
 30
0
  0
VERTEX
  8
LAYER_10
 10
71.3883
 20
92.9525
  0
VERTEX
  8
LAYER_10
 10
71.3062
 20
92.9525
  0
SEQEND
  0
POLYLINE
  8
LAYER_10
 40
0.0847
 41
0.0847
 62
1
 66
1
 10
0
 20
0
 30
0
  0
VERTEX
  8
LAYER_10
 10
71.2241
 20
92.9525
  0
VERTEX
  8
LAYER_10
 10
71.0051
 20
92.9525
  0
SEQEND
  0
POLYLINE
  8
LAYER_10
 40
0.0847
 41
0.0847
 62
1
 66
1
 10
0
 20
0
 30
0
  0
VERTEX
  8
LAYER_10
 10
70.9092
 20
92.9525
  0
VERTEX
  8
LAYER_10
 10
70.6903
 20
92.9525
  0
SEQEND
  0
POLYLINE
  8
LAYER_10
 40
0.0847
 41
0.0847
 62
1
 66
1
 10
0
 20
0
 30
0
  0
VERTEX
  8
LAYER_10
 10
70.6081
 20
92.9525
  0
VERTEX
  8
LAYER_10
 10
70.5261
 20
92.9525
  0
SEQEND
  0
POLYLINE
  8
LAYER_10
 40
0.0847
 41
0.0847
 62
1
 66
1
 10
0
 20
0
 30
0
  0
VERTEX
  8
LAYER_10
 10
70.4301
 20
92.9525
  0
VERTEX
  8
LAYER_10
 10
70.2111
 20
92.9525
  0
SEQEND
  0
POLYLINE
  8
LAYER_10
 40
0.0847
 41
0.0847
 62
1
 66
1
 10
0
 20
0
 30
0
  0
VERTEX
  8
LAYER_10
 10
70.129
 20
92.9525
  0
VERTEX
  8
LAYER_10
 10
69.9099
 20
92.9525
  0
SEQEND
  0
POLYLINE
  8
LAYER_10
 40
0.0847
 41
0.0847
 62
1
 66
1
 10
0
 20
0
 30
0
  0
VERTEX
  8
LAYER_10
 10
69.8279
 20
92.9525
  0
VERTEX
  8
LAYER_10
 10
69.7322
 20
92.9525
  0
SEQEND
  0
POLYLINE
  8
LAYER_10
 40
0.0847
 41
0.0847
 62
1
 66
1
 10
0
 20
0
 30
0
  0
VERTEX
  8
LAYER_10
 10
69.65
 20
92.9525
  0
VERTEX
  8
LAYER_10
 10
69.2668
 20
92.9525
  0
SEQEND
  0
POLYLINE
  8
LAYER_10
 40
0.1058
 41
0.1058
 66
1
 10
0
 20
0
 30
0
 70
1
  0
VERTEX
  8
LAYER_10
 10
72.9213
 20
174.6412
  0
VERTEX
  8
LAYER_10
 10
72.9213
 20
174.6548
  0
VERTEX
  8
LAYER_10
 10
72.9489
 20
174.7096
  0
VERTEX
  8
LAYER_10
 10
72.9625
 20
174.7232
  0
VERTEX
  8
LAYER_10
 10
72.9762
 20
174.7506
  0
VERTEX
  8
LAYER_10
 10
73.0035
 20
174.778
  0
VERTEX
  8
LAYER_10
 10
73.0446
 20
174.7916
  0
VERTEX
  8
LAYER_10
 10
73.0856
 20
174.8055
  0
VERTEX
  8
LAYER_10
 10
73.1266
 20
174.8329
  0
VERTEX
  8
LAYER_10
 10
73.2088
 20
174.8603
  0
VERTEX
  8
LAYER_10
 10
73.2636
 20
174.8603
  0
VERTEX
  8
LAYER_10
 10
73.3184
 20
174.8739
  0
VERTEX
  8
LAYER_10
 10
73.3594
 20
174.8739
  0
VERTEX
  8
LAYER_10
 10
73.4141
 20
174.8877
  0
VERTEX
  8
LAYER_10
 10
73.5099
 20
174.8877
 42
-0.2407305681
  0
VERTEX
  8
LAYER_10
 10
74.0027
 20
174.6822
  0
VERTEX
  8
LAYER_10
 10
74.0027
 20
174.6
 42
-0.2361291371
  0
VERTEX
  8
LAYER_10
 10
73.6958
 20
174.4195
 42
-0.03016180898
  0
VERTEX
  8
LAYER_10
 10
73.5647
 20
174.3949
  0
VERTEX
  8
LAYER_10
 10
73.4689
 20
174.3949
 42
-0.2152429287
  0
VERTEX
  8
LAYER_10
 10
72.9489
 20
174.5726
  0
VERTEX
  8
LAYER_10
 10
72.9351
 20
174.6
  0
VERTEX
  8
LAYER_10
 10
72.9213
 20
174.6138
  0
SEQEND
  0
POLYLINE
  8
LAYER_10
 40
0.1058
 41
0.1058
 66
1
 10
0
 20
0
 30
0
  0
VERTEX
  8
LAYER_10
 10
97.3129
 20
180.0068
  0
VERTEX
  8
LAYER_10
 10
97.3129
 20
180.0341
  0
VERTEX
  8
LAYER_10
 10
97.2991
 20
180.0615
  0
VERTEX
  8
LAYER_10
 10
97.2991
 20
180.0751
  0
VERTEX
  8
LAYER_10
 10
97.2585
 20
180.1573
  0
VERTEX
  8
LAYER_10
 10
97.1896
 20
180.2257
  0
VERTEX
  8
LAYER_10
 10
97.1352
 20
180.2531
  0
VERTEX
  8
LAYER_10
 10
97.0938
 20
180.2667
  0
VERTEX
  8
LAYER_10
 10
97.0666
 20
180.2805
  0
VERTEX
  8
LAYER_10
 10
49.926
 20
180.2805
 42
0.2972733296
  0
VERTEX
  8
LAYER_10
 10
49.6247
 20
180.0751
  0
VERTEX
  8
LAYER_10
 10
49.6247
 20
180.0341
  0
VERTEX
  8
LAYER_10
 10
49.6111
 20
180.0068
  0
VERTEX
  8
LAYER_10
 10
49.5563
 20
174.9561
  0
VERTEX
  8
LAYER_10
 10
49.5563
 20
174.4907
 42
0.04563174446
  0
VERTEX
  8
LAYER_10
 10
49.6319
 20
171.722
 42
0.06818825609
  0
VERTEX
  8
LAYER_10
 10
49.959
 20
170.6093
 42
0.07973305109
  0
VERTEX
  8
LAYER_10
 10
50.9936
 20
169.0839
  0
VERTEX
  8
LAYER_10
 10
51.1578
 20
168.9197
  0
VERTEX
  8
LAYER_10
 10
51.2537
 20
168.8376
  0
VERTEX
  8
LAYER_10
 10
51.3357
 20
168.7552
  0
VERTEX
  8
LAYER_10
 10
51.4315
 20
168.6734
 42
0.05945541481
  0
VERTEX
  8
LAYER_10
 10
52.5091
 20
167.916
 42
-0.04918227579
  0
VERTEX
  8
LAYER_10
 10
54.8822
 20
166.6292
 42
-0.02168142689
  0
VERTEX
  8
LAYER_10
 10
55.2505
 20
166.3328
  0
VERTEX
  8
LAYER_10
 10
55.3463
 20
166.2507
  0
VERTEX
  8
LAYER_10
 10
55.4283
 20
166.1683
 42
-0.03861407345
  0
VERTEX
  8
LAYER_10
 10
56.724
 20
164.5456
 42
0.0333915235
  0
VERTEX
  8
LAYER_10
 10
58.5361
 20
162.1021
 42
0.04776926721
  0
VERTEX
  8
LAYER_10
 10
59.74
 20
160.9671
  0
VERTEX
  8
LAYER_10
 10
60.1233
 20
160.6658
  0
VERTEX
  8
LAYER_10
 10
60.3286
 20
160.5154
  0
VERTEX
  8
LAYER_10
 10
60.5339
 20
160.3785
 42
0.03466380139
  0
VERTEX
  8
LAYER_10
 10
62.459
 20
159.2033
 42
0.05808381855
  0
VERTEX
  8
LAYER_10
 10
66.9945
 20
157.4767
  0
VERTEX
  8
LAYER_10
 10
67.241
 20
157.4083
  0
VERTEX
  8
LAYER_10
 10
67.501
 20
157.3535
 42
0.02391177208
  0
VERTEX
  8
LAYER_10
 10
70.7346
 20
156.719
 42
0.0301687103
  0
VERTEX
  8
LAYER_10
 10
73.185
 20
156.515
 42
0.03988989564
  0
VERTEX
  8
LAYER_10
 10
75.8233
 20
156.6692
  0
VERTEX
  8
LAYER_10
 10
76.0832
 20
156.7102
  0
VERTEX
  8
LAYER_10
 10
76.3433
 20
156.7375
  0
VERTEX
  8
LAYER_10
 10
76.8634
 20
156.8197
  0
VERTEX
  8
LAYER_10
 10
77.1235
 20
156.8743
  0
VERTEX
  8
LAYER_10
 10
77.6437
 20
156.9703
  0
VERTEX
  8
LAYER_10
 10
78.1501
 20
157.0662
 42
0.05438840123
  0
VERTEX
  8
LAYER_10
 10
83.2686
 20
158.6262
 42
0.0308729992
  0
VERTEX
  8
LAYER_10
 10
85.321
 20
159.6732
 42
0.03463224621
  0
VERTEX
  8
LAYER_10
 10
87.042
 20
160.8565
 42
0.03802934757
  0
VERTEX
  8
LAYER_10
 10
88.416
 20
162.1305
  0
VERTEX
  8
LAYER_10
 10
88.5665
 20
162.3084
  0
VERTEX
  8
LAYER_10
 10
88.7171
 20
162.5
  0
VERTEX
  8
LAYER_10
 10
88.8676
 20
162.6781
 42
0.0279447029
  0
VERTEX
  8
LAYER_10
 10
90.7068
 20
165.2495
 42
-0.05106523751
  0
VERTEX
  8
LAYER_10
 10
91.6736
 20
166.3328
  0
VERTEX
  8
LAYER_10
 10
91.7694
 20
166.4012
  0
VERTEX
  8
LAYER_10
 10
91.8652
 20
166.4832
 42
-0.05807051595
  0
VERTEX
  8
LAYER_10
 10
93.027
 20
167.2208
 42
0.05145545497
  0
VERTEX
  8
LAYER_10
 10
95.0137
 20
168.29
  0
VERTEX
  8
LAYER_10
 10
95.1095
 20
168.3585
  0
VERTEX
  8
LAYER_10
 10
95.2186
 20
168.4406
  0
VERTEX
  8
LAYER_10
 10
95.3148
 20
168.5089
  0
VERTEX
  8
LAYER_10
 10
95.3968
 20
168.5911
  0
VERTEX
  8
LAYER_10
 10
95.4925
 20
168.6734
 42
0.05626801403
  0
VERTEX
  8
LAYER_10
 10
96.4182
 20
169.6689
 42
0.1255845737
  0
VERTEX
  8
LAYER_10
 10
97.3268
 20
171.9053
 42
0.03122181511
  0
VERTEX
  8
LAYER_10
 10
97.3677
 20
172.5059
  0
VERTEX
  8
LAYER_10
 10
97.3677
 20
172.6291
 42
0.005803281257
  0
VERTEX
  8
LAYER_10
 10
97.3129
 20
179.5277
  0
VERTEX
  8
LAYER_10
 10
97.3129
 20
180.0068
  0
SEQEND
  0
POLYLINE
  8
LAYER_10
 40
0.1058
 41
0.1058
 66
1
 10
0
 20
0
 30
0
  0
VERTEX
  8
LAYER_10
 10
98.4629
 20
181.4439
  0
VERTEX
  8
LAYER_10
 10
48.3929
 20
181.4439
  0
VERTEX
  8
LAYER_10
 10
48.3929
 20
172.6701
 42
0.05021305656
  0
VERTEX
  8
LAYER_10
 10
48.5928
 20
171.0622
 42
0.1081684647
  0
VERTEX
  8
LAYER_10
 10
49.5153
 20
169.1797
  0
VERTEX
  8
LAYER_10
 10
49.6795
 20
168.9881
 42
0.05599651953
  0
VERTEX
  8
LAYER_10
 10
50.6656
 20
168.0322
 42
0.0482648724
  0
VERTEX
  8
LAYER_10
 10
52.0891
 20
167.1631
 42
0.01286151025
  0
VERTEX
  8
LAYER_10
 10
53.471
 20
166.4696
  0
VERTEX
  8
LAYER_10
 10
53.6901
 20
166.3325
  0
VERTEX
  8
LAYER_10
 10
53.7996
 20
166.2507
  0
VERTEX
  8
LAYER_10
 10
53.8954
 20
166.1821
  0
VERTEX
  8
LAYER_10
 10
54.005
 20
166.0999
 42
-0.08078985841
  0
VERTEX
  8
LAYER_10
 10
55.2505
 20
164.7038
  0
VERTEX
  8
LAYER_10
 10
55.8116
 20
163.8963
  0
VERTEX
  8
LAYER_10
 10
56.0993
 20
163.4856
 42
0.03414894404
  0
VERTEX
  8
LAYER_10
 10
57.5062
 20
161.688
 42
0.02777610444
  0
VERTEX
  8
LAYER_10
 10
58.1796
 20
161.0219
  0
VERTEX
  8
LAYER_10
 10
58.3577
 20
160.8439
  0
VERTEX
  8
LAYER_10
 10
58.5492
 20
160.6796
  0
VERTEX
  8
LAYER_10
 10
58.7546
 20
160.5153
 42
0.03288884478
  0
VERTEX
  8
LAYER_10
 10
60.6164
 20
159.2329
 42
0.03170486942
  0
VERTEX
  8
LAYER_10
 10
62.8349
 20
158.0954
 42
0.02921438573
  0
VERTEX
  8
LAYER_10
 10
65.3385
 20
157.1756
  0
VERTEX
  8
LAYER_10
 10
65.5984
 20
157.1072
  0
VERTEX
  8
LAYER_10
 10
65.8585
 20
157.0249
  0
VERTEX
  8
LAYER_10
 10
66.3786
 20
156.8881
  0
VERTEX
  8
LAYER_10
 10
66.6525
 20
156.8197
  0
VERTEX
  8
LAYER_10
 10
66.9126
 20
156.7512
 42
0.02150377
  0
VERTEX
  8
LAYER_10
 10
70.5167
 20
156.1178
 42
0.02790648466
  0
VERTEX
  8
LAYER_10
 10
73.226
 20
155.9169
 42
0.02699985705
  0
VERTEX
  8
LAYER_10
 10
75.0704
 20
155.9848
  0
VERTEX
  8
LAYER_10
 10
75.6178
 20
156.0396
 42
0.02232106932
  0
VERTEX
  8
LAYER_10
 10
79.0297
 20
156.5581
 42
0.04701103551
  0
VERTEX
  8
LAYER_10
 10
83.5568
 20
157.901
  0
VERTEX
  8
LAYER_10
 10
83.8032
 20
157.9969
  0
VERTEX
  8
LAYER_10
 10
84.0495
 20
158.1063
  0
VERTEX
  8
LAYER_10
 10
84.2822
 20
158.2159
  0
VERTEX
  8
LAYER_10
 10
84.5285
 20
158.3254
 42
0.03096446907
  0
VERTEX
  8
LAYER_10
 10
86.7605
 20
159.5533
 42
0.0363415272
  0
VERTEX
  8
LAYER_10
 10
88.4158
 20
160.7832
 42
0.05581396684
  0
VERTEX
  8
LAYER_10
 10
90.1816
 20
162.6917
  0
VERTEX
  8
LAYER_10
 10
90.3321
 20
162.8834
  0
VERTEX
  8
LAYER_10
 10
90.4689
 20
163.0886
 42
-0.03810746585
  0
VERTEX
  8
LAYER_10
 10
92.2448
 20
165.5283
 42
-0.06235281628
  0
VERTEX
  8
LAYER_10
 10
93.1902
 20
166.3382
 42
-0.04486229292
  0
VERTEX
  8
LAYER_10
 10
95.1639
 20
167.3591
  0
VERTEX
  8
LAYER_10
 10
95.2734
 20
167.4278
  0
VERTEX
  8
LAYER_10
 10
95.3968
 20
167.4962
  0
VERTEX
  8
LAYER_10
 10
95.6159
 20
167.633
  0
VERTEX
  8
LAYER_10
 10
95.7254
 20
167.7014
 42
0.04780870465
  0
VERTEX
  8
LAYER_10
 10
96.9355
 20
168.7118
 42
0.1208359421
  0
VERTEX
  8
LAYER_10
 10
98.1914
 20
170.817
 42
0.05257218669
  0
VERTEX
  8
LAYER_10
 10
98.4388
 20
172.1862
 42
0.02842226191
  0
VERTEX
  8
LAYER_10
 10
98.4629
 20
173.6008
  0
VERTEX
  8
LAYER_10
 10
98.4629
 20
181.4439
  0
SEQEND
  0
POLYLINE
  8
LAYER_10
 40
0.1058
 41
0.1058
 66
1
 10
0
 20
0
 30
0
 70
1
  0
VERTEX
  8
LAYER_10
 10
75.8095
 20
168.5227
  0
VERTEX
  8
LAYER_10
 10
75.7821
 20
168.865
  0
VERTEX
  8
LAYER_10
 10
75.7136
 20
169.1933
 42
0.1736982637
  0
VERTEX
  8
LAYER_10
 10
74.7393
 20
170.5043
 42
0.1753351922
  0
VERTEX
  8
LAYER_10
 10
73.1557
 20
170.8487
 42
0.1766830838
  0
VERTEX
  8
LAYER_10
 10
71.7111
 20
170.1004
 42
0.146225913
  0
VERTEX
  8
LAYER_10
 10
71.1421
 20
168.865
  0
VERTEX
  8
LAYER_10
 10
71.1147
 20
168.5227
  0
VERTEX
  8
LAYER_10
 10
71.1421
 20
168.1942
 42
0.1736601323
  0
VERTEX
  8
LAYER_10
 10
71.9189
 20
166.7531
 42
0.1760546613
  0
VERTEX
  8
LAYER_10
 10
73.437
 20
166.1879
 42
0.1763513661
  0
VERTEX
  8
LAYER_10
 10
74.9738
 20
166.7251
 42
0.1458183311
  0
VERTEX
  8
LAYER_10
 10
75.7136
 20
167.8657
  0
VERTEX
  8
LAYER_10
 10
75.7821
 20
168.1942
  0
SEQEND
  0
POLYLINE
  8
LAYER_10
 40
0.1058
 41
0.1058
 66
1
 10
0
 20
0
 30
0
  0
VERTEX
  8
LAYER_10
 10
98.5039
 20
173.6008
  0
VERTEX
  8
LAYER_10
 10
98.5039
 20
173.6147
  0
SEQEND
  0
POLYLINE
  8
LAYER_10
 40
0.1058
 41
0.1058
 66
1
 10
0
 20
0
 30
0
 70
1
  0
VERTEX
  8
LAYER_10
 10
75.7821
 20
174.6412
  0
VERTEX
  8
LAYER_10
 10
75.7821
 20
174.6548
 42
0.2470221787
  0
VERTEX
  8
LAYER_10
 10
75.5378
 20
174.8423
 42
0.1251402756
  0
VERTEX
  8
LAYER_10
 10
74.9594
 20
174.8506
 42
0.2861282792
  0
VERTEX
  8
LAYER_10
 10
74.7007
 20
174.6548
  0
VERTEX
  8
LAYER_10
 10
74.6871
 20
174.6412
  0
VERTEX
  8
LAYER_10
 10
74.7007
 20
174.6138
  0
VERTEX
  8
LAYER_10
 10
74.7007
 20
174.6
 42
0.2390989779
  0
VERTEX
  8
LAYER_10
 10
74.986
 20
174.4222
 42
0.06208954809
  0
VERTEX
  8
LAYER_10
 10
75.1935
 20
174.3949
  0
VERTEX
  8
LAYER_10
 10
75.2893
 20
174.3949
 42
0.1612625646
  0
VERTEX
  8
LAYER_10
 10
75.7212
 20
174.5323
 42
0.07049800778
  0
VERTEX
  8
LAYER_10
 10
75.7685
 20
174.6
  0
VERTEX
  8
LAYER_10
 10
75.7821
 20
174.6138
  0
SEQEND
  0
POLYLINE
  8
LAYER_10
 40
0.1058
 41
0.1058
 66
1
 10
0
 20
0
 30
0
  0
VERTEX
  8
LAYER_10
 10
88.6897
 20
165.84
  0
VERTEX
  8
LAYER_10
 10
88.8266
 20
166.1136
  0
VERTEX
  8
LAYER_10
 10
88.8814
 20
166.2507
 42
0.1273836844
  0
VERTEX
  8
LAYER_10
 10
89.1505
 20
168.3392
 42
0.06437795674
  0
VERTEX
  8
LAYER_10
 10
88.8536
 20
169.4194
 42
0.05481005477
  0
VERTEX
  8
LAYER_10
 10
88.2557
 20
170.4946
 42
0.0480336766
  0
VERTEX
  8
LAYER_10
 10
87.2472
 20
171.6592
 42
0.03993215713
  0
VERTEX
  8
LAYER_10
 10
85.8136
 20
172.8236
 42
0.04850832889
  0
VERTEX
  8
LAYER_10
 10
83.283
 20
174.2304
  0
VERTEX
  8
LAYER_10
 10
82.9818
 20
174.3675
  0
VERTEX
  8
LAYER_10
 10
82.6671
 20
174.5042
 42
0.05346226102
  0
VERTEX
  8
LAYER_10
 10
77.6064
 20
175.9783
 42
0.05434958768
  0
VERTEX
  8
LAYER_10
 10
72.4447
 20
176.3239
 42
0.08240812018
  0
VERTEX
  8
LAYER_10
 10
64.8434
 20
174.7256
 42
0.02724054765
  0
VERTEX
  8
LAYER_10
 10
62.4229
 20
173.6283
  0
VERTEX
  8
LAYER_10
 10
61.8479
 20
173.2997
  0
VERTEX
  8
LAYER_10
 10
61.5606
 20
173.1219
  0
VERTEX
  8
LAYER_10
 10
61.4237
 20
173.0261
 42
0.04025038705
  0
VERTEX
  8
LAYER_10
 10
59.967
 20
171.9267
 42
0.04526932552
  0
VERTEX
  8
LAYER_10
 10
58.8883
 20
170.7801
 42
0.05493648293
  0
VERTEX
  8
LAYER_10
 10
58.1686
 20
169.6216
 42
0.06392843592
  0
VERTEX
  8
LAYER_10
 10
57.802
 20
168.5071
 42
0.1321369992
  0
VERTEX
  8
LAYER_10
 10
57.9573
 20
166.4846
 42
0.0756985818
  0
VERTEX
  8
LAYER_10
 10
58.6588
 20
165.1829
  0
VERTEX
  8
LAYER_10
 10
58.8229
 20
164.9775
  0
VERTEX
  8
LAYER_10
 10
59.124
 20
164.5533
 42
0.04432786926
  0
VERTEX
  8
LAYER_10
 10
60.1009
 20
163.3446
 42
0.04039217124
  0
VERTEX
  8
LAYER_10
 10
61.381
 20
162.2192
 42
0.03747427865
  0
VERTEX
  8
LAYER_10
 10
63.0758
 20
161.1449
 42
0.03175182666
  0
VERTEX
  8
LAYER_10
 10
65.0739
 20
160.2357
 42
0.02840486704
  0
VERTEX
  8
LAYER_10
 10
67.4483
 20
159.4822
 42
0.05170490733
  0
VERTEX
  8
LAYER_10
 10
72.9001
 20
158.6728
 42
0.00547949197
  0
VERTEX
  8
LAYER_10
 10
73.4689
 20
158.6539
  0
VERTEX
  8
LAYER_10
 10
73.7426
 20
158.6539
  0
VERTEX
  8
LAYER_10
 10
74.0301
 20
158.6675
  0
VERTEX
  8
LAYER_10
 10
74.3176
 20
158.6811
  0
VERTEX
  8
LAYER_10
 10
74.8924
 20
158.7085
 42
0.02447739368
  0
VERTEX
  8
LAYER_10
 10
77.9907
 20
159.1519
 42
0.02769635563
  0
VERTEX
  8
LAYER_10
 10
80.6927
 20
159.8298
 42
0.03026381218
  0
VERTEX
  8
LAYER_10
 10
82.8313
 20
160.6384
  0
VERTEX
  8
LAYER_10
 10
83.0778
 20
160.7616
  0
VERTEX
  8
LAYER_10
 10
83.3241
 20
160.8713
 42
0.03399597269
  0
VERTEX
  8
LAYER_10
 10
85.2693
 20
162.0126
 42
0.04459099098
  0
VERTEX
  8
LAYER_10
 10
86.6028
 20
163.1219
 42
0.03948034467
  0
VERTEX
  8
LAYER_10
 10
87.8454
 20
164.5942
 42
0.01677099009
  0
VERTEX
  8
LAYER_10
 10
88.5529
 20
165.6211
  0
VERTEX
  8
LAYER_10
 10
88.6897
 20
165.84
  0
SEQEND
  0
POLYLINE
  8
LAYER_10
 40
0.1058
 41
0.1058
 66
1
 10
0
 20
0
 30
0
 70
1
  0
VERTEX
  8
LAYER_10
 10
71.1421
 20
174.6412
  0
VERTEX
  8
LAYER_10
 10
71.1557
 20
174.6548
  0
VERTEX
  8
LAYER_10
 10
71.1557
 20
174.6822
 42
-0.2258887731
  0
VERTEX
  8
LAYER_10
 10
71.4515
 20
174.8588
 42
-0.1265256787
  0
VERTEX
  8
LAYER_10
 10
72.0152
 20
174.835
 42
-0.2383305813
  0
VERTEX
  8
LAYER_10
 10
72.2369
 20
174.6548
  0
VERTEX
  8
LAYER_10
 10
72.2369
 20
174.6138
  0
VERTEX
  8
LAYER_10
 10
72.2233
 20
174.6
 42
-0.2400023914
  0
VERTEX
  8
LAYER_10
 10
71.9268
 20
174.4196
 42
-0.03848861562
  0
VERTEX
  8
LAYER_10
 10
71.7853
 20
174.3949
  0
VERTEX
  8
LAYER_10
 10
71.6895
 20
174.3949
 42
-0.2059920707
  0
VERTEX
  8
LAYER_10
 10
71.1693
 20
174.5726
  0
VERTEX
  8
LAYER_10
 10
71.1557
 20
174.6
  0
VERTEX
  8
LAYER_10
 10
71.1557
 20
174.6138
  0
SEQEND
  0
POLYLINE
  8
LAYER_10
 40
0.1058
 41
0.1058
 66
1
 10
0
 20
0
 30
0
  0
VERTEX
  8
LAYER_10
 10
50.7609
 20
178.2821
  0
VERTEX
  8
LAYER_10
 10
96.163
 20
178.2821
  0
SEQEND
  0
POLYLINE
  8
LAYER_10
 40
0.1058
 41
0.1058
 66
1
 10
0
 20
0
 30
0
  0
VERTEX
  8
LAYER_10
 10
51.103
 20
179.0211
  0
VERTEX
  8
LAYER_10
 10
51.0072
 20
179.0211
  0
VERTEX
  8
LAYER_10
 10
50.9798
 20
179.0075
  0
VERTEX
  8
LAYER_10
 10
50.9389
 20
178.9937
 42
0.2653747582
  0
VERTEX
  8
LAYER_10
 10
50.7598
 20
178.7467
 42
0.1210998786
  0
VERTEX
  8
LAYER_10
 10
50.7609
 20
178.4599
  0
VERTEX
  8
LAYER_10
 10
50.7609
 20
177.94
  0
VERTEX
  8
LAYER_10
 10
50.7883
 20
175.3666
  0
VERTEX
  8
LAYER_10
 10
50.7883
 20
174.8739
 42
0.02409262943
  0
VERTEX
  8
LAYER_10
 10
50.9389
 20
172.273
  0
VERTEX
  8
LAYER_10
 10
50.9526
 20
172.232
  0
VERTEX
  8
LAYER_10
 10
50.9526
 20
172.191
  0
VERTEX
  8
LAYER_10
 10
50.9798
 20
172.1089
  0
VERTEX
  8
LAYER_10
 10
50.9936
 20
172.0405
 42
0.06335093658
  0
VERTEX
  8
LAYER_10
 10
51.3721
 20
170.8903
 42
0.09925577213
  0
VERTEX
  8
LAYER_10
 10
52.4309
 20
169.522
  0
VERTEX
  8
LAYER_10
 10
52.5129
 20
169.4398
  0
VERTEX
  8
LAYER_10
 10
52.6087
 20
169.3714
  0
VERTEX
  8
LAYER_10
 10
52.6909
 20
169.3028
 42
0.0584995001
  0
VERTEX
  8
LAYER_10
 10
53.93
 20
168.5651
 42
0.007974175656
  0
VERTEX
  8
LAYER_10
 10
54.6346
 20
168.2216
  0
VERTEX
  8
LAYER_10
 10
54.8397
 20
168.1258
  0
VERTEX
  8
LAYER_10
 10
55.0452
 20
168.0025
 42
-0.05616597594
  0
VERTEX
  8
LAYER_10
 10
56.1877
 20
167.2314
 42
-0.04399206276
  0
VERTEX
  8
LAYER_10
 10
57.1257
 20
166.2781
  0
VERTEX
  8
LAYER_10
 10
57.3994
 20
165.922
  0
VERTEX
  8
LAYER_10
 10
57.5226
 20
165.7442
  0
VERTEX
  8
LAYER_10
 10
57.7827
 20
165.3882
  0
VERTEX
  8
LAYER_10
 10
58.5218
 20
164.3205
 42
0.03854239671
  0
VERTEX
  8
LAYER_10
 10
59.7333
 20
162.7731
 42
0.04254462045
  0
VERTEX
  8
LAYER_10
 10
61.0634
 20
161.5583
 42
0.04466285072
  0
VERTEX
  8
LAYER_10
 10
63.4358
 20
160.0772
  0
VERTEX
  8
LAYER_10
 10
63.6547
 20
159.9814
  0
VERTEX
  8
LAYER_10
 10
63.86
 20
159.8721
 42
0.03122478739
  0
VERTEX
  8
LAYER_10
 10
66.2301
 20
158.9355
 42
0.02752436928
  0
VERTEX
  8
LAYER_10
 10
68.998
 20
158.2037
 42
0.01796369161
  0
VERTEX
  8
LAYER_10
 10
71.5116
 20
157.7778
  0
VERTEX
  8
LAYER_10
 10
71.7579
 20
157.7506
  0
VERTEX
  8
LAYER_10
 10
72.0042
 20
157.7232
  0
VERTEX
  8
LAYER_10
 10
72.2507
 20
157.7092
  0
VERTEX
  8
LAYER_10
 10
72.4834
 20
157.6819
 42
0.03373158099
  0
VERTEX
  8
LAYER_10
 10
74.6811
 20
157.7084
 42
0.02933598652
  0
VERTEX
  8
LAYER_10
 10
77.2935
 20
158.0747
 42
0.01946361995
  0
VERTEX
  8
LAYER_10
 10
80.4085
 20
158.8317
  0
VERTEX
  8
LAYER_10
 10
80.6275
 20
158.914
  0
VERTEX
  8
LAYER_10
 10
80.8602
 20
158.9824
 42
0.02996583895
  0
VERTEX
  8
LAYER_10
 10
83.2042
 20
159.942
 42
0.03446251621
  0
VERTEX
  8
LAYER_10
 10
85.1478
 20
161.0469
 42
0.04021344442
  0
VERTEX
  8
LAYER_10
 10
86.7186
 20
162.2811
  0
VERTEX
  8
LAYER_10
 10
87.0335
 20
162.5958
  0
VERTEX
  8
LAYER_10
 10
87.3347
 20
162.9244
  0
VERTEX
  8
LAYER_10
 10
87.4715
 20
163.0886
  0
VERTEX
  8
LAYER_10
 10
87.6221
 20
163.2667
  0
VERTEX
  8
LAYER_10
 10
87.759
 20
163.4309
  0
VERTEX
  8
LAYER_10
 10
87.8957
 20
163.6088
 42
0.00472306746
  0
VERTEX
  8
LAYER_10
 10
89.547
 20
165.9455
 42
-0.02921097175
  0
VERTEX
  8
LAYER_10
 10
90.2364
 20
166.7707
  0
VERTEX
  8
LAYER_10
 10
90.4007
 20
166.9211
  0
VERTEX
  8
LAYER_10
 10
90.5647
 20
167.0856
 42
-0.05356634694
  0
VERTEX
  8
LAYER_10
 10
91.7777
 20
167.9483
 42
-0.006864384586
  0
VERTEX
  8
LAYER_10
 10
93.5626
 20
168.8512
  0
VERTEX
  8
LAYER_10
 10
93.6584
 20
168.906
  0
VERTEX
  8
LAYER_10
 10
93.7541
 20
168.9743
  0
VERTEX
  8
LAYER_10
 10
93.8637
 20
169.0291
 42
0.06010246215
  0
VERTEX
  8
LAYER_10
 10
94.8452
 20
169.8665
 42
0.06542458306
  0
VERTEX
  8
LAYER_10
 10
95.5236
 20
170.8276
 42
0.06901989473
  0
VERTEX
  8
LAYER_10
 10
95.8756
 20
171.8076
  0
VERTEX
  8
LAYER_10
 10
95.9032
 20
171.8625
  0
VERTEX
  8
LAYER_10
 10
95.9308
 20
171.9721
  0
VERTEX
  8
LAYER_10
 10
95.9442
 20
172.0405
 42
0.03841849594
  0
VERTEX
  8
LAYER_10
 10
96.1358
 20
174.7096
  0
VERTEX
  8
LAYER_10
 10
96.1358
 20
175.1886
 42
0.005739968889
  0
VERTEX
  8
LAYER_10
 10
96.163
 20
178.2
  0
VERTEX
  8
LAYER_10
 10
96.163
 20
178.7886
  0
VERTEX
  8
LAYER_10
 10
96.0947
 20
178.9254
  0
VERTEX
  8
LAYER_10
 10
96.0672
 20
178.9391
  0
VERTEX
  8
LAYER_10
 10
96.04
 20
178.9665
  0
VERTEX
  8
LAYER_10
 10
96.0127
 20
178.9801
  0
VERTEX
  8
LAYER_10
 10
95.9852
 20
178.9937
  0
VERTEX
  8
LAYER_10
 10
95.958
 20
179.0075
  0
VERTEX
  8
LAYER_10
 10
95.917
 20
179.0211
  0
VERTEX
  8
LAYER_10
 10
51.103
 20
179.0211
  0
SEQEND
  0
POLYLINE
  8
LAYER_10
 40
0.1058
 41
0.1058
 66
1
 10
0
 20
0
 30
0
  0
VERTEX
  8
LAYER_10
 10
77.1646
 20
168.5227
  0
VERTEX
  8
LAYER_10
 10
69.7596
 20
168.5227
  0
SEQEND
  0
POLYLINE
  8
LAYER_10
 40
0.1058
 41
0.1058
 66
1
 10
0
 20
0
 30
0
  0
VERTEX
  8
LAYER_10
 10
73.4689
 20
172.232
  0
VERTEX
  8
LAYER_10
 10
73.4689
 20
164.827
  0
SEQEND
  0
POLYLINE
  8
LAYER_10
 40
0.1058
 41
0.1058
 66
1
 10
0
 20
0
 30
0
 70
1
  0
VERTEX
  8
LAYER_10
 10
94.9999
 20
104.683
  0
VERTEX
  8
LAYER_10
 10
95.0137
 20
104.4367
  0
VERTEX
  8
LAYER_10
 10
95.0271
 20
104.2041
  0
VERTEX
  8
LAYER_10
 10
95.0543
 20
103.9713
 42
0.03186353874
  0
VERTEX
  8
LAYER_10
 10
95.3148
 20
102.575
  0
VERTEX
  8
LAYER_10
 10
95.4512
 20
102.1095
 42
0.0746730078
  0
VERTEX
  8
LAYER_10
 10
95.9442
 20
100.9189
  0
VERTEX
  8
LAYER_10
 10
96.04
 20
100.85
  0
VERTEX
  8
LAYER_10
 10
96.1495
 20
100.8369
  0
VERTEX
  8
LAYER_10
 10
96.2591
 20
100.85
  0
VERTEX
  8
LAYER_10
 10
96.3549
 20
100.9189
 42
0.08145133985
  0
VERTEX
  8
LAYER_10
 10
96.8478
 20
102.1095
  0
VERTEX
  8
LAYER_10
 10
96.9843
 20
102.575
 42
0.03188158507
  0
VERTEX
  8
LAYER_10
 10
97.2447
 20
103.9713
  0
VERTEX
  8
LAYER_10
 10
97.2719
 20
104.2041
  0
VERTEX
  8
LAYER_10
 10
97.2853
 20
104.4367
  0
VERTEX
  8
LAYER_10
 10
97.2991
 20
104.683
  0
SEQEND
  0
POLYLINE
  8
LAYER_10
 40
0.1058
 41
0.1058
 66
1
 10
0
 20
0
 30
0
  0
VERTEX
  8
LAYER_10
 10
73.4279
 20
83.2342
  0
VERTEX
  8
LAYER_10
 10
73.7152
 20
83.2342
 42
0.02480638192
  0
VERTEX
  8
LAYER_10
 10
76.6972
 20
83.4997
 42
0.02726662772
  0
VERTEX
  8
LAYER_10
 10
79.2196
 20
83.9918
 42
0.03068180812
  0
VERTEX
  8
LAYER_10
 10
81.35
 20
84.67
 42
0.03576829788
  0
VERTEX
  8
LAYER_10
 10
83.1939
 20
85.54
 42
0.03707156922
  0
VERTEX
  8
LAYER_10
 10
84.6194
 20
86.4886
 42
0.08528393065
  0
VERTEX
  8
LAYER_10
 10
86.8164
 20
88.895
 42
0.08185721712
  0
VERTEX
  8
LAYER_10
 10
87.9927
 20
91.6931
 42
0.02618607106
  0
VERTEX
  8
LAYER_10
 10
88.2106
 20
92.8429
  0
VERTEX
  8
LAYER_10
 10
88.2243
 20
92.98
  0
SEQEND
  0
POLYLINE
  8
LAYER_10
 40
0.1058
 41
0.1058
 66
1
 10
0
 20
0
 30
0
 70
1
  0
VERTEX
  8
LAYER_10
 10
76.8907
 20
92.9525
  0
VERTEX
  8
LAYER_10
 10
76.8634
 20
93.3631
  0
VERTEX
  8
LAYER_10
 10
76.7814
 20
93.7738
 42
0.129585121
  0
VERTEX
  8
LAYER_10
 10
75.8323
 20
95.4259
 42
0.1504877016
  0
VERTEX
  8
LAYER_10
 10
74.0875
 20
96.3159
 42
0.2099377091
  0
VERTEX
  8
LAYER_10
 10
71.322
 20
95.6279
 42
0.1464416139
  0
VERTEX
  8
LAYER_10
 10
70.2205
 20
94.0298
 42
0.0419111193
  0
VERTEX
  8
LAYER_10
 10
70.0607
 20
93.3631
  0
VERTEX
  8
LAYER_10
 10
70.0469
 20
92.9525
  0
VERTEX
  8
LAYER_10
 10
70.0607
 20
92.5418
 42
0.1297705745
  0
VERTEX
  8
LAYER_10
 10
70.8054
 20
90.7851
 42
0.1499440443
  0
VERTEX
  8
LAYER_10
 10
72.4349
 20
89.6864
 42
0.2100615123
  0
VERTEX
  8
LAYER_10
 10
75.2661
 20
90.0306
 42
0.1419830711
  0
VERTEX
  8
LAYER_10
 10
76.5106
 20
91.4125
 42
0.04777067697
  0
VERTEX
  8
LAYER_10
 10
76.7814
 20
92.1312
  0
VERTEX
  8
LAYER_10
 10
76.8634
 20
92.5418
  0
SEQEND
  0
POLYLINE
  8
LAYER_10
 40
0.1058
 41
0.1058
 66
1
 10
0
 20
0
 30
0
  0
VERTEX
  8
LAYER_10
 10
73.4279
 20
105.8602
  0
VERTEX
  8
LAYER_10
 10
48.3929
 20
105.8602
  0
VERTEX
  8
LAYER_10
 10
48.3929
 20
97.1548
  0
VERTEX
  8
LAYER_10
 10
48.4339
 20
96.4565
  0
VERTEX
  8
LAYER_10
 10
48.4887
 20
95.9914
  0
VERTEX
  8
LAYER_10
 10
48.5161
 20
95.8818
  0
VERTEX
  8
LAYER_10
 10
48.5299
 20
95.7585
  0
VERTEX
  8
LAYER_10
 10
48.5844
 20
95.5397
  0
VERTEX
  8
LAYER_10
 10
48.6119
 20
95.4164
 42
0.07456915917
  0
VERTEX
  8
LAYER_10
 10
49.1594
 20
94.1162
  0
VERTEX
  8
LAYER_10
 10
49.2278
 20
94.0063
  0
VERTEX
  8
LAYER_10
 10
49.3646
 20
93.8148
 42
0.05743479842
  0
VERTEX
  8
LAYER_10
 10
50.2546
 20
92.8011
 42
0.08466759852
  0
VERTEX
  8
LAYER_10
 10
52.3623
 20
91.4604
  0
VERTEX
  8
LAYER_10
 10
52.8278
 20
91.2278
  0
VERTEX
  8
LAYER_10
 10
53.0603
 20
91.1045
  0
VERTEX
  8
LAYER_10
 10
53.1837
 20
91.0501
  0
VERTEX
  8
LAYER_10
 10
53.293
 20
90.9812
 42
-0.06472775297
  0
VERTEX
  8
LAYER_10
 10
54.1955
 20
90.3576
 42
-0.05318213624
  0
VERTEX
  8
LAYER_10
 10
55.1793
 20
89.2429
 42
0.03710611239
  0
VERTEX
  8
LAYER_10
 10
56.9752
 20
86.7382
  0
VERTEX
  8
LAYER_10
 10
57.1257
 20
86.5467
  0
VERTEX
  8
LAYER_10
 10
57.2899
 20
86.3551
 42
0.04113025755
  0
VERTEX
  8
LAYER_10
 10
58.5943
 20
85.0728
 42
0.0352912299
  0
VERTEX
  8
LAYER_10
 10
60.2955
 20
83.8468
 42
0.04128921713
  0
VERTEX
  8
LAYER_10
 10
63.1893
 20
82.3719
  0
VERTEX
  8
LAYER_10
 10
63.4358
 20
82.2623
  0
VERTEX
  8
LAYER_10
 10
63.9286
 20
82.0708
  0
VERTEX
  8
LAYER_10
 10
64.1749
 20
81.9888
  0
VERTEX
  8
LAYER_10
 10
64.4212
 20
81.893
  0
VERTEX
  8
LAYER_10
 10
64.6813
 20
81.811
 42
0.02688376738
  0
VERTEX
  8
LAYER_10
 10
67.549
 20
81.037
 42
0.03669627483
  0
VERTEX
  8
LAYER_10
 10
72.6204
 20
80.3462
  0
VERTEX
  8
LAYER_10
 10
72.8803
 20
80.3462
  0
VERTEX
  8
LAYER_10
 10
73.154
 20
80.3324
 42
0.02777638408
  0
VERTEX
  8
LAYER_10
 10
75.9737
 20
80.4945
 42
0.03955927347
  0
VERTEX
  8
LAYER_10
 10
81.1615
 20
81.4958
  0
VERTEX
  8
LAYER_10
 10
81.4214
 20
81.5644
  0
VERTEX
  8
LAYER_10
 10
81.6679
 20
81.6464
  0
VERTEX
  8
LAYER_10
 10
81.928
 20
81.7283
  0
VERTEX
  8
LAYER_10
 10
82.1743
 20
81.811
 42
0.05943719033
  0
VERTEX
  8
LAYER_10
 10
86.6656
 20
83.9142
 42
0.0351312465
  0
VERTEX
  8
LAYER_10
 10
88.3338
 20
85.1369
  0
VERTEX
  8
LAYER_10
 10
88.7171
 20
85.4652
  0
VERTEX
  8
LAYER_10
 10
88.895
 20
85.6434
 42
0.03829064163
  0
VERTEX
  8
LAYER_10
 10
90.2623
 20
87.2223
 42
0.01207389364
  0
VERTEX
  8
LAYER_10
 10
90.9071
 20
88.1073
  0
VERTEX
  8
LAYER_10
 10
91.4545
 20
88.9148
  0
VERTEX
  8
LAYER_10
 10
91.5913
 20
89.1064
 42
-0.0696757997
  0
VERTEX
  8
LAYER_10
 10
92.8098
 20
90.4885
  0
VERTEX
  8
LAYER_10
 10
92.9191
 20
90.5709
  0
VERTEX
  8
LAYER_10
 10
93.0148
 20
90.6394
  0
VERTEX
  8
LAYER_10
 10
93.1244
 20
90.7214
  0
VERTEX
  8
LAYER_10
 10
93.3435
 20
90.8585
  0
VERTEX
  8
LAYER_10
 10
93.4531
 20
90.9267
  0
VERTEX
  8
LAYER_10
 10
93.5626
 20
90.9812
 42
0.03470632213
  0
VERTEX
  8
LAYER_10
 10
95.6755
 20
92.0992
 42
0.05286672291
  0
VERTEX
  8
LAYER_10
 10
96.8377
 20
93.0185
 42
0.04281747304
  0
VERTEX
  8
LAYER_10
 10
97.4225
 20
93.7056
  0
VERTEX
  8
LAYER_10
 10
97.4911
 20
93.8148
  0
VERTEX
  8
LAYER_10
 10
97.6278
 20
94.0063
 42
0.07960624504
  0
VERTEX
  8
LAYER_10
 10
98.2438
 20
95.4164
  0
VERTEX
  8
LAYER_10
 10
98.2714
 20
95.5397
  0
VERTEX
  8
LAYER_10
 10
98.3258
 20
95.7585
  0
VERTEX
  8
LAYER_10
 10
98.3396
 20
95.8818
  0
VERTEX
  8
LAYER_10
 10
98.3671
 20
95.9914
  0
VERTEX
  8
LAYER_10
 10
98.4216
 20
96.4565
  0
VERTEX
  8
LAYER_10
 10
98.4491
 20
96.9219
 42
0.009180793026
  0
VERTEX
  8
LAYER_10
 10
98.4629
 20
105.4905
  0
VERTEX
  8
LAYER_10
 10
98.4629
 20
105.8602
  0
VERTEX
  8
LAYER_10
 10
73.4279
 20
105.8602
  0
SEQEND
  0
POLYLINE
  8
LAYER_10
 40
0.1058
 41
0.1058
 66
1
 10
0
 20
0
 30
0
  0
VERTEX
  8
LAYER_10
 10
83.4473
 20
100.2072
  0
VERTEX
  8
LAYER_10
 10
83.2419
 20
100.3305
 42
0.09150918221
  0
VERTEX
  8
LAYER_10
 10
76.9731
 20
102.9033
  0
VERTEX
  8
LAYER_10
 10
76.754
 20
102.9446
  0
SEQEND
  0
POLYLINE
  8
LAYER_10
 40
0.1058
 41
0.1058
 66
1
 10
0
 20
0
 30
0
  0
VERTEX
  8
LAYER_10
 10
63.4084
 20
100.2072
  0
VERTEX
  8
LAYER_10
 10
63.6137
 20
100.3305
 42
-0.09150504779
  0
VERTEX
  8
LAYER_10
 10
69.8827
 20
102.9033
  0
VERTEX
  8
LAYER_10
 10
70.1017
 20
102.9446
  0
SEQEND
  0
POLYLINE
  8
LAYER_10
 40
0.1058
 41
0.1058
 66
1
 10
0
 20
0
 30
0
 70
1
  0
VERTEX
  8
LAYER_10
 10
58.6314
 20
92.98
  0
VERTEX
  8
LAYER_10
 10
58.6176
 20
93.1034
 42
-0.1185802526
  0
VERTEX
  8
LAYER_10
 10
59.0232
 20
95.5757
 42
-0.05268465484
  0
VERTEX
  8
LAYER_10
 10
59.6952
 20
96.7931
 42
-0.04510923609
  0
VERTEX
  8
LAYER_10
 10
60.7855
 20
98.0844
 42
-0.04505974272
  0
VERTEX
  8
LAYER_10
 10
63.162
 20
100.029
  0
VERTEX
  8
LAYER_10
 10
63.4084
 20
100.2072
  0
VERTEX
  8
LAYER_10
 10
60.1095
 20
103.533
  0
VERTEX
  8
LAYER_10
 10
59.9043
 20
103.7246
  0
VERTEX
  8
LAYER_10
 10
59.6579
 20
103.8617
  0
VERTEX
  8
LAYER_10
 10
59.3979
 20
103.9713
  0
VERTEX
  8
LAYER_10
 10
59.124
 20
104.0395
  0
VERTEX
  8
LAYER_10
 10
58.8503
 20
104.067
  0
VERTEX
  8
LAYER_10
 10
53.9364
 20
104.067
  0
VERTEX
  8
LAYER_10
 10
53.7859
 20
104.0395
  0
VERTEX
  8
LAYER_10
 10
53.6489
 20
103.9713
  0
VERTEX
  8
LAYER_10
 10
53.5395
 20
103.8617
  0
VERTEX
  8
LAYER_10
 10
53.471
 20
103.7246
  0
VERTEX
  8
LAYER_10
 10
53.4438
 20
103.5606
  0
VERTEX
  8
LAYER_10
 10
53.4438
 20
96.6484
  0
VERTEX
  8
LAYER_10
 10
53.471
 20
96.3197
  0
VERTEX
  8
LAYER_10
 10
53.5669
 20
96.0048
  0
VERTEX
  8
LAYER_10
 10
53.7175
 20
95.7175
  0
VERTEX
  8
LAYER_10
 10
53.909
 20
95.444
  0
VERTEX
  8
LAYER_10
 10
54.1553
 20
95.2245
  0
VERTEX
  8
LAYER_10
 10
54.4429
 20
95.0605
  0
SEQEND
  0
POLYLINE
  8
LAYER_10
 40
0.1058
 41
0.1058
 66
1
 10
0
 20
0
 30
0
 70
1
  0
VERTEX
  8
LAYER_10
 10
75.8095
 20
92.9525
  0
VERTEX
  8
LAYER_10
 10
75.7821
 20
93.2811
  0
VERTEX
  8
LAYER_10
 10
75.7136
 20
93.6098
 42
0.173558167
  0
VERTEX
  8
LAYER_10
 10
74.7393
 20
94.9226
 42
0.1755646244
  0
VERTEX
  8
LAYER_10
 10
73.156
 20
95.2674
 42
0.1768024587
  0
VERTEX
  8
LAYER_10
 10
71.7113
 20
94.518
 42
0.1460279725
  0
VERTEX
  8
LAYER_10
 10
71.1419
 20
93.2811
  0
VERTEX
  8
LAYER_10
 10
71.1147
 20
92.9525
  0
VERTEX
  8
LAYER_10
 10
71.1419
 20
92.6104
 42
0.1738910563
  0
VERTEX
  8
LAYER_10
 10
71.9185
 20
91.171
 42
0.1759335565
  0
VERTEX
  8
LAYER_10
 10
73.4367
 20
90.6067
 42
0.1760990621
  0
VERTEX
  8
LAYER_10
 10
74.9738
 20
91.1431
 42
0.1459083319
  0
VERTEX
  8
LAYER_10
 10
75.7136
 20
92.282
  0
VERTEX
  8
LAYER_10
 10
75.7821
 20
92.6104
  0
SEQEND
  0
POLYLINE
  8
LAYER_10
 40
0.1058
 41
0.1058
 66
1
 10
0
 20
0
 30
0
  0
VERTEX
  8
LAYER_10
 10
88.2243
 20
92.98
  0
VERTEX
  8
LAYER_10
 10
88.238
 20
93.1034
 42
0.1193247516
  0
VERTEX
  8
LAYER_10
 10
87.8335
 20
95.5741
 42
0.05259779133
  0
VERTEX
  8
LAYER_10
 10
87.1599
 20
96.7936
 42
0.04503615849
  0
VERTEX
  8
LAYER_10
 10
86.0677
 20
98.0877
 42
0.04550904477
  0
VERTEX
  8
LAYER_10
 10
83.6936
 20
100.029
  0
VERTEX
  8
LAYER_10
 10
83.4473
 20
100.2072
  0
VERTEX
  8
LAYER_10
 10
86.7461
 20
103.533
  0
SEQEND
  0
POLYLINE
  8
LAYER_10
 40
0.1058
 41
0.1058
 66
1
 10
0
 20
0
 30
0
  0
VERTEX
  8
LAYER_10
 10
88.0053
 20
104.067
  0
VERTEX
  8
LAYER_10
 10
87.7316
 20
104.0395
  0
VERTEX
  8
LAYER_10
 10
87.4577
 20
103.9713
  0
VERTEX
  8
LAYER_10
 10
87.1978
 20
103.8617
  0
VERTEX
  8
LAYER_10
 10
86.9513
 20
103.7246
  0
VERTEX
  8
LAYER_10
 10
86.7461
 20
103.533
  0
SEQEND
  0
POLYLINE
  8
LAYER_10
 40
0.1058
 41
0.1058
 66
1
 10
0
 20
0
 30
0
  0
VERTEX
  8
LAYER_10
 10
88.0053
 20
104.067
  0
VERTEX
  8
LAYER_10
 10
92.9191
 20
104.067
  0
SEQEND
  0
POLYLINE
  8
LAYER_10
 40
0.1058
 41
0.1058
 66
1
 10
0
 20
0
 30
0
  0
VERTEX
  8
LAYER_10
 10
93.4117
 20
103.5606
  0
VERTEX
  8
LAYER_10
 10
93.3845
 20
103.7246
  0
VERTEX
  8
LAYER_10
 10
93.3159
 20
103.8617
  0
VERTEX
  8
LAYER_10
 10
93.2067
 20
103.9713
  0
VERTEX
  8
LAYER_10
 10
93.0699
 20
104.0395
  0
VERTEX
  8
LAYER_10
 10
92.9191
 20
104.067
  0
SEQEND
  0
POLYLINE
  8
LAYER_10
 40
0.1058
 41
0.1058
 66
1
 10
0
 20
0
 30
0
  0
VERTEX
  8
LAYER_10
 10
93.4117
 20
103.5606
  0
VERTEX
  8
LAYER_10
 10
93.4117
 20
96.6484
  0
SEQEND
  0
POLYLINE
  8
LAYER_10
 40
0.1058
 41
0.1058
 66
1
 10
0
 20
0
 30
0
  0
VERTEX
  8
LAYER_10
 10
92.4126
 20
95.0605
  0
VERTEX
  8
LAYER_10
 10
92.6999
 20
95.2245
  0
VERTEX
  8
LAYER_10
 10
92.9466
 20
95.444
  0
VERTEX
  8
LAYER_10
 10
93.1382
 20
95.7175
  0
VERTEX
  8
LAYER_10
 10
93.2887
 20
96.0048
  0
VERTEX
  8
LAYER_10
 10
93.3845
 20
96.3197
  0
VERTEX
  8
LAYER_10
 10
93.4117
 20
96.6484
  0
SEQEND
  0
POLYLINE
  8
LAYER_10
 40
0.1058
 41
0.1058
 66
1
 10
0
 20
0
 30
0
  0
VERTEX
  8
LAYER_10
 10
92.4126
 20
95.0605
  0
VERTEX
  8
LAYER_10
 10
88.2243
 20
92.98
  0
SEQEND
  0
POLYLINE
  8
LAYER_10
 40
0.1058
 41
0.1058
 66
1
 10
0
 20
0
 30
0
  0
VERTEX
  8
LAYER_10
 10
73.4277
 20
83.2345
  0
VERTEX
  8
LAYER_10
 10
73.1404
 20
83.2345
 42
-0.02479826477
  0
VERTEX
  8
LAYER_10
 10
70.1584
 20
83.5002
 42
-0.02726122468
  0
VERTEX
  8
LAYER_10
 10
67.6361
 20
83.9923
 42
-0.03067780951
  0
VERTEX
  8
LAYER_10
 10
65.5056
 20
84.6705
 42
-0.03576514573
  0
VERTEX
  8
LAYER_10
 10
63.6617
 20
85.5404
 42
-0.03706941189
  0
VERTEX
  8
LAYER_10
 10
62.2363
 20
86.489
 42
-0.08528143241
  0
VERTEX
  8
LAYER_10
 10
60.0393
 20
88.8952
 42
-0.08185731771
  0
VERTEX
  8
LAYER_10
 10
58.863
 20
91.6931
 42
-0.02618638052
  0
VERTEX
  8
LAYER_10
 10
58.645
 20
92.8429
  0
VERTEX
  8
LAYER_10
 10
58.6314
 20
92.98
  0
SEQEND
  0
POLYLINE
  8
LAYER_10
 40
0.1058
 41
0.1058
 66
1
 10
0
 20
0
 30
0
  0
VERTEX
  8
LAYER_10
 10
51.8558
 20
104.683
  0
VERTEX
  8
LAYER_10
 10
51.8423
 20
104.4367
 42
-0.08407976597
  0
VERTEX
  8
LAYER_10
 10
51.0756
 20
101.22
  0
VERTEX
  8
LAYER_10
 10
50.9798
 20
101.0009
  0
SEQEND
  0
POLYLINE
  8
LAYER_10
 40
0.1058
 41
0.1058
 66
1
 10
0
 20
0
 30
0
  0
VERTEX
  8
LAYER_10
 10
50.4324
 20
101.0009
  0
VERTEX
  8
LAYER_10
 10
50.5008
 20
100.9189
  0
VERTEX
  8
LAYER_10
 10
50.5966
 20
100.85
  0
VERTEX
  8
LAYER_10
 10
50.7061
 20
100.8369
  0
VERTEX
  8
LAYER_10
 10
50.8157
 20
100.85
  0
VERTEX
  8
LAYER_10
 10
50.9114
 20
100.9189
  0
VERTEX
  8
LAYER_10
 10
50.9798
 20
101.0009
  0
SEQEND
  0
POLYLINE
  8
LAYER_10
 40
0.1058
 41
0.1058
 66
1
 10
0
 20
0
 30
0
  0
VERTEX
  8
LAYER_10
 10
50.4324
 20
101.0009
  0
VERTEX
  8
LAYER_10
 10
50.3366
 20
101.22
 42
-0.08407931305
  0
VERTEX
  8
LAYER_10
 10
49.5701
 20
104.4367
  0
VERTEX
  8
LAYER_10
 10
49.5563
 20
104.683
  0
VERTEX
  8
LAYER_10
 10
51.8559
 20
104.683
  0
SEQEND
  0
POLYLINE
  8
LAYER_10
 40
0.1058
 41
0.1058
 66
1
 10
0
 20
0
 30
0
  0
VERTEX
  8
LAYER_10
 10
66.228
 20
101.7402
  0
VERTEX
  8
LAYER_10
 10
63.9286
 20
105.8602
  0
SEQEND
  0
POLYLINE
  8
LAYER_10
 40
0.1058
 41
0.1058
 66
1
 10
0
 20
0
 30
0
  0
VERTEX
  8
LAYER_10
 10
70.1017
 20
105.8602
  0
VERTEX
  8
LAYER_10
 10
70.1017
 20
93.6098
  0
SEQEND
  0
POLYLINE
  8
LAYER_10
 40
0.1058
 41
0.1058
 66
1
 10
0
 20
0
 30
0
  0
VERTEX
  8
LAYER_10
 10
73.4689
 20
78.4025
  0
VERTEX
  8
LAYER_10
 10
77.2056
 20
78.4025
  0
SEQEND
  0
POLYLINE
  8
LAYER_10
 40
0.05
 41
0.05
 66
1
 10
0
 20
0
 30
0
  0
VERTEX
  8
LAYER_10
 10
78.2733
 20
79.3609
  0
VERTEX
  8
LAYER_10
 10
77.9996
 20
79.3609
  0
VERTEX
  8
LAYER_10
 10
77.2468
 20
77.3896
  0
VERTEX
  8
LAYER_10
 10
77.5343
 20
77.3896
  0
VERTEX
  8
LAYER_10
 10
77.7258
 20
77.937
  0
VERTEX
  8
LAYER_10
 10
78.5471
 20
77.937
  0
VERTEX
  8
LAYER_10
 10
77.8078
 20
78.1558
  0
VERTEX
  8
LAYER_10
 10
78.0953
 20
78.9775
  0
VERTEX
  8
LAYER_10
 10
78.1091
 20
79.0047
  0
VERTEX
  8
LAYER_10
 10
78.1229
 20
79.0594
  0
VERTEX
  8
LAYER_10
 10
78.1229
 20
79.1142
  0
VERTEX
  8
LAYER_10
 10
78.1363
 20
79.1142
  0
SEQEND
  0
POLYLINE
  8
LAYER_10
 40
0.05
 41
0.05
 66
1
 10
0
 20
0
 30
0
  0
VERTEX
  8
LAYER_10
 10
78.2733
 20
79.3609
  0
VERTEX
  8
LAYER_10
 10
78.1363
 20
79.1142
  0
VERTEX
  8
LAYER_10
 10
78.1501
 20
79.0732
  0
VERTEX
  8
LAYER_10
 10
78.1501
 20
79.0184
  0
VERTEX
  8
LAYER_10
 10
78.1639
 20
78.9775
  0
VERTEX
  8
LAYER_10
 10
78.465
 20
78.1558
  0
VERTEX
  8
LAYER_10
 10
77.8078
 20
78.1558
  0
VERTEX
  8
LAYER_10
 10
78.5471
 20
77.937
  0
VERTEX
  8
LAYER_10
 10
78.7523
 20
77.3896
  0
VERTEX
  8
LAYER_10
 10
79.0262
 20
77.3896
  0
SEQEND
  0
POLYLINE
  8
LAYER_10
 40
0.1058
 41
0.1058
 66
1
 10
0
 20
0
 30
0
  0
VERTEX
  8
LAYER_10
 10
73.4689
 20
108.6662
  0
VERTEX
  8
LAYER_10
 10
77.2056
 20
108.6662
  0
SEQEND
  0
POLYLINE
  8
LAYER_10
 40
0.05
 41
0.05
 66
1
 10
0
 20
0
 30
0
  0
VERTEX
  8
LAYER_10
 10
78.2733
 20
109.6378
  0
VERTEX
  8
LAYER_10
 10
77.9996
 20
109.6378
  0
VERTEX
  8
LAYER_10
 10
77.2468
 20
107.6672
  0
VERTEX
  8
LAYER_10
 10
77.5343
 20
107.6672
  0
VERTEX
  8
LAYER_10
 10
77.7258
 20
108.2146
  0
VERTEX
  8
LAYER_10
 10
78.5471
 20
108.2146
  0
VERTEX
  8
LAYER_10
 10
77.8078
 20
108.4333
  0
VERTEX
  8
LAYER_10
 10
78.0953
 20
109.2547
  0
VERTEX
  8
LAYER_10
 10
78.1091
 20
109.2822
  0
VERTEX
  8
LAYER_10
 10
78.1229
 20
109.337
  0
VERTEX
  8
LAYER_10
 10
78.1229
 20
109.3918
  0
VERTEX
  8
LAYER_10
 10
78.1363
 20
109.3918
  0
SEQEND
  0
POLYLINE
  8
LAYER_10
 40
0.05
 41
0.05
 66
1
 10
0
 20
0
 30
0
  0
VERTEX
  8
LAYER_10
 10
78.2733
 20
109.6378
  0
VERTEX
  8
LAYER_10
 10
78.1363
 20
109.3918
  0
VERTEX
  8
LAYER_10
 10
78.1501
 20
109.3504
  0
VERTEX
  8
LAYER_10
 10
78.1501
 20
109.2957
  0
VERTEX
  8
LAYER_10
 10
78.1639
 20
109.2547
  0
VERTEX
  8
LAYER_10
 10
78.465
 20
108.4333
  0
VERTEX
  8
LAYER_10
 10
77.8078
 20
108.4333
  0
VERTEX
  8
LAYER_10
 10
78.5471
 20
108.2146
  0
VERTEX
  8
LAYER_10
 10
78.7523
 20
107.6672
  0
VERTEX
  8
LAYER_10
 10
79.0262
 20
107.6672
  0
SEQEND
  0
POLYLINE
  8
LAYER_10
 40
0.0847
 41
0.0847
 62
1
 66
1
 10
0
 20
0
 30
0
  0
VERTEX
  8
LAYER_10
 10
73.4689
 20
111.2397
  0
VERTEX
  8
LAYER_10
 10
73.4689
 20
110.9521
  0
SEQEND
  0
POLYLINE
  8
LAYER_10
 40
0.0847
 41
0.0847
 62
1
 66
1
 10
0
 20
0
 30
0
  0
VERTEX
  8
LAYER_10
 10
73.4689
 20
110.8697
  0
VERTEX
  8
LAYER_10
 10
73.4689
 20
110.651
  0
SEQEND
  0
POLYLINE
  8
LAYER_10
 40
0.0847
 41
0.0847
 62
1
 66
1
 10
0
 20
0
 30
0
  0
VERTEX
  8
LAYER_10
 10
73.4689
 20
110.5552
  0
VERTEX
  8
LAYER_10
 10
73.4689
 20
110.4729
  0
SEQEND
  0
POLYLINE
  8
LAYER_10
 40
0.0847
 41
0.0847
 62
1
 66
1
 10
0
 20
0
 30
0
  0
VERTEX
  8
LAYER_10
 10
73.4689
 20
110.3909
  0
VERTEX
  8
LAYER_10
 10
73.4689
 20
110.1718
  0
SEQEND
  0
POLYLINE
  8
LAYER_10
 40
0.0847
 41
0.0847
 62
1
 66
1
 10
0
 20
0
 30
0
  0
VERTEX
  8
LAYER_10
 10
73.4689
 20
110.076
  0
VERTEX
  8
LAYER_10
 10
73.4689
 20
109.8569
  0
SEQEND
  0
POLYLINE
  8
LAYER_10
 40
0.0847
 41
0.0847
 62
1
 66
1
 10
0
 20
0
 30
0
  0
VERTEX
  8
LAYER_10
 10
73.4689
 20
109.7749
  0
VERTEX
  8
LAYER_10
 10
73.4689
 20
109.6929
  0
SEQEND
  0
POLYLINE
  8
LAYER_10
 40
0.0847
 41
0.0847
 62
1
 66
1
 10
0
 20
0
 30
0
  0
VERTEX
  8
LAYER_10
 10
73.4689
 20
109.5968
  0
VERTEX
  8
LAYER_10
 10
73.4689
 20
109.378
  0
SEQEND
  0
POLYLINE
  8
LAYER_10
 40
0.0847
 41
0.0847
 62
1
 66
1
 10
0
 20
0
 30
0
  0
VERTEX
  8
LAYER_10
 10
73.4689
 20
109.2957
  0
VERTEX
  8
LAYER_10
 10
73.4689
 20
109.0769
  0
SEQEND
  0
POLYLINE
  8
LAYER_10
 40
0.0847
 41
0.0847
 62
1
 66
1
 10
0
 20
0
 30
0
  0
VERTEX
  8
LAYER_10
 10
73.4689
 20
108.9949
  0
VERTEX
  8
LAYER_10
 10
73.4689
 20
108.8988
  0
SEQEND
  0
POLYLINE
  8
LAYER_10
 40
0.0847
 41
0.0847
 62
1
 66
1
 10
0
 20
0
 30
0
  0
VERTEX
  8
LAYER_10
 10
73.4689
 20
108.8165
  0
VERTEX
  8
LAYER_10
 10
73.4689
 20
108.5977
  0
SEQEND
  0
POLYLINE
  8
LAYER_10
 40
0.0847
 41
0.0847
 62
1
 66
1
 10
0
 20
0
 30
0
  0
VERTEX
  8
LAYER_10
 10
73.4689
 20
108.5154
  0
VERTEX
  8
LAYER_10
 10
73.4689
 20
108.2966
  0
SEQEND
  0
POLYLINE
  8
LAYER_10
 40
0.0847
 41
0.0847
 62
1
 66
1
 10
0
 20
0
 30
0
  0
VERTEX
  8
LAYER_10
 10
73.4689
 20
108.2008
  0
VERTEX
  8
LAYER_10
 10
73.4689
 20
108.1185
  0
SEQEND
  0
POLYLINE
  8
LAYER_10
 40
0.0847
 41
0.0847
 62
1
 66
1
 10
0
 20
0
 30
0
  0
VERTEX
  8
LAYER_10
 10
73.4689
 20
108.0365
  0
VERTEX
  8
LAYER_10
 10
73.4689
 20
107.8174
  0
SEQEND
  0
POLYLINE
  8
LAYER_10
 40
0.0847
 41
0.0847
 62
1
 66
1
 10
0
 20
0
 30
0
  0
VERTEX
  8
LAYER_10
 10
73.4689
 20
107.7216
  0
VERTEX
  8
LAYER_10
 10
73.4689
 20
107.5025
  0
SEQEND
  0
POLYLINE
  8
LAYER_10
 40
0.0847
 41
0.0847
 62
1
 66
1
 10
0
 20
0
 30
0
  0
VERTEX
  8
LAYER_10
 10
73.4689
 20
107.4205
  0
VERTEX
  8
LAYER_10
 10
73.4689
 20
107.3385
  0
SEQEND
  0
POLYLINE
  8
LAYER_10
 40
0.0847
 41
0.0847
 62
1
 66
1
 10
0
 20
0
 30
0
  0
VERTEX
  8
LAYER_10
 10
73.4689
 20
107.2427
  0
VERTEX
  8
LAYER_10
 10
73.4689
 20
107.0236
  0
SEQEND
  0
POLYLINE
  8
LAYER_10
 40
0.0847
 41
0.0847
 62
1
 66
1
 10
0
 20
0
 30
0
  0
VERTEX
  8
LAYER_10
 10
73.4689
 20
106.9416
  0
VERTEX
  8
LAYER_10
 10
73.4689
 20
106.7225
  0
SEQEND
  0
POLYLINE
  8
LAYER_10
 40
0.0847
 41
0.0847
 62
1
 66
1
 10
0
 20
0
 30
0
  0
VERTEX
  8
LAYER_10
 10
73.4689
 20
106.6405
  0
VERTEX
  8
LAYER_10
 10
73.4689
 20
106.5447
  0
SEQEND
  0
POLYLINE
  8
LAYER_10
 40
0.0847
 41
0.0847
 62
1
 66
1
 10
0
 20
0
 30
0
  0
VERTEX
  8
LAYER_10
 10
73.4689
 20
106.4624
  0
VERTEX
  8
LAYER_10
 10
73.4689
 20
106.2433
  0
SEQEND
  0
POLYLINE
  8
LAYER_10
 40
0.0847
 41
0.0847
 62
1
 66
1
 10
0
 20
0
 30
0
  0
VERTEX
  8
LAYER_10
 10
73.4689
 20
106.1475
  0
VERTEX
  8
LAYER_10
 10
73.4689
 20
105.9422
  0
SEQEND
  0
POLYLINE
  8
LAYER_10
 40
0.0847
 41
0.0847
 62
1
 66
1
 10
0
 20
0
 30
0
  0
VERTEX
  8
LAYER_10
 10
73.4689
 20
105.8464
  0
VERTEX
  8
LAYER_10
 10
73.4689
 20
105.7644
  0
SEQEND
  0
POLYLINE
  8
LAYER_10
 40
0.0847
 41
0.0847
 62
1
 66
1
 10
0
 20
0
 30
0
  0
VERTEX
  8
LAYER_10
 10
73.4689
 20
105.6687
  0
VERTEX
  8
LAYER_10
 10
73.4689
 20
105.463
  0
SEQEND
  0
POLYLINE
  8
LAYER_10
 40
0.0847
 41
0.0847
 62
1
 66
1
 10
0
 20
0
 30
0
  0
VERTEX
  8
LAYER_10
 10
73.4689
 20
105.3672
  0
VERTEX
  8
LAYER_10
 10
73.4689
 20
105.1481
  0
SEQEND
  0
POLYLINE
  8
LAYER_10
 40
0.0847
 41
0.0847
 62
1
 66
1
 10
0
 20
0
 30
0
  0
VERTEX
  8
LAYER_10
 10
73.4689
 20
105.0661
  0
VERTEX
  8
LAYER_10
 10
73.4689
 20
104.9703
  0
SEQEND
  0
POLYLINE
  8
LAYER_10
 40
0.0847
 41
0.0847
 62
1
 66
1
 10
0
 20
0
 30
0
  0
VERTEX
  8
LAYER_10
 10
73.4689
 20
104.8883
  0
VERTEX
  8
LAYER_10
 10
73.4689
 20
104.6692
  0
SEQEND
  0
POLYLINE
  8
LAYER_10
 40
0.0847
 41
0.0847
 62
1
 66
1
 10
0
 20
0
 30
0
  0
VERTEX
  8
LAYER_10
 10
73.4689
 20
104.5872
  0
VERTEX
  8
LAYER_10
 10
73.4689
 20
104.3681
  0
SEQEND
  0
POLYLINE
  8
LAYER_10
 40
0.0847
 41
0.0847
 62
1
 66
1
 10
0
 20
0
 30
0
  0
VERTEX
  8
LAYER_10
 10
73.4689
 20
104.2724
  0
VERTEX
  8
LAYER_10
 10
73.4689
 20
104.1904
  0
SEQEND
  0
POLYLINE
  8
LAYER_10
 40
0.0847
 41
0.0847
 62
1
 66
1
 10
0
 20
0
 30
0
  0
VERTEX
  8
LAYER_10
 10
73.4689
 20
104.108
  0
VERTEX
  8
LAYER_10
 10
73.4689
 20
103.8889
  0
SEQEND
  0
POLYLINE
  8
LAYER_10
 40
0.0847
 41
0.0847
 62
1
 66
1
 10
0
 20
0
 30
0
  0
VERTEX
  8
LAYER_10
 10
73.4689
 20
103.7931
  0
VERTEX
  8
LAYER_10
 10
73.4689
 20
103.5744
  0
SEQEND
  0
POLYLINE
  8
LAYER_10
 40
0.0847
 41
0.0847
 62
1
 66
1
 10
0
 20
0
 30
0
  0
VERTEX
  8
LAYER_10
 10
73.4689
 20
103.4921
  0
VERTEX
  8
LAYER_10
 10
73.4689
 20
103.4101
  0
SEQEND
  0
POLYLINE
  8
LAYER_10
 40
0.0847
 41
0.0847
 62
1
 66
1
 10
0
 20
0
 30
0
  0
VERTEX
  8
LAYER_10
 10
73.4689
 20
103.3143
  0
VERTEX
  8
LAYER_10
 10
73.4689
 20
103.0948
  0
SEQEND
  0
POLYLINE
  8
LAYER_10
 40
0.0847
 41
0.0847
 62
1
 66
1
 10
0
 20
0
 30
0
  0
VERTEX
  8
LAYER_10
 10
73.4689
 20
103.0128
  0
VERTEX
  8
LAYER_10
 10
73.4689
 20
102.7941
  0
SEQEND
  0
POLYLINE
  8
LAYER_10
 40
0.0847
 41
0.0847
 62
1
 66
1
 10
0
 20
0
 30
0
  0
VERTEX
  8
LAYER_10
 10
73.4689
 20
102.7117
  0
VERTEX
  8
LAYER_10
 10
73.4689
 20
102.616
  0
SEQEND
  0
POLYLINE
  8
LAYER_10
 40
0.0847
 41
0.0847
 62
1
 66
1
 10
0
 20
0
 30
0
  0
VERTEX
  8
LAYER_10
 10
73.4689
 20
102.534
  0
VERTEX
  8
LAYER_10
 10
73.4689
 20
102.3149
  0
SEQEND
  0
POLYLINE
  8
LAYER_10
 40
0.0847
 41
0.0847
 62
1
 66
1
 10
0
 20
0
 30
0
  0
VERTEX
  8
LAYER_10
 10
73.4689
 20
102.2329
  0
VERTEX
  8
LAYER_10
 10
73.4689
 20
102.0138
  0
SEQEND
  0
POLYLINE
  8
LAYER_10
 40
0.0847
 41
0.0847
 62
1
 66
1
 10
0
 20
0
 30
0
  0
VERTEX
  8
LAYER_10
 10
73.4689
 20
101.918
  0
VERTEX
  8
LAYER_10
 10
73.4689
 20
101.836
  0
SEQEND
  0
POLYLINE
  8
LAYER_10
 40
0.0847
 41
0.0847
 62
1
 66
1
 10
0
 20
0
 30
0
  0
VERTEX
  8
LAYER_10
 10
73.4689
 20
101.754
  0
VERTEX
  8
LAYER_10
 10
73.4689
 20
101.5349
  0
SEQEND
  0
POLYLINE
  8
LAYER_10
 40
0.0847
 41
0.0847
 62
1
 66
1
 10
0
 20
0
 30
0
  0
VERTEX
  8
LAYER_10
 10
73.4689
 20
101.4388
  0
VERTEX
  8
LAYER_10
 10
73.4689
 20
101.22
  0
SEQEND
  0
POLYLINE
  8
LAYER_10
 40
0.0847
 41
0.0847
 62
1
 66
1
 10
0
 20
0
 30
0
  0
VERTEX
  8
LAYER_10
 10
73.4689
 20
101.1377
  0
VERTEX
  8
LAYER_10
 10
73.4689
 20
101.0557
  0
SEQEND
  0
POLYLINE
  8
LAYER_10
 40
0.0847
 41
0.0847
 62
1
 66
1
 10
0
 20
0
 30
0
  0
VERTEX
  8
LAYER_10
 10
73.4689
 20
100.9599
  0
VERTEX
  8
LAYER_10
 10
73.4689
 20
100.7408
  0
SEQEND
  0
POLYLINE
  8
LAYER_10
 40
0.0847
 41
0.0847
 62
1
 66
1
 10
0
 20
0
 30
0
  0
VERTEX
  8
LAYER_10
 10
73.4689
 20
100.6585
  0
VERTEX
  8
LAYER_10
 10
73.4689
 20
100.4397
  0
SEQEND
  0
POLYLINE
  8
LAYER_10
 40
0.0847
 41
0.0847
 62
1
 66
1
 10
0
 20
0
 30
0
  0
VERTEX
  8
LAYER_10
 10
73.4689
 20
100.3574
  0
VERTEX
  8
LAYER_10
 10
73.4689
 20
100.2616
  0
SEQEND
  0
POLYLINE
  8
LAYER_10
 40
0.0847
 41
0.0847
 62
1
 66
1
 10
0
 20
0
 30
0
  0
VERTEX
  8
LAYER_10
 10
73.4689
 20
100.1796
  0
VERTEX
  8
LAYER_10
 10
73.4689
 20
99.9605
  0
SEQEND
  0
POLYLINE
  8
LAYER_10
 40
0.0847
 41
0.0847
 62
1
 66
1
 10
0
 20
0
 30
0
  0
VERTEX
  8
LAYER_10
 10
73.4689
 20
99.8785
  0
VERTEX
  8
LAYER_10
 10
73.4689
 20
99.6594
  0
SEQEND
  0
POLYLINE
  8
LAYER_10
 40
0.0847
 41
0.0847
 62
1
 66
1
 10
0
 20
0
 30
0
  0
VERTEX
  8
LAYER_10
 10
73.4689
 20
99.5636
  0
VERTEX
  8
LAYER_10
 10
73.4689
 20
99.4816
  0
SEQEND
  0
POLYLINE
  8
LAYER_10
 40
0.0847
 41
0.0847
 62
1
 66
1
 10
0
 20
0
 30
0
  0
VERTEX
  8
LAYER_10
 10
73.4689
 20
99.3996
  0
VERTEX
  8
LAYER_10
 10
73.4689
 20
99.1805
  0
SEQEND
  0
POLYLINE
  8
LAYER_10
 40
0.0847
 41
0.0847
 62
1
 66
1
 10
0
 20
0
 30
0
  0
VERTEX
  8
LAYER_10
 10
73.4689
 20
99.0844
  0
VERTEX
  8
LAYER_10
 10
73.4689
 20
98.8656
  0
SEQEND
  0
POLYLINE
  8
LAYER_10
 40
0.0847
 41
0.0847
 62
1
 66
1
 10
0
 20
0
 30
0
  0
VERTEX
  8
LAYER_10
 10
73.4689
 20
98.7836
  0
VERTEX
  8
LAYER_10
 10
73.4689
 20
98.7013
  0
SEQEND
  0
POLYLINE
  8
LAYER_10
 40
0.0847
 41
0.0847
 62
1
 66
1
 10
0
 20
0
 30
0
  0
VERTEX
  8
LAYER_10
 10
73.4689
 20
98.6055
  0
VERTEX
  8
LAYER_10
 10
73.4689
 20
98.3864
  0
SEQEND
  0
POLYLINE
  8
LAYER_10
 40
0.0847
 41
0.0847
 62
1
 66
1
 10
0
 20
0
 30
0
  0
VERTEX
  8
LAYER_10
 10
73.4689
 20
98.3041
  0
VERTEX
  8
LAYER_10
 10
73.4689
 20
98.0857
  0
SEQEND
  0
POLYLINE
  8
LAYER_10
 40
0.0847
 41
0.0847
 62
1
 66
1
 10
0
 20
0
 30
0
  0
VERTEX
  8
LAYER_10
 10
73.4689
 20
98.0033
  0
VERTEX
  8
LAYER_10
 10
73.4689
 20
97.9072
  0
SEQEND
  0
POLYLINE
  8
LAYER_10
 40
0.0847
 41
0.0847
 62
1
 66
1
 10
0
 20
0
 30
0
  0
VERTEX
  8
LAYER_10
 10
73.4689
 20
97.8252
  0
VERTEX
  8
LAYER_10
 10
73.4689
 20
97.6061
  0
SEQEND
  0
POLYLINE
  8
LAYER_10
 40
0.0847
 41
0.0847
 62
1
 66
1
 10
0
 20
0
 30
0
  0
VERTEX
  8
LAYER_10
 10
73.4689
 20
97.5241
  0
VERTEX
  8
LAYER_10
 10
73.4689
 20
97.3054
  0
SEQEND
  0
POLYLINE
  8
LAYER_10
 40
0.0847
 41
0.0847
 62
1
 66
1
 10
0
 20
0
 30
0
  0
VERTEX
  8
LAYER_10
 10
73.4689
 20
97.2096
  0
VERTEX
  8
LAYER_10
 10
73.4689
 20
97.1272
  0
SEQEND
  0
POLYLINE
  8
LAYER_10
 40
0.0847
 41
0.0847
 62
1
 66
1
 10
0
 20
0
 30
0
  0
VERTEX
  8
LAYER_10
 10
73.4689
 20
97.0452
  0
VERTEX
  8
LAYER_10
 10
73.4689
 20
96.8261
  0
SEQEND
  0
POLYLINE
  8
LAYER_10
 40
0.0847
 41
0.0847
 62
1
 66
1
 10
0
 20
0
 30
0
  0
VERTEX
  8
LAYER_10
 10
73.4689
 20
96.7304
  0
VERTEX
  8
LAYER_10
 10
73.4689
 20
96.5113
  0
SEQEND
  0
POLYLINE
  8
LAYER_10
 40
0.0847
 41
0.0847
 62
1
 66
1
 10
0
 20
0
 30
0
  0
VERTEX
  8
LAYER_10
 10
73.4689
 20
96.4293
  0
VERTEX
  8
LAYER_10
 10
73.4689
 20
96.3469
  0
SEQEND
  0
POLYLINE
  8
LAYER_10
 40
0.0847
 41
0.0847
 62
1
 66
1
 10
0
 20
0
 30
0
  0
VERTEX
  8
LAYER_10
 10
73.4689
 20
96.2511
  0
VERTEX
  8
LAYER_10
 10
73.4689
 20
96.0324
  0
SEQEND
  0
POLYLINE
  8
LAYER_10
 40
0.0847
 41
0.0847
 62
1
 66
1
 10
0
 20
0
 30
0
  0
VERTEX
  8
LAYER_10
 10
73.4689
 20
95.9504
  0
VERTEX
  8
LAYER_10
 10
73.4689
 20
95.7313
  0
SEQEND
  0
POLYLINE
  8
LAYER_10
 40
0.0847
 41
0.0847
 62
1
 66
1
 10
0
 20
0
 30
0
  0
VERTEX
  8
LAYER_10
 10
73.4689
 20
95.649
  0
VERTEX
  8
LAYER_10
 10
73.4689
 20
95.5532
  0
SEQEND
  0
POLYLINE
  8
LAYER_10
 40
0.0847
 41
0.0847
 62
1
 66
1
 10
0
 20
0
 30
0
  0
VERTEX
  8
LAYER_10
 10
73.4689
 20
95.4708
  0
VERTEX
  8
LAYER_10
 10
73.4689
 20
95.2524
  0
SEQEND
  0
POLYLINE
  8
LAYER_10
 40
0.0847
 41
0.0847
 62
1
 66
1
 10
0
 20
0
 30
0
  0
VERTEX
  8
LAYER_10
 10
73.4689
 20
95.1697
  0
VERTEX
  8
LAYER_10
 10
73.4689
 20
94.951
  0
SEQEND
  0
POLYLINE
  8
LAYER_10
 40
0.0847
 41
0.0847
 62
1
 66
1
 10
0
 20
0
 30
0
  0
VERTEX
  8
LAYER_10
 10
73.4689
 20
94.8552
  0
VERTEX
  8
LAYER_10
 10
73.4689
 20
94.7729
  0
SEQEND
  0
POLYLINE
  8
LAYER_10
 40
0.0847
 41
0.0847
 62
1
 66
1
 10
0
 20
0
 30
0
  0
VERTEX
  8
LAYER_10
 10
73.4689
 20
94.6771
  0
VERTEX
  8
LAYER_10
 10
73.4689
 20
94.4718
  0
SEQEND
  0
POLYLINE
  8
LAYER_10
 40
0.0847
 41
0.0847
 62
1
 66
1
 10
0
 20
0
 30
0
  0
VERTEX
  8
LAYER_10
 10
73.4689
 20
94.376
  0
VERTEX
  8
LAYER_10
 10
73.4689
 20
94.1569
  0
SEQEND
  0
POLYLINE
  8
LAYER_10
 40
0.0847
 41
0.0847
 62
1
 66
1
 10
0
 20
0
 30
0
  0
VERTEX
  8
LAYER_10
 10
73.4689
 20
94.0749
  0
VERTEX
  8
LAYER_10
 10
73.4689
 20
93.9791
  0
SEQEND
  0
POLYLINE
  8
LAYER_10
 40
0.0847
 41
0.0847
 62
1
 66
1
 10
0
 20
0
 30
0
  0
VERTEX
  8
LAYER_10
 10
73.4689
 20
93.8971
  0
VERTEX
  8
LAYER_10
 10
73.4689
 20
93.678
  0
SEQEND
  0
POLYLINE
  8
LAYER_10
 40
0.0847
 41
0.0847
 62
1
 66
1
 10
0
 20
0
 30
0
  0
VERTEX
  8
LAYER_10
 10
73.4689
 20
93.596
  0
VERTEX
  8
LAYER_10
 10
73.4689
 20
93.3769
  0
SEQEND
  0
POLYLINE
  8
LAYER_10
 40
0.0847
 41
0.0847
 62
1
 66
1
 10
0
 20
0
 30
0
  0
VERTEX
  8
LAYER_10
 10
73.4689
 20
93.2949
  0
VERTEX
  8
LAYER_10
 10
73.4689
 20
93.1991
  0
SEQEND
  0
POLYLINE
  8
LAYER_10
 40
0.0847
 41
0.0847
 62
1
 66
1
 10
0
 20
0
 30
0
  0
VERTEX
  8
LAYER_10
 10
73.4689
 20
93.1165
  0
VERTEX
  8
LAYER_10
 10
73.4689
 20
92.898
  0
SEQEND
  0
POLYLINE
  8
LAYER_10
 40
0.0847
 41
0.0847
 62
1
 66
1
 10
0
 20
0
 30
0
  0
VERTEX
  8
LAYER_10
 10
73.4689
 20
92.8019
  0
VERTEX
  8
LAYER_10
 10
73.4689
 20
92.5966
  0
SEQEND
  0
POLYLINE
  8
LAYER_10
 40
0.0847
 41
0.0847
 62
1
 66
1
 10
0
 20
0
 30
0
  0
VERTEX
  8
LAYER_10
 10
73.4689
 20
92.5008
  0
VERTEX
  8
LAYER_10
 10
73.4689
 20
92.4185
  0
SEQEND
  0
POLYLINE
  8
LAYER_10
 40
0.0847
 41
0.0847
 62
1
 66
1
 10
0
 20
0
 30
0
  0
VERTEX
  8
LAYER_10
 10
73.4689
 20
92.3227
  0
VERTEX
  8
LAYER_10
 10
73.4689
 20
92.1036
  0
SEQEND
  0
POLYLINE
  8
LAYER_10
 40
0.0847
 41
0.0847
 62
1
 66
1
 10
0
 20
0
 30
0
  0
VERTEX
  8
LAYER_10
 10
73.4689
 20
92.0216
  0
VERTEX
  8
LAYER_10
 10
73.4689
 20
91.8025
  0
SEQEND
  0
POLYLINE
  8
LAYER_10
 40
0.0847
 41
0.0847
 62
1
 66
1
 10
0
 20
0
 30
0
  0
VERTEX
  8
LAYER_10
 10
73.4689
 20
91.7205
  0
VERTEX
  8
LAYER_10
 10
73.4689
 20
91.6247
  0
SEQEND
  0
POLYLINE
  8
LAYER_10
 40
0.0847
 41
0.0847
 62
1
 66
1
 10
0
 20
0
 30
0
  0
VERTEX
  8
LAYER_10
 10
73.4689
 20
91.5427
  0
VERTEX
  8
LAYER_10
 10
73.4689
 20
91.3236
  0
SEQEND
  0
POLYLINE
  8
LAYER_10
 40
0.0847
 41
0.0847
 62
1
 66
1
 10
0
 20
0
 30
0
  0
VERTEX
  8
LAYER_10
 10
73.4689
 20
91.2416
  0
VERTEX
  8
LAYER_10
 10
73.4689
 20
91.0225
  0
SEQEND
  0
POLYLINE
  8
LAYER_10
 40
0.0847
 41
0.0847
 62
1
 66
1
 10
0
 20
0
 30
0
  0
VERTEX
  8
LAYER_10
 10
73.4689
 20
90.9267
  0
VERTEX
  8
LAYER_10
 10
73.4689
 20
90.8448
  0
SEQEND
  0
POLYLINE
  8
LAYER_10
 40
0.0847
 41
0.0847
 62
1
 66
1
 10
0
 20
0
 30
0
  0
VERTEX
  8
LAYER_10
 10
73.4689
 20
90.7624
  0
VERTEX
  8
LAYER_10
 10
73.4689
 20
90.5437
  0
SEQEND
  0
POLYLINE
  8
LAYER_10
 40
0.0847
 41
0.0847
 62
1
 66
1
 10
0
 20
0
 30
0
  0
VERTEX
  8
LAYER_10
 10
73.4689
 20
90.4479
  0
VERTEX
  8
LAYER_10
 10
73.4689
 20
90.2288
  0
SEQEND
  0
POLYLINE
  8
LAYER_10
 40
0.0847
 41
0.0847
 62
1
 66
1
 10
0
 20
0
 30
0
  0
VERTEX
  8
LAYER_10
 10
73.4689
 20
90.1464
  0
VERTEX
  8
LAYER_10
 10
73.4689
 20
90.0644
  0
SEQEND
  0
POLYLINE
  8
LAYER_10
 40
0.0847
 41
0.0847
 62
1
 66
1
 10
0
 20
0
 30
0
  0
VERTEX
  8
LAYER_10
 10
73.4689
 20
89.9687
  0
VERTEX
  8
LAYER_10
 10
73.4689
 20
89.7492
  0
SEQEND
  0
POLYLINE
  8
LAYER_10
 40
0.0847
 41
0.0847
 62
1
 66
1
 10
0
 20
0
 30
0
  0
VERTEX
  8
LAYER_10
 10
73.4689
 20
89.6672
  0
VERTEX
  8
LAYER_10
 10
73.4689
 20
89.4481
  0
SEQEND
  0
POLYLINE
  8
LAYER_10
 40
0.0847
 41
0.0847
 62
1
 66
1
 10
0
 20
0
 30
0
  0
VERTEX
  8
LAYER_10
 10
73.4689
 20
89.3661
  0
VERTEX
  8
LAYER_10
 10
73.4689
 20
89.2703
  0
SEQEND
  0
POLYLINE
  8
LAYER_10
 40
0.0847
 41
0.0847
 62
1
 66
1
 10
0
 20
0
 30
0
  0
VERTEX
  8
LAYER_10
 10
73.4689
 20
89.1884
  0
VERTEX
  8
LAYER_10
 10
73.4689
 20
88.9692
  0
SEQEND
  0
POLYLINE
  8
LAYER_10
 40
0.0847
 41
0.0847
 62
1
 66
1
 10
0
 20
0
 30
0
  0
VERTEX
  8
LAYER_10
 10
73.4689
 20
88.8873
  0
VERTEX
  8
LAYER_10
 10
73.4689
 20
88.6682
  0
SEQEND
  0
POLYLINE
  8
LAYER_10
 40
0.0847
 41
0.0847
 62
1
 66
1
 10
0
 20
0
 30
0
  0
VERTEX
  8
LAYER_10
 10
73.4689
 20
88.5724
  0
VERTEX
  8
LAYER_10
 10
73.4689
 20
88.4904
  0
SEQEND
  0
POLYLINE
  8
LAYER_10
 40
0.0847
 41
0.0847
 62
1
 66
1
 10
0
 20
0
 30
0
  0
VERTEX
  8
LAYER_10
 10
73.4689
 20
88.4084
  0
VERTEX
  8
LAYER_10
 10
73.4689
 20
88.1893
  0
SEQEND
  0
POLYLINE
  8
LAYER_10
 40
0.0847
 41
0.0847
 62
1
 66
1
 10
0
 20
0
 30
0
  0
VERTEX
  8
LAYER_10
 10
73.4689
 20
88.0935
  0
VERTEX
  8
LAYER_10
 10
73.4689
 20
87.8744
  0
SEQEND
  0
POLYLINE
  8
LAYER_10
 40
0.0847
 41
0.0847
 62
1
 66
1
 10
0
 20
0
 30
0
  0
VERTEX
  8
LAYER_10
 10
73.4689
 20
87.7921
  0
VERTEX
  8
LAYER_10
 10
73.4689
 20
87.7101
  0
SEQEND
  0
POLYLINE
  8
LAYER_10
 40
0.0847
 41
0.0847
 62
1
 66
1
 10
0
 20
0
 30
0
  0
VERTEX
  8
LAYER_10
 10
73.4689
 20
87.6143
  0
VERTEX
  8
LAYER_10
 10
73.4689
 20
87.3948
  0
SEQEND
  0
POLYLINE
  8
LAYER_10
 40
0.0847
 41
0.0847
 62
1
 66
1
 10
0
 20
0
 30
0
  0
VERTEX
  8
LAYER_10
 10
73.4689
 20
87.3129
  0
VERTEX
  8
LAYER_10
 10
73.4689
 20
87.0941
  0
SEQEND
  0
POLYLINE
  8
LAYER_10
 40
0.0847
 41
0.0847
 62
1
 66
1
 10
0
 20
0
 30
0
  0
VERTEX
  8
LAYER_10
 10
73.4689
 20
87.0118
  0
VERTEX
  8
LAYER_10
 10
73.4689
 20
86.916
  0
SEQEND
  0
POLYLINE
  8
LAYER_10
 40
0.0847
 41
0.0847
 62
1
 66
1
 10
0
 20
0
 30
0
  0
VERTEX
  8
LAYER_10
 10
73.4689
 20
86.834
  0
VERTEX
  8
LAYER_10
 10
73.4689
 20
86.6149
  0
SEQEND
  0
POLYLINE
  8
LAYER_10
 40
0.0847
 41
0.0847
 62
1
 66
1
 10
0
 20
0
 30
0
  0
VERTEX
  8
LAYER_10
 10
73.4689
 20
86.5329
  0
VERTEX
  8
LAYER_10
 10
73.4689
 20
86.3138
  0
SEQEND
  0
POLYLINE
  8
LAYER_10
 40
0.0847
 41
0.0847
 62
1
 66
1
 10
0
 20
0
 30
0
  0
VERTEX
  8
LAYER_10
 10
73.4689
 20
86.218
  0
VERTEX
  8
LAYER_10
 10
73.4689
 20
86.136
  0
SEQEND
  0
POLYLINE
  8
LAYER_10
 40
0.0847
 41
0.0847
 62
1
 66
1
 10
0
 20
0
 30
0
  0
VERTEX
  8
LAYER_10
 10
73.4689
 20
86.054
  0
VERTEX
  8
LAYER_10
 10
73.4689
 20
85.8349
  0
SEQEND
  0
POLYLINE
  8
LAYER_10
 40
0.0847
 41
0.0847
 62
1
 66
1
 10
0
 20
0
 30
0
  0
VERTEX
  8
LAYER_10
 10
73.4689
 20
85.7391
  0
VERTEX
  8
LAYER_10
 10
73.4689
 20
85.52
  0
SEQEND
  0
POLYLINE
  8
LAYER_10
 40
0.0847
 41
0.0847
 62
1
 66
1
 10
0
 20
0
 30
0
  0
VERTEX
  8
LAYER_10
 10
73.4689
 20
85.438
  0
VERTEX
  8
LAYER_10
 10
73.4689
 20
85.3557
  0
SEQEND
  0
POLYLINE
  8
LAYER_10
 40
0.0847
 41
0.0847
 62
1
 66
1
 10
0
 20
0
 30
0
  0
VERTEX
  8
LAYER_10
 10
73.4689
 20
85.2599
  0
VERTEX
  8
LAYER_10
 10
73.4689
 20
85.0411
  0
SEQEND
  0
POLYLINE
  8
LAYER_10
 40
0.0847
 41
0.0847
 62
1
 66
1
 10
0
 20
0
 30
0
  0
VERTEX
  8
LAYER_10
 10
73.4689
 20
84.9585
  0
VERTEX
  8
LAYER_10
 10
73.4689
 20
84.74
  0
SEQEND
  0
POLYLINE
  8
LAYER_10
 40
0.0847
 41
0.0847
 62
1
 66
1
 10
0
 20
0
 30
0
  0
VERTEX
  8
LAYER_10
 10
73.4689
 20
84.6574
  0
VERTEX
  8
LAYER_10
 10
73.4689
 20
84.5616
  0
SEQEND
  0
POLYLINE
  8
LAYER_10
 40
0.0847
 41
0.0847
 62
1
 66
1
 10
0
 20
0
 30
0
  0
VERTEX
  8
LAYER_10
 10
73.4689
 20
84.4796
  0
VERTEX
  8
LAYER_10
 10
73.4689
 20
84.2605
  0
SEQEND
  0
POLYLINE
  8
LAYER_10
 40
0.0847
 41
0.0847
 62
1
 66
1
 10
0
 20
0
 30
0
  0
VERTEX
  8
LAYER_10
 10
73.4689
 20
84.1785
  0
VERTEX
  8
LAYER_10
 10
73.4689
 20
83.9597
  0
SEQEND
  0
POLYLINE
  8
LAYER_10
 40
0.0847
 41
0.0847
 62
1
 66
1
 10
0
 20
0
 30
0
  0
VERTEX
  8
LAYER_10
 10
73.4689
 20
83.8636
  0
VERTEX
  8
LAYER_10
 10
73.4689
 20
83.7816
  0
SEQEND
  0
POLYLINE
  8
LAYER_10
 40
0.0847
 41
0.0847
 62
1
 66
1
 10
0
 20
0
 30
0
  0
VERTEX
  8
LAYER_10
 10
73.4689
 20
83.6858
  0
VERTEX
  8
LAYER_10
 10
73.4689
 20
83.4805
  0
SEQEND
  0
POLYLINE
  8
LAYER_10
 40
0.0847
 41
0.0847
 62
1
 66
1
 10
0
 20
0
 30
0
  0
VERTEX
  8
LAYER_10
 10
73.4689
 20
83.3847
  0
VERTEX
  8
LAYER_10
 10
73.4689
 20
83.1656
  0
SEQEND
  0
POLYLINE
  8
LAYER_10
 40
0.0847
 41
0.0847
 62
1
 66
1
 10
0
 20
0
 30
0
  0
VERTEX
  8
LAYER_10
 10
73.4689
 20
83.0836
  0
VERTEX
  8
LAYER_10
 10
73.4689
 20
83.0013
  0
SEQEND
  0
POLYLINE
  8
LAYER_10
 40
0.0847
 41
0.0847
 62
1
 66
1
 10
0
 20
0
 30
0
  0
VERTEX
  8
LAYER_10
 10
73.4689
 20
82.9055
  0
VERTEX
  8
LAYER_10
 10
73.4689
 20
82.6868
  0
SEQEND
  0
POLYLINE
  8
LAYER_10
 40
0.0847
 41
0.0847
 62
1
 66
1
 10
0
 20
0
 30
0
  0
VERTEX
  8
LAYER_10
 10
73.4689
 20
82.6041
  0
VERTEX
  8
LAYER_10
 10
73.4689
 20
82.3857
  0
SEQEND
  0
POLYLINE
  8
LAYER_10
 40
0.0847
 41
0.0847
 62
1
 66
1
 10
0
 20
0
 30
0
  0
VERTEX
  8
LAYER_10
 10
73.4689
 20
82.3033
  0
VERTEX
  8
LAYER_10
 10
73.4689
 20
82.2076
  0
SEQEND
  0
POLYLINE
  8
LAYER_10
 40
0.0847
 41
0.0847
 62
1
 66
1
 10
0
 20
0
 30
0
  0
VERTEX
  8
LAYER_10
 10
73.4689
 20
82.1252
  0
VERTEX
  8
LAYER_10
 10
73.4689
 20
81.9068
  0
SEQEND
  0
POLYLINE
  8
LAYER_10
 40
0.0847
 41
0.0847
 62
1
 66
1
 10
0
 20
0
 30
0
  0
VERTEX
  8
LAYER_10
 10
73.4689
 20
81.8103
  0
VERTEX
  8
LAYER_10
 10
73.4689
 20
81.6054
  0
SEQEND
  0
POLYLINE
  8
LAYER_10
 40
0.0847
 41
0.0847
 62
1
 66
1
 10
0
 20
0
 30
0
  0
VERTEX
  8
LAYER_10
 10
73.4689
 20
81.5096
  0
VERTEX
  8
LAYER_10
 10
73.4689
 20
81.4272
  0
SEQEND
  0
POLYLINE
  8
LAYER_10
 40
0.0847
 41
0.0847
 62
1
 66
1
 10
0
 20
0
 30
0
  0
VERTEX
  8
LAYER_10
 10
73.4689
 20
81.3315
  0
VERTEX
  8
LAYER_10
 10
73.4689
 20
81.1124
  0
SEQEND
  0
POLYLINE
  8
LAYER_10
 40
0.0847
 41
0.0847
 62
1
 66
1
 10
0
 20
0
 30
0
  0
VERTEX
  8
LAYER_10
 10
73.4689
 20
81.0304
  0
VERTEX
  8
LAYER_10
 10
73.4689
 20
80.8113
  0
SEQEND
  0
POLYLINE
  8
LAYER_10
 40
0.0847
 41
0.0847
 62
1
 66
1
 10
0
 20
0
 30
0
  0
VERTEX
  8
LAYER_10
 10
73.4689
 20
80.7293
  0
VERTEX
  8
LAYER_10
 10
73.4689
 20
80.6335
  0
SEQEND
  0
POLYLINE
  8
LAYER_10
 40
0.0847
 41
0.0847
 62
1
 66
1
 10
0
 20
0
 30
0
  0
VERTEX
  8
LAYER_10
 10
73.4689
 20
80.5512
  0
VERTEX
  8
LAYER_10
 10
73.4689
 20
80.3324
  0
SEQEND
  0
POLYLINE
  8
LAYER_10
 40
0.0847
 41
0.0847
 62
1
 66
1
 10
0
 20
0
 30
0
  0
VERTEX
  8
LAYER_10
 10
73.4689
 20
80.2504
  0
VERTEX
  8
LAYER_10
 10
73.4689
 20
80.0313
  0
SEQEND
  0
POLYLINE
  8
LAYER_10
 40
0.0847
 41
0.0847
 62
1
 66
1
 10
0
 20
0
 30
0
  0
VERTEX
  8
LAYER_10
 10
73.4689
 20
79.9355
  0
VERTEX
  8
LAYER_10
 10
73.4689
 20
79.8535
  0
SEQEND
  0
POLYLINE
  8
LAYER_10
 40
0.0847
 41
0.0847
 62
1
 66
1
 10
0
 20
0
 30
0
  0
VERTEX
  8
LAYER_10
 10
73.4689
 20
79.7708
  0
VERTEX
  8
LAYER_10
 10
73.4689
 20
79.5524
  0
SEQEND
  0
POLYLINE
  8
LAYER_10
 40
0.0847
 41
0.0847
 62
1
 66
1
 10
0
 20
0
 30
0
  0
VERTEX
  8
LAYER_10
 10
73.4689
 20
79.4567
  0
VERTEX
  8
LAYER_10
 10
73.4689
 20
79.2372
  0
SEQEND
  0
POLYLINE
  8
LAYER_10
 40
0.0847
 41
0.0847
 62
1
 66
1
 10
0
 20
0
 30
0
  0
VERTEX
  8
LAYER_10
 10
73.4689
 20
79.1552
  0
VERTEX
  8
LAYER_10
 10
73.4689
 20
79.0729
  0
SEQEND
  0
POLYLINE
  8
LAYER_10
 40
0.0847
 41
0.0847
 62
1
 66
1
 10
0
 20
0
 30
0
  0
VERTEX
  8
LAYER_10
 10
73.4689
 20
78.9771
  0
VERTEX
  8
LAYER_10
 10
73.4689
 20
78.758
  0
SEQEND
  0
POLYLINE
  8
LAYER_10
 40
0.0847
 41
0.0847
 62
1
 66
1
 10
0
 20
0
 30
0
  0
VERTEX
  8
LAYER_10
 10
73.4689
 20
78.676
  0
VERTEX
  8
LAYER_10
 10
73.4689
 20
78.4569
  0
SEQEND
  0
POLYLINE
  8
LAYER_10
 40
0.0847
 41
0.0847
 62
1
 66
1
 10
0
 20
0
 30
0
  0
VERTEX
  8
LAYER_10
 10
73.4689
 20
78.3749
  0
VERTEX
  8
LAYER_10
 10
73.4689
 20
78.2791
  0
SEQEND
  0
POLYLINE
  8
LAYER_10
 40
0.0847
 41
0.0847
 62
1
 66
1
 10
0
 20
0
 30
0
  0
VERTEX
  8
LAYER_10
 10
73.4689
 20
78.1971
  0
VERTEX
  8
LAYER_10
 10
73.4689
 20
77.978
  0
SEQEND
  0
POLYLINE
  8
LAYER_10
 40
0.0847
 41
0.0847
 62
1
 66
1
 10
0
 20
0
 30
0
  0
VERTEX
  8
LAYER_10
 10
73.4689
 20
77.896
  0
VERTEX
  8
LAYER_10
 10
73.4689
 20
77.6769
  0
SEQEND
  0
POLYLINE
  8
LAYER_10
 40
0.0847
 41
0.0847
 62
1
 66
1
 10
0
 20
0
 30
0
  0
VERTEX
  8
LAYER_10
 10
73.4689
 20
77.5812
  0
VERTEX
  8
LAYER_10
 10
73.4689
 20
77.4991
  0
SEQEND
  0
POLYLINE
  8
LAYER_10
 40
0.0847
 41
0.0847
 62
1
 66
1
 10
0
 20
0
 30
0
  0
VERTEX
  8
LAYER_10
 10
73.4689
 20
77.4168
  0
VERTEX
  8
LAYER_10
 10
73.4689
 20
77.198
  0
SEQEND
  0
POLYLINE
  8
LAYER_10
 40
0.0847
 41
0.0847
 62
1
 66
1
 10
0
 20
0
 30
0
  0
VERTEX
  8
LAYER_10
 10
73.4689
 20
77.1023
  0
VERTEX
  8
LAYER_10
 10
73.4689
 20
76.8832
  0
SEQEND
  0
POLYLINE
  8
LAYER_10
 40
0.0847
 41
0.0847
 62
1
 66
1
 10
0
 20
0
 30
0
  0
VERTEX
  8
LAYER_10
 10
73.4689
 20
76.8008
  0
VERTEX
  8
LAYER_10
 10
73.4689
 20
76.7188
  0
SEQEND
  0
POLYLINE
  8
LAYER_10
 40
0.0847
 41
0.0847
 62
1
 66
1
 10
0
 20
0
 30
0
  0
VERTEX
  8
LAYER_10
 10
73.4689
 20
76.6231
  0
VERTEX
  8
LAYER_10
 10
73.4689
 20
76.3354
  0
SEQEND
  0
POLYLINE
  8
LAYER_10
 40
0.1058
 41
0.1058
 66
1
 10
0
 20
0
 30
0
  0
VERTEX
  8
LAYER_10
 10
48.3929
 20
129.8412
  0
VERTEX
  8
LAYER_10
 10
48.3929
 20
129.9094
  0
VERTEX
  8
LAYER_10
 10
48.4065
 20
129.9779
 42
-0.1107863287
  0
VERTEX
  8
LAYER_10
 10
48.6617
 20
130.6339
 42
-0.1268132183
  0
VERTEX
  8
LAYER_10
 10
49.1214
 20
131.0251
 42
-0.1091229502
  0
VERTEX
  8
LAYER_10
 10
49.8986
 20
131.1961
  0
VERTEX
  8
LAYER_10
 10
96.9571
 20
131.1961
 42
-0.09964514621
  0
VERTEX
  8
LAYER_10
 10
97.6919
 20
131.0451
 42
-0.1258543699
  0
VERTEX
  8
LAYER_10
 10
98.1663
 20
130.6715
 42
-0.1213209554
  0
VERTEX
  8
LAYER_10
 10
98.4491
 20
129.9779
  0
VERTEX
  8
LAYER_10
 10
98.4629
 20
129.9094
  0
VERTEX
  8
LAYER_10
 10
98.4629
 20
129.8412
  0
SEQEND
  0
POLYLINE
  8
LAYER_10
 40
0.1058
 41
0.1058
 66
1
 10
0
 20
0
 30
0
 70
1
  0
VERTEX
  8
LAYER_10
 10
48.3929
 20
139.2997
  0
VERTEX
  8
LAYER_10
 10
48.3929
 20
139.3679
  0
VERTEX
  8
LAYER_10
 10
48.4065
 20
139.3954
  0
VERTEX
  8
LAYER_10
 10
48.4065
 20
139.4223
  0
VERTEX
  8
LAYER_10
 10
48.4203
 20
139.4499
  0
VERTEX
  8
LAYER_10
 10
48.4477
 20
139.4775
  0
VERTEX
  8
LAYER_10
 10
48.4615
 20
139.5047
  0
VERTEX
  8
LAYER_10
 10
48.4887
 20
139.5319
  0
VERTEX
  8
LAYER_10
 10
48.5161
 20
139.5457
  0
VERTEX
  8
LAYER_10
 10
48.5435
 20
139.5732
 42
-0.182535347
  0
VERTEX
  8
LAYER_10
 10
48.694
 20
139.6142
  0
VERTEX
  8
LAYER_10
 10
98.1618
 20
139.6142
 42
-0.1390879919
  0
VERTEX
  8
LAYER_10
 10
98.3124
 20
139.5732
  0
VERTEX
  8
LAYER_10
 10
98.3396
 20
139.5457
  0
VERTEX
  8
LAYER_10
 10
98.3671
 20
139.5319
 42
-0.1467178096
  0
VERTEX
  8
LAYER_10
 10
98.4629
 20
139.3679
  0
VERTEX
  8
LAYER_10
 10
98.4629
 20
129.8412
  0
VERTEX
  8
LAYER_10
 10
48.3929
 20
129.8412
  0
SEQEND
  0
POLYLINE
  8
LAYER_10
 40
0.1058
 41
0.1058
 66
1
 10
0
 20
0
 30
0
  0
VERTEX
  8
LAYER_10
 10
96.081
 20
133.6601
  0
VERTEX
  8
LAYER_10
 10
96.081
 20
138.1766
 42
0.4156378061
  0
VERTEX
  8
LAYER_10
 10
95.7389
 20
138.4646
  0
VERTEX
  8
LAYER_10
 10
51.1168
 20
138.4646
 42
0.3923300579
  0
VERTEX
  8
LAYER_10
 10
50.7745
 20
138.1766
  0
VERTEX
  8
LAYER_10
 10
50.7745
 20
133.6601
  0
SEQEND
  0
POLYLINE
  8
LAYER_10
 40
0.1058
 41
0.1058
 66
1
 10
0
 20
0
 30
0
  0
VERTEX
  8
LAYER_10
 10
48.6119
 20
130.5529
  0
VERTEX
  8
LAYER_10
 10
48.6256
 20
130.6487
  0
VERTEX
  8
LAYER_10
 10
48.653
 20
130.7445
 42
-0.06520007227
  0
VERTEX
  8
LAYER_10
 10
48.9837
 20
131.8423
 42
-0.08397800544
  0
VERTEX
  8
LAYER_10
 10
49.4623
 20
132.5528
 42
-0.09544692592
  0
VERTEX
  8
LAYER_10
 10
50.0896
 20
132.9924
 42
-0.09936029386
  0
VERTEX
  8
LAYER_10
 10
51.0346
 20
133.1943
  0
VERTEX
  8
LAYER_10
 10
95.8212
 20
133.1943
 42
-0.08839469788
  0
VERTEX
  8
LAYER_10
 10
96.6862
 20
133.0268
 42
-0.09619577196
  0
VERTEX
  8
LAYER_10
 10
97.3355
 20
132.6108
 42
-0.08689277006
  0
VERTEX
  8
LAYER_10
 10
97.8353
 20
131.9199
 42
-0.07307787187
  0
VERTEX
  8
LAYER_10
 10
98.2025
 20
130.7445
  0
VERTEX
  8
LAYER_10
 10
98.23
 20
130.6487
  0
VERTEX
  8
LAYER_10
 10
98.2438
 20
130.5529
  0
SEQEND
  0
POLYLINE
  8
LAYER_10
 40
0.1058
 41
0.1058
 66
1
 10
0
 20
0
 30
0
  0
VERTEX
  8
LAYER_10
 10
97.2585
 20
132.6748
  0
VERTEX
  8
LAYER_10
 10
97.2585
 20
139.0802
 42
0.3616724394
  0
VERTEX
  8
LAYER_10
 10
96.9161
 20
139.3679
  0
VERTEX
  8
LAYER_10
 10
49.9396
 20
139.3679
 42
0.3523872253
  0
VERTEX
  8
LAYER_10
 10
49.5975
 20
139.0802
  0
VERTEX
  8
LAYER_10
 10
49.5975
 20
132.6748
  0
SEQEND
  0
POLYLINE
  8
LAYER_10
 40
0.1058
 41
0.1058
 66
1
 10
0
 20
0
 30
0
  0
VERTEX
  8
LAYER_10
 10
58.3029
 20
129.8412
  0
VERTEX
  8
LAYER_10
 10
58.4261
 20
129.5945
  0
VERTEX
  8
LAYER_10
 10
58.5628
 20
129.3485
 42
0.06404339423
  0
VERTEX
  8
LAYER_10
 10
61.2003
 20
125.8463
 42
0.06791786005
  0
VERTEX
  8
LAYER_10
 10
64.5469
 20
123.2564
 42
0.1055747078
  0
VERTEX
  8
LAYER_10
 10
70.6075
 20
121.3181
 42
0.03412173167
  0
VERTEX
  8
LAYER_10
 10
72.8393
 20
121.245
  0
VERTEX
  8
LAYER_10
 10
74.0163
 20
121.245
 42
0.06850801486
  0
VERTEX
  8
LAYER_10
 10
78.3853
 20
121.686
 42
0.1395469947
  0
VERTEX
  8
LAYER_10
 10
85.6553
 20
125.8464
 42
0.06522456295
  0
VERTEX
  8
LAYER_10
 10
88.2928
 20
129.3485
  0
VERTEX
  8
LAYER_10
 10
88.4296
 20
129.5945
  0
VERTEX
  8
LAYER_10
 10
88.5529
 20
129.8412
  0
SEQEND
  0
POLYLINE
  8
LAYER_10
 40
0.1058
 41
0.1058
 66
1
 10
0
 20
0
 30
0
  0
VERTEX
  8
LAYER_10
 10
50.3912
 20
133.0985
  0
VERTEX
  8
LAYER_10
 10
50.4186
 20
133.1808
  0
VERTEX
  8
LAYER_10
 10
50.446
 20
133.2494
 42
-0.3078452995
  0
VERTEX
  8
LAYER_10
 10
51.3905
 20
133.8516
  0
VERTEX
  8
LAYER_10
 10
95.465
 20
133.8516
 42
-0.1343716408
  0
VERTEX
  8
LAYER_10
 10
96.025
 20
133.7019
 42
-0.1615959465
  0
VERTEX
  8
LAYER_10
 10
96.4096
 20
133.2494
  0
VERTEX
  8
LAYER_10
 10
96.4372
 20
133.1808
  0
VERTEX
  8
LAYER_10
 10
96.4644
 20
133.0985
  0
SEQEND
  0
POLYLINE
  8
LAYER_10
 40
0.1058
 41
0.1058
 66
1
 10
0
 20
0
 30
0
  0
VERTEX
  8
LAYER_10
 10
76.8634
 20
121.3959
  0
VERTEX
  8
LAYER_10
 10
76.754
 20
117.7138
  0
VERTEX
  8
LAYER_10
 10
70.1017
 20
117.7138
  0
VERTEX
  8
LAYER_10
 10
69.9923
 20
121.3959
  0
SEQEND
  0
POLYLINE
  8
LAYER_10
 40
0.1058
 41
0.1058
 66
1
 10
0
 20
0
 30
0
  0
VERTEX
  8
LAYER_10
 10
34.4725
 20
117.7138
  0
VERTEX
  8
LAYER_10
 10
30.0102
 20
117.7138
  0
SEQEND
  0
POLYLINE
  8
LAYER_10
 40
0.1058
 41
0.1058
 66
1
 10
0
 20
0
 30
0
  0
VERTEX
  8
LAYER_10
 10
42.2744
 20
133.8516
  0
VERTEX
  8
LAYER_10
 10
22.6188
 20
133.8516
  0
SEQEND
  0
POLYLINE
  8
LAYER_10
 40
0.1058
 41
0.1058
 66
1
 10
0
 20
0
 30
0
  0
VERTEX
  8
LAYER_10
 10
28.9836
 20
119.7667
  0
VERTEX
  8
LAYER_10
 10
28.9836
 20
119.9996
  0
SEQEND
  0
POLYLINE
  8
LAYER_10
 40
0.1058
 41
0.1058
 66
1
 10
0
 20
0
 30
0
  0
VERTEX
  8
LAYER_10
 10
28.9836
 20
120.0819
  0
VERTEX
  8
LAYER_10
 10
28.9836
 20
120.0953
  0
SEQEND
  0
POLYLINE
  8
LAYER_10
 40
0.1058
 41
0.1058
 66
1
 10
0
 20
0
 30
0
  0
VERTEX
  8
LAYER_10
 10
28.9836
 20
120.1777
  0
VERTEX
  8
LAYER_10
 10
28.9836
 20
120.383
  0
SEQEND
  0
POLYLINE
  8
LAYER_10
 40
0.1058
 41
0.1058
 66
1
 10
0
 20
0
 30
0
  0
VERTEX
  8
LAYER_10
 10
28.97
 20
120.4788
  0
VERTEX
  8
LAYER_10
 10
28.97
 20
120.4926
  0
SEQEND
  0
POLYLINE
  8
LAYER_10
 40
0.1058
 41
0.1058
 66
1
 10
0
 20
0
 30
0
  0
VERTEX
  8
LAYER_10
 10
28.97
 20
120.5608
  0
VERTEX
  8
LAYER_10
 10
28.97
 20
120.7933
  0
SEQEND
  0
POLYLINE
  8
LAYER_10
 40
0.1058
 41
0.1058
 66
1
 10
0
 20
0
 30
0
  0
VERTEX
  8
LAYER_10
 10
28.9836
 20
119.7667
  0
VERTEX
  8
LAYER_10
 10
29.9828
 20
119.7667
  0
VERTEX
  8
LAYER_10
 10
30.0102
 20
117.7138
  0
VERTEX
  8
LAYER_10
 10
28.9152
 20
117.7138
  0
VERTEX
  8
LAYER_10
 10
28.7373
 20
118.3435
  0
VERTEX
  8
LAYER_10
 10
28.6689
 20
118.4937
  0
VERTEX
  8
LAYER_10
 10
28.5593
 20
118.617
  0
VERTEX
  8
LAYER_10
 10
28.4088
 20
118.6856
  0
VERTEX
  8
LAYER_10
 10
20.0319
 20
121.2725
  0
SEQEND
  0
POLYLINE
  8
LAYER_10
 40
0.1058
 41
0.1058
 66
1
 10
0
 20
0
 30
0
  0
VERTEX
  8
LAYER_10
 10
19.3475
 20
122.2168
  0
VERTEX
  8
LAYER_10
 10
19.3611
 20
122.0119
  0
VERTEX
  8
LAYER_10
 10
19.4297
 20
121.8065
  0
VERTEX
  8
LAYER_10
 10
19.539
 20
121.6281
  0
VERTEX
  8
LAYER_10
 10
19.676
 20
121.4779
  0
VERTEX
  8
LAYER_10
 10
19.8402
 20
121.3545
  0
VERTEX
  8
LAYER_10
 10
20.0319
 20
121.2725
  0
SEQEND
  0
POLYLINE
  8
LAYER_10
 40
0.1058
 41
0.1058
 66
1
 10
0
 20
0
 30
0
  0
VERTEX
  8
LAYER_10
 10
19.3475
 20
122.2168
  0
VERTEX
  8
LAYER_10
 10
19.3475
 20
139.6142
  0
VERTEX
  8
LAYER_10
 10
20.1688
 20
139.6142
 42
-0.1588124179
  0
VERTEX
  8
LAYER_10
 10
20.5569
 20
139.4171
 42
0.07297693373
  0
VERTEX
  8
LAYER_10
 10
20.9353
 20
139.3541
  0
VERTEX
  8
LAYER_10
 10
21.0173
 20
139.3541
  0
VERTEX
  8
LAYER_10
 10
21.0857
 20
139.3265
 42
-0.1701649075
  0
VERTEX
  8
LAYER_10
 10
21.4949
 20
139.1181
 42
-0.09313624897
  0
VERTEX
  8
LAYER_10
 10
21.7839
 20
138.6561
  0
VERTEX
  8
LAYER_10
 10
21.866
 20
138.5603
  0
VERTEX
  8
LAYER_10
 10
21.9756
 20
138.478
  0
SEQEND
  0
POLYLINE
  8
LAYER_10
 40
0.1058
 41
0.1058
 66
1
 10
0
 20
0
 30
0
  0
VERTEX
  8
LAYER_10
 10
22.2629
 20
138.0401
  0
VERTEX
  8
LAYER_10
 10
22.2493
 20
138.1766
  0
VERTEX
  8
LAYER_10
 10
22.1809
 20
138.2999
  0
VERTEX
  8
LAYER_10
 10
22.0987
 20
138.4095
  0
VERTEX
  8
LAYER_10
 10
21.9756
 20
138.478
  0
SEQEND
  0
POLYLINE
  8
LAYER_10
 40
0.1058
 41
0.1058
 66
1
 10
0
 20
0
 30
0
  0
VERTEX
  8
LAYER_10
 10
22.2629
 20
138.0401
  0
VERTEX
  8
LAYER_10
 10
22.2629
 20
134.3443
  0
VERTEX
  8
LAYER_10
 10
22.2767
 20
134.2209
  0
VERTEX
  8
LAYER_10
 10
22.345
 20
134.0845
  0
VERTEX
  8
LAYER_10
 10
22.4272
 20
133.9887
  0
VERTEX
  8
LAYER_10
 10
22.5368
 20
133.9064
  0
SEQEND
  0
POLYLINE
  8
LAYER_10
 40
0.1058
 41
0.1058
 66
1
 10
0
 20
0
 30
0
  0
VERTEX
  8
LAYER_10
 10
22.8103
 20
133.5367
  0
VERTEX
  8
LAYER_10
 10
22.7557
 20
133.6873
  0
VERTEX
  8
LAYER_10
 10
22.6736
 20
133.8103
  0
VERTEX
  8
LAYER_10
 10
22.5368
 20
133.9064
  0
SEQEND
  0
POLYLINE
  8
LAYER_10
 40
0.1058
 41
0.1058
 66
1
 10
0
 20
0
 30
0
  0
VERTEX
  8
LAYER_10
 10
22.8103
 20
133.5367
  0
VERTEX
  8
LAYER_10
 10
22.8515
 20
133.2628
  0
VERTEX
  8
LAYER_10
 10
23.1526
 20
131.6343
  0
VERTEX
  8
LAYER_10
 10
23.2074
 20
131.3742
  0
VERTEX
  8
LAYER_10
 10
22.2493
 20
131.1138
  0
VERTEX
  8
LAYER_10
 10
22.1534
 20
131.6068
  0
VERTEX
  8
LAYER_10
 10
21.9618
 20
132.6196
  0
VERTEX
  8
LAYER_10
 10
21.8798
 20
133.1261
  0
VERTEX
  8
LAYER_10
 10
21.8386
 20
133.1808
  0
VERTEX
  8
LAYER_10
 10
21.7701
 20
133.2494
  0
VERTEX
  8
LAYER_10
 10
21.7017
 20
133.3042
  0
VERTEX
  8
LAYER_10
 10
21.6333
 20
133.3862
  0
VERTEX
  8
LAYER_10
 10
21.5647
 20
133.4547
  0
VERTEX
  8
LAYER_10
 10
21.5101
 20
133.5367
  0
VERTEX
  8
LAYER_10
 10
21.469
 20
133.6187
  0
VERTEX
  8
LAYER_10
 10
21.4144
 20
133.7007
  0
VERTEX
  8
LAYER_10
 10
21.387
 20
133.7972
  0
VERTEX
  8
LAYER_10
 10
21.3458
 20
133.8792
  0
VERTEX
  8
LAYER_10
 10
21.3186
 20
133.9749
  0
VERTEX
  8
LAYER_10
 10
21.2912
 20
134.1665
  0
VERTEX
  8
LAYER_10
 10
21.2774
 20
134.2485
  0
VERTEX
  8
LAYER_10
 10
21.2774
 20
137.7115
  0
VERTEX
  8
LAYER_10
 10
21.2363
 20
137.7935
  0
VERTEX
  8
LAYER_10
 10
21.1679
 20
137.8486
  0
VERTEX
  8
LAYER_10
 10
21.1131
 20
137.9031
  0
VERTEX
  8
LAYER_10
 10
21.0585
 20
137.9716
  0
VERTEX
  8
LAYER_10
 10
21.0037
 20
138.0264
  0
VERTEX
  8
LAYER_10
 10
20.9627
 20
138.0949
  0
VERTEX
  8
LAYER_10
 10
20.9078
 20
138.1635
  0
VERTEX
  8
LAYER_10
 10
20.8668
 20
138.2455
  0
VERTEX
  8
LAYER_10
 10
20.8394
 20
138.3137
  0
VERTEX
  8
LAYER_10
 10
20.7436
 20
138.3688
  0
VERTEX
  8
LAYER_10
 10
20.6752
 20
138.3823
  0
VERTEX
  8
LAYER_10
 10
20.6067
 20
138.3823
  0
VERTEX
  8
LAYER_10
 10
20.5245
 20
138.3957
  0
VERTEX
  8
LAYER_10
 10
20.4561
 20
138.4095
  0
VERTEX
  8
LAYER_10
 10
20.3741
 20
138.3823
  0
VERTEX
  8
LAYER_10
 10
20.3329
 20
138.3137
  0
VERTEX
  8
LAYER_10
 10
20.3329
 20
122.2992
  0
VERTEX
  8
LAYER_10
 10
20.3604
 20
122.231
  0
VERTEX
  8
LAYER_10
 10
20.4013
 20
122.2034
  0
VERTEX
  8
LAYER_10
 10
26.4378
 20
120.3417
  0
VERTEX
  8
LAYER_10
 10
28.6963
 20
119.6437
  0
VERTEX
  8
LAYER_10
 10
28.7373
 20
119.6299
  0
VERTEX
  8
LAYER_10
 10
28.792
 20
119.6027
  0
VERTEX
  8
LAYER_10
 10
28.8468
 20
119.5889
  0
VERTEX
  8
LAYER_10
 10
28.9152
 20
119.5751
  0
VERTEX
  8
LAYER_10
 10
28.97
 20
119.6161
  0
VERTEX
  8
LAYER_10
 10
28.9836
 20
119.6709
  0
VERTEX
  8
LAYER_10
 10
28.9836
 20
119.7667
  0
SEQEND
  0
POLYLINE
  8
LAYER_10
 40
0.1058
 41
0.1058
 66
1
 10
0
 20
0
 30
0
  0
VERTEX
  8
LAYER_10
 10
29.9692
 20
120.7933
  0
VERTEX
  8
LAYER_10
 10
29.9692
 20
120.5608
  0
SEQEND
  0
POLYLINE
  8
LAYER_10
 40
0.1058
 41
0.1058
 66
1
 10
0
 20
0
 30
0
  0
VERTEX
  8
LAYER_10
 10
29.9692
 20
120.4788
  0
VERTEX
  8
LAYER_10
 10
29.9692
 20
120.4926
  0
SEQEND
  0
POLYLINE
  8
LAYER_10
 40
0.1058
 41
0.1058
 66
1
 10
0
 20
0
 30
0
  0
VERTEX
  8
LAYER_10
 10
29.9692
 20
120.383
  0
VERTEX
  8
LAYER_10
 10
29.9692
 20
120.1777
  0
SEQEND
  0
POLYLINE
  8
LAYER_10
 40
0.1058
 41
0.1058
 66
1
 10
0
 20
0
 30
0
  0
VERTEX
  8
LAYER_10
 10
29.9692
 20
120.0819
  0
VERTEX
  8
LAYER_10
 10
29.9692
 20
120.0953
  0
SEQEND
  0
POLYLINE
  8
LAYER_10
 40
0.1058
 41
0.1058
 66
1
 10
0
 20
0
 30
0
  0
VERTEX
  8
LAYER_10
 10
29.9692
 20
119.9996
  0
VERTEX
  8
LAYER_10
 10
29.9828
 20
119.7667
  0
SEQEND
  0
POLYLINE
  8
LAYER_10
 40
0.1058
 41
0.1058
 66
1
 10
0
 20
0
 30
0
  0
VERTEX
  8
LAYER_10
 10
20.5245
 20
121.122
  0
VERTEX
  8
LAYER_10
 10
19.3475
 20
122.2992
  0
SEQEND
  0
POLYLINE
  8
LAYER_10
 40
0.1058
 41
0.1058
 66
1
 10
0
 20
0
 30
0
  0
VERTEX
  8
LAYER_10
 10
21.2774
 20
120.8891
  0
VERTEX
  8
LAYER_10
 10
19.3475
 20
122.8328
  0
SEQEND
  0
POLYLINE
  8
LAYER_10
 40
0.1058
 41
0.1058
 66
1
 10
0
 20
0
 30
0
  0
VERTEX
  8
LAYER_10
 10
22.044
 20
120.6566
  0
VERTEX
  8
LAYER_10
 10
20.5383
 20
122.162
  0
SEQEND
  0
POLYLINE
  8
LAYER_10
 40
0.1058
 41
0.1058
 66
1
 10
0
 20
0
 30
0
  0
VERTEX
  8
LAYER_10
 10
20.3329
 20
122.3674
  0
VERTEX
  8
LAYER_10
 10
19.3475
 20
123.353
  0
SEQEND
  0
POLYLINE
  8
LAYER_10
 40
0.1058
 41
0.1058
 66
1
 10
0
 20
0
 30
0
  0
VERTEX
  8
LAYER_10
 10
22.8103
 20
120.424
  0
VERTEX
  8
LAYER_10
 10
21.3046
 20
121.9295
  0
SEQEND
  0
POLYLINE
  8
LAYER_10
 40
0.1058
 41
0.1058
 66
1
 10
0
 20
0
 30
0
  0
VERTEX
  8
LAYER_10
 10
20.3329
 20
122.8876
  0
VERTEX
  8
LAYER_10
 10
19.3475
 20
123.8867
  0
SEQEND
  0
POLYLINE
  8
LAYER_10
 40
0.1058
 41
0.1058
 66
1
 10
0
 20
0
 30
0
  0
VERTEX
  8
LAYER_10
 10
23.5633
 20
120.1915
  0
VERTEX
  8
LAYER_10
 10
22.0576
 20
121.6832
  0
SEQEND
  0
POLYLINE
  8
LAYER_10
 40
0.1058
 41
0.1058
 66
1
 10
0
 20
0
 30
0
  0
VERTEX
  8
LAYER_10
 10
20.3329
 20
123.4078
  0
VERTEX
  8
LAYER_10
 10
19.3475
 20
124.4069
  0
SEQEND
  0
POLYLINE
  8
LAYER_10
 40
0.1058
 41
0.1058
 66
1
 10
0
 20
0
 30
0
  0
VERTEX
  8
LAYER_10
 10
24.3298
 20
119.9448
  0
VERTEX
  8
LAYER_10
 10
22.8241
 20
121.4503
  0
SEQEND
  0
POLYLINE
  8
LAYER_10
 40
0.1058
 41
0.1058
 66
1
 10
0
 20
0
 30
0
  0
VERTEX
  8
LAYER_10
 10
20.3329
 20
123.9418
  0
VERTEX
  8
LAYER_10
 10
19.3475
 20
124.9271
  0
SEQEND
  0
POLYLINE
  8
LAYER_10
 40
0.1058
 41
0.1058
 66
1
 10
0
 20
0
 30
0
  0
VERTEX
  8
LAYER_10
 10
25.0825
 20
119.7119
  0
VERTEX
  8
LAYER_10
 10
23.5906
 20
121.2178
  0
SEQEND
  0
POLYLINE
  8
LAYER_10
 40
0.1058
 41
0.1058
 66
1
 10
0
 20
0
 30
0
  0
VERTEX
  8
LAYER_10
 10
20.3329
 20
124.4617
  0
VERTEX
  8
LAYER_10
 10
19.3475
 20
125.4611
  0
SEQEND
  0
POLYLINE
  8
LAYER_10
 40
0.1058
 41
0.1058
 66
1
 10
0
 20
0
 30
0
  0
VERTEX
  8
LAYER_10
 10
25.8493
 20
119.4794
  0
VERTEX
  8
LAYER_10
 10
24.3436
 20
120.9852
  0
SEQEND
  0
POLYLINE
  8
LAYER_10
 40
0.1058
 41
0.1058
 66
1
 10
0
 20
0
 30
0
  0
VERTEX
  8
LAYER_10
 10
20.3329
 20
124.9953
  0
VERTEX
  8
LAYER_10
 10
19.3475
 20
125.9813
  0
SEQEND
  0
POLYLINE
  8
LAYER_10
 40
0.1058
 41
0.1058
 66
1
 10
0
 20
0
 30
0
  0
VERTEX
  8
LAYER_10
 10
26.6156
 20
119.2468
  0
VERTEX
  8
LAYER_10
 10
25.1099
 20
120.7523
  0
SEQEND
  0
POLYLINE
  8
LAYER_10
 40
0.1058
 41
0.1058
 66
1
 10
0
 20
0
 30
0
  0
VERTEX
  8
LAYER_10
 10
20.3329
 20
125.5159
  0
VERTEX
  8
LAYER_10
 10
19.3475
 20
126.5146
  0
SEQEND
  0
POLYLINE
  8
LAYER_10
 40
0.1058
 41
0.1058
 66
1
 10
0
 20
0
 30
0
  0
VERTEX
  8
LAYER_10
 10
27.3684
 20
119.0139
  0
VERTEX
  8
LAYER_10
 10
25.8628
 20
120.506
  0
SEQEND
  0
POLYLINE
  8
LAYER_10
 40
0.1058
 41
0.1058
 66
1
 10
0
 20
0
 30
0
  0
VERTEX
  8
LAYER_10
 10
20.3329
 20
126.0495
  0
VERTEX
  8
LAYER_10
 10
19.3475
 20
127.0348
  0
SEQEND
  0
POLYLINE
  8
LAYER_10
 40
0.1058
 41
0.1058
 66
1
 10
0
 20
0
 30
0
  0
VERTEX
  8
LAYER_10
 10
29.2025
 20
117.7138
  0
VERTEX
  8
LAYER_10
 10
28.8056
 20
118.0968
  0
SEQEND
  0
POLYLINE
  8
LAYER_10
 40
0.1058
 41
0.1058
 66
1
 10
0
 20
0
 30
0
  0
VERTEX
  8
LAYER_10
 10
20.3329
 20
126.5697
  0
VERTEX
  8
LAYER_10
 10
19.3475
 20
127.555
  0
SEQEND
  0
POLYLINE
  8
LAYER_10
 40
0.1058
 41
0.1058
 66
1
 10
0
 20
0
 30
0
  0
VERTEX
  8
LAYER_10
 10
28.135
 20
118.7814
  0
VERTEX
  8
LAYER_10
 10
26.6294
 20
120.2734
  0
SEQEND
  0
POLYLINE
  8
LAYER_10
 40
0.1058
 41
0.1058
 66
1
 10
0
 20
0
 30
0
  0
VERTEX
  8
LAYER_10
 10
29.7227
 20
117.7138
  0
VERTEX
  8
LAYER_10
 10
27.3959
 20
120.0406
  0
SEQEND
  0
POLYLINE
  8
LAYER_10
 40
0.1058
 41
0.1058
 66
1
 10
0
 20
0
 30
0
  0
VERTEX
  8
LAYER_10
 10
20.3329
 20
127.0899
  0
VERTEX
  8
LAYER_10
 10
19.3475
 20
128.089
  0
SEQEND
  0
POLYLINE
  8
LAYER_10
 40
0.1058
 41
0.1058
 66
1
 10
0
 20
0
 30
0
  0
VERTEX
  8
LAYER_10
 10
29.9964
 20
117.9597
  0
VERTEX
  8
LAYER_10
 10
28.1487
 20
119.808
  0
SEQEND
  0
POLYLINE
  8
LAYER_10
 40
0.1058
 41
0.1058
 66
1
 10
0
 20
0
 30
0
  0
VERTEX
  8
LAYER_10
 10
20.3329
 20
127.6236
  0
VERTEX
  8
LAYER_10
 10
19.3475
 20
128.6092
  0
SEQEND
  0
POLYLINE
  8
LAYER_10
 40
0.1058
 41
0.1058
 66
1
 10
0
 20
0
 30
0
  0
VERTEX
  8
LAYER_10
 10
29.9964
 20
118.4937
  0
VERTEX
  8
LAYER_10
 10
28.9014
 20
119.5751
  0
SEQEND
  0
POLYLINE
  8
LAYER_10
 40
0.1058
 41
0.1058
 66
1
 10
0
 20
0
 30
0
  0
VERTEX
  8
LAYER_10
 10
20.3329
 20
128.1438
  0
VERTEX
  8
LAYER_10
 10
19.3475
 20
129.1432
  0
SEQEND
  0
POLYLINE
  8
LAYER_10
 40
0.1058
 41
0.1058
 66
1
 10
0
 20
0
 30
0
  0
VERTEX
  8
LAYER_10
 10
29.9828
 20
119.0277
  0
VERTEX
  8
LAYER_10
 10
29.2437
 20
119.7667
  0
SEQEND
  0
POLYLINE
  8
LAYER_10
 40
0.1058
 41
0.1058
 66
1
 10
0
 20
0
 30
0
  0
VERTEX
  8
LAYER_10
 10
20.3329
 20
128.6774
  0
VERTEX
  8
LAYER_10
 10
19.3475
 20
129.6634
  0
SEQEND
  0
POLYLINE
  8
LAYER_10
 40
0.1058
 41
0.1058
 66
1
 10
0
 20
0
 30
0
  0
VERTEX
  8
LAYER_10
 10
29.9828
 20
119.5617
  0
VERTEX
  8
LAYER_10
 10
29.7775
 20
119.7667
  0
SEQEND
  0
POLYLINE
  8
LAYER_10
 40
0.1058
 41
0.1058
 66
1
 10
0
 20
0
 30
0
  0
VERTEX
  8
LAYER_10
 10
20.3329
 20
129.1976
  0
VERTEX
  8
LAYER_10
 10
19.3475
 20
130.197
  0
SEQEND
  0
POLYLINE
  8
LAYER_10
 40
0.1058
 41
0.1058
 66
1
 10
0
 20
0
 30
0
  0
VERTEX
  8
LAYER_10
 10
20.3329
 20
129.7316
  0
VERTEX
  8
LAYER_10
 10
19.3475
 20
130.7173
  0
SEQEND
  0
POLYLINE
  8
LAYER_10
 40
0.1058
 41
0.1058
 66
1
 10
0
 20
0
 30
0
  0
VERTEX
  8
LAYER_10
 10
20.3329
 20
130.2518
  0
VERTEX
  8
LAYER_10
 10
19.3475
 20
131.2371
  0
SEQEND
  0
POLYLINE
  8
LAYER_10
 40
0.1058
 41
0.1058
 66
1
 10
0
 20
0
 30
0
  0
VERTEX
  8
LAYER_10
 10
20.3329
 20
130.7717
  0
VERTEX
  8
LAYER_10
 10
19.3475
 20
131.7708
  0
SEQEND
  0
POLYLINE
  8
LAYER_10
 40
0.1058
 41
0.1058
 66
1
 10
0
 20
0
 30
0
  0
VERTEX
  8
LAYER_10
 10
20.3329
 20
131.3057
  0
VERTEX
  8
LAYER_10
 10
19.3475
 20
132.291
  0
SEQEND
  0
POLYLINE
  8
LAYER_10
 40
0.1058
 41
0.1058
 66
1
 10
0
 20
0
 30
0
  0
VERTEX
  8
LAYER_10
 10
20.3329
 20
131.8259
  0
VERTEX
  8
LAYER_10
 10
19.3475
 20
132.825
  0
SEQEND
  0
POLYLINE
  8
LAYER_10
 40
0.1058
 41
0.1058
 66
1
 10
0
 20
0
 30
0
  0
VERTEX
  8
LAYER_10
 10
20.3329
 20
132.3595
  0
VERTEX
  8
LAYER_10
 10
19.3475
 20
133.3452
  0
SEQEND
  0
POLYLINE
  8
LAYER_10
 40
0.1058
 41
0.1058
 66
1
 10
0
 20
0
 30
0
  0
VERTEX
  8
LAYER_10
 10
20.3329
 20
132.8797
  0
VERTEX
  8
LAYER_10
 10
19.3475
 20
133.8654
  0
SEQEND
  0
POLYLINE
  8
LAYER_10
 40
0.1058
 41
0.1058
 66
1
 10
0
 20
0
 30
0
  0
VERTEX
  8
LAYER_10
 10
22.5504
 20
131.1961
  0
VERTEX
  8
LAYER_10
 10
22.1534
 20
131.593
  0
SEQEND
  0
POLYLINE
  8
LAYER_10
 40
0.1058
 41
0.1058
 66
1
 10
0
 20
0
 30
0
  0
VERTEX
  8
LAYER_10
 10
20.3329
 20
133.3999
  0
VERTEX
  8
LAYER_10
 10
19.3475
 20
134.399
  0
SEQEND
  0
POLYLINE
  8
LAYER_10
 40
0.1058
 41
0.1058
 66
1
 10
0
 20
0
 30
0
  0
VERTEX
  8
LAYER_10
 10
22.961
 20
131.3057
  0
VERTEX
  8
LAYER_10
 10
22.0302
 20
132.2366
  0
SEQEND
  0
POLYLINE
  8
LAYER_10
 40
0.1058
 41
0.1058
 66
1
 10
0
 20
0
 30
0
  0
VERTEX
  8
LAYER_10
 10
20.3329
 20
133.9336
  0
VERTEX
  8
LAYER_10
 10
19.3475
 20
134.9193
  0
SEQEND
  0
POLYLINE
  8
LAYER_10
 40
0.1058
 41
0.1058
 66
1
 10
0
 20
0
 30
0
  0
VERTEX
  8
LAYER_10
 10
23.1526
 20
131.6343
  0
VERTEX
  8
LAYER_10
 10
21.9208
 20
132.8797
  0
SEQEND
  0
POLYLINE
  8
LAYER_10
 40
0.1058
 41
0.1058
 66
1
 10
0
 20
0
 30
0
  0
VERTEX
  8
LAYER_10
 10
20.3329
 20
134.4538
  0
VERTEX
  8
LAYER_10
 10
19.3475
 20
135.4529
  0
SEQEND
  0
POLYLINE
  8
LAYER_10
 40
0.1058
 41
0.1058
 66
1
 10
0
 20
0
 30
0
  0
VERTEX
  8
LAYER_10
 10
23.0294
 20
132.291
  0
VERTEX
  8
LAYER_10
 10
21.3186
 20
134.0159
  0
SEQEND
  0
POLYLINE
  8
LAYER_10
 40
0.1058
 41
0.1058
 66
1
 10
0
 20
0
 30
0
  0
VERTEX
  8
LAYER_10
 10
20.3329
 20
134.9878
  0
VERTEX
  8
LAYER_10
 10
19.3475
 20
135.9731
  0
SEQEND
  0
POLYLINE
  8
LAYER_10
 40
0.1058
 41
0.1058
 66
1
 10
0
 20
0
 30
0
  0
VERTEX
  8
LAYER_10
 10
22.9199
 20
132.9345
  0
VERTEX
  8
LAYER_10
 10
21.2774
 20
134.5771
  0
SEQEND
  0
POLYLINE
  8
LAYER_10
 40
0.1058
 41
0.1058
 66
1
 10
0
 20
0
 30
0
  0
VERTEX
  8
LAYER_10
 10
20.3329
 20
135.508
  0
VERTEX
  8
LAYER_10
 10
19.3475
 20
136.5071
  0
SEQEND
  0
POLYLINE
  8
LAYER_10
 40
0.1058
 41
0.1058
 66
1
 10
0
 20
0
 30
0
  0
VERTEX
  8
LAYER_10
 10
22.8103
 20
133.5643
  0
VERTEX
  8
LAYER_10
 10
21.2774
 20
135.097
  0
SEQEND
  0
POLYLINE
  8
LAYER_10
 40
0.1058
 41
0.1058
 66
1
 10
0
 20
0
 30
0
  0
VERTEX
  8
LAYER_10
 10
20.3329
 20
136.0417
  0
VERTEX
  8
LAYER_10
 10
19.3475
 20
137.0273
  0
SEQEND
  0
POLYLINE
  8
LAYER_10
 40
0.1058
 41
0.1058
 66
1
 10
0
 20
0
 30
0
  0
VERTEX
  8
LAYER_10
 10
22.2629
 20
134.6316
  0
VERTEX
  8
LAYER_10
 10
21.2774
 20
135.6313
  0
SEQEND
  0
POLYLINE
  8
LAYER_10
 40
0.1058
 41
0.1058
 66
1
 10
0
 20
0
 30
0
  0
VERTEX
  8
LAYER_10
 10
20.3329
 20
136.5615
  0
VERTEX
  8
LAYER_10
 10
19.3475
 20
137.5475
  0
SEQEND
  0
POLYLINE
  8
LAYER_10
 40
0.1058
 41
0.1058
 66
1
 10
0
 20
0
 30
0
  0
VERTEX
  8
LAYER_10
 10
22.2629
 20
135.1656
  0
VERTEX
  8
LAYER_10
 10
21.2774
 20
136.1509
  0
SEQEND
  0
POLYLINE
  8
LAYER_10
 40
0.1058
 41
0.1058
 66
1
 10
0
 20
0
 30
0
  0
VERTEX
  8
LAYER_10
 10
20.3329
 20
137.0817
  0
VERTEX
  8
LAYER_10
 10
19.3475
 20
138.0808
  0
SEQEND
  0
POLYLINE
  8
LAYER_10
 40
0.1058
 41
0.1058
 66
1
 10
0
 20
0
 30
0
  0
VERTEX
  8
LAYER_10
 10
22.2629
 20
135.6858
  0
VERTEX
  8
LAYER_10
 10
21.2774
 20
136.6848
  0
SEQEND
  0
POLYLINE
  8
LAYER_10
 40
0.1058
 41
0.1058
 66
1
 10
0
 20
0
 30
0
  0
VERTEX
  8
LAYER_10
 10
20.3329
 20
137.6157
  0
VERTEX
  8
LAYER_10
 10
19.3475
 20
138.601
  0
SEQEND
  0
POLYLINE
  8
LAYER_10
 40
0.1058
 41
0.1058
 66
1
 10
0
 20
0
 30
0
  0
VERTEX
  8
LAYER_10
 10
22.2629
 20
136.2194
  0
VERTEX
  8
LAYER_10
 10
21.2774
 20
137.205
  0
SEQEND
  0
POLYLINE
  8
LAYER_10
 40
0.1058
 41
0.1058
 66
1
 10
0
 20
0
 30
0
  0
VERTEX
  8
LAYER_10
 10
20.3329
 20
138.1359
  0
VERTEX
  8
LAYER_10
 10
19.3475
 20
139.135
  0
SEQEND
  0
POLYLINE
  8
LAYER_10
 40
0.1058
 41
0.1058
 66
1
 10
0
 20
0
 30
0
  0
VERTEX
  8
LAYER_10
 10
22.2629
 20
136.7396
  0
VERTEX
  8
LAYER_10
 10
21.2638
 20
137.739
  0
SEQEND
  0
POLYLINE
  8
LAYER_10
 40
0.1058
 41
0.1058
 66
1
 10
0
 20
0
 30
0
  0
VERTEX
  8
LAYER_10
 10
20.6205
 20
138.3823
  0
VERTEX
  8
LAYER_10
 10
19.3887
 20
139.6142
  0
SEQEND
  0
POLYLINE
  8
LAYER_10
 40
0.1058
 41
0.1058
 66
1
 10
0
 20
0
 30
0
  0
VERTEX
  8
LAYER_10
 10
22.2629
 20
137.2598
  0
VERTEX
  8
LAYER_10
 10
19.9087
 20
139.6142
  0
SEQEND
  0
POLYLINE
  8
LAYER_10
 40
0.1058
 41
0.1058
 66
1
 10
0
 20
0
 30
0
  0
VERTEX
  8
LAYER_10
 10
22.2629
 20
137.7935
  0
VERTEX
  8
LAYER_10
 10
20.6752
 20
139.3679
  0
SEQEND
  0
POLYLINE
  8
LAYER_10
 40
0.1058
 41
0.1058
 66
1
 10
0
 20
0
 30
0
  0
VERTEX
  8
LAYER_10
 10
21.6471
 20
138.9297
  0
VERTEX
  8
LAYER_10
 10
21.3596
 20
139.217
  0
SEQEND
  0
POLYLINE
  8
LAYER_10
 40
0.1058
 41
0.1058
 66
1
 10
0
 20
0
 30
0
  0
VERTEX
  8
LAYER_10
 10
34.9789
 20
117.7138
  0
VERTEX
  8
LAYER_10
 10
34.4725
 20
118.2202
  0
SEQEND
  0
POLYLINE
  8
LAYER_10
 40
0.1058
 41
0.1058
 66
1
 10
0
 20
0
 30
0
  0
VERTEX
  8
LAYER_10
 10
35.5127
 20
117.7138
  0
VERTEX
  8
LAYER_10
 10
34.4861
 20
118.7404
  0
SEQEND
  0
POLYLINE
  8
LAYER_10
 40
0.1058
 41
0.1058
 66
1
 10
0
 20
0
 30
0
  0
VERTEX
  8
LAYER_10
 10
35.5947
 20
118.1516
  0
VERTEX
  8
LAYER_10
 10
34.4861
 20
119.2606
  0
SEQEND
  0
POLYLINE
  8
LAYER_10
 40
0.1058
 41
0.1058
 66
1
 10
0
 20
0
 30
0
  0
VERTEX
  8
LAYER_10
 10
35.6221
 20
118.6446
  0
VERTEX
  8
LAYER_10
 10
34.4999
 20
119.7667
  0
SEQEND
  0
POLYLINE
  8
LAYER_10
 40
0.1058
 41
0.1058
 66
1
 10
0
 20
0
 30
0
  0
VERTEX
  8
LAYER_10
 10
35.6633
 20
119.1373
  0
VERTEX
  8
LAYER_10
 10
34.4999
 20
120.2872
  0
SEQEND
  0
POLYLINE
  8
LAYER_10
 40
0.1058
 41
0.1058
 66
1
 10
0
 20
0
 30
0
  0
VERTEX
  8
LAYER_10
 10
35.6907
 20
119.6299
  0
VERTEX
  8
LAYER_10
 10
34.5135
 20
120.8071
  0
SEQEND
  0
POLYLINE
  8
LAYER_10
 40
0.1058
 41
0.1058
 66
1
 10
0
 20
0
 30
0
  0
VERTEX
  8
LAYER_10
 10
35.7317
 20
120.1226
  0
VERTEX
  8
LAYER_10
 10
34.5408
 20
121.3139
  0
SEQEND
  0
POLYLINE
  8
LAYER_10
 40
0.1058
 41
0.1058
 66
1
 10
0
 20
0
 30
0
  0
VERTEX
  8
LAYER_10
 10
35.7591
 20
120.6156
  0
VERTEX
  8
LAYER_10
 10
34.76
 20
121.615
  0
SEQEND
  0
POLYLINE
  8
LAYER_10
 40
0.1058
 41
0.1058
 66
1
 10
0
 20
0
 30
0
  0
VERTEX
  8
LAYER_10
 10
35.8138
 20
121.0948
  0
VERTEX
  8
LAYER_10
 10
34.9927
 20
121.9157
  0
SEQEND
  0
POLYLINE
  8
LAYER_10
 40
0.1058
 41
0.1058
 66
1
 10
0
 20
0
 30
0
  0
VERTEX
  8
LAYER_10
 10
36.0329
 20
121.3959
  0
VERTEX
  8
LAYER_10
 10
35.2116
 20
122.2034
  0
SEQEND
  0
POLYLINE
  8
LAYER_10
 40
0.1058
 41
0.1058
 66
1
 10
0
 20
0
 30
0
  0
VERTEX
  8
LAYER_10
 10
36.3751
 20
121.5736
  0
VERTEX
  8
LAYER_10
 10
35.458
 20
122.4907
  0
SEQEND
  0
POLYLINE
  8
LAYER_10
 40
0.1058
 41
0.1058
 66
1
 10
0
 20
0
 30
0
  0
VERTEX
  8
LAYER_10
 10
36.7173
 20
121.7652
  0
VERTEX
  8
LAYER_10
 10
35.8274
 20
122.6547
  0
SEQEND
  0
POLYLINE
  8
LAYER_10
 40
0.1058
 41
0.1058
 66
1
 10
0
 20
0
 30
0
  0
VERTEX
  8
LAYER_10
 10
37.0594
 20
121.9433
  0
VERTEX
  8
LAYER_10
 10
36.1833
 20
122.8194
  0
SEQEND
  0
POLYLINE
  8
LAYER_10
 40
0.1058
 41
0.1058
 66
1
 10
0
 20
0
 30
0
  0
VERTEX
  8
LAYER_10
 10
37.3879
 20
122.1348
  0
VERTEX
  8
LAYER_10
 10
36.5256
 20
123.0109
  0
SEQEND
  0
POLYLINE
  8
LAYER_10
 40
0.1058
 41
0.1058
 66
1
 10
0
 20
0
 30
0
  0
VERTEX
  8
LAYER_10
 10
37.7164
 20
122.3405
  0
VERTEX
  8
LAYER_10
 10
36.8541
 20
123.2025
  0
SEQEND
  0
POLYLINE
  8
LAYER_10
 40
0.1058
 41
0.1058
 66
1
 10
0
 20
0
 30
0
  0
VERTEX
  8
LAYER_10
 10
38.0175
 20
122.5589
  0
VERTEX
  8
LAYER_10
 10
37.169
 20
123.4078
  0
SEQEND
  0
POLYLINE
  8
LAYER_10
 40
0.1058
 41
0.1058
 66
1
 10
0
 20
0
 30
0
  0
VERTEX
  8
LAYER_10
 10
38.3186
 20
122.7918
  0
VERTEX
  8
LAYER_10
 10
37.4701
 20
123.6407
  0
SEQEND
  0
POLYLINE
  8
LAYER_10
 40
0.1058
 41
0.1058
 66
1
 10
0
 20
0
 30
0
  0
VERTEX
  8
LAYER_10
 10
38.6061
 20
123.0247
  0
VERTEX
  8
LAYER_10
 10
37.7574
 20
123.8729
  0
SEQEND
  0
POLYLINE
  8
LAYER_10
 40
0.1058
 41
0.1058
 66
1
 10
0
 20
0
 30
0
  0
VERTEX
  8
LAYER_10
 10
38.88
 20
123.2707
  0
VERTEX
  8
LAYER_10
 10
38.0449
 20
124.1196
  0
SEQEND
  0
POLYLINE
  8
LAYER_10
 40
0.1058
 41
0.1058
 66
1
 10
0
 20
0
 30
0
  0
VERTEX
  8
LAYER_10
 10
39.1537
 20
123.5308
  0
VERTEX
  8
LAYER_10
 10
38.3188
 20
124.3659
  0
SEQEND
  0
POLYLINE
  8
LAYER_10
 40
0.1058
 41
0.1058
 66
1
 10
0
 20
0
 30
0
  0
VERTEX
  8
LAYER_10
 10
39.4138
 20
123.7909
  0
VERTEX
  8
LAYER_10
 10
38.5651
 20
124.6398
  0
SEQEND
  0
POLYLINE
  8
LAYER_10
 40
0.1058
 41
0.1058
 66
1
 10
0
 20
0
 30
0
  0
VERTEX
  8
LAYER_10
 10
39.6601
 20
124.0786
  0
VERTEX
  8
LAYER_10
 10
38.8252
 20
124.9133
  0
SEQEND
  0
POLYLINE
  8
LAYER_10
 40
0.1058
 41
0.1058
 66
1
 10
0
 20
0
 30
0
  0
VERTEX
  8
LAYER_10
 10
39.9066
 20
124.3659
  0
VERTEX
  8
LAYER_10
 10
39.0579
 20
125.2144
  0
SEQEND
  0
POLYLINE
  8
LAYER_10
 40
0.1058
 41
0.1058
 66
1
 10
0
 20
0
 30
0
  0
VERTEX
  8
LAYER_10
 10
40.1255
 20
124.6532
  0
VERTEX
  8
LAYER_10
 10
39.2769
 20
125.5159
  0
SEQEND
  0
POLYLINE
  8
LAYER_10
 40
0.1058
 41
0.1058
 66
1
 10
0
 20
0
 30
0
  0
VERTEX
  8
LAYER_10
 10
40.3445
 20
124.9684
  0
VERTEX
  8
LAYER_10
 10
39.4958
 20
125.8166
  0
SEQEND
  0
POLYLINE
  8
LAYER_10
 40
0.1058
 41
0.1058
 66
1
 10
0
 20
0
 30
0
  0
VERTEX
  8
LAYER_10
 10
40.5636
 20
125.2833
  0
VERTEX
  8
LAYER_10
 10
39.7013
 20
126.1453
  0
SEQEND
  0
POLYLINE
  8
LAYER_10
 40
0.1058
 41
0.1058
 66
1
 10
0
 20
0
 30
0
  0
VERTEX
  8
LAYER_10
 10
40.7688
 20
125.5978
  0
VERTEX
  8
LAYER_10
 10
39.8928
 20
126.4739
  0
SEQEND
  0
POLYLINE
  8
LAYER_10
 40
0.1058
 41
0.1058
 66
1
 10
0
 20
0
 30
0
  0
VERTEX
  8
LAYER_10
 10
40.9605
 20
125.9262
  0
VERTEX
  8
LAYER_10
 10
40.0844
 20
126.816
  0
SEQEND
  0
POLYLINE
  8
LAYER_10
 40
0.1058
 41
0.1058
 66
1
 10
0
 20
0
 30
0
  0
VERTEX
  8
LAYER_10
 10
41.1384
 20
126.2686
  0
VERTEX
  8
LAYER_10
 10
40.2625
 20
127.1581
  0
SEQEND
  0
POLYLINE
  8
LAYER_10
 40
0.1058
 41
0.1058
 66
1
 10
0
 20
0
 30
0
  0
VERTEX
  8
LAYER_10
 10
41.3163
 20
126.6245
  0
VERTEX
  8
LAYER_10
 10
40.4266
 20
127.5143
  0
SEQEND
  0
POLYLINE
  8
LAYER_10
 40
0.1058
 41
0.1058
 66
1
 10
0
 20
0
 30
0
  0
VERTEX
  8
LAYER_10
 10
41.4943
 20
126.9803
  0
VERTEX
  8
LAYER_10
 10
40.5772
 20
127.8837
  0
SEQEND
  0
POLYLINE
  8
LAYER_10
 40
0.1058
 41
0.1058
 66
1
 10
0
 20
0
 30
0
  0
VERTEX
  8
LAYER_10
 10
41.6449
 20
127.3497
  0
VERTEX
  8
LAYER_10
 10
40.7277
 20
128.2668
  0
SEQEND
  0
POLYLINE
  8
LAYER_10
 40
0.1058
 41
0.1058
 66
1
 10
0
 20
0
 30
0
  0
VERTEX
  8
LAYER_10
 10
41.7954
 20
127.7193
  0
VERTEX
  8
LAYER_10
 10
40.8647
 20
128.6502
  0
SEQEND
  0
POLYLINE
  8
LAYER_10
 40
0.1058
 41
0.1058
 66
1
 10
0
 20
0
 30
0
  0
VERTEX
  8
LAYER_10
 10
41.9323
 20
128.1166
  0
VERTEX
  8
LAYER_10
 10
41.0016
 20
129.0474
  0
SEQEND
  0
POLYLINE
  8
LAYER_10
 40
0.1058
 41
0.1058
 66
1
 10
0
 20
0
 30
0
  0
VERTEX
  8
LAYER_10
 10
42.0693
 20
128.4997
  0
VERTEX
  8
LAYER_10
 10
41.1248
 20
129.4577
  0
SEQEND
  0
POLYLINE
  8
LAYER_10
 40
0.1058
 41
0.1058
 66
1
 10
0
 20
0
 30
0
  0
VERTEX
  8
LAYER_10
 10
42.2061
 20
128.8965
  0
VERTEX
  8
LAYER_10
 10
41.2342
 20
129.8684
  0
SEQEND
  0
POLYLINE
  8
LAYER_10
 40
0.1058
 41
0.1058
 66
1
 10
0
 20
0
 30
0
  0
VERTEX
  8
LAYER_10
 10
42.3156
 20
129.3072
  0
VERTEX
  8
LAYER_10
 10
41.3437
 20
130.279
  0
SEQEND
  0
POLYLINE
  8
LAYER_10
 40
0.1058
 41
0.1058
 66
1
 10
0
 20
0
 30
0
  0
VERTEX
  8
LAYER_10
 10
42.4798
 20
129.6768
  0
VERTEX
  8
LAYER_10
 10
41.4257
 20
130.7173
  0
SEQEND
  0
POLYLINE
  8
LAYER_10
 40
0.1058
 41
0.1058
 66
1
 10
0
 20
0
 30
0
  0
VERTEX
  8
LAYER_10
 10
42.8356
 20
129.8412
  0
VERTEX
  8
LAYER_10
 10
41.5081
 20
131.1689
  0
SEQEND
  0
POLYLINE
  8
LAYER_10
 40
0.1058
 41
0.1058
 66
1
 10
0
 20
0
 30
0
  0
VERTEX
  8
LAYER_10
 10
43.3696
 20
129.8412
  0
VERTEX
  8
LAYER_10
 10
41.5901
 20
131.6206
  0
SEQEND
  0
POLYLINE
  8
LAYER_10
 40
0.1058
 41
0.1058
 66
1
 10
0
 20
0
 30
0
  0
VERTEX
  8
LAYER_10
 10
43.8896
 20
129.8412
  0
VERTEX
  8
LAYER_10
 10
42.9042
 20
130.8265
  0
SEQEND
  0
POLYLINE
  8
LAYER_10
 40
0.1058
 41
0.1058
 66
1
 10
0
 20
0
 30
0
  0
VERTEX
  8
LAYER_10
 10
42.5209
 20
131.1961
  0
VERTEX
  8
LAYER_10
 10
41.6449
 20
132.0722
  0
SEQEND
  0
POLYLINE
  8
LAYER_10
 40
0.1058
 41
0.1058
 66
1
 10
0
 20
0
 30
0
  0
VERTEX
  8
LAYER_10
 10
44.4097
 20
129.8412
  0
VERTEX
  8
LAYER_10
 10
43.4242
 20
130.8265
  0
SEQEND
  0
POLYLINE
  8
LAYER_10
 40
0.1058
 41
0.1058
 66
1
 10
0
 20
0
 30
0
  0
VERTEX
  8
LAYER_10
 10
42.5895
 20
131.6616
  0
VERTEX
  8
LAYER_10
 10
41.6996
 20
132.5514
  0
SEQEND
  0
POLYLINE
  8
LAYER_10
 40
0.1058
 41
0.1058
 66
1
 10
0
 20
0
 30
0
  0
VERTEX
  8
LAYER_10
 10
44.8479
 20
129.9369
  0
VERTEX
  8
LAYER_10
 10
43.6023
 20
131.1827
  0
SEQEND
  0
POLYLINE
  8
LAYER_10
 40
0.1058
 41
0.1058
 66
1
 10
0
 20
0
 30
0
  0
VERTEX
  8
LAYER_10
 10
42.6579
 20
132.127
  0
VERTEX
  8
LAYER_10
 10
41.7544
 20
133.0303
  0
SEQEND
  0
POLYLINE
  8
LAYER_10
 40
0.1058
 41
0.1058
 66
1
 10
0
 20
0
 30
0
  0
VERTEX
  8
LAYER_10
 10
44.8479
 20
130.4571
  0
VERTEX
  8
LAYER_10
 10
43.5612
 20
131.7439
  0
SEQEND
  0
POLYLINE
  8
LAYER_10
 40
0.1058
 41
0.1058
 66
1
 10
0
 20
0
 30
0
  0
VERTEX
  8
LAYER_10
 10
43.1231
 20
132.1818
  0
VERTEX
  8
LAYER_10
 10
41.7956
 20
133.5092
  0
SEQEND
  0
POLYLINE
  8
LAYER_10
 40
0.1058
 41
0.1058
 66
1
 10
0
 20
0
 30
0
  0
VERTEX
  8
LAYER_10
 10
44.7794
 20
131.0456
  0
VERTEX
  8
LAYER_10
 10
42.0419
 20
133.7972
  0
SEQEND
  0
POLYLINE
  8
LAYER_10
 40
0.1058
 41
0.1058
 66
1
 10
0
 20
0
 30
0
  0
VERTEX
  8
LAYER_10
 10
44.5466
 20
131.8121
  0
VERTEX
  8
LAYER_10
 10
43.1779
 20
133.1671
  0
SEQEND
  0
POLYLINE
  8
LAYER_10
 40
0.1058
 41
0.1058
 66
1
 10
0
 20
0
 30
0
  0
VERTEX
  8
LAYER_10
 10
44.4371
 20
132.4419
  0
VERTEX
  8
LAYER_10
 10
43.8351
 20
133.0441
  0
SEQEND
  0
POLYLINE
  8
LAYER_10
 40
0.1058
 41
0.1058
 66
1
 10
0
 20
0
 30
0
  0
VERTEX
  8
LAYER_10
 10
22.4135
 20
130.3338
  0
VERTEX
  8
LAYER_10
 10
22.4
 20
130.4434
  0
SEQEND
  0
POLYLINE
  8
LAYER_10
 40
0.1058
 41
0.1058
 66
1
 10
0
 20
0
 30
0
  0
VERTEX
  8
LAYER_10
 10
22.3725
 20
130.5254
  0
VERTEX
  8
LAYER_10
 10
22.3725
 20
130.5391
  0
SEQEND
  0
POLYLINE
  8
LAYER_10
 40
0.1058
 41
0.1058
 66
1
 10
0
 20
0
 30
0
  0
VERTEX
  8
LAYER_10
 10
22.3588
 20
130.6212
  0
VERTEX
  8
LAYER_10
 10
22.3315
 20
130.7173
  0
VERTEX
  8
LAYER_10
 10
22.3041
 20
130.8265
  0
SEQEND
  0
POLYLINE
  8
LAYER_10
 40
0.1058
 41
0.1058
 66
1
 10
0
 20
0
 30
0
  0
VERTEX
  8
LAYER_10
 10
22.2905
 20
130.9088
  0
VERTEX
  8
LAYER_10
 10
22.2905
 20
130.9223
  0
SEQEND
  0
POLYLINE
  8
LAYER_10
 40
0.1058
 41
0.1058
 66
1
 10
0
 20
0
 30
0
  0
VERTEX
  8
LAYER_10
 10
22.2767
 20
131.0046
  0
VERTEX
  8
LAYER_10
 10
22.2493
 20
131.1138
  0
SEQEND
  0
POLYLINE
  8
LAYER_10
 40
0.1058
 41
0.1058
 66
1
 10
0
 20
0
 30
0
 70
1
  0
VERTEX
  8
LAYER_10
 10
22.4135
 20
130.3338
  0
VERTEX
  8
LAYER_10
 10
22.4958
 20
129.9914
  0
VERTEX
  8
LAYER_10
 10
22.5778
 20
129.6634
 42
0.02876645387
  0
VERTEX
  8
LAYER_10
 10
23.3818
 20
127.0687
 42
0.03650758142
  0
VERTEX
  8
LAYER_10
 10
24.223
 20
125.2487
 42
0.03394539845
  0
VERTEX
  8
LAYER_10
 10
24.9732
 20
124.0923
  0
VERTEX
  8
LAYER_10
 10
25.0689
 20
123.9552
  0
VERTEX
  8
LAYER_10
 10
25.1785
 20
123.8185
  0
VERTEX
  8
LAYER_10
 10
25.3016
 20
123.6813
 42
0.06384378539
  0
VERTEX
  8
LAYER_10
 10
26.5746
 20
122.5045
  0
VERTEX
  8
LAYER_10
 10
26.7116
 20
122.4087
  0
VERTEX
  8
LAYER_10
 10
26.8621
 20
122.313
 42
0.06389708547
  0
VERTEX
  8
LAYER_10
 10
28.5045
 20
121.5736
  0
VERTEX
  8
LAYER_10
 10
28.9564
 20
120.9714
  0
VERTEX
  8
LAYER_10
 10
28.97
 20
120.917
  0
VERTEX
  8
LAYER_10
 10
28.97
 20
120.7933
  0
VERTEX
  8
LAYER_10
 10
29.9692
 20
120.7933
  0
VERTEX
  8
LAYER_10
 10
29.9556
 20
121.2725
  0
VERTEX
  8
LAYER_10
 10
29.0657
 20
122.4632
 42
-0.1184479955
  0
VERTEX
  8
LAYER_10
 10
26.8163
 20
123.5744
 42
-0.05299236367
  0
VERTEX
  8
LAYER_10
 10
25.8554
 20
124.5672
 42
-0.04586168617
  0
VERTEX
  8
LAYER_10
 10
24.9653
 20
125.9551
 42
-0.03710697834
  0
VERTEX
  8
LAYER_10
 10
24.1456
 20
127.8725
 42
-0.02298878096
  0
VERTEX
  8
LAYER_10
 10
23.4675
 20
130.197
  0
VERTEX
  8
LAYER_10
 10
23.3717
 20
130.5939
  0
SEQEND
  0
POLYLINE
  8
LAYER_10
 40
0.1058
 41
0.1058
 66
1
 10
0
 20
0
 30
0
 70
1
  0
VERTEX
  8
LAYER_10
 10
42.781
 20
132.2366
  0
VERTEX
  8
LAYER_10
 10
42.6988
 20
132.2366
  0
VERTEX
  8
LAYER_10
 10
42.6579
 20
132.1545
 42
-0.01514279734
  0
VERTEX
  8
LAYER_10
 10
42.4799
 20
130.9223
  0
VERTEX
  8
LAYER_10
 10
42.5071
 20
130.8403
  0
VERTEX
  8
LAYER_10
 10
42.5895
 20
130.813
 42
-0.0009658563112
  0
VERTEX
  8
LAYER_10
 10
43.5749
 20
130.8265
  0
VERTEX
  8
LAYER_10
 10
43.657
 20
130.8678
  0
VERTEX
  8
LAYER_10
 10
43.657
 20
130.9636
  0
VERTEX
  8
LAYER_10
 10
43.6433
 20
131.0318
 42
-0.09878447537
  0
VERTEX
  8
LAYER_10
 10
43.5612
 20
131.7845
  0
VERTEX
  8
LAYER_10
 10
43.5476
 20
131.8669
  0
VERTEX
  8
LAYER_10
 10
43.5476
 20
131.963
  0
VERTEX
  8
LAYER_10
 10
43.5338
 20
132.0174
  0
VERTEX
  8
LAYER_10
 10
43.5202
 20
132.0588
  0
VERTEX
  8
LAYER_10
 10
43.4654
 20
132.127
  0
VERTEX
  8
LAYER_10
 10
43.4106
 20
132.1408
  0
VERTEX
  8
LAYER_10
 10
43.3422
 20
132.1545
  0
VERTEX
  8
LAYER_10
 10
43.2875
 20
132.168
  0
VERTEX
  8
LAYER_10
 10
43.2327
 20
132.168
  0
VERTEX
  8
LAYER_10
 10
43.1095
 20
132.1818
  0
VERTEX
  8
LAYER_10
 10
43.0821
 20
132.1818
  0
VERTEX
  8
LAYER_10
 10
43.0411
 20
132.1952
  0
VERTEX
  8
LAYER_10
 10
42.959
 20
132.209
  0
VERTEX
  8
LAYER_10
 10
42.8768
 20
132.2228
  0
SEQEND
  0
POLYLINE
  8
LAYER_10
 40
0.1058
 41
0.1058
 66
1
 10
0
 20
0
 30
0
  0
VERTEX
  8
LAYER_10
 10
23.3717
 20
130.5939
  0
VERTEX
  8
LAYER_10
 10
23.3443
 20
130.7173
  0
SEQEND
  0
POLYLINE
  8
LAYER_10
 40
0.1058
 41
0.1058
 66
1
 10
0
 20
0
 30
0
  0
VERTEX
  8
LAYER_10
 10
23.3307
 20
130.7989
  0
VERTEX
  8
LAYER_10
 10
23.3307
 20
130.813
  0
SEQEND
  0
POLYLINE
  8
LAYER_10
 40
0.1058
 41
0.1058
 66
1
 10
0
 20
0
 30
0
  0
VERTEX
  8
LAYER_10
 10
23.3171
 20
130.8816
  0
VERTEX
  8
LAYER_10
 10
23.2622
 20
131.1004
  0
SEQEND
  0
POLYLINE
  8
LAYER_10
 40
0.1058
 41
0.1058
 66
1
 10
0
 20
0
 30
0
  0
VERTEX
  8
LAYER_10
 10
23.2485
 20
131.1827
  0
VERTEX
  8
LAYER_10
 10
23.2485
 20
131.1961
  0
SEQEND
  0
POLYLINE
  8
LAYER_10
 40
0.1058
 41
0.1058
 66
1
 10
0
 20
0
 30
0
  0
VERTEX
  8
LAYER_10
 10
23.2348
 20
131.2643
  0
VERTEX
  8
LAYER_10
 10
23.2076
 20
131.3742
  0
SEQEND
  0
POLYLINE
  8
LAYER_10
 40
0.1058
 41
0.1058
 66
1
 10
0
 20
0
 30
0
  0
VERTEX
  8
LAYER_10
 10
26.2873
 20
122.7236
  0
VERTEX
  8
LAYER_10
 10
25.1513
 20
123.8595
  0
SEQEND
  0
POLYLINE
  8
LAYER_10
 40
0.1058
 41
0.1058
 66
1
 10
0
 20
0
 30
0
  0
VERTEX
  8
LAYER_10
 10
27.6286
 20
121.9023
  0
VERTEX
  8
LAYER_10
 10
24.1383
 20
125.3925
  0
SEQEND
  0
POLYLINE
  8
LAYER_10
 40
0.1058
 41
0.1058
 66
1
 10
0
 20
0
 30
0
  0
VERTEX
  8
LAYER_10
 10
29.2712
 20
120.7933
  0
VERTEX
  8
LAYER_10
 10
28.5183
 20
121.5461
  0
SEQEND
  0
POLYLINE
  8
LAYER_10
 40
0.1058
 41
0.1058
 66
1
 10
0
 20
0
 30
0
  0
VERTEX
  8
LAYER_10
 10
28.4635
 20
121.6012
  0
VERTEX
  8
LAYER_10
 10
23.6592
 20
126.4054
  0
SEQEND
  0
POLYLINE
  8
LAYER_10
 40
0.1058
 41
0.1058
 66
1
 10
0
 20
0
 30
0
  0
VERTEX
  8
LAYER_10
 10
29.7913
 20
120.7933
  0
VERTEX
  8
LAYER_10
 10
27.5055
 20
123.0929
  0
SEQEND
  0
POLYLINE
  8
LAYER_10
 40
0.1058
 41
0.1058
 66
1
 10
0
 20
0
 30
0
  0
VERTEX
  8
LAYER_10
 10
25.4386
 20
125.1462
  0
VERTEX
  8
LAYER_10
 10
23.3033
 20
127.2815
  0
SEQEND
  0
POLYLINE
  8
LAYER_10
 40
0.1058
 41
0.1058
 66
1
 10
0
 20
0
 30
0
  0
VERTEX
  8
LAYER_10
 10
29.9556
 20
121.163
  0
VERTEX
  8
LAYER_10
 10
28.4772
 20
122.6413
  0
SEQEND
  0
POLYLINE
  8
LAYER_10
 40
0.1058
 41
0.1058
 66
1
 10
0
 20
0
 30
0
  0
VERTEX
  8
LAYER_10
 10
24.7678
 20
126.3368
  0
VERTEX
  8
LAYER_10
 10
23.0294
 20
128.089
  0
SEQEND
  0
POLYLINE
  8
LAYER_10
 40
0.1058
 41
0.1058
 66
1
 10
0
 20
0
 30
0
  0
VERTEX
  8
LAYER_10
 10
24.3709
 20
127.2677
  0
VERTEX
  8
LAYER_10
 10
22.8105
 20
128.8417
  0
SEQEND
  0
POLYLINE
  8
LAYER_10
 40
0.1058
 41
0.1058
 66
1
 10
0
 20
0
 30
0
  0
VERTEX
  8
LAYER_10
 10
24.0699
 20
128.1028
  0
VERTEX
  8
LAYER_10
 10
22.6052
 20
129.5535
  0
SEQEND
  0
POLYLINE
  8
LAYER_10
 40
0.1058
 41
0.1058
 66
1
 10
0
 20
0
 30
0
  0
VERTEX
  8
LAYER_10
 10
23.8234
 20
128.869
  0
VERTEX
  8
LAYER_10
 10
22.4408
 20
130.2518
  0
SEQEND
  0
POLYLINE
  8
LAYER_10
 40
0.1058
 41
0.1058
 66
1
 10
0
 20
0
 30
0
  0
VERTEX
  8
LAYER_10
 10
23.618
 20
129.5945
  0
VERTEX
  8
LAYER_10
 10
22.7831
 20
130.4296
  0
SEQEND
  0
POLYLINE
  8
LAYER_10
 40
0.1058
 41
0.1058
 66
1
 10
0
 20
0
 30
0
  0
VERTEX
  8
LAYER_10
 10
23.4539
 20
130.2928
  0
VERTEX
  8
LAYER_10
 10
23.1938
 20
130.5529
  0
SEQEND
  0
POLYLINE
  8
LAYER_10
 40
0.1058
 41
0.1058
 66
1
 10
0
 20
0
 30
0
  0
VERTEX
  8
LAYER_10
 10
41.7956
 20
133.4685
  0
VERTEX
  8
LAYER_10
 10
41.7818
 20
133.3314
 42
-0.02909190713
  0
VERTEX
  8
LAYER_10
 10
41.4753
 20
130.9489
 42
-0.03287114643
  0
VERTEX
  8
LAYER_10
 10
40.929
 20
128.8205
 42
-0.03683676502
  0
VERTEX
  8
LAYER_10
 10
40.1823
 20
127.0059
 42
-0.04226935225
  0
VERTEX
  8
LAYER_10
 10
39.227
 20
125.4425
 42
-0.08774456055
  0
VERTEX
  8
LAYER_10
 10
36.9444
 20
123.2616
 42
-0.04947121536
  0
VERTEX
  8
LAYER_10
 10
35.4169
 20
122.4632
  0
VERTEX
  8
LAYER_10
 10
34.5136
 20
121.2725
  0
VERTEX
  8
LAYER_10
 10
34.4725
 20
117.7138
  0
VERTEX
  8
LAYER_10
 10
35.5539
 20
117.7138
  0
VERTEX
  8
LAYER_10
 10
35.7864
 20
120.9986
  0
SEQEND
  0
POLYLINE
  8
LAYER_10
 40
0.1058
 41
0.1058
 66
1
 10
0
 20
0
 30
0
  0
VERTEX
  8
LAYER_10
 10
36.0466
 20
121.3959
  0
VERTEX
  8
LAYER_10
 10
35.9234
 20
121.3001
  0
VERTEX
  8
LAYER_10
 10
35.8276
 20
121.1492
  0
VERTEX
  8
LAYER_10
 10
35.7864
 20
120.9986
  0
SEQEND
  0
POLYLINE
  8
LAYER_10
 40
0.1058
 41
0.1058
 66
1
 10
0
 20
0
 30
0
  0
VERTEX
  8
LAYER_10
 10
36.0466
 20
121.3959
  0
VERTEX
  8
LAYER_10
 10
36.909
 20
121.8609
 42
0.08787311136
  0
VERTEX
  8
LAYER_10
 10
39.5404
 20
123.9365
 42
0.0411671288
  0
VERTEX
  8
LAYER_10
 10
40.6191
 20
125.367
 42
0.03760140354
  0
VERTEX
  8
LAYER_10
 10
41.5372
 20
127.0958
 42
0.03376059662
  0
VERTEX
  8
LAYER_10
 10
42.2882
 20
129.1838
  0
VERTEX
  8
LAYER_10
 10
42.3704
 20
129.4712
  0
SEQEND
  0
POLYLINE
  8
LAYER_10
 40
0.1058
 41
0.1058
 66
1
 10
0
 20
0
 30
0
  0
VERTEX
  8
LAYER_10
 10
42.8494
 20
129.8412
  0
VERTEX
  8
LAYER_10
 10
42.6853
 20
129.8136
  0
VERTEX
  8
LAYER_10
 10
42.5345
 20
129.7316
  0
VERTEX
  8
LAYER_10
 10
42.4252
 20
129.6221
  0
VERTEX
  8
LAYER_10
 10
42.3704
 20
129.4712
  0
SEQEND
  0
POLYLINE
  8
LAYER_10
 40
0.1058
 41
0.1058
 66
1
 10
0
 20
0
 30
0
  0
VERTEX
  8
LAYER_10
 10
42.8494
 20
129.8412
  0
VERTEX
  8
LAYER_10
 10
44.8479
 20
129.8412
  0
VERTEX
  8
LAYER_10
 10
44.8479
 20
130.8265
 42
0.210664691
  0
VERTEX
  8
LAYER_10
 10
44.7522
 20
131.0866
  0
VERTEX
  8
LAYER_10
 10
44.7246
 20
131.1004
  0
SEQEND
  0
POLYLINE
  8
LAYER_10
 40
0.1058
 41
0.1058
 66
1
 10
0
 20
0
 30
0
  0
VERTEX
  8
LAYER_10
 10
44.5604
 20
131.47
  0
VERTEX
  8
LAYER_10
 10
44.5878
 20
131.3329
  0
VERTEX
  8
LAYER_10
 10
44.6426
 20
131.2096
  0
VERTEX
  8
LAYER_10
 10
44.7246
 20
131.1004
  0
SEQEND
  0
POLYLINE
  8
LAYER_10
 40
0.1058
 41
0.1058
 66
1
 10
0
 20
0
 30
0
  0
VERTEX
  8
LAYER_10
 10
44.5604
 20
131.47
  0
VERTEX
  8
LAYER_10
 10
44.5604
 20
131.5386
 42
0.08902520303
  0
VERTEX
  8
LAYER_10
 10
44.4393
 20
132.4476
 42
0.1431343686
  0
VERTEX
  8
LAYER_10
 10
44.1242
 20
132.886
 42
0.1165734288
  0
VERTEX
  8
LAYER_10
 10
43.5304
 20
133.1295
 42
0.02941899068
  0
VERTEX
  8
LAYER_10
 10
43.2738
 20
133.1671
  0
VERTEX
  8
LAYER_10
 10
43.1643
 20
133.1808
  0
SEQEND
  0
POLYLINE
  8
LAYER_10
 40
0.1058
 41
0.1058
 66
1
 10
0
 20
0
 30
0
  0
VERTEX
  8
LAYER_10
 10
42.7672
 20
133.4409
  0
VERTEX
  8
LAYER_10
 10
42.8632
 20
133.3042
  0
VERTEX
  8
LAYER_10
 10
43.0137
 20
133.2084
  0
VERTEX
  8
LAYER_10
 10
43.1643
 20
133.1808
  0
SEQEND
  0
POLYLINE
  8
LAYER_10
 40
0.1058
 41
0.1058
 66
1
 10
0
 20
0
 30
0
  0
VERTEX
  8
LAYER_10
 10
42.7672
 20
133.4409
  0
VERTEX
  8
LAYER_10
 10
42.74
 20
133.4957
  0
VERTEX
  8
LAYER_10
 10
42.7126
 20
133.5367
  0
VERTEX
  8
LAYER_10
 10
42.6988
 20
133.5777
  0
VERTEX
  8
LAYER_10
 10
42.6715
 20
133.6187
  0
VERTEX
  8
LAYER_10
 10
42.6579
 20
133.6601
  0
VERTEX
  8
LAYER_10
 10
42.6303
 20
133.6873
  0
VERTEX
  8
LAYER_10
 10
42.6169
 20
133.7283
  0
VERTEX
  8
LAYER_10
 10
42.5483
 20
133.7972
  0
VERTEX
  8
LAYER_10
 10
42.5209
 20
133.8103
 42
0.2677283747
  0
VERTEX
  8
LAYER_10
 10
41.9597
 20
133.742
  0
VERTEX
  8
LAYER_10
 10
41.8502
 20
133.6187
  0
VERTEX
  8
LAYER_10
 10
41.7956
 20
133.4685
  0
SEQEND
  0
POLYLINE
  8
LAYER_10
 40
0.1058
 41
0.1058
 66
1
 10
0
 20
0
 30
0
  0
VERTEX
  8
LAYER_10
 10
35.4169
 20
122.4632
  0
VERTEX
  8
LAYER_10
 10
35.2664
 20
122.4632
  0
SEQEND
  0
POLYLINE
  8
LAYER_10
 40
0.1058
 41
0.1058
 66
1
 10
0
 20
0
 30
0
  0
VERTEX
  8
LAYER_10
 10
35.1843
 20
122.4632
  0
VERTEX
  8
LAYER_10
 10
35.1843
 20
122.4769
  0
SEQEND
  0
POLYLINE
  8
LAYER_10
 40
0.1058
 41
0.1058
 66
1
 10
0
 20
0
 30
0
  0
VERTEX
  8
LAYER_10
 10
35.0885
 20
122.4632
  0
VERTEX
  8
LAYER_10
 10
34.8695
 20
122.4632
  0
SEQEND
  0
POLYLINE
  8
LAYER_10
 40
0.1058
 41
0.1058
 66
1
 10
0
 20
0
 30
0
  0
VERTEX
  8
LAYER_10
 10
34.7874
 20
122.4632
  0
VERTEX
  8
LAYER_10
 10
34.7874
 20
122.4769
  0
SEQEND
  0
POLYLINE
  8
LAYER_10
 40
0.1058
 41
0.1058
 66
1
 10
0
 20
0
 30
0
  0
VERTEX
  8
LAYER_10
 10
34.7052
 20
122.4632
  0
VERTEX
  8
LAYER_10
 10
34.4863
 20
122.4632
  0
SEQEND
  0
POLYLINE
  8
LAYER_10
 40
0.1058
 41
0.1058
 66
1
 10
0
 20
0
 30
0
  0
VERTEX
  8
LAYER_10
 10
34.3905
 20
122.4632
  0
VERTEX
  8
LAYER_10
 10
34.3905
 20
122.4769
  0
SEQEND
  0
POLYLINE
  8
LAYER_10
 40
0.1058
 41
0.1058
 66
1
 10
0
 20
0
 30
0
  0
VERTEX
  8
LAYER_10
 10
34.3083
 20
122.4632
  0
VERTEX
  8
LAYER_10
 10
34.0894
 20
122.4632
  0
SEQEND
  0
POLYLINE
  8
LAYER_10
 40
0.1058
 41
0.1058
 66
1
 10
0
 20
0
 30
0
  0
VERTEX
  8
LAYER_10
 10
34.0071
 20
122.4632
  0
VERTEX
  8
LAYER_10
 10
34.0071
 20
122.4769
  0
SEQEND
  0
POLYLINE
  8
LAYER_10
 40
0.1058
 41
0.1058
 66
1
 10
0
 20
0
 30
0
  0
VERTEX
  8
LAYER_10
 10
33.9113
 20
122.4632
  0
VERTEX
  8
LAYER_10
 10
33.6923
 20
122.4632
  0
SEQEND
  0
POLYLINE
  8
LAYER_10
 40
0.1058
 41
0.1058
 66
1
 10
0
 20
0
 30
0
  0
VERTEX
  8
LAYER_10
 10
33.6102
 20
122.4632
  0
VERTEX
  8
LAYER_10
 10
33.6102
 20
122.4769
  0
SEQEND
  0
POLYLINE
  8
LAYER_10
 40
0.1058
 41
0.1058
 66
1
 10
0
 20
0
 30
0
  0
VERTEX
  8
LAYER_10
 10
33.528
 20
122.4632
  0
VERTEX
  8
LAYER_10
 10
33.3091
 20
122.4632
  0
SEQEND
  0
POLYLINE
  8
LAYER_10
 40
0.1058
 41
0.1058
 66
1
 10
0
 20
0
 30
0
  0
VERTEX
  8
LAYER_10
 10
33.2133
 20
122.4632
  0
VERTEX
  8
LAYER_10
 10
33.2133
 20
122.4769
  0
SEQEND
  0
POLYLINE
  8
LAYER_10
 40
0.1058
 41
0.1058
 66
1
 10
0
 20
0
 30
0
  0
VERTEX
  8
LAYER_10
 10
33.1311
 20
122.4632
  0
VERTEX
  8
LAYER_10
 10
32.9122
 20
122.4632
  0
SEQEND
  0
POLYLINE
  8
LAYER_10
 40
0.1058
 41
0.1058
 66
1
 10
0
 20
0
 30
0
  0
VERTEX
  8
LAYER_10
 10
32.8299
 20
122.4632
  0
VERTEX
  8
LAYER_10
 10
32.8299
 20
122.4769
  0
SEQEND
  0
POLYLINE
  8
LAYER_10
 40
0.1058
 41
0.1058
 66
1
 10
0
 20
0
 30
0
  0
VERTEX
  8
LAYER_10
 10
32.7341
 20
122.4632
  0
VERTEX
  8
LAYER_10
 10
32.5152
 20
122.4632
  0
SEQEND
  0
POLYLINE
  8
LAYER_10
 40
0.1058
 41
0.1058
 66
1
 10
0
 20
0
 30
0
  0
VERTEX
  8
LAYER_10
 10
32.433
 20
122.4632
  0
VERTEX
  8
LAYER_10
 10
32.433
 20
122.4769
  0
SEQEND
  0
POLYLINE
  8
LAYER_10
 40
0.1058
 41
0.1058
 66
1
 10
0
 20
0
 30
0
  0
VERTEX
  8
LAYER_10
 10
32.351
 20
122.4632
  0
VERTEX
  8
LAYER_10
 10
32.1319
 20
122.4632
  0
SEQEND
  0
POLYLINE
  8
LAYER_10
 40
0.1058
 41
0.1058
 66
1
 10
0
 20
0
 30
0
  0
VERTEX
  8
LAYER_10
 10
32.0361
 20
122.4632
  0
VERTEX
  8
LAYER_10
 10
32.0361
 20
122.4769
  0
SEQEND
  0
POLYLINE
  8
LAYER_10
 40
0.1058
 41
0.1058
 66
1
 10
0
 20
0
 30
0
  0
VERTEX
  8
LAYER_10
 10
31.9539
 20
122.4632
  0
VERTEX
  8
LAYER_10
 10
31.735
 20
122.4632
  0
SEQEND
  0
POLYLINE
  8
LAYER_10
 40
0.1058
 41
0.1058
 66
1
 10
0
 20
0
 30
0
  0
VERTEX
  8
LAYER_10
 10
31.6528
 20
122.4632
  0
VERTEX
  8
LAYER_10
 10
31.6528
 20
122.4769
  0
SEQEND
  0
POLYLINE
  8
LAYER_10
 40
0.1058
 41
0.1058
 66
1
 10
0
 20
0
 30
0
  0
VERTEX
  8
LAYER_10
 10
31.5571
 20
122.4632
  0
VERTEX
  8
LAYER_10
 10
31.3381
 20
122.4632
  0
SEQEND
  0
POLYLINE
  8
LAYER_10
 40
0.1058
 41
0.1058
 66
1
 10
0
 20
0
 30
0
  0
VERTEX
  8
LAYER_10
 10
31.2558
 20
122.4632
  0
VERTEX
  8
LAYER_10
 10
31.2558
 20
122.4769
  0
SEQEND
  0
POLYLINE
  8
LAYER_10
 40
0.1058
 41
0.1058
 66
1
 10
0
 20
0
 30
0
  0
VERTEX
  8
LAYER_10
 10
31.1738
 20
122.4632
  0
VERTEX
  8
LAYER_10
 10
30.9549
 20
122.4632
  0
SEQEND
  0
POLYLINE
  8
LAYER_10
 40
0.1058
 41
0.1058
 66
1
 10
0
 20
0
 30
0
  0
VERTEX
  8
LAYER_10
 10
30.8589
 20
122.4632
  0
VERTEX
  8
LAYER_10
 10
30.8589
 20
122.4769
  0
SEQEND
  0
POLYLINE
  8
LAYER_10
 40
0.1058
 41
0.1058
 66
1
 10
0
 20
0
 30
0
  0
VERTEX
  8
LAYER_10
 10
30.7769
 20
122.4632
  0
VERTEX
  8
LAYER_10
 10
30.5578
 20
122.4632
  0
SEQEND
  0
POLYLINE
  8
LAYER_10
 40
0.1058
 41
0.1058
 66
1
 10
0
 20
0
 30
0
  0
VERTEX
  8
LAYER_10
 10
30.4756
 20
122.4632
  0
VERTEX
  8
LAYER_10
 10
30.4756
 20
122.4769
  0
SEQEND
  0
POLYLINE
  8
LAYER_10
 40
0.1058
 41
0.1058
 66
1
 10
0
 20
0
 30
0
  0
VERTEX
  8
LAYER_10
 10
30.3799
 20
122.4632
  0
VERTEX
  8
LAYER_10
 10
30.1609
 20
122.4632
  0
SEQEND
  0
POLYLINE
  8
LAYER_10
 40
0.1058
 41
0.1058
 66
1
 10
0
 20
0
 30
0
  0
VERTEX
  8
LAYER_10
 10
30.0788
 20
122.4632
  0
VERTEX
  8
LAYER_10
 10
30.0788
 20
122.4769
  0
SEQEND
  0
POLYLINE
  8
LAYER_10
 40
0.1058
 41
0.1058
 66
1
 10
0
 20
0
 30
0
  0
VERTEX
  8
LAYER_10
 10
29.9966
 20
122.4632
  0
VERTEX
  8
LAYER_10
 10
29.7777
 20
122.4632
  0
SEQEND
  0
POLYLINE
  8
LAYER_10
 40
0.1058
 41
0.1058
 66
1
 10
0
 20
0
 30
0
  0
VERTEX
  8
LAYER_10
 10
29.6817
 20
122.4632
  0
VERTEX
  8
LAYER_10
 10
29.6817
 20
122.4769
  0
SEQEND
  0
POLYLINE
  8
LAYER_10
 40
0.1058
 41
0.1058
 66
1
 10
0
 20
0
 30
0
  0
VERTEX
  8
LAYER_10
 10
29.5997
 20
122.4632
  0
VERTEX
  8
LAYER_10
 10
29.3806
 20
122.4632
  0
SEQEND
  0
POLYLINE
  8
LAYER_10
 40
0.1058
 41
0.1058
 66
1
 10
0
 20
0
 30
0
  0
VERTEX
  8
LAYER_10
 10
29.2986
 20
122.4632
  0
VERTEX
  8
LAYER_10
 10
29.2986
 20
122.4769
  0
SEQEND
  0
POLYLINE
  8
LAYER_10
 40
0.1058
 41
0.1058
 66
1
 10
0
 20
0
 30
0
  0
VERTEX
  8
LAYER_10
 10
29.2029
 20
122.4632
  0
VERTEX
  8
LAYER_10
 10
29.0659
 20
122.4632
  0
SEQEND
  0
POLYLINE
  8
LAYER_10
 40
0.1058
 41
0.1058
 66
1
 10
0
 20
0
 30
0
  0
VERTEX
  8
LAYER_10
 10
34.5136
 20
121.2725
  0
VERTEX
  8
LAYER_10
 10
34.2809
 20
121.2725
  0
SEQEND
  0
POLYLINE
  8
LAYER_10
 40
0.1058
 41
0.1058
 66
1
 10
0
 20
0
 30
0
  0
VERTEX
  8
LAYER_10
 10
34.1988
 20
121.2725
  0
VERTEX
  8
LAYER_10
 10
34.1988
 20
121.2863
  0
SEQEND
  0
POLYLINE
  8
LAYER_10
 40
0.1058
 41
0.1058
 66
1
 10
0
 20
0
 30
0
  0
VERTEX
  8
LAYER_10
 10
34.1168
 20
121.2725
  0
VERTEX
  8
LAYER_10
 10
33.8977
 20
121.2725
  0
SEQEND
  0
POLYLINE
  8
LAYER_10
 40
0.1058
 41
0.1058
 66
1
 10
0
 20
0
 30
0
  0
VERTEX
  8
LAYER_10
 10
33.8019
 20
121.2725
  0
VERTEX
  8
LAYER_10
 10
33.8019
 20
121.2863
  0
SEQEND
  0
POLYLINE
  8
LAYER_10
 40
0.1058
 41
0.1058
 66
1
 10
0
 20
0
 30
0
  0
VERTEX
  8
LAYER_10
 10
33.7197
 20
121.2725
  0
VERTEX
  8
LAYER_10
 10
33.5008
 20
121.2725
  0
SEQEND
  0
POLYLINE
  8
LAYER_10
 40
0.1058
 41
0.1058
 66
1
 10
0
 20
0
 30
0
  0
VERTEX
  8
LAYER_10
 10
33.4186
 20
121.2725
  0
VERTEX
  8
LAYER_10
 10
33.4186
 20
121.2863
  0
SEQEND
  0
POLYLINE
  8
LAYER_10
 40
0.1058
 41
0.1058
 66
1
 10
0
 20
0
 30
0
  0
VERTEX
  8
LAYER_10
 10
33.3227
 20
121.2725
  0
VERTEX
  8
LAYER_10
 10
33.1037
 20
121.2725
  0
SEQEND
  0
POLYLINE
  8
LAYER_10
 40
0.1058
 41
0.1058
 66
1
 10
0
 20
0
 30
0
  0
VERTEX
  8
LAYER_10
 10
33.0216
 20
121.2725
  0
VERTEX
  8
LAYER_10
 10
33.0216
 20
121.2863
  0
SEQEND
  0
POLYLINE
  8
LAYER_10
 40
0.1058
 41
0.1058
 66
1
 10
0
 20
0
 30
0
  0
VERTEX
  8
LAYER_10
 10
32.9396
 20
121.2725
  0
VERTEX
  8
LAYER_10
 10
32.7205
 20
121.2725
  0
SEQEND
  0
POLYLINE
  8
LAYER_10
 40
0.1058
 41
0.1058
 66
1
 10
0
 20
0
 30
0
  0
VERTEX
  8
LAYER_10
 10
32.6247
 20
121.2725
  0
VERTEX
  8
LAYER_10
 10
32.6247
 20
121.2863
  0
SEQEND
  0
POLYLINE
  8
LAYER_10
 40
0.1058
 41
0.1058
 66
1
 10
0
 20
0
 30
0
  0
VERTEX
  8
LAYER_10
 10
32.5425
 20
121.2725
  0
VERTEX
  8
LAYER_10
 10
32.3236
 20
121.2725
  0
SEQEND
  0
POLYLINE
  8
LAYER_10
 40
0.1058
 41
0.1058
 66
1
 10
0
 20
0
 30
0
  0
VERTEX
  8
LAYER_10
 10
32.2414
 20
121.2725
  0
VERTEX
  8
LAYER_10
 10
32.2414
 20
121.2863
  0
SEQEND
  0
POLYLINE
  8
LAYER_10
 40
0.1058
 41
0.1058
 66
1
 10
0
 20
0
 30
0
  0
VERTEX
  8
LAYER_10
 10
32.1457
 20
121.2725
  0
VERTEX
  8
LAYER_10
 10
31.9267
 20
121.2725
  0
SEQEND
  0
POLYLINE
  8
LAYER_10
 40
0.1058
 41
0.1058
 66
1
 10
0
 20
0
 30
0
  0
VERTEX
  8
LAYER_10
 10
31.8446
 20
121.2725
  0
VERTEX
  8
LAYER_10
 10
31.8446
 20
121.2863
  0
SEQEND
  0
POLYLINE
  8
LAYER_10
 40
0.1058
 41
0.1058
 66
1
 10
0
 20
0
 30
0
  0
VERTEX
  8
LAYER_10
 10
31.7624
 20
121.2725
  0
VERTEX
  8
LAYER_10
 10
31.5433
 20
121.2725
  0
SEQEND
  0
POLYLINE
  8
LAYER_10
 40
0.1058
 41
0.1058
 66
1
 10
0
 20
0
 30
0
  0
VERTEX
  8
LAYER_10
 10
31.4475
 20
121.2725
  0
VERTEX
  8
LAYER_10
 10
31.4475
 20
121.2863
  0
SEQEND
  0
POLYLINE
  8
LAYER_10
 40
0.1058
 41
0.1058
 66
1
 10
0
 20
0
 30
0
  0
VERTEX
  8
LAYER_10
 10
31.3655
 20
121.2725
  0
VERTEX
  8
LAYER_10
 10
31.1464
 20
121.2725
  0
SEQEND
  0
POLYLINE
  8
LAYER_10
 40
0.1058
 41
0.1058
 66
1
 10
0
 20
0
 30
0
  0
VERTEX
  8
LAYER_10
 10
31.0643
 20
121.2725
  0
VERTEX
  8
LAYER_10
 10
31.0643
 20
121.2863
  0
SEQEND
  0
POLYLINE
  8
LAYER_10
 40
0.1058
 41
0.1058
 66
1
 10
0
 20
0
 30
0
  0
VERTEX
  8
LAYER_10
 10
30.9685
 20
121.2725
  0
VERTEX
  8
LAYER_10
 10
30.7495
 20
121.2725
  0
SEQEND
  0
POLYLINE
  8
LAYER_10
 40
0.1058
 41
0.1058
 66
1
 10
0
 20
0
 30
0
  0
VERTEX
  8
LAYER_10
 10
30.6674
 20
121.2725
  0
VERTEX
  8
LAYER_10
 10
30.6674
 20
121.2863
  0
SEQEND
  0
POLYLINE
  8
LAYER_10
 40
0.1058
 41
0.1058
 66
1
 10
0
 20
0
 30
0
  0
VERTEX
  8
LAYER_10
 10
30.5854
 20
121.2725
  0
VERTEX
  8
LAYER_10
 10
30.3663
 20
121.2725
  0
SEQEND
  0
POLYLINE
  8
LAYER_10
 40
0.1058
 41
0.1058
 66
1
 10
0
 20
0
 30
0
  0
VERTEX
  8
LAYER_10
 10
30.2703
 20
121.2725
  0
VERTEX
  8
LAYER_10
 10
30.2703
 20
121.2863
  0
SEQEND
  0
POLYLINE
  8
LAYER_10
 40
0.1058
 41
0.1058
 66
1
 10
0
 20
0
 30
0
  0
VERTEX
  8
LAYER_10
 10
30.1883
 20
121.2725
  0
VERTEX
  8
LAYER_10
 10
29.9556
 20
121.2725
  0
SEQEND
  0
POLYLINE
  8
LAYER_10
 40
0.1058
 41
0.1058
 66
1
 10
0
 20
0
 30
0
  0
VERTEX
  8
LAYER_10
 10
167.8464
 20
121.5323
  0
VERTEX
  8
LAYER_10
 10
167.4082
 20
121.4503
  0
VERTEX
  8
LAYER_10
 10
167.1895
 20
121.4096
  0
VERTEX
  8
LAYER_10
 10
166.97
 20
121.3821
  0
SEQEND
  0
POLYLINE
  8
LAYER_10
 40
0.1058
 41
0.1058
 66
1
 10
0
 20
0
 30
0
  0
VERTEX
  8
LAYER_10
 10
173.6497
 20
129.8412
  0
VERTEX
  8
LAYER_10
 10
178.7419
 20
129.8412
  0
VERTEX
  8
LAYER_10
 10
178.632
 20
129.6496
 42
-0.06736560538
  0
VERTEX
  8
LAYER_10
 10
176.1492
 20
126.1695
 42
-0.06671008796
  0
VERTEX
  8
LAYER_10
 10
172.8365
 20
123.4653
 42
-0.06952856964
  0
VERTEX
  8
LAYER_10
 10
169.0197
 20
121.799
 42
-0.01700868457
  0
VERTEX
  8
LAYER_10
 10
168.0786
 20
121.5736
  0
VERTEX
  8
LAYER_10
 10
167.8464
 20
121.5323
  0
SEQEND
  0
POLYLINE
  8
LAYER_10
 40
0.1058
 41
0.1058
 66
1
 10
0
 20
0
 30
0
  0
VERTEX
  8
LAYER_10
 10
138.5679
 20
129.8412
  0
VERTEX
  8
LAYER_10
 10
138.5679
 20
139.3265
  0
VERTEX
  8
LAYER_10
 10
138.5817
 20
139.3679
  0
VERTEX
  8
LAYER_10
 10
138.5817
 20
139.3948
  0
VERTEX
  8
LAYER_10
 10
138.6231
 20
139.4775
  0
VERTEX
  8
LAYER_10
 10
138.6913
 20
139.5457
 42
-0.2320733272
  0
VERTEX
  8
LAYER_10
 10
138.8832
 20
139.6142
  0
VERTEX
  8
LAYER_10
 10
188.3092
 20
139.6142
 42
-0.3979847065
  0
VERTEX
  8
LAYER_10
 10
188.6513
 20
139.3265
  0
VERTEX
  8
LAYER_10
 10
188.6513
 20
129.8412
  0
VERTEX
  8
LAYER_10
 10
178.7419
 20
129.8412
  0
SEQEND
  0
POLYLINE
  8
LAYER_10
 40
0.1058
 41
0.1058
 66
1
 10
0
 20
0
 30
0
  0
VERTEX
  8
LAYER_10
 10
153.5699
 20
129.8412
  0
VERTEX
  8
LAYER_10
 10
148.4919
 20
129.8412
  0
SEQEND
  0
POLYLINE
  8
LAYER_10
 40
0.1058
 41
0.1058
 66
1
 10
0
 20
0
 30
0
  0
VERTEX
  8
LAYER_10
 10
160.2631
 20
121.3821
  0
VERTEX
  8
LAYER_10
 10
160.0305
 20
121.4096
  0
VERTEX
  8
LAYER_10
 10
159.8111
 20
121.4503
  0
VERTEX
  8
LAYER_10
 10
159.3736
 20
121.5323
  0
SEQEND
  0
POLYLINE
  8
LAYER_10
 40
0.1058
 41
0.1058
 66
1
 10
0
 20
0
 30
0
  0
VERTEX
  8
LAYER_10
 10
148.4919
 20
129.8412
  0
VERTEX
  8
LAYER_10
 10
138.5679
 20
129.8412
  0
SEQEND
  0
POLYLINE
  8
LAYER_10
 40
0.1058
 41
0.1058
 66
1
 10
0
 20
0
 30
0
  0
VERTEX
  8
LAYER_10
 10
173.6497
 20
129.8412
  0
VERTEX
  8
LAYER_10
 10
173.6497
 20
130.0189
 42
0.08259770435
  0
VERTEX
  8
LAYER_10
 10
173.4939
 20
130.9313
 42
0.1884316133
  0
VERTEX
  8
LAYER_10
 10
172.3966
 20
132.1844
 42
0.002076964197
  0
VERTEX
  8
LAYER_10
 10
172.3767
 20
132.1952
  0
VERTEX
  8
LAYER_10
 10
172.2947
 20
132.2366
  0
VERTEX
  8
LAYER_10
 10
172.2127
 20
132.291
 42
0.07067491949
  0
VERTEX
  8
LAYER_10
 10
171.201
 20
132.5915
 42
0.0648505907
  0
VERTEX
  8
LAYER_10
 10
170.0169
 20
132.6307
 42
0.0770752151
  0
VERTEX
  8
LAYER_10
 10
169.1308
 20
132.4102
 42
0.1021849136
  0
VERTEX
  8
LAYER_10
 10
168.5527
 20
132.0135
 42
0.1238696709
  0
VERTEX
  8
LAYER_10
 10
168.2295
 20
131.4287
  0
VERTEX
  8
LAYER_10
 10
168.1744
 20
131.1551
  0
VERTEX
  8
LAYER_10
 10
166.5049
 20
117.7138
  0
VERTEX
  8
LAYER_10
 10
160.7151
 20
117.7138
  0
VERTEX
  8
LAYER_10
 10
159.0587
 20
131.1551
  0
VERTEX
  8
LAYER_10
 10
158.9901
 20
131.4287
 42
0.1175059605
  0
VERTEX
  8
LAYER_10
 10
158.7003
 20
131.9786
 42
0.1030630594
  0
VERTEX
  8
LAYER_10
 10
158.1473
 20
132.3837
 42
0.08084783327
  0
VERTEX
  8
LAYER_10
 10
157.2508
 20
132.6266
 42
0.1282895592
  0
VERTEX
  8
LAYER_10
 10
155.103
 20
132.3185
  0
VERTEX
  8
LAYER_10
 10
155.0072
 20
132.291
  0
VERTEX
  8
LAYER_10
 10
154.9246
 20
132.2366
 42
0.08526374233
  0
VERTEX
  8
LAYER_10
 10
154.2081
 20
131.719
 42
0.09549555677
  0
VERTEX
  8
LAYER_10
 10
153.7739
 20
131.0444
 42
0.08633472829
  0
VERTEX
  8
LAYER_10
 10
153.5699
 20
130.0189
  0
VERTEX
  8
LAYER_10
 10
153.5699
 20
129.8412
  0
SEQEND
  0
POLYLINE
  8
LAYER_10
 40
0.1058
 41
0.1058
 66
1
 10
0
 20
0
 30
0
  0
VERTEX
  8
LAYER_10
 10
159.3736
 20
121.5323
  0
VERTEX
  8
LAYER_10
 10
159.1545
 20
121.5736
 42
-0.07106311227
  0
VERTEX
  8
LAYER_10
 10
155.3229
 20
122.9338
 42
-0.06831325201
  0
VERTEX
  8
LAYER_10
 10
151.8371
 20
125.4091
 42
-0.08254393935
  0
VERTEX
  8
LAYER_10
 10
148.5877
 20
129.6496
  0
VERTEX
  8
LAYER_10
 10
148.4919
 20
129.8412
  0
SEQEND
  0
POLYLINE
  8
LAYER_10
 40
0.1058
 41
0.1058
 66
1
 10
0
 20
0
 30
0
  0
VERTEX
  8
LAYER_10
 10
129.9449
 20
130.1561
  0
VERTEX
  8
LAYER_10
 10
129.9449
 20
130.1009
 42
-0.1358988987
  0
VERTEX
  8
LAYER_10
 10
129.8767
 20
129.9507
  0
VERTEX
  8
LAYER_10
 10
129.8491
 20
129.9369
  0
VERTEX
  8
LAYER_10
 10
129.8216
 20
129.9094
 42
-0.1427223122
  0
VERTEX
  8
LAYER_10
 10
129.671
 20
129.8412
  0
VERTEX
  8
LAYER_10
 10
129.6162
 20
129.8412
  0
SEQEND
  0
POLYLINE
  8
LAYER_10
 40
0.1058
 41
0.1058
 66
1
 10
0
 20
0
 30
0
  0
VERTEX
  8
LAYER_10
 10
129.9449
 20
130.1561
  0
VERTEX
  8
LAYER_10
 10
129.9449
 20
122.2168
  0
SEQEND
  0
POLYLINE
  8
LAYER_10
 40
0.1058
 41
0.1058
 66
1
 10
0
 20
0
 30
0
  0
VERTEX
  8
LAYER_10
 10
129.2603
 20
121.2725
  0
VERTEX
  8
LAYER_10
 10
129.4519
 20
121.3545
  0
VERTEX
  8
LAYER_10
 10
129.6162
 20
121.4779
  0
VERTEX
  8
LAYER_10
 10
129.753
 20
121.6281
  0
VERTEX
  8
LAYER_10
 10
129.8629
 20
121.8065
  0
VERTEX
  8
LAYER_10
 10
129.9311
 20
122.0115
  0
VERTEX
  8
LAYER_10
 10
129.9449
 20
122.2168
  0
SEQEND
  0
POLYLINE
  8
LAYER_10
 40
0.1058
 41
0.1058
 66
1
 10
0
 20
0
 30
0
  0
VERTEX
  8
LAYER_10
 10
129.2603
 20
121.2725
  0
VERTEX
  8
LAYER_10
 10
118.4607
 20
117.9466
  0
SEQEND
  0
POLYLINE
  8
LAYER_10
 40
0.1058
 41
0.1058
 66
1
 10
0
 20
0
 30
0
  0
VERTEX
  8
LAYER_10
 10
104.4443
 20
130.8403
  0
VERTEX
  8
LAYER_10
 10
104.4443
 20
130.8265
  0
SEQEND
  0
POLYLINE
  8
LAYER_10
 40
0.1058
 41
0.1058
 66
1
 10
0
 20
0
 30
0
  0
VERTEX
  8
LAYER_10
 10
127.5223
 20
138.4646
  0
VERTEX
  8
LAYER_10
 10
127.5223
 20
133.4957
  0
SEQEND
  0
POLYLINE
  8
LAYER_10
 40
0.1058
 41
0.1058
 66
1
 10
0
 20
0
 30
0
  0
VERTEX
  8
LAYER_10
 10
104.4443
 20
130.8403
  0
VERTEX
  8
LAYER_10
 10
104.4443
 20
130.8678
  0
VERTEX
  8
LAYER_10
 10
104.4581
 20
130.9088
  0
VERTEX
  8
LAYER_10
 10
104.4581
 20
130.936
  0
VERTEX
  8
LAYER_10
 10
104.4718
 20
130.9774
  0
VERTEX
  8
LAYER_10
 10
104.4856
 20
131.0046
  0
VERTEX
  8
LAYER_10
 10
104.4994
 20
131.0456
  0
VERTEX
  8
LAYER_10
 10
104.5263
 20
131.0731
  0
VERTEX
  8
LAYER_10
 10
104.5538
 20
131.0866
  0
VERTEX
  8
LAYER_10
 10
104.6089
 20
131.1414
  0
VERTEX
  8
LAYER_10
 10
104.6358
 20
131.1551
  0
VERTEX
  8
LAYER_10
 10
104.6772
 20
131.1689
  0
VERTEX
  8
LAYER_10
 10
104.7047
 20
131.1827
  0
VERTEX
  8
LAYER_10
 10
104.7457
 20
131.1961
  0
VERTEX
  8
LAYER_10
 10
128.2612
 20
131.1961
  0
VERTEX
  8
LAYER_10
 10
128.3432
 20
131.2096
  0
VERTEX
  8
LAYER_10
 10
128.3842
 20
131.2096
  0
VERTEX
  8
LAYER_10
 10
128.6171
 20
131.2509
  0
VERTEX
  8
LAYER_10
 10
128.6716
 20
131.2781
  0
VERTEX
  8
LAYER_10
 10
128.6991
 20
131.3057
 42
0.183912129
  0
VERTEX
  8
LAYER_10
 10
128.7949
 20
131.4287
  0
VERTEX
  8
LAYER_10
 10
128.7949
 20
139.3265
  0
SEQEND
  0
POLYLINE
  8
LAYER_10
 40
0.1058
 41
0.1058
 66
1
 10
0
 20
0
 30
0
  0
VERTEX
  8
LAYER_10
 10
129.9449
 20
130.1561
  0
VERTEX
  8
LAYER_10
 10
129.9449
 20
139.6142
  0
SEQEND
  0
POLYLINE
  8
LAYER_10
 40
0.1058
 41
0.1058
 66
1
 10
0
 20
0
 30
0
  0
VERTEX
  8
LAYER_10
 10
127.5223
 20
133.5367
  0
VERTEX
  8
LAYER_10
 10
127.5223
 20
133.4409
 42
-0.2592774313
  0
VERTEX
  8
LAYER_10
 10
127.2487
 20
133.2084
  0
VERTEX
  8
LAYER_10
 10
127.2208
 20
133.1943
  0
VERTEX
  8
LAYER_10
 10
105.9501
 20
133.1943
  0
VERTEX
  8
LAYER_10
 10
105.8402
 20
133.1808
  0
VERTEX
  8
LAYER_10
 10
105.7996
 20
133.1808
  0
VERTEX
  8
LAYER_10
 10
105.7445
 20
133.1671
  0
VERTEX
  8
LAYER_10
 10
105.69
 20
133.1671
  0
VERTEX
  8
LAYER_10
 10
105.6356
 20
133.1536
  0
VERTEX
  8
LAYER_10
 10
105.5805
 20
133.1398
  0
VERTEX
  8
LAYER_10
 10
105.4709
 20
133.0851
  0
VERTEX
  8
LAYER_10
 10
105.4165
 20
133.0713
  0
VERTEX
  8
LAYER_10
 10
105.3614
 20
133.0303
  0
VERTEX
  8
LAYER_10
 10
105.3066
 20
133.0027
 42
0.1388189304
  0
VERTEX
  8
LAYER_10
 10
104.9155
 20
132.5876
 42
0.1074201136
  0
VERTEX
  8
LAYER_10
 10
104.7434
 20
131.8231
 42
0.01474715419
  0
VERTEX
  8
LAYER_10
 10
104.7319
 20
131.5792
  0
VERTEX
  8
LAYER_10
 10
104.7319
 20
131.1961
  0
SEQEND
  0
POLYLINE
  8
LAYER_10
 40
0.1058
 41
0.1058
 66
1
 10
0
 20
0
 30
0
  0
VERTEX
  8
LAYER_10
 10
104.4443
 20
129.8412
  0
VERTEX
  8
LAYER_10
 10
104.4443
 20
130.8265
  0
SEQEND
  0
POLYLINE
  8
LAYER_10
 40
0.1058
 41
0.1058
 66
1
 10
0
 20
0
 30
0
  0
VERTEX
  8
LAYER_10
 10
105.8681
 20
133.1943
  0
VERTEX
  8
LAYER_10
 10
105.8681
 20
133.3042
 42
-0.1591372296
  0
VERTEX
  8
LAYER_10
 10
106.0721
 20
133.7628
 42
-0.1363250098
  0
VERTEX
  8
LAYER_10
 10
106.2374
 20
133.8516
  0
VERTEX
  8
LAYER_10
 10
126.5094
 20
133.8516
  0
VERTEX
  8
LAYER_10
 10
126.5363
 20
133.8654
  0
VERTEX
  8
LAYER_10
 10
126.5642
 20
133.8654
  0
VERTEX
  8
LAYER_10
 10
126.6183
 20
133.893
  0
VERTEX
  8
LAYER_10
 10
126.632
 20
133.9064
  0
VERTEX
  8
LAYER_10
 10
126.66
 20
133.9202
  0
VERTEX
  8
LAYER_10
 10
126.6872
 20
133.9474
  0
VERTEX
  8
LAYER_10
 10
126.701
 20
133.9749
  0
VERTEX
  8
LAYER_10
 10
126.7282
 20
134.0021
  0
VERTEX
  8
LAYER_10
 10
126.7557
 20
134.0569
  0
VERTEX
  8
LAYER_10
 10
126.7557
 20
134.0845
  0
VERTEX
  8
LAYER_10
 10
126.7692
 20
134.1117
  0
VERTEX
  8
LAYER_10
 10
126.7692
 20
134.1665
  0
SEQEND
  0
POLYLINE
  8
LAYER_10
 40
0.1058
 41
0.1058
 66
1
 10
0
 20
0
 30
0
  0
VERTEX
  8
LAYER_10
 10
128.7949
 20
139.3265
  0
VERTEX
  8
LAYER_10
 10
128.7949
 20
139.3541
 42
-0.3756050813
  0
VERTEX
  8
LAYER_10
 10
129.1373
 20
139.6142
  0
VERTEX
  8
LAYER_10
 10
129.1642
 20
139.6142
  0
SEQEND
  0
POLYLINE
  8
LAYER_10
 40
0.1058
 41
0.1058
 66
1
 10
0
 20
0
 30
0
  0
VERTEX
  8
LAYER_10
 10
119.1727
 20
118.1654
  0
VERTEX
  8
LAYER_10
 10
119.1727
 20
117.7138
  0
SEQEND
  0
POLYLINE
  8
LAYER_10
 40
0.1058
 41
0.1058
 66
1
 10
0
 20
0
 30
0
  0
VERTEX
  8
LAYER_10
 10
104.4443
 20
129.8412
  0
VERTEX
  8
LAYER_10
 10
129.6162
 20
129.8412
  0
SEQEND
  0
POLYLINE
  8
LAYER_10
 40
0.1058
 41
0.1058
 66
1
 10
0
 20
0
 30
0
  0
VERTEX
  8
LAYER_10
 10
126.7692
 20
138.2317
  0
VERTEX
  8
LAYER_10
 10
126.7692
 20
138.2593
  0
VERTEX
  8
LAYER_10
 10
126.783
 20
138.2727
  0
VERTEX
  8
LAYER_10
 10
126.7967
 20
138.2999
  0
VERTEX
  8
LAYER_10
 10
126.824
 20
138.3137
  0
VERTEX
  8
LAYER_10
 10
126.8515
 20
138.3413
  0
VERTEX
  8
LAYER_10
 10
126.8925
 20
138.3685
  0
VERTEX
  8
LAYER_10
 10
126.9473
 20
138.3823
  0
VERTEX
  8
LAYER_10
 10
126.9883
 20
138.3957
  0
VERTEX
  8
LAYER_10
 10
127.0565
 20
138.4095
  0
VERTEX
  8
LAYER_10
 10
127.1113
 20
138.437
  0
VERTEX
  8
LAYER_10
 10
127.1798
 20
138.437
  0
VERTEX
  8
LAYER_10
 10
127.2487
 20
138.4508
  0
VERTEX
  8
LAYER_10
 10
127.3166
 20
138.4646
  0
VERTEX
  8
LAYER_10
 10
127.5223
 20
138.4646
  0
SEQEND
  0
POLYLINE
  8
LAYER_10
 40
0.1058
 41
0.1058
 66
1
 10
0
 20
0
 30
0
  0
VERTEX
  8
LAYER_10
 10
126.7692
 20
138.2317
  0
VERTEX
  8
LAYER_10
 10
126.7692
 20
134.1665
  0
SEQEND
  0
POLYLINE
  8
LAYER_10
 40
0.1058
 41
0.1058
 66
1
 10
0
 20
0
 30
0
  0
VERTEX
  8
LAYER_10
 10
112.8765
 20
117.7138
  0
VERTEX
  8
LAYER_10
 10
112.3559
 20
122.0525
  0
SEQEND
  0
POLYLINE
  8
LAYER_10
 40
0.1058
 41
0.1058
 66
1
 10
0
 20
0
 30
0
  0
VERTEX
  8
LAYER_10
 10
107.0453
 20
129.8412
  0
VERTEX
  8
LAYER_10
 10
107.0722
 20
129.6768
  0
VERTEX
  8
LAYER_10
 10
107.1001
 20
129.5263
  0
VERTEX
  8
LAYER_10
 10
107.1411
 20
129.3619
 42
0.03556424896
  0
VERTEX
  8
LAYER_10
 10
107.7161
 20
127.2403
 42
0.04368944001
  0
VERTEX
  8
LAYER_10
 10
108.4366
 20
125.645
 42
0.06037708798
  0
VERTEX
  8
LAYER_10
 10
109.4955
 20
124.2016
  0
VERTEX
  8
LAYER_10
 10
109.6185
 20
124.0644
  0
VERTEX
  8
LAYER_10
 10
109.7552
 20
123.928
 42
0.09175898563
  0
VERTEX
  8
LAYER_10
 10
112.4139
 20
122.0273
 42
0.09443161525
  0
VERTEX
  8
LAYER_10
 10
115.4309
 20
121.2657
 42
0.004902617262
  0
VERTEX
  8
LAYER_10
 10
115.5864
 20
121.2588
  0
VERTEX
  8
LAYER_10
 10
116.161
 20
121.2588
 42
0.03870120496
  0
VERTEX
  8
LAYER_10
 10
118.0226
 20
121.5075
 42
0.04748376998
  0
VERTEX
  8
LAYER_10
 10
119.5923
 20
122.0025
 42
0.1034123316
  0
VERTEX
  8
LAYER_10
 10
121.9134
 20
123.6183
 42
0.04756984636
  0
VERTEX
  8
LAYER_10
 10
122.7967
 20
124.7686
 42
0.042134759
  0
VERTEX
  8
LAYER_10
 10
123.5824
 20
126.3011
 42
0.04719110501
  0
VERTEX
  8
LAYER_10
 10
124.5381
 20
129.485
  0
VERTEX
  8
LAYER_10
 10
124.6201
 20
129.8412
  0
SEQEND
  0
POLYLINE
  8
LAYER_10
 40
0.1058
 41
0.1058
 66
1
 10
0
 20
0
 30
0
  0
VERTEX
  8
LAYER_10
 10
119.1727
 20
117.7138
  0
VERTEX
  8
LAYER_10
 10
112.8765
 20
117.7138
  0
SEQEND
  0
POLYLINE
  8
LAYER_10
 40
0.1058
 41
0.1058
 66
1
 10
0
 20
0
 30
0
  0
VERTEX
  8
LAYER_10
 10
127.5223
 20
138.4646
  0
VERTEX
  8
LAYER_10
 10
127.5223
 20
138.519
 42
-0.1428892775
  0
VERTEX
  8
LAYER_10
 10
127.7112
 20
139.025
 42
-0.1474742344
  0
VERTEX
  8
LAYER_10
 10
128.1185
 20
139.3093
 42
-0.1290905424
  0
VERTEX
  8
LAYER_10
 10
128.7405
 20
139.3403
  0
VERTEX
  8
LAYER_10
 10
128.7949
 20
139.3265
  0
SEQEND
  0
POLYLINE
  8
LAYER_10
 40
0.1058
 41
0.1058
 66
1
 10
0
 20
0
 30
0
  0
VERTEX
  8
LAYER_10
 10
129.9449
 20
139.6142
  0
VERTEX
  8
LAYER_10
 10
129.1642
 20
139.6142
  0
SEQEND
  0
POLYLINE
  8
LAYER_10
 40
0.1058
 41
0.1058
 66
1
 10
0
 20
0
 30
0
  0
VERTEX
  8
LAYER_10
 10
129.9445
 20
140.6135
  0
VERTEX
  8
LAYER_10
 10
129.9445
 20
143.2824
  0
SEQEND
  0
POLYLINE
  8
LAYER_10
 40
0.1058
 41
0.1058
 66
1
 10
0
 20
0
 30
0
  0
VERTEX
  8
LAYER_10
 10
104.4446
 20
131.8121
  0
VERTEX
  8
LAYER_10
 10
104.4446
 20
143.2824
  0
SEQEND
  0
POLYLINE
  8
LAYER_10
 40
0.1058
 41
0.1058
 66
1
 10
0
 20
0
 30
0
  0
VERTEX
  8
LAYER_10
 10
127.9602
 20
142.7897
  0
VERTEX
  8
LAYER_10
 10
106.429
 20
142.7897
  0
SEQEND
  0
POLYLINE
  8
LAYER_10
 40
0.05
 41
0.05
 66
1
 10
0
 20
0
 30
0
  0
VERTEX
  8
LAYER_10
 10
127.9602
 20
143.1182
  0
VERTEX
  8
LAYER_10
 10
127.9602
 20
142.4613
  0
VERTEX
  8
LAYER_10
 10
129.9445
 20
142.7897
  0
SEQEND
  0
POLYLINE
  8
LAYER_10
 40
0.05
 41
0.05
 66
1
 10
0
 20
0
 30
0
  0
VERTEX
  8
LAYER_10
 10
106.429
 20
143.1182
  0
VERTEX
  8
LAYER_10
 10
106.429
 20
142.4613
  0
VERTEX
  8
LAYER_10
 10
104.4446
 20
142.7897
  0
SEQEND
  0
POLYLINE
  8
LAYER_10
 40
0.1058
 41
0.1058
 66
1
 10
0
 20
0
 30
0
  0
VERTEX
  8
LAYER_10
 10
130.9439
 20
139.6142
  0
VERTEX
  8
LAYER_10
 10
136.0878
 20
139.6142
  0
SEQEND
  0
POLYLINE
  8
LAYER_10
 40
0.1058
 41
0.1058
 66
1
 10
0
 20
0
 30
0
  0
VERTEX
  8
LAYER_10
 10
120.158
 20
117.7138
  0
VERTEX
  8
LAYER_10
 10
136.0878
 20
117.7138
  0
SEQEND
  0
POLYLINE
  8
LAYER_10
 40
0.1058
 41
0.1058
 66
1
 10
0
 20
0
 30
0
  0
VERTEX
  8
LAYER_10
 10
135.5948
 20
137.6433
  0
VERTEX
  8
LAYER_10
 10
135.5948
 20
119.6988
  0
SEQEND
  0
POLYLINE
  8
LAYER_10
 40
0.05
 41
0.05
 66
1
 10
0
 20
0
 30
0
  0
VERTEX
  8
LAYER_10
 10
135.2662
 20
137.6433
  0
VERTEX
  8
LAYER_10
 10
135.9235
 20
137.6433
  0
VERTEX
  8
LAYER_10
 10
135.5948
 20
139.6142
  0
SEQEND
  0
POLYLINE
  8
LAYER_10
 40
0.05
 41
0.05
 66
1
 10
0
 20
0
 30
0
  0
VERTEX
  8
LAYER_10
 10
135.2662
 20
119.6988
  0
VERTEX
  8
LAYER_10
 10
135.9235
 20
119.6988
  0
VERTEX
  8
LAYER_10
 10
135.5948
 20
117.7138
  0
SEQEND
  0
POLYLINE
  8
LAYER_10
 40
0.1058
 41
0.1058
 66
1
 10
0
 20
0
 30
0
  0
VERTEX
  8
LAYER_10
 10
12.572
 20
122.4632
  0
VERTEX
  8
LAYER_10
 10
13.0648
 20
122.4632
  0
SEQEND
  0
POLYLINE
  8
LAYER_10
 40
0.1058
 41
0.1058
 66
1
 10
0
 20
0
 30
0
  0
VERTEX
  8
LAYER_10
 10
27.9295
 20
117.7138
  0
VERTEX
  8
LAYER_10
 10
13.0648
 20
117.7138
  0
SEQEND
  0
POLYLINE
  8
LAYER_10
 40
0.1058
 41
0.1058
 66
1
 10
0
 20
0
 30
0
  0
VERTEX
  8
LAYER_10
 10
13.5711
 20
124.4482
  0
VERTEX
  8
LAYER_10
 10
13.5711
 20
126.4326
  0
SEQEND
  0
POLYLINE
  8
LAYER_10
 40
0.1058
 41
0.1058
 66
1
 10
0
 20
0
 30
0
  0
VERTEX
  8
LAYER_10
 10
13.5711
 20
115.729
  0
VERTEX
  8
LAYER_10
 10
13.5711
 20
113.7443
  0
SEQEND
  0
POLYLINE
  8
LAYER_10
 40
0.05
 41
0.05
 66
1
 10
0
 20
0
 30
0
  0
VERTEX
  8
LAYER_10
 10
13.229
 20
124.4482
  0
VERTEX
  8
LAYER_10
 10
13.8996
 20
124.4482
  0
VERTEX
  8
LAYER_10
 10
13.5711
 20
122.4632
  0
SEQEND
  0
POLYLINE
  8
LAYER_10
 40
0.05
 41
0.05
 66
1
 10
0
 20
0
 30
0
  0
VERTEX
  8
LAYER_10
 10
13.229
 20
115.729
  0
VERTEX
  8
LAYER_10
 10
13.8996
 20
115.729
  0
VERTEX
  8
LAYER_10
 10
13.5711
 20
117.7138
  0
SEQEND
  0
POLYLINE
  8
LAYER_10
 40
0.1058
 41
0.1058
 66
1
 10
0
 20
0
 30
0
 70
1
  0
VERTEX
  8
LAYER_10
 10
76.7814
 20
168.5227
  0
VERTEX
  8
LAYER_10
 10
76.754
 20
168.9608
  0
VERTEX
  8
LAYER_10
 10
76.6718
 20
169.3852
 42
0.06454242165
  0
VERTEX
  8
LAYER_10
 10
76.2872
 20
170.27
 42
0.2974917828
  0
VERTEX
  8
LAYER_10
 10
72.9792
 20
171.8105
 42
0.1417934637
  0
VERTEX
  8
LAYER_10
 10
71.2778
 20
171.0405
 42
0.1465406214
  0
VERTEX
  8
LAYER_10
 10
70.2766
 20
169.446
 42
0.03320869701
  0
VERTEX
  8
LAYER_10
 10
70.17
 20
168.9608
  0
VERTEX
  8
LAYER_10
 10
70.1427
 20
168.5227
  0
VERTEX
  8
LAYER_10
 10
70.17
 20
168.0983
 42
0.135621753
  0
VERTEX
  8
LAYER_10
 10
70.9317
 20
166.367
 42
0.1484993439
  0
VERTEX
  8
LAYER_10
 10
72.519
 20
165.349
 42
0.207600055
  0
VERTEX
  8
LAYER_10
 10
75.2471
 20
165.7194
 42
0.1469276836
  0
VERTEX
  8
LAYER_10
 10
76.4715
 20
167.134
 42
0.03674710368
  0
VERTEX
  8
LAYER_10
 10
76.6718
 20
167.6742
  0
VERTEX
  8
LAYER_10
 10
76.754
 20
168.0983
  0
SEQEND
  0
POLYLINE
  8
LAYER_10
 40
0.1058
 41
0.1058
 66
1
 10
0
 20
0
 30
0
  0
VERTEX
  8
LAYER_10
 10
63.5453
 20
169.1661
  0
VERTEX
  8
LAYER_10
 10
68.2675
 20
169.1661
  0
VERTEX
  8
LAYER_10
 10
70.2934
 20
172.7522
  0
SEQEND
  0
POLYLINE
  8
LAYER_10
 40
0.05
 41
0.05
 66
1
 10
0
 20
0
 30
0
  0
VERTEX
  8
LAYER_10
 10
70.0059
 20
172.9164
  0
VERTEX
  8
LAYER_10
 10
70.5809
 20
172.6017
  0
VERTEX
  8
LAYER_10
 10
71.2652
 20
174.4907
  0
SEQEND
  0
POLYLINE
  8
LAYER_10
 40
0.1058
 41
0.1058
 66
1
 10
0
 20
0
 30
0
 70
1
  0
VERTEX
  8
LAYER_10
 10
76.4939
 20
92.9525
  0
VERTEX
  8
LAYER_10
 10
76.4665
 20
93.3497
  0
VERTEX
  8
LAYER_10
 10
76.3845
 20
93.7328
 42
0.1517503673
  0
VERTEX
  8
LAYER_10
 10
75.3419
 20
95.3262
 42
0.1559634771
  0
VERTEX
  8
LAYER_10
 10
73.6314
 20
95.9636
 42
0.1527428238
  0
VERTEX
  8
LAYER_10
 10
71.8235
 20
95.4976
 42
0.1563703584
  0
VERTEX
  8
LAYER_10
 10
70.6834
 20
94.1276
 42
0.05887247885
  0
VERTEX
  8
LAYER_10
 10
70.4713
 20
93.3497
  0
VERTEX
  8
LAYER_10
 10
70.4439
 20
92.9525
  0
VERTEX
  8
LAYER_10
 10
70.4713
 20
92.5556
 42
0.07742100312
  0
VERTEX
  8
LAYER_10
 10
70.7595
 20
91.5885
 42
0.2340851542
  0
VERTEX
  8
LAYER_10
 10
72.8333
 20
89.997
 42
0.1513152971
  0
VERTEX
  8
LAYER_10
 10
74.7009
 20
90.1862
 42
0.227315765
  0
VERTEX
  8
LAYER_10
 10
76.3845
 20
92.1587
  0
VERTEX
  8
LAYER_10
 10
76.4665
 20
92.5556
  0
SEQEND
  0
POLYLINE
  8
LAYER_10
 40
0.1058
 41
0.1058
 66
1
 10
0
 20
0
 30
0
  0
VERTEX
  8
LAYER_10
 10
76.754
 20
105.8602
  0
VERTEX
  8
LAYER_10
 10
76.754
 20
93.8971
  0
SEQEND
  0
POLYLINE
  8
LAYER_10
 40
0.1058
 41
0.1058
 66
1
 10
0
 20
0
 30
0
  0
VERTEX
  8
LAYER_10
 10
84.3508
 20
85.3147
  0
VERTEX
  8
LAYER_10
 10
78.465
 20
85.3147
  0
VERTEX
  8
LAYER_10
 10
76.2064
 20
88.7639
  0
SEQEND
  0
POLYLINE
  8
LAYER_10
 40
0.05
 41
0.05
 66
1
 10
0
 20
0
 30
0
  0
VERTEX
  8
LAYER_10
 10
76.4802
 20
88.9421
  0
VERTEX
  8
LAYER_10
 10
75.9327
 20
88.5862
  0
VERTEX
  8
LAYER_10
 10
75.1251
 20
90.4203
  0
SEQEND
  0
POLYLINE
  8
LAYER_10
 40
0.05
 41
0.05
 66
1
 10
0
 20
0
 30
0
  0
VERTEX
  8
LAYER_10
 10
22.4818
 20
113.6899
  0
VERTEX
  8
LAYER_10
 10
22.2355
 20
113.662
  0
VERTEX
  8
LAYER_10
 10
22.2355
 20
113.621
 42
0.1885711549
  0
VERTEX
  8
LAYER_10
 10
22.4135
 20
113.2379
  0
VERTEX
  8
LAYER_10
 10
23.0704
 20
113.2379
  0
VERTEX
  8
LAYER_10
 10
23.0294
 20
113.2379
 42
-0.1858350888
  0
VERTEX
  8
LAYER_10
 10
22.6056
 20
113.3939
 42
-0.1270572042
  0
VERTEX
  8
LAYER_10
 10
22.5094
 20
113.58
  0
VERTEX
  8
LAYER_10
 10
22.4956
 20
113.6348
  0
SEQEND
  0
POLYLINE
  8
LAYER_10
 40
0.05
 41
0.05
 66
1
 10
0
 20
0
 30
0
  0
VERTEX
  8
LAYER_10
 10
23.618
 20
114.8123
  0
VERTEX
  8
LAYER_10
 10
23.0158
 20
114.8123
  0
VERTEX
  8
LAYER_10
 10
23.0704
 20
114.8123
 42
-0.3565533938
  0
VERTEX
  8
LAYER_10
 10
23.4949
 20
114.4971
  0
VERTEX
  8
LAYER_10
 10
23.4949
 20
114.4285
  0
VERTEX
  8
LAYER_10
 10
23.755
 20
114.4561
  0
VERTEX
  8
LAYER_10
 10
23.7412
 20
114.5109
  0
VERTEX
  8
LAYER_10
 10
23.7412
 20
114.5656
  0
VERTEX
  8
LAYER_10
 10
23.7274
 20
114.62
  0
VERTEX
  8
LAYER_10
 10
23.7002
 20
114.6752
  0
VERTEX
  8
LAYER_10
 10
23.6866
 20
114.7162
  0
VERTEX
  8
LAYER_10
 10
23.659
 20
114.771
  0
VERTEX
  8
LAYER_10
 10
23.6454
 20
114.771
  0
SEQEND
  0
POLYLINE
  8
LAYER_10
 40
0.05
 41
0.05
 66
1
 10
0
 20
0
 30
0
  0
VERTEX
  8
LAYER_10
 10
23.0021
 20
115.0445
  0
VERTEX
  8
LAYER_10
 10
22.9063
 20
115.0445
 42
0.1626250932
  0
VERTEX
  8
LAYER_10
 10
22.4811
 20
114.8718
 42
0.1924971877
  0
VERTEX
  8
LAYER_10
 10
22.31
 20
114.5325
 42
0.2058633078
  0
VERTEX
  8
LAYER_10
 10
22.4345
 20
114.1897
 42
0.1074034342
  0
VERTEX
  8
LAYER_10
 10
22.6736
 20
114.0316
  0
VERTEX
  8
LAYER_10
 10
22.7831
 20
114.0041
  0
VERTEX
  8
LAYER_10
 10
22.8379
 20
113.9772
  0
VERTEX
  8
LAYER_10
 10
22.9747
 20
113.9496
  0
VERTEX
  8
LAYER_10
 10
23.0294
 20
113.9359
  0
VERTEX
  8
LAYER_10
 10
23.098
 20
113.9221
  0
VERTEX
  8
LAYER_10
 10
23.1664
 20
113.8949
  0
VERTEX
  8
LAYER_10
 10
23.2211
 20
113.8814
  0
VERTEX
  8
LAYER_10
 10
23.2622
 20
113.8676
 42
-0.1107323409
  0
VERTEX
  8
LAYER_10
 10
23.4675
 20
113.7719
  0
VERTEX
  8
LAYER_10
 10
23.5085
 20
113.7305
  0
VERTEX
  8
LAYER_10
 10
23.5085
 20
113.7167
  0
VERTEX
  8
LAYER_10
 10
23.5359
 20
113.6761
  0
VERTEX
  8
LAYER_10
 10
23.5633
 20
113.5662
  0
VERTEX
  8
LAYER_10
 10
23.5633
 20
113.5527
  0
VERTEX
  8
LAYER_10
 10
23.5359
 20
113.4432
  0
VERTEX
  8
LAYER_10
 10
23.4811
 20
113.3609
 42
-0.1211779322
  0
VERTEX
  8
LAYER_10
 10
23.2348
 20
113.2516
  0
VERTEX
  8
LAYER_10
 10
23.18
 20
113.2379
  0
VERTEX
  8
LAYER_10
 10
22.4135
 20
113.2379
  0
VERTEX
  8
LAYER_10
 10
22.4408
 20
113.1969
  0
VERTEX
  8
LAYER_10
 10
22.4818
 20
113.1559
  0
VERTEX
  8
LAYER_10
 10
22.5368
 20
113.1283
 42
0.1447280186
  0
VERTEX
  8
LAYER_10
 10
23.0463
 20
113.0011
 42
0.1397951437
  0
VERTEX
  8
LAYER_10
 10
23.3579
 20
113.0463
  0
VERTEX
  8
LAYER_10
 10
23.4675
 20
113.0732
  0
VERTEX
  8
LAYER_10
 10
23.4811
 20
113.0873
 42
0.1285960737
  0
VERTEX
  8
LAYER_10
 10
23.7274
 20
113.2926
  0
VERTEX
  8
LAYER_10
 10
23.7412
 20
113.3337
  0
VERTEX
  8
LAYER_10
 10
23.7686
 20
113.3884
 42
0.1601962594
  0
VERTEX
  8
LAYER_10
 10
23.796
 20
113.7305
  0
VERTEX
  8
LAYER_10
 10
23.7824
 20
113.7856
  0
VERTEX
  8
LAYER_10
 10
23.7274
 20
113.8676
  0
VERTEX
  8
LAYER_10
 10
23.7274
 20
113.8814
  0
VERTEX
  8
LAYER_10
 10
23.7002
 20
113.9083
 42
0.1625519375
  0
VERTEX
  8
LAYER_10
 10
23.253
 20
114.1485
 42
0.03544285382
  0
VERTEX
  8
LAYER_10
 10
22.8379
 20
114.2507
  0
VERTEX
  8
LAYER_10
 10
22.7831
 20
114.2645
  0
VERTEX
  8
LAYER_10
 10
22.7419
 20
114.2914
  0
VERTEX
  8
LAYER_10
 10
22.7009
 20
114.3055
  0
VERTEX
  8
LAYER_10
 10
22.6599
 20
114.3193
  0
VERTEX
  8
LAYER_10
 10
22.6462
 20
114.3465
  0
VERTEX
  8
LAYER_10
 10
22.6188
 20
114.3741
  0
VERTEX
  8
LAYER_10
 10
22.5642
 20
114.4561
  0
VERTEX
  8
LAYER_10
 10
22.5642
 20
114.5518
  0
VERTEX
  8
LAYER_10
 10
22.5778
 20
114.5928
 42
-0.2716148355
  0
VERTEX
  8
LAYER_10
 10
22.8379
 20
114.7982
  0
VERTEX
  8
LAYER_10
 10
22.8927
 20
114.8123
  0
VERTEX
  8
LAYER_10
 10
23.618
 20
114.8123
  0
VERTEX
  8
LAYER_10
 10
23.577
 20
114.8529
 42
0.1841157466
  0
VERTEX
  8
LAYER_10
 10
23.1254
 20
115.0445
  0
VERTEX
  8
LAYER_10
 10
23.0704
 20
115.0445
  0
SEQEND
  0
POLYLINE
  8
LAYER_10
 40
0.05
 41
0.05
 66
1
 10
0
 20
0
 30
0
  0
VERTEX
  8
LAYER_10
 10
25.6165
 20
115.0173
  0
VERTEX
  8
LAYER_10
 10
24.1792
 20
115.0173
  0
VERTEX
  8
LAYER_10
 10
24.1792
 20
113.0325
  0
VERTEX
  8
LAYER_10
 10
25.6575
 20
113.0325
  0
VERTEX
  8
LAYER_10
 10
25.6575
 20
113.2651
  0
VERTEX
  8
LAYER_10
 10
24.4394
 20
113.2651
  0
VERTEX
  8
LAYER_10
 10
24.4394
 20
113.9359
  0
VERTEX
  8
LAYER_10
 10
25.5342
 20
113.9359
  0
VERTEX
  8
LAYER_10
 10
25.5342
 20
114.1687
  0
VERTEX
  8
LAYER_10
 10
24.4394
 20
114.1687
  0
VERTEX
  8
LAYER_10
 10
24.4394
 20
114.7844
  0
VERTEX
  8
LAYER_10
 10
25.6165
 20
114.7844
  0
SEQEND
  0
POLYLINE
  8
LAYER_10
 40
0.05
 41
0.05
 66
1
 10
0
 20
0
 30
0
  0
VERTEX
  8
LAYER_10
 10
27.4233
 20
113.7305
  0
VERTEX
  8
LAYER_10
 10
27.4233
 20
113.7167
 42
-0.1721814327
  0
VERTEX
  8
LAYER_10
 10
27.1937
 20
113.3346
 42
-0.1354858914
  0
VERTEX
  8
LAYER_10
 10
26.9031
 20
113.2241
  0
VERTEX
  8
LAYER_10
 10
26.8347
 20
113.2241
  0
VERTEX
  8
LAYER_10
 10
27.4095
 20
113.1969
 42
0.165792828
  0
VERTEX
  8
LAYER_10
 10
27.6696
 20
113.6072
  0
VERTEX
  8
LAYER_10
 10
27.6834
 20
113.662
  0
SEQEND
  0
POLYLINE
  8
LAYER_10
 40
0.05
 41
0.05
 66
1
 10
0
 20
0
 30
0
  0
VERTEX
  8
LAYER_10
 10
27.4507
 20
114.8257
  0
VERTEX
  8
LAYER_10
 10
26.8621
 20
114.8257
  0
VERTEX
  8
LAYER_10
 10
26.8895
 20
114.8257
 42
-0.3155328761
  0
VERTEX
  8
LAYER_10
 10
27.3684
 20
114.4699
  0
VERTEX
  8
LAYER_10
 10
27.3959
 20
114.4151
  0
VERTEX
  8
LAYER_10
 10
27.6422
 20
114.4699
  0
VERTEX
  8
LAYER_10
 10
27.6422
 20
114.4971
 42
0.09417511984
  0
VERTEX
  8
LAYER_10
 10
27.5191
 20
114.7434
  0
VERTEX
  8
LAYER_10
 10
27.4781
 20
114.7844
  0
SEQEND
  0
POLYLINE
  8
LAYER_10
 40
0.05
 41
0.05
 66
1
 10
0
 20
0
 30
0
  0
VERTEX
  8
LAYER_10
 10
26.8621
 20
115.0445
  0
VERTEX
  8
LAYER_10
 10
26.8073
 20
115.0445
 42
0.1415210026
  0
VERTEX
  8
LAYER_10
 10
26.2903
 20
114.8566
 42
0.1431184249
  0
VERTEX
  8
LAYER_10
 10
25.993
 20
114.4484
 42
0.2422466596
  0
VERTEX
  8
LAYER_10
 10
26.1569
 20
113.3178
 42
0.3120810174
  0
VERTEX
  8
LAYER_10
 10
27.0476
 20
113.0236
 42
0.0615805755
  0
VERTEX
  8
LAYER_10
 10
27.3822
 20
113.1693
  0
VERTEX
  8
LAYER_10
 10
27.4095
 20
113.1969
  0
VERTEX
  8
LAYER_10
 10
26.8347
 20
113.2241
  0
VERTEX
  8
LAYER_10
 10
26.8209
 20
113.2241
 42
-0.381209183
  0
VERTEX
  8
LAYER_10
 10
26.2219
 20
113.805
 42
-0.03881906571
  0
VERTEX
  8
LAYER_10
 10
26.2051
 20
113.9772
  0
VERTEX
  8
LAYER_10
 10
26.2051
 20
114.0998
 42
-0.1134693329
  0
VERTEX
  8
LAYER_10
 10
26.3009
 20
114.5109
  0
VERTEX
  8
LAYER_10
 10
26.3283
 20
114.5518
  0
VERTEX
  8
LAYER_10
 10
26.3693
 20
114.6066
  0
VERTEX
  8
LAYER_10
 10
26.3967
 20
114.6476
  0
VERTEX
  8
LAYER_10
 10
26.4378
 20
114.6752
  0
VERTEX
  8
LAYER_10
 10
26.4788
 20
114.7162
  0
VERTEX
  8
LAYER_10
 10
26.4924
 20
114.7296
  0
VERTEX
  8
LAYER_10
 10
26.5472
 20
114.7434
  0
VERTEX
  8
LAYER_10
 10
26.5882
 20
114.771
  0
VERTEX
  8
LAYER_10
 10
26.643
 20
114.7844
  0
VERTEX
  8
LAYER_10
 10
26.684
 20
114.7982
  0
VERTEX
  8
LAYER_10
 10
26.7388
 20
114.8123
  0
VERTEX
  8
LAYER_10
 10
26.8073
 20
114.8257
  0
VERTEX
  8
LAYER_10
 10
27.4507
 20
114.8257
  0
VERTEX
  8
LAYER_10
 10
27.4095
 20
114.8667
 42
0.118314307
  0
VERTEX
  8
LAYER_10
 10
26.9853
 20
115.0445
  0
VERTEX
  8
LAYER_10
 10
26.9305
 20
115.0445
  0
SEQEND
  0
POLYLINE
  8
LAYER_10
 40
0.05
 41
0.05
 66
1
 10
0
 20
0
 30
0
  0
VERTEX
  8
LAYER_10
 10
29.4216
 20
115.0173
  0
VERTEX
  8
LAYER_10
 10
27.8612
 20
115.0173
  0
VERTEX
  8
LAYER_10
 10
27.8612
 20
114.7844
  0
VERTEX
  8
LAYER_10
 10
28.5045
 20
114.7844
  0
VERTEX
  8
LAYER_10
 10
28.5045
 20
113.0325
  0
VERTEX
  8
LAYER_10
 10
28.7783
 20
113.0325
  0
VERTEX
  8
LAYER_10
 10
28.7783
 20
114.7844
  0
VERTEX
  8
LAYER_10
 10
29.4216
 20
114.7844
  0
SEQEND
  0
POLYLINE
  8
LAYER_10
 40
0.05
 41
0.05
 66
1
 10
0
 20
0
 30
0
 70
1
  0
VERTEX
  8
LAYER_10
 10
29.9964
 20
113.0325
  0
VERTEX
  8
LAYER_10
 10
29.9964
 20
115.0173
  0
VERTEX
  8
LAYER_10
 10
29.7365
 20
115.0173
  0
VERTEX
  8
LAYER_10
 10
29.7365
 20
113.0325
  0
SEQEND
  0
POLYLINE
  8
LAYER_10
 40
0.05
 41
0.05
 66
1
 10
0
 20
0
 30
0
  0
VERTEX
  8
LAYER_10
 10
30.7357
 20
114.8391
  0
VERTEX
  8
LAYER_10
 10
30.6946
 20
114.8123
 42
0.252140488
  0
VERTEX
  8
LAYER_10
 10
30.4247
 20
113.7152
 42
0.1361768376
  0
VERTEX
  8
LAYER_10
 10
30.7161
 20
113.2308
 42
0.2909947463
  0
VERTEX
  8
LAYER_10
 10
31.6877
 20
113.0642
 42
0.05444703777
  0
VERTEX
  8
LAYER_10
 10
31.9266
 20
113.1831
  0
VERTEX
  8
LAYER_10
 10
31.9675
 20
113.2241
  0
VERTEX
  8
LAYER_10
 10
31.2694
 20
113.2241
  0
VERTEX
  8
LAYER_10
 10
31.2148
 20
113.2379
  0
VERTEX
  8
LAYER_10
 10
31.1736
 20
113.2379
  0
VERTEX
  8
LAYER_10
 10
31.119
 20
113.2516
  0
VERTEX
  8
LAYER_10
 10
31.0643
 20
113.2789
  0
VERTEX
  8
LAYER_10
 10
31.0231
 20
113.2926
  0
VERTEX
  8
LAYER_10
 10
30.9821
 20
113.3199
  0
VERTEX
  8
LAYER_10
 10
30.9273
 20
113.3609
  0
VERTEX
  8
LAYER_10
 10
30.8863
 20
113.3884
  0
VERTEX
  8
LAYER_10
 10
30.8589
 20
113.4294
  0
VERTEX
  8
LAYER_10
 10
30.8451
 20
113.4432
  0
VERTEX
  8
LAYER_10
 10
30.8177
 20
113.4842
 42
-0.1671400567
  0
VERTEX
  8
LAYER_10
 10
30.6672
 20
113.8676
  0
VERTEX
  8
LAYER_10
 10
30.6672
 20
113.9359
  0
VERTEX
  8
LAYER_10
 10
30.6536
 20
113.9906
  0
VERTEX
  8
LAYER_10
 10
30.6672
 20
114.0454
 42
-0.1522358634
  0
VERTEX
  8
LAYER_10
 10
30.7882
 20
114.541
 42
-0.2068551104
  0
VERTEX
  8
LAYER_10
 10
31.2284
 20
114.8123
  0
VERTEX
  8
LAYER_10
 10
31.2832
 20
114.8257
  0
VERTEX
  8
LAYER_10
 10
31.3379
 20
114.8257
  0
SEQEND
  0
POLYLINE
  8
LAYER_10
 40
0.05
 41
0.05
 66
1
 10
0
 20
0
 30
0
  0
VERTEX
  8
LAYER_10
 10
31.3379
 20
115.0445
  0
VERTEX
  8
LAYER_10
 10
31.3242
 20
115.0445
 42
0.1421380291
  0
VERTEX
  8
LAYER_10
 10
30.7767
 20
114.8801
  0
VERTEX
  8
LAYER_10
 10
30.7357
 20
114.8391
  0
VERTEX
  8
LAYER_10
 10
31.3379
 20
114.8257
 42
-0.1736810925
  0
VERTEX
  8
LAYER_10
 10
31.7296
 20
114.6968
 42
-0.1556030589
  0
VERTEX
  8
LAYER_10
 10
31.9792
 20
114.302
 42
-0.1306377376
  0
VERTEX
  8
LAYER_10
 10
31.986
 20
113.7559
 42
-0.1581731333
  0
VERTEX
  8
LAYER_10
 10
31.7448
 20
113.3575
 42
-0.158334927
  0
VERTEX
  8
LAYER_10
 10
31.3927
 20
113.2241
  0
VERTEX
  8
LAYER_10
 10
31.3379
 20
113.2241
  0
VERTEX
  8
LAYER_10
 10
31.9675
 20
113.2241
  0
VERTEX
  8
LAYER_10
 10
31.995
 20
113.2651
  0
VERTEX
  8
LAYER_10
 10
32.0361
 20
113.2926
 42
0.1360085364
  0
VERTEX
  8
LAYER_10
 10
32.2673
 20
113.8048
 42
0.08734688983
  0
VERTEX
  8
LAYER_10
 10
32.2551
 20
114.3055
  0
VERTEX
  8
LAYER_10
 10
32.2414
 20
114.3603
  0
VERTEX
  8
LAYER_10
 10
32.2276
 20
114.4013
 42
0.288700325
  0
VERTEX
  8
LAYER_10
 10
31.5021
 20
115.0307
  0
VERTEX
  8
LAYER_10
 10
31.4475
 20
115.0445
  0
VERTEX
  8
LAYER_10
 10
31.3927
 20
115.0445
  0
SEQEND
  0
POLYLINE
  8
LAYER_10
 40
0.05
 41
0.05
 66
1
 10
0
 20
0
 30
0
  0
VERTEX
  8
LAYER_10
 10
34.1714
 20
115.0173
  0
VERTEX
  8
LAYER_10
 10
33.9249
 20
115.0173
  0
VERTEX
  8
LAYER_10
 10
33.9249
 20
113.457
  0
VERTEX
  8
LAYER_10
 10
33.9113
 20
113.0325
  0
VERTEX
  8
LAYER_10
 10
34.1714
 20
113.0325
  0
SEQEND
  0
POLYLINE
  8
LAYER_10
 40
0.05
 41
0.05
 66
1
 10
0
 20
0
 30
0
  0
VERTEX
  8
LAYER_10
 10
32.8846
 20
115.0173
  0
VERTEX
  8
LAYER_10
 10
32.6109
 20
115.0173
  0
VERTEX
  8
LAYER_10
 10
32.6109
 20
113.0325
  0
VERTEX
  8
LAYER_10
 10
32.8709
 20
113.0325
  0
VERTEX
  8
LAYER_10
 10
32.8709
 20
114.5928
  0
SEQEND
  0
POLYLINE
  8
LAYER_10
 40
0.05
 41
0.05
 66
1
 10
0
 20
0
 30
0
  0
VERTEX
  8
LAYER_10
 10
32.8846
 20
115.0173
  0
VERTEX
  8
LAYER_10
 10
32.8709
 20
114.5928
  0
VERTEX
  8
LAYER_10
 10
33.9113
 20
113.0325
  0
VERTEX
  8
LAYER_10
 10
33.9249
 20
113.457
  0
SEQEND
  0
POLYLINE
  8
LAYER_10
 40
0.05
 41
0.05
 66
1
 10
0
 20
0
 30
0
  0
VERTEX
  8
LAYER_10
 10
36.2107
 20
115.0173
  0
VERTEX
  8
LAYER_10
 10
35.9232
 20
115.0173
  0
VERTEX
  8
LAYER_10
 10
35.1705
 20
113.0325
  0
VERTEX
  8
LAYER_10
 10
35.4444
 20
113.0325
  0
VERTEX
  8
LAYER_10
 10
35.6633
 20
113.6348
  0
VERTEX
  8
LAYER_10
 10
36.4844
 20
113.6348
  0
VERTEX
  8
LAYER_10
 10
35.7317
 20
113.8401
  0
VERTEX
  8
LAYER_10
 10
35.9506
 20
114.4285
 42
0.0006705934778
  0
VERTEX
  8
LAYER_10
 10
36.0466
 20
114.7572
  0
VERTEX
  8
LAYER_10
 10
36.0602
 20
114.7982
  0
SEQEND
  0
POLYLINE
  8
LAYER_10
 40
0.05
 41
0.05
 66
1
 10
0
 20
0
 30
0
  0
VERTEX
  8
LAYER_10
 10
36.2107
 20
115.0173
  0
VERTEX
  8
LAYER_10
 10
36.0602
 20
114.7982
  0
VERTEX
  8
LAYER_10
 10
36.074
 20
114.771
  0
VERTEX
  8
LAYER_10
 10
36.1971
 20
114.3875
  0
VERTEX
  8
LAYER_10
 10
36.4024
 20
113.8401
  0
VERTEX
  8
LAYER_10
 10
35.7317
 20
113.8401
  0
VERTEX
  8
LAYER_10
 10
36.4844
 20
113.6348
  0
VERTEX
  8
LAYER_10
 10
36.7173
 20
113.0325
  0
VERTEX
  8
LAYER_10
 10
37.0184
 20
113.0325
  0
SEQEND
  0
POLYLINE
  8
LAYER_10
 40
0.05
 41
0.05
 66
1
 10
0
 20
0
 30
0
 70
1
  0
VERTEX
  8
LAYER_10
 10
37.8533
 20
113.621
  0
VERTEX
  8
LAYER_10
 10
37.8533
 20
113.8676
  0
VERTEX
  8
LAYER_10
 10
37.1004
 20
113.8676
  0
VERTEX
  8
LAYER_10
 10
37.1004
 20
113.621
  0
SEQEND
  0
POLYLINE
  8
LAYER_10
 40
0.05
 41
0.05
 66
1
 10
0
 20
0
 30
0
  0
VERTEX
  8
LAYER_10
 10
38.9757
 20
115.0173
  0
VERTEX
  8
LAYER_10
 10
38.6883
 20
115.0173
  0
VERTEX
  8
LAYER_10
 10
37.9355
 20
113.0325
  0
VERTEX
  8
LAYER_10
 10
38.2092
 20
113.0325
  0
VERTEX
  8
LAYER_10
 10
38.4283
 20
113.6348
  0
VERTEX
  8
LAYER_10
 10
39.2495
 20
113.6348
  0
VERTEX
  8
LAYER_10
 10
38.4967
 20
113.8401
  0
VERTEX
  8
LAYER_10
 10
38.7156
 20
114.4285
 42
-0.0001637381082
  0
VERTEX
  8
LAYER_10
 10
38.8114
 20
114.7572
  0
VERTEX
  8
LAYER_10
 10
38.8252
 20
114.7982
  0
SEQEND
  0
POLYLINE
  8
LAYER_10
 40
0.05
 41
0.05
 66
1
 10
0
 20
0
 30
0
  0
VERTEX
  8
LAYER_10
 10
38.9757
 20
115.0173
  0
VERTEX
  8
LAYER_10
 10
38.8252
 20
114.7982
  0
VERTEX
  8
LAYER_10
 10
38.8388
 20
114.771
  0
VERTEX
  8
LAYER_10
 10
38.962
 20
114.3875
  0
VERTEX
  8
LAYER_10
 10
39.1673
 20
113.8401
  0
VERTEX
  8
LAYER_10
 10
38.4967
 20
113.8401
  0
VERTEX
  8
LAYER_10
 10
39.2495
 20
113.6348
  0
VERTEX
  8
LAYER_10
 10
39.4822
 20
113.0325
  0
VERTEX
  8
LAYER_10
 10
39.7833
 20
113.0325
  0
SEQEND
  0
POLYLINE
  8
LAYER_10
 40
0.1058
 41
0.1058
 66
1
 10
0
 20
0
 30
0
  0
VERTEX
  8
LAYER_10
 10
95.0409
 20
174.3949
  0
VERTEX
  8
LAYER_10
 10
95.4788
 20
174.3949
  0
SEQEND
  0
POLYLINE
  8
LAYER_10
 40
0.1058
 41
0.1058
 66
1
 10
0
 20
0
 30
0
  0
VERTEX
  8
LAYER_10
 10
95.0409
 20
178.2821
  0
VERTEX
  8
LAYER_10
 10
95.4788
 20
178.2821
  0
SEQEND
  0
POLYLINE
  8
LAYER_10
 40
0.1058
 41
0.1058
 66
1
 10
0
 20
0
 30
0
  0
VERTEX
  8
LAYER_10
 10
94.9723
 20
172.4102
  0
VERTEX
  8
LAYER_10
 10
94.9723
 20
170.4253
  0
SEQEND
  0
POLYLINE
  8
LAYER_10
 40
0.1058
 41
0.1058
 66
1
 10
0
 20
0
 30
0
  0
VERTEX
  8
LAYER_10
 10
94.9723
 20
180.2667
  0
VERTEX
  8
LAYER_10
 10
94.9723
 20
182.238
  0
SEQEND
  0
POLYLINE
  8
LAYER_10
 40
0.05
 41
0.05
 66
1
 10
0
 20
0
 30
0
  0
VERTEX
  8
LAYER_10
 10
94.644
 20
172.4102
  0
VERTEX
  8
LAYER_10
 10
95.3148
 20
172.4102
  0
VERTEX
  8
LAYER_10
 10
94.9723
 20
174.3949
  0
SEQEND
  0
POLYLINE
  8
LAYER_10
 40
0.05
 41
0.05
 66
1
 10
0
 20
0
 30
0
  0
VERTEX
  8
LAYER_10
 10
94.644
 20
180.2667
  0
VERTEX
  8
LAYER_10
 10
95.3148
 20
180.2667
  0
VERTEX
  8
LAYER_10
 10
94.9723
 20
178.2821
  0
SEQEND
  0
POLYLINE
  8
LAYER_10
 40
0.1058
 41
0.1058
 66
1
 10
0
 20
0
 30
0
  0
VERTEX
  8
LAYER_10
 10
89.908
 20
175.1066
  0
VERTEX
  8
LAYER_10
 10
88.279
 20
176.8176
  0
SEQEND
  0
POLYLINE
  8
LAYER_10
 40
0.1058
 41
0.1058
 66
1
 10
0
 20
0
 30
0
  0
VERTEX
  8
LAYER_10
 10
86.8007
 20
172.1363
  0
VERTEX
  8
LAYER_10
 10
85.1721
 20
173.8336
  0
SEQEND
  0
POLYLINE
  8
LAYER_10
 40
0.1058
 41
0.1058
 66
1
 10
0
 20
0
 30
0
  0
VERTEX
  8
LAYER_10
 10
90.0582
 20
177.8303
  0
VERTEX
  8
LAYER_10
 10
91.4818
 20
179.1992
  0
SEQEND
  0
POLYLINE
  8
LAYER_10
 40
0.1058
 41
0.1058
 66
1
 10
0
 20
0
 30
0
  0
VERTEX
  8
LAYER_10
 10
84.0769
 20
172.1089
  0
VERTEX
  8
LAYER_10
 10
82.6397
 20
170.7401
  0
SEQEND
  0
POLYLINE
  8
LAYER_10
 40
0.05
 41
0.05
 66
1
 10
0
 20
0
 30
0
  0
VERTEX
  8
LAYER_10
 10
89.826
 20
178.0632
  0
VERTEX
  8
LAYER_10
 10
90.2773
 20
177.584
  0
VERTEX
  8
LAYER_10
 10
88.6213
 20
176.448
  0
SEQEND
  0
POLYLINE
  8
LAYER_10
 40
0.05
 41
0.05
 66
1
 10
0
 20
0
 30
0
  0
VERTEX
  8
LAYER_10
 10
83.8442
 20
172.3552
  0
VERTEX
  8
LAYER_10
 10
84.3096
 20
171.8763
  0
VERTEX
  8
LAYER_10
 10
85.5142
 20
173.4776
  0
SEQEND
  0
TEXT
  8
LAYER_10
 10
11.7547
 20
119.1772
 11
11.7547
 21
119.1772
 40
2.6656
 41
0.5
  1
48
  0
ENDSEC
  0
EOF
