  0
SECTION
  2
HEADER
  9
$ACADVER
  1
AC1009
  9
$LUNITS
 70
2
  9
$LUPREC
 70
4
  9
$LTSCALE
 40
1.0
  9
$EXTMIN
 10
-30.3177
 20
33.3285
 30
0
  9
$EXTMAX
 10
251.6749
 20
230.337
 30
0
  0
ENDSEC
  0
SECTION
  2
TABLES
  0
TABLE
  2
LTYPE
 70
256
  0
LTYPE
  2
AIGENLINE001
 70
64
  3
generate AI->DXF Converter
 72
65
 73
2
 40
1.6439
 49
0.822
 49
-0.822
  0
LTYPE
  2
AIGENLINE002
 70
64
  3
generate AI->DXF Converter
 72
65
 73
2
 40
1.5495
 49
0.7747
 49
-0.7747
  0
LTYPE
  2
AIGENLINE003
 70
64
  3
generate AI->DXF Converter
 72
65
 73
2
 40
1.4846
 49
0.7423
 49
-0.7423
  0
ENDTAB
  0
TABLE
  2
LAYER
 70
2
  0
LAYER
  2
LAYER_1
 70
64
 62
7
  6
CONTINUOUS
  0
LAYER
  2
LAYER_2
 70
64
 62
7
  6
CONTINUOUS
  0
ENDTAB
  0
TABLE
  2
STYLE
 70
6
  0
STYLE
  2
STANDARD
 70
0
 40
0
 50
0
 71
0
 41
0
 42
0
  3
TXT
  4
BIGFONT
  0
ENDTAB
  0
ENDSEC
  0
SECTION
  2
BLOCKS
  0
BLOCK
  8
LAYER_2
  2
AIGNBL02040009
 70
64
 10
0
 20
0
 30
0
  3
AIGNBL02040009
  0
POLYLINE
  8
LAYER_2
 40
0.05
 41
0.05
 66
1
 10
0
 20
0
 30
0
 70
1
  0
VERTEX
  8
LAYER_2
 10
146.7545
 20
39.1418
  0
VERTEX
  8
LAYER_2
 10
146.2656
 20
37.9567
  0
VERTEX
  8
LAYER_2
 10
145.6376
 20
37.9567
  0
VERTEX
  8
LAYER_2
 10
147.2372
 20
41.7225
  0
VERTEX
  8
LAYER_2
 10
147.9703
 20
41.7225
  0
VERTEX
  8
LAYER_2
 10
149.5768
 20
37.9567
  0
VERTEX
  8
LAYER_2
 10
148.9267
 20
37.9567
  0
VERTEX
  8
LAYER_2
 10
148.424
 20
39.1418
  0
SEQEND
  0
POLYLINE
  8
LAYER_2
 40
0.05
 41
0.05
 66
1
 10
0
 20
0
 30
0
 70
1
  0
VERTEX
  8
LAYER_2
 10
148.2983
 20
39.5207
  0
VERTEX
  8
LAYER_2
 10
147.8373
 20
40.6056
 42
-0.02317247198
  0
VERTEX
  8
LAYER_2
 10
147.5927
 20
41.2926
  0
VERTEX
  8
LAYER_2
 10
147.5789
 20
41.2926
 42
-0.02064481114
  0
VERTEX
  8
LAYER_2
 10
147.3412
 20
40.6101
  0
VERTEX
  8
LAYER_2
 10
146.8806
 20
39.5207
  0
SEQEND
  0
ENDBLK
  0
BLOCK
  8
LAYER_2
  2
AIGNBL0204000A
 70
64
 10
0
 20
0
 30
0
  3
AIGNBL0204000A
  0
POLYLINE
  8
LAYER_2
 40
0.05
 41
0.05
 66
1
 10
0
 20
0
 30
0
 70
1
  0
VERTEX
  8
LAYER_2
 10
153.942
 20
37.4034
 42
-0.01520763512
  0
VERTEX
  8
LAYER_2
 10
152.1399
 20
37.8395
 42
0.09160443264
  0
VERTEX
  8
LAYER_2
 10
151.8533
 20
37.895
 42
-0.09256808484
  0
VERTEX
  8
LAYER_2
 10
150.8994
 20
38.0977
 42
-0.09799469934
  0
VERTEX
  8
LAYER_2
 10
150.2621
 20
38.5324
 42
-0.1630918382
  0
VERTEX
  8
LAYER_2
 10
149.7964
 20
39.5259
 42
-0.0316951694
  0
VERTEX
  8
LAYER_2
 10
149.7793
 20
39.7998
 42
-0.1055313794
  0
VERTEX
  8
LAYER_2
 10
149.9533
 20
40.6417
 42
-0.1619874109
  0
VERTEX
  8
LAYER_2
 10
150.7418
 20
41.4867
 42
-0.09224146328
  0
VERTEX
  8
LAYER_2
 10
151.5409
 20
41.7524
 42
-0.03717154931
  0
VERTEX
  8
LAYER_2
 10
151.9725
 20
41.7838
 42
-0.09530639066
  0
VERTEX
  8
LAYER_2
 10
152.9361
 20
41.6062
 42
-0.1001950085
  0
VERTEX
  8
LAYER_2
 10
153.5732
 20
41.1834
 42
-0.1611155306
  0
VERTEX
  8
LAYER_2
 10
154.0599
 20
40.1825
 42
-0.03590167283
  0
VERTEX
  8
LAYER_2
 10
154.0815
 20
39.8784
 42
-0.1066761192
  0
VERTEX
  8
LAYER_2
 10
153.9051
 20
39.0236
 42
-0.2183970027
  0
VERTEX
  8
LAYER_2
 10
152.7953
 20
38.0897
 42
-0.006706711403
  0
VERTEX
  8
LAYER_2
 10
152.7407
 20
38.0738
  0
VERTEX
  8
LAYER_2
 10
152.7407
 20
38.0514
 42
0.01533555045
  0
VERTEX
  8
LAYER_2
 10
154.117
 20
37.8113
  0
SEQEND
  0
POLYLINE
  8
LAYER_2
 40
0.05
 41
0.05
 66
1
 10
0
 20
0
 30
0
 70
1
  0
VERTEX
  8
LAYER_2
 10
153.4394
 20
39.857
 42
0.1175610784
  0
VERTEX
  8
LAYER_2
 10
153.257
 20
40.6254
 42
0.1170135141
  0
VERTEX
  8
LAYER_2
 10
152.8315
 20
41.1234
 42
0.1200044572
  0
VERTEX
  8
LAYER_2
 10
152.2186
 20
41.3675
 42
0.03774262044
  0
VERTEX
  8
LAYER_2
 10
151.9511
 20
41.3873
 42
0.1153139376
  0
VERTEX
  8
LAYER_2
 10
151.2089
 20
41.2226
 42
0.1853550912
  0
VERTEX
  8
LAYER_2
 10
150.5507
 20
40.4882
 42
0.09859892291
  0
VERTEX
  8
LAYER_2
 10
150.4287
 20
39.8122
 42
0.1178359247
  0
VERTEX
  8
LAYER_2
 10
150.5964
 20
39.0734
 42
0.2866694251
  0
VERTEX
  8
LAYER_2
 10
151.9232
 20
38.2912
 42
0.1188197759
  0
VERTEX
  8
LAYER_2
 10
152.6722
 20
38.4633
 42
0.1796740134
  0
VERTEX
  8
LAYER_2
 10
153.3126
 20
39.18
 42
0.09850052237
  0
SEQEND
  0
ENDBLK
  0
BLOCK
  8
LAYER_2
  2
AIGNBL0204000B
 70
64
 10
0
 20
0
 30
0
  3
AIGNBL0204000B
  0
POLYLINE
  8
LAYER_2
 40
0.05
 41
0.05
 66
1
 10
0
 20
0
 30
0
 70
1
  0
VERTEX
  8
LAYER_2
 10
155.4089
 20
41.7225
  0
VERTEX
  8
LAYER_2
 10
155.4089
 20
39.4932
 42
0.1220213404
  0
VERTEX
  8
LAYER_2
 10
155.569
 20
38.7775
 42
0.2218709818
  0
VERTEX
  8
LAYER_2
 10
156.2104
 20
38.3206
 42
0.05223876895
  0
VERTEX
  8
LAYER_2
 10
156.5055
 20
38.2912
 42
0.1302821267
  0
VERTEX
  8
LAYER_2
 10
157.1748
 20
38.452
 42
0.1509367336
  0
VERTEX
  8
LAYER_2
 10
157.526
 20
38.8454
 42
0.1174732039
  0
VERTEX
  8
LAYER_2
 10
157.651
 20
39.4932
  0
VERTEX
  8
LAYER_2
 10
157.651
 20
41.7225
  0
VERTEX
  8
LAYER_2
 10
158.2656
 20
41.7225
  0
VERTEX
  8
LAYER_2
 10
158.2656
 20
39.5266
 42
-0.1106199636
  0
VERTEX
  8
LAYER_2
 10
158.0961
 20
38.708
 42
-0.1822316276
  0
VERTEX
  8
LAYER_2
 10
157.4057
 20
38.0637
 42
-0.09768689614
  0
VERTEX
  8
LAYER_2
 10
156.6028
 20
37.8972
 42
-0.01000776787
  0
VERTEX
  8
LAYER_2
 10
156.4845
 20
37.895
 42
-0.09899539667
  0
VERTEX
  8
LAYER_2
 10
155.612
 20
38.0554
 42
-0.120955925
  0
VERTEX
  8
LAYER_2
 10
155.1093
 20
38.4366
 42
-0.1193006487
  0
VERTEX
  8
LAYER_2
 10
154.8407
 20
39.0316
 42
-0.05319923583
  0
VERTEX
  8
LAYER_2
 10
154.7943
 20
39.5045
  0
VERTEX
  8
LAYER_2
 10
154.7943
 20
41.7225
  0
SEQEND
  0
ENDBLK
  0
BLOCK
  8
LAYER_2
  2
AIGNBL0204000C
 70
64
 10
0
 20
0
 30
0
  3
AIGNBL0204000C
  0
POLYLINE
  8
LAYER_2
 40
0.05
 41
0.05
 66
1
 10
0
 20
0
 30
0
 70
1
  0
VERTEX
  8
LAYER_2
 10
160.0119
 20
39.1418
  0
VERTEX
  8
LAYER_2
 10
159.5227
 20
37.9567
  0
VERTEX
  8
LAYER_2
 10
158.8947
 20
37.9567
  0
VERTEX
  8
LAYER_2
 10
160.4939
 20
41.7225
  0
VERTEX
  8
LAYER_2
 10
161.227
 20
41.7225
  0
VERTEX
  8
LAYER_2
 10
162.8335
 20
37.9567
  0
VERTEX
  8
LAYER_2
 10
162.1841
 20
37.9567
  0
VERTEX
  8
LAYER_2
 10
161.6814
 20
39.1418
  0
SEQEND
  0
POLYLINE
  8
LAYER_2
 40
0.05
 41
0.05
 66
1
 10
0
 20
0
 30
0
 70
1
  0
VERTEX
  8
LAYER_2
 10
161.5553
 20
39.5207
  0
VERTEX
  8
LAYER_2
 10
161.094
 20
40.6056
 42
-0.02227599701
  0
VERTEX
  8
LAYER_2
 10
160.8494
 20
41.2926
  0
VERTEX
  8
LAYER_2
 10
160.8357
 20
41.2926
 42
-0.0208222547
  0
VERTEX
  8
LAYER_2
 10
160.5983
 20
40.6101
  0
VERTEX
  8
LAYER_2
 10
160.1373
 20
39.5207
  0
SEQEND
  0
ENDBLK
  0
BLOCK
  8
LAYER_2
  2
AIGNBL0204000D
 70
64
 10
0
 20
0
 30
0
  3
AIGNBL0204000D
  0
POLYLINE
  8
LAYER_2
 40
0.05
 41
0.05
 66
1
 10
0
 20
0
 30
0
 70
1
  0
VERTEX
  8
LAYER_2
 10
163.8742
 20
41.6777
 42
-0.03334485223
  0
VERTEX
  8
LAYER_2
 10
165.0411
 20
41.7508
 42
-0.08844478427
  0
VERTEX
  8
LAYER_2
 10
166.0871
 20
41.5858
 42
-0.06037505309
  0
VERTEX
  8
LAYER_2
 10
166.3609
 20
41.4379
 42
-0.2472514979
  0
VERTEX
  8
LAYER_2
 10
166.7726
 20
40.6497
 42
-0.1483298328
  0
VERTEX
  8
LAYER_2
 10
166.6029
 20
40.0554
 42
-0.07223194904
  0
VERTEX
  8
LAYER_2
 10
166.4095
 20
39.8456
 42
-0.1209372404
  0
VERTEX
  8
LAYER_2
 10
165.7228
 20
39.517
 42
-0.06224269186
  0
VERTEX
  8
LAYER_2
 10
164.9708
 20
39.4319
 42
-0.05738783264
  0
VERTEX
  8
LAYER_2
 10
164.4823
 20
39.4653
  0
VERTEX
  8
LAYER_2
 10
164.4823
 20
37.9567
  0
VERTEX
  8
LAYER_2
 10
163.8742
 20
37.9567
  0
SEQEND
  0
POLYLINE
  8
LAYER_2
 40
0.05
 41
0.05
 66
1
 10
0
 20
0
 30
0
 70
1
  0
VERTEX
  8
LAYER_2
 10
164.4823
 20
39.8622
 42
0.05012782438
  0
VERTEX
  8
LAYER_2
 10
164.9846
 20
39.8229
 42
0.1135299982
  0
VERTEX
  8
LAYER_2
 10
165.7697
 20
39.9822
 42
0.1653556145
  0
VERTEX
  8
LAYER_2
 10
166.1074
 20
40.3302
 42
0.1044590446
  0
VERTEX
  8
LAYER_2
 10
166.1656
 20
40.6273
 42
0.2826437488
  0
VERTEX
  8
LAYER_2
 10
165.8147
 20
41.2103
 42
0.0629694601
  0
VERTEX
  8
LAYER_2
 10
165.549
 20
41.3107
 42
0.06259589917
  0
VERTEX
  8
LAYER_2
 10
165.0552
 20
41.3649
 42
0.05192366909
  0
VERTEX
  8
LAYER_2
 10
164.4823
 20
41.3257
  0
SEQEND
  0
ENDBLK
  0
BLOCK
  8
LAYER_2
  2
AIGNBL0204000E
 70
64
 10
0
 20
0
 30
0
  3
AIGNBL0204000E
  0
POLYLINE
  8
LAYER_2
 40
0.05
 41
0.05
 66
1
 10
0
 20
0
 30
0
 70
1
  0
VERTEX
  8
LAYER_2
 10
168.3246
 20
41.4207
 42
-0.3048675751
  0
VERTEX
  8
LAYER_2
 10
168.1582
 20
41.1661
 42
-0.1151020929
  0
VERTEX
  8
LAYER_2
 10
167.9329
 20
41.1189
 42
-0.2442513348
  0
VERTEX
  8
LAYER_2
 10
167.6028
 20
41.2794
 42
-0.1394546152
  0
VERTEX
  8
LAYER_2
 10
167.5626
 20
41.4207
 42
-0.287439772
  0
VERTEX
  8
LAYER_2
 10
167.7346
 20
41.6803
 42
-0.1179404017
  0
VERTEX
  8
LAYER_2
 10
167.9467
 20
41.7277
 42
-0.2416274379
  0
VERTEX
  8
LAYER_2
 10
168.2814
 20
41.5719
 42
-0.1426378456
  0
SEQEND
  0
POLYLINE
  8
LAYER_2
 40
0.05
 41
0.05
 66
1
 10
0
 20
0
 30
0
 70
1
  0
VERTEX
  8
LAYER_2
 10
167.639
 20
37.9567
  0
VERTEX
  8
LAYER_2
 10
167.639
 20
40.6607
  0
VERTEX
  8
LAYER_2
 10
168.2537
 20
40.6607
  0
VERTEX
  8
LAYER_2
 10
168.2537
 20
37.9567
  0
SEQEND
  0
ENDBLK
  0
BLOCK
  8
LAYER_2
  2
AIGNBL0204000F
 70
64
 10
0
 20
0
 30
0
  3
AIGNBL0204000F
  0
POLYLINE
  8
LAYER_2
 40
0.05
 41
0.05
 66
1
 10
0
 20
0
 30
0
 70
1
  0
VERTEX
  8
LAYER_2
 10
170.1254
 20
39.1418
  0
VERTEX
  8
LAYER_2
 10
169.6372
 20
37.9567
  0
VERTEX
  8
LAYER_2
 10
169.0081
 20
37.9567
  0
VERTEX
  8
LAYER_2
 10
170.6077
 20
41.7225
  0
VERTEX
  8
LAYER_2
 10
171.3415
 20
41.7225
  0
VERTEX
  8
LAYER_2
 10
172.9479
 20
37.9567
  0
VERTEX
  8
LAYER_2
 10
172.2982
 20
37.9567
  0
VERTEX
  8
LAYER_2
 10
171.7955
 20
39.1418
  0
SEQEND
  0
POLYLINE
  8
LAYER_2
 40
0.05
 41
0.05
 66
1
 10
0
 20
0
 30
0
 70
1
  0
VERTEX
  8
LAYER_2
 10
171.6695
 20
39.5207
  0
VERTEX
  8
LAYER_2
 10
171.2085
 20
40.6056
 42
-0.02430767271
  0
VERTEX
  8
LAYER_2
 10
170.9646
 20
41.2926
  0
VERTEX
  8
LAYER_2
 10
170.9498
 20
41.2926
 42
-0.02034719794
  0
VERTEX
  8
LAYER_2
 10
170.7128
 20
40.6101
  0
VERTEX
  8
LAYER_2
 10
170.2518
 20
39.5207
  0
SEQEND
  0
ENDBLK
  0
BLOCK
  8
LAYER_2
  2
AIGNBL02030008
 70
64
 10
0
 20
0
 30
0
  3
AIGNBL02030008
  0
INSERT
  8
LAYER_2
  2
AIGNBL02040009
 10
0
 20
0
 30
0
  0
INSERT
  8
LAYER_2
  2
AIGNBL0204000A
 10
0
 20
0
 30
0
  0
INSERT
  8
LAYER_2
  2
AIGNBL0204000B
 10
0
 20
0
 30
0
  0
INSERT
  8
LAYER_2
  2
AIGNBL0204000C
 10
0
 20
0
 30
0
  0
INSERT
  8
LAYER_2
  2
AIGNBL0204000D
 10
0
 20
0
 30
0
  0
INSERT
  8
LAYER_2
  2
AIGNBL0204000E
 10
0
 20
0
 30
0
  0
INSERT
  8
LAYER_2
  2
AIGNBL0204000F
 10
0
 20
0
 30
0
  0
ENDBLK
  0
BLOCK
  8
LAYER_2
  2
AIGNBL02030011
 70
64
 10
0
 20
0
 30
0
  3
AIGNBL02030011
  0
POLYLINE
  8
LAYER_2
 40
0.05
 41
0.05
 66
1
 10
0
 20
0
 30
0
 70
1
  0
VERTEX
  8
LAYER_2
 10
145.7475
 20
36.0574
  0
VERTEX
  8
LAYER_2
 10
146.3008
 20
36.0574
  0
VERTEX
  8
LAYER_2
 10
146.3008
 20
35.9637
  0
VERTEX
  8
LAYER_2
 10
145.6424
 20
35.9637
  0
VERTEX
  8
LAYER_2
 10
145.6424
 20
36.9969
  0
VERTEX
  8
LAYER_2
 10
146.2832
 20
36.9969
  0
VERTEX
  8
LAYER_2
 10
146.2832
 20
36.9035
  0
VERTEX
  8
LAYER_2
 10
145.7475
 20
36.9035
  0
VERTEX
  8
LAYER_2
 10
145.7475
 20
36.549
  0
VERTEX
  8
LAYER_2
 10
146.2481
 20
36.549
  0
VERTEX
  8
LAYER_2
 10
146.2481
 20
36.4557
  0
VERTEX
  8
LAYER_2
 10
145.7475
 20
36.4557
  0
SEQEND
  0
ENDBLK
  0
BLOCK
  8
LAYER_2
  2
AIGNBL02030012
 70
64
 10
0
 20
0
 30
0
  3
AIGNBL02030012
  0
POLYLINE
  8
LAYER_2
 40
0.05
 41
0.05
 66
1
 10
0
 20
0
 30
0
 70
1
  0
VERTEX
  8
LAYER_2
 10
147.4404
 20
36.117
  0
VERTEX
  8
LAYER_2
 10
147.4432
 20
36.117
  0
VERTEX
  8
LAYER_2
 10
147.4432
 20
36.9969
  0
VERTEX
  8
LAYER_2
 10
147.5483
 20
36.9969
  0
VERTEX
  8
LAYER_2
 10
147.5483
 20
35.9637
  0
VERTEX
  8
LAYER_2
 10
147.4174
 20
35.9637
  0
VERTEX
  8
LAYER_2
 10
146.8162
 20
36.8525
  0
VERTEX
  8
LAYER_2
 10
146.8127
 20
36.8525
  0
VERTEX
  8
LAYER_2
 10
146.8127
 20
35.9637
  0
VERTEX
  8
LAYER_2
 10
146.708
 20
35.9637
  0
VERTEX
  8
LAYER_2
 10
146.708
 20
36.9969
  0
VERTEX
  8
LAYER_2
 10
146.8393
 20
36.9969
  0
SEQEND
  0
ENDBLK
  0
BLOCK
  8
LAYER_2
  2
AIGNBL02030013
 70
64
 10
0
 20
0
 30
0
  3
AIGNBL02030013
  0
POLYLINE
  8
LAYER_2
 40
0.05
 41
0.05
 66
1
 10
0
 20
0
 30
0
 70
1
  0
VERTEX
  8
LAYER_2
 10
148.0213
 20
36.1756
 42
0.1557655154
  0
VERTEX
  8
LAYER_2
 10
148.0757
 20
36.0725
 42
0.1918235184
  0
VERTEX
  8
LAYER_2
 10
148.1891
 20
36.0309
  0
VERTEX
  8
LAYER_2
 10
148.2783
 20
36.0505
  0
VERTEX
  8
LAYER_2
 10
148.3344
 20
36.1039
  0
VERTEX
  8
LAYER_2
 10
148.3634
 20
36.1804
  0
VERTEX
  8
LAYER_2
 10
148.3717
 20
36.27
  0
VERTEX
  8
LAYER_2
 10
148.3717
 20
36.9969
  0
VERTEX
  8
LAYER_2
 10
148.4767
 20
36.9969
  0
VERTEX
  8
LAYER_2
 10
148.4767
 20
36.2614
  0
VERTEX
  8
LAYER_2
 10
148.4654
 20
36.1535
 42
-0.0973308998
  0
VERTEX
  8
LAYER_2
 10
148.424
 20
36.0485
 42
-0.1149355521
  0
VERTEX
  8
LAYER_2
 10
148.3393
 20
35.9689
 42
-0.1249341208
  0
VERTEX
  8
LAYER_2
 10
148.2004
 20
35.9375
 42
-0.1793665557
  0
VERTEX
  8
LAYER_2
 10
148.0158
 20
35.9974
 42
-0.1772363953
  0
VERTEX
  8
LAYER_2
 10
147.9234
 20
36.149
  0
SEQEND
  0
ENDBLK
  0
BLOCK
  8
LAYER_2
  2
AIGNBL02030014
 70
64
 10
0
 20
0
 30
0
  3
AIGNBL02030014
  0
POLYLINE
  8
LAYER_2
 40
0.05
 41
0.05
 66
1
 10
0
 20
0
 30
0
 70
1
  0
VERTEX
  8
LAYER_2
 10
149.965
 20
36.4805
 42
-0.1019307791
  0
VERTEX
  8
LAYER_2
 10
149.924
 20
36.2631
 42
-0.1000112985
  0
VERTEX
  8
LAYER_2
 10
149.8113
 20
36.0915
 42
-0.09646612644
  0
VERTEX
  8
LAYER_2
 10
149.6405
 20
35.9785
 42
-0.09758594962
  0
VERTEX
  8
LAYER_2
 10
149.4265
 20
35.9375
 42
-0.1000844711
  0
VERTEX
  8
LAYER_2
 10
149.2129
 20
35.9785
 42
-0.09954994557
  0
VERTEX
  8
LAYER_2
 10
149.042
 20
36.0915
 42
-0.09699237735
  0
VERTEX
  8
LAYER_2
 10
148.9287
 20
36.2631
 42
-0.09653980076
  0
VERTEX
  8
LAYER_2
 10
148.8881
 20
36.4805
 42
-0.1004051845
  0
VERTEX
  8
LAYER_2
 10
148.9287
 20
36.6978
 42
-0.0998654539
  0
VERTEX
  8
LAYER_2
 10
149.042
 20
36.8694
 42
-0.09851519288
  0
VERTEX
  8
LAYER_2
 10
149.2129
 20
36.9824
 42
-0.09768823248
  0
VERTEX
  8
LAYER_2
 10
149.4265
 20
37.0234
 42
-0.1000514256
  0
VERTEX
  8
LAYER_2
 10
149.6405
 20
36.9824
 42
-0.09863053528
  0
VERTEX
  8
LAYER_2
 10
149.8113
 20
36.8694
 42
-0.09807107579
  0
VERTEX
  8
LAYER_2
 10
149.924
 20
36.6978
 42
-0.0978256893
  0
SEQEND
  0
POLYLINE
  8
LAYER_2
 40
0.05
 41
0.05
 66
1
 10
0
 20
0
 30
0
 70
1
  0
VERTEX
  8
LAYER_2
 10
149.8541
 20
36.4798
 42
0.08634913196
  0
VERTEX
  8
LAYER_2
 10
149.8251
 20
36.6517
 42
0.09649608129
  0
VERTEX
  8
LAYER_2
 10
149.7404
 20
36.795
 42
0.1032857511
  0
VERTEX
  8
LAYER_2
 10
149.6053
 20
36.8932
 42
0.1061320656
  0
VERTEX
  8
LAYER_2
 10
149.4265
 20
36.93
 42
0.1115874499
  0
VERTEX
  8
LAYER_2
 10
149.2478
 20
36.8932
 42
0.1058584166
  0
VERTEX
  8
LAYER_2
 10
149.113
 20
36.795
 42
0.09787799956
  0
VERTEX
  8
LAYER_2
 10
149.0283
 20
36.6517
 42
0.08491464556
  0
VERTEX
  8
LAYER_2
 10
148.999
 20
36.4798
 42
0.08693146424
  0
VERTEX
  8
LAYER_2
 10
149.0283
 20
36.3079
 42
0.1009797617
  0
VERTEX
  8
LAYER_2
 10
149.113
 20
36.1649
 42
0.09998489394
  0
VERTEX
  8
LAYER_2
 10
149.2478
 20
36.0674
 42
0.1061678446
  0
VERTEX
  8
LAYER_2
 10
149.4265
 20
36.0309
 42
0.1126980581
  0
VERTEX
  8
LAYER_2
 10
149.6053
 20
36.0674
 42
0.1036982708
  0
VERTEX
  8
LAYER_2
 10
149.7404
 20
36.1649
 42
0.09370250368
  0
VERTEX
  8
LAYER_2
 10
149.8251
 20
36.3079
 42
0.08466662837
  0
SEQEND
  0
ENDBLK
  0
BLOCK
  8
LAYER_2
  2
AIGNBL02030015
 70
64
 10
0
 20
0
 30
0
  3
AIGNBL02030015
  0
POLYLINE
  8
LAYER_2
 40
0.05
 41
0.05
 66
1
 10
0
 20
0
 30
0
 70
1
  0
VERTEX
  8
LAYER_2
 10
150.7398
 20
35.9637
  0
VERTEX
  8
LAYER_2
 10
150.6351
 20
35.9637
  0
VERTEX
  8
LAYER_2
 10
150.6351
 20
36.4091
  0
VERTEX
  8
LAYER_2
 10
150.2482
 20
36.9969
  0
VERTEX
  8
LAYER_2
 10
150.3795
 20
36.9969
  0
VERTEX
  8
LAYER_2
 10
150.6905
 20
36.4967
  0
VERTEX
  8
LAYER_2
 10
151.0041
 20
36.9969
  0
VERTEX
  8
LAYER_2
 10
151.1263
 20
36.9969
  0
VERTEX
  8
LAYER_2
 10
150.7398
 20
36.4091
  0
SEQEND
  0
ENDBLK
  0
BLOCK
  8
LAYER_2
  2
AIGNBL02030016
 70
64
 10
0
 20
0
 30
0
  3
AIGNBL02030016
  0
POLYLINE
  8
LAYER_2
 40
0.05
 41
0.05
 66
1
 10
0
 20
0
 30
0
 70
1
  0
VERTEX
  8
LAYER_2
 10
152.0314
 20
36.9969
  0
VERTEX
  8
LAYER_2
 10
152.339
 20
36.9969
  0
VERTEX
  8
LAYER_2
 10
152.4575
 20
36.9845
  0
VERTEX
  8
LAYER_2
 10
152.5643
 20
36.9421
 42
-0.1168262011
  0
VERTEX
  8
LAYER_2
 10
152.6422
 20
36.8611
 42
-0.1230288266
  0
VERTEX
  8
LAYER_2
 10
152.6718
 20
36.733
 42
-0.1795449175
  0
VERTEX
  8
LAYER_2
 10
152.6219
 20
36.5907
 42
-0.170141964
  0
VERTEX
  8
LAYER_2
 10
152.4885
 20
36.5111
  0
VERTEX
  8
LAYER_2
 10
152.4885
 20
36.5084
 42
-0.1719890535
  0
VERTEX
  8
LAYER_2
 10
152.6553
 20
36.4302
 42
-0.2018462152
  0
VERTEX
  8
LAYER_2
 10
152.7214
 20
36.2496
 42
-0.1247085485
  0
VERTEX
  8
LAYER_2
 10
152.6942
 20
36.1325
 42
-0.1153486961
  0
VERTEX
  8
LAYER_2
 10
152.6181
 20
36.0419
 42
-0.08656795839
  0
VERTEX
  8
LAYER_2
 10
152.4972
 20
35.9844
 42
-0.06557363107
  0
VERTEX
  8
LAYER_2
 10
152.3373
 20
35.9637
  0
VERTEX
  8
LAYER_2
 10
152.0314
 20
35.9637
  0
SEQEND
  0
POLYLINE
  8
LAYER_2
 40
0.05
 41
0.05
 66
1
 10
0
 20
0
 30
0
 70
1
  0
VERTEX
  8
LAYER_2
 10
152.1364
 20
36.5445
  0
VERTEX
  8
LAYER_2
 10
152.348
 20
36.5445
  0
VERTEX
  8
LAYER_2
 10
152.4248
 20
36.5535
  0
VERTEX
  8
LAYER_2
 10
152.4951
 20
36.5831
  0
VERTEX
  8
LAYER_2
 10
152.5471
 20
36.6396
 42
0.1162126025
  0
VERTEX
  8
LAYER_2
 10
152.5668
 20
36.7258
  0
VERTEX
  8
LAYER_2
 10
152.5471
 20
36.8095
  0
VERTEX
  8
LAYER_2
 10
152.494
 20
36.8656
  0
VERTEX
  8
LAYER_2
 10
152.4152
 20
36.897
  0
VERTEX
  8
LAYER_2
 10
152.3187
 20
36.9066
  0
VERTEX
  8
LAYER_2
 10
152.1364
 20
36.9066
  0
SEQEND
  0
POLYLINE
  8
LAYER_2
 40
0.05
 41
0.05
 66
1
 10
0
 20
0
 30
0
 70
1
  0
VERTEX
  8
LAYER_2
 10
152.1364
 20
36.0543
  0
VERTEX
  8
LAYER_2
 10
152.3321
 20
36.0543
  0
VERTEX
  8
LAYER_2
 10
152.4406
 20
36.0653
  0
VERTEX
  8
LAYER_2
 10
152.5313
 20
36.1001
 42
0.1172546835
  0
VERTEX
  8
LAYER_2
 10
152.5929
 20
36.1632
 42
0.1286243504
  0
VERTEX
  8
LAYER_2
 10
152.6164
 20
36.2559
 42
0.2498669706
  0
VERTEX
  8
LAYER_2
 10
152.5471
 20
36.4081
 42
0.1538083763
  0
VERTEX
  8
LAYER_2
 10
152.3511
 20
36.4584
  0
VERTEX
  8
LAYER_2
 10
152.1364
 20
36.4584
  0
SEQEND
  0
ENDBLK
  0
BLOCK
  8
LAYER_2
  2
AIGNBL02030017
 70
64
 10
0
 20
0
 30
0
  3
AIGNBL02030017
  0
POLYLINE
  8
LAYER_2
 40
0.05
 41
0.05
 66
1
 10
0
 20
0
 30
0
 70
1
  0
VERTEX
  8
LAYER_2
 10
153.1534
 20
35.9637
  0
VERTEX
  8
LAYER_2
 10
153.038
 20
35.9637
  0
VERTEX
  8
LAYER_2
 10
153.4849
 20
36.9969
  0
VERTEX
  8
LAYER_2
 10
153.5872
 20
36.9969
  0
VERTEX
  8
LAYER_2
 10
154.0306
 20
35.9637
  0
VERTEX
  8
LAYER_2
 10
153.9138
 20
35.9637
  0
VERTEX
  8
LAYER_2
 10
153.7997
 20
36.2352
  0
VERTEX
  8
LAYER_2
 10
153.2657
 20
36.2352
  0
SEQEND
  0
POLYLINE
  8
LAYER_2
 40
0.05
 41
0.05
 66
1
 10
0
 20
0
 30
0
 70
1
  0
VERTEX
  8
LAYER_2
 10
153.305
 20
36.3316
  0
VERTEX
  8
LAYER_2
 10
153.7604
 20
36.3316
  0
VERTEX
  8
LAYER_2
 10
153.5327
 20
36.8804
  0
SEQEND
  0
ENDBLK
  0
BLOCK
  8
LAYER_2
  2
AIGNBL02030018
 70
64
 10
0
 20
0
 30
0
  3
AIGNBL02030018
  0
POLYLINE
  8
LAYER_2
 40
0.05
 41
0.05
 66
1
 10
0
 20
0
 30
0
 70
1
  0
VERTEX
  8
LAYER_2
 10
154.7151
 20
35.9637
  0
VERTEX
  8
LAYER_2
 10
154.61
 20
35.9637
  0
VERTEX
  8
LAYER_2
 10
154.61
 20
36.9035
  0
VERTEX
  8
LAYER_2
 10
154.2638
 20
36.9035
  0
VERTEX
  8
LAYER_2
 10
154.2638
 20
36.9969
  0
VERTEX
  8
LAYER_2
 10
155.0606
 20
36.9969
  0
VERTEX
  8
LAYER_2
 10
155.0606
 20
36.9035
  0
VERTEX
  8
LAYER_2
 10
154.7151
 20
36.9035
  0
SEQEND
  0
ENDBLK
  0
BLOCK
  8
LAYER_2
  2
AIGNBL02030019
 70
64
 10
0
 20
0
 30
0
  3
AIGNBL02030019
  0
POLYLINE
  8
LAYER_2
 40
0.05
 41
0.05
 66
1
 10
0
 20
0
 30
0
 70
1
  0
VERTEX
  8
LAYER_2
 10
155.4169
 20
36.9969
  0
VERTEX
  8
LAYER_2
 10
155.5216
 20
36.9969
  0
VERTEX
  8
LAYER_2
 10
155.5216
 20
36.549
  0
VERTEX
  8
LAYER_2
 10
156.0852
 20
36.549
  0
VERTEX
  8
LAYER_2
 10
156.0852
 20
36.9969
  0
VERTEX
  8
LAYER_2
 10
156.1903
 20
36.9969
  0
VERTEX
  8
LAYER_2
 10
156.1903
 20
35.9637
  0
VERTEX
  8
LAYER_2
 10
156.0852
 20
35.9637
  0
VERTEX
  8
LAYER_2
 10
156.0852
 20
36.4529
  0
VERTEX
  8
LAYER_2
 10
155.5216
 20
36.4529
  0
VERTEX
  8
LAYER_2
 10
155.5216
 20
35.9637
  0
VERTEX
  8
LAYER_2
 10
155.4169
 20
35.9637
  0
SEQEND
  0
ENDBLK
  0
BLOCK
  8
LAYER_2
  2
AIGNBL0203001A
 70
64
 10
0
 20
0
 30
0
  3
AIGNBL0203001A
  0
POLYLINE
  8
LAYER_2
 40
0.05
 41
0.05
 66
1
 10
0
 20
0
 30
0
 70
1
  0
VERTEX
  8
LAYER_2
 10
156.7708
 20
35.9637
  0
VERTEX
  8
LAYER_2
 10
156.6657
 20
35.9637
  0
VERTEX
  8
LAYER_2
 10
156.6657
 20
36.9969
  0
VERTEX
  8
LAYER_2
 10
156.9696
 20
36.9969
  0
VERTEX
  8
LAYER_2
 10
157.1101
 20
36.9824
 42
-0.1032885834
  0
VERTEX
  8
LAYER_2
 10
157.2228
 20
36.9349
 42
-0.1280591957
  0
VERTEX
  8
LAYER_2
 10
157.2962
 20
36.8494
 42
-0.1078860225
  0
VERTEX
  8
LAYER_2
 10
157.3223
 20
36.7213
  0
VERTEX
  8
LAYER_2
 10
157.3024
 20
36.6176
  0
VERTEX
  8
LAYER_2
 10
157.2469
 20
36.5366
  0
VERTEX
  8
LAYER_2
 10
157.1635
 20
36.4818
  0
VERTEX
  8
LAYER_2
 10
157.0585
 20
36.4557
  0
VERTEX
  8
LAYER_2
 10
157.3606
 20
35.9637
  0
VERTEX
  8
LAYER_2
 10
157.2321
 20
35.9637
  0
VERTEX
  8
LAYER_2
 10
156.9461
 20
36.4467
  0
VERTEX
  8
LAYER_2
 10
156.7708
 20
36.4467
  0
SEQEND
  0
POLYLINE
  8
LAYER_2
 40
0.05
 41
0.05
 66
1
 10
0
 20
0
 30
0
 70
1
  0
VERTEX
  8
LAYER_2
 10
156.7708
 20
36.5373
  0
VERTEX
  8
LAYER_2
 10
156.9534
 20
36.5373
 42
0.153451873
  0
VERTEX
  8
LAYER_2
 10
157.1491
 20
36.5831
 42
0.2580279849
  0
VERTEX
  8
LAYER_2
 10
157.2176
 20
36.7213
  0
VERTEX
  8
LAYER_2
 10
157.1983
 20
36.8071
  0
VERTEX
  8
LAYER_2
 10
157.146
 20
36.8643
  0
VERTEX
  8
LAYER_2
 10
157.0643
 20
36.8963
  0
VERTEX
  8
LAYER_2
 10
156.9578
 20
36.9066
  0
VERTEX
  8
LAYER_2
 10
156.7708
 20
36.9066
  0
SEQEND
  0
ENDBLK
  0
BLOCK
  8
LAYER_2
  2
AIGNBL0203001B
 70
64
 10
0
 20
0
 30
0
  3
AIGNBL0203001B
  0
POLYLINE
  8
LAYER_2
 40
0.05
 41
0.05
 66
1
 10
0
 20
0
 30
0
 70
1
  0
VERTEX
  8
LAYER_2
 10
158.7627
 20
36.4805
 42
-0.09904480664
  0
VERTEX
  8
LAYER_2
 10
158.7221
 20
36.2631
 42
-0.09984043552
  0
VERTEX
  8
LAYER_2
 10
158.6087
 20
36.0915
 42
-0.09841590082
  0
VERTEX
  8
LAYER_2
 10
158.4382
 20
35.9785
 42
-0.09758412454
  0
VERTEX
  8
LAYER_2
 10
158.2243
 20
35.9375
 42
-0.09999517154
  0
VERTEX
  8
LAYER_2
 10
158.0103
 20
35.9785
 42
-0.09953435427
  0
VERTEX
  8
LAYER_2
 10
157.8398
 20
36.0915
 42
-0.09853706159
  0
VERTEX
  8
LAYER_2
 10
157.7268
 20
36.2631
 42
-0.09653980076
  0
VERTEX
  8
LAYER_2
 10
157.6862
 20
36.4805
 42
-0.1004051845
  0
VERTEX
  8
LAYER_2
 10
157.7268
 20
36.6978
 42
-0.1008040346
  0
VERTEX
  8
LAYER_2
 10
157.8398
 20
36.8694
 42
-0.09763764092
  0
VERTEX
  8
LAYER_2
 10
158.0103
 20
36.9824
 42
-0.09752919603
  0
VERTEX
  8
LAYER_2
 10
158.2243
 20
37.0234
 42
-0.1000174927
  0
VERTEX
  8
LAYER_2
 10
158.4382
 20
36.9824
 42
-0.1009762109
  0
VERTEX
  8
LAYER_2
 10
158.6087
 20
36.8694
 42
-0.09735230618
  0
VERTEX
  8
LAYER_2
 10
158.7221
 20
36.6978
 42
-0.09580191209
  0
SEQEND
  0
POLYLINE
  8
LAYER_2
 40
0.05
 41
0.05
 66
1
 10
0
 20
0
 30
0
 70
1
  0
VERTEX
  8
LAYER_2
 10
158.6518
 20
36.4798
 42
0.08852014676
  0
VERTEX
  8
LAYER_2
 10
158.6225
 20
36.6517
 42
0.09973444611
  0
VERTEX
  8
LAYER_2
 10
158.5378
 20
36.795
 42
0.1024799068
  0
VERTEX
  8
LAYER_2
 10
158.4031
 20
36.8932
 42
0.1060321998
  0
VERTEX
  8
LAYER_2
 10
158.2243
 20
36.93
 42
0.1116325688
  0
VERTEX
  8
LAYER_2
 10
158.0455
 20
36.8932
 42
0.1060506217
  0
VERTEX
  8
LAYER_2
 10
157.9104
 20
36.795
 42
0.09526104957
  0
VERTEX
  8
LAYER_2
 10
157.8257
 20
36.6517
 42
0.08422602157
  0
VERTEX
  8
LAYER_2
 10
157.7968
 20
36.4798
 42
0.0876992245
  0
VERTEX
  8
LAYER_2
 10
157.8257
 20
36.3079
 42
0.09826867926
  0
VERTEX
  8
LAYER_2
 10
157.9104
 20
36.1649
 42
0.09965756504
  0
VERTEX
  8
LAYER_2
 10
158.0455
 20
36.0674
 42
0.1061654103
  0
VERTEX
  8
LAYER_2
 10
158.2243
 20
36.0309
 42
0.1124388132
  0
VERTEX
  8
LAYER_2
 10
158.4031
 20
36.0674
 42
0.1029122982
  0
VERTEX
  8
LAYER_2
 10
158.5378
 20
36.1649
 42
0.09882210045
  0
VERTEX
  8
LAYER_2
 10
158.6225
 20
36.3079
 42
0.08589740831
  0
SEQEND
  0
ENDBLK
  0
BLOCK
  8
LAYER_2
  2
AIGNBL0203001C
 70
64
 10
0
 20
0
 30
0
  3
AIGNBL0203001C
  0
POLYLINE
  8
LAYER_2
 40
0.05
 41
0.05
 66
1
 10
0
 20
0
 30
0
 70
1
  0
VERTEX
  8
LAYER_2
 10
160.2045
 20
36.4805
 42
-0.1019307791
  0
VERTEX
  8
LAYER_2
 10
160.1635
 20
36.2631
 42
-0.09929652324
  0
VERTEX
  8
LAYER_2
 10
160.0509
 20
36.0915
 42
-0.09710469009
  0
VERTEX
  8
LAYER_2
 10
159.88
 20
35.9785
 42
-0.09758412454
  0
VERTEX
  8
LAYER_2
 10
159.6661
 20
35.9375
 42
-0.1005051182
  0
VERTEX
  8
LAYER_2
 10
159.4524
 20
35.9785
 42
-0.1009789173
  0
VERTEX
  8
LAYER_2
 10
159.2816
 20
36.0915
 42
-0.09724598852
  0
VERTEX
  8
LAYER_2
 10
159.1682
 20
36.2631
 42
-0.09653980076
  0
VERTEX
  8
LAYER_2
 10
159.1276
 20
36.4805
 42
-0.1004051845
  0
VERTEX
  8
LAYER_2
 10
159.1682
 20
36.6978
 42
-0.1001669327
  0
VERTEX
  8
LAYER_2
 10
159.2816
 20
36.8694
 42
-0.09846843416
  0
VERTEX
  8
LAYER_2
 10
159.4524
 20
36.9824
 42
-0.09783444074
  0
VERTEX
  8
LAYER_2
 10
159.6661
 20
37.0234
 42
-0.1000174927
  0
VERTEX
  8
LAYER_2
 10
159.88
 20
36.9824
 42
-0.098457988
  0
VERTEX
  8
LAYER_2
 10
160.0509
 20
36.8694
 42
-0.09762598086
  0
VERTEX
  8
LAYER_2
 10
160.1635
 20
36.6978
 42
-0.0978256893
  0
SEQEND
  0
POLYLINE
  8
LAYER_2
 40
0.05
 41
0.05
 66
1
 10
0
 20
0
 30
0
 70
1
  0
VERTEX
  8
LAYER_2
 10
160.0936
 20
36.4798
 42
0.08653869446
  0
VERTEX
  8
LAYER_2
 10
160.0647
 20
36.6517
 42
0.09689814906
  0
VERTEX
  8
LAYER_2
 10
159.9799
 20
36.795
 42
0.1032857511
  0
VERTEX
  8
LAYER_2
 10
159.8448
 20
36.8932
 42
0.1061350344
  0
VERTEX
  8
LAYER_2
 10
159.6661
 20
36.93
 42
0.1114208933
  0
VERTEX
  8
LAYER_2
 10
159.4872
 20
36.8932
 42
0.1056595975
  0
VERTEX
  8
LAYER_2
 10
159.3525
 20
36.795
 42
0.09787799956
  0
VERTEX
  8
LAYER_2
 10
159.2678
 20
36.6517
 42
0.08491464556
  0
VERTEX
  8
LAYER_2
 10
159.2385
 20
36.4798
 42
0.08693146424
  0
VERTEX
  8
LAYER_2
 10
159.2678
 20
36.3079
 42
0.1009797617
  0
VERTEX
  8
LAYER_2
 10
159.3525
 20
36.1649
 42
0.09978391674
  0
VERTEX
  8
LAYER_2
 10
159.4872
 20
36.0674
 42
0.1060616244
  0
VERTEX
  8
LAYER_2
 10
159.6661
 20
36.0309
 42
0.1126531325
  0
VERTEX
  8
LAYER_2
 10
159.8448
 20
36.0674
 42
0.1036982708
  0
VERTEX
  8
LAYER_2
 10
159.9799
 20
36.1649
 42
0.09401062747
  0
VERTEX
  8
LAYER_2
 10
160.0647
 20
36.3079
 42
0.0844927763
  0
SEQEND
  0
ENDBLK
  0
BLOCK
  8
LAYER_2
  2
AIGNBL0203001D
 70
64
 10
0
 20
0
 30
0
  3
AIGNBL0203001D
  0
POLYLINE
  8
LAYER_2
 40
0.05
 41
0.05
 66
1
 10
0
 20
0
 30
0
 70
1
  0
VERTEX
  8
LAYER_2
 10
161.1354
 20
36.1418
  0
VERTEX
  8
LAYER_2
 10
161.1371
 20
36.1418
  0
VERTEX
  8
LAYER_2
 10
161.4826
 20
36.9969
  0
VERTEX
  8
LAYER_2
 10
161.6435
 20
36.9969
  0
VERTEX
  8
LAYER_2
 10
161.6435
 20
35.9637
  0
VERTEX
  8
LAYER_2
 10
161.5381
 20
35.9637
  0
VERTEX
  8
LAYER_2
 10
161.5381
 20
36.8611
  0
VERTEX
  8
LAYER_2
 10
161.5354
 20
36.8611
  0
VERTEX
  8
LAYER_2
 10
161.1619
 20
35.9637
  0
VERTEX
  8
LAYER_2
 10
161.1064
 20
35.9637
  0
VERTEX
  8
LAYER_2
 10
160.7326
 20
36.8611
  0
VERTEX
  8
LAYER_2
 10
160.7299
 20
36.8611
  0
VERTEX
  8
LAYER_2
 10
160.7299
 20
35.9637
  0
VERTEX
  8
LAYER_2
 10
160.6248
 20
35.9637
  0
VERTEX
  8
LAYER_2
 10
160.6248
 20
36.9969
  0
VERTEX
  8
LAYER_2
 10
160.7853
 20
36.9969
  0
SEQEND
  0
ENDBLK
  0
BLOCK
  8
LAYER_2
  2
AIGNBL0203001E
 70
64
 10
0
 20
0
 30
0
  3
AIGNBL0203001E
  0
POLYLINE
  8
LAYER_2
 40
0.05
 41
0.05
 66
1
 10
0
 20
0
 30
0
 70
1
  0
VERTEX
  8
LAYER_2
 10
162.79
 20
36.0574
  0
VERTEX
  8
LAYER_2
 10
163.3433
 20
36.0574
  0
VERTEX
  8
LAYER_2
 10
163.3433
 20
35.9637
  0
VERTEX
  8
LAYER_2
 10
162.685
 20
35.9637
  0
VERTEX
  8
LAYER_2
 10
162.685
 20
36.9969
  0
VERTEX
  8
LAYER_2
 10
163.3258
 20
36.9969
  0
VERTEX
  8
LAYER_2
 10
163.3258
 20
36.9035
  0
VERTEX
  8
LAYER_2
 10
162.79
 20
36.9035
  0
VERTEX
  8
LAYER_2
 10
162.79
 20
36.549
  0
VERTEX
  8
LAYER_2
 10
163.2906
 20
36.549
  0
VERTEX
  8
LAYER_2
 10
163.2906
 20
36.4557
  0
VERTEX
  8
LAYER_2
 10
162.79
 20
36.4557
  0
SEQEND
  0
ENDBLK
  0
BLOCK
  8
LAYER_2
  2
AIGNBL0203001F
 70
64
 10
0
 20
0
 30
0
  3
AIGNBL0203001F
  0
POLYLINE
  8
LAYER_2
 40
0.05
 41
0.05
 66
1
 10
0
 20
0
 30
0
 70
1
  0
VERTEX
  8
LAYER_2
 10
164.0885
 20
36.5797
  0
VERTEX
  8
LAYER_2
 10
164.3707
 20
36.9969
  0
VERTEX
  8
LAYER_2
 10
164.4957
 20
36.9969
  0
VERTEX
  8
LAYER_2
 10
164.1533
 20
36.5053
  0
VERTEX
  8
LAYER_2
 10
164.5326
 20
35.9637
  0
VERTEX
  8
LAYER_2
 10
164.4013
 20
35.9637
  0
VERTEX
  8
LAYER_2
 10
164.0858
 20
36.4295
  0
VERTEX
  8
LAYER_2
 10
163.7722
 20
35.9637
  0
VERTEX
  8
LAYER_2
 10
163.6407
 20
35.9637
  0
VERTEX
  8
LAYER_2
 10
164.0203
 20
36.5066
  0
VERTEX
  8
LAYER_2
 10
163.6744
 20
36.9969
  0
VERTEX
  8
LAYER_2
 10
163.806
 20
36.9969
  0
SEQEND
  0
ENDBLK
  0
BLOCK
  8
LAYER_2
  2
AIGNBL02030020
 70
64
 10
0
 20
0
 30
0
  3
AIGNBL02030020
  0
POLYLINE
  8
LAYER_2
 40
0.05
 41
0.05
 66
1
 10
0
 20
0
 30
0
 70
1
  0
VERTEX
  8
LAYER_2
 10
164.8988
 20
36.9969
  0
VERTEX
  8
LAYER_2
 10
165.1909
 20
36.9969
  0
VERTEX
  8
LAYER_2
 10
165.3339
 20
36.9804
 42
-0.104160294
  0
VERTEX
  8
LAYER_2
 10
165.4438
 20
36.929
 42
-0.1209616443
  0
VERTEX
  8
LAYER_2
 10
165.5148
 20
36.8429
 42
-0.1032545831
  0
VERTEX
  8
LAYER_2
 10
165.5392
 20
36.7213
 42
-0.1239274235
  0
VERTEX
  8
LAYER_2
 10
165.5141
 20
36.5993
 42
-0.1163667494
  0
VERTEX
  8
LAYER_2
 10
165.4424
 20
36.5132
 42
-0.08715194998
  0
VERTEX
  8
LAYER_2
 10
165.3315
 20
36.4615
 42
-0.06075348808
  0
VERTEX
  8
LAYER_2
 10
165.1878
 20
36.444
  0
VERTEX
  8
LAYER_2
 10
165.0039
 20
36.444
  0
VERTEX
  8
LAYER_2
 10
165.0039
 20
35.9637
  0
VERTEX
  8
LAYER_2
 10
164.8988
 20
35.9637
  0
SEQEND
  0
POLYLINE
  8
LAYER_2
 40
0.05
 41
0.05
 66
1
 10
0
 20
0
 30
0
 70
1
  0
VERTEX
  8
LAYER_2
 10
165.0039
 20
36.5328
  0
VERTEX
  8
LAYER_2
 10
165.1816
 20
36.5328
 42
0.1694225951
  0
VERTEX
  8
LAYER_2
 10
165.3701
 20
36.581
 42
0.2442570363
  0
VERTEX
  8
LAYER_2
 10
165.4345
 20
36.7213
 42
0.2590967024
  0
VERTEX
  8
LAYER_2
 10
165.368
 20
36.8622
 42
0.143072224
  0
VERTEX
  8
LAYER_2
 10
165.1816
 20
36.9066
  0
VERTEX
  8
LAYER_2
 10
165.0039
 20
36.9066
  0
SEQEND
  0
ENDBLK
  0
BLOCK
  8
LAYER_2
  2
AIGNBL02030021
 70
64
 10
0
 20
0
 30
0
  3
AIGNBL02030021
  0
POLYLINE
  8
LAYER_2
 40
0.05
 41
0.05
 66
1
 10
0
 20
0
 30
0
 70
1
  0
VERTEX
  8
LAYER_2
 10
166.0515
 20
36.0574
  0
VERTEX
  8
LAYER_2
 10
166.6048
 20
36.0574
  0
VERTEX
  8
LAYER_2
 10
166.6048
 20
35.9637
  0
VERTEX
  8
LAYER_2
 10
165.9465
 20
35.9637
  0
VERTEX
  8
LAYER_2
 10
165.9465
 20
36.9969
  0
VERTEX
  8
LAYER_2
 10
166.5872
 20
36.9969
  0
VERTEX
  8
LAYER_2
 10
166.5872
 20
36.9035
  0
VERTEX
  8
LAYER_2
 10
166.0515
 20
36.9035
  0
VERTEX
  8
LAYER_2
 10
166.0515
 20
36.549
  0
VERTEX
  8
LAYER_2
 10
166.5521
 20
36.549
  0
VERTEX
  8
LAYER_2
 10
166.5521
 20
36.4557
  0
VERTEX
  8
LAYER_2
 10
166.0515
 20
36.4557
  0
SEQEND
  0
ENDBLK
  0
BLOCK
  8
LAYER_2
  2
AIGNBL02030022
 70
64
 10
0
 20
0
 30
0
  3
AIGNBL02030022
  0
POLYLINE
  8
LAYER_2
 40
0.05
 41
0.05
 66
1
 10
0
 20
0
 30
0
 70
1
  0
VERTEX
  8
LAYER_2
 10
167.1168
 20
35.9637
  0
VERTEX
  8
LAYER_2
 10
167.0117
 20
35.9637
  0
VERTEX
  8
LAYER_2
 10
167.0117
 20
36.9969
  0
VERTEX
  8
LAYER_2
 10
167.3155
 20
36.9969
  0
VERTEX
  8
LAYER_2
 10
167.4561
 20
36.9824
 42
-0.1039428931
  0
VERTEX
  8
LAYER_2
 10
167.5687
 20
36.9349
 42
-0.1259973384
  0
VERTEX
  8
LAYER_2
 10
167.6425
 20
36.8494
 42
-0.1064650891
  0
VERTEX
  8
LAYER_2
 10
167.6683
 20
36.7213
  0
VERTEX
  8
LAYER_2
 10
167.6483
 20
36.6176
  0
VERTEX
  8
LAYER_2
 10
167.5929
 20
36.5366
  0
VERTEX
  8
LAYER_2
 10
167.5095
 20
36.4818
  0
VERTEX
  8
LAYER_2
 10
167.4044
 20
36.4557
  0
VERTEX
  8
LAYER_2
 10
167.7066
 20
35.9637
  0
VERTEX
  8
LAYER_2
 10
167.578
 20
35.9637
  0
VERTEX
  8
LAYER_2
 10
167.2921
 20
36.4467
  0
VERTEX
  8
LAYER_2
 10
167.1168
 20
36.4467
  0
SEQEND
  0
POLYLINE
  8
LAYER_2
 40
0.05
 41
0.05
 66
1
 10
0
 20
0
 30
0
 70
1
  0
VERTEX
  8
LAYER_2
 10
167.1168
 20
36.5373
  0
VERTEX
  8
LAYER_2
 10
167.2994
 20
36.5373
 42
0.1542400453
  0
VERTEX
  8
LAYER_2
 10
167.495
 20
36.5831
 42
0.2583775622
  0
VERTEX
  8
LAYER_2
 10
167.5636
 20
36.7213
  0
VERTEX
  8
LAYER_2
 10
167.5446
 20
36.8071
  0
VERTEX
  8
LAYER_2
 10
167.4919
 20
36.8643
  0
VERTEX
  8
LAYER_2
 10
167.4103
 20
36.8963
  0
VERTEX
  8
LAYER_2
 10
167.3038
 20
36.9066
  0
VERTEX
  8
LAYER_2
 10
167.1168
 20
36.9066
  0
SEQEND
  0
ENDBLK
  0
BLOCK
  8
LAYER_2
  2
AIGNBL02030023
 70
64
 10
0
 20
0
 30
0
  3
AIGNBL02030023
  0
POLYLINE
  8
LAYER_2
 40
0.05
 41
0.05
 66
1
 10
0
 20
0
 30
0
 70
1
  0
VERTEX
  8
LAYER_2
 10
168.1923
 20
35.9637
  0
VERTEX
  8
LAYER_2
 10
168.0876
 20
35.9637
  0
VERTEX
  8
LAYER_2
 10
168.0876
 20
36.9969
  0
VERTEX
  8
LAYER_2
 10
168.1923
 20
36.9969
  0
SEQEND
  0
ENDBLK
  0
BLOCK
  8
LAYER_2
  2
AIGNBL02030024
 70
64
 10
0
 20
0
 30
0
  3
AIGNBL02030024
  0
POLYLINE
  8
LAYER_2
 40
0.05
 41
0.05
 66
1
 10
0
 20
0
 30
0
 70
1
  0
VERTEX
  8
LAYER_2
 10
168.7732
 20
36.0574
  0
VERTEX
  8
LAYER_2
 10
169.3261
 20
36.0574
  0
VERTEX
  8
LAYER_2
 10
169.3261
 20
35.9637
  0
VERTEX
  8
LAYER_2
 10
168.6681
 20
35.9637
  0
VERTEX
  8
LAYER_2
 10
168.6681
 20
36.9969
  0
VERTEX
  8
LAYER_2
 10
169.3089
 20
36.9969
  0
VERTEX
  8
LAYER_2
 10
169.3089
 20
36.9035
  0
VERTEX
  8
LAYER_2
 10
168.7732
 20
36.9035
  0
VERTEX
  8
LAYER_2
 10
168.7732
 20
36.549
  0
VERTEX
  8
LAYER_2
 10
169.2737
 20
36.549
  0
VERTEX
  8
LAYER_2
 10
169.2737
 20
36.4557
  0
VERTEX
  8
LAYER_2
 10
168.7732
 20
36.4557
  0
SEQEND
  0
ENDBLK
  0
BLOCK
  8
LAYER_2
  2
AIGNBL02030025
 70
64
 10
0
 20
0
 30
0
  3
AIGNBL02030025
  0
POLYLINE
  8
LAYER_2
 40
0.05
 41
0.05
 66
1
 10
0
 20
0
 30
0
 70
1
  0
VERTEX
  8
LAYER_2
 10
170.4661
 20
36.117
  0
VERTEX
  8
LAYER_2
 10
170.4689
 20
36.117
  0
VERTEX
  8
LAYER_2
 10
170.4689
 20
36.9969
  0
VERTEX
  8
LAYER_2
 10
170.5739
 20
36.9969
  0
VERTEX
  8
LAYER_2
 10
170.5739
 20
35.9637
  0
VERTEX
  8
LAYER_2
 10
170.4426
 20
35.9637
  0
VERTEX
  8
LAYER_2
 10
169.8415
 20
36.8525
  0
VERTEX
  8
LAYER_2
 10
169.8384
 20
36.8525
  0
VERTEX
  8
LAYER_2
 10
169.8384
 20
35.9637
  0
VERTEX
  8
LAYER_2
 10
169.7333
 20
35.9637
  0
VERTEX
  8
LAYER_2
 10
169.7333
 20
36.9969
  0
VERTEX
  8
LAYER_2
 10
169.8649
 20
36.9969
  0
SEQEND
  0
ENDBLK
  0
BLOCK
  8
LAYER_2
  2
AIGNBL02030026
 70
64
 10
0
 20
0
 30
0
  3
AIGNBL02030026
  0
POLYLINE
  8
LAYER_2
 40
0.05
 41
0.05
 66
1
 10
0
 20
0
 30
0
 70
1
  0
VERTEX
  8
LAYER_2
 10
171.9196
 20
36.1315
  0
VERTEX
  8
LAYER_2
 10
171.8558
 20
36.0571
  0
VERTEX
  8
LAYER_2
 10
171.7697
 20
35.9954
  0
VERTEX
  8
LAYER_2
 10
171.6615
 20
35.953
  0
VERTEX
  8
LAYER_2
 10
171.5327
 20
35.9375
 42
-0.0997799169
  0
VERTEX
  8
LAYER_2
 10
171.3167
 20
35.9785
 42
-0.102530266
  0
VERTEX
  8
LAYER_2
 10
171.1461
 20
36.0915
 42
-0.09968794278
  0
VERTEX
  8
LAYER_2
 10
171.0345
 20
36.2631
 42
-0.09630702324
  0
VERTEX
  8
LAYER_2
 10
170.9942
 20
36.4805
 42
-0.1018981748
  0
VERTEX
  8
LAYER_2
 10
171.0352
 20
36.6978
 42
-0.09989904409
  0
VERTEX
  8
LAYER_2
 10
171.1479
 20
36.8694
 42
-0.09694965588
  0
VERTEX
  8
LAYER_2
 10
171.3187
 20
36.9824
 42
-0.09744116728
  0
VERTEX
  8
LAYER_2
 10
171.5327
 20
37.0234
  0
VERTEX
  8
LAYER_2
 10
171.6443
 20
37.0114
  0
VERTEX
  8
LAYER_2
 10
171.7473
 20
36.9779
  0
VERTEX
  8
LAYER_2
 10
171.8348
 20
36.9263
  0
VERTEX
  8
LAYER_2
 10
171.9006
 20
36.8584
  0
VERTEX
  8
LAYER_2
 10
171.8131
 20
36.794
  0
VERTEX
  8
LAYER_2
 10
171.7697
 20
36.8439
  0
VERTEX
  8
LAYER_2
 10
171.7063
 20
36.8877
  0
VERTEX
  8
LAYER_2
 10
171.6267
 20
36.9183
  0
VERTEX
  8
LAYER_2
 10
171.5341
 20
36.93
 42
0.1106055686
  0
VERTEX
  8
LAYER_2
 10
171.3539
 20
36.8935
 42
0.1037389517
  0
VERTEX
  8
LAYER_2
 10
171.2188
 20
36.7954
 42
0.09534605581
  0
VERTEX
  8
LAYER_2
 10
171.1341
 20
36.652
 42
0.08447361069
  0
VERTEX
  8
LAYER_2
 10
171.1052
 20
36.4805
 42
0.09038739564
  0
VERTEX
  8
LAYER_2
 10
171.1351
 20
36.3089
 42
0.09795352863
  0
VERTEX
  8
LAYER_2
 10
171.2205
 20
36.1656
 42
0.1034747097
  0
VERTEX
  8
LAYER_2
 10
171.3556
 20
36.0674
 42
0.1064777274
  0
VERTEX
  8
LAYER_2
 10
171.5341
 20
36.0309
 42
0.1092499226
  0
VERTEX
  8
LAYER_2
 10
171.7032
 20
36.0674
 42
0.1370031249
  0
VERTEX
  8
LAYER_2
 10
171.8376
 20
36.1842
  0
SEQEND
  0
ENDBLK
  0
BLOCK
  8
LAYER_2
  2
AIGNBL02030027
 70
64
 10
0
 20
0
 30
0
  3
AIGNBL02030027
  0
POLYLINE
  8
LAYER_2
 40
0.05
 41
0.05
 66
1
 10
0
 20
0
 30
0
 70
1
  0
VERTEX
  8
LAYER_2
 10
172.4067
 20
36.0574
  0
VERTEX
  8
LAYER_2
 10
172.96
 20
36.0574
  0
VERTEX
  8
LAYER_2
 10
172.96
 20
35.9637
  0
VERTEX
  8
LAYER_2
 10
172.3016
 20
35.9637
  0
VERTEX
  8
LAYER_2
 10
172.3016
 20
36.9969
  0
VERTEX
  8
LAYER_2
 10
172.9424
 20
36.9969
  0
VERTEX
  8
LAYER_2
 10
172.9424
 20
36.9035
  0
VERTEX
  8
LAYER_2
 10
172.4067
 20
36.9035
  0
VERTEX
  8
LAYER_2
 10
172.4067
 20
36.549
  0
VERTEX
  8
LAYER_2
 10
172.9073
 20
36.549
  0
VERTEX
  8
LAYER_2
 10
172.9073
 20
36.4557
  0
VERTEX
  8
LAYER_2
 10
172.4067
 20
36.4557
  0
SEQEND
  0
ENDBLK
  0
BLOCK
  8
LAYER_2
  2
AIGNBL02020004
 70
64
 10
0
 20
0
 30
0
  3
AIGNBL02020004
  0
POLYLINE
  8
LAYER_2
 40
0.05
 41
0.05
 66
1
 10
0
 20
0
 30
0
  0
VERTEX
  8
LAYER_2
 10
-1.196
 20
217.6012
 42
-0.04245719054
  0
VERTEX
  8
LAYER_2
 10
-1.2437
 20
216.7495
 42
-0.1145799327
  0
VERTEX
  8
LAYER_2
 10
-1.4854
 20
216.1042
 42
-0.03657724702
  0
VERTEX
  8
LAYER_2
 10
-1.5732
 20
216.0054
 42
-0.1577844027
  0
VERTEX
  8
LAYER_2
 10
-2.1025
 20
215.7362
 42
-0.04286355862
  0
VERTEX
  8
LAYER_2
 10
-2.3408
 20
215.7164
 42
-0.1461347274
  0
VERTEX
  8
LAYER_2
 10
-2.9525
 20
215.8874
 42
-0.04825720136
  0
VERTEX
  8
LAYER_2
 10
-3.0956
 20
216.0054
 42
-0.1514389093
  0
VERTEX
  8
LAYER_2
 10
-3.3903
 20
216.5711
 42
-0.04033585951
  0
VERTEX
  8
LAYER_2
 10
-3.4563
 20
217.0249
 42
-0.01781626242
  0
VERTEX
  8
LAYER_2
 10
-3.4732
 20
217.6012
 42
-0.04130139583
  0
VERTEX
  8
LAYER_2
 10
-3.4273
 20
218.4296
 42
-0.115134122
  0
VERTEX
  8
LAYER_2
 10
-3.1834
 20
219.0859
 42
-0.03655204802
  0
VERTEX
  8
LAYER_2
 10
-3.0956
 20
219.1845
 42
-0.2077091659
  0
VERTEX
  8
LAYER_2
 10
-2.3408
 20
219.4732
 42
-0.1450941273
  0
VERTEX
  8
LAYER_2
 10
-1.7165
 20
219.3022
 42
-0.04840000405
  0
VERTEX
  8
LAYER_2
 10
-1.5732
 20
219.1845
 42
-0.1513847701
  0
VERTEX
  8
LAYER_2
 10
-1.2787
 20
218.6201
 42
-0.04039612069
  0
VERTEX
  8
LAYER_2
 10
-1.2128
 20
218.1697
 42
-0.01794233576
  0
VERTEX
  8
LAYER_2
 10
-1.196
 20
217.6012
  0
SEQEND
  0
POLYLINE
  8
LAYER_2
 40
0.05
 41
0.05
 66
1
 10
0
 20
0
 30
0
  0
VERTEX
  8
LAYER_2
 10
0.4394
 20
217.6012
 42
0.03175065208
  0
VERTEX
  8
LAYER_2
 10
0.3919
 20
218.5427
 42
0.07858555415
  0
VERTEX
  8
LAYER_2
 10
0.123
 20
219.5272
 42
0.07786217308
  0
VERTEX
  8
LAYER_2
 10
-0.303
 20
220.1395
 42
0.1422741765
  0
VERTEX
  8
LAYER_2
 10
-1.5044
 20
220.8409
 42
0.06575783118
  0
VERTEX
  8
LAYER_2
 10
-2.3408
 20
220.9436
 42
0.08626163736
  0
VERTEX
  8
LAYER_2
 10
-3.3996
 20
220.7669
 42
0.1130730203
  0
VERTEX
  8
LAYER_2
 10
-4.3662
 20
220.1395
 42
0.09873852385
  0
VERTEX
  8
LAYER_2
 10
-4.8748
 20
219.3361
 42
0.04046067269
  0
VERTEX
  8
LAYER_2
 10
-5.006
 20
218.8809
 42
0.03220856709
  0
VERTEX
  8
LAYER_2
 10
-5.0854
 20
218.2915
 42
0.01857685015
  0
VERTEX
  8
LAYER_2
 10
-5.1082
 20
217.6012
 42
0.03149278186
  0
VERTEX
  8
LAYER_2
 10
-5.0608
 20
216.6571
 42
0.0779698511
  0
VERTEX
  8
LAYER_2
 10
-4.7923
 20
215.6655
 42
0.07853580552
  0
VERTEX
  8
LAYER_2
 10
-4.3662
 20
215.0504
 42
0.1826502598
  0
VERTEX
  8
LAYER_2
 10
-2.668
 20
214.2613
 42
0.02311737764
  0
VERTEX
  8
LAYER_2
 10
-2.3408
 20
214.2463
 42
0.08564977323
  0
VERTEX
  8
LAYER_2
 10
-1.2772
 20
214.423
 42
0.1129150187
  0
VERTEX
  8
LAYER_2
 10
-0.303
 20
215.0504
 42
0.1497181056
  0
VERTEX
  8
LAYER_2
 10
0.3325
 20
216.2722
 42
0.03273812963
  0
VERTEX
  8
LAYER_2
 10
0.4143
 20
216.8609
 42
0.01955851524
  0
VERTEX
  8
LAYER_2
 10
0.4394
 20
217.6012
  0
SEQEND
  0
POLYLINE
  8
LAYER_2
 40
0.05
 41
0.05
 66
1
 10
0
 20
0
 30
0
  0
VERTEX
  8
LAYER_2
 10
-11.3166
 20
218.2044
  0
VERTEX
  8
LAYER_2
 10
-13.8074
 20
218.2044
 42
-0.1126267973
  0
VERTEX
  8
LAYER_2
 10
-13.6562
 20
218.9079
 42
-0.1394863081
  0
VERTEX
  8
LAYER_2
 10
-13.2507
 20
219.3934
 42
-0.1317584651
  0
VERTEX
  8
LAYER_2
 10
-12.676
 20
219.5824
 42
-0.01996454454
  0
VERTEX
  8
LAYER_2
 10
-12.562
 20
219.5866
 42
-0.137467943
  0
VERTEX
  8
LAYER_2
 10
-11.8991
 20
219.4101
 42
-0.150691583
  0
VERTEX
  8
LAYER_2
 10
-11.4672
 20
218.9079
 42
-0.1174358853
  0
VERTEX
  8
LAYER_2
 10
-11.3166
 20
218.2044
  0
SEQEND
  0
POLYLINE
  8
LAYER_2
 40
0.05
 41
0.05
 66
1
 10
0
 20
0
 30
0
 70
1
  0
VERTEX
  8
LAYER_2
 10
-9.7064
 20
217.0861
  0
VERTEX
  8
LAYER_2
 10
-9.7064
 20
217.7772
 42
0.07163312002
  0
VERTEX
  8
LAYER_2
 10
-9.8733
 20
218.9838
 42
0.08028385511
  0
VERTEX
  8
LAYER_2
 10
-10.299
 20
219.8659
 42
0.0865588964
  0
VERTEX
  8
LAYER_2
 10
-10.9136
 20
220.4722
 42
0.08455684744
  0
VERTEX
  8
LAYER_2
 10
-11.6929
 20
220.8316
 42
0.06903226706
  0
VERTEX
  8
LAYER_2
 10
-12.562
 20
220.9436
 42
0.08515866825
  0
VERTEX
  8
LAYER_2
 10
-13.5923
 20
220.7733
 42
0.2152076095
  0
VERTEX
  8
LAYER_2
 10
-15.1128
 20
219.2869
 42
0.07250212731
  0
VERTEX
  8
LAYER_2
 10
-15.3825
 20
218.223
 42
0.02934637219
  0
VERTEX
  8
LAYER_2
 10
-15.4177
 20
217.6012
 42
0.06683021014
  0
VERTEX
  8
LAYER_2
 10
-15.2459
 20
216.2162
 42
0.08312981404
  0
VERTEX
  8
LAYER_2
 10
-14.8229
 20
215.3116
 42
0.184288283
  0
VERTEX
  8
LAYER_2
 10
-13.3775
 20
214.3603
 42
0.06413161868
  0
VERTEX
  8
LAYER_2
 10
-12.386
 20
214.2463
 42
0.07683816196
  0
VERTEX
  8
LAYER_2
 10
-11.1942
 20
214.4123
 42
0.08470040866
  0
VERTEX
  8
LAYER_2
 10
-10.383
 20
214.8416
 42
0.03763897922
  0
VERTEX
  8
LAYER_2
 10
-9.8948
 20
215.2768
  0
VERTEX
  8
LAYER_2
 10
-10.8887
 20
216.2442
 42
-0.1072414833
  0
VERTEX
  8
LAYER_2
 10
-11.6397
 20
215.7366
 42
-0.09138316631
  0
VERTEX
  8
LAYER_2
 10
-12.3732
 20
215.6285
 42
-0.1206713536
  0
VERTEX
  8
LAYER_2
 10
-13.1336
 20
215.8026
 42
-0.1907051017
  0
VERTEX
  8
LAYER_2
 10
-13.7142
 20
216.4979
 42
-0.08636520349
  0
VERTEX
  8
LAYER_2
 10
-13.8074
 20
217.0861
  0
SEQEND
  0
POLYLINE
  8
LAYER_2
 40
0.05
 41
0.05
 66
1
 10
0
 20
0
 30
0
 70
1
  0
VERTEX
  8
LAYER_2
 10
-16.9018
 20
223.2773
  0
VERTEX
  8
LAYER_2
 10
-18.5517
 20
223.2773
  0
VERTEX
  8
LAYER_2
 10
-18.5517
 20
221.9454
  0
VERTEX
  8
LAYER_2
 10
-16.9018
 20
221.9454
  0
SEQEND
  0
POLYLINE
  8
LAYER_2
 40
0.05
 41
0.05
 66
1
 10
0
 20
0
 30
0
 70
1
  0
VERTEX
  8
LAYER_2
 10
-16.9146
 20
220.79
  0
VERTEX
  8
LAYER_2
 10
-18.5499
 20
220.79
  0
VERTEX
  8
LAYER_2
 10
-18.5499
 20
214.3218
  0
VERTEX
  8
LAYER_2
 10
-16.9146
 20
214.3218
  0
SEQEND
  0
POLYLINE
  8
LAYER_2
 40
0.05
 41
0.05
 66
1
 10
0
 20
0
 30
0
  0
VERTEX
  8
LAYER_2
 10
-19.8205
 20
215.1386
  0
VERTEX
  8
LAYER_2
 10
-20.9274
 20
216.2317
 42
-0.1240518821
  0
VERTEX
  8
LAYER_2
 10
-21.5761
 20
215.7751
 42
-0.08031715103
  0
VERTEX
  8
LAYER_2
 10
-21.984
 20
215.7164
 42
-0.1386946894
  0
VERTEX
  8
LAYER_2
 10
-22.625
 20
215.8856
 42
-0.08219094685
  0
VERTEX
  8
LAYER_2
 10
-22.9149
 20
216.1436
 42
-0.1253393202
  0
VERTEX
  8
LAYER_2
 10
-23.215
 20
216.8347
 42
-0.05211869655
  0
VERTEX
  8
LAYER_2
 10
-23.2797
 20
217.6012
 42
-0.0435450793
  0
VERTEX
  8
LAYER_2
 10
-23.2306
 20
218.2793
 42
-0.1072750387
  0
VERTEX
  8
LAYER_2
 10
-22.9604
 20
218.9857
 42
-0.01439054395
  0
VERTEX
  8
LAYER_2
 10
-22.9149
 20
219.0461
 42
-0.143087315
  0
VERTEX
  8
LAYER_2
 10
-22.387
 20
219.4143
 42
-0.07946465155
  0
VERTEX
  8
LAYER_2
 10
-21.984
 20
219.4732
 42
-0.1421084185
  0
VERTEX
  8
LAYER_2
 10
-21.3214
 20
219.2962
 42
-0.06975828358
  0
VERTEX
  8
LAYER_2
 10
-20.9274
 20
218.9585
  0
VERTEX
  8
LAYER_2
 10
-19.8205
 20
220.0637
 42
0.08882909472
  0
VERTEX
  8
LAYER_2
 10
-20.632
 20
220.6645
 42
0.08605806955
  0
VERTEX
  8
LAYER_2
 10
-21.5364
 20
220.9189
 42
0.02865290108
  0
VERTEX
  8
LAYER_2
 10
-21.984
 20
220.9436
 42
0.0806713287
  0
VERTEX
  8
LAYER_2
 10
-23.0569
 20
220.7735
 42
0.08357777431
  0
VERTEX
  8
LAYER_2
 10
-23.8317
 20
220.3573
 42
0.09024198391
  0
VERTEX
  8
LAYER_2
 10
-24.4186
 20
219.692
 42
0.07835989587
  0
VERTEX
  8
LAYER_2
 10
-24.7811
 20
218.801
 42
0.06322906838
  0
VERTEX
  8
LAYER_2
 10
-24.9151
 20
217.6012
 42
0.06782437491
  0
VERTEX
  8
LAYER_2
 10
-24.7438
 20
216.2613
 42
0.08255528881
  0
VERTEX
  8
LAYER_2
 10
-24.3104
 20
215.3428
 42
0.176800775
  0
VERTEX
  8
LAYER_2
 10
-22.8675
 20
214.3603
 42
0.06692285682
  0
VERTEX
  8
LAYER_2
 10
-21.984
 20
214.2463
 42
0.08462179993
  0
VERTEX
  8
LAYER_2
 10
-20.8976
 20
214.4204
 42
0.08609104881
  0
VERTEX
  8
LAYER_2
 10
-20.1139
 20
214.8669
 42
0.03054496576
  0
VERTEX
  8
LAYER_2
 10
-19.8205
 20
215.1386
  0
SEQEND
  0
ENDBLK
  0
BLOCK
  8
LAYER_2
  2
AIGNBL02020005
 70
64
 10
0
 20
0
 30
0
  3
AIGNBL02020005
  0
POLYLINE
  8
LAYER_2
 40
0.05
 41
0.05
 66
1
 10
0
 20
0
 30
0
 70
1
  0
VERTEX
  8
LAYER_2
 10
0.3288
 20
212.6805
  0
VERTEX
  8
LAYER_2
 10
0.0009
 20
212.6805
  0
VERTEX
  8
LAYER_2
 10
-0.2479
 20
211.9109
  0
VERTEX
  8
LAYER_2
 10
-0.5066
 20
212.6805
  0
VERTEX
  8
LAYER_2
 10
-0.8342
 20
212.6805
  0
VERTEX
  8
LAYER_2
 10
-0.4084
 20
211.5234
  0
VERTEX
  8
LAYER_2
 10
-0.4611
 20
211.3704
 42
-0.3961336399
  0
VERTEX
  8
LAYER_2
 10
-0.6165
 20
211.2581
  0
VERTEX
  8
LAYER_2
 10
-0.6882
 20
211.2581
  0
VERTEX
  8
LAYER_2
 10
-0.6882
 20
210.9783
  0
VERTEX
  8
LAYER_2
 10
-0.5662
 20
210.9783
 42
0.2034440672
  0
VERTEX
  8
LAYER_2
 10
-0.2985
 20
211.0741
 42
0.1004639661
  0
VERTEX
  8
LAYER_2
 10
-0.2048
 20
211.2343
  0
SEQEND
  0
POLYLINE
  8
LAYER_2
 40
0.05
 41
0.05
 66
1
 10
0
 20
0
 30
0
 70
1
  0
VERTEX
  8
LAYER_2
 10
-0.8704
 20
211.4352
  0
VERTEX
  8
LAYER_2
 10
-0.8704
 20
211.6977
  0
VERTEX
  8
LAYER_2
 10
-0.9899
 20
211.6977
 42
-0.4751531158
  0
VERTEX
  8
LAYER_2
 10
-1.0998
 20
211.8103
  0
VERTEX
  8
LAYER_2
 10
-1.0998
 20
213.137
  0
VERTEX
  8
LAYER_2
 10
-1.4109
 20
213.137
  0
VERTEX
  8
LAYER_2
 10
-1.4109
 20
211.7914
 42
0.2572712742
  0
VERTEX
  8
LAYER_2
 10
-1.2491
 20
211.4844
 42
0.1351549622
  0
VERTEX
  8
LAYER_2
 10
-1.0475
 20
211.4352
  0
SEQEND
  0
POLYLINE
  8
LAYER_2
 40
0.05
 41
0.05
 66
1
 10
0
 20
0
 30
0
 70
1
  0
VERTEX
  8
LAYER_2
 10
-1.9739
 20
211.894
 42
-0.2469446344
  0
VERTEX
  8
LAYER_2
 10
-2.0214
 20
211.7363
 42
-0.2123665607
  0
VERTEX
  8
LAYER_2
 10
-2.2057
 20
211.6763
 42
-0.2053009356
  0
VERTEX
  8
LAYER_2
 10
-2.3584
 20
211.723
 42
-0.206083917
  0
VERTEX
  8
LAYER_2
 10
-2.3949
 20
211.8175
 42
-0.4725867343
  0
VERTEX
  8
LAYER_2
 10
-2.2105
 20
211.9609
  0
VERTEX
  8
LAYER_2
 10
-1.9739
 20
211.9609
  0
SEQEND
  0
POLYLINE
  8
LAYER_2
 40
0.05
 41
0.05
 66
1
 10
0
 20
0
 30
0
 70
1
  0
VERTEX
  8
LAYER_2
 10
-1.6624
 20
211.4352
  0
VERTEX
  8
LAYER_2
 10
-1.6624
 20
212.2551
 42
0.2451162416
  0
VERTEX
  8
LAYER_2
 10
-1.8225
 20
212.6039
 42
0.1630344424
  0
VERTEX
  8
LAYER_2
 10
-2.194
 20
212.6947
 42
0.223003002
  0
VERTEX
  8
LAYER_2
 10
-2.6298
 20
212.5302
 42
0.006267388191
  0
VERTEX
  8
LAYER_2
 10
-2.6412
 20
212.5179
  0
VERTEX
  8
LAYER_2
 10
-2.4452
 20
212.3243
 42
-0.2474228759
  0
VERTEX
  8
LAYER_2
 10
-2.2057
 20
212.4322
 42
-0.1875116517
  0
VERTEX
  8
LAYER_2
 10
-2.0297
 20
212.3865
 42
-0.2385471677
  0
VERTEX
  8
LAYER_2
 10
-1.9739
 20
212.2358
  0
VERTEX
  8
LAYER_2
 10
-1.9739
 20
212.1738
  0
VERTEX
  8
LAYER_2
 10
-2.2633
 20
212.1738
 42
0.2343493414
  0
VERTEX
  8
LAYER_2
 10
-2.6354
 20
212.0142
 42
0.1534284984
  0
VERTEX
  8
LAYER_2
 10
-2.6942
 20
211.8127
 42
0.1895201048
  0
VERTEX
  8
LAYER_2
 10
-2.5912
 20
211.533
 42
0.2074502918
  0
VERTEX
  8
LAYER_2
 10
-2.2729
 20
211.4228
 42
0.2214267061
  0
VERTEX
  8
LAYER_2
 10
-1.9663
 20
211.5426
  0
VERTEX
  8
LAYER_2
 10
-1.9663
 20
211.4352
  0
SEQEND
  0
POLYLINE
  8
LAYER_2
 40
0.05
 41
0.05
 66
1
 10
0
 20
0
 30
0
 70
1
  0
VERTEX
  8
LAYER_2
 10
-2.8758
 20
211.4352
  0
VERTEX
  8
LAYER_2
 10
-2.8758
 20
211.6977
  0
VERTEX
  8
LAYER_2
 10
-2.9884
 20
211.6977
 42
-0.4616084329
  0
VERTEX
  8
LAYER_2
 10
-3.0963
 20
211.8103
  0
VERTEX
  8
LAYER_2
 10
-3.0963
 20
212.4081
  0
VERTEX
  8
LAYER_2
 10
-2.8758
 20
212.4081
  0
VERTEX
  8
LAYER_2
 10
-2.8758
 20
212.6444
  0
VERTEX
  8
LAYER_2
 10
-3.0963
 20
212.6444
  0
VERTEX
  8
LAYER_2
 10
-3.0963
 20
213.0126
  0
VERTEX
  8
LAYER_2
 10
-3.407
 20
213.0126
  0
VERTEX
  8
LAYER_2
 10
-3.407
 20
212.6444
  0
VERTEX
  8
LAYER_2
 10
-3.539
 20
212.6444
  0
VERTEX
  8
LAYER_2
 10
-3.539
 20
212.4081
  0
VERTEX
  8
LAYER_2
 10
-3.407
 20
212.4081
  0
VERTEX
  8
LAYER_2
 10
-3.407
 20
211.7914
 42
0.2563568817
  0
VERTEX
  8
LAYER_2
 10
-3.2458
 20
211.4844
 42
0.1357760723
  0
VERTEX
  8
LAYER_2
 10
-3.0456
 20
211.4352
  0
SEQEND
  0
POLYLINE
  8
LAYER_2
 40
0.05
 41
0.05
 66
1
 10
0
 20
0
 30
0
 70
1
  0
VERTEX
  8
LAYER_2
 10
-3.8091
 20
213.137
  0
VERTEX
  8
LAYER_2
 10
-4.1419
 20
213.137
  0
VERTEX
  8
LAYER_2
 10
-4.1419
 20
211.4352
  0
VERTEX
  8
LAYER_2
 10
-3.8091
 20
211.4352
  0
SEQEND
  0
POLYLINE
  8
LAYER_2
 40
0.05
 41
0.05
 66
1
 10
0
 20
0
 30
0
 70
1
  0
VERTEX
  8
LAYER_2
 10
-5.0562
 20
211.4352
  0
VERTEX
  8
LAYER_2
 10
-5.0562
 20
212.231
 42
0.2072987281
  0
VERTEX
  8
LAYER_2
 10
-5.183
 20
212.5844
 42
0.2031043538
  0
VERTEX
  8
LAYER_2
 10
-5.4775
 20
212.6947
 42
0.201378382
  0
VERTEX
  8
LAYER_2
 10
-5.7886
 20
212.5658
  0
VERTEX
  8
LAYER_2
 10
-5.7886
 20
212.6805
  0
VERTEX
  8
LAYER_2
 10
-6.0925
 20
212.6805
  0
VERTEX
  8
LAYER_2
 10
-6.0925
 20
211.4352
  0
VERTEX
  8
LAYER_2
 10
-5.7814
 20
211.4352
  0
VERTEX
  8
LAYER_2
 10
-5.7814
 20
212.1882
 42
-0.4179312156
  0
VERTEX
  8
LAYER_2
 10
-5.573
 20
212.4149
 42
-0.4343639015
  0
VERTEX
  8
LAYER_2
 10
-5.3673
 20
212.1882
  0
VERTEX
  8
LAYER_2
 10
-5.3673
 20
211.4352
  0
SEQEND
  0
POLYLINE
  8
LAYER_2
 40
0.05
 41
0.05
 66
1
 10
0
 20
0
 30
0
 70
1
  0
VERTEX
  8
LAYER_2
 10
-6.437
 20
213.1467
  0
VERTEX
  8
LAYER_2
 10
-6.7553
 20
213.1467
  0
VERTEX
  8
LAYER_2
 10
-6.7553
 20
212.8931
  0
VERTEX
  8
LAYER_2
 10
-6.437
 20
212.8931
  0
SEQEND
  0
POLYLINE
  8
LAYER_2
 40
0.05
 41
0.05
 66
1
 10
0
 20
0
 30
0
 70
1
  0
VERTEX
  8
LAYER_2
 10
-6.4394
 20
212.6444
  0
VERTEX
  8
LAYER_2
 10
-6.7508
 20
212.6444
  0
VERTEX
  8
LAYER_2
 10
-6.7508
 20
211.4352
  0
VERTEX
  8
LAYER_2
 10
-6.4394
 20
211.4352
  0
SEQEND
  0
POLYLINE
  8
LAYER_2
 40
0.05
 41
0.05
 66
1
 10
0
 20
0
 30
0
  0
VERTEX
  8
LAYER_2
 10
-7.8994
 20
212.1738
  0
VERTEX
  8
LAYER_2
 10
-8.3735
 20
212.1738
 42
-0.1150247832
  0
VERTEX
  8
LAYER_2
 10
-8.3445
 20
212.3074
 42
-0.3021002553
  0
VERTEX
  8
LAYER_2
 10
-8.1365
 20
212.4363
 42
-0.2972451875
  0
VERTEX
  8
LAYER_2
 10
-7.9284
 20
212.3074
 42
-0.09898717384
  0
VERTEX
  8
LAYER_2
 10
-7.8994
 20
212.1738
  0
SEQEND
  0
POLYLINE
  8
LAYER_2
 40
0.05
 41
0.05
 66
1
 10
0
 20
0
 30
0
 70
1
  0
VERTEX
  8
LAYER_2
 10
-7.5932
 20
211.9609
  0
VERTEX
  8
LAYER_2
 10
-7.5932
 20
212.0925
 42
0.1892091988
  0
VERTEX
  8
LAYER_2
 10
-7.7571
 20
212.5503
 42
0.2074689034
  0
VERTEX
  8
LAYER_2
 10
-8.1365
 20
212.6947
 42
0.212635805
  0
VERTEX
  8
LAYER_2
 10
-8.5293
 20
212.5292
 42
0.1815550622
  0
VERTEX
  8
LAYER_2
 10
-8.6787
 20
212.1059
 42
0.01190200981
  0
VERTEX
  8
LAYER_2
 10
-8.6797
 20
212.0591
 42
0.1802893809
  0
VERTEX
  8
LAYER_2
 10
-8.5263
 20
211.5744
 42
0.2020162133
  0
VERTEX
  8
LAYER_2
 10
-8.158
 20
211.4223
 42
0.01695408336
  0
VERTEX
  8
LAYER_2
 10
-8.103
 20
211.4207
 42
0.2069028033
  0
VERTEX
  8
LAYER_2
 10
-7.6557
 20
211.5904
 42
0.01111068861
  0
VERTEX
  8
LAYER_2
 10
-7.629
 20
211.6167
  0
VERTEX
  8
LAYER_2
 10
-7.8181
 20
211.801
 42
-0.224324849
  0
VERTEX
  8
LAYER_2
 10
-8.1003
 20
211.6839
 42
-0.4264622019
  0
VERTEX
  8
LAYER_2
 10
-8.3735
 20
211.9609
  0
SEQEND
  0
POLYLINE
  8
LAYER_2
 40
0.05
 41
0.05
 66
1
 10
0
 20
0
 30
0
  0
VERTEX
  8
LAYER_2
 10
-9.2778
 20
212.0591
 42
-0.1438386142
  0
VERTEX
  8
LAYER_2
 10
-9.3235
 20
211.7869
 42
-0.2886460427
  0
VERTEX
  8
LAYER_2
 10
-9.4911
 20
211.7004
 42
-0.3841580528
  0
VERTEX
  8
LAYER_2
 10
-9.6851
 20
211.8609
 42
-0.05455021257
  0
VERTEX
  8
LAYER_2
 10
-9.7016
 20
212.0591
 42
-0.1483049254
  0
VERTEX
  8
LAYER_2
 10
-9.6559
 20
212.3323
 42
-0.2855556046
  0
VERTEX
  8
LAYER_2
 10
-9.4911
 20
212.4149
 42
-0.3794480357
  0
VERTEX
  8
LAYER_2
 10
-9.2951
 20
212.2564
 42
-0.05697683845
  0
VERTEX
  8
LAYER_2
 10
-9.2778
 20
212.0591
  0
SEQEND
  0
POLYLINE
  8
LAYER_2
 40
0.05
 41
0.05
 66
1
 10
0
 20
0
 30
0
 70
1
  0
VERTEX
  8
LAYER_2
 10
-8.9667
 20
211.4352
  0
VERTEX
  8
LAYER_2
 10
-8.9667
 20
213.137
  0
VERTEX
  8
LAYER_2
 10
-9.2778
 20
213.137
  0
VERTEX
  8
LAYER_2
 10
-9.2778
 20
212.5707
 42
0.2297998422
  0
VERTEX
  8
LAYER_2
 10
-9.582
 20
212.6947
 42
0.1954770263
  0
VERTEX
  8
LAYER_2
 10
-9.8835
 20
212.5824
 42
0.1230294745
  0
VERTEX
  8
LAYER_2
 10
-9.9795
 20
212.4101
 42
0.0747779445
  0
VERTEX
  8
LAYER_2
 10
-10.013
 20
212.0591
 42
0.0994726102
  0
VERTEX
  8
LAYER_2
 10
-9.9681
 20
211.6704
 42
0.1089535567
  0
VERTEX
  8
LAYER_2
 10
-9.8835
 20
211.533
 42
0.2047870903
  0
VERTEX
  8
LAYER_2
 10
-9.5796
 20
211.4207
 42
0.2301632332
  0
VERTEX
  8
LAYER_2
 10
-9.2709
 20
211.5523
  0
VERTEX
  8
LAYER_2
 10
-9.2709
 20
211.4352
  0
SEQEND
  0
POLYLINE
  8
LAYER_2
 40
0.05
 41
0.05
 66
1
 10
0
 20
0
 30
0
 70
1
  0
VERTEX
  8
LAYER_2
 10
-10.6062
 20
211.894
 42
-0.2466163696
  0
VERTEX
  8
LAYER_2
 10
-10.6541
 20
211.7363
 42
-0.212724989
  0
VERTEX
  8
LAYER_2
 10
-10.8384
 20
211.6763
 42
-0.2058776096
  0
VERTEX
  8
LAYER_2
 10
-10.9909
 20
211.723
 42
-0.205582218
  0
VERTEX
  8
LAYER_2
 10
-11.0272
 20
211.8175
 42
-0.4728058788
  0
VERTEX
  8
LAYER_2
 10
-10.8433
 20
211.9609
  0
VERTEX
  8
LAYER_2
 10
-10.6062
 20
211.9609
  0
SEQEND
  0
POLYLINE
  8
LAYER_2
 40
0.05
 41
0.05
 66
1
 10
0
 20
0
 30
0
 70
1
  0
VERTEX
  8
LAYER_2
 10
-10.2951
 20
211.4352
  0
VERTEX
  8
LAYER_2
 10
-10.2951
 20
212.2551
 42
0.2450199827
  0
VERTEX
  8
LAYER_2
 10
-10.455
 20
212.6039
 42
0.1631220144
  0
VERTEX
  8
LAYER_2
 10
-10.8267
 20
212.6947
 42
0.223003002
  0
VERTEX
  8
LAYER_2
 10
-11.2625
 20
212.5302
 42
0.006267388191
  0
VERTEX
  8
LAYER_2
 10
-11.2739
 20
212.5179
  0
VERTEX
  8
LAYER_2
 10
-11.0779
 20
212.3243
 42
-0.2470834876
  0
VERTEX
  8
LAYER_2
 10
-10.8384
 20
212.4322
 42
-0.1872740545
  0
VERTEX
  8
LAYER_2
 10
-10.6621
 20
212.3865
 42
-0.238797369
  0
VERTEX
  8
LAYER_2
 10
-10.6062
 20
212.2358
  0
VERTEX
  8
LAYER_2
 10
-10.6062
 20
212.1738
  0
VERTEX
  8
LAYER_2
 10
-10.896
 20
212.1738
 42
0.2346153399
  0
VERTEX
  8
LAYER_2
 10
-11.268
 20
212.0142
 42
0.1531846975
  0
VERTEX
  8
LAYER_2
 10
-11.3266
 20
211.8127
 42
0.1894880782
  0
VERTEX
  8
LAYER_2
 10
-11.2239
 20
211.533
 42
0.2078362131
  0
VERTEX
  8
LAYER_2
 10
-10.9053
 20
211.4228
 42
0.2218282602
  0
VERTEX
  8
LAYER_2
 10
-10.599
 20
211.5426
  0
VERTEX
  8
LAYER_2
 10
-10.599
 20
211.4352
  0
SEQEND
  0
POLYLINE
  8
LAYER_2
 40
0.05
 41
0.05
 66
1
 10
0
 20
0
 30
0
 70
1
  0
VERTEX
  8
LAYER_2
 10
-11.5733
 20
211.4352
  0
VERTEX
  8
LAYER_2
 10
-11.5733
 20
212.231
 42
0.205542241
  0
VERTEX
  8
LAYER_2
 10
-11.7097
 20
212.5844
 42
0.1987814349
  0
VERTEX
  8
LAYER_2
 10
-12.016
 20
212.6947
 42
0.2182066523
  0
VERTEX
  8
LAYER_2
 10
-12.3894
 20
212.5369
 42
0.2492914965
  0
VERTEX
  8
LAYER_2
 10
-12.7198
 20
212.6947
 42
0.1963594215
  0
VERTEX
  8
LAYER_2
 10
-13.0309
 20
212.5658
  0
VERTEX
  8
LAYER_2
 10
-13.0309
 20
212.6805
  0
VERTEX
  8
LAYER_2
 10
-13.3348
 20
212.6805
  0
VERTEX
  8
LAYER_2
 10
-13.3348
 20
211.4352
  0
VERTEX
  8
LAYER_2
 10
-13.0233
 20
211.4352
  0
VERTEX
  8
LAYER_2
 10
-13.0233
 20
212.1882
 42
-0.4178253314
  0
VERTEX
  8
LAYER_2
 10
-12.8153
 20
212.4149
 42
-0.4343639015
  0
VERTEX
  8
LAYER_2
 10
-12.6096
 20
212.1882
  0
VERTEX
  8
LAYER_2
 10
-12.6096
 20
211.4352
  0
VERTEX
  8
LAYER_2
 10
-12.2985
 20
211.4352
  0
VERTEX
  8
LAYER_2
 10
-12.2985
 20
212.1951
 42
-0.4176164983
  0
VERTEX
  8
LAYER_2
 10
-12.0904
 20
212.4149
 42
-0.434797635
  0
VERTEX
  8
LAYER_2
 10
-11.8844
 20
212.1882
  0
VERTEX
  8
LAYER_2
 10
-11.8844
 20
211.4352
  0
SEQEND
  0
POLYLINE
  8
LAYER_2
 40
0.05
 41
0.05
 66
1
 10
0
 20
0
 30
0
  0
VERTEX
  8
LAYER_2
 10
-13.8973
 20
212.0229
 42
-0.1159462989
  0
VERTEX
  8
LAYER_2
 10
-13.9445
 20
211.7201
 42
-0.3129536504
  0
VERTEX
  8
LAYER_2
 10
-14.1915
 20
211.5736
 42
-0.314965659
  0
VERTEX
  8
LAYER_2
 10
-14.446
 20
211.7323
 42
-0.1053090454
  0
VERTEX
  8
LAYER_2
 10
-14.4882
 20
212.0229
 42
-0.113954245
  0
VERTEX
  8
LAYER_2
 10
-14.4424
 20
212.3219
 42
-0.3163619605
  0
VERTEX
  8
LAYER_2
 10
-14.1915
 20
212.4725
 42
-0.3164516036
  0
VERTEX
  8
LAYER_2
 10
-13.9392
 20
212.3138
 42
-0.103439187
  0
VERTEX
  8
LAYER_2
 10
-13.8973
 20
212.0229
  0
SEQEND
  0
POLYLINE
  8
LAYER_2
 40
0.05
 41
0.05
 66
1
 10
0
 20
0
 30
0
 70
1
  0
VERTEX
  8
LAYER_2
 10
-13.7247
 20
211.4352
  0
VERTEX
  8
LAYER_2
 10
-13.7247
 20
213.137
  0
VERTEX
  8
LAYER_2
 10
-13.8973
 20
213.137
  0
VERTEX
  8
LAYER_2
 10
-13.8973
 20
212.4749
 42
0.2525818121
  0
VERTEX
  8
LAYER_2
 10
-14.2298
 20
212.6258
 42
0.1886393528
  0
VERTEX
  8
LAYER_2
 10
-14.5171
 20
212.5224
 42
0.1172978386
  0
VERTEX
  8
LAYER_2
 10
-14.6205
 20
212.3434
 42
0.07876818405
  0
VERTEX
  8
LAYER_2
 10
-14.6608
 20
212.0229
 42
0.09207329595
  0
VERTEX
  8
LAYER_2
 10
-14.6127
 20
211.6805
 42
0.1077667615
  0
VERTEX
  8
LAYER_2
 10
-14.5171
 20
211.5234
 42
0.198210181
  0
VERTEX
  8
LAYER_2
 10
-14.2298
 20
211.4207
 42
0.2515984765
  0
VERTEX
  8
LAYER_2
 10
-13.8949
 20
211.5761
  0
VERTEX
  8
LAYER_2
 10
-13.8949
 20
211.4352
  0
SEQEND
  0
POLYLINE
  8
LAYER_2
 40
0.05
 41
0.05
 66
1
 10
0
 20
0
 30
0
 70
1
  0
VERTEX
  8
LAYER_2
 10
-15.0173
 20
211.4352
  0
VERTEX
  8
LAYER_2
 10
-15.0173
 20
212.1882
 42
0.2025955741
  0
VERTEX
  8
LAYER_2
 10
-15.1393
 20
212.5156
 42
0.2044555257
  0
VERTEX
  8
LAYER_2
 10
-15.4411
 20
212.6258
 42
0.2165707378
  0
VERTEX
  8
LAYER_2
 10
-15.7711
 20
212.4818
  0
VERTEX
  8
LAYER_2
 10
-15.7711
 20
212.6113
  0
VERTEX
  8
LAYER_2
 10
-15.9434
 20
212.6113
  0
VERTEX
  8
LAYER_2
 10
-15.9434
 20
211.4352
  0
VERTEX
  8
LAYER_2
 10
-15.7711
 20
211.4352
  0
VERTEX
  8
LAYER_2
 10
-15.7711
 20
212.1593
 42
-0.2837547598
  0
VERTEX
  8
LAYER_2
 10
-15.6189
 20
212.4442
 42
-0.1086336204
  0
VERTEX
  8
LAYER_2
 10
-15.479
 20
212.4725
 42
-0.442304779
  0
VERTEX
  8
LAYER_2
 10
-15.1896
 20
212.1593
  0
VERTEX
  8
LAYER_2
 10
-15.1896
 20
211.4352
  0
SEQEND
  0
POLYLINE
  8
LAYER_2
 40
0.05
 41
0.05
 66
1
 10
0
 20
0
 30
0
 70
1
  0
VERTEX
  8
LAYER_2
 10
-16.5346
 20
211.8506
 42
-0.2101171453
  0
VERTEX
  8
LAYER_2
 10
-16.5945
 20
211.6477
 42
-0.2061049303
  0
VERTEX
  8
LAYER_2
 10
-16.8553
 20
211.5688
 42
-0.162375608
  0
VERTEX
  8
LAYER_2
 10
-17.0584
 20
211.6151
 42
-0.2625865829
  0
VERTEX
  8
LAYER_2
 10
-17.1281
 20
211.77
 42
-0.3766203625
  0
VERTEX
  8
LAYER_2
 10
-16.9692
 20
211.9668
 42
-0.05119198821
  0
VERTEX
  8
LAYER_2
 10
-16.8625
 20
211.9774
  0
VERTEX
  8
LAYER_2
 10
-16.5346
 20
211.9774
  0
SEQEND
  0
POLYLINE
  8
LAYER_2
 40
0.05
 41
0.05
 66
1
 10
0
 20
0
 30
0
 70
1
  0
VERTEX
  8
LAYER_2
 10
-16.362
 20
211.4352
  0
VERTEX
  8
LAYER_2
 10
-16.362
 20
212.233
 42
0.2623610217
  0
VERTEX
  8
LAYER_2
 10
-16.5224
 20
212.5561
 42
0.1450933816
  0
VERTEX
  8
LAYER_2
 10
-16.8336
 20
212.6258
 42
0.2362276322
  0
VERTEX
  8
LAYER_2
 10
-17.2355
 20
212.4672
 42
0.01170794038
  0
VERTEX
  8
LAYER_2
 10
-17.2501
 20
212.4487
  0
VERTEX
  8
LAYER_2
 10
-17.133
 20
212.3409
 42
-0.2755800686
  0
VERTEX
  8
LAYER_2
 10
-16.8364
 20
212.4776
 42
-0.1517468402
  0
VERTEX
  8
LAYER_2
 10
-16.6283
 20
212.4308
 42
-0.2800643637
  0
VERTEX
  8
LAYER_2
 10
-16.5346
 20
212.2193
  0
VERTEX
  8
LAYER_2
 10
-16.5346
 20
212.1066
  0
VERTEX
  8
LAYER_2
 10
-16.8863
 20
212.1066
 42
0.2378691362
  0
VERTEX
  8
LAYER_2
 10
-17.2451
 20
211.9523
 42
0.1477379502
  0
VERTEX
  8
LAYER_2
 10
-17.2956
 20
211.7673
 42
0.1983884986
  0
VERTEX
  8
LAYER_2
 10
-17.2071
 20
211.5282
 42
0.2222408302
  0
VERTEX
  8
LAYER_2
 10
-16.8742
 20
211.4207
 42
0.21971579
  0
VERTEX
  8
LAYER_2
 10
-16.5346
 20
211.5471
  0
VERTEX
  8
LAYER_2
 10
-16.5346
 20
211.4352
  0
SEQEND
  0
POLYLINE
  8
LAYER_2
 40
0.05
 41
0.05
 66
1
 10
0
 20
0
 30
0
 70
1
  0
VERTEX
  8
LAYER_2
 10
-17.6211
 20
211.4352
  0
VERTEX
  8
LAYER_2
 10
-17.6211
 20
212.1903
 42
0.2366048602
  0
VERTEX
  8
LAYER_2
 10
-17.7848
 20
212.5524
 42
0.1585996094
  0
VERTEX
  8
LAYER_2
 10
-18.0449
 20
212.6258
 42
0.2174282511
  0
VERTEX
  8
LAYER_2
 10
-18.3749
 20
212.4818
  0
VERTEX
  8
LAYER_2
 10
-18.3749
 20
213.137
  0
VERTEX
  8
LAYER_2
 10
-18.5475
 20
213.137
  0
VERTEX
  8
LAYER_2
 10
-18.5475
 20
211.4352
  0
VERTEX
  8
LAYER_2
 10
-18.3749
 20
211.4352
  0
VERTEX
  8
LAYER_2
 10
-18.3749
 20
212.1617
 42
-0.2889308341
  0
VERTEX
  8
LAYER_2
 10
-18.2221
 20
212.4453
 42
-0.1047577161
  0
VERTEX
  8
LAYER_2
 10
-18.0807
 20
212.4725
 42
-0.4463558923
  0
VERTEX
  8
LAYER_2
 10
-17.7934
 20
212.1617
  0
VERTEX
  8
LAYER_2
 10
-17.7934
 20
211.4352
  0
SEQEND
  0
ENDBLK
  0
BLOCK
  8
LAYER_2
  2
AIGNBL02020007
 70
64
 10
0
 20
0
 30
0
  3
AIGNBL02020007
  0
INSERT
  8
LAYER_2
  2
AIGNBL02030008
 10
0
 20
0
 30
0
  0
ENDBLK
  0
BLOCK
  8
LAYER_2
  2
AIGNBL02020010
 70
64
 10
0
 20
0
 30
0
  3
AIGNBL02020010
  0
INSERT
  8
LAYER_2
  2
AIGNBL02030011
 10
0
 20
0
 30
0
  0
INSERT
  8
LAYER_2
  2
AIGNBL02030012
 10
0
 20
0
 30
0
  0
INSERT
  8
LAYER_2
  2
AIGNBL02030013
 10
0
 20
0
 30
0
  0
INSERT
  8
LAYER_2
  2
AIGNBL02030014
 10
0
 20
0
 30
0
  0
INSERT
  8
LAYER_2
  2
AIGNBL02030015
 10
0
 20
0
 30
0
  0
INSERT
  8
LAYER_2
  2
AIGNBL02030016
 10
0
 20
0
 30
0
  0
INSERT
  8
LAYER_2
  2
AIGNBL02030017
 10
0
 20
0
 30
0
  0
INSERT
  8
LAYER_2
  2
AIGNBL02030018
 10
0
 20
0
 30
0
  0
INSERT
  8
LAYER_2
  2
AIGNBL02030019
 10
0
 20
0
 30
0
  0
INSERT
  8
LAYER_2
  2
AIGNBL0203001A
 10
0
 20
0
 30
0
  0
INSERT
  8
LAYER_2
  2
AIGNBL0203001B
 10
0
 20
0
 30
0
  0
INSERT
  8
LAYER_2
  2
AIGNBL0203001C
 10
0
 20
0
 30
0
  0
INSERT
  8
LAYER_2
  2
AIGNBL0203001D
 10
0
 20
0
 30
0
  0
INSERT
  8
LAYER_2
  2
AIGNBL0203001E
 10
0
 20
0
 30
0
  0
INSERT
  8
LAYER_2
  2
AIGNBL0203001F
 10
0
 20
0
 30
0
  0
INSERT
  8
LAYER_2
  2
AIGNBL02030020
 10
0
 20
0
 30
0
  0
INSERT
  8
LAYER_2
  2
AIGNBL02030021
 10
0
 20
0
 30
0
  0
INSERT
  8
LAYER_2
  2
AIGNBL02030022
 10
0
 20
0
 30
0
  0
INSERT
  8
LAYER_2
  2
AIGNBL02030023
 10
0
 20
0
 30
0
  0
INSERT
  8
LAYER_2
  2
AIGNBL02030024
 10
0
 20
0
 30
0
  0
INSERT
  8
LAYER_2
  2
AIGNBL02030025
 10
0
 20
0
 30
0
  0
INSERT
  8
LAYER_2
  2
AIGNBL02030026
 10
0
 20
0
 30
0
  0
INSERT
  8
LAYER_2
  2
AIGNBL02030027
 10
0
 20
0
 30
0
  0
ENDBLK
  0
BLOCK
  8
LAYER_1
  2
AIGNBL01010002
 70
64
 10
0
 20
0
 30
0
  3
AIGNBL01010002
  0
POLYLINE
  8
LAYER_1
  6
AIGENLINE001
 40
0.2046
 41
0.2046
 66
1
 10
0
 20
0
 30
0
 70
128
  0
VERTEX
  8
LAYER_1
 10
151.5255
 20
104.1188
  0
VERTEX
  8
LAYER_1
 10
152.6635
 20
105.0742
  0
SEQEND
  0
POLYLINE
  8
LAYER_1
  6
AIGENLINE001
 40
0.2046
 41
0.2046
 66
1
 10
0
 20
0
 30
0
 70
128
  0
VERTEX
  8
LAYER_1
 10
151.5255
 20
104.1188
  0
VERTEX
  8
LAYER_1
 10
147.0256
 20
104.1191
  0
SEQEND
  0
POLYLINE
  8
LAYER_1
  6
AIGENLINE001
 40
0.2046
 41
0.2046
 66
1
 10
0
 20
0
 30
0
 70
128
  0
VERTEX
  8
LAYER_1
 10
129.5929
 20
116.1189
  0
VERTEX
  8
LAYER_1
 10
168.8805
 20
116.125
  0
SEQEND
  0
POLYLINE
  8
LAYER_1
  6
AIGENLINE001
 40
0.2046
 41
0.2046
 66
1
 10
0
 20
0
 30
0
 70
128
  0
VERTEX
  8
LAYER_1
 10
130.0435
 20
115.831
 42
0.393140701
  0
VERTEX
  8
LAYER_1
 10
129.5572
 20
116.1111
 42
0.3609738632
  0
VERTEX
  8
LAYER_1
 10
129.2646
 20
115.6965
  0
SEQEND
  0
POLYLINE
  8
LAYER_1
  6
AIGENLINE001
 40
0.2046
 41
0.2046
 66
1
 10
0
 20
0
 30
0
 70
128
  0
VERTEX
  8
LAYER_1
 10
169.2762
 20
115.6965
 42
0.3929212534
  0
VERTEX
  8
LAYER_1
 10
168.9123
 20
116.1235
 42
0.3614520318
  0
VERTEX
  8
LAYER_1
 10
168.4974
 20
115.831
  0
SEQEND
  0
POLYLINE
  8
LAYER_1
  6
AIGENLINE001
 40
0.2046
 41
0.2046
 66
1
 10
0
 20
0
 30
0
 70
128
  0
VERTEX
  8
LAYER_1
 10
164.2761
 20
102.1238
  0
VERTEX
  8
LAYER_1
 10
165.7762
 20
102.1238
  0
SEQEND
  0
POLYLINE
  8
LAYER_1
  6
AIGENLINE001
 40
0.2046
 41
0.2046
 66
1
 10
0
 20
0
 30
0
 70
128
  0
VERTEX
  8
LAYER_1
 10
132.7758
 20
102.1241
  0
VERTEX
  8
LAYER_1
 10
134.276
 20
102.1244
  0
SEQEND
  0
POLYLINE
  8
LAYER_1
  6
AIGENLINE001
 40
0.2046
 41
0.2046
 66
1
 10
0
 20
0
 30
0
 70
128
  0
VERTEX
  8
LAYER_1
 10
135.9524
 20
102.1244
  0
VERTEX
  8
LAYER_1
 10
162.5303
 20
102.1332
  0
SEQEND
  0
POLYLINE
  8
LAYER_1
  6
AIGENLINE001
 40
0.2046
 41
0.2046
 66
1
 10
0
 20
0
 30
0
 70
128
  0
VERTEX
  8
LAYER_1
 10
153.4257
 20
102.6241
  0
VERTEX
  8
LAYER_1
 10
160.7764
 20
102.6371
  0
SEQEND
  0
POLYLINE
  8
LAYER_1
  6
AIGENLINE001
 40
0.2046
 41
0.2046
 66
1
 10
0
 20
0
 30
0
 70
128
  0
VERTEX
  8
LAYER_1
 10
137.773
 20
102.6377
  0
VERTEX
  8
LAYER_1
 10
145.1257
 20
102.6241
  0
SEQEND
  0
POLYLINE
  8
LAYER_1
  6
AIGENLINE001
 40
0.2046
 41
0.2046
 66
1
 10
0
 20
0
 30
0
 70
128
  0
VERTEX
  8
LAYER_1
 10
146.9257
 20
102.6241
  0
VERTEX
  8
LAYER_1
 10
151.6255
 20
102.6241
  0
SEQEND
  0
POLYLINE
  8
LAYER_1
  6
AIGENLINE001
 40
0.2046
 41
0.2046
 66
1
 10
0
 20
0
 30
0
 70
128
  0
VERTEX
  8
LAYER_1
 10
130.366
 20
110.4196
 42
0.3917945066
  0
VERTEX
  8
LAYER_1
 10
130.2654
 20
110.3209
  0
SEQEND
  0
POLYLINE
  8
LAYER_1
  6
AIGENLINE001
 40
0.2046
 41
0.2046
 66
1
 10
0
 20
0
 30
0
 70
128
  0
VERTEX
  8
LAYER_1
 10
130.2651
 20
110.3205
  0
VERTEX
  8
LAYER_1
 10
130.2648
 20
110.2239
  0
SEQEND
  0
POLYLINE
  8
LAYER_1
  6
AIGENLINE001
 40
0.2046
 41
0.2046
 66
1
 10
0
 20
0
 30
0
 70
128
  0
VERTEX
  8
LAYER_1
 10
131.0249
 20
110.1682
 42
0.3928444544
  0
VERTEX
  8
LAYER_1
 10
130.776
 20
110.4181
  0
SEQEND
  0
POLYLINE
  8
LAYER_1
  6
AIGENLINE001
 40
0.2046
 41
0.2046
 66
1
 10
0
 20
0
 30
0
 70
128
  0
VERTEX
  8
LAYER_1
 10
130.7763
 20
110.4184
  0
VERTEX
  8
LAYER_1
 10
130.366
 20
110.4199
  0
SEQEND
  0
POLYLINE
  8
LAYER_1
  6
AIGENLINE001
 40
0.2046
 41
0.2046
 66
1
 10
0
 20
0
 30
0
 70
128
  0
VERTEX
  8
LAYER_1
 10
129.2643
 20
110.3741
 42
0.3938696942
  0
VERTEX
  8
LAYER_1
 10
129.5145
 20
110.1243
  0
SEQEND
  0
POLYLINE
  8
LAYER_1
  6
AIGENLINE001
 40
0.2046
 41
0.2046
 66
1
 10
0
 20
0
 30
0
 70
128
  0
VERTEX
  8
LAYER_1
 10
130.1649
 20
110.124
 42
0.391771081
  0
VERTEX
  8
LAYER_1
 10
130.2648
 20
110.2236
  0
SEQEND
  0
POLYLINE
  8
LAYER_1
  6
AIGENLINE001
 40
0.2046
 41
0.2046
 66
1
 10
0
 20
0
 30
0
 70
128
  0
VERTEX
  8
LAYER_1
 10
130.1649
 20
110.124
  0
VERTEX
  8
LAYER_1
 10
129.5145
 20
110.124
  0
SEQEND
  0
POLYLINE
  8
LAYER_1
  6
AIGENLINE001
 40
0.2046
 41
0.2046
 66
1
 10
0
 20
0
 30
0
 70
128
  0
VERTEX
  8
LAYER_1
 10
129.2643
 20
110.3741
  0
VERTEX
  8
LAYER_1
 10
129.2643
 20
115.7595
  0
SEQEND
  0
POLYLINE
  8
LAYER_1
  6
AIGENLINE001
 40
0.2046
 41
0.2046
 66
1
 10
0
 20
0
 30
0
 70
128
  0
VERTEX
  8
LAYER_1
 10
161.525
 20
103.9759
  0
VERTEX
  8
LAYER_1
 10
161.525
 20
103.8741
  0
SEQEND
  0
POLYLINE
  8
LAYER_1
  6
AIGENLINE001
 40
0.2046
 41
0.2046
 66
1
 10
0
 20
0
 30
0
 70
128
  0
VERTEX
  8
LAYER_1
 10
166.2753
 20
103.6246
 42
0.4141851944
  0
VERTEX
  8
LAYER_1
 10
166.5248
 20
103.8741
  0
SEQEND
  0
POLYLINE
  8
LAYER_1
  6
AIGENLINE001
 40
0.2046
 41
0.2046
 66
1
 10
0
 20
0
 30
0
 70
128
  0
VERTEX
  8
LAYER_1
 10
161.525
 20
103.8744
 42
0.3939681938
  0
VERTEX
  8
LAYER_1
 10
161.7751
 20
103.6246
  0
SEQEND
  0
POLYLINE
  8
LAYER_1
  6
AIGENLINE001
 40
0.2046
 41
0.2046
 66
1
 10
0
 20
0
 30
0
 70
128
  0
VERTEX
  8
LAYER_1
 10
161.7751
 20
103.6246
  0
VERTEX
  8
LAYER_1
 10
166.2753
 20
103.6246
  0
SEQEND
  0
POLYLINE
  8
LAYER_1
  6
AIGENLINE001
 40
0.2046
 41
0.2046
 66
1
 10
0
 20
0
 30
0
 70
128
  0
VERTEX
  8
LAYER_1
 10
162.0034
 20
104.534
 42
0.4016692525
  0
VERTEX
  8
LAYER_1
 10
161.5253
 20
104.0346
  0
SEQEND
  0
POLYLINE
  8
LAYER_1
  6
AIGENLINE001
 40
0.2046
 41
0.2046
 66
1
 10
0
 20
0
 30
0
 70
128
  0
VERTEX
  8
LAYER_1
 10
161.525
 20
104.0346
  0
VERTEX
  8
LAYER_1
 10
161.525
 20
103.9762
  0
SEQEND
  0
POLYLINE
  8
LAYER_1
  6
AIGENLINE001
 40
0.2046
 41
0.2046
 66
1
 10
0
 20
0
 30
0
 70
128
  0
VERTEX
  8
LAYER_1
 10
166.5254
 20
104.2102
  0
VERTEX
  8
LAYER_1
 10
166.5251
 20
103.8741
  0
SEQEND
  0
POLYLINE
  8
LAYER_1
  6
AIGENLINE001
 40
0.2046
 41
0.2046
 66
1
 10
0
 20
0
 30
0
 70
128
  0
VERTEX
  8
LAYER_1
 10
166.5254
 20
104.2102
 42
0.3933132014
  0
VERTEX
  8
LAYER_1
 10
166.0249
 20
104.7099
  0
VERTEX
  8
LAYER_1
 10
166.0034
 20
104.7096
  0
SEQEND
  0
POLYLINE
  8
LAYER_1
  6
AIGENLINE001
 40
0.2046
 41
0.2046
 66
1
 10
0
 20
0
 30
0
 70
128
  0
VERTEX
  8
LAYER_1
 10
162.0034
 20
104.534
  0
VERTEX
  8
LAYER_1
 10
166.0037
 20
104.7096
  0
SEQEND
  0
POLYLINE
  8
LAYER_1
  6
AIGENLINE001
 40
0.2046
 41
0.2046
 66
1
 10
0
 20
0
 30
0
 70
128
  0
VERTEX
  8
LAYER_1
 10
137.0256
 20
103.9759
  0
VERTEX
  8
LAYER_1
 10
137.0256
 20
103.8741
  0
SEQEND
  0
POLYLINE
  8
LAYER_1
  6
AIGENLINE001
 40
0.2046
 41
0.2046
 66
1
 10
0
 20
0
 30
0
 70
128
  0
VERTEX
  8
LAYER_1
 10
146.9257
 20
102.6241
 42
0.39300812
  0
VERTEX
  8
LAYER_1
 10
147.0253
 20
102.724
  0
SEQEND
  0
POLYLINE
  8
LAYER_1
  6
AIGENLINE001
 40
0.2046
 41
0.2046
 66
1
 10
0
 20
0
 30
0
 70
128
  0
VERTEX
  8
LAYER_1
 10
146.9257
 20
102.6241
  0
VERTEX
  8
LAYER_1
 10
145.1257
 20
102.6241
  0
SEQEND
  0
POLYLINE
  8
LAYER_1
  6
AIGENLINE001
 40
0.2046
 41
0.2046
 66
1
 10
0
 20
0
 30
0
 70
128
  0
VERTEX
  8
LAYER_1
 10
168.2754
 20
110.3205
 42
0.3947147691
  0
VERTEX
  8
LAYER_1
 10
168.1749
 20
110.4196
  0
SEQEND
  0
POLYLINE
  8
LAYER_1
  6
AIGENLINE001
 40
0.2046
 41
0.2046
 66
1
 10
0
 20
0
 30
0
 70
128
  0
VERTEX
  8
LAYER_1
 10
168.2754
 20
110.3205
  0
VERTEX
  8
LAYER_1
 10
168.2757
 20
110.2239
  0
SEQEND
  0
POLYLINE
  8
LAYER_1
  6
AIGENLINE001
 40
0.2046
 41
0.2046
 66
1
 10
0
 20
0
 30
0
 70
128
  0
VERTEX
  8
LAYER_1
 10
167.7743
 20
110.4184
 42
0.413020491
  0
VERTEX
  8
LAYER_1
 10
167.525
 20
110.1682
  0
SEQEND
  0
POLYLINE
  8
LAYER_1
  6
AIGENLINE001
 40
0.2046
 41
0.2046
 66
1
 10
0
 20
0
 30
0
 70
128
  0
VERTEX
  8
LAYER_1
 10
167.7743
 20
110.4184
  0
VERTEX
  8
LAYER_1
 10
168.1749
 20
110.4199
  0
SEQEND
  0
POLYLINE
  8
LAYER_1
  6
AIGENLINE001
 40
0.2046
 41
0.2046
 66
1
 10
0
 20
0
 30
0
 70
128
  0
VERTEX
  8
LAYER_1
 10
169.0261
 20
110.124
 42
0.4141743473
  0
VERTEX
  8
LAYER_1
 10
169.2762
 20
110.3741
  0
SEQEND
  0
POLYLINE
  8
LAYER_1
  6
AIGENLINE001
 40
0.2046
 41
0.2046
 66
1
 10
0
 20
0
 30
0
 70
128
  0
VERTEX
  8
LAYER_1
 10
168.2757
 20
110.2236
 42
0.3909256914
  0
VERTEX
  8
LAYER_1
 10
168.3757
 20
110.124
  0
SEQEND
  0
POLYLINE
  8
LAYER_1
  6
AIGENLINE001
 40
0.2046
 41
0.2046
 66
1
 10
0
 20
0
 30
0
 70
128
  0
VERTEX
  8
LAYER_1
 10
168.3757
 20
110.124
  0
VERTEX
  8
LAYER_1
 10
169.0261
 20
110.124
  0
SEQEND
  0
POLYLINE
  8
LAYER_1
  6
AIGENLINE001
 40
0.2046
 41
0.2046
 66
1
 10
0
 20
0
 30
0
 70
128
  0
VERTEX
  8
LAYER_1
 10
145.0261
 20
103.025
 42
0.4141753364
  0
VERTEX
  8
LAYER_1
 10
144.9259
 20
103.1252
  0
SEQEND
  0
POLYLINE
  8
LAYER_1
  6
AIGENLINE001
 40
0.2046
 41
0.2046
 66
1
 10
0
 20
0
 30
0
 70
128
  0
VERTEX
  8
LAYER_1
 10
144.9256
 20
103.1252
  0
VERTEX
  8
LAYER_1
 10
138.1257
 20
103.1246
  0
SEQEND
  0
POLYLINE
  8
LAYER_1
  6
AIGENLINE001
 40
0.2046
 41
0.2046
 66
1
 10
0
 20
0
 30
0
 70
128
  0
VERTEX
  8
LAYER_1
 10
135.9524
 20
102.1244
 42
0.1432061656
  0
VERTEX
  8
LAYER_1
 10
136.085
 20
102.1626
  0
SEQEND
  0
POLYLINE
  8
LAYER_1
  6
AIGENLINE001
 40
0.2046
 41
0.2046
 66
1
 10
0
 20
0
 30
0
 70
128
  0
VERTEX
  8
LAYER_1
 10
137.773
 20
102.6377
 42
0.3932914824
  0
VERTEX
  8
LAYER_1
 10
138.0258
 20
102.8851
  0
VERTEX
  8
LAYER_1
 10
138.0258
 20
102.8878
  0
SEQEND
  0
POLYLINE
  8
LAYER_1
  6
AIGENLINE001
 40
0.2046
 41
0.2046
 66
1
 10
0
 20
0
 30
0
 70
128
  0
VERTEX
  8
LAYER_1
 10
137.773
 20
102.6377
 42
0.1441546685
  0
VERTEX
  8
LAYER_1
 10
136.085
 20
102.1626
  0
SEQEND
  0
POLYLINE
  8
LAYER_1
  6
AIGENLINE001
 40
0.2046
 41
0.2046
 66
1
 10
0
 20
0
 30
0
 70
128
  0
VERTEX
  8
LAYER_1
 10
132.0257
 20
103.8744
 42
0.4142366628
  0
VERTEX
  8
LAYER_1
 10
132.2756
 20
103.6246
  0
SEQEND
  0
POLYLINE
  8
LAYER_1
  6
AIGENLINE001
 40
0.2046
 41
0.2046
 66
1
 10
0
 20
0
 30
0
 70
128
  0
VERTEX
  8
LAYER_1
 10
136.7755
 20
103.6246
 42
0.3933384611
  0
VERTEX
  8
LAYER_1
 10
137.0256
 20
103.8741
  0
SEQEND
  0
POLYLINE
  8
LAYER_1
  6
AIGENLINE001
 40
0.2046
 41
0.2046
 66
1
 10
0
 20
0
 30
0
 70
128
  0
VERTEX
  8
LAYER_1
 10
136.7755
 20
103.6246
  0
VERTEX
  8
LAYER_1
 10
132.2756
 20
103.6246
  0
SEQEND
  0
POLYLINE
  8
LAYER_1
  6
AIGENLINE001
 40
0.2046
 41
0.2046
 66
1
 10
0
 20
0
 30
0
 70
128
  0
VERTEX
  8
LAYER_1
 10
133.2755
 20
102.6241
 42
0.3936554465
  0
VERTEX
  8
LAYER_1
 10
133.026
 20
102.3742
  0
SEQEND
  0
POLYLINE
  8
LAYER_1
  6
AIGENLINE001
 40
0.2046
 41
0.2046
 66
1
 10
0
 20
0
 30
0
 70
128
  0
VERTEX
  8
LAYER_1
 10
133.7757
 20
102.6244
  0
VERTEX
  8
LAYER_1
 10
133.2755
 20
102.6241
  0
SEQEND
  0
POLYLINE
  8
LAYER_1
  6
AIGENLINE001
 40
0.2046
 41
0.2046
 66
1
 10
0
 20
0
 30
0
 70
128
  0
VERTEX
  8
LAYER_1
 10
134.0256
 20
102.3742
 42
0.3938625987
  0
VERTEX
  8
LAYER_1
 10
134.2757
 20
102.1244
  0
SEQEND
  0
POLYLINE
  8
LAYER_1
  6
AIGENLINE001
 40
0.2046
 41
0.2046
 66
1
 10
0
 20
0
 30
0
 70
128
  0
VERTEX
  8
LAYER_1
 10
134.2757
 20
102.1244
  0
VERTEX
  8
LAYER_1
 10
135.9527
 20
102.1244
  0
SEQEND
  0
POLYLINE
  8
LAYER_1
  6
AIGENLINE001
 40
0.2046
 41
0.2046
 66
1
 10
0
 20
0
 30
0
 70
128
  0
VERTEX
  8
LAYER_1
 10
131.0255
 20
102.3739
 42
0.3935526985
  0
VERTEX
  8
LAYER_1
 10
131.2757
 20
102.1241
  0
SEQEND
  0
POLYLINE
  8
LAYER_1
  6
AIGENLINE001
 40
0.2046
 41
0.2046
 66
1
 10
0
 20
0
 30
0
 70
128
  0
VERTEX
  8
LAYER_1
 10
131.2757
 20
102.1241
  0
VERTEX
  8
LAYER_1
 10
132.7758
 20
102.1241
  0
SEQEND
  0
POLYLINE
  8
LAYER_1
  6
AIGENLINE001
 40
0.2046
 41
0.2046
 66
1
 10
0
 20
0
 30
0
 70
128
  0
VERTEX
  8
LAYER_1
 10
134.0256
 20
102.3742
 42
0.3929838474
  0
VERTEX
  8
LAYER_1
 10
133.776
 20
102.6244
  0
SEQEND
  0
POLYLINE
  8
LAYER_1
  6
AIGENLINE001
 40
0.2046
 41
0.2046
 66
1
 10
0
 20
0
 30
0
 70
128
  0
VERTEX
  8
LAYER_1
 10
134.0256
 20
102.3742
  0
SEQEND
  0
POLYLINE
  8
LAYER_1
  6
AIGENLINE001
 40
0.2046
 41
0.2046
 66
1
 10
0
 20
0
 30
0
 70
128
  0
VERTEX
  8
LAYER_1
 10
145.0261
 20
102.724
 42
0.3926580428
  0
VERTEX
  8
LAYER_1
 10
145.1257
 20
102.6241
  0
SEQEND
  0
POLYLINE
  8
LAYER_1
  6
AIGENLINE001
 40
0.2046
 41
0.2046
 66
1
 10
0
 20
0
 30
0
 70
128
  0
VERTEX
  8
LAYER_1
 10
145.0261
 20
103.025
  0
VERTEX
  8
LAYER_1
 10
145.0261
 20
102.724
  0
SEQEND
  0
POLYLINE
  8
LAYER_1
  6
AIGENLINE001
 40
0.2046
 41
0.2046
 66
1
 10
0
 20
0
 30
0
 70
128
  0
VERTEX
  8
LAYER_1
 10
137.0256
 20
104.0346
 42
0.4016764257
  0
VERTEX
  8
LAYER_1
 10
136.5477
 20
104.534
  0
SEQEND
  0
POLYLINE
  8
LAYER_1
  6
AIGENLINE001
 40
0.2046
 41
0.2046
 66
1
 10
0
 20
0
 30
0
 70
128
  0
VERTEX
  8
LAYER_1
 10
137.0256
 20
104.0346
  0
VERTEX
  8
LAYER_1
 10
137.0256
 20
103.9762
  0
SEQEND
  0
POLYLINE
  8
LAYER_1
  6
AIGENLINE001
 40
0.2046
 41
0.2046
 66
1
 10
0
 20
0
 30
0
 70
128
  0
VERTEX
  8
LAYER_1
 10
138.1257
 20
103.1246
 42
0.4140943063
  0
VERTEX
  8
LAYER_1
 10
138.0258
 20
103.0247
  0
SEQEND
  0
POLYLINE
  8
LAYER_1
  6
AIGENLINE001
 40
0.2046
 41
0.2046
 66
1
 10
0
 20
0
 30
0
 70
128
  0
VERTEX
  8
LAYER_1
 10
138.0258
 20
103.0247
  0
VERTEX
  8
LAYER_1
 10
138.0258
 20
102.8878
  0
SEQEND
  0
POLYLINE
  8
LAYER_1
  6
AIGENLINE001
 40
0.2046
 41
0.2046
 66
1
 10
0
 20
0
 30
0
 70
128
  0
VERTEX
  8
LAYER_1
 10
132.7758
 20
102.1241
 42
0.3937729753
  0
VERTEX
  8
LAYER_1
 10
133.0257
 20
102.3742
  0
SEQEND
  0
POLYLINE
  8
LAYER_1
  6
AIGENLINE001
 40
0.2046
 41
0.2046
 66
1
 10
0
 20
0
 30
0
 70
128
  0
VERTEX
  8
LAYER_1
 10
133.026
 20
102.3742
  0
SEQEND
  0
POLYLINE
  8
LAYER_1
  6
AIGENLINE001
 40
0.2046
 41
0.2046
 66
1
 10
0
 20
0
 30
0
 70
128
  0
VERTEX
  8
LAYER_1
 10
132.0257
 20
104.2102
  0
VERTEX
  8
LAYER_1
 10
132.0257
 20
103.8741
  0
SEQEND
  0
POLYLINE
  8
LAYER_1
  6
AIGENLINE001
 40
0.2046
 41
0.2046
 66
1
 10
0
 20
0
 30
0
 70
128
  0
VERTEX
  8
LAYER_1
 10
131.0249
 20
110.1682
  0
VERTEX
  8
LAYER_1
 10
131.0255
 20
102.3739
  0
SEQEND
  0
POLYLINE
  8
LAYER_1
  6
AIGENLINE001
 40
0.2046
 41
0.2046
 66
1
 10
0
 20
0
 30
0
 70
128
  0
VERTEX
  8
LAYER_1
 10
132.5472
 20
104.7096
 42
0.3920956337
  0
VERTEX
  8
LAYER_1
 10
132.0257
 20
104.232
  0
VERTEX
  8
LAYER_1
 10
132.0254
 20
104.2102
  0
SEQEND
  0
POLYLINE
  8
LAYER_1
  6
AIGENLINE001
 40
0.2046
 41
0.2046
 66
1
 10
0
 20
0
 30
0
 70
128
  0
VERTEX
  8
LAYER_1
 10
136.5474
 20
104.534
  0
VERTEX
  8
LAYER_1
 10
132.5472
 20
104.7096
  0
SEQEND
  0
POLYLINE
  8
LAYER_1
  6
AIGENLINE001
 40
0.2046
 41
0.2046
 66
1
 10
0
 20
0
 30
0
 70
128
  0
VERTEX
  8
LAYER_1
 10
132.681
 20
106.0541
 42
0.3268917694
  0
VERTEX
  8
LAYER_1
 10
133.1416
 20
105.6838
  0
SEQEND
  0
POLYLINE
  8
LAYER_1
  6
AIGENLINE001
 40
0.2046
 41
0.2046
 66
1
 10
0
 20
0
 30
0
 70
128
  0
VERTEX
  8
LAYER_1
 10
145.8876
 20
105.0736
 42
0.1633074864
  0
VERTEX
  8
LAYER_1
 10
145.7377
 20
105.1317
  0
SEQEND
  0
POLYLINE
  8
LAYER_1
  6
AIGENLINE001
 40
0.2046
 41
0.2046
 66
1
 10
0
 20
0
 30
0
 70
128
  0
VERTEX
  8
LAYER_1
 10
145.7377
 20
105.1317
  0
VERTEX
  8
LAYER_1
 10
133.1416
 20
105.6838
  0
SEQEND
  0
POLYLINE
  8
LAYER_1
  6
AIGENLINE001
 40
0.2046
 41
0.2046
 66
1
 10
0
 20
0
 30
0
 70
128
  0
VERTEX
  8
LAYER_1
 10
130.0435
 20
115.8313
  0
VERTEX
  8
LAYER_1
 10
132.681
 20
106.0538
  0
SEQEND
  0
POLYLINE
  8
LAYER_1
  6
AIGENLINE001
 40
0.2046
 41
0.2046
 66
1
 10
0
 20
0
 30
0
 70
128
  0
VERTEX
  8
LAYER_1
 10
153.6262
 20
103.124
  0
VERTEX
  8
LAYER_1
 10
160.426
 20
103.124
  0
SEQEND
  0
POLYLINE
  8
LAYER_1
  6
AIGENLINE001
 40
0.2046
 41
0.2046
 66
1
 10
0
 20
0
 30
0
 70
128
  0
VERTEX
  8
LAYER_1
 10
151.5255
 20
102.724
 42
0.4142978315
  0
VERTEX
  8
LAYER_1
 10
151.6255
 20
102.6241
  0
SEQEND
  0
POLYLINE
  8
LAYER_1
  6
AIGENLINE001
 40
0.2046
 41
0.2046
 66
1
 10
0
 20
0
 30
0
 70
128
  0
VERTEX
  8
LAYER_1
 10
151.6255
 20
102.6241
  0
VERTEX
  8
LAYER_1
 10
153.426
 20
102.6241
  0
SEQEND
  0
POLYLINE
  8
LAYER_1
  6
AIGENLINE001
 40
0.2046
 41
0.2046
 66
1
 10
0
 20
0
 30
0
 70
128
  0
VERTEX
  8
LAYER_1
 10
160.526
 20
102.8872
 42
0.4142091077
  0
VERTEX
  8
LAYER_1
 10
160.7761
 20
102.6371
  0
VERTEX
  8
LAYER_1
 10
160.7791
 20
102.6371
  0
SEQEND
  0
POLYLINE
  8
LAYER_1
  6
AIGENLINE001
 40
0.2046
 41
0.2046
 66
1
 10
0
 20
0
 30
0
 70
128
  0
VERTEX
  8
LAYER_1
 10
162.4667
 20
102.1623
 42
0.1408200354
  0
VERTEX
  8
LAYER_1
 10
162.5997
 20
102.1241
  0
SEQEND
  0
POLYLINE
  8
LAYER_1
  6
AIGENLINE001
 40
0.2046
 41
0.2046
 66
1
 10
0
 20
0
 30
0
 70
128
  0
VERTEX
  8
LAYER_1
 10
162.4667
 20
102.1623
 42
0.143766296
  0
VERTEX
  8
LAYER_1
 10
160.7788
 20
102.6374
  0
SEQEND
  0
POLYLINE
  8
LAYER_1
  6
AIGENLINE001
 40
0.2046
 41
0.2046
 66
1
 10
0
 20
0
 30
0
 70
128
  0
VERTEX
  8
LAYER_1
 10
164.7763
 20
102.6241
  0
VERTEX
  8
LAYER_1
 10
165.276
 20
102.6241
  0
SEQEND
  0
POLYLINE
  8
LAYER_1
  6
AIGENLINE001
 40
0.2046
 41
0.2046
 66
1
 10
0
 20
0
 30
0
 70
128
  0
VERTEX
  8
LAYER_1
 10
164.2761
 20
102.1238
  0
VERTEX
  8
LAYER_1
 10
162.5997
 20
102.1238
  0
SEQEND
  0
POLYLINE
  8
LAYER_1
  6
AIGENLINE001
 40
0.2046
 41
0.2046
 66
1
 10
0
 20
0
 30
0
 70
128
  0
VERTEX
  8
LAYER_1
 10
167.2761
 20
102.1238
 42
0.3938847972
  0
VERTEX
  8
LAYER_1
 10
167.5259
 20
102.3739
  0
SEQEND
  0
POLYLINE
  8
LAYER_1
  6
AIGENLINE001
 40
0.2046
 41
0.2046
 66
1
 10
0
 20
0
 30
0
 70
128
  0
VERTEX
  8
LAYER_1
 10
167.2761
 20
102.1238
  0
VERTEX
  8
LAYER_1
 10
165.7759
 20
102.1238
  0
SEQEND
  0
POLYLINE
  8
LAYER_1
  6
AIGENLINE001
 40
0.2046
 41
0.2046
 66
1
 10
0
 20
0
 30
0
 70
128
  0
VERTEX
  8
LAYER_1
 10
164.2761
 20
102.1238
 42
0.4141369149
  0
VERTEX
  8
LAYER_1
 10
164.5262
 20
102.3739
  0
SEQEND
  0
POLYLINE
  8
LAYER_1
  6
AIGENLINE001
 40
0.2046
 41
0.2046
 66
1
 10
0
 20
0
 30
0
 70
128
  0
VERTEX
  8
LAYER_1
 10
164.7763
 20
102.6241
 42
0.4142294351
  0
VERTEX
  8
LAYER_1
 10
164.5262
 20
102.3739
  0
SEQEND
  0
POLYLINE
  8
LAYER_1
  6
AIGENLINE001
 40
0.2046
 41
0.2046
 66
1
 10
0
 20
0
 30
0
 70
128
  0
VERTEX
  8
LAYER_1
 10
164.5262
 20
102.3739
  0
SEQEND
  0
POLYLINE
  8
LAYER_1
  6
AIGENLINE001
 40
0.2046
 41
0.2046
 66
1
 10
0
 20
0
 30
0
 70
128
  0
VERTEX
  8
LAYER_1
 10
153.4257
 20
102.6241
 42
0.392372659
  0
VERTEX
  8
LAYER_1
 10
153.526
 20
102.724
  0
SEQEND
  0
POLYLINE
  8
LAYER_1
  6
AIGENLINE001
 40
0.2046
 41
0.2046
 66
1
 10
0
 20
0
 30
0
 70
128
  0
VERTEX
  8
LAYER_1
 10
153.6262
 20
103.124
 42
0.4142165179
  0
VERTEX
  8
LAYER_1
 10
153.5263
 20
103.0241
  0
SEQEND
  0
POLYLINE
  8
LAYER_1
  6
AIGENLINE001
 40
0.2046
 41
0.2046
 66
1
 10
0
 20
0
 30
0
 70
128
  0
VERTEX
  8
LAYER_1
 10
153.5263
 20
103.0241
  0
VERTEX
  8
LAYER_1
 10
153.5263
 20
102.7237
  0
SEQEND
  0
POLYLINE
  8
LAYER_1
  6
AIGENLINE001
 40
0.2046
 41
0.2046
 66
1
 10
0
 20
0
 30
0
 70
128
  0
VERTEX
  8
LAYER_1
 10
160.526
 20
103.0241
 42
0.4142588912
  0
VERTEX
  8
LAYER_1
 10
160.426
 20
103.124
  0
SEQEND
  0
POLYLINE
  8
LAYER_1
  6
AIGENLINE001
 40
0.2046
 41
0.2046
 66
1
 10
0
 20
0
 30
0
 70
128
  0
VERTEX
  8
LAYER_1
 10
160.526
 20
103.0241
  0
VERTEX
  8
LAYER_1
 10
160.526
 20
102.8872
  0
SEQEND
  0
POLYLINE
  8
LAYER_1
  6
AIGENLINE001
 40
0.2046
 41
0.2046
 66
1
 10
0
 20
0
 30
0
 70
128
  0
VERTEX
  8
LAYER_1
 10
165.5264
 20
102.3739
 42
0.3931495472
  0
VERTEX
  8
LAYER_1
 10
165.7759
 20
102.1238
  0
SEQEND
  0
POLYLINE
  8
LAYER_1
  6
AIGENLINE001
 40
0.2046
 41
0.2046
 66
1
 10
0
 20
0
 30
0
 70
128
  0
VERTEX
  8
LAYER_1
 10
165.5264
 20
102.3739
 42
0.4142463026
  0
VERTEX
  8
LAYER_1
 10
165.2763
 20
102.6241
  0
SEQEND
  0
POLYLINE
  8
LAYER_1
  6
AIGENLINE001
 40
0.2046
 41
0.2046
 66
1
 10
0
 20
0
 30
0
 70
128
  0
VERTEX
  8
LAYER_1
 10
165.5264
 20
102.3739
  0
SEQEND
  0
POLYLINE
  8
LAYER_1
  6
AIGENLINE001
 40
0.2046
 41
0.2046
 66
1
 10
0
 20
0
 30
0
 70
128
  0
VERTEX
  8
LAYER_1
 10
167.525
 20
110.1682
  0
VERTEX
  8
LAYER_1
 10
167.5262
 20
102.3739
  0
SEQEND
  0
POLYLINE
  8
LAYER_1
  6
AIGENLINE001
 40
0.2046
 41
0.2046
 66
1
 10
0
 20
0
 30
0
 70
128
  0
VERTEX
  8
LAYER_1
 10
165.4095
 20
105.6841
 42
0.316597552
  0
VERTEX
  8
LAYER_1
 10
165.8707
 20
106.0541
  0
SEQEND
  0
POLYLINE
  8
LAYER_1
  6
AIGENLINE001
 40
0.2046
 41
0.2046
 66
1
 10
0
 20
0
 30
0
 70
128
  0
VERTEX
  8
LAYER_1
 10
152.8134
 20
105.132
 42
0.1632102782
  0
VERTEX
  8
LAYER_1
 10
152.6635
 20
105.0742
  0
SEQEND
  0
POLYLINE
  8
LAYER_1
  6
AIGENLINE001
 40
0.2046
 41
0.2046
 66
1
 10
0
 20
0
 30
0
 70
128
  0
VERTEX
  8
LAYER_1
 10
152.8134
 20
105.132
  0
VERTEX
  8
LAYER_1
 10
165.4095
 20
105.6841
  0
SEQEND
  0
POLYLINE
  8
LAYER_1
  6
AIGENLINE001
 40
0.2046
 41
0.2046
 66
1
 10
0
 20
0
 30
0
 70
128
  0
VERTEX
  8
LAYER_1
 10
151.5255
 20
104.1188
  0
VERTEX
  8
LAYER_1
 10
151.5255
 20
102.724
  0
SEQEND
  0
POLYLINE
  8
LAYER_1
  6
AIGENLINE001
 40
0.2046
 41
0.2046
 66
1
 10
0
 20
0
 30
0
 70
128
  0
VERTEX
  8
LAYER_1
 10
147.0256
 20
104.1188
  0
VERTEX
  8
LAYER_1
 10
147.0256
 20
102.724
  0
SEQEND
  0
POLYLINE
  8
LAYER_1
  6
AIGENLINE001
 40
0.2046
 41
0.2046
 66
1
 10
0
 20
0
 30
0
 70
128
  0
VERTEX
  8
LAYER_1
 10
168.4974
 20
115.831
  0
VERTEX
  8
LAYER_1
 10
165.871
 20
106.0541
  0
SEQEND
  0
POLYLINE
  8
LAYER_1
  6
AIGENLINE001
 40
0.2046
 41
0.2046
 66
1
 10
0
 20
0
 30
0
 70
128
  0
VERTEX
  8
LAYER_1
 10
169.2762
 20
110.3741
  0
VERTEX
  8
LAYER_1
 10
169.2762
 20
115.7595
  0
SEQEND
  0
POLYLINE
  8
LAYER_1
  6
AIGENLINE001
 40
0.2046
 41
0.2046
 66
1
 10
0
 20
0
 30
0
 70
128
  0
VERTEX
  8
LAYER_1
 10
68.6973
 20
105.1341
  0
VERTEX
  8
LAYER_1
 10
75.7727
 20
105.1348
  0
SEQEND
  0
POLYLINE
  8
LAYER_1
  6
AIGENLINE001
 40
0.2046
 41
0.2046
 66
1
 10
0
 20
0
 30
0
 70
128
  0
VERTEX
  8
LAYER_1
 10
69.9849
 20
104.1212
  0
VERTEX
  8
LAYER_1
 10
68.8469
 20
105.0763
  0
SEQEND
  0
POLYLINE
  8
LAYER_1
  6
AIGENLINE001
 40
0.2046
 41
0.2046
 66
1
 10
0
 20
0
 30
0
 70
128
  0
VERTEX
  8
LAYER_1
 10
74.4848
 20
104.1212
  0
VERTEX
  8
LAYER_1
 10
75.6234
 20
105.0769
  0
SEQEND
  0
POLYLINE
  8
LAYER_1
  6
AIGENLINE001
 40
0.2046
 41
0.2046
 66
1
 10
0
 20
0
 30
0
 70
128
  0
VERTEX
  8
LAYER_1
 10
74.4848
 20
104.1212
  0
VERTEX
  8
LAYER_1
 10
69.9849
 20
104.1218
  0
SEQEND
  0
POLYLINE
  8
LAYER_1
  6
AIGENLINE001
 40
0.2046
 41
0.2046
 66
1
 10
0
 20
0
 30
0
 70
128
  0
VERTEX
  8
LAYER_1
 10
52.5521
 20
116.1214
  0
VERTEX
  8
LAYER_1
 10
91.8403
 20
116.1277
  0
SEQEND
  0
POLYLINE
  8
LAYER_1
  6
AIGENLINE001
 40
0.2046
 41
0.2046
 66
1
 10
0
 20
0
 30
0
 70
128
  0
VERTEX
  8
LAYER_1
 10
53.0027
 20
115.8334
 42
0.3929227098
  0
VERTEX
  8
LAYER_1
 10
52.5167
 20
116.1141
 42
0.3468975608
  0
VERTEX
  8
LAYER_1
 10
52.2242
 20
115.6989
  0
SEQEND
  0
POLYLINE
  8
LAYER_1
  6
AIGENLINE001
 40
0.2046
 41
0.2046
 66
1
 10
0
 20
0
 30
0
 70
128
  0
VERTEX
  8
LAYER_1
 10
92.2358
 20
115.6989
 42
0.414305848
  0
VERTEX
  8
LAYER_1
 10
91.8712
 20
116.1262
 42
0.3478917485
  0
VERTEX
  8
LAYER_1
 10
91.4569
 20
115.8334
  0
SEQEND
  0
POLYLINE
  8
LAYER_1
  6
AIGENLINE001
 40
0.2046
 41
0.2046
 66
1
 10
0
 20
0
 30
0
 70
128
  0
VERTEX
  8
LAYER_1
 10
87.2356
 20
102.1265
  0
VERTEX
  8
LAYER_1
 10
88.7358
 20
102.1265
  0
SEQEND
  0
POLYLINE
  8
LAYER_1
  6
AIGENLINE001
 40
0.2046
 41
0.2046
 66
1
 10
0
 20
0
 30
0
 70
128
  0
VERTEX
  8
LAYER_1
 10
55.7351
 20
102.1271
  0
VERTEX
  8
LAYER_1
 10
57.2352
 20
102.1271
  0
SEQEND
  0
POLYLINE
  8
LAYER_1
  6
AIGENLINE001
 40
0.2046
 41
0.2046
 66
1
 10
0
 20
0
 30
0
 70
128
  0
VERTEX
  8
LAYER_1
 10
58.9117
 20
102.1271
  0
VERTEX
  8
LAYER_1
 10
85.4899
 20
102.1359
  0
SEQEND
  0
POLYLINE
  8
LAYER_1
  6
AIGENLINE001
 40
0.2046
 41
0.2046
 66
1
 10
0
 20
0
 30
0
 70
128
  0
VERTEX
  8
LAYER_1
 10
76.3856
 20
102.6268
  0
VERTEX
  8
LAYER_1
 10
83.7359
 20
102.6398
  0
SEQEND
  0
POLYLINE
  8
LAYER_1
  6
AIGENLINE001
 40
0.2046
 41
0.2046
 66
1
 10
0
 20
0
 30
0
 70
128
  0
VERTEX
  8
LAYER_1
 10
60.7325
 20
102.6407
  0
VERTEX
  8
LAYER_1
 10
68.0853
 20
102.6271
  0
SEQEND
  0
POLYLINE
  8
LAYER_1
  6
AIGENLINE001
 40
0.2046
 41
0.2046
 66
1
 10
0
 20
0
 30
0
 70
128
  0
VERTEX
  8
LAYER_1
 10
69.8849
 20
102.6268
  0
VERTEX
  8
LAYER_1
 10
74.585
 20
102.6268
  0
SEQEND
  0
POLYLINE
  8
LAYER_1
  6
AIGENLINE001
 40
0.2046
 41
0.2046
 66
1
 10
0
 20
0
 30
0
 70
128
  0
VERTEX
  8
LAYER_1
 10
53.3252
 20
110.4226
 42
0.3919173231
  0
VERTEX
  8
LAYER_1
 10
53.2247
 20
110.3233
  0
SEQEND
  0
POLYLINE
  8
LAYER_1
  6
AIGENLINE001
 40
0.2046
 41
0.2046
 66
1
 10
0
 20
0
 30
0
 70
128
  0
VERTEX
  8
LAYER_1
 10
53.225
 20
110.3233
  0
VERTEX
  8
LAYER_1
 10
53.2247
 20
110.227
  0
SEQEND
  0
POLYLINE
  8
LAYER_1
  6
AIGENLINE001
 40
0.2046
 41
0.2046
 66
1
 10
0
 20
0
 30
0
 70
128
  0
VERTEX
  8
LAYER_1
 10
53.9845
 20
110.171
 42
0.4128199483
  0
VERTEX
  8
LAYER_1
 10
53.7356
 20
110.4211
  0
SEQEND
  0
POLYLINE
  8
LAYER_1
  6
AIGENLINE001
 40
0.2046
 41
0.2046
 66
1
 10
0
 20
0
 30
0
 70
128
  0
VERTEX
  8
LAYER_1
 10
53.7356
 20
110.4211
  0
VERTEX
  8
LAYER_1
 10
53.3252
 20
110.4226
  0
SEQEND
  0
POLYLINE
  8
LAYER_1
  6
AIGENLINE001
 40
0.2046
 41
0.2046
 66
1
 10
0
 20
0
 30
0
 70
128
  0
VERTEX
  8
LAYER_1
 10
52.2242
 20
110.3769
 42
0.3933119752
  0
VERTEX
  8
LAYER_1
 10
52.4737
 20
110.127
  0
SEQEND
  0
POLYLINE
  8
LAYER_1
  6
AIGENLINE001
 40
0.2046
 41
0.2046
 66
1
 10
0
 20
0
 30
0
 70
128
  0
VERTEX
  8
LAYER_1
 10
53.1245
 20
110.1267
 42
0.3908665225
  0
VERTEX
  8
LAYER_1
 10
53.2247
 20
110.2267
  0
SEQEND
  0
POLYLINE
  8
LAYER_1
  6
AIGENLINE001
 40
0.2046
 41
0.2046
 66
1
 10
0
 20
0
 30
0
 70
128
  0
VERTEX
  8
LAYER_1
 10
53.1245
 20
110.1267
  0
VERTEX
  8
LAYER_1
 10
52.474
 20
110.1267
  0
SEQEND
  0
POLYLINE
  8
LAYER_1
  6
AIGENLINE001
 40
0.2046
 41
0.2046
 66
1
 10
0
 20
0
 30
0
 70
128
  0
VERTEX
  8
LAYER_1
 10
52.2242
 20
110.3769
  0
VERTEX
  8
LAYER_1
 10
52.2242
 20
115.7619
  0
SEQEND
  0
POLYLINE
  8
LAYER_1
  6
AIGENLINE001
 40
0.2046
 41
0.2046
 66
1
 10
0
 20
0
 30
0
 70
128
  0
VERTEX
  8
LAYER_1
 10
84.4845
 20
103.9786
  0
VERTEX
  8
LAYER_1
 10
84.4845
 20
103.8771
  0
SEQEND
  0
POLYLINE
  8
LAYER_1
  6
AIGENLINE001
 40
0.2046
 41
0.2046
 66
1
 10
0
 20
0
 30
0
 70
128
  0
VERTEX
  8
LAYER_1
 10
89.2348
 20
103.6273
 42
0.3929077815
  0
VERTEX
  8
LAYER_1
 10
89.4844
 20
103.8765
  0
SEQEND
  0
POLYLINE
  8
LAYER_1
  6
AIGENLINE001
 40
0.2046
 41
0.2046
 66
1
 10
0
 20
0
 30
0
 70
128
  0
VERTEX
  8
LAYER_1
 10
84.4845
 20
103.8774
 42
0.4141134598
  0
VERTEX
  8
LAYER_1
 10
84.7346
 20
103.6273
  0
SEQEND
  0
POLYLINE
  8
LAYER_1
  6
AIGENLINE001
 40
0.2046
 41
0.2046
 66
1
 10
0
 20
0
 30
0
 70
128
  0
VERTEX
  8
LAYER_1
 10
84.7346
 20
103.6273
  0
VERTEX
  8
LAYER_1
 10
89.2348
 20
103.6273
  0
SEQEND
  0
POLYLINE
  8
LAYER_1
  6
AIGENLINE001
 40
0.2046
 41
0.2046
 66
1
 10
0
 20
0
 30
0
 70
128
  0
VERTEX
  8
LAYER_1
 10
84.9627
 20
104.5367
 42
0.4017002371
  0
VERTEX
  8
LAYER_1
 10
84.4848
 20
104.0373
  0
SEQEND
  0
POLYLINE
  8
LAYER_1
  6
AIGENLINE001
 40
0.2046
 41
0.2046
 66
1
 10
0
 20
0
 30
0
 70
128
  0
VERTEX
  8
LAYER_1
 10
84.4845
 20
104.0373
  0
VERTEX
  8
LAYER_1
 10
84.4845
 20
103.9789
  0
SEQEND
  0
POLYLINE
  8
LAYER_1
  6
AIGENLINE001
 40
0.2046
 41
0.2046
 66
1
 10
0
 20
0
 30
0
 70
128
  0
VERTEX
  8
LAYER_1
 10
89.4847
 20
104.213
  0
VERTEX
  8
LAYER_1
 10
89.4847
 20
103.8765
  0
SEQEND
  0
POLYLINE
  8
LAYER_1
  6
AIGENLINE001
 40
0.2046
 41
0.2046
 66
1
 10
0
 20
0
 30
0
 70
128
  0
VERTEX
  8
LAYER_1
 10
89.4847
 20
104.213
 42
0.4142085009
  0
VERTEX
  8
LAYER_1
 10
88.985
 20
104.7123
  0
VERTEX
  8
LAYER_1
 10
88.9629
 20
104.7123
  0
SEQEND
  0
POLYLINE
  8
LAYER_1
  6
AIGENLINE001
 40
0.2046
 41
0.2046
 66
1
 10
0
 20
0
 30
0
 70
128
  0
VERTEX
  8
LAYER_1
 10
84.9627
 20
104.5367
  0
VERTEX
  8
LAYER_1
 10
88.9626
 20
104.7123
  0
SEQEND
  0
POLYLINE
  8
LAYER_1
  6
AIGENLINE001
 40
0.2046
 41
0.2046
 66
1
 10
0
 20
0
 30
0
 70
128
  0
VERTEX
  8
LAYER_1
 10
59.9852
 20
103.9786
  0
VERTEX
  8
LAYER_1
 10
59.9852
 20
103.8771
  0
SEQEND
  0
POLYLINE
  8
LAYER_1
  6
AIGENLINE001
 40
0.2046
 41
0.2046
 66
1
 10
0
 20
0
 30
0
 70
128
  0
VERTEX
  8
LAYER_1
 10
69.8849
 20
102.6268
 42
0.392693601
  0
VERTEX
  8
LAYER_1
 10
69.9852
 20
102.7267
  0
SEQEND
  0
POLYLINE
  8
LAYER_1
  6
AIGENLINE001
 40
0.2046
 41
0.2046
 66
1
 10
0
 20
0
 30
0
 70
128
  0
VERTEX
  8
LAYER_1
 10
69.8849
 20
102.6268
  0
VERTEX
  8
LAYER_1
 10
68.0853
 20
102.6268
  0
SEQEND
  0
POLYLINE
  8
LAYER_1
  6
AIGENLINE001
 40
0.2046
 41
0.2046
 66
1
 10
0
 20
0
 30
0
 70
128
  0
VERTEX
  8
LAYER_1
 10
91.235
 20
110.3233
 42
0.3934643973
  0
VERTEX
  8
LAYER_1
 10
91.1344
 20
110.4223
  0
SEQEND
  0
POLYLINE
  8
LAYER_1
  6
AIGENLINE001
 40
0.2046
 41
0.2046
 66
1
 10
0
 20
0
 30
0
 70
128
  0
VERTEX
  8
LAYER_1
 10
91.235
 20
110.3233
  0
VERTEX
  8
LAYER_1
 10
91.2353
 20
110.227
  0
SEQEND
  0
POLYLINE
  8
LAYER_1
  6
AIGENLINE001
 40
0.2046
 41
0.2046
 66
1
 10
0
 20
0
 30
0
 70
128
  0
VERTEX
  8
LAYER_1
 10
90.7338
 20
110.4211
 42
0.4128676323
  0
VERTEX
  8
LAYER_1
 10
90.4846
 20
110.171
  0
SEQEND
  0
POLYLINE
  8
LAYER_1
  6
AIGENLINE001
 40
0.2046
 41
0.2046
 66
1
 10
0
 20
0
 30
0
 70
128
  0
VERTEX
  8
LAYER_1
 10
90.7338
 20
110.4211
  0
VERTEX
  8
LAYER_1
 10
91.1344
 20
110.4226
  0
SEQEND
  0
POLYLINE
  8
LAYER_1
  6
AIGENLINE001
 40
0.2046
 41
0.2046
 66
1
 10
0
 20
0
 30
0
 70
128
  0
VERTEX
  8
LAYER_1
 10
91.9857
 20
110.1267
 42
0.4141993455
  0
VERTEX
  8
LAYER_1
 10
92.2358
 20
110.3769
  0
SEQEND
  0
POLYLINE
  8
LAYER_1
  6
AIGENLINE001
 40
0.2046
 41
0.2046
 66
1
 10
0
 20
0
 30
0
 70
128
  0
VERTEX
  8
LAYER_1
 10
91.2353
 20
110.2267
 42
0.3927794374
  0
VERTEX
  8
LAYER_1
 10
91.3352
 20
110.127
  0
SEQEND
  0
POLYLINE
  8
LAYER_1
  6
AIGENLINE001
 40
0.2046
 41
0.2046
 66
1
 10
0
 20
0
 30
0
 70
128
  0
VERTEX
  8
LAYER_1
 10
91.3352
 20
110.1267
  0
VERTEX
  8
LAYER_1
 10
91.9857
 20
110.1267
  0
SEQEND
  0
POLYLINE
  8
LAYER_1
  6
AIGENLINE001
 40
0.2046
 41
0.2046
 66
1
 10
0
 20
0
 30
0
 70
128
  0
VERTEX
  8
LAYER_1
 10
67.9854
 20
103.0277
 42
0.4143912578
  0
VERTEX
  8
LAYER_1
 10
67.8854
 20
103.1277
  0
SEQEND
  0
POLYLINE
  8
LAYER_1
  6
AIGENLINE001
 40
0.2046
 41
0.2046
 66
1
 10
0
 20
0
 30
0
 70
128
  0
VERTEX
  8
LAYER_1
 10
67.8854
 20
103.1277
  0
VERTEX
  8
LAYER_1
 10
61.085
 20
103.1277
  0
SEQEND
  0
POLYLINE
  8
LAYER_1
  6
AIGENLINE001
 40
0.2046
 41
0.2046
 66
1
 10
0
 20
0
 30
0
 70
128
  0
VERTEX
  8
LAYER_1
 10
58.9117
 20
102.1271
 42
0.1406161679
  0
VERTEX
  8
LAYER_1
 10
59.0443
 20
102.165
  0
SEQEND
  0
POLYLINE
  8
LAYER_1
  6
AIGENLINE001
 40
0.2046
 41
0.2046
 66
1
 10
0
 20
0
 30
0
 70
128
  0
VERTEX
  8
LAYER_1
 10
60.7325
 20
102.6407
 42
0.3927892295
  0
VERTEX
  8
LAYER_1
 10
60.9854
 20
102.8878
  0
VERTEX
  8
LAYER_1
 10
60.9854
 20
102.8906
  0
SEQEND
  0
POLYLINE
  8
LAYER_1
  6
AIGENLINE001
 40
0.2046
 41
0.2046
 66
1
 10
0
 20
0
 30
0
 70
128
  0
VERTEX
  8
LAYER_1
 10
60.7325
 20
102.6407
 42
0.1443611165
  0
VERTEX
  8
LAYER_1
 10
59.0446
 20
102.165
  0
SEQEND
  0
POLYLINE
  8
LAYER_1
  6
AIGENLINE001
 40
0.2046
 41
0.2046
 66
1
 10
0
 20
0
 30
0
 70
128
  0
VERTEX
  8
LAYER_1
 10
54.985
 20
103.8768
 42
0.3938809714
  0
VERTEX
  8
LAYER_1
 10
55.2351
 20
103.6273
  0
SEQEND
  0
POLYLINE
  8
LAYER_1
  6
AIGENLINE001
 40
0.2046
 41
0.2046
 66
1
 10
0
 20
0
 30
0
 70
128
  0
VERTEX
  8
LAYER_1
 10
59.735
 20
103.6273
 42
0.4141946163
  0
VERTEX
  8
LAYER_1
 10
59.9849
 20
103.8771
  0
SEQEND
  0
POLYLINE
  8
LAYER_1
  6
AIGENLINE001
 40
0.2046
 41
0.2046
 66
1
 10
0
 20
0
 30
0
 70
128
  0
VERTEX
  8
LAYER_1
 10
59.735
 20
103.6273
  0
VERTEX
  8
LAYER_1
 10
55.2351
 20
103.6273
  0
SEQEND
  0
POLYLINE
  8
LAYER_1
  6
AIGENLINE001
 40
0.2046
 41
0.2046
 66
1
 10
0
 20
0
 30
0
 70
128
  0
VERTEX
  8
LAYER_1
 10
56.2353
 20
102.6268
 42
0.4141354452
  0
VERTEX
  8
LAYER_1
 10
55.9852
 20
102.3767
  0
SEQEND
  0
POLYLINE
  8
LAYER_1
  6
AIGENLINE001
 40
0.2046
 41
0.2046
 66
1
 10
0
 20
0
 30
0
 70
128
  0
VERTEX
  8
LAYER_1
 10
56.7353
 20
102.6268
  0
VERTEX
  8
LAYER_1
 10
56.235
 20
102.6268
  0
SEQEND
  0
POLYLINE
  8
LAYER_1
  6
AIGENLINE001
 40
0.2046
 41
0.2046
 66
1
 10
0
 20
0
 30
0
 70
128
  0
VERTEX
  8
LAYER_1
 10
56.9851
 20
102.3773
 42
0.4141934799
  0
VERTEX
  8
LAYER_1
 10
57.2349
 20
102.1274
  0
SEQEND
  0
POLYLINE
  8
LAYER_1
  6
AIGENLINE001
 40
0.2046
 41
0.2046
 66
1
 10
0
 20
0
 30
0
 70
128
  0
VERTEX
  8
LAYER_1
 10
57.2352
 20
102.1271
  0
VERTEX
  8
LAYER_1
 10
58.9117
 20
102.1271
  0
SEQEND
  0
POLYLINE
  8
LAYER_1
  6
AIGENLINE001
 40
0.2046
 41
0.2046
 66
1
 10
0
 20
0
 30
0
 70
128
  0
VERTEX
  8
LAYER_1
 10
53.9854
 20
102.3767
 42
0.3929102738
  0
VERTEX
  8
LAYER_1
 10
54.2349
 20
102.1265
  0
SEQEND
  0
POLYLINE
  8
LAYER_1
  6
AIGENLINE001
 40
0.2046
 41
0.2046
 66
1
 10
0
 20
0
 30
0
 70
128
  0
VERTEX
  8
LAYER_1
 10
54.2352
 20
102.1265
  0
VERTEX
  8
LAYER_1
 10
55.7354
 20
102.1271
  0
SEQEND
  0
POLYLINE
  8
LAYER_1
  6
AIGENLINE001
 40
0.2046
 41
0.2046
 66
1
 10
0
 20
0
 30
0
 70
128
  0
VERTEX
  8
LAYER_1
 10
56.9851
 20
102.3773
 42
0.3939656247
  0
VERTEX
  8
LAYER_1
 10
56.7353
 20
102.6268
  0
SEQEND
  0
POLYLINE
  8
LAYER_1
  6
AIGENLINE001
 40
0.2046
 41
0.2046
 66
1
 10
0
 20
0
 30
0
 70
128
  0
VERTEX
  8
LAYER_1
 10
56.9851
 20
102.3773
  0
SEQEND
  0
POLYLINE
  8
LAYER_1
  6
AIGENLINE001
 40
0.2046
 41
0.2046
 66
1
 10
0
 20
0
 30
0
 70
128
  0
VERTEX
  8
LAYER_1
 10
67.9854
 20
102.7267
 42
0.3928698092
  0
VERTEX
  8
LAYER_1
 10
68.0856
 20
102.6268
  0
SEQEND
  0
POLYLINE
  8
LAYER_1
  6
AIGENLINE001
 40
0.2046
 41
0.2046
 66
1
 10
0
 20
0
 30
0
 70
128
  0
VERTEX
  8
LAYER_1
 10
67.9854
 20
103.0277
  0
VERTEX
  8
LAYER_1
 10
67.9854
 20
102.7267
  0
SEQEND
  0
POLYLINE
  8
LAYER_1
  6
AIGENLINE001
 40
0.2046
 41
0.2046
 66
1
 10
0
 20
0
 30
0
 70
128
  0
VERTEX
  8
LAYER_1
 10
59.9852
 20
104.0373
 42
0.4016656928
  0
VERTEX
  8
LAYER_1
 10
59.5073
 20
104.5367
  0
SEQEND
  0
POLYLINE
  8
LAYER_1
  6
AIGENLINE001
 40
0.2046
 41
0.2046
 66
1
 10
0
 20
0
 30
0
 70
128
  0
VERTEX
  8
LAYER_1
 10
59.9852
 20
104.0373
  0
VERTEX
  8
LAYER_1
 10
59.9852
 20
103.9789
  0
SEQEND
  0
POLYLINE
  8
LAYER_1
  6
AIGENLINE001
 40
0.2046
 41
0.2046
 66
1
 10
0
 20
0
 30
0
 70
128
  0
VERTEX
  8
LAYER_1
 10
61.0853
 20
103.1277
 42
0.3932996145
  0
VERTEX
  8
LAYER_1
 10
60.9854
 20
103.0271
  0
SEQEND
  0
POLYLINE
  8
LAYER_1
  6
AIGENLINE001
 40
0.2046
 41
0.2046
 66
1
 10
0
 20
0
 30
0
 70
128
  0
VERTEX
  8
LAYER_1
 10
60.9854
 20
103.0271
  0
VERTEX
  8
LAYER_1
 10
60.9854
 20
102.8906
  0
SEQEND
  0
POLYLINE
  8
LAYER_1
  6
AIGENLINE001
 40
0.2046
 41
0.2046
 66
1
 10
0
 20
0
 30
0
 70
128
  0
VERTEX
  8
LAYER_1
 10
55.7351
 20
102.1271
 42
0.3936816827
  0
VERTEX
  8
LAYER_1
 10
55.9849
 20
102.3767
  0
SEQEND
  0
POLYLINE
  8
LAYER_1
  6
AIGENLINE001
 40
0.2046
 41
0.2046
 66
1
 10
0
 20
0
 30
0
 70
128
  0
VERTEX
  8
LAYER_1
 10
55.9852
 20
102.3767
  0
SEQEND
  0
POLYLINE
  8
LAYER_1
  6
AIGENLINE001
 40
0.2046
 41
0.2046
 66
1
 10
0
 20
0
 30
0
 70
128
  0
VERTEX
  8
LAYER_1
 10
54.985
 20
104.213
  0
VERTEX
  8
LAYER_1
 10
54.985
 20
103.8765
  0
SEQEND
  0
POLYLINE
  8
LAYER_1
  6
AIGENLINE001
 40
0.2046
 41
0.2046
 66
1
 10
0
 20
0
 30
0
 70
128
  0
VERTEX
  8
LAYER_1
 10
53.9845
 20
110.171
  0
VERTEX
  8
LAYER_1
 10
53.9851
 20
102.3767
  0
SEQEND
  0
POLYLINE
  8
LAYER_1
  6
AIGENLINE001
 40
0.2046
 41
0.2046
 66
1
 10
0
 20
0
 30
0
 70
128
  0
VERTEX
  8
LAYER_1
 10
55.5071
 20
104.7126
 42
0.3923342681
  0
VERTEX
  8
LAYER_1
 10
54.9853
 20
104.2345
  0
VERTEX
  8
LAYER_1
 10
54.985
 20
104.213
  0
SEQEND
  0
POLYLINE
  8
LAYER_1
  6
AIGENLINE001
 40
0.2046
 41
0.2046
 66
1
 10
0
 20
0
 30
0
 70
128
  0
VERTEX
  8
LAYER_1
 10
59.507
 20
104.5367
  0
VERTEX
  8
LAYER_1
 10
55.5074
 20
104.7123
  0
SEQEND
  0
POLYLINE
  8
LAYER_1
  6
AIGENLINE001
 40
0.2046
 41
0.2046
 66
1
 10
0
 20
0
 30
0
 70
128
  0
VERTEX
  8
LAYER_1
 10
55.6406
 20
106.0568
 42
0.3266139688
  0
VERTEX
  8
LAYER_1
 10
56.1012
 20
105.6865
  0
SEQEND
  0
POLYLINE
  8
LAYER_1
  6
AIGENLINE001
 40
0.2046
 41
0.2046
 66
1
 10
0
 20
0
 30
0
 70
128
  0
VERTEX
  8
LAYER_1
 10
68.8469
 20
105.0763
 42
0.1650051271
  0
VERTEX
  8
LAYER_1
 10
68.6976
 20
105.1341
  0
SEQEND
  0
POLYLINE
  8
LAYER_1
  6
AIGENLINE001
 40
0.2046
 41
0.2046
 66
1
 10
0
 20
0
 30
0
 70
128
  0
VERTEX
  8
LAYER_1
 10
68.6973
 20
105.1341
  0
VERTEX
  8
LAYER_1
 10
56.1012
 20
105.6865
  0
SEQEND
  0
POLYLINE
  8
LAYER_1
  6
AIGENLINE001
 40
0.2046
 41
0.2046
 66
1
 10
0
 20
0
 30
0
 70
128
  0
VERTEX
  8
LAYER_1
 10
53.0027
 20
115.834
  0
VERTEX
  8
LAYER_1
 10
55.6403
 20
106.0565
  0
SEQEND
  0
POLYLINE
  8
LAYER_1
  6
AIGENLINE001
 40
0.2046
 41
0.2046
 66
1
 10
0
 20
0
 30
0
 70
128
  0
VERTEX
  8
LAYER_1
 10
76.5854
 20
103.1265
  0
VERTEX
  8
LAYER_1
 10
83.3856
 20
103.1265
  0
SEQEND
  0
POLYLINE
  8
LAYER_1
  6
AIGENLINE001
 40
0.2046
 41
0.2046
 66
1
 10
0
 20
0
 30
0
 70
128
  0
VERTEX
  8
LAYER_1
 10
74.4848
 20
102.7267
 42
0.3928698092
  0
VERTEX
  8
LAYER_1
 10
74.585
 20
102.6268
  0
SEQEND
  0
POLYLINE
  8
LAYER_1
  6
AIGENLINE001
 40
0.2046
 41
0.2046
 66
1
 10
0
 20
0
 30
0
 70
128
  0
VERTEX
  8
LAYER_1
 10
74.585
 20
102.6268
  0
VERTEX
  8
LAYER_1
 10
76.3856
 20
102.6268
  0
SEQEND
  0
POLYLINE
  8
LAYER_1
  6
AIGENLINE001
 40
0.2046
 41
0.2046
 66
1
 10
0
 20
0
 30
0
 70
128
  0
VERTEX
  8
LAYER_1
 10
83.4855
 20
102.89
 42
0.4142349052
  0
VERTEX
  8
LAYER_1
 10
83.7353
 20
102.6401
  0
VERTEX
  8
LAYER_1
 10
83.7387
 20
102.6401
  0
SEQEND
  0
POLYLINE
  8
LAYER_1
  6
AIGENLINE001
 40
0.2046
 41
0.2046
 66
1
 10
0
 20
0
 30
0
 70
128
  0
VERTEX
  8
LAYER_1
 10
85.4263
 20
102.1653
 42
0.1420363939
  0
VERTEX
  8
LAYER_1
 10
85.5589
 20
102.1268
  0
SEQEND
  0
POLYLINE
  8
LAYER_1
  6
AIGENLINE001
 40
0.2046
 41
0.2046
 66
1
 10
0
 20
0
 30
0
 70
128
  0
VERTEX
  8
LAYER_1
 10
85.4263
 20
102.1653
 42
0.1437253391
  0
VERTEX
  8
LAYER_1
 10
83.7384
 20
102.6401
  0
SEQEND
  0
POLYLINE
  8
LAYER_1
  6
AIGENLINE001
 40
0.2046
 41
0.2046
 66
1
 10
0
 20
0
 30
0
 70
128
  0
VERTEX
  8
LAYER_1
 10
87.7356
 20
102.6268
  0
VERTEX
  8
LAYER_1
 10
88.2352
 20
102.6268
  0
SEQEND
  0
POLYLINE
  8
LAYER_1
  6
AIGENLINE001
 40
0.2046
 41
0.2046
 66
1
 10
0
 20
0
 30
0
 70
128
  0
VERTEX
  8
LAYER_1
 10
87.2356
 20
102.1265
  0
VERTEX
  8
LAYER_1
 10
85.5595
 20
102.1265
  0
SEQEND
  0
POLYLINE
  8
LAYER_1
  6
AIGENLINE001
 40
0.2046
 41
0.2046
 66
1
 10
0
 20
0
 30
0
 70
128
  0
VERTEX
  8
LAYER_1
 10
90.2357
 20
102.1265
 42
0.3931575925
  0
VERTEX
  8
LAYER_1
 10
90.4855
 20
102.3767
  0
SEQEND
  0
POLYLINE
  8
LAYER_1
  6
AIGENLINE001
 40
0.2046
 41
0.2046
 66
1
 10
0
 20
0
 30
0
 70
128
  0
VERTEX
  8
LAYER_1
 10
90.2357
 20
102.1265
  0
VERTEX
  8
LAYER_1
 10
88.7355
 20
102.1265
  0
SEQEND
  0
POLYLINE
  8
LAYER_1
  6
AIGENLINE001
 40
0.2046
 41
0.2046
 66
1
 10
0
 20
0
 30
0
 70
128
  0
VERTEX
  8
LAYER_1
 10
87.2356
 20
102.1265
 42
0.3930459396
  0
VERTEX
  8
LAYER_1
 10
87.4855
 20
102.3767
  0
SEQEND
  0
POLYLINE
  8
LAYER_1
  6
AIGENLINE001
 40
0.2046
 41
0.2046
 66
1
 10
0
 20
0
 30
0
 70
128
  0
VERTEX
  8
LAYER_1
 10
87.7356
 20
102.6268
 42
0.3931504718
  0
VERTEX
  8
LAYER_1
 10
87.4858
 20
102.3767
  0
SEQEND
  0
POLYLINE
  8
LAYER_1
  6
AIGENLINE001
 40
0.2046
 41
0.2046
 66
1
 10
0
 20
0
 30
0
 70
128
  0
VERTEX
  8
LAYER_1
 10
87.4855
 20
102.3767
  0
SEQEND
  0
POLYLINE
  8
LAYER_1
  6
AIGENLINE001
 40
0.2046
 41
0.2046
 66
1
 10
0
 20
0
 30
0
 70
128
  0
VERTEX
  8
LAYER_1
 10
76.3856
 20
102.6268
 42
0.4140849254
  0
VERTEX
  8
LAYER_1
 10
76.4855
 20
102.7267
  0
SEQEND
  0
POLYLINE
  8
LAYER_1
  6
AIGENLINE001
 40
0.2046
 41
0.2046
 66
1
 10
0
 20
0
 30
0
 70
128
  0
VERTEX
  8
LAYER_1
 10
76.5854
 20
103.1265
 42
0.3924903826
  0
VERTEX
  8
LAYER_1
 10
76.4852
 20
103.0265
  0
SEQEND
  0
POLYLINE
  8
LAYER_1
  6
AIGENLINE001
 40
0.2046
 41
0.2046
 66
1
 10
0
 20
0
 30
0
 70
128
  0
VERTEX
  8
LAYER_1
 10
76.4855
 20
103.0265
  0
VERTEX
  8
LAYER_1
 10
76.4855
 20
102.7264
  0
SEQEND
  0
POLYLINE
  8
LAYER_1
  6
AIGENLINE001
 40
0.2046
 41
0.2046
 66
1
 10
0
 20
0
 30
0
 70
128
  0
VERTEX
  8
LAYER_1
 10
83.4855
 20
103.0265
 42
0.4142079677
  0
VERTEX
  8
LAYER_1
 10
83.3856
 20
103.1265
  0
SEQEND
  0
POLYLINE
  8
LAYER_1
  6
AIGENLINE001
 40
0.2046
 41
0.2046
 66
1
 10
0
 20
0
 30
0
 70
128
  0
VERTEX
  8
LAYER_1
 10
83.4855
 20
103.0265
  0
VERTEX
  8
LAYER_1
 10
83.4855
 20
102.89
  0
SEQEND
  0
POLYLINE
  8
LAYER_1
  6
AIGENLINE001
 40
0.2046
 41
0.2046
 66
1
 10
0
 20
0
 30
0
 70
128
  0
VERTEX
  8
LAYER_1
 10
88.4857
 20
102.3767
 42
0.3929324603
  0
VERTEX
  8
LAYER_1
 10
88.7355
 20
102.1265
  0
SEQEND
  0
POLYLINE
  8
LAYER_1
  6
AIGENLINE001
 40
0.2046
 41
0.2046
 66
1
 10
0
 20
0
 30
0
 70
128
  0
VERTEX
  8
LAYER_1
 10
88.4857
 20
102.3767
 42
0.3930514283
  0
VERTEX
  8
LAYER_1
 10
88.2358
 20
102.6268
  0
SEQEND
  0
POLYLINE
  8
LAYER_1
  6
AIGENLINE001
 40
0.2046
 41
0.2046
 66
1
 10
0
 20
0
 30
0
 70
128
  0
VERTEX
  8
LAYER_1
 10
88.4857
 20
102.3767
  0
SEQEND
  0
POLYLINE
  8
LAYER_1
  6
AIGENLINE001
 40
0.2046
 41
0.2046
 66
1
 10
0
 20
0
 30
0
 70
128
  0
VERTEX
  8
LAYER_1
 10
90.4846
 20
110.171
  0
VERTEX
  8
LAYER_1
 10
90.4858
 20
102.3767
  0
SEQEND
  0
POLYLINE
  8
LAYER_1
  6
AIGENLINE001
 40
0.2046
 41
0.2046
 66
1
 10
0
 20
0
 30
0
 70
128
  0
VERTEX
  8
LAYER_1
 10
88.3691
 20
105.6868
 42
0.3167514656
  0
VERTEX
  8
LAYER_1
 10
88.83
 20
106.0568
  0
SEQEND
  0
POLYLINE
  8
LAYER_1
  6
AIGENLINE001
 40
0.2046
 41
0.2046
 66
1
 10
0
 20
0
 30
0
 70
128
  0
VERTEX
  8
LAYER_1
 10
75.773
 20
105.1348
 42
0.1636856928
  0
VERTEX
  8
LAYER_1
 10
75.6234
 20
105.0769
  0
SEQEND
  0
POLYLINE
  8
LAYER_1
  6
AIGENLINE001
 40
0.2046
 41
0.2046
 66
1
 10
0
 20
0
 30
0
 70
128
  0
VERTEX
  8
LAYER_1
 10
75.773
 20
105.1348
  0
VERTEX
  8
LAYER_1
 10
88.3694
 20
105.6868
  0
SEQEND
  0
POLYLINE
  8
LAYER_1
  6
AIGENLINE001
 40
0.2046
 41
0.2046
 66
1
 10
0
 20
0
 30
0
 70
128
  0
VERTEX
  8
LAYER_1
 10
74.4848
 20
104.1212
  0
VERTEX
  8
LAYER_1
 10
74.4848
 20
102.7267
  0
SEQEND
  0
POLYLINE
  8
LAYER_1
  6
AIGENLINE001
 40
0.2046
 41
0.2046
 66
1
 10
0
 20
0
 30
0
 70
128
  0
VERTEX
  8
LAYER_1
 10
69.9849
 20
104.1212
  0
VERTEX
  8
LAYER_1
 10
69.9849
 20
102.7267
  0
SEQEND
  0
POLYLINE
  8
LAYER_1
  6
AIGENLINE001
 40
0.2046
 41
0.2046
 66
1
 10
0
 20
0
 30
0
 70
128
  0
VERTEX
  8
LAYER_1
 10
91.4569
 20
115.8334
  0
VERTEX
  8
LAYER_1
 10
88.83
 20
106.0568
  0
SEQEND
  0
POLYLINE
  8
LAYER_1
  6
AIGENLINE001
 40
0.2046
 41
0.2046
 66
1
 10
0
 20
0
 30
0
 70
128
  0
VERTEX
  8
LAYER_1
 10
92.2358
 20
110.3769
  0
VERTEX
  8
LAYER_1
 10
92.2358
 20
115.7619
  0
SEQEND
  0
ENDBLK
  0
BLOCK
  8
LAYER_1
  2
AIGNBL01010003
 70
64
 10
0
 20
0
 30
0
  3
AIGNBL01010003
  0
POLYLINE
  8
LAYER_1
  6
AIGENLINE001
 40
0.2046
 41
0.2046
 66
1
 10
0
 20
0
 30
0
 70
128
  0
VERTEX
  8
LAYER_1
 10
145.7377
 20
105.1317
  0
VERTEX
  8
LAYER_1
 10
152.8134
 20
105.132
  0
SEQEND
  0
POLYLINE
  8
LAYER_1
  6
AIGENLINE001
 40
0.2046
 41
0.2046
 66
1
 10
0
 20
0
 30
0
 70
128
  0
VERTEX
  8
LAYER_1
 10
147.0256
 20
104.1188
  0
VERTEX
  8
LAYER_1
 10
145.8873
 20
105.0736
  0
SEQEND
  0
ENDBLK
  0
BLOCK
  8
LAYER_2
  2
AIGNBL02010002
 70
64
 10
0
 20
0
 30
0
  3
AIGNBL02010002
  0
POLYLINE
  8
LAYER_2
 40
0.7056
 41
0.7056
 66
1
 10
0
 20
0
 30
0
 70
1
  0
VERTEX
  8
LAYER_2
 10
251.6749
 20
230.337
  0
VERTEX
  8
LAYER_2
 10
251.6749
 20
33.3285
  0
VERTEX
  8
LAYER_2
 10
-30.3177
 20
33.3285
  0
VERTEX
  8
LAYER_2
 10
-30.3177
 20
230.337
  0
SEQEND
  0
ENDBLK
  0
BLOCK
  8
LAYER_2
  2
AIGNBL02010003
 70
64
 10
0
 20
0
 30
0
  3
AIGNBL02010003
  0
INSERT
  8
LAYER_2
  2
AIGNBL02020004
 10
0
 20
0
 30
0
  0
POLYLINE
  8
LAYER_2
 40
0.05
 41
0.05
 66
1
 10
0
 20
0
 30
0
  0
VERTEX
  8
LAYER_2
 10
-6.457
 20
223.2684
  0
VERTEX
  8
LAYER_2
 10
-8.0924
 20
223.2684
  0
VERTEX
  8
LAYER_2
 10
-8.0924
 20
216.1939
 42
0.1050424825
  0
VERTEX
  8
LAYER_2
 10
-7.9127
 20
215.3316
 42
0.1079536646
  0
VERTEX
  8
LAYER_2
 10
-7.4796
 20
214.75
 42
0.105678841
  0
VERTEX
  8
LAYER_2
 10
-6.8587
 20
214.4154
 42
0.04706827067
  0
VERTEX
  8
LAYER_2
 10
-6.4597
 20
214.3359
  0
VERTEX
  8
LAYER_2
 10
-6.457
 20
223.2684
  0
SEQEND
  0
INSERT
  8
LAYER_2
  2
AIGNBL02020005
 10
0
 20
0
 30
0
  0
ENDBLK
  0
BLOCK
  8
LAYER_2
  2
AIGNBL02010006
 70
64
 10
0
 20
0
 30
0
  3
AIGNBL02010006
  0
INSERT
  8
LAYER_2
  2
AIGNBL02020007
 10
0
 20
0
 30
0
  0
INSERT
  8
LAYER_2
  2
AIGNBL02020010
 10
0
 20
0
 30
0
  0
ENDBLK
  0
ENDSEC
  0
SECTION
  2
ENTITIES
  0
CIRCLE
  8
LAYER_1
 10
72.227
 20
170.103
 40
2.3001
  0
POLYLINE
  8
LAYER_1
 40
0.4092
 41
0.4092
 66
1
 10
0
 20
0
 30
0
  0
VERTEX
  8
LAYER_1
 10
54.2852
 20
102.1265
  0
VERTEX
  8
LAYER_1
 10
90.1857
 20
102.1265
  0
SEQEND
  0
POLYLINE
  8
LAYER_1
 40
0.4092
 41
0.4092
 66
1
 10
0
 20
0
 30
0
  0
VERTEX
  8
LAYER_1
 10
53.9854
 20
102.4263
 42
0.3931753213
  0
VERTEX
  8
LAYER_1
 10
54.2852
 20
102.1262
  0
SEQEND
  0
POLYLINE
  8
LAYER_1
 40
0.4092
 41
0.4092
 66
1
 10
0
 20
0
 30
0
  0
VERTEX
  8
LAYER_1
 10
52.5346
 20
110.1267
  0
VERTEX
  8
LAYER_1
 10
91.9357
 20
110.1267
  0
SEQEND
  0
POLYLINE
  8
LAYER_1
 40
0.4092
 41
0.4092
 66
1
 10
0
 20
0
 30
0
  0
VERTEX
  8
LAYER_1
 10
52.2345
 20
110.4265
 42
0.3933049615
  0
VERTEX
  8
LAYER_1
 10
52.5346
 20
110.1267
  0
SEQEND
  0
POLYLINE
  8
LAYER_1
 40
0.4092
 41
0.4092
 66
1
 10
0
 20
0
 30
0
  0
VERTEX
  8
LAYER_1
 10
52.534
 20
116.1268
  0
VERTEX
  8
LAYER_1
 10
91.9354
 20
116.1268
  0
SEQEND
  0
POLYLINE
  8
LAYER_1
 40
0.4092
 41
0.4092
 66
1
 10
0
 20
0
 30
0
  0
VERTEX
  8
LAYER_1
 10
52.534
 20
116.1268
 42
0.3935281761
  0
VERTEX
  8
LAYER_1
 10
52.2339
 20
115.8264
  0
SEQEND
  0
POLYLINE
  8
LAYER_1
 40
0.4092
 41
0.4092
 66
1
 10
0
 20
0
 30
0
  0
VERTEX
  8
LAYER_1
 10
92.2358
 20
110.4265
  0
VERTEX
  8
LAYER_1
 10
92.2358
 20
115.8267
  0
SEQEND
  0
POLYLINE
  8
LAYER_1
 40
0.4092
 41
0.4092
 66
1
 10
0
 20
0
 30
0
  0
VERTEX
  8
LAYER_1
 10
92.2358
 20
115.8264
 42
0.4142298027
  0
VERTEX
  8
LAYER_1
 10
91.9354
 20
116.1271
  0
SEQEND
  0
POLYLINE
  8
LAYER_1
 40
0.4092
 41
0.4092
 66
1
 10
0
 20
0
 30
0
  0
VERTEX
  8
LAYER_1
 10
91.9357
 20
110.1267
 42
0.3929247533
  0
VERTEX
  8
LAYER_1
 10
92.2361
 20
110.4268
  0
SEQEND
  0
POLYLINE
  8
LAYER_1
 40
0.4092
 41
0.4092
 66
1
 10
0
 20
0
 30
0
  0
VERTEX
  8
LAYER_1
 10
90.4858
 20
102.4269
  0
VERTEX
  8
LAYER_1
 10
90.4858
 20
110.1267
  0
SEQEND
  0
POLYLINE
  8
LAYER_1
 40
0.4092
 41
0.4092
 66
1
 10
0
 20
0
 30
0
  0
VERTEX
  8
LAYER_1
 10
90.1857
 20
102.1265
 42
0.3934200585
  0
VERTEX
  8
LAYER_1
 10
90.4858
 20
102.4272
  0
SEQEND
  0
POLYLINE
  8
LAYER_1
 40
0.4092
 41
0.4092
 66
1
 10
0
 20
0
 30
0
  0
VERTEX
  8
LAYER_1
 10
52.2345
 20
110.4265
  0
VERTEX
  8
LAYER_1
 10
52.2342
 20
115.8267
  0
SEQEND
  0
POLYLINE
  8
LAYER_1
 40
0.4092
 41
0.4092
 66
1
 10
0
 20
0
 30
0
  0
VERTEX
  8
LAYER_1
 10
53.9854
 20
102.4263
  0
VERTEX
  8
LAYER_1
 10
53.9848
 20
110.1267
  0
SEQEND
  0
POLYLINE
  8
LAYER_1
 40
0.4092
 41
0.4092
 66
1
 10
0
 20
0
 30
0
  0
VERTEX
  8
LAYER_1
 10
131.3253
 20
102.1238
  0
VERTEX
  8
LAYER_1
 10
167.2258
 20
102.1238
 42
0.4142526868
  0
VERTEX
  8
LAYER_1
 10
167.5259
 20
102.4242
  0
SEQEND
  0
POLYLINE
  8
LAYER_1
 40
0.4092
 41
0.4092
 66
1
 10
0
 20
0
 30
0
  0
VERTEX
  8
LAYER_1
 10
131.0252
 20
102.4239
 42
0.4141889537
  0
VERTEX
  8
LAYER_1
 10
131.3256
 20
102.1235
  0
SEQEND
  0
POLYLINE
  8
LAYER_1
 40
0.4092
 41
0.4092
 66
1
 10
0
 20
0
 30
0
  0
VERTEX
  8
LAYER_1
 10
129.575
 20
110.124
  0
VERTEX
  8
LAYER_1
 10
168.9761
 20
110.124
  0
SEQEND
  0
POLYLINE
  8
LAYER_1
 40
0.4092
 41
0.4092
 66
1
 10
0
 20
0
 30
0
  0
VERTEX
  8
LAYER_1
 10
168.9759
 20
110.124
 42
0.4141591571
  0
VERTEX
  8
LAYER_1
 10
169.2762
 20
110.4241
  0
SEQEND
  0
POLYLINE
  8
LAYER_1
 40
0.4092
 41
0.4092
 66
1
 10
0
 20
0
 30
0
  0
VERTEX
  8
LAYER_1
 10
129.2749
 20
110.4238
 42
0.3934329762
  0
VERTEX
  8
LAYER_1
 10
129.575
 20
110.124
  0
SEQEND
  0
POLYLINE
  8
LAYER_1
 40
0.4092
 41
0.4092
 66
1
 10
0
 20
0
 30
0
  0
VERTEX
  8
LAYER_1
 10
129.5741
 20
116.1241
  0
VERTEX
  8
LAYER_1
 10
168.9755
 20
116.1241
  0
SEQEND
  0
POLYLINE
  8
LAYER_1
 40
0.4092
 41
0.4092
 66
1
 10
0
 20
0
 30
0
  0
VERTEX
  8
LAYER_1
 10
129.5741
 20
116.1241
 42
0.4141888228
  0
VERTEX
  8
LAYER_1
 10
129.274
 20
115.824
  0
SEQEND
  0
POLYLINE
  8
LAYER_1
 40
0.4092
 41
0.4092
 66
1
 10
0
 20
0
 30
0
  0
VERTEX
  8
LAYER_1
 10
169.2759
 20
110.4238
  0
VERTEX
  8
LAYER_1
 10
169.2759
 20
115.824
 42
0.4142467355
  0
VERTEX
  8
LAYER_1
 10
168.9758
 20
116.1244
  0
SEQEND
  0
POLYLINE
  8
LAYER_1
 40
0.4092
 41
0.4092
 66
1
 10
0
 20
0
 30
0
  0
VERTEX
  8
LAYER_1
 10
167.5259
 20
102.4239
  0
VERTEX
  8
LAYER_1
 10
167.5259
 20
110.124
  0
SEQEND
  0
POLYLINE
  8
LAYER_1
 40
0.4092
 41
0.4092
 66
1
 10
0
 20
0
 30
0
  0
VERTEX
  8
LAYER_1
 10
129.2749
 20
110.4238
  0
VERTEX
  8
LAYER_1
 10
129.2743
 20
115.824
  0
SEQEND
  0
POLYLINE
  8
LAYER_1
 40
0.4092
 41
0.4092
 66
1
 10
0
 20
0
 30
0
  0
VERTEX
  8
LAYER_1
 10
131.0252
 20
102.4239
  0
VERTEX
  8
LAYER_1
 10
131.0246
 20
110.124
  0
SEQEND
  0
CIRCLE
  8
LAYER_1
 10
72.2364
 20
170.103
 40
3.5388
  0
POLYLINE
  8
LAYER_1
 40
0.4092
 41
0.4092
 66
1
 10
0
 20
0
 30
0
  0
VERTEX
  8
LAYER_1
 10
52.2342
 20
156.1033
  0
VERTEX
  8
LAYER_1
 10
52.2342
 20
184.1029
  0
SEQEND
  0
POLYLINE
  8
LAYER_1
 40
0.4092
 41
0.4092
 66
1
 10
0
 20
0
 30
0
  0
VERTEX
  8
LAYER_1
 10
55.7339
 20
156.1033
  0
VERTEX
  8
LAYER_1
 10
55.7339
 20
184.1029
  0
SEQEND
  0
POLYLINE
  8
LAYER_1
 40
0.4092
 41
0.4092
 66
1
 10
0
 20
0
 30
0
  0
VERTEX
  8
LAYER_1
 10
52.934
 20
156.1033
  0
VERTEX
  8
LAYER_1
 10
52.934
 20
184.1029
  0
SEQEND
  0
POLYLINE
  8
LAYER_1
 40
0.4092
 41
0.4092
 66
1
 10
0
 20
0
 30
0
  0
VERTEX
  8
LAYER_1
 10
92.2358
 20
156.1033
  0
VERTEX
  8
LAYER_1
 10
92.2358
 20
184.1029
  0
SEQEND
  0
POLYLINE
  8
LAYER_1
 40
0.4092
 41
0.4092
 66
1
 10
0
 20
0
 30
0
  0
VERTEX
  8
LAYER_1
 10
88.7358
 20
156.1033
  0
VERTEX
  8
LAYER_1
 10
88.7358
 20
184.1029
  0
SEQEND
  0
POLYLINE
  8
LAYER_1
 40
0.4092
 41
0.4092
 66
1
 10
0
 20
0
 30
0
  0
VERTEX
  8
LAYER_1
 10
91.5357
 20
156.1033
  0
VERTEX
  8
LAYER_1
 10
91.5357
 20
184.1029
  0
SEQEND
  0
POLYLINE
  8
LAYER_1
 40
0.4092
 41
0.4092
 66
1
 10
0
 20
0
 30
0
  0
VERTEX
  8
LAYER_1
 10
92.2358
 20
184.103
 42
0.4142125673
  0
VERTEX
  8
LAYER_1
 10
86.2354
 20
190.103
  0
SEQEND
  0
POLYLINE
  8
LAYER_1
 40
0.4092
 41
0.4092
 66
1
 10
0
 20
0
 30
0
  0
VERTEX
  8
LAYER_1
 10
88.7358
 20
184.103
 42
0.4142111749
  0
VERTEX
  8
LAYER_1
 10
86.2354
 20
186.6027
  0
SEQEND
  0
POLYLINE
  8
LAYER_1
 40
0.4092
 41
0.4092
 66
1
 10
0
 20
0
 30
0
  0
VERTEX
  8
LAYER_1
 10
91.5357
 20
184.103
 42
0.4142124548
  0
VERTEX
  8
LAYER_1
 10
86.2357
 20
189.4026
  0
SEQEND
  0
POLYLINE
  8
LAYER_1
 40
0.4092
 41
0.4092
 66
1
 10
0
 20
0
 30
0
  0
VERTEX
  8
LAYER_1
 10
86.2354
 20
150.1032
 42
0.4142143553
  0
VERTEX
  8
LAYER_1
 10
92.2358
 20
156.1033
  0
SEQEND
  0
POLYLINE
  8
LAYER_1
 40
0.4092
 41
0.4092
 66
1
 10
0
 20
0
 30
0
  0
VERTEX
  8
LAYER_1
 10
86.2354
 20
153.6032
 42
0.4142160471
  0
VERTEX
  8
LAYER_1
 10
88.7358
 20
156.103
  0
SEQEND
  0
POLYLINE
  8
LAYER_1
 40
0.4092
 41
0.4092
 66
1
 10
0
 20
0
 30
0
  0
VERTEX
  8
LAYER_1
 10
86.2354
 20
150.803
 42
0.4142147343
  0
VERTEX
  8
LAYER_1
 10
91.5357
 20
156.103
  0
SEQEND
  0
POLYLINE
  8
LAYER_1
 40
0.4092
 41
0.4092
 66
1
 10
0
 20
0
 30
0
  0
VERTEX
  8
LAYER_1
 10
58.2343
 20
190.1027
  0
VERTEX
  8
LAYER_1
 10
86.2357
 20
190.1027
  0
SEQEND
  0
POLYLINE
  8
LAYER_1
 40
0.4092
 41
0.4092
 66
1
 10
0
 20
0
 30
0
  0
VERTEX
  8
LAYER_1
 10
58.2343
 20
186.6027
  0
VERTEX
  8
LAYER_1
 10
86.2357
 20
186.6027
  0
SEQEND
  0
POLYLINE
  8
LAYER_1
 40
0.4092
 41
0.4092
 66
1
 10
0
 20
0
 30
0
  0
VERTEX
  8
LAYER_1
 10
58.2343
 20
189.4029
  0
VERTEX
  8
LAYER_1
 10
86.2357
 20
189.4029
  0
SEQEND
  0
POLYLINE
  8
LAYER_1
 40
0.4092
 41
0.4092
 66
1
 10
0
 20
0
 30
0
  0
VERTEX
  8
LAYER_1
 10
58.2343
 20
190.1027
 42
0.4142178183
  0
VERTEX
  8
LAYER_1
 10
52.2339
 20
184.1026
  0
SEQEND
  0
POLYLINE
  8
LAYER_1
 40
0.4092
 41
0.4092
 66
1
 10
0
 20
0
 30
0
  0
VERTEX
  8
LAYER_1
 10
58.2343
 20
186.6027
 42
0.4142243579
  0
VERTEX
  8
LAYER_1
 10
55.7339
 20
184.1029
  0
SEQEND
  0
POLYLINE
  8
LAYER_1
 40
0.4092
 41
0.4092
 66
1
 10
0
 20
0
 30
0
  0
VERTEX
  8
LAYER_1
 10
58.2343
 20
189.4029
 42
0.4142186548
  0
VERTEX
  8
LAYER_1
 10
52.934
 20
184.1029
  0
SEQEND
  0
POLYLINE
  8
LAYER_1
 40
0.4092
 41
0.4092
 66
1
 10
0
 20
0
 30
0
  0
VERTEX
  8
LAYER_1
 10
58.2343
 20
150.1032
  0
VERTEX
  8
LAYER_1
 10
86.2357
 20
150.1032
  0
SEQEND
  0
POLYLINE
  8
LAYER_1
 40
0.4092
 41
0.4092
 66
1
 10
0
 20
0
 30
0
  0
VERTEX
  8
LAYER_1
 10
58.2343
 20
153.6032
  0
VERTEX
  8
LAYER_1
 10
86.2357
 20
153.6032
  0
SEQEND
  0
POLYLINE
  8
LAYER_1
 40
0.4092
 41
0.4092
 66
1
 10
0
 20
0
 30
0
  0
VERTEX
  8
LAYER_1
 10
58.2343
 20
150.803
  0
VERTEX
  8
LAYER_1
 10
86.2357
 20
150.803
  0
SEQEND
  0
POLYLINE
  8
LAYER_1
 40
0.4092
 41
0.4092
 66
1
 10
0
 20
0
 30
0
  0
VERTEX
  8
LAYER_1
 10
52.2342
 20
156.1033
 42
0.4142158694
  0
VERTEX
  8
LAYER_1
 10
58.2343
 20
150.1029
  0
SEQEND
  0
POLYLINE
  8
LAYER_1
 40
0.4092
 41
0.4092
 66
1
 10
0
 20
0
 30
0
  0
VERTEX
  8
LAYER_1
 10
55.7339
 20
156.1033
 42
0.414219099
  0
VERTEX
  8
LAYER_1
 10
58.2343
 20
153.6032
  0
SEQEND
  0
POLYLINE
  8
LAYER_1
 40
0.4092
 41
0.4092
 66
1
 10
0
 20
0
 30
0
  0
VERTEX
  8
LAYER_1
 10
52.934
 20
156.1033
 42
0.4142163209
  0
VERTEX
  8
LAYER_1
 10
58.234
 20
150.8033
  0
SEQEND
  0
POLYLINE
  8
LAYER_1
 40
0.1023
 41
0.1023
 66
1
 10
0
 20
0
 30
0
  0
VERTEX
  8
LAYER_1
 10
77.248
 20
166.4143
  0
VERTEX
  8
LAYER_1
 10
76.2478
 20
166.4143
  0
VERTEX
  8
LAYER_1
 10
74.6592
 20
167.8721
  0
SEQEND
  0
TEXT
  8
LAYER_1
 10
77.5598
 20
165.9327
 11
77.5598
 21
165.9327
 40
3.8503
 41
0.5
  1
46
  0
POLYLINE
  8
LAYER_1
 40
0.05
 41
0.05
 66
1
 10
0
 20
0
 30
0
  0
VERTEX
  8
LAYER_1
 10
74.7716
 20
167.995
  0
VERTEX
  8
LAYER_1
 10
74.5463
 20
167.7495
  0
VERTEX
  8
LAYER_1
 10
73.9221
 20
168.5483
  0
SEQEND
  0
POLYLINE
  8
LAYER_1
 40
0.1023
 41
0.1023
 66
1
 10
0
 20
0
 30
0
  0
VERTEX
  8
LAYER_1
 10
72.2182
 20
170.103
  0
VERTEX
  8
LAYER_1
 10
72.236
 20
170.103
  0
SEQEND
  0
POLYLINE
  8
LAYER_1
 40
0.1023
 41
0.1023
 66
1
 10
0
 20
0
 30
0
  0
VERTEX
  8
LAYER_1
 10
72.227
 20
170.0939
  0
VERTEX
  8
LAYER_1
 10
72.227
 20
170.1118
  0
SEQEND
  0
POLYLINE
  8
LAYER_1
 40
0.1023
 41
0.1023
 66
1
 10
0
 20
0
 30
0
  0
VERTEX
  8
LAYER_1
 10
73.9221
 20
168.548
  0
SEQEND
  0
POLYLINE
  8
LAYER_1
 40
0.1023
 41
0.1023
 66
1
 10
0
 20
0
 30
0
  0
VERTEX
  8
LAYER_1
 10
70.5324
 20
171.6577
  0
SEQEND
  0
POLYLINE
  8
LAYER_1
 40
0.1023
 41
0.1023
 66
1
 10
0
 20
0
 30
0
  0
VERTEX
  8
LAYER_1
 10
53.9854
 20
101.1269
  0
VERTEX
  8
LAYER_1
 10
53.9854
 20
99.0281
  0
SEQEND
  0
POLYLINE
  8
LAYER_1
 40
0.1023
 41
0.1023
 66
1
 10
0
 20
0
 30
0
  0
VERTEX
  8
LAYER_1
 10
90.4858
 20
101.1315
  0
VERTEX
  8
LAYER_1
 10
90.4858
 20
99.0278
  0
SEQEND
  0
POLYLINE
  8
LAYER_1
 40
0.1023
 41
0.1023
 66
1
 10
0
 20
0
 30
0
  0
VERTEX
  8
LAYER_1
 10
54.9853
 20
99.0466
  0
VERTEX
  8
LAYER_1
 10
69.4722
 20
99.0466
  0
SEQEND
  0
POLYLINE
  8
LAYER_1
 40
0.1023
 41
0.1023
 66
1
 10
0
 20
0
 30
0
  0
VERTEX
  8
LAYER_1
 10
89.4856
 20
99.0466
  0
VERTEX
  8
LAYER_1
 10
74.4851
 20
99.0466
  0
SEQEND
  0
POLYLINE
  8
LAYER_1
 40
0.05
 41
0.05
 66
1
 10
0
 20
0
 30
0
  0
VERTEX
  8
LAYER_1
 10
53.9851
 20
99.0466
  0
VERTEX
  8
LAYER_1
 10
54.9853
 20
98.8797
  0
VERTEX
  8
LAYER_1
 10
54.9853
 20
99.2128
  0
SEQEND
  0
POLYLINE
  8
LAYER_1
 40
0.05
 41
0.05
 66
1
 10
0
 20
0
 30
0
  0
VERTEX
  8
LAYER_1
 10
89.4856
 20
98.8797
  0
VERTEX
  8
LAYER_1
 10
90.4858
 20
99.0466
  0
VERTEX
  8
LAYER_1
 10
89.4856
 20
99.2125
  0
SEQEND
  0
TEXT
  8
LAYER_1
 10
70.437
 20
98.5556
 11
70.437
 21
98.5556
 40
3.8503
 41
0.5
  1
365
  0
POLYLINE
  8
LAYER_1
 40
0.1023
 41
0.1023
 66
1
 10
0
 20
0
 30
0
  0
VERTEX
  8
LAYER_1
 10
90.4858
 20
102.1314
  0
SEQEND
  0
POLYLINE
  8
LAYER_1
 40
0.1023
 41
0.1023
 66
1
 10
0
 20
0
 30
0
  0
VERTEX
  8
LAYER_1
 10
90.4858
 20
99.0466
  0
SEQEND
  0
POLYLINE
  8
LAYER_1
 40
0.1023
 41
0.1023
 66
1
 10
0
 20
0
 30
0
  0
VERTEX
  8
LAYER_1
 10
90.4858
 20
109.1265
  0
VERTEX
  8
LAYER_1
 10
90.4858
 20
108.0645
  0
SEQEND
  0
POLYLINE
  8
LAYER_1
 40
0.1023
 41
0.1023
 66
1
 10
0
 20
0
 30
0
  0
VERTEX
  8
LAYER_1
 10
92.2358
 20
109.1265
  0
VERTEX
  8
LAYER_1
 10
92.2358
 20
108.0645
  0
SEQEND
  0
POLYLINE
  8
LAYER_1
 40
0.1023
 41
0.1023
 66
1
 10
0
 20
0
 30
0
  0
VERTEX
  8
LAYER_1
 10
89.4856
 20
108.0824
  0
VERTEX
  8
LAYER_1
 10
88.486
 20
108.0824
  0
SEQEND
  0
POLYLINE
  8
LAYER_1
 40
0.1023
 41
0.1023
 66
1
 10
0
 20
0
 30
0
  0
VERTEX
  8
LAYER_1
 10
93.2357
 20
108.0824
  0
VERTEX
  8
LAYER_1
 10
94.2356
 20
108.0824
  0
SEQEND
  0
POLYLINE
  8
LAYER_1
 40
0.05
 41
0.05
 66
1
 10
0
 20
0
 30
0
  0
VERTEX
  8
LAYER_1
 10
89.4856
 20
107.9156
  0
VERTEX
  8
LAYER_1
 10
90.4858
 20
108.0824
  0
VERTEX
  8
LAYER_1
 10
89.4856
 20
108.2496
  0
SEQEND
  0
POLYLINE
  8
LAYER_1
 40
0.05
 41
0.05
 66
1
 10
0
 20
0
 30
0
  0
VERTEX
  8
LAYER_1
 10
92.2358
 20
108.0827
  0
VERTEX
  8
LAYER_1
 10
93.2357
 20
107.9159
  0
VERTEX
  8
LAYER_1
 10
93.2357
 20
108.2496
  0
SEQEND
  0
TEXT
  8
LAYER_1
 10
94.4934
 20
107.5921
 11
94.4934
 21
107.5921
 40
3.8503
 41
0.5
  1
18
  0
POLYLINE
  8
LAYER_1
 40
0.1023
 41
0.1023
 66
1
 10
0
 20
0
 30
0
  0
VERTEX
  8
LAYER_1
 10
90.4858
 20
110.1267
  0
SEQEND
  0
POLYLINE
  8
LAYER_1
 40
0.1023
 41
0.1023
 66
1
 10
0
 20
0
 30
0
  0
VERTEX
  8
LAYER_1
 10
92.2358
 20
110.1267
  0
SEQEND
  0
POLYLINE
  8
LAYER_1
 40
0.1023
 41
0.1023
 66
1
 10
0
 20
0
 30
0
  0
VERTEX
  8
LAYER_1
 10
92.2358
 20
108.0824
  0
SEQEND
  0
POLYLINE
  8
LAYER_1
 40
0.1023
 41
0.1023
 66
1
 10
0
 20
0
 30
0
  0
VERTEX
  8
LAYER_1
 10
52.2351
 20
117.1288
  0
VERTEX
  8
LAYER_1
 10
52.2351
 20
119.9975
  0
SEQEND
  0
POLYLINE
  8
LAYER_1
 40
0.1023
 41
0.1023
 66
1
 10
0
 20
0
 30
0
  0
VERTEX
  8
LAYER_1
 10
92.2358
 20
117.1288
  0
VERTEX
  8
LAYER_1
 10
92.2358
 20
119.9975
  0
SEQEND
  0
POLYLINE
  8
LAYER_1
 40
0.1023
 41
0.1023
 66
1
 10
0
 20
0
 30
0
  0
VERTEX
  8
LAYER_1
 10
53.2353
 20
119.9793
  0
VERTEX
  8
LAYER_1
 10
69.4725
 20
119.9793
  0
SEQEND
  0
POLYLINE
  8
LAYER_1
 40
0.1023
 41
0.1023
 66
1
 10
0
 20
0
 30
0
  0
VERTEX
  8
LAYER_1
 10
91.2356
 20
119.9793
  0
VERTEX
  8
LAYER_1
 10
74.4848
 20
119.9793
  0
SEQEND
  0
POLYLINE
  8
LAYER_1
 40
0.05
 41
0.05
 66
1
 10
0
 20
0
 30
0
  0
VERTEX
  8
LAYER_1
 10
52.2351
 20
119.9793
  0
VERTEX
  8
LAYER_1
 10
53.235
 20
119.8127
  0
VERTEX
  8
LAYER_1
 10
53.235
 20
120.1461
  0
SEQEND
  0
POLYLINE
  8
LAYER_1
 40
0.05
 41
0.05
 66
1
 10
0
 20
0
 30
0
  0
VERTEX
  8
LAYER_1
 10
91.2356
 20
119.8124
  0
VERTEX
  8
LAYER_1
 10
92.2358
 20
119.979
  0
VERTEX
  8
LAYER_1
 10
91.2356
 20
120.1458
  0
SEQEND
  0
TEXT
  8
LAYER_1
 10
70.437
 20
119.489
 11
70.437
 21
119.489
 40
3.8503
 41
0.5
  1
400
  0
POLYLINE
  8
LAYER_1
 40
0.1023
 41
0.1023
 66
1
 10
0
 20
0
 30
0
  0
VERTEX
  8
LAYER_1
 10
92.2358
 20
116.1283
  0
SEQEND
  0
POLYLINE
  8
LAYER_1
 40
0.1023
 41
0.1023
 66
1
 10
0
 20
0
 30
0
  0
VERTEX
  8
LAYER_1
 10
92.2358
 20
119.9793
  0
SEQEND
  0
POLYLINE
  8
LAYER_1
 40
0.1023
 41
0.1023
 66
1
 10
0
 20
0
 30
0
  0
VERTEX
  8
LAYER_1
 10
69.9849
 20
104.1221
  0
SEQEND
  0
POLYLINE
  8
LAYER_1
 40
0.1023
 41
0.1023
 66
1
 10
0
 20
0
 30
0
  0
VERTEX
  8
LAYER_1
 10
74.4848
 20
104.1212
  0
SEQEND
  0
POLYLINE
  8
LAYER_1
 40
0.1023
 41
0.1023
 66
1
 10
0
 20
0
 30
0
  0
VERTEX
  8
LAYER_1
 10
128.2753
 20
116.1256
  0
VERTEX
  8
LAYER_1
 10
125.9079
 20
116.1256
  0
SEQEND
  0
POLYLINE
  8
LAYER_1
 40
0.1023
 41
0.1023
 66
1
 10
0
 20
0
 30
0
  0
VERTEX
  8
LAYER_1
 10
128.2753
 20
110.1255
  0
VERTEX
  8
LAYER_1
 10
125.9079
 20
110.1255
  0
SEQEND
  0
POLYLINE
  8
LAYER_1
 40
0.1023
 41
0.1023
 66
1
 10
0
 20
0
 30
0
  0
VERTEX
  8
LAYER_1
 10
125.926
 20
115.1257
  0
VERTEX
  8
LAYER_1
 10
125.926
 20
114.5621
  0
SEQEND
  0
POLYLINE
  8
LAYER_1
 40
0.1023
 41
0.1023
 66
1
 10
0
 20
0
 30
0
  0
VERTEX
  8
LAYER_1
 10
125.926
 20
111.126
  0
VERTEX
  8
LAYER_1
 10
125.926
 20
111.9088
  0
SEQEND
  0
POLYLINE
  8
LAYER_1
 40
0.05
 41
0.05
 66
1
 10
0
 20
0
 30
0
  0
VERTEX
  8
LAYER_1
 10
125.7598
 20
115.1257
  0
VERTEX
  8
LAYER_1
 10
126.0929
 20
115.1257
  0
VERTEX
  8
LAYER_1
 10
125.9266
 20
116.1256
  0
SEQEND
  0
POLYLINE
  8
LAYER_1
 40
0.05
 41
0.05
 66
1
 10
0
 20
0
 30
0
  0
VERTEX
  8
LAYER_1
 10
125.7598
 20
111.126
  0
VERTEX
  8
LAYER_1
 10
125.9266
 20
110.1255
  0
VERTEX
  8
LAYER_1
 10
126.0929
 20
111.126
  0
SEQEND
  0
TEXT
  8
LAYER_1
 10
126.395
 20
112.0707
 11
126.395
 21
112.0707
 40
2.9618
 41
0.5
 50
89.99999999
  1
60
  0
POLYLINE
  8
LAYER_1
 40
0.1023
 41
0.1023
 66
1
 10
0
 20
0
 30
0
  0
VERTEX
  8
LAYER_1
 10
129.2758
 20
116.1256
  0
SEQEND
  0
POLYLINE
  8
LAYER_1
 40
0.1023
 41
0.1023
 66
1
 10
0
 20
0
 30
0
  0
VERTEX
  8
LAYER_1
 10
129.2758
 20
110.1255
  0
SEQEND
  0
POLYLINE
  8
LAYER_1
 40
0.1023
 41
0.1023
 66
1
 10
0
 20
0
 30
0
  0
VERTEX
  8
LAYER_1
 10
125.9263
 20
110.1255
  0
SEQEND
  0
POLYLINE
  8
LAYER_1
 40
0.1023
 41
0.1023
 66
1
 10
0
 20
0
 30
0
  0
VERTEX
  8
LAYER_1
 10
128.275
 20
110.124
  0
VERTEX
  8
LAYER_1
 10
125.9082
 20
110.124
  0
SEQEND
  0
POLYLINE
  8
LAYER_1
 40
0.1023
 41
0.1023
 66
1
 10
0
 20
0
 30
0
  0
VERTEX
  8
LAYER_1
 10
130.0259
 20
102.1238
  0
VERTEX
  8
LAYER_1
 10
125.9079
 20
102.1238
  0
SEQEND
  0
POLYLINE
  8
LAYER_1
 40
0.1023
 41
0.1023
 66
1
 10
0
 20
0
 30
0
  0
VERTEX
  8
LAYER_1
 10
125.9264
 20
109.1241
  0
VERTEX
  8
LAYER_1
 10
125.9264
 20
107.9131
  0
SEQEND
  0
POLYLINE
  8
LAYER_1
 40
0.1023
 41
0.1023
 66
1
 10
0
 20
0
 30
0
  0
VERTEX
  8
LAYER_1
 10
125.9264
 20
103.124
  0
VERTEX
  8
LAYER_1
 10
125.9264
 20
105.251
  0
SEQEND
  0
POLYLINE
  8
LAYER_1
 40
0.05
 41
0.05
 66
1
 10
0
 20
0
 30
0
  0
VERTEX
  8
LAYER_1
 10
125.7598
 20
109.1241
  0
VERTEX
  8
LAYER_1
 10
126.0929
 20
109.1241
  0
VERTEX
  8
LAYER_1
 10
125.9266
 20
110.124
  0
SEQEND
  0
POLYLINE
  8
LAYER_1
 40
0.05
 41
0.05
 66
1
 10
0
 20
0
 30
0
  0
VERTEX
  8
LAYER_1
 10
125.7598
 20
103.1237
  0
VERTEX
  8
LAYER_1
 10
125.9266
 20
102.1238
  0
VERTEX
  8
LAYER_1
 10
126.0929
 20
103.1237
  0
SEQEND
  0
TEXT
  8
LAYER_1
 10
126.3947
 20
105.5033
 11
126.3947
 21
105.5033
 40
2.9618
 41
0.5
 50
89.99999999
  1
80
  0
POLYLINE
  8
LAYER_1
 40
0.1023
 41
0.1023
 66
1
 10
0
 20
0
 30
0
  0
VERTEX
  8
LAYER_1
 10
129.2752
 20
110.124
  0
SEQEND
  0
POLYLINE
  8
LAYER_1
 40
0.1023
 41
0.1023
 66
1
 10
0
 20
0
 30
0
  0
VERTEX
  8
LAYER_1
 10
131.0255
 20
102.1238
  0
SEQEND
  0
POLYLINE
  8
LAYER_1
 40
0.1023
 41
0.1023
 66
1
 10
0
 20
0
 30
0
  0
VERTEX
  8
LAYER_1
 10
125.9263
 20
102.1238
  0
SEQEND
  0
POLYLINE
  8
LAYER_1
 40
0.1023
 41
0.1023
 66
1
 10
0
 20
0
 30
0
  0
VERTEX
  8
LAYER_1
 10
128.2747
 20
116.1241
  0
VERTEX
  8
LAYER_1
 10
123.4762
 20
116.1241
  0
SEQEND
  0
POLYLINE
  8
LAYER_1
 40
0.1023
 41
0.1023
 66
1
 10
0
 20
0
 30
0
  0
VERTEX
  8
LAYER_1
 10
130.0259
 20
102.1238
  0
VERTEX
  8
LAYER_1
 10
123.4765
 20
102.1238
  0
SEQEND
  0
POLYLINE
  8
LAYER_1
 40
0.1023
 41
0.1023
 66
1
 10
0
 20
0
 30
0
  0
VERTEX
  8
LAYER_1
 10
123.4941
 20
115.1242
  0
VERTEX
  8
LAYER_1
 10
123.4941
 20
111.3574
  0
SEQEND
  0
POLYLINE
  8
LAYER_1
 40
0.1023
 41
0.1023
 66
1
 10
0
 20
0
 30
0
  0
VERTEX
  8
LAYER_1
 10
123.4941
 20
103.124
  0
VERTEX
  8
LAYER_1
 10
123.4941
 20
107.3447
  0
SEQEND
  0
POLYLINE
  8
LAYER_1
 40
0.05
 41
0.05
 66
1
 10
0
 20
0
 30
0
  0
VERTEX
  8
LAYER_1
 10
123.3275
 20
115.1239
  0
VERTEX
  8
LAYER_1
 10
123.6606
 20
115.1239
  0
VERTEX
  8
LAYER_1
 10
123.4941
 20
116.1241
  0
SEQEND
  0
POLYLINE
  8
LAYER_1
 40
0.05
 41
0.05
 66
1
 10
0
 20
0
 30
0
  0
VERTEX
  8
LAYER_1
 10
123.3275
 20
103.1237
  0
VERTEX
  8
LAYER_1
 10
123.4941
 20
102.1238
  0
VERTEX
  8
LAYER_1
 10
123.6606
 20
103.1237
  0
SEQEND
  0
TEXT
  8
LAYER_1
 10
123.9625
 20
107.499
 11
123.9625
 21
107.499
 40
2.9618
 41
0.5
 50
89.99999999
  1
140
  0
POLYLINE
  8
LAYER_1
 40
0.1023
 41
0.1023
 66
1
 10
0
 20
0
 30
0
  0
VERTEX
  8
LAYER_1
 10
129.2743
 20
116.1241
  0
SEQEND
  0
POLYLINE
  8
LAYER_1
 40
0.1023
 41
0.1023
 66
1
 10
0
 20
0
 30
0
  0
VERTEX
  8
LAYER_1
 10
131.0255
 20
102.1238
  0
SEQEND
  0
POLYLINE
  8
LAYER_1
 40
0.1023
 41
0.1023
 66
1
 10
0
 20
0
 30
0
  0
VERTEX
  8
LAYER_1
 10
123.4941
 20
102.1238
  0
SEQEND
  0
POLYLINE
  8
LAYER_1
 40
0.1023
 41
0.1023
 66
1
 10
0
 20
0
 30
0
  0
VERTEX
  8
LAYER_1
 10
51.31
 20
116.1277
  0
VERTEX
  8
LAYER_1
 10
48.9422
 20
116.1277
  0
SEQEND
  0
POLYLINE
  8
LAYER_1
 40
0.1023
 41
0.1023
 66
1
 10
0
 20
0
 30
0
  0
VERTEX
  8
LAYER_1
 10
51.31
 20
110.1277
  0
VERTEX
  8
LAYER_1
 10
48.9422
 20
110.1277
  0
SEQEND
  0
POLYLINE
  8
LAYER_1
 40
0.1023
 41
0.1023
 66
1
 10
0
 20
0
 30
0
  0
VERTEX
  8
LAYER_1
 10
48.9607
 20
115.1278
  0
VERTEX
  8
LAYER_1
 10
48.9607
 20
114.5643
  0
SEQEND
  0
POLYLINE
  8
LAYER_1
 40
0.1023
 41
0.1023
 66
1
 10
0
 20
0
 30
0
  0
VERTEX
  8
LAYER_1
 10
48.9607
 20
111.1273
  0
VERTEX
  8
LAYER_1
 10
48.9607
 20
111.911
  0
SEQEND
  0
POLYLINE
  8
LAYER_1
 40
0.05
 41
0.05
 66
1
 10
0
 20
0
 30
0
  0
VERTEX
  8
LAYER_1
 10
48.7941
 20
115.1278
  0
VERTEX
  8
LAYER_1
 10
49.1272
 20
115.1278
  0
VERTEX
  8
LAYER_1
 10
48.961
 20
116.1274
  0
SEQEND
  0
POLYLINE
  8
LAYER_1
 40
0.05
 41
0.05
 66
1
 10
0
 20
0
 30
0
  0
VERTEX
  8
LAYER_1
 10
48.7941
 20
111.1273
  0
VERTEX
  8
LAYER_1
 10
48.961
 20
110.1276
  0
VERTEX
  8
LAYER_1
 10
49.1272
 20
111.1273
  0
SEQEND
  0
TEXT
  8
LAYER_1
 10
49.4287
 20
112.0728
 11
49.4287
 21
112.0728
 40
2.9618
 41
0.5
 50
89.99999999
  1
60
  0
POLYLINE
  8
LAYER_1
 40
0.1023
 41
0.1023
 66
1
 10
0
 20
0
 30
0
  0
VERTEX
  8
LAYER_1
 10
48.9607
 20
110.1277
  0
SEQEND
  0
POLYLINE
  8
LAYER_1
 40
0.1023
 41
0.1023
 66
1
 10
0
 20
0
 30
0
  0
VERTEX
  8
LAYER_1
 10
51.3094
 20
110.1261
  0
VERTEX
  8
LAYER_1
 10
48.9425
 20
110.1261
  0
SEQEND
  0
POLYLINE
  8
LAYER_1
 40
0.1023
 41
0.1023
 66
1
 10
0
 20
0
 30
0
  0
VERTEX
  8
LAYER_1
 10
53.0603
 20
102.1259
  0
VERTEX
  8
LAYER_1
 10
48.9425
 20
102.1259
  0
SEQEND
  0
POLYLINE
  8
LAYER_1
 40
0.1023
 41
0.1023
 66
1
 10
0
 20
0
 30
0
  0
VERTEX
  8
LAYER_1
 10
48.961
 20
109.1256
  0
VERTEX
  8
LAYER_1
 10
48.961
 20
107.9149
  0
SEQEND
  0
POLYLINE
  8
LAYER_1
 40
0.1023
 41
0.1023
 66
1
 10
0
 20
0
 30
0
  0
VERTEX
  8
LAYER_1
 10
48.961
 20
103.1255
  0
VERTEX
  8
LAYER_1
 10
48.961
 20
105.2525
  0
SEQEND
  0
POLYLINE
  8
LAYER_1
 40
0.05
 41
0.05
 66
1
 10
0
 20
0
 30
0
  0
VERTEX
  8
LAYER_1
 10
48.7941
 20
109.1256
  0
VERTEX
  8
LAYER_1
 10
49.1272
 20
109.1256
  0
VERTEX
  8
LAYER_1
 10
48.961
 20
110.1261
  0
SEQEND
  0
POLYLINE
  8
LAYER_1
 40
0.05
 41
0.05
 66
1
 10
0
 20
0
 30
0
  0
VERTEX
  8
LAYER_1
 10
48.7941
 20
103.1258
  0
VERTEX
  8
LAYER_1
 10
48.961
 20
102.1259
  0
VERTEX
  8
LAYER_1
 10
49.1272
 20
103.1258
  0
SEQEND
  0
TEXT
  8
LAYER_1
 10
49.429
 20
105.505
 11
49.429
 21
105.505
 40
2.9618
 41
0.5
 50
89.99999999
  1
80
  0
POLYLINE
  8
LAYER_1
 40
0.1023
 41
0.1023
 66
1
 10
0
 20
0
 30
0
  0
VERTEX
  8
LAYER_1
 10
48.9607
 20
102.1259
  0
SEQEND
  0
POLYLINE
  8
LAYER_1
 40
0.1023
 41
0.1023
 66
1
 10
0
 20
0
 30
0
  0
VERTEX
  8
LAYER_1
 10
51.3091
 20
116.1262
  0
VERTEX
  8
LAYER_1
 10
46.5106
 20
116.1262
  0
SEQEND
  0
POLYLINE
  8
LAYER_1
 40
0.1023
 41
0.1023
 66
1
 10
0
 20
0
 30
0
  0
VERTEX
  8
LAYER_1
 10
53.0603
 20
102.1259
  0
VERTEX
  8
LAYER_1
 10
46.5109
 20
102.1259
  0
SEQEND
  0
POLYLINE
  8
LAYER_1
 40
0.1023
 41
0.1023
 66
1
 10
0
 20
0
 30
0
  0
VERTEX
  8
LAYER_1
 10
46.5287
 20
115.1257
  0
VERTEX
  8
LAYER_1
 10
46.5287
 20
111.3595
  0
SEQEND
  0
POLYLINE
  8
LAYER_1
 40
0.1023
 41
0.1023
 66
1
 10
0
 20
0
 30
0
  0
VERTEX
  8
LAYER_1
 10
46.5287
 20
103.1255
  0
VERTEX
  8
LAYER_1
 10
46.5287
 20
107.3466
  0
SEQEND
  0
POLYLINE
  8
LAYER_1
 40
0.05
 41
0.05
 66
1
 10
0
 20
0
 30
0
  0
VERTEX
  8
LAYER_1
 10
46.3616
 20
115.1257
  0
VERTEX
  8
LAYER_1
 10
46.6956
 20
115.1257
  0
VERTEX
  8
LAYER_1
 10
46.5284
 20
116.1262
  0
SEQEND
  0
POLYLINE
  8
LAYER_1
 40
0.05
 41
0.05
 66
1
 10
0
 20
0
 30
0
  0
VERTEX
  8
LAYER_1
 10
46.3616
 20
103.1258
  0
VERTEX
  8
LAYER_1
 10
46.5284
 20
102.1259
  0
VERTEX
  8
LAYER_1
 10
46.6956
 20
103.1258
  0
SEQEND
  0
TEXT
  8
LAYER_1
 10
46.9966
 20
107.5011
 11
46.9966
 21
107.5011
 40
2.9618
 41
0.5
 50
89.99999999
  1
140
  0
POLYLINE
  8
LAYER_1
 40
0.1023
 41
0.1023
 66
1
 10
0
 20
0
 30
0
  0
VERTEX
  8
LAYER_1
 10
46.5284
 20
102.1259
  0
SEQEND
  0
POLYLINE
  8
LAYER_1
 40
0.1023
 41
0.1023
 66
1
 10
0
 20
0
 30
0
  0
VERTEX
  8
LAYER_1
 10
131.0255
 20
101.1239
  0
VERTEX
  8
LAYER_1
 10
131.0255
 20
99.0257
  0
SEQEND
  0
POLYLINE
  8
LAYER_1
 40
0.1023
 41
0.1023
 66
1
 10
0
 20
0
 30
0
  0
VERTEX
  8
LAYER_1
 10
167.5262
 20
101.1288
  0
VERTEX
  8
LAYER_1
 10
167.5262
 20
99.0254
  0
SEQEND
  0
POLYLINE
  8
LAYER_1
 40
0.1023
 41
0.1023
 66
1
 10
0
 20
0
 30
0
  0
VERTEX
  8
LAYER_1
 10
132.0257
 20
99.0435
  0
VERTEX
  8
LAYER_1
 10
147.7906
 20
99.0435
  0
SEQEND
  0
POLYLINE
  8
LAYER_1
 40
0.1023
 41
0.1023
 66
1
 10
0
 20
0
 30
0
  0
VERTEX
  8
LAYER_1
 10
166.526
 20
99.0435
  0
VERTEX
  8
LAYER_1
 10
155.0458
 20
99.0435
  0
SEQEND
  0
POLYLINE
  8
LAYER_1
 40
0.05
 41
0.05
 66
1
 10
0
 20
0
 30
0
  0
VERTEX
  8
LAYER_1
 10
131.0255
 20
99.0435
  0
VERTEX
  8
LAYER_1
 10
132.0257
 20
98.8773
  0
VERTEX
  8
LAYER_1
 10
132.0257
 20
99.2104
  0
SEQEND
  0
POLYLINE
  8
LAYER_1
 40
0.05
 41
0.05
 66
1
 10
0
 20
0
 30
0
  0
VERTEX
  8
LAYER_1
 10
166.526
 20
98.8773
  0
VERTEX
  8
LAYER_1
 10
167.5262
 20
99.0438
  0
VERTEX
  8
LAYER_1
 10
166.526
 20
99.2101
  0
SEQEND
  0
TEXT
  8
LAYER_1
 10
148.341
 20
98.2004
 11
148.341
 21
98.2004
 40
3.8503
 41
0.5
  1
365
  0
POLYLINE
  8
LAYER_1
 40
0.1023
 41
0.1023
 66
1
 10
0
 20
0
 30
0
  0
VERTEX
  8
LAYER_1
 10
131.0255
 20
102.1238
  0
SEQEND
  0
POLYLINE
  8
LAYER_1
 40
0.1023
 41
0.1023
 66
1
 10
0
 20
0
 30
0
  0
VERTEX
  8
LAYER_1
 10
167.5262
 20
102.129
  0
SEQEND
  0
POLYLINE
  8
LAYER_1
 40
0.1023
 41
0.1023
 66
1
 10
0
 20
0
 30
0
  0
VERTEX
  8
LAYER_1
 10
167.5262
 20
99.0435
  0
SEQEND
  0
POLYLINE
  8
LAYER_1
 40
0.1023
 41
0.1023
 66
1
 10
0
 20
0
 30
0
  0
VERTEX
  8
LAYER_1
 10
167.5262
 20
109.1241
  0
VERTEX
  8
LAYER_1
 10
167.5262
 20
108.0618
  0
SEQEND
  0
POLYLINE
  8
LAYER_1
 40
0.1023
 41
0.1023
 66
1
 10
0
 20
0
 30
0
  0
VERTEX
  8
LAYER_1
 10
169.2762
 20
109.1241
  0
VERTEX
  8
LAYER_1
 10
169.2762
 20
108.0618
  0
SEQEND
  0
POLYLINE
  8
LAYER_1
 40
0.1023
 41
0.1023
 66
1
 10
0
 20
0
 30
0
  0
VERTEX
  8
LAYER_1
 10
166.526
 20
108.0797
  0
VERTEX
  8
LAYER_1
 10
165.5261
 20
108.0797
  0
SEQEND
  0
POLYLINE
  8
LAYER_1
 40
0.1023
 41
0.1023
 66
1
 10
0
 20
0
 30
0
  0
VERTEX
  8
LAYER_1
 10
170.2762
 20
108.0797
  0
VERTEX
  8
LAYER_1
 10
171.2761
 20
108.0797
  0
SEQEND
  0
POLYLINE
  8
LAYER_1
 40
0.05
 41
0.05
 66
1
 10
0
 20
0
 30
0
  0
VERTEX
  8
LAYER_1
 10
166.526
 20
107.9134
  0
VERTEX
  8
LAYER_1
 10
167.5262
 20
108.08
  0
VERTEX
  8
LAYER_1
 10
166.526
 20
108.2465
  0
SEQEND
  0
POLYLINE
  8
LAYER_1
 40
0.05
 41
0.05
 66
1
 10
0
 20
0
 30
0
  0
VERTEX
  8
LAYER_1
 10
169.2762
 20
108.0797
  0
VERTEX
  8
LAYER_1
 10
170.2761
 20
107.9134
  0
VERTEX
  8
LAYER_1
 10
170.2761
 20
108.2465
  0
SEQEND
  0
TEXT
  8
LAYER_1
 10
171.5337
 20
107.589
 11
171.5337
 21
107.589
 40
3.8503
 41
0.5
  1
18
  0
POLYLINE
  8
LAYER_1
 40
0.1023
 41
0.1023
 66
1
 10
0
 20
0
 30
0
  0
VERTEX
  8
LAYER_1
 10
167.5262
 20
110.124
  0
SEQEND
  0
POLYLINE
  8
LAYER_1
 40
0.1023
 41
0.1023
 66
1
 10
0
 20
0
 30
0
  0
VERTEX
  8
LAYER_1
 10
169.2762
 20
110.124
  0
SEQEND
  0
POLYLINE
  8
LAYER_1
 40
0.1023
 41
0.1023
 66
1
 10
0
 20
0
 30
0
  0
VERTEX
  8
LAYER_1
 10
169.2762
 20
108.0797
  0
SEQEND
  0
POLYLINE
  8
LAYER_1
 40
0.1023
 41
0.1023
 66
1
 10
0
 20
0
 30
0
  0
VERTEX
  8
LAYER_1
 10
129.2758
 20
117.1261
  0
VERTEX
  8
LAYER_1
 10
129.2758
 20
119.995
  0
SEQEND
  0
POLYLINE
  8
LAYER_1
 40
0.1023
 41
0.1023
 66
1
 10
0
 20
0
 30
0
  0
VERTEX
  8
LAYER_1
 10
169.2762
 20
117.1261
  0
VERTEX
  8
LAYER_1
 10
169.2762
 20
119.995
  0
SEQEND
  0
POLYLINE
  8
LAYER_1
 40
0.1023
 41
0.1023
 66
1
 10
0
 20
0
 30
0
  0
VERTEX
  8
LAYER_1
 10
130.2754
 20
119.9769
  0
VERTEX
  8
LAYER_1
 10
147.2167
 20
119.9769
  0
SEQEND
  0
POLYLINE
  8
LAYER_1
 40
0.1023
 41
0.1023
 66
1
 10
0
 20
0
 30
0
  0
VERTEX
  8
LAYER_1
 10
168.2763
 20
119.9769
  0
VERTEX
  8
LAYER_1
 10
152.024
 20
119.9769
  0
SEQEND
  0
POLYLINE
  8
LAYER_1
 40
0.05
 41
0.05
 66
1
 10
0
 20
0
 30
0
  0
VERTEX
  8
LAYER_1
 10
129.2758
 20
119.9769
  0
VERTEX
  8
LAYER_1
 10
130.2754
 20
119.8103
  0
VERTEX
  8
LAYER_1
 10
130.2754
 20
120.1434
  0
SEQEND
  0
POLYLINE
  8
LAYER_1
 40
0.05
 41
0.05
 66
1
 10
0
 20
0
 30
0
  0
VERTEX
  8
LAYER_1
 10
168.276
 20
119.81
  0
VERTEX
  8
LAYER_1
 10
169.2762
 20
119.9769
  0
VERTEX
  8
LAYER_1
 10
168.276
 20
120.1431
  0
SEQEND
  0
TEXT
  8
LAYER_1
 10
148.0947
 20
119.4859
 11
148.0947
 21
119.4859
 40
3.8503
 41
0.5
  1
400
  0
POLYLINE
  8
LAYER_1
 40
0.1023
 41
0.1023
 66
1
 10
0
 20
0
 30
0
  0
VERTEX
  8
LAYER_1
 10
129.2758
 20
116.1256
  0
SEQEND
  0
POLYLINE
  8
LAYER_1
 40
0.1023
 41
0.1023
 66
1
 10
0
 20
0
 30
0
  0
VERTEX
  8
LAYER_1
 10
169.2762
 20
116.1256
  0
SEQEND
  0
POLYLINE
  8
LAYER_1
 40
0.1023
 41
0.1023
 66
1
 10
0
 20
0
 30
0
  0
VERTEX
  8
LAYER_1
 10
169.2762
 20
119.9769
  0
SEQEND
  0
POLYLINE
  8
LAYER_1
 40
0.1023
 41
0.1023
 66
1
 10
0
 20
0
 30
0
  0
VERTEX
  8
LAYER_1
 10
150.2755
 20
105.132
  0
VERTEX
  8
LAYER_1
 10
151.0389
 20
105.132
  0
SEQEND
  0
POLYLINE
  8
LAYER_1
 40
0.1023
 41
0.1023
 66
1
 10
0
 20
0
 30
0
  0
VERTEX
  8
LAYER_1
 10
150.274
 20
116.122
  0
VERTEX
  8
LAYER_1
 10
151.0392
 20
116.122
  0
SEQEND
  0
POLYLINE
  8
LAYER_1
 40
0.1023
 41
0.1023
 66
1
 10
0
 20
0
 30
0
  0
VERTEX
  8
LAYER_1
 10
151.0213
 20
106.1319
  0
VERTEX
  8
LAYER_1
 10
151.0213
 20
108.8661
  0
SEQEND
  0
POLYLINE
  8
LAYER_1
 40
0.1023
 41
0.1023
 66
1
 10
0
 20
0
 30
0
  0
VERTEX
  8
LAYER_1
 10
151.0213
 20
115.1218
  0
VERTEX
  8
LAYER_1
 10
151.0213
 20
112.8915
  0
SEQEND
  0
POLYLINE
  8
LAYER_1
 40
0.05
 41
0.05
 66
1
 10
0
 20
0
 30
0
  0
VERTEX
  8
LAYER_1
 10
150.8545
 20
106.1319
  0
VERTEX
  8
LAYER_1
 10
151.021
 20
105.132
  0
VERTEX
  8
LAYER_1
 10
151.1876
 20
106.1319
  0
SEQEND
  0
POLYLINE
  8
LAYER_1
 40
0.05
 41
0.05
 66
1
 10
0
 20
0
 30
0
  0
VERTEX
  8
LAYER_1
 10
150.8545
 20
115.1218
  0
VERTEX
  8
LAYER_1
 10
151.1876
 20
115.1218
  0
VERTEX
  8
LAYER_1
 10
151.021
 20
116.122
  0
SEQEND
  0
TEXT
  8
LAYER_1
 10
154.5763
 20
110.2706
 11
154.5763
 21
110.2706
 40
2.9618
 41
0.5
 50
89.99999999
  1
110
  0
POLYLINE
  8
LAYER_1
 40
0.1023
 41
0.1023
 66
1
 10
0
 20
0
 30
0
  0
VERTEX
  8
LAYER_1
 10
149.2756
 20
105.132
  0
SEQEND
  0
POLYLINE
  8
LAYER_1
 40
0.1023
 41
0.1023
 66
1
 10
0
 20
0
 30
0
  0
VERTEX
  8
LAYER_1
 10
149.2738
 20
116.122
  0
SEQEND
  0
POLYLINE
  8
LAYER_1
 40
0.1023
 41
0.1023
 66
1
 10
0
 20
0
 30
0
  0
VERTEX
  8
LAYER_1
 10
151.0213
 20
116.122
  0
SEQEND
  0
POLYLINE
  8
LAYER_1
 40
0.1023
 41
0.1023
 66
1
 10
0
 20
0
 30
0
  0
VERTEX
  8
LAYER_1
 10
72.227
 20
170.103
  0
VERTEX
  8
LAYER_1
 10
72.2448
 20
170.103
  0
SEQEND
  0
POLYLINE
  8
LAYER_1
 40
0.1023
 41
0.1023
 66
1
 10
0
 20
0
 30
0
  0
VERTEX
  8
LAYER_1
 10
72.2363
 20
170.0939
  0
VERTEX
  8
LAYER_1
 10
72.2363
 20
170.1118
  0
SEQEND
  0
POLYLINE
  8
LAYER_1
 40
0.1023
 41
0.1023
 66
1
 10
0
 20
0
 30
0
  0
VERTEX
  8
LAYER_1
 10
69.6848
 20
172.5555
  0
SEQEND
  0
POLYLINE
  8
LAYER_1
 40
0.1023
 41
0.1023
 66
1
 10
0
 20
0
 30
0
  0
VERTEX
  8
LAYER_1
 10
74.7873
 20
167.6504
  0
SEQEND
  0
POLYLINE
  8
LAYER_1
 40
0.1023
 41
0.1023
 66
1
 10
0
 20
0
 30
0
  0
VERTEX
  8
LAYER_1
 10
49.7108
 20
190.967
  0
VERTEX
  8
LAYER_1
 10
50.7107
 20
190.967
  0
SEQEND
  0
POLYLINE
  8
LAYER_1
 40
0.1023
 41
0.1023
 66
1
 10
0
 20
0
 30
0
  0
VERTEX
  8
LAYER_1
 10
50.7107
 20
190.967
  0
VERTEX
  8
LAYER_1
 10
53.0627
 20
188.8209
  0
SEQEND
  0
TEXT
  8
LAYER_1
 10
42.5258
 20
191.744
 11
42.5258
 21
191.744
 40
3.8503
 41
0.5
  1
R60
  0
POLYLINE
  8
LAYER_1
 40
0.05
 41
0.05
 66
1
 10
0
 20
0
 30
0
  0
VERTEX
  8
LAYER_1
 10
53.1753
 20
188.9444
  0
VERTEX
  8
LAYER_1
 10
52.9506
 20
188.6979
  0
VERTEX
  8
LAYER_1
 10
53.8016
 20
188.1471
  0
SEQEND
  0
POLYLINE
  8
LAYER_1
 40
0.1023
 41
0.1023
 66
1
 10
0
 20
0
 30
0
  0
VERTEX
  8
LAYER_1
 10
58.2249
 20
184.1033
  0
VERTEX
  8
LAYER_1
 10
58.2427
 20
184.1033
  0
SEQEND
  0
POLYLINE
  8
LAYER_1
 40
0.1023
 41
0.1023
 66
1
 10
0
 20
0
 30
0
  0
VERTEX
  8
LAYER_1
 10
58.2343
 20
184.0942
  0
VERTEX
  8
LAYER_1
 10
58.2343
 20
184.112
  0
SEQEND
  0
POLYLINE
  8
LAYER_1
 40
0.1023
 41
0.1023
 66
1
 10
0
 20
0
 30
0
  0
VERTEX
  8
LAYER_1
 10
53.8016
 20
188.1471
  0
SEQEND
  0
POLYLINE
  8
LAYER_1
 40
0.1023
 41
0.1023
 66
1
 10
0
 20
0
 30
0
  0
VERTEX
  8
LAYER_1
 10
58.2343
 20
184.1033
  0
SEQEND
  0
POLYLINE
  8
LAYER_1
 40
0.1023
 41
0.1023
 66
1
 10
0
 20
0
 30
0
  0
VERTEX
  8
LAYER_1
 10
52.2342
 20
155.1034
  0
VERTEX
  8
LAYER_1
 10
52.2342
 20
145.1885
  0
SEQEND
  0
POLYLINE
  8
LAYER_1
 40
0.1023
 41
0.1023
 66
1
 10
0
 20
0
 30
0
  0
VERTEX
  8
LAYER_1
 10
92.2358
 20
155.1034
  0
VERTEX
  8
LAYER_1
 10
92.2358
 20
145.1885
  0
SEQEND
  0
POLYLINE
  8
LAYER_1
 40
0.1023
 41
0.1023
 66
1
 10
0
 20
0
 30
0
  0
VERTEX
  8
LAYER_1
 10
53.2341
 20
145.2063
  0
VERTEX
  8
LAYER_1
 10
70.1039
 20
145.2063
  0
SEQEND
  0
POLYLINE
  8
LAYER_1
 40
0.1023
 41
0.1023
 66
1
 10
0
 20
0
 30
0
  0
VERTEX
  8
LAYER_1
 10
91.2356
 20
145.2063
  0
VERTEX
  8
LAYER_1
 10
74.6589
 20
145.2063
  0
SEQEND
  0
POLYLINE
  8
LAYER_1
 40
0.05
 41
0.05
 66
1
 10
0
 20
0
 30
0
  0
VERTEX
  8
LAYER_1
 10
52.2342
 20
145.206
  0
VERTEX
  8
LAYER_1
 10
53.2338
 20
145.0395
  0
VERTEX
  8
LAYER_1
 10
53.2338
 20
145.3726
  0
SEQEND
  0
POLYLINE
  8
LAYER_1
 40
0.05
 41
0.05
 66
1
 10
0
 20
0
 30
0
  0
VERTEX
  8
LAYER_1
 10
91.2356
 20
145.0395
  0
VERTEX
  8
LAYER_1
 10
92.2358
 20
145.206
  0
VERTEX
  8
LAYER_1
 10
91.2356
 20
145.3729
  0
SEQEND
  0
TEXT
  8
LAYER_1
 10
69.2094
 20
141.9373
 11
69.2094
 21
141.9373
 40
3.8503
 41
0.5
  1
400
  0
POLYLINE
  8
LAYER_1
 40
0.1023
 41
0.1023
 66
1
 10
0
 20
0
 30
0
  0
VERTEX
  8
LAYER_1
 10
52.2342
 20
156.1033
  0
SEQEND
  0
POLYLINE
  8
LAYER_1
 40
0.1023
 41
0.1023
 66
1
 10
0
 20
0
 30
0
  0
VERTEX
  8
LAYER_1
 10
92.2358
 20
156.1033
  0
SEQEND
  0
POLYLINE
  8
LAYER_1
 40
0.1023
 41
0.1023
 66
1
 10
0
 20
0
 30
0
  0
VERTEX
  8
LAYER_1
 10
92.2358
 20
145.206
  0
SEQEND
  0
POLYLINE
  8
LAYER_1
 40
0.1023
 41
0.1023
 66
1
 10
0
 20
0
 30
0
  0
VERTEX
  8
LAYER_1
 10
130.402
 20
150.8697
  0
VERTEX
  8
LAYER_1
 10
130.402
 20
145.1885
  0
SEQEND
  0
POLYLINE
  8
LAYER_1
 40
0.1023
 41
0.1023
 66
1
 10
0
 20
0
 30
0
  0
VERTEX
  8
LAYER_1
 10
168.4023
 20
150.8697
  0
VERTEX
  8
LAYER_1
 10
168.4023
 20
145.1885
  0
SEQEND
  0
POLYLINE
  8
LAYER_1
 40
0.1023
 41
0.1023
 66
1
 10
0
 20
0
 30
0
  0
VERTEX
  8
LAYER_1
 10
131.4019
 20
145.206
  0
VERTEX
  8
LAYER_1
 10
146.1553
 20
145.206
  0
SEQEND
  0
POLYLINE
  8
LAYER_1
 40
0.1023
 41
0.1023
 66
1
 10
0
 20
0
 30
0
  0
VERTEX
  8
LAYER_1
 10
167.4024
 20
145.206
  0
VERTEX
  8
LAYER_1
 10
150.7103
 20
145.206
  0
SEQEND
  0
POLYLINE
  8
LAYER_1
 40
0.05
 41
0.05
 66
1
 10
0
 20
0
 30
0
  0
VERTEX
  8
LAYER_1
 10
130.4023
 20
145.206
  0
VERTEX
  8
LAYER_1
 10
131.4022
 20
145.0395
  0
VERTEX
  8
LAYER_1
 10
131.4022
 20
145.3726
  0
SEQEND
  0
POLYLINE
  8
LAYER_1
 40
0.05
 41
0.05
 66
1
 10
0
 20
0
 30
0
  0
VERTEX
  8
LAYER_1
 10
167.4027
 20
145.0395
  0
VERTEX
  8
LAYER_1
 10
168.4023
 20
145.206
  0
VERTEX
  8
LAYER_1
 10
167.4027
 20
145.3729
  0
SEQEND
  0
TEXT
  8
LAYER_1
 10
146.6722
 20
144.4067
 11
146.6722
 21
144.4067
 40
3.8503
 41
0.5
  1
380
  0
POLYLINE
  8
LAYER_1
 40
0.1023
 41
0.1023
 66
1
 10
0
 20
0
 30
0
  0
VERTEX
  8
LAYER_1
 10
168.4026
 20
145.206
  0
SEQEND
  0
POLYLINE
  8
LAYER_1
 40
0.1023
 41
0.1023
 66
1
 10
0
 20
0
 30
0
  0
VERTEX
  8
LAYER_1
 10
55.7339
 20
185.1029
  0
VERTEX
  8
LAYER_1
 10
55.7339
 20
193.659
  0
SEQEND
  0
POLYLINE
  8
LAYER_1
 40
0.1023
 41
0.1023
 66
1
 10
0
 20
0
 30
0
  0
VERTEX
  8
LAYER_1
 10
88.7358
 20
185.1029
  0
VERTEX
  8
LAYER_1
 10
88.7358
 20
193.659
  0
SEQEND
  0
POLYLINE
  8
LAYER_1
 40
0.1023
 41
0.1023
 66
1
 10
0
 20
0
 30
0
  0
VERTEX
  8
LAYER_1
 10
56.7341
 20
193.6409
  0
VERTEX
  8
LAYER_1
 10
69.6848
 20
193.6409
  0
SEQEND
  0
POLYLINE
  8
LAYER_1
 40
0.1023
 41
0.1023
 66
1
 10
0
 20
0
 30
0
  0
VERTEX
  8
LAYER_1
 10
87.7356
 20
193.6409
  0
VERTEX
  8
LAYER_1
 10
73.9218
 20
193.6409
  0
SEQEND
  0
POLYLINE
  8
LAYER_1
 40
0.05
 41
0.05
 66
1
 10
0
 20
0
 30
0
  0
VERTEX
  8
LAYER_1
 10
55.7339
 20
193.6412
  0
VERTEX
  8
LAYER_1
 10
56.7341
 20
193.4746
  0
VERTEX
  8
LAYER_1
 10
56.7341
 20
193.808
  0
SEQEND
  0
POLYLINE
  8
LAYER_1
 40
0.05
 41
0.05
 66
1
 10
0
 20
0
 30
0
  0
VERTEX
  8
LAYER_1
 10
87.7356
 20
193.4746
  0
VERTEX
  8
LAYER_1
 10
88.7355
 20
193.6412
  0
VERTEX
  8
LAYER_1
 10
87.7356
 20
193.8077
  0
SEQEND
  0
TEXT
  8
LAYER_1
 10
70.1039
 20
193.1505
 11
70.1039
 21
193.1505
 40
3.8503
 41
0.5
  1
330
  0
POLYLINE
  8
LAYER_1
 40
0.1023
 41
0.1023
 66
1
 10
0
 20
0
 30
0
  0
VERTEX
  8
LAYER_1
 10
55.7339
 20
184.1033
  0
SEQEND
  0
POLYLINE
  8
LAYER_1
 40
0.1023
 41
0.1023
 66
1
 10
0
 20
0
 30
0
  0
VERTEX
  8
LAYER_1
 10
88.7358
 20
184.1033
  0
SEQEND
  0
POLYLINE
  8
LAYER_1
 40
0.1023
 41
0.1023
 66
1
 10
0
 20
0
 30
0
  0
VERTEX
  8
LAYER_1
 10
88.7358
 20
193.6412
  0
SEQEND
  0
POLYLINE
  8
LAYER_1
 40
0.1023
 41
0.1023
 66
1
 10
0
 20
0
 30
0
  0
VERTEX
  8
LAYER_1
 10
85.2313
 20
186.603
  0
VERTEX
  8
LAYER_1
 10
95.664
 20
186.603
  0
SEQEND
  0
POLYLINE
  8
LAYER_1
 40
0.1023
 41
0.1023
 66
1
 10
0
 20
0
 30
0
  0
VERTEX
  8
LAYER_1
 10
85.2313
 20
153.6035
  0
VERTEX
  8
LAYER_1
 10
95.664
 20
153.6035
  0
SEQEND
  0
POLYLINE
  8
LAYER_1
 40
0.1023
 41
0.1023
 66
1
 10
0
 20
0
 30
0
  0
VERTEX
  8
LAYER_1
 10
95.6462
 20
185.6031
  0
VERTEX
  8
LAYER_1
 10
95.6462
 20
171.2861
  0
SEQEND
  0
POLYLINE
  8
LAYER_1
 40
0.1023
 41
0.1023
 66
1
 10
0
 20
0
 30
0
  0
VERTEX
  8
LAYER_1
 10
95.6462
 20
154.6034
  0
VERTEX
  8
LAYER_1
 10
95.6462
 20
167.1435
  0
SEQEND
  0
POLYLINE
  8
LAYER_1
 40
0.05
 41
0.05
 66
1
 10
0
 20
0
 30
0
  0
VERTEX
  8
LAYER_1
 10
95.4793
 20
185.6031
  0
VERTEX
  8
LAYER_1
 10
95.8127
 20
185.6031
  0
VERTEX
  8
LAYER_1
 10
95.6461
 20
186.603
  0
SEQEND
  0
POLYLINE
  8
LAYER_1
 40
0.05
 41
0.05
 66
1
 10
0
 20
0
 30
0
  0
VERTEX
  8
LAYER_1
 10
95.4793
 20
154.6031
  0
VERTEX
  8
LAYER_1
 10
95.6461
 20
153.6032
  0
VERTEX
  8
LAYER_1
 10
95.8127
 20
154.6031
  0
SEQEND
  0
TEXT
  8
LAYER_1
 10
96.1371
 20
167.6504
 11
96.1371
 21
167.6504
 40
3.8503
 41
0.5
 50
89.99999999
  1
330
  0
POLYLINE
  8
LAYER_1
 40
0.1023
 41
0.1023
 66
1
 10
0
 20
0
 30
0
  0
VERTEX
  8
LAYER_1
 10
84.2314
 20
186.603
  0
SEQEND
  0
POLYLINE
  8
LAYER_1
 40
0.1023
 41
0.1023
 66
1
 10
0
 20
0
 30
0
  0
VERTEX
  8
LAYER_1
 10
84.2314
 20
153.6035
  0
SEQEND
  0
POLYLINE
  8
LAYER_1
 40
0.1023
 41
0.1023
 66
1
 10
0
 20
0
 30
0
  0
VERTEX
  8
LAYER_1
 10
95.6461
 20
153.6035
  0
SEQEND
  0
POLYLINE
  8
LAYER_1
 40
0.1023
 41
0.1023
 66
1
 10
0
 20
0
 30
0
  0
VERTEX
  8
LAYER_1
 10
87.2356
 20
190.103
  0
VERTEX
  8
LAYER_1
 10
98.5469
 20
190.103
  0
SEQEND
  0
POLYLINE
  8
LAYER_1
 40
0.1023
 41
0.1023
 66
1
 10
0
 20
0
 30
0
  0
VERTEX
  8
LAYER_1
 10
87.2356
 20
150.1035
  0
VERTEX
  8
LAYER_1
 10
98.5469
 20
150.1035
  0
SEQEND
  0
POLYLINE
  8
LAYER_1
 40
0.1023
 41
0.1023
 66
1
 10
0
 20
0
 30
0
  0
VERTEX
  8
LAYER_1
 10
98.529
 20
189.1031
  0
VERTEX
  8
LAYER_1
 10
98.529
 20
173.249
  0
SEQEND
  0
POLYLINE
  8
LAYER_1
 40
0.1023
 41
0.1023
 66
1
 10
0
 20
0
 30
0
  0
VERTEX
  8
LAYER_1
 10
98.529
 20
151.1034
  0
VERTEX
  8
LAYER_1
 10
98.5466
 20
168.1486
  0
SEQEND
  0
POLYLINE
  8
LAYER_1
 40
0.05
 41
0.05
 66
1
 10
0
 20
0
 30
0
  0
VERTEX
  8
LAYER_1
 10
98.3624
 20
189.1034
  0
VERTEX
  8
LAYER_1
 10
98.6952
 20
189.1034
  0
VERTEX
  8
LAYER_1
 10
98.5287
 20
190.103
  0
SEQEND
  0
POLYLINE
  8
LAYER_1
 40
0.05
 41
0.05
 66
1
 10
0
 20
0
 30
0
  0
VERTEX
  8
LAYER_1
 10
98.3624
 20
151.1028
  0
VERTEX
  8
LAYER_1
 10
98.5287
 20
150.1032
  0
VERTEX
  8
LAYER_1
 10
98.6952
 20
151.1028
  0
SEQEND
  0
TEXT
  8
LAYER_1
 10
99.0198
 20
168.881
 11
99.0198
 21
168.881
 40
3.8503
 41
0.5
 50
89.99999999
  1
400
  0
POLYLINE
  8
LAYER_1
 40
0.1023
 41
0.1023
 66
1
 10
0
 20
0
 30
0
  0
VERTEX
  8
LAYER_1
 10
86.2354
 20
190.103
  0
SEQEND
  0
POLYLINE
  8
LAYER_1
 40
0.1023
 41
0.1023
 66
1
 10
0
 20
0
 30
0
  0
VERTEX
  8
LAYER_1
 10
86.2354
 20
150.1035
  0
SEQEND
  0
POLYLINE
  8
LAYER_1
 40
0.1023
 41
0.1023
 66
1
 10
0
 20
0
 30
0
  0
VERTEX
  8
LAYER_1
 10
98.529
 20
150.1035
  0
SEQEND
  0
POLYLINE
  8
LAYER_1
 40
0.1023
 41
0.1023
 66
1
 10
0
 20
0
 30
0
  0
VERTEX
  8
LAYER_1
 10
169.2775
 20
189.1034
  0
VERTEX
  8
LAYER_1
 10
174.5913
 20
189.1034
  0
SEQEND
  0
POLYLINE
  8
LAYER_1
 40
0.1023
 41
0.1023
 66
1
 10
0
 20
0
 30
0
  0
VERTEX
  8
LAYER_1
 10
169.2775
 20
151.1028
  0
VERTEX
  8
LAYER_1
 10
174.5913
 20
151.1028
  0
SEQEND
  0
POLYLINE
  8
LAYER_1
 40
0.1023
 41
0.1023
 66
1
 10
0
 20
0
 30
0
  0
VERTEX
  8
LAYER_1
 10
174.5732
 20
188.1035
  0
VERTEX
  8
LAYER_1
 10
174.5732
 20
171.8375
  0
SEQEND
  0
POLYLINE
  8
LAYER_1
 40
0.1023
 41
0.1023
 66
1
 10
0
 20
0
 30
0
  0
VERTEX
  8
LAYER_1
 10
174.5732
 20
152.1031
  0
VERTEX
  8
LAYER_1
 10
174.591
 20
167.3846
  0
SEQEND
  0
POLYLINE
  8
LAYER_1
 40
0.05
 41
0.05
 66
1
 10
0
 20
0
 30
0
  0
VERTEX
  8
LAYER_1
 10
174.4069
 20
188.1035
  0
VERTEX
  8
LAYER_1
 10
174.74
 20
188.1035
  0
VERTEX
  8
LAYER_1
 10
174.5735
 20
189.1037
  0
SEQEND
  0
POLYLINE
  8
LAYER_1
 40
0.05
 41
0.05
 66
1
 10
0
 20
0
 30
0
  0
VERTEX
  8
LAYER_1
 10
174.4069
 20
152.1027
  0
VERTEX
  8
LAYER_1
 10
174.5735
 20
151.1025
  0
VERTEX
  8
LAYER_1
 10
174.74
 20
152.1027
  0
SEQEND
  0
TEXT
  8
LAYER_1
 10
175.0642
 20
168.1162
 11
175.0642
 21
168.1162
 40
3.8503
 41
0.5
 50
89.99999999
  1
380
  0
POLYLINE
  8
LAYER_1
 40
0.1023
 41
0.1023
 66
1
 10
0
 20
0
 30
0
  0
VERTEX
  8
LAYER_1
 10
174.5735
 20
151.1025
  0
SEQEND
  0
POLYLINE
  8
LAYER_1
 40
0.1023
 41
0.1023
 66
1
 10
0
 20
0
 30
0
  0
VERTEX
  8
LAYER_1
 10
52.934
 20
169.6754
  0
VERTEX
  8
LAYER_1
 10
52.934
 20
174.4551
  0
SEQEND
  0
POLYLINE
  8
LAYER_1
 40
0.1023
 41
0.1023
 66
1
 10
0
 20
0
 30
0
  0
VERTEX
  8
LAYER_1
 10
52.2342
 20
169.6754
  0
VERTEX
  8
LAYER_1
 10
52.2342
 20
174.4551
  0
SEQEND
  0
POLYLINE
  8
LAYER_1
 40
0.1023
 41
0.1023
 66
1
 10
0
 20
0
 30
0
  0
VERTEX
  8
LAYER_1
 10
52.934
 20
168.6752
  0
SEQEND
  0
POLYLINE
  8
LAYER_1
 40
0.1023
 41
0.1023
 66
1
 10
0
 20
0
 30
0
  0
VERTEX
  8
LAYER_1
 10
52.2342
 20
168.6752
  0
SEQEND
  0
POLYLINE
  8
LAYER_1
 40
0.1023
 41
0.1023
 66
1
 10
0
 20
0
 30
0
  0
VERTEX
  8
LAYER_1
 10
52.2342
 20
174.4369
  0
SEQEND
  0
POLYLINE
  8
LAYER_1
 40
0.1023
 41
0.1023
 66
1
 10
0
 20
0
 30
0
  0
VERTEX
  8
LAYER_1
 10
137.4099
 20
184.0878
  0
VERTEX
  8
LAYER_1
 10
136.4097
 20
184.0878
  0
VERTEX
  8
LAYER_1
 10
134.8202
 20
185.5453
  0
SEQEND
  0
TEXT
  8
LAYER_1
 10
137.7215
 20
183.2531
 11
137.7215
 21
183.2531
 40
3.8503
 41
0.5
  1
R50
  0
POLYLINE
  8
LAYER_1
 40
0.05
 41
0.05
 66
1
 10
0
 20
0
 30
0
  0
VERTEX
  8
LAYER_1
 10
134.9334
 20
185.6685
  0
VERTEX
  8
LAYER_1
 10
134.7078
 20
185.4232
  0
VERTEX
  8
LAYER_1
 10
134.0837
 20
186.2218
  0
SEQEND
  0
POLYLINE
  8
LAYER_1
 40
0.1023
 41
0.1023
 66
1
 10
0
 20
0
 30
0
  0
VERTEX
  8
LAYER_1
 10
132.38
 20
187.7765
  0
VERTEX
  8
LAYER_1
 10
132.3976
 20
187.7765
  0
SEQEND
  0
POLYLINE
  8
LAYER_1
 40
0.1023
 41
0.1023
 66
1
 10
0
 20
0
 30
0
  0
VERTEX
  8
LAYER_1
 10
132.3888
 20
187.7674
  0
VERTEX
  8
LAYER_1
 10
132.3888
 20
187.7852
  0
SEQEND
  0
POLYLINE
  8
LAYER_1
 40
0.1023
 41
0.1023
 66
1
 10
0
 20
0
 30
0
  0
VERTEX
  8
LAYER_1
 10
134.0837
 20
186.2218
  0
SEQEND
  0
POLYLINE
  8
LAYER_1
 40
0.1023
 41
0.1023
 66
1
 10
0
 20
0
 30
0
  0
VERTEX
  8
LAYER_1
 10
132.3888
 20
187.7765
  0
VERTEX
  8
LAYER_1
 10
132.4067
 20
187.7765
  0
SEQEND
  0
POLYLINE
  8
LAYER_1
 40
0.1023
 41
0.1023
 66
1
 10
0
 20
0
 30
0
  0
VERTEX
  8
LAYER_1
 10
132.3979
 20
187.7674
  0
VERTEX
  8
LAYER_1
 10
132.3979
 20
187.7852
  0
SEQEND
  0
POLYLINE
  8
LAYER_1
 40
0.1023
 41
0.1023
 66
1
 10
0
 20
0
 30
0
  0
VERTEX
  8
LAYER_1
 10
134.9492
 20
185.3242
  0
SEQEND
  0
INSERT
  8
LAYER_1
  2
AIGNBL01010002
 10
0
 20
0
 30
0
  0
INSERT
  8
LAYER_1
  2
AIGNBL01010003
 10
0
 20
0
 30
0
  0
POLYLINE
  8
LAYER_1
 40
0.194
 41
0.194
 66
1
 10
0
 20
0
 30
0
  0
VERTEX
  8
LAYER_1
 10
130.4023
 20
156.8028
  0
VERTEX
  8
LAYER_1
 10
130.4023
 20
157.138
  0
SEQEND
  0
POLYLINE
  8
LAYER_1
  6
AIGENLINE002
 40
0.194
 41
0.194
 66
1
 10
0
 20
0
 30
0
 70
128
  0
VERTEX
  8
LAYER_1
 10
130.4023
 20
157.8027
  0
VERTEX
  8
LAYER_1
 10
130.4023
 20
182.736
  0
SEQEND
  0
POLYLINE
  8
LAYER_1
 40
0.194
 41
0.194
 66
1
 10
0
 20
0
 30
0
  0
VERTEX
  8
LAYER_1
 10
130.4023
 20
183.0682
  0
VERTEX
  8
LAYER_1
 10
130.4023
 20
183.4031
  0
SEQEND
  0
POLYLINE
  8
LAYER_1
 40
0.194
 41
0.194
 66
1
 10
0
 20
0
 30
0
  0
VERTEX
  8
LAYER_1
 10
168.4026
 20
156.8031
  0
VERTEX
  8
LAYER_1
 10
168.4026
 20
157.1383
  0
SEQEND
  0
POLYLINE
  8
LAYER_1
  6
AIGENLINE002
 40
0.194
 41
0.194
 66
1
 10
0
 20
0
 30
0
 70
128
  0
VERTEX
  8
LAYER_1
 10
168.4026
 20
157.8027
  0
VERTEX
  8
LAYER_1
 10
168.4026
 20
182.736
  0
SEQEND
  0
POLYLINE
  8
LAYER_1
 40
0.194
 41
0.194
 66
1
 10
0
 20
0
 30
0
  0
VERTEX
  8
LAYER_1
 10
168.4026
 20
183.0682
  0
VERTEX
  8
LAYER_1
 10
168.4026
 20
183.4031
  0
SEQEND
  0
POLYLINE
  8
LAYER_1
 40
0.194
 41
0.194
 66
1
 10
0
 20
0
 30
0
  0
VERTEX
  8
LAYER_1
 10
168.4026
 20
183.4034
  0
VERTEX
  8
LAYER_1
 10
168.3932
 20
183.7384
  0
SEQEND
  0
POLYLINE
  8
LAYER_1
  6
AIGENLINE003
 40
0.194
 41
0.194
 66
1
 10
0
 20
0
 30
0
 70
128
  0
VERTEX
  8
LAYER_1
 10
168.3205
 20
184.3716
 42
0.3219050659
  0
VERTEX
  8
LAYER_1
 10
163.3555
 20
189.0665
  0
SEQEND
  0
POLYLINE
  8
LAYER_1
 40
0.194
 41
0.194
 66
1
 10
0
 20
0
 30
0
  0
VERTEX
  8
LAYER_1
 10
163.0378
 20
189.094
  0
VERTEX
  8
LAYER_1
 10
162.7029
 20
189.1034
  0
SEQEND
  0
POLYLINE
  8
LAYER_1
 40
0.194
 41
0.194
 66
1
 10
0
 20
0
 30
0
  0
VERTEX
  8
LAYER_1
 10
162.7026
 20
151.1028
  0
VERTEX
  8
LAYER_1
 10
163.0378
 20
151.1122
  0
SEQEND
  0
POLYLINE
  8
LAYER_1
  6
AIGENLINE003
 40
0.194
 41
0.194
 66
1
 10
0
 20
0
 30
0
 70
128
  0
VERTEX
  8
LAYER_1
 10
163.6707
 20
151.1846
 42
0.3218265446
  0
VERTEX
  8
LAYER_1
 10
168.3657
 20
156.1499
  0
SEQEND
  0
POLYLINE
  8
LAYER_1
 40
0.194
 41
0.194
 66
1
 10
0
 20
0
 30
0
  0
VERTEX
  8
LAYER_1
 10
168.3929
 20
156.4679
  0
VERTEX
  8
LAYER_1
 10
168.4023
 20
156.8028
  0
SEQEND
  0
POLYLINE
  8
LAYER_1
 40
0.194
 41
0.194
 66
1
 10
0
 20
0
 30
0
  0
VERTEX
  8
LAYER_1
 10
136.102
 20
189.1031
  0
VERTEX
  8
LAYER_1
 10
136.4372
 20
189.1031
  0
SEQEND
  0
POLYLINE
  8
LAYER_1
  6
AIGENLINE002
 40
0.194
 41
0.194
 66
1
 10
0
 20
0
 30
0
 70
128
  0
VERTEX
  8
LAYER_1
 10
137.1022
 20
189.1034
  0
VERTEX
  8
LAYER_1
 10
162.0349
 20
189.1034
  0
SEQEND
  0
POLYLINE
  8
LAYER_1
 40
0.194
 41
0.194
 66
1
 10
0
 20
0
 30
0
  0
VERTEX
  8
LAYER_1
 10
162.3674
 20
189.1034
  0
VERTEX
  8
LAYER_1
 10
162.7026
 20
189.1034
  0
SEQEND
  0
POLYLINE
  8
LAYER_1
 40
0.194
 41
0.194
 66
1
 10
0
 20
0
 30
0
  0
VERTEX
  8
LAYER_1
 10
136.102
 20
189.1034
  0
VERTEX
  8
LAYER_1
 10
135.7671
 20
189.0937
  0
SEQEND
  0
POLYLINE
  8
LAYER_1
  6
AIGENLINE003
 40
0.194
 41
0.194
 66
1
 10
0
 20
0
 30
0
 70
128
  0
VERTEX
  8
LAYER_1
 10
135.1339
 20
189.0217
 42
0.3218558828
  0
VERTEX
  8
LAYER_1
 10
130.4393
 20
184.0563
  0
SEQEND
  0
POLYLINE
  8
LAYER_1
 40
0.194
 41
0.194
 66
1
 10
0
 20
0
 30
0
  0
VERTEX
  8
LAYER_1
 10
130.412
 20
183.7384
  0
VERTEX
  8
LAYER_1
 10
130.4026
 20
183.4034
  0
SEQEND
  0
POLYLINE
  8
LAYER_1
 40
0.194
 41
0.194
 66
1
 10
0
 20
0
 30
0
  0
VERTEX
  8
LAYER_1
 10
136.102
 20
151.1028
  0
VERTEX
  8
LAYER_1
 10
136.4372
 20
151.1028
  0
SEQEND
  0
POLYLINE
  8
LAYER_1
  6
AIGENLINE002
 40
0.194
 41
0.194
 66
1
 10
0
 20
0
 30
0
 70
128
  0
VERTEX
  8
LAYER_1
 10
137.1022
 20
151.1025
  0
VERTEX
  8
LAYER_1
 10
162.0349
 20
151.1025
  0
SEQEND
  0
POLYLINE
  8
LAYER_1
 40
0.194
 41
0.194
 66
1
 10
0
 20
0
 30
0
  0
VERTEX
  8
LAYER_1
 10
162.3674
 20
151.1025
  0
VERTEX
  8
LAYER_1
 10
162.7026
 20
151.1025
  0
SEQEND
  0
POLYLINE
  8
LAYER_1
 40
0.194
 41
0.194
 66
1
 10
0
 20
0
 30
0
  0
VERTEX
  8
LAYER_1
 10
130.4023
 20
156.8028
  0
VERTEX
  8
LAYER_1
 10
130.4117
 20
156.4679
  0
SEQEND
  0
POLYLINE
  8
LAYER_1
  6
AIGENLINE003
 40
0.194
 41
0.194
 66
1
 10
0
 20
0
 30
0
 70
128
  0
VERTEX
  8
LAYER_1
 10
130.4844
 20
155.8344
 42
0.3218995838
  0
VERTEX
  8
LAYER_1
 10
135.4491
 20
151.1398
  0
SEQEND
  0
POLYLINE
  8
LAYER_1
 40
0.194
 41
0.194
 66
1
 10
0
 20
0
 30
0
  0
VERTEX
  8
LAYER_1
 10
135.7668
 20
151.1122
  0
VERTEX
  8
LAYER_1
 10
136.102
 20
151.1028
  0
SEQEND
  0
TEXT
  8
LAYER_2
 10
-26.2556
 20
43.1712
 11
-26.2556
 21
43.1712
 40
3.2995
 41
0.5
  1
仕様
  0
POLYLINE
  8
LAYER_2
 40
0.3528
 41
0.3528
 66
1
 10
0
 20
0
 30
0
  0
VERTEX
  8
LAYER_2
 10
250.6748
 20
51.9507
  0
VERTEX
  8
LAYER_2
 10
-29.3178
 20
51.9507
  0
SEQEND
  0
INSERT
  8
LAYER_2
  2
AIGNBL02010002
 10
0
 20
0
 30
0
  0
POLYLINE
  8
LAYER_2
 40
0.3528
 41
0.3528
 66
1
 10
0
 20
0
 30
0
  0
VERTEX
  8
LAYER_2
 10
-29.3178
 20
229.3369
  0
VERTEX
  8
LAYER_2
 10
-29.3178
 20
34.3283
  0
VERTEX
  8
LAYER_2
 10
250.6748
 20
34.3283
  0
VERTEX
  8
LAYER_2
 10
250.6748
 20
229.3369
  0
VERTEX
  8
LAYER_2
 10
-29.3178
 20
229.3369
  0
SEQEND
  0
POLYLINE
  8
LAYER_2
 40
0.3528
 41
0.3528
 66
1
 10
0
 20
0
 30
0
  0
VERTEX
  8
LAYER_2
 10
250.6748
 20
60.4597
  0
VERTEX
  8
LAYER_2
 10
-29.3178
 20
60.4597
  0
SEQEND
  0
POLYLINE
  8
LAYER_2
 40
0.3528
 41
0.3528
 66
1
 10
0
 20
0
 30
0
  0
VERTEX
  8
LAYER_2
 10
250.6748
 20
43.4416
  0
VERTEX
  8
LAYER_2
 10
143.5341
 20
43.4416
  0
SEQEND
  0
TEXT
  8
LAYER_2
 10
188.1725
 20
45.7175
 11
188.1725
 21
45.7175
 40
3.7615
 41
0.5
  1
1/10
  0
TEXT
  8
LAYER_2
 10
182.8808
 20
49.4743
 11
182.8808
 21
49.4743
 40
2.1997
 41
0.5
  1
縮尺
  0
POLYLINE
  8
LAYER_2
 40
0.3528
 41
0.3528
 66
1
 10
0
 20
0
 30
0
  0
VERTEX
  8
LAYER_2
 10
181.3526
 20
43.4416
  0
VERTEX
  8
LAYER_2
 10
181.3526
 20
51.9507
  0
SEQEND
  0
TEXT
  8
LAYER_2
 10
144.2327
 20
57.9834
 11
144.2327
 21
57.9834
 40
2.1997
 41
0.5
  1
品番
  0
TEXT
  8
LAYER_2
 10
-28.1609
 20
57.9834
 11
-28.1609
 21
57.9834
 40
2.1997
 41
0.5
  1
品名
  0
TEXT
  8
LAYER_2
 10
144.2327
 20
49.4743
 11
144.2327
 21
49.4743
 40
2.1997
 41
0.5
  1
重量
  0
TEXT
  8
LAYER_2
 10
150.2547
 20
54.1514
 11
150.2547
 21
54.1514
 40
5.9385
 41
0.5
  1
CIE-EJLASIQ40/
  0
TEXT
  8
LAYER_2
 10
149.5454
 20
45.7175
 11
149.5454
 21
45.7175
 40
3.7615
 41
0.5
  1
9.65kg
  0
POLYLINE
  8
LAYER_2
 40
0.3528
 41
0.3528
 66
1
 10
0
 20
0
 30
0
  0
VERTEX
  8
LAYER_2
 10
143.5341
 20
34.9539
  0
VERTEX
  8
LAYER_2
 10
143.5341
 20
60.4597
  0
SEQEND
  0
TEXT
  8
LAYER_2
 10
-15.2849
 20
54.891
 11
-15.2849
 21
54.891
 40
4.1465
 41
0.5
  1
エンジョイ 半埋込型洗面器400ｍｍ
  0
INSERT
  8
LAYER_2
  2
AIGNBL02010003
 10
0
 20
0
 30
0
  0
TEXT
  8
LAYER_2
 10
-15.6835
 20
45.3736
 11
-15.6835
 21
45.3736
 40
3.1177
 41
0.5
  1
●設置方法：半埋込●水栓取付穴：なし●オーバーフロー：なし
  0
TEXT
  8
LAYER_2
 10
-15.6835
 20
40.6235
 11
-15.6835
 21
40.6235
 40
3.1177
 41
0.5
  1
●排水金具別途
  0
TEXT
  8
LAYER_2
 10
237.263
 20
63.2582
 11
237.263
 21
63.2582
 40
2.9618
 41
0.5
  1
単位：mm
  0
TEXT
  8
LAYER_2
 10
6.5217
 20
219.7385
 11
6.5217
 21
219.7385
 40
2.5981
 41
0.5
  1
※陶器製品は寸法公差が発生します。カウンター切り込みの際は必ず現物を合わせてご確認ください。
  0
TEXT
  8
LAYER_2
 10
6.5217
 20
214.9886
 11
6.5217
 21
214.9886
 40
2.5981
 41
0.5
  1
※製品と接する部分には必ずコーキング処理を行ってください。
  0
TEXT
  8
LAYER_2
 10
176.0254
 20
39.5359
 11
176.0254
 21
39.5359
 40
3.3853
 41
0.5
  1
●TEL 0120-65-1232●FAX 06-6532-1580
  0
TEXT
  8
LAYER_2
 10
176.0254
 20
36.0212
 11
176.0254
 21
36.0212
 40
3.3853
 41
0.5
  1
hits@hiratatile.co.jp
  0
TEXT
  8
LAYER_2
 10
240.3591
 20
225.8432
 11
240.3591
 21
225.8432
 40
2.0732
 41
0.5
  1
180604RT
  0
INSERT
  8
LAYER_2
  2
AIGNBL02010006
 10
0
 20
0
 30
0
  0
TEXT
  8
LAYER_2
 10
132.384
 20
134.9768
 11
132.384
 21
134.9768
 40
3.8503
 41
0.5
  1
カウンター開口寸法：380×380
  0
ENDSEC
  0
EOF
