  0
SECTION
  2
HEADER
  9
$ACADVER
  1
AC1009
  9
$LUNITS
 70
2
  9
$LUPREC
 70
4
  9
$LTSCALE
 40
1.0
  9
$EXTMIN
 10
-30.3177
 20
33.3285
 30
0
  9
$EXTMAX
 10
251.6749
 20
230.337
 30
0
  0
ENDSEC
  0
SECTION
  2
TABLES
  0
TABLE
  2
LTYPE
 70
256
  0
ENDTAB
  0
TABLE
  2
LAYER
 70
2
  0
LAYER
  2
LAYER_1
 70
64
 62
7
  6
CONTINUOUS
  0
LAYER
  2
LAYER_2
 70
64
 62
7
  6
CONTINUOUS
  0
ENDTAB
  0
TABLE
  2
STYLE
 70
6
  0
STYLE
  2
STANDARD
 70
0
 40
0
 50
0
 71
0
 41
0
 42
0
  3
TXT
  4
BIGFONT
  0
ENDTAB
  0
ENDSEC
  0
SECTION
  2
BLOCKS
  0
BLOCK
  8
LAYER_2
  2
AIGNBL02040009
 70
64
 10
0
 20
0
 30
0
  3
AIGNBL02040009
  0
POLYLINE
  8
LAYER_2
 40
0.05
 41
0.05
 66
1
 10
0
 20
0
 30
0
 70
1
  0
VERTEX
  8
LAYER_2
 10
146.7545
 20
39.1418
  0
VERTEX
  8
LAYER_2
 10
146.2656
 20
37.9567
  0
VERTEX
  8
LAYER_2
 10
145.6376
 20
37.9567
  0
VERTEX
  8
LAYER_2
 10
147.2372
 20
41.7225
  0
VERTEX
  8
LAYER_2
 10
147.9703
 20
41.7225
  0
VERTEX
  8
LAYER_2
 10
149.5768
 20
37.9567
  0
VERTEX
  8
LAYER_2
 10
148.9267
 20
37.9567
  0
VERTEX
  8
LAYER_2
 10
148.424
 20
39.1418
  0
SEQEND
  0
POLYLINE
  8
LAYER_2
 40
0.05
 41
0.05
 66
1
 10
0
 20
0
 30
0
 70
1
  0
VERTEX
  8
LAYER_2
 10
148.2983
 20
39.5207
  0
VERTEX
  8
LAYER_2
 10
147.8373
 20
40.6056
 42
-0.02317247198
  0
VERTEX
  8
LAYER_2
 10
147.5927
 20
41.2926
  0
VERTEX
  8
LAYER_2
 10
147.5789
 20
41.2926
 42
-0.02064481114
  0
VERTEX
  8
LAYER_2
 10
147.3412
 20
40.6101
  0
VERTEX
  8
LAYER_2
 10
146.8806
 20
39.5207
  0
SEQEND
  0
ENDBLK
  0
BLOCK
  8
LAYER_2
  2
AIGNBL0204000A
 70
64
 10
0
 20
0
 30
0
  3
AIGNBL0204000A
  0
POLYLINE
  8
LAYER_2
 40
0.05
 41
0.05
 66
1
 10
0
 20
0
 30
0
 70
1
  0
VERTEX
  8
LAYER_2
 10
153.942
 20
37.4034
 42
-0.01520763512
  0
VERTEX
  8
LAYER_2
 10
152.1399
 20
37.8395
 42
0.09160443264
  0
VERTEX
  8
LAYER_2
 10
151.8533
 20
37.895
 42
-0.09256808484
  0
VERTEX
  8
LAYER_2
 10
150.8994
 20
38.0977
 42
-0.09799469934
  0
VERTEX
  8
LAYER_2
 10
150.2621
 20
38.5324
 42
-0.1630918382
  0
VERTEX
  8
LAYER_2
 10
149.7964
 20
39.5259
 42
-0.0316951694
  0
VERTEX
  8
LAYER_2
 10
149.7793
 20
39.7998
 42
-0.1055313794
  0
VERTEX
  8
LAYER_2
 10
149.9533
 20
40.6417
 42
-0.1619874109
  0
VERTEX
  8
LAYER_2
 10
150.7418
 20
41.4867
 42
-0.09224146328
  0
VERTEX
  8
LAYER_2
 10
151.5409
 20
41.7524
 42
-0.03717154931
  0
VERTEX
  8
LAYER_2
 10
151.9725
 20
41.7838
 42
-0.09530639066
  0
VERTEX
  8
LAYER_2
 10
152.9361
 20
41.6062
 42
-0.1001950085
  0
VERTEX
  8
LAYER_2
 10
153.5732
 20
41.1834
 42
-0.1611155306
  0
VERTEX
  8
LAYER_2
 10
154.0599
 20
40.1825
 42
-0.03590167283
  0
VERTEX
  8
LAYER_2
 10
154.0815
 20
39.8784
 42
-0.1066761192
  0
VERTEX
  8
LAYER_2
 10
153.9051
 20
39.0236
 42
-0.2183970027
  0
VERTEX
  8
LAYER_2
 10
152.7953
 20
38.0897
 42
-0.006706711403
  0
VERTEX
  8
LAYER_2
 10
152.7407
 20
38.0738
  0
VERTEX
  8
LAYER_2
 10
152.7407
 20
38.0514
 42
0.01533555045
  0
VERTEX
  8
LAYER_2
 10
154.117
 20
37.8113
  0
SEQEND
  0
POLYLINE
  8
LAYER_2
 40
0.05
 41
0.05
 66
1
 10
0
 20
0
 30
0
 70
1
  0
VERTEX
  8
LAYER_2
 10
153.4394
 20
39.857
 42
0.1175610784
  0
VERTEX
  8
LAYER_2
 10
153.257
 20
40.6254
 42
0.1170135141
  0
VERTEX
  8
LAYER_2
 10
152.8315
 20
41.1234
 42
0.1200044572
  0
VERTEX
  8
LAYER_2
 10
152.2186
 20
41.3675
 42
0.03774262044
  0
VERTEX
  8
LAYER_2
 10
151.9511
 20
41.3873
 42
0.1153139376
  0
VERTEX
  8
LAYER_2
 10
151.2089
 20
41.2226
 42
0.1853550912
  0
VERTEX
  8
LAYER_2
 10
150.5507
 20
40.4882
 42
0.09859892291
  0
VERTEX
  8
LAYER_2
 10
150.4287
 20
39.8122
 42
0.1178359247
  0
VERTEX
  8
LAYER_2
 10
150.5964
 20
39.0734
 42
0.2866694251
  0
VERTEX
  8
LAYER_2
 10
151.9232
 20
38.2912
 42
0.1188197759
  0
VERTEX
  8
LAYER_2
 10
152.6722
 20
38.4633
 42
0.1796740134
  0
VERTEX
  8
LAYER_2
 10
153.3126
 20
39.18
 42
0.09850052237
  0
SEQEND
  0
ENDBLK
  0
BLOCK
  8
LAYER_2
  2
AIGNBL0204000B
 70
64
 10
0
 20
0
 30
0
  3
AIGNBL0204000B
  0
POLYLINE
  8
LAYER_2
 40
0.05
 41
0.05
 66
1
 10
0
 20
0
 30
0
 70
1
  0
VERTEX
  8
LAYER_2
 10
155.4089
 20
41.7225
  0
VERTEX
  8
LAYER_2
 10
155.4089
 20
39.4932
 42
0.1220213404
  0
VERTEX
  8
LAYER_2
 10
155.569
 20
38.7775
 42
0.2218709818
  0
VERTEX
  8
LAYER_2
 10
156.2104
 20
38.3206
 42
0.05223876895
  0
VERTEX
  8
LAYER_2
 10
156.5055
 20
38.2912
 42
0.1302821267
  0
VERTEX
  8
LAYER_2
 10
157.1748
 20
38.452
 42
0.1509367336
  0
VERTEX
  8
LAYER_2
 10
157.526
 20
38.8454
 42
0.1174732039
  0
VERTEX
  8
LAYER_2
 10
157.651
 20
39.4932
  0
VERTEX
  8
LAYER_2
 10
157.651
 20
41.7225
  0
VERTEX
  8
LAYER_2
 10
158.2656
 20
41.7225
  0
VERTEX
  8
LAYER_2
 10
158.2656
 20
39.5266
 42
-0.1106199636
  0
VERTEX
  8
LAYER_2
 10
158.0961
 20
38.708
 42
-0.1822316276
  0
VERTEX
  8
LAYER_2
 10
157.4057
 20
38.0637
 42
-0.09768689614
  0
VERTEX
  8
LAYER_2
 10
156.6028
 20
37.8972
 42
-0.01000776787
  0
VERTEX
  8
LAYER_2
 10
156.4845
 20
37.895
 42
-0.09899539667
  0
VERTEX
  8
LAYER_2
 10
155.612
 20
38.0554
 42
-0.120955925
  0
VERTEX
  8
LAYER_2
 10
155.1093
 20
38.4366
 42
-0.1193006487
  0
VERTEX
  8
LAYER_2
 10
154.8407
 20
39.0316
 42
-0.05319923583
  0
VERTEX
  8
LAYER_2
 10
154.7943
 20
39.5045
  0
VERTEX
  8
LAYER_2
 10
154.7943
 20
41.7225
  0
SEQEND
  0
ENDBLK
  0
BLOCK
  8
LAYER_2
  2
AIGNBL0204000C
 70
64
 10
0
 20
0
 30
0
  3
AIGNBL0204000C
  0
POLYLINE
  8
LAYER_2
 40
0.05
 41
0.05
 66
1
 10
0
 20
0
 30
0
 70
1
  0
VERTEX
  8
LAYER_2
 10
160.0119
 20
39.1418
  0
VERTEX
  8
LAYER_2
 10
159.5227
 20
37.9567
  0
VERTEX
  8
LAYER_2
 10
158.8947
 20
37.9567
  0
VERTEX
  8
LAYER_2
 10
160.4939
 20
41.7225
  0
VERTEX
  8
LAYER_2
 10
161.227
 20
41.7225
  0
VERTEX
  8
LAYER_2
 10
162.8335
 20
37.9567
  0
VERTEX
  8
LAYER_2
 10
162.1841
 20
37.9567
  0
VERTEX
  8
LAYER_2
 10
161.6814
 20
39.1418
  0
SEQEND
  0
POLYLINE
  8
LAYER_2
 40
0.05
 41
0.05
 66
1
 10
0
 20
0
 30
0
 70
1
  0
VERTEX
  8
LAYER_2
 10
161.5553
 20
39.5207
  0
VERTEX
  8
LAYER_2
 10
161.094
 20
40.6056
 42
-0.02227599701
  0
VERTEX
  8
LAYER_2
 10
160.8494
 20
41.2926
  0
VERTEX
  8
LAYER_2
 10
160.8357
 20
41.2926
 42
-0.0208222547
  0
VERTEX
  8
LAYER_2
 10
160.5983
 20
40.6101
  0
VERTEX
  8
LAYER_2
 10
160.1373
 20
39.5207
  0
SEQEND
  0
ENDBLK
  0
BLOCK
  8
LAYER_2
  2
AIGNBL0204000D
 70
64
 10
0
 20
0
 30
0
  3
AIGNBL0204000D
  0
POLYLINE
  8
LAYER_2
 40
0.05
 41
0.05
 66
1
 10
0
 20
0
 30
0
 70
1
  0
VERTEX
  8
LAYER_2
 10
163.8742
 20
41.6777
 42
-0.03334485223
  0
VERTEX
  8
LAYER_2
 10
165.0411
 20
41.7508
 42
-0.08844478427
  0
VERTEX
  8
LAYER_2
 10
166.0871
 20
41.5858
 42
-0.06037505309
  0
VERTEX
  8
LAYER_2
 10
166.3609
 20
41.4379
 42
-0.2472514979
  0
VERTEX
  8
LAYER_2
 10
166.7726
 20
40.6497
 42
-0.1483298328
  0
VERTEX
  8
LAYER_2
 10
166.6029
 20
40.0554
 42
-0.07223194904
  0
VERTEX
  8
LAYER_2
 10
166.4095
 20
39.8456
 42
-0.1209372404
  0
VERTEX
  8
LAYER_2
 10
165.7228
 20
39.517
 42
-0.06224269186
  0
VERTEX
  8
LAYER_2
 10
164.9708
 20
39.4319
 42
-0.05738783264
  0
VERTEX
  8
LAYER_2
 10
164.4823
 20
39.4653
  0
VERTEX
  8
LAYER_2
 10
164.4823
 20
37.9567
  0
VERTEX
  8
LAYER_2
 10
163.8742
 20
37.9567
  0
SEQEND
  0
POLYLINE
  8
LAYER_2
 40
0.05
 41
0.05
 66
1
 10
0
 20
0
 30
0
 70
1
  0
VERTEX
  8
LAYER_2
 10
164.4823
 20
39.8622
 42
0.05012782438
  0
VERTEX
  8
LAYER_2
 10
164.9846
 20
39.8229
 42
0.1135299982
  0
VERTEX
  8
LAYER_2
 10
165.7697
 20
39.9822
 42
0.1653556145
  0
VERTEX
  8
LAYER_2
 10
166.1074
 20
40.3302
 42
0.1044590446
  0
VERTEX
  8
LAYER_2
 10
166.1656
 20
40.6273
 42
0.2826437488
  0
VERTEX
  8
LAYER_2
 10
165.8147
 20
41.2103
 42
0.0629694601
  0
VERTEX
  8
LAYER_2
 10
165.549
 20
41.3107
 42
0.06259589917
  0
VERTEX
  8
LAYER_2
 10
165.0552
 20
41.3649
 42
0.05192366909
  0
VERTEX
  8
LAYER_2
 10
164.4823
 20
41.3257
  0
SEQEND
  0
ENDBLK
  0
BLOCK
  8
LAYER_2
  2
AIGNBL0204000E
 70
64
 10
0
 20
0
 30
0
  3
AIGNBL0204000E
  0
POLYLINE
  8
LAYER_2
 40
0.05
 41
0.05
 66
1
 10
0
 20
0
 30
0
 70
1
  0
VERTEX
  8
LAYER_2
 10
168.3246
 20
41.4207
 42
-0.3048675751
  0
VERTEX
  8
LAYER_2
 10
168.1582
 20
41.1661
 42
-0.1151020929
  0
VERTEX
  8
LAYER_2
 10
167.9329
 20
41.1189
 42
-0.2442513348
  0
VERTEX
  8
LAYER_2
 10
167.6028
 20
41.2794
 42
-0.1394546152
  0
VERTEX
  8
LAYER_2
 10
167.5626
 20
41.4207
 42
-0.287439772
  0
VERTEX
  8
LAYER_2
 10
167.7346
 20
41.6803
 42
-0.1179404017
  0
VERTEX
  8
LAYER_2
 10
167.9467
 20
41.7277
 42
-0.2416274379
  0
VERTEX
  8
LAYER_2
 10
168.2814
 20
41.5719
 42
-0.1426378456
  0
SEQEND
  0
POLYLINE
  8
LAYER_2
 40
0.05
 41
0.05
 66
1
 10
0
 20
0
 30
0
 70
1
  0
VERTEX
  8
LAYER_2
 10
167.639
 20
37.9567
  0
VERTEX
  8
LAYER_2
 10
167.639
 20
40.6607
  0
VERTEX
  8
LAYER_2
 10
168.2537
 20
40.6607
  0
VERTEX
  8
LAYER_2
 10
168.2537
 20
37.9567
  0
SEQEND
  0
ENDBLK
  0
BLOCK
  8
LAYER_2
  2
AIGNBL0204000F
 70
64
 10
0
 20
0
 30
0
  3
AIGNBL0204000F
  0
POLYLINE
  8
LAYER_2
 40
0.05
 41
0.05
 66
1
 10
0
 20
0
 30
0
 70
1
  0
VERTEX
  8
LAYER_2
 10
170.1254
 20
39.1418
  0
VERTEX
  8
LAYER_2
 10
169.6372
 20
37.9567
  0
VERTEX
  8
LAYER_2
 10
169.0081
 20
37.9567
  0
VERTEX
  8
LAYER_2
 10
170.6077
 20
41.7225
  0
VERTEX
  8
LAYER_2
 10
171.3415
 20
41.7225
  0
VERTEX
  8
LAYER_2
 10
172.9479
 20
37.9567
  0
VERTEX
  8
LAYER_2
 10
172.2982
 20
37.9567
  0
VERTEX
  8
LAYER_2
 10
171.7955
 20
39.1418
  0
SEQEND
  0
POLYLINE
  8
LAYER_2
 40
0.05
 41
0.05
 66
1
 10
0
 20
0
 30
0
 70
1
  0
VERTEX
  8
LAYER_2
 10
171.6695
 20
39.5207
  0
VERTEX
  8
LAYER_2
 10
171.2085
 20
40.6056
 42
-0.02430767271
  0
VERTEX
  8
LAYER_2
 10
170.9646
 20
41.2926
  0
VERTEX
  8
LAYER_2
 10
170.9498
 20
41.2926
 42
-0.02034719794
  0
VERTEX
  8
LAYER_2
 10
170.7128
 20
40.6101
  0
VERTEX
  8
LAYER_2
 10
170.2518
 20
39.5207
  0
SEQEND
  0
ENDBLK
  0
BLOCK
  8
LAYER_2
  2
AIGNBL02030008
 70
64
 10
0
 20
0
 30
0
  3
AIGNBL02030008
  0
INSERT
  8
LAYER_2
  2
AIGNBL02040009
 10
0
 20
0
 30
0
  0
INSERT
  8
LAYER_2
  2
AIGNBL0204000A
 10
0
 20
0
 30
0
  0
INSERT
  8
LAYER_2
  2
AIGNBL0204000B
 10
0
 20
0
 30
0
  0
INSERT
  8
LAYER_2
  2
AIGNBL0204000C
 10
0
 20
0
 30
0
  0
INSERT
  8
LAYER_2
  2
AIGNBL0204000D
 10
0
 20
0
 30
0
  0
INSERT
  8
LAYER_2
  2
AIGNBL0204000E
 10
0
 20
0
 30
0
  0
INSERT
  8
LAYER_2
  2
AIGNBL0204000F
 10
0
 20
0
 30
0
  0
ENDBLK
  0
BLOCK
  8
LAYER_2
  2
AIGNBL02030011
 70
64
 10
0
 20
0
 30
0
  3
AIGNBL02030011
  0
POLYLINE
  8
LAYER_2
 40
0.05
 41
0.05
 66
1
 10
0
 20
0
 30
0
 70
1
  0
VERTEX
  8
LAYER_2
 10
145.7475
 20
36.0574
  0
VERTEX
  8
LAYER_2
 10
146.3008
 20
36.0574
  0
VERTEX
  8
LAYER_2
 10
146.3008
 20
35.9637
  0
VERTEX
  8
LAYER_2
 10
145.6424
 20
35.9637
  0
VERTEX
  8
LAYER_2
 10
145.6424
 20
36.9969
  0
VERTEX
  8
LAYER_2
 10
146.2832
 20
36.9969
  0
VERTEX
  8
LAYER_2
 10
146.2832
 20
36.9035
  0
VERTEX
  8
LAYER_2
 10
145.7475
 20
36.9035
  0
VERTEX
  8
LAYER_2
 10
145.7475
 20
36.549
  0
VERTEX
  8
LAYER_2
 10
146.2481
 20
36.549
  0
VERTEX
  8
LAYER_2
 10
146.2481
 20
36.4557
  0
VERTEX
  8
LAYER_2
 10
145.7475
 20
36.4557
  0
SEQEND
  0
ENDBLK
  0
BLOCK
  8
LAYER_2
  2
AIGNBL02030012
 70
64
 10
0
 20
0
 30
0
  3
AIGNBL02030012
  0
POLYLINE
  8
LAYER_2
 40
0.05
 41
0.05
 66
1
 10
0
 20
0
 30
0
 70
1
  0
VERTEX
  8
LAYER_2
 10
147.4404
 20
36.117
  0
VERTEX
  8
LAYER_2
 10
147.4432
 20
36.117
  0
VERTEX
  8
LAYER_2
 10
147.4432
 20
36.9969
  0
VERTEX
  8
LAYER_2
 10
147.5483
 20
36.9969
  0
VERTEX
  8
LAYER_2
 10
147.5483
 20
35.9637
  0
VERTEX
  8
LAYER_2
 10
147.4174
 20
35.9637
  0
VERTEX
  8
LAYER_2
 10
146.8162
 20
36.8525
  0
VERTEX
  8
LAYER_2
 10
146.8127
 20
36.8525
  0
VERTEX
  8
LAYER_2
 10
146.8127
 20
35.9637
  0
VERTEX
  8
LAYER_2
 10
146.708
 20
35.9637
  0
VERTEX
  8
LAYER_2
 10
146.708
 20
36.9969
  0
VERTEX
  8
LAYER_2
 10
146.8393
 20
36.9969
  0
SEQEND
  0
ENDBLK
  0
BLOCK
  8
LAYER_2
  2
AIGNBL02030013
 70
64
 10
0
 20
0
 30
0
  3
AIGNBL02030013
  0
POLYLINE
  8
LAYER_2
 40
0.05
 41
0.05
 66
1
 10
0
 20
0
 30
0
 70
1
  0
VERTEX
  8
LAYER_2
 10
148.0213
 20
36.1756
 42
0.1557655154
  0
VERTEX
  8
LAYER_2
 10
148.0757
 20
36.0725
 42
0.1918235184
  0
VERTEX
  8
LAYER_2
 10
148.1891
 20
36.0309
  0
VERTEX
  8
LAYER_2
 10
148.2783
 20
36.0505
  0
VERTEX
  8
LAYER_2
 10
148.3344
 20
36.1039
  0
VERTEX
  8
LAYER_2
 10
148.3634
 20
36.1804
  0
VERTEX
  8
LAYER_2
 10
148.3717
 20
36.27
  0
VERTEX
  8
LAYER_2
 10
148.3717
 20
36.9969
  0
VERTEX
  8
LAYER_2
 10
148.4767
 20
36.9969
  0
VERTEX
  8
LAYER_2
 10
148.4767
 20
36.2614
  0
VERTEX
  8
LAYER_2
 10
148.4654
 20
36.1535
 42
-0.0973308998
  0
VERTEX
  8
LAYER_2
 10
148.424
 20
36.0485
 42
-0.1149355521
  0
VERTEX
  8
LAYER_2
 10
148.3393
 20
35.9689
 42
-0.1249341208
  0
VERTEX
  8
LAYER_2
 10
148.2004
 20
35.9375
 42
-0.1793665557
  0
VERTEX
  8
LAYER_2
 10
148.0158
 20
35.9974
 42
-0.1772363953
  0
VERTEX
  8
LAYER_2
 10
147.9234
 20
36.149
  0
SEQEND
  0
ENDBLK
  0
BLOCK
  8
LAYER_2
  2
AIGNBL02030014
 70
64
 10
0
 20
0
 30
0
  3
AIGNBL02030014
  0
POLYLINE
  8
LAYER_2
 40
0.05
 41
0.05
 66
1
 10
0
 20
0
 30
0
 70
1
  0
VERTEX
  8
LAYER_2
 10
149.965
 20
36.4805
 42
-0.1019307791
  0
VERTEX
  8
LAYER_2
 10
149.924
 20
36.2631
 42
-0.1000112985
  0
VERTEX
  8
LAYER_2
 10
149.8113
 20
36.0915
 42
-0.09646612644
  0
VERTEX
  8
LAYER_2
 10
149.6405
 20
35.9785
 42
-0.09758594962
  0
VERTEX
  8
LAYER_2
 10
149.4265
 20
35.9375
 42
-0.1000844711
  0
VERTEX
  8
LAYER_2
 10
149.2129
 20
35.9785
 42
-0.09954994557
  0
VERTEX
  8
LAYER_2
 10
149.042
 20
36.0915
 42
-0.09699237735
  0
VERTEX
  8
LAYER_2
 10
148.9287
 20
36.2631
 42
-0.09653980076
  0
VERTEX
  8
LAYER_2
 10
148.8881
 20
36.4805
 42
-0.1004051845
  0
VERTEX
  8
LAYER_2
 10
148.9287
 20
36.6978
 42
-0.0998654539
  0
VERTEX
  8
LAYER_2
 10
149.042
 20
36.8694
 42
-0.09851519288
  0
VERTEX
  8
LAYER_2
 10
149.2129
 20
36.9824
 42
-0.09768823248
  0
VERTEX
  8
LAYER_2
 10
149.4265
 20
37.0234
 42
-0.1000514256
  0
VERTEX
  8
LAYER_2
 10
149.6405
 20
36.9824
 42
-0.09863053528
  0
VERTEX
  8
LAYER_2
 10
149.8113
 20
36.8694
 42
-0.09807107579
  0
VERTEX
  8
LAYER_2
 10
149.924
 20
36.6978
 42
-0.0978256893
  0
SEQEND
  0
POLYLINE
  8
LAYER_2
 40
0.05
 41
0.05
 66
1
 10
0
 20
0
 30
0
 70
1
  0
VERTEX
  8
LAYER_2
 10
149.8541
 20
36.4798
 42
0.08634913196
  0
VERTEX
  8
LAYER_2
 10
149.8251
 20
36.6517
 42
0.09649608129
  0
VERTEX
  8
LAYER_2
 10
149.7404
 20
36.795
 42
0.1032857511
  0
VERTEX
  8
LAYER_2
 10
149.6053
 20
36.8932
 42
0.1061320656
  0
VERTEX
  8
LAYER_2
 10
149.4265
 20
36.93
 42
0.1115874499
  0
VERTEX
  8
LAYER_2
 10
149.2478
 20
36.8932
 42
0.1058584166
  0
VERTEX
  8
LAYER_2
 10
149.113
 20
36.795
 42
0.09787799956
  0
VERTEX
  8
LAYER_2
 10
149.0283
 20
36.6517
 42
0.08491464556
  0
VERTEX
  8
LAYER_2
 10
148.999
 20
36.4798
 42
0.08693146424
  0
VERTEX
  8
LAYER_2
 10
149.0283
 20
36.3079
 42
0.1009797617
  0
VERTEX
  8
LAYER_2
 10
149.113
 20
36.1649
 42
0.09998489394
  0
VERTEX
  8
LAYER_2
 10
149.2478
 20
36.0674
 42
0.1061678446
  0
VERTEX
  8
LAYER_2
 10
149.4265
 20
36.0309
 42
0.1126980581
  0
VERTEX
  8
LAYER_2
 10
149.6053
 20
36.0674
 42
0.1036982708
  0
VERTEX
  8
LAYER_2
 10
149.7404
 20
36.1649
 42
0.09370250368
  0
VERTEX
  8
LAYER_2
 10
149.8251
 20
36.3079
 42
0.08466662837
  0
SEQEND
  0
ENDBLK
  0
BLOCK
  8
LAYER_2
  2
AIGNBL02030015
 70
64
 10
0
 20
0
 30
0
  3
AIGNBL02030015
  0
POLYLINE
  8
LAYER_2
 40
0.05
 41
0.05
 66
1
 10
0
 20
0
 30
0
 70
1
  0
VERTEX
  8
LAYER_2
 10
150.7398
 20
35.9637
  0
VERTEX
  8
LAYER_2
 10
150.6351
 20
35.9637
  0
VERTEX
  8
LAYER_2
 10
150.6351
 20
36.4091
  0
VERTEX
  8
LAYER_2
 10
150.2482
 20
36.9969
  0
VERTEX
  8
LAYER_2
 10
150.3795
 20
36.9969
  0
VERTEX
  8
LAYER_2
 10
150.6905
 20
36.4967
  0
VERTEX
  8
LAYER_2
 10
151.0041
 20
36.9969
  0
VERTEX
  8
LAYER_2
 10
151.1263
 20
36.9969
  0
VERTEX
  8
LAYER_2
 10
150.7398
 20
36.4091
  0
SEQEND
  0
ENDBLK
  0
BLOCK
  8
LAYER_2
  2
AIGNBL02030016
 70
64
 10
0
 20
0
 30
0
  3
AIGNBL02030016
  0
POLYLINE
  8
LAYER_2
 40
0.05
 41
0.05
 66
1
 10
0
 20
0
 30
0
 70
1
  0
VERTEX
  8
LAYER_2
 10
152.0314
 20
36.9969
  0
VERTEX
  8
LAYER_2
 10
152.339
 20
36.9969
  0
VERTEX
  8
LAYER_2
 10
152.4575
 20
36.9845
  0
VERTEX
  8
LAYER_2
 10
152.5643
 20
36.9421
 42
-0.1168262011
  0
VERTEX
  8
LAYER_2
 10
152.6422
 20
36.8611
 42
-0.1230288266
  0
VERTEX
  8
LAYER_2
 10
152.6718
 20
36.733
 42
-0.1795449175
  0
VERTEX
  8
LAYER_2
 10
152.6219
 20
36.5907
 42
-0.170141964
  0
VERTEX
  8
LAYER_2
 10
152.4885
 20
36.5111
  0
VERTEX
  8
LAYER_2
 10
152.4885
 20
36.5084
 42
-0.1719890535
  0
VERTEX
  8
LAYER_2
 10
152.6553
 20
36.4302
 42
-0.2018462152
  0
VERTEX
  8
LAYER_2
 10
152.7214
 20
36.2496
 42
-0.1247085485
  0
VERTEX
  8
LAYER_2
 10
152.6942
 20
36.1325
 42
-0.1153486961
  0
VERTEX
  8
LAYER_2
 10
152.6181
 20
36.0419
 42
-0.08656795839
  0
VERTEX
  8
LAYER_2
 10
152.4972
 20
35.9844
 42
-0.06557363107
  0
VERTEX
  8
LAYER_2
 10
152.3373
 20
35.9637
  0
VERTEX
  8
LAYER_2
 10
152.0314
 20
35.9637
  0
SEQEND
  0
POLYLINE
  8
LAYER_2
 40
0.05
 41
0.05
 66
1
 10
0
 20
0
 30
0
 70
1
  0
VERTEX
  8
LAYER_2
 10
152.1364
 20
36.5445
  0
VERTEX
  8
LAYER_2
 10
152.348
 20
36.5445
  0
VERTEX
  8
LAYER_2
 10
152.4248
 20
36.5535
  0
VERTEX
  8
LAYER_2
 10
152.4951
 20
36.5831
  0
VERTEX
  8
LAYER_2
 10
152.5471
 20
36.6396
 42
0.1162126025
  0
VERTEX
  8
LAYER_2
 10
152.5668
 20
36.7258
  0
VERTEX
  8
LAYER_2
 10
152.5471
 20
36.8095
  0
VERTEX
  8
LAYER_2
 10
152.494
 20
36.8656
  0
VERTEX
  8
LAYER_2
 10
152.4152
 20
36.897
  0
VERTEX
  8
LAYER_2
 10
152.3187
 20
36.9066
  0
VERTEX
  8
LAYER_2
 10
152.1364
 20
36.9066
  0
SEQEND
  0
POLYLINE
  8
LAYER_2
 40
0.05
 41
0.05
 66
1
 10
0
 20
0
 30
0
 70
1
  0
VERTEX
  8
LAYER_2
 10
152.1364
 20
36.0543
  0
VERTEX
  8
LAYER_2
 10
152.3321
 20
36.0543
  0
VERTEX
  8
LAYER_2
 10
152.4406
 20
36.0653
  0
VERTEX
  8
LAYER_2
 10
152.5313
 20
36.1001
 42
0.1172546835
  0
VERTEX
  8
LAYER_2
 10
152.5929
 20
36.1632
 42
0.1286243504
  0
VERTEX
  8
LAYER_2
 10
152.6164
 20
36.2559
 42
0.2498669706
  0
VERTEX
  8
LAYER_2
 10
152.5471
 20
36.4081
 42
0.1538083763
  0
VERTEX
  8
LAYER_2
 10
152.3511
 20
36.4584
  0
VERTEX
  8
LAYER_2
 10
152.1364
 20
36.4584
  0
SEQEND
  0
ENDBLK
  0
BLOCK
  8
LAYER_2
  2
AIGNBL02030017
 70
64
 10
0
 20
0
 30
0
  3
AIGNBL02030017
  0
POLYLINE
  8
LAYER_2
 40
0.05
 41
0.05
 66
1
 10
0
 20
0
 30
0
 70
1
  0
VERTEX
  8
LAYER_2
 10
153.1534
 20
35.9637
  0
VERTEX
  8
LAYER_2
 10
153.038
 20
35.9637
  0
VERTEX
  8
LAYER_2
 10
153.4849
 20
36.9969
  0
VERTEX
  8
LAYER_2
 10
153.5872
 20
36.9969
  0
VERTEX
  8
LAYER_2
 10
154.0306
 20
35.9637
  0
VERTEX
  8
LAYER_2
 10
153.9138
 20
35.9637
  0
VERTEX
  8
LAYER_2
 10
153.7997
 20
36.2352
  0
VERTEX
  8
LAYER_2
 10
153.2657
 20
36.2352
  0
SEQEND
  0
POLYLINE
  8
LAYER_2
 40
0.05
 41
0.05
 66
1
 10
0
 20
0
 30
0
 70
1
  0
VERTEX
  8
LAYER_2
 10
153.305
 20
36.3316
  0
VERTEX
  8
LAYER_2
 10
153.7604
 20
36.3316
  0
VERTEX
  8
LAYER_2
 10
153.5327
 20
36.8804
  0
SEQEND
  0
ENDBLK
  0
BLOCK
  8
LAYER_2
  2
AIGNBL02030018
 70
64
 10
0
 20
0
 30
0
  3
AIGNBL02030018
  0
POLYLINE
  8
LAYER_2
 40
0.05
 41
0.05
 66
1
 10
0
 20
0
 30
0
 70
1
  0
VERTEX
  8
LAYER_2
 10
154.7151
 20
35.9637
  0
VERTEX
  8
LAYER_2
 10
154.61
 20
35.9637
  0
VERTEX
  8
LAYER_2
 10
154.61
 20
36.9035
  0
VERTEX
  8
LAYER_2
 10
154.2638
 20
36.9035
  0
VERTEX
  8
LAYER_2
 10
154.2638
 20
36.9969
  0
VERTEX
  8
LAYER_2
 10
155.0606
 20
36.9969
  0
VERTEX
  8
LAYER_2
 10
155.0606
 20
36.9035
  0
VERTEX
  8
LAYER_2
 10
154.7151
 20
36.9035
  0
SEQEND
  0
ENDBLK
  0
BLOCK
  8
LAYER_2
  2
AIGNBL02030019
 70
64
 10
0
 20
0
 30
0
  3
AIGNBL02030019
  0
POLYLINE
  8
LAYER_2
 40
0.05
 41
0.05
 66
1
 10
0
 20
0
 30
0
 70
1
  0
VERTEX
  8
LAYER_2
 10
155.4169
 20
36.9969
  0
VERTEX
  8
LAYER_2
 10
155.5216
 20
36.9969
  0
VERTEX
  8
LAYER_2
 10
155.5216
 20
36.549
  0
VERTEX
  8
LAYER_2
 10
156.0852
 20
36.549
  0
VERTEX
  8
LAYER_2
 10
156.0852
 20
36.9969
  0
VERTEX
  8
LAYER_2
 10
156.1903
 20
36.9969
  0
VERTEX
  8
LAYER_2
 10
156.1903
 20
35.9637
  0
VERTEX
  8
LAYER_2
 10
156.0852
 20
35.9637
  0
VERTEX
  8
LAYER_2
 10
156.0852
 20
36.4529
  0
VERTEX
  8
LAYER_2
 10
155.5216
 20
36.4529
  0
VERTEX
  8
LAYER_2
 10
155.5216
 20
35.9637
  0
VERTEX
  8
LAYER_2
 10
155.4169
 20
35.9637
  0
SEQEND
  0
ENDBLK
  0
BLOCK
  8
LAYER_2
  2
AIGNBL0203001A
 70
64
 10
0
 20
0
 30
0
  3
AIGNBL0203001A
  0
POLYLINE
  8
LAYER_2
 40
0.05
 41
0.05
 66
1
 10
0
 20
0
 30
0
 70
1
  0
VERTEX
  8
LAYER_2
 10
156.7708
 20
35.9637
  0
VERTEX
  8
LAYER_2
 10
156.6657
 20
35.9637
  0
VERTEX
  8
LAYER_2
 10
156.6657
 20
36.9969
  0
VERTEX
  8
LAYER_2
 10
156.9696
 20
36.9969
  0
VERTEX
  8
LAYER_2
 10
157.1101
 20
36.9824
 42
-0.1032885834
  0
VERTEX
  8
LAYER_2
 10
157.2228
 20
36.9349
 42
-0.1280591957
  0
VERTEX
  8
LAYER_2
 10
157.2962
 20
36.8494
 42
-0.1078860225
  0
VERTEX
  8
LAYER_2
 10
157.3223
 20
36.7213
  0
VERTEX
  8
LAYER_2
 10
157.3024
 20
36.6176
  0
VERTEX
  8
LAYER_2
 10
157.2469
 20
36.5366
  0
VERTEX
  8
LAYER_2
 10
157.1635
 20
36.4818
  0
VERTEX
  8
LAYER_2
 10
157.0585
 20
36.4557
  0
VERTEX
  8
LAYER_2
 10
157.3606
 20
35.9637
  0
VERTEX
  8
LAYER_2
 10
157.2321
 20
35.9637
  0
VERTEX
  8
LAYER_2
 10
156.9461
 20
36.4467
  0
VERTEX
  8
LAYER_2
 10
156.7708
 20
36.4467
  0
SEQEND
  0
POLYLINE
  8
LAYER_2
 40
0.05
 41
0.05
 66
1
 10
0
 20
0
 30
0
 70
1
  0
VERTEX
  8
LAYER_2
 10
156.7708
 20
36.5373
  0
VERTEX
  8
LAYER_2
 10
156.9534
 20
36.5373
 42
0.153451873
  0
VERTEX
  8
LAYER_2
 10
157.1491
 20
36.5831
 42
0.2580279849
  0
VERTEX
  8
LAYER_2
 10
157.2176
 20
36.7213
  0
VERTEX
  8
LAYER_2
 10
157.1983
 20
36.8071
  0
VERTEX
  8
LAYER_2
 10
157.146
 20
36.8643
  0
VERTEX
  8
LAYER_2
 10
157.0643
 20
36.8963
  0
VERTEX
  8
LAYER_2
 10
156.9578
 20
36.9066
  0
VERTEX
  8
LAYER_2
 10
156.7708
 20
36.9066
  0
SEQEND
  0
ENDBLK
  0
BLOCK
  8
LAYER_2
  2
AIGNBL0203001B
 70
64
 10
0
 20
0
 30
0
  3
AIGNBL0203001B
  0
POLYLINE
  8
LAYER_2
 40
0.05
 41
0.05
 66
1
 10
0
 20
0
 30
0
 70
1
  0
VERTEX
  8
LAYER_2
 10
158.7627
 20
36.4805
 42
-0.09904480664
  0
VERTEX
  8
LAYER_2
 10
158.7221
 20
36.2631
 42
-0.09984043552
  0
VERTEX
  8
LAYER_2
 10
158.6087
 20
36.0915
 42
-0.09841590082
  0
VERTEX
  8
LAYER_2
 10
158.4382
 20
35.9785
 42
-0.09758412454
  0
VERTEX
  8
LAYER_2
 10
158.2243
 20
35.9375
 42
-0.09999517154
  0
VERTEX
  8
LAYER_2
 10
158.0103
 20
35.9785
 42
-0.09953435427
  0
VERTEX
  8
LAYER_2
 10
157.8398
 20
36.0915
 42
-0.09853706159
  0
VERTEX
  8
LAYER_2
 10
157.7268
 20
36.2631
 42
-0.09653980076
  0
VERTEX
  8
LAYER_2
 10
157.6862
 20
36.4805
 42
-0.1004051845
  0
VERTEX
  8
LAYER_2
 10
157.7268
 20
36.6978
 42
-0.1008040346
  0
VERTEX
  8
LAYER_2
 10
157.8398
 20
36.8694
 42
-0.09763764092
  0
VERTEX
  8
LAYER_2
 10
158.0103
 20
36.9824
 42
-0.09752919603
  0
VERTEX
  8
LAYER_2
 10
158.2243
 20
37.0234
 42
-0.1000174927
  0
VERTEX
  8
LAYER_2
 10
158.4382
 20
36.9824
 42
-0.1009762109
  0
VERTEX
  8
LAYER_2
 10
158.6087
 20
36.8694
 42
-0.09735230618
  0
VERTEX
  8
LAYER_2
 10
158.7221
 20
36.6978
 42
-0.09580191209
  0
SEQEND
  0
POLYLINE
  8
LAYER_2
 40
0.05
 41
0.05
 66
1
 10
0
 20
0
 30
0
 70
1
  0
VERTEX
  8
LAYER_2
 10
158.6518
 20
36.4798
 42
0.08852014676
  0
VERTEX
  8
LAYER_2
 10
158.6225
 20
36.6517
 42
0.09973444611
  0
VERTEX
  8
LAYER_2
 10
158.5378
 20
36.795
 42
0.1024799068
  0
VERTEX
  8
LAYER_2
 10
158.4031
 20
36.8932
 42
0.1060321998
  0
VERTEX
  8
LAYER_2
 10
158.2243
 20
36.93
 42
0.1116325688
  0
VERTEX
  8
LAYER_2
 10
158.0455
 20
36.8932
 42
0.1060506217
  0
VERTEX
  8
LAYER_2
 10
157.9104
 20
36.795
 42
0.09526104957
  0
VERTEX
  8
LAYER_2
 10
157.8257
 20
36.6517
 42
0.08422602157
  0
VERTEX
  8
LAYER_2
 10
157.7968
 20
36.4798
 42
0.0876992245
  0
VERTEX
  8
LAYER_2
 10
157.8257
 20
36.3079
 42
0.09826867926
  0
VERTEX
  8
LAYER_2
 10
157.9104
 20
36.1649
 42
0.09965756504
  0
VERTEX
  8
LAYER_2
 10
158.0455
 20
36.0674
 42
0.1061654103
  0
VERTEX
  8
LAYER_2
 10
158.2243
 20
36.0309
 42
0.1124388132
  0
VERTEX
  8
LAYER_2
 10
158.4031
 20
36.0674
 42
0.1029122982
  0
VERTEX
  8
LAYER_2
 10
158.5378
 20
36.1649
 42
0.09882210045
  0
VERTEX
  8
LAYER_2
 10
158.6225
 20
36.3079
 42
0.08589740831
  0
SEQEND
  0
ENDBLK
  0
BLOCK
  8
LAYER_2
  2
AIGNBL0203001C
 70
64
 10
0
 20
0
 30
0
  3
AIGNBL0203001C
  0
POLYLINE
  8
LAYER_2
 40
0.05
 41
0.05
 66
1
 10
0
 20
0
 30
0
 70
1
  0
VERTEX
  8
LAYER_2
 10
160.2045
 20
36.4805
 42
-0.1019307791
  0
VERTEX
  8
LAYER_2
 10
160.1635
 20
36.2631
 42
-0.09929652324
  0
VERTEX
  8
LAYER_2
 10
160.0509
 20
36.0915
 42
-0.09710469009
  0
VERTEX
  8
LAYER_2
 10
159.88
 20
35.9785
 42
-0.09758412454
  0
VERTEX
  8
LAYER_2
 10
159.6661
 20
35.9375
 42
-0.1005051182
  0
VERTEX
  8
LAYER_2
 10
159.4524
 20
35.9785
 42
-0.1009789173
  0
VERTEX
  8
LAYER_2
 10
159.2816
 20
36.0915
 42
-0.09724598852
  0
VERTEX
  8
LAYER_2
 10
159.1682
 20
36.2631
 42
-0.09653980076
  0
VERTEX
  8
LAYER_2
 10
159.1276
 20
36.4805
 42
-0.1004051845
  0
VERTEX
  8
LAYER_2
 10
159.1682
 20
36.6978
 42
-0.1001669327
  0
VERTEX
  8
LAYER_2
 10
159.2816
 20
36.8694
 42
-0.09846843416
  0
VERTEX
  8
LAYER_2
 10
159.4524
 20
36.9824
 42
-0.09783444074
  0
VERTEX
  8
LAYER_2
 10
159.6661
 20
37.0234
 42
-0.1000174927
  0
VERTEX
  8
LAYER_2
 10
159.88
 20
36.9824
 42
-0.098457988
  0
VERTEX
  8
LAYER_2
 10
160.0509
 20
36.8694
 42
-0.09762598086
  0
VERTEX
  8
LAYER_2
 10
160.1635
 20
36.6978
 42
-0.0978256893
  0
SEQEND
  0
POLYLINE
  8
LAYER_2
 40
0.05
 41
0.05
 66
1
 10
0
 20
0
 30
0
 70
1
  0
VERTEX
  8
LAYER_2
 10
160.0936
 20
36.4798
 42
0.08653869446
  0
VERTEX
  8
LAYER_2
 10
160.0647
 20
36.6517
 42
0.09689814906
  0
VERTEX
  8
LAYER_2
 10
159.9799
 20
36.795
 42
0.1032857511
  0
VERTEX
  8
LAYER_2
 10
159.8448
 20
36.8932
 42
0.1061350344
  0
VERTEX
  8
LAYER_2
 10
159.6661
 20
36.93
 42
0.1114208933
  0
VERTEX
  8
LAYER_2
 10
159.4872
 20
36.8932
 42
0.1056595975
  0
VERTEX
  8
LAYER_2
 10
159.3525
 20
36.795
 42
0.09787799956
  0
VERTEX
  8
LAYER_2
 10
159.2678
 20
36.6517
 42
0.08491464556
  0
VERTEX
  8
LAYER_2
 10
159.2385
 20
36.4798
 42
0.08693146424
  0
VERTEX
  8
LAYER_2
 10
159.2678
 20
36.3079
 42
0.1009797617
  0
VERTEX
  8
LAYER_2
 10
159.3525
 20
36.1649
 42
0.09978391674
  0
VERTEX
  8
LAYER_2
 10
159.4872
 20
36.0674
 42
0.1060616244
  0
VERTEX
  8
LAYER_2
 10
159.6661
 20
36.0309
 42
0.1126531325
  0
VERTEX
  8
LAYER_2
 10
159.8448
 20
36.0674
 42
0.1036982708
  0
VERTEX
  8
LAYER_2
 10
159.9799
 20
36.1649
 42
0.09401062747
  0
VERTEX
  8
LAYER_2
 10
160.0647
 20
36.3079
 42
0.0844927763
  0
SEQEND
  0
ENDBLK
  0
BLOCK
  8
LAYER_2
  2
AIGNBL0203001D
 70
64
 10
0
 20
0
 30
0
  3
AIGNBL0203001D
  0
POLYLINE
  8
LAYER_2
 40
0.05
 41
0.05
 66
1
 10
0
 20
0
 30
0
 70
1
  0
VERTEX
  8
LAYER_2
 10
161.1354
 20
36.1418
  0
VERTEX
  8
LAYER_2
 10
161.1371
 20
36.1418
  0
VERTEX
  8
LAYER_2
 10
161.4826
 20
36.9969
  0
VERTEX
  8
LAYER_2
 10
161.6435
 20
36.9969
  0
VERTEX
  8
LAYER_2
 10
161.6435
 20
35.9637
  0
VERTEX
  8
LAYER_2
 10
161.5381
 20
35.9637
  0
VERTEX
  8
LAYER_2
 10
161.5381
 20
36.8611
  0
VERTEX
  8
LAYER_2
 10
161.5354
 20
36.8611
  0
VERTEX
  8
LAYER_2
 10
161.1619
 20
35.9637
  0
VERTEX
  8
LAYER_2
 10
161.1064
 20
35.9637
  0
VERTEX
  8
LAYER_2
 10
160.7326
 20
36.8611
  0
VERTEX
  8
LAYER_2
 10
160.7299
 20
36.8611
  0
VERTEX
  8
LAYER_2
 10
160.7299
 20
35.9637
  0
VERTEX
  8
LAYER_2
 10
160.6248
 20
35.9637
  0
VERTEX
  8
LAYER_2
 10
160.6248
 20
36.9969
  0
VERTEX
  8
LAYER_2
 10
160.7853
 20
36.9969
  0
SEQEND
  0
ENDBLK
  0
BLOCK
  8
LAYER_2
  2
AIGNBL0203001E
 70
64
 10
0
 20
0
 30
0
  3
AIGNBL0203001E
  0
POLYLINE
  8
LAYER_2
 40
0.05
 41
0.05
 66
1
 10
0
 20
0
 30
0
 70
1
  0
VERTEX
  8
LAYER_2
 10
162.79
 20
36.0574
  0
VERTEX
  8
LAYER_2
 10
163.3433
 20
36.0574
  0
VERTEX
  8
LAYER_2
 10
163.3433
 20
35.9637
  0
VERTEX
  8
LAYER_2
 10
162.685
 20
35.9637
  0
VERTEX
  8
LAYER_2
 10
162.685
 20
36.9969
  0
VERTEX
  8
LAYER_2
 10
163.3258
 20
36.9969
  0
VERTEX
  8
LAYER_2
 10
163.3258
 20
36.9035
  0
VERTEX
  8
LAYER_2
 10
162.79
 20
36.9035
  0
VERTEX
  8
LAYER_2
 10
162.79
 20
36.549
  0
VERTEX
  8
LAYER_2
 10
163.2906
 20
36.549
  0
VERTEX
  8
LAYER_2
 10
163.2906
 20
36.4557
  0
VERTEX
  8
LAYER_2
 10
162.79
 20
36.4557
  0
SEQEND
  0
ENDBLK
  0
BLOCK
  8
LAYER_2
  2
AIGNBL0203001F
 70
64
 10
0
 20
0
 30
0
  3
AIGNBL0203001F
  0
POLYLINE
  8
LAYER_2
 40
0.05
 41
0.05
 66
1
 10
0
 20
0
 30
0
 70
1
  0
VERTEX
  8
LAYER_2
 10
164.0885
 20
36.5797
  0
VERTEX
  8
LAYER_2
 10
164.3707
 20
36.9969
  0
VERTEX
  8
LAYER_2
 10
164.4957
 20
36.9969
  0
VERTEX
  8
LAYER_2
 10
164.1533
 20
36.5053
  0
VERTEX
  8
LAYER_2
 10
164.5326
 20
35.9637
  0
VERTEX
  8
LAYER_2
 10
164.4013
 20
35.9637
  0
VERTEX
  8
LAYER_2
 10
164.0858
 20
36.4295
  0
VERTEX
  8
LAYER_2
 10
163.7722
 20
35.9637
  0
VERTEX
  8
LAYER_2
 10
163.6407
 20
35.9637
  0
VERTEX
  8
LAYER_2
 10
164.0203
 20
36.5066
  0
VERTEX
  8
LAYER_2
 10
163.6744
 20
36.9969
  0
VERTEX
  8
LAYER_2
 10
163.806
 20
36.9969
  0
SEQEND
  0
ENDBLK
  0
BLOCK
  8
LAYER_2
  2
AIGNBL02030020
 70
64
 10
0
 20
0
 30
0
  3
AIGNBL02030020
  0
POLYLINE
  8
LAYER_2
 40
0.05
 41
0.05
 66
1
 10
0
 20
0
 30
0
 70
1
  0
VERTEX
  8
LAYER_2
 10
164.8988
 20
36.9969
  0
VERTEX
  8
LAYER_2
 10
165.1909
 20
36.9969
  0
VERTEX
  8
LAYER_2
 10
165.3339
 20
36.9804
 42
-0.104160294
  0
VERTEX
  8
LAYER_2
 10
165.4438
 20
36.929
 42
-0.1209616443
  0
VERTEX
  8
LAYER_2
 10
165.5148
 20
36.8429
 42
-0.1032545831
  0
VERTEX
  8
LAYER_2
 10
165.5392
 20
36.7213
 42
-0.1239274235
  0
VERTEX
  8
LAYER_2
 10
165.5141
 20
36.5993
 42
-0.1163667494
  0
VERTEX
  8
LAYER_2
 10
165.4424
 20
36.5132
 42
-0.08715194998
  0
VERTEX
  8
LAYER_2
 10
165.3315
 20
36.4615
 42
-0.06075348808
  0
VERTEX
  8
LAYER_2
 10
165.1878
 20
36.444
  0
VERTEX
  8
LAYER_2
 10
165.0039
 20
36.444
  0
VERTEX
  8
LAYER_2
 10
165.0039
 20
35.9637
  0
VERTEX
  8
LAYER_2
 10
164.8988
 20
35.9637
  0
SEQEND
  0
POLYLINE
  8
LAYER_2
 40
0.05
 41
0.05
 66
1
 10
0
 20
0
 30
0
 70
1
  0
VERTEX
  8
LAYER_2
 10
165.0039
 20
36.5328
  0
VERTEX
  8
LAYER_2
 10
165.1816
 20
36.5328
 42
0.1694225951
  0
VERTEX
  8
LAYER_2
 10
165.3701
 20
36.581
 42
0.2442570363
  0
VERTEX
  8
LAYER_2
 10
165.4345
 20
36.7213
 42
0.2590967024
  0
VERTEX
  8
LAYER_2
 10
165.368
 20
36.8622
 42
0.143072224
  0
VERTEX
  8
LAYER_2
 10
165.1816
 20
36.9066
  0
VERTEX
  8
LAYER_2
 10
165.0039
 20
36.9066
  0
SEQEND
  0
ENDBLK
  0
BLOCK
  8
LAYER_2
  2
AIGNBL02030021
 70
64
 10
0
 20
0
 30
0
  3
AIGNBL02030021
  0
POLYLINE
  8
LAYER_2
 40
0.05
 41
0.05
 66
1
 10
0
 20
0
 30
0
 70
1
  0
VERTEX
  8
LAYER_2
 10
166.0515
 20
36.0574
  0
VERTEX
  8
LAYER_2
 10
166.6048
 20
36.0574
  0
VERTEX
  8
LAYER_2
 10
166.6048
 20
35.9637
  0
VERTEX
  8
LAYER_2
 10
165.9465
 20
35.9637
  0
VERTEX
  8
LAYER_2
 10
165.9465
 20
36.9969
  0
VERTEX
  8
LAYER_2
 10
166.5872
 20
36.9969
  0
VERTEX
  8
LAYER_2
 10
166.5872
 20
36.9035
  0
VERTEX
  8
LAYER_2
 10
166.0515
 20
36.9035
  0
VERTEX
  8
LAYER_2
 10
166.0515
 20
36.549
  0
VERTEX
  8
LAYER_2
 10
166.5521
 20
36.549
  0
VERTEX
  8
LAYER_2
 10
166.5521
 20
36.4557
  0
VERTEX
  8
LAYER_2
 10
166.0515
 20
36.4557
  0
SEQEND
  0
ENDBLK
  0
BLOCK
  8
LAYER_2
  2
AIGNBL02030022
 70
64
 10
0
 20
0
 30
0
  3
AIGNBL02030022
  0
POLYLINE
  8
LAYER_2
 40
0.05
 41
0.05
 66
1
 10
0
 20
0
 30
0
 70
1
  0
VERTEX
  8
LAYER_2
 10
167.1168
 20
35.9637
  0
VERTEX
  8
LAYER_2
 10
167.0117
 20
35.9637
  0
VERTEX
  8
LAYER_2
 10
167.0117
 20
36.9969
  0
VERTEX
  8
LAYER_2
 10
167.3155
 20
36.9969
  0
VERTEX
  8
LAYER_2
 10
167.4561
 20
36.9824
 42
-0.1039428931
  0
VERTEX
  8
LAYER_2
 10
167.5687
 20
36.9349
 42
-0.1259973384
  0
VERTEX
  8
LAYER_2
 10
167.6425
 20
36.8494
 42
-0.1064650891
  0
VERTEX
  8
LAYER_2
 10
167.6683
 20
36.7213
  0
VERTEX
  8
LAYER_2
 10
167.6483
 20
36.6176
  0
VERTEX
  8
LAYER_2
 10
167.5929
 20
36.5366
  0
VERTEX
  8
LAYER_2
 10
167.5095
 20
36.4818
  0
VERTEX
  8
LAYER_2
 10
167.4044
 20
36.4557
  0
VERTEX
  8
LAYER_2
 10
167.7066
 20
35.9637
  0
VERTEX
  8
LAYER_2
 10
167.578
 20
35.9637
  0
VERTEX
  8
LAYER_2
 10
167.2921
 20
36.4467
  0
VERTEX
  8
LAYER_2
 10
167.1168
 20
36.4467
  0
SEQEND
  0
POLYLINE
  8
LAYER_2
 40
0.05
 41
0.05
 66
1
 10
0
 20
0
 30
0
 70
1
  0
VERTEX
  8
LAYER_2
 10
167.1168
 20
36.5373
  0
VERTEX
  8
LAYER_2
 10
167.2994
 20
36.5373
 42
0.1542400453
  0
VERTEX
  8
LAYER_2
 10
167.495
 20
36.5831
 42
0.2583775622
  0
VERTEX
  8
LAYER_2
 10
167.5636
 20
36.7213
  0
VERTEX
  8
LAYER_2
 10
167.5446
 20
36.8071
  0
VERTEX
  8
LAYER_2
 10
167.4919
 20
36.8643
  0
VERTEX
  8
LAYER_2
 10
167.4103
 20
36.8963
  0
VERTEX
  8
LAYER_2
 10
167.3038
 20
36.9066
  0
VERTEX
  8
LAYER_2
 10
167.1168
 20
36.9066
  0
SEQEND
  0
ENDBLK
  0
BLOCK
  8
LAYER_2
  2
AIGNBL02030023
 70
64
 10
0
 20
0
 30
0
  3
AIGNBL02030023
  0
POLYLINE
  8
LAYER_2
 40
0.05
 41
0.05
 66
1
 10
0
 20
0
 30
0
 70
1
  0
VERTEX
  8
LAYER_2
 10
168.1923
 20
35.9637
  0
VERTEX
  8
LAYER_2
 10
168.0876
 20
35.9637
  0
VERTEX
  8
LAYER_2
 10
168.0876
 20
36.9969
  0
VERTEX
  8
LAYER_2
 10
168.1923
 20
36.9969
  0
SEQEND
  0
ENDBLK
  0
BLOCK
  8
LAYER_2
  2
AIGNBL02030024
 70
64
 10
0
 20
0
 30
0
  3
AIGNBL02030024
  0
POLYLINE
  8
LAYER_2
 40
0.05
 41
0.05
 66
1
 10
0
 20
0
 30
0
 70
1
  0
VERTEX
  8
LAYER_2
 10
168.7732
 20
36.0574
  0
VERTEX
  8
LAYER_2
 10
169.3261
 20
36.0574
  0
VERTEX
  8
LAYER_2
 10
169.3261
 20
35.9637
  0
VERTEX
  8
LAYER_2
 10
168.6681
 20
35.9637
  0
VERTEX
  8
LAYER_2
 10
168.6681
 20
36.9969
  0
VERTEX
  8
LAYER_2
 10
169.3089
 20
36.9969
  0
VERTEX
  8
LAYER_2
 10
169.3089
 20
36.9035
  0
VERTEX
  8
LAYER_2
 10
168.7732
 20
36.9035
  0
VERTEX
  8
LAYER_2
 10
168.7732
 20
36.549
  0
VERTEX
  8
LAYER_2
 10
169.2737
 20
36.549
  0
VERTEX
  8
LAYER_2
 10
169.2737
 20
36.4557
  0
VERTEX
  8
LAYER_2
 10
168.7732
 20
36.4557
  0
SEQEND
  0
ENDBLK
  0
BLOCK
  8
LAYER_2
  2
AIGNBL02030025
 70
64
 10
0
 20
0
 30
0
  3
AIGNBL02030025
  0
POLYLINE
  8
LAYER_2
 40
0.05
 41
0.05
 66
1
 10
0
 20
0
 30
0
 70
1
  0
VERTEX
  8
LAYER_2
 10
170.4661
 20
36.117
  0
VERTEX
  8
LAYER_2
 10
170.4689
 20
36.117
  0
VERTEX
  8
LAYER_2
 10
170.4689
 20
36.9969
  0
VERTEX
  8
LAYER_2
 10
170.5739
 20
36.9969
  0
VERTEX
  8
LAYER_2
 10
170.5739
 20
35.9637
  0
VERTEX
  8
LAYER_2
 10
170.4426
 20
35.9637
  0
VERTEX
  8
LAYER_2
 10
169.8415
 20
36.8525
  0
VERTEX
  8
LAYER_2
 10
169.8384
 20
36.8525
  0
VERTEX
  8
LAYER_2
 10
169.8384
 20
35.9637
  0
VERTEX
  8
LAYER_2
 10
169.7333
 20
35.9637
  0
VERTEX
  8
LAYER_2
 10
169.7333
 20
36.9969
  0
VERTEX
  8
LAYER_2
 10
169.8649
 20
36.9969
  0
SEQEND
  0
ENDBLK
  0
BLOCK
  8
LAYER_2
  2
AIGNBL02030026
 70
64
 10
0
 20
0
 30
0
  3
AIGNBL02030026
  0
POLYLINE
  8
LAYER_2
 40
0.05
 41
0.05
 66
1
 10
0
 20
0
 30
0
 70
1
  0
VERTEX
  8
LAYER_2
 10
171.9196
 20
36.1315
  0
VERTEX
  8
LAYER_2
 10
171.8558
 20
36.0571
  0
VERTEX
  8
LAYER_2
 10
171.7697
 20
35.9954
  0
VERTEX
  8
LAYER_2
 10
171.6615
 20
35.953
  0
VERTEX
  8
LAYER_2
 10
171.5327
 20
35.9375
 42
-0.0997799169
  0
VERTEX
  8
LAYER_2
 10
171.3167
 20
35.9785
 42
-0.102530266
  0
VERTEX
  8
LAYER_2
 10
171.1461
 20
36.0915
 42
-0.09968794278
  0
VERTEX
  8
LAYER_2
 10
171.0345
 20
36.2631
 42
-0.09630702324
  0
VERTEX
  8
LAYER_2
 10
170.9942
 20
36.4805
 42
-0.1018981748
  0
VERTEX
  8
LAYER_2
 10
171.0352
 20
36.6978
 42
-0.09989904409
  0
VERTEX
  8
LAYER_2
 10
171.1479
 20
36.8694
 42
-0.09694965588
  0
VERTEX
  8
LAYER_2
 10
171.3187
 20
36.9824
 42
-0.09744116728
  0
VERTEX
  8
LAYER_2
 10
171.5327
 20
37.0234
  0
VERTEX
  8
LAYER_2
 10
171.6443
 20
37.0114
  0
VERTEX
  8
LAYER_2
 10
171.7473
 20
36.9779
  0
VERTEX
  8
LAYER_2
 10
171.8348
 20
36.9263
  0
VERTEX
  8
LAYER_2
 10
171.9006
 20
36.8584
  0
VERTEX
  8
LAYER_2
 10
171.8131
 20
36.794
  0
VERTEX
  8
LAYER_2
 10
171.7697
 20
36.8439
  0
VERTEX
  8
LAYER_2
 10
171.7063
 20
36.8877
  0
VERTEX
  8
LAYER_2
 10
171.6267
 20
36.9183
  0
VERTEX
  8
LAYER_2
 10
171.5341
 20
36.93
 42
0.1106055686
  0
VERTEX
  8
LAYER_2
 10
171.3539
 20
36.8935
 42
0.1037389517
  0
VERTEX
  8
LAYER_2
 10
171.2188
 20
36.7954
 42
0.09534605581
  0
VERTEX
  8
LAYER_2
 10
171.1341
 20
36.652
 42
0.08447361069
  0
VERTEX
  8
LAYER_2
 10
171.1052
 20
36.4805
 42
0.09038739564
  0
VERTEX
  8
LAYER_2
 10
171.1351
 20
36.3089
 42
0.09795352863
  0
VERTEX
  8
LAYER_2
 10
171.2205
 20
36.1656
 42
0.1034747097
  0
VERTEX
  8
LAYER_2
 10
171.3556
 20
36.0674
 42
0.1064777274
  0
VERTEX
  8
LAYER_2
 10
171.5341
 20
36.0309
 42
0.1092499226
  0
VERTEX
  8
LAYER_2
 10
171.7032
 20
36.0674
 42
0.1370031249
  0
VERTEX
  8
LAYER_2
 10
171.8376
 20
36.1842
  0
SEQEND
  0
ENDBLK
  0
BLOCK
  8
LAYER_2
  2
AIGNBL02030027
 70
64
 10
0
 20
0
 30
0
  3
AIGNBL02030027
  0
POLYLINE
  8
LAYER_2
 40
0.05
 41
0.05
 66
1
 10
0
 20
0
 30
0
 70
1
  0
VERTEX
  8
LAYER_2
 10
172.4067
 20
36.0574
  0
VERTEX
  8
LAYER_2
 10
172.96
 20
36.0574
  0
VERTEX
  8
LAYER_2
 10
172.96
 20
35.9637
  0
VERTEX
  8
LAYER_2
 10
172.3016
 20
35.9637
  0
VERTEX
  8
LAYER_2
 10
172.3016
 20
36.9969
  0
VERTEX
  8
LAYER_2
 10
172.9424
 20
36.9969
  0
VERTEX
  8
LAYER_2
 10
172.9424
 20
36.9035
  0
VERTEX
  8
LAYER_2
 10
172.4067
 20
36.9035
  0
VERTEX
  8
LAYER_2
 10
172.4067
 20
36.549
  0
VERTEX
  8
LAYER_2
 10
172.9073
 20
36.549
  0
VERTEX
  8
LAYER_2
 10
172.9073
 20
36.4557
  0
VERTEX
  8
LAYER_2
 10
172.4067
 20
36.4557
  0
SEQEND
  0
ENDBLK
  0
BLOCK
  8
LAYER_2
  2
AIGNBL02020004
 70
64
 10
0
 20
0
 30
0
  3
AIGNBL02020004
  0
POLYLINE
  8
LAYER_2
 40
0.05
 41
0.05
 66
1
 10
0
 20
0
 30
0
  0
VERTEX
  8
LAYER_2
 10
-1.196
 20
217.6012
 42
-0.04245719054
  0
VERTEX
  8
LAYER_2
 10
-1.2437
 20
216.7495
 42
-0.1145799327
  0
VERTEX
  8
LAYER_2
 10
-1.4854
 20
216.1042
 42
-0.03657724702
  0
VERTEX
  8
LAYER_2
 10
-1.5732
 20
216.0054
 42
-0.1577844027
  0
VERTEX
  8
LAYER_2
 10
-2.1025
 20
215.7362
 42
-0.04286355862
  0
VERTEX
  8
LAYER_2
 10
-2.3408
 20
215.7164
 42
-0.1461347274
  0
VERTEX
  8
LAYER_2
 10
-2.9525
 20
215.8874
 42
-0.04825720136
  0
VERTEX
  8
LAYER_2
 10
-3.0956
 20
216.0054
 42
-0.1514389093
  0
VERTEX
  8
LAYER_2
 10
-3.3903
 20
216.5711
 42
-0.04033585951
  0
VERTEX
  8
LAYER_2
 10
-3.4563
 20
217.0249
 42
-0.01781626242
  0
VERTEX
  8
LAYER_2
 10
-3.4732
 20
217.6012
 42
-0.04130139583
  0
VERTEX
  8
LAYER_2
 10
-3.4273
 20
218.4296
 42
-0.115134122
  0
VERTEX
  8
LAYER_2
 10
-3.1834
 20
219.0859
 42
-0.03655204802
  0
VERTEX
  8
LAYER_2
 10
-3.0956
 20
219.1845
 42
-0.2077091659
  0
VERTEX
  8
LAYER_2
 10
-2.3408
 20
219.4732
 42
-0.1450941273
  0
VERTEX
  8
LAYER_2
 10
-1.7165
 20
219.3022
 42
-0.04840000405
  0
VERTEX
  8
LAYER_2
 10
-1.5732
 20
219.1845
 42
-0.1513847701
  0
VERTEX
  8
LAYER_2
 10
-1.2787
 20
218.6201
 42
-0.04039612069
  0
VERTEX
  8
LAYER_2
 10
-1.2128
 20
218.1697
 42
-0.01794233576
  0
VERTEX
  8
LAYER_2
 10
-1.196
 20
217.6012
  0
SEQEND
  0
POLYLINE
  8
LAYER_2
 40
0.05
 41
0.05
 66
1
 10
0
 20
0
 30
0
  0
VERTEX
  8
LAYER_2
 10
0.4394
 20
217.6012
 42
0.03175065208
  0
VERTEX
  8
LAYER_2
 10
0.3919
 20
218.5427
 42
0.07858555415
  0
VERTEX
  8
LAYER_2
 10
0.123
 20
219.5272
 42
0.07786217308
  0
VERTEX
  8
LAYER_2
 10
-0.303
 20
220.1395
 42
0.1422741765
  0
VERTEX
  8
LAYER_2
 10
-1.5044
 20
220.8409
 42
0.06575783118
  0
VERTEX
  8
LAYER_2
 10
-2.3408
 20
220.9436
 42
0.08626163736
  0
VERTEX
  8
LAYER_2
 10
-3.3996
 20
220.7669
 42
0.1130730203
  0
VERTEX
  8
LAYER_2
 10
-4.3662
 20
220.1395
 42
0.09873852385
  0
VERTEX
  8
LAYER_2
 10
-4.8748
 20
219.3361
 42
0.04046067269
  0
VERTEX
  8
LAYER_2
 10
-5.006
 20
218.8809
 42
0.03220856709
  0
VERTEX
  8
LAYER_2
 10
-5.0854
 20
218.2915
 42
0.01857685015
  0
VERTEX
  8
LAYER_2
 10
-5.1082
 20
217.6012
 42
0.03149278186
  0
VERTEX
  8
LAYER_2
 10
-5.0608
 20
216.6571
 42
0.0779698511
  0
VERTEX
  8
LAYER_2
 10
-4.7923
 20
215.6655
 42
0.07853580552
  0
VERTEX
  8
LAYER_2
 10
-4.3662
 20
215.0504
 42
0.1826502598
  0
VERTEX
  8
LAYER_2
 10
-2.668
 20
214.2613
 42
0.02311737764
  0
VERTEX
  8
LAYER_2
 10
-2.3408
 20
214.2463
 42
0.08564977323
  0
VERTEX
  8
LAYER_2
 10
-1.2772
 20
214.423
 42
0.1129150187
  0
VERTEX
  8
LAYER_2
 10
-0.303
 20
215.0504
 42
0.1497181056
  0
VERTEX
  8
LAYER_2
 10
0.3325
 20
216.2722
 42
0.03273812963
  0
VERTEX
  8
LAYER_2
 10
0.4143
 20
216.8609
 42
0.01955851524
  0
VERTEX
  8
LAYER_2
 10
0.4394
 20
217.6012
  0
SEQEND
  0
POLYLINE
  8
LAYER_2
 40
0.05
 41
0.05
 66
1
 10
0
 20
0
 30
0
  0
VERTEX
  8
LAYER_2
 10
-11.3166
 20
218.2044
  0
VERTEX
  8
LAYER_2
 10
-13.8074
 20
218.2044
 42
-0.1126267973
  0
VERTEX
  8
LAYER_2
 10
-13.6562
 20
218.9079
 42
-0.1394863081
  0
VERTEX
  8
LAYER_2
 10
-13.2507
 20
219.3934
 42
-0.1317584651
  0
VERTEX
  8
LAYER_2
 10
-12.676
 20
219.5824
 42
-0.01996454454
  0
VERTEX
  8
LAYER_2
 10
-12.562
 20
219.5866
 42
-0.137467943
  0
VERTEX
  8
LAYER_2
 10
-11.8991
 20
219.4101
 42
-0.150691583
  0
VERTEX
  8
LAYER_2
 10
-11.4672
 20
218.9079
 42
-0.1174358853
  0
VERTEX
  8
LAYER_2
 10
-11.3166
 20
218.2044
  0
SEQEND
  0
POLYLINE
  8
LAYER_2
 40
0.05
 41
0.05
 66
1
 10
0
 20
0
 30
0
 70
1
  0
VERTEX
  8
LAYER_2
 10
-9.7064
 20
217.0861
  0
VERTEX
  8
LAYER_2
 10
-9.7064
 20
217.7772
 42
0.07163312002
  0
VERTEX
  8
LAYER_2
 10
-9.8733
 20
218.9838
 42
0.08028385511
  0
VERTEX
  8
LAYER_2
 10
-10.299
 20
219.8659
 42
0.0865588964
  0
VERTEX
  8
LAYER_2
 10
-10.9136
 20
220.4722
 42
0.08455684744
  0
VERTEX
  8
LAYER_2
 10
-11.6929
 20
220.8316
 42
0.06903226706
  0
VERTEX
  8
LAYER_2
 10
-12.562
 20
220.9436
 42
0.08515866825
  0
VERTEX
  8
LAYER_2
 10
-13.5923
 20
220.7733
 42
0.2152076095
  0
VERTEX
  8
LAYER_2
 10
-15.1128
 20
219.2869
 42
0.07250212731
  0
VERTEX
  8
LAYER_2
 10
-15.3825
 20
218.223
 42
0.02934637219
  0
VERTEX
  8
LAYER_2
 10
-15.4177
 20
217.6012
 42
0.06683021014
  0
VERTEX
  8
LAYER_2
 10
-15.2459
 20
216.2162
 42
0.08312981404
  0
VERTEX
  8
LAYER_2
 10
-14.8229
 20
215.3116
 42
0.184288283
  0
VERTEX
  8
LAYER_2
 10
-13.3775
 20
214.3603
 42
0.06413161868
  0
VERTEX
  8
LAYER_2
 10
-12.386
 20
214.2463
 42
0.07683816196
  0
VERTEX
  8
LAYER_2
 10
-11.1942
 20
214.4123
 42
0.08470040866
  0
VERTEX
  8
LAYER_2
 10
-10.383
 20
214.8416
 42
0.03763897922
  0
VERTEX
  8
LAYER_2
 10
-9.8948
 20
215.2768
  0
VERTEX
  8
LAYER_2
 10
-10.8887
 20
216.2442
 42
-0.1072414833
  0
VERTEX
  8
LAYER_2
 10
-11.6397
 20
215.7366
 42
-0.09138316631
  0
VERTEX
  8
LAYER_2
 10
-12.3732
 20
215.6285
 42
-0.1206713536
  0
VERTEX
  8
LAYER_2
 10
-13.1336
 20
215.8026
 42
-0.1907051017
  0
VERTEX
  8
LAYER_2
 10
-13.7142
 20
216.4979
 42
-0.08636520349
  0
VERTEX
  8
LAYER_2
 10
-13.8074
 20
217.0861
  0
SEQEND
  0
POLYLINE
  8
LAYER_2
 40
0.05
 41
0.05
 66
1
 10
0
 20
0
 30
0
 70
1
  0
VERTEX
  8
LAYER_2
 10
-16.9018
 20
223.2773
  0
VERTEX
  8
LAYER_2
 10
-18.5517
 20
223.2773
  0
VERTEX
  8
LAYER_2
 10
-18.5517
 20
221.9454
  0
VERTEX
  8
LAYER_2
 10
-16.9018
 20
221.9454
  0
SEQEND
  0
POLYLINE
  8
LAYER_2
 40
0.05
 41
0.05
 66
1
 10
0
 20
0
 30
0
 70
1
  0
VERTEX
  8
LAYER_2
 10
-16.9146
 20
220.79
  0
VERTEX
  8
LAYER_2
 10
-18.5499
 20
220.79
  0
VERTEX
  8
LAYER_2
 10
-18.5499
 20
214.3218
  0
VERTEX
  8
LAYER_2
 10
-16.9146
 20
214.3218
  0
SEQEND
  0
POLYLINE
  8
LAYER_2
 40
0.05
 41
0.05
 66
1
 10
0
 20
0
 30
0
  0
VERTEX
  8
LAYER_2
 10
-19.8205
 20
215.1386
  0
VERTEX
  8
LAYER_2
 10
-20.9274
 20
216.2317
 42
-0.1240518821
  0
VERTEX
  8
LAYER_2
 10
-21.5761
 20
215.7751
 42
-0.08031715103
  0
VERTEX
  8
LAYER_2
 10
-21.984
 20
215.7164
 42
-0.1386946894
  0
VERTEX
  8
LAYER_2
 10
-22.625
 20
215.8856
 42
-0.08219094685
  0
VERTEX
  8
LAYER_2
 10
-22.9149
 20
216.1436
 42
-0.1253393202
  0
VERTEX
  8
LAYER_2
 10
-23.215
 20
216.8347
 42
-0.05211869655
  0
VERTEX
  8
LAYER_2
 10
-23.2797
 20
217.6012
 42
-0.0435450793
  0
VERTEX
  8
LAYER_2
 10
-23.2306
 20
218.2793
 42
-0.1072750387
  0
VERTEX
  8
LAYER_2
 10
-22.9604
 20
218.9857
 42
-0.01439054395
  0
VERTEX
  8
LAYER_2
 10
-22.9149
 20
219.0461
 42
-0.143087315
  0
VERTEX
  8
LAYER_2
 10
-22.387
 20
219.4143
 42
-0.07946465155
  0
VERTEX
  8
LAYER_2
 10
-21.984
 20
219.4732
 42
-0.1421084185
  0
VERTEX
  8
LAYER_2
 10
-21.3214
 20
219.2962
 42
-0.06975828358
  0
VERTEX
  8
LAYER_2
 10
-20.9274
 20
218.9585
  0
VERTEX
  8
LAYER_2
 10
-19.8205
 20
220.0637
 42
0.08882909472
  0
VERTEX
  8
LAYER_2
 10
-20.632
 20
220.6645
 42
0.08605806955
  0
VERTEX
  8
LAYER_2
 10
-21.5364
 20
220.9189
 42
0.02865290108
  0
VERTEX
  8
LAYER_2
 10
-21.984
 20
220.9436
 42
0.0806713287
  0
VERTEX
  8
LAYER_2
 10
-23.0569
 20
220.7735
 42
0.08357777431
  0
VERTEX
  8
LAYER_2
 10
-23.8317
 20
220.3573
 42
0.09024198391
  0
VERTEX
  8
LAYER_2
 10
-24.4186
 20
219.692
 42
0.07835989587
  0
VERTEX
  8
LAYER_2
 10
-24.7811
 20
218.801
 42
0.06322906838
  0
VERTEX
  8
LAYER_2
 10
-24.9151
 20
217.6012
 42
0.06782437491
  0
VERTEX
  8
LAYER_2
 10
-24.7438
 20
216.2613
 42
0.08255528881
  0
VERTEX
  8
LAYER_2
 10
-24.3104
 20
215.3428
 42
0.176800775
  0
VERTEX
  8
LAYER_2
 10
-22.8675
 20
214.3603
 42
0.06692285682
  0
VERTEX
  8
LAYER_2
 10
-21.984
 20
214.2463
 42
0.08462179993
  0
VERTEX
  8
LAYER_2
 10
-20.8976
 20
214.4204
 42
0.08609104881
  0
VERTEX
  8
LAYER_2
 10
-20.1139
 20
214.8669
 42
0.03054496576
  0
VERTEX
  8
LAYER_2
 10
-19.8205
 20
215.1386
  0
SEQEND
  0
ENDBLK
  0
BLOCK
  8
LAYER_2
  2
AIGNBL02020005
 70
64
 10
0
 20
0
 30
0
  3
AIGNBL02020005
  0
POLYLINE
  8
LAYER_2
 40
0.05
 41
0.05
 66
1
 10
0
 20
0
 30
0
 70
1
  0
VERTEX
  8
LAYER_2
 10
0.3288
 20
212.6805
  0
VERTEX
  8
LAYER_2
 10
0.0009
 20
212.6805
  0
VERTEX
  8
LAYER_2
 10
-0.2479
 20
211.9109
  0
VERTEX
  8
LAYER_2
 10
-0.5066
 20
212.6805
  0
VERTEX
  8
LAYER_2
 10
-0.8342
 20
212.6805
  0
VERTEX
  8
LAYER_2
 10
-0.4084
 20
211.5234
  0
VERTEX
  8
LAYER_2
 10
-0.4611
 20
211.3704
 42
-0.3961336399
  0
VERTEX
  8
LAYER_2
 10
-0.6165
 20
211.2581
  0
VERTEX
  8
LAYER_2
 10
-0.6882
 20
211.2581
  0
VERTEX
  8
LAYER_2
 10
-0.6882
 20
210.9783
  0
VERTEX
  8
LAYER_2
 10
-0.5662
 20
210.9783
 42
0.2034440672
  0
VERTEX
  8
LAYER_2
 10
-0.2985
 20
211.0741
 42
0.1004639661
  0
VERTEX
  8
LAYER_2
 10
-0.2048
 20
211.2343
  0
SEQEND
  0
POLYLINE
  8
LAYER_2
 40
0.05
 41
0.05
 66
1
 10
0
 20
0
 30
0
 70
1
  0
VERTEX
  8
LAYER_2
 10
-0.8704
 20
211.4352
  0
VERTEX
  8
LAYER_2
 10
-0.8704
 20
211.6977
  0
VERTEX
  8
LAYER_2
 10
-0.9899
 20
211.6977
 42
-0.4751531158
  0
VERTEX
  8
LAYER_2
 10
-1.0998
 20
211.8103
  0
VERTEX
  8
LAYER_2
 10
-1.0998
 20
213.137
  0
VERTEX
  8
LAYER_2
 10
-1.4109
 20
213.137
  0
VERTEX
  8
LAYER_2
 10
-1.4109
 20
211.7914
 42
0.2572712742
  0
VERTEX
  8
LAYER_2
 10
-1.2491
 20
211.4844
 42
0.1351549622
  0
VERTEX
  8
LAYER_2
 10
-1.0475
 20
211.4352
  0
SEQEND
  0
POLYLINE
  8
LAYER_2
 40
0.05
 41
0.05
 66
1
 10
0
 20
0
 30
0
 70
1
  0
VERTEX
  8
LAYER_2
 10
-1.9739
 20
211.894
 42
-0.2469446344
  0
VERTEX
  8
LAYER_2
 10
-2.0214
 20
211.7363
 42
-0.2123665607
  0
VERTEX
  8
LAYER_2
 10
-2.2057
 20
211.6763
 42
-0.2053009356
  0
VERTEX
  8
LAYER_2
 10
-2.3584
 20
211.723
 42
-0.206083917
  0
VERTEX
  8
LAYER_2
 10
-2.3949
 20
211.8175
 42
-0.4725867343
  0
VERTEX
  8
LAYER_2
 10
-2.2105
 20
211.9609
  0
VERTEX
  8
LAYER_2
 10
-1.9739
 20
211.9609
  0
SEQEND
  0
POLYLINE
  8
LAYER_2
 40
0.05
 41
0.05
 66
1
 10
0
 20
0
 30
0
 70
1
  0
VERTEX
  8
LAYER_2
 10
-1.6624
 20
211.4352
  0
VERTEX
  8
LAYER_2
 10
-1.6624
 20
212.2551
 42
0.2451162416
  0
VERTEX
  8
LAYER_2
 10
-1.8225
 20
212.6039
 42
0.1630344424
  0
VERTEX
  8
LAYER_2
 10
-2.194
 20
212.6947
 42
0.223003002
  0
VERTEX
  8
LAYER_2
 10
-2.6298
 20
212.5302
 42
0.006267388191
  0
VERTEX
  8
LAYER_2
 10
-2.6412
 20
212.5179
  0
VERTEX
  8
LAYER_2
 10
-2.4452
 20
212.3243
 42
-0.2474228759
  0
VERTEX
  8
LAYER_2
 10
-2.2057
 20
212.4322
 42
-0.1875116517
  0
VERTEX
  8
LAYER_2
 10
-2.0297
 20
212.3865
 42
-0.2385471677
  0
VERTEX
  8
LAYER_2
 10
-1.9739
 20
212.2358
  0
VERTEX
  8
LAYER_2
 10
-1.9739
 20
212.1738
  0
VERTEX
  8
LAYER_2
 10
-2.2633
 20
212.1738
 42
0.2343493414
  0
VERTEX
  8
LAYER_2
 10
-2.6354
 20
212.0142
 42
0.1534284984
  0
VERTEX
  8
LAYER_2
 10
-2.6942
 20
211.8127
 42
0.1895201048
  0
VERTEX
  8
LAYER_2
 10
-2.5912
 20
211.533
 42
0.2074502918
  0
VERTEX
  8
LAYER_2
 10
-2.2729
 20
211.4228
 42
0.2214267061
  0
VERTEX
  8
LAYER_2
 10
-1.9663
 20
211.5426
  0
VERTEX
  8
LAYER_2
 10
-1.9663
 20
211.4352
  0
SEQEND
  0
POLYLINE
  8
LAYER_2
 40
0.05
 41
0.05
 66
1
 10
0
 20
0
 30
0
 70
1
  0
VERTEX
  8
LAYER_2
 10
-2.8758
 20
211.4352
  0
VERTEX
  8
LAYER_2
 10
-2.8758
 20
211.6977
  0
VERTEX
  8
LAYER_2
 10
-2.9884
 20
211.6977
 42
-0.4616084329
  0
VERTEX
  8
LAYER_2
 10
-3.0963
 20
211.8103
  0
VERTEX
  8
LAYER_2
 10
-3.0963
 20
212.4081
  0
VERTEX
  8
LAYER_2
 10
-2.8758
 20
212.4081
  0
VERTEX
  8
LAYER_2
 10
-2.8758
 20
212.6444
  0
VERTEX
  8
LAYER_2
 10
-3.0963
 20
212.6444
  0
VERTEX
  8
LAYER_2
 10
-3.0963
 20
213.0126
  0
VERTEX
  8
LAYER_2
 10
-3.407
 20
213.0126
  0
VERTEX
  8
LAYER_2
 10
-3.407
 20
212.6444
  0
VERTEX
  8
LAYER_2
 10
-3.539
 20
212.6444
  0
VERTEX
  8
LAYER_2
 10
-3.539
 20
212.4081
  0
VERTEX
  8
LAYER_2
 10
-3.407
 20
212.4081
  0
VERTEX
  8
LAYER_2
 10
-3.407
 20
211.7914
 42
0.2563568817
  0
VERTEX
  8
LAYER_2
 10
-3.2458
 20
211.4844
 42
0.1357760723
  0
VERTEX
  8
LAYER_2
 10
-3.0456
 20
211.4352
  0
SEQEND
  0
POLYLINE
  8
LAYER_2
 40
0.05
 41
0.05
 66
1
 10
0
 20
0
 30
0
 70
1
  0
VERTEX
  8
LAYER_2
 10
-3.8091
 20
213.137
  0
VERTEX
  8
LAYER_2
 10
-4.1419
 20
213.137
  0
VERTEX
  8
LAYER_2
 10
-4.1419
 20
211.4352
  0
VERTEX
  8
LAYER_2
 10
-3.8091
 20
211.4352
  0
SEQEND
  0
POLYLINE
  8
LAYER_2
 40
0.05
 41
0.05
 66
1
 10
0
 20
0
 30
0
 70
1
  0
VERTEX
  8
LAYER_2
 10
-5.0562
 20
211.4352
  0
VERTEX
  8
LAYER_2
 10
-5.0562
 20
212.231
 42
0.2072987281
  0
VERTEX
  8
LAYER_2
 10
-5.183
 20
212.5844
 42
0.2031043538
  0
VERTEX
  8
LAYER_2
 10
-5.4775
 20
212.6947
 42
0.201378382
  0
VERTEX
  8
LAYER_2
 10
-5.7886
 20
212.5658
  0
VERTEX
  8
LAYER_2
 10
-5.7886
 20
212.6805
  0
VERTEX
  8
LAYER_2
 10
-6.0925
 20
212.6805
  0
VERTEX
  8
LAYER_2
 10
-6.0925
 20
211.4352
  0
VERTEX
  8
LAYER_2
 10
-5.7814
 20
211.4352
  0
VERTEX
  8
LAYER_2
 10
-5.7814
 20
212.1882
 42
-0.4179312156
  0
VERTEX
  8
LAYER_2
 10
-5.573
 20
212.4149
 42
-0.4343639015
  0
VERTEX
  8
LAYER_2
 10
-5.3673
 20
212.1882
  0
VERTEX
  8
LAYER_2
 10
-5.3673
 20
211.4352
  0
SEQEND
  0
POLYLINE
  8
LAYER_2
 40
0.05
 41
0.05
 66
1
 10
0
 20
0
 30
0
 70
1
  0
VERTEX
  8
LAYER_2
 10
-6.437
 20
213.1467
  0
VERTEX
  8
LAYER_2
 10
-6.7553
 20
213.1467
  0
VERTEX
  8
LAYER_2
 10
-6.7553
 20
212.8931
  0
VERTEX
  8
LAYER_2
 10
-6.437
 20
212.8931
  0
SEQEND
  0
POLYLINE
  8
LAYER_2
 40
0.05
 41
0.05
 66
1
 10
0
 20
0
 30
0
 70
1
  0
VERTEX
  8
LAYER_2
 10
-6.4394
 20
212.6444
  0
VERTEX
  8
LAYER_2
 10
-6.7508
 20
212.6444
  0
VERTEX
  8
LAYER_2
 10
-6.7508
 20
211.4352
  0
VERTEX
  8
LAYER_2
 10
-6.4394
 20
211.4352
  0
SEQEND
  0
POLYLINE
  8
LAYER_2
 40
0.05
 41
0.05
 66
1
 10
0
 20
0
 30
0
  0
VERTEX
  8
LAYER_2
 10
-7.8994
 20
212.1738
  0
VERTEX
  8
LAYER_2
 10
-8.3735
 20
212.1738
 42
-0.1150247832
  0
VERTEX
  8
LAYER_2
 10
-8.3445
 20
212.3074
 42
-0.3021002553
  0
VERTEX
  8
LAYER_2
 10
-8.1365
 20
212.4363
 42
-0.2972451875
  0
VERTEX
  8
LAYER_2
 10
-7.9284
 20
212.3074
 42
-0.09898717384
  0
VERTEX
  8
LAYER_2
 10
-7.8994
 20
212.1738
  0
SEQEND
  0
POLYLINE
  8
LAYER_2
 40
0.05
 41
0.05
 66
1
 10
0
 20
0
 30
0
 70
1
  0
VERTEX
  8
LAYER_2
 10
-7.5932
 20
211.9609
  0
VERTEX
  8
LAYER_2
 10
-7.5932
 20
212.0925
 42
0.1892091988
  0
VERTEX
  8
LAYER_2
 10
-7.7571
 20
212.5503
 42
0.2074689034
  0
VERTEX
  8
LAYER_2
 10
-8.1365
 20
212.6947
 42
0.212635805
  0
VERTEX
  8
LAYER_2
 10
-8.5293
 20
212.5292
 42
0.1815550622
  0
VERTEX
  8
LAYER_2
 10
-8.6787
 20
212.1059
 42
0.01190200981
  0
VERTEX
  8
LAYER_2
 10
-8.6797
 20
212.0591
 42
0.1802893809
  0
VERTEX
  8
LAYER_2
 10
-8.5263
 20
211.5744
 42
0.2020162133
  0
VERTEX
  8
LAYER_2
 10
-8.158
 20
211.4223
 42
0.01695408336
  0
VERTEX
  8
LAYER_2
 10
-8.103
 20
211.4207
 42
0.2069028033
  0
VERTEX
  8
LAYER_2
 10
-7.6557
 20
211.5904
 42
0.01111068861
  0
VERTEX
  8
LAYER_2
 10
-7.629
 20
211.6167
  0
VERTEX
  8
LAYER_2
 10
-7.8181
 20
211.801
 42
-0.224324849
  0
VERTEX
  8
LAYER_2
 10
-8.1003
 20
211.6839
 42
-0.4264622019
  0
VERTEX
  8
LAYER_2
 10
-8.3735
 20
211.9609
  0
SEQEND
  0
POLYLINE
  8
LAYER_2
 40
0.05
 41
0.05
 66
1
 10
0
 20
0
 30
0
  0
VERTEX
  8
LAYER_2
 10
-9.2778
 20
212.0591
 42
-0.1438386142
  0
VERTEX
  8
LAYER_2
 10
-9.3235
 20
211.7869
 42
-0.2886460427
  0
VERTEX
  8
LAYER_2
 10
-9.4911
 20
211.7004
 42
-0.3841580528
  0
VERTEX
  8
LAYER_2
 10
-9.6851
 20
211.8609
 42
-0.05455021257
  0
VERTEX
  8
LAYER_2
 10
-9.7016
 20
212.0591
 42
-0.1483049254
  0
VERTEX
  8
LAYER_2
 10
-9.6559
 20
212.3323
 42
-0.2855556046
  0
VERTEX
  8
LAYER_2
 10
-9.4911
 20
212.4149
 42
-0.3794480357
  0
VERTEX
  8
LAYER_2
 10
-9.2951
 20
212.2564
 42
-0.05697683845
  0
VERTEX
  8
LAYER_2
 10
-9.2778
 20
212.0591
  0
SEQEND
  0
POLYLINE
  8
LAYER_2
 40
0.05
 41
0.05
 66
1
 10
0
 20
0
 30
0
 70
1
  0
VERTEX
  8
LAYER_2
 10
-8.9667
 20
211.4352
  0
VERTEX
  8
LAYER_2
 10
-8.9667
 20
213.137
  0
VERTEX
  8
LAYER_2
 10
-9.2778
 20
213.137
  0
VERTEX
  8
LAYER_2
 10
-9.2778
 20
212.5707
 42
0.2297998422
  0
VERTEX
  8
LAYER_2
 10
-9.582
 20
212.6947
 42
0.1954770263
  0
VERTEX
  8
LAYER_2
 10
-9.8835
 20
212.5824
 42
0.1230294745
  0
VERTEX
  8
LAYER_2
 10
-9.9795
 20
212.4101
 42
0.0747779445
  0
VERTEX
  8
LAYER_2
 10
-10.013
 20
212.0591
 42
0.0994726102
  0
VERTEX
  8
LAYER_2
 10
-9.9681
 20
211.6704
 42
0.1089535567
  0
VERTEX
  8
LAYER_2
 10
-9.8835
 20
211.533
 42
0.2047870903
  0
VERTEX
  8
LAYER_2
 10
-9.5796
 20
211.4207
 42
0.2301632332
  0
VERTEX
  8
LAYER_2
 10
-9.2709
 20
211.5523
  0
VERTEX
  8
LAYER_2
 10
-9.2709
 20
211.4352
  0
SEQEND
  0
POLYLINE
  8
LAYER_2
 40
0.05
 41
0.05
 66
1
 10
0
 20
0
 30
0
 70
1
  0
VERTEX
  8
LAYER_2
 10
-10.6062
 20
211.894
 42
-0.2466163696
  0
VERTEX
  8
LAYER_2
 10
-10.6541
 20
211.7363
 42
-0.212724989
  0
VERTEX
  8
LAYER_2
 10
-10.8384
 20
211.6763
 42
-0.2058776096
  0
VERTEX
  8
LAYER_2
 10
-10.9909
 20
211.723
 42
-0.205582218
  0
VERTEX
  8
LAYER_2
 10
-11.0272
 20
211.8175
 42
-0.4728058788
  0
VERTEX
  8
LAYER_2
 10
-10.8433
 20
211.9609
  0
VERTEX
  8
LAYER_2
 10
-10.6062
 20
211.9609
  0
SEQEND
  0
POLYLINE
  8
LAYER_2
 40
0.05
 41
0.05
 66
1
 10
0
 20
0
 30
0
 70
1
  0
VERTEX
  8
LAYER_2
 10
-10.2951
 20
211.4352
  0
VERTEX
  8
LAYER_2
 10
-10.2951
 20
212.2551
 42
0.2450199827
  0
VERTEX
  8
LAYER_2
 10
-10.455
 20
212.6039
 42
0.1631220144
  0
VERTEX
  8
LAYER_2
 10
-10.8267
 20
212.6947
 42
0.223003002
  0
VERTEX
  8
LAYER_2
 10
-11.2625
 20
212.5302
 42
0.006267388191
  0
VERTEX
  8
LAYER_2
 10
-11.2739
 20
212.5179
  0
VERTEX
  8
LAYER_2
 10
-11.0779
 20
212.3243
 42
-0.2470834876
  0
VERTEX
  8
LAYER_2
 10
-10.8384
 20
212.4322
 42
-0.1872740545
  0
VERTEX
  8
LAYER_2
 10
-10.6621
 20
212.3865
 42
-0.238797369
  0
VERTEX
  8
LAYER_2
 10
-10.6062
 20
212.2358
  0
VERTEX
  8
LAYER_2
 10
-10.6062
 20
212.1738
  0
VERTEX
  8
LAYER_2
 10
-10.896
 20
212.1738
 42
0.2346153399
  0
VERTEX
  8
LAYER_2
 10
-11.268
 20
212.0142
 42
0.1531846975
  0
VERTEX
  8
LAYER_2
 10
-11.3266
 20
211.8127
 42
0.1894880782
  0
VERTEX
  8
LAYER_2
 10
-11.2239
 20
211.533
 42
0.2078362131
  0
VERTEX
  8
LAYER_2
 10
-10.9053
 20
211.4228
 42
0.2218282602
  0
VERTEX
  8
LAYER_2
 10
-10.599
 20
211.5426
  0
VERTEX
  8
LAYER_2
 10
-10.599
 20
211.4352
  0
SEQEND
  0
POLYLINE
  8
LAYER_2
 40
0.05
 41
0.05
 66
1
 10
0
 20
0
 30
0
 70
1
  0
VERTEX
  8
LAYER_2
 10
-11.5733
 20
211.4352
  0
VERTEX
  8
LAYER_2
 10
-11.5733
 20
212.231
 42
0.205542241
  0
VERTEX
  8
LAYER_2
 10
-11.7097
 20
212.5844
 42
0.1987814349
  0
VERTEX
  8
LAYER_2
 10
-12.016
 20
212.6947
 42
0.2182066523
  0
VERTEX
  8
LAYER_2
 10
-12.3894
 20
212.5369
 42
0.2492914965
  0
VERTEX
  8
LAYER_2
 10
-12.7198
 20
212.6947
 42
0.1963594215
  0
VERTEX
  8
LAYER_2
 10
-13.0309
 20
212.5658
  0
VERTEX
  8
LAYER_2
 10
-13.0309
 20
212.6805
  0
VERTEX
  8
LAYER_2
 10
-13.3348
 20
212.6805
  0
VERTEX
  8
LAYER_2
 10
-13.3348
 20
211.4352
  0
VERTEX
  8
LAYER_2
 10
-13.0233
 20
211.4352
  0
VERTEX
  8
LAYER_2
 10
-13.0233
 20
212.1882
 42
-0.4178253314
  0
VERTEX
  8
LAYER_2
 10
-12.8153
 20
212.4149
 42
-0.4343639015
  0
VERTEX
  8
LAYER_2
 10
-12.6096
 20
212.1882
  0
VERTEX
  8
LAYER_2
 10
-12.6096
 20
211.4352
  0
VERTEX
  8
LAYER_2
 10
-12.2985
 20
211.4352
  0
VERTEX
  8
LAYER_2
 10
-12.2985
 20
212.1951
 42
-0.4176164983
  0
VERTEX
  8
LAYER_2
 10
-12.0904
 20
212.4149
 42
-0.434797635
  0
VERTEX
  8
LAYER_2
 10
-11.8844
 20
212.1882
  0
VERTEX
  8
LAYER_2
 10
-11.8844
 20
211.4352
  0
SEQEND
  0
POLYLINE
  8
LAYER_2
 40
0.05
 41
0.05
 66
1
 10
0
 20
0
 30
0
  0
VERTEX
  8
LAYER_2
 10
-13.8973
 20
212.0229
 42
-0.1159462989
  0
VERTEX
  8
LAYER_2
 10
-13.9445
 20
211.7201
 42
-0.3129536504
  0
VERTEX
  8
LAYER_2
 10
-14.1915
 20
211.5736
 42
-0.314965659
  0
VERTEX
  8
LAYER_2
 10
-14.446
 20
211.7323
 42
-0.1053090454
  0
VERTEX
  8
LAYER_2
 10
-14.4882
 20
212.0229
 42
-0.113954245
  0
VERTEX
  8
LAYER_2
 10
-14.4424
 20
212.3219
 42
-0.3163619605
  0
VERTEX
  8
LAYER_2
 10
-14.1915
 20
212.4725
 42
-0.3164516036
  0
VERTEX
  8
LAYER_2
 10
-13.9392
 20
212.3138
 42
-0.103439187
  0
VERTEX
  8
LAYER_2
 10
-13.8973
 20
212.0229
  0
SEQEND
  0
POLYLINE
  8
LAYER_2
 40
0.05
 41
0.05
 66
1
 10
0
 20
0
 30
0
 70
1
  0
VERTEX
  8
LAYER_2
 10
-13.7247
 20
211.4352
  0
VERTEX
  8
LAYER_2
 10
-13.7247
 20
213.137
  0
VERTEX
  8
LAYER_2
 10
-13.8973
 20
213.137
  0
VERTEX
  8
LAYER_2
 10
-13.8973
 20
212.4749
 42
0.2525818121
  0
VERTEX
  8
LAYER_2
 10
-14.2298
 20
212.6258
 42
0.1886393528
  0
VERTEX
  8
LAYER_2
 10
-14.5171
 20
212.5224
 42
0.1172978386
  0
VERTEX
  8
LAYER_2
 10
-14.6205
 20
212.3434
 42
0.07876818405
  0
VERTEX
  8
LAYER_2
 10
-14.6608
 20
212.0229
 42
0.09207329595
  0
VERTEX
  8
LAYER_2
 10
-14.6127
 20
211.6805
 42
0.1077667615
  0
VERTEX
  8
LAYER_2
 10
-14.5171
 20
211.5234
 42
0.198210181
  0
VERTEX
  8
LAYER_2
 10
-14.2298
 20
211.4207
 42
0.2515984765
  0
VERTEX
  8
LAYER_2
 10
-13.8949
 20
211.5761
  0
VERTEX
  8
LAYER_2
 10
-13.8949
 20
211.4352
  0
SEQEND
  0
POLYLINE
  8
LAYER_2
 40
0.05
 41
0.05
 66
1
 10
0
 20
0
 30
0
 70
1
  0
VERTEX
  8
LAYER_2
 10
-15.0173
 20
211.4352
  0
VERTEX
  8
LAYER_2
 10
-15.0173
 20
212.1882
 42
0.2025955741
  0
VERTEX
  8
LAYER_2
 10
-15.1393
 20
212.5156
 42
0.2044555257
  0
VERTEX
  8
LAYER_2
 10
-15.4411
 20
212.6258
 42
0.2165707378
  0
VERTEX
  8
LAYER_2
 10
-15.7711
 20
212.4818
  0
VERTEX
  8
LAYER_2
 10
-15.7711
 20
212.6113
  0
VERTEX
  8
LAYER_2
 10
-15.9434
 20
212.6113
  0
VERTEX
  8
LAYER_2
 10
-15.9434
 20
211.4352
  0
VERTEX
  8
LAYER_2
 10
-15.7711
 20
211.4352
  0
VERTEX
  8
LAYER_2
 10
-15.7711
 20
212.1593
 42
-0.2837547598
  0
VERTEX
  8
LAYER_2
 10
-15.6189
 20
212.4442
 42
-0.1086336204
  0
VERTEX
  8
LAYER_2
 10
-15.479
 20
212.4725
 42
-0.442304779
  0
VERTEX
  8
LAYER_2
 10
-15.1896
 20
212.1593
  0
VERTEX
  8
LAYER_2
 10
-15.1896
 20
211.4352
  0
SEQEND
  0
POLYLINE
  8
LAYER_2
 40
0.05
 41
0.05
 66
1
 10
0
 20
0
 30
0
 70
1
  0
VERTEX
  8
LAYER_2
 10
-16.5346
 20
211.8506
 42
-0.2101171453
  0
VERTEX
  8
LAYER_2
 10
-16.5945
 20
211.6477
 42
-0.2061049303
  0
VERTEX
  8
LAYER_2
 10
-16.8553
 20
211.5688
 42
-0.162375608
  0
VERTEX
  8
LAYER_2
 10
-17.0584
 20
211.6151
 42
-0.2625865829
  0
VERTEX
  8
LAYER_2
 10
-17.1281
 20
211.77
 42
-0.3766203625
  0
VERTEX
  8
LAYER_2
 10
-16.9692
 20
211.9668
 42
-0.05119198821
  0
VERTEX
  8
LAYER_2
 10
-16.8625
 20
211.9774
  0
VERTEX
  8
LAYER_2
 10
-16.5346
 20
211.9774
  0
SEQEND
  0
POLYLINE
  8
LAYER_2
 40
0.05
 41
0.05
 66
1
 10
0
 20
0
 30
0
 70
1
  0
VERTEX
  8
LAYER_2
 10
-16.362
 20
211.4352
  0
VERTEX
  8
LAYER_2
 10
-16.362
 20
212.233
 42
0.2623610217
  0
VERTEX
  8
LAYER_2
 10
-16.5224
 20
212.5561
 42
0.1450933816
  0
VERTEX
  8
LAYER_2
 10
-16.8336
 20
212.6258
 42
0.2362276322
  0
VERTEX
  8
LAYER_2
 10
-17.2355
 20
212.4672
 42
0.01170794038
  0
VERTEX
  8
LAYER_2
 10
-17.2501
 20
212.4487
  0
VERTEX
  8
LAYER_2
 10
-17.133
 20
212.3409
 42
-0.2755800686
  0
VERTEX
  8
LAYER_2
 10
-16.8364
 20
212.4776
 42
-0.1517468402
  0
VERTEX
  8
LAYER_2
 10
-16.6283
 20
212.4308
 42
-0.2800643637
  0
VERTEX
  8
LAYER_2
 10
-16.5346
 20
212.2193
  0
VERTEX
  8
LAYER_2
 10
-16.5346
 20
212.1066
  0
VERTEX
  8
LAYER_2
 10
-16.8863
 20
212.1066
 42
0.2378691362
  0
VERTEX
  8
LAYER_2
 10
-17.2451
 20
211.9523
 42
0.1477379502
  0
VERTEX
  8
LAYER_2
 10
-17.2956
 20
211.7673
 42
0.1983884986
  0
VERTEX
  8
LAYER_2
 10
-17.2071
 20
211.5282
 42
0.2222408302
  0
VERTEX
  8
LAYER_2
 10
-16.8742
 20
211.4207
 42
0.21971579
  0
VERTEX
  8
LAYER_2
 10
-16.5346
 20
211.5471
  0
VERTEX
  8
LAYER_2
 10
-16.5346
 20
211.4352
  0
SEQEND
  0
POLYLINE
  8
LAYER_2
 40
0.05
 41
0.05
 66
1
 10
0
 20
0
 30
0
 70
1
  0
VERTEX
  8
LAYER_2
 10
-17.6211
 20
211.4352
  0
VERTEX
  8
LAYER_2
 10
-17.6211
 20
212.1903
 42
0.2366048602
  0
VERTEX
  8
LAYER_2
 10
-17.7848
 20
212.5524
 42
0.1585996094
  0
VERTEX
  8
LAYER_2
 10
-18.0449
 20
212.6258
 42
0.2174282511
  0
VERTEX
  8
LAYER_2
 10
-18.3749
 20
212.4818
  0
VERTEX
  8
LAYER_2
 10
-18.3749
 20
213.137
  0
VERTEX
  8
LAYER_2
 10
-18.5475
 20
213.137
  0
VERTEX
  8
LAYER_2
 10
-18.5475
 20
211.4352
  0
VERTEX
  8
LAYER_2
 10
-18.3749
 20
211.4352
  0
VERTEX
  8
LAYER_2
 10
-18.3749
 20
212.1617
 42
-0.2889308341
  0
VERTEX
  8
LAYER_2
 10
-18.2221
 20
212.4453
 42
-0.1047577161
  0
VERTEX
  8
LAYER_2
 10
-18.0807
 20
212.4725
 42
-0.4463558923
  0
VERTEX
  8
LAYER_2
 10
-17.7934
 20
212.1617
  0
VERTEX
  8
LAYER_2
 10
-17.7934
 20
211.4352
  0
SEQEND
  0
ENDBLK
  0
BLOCK
  8
LAYER_2
  2
AIGNBL02020007
 70
64
 10
0
 20
0
 30
0
  3
AIGNBL02020007
  0
INSERT
  8
LAYER_2
  2
AIGNBL02030008
 10
0
 20
0
 30
0
  0
ENDBLK
  0
BLOCK
  8
LAYER_2
  2
AIGNBL02020010
 70
64
 10
0
 20
0
 30
0
  3
AIGNBL02020010
  0
INSERT
  8
LAYER_2
  2
AIGNBL02030011
 10
0
 20
0
 30
0
  0
INSERT
  8
LAYER_2
  2
AIGNBL02030012
 10
0
 20
0
 30
0
  0
INSERT
  8
LAYER_2
  2
AIGNBL02030013
 10
0
 20
0
 30
0
  0
INSERT
  8
LAYER_2
  2
AIGNBL02030014
 10
0
 20
0
 30
0
  0
INSERT
  8
LAYER_2
  2
AIGNBL02030015
 10
0
 20
0
 30
0
  0
INSERT
  8
LAYER_2
  2
AIGNBL02030016
 10
0
 20
0
 30
0
  0
INSERT
  8
LAYER_2
  2
AIGNBL02030017
 10
0
 20
0
 30
0
  0
INSERT
  8
LAYER_2
  2
AIGNBL02030018
 10
0
 20
0
 30
0
  0
INSERT
  8
LAYER_2
  2
AIGNBL02030019
 10
0
 20
0
 30
0
  0
INSERT
  8
LAYER_2
  2
AIGNBL0203001A
 10
0
 20
0
 30
0
  0
INSERT
  8
LAYER_2
  2
AIGNBL0203001B
 10
0
 20
0
 30
0
  0
INSERT
  8
LAYER_2
  2
AIGNBL0203001C
 10
0
 20
0
 30
0
  0
INSERT
  8
LAYER_2
  2
AIGNBL0203001D
 10
0
 20
0
 30
0
  0
INSERT
  8
LAYER_2
  2
AIGNBL0203001E
 10
0
 20
0
 30
0
  0
INSERT
  8
LAYER_2
  2
AIGNBL0203001F
 10
0
 20
0
 30
0
  0
INSERT
  8
LAYER_2
  2
AIGNBL02030020
 10
0
 20
0
 30
0
  0
INSERT
  8
LAYER_2
  2
AIGNBL02030021
 10
0
 20
0
 30
0
  0
INSERT
  8
LAYER_2
  2
AIGNBL02030022
 10
0
 20
0
 30
0
  0
INSERT
  8
LAYER_2
  2
AIGNBL02030023
 10
0
 20
0
 30
0
  0
INSERT
  8
LAYER_2
  2
AIGNBL02030024
 10
0
 20
0
 30
0
  0
INSERT
  8
LAYER_2
  2
AIGNBL02030025
 10
0
 20
0
 30
0
  0
INSERT
  8
LAYER_2
  2
AIGNBL02030026
 10
0
 20
0
 30
0
  0
INSERT
  8
LAYER_2
  2
AIGNBL02030027
 10
0
 20
0
 30
0
  0
ENDBLK
  0
BLOCK
  8
LAYER_2
  2
AIGNBL02010002
 70
64
 10
0
 20
0
 30
0
  3
AIGNBL02010002
  0
POLYLINE
  8
LAYER_2
 40
0.7056
 41
0.7056
 66
1
 10
0
 20
0
 30
0
 70
1
  0
VERTEX
  8
LAYER_2
 10
251.6749
 20
230.337
  0
VERTEX
  8
LAYER_2
 10
251.6749
 20
33.3285
  0
VERTEX
  8
LAYER_2
 10
-30.3177
 20
33.3285
  0
VERTEX
  8
LAYER_2
 10
-30.3177
 20
230.337
  0
SEQEND
  0
ENDBLK
  0
BLOCK
  8
LAYER_2
  2
AIGNBL02010003
 70
64
 10
0
 20
0
 30
0
  3
AIGNBL02010003
  0
INSERT
  8
LAYER_2
  2
AIGNBL02020004
 10
0
 20
0
 30
0
  0
POLYLINE
  8
LAYER_2
 40
0.05
 41
0.05
 66
1
 10
0
 20
0
 30
0
  0
VERTEX
  8
LAYER_2
 10
-6.457
 20
223.2684
  0
VERTEX
  8
LAYER_2
 10
-8.0924
 20
223.2684
  0
VERTEX
  8
LAYER_2
 10
-8.0924
 20
216.1939
 42
0.1050424825
  0
VERTEX
  8
LAYER_2
 10
-7.9127
 20
215.3316
 42
0.1079536646
  0
VERTEX
  8
LAYER_2
 10
-7.4796
 20
214.75
 42
0.105678841
  0
VERTEX
  8
LAYER_2
 10
-6.8587
 20
214.4154
 42
0.04706827067
  0
VERTEX
  8
LAYER_2
 10
-6.4597
 20
214.3359
  0
VERTEX
  8
LAYER_2
 10
-6.457
 20
223.2684
  0
SEQEND
  0
INSERT
  8
LAYER_2
  2
AIGNBL02020005
 10
0
 20
0
 30
0
  0
ENDBLK
  0
BLOCK
  8
LAYER_2
  2
AIGNBL02010006
 70
64
 10
0
 20
0
 30
0
  3
AIGNBL02010006
  0
INSERT
  8
LAYER_2
  2
AIGNBL02020007
 10
0
 20
0
 30
0
  0
INSERT
  8
LAYER_2
  2
AIGNBL02020010
 10
0
 20
0
 30
0
  0
ENDBLK
  0
BLOCK
  8
LAYER_2
  2
AIGNBL02010028
 70
64
 10
0
 20
0
 30
0
  3
AIGNBL02010028
  0
POLYLINE
  8
LAYER_2
 40
0.1623
 41
0.1623
 66
1
 10
0
 20
0
 30
0
  0
VERTEX
  8
LAYER_2
 10
119.8031
 20
111.6727
 42
0.4142533578
  0
VERTEX
  8
LAYER_2
 10
119.5104
 20
111.3801
  0
SEQEND
  0
POLYLINE
  8
LAYER_2
 40
0.1623
 41
0.1623
 66
1
 10
0
 20
0
 30
0
  0
VERTEX
  8
LAYER_2
 10
171.5104
 20
111.3801
 42
0.4142669772
  0
VERTEX
  8
LAYER_2
 10
171.2178
 20
111.6727
  0
SEQEND
  0
ENDBLK
  0
BLOCK
  8
LAYER_2
  2
AIGNBL02010029
 70
64
 10
0
 20
0
 30
0
  3
AIGNBL02010029
  0
POLYLINE
  8
LAYER_2
 40
0.1623
 41
0.1623
 66
1
 10
0
 20
0
 30
0
  0
VERTEX
  8
LAYER_2
 10
141.785
 20
96.4784
 42
0.1984409574
  0
VERTEX
  8
LAYER_2
 10
141.6421
 20
96.8236
 42
0.1984179576
  0
VERTEX
  8
LAYER_2
 10
141.2966
 20
96.9662
  0
SEQEND
  0
ENDBLK
  0
BLOCK
  8
LAYER_2
  2
AIGNBL0201002A
 70
64
 10
0
 20
0
 30
0
  3
AIGNBL0201002A
  0
POLYLINE
  8
LAYER_2
 40
0.1623
 41
0.1623
 66
1
 10
0
 20
0
 30
0
  0
VERTEX
  8
LAYER_2
 10
149.7242
 20
96.966
 42
0.1984453317
  0
VERTEX
  8
LAYER_2
 10
149.379
 20
96.8234
 42
0.1994016719
  0
VERTEX
  8
LAYER_2
 10
149.2357
 20
96.4782
  0
SEQEND
  0
ENDBLK
  0
BLOCK
  8
LAYER_2
  2
AIGNBL0201002B
 70
64
 10
0
 20
0
 30
0
  3
AIGNBL0201002B
  0
POLYLINE
  8
LAYER_2
 40
0.1623
 41
0.1623
 66
1
 10
0
 20
0
 30
0
  0
VERTEX
  8
LAYER_2
 10
148.9043
 20
93.1821
 42
0.4142035753
  0
VERTEX
  8
LAYER_2
 10
149.1969
 20
93.4747
  0
SEQEND
  0
POLYLINE
  8
LAYER_2
 40
0.1623
 41
0.1623
 66
1
 10
0
 20
0
 30
0
  0
VERTEX
  8
LAYER_2
 10
141.824
 20
93.4747
 42
0.4142311554
  0
VERTEX
  8
LAYER_2
 10
142.1166
 20
93.182
  0
SEQEND
  0
ENDBLK
  0
BLOCK
  8
LAYER_2
  2
AIGNBL0201002C
 70
64
 10
0
 20
0
 30
0
  3
AIGNBL0201002C
  0
POLYLINE
  8
LAYER_2
 40
0.1623
 41
0.1623
 66
1
 10
0
 20
0
 30
0
  0
VERTEX
  8
LAYER_2
 10
148.4362
 20
93.1821
 42
0.4142182799
  0
VERTEX
  8
LAYER_2
 10
148.7288
 20
93.4747
  0
SEQEND
  0
ENDBLK
  0
BLOCK
  8
LAYER_2
  2
AIGNBL0201002D
 70
64
 10
0
 20
0
 30
0
  3
AIGNBL0201002D
  0
POLYLINE
  8
LAYER_2
 40
0.1623
 41
0.1623
 66
1
 10
0
 20
0
 30
0
  0
VERTEX
  8
LAYER_2
 10
142.3312
 20
93.4747
 42
0.4142950783
  0
VERTEX
  8
LAYER_2
 10
142.6238
 20
93.182
  0
SEQEND
  0
ENDBLK
  0
BLOCK
  8
LAYER_2
  2
AIGNBL0201002E
 70
64
 10
0
 20
0
 30
0
  3
AIGNBL0201002E
  0
POLYLINE
  8
LAYER_2
 40
0.1623
 41
0.1623
 66
1
 10
0
 20
0
 30
0
  0
VERTEX
  8
LAYER_2
 10
22.4926
 20
154.4078
 42
0.08276235451
  0
VERTEX
  8
LAYER_2
 10
23.3243
 20
149.4278
 42
0.02970071687
  0
VERTEX
  8
LAYER_2
 10
24.0522
 20
147.6512
 42
0.02835246619
  0
VERTEX
  8
LAYER_2
 10
24.9883
 20
145.9559
 42
0.03354932827
  0
VERTEX
  8
LAYER_2
 10
26.4328
 20
143.9656
 42
0.03144064627
  0
VERTEX
  8
LAYER_2
 10
28.1603
 20
142.1358
 42
0.02958975258
  0
VERTEX
  8
LAYER_2
 10
30.147
 20
140.4853
 42
0.02807605001
  0
VERTEX
  8
LAYER_2
 10
32.3695
 20
139.0328
 42
0.02691734291
  0
VERTEX
  8
LAYER_2
 10
34.8041
 20
137.7968
 42
0.02609372758
  0
VERTEX
  8
LAYER_2
 10
37.4273
 20
136.796
 42
0.02556383463
  0
VERTEX
  8
LAYER_2
 10
40.2155
 20
136.0492
 42
0.02527416328
  0
VERTEX
  8
LAYER_2
 10
43.1452
 20
135.575
 42
0.02516387127
  0
VERTEX
  8
LAYER_2
 10
46.1927
 20
135.3921
 42
0.002516589285
  0
VERTEX
  8
LAYER_2
 10
46.503
 20
135.3905
 42
0.02755366904
  0
VERTEX
  8
LAYER_2
 10
49.8609
 20
135.575
 42
0.02512715086
  0
VERTEX
  8
LAYER_2
 10
52.7906
 20
136.0492
 42
0.02538269561
  0
VERTEX
  8
LAYER_2
 10
55.5789
 20
136.796
 42
0.02586605211
  0
VERTEX
  8
LAYER_2
 10
58.2021
 20
137.7968
 42
0.02663304066
  0
VERTEX
  8
LAYER_2
 10
60.6368
 20
139.0328
 42
0.02772895474
  0
VERTEX
  8
LAYER_2
 10
62.8593
 20
140.4853
 42
0.02918053032
  0
VERTEX
  8
LAYER_2
 10
64.846
 20
142.1358
 42
0.03098147693
  0
VERTEX
  8
LAYER_2
 10
66.5734
 20
143.9656
 42
0.03307014798
  0
VERTEX
  8
LAYER_2
 10
68.018
 20
145.9559
 42
0.02806190688
  0
VERTEX
  8
LAYER_2
 10
68.9541
 20
147.6512
 42
0.02945692827
  0
VERTEX
  8
LAYER_2
 10
69.682
 20
149.4278
 42
0.03068160701
  0
VERTEX
  8
LAYER_2
 10
70.1897
 20
151.2761
 42
0.05159966067
  0
VERTEX
  8
LAYER_2
 10
70.5137
 20
154.4078
 42
0.08276250175
  0
VERTEX
  8
LAYER_2
 10
69.682
 20
159.3878
 42
0.02970086653
  0
VERTEX
  8
LAYER_2
 10
68.9541
 20
161.1644
 42
0.02835263994
  0
VERTEX
  8
LAYER_2
 10
68.018
 20
162.8597
 42
0.03354955601
  0
VERTEX
  8
LAYER_2
 10
66.5734
 20
164.85
 42
0.03144085724
  0
VERTEX
  8
LAYER_2
 10
64.846
 20
166.6798
 42
0.02958992114
  0
VERTEX
  8
LAYER_2
 10
62.8593
 20
168.3303
 42
0.02807615465
  0
VERTEX
  8
LAYER_2
 10
60.6368
 20
169.7828
 42
0.02691736495
  0
VERTEX
  8
LAYER_2
 10
58.2021
 20
171.0188
 42
0.02609365006
  0
VERTEX
  8
LAYER_2
 10
55.5789
 20
172.0196
 42
0.02556364192
  0
VERTEX
  8
LAYER_2
 10
52.7906
 20
172.7664
 42
0.02527384161
  0
VERTEX
  8
LAYER_2
 10
49.8609
 20
173.2406
 42
0.02516341016
  0
VERTEX
  8
LAYER_2
 10
46.8133
 20
173.4235
 42
0.002516535601
  0
VERTEX
  8
LAYER_2
 10
46.503
 20
173.4251
 42
0.02755421765
  0
VERTEX
  8
LAYER_2
 10
43.1452
 20
173.2406
 42
0.02512750604
  0
VERTEX
  8
LAYER_2
 10
40.2155
 20
172.7664
 42
0.0253829203
  0
VERTEX
  8
LAYER_2
 10
37.4273
 20
172.0196
 42
0.02586615929
  0
VERTEX
  8
LAYER_2
 10
34.8041
 20
171.0188
 42
0.02663304543
  0
VERTEX
  8
LAYER_2
 10
32.3695
 20
169.7828
 42
0.02772887357
  0
VERTEX
  8
LAYER_2
 10
30.147
 20
168.3303
 42
0.0291803812
  0
VERTEX
  8
LAYER_2
 10
28.1603
 20
166.6798
 42
0.03098128036
  0
VERTEX
  8
LAYER_2
 10
26.4328
 20
164.85
 42
0.03306992833
  0
VERTEX
  8
LAYER_2
 10
24.9883
 20
162.8597
 42
0.02806173414
  0
VERTEX
  8
LAYER_2
 10
24.0522
 20
161.1644
 42
0.02945677562
  0
VERTEX
  8
LAYER_2
 10
23.3243
 20
159.3878
 42
0.03068149048
  0
VERTEX
  8
LAYER_2
 10
22.8166
 20
157.5395
 42
0.05159956992
  0
VERTEX
  8
LAYER_2
 10
22.4926
 20
154.4078
  0
SEQEND
  0
ENDBLK
  0
BLOCK
  8
LAYER_2
  2
AIGNBL0201002F
 70
64
 10
0
 20
0
 30
0
  3
AIGNBL0201002F
  0
POLYLINE
  8
LAYER_2
 40
0.1623
 41
0.1623
 66
1
 10
0
 20
0
 30
0
  0
VERTEX
  8
LAYER_2
 10
119.5105
 20
110.3659
 42
0.4142614385
  0
VERTEX
  8
LAYER_2
 10
119.8031
 20
110.0733
  0
SEQEND
  0
POLYLINE
  8
LAYER_2
 40
0.1623
 41
0.1623
 66
1
 10
0
 20
0
 30
0
  0
VERTEX
  8
LAYER_2
 10
120.2874
 20
109.4573
 42
0.3092981288
  0
VERTEX
  8
LAYER_2
 10
119.7919
 20
110.0479
  0
SEQEND
  0
ENDBLK
  0
BLOCK
  8
LAYER_2
  2
AIGNBL02010030
 70
64
 10
0
 20
0
 30
0
  3
AIGNBL02010030
  0
POLYLINE
  8
LAYER_2
 40
0.1623
 41
0.1623
 66
1
 10
0
 20
0
 30
0
  0
VERTEX
  8
LAYER_2
 10
171.2179
 20
110.0733
 42
0.4142058333
  0
VERTEX
  8
LAYER_2
 10
171.5105
 20
110.3659
  0
SEQEND
  0
ENDBLK
  0
BLOCK
  8
LAYER_2
  2
AIGNBL02010031
 70
64
 10
0
 20
0
 30
0
  3
AIGNBL02010031
  0
POLYLINE
  8
LAYER_2
 40
0.1623
 41
0.1623
 66
1
 10
0
 20
0
 30
0
  0
VERTEX
  8
LAYER_2
 10
171.2291
 20
110.0481
 42
0.3093143203
  0
VERTEX
  8
LAYER_2
 10
170.7335
 20
109.4575
  0
SEQEND
  0
ENDBLK
  0
BLOCK
  8
LAYER_2
  2
AIGNBL02010032
 70
64
 10
0
 20
0
 30
0
  3
AIGNBL02010032
  0
POLYLINE
  8
LAYER_2
 40
0.1623
 41
0.1623
 66
1
 10
0
 20
0
 30
0
  0
VERTEX
  8
LAYER_2
 10
120.3417
 20
109.4881
 42
0.4070002389
  0
VERTEX
  8
LAYER_2
 10
131.0839
 20
97.4237
  0
SEQEND
  0
POLYLINE
  8
LAYER_2
 40
0.1623
 41
0.1623
 66
1
 10
0
 20
0
 30
0
  0
VERTEX
  8
LAYER_2
 10
171.2179
 20
110.0733
 42
0.4142058333
  0
VERTEX
  8
LAYER_2
 10
171.5105
 20
110.3659
  0
SEQEND
  0
POLYLINE
  8
LAYER_2
 40
0.1623
 41
0.1623
 66
1
 10
0
 20
0
 30
0
  0
VERTEX
  8
LAYER_2
 10
171.2291
 20
110.0481
 42
0.3093143203
  0
VERTEX
  8
LAYER_2
 10
170.7335
 20
109.4575
  0
SEQEND
  0
ENDBLK
  0
BLOCK
  8
LAYER_2
  2
AIGNBL02010033
 70
64
 10
0
 20
0
 30
0
  3
AIGNBL02010033
  0
POLYLINE
  8
LAYER_2
 40
0.1623
 41
0.1623
 66
1
 10
0
 20
0
 30
0
  0
VERTEX
  8
LAYER_2
 10
159.976
 20
97.4237
 42
0.4069987854
  0
VERTEX
  8
LAYER_2
 10
170.7182
 20
109.488
  0
SEQEND
  0
ENDBLK
  0
BLOCK
  8
LAYER_2
  2
AIGNBL02010034
 70
64
 10
0
 20
0
 30
0
  3
AIGNBL02010034
  0
POLYLINE
  8
LAYER_2
 40
0.4868
 41
0.4868
 66
1
 10
0
 20
0
 30
0
  0
VERTEX
  8
LAYER_2
 10
174.4111
 20
192.3483
 42
0.08370435472
  0
VERTEX
  8
LAYER_2
 10
175.2076
 20
187.634
 42
0.02995429285
  0
VERTEX
  8
LAYER_2
 10
175.9048
 20
185.9521
 42
0.03543966039
  0
VERTEX
  8
LAYER_2
 10
177.0553
 20
183.9591
 42
0.0331256623
  0
VERTEX
  8
LAYER_2
 10
178.4948
 20
182.104
 42
0.03096538728
  0
VERTEX
  8
LAYER_2
 10
180.2007
 20
180.4043
 42
0.02910680523
  0
VERTEX
  8
LAYER_2
 10
182.1505
 20
178.8779
 42
0.02761111137
  0
VERTEX
  8
LAYER_2
 10
184.3215
 20
177.5424
 42
0.02648261294
  0
VERTEX
  8
LAYER_2
 10
186.6912
 20
176.4155
 42
0.02569256979
  0
VERTEX
  8
LAYER_2
 10
189.2371
 20
175.5148
 42
0.02519434419
  0
VERTEX
  8
LAYER_2
 10
191.9365
 20
174.858
 42
0.02493160421
  0
VERTEX
  8
LAYER_2
 10
194.7668
 20
174.4628
 42
0.02234751271
  0
VERTEX
  8
LAYER_2
 10
197.4075
 20
174.3454
 42
0.02723650243
  0
VERTEX
  8
LAYER_2
 10
200.6235
 20
174.5201
 42
0.0248495137
  0
VERTEX
  8
LAYER_2
 10
203.4294
 20
174.969
 42
0.02512511717
  0
VERTEX
  8
LAYER_2
 10
206.0999
 20
175.676
 42
0.02563800834
  0
VERTEX
  8
LAYER_2
 10
208.6123
 20
176.6233
 42
0.0264446781
  0
VERTEX
  8
LAYER_2
 10
210.944
 20
177.7934
 42
0.02759198828
  0
VERTEX
  8
LAYER_2
 10
213.0726
 20
179.1685
 42
0.02910891452
  0
VERTEX
  8
LAYER_2
 10
214.9754
 20
180.731
 42
0.03099128968
  0
VERTEX
  8
LAYER_2
 10
216.6298
 20
182.4631
 42
0.03317778364
  0
VERTEX
  8
LAYER_2
 10
218.0133
 20
184.3473
 42
0.03551976468
  0
VERTEX
  8
LAYER_2
 10
219.1033
 20
186.3657
 42
0.03003879759
  0
VERTEX
  8
LAYER_2
 10
219.7488
 20
188.0654
 42
0.03125921985
  0
VERTEX
  8
LAYER_2
 10
220.1804
 20
189.8306
 42
0.04426966497
  0
VERTEX
  8
LAYER_2
 10
220.4035
 20
192.3483
 42
0.08370345882
  0
VERTEX
  8
LAYER_2
 10
219.607
 20
197.0627
 42
0.02995399338
  0
VERTEX
  8
LAYER_2
 10
218.9098
 20
198.7445
 42
0.03543933492
  0
VERTEX
  8
LAYER_2
 10
217.7593
 20
200.7375
 42
0.03312540441
  0
VERTEX
  8
LAYER_2
 10
216.3199
 20
202.5927
 42
0.03096520676
  0
VERTEX
  8
LAYER_2
 10
214.614
 20
204.2924
 42
0.02910671077
  0
VERTEX
  8
LAYER_2
 10
212.6642
 20
205.8188
 42
0.02761111288
  0
VERTEX
  8
LAYER_2
 10
210.4932
 20
207.1543
 42
0.02648272274
  0
VERTEX
  8
LAYER_2
 10
208.1235
 20
208.2812
 42
0.02569280259
  0
VERTEX
  8
LAYER_2
 10
205.5777
 20
209.1819
 42
0.02519471615
  0
VERTEX
  8
LAYER_2
 10
202.8784
 20
209.8387
 42
0.02493213117
  0
VERTEX
  8
LAYER_2
 10
200.0481
 20
210.2339
 42
0.02234813406
  0
VERTEX
  8
LAYER_2
 10
197.4075
 20
210.3513
 42
0.02723576091
  0
VERTEX
  8
LAYER_2
 10
194.1914
 20
210.1766
 42
0.02484906249
  0
VERTEX
  8
LAYER_2
 10
191.3854
 20
209.7277
 42
0.0251248696
  0
VERTEX
  8
LAYER_2
 10
188.7149
 20
209.0207
 42
0.02563794474
  0
VERTEX
  8
LAYER_2
 10
186.2025
 20
208.0734
 42
0.02644477392
  0
VERTEX
  8
LAYER_2
 10
183.8707
 20
206.9033
 42
0.02759221412
  0
VERTEX
  8
LAYER_2
 10
181.7421
 20
205.5282
 42
0.02910923445
  0
VERTEX
  8
LAYER_2
 10
179.8393
 20
203.9657
 42
0.03099165827
  0
VERTEX
  8
LAYER_2
 10
178.1848
 20
202.2336
 42
0.03317814288
  0
VERTEX
  8
LAYER_2
 10
176.8013
 20
200.3494
 42
0.03552004376
  0
VERTEX
  8
LAYER_2
 10
175.7113
 20
198.3309
 42
0.03003891108
  0
VERTEX
  8
LAYER_2
 10
175.0658
 20
196.6313
 42
0.03125919894
  0
VERTEX
  8
LAYER_2
 10
174.6342
 20
194.866
 42
0.04426939935
  0
VERTEX
  8
LAYER_2
 10
174.4111
 20
192.3483
  0
SEQEND
  0
ENDBLK
  0
BLOCK
  8
LAYER_2
  2
AIGNBL02010035
 70
64
 10
0
 20
0
 30
0
  3
AIGNBL02010035
  0
POLYLINE
  8
LAYER_2
 40
0.4868
 41
0.4868
 66
1
 10
0
 20
0
 30
0
  0
VERTEX
  8
LAYER_2
 10
123.626
 20
145.6891
 42
0.4142568596
  0
VERTEX
  8
LAYER_2
 10
123.3334
 20
145.3965
  0
SEQEND
  0
ENDBLK
  0
BLOCK
  8
LAYER_2
  2
AIGNBL02010036
 70
64
 10
0
 20
0
 30
0
  3
AIGNBL02010036
  0
POLYLINE
  8
LAYER_2
 40
0.4868
 41
0.4868
 66
1
 10
0
 20
0
 30
0
  0
VERTEX
  8
LAYER_2
 10
143.3064
 20
127.7642
 42
0.3825547422
  0
VERTEX
  8
LAYER_2
 10
142.8395
 20
128.2513
  0
SEQEND
  0
POLYLINE
  8
LAYER_2
 40
0.4868
 41
0.4868
 66
1
 10
0
 20
0
 30
0
  0
VERTEX
  8
LAYER_2
 10
143.3419
 20
130.4797
 42
0.3691061058
  0
VERTEX
  8
LAYER_2
 10
142.8049
 20
130.9819
  0
SEQEND
  0
ENDBLK
  0
BLOCK
  8
LAYER_2
  2
AIGNBL02010037
 70
64
 10
0
 20
0
 30
0
  3
AIGNBL02010037
  0
POLYLINE
  8
LAYER_2
 40
0.4868
 41
0.4868
 66
1
 10
0
 20
0
 30
0
  0
VERTEX
  8
LAYER_2
 10
143.3454
 20
127.4911
 42
0.414185864
  0
VERTEX
  8
LAYER_2
 10
143.638
 20
127.1985
  0
SEQEND
  0
POLYLINE
  8
LAYER_2
 40
0.4868
 41
0.4868
 66
1
 10
0
 20
0
 30
0
  0
VERTEX
  8
LAYER_2
 10
144.2622
 20
127.1985
 42
0.414145515
  0
VERTEX
  8
LAYER_2
 10
144.5548
 20
127.4911
  0
SEQEND
  0
ENDBLK
  0
BLOCK
  8
LAYER_2
  2
AIGNBL02010038
 70
64
 10
0
 20
0
 30
0
  3
AIGNBL02010038
  0
POLYLINE
  8
LAYER_2
 40
0.4868
 41
0.4868
 66
1
 10
0
 20
0
 30
0
  0
VERTEX
  8
LAYER_2
 10
127.8558
 20
145.3568
 42
0.2217101062
  0
VERTEX
  8
LAYER_2
 10
127.783
 20
145.5928
 42
0.2220903191
  0
VERTEX
  8
LAYER_2
 10
127.5551
 20
145.6888
  0
SEQEND
  0
ENDBLK
  0
BLOCK
  8
LAYER_2
  2
AIGNBL02010039
 70
64
 10
0
 20
0
 30
0
  3
AIGNBL02010039
  0
POLYLINE
  8
LAYER_2
 40
0.4868
 41
0.4868
 66
1
 10
0
 20
0
 30
0
  0
VERTEX
  8
LAYER_2
 10
150.8987
 20
130.9813
 42
0.393534492
  0
VERTEX
  8
LAYER_2
 10
150.4453
 20
130.4955
  0
SEQEND
  0
ENDBLK
  0
BLOCK
  8
LAYER_2
  2
AIGNBL0201003A
 70
64
 10
0
 20
0
 30
0
  3
AIGNBL0201003A
  0
POLYLINE
  8
LAYER_2
 40
0.4868
 41
0.4868
 66
1
 10
0
 20
0
 30
0
  0
VERTEX
  8
LAYER_2
 10
149.1579
 20
127.4911
 42
0.4142331292
  0
VERTEX
  8
LAYER_2
 10
149.4505
 20
127.1985
  0
SEQEND
  0
POLYLINE
  8
LAYER_2
 40
0.4868
 41
0.4868
 66
1
 10
0
 20
0
 30
0
  0
VERTEX
  8
LAYER_2
 10
150.1136
 20
127.1985
 42
0.4141977275
  0
VERTEX
  8
LAYER_2
 10
150.4062
 20
127.4911
  0
SEQEND
  0
ENDBLK
  0
BLOCK
  8
LAYER_2
  2
AIGNBL0201003B
 70
64
 10
0
 20
0
 30
0
  3
AIGNBL0201003B
  0
POLYLINE
  8
LAYER_2
 40
0.4868
 41
0.4868
 66
1
 10
0
 20
0
 30
0
  0
VERTEX
  8
LAYER_2
 10
127.527
 20
143.6996
 42
0.4141560327
  0
VERTEX
  8
LAYER_2
 10
127.8196
 20
143.9922
  0
SEQEND
  0
ENDBLK
  0
BLOCK
  8
LAYER_2
  2
AIGNBL0201003C
 70
64
 10
0
 20
0
 30
0
  3
AIGNBL0201003C
  0
POLYLINE
  8
LAYER_2
 40
0.4868
 41
0.4868
 66
1
 10
0
 20
0
 30
0
  0
VERTEX
  8
LAYER_2
 10
127.9503
 20
141.3762
 42
0.3836754196
  0
VERTEX
  8
LAYER_2
 10
136.9096
 20
132.4385
  0
SEQEND
  0
POLYLINE
  8
LAYER_2
 40
0.4868
 41
0.4868
 66
1
 10
0
 20
0
 30
0
  0
VERTEX
  8
LAYER_2
 10
126.7399
 20
141.3663
 42
0.385333144
  0
VERTEX
  8
LAYER_2
 10
136.8535
 20
131.2305
  0
SEQEND
  0
ENDBLK
  0
BLOCK
  8
LAYER_2
  2
AIGNBL0201003D
 70
64
 10
0
 20
0
 30
0
  3
AIGNBL0201003D
  0
POLYLINE
  8
LAYER_2
 40
0.4868
 41
0.4868
 66
1
 10
0
 20
0
 30
0
  0
VERTEX
  8
LAYER_2
 10
124.6629
 20
142.6341
 42
0.4081441816
  0
VERTEX
  8
LAYER_2
 10
136.7747
 20
129.7068
  0
SEQEND
  0
POLYLINE
  8
LAYER_2
 40
0.4868
 41
0.4868
 66
1
 10
0
 20
0
 30
0
  0
VERTEX
  8
LAYER_2
 10
123.3336
 20
142.6176
 42
0.4017184941
  0
VERTEX
  8
LAYER_2
 10
136.7251
 20
128.502
  0
SEQEND
  0
POLYLINE
  8
LAYER_2
 40
0.4868
 41
0.4868
 66
1
 10
0
 20
0
 30
0
  0
VERTEX
  8
LAYER_2
 10
125.1474
 20
144.1678
 42
0.2085419341
  0
VERTEX
  8
LAYER_2
 10
124.79
 20
144.012
 42
0.2080198622
  0
VERTEX
  8
LAYER_2
 10
124.6609
 20
143.6446
  0
SEQEND
  0
ENDBLK
  0
BLOCK
  8
LAYER_2
  2
AIGNBL0201003E
 70
64
 10
0
 20
0
 30
0
  3
AIGNBL0201003E
  0
POLYLINE
  8
LAYER_2
 40
0.4868
 41
0.4868
 66
1
 10
0
 20
0
 30
0
  0
VERTEX
  8
LAYER_2
 10
127.0199
 20
141.6712
 42
0.4142174013
  0
VERTEX
  8
LAYER_2
 10
126.7272
 20
141.3786
  0
SEQEND
  0
POLYLINE
  8
LAYER_2
 40
0.4868
 41
0.4868
 66
1
 10
0
 20
0
 30
0
  0
VERTEX
  8
LAYER_2
 10
127.8976
 20
141.3786
 42
0.4141572844
  0
VERTEX
  8
LAYER_2
 10
127.605
 20
141.6712
  0
SEQEND
  0
POLYLINE
  8
LAYER_2
 40
0.4868
 41
0.4868
 66
1
 10
0
 20
0
 30
0
  0
VERTEX
  8
LAYER_2
 10
156.2701
 20
131.4012
 42
0.406999641
  0
VERTEX
  8
LAYER_2
 10
167.0123
 20
143.4655
  0
SEQEND
  0
POLYLINE
  8
LAYER_2
 40
0.4868
 41
0.4868
 66
1
 10
0
 20
0
 30
0
  0
VERTEX
  8
LAYER_2
 10
156.1852
 20
132.6075
 42
0.4069818734
  0
VERTEX
  8
LAYER_2
 10
165.8042
 20
143.4104
  0
SEQEND
  0
POLYLINE
  8
LAYER_2
 40
0.4868
 41
0.4868
 66
1
 10
0
 20
0
 30
0
  0
VERTEX
  8
LAYER_2
 10
167.5509
 20
144.0898
 42
0.4142922241
  0
VERTEX
  8
LAYER_2
 10
167.8435
 20
144.3824
  0
SEQEND
  0
ENDBLK
  0
BLOCK
  8
LAYER_2
  2
AIGNBL0201003F
 70
64
 10
0
 20
0
 30
0
  3
AIGNBL0201003F
  0
POLYLINE
  8
LAYER_2
 40
0.4868
 41
0.4868
 66
1
 10
0
 20
0
 30
0
  0
VERTEX
  8
LAYER_2
 10
167.8435
 20
145.3966
 42
0.4142194317
  0
VERTEX
  8
LAYER_2
 10
167.5509
 20
145.6892
  0
SEQEND
  0
POLYLINE
  8
LAYER_2
 40
0.4868
 41
0.4868
 66
1
 10
0
 20
0
 30
0
  0
VERTEX
  8
LAYER_2
 10
167.5232
 20
144.0645
 42
0.309338235
  0
VERTEX
  8
LAYER_2
 10
167.0276
 20
143.4739
  0
SEQEND
  0
ENDBLK
  0
BLOCK
  8
LAYER_2
  2
AIGNBL02010040
 70
64
 10
0
 20
0
 30
0
  3
AIGNBL02010040
  0
POLYLINE
  8
LAYER_2
 40
0.4868
 41
0.4868
 66
1
 10
0
 20
0
 30
0
  0
VERTEX
  8
LAYER_2
 10
166.1187
 20
145.689
 42
0.203343377
  0
VERTEX
  8
LAYER_2
 10
165.9046
 20
145.6074
 42
0.2036244922
  0
VERTEX
  8
LAYER_2
 10
165.815
 20
145.3963
  0
SEQEND
  0
ENDBLK
  0
BLOCK
  8
LAYER_2
  2
AIGNBL02010041
 70
64
 10
0
 20
0
 30
0
  3
AIGNBL02010041
  0
POLYLINE
  8
LAYER_2
 40
0.4868
 41
0.4868
 66
1
 10
0
 20
0
 30
0
  0
VERTEX
  8
LAYER_2
 10
166.3302
 20
145.6593
 42
0.3937570426
  0
VERTEX
  8
LAYER_2
 10
167.3674
 20
145.6593
  0
SEQEND
  0
ENDBLK
  0
BLOCK
  8
LAYER_2
  2
AIGNBL02010042
 70
64
 10
0
 20
0
 30
0
  3
AIGNBL02010042
  0
POLYLINE
  8
LAYER_2
 40
0.4868
 41
0.4868
 66
1
 10
0
 20
0
 30
0
  0
VERTEX
  8
LAYER_2
 10
167.8435
 20
145.3966
 42
0.4142194317
  0
VERTEX
  8
LAYER_2
 10
167.5509
 20
145.6892
  0
SEQEND
  0
POLYLINE
  8
LAYER_2
 40
0.4868
 41
0.4868
 66
1
 10
0
 20
0
 30
0
  0
VERTEX
  8
LAYER_2
 10
167.5509
 20
144.0898
 42
0.4142922241
  0
VERTEX
  8
LAYER_2
 10
167.8435
 20
144.3824
  0
SEQEND
  0
POLYLINE
  8
LAYER_2
 40
0.4868
 41
0.4868
 66
1
 10
0
 20
0
 30
0
  0
VERTEX
  8
LAYER_2
 10
167.5232
 20
144.0645
 42
0.309338235
  0
VERTEX
  8
LAYER_2
 10
167.0276
 20
143.4739
  0
SEQEND
  0
ENDBLK
  0
BLOCK
  8
LAYER_2
  2
AIGNBL02010043
 70
64
 10
0
 20
0
 30
0
  3
AIGNBL02010043
  0
POLYLINE
  8
LAYER_2
 40
0.1623
 41
0.1623
 66
1
 10
0
 20
0
 30
0
  0
VERTEX
  8
LAYER_2
 10
167.5509
 20
144.0898
 42
0.4142922241
  0
VERTEX
  8
LAYER_2
 10
167.8435
 20
144.3824
  0
SEQEND
  0
POLYLINE
  8
LAYER_2
 40
0.1623
 41
0.1623
 66
1
 10
0
 20
0
 30
0
  0
VERTEX
  8
LAYER_2
 10
167.8435
 20
145.3966
 42
0.4142194317
  0
VERTEX
  8
LAYER_2
 10
167.5509
 20
145.6892
  0
SEQEND
  0
ENDBLK
  0
BLOCK
  8
LAYER_2
  2
AIGNBL02010044
 70
64
 10
0
 20
0
 30
0
  3
AIGNBL02010044
  0
POLYLINE
  8
LAYER_2
 40
0.1623
 41
0.1623
 66
1
 10
0
 20
0
 30
0
  0
VERTEX
  8
LAYER_2
 10
143.3319
 20
130.5051
 42
0.2958675523
  0
VERTEX
  8
LAYER_2
 10
142.8657
 20
130.9696
  0
SEQEND
  0
ENDBLK
  0
BLOCK
  8
LAYER_2
  2
AIGNBL02010045
 70
64
 10
0
 20
0
 30
0
  3
AIGNBL02010045
  0
POLYLINE
  8
LAYER_2
 40
0.4868
 41
0.4868
 66
1
 10
0
 20
0
 30
0
  0
VERTEX
  8
LAYER_2
 10
126.6533
 20
143.9436
 42
0.3664594277
  0
VERTEX
  8
LAYER_2
 10
126.9419
 20
143.6995
  0
SEQEND
  0
POLYLINE
  8
LAYER_2
 40
0.4868
 41
0.4868
 66
1
 10
0
 20
0
 30
0
  0
VERTEX
  8
LAYER_2
 10
126.6452
 20
143.9238
 42
0.3664837549
  0
VERTEX
  8
LAYER_2
 10
126.3566
 20
144.1679
  0
SEQEND
  0
ENDBLK
  0
BLOCK
  8
LAYER_2
  2
AIGNBL02010046
 70
64
 10
0
 20
0
 30
0
  3
AIGNBL02010046
  0
POLYLINE
  8
LAYER_2
 40
0.1623
 41
0.1623
 66
1
 10
0
 20
0
 30
0
  0
VERTEX
  8
LAYER_2
 10
20.7957
 20
111.6727
 42
0.4142067615
  0
VERTEX
  8
LAYER_2
 10
20.5031
 20
111.3801
  0
SEQEND
  0
ENDBLK
  0
BLOCK
  8
LAYER_2
  2
AIGNBL02010047
 70
64
 10
0
 20
0
 30
0
  3
AIGNBL02010047
  0
POLYLINE
  8
LAYER_2
 40
0.1623
 41
0.1623
 66
1
 10
0
 20
0
 30
0
  0
VERTEX
  8
LAYER_2
 10
43.0117
 20
96.4784
 42
0.1984378735
  0
VERTEX
  8
LAYER_2
 10
42.8688
 20
96.8236
 42
0.1984166837
  0
VERTEX
  8
LAYER_2
 10
42.5233
 20
96.9662
  0
SEQEND
  0
POLYLINE
  8
LAYER_2
 40
0.1623
 41
0.1623
 66
1
 10
0
 20
0
 30
0
  0
VERTEX
  8
LAYER_2
 10
72.2105
 20
110.0733
 42
0.4142138142
  0
VERTEX
  8
LAYER_2
 10
72.5031
 20
110.3659
  0
SEQEND
  0
ENDBLK
  0
BLOCK
  8
LAYER_2
  2
AIGNBL02010048
 70
64
 10
0
 20
0
 30
0
  3
AIGNBL02010048
  0
POLYLINE
  8
LAYER_2
 40
0.1623
 41
0.1623
 66
1
 10
0
 20
0
 30
0
  0
VERTEX
  8
LAYER_2
 10
72.503
 20
111.3801
 42
0.4142749585
  0
VERTEX
  8
LAYER_2
 10
72.2104
 20
111.6727
  0
SEQEND
  0
ENDBLK
  0
BLOCK
  8
LAYER_2
  2
AIGNBL02010049
 70
64
 10
0
 20
0
 30
0
  3
AIGNBL02010049
  0
POLYLINE
  8
LAYER_2
 40
0.1623
 41
0.1623
 66
1
 10
0
 20
0
 30
0
  0
VERTEX
  8
LAYER_2
 10
49.7019
 20
93.1821
 42
0.414204291
  0
VERTEX
  8
LAYER_2
 10
49.9945
 20
93.4747
  0
SEQEND
  0
POLYLINE
  8
LAYER_2
 40
0.1623
 41
0.1623
 66
1
 10
0
 20
0
 30
0
  0
VERTEX
  8
LAYER_2
 10
50.5218
 20
96.966
 42
0.1984544463
  0
VERTEX
  8
LAYER_2
 10
50.1766
 20
96.8234
 42
0.1993994576
  0
VERTEX
  8
LAYER_2
 10
50.0333
 20
96.4782
  0
SEQEND
  0
POLYLINE
  8
LAYER_2
 40
0.1623
 41
0.1623
 66
1
 10
0
 20
0
 30
0
  0
VERTEX
  8
LAYER_2
 10
72.2217
 20
110.0481
 42
0.3092969064
  0
VERTEX
  8
LAYER_2
 10
71.7262
 20
109.4575
  0
SEQEND
  0
POLYLINE
  8
LAYER_2
 40
0.1623
 41
0.1623
 66
1
 10
0
 20
0
 30
0
  0
VERTEX
  8
LAYER_2
 10
20.5031
 20
110.3659
 42
0.4142122577
  0
VERTEX
  8
LAYER_2
 10
20.7957
 20
110.0733
  0
SEQEND
  0
POLYLINE
  8
LAYER_2
 40
0.1623
 41
0.1623
 66
1
 10
0
 20
0
 30
0
  0
VERTEX
  8
LAYER_2
 10
21.28
 20
109.4573
 42
0.3093158447
  0
VERTEX
  8
LAYER_2
 10
20.7845
 20
110.0479
  0
SEQEND
  0
ENDBLK
  0
BLOCK
  8
LAYER_2
  2
AIGNBL0201004A
 70
64
 10
0
 20
0
 30
0
  3
AIGNBL0201004A
  0
POLYLINE
  8
LAYER_2
 40
0.4868
 41
0.4868
 66
1
 10
0
 20
0
 30
0
  0
VERTEX
  8
LAYER_2
 10
43.0117
 20
96.4784
 42
0.1984378735
  0
VERTEX
  8
LAYER_2
 10
42.8688
 20
96.8236
 42
0.1984166837
  0
VERTEX
  8
LAYER_2
 10
42.5233
 20
96.9662
  0
SEQEND
  0
ENDBLK
  0
BLOCK
  8
LAYER_2
  2
AIGNBL0201004B
 70
64
 10
0
 20
0
 30
0
  3
AIGNBL0201004B
  0
POLYLINE
  8
LAYER_2
 40
0.4868
 41
0.4868
 66
1
 10
0
 20
0
 30
0
  0
VERTEX
  8
LAYER_2
 10
43.1018
 20
98.0685
 42
0.1595520063
  0
VERTEX
  8
LAYER_2
 10
42.817
 20
98.175
  0
SEQEND
  0
ENDBLK
  0
BLOCK
  8
LAYER_2
  2
AIGNBL0201004C
 70
64
 10
0
 20
0
 30
0
  3
AIGNBL0201004C
  0
POLYLINE
  8
LAYER_2
 40
0.4868
 41
0.4868
 66
1
 10
0
 20
0
 30
0
  0
VERTEX
  8
LAYER_2
 10
43.0117
 20
93.4747
 42
0.4142336314
  0
VERTEX
  8
LAYER_2
 10
43.3043
 20
93.182
  0
SEQEND
  0
POLYLINE
  8
LAYER_2
 40
0.4868
 41
0.4868
 66
1
 10
0
 20
0
 30
0
  0
VERTEX
  8
LAYER_2
 10
43.9285
 20
93.1821
 42
0.4141920419
  0
VERTEX
  8
LAYER_2
 10
44.2211
 20
93.4747
  0
SEQEND
  0
ENDBLK
  0
BLOCK
  8
LAYER_2
  2
AIGNBL0201004D
 70
64
 10
0
 20
0
 30
0
  3
AIGNBL0201004D
  0
POLYLINE
  8
LAYER_2
 40
0.4868
 41
0.4868
 66
1
 10
0
 20
0
 30
0
  0
VERTEX
  8
LAYER_2
 10
22.5316
 20
111.3798
 42
0.2036032322
  0
VERTEX
  8
LAYER_2
 10
22.4419
 20
111.5908
 42
0.2041269467
  0
VERTEX
  8
LAYER_2
 10
22.2279
 20
111.6724
  0
SEQEND
  0
POLYLINE
  8
LAYER_2
 40
0.1623
 41
0.1623
 66
1
 10
0
 20
0
 30
0
  0
VERTEX
  8
LAYER_2
 10
47.4978
 20
108.6884
 42
0.4142160081
  0
VERTEX
  8
LAYER_2
 10
46.5031
 20
109.6832
 42
0.4142367532
  0
VERTEX
  8
LAYER_2
 10
45.5083
 20
108.6884
 42
0.4142111172
  0
VERTEX
  8
LAYER_2
 10
46.5031
 20
107.6937
 42
0.4141903716
  0
VERTEX
  8
LAYER_2
 10
47.4978
 20
108.6884
  0
SEQEND
  0
ENDBLK
  0
BLOCK
  8
LAYER_2
  2
AIGNBL0201004E
 70
64
 10
0
 20
0
 30
0
  3
AIGNBL0201004E
  0
POLYLINE
  8
LAYER_2
 40
0.4868
 41
0.4868
 66
1
 10
0
 20
0
 30
0
  0
VERTEX
  8
LAYER_2
 10
50.2284
 20
98.1749
 42
0.1609557948
  0
VERTEX
  8
LAYER_2
 10
49.9435
 20
98.0684
  0
SEQEND
  0
ENDBLK
  0
BLOCK
  8
LAYER_2
  2
AIGNBL0201004F
 70
64
 10
0
 20
0
 30
0
  3
AIGNBL0201004F
  0
POLYLINE
  8
LAYER_2
 40
0.4868
 41
0.4868
 66
1
 10
0
 20
0
 30
0
  0
VERTEX
  8
LAYER_2
 10
50.5218
 20
96.966
 42
0.1984544463
  0
VERTEX
  8
LAYER_2
 10
50.1766
 20
96.8234
 42
0.1993994576
  0
VERTEX
  8
LAYER_2
 10
50.0333
 20
96.4782
  0
SEQEND
  0
ENDBLK
  0
BLOCK
  8
LAYER_2
  2
AIGNBL02010050
 70
64
 10
0
 20
0
 30
0
  3
AIGNBL02010050
  0
POLYLINE
  8
LAYER_2
 40
0.4868
 41
0.4868
 66
1
 10
0
 20
0
 30
0
  0
VERTEX
  8
LAYER_2
 10
48.8242
 20
93.4747
 42
0.4142860496
  0
VERTEX
  8
LAYER_2
 10
49.1168
 20
93.182
  0
SEQEND
  0
POLYLINE
  8
LAYER_2
 40
0.4868
 41
0.4868
 66
1
 10
0
 20
0
 30
0
  0
VERTEX
  8
LAYER_2
 10
49.7019
 20
93.1821
 42
0.414204291
  0
VERTEX
  8
LAYER_2
 10
49.9945
 20
93.4747
  0
SEQEND
  0
POLYLINE
  8
LAYER_2
 40
0.4868
 41
0.4868
 66
1
 10
0
 20
0
 30
0
  0
VERTEX
  8
LAYER_2
 10
20.9793
 20
111.6428
 42
0.3937351156
  0
VERTEX
  8
LAYER_2
 10
22.0165
 20
111.6428
  0
SEQEND
  0
POLYLINE
  8
LAYER_2
 40
0.4868
 41
0.4868
 66
1
 10
0
 20
0
 30
0
  0
VERTEX
  8
LAYER_2
 10
43.0117
 20
93.4747
 42
0.4142336314
  0
VERTEX
  8
LAYER_2
 10
43.3043
 20
93.182
  0
SEQEND
  0
ENDBLK
  0
BLOCK
  8
LAYER_2
  2
AIGNBL02010051
 70
64
 10
0
 20
0
 30
0
  3
AIGNBL02010051
  0
POLYLINE
  8
LAYER_2
 40
0.1623
 41
0.1623
 66
1
 10
0
 20
0
 30
0
  0
VERTEX
  8
LAYER_2
 10
21.3343
 20
109.4881
 42
0.4070012202
  0
VERTEX
  8
LAYER_2
 10
32.0766
 20
97.4237
  0
SEQEND
  0
POLYLINE
  8
LAYER_2
 40
0.1623
 41
0.1623
 66
1
 10
0
 20
0
 30
0
  0
VERTEX
  8
LAYER_2
 10
60.9686
 20
97.4237
 42
0.4069994586
  0
VERTEX
  8
LAYER_2
 10
71.7109
 20
109.488
  0
SEQEND
  0
ENDBLK
  0
BLOCK
  8
LAYER_2
  2
AIGNBL02010052
 70
64
 10
0
 20
0
 30
0
  3
AIGNBL02010052
  0
POLYLINE
  8
LAYER_2
 40
0.4868
 41
0.4868
 66
1
 10
0
 20
0
 30
0
  0
VERTEX
  8
LAYER_2
 10
20.7957
 20
111.6727
 42
0.4142067615
  0
VERTEX
  8
LAYER_2
 10
20.5031
 20
111.3801
  0
SEQEND
  0
POLYLINE
  8
LAYER_2
 40
0.4868
 41
0.4868
 66
1
 10
0
 20
0
 30
0
  0
VERTEX
  8
LAYER_2
 10
20.5031
 20
110.3659
 42
0.4142122577
  0
VERTEX
  8
LAYER_2
 10
20.7957
 20
110.0733
  0
SEQEND
  0
POLYLINE
  8
LAYER_2
 40
0.4868
 41
0.4868
 66
1
 10
0
 20
0
 30
0
  0
VERTEX
  8
LAYER_2
 10
21.28
 20
109.4573
 42
0.3093158447
  0
VERTEX
  8
LAYER_2
 10
20.7845
 20
110.0479
  0
SEQEND
  0
POLYLINE
  8
LAYER_2
 40
0.4868
 41
0.4868
 66
1
 10
0
 20
0
 30
0
  0
VERTEX
  8
LAYER_2
 10
21.3343
 20
109.4881
 42
0.4070012202
  0
VERTEX
  8
LAYER_2
 10
32.0766
 20
97.4237
  0
SEQEND
  0
POLYLINE
  8
LAYER_2
 40
0.4868
 41
0.4868
 66
1
 10
0
 20
0
 30
0
  0
VERTEX
  8
LAYER_2
 10
22.5424
 20
109.433
 42
0.4069981116
  0
VERTEX
  8
LAYER_2
 10
32.1614
 20
98.6301
  0
SEQEND
  0
ENDBLK
  0
BLOCK
  8
LAYER_2
  2
AIGNBL02010053
 70
64
 10
0
 20
0
 30
0
  3
AIGNBL02010053
  0
POLYLINE
  8
LAYER_2
 40
0.4868
 41
0.4868
 66
1
 10
0
 20
0
 30
0
  0
VERTEX
  8
LAYER_2
 10
70.8173
 20
111.6725
 42
0.2033693394
  0
VERTEX
  8
LAYER_2
 10
70.6032
 20
111.5909
 42
0.2035672577
  0
VERTEX
  8
LAYER_2
 10
70.5135
 20
111.3799
  0
SEQEND
  0
ENDBLK
  0
BLOCK
  8
LAYER_2
  2
AIGNBL02010054
 70
64
 10
0
 20
0
 30
0
  3
AIGNBL02010054
  0
POLYLINE
  8
LAYER_2
 40
0.4868
 41
0.4868
 66
1
 10
0
 20
0
 30
0
  0
VERTEX
  8
LAYER_2
 10
70.9897
 20
111.6428
 42
0.3937628856
  0
VERTEX
  8
LAYER_2
 10
72.027
 20
111.6428
  0
SEQEND
  0
ENDBLK
  0
BLOCK
  8
LAYER_2
  2
AIGNBL02010055
 70
64
 10
0
 20
0
 30
0
  3
AIGNBL02010055
  0
POLYLINE
  8
LAYER_2
 40
0.4868
 41
0.4868
 66
1
 10
0
 20
0
 30
0
  0
VERTEX
  8
LAYER_2
 10
72.503
 20
111.3801
 42
0.4142749585
  0
VERTEX
  8
LAYER_2
 10
72.2104
 20
111.6727
  0
SEQEND
  0
POLYLINE
  8
LAYER_2
 40
0.4868
 41
0.4868
 66
1
 10
0
 20
0
 30
0
  0
VERTEX
  8
LAYER_2
 10
72.2105
 20
110.0733
 42
0.4142138142
  0
VERTEX
  8
LAYER_2
 10
72.5031
 20
110.3659
  0
SEQEND
  0
POLYLINE
  8
LAYER_2
 40
0.4868
 41
0.4868
 66
1
 10
0
 20
0
 30
0
  0
VERTEX
  8
LAYER_2
 10
72.2217
 20
110.0481
 42
0.3092969064
  0
VERTEX
  8
LAYER_2
 10
71.7262
 20
109.4575
  0
SEQEND
  0
POLYLINE
  8
LAYER_2
 40
0.4868
 41
0.4868
 66
1
 10
0
 20
0
 30
0
  0
VERTEX
  8
LAYER_2
 10
60.9686
 20
97.4237
 42
0.4069994586
  0
VERTEX
  8
LAYER_2
 10
71.7109
 20
109.488
  0
SEQEND
  0
POLYLINE
  8
LAYER_2
 40
0.4868
 41
0.4868
 66
1
 10
0
 20
0
 30
0
  0
VERTEX
  8
LAYER_2
 10
60.8837
 20
98.63
 42
0.4069822238
  0
VERTEX
  8
LAYER_2
 10
70.5028
 20
109.4329
  0
SEQEND
  0
ENDBLK
  0
BLOCK
  8
LAYER_2
  2
AIGNBL02010056
 70
64
 10
0
 20
0
 30
0
  3
AIGNBL02010056
  0
POLYLINE
  8
LAYER_2
 40
0.1623
 41
0.1623
 66
1
 10
0
 20
0
 30
0
  0
VERTEX
  8
LAYER_2
 10
48.7461
 20
154.4078
 42
0.4142147081
  0
VERTEX
  8
LAYER_2
 10
46.464
 20
156.6899
 42
0.4142150908
  0
VERTEX
  8
LAYER_2
 10
44.1819
 20
154.4078
 42
0.4142124166
  0
VERTEX
  8
LAYER_2
 10
46.464
 20
152.1257
 42
0.4142120341
  0
VERTEX
  8
LAYER_2
 10
48.7461
 20
154.4078
  0
SEQEND
  0
POLYLINE
  8
LAYER_2
 40
0.1623
 41
0.1623
 66
1
 10
0
 20
0
 30
0
  0
VERTEX
  8
LAYER_2
 10
50.0335
 20
154.4078
 42
0.414211504
  0
VERTEX
  8
LAYER_2
 10
46.5031
 20
157.9382
 42
0.4142173495
  0
VERTEX
  8
LAYER_2
 10
42.9727
 20
154.4078
 42
0.4142156208
  0
VERTEX
  8
LAYER_2
 10
46.5031
 20
150.8774
 42
0.4142097755
  0
VERTEX
  8
LAYER_2
 10
50.0335
 20
154.4078
  0
SEQEND
  0
ENDBLK
  0
BLOCK
  8
LAYER_2
  2
AIGNBL02010057
 70
64
 10
0
 20
0
 30
0
  3
AIGNBL02010057
  0
POLYLINE
  8
LAYER_2
 40
0.1623
 41
0.1623
 66
1
 10
0
 20
0
 30
0
  0
VERTEX
  8
LAYER_2
 10
45.5083
 20
172.5083
 42
0.1938501107
  0
VERTEX
  8
LAYER_2
 10
45.5606
 20
172.402
 42
0.09387571193
  0
VERTEX
  8
LAYER_2
 10
45.7279
 20
172.3005
 42
0.05476452201
  0
VERTEX
  8
LAYER_2
 10
46.0502
 20
172.2129
 42
0.04185127218
  0
VERTEX
  8
LAYER_2
 10
46.5031
 20
172.1766
 42
0.102973449
  0
VERTEX
  8
LAYER_2
 10
47.3476
 20
172.333
 42
0.2388104909
  0
VERTEX
  8
LAYER_2
 10
47.4979
 20
172.5083
 42
0.1938478568
  0
VERTEX
  8
LAYER_2
 10
47.4456
 20
172.6146
 42
0.09391147196
  0
VERTEX
  8
LAYER_2
 10
47.2783
 20
172.7162
 42
0.05382477953
  0
VERTEX
  8
LAYER_2
 10
46.9667
 20
172.8018
 42
0.04309990604
  0
VERTEX
  8
LAYER_2
 10
46.5031
 20
172.84
 42
0.1029590714
  0
VERTEX
  8
LAYER_2
 10
45.6586
 20
172.6837
 42
0.2388684342
  0
VERTEX
  8
LAYER_2
 10
45.5083
 20
172.5083
  0
SEQEND
  0
ENDBLK
  0
ENDSEC
  0
SECTION
  2
ENTITIES
  0
TEXT
  8
LAYER_2
 10
-26.2556
 20
43.1712
 11
-26.2556
 21
43.1712
 40
3.2995
 41
0.5
  1
仕様
  0
POLYLINE
  8
LAYER_2
 40
0.3528
 41
0.3528
 66
1
 10
0
 20
0
 30
0
  0
VERTEX
  8
LAYER_2
 10
250.6748
 20
51.9507
  0
VERTEX
  8
LAYER_2
 10
-29.3178
 20
51.9507
  0
SEQEND
  0
INSERT
  8
LAYER_2
  2
AIGNBL02010002
 10
0
 20
0
 30
0
  0
POLYLINE
  8
LAYER_2
 40
0.3528
 41
0.3528
 66
1
 10
0
 20
0
 30
0
  0
VERTEX
  8
LAYER_2
 10
-29.3178
 20
229.3369
  0
VERTEX
  8
LAYER_2
 10
-29.3178
 20
34.3283
  0
VERTEX
  8
LAYER_2
 10
250.6748
 20
34.3283
  0
VERTEX
  8
LAYER_2
 10
250.6748
 20
229.3369
  0
VERTEX
  8
LAYER_2
 10
-29.3178
 20
229.3369
  0
SEQEND
  0
POLYLINE
  8
LAYER_2
 40
0.3528
 41
0.3528
 66
1
 10
0
 20
0
 30
0
  0
VERTEX
  8
LAYER_2
 10
250.6748
 20
60.4597
  0
VERTEX
  8
LAYER_2
 10
-29.3178
 20
60.4597
  0
SEQEND
  0
POLYLINE
  8
LAYER_2
 40
0.3528
 41
0.3528
 66
1
 10
0
 20
0
 30
0
  0
VERTEX
  8
LAYER_2
 10
250.6748
 20
43.4416
  0
VERTEX
  8
LAYER_2
 10
143.5341
 20
43.4416
  0
SEQEND
  0
TEXT
  8
LAYER_2
 10
188.1725
 20
45.7175
 11
188.1725
 21
45.7175
 40
3.7615
 41
0.5
  1
1/10
  0
TEXT
  8
LAYER_2
 10
182.8808
 20
49.4743
 11
182.8808
 21
49.4743
 40
2.1997
 41
0.5
  1
縮尺
  0
POLYLINE
  8
LAYER_2
 40
0.3528
 41
0.3528
 66
1
 10
0
 20
0
 30
0
  0
VERTEX
  8
LAYER_2
 10
181.3526
 20
43.4416
  0
VERTEX
  8
LAYER_2
 10
181.3526
 20
51.9507
  0
SEQEND
  0
TEXT
  8
LAYER_2
 10
144.2327
 20
57.9834
 11
144.2327
 21
57.9834
 40
2.1997
 41
0.5
  1
品番
  0
TEXT
  8
LAYER_2
 10
-28.1609
 20
57.9834
 11
-28.1609
 21
57.9834
 40
2.1997
 41
0.5
  1
品名
  0
TEXT
  8
LAYER_2
 10
144.2327
 20
49.4743
 11
144.2327
 21
49.4743
 40
2.1997
 41
0.5
  1
重量
  0
TEXT
  8
LAYER_2
 10
150.2547
 20
54.1514
 11
150.2547
 21
54.1514
 40
5.9385
 41
0.5
  1
CIE-EJLASPO/
  0
TEXT
  8
LAYER_2
 10
149.5454
 20
45.7175
 11
149.5454
 21
45.7175
 40
3.7615
 41
0.5
  1
7.45kg
  0
POLYLINE
  8
LAYER_2
 40
0.3528
 41
0.3528
 66
1
 10
0
 20
0
 30
0
  0
VERTEX
  8
LAYER_2
 10
143.5341
 20
34.9539
  0
VERTEX
  8
LAYER_2
 10
143.5341
 20
60.4597
  0
SEQEND
  0
TEXT
  8
LAYER_2
 10
-15.2849
 20
54.891
 11
-15.2849
 21
54.891
 40
4.1465
 41
0.5
  1
エンジョイアンダーカウンター型洗面器520ｍｍ
  0
INSERT
  8
LAYER_2
  2
AIGNBL02010003
 10
0
 20
0
 30
0
  0
TEXT
  8
LAYER_2
 10
-15.6835
 20
45.3736
 11
-15.6835
 21
45.3736
 40
3.1177
 41
0.5
  1
●設置方法：アンダーカウンター●水栓取付穴：なし●オーバーフロー：あり
  0
TEXT
  8
LAYER_2
 10
-15.6835
 20
40.6235
 11
-15.6835
 21
40.6235
 40
3.1177
 41
0.5
  1
●排水金具別途
  0
TEXT
  8
LAYER_2
 10
237.263
 20
63.2582
 11
237.263
 21
63.2582
 40
2.9618
 41
0.5
  1
単位：mm
  0
TEXT
  8
LAYER_2
 10
6.5217
 20
219.7385
 11
6.5217
 21
219.7385
 40
2.5981
 41
0.5
  1
※陶器製品は寸法公差が発生します。カウンター切り込みの際は必ず現物を合わせてご確認ください。
  0
TEXT
  8
LAYER_2
 10
6.5217
 20
214.9886
 11
6.5217
 21
214.9886
 40
2.5981
 41
0.5
  1
※製品と接する部分には必ずコーキング処理を行ってください。
  0
TEXT
  8
LAYER_2
 10
176.0254
 20
39.5359
 11
176.0254
 21
39.5359
 40
3.3853
 41
0.5
  1
●TEL 0120-65-1232●FAX 06-6532-1580
  0
TEXT
  8
LAYER_2
 10
176.0254
 20
36.0212
 11
176.0254
 21
36.0212
 40
3.3853
 41
0.5
  1
hits@hiratatile.co.jp
  0
TEXT
  8
LAYER_2
 10
240.3591
 20
225.8432
 11
240.3591
 21
225.8432
 40
2.0732
 41
0.5
  1
180604RT
  0
INSERT
  8
LAYER_2
  2
AIGNBL02010006
 10
0
 20
0
 30
0
  0
TEXT
  8
LAYER_2
 10
174.1924
 20
166.5236
 11
174.1924
 21
166.5236
 40
3.5541
 41
0.5
  1
カウンター開口寸法：460×360mm
  0
POLYLINE
  8
LAYER_2
 40
0.1623
 41
0.1623
 66
1
 10
0
 20
0
 30
0
  0
VERTEX
  8
LAYER_2
 10
119.7836
 20
111.6727
  0
VERTEX
  8
LAYER_2
 10
171.1985
 20
111.6727
  0
SEQEND
  0
INSERT
  8
LAYER_2
  2
AIGNBL02010028
 10
0
 20
0
 30
0
  0
POLYLINE
  8
LAYER_2
 40
0.1623
 41
0.1623
 66
1
 10
0
 20
0
 30
0
  0
VERTEX
  8
LAYER_2
 10
141.785
 20
93.4552
  0
VERTEX
  8
LAYER_2
 10
141.785
 20
96.459
  0
SEQEND
  0
INSERT
  8
LAYER_2
  2
AIGNBL02010029
 10
0
 20
0
 30
0
  0
POLYLINE
  8
LAYER_2
 40
0.1623
 41
0.1623
 66
1
 10
0
 20
0
 30
0
  0
VERTEX
  8
LAYER_2
 10
149.1969
 20
93.4552
  0
VERTEX
  8
LAYER_2
 10
149.1969
 20
96.459
  0
SEQEND
  0
INSERT
  8
LAYER_2
  2
AIGNBL0201002A
 10
0
 20
0
 30
0
  0
POLYLINE
  8
LAYER_2
 40
0.1623
 41
0.1623
 66
1
 10
0
 20
0
 30
0
  0
VERTEX
  8
LAYER_2
 10
148.8848
 20
93.1431
  0
VERTEX
  8
LAYER_2
 10
142.097
 20
93.1431
  0
SEQEND
  0
INSERT
  8
LAYER_2
  2
AIGNBL0201002B
 10
0
 20
0
 30
0
  0
POLYLINE
  8
LAYER_2
 40
0.1623
 41
0.1623
 66
1
 10
0
 20
0
 30
0
  0
VERTEX
  8
LAYER_2
 10
148.6898
 20
111.6727
  0
VERTEX
  8
LAYER_2
 10
148.6898
 20
93.455
  0
SEQEND
  0
INSERT
  8
LAYER_2
  2
AIGNBL0201002C
 10
0
 20
0
 30
0
  0
POLYLINE
  8
LAYER_2
 40
0.1623
 41
0.1623
 66
1
 10
0
 20
0
 30
0
  0
VERTEX
  8
LAYER_2
 10
148.4167
 20
93.1431
  0
VERTEX
  8
LAYER_2
 10
142.6041
 20
93.1431
  0
SEQEND
  0
INSERT
  8
LAYER_2
  2
AIGNBL0201002D
 10
0
 20
0
 30
0
  0
POLYLINE
  8
LAYER_2
 40
0.1623
 41
0.1623
 66
1
 10
0
 20
0
 30
0
  0
VERTEX
  8
LAYER_2
 10
142.2922
 20
93.4552
  0
VERTEX
  8
LAYER_2
 10
142.2922
 20
111.6729
  0
VERTEX
  8
LAYER_2
 10
148.6899
 20
111.6729
  0
SEQEND
  0
POLYLINE
  8
LAYER_2
 40
0.1058
 41
0.1058
 66
1
 10
0
 20
0
 30
0
  0
VERTEX
  8
LAYER_2
 10
50.5016
 20
175.8827
  0
VERTEX
  8
LAYER_2
 10
50.5016
 20
176.4679
  0
SEQEND
  0
POLYLINE
  8
LAYER_2
 40
0.1058
 41
0.1058
 66
1
 10
0
 20
0
 30
0
  0
VERTEX
  8
LAYER_2
 10
50.5016
 20
176.7799
  0
VERTEX
  8
LAYER_2
 10
50.5016
 20
177.4042
  0
VERTEX
  8
LAYER_2
 10
50.4625
 20
177.482
  0
VERTEX
  8
LAYER_2
 10
50.4625
 20
177.5599
  0
VERTEX
  8
LAYER_2
 10
50.4237
 20
177.6381
  0
VERTEX
  8
LAYER_2
 10
50.3846
 20
177.716
  0
VERTEX
  8
LAYER_2
 10
50.3064
 20
177.7551
  0
VERTEX
  8
LAYER_2
 10
50.2285
 20
177.8333
  0
VERTEX
  8
LAYER_2
 10
50.1503
 20
177.8721
  0
VERTEX
  8
LAYER_2
 10
50.0724
 20
177.8721
  0
VERTEX
  8
LAYER_2
 10
49.9946
 20
177.8721
  0
SEQEND
  0
POLYLINE
  8
LAYER_2
 40
0.1058
 41
0.1058
 66
1
 10
0
 20
0
 30
0
  0
VERTEX
  8
LAYER_2
 10
42.4656
 20
175.8827
  0
VERTEX
  8
LAYER_2
 10
42.4656
 20
176.4679
  0
SEQEND
  0
POLYLINE
  8
LAYER_2
 40
0.1058
 41
0.1058
 66
1
 10
0
 20
0
 30
0
  0
VERTEX
  8
LAYER_2
 10
42.4656
 20
176.7799
  0
VERTEX
  8
LAYER_2
 10
42.4656
 20
177.4042
  0
SEQEND
  0
POLYLINE
  8
LAYER_2
 40
0.1058
 41
0.1058
 66
1
 10
0
 20
0
 30
0
  0
VERTEX
  8
LAYER_2
 10
41.9975
 20
175.3755
  0
VERTEX
  8
LAYER_2
 10
42.0753
 20
175.4146
  0
VERTEX
  8
LAYER_2
 10
42.1535
 20
175.4146
  0
VERTEX
  8
LAYER_2
 10
42.2314
 20
175.4534
  0
VERTEX
  8
LAYER_2
 10
42.3096
 20
175.4925
  0
VERTEX
  8
LAYER_2
 10
42.3487
 20
175.5707
  0
VERTEX
  8
LAYER_2
 10
42.4266
 20
175.6486
  0
VERTEX
  8
LAYER_2
 10
42.4657
 20
175.7268
  0
VERTEX
  8
LAYER_2
 10
42.4657
 20
175.8047
  0
VERTEX
  8
LAYER_2
 10
42.4657
 20
175.8825
  0
SEQEND
  0
POLYLINE
  8
LAYER_2
 40
0.1058
 41
0.1058
 66
1
 10
0
 20
0
 30
0
  0
VERTEX
  8
LAYER_2
 10
49.9944
 20
177.8721
  0
VERTEX
  8
LAYER_2
 10
49.4874
 20
177.8721
  0
SEQEND
  0
POLYLINE
  8
LAYER_2
 40
0.1058
 41
0.1058
 66
1
 10
0
 20
0
 30
0
  0
VERTEX
  8
LAYER_2
 10
49.1753
 20
177.8721
  0
VERTEX
  8
LAYER_2
 10
48.551
 20
177.8721
  0
SEQEND
  0
POLYLINE
  8
LAYER_2
 40
0.1058
 41
0.1058
 66
1
 10
0
 20
0
 30
0
  0
VERTEX
  8
LAYER_2
 10
48.239
 20
177.8721
  0
VERTEX
  8
LAYER_2
 10
47.5759
 20
177.8721
  0
SEQEND
  0
POLYLINE
  8
LAYER_2
 40
0.1058
 41
0.1058
 66
1
 10
0
 20
0
 30
0
  0
VERTEX
  8
LAYER_2
 10
47.2638
 20
177.8721
  0
VERTEX
  8
LAYER_2
 10
46.6395
 20
177.8721
  0
SEQEND
  0
POLYLINE
  8
LAYER_2
 40
0.1058
 41
0.1058
 66
1
 10
0
 20
0
 30
0
  0
VERTEX
  8
LAYER_2
 10
46.3275
 20
177.8721
  0
VERTEX
  8
LAYER_2
 10
45.7032
 20
177.8721
  0
SEQEND
  0
POLYLINE
  8
LAYER_2
 40
0.1058
 41
0.1058
 66
1
 10
0
 20
0
 30
0
  0
VERTEX
  8
LAYER_2
 10
45.3523
 20
177.8721
  0
VERTEX
  8
LAYER_2
 10
44.728
 20
177.8721
  0
SEQEND
  0
POLYLINE
  8
LAYER_2
 40
0.1058
 41
0.1058
 66
1
 10
0
 20
0
 30
0
  0
VERTEX
  8
LAYER_2
 10
44.4161
 20
177.8721
  0
VERTEX
  8
LAYER_2
 10
43.7918
 20
177.8721
  0
SEQEND
  0
POLYLINE
  8
LAYER_2
 40
0.1058
 41
0.1058
 66
1
 10
0
 20
0
 30
0
  0
VERTEX
  8
LAYER_2
 10
43.4798
 20
177.8721
  0
VERTEX
  8
LAYER_2
 10
42.9728
 20
177.8721
  0
VERTEX
  8
LAYER_2
 10
42.8946
 20
177.8721
  0
VERTEX
  8
LAYER_2
 10
42.8167
 20
177.8721
  0
VERTEX
  8
LAYER_2
 10
42.7385
 20
177.833
  0
VERTEX
  8
LAYER_2
 10
42.6607
 20
177.7552
  0
VERTEX
  8
LAYER_2
 10
42.5825
 20
177.7161
  0
VERTEX
  8
LAYER_2
 10
42.5437
 20
177.6382
  0
VERTEX
  8
LAYER_2
 10
42.5046
 20
177.56
  0
VERTEX
  8
LAYER_2
 10
42.5046
 20
177.4821
  0
VERTEX
  8
LAYER_2
 10
42.4655
 20
177.4039
  0
SEQEND
  0
POLYLINE
  8
LAYER_2
 40
0.1058
 41
0.1058
 66
1
 10
0
 20
0
 30
0
  0
VERTEX
  8
LAYER_2
 10
50.9697
 20
175.3755
  0
VERTEX
  8
LAYER_2
 10
51.6328
 20
175.3755
  0
SEQEND
  0
POLYLINE
  8
LAYER_2
 40
0.1058
 41
0.1058
 66
1
 10
0
 20
0
 30
0
  0
VERTEX
  8
LAYER_2
 10
51.945
 20
175.3755
  0
VERTEX
  8
LAYER_2
 10
52.5693
 20
175.3755
  0
SEQEND
  0
POLYLINE
  8
LAYER_2
 40
0.1058
 41
0.1058
 66
1
 10
0
 20
0
 30
0
  0
VERTEX
  8
LAYER_2
 10
52.8812
 20
175.3755
  0
VERTEX
  8
LAYER_2
 10
53.5442
 20
175.3755
  0
SEQEND
  0
POLYLINE
  8
LAYER_2
 40
0.1058
 41
0.1058
 66
1
 10
0
 20
0
 30
0
  0
VERTEX
  8
LAYER_2
 10
53.8564
 20
175.3755
  0
VERTEX
  8
LAYER_2
 10
54.4807
 20
175.3755
  0
SEQEND
  0
POLYLINE
  8
LAYER_2
 40
0.1058
 41
0.1058
 66
1
 10
0
 20
0
 30
0
  0
VERTEX
  8
LAYER_2
 10
50.5016
 20
175.8827
  0
VERTEX
  8
LAYER_2
 10
50.5016
 20
175.8048
  0
VERTEX
  8
LAYER_2
 10
50.5016
 20
175.7266
  0
VERTEX
  8
LAYER_2
 10
50.5407
 20
175.6487
  0
VERTEX
  8
LAYER_2
 10
50.6185
 20
175.5705
  0
VERTEX
  8
LAYER_2
 10
50.6576
 20
175.4926
  0
VERTEX
  8
LAYER_2
 10
50.7355
 20
175.4535
  0
VERTEX
  8
LAYER_2
 10
50.8137
 20
175.4144
  0
VERTEX
  8
LAYER_2
 10
50.8916
 20
175.4144
  0
VERTEX
  8
LAYER_2
 10
50.9698
 20
175.3757
  0
SEQEND
  0
POLYLINE
  8
LAYER_2
 40
0.1058
 41
0.1058
 66
1
 10
0
 20
0
 30
0
  0
VERTEX
  8
LAYER_2
 10
72.503
 20
157.3921
  0
VERTEX
  8
LAYER_2
 10
72.4639
 20
158.0163
  0
SEQEND
  0
POLYLINE
  8
LAYER_2
 40
0.1058
 41
0.1058
 66
1
 10
0
 20
0
 30
0
  0
VERTEX
  8
LAYER_2
 10
72.425
 20
158.3283
  0
VERTEX
  8
LAYER_2
 10
72.425
 20
158.9914
  0
SEQEND
  0
POLYLINE
  8
LAYER_2
 40
0.1058
 41
0.1058
 66
1
 10
0
 20
0
 30
0
  0
VERTEX
  8
LAYER_2
 10
72.386
 20
159.3035
  0
VERTEX
  8
LAYER_2
 10
72.2691
 20
159.9278
  0
SEQEND
  0
POLYLINE
  8
LAYER_2
 40
0.1058
 41
0.1058
 66
1
 10
0
 20
0
 30
0
  0
VERTEX
  8
LAYER_2
 10
72.23
 20
160.2398
  0
VERTEX
  8
LAYER_2
 10
72.1909
 20
160.708
  0
VERTEX
  8
LAYER_2
 10
72.1521
 20
160.8641
  0
SEQEND
  0
POLYLINE
  8
LAYER_2
 40
0.1058
 41
0.1058
 66
1
 10
0
 20
0
 30
0
  0
VERTEX
  8
LAYER_2
 10
72.0739
 20
161.176
  0
VERTEX
  8
LAYER_2
 10
71.9179
 20
161.8003
  0
SEQEND
  0
POLYLINE
  8
LAYER_2
 40
0.1058
 41
0.1058
 66
1
 10
0
 20
0
 30
0
  0
VERTEX
  8
LAYER_2
 10
71.8399
 20
162.1122
  0
VERTEX
  8
LAYER_2
 10
71.8008
 20
162.3074
  0
VERTEX
  8
LAYER_2
 10
71.6838
 20
162.6974
  0
SEQEND
  0
POLYLINE
  8
LAYER_2
 40
0.1058
 41
0.1058
 66
1
 10
0
 20
0
 30
0
  0
VERTEX
  8
LAYER_2
 10
71.5668
 20
163.0095
  0
VERTEX
  8
LAYER_2
 10
71.3716
 20
163.5947
  0
SEQEND
  0
POLYLINE
  8
LAYER_2
 40
0.1058
 41
0.1058
 66
1
 10
0
 20
0
 30
0
  0
VERTEX
  8
LAYER_2
 10
71.2547
 20
163.9067
  0
VERTEX
  8
LAYER_2
 10
71.0208
 20
164.4919
  0
SEQEND
  0
POLYLINE
  8
LAYER_2
 40
0.1058
 41
0.1058
 66
1
 10
0
 20
0
 30
0
  0
VERTEX
  8
LAYER_2
 10
70.8646
 20
164.7649
  0
VERTEX
  8
LAYER_2
 10
70.6307
 20
165.3501
  0
SEQEND
  0
POLYLINE
  8
LAYER_2
 40
0.1058
 41
0.1058
 66
1
 10
0
 20
0
 30
0
  0
VERTEX
  8
LAYER_2
 10
70.4746
 20
165.6621
  0
VERTEX
  8
LAYER_2
 10
70.1624
 20
166.2082
  0
SEQEND
  0
POLYLINE
  8
LAYER_2
 40
0.1058
 41
0.1058
 66
1
 10
0
 20
0
 30
0
  0
VERTEX
  8
LAYER_2
 10
70.0064
 20
166.4813
  0
VERTEX
  8
LAYER_2
 10
69.7725
 20
166.8713
  0
VERTEX
  8
LAYER_2
 10
69.6943
 20
167.0274
  0
SEQEND
  0
POLYLINE
  8
LAYER_2
 40
0.1058
 41
0.1058
 66
1
 10
0
 20
0
 30
0
  0
VERTEX
  8
LAYER_2
 10
69.4993
 20
167.3005
  0
VERTEX
  8
LAYER_2
 10
69.1481
 20
167.8075
  0
SEQEND
  0
POLYLINE
  8
LAYER_2
 40
0.1058
 41
0.1058
 66
1
 10
0
 20
0
 30
0
  0
VERTEX
  8
LAYER_2
 10
68.9532
 20
168.0807
  0
VERTEX
  8
LAYER_2
 10
68.8362
 20
168.2368
  0
VERTEX
  8
LAYER_2
 10
68.5632
 20
168.5877
  0
SEQEND
  0
POLYLINE
  8
LAYER_2
 40
0.1058
 41
0.1058
 66
1
 10
0
 20
0
 30
0
  0
VERTEX
  8
LAYER_2
 10
68.368
 20
168.8219
  0
VERTEX
  8
LAYER_2
 10
67.978
 20
169.2901
  0
SEQEND
  0
POLYLINE
  8
LAYER_2
 40
0.1058
 41
0.1058
 66
1
 10
0
 20
0
 30
0
  0
VERTEX
  8
LAYER_2
 10
67.7439
 20
169.5631
  0
VERTEX
  8
LAYER_2
 10
67.3148
 20
169.9922
  0
SEQEND
  0
POLYLINE
  8
LAYER_2
 40
0.1058
 41
0.1058
 66
1
 10
0
 20
0
 30
0
  0
VERTEX
  8
LAYER_2
 10
67.0807
 20
170.2263
  0
VERTEX
  8
LAYER_2
 10
66.6516
 20
170.6554
  0
SEQEND
  0
POLYLINE
  8
LAYER_2
 40
0.1058
 41
0.1058
 66
1
 10
0
 20
0
 30
0
  0
VERTEX
  8
LAYER_2
 10
66.3785
 20
170.8894
  0
VERTEX
  8
LAYER_2
 10
65.9103
 20
171.2794
  0
SEQEND
  0
POLYLINE
  8
LAYER_2
 40
0.1058
 41
0.1058
 66
1
 10
0
 20
0
 30
0
  0
VERTEX
  8
LAYER_2
 10
65.6764
 20
171.4746
  0
VERTEX
  8
LAYER_2
 10
65.3251
 20
171.7476
  0
VERTEX
  8
LAYER_2
 10
65.1694
 20
171.8646
  0
SEQEND
  0
POLYLINE
  8
LAYER_2
 40
0.1058
 41
0.1058
 66
1
 10
0
 20
0
 30
0
  0
VERTEX
  8
LAYER_2
 10
64.8962
 20
172.0597
  0
VERTEX
  8
LAYER_2
 10
64.3892
 20
172.411
  0
SEQEND
  0
POLYLINE
  8
LAYER_2
 40
0.1058
 41
0.1058
 66
1
 10
0
 20
0
 30
0
  0
VERTEX
  8
LAYER_2
 10
64.116
 20
172.6059
  0
VERTEX
  8
LAYER_2
 10
63.9599
 20
172.6837
  0
VERTEX
  8
LAYER_2
 10
63.5699
 20
172.918
  0
SEQEND
  0
POLYLINE
  8
LAYER_2
 40
0.1058
 41
0.1058
 66
1
 10
0
 20
0
 30
0
  0
VERTEX
  8
LAYER_2
 10
63.2968
 20
173.074
  0
VERTEX
  8
LAYER_2
 10
62.7507
 20
173.3861
  0
SEQEND
  0
POLYLINE
  8
LAYER_2
 40
0.1058
 41
0.1058
 66
1
 10
0
 20
0
 30
0
  0
VERTEX
  8
LAYER_2
 10
62.4386
 20
173.5421
  0
VERTEX
  8
LAYER_2
 10
61.8534
 20
173.776
  0
SEQEND
  0
POLYLINE
  8
LAYER_2
 40
0.1058
 41
0.1058
 66
1
 10
0
 20
0
 30
0
  0
VERTEX
  8
LAYER_2
 10
61.5803
 20
173.8932
  0
VERTEX
  8
LAYER_2
 10
60.9951
 20
174.1662
  0
SEQEND
  0
POLYLINE
  8
LAYER_2
 40
0.1058
 41
0.1058
 66
1
 10
0
 20
0
 30
0
  0
VERTEX
  8
LAYER_2
 10
60.6831
 20
174.2833
  0
VERTEX
  8
LAYER_2
 10
60.0979
 20
174.4784
  0
SEQEND
  0
POLYLINE
  8
LAYER_2
 40
0.1058
 41
0.1058
 66
1
 10
0
 20
0
 30
0
  0
VERTEX
  8
LAYER_2
 10
59.7859
 20
174.5563
  0
VERTEX
  8
LAYER_2
 10
59.3959
 20
174.7124
  0
VERTEX
  8
LAYER_2
 10
59.2007
 20
174.7515
  0
SEQEND
  0
POLYLINE
  8
LAYER_2
 40
0.1058
 41
0.1058
 66
1
 10
0
 20
0
 30
0
  0
VERTEX
  8
LAYER_2
 10
58.8887
 20
174.8294
  0
VERTEX
  8
LAYER_2
 10
58.2644
 20
174.9855
  0
SEQEND
  0
POLYLINE
  8
LAYER_2
 40
0.1058
 41
0.1058
 66
1
 10
0
 20
0
 30
0
  0
VERTEX
  8
LAYER_2
 10
57.9524
 20
175.0635
  0
VERTEX
  8
LAYER_2
 10
57.7964
 20
175.1026
  0
VERTEX
  8
LAYER_2
 10
57.3281
 20
175.1413
  0
SEQEND
  0
POLYLINE
  8
LAYER_2
 40
0.1058
 41
0.1058
 66
1
 10
0
 20
0
 30
0
  0
VERTEX
  8
LAYER_2
 10
57.0162
 20
175.1805
  0
VERTEX
  8
LAYER_2
 10
56.3919
 20
175.2975
  0
SEQEND
  0
POLYLINE
  8
LAYER_2
 40
0.1058
 41
0.1058
 66
1
 10
0
 20
0
 30
0
  0
VERTEX
  8
LAYER_2
 10
56.08
 20
175.2975
  0
VERTEX
  8
LAYER_2
 10
55.4169
 20
175.3366
  0
SEQEND
  0
POLYLINE
  8
LAYER_2
 40
0.1058
 41
0.1058
 66
1
 10
0
 20
0
 30
0
  0
VERTEX
  8
LAYER_2
 10
55.1047
 20
175.3755
  0
VERTEX
  8
LAYER_2
 10
54.4804
 20
175.3755
  0
SEQEND
  0
POLYLINE
  8
LAYER_2
 40
0.1058
 41
0.1058
 66
1
 10
0
 20
0
 30
0
  0
VERTEX
  8
LAYER_2
 10
38.4866
 20
133.3621
  0
VERTEX
  8
LAYER_2
 10
39.1887
 20
133.3621
  0
SEQEND
  0
POLYLINE
  8
LAYER_2
 40
0.1058
 41
0.1058
 66
1
 10
0
 20
0
 30
0
  0
VERTEX
  8
LAYER_2
 10
39.5008
 20
133.3621
  0
VERTEX
  8
LAYER_2
 10
40.1251
 20
133.3621
  0
SEQEND
  0
POLYLINE
  8
LAYER_2
 40
0.1058
 41
0.1058
 66
1
 10
0
 20
0
 30
0
  0
VERTEX
  8
LAYER_2
 10
40.4371
 20
133.3621
  0
VERTEX
  8
LAYER_2
 10
41.1002
 20
133.3621
  0
SEQEND
  0
POLYLINE
  8
LAYER_2
 40
0.1058
 41
0.1058
 66
1
 10
0
 20
0
 30
0
  0
VERTEX
  8
LAYER_2
 10
41.4123
 20
133.3621
  0
VERTEX
  8
LAYER_2
 10
42.0366
 20
133.3621
  0
SEQEND
  0
POLYLINE
  8
LAYER_2
 40
0.1058
 41
0.1058
 66
1
 10
0
 20
0
 30
0
  0
VERTEX
  8
LAYER_2
 10
42.3486
 20
133.3621
  0
VERTEX
  8
LAYER_2
 10
42.9729
 20
133.3621
  0
SEQEND
  0
POLYLINE
  8
LAYER_2
 40
0.1058
 41
0.1058
 66
1
 10
0
 20
0
 30
0
  0
VERTEX
  8
LAYER_2
 10
43.3238
 20
133.3621
  0
VERTEX
  8
LAYER_2
 10
43.9481
 20
133.3621
  0
SEQEND
  0
POLYLINE
  8
LAYER_2
 40
0.1058
 41
0.1058
 66
1
 10
0
 20
0
 30
0
  0
VERTEX
  8
LAYER_2
 10
44.26
 20
133.3621
  0
VERTEX
  8
LAYER_2
 10
44.8843
 20
133.3621
  0
SEQEND
  0
POLYLINE
  8
LAYER_2
 40
0.1058
 41
0.1058
 66
1
 10
0
 20
0
 30
0
  0
VERTEX
  8
LAYER_2
 10
45.1962
 20
133.3621
  0
VERTEX
  8
LAYER_2
 10
45.8593
 20
133.3621
  0
SEQEND
  0
POLYLINE
  8
LAYER_2
 40
0.1058
 41
0.1058
 66
1
 10
0
 20
0
 30
0
  0
VERTEX
  8
LAYER_2
 10
46.1715
 20
133.3621
  0
VERTEX
  8
LAYER_2
 10
46.7958
 20
133.3621
  0
SEQEND
  0
POLYLINE
  8
LAYER_2
 40
0.1058
 41
0.1058
 66
1
 10
0
 20
0
 30
0
  0
VERTEX
  8
LAYER_2
 10
47.1078
 20
133.3621
  0
VERTEX
  8
LAYER_2
 10
47.7708
 20
133.3621
  0
SEQEND
  0
POLYLINE
  8
LAYER_2
 40
0.1058
 41
0.1058
 66
1
 10
0
 20
0
 30
0
  0
VERTEX
  8
LAYER_2
 10
48.083
 20
133.3621
  0
VERTEX
  8
LAYER_2
 10
48.7073
 20
133.3621
  0
SEQEND
  0
POLYLINE
  8
LAYER_2
 40
0.1058
 41
0.1058
 66
1
 10
0
 20
0
 30
0
  0
VERTEX
  8
LAYER_2
 10
49.0192
 20
133.3621
  0
VERTEX
  8
LAYER_2
 10
49.6435
 20
133.3621
  0
SEQEND
  0
POLYLINE
  8
LAYER_2
 40
0.1058
 41
0.1058
 66
1
 10
0
 20
0
 30
0
  0
VERTEX
  8
LAYER_2
 10
49.9944
 20
133.3621
  0
VERTEX
  8
LAYER_2
 10
50.6187
 20
133.3621
  0
SEQEND
  0
POLYLINE
  8
LAYER_2
 40
0.1058
 41
0.1058
 66
1
 10
0
 20
0
 30
0
  0
VERTEX
  8
LAYER_2
 10
50.9307
 20
133.3621
  0
VERTEX
  8
LAYER_2
 10
51.555
 20
133.3621
  0
SEQEND
  0
POLYLINE
  8
LAYER_2
 40
0.1058
 41
0.1058
 66
1
 10
0
 20
0
 30
0
  0
VERTEX
  8
LAYER_2
 10
51.8669
 20
133.3621
  0
VERTEX
  8
LAYER_2
 10
52.53
 20
133.3621
  0
SEQEND
  0
POLYLINE
  8
LAYER_2
 40
0.1058
 41
0.1058
 66
1
 10
0
 20
0
 30
0
  0
VERTEX
  8
LAYER_2
 10
52.8422
 20
133.3621
  0
VERTEX
  8
LAYER_2
 10
53.4665
 20
133.3621
  0
SEQEND
  0
POLYLINE
  8
LAYER_2
 40
0.1058
 41
0.1058
 66
1
 10
0
 20
0
 30
0
  0
VERTEX
  8
LAYER_2
 10
53.7784
 20
133.3621
  0
VERTEX
  8
LAYER_2
 10
54.4805
 20
133.3621
  0
VERTEX
  8
LAYER_2
 10
55.1436
 20
133.4012
  0
SEQEND
  0
POLYLINE
  8
LAYER_2
 40
0.1058
 41
0.1058
 66
1
 10
0
 20
0
 30
0
  0
VERTEX
  8
LAYER_2
 10
55.4558
 20
133.4401
  0
VERTEX
  8
LAYER_2
 10
56.0801
 20
133.4401
  0
SEQEND
  0
POLYLINE
  8
LAYER_2
 40
0.1058
 41
0.1058
 66
1
 10
0
 20
0
 30
0
  0
VERTEX
  8
LAYER_2
 10
56.3921
 20
133.4791
  0
VERTEX
  8
LAYER_2
 10
57.0164
 20
133.5961
  0
SEQEND
  0
POLYLINE
  8
LAYER_2
 40
0.1058
 41
0.1058
 66
1
 10
0
 20
0
 30
0
  0
VERTEX
  8
LAYER_2
 10
57.3283
 20
133.6352
  0
VERTEX
  8
LAYER_2
 10
57.7965
 20
133.6743
  0
VERTEX
  8
LAYER_2
 10
57.9526
 20
133.713
  0
SEQEND
  0
POLYLINE
  8
LAYER_2
 40
0.1058
 41
0.1058
 66
1
 10
0
 20
0
 30
0
  0
VERTEX
  8
LAYER_2
 10
58.2645
 20
133.7912
  0
VERTEX
  8
LAYER_2
 10
58.8888
 20
133.9473
  0
SEQEND
  0
POLYLINE
  8
LAYER_2
 40
0.1058
 41
0.1058
 66
1
 10
0
 20
0
 30
0
  0
VERTEX
  8
LAYER_2
 10
59.2007
 20
134.0253
  0
VERTEX
  8
LAYER_2
 10
59.3959
 20
134.0644
  0
VERTEX
  8
LAYER_2
 10
59.825
 20
134.1813
  0
SEQEND
  0
POLYLINE
  8
LAYER_2
 40
0.1058
 41
0.1058
 66
1
 10
0
 20
0
 30
0
  0
VERTEX
  8
LAYER_2
 10
60.098
 20
134.2983
  0
VERTEX
  8
LAYER_2
 10
60.7223
 20
134.4935
  0
SEQEND
  0
POLYLINE
  8
LAYER_2
 40
0.1058
 41
0.1058
 66
1
 10
0
 20
0
 30
0
  0
VERTEX
  8
LAYER_2
 10
60.9952
 20
134.6104
  0
VERTEX
  8
LAYER_2
 10
61.5804
 20
134.8443
  0
SEQEND
  0
POLYLINE
  8
LAYER_2
 40
0.1058
 41
0.1058
 66
1
 10
0
 20
0
 30
0
  0
VERTEX
  8
LAYER_2
 10
61.8924
 20
135.0005
  0
VERTEX
  8
LAYER_2
 10
62.4776
 20
135.2344
  0
SEQEND
  0
POLYLINE
  8
LAYER_2
 40
0.1058
 41
0.1058
 66
1
 10
0
 20
0
 30
0
  0
VERTEX
  8
LAYER_2
 10
62.7506
 20
135.3906
  0
VERTEX
  8
LAYER_2
 10
63.2967
 20
135.7027
  0
SEQEND
  0
POLYLINE
  8
LAYER_2
 40
0.1058
 41
0.1058
 66
1
 10
0
 20
0
 30
0
  0
VERTEX
  8
LAYER_2
 10
63.5698
 20
135.8587
  0
VERTEX
  8
LAYER_2
 10
63.9598
 20
136.0927
  0
VERTEX
  8
LAYER_2
 10
64.1159
 20
136.1709
  0
SEQEND
  0
POLYLINE
  8
LAYER_2
 40
0.1058
 41
0.1058
 66
1
 10
0
 20
0
 30
0
  0
VERTEX
  8
LAYER_2
 10
64.389
 20
136.3658
  0
VERTEX
  8
LAYER_2
 10
64.896
 20
136.7171
  0
SEQEND
  0
POLYLINE
  8
LAYER_2
 40
0.1058
 41
0.1058
 66
1
 10
0
 20
0
 30
0
  0
VERTEX
  8
LAYER_2
 10
65.1692
 20
136.912
  0
VERTEX
  8
LAYER_2
 10
65.3253
 20
137.0289
  0
VERTEX
  8
LAYER_2
 10
65.6762
 20
137.302
  0
SEQEND
  0
POLYLINE
  8
LAYER_2
 40
0.1058
 41
0.1058
 66
1
 10
0
 20
0
 30
0
  0
VERTEX
  8
LAYER_2
 10
65.9104
 20
137.4971
  0
VERTEX
  8
LAYER_2
 10
66.4174
 20
137.8871
  0
SEQEND
  0
POLYLINE
  8
LAYER_2
 40
0.1058
 41
0.1058
 66
1
 10
0
 20
0
 30
0
  0
VERTEX
  8
LAYER_2
 10
66.6516
 20
138.1213
  0
VERTEX
  8
LAYER_2
 10
67.0807
 20
138.5504
  0
SEQEND
  0
POLYLINE
  8
LAYER_2
 40
0.1058
 41
0.1058
 66
1
 10
0
 20
0
 30
0
  0
VERTEX
  8
LAYER_2
 10
67.3148
 20
138.7844
  0
VERTEX
  8
LAYER_2
 10
67.783
 20
139.2136
  0
SEQEND
  0
POLYLINE
  8
LAYER_2
 40
0.1058
 41
0.1058
 66
1
 10
0
 20
0
 30
0
  0
VERTEX
  8
LAYER_2
 10
67.9779
 20
139.4866
  0
VERTEX
  8
LAYER_2
 10
68.3679
 20
139.9548
  0
SEQEND
  0
POLYLINE
  8
LAYER_2
 40
0.1058
 41
0.1058
 66
1
 10
0
 20
0
 30
0
  0
VERTEX
  8
LAYER_2
 10
68.5631
 20
140.1888
  0
VERTEX
  8
LAYER_2
 10
68.8361
 20
140.54
  0
VERTEX
  8
LAYER_2
 10
68.9531
 20
140.6958
  0
SEQEND
  0
POLYLINE
  8
LAYER_2
 40
0.1058
 41
0.1058
 66
1
 10
0
 20
0
 30
0
  0
VERTEX
  8
LAYER_2
 10
69.1482
 20
140.969
  0
VERTEX
  8
LAYER_2
 10
69.4995
 20
141.4759
  0
SEQEND
  0
POLYLINE
  8
LAYER_2
 40
0.1058
 41
0.1058
 66
1
 10
0
 20
0
 30
0
  0
VERTEX
  8
LAYER_2
 10
69.6944
 20
141.7492
  0
VERTEX
  8
LAYER_2
 10
69.7722
 20
141.9052
  0
VERTEX
  8
LAYER_2
 10
70.0065
 20
142.2953
  0
SEQEND
  0
POLYLINE
  8
LAYER_2
 40
0.1058
 41
0.1058
 66
1
 10
0
 20
0
 30
0
  0
VERTEX
  8
LAYER_2
 10
70.1625
 20
142.5684
  0
VERTEX
  8
LAYER_2
 10
70.4746
 20
143.1145
  0
SEQEND
  0
POLYLINE
  8
LAYER_2
 40
0.1058
 41
0.1058
 66
1
 10
0
 20
0
 30
0
  0
VERTEX
  8
LAYER_2
 10
70.6306
 20
143.4266
  0
VERTEX
  8
LAYER_2
 10
70.8645
 20
144.0118
  0
SEQEND
  0
POLYLINE
  8
LAYER_2
 40
0.1058
 41
0.1058
 66
1
 10
0
 20
0
 30
0
  0
VERTEX
  8
LAYER_2
 10
71.0207
 20
144.2848
  0
VERTEX
  8
LAYER_2
 10
71.2546
 20
144.87
  0
SEQEND
  0
POLYLINE
  8
LAYER_2
 40
0.1058
 41
0.1058
 66
1
 10
0
 20
0
 30
0
  0
VERTEX
  8
LAYER_2
 10
71.3718
 20
145.182
  0
VERTEX
  8
LAYER_2
 10
71.567
 20
145.7672
  0
SEQEND
  0
POLYLINE
  8
LAYER_2
 40
0.1058
 41
0.1058
 66
1
 10
0
 20
0
 30
0
  0
VERTEX
  8
LAYER_2
 10
71.6839
 20
146.0792
  0
VERTEX
  8
LAYER_2
 10
71.8008
 20
146.4692
  0
VERTEX
  8
LAYER_2
 10
71.8399
 20
146.6644
  0
SEQEND
  0
POLYLINE
  8
LAYER_2
 40
0.1058
 41
0.1058
 66
1
 10
0
 20
0
 30
0
  0
VERTEX
  8
LAYER_2
 10
71.9179
 20
146.9765
  0
VERTEX
  8
LAYER_2
 10
72.074
 20
147.6008
  0
SEQEND
  0
POLYLINE
  8
LAYER_2
 40
0.1058
 41
0.1058
 66
1
 10
0
 20
0
 30
0
  0
VERTEX
  8
LAYER_2
 10
72.152
 20
147.9127
  0
VERTEX
  8
LAYER_2
 10
72.1911
 20
148.0688
  0
VERTEX
  8
LAYER_2
 10
72.2298
 20
148.537
  0
SEQEND
  0
POLYLINE
  8
LAYER_2
 40
0.1058
 41
0.1058
 66
1
 10
0
 20
0
 30
0
  0
VERTEX
  8
LAYER_2
 10
72.308
 20
148.849
  0
VERTEX
  8
LAYER_2
 10
72.3859
 20
149.4733
  0
SEQEND
  0
POLYLINE
  8
LAYER_2
 40
0.1058
 41
0.1058
 66
1
 10
0
 20
0
 30
0
  0
VERTEX
  8
LAYER_2
 10
72.425
 20
149.7852
  0
VERTEX
  8
LAYER_2
 10
72.425
 20
150.4482
  0
SEQEND
  0
POLYLINE
  8
LAYER_2
 40
0.1058
 41
0.1058
 66
1
 10
0
 20
0
 30
0
  0
VERTEX
  8
LAYER_2
 10
72.464
 20
150.7604
  0
VERTEX
  8
LAYER_2
 10
72.5031
 20
151.3847
  0
SEQEND
  0
POLYLINE
  8
LAYER_2
 40
0.1058
 41
0.1058
 66
1
 10
0
 20
0
 30
0
  0
VERTEX
  8
LAYER_2
 10
41.9975
 20
175.3755
  0
VERTEX
  8
LAYER_2
 10
41.3344
 20
175.3755
  0
SEQEND
  0
POLYLINE
  8
LAYER_2
 40
0.1058
 41
0.1058
 66
1
 10
0
 20
0
 30
0
  0
VERTEX
  8
LAYER_2
 10
41.0222
 20
175.3755
  0
VERTEX
  8
LAYER_2
 10
40.3979
 20
175.3755
  0
SEQEND
  0
POLYLINE
  8
LAYER_2
 40
0.1058
 41
0.1058
 66
1
 10
0
 20
0
 30
0
  0
VERTEX
  8
LAYER_2
 10
40.086
 20
175.3755
  0
VERTEX
  8
LAYER_2
 10
39.4229
 20
175.3755
  0
SEQEND
  0
POLYLINE
  8
LAYER_2
 40
0.1058
 41
0.1058
 66
1
 10
0
 20
0
 30
0
  0
VERTEX
  8
LAYER_2
 10
39.1108
 20
175.3755
  0
VERTEX
  8
LAYER_2
 10
38.4864
 20
175.3755
  0
VERTEX
  8
LAYER_2
 10
37.8234
 20
175.3755
  0
SEQEND
  0
POLYLINE
  8
LAYER_2
 40
0.1058
 41
0.1058
 66
1
 10
0
 20
0
 30
0
  0
VERTEX
  8
LAYER_2
 10
37.5114
 20
175.3365
  0
VERTEX
  8
LAYER_2
 10
36.8871
 20
175.2974
  0
SEQEND
  0
POLYLINE
  8
LAYER_2
 40
0.1058
 41
0.1058
 66
1
 10
0
 20
0
 30
0
  0
VERTEX
  8
LAYER_2
 10
36.5751
 20
175.2975
  0
VERTEX
  8
LAYER_2
 10
35.9508
 20
175.1805
  0
SEQEND
  0
POLYLINE
  8
LAYER_2
 40
0.1058
 41
0.1058
 66
1
 10
0
 20
0
 30
0
  0
VERTEX
  8
LAYER_2
 10
35.6389
 20
175.1415
  0
VERTEX
  8
LAYER_2
 10
35.1707
 20
175.1024
  0
VERTEX
  8
LAYER_2
 10
35.0146
 20
175.0245
  0
SEQEND
  0
POLYLINE
  8
LAYER_2
 40
0.1058
 41
0.1058
 66
1
 10
0
 20
0
 30
0
  0
VERTEX
  8
LAYER_2
 10
34.7026
 20
174.9854
  0
VERTEX
  8
LAYER_2
 10
34.0783
 20
174.8294
  0
SEQEND
  0
POLYLINE
  8
LAYER_2
 40
0.1058
 41
0.1058
 66
1
 10
0
 20
0
 30
0
  0
VERTEX
  8
LAYER_2
 10
33.7664
 20
174.7514
  0
VERTEX
  8
LAYER_2
 10
33.5712
 20
174.7123
  0
VERTEX
  8
LAYER_2
 10
33.1421
 20
174.5562
  0
SEQEND
  0
POLYLINE
  8
LAYER_2
 40
0.1058
 41
0.1058
 66
1
 10
0
 20
0
 30
0
  0
VERTEX
  8
LAYER_2
 10
32.8692
 20
174.4783
  0
VERTEX
  8
LAYER_2
 10
32.2449
 20
174.2831
  0
SEQEND
  0
POLYLINE
  8
LAYER_2
 40
0.1058
 41
0.1058
 66
1
 10
0
 20
0
 30
0
  0
VERTEX
  8
LAYER_2
 10
31.972
 20
174.1662
  0
VERTEX
  8
LAYER_2
 10
31.3868
 20
173.8932
  0
SEQEND
  0
POLYLINE
  8
LAYER_2
 40
0.1058
 41
0.1058
 66
1
 10
0
 20
0
 30
0
  0
VERTEX
  8
LAYER_2
 10
31.0747
 20
173.7761
  0
VERTEX
  8
LAYER_2
 10
30.4895
 20
173.5031
  0
SEQEND
  0
POLYLINE
  8
LAYER_2
 40
0.1058
 41
0.1058
 66
1
 10
0
 20
0
 30
0
  0
VERTEX
  8
LAYER_2
 10
30.2165
 20
173.386
  0
VERTEX
  8
LAYER_2
 10
29.6704
 20
173.0739
  0
SEQEND
  0
POLYLINE
  8
LAYER_2
 40
0.1058
 41
0.1058
 66
1
 10
0
 20
0
 30
0
  0
VERTEX
  8
LAYER_2
 10
29.3973
 20
172.9179
  0
VERTEX
  8
LAYER_2
 10
29.0073
 20
172.684
  0
VERTEX
  8
LAYER_2
 10
28.8512
 20
172.5667
  0
SEQEND
  0
POLYLINE
  8
LAYER_2
 40
0.1058
 41
0.1058
 66
1
 10
0
 20
0
 30
0
  0
VERTEX
  8
LAYER_2
 10
28.5781
 20
172.4108
  0
VERTEX
  8
LAYER_2
 10
28.0711
 20
172.0595
  0
SEQEND
  0
POLYLINE
  8
LAYER_2
 40
0.1058
 41
0.1058
 66
1
 10
0
 20
0
 30
0
  0
VERTEX
  8
LAYER_2
 10
27.7979
 20
171.8647
  0
VERTEX
  8
LAYER_2
 10
27.6419
 20
171.7477
  0
VERTEX
  8
LAYER_2
 10
27.2909
 20
171.4747
  0
SEQEND
  0
POLYLINE
  8
LAYER_2
 40
0.1058
 41
0.1058
 66
1
 10
0
 20
0
 30
0
  0
VERTEX
  8
LAYER_2
 10
27.0568
 20
171.2795
  0
VERTEX
  8
LAYER_2
 10
26.5498
 20
170.8504
  0
SEQEND
  0
POLYLINE
  8
LAYER_2
 40
0.1058
 41
0.1058
 66
1
 10
0
 20
0
 30
0
  0
VERTEX
  8
LAYER_2
 10
26.3155
 20
170.6554
  0
VERTEX
  8
LAYER_2
 10
25.8864
 20
170.2263
  0
SEQEND
  0
POLYLINE
  8
LAYER_2
 40
0.1058
 41
0.1058
 66
1
 10
0
 20
0
 30
0
  0
VERTEX
  8
LAYER_2
 10
25.6524
 20
169.9922
  0
VERTEX
  8
LAYER_2
 10
25.1842
 20
169.524
  0
SEQEND
  0
POLYLINE
  8
LAYER_2
 40
0.1058
 41
0.1058
 66
1
 10
0
 20
0
 30
0
  0
VERTEX
  8
LAYER_2
 10
24.9892
 20
169.29
  0
VERTEX
  8
LAYER_2
 10
24.5992
 20
168.8218
  0
SEQEND
  0
POLYLINE
  8
LAYER_2
 40
0.1058
 41
0.1058
 66
1
 10
0
 20
0
 30
0
  0
VERTEX
  8
LAYER_2
 10
24.4041
 20
168.5488
  0
VERTEX
  8
LAYER_2
 10
24.131
 20
168.2367
  0
VERTEX
  8
LAYER_2
 10
24.0141
 20
168.0806
  0
SEQEND
  0
POLYLINE
  8
LAYER_2
 40
0.1058
 41
0.1058
 66
1
 10
0
 20
0
 30
0
  0
VERTEX
  8
LAYER_2
 10
23.8189
 20
167.8077
  0
VERTEX
  8
LAYER_2
 10
23.4677
 20
167.2616
  0
SEQEND
  0
POLYLINE
  8
LAYER_2
 40
0.1058
 41
0.1058
 66
1
 10
0
 20
0
 30
0
  0
VERTEX
  8
LAYER_2
 10
23.2728
 20
167.0275
  0
VERTEX
  8
LAYER_2
 10
23.1558
 20
166.8714
  0
VERTEX
  8
LAYER_2
 10
22.9607
 20
166.4813
  0
SEQEND
  0
POLYLINE
  8
LAYER_2
 40
0.1058
 41
0.1058
 66
1
 10
0
 20
0
 30
0
  0
VERTEX
  8
LAYER_2
 10
22.8047
 20
166.2083
  0
VERTEX
  8
LAYER_2
 10
22.4925
 20
165.6231
  0
SEQEND
  0
POLYLINE
  8
LAYER_2
 40
0.1058
 41
0.1058
 66
1
 10
0
 20
0
 30
0
  0
VERTEX
  8
LAYER_2
 10
22.3366
 20
165.3501
  0
VERTEX
  8
LAYER_2
 10
22.1026
 20
164.7648
  0
SEQEND
  0
POLYLINE
  8
LAYER_2
 40
0.1058
 41
0.1058
 66
1
 10
0
 20
0
 30
0
  0
VERTEX
  8
LAYER_2
 10
21.9465
 20
164.4918
  0
VERTEX
  8
LAYER_2
 10
21.7125
 20
163.9066
  0
SEQEND
  0
POLYLINE
  8
LAYER_2
 40
0.1058
 41
0.1058
 66
1
 10
0
 20
0
 30
0
  0
VERTEX
  8
LAYER_2
 10
21.5954
 20
163.5946
  0
VERTEX
  8
LAYER_2
 10
21.4002
 20
163.0094
  0
SEQEND
  0
POLYLINE
  8
LAYER_2
 40
0.1058
 41
0.1058
 66
1
 10
0
 20
0
 30
0
  0
VERTEX
  8
LAYER_2
 10
21.2833
 20
162.6974
  0
VERTEX
  8
LAYER_2
 10
21.1663
 20
162.3074
  0
VERTEX
  8
LAYER_2
 10
21.1272
 20
162.0731
  0
SEQEND
  0
POLYLINE
  8
LAYER_2
 40
0.1058
 41
0.1058
 66
1
 10
0
 20
0
 30
0
  0
VERTEX
  8
LAYER_2
 10
21.0493
 20
161.8002
  0
VERTEX
  8
LAYER_2
 10
20.8932
 20
161.1759
  0
SEQEND
  0
POLYLINE
  8
LAYER_2
 40
0.1058
 41
0.1058
 66
1
 10
0
 20
0
 30
0
  0
VERTEX
  8
LAYER_2
 10
20.8152
 20
160.8639
  0
VERTEX
  8
LAYER_2
 10
20.7761
 20
160.7078
  0
VERTEX
  8
LAYER_2
 10
20.7373
 20
160.2396
  0
SEQEND
  0
POLYLINE
  8
LAYER_2
 40
0.1058
 41
0.1058
 66
1
 10
0
 20
0
 30
0
  0
VERTEX
  8
LAYER_2
 10
20.6591
 20
159.9277
  0
VERTEX
  8
LAYER_2
 10
20.5813
 20
159.3034
  0
SEQEND
  0
POLYLINE
  8
LAYER_2
 40
0.1058
 41
0.1058
 66
1
 10
0
 20
0
 30
0
  0
VERTEX
  8
LAYER_2
 10
20.5421
 20
158.9524
  0
VERTEX
  8
LAYER_2
 10
20.503
 20
158.3281
  0
SEQEND
  0
POLYLINE
  8
LAYER_2
 40
0.1058
 41
0.1058
 66
1
 10
0
 20
0
 30
0
  0
VERTEX
  8
LAYER_2
 10
20.5031
 20
158.0162
  0
VERTEX
  8
LAYER_2
 10
20.464
 20
157.3919
  0
SEQEND
  0
POLYLINE
  8
LAYER_2
 40
0.1058
 41
0.1058
 66
1
 10
0
 20
0
 30
0
  0
VERTEX
  8
LAYER_2
 10
20.4641
 20
151.3846
  0
VERTEX
  8
LAYER_2
 10
20.5032
 20
150.7215
  0
SEQEND
  0
POLYLINE
  8
LAYER_2
 40
0.1058
 41
0.1058
 66
1
 10
0
 20
0
 30
0
  0
VERTEX
  8
LAYER_2
 10
20.5031
 20
150.4093
  0
VERTEX
  8
LAYER_2
 10
20.5422
 20
149.785
  0
SEQEND
  0
POLYLINE
  8
LAYER_2
 40
0.1058
 41
0.1058
 66
1
 10
0
 20
0
 30
0
  0
VERTEX
  8
LAYER_2
 10
20.5811
 20
149.4731
  0
VERTEX
  8
LAYER_2
 10
20.659
 20
148.8488
  0
SEQEND
  0
POLYLINE
  8
LAYER_2
 40
0.1058
 41
0.1058
 66
1
 10
0
 20
0
 30
0
  0
VERTEX
  8
LAYER_2
 10
20.7372
 20
148.5369
  0
VERTEX
  8
LAYER_2
 10
20.7763
 20
148.0686
  0
VERTEX
  8
LAYER_2
 10
20.815
 20
147.9126
  0
SEQEND
  0
POLYLINE
  8
LAYER_2
 40
0.1058
 41
0.1058
 66
1
 10
0
 20
0
 30
0
  0
VERTEX
  8
LAYER_2
 10
20.8932
 20
147.6006
  0
VERTEX
  8
LAYER_2
 10
21.0493
 20
146.9763
  0
SEQEND
  0
POLYLINE
  8
LAYER_2
 40
0.1058
 41
0.1058
 66
1
 10
0
 20
0
 30
0
  0
VERTEX
  8
LAYER_2
 10
21.1273
 20
146.6644
  0
VERTEX
  8
LAYER_2
 10
21.1664
 20
146.4692
  0
VERTEX
  8
LAYER_2
 10
21.2833
 20
146.0792
  0
SEQEND
  0
POLYLINE
  8
LAYER_2
 40
0.1058
 41
0.1058
 66
1
 10
0
 20
0
 30
0
  0
VERTEX
  8
LAYER_2
 10
21.4003
 20
145.7672
  0
VERTEX
  8
LAYER_2
 10
21.5955
 20
145.1428
  0
SEQEND
  0
POLYLINE
  8
LAYER_2
 40
0.1058
 41
0.1058
 66
1
 10
0
 20
0
 30
0
  0
VERTEX
  8
LAYER_2
 10
21.7124
 20
144.8699
  0
VERTEX
  8
LAYER_2
 10
21.9464
 20
144.2847
  0
SEQEND
  0
POLYLINE
  8
LAYER_2
 40
0.1058
 41
0.1058
 66
1
 10
0
 20
0
 30
0
  0
VERTEX
  8
LAYER_2
 10
22.1025
 20
143.9727
  0
VERTEX
  8
LAYER_2
 10
22.3365
 20
143.3875
  0
SEQEND
  0
POLYLINE
  8
LAYER_2
 40
0.1058
 41
0.1058
 66
1
 10
0
 20
0
 30
0
  0
VERTEX
  8
LAYER_2
 10
22.4926
 20
143.1145
  0
VERTEX
  8
LAYER_2
 10
22.8048
 20
142.5684
  0
SEQEND
  0
POLYLINE
  8
LAYER_2
 40
0.1058
 41
0.1058
 66
1
 10
0
 20
0
 30
0
  0
VERTEX
  8
LAYER_2
 10
22.9607
 20
142.2953
  0
VERTEX
  8
LAYER_2
 10
23.1559
 20
141.9053
  0
VERTEX
  8
LAYER_2
 10
23.2729
 20
141.7492
  0
SEQEND
  0
POLYLINE
  8
LAYER_2
 40
0.1058
 41
0.1058
 66
1
 10
0
 20
0
 30
0
  0
VERTEX
  8
LAYER_2
 10
23.4679
 20
141.4761
  0
VERTEX
  8
LAYER_2
 10
23.8191
 20
140.9691
  0
SEQEND
  0
POLYLINE
  8
LAYER_2
 40
0.1058
 41
0.1058
 66
1
 10
0
 20
0
 30
0
  0
VERTEX
  8
LAYER_2
 10
24.014
 20
140.6959
  0
VERTEX
  8
LAYER_2
 10
24.131
 20
140.5398
  0
VERTEX
  8
LAYER_2
 10
24.404
 20
140.1889
  0
SEQEND
  0
POLYLINE
  8
LAYER_2
 40
0.1058
 41
0.1058
 66
1
 10
0
 20
0
 30
0
  0
VERTEX
  8
LAYER_2
 10
24.5991
 20
139.9547
  0
VERTEX
  8
LAYER_2
 10
24.9891
 20
139.4477
  0
SEQEND
  0
POLYLINE
  8
LAYER_2
 40
0.1058
 41
0.1058
 66
1
 10
0
 20
0
 30
0
  0
VERTEX
  8
LAYER_2
 10
25.2233
 20
139.2135
  0
VERTEX
  8
LAYER_2
 10
25.6524
 20
138.7844
  0
SEQEND
  0
POLYLINE
  8
LAYER_2
 40
0.1058
 41
0.1058
 66
1
 10
0
 20
0
 30
0
  0
VERTEX
  8
LAYER_2
 10
25.8865
 20
138.5504
  0
VERTEX
  8
LAYER_2
 10
26.3156
 20
138.0821
  0
SEQEND
  0
POLYLINE
  8
LAYER_2
 40
0.1058
 41
0.1058
 66
1
 10
0
 20
0
 30
0
  0
VERTEX
  8
LAYER_2
 10
26.5886
 20
137.8872
  0
VERTEX
  8
LAYER_2
 10
27.0569
 20
137.4972
  0
SEQEND
  0
POLYLINE
  8
LAYER_2
 40
0.1058
 41
0.1058
 66
1
 10
0
 20
0
 30
0
  0
VERTEX
  8
LAYER_2
 10
27.2908
 20
137.3021
  0
VERTEX
  8
LAYER_2
 10
27.6421
 20
137.029
  0
VERTEX
  8
LAYER_2
 10
27.7978
 20
136.912
  0
SEQEND
  0
POLYLINE
  8
LAYER_2
 40
0.1058
 41
0.1058
 66
1
 10
0
 20
0
 30
0
  0
VERTEX
  8
LAYER_2
 10
28.071
 20
136.7169
  0
VERTEX
  8
LAYER_2
 10
28.578
 20
136.3657
  0
SEQEND
  0
POLYLINE
  8
LAYER_2
 40
0.1058
 41
0.1058
 66
1
 10
0
 20
0
 30
0
  0
VERTEX
  8
LAYER_2
 10
28.8512
 20
136.1708
  0
VERTEX
  8
LAYER_2
 10
29.0073
 20
136.0929
  0
VERTEX
  8
LAYER_2
 10
29.3973
 20
135.8586
  0
SEQEND
  0
POLYLINE
  8
LAYER_2
 40
0.1058
 41
0.1058
 66
1
 10
0
 20
0
 30
0
  0
VERTEX
  8
LAYER_2
 10
29.6704
 20
135.7027
  0
VERTEX
  8
LAYER_2
 10
30.2165
 20
135.3905
  0
SEQEND
  0
POLYLINE
  8
LAYER_2
 40
0.1058
 41
0.1058
 66
1
 10
0
 20
0
 30
0
  0
VERTEX
  8
LAYER_2
 10
30.5286
 20
135.2345
  0
VERTEX
  8
LAYER_2
 10
31.0747
 20
135.0006
  0
SEQEND
  0
POLYLINE
  8
LAYER_2
 40
0.1058
 41
0.1058
 66
1
 10
0
 20
0
 30
0
  0
VERTEX
  8
LAYER_2
 10
31.3868
 20
134.8445
  0
VERTEX
  8
LAYER_2
 10
31.972
 20
134.6105
  0
SEQEND
  0
POLYLINE
  8
LAYER_2
 40
0.1058
 41
0.1058
 66
1
 10
0
 20
0
 30
0
  0
VERTEX
  8
LAYER_2
 10
32.245
 20
134.4934
  0
VERTEX
  8
LAYER_2
 10
32.8693
 20
134.2982
  0
SEQEND
  0
POLYLINE
  8
LAYER_2
 40
0.1058
 41
0.1058
 66
1
 10
0
 20
0
 30
0
  0
VERTEX
  8
LAYER_2
 10
33.1813
 20
134.1813
  0
VERTEX
  8
LAYER_2
 10
33.5713
 20
134.0643
  0
VERTEX
  8
LAYER_2
 10
33.7665
 20
134.0252
  0
SEQEND
  0
POLYLINE
  8
LAYER_2
 40
0.1058
 41
0.1058
 66
1
 10
0
 20
0
 30
0
  0
VERTEX
  8
LAYER_2
 10
34.0785
 20
133.9472
  0
VERTEX
  8
LAYER_2
 10
34.7028
 20
133.7912
  0
SEQEND
  0
POLYLINE
  8
LAYER_2
 40
0.1058
 41
0.1058
 66
1
 10
0
 20
0
 30
0
  0
VERTEX
  8
LAYER_2
 10
35.0147
 20
133.7132
  0
VERTEX
  8
LAYER_2
 10
35.1708
 20
133.6741
  0
VERTEX
  8
LAYER_2
 10
35.639
 20
133.6353
  0
SEQEND
  0
POLYLINE
  8
LAYER_2
 40
0.1058
 41
0.1058
 66
1
 10
0
 20
0
 30
0
  0
VERTEX
  8
LAYER_2
 10
35.951
 20
133.5962
  0
VERTEX
  8
LAYER_2
 10
36.5753
 20
133.4792
  0
SEQEND
  0
POLYLINE
  8
LAYER_2
 40
0.1058
 41
0.1058
 66
1
 10
0
 20
0
 30
0
  0
VERTEX
  8
LAYER_2
 10
36.8872
 20
133.4401
  0
VERTEX
  8
LAYER_2
 10
37.5115
 20
133.4401
  0
SEQEND
  0
POLYLINE
  8
LAYER_2
 40
0.1058
 41
0.1058
 66
1
 10
0
 20
0
 30
0
  0
VERTEX
  8
LAYER_2
 10
37.8624
 20
133.4011
  0
VERTEX
  8
LAYER_2
 10
38.4867
 20
133.362
  0
SEQEND
  0
INSERT
  8
LAYER_2
  2
AIGNBL0201002E
 10
0
 20
0
 30
0
  0
POLYLINE
  8
LAYER_2
 40
0.1058
 41
0.1058
 66
1
 10
0
 20
0
 30
0
  0
VERTEX
  8
LAYER_2
 10
20.4641
 20
151.3846
  0
VERTEX
  8
LAYER_2
 10
20.4641
 20
151.8528
  0
SEQEND
  0
POLYLINE
  8
LAYER_2
 40
0.1058
 41
0.1058
 66
1
 10
0
 20
0
 30
0
  0
VERTEX
  8
LAYER_2
 10
20.4641
 20
152.1648
  0
VERTEX
  8
LAYER_2
 10
20.4641
 20
152.7891
  0
SEQEND
  0
POLYLINE
  8
LAYER_2
 40
0.1058
 41
0.1058
 66
1
 10
0
 20
0
 30
0
  0
VERTEX
  8
LAYER_2
 10
20.4641
 20
153.101
  0
VERTEX
  8
LAYER_2
 10
20.4641
 20
153.764
  0
SEQEND
  0
POLYLINE
  8
LAYER_2
 40
0.1058
 41
0.1058
 66
1
 10
0
 20
0
 30
0
  0
VERTEX
  8
LAYER_2
 10
20.4641
 20
154.0762
  0
VERTEX
  8
LAYER_2
 10
20.4641
 20
154.7005
  0
SEQEND
  0
POLYLINE
  8
LAYER_2
 40
0.1058
 41
0.1058
 66
1
 10
0
 20
0
 30
0
  0
VERTEX
  8
LAYER_2
 10
20.4641
 20
155.0125
  0
VERTEX
  8
LAYER_2
 10
20.4641
 20
155.6368
  0
SEQEND
  0
POLYLINE
  8
LAYER_2
 40
0.1058
 41
0.1058
 66
1
 10
0
 20
0
 30
0
  0
VERTEX
  8
LAYER_2
 10
20.4641
 20
155.9877
  0
VERTEX
  8
LAYER_2
 10
20.4641
 20
156.612
  0
SEQEND
  0
POLYLINE
  8
LAYER_2
 40
0.1058
 41
0.1058
 66
1
 10
0
 20
0
 30
0
  0
VERTEX
  8
LAYER_2
 10
20.4641
 20
156.9239
  0
VERTEX
  8
LAYER_2
 10
20.4641
 20
157.3922
  0
SEQEND
  0
POLYLINE
  8
LAYER_2
 40
0.1058
 41
0.1058
 66
1
 10
0
 20
0
 30
0
  0
VERTEX
  8
LAYER_2
 10
72.503
 20
151.3846
  0
VERTEX
  8
LAYER_2
 10
72.503
 20
151.8528
  0
SEQEND
  0
POLYLINE
  8
LAYER_2
 40
0.1058
 41
0.1058
 66
1
 10
0
 20
0
 30
0
  0
VERTEX
  8
LAYER_2
 10
72.503
 20
152.1648
  0
VERTEX
  8
LAYER_2
 10
72.503
 20
152.7891
  0
SEQEND
  0
POLYLINE
  8
LAYER_2
 40
0.1058
 41
0.1058
 66
1
 10
0
 20
0
 30
0
  0
VERTEX
  8
LAYER_2
 10
72.503
 20
153.101
  0
VERTEX
  8
LAYER_2
 10
72.503
 20
153.764
  0
SEQEND
  0
POLYLINE
  8
LAYER_2
 40
0.1058
 41
0.1058
 66
1
 10
0
 20
0
 30
0
  0
VERTEX
  8
LAYER_2
 10
72.503
 20
154.0762
  0
VERTEX
  8
LAYER_2
 10
72.503
 20
154.7005
  0
SEQEND
  0
POLYLINE
  8
LAYER_2
 40
0.1058
 41
0.1058
 66
1
 10
0
 20
0
 30
0
  0
VERTEX
  8
LAYER_2
 10
72.503
 20
155.0125
  0
VERTEX
  8
LAYER_2
 10
72.503
 20
155.6368
  0
SEQEND
  0
POLYLINE
  8
LAYER_2
 40
0.1058
 41
0.1058
 66
1
 10
0
 20
0
 30
0
  0
VERTEX
  8
LAYER_2
 10
72.503
 20
155.9877
  0
VERTEX
  8
LAYER_2
 10
72.503
 20
156.612
  0
SEQEND
  0
POLYLINE
  8
LAYER_2
 40
0.1058
 41
0.1058
 66
1
 10
0
 20
0
 30
0
  0
VERTEX
  8
LAYER_2
 10
72.503
 20
156.9239
  0
VERTEX
  8
LAYER_2
 10
72.503
 20
157.3922
  0
SEQEND
  0
POLYLINE
  8
LAYER_2
 40
0.1058
 41
0.1058
 66
1
 10
0
 20
0
 30
0
  0
VERTEX
  8
LAYER_2
 10
38.4086
 20
133.4011
  0
VERTEX
  8
LAYER_2
 10
14.6126
 20
133.4011
  0
SEQEND
  0
POLYLINE
  8
LAYER_2
 40
0.1058
 41
0.1058
 66
1
 10
0
 20
0
 30
0
  0
VERTEX
  8
LAYER_2
 10
42.9337
 20
177.8721
  0
VERTEX
  8
LAYER_2
 10
14.6125
 20
177.8721
  0
SEQEND
  0
POLYLINE
  8
LAYER_2
 40
0.1058
 41
0.1058
 66
1
 10
0
 20
0
 30
0
  0
VERTEX
  8
LAYER_2
 10
14.7297
 20
134.8835
  0
VERTEX
  8
LAYER_2
 10
14.7297
 20
152.7499
  0
SEQEND
  0
POLYLINE
  8
LAYER_2
 40
0.1058
 41
0.1058
 66
1
 10
0
 20
0
 30
0
  0
VERTEX
  8
LAYER_2
 10
14.7297
 20
176.3898
  0
VERTEX
  8
LAYER_2
 10
14.7297
 20
158.5234
  0
SEQEND
  0
POLYLINE
  8
LAYER_2
 40
0.05
 41
0.05
 66
1
 10
0
 20
0
 30
0
 70
1
  0
VERTEX
  8
LAYER_2
 10
14.4566
 20
134.8835
  0
VERTEX
  8
LAYER_2
 10
14.9636
 20
134.8835
  0
VERTEX
  8
LAYER_2
 10
14.7296
 20
133.4013
  0
SEQEND
  0
POLYLINE
  8
LAYER_2
 66
1
 10
0
 20
0
 30
0
 70
1
  0
VERTEX
  8
LAYER_2
 10
14.4566
 20
134.8835
  0
VERTEX
  8
LAYER_2
 10
14.9636
 20
134.8835
  0
VERTEX
  8
LAYER_2
 10
14.7296
 20
133.4013
  0
SEQEND
  0
POLYLINE
  8
LAYER_2
 40
0.05
 41
0.05
 66
1
 10
0
 20
0
 30
0
 70
1
  0
VERTEX
  8
LAYER_2
 10
14.4566
 20
176.3898
  0
VERTEX
  8
LAYER_2
 10
14.9636
 20
176.3898
  0
VERTEX
  8
LAYER_2
 10
14.7296
 20
177.872
  0
SEQEND
  0
POLYLINE
  8
LAYER_2
 66
1
 10
0
 20
0
 30
0
 70
1
  0
VERTEX
  8
LAYER_2
 10
14.4566
 20
176.3898
  0
VERTEX
  8
LAYER_2
 10
14.9636
 20
176.3898
  0
VERTEX
  8
LAYER_2
 10
14.7296
 20
177.872
  0
SEQEND
  0
TEXT
  8
LAYER_2
 10
15.939
 20
152.7889
 11
15.939
 21
152.7889
 40
2.7848
 41
0.5
 50
89.99999999
  1
445
  0
POLYLINE
  8
LAYER_2
 40
0.1058
 41
0.1058
 66
1
 10
0
 20
0
 30
0
  0
VERTEX
  8
LAYER_2
 10
38.5256
 20
175.4145
  0
VERTEX
  8
LAYER_2
 10
40.593
 20
175.4145
  0
SEQEND
  0
POLYLINE
  8
LAYER_2
 40
0.1058
 41
0.1058
 66
1
 10
0
 20
0
 30
0
  0
VERTEX
  8
LAYER_2
 10
42.8947
 20
177.9112
  0
VERTEX
  8
LAYER_2
 10
40.3591
 20
177.9112
  0
SEQEND
  0
POLYLINE
  8
LAYER_2
 40
0.1058
 41
0.1058
 66
1
 10
0
 20
0
 30
0
  0
VERTEX
  8
LAYER_2
 10
40.4761
 20
173.8932
  0
VERTEX
  8
LAYER_2
 10
40.4761
 20
172.4109
  0
SEQEND
  0
POLYLINE
  8
LAYER_2
 40
0.1058
 41
0.1058
 66
1
 10
0
 20
0
 30
0
  0
VERTEX
  8
LAYER_2
 10
40.4761
 20
179.3935
  0
VERTEX
  8
LAYER_2
 10
40.4761
 20
180.9148
  0
SEQEND
  0
TEXT
  8
LAYER_2
 10
39.4228
 20
174.8296
 11
39.4228
 21
174.8296
 40
2.7848
 41
0.5
 50
89.99999999
  1
25
  0
TEXT
  8
LAYER_2
 10
76.4873
 20
174.7084
 11
76.4873
 21
174.7084
 40
2.8149
 41
0.5
  1
≒45
  0
POLYLINE
  8
LAYER_2
 40
0.1058
 41
0.1058
 66
1
 10
0
 20
0
 30
0
  0
VERTEX
  8
LAYER_2
 10
40.4761
 20
175.4145
  0
VERTEX
  8
LAYER_2
 10
40.4761
 20
177.9111
  0
SEQEND
  0
POLYLINE
  8
LAYER_2
 40
0.05
 41
0.05
 66
1
 10
0
 20
0
 30
0
 70
1
  0
VERTEX
  8
LAYER_2
 10
40.203
 20
173.8932
  0
VERTEX
  8
LAYER_2
 10
40.71
 20
173.8932
  0
VERTEX
  8
LAYER_2
 10
40.4761
 20
175.4145
  0
SEQEND
  0
POLYLINE
  8
LAYER_2
 66
1
 10
0
 20
0
 30
0
 70
1
  0
VERTEX
  8
LAYER_2
 10
40.203
 20
173.8932
  0
VERTEX
  8
LAYER_2
 10
40.71
 20
173.8932
  0
VERTEX
  8
LAYER_2
 10
40.4761
 20
175.4145
  0
SEQEND
  0
POLYLINE
  8
LAYER_2
 40
0.05
 41
0.05
 66
1
 10
0
 20
0
 30
0
 70
1
  0
VERTEX
  8
LAYER_2
 10
40.203
 20
179.3935
  0
VERTEX
  8
LAYER_2
 10
40.71
 20
179.3935
  0
VERTEX
  8
LAYER_2
 10
40.4761
 20
177.9113
  0
SEQEND
  0
POLYLINE
  8
LAYER_2
 66
1
 10
0
 20
0
 30
0
 70
1
  0
VERTEX
  8
LAYER_2
 10
40.203
 20
179.3935
  0
VERTEX
  8
LAYER_2
 10
40.71
 20
179.3935
  0
VERTEX
  8
LAYER_2
 10
40.4761
 20
177.9113
  0
SEQEND
  0
POLYLINE
  8
LAYER_2
 40
0.1058
 41
0.1058
 66
1
 10
0
 20
0
 30
0
  0
VERTEX
  8
LAYER_2
 10
20.4641
 20
154.4663
  0
VERTEX
  8
LAYER_2
 10
20.4641
 20
185.2449
  0
SEQEND
  0
POLYLINE
  8
LAYER_2
 40
0.1058
 41
0.1058
 66
1
 10
0
 20
0
 30
0
  0
VERTEX
  8
LAYER_2
 10
72.464
 20
154.4663
  0
VERTEX
  8
LAYER_2
 10
72.464
 20
185.2449
  0
SEQEND
  0
POLYLINE
  8
LAYER_2
 40
0.1058
 41
0.1058
 66
1
 10
0
 20
0
 30
0
  0
VERTEX
  8
LAYER_2
 10
21.9855
 20
185.128
  0
VERTEX
  8
LAYER_2
 10
43.6358
 20
185.128
  0
SEQEND
  0
POLYLINE
  8
LAYER_2
 40
0.1058
 41
0.1058
 66
1
 10
0
 20
0
 30
0
  0
VERTEX
  8
LAYER_2
 10
70.9817
 20
185.128
  0
VERTEX
  8
LAYER_2
 10
49.2922
 20
185.128
  0
SEQEND
  0
POLYLINE
  8
LAYER_2
 40
0.05
 41
0.05
 66
1
 10
0
 20
0
 30
0
 70
1
  0
VERTEX
  8
LAYER_2
 10
21.9855
 20
185.362
  0
VERTEX
  8
LAYER_2
 10
21.9855
 20
184.8938
  0
VERTEX
  8
LAYER_2
 10
20.4642
 20
185.1281
  0
SEQEND
  0
POLYLINE
  8
LAYER_2
 66
1
 10
0
 20
0
 30
0
 70
1
  0
VERTEX
  8
LAYER_2
 10
21.9855
 20
185.362
  0
VERTEX
  8
LAYER_2
 10
21.9855
 20
184.8938
  0
VERTEX
  8
LAYER_2
 10
20.4642
 20
185.1281
  0
SEQEND
  0
POLYLINE
  8
LAYER_2
 40
0.05
 41
0.05
 66
1
 10
0
 20
0
 30
0
 70
1
  0
VERTEX
  8
LAYER_2
 10
70.9817
 20
185.362
  0
VERTEX
  8
LAYER_2
 10
70.9817
 20
184.8938
  0
VERTEX
  8
LAYER_2
 10
72.4639
 20
185.1281
  0
SEQEND
  0
POLYLINE
  8
LAYER_2
 66
1
 10
0
 20
0
 30
0
 70
1
  0
VERTEX
  8
LAYER_2
 10
70.9817
 20
185.362
  0
VERTEX
  8
LAYER_2
 10
70.9817
 20
184.8938
  0
VERTEX
  8
LAYER_2
 10
72.4639
 20
185.1281
  0
SEQEND
  0
TEXT
  8
LAYER_2
 10
44.3929
 20
183.8799
 11
44.3929
 21
183.8799
 40
2.7848
 41
0.5
  1
520
  0
POLYLINE
  8
LAYER_2
 40
0.1623
 41
0.1623
 66
1
 10
0
 20
0
 30
0
  0
VERTEX
  8
LAYER_2
 10
171.1983
 20
110.0343
  0
VERTEX
  8
LAYER_2
 10
148.6898
 20
110.0343
  0
SEQEND
  0
POLYLINE
  8
LAYER_2
 40
0.1623
 41
0.1623
 66
1
 10
0
 20
0
 30
0
  0
VERTEX
  8
LAYER_2
 10
142.2922
 20
110.0343
  0
VERTEX
  8
LAYER_2
 10
119.7836
 20
110.0343
  0
SEQEND
  0
INSERT
  8
LAYER_2
  2
AIGNBL0201002F
 10
0
 20
0
 30
0
  0
POLYLINE
  8
LAYER_2
 40
0.1623
 41
0.1623
 66
1
 10
0
 20
0
 30
0
  0
VERTEX
  8
LAYER_2
 10
119.5105
 20
110.3464
  0
VERTEX
  8
LAYER_2
 10
119.5105
 20
111.3607
  0
SEQEND
  0
INSERT
  8
LAYER_2
  2
AIGNBL02010030
 10
0
 20
0
 30
0
  0
POLYLINE
  8
LAYER_2
 40
0.1623
 41
0.1623
 66
1
 10
0
 20
0
 30
0
  0
VERTEX
  8
LAYER_2
 10
171.5104
 20
111.3606
  0
VERTEX
  8
LAYER_2
 10
171.5104
 20
110.3463
  0
SEQEND
  0
INSERT
  8
LAYER_2
  2
AIGNBL02010031
 10
0
 20
0
 30
0
  0
POLYLINE
  8
LAYER_2
 40
0.1623
 41
0.1623
 66
1
 10
0
 20
0
 30
0
  0
VERTEX
  8
LAYER_2
 10
131.0574
 20
97.3952
  0
VERTEX
  8
LAYER_2
 10
141.2778
 20
96.966
  0
SEQEND
  0
INSERT
  8
LAYER_2
  2
AIGNBL02010032
 10
0
 20
0
 30
0
  0
POLYLINE
  8
LAYER_2
 40
0.1623
 41
0.1623
 66
1
 10
0
 20
0
 30
0
  0
VERTEX
  8
LAYER_2
 10
159.9636
 20
97.3952
  0
VERTEX
  8
LAYER_2
 10
149.704
 20
96.966
  0
SEQEND
  0
INSERT
  8
LAYER_2
  2
AIGNBL02010033
 10
0
 20
0
 30
0
  0
POLYLINE
  8
LAYER_2
 40
0.1623
 41
0.1623
 66
1
 10
0
 20
0
 30
0
  0
VERTEX
  8
LAYER_2
 10
141.2779
 20
96.966
  0
VERTEX
  8
LAYER_2
 10
142.2922
 20
96.966
  0
SEQEND
  0
POLYLINE
  8
LAYER_2
 40
0.1623
 41
0.1623
 66
1
 10
0
 20
0
 30
0
  0
VERTEX
  8
LAYER_2
 10
149.704
 20
96.966
  0
VERTEX
  8
LAYER_2
 10
148.6897
 20
96.966
  0
SEQEND
  0
POLYLINE
  8
LAYER_2
 40
0.1058
 41
0.1058
 66
1
 10
0
 20
0
 30
0
  0
VERTEX
  8
LAYER_2
 10
42.4656
 20
177.443
  0
VERTEX
  8
LAYER_2
 10
42.4656
 20
179.7056
  0
SEQEND
  0
POLYLINE
  8
LAYER_2
 40
0.1058
 41
0.1058
 66
1
 10
0
 20
0
 30
0
  0
VERTEX
  8
LAYER_2
 10
50.5016
 20
177.443
  0
VERTEX
  8
LAYER_2
 10
50.5016
 20
179.7056
  0
SEQEND
  0
POLYLINE
  8
LAYER_2
 40
0.1058
 41
0.1058
 66
1
 10
0
 20
0
 30
0
  0
VERTEX
  8
LAYER_2
 10
43.9869
 20
179.5496
  0
VERTEX
  8
LAYER_2
 10
44.65
 20
179.5496
  0
SEQEND
  0
POLYLINE
  8
LAYER_2
 40
0.1058
 41
0.1058
 66
1
 10
0
 20
0
 30
0
  0
VERTEX
  8
LAYER_2
 10
48.9802
 20
179.5496
  0
VERTEX
  8
LAYER_2
 10
48.3171
 20
179.5496
  0
SEQEND
  0
POLYLINE
  8
LAYER_2
 40
0.05
 41
0.05
 66
1
 10
0
 20
0
 30
0
 70
1
  0
VERTEX
  8
LAYER_2
 10
43.9869
 20
179.8226
  0
VERTEX
  8
LAYER_2
 10
43.9869
 20
179.3156
  0
VERTEX
  8
LAYER_2
 10
42.4656
 20
179.5496
  0
SEQEND
  0
POLYLINE
  8
LAYER_2
 66
1
 10
0
 20
0
 30
0
 70
1
  0
VERTEX
  8
LAYER_2
 10
43.9869
 20
179.8226
  0
VERTEX
  8
LAYER_2
 10
43.9869
 20
179.3156
  0
VERTEX
  8
LAYER_2
 10
42.4656
 20
179.5496
  0
SEQEND
  0
POLYLINE
  8
LAYER_2
 40
0.05
 41
0.05
 66
1
 10
0
 20
0
 30
0
 70
1
  0
VERTEX
  8
LAYER_2
 10
48.9802
 20
179.8226
  0
VERTEX
  8
LAYER_2
 10
48.9802
 20
179.3156
  0
VERTEX
  8
LAYER_2
 10
50.5015
 20
179.5496
  0
SEQEND
  0
POLYLINE
  8
LAYER_2
 66
1
 10
0
 20
0
 30
0
 70
1
  0
VERTEX
  8
LAYER_2
 10
48.9802
 20
179.8226
  0
VERTEX
  8
LAYER_2
 10
48.9802
 20
179.3156
  0
VERTEX
  8
LAYER_2
 10
50.5015
 20
179.5496
  0
SEQEND
  0
TEXT
  8
LAYER_2
 10
44.9329
 20
178.3401
 11
44.9329
 21
178.3401
 40
2.7848
 41
0.5
  1
80
  0
POLYLINE
  8
LAYER_2
 40
0.1058
 41
0.1058
 62
252
 66
1
 10
0
 20
0
 30
0
  0
VERTEX
  8
LAYER_2
 10
176.7907
 20
200.3258
  0
VERTEX
  8
LAYER_2
 10
182.5642
 20
206.0993
  0
SEQEND
  0
POLYLINE
  8
LAYER_2
 40
0.1058
 41
0.1058
 62
252
 66
1
 10
0
 20
0
 30
0
  0
VERTEX
  8
LAYER_2
 10
175.8935
 20
198.7264
  0
VERTEX
  8
LAYER_2
 10
184.3196
 20
207.1525
  0
SEQEND
  0
POLYLINE
  8
LAYER_2
 40
0.1058
 41
0.1058
 62
252
 66
1
 10
0
 20
0
 30
0
  0
VERTEX
  8
LAYER_2
 10
175.3474
 20
197.4781
  0
VERTEX
  8
LAYER_2
 10
185.7239
 20
207.8546
  0
SEQEND
  0
POLYLINE
  8
LAYER_2
 40
0.1058
 41
0.1058
 62
252
 66
1
 10
0
 20
0
 30
0
  0
VERTEX
  8
LAYER_2
 10
174.9963
 20
196.4249
  0
VERTEX
  8
LAYER_2
 10
186.9723
 20
208.4009
  0
SEQEND
  0
POLYLINE
  8
LAYER_2
 40
0.1058
 41
0.1058
 62
252
 66
1
 10
0
 20
0
 30
0
  0
VERTEX
  8
LAYER_2
 10
174.7232
 20
195.4496
  0
VERTEX
  8
LAYER_2
 10
188.1036
 20
208.7909
  0
SEQEND
  0
POLYLINE
  8
LAYER_2
 40
0.1058
 41
0.1058
 62
252
 66
1
 10
0
 20
0
 30
0
  0
VERTEX
  8
LAYER_2
 10
174.5672
 20
194.5914
  0
VERTEX
  8
LAYER_2
 10
189.1179
 20
209.1421
  0
SEQEND
  0
POLYLINE
  8
LAYER_2
 40
0.1058
 41
0.1058
 62
252
 66
1
 10
0
 20
0
 30
0
  0
VERTEX
  8
LAYER_2
 10
174.4501
 20
193.7722
  0
VERTEX
  8
LAYER_2
 10
190.1322
 20
209.4152
  0
SEQEND
  0
POLYLINE
  8
LAYER_2
 40
0.1058
 41
0.1058
 62
252
 66
1
 10
0
 20
0
 30
0
  0
VERTEX
  8
LAYER_2
 10
174.4111
 20
192.992
  0
VERTEX
  8
LAYER_2
 10
191.0684
 20
209.6493
  0
SEQEND
  0
POLYLINE
  8
LAYER_2
 40
0.1058
 41
0.1058
 62
252
 66
1
 10
0
 20
0
 30
0
  0
VERTEX
  8
LAYER_2
 10
174.3721
 20
192.2898
  0
VERTEX
  8
LAYER_2
 10
191.9264
 20
209.8441
  0
SEQEND
  0
POLYLINE
  8
LAYER_2
 40
0.1058
 41
0.1058
 62
252
 66
1
 10
0
 20
0
 30
0
  0
VERTEX
  8
LAYER_2
 10
174.4111
 20
191.5877
  0
VERTEX
  8
LAYER_2
 10
192.7846
 20
210.0002
  0
SEQEND
  0
POLYLINE
  8
LAYER_2
 40
0.1058
 41
0.1058
 62
252
 66
1
 10
0
 20
0
 30
0
  0
VERTEX
  8
LAYER_2
 10
174.4501
 20
190.9245
  0
VERTEX
  8
LAYER_2
 10
193.643
 20
210.1174
  0
SEQEND
  0
POLYLINE
  8
LAYER_2
 40
0.1058
 41
0.1058
 62
252
 66
1
 10
0
 20
0
 30
0
  0
VERTEX
  8
LAYER_2
 10
174.5282
 20
190.3003
  0
VERTEX
  8
LAYER_2
 10
194.4233
 20
210.1954
  0
SEQEND
  0
POLYLINE
  8
LAYER_2
 40
0.1058
 41
0.1058
 62
252
 66
1
 10
0
 20
0
 30
0
  0
VERTEX
  8
LAYER_2
 10
174.6452
 20
189.7152
  0
VERTEX
  8
LAYER_2
 10
195.2033
 20
210.2733
  0
SEQEND
  0
POLYLINE
  8
LAYER_2
 40
0.1058
 41
0.1058
 62
252
 66
1
 10
0
 20
0
 30
0
  0
VERTEX
  8
LAYER_2
 10
174.7622
 20
189.1301
  0
VERTEX
  8
LAYER_2
 10
195.9443
 20
210.3122
  0
SEQEND
  0
POLYLINE
  8
LAYER_2
 40
0.1058
 41
0.1058
 62
252
 66
1
 10
0
 20
0
 30
0
  0
VERTEX
  8
LAYER_2
 10
174.9183
 20
188.5449
  0
VERTEX
  8
LAYER_2
 10
196.6856
 20
210.3513
  0
SEQEND
  0
POLYLINE
  8
LAYER_2
 40
0.1058
 41
0.1058
 62
252
 66
1
 10
0
 20
0
 30
0
  0
VERTEX
  8
LAYER_2
 10
175.0743
 20
187.9988
  0
VERTEX
  8
LAYER_2
 10
197.4268
 20
210.3513
  0
SEQEND
  0
POLYLINE
  8
LAYER_2
 40
0.1058
 41
0.1058
 62
252
 66
1
 10
0
 20
0
 30
0
  0
VERTEX
  8
LAYER_2
 10
175.2303
 20
187.4916
  0
VERTEX
  8
LAYER_2
 10
198.0902
 20
210.3515
  0
SEQEND
  0
POLYLINE
  8
LAYER_2
 40
0.1058
 41
0.1058
 62
252
 66
1
 10
0
 20
0
 30
0
  0
VERTEX
  8
LAYER_2
 10
175.4254
 20
186.9455
  0
VERTEX
  8
LAYER_2
 10
198.7922
 20
210.3123
  0
SEQEND
  0
POLYLINE
  8
LAYER_2
 40
0.1058
 41
0.1058
 62
252
 66
1
 10
0
 20
0
 30
0
  0
VERTEX
  8
LAYER_2
 10
175.6594
 20
186.4774
  0
VERTEX
  8
LAYER_2
 10
199.4554
 20
210.2733
  0
SEQEND
  0
POLYLINE
  8
LAYER_2
 40
0.1058
 41
0.1058
 62
252
 66
1
 10
0
 20
0
 30
0
  0
VERTEX
  8
LAYER_2
 10
175.8935
 20
185.9702
  0
VERTEX
  8
LAYER_2
 10
200.1186
 20
210.2344
  0
SEQEND
  0
POLYLINE
  8
LAYER_2
 40
0.1058
 41
0.1058
 62
252
 66
1
 10
0
 20
0
 30
0
  0
VERTEX
  8
LAYER_2
 10
176.1276
 20
185.5021
  0
VERTEX
  8
LAYER_2
 10
200.7427
 20
210.1563
  0
SEQEND
  0
POLYLINE
  8
LAYER_2
 40
0.1058
 41
0.1058
 62
252
 66
1
 10
0
 20
0
 30
0
  0
VERTEX
  8
LAYER_2
 10
176.3616
 20
185.034
  0
VERTEX
  8
LAYER_2
 10
201.3667
 20
210.0783
  0
SEQEND
  0
POLYLINE
  8
LAYER_2
 40
0.1058
 41
0.1058
 62
252
 66
1
 10
0
 20
0
 30
0
  0
VERTEX
  8
LAYER_2
 10
176.6347
 20
184.6049
  0
VERTEX
  8
LAYER_2
 10
201.9911
 20
210.0001
  0
SEQEND
  0
POLYLINE
  8
LAYER_2
 40
0.1058
 41
0.1058
 62
252
 66
1
 10
0
 20
0
 30
0
  0
VERTEX
  8
LAYER_2
 10
176.9078
 20
184.1758
  0
VERTEX
  8
LAYER_2
 10
202.6151
 20
209.8831
  0
SEQEND
  0
POLYLINE
  8
LAYER_2
 40
0.1058
 41
0.1058
 62
252
 66
1
 10
0
 20
0
 30
0
  0
VERTEX
  8
LAYER_2
 10
177.1808
 20
183.7467
  0
VERTEX
  8
LAYER_2
 10
203.2003
 20
209.7661
  0
SEQEND
  0
POLYLINE
  8
LAYER_2
 40
0.1058
 41
0.1058
 62
252
 66
1
 10
0
 20
0
 30
0
  0
VERTEX
  8
LAYER_2
 10
177.4929
 20
183.3566
  0
VERTEX
  8
LAYER_2
 10
203.7854
 20
209.6491
  0
SEQEND
  0
POLYLINE
  8
LAYER_2
 40
0.1058
 41
0.1058
 62
252
 66
1
 10
0
 20
0
 30
0
  0
VERTEX
  8
LAYER_2
 10
177.766
 20
182.9275
  0
VERTEX
  8
LAYER_2
 10
204.3315
 20
209.493
  0
SEQEND
  0
POLYLINE
  8
LAYER_2
 40
0.1058
 41
0.1058
 62
252
 66
1
 10
0
 20
0
 30
0
  0
VERTEX
  8
LAYER_2
 10
178.078
 20
182.5374
  0
VERTEX
  8
LAYER_2
 10
204.9166
 20
209.376
  0
SEQEND
  0
POLYLINE
  8
LAYER_2
 40
0.1058
 41
0.1058
 62
252
 66
1
 10
0
 20
0
 30
0
  0
VERTEX
  8
LAYER_2
 10
178.4291
 20
182.1473
  0
VERTEX
  8
LAYER_2
 10
205.4629
 20
209.2202
  0
SEQEND
  0
POLYLINE
  8
LAYER_2
 40
0.1058
 41
0.1058
 62
252
 66
1
 10
0
 20
0
 30
0
  0
VERTEX
  8
LAYER_2
 10
178.7412
 20
181.7962
  0
VERTEX
  8
LAYER_2
 10
206.0089
 20
209.0248
  0
SEQEND
  0
POLYLINE
  8
LAYER_2
 40
0.1058
 41
0.1058
 62
252
 66
1
 10
0
 20
0
 30
0
  0
VERTEX
  8
LAYER_2
 10
179.0923
 20
181.4451
  0
VERTEX
  8
LAYER_2
 10
206.5161
 20
208.8689
  0
SEQEND
  0
POLYLINE
  8
LAYER_2
 40
0.1058
 41
0.1058
 62
252
 66
1
 10
0
 20
0
 30
0
  0
VERTEX
  8
LAYER_2
 10
179.4434
 20
181.055
  0
VERTEX
  8
LAYER_2
 10
207.0623
 20
208.674
  0
SEQEND
  0
POLYLINE
  8
LAYER_2
 40
0.1058
 41
0.1058
 62
252
 66
1
 10
0
 20
0
 30
0
  0
VERTEX
  8
LAYER_2
 10
179.8335
 20
180.743
  0
VERTEX
  8
LAYER_2
 10
207.5694
 20
208.4789
  0
SEQEND
  0
POLYLINE
  8
LAYER_2
 40
0.1058
 41
0.1058
 62
252
 66
1
 10
0
 20
0
 30
0
  0
VERTEX
  8
LAYER_2
 10
180.1846
 20
180.3919
  0
VERTEX
  8
LAYER_2
 10
208.0766
 20
208.2839
  0
SEQEND
  0
POLYLINE
  8
LAYER_2
 40
0.1058
 41
0.1058
 62
252
 66
1
 10
0
 20
0
 30
0
  0
VERTEX
  8
LAYER_2
 10
180.5747
 20
180.0798
  0
VERTEX
  8
LAYER_2
 10
208.5837
 20
208.0888
  0
SEQEND
  0
POLYLINE
  8
LAYER_2
 40
0.1058
 41
0.1058
 62
252
 66
1
 10
0
 20
0
 30
0
  0
VERTEX
  8
LAYER_2
 10
180.9648
 20
179.7287
  0
VERTEX
  8
LAYER_2
 10
209.0516
 20
207.8547
  0
SEQEND
  0
POLYLINE
  8
LAYER_2
 40
0.1058
 41
0.1058
 62
252
 66
1
 10
0
 20
0
 30
0
  0
VERTEX
  8
LAYER_2
 10
181.3548
 20
179.4556
  0
VERTEX
  8
LAYER_2
 10
209.559
 20
207.6207
  0
SEQEND
  0
POLYLINE
  8
LAYER_2
 40
0.1058
 41
0.1058
 62
252
 66
1
 10
0
 20
0
 30
0
  0
VERTEX
  8
LAYER_2
 10
181.745
 20
179.1435
  0
VERTEX
  8
LAYER_2
 10
210.027
 20
207.3865
  0
SEQEND
  0
POLYLINE
  8
LAYER_2
 40
0.1058
 41
0.1058
 62
252
 66
1
 10
0
 20
0
 30
0
  0
VERTEX
  8
LAYER_2
 10
182.1741
 20
178.8315
  0
VERTEX
  8
LAYER_2
 10
210.4952
 20
207.1526
  0
SEQEND
  0
POLYLINE
  8
LAYER_2
 40
0.1058
 41
0.1058
 62
252
 66
1
 10
0
 20
0
 30
0
  0
VERTEX
  8
LAYER_2
 10
182.6032
 20
178.5584
  0
VERTEX
  8
LAYER_2
 10
210.9243
 20
206.8796
  0
SEQEND
  0
POLYLINE
  8
LAYER_2
 40
0.1058
 41
0.1058
 62
252
 66
1
 10
0
 20
0
 30
0
  0
VERTEX
  8
LAYER_2
 10
183.0323
 20
178.2853
  0
VERTEX
  8
LAYER_2
 10
211.3922
 20
206.6452
  0
SEQEND
  0
POLYLINE
  8
LAYER_2
 40
0.1058
 41
0.1058
 62
252
 66
1
 10
0
 20
0
 30
0
  0
VERTEX
  8
LAYER_2
 10
183.4614
 20
178.0123
  0
VERTEX
  8
LAYER_2
 10
211.8213
 20
206.3722
  0
SEQEND
  0
POLYLINE
  8
LAYER_2
 40
0.1058
 41
0.1058
 62
252
 66
1
 10
0
 20
0
 30
0
  0
VERTEX
  8
LAYER_2
 10
183.9295
 20
177.7392
  0
VERTEX
  8
LAYER_2
 10
212.2507
 20
206.0991
  0
SEQEND
  0
POLYLINE
  8
LAYER_2
 40
0.1058
 41
0.1058
 62
252
 66
1
 10
0
 20
0
 30
0
  0
VERTEX
  8
LAYER_2
 10
184.3586
 20
177.5052
  0
VERTEX
  8
LAYER_2
 10
212.6798
 20
205.7872
  0
SEQEND
  0
POLYLINE
  8
LAYER_2
 40
0.1058
 41
0.1058
 62
252
 66
1
 10
0
 20
0
 30
0
  0
VERTEX
  8
LAYER_2
 10
184.8267
 20
177.2711
  0
VERTEX
  8
LAYER_2
 10
213.0697
 20
205.514
  0
SEQEND
  0
POLYLINE
  8
LAYER_2
 40
0.1058
 41
0.1058
 62
252
 66
1
 10
0
 20
0
 30
0
  0
VERTEX
  8
LAYER_2
 10
185.2949
 20
177.037
  0
VERTEX
  8
LAYER_2
 10
213.499
 20
205.2021
  0
SEQEND
  0
POLYLINE
  8
LAYER_2
 40
0.1058
 41
0.1058
 62
252
 66
1
 10
0
 20
0
 30
0
  0
VERTEX
  8
LAYER_2
 10
185.8019
 20
176.803
  0
VERTEX
  8
LAYER_2
 10
213.8888
 20
204.8898
  0
SEQEND
  0
POLYLINE
  8
LAYER_2
 40
0.1058
 41
0.1058
 62
252
 66
1
 10
0
 20
0
 30
0
  0
VERTEX
  8
LAYER_2
 10
186.2701
 20
176.5689
  0
VERTEX
  8
LAYER_2
 10
214.2791
 20
204.5779
  0
SEQEND
  0
POLYLINE
  8
LAYER_2
 40
0.1058
 41
0.1058
 62
252
 66
1
 10
0
 20
0
 30
0
  0
VERTEX
  8
LAYER_2
 10
186.7772
 20
176.3739
  0
VERTEX
  8
LAYER_2
 10
214.6692
 20
204.2659
  0
SEQEND
  0
POLYLINE
  8
LAYER_2
 40
0.1058
 41
0.1058
 62
252
 66
1
 10
0
 20
0
 30
0
  0
VERTEX
  8
LAYER_2
 10
187.2843
 20
176.1788
  0
VERTEX
  8
LAYER_2
 10
215.0203
 20
203.9148
  0
SEQEND
  0
POLYLINE
  8
LAYER_2
 40
0.1058
 41
0.1058
 62
252
 66
1
 10
0
 20
0
 30
0
  0
VERTEX
  8
LAYER_2
 10
187.7915
 20
175.9838
  0
VERTEX
  8
LAYER_2
 10
215.3713
 20
203.5636
  0
SEQEND
  0
POLYLINE
  8
LAYER_2
 40
0.1058
 41
0.1058
 62
252
 66
1
 10
0
 20
0
 30
0
  0
VERTEX
  8
LAYER_2
 10
188.3376
 20
175.7887
  0
VERTEX
  8
LAYER_2
 10
215.7223
 20
203.2125
  0
SEQEND
  0
POLYLINE
  8
LAYER_2
 40
0.1058
 41
0.1058
 62
252
 66
1
 10
0
 20
0
 30
0
  0
VERTEX
  8
LAYER_2
 10
188.8447
 20
175.6327
  0
VERTEX
  8
LAYER_2
 10
216.0733
 20
202.8613
  0
SEQEND
  0
POLYLINE
  8
LAYER_2
 40
0.1058
 41
0.1058
 62
252
 66
1
 10
0
 20
0
 30
0
  0
VERTEX
  8
LAYER_2
 10
189.3908
 20
175.4766
  0
VERTEX
  8
LAYER_2
 10
216.4246
 20
202.4713
  0
SEQEND
  0
POLYLINE
  8
LAYER_2
 40
0.1058
 41
0.1058
 62
252
 66
1
 10
0
 20
0
 30
0
  0
VERTEX
  8
LAYER_2
 10
189.937
 20
175.3206
  0
VERTEX
  8
LAYER_2
 10
216.7368
 20
202.0813
  0
SEQEND
  0
POLYLINE
  8
LAYER_2
 40
0.1058
 41
0.1058
 62
252
 66
1
 10
0
 20
0
 30
0
  0
VERTEX
  8
LAYER_2
 10
190.5221
 20
175.1646
  0
VERTEX
  8
LAYER_2
 10
217.0486
 20
201.691
  0
SEQEND
  0
POLYLINE
  8
LAYER_2
 40
0.1058
 41
0.1058
 62
252
 66
1
 10
0
 20
0
 30
0
  0
VERTEX
  8
LAYER_2
 10
191.1073
 20
175.0085
  0
VERTEX
  8
LAYER_2
 10
217.3607
 20
201.301
  0
SEQEND
  0
POLYLINE
  8
LAYER_2
 40
0.1058
 41
0.1058
 62
252
 66
1
 10
0
 20
0
 30
0
  0
VERTEX
  8
LAYER_2
 10
191.6534
 20
174.8915
  0
VERTEX
  8
LAYER_2
 10
217.6338
 20
200.8719
  0
SEQEND
  0
POLYLINE
  8
LAYER_2
 40
0.1058
 41
0.1058
 62
252
 66
1
 10
0
 20
0
 30
0
  0
VERTEX
  8
LAYER_2
 10
192.2776
 20
174.7745
  0
VERTEX
  8
LAYER_2
 10
217.9461
 20
200.443
  0
SEQEND
  0
POLYLINE
  8
LAYER_2
 40
0.1058
 41
0.1058
 62
252
 66
1
 10
0
 20
0
 30
0
  0
VERTEX
  8
LAYER_2
 10
192.8627
 20
174.6965
  0
VERTEX
  8
LAYER_2
 10
218.2191
 20
200.0137
  0
SEQEND
  0
POLYLINE
  8
LAYER_2
 40
0.1058
 41
0.1058
 62
252
 66
1
 10
0
 20
0
 30
0
  0
VERTEX
  8
LAYER_2
 10
193.4869
 20
174.5794
  0
VERTEX
  8
LAYER_2
 10
218.4532
 20
199.5846
  0
SEQEND
  0
POLYLINE
  8
LAYER_2
 40
0.1058
 41
0.1058
 62
252
 66
1
 10
0
 20
0
 30
0
  0
VERTEX
  8
LAYER_2
 10
194.111
 20
174.5014
  0
VERTEX
  8
LAYER_2
 10
218.7261
 20
199.1165
  0
SEQEND
  0
POLYLINE
  8
LAYER_2
 40
0.1058
 41
0.1058
 62
252
 66
1
 10
0
 20
0
 30
0
  0
VERTEX
  8
LAYER_2
 10
194.7742
 20
174.4624
  0
VERTEX
  8
LAYER_2
 10
218.9602
 20
198.6484
  0
SEQEND
  0
POLYLINE
  8
LAYER_2
 40
0.1058
 41
0.1058
 62
252
 66
1
 10
0
 20
0
 30
0
  0
VERTEX
  8
LAYER_2
 10
195.3983
 20
174.3844
  0
VERTEX
  8
LAYER_2
 10
219.1552
 20
198.1412
  0
SEQEND
  0
POLYLINE
  8
LAYER_2
 40
0.1058
 41
0.1058
 62
252
 66
1
 10
0
 20
0
 30
0
  0
VERTEX
  8
LAYER_2
 10
196.1005
 20
174.3844
  0
VERTEX
  8
LAYER_2
 10
219.3891
 20
197.673
  0
SEQEND
  0
POLYLINE
  8
LAYER_2
 40
0.1058
 41
0.1058
 62
252
 66
1
 10
0
 20
0
 30
0
  0
VERTEX
  8
LAYER_2
 10
196.7637
 20
174.3453
  0
VERTEX
  8
LAYER_2
 10
219.5844
 20
197.127
  0
SEQEND
  0
POLYLINE
  8
LAYER_2
 40
0.1058
 41
0.1058
 62
252
 66
1
 10
0
 20
0
 30
0
  0
VERTEX
  8
LAYER_2
 10
197.4659
 20
174.3453
  0
VERTEX
  8
LAYER_2
 10
219.7405
 20
196.62
  0
SEQEND
  0
POLYLINE
  8
LAYER_2
 40
0.1058
 41
0.1058
 62
252
 66
1
 10
0
 20
0
 30
0
  0
VERTEX
  8
LAYER_2
 10
198.2071
 20
174.3453
  0
VERTEX
  8
LAYER_2
 10
219.8965
 20
196.0739
  0
SEQEND
  0
POLYLINE
  8
LAYER_2
 40
0.1058
 41
0.1058
 62
252
 66
1
 10
0
 20
0
 30
0
  0
VERTEX
  8
LAYER_2
 10
198.9092
 20
174.3844
  0
VERTEX
  8
LAYER_2
 10
220.0526
 20
195.4886
  0
SEQEND
  0
POLYLINE
  8
LAYER_2
 40
0.1058
 41
0.1058
 62
252
 66
1
 10
0
 20
0
 30
0
  0
VERTEX
  8
LAYER_2
 10
199.6894
 20
174.4234
  0
VERTEX
  8
LAYER_2
 10
220.1694
 20
194.9033
  0
SEQEND
  0
POLYLINE
  8
LAYER_2
 40
0.1058
 41
0.1058
 62
252
 66
1
 10
0
 20
0
 30
0
  0
VERTEX
  8
LAYER_2
 10
200.4696
 20
174.5014
  0
VERTEX
  8
LAYER_2
 10
220.2474
 20
194.3183
  0
SEQEND
  0
POLYLINE
  8
LAYER_2
 40
0.1058
 41
0.1058
 62
252
 66
1
 10
0
 20
0
 30
0
  0
VERTEX
  8
LAYER_2
 10
201.2498
 20
174.5794
  0
VERTEX
  8
LAYER_2
 10
220.3254
 20
193.655
  0
SEQEND
  0
POLYLINE
  8
LAYER_2
 40
0.1058
 41
0.1058
 62
252
 66
1
 10
0
 20
0
 30
0
  0
VERTEX
  8
LAYER_2
 10
202.108
 20
174.6965
  0
VERTEX
  8
LAYER_2
 10
220.3645
 20
192.992
  0
SEQEND
  0
POLYLINE
  8
LAYER_2
 40
0.1058
 41
0.1058
 62
252
 66
1
 10
0
 20
0
 30
0
  0
VERTEX
  8
LAYER_2
 10
202.9662
 20
174.8525
  0
VERTEX
  8
LAYER_2
 10
220.4035
 20
192.3289
  0
SEQEND
  0
POLYLINE
  8
LAYER_2
 40
0.1058
 41
0.1058
 62
252
 66
1
 10
0
 20
0
 30
0
  0
VERTEX
  8
LAYER_2
 10
203.8635
 20
175.0476
  0
VERTEX
  8
LAYER_2
 10
220.3647
 20
191.5875
  0
SEQEND
  0
POLYLINE
  8
LAYER_2
 40
0.1058
 41
0.1058
 62
252
 66
1
 10
0
 20
0
 30
0
  0
VERTEX
  8
LAYER_2
 10
204.7997
 20
175.2816
  0
VERTEX
  8
LAYER_2
 10
220.3257
 20
190.8076
  0
SEQEND
  0
POLYLINE
  8
LAYER_2
 40
0.1058
 41
0.1058
 62
252
 66
1
 10
0
 20
0
 30
0
  0
VERTEX
  8
LAYER_2
 10
205.7749
 20
175.5937
  0
VERTEX
  8
LAYER_2
 10
220.2084
 20
189.9884
  0
SEQEND
  0
POLYLINE
  8
LAYER_2
 40
0.1058
 41
0.1058
 62
252
 66
1
 10
0
 20
0
 30
0
  0
VERTEX
  8
LAYER_2
 10
206.8282
 20
175.9058
  0
VERTEX
  8
LAYER_2
 10
220.0134
 20
189.1301
  0
SEQEND
  0
POLYLINE
  8
LAYER_2
 40
0.1058
 41
0.1058
 62
252
 66
1
 10
0
 20
0
 30
0
  0
VERTEX
  8
LAYER_2
 10
207.9595
 20
176.3349
  0
VERTEX
  8
LAYER_2
 10
219.7794
 20
188.1548
  0
SEQEND
  0
POLYLINE
  8
LAYER_2
 40
0.1058
 41
0.1058
 62
252
 66
1
 10
0
 20
0
 30
0
  0
VERTEX
  8
LAYER_2
 10
209.2468
 20
176.92
  0
VERTEX
  8
LAYER_2
 10
219.3894
 20
187.0625
  0
SEQEND
  0
POLYLINE
  8
LAYER_2
 40
0.1058
 41
0.1058
 62
252
 66
1
 10
0
 20
0
 30
0
  0
VERTEX
  8
LAYER_2
 10
210.6901
 20
177.6222
  0
VERTEX
  8
LAYER_2
 10
218.804
 20
185.7752
  0
SEQEND
  0
POLYLINE
  8
LAYER_2
 40
0.1058
 41
0.1058
 62
252
 66
1
 10
0
 20
0
 30
0
  0
VERTEX
  8
LAYER_2
 10
212.5236
 20
178.7535
  0
VERTEX
  8
LAYER_2
 10
217.8679
 20
184.0978
  0
SEQEND
  0
INSERT
  8
LAYER_2
  2
AIGNBL02010034
 10
0
 20
0
 30
0
  0
POLYLINE
  8
LAYER_2
 40
0.1058
 41
0.1058
 66
1
 10
0
 20
0
 30
0
  0
VERTEX
  8
LAYER_2
 10
174.4111
 20
192.2508
  0
VERTEX
  8
LAYER_2
 10
174.4111
 20
212.9651
  0
SEQEND
  0
POLYLINE
  8
LAYER_2
 40
0.1058
 41
0.1058
 66
1
 10
0
 20
0
 30
0
  0
VERTEX
  8
LAYER_2
 10
220.4036
 20
192.2508
  0
VERTEX
  8
LAYER_2
 10
220.4036
 20
212.9651
  0
SEQEND
  0
POLYLINE
  8
LAYER_2
 40
0.1058
 41
0.1058
 66
1
 10
0
 20
0
 30
0
  0
VERTEX
  8
LAYER_2
 10
175.8935
 20
212.848
  0
VERTEX
  8
LAYER_2
 10
194.54
 20
212.848
  0
SEQEND
  0
POLYLINE
  8
LAYER_2
 40
0.1058
 41
0.1058
 66
1
 10
0
 20
0
 30
0
  0
VERTEX
  8
LAYER_2
 10
218.9212
 20
212.848
  0
VERTEX
  8
LAYER_2
 10
200.2747
 20
212.848
  0
SEQEND
  0
POLYLINE
  8
LAYER_2
 40
0.05
 41
0.05
 66
1
 10
0
 20
0
 30
0
 70
1
  0
VERTEX
  8
LAYER_2
 10
175.8935
 20
213.082
  0
VERTEX
  8
LAYER_2
 10
175.8935
 20
212.575
  0
VERTEX
  8
LAYER_2
 10
174.4113
 20
212.848
  0
SEQEND
  0
POLYLINE
  8
LAYER_2
 66
1
 10
0
 20
0
 30
0
 70
1
  0
VERTEX
  8
LAYER_2
 10
175.8935
 20
213.082
  0
VERTEX
  8
LAYER_2
 10
175.8935
 20
212.575
  0
VERTEX
  8
LAYER_2
 10
174.4113
 20
212.848
  0
SEQEND
  0
POLYLINE
  8
LAYER_2
 40
0.05
 41
0.05
 66
1
 10
0
 20
0
 30
0
 70
1
  0
VERTEX
  8
LAYER_2
 10
218.9212
 20
213.082
  0
VERTEX
  8
LAYER_2
 10
218.9212
 20
212.575
  0
VERTEX
  8
LAYER_2
 10
220.4034
 20
212.848
  0
SEQEND
  0
POLYLINE
  8
LAYER_2
 66
1
 10
0
 20
0
 30
0
 70
1
  0
VERTEX
  8
LAYER_2
 10
218.9212
 20
213.082
  0
VERTEX
  8
LAYER_2
 10
218.9212
 20
212.575
  0
VERTEX
  8
LAYER_2
 10
220.4034
 20
212.848
  0
SEQEND
  0
TEXT
  8
LAYER_2
 10
194.579
 20
211.5998
 11
194.579
 21
211.5998
 40
2.7848
 41
0.5
  1
460
  0
POLYLINE
  8
LAYER_2
 40
0.1058
 41
0.1058
 66
1
 10
0
 20
0
 30
0
  0
VERTEX
  8
LAYER_2
 10
197.1538
 20
174.3453
  0
VERTEX
  8
LAYER_2
 10
171.6804
 20
174.3453
  0
SEQEND
  0
POLYLINE
  8
LAYER_2
 40
0.1058
 41
0.1058
 66
1
 10
0
 20
0
 30
0
  0
VERTEX
  8
LAYER_2
 10
196.9197
 20
210.3513
  0
VERTEX
  8
LAYER_2
 10
171.6803
 20
210.3513
  0
SEQEND
  0
POLYLINE
  8
LAYER_2
 40
0.1058
 41
0.1058
 66
1
 10
0
 20
0
 30
0
  0
VERTEX
  8
LAYER_2
 10
171.7975
 20
175.8277
  0
VERTEX
  8
LAYER_2
 10
171.7975
 20
189.2472
  0
SEQEND
  0
POLYLINE
  8
LAYER_2
 40
0.1058
 41
0.1058
 66
1
 10
0
 20
0
 30
0
  0
VERTEX
  8
LAYER_2
 10
171.7975
 20
208.8299
  0
VERTEX
  8
LAYER_2
 10
171.7975
 20
194.8644
  0
SEQEND
  0
POLYLINE
  8
LAYER_2
 40
0.05
 41
0.05
 66
1
 10
0
 20
0
 30
0
 70
1
  0
VERTEX
  8
LAYER_2
 10
171.5634
 20
175.8277
  0
VERTEX
  8
LAYER_2
 10
172.0704
 20
175.8277
  0
VERTEX
  8
LAYER_2
 10
171.7973
 20
174.3455
  0
SEQEND
  0
POLYLINE
  8
LAYER_2
 66
1
 10
0
 20
0
 30
0
 70
1
  0
VERTEX
  8
LAYER_2
 10
171.5634
 20
175.8277
  0
VERTEX
  8
LAYER_2
 10
172.0704
 20
175.8277
  0
VERTEX
  8
LAYER_2
 10
171.7973
 20
174.3455
  0
SEQEND
  0
POLYLINE
  8
LAYER_2
 40
0.05
 41
0.05
 66
1
 10
0
 20
0
 30
0
 70
1
  0
VERTEX
  8
LAYER_2
 10
171.5634
 20
208.8299
  0
VERTEX
  8
LAYER_2
 10
172.0704
 20
208.8299
  0
VERTEX
  8
LAYER_2
 10
171.7973
 20
210.3512
  0
SEQEND
  0
POLYLINE
  8
LAYER_2
 66
1
 10
0
 20
0
 30
0
 70
1
  0
VERTEX
  8
LAYER_2
 10
171.5634
 20
208.8299
  0
VERTEX
  8
LAYER_2
 10
172.0704
 20
208.8299
  0
VERTEX
  8
LAYER_2
 10
171.7973
 20
210.3512
  0
SEQEND
  0
TEXT
  8
LAYER_2
 10
173.0456
 20
189.1688
 11
173.0456
 21
189.1688
 40
2.7848
 41
0.5
 50
89.99999999
  1
360
  0
POLYLINE
  8
LAYER_2
 40
0.7726
 41
0.7726
 66
1
 10
0
 20
0
 30
0
  0
VERTEX
  8
LAYER_2
 10
73.8294
 20
111.6727
  0
VERTEX
  8
LAYER_2
 10
19.1766
 20
111.6727
  0
SEQEND
  0
TEXT
  8
LAYER_2
 10
44.884
 20
123.0247
 11
44.884
 21
123.0247
 40
2.7848
 41
0.5
  1
TOP
  0
TEXT
  8
LAYER_2
 10
142.0352
 20
87.9539
 11
142.0352
 21
87.9539
 40
2.7848
 41
0.5
  1
BACK
  0
TEXT
  8
LAYER_2
 10
144.2037
 20
123.0229
 11
144.2037
 21
123.0229
 40
2.7848
 41
0.5
  1
SIDE
  0
POLYLINE
  8
LAYER_2
 40
0.7726
 41
0.7726
 66
1
 10
0
 20
0
 30
0
  0
VERTEX
  8
LAYER_2
 10
173.89
 20
145.6501
  0
VERTEX
  8
LAYER_2
 10
119.2373
 20
145.6501
  0
SEQEND
  0
POLYLINE
  8
LAYER_2
 40
0.1623
 41
0.1623
 66
1
 10
0
 20
0
 30
0
  0
VERTEX
  8
LAYER_2
 10
127.5465
 20
145.6501
  0
VERTEX
  8
LAYER_2
 10
166.1272
 20
145.6501
  0
SEQEND
  0
POLYLINE
  8
LAYER_2
 40
0.4868
 41
0.4868
 66
1
 10
0
 20
0
 30
0
  0
VERTEX
  8
LAYER_2
 10
127.0003
 20
141.6712
  0
VERTEX
  8
LAYER_2
 10
127.5855
 20
141.6712
  0
SEQEND
  0
INSERT
  8
LAYER_2
  2
AIGNBL02010035
 10
0
 20
0
 30
0
  0
POLYLINE
  8
LAYER_2
 40
0.4868
 41
0.4868
 66
1
 10
0
 20
0
 30
0
  0
VERTEX
  8
LAYER_2
 10
143.3064
 20
127.4716
  0
VERTEX
  8
LAYER_2
 10
143.3064
 20
127.7447
  0
SEQEND
  0
INSERT
  8
LAYER_2
  2
AIGNBL02010036
 10
0
 20
0
 30
0
  0
POLYLINE
  8
LAYER_2
 40
0.1623
 41
0.1623
 66
1
 10
0
 20
0
 30
0
  0
VERTEX
  8
LAYER_2
 10
144.0476
 20
127.1595
  0
VERTEX
  8
LAYER_2
 10
149.665
 20
127.1595
  0
SEQEND
  0
POLYLINE
  8
LAYER_2
 40
0.4868
 41
0.4868
 66
1
 10
0
 20
0
 30
0
  0
VERTEX
  8
LAYER_2
 10
144.5157
 20
131.1385
  0
VERTEX
  8
LAYER_2
 10
144.5157
 20
130.4755
  0
SEQEND
  0
POLYLINE
  8
LAYER_2
 40
0.4868
 41
0.4868
 66
1
 10
0
 20
0
 30
0
  0
VERTEX
  8
LAYER_2
 10
144.5157
 20
129.4221
  0
VERTEX
  8
LAYER_2
 10
144.5157
 20
127.4717
  0
SEQEND
  0
POLYLINE
  8
LAYER_2
 40
0.4868
 41
0.4868
 66
1
 10
0
 20
0
 30
0
  0
VERTEX
  8
LAYER_2
 10
143.6185
 20
127.1595
  0
VERTEX
  8
LAYER_2
 10
144.2428
 20
127.1595
  0
SEQEND
  0
INSERT
  8
LAYER_2
  2
AIGNBL02010037
 10
0
 20
0
 30
0
  0
POLYLINE
  8
LAYER_2
 40
0.4868
 41
0.4868
 66
1
 10
0
 20
0
 30
0
  0
VERTEX
  8
LAYER_2
 10
123.6065
 20
145.6501
  0
VERTEX
  8
LAYER_2
 10
127.5465
 20
145.6501
  0
SEQEND
  0
INSERT
  8
LAYER_2
  2
AIGNBL02010038
 10
0
 20
0
 30
0
  0
POLYLINE
  8
LAYER_2
 40
0.4868
 41
0.4868
 66
1
 10
0
 20
0
 30
0
  0
VERTEX
  8
LAYER_2
 10
150.4062
 20
127.4716
  0
VERTEX
  8
LAYER_2
 10
150.4062
 20
130.4755
  0
SEQEND
  0
INSERT
  8
LAYER_2
  2
AIGNBL02010039
 10
0
 20
0
 30
0
  0
POLYLINE
  8
LAYER_2
 40
0.4868
 41
0.4868
 66
1
 10
0
 20
0
 30
0
  0
VERTEX
  8
LAYER_2
 10
149.1189
 20
131.1385
  0
VERTEX
  8
LAYER_2
 10
149.1189
 20
127.4716
  0
SEQEND
  0
POLYLINE
  8
LAYER_2
 40
0.4868
 41
0.4868
 66
1
 10
0
 20
0
 30
0
  0
VERTEX
  8
LAYER_2
 10
150.0941
 20
127.1595
  0
VERTEX
  8
LAYER_2
 10
149.431
 20
127.1595
  0
SEQEND
  0
INSERT
  8
LAYER_2
  2
AIGNBL0201003A
 10
0
 20
0
 30
0
  0
POLYLINE
  8
LAYER_2
 40
0.4868
 41
0.4868
 66
1
 10
0
 20
0
 30
0
  0
VERTEX
  8
LAYER_2
 10
127.8195
 20
143.9727
  0
VERTEX
  8
LAYER_2
 10
127.8195
 20
145.338
  0
SEQEND
  0
INSERT
  8
LAYER_2
  2
AIGNBL0201003B
 10
0
 20
0
 30
0
  0
POLYLINE
  8
LAYER_2
 40
0.4868
 41
0.4868
 66
1
 10
0
 20
0
 30
0
  0
VERTEX
  8
LAYER_2
 10
143.3064
 20
130.4754
  0
VERTEX
  8
LAYER_2
 10
144.5155
 20
130.4754
  0
SEQEND
  0
POLYLINE
  8
LAYER_2
 40
0.4868
 41
0.4868
 66
1
 10
0
 20
0
 30
0
  0
VERTEX
  8
LAYER_2
 10
143.3064
 20
129.4221
  0
VERTEX
  8
LAYER_2
 10
144.5155
 20
129.4221
  0
SEQEND
  0
POLYLINE
  8
LAYER_2
 40
0.1623
 41
0.1623
 66
1
 10
0
 20
0
 30
0
  0
VERTEX
  8
LAYER_2
 10
144.5157
 20
130.4754
  0
VERTEX
  8
LAYER_2
 10
144.5157
 20
129.422
  0
SEQEND
  0
POLYLINE
  8
LAYER_2
 40
0.1623
 41
0.1623
 66
1
 10
0
 20
0
 30
0
  0
VERTEX
  8
LAYER_2
 10
143.3064
 20
130.4754
  0
VERTEX
  8
LAYER_2
 10
143.3064
 20
129.422
  0
SEQEND
  0
POLYLINE
  8
LAYER_2
 40
0.4868
 41
0.4868
 66
1
 10
0
 20
0
 30
0
  0
VERTEX
  8
LAYER_2
 10
123.3334
 20
145.3771
  0
VERTEX
  8
LAYER_2
 10
123.3334
 20
142.5684
  0
SEQEND
  0
POLYLINE
  8
LAYER_2
 40
0.4868
 41
0.4868
 66
1
 10
0
 20
0
 30
0
  0
VERTEX
  8
LAYER_2
 10
136.8698
 20
132.4259
  0
VERTEX
  8
LAYER_2
 10
143.2675
 20
132.1528
  0
SEQEND
  0
INSERT
  8
LAYER_2
  2
AIGNBL0201003C
 10
0
 20
0
 30
0
  0
POLYLINE
  8
LAYER_2
 40
0.4868
 41
0.4868
 66
1
 10
0
 20
0
 30
0
  0
VERTEX
  8
LAYER_2
 10
136.8308
 20
131.2166
  0
VERTEX
  8
LAYER_2
 10
142.7994
 20
130.9435
  0
SEQEND
  0
POLYLINE
  8
LAYER_2
 40
0.4868
 41
0.4868
 66
1
 10
0
 20
0
 30
0
  0
VERTEX
  8
LAYER_2
 10
136.7528
 20
129.6952
  0
VERTEX
  8
LAYER_2
 10
143.3063
 20
129.4221
  0
SEQEND
  0
POLYLINE
  8
LAYER_2
 40
0.4868
 41
0.4868
 66
1
 10
0
 20
0
 30
0
  0
VERTEX
  8
LAYER_2
 10
136.7138
 20
128.4859
  0
VERTEX
  8
LAYER_2
 10
142.7994
 20
128.2519
  0
SEQEND
  0
INSERT
  8
LAYER_2
  2
AIGNBL0201003D
 10
0
 20
0
 30
0
  0
POLYLINE
  8
LAYER_2
 40
0.4868
 41
0.4868
 66
1
 10
0
 20
0
 30
0
  0
VERTEX
  8
LAYER_2
 10
156.2576
 20
131.3726
  0
VERTEX
  8
LAYER_2
 10
150.8742
 20
130.9435
  0
SEQEND
  0
POLYLINE
  8
LAYER_2
 40
0.4868
 41
0.4868
 66
1
 10
0
 20
0
 30
0
  0
VERTEX
  8
LAYER_2
 10
156.1796
 20
132.5819
  0
VERTEX
  8
LAYER_2
 10
150.3671
 20
132.1528
  0
SEQEND
  0
POLYLINE
  8
LAYER_2
 40
0.1623
 41
0.1623
 66
1
 10
0
 20
0
 30
0
  0
VERTEX
  8
LAYER_2
 10
149.1189
 20
131.1385
  0
VERTEX
  8
LAYER_2
 10
144.5158
 20
131.1385
  0
SEQEND
  0
POLYLINE
  8
LAYER_2
 40
0.4868
 41
0.4868
 66
1
 10
0
 20
0
 30
0
  0
VERTEX
  8
LAYER_2
 10
143.2674
 20
132.1528
  0
VERTEX
  8
LAYER_2
 10
144.5156
 20
131.1385
  0
SEQEND
  0
POLYLINE
  8
LAYER_2
 40
0.1623
 41
0.1623
 66
1
 10
0
 20
0
 30
0
  0
VERTEX
  8
LAYER_2
 10
150.3672
 20
132.1528
  0
VERTEX
  8
LAYER_2
 10
143.2673
 20
132.1528
  0
SEQEND
  0
POLYLINE
  8
LAYER_2
 40
0.4868
 41
0.4868
 66
1
 10
0
 20
0
 30
0
  0
VERTEX
  8
LAYER_2
 10
150.3672
 20
132.1528
  0
VERTEX
  8
LAYER_2
 10
149.1189
 20
131.1385
  0
SEQEND
  0
POLYLINE
  8
LAYER_2
 40
0.4868
 41
0.4868
 66
1
 10
0
 20
0
 30
0
  0
VERTEX
  8
LAYER_2
 10
124.6208
 20
143.6216
  0
VERTEX
  8
LAYER_2
 10
124.6208
 20
142.6073
  0
SEQEND
  0
INSERT
  8
LAYER_2
  2
AIGNBL0201003E
 10
0
 20
0
 30
0
  0
POLYLINE
  8
LAYER_2
 40
0.4868
 41
0.4868
 66
1
 10
0
 20
0
 30
0
  0
VERTEX
  8
LAYER_2
 10
167.8045
 20
145.3771
  0
VERTEX
  8
LAYER_2
 10
167.8045
 20
144.3627
  0
SEQEND
  0
INSERT
  8
LAYER_2
  2
AIGNBL0201003F
 10
0
 20
0
 30
0
  0
POLYLINE
  8
LAYER_2
 40
0.4868
 41
0.4868
 66
1
 10
0
 20
0
 30
0
  0
VERTEX
  8
LAYER_2
 10
167.5314
 20
145.6501
  0
VERTEX
  8
LAYER_2
 10
167.3363
 20
145.6501
  0
SEQEND
  0
POLYLINE
  8
LAYER_2
 40
0.4868
 41
0.4868
 66
1
 10
0
 20
0
 30
0
  0
VERTEX
  8
LAYER_2
 10
166.3221
 20
145.6501
  0
VERTEX
  8
LAYER_2
 10
166.0882
 20
145.6501
  0
SEQEND
  0
INSERT
  8
LAYER_2
  2
AIGNBL02010040
 10
0
 20
0
 30
0
  0
POLYLINE
  8
LAYER_2
 40
0.4868
 41
0.4868
 66
1
 10
0
 20
0
 30
0
  0
VERTEX
  8
LAYER_2
 10
165.815
 20
145.3771
  0
VERTEX
  8
LAYER_2
 10
165.815
 20
143.3875
  0
SEQEND
  0
INSERT
  8
LAYER_2
  2
AIGNBL02010041
 10
0
 20
0
 30
0
  0
POLYLINE
  8
LAYER_2
 40
0.1623
 41
0.1623
 66
1
 10
0
 20
0
 30
0
  0
VERTEX
  8
LAYER_2
 10
166.3221
 20
145.6501
  0
VERTEX
  8
LAYER_2
 10
167.3364
 20
145.6501
  0
SEQEND
  0
INSERT
  8
LAYER_2
  2
AIGNBL02010042
 10
0
 20
0
 30
0
  0
POLYLINE
  8
LAYER_2
 40
0.4868
 41
0.4868
 66
1
 10
0
 20
0
 30
0
  0
VERTEX
  8
LAYER_2
 10
167.8045
 20
144.3628
  0
VERTEX
  8
LAYER_2
 10
167.8045
 20
145.3771
  0
SEQEND
  0
INSERT
  8
LAYER_2
  2
AIGNBL02010043
 10
0
 20
0
 30
0
  0
POLYLINE
  8
LAYER_2
 40
0.1623
 41
0.1623
 66
1
 10
0
 20
0
 30
0
  0
VERTEX
  8
LAYER_2
 10
143.3064
 20
127.4716
  0
VERTEX
  8
LAYER_2
 10
143.3064
 20
127.7447
  0
SEQEND
  0
POLYLINE
  8
LAYER_2
 40
0.1623
 41
0.1623
 66
1
 10
0
 20
0
 30
0
  0
VERTEX
  8
LAYER_2
 10
136.8308
 20
131.2166
  0
VERTEX
  8
LAYER_2
 10
142.6821
 20
130.9435
  0
SEQEND
  0
INSERT
  8
LAYER_2
  2
AIGNBL02010044
 10
0
 20
0
 30
0
  0
POLYLINE
  8
LAYER_2
 40
0.1058
 41
0.1058
 66
1
 10
0
 20
0
 30
0
  0
VERTEX
  8
LAYER_2
 10
123.3334
 20
145.4161
  0
VERTEX
  8
LAYER_2
 10
123.3334
 20
150.8774
  0
SEQEND
  0
POLYLINE
  8
LAYER_2
 40
0.1058
 41
0.1058
 66
1
 10
0
 20
0
 30
0
  0
VERTEX
  8
LAYER_2
 10
167.8045
 20
145.4161
  0
VERTEX
  8
LAYER_2
 10
167.8045
 20
150.8774
  0
SEQEND
  0
POLYLINE
  8
LAYER_2
 40
0.1058
 41
0.1058
 66
1
 10
0
 20
0
 30
0
  0
VERTEX
  8
LAYER_2
 10
124.8158
 20
150.7604
  0
VERTEX
  8
LAYER_2
 10
143.1505
 20
150.7604
  0
SEQEND
  0
POLYLINE
  8
LAYER_2
 40
0.1058
 41
0.1058
 66
1
 10
0
 20
0
 30
0
  0
VERTEX
  8
LAYER_2
 10
166.3221
 20
150.7604
  0
VERTEX
  8
LAYER_2
 10
148.9239
 20
150.7604
  0
SEQEND
  0
POLYLINE
  8
LAYER_2
 40
0.05
 41
0.05
 66
1
 10
0
 20
0
 30
0
 70
1
  0
VERTEX
  8
LAYER_2
 10
124.8158
 20
150.9945
  0
VERTEX
  8
LAYER_2
 10
124.8158
 20
150.4875
  0
VERTEX
  8
LAYER_2
 10
123.3336
 20
150.7605
  0
SEQEND
  0
POLYLINE
  8
LAYER_2
 66
1
 10
0
 20
0
 30
0
 70
1
  0
VERTEX
  8
LAYER_2
 10
124.8158
 20
150.9945
  0
VERTEX
  8
LAYER_2
 10
124.8158
 20
150.4875
  0
VERTEX
  8
LAYER_2
 10
123.3336
 20
150.7605
  0
SEQEND
  0
POLYLINE
  8
LAYER_2
 40
0.05
 41
0.05
 66
1
 10
0
 20
0
 30
0
 70
1
  0
VERTEX
  8
LAYER_2
 10
166.3221
 20
150.9945
  0
VERTEX
  8
LAYER_2
 10
166.3221
 20
150.4875
  0
VERTEX
  8
LAYER_2
 10
167.8043
 20
150.7605
  0
SEQEND
  0
POLYLINE
  8
LAYER_2
 66
1
 10
0
 20
0
 30
0
 70
1
  0
VERTEX
  8
LAYER_2
 10
166.3221
 20
150.9945
  0
VERTEX
  8
LAYER_2
 10
166.3221
 20
150.4875
  0
VERTEX
  8
LAYER_2
 10
167.8043
 20
150.7605
  0
SEQEND
  0
TEXT
  8
LAYER_2
 10
144.0909
 20
149.6887
 11
144.0909
 21
149.6887
 40
2.7848
 41
0.5
  1
445
  0
POLYLINE
  8
LAYER_2
 40
0.1058
 41
0.1058
 66
1
 10
0
 20
0
 30
0
  0
VERTEX
  8
LAYER_2
 10
123.5675
 20
145.6501
  0
VERTEX
  8
LAYER_2
 10
118.6914
 20
145.6501
  0
SEQEND
  0
POLYLINE
  8
LAYER_2
 40
0.1058
 41
0.1058
 66
1
 10
0
 20
0
 30
0
  0
VERTEX
  8
LAYER_2
 10
143.5405
 20
127.1595
  0
VERTEX
  8
LAYER_2
 10
118.6914
 20
127.1595
  0
SEQEND
  0
POLYLINE
  8
LAYER_2
 40
0.1058
 41
0.1058
 66
1
 10
0
 20
0
 30
0
  0
VERTEX
  8
LAYER_2
 10
118.8083
 20
144.1678
  0
VERTEX
  8
LAYER_2
 10
118.8083
 20
139.1356
  0
SEQEND
  0
POLYLINE
  8
LAYER_2
 40
0.1058
 41
0.1058
 66
1
 10
0
 20
0
 30
0
  0
VERTEX
  8
LAYER_2
 10
118.8083
 20
128.6419
  0
VERTEX
  8
LAYER_2
 10
118.8083
 20
133.6741
  0
SEQEND
  0
POLYLINE
  8
LAYER_2
 40
0.05
 41
0.05
 66
1
 10
0
 20
0
 30
0
 70
1
  0
VERTEX
  8
LAYER_2
 10
118.5352
 20
144.1678
  0
VERTEX
  8
LAYER_2
 10
119.0422
 20
144.1678
  0
VERTEX
  8
LAYER_2
 10
118.8083
 20
145.65
  0
SEQEND
  0
POLYLINE
  8
LAYER_2
 66
1
 10
0
 20
0
 30
0
 70
1
  0
VERTEX
  8
LAYER_2
 10
118.5352
 20
144.1678
  0
VERTEX
  8
LAYER_2
 10
119.0422
 20
144.1678
  0
VERTEX
  8
LAYER_2
 10
118.8083
 20
145.65
  0
SEQEND
  0
POLYLINE
  8
LAYER_2
 40
0.05
 41
0.05
 66
1
 10
0
 20
0
 30
0
 70
1
  0
VERTEX
  8
LAYER_2
 10
118.5352
 20
128.6419
  0
VERTEX
  8
LAYER_2
 10
119.0422
 20
128.6419
  0
VERTEX
  8
LAYER_2
 10
118.8083
 20
127.1597
  0
SEQEND
  0
POLYLINE
  8
LAYER_2
 66
1
 10
0
 20
0
 30
0
 70
1
  0
VERTEX
  8
LAYER_2
 10
118.5352
 20
128.6419
  0
VERTEX
  8
LAYER_2
 10
119.0422
 20
128.6419
  0
VERTEX
  8
LAYER_2
 10
118.8083
 20
127.1597
  0
SEQEND
  0
TEXT
  8
LAYER_2
 10
119.6646
 20
134.1852
 11
119.6646
 21
134.1852
 40
2.7848
 41
0.5
 50
89.99999999
  1
185
  0
POLYLINE
  8
LAYER_2
 40
0.1058
 41
0.1058
 66
1
 10
0
 20
0
 30
0
  0
VERTEX
  8
LAYER_2
 10
146.8953
 20
132.1528
  0
VERTEX
  8
LAYER_2
 10
148.4557
 20
132.1528
  0
SEQEND
  0
POLYLINE
  8
LAYER_2
 40
0.1058
 41
0.1058
 66
1
 10
0
 20
0
 30
0
  0
VERTEX
  8
LAYER_2
 10
146.8953
 20
145.6501
  0
VERTEX
  8
LAYER_2
 10
148.4557
 20
145.6501
  0
SEQEND
  0
POLYLINE
  8
LAYER_2
 40
0.1058
 41
0.1058
 66
1
 10
0
 20
0
 30
0
  0
VERTEX
  8
LAYER_2
 10
148.2996
 20
133.6742
  0
VERTEX
  8
LAYER_2
 10
148.2996
 20
136.2098
  0
SEQEND
  0
POLYLINE
  8
LAYER_2
 40
0.1058
 41
0.1058
 66
1
 10
0
 20
0
 30
0
  0
VERTEX
  8
LAYER_2
 10
148.2996
 20
144.1678
  0
VERTEX
  8
LAYER_2
 10
148.2996
 20
141.6321
  0
SEQEND
  0
POLYLINE
  8
LAYER_2
 40
0.05
 41
0.05
 66
1
 10
0
 20
0
 30
0
 70
1
  0
VERTEX
  8
LAYER_2
 10
148.0656
 20
133.6742
  0
VERTEX
  8
LAYER_2
 10
148.5726
 20
133.6742
  0
VERTEX
  8
LAYER_2
 10
148.2995
 20
132.1528
  0
SEQEND
  0
POLYLINE
  8
LAYER_2
 66
1
 10
0
 20
0
 30
0
 70
1
  0
VERTEX
  8
LAYER_2
 10
148.0656
 20
133.6742
  0
VERTEX
  8
LAYER_2
 10
148.5726
 20
133.6742
  0
VERTEX
  8
LAYER_2
 10
148.2995
 20
132.1528
  0
SEQEND
  0
POLYLINE
  8
LAYER_2
 40
0.05
 41
0.05
 66
1
 10
0
 20
0
 30
0
 70
1
  0
VERTEX
  8
LAYER_2
 10
148.0656
 20
144.1678
  0
VERTEX
  8
LAYER_2
 10
148.5726
 20
144.1678
  0
VERTEX
  8
LAYER_2
 10
148.2995
 20
145.65
  0
SEQEND
  0
POLYLINE
  8
LAYER_2
 66
1
 10
0
 20
0
 30
0
 70
1
  0
VERTEX
  8
LAYER_2
 10
148.0656
 20
144.1678
  0
VERTEX
  8
LAYER_2
 10
148.5726
 20
144.1678
  0
VERTEX
  8
LAYER_2
 10
148.2995
 20
145.65
  0
SEQEND
  0
TEXT
  8
LAYER_2
 10
149.2537
 20
136.6818
 11
149.2537
 21
136.6818
 40
2.7848
 41
0.5
 50
89.99999999
  1
135
  0
POLYLINE
  8
LAYER_2
 40
0.4868
 41
0.4868
 66
1
 10
0
 20
0
 30
0
  0
VERTEX
  8
LAYER_2
 10
127.5075
 20
143.6606
  0
VERTEX
  8
LAYER_2
 10
126.9223
 20
143.6606
  0
SEQEND
  0
INSERT
  8
LAYER_2
  2
AIGNBL02010045
 10
0
 20
0
 30
0
  0
POLYLINE
  8
LAYER_2
 40
0.4868
 41
0.4868
 66
1
 10
0
 20
0
 30
0
  0
VERTEX
  8
LAYER_2
 10
125.1279
 20
144.1678
  0
VERTEX
  8
LAYER_2
 10
126.337
 20
144.1678
  0
SEQEND
  0
POLYLINE
  8
LAYER_2
 40
0.1623
 41
0.1623
 66
1
 10
0
 20
0
 30
0
  0
VERTEX
  8
LAYER_2
 10
127.8195
 20
143.9727
  0
VERTEX
  8
LAYER_2
 10
127.8974
 20
141.3592
  0
SEQEND
  0
POLYLINE
  8
LAYER_2
 40
0.1623
 41
0.1623
 66
1
 10
0
 20
0
 30
0
  0
VERTEX
  8
LAYER_2
 10
126.6102
 20
143.8947
  0
VERTEX
  8
LAYER_2
 10
126.6881
 20
141.359
  0
SEQEND
  0
INSERT
  8
LAYER_2
  2
AIGNBL02010046
 10
0
 20
0
 30
0
  0
POLYLINE
  8
LAYER_2
 40
0.1623
 41
0.1623
 66
1
 10
0
 20
0
 30
0
  0
VERTEX
  8
LAYER_2
 10
43.0117
 20
93.4552
  0
VERTEX
  8
LAYER_2
 10
43.0117
 20
96.459
  0
SEQEND
  0
INSERT
  8
LAYER_2
  2
AIGNBL02010047
 10
0
 20
0
 30
0
  0
POLYLINE
  8
LAYER_2
 40
0.1623
 41
0.1623
 66
1
 10
0
 20
0
 30
0
  0
VERTEX
  8
LAYER_2
 10
72.503
 20
111.3606
  0
VERTEX
  8
LAYER_2
 10
72.503
 20
110.3463
  0
SEQEND
  0
INSERT
  8
LAYER_2
  2
AIGNBL02010048
 10
0
 20
0
 30
0
  0
POLYLINE
  8
LAYER_2
 40
0.1623
 41
0.1623
 66
1
 10
0
 20
0
 30
0
  0
VERTEX
  8
LAYER_2
 10
49.9944
 20
93.4552
  0
VERTEX
  8
LAYER_2
 10
49.9944
 20
96.459
  0
SEQEND
  0
INSERT
  8
LAYER_2
  2
AIGNBL02010049
 10
0
 20
0
 30
0
  0
POLYLINE
  8
LAYER_2
 40
0.4868
 41
0.4868
 66
1
 10
0
 20
0
 30
0
  0
VERTEX
  8
LAYER_2
 10
32.128
 20
98.5654
  0
VERTEX
  8
LAYER_2
 10
42.5827
 20
98.1754
  0
SEQEND
  0
POLYLINE
  8
LAYER_2
 40
0.4868
 41
0.4868
 66
1
 10
0
 20
0
 30
0
  0
VERTEX
  8
LAYER_2
 10
32.05
 20
97.3952
  0
VERTEX
  8
LAYER_2
 10
42.5047
 20
96.966
  0
SEQEND
  0
POLYLINE
  8
LAYER_2
 40
0.4868
 41
0.4868
 66
1
 10
0
 20
0
 30
0
  0
VERTEX
  8
LAYER_2
 10
43.0117
 20
93.4552
  0
VERTEX
  8
LAYER_2
 10
43.0117
 20
96.459
  0
SEQEND
  0
INSERT
  8
LAYER_2
  2
AIGNBL0201004A
 10
0
 20
0
 30
0
  0
POLYLINE
  8
LAYER_2
 40
0.1623
 41
0.1623
 66
1
 10
0
 20
0
 30
0
  0
VERTEX
  8
LAYER_2
 10
43.6749
 20
93.1431
  0
VERTEX
  8
LAYER_2
 10
49.2923
 20
93.1431
  0
SEQEND
  0
POLYLINE
  8
LAYER_2
 40
0.1623
 41
0.1623
 66
1
 10
0
 20
0
 30
0
  0
VERTEX
  8
LAYER_2
 10
48.7851
 20
96.966
  0
VERTEX
  8
LAYER_2
 10
44.1821
 20
96.966
  0
SEQEND
  0
POLYLINE
  8
LAYER_2
 40
0.4868
 41
0.4868
 66
1
 10
0
 20
0
 30
0
  0
VERTEX
  8
LAYER_2
 10
43.0897
 20
98.0583
  0
VERTEX
  8
LAYER_2
 10
44.1819
 20
96.9661
  0
SEQEND
  0
INSERT
  8
LAYER_2
  2
AIGNBL0201004B
 10
0
 20
0
 30
0
  0
POLYLINE
  8
LAYER_2
 40
0.1623
 41
0.1623
 66
1
 10
0
 20
0
 30
0
  0
VERTEX
  8
LAYER_2
 10
50.4236
 20
98.1753
  0
VERTEX
  8
LAYER_2
 10
42.5827
 20
98.1753
  0
SEQEND
  0
POLYLINE
  8
LAYER_2
 40
0.4868
 41
0.4868
 66
1
 10
0
 20
0
 30
0
  0
VERTEX
  8
LAYER_2
 10
44.182
 20
96.966
  0
VERTEX
  8
LAYER_2
 10
44.182
 20
93.4552
  0
SEQEND
  0
POLYLINE
  8
LAYER_2
 40
0.4868
 41
0.4868
 66
1
 10
0
 20
0
 30
0
  0
VERTEX
  8
LAYER_2
 10
43.2848
 20
93.1431
  0
VERTEX
  8
LAYER_2
 10
43.9091
 20
93.1431
  0
SEQEND
  0
INSERT
  8
LAYER_2
  2
AIGNBL0201004C
 10
0
 20
0
 30
0
  0
POLYLINE
  8
LAYER_2
 40
0.4868
 41
0.4868
 66
1
 10
0
 20
0
 30
0
  0
VERTEX
  8
LAYER_2
 10
20.7762
 20
111.6727
  0
VERTEX
  8
LAYER_2
 10
20.9714
 20
111.6727
  0
SEQEND
  0
POLYLINE
  8
LAYER_2
 40
0.4868
 41
0.4868
 66
1
 10
0
 20
0
 30
0
  0
VERTEX
  8
LAYER_2
 10
21.9855
 20
111.6727
  0
VERTEX
  8
LAYER_2
 10
22.2194
 20
111.6727
  0
SEQEND
  0
INSERT
  8
LAYER_2
  2
AIGNBL0201004D
 10
0
 20
0
 30
0
  0
POLYLINE
  8
LAYER_2
 40
0.4868
 41
0.4868
 66
1
 10
0
 20
0
 30
0
  0
VERTEX
  8
LAYER_2
 10
22.4926
 20
111.3606
  0
VERTEX
  8
LAYER_2
 10
22.4926
 20
109.4102
  0
SEQEND
  0
INSERT
  8
LAYER_2
  2
AIGNBL0201004E
 10
0
 20
0
 30
0
  0
POLYLINE
  8
LAYER_2
 40
0.4868
 41
0.4868
 66
1
 10
0
 20
0
 30
0
  0
VERTEX
  8
LAYER_2
 10
49.9944
 20
93.4552
  0
VERTEX
  8
LAYER_2
 10
49.9944
 20
96.459
  0
SEQEND
  0
INSERT
  8
LAYER_2
  2
AIGNBL0201004F
 10
0
 20
0
 30
0
  0
POLYLINE
  8
LAYER_2
 40
0.4868
 41
0.4868
 66
1
 10
0
 20
0
 30
0
  0
VERTEX
  8
LAYER_2
 10
49.9164
 20
98.0583
  0
VERTEX
  8
LAYER_2
 10
48.7851
 20
96.9661
  0
VERTEX
  8
LAYER_2
 10
48.7851
 20
93.4553
  0
SEQEND
  0
POLYLINE
  8
LAYER_2
 40
0.4868
 41
0.4868
 66
1
 10
0
 20
0
 30
0
  0
VERTEX
  8
LAYER_2
 10
49.6824
 20
93.1431
  0
VERTEX
  8
LAYER_2
 10
49.0972
 20
93.1431
  0
SEQEND
  0
INSERT
  8
LAYER_2
  2
AIGNBL02010050
 10
0
 20
0
 30
0
  0
POLYLINE
  8
LAYER_2
 40
0.1623
 41
0.1623
 66
1
 10
0
 20
0
 30
0
  0
VERTEX
  8
LAYER_2
 10
21.9855
 20
111.6727
  0
VERTEX
  8
LAYER_2
 10
20.9712
 20
111.6727
  0
SEQEND
  0
POLYLINE
  8
LAYER_2
 40
0.1623
 41
0.1623
 66
1
 10
0
 20
0
 30
0
  0
VERTEX
  8
LAYER_2
 10
60.9562
 20
97.3952
  0
VERTEX
  8
LAYER_2
 10
50.5015
 20
96.966
  0
SEQEND
  0
INSERT
  8
LAYER_2
  2
AIGNBL02010051
 10
0
 20
0
 30
0
  0
POLYLINE
  8
LAYER_2
 40
0.1623
 41
0.1623
 66
1
 10
0
 20
0
 30
0
  0
VERTEX
  8
LAYER_2
 10
20.5031
 20
110.3464
  0
VERTEX
  8
LAYER_2
 10
20.5031
 20
111.3607
  0
SEQEND
  0
INSERT
  8
LAYER_2
  2
AIGNBL02010052
 10
0
 20
0
 30
0
  0
POLYLINE
  8
LAYER_2
 40
0.4868
 41
0.4868
 66
1
 10
0
 20
0
 30
0
  0
VERTEX
  8
LAYER_2
 10
20.5031
 20
110.3464
  0
VERTEX
  8
LAYER_2
 10
20.5031
 20
111.3607
  0
SEQEND
  0
POLYLINE
  8
LAYER_2
 40
0.4868
 41
0.4868
 66
1
 10
0
 20
0
 30
0
  0
VERTEX
  8
LAYER_2
 10
60.8392
 20
98.5654
  0
VERTEX
  8
LAYER_2
 10
50.4236
 20
98.1754
  0
SEQEND
  0
POLYLINE
  8
LAYER_2
 40
0.4868
 41
0.4868
 66
1
 10
0
 20
0
 30
0
  0
VERTEX
  8
LAYER_2
 10
60.9562
 20
97.3952
  0
VERTEX
  8
LAYER_2
 10
50.5015
 20
96.966
  0
SEQEND
  0
POLYLINE
  8
LAYER_2
 40
0.4868
 41
0.4868
 66
1
 10
0
 20
0
 30
0
  0
VERTEX
  8
LAYER_2
 10
72.191
 20
111.6727
  0
VERTEX
  8
LAYER_2
 10
71.9958
 20
111.6727
  0
SEQEND
  0
POLYLINE
  8
LAYER_2
 40
0.4868
 41
0.4868
 66
1
 10
0
 20
0
 30
0
  0
VERTEX
  8
LAYER_2
 10
70.9817
 20
111.6727
  0
VERTEX
  8
LAYER_2
 10
70.7865
 20
111.6727
  0
SEQEND
  0
INSERT
  8
LAYER_2
  2
AIGNBL02010053
 10
0
 20
0
 30
0
  0
POLYLINE
  8
LAYER_2
 40
0.4868
 41
0.4868
 66
1
 10
0
 20
0
 30
0
  0
VERTEX
  8
LAYER_2
 10
70.4746
 20
111.3606
  0
VERTEX
  8
LAYER_2
 10
70.4746
 20
109.4102
  0
SEQEND
  0
INSERT
  8
LAYER_2
  2
AIGNBL02010054
 10
0
 20
0
 30
0
  0
POLYLINE
  8
LAYER_2
 40
0.4868
 41
0.4868
 66
1
 10
0
 20
0
 30
0
  0
VERTEX
  8
LAYER_2
 10
70.9817
 20
111.6727
  0
VERTEX
  8
LAYER_2
 10
71.996
 20
111.6727
  0
SEQEND
  0
INSERT
  8
LAYER_2
  2
AIGNBL02010055
 10
0
 20
0
 30
0
  0
POLYLINE
  8
LAYER_2
 40
0.4868
 41
0.4868
 66
1
 10
0
 20
0
 30
0
  0
VERTEX
  8
LAYER_2
 10
72.503
 20
110.3464
  0
VERTEX
  8
LAYER_2
 10
72.503
 20
111.3607
  0
SEQEND
  0
POLYLINE
  8
LAYER_2
 40
0.1058
 41
0.1058
 66
1
 10
0
 20
0
 30
0
  0
VERTEX
  8
LAYER_2
 10
46.4446
 20
111.6727
  0
VERTEX
  8
LAYER_2
 10
43.675
 20
111.6727
  0
SEQEND
  0
POLYLINE
  8
LAYER_2
 40
0.1058
 41
0.1058
 66
1
 10
0
 20
0
 30
0
  0
VERTEX
  8
LAYER_2
 10
46.4446
 20
98.1753
  0
VERTEX
  8
LAYER_2
 10
43.675
 20
98.1753
  0
SEQEND
  0
POLYLINE
  8
LAYER_2
 40
0.1058
 41
0.1058
 66
1
 10
0
 20
0
 30
0
  0
VERTEX
  8
LAYER_2
 10
43.8309
 20
110.1513
  0
VERTEX
  8
LAYER_2
 10
43.8309
 20
107.6157
  0
SEQEND
  0
POLYLINE
  8
LAYER_2
 40
0.1058
 41
0.1058
 66
1
 10
0
 20
0
 30
0
  0
VERTEX
  8
LAYER_2
 10
43.8309
 20
99.6577
  0
VERTEX
  8
LAYER_2
 10
43.8309
 20
102.1933
  0
SEQEND
  0
POLYLINE
  8
LAYER_2
 40
0.05
 41
0.05
 66
1
 10
0
 20
0
 30
0
 70
1
  0
VERTEX
  8
LAYER_2
 10
43.5579
 20
110.1513
  0
VERTEX
  8
LAYER_2
 10
44.0649
 20
110.1513
  0
VERTEX
  8
LAYER_2
 10
43.8309
 20
111.6726
  0
SEQEND
  0
POLYLINE
  8
LAYER_2
 66
1
 10
0
 20
0
 30
0
 70
1
  0
VERTEX
  8
LAYER_2
 10
43.5579
 20
110.1513
  0
VERTEX
  8
LAYER_2
 10
44.0649
 20
110.1513
  0
VERTEX
  8
LAYER_2
 10
43.8309
 20
111.6726
  0
SEQEND
  0
POLYLINE
  8
LAYER_2
 40
0.05
 41
0.05
 66
1
 10
0
 20
0
 30
0
 70
1
  0
VERTEX
  8
LAYER_2
 10
43.5579
 20
99.6577
  0
VERTEX
  8
LAYER_2
 10
44.0649
 20
99.6577
  0
VERTEX
  8
LAYER_2
 10
43.8309
 20
98.1755
  0
SEQEND
  0
POLYLINE
  8
LAYER_2
 66
1
 10
0
 20
0
 30
0
 70
1
  0
VERTEX
  8
LAYER_2
 10
43.5579
 20
99.6577
  0
VERTEX
  8
LAYER_2
 10
44.0649
 20
99.6577
  0
VERTEX
  8
LAYER_2
 10
43.8309
 20
98.1755
  0
SEQEND
  0
TEXT
  8
LAYER_2
 10
45.0401
 20
101.8811
 11
45.0401
 21
101.8811
 40
2.7848
 41
0.5
 50
89.99999999
  1
135
  0
POLYLINE
  8
LAYER_2
 40
0.1058
 41
0.1058
 66
1
 10
0
 20
0
 30
0
  0
VERTEX
  8
LAYER_2
 10
20.7372
 20
111.6727
  0
VERTEX
  8
LAYER_2
 10
14.8077
 20
111.6727
  0
SEQEND
  0
POLYLINE
  8
LAYER_2
 40
0.1058
 41
0.1058
 66
1
 10
0
 20
0
 30
0
  0
VERTEX
  8
LAYER_2
 10
40.164
 20
93.1431
  0
VERTEX
  8
LAYER_2
 10
14.8076
 20
93.1431
  0
SEQEND
  0
POLYLINE
  8
LAYER_2
 40
0.1058
 41
0.1058
 66
1
 10
0
 20
0
 30
0
  0
VERTEX
  8
LAYER_2
 10
14.9247
 20
110.1513
  0
VERTEX
  8
LAYER_2
 10
14.9247
 20
105.1191
  0
SEQEND
  0
POLYLINE
  8
LAYER_2
 40
0.1058
 41
0.1058
 66
1
 10
0
 20
0
 30
0
  0
VERTEX
  8
LAYER_2
 10
14.9247
 20
94.6645
  0
VERTEX
  8
LAYER_2
 10
14.9247
 20
99.6966
  0
SEQEND
  0
POLYLINE
  8
LAYER_2
 40
0.05
 41
0.05
 66
1
 10
0
 20
0
 30
0
 70
1
  0
VERTEX
  8
LAYER_2
 10
14.6907
 20
110.1513
  0
VERTEX
  8
LAYER_2
 10
15.1977
 20
110.1513
  0
VERTEX
  8
LAYER_2
 10
14.9246
 20
111.6726
  0
SEQEND
  0
POLYLINE
  8
LAYER_2
 66
1
 10
0
 20
0
 30
0
 70
1
  0
VERTEX
  8
LAYER_2
 10
14.6907
 20
110.1513
  0
VERTEX
  8
LAYER_2
 10
15.1977
 20
110.1513
  0
VERTEX
  8
LAYER_2
 10
14.9246
 20
111.6726
  0
SEQEND
  0
POLYLINE
  8
LAYER_2
 40
0.05
 41
0.05
 66
1
 10
0
 20
0
 30
0
 70
1
  0
VERTEX
  8
LAYER_2
 10
14.6907
 20
94.6645
  0
VERTEX
  8
LAYER_2
 10
15.1977
 20
94.6645
  0
VERTEX
  8
LAYER_2
 10
14.9246
 20
93.1431
  0
SEQEND
  0
POLYLINE
  8
LAYER_2
 66
1
 10
0
 20
0
 30
0
 70
1
  0
VERTEX
  8
LAYER_2
 10
14.6907
 20
94.6645
  0
VERTEX
  8
LAYER_2
 10
15.1977
 20
94.6645
  0
VERTEX
  8
LAYER_2
 10
14.9246
 20
93.1431
  0
SEQEND
  0
TEXT
  8
LAYER_2
 10
16.1729
 20
99.3847
 11
16.1729
 21
99.3847
 40
2.7848
 41
0.5
 50
89.99999999
  1
185
  0
POLYLINE
  8
LAYER_2
 40
0.1058
 41
0.1058
 66
1
 10
0
 20
0
 30
0
  0
VERTEX
  8
LAYER_2
 10
20.5031
 20
111.3996
  0
VERTEX
  8
LAYER_2
 10
20.5031
 20
117.2122
  0
SEQEND
  0
POLYLINE
  8
LAYER_2
 40
0.1058
 41
0.1058
 66
1
 10
0
 20
0
 30
0
  0
VERTEX
  8
LAYER_2
 10
72.503
 20
111.3996
  0
VERTEX
  8
LAYER_2
 10
72.503
 20
117.2122
  0
SEQEND
  0
POLYLINE
  8
LAYER_2
 40
0.1058
 41
0.1058
 66
1
 10
0
 20
0
 30
0
  0
VERTEX
  8
LAYER_2
 10
21.9855
 20
117.0951
  0
VERTEX
  8
LAYER_2
 10
43.6749
 20
117.0951
  0
SEQEND
  0
POLYLINE
  8
LAYER_2
 40
0.1058
 41
0.1058
 66
1
 10
0
 20
0
 30
0
  0
VERTEX
  8
LAYER_2
 10
70.9817
 20
117.0951
  0
VERTEX
  8
LAYER_2
 10
51.2636
 20
117.0951
  0
SEQEND
  0
POLYLINE
  8
LAYER_2
 40
0.05
 41
0.05
 66
1
 10
0
 20
0
 30
0
 70
1
  0
VERTEX
  8
LAYER_2
 10
21.9855
 20
117.3681
  0
VERTEX
  8
LAYER_2
 10
21.9855
 20
116.8611
  0
VERTEX
  8
LAYER_2
 10
20.5033
 20
117.0951
  0
SEQEND
  0
POLYLINE
  8
LAYER_2
 66
1
 10
0
 20
0
 30
0
 70
1
  0
VERTEX
  8
LAYER_2
 10
21.9855
 20
117.3681
  0
VERTEX
  8
LAYER_2
 10
21.9855
 20
116.8611
  0
VERTEX
  8
LAYER_2
 10
20.5033
 20
117.0951
  0
SEQEND
  0
POLYLINE
  8
LAYER_2
 40
0.05
 41
0.05
 66
1
 10
0
 20
0
 30
0
 70
1
  0
VERTEX
  8
LAYER_2
 10
70.9817
 20
117.3681
  0
VERTEX
  8
LAYER_2
 10
70.9817
 20
116.8611
  0
VERTEX
  8
LAYER_2
 10
72.503
 20
117.0951
  0
SEQEND
  0
POLYLINE
  8
LAYER_2
 66
1
 10
0
 20
0
 30
0
 70
1
  0
VERTEX
  8
LAYER_2
 10
70.9817
 20
117.3681
  0
VERTEX
  8
LAYER_2
 10
70.9817
 20
116.8611
  0
VERTEX
  8
LAYER_2
 10
72.503
 20
117.0951
  0
SEQEND
  0
TEXT
  8
LAYER_2
 10
45.4958
 20
116.1189
 11
45.4958
 21
116.1189
 40
2.7848
 41
0.5
  1
520
  0
POLYLINE
  8
LAYER_2
 40
0.1058
 41
0.1058
 66
1
 10
0
 20
0
 30
0
  0
VERTEX
  8
LAYER_2
 10
20.8152
 20
111.6727
  0
VERTEX
  8
LAYER_2
 10
19.0596
 20
111.6727
  0
SEQEND
  0
POLYLINE
  8
LAYER_2
 40
0.1058
 41
0.1058
 66
1
 10
0
 20
0
 30
0
  0
VERTEX
  8
LAYER_2
 10
20.6982
 20
110.0733
  0
VERTEX
  8
LAYER_2
 10
19.0599
 20
110.0733
  0
SEQEND
  0
POLYLINE
  8
LAYER_2
 40
0.1058
 41
0.1058
 66
1
 10
0
 20
0
 30
0
  0
VERTEX
  8
LAYER_2
 10
19.1768
 20
113.1551
  0
VERTEX
  8
LAYER_2
 10
19.1768
 20
114.6373
  0
SEQEND
  0
POLYLINE
  8
LAYER_2
 40
0.1058
 41
0.1058
 66
1
 10
0
 20
0
 30
0
  0
VERTEX
  8
LAYER_2
 10
19.1768
 20
108.5519
  0
VERTEX
  8
LAYER_2
 10
19.1768
 20
107.0697
  0
SEQEND
  0
POLYLINE
  8
LAYER_2
 40
0.1058
 41
0.1058
 66
1
 10
0
 20
0
 30
0
  0
VERTEX
  8
LAYER_2
 10
19.1768
 20
111.6727
  0
VERTEX
  8
LAYER_2
 10
19.1768
 20
110.0732
  0
SEQEND
  0
POLYLINE
  8
LAYER_2
 40
0.05
 41
0.05
 66
1
 10
0
 20
0
 30
0
 70
1
  0
VERTEX
  8
LAYER_2
 10
18.9427
 20
113.1551
  0
VERTEX
  8
LAYER_2
 10
19.4497
 20
113.1551
  0
VERTEX
  8
LAYER_2
 10
19.1767
 20
111.6729
  0
SEQEND
  0
POLYLINE
  8
LAYER_2
 66
1
 10
0
 20
0
 30
0
 70
1
  0
VERTEX
  8
LAYER_2
 10
18.9427
 20
113.1551
  0
VERTEX
  8
LAYER_2
 10
19.4497
 20
113.1551
  0
VERTEX
  8
LAYER_2
 10
19.1767
 20
111.6729
  0
SEQEND
  0
POLYLINE
  8
LAYER_2
 40
0.05
 41
0.05
 66
1
 10
0
 20
0
 30
0
 70
1
  0
VERTEX
  8
LAYER_2
 10
18.9427
 20
108.5519
  0
VERTEX
  8
LAYER_2
 10
19.4497
 20
108.5519
  0
VERTEX
  8
LAYER_2
 10
19.1767
 20
110.0732
  0
SEQEND
  0
POLYLINE
  8
LAYER_2
 66
1
 10
0
 20
0
 30
0
 70
1
  0
VERTEX
  8
LAYER_2
 10
18.9427
 20
108.5519
  0
VERTEX
  8
LAYER_2
 10
19.4497
 20
108.5519
  0
VERTEX
  8
LAYER_2
 10
19.1767
 20
110.0732
  0
SEQEND
  0
TEXT
  8
LAYER_2
 10
20.4249
 20
103.246
 11
20.4249
 21
103.246
 40
2.7848
 41
0.5
 50
89.99999999
  1
15
  0
POLYLINE
  8
LAYER_2
 40
0.1058
 41
0.1058
 66
1
 10
0
 20
0
 30
0
  0
VERTEX
  8
LAYER_2
 10
131.1354
 20
98.5654
  0
VERTEX
  8
LAYER_2
 10
131.9154
 20
98.5654
  0
SEQEND
  0
POLYLINE
  8
LAYER_2
 40
0.1058
 41
0.1058
 66
1
 10
0
 20
0
 30
0
  0
VERTEX
  8
LAYER_2
 10
132.2277
 20
98.5264
  0
VERTEX
  8
LAYER_2
 10
132.852
 20
98.5264
  0
SEQEND
  0
POLYLINE
  8
LAYER_2
 40
0.1058
 41
0.1058
 66
1
 10
0
 20
0
 30
0
  0
VERTEX
  8
LAYER_2
 10
133.2029
 20
98.4874
  0
VERTEX
  8
LAYER_2
 10
133.8272
 20
98.4874
  0
SEQEND
  0
POLYLINE
  8
LAYER_2
 40
0.1058
 41
0.1058
 66
1
 10
0
 20
0
 30
0
  0
VERTEX
  8
LAYER_2
 10
134.1391
 20
98.4484
  0
VERTEX
  8
LAYER_2
 10
134.7634
 20
98.4484
  0
SEQEND
  0
POLYLINE
  8
LAYER_2
 40
0.1058
 41
0.1058
 66
1
 10
0
 20
0
 30
0
  0
VERTEX
  8
LAYER_2
 10
135.0754
 20
98.4094
  0
VERTEX
  8
LAYER_2
 10
135.7384
 20
98.4094
  0
SEQEND
  0
POLYLINE
  8
LAYER_2
 40
0.1058
 41
0.1058
 66
1
 10
0
 20
0
 30
0
  0
VERTEX
  8
LAYER_2
 10
136.0506
 20
98.3704
  0
VERTEX
  8
LAYER_2
 10
136.6749
 20
98.3704
  0
SEQEND
  0
POLYLINE
  8
LAYER_2
 40
0.1058
 41
0.1058
 66
1
 10
0
 20
0
 30
0
  0
VERTEX
  8
LAYER_2
 10
136.9868
 20
98.3314
  0
VERTEX
  8
LAYER_2
 10
137.6111
 20
98.3314
  0
SEQEND
  0
POLYLINE
  8
LAYER_2
 40
0.1058
 41
0.1058
 66
1
 10
0
 20
0
 30
0
  0
VERTEX
  8
LAYER_2
 10
137.9621
 20
98.2924
  0
VERTEX
  8
LAYER_2
 10
138.5864
 20
98.2924
  0
SEQEND
  0
POLYLINE
  8
LAYER_2
 40
0.1058
 41
0.1058
 66
1
 10
0
 20
0
 30
0
  0
VERTEX
  8
LAYER_2
 10
138.8983
 20
98.2534
  0
VERTEX
  8
LAYER_2
 10
139.5226
 20
98.2534
  0
SEQEND
  0
POLYLINE
  8
LAYER_2
 40
0.1058
 41
0.1058
 66
1
 10
0
 20
0
 30
0
  0
VERTEX
  8
LAYER_2
 10
139.8345
 20
98.2144
  0
VERTEX
  8
LAYER_2
 10
140.4976
 20
98.2144
  0
SEQEND
  0
POLYLINE
  8
LAYER_2
 40
0.1058
 41
0.1058
 66
1
 10
0
 20
0
 30
0
  0
VERTEX
  8
LAYER_2
 10
140.8098
 20
98.1753
  0
VERTEX
  8
LAYER_2
 10
141.5898
 20
98.1753
  0
SEQEND
  0
POLYLINE
  8
LAYER_2
 40
0.1058
 41
0.1058
 66
1
 10
0
 20
0
 30
0
  0
VERTEX
  8
LAYER_2
 10
147.7925
 20
96.966
  0
VERTEX
  8
LAYER_2
 10
147.0904
 20
96.966
  0
SEQEND
  0
POLYLINE
  8
LAYER_2
 40
0.1058
 41
0.1058
 66
1
 10
0
 20
0
 30
0
  0
VERTEX
  8
LAYER_2
 10
146.7783
 20
96.966
  0
VERTEX
  8
LAYER_2
 10
146.1152
 20
96.966
  0
SEQEND
  0
POLYLINE
  8
LAYER_2
 40
0.1058
 41
0.1058
 66
1
 10
0
 20
0
 30
0
  0
VERTEX
  8
LAYER_2
 10
145.803
 20
96.966
  0
VERTEX
  8
LAYER_2
 10
145.1787
 20
96.966
  0
SEQEND
  0
POLYLINE
  8
LAYER_2
 40
0.1058
 41
0.1058
 66
1
 10
0
 20
0
 30
0
  0
VERTEX
  8
LAYER_2
 10
144.8668
 20
96.966
  0
VERTEX
  8
LAYER_2
 10
144.2425
 20
96.966
  0
SEQEND
  0
POLYLINE
  8
LAYER_2
 40
0.1058
 41
0.1058
 66
1
 10
0
 20
0
 30
0
  0
VERTEX
  8
LAYER_2
 10
143.8915
 20
96.966
  0
VERTEX
  8
LAYER_2
 10
143.1894
 20
96.966
  0
SEQEND
  0
POLYLINE
  8
LAYER_2
 40
0.1058
 41
0.1058
 66
1
 10
0
 20
0
 30
0
  0
VERTEX
  8
LAYER_2
 10
142.0581
 20
98.0583
  0
VERTEX
  8
LAYER_2
 10
142.5263
 20
97.6292
  0
SEQEND
  0
POLYLINE
  8
LAYER_2
 40
0.1058
 41
0.1058
 66
1
 10
0
 20
0
 30
0
  0
VERTEX
  8
LAYER_2
 10
142.7603
 20
97.3952
  0
VERTEX
  8
LAYER_2
 10
143.1894
 20
96.966
  0
SEQEND
  0
POLYLINE
  8
LAYER_2
 40
0.1058
 41
0.1058
 66
1
 10
0
 20
0
 30
0
  0
VERTEX
  8
LAYER_2
 10
142.0581
 20
98.0583
  0
VERTEX
  8
LAYER_2
 10
142.019
 20
98.0974
  0
VERTEX
  8
LAYER_2
 10
141.9411
 20
98.1362
  0
VERTEX
  8
LAYER_2
 10
141.8629
 20
98.1362
  0
VERTEX
  8
LAYER_2
 10
141.785
 20
98.1753
  0
SEQEND
  0
POLYLINE
  8
LAYER_2
 40
0.1058
 41
0.1058
 66
1
 10
0
 20
0
 30
0
  0
VERTEX
  8
LAYER_2
 10
149.4309
 20
98.1753
  0
VERTEX
  8
LAYER_2
 10
149.0018
 20
98.1753
  0
SEQEND
  0
POLYLINE
  8
LAYER_2
 40
0.1058
 41
0.1058
 66
1
 10
0
 20
0
 30
0
  0
VERTEX
  8
LAYER_2
 10
148.6898
 20
98.1753
  0
VERTEX
  8
LAYER_2
 10
148.0267
 20
98.1753
  0
SEQEND
  0
POLYLINE
  8
LAYER_2
 40
0.1058
 41
0.1058
 66
1
 10
0
 20
0
 30
0
  0
VERTEX
  8
LAYER_2
 10
147.7145
 20
98.1753
  0
VERTEX
  8
LAYER_2
 10
147.0902
 20
98.1753
  0
SEQEND
  0
POLYLINE
  8
LAYER_2
 40
0.1058
 41
0.1058
 66
1
 10
0
 20
0
 30
0
  0
VERTEX
  8
LAYER_2
 10
146.7783
 20
98.1753
  0
VERTEX
  8
LAYER_2
 10
146.1152
 20
98.1753
  0
SEQEND
  0
POLYLINE
  8
LAYER_2
 40
0.1058
 41
0.1058
 66
1
 10
0
 20
0
 30
0
  0
VERTEX
  8
LAYER_2
 10
145.803
 20
98.1753
  0
VERTEX
  8
LAYER_2
 10
145.1787
 20
98.1753
  0
SEQEND
  0
POLYLINE
  8
LAYER_2
 40
0.1058
 41
0.1058
 66
1
 10
0
 20
0
 30
0
  0
VERTEX
  8
LAYER_2
 10
144.8668
 20
98.1753
  0
VERTEX
  8
LAYER_2
 10
144.2425
 20
98.1753
  0
SEQEND
  0
POLYLINE
  8
LAYER_2
 40
0.1058
 41
0.1058
 66
1
 10
0
 20
0
 30
0
  0
VERTEX
  8
LAYER_2
 10
143.8915
 20
98.1753
  0
VERTEX
  8
LAYER_2
 10
143.2672
 20
98.1753
  0
SEQEND
  0
POLYLINE
  8
LAYER_2
 40
0.1058
 41
0.1058
 66
1
 10
0
 20
0
 30
0
  0
VERTEX
  8
LAYER_2
 10
142.9553
 20
98.1753
  0
VERTEX
  8
LAYER_2
 10
142.331
 20
98.1753
  0
SEQEND
  0
POLYLINE
  8
LAYER_2
 40
0.1058
 41
0.1058
 66
1
 10
0
 20
0
 30
0
  0
VERTEX
  8
LAYER_2
 10
142.0191
 20
98.1753
  0
VERTEX
  8
LAYER_2
 10
141.59
 20
98.1753
  0
SEQEND
  0
POLYLINE
  8
LAYER_2
 40
0.1058
 41
0.1058
 66
1
 10
0
 20
0
 30
0
  0
VERTEX
  8
LAYER_2
 10
143.1894
 20
96.966
  0
VERTEX
  8
LAYER_2
 10
143.1894
 20
96.303
  0
SEQEND
  0
POLYLINE
  8
LAYER_2
 40
0.1058
 41
0.1058
 66
1
 10
0
 20
0
 30
0
  0
VERTEX
  8
LAYER_2
 10
143.1894
 20
95.9908
  0
VERTEX
  8
LAYER_2
 10
143.1894
 20
95.3665
  0
SEQEND
  0
POLYLINE
  8
LAYER_2
 40
0.1058
 41
0.1058
 66
1
 10
0
 20
0
 30
0
  0
VERTEX
  8
LAYER_2
 10
143.1894
 20
95.0546
  0
VERTEX
  8
LAYER_2
 10
143.1894
 20
94.3915
  0
SEQEND
  0
POLYLINE
  8
LAYER_2
 40
0.1058
 41
0.1058
 66
1
 10
0
 20
0
 30
0
  0
VERTEX
  8
LAYER_2
 10
143.1894
 20
94.0793
  0
VERTEX
  8
LAYER_2
 10
143.1894
 20
93.455
  0
SEQEND
  0
POLYLINE
  8
LAYER_2
 40
0.1058
 41
0.1058
 66
1
 10
0
 20
0
 30
0
  0
VERTEX
  8
LAYER_2
 10
121.5
 20
111.3606
  0
VERTEX
  8
LAYER_2
 10
121.5
 20
111.0093
  0
SEQEND
  0
POLYLINE
  8
LAYER_2
 40
0.1058
 41
0.1058
 66
1
 10
0
 20
0
 30
0
  0
VERTEX
  8
LAYER_2
 10
121.5
 20
110.6974
  0
VERTEX
  8
LAYER_2
 10
121.5
 20
110.0731
  0
SEQEND
  0
POLYLINE
  8
LAYER_2
 40
0.1058
 41
0.1058
 66
1
 10
0
 20
0
 30
0
  0
VERTEX
  8
LAYER_2
 10
121.5
 20
109.7612
  0
VERTEX
  8
LAYER_2
 10
121.5
 20
109.41
  0
SEQEND
  0
POLYLINE
  8
LAYER_2
 40
0.1058
 41
0.1058
 66
1
 10
0
 20
0
 30
0
  0
VERTEX
  8
LAYER_2
 10
149.1969
 20
98.1753
  0
VERTEX
  8
LAYER_2
 10
149.119
 20
98.1362
  0
VERTEX
  8
LAYER_2
 10
149.0408
 20
98.1362
  0
VERTEX
  8
LAYER_2
 10
148.9629
 20
98.0974
  0
VERTEX
  8
LAYER_2
 10
148.9238
 20
98.0583
  0
VERTEX
  8
LAYER_2
 10
148.4556
 20
97.6292
  0
SEQEND
  0
POLYLINE
  8
LAYER_2
 40
0.1058
 41
0.1058
 66
1
 10
0
 20
0
 30
0
  0
VERTEX
  8
LAYER_2
 10
148.2216
 20
97.3952
  0
VERTEX
  8
LAYER_2
 10
147.7925
 20
96.966
  0
VERTEX
  8
LAYER_2
 10
147.7925
 20
96.303
  0
SEQEND
  0
POLYLINE
  8
LAYER_2
 40
0.1058
 41
0.1058
 66
1
 10
0
 20
0
 30
0
  0
VERTEX
  8
LAYER_2
 10
147.7925
 20
95.9908
  0
VERTEX
  8
LAYER_2
 10
147.7925
 20
95.3665
  0
SEQEND
  0
POLYLINE
  8
LAYER_2
 40
0.1058
 41
0.1058
 66
1
 10
0
 20
0
 30
0
  0
VERTEX
  8
LAYER_2
 10
147.7925
 20
95.0546
  0
VERTEX
  8
LAYER_2
 10
147.7925
 20
94.3915
  0
SEQEND
  0
POLYLINE
  8
LAYER_2
 40
0.1058
 41
0.1058
 66
1
 10
0
 20
0
 30
0
  0
VERTEX
  8
LAYER_2
 10
147.7925
 20
94.0793
  0
VERTEX
  8
LAYER_2
 10
147.7925
 20
93.455
  0
SEQEND
  0
POLYLINE
  8
LAYER_2
 40
0.1058
 41
0.1058
 66
1
 10
0
 20
0
 30
0
  0
VERTEX
  8
LAYER_2
 10
121.5
 20
109.4101
  0
VERTEX
  8
LAYER_2
 10
121.5
 20
108.6689
  0
SEQEND
  0
POLYLINE
  8
LAYER_2
 40
0.1058
 41
0.1058
 66
1
 10
0
 20
0
 30
0
  0
VERTEX
  8
LAYER_2
 10
121.5
 20
108.3568
  0
VERTEX
  8
LAYER_2
 10
121.5
 20
108.1617
  0
VERTEX
  8
LAYER_2
 10
121.5779
 20
107.7325
  0
SEQEND
  0
POLYLINE
  8
LAYER_2
 40
0.1058
 41
0.1058
 66
1
 10
0
 20
0
 30
0
  0
VERTEX
  8
LAYER_2
 10
121.617
 20
107.4206
  0
VERTEX
  8
LAYER_2
 10
121.6949
 20
106.9524
  0
VERTEX
  8
LAYER_2
 10
121.734
 20
106.7963
  0
SEQEND
  0
POLYLINE
  8
LAYER_2
 40
0.1058
 41
0.1058
 66
1
 10
0
 20
0
 30
0
  0
VERTEX
  8
LAYER_2
 10
121.812
 20
106.4844
  0
VERTEX
  8
LAYER_2
 10
121.9681
 20
105.8601
  0
SEQEND
  0
POLYLINE
  8
LAYER_2
 40
0.1058
 41
0.1058
 66
1
 10
0
 20
0
 30
0
  0
VERTEX
  8
LAYER_2
 10
122.0461
 20
105.5872
  0
VERTEX
  8
LAYER_2
 10
122.2801
 20
104.9629
  0
SEQEND
  0
POLYLINE
  8
LAYER_2
 40
0.1058
 41
0.1058
 66
1
 10
0
 20
0
 30
0
  0
VERTEX
  8
LAYER_2
 10
122.3972
 20
104.6899
  0
VERTEX
  8
LAYER_2
 10
122.4363
 20
104.6121
  0
VERTEX
  8
LAYER_2
 10
122.6703
 20
104.1047
  0
SEQEND
  0
POLYLINE
  8
LAYER_2
 40
0.1058
 41
0.1058
 66
1
 10
0
 20
0
 30
0
  0
VERTEX
  8
LAYER_2
 10
122.8263
 20
103.8317
  0
VERTEX
  8
LAYER_2
 10
123.0215
 20
103.5196
  0
VERTEX
  8
LAYER_2
 10
123.1776
 20
103.2856
  0
SEQEND
  0
POLYLINE
  8
LAYER_2
 40
0.1058
 41
0.1058
 66
1
 10
0
 20
0
 30
0
  0
VERTEX
  8
LAYER_2
 10
123.3334
 20
103.0516
  0
VERTEX
  8
LAYER_2
 10
123.7234
 20
102.5055
  0
SEQEND
  0
POLYLINE
  8
LAYER_2
 40
0.1058
 41
0.1058
 66
1
 10
0
 20
0
 30
0
  0
VERTEX
  8
LAYER_2
 10
123.9186
 20
102.2714
  0
VERTEX
  8
LAYER_2
 10
124.3477
 20
101.8031
  0
SEQEND
  0
POLYLINE
  8
LAYER_2
 40
0.1058
 41
0.1058
 66
1
 10
0
 20
0
 30
0
  0
VERTEX
  8
LAYER_2
 10
124.5427
 20
101.5692
  0
VERTEX
  8
LAYER_2
 10
125.0109
 20
101.14
  0
SEQEND
  0
POLYLINE
  8
LAYER_2
 40
0.1058
 41
0.1058
 66
1
 10
0
 20
0
 30
0
  0
VERTEX
  8
LAYER_2
 10
125.2839
 20
100.945
  0
VERTEX
  8
LAYER_2
 10
125.4791
 20
100.7498
  0
VERTEX
  8
LAYER_2
 10
125.7522
 20
100.555
  0
SEQEND
  0
POLYLINE
  8
LAYER_2
 40
0.1058
 41
0.1058
 66
1
 10
0
 20
0
 30
0
  0
VERTEX
  8
LAYER_2
 10
126.0251
 20
100.3599
  0
VERTEX
  8
LAYER_2
 10
126.4933
 20
100.0477
  0
VERTEX
  8
LAYER_2
 10
126.5712
 20
100.0086
  0
SEQEND
  0
POLYLINE
  8
LAYER_2
 40
0.1058
 41
0.1058
 66
1
 10
0
 20
0
 30
0
  0
VERTEX
  8
LAYER_2
 10
126.8443
 20
99.8528
  0
VERTEX
  8
LAYER_2
 10
127.3904
 20
99.5797
  0
SEQEND
  0
POLYLINE
  8
LAYER_2
 40
0.1058
 41
0.1058
 66
1
 10
0
 20
0
 30
0
  0
VERTEX
  8
LAYER_2
 10
127.7025
 20
99.4237
  0
VERTEX
  8
LAYER_2
 10
128.2877
 20
99.1897
  0
SEQEND
  0
POLYLINE
  8
LAYER_2
 40
0.1058
 41
0.1058
 66
1
 10
0
 20
0
 30
0
  0
VERTEX
  8
LAYER_2
 10
128.5608
 20
99.1116
  0
VERTEX
  8
LAYER_2
 10
128.7168
 20
99.0337
  0
VERTEX
  8
LAYER_2
 10
129.1851
 20
98.9164
  0
SEQEND
  0
POLYLINE
  8
LAYER_2
 40
0.1058
 41
0.1058
 66
1
 10
0
 20
0
 30
0
  0
VERTEX
  8
LAYER_2
 10
129.497
 20
98.8385
  0
VERTEX
  8
LAYER_2
 10
129.9261
 20
98.7215
  0
VERTEX
  8
LAYER_2
 10
130.1213
 20
98.7215
  0
SEQEND
  0
POLYLINE
  8
LAYER_2
 40
0.1058
 41
0.1058
 66
1
 10
0
 20
0
 30
0
  0
VERTEX
  8
LAYER_2
 10
130.4332
 20
98.6825
  0
VERTEX
  8
LAYER_2
 10
131.1354
 20
98.5655
  0
SEQEND
  0
POLYLINE
  8
LAYER_2
 40
0.1058
 41
0.1058
 66
1
 10
0
 20
0
 30
0
  0
VERTEX
  8
LAYER_2
 10
159.8465
 20
98.5654
  0
VERTEX
  8
LAYER_2
 10
159.0665
 20
98.5654
  0
SEQEND
  0
POLYLINE
  8
LAYER_2
 40
0.1058
 41
0.1058
 66
1
 10
0
 20
0
 30
0
  0
VERTEX
  8
LAYER_2
 10
158.7543
 20
98.5264
  0
VERTEX
  8
LAYER_2
 10
158.13
 20
98.5264
  0
SEQEND
  0
POLYLINE
  8
LAYER_2
 40
0.1058
 41
0.1058
 66
1
 10
0
 20
0
 30
0
  0
VERTEX
  8
LAYER_2
 10
157.818
 20
98.4874
  0
VERTEX
  8
LAYER_2
 10
157.1937
 20
98.4874
  0
SEQEND
  0
POLYLINE
  8
LAYER_2
 40
0.1058
 41
0.1058
 66
1
 10
0
 20
0
 30
0
  0
VERTEX
  8
LAYER_2
 10
156.8428
 20
98.4484
  0
VERTEX
  8
LAYER_2
 10
156.2185
 20
98.4484
  0
SEQEND
  0
POLYLINE
  8
LAYER_2
 40
0.1058
 41
0.1058
 66
1
 10
0
 20
0
 30
0
  0
VERTEX
  8
LAYER_2
 10
155.9065
 20
98.4094
  0
VERTEX
  8
LAYER_2
 10
155.2822
 20
98.4094
  0
SEQEND
  0
POLYLINE
  8
LAYER_2
 40
0.1058
 41
0.1058
 66
1
 10
0
 20
0
 30
0
  0
VERTEX
  8
LAYER_2
 10
154.9703
 20
98.3704
  0
VERTEX
  8
LAYER_2
 10
154.3073
 20
98.3704
  0
SEQEND
  0
POLYLINE
  8
LAYER_2
 40
0.1058
 41
0.1058
 66
1
 10
0
 20
0
 30
0
  0
VERTEX
  8
LAYER_2
 10
153.9951
 20
98.3314
  0
VERTEX
  8
LAYER_2
 10
153.3708
 20
98.3314
  0
SEQEND
  0
POLYLINE
  8
LAYER_2
 40
0.1058
 41
0.1058
 66
1
 10
0
 20
0
 30
0
  0
VERTEX
  8
LAYER_2
 10
153.0588
 20
98.2924
  0
VERTEX
  8
LAYER_2
 10
152.4345
 20
98.2924
  0
SEQEND
  0
POLYLINE
  8
LAYER_2
 40
0.1058
 41
0.1058
 66
1
 10
0
 20
0
 30
0
  0
VERTEX
  8
LAYER_2
 10
152.0836
 20
98.2534
  0
VERTEX
  8
LAYER_2
 10
151.4593
 20
98.2534
  0
SEQEND
  0
POLYLINE
  8
LAYER_2
 40
0.1058
 41
0.1058
 66
1
 10
0
 20
0
 30
0
  0
VERTEX
  8
LAYER_2
 10
151.1474
 20
98.2144
  0
VERTEX
  8
LAYER_2
 10
150.523
 20
98.2144
  0
SEQEND
  0
POLYLINE
  8
LAYER_2
 40
0.1058
 41
0.1058
 66
1
 10
0
 20
0
 30
0
  0
VERTEX
  8
LAYER_2
 10
150.2111
 20
98.1753
  0
VERTEX
  8
LAYER_2
 10
149.4311
 20
98.1753
  0
SEQEND
  0
POLYLINE
  8
LAYER_2
 40
0.1058
 41
0.1058
 66
1
 10
0
 20
0
 30
0
  0
VERTEX
  8
LAYER_2
 10
169.4819
 20
111.3606
  0
VERTEX
  8
LAYER_2
 10
169.4819
 20
111.0093
  0
SEQEND
  0
POLYLINE
  8
LAYER_2
 40
0.1058
 41
0.1058
 66
1
 10
0
 20
0
 30
0
  0
VERTEX
  8
LAYER_2
 10
169.4819
 20
110.6974
  0
VERTEX
  8
LAYER_2
 10
169.4819
 20
110.0731
  0
SEQEND
  0
POLYLINE
  8
LAYER_2
 40
0.1058
 41
0.1058
 66
1
 10
0
 20
0
 30
0
  0
VERTEX
  8
LAYER_2
 10
169.4819
 20
109.7612
  0
VERTEX
  8
LAYER_2
 10
169.4819
 20
109.41
  0
SEQEND
  0
POLYLINE
  8
LAYER_2
 40
0.1058
 41
0.1058
 66
1
 10
0
 20
0
 30
0
  0
VERTEX
  8
LAYER_2
 10
159.8465
 20
98.5654
  0
VERTEX
  8
LAYER_2
 10
160.5878
 20
98.6824
  0
SEQEND
  0
POLYLINE
  8
LAYER_2
 40
0.1058
 41
0.1058
 66
1
 10
0
 20
0
 30
0
  0
VERTEX
  8
LAYER_2
 10
160.8998
 20
98.7214
  0
VERTEX
  8
LAYER_2
 10
161.095
 20
98.7214
  0
VERTEX
  8
LAYER_2
 10
161.5241
 20
98.8384
  0
SEQEND
  0
POLYLINE
  8
LAYER_2
 40
0.1058
 41
0.1058
 66
1
 10
0
 20
0
 30
0
  0
VERTEX
  8
LAYER_2
 10
161.797
 20
98.9165
  0
VERTEX
  8
LAYER_2
 10
162.2652
 20
99.0335
  0
VERTEX
  8
LAYER_2
 10
162.4213
 20
99.1117
  0
SEQEND
  0
POLYLINE
  8
LAYER_2
 40
0.1058
 41
0.1058
 66
1
 10
0
 20
0
 30
0
  0
VERTEX
  8
LAYER_2
 10
162.7332
 20
99.2286
  0
VERTEX
  8
LAYER_2
 10
163.3184
 20
99.4238
  0
SEQEND
  0
POLYLINE
  8
LAYER_2
 40
0.1058
 41
0.1058
 66
1
 10
0
 20
0
 30
0
  0
VERTEX
  8
LAYER_2
 10
163.5915
 20
99.5797
  0
VERTEX
  8
LAYER_2
 10
164.1767
 20
99.8527
  0
SEQEND
  0
POLYLINE
  8
LAYER_2
 40
0.1058
 41
0.1058
 66
1
 10
0
 20
0
 30
0
  0
VERTEX
  8
LAYER_2
 10
164.4497
 20
100.0088
  0
VERTEX
  8
LAYER_2
 10
164.5275
 20
100.0479
  0
VERTEX
  8
LAYER_2
 10
164.9567
 20
100.36
  0
SEQEND
  0
POLYLINE
  8
LAYER_2
 40
0.1058
 41
0.1058
 66
1
 10
0
 20
0
 30
0
  0
VERTEX
  8
LAYER_2
 10
165.2299
 20
100.5549
  0
VERTEX
  8
LAYER_2
 10
165.542
 20
100.7501
  0
VERTEX
  8
LAYER_2
 10
165.7368
 20
100.9449
  0
SEQEND
  0
POLYLINE
  8
LAYER_2
 40
0.1058
 41
0.1058
 66
1
 10
0
 20
0
 30
0
  0
VERTEX
  8
LAYER_2
 10
165.971
 20
101.1401
  0
VERTEX
  8
LAYER_2
 10
166.4392
 20
101.5692
  0
SEQEND
  0
POLYLINE
  8
LAYER_2
 40
0.1058
 41
0.1058
 66
1
 10
0
 20
0
 30
0
  0
VERTEX
  8
LAYER_2
 10
166.6732
 20
101.8032
  0
VERTEX
  8
LAYER_2
 10
167.0632
 20
102.2714
  0
SEQEND
  0
POLYLINE
  8
LAYER_2
 40
0.1058
 41
0.1058
 66
1
 10
0
 20
0
 30
0
  0
VERTEX
  8
LAYER_2
 10
167.2974
 20
102.5054
  0
VERTEX
  8
LAYER_2
 10
167.6486
 20
103.0515
  0
SEQEND
  0
POLYLINE
  8
LAYER_2
 40
0.1058
 41
0.1058
 66
1
 10
0
 20
0
 30
0
  0
VERTEX
  8
LAYER_2
 10
167.8435
 20
103.2856
  0
VERTEX
  8
LAYER_2
 10
167.9996
 20
103.5195
  0
VERTEX
  8
LAYER_2
 10
168.1557
 20
103.8317
  0
SEQEND
  0
POLYLINE
  8
LAYER_2
 40
0.1058
 41
0.1058
 66
1
 10
0
 20
0
 30
0
  0
VERTEX
  8
LAYER_2
 10
168.3116
 20
104.1438
  0
VERTEX
  8
LAYER_2
 10
168.5456
 20
104.612
  0
VERTEX
  8
LAYER_2
 10
168.5847
 20
104.6899
  0
SEQEND
  0
POLYLINE
  8
LAYER_2
 40
0.1058
 41
0.1058
 66
1
 10
0
 20
0
 30
0
  0
VERTEX
  8
LAYER_2
 10
168.7017
 20
105.002
  0
VERTEX
  8
LAYER_2
 10
168.9357
 20
105.5872
  0
SEQEND
  0
POLYLINE
  8
LAYER_2
 40
0.1058
 41
0.1058
 66
1
 10
0
 20
0
 30
0
  0
VERTEX
  8
LAYER_2
 10
169.0528
 20
105.8602
  0
VERTEX
  8
LAYER_2
 10
169.2089
 20
106.4845
  0
SEQEND
  0
POLYLINE
  8
LAYER_2
 40
0.1058
 41
0.1058
 66
1
 10
0
 20
0
 30
0
  0
VERTEX
  8
LAYER_2
 10
169.2869
 20
106.7965
  0
VERTEX
  8
LAYER_2
 10
169.326
 20
106.9525
  0
VERTEX
  8
LAYER_2
 10
169.3647
 20
107.4208
  0
SEQEND
  0
POLYLINE
  8
LAYER_2
 40
0.1058
 41
0.1058
 66
1
 10
0
 20
0
 30
0
  0
VERTEX
  8
LAYER_2
 10
169.4039
 20
107.7327
  0
VERTEX
  8
LAYER_2
 10
169.4818
 20
108.1618
  0
VERTEX
  8
LAYER_2
 10
169.4818
 20
108.357
  0
SEQEND
  0
POLYLINE
  8
LAYER_2
 40
0.1058
 41
0.1058
 66
1
 10
0
 20
0
 30
0
  0
VERTEX
  8
LAYER_2
 10
169.4819
 20
108.7079
  0
VERTEX
  8
LAYER_2
 10
169.4819
 20
109.4101
  0
SEQEND
  0
POLYLINE
  8
LAYER_2
 40
0.1058
 41
0.1058
 66
1
 10
0
 20
0
 30
0
  0
VERTEX
  8
LAYER_2
 10
124.9719
 20
145.6501
  0
VERTEX
  8
LAYER_2
 10
121.5001
 20
145.6501
  0
SEQEND
  0
POLYLINE
  8
LAYER_2
 40
0.1058
 41
0.1058
 66
1
 10
0
 20
0
 30
0
  0
VERTEX
  8
LAYER_2
 10
124.7768
 20
144.0507
  0
VERTEX
  8
LAYER_2
 10
121.4999
 20
144.0507
  0
SEQEND
  0
POLYLINE
  8
LAYER_2
 40
0.1058
 41
0.1058
 66
1
 10
0
 20
0
 30
0
  0
VERTEX
  8
LAYER_2
 10
121.617
 20
147.1715
  0
VERTEX
  8
LAYER_2
 10
121.617
 20
148.6537
  0
SEQEND
  0
POLYLINE
  8
LAYER_2
 40
0.1058
 41
0.1058
 66
1
 10
0
 20
0
 30
0
  0
VERTEX
  8
LAYER_2
 10
121.617
 20
142.5684
  0
VERTEX
  8
LAYER_2
 10
121.617
 20
141.0471
  0
SEQEND
  0
POLYLINE
  8
LAYER_2
 40
0.1058
 41
0.1058
 66
1
 10
0
 20
0
 30
0
  0
VERTEX
  8
LAYER_2
 10
121.617
 20
145.6501
  0
VERTEX
  8
LAYER_2
 10
121.617
 20
144.0506
  0
SEQEND
  0
POLYLINE
  8
LAYER_2
 40
0.05
 41
0.05
 66
1
 10
0
 20
0
 30
0
 70
1
  0
VERTEX
  8
LAYER_2
 10
121.383
 20
147.1715
  0
VERTEX
  8
LAYER_2
 10
121.8899
 20
147.1715
  0
VERTEX
  8
LAYER_2
 10
121.6169
 20
145.6502
  0
SEQEND
  0
POLYLINE
  8
LAYER_2
 66
1
 10
0
 20
0
 30
0
 70
1
  0
VERTEX
  8
LAYER_2
 10
121.383
 20
147.1715
  0
VERTEX
  8
LAYER_2
 10
121.8899
 20
147.1715
  0
VERTEX
  8
LAYER_2
 10
121.6169
 20
145.6502
  0
SEQEND
  0
POLYLINE
  8
LAYER_2
 40
0.05
 41
0.05
 66
1
 10
0
 20
0
 30
0
 70
1
  0
VERTEX
  8
LAYER_2
 10
121.383
 20
142.5684
  0
VERTEX
  8
LAYER_2
 10
121.8899
 20
142.5684
  0
VERTEX
  8
LAYER_2
 10
121.6169
 20
144.0506
  0
SEQEND
  0
POLYLINE
  8
LAYER_2
 66
1
 10
0
 20
0
 30
0
 70
1
  0
VERTEX
  8
LAYER_2
 10
121.383
 20
142.5684
  0
VERTEX
  8
LAYER_2
 10
121.8899
 20
142.5684
  0
VERTEX
  8
LAYER_2
 10
121.6169
 20
144.0506
  0
SEQEND
  0
TEXT
  8
LAYER_2
 10
122.8651
 20
137.2629
 11
122.8651
 21
137.2629
 40
2.7848
 41
0.5
 50
89.99999999
  1
15
  0
INSERT
  8
LAYER_2
  2
AIGNBL02010056
 10
0
 20
0
 30
0
  0
POLYLINE
  8
LAYER_2
 40
0.1058
 41
0.1058
 66
1
 10
0
 20
0
 30
0
  0
VERTEX
  8
LAYER_2
 10
51.3208
 20
152.2038
  0
VERTEX
  8
LAYER_2
 10
49.9164
 20
152.8281
  0
SEQEND
  0
POLYLINE
  8
LAYER_2
 40
0.1058
 41
0.1058
 66
1
 10
0
 20
0
 30
0
  0
VERTEX
  8
LAYER_2
 10
43.0117
 20
155.9487
  0
VERTEX
  8
LAYER_2
 10
41.6074
 20
156.5339
  0
SEQEND
  0
TEXT
  8
LAYER_2
 10
50.7468
 20
151.1234
 11
50.7468
 21
151.1234
 40
2.7848
 41
0.5
 50
335.8629847
  1
ｯ45
  0
POLYLINE
  8
LAYER_2
 40
0.1058
 41
0.1058
 66
1
 10
0
 20
0
 30
0
  0
VERTEX
  8
LAYER_2
 10
44.3771
 20
155.3245
  0
VERTEX
  8
LAYER_2
 10
48.551
 20
153.452
  0
SEQEND
  0
POLYLINE
  8
LAYER_2
 40
0.05
 41
0.05
 66
1
 10
0
 20
0
 30
0
 70
1
  0
VERTEX
  8
LAYER_2
 10
43.0897
 20
156.1828
  0
VERTEX
  8
LAYER_2
 10
42.8946
 20
155.7145
  0
VERTEX
  8
LAYER_2
 10
44.3771
 20
155.3245
  0
SEQEND
  0
POLYLINE
  8
LAYER_2
 66
1
 10
0
 20
0
 30
0
 70
1
  0
VERTEX
  8
LAYER_2
 10
43.0897
 20
156.1828
  0
VERTEX
  8
LAYER_2
 10
42.8946
 20
155.7145
  0
VERTEX
  8
LAYER_2
 10
44.3771
 20
155.3245
  0
SEQEND
  0
POLYLINE
  8
LAYER_2
 40
0.05
 41
0.05
 66
1
 10
0
 20
0
 30
0
 70
1
  0
VERTEX
  8
LAYER_2
 10
50.0335
 20
153.062
  0
VERTEX
  8
LAYER_2
 10
49.8383
 20
152.5938
  0
VERTEX
  8
LAYER_2
 10
48.5513
 20
153.452
  0
SEQEND
  0
POLYLINE
  8
LAYER_2
 66
1
 10
0
 20
0
 30
0
 70
1
  0
VERTEX
  8
LAYER_2
 10
50.0335
 20
153.062
  0
VERTEX
  8
LAYER_2
 10
49.8383
 20
152.5938
  0
VERTEX
  8
LAYER_2
 10
48.5513
 20
153.452
  0
SEQEND
  0
POLYLINE
  8
LAYER_2
 40
0.1058
 41
0.1058
 66
1
 10
0
 20
0
 30
0
  0
VERTEX
  8
LAYER_2
 10
46.4055
 20
173.386
  0
VERTEX
  8
LAYER_2
 10
17.7726
 20
173.386
  0
SEQEND
  0
POLYLINE
  8
LAYER_2
 40
0.1058
 41
0.1058
 66
1
 10
0
 20
0
 30
0
  0
VERTEX
  8
LAYER_2
 10
76.0824
 20
177.8721
  0
VERTEX
  8
LAYER_2
 10
52.0431
 20
177.8721
  0
SEQEND
  0
POLYLINE
  8
LAYER_2
 40
0.1058
 41
0.1058
 66
1
 10
0
 20
0
 30
0
  0
VERTEX
  8
LAYER_2
 10
76.0824
 20
173.386
  0
VERTEX
  8
LAYER_2
 10
51.2172
 20
173.386
  0
SEQEND
  0
POLYLINE
  8
LAYER_2
 40
0.1058
 41
0.1058
 66
1
 10
0
 20
0
 30
0
  0
VERTEX
  8
LAYER_2
 10
46.3275
 20
135.3906
  0
VERTEX
  8
LAYER_2
 10
17.7725
 20
135.3906
  0
SEQEND
  0
POLYLINE
  8
LAYER_2
 40
0.1058
 41
0.1058
 66
1
 10
0
 20
0
 30
0
  0
VERTEX
  8
LAYER_2
 10
17.8895
 20
171.9037
  0
VERTEX
  8
LAYER_2
 10
17.8895
 20
157.1972
  0
SEQEND
  0
POLYLINE
  8
LAYER_2
 40
0.1058
 41
0.1058
 66
1
 10
0
 20
0
 30
0
  0
VERTEX
  8
LAYER_2
 10
17.8895
 20
136.873
  0
VERTEX
  8
LAYER_2
 10
17.8895
 20
151.5795
  0
SEQEND
  0
POLYLINE
  8
LAYER_2
 40
0.05
 41
0.05
 66
1
 10
0
 20
0
 30
0
 70
1
  0
VERTEX
  8
LAYER_2
 10
17.6554
 20
171.9037
  0
VERTEX
  8
LAYER_2
 10
18.1236
 20
171.9037
  0
VERTEX
  8
LAYER_2
 10
17.8894
 20
173.3859
  0
SEQEND
  0
POLYLINE
  8
LAYER_2
 66
1
 10
0
 20
0
 30
0
 70
1
  0
VERTEX
  8
LAYER_2
 10
17.6554
 20
171.9037
  0
VERTEX
  8
LAYER_2
 10
18.1236
 20
171.9037
  0
VERTEX
  8
LAYER_2
 10
17.8894
 20
173.3859
  0
SEQEND
  0
POLYLINE
  8
LAYER_2
 40
0.05
 41
0.05
 66
1
 10
0
 20
0
 30
0
 70
1
  0
VERTEX
  8
LAYER_2
 10
17.6554
 20
136.873
  0
VERTEX
  8
LAYER_2
 10
18.1236
 20
136.873
  0
VERTEX
  8
LAYER_2
 10
17.8894
 20
135.3908
  0
SEQEND
  0
POLYLINE
  8
LAYER_2
 66
1
 10
0
 20
0
 30
0
 70
1
  0
VERTEX
  8
LAYER_2
 10
17.6554
 20
136.873
  0
VERTEX
  8
LAYER_2
 10
18.1236
 20
136.873
  0
VERTEX
  8
LAYER_2
 10
17.8894
 20
135.3908
  0
SEQEND
  0
TEXT
  8
LAYER_2
 10
19.1378
 20
151.4625
 11
19.1378
 21
151.4625
 40
2.7848
 41
0.5
 50
89.99999999
  1
380
  0
INSERT
  8
LAYER_2
  2
AIGNBL02010057
 10
0
 20
0
 30
0
  0
POLYLINE
  8
LAYER_2
 40
0.1058
 41
0.1058
 66
1
 10
0
 20
0
 30
0
  0
VERTEX
  8
LAYER_2
 10
22.4926
 20
154.4663
  0
VERTEX
  8
LAYER_2
 10
22.4926
 20
182.3192
  0
SEQEND
  0
POLYLINE
  8
LAYER_2
 40
0.1058
 41
0.1058
 66
1
 10
0
 20
0
 30
0
  0
VERTEX
  8
LAYER_2
 10
70.4746
 20
154.4663
  0
VERTEX
  8
LAYER_2
 10
70.4746
 20
182.3192
  0
SEQEND
  0
POLYLINE
  8
LAYER_2
 40
0.1058
 41
0.1058
 66
1
 10
0
 20
0
 30
0
  0
VERTEX
  8
LAYER_2
 10
23.975
 20
182.2022
  0
VERTEX
  8
LAYER_2
 10
43.597
 20
182.2022
  0
SEQEND
  0
POLYLINE
  8
LAYER_2
 40
0.1058
 41
0.1058
 66
1
 10
0
 20
0
 30
0
  0
VERTEX
  8
LAYER_2
 10
68.9922
 20
182.2022
  0
VERTEX
  8
LAYER_2
 10
49.3701
 20
182.2022
  0
SEQEND
  0
POLYLINE
  8
LAYER_2
 40
0.05
 41
0.05
 66
1
 10
0
 20
0
 30
0
 70
1
  0
VERTEX
  8
LAYER_2
 10
23.975
 20
182.4363
  0
VERTEX
  8
LAYER_2
 10
23.975
 20
181.9293
  0
VERTEX
  8
LAYER_2
 10
22.4928
 20
182.2023
  0
SEQEND
  0
POLYLINE
  8
LAYER_2
 66
1
 10
0
 20
0
 30
0
 70
1
  0
VERTEX
  8
LAYER_2
 10
23.975
 20
182.4363
  0
VERTEX
  8
LAYER_2
 10
23.975
 20
181.9293
  0
VERTEX
  8
LAYER_2
 10
22.4928
 20
182.2023
  0
SEQEND
  0
POLYLINE
  8
LAYER_2
 40
0.05
 41
0.05
 66
1
 10
0
 20
0
 30
0
 70
1
  0
VERTEX
  8
LAYER_2
 10
68.9922
 20
182.4363
  0
VERTEX
  8
LAYER_2
 10
68.9922
 20
181.9293
  0
VERTEX
  8
LAYER_2
 10
70.4744
 20
182.2023
  0
SEQEND
  0
POLYLINE
  8
LAYER_2
 66
1
 10
0
 20
0
 30
0
 70
1
  0
VERTEX
  8
LAYER_2
 10
68.9922
 20
182.4363
  0
VERTEX
  8
LAYER_2
 10
68.9922
 20
181.9293
  0
VERTEX
  8
LAYER_2
 10
70.4744
 20
182.2023
  0
SEQEND
  0
TEXT
  8
LAYER_2
 10
44.4709
 20
180.9539
 11
44.4709
 21
180.9539
 40
2.7848
 41
0.5
  1
480
  0
POLYLINE
  8
LAYER_2
 40
0.1058
 41
0.1058
 66
1
 10
0
 20
0
 30
0
  0
VERTEX
  8
LAYER_2
 10
22.4926
 20
111.4386
  0
VERTEX
  8
LAYER_2
 10
22.4926
 20
113.8573
  0
SEQEND
  0
POLYLINE
  8
LAYER_2
 40
0.1058
 41
0.1058
 66
1
 10
0
 20
0
 30
0
  0
VERTEX
  8
LAYER_2
 10
70.4746
 20
111.3606
  0
VERTEX
  8
LAYER_2
 10
70.4746
 20
113.8571
  0
SEQEND
  0
POLYLINE
  8
LAYER_2
 40
0.1058
 41
0.1058
 66
1
 10
0
 20
0
 30
0
  0
VERTEX
  8
LAYER_2
 10
23.975
 20
113.7402
  0
VERTEX
  8
LAYER_2
 10
43.6358
 20
113.7402
  0
SEQEND
  0
POLYLINE
  8
LAYER_2
 40
0.1058
 41
0.1058
 66
1
 10
0
 20
0
 30
0
  0
VERTEX
  8
LAYER_2
 10
68.9922
 20
113.7402
  0
VERTEX
  8
LAYER_2
 10
51.3416
 20
113.7402
  0
SEQEND
  0
POLYLINE
  8
LAYER_2
 40
0.05
 41
0.05
 66
1
 10
0
 20
0
 30
0
 70
1
  0
VERTEX
  8
LAYER_2
 10
23.975
 20
114.0133
  0
VERTEX
  8
LAYER_2
 10
23.975
 20
113.5063
  0
VERTEX
  8
LAYER_2
 10
22.4928
 20
113.7402
  0
SEQEND
  0
POLYLINE
  8
LAYER_2
 66
1
 10
0
 20
0
 30
0
 70
1
  0
VERTEX
  8
LAYER_2
 10
23.975
 20
114.0133
  0
VERTEX
  8
LAYER_2
 10
23.975
 20
113.5063
  0
VERTEX
  8
LAYER_2
 10
22.4928
 20
113.7402
  0
SEQEND
  0
POLYLINE
  8
LAYER_2
 40
0.05
 41
0.05
 66
1
 10
0
 20
0
 30
0
 70
1
  0
VERTEX
  8
LAYER_2
 10
68.9922
 20
114.0133
  0
VERTEX
  8
LAYER_2
 10
68.9922
 20
113.5063
  0
VERTEX
  8
LAYER_2
 10
70.4744
 20
113.7402
  0
SEQEND
  0
POLYLINE
  8
LAYER_2
 66
1
 10
0
 20
0
 30
0
 70
1
  0
VERTEX
  8
LAYER_2
 10
68.9922
 20
114.0133
  0
VERTEX
  8
LAYER_2
 10
68.9922
 20
113.5063
  0
VERTEX
  8
LAYER_2
 10
70.4744
 20
113.7402
  0
SEQEND
  0
TEXT
  8
LAYER_2
 10
45.5347
 20
112.7641
 11
45.5347
 21
112.7641
 40
2.7848
 41
0.5
  1
480
  0
POLYLINE
  8
LAYER_2
 40
0.1058
 41
0.1058
 66
1
 10
0
 20
0
 30
0
  0
VERTEX
  8
LAYER_2
 10
127.8195
 20
144.7139
  0
VERTEX
  8
LAYER_2
 10
127.8195
 20
147.7565
  0
SEQEND
  0
POLYLINE
  8
LAYER_2
 40
0.1058
 41
0.1058
 66
1
 10
0
 20
0
 30
0
  0
VERTEX
  8
LAYER_2
 10
165.815
 20
144.6359
  0
VERTEX
  8
LAYER_2
 10
165.815
 20
147.7567
  0
SEQEND
  0
POLYLINE
  8
LAYER_2
 40
0.1058
 41
0.1058
 66
1
 10
0
 20
0
 30
0
  0
VERTEX
  8
LAYER_2
 10
129.3019
 20
147.6397
  0
VERTEX
  8
LAYER_2
 10
144.0084
 20
147.6397
  0
SEQEND
  0
POLYLINE
  8
LAYER_2
 40
0.1058
 41
0.1058
 66
1
 10
0
 20
0
 30
0
  0
VERTEX
  8
LAYER_2
 10
164.3326
 20
147.6397
  0
VERTEX
  8
LAYER_2
 10
149.6261
 20
147.6397
  0
SEQEND
  0
POLYLINE
  8
LAYER_2
 40
0.05
 41
0.05
 66
1
 10
0
 20
0
 30
0
 70
1
  0
VERTEX
  8
LAYER_2
 10
129.3019
 20
147.8737
  0
VERTEX
  8
LAYER_2
 10
129.3019
 20
147.3667
  0
VERTEX
  8
LAYER_2
 10
127.8197
 20
147.6398
  0
SEQEND
  0
POLYLINE
  8
LAYER_2
 66
1
 10
0
 20
0
 30
0
 70
1
  0
VERTEX
  8
LAYER_2
 10
129.3019
 20
147.8737
  0
VERTEX
  8
LAYER_2
 10
129.3019
 20
147.3667
  0
VERTEX
  8
LAYER_2
 10
127.8197
 20
147.6398
  0
SEQEND
  0
POLYLINE
  8
LAYER_2
 40
0.05
 41
0.05
 66
1
 10
0
 20
0
 30
0
 70
1
  0
VERTEX
  8
LAYER_2
 10
164.3326
 20
147.8737
  0
VERTEX
  8
LAYER_2
 10
164.3326
 20
147.3667
  0
VERTEX
  8
LAYER_2
 10
165.8148
 20
147.6398
  0
SEQEND
  0
POLYLINE
  8
LAYER_2
 66
1
 10
0
 20
0
 30
0
 70
1
  0
VERTEX
  8
LAYER_2
 10
164.3326
 20
147.8737
  0
VERTEX
  8
LAYER_2
 10
164.3326
 20
147.3667
  0
VERTEX
  8
LAYER_2
 10
165.8148
 20
147.6398
  0
SEQEND
  0
TEXT
  8
LAYER_2
 10
144.7536
 20
146.5093
 11
144.7536
 21
146.5093
 40
2.7848
 41
0.5
  1
380
  0
POLYLINE
  8
LAYER_2
 40
0.1058
 41
0.1058
 66
1
 10
0
 20
0
 30
0
  0
VERTEX
  8
LAYER_2
 10
76.0824
 20
171.9188
  0
VERTEX
  8
LAYER_2
 10
76.0824
 20
170.4366
  0
SEQEND
  0
POLYLINE
  8
LAYER_2
 40
0.1058
 41
0.1058
 66
1
 10
0
 20
0
 30
0
  0
VERTEX
  8
LAYER_2
 10
76.0824
 20
179.3544
  0
VERTEX
  8
LAYER_2
 10
76.0824
 20
180.8757
  0
SEQEND
  0
POLYLINE
  8
LAYER_2
 40
0.1058
 41
0.1058
 66
1
 10
0
 20
0
 30
0
  0
VERTEX
  8
LAYER_2
 10
76.0824
 20
173.4402
  0
VERTEX
  8
LAYER_2
 10
76.0824
 20
177.8719
  0
SEQEND
  0
POLYLINE
  8
LAYER_2
 40
0.05
 41
0.05
 66
1
 10
0
 20
0
 30
0
 70
1
  0
VERTEX
  8
LAYER_2
 10
75.8094
 20
171.9188
  0
VERTEX
  8
LAYER_2
 10
76.3164
 20
171.9188
  0
VERTEX
  8
LAYER_2
 10
76.0824
 20
173.4401
  0
SEQEND
  0
POLYLINE
  8
LAYER_2
 66
1
 10
0
 20
0
 30
0
 70
1
  0
VERTEX
  8
LAYER_2
 10
75.8094
 20
171.9188
  0
VERTEX
  8
LAYER_2
 10
76.3164
 20
171.9188
  0
VERTEX
  8
LAYER_2
 10
76.0824
 20
173.4401
  0
SEQEND
  0
POLYLINE
  8
LAYER_2
 40
0.05
 41
0.05
 66
1
 10
0
 20
0
 30
0
 70
1
  0
VERTEX
  8
LAYER_2
 10
75.8094
 20
179.3544
  0
VERTEX
  8
LAYER_2
 10
76.3164
 20
179.3544
  0
VERTEX
  8
LAYER_2
 10
76.0824
 20
177.8721
  0
SEQEND
  0
POLYLINE
  8
LAYER_2
 66
1
 10
0
 20
0
 30
0
 70
1
  0
VERTEX
  8
LAYER_2
 10
75.8094
 20
179.3544
  0
VERTEX
  8
LAYER_2
 10
76.3164
 20
179.3544
  0
VERTEX
  8
LAYER_2
 10
76.0824
 20
177.8721
  0
SEQEND
  0
TEXT
  8
LAYER_2
 10
81.7004
 20
133.4797
 11
81.7004
 21
133.4797
 40
2.8149
 41
0.5
  1
≒20
  0
POLYLINE
  8
LAYER_2
 40
0.1058
 41
0.1058
 66
1
 10
0
 20
0
 30
0
  0
VERTEX
  8
LAYER_2
 10
80.9453
 20
135.4262
  0
VERTEX
  8
LAYER_2
 10
46.677
 20
135.4262
  0
SEQEND
  0
POLYLINE
  8
LAYER_2
 40
0.1058
 41
0.1058
 66
1
 10
0
 20
0
 30
0
  0
VERTEX
  8
LAYER_2
 10
80.9453
 20
133.4401
  0
VERTEX
  8
LAYER_2
 10
56.0801
 20
133.4401
  0
SEQEND
  0
POLYLINE
  8
LAYER_2
 40
0.1058
 41
0.1058
 66
1
 10
0
 20
0
 30
0
  0
VERTEX
  8
LAYER_2
 10
80.9453
 20
131.9729
  0
VERTEX
  8
LAYER_2
 10
80.9453
 20
130.4907
  0
SEQEND
  0
POLYLINE
  8
LAYER_2
 40
0.1058
 41
0.1058
 66
1
 10
0
 20
0
 30
0
  0
VERTEX
  8
LAYER_2
 10
80.9453
 20
136.9084
  0
VERTEX
  8
LAYER_2
 10
80.9453
 20
138.4297
  0
SEQEND
  0
POLYLINE
  8
LAYER_2
 40
0.1058
 41
0.1058
 66
1
 10
0
 20
0
 30
0
  0
VERTEX
  8
LAYER_2
 10
80.9453
 20
133.4943
  0
VERTEX
  8
LAYER_2
 10
80.9453
 20
135.426
  0
SEQEND
  0
POLYLINE
  8
LAYER_2
 40
0.05
 41
0.05
 66
1
 10
0
 20
0
 30
0
 70
1
  0
VERTEX
  8
LAYER_2
 10
80.6722
 20
131.9729
  0
VERTEX
  8
LAYER_2
 10
81.1792
 20
131.9729
  0
VERTEX
  8
LAYER_2
 10
80.9453
 20
133.4942
  0
SEQEND
  0
POLYLINE
  8
LAYER_2
 66
1
 10
0
 20
0
 30
0
 70
1
  0
VERTEX
  8
LAYER_2
 10
80.6722
 20
131.9729
  0
VERTEX
  8
LAYER_2
 10
81.1792
 20
131.9729
  0
VERTEX
  8
LAYER_2
 10
80.9453
 20
133.4942
  0
SEQEND
  0
POLYLINE
  8
LAYER_2
 40
0.05
 41
0.05
 66
1
 10
0
 20
0
 30
0
 70
1
  0
VERTEX
  8
LAYER_2
 10
80.6722
 20
136.9084
  0
VERTEX
  8
LAYER_2
 10
81.1792
 20
136.9084
  0
VERTEX
  8
LAYER_2
 10
80.9453
 20
135.4262
  0
SEQEND
  0
POLYLINE
  8
LAYER_2
 66
1
 10
0
 20
0
 30
0
 70
1
  0
VERTEX
  8
LAYER_2
 10
80.6722
 20
136.9084
  0
VERTEX
  8
LAYER_2
 10
81.1792
 20
136.9084
  0
VERTEX
  8
LAYER_2
 10
80.9453
 20
135.4262
  0
SEQEND
  0
ENDSEC
  0
EOF
