  0
SECTION
  2
HEADER
  9
$ACADVER
  1
AC1009
  9
$LUNITS
 70
2
  9
$LUPREC
 70
4
  9
$LTSCALE
 40
1.0
  9
$EXTMIN
 10
73.4882
 20
-279.0724
 30
0
  9
$EXTMAX
 10
263.9935
 20
-11.6279
 30
0
  0
ENDSEC
  0
SECTION
  2
TABLES
  0
TABLE
  2
LTYPE
 70
256
  0
LTYPE
  2
AIGENLINE001
 70
64
  3
generate AI->DXF Converter
 72
65
 73
2
 40
1.6801
 49
1.1201
 49
-0.56
  0
LTYPE
  2
AIGENLINE002
 70
64
  3
generate AI->DXF Converter
 72
65
 73
4
 40
10.0806
 49
6.7204
 49
-1.1201
 49
1.1201
 49
-1.1201
  0
LTYPE
  2
AIGENLINE003
 70
64
  3
generate AI->DXF Converter
 72
65
 73
4
 40
1.4299
 49
0.7149
 49
-0.7149
 49
0
 49
0
  0
LTYPE
  2
AIGENLINE004
 70
64
  3
generate AI->DXF Converter
 72
65
 73
4
 40
14
 49
11
 49
-1
 49
1
 49
-1
  0
LTYPE
  2
AIGENLINE005
 70
64
  3
generate AI->DXF Converter
 72
65
 73
4
 40
0.717
 49
0.3585
 49
-0.3585
 49
0
 49
0
  0
LTYPE
  2
AIGENLINE006
 70
64
  3
generate AI->DXF Converter
 72
65
 73
2
 40
9.525
 49
6.35
 49
-3.175
  0
LTYPE
  2
AIGENLINE007
 70
64
  3
generate AI->DXF Converter
 72
65
 73
4
 40
0.7056
 49
0.3528
 49
-0.3528
 49
0
 49
0
  0
ENDTAB
  0
TABLE
  2
LAYER
 70
36
  0
LAYER
  2
LAYER_1
 70
64
 62
7
  6
CONTINUOUS
  0
LAYER
  2
LAYER_2
 70
64
 62
7
  6
CONTINUOUS
  0
LAYER
  2
LAYER_3
 70
64
 62
7
  6
CONTINUOUS
  0
LAYER
  2
LAYER_4
 70
64
 62
7
  6
CONTINUOUS
  0
LAYER
  2
LAYER_5
 70
64
 62
7
  6
CONTINUOUS
  0
LAYER
  2
LAYER_6
 70
64
 62
7
  6
CONTINUOUS
  0
LAYER
  2
LAYER_7
 70
64
 62
7
  6
CONTINUOUS
  0
LAYER
  2
LAYER_8
 70
64
 62
7
  6
CONTINUOUS
  0
LAYER
  2
LAYER_9
 70
64
 62
7
  6
CONTINUOUS
  0
LAYER
  2
LAYER_10
 70
64
 62
7
  6
CONTINUOUS
  0
LAYER
  2
LAYER_11
 70
64
 62
7
  6
CONTINUOUS
  0
LAYER
  2
LAYER_12
 70
64
 62
7
  6
CONTINUOUS
  0
LAYER
  2
LAYER_13
 70
64
 62
7
  6
CONTINUOUS
  0
LAYER
  2
LAYER_14
 70
64
 62
7
  6
CONTINUOUS
  0
LAYER
  2
LAYER_15
 70
64
 62
7
  6
CONTINUOUS
  0
LAYER
  2
LAYER_16
 70
64
 62
7
  6
CONTINUOUS
  0
LAYER
  2
LAYER_17
 70
64
 62
7
  6
CONTINUOUS
  0
LAYER
  2
LAYER_18
 70
64
 62
7
  6
CONTINUOUS
  0
LAYER
  2
LAYER_19
 70
64
 62
7
  6
CONTINUOUS
  0
LAYER
  2
LAYER_20
 70
64
 62
7
  6
CONTINUOUS
  0
LAYER
  2
LAYER_21
 70
64
 62
7
  6
CONTINUOUS
  0
LAYER
  2
LAYER_22
 70
64
 62
7
  6
CONTINUOUS
  0
LAYER
  2
LAYER_23
 70
64
 62
7
  6
CONTINUOUS
  0
LAYER
  2
LAYER_24
 70
64
 62
7
  6
CONTINUOUS
  0
LAYER
  2
LAYER_25
 70
64
 62
7
  6
CONTINUOUS
  0
LAYER
  2
LAYER_26
 70
64
 62
7
  6
CONTINUOUS
  0
LAYER
  2
LAYER_27
 70
64
 62
7
  6
CONTINUOUS
  0
LAYER
  2
LAYER_28
 70
64
 62
7
  6
CONTINUOUS
  0
LAYER
  2
LAYER_29
 70
64
 62
7
  6
CONTINUOUS
  0
LAYER
  2
LAYER_30
 70
64
 62
7
  6
CONTINUOUS
  0
LAYER
  2
LAYER_31
 70
64
 62
7
  6
CONTINUOUS
  0
LAYER
  2
LAYER_32
 70
64
 62
7
  6
CONTINUOUS
  0
LAYER
  2
LAYER_33
 70
64
 62
7
  6
CONTINUOUS
  0
LAYER
  2
LAYER_34
 70
64
 62
7
  6
CONTINUOUS
  0
LAYER
  2
LAYER_35
 70
64
 62
7
  6
CONTINUOUS
  0
LAYER
  2
LAYER_36
 70
64
 62
7
  6
CONTINUOUS
  0
ENDTAB
  0
TABLE
  2
STYLE
 70
6
  0
STYLE
  2
STANDARD
 70
0
 40
0
 50
0
 71
0
 41
0
 42
0
  3
TXT
  4
BIGFONT
  0
ENDTAB
  0
ENDSEC
  0
SECTION
  2
BLOCKS
  0
BLOCK
  8
LAYER_22
  2
AIGNBL16040016
 70
64
 10
0
 20
0
 30
0
  3
AIGNBL16040016
  0
POLYLINE
  8
LAYER_22
 40
0.1058
 41
0.1058
 66
1
 10
0
 20
0
 30
0
  0
VERTEX
  8
LAYER_22
 10
218.0228
 20
-199.2793
  0
VERTEX
  8
LAYER_22
 10
218.0228
 20
-199.2201
  0
SEQEND
  0
ENDBLK
  0
BLOCK
  8
LAYER_22
  2
AIGNBL16040017
 70
64
 10
0
 20
0
 30
0
  3
AIGNBL16040017
  0
POLYLINE
  8
LAYER_22
 40
0.1058
 41
0.1058
 66
1
 10
0
 20
0
 30
0
  0
VERTEX
  8
LAYER_22
 10
218.0228
 20
-199.2793
  0
VERTEX
  8
LAYER_22
 10
217.9416
 20
-199.2793
  0
SEQEND
  0
ENDBLK
  0
BLOCK
  8
LAYER_22
  2
AIGNBL16040018
 70
64
 10
0
 20
0
 30
0
  3
AIGNBL16040018
  0
POLYLINE
  8
LAYER_22
 40
0.1058
 41
0.1058
 66
1
 10
0
 20
0
 30
0
  0
VERTEX
  8
LAYER_22
 10
217.9416
 20
-199.4202
  0
VERTEX
  8
LAYER_22
 10
218.0228
 20
-199.2793
  0
SEQEND
  0
ENDBLK
  0
BLOCK
  8
LAYER_22
  2
AIGNBL16040019
 70
64
 10
0
 20
0
 30
0
  3
AIGNBL16040019
  0
POLYLINE
  8
LAYER_22
 40
0.1058
 41
0.1058
 66
1
 10
0
 20
0
 30
0
  0
VERTEX
  8
LAYER_22
 10
217.9416
 20
-199.4202
  0
VERTEX
  8
LAYER_22
 10
217.9416
 20
-199.2201
  0
SEQEND
  0
ENDBLK
  0
BLOCK
  8
LAYER_22
  2
AIGNBL1604001A
 70
64
 10
0
 20
0
 30
0
  3
AIGNBL1604001A
  0
POLYLINE
  8
LAYER_22
 40
0.1058
 41
0.1058
 66
1
 10
0
 20
0
 30
0
  0
VERTEX
  8
LAYER_22
 10
221.6602
 20
-199.2793
  0
VERTEX
  8
LAYER_22
 10
218.0228
 20
-199.2793
  0
SEQEND
  0
ENDBLK
  0
BLOCK
  8
LAYER_22
  2
AIGNBL1604001B
 70
64
 10
0
 20
0
 30
0
  3
AIGNBL1604001B
  0
POLYLINE
  8
LAYER_22
 40
0.1058
 41
0.1058
 66
1
 10
0
 20
0
 30
0
  0
VERTEX
  8
LAYER_22
 10
221.7415
 20
-199.2201
  0
VERTEX
  8
LAYER_22
 10
221.7415
 20
-199.4202
  0
SEQEND
  0
ENDBLK
  0
BLOCK
  8
LAYER_22
  2
AIGNBL1604001C
 70
64
 10
0
 20
0
 30
0
  3
AIGNBL1604001C
  0
POLYLINE
  8
LAYER_22
 40
0.1058
 41
0.1058
 66
1
 10
0
 20
0
 30
0
  0
VERTEX
  8
LAYER_22
 10
217.9416
 20
-199.4202
  0
VERTEX
  8
LAYER_22
 10
221.7415
 20
-199.4202
  0
SEQEND
  0
ENDBLK
  0
BLOCK
  8
LAYER_22
  2
AIGNBL1604001D
 70
64
 10
0
 20
0
 30
0
  3
AIGNBL1604001D
  0
POLYLINE
  8
LAYER_22
 40
0.1058
 41
0.1058
 66
1
 10
0
 20
0
 30
0
  0
VERTEX
  8
LAYER_22
 10
221.6602
 20
-199.2793
  0
VERTEX
  8
LAYER_22
 10
221.7415
 20
-199.4202
  0
SEQEND
  0
ENDBLK
  0
BLOCK
  8
LAYER_22
  2
AIGNBL1604001E
 70
64
 10
0
 20
0
 30
0
  3
AIGNBL1604001E
  0
POLYLINE
  8
LAYER_22
 40
0.1058
 41
0.1058
 66
1
 10
0
 20
0
 30
0
  0
VERTEX
  8
LAYER_22
 10
221.7415
 20
-199.2793
  0
VERTEX
  8
LAYER_22
 10
221.6602
 20
-199.2793
  0
SEQEND
  0
ENDBLK
  0
BLOCK
  8
LAYER_22
  2
AIGNBL1604001F
 70
64
 10
0
 20
0
 30
0
  3
AIGNBL1604001F
  0
POLYLINE
  8
LAYER_22
 40
0.1058
 41
0.1058
 66
1
 10
0
 20
0
 30
0
  0
VERTEX
  8
LAYER_22
 10
221.6602
 20
-199.2201
  0
VERTEX
  8
LAYER_22
 10
221.6602
 20
-199.2793
  0
SEQEND
  0
ENDBLK
  0
BLOCK
  8
LAYER_22
  2
AIGNBL1604007C
 70
64
 10
0
 20
0
 30
0
  3
AIGNBL1604007C
  0
POLYLINE
  8
LAYER_22
 40
0.1058
 41
0.1058
 66
1
 10
0
 20
0
 30
0
  0
VERTEX
  8
LAYER_22
 10
129.7903
 20
-199.2446
  0
VERTEX
  8
LAYER_22
 10
129.7903
 20
-199.1853
  0
SEQEND
  0
ENDBLK
  0
BLOCK
  8
LAYER_22
  2
AIGNBL1604007D
 70
64
 10
0
 20
0
 30
0
  3
AIGNBL1604007D
  0
POLYLINE
  8
LAYER_22
 40
0.1058
 41
0.1058
 66
1
 10
0
 20
0
 30
0
  0
VERTEX
  8
LAYER_22
 10
129.7903
 20
-199.2446
  0
VERTEX
  8
LAYER_22
 10
129.709
 20
-199.2446
  0
SEQEND
  0
ENDBLK
  0
BLOCK
  8
LAYER_22
  2
AIGNBL1604007E
 70
64
 10
0
 20
0
 30
0
  3
AIGNBL1604007E
  0
POLYLINE
  8
LAYER_22
 40
0.1058
 41
0.1058
 66
1
 10
0
 20
0
 30
0
  0
VERTEX
  8
LAYER_22
 10
129.709
 20
-199.3855
  0
VERTEX
  8
LAYER_22
 10
129.7903
 20
-199.2446
  0
SEQEND
  0
ENDBLK
  0
BLOCK
  8
LAYER_22
  2
AIGNBL1604007F
 70
64
 10
0
 20
0
 30
0
  3
AIGNBL1604007F
  0
POLYLINE
  8
LAYER_22
 40
0.1058
 41
0.1058
 66
1
 10
0
 20
0
 30
0
  0
VERTEX
  8
LAYER_22
 10
129.709
 20
-199.3855
  0
VERTEX
  8
LAYER_22
 10
129.709
 20
-199.1853
  0
SEQEND
  0
ENDBLK
  0
BLOCK
  8
LAYER_22
  2
AIGNBL16040080
 70
64
 10
0
 20
0
 30
0
  3
AIGNBL16040080
  0
POLYLINE
  8
LAYER_22
 40
0.1058
 41
0.1058
 66
1
 10
0
 20
0
 30
0
  0
VERTEX
  8
LAYER_22
 10
133.4277
 20
-199.2446
  0
VERTEX
  8
LAYER_22
 10
129.7903
 20
-199.2446
  0
SEQEND
  0
ENDBLK
  0
BLOCK
  8
LAYER_22
  2
AIGNBL16040081
 70
64
 10
0
 20
0
 30
0
  3
AIGNBL16040081
  0
POLYLINE
  8
LAYER_22
 40
0.1058
 41
0.1058
 66
1
 10
0
 20
0
 30
0
  0
VERTEX
  8
LAYER_22
 10
133.509
 20
-199.1853
  0
VERTEX
  8
LAYER_22
 10
133.509
 20
-199.3855
  0
SEQEND
  0
ENDBLK
  0
BLOCK
  8
LAYER_22
  2
AIGNBL16040082
 70
64
 10
0
 20
0
 30
0
  3
AIGNBL16040082
  0
POLYLINE
  8
LAYER_22
 40
0.1058
 41
0.1058
 66
1
 10
0
 20
0
 30
0
  0
VERTEX
  8
LAYER_22
 10
129.709
 20
-199.3855
  0
VERTEX
  8
LAYER_22
 10
133.509
 20
-199.3855
  0
SEQEND
  0
ENDBLK
  0
BLOCK
  8
LAYER_22
  2
AIGNBL16040083
 70
64
 10
0
 20
0
 30
0
  3
AIGNBL16040083
  0
POLYLINE
  8
LAYER_22
 40
0.1058
 41
0.1058
 66
1
 10
0
 20
0
 30
0
  0
VERTEX
  8
LAYER_22
 10
133.4277
 20
-199.2446
  0
VERTEX
  8
LAYER_22
 10
133.509
 20
-199.3855
  0
SEQEND
  0
ENDBLK
  0
BLOCK
  8
LAYER_22
  2
AIGNBL16040084
 70
64
 10
0
 20
0
 30
0
  3
AIGNBL16040084
  0
POLYLINE
  8
LAYER_22
 40
0.1058
 41
0.1058
 66
1
 10
0
 20
0
 30
0
  0
VERTEX
  8
LAYER_22
 10
133.509
 20
-199.2446
  0
VERTEX
  8
LAYER_22
 10
133.4277
 20
-199.2446
  0
SEQEND
  0
ENDBLK
  0
BLOCK
  8
LAYER_22
  2
AIGNBL16040085
 70
64
 10
0
 20
0
 30
0
  3
AIGNBL16040085
  0
POLYLINE
  8
LAYER_22
 40
0.1058
 41
0.1058
 66
1
 10
0
 20
0
 30
0
  0
VERTEX
  8
LAYER_22
 10
133.4277
 20
-199.1853
  0
VERTEX
  8
LAYER_22
 10
133.4277
 20
-199.2446
  0
SEQEND
  0
ENDBLK
  0
BLOCK
  8
LAYER_22
  2
AIGNBL1604009E
 70
64
 10
0
 20
0
 30
0
  3
AIGNBL1604009E
  0
POLYLINE
  8
LAYER_22
 40
0.1058
 41
0.1058
 66
1
 10
0
 20
0
 30
0
  0
VERTEX
  8
LAYER_22
 10
126.6091
 20
-203.9199
  0
VERTEX
  8
LAYER_22
 10
126.9619
 20
-203.9199
  0
SEQEND
  0
POLYLINE
  8
LAYER_22
  6
AIGENLINE003
 40
0.1058
 41
0.1058
 66
1
 10
0
 20
0
 30
0
 70
128
  0
VERTEX
  8
LAYER_22
 10
127.6764
 20
-203.9199
  0
VERTEX
  8
LAYER_22
 10
136.2561
 20
-203.9199
  0
SEQEND
  0
POLYLINE
  8
LAYER_22
 40
0.1058
 41
0.1058
 66
1
 10
0
 20
0
 30
0
  0
VERTEX
  8
LAYER_22
 10
136.2561
 20
-203.9199
  0
VERTEX
  8
LAYER_22
 10
136.6088
 20
-203.9199
  0
SEQEND
  0
ENDBLK
  0
BLOCK
  8
LAYER_33
  2
AIGNBL21040032
 70
64
 10
0
 20
0
 30
0
  3
AIGNBL21040032
  0
POLYLINE
  8
LAYER_33
 40
0.0882
 41
0.0882
 66
1
 10
0
 20
0
 30
0
  0
VERTEX
  8
LAYER_33
 10
121.9586
 20
-201.7904
  0
VERTEX
  8
LAYER_33
 10
121.9586
 20
-203.5129
  0
SEQEND
  0
ENDBLK
  0
BLOCK
  8
LAYER_33
  2
AIGNBL21040033
 70
64
 10
0
 20
0
 30
0
  3
AIGNBL21040033
  0
POLYLINE
  8
LAYER_33
 40
0.0882
 41
0.0882
 66
1
 10
0
 20
0
 30
0
  0
VERTEX
  8
LAYER_33
 10
121.9386
 20
-201.7704
  0
VERTEX
  8
LAYER_33
 10
121.9586
 20
-201.7904
  0
SEQEND
  0
ENDBLK
  0
BLOCK
  8
LAYER_33
  2
AIGNBL21040034
 70
64
 10
0
 20
0
 30
0
  3
AIGNBL21040034
  0
POLYLINE
  8
LAYER_33
 40
0.0882
 41
0.0882
 66
1
 10
0
 20
0
 30
0
  0
VERTEX
  8
LAYER_33
 10
121.6086
 20
-204.5699
  0
VERTEX
  8
LAYER_33
 10
121.6086
 20
-201.47
  0
SEQEND
  0
ENDBLK
  0
BLOCK
  8
LAYER_33
  2
AIGNBL21040035
 70
64
 10
0
 20
0
 30
0
  3
AIGNBL21040035
  0
POLYLINE
  8
LAYER_33
 40
0.0882
 41
0.0882
 66
1
 10
0
 20
0
 30
0
  0
VERTEX
  8
LAYER_33
 10
121.2585
 20
-201.7904
  0
VERTEX
  8
LAYER_33
 10
121.2785
 20
-201.7704
  0
SEQEND
  0
ENDBLK
  0
BLOCK
  8
LAYER_33
  2
AIGNBL21040036
 70
64
 10
0
 20
0
 30
0
  3
AIGNBL21040036
  0
POLYLINE
  8
LAYER_33
 40
0.0882
 41
0.0882
 66
1
 10
0
 20
0
 30
0
  0
VERTEX
  8
LAYER_33
 10
121.9386
 20
-201.7704
  0
VERTEX
  8
LAYER_33
 10
121.2785
 20
-201.7704
  0
SEQEND
  0
ENDBLK
  0
BLOCK
  8
LAYER_33
  2
AIGNBL21040037
 70
64
 10
0
 20
0
 30
0
  3
AIGNBL21040037
  0
POLYLINE
  8
LAYER_33
 40
0.0882
 41
0.0882
 66
1
 10
0
 20
0
 30
0
  0
VERTEX
  8
LAYER_33
 10
121.2585
 20
-203.5129
  0
VERTEX
  8
LAYER_33
 10
121.2585
 20
-201.7904
  0
SEQEND
  0
ENDBLK
  0
BLOCK
  8
LAYER_33
  2
AIGNBL2104006C
 70
64
 10
0
 20
0
 30
0
  3
AIGNBL2104006C
  0
POLYLINE
  8
LAYER_33
 40
0.0882
 41
0.0882
 66
1
 10
0
 20
0
 30
0
  0
VERTEX
  8
LAYER_33
 10
141.9588
 20
-201.7904
  0
VERTEX
  8
LAYER_33
 10
141.9588
 20
-203.5129
  0
SEQEND
  0
ENDBLK
  0
BLOCK
  8
LAYER_33
  2
AIGNBL2104006D
 70
64
 10
0
 20
0
 30
0
  3
AIGNBL2104006D
  0
POLYLINE
  8
LAYER_33
 40
0.0882
 41
0.0882
 66
1
 10
0
 20
0
 30
0
  0
VERTEX
  8
LAYER_33
 10
141.9388
 20
-201.7704
  0
VERTEX
  8
LAYER_33
 10
141.9588
 20
-201.7904
  0
SEQEND
  0
ENDBLK
  0
BLOCK
  8
LAYER_33
  2
AIGNBL2104006E
 70
64
 10
0
 20
0
 30
0
  3
AIGNBL2104006E
  0
POLYLINE
  8
LAYER_33
 40
0.0882
 41
0.0882
 66
1
 10
0
 20
0
 30
0
  0
VERTEX
  8
LAYER_33
 10
141.6087
 20
-204.5699
  0
VERTEX
  8
LAYER_33
 10
141.6087
 20
-201.47
  0
SEQEND
  0
ENDBLK
  0
BLOCK
  8
LAYER_33
  2
AIGNBL2104006F
 70
64
 10
0
 20
0
 30
0
  3
AIGNBL2104006F
  0
POLYLINE
  8
LAYER_33
 40
0.0882
 41
0.0882
 66
1
 10
0
 20
0
 30
0
  0
VERTEX
  8
LAYER_33
 10
141.2587
 20
-201.7904
  0
VERTEX
  8
LAYER_33
 10
141.2787
 20
-201.7704
  0
SEQEND
  0
ENDBLK
  0
BLOCK
  8
LAYER_33
  2
AIGNBL21040070
 70
64
 10
0
 20
0
 30
0
  3
AIGNBL21040070
  0
POLYLINE
  8
LAYER_33
 40
0.0882
 41
0.0882
 66
1
 10
0
 20
0
 30
0
  0
VERTEX
  8
LAYER_33
 10
141.9388
 20
-201.7704
  0
VERTEX
  8
LAYER_33
 10
141.2787
 20
-201.7704
  0
SEQEND
  0
ENDBLK
  0
BLOCK
  8
LAYER_33
  2
AIGNBL21040071
 70
64
 10
0
 20
0
 30
0
  3
AIGNBL21040071
  0
POLYLINE
  8
LAYER_33
 40
0.0882
 41
0.0882
 66
1
 10
0
 20
0
 30
0
  0
VERTEX
  8
LAYER_33
 10
141.2587
 20
-203.5129
  0
VERTEX
  8
LAYER_33
 10
141.2587
 20
-201.7904
  0
SEQEND
  0
ENDBLK
  0
BLOCK
  8
LAYER_22
  2
AIGNBL16030004
 70
64
 10
0
 20
0
 30
0
  3
AIGNBL16030004
  0
POLYLINE
  8
LAYER_22
 40
0.1058
 41
0.1058
 66
1
 10
0
 20
0
 30
0
  0
VERTEX
  8
LAYER_22
 10
221.9392
 20
-195.9218
  0
VERTEX
  8
LAYER_22
 10
222.0915
 20
-195.9218
  0
SEQEND
  0
ENDBLK
  0
BLOCK
  8
LAYER_22
  2
AIGNBL16030005
 70
64
 10
0
 20
0
 30
0
  3
AIGNBL16030005
  0
POLYLINE
  8
LAYER_22
 40
0.1058
 41
0.1058
 66
1
 10
0
 20
0
 30
0
  0
VERTEX
  8
LAYER_22
 10
217.5915
 20
-196.8717
  0
VERTEX
  8
LAYER_22
 10
217.5915
 20
-195.9218
  0
SEQEND
  0
ENDBLK
  0
BLOCK
  8
LAYER_22
  2
AIGNBL16030006
 70
64
 10
0
 20
0
 30
0
  3
AIGNBL16030006
  0
POLYLINE
  8
LAYER_22
 40
0.1058
 41
0.1058
 66
1
 10
0
 20
0
 30
0
  0
VERTEX
  8
LAYER_22
 10
219.8419
 20
-196.5216
  0
VERTEX
  8
LAYER_22
 10
220.482
 20
-197.1218
  0
SEQEND
  0
ENDBLK
  0
BLOCK
  8
LAYER_22
  2
AIGNBL16030007
 70
64
 10
0
 20
0
 30
0
  3
AIGNBL16030007
  0
POLYLINE
  8
LAYER_22
 40
0.1058
 41
0.1058
 66
1
 10
0
 20
0
 30
0
  0
VERTEX
  8
LAYER_22
 10
219.8419
 20
-196.5216
  0
VERTEX
  8
LAYER_22
 10
220.482
 20
-195.9218
  0
SEQEND
  0
ENDBLK
  0
BLOCK
  8
LAYER_22
  2
AIGNBL16030008
 70
64
 10
0
 20
0
 30
0
  3
AIGNBL16030008
  0
POLYLINE
  8
LAYER_22
 40
0.1058
 41
0.1058
 66
1
 10
0
 20
0
 30
0
  0
VERTEX
  8
LAYER_22
 10
220.482
 20
-197.1218
  0
VERTEX
  8
LAYER_22
 10
219.2011
 20
-197.1218
  0
SEQEND
  0
ENDBLK
  0
BLOCK
  8
LAYER_22
  2
AIGNBL16030009
 70
64
 10
0
 20
0
 30
0
  3
AIGNBL16030009
  0
POLYLINE
  8
LAYER_22
 40
0.1058
 41
0.1058
 66
1
 10
0
 20
0
 30
0
  0
VERTEX
  8
LAYER_22
 10
222.0915
 20
-197.1218
  0
VERTEX
  8
LAYER_22
 10
220.482
 20
-197.1218
  0
SEQEND
  0
ENDBLK
  0
BLOCK
  8
LAYER_22
  2
AIGNBL1603000A
 70
64
 10
0
 20
0
 30
0
  3
AIGNBL1603000A
  0
POLYLINE
  8
LAYER_22
 40
0.1058
 41
0.1058
 66
1
 10
0
 20
0
 30
0
  0
VERTEX
  8
LAYER_22
 10
219.2011
 20
-195.9218
  0
VERTEX
  8
LAYER_22
 10
220.482
 20
-195.9218
  0
SEQEND
  0
ENDBLK
  0
BLOCK
  8
LAYER_22
  2
AIGNBL1603000B
 70
64
 10
0
 20
0
 30
0
  3
AIGNBL1603000B
  0
POLYLINE
  8
LAYER_22
 40
0.1058
 41
0.1058
 66
1
 10
0
 20
0
 30
0
  0
VERTEX
  8
LAYER_22
 10
220.482
 20
-195.9218
  0
VERTEX
  8
LAYER_22
 10
220.482
 20
-197.1218
  0
SEQEND
  0
ENDBLK
  0
BLOCK
  8
LAYER_22
  2
AIGNBL1603000C
 70
64
 10
0
 20
0
 30
0
  3
AIGNBL1603000C
  0
POLYLINE
  8
LAYER_22
 40
0.1058
 41
0.1058
 66
1
 10
0
 20
0
 30
0
  0
VERTEX
  8
LAYER_22
 10
220.482
 20
-195.9218
  0
VERTEX
  8
LAYER_22
 10
221.9392
 20
-195.9218
  0
SEQEND
  0
ENDBLK
  0
BLOCK
  8
LAYER_22
  2
AIGNBL1603000D
 70
64
 10
0
 20
0
 30
0
  3
AIGNBL1603000D
  0
POLYLINE
  8
LAYER_22
 40
0.1058
 41
0.1058
 66
1
 10
0
 20
0
 30
0
  0
VERTEX
  8
LAYER_22
 10
222.0915
 20
-195.9218
  0
VERTEX
  8
LAYER_22
 10
222.0915
 20
-197.1218
  0
SEQEND
  0
ENDBLK
  0
BLOCK
  8
LAYER_22
  2
AIGNBL1603000E
 70
64
 10
0
 20
0
 30
0
  3
AIGNBL1603000E
  0
POLYLINE
  8
LAYER_22
 40
0.1058
 41
0.1058
 66
1
 10
0
 20
0
 30
0
  0
VERTEX
  8
LAYER_22
 10
217.5915
 20
-197.1218
  0
VERTEX
  8
LAYER_22
 10
217.5915
 20
-196.8717
  0
SEQEND
  0
ENDBLK
  0
BLOCK
  8
LAYER_22
  2
AIGNBL1603000F
 70
64
 10
0
 20
0
 30
0
  3
AIGNBL1603000F
  0
POLYLINE
  8
LAYER_22
 40
0.1058
 41
0.1058
 66
1
 10
0
 20
0
 30
0
  0
VERTEX
  8
LAYER_22
 10
217.5915
 20
-195.9218
  0
VERTEX
  8
LAYER_22
 10
219.2011
 20
-195.9218
  0
SEQEND
  0
ENDBLK
  0
BLOCK
  8
LAYER_22
  2
AIGNBL16030010
 70
64
 10
0
 20
0
 30
0
  3
AIGNBL16030010
  0
POLYLINE
  8
LAYER_22
 40
0.1058
 41
0.1058
 66
1
 10
0
 20
0
 30
0
  0
VERTEX
  8
LAYER_22
 10
219.2011
 20
-197.1218
  0
VERTEX
  8
LAYER_22
 10
219.2011
 20
-195.9218
  0
SEQEND
  0
ENDBLK
  0
BLOCK
  8
LAYER_22
  2
AIGNBL16030011
 70
64
 10
0
 20
0
 30
0
  3
AIGNBL16030011
  0
POLYLINE
  8
LAYER_22
 40
0.1058
 41
0.1058
 66
1
 10
0
 20
0
 30
0
  0
VERTEX
  8
LAYER_22
 10
219.2011
 20
-197.1218
  0
VERTEX
  8
LAYER_22
 10
217.5915
 20
-197.1218
  0
SEQEND
  0
ENDBLK
  0
BLOCK
  8
LAYER_22
  2
AIGNBL16030012
 70
64
 10
0
 20
0
 30
0
  3
AIGNBL16030012
  0
POLYLINE
  8
LAYER_22
 40
0.1058
 41
0.1058
 66
1
 10
0
 20
0
 30
0
  0
VERTEX
  8
LAYER_22
 10
219.2011
 20
-195.9218
  0
VERTEX
  8
LAYER_22
 10
219.8419
 20
-196.5216
  0
SEQEND
  0
ENDBLK
  0
BLOCK
  8
LAYER_22
  2
AIGNBL16030013
 70
64
 10
0
 20
0
 30
0
  3
AIGNBL16030013
  0
POLYLINE
  8
LAYER_22
 40
0.1058
 41
0.1058
 66
1
 10
0
 20
0
 30
0
  0
VERTEX
  8
LAYER_22
 10
219.2011
 20
-197.1218
  0
VERTEX
  8
LAYER_22
 10
219.8419
 20
-196.5216
  0
SEQEND
  0
ENDBLK
  0
BLOCK
  8
LAYER_22
  2
AIGNBL16030015
 70
64
 10
0
 20
0
 30
0
  3
AIGNBL16030015
  0
INSERT
  8
LAYER_22
  2
AIGNBL16040016
 10
0
 20
0
 30
0
  0
INSERT
  8
LAYER_22
  2
AIGNBL16040017
 10
0
 20
0
 30
0
  0
INSERT
  8
LAYER_22
  2
AIGNBL16040018
 10
0
 20
0
 30
0
  0
INSERT
  8
LAYER_22
  2
AIGNBL16040019
 10
0
 20
0
 30
0
  0
INSERT
  8
LAYER_22
  2
AIGNBL1604001A
 10
0
 20
0
 30
0
  0
INSERT
  8
LAYER_22
  2
AIGNBL1604001B
 10
0
 20
0
 30
0
  0
INSERT
  8
LAYER_22
  2
AIGNBL1604001C
 10
0
 20
0
 30
0
  0
INSERT
  8
LAYER_22
  2
AIGNBL1604001D
 10
0
 20
0
 30
0
  0
INSERT
  8
LAYER_22
  2
AIGNBL1604001E
 10
0
 20
0
 30
0
  0
INSERT
  8
LAYER_22
  2
AIGNBL1604001F
 10
0
 20
0
 30
0
  0
ENDBLK
  0
BLOCK
  8
LAYER_22
  2
AIGNBL16030020
 70
64
 10
0
 20
0
 30
0
  3
AIGNBL16030020
  0
POLYLINE
  8
LAYER_22
 40
0.1058
 41
0.1058
 66
1
 10
0
 20
0
 30
0
  0
VERTEX
  8
LAYER_22
 10
223.3414
 20
-202.0199
  0
VERTEX
  8
LAYER_22
 10
225.4319
 20
-202.0199
  0
SEQEND
  0
ENDBLK
  0
BLOCK
  8
LAYER_22
  2
AIGNBL16030021
 70
64
 10
0
 20
0
 30
0
  3
AIGNBL16030021
  0
POLYLINE
  8
LAYER_22
 40
0.1058
 41
0.1058
 66
1
 10
0
 20
0
 30
0
  0
VERTEX
  8
LAYER_22
 10
217.3015
 20
-199.4202
  0
VERTEX
  8
LAYER_22
 10
217.9416
 20
-199.4202
  0
SEQEND
  0
ENDBLK
  0
BLOCK
  8
LAYER_22
  2
AIGNBL16030022
 70
64
 10
0
 20
0
 30
0
  3
AIGNBL16030022
  0
POLYLINE
  8
LAYER_22
 40
0.1058
 41
0.1058
 66
1
 10
0
 20
0
 30
0
  0
VERTEX
  8
LAYER_22
 10
221.7415
 20
-199.4202
  0
VERTEX
  8
LAYER_22
 10
222.3823
 20
-199.4202
  0
SEQEND
  0
ENDBLK
  0
BLOCK
  8
LAYER_22
  2
AIGNBL16030023
 70
64
 10
0
 20
0
 30
0
  3
AIGNBL16030023
  0
POLYLINE
  8
LAYER_22
 40
0.1058
 41
0.1058
 66
1
 10
0
 20
0
 30
0
  0
VERTEX
  8
LAYER_22
 10
222.3816
 20
-205.8202
  0
VERTEX
  8
LAYER_22
 10
222.3816
 20
-212.9698
  0
SEQEND
  0
ENDBLK
  0
BLOCK
  8
LAYER_22
  2
AIGNBL16030024
 70
64
 10
0
 20
0
 30
0
  3
AIGNBL16030024
  0
POLYLINE
  8
LAYER_22
 40
0.1058
 41
0.1058
 66
1
 10
0
 20
0
 30
0
  0
VERTEX
  8
LAYER_22
 10
225.5724
 20
-205.7389
  0
VERTEX
  8
LAYER_22
 10
225.5724
 20
-202.0199
  0
SEQEND
  0
ENDBLK
  0
BLOCK
  8
LAYER_22
  2
AIGNBL16030025
 70
64
 10
0
 20
0
 30
0
  3
AIGNBL16030025
  0
POLYLINE
  8
LAYER_22
 40
0.1058
 41
0.1058
 66
1
 10
0
 20
0
 30
0
  0
VERTEX
  8
LAYER_22
 10
225.6317
 20
-205.8202
  0
VERTEX
  8
LAYER_22
 10
225.4319
 20
-205.8202
  0
SEQEND
  0
ENDBLK
  0
BLOCK
  8
LAYER_22
  2
AIGNBL16030026
 70
64
 10
0
 20
0
 30
0
  3
AIGNBL16030026
  0
POLYLINE
  8
LAYER_22
 40
0.1058
 41
0.1058
 66
1
 10
0
 20
0
 30
0
  0
VERTEX
  8
LAYER_22
 10
225.4319
 20
-202.0199
  0
VERTEX
  8
LAYER_22
 10
225.4319
 20
-205.8202
  0
SEQEND
  0
ENDBLK
  0
BLOCK
  8
LAYER_22
  2
AIGNBL16030027
 70
64
 10
0
 20
0
 30
0
  3
AIGNBL16030027
  0
POLYLINE
  8
LAYER_22
 40
0.1058
 41
0.1058
 66
1
 10
0
 20
0
 30
0
  0
VERTEX
  8
LAYER_22
 10
225.4319
 20
-202.0199
  0
VERTEX
  8
LAYER_22
 10
225.5724
 20
-202.0199
  0
SEQEND
  0
ENDBLK
  0
BLOCK
  8
LAYER_22
  2
AIGNBL16030028
 70
64
 10
0
 20
0
 30
0
  3
AIGNBL16030028
  0
POLYLINE
  8
LAYER_22
 40
0.1058
 41
0.1058
 66
1
 10
0
 20
0
 30
0
  0
VERTEX
  8
LAYER_22
 10
225.5724
 20
-202.1016
  0
VERTEX
  8
LAYER_22
 10
225.4319
 20
-202.0199
  0
SEQEND
  0
ENDBLK
  0
BLOCK
  8
LAYER_22
  2
AIGNBL16030029
 70
64
 10
0
 20
0
 30
0
  3
AIGNBL16030029
  0
POLYLINE
  8
LAYER_22
 40
0.1058
 41
0.1058
 66
1
 10
0
 20
0
 30
0
  0
VERTEX
  8
LAYER_22
 10
225.6317
 20
-202.1016
  0
VERTEX
  8
LAYER_22
 10
225.5724
 20
-202.1016
  0
SEQEND
  0
ENDBLK
  0
BLOCK
  8
LAYER_22
  2
AIGNBL1603002A
 70
64
 10
0
 20
0
 30
0
  3
AIGNBL1603002A
  0
POLYLINE
  8
LAYER_22
 40
0.1058
 41
0.1058
 66
1
 10
0
 20
0
 30
0
  0
VERTEX
  8
LAYER_22
 10
225.5724
 20
-205.7389
  0
VERTEX
  8
LAYER_22
 10
225.4319
 20
-205.8202
  0
SEQEND
  0
ENDBLK
  0
BLOCK
  8
LAYER_22
  2
AIGNBL1603002B
 70
64
 10
0
 20
0
 30
0
  3
AIGNBL1603002B
  0
POLYLINE
  8
LAYER_22
 40
0.1058
 41
0.1058
 66
1
 10
0
 20
0
 30
0
  0
VERTEX
  8
LAYER_22
 10
225.5724
 20
-205.8202
  0
VERTEX
  8
LAYER_22
 10
225.5724
 20
-205.7389
  0
SEQEND
  0
ENDBLK
  0
BLOCK
  8
LAYER_22
  2
AIGNBL1603002C
 70
64
 10
0
 20
0
 30
0
  3
AIGNBL1603002C
  0
POLYLINE
  8
LAYER_22
 40
0.1058
 41
0.1058
 66
1
 10
0
 20
0
 30
0
  0
VERTEX
  8
LAYER_22
 10
225.6317
 20
-205.7389
  0
VERTEX
  8
LAYER_22
 10
225.5724
 20
-205.7389
  0
SEQEND
  0
ENDBLK
  0
BLOCK
  8
LAYER_22
  2
AIGNBL1603002D
 70
64
 10
0
 20
0
 30
0
  3
AIGNBL1603002D
  0
POLYLINE
  8
LAYER_22
 40
0.1058
 41
0.1058
 66
1
 10
0
 20
0
 30
0
  0
VERTEX
  8
LAYER_22
 10
225.4319
 20
-202.0199
  0
VERTEX
  8
LAYER_22
 10
225.6317
 20
-202.0199
  0
SEQEND
  0
ENDBLK
  0
BLOCK
  8
LAYER_22
  2
AIGNBL1603002E
 70
64
 10
0
 20
0
 30
0
  3
AIGNBL1603002E
  0
POLYLINE
  8
LAYER_22
 40
0.1058
 41
0.1058
 66
1
 10
0
 20
0
 30
0
  0
VERTEX
  8
LAYER_22
 10
225.4319
 20
-205.8202
  0
VERTEX
  8
LAYER_22
 10
222.3816
 20
-205.8202
  0
SEQEND
  0
ENDBLK
  0
BLOCK
  8
LAYER_22
  2
AIGNBL1603002F
 70
64
 10
0
 20
0
 30
0
  3
AIGNBL1603002F
  0
POLYLINE
  8
LAYER_22
 40
0.1058
 41
0.1058
 66
1
 10
0
 20
0
 30
0
  0
VERTEX
  8
LAYER_22
 10
222.3816
 20
-202.0199
  0
VERTEX
  8
LAYER_22
 10
223.3414
 20
-202.0199
  0
SEQEND
  0
ENDBLK
  0
BLOCK
  8
LAYER_22
  2
AIGNBL16030030
 70
64
 10
0
 20
0
 30
0
  3
AIGNBL16030030
  0
POLYLINE
  8
LAYER_22
 40
0.1058
 41
0.1058
 66
1
 10
0
 20
0
 30
0
  0
VERTEX
  8
LAYER_22
 10
222.3816
 20
-199.4202
  0
VERTEX
  8
LAYER_22
 10
222.3816
 20
-202.0199
  0
SEQEND
  0
ENDBLK
  0
BLOCK
  8
LAYER_22
  2
AIGNBL16030031
 70
64
 10
0
 20
0
 30
0
  3
AIGNBL16030031
  0
POLYLINE
  8
LAYER_22
 40
0.1058
 41
0.1058
 66
1
 10
0
 20
0
 30
0
  0
VERTEX
  8
LAYER_22
 10
217.3015
 20
-212.9698
  0
VERTEX
  8
LAYER_22
 10
217.3015
 20
-199.4202
  0
SEQEND
  0
ENDBLK
  0
BLOCK
  8
LAYER_22
  2
AIGNBL16030032
 70
64
 10
0
 20
0
 30
0
  3
AIGNBL16030032
  0
POLYLINE
  8
LAYER_22
 40
0.1058
 41
0.1058
 66
1
 10
0
 20
0
 30
0
  0
VERTEX
  8
LAYER_22
 10
217.3015
 20
-212.9698
  0
VERTEX
  8
LAYER_22
 10
222.3816
 20
-212.9698
  0
SEQEND
  0
ENDBLK
  0
BLOCK
  8
LAYER_22
  2
AIGNBL16030033
 70
64
 10
0
 20
0
 30
0
  3
AIGNBL16030033
  0
POLYLINE
  8
LAYER_22
 40
0.1058
 41
0.1058
 66
1
 10
0
 20
0
 30
0
  0
VERTEX
  8
LAYER_22
 10
222.3816
 20
-202.0199
 42
0.4142186159
  0
VERTEX
  8
LAYER_22
 10
222.1673
 20
-205.6056
  0
VERTEX
  8
LAYER_22
 10
222.3816
 20
-205.8202
  0
SEQEND
  0
ENDBLK
  0
BLOCK
  8
LAYER_22
  2
AIGNBL16030035
 70
64
 10
0
 20
0
 30
0
  3
AIGNBL16030035
  0
POLYLINE
  8
LAYER_22
 40
0.1058
 41
0.1058
 66
1
 10
0
 20
0
 30
0
  0
VERTEX
  8
LAYER_22
 10
219.2011
 20
-199.2201
  0
VERTEX
  8
LAYER_22
 10
219.8419
 20
-198.62
  0
SEQEND
  0
ENDBLK
  0
BLOCK
  8
LAYER_22
  2
AIGNBL16030036
 70
64
 10
0
 20
0
 30
0
  3
AIGNBL16030036
  0
POLYLINE
  8
LAYER_22
 40
0.1058
 41
0.1058
 66
1
 10
0
 20
0
 30
0
  0
VERTEX
  8
LAYER_22
 10
219.2011
 20
-198.0202
  0
VERTEX
  8
LAYER_22
 10
219.8419
 20
-198.62
  0
SEQEND
  0
ENDBLK
  0
BLOCK
  8
LAYER_22
  2
AIGNBL16030037
 70
64
 10
0
 20
0
 30
0
  3
AIGNBL16030037
  0
POLYLINE
  8
LAYER_22
 40
0.1058
 41
0.1058
 66
1
 10
0
 20
0
 30
0
  0
VERTEX
  8
LAYER_22
 10
219.2011
 20
-199.2201
  0
VERTEX
  8
LAYER_22
 10
217.7418
 20
-199.2201
  0
SEQEND
  0
ENDBLK
  0
BLOCK
  8
LAYER_22
  2
AIGNBL16030038
 70
64
 10
0
 20
0
 30
0
  3
AIGNBL16030038
  0
POLYLINE
  8
LAYER_22
 40
0.1058
 41
0.1058
 66
1
 10
0
 20
0
 30
0
  0
VERTEX
  8
LAYER_22
 10
219.2011
 20
-199.2201
  0
VERTEX
  8
LAYER_22
 10
219.2011
 20
-198.0202
  0
SEQEND
  0
ENDBLK
  0
BLOCK
  8
LAYER_22
  2
AIGNBL16030039
 70
64
 10
0
 20
0
 30
0
  3
AIGNBL16030039
  0
POLYLINE
  8
LAYER_22
 40
0.1058
 41
0.1058
 66
1
 10
0
 20
0
 30
0
  0
VERTEX
  8
LAYER_22
 10
217.7418
 20
-198.0202
  0
VERTEX
  8
LAYER_22
 10
219.2011
 20
-198.0202
  0
SEQEND
  0
ENDBLK
  0
BLOCK
  8
LAYER_22
  2
AIGNBL1603003A
 70
64
 10
0
 20
0
 30
0
  3
AIGNBL1603003A
  0
POLYLINE
  8
LAYER_22
 40
0.1058
 41
0.1058
 66
1
 10
0
 20
0
 30
0
  0
VERTEX
  8
LAYER_22
 10
217.7418
 20
-199.2201
  0
VERTEX
  8
LAYER_22
 10
217.7418
 20
-198.0202
  0
SEQEND
  0
ENDBLK
  0
BLOCK
  8
LAYER_22
  2
AIGNBL1603003B
 70
64
 10
0
 20
0
 30
0
  3
AIGNBL1603003B
  0
POLYLINE
  8
LAYER_22
 40
0.1058
 41
0.1058
 66
1
 10
0
 20
0
 30
0
  0
VERTEX
  8
LAYER_22
 10
221.942
 20
-198.0202
  0
VERTEX
  8
LAYER_22
 10
221.942
 20
-199.2201
  0
SEQEND
  0
ENDBLK
  0
BLOCK
  8
LAYER_22
  2
AIGNBL1603003C
 70
64
 10
0
 20
0
 30
0
  3
AIGNBL1603003C
  0
POLYLINE
  8
LAYER_22
 40
0.1058
 41
0.1058
 66
1
 10
0
 20
0
 30
0
  0
VERTEX
  8
LAYER_22
 10
220.482
 20
-198.0202
  0
VERTEX
  8
LAYER_22
 10
221.942
 20
-198.0202
  0
SEQEND
  0
ENDBLK
  0
BLOCK
  8
LAYER_22
  2
AIGNBL1603003D
 70
64
 10
0
 20
0
 30
0
  3
AIGNBL1603003D
  0
POLYLINE
  8
LAYER_22
 40
0.1058
 41
0.1058
 66
1
 10
0
 20
0
 30
0
  0
VERTEX
  8
LAYER_22
 10
220.482
 20
-198.0202
  0
VERTEX
  8
LAYER_22
 10
220.482
 20
-199.2201
  0
SEQEND
  0
ENDBLK
  0
BLOCK
  8
LAYER_22
  2
AIGNBL1603003E
 70
64
 10
0
 20
0
 30
0
  3
AIGNBL1603003E
  0
POLYLINE
  8
LAYER_22
 40
0.1058
 41
0.1058
 66
1
 10
0
 20
0
 30
0
  0
VERTEX
  8
LAYER_22
 10
219.2011
 20
-198.0202
  0
VERTEX
  8
LAYER_22
 10
220.482
 20
-198.0202
  0
SEQEND
  0
ENDBLK
  0
BLOCK
  8
LAYER_22
  2
AIGNBL1603003F
 70
64
 10
0
 20
0
 30
0
  3
AIGNBL1603003F
  0
POLYLINE
  8
LAYER_22
 40
0.1058
 41
0.1058
 66
1
 10
0
 20
0
 30
0
  0
VERTEX
  8
LAYER_22
 10
221.942
 20
-199.2201
  0
VERTEX
  8
LAYER_22
 10
220.482
 20
-199.2201
  0
SEQEND
  0
ENDBLK
  0
BLOCK
  8
LAYER_22
  2
AIGNBL16030040
 70
64
 10
0
 20
0
 30
0
  3
AIGNBL16030040
  0
POLYLINE
  8
LAYER_22
 40
0.1058
 41
0.1058
 66
1
 10
0
 20
0
 30
0
  0
VERTEX
  8
LAYER_22
 10
220.482
 20
-199.2201
  0
VERTEX
  8
LAYER_22
 10
219.2011
 20
-199.2201
  0
SEQEND
  0
ENDBLK
  0
BLOCK
  8
LAYER_22
  2
AIGNBL16030041
 70
64
 10
0
 20
0
 30
0
  3
AIGNBL16030041
  0
POLYLINE
  8
LAYER_22
 40
0.1058
 41
0.1058
 66
1
 10
0
 20
0
 30
0
  0
VERTEX
  8
LAYER_22
 10
219.8419
 20
-198.62
  0
VERTEX
  8
LAYER_22
 10
220.482
 20
-198.0202
  0
SEQEND
  0
ENDBLK
  0
BLOCK
  8
LAYER_22
  2
AIGNBL16030042
 70
64
 10
0
 20
0
 30
0
  3
AIGNBL16030042
  0
POLYLINE
  8
LAYER_22
 40
0.1058
 41
0.1058
 66
1
 10
0
 20
0
 30
0
  0
VERTEX
  8
LAYER_22
 10
219.8419
 20
-198.62
  0
VERTEX
  8
LAYER_22
 10
220.482
 20
-199.2201
  0
SEQEND
  0
ENDBLK
  0
BLOCK
  8
LAYER_22
  2
AIGNBL16030044
 70
64
 10
0
 20
0
 30
0
  3
AIGNBL16030044
  0
POLYLINE
  8
LAYER_22
 40
0.1058
 41
0.1058
 66
1
 10
0
 20
0
 30
0
  0
VERTEX
  8
LAYER_22
 10
242.4465
 20
-202.4027
  0
VERTEX
  8
LAYER_22
 10
242.4465
 20
-205.5074
  0
SEQEND
  0
ENDBLK
  0
BLOCK
  8
LAYER_22
  2
AIGNBL16030045
 70
64
 10
0
 20
0
 30
0
  3
AIGNBL16030045
  0
POLYLINE
  8
LAYER_22
 40
0.1058
 41
0.1058
 66
1
 10
0
 20
0
 30
0
  0
VERTEX
  8
LAYER_22
 10
242.4465
 20
-202.3324
  0
VERTEX
  8
LAYER_22
 10
242.4465
 20
-202.4027
  0
SEQEND
  0
ENDBLK
  0
BLOCK
  8
LAYER_22
  2
AIGNBL16030046
 70
64
 10
0
 20
0
 30
0
  3
AIGNBL16030046
  0
POLYLINE
  8
LAYER_22
 40
0.1058
 41
0.1058
 66
1
 10
0
 20
0
 30
0
  0
VERTEX
  8
LAYER_22
 10
242.4465
 20
-205.5074
  0
VERTEX
  8
LAYER_22
 10
240.9472
 20
-205.5074
  0
SEQEND
  0
ENDBLK
  0
BLOCK
  8
LAYER_22
  2
AIGNBL16030047
 70
64
 10
0
 20
0
 30
0
  3
AIGNBL16030047
  0
POLYLINE
  8
LAYER_22
 40
0.1058
 41
0.1058
 66
1
 10
0
 20
0
 30
0
  0
VERTEX
  8
LAYER_22
 10
226.832
 20
-202.3324
  0
VERTEX
  8
LAYER_22
 10
239.4472
 20
-202.3324
  0
SEQEND
  0
ENDBLK
  0
BLOCK
  8
LAYER_22
  2
AIGNBL16030048
 70
64
 10
0
 20
0
 30
0
  3
AIGNBL16030048
  0
POLYLINE
  8
LAYER_22
 40
0.1058
 41
0.1058
 66
1
 10
0
 20
0
 30
0
  0
VERTEX
  8
LAYER_22
 10
239.4472
 20
-205.5074
  0
VERTEX
  8
LAYER_22
 10
226.832
 20
-205.5074
  0
SEQEND
  0
ENDBLK
  0
BLOCK
  8
LAYER_22
  2
AIGNBL16030049
 70
64
 10
0
 20
0
 30
0
  3
AIGNBL16030049
  0
POLYLINE
  8
LAYER_22
 40
0.1058
 41
0.1058
 66
1
 10
0
 20
0
 30
0
  0
VERTEX
  8
LAYER_22
 10
240.9472
 20
-202.3324
  0
VERTEX
  8
LAYER_22
 10
242.4465
 20
-202.3324
  0
SEQEND
  0
ENDBLK
  0
BLOCK
  8
LAYER_22
  2
AIGNBL1603004B
 70
64
 10
0
 20
0
 30
0
  3
AIGNBL1603004B
  0
POLYLINE
  8
LAYER_22
 40
0.1058
 41
0.1058
 66
1
 10
0
 20
0
 30
0
  0
VERTEX
  8
LAYER_22
 10
225.6317
 20
-201.9989
  0
VERTEX
  8
LAYER_22
 10
225.6317
 20
-201.8201
  0
SEQEND
  0
ENDBLK
  0
BLOCK
  8
LAYER_22
  2
AIGNBL1603004C
 70
64
 10
0
 20
0
 30
0
  3
AIGNBL1603004C
  0
POLYLINE
  8
LAYER_22
 40
0.1058
 41
0.1058
 66
1
 10
0
 20
0
 30
0
  0
VERTEX
  8
LAYER_22
 10
226.832
 20
-201.9989
  0
VERTEX
  8
LAYER_22
 10
226.832
 20
-203.2798
  0
SEQEND
  0
ENDBLK
  0
BLOCK
  8
LAYER_22
  2
AIGNBL1603004D
 70
64
 10
0
 20
0
 30
0
  3
AIGNBL1603004D
  0
POLYLINE
  8
LAYER_22
 40
0.1058
 41
0.1058
 66
1
 10
0
 20
0
 30
0
  0
VERTEX
  8
LAYER_22
 10
226.832
 20
-206.02
  0
VERTEX
  8
LAYER_22
 10
225.6317
 20
-206.02
  0
SEQEND
  0
ENDBLK
  0
BLOCK
  8
LAYER_22
  2
AIGNBL1603004E
 70
64
 10
0
 20
0
 30
0
  3
AIGNBL1603004E
  0
POLYLINE
  8
LAYER_22
 40
0.1058
 41
0.1058
 66
1
 10
0
 20
0
 30
0
  0
VERTEX
  8
LAYER_22
 10
226.832
 20
-204.5603
  0
VERTEX
  8
LAYER_22
 10
226.832
 20
-206.02
  0
SEQEND
  0
ENDBLK
  0
BLOCK
  8
LAYER_22
  2
AIGNBL1603004F
 70
64
 10
0
 20
0
 30
0
  3
AIGNBL1603004F
  0
POLYLINE
  8
LAYER_22
 40
0.1058
 41
0.1058
 66
1
 10
0
 20
0
 30
0
  0
VERTEX
  8
LAYER_22
 10
226.832
 20
-204.5603
  0
VERTEX
  8
LAYER_22
 10
225.6317
 20
-204.5603
  0
SEQEND
  0
ENDBLK
  0
BLOCK
  8
LAYER_22
  2
AIGNBL16030050
 70
64
 10
0
 20
0
 30
0
  3
AIGNBL16030050
  0
POLYLINE
  8
LAYER_22
 40
0.1058
 41
0.1058
 66
1
 10
0
 20
0
 30
0
  0
VERTEX
  8
LAYER_22
 10
225.6317
 20
-206.02
  0
VERTEX
  8
LAYER_22
 10
225.6317
 20
-204.5603
  0
SEQEND
  0
ENDBLK
  0
BLOCK
  8
LAYER_22
  2
AIGNBL16030051
 70
64
 10
0
 20
0
 30
0
  3
AIGNBL16030051
  0
POLYLINE
  8
LAYER_22
 40
0.1058
 41
0.1058
 66
1
 10
0
 20
0
 30
0
  0
VERTEX
  8
LAYER_22
 10
225.6317
 20
-203.2798
  0
VERTEX
  8
LAYER_22
 10
226.832
 20
-204.5603
  0
SEQEND
  0
ENDBLK
  0
BLOCK
  8
LAYER_22
  2
AIGNBL16030052
 70
64
 10
0
 20
0
 30
0
  3
AIGNBL16030052
  0
POLYLINE
  8
LAYER_22
 40
0.1058
 41
0.1058
 66
1
 10
0
 20
0
 30
0
  0
VERTEX
  8
LAYER_22
 10
226.832
 20
-203.2798
  0
VERTEX
  8
LAYER_22
 10
225.6317
 20
-204.5603
  0
SEQEND
  0
ENDBLK
  0
BLOCK
  8
LAYER_22
  2
AIGNBL16030053
 70
64
 10
0
 20
0
 30
0
  3
AIGNBL16030053
  0
POLYLINE
  8
LAYER_22
 40
0.1058
 41
0.1058
 66
1
 10
0
 20
0
 30
0
  0
VERTEX
  8
LAYER_22
 10
225.6317
 20
-204.5603
  0
VERTEX
  8
LAYER_22
 10
225.6317
 20
-203.2798
  0
SEQEND
  0
ENDBLK
  0
BLOCK
  8
LAYER_22
  2
AIGNBL16030054
 70
64
 10
0
 20
0
 30
0
  3
AIGNBL16030054
  0
POLYLINE
  8
LAYER_22
 40
0.1058
 41
0.1058
 66
1
 10
0
 20
0
 30
0
  0
VERTEX
  8
LAYER_22
 10
225.6317
 20
-203.2798
  0
VERTEX
  8
LAYER_22
 10
225.6317
 20
-201.9989
  0
SEQEND
  0
ENDBLK
  0
BLOCK
  8
LAYER_22
  2
AIGNBL16030055
 70
64
 10
0
 20
0
 30
0
  3
AIGNBL16030055
  0
POLYLINE
  8
LAYER_22
 40
0.1058
 41
0.1058
 66
1
 10
0
 20
0
 30
0
  0
VERTEX
  8
LAYER_22
 10
226.832
 20
-203.2798
  0
VERTEX
  8
LAYER_22
 10
226.832
 20
-204.5603
  0
SEQEND
  0
ENDBLK
  0
BLOCK
  8
LAYER_22
  2
AIGNBL16030056
 70
64
 10
0
 20
0
 30
0
  3
AIGNBL16030056
  0
POLYLINE
  8
LAYER_22
 40
0.1058
 41
0.1058
 66
1
 10
0
 20
0
 30
0
  0
VERTEX
  8
LAYER_22
 10
225.6317
 20
-203.2798
  0
VERTEX
  8
LAYER_22
 10
226.832
 20
-203.2798
  0
SEQEND
  0
ENDBLK
  0
BLOCK
  8
LAYER_22
  2
AIGNBL16030057
 70
64
 10
0
 20
0
 30
0
  3
AIGNBL16030057
  0
POLYLINE
  8
LAYER_22
 40
0.1058
 41
0.1058
 66
1
 10
0
 20
0
 30
0
  0
VERTEX
  8
LAYER_22
 10
226.832
 20
-201.8201
  0
VERTEX
  8
LAYER_22
 10
226.832
 20
-201.9989
  0
SEQEND
  0
ENDBLK
  0
BLOCK
  8
LAYER_22
  2
AIGNBL16030058
 70
64
 10
0
 20
0
 30
0
  3
AIGNBL16030058
  0
POLYLINE
  8
LAYER_22
 40
0.1058
 41
0.1058
 66
1
 10
0
 20
0
 30
0
  0
VERTEX
  8
LAYER_22
 10
225.6317
 20
-201.8201
  0
VERTEX
  8
LAYER_22
 10
226.832
 20
-201.8201
  0
SEQEND
  0
ENDBLK
  0
BLOCK
  8
LAYER_22
  2
AIGNBL1603005D
 70
64
 10
0
 20
0
 30
0
  3
AIGNBL1603005D
  0
POLYLINE
  8
LAYER_22
 40
0.1058
 41
0.1058
 66
1
 10
0
 20
0
 30
0
  0
VERTEX
  8
LAYER_22
 10
218.242
 20
-197.1218
  0
VERTEX
  8
LAYER_22
 10
218.242
 20
-198.0202
  0
SEQEND
  0
ENDBLK
  0
BLOCK
  8
LAYER_22
  2
AIGNBL1603005E
 70
64
 10
0
 20
0
 30
0
  3
AIGNBL1603005E
  0
POLYLINE
  8
LAYER_22
 40
0.1058
 41
0.1058
 66
1
 10
0
 20
0
 30
0
  0
VERTEX
  8
LAYER_22
 10
221.4418
 20
-198.0202
  0
VERTEX
  8
LAYER_22
 10
221.4418
 20
-197.1218
  0
SEQEND
  0
ENDBLK
  0
BLOCK
  8
LAYER_22
  2
AIGNBL16030060
 70
64
 10
0
 20
0
 30
0
  3
AIGNBL16030060
  0
POLYLINE
  8
LAYER_22
 40
0.1058
 41
0.1058
 66
1
 10
0
 20
0
 30
0
  0
VERTEX
  8
LAYER_22
 10
240.5469
 20
-200.3201
  0
VERTEX
  8
LAYER_22
 10
240.9472
 20
-200.3201
  0
SEQEND
  0
ENDBLK
  0
BLOCK
  8
LAYER_22
  2
AIGNBL16030061
 70
64
 10
0
 20
0
 30
0
  3
AIGNBL16030061
  0
POLYLINE
  8
LAYER_22
 40
0.1058
 41
0.1058
 66
1
 10
0
 20
0
 30
0
  0
VERTEX
  8
LAYER_22
 10
240.9472
 20
-200.3201
  0
VERTEX
  8
LAYER_22
 10
240.9472
 20
-207.52
  0
SEQEND
  0
ENDBLK
  0
BLOCK
  8
LAYER_22
  2
AIGNBL16030062
 70
64
 10
0
 20
0
 30
0
  3
AIGNBL16030062
  0
POLYLINE
  8
LAYER_22
 40
0.1058
 41
0.1058
 66
1
 10
0
 20
0
 30
0
  0
VERTEX
  8
LAYER_22
 10
239.4472
 20
-206.2212
  0
VERTEX
  8
LAYER_22
 10
239.4472
 20
-201.6189
  0
SEQEND
  0
ENDBLK
  0
BLOCK
  8
LAYER_22
  2
AIGNBL16030063
 70
64
 10
0
 20
0
 30
0
  3
AIGNBL16030063
  0
POLYLINE
  8
LAYER_22
 40
0.1058
 41
0.1058
 66
1
 10
0
 20
0
 30
0
  0
VERTEX
  8
LAYER_22
 10
240.9472
 20
-207.52
  0
VERTEX
  8
LAYER_22
 10
240.5469
 20
-207.52
  0
SEQEND
  0
ENDBLK
  0
BLOCK
  8
LAYER_22
  2
AIGNBL16030064
 70
64
 10
0
 20
0
 30
0
  3
AIGNBL16030064
  0
POLYLINE
  8
LAYER_22
 40
0.1058
 41
0.1058
 66
1
 10
0
 20
0
 30
0
  0
VERTEX
  8
LAYER_22
 10
239.7456
 20
-207.1183
 42
0.2371039985
  0
VERTEX
  8
LAYER_22
 10
240.5469
 20
-207.52
  0
SEQEND
  0
ENDBLK
  0
BLOCK
  8
LAYER_22
  2
AIGNBL16030065
 70
64
 10
0
 20
0
 30
0
  3
AIGNBL16030065
  0
POLYLINE
  8
LAYER_22
 40
0.1058
 41
0.1058
 66
1
 10
0
 20
0
 30
0
  0
VERTEX
  8
LAYER_22
 10
239.4472
 20
-206.2212
 42
0.1618288808
  0
VERTEX
  8
LAYER_22
 10
239.7456
 20
-207.1183
  0
SEQEND
  0
ENDBLK
  0
BLOCK
  8
LAYER_22
  2
AIGNBL16030066
 70
64
 10
0
 20
0
 30
0
  3
AIGNBL16030066
  0
POLYLINE
  8
LAYER_22
 40
0.1058
 41
0.1058
 66
1
 10
0
 20
0
 30
0
  0
VERTEX
  8
LAYER_22
 10
240.5469
 20
-200.3201
 42
0.2370983416
  0
VERTEX
  8
LAYER_22
 10
239.7456
 20
-200.7218
  0
SEQEND
  0
ENDBLK
  0
BLOCK
  8
LAYER_22
  2
AIGNBL16030067
 70
64
 10
0
 20
0
 30
0
  3
AIGNBL16030067
  0
POLYLINE
  8
LAYER_22
 40
0.1058
 41
0.1058
 66
1
 10
0
 20
0
 30
0
  0
VERTEX
  8
LAYER_22
 10
239.7456
 20
-200.7218
 42
0.1618507641
  0
VERTEX
  8
LAYER_22
 10
239.4472
 20
-201.6189
  0
SEQEND
  0
ENDBLK
  0
BLOCK
  8
LAYER_22
  2
AIGNBL1603006A
 70
64
 10
0
 20
0
 30
0
  3
AIGNBL1603006A
  0
POLYLINE
  8
LAYER_22
 40
0.1058
 41
0.1058
 66
1
 10
0
 20
0
 30
0
  0
VERTEX
  8
LAYER_22
 10
133.7067
 20
-195.9093
  0
VERTEX
  8
LAYER_22
 10
133.859
 20
-195.9093
  0
SEQEND
  0
ENDBLK
  0
BLOCK
  8
LAYER_22
  2
AIGNBL1603006B
 70
64
 10
0
 20
0
 30
0
  3
AIGNBL1603006B
  0
POLYLINE
  8
LAYER_22
 40
0.1058
 41
0.1058
 66
1
 10
0
 20
0
 30
0
  0
VERTEX
  8
LAYER_22
 10
129.359
 20
-196.8591
  0
VERTEX
  8
LAYER_22
 10
129.359
 20
-195.9093
  0
SEQEND
  0
ENDBLK
  0
BLOCK
  8
LAYER_22
  2
AIGNBL1603006C
 70
64
 10
0
 20
0
 30
0
  3
AIGNBL1603006C
  0
POLYLINE
  8
LAYER_22
 40
0.1058
 41
0.1058
 66
1
 10
0
 20
0
 30
0
  0
VERTEX
  8
LAYER_22
 10
131.6086
 20
-196.5091
  0
VERTEX
  8
LAYER_22
 10
132.2494
 20
-197.1092
  0
SEQEND
  0
ENDBLK
  0
BLOCK
  8
LAYER_22
  2
AIGNBL1603006D
 70
64
 10
0
 20
0
 30
0
  3
AIGNBL1603006D
  0
POLYLINE
  8
LAYER_22
 40
0.1058
 41
0.1058
 66
1
 10
0
 20
0
 30
0
  0
VERTEX
  8
LAYER_22
 10
131.6086
 20
-196.5091
  0
VERTEX
  8
LAYER_22
 10
132.2494
 20
-195.9093
  0
SEQEND
  0
ENDBLK
  0
BLOCK
  8
LAYER_22
  2
AIGNBL1603006E
 70
64
 10
0
 20
0
 30
0
  3
AIGNBL1603006E
  0
POLYLINE
  8
LAYER_22
 40
0.1058
 41
0.1058
 66
1
 10
0
 20
0
 30
0
  0
VERTEX
  8
LAYER_22
 10
132.2494
 20
-197.1092
  0
VERTEX
  8
LAYER_22
 10
130.9686
 20
-197.1092
  0
SEQEND
  0
ENDBLK
  0
BLOCK
  8
LAYER_22
  2
AIGNBL1603006F
 70
64
 10
0
 20
0
 30
0
  3
AIGNBL1603006F
  0
POLYLINE
  8
LAYER_22
 40
0.1058
 41
0.1058
 66
1
 10
0
 20
0
 30
0
  0
VERTEX
  8
LAYER_22
 10
133.859
 20
-197.1092
  0
VERTEX
  8
LAYER_22
 10
132.2494
 20
-197.1092
  0
SEQEND
  0
ENDBLK
  0
BLOCK
  8
LAYER_22
  2
AIGNBL16030070
 70
64
 10
0
 20
0
 30
0
  3
AIGNBL16030070
  0
POLYLINE
  8
LAYER_22
 40
0.1058
 41
0.1058
 66
1
 10
0
 20
0
 30
0
  0
VERTEX
  8
LAYER_22
 10
130.9686
 20
-195.9093
  0
VERTEX
  8
LAYER_22
 10
132.2494
 20
-195.9093
  0
SEQEND
  0
ENDBLK
  0
BLOCK
  8
LAYER_22
  2
AIGNBL16030071
 70
64
 10
0
 20
0
 30
0
  3
AIGNBL16030071
  0
POLYLINE
  8
LAYER_22
 40
0.1058
 41
0.1058
 66
1
 10
0
 20
0
 30
0
  0
VERTEX
  8
LAYER_22
 10
132.2494
 20
-195.9093
  0
VERTEX
  8
LAYER_22
 10
132.2494
 20
-197.1092
  0
SEQEND
  0
ENDBLK
  0
BLOCK
  8
LAYER_22
  2
AIGNBL16030072
 70
64
 10
0
 20
0
 30
0
  3
AIGNBL16030072
  0
POLYLINE
  8
LAYER_22
 40
0.1058
 41
0.1058
 66
1
 10
0
 20
0
 30
0
  0
VERTEX
  8
LAYER_22
 10
132.2494
 20
-195.9093
  0
VERTEX
  8
LAYER_22
 10
133.7067
 20
-195.9093
  0
SEQEND
  0
ENDBLK
  0
BLOCK
  8
LAYER_22
  2
AIGNBL16030073
 70
64
 10
0
 20
0
 30
0
  3
AIGNBL16030073
  0
POLYLINE
  8
LAYER_22
 40
0.1058
 41
0.1058
 66
1
 10
0
 20
0
 30
0
  0
VERTEX
  8
LAYER_22
 10
133.859
 20
-195.9093
  0
VERTEX
  8
LAYER_22
 10
133.859
 20
-197.1092
  0
SEQEND
  0
ENDBLK
  0
BLOCK
  8
LAYER_22
  2
AIGNBL16030074
 70
64
 10
0
 20
0
 30
0
  3
AIGNBL16030074
  0
POLYLINE
  8
LAYER_22
 40
0.1058
 41
0.1058
 66
1
 10
0
 20
0
 30
0
  0
VERTEX
  8
LAYER_22
 10
129.359
 20
-197.1092
  0
VERTEX
  8
LAYER_22
 10
129.359
 20
-196.8591
  0
SEQEND
  0
ENDBLK
  0
BLOCK
  8
LAYER_22
  2
AIGNBL16030075
 70
64
 10
0
 20
0
 30
0
  3
AIGNBL16030075
  0
POLYLINE
  8
LAYER_22
 40
0.1058
 41
0.1058
 66
1
 10
0
 20
0
 30
0
  0
VERTEX
  8
LAYER_22
 10
129.359
 20
-195.9093
  0
VERTEX
  8
LAYER_22
 10
130.9686
 20
-195.9093
  0
SEQEND
  0
ENDBLK
  0
BLOCK
  8
LAYER_22
  2
AIGNBL16030076
 70
64
 10
0
 20
0
 30
0
  3
AIGNBL16030076
  0
POLYLINE
  8
LAYER_22
 40
0.1058
 41
0.1058
 66
1
 10
0
 20
0
 30
0
  0
VERTEX
  8
LAYER_22
 10
130.9686
 20
-197.1092
  0
VERTEX
  8
LAYER_22
 10
130.9686
 20
-195.9093
  0
SEQEND
  0
ENDBLK
  0
BLOCK
  8
LAYER_22
  2
AIGNBL16030077
 70
64
 10
0
 20
0
 30
0
  3
AIGNBL16030077
  0
POLYLINE
  8
LAYER_22
 40
0.1058
 41
0.1058
 66
1
 10
0
 20
0
 30
0
  0
VERTEX
  8
LAYER_22
 10
130.9686
 20
-197.1092
  0
VERTEX
  8
LAYER_22
 10
129.359
 20
-197.1092
  0
SEQEND
  0
ENDBLK
  0
BLOCK
  8
LAYER_22
  2
AIGNBL16030078
 70
64
 10
0
 20
0
 30
0
  3
AIGNBL16030078
  0
POLYLINE
  8
LAYER_22
 40
0.1058
 41
0.1058
 66
1
 10
0
 20
0
 30
0
  0
VERTEX
  8
LAYER_22
 10
130.9686
 20
-195.9093
  0
VERTEX
  8
LAYER_22
 10
131.6086
 20
-196.5091
  0
SEQEND
  0
ENDBLK
  0
BLOCK
  8
LAYER_22
  2
AIGNBL16030079
 70
64
 10
0
 20
0
 30
0
  3
AIGNBL16030079
  0
POLYLINE
  8
LAYER_22
 40
0.1058
 41
0.1058
 66
1
 10
0
 20
0
 30
0
  0
VERTEX
  8
LAYER_22
 10
130.9686
 20
-197.1092
  0
VERTEX
  8
LAYER_22
 10
131.6086
 20
-196.5091
  0
SEQEND
  0
ENDBLK
  0
BLOCK
  8
LAYER_22
  2
AIGNBL1603007B
 70
64
 10
0
 20
0
 30
0
  3
AIGNBL1603007B
  0
INSERT
  8
LAYER_22
  2
AIGNBL1604007C
 10
0
 20
0
 30
0
  0
INSERT
  8
LAYER_22
  2
AIGNBL1604007D
 10
0
 20
0
 30
0
  0
INSERT
  8
LAYER_22
  2
AIGNBL1604007E
 10
0
 20
0
 30
0
  0
INSERT
  8
LAYER_22
  2
AIGNBL1604007F
 10
0
 20
0
 30
0
  0
INSERT
  8
LAYER_22
  2
AIGNBL16040080
 10
0
 20
0
 30
0
  0
INSERT
  8
LAYER_22
  2
AIGNBL16040081
 10
0
 20
0
 30
0
  0
INSERT
  8
LAYER_22
  2
AIGNBL16040082
 10
0
 20
0
 30
0
  0
INSERT
  8
LAYER_22
  2
AIGNBL16040083
 10
0
 20
0
 30
0
  0
INSERT
  8
LAYER_22
  2
AIGNBL16040084
 10
0
 20
0
 30
0
  0
INSERT
  8
LAYER_22
  2
AIGNBL16040085
 10
0
 20
0
 30
0
  0
ENDBLK
  0
BLOCK
  8
LAYER_22
  2
AIGNBL16030086
 70
64
 10
0
 20
0
 30
0
  3
AIGNBL16030086
  0
POLYLINE
  8
LAYER_22
 40
0.1058
 41
0.1058
 66
1
 10
0
 20
0
 30
0
  0
VERTEX
  8
LAYER_22
 10
129.0689
 20
-199.3855
  0
VERTEX
  8
LAYER_22
 10
129.709
 20
-199.3855
  0
SEQEND
  0
ENDBLK
  0
BLOCK
  8
LAYER_22
  2
AIGNBL16030087
 70
64
 10
0
 20
0
 30
0
  3
AIGNBL16030087
  0
POLYLINE
  8
LAYER_22
 40
0.1058
 41
0.1058
 66
1
 10
0
 20
0
 30
0
  0
VERTEX
  8
LAYER_22
 10
133.509
 20
-199.3855
  0
VERTEX
  8
LAYER_22
 10
134.1497
 20
-199.3855
  0
SEQEND
  0
ENDBLK
  0
BLOCK
  8
LAYER_22
  2
AIGNBL16030088
 70
64
 10
0
 20
0
 30
0
  3
AIGNBL16030088
  0
POLYLINE
  8
LAYER_22
 40
0.1058
 41
0.1058
 66
1
 10
0
 20
0
 30
0
  0
VERTEX
  8
LAYER_22
 10
134.1491
 20
-203.8851
  0
VERTEX
  8
LAYER_22
 10
134.1491
 20
-212.935
  0
SEQEND
  0
ENDBLK
  0
BLOCK
  8
LAYER_22
  2
AIGNBL16030089
 70
64
 10
0
 20
0
 30
0
  3
AIGNBL16030089
  0
POLYLINE
  8
LAYER_22
 40
0.1058
 41
0.1058
 66
1
 10
0
 20
0
 30
0
  0
VERTEX
  8
LAYER_22
 10
134.1491
 20
-199.3855
  0
VERTEX
  8
LAYER_22
 10
134.1491
 20
-203.8851
  0
SEQEND
  0
ENDBLK
  0
BLOCK
  8
LAYER_22
  2
AIGNBL1603008A
 70
64
 10
0
 20
0
 30
0
  3
AIGNBL1603008A
  0
POLYLINE
  8
LAYER_22
 40
0.1058
 41
0.1058
 66
1
 10
0
 20
0
 30
0
  0
VERTEX
  8
LAYER_22
 10
129.0689
 20
-212.935
  0
VERTEX
  8
LAYER_22
 10
129.0689
 20
-199.3855
  0
SEQEND
  0
ENDBLK
  0
BLOCK
  8
LAYER_22
  2
AIGNBL1603008B
 70
64
 10
0
 20
0
 30
0
  3
AIGNBL1603008B
  0
POLYLINE
  8
LAYER_22
 40
0.1058
 41
0.1058
 66
1
 10
0
 20
0
 30
0
  0
VERTEX
  8
LAYER_22
 10
129.0689
 20
-212.935
  0
VERTEX
  8
LAYER_22
 10
134.1491
 20
-212.935
  0
SEQEND
  0
ENDBLK
  0
BLOCK
  8
LAYER_22
  2
AIGNBL1603008D
 70
64
 10
0
 20
0
 30
0
  3
AIGNBL1603008D
  0
POLYLINE
  8
LAYER_22
 40
0.1058
 41
0.1058
 66
1
 10
0
 20
0
 30
0
  0
VERTEX
  8
LAYER_22
 10
130.9686
 20
-199.1853
  0
VERTEX
  8
LAYER_22
 10
131.6086
 20
-198.5851
  0
SEQEND
  0
ENDBLK
  0
BLOCK
  8
LAYER_22
  2
AIGNBL1603008E
 70
64
 10
0
 20
0
 30
0
  3
AIGNBL1603008E
  0
POLYLINE
  8
LAYER_22
 40
0.1058
 41
0.1058
 66
1
 10
0
 20
0
 30
0
  0
VERTEX
  8
LAYER_22
 10
130.9686
 20
-197.9854
  0
VERTEX
  8
LAYER_22
 10
131.6086
 20
-198.5851
  0
SEQEND
  0
ENDBLK
  0
BLOCK
  8
LAYER_22
  2
AIGNBL1603008F
 70
64
 10
0
 20
0
 30
0
  3
AIGNBL1603008F
  0
POLYLINE
  8
LAYER_22
 40
0.1058
 41
0.1058
 66
1
 10
0
 20
0
 30
0
  0
VERTEX
  8
LAYER_22
 10
130.9686
 20
-199.1853
  0
VERTEX
  8
LAYER_22
 10
129.5092
 20
-199.1853
  0
SEQEND
  0
ENDBLK
  0
BLOCK
  8
LAYER_22
  2
AIGNBL16030090
 70
64
 10
0
 20
0
 30
0
  3
AIGNBL16030090
  0
POLYLINE
  8
LAYER_22
 40
0.1058
 41
0.1058
 66
1
 10
0
 20
0
 30
0
  0
VERTEX
  8
LAYER_22
 10
130.9686
 20
-199.1853
  0
VERTEX
  8
LAYER_22
 10
130.9686
 20
-197.9854
  0
SEQEND
  0
ENDBLK
  0
BLOCK
  8
LAYER_22
  2
AIGNBL16030091
 70
64
 10
0
 20
0
 30
0
  3
AIGNBL16030091
  0
POLYLINE
  8
LAYER_22
 40
0.1058
 41
0.1058
 66
1
 10
0
 20
0
 30
0
  0
VERTEX
  8
LAYER_22
 10
129.5092
 20
-197.9854
  0
VERTEX
  8
LAYER_22
 10
130.9686
 20
-197.9854
  0
SEQEND
  0
ENDBLK
  0
BLOCK
  8
LAYER_22
  2
AIGNBL16030092
 70
64
 10
0
 20
0
 30
0
  3
AIGNBL16030092
  0
POLYLINE
  8
LAYER_22
 40
0.1058
 41
0.1058
 66
1
 10
0
 20
0
 30
0
  0
VERTEX
  8
LAYER_22
 10
129.5092
 20
-199.1853
  0
VERTEX
  8
LAYER_22
 10
129.5092
 20
-197.9854
  0
SEQEND
  0
ENDBLK
  0
BLOCK
  8
LAYER_22
  2
AIGNBL16030093
 70
64
 10
0
 20
0
 30
0
  3
AIGNBL16030093
  0
POLYLINE
  8
LAYER_22
 40
0.1058
 41
0.1058
 66
1
 10
0
 20
0
 30
0
  0
VERTEX
  8
LAYER_22
 10
133.7088
 20
-197.9854
  0
VERTEX
  8
LAYER_22
 10
133.7088
 20
-199.1853
  0
SEQEND
  0
ENDBLK
  0
BLOCK
  8
LAYER_22
  2
AIGNBL16030094
 70
64
 10
0
 20
0
 30
0
  3
AIGNBL16030094
  0
POLYLINE
  8
LAYER_22
 40
0.1058
 41
0.1058
 66
1
 10
0
 20
0
 30
0
  0
VERTEX
  8
LAYER_22
 10
132.2494
 20
-197.9854
  0
VERTEX
  8
LAYER_22
 10
133.7088
 20
-197.9854
  0
SEQEND
  0
ENDBLK
  0
BLOCK
  8
LAYER_22
  2
AIGNBL16030095
 70
64
 10
0
 20
0
 30
0
  3
AIGNBL16030095
  0
POLYLINE
  8
LAYER_22
 40
0.1058
 41
0.1058
 66
1
 10
0
 20
0
 30
0
  0
VERTEX
  8
LAYER_22
 10
132.2494
 20
-197.9854
  0
VERTEX
  8
LAYER_22
 10
132.2494
 20
-199.1853
  0
SEQEND
  0
ENDBLK
  0
BLOCK
  8
LAYER_22
  2
AIGNBL16030096
 70
64
 10
0
 20
0
 30
0
  3
AIGNBL16030096
  0
POLYLINE
  8
LAYER_22
 40
0.1058
 41
0.1058
 66
1
 10
0
 20
0
 30
0
  0
VERTEX
  8
LAYER_22
 10
130.9686
 20
-197.9854
  0
VERTEX
  8
LAYER_22
 10
132.2494
 20
-197.9854
  0
SEQEND
  0
ENDBLK
  0
BLOCK
  8
LAYER_22
  2
AIGNBL16030097
 70
64
 10
0
 20
0
 30
0
  3
AIGNBL16030097
  0
POLYLINE
  8
LAYER_22
 40
0.1058
 41
0.1058
 66
1
 10
0
 20
0
 30
0
  0
VERTEX
  8
LAYER_22
 10
133.7088
 20
-199.1853
  0
VERTEX
  8
LAYER_22
 10
132.2494
 20
-199.1853
  0
SEQEND
  0
ENDBLK
  0
BLOCK
  8
LAYER_22
  2
AIGNBL16030098
 70
64
 10
0
 20
0
 30
0
  3
AIGNBL16030098
  0
POLYLINE
  8
LAYER_22
 40
0.1058
 41
0.1058
 66
1
 10
0
 20
0
 30
0
  0
VERTEX
  8
LAYER_22
 10
132.2494
 20
-199.1853
  0
VERTEX
  8
LAYER_22
 10
130.9686
 20
-199.1853
  0
SEQEND
  0
ENDBLK
  0
BLOCK
  8
LAYER_22
  2
AIGNBL16030099
 70
64
 10
0
 20
0
 30
0
  3
AIGNBL16030099
  0
POLYLINE
  8
LAYER_22
 40
0.1058
 41
0.1058
 66
1
 10
0
 20
0
 30
0
  0
VERTEX
  8
LAYER_22
 10
131.6086
 20
-198.5851
  0
VERTEX
  8
LAYER_22
 10
132.2494
 20
-197.9854
  0
SEQEND
  0
ENDBLK
  0
BLOCK
  8
LAYER_22
  2
AIGNBL1603009A
 70
64
 10
0
 20
0
 30
0
  3
AIGNBL1603009A
  0
POLYLINE
  8
LAYER_22
 40
0.1058
 41
0.1058
 66
1
 10
0
 20
0
 30
0
  0
VERTEX
  8
LAYER_22
 10
131.6086
 20
-198.5851
  0
VERTEX
  8
LAYER_22
 10
132.2494
 20
-199.1853
  0
SEQEND
  0
ENDBLK
  0
BLOCK
  8
LAYER_22
  2
AIGNBL1603009D
 70
64
 10
0
 20
0
 30
0
  3
AIGNBL1603009D
  0
INSERT
  8
LAYER_22
  2
AIGNBL1604009E
 10
0
 20
0
 30
0
  0
ENDBLK
  0
BLOCK
  8
LAYER_22
  2
AIGNBL160300A1
 70
64
 10
0
 20
0
 30
0
  3
AIGNBL160300A1
  0
POLYLINE
  8
LAYER_22
 40
0.1058
 41
0.1058
 66
1
 10
0
 20
0
 30
0
  0
VERTEX
  8
LAYER_22
 10
130.0088
 20
-197.1092
  0
VERTEX
  8
LAYER_22
 10
130.0088
 20
-197.9854
  0
SEQEND
  0
ENDBLK
  0
BLOCK
  8
LAYER_22
  2
AIGNBL160300A2
 70
64
 10
0
 20
0
 30
0
  3
AIGNBL160300A2
  0
POLYLINE
  8
LAYER_22
 40
0.1058
 41
0.1058
 66
1
 10
0
 20
0
 30
0
  0
VERTEX
  8
LAYER_22
 10
133.2092
 20
-197.9854
  0
VERTEX
  8
LAYER_22
 10
133.2092
 20
-197.1092
  0
SEQEND
  0
ENDBLK
  0
BLOCK
  8
LAYER_33
  2
AIGNBL21030004
 70
64
 10
0
 20
0
 30
0
  3
AIGNBL21030004
  0
POLYLINE
  8
LAYER_33
 40
0.0882
 41
0.0882
 66
1
 10
0
 20
0
 30
0
  0
VERTEX
  8
LAYER_33
 10
121.5893
 20
-202.3202
  0
VERTEX
  8
LAYER_33
 10
121.6086
 20
-202.3202
  0
SEQEND
  0
ENDBLK
  0
BLOCK
  8
LAYER_33
  2
AIGNBL21030005
 70
64
 10
0
 20
0
 30
0
  3
AIGNBL21030005
  0
POLYLINE
  8
LAYER_33
 40
0.0882
 41
0.0882
 66
1
 10
0
 20
0
 30
0
  0
VERTEX
  8
LAYER_33
 10
120.5806
 20
-202.3202
  0
VERTEX
  8
LAYER_33
 10
121.5893
 20
-202.3202
  0
SEQEND
  0
ENDBLK
  0
BLOCK
  8
LAYER_33
  2
AIGNBL21030006
 70
64
 10
0
 20
0
 30
0
  3
AIGNBL21030006
  0
POLYLINE
  8
LAYER_33
 40
0.0882
 41
0.0882
 66
1
 10
0
 20
0
 30
0
  0
VERTEX
  8
LAYER_33
 10
121.6279
 20
-202.3202
  0
VERTEX
  8
LAYER_33
 10
122.6366
 20
-202.3202
  0
SEQEND
  0
ENDBLK
  0
BLOCK
  8
LAYER_33
  2
AIGNBL21030007
 70
64
 10
0
 20
0
 30
0
  3
AIGNBL21030007
  0
POLYLINE
  8
LAYER_33
 40
0.0882
 41
0.0882
 66
1
 10
0
 20
0
 30
0
  0
VERTEX
  8
LAYER_33
 10
122.9336
 20
-202.2196
  0
VERTEX
  8
LAYER_33
 10
122.8784
 20
-202.261
  0
SEQEND
  0
ENDBLK
  0
BLOCK
  8
LAYER_33
  2
AIGNBL21030008
 70
64
 10
0
 20
0
 30
0
  3
AIGNBL21030008
  0
POLYLINE
  8
LAYER_33
 40
0.0882
 41
0.0882
 66
1
 10
0
 20
0
 30
0
  0
VERTEX
  8
LAYER_33
 10
122.6552
 20
-202.3202
  0
VERTEX
  8
LAYER_33
 10
122.6462
 20
-202.3202
  0
SEQEND
  0
ENDBLK
  0
BLOCK
  8
LAYER_33
  2
AIGNBL21030009
 70
64
 10
0
 20
0
 30
0
  3
AIGNBL21030009
  0
POLYLINE
  8
LAYER_33
 40
0.0882
 41
0.0882
 66
1
 10
0
 20
0
 30
0
  0
VERTEX
  8
LAYER_33
 10
120.5806
 20
-202.3202
  0
VERTEX
  8
LAYER_33
 10
120.5716
 20
-202.3202
  0
SEQEND
  0
ENDBLK
  0
BLOCK
  8
LAYER_33
  2
AIGNBL2103000A
 70
64
 10
0
 20
0
 30
0
  3
AIGNBL2103000A
  0
POLYLINE
  8
LAYER_33
 40
0.0882
 41
0.0882
 66
1
 10
0
 20
0
 30
0
  0
VERTEX
  8
LAYER_33
 10
122.6462
 20
-202.3202
  0
VERTEX
  8
LAYER_33
 10
122.6366
 20
-202.3202
  0
SEQEND
  0
ENDBLK
  0
BLOCK
  8
LAYER_33
  2
AIGNBL2103000C
 70
64
 10
0
 20
0
 30
0
  3
AIGNBL2103000C
  0
POLYLINE
  8
LAYER_33
 40
0.0882
 41
0.0882
 66
1
 10
0
 20
0
 30
0
  0
VERTEX
  8
LAYER_33
 10
121.9386
 20
-201.7704
  0
VERTEX
  8
LAYER_33
 10
121.2785
 20
-201.7704
  0
SEQEND
  0
ENDBLK
  0
BLOCK
  8
LAYER_33
  2
AIGNBL2103000D
 70
64
 10
0
 20
0
 30
0
  3
AIGNBL2103000D
  0
POLYLINE
  8
LAYER_33
 40
0.0882
 41
0.0882
 66
1
 10
0
 20
0
 30
0
  0
VERTEX
  8
LAYER_33
 10
121.909
 20
-201.5699
  0
VERTEX
  8
LAYER_33
 10
121.3088
 20
-201.5699
  0
SEQEND
  0
ENDBLK
  0
BLOCK
  8
LAYER_33
  2
AIGNBL2103000E
 70
64
 10
0
 20
0
 30
0
  3
AIGNBL2103000E
  0
POLYLINE
  8
LAYER_33
 40
0.0882
 41
0.0882
 66
1
 10
0
 20
0
 30
0
  0
VERTEX
  8
LAYER_33
 10
121.9586
 20
-201.7504
  0
VERTEX
  8
LAYER_33
 10
121.9586
 20
-201.6202
  0
SEQEND
  0
ENDBLK
  0
BLOCK
  8
LAYER_33
  2
AIGNBL2103000F
 70
64
 10
0
 20
0
 30
0
  3
AIGNBL2103000F
  0
POLYLINE
  8
LAYER_33
 40
0.0882
 41
0.0882
 66
1
 10
0
 20
0
 30
0
  0
VERTEX
  8
LAYER_33
 10
121.2585
 20
-201.7504
  0
VERTEX
  8
LAYER_33
 10
121.2585
 20
-201.6202
  0
SEQEND
  0
ENDBLK
  0
BLOCK
  8
LAYER_33
  2
AIGNBL21030010
 70
64
 10
0
 20
0
 30
0
  3
AIGNBL21030010
  0
POLYLINE
  8
LAYER_33
 40
0.0882
 41
0.0882
 66
1
 10
0
 20
0
 30
0
  0
VERTEX
  8
LAYER_33
 10
121.9586
 20
-201.7504
  0
VERTEX
  8
LAYER_33
 10
121.9386
 20
-201.7704
  0
SEQEND
  0
ENDBLK
  0
BLOCK
  8
LAYER_33
  2
AIGNBL21030011
 70
64
 10
0
 20
0
 30
0
  3
AIGNBL21030011
  0
POLYLINE
  8
LAYER_33
 40
0.0882
 41
0.0882
 66
1
 10
0
 20
0
 30
0
  0
VERTEX
  8
LAYER_33
 10
121.2585
 20
-201.7504
  0
VERTEX
  8
LAYER_33
 10
121.2785
 20
-201.7704
  0
SEQEND
  0
ENDBLK
  0
BLOCK
  8
LAYER_33
  2
AIGNBL21030012
 70
64
 10
0
 20
0
 30
0
  3
AIGNBL21030012
  0
POLYLINE
  8
LAYER_33
 40
0.0882
 41
0.0882
 66
1
 10
0
 20
0
 30
0
  0
VERTEX
  8
LAYER_33
 10
121.6086
 20
-202.4298
  0
VERTEX
  8
LAYER_33
 10
121.6086
 20
-201.1702
  0
SEQEND
  0
ENDBLK
  0
BLOCK
  8
LAYER_33
  2
AIGNBL21030013
 70
64
 10
0
 20
0
 30
0
  3
AIGNBL21030013
  0
POLYLINE
  8
LAYER_33
 40
0.0882
 41
0.0882
 66
1
 10
0
 20
0
 30
0
  0
VERTEX
  8
LAYER_33
 10
121.2585
 20
-201.6202
 42
-0.3898748544
  0
VERTEX
  8
LAYER_33
 10
121.3088
 20
-201.5699
  0
SEQEND
  0
ENDBLK
  0
BLOCK
  8
LAYER_33
  2
AIGNBL21030014
 70
64
 10
0
 20
0
 30
0
  3
AIGNBL21030014
  0
POLYLINE
  8
LAYER_33
 40
0.0882
 41
0.0882
 66
1
 10
0
 20
0
 30
0
  0
VERTEX
  8
LAYER_33
 10
121.909
 20
-201.5699
 42
-0.3916199382
  0
VERTEX
  8
LAYER_33
 10
121.9586
 20
-201.6202
  0
SEQEND
  0
ENDBLK
  0
BLOCK
  8
LAYER_33
  2
AIGNBL21030015
 70
64
 10
0
 20
0
 30
0
  3
AIGNBL21030015
  0
POLYLINE
  8
LAYER_33
 40
0.0882
 41
0.0882
 66
1
 10
0
 20
0
 30
0
 70
1
  0
VERTEX
  8
LAYER_33
 10
120.1589
 20
-204.9199
 42
-0.4142244186
  0
VERTEX
  8
LAYER_33
 10
121.6086
 20
-203.4702
 42
-0.4142079806
  0
VERTEX
  8
LAYER_33
 10
123.059
 20
-204.9199
 42
-0.414202712
  0
VERTEX
  8
LAYER_33
 10
121.6086
 20
-206.3703
 42
-0.4142191386
  0
SEQEND
  0
ENDBLK
  0
BLOCK
  8
LAYER_33
  2
AIGNBL21030016
 70
64
 10
0
 20
0
 30
0
  3
AIGNBL21030016
  0
POLYLINE
  8
LAYER_33
 40
0.0882
 41
0.0882
 66
1
 10
0
 20
0
 30
0
  0
VERTEX
  8
LAYER_33
 10
121.2585
 20
-202.62
  0
VERTEX
  8
LAYER_33
 10
120.1589
 20
-202.62
  0
SEQEND
  0
ENDBLK
  0
BLOCK
  8
LAYER_33
  2
AIGNBL21030017
 70
64
 10
0
 20
0
 30
0
  3
AIGNBL21030017
  0
POLYLINE
  8
LAYER_33
 40
0.0882
 41
0.0882
 66
1
 10
0
 20
0
 30
0
  0
VERTEX
  8
LAYER_33
 10
120.5585
 20
-202.5214
  0
VERTEX
  8
LAYER_33
 10
120.5585
 20
-202.62
  0
SEQEND
  0
ENDBLK
  0
BLOCK
  8
LAYER_33
  2
AIGNBL21030018
 70
64
 10
0
 20
0
 30
0
  3
AIGNBL21030018
  0
POLYLINE
  8
LAYER_33
 40
0.0882
 41
0.0882
 66
1
 10
0
 20
0
 30
0
  0
VERTEX
  8
LAYER_33
 10
120.5585
 20
-202.3202
  0
VERTEX
  8
LAYER_33
 10
120.5585
 20
-202.5214
  0
SEQEND
  0
ENDBLK
  0
BLOCK
  8
LAYER_33
  2
AIGNBL21030019
 70
64
 10
0
 20
0
 30
0
  3
AIGNBL21030019
  0
POLYLINE
  8
LAYER_33
 40
0.0882
 41
0.0882
 66
1
 10
0
 20
0
 30
0
  0
VERTEX
  8
LAYER_33
 10
122.6586
 20
-202.5214
  0
VERTEX
  8
LAYER_33
 10
122.6586
 20
-202.62
  0
SEQEND
  0
ENDBLK
  0
BLOCK
  8
LAYER_33
  2
AIGNBL2103001A
 70
64
 10
0
 20
0
 30
0
  3
AIGNBL2103001A
  0
POLYLINE
  8
LAYER_33
 40
0.0882
 41
0.0882
 66
1
 10
0
 20
0
 30
0
  0
VERTEX
  8
LAYER_33
 10
122.6586
 20
-202.3202
  0
VERTEX
  8
LAYER_33
 10
122.5429
 20
-202.3202
  0
SEQEND
  0
ENDBLK
  0
BLOCK
  8
LAYER_33
  2
AIGNBL2103001B
 70
64
 10
0
 20
0
 30
0
  3
AIGNBL2103001B
  0
POLYLINE
  8
LAYER_33
 40
0.0882
 41
0.0882
 66
1
 10
0
 20
0
 30
0
  0
VERTEX
  8
LAYER_33
 10
122.6586
 20
-202.3202
  0
VERTEX
  8
LAYER_33
 10
122.6586
 20
-202.5214
  0
SEQEND
  0
ENDBLK
  0
BLOCK
  8
LAYER_33
  2
AIGNBL2103001C
 70
64
 10
0
 20
0
 30
0
  3
AIGNBL2103001C
  0
POLYLINE
  8
LAYER_33
 40
0.0882
 41
0.0882
 66
1
 10
0
 20
0
 30
0
  0
VERTEX
  8
LAYER_33
 10
122.6586
 20
-202.5214
  0
VERTEX
  8
LAYER_33
 10
122.5429
 20
-202.3202
  0
SEQEND
  0
ENDBLK
  0
BLOCK
  8
LAYER_33
  2
AIGNBL2103001D
 70
64
 10
0
 20
0
 30
0
  3
AIGNBL2103001D
  0
POLYLINE
  8
LAYER_33
 40
0.0882
 41
0.0882
 66
1
 10
0
 20
0
 30
0
  0
VERTEX
  8
LAYER_33
 10
122.6586
 20
-201.5361
  0
VERTEX
  8
LAYER_33
 10
122.6586
 20
-202.3202
  0
SEQEND
  0
ENDBLK
  0
BLOCK
  8
LAYER_33
  2
AIGNBL2103001E
 70
64
 10
0
 20
0
 30
0
  3
AIGNBL2103001E
  0
POLYLINE
  8
LAYER_33
 40
0.0882
 41
0.0882
 66
1
 10
0
 20
0
 30
0
  0
VERTEX
  8
LAYER_33
 10
120.6749
 20
-202.3202
  0
VERTEX
  8
LAYER_33
 10
120.5585
 20
-202.3202
  0
SEQEND
  0
ENDBLK
  0
BLOCK
  8
LAYER_33
  2
AIGNBL2103001F
 70
64
 10
0
 20
0
 30
0
  3
AIGNBL2103001F
  0
POLYLINE
  8
LAYER_33
 40
0.0882
 41
0.0882
 66
1
 10
0
 20
0
 30
0
  0
VERTEX
  8
LAYER_33
 10
120.6749
 20
-201.4204
  0
VERTEX
  8
LAYER_33
 10
120.5585
 20
-201.5361
  0
SEQEND
  0
ENDBLK
  0
BLOCK
  8
LAYER_33
  2
AIGNBL21030020
 70
64
 10
0
 20
0
 30
0
  3
AIGNBL21030020
  0
POLYLINE
  8
LAYER_33
 40
0.0882
 41
0.0882
 66
1
 10
0
 20
0
 30
0
  0
VERTEX
  8
LAYER_33
 10
120.5585
 20
-201.5361
  0
VERTEX
  8
LAYER_33
 10
120.5585
 20
-202.3202
  0
SEQEND
  0
ENDBLK
  0
BLOCK
  8
LAYER_33
  2
AIGNBL21030021
 70
64
 10
0
 20
0
 30
0
  3
AIGNBL21030021
  0
POLYLINE
  8
LAYER_33
 40
0.0882
 41
0.0882
 66
1
 10
0
 20
0
 30
0
  0
VERTEX
  8
LAYER_33
 10
120.5585
 20
-201.5361
  0
VERTEX
  8
LAYER_33
 10
120.6749
 20
-201.5361
  0
SEQEND
  0
ENDBLK
  0
BLOCK
  8
LAYER_33
  2
AIGNBL21030022
 70
64
 10
0
 20
0
 30
0
  3
AIGNBL21030022
  0
POLYLINE
  8
LAYER_33
 40
0.0882
 41
0.0882
 66
1
 10
0
 20
0
 30
0
  0
VERTEX
  8
LAYER_33
 10
120.6749
 20
-202.3202
  0
VERTEX
  8
LAYER_33
 10
120.5585
 20
-202.5214
  0
SEQEND
  0
ENDBLK
  0
BLOCK
  8
LAYER_33
  2
AIGNBL21030023
 70
64
 10
0
 20
0
 30
0
  3
AIGNBL21030023
  0
POLYLINE
  8
LAYER_33
 40
0.0882
 41
0.0882
 66
1
 10
0
 20
0
 30
0
  0
VERTEX
  8
LAYER_33
 10
120.6749
 20
-201.5361
  0
VERTEX
  8
LAYER_33
 10
120.6749
 20
-202.3202
  0
SEQEND
  0
ENDBLK
  0
BLOCK
  8
LAYER_33
  2
AIGNBL21030024
 70
64
 10
0
 20
0
 30
0
  3
AIGNBL21030024
  0
POLYLINE
  8
LAYER_33
 40
0.0882
 41
0.0882
 66
1
 10
0
 20
0
 30
0
  0
VERTEX
  8
LAYER_33
 10
120.6749
 20
-201.4204
  0
VERTEX
  8
LAYER_33
 10
120.6749
 20
-201.5361
  0
SEQEND
  0
ENDBLK
  0
BLOCK
  8
LAYER_33
  2
AIGNBL21030025
 70
64
 10
0
 20
0
 30
0
  3
AIGNBL21030025
  0
POLYLINE
  8
LAYER_33
 40
0.0882
 41
0.0882
 66
1
 10
0
 20
0
 30
0
  0
VERTEX
  8
LAYER_33
 10
122.5429
 20
-201.4204
  0
VERTEX
  8
LAYER_33
 10
122.6586
 20
-201.5361
  0
SEQEND
  0
ENDBLK
  0
BLOCK
  8
LAYER_33
  2
AIGNBL21030026
 70
64
 10
0
 20
0
 30
0
  3
AIGNBL21030026
  0
POLYLINE
  8
LAYER_33
 40
0.0882
 41
0.0882
 66
1
 10
0
 20
0
 30
0
  0
VERTEX
  8
LAYER_33
 10
122.6586
 20
-201.5361
  0
VERTEX
  8
LAYER_33
 10
122.5429
 20
-201.5361
  0
SEQEND
  0
ENDBLK
  0
BLOCK
  8
LAYER_33
  2
AIGNBL21030027
 70
64
 10
0
 20
0
 30
0
  3
AIGNBL21030027
  0
POLYLINE
  8
LAYER_33
 40
0.0882
 41
0.0882
 66
1
 10
0
 20
0
 30
0
  0
VERTEX
  8
LAYER_33
 10
122.5429
 20
-201.5361
  0
VERTEX
  8
LAYER_33
 10
122.5429
 20
-201.4204
  0
SEQEND
  0
ENDBLK
  0
BLOCK
  8
LAYER_33
  2
AIGNBL21030028
 70
64
 10
0
 20
0
 30
0
  3
AIGNBL21030028
  0
POLYLINE
  8
LAYER_33
 40
0.0882
 41
0.0882
 66
1
 10
0
 20
0
 30
0
  0
VERTEX
  8
LAYER_33
 10
122.5429
 20
-201.5361
  0
VERTEX
  8
LAYER_33
 10
122.5429
 20
-201.4204
  0
SEQEND
  0
ENDBLK
  0
BLOCK
  8
LAYER_33
  2
AIGNBL21030029
 70
64
 10
0
 20
0
 30
0
  3
AIGNBL21030029
  0
POLYLINE
  8
LAYER_33
 40
0.0882
 41
0.0882
 66
1
 10
0
 20
0
 30
0
  0
VERTEX
  8
LAYER_33
 10
122.5429
 20
-202.3202
  0
VERTEX
  8
LAYER_33
 10
122.5429
 20
-201.5361
  0
SEQEND
  0
ENDBLK
  0
BLOCK
  8
LAYER_33
  2
AIGNBL2103002A
 70
64
 10
0
 20
0
 30
0
  3
AIGNBL2103002A
  0
POLYLINE
  8
LAYER_33
 40
0.0882
 41
0.0882
 66
1
 10
0
 20
0
 30
0
  0
VERTEX
  8
LAYER_33
 10
122.5429
 20
-201.4204
  0
VERTEX
  8
LAYER_33
 10
120.6749
 20
-201.4204
  0
SEQEND
  0
ENDBLK
  0
BLOCK
  8
LAYER_33
  2
AIGNBL2103002B
 70
64
 10
0
 20
0
 30
0
  3
AIGNBL2103002B
  0
POLYLINE
  8
LAYER_33
 40
0.0882
 41
0.0882
 66
1
 10
0
 20
0
 30
0
  0
VERTEX
  8
LAYER_33
 10
122.5429
 20
-202.3202
  0
VERTEX
  8
LAYER_33
 10
121.9586
 20
-202.3202
  0
SEQEND
  0
ENDBLK
  0
BLOCK
  8
LAYER_33
  2
AIGNBL2103002C
 70
64
 10
0
 20
0
 30
0
  3
AIGNBL2103002C
  0
POLYLINE
  8
LAYER_33
 40
0.0882
 41
0.0882
 66
1
 10
0
 20
0
 30
0
  0
VERTEX
  8
LAYER_33
 10
120.6749
 20
-201.5361
  0
VERTEX
  8
LAYER_33
 10
122.5429
 20
-201.5361
  0
SEQEND
  0
ENDBLK
  0
BLOCK
  8
LAYER_33
  2
AIGNBL2103002D
 70
64
 10
0
 20
0
 30
0
  3
AIGNBL2103002D
  0
POLYLINE
  8
LAYER_33
 40
0.0882
 41
0.0882
 66
1
 10
0
 20
0
 30
0
  0
VERTEX
  8
LAYER_33
 10
120.1589
 20
-202.62
  0
VERTEX
  8
LAYER_33
 10
120.1589
 20
-204.9199
  0
SEQEND
  0
ENDBLK
  0
BLOCK
  8
LAYER_33
  2
AIGNBL2103002E
 70
64
 10
0
 20
0
 30
0
  3
AIGNBL2103002E
  0
POLYLINE
  8
LAYER_33
 40
0.0882
 41
0.0882
 66
1
 10
0
 20
0
 30
0
  0
VERTEX
  8
LAYER_33
 10
123.059
 20
-202.62
  0
VERTEX
  8
LAYER_33
 10
121.9586
 20
-202.62
  0
SEQEND
  0
ENDBLK
  0
BLOCK
  8
LAYER_33
  2
AIGNBL2103002F
 70
64
 10
0
 20
0
 30
0
  3
AIGNBL2103002F
  0
POLYLINE
  8
LAYER_33
 40
0.0882
 41
0.0882
 66
1
 10
0
 20
0
 30
0
  0
VERTEX
  8
LAYER_33
 10
123.059
 20
-204.9199
  0
VERTEX
  8
LAYER_33
 10
123.059
 20
-202.62
  0
SEQEND
  0
ENDBLK
  0
BLOCK
  8
LAYER_33
  2
AIGNBL21030030
 70
64
 10
0
 20
0
 30
0
  3
AIGNBL21030030
  0
POLYLINE
  8
LAYER_33
 40
0.0882
 41
0.0882
 66
1
 10
0
 20
0
 30
0
  0
VERTEX
  8
LAYER_33
 10
121.6086
 20
-206.67
  0
VERTEX
  8
LAYER_33
 10
121.6086
 20
-201.1199
  0
SEQEND
  0
ENDBLK
  0
BLOCK
  8
LAYER_33
  2
AIGNBL21030031
 70
64
 10
0
 20
0
 30
0
  3
AIGNBL21030031
  0
INSERT
  8
LAYER_33
  2
AIGNBL21040032
 10
0
 20
0
 30
0
  0
INSERT
  8
LAYER_33
  2
AIGNBL21040033
 10
0
 20
0
 30
0
  0
INSERT
  8
LAYER_33
  2
AIGNBL21040034
 10
0
 20
0
 30
0
  0
INSERT
  8
LAYER_33
  2
AIGNBL21040035
 10
0
 20
0
 30
0
  0
INSERT
  8
LAYER_33
  2
AIGNBL21040036
 10
0
 20
0
 30
0
  0
INSERT
  8
LAYER_33
  2
AIGNBL21040037
 10
0
 20
0
 30
0
  0
ENDBLK
  0
BLOCK
  8
LAYER_33
  2
AIGNBL21030038
 70
64
 10
0
 20
0
 30
0
  3
AIGNBL21030038
  0
POLYLINE
  8
LAYER_33
 40
0.0882
 41
0.0882
 66
1
 10
0
 20
0
 30
0
  0
VERTEX
  8
LAYER_33
 10
118.6086
 20
-204.9199
 42
-0.3129594344
  0
VERTEX
  8
LAYER_33
 10
120.5585
 20
-202.1101
  0
SEQEND
  0
ENDBLK
  0
BLOCK
  8
LAYER_33
  2
AIGNBL21030039
 70
64
 10
0
 20
0
 30
0
  3
AIGNBL21030039
  0
POLYLINE
  8
LAYER_33
 40
0.0882
 41
0.0882
 66
1
 10
0
 20
0
 30
0
  0
VERTEX
  8
LAYER_33
 10
122.6586
 20
-202.1101
 42
-0.4142658306
  0
VERTEX
  8
LAYER_33
 10
124.4191
 20
-205.97
 42
-0.4142128185
  0
VERTEX
  8
LAYER_33
 10
120.5585
 20
-207.7304
 42
-0.3129504585
  0
VERTEX
  8
LAYER_33
 10
118.6086
 20
-204.9199
  0
SEQEND
  0
ENDBLK
  0
BLOCK
  8
LAYER_33
  2
AIGNBL2103003A
 70
64
 10
0
 20
0
 30
0
  3
AIGNBL2103003A
  0
POLYLINE
  8
LAYER_33
 40
0.0882
 41
0.0882
 66
1
 10
0
 20
0
 30
0
  0
VERTEX
  8
LAYER_33
 10
121.6086
 20
-208.2203
  0
VERTEX
  8
LAYER_33
 10
121.6086
 20
-201.1199
  0
SEQEND
  0
ENDBLK
  0
BLOCK
  8
LAYER_33
  2
AIGNBL2103003B
 70
64
 10
0
 20
0
 30
0
  3
AIGNBL2103003B
  0
POLYLINE
  8
LAYER_33
 40
0.0882
 41
0.0882
 66
1
 10
0
 20
0
 30
0
  0
VERTEX
  8
LAYER_33
 10
124.909
 20
-204.9199
  0
VERTEX
  8
LAYER_33
 10
118.3089
 20
-204.9199
  0
SEQEND
  0
ENDBLK
  0
BLOCK
  8
LAYER_33
  2
AIGNBL2103003E
 70
64
 10
0
 20
0
 30
0
  3
AIGNBL2103003E
  0
POLYLINE
  8
LAYER_33
 40
0.0882
 41
0.0882
 66
1
 10
0
 20
0
 30
0
  0
VERTEX
  8
LAYER_33
 10
141.5894
 20
-202.3202
  0
VERTEX
  8
LAYER_33
 10
141.6087
 20
-202.3202
  0
SEQEND
  0
ENDBLK
  0
BLOCK
  8
LAYER_33
  2
AIGNBL2103003F
 70
64
 10
0
 20
0
 30
0
  3
AIGNBL2103003F
  0
POLYLINE
  8
LAYER_33
 40
0.0882
 41
0.0882
 66
1
 10
0
 20
0
 30
0
  0
VERTEX
  8
LAYER_33
 10
140.5807
 20
-202.3202
  0
VERTEX
  8
LAYER_33
 10
141.5894
 20
-202.3202
  0
SEQEND
  0
ENDBLK
  0
BLOCK
  8
LAYER_33
  2
AIGNBL21030040
 70
64
 10
0
 20
0
 30
0
  3
AIGNBL21030040
  0
POLYLINE
  8
LAYER_33
 40
0.0882
 41
0.0882
 66
1
 10
0
 20
0
 30
0
  0
VERTEX
  8
LAYER_33
 10
141.628
 20
-202.3202
  0
VERTEX
  8
LAYER_33
 10
142.6367
 20
-202.3202
  0
SEQEND
  0
ENDBLK
  0
BLOCK
  8
LAYER_33
  2
AIGNBL21030041
 70
64
 10
0
 20
0
 30
0
  3
AIGNBL21030041
  0
POLYLINE
  8
LAYER_33
 40
0.0882
 41
0.0882
 66
1
 10
0
 20
0
 30
0
  0
VERTEX
  8
LAYER_33
 10
142.9337
 20
-202.2196
  0
VERTEX
  8
LAYER_33
 10
142.8786
 20
-202.261
  0
SEQEND
  0
ENDBLK
  0
BLOCK
  8
LAYER_33
  2
AIGNBL21030042
 70
64
 10
0
 20
0
 30
0
  3
AIGNBL21030042
  0
POLYLINE
  8
LAYER_33
 40
0.0882
 41
0.0882
 66
1
 10
0
 20
0
 30
0
  0
VERTEX
  8
LAYER_33
 10
142.6554
 20
-202.3202
  0
VERTEX
  8
LAYER_33
 10
142.6464
 20
-202.3202
  0
SEQEND
  0
ENDBLK
  0
BLOCK
  8
LAYER_33
  2
AIGNBL21030043
 70
64
 10
0
 20
0
 30
0
  3
AIGNBL21030043
  0
POLYLINE
  8
LAYER_33
 40
0.0882
 41
0.0882
 66
1
 10
0
 20
0
 30
0
  0
VERTEX
  8
LAYER_33
 10
140.5807
 20
-202.3202
  0
VERTEX
  8
LAYER_33
 10
140.5717
 20
-202.3202
  0
SEQEND
  0
ENDBLK
  0
BLOCK
  8
LAYER_33
  2
AIGNBL21030044
 70
64
 10
0
 20
0
 30
0
  3
AIGNBL21030044
  0
POLYLINE
  8
LAYER_33
 40
0.0882
 41
0.0882
 66
1
 10
0
 20
0
 30
0
  0
VERTEX
  8
LAYER_33
 10
142.6464
 20
-202.3202
  0
VERTEX
  8
LAYER_33
 10
142.6367
 20
-202.3202
  0
SEQEND
  0
ENDBLK
  0
BLOCK
  8
LAYER_33
  2
AIGNBL21030046
 70
64
 10
0
 20
0
 30
0
  3
AIGNBL21030046
  0
POLYLINE
  8
LAYER_33
 40
0.0882
 41
0.0882
 66
1
 10
0
 20
0
 30
0
  0
VERTEX
  8
LAYER_33
 10
141.9388
 20
-201.7704
  0
VERTEX
  8
LAYER_33
 10
141.2787
 20
-201.7704
  0
SEQEND
  0
ENDBLK
  0
BLOCK
  8
LAYER_33
  2
AIGNBL21030047
 70
64
 10
0
 20
0
 30
0
  3
AIGNBL21030047
  0
POLYLINE
  8
LAYER_33
 40
0.0882
 41
0.0882
 66
1
 10
0
 20
0
 30
0
  0
VERTEX
  8
LAYER_33
 10
141.9091
 20
-201.5699
  0
VERTEX
  8
LAYER_33
 10
141.309
 20
-201.5699
  0
SEQEND
  0
ENDBLK
  0
BLOCK
  8
LAYER_33
  2
AIGNBL21030048
 70
64
 10
0
 20
0
 30
0
  3
AIGNBL21030048
  0
POLYLINE
  8
LAYER_33
 40
0.0882
 41
0.0882
 66
1
 10
0
 20
0
 30
0
  0
VERTEX
  8
LAYER_33
 10
141.9588
 20
-201.7504
  0
VERTEX
  8
LAYER_33
 10
141.9588
 20
-201.6202
  0
SEQEND
  0
ENDBLK
  0
BLOCK
  8
LAYER_33
  2
AIGNBL21030049
 70
64
 10
0
 20
0
 30
0
  3
AIGNBL21030049
  0
POLYLINE
  8
LAYER_33
 40
0.0882
 41
0.0882
 66
1
 10
0
 20
0
 30
0
  0
VERTEX
  8
LAYER_33
 10
141.2587
 20
-201.7504
  0
VERTEX
  8
LAYER_33
 10
141.2587
 20
-201.6202
  0
SEQEND
  0
ENDBLK
  0
BLOCK
  8
LAYER_33
  2
AIGNBL2103004A
 70
64
 10
0
 20
0
 30
0
  3
AIGNBL2103004A
  0
POLYLINE
  8
LAYER_33
 40
0.0882
 41
0.0882
 66
1
 10
0
 20
0
 30
0
  0
VERTEX
  8
LAYER_33
 10
141.9588
 20
-201.7504
  0
VERTEX
  8
LAYER_33
 10
141.9388
 20
-201.7704
  0
SEQEND
  0
ENDBLK
  0
BLOCK
  8
LAYER_33
  2
AIGNBL2103004B
 70
64
 10
0
 20
0
 30
0
  3
AIGNBL2103004B
  0
POLYLINE
  8
LAYER_33
 40
0.0882
 41
0.0882
 66
1
 10
0
 20
0
 30
0
  0
VERTEX
  8
LAYER_33
 10
141.2587
 20
-201.7504
  0
VERTEX
  8
LAYER_33
 10
141.2787
 20
-201.7704
  0
SEQEND
  0
ENDBLK
  0
BLOCK
  8
LAYER_33
  2
AIGNBL2103004C
 70
64
 10
0
 20
0
 30
0
  3
AIGNBL2103004C
  0
POLYLINE
  8
LAYER_33
 40
0.0882
 41
0.0882
 66
1
 10
0
 20
0
 30
0
  0
VERTEX
  8
LAYER_33
 10
141.6087
 20
-202.4298
  0
VERTEX
  8
LAYER_33
 10
141.6087
 20
-201.1702
  0
SEQEND
  0
ENDBLK
  0
BLOCK
  8
LAYER_33
  2
AIGNBL2103004D
 70
64
 10
0
 20
0
 30
0
  3
AIGNBL2103004D
  0
POLYLINE
  8
LAYER_33
 40
0.0882
 41
0.0882
 66
1
 10
0
 20
0
 30
0
  0
VERTEX
  8
LAYER_33
 10
141.2587
 20
-201.6202
 42
-0.3898748544
  0
VERTEX
  8
LAYER_33
 10
141.309
 20
-201.5699
  0
SEQEND
  0
ENDBLK
  0
BLOCK
  8
LAYER_33
  2
AIGNBL2103004E
 70
64
 10
0
 20
0
 30
0
  3
AIGNBL2103004E
  0
POLYLINE
  8
LAYER_33
 40
0.0882
 41
0.0882
 66
1
 10
0
 20
0
 30
0
  0
VERTEX
  8
LAYER_33
 10
141.9091
 20
-201.5699
 42
-0.3919810976
  0
VERTEX
  8
LAYER_33
 10
141.9588
 20
-201.6202
  0
SEQEND
  0
ENDBLK
  0
BLOCK
  8
LAYER_33
  2
AIGNBL2103004F
 70
64
 10
0
 20
0
 30
0
  3
AIGNBL2103004F
  0
POLYLINE
  8
LAYER_33
 40
0.0882
 41
0.0882
 66
1
 10
0
 20
0
 30
0
 70
1
  0
VERTEX
  8
LAYER_33
 10
140.159
 20
-204.9199
 42
-0.414209939
  0
VERTEX
  8
LAYER_33
 10
141.6087
 20
-203.4702
 42
-0.4142224602
  0
VERTEX
  8
LAYER_33
 10
143.0591
 20
-204.9199
 42
-0.4142171841
  0
VERTEX
  8
LAYER_33
 10
141.6087
 20
-206.3703
 42
-0.4142046666
  0
SEQEND
  0
ENDBLK
  0
BLOCK
  8
LAYER_33
  2
AIGNBL21030050
 70
64
 10
0
 20
0
 30
0
  3
AIGNBL21030050
  0
POLYLINE
  8
LAYER_33
 40
0.0882
 41
0.0882
 66
1
 10
0
 20
0
 30
0
  0
VERTEX
  8
LAYER_33
 10
141.2587
 20
-202.62
  0
VERTEX
  8
LAYER_33
 10
140.159
 20
-202.62
  0
SEQEND
  0
ENDBLK
  0
BLOCK
  8
LAYER_33
  2
AIGNBL21030051
 70
64
 10
0
 20
0
 30
0
  3
AIGNBL21030051
  0
POLYLINE
  8
LAYER_33
 40
0.0882
 41
0.0882
 66
1
 10
0
 20
0
 30
0
  0
VERTEX
  8
LAYER_33
 10
140.5587
 20
-202.5214
  0
VERTEX
  8
LAYER_33
 10
140.5587
 20
-202.62
  0
SEQEND
  0
ENDBLK
  0
BLOCK
  8
LAYER_33
  2
AIGNBL21030052
 70
64
 10
0
 20
0
 30
0
  3
AIGNBL21030052
  0
POLYLINE
  8
LAYER_33
 40
0.0882
 41
0.0882
 66
1
 10
0
 20
0
 30
0
  0
VERTEX
  8
LAYER_33
 10
140.5587
 20
-202.3202
  0
VERTEX
  8
LAYER_33
 10
140.5587
 20
-202.5214
  0
SEQEND
  0
ENDBLK
  0
BLOCK
  8
LAYER_33
  2
AIGNBL21030053
 70
64
 10
0
 20
0
 30
0
  3
AIGNBL21030053
  0
POLYLINE
  8
LAYER_33
 40
0.0882
 41
0.0882
 66
1
 10
0
 20
0
 30
0
  0
VERTEX
  8
LAYER_33
 10
142.6588
 20
-202.5214
  0
VERTEX
  8
LAYER_33
 10
142.6588
 20
-202.62
  0
SEQEND
  0
ENDBLK
  0
BLOCK
  8
LAYER_33
  2
AIGNBL21030054
 70
64
 10
0
 20
0
 30
0
  3
AIGNBL21030054
  0
POLYLINE
  8
LAYER_33
 40
0.0882
 41
0.0882
 66
1
 10
0
 20
0
 30
0
  0
VERTEX
  8
LAYER_33
 10
142.6588
 20
-202.3202
  0
VERTEX
  8
LAYER_33
 10
142.543
 20
-202.3202
  0
SEQEND
  0
ENDBLK
  0
BLOCK
  8
LAYER_33
  2
AIGNBL21030055
 70
64
 10
0
 20
0
 30
0
  3
AIGNBL21030055
  0
POLYLINE
  8
LAYER_33
 40
0.0882
 41
0.0882
 66
1
 10
0
 20
0
 30
0
  0
VERTEX
  8
LAYER_33
 10
142.6588
 20
-202.3202
  0
VERTEX
  8
LAYER_33
 10
142.6588
 20
-202.5214
  0
SEQEND
  0
ENDBLK
  0
BLOCK
  8
LAYER_33
  2
AIGNBL21030056
 70
64
 10
0
 20
0
 30
0
  3
AIGNBL21030056
  0
POLYLINE
  8
LAYER_33
 40
0.0882
 41
0.0882
 66
1
 10
0
 20
0
 30
0
  0
VERTEX
  8
LAYER_33
 10
142.6588
 20
-202.5214
  0
VERTEX
  8
LAYER_33
 10
142.543
 20
-202.3202
  0
SEQEND
  0
ENDBLK
  0
BLOCK
  8
LAYER_33
  2
AIGNBL21030057
 70
64
 10
0
 20
0
 30
0
  3
AIGNBL21030057
  0
POLYLINE
  8
LAYER_33
 40
0.0882
 41
0.0882
 66
1
 10
0
 20
0
 30
0
  0
VERTEX
  8
LAYER_33
 10
142.6588
 20
-201.5361
  0
VERTEX
  8
LAYER_33
 10
142.6588
 20
-202.3202
  0
SEQEND
  0
ENDBLK
  0
BLOCK
  8
LAYER_33
  2
AIGNBL21030058
 70
64
 10
0
 20
0
 30
0
  3
AIGNBL21030058
  0
POLYLINE
  8
LAYER_33
 40
0.0882
 41
0.0882
 66
1
 10
0
 20
0
 30
0
  0
VERTEX
  8
LAYER_33
 10
140.6751
 20
-202.3202
  0
VERTEX
  8
LAYER_33
 10
140.5587
 20
-202.3202
  0
SEQEND
  0
ENDBLK
  0
BLOCK
  8
LAYER_33
  2
AIGNBL21030059
 70
64
 10
0
 20
0
 30
0
  3
AIGNBL21030059
  0
POLYLINE
  8
LAYER_33
 40
0.0882
 41
0.0882
 66
1
 10
0
 20
0
 30
0
  0
VERTEX
  8
LAYER_33
 10
140.6751
 20
-201.4204
  0
VERTEX
  8
LAYER_33
 10
140.5587
 20
-201.5361
  0
SEQEND
  0
ENDBLK
  0
BLOCK
  8
LAYER_33
  2
AIGNBL2103005A
 70
64
 10
0
 20
0
 30
0
  3
AIGNBL2103005A
  0
POLYLINE
  8
LAYER_33
 40
0.0882
 41
0.0882
 66
1
 10
0
 20
0
 30
0
  0
VERTEX
  8
LAYER_33
 10
140.5587
 20
-201.5361
  0
VERTEX
  8
LAYER_33
 10
140.5587
 20
-202.3202
  0
SEQEND
  0
ENDBLK
  0
BLOCK
  8
LAYER_33
  2
AIGNBL2103005B
 70
64
 10
0
 20
0
 30
0
  3
AIGNBL2103005B
  0
POLYLINE
  8
LAYER_33
 40
0.0882
 41
0.0882
 66
1
 10
0
 20
0
 30
0
  0
VERTEX
  8
LAYER_33
 10
140.5587
 20
-201.5361
  0
VERTEX
  8
LAYER_33
 10
140.6751
 20
-201.5361
  0
SEQEND
  0
ENDBLK
  0
BLOCK
  8
LAYER_33
  2
AIGNBL2103005C
 70
64
 10
0
 20
0
 30
0
  3
AIGNBL2103005C
  0
POLYLINE
  8
LAYER_33
 40
0.0882
 41
0.0882
 66
1
 10
0
 20
0
 30
0
  0
VERTEX
  8
LAYER_33
 10
140.6751
 20
-202.3202
  0
VERTEX
  8
LAYER_33
 10
140.5587
 20
-202.5214
  0
SEQEND
  0
ENDBLK
  0
BLOCK
  8
LAYER_33
  2
AIGNBL2103005D
 70
64
 10
0
 20
0
 30
0
  3
AIGNBL2103005D
  0
POLYLINE
  8
LAYER_33
 40
0.0882
 41
0.0882
 66
1
 10
0
 20
0
 30
0
  0
VERTEX
  8
LAYER_33
 10
140.6751
 20
-201.5361
  0
VERTEX
  8
LAYER_33
 10
140.6751
 20
-202.3202
  0
SEQEND
  0
ENDBLK
  0
BLOCK
  8
LAYER_33
  2
AIGNBL2103005E
 70
64
 10
0
 20
0
 30
0
  3
AIGNBL2103005E
  0
POLYLINE
  8
LAYER_33
 40
0.0882
 41
0.0882
 66
1
 10
0
 20
0
 30
0
  0
VERTEX
  8
LAYER_33
 10
140.6751
 20
-201.4204
  0
VERTEX
  8
LAYER_33
 10
140.6751
 20
-201.5361
  0
SEQEND
  0
ENDBLK
  0
BLOCK
  8
LAYER_33
  2
AIGNBL2103005F
 70
64
 10
0
 20
0
 30
0
  3
AIGNBL2103005F
  0
POLYLINE
  8
LAYER_33
 40
0.0882
 41
0.0882
 66
1
 10
0
 20
0
 30
0
  0
VERTEX
  8
LAYER_33
 10
142.543
 20
-201.4204
  0
VERTEX
  8
LAYER_33
 10
142.6588
 20
-201.5361
  0
SEQEND
  0
ENDBLK
  0
BLOCK
  8
LAYER_33
  2
AIGNBL21030060
 70
64
 10
0
 20
0
 30
0
  3
AIGNBL21030060
  0
POLYLINE
  8
LAYER_33
 40
0.0882
 41
0.0882
 66
1
 10
0
 20
0
 30
0
  0
VERTEX
  8
LAYER_33
 10
142.6588
 20
-201.5361
  0
VERTEX
  8
LAYER_33
 10
142.543
 20
-201.5361
  0
SEQEND
  0
ENDBLK
  0
BLOCK
  8
LAYER_33
  2
AIGNBL21030061
 70
64
 10
0
 20
0
 30
0
  3
AIGNBL21030061
  0
POLYLINE
  8
LAYER_33
 40
0.0882
 41
0.0882
 66
1
 10
0
 20
0
 30
0
  0
VERTEX
  8
LAYER_33
 10
142.543
 20
-201.5361
  0
VERTEX
  8
LAYER_33
 10
142.543
 20
-201.4204
  0
SEQEND
  0
ENDBLK
  0
BLOCK
  8
LAYER_33
  2
AIGNBL21030062
 70
64
 10
0
 20
0
 30
0
  3
AIGNBL21030062
  0
POLYLINE
  8
LAYER_33
 40
0.0882
 41
0.0882
 66
1
 10
0
 20
0
 30
0
  0
VERTEX
  8
LAYER_33
 10
142.543
 20
-201.5361
  0
VERTEX
  8
LAYER_33
 10
142.543
 20
-201.4204
  0
SEQEND
  0
ENDBLK
  0
BLOCK
  8
LAYER_33
  2
AIGNBL21030063
 70
64
 10
0
 20
0
 30
0
  3
AIGNBL21030063
  0
POLYLINE
  8
LAYER_33
 40
0.0882
 41
0.0882
 66
1
 10
0
 20
0
 30
0
  0
VERTEX
  8
LAYER_33
 10
142.543
 20
-202.3202
  0
VERTEX
  8
LAYER_33
 10
142.543
 20
-201.5361
  0
SEQEND
  0
ENDBLK
  0
BLOCK
  8
LAYER_33
  2
AIGNBL21030064
 70
64
 10
0
 20
0
 30
0
  3
AIGNBL21030064
  0
POLYLINE
  8
LAYER_33
 40
0.0882
 41
0.0882
 66
1
 10
0
 20
0
 30
0
  0
VERTEX
  8
LAYER_33
 10
142.543
 20
-201.4204
  0
VERTEX
  8
LAYER_33
 10
140.6751
 20
-201.4204
  0
SEQEND
  0
ENDBLK
  0
BLOCK
  8
LAYER_33
  2
AIGNBL21030065
 70
64
 10
0
 20
0
 30
0
  3
AIGNBL21030065
  0
POLYLINE
  8
LAYER_33
 40
0.0882
 41
0.0882
 66
1
 10
0
 20
0
 30
0
  0
VERTEX
  8
LAYER_33
 10
142.543
 20
-202.3202
  0
VERTEX
  8
LAYER_33
 10
141.9588
 20
-202.3202
  0
SEQEND
  0
ENDBLK
  0
BLOCK
  8
LAYER_33
  2
AIGNBL21030066
 70
64
 10
0
 20
0
 30
0
  3
AIGNBL21030066
  0
POLYLINE
  8
LAYER_33
 40
0.0882
 41
0.0882
 66
1
 10
0
 20
0
 30
0
  0
VERTEX
  8
LAYER_33
 10
140.6751
 20
-201.5361
  0
VERTEX
  8
LAYER_33
 10
142.543
 20
-201.5361
  0
SEQEND
  0
ENDBLK
  0
BLOCK
  8
LAYER_33
  2
AIGNBL21030067
 70
64
 10
0
 20
0
 30
0
  3
AIGNBL21030067
  0
POLYLINE
  8
LAYER_33
 40
0.0882
 41
0.0882
 66
1
 10
0
 20
0
 30
0
  0
VERTEX
  8
LAYER_33
 10
140.159
 20
-202.62
  0
VERTEX
  8
LAYER_33
 10
140.159
 20
-204.9199
  0
SEQEND
  0
ENDBLK
  0
BLOCK
  8
LAYER_33
  2
AIGNBL21030068
 70
64
 10
0
 20
0
 30
0
  3
AIGNBL21030068
  0
POLYLINE
  8
LAYER_33
 40
0.0882
 41
0.0882
 66
1
 10
0
 20
0
 30
0
  0
VERTEX
  8
LAYER_33
 10
143.0591
 20
-202.62
  0
VERTEX
  8
LAYER_33
 10
141.9588
 20
-202.62
  0
SEQEND
  0
ENDBLK
  0
BLOCK
  8
LAYER_33
  2
AIGNBL21030069
 70
64
 10
0
 20
0
 30
0
  3
AIGNBL21030069
  0
POLYLINE
  8
LAYER_33
 40
0.0882
 41
0.0882
 66
1
 10
0
 20
0
 30
0
  0
VERTEX
  8
LAYER_33
 10
143.0591
 20
-204.9199
  0
VERTEX
  8
LAYER_33
 10
143.0591
 20
-202.62
  0
SEQEND
  0
ENDBLK
  0
BLOCK
  8
LAYER_33
  2
AIGNBL2103006A
 70
64
 10
0
 20
0
 30
0
  3
AIGNBL2103006A
  0
POLYLINE
  8
LAYER_33
 40
0.0882
 41
0.0882
 66
1
 10
0
 20
0
 30
0
  0
VERTEX
  8
LAYER_33
 10
141.6087
 20
-206.67
  0
VERTEX
  8
LAYER_33
 10
141.6087
 20
-201.1199
  0
SEQEND
  0
ENDBLK
  0
BLOCK
  8
LAYER_33
  2
AIGNBL2103006B
 70
64
 10
0
 20
0
 30
0
  3
AIGNBL2103006B
  0
INSERT
  8
LAYER_33
  2
AIGNBL2104006C
 10
0
 20
0
 30
0
  0
INSERT
  8
LAYER_33
  2
AIGNBL2104006D
 10
0
 20
0
 30
0
  0
INSERT
  8
LAYER_33
  2
AIGNBL2104006E
 10
0
 20
0
 30
0
  0
INSERT
  8
LAYER_33
  2
AIGNBL2104006F
 10
0
 20
0
 30
0
  0
INSERT
  8
LAYER_33
  2
AIGNBL21040070
 10
0
 20
0
 30
0
  0
INSERT
  8
LAYER_33
  2
AIGNBL21040071
 10
0
 20
0
 30
0
  0
ENDBLK
  0
BLOCK
  8
LAYER_33
  2
AIGNBL21030072
 70
64
 10
0
 20
0
 30
0
  3
AIGNBL21030072
  0
POLYLINE
  8
LAYER_33
 40
0.0882
 41
0.0882
 66
1
 10
0
 20
0
 30
0
  0
VERTEX
  8
LAYER_33
 10
138.6087
 20
-204.9199
 42
-0.3129621799
  0
VERTEX
  8
LAYER_33
 10
140.5587
 20
-202.1101
  0
SEQEND
  0
ENDBLK
  0
BLOCK
  8
LAYER_33
  2
AIGNBL21030073
 70
64
 10
0
 20
0
 30
0
  3
AIGNBL21030073
  0
POLYLINE
  8
LAYER_33
 40
0.0882
 41
0.0882
 66
1
 10
0
 20
0
 30
0
  0
VERTEX
  8
LAYER_33
 10
142.6588
 20
-202.1101
 42
-0.4142624609
  0
VERTEX
  8
LAYER_33
 10
144.4192
 20
-205.97
 42
-0.4142045526
  0
VERTEX
  8
LAYER_33
 10
140.5587
 20
-207.7304
 42
-0.3129532024
  0
VERTEX
  8
LAYER_33
 10
138.6087
 20
-204.9199
  0
SEQEND
  0
ENDBLK
  0
BLOCK
  8
LAYER_33
  2
AIGNBL21030074
 70
64
 10
0
 20
0
 30
0
  3
AIGNBL21030074
  0
POLYLINE
  8
LAYER_33
 40
0.0882
 41
0.0882
 66
1
 10
0
 20
0
 30
0
  0
VERTEX
  8
LAYER_33
 10
141.6087
 20
-208.2203
  0
VERTEX
  8
LAYER_33
 10
141.6087
 20
-201.1199
  0
SEQEND
  0
ENDBLK
  0
BLOCK
  8
LAYER_33
  2
AIGNBL21030075
 70
64
 10
0
 20
0
 30
0
  3
AIGNBL21030075
  0
POLYLINE
  8
LAYER_33
 40
0.0882
 41
0.0882
 66
1
 10
0
 20
0
 30
0
  0
VERTEX
  8
LAYER_33
 10
144.9091
 20
-204.9199
  0
VERTEX
  8
LAYER_33
 10
138.309
 20
-204.9199
  0
SEQEND
  0
ENDBLK
  0
BLOCK
  8
LAYER_33
  2
AIGNBL21030078
 70
64
 10
0
 20
0
 30
0
  3
AIGNBL21030078
  0
POLYLINE
  8
LAYER_33
 40
0.0882
 41
0.0882
 66
1
 10
0
 20
0
 30
0
  0
VERTEX
  8
LAYER_33
 10
229.7972
 20
-203.4698
  0
VERTEX
  8
LAYER_33
 10
229.7972
 20
-201.79
  0
SEQEND
  0
ENDBLK
  0
BLOCK
  8
LAYER_33
  2
AIGNBL21030079
 70
64
 10
0
 20
0
 30
0
  3
AIGNBL21030079
  0
POLYLINE
  8
LAYER_33
 40
0.0882
 41
0.0882
 66
1
 10
0
 20
0
 30
0
  0
VERTEX
  8
LAYER_33
 10
229.7972
 20
-201.79
  0
VERTEX
  8
LAYER_33
 10
229.7772
 20
-201.77
  0
SEQEND
  0
ENDBLK
  0
BLOCK
  8
LAYER_33
  2
AIGNBL2103007A
 70
64
 10
0
 20
0
 30
0
  3
AIGNBL2103007A
  0
POLYLINE
  8
LAYER_33
 40
0.0882
 41
0.0882
 66
1
 10
0
 20
0
 30
0
  0
VERTEX
  8
LAYER_33
 10
229.1171
 20
-201.77
  0
VERTEX
  8
LAYER_33
 10
229.7772
 20
-201.77
  0
SEQEND
  0
ENDBLK
  0
BLOCK
  8
LAYER_33
  2
AIGNBL2103007B
 70
64
 10
0
 20
0
 30
0
  3
AIGNBL2103007B
  0
POLYLINE
  8
LAYER_33
 40
0.0882
 41
0.0882
 66
1
 10
0
 20
0
 30
0
  0
VERTEX
  8
LAYER_33
 10
229.0971
 20
-201.79
  0
VERTEX
  8
LAYER_33
 10
229.0971
 20
-203.4698
  0
SEQEND
  0
ENDBLK
  0
BLOCK
  8
LAYER_33
  2
AIGNBL2103007C
 70
64
 10
0
 20
0
 30
0
  3
AIGNBL2103007C
  0
POLYLINE
  8
LAYER_33
 40
0.0882
 41
0.0882
 66
1
 10
0
 20
0
 30
0
  0
VERTEX
  8
LAYER_33
 10
229.1171
 20
-201.77
  0
VERTEX
  8
LAYER_33
 10
229.0971
 20
-201.79
  0
SEQEND
  0
ENDBLK
  0
BLOCK
  8
LAYER_33
  2
AIGNBL2103007D
 70
64
 10
0
 20
0
 30
0
  3
AIGNBL2103007D
  0
POLYLINE
  8
LAYER_33
 40
0.0882
 41
0.0882
 66
1
 10
0
 20
0
 30
0
  0
VERTEX
  8
LAYER_33
 10
229.4472
 20
-204.5699
  0
VERTEX
  8
LAYER_33
 10
229.4472
 20
-201.47
  0
SEQEND
  0
ENDBLK
  0
BLOCK
  8
LAYER_2
  2
AIGNBL02020003
 70
64
 10
0
 20
0
 30
0
  3
AIGNBL02020003
  0
POLYLINE
  8
LAYER_2
 40
0.1764
 41
0.1764
 66
1
 10
0
 20
0
 30
0
  0
VERTEX
  8
LAYER_2
 10
133.9782
 20
-175.0004
  0
VERTEX
  8
LAYER_2
 10
129.2391
 20
-175.0004
  0
SEQEND
  0
ENDBLK
  0
BLOCK
  8
LAYER_2
  2
AIGNBL02020004
 70
64
 10
0
 20
0
 30
0
  3
AIGNBL02020004
  0
POLYLINE
  8
LAYER_2
 40
0.1764
 41
0.1764
 66
1
 10
0
 20
0
 30
0
  0
VERTEX
  8
LAYER_2
 10
131.6086
 20
-161.4256
 42
0.4142083704
  0
VERTEX
  8
LAYER_2
 10
130.3838
 20
-162.6505
  0
SEQEND
  0
ENDBLK
  0
BLOCK
  8
LAYER_2
  2
AIGNBL02020005
 70
64
 10
0
 20
0
 30
0
  3
AIGNBL02020005
  0
POLYLINE
  8
LAYER_2
 40
0.1764
 41
0.1764
 66
1
 10
0
 20
0
 30
0
  0
VERTEX
  8
LAYER_2
 10
132.8335
 20
-162.6509
 42
0.4143132362
  0
VERTEX
  8
LAYER_2
 10
131.609
 20
-161.4256
  0
SEQEND
  0
ENDBLK
  0
BLOCK
  8
LAYER_2
  2
AIGNBL02020006
 70
64
 10
0
 20
0
 30
0
  3
AIGNBL02020006
  0
POLYLINE
  8
LAYER_2
 40
0.1764
 41
0.1764
 66
1
 10
0
 20
0
 30
0
  0
VERTEX
  8
LAYER_2
 10
129.4888
 20
-160.3356
  0
VERTEX
  8
LAYER_2
 10
133.7285
 20
-160.3356
  0
SEQEND
  0
ENDBLK
  0
BLOCK
  8
LAYER_2
  2
AIGNBL02020007
 70
64
 10
0
 20
0
 30
0
  3
AIGNBL02020007
  0
POLYLINE
  8
LAYER_2
 40
0.1764
 41
0.1764
 66
1
 10
0
 20
0
 30
0
  0
VERTEX
  8
LAYER_2
 10
132.8251
 20
-164.7625
  0
VERTEX
  8
LAYER_2
 10
132.8336
 20
-164.8319
  0
VERTEX
  8
LAYER_2
 10
132.8254
 20
-164.9017
  0
SEQEND
  0
ENDBLK
  0
BLOCK
  8
LAYER_2
  2
AIGNBL02020008
 70
64
 10
0
 20
0
 30
0
  3
AIGNBL02020008
  0
POLYLINE
  8
LAYER_2
 40
0.1764
 41
0.1764
 66
1
 10
0
 20
0
 30
0
  0
VERTEX
  8
LAYER_2
 10
130.392
 20
-164.902
  0
VERTEX
  8
LAYER_2
 10
130.3837
 20
-164.8331
  0
VERTEX
  8
LAYER_2
 10
130.392
 20
-164.7628
  0
SEQEND
  0
ENDBLK
  0
BLOCK
  8
LAYER_2
  2
AIGNBL02020009
 70
64
 10
0
 20
0
 30
0
  3
AIGNBL02020009
  0
ENDBLK
  0
BLOCK
  8
LAYER_2
  2
AIGNBL0202000A
 70
64
 10
0
 20
0
 30
0
  3
AIGNBL0202000A
  0
POLYLINE
  8
LAYER_2
 40
0.1764
 41
0.1764
 66
1
 10
0
 20
0
 30
0
  0
VERTEX
  8
LAYER_2
 10
130.3837
 20
-162.6509
  0
VERTEX
  8
LAYER_2
 10
130.3837
 20
-164.2004
  0
SEQEND
  0
ENDBLK
  0
BLOCK
  8
LAYER_2
  2
AIGNBL0202000B
 70
64
 10
0
 20
0
 30
0
  3
AIGNBL0202000B
  0
POLYLINE
  8
LAYER_2
 40
0.1764
 41
0.1764
 66
1
 10
0
 20
0
 30
0
  0
VERTEX
  8
LAYER_2
 10
129.4588
 20
-160.3656
  0
VERTEX
  8
LAYER_2
 10
129.4588
 20
-174.4005
  0
SEQEND
  0
ENDBLK
  0
BLOCK
  8
LAYER_2
  2
AIGNBL0202000C
 70
64
 10
0
 20
0
 30
0
  3
AIGNBL0202000C
  0
POLYLINE
  8
LAYER_2
 40
0.1764
 41
0.1764
 66
1
 10
0
 20
0
 30
0
  0
VERTEX
  8
LAYER_2
 10
133.7585
 20
-174.4005
  0
VERTEX
  8
LAYER_2
 10
133.7585
 20
-160.3656
  0
SEQEND
  0
ENDBLK
  0
BLOCK
  8
LAYER_2
  2
AIGNBL0202000D
 70
64
 10
0
 20
0
 30
0
  3
AIGNBL0202000D
  0
POLYLINE
  8
LAYER_2
 40
0.1764
 41
0.1764
 66
1
 10
0
 20
0
 30
0
  0
VERTEX
  8
LAYER_2
 10
132.8336
 20
-164.2004
  0
VERTEX
  8
LAYER_2
 10
132.8336
 20
-162.6509
  0
SEQEND
  0
ENDBLK
  0
BLOCK
  8
LAYER_2
  2
AIGNBL0202000E
 70
64
 10
0
 20
0
 30
0
  3
AIGNBL0202000E
  0
POLYLINE
  8
LAYER_2
 40
0.1764
 41
0.1764
 66
1
 10
0
 20
0
 30
0
  0
VERTEX
  8
LAYER_2
 10
130.3837
 20
-164.2004
  0
VERTEX
  8
LAYER_2
 10
130.3837
 20
-164.8325
  0
SEQEND
  0
ENDBLK
  0
BLOCK
  8
LAYER_2
  2
AIGNBL0202000F
 70
64
 10
0
 20
0
 30
0
  3
AIGNBL0202000F
  0
POLYLINE
  8
LAYER_2
 40
0.1764
 41
0.1764
 66
1
 10
0
 20
0
 30
0
  0
VERTEX
  8
LAYER_2
 10
132.8336
 20
-164.8325
  0
VERTEX
  8
LAYER_2
 10
132.8336
 20
-164.2004
  0
SEQEND
  0
ENDBLK
  0
BLOCK
  8
LAYER_2
  2
AIGNBL02020010
 70
64
 10
0
 20
0
 30
0
  3
AIGNBL02020010
  0
POLYLINE
  8
LAYER_2
 40
0.1764
 41
0.1764
 66
1
 10
0
 20
0
 30
0
  0
VERTEX
  8
LAYER_2
 10
129.4888
 20
-160.3356
 42
0.3936226658
  0
VERTEX
  8
LAYER_2
 10
129.4588
 20
-160.3656
  0
SEQEND
  0
ENDBLK
  0
BLOCK
  8
LAYER_2
  2
AIGNBL02020011
 70
64
 10
0
 20
0
 30
0
  3
AIGNBL02020011
  0
POLYLINE
  8
LAYER_2
 40
0.1764
 41
0.1764
 66
1
 10
0
 20
0
 30
0
  0
VERTEX
  8
LAYER_2
 10
133.7585
 20
-160.3656
 42
0.3936226655
  0
VERTEX
  8
LAYER_2
 10
133.7285
 20
-160.3356
  0
SEQEND
  0
ENDBLK
  0
BLOCK
  8
LAYER_2
  2
AIGNBL02020012
 70
64
 10
0
 20
0
 30
0
  3
AIGNBL02020012
  0
POLYLINE
  8
LAYER_2
 40
0.1764
 41
0.1764
 66
1
 10
0
 20
0
 30
0
  0
VERTEX
  8
LAYER_2
 10
130.3928
 20
-164.9054
  0
VERTEX
  8
LAYER_2
 10
130.3991
 20
-164.9294
  0
VERTEX
  8
LAYER_2
 10
130.4114
 20
-164.9625
  0
VERTEX
  8
LAYER_2
 10
130.4273
 20
-164.9956
  0
VERTEX
  8
LAYER_2
 10
130.4467
 20
-165.0284
  0
VERTEX
  8
LAYER_2
 10
130.4698
 20
-165.0608
  0
VERTEX
  8
LAYER_2
 10
130.4962
 20
-165.0926
  0
VERTEX
  8
LAYER_2
 10
130.5261
 20
-165.1236
  0
VERTEX
  8
LAYER_2
 10
130.5591
 20
-165.1537
  0
VERTEX
  8
LAYER_2
 10
130.5951
 20
-165.1827
  0
VERTEX
  8
LAYER_2
 10
130.6338
 20
-165.2103
  0
VERTEX
  8
LAYER_2
 10
130.6752
 20
-165.2366
  0
VERTEX
  8
LAYER_2
 10
130.7189
 20
-165.2615
  0
VERTEX
  8
LAYER_2
 10
130.7645
 20
-165.2845
  0
VERTEX
  8
LAYER_2
 10
130.8128
 20
-165.3064
  0
VERTEX
  8
LAYER_2
 10
130.8639
 20
-165.3271
  0
VERTEX
  8
LAYER_2
 10
130.9177
 20
-165.3466
  0
VERTEX
  8
LAYER_2
 10
130.9739
 20
-165.3647
  0
VERTEX
  8
LAYER_2
 10
131.0324
 20
-165.3814
  0
VERTEX
  8
LAYER_2
 10
131.0928
 20
-165.3966
  0
VERTEX
  8
LAYER_2
 10
131.1548
 20
-165.4101
  0
VERTEX
  8
LAYER_2
 10
131.2182
 20
-165.4219
  0
VERTEX
  8
LAYER_2
 10
131.2826
 20
-165.432
  0
VERTEX
  8
LAYER_2
 10
131.3476
 20
-165.4403
  0
VERTEX
  8
LAYER_2
 10
131.413
 20
-165.4467
  0
VERTEX
  8
LAYER_2
 10
131.4705
 20
-165.4509
  0
VERTEX
  8
LAYER_2
 10
131.5326
 20
-165.4535
  0
VERTEX
  8
LAYER_2
 10
131.5941
 20
-165.4546
  0
VERTEX
  8
LAYER_2
 10
131.6086
 20
-165.4547
  0
SEQEND
  0
ENDBLK
  0
BLOCK
  8
LAYER_2
  2
AIGNBL02020013
 70
64
 10
0
 20
0
 30
0
  3
AIGNBL02020013
  0
POLYLINE
  8
LAYER_2
 40
0.1764
 41
0.1764
 66
1
 10
0
 20
0
 30
0
  0
VERTEX
  8
LAYER_2
 10
131.6087
 20
-165.4553
  0
VERTEX
  8
LAYER_2
 10
131.6403
 20
-165.4549
  0
VERTEX
  8
LAYER_2
 10
131.7066
 20
-165.4529
  0
VERTEX
  8
LAYER_2
 10
131.7689
 20
-165.4495
  0
VERTEX
  8
LAYER_2
 10
131.8339
 20
-165.4441
  0
VERTEX
  8
LAYER_2
 10
131.8984
 20
-165.437
  0
VERTEX
  8
LAYER_2
 10
131.9623
 20
-165.4281
  0
VERTEX
  8
LAYER_2
 10
132.0257
 20
-165.4174
  0
VERTEX
  8
LAYER_2
 10
132.0884
 20
-165.4049
  0
VERTEX
  8
LAYER_2
 10
132.149
 20
-165.3908
  0
VERTEX
  8
LAYER_2
 10
132.2077
 20
-165.3752
  0
VERTEX
  8
LAYER_2
 10
132.2651
 20
-165.3579
  0
VERTEX
  8
LAYER_2
 10
132.3206
 20
-165.339
  0
VERTEX
  8
LAYER_2
 10
132.3742
 20
-165.3186
  0
VERTEX
  8
LAYER_2
 10
132.4254
 20
-165.2968
  0
VERTEX
  8
LAYER_2
 10
132.4741
 20
-165.2736
  0
VERTEX
  8
LAYER_2
 10
132.52
 20
-165.2492
  0
VERTEX
  8
LAYER_2
 10
132.5628
 20
-165.2237
  0
VERTEX
  8
LAYER_2
 10
132.6025
 20
-165.1972
  0
VERTEX
  8
LAYER_2
 10
132.6389
 20
-165.1697
  0
VERTEX
  8
LAYER_2
 10
132.6725
 20
-165.1413
  0
VERTEX
  8
LAYER_2
 10
132.7039
 20
-165.1111
  0
VERTEX
  8
LAYER_2
 10
132.7323
 20
-165.0798
  0
VERTEX
  8
LAYER_2
 10
132.7575
 20
-165.0475
  0
VERTEX
  8
LAYER_2
 10
132.7793
 20
-165.0145
  0
VERTEX
  8
LAYER_2
 10
132.7975
 20
-164.9809
  0
VERTEX
  8
LAYER_2
 10
132.8121
 20
-164.947
  0
VERTEX
  8
LAYER_2
 10
132.8229
 20
-164.913
  0
VERTEX
  8
LAYER_2
 10
132.8246
 20
-164.9051
  0
SEQEND
  0
ENDBLK
  0
BLOCK
  8
LAYER_2
  2
AIGNBL02020014
 70
64
 10
0
 20
0
 30
0
  3
AIGNBL02020014
  0
POLYLINE
  8
LAYER_2
 40
0.1764
 41
0.1764
 66
1
 10
0
 20
0
 30
0
  0
VERTEX
  8
LAYER_2
 10
130.5213
 20
-164.8077
  0
VERTEX
  8
LAYER_2
 10
130.5228
 20
-164.7793
  0
VERTEX
  8
LAYER_2
 10
130.528
 20
-164.7502
  0
VERTEX
  8
LAYER_2
 10
130.5368
 20
-164.7213
  0
VERTEX
  8
LAYER_2
 10
130.549
 20
-164.6927
  0
VERTEX
  8
LAYER_2
 10
130.5647
 20
-164.6646
  0
VERTEX
  8
LAYER_2
 10
130.5836
 20
-164.6369
  0
VERTEX
  8
LAYER_2
 10
130.6058
 20
-164.6098
  0
VERTEX
  8
LAYER_2
 10
130.6311
 20
-164.5832
  0
VERTEX
  8
LAYER_2
 10
130.6596
 20
-164.5572
  0
VERTEX
  8
LAYER_2
 10
130.6912
 20
-164.5318
  0
VERTEX
  8
LAYER_2
 10
130.7259
 20
-164.5073
  0
VERTEX
  8
LAYER_2
 10
130.7634
 20
-164.4836
  0
VERTEX
  8
LAYER_2
 10
130.8038
 20
-164.4609
  0
VERTEX
  8
LAYER_2
 10
130.8469
 20
-164.4393
  0
VERTEX
  8
LAYER_2
 10
130.8926
 20
-164.4188
  0
VERTEX
  8
LAYER_2
 10
130.9407
 20
-164.3995
  0
VERTEX
  8
LAYER_2
 10
130.9911
 20
-164.3816
  0
VERTEX
  8
LAYER_2
 10
131.0435
 20
-164.365
  0
VERTEX
  8
LAYER_2
 10
131.0979
 20
-164.35
  0
VERTEX
  8
LAYER_2
 10
131.1541
 20
-164.3364
  0
VERTEX
  8
LAYER_2
 10
131.2118
 20
-164.3244
  0
VERTEX
  8
LAYER_2
 10
131.2708
 20
-164.3141
  0
VERTEX
  8
LAYER_2
 10
131.331
 20
-164.3054
  0
VERTEX
  8
LAYER_2
 10
131.3921
 20
-164.2985
  0
VERTEX
  8
LAYER_2
 10
131.454
 20
-164.2932
  0
VERTEX
  8
LAYER_2
 10
131.5164
 20
-164.2897
  0
VERTEX
  8
LAYER_2
 10
131.5792
 20
-164.288
  0
VERTEX
  8
LAYER_2
 10
131.642
 20
-164.2881
  0
VERTEX
  8
LAYER_2
 10
131.7047
 20
-164.2899
  0
VERTEX
  8
LAYER_2
 10
131.7671
 20
-164.2935
  0
VERTEX
  8
LAYER_2
 10
131.829
 20
-164.2988
  0
VERTEX
  8
LAYER_2
 10
131.8901
 20
-164.3059
  0
VERTEX
  8
LAYER_2
 10
131.9503
 20
-164.3147
  0
VERTEX
  8
LAYER_2
 10
132.0093
 20
-164.3252
  0
VERTEX
  8
LAYER_2
 10
132.0669
 20
-164.3373
  0
VERTEX
  8
LAYER_2
 10
132.123
 20
-164.3509
  0
VERTEX
  8
LAYER_2
 10
132.1773
 20
-164.3661
  0
VERTEX
  8
LAYER_2
 10
132.2297
 20
-164.3828
  0
VERTEX
  8
LAYER_2
 10
132.28
 20
-164.4008
  0
VERTEX
  8
LAYER_2
 10
132.328
 20
-164.4202
  0
VERTEX
  8
LAYER_2
 10
132.3735
 20
-164.4408
  0
VERTEX
  8
LAYER_2
 10
132.4164
 20
-164.4625
  0
VERTEX
  8
LAYER_2
 10
132.4566
 20
-164.4853
  0
VERTEX
  8
LAYER_2
 10
132.494
 20
-164.509
  0
VERTEX
  8
LAYER_2
 10
132.5283
 20
-164.5335
  0
VERTEX
  8
LAYER_2
 10
132.5596
 20
-164.5588
  0
VERTEX
  8
LAYER_2
 10
132.5878
 20
-164.5847
  0
VERTEX
  8
LAYER_2
 10
132.6127
 20
-164.6111
  0
VERTEX
  8
LAYER_2
 10
132.6344
 20
-164.6379
  0
VERTEX
  8
LAYER_2
 10
132.6529
 20
-164.665
  0
VERTEX
  8
LAYER_2
 10
132.6681
 20
-164.6923
  0
VERTEX
  8
LAYER_2
 10
132.68
 20
-164.72
  0
VERTEX
  8
LAYER_2
 10
132.6887
 20
-164.7479
  0
VERTEX
  8
LAYER_2
 10
132.6941
 20
-164.7762
  0
VERTEX
  8
LAYER_2
 10
132.6961
 20
-164.8049
  0
SEQEND
  0
ENDBLK
  0
BLOCK
  8
LAYER_2
  2
AIGNBL02020015
 70
64
 10
0
 20
0
 30
0
  3
AIGNBL02020015
  0
POLYLINE
  8
LAYER_2
 40
0.1764
 41
0.1764
 66
1
 10
0
 20
0
 30
0
  0
VERTEX
  8
LAYER_2
 10
133.9782
 20
-175.0004
  0
VERTEX
  8
LAYER_2
 10
129.2391
 20
-175.0004
  0
SEQEND
  0
ENDBLK
  0
BLOCK
  8
LAYER_2
  2
AIGNBL02020016
 70
64
 10
0
 20
0
 30
0
  3
AIGNBL02020016
  0
POLYLINE
  8
LAYER_2
 40
0.1764
 41
0.1764
 66
1
 10
0
 20
0
 30
0
  0
VERTEX
  8
LAYER_2
 10
129.2636
 20
-174.4005
  0
VERTEX
  8
LAYER_2
 10
133.9537
 20
-174.4005
  0
SEQEND
  0
ENDBLK
  0
BLOCK
  8
LAYER_2
  2
AIGNBL02020017
 70
64
 10
0
 20
0
 30
0
  3
AIGNBL02020017
  0
POLYLINE
  8
LAYER_2
 40
0.1764
 41
0.1764
 66
1
 10
0
 20
0
 30
0
  0
VERTEX
  8
LAYER_2
 10
134.0082
 20
-174.9702
  0
VERTEX
  8
LAYER_2
 10
134.0037
 20
-174.45
  0
SEQEND
  0
ENDBLK
  0
BLOCK
  8
LAYER_2
  2
AIGNBL02020018
 70
64
 10
0
 20
0
 30
0
  3
AIGNBL02020018
  0
POLYLINE
  8
LAYER_2
 40
0.1764
 41
0.1764
 66
1
 10
0
 20
0
 30
0
  0
VERTEX
  8
LAYER_2
 10
129.2136
 20
-174.45
  0
VERTEX
  8
LAYER_2
 10
129.2091
 20
-174.9702
  0
SEQEND
  0
ENDBLK
  0
BLOCK
  8
LAYER_2
  2
AIGNBL02020019
 70
64
 10
0
 20
0
 30
0
  3
AIGNBL02020019
  0
POLYLINE
  8
LAYER_2
 40
0.1764
 41
0.1764
 66
1
 10
0
 20
0
 30
0
  0
VERTEX
  8
LAYER_2
 10
129.2091
 20
-174.9702
 42
0.3935082429
  0
VERTEX
  8
LAYER_2
 10
129.2388
 20
-175.0004
  0
SEQEND
  0
ENDBLK
  0
BLOCK
  8
LAYER_2
  2
AIGNBL0202001A
 70
64
 10
0
 20
0
 30
0
  3
AIGNBL0202001A
  0
POLYLINE
  8
LAYER_2
 40
0.1764
 41
0.1764
 66
1
 10
0
 20
0
 30
0
  0
VERTEX
  8
LAYER_2
 10
133.9782
 20
-175.0004
 42
0.3936226655
  0
VERTEX
  8
LAYER_2
 10
134.0082
 20
-174.9704
  0
SEQEND
  0
ENDBLK
  0
BLOCK
  8
LAYER_2
  2
AIGNBL0202001B
 70
64
 10
0
 20
0
 30
0
  3
AIGNBL0202001B
  0
POLYLINE
  8
LAYER_2
 40
0.1764
 41
0.1764
 66
1
 10
0
 20
0
 30
0
  0
VERTEX
  8
LAYER_2
 10
134.0037
 20
-174.45
 42
0.3899006681
  0
VERTEX
  8
LAYER_2
 10
133.9537
 20
-174.4005
  0
SEQEND
  0
ENDBLK
  0
BLOCK
  8
LAYER_2
  2
AIGNBL0202001C
 70
64
 10
0
 20
0
 30
0
  3
AIGNBL0202001C
  0
POLYLINE
  8
LAYER_2
 40
0.1764
 41
0.1764
 66
1
 10
0
 20
0
 30
0
  0
VERTEX
  8
LAYER_2
 10
129.2636
 20
-174.4005
 42
0.3898057758
  0
VERTEX
  8
LAYER_2
 10
129.2136
 20
-174.45
  0
SEQEND
  0
ENDBLK
  0
BLOCK
  8
LAYER_2
  2
AIGNBL0202001D
 70
64
 10
0
 20
0
 30
0
  3
AIGNBL0202001D
  0
POLYLINE
  8
LAYER_2
 40
0.1764
 41
0.1764
 66
1
 10
0
 20
0
 30
0
  0
VERTEX
  8
LAYER_2
 10
129.5907
 20
-160.1256
  0
VERTEX
  8
LAYER_2
 10
129.4759
 20
-160.3056
  0
SEQEND
  0
ENDBLK
  0
BLOCK
  8
LAYER_2
  2
AIGNBL0202001E
 70
64
 10
0
 20
0
 30
0
  3
AIGNBL0202001E
  0
POLYLINE
  8
LAYER_2
 40
0.1764
 41
0.1764
 66
1
 10
0
 20
0
 30
0
  0
VERTEX
  8
LAYER_2
 10
133.7414
 20
-160.3056
  0
VERTEX
  8
LAYER_2
 10
133.6265
 20
-160.1256
  0
SEQEND
  0
ENDBLK
  0
BLOCK
  8
LAYER_2
  2
AIGNBL0202001F
 70
64
 10
0
 20
0
 30
0
  3
AIGNBL0202001F
  0
POLYLINE
  8
LAYER_2
 40
0.1764
 41
0.1764
 66
1
 10
0
 20
0
 30
0
  0
VERTEX
  8
LAYER_2
 10
133.7241
 20
-160.3356
 42
0.3930525236
  0
VERTEX
  8
LAYER_2
 10
133.7441
 20
-160.3156
  0
VERTEX
  8
LAYER_2
 10
133.7414
 20
-160.3056
  0
SEQEND
  0
ENDBLK
  0
BLOCK
  8
LAYER_2
  2
AIGNBL02020020
 70
64
 10
0
 20
0
 30
0
  3
AIGNBL02020020
  0
POLYLINE
  8
LAYER_2
 40
0.1764
 41
0.1764
 66
1
 10
0
 20
0
 30
0
  0
VERTEX
  8
LAYER_2
 10
129.4759
 20
-160.3056
 42
0.3949500357
  0
VERTEX
  8
LAYER_2
 10
129.4832
 20
-160.3329
  0
VERTEX
  8
LAYER_2
 10
129.4932
 20
-160.3356
  0
SEQEND
  0
ENDBLK
  0
BLOCK
  8
LAYER_2
  2
AIGNBL02020021
 70
64
 10
0
 20
0
 30
0
  3
AIGNBL02020021
  0
POLYLINE
  8
LAYER_2
 40
0.1764
 41
0.1764
 66
1
 10
0
 20
0
 30
0
  0
VERTEX
  8
LAYER_2
 10
132.346
 20
-164.8347
  0
VERTEX
  8
LAYER_2
 10
132.3464
 20
-164.83
  0
SEQEND
  0
ENDBLK
  0
BLOCK
  8
LAYER_2
  2
AIGNBL02020022
 70
64
 10
0
 20
0
 30
0
  3
AIGNBL02020022
  0
POLYLINE
  8
LAYER_2
 40
0.1764
 41
0.1764
 66
1
 10
0
 20
0
 30
0
  0
VERTEX
  8
LAYER_2
 10
132.3571
 20
-164.7243
 42
0.1752652879
  0
VERTEX
  8
LAYER_2
 10
132.2978
 20
-164.5783
  0
SEQEND
  0
ENDBLK
  0
BLOCK
  8
LAYER_2
  2
AIGNBL02020023
 70
64
 10
0
 20
0
 30
0
  3
AIGNBL02020023
  0
POLYLINE
  8
LAYER_2
 40
0.1764
 41
0.1764
 66
1
 10
0
 20
0
 30
0
  0
VERTEX
  8
LAYER_2
 10
132.1119
 20
-164.4473
 42
0.07472898879
  0
VERTEX
  8
LAYER_2
 10
131.7813
 20
-164.3601
  0
SEQEND
  0
ENDBLK
  0
BLOCK
  8
LAYER_2
  2
AIGNBL02020024
 70
64
 10
0
 20
0
 30
0
  3
AIGNBL02020024
  0
POLYLINE
  8
LAYER_2
 40
0.1764
 41
0.1764
 66
1
 10
0
 20
0
 30
0
  0
VERTEX
  8
LAYER_2
 10
131.436
 20
-164.3601
 42
0.07801371306
  0
VERTEX
  8
LAYER_2
 10
131.1054
 20
-164.4473
  0
SEQEND
  0
ENDBLK
  0
BLOCK
  8
LAYER_2
  2
AIGNBL02020025
 70
64
 10
0
 20
0
 30
0
  3
AIGNBL02020025
  0
POLYLINE
  8
LAYER_2
 40
0.1764
 41
0.1764
 66
1
 10
0
 20
0
 30
0
  0
VERTEX
  8
LAYER_2
 10
130.9195
 20
-164.5783
 42
0.2100488809
  0
VERTEX
  8
LAYER_2
 10
130.8613
 20
-164.7451
  0
SEQEND
  0
ENDBLK
  0
BLOCK
  8
LAYER_2
  2
AIGNBL02020026
 70
64
 10
0
 20
0
 30
0
  3
AIGNBL02020026
  0
POLYLINE
  8
LAYER_2
 40
0.1764
 41
0.1764
 66
1
 10
0
 20
0
 30
0
  0
VERTEX
  8
LAYER_2
 10
132.3559
 20
-164.7451
  0
VERTEX
  8
LAYER_2
 10
132.3571
 20
-164.7243
  0
SEQEND
  0
ENDBLK
  0
BLOCK
  8
LAYER_2
  2
AIGNBL02020027
 70
64
 10
0
 20
0
 30
0
  3
AIGNBL02020027
  0
POLYLINE
  8
LAYER_2
 40
0.1764
 41
0.1764
 66
1
 10
0
 20
0
 30
0
  0
VERTEX
  8
LAYER_2
 10
132.2008
 20
-165.0474
 42
0.2005715311
  0
VERTEX
  8
LAYER_2
 10
132.4766
 20
-164.7855
  0
SEQEND
  0
ENDBLK
  0
BLOCK
  8
LAYER_2
  2
AIGNBL02020028
 70
64
 10
0
 20
0
 30
0
  3
AIGNBL02020028
  0
POLYLINE
  8
LAYER_2
 40
0.1764
 41
0.1764
 66
1
 10
0
 20
0
 30
0
  0
VERTEX
  8
LAYER_2
 10
130.7407
 20
-164.7855
 42
0.133744313
  0
VERTEX
  8
LAYER_2
 10
130.8374
 20
-164.9325
 42
0.078038986
  0
VERTEX
  8
LAYER_2
 10
131.0163
 20
-165.0473
  0
SEQEND
  0
ENDBLK
  0
BLOCK
  8
LAYER_2
  2
AIGNBL02020029
 70
64
 10
0
 20
0
 30
0
  3
AIGNBL02020029
  0
POLYLINE
  8
LAYER_2
 40
0.1764
 41
0.1764
 66
1
 10
0
 20
0
 30
0
  0
VERTEX
  8
LAYER_2
 10
130.7396
 20
-164.7892
 42
0.133591911
  0
VERTEX
  8
LAYER_2
 10
130.8356
 20
-164.9361
 42
0.08701645941
  0
VERTEX
  8
LAYER_2
 10
131.0425
 20
-165.0638
  0
SEQEND
  0
ENDBLK
  0
BLOCK
  8
LAYER_2
  2
AIGNBL0202002A
 70
64
 10
0
 20
0
 30
0
  3
AIGNBL0202002A
  0
POLYLINE
  8
LAYER_2
 40
0.1764
 41
0.1764
 66
1
 10
0
 20
0
 30
0
  0
VERTEX
  8
LAYER_2
 10
132.1802
 20
-165.0615
 42
0.2039132417
  0
VERTEX
  8
LAYER_2
 10
132.4777
 20
-164.7892
  0
SEQEND
  0
ENDBLK
  0
BLOCK
  8
LAYER_2
  2
AIGNBL0202002B
 70
64
 10
0
 20
0
 30
0
  3
AIGNBL0202002B
  0
POLYLINE
  8
LAYER_2
 40
0.1764
 41
0.1764
 66
1
 10
0
 20
0
 30
0
  0
VERTEX
  8
LAYER_2
 10
131.4563
 20
-165.2819
 42
0.04391302321
  0
VERTEX
  8
LAYER_2
 10
131.761
 20
-165.2819
  0
SEQEND
  0
ENDBLK
  0
BLOCK
  8
LAYER_2
  2
AIGNBL0202002C
 70
64
 10
0
 20
0
 30
0
  3
AIGNBL0202002C
  0
POLYLINE
  8
LAYER_2
 40
0.1764
 41
0.1764
 66
1
 10
0
 20
0
 30
0
  0
VERTEX
  8
LAYER_2
 10
131.761
 20
-165.1953
  0
VERTEX
  8
LAYER_2
 10
131.761
 20
-165.2819
  0
SEQEND
  0
ENDBLK
  0
BLOCK
  8
LAYER_2
  2
AIGNBL0202002D
 70
64
 10
0
 20
0
 30
0
  3
AIGNBL0202002D
  0
POLYLINE
  8
LAYER_2
 40
0.1764
 41
0.1764
 66
1
 10
0
 20
0
 30
0
  0
VERTEX
  8
LAYER_2
 10
131.761
 20
-165.1953
 42
0.06333543836
  0
VERTEX
  8
LAYER_2
 10
132.1119
 20
-165.1226
  0
SEQEND
  0
ENDBLK
  0
BLOCK
  8
LAYER_2
  2
AIGNBL0202002E
 70
64
 10
0
 20
0
 30
0
  3
AIGNBL0202002E
  0
POLYLINE
  8
LAYER_2
 40
0.1764
 41
0.1764
 66
1
 10
0
 20
0
 30
0
  0
VERTEX
  8
LAYER_2
 10
132.1119
 20
-165.2092
  0
VERTEX
  8
LAYER_2
 10
132.1119
 20
-165.1226
  0
SEQEND
  0
ENDBLK
  0
BLOCK
  8
LAYER_2
  2
AIGNBL0202002F
 70
64
 10
0
 20
0
 30
0
  3
AIGNBL0202002F
  0
POLYLINE
  8
LAYER_2
 40
0.1764
 41
0.1764
 66
1
 10
0
 20
0
 30
0
  0
VERTEX
  8
LAYER_2
 10
132.1119
 20
-165.2092
 42
0.07491166711
  0
VERTEX
  8
LAYER_2
 10
132.3274
 20
-165.1015
  0
SEQEND
  0
ENDBLK
  0
BLOCK
  8
LAYER_2
  2
AIGNBL02020030
 70
64
 10
0
 20
0
 30
0
  3
AIGNBL02020030
  0
POLYLINE
  8
LAYER_2
 40
0.1764
 41
0.1764
 66
1
 10
0
 20
0
 30
0
  0
VERTEX
  8
LAYER_2
 10
132.3274
 20
-165.0149
  0
VERTEX
  8
LAYER_2
 10
132.3274
 20
-165.1015
  0
SEQEND
  0
ENDBLK
  0
BLOCK
  8
LAYER_2
  2
AIGNBL02020031
 70
64
 10
0
 20
0
 30
0
  3
AIGNBL02020031
  0
POLYLINE
  8
LAYER_2
 40
0.1764
 41
0.1764
 66
1
 10
0
 20
0
 30
0
  0
VERTEX
  8
LAYER_2
 10
132.3274
 20
-165.0149
 42
0.1558868515
  0
VERTEX
  8
LAYER_2
 10
132.4727
 20
-164.8394
  0
SEQEND
  0
ENDBLK
  0
BLOCK
  8
LAYER_2
  2
AIGNBL02020032
 70
64
 10
0
 20
0
 30
0
  3
AIGNBL02020032
  0
POLYLINE
  8
LAYER_2
 40
0.1764
 41
0.1764
 66
1
 10
0
 20
0
 30
0
  0
VERTEX
  8
LAYER_2
 10
132.4727
 20
-164.926
  0
VERTEX
  8
LAYER_2
 10
132.4727
 20
-164.8394
  0
SEQEND
  0
ENDBLK
  0
BLOCK
  8
LAYER_2
  2
AIGNBL02020033
 70
64
 10
0
 20
0
 30
0
  3
AIGNBL02020033
  0
POLYLINE
  8
LAYER_2
 40
0.1764
 41
0.1764
 66
1
 10
0
 20
0
 30
0
  0
VERTEX
  8
LAYER_2
 10
132.4727
 20
-164.926
 42
0.1732019033
  0
VERTEX
  8
LAYER_2
 10
132.4727
 20
-164.7736
  0
SEQEND
  0
ENDBLK
  0
BLOCK
  8
LAYER_2
  2
AIGNBL02020034
 70
64
 10
0
 20
0
 30
0
  3
AIGNBL02020034
  0
POLYLINE
  8
LAYER_2
 40
0.1764
 41
0.1764
 66
1
 10
0
 20
0
 30
0
  0
VERTEX
  8
LAYER_2
 10
132.4727
 20
-164.6871
  0
VERTEX
  8
LAYER_2
 10
132.4727
 20
-164.7736
  0
SEQEND
  0
ENDBLK
  0
BLOCK
  8
LAYER_2
  2
AIGNBL02020035
 70
64
 10
0
 20
0
 30
0
  3
AIGNBL02020035
  0
POLYLINE
  8
LAYER_2
 40
0.1764
 41
0.1764
 66
1
 10
0
 20
0
 30
0
  0
VERTEX
  8
LAYER_2
 10
132.4727
 20
-164.6871
 42
0.1011196395
  0
VERTEX
  8
LAYER_2
 10
132.3993
 20
-164.573
  0
SEQEND
  0
ENDBLK
  0
BLOCK
  8
LAYER_2
  2
AIGNBL02020036
 70
64
 10
0
 20
0
 30
0
  3
AIGNBL02020036
  0
POLYLINE
  8
LAYER_2
 40
0.1764
 41
0.1764
 66
1
 10
0
 20
0
 30
0
  0
VERTEX
  8
LAYER_2
 10
132.3274
 20
-164.5982
 42
0.06712526466
  0
VERTEX
  8
LAYER_2
 10
132.1119
 20
-164.4905
  0
SEQEND
  0
ENDBLK
  0
BLOCK
  8
LAYER_2
  2
AIGNBL02020037
 70
64
 10
0
 20
0
 30
0
  3
AIGNBL02020037
  0
POLYLINE
  8
LAYER_2
 40
0.1764
 41
0.1764
 66
1
 10
0
 20
0
 30
0
  0
VERTEX
  8
LAYER_2
 10
132.1119
 20
-164.4039
  0
VERTEX
  8
LAYER_2
 10
132.1119
 20
-164.4905
  0
SEQEND
  0
ENDBLK
  0
BLOCK
  8
LAYER_2
  2
AIGNBL02020038
 70
64
 10
0
 20
0
 30
0
  3
AIGNBL02020038
  0
POLYLINE
  8
LAYER_2
 40
0.1764
 41
0.1764
 66
1
 10
0
 20
0
 30
0
  0
VERTEX
  8
LAYER_2
 10
132.1119
 20
-164.4039
 42
0.0558347362
  0
VERTEX
  8
LAYER_2
 10
131.7905
 20
-164.334
  0
SEQEND
  0
ENDBLK
  0
BLOCK
  8
LAYER_2
  2
AIGNBL02020039
 70
64
 10
0
 20
0
 30
0
  3
AIGNBL02020039
  0
POLYLINE
  8
LAYER_2
 40
0.1764
 41
0.1764
 66
1
 10
0
 20
0
 30
0
  0
VERTEX
  8
LAYER_2
 10
131.761
 20
-164.4178
 42
0.04391302321
  0
VERTEX
  8
LAYER_2
 10
131.4563
 20
-164.4178
  0
SEQEND
  0
ENDBLK
  0
BLOCK
  8
LAYER_2
  2
AIGNBL0202003A
 70
64
 10
0
 20
0
 30
0
  3
AIGNBL0202003A
  0
POLYLINE
  8
LAYER_2
 40
0.1764
 41
0.1764
 66
1
 10
0
 20
0
 30
0
  0
VERTEX
  8
LAYER_2
 10
131.791
 20
-164.3328
  0
VERTEX
  8
LAYER_2
 10
131.7944
 20
-164.3057
  0
SEQEND
  0
ENDBLK
  0
BLOCK
  8
LAYER_2
  2
AIGNBL0202003B
 70
64
 10
0
 20
0
 30
0
  3
AIGNBL0202003B
  0
POLYLINE
  8
LAYER_2
 40
0.1764
 41
0.1764
 66
1
 10
0
 20
0
 30
0
  0
VERTEX
  8
LAYER_2
 10
132.6786
 20
-164.7243
  0
VERTEX
  8
LAYER_2
 10
132.6783
 20
-164.7122
  0
SEQEND
  0
ENDBLK
  0
BLOCK
  8
LAYER_2
  2
AIGNBL0202003C
 70
64
 10
0
 20
0
 30
0
  3
AIGNBL0202003C
  0
POLYLINE
  8
LAYER_2
 40
0.1764
 41
0.1764
 66
1
 10
0
 20
0
 30
0
  0
VERTEX
  8
LAYER_2
 10
130.539
 20
-164.7118
  0
VERTEX
  8
LAYER_2
 10
130.5387
 20
-164.7243
  0
SEQEND
  0
ENDBLK
  0
BLOCK
  8
LAYER_2
  2
AIGNBL0202003D
 70
64
 10
0
 20
0
 30
0
  3
AIGNBL0202003D
  0
POLYLINE
  8
LAYER_2
 40
0.1764
 41
0.1764
 66
1
 10
0
 20
0
 30
0
  0
VERTEX
  8
LAYER_2
 10
131.4229
 20
-165.2901
  0
VERTEX
  8
LAYER_2
 10
131.4229
 20
-165.3593
  0
SEQEND
  0
ENDBLK
  0
BLOCK
  8
LAYER_2
  2
AIGNBL0202003E
 70
64
 10
0
 20
0
 30
0
  3
AIGNBL0202003E
  0
POLYLINE
  8
LAYER_2
 40
0.1764
 41
0.1764
 66
1
 10
0
 20
0
 30
0
  0
VERTEX
  8
LAYER_2
 10
131.079
 20
-165.228
 42
0.04601320923
  0
VERTEX
  8
LAYER_2
 10
131.4229
 20
-165.2901
  0
SEQEND
  0
ENDBLK
  0
BLOCK
  8
LAYER_2
  2
AIGNBL0202003F
 70
64
 10
0
 20
0
 30
0
  3
AIGNBL0202003F
  0
POLYLINE
  8
LAYER_2
 40
0.1764
 41
0.1764
 66
1
 10
0
 20
0
 30
0
  0
VERTEX
  8
LAYER_2
 10
130.7322
 20
-165.0701
  0
VERTEX
  8
LAYER_2
 10
130.7322
 20
-165.1393
  0
SEQEND
  0
ENDBLK
  0
BLOCK
  8
LAYER_2
  2
AIGNBL02020040
 70
64
 10
0
 20
0
 30
0
  3
AIGNBL02020040
  0
POLYLINE
  8
LAYER_2
 40
0.1764
 41
0.1764
 66
1
 10
0
 20
0
 30
0
  0
VERTEX
  8
LAYER_2
 10
130.5981
 20
-164.9389
 42
0.08122013372
  0
VERTEX
  8
LAYER_2
 10
130.7322
 20
-165.0701
  0
SEQEND
  0
ENDBLK
  0
BLOCK
  8
LAYER_2
  2
AIGNBL02020041
 70
64
 10
0
 20
0
 30
0
  3
AIGNBL02020041
  0
POLYLINE
  8
LAYER_2
 40
0.1764
 41
0.1764
 66
1
 10
0
 20
0
 30
0
  0
VERTEX
  8
LAYER_2
 10
130.5461
 20
-164.7699
 42
0.1143459765
  0
VERTEX
  8
LAYER_2
 10
130.5456
 20
-164.8929
  0
SEQEND
  0
ENDBLK
  0
BLOCK
  8
LAYER_2
  2
AIGNBL02020042
 70
64
 10
0
 20
0
 30
0
  3
AIGNBL02020042
  0
POLYLINE
  8
LAYER_2
 40
0.1764
 41
0.1764
 66
1
 10
0
 20
0
 30
0
  0
VERTEX
  8
LAYER_2
 10
130.555
 20
-164.682
  0
VERTEX
  8
LAYER_2
 10
130.555
 20
-164.7396
  0
SEQEND
  0
ENDBLK
  0
BLOCK
  8
LAYER_2
  2
AIGNBL02020043
 70
64
 10
0
 20
0
 30
0
  3
AIGNBL02020043
  0
POLYLINE
  8
LAYER_2
 40
0.1764
 41
0.1764
 66
1
 10
0
 20
0
 30
0
  0
VERTEX
  8
LAYER_2
 10
130.7322
 20
-164.5033
  0
VERTEX
  8
LAYER_2
 10
130.7322
 20
-164.5257
  0
SEQEND
  0
ENDBLK
  0
BLOCK
  8
LAYER_2
  2
AIGNBL02020044
 70
64
 10
0
 20
0
 30
0
  3
AIGNBL02020044
  0
POLYLINE
  8
LAYER_2
 40
0.1764
 41
0.1764
 66
1
 10
0
 20
0
 30
0
  0
VERTEX
  8
LAYER_2
 10
130.995
 20
-164.3804
  0
VERTEX
  8
LAYER_2
 10
130.995
 20
-164.3943
  0
SEQEND
  0
ENDBLK
  0
BLOCK
  8
LAYER_2
  2
AIGNBL02020045
 70
64
 10
0
 20
0
 30
0
  3
AIGNBL02020045
  0
POLYLINE
  8
LAYER_2
 40
0.1764
 41
0.1764
 66
1
 10
0
 20
0
 30
0
  0
VERTEX
  8
LAYER_2
 10
131.4229
 20
-164.2959
  0
VERTEX
  8
LAYER_2
 10
131.4229
 20
-164.3057
  0
SEQEND
  0
ENDBLK
  0
BLOCK
  8
LAYER_2
  2
AIGNBL02020046
 70
64
 10
0
 20
0
 30
0
  3
AIGNBL02020046
  0
POLYLINE
  8
LAYER_2
 40
0.1764
 41
0.1764
 66
1
 10
0
 20
0
 30
0
  0
VERTEX
  8
LAYER_2
 10
131.1054
 20
-165.1226
 42
0.0605495656
  0
VERTEX
  8
LAYER_2
 10
131.4563
 20
-165.1953
  0
SEQEND
  0
ENDBLK
  0
BLOCK
  8
LAYER_2
  2
AIGNBL02020047
 70
64
 10
0
 20
0
 30
0
  3
AIGNBL02020047
  0
POLYLINE
  8
LAYER_2
 40
0.1764
 41
0.1764
 66
1
 10
0
 20
0
 30
0
  0
VERTEX
  8
LAYER_2
 10
131.4229
 20
-165.2901
  0
VERTEX
  8
LAYER_2
 10
131.4563
 20
-165.1953
  0
SEQEND
  0
ENDBLK
  0
BLOCK
  8
LAYER_2
  2
AIGNBL02020048
 70
64
 10
0
 20
0
 30
0
  3
AIGNBL02020048
  0
POLYLINE
  8
LAYER_2
 40
0.1764
 41
0.1764
 66
1
 10
0
 20
0
 30
0
  0
VERTEX
  8
LAYER_2
 10
130.7445
 20
-164.7736
 42
0.1722514844
  0
VERTEX
  8
LAYER_2
 10
130.7445
 20
-164.926
  0
SEQEND
  0
ENDBLK
  0
BLOCK
  8
LAYER_2
  2
AIGNBL02020049
 70
64
 10
0
 20
0
 30
0
  3
AIGNBL02020049
  0
POLYLINE
  8
LAYER_2
 40
0.1764
 41
0.1764
 66
1
 10
0
 20
0
 30
0
  0
VERTEX
  8
LAYER_2
 10
130.5747
 20
-164.7587
  0
VERTEX
  8
LAYER_2
 10
130.7445
 20
-164.7736
  0
SEQEND
  0
ENDBLK
  0
BLOCK
  8
LAYER_2
  2
AIGNBL0202004A
 70
64
 10
0
 20
0
 30
0
  3
AIGNBL0202004A
  0
POLYLINE
  8
LAYER_2
 40
0.1764
 41
0.1764
 66
1
 10
0
 20
0
 30
0
  0
VERTEX
  8
LAYER_2
 10
130.7445
 20
-164.926
  0
VERTEX
  8
LAYER_2
 10
130.5747
 20
-164.941
  0
SEQEND
  0
ENDBLK
  0
BLOCK
  8
LAYER_2
  2
AIGNBL0202004B
 70
64
 10
0
 20
0
 30
0
  3
AIGNBL0202004B
  0
POLYLINE
  8
LAYER_2
 40
0.1764
 41
0.1764
 66
1
 10
0
 20
0
 30
0
  0
VERTEX
  8
LAYER_2
 10
131.1054
 20
-164.4905
 42
0.07491166711
  0
VERTEX
  8
LAYER_2
 10
130.8899
 20
-164.5982
  0
SEQEND
  0
ENDBLK
  0
BLOCK
  8
LAYER_2
  2
AIGNBL0202004C
 70
64
 10
0
 20
0
 30
0
  3
AIGNBL0202004C
  0
POLYLINE
  8
LAYER_2
 40
0.1764
 41
0.1764
 66
1
 10
0
 20
0
 30
0
  0
VERTEX
  8
LAYER_2
 10
131.0064
 20
-164.4198
  0
VERTEX
  8
LAYER_2
 10
131.1054
 20
-164.4905
  0
SEQEND
  0
ENDBLK
  0
BLOCK
  8
LAYER_2
  2
AIGNBL0202004D
 70
64
 10
0
 20
0
 30
0
  3
AIGNBL0202004D
  0
POLYLINE
  8
LAYER_2
 40
0.1764
 41
0.1764
 66
1
 10
0
 20
0
 30
0
  0
VERTEX
  8
LAYER_2
 10
130.8899
 20
-164.5982
  0
VERTEX
  8
LAYER_2
 10
130.7486
 20
-164.5487
  0
SEQEND
  0
ENDBLK
  0
BLOCK
  8
LAYER_2
  2
AIGNBL0202004E
 70
64
 10
0
 20
0
 30
0
  3
AIGNBL0202004E
  0
POLYLINE
  8
LAYER_2
 40
0.1764
 41
0.1764
 66
1
 10
0
 20
0
 30
0
  0
VERTEX
  8
LAYER_2
 10
131.791
 20
-164.3328
  0
VERTEX
  8
LAYER_2
 10
131.761
 20
-164.4178
  0
SEQEND
  0
ENDBLK
  0
BLOCK
  8
LAYER_2
  2
AIGNBL0202004F
 70
64
 10
0
 20
0
 30
0
  3
AIGNBL0202004F
  0
POLYLINE
  8
LAYER_2
 40
0.1764
 41
0.1764
 66
1
 10
0
 20
0
 30
0
  0
VERTEX
  8
LAYER_2
 10
131.4563
 20
-164.4178
  0
VERTEX
  8
LAYER_2
 10
131.4263
 20
-164.3328
  0
SEQEND
  0
ENDBLK
  0
BLOCK
  8
LAYER_2
  2
AIGNBL02020050
 70
64
 10
0
 20
0
 30
0
  3
AIGNBL02020050
  0
POLYLINE
  8
LAYER_2
 40
0.1764
 41
0.1764
 66
1
 10
0
 20
0
 30
0
  0
VERTEX
  8
LAYER_2
 10
132.4687
 20
-164.5487
  0
VERTEX
  8
LAYER_2
 10
132.3274
 20
-164.5982
  0
SEQEND
  0
ENDBLK
  0
BLOCK
  8
LAYER_2
  2
AIGNBL02020051
 70
64
 10
0
 20
0
 30
0
  3
AIGNBL02020051
  0
POLYLINE
  8
LAYER_2
 40
0.1764
 41
0.1764
 66
1
 10
0
 20
0
 30
0
  0
VERTEX
  8
LAYER_2
 10
132.1119
 20
-164.4905
  0
VERTEX
  8
LAYER_2
 10
132.2109
 20
-164.4198
  0
SEQEND
  0
ENDBLK
  0
BLOCK
  8
LAYER_2
  2
AIGNBL02020052
 70
64
 10
0
 20
0
 30
0
  3
AIGNBL02020052
  0
POLYLINE
  8
LAYER_2
 40
0.1764
 41
0.1764
 66
1
 10
0
 20
0
 30
0
  0
VERTEX
  8
LAYER_2
 10
132.6426
 20
-164.941
  0
VERTEX
  8
LAYER_2
 10
132.4727
 20
-164.926
  0
SEQEND
  0
ENDBLK
  0
BLOCK
  8
LAYER_2
  2
AIGNBL02020053
 70
64
 10
0
 20
0
 30
0
  3
AIGNBL02020053
  0
POLYLINE
  8
LAYER_2
 40
0.1764
 41
0.1764
 66
1
 10
0
 20
0
 30
0
  0
VERTEX
  8
LAYER_2
 10
132.4727
 20
-164.7736
  0
VERTEX
  8
LAYER_2
 10
132.6426
 20
-164.7587
  0
SEQEND
  0
ENDBLK
  0
BLOCK
  8
LAYER_2
  2
AIGNBL02020054
 70
64
 10
0
 20
0
 30
0
  3
AIGNBL02020054
  0
POLYLINE
  8
LAYER_2
 40
0.1764
 41
0.1764
 66
1
 10
0
 20
0
 30
0
  0
VERTEX
  8
LAYER_2
 10
132.2109
 20
-165.2799
  0
VERTEX
  8
LAYER_2
 10
132.1119
 20
-165.2092
  0
SEQEND
  0
ENDBLK
  0
BLOCK
  8
LAYER_2
  2
AIGNBL02020055
 70
64
 10
0
 20
0
 30
0
  3
AIGNBL02020055
  0
POLYLINE
  8
LAYER_2
 40
0.1764
 41
0.1764
 66
1
 10
0
 20
0
 30
0
  0
VERTEX
  8
LAYER_2
 10
132.3274
 20
-165.1015
  0
VERTEX
  8
LAYER_2
 10
132.4687
 20
-165.1509
  0
SEQEND
  0
ENDBLK
  0
BLOCK
  8
LAYER_2
  2
AIGNBL02020056
 70
64
 10
0
 20
0
 30
0
  3
AIGNBL02020056
  0
POLYLINE
  8
LAYER_2
 40
0.1764
 41
0.1764
 66
1
 10
0
 20
0
 30
0
  0
VERTEX
  8
LAYER_2
 10
131.4263
 20
-165.3668
  0
VERTEX
  8
LAYER_2
 10
131.4563
 20
-165.2819
  0
SEQEND
  0
ENDBLK
  0
BLOCK
  8
LAYER_2
  2
AIGNBL02020057
 70
64
 10
0
 20
0
 30
0
  3
AIGNBL02020057
  0
POLYLINE
  8
LAYER_2
 40
0.1764
 41
0.1764
 66
1
 10
0
 20
0
 30
0
  0
VERTEX
  8
LAYER_2
 10
131.761
 20
-165.2819
  0
VERTEX
  8
LAYER_2
 10
131.791
 20
-165.3668
  0
SEQEND
  0
ENDBLK
  0
BLOCK
  8
LAYER_2
  2
AIGNBL02020058
 70
64
 10
0
 20
0
 30
0
  3
AIGNBL02020058
  0
POLYLINE
  8
LAYER_2
 40
0.1764
 41
0.1764
 66
1
 10
0
 20
0
 30
0
  0
VERTEX
  8
LAYER_2
 10
131.7944
 20
-164.2959
  0
VERTEX
  8
LAYER_2
 10
131.7944
 20
-164.3057
  0
SEQEND
  0
ENDBLK
  0
BLOCK
  8
LAYER_2
  2
AIGNBL02020059
 70
64
 10
0
 20
0
 30
0
  3
AIGNBL02020059
  0
POLYLINE
  8
LAYER_2
 40
0.1764
 41
0.1764
 66
1
 10
0
 20
0
 30
0
  0
VERTEX
  8
LAYER_2
 10
132.2223
 20
-164.3804
  0
VERTEX
  8
LAYER_2
 10
132.2223
 20
-164.3943
  0
SEQEND
  0
ENDBLK
  0
BLOCK
  8
LAYER_2
  2
AIGNBL0202005A
 70
64
 10
0
 20
0
 30
0
  3
AIGNBL0202005A
  0
POLYLINE
  8
LAYER_2
 40
0.1764
 41
0.1764
 66
1
 10
0
 20
0
 30
0
  0
VERTEX
  8
LAYER_2
 10
132.4851
 20
-164.5033
  0
VERTEX
  8
LAYER_2
 10
132.4851
 20
-164.5257
  0
SEQEND
  0
ENDBLK
  0
BLOCK
  8
LAYER_2
  2
AIGNBL0202005B
 70
64
 10
0
 20
0
 30
0
  3
AIGNBL0202005B
  0
POLYLINE
  8
LAYER_2
 40
0.1764
 41
0.1764
 66
1
 10
0
 20
0
 30
0
  0
VERTEX
  8
LAYER_2
 10
132.6623
 20
-164.682
  0
VERTEX
  8
LAYER_2
 10
132.6623
 20
-164.7396
  0
SEQEND
  0
ENDBLK
  0
BLOCK
  8
LAYER_2
  2
AIGNBL0202005C
 70
64
 10
0
 20
0
 30
0
  3
AIGNBL0202005C
  0
POLYLINE
  8
LAYER_2
 40
0.1764
 41
0.1764
 66
1
 10
0
 20
0
 30
0
  0
VERTEX
  8
LAYER_2
 10
132.6712
 20
-164.8951
 42
0.1143459763
  0
VERTEX
  8
LAYER_2
 10
132.6717
 20
-164.7721
  0
SEQEND
  0
ENDBLK
  0
BLOCK
  8
LAYER_2
  2
AIGNBL0202005D
 70
64
 10
0
 20
0
 30
0
  3
AIGNBL0202005D
  0
POLYLINE
  8
LAYER_2
 40
0.1764
 41
0.1764
 66
1
 10
0
 20
0
 30
0
  0
VERTEX
  8
LAYER_2
 10
132.4851
 20
-165.0701
 42
0.0912062029
  0
VERTEX
  8
LAYER_2
 10
132.6192
 20
-164.9389
  0
SEQEND
  0
ENDBLK
  0
BLOCK
  8
LAYER_2
  2
AIGNBL0202005E
 70
64
 10
0
 20
0
 30
0
  3
AIGNBL0202005E
  0
POLYLINE
  8
LAYER_2
 40
0.1764
 41
0.1764
 66
1
 10
0
 20
0
 30
0
  0
VERTEX
  8
LAYER_2
 10
132.4851
 20
-165.0701
  0
VERTEX
  8
LAYER_2
 10
132.4851
 20
-165.1393
  0
SEQEND
  0
ENDBLK
  0
BLOCK
  8
LAYER_2
  2
AIGNBL0202005F
 70
64
 10
0
 20
0
 30
0
  3
AIGNBL0202005F
  0
POLYLINE
  8
LAYER_2
 40
0.1764
 41
0.1764
 66
1
 10
0
 20
0
 30
0
  0
VERTEX
  8
LAYER_2
 10
131.7944
 20
-165.2901
 42
0.04837987832
  0
VERTEX
  8
LAYER_2
 10
132.1383
 20
-165.228
  0
SEQEND
  0
ENDBLK
  0
BLOCK
  8
LAYER_2
  2
AIGNBL02020060
 70
64
 10
0
 20
0
 30
0
  3
AIGNBL02020060
  0
POLYLINE
  8
LAYER_2
 40
0.1764
 41
0.1764
 66
1
 10
0
 20
0
 30
0
  0
VERTEX
  8
LAYER_2
 10
131.7944
 20
-165.2901
  0
VERTEX
  8
LAYER_2
 10
131.7944
 20
-165.3593
  0
SEQEND
  0
ENDBLK
  0
BLOCK
  8
LAYER_2
  2
AIGNBL02020061
 70
64
 10
0
 20
0
 30
0
  3
AIGNBL02020061
  0
POLYLINE
  8
LAYER_2
 40
0.1764
 41
0.1764
 66
1
 10
0
 20
0
 30
0
  0
VERTEX
  8
LAYER_2
 10
130.8899
 20
-165.1015
 42
0.06712526466
  0
VERTEX
  8
LAYER_2
 10
131.1054
 20
-165.2092
  0
SEQEND
  0
ENDBLK
  0
BLOCK
  8
LAYER_2
  2
AIGNBL02020062
 70
64
 10
0
 20
0
 30
0
  3
AIGNBL02020062
  0
POLYLINE
  8
LAYER_2
 40
0.1764
 41
0.1764
 66
1
 10
0
 20
0
 30
0
  0
VERTEX
  8
LAYER_2
 10
130.7486
 20
-165.1509
  0
VERTEX
  8
LAYER_2
 10
130.8899
 20
-165.1015
  0
SEQEND
  0
ENDBLK
  0
BLOCK
  8
LAYER_2
  2
AIGNBL02020063
 70
64
 10
0
 20
0
 30
0
  3
AIGNBL02020063
  0
POLYLINE
  8
LAYER_2
 40
0.1764
 41
0.1764
 66
1
 10
0
 20
0
 30
0
  0
VERTEX
  8
LAYER_2
 10
131.1054
 20
-165.2092
  0
VERTEX
  8
LAYER_2
 10
131.0064
 20
-165.2799
  0
SEQEND
  0
ENDBLK
  0
BLOCK
  8
LAYER_2
  2
AIGNBL02020064
 70
64
 10
0
 20
0
 30
0
  3
AIGNBL02020064
  0
POLYLINE
  8
LAYER_2
 40
0.1764
 41
0.1764
 66
1
 10
0
 20
0
 30
0
  0
VERTEX
  8
LAYER_2
 10
130.8899
 20
-165.1015
  0
VERTEX
  8
LAYER_2
 10
130.8899
 20
-165.0149
  0
SEQEND
  0
ENDBLK
  0
BLOCK
  8
LAYER_2
  2
AIGNBL02020065
 70
64
 10
0
 20
0
 30
0
  3
AIGNBL02020065
  0
POLYLINE
  8
LAYER_2
 40
0.1764
 41
0.1764
 66
1
 10
0
 20
0
 30
0
  0
VERTEX
  8
LAYER_2
 10
130.7322
 20
-165.0701
  0
VERTEX
  8
LAYER_2
 10
130.8899
 20
-165.0149
  0
SEQEND
  0
ENDBLK
  0
BLOCK
  8
LAYER_2
  2
AIGNBL02020066
 70
64
 10
0
 20
0
 30
0
  3
AIGNBL02020066
  0
POLYLINE
  8
LAYER_2
 40
0.1764
 41
0.1764
 66
1
 10
0
 20
0
 30
0
  0
VERTEX
  8
LAYER_2
 10
130.7322
 20
-165.1393
  0
VERTEX
  8
LAYER_2
 10
130.7486
 20
-165.1509
  0
SEQEND
  0
ENDBLK
  0
BLOCK
  8
LAYER_2
  2
AIGNBL02020067
 70
64
 10
0
 20
0
 30
0
  3
AIGNBL02020067
  0
POLYLINE
  8
LAYER_2
 40
0.1764
 41
0.1764
 66
1
 10
0
 20
0
 30
0
  0
VERTEX
  8
LAYER_2
 10
130.7445
 20
-164.8394
  0
VERTEX
  8
LAYER_2
 10
130.7445
 20
-164.926
  0
SEQEND
  0
ENDBLK
  0
BLOCK
  8
LAYER_2
  2
AIGNBL02020068
 70
64
 10
0
 20
0
 30
0
  3
AIGNBL02020068
  0
POLYLINE
  8
LAYER_2
 40
0.1764
 41
0.1764
 66
1
 10
0
 20
0
 30
0
  0
VERTEX
  8
LAYER_2
 10
130.5558
 20
-164.9303
  0
VERTEX
  8
LAYER_2
 10
130.5747
 20
-164.941
  0
SEQEND
  0
ENDBLK
  0
BLOCK
  8
LAYER_2
  2
AIGNBL02020069
 70
64
 10
0
 20
0
 30
0
  3
AIGNBL02020069
  0
POLYLINE
  8
LAYER_2
 40
0.1764
 41
0.1764
 66
1
 10
0
 20
0
 30
0
  0
VERTEX
  8
LAYER_2
 10
130.7445
 20
-164.8394
 42
0.151795899
  0
VERTEX
  8
LAYER_2
 10
130.8899
 20
-165.0149
  0
SEQEND
  0
ENDBLK
  0
BLOCK
  8
LAYER_2
  2
AIGNBL0202006A
 70
64
 10
0
 20
0
 30
0
  3
AIGNBL0202006A
  0
POLYLINE
  8
LAYER_2
 40
0.1764
 41
0.1764
 66
1
 10
0
 20
0
 30
0
  0
VERTEX
  8
LAYER_2
 10
131.4563
 20
-165.2819
  0
VERTEX
  8
LAYER_2
 10
131.4563
 20
-165.1953
  0
SEQEND
  0
ENDBLK
  0
BLOCK
  8
LAYER_2
  2
AIGNBL0202006B
 70
64
 10
0
 20
0
 30
0
  3
AIGNBL0202006B
  0
POLYLINE
  8
LAYER_2
 40
0.1764
 41
0.1764
 66
1
 10
0
 20
0
 30
0
  0
VERTEX
  8
LAYER_2
 10
131.4229
 20
-165.3593
  0
VERTEX
  8
LAYER_2
 10
131.4263
 20
-165.3668
  0
SEQEND
  0
ENDBLK
  0
BLOCK
  8
LAYER_2
  2
AIGNBL0202006C
 70
64
 10
0
 20
0
 30
0
  3
AIGNBL0202006C
  0
POLYLINE
  8
LAYER_2
 40
0.1764
 41
0.1764
 66
1
 10
0
 20
0
 30
0
  0
VERTEX
  8
LAYER_2
 10
131.1054
 20
-165.1226
  0
VERTEX
  8
LAYER_2
 10
131.1054
 20
-165.2092
  0
SEQEND
  0
ENDBLK
  0
BLOCK
  8
LAYER_2
  2
AIGNBL0202006D
 70
64
 10
0
 20
0
 30
0
  3
AIGNBL0202006D
  0
POLYLINE
  8
LAYER_2
 40
0.1764
 41
0.1764
 66
1
 10
0
 20
0
 30
0
  0
VERTEX
  8
LAYER_2
 10
130.9998
 20
-165.2814
  0
VERTEX
  8
LAYER_2
 10
131.0064
 20
-165.2799
  0
SEQEND
  0
ENDBLK
  0
BLOCK
  8
LAYER_2
  2
AIGNBL0202006E
 70
64
 10
0
 20
0
 30
0
  3
AIGNBL0202006E
  0
POLYLINE
  8
LAYER_2
 40
0.1764
 41
0.1764
 66
1
 10
0
 20
0
 30
0
  0
VERTEX
  8
LAYER_2
 10
132.2109
 20
-165.2799
  0
VERTEX
  8
LAYER_2
 10
132.2175
 20
-165.2814
  0
SEQEND
  0
ENDBLK
  0
BLOCK
  8
LAYER_2
  2
AIGNBL0202006F
 70
64
 10
0
 20
0
 30
0
  3
AIGNBL0202006F
  0
POLYLINE
  8
LAYER_2
 40
0.1764
 41
0.1764
 66
1
 10
0
 20
0
 30
0
  0
VERTEX
  8
LAYER_2
 10
131.761
 20
-165.1953
  0
VERTEX
  8
LAYER_2
 10
131.7944
 20
-165.2901
  0
SEQEND
  0
ENDBLK
  0
BLOCK
  8
LAYER_2
  2
AIGNBL02020070
 70
64
 10
0
 20
0
 30
0
  3
AIGNBL02020070
  0
POLYLINE
  8
LAYER_2
 40
0.1764
 41
0.1764
 66
1
 10
0
 20
0
 30
0
  0
VERTEX
  8
LAYER_2
 10
131.791
 20
-165.3668
  0
VERTEX
  8
LAYER_2
 10
131.7944
 20
-165.3593
  0
SEQEND
  0
ENDBLK
  0
BLOCK
  8
LAYER_2
  2
AIGNBL02020071
 70
64
 10
0
 20
0
 30
0
  3
AIGNBL02020071
  0
POLYLINE
  8
LAYER_2
 40
0.1764
 41
0.1764
 66
1
 10
0
 20
0
 30
0
  0
VERTEX
  8
LAYER_2
 10
132.6426
 20
-164.941
  0
VERTEX
  8
LAYER_2
 10
132.6615
 20
-164.9303
  0
SEQEND
  0
ENDBLK
  0
BLOCK
  8
LAYER_2
  2
AIGNBL02020072
 70
64
 10
0
 20
0
 30
0
  3
AIGNBL02020072
  0
POLYLINE
  8
LAYER_2
 40
0.1764
 41
0.1764
 66
1
 10
0
 20
0
 30
0
  0
VERTEX
  8
LAYER_2
 10
132.3274
 20
-165.0149
  0
VERTEX
  8
LAYER_2
 10
132.4851
 20
-165.0701
  0
SEQEND
  0
ENDBLK
  0
BLOCK
  8
LAYER_2
  2
AIGNBL02020073
 70
64
 10
0
 20
0
 30
0
  3
AIGNBL02020073
  0
POLYLINE
  8
LAYER_2
 40
0.1764
 41
0.1764
 66
1
 10
0
 20
0
 30
0
  0
VERTEX
  8
LAYER_2
 10
132.4687
 20
-165.1509
  0
VERTEX
  8
LAYER_2
 10
132.4851
 20
-165.1393
  0
SEQEND
  0
ENDBLK
  0
BLOCK
  8
LAYER_2
  2
AIGNBL02020074
 70
64
 10
0
 20
0
 30
0
  3
AIGNBL02020074
  0
POLYLINE
  8
LAYER_2
 40
0.1764
 41
0.1764
 66
1
 10
0
 20
0
 30
0
  0
VERTEX
  8
LAYER_2
 10
132.4687
 20
-164.5487
  0
VERTEX
  8
LAYER_2
 10
132.4851
 20
-164.5257
  0
SEQEND
  0
ENDBLK
  0
BLOCK
  8
LAYER_2
  2
AIGNBL02020075
 70
64
 10
0
 20
0
 30
0
  3
AIGNBL02020075
  0
POLYLINE
  8
LAYER_2
 40
0.1764
 41
0.1764
 66
1
 10
0
 20
0
 30
0
  0
VERTEX
  8
LAYER_2
 10
132.4727
 20
-164.6871
  0
VERTEX
  8
LAYER_2
 10
132.6561
 20
-164.6709
  0
SEQEND
  0
ENDBLK
  0
BLOCK
  8
LAYER_2
  2
AIGNBL02020076
 70
64
 10
0
 20
0
 30
0
  3
AIGNBL02020076
  0
POLYLINE
  8
LAYER_2
 40
0.1764
 41
0.1764
 66
1
 10
0
 20
0
 30
0
  0
VERTEX
  8
LAYER_2
 10
132.6426
 20
-164.7587
  0
VERTEX
  8
LAYER_2
 10
132.6623
 20
-164.7396
  0
SEQEND
  0
ENDBLK
  0
BLOCK
  8
LAYER_2
  2
AIGNBL02020077
 70
64
 10
0
 20
0
 30
0
  3
AIGNBL02020077
  0
POLYLINE
  8
LAYER_2
 40
0.1764
 41
0.1764
 66
1
 10
0
 20
0
 30
0
  0
VERTEX
  8
LAYER_2
 10
132.1119
 20
-164.4039
  0
VERTEX
  8
LAYER_2
 10
132.1683
 20
-164.3636
  0
SEQEND
  0
ENDBLK
  0
BLOCK
  8
LAYER_2
  2
AIGNBL02020078
 70
64
 10
0
 20
0
 30
0
  3
AIGNBL02020078
  0
POLYLINE
  8
LAYER_2
 40
0.1764
 41
0.1764
 66
1
 10
0
 20
0
 30
0
  0
VERTEX
  8
LAYER_2
 10
132.2109
 20
-164.4198
  0
VERTEX
  8
LAYER_2
 10
132.2223
 20
-164.3943
  0
SEQEND
  0
ENDBLK
  0
BLOCK
  8
LAYER_2
  2
AIGNBL02020079
 70
64
 10
0
 20
0
 30
0
  3
AIGNBL02020079
  0
POLYLINE
  8
LAYER_2
 40
0.1764
 41
0.1764
 66
1
 10
0
 20
0
 30
0
  0
VERTEX
  8
LAYER_2
 10
131.1054
 20
-164.4905
  0
VERTEX
  8
LAYER_2
 10
131.1054
 20
-164.4039
  0
SEQEND
  0
ENDBLK
  0
BLOCK
  8
LAYER_2
  2
AIGNBL0202007A
 70
64
 10
0
 20
0
 30
0
  3
AIGNBL0202007A
  0
POLYLINE
  8
LAYER_2
 40
0.1764
 41
0.1764
 66
1
 10
0
 20
0
 30
0
  0
VERTEX
  8
LAYER_2
 10
131.0489
 20
-164.3636
  0
VERTEX
  8
LAYER_2
 10
131.1054
 20
-164.4039
  0
SEQEND
  0
ENDBLK
  0
BLOCK
  8
LAYER_2
  2
AIGNBL0202007B
 70
64
 10
0
 20
0
 30
0
  3
AIGNBL0202007B
  0
POLYLINE
  8
LAYER_2
 40
0.1764
 41
0.1764
 66
1
 10
0
 20
0
 30
0
  0
VERTEX
  8
LAYER_2
 10
130.995
 20
-164.3943
  0
VERTEX
  8
LAYER_2
 10
131.0064
 20
-164.4198
  0
SEQEND
  0
ENDBLK
  0
BLOCK
  8
LAYER_2
  2
AIGNBL0202007C
 70
64
 10
0
 20
0
 30
0
  3
AIGNBL0202007C
  0
POLYLINE
  8
LAYER_2
 40
0.1764
 41
0.1764
 66
1
 10
0
 20
0
 30
0
  0
VERTEX
  8
LAYER_2
 10
131.4229
 20
-164.3057
  0
VERTEX
  8
LAYER_2
 10
131.4263
 20
-164.3328
  0
SEQEND
  0
ENDBLK
  0
BLOCK
  8
LAYER_2
  2
AIGNBL0202007D
 70
64
 10
0
 20
0
 30
0
  3
AIGNBL0202007D
  0
POLYLINE
  8
LAYER_2
 40
0.1764
 41
0.1764
 66
1
 10
0
 20
0
 30
0
  0
VERTEX
  8
LAYER_2
 10
131.4268
 20
-164.334
 42
0.05932118754
  0
VERTEX
  8
LAYER_2
 10
131.1054
 20
-164.4039
  0
SEQEND
  0
ENDBLK
  0
BLOCK
  8
LAYER_2
  2
AIGNBL0202007E
 70
64
 10
0
 20
0
 30
0
  3
AIGNBL0202007E
  0
POLYLINE
  8
LAYER_2
 40
0.1764
 41
0.1764
 66
1
 10
0
 20
0
 30
0
  0
VERTEX
  8
LAYER_2
 10
130.7445
 20
-164.7736
  0
VERTEX
  8
LAYER_2
 10
130.7445
 20
-164.6871
  0
SEQEND
  0
ENDBLK
  0
BLOCK
  8
LAYER_2
  2
AIGNBL0202007F
 70
64
 10
0
 20
0
 30
0
  3
AIGNBL0202007F
  0
POLYLINE
  8
LAYER_2
 40
0.1764
 41
0.1764
 66
1
 10
0
 20
0
 30
0
  0
VERTEX
  8
LAYER_2
 10
130.5612
 20
-164.6709
  0
VERTEX
  8
LAYER_2
 10
130.7445
 20
-164.6871
  0
SEQEND
  0
ENDBLK
  0
BLOCK
  8
LAYER_2
  2
AIGNBL02020080
 70
64
 10
0
 20
0
 30
0
  3
AIGNBL02020080
  0
POLYLINE
  8
LAYER_2
 40
0.1764
 41
0.1764
 66
1
 10
0
 20
0
 30
0
  0
VERTEX
  8
LAYER_2
 10
130.555
 20
-164.7396
 42
0.3402547588
  0
VERTEX
  8
LAYER_2
 10
130.5747
 20
-164.7587
  0
SEQEND
  0
ENDBLK
  0
BLOCK
  8
LAYER_2
  2
AIGNBL02020081
 70
64
 10
0
 20
0
 30
0
  3
AIGNBL02020081
  0
POLYLINE
  8
LAYER_2
 40
0.1764
 41
0.1764
 66
1
 10
0
 20
0
 30
0
  0
VERTEX
  8
LAYER_2
 10
130.7322
 20
-164.5257
  0
VERTEX
  8
LAYER_2
 10
130.7486
 20
-164.5487
  0
SEQEND
  0
ENDBLK
  0
BLOCK
  8
LAYER_2
  2
AIGNBL02020082
 70
64
 10
0
 20
0
 30
0
  3
AIGNBL02020082
  0
POLYLINE
  8
LAYER_2
 40
0.1764
 41
0.1764
 66
1
 10
0
 20
0
 30
0
  0
VERTEX
  8
LAYER_2
 10
130.818
 20
-164.573
 42
0.1138982922
  0
VERTEX
  8
LAYER_2
 10
130.7445
 20
-164.6871
  0
SEQEND
  0
ENDBLK
  0
BLOCK
  8
LAYER_2
  2
AIGNBL02020083
 70
64
 10
0
 20
0
 30
0
  3
AIGNBL02020083
  0
POLYLINE
  8
LAYER_2
 40
0.1764
 41
0.1764
 66
1
 10
0
 20
0
 30
0
  0
VERTEX
  8
LAYER_2
 10
130.8715
 20
-164.8343
  0
VERTEX
  8
LAYER_2
 10
130.8716
 20
-164.8373
  0
VERTEX
  8
LAYER_2
 10
130.8768
 20
-164.8649
  0
VERTEX
  8
LAYER_2
 10
130.8855
 20
-164.892
  0
VERTEX
  8
LAYER_2
 10
130.8978
 20
-164.9187
  0
VERTEX
  8
LAYER_2
 10
130.9135
 20
-164.9449
  0
VERTEX
  8
LAYER_2
 10
130.9327
 20
-164.9704
  0
VERTEX
  8
LAYER_2
 10
130.9553
 20
-164.9952
  0
VERTEX
  8
LAYER_2
 10
130.9813
 20
-165.0191
  0
VERTEX
  8
LAYER_2
 10
131.0105
 20
-165.0419
  0
VERTEX
  8
LAYER_2
 10
131.0426
 20
-165.0635
  0
VERTEX
  8
LAYER_2
 10
131.0776
 20
-165.0837
  0
VERTEX
  8
LAYER_2
 10
131.1151
 20
-165.1025
  0
VERTEX
  8
LAYER_2
 10
131.155
 20
-165.1198
  0
VERTEX
  8
LAYER_2
 10
131.197
 20
-165.1356
  0
VERTEX
  8
LAYER_2
 10
131.241
 20
-165.1497
  0
VERTEX
  8
LAYER_2
 10
131.2867
 20
-165.1622
  0
VERTEX
  8
LAYER_2
 10
131.3339
 20
-165.1729
  0
VERTEX
  8
LAYER_2
 10
131.3825
 20
-165.1819
  0
VERTEX
  8
LAYER_2
 10
131.432
 20
-165.1892
  0
VERTEX
  8
LAYER_2
 10
131.4825
 20
-165.1946
  0
VERTEX
  8
LAYER_2
 10
131.5335
 20
-165.1982
  0
VERTEX
  8
LAYER_2
 10
131.5848
 20
-165.2
  0
VERTEX
  8
LAYER_2
 10
131.6363
 20
-165.1999
  0
VERTEX
  8
LAYER_2
 10
131.6876
 20
-165.198
  0
VERTEX
  8
LAYER_2
 10
131.7386
 20
-165.1943
  0
VERTEX
  8
LAYER_2
 10
131.7889
 20
-165.1887
  0
VERTEX
  8
LAYER_2
 10
131.8384
 20
-165.1813
  0
VERTEX
  8
LAYER_2
 10
131.8868
 20
-165.1722
  0
VERTEX
  8
LAYER_2
 10
131.9339
 20
-165.1613
  0
VERTEX
  8
LAYER_2
 10
131.9795
 20
-165.1488
  0
VERTEX
  8
LAYER_2
 10
132.0233
 20
-165.1345
  0
VERTEX
  8
LAYER_2
 10
132.0651
 20
-165.1187
  0
VERTEX
  8
LAYER_2
 10
132.1048
 20
-165.1013
  0
VERTEX
  8
LAYER_2
 10
132.1422
 20
-165.0824
  0
VERTEX
  8
LAYER_2
 10
132.177
 20
-165.062
  0
VERTEX
  8
LAYER_2
 10
132.2091
 20
-165.0402
  0
VERTEX
  8
LAYER_2
 10
132.2383
 20
-165.0171
  0
VERTEX
  8
LAYER_2
 10
132.2644
 20
-164.9927
  0
VERTEX
  8
LAYER_2
 10
132.2872
 20
-164.9673
  0
VERTEX
  8
LAYER_2
 10
132.3065
 20
-164.9408
  0
VERTEX
  8
LAYER_2
 10
132.3221
 20
-164.9136
  0
VERTEX
  8
LAYER_2
 10
132.334
 20
-164.8859
  0
VERTEX
  8
LAYER_2
 10
132.3421
 20
-164.8579
  0
VERTEX
  8
LAYER_2
 10
132.3464
 20
-164.8299
  0
SEQEND
  0
ENDBLK
  0
BLOCK
  8
LAYER_2
  2
AIGNBL02020084
 70
64
 10
0
 20
0
 30
0
  3
AIGNBL02020084
  0
POLYLINE
  8
LAYER_2
 40
0.1764
 41
0.1764
 66
1
 10
0
 20
0
 30
0
  0
VERTEX
  8
LAYER_2
 10
130.8613
 20
-164.7451
  0
VERTEX
  8
LAYER_2
 10
130.8713
 20
-164.8347
  0
SEQEND
  0
ENDBLK
  0
BLOCK
  8
LAYER_2
  2
AIGNBL02020085
 70
64
 10
0
 20
0
 30
0
  3
AIGNBL02020085
  0
POLYLINE
  8
LAYER_2
 40
0.1764
 41
0.1764
 66
1
 10
0
 20
0
 30
0
  0
VERTEX
  8
LAYER_2
 10
132.346
 20
-164.8347
  0
VERTEX
  8
LAYER_2
 10
132.3559
 20
-164.7451
  0
SEQEND
  0
ENDBLK
  0
BLOCK
  8
LAYER_2
  2
AIGNBL02020086
 70
64
 10
0
 20
0
 30
0
  3
AIGNBL02020086
  0
POLYLINE
  8
LAYER_2
 40
0.1764
 41
0.1764
 66
1
 10
0
 20
0
 30
0
  0
VERTEX
  8
LAYER_2
 10
132.6786
 20
-164.8325
  0
VERTEX
  8
LAYER_2
 10
132.6786
 20
-164.7243
  0
SEQEND
  0
ENDBLK
  0
BLOCK
  8
LAYER_2
  2
AIGNBL02020087
 70
64
 10
0
 20
0
 30
0
  3
AIGNBL02020087
  0
POLYLINE
  8
LAYER_2
 40
0.1764
 41
0.1764
 66
1
 10
0
 20
0
 30
0
  0
VERTEX
  8
LAYER_2
 10
130.5387
 20
-164.7243
  0
VERTEX
  8
LAYER_2
 10
130.5387
 20
-164.8325
  0
SEQEND
  0
ENDBLK
  0
BLOCK
  8
LAYER_2
  2
AIGNBL02020088
 70
64
 10
0
 20
0
 30
0
  3
AIGNBL02020088
  0
POLYLINE
  8
LAYER_2
 40
0.1764
 41
0.1764
 66
1
 10
0
 20
0
 30
0
  0
VERTEX
  8
LAYER_2
 10
132.6615
 20
-164.9303
  0
VERTEX
  8
LAYER_2
 10
132.6704
 20
-164.8985
  0
SEQEND
  0
ENDBLK
  0
BLOCK
  8
LAYER_2
  2
AIGNBL02020089
 70
64
 10
0
 20
0
 30
0
  3
AIGNBL02020089
  0
POLYLINE
  8
LAYER_2
 40
0.1764
 41
0.1764
 66
1
 10
0
 20
0
 30
0
  0
VERTEX
  8
LAYER_2
 10
130.5464
 20
-164.8961
  0
VERTEX
  8
LAYER_2
 10
130.5558
 20
-164.9303
  0
SEQEND
  0
ENDBLK
  0
BLOCK
  8
LAYER_2
  2
AIGNBL0202008A
 70
64
 10
0
 20
0
 30
0
  3
AIGNBL0202008A
  0
POLYLINE
  8
LAYER_2
 40
0.1764
 41
0.1764
 66
1
 10
0
 20
0
 30
0
  0
VERTEX
  8
LAYER_2
 10
130.737
 20
-165.1499
 42
0.0700981423
  0
VERTEX
  8
LAYER_2
 10
130.9998
 20
-165.2814
  0
SEQEND
  0
ENDBLK
  0
BLOCK
  8
LAYER_2
  2
AIGNBL0202008B
 70
64
 10
0
 20
0
 30
0
  3
AIGNBL0202008B
  0
POLYLINE
  8
LAYER_2
 40
0.1764
 41
0.1764
 66
1
 10
0
 20
0
 30
0
  0
VERTEX
  8
LAYER_2
 10
131.4246
 20
-165.3694
 42
0.04397690986
  0
VERTEX
  8
LAYER_2
 10
131.7927
 20
-165.3694
  0
SEQEND
  0
ENDBLK
  0
BLOCK
  8
LAYER_2
  2
AIGNBL0202008C
 70
64
 10
0
 20
0
 30
0
  3
AIGNBL0202008C
  0
POLYLINE
  8
LAYER_2
 40
0.1764
 41
0.1764
 66
1
 10
0
 20
0
 30
0
  0
VERTEX
  8
LAYER_2
 10
132.2175
 20
-165.2814
 42
0.07006689341
  0
VERTEX
  8
LAYER_2
 10
132.4803
 20
-165.1499
  0
SEQEND
  0
ENDBLK
  0
BLOCK
  8
LAYER_2
  2
AIGNBL0202008D
 70
64
 10
0
 20
0
 30
0
  3
AIGNBL0202008D
  0
POLYLINE
  8
LAYER_2
 40
0.1764
 41
0.1764
 66
1
 10
0
 20
0
 30
0
  0
VERTEX
  8
LAYER_2
 10
129.3714
 20
-157.7316
  0
VERTEX
  8
LAYER_2
 10
130.1948
 20
-157.731
  0
VERTEX
  8
LAYER_2
 10
131.8464
 20
-157.7294
  0
VERTEX
  8
LAYER_2
 10
132.6844
 20
-157.7307
  0
VERTEX
  8
LAYER_2
 10
133.0492
 20
-157.731
  0
VERTEX
  8
LAYER_2
 10
133.2117
 20
-157.7311
  0
VERTEX
  8
LAYER_2
 10
133.3587
 20
-157.7312
  0
VERTEX
  8
LAYER_2
 10
133.8585
 20
-157.7316
  0
SEQEND
  0
ENDBLK
  0
BLOCK
  8
LAYER_2
  2
AIGNBL0202008E
 70
64
 10
0
 20
0
 30
0
  3
AIGNBL0202008E
  0
POLYLINE
  8
LAYER_2
 40
0.1764
 41
0.1764
 66
1
 10
0
 20
0
 30
0
  0
VERTEX
  8
LAYER_2
 10
133.8385
 20
-160.1256
  0
VERTEX
  8
LAYER_2
 10
129.3788
 20
-160.1256
  0
SEQEND
  0
ENDBLK
  0
BLOCK
  8
LAYER_2
  2
AIGNBL0202008F
 70
64
 10
0
 20
0
 30
0
  3
AIGNBL0202008F
  0
POLYLINE
  8
LAYER_2
 40
0.1764
 41
0.1764
 66
1
 10
0
 20
0
 30
0
  0
VERTEX
  8
LAYER_2
 10
129.405
 20
-157.6818
 42
0.3753671464
  0
VERTEX
  8
LAYER_2
 10
129.3588
 20
-157.7321
  0
SEQEND
  0
ENDBLK
  0
BLOCK
  8
LAYER_2
  2
AIGNBL02020090
 70
64
 10
0
 20
0
 30
0
  3
AIGNBL02020090
  0
POLYLINE
  8
LAYER_2
 40
0.1764
 41
0.1764
 66
1
 10
0
 20
0
 30
0
  0
VERTEX
  8
LAYER_2
 10
133.8585
 20
-157.7321
 42
0.3755040905
  0
VERTEX
  8
LAYER_2
 10
133.8123
 20
-157.6818
  0
SEQEND
  0
ENDBLK
  0
BLOCK
  8
LAYER_2
  2
AIGNBL02020091
 70
64
 10
0
 20
0
 30
0
  3
AIGNBL02020091
  0
POLYLINE
  8
LAYER_2
 40
0.1764
 41
0.1764
 66
1
 10
0
 20
0
 30
0
  0
VERTEX
  8
LAYER_2
 10
133.8385
 20
-160.1256
 42
0.3930525236
  0
VERTEX
  8
LAYER_2
 10
133.8585
 20
-160.1056
  0
SEQEND
  0
ENDBLK
  0
BLOCK
  8
LAYER_2
  2
AIGNBL02020092
 70
64
 10
0
 20
0
 30
0
  3
AIGNBL02020092
  0
POLYLINE
  8
LAYER_2
 40
0.1764
 41
0.1764
 66
1
 10
0
 20
0
 30
0
  0
VERTEX
  8
LAYER_2
 10
129.3588
 20
-160.1056
 42
0.3929519787
  0
VERTEX
  8
LAYER_2
 10
129.3788
 20
-160.1256
  0
SEQEND
  0
ENDBLK
  0
BLOCK
  8
LAYER_2
  2
AIGNBL02020093
 70
64
 10
0
 20
0
 30
0
  3
AIGNBL02020093
  0
POLYLINE
  8
LAYER_2
 40
0.1764
 41
0.1764
 66
1
 10
0
 20
0
 30
0
  0
VERTEX
  8
LAYER_2
 10
133.8585
 20
-160.1056
  0
VERTEX
  8
LAYER_2
 10
133.8585
 20
-157.7316
  0
SEQEND
  0
ENDBLK
  0
BLOCK
  8
LAYER_2
  2
AIGNBL02020094
 70
64
 10
0
 20
0
 30
0
  3
AIGNBL02020094
  0
POLYLINE
  8
LAYER_2
 40
0.1764
 41
0.1764
 66
1
 10
0
 20
0
 30
0
  0
VERTEX
  8
LAYER_2
 10
129.3588
 20
-157.7316
  0
VERTEX
  8
LAYER_2
 10
129.3588
 20
-160.1056
  0
SEQEND
  0
ENDBLK
  0
BLOCK
  8
LAYER_2
  2
AIGNBL02020095
 70
64
 10
0
 20
0
 30
0
  3
AIGNBL02020095
  0
POLYLINE
  8
LAYER_2
 40
0.1764
 41
0.1764
 66
1
 10
0
 20
0
 30
0
  0
VERTEX
  8
LAYER_2
 10
133.8085
 20
-157.6818
  0
VERTEX
  8
LAYER_2
 10
133.2828
 20
-157.6464
  0
VERTEX
  8
LAYER_2
 10
132.7253
 20
-157.6197
  0
VERTEX
  8
LAYER_2
 10
132.1672
 20
-157.6036
  0
VERTEX
  8
LAYER_2
 10
131.6089
 20
-157.5983
  0
VERTEX
  8
LAYER_2
 10
131.0506
 20
-157.6036
  0
VERTEX
  8
LAYER_2
 10
130.4925
 20
-157.6197
  0
VERTEX
  8
LAYER_2
 10
129.935
 20
-157.6464
  0
VERTEX
  8
LAYER_2
 10
129.4063
 20
-157.6819
  0
SEQEND
  0
ENDBLK
  0
BLOCK
  8
LAYER_2
  2
AIGNBL02020096
 70
64
 10
0
 20
0
 30
0
  3
AIGNBL02020096
  0
POLYLINE
  8
LAYER_2
 40
0.1764
 41
0.1764
 66
1
 10
0
 20
0
 30
0
  0
VERTEX
  8
LAYER_2
 10
131.7958
 20
-158.5659
 42
0.2740161239
  0
VERTEX
  8
LAYER_2
 10
131.9983
 20
-158.2241
  0
SEQEND
  0
ENDBLK
  0
BLOCK
  8
LAYER_2
  2
AIGNBL02020097
 70
64
 10
0
 20
0
 30
0
  3
AIGNBL02020097
  0
POLYLINE
  8
LAYER_2
 40
0.1764
 41
0.1764
 66
1
 10
0
 20
0
 30
0
  0
VERTEX
  8
LAYER_2
 10
131.9983
 20
-158.2241
 42
0.41423917
  0
VERTEX
  8
LAYER_2
 10
131.6086
 20
-157.8345
  0
SEQEND
  0
ENDBLK
  0
BLOCK
  8
LAYER_2
  2
AIGNBL02020098
 70
64
 10
0
 20
0
 30
0
  3
AIGNBL02020098
  0
POLYLINE
  8
LAYER_2
 40
0.1764
 41
0.1764
 66
1
 10
0
 20
0
 30
0
  0
VERTEX
  8
LAYER_2
 10
131.219
 20
-158.2241
 42
0.4143672298
  0
VERTEX
  8
LAYER_2
 10
131.6084
 20
-158.6137
  0
SEQEND
  0
ENDBLK
  0
BLOCK
  8
LAYER_2
  2
AIGNBL02020099
 70
64
 10
0
 20
0
 30
0
  3
AIGNBL02020099
  0
POLYLINE
  8
LAYER_2
 40
0.1764
 41
0.1764
 66
1
 10
0
 20
0
 30
0
  0
VERTEX
  8
LAYER_2
 10
131.4215
 20
-157.8823
 42
0.2741669935
  0
VERTEX
  8
LAYER_2
 10
131.219
 20
-158.2241
  0
SEQEND
  0
ENDBLK
  0
BLOCK
  8
LAYER_2
  2
AIGNBL0202009A
 70
64
 10
0
 20
0
 30
0
  3
AIGNBL0202009A
  0
POLYLINE
  8
LAYER_2
 40
0.1764
 41
0.1764
 66
1
 10
0
 20
0
 30
0
  0
VERTEX
  8
LAYER_2
 10
131.6086
 20
-158.6137
 42
0.1289291863
  0
VERTEX
  8
LAYER_2
 10
131.8008
 20
-158.5631
  0
SEQEND
  0
ENDBLK
  0
BLOCK
  8
LAYER_2
  2
AIGNBL0202009B
 70
64
 10
0
 20
0
 30
0
  3
AIGNBL0202009B
  0
POLYLINE
  8
LAYER_2
 40
0.1764
 41
0.1764
 66
1
 10
0
 20
0
 30
0
  0
VERTEX
  8
LAYER_2
 10
131.7862
 20
-158.5696
  0
VERTEX
  8
LAYER_2
 10
131.8054
 20
-158.5591
  0
SEQEND
  0
ENDBLK
  0
BLOCK
  8
LAYER_2
  2
AIGNBL0202009C
 70
64
 10
0
 20
0
 30
0
  3
AIGNBL0202009C
  0
POLYLINE
  8
LAYER_2
 40
0.1764
 41
0.1764
 66
1
 10
0
 20
0
 30
0
  0
VERTEX
  8
LAYER_2
 10
131.5716
 20
-157.8374
 42
0.1085772236
  0
VERTEX
  8
LAYER_2
 10
131.4119
 20
-157.8891
  0
SEQEND
  0
ENDBLK
  0
BLOCK
  8
LAYER_2
  2
AIGNBL0202009D
 70
64
 10
0
 20
0
 30
0
  3
AIGNBL0202009D
  0
POLYLINE
  8
LAYER_2
 40
0.1764
 41
0.1764
 66
1
 10
0
 20
0
 30
0
  0
VERTEX
  8
LAYER_2
 10
131.4215
 20
-157.8823
  0
SEQEND
  0
ENDBLK
  0
BLOCK
  8
LAYER_2
  2
AIGNBL0202009E
 70
64
 10
0
 20
0
 30
0
  3
AIGNBL0202009E
  0
POLYLINE
  8
LAYER_2
 40
0.1764
 41
0.1764
 66
1
 10
0
 20
0
 30
0
  0
VERTEX
  8
LAYER_2
 10
131.7957
 20
-158.5659
  0
SEQEND
  0
ENDBLK
  0
BLOCK
  8
LAYER_2
  2
AIGNBL020200A0
 70
64
 10
0
 20
0
 30
0
  3
AIGNBL020200A0
  0
POLYLINE
  8
LAYER_2
 40
0.1764
 41
0.1764
 62
252
 66
1
 10
0
 20
0
 30
0
  0
VERTEX
  8
LAYER_2
 10
216.9962
 20
-192.9201
  0
VERTEX
  8
LAYER_2
 10
218.1979
 20
-192.9241
  0
SEQEND
  0
POLYLINE
  8
LAYER_2
 40
0.1764
 41
0.1764
 62
252
 66
1
 10
0
 20
0
 30
0
  0
VERTEX
  8
LAYER_2
 10
240.9472
 20
-189.84
  0
VERTEX
  8
LAYER_2
 10
240.9472
 20
-174.9199
  0
VERTEX
  8
LAYER_2
 10
195.2435
 20
-174.9199
  0
VERTEX
  8
LAYER_2
 10
195.0959
 20
-174.9609
  0
VERTEX
  8
LAYER_2
 10
194.9852
 20
-175.0717
  0
VERTEX
  8
LAYER_2
 10
194.9442
 20
-175.2193
  0
VERTEX
  8
LAYER_2
 10
194.9442
 20
-176.1215
  0
VERTEX
  8
LAYER_2
 10
194.9852
 20
-176.2693
  0
VERTEX
  8
LAYER_2
 10
195.0959
 20
-176.3799
  0
VERTEX
  8
LAYER_2
 10
195.2435
 20
-176.421
  0
VERTEX
  8
LAYER_2
 10
240.9472
 20
-176.421
  0
SEQEND
  0
POLYLINE
  8
LAYER_2
 40
0.1764
 41
0.1764
 62
252
 66
1
 10
0
 20
0
 30
0
  0
VERTEX
  8
LAYER_2
 10
240.9472
 20
-189.84
  0
VERTEX
  8
LAYER_2
 10
225.3257
 20
-189.84
  0
VERTEX
  8
LAYER_2
 10
214.5519
 20
-189.8482
  0
VERTEX
  8
LAYER_2
 10
201.4979
 20
-189.2904
  0
VERTEX
  8
LAYER_2
 10
201.3133
 20
-189.2167
  0
VERTEX
  8
LAYER_2
 10
201.2149
 20
-189.0402
  0
VERTEX
  8
LAYER_2
 10
199.0371
 20
-176.6671
  0
SEQEND
  0
POLYLINE
  8
LAYER_2
 40
0.1764
 41
0.1764
 62
252
 66
1
 10
0
 20
0
 30
0
  0
VERTEX
  8
LAYER_2
 10
214.5519
 20
-189.8482
  0
VERTEX
  8
LAYER_2
 10
214.7571
 20
-189.9302
  0
VERTEX
  8
LAYER_2
 10
214.8718
 20
-190.1188
  0
VERTEX
  8
LAYER_2
 10
215.0317
 20
-191.8906
  0
VERTEX
  8
LAYER_2
 10
215.1342
 20
-192.0753
  0
VERTEX
  8
LAYER_2
 10
215.327
 20
-192.145
  0
VERTEX
  8
LAYER_2
 10
219.9451
 20
-192.145
  0
SEQEND
  0
POLYLINE
  8
LAYER_2
 40
0.1764
 41
0.1764
 62
252
 66
1
 10
0
 20
0
 30
0
  0
VERTEX
  8
LAYER_2
 10
225.2969
 20
-189.8442
  0
VERTEX
  8
LAYER_2
 10
225.1125
 20
-189.9302
  0
VERTEX
  8
LAYER_2
 10
225.0222
 20
-190.1188
  0
VERTEX
  8
LAYER_2
 10
224.8623
 20
-191.8906
  0
VERTEX
  8
LAYER_2
 10
224.7599
 20
-192.0753
  0
VERTEX
  8
LAYER_2
 10
224.567
 20
-192.145
  0
VERTEX
  8
LAYER_2
 10
219.9451
 20
-192.145
  0
SEQEND
  0
POLYLINE
  8
LAYER_2
 40
0.1764
 41
0.1764
 62
252
 66
1
 10
0
 20
0
 30
0
  0
VERTEX
  8
LAYER_2
 10
222.8978
 20
-192.9201
  0
VERTEX
  8
LAYER_2
 10
216.9962
 20
-192.9201
  0
VERTEX
  8
LAYER_2
 10
216.9962
 20
-192.145
  0
VERTEX
  8
LAYER_2
 10
222.8978
 20
-192.145
  0
VERTEX
  8
LAYER_2
 10
222.8978
 20
-192.9201
  0
SEQEND
  0
ENDBLK
  0
BLOCK
  8
LAYER_2
  2
AIGNBL020200A1
 70
64
 10
0
 20
0
 30
0
  3
AIGNBL020200A1
  0
POLYLINE
  8
LAYER_2
 40
0.1764
 41
0.1764
 66
1
 10
0
 20
0
 30
0
  0
VERTEX
  8
LAYER_2
 10
229.9477
 20
-174.9199
  0
VERTEX
  8
LAYER_2
 10
229.8331
 20
-175.6827
  0
SEQEND
  0
POLYLINE
  8
LAYER_2
 40
0.1764
 41
0.1764
 66
1
 10
0
 20
0
 30
0
  0
VERTEX
  8
LAYER_2
 10
229.7879
 20
-175.9945
  0
VERTEX
  8
LAYER_2
 10
229.6935
 20
-176.622
  0
SEQEND
  0
POLYLINE
  8
LAYER_2
 40
0.1764
 41
0.1764
 66
1
 10
0
 20
0
 30
0
  0
VERTEX
  8
LAYER_2
 10
229.6483
 20
-176.9377
  0
VERTEX
  8
LAYER_2
 10
229.5542
 20
-177.5652
  0
SEQEND
  0
POLYLINE
  8
LAYER_2
 40
0.1764
 41
0.1764
 66
1
 10
0
 20
0
 30
0
  0
VERTEX
  8
LAYER_2
 10
229.5048
 20
-177.8809
  0
VERTEX
  8
LAYER_2
 10
229.4145
 20
-178.5084
  0
SEQEND
  0
POLYLINE
  8
LAYER_2
 40
0.1764
 41
0.1764
 66
1
 10
0
 20
0
 30
0
  0
VERTEX
  8
LAYER_2
 10
229.3653
 20
-178.8202
  0
VERTEX
  8
LAYER_2
 10
229.2712
 20
-179.4519
  0
SEQEND
  0
POLYLINE
  8
LAYER_2
 40
0.1764
 41
0.1764
 66
1
 10
0
 20
0
 30
0
  0
VERTEX
  8
LAYER_2
 10
229.2259
 20
-179.7635
  0
VERTEX
  8
LAYER_2
 10
229.1315
 20
-180.391
  0
SEQEND
  0
POLYLINE
  8
LAYER_2
 40
0.1764
 41
0.1764
 66
1
 10
0
 20
0
 30
0
  0
VERTEX
  8
LAYER_2
 10
229.0865
 20
-180.7068
  0
VERTEX
  8
LAYER_2
 10
228.9922
 20
-181.3342
  0
SEQEND
  0
POLYLINE
  8
LAYER_2
 40
0.1764
 41
0.1764
 66
1
 10
0
 20
0
 30
0
  0
VERTEX
  8
LAYER_2
 10
228.9429
 20
-181.65
  0
VERTEX
  8
LAYER_2
 10
228.8527
 20
-182.2776
  0
SEQEND
  0
POLYLINE
  8
LAYER_2
 40
0.1764
 41
0.1764
 66
1
 10
0
 20
0
 30
0
  0
VERTEX
  8
LAYER_2
 10
228.8035
 20
-182.5891
  0
VERTEX
  8
LAYER_2
 10
228.7091
 20
-183.2207
  0
SEQEND
  0
POLYLINE
  8
LAYER_2
 40
0.1764
 41
0.1764
 66
1
 10
0
 20
0
 30
0
  0
VERTEX
  8
LAYER_2
 10
228.6641
 20
-183.5325
  0
VERTEX
  8
LAYER_2
 10
228.5697
 20
-184.1598
  0
SEQEND
  0
POLYLINE
  8
LAYER_2
 40
0.1764
 41
0.1764
 66
1
 10
0
 20
0
 30
0
  0
VERTEX
  8
LAYER_2
 10
228.5247
 20
-184.4757
  0
VERTEX
  8
LAYER_2
 10
228.4304
 20
-185.1031
  0
SEQEND
  0
POLYLINE
  8
LAYER_2
 40
0.1764
 41
0.1764
 66
1
 10
0
 20
0
 30
0
  0
VERTEX
  8
LAYER_2
 10
228.3811
 20
-185.419
  0
VERTEX
  8
LAYER_2
 10
228.2909
 20
-186.0464
  0
SEQEND
  0
POLYLINE
  8
LAYER_2
 40
0.1764
 41
0.1764
 66
1
 10
0
 20
0
 30
0
  0
VERTEX
  8
LAYER_2
 10
228.2417
 20
-186.3581
  0
VERTEX
  8
LAYER_2
 10
228.1309
 20
-187.1209
  0
VERTEX
  8
LAYER_2
 10
228.0325
 20
-187.2933
  0
VERTEX
  8
LAYER_2
 10
227.848
 20
-187.3671
  0
VERTEX
  8
LAYER_2
 10
227.1139
 20
-187.6582
  0
SEQEND
  0
POLYLINE
  8
LAYER_2
 40
0.1764
 41
0.1764
 66
1
 10
0
 20
0
 30
0
  0
VERTEX
  8
LAYER_2
 10
226.8185
 20
-187.7773
  0
VERTEX
  8
LAYER_2
 10
226.228
 20
-188.0108
  0
SEQEND
  0
POLYLINE
  8
LAYER_2
 40
0.1764
 41
0.1764
 66
1
 10
0
 20
0
 30
0
  0
VERTEX
  8
LAYER_2
 10
225.9326
 20
-188.1298
  0
VERTEX
  8
LAYER_2
 10
225.1987
 20
-188.4209
  0
SEQEND
  0
POLYLINE
  8
LAYER_2
 40
0.1764
 41
0.1764
 66
1
 10
0
 20
0
 30
0
  0
VERTEX
  8
LAYER_2
 10
199.9435
 20
-174.9199
  0
VERTEX
  8
LAYER_2
 10
200.0583
 20
-175.6827
  0
SEQEND
  0
POLYLINE
  8
LAYER_2
 40
0.1764
 41
0.1764
 66
1
 10
0
 20
0
 30
0
  0
VERTEX
  8
LAYER_2
 10
200.1076
 20
-175.9945
  0
VERTEX
  8
LAYER_2
 10
200.1979
 20
-176.622
  0
SEQEND
  0
POLYLINE
  8
LAYER_2
 40
0.1764
 41
0.1764
 66
1
 10
0
 20
0
 30
0
  0
VERTEX
  8
LAYER_2
 10
200.2469
 20
-176.9377
  0
VERTEX
  8
LAYER_2
 10
200.3413
 20
-177.5652
  0
SEQEND
  0
POLYLINE
  8
LAYER_2
 40
0.1764
 41
0.1764
 66
1
 10
0
 20
0
 30
0
  0
VERTEX
  8
LAYER_2
 10
200.3865
 20
-177.8809
  0
VERTEX
  8
LAYER_2
 10
200.4807
 20
-178.5084
  0
SEQEND
  0
POLYLINE
  8
LAYER_2
 40
0.1764
 41
0.1764
 66
1
 10
0
 20
0
 30
0
  0
VERTEX
  8
LAYER_2
 10
200.5259
 20
-178.8202
  0
VERTEX
  8
LAYER_2
 10
200.6201
 20
-179.4519
  0
SEQEND
  0
POLYLINE
  8
LAYER_2
 40
0.1764
 41
0.1764
 66
1
 10
0
 20
0
 30
0
  0
VERTEX
  8
LAYER_2
 10
200.6695
 20
-179.7635
  0
VERTEX
  8
LAYER_2
 10
200.7596
 20
-180.391
  0
SEQEND
  0
POLYLINE
  8
LAYER_2
 40
0.1764
 41
0.1764
 66
1
 10
0
 20
0
 30
0
  0
VERTEX
  8
LAYER_2
 10
200.8089
 20
-180.7068
  0
VERTEX
  8
LAYER_2
 10
200.9031
 20
-181.3342
  0
SEQEND
  0
POLYLINE
  8
LAYER_2
 40
0.1764
 41
0.1764
 66
1
 10
0
 20
0
 30
0
  0
VERTEX
  8
LAYER_2
 10
200.9484
 20
-181.65
  0
VERTEX
  8
LAYER_2
 10
201.0426
 20
-182.2776
  0
SEQEND
  0
POLYLINE
  8
LAYER_2
 40
0.1764
 41
0.1764
 66
1
 10
0
 20
0
 30
0
  0
VERTEX
  8
LAYER_2
 10
201.0877
 20
-182.5891
  0
VERTEX
  8
LAYER_2
 10
201.1821
 20
-183.2207
  0
SEQEND
  0
POLYLINE
  8
LAYER_2
 40
0.1764
 41
0.1764
 66
1
 10
0
 20
0
 30
0
  0
VERTEX
  8
LAYER_2
 10
201.2272
 20
-183.5325
  0
VERTEX
  8
LAYER_2
 10
201.3215
 20
-184.1598
  0
SEQEND
  0
POLYLINE
  8
LAYER_2
 40
0.1764
 41
0.1764
 66
1
 10
0
 20
0
 30
0
  0
VERTEX
  8
LAYER_2
 10
201.3707
 20
-184.4757
  0
VERTEX
  8
LAYER_2
 10
201.4652
 20
-185.1031
  0
SEQEND
  0
POLYLINE
  8
LAYER_2
 40
0.1764
 41
0.1764
 66
1
 10
0
 20
0
 30
0
  0
VERTEX
  8
LAYER_2
 10
201.5103
 20
-185.419
  0
VERTEX
  8
LAYER_2
 10
201.6045
 20
-186.0464
  0
SEQEND
  0
POLYLINE
  8
LAYER_2
 40
0.1764
 41
0.1764
 66
1
 10
0
 20
0
 30
0
  0
VERTEX
  8
LAYER_2
 10
201.6496
 20
-186.3581
  0
VERTEX
  8
LAYER_2
 10
201.7645
 20
-187.1209
  0
VERTEX
  8
LAYER_2
 10
201.8628
 20
-187.2933
  0
VERTEX
  8
LAYER_2
 10
202.0475
 20
-187.3671
  0
VERTEX
  8
LAYER_2
 10
202.6134
 20
-187.4122
  0
SEQEND
  0
POLYLINE
  8
LAYER_2
 40
0.1764
 41
0.1764
 66
1
 10
0
 20
0
 30
0
  0
VERTEX
  8
LAYER_2
 10
202.9332
 20
-187.4367
  0
VERTEX
  8
LAYER_2
 10
203.565
 20
-187.486
  0
SEQEND
  0
POLYLINE
  8
LAYER_2
 40
0.1764
 41
0.1764
 66
1
 10
0
 20
0
 30
0
  0
VERTEX
  8
LAYER_2
 10
203.8808
 20
-187.5065
  0
VERTEX
  8
LAYER_2
 10
204.5163
 20
-187.5556
  0
SEQEND
  0
POLYLINE
  8
LAYER_2
 40
0.1764
 41
0.1764
 66
1
 10
0
 20
0
 30
0
  0
VERTEX
  8
LAYER_2
 10
204.8321
 20
-187.5804
  0
VERTEX
  8
LAYER_2
 10
205.4638
 20
-187.6294
  0
SEQEND
  0
POLYLINE
  8
LAYER_2
 40
0.1764
 41
0.1764
 66
1
 10
0
 20
0
 30
0
  0
VERTEX
  8
LAYER_2
 10
205.7794
 20
-187.6542
  0
VERTEX
  8
LAYER_2
 10
206.4151
 20
-187.7033
  0
SEQEND
  0
POLYLINE
  8
LAYER_2
 40
0.1764
 41
0.1764
 66
1
 10
0
 20
0
 30
0
  0
VERTEX
  8
LAYER_2
 10
206.7311
 20
-187.7238
  0
VERTEX
  8
LAYER_2
 10
207.3625
 20
-187.773
  0
SEQEND
  0
POLYLINE
  8
LAYER_2
 40
0.1764
 41
0.1764
 66
1
 10
0
 20
0
 30
0
  0
VERTEX
  8
LAYER_2
 10
207.6824
 20
-187.7977
  0
VERTEX
  8
LAYER_2
 10
208.3141
 20
-187.847
  0
SEQEND
  0
POLYLINE
  8
LAYER_2
 40
0.1764
 41
0.1764
 66
1
 10
0
 20
0
 30
0
  0
VERTEX
  8
LAYER_2
 10
208.6298
 20
-187.8715
  0
VERTEX
  8
LAYER_2
 10
209.2613
 20
-187.9207
  0
SEQEND
  0
POLYLINE
  8
LAYER_2
 40
0.1764
 41
0.1764
 66
1
 10
0
 20
0
 30
0
  0
VERTEX
  8
LAYER_2
 10
209.5813
 20
-187.9411
  0
VERTEX
  8
LAYER_2
 10
210.2129
 20
-187.9905
  0
SEQEND
  0
POLYLINE
  8
LAYER_2
 40
0.1764
 41
0.1764
 66
1
 10
0
 20
0
 30
0
  0
VERTEX
  8
LAYER_2
 10
210.5287
 20
-188.0151
  0
VERTEX
  8
LAYER_2
 10
211.1645
 20
-188.0641
  0
SEQEND
  0
POLYLINE
  8
LAYER_2
 40
0.1764
 41
0.1764
 66
1
 10
0
 20
0
 30
0
  0
VERTEX
  8
LAYER_2
 10
211.4801
 20
-188.0888
  0
VERTEX
  8
LAYER_2
 10
212.1117
 20
-188.1381
  0
SEQEND
  0
POLYLINE
  8
LAYER_2
 40
0.1764
 41
0.1764
 66
1
 10
0
 20
0
 30
0
  0
VERTEX
  8
LAYER_2
 10
212.4274
 20
-188.1586
  0
VERTEX
  8
LAYER_2
 10
213.0631
 20
-188.2077
  0
SEQEND
  0
POLYLINE
  8
LAYER_2
 40
0.1764
 41
0.1764
 66
1
 10
0
 20
0
 30
0
  0
VERTEX
  8
LAYER_2
 10
213.379
 20
-188.2323
  0
VERTEX
  8
LAYER_2
 10
214.0106
 20
-188.2816
  0
SEQEND
  0
POLYLINE
  8
LAYER_2
 40
0.1764
 41
0.1764
 66
1
 10
0
 20
0
 30
0
  0
VERTEX
  8
LAYER_2
 10
214.3306
 20
-188.3063
  0
VERTEX
  8
LAYER_2
 10
214.962
 20
-188.3554
  0
SEQEND
  0
POLYLINE
  8
LAYER_2
 40
0.1764
 41
0.1764
 66
1
 10
0
 20
0
 30
0
  0
VERTEX
  8
LAYER_2
 10
215.2778
 20
-188.3759
  0
VERTEX
  8
LAYER_2
 10
215.8479
 20
-188.4209
  0
VERTEX
  8
LAYER_2
 10
216.5534
 20
-188.4209
  0
SEQEND
  0
POLYLINE
  8
LAYER_2
 40
0.1764
 41
0.1764
 66
1
 10
0
 20
0
 30
0
  0
VERTEX
  8
LAYER_2
 10
216.8692
 20
-188.4209
  0
VERTEX
  8
LAYER_2
 10
217.5047
 20
-188.4209
  0
SEQEND
  0
POLYLINE
  8
LAYER_2
 40
0.1764
 41
0.1764
 66
1
 10
0
 20
0
 30
0
  0
VERTEX
  8
LAYER_2
 10
217.8246
 20
-188.4209
  0
VERTEX
  8
LAYER_2
 10
218.4603
 20
-188.4209
  0
SEQEND
  0
POLYLINE
  8
LAYER_2
 40
0.1764
 41
0.1764
 66
1
 10
0
 20
0
 30
0
  0
VERTEX
  8
LAYER_2
 10
218.7762
 20
-188.4209
  0
VERTEX
  8
LAYER_2
 10
219.4118
 20
-188.4209
  0
SEQEND
  0
POLYLINE
  8
LAYER_2
 40
0.1764
 41
0.1764
 66
1
 10
0
 20
0
 30
0
  0
VERTEX
  8
LAYER_2
 10
219.7275
 20
-188.4209
  0
VERTEX
  8
LAYER_2
 10
220.3632
 20
-188.4209
  0
SEQEND
  0
POLYLINE
  8
LAYER_2
 40
0.1764
 41
0.1764
 66
1
 10
0
 20
0
 30
0
  0
VERTEX
  8
LAYER_2
 10
220.6831
 20
-188.4209
  0
VERTEX
  8
LAYER_2
 10
221.3148
 20
-188.4209
  0
SEQEND
  0
POLYLINE
  8
LAYER_2
 40
0.1764
 41
0.1764
 66
1
 10
0
 20
0
 30
0
  0
VERTEX
  8
LAYER_2
 10
221.6347
 20
-188.4209
  0
VERTEX
  8
LAYER_2
 10
222.2704
 20
-188.4209
  0
SEQEND
  0
POLYLINE
  8
LAYER_2
 40
0.1764
 41
0.1764
 66
1
 10
0
 20
0
 30
0
  0
VERTEX
  8
LAYER_2
 10
222.5861
 20
-188.4209
  0
VERTEX
  8
LAYER_2
 10
223.222
 20
-188.4209
  0
SEQEND
  0
POLYLINE
  8
LAYER_2
 40
0.1764
 41
0.1764
 66
1
 10
0
 20
0
 30
0
  0
VERTEX
  8
LAYER_2
 10
223.5376
 20
-188.4209
  0
VERTEX
  8
LAYER_2
 10
224.1733
 20
-188.4209
  0
SEQEND
  0
POLYLINE
  8
LAYER_2
 40
0.1764
 41
0.1764
 66
1
 10
0
 20
0
 30
0
  0
VERTEX
  8
LAYER_2
 10
224.4932
 20
-188.4209
  0
VERTEX
  8
LAYER_2
 10
225.1987
 20
-188.4209
  0
SEQEND
  0
ENDBLK
  0
BLOCK
  8
LAYER_2
  2
AIGNBL020200A2
 70
64
 10
0
 20
0
 30
0
  3
AIGNBL020200A2
  0
POLYLINE
  8
LAYER_2
 40
0.1764
 41
0.1764
 66
1
 10
0
 20
0
 30
0
  0
VERTEX
  8
LAYER_2
 10
236.1981
 20
-174.9199
  0
VERTEX
  8
LAYER_2
 10
236.1981
 20
-175.5106
  0
SEQEND
  0
POLYLINE
  8
LAYER_2
 40
0.1764
 41
0.1764
 66
1
 10
0
 20
0
 30
0
  0
VERTEX
  8
LAYER_2
 10
236.1981
 20
-175.8303
  0
VERTEX
  8
LAYER_2
 10
236.1981
 20
-176.421
  0
SEQEND
  0
POLYLINE
  8
LAYER_2
 40
0.1764
 41
0.1764
 66
1
 10
0
 20
0
 30
0
  0
VERTEX
  8
LAYER_2
 10
232.6957
 20
-174.9199
  0
VERTEX
  8
LAYER_2
 10
232.6957
 20
-175.5106
  0
SEQEND
  0
POLYLINE
  8
LAYER_2
 40
0.1764
 41
0.1764
 66
1
 10
0
 20
0
 30
0
  0
VERTEX
  8
LAYER_2
 10
232.6957
 20
-175.8303
  0
VERTEX
  8
LAYER_2
 10
232.6957
 20
-176.421
  0
VERTEX
  8
LAYER_2
 10
232.6957
 20
-175.8303
  0
SEQEND
  0
POLYLINE
  8
LAYER_2
 40
0.1764
 41
0.1764
 66
1
 10
0
 20
0
 30
0
  0
VERTEX
  8
LAYER_2
 10
232.6957
 20
-175.5106
  0
VERTEX
  8
LAYER_2
 10
232.6957
 20
-174.9199
  0
SEQEND
  0
POLYLINE
  8
LAYER_2
 40
0.1764
 41
0.1764
 66
1
 10
0
 20
0
 30
0
  0
VERTEX
  8
LAYER_2
 10
236.1981
 20
-176.421
  0
VERTEX
  8
LAYER_2
 10
236.1981
 20
-175.8303
  0
SEQEND
  0
POLYLINE
  8
LAYER_2
 40
0.1764
 41
0.1764
 66
1
 10
0
 20
0
 30
0
  0
VERTEX
  8
LAYER_2
 10
236.1981
 20
-175.5106
  0
VERTEX
  8
LAYER_2
 10
236.1981
 20
-174.9199
  0
SEQEND
  0
ENDBLK
  0
BLOCK
  8
LAYER_2
  2
AIGNBL020200A3
 70
64
 10
0
 20
0
 30
0
  3
AIGNBL020200A3
  0
POLYLINE
  8
LAYER_2
 40
0.1764
 41
0.1764
 66
1
 10
0
 20
0
 30
0
 70
1
  0
VERTEX
  8
LAYER_2
 10
238.9472
 20
-178.421
  0
VERTEX
  8
LAYER_2
 10
197.4472
 20
-178.421
  0
VERTEX
  8
LAYER_2
 10
197.4472
 20
-214.421
  0
VERTEX
  8
LAYER_2
 10
238.9472
 20
-214.421
  0
SEQEND
  0
POLYLINE
  8
LAYER_2
 40
0.1764
 41
0.1764
 66
1
 10
0
 20
0
 30
0
  0
VERTEX
  8
LAYER_2
 10
198.9414
 20
-176.421
  0
VERTEX
  8
LAYER_2
 10
240.9472
 20
-176.421
  0
VERTEX
  8
LAYER_2
 10
240.9472
 20
-178.421
  0
SEQEND
  0
POLYLINE
  8
LAYER_2
 40
0.1764
 41
0.1764
 66
1
 10
0
 20
0
 30
0
  0
VERTEX
  8
LAYER_2
 10
195.4472
 20
-178.421
  0
VERTEX
  8
LAYER_2
 10
195.4472
 20
-177.3266
  0
VERTEX
  8
LAYER_2
 10
195.4472
 20
-176.421
  0
VERTEX
  8
LAYER_2
 10
240.9472
 20
-176.421
  0
VERTEX
  8
LAYER_2
 10
240.9472
 20
-216.421
  0
VERTEX
  8
LAYER_2
 10
195.4472
 20
-216.421
  0
VERTEX
  8
LAYER_2
 10
195.4472
 20
-176.421
  0
SEQEND
  0
ENDBLK
  0
BLOCK
  8
LAYER_2
  2
AIGNBL020200A5
 70
64
 10
0
 20
0
 30
0
  3
AIGNBL020200A5
  0
POLYLINE
  8
LAYER_2
 40
0.1764
 41
0.1764
 66
1
 10
0
 20
0
 30
0
  0
VERTEX
  8
LAYER_2
 10
236.5951
 20
-174.3786
  0
VERTEX
  8
LAYER_2
 10
236.5951
 20
-172.7478
  0
SEQEND
  0
ENDBLK
  0
BLOCK
  8
LAYER_2
  2
AIGNBL020200A6
 70
64
 10
0
 20
0
 30
0
  3
AIGNBL020200A6
  0
POLYLINE
  8
LAYER_2
 40
0.1764
 41
0.1764
 66
1
 10
0
 20
0
 30
0
  0
VERTEX
  8
LAYER_2
 10
236.5951
 20
-170.2284
  0
VERTEX
  8
LAYER_2
 10
236.5951
 20
-160.3437
  0
SEQEND
  0
ENDBLK
  0
BLOCK
  8
LAYER_2
  2
AIGNBL020200A7
 70
64
 10
0
 20
0
 30
0
  3
AIGNBL020200A7
  0
POLYLINE
  8
LAYER_2
 40
0.1764
 41
0.1764
 66
1
 10
0
 20
0
 30
0
  0
VERTEX
  8
LAYER_2
 10
236.5951
 20
-170.9358
  0
VERTEX
  8
LAYER_2
 10
236.5951
 20
-170.2284
  0
SEQEND
  0
ENDBLK
  0
BLOCK
  8
LAYER_2
  2
AIGNBL020200A8
 70
64
 10
0
 20
0
 30
0
  3
AIGNBL020200A8
  0
POLYLINE
  8
LAYER_2
 40
0.1764
 41
0.1764
 66
1
 10
0
 20
0
 30
0
  0
VERTEX
  8
LAYER_2
 10
236.5951
 20
-172.7478
 42
-0.02160259956
  0
VERTEX
  8
LAYER_2
 10
236.5951
 20
-170.9358
  0
SEQEND
  0
ENDBLK
  0
BLOCK
  8
LAYER_2
  2
AIGNBL020200A9
 70
64
 10
0
 20
0
 30
0
  3
AIGNBL020200A9
  0
POLYLINE
  8
LAYER_2
 40
0.1764
 41
0.1764
 66
1
 10
0
 20
0
 30
0
  0
VERTEX
  8
LAYER_2
 10
232.2954
 20
-164.0535
  0
VERTEX
  8
LAYER_2
 10
232.2954
 20
-174.3786
  0
SEQEND
  0
ENDBLK
  0
BLOCK
  8
LAYER_2
  2
AIGNBL020200AA
 70
64
 10
0
 20
0
 30
0
  3
AIGNBL020200AA
  0
POLYLINE
  8
LAYER_2
 40
0.1764
 41
0.1764
 66
1
 10
0
 20
0
 30
0
  0
VERTEX
  8
LAYER_2
 10
232.2954
 20
-161.2037
  0
VERTEX
  8
LAYER_2
 10
232.2954
 20
-160.3437
  0
SEQEND
  0
ENDBLK
  0
BLOCK
  8
LAYER_2
  2
AIGNBL020200AB
 70
64
 10
0
 20
0
 30
0
  3
AIGNBL020200AB
  0
POLYLINE
  8
LAYER_2
 40
0.1764
 41
0.1764
 66
1
 10
0
 20
0
 30
0
  0
VERTEX
  8
LAYER_2
 10
236.5651
 20
-160.3137
  0
VERTEX
  8
LAYER_2
 10
232.3254
 20
-160.3137
  0
SEQEND
  0
ENDBLK
  0
BLOCK
  8
LAYER_2
  2
AIGNBL020200AC
 70
64
 10
0
 20
0
 30
0
  3
AIGNBL020200AC
  0
POLYLINE
  8
LAYER_2
 40
0.1764
 41
0.1764
 66
1
 10
0
 20
0
 30
0
  0
VERTEX
  8
LAYER_2
 10
232.3254
 20
-160.3137
  0
VERTEX
  8
LAYER_2
 10
232.3042
 20
-160.3225
  0
VERTEX
  8
LAYER_2
 10
232.2954
 20
-160.3437
  0
SEQEND
  0
ENDBLK
  0
BLOCK
  8
LAYER_2
  2
AIGNBL020200AD
 70
64
 10
0
 20
0
 30
0
  3
AIGNBL020200AD
  0
POLYLINE
  8
LAYER_2
 40
0.1764
 41
0.1764
 66
1
 10
0
 20
0
 30
0
  0
VERTEX
  8
LAYER_2
 10
236.5951
 20
-160.3437
  0
VERTEX
  8
LAYER_2
 10
236.5863
 20
-160.3225
  0
VERTEX
  8
LAYER_2
 10
236.5651
 20
-160.3137
  0
SEQEND
  0
ENDBLK
  0
BLOCK
  8
LAYER_2
  2
AIGNBL020200AE
 70
64
 10
0
 20
0
 30
0
  3
AIGNBL020200AE
  0
POLYLINE
  8
LAYER_2
 40
0.1764
 41
0.1764
 66
1
 10
0
 20
0
 30
0
  0
VERTEX
  8
LAYER_2
 10
236.695
 20
-158.7584
  0
VERTEX
  8
LAYER_2
 10
236.695
 20
-158.0884
  0
SEQEND
  0
ENDBLK
  0
BLOCK
  8
LAYER_2
  2
AIGNBL020200AF
 70
64
 10
0
 20
0
 30
0
  3
AIGNBL020200AF
  0
POLYLINE
  8
LAYER_2
 40
0.1764
 41
0.1764
 66
1
 10
0
 20
0
 30
0
  0
VERTEX
  8
LAYER_2
 10
225.3959
 20
-157.8351
  0
VERTEX
  8
LAYER_2
 10
225.3959
 20
-158.2039
  0
SEQEND
  0
ENDBLK
  0
BLOCK
  8
LAYER_2
  2
AIGNBL020200B0
 70
64
 10
0
 20
0
 30
0
  3
AIGNBL020200B0
  0
POLYLINE
  8
LAYER_2
 40
0.1764
 41
0.1764
 66
1
 10
0
 20
0
 30
0
  0
VERTEX
  8
LAYER_2
 10
225.3959
 20
-158.2039
  0
VERTEX
  8
LAYER_2
 10
225.3959
 20
-158.5735
  0
SEQEND
  0
ENDBLK
  0
BLOCK
  8
LAYER_2
  2
AIGNBL020200B1
 70
64
 10
0
 20
0
 30
0
  3
AIGNBL020200B1
  0
POLYLINE
  8
LAYER_2
 40
0.1764
 41
0.1764
 66
1
 10
0
 20
0
 30
0
  0
VERTEX
  8
LAYER_2
 10
225.3959
 20
-157.8343
  0
VERTEX
  8
LAYER_2
 10
225.3959
 20
-157.8351
  0
SEQEND
  0
ENDBLK
  0
BLOCK
  8
LAYER_2
  2
AIGNBL020200B2
 70
64
 10
0
 20
0
 30
0
  3
AIGNBL020200B2
  0
POLYLINE
  8
LAYER_2
 40
0.1764
 41
0.1764
 66
1
 10
0
 20
0
 30
0
  0
VERTEX
  8
LAYER_2
 10
225.4159
 20
-158.5935
 42
-0.3930525238
  0
VERTEX
  8
LAYER_2
 10
225.3959
 20
-158.5735
  0
SEQEND
  0
ENDBLK
  0
BLOCK
  8
LAYER_2
  2
AIGNBL020200B3
 70
64
 10
0
 20
0
 30
0
  3
AIGNBL020200B3
  0
POLYLINE
  8
LAYER_2
 40
0.1764
 41
0.1764
 66
1
 10
0
 20
0
 30
0
  0
VERTEX
  8
LAYER_2
 10
225.4159
 20
-157.8143
 42
0.3930525238
  0
VERTEX
  8
LAYER_2
 10
225.3959
 20
-157.8343
  0
SEQEND
  0
ENDBLK
  0
BLOCK
  8
LAYER_2
  2
AIGNBL020200B4
 70
64
 10
0
 20
0
 30
0
  3
AIGNBL020200B4
  0
POLYLINE
  8
LAYER_2
 40
0.1764
 41
0.1764
 66
1
 10
0
 20
0
 30
0
  0
VERTEX
  8
LAYER_2
 10
227.243
 20
-158.5214
  0
VERTEX
  8
LAYER_2
 10
227.1173
 20
-158.5239
  0
VERTEX
  8
LAYER_2
 10
226.9726
 20
-158.5365
  0
VERTEX
  8
LAYER_2
 10
226.8126
 20
-158.5574
  0
VERTEX
  8
LAYER_2
 10
226.6452
 20
-158.5784
  0
VERTEX
  8
LAYER_2
 10
226.4819
 20
-158.591
  0
VERTEX
  8
LAYER_2
 10
226.3393
 20
-158.5935
  0
SEQEND
  0
ENDBLK
  0
BLOCK
  8
LAYER_2
  2
AIGNBL020200B5
 70
64
 10
0
 20
0
 30
0
  3
AIGNBL020200B5
  0
POLYLINE
  8
LAYER_2
 40
0.1764
 41
0.1764
 66
1
 10
0
 20
0
 30
0
  0
VERTEX
  8
LAYER_2
 10
226.3393
 20
-157.8143
  0
VERTEX
  8
LAYER_2
 10
226.4819
 20
-157.8168
  0
VERTEX
  8
LAYER_2
 10
226.6452
 20
-157.8294
  0
VERTEX
  8
LAYER_2
 10
226.8126
 20
-157.8503
  0
VERTEX
  8
LAYER_2
 10
226.9726
 20
-157.8713
  0
VERTEX
  8
LAYER_2
 10
227.1173
 20
-157.8838
  0
VERTEX
  8
LAYER_2
 10
227.243
 20
-157.8864
  0
SEQEND
  0
ENDBLK
  0
BLOCK
  8
LAYER_2
  2
AIGNBL020200B6
 70
64
 10
0
 20
0
 30
0
  3
AIGNBL020200B6
  0
POLYLINE
  8
LAYER_2
 40
0.1764
 41
0.1764
 66
1
 10
0
 20
0
 30
0
  0
VERTEX
  8
LAYER_2
 10
226.3395
 20
-158.5935
  0
VERTEX
  8
LAYER_2
 10
225.4146
 20
-158.5935
  0
SEQEND
  0
ENDBLK
  0
BLOCK
  8
LAYER_2
  2
AIGNBL020200B7
 70
64
 10
0
 20
0
 30
0
  3
AIGNBL020200B7
  0
POLYLINE
  8
LAYER_2
 40
0.1764
 41
0.1764
 66
1
 10
0
 20
0
 30
0
  0
VERTEX
  8
LAYER_2
 10
225.4146
 20
-157.8143
  0
VERTEX
  8
LAYER_2
 10
226.3395
 20
-157.8143
  0
SEQEND
  0
ENDBLK
  0
BLOCK
  8
LAYER_2
  2
AIGNBL020200B8
 70
64
 10
0
 20
0
 30
0
  3
AIGNBL020200B8
  0
POLYLINE
  8
LAYER_2
 40
0.1764
 41
0.1764
 66
1
 10
0
 20
0
 30
0
  0
VERTEX
  8
LAYER_2
 10
232.1961
 20
-158.5214
  0
VERTEX
  8
LAYER_2
 10
227.2427
 20
-158.5214
  0
SEQEND
  0
ENDBLK
  0
BLOCK
  8
LAYER_2
  2
AIGNBL020200B9
 70
64
 10
0
 20
0
 30
0
  3
AIGNBL020200B9
  0
POLYLINE
  8
LAYER_2
 40
0.1764
 41
0.1764
 66
1
 10
0
 20
0
 30
0
  0
VERTEX
  8
LAYER_2
 10
227.2427
 20
-157.8864
  0
VERTEX
  8
LAYER_2
 10
232.1961
 20
-157.8864
  0
SEQEND
  0
ENDBLK
  0
BLOCK
  8
LAYER_2
  2
AIGNBL020200BA
 70
64
 10
0
 20
0
 30
0
  3
AIGNBL020200BA
  0
POLYLINE
  8
LAYER_2
 40
0.1764
 41
0.1764
 66
1
 10
0
 20
0
 30
0
  0
VERTEX
  8
LAYER_2
 10
234.2075
 20
-157.7114
  0
VERTEX
  8
LAYER_2
 10
232.1954
 20
-157.7091
  0
SEQEND
  0
ENDBLK
  0
BLOCK
  8
LAYER_2
  2
AIGNBL020200BB
 70
64
 10
0
 20
0
 30
0
  3
AIGNBL020200BB
  0
POLYLINE
  8
LAYER_2
 40
0.1764
 41
0.1764
 66
1
 10
0
 20
0
 30
0
  0
VERTEX
  8
LAYER_2
 10
236.695
 20
-157.709
  0
VERTEX
  8
LAYER_2
 10
236.6919
 20
-157.7091
  0
VERTEX
  8
LAYER_2
 10
236.488
 20
-157.7103
  0
VERTEX
  8
LAYER_2
 10
235.9934
 20
-157.7109
  0
VERTEX
  8
LAYER_2
 10
234.4452
 20
-157.7114
  0
SEQEND
  0
ENDBLK
  0
BLOCK
  8
LAYER_2
  2
AIGNBL020200BC
 70
64
 10
0
 20
0
 30
0
  3
AIGNBL020200BC
  0
POLYLINE
  8
LAYER_2
 40
0.1764
 41
0.1764
 66
1
 10
0
 20
0
 30
0
  0
VERTEX
  8
LAYER_2
 10
234.4452
 20
-157.7114
  0
VERTEX
  8
LAYER_2
 10
234.2075
 20
-157.7114
  0
SEQEND
  0
ENDBLK
  0
BLOCK
  8
LAYER_2
  2
AIGNBL020200BD
 70
64
 10
0
 20
0
 30
0
  3
AIGNBL020200BD
  0
POLYLINE
  8
LAYER_2
 40
0.1764
 41
0.1764
 66
1
 10
0
 20
0
 30
0
  0
VERTEX
  8
LAYER_2
 10
232.2154
 20
-160.1054
  0
VERTEX
  8
LAYER_2
 10
236.675
 20
-160.1054
  0
SEQEND
  0
ENDBLK
  0
BLOCK
  8
LAYER_2
  2
AIGNBL020200BE
 70
64
 10
0
 20
0
 30
0
  3
AIGNBL020200BE
  0
POLYLINE
  8
LAYER_2
 40
0.1764
 41
0.1764
 66
1
 10
0
 20
0
 30
0
  0
VERTEX
  8
LAYER_2
 10
236.695
 20
-158.7784
 42
-0.08134246369
  0
VERTEX
  8
LAYER_2
 10
236.6948
 20
-158.07
  0
SEQEND
  0
ENDBLK
  0
BLOCK
  8
LAYER_2
  2
AIGNBL020200BF
 70
64
 10
0
 20
0
 30
0
  3
AIGNBL020200BF
  0
POLYLINE
  8
LAYER_2
 40
0.1764
 41
0.1764
 66
1
 10
0
 20
0
 30
0
  0
VERTEX
  8
LAYER_2
 10
232.1954
 20
-157.8814
 42
-0.07201613241
  0
VERTEX
  8
LAYER_2
 10
232.1954
 20
-158.5264
  0
SEQEND
  0
ENDBLK
  0
BLOCK
  8
LAYER_2
  2
AIGNBL020200C0
 70
64
 10
0
 20
0
 30
0
  3
AIGNBL020200C0
  0
POLYLINE
  8
LAYER_2
 40
0.1764
 41
0.1764
 66
1
 10
0
 20
0
 30
0
  0
VERTEX
  8
LAYER_2
 10
236.6509
 20
-157.6594
 42
-0.3666979371
  0
VERTEX
  8
LAYER_2
 10
236.695
 20
-157.7095
  0
SEQEND
  0
ENDBLK
  0
BLOCK
  8
LAYER_2
  2
AIGNBL020200C1
 70
64
 10
0
 20
0
 30
0
  3
AIGNBL020200C1
  0
POLYLINE
  8
LAYER_2
 40
0.1764
 41
0.1764
 66
1
 10
0
 20
0
 30
0
  0
VERTEX
  8
LAYER_2
 10
232.1954
 20
-157.7095
 42
-0.3279666738
  0
VERTEX
  8
LAYER_2
 10
232.232
 20
-157.6609
  0
SEQEND
  0
ENDBLK
  0
BLOCK
  8
LAYER_2
  2
AIGNBL020200C2
 70
64
 10
0
 20
0
 30
0
  3
AIGNBL020200C2
  0
POLYLINE
  8
LAYER_2
 40
0.1764
 41
0.1764
 66
1
 10
0
 20
0
 30
0
  0
VERTEX
  8
LAYER_2
 10
232.2154
 20
-160.1054
 42
-0.3932283097
  0
VERTEX
  8
LAYER_2
 10
232.1954
 20
-160.0854
  0
SEQEND
  0
ENDBLK
  0
BLOCK
  8
LAYER_2
  2
AIGNBL020200C3
 70
64
 10
0
 20
0
 30
0
  3
AIGNBL020200C3
  0
POLYLINE
  8
LAYER_2
 40
0.1764
 41
0.1764
 66
1
 10
0
 20
0
 30
0
  0
VERTEX
  8
LAYER_2
 10
236.695
 20
-160.0854
 42
-0.3932283095
  0
VERTEX
  8
LAYER_2
 10
236.675
 20
-160.1054
  0
SEQEND
  0
ENDBLK
  0
BLOCK
  8
LAYER_2
  2
AIGNBL020200C4
 70
64
 10
0
 20
0
 30
0
  3
AIGNBL020200C4
  0
POLYLINE
  8
LAYER_2
 40
0.1764
 41
0.1764
 66
1
 10
0
 20
0
 30
0
  0
VERTEX
  8
LAYER_2
 10
232.1954
 20
-157.8814
  0
VERTEX
  8
LAYER_2
 10
232.1954
 20
-157.7086
  0
SEQEND
  0
ENDBLK
  0
BLOCK
  8
LAYER_2
  2
AIGNBL020200C5
 70
64
 10
0
 20
0
 30
0
  3
AIGNBL020200C5
  0
POLYLINE
  8
LAYER_2
 40
0.1764
 41
0.1764
 66
1
 10
0
 20
0
 30
0
  0
VERTEX
  8
LAYER_2
 10
232.1954
 20
-160.0854
  0
VERTEX
  8
LAYER_2
 10
232.1954
 20
-158.5223
  0
SEQEND
  0
ENDBLK
  0
BLOCK
  8
LAYER_2
  2
AIGNBL020200C6
 70
64
 10
0
 20
0
 30
0
  3
AIGNBL020200C6
  0
POLYLINE
  8
LAYER_2
 40
0.1764
 41
0.1764
 66
1
 10
0
 20
0
 30
0
  0
VERTEX
  8
LAYER_2
 10
236.695
 20
-158.7737
  0
VERTEX
  8
LAYER_2
 10
236.695
 20
-160.0854
  0
SEQEND
  0
ENDBLK
  0
BLOCK
  8
LAYER_2
  2
AIGNBL020200C7
 70
64
 10
0
 20
0
 30
0
  3
AIGNBL020200C7
  0
POLYLINE
  8
LAYER_2
 40
0.1764
 41
0.1764
 66
1
 10
0
 20
0
 30
0
  0
VERTEX
  8
LAYER_2
 10
236.695
 20
-157.7086
  0
VERTEX
  8
LAYER_2
 10
236.695
 20
-158.0684
  0
SEQEND
  0
ENDBLK
  0
BLOCK
  8
LAYER_2
  2
AIGNBL020200C8
 70
64
 10
0
 20
0
 30
0
  3
AIGNBL020200C8
  0
POLYLINE
  8
LAYER_2
 40
0.1764
 41
0.1764
 66
1
 10
0
 20
0
 30
0
  0
VERTEX
  8
LAYER_2
 10
232.232
 20
-157.6609
 42
-0.03703214136
  0
VERTEX
  8
LAYER_2
 10
236.6477
 20
-157.6603
  0
SEQEND
  0
ENDBLK
  0
BLOCK
  8
LAYER_2
  2
AIGNBL020200C9
 70
64
 10
0
 20
0
 30
0
  3
AIGNBL020200C9
  0
POLYLINE
  8
LAYER_2
 40
0.1764
 41
0.1764
 66
1
 10
0
 20
0
 30
0
  0
VERTEX
  8
LAYER_2
 10
236.6932
 20
-158.0827
  0
VERTEX
  8
LAYER_2
 10
236.6946
 20
-158.0734
  0
SEQEND
  0
ENDBLK
  0
BLOCK
  8
LAYER_2
  2
AIGNBL020200CA
 70
64
 10
0
 20
0
 30
0
  3
AIGNBL020200CA
  0
POLYLINE
  8
LAYER_2
 40
0.1764
 41
0.1764
 66
1
 10
0
 20
0
 30
0
  0
VERTEX
  8
LAYER_2
 10
236.6945
 20
-158.074
  0
VERTEX
  8
LAYER_2
 10
236.6874
 20
-158.0884
  0
SEQEND
  0
ENDBLK
  0
BLOCK
  8
LAYER_2
  2
AIGNBL020200CB
 70
64
 10
0
 20
0
 30
0
  3
AIGNBL020200CB
  0
POLYLINE
  8
LAYER_2
 40
0.1764
 41
0.1764
 66
1
 10
0
 20
0
 30
0
  0
VERTEX
  8
LAYER_2
 10
232.3298
 20
-160.3137
  0
VERTEX
  8
LAYER_2
 10
236.5607
 20
-160.3137
  0
SEQEND
  0
ENDBLK
  0
BLOCK
  8
LAYER_2
  2
AIGNBL020200CC
 70
64
 10
0
 20
0
 30
0
  3
AIGNBL020200CC
  0
POLYLINE
  8
LAYER_2
 40
0.1764
 41
0.1764
 66
1
 10
0
 20
0
 30
0
  0
VERTEX
  8
LAYER_2
 10
236.4643
 20
-160.1054
  0
VERTEX
  8
LAYER_2
 10
236.578
 20
-160.2837
  0
SEQEND
  0
ENDBLK
  0
BLOCK
  8
LAYER_2
  2
AIGNBL020200CD
 70
64
 10
0
 20
0
 30
0
  3
AIGNBL020200CD
  0
POLYLINE
  8
LAYER_2
 40
0.1764
 41
0.1764
 66
1
 10
0
 20
0
 30
0
  0
VERTEX
  8
LAYER_2
 10
232.3125
 20
-160.2837
  0
VERTEX
  8
LAYER_2
 10
232.4261
 20
-160.1054
  0
SEQEND
  0
ENDBLK
  0
BLOCK
  8
LAYER_2
  2
AIGNBL020200CE
 70
64
 10
0
 20
0
 30
0
  3
AIGNBL020200CE
  0
POLYLINE
  8
LAYER_2
 40
0.1764
 41
0.1764
 66
1
 10
0
 20
0
 30
0
  0
VERTEX
  8
LAYER_2
 10
232.3298
 20
-160.3137
 42
-0.3932283097
  0
VERTEX
  8
LAYER_2
 10
232.3098
 20
-160.2937
  0
VERTEX
  8
LAYER_2
 10
232.3125
 20
-160.2837
  0
SEQEND
  0
ENDBLK
  0
BLOCK
  8
LAYER_2
  2
AIGNBL020200CF
 70
64
 10
0
 20
0
 30
0
  3
AIGNBL020200CF
  0
POLYLINE
  8
LAYER_2
 40
0.1764
 41
0.1764
 66
1
 10
0
 20
0
 30
0
  0
VERTEX
  8
LAYER_2
 10
236.578
 20
-160.2837
 42
-0.3925364023
  0
VERTEX
  8
LAYER_2
 10
236.5707
 20
-160.311
  0
VERTEX
  8
LAYER_2
 10
236.5607
 20
-160.3137
  0
SEQEND
  0
ENDBLK
  0
BLOCK
  8
LAYER_2
  2
AIGNBL020200D0
 70
64
 10
0
 20
0
 30
0
  3
AIGNBL020200D0
  0
POLYLINE
  8
LAYER_2
 40
0.1764
 41
0.1764
 66
1
 10
0
 20
0
 30
0
  0
VERTEX
  8
LAYER_2
 10
232.0757
 20
-174.9785
  0
VERTEX
  8
LAYER_2
 10
236.8148
 20
-174.9785
  0
SEQEND
  0
ENDBLK
  0
BLOCK
  8
LAYER_2
  2
AIGNBL020200D1
 70
64
 10
0
 20
0
 30
0
  3
AIGNBL020200D1
  0
POLYLINE
  8
LAYER_2
 40
0.1764
 41
0.1764
 66
1
 10
0
 20
0
 30
0
  0
VERTEX
  8
LAYER_2
 10
232.1002
 20
-174.3786
  0
VERTEX
  8
LAYER_2
 10
236.7902
 20
-174.3786
  0
SEQEND
  0
ENDBLK
  0
BLOCK
  8
LAYER_2
  2
AIGNBL020200D2
 70
64
 10
0
 20
0
 30
0
  3
AIGNBL020200D2
  0
POLYLINE
  8
LAYER_2
 40
0.1764
 41
0.1764
 66
1
 10
0
 20
0
 30
0
  0
VERTEX
  8
LAYER_2
 10
232.0457
 20
-174.9483
  0
VERTEX
  8
LAYER_2
 10
232.0502
 20
-174.4281
  0
SEQEND
  0
ENDBLK
  0
BLOCK
  8
LAYER_2
  2
AIGNBL020200D3
 70
64
 10
0
 20
0
 30
0
  3
AIGNBL020200D3
  0
POLYLINE
  8
LAYER_2
 40
0.1764
 41
0.1764
 66
1
 10
0
 20
0
 30
0
  0
VERTEX
  8
LAYER_2
 10
236.8402
 20
-174.4281
  0
VERTEX
  8
LAYER_2
 10
236.8448
 20
-174.9483
  0
SEQEND
  0
ENDBLK
  0
BLOCK
  8
LAYER_2
  2
AIGNBL020200D4
 70
64
 10
0
 20
0
 30
0
  3
AIGNBL020200D4
  0
POLYLINE
  8
LAYER_2
 40
0.1764
 41
0.1764
 66
1
 10
0
 20
0
 30
0
  0
VERTEX
  8
LAYER_2
 10
236.8448
 20
-174.9483
 42
-0.3931668775
  0
VERTEX
  8
LAYER_2
 10
236.815
 20
-174.9785
  0
SEQEND
  0
ENDBLK
  0
BLOCK
  8
LAYER_2
  2
AIGNBL020200D5
 70
64
 10
0
 20
0
 30
0
  3
AIGNBL020200D5
  0
POLYLINE
  8
LAYER_2
 40
0.1764
 41
0.1764
 66
1
 10
0
 20
0
 30
0
  0
VERTEX
  8
LAYER_2
 10
232.0757
 20
-174.9785
 42
-0.3936226657
  0
VERTEX
  8
LAYER_2
 10
232.0457
 20
-174.9485
  0
SEQEND
  0
ENDBLK
  0
BLOCK
  8
LAYER_2
  2
AIGNBL020200D6
 70
64
 10
0
 20
0
 30
0
  3
AIGNBL020200D6
  0
POLYLINE
  8
LAYER_2
 40
0.1764
 41
0.1764
 66
1
 10
0
 20
0
 30
0
  0
VERTEX
  8
LAYER_2
 10
232.0502
 20
-174.4281
 42
-0.3903572415
  0
VERTEX
  8
LAYER_2
 10
232.1002
 20
-174.3786
  0
SEQEND
  0
ENDBLK
  0
BLOCK
  8
LAYER_2
  2
AIGNBL020200D7
 70
64
 10
0
 20
0
 30
0
  3
AIGNBL020200D7
  0
POLYLINE
  8
LAYER_2
 40
0.1764
 41
0.1764
 66
1
 10
0
 20
0
 30
0
  0
VERTEX
  8
LAYER_2
 10
236.7902
 20
-174.3786
 42
-0.3912478838
  0
VERTEX
  8
LAYER_2
 10
236.8402
 20
-174.4281
  0
SEQEND
  0
ENDBLK
  0
BLOCK
  8
LAYER_2
  2
AIGNBL020200D8
 70
64
 10
0
 20
0
 30
0
  3
AIGNBL020200D8
  0
POLYLINE
  8
LAYER_2
  6
AIGENLINE001
 40
0.1764
 41
0.1764
 66
1
 10
0
 20
0
 30
0
 70
128
  0
VERTEX
  8
LAYER_2
 10
237.6772
 20
-160.0244
  0
VERTEX
  8
LAYER_2
 10
237.9709
 20
-159.4222
  0
SEQEND
  0
ENDBLK
  0
BLOCK
  8
LAYER_2
  2
AIGNBL020200D9
 70
64
 10
0
 20
0
 30
0
  3
AIGNBL020200D9
  0
POLYLINE
  8
LAYER_2
  6
AIGENLINE001
 40
0.1764
 41
0.1764
 66
1
 10
0
 20
0
 30
0
 70
128
  0
VERTEX
  8
LAYER_2
 10
227.9263
 20
-154.2413
  0
VERTEX
  8
LAYER_2
 10
227.7646
 20
-154.5728
  0
SEQEND
  0
ENDBLK
  0
BLOCK
  8
LAYER_2
  2
AIGNBL020200DA
 70
64
 10
0
 20
0
 30
0
  3
AIGNBL020200DA
  0
POLYLINE
  8
LAYER_2
  6
AIGENLINE001
 40
0.1764
 41
0.1764
 66
1
 10
0
 20
0
 30
0
 70
128
  0
VERTEX
  8
LAYER_2
 10
227.7646
 20
-154.5728
  0
VERTEX
  8
LAYER_2
 10
227.6026
 20
-154.905
  0
SEQEND
  0
ENDBLK
  0
BLOCK
  8
LAYER_2
  2
AIGNBL020200DB
 70
64
 10
0
 20
0
 30
0
  3
AIGNBL020200DB
  0
POLYLINE
  8
LAYER_2
  6
AIGENLINE001
 40
0.1764
 41
0.1764
 66
1
 10
0
 20
0
 30
0
 70
128
  0
VERTEX
  8
LAYER_2
 10
227.9267
 20
-154.2406
  0
VERTEX
  8
LAYER_2
 10
227.9263
 20
-154.2413
  0
SEQEND
  0
ENDBLK
  0
BLOCK
  8
LAYER_2
  2
AIGNBL020200DC
 70
64
 10
0
 20
0
 30
0
  3
AIGNBL020200DC
  0
POLYLINE
  8
LAYER_2
  6
AIGENLINE001
 40
0.1764
 41
0.1764
 66
1
 10
0
 20
0
 30
0
 70
128
  0
VERTEX
  8
LAYER_2
 10
227.6118
 20
-154.9318
 42
-0.3912001712
  0
VERTEX
  8
LAYER_2
 10
227.6026
 20
-154.905
  0
SEQEND
  0
ENDBLK
  0
BLOCK
  8
LAYER_2
  2
AIGNBL020200DD
 70
64
 10
0
 20
0
 30
0
  3
AIGNBL020200DD
  0
POLYLINE
  8
LAYER_2
  6
AIGENLINE001
 40
0.1764
 41
0.1764
 66
1
 10
0
 20
0
 30
0
 70
128
  0
VERTEX
  8
LAYER_2
 10
227.9534
 20
-154.2314
 42
0.3961601768
  0
VERTEX
  8
LAYER_2
 10
227.9267
 20
-154.2406
  0
SEQEND
  0
ENDBLK
  0
BLOCK
  8
LAYER_2
  2
AIGNBL020200DE
 70
64
 10
0
 20
0
 30
0
  3
AIGNBL020200DE
  0
POLYLINE
  8
LAYER_2
  6
AIGENLINE001
 40
0.1764
 41
0.1764
 66
1
 10
0
 20
0
 30
0
 70
128
  0
VERTEX
  8
LAYER_2
 10
229.2856
 20
-155.6678
  0
VERTEX
  8
LAYER_2
 10
229.1716
 20
-155.6151
  0
VERTEX
  8
LAYER_2
 10
229.0359
 20
-155.5629
  0
VERTEX
  8
LAYER_2
 10
228.883
 20
-155.5116
  0
VERTEX
  8
LAYER_2
 10
228.7233
 20
-155.457
  0
VERTEX
  8
LAYER_2
 10
228.5711
 20
-155.3968
  0
VERTEX
  8
LAYER_2
 10
228.4417
 20
-155.3365
  0
SEQEND
  0
ENDBLK
  0
BLOCK
  8
LAYER_2
  2
AIGNBL020200DF
 70
64
 10
0
 20
0
 30
0
  3
AIGNBL020200DF
  0
POLYLINE
  8
LAYER_2
  6
AIGENLINE001
 40
0.1764
 41
0.1764
 66
1
 10
0
 20
0
 30
0
 70
128
  0
VERTEX
  8
LAYER_2
 10
228.7833
 20
-154.6361
  0
VERTEX
  8
LAYER_2
 10
228.9104
 20
-154.701
  0
VERTEX
  8
LAYER_2
 10
229.0516
 20
-154.7838
  0
VERTEX
  8
LAYER_2
 10
229.193
 20
-154.8761
  0
VERTEX
  8
LAYER_2
 10
229.3275
 20
-154.965
  0
VERTEX
  8
LAYER_2
 10
229.4521
 20
-155.0398
  0
VERTEX
  8
LAYER_2
 10
229.564
 20
-155.0971
  0
SEQEND
  0
ENDBLK
  0
BLOCK
  8
LAYER_2
  2
AIGNBL020200E0
 70
64
 10
0
 20
0
 30
0
  3
AIGNBL020200E0
  0
POLYLINE
  8
LAYER_2
  6
AIGENLINE001
 40
0.1764
 41
0.1764
 66
1
 10
0
 20
0
 30
0
 70
128
  0
VERTEX
  8
LAYER_2
 10
228.442
 20
-155.3366
  0
VERTEX
  8
LAYER_2
 10
227.6106
 20
-154.9312
  0
SEQEND
  0
ENDBLK
  0
BLOCK
  8
LAYER_2
  2
AIGNBL020200E1
 70
64
 10
0
 20
0
 30
0
  3
AIGNBL020200E1
  0
POLYLINE
  8
LAYER_2
  6
AIGENLINE001
 40
0.1764
 41
0.1764
 66
1
 10
0
 20
0
 30
0
 70
128
  0
VERTEX
  8
LAYER_2
 10
227.9522
 20
-154.2308
  0
VERTEX
  8
LAYER_2
 10
228.7836
 20
-154.6362
  0
SEQEND
  0
ENDBLK
  0
BLOCK
  8
LAYER_2
  2
AIGNBL020200E2
 70
64
 10
0
 20
0
 30
0
  3
AIGNBL020200E2
  0
POLYLINE
  8
LAYER_2
  6
AIGENLINE001
 40
0.1764
 41
0.1764
 66
1
 10
0
 20
0
 30
0
 70
128
  0
VERTEX
  8
LAYER_2
 10
233.7374
 20
-157.8391
  0
VERTEX
  8
LAYER_2
 10
229.2854
 20
-155.6677
  0
SEQEND
  0
ENDBLK
  0
BLOCK
  8
LAYER_2
  2
AIGNBL020200E3
 70
64
 10
0
 20
0
 30
0
  3
AIGNBL020200E3
  0
POLYLINE
  8
LAYER_2
  6
AIGENLINE001
 40
0.1764
 41
0.1764
 66
1
 10
0
 20
0
 30
0
 70
128
  0
VERTEX
  8
LAYER_2
 10
229.5637
 20
-155.097
  0
VERTEX
  8
LAYER_2
 10
234.0158
 20
-157.2684
  0
SEQEND
  0
ENDBLK
  0
BLOCK
  8
LAYER_2
  2
AIGNBL020200E4
 70
64
 10
0
 20
0
 30
0
  3
AIGNBL020200E4
  0
POLYLINE
  8
LAYER_2
  6
AIGENLINE001
 40
0.1764
 41
0.1764
 66
1
 10
0
 20
0
 30
0
 70
128
  0
VERTEX
  8
LAYER_2
 10
233.0604
 20
-159.2713
  0
VERTEX
  8
LAYER_2
 10
237.0687
 20
-161.2263
  0
SEQEND
  0
ENDBLK
  0
BLOCK
  8
LAYER_2
  2
AIGNBL020200E5
 70
64
 10
0
 20
0
 30
0
  3
AIGNBL020200E5
  0
POLYLINE
  8
LAYER_2
  6
AIGENLINE001
 40
0.1764
 41
0.1764
 66
1
 10
0
 20
0
 30
0
 70
128
  0
VERTEX
  8
LAYER_2
 10
234.0173
 20
-157.2636
 42
-0.07201326177
  0
VERTEX
  8
LAYER_2
 10
233.7346
 20
-157.8433
  0
SEQEND
  0
ENDBLK
  0
BLOCK
  8
LAYER_2
  2
AIGNBL020200E6
 70
64
 10
0
 20
0
 30
0
  3
AIGNBL020200E6
  0
POLYLINE
  8
LAYER_2
  6
AIGENLINE001
 40
0.1764
 41
0.1764
 66
1
 10
0
 20
0
 30
0
 70
128
  0
VERTEX
  8
LAYER_2
 10
238.1193
 20
-159.0173
 42
-0.3644333891
  0
VERTEX
  8
LAYER_2
 10
238.137
 20
-159.0816
  0
SEQEND
  0
ENDBLK
  0
BLOCK
  8
LAYER_2
  2
AIGNBL020200E7
 70
64
 10
0
 20
0
 30
0
  3
AIGNBL020200E7
  0
POLYLINE
  8
LAYER_2
  6
AIGENLINE001
 40
0.1764
 41
0.1764
 66
1
 10
0
 20
0
 30
0
 70
128
  0
VERTEX
  8
LAYER_2
 10
234.0927
 20
-157.1091
 42
-0.3265436156
  0
VERTEX
  8
LAYER_2
 10
234.147
 20
-157.0815
  0
SEQEND
  0
ENDBLK
  0
BLOCK
  8
LAYER_2
  2
AIGNBL020200E8
 70
64
 10
0
 20
0
 30
0
  3
AIGNBL020200E8
  0
POLYLINE
  8
LAYER_2
  6
AIGENLINE001
 40
0.1764
 41
0.1764
 66
1
 10
0
 20
0
 30
0
 70
128
  0
VERTEX
  8
LAYER_2
 10
233.0604
 20
-159.2713
 42
-0.3958804863
  0
VERTEX
  8
LAYER_2
 10
233.0512
 20
-159.2446
  0
SEQEND
  0
ENDBLK
  0
BLOCK
  8
LAYER_2
  2
AIGNBL020200E9
 70
64
 10
0
 20
0
 30
0
  3
AIGNBL020200E9
  0
POLYLINE
  8
LAYER_2
  6
AIGENLINE001
 40
0.1764
 41
0.1764
 66
1
 10
0
 20
0
 30
0
 70
128
  0
VERTEX
  8
LAYER_2
 10
237.0954
 20
-161.2171
 42
-0.3958804861
  0
VERTEX
  8
LAYER_2
 10
237.0687
 20
-161.2263
  0
SEQEND
  0
ENDBLK
  0
BLOCK
  8
LAYER_2
  2
AIGNBL020200EA
 70
64
 10
0
 20
0
 30
0
  3
AIGNBL020200EA
  0
POLYLINE
  8
LAYER_2
  6
AIGENLINE001
 40
0.1764
 41
0.1764
 66
1
 10
0
 20
0
 30
0
 70
128
  0
VERTEX
  8
LAYER_2
 10
234.0173
 20
-157.2636
  0
VERTEX
  8
LAYER_2
 10
234.0931
 20
-157.1083
  0
SEQEND
  0
ENDBLK
  0
BLOCK
  8
LAYER_2
  2
AIGNBL020200EB
 70
64
 10
0
 20
0
 30
0
  3
AIGNBL020200EB
  0
POLYLINE
  8
LAYER_2
  6
AIGENLINE001
 40
0.1764
 41
0.1764
 66
1
 10
0
 20
0
 30
0
 70
128
  0
VERTEX
  8
LAYER_2
 10
233.0512
 20
-159.2446
  0
VERTEX
  8
LAYER_2
 10
233.7364
 20
-157.8396
  0
SEQEND
  0
ENDBLK
  0
BLOCK
  8
LAYER_2
  2
AIGNBL020200EC
 70
64
 10
0
 20
0
 30
0
  3
AIGNBL020200EC
  0
POLYLINE
  8
LAYER_2
  6
AIGENLINE001
 40
0.1764
 41
0.1764
 66
1
 10
0
 20
0
 30
0
 70
128
  0
VERTEX
  8
LAYER_2
 10
237.6704
 20
-160.0382
  0
VERTEX
  8
LAYER_2
 10
237.0954
 20
-161.2171
  0
SEQEND
  0
ENDBLK
  0
BLOCK
  8
LAYER_2
  2
AIGNBL020200ED
 70
64
 10
0
 20
0
 30
0
  3
AIGNBL020200ED
  0
POLYLINE
  8
LAYER_2
  6
AIGENLINE001
 40
0.1764
 41
0.1764
 66
1
 10
0
 20
0
 30
0
 70
128
  0
VERTEX
  8
LAYER_2
 10
238.1374
 20
-159.0809
  0
VERTEX
  8
LAYER_2
 10
237.9796
 20
-159.4042
  0
SEQEND
  0
ENDBLK
  0
BLOCK
  8
LAYER_2
  2
AIGNBL020200EE
 70
64
 10
0
 20
0
 30
0
  3
AIGNBL020200EE
  0
POLYLINE
  8
LAYER_2
  6
AIGENLINE001
 40
0.1764
 41
0.1764
 66
1
 10
0
 20
0
 30
0
 70
128
  0
VERTEX
  8
LAYER_2
 10
234.147
 20
-157.0815
 42
-0.03703127835
  0
VERTEX
  8
LAYER_2
 10
238.116
 20
-159.0166
  0
SEQEND
  0
ENDBLK
  0
BLOCK
  8
LAYER_2
  2
AIGNBL020200EF
 70
64
 10
0
 20
0
 30
0
  3
AIGNBL020200EF
  0
POLYLINE
  8
LAYER_2
  6
AIGENLINE002
 40
0.1764
 41
0.1764
 66
1
 10
0
 20
0
 30
0
 70
128
  0
VERTEX
  8
LAYER_2
 10
234.4452
 20
-181.2225
  0
VERTEX
  8
LAYER_2
 10
234.4452
 20
-173.4415
  0
SEQEND
  0
ENDBLK
  0
BLOCK
  8
LAYER_2
  2
AIGNBL020200F0
 70
64
 10
0
 20
0
 30
0
  3
AIGNBL020200F0
  0
POLYLINE
  8
LAYER_2
 40
0.1764
 41
0.1764
 66
1
 10
0
 20
0
 30
0
  0
VERTEX
  8
LAYER_2
 10
225.872
 20
-161.4037
  0
VERTEX
  8
LAYER_2
 10
232.0954
 20
-161.4037
  0
SEQEND
  0
ENDBLK
  0
BLOCK
  8
LAYER_2
  2
AIGNBL020200F1
 70
64
 10
0
 20
0
 30
0
  3
AIGNBL020200F1
  0
POLYLINE
  8
LAYER_2
 40
0.1764
 41
0.1764
 66
1
 10
0
 20
0
 30
0
  0
VERTEX
  8
LAYER_2
 10
222.1268
 20
-163.566
 42
-0.1316498886
  0
VERTEX
  8
LAYER_2
 10
223.7097
 20
-161.9831
 42
-0.06554326399
  0
VERTEX
  8
LAYER_2
 10
224.7527
 20
-161.551
 42
-0.03271407974
  0
VERTEX
  8
LAYER_2
 10
225.3076
 20
-161.4407
  0
VERTEX
  8
LAYER_2
 10
225.5892
 20
-161.4129
  0
VERTEX
  8
LAYER_2
 10
225.872
 20
-161.4037
  0
SEQEND
  0
ENDBLK
  0
BLOCK
  8
LAYER_2
  2
AIGNBL020200F2
 70
64
 10
0
 20
0
 30
0
  3
AIGNBL020200F2
  0
POLYLINE
  8
LAYER_2
 40
0.1764
 41
0.1764
 66
1
 10
0
 20
0
 30
0
  0
VERTEX
  8
LAYER_2
 10
225.872
 20
-163.8535
  0
VERTEX
  8
LAYER_2
 10
225.7494
 20
-163.8575
  0
VERTEX
  8
LAYER_2
 10
225.6273
 20
-163.8695
  0
VERTEX
  8
LAYER_2
 10
225.3868
 20
-163.9174
 42
0.06537871888
  0
VERTEX
  8
LAYER_2
 10
224.9346
 20
-164.1047
 42
0.1316449594
  0
VERTEX
  8
LAYER_2
 10
224.2484
 20
-164.7909
  0
SEQEND
  0
ENDBLK
  0
BLOCK
  8
LAYER_2
  2
AIGNBL020200F3
 70
64
 10
0
 20
0
 30
0
  3
AIGNBL020200F3
  0
POLYLINE
  8
LAYER_2
 40
0.1764
 41
0.1764
 66
1
 10
0
 20
0
 30
0
  0
VERTEX
  8
LAYER_2
 10
224.2484
 20
-164.7909
  0
VERTEX
  8
LAYER_2
 10
223.8834
 20
-165.4231
  0
SEQEND
  0
ENDBLK
  0
BLOCK
  8
LAYER_2
  2
AIGNBL020200F4
 70
64
 10
0
 20
0
 30
0
  3
AIGNBL020200F4
  0
POLYLINE
  8
LAYER_2
 40
0.1764
 41
0.1764
 66
1
 10
0
 20
0
 30
0
  0
VERTEX
  8
LAYER_2
 10
221.7618
 20
-164.1982
  0
VERTEX
  8
LAYER_2
 10
222.1268
 20
-163.566
  0
SEQEND
  0
ENDBLK
  0
BLOCK
  8
LAYER_2
  2
AIGNBL020200F5
 70
64
 10
0
 20
0
 30
0
  3
AIGNBL020200F5
  0
POLYLINE
  8
LAYER_2
 40
0.1764
 41
0.1764
 66
1
 10
0
 20
0
 30
0
  0
VERTEX
  8
LAYER_2
 10
221.7691
 20
-164.2255
  0
VERTEX
  8
LAYER_2
 10
223.8561
 20
-165.4304
  0
SEQEND
  0
ENDBLK
  0
BLOCK
  8
LAYER_2
  2
AIGNBL020200F6
 70
64
 10
0
 20
0
 30
0
  3
AIGNBL020200F6
  0
POLYLINE
  8
LAYER_2
 40
0.1764
 41
0.1764
 66
1
 10
0
 20
0
 30
0
  0
VERTEX
  8
LAYER_2
 10
221.7618
 20
-164.1982
  0
VERTEX
  8
LAYER_2
 10
221.7598
 20
-164.2133
  0
VERTEX
  8
LAYER_2
 10
221.7691
 20
-164.2255
  0
SEQEND
  0
ENDBLK
  0
BLOCK
  8
LAYER_2
  2
AIGNBL020200F7
 70
64
 10
0
 20
0
 30
0
  3
AIGNBL020200F7
  0
POLYLINE
  8
LAYER_2
 40
0.1764
 41
0.1764
 66
1
 10
0
 20
0
 30
0
  0
VERTEX
  8
LAYER_2
 10
223.8561
 20
-165.4304
  0
VERTEX
  8
LAYER_2
 10
223.8713
 20
-165.4324
  0
VERTEX
  8
LAYER_2
 10
223.8834
 20
-165.4231
  0
SEQEND
  0
ENDBLK
  0
BLOCK
  8
LAYER_2
  2
AIGNBL020200F8
 70
64
 10
0
 20
0
 30
0
  3
AIGNBL020200F8
  0
POLYLINE
  8
LAYER_2
 40
0.1764
 41
0.1764
 66
1
 10
0
 20
0
 30
0
  0
VERTEX
  8
LAYER_2
 10
232.0954
 20
-163.8535
  0
VERTEX
  8
LAYER_2
 10
225.872
 20
-163.8535
  0
SEQEND
  0
ENDBLK
  0
BLOCK
  8
LAYER_2
  2
AIGNBL020200F9
 70
64
 10
0
 20
0
 30
0
  3
AIGNBL020200F9
  0
POLYLINE
  8
LAYER_2
 40
0.1764
 41
0.1764
 66
1
 10
0
 20
0
 30
0
  0
VERTEX
  8
LAYER_2
 10
232.3115
 20
-164.0324
  0
VERTEX
  8
LAYER_2
 10
232.2954
 20
-164.0535
  0
SEQEND
  0
ENDBLK
  0
BLOCK
  8
LAYER_2
  2
AIGNBL020200FA
 70
64
 10
0
 20
0
 30
0
  3
AIGNBL020200FA
  0
POLYLINE
  8
LAYER_2
 40
0.1764
 41
0.1764
 66
1
 10
0
 20
0
 30
0
  0
VERTEX
  8
LAYER_2
 10
232.301
 20
-161.211
 42
-0.3374242442
  0
VERTEX
  8
LAYER_2
 10
232.3115
 20
-164.0324
  0
SEQEND
  0
ENDBLK
  0
BLOCK
  8
LAYER_2
  2
AIGNBL020200FB
 70
64
 10
0
 20
0
 30
0
  3
AIGNBL020200FB
  0
POLYLINE
  8
LAYER_2
 40
0.1764
 41
0.1764
 66
1
 10
0
 20
0
 30
0
  0
VERTEX
  8
LAYER_2
 10
232.2954
 20
-161.2037
  0
VERTEX
  8
LAYER_2
 10
232.301
 20
-161.211
  0
SEQEND
  0
ENDBLK
  0
BLOCK
  8
LAYER_2
  2
AIGNBL020200FC
 70
64
 10
0
 20
0
 30
0
  3
AIGNBL020200FC
  0
POLYLINE
  8
LAYER_2
 40
0.1764
 41
0.1764
 66
1
 10
0
 20
0
 30
0
  0
VERTEX
  8
LAYER_2
 10
232.0954
 20
-163.8535
  0
VERTEX
  8
LAYER_2
 10
232.1326
 20
-163.857
  0
SEQEND
  0
ENDBLK
  0
BLOCK
  8
LAYER_2
  2
AIGNBL020200FD
 70
64
 10
0
 20
0
 30
0
  3
AIGNBL020200FD
  0
POLYLINE
  8
LAYER_2
 40
0.1764
 41
0.1764
 66
1
 10
0
 20
0
 30
0
  0
VERTEX
  8
LAYER_2
 10
232.292
 20
-161.2404
 42
-0.3611101832
  0
VERTEX
  8
LAYER_2
 10
232.0954
 20
-161.4037
  0
SEQEND
  0
ENDBLK
  0
BLOCK
  8
LAYER_2
  2
AIGNBL020200FE
 70
64
 10
0
 20
0
 30
0
  3
AIGNBL020200FE
  0
POLYLINE
  8
LAYER_2
 40
0.1764
 41
0.1764
 66
1
 10
0
 20
0
 30
0
  0
VERTEX
  8
LAYER_2
 10
232.1318
 20
-163.8568
 42
-0.3128826938
  0
VERTEX
  8
LAYER_2
 10
232.309
 20
-164.0311
  0
SEQEND
  0
ENDBLK
  0
BLOCK
  8
LAYER_2
  2
AIGNBL020200FF
 70
64
 10
0
 20
0
 30
0
  3
AIGNBL020200FF
  0
POLYLINE
  8
LAYER_2
 40
0.1764
 41
0.1764
 66
1
 10
0
 20
0
 30
0
  0
VERTEX
  8
LAYER_2
 10
232.2918
 20
-161.2411
  0
VERTEX
  8
LAYER_2
 10
232.3002
 20
-161.2116
  0
SEQEND
  0
ENDBLK
  0
BLOCK
  8
LAYER_2
  2
AIGNBL02020101
 70
64
 10
0
 20
0
 30
0
  3
AIGNBL02020101
  0
POLYLINE
  8
LAYER_2
 40
0.1764
 41
0.1764
 66
1
 10
0
 20
0
 30
0
  0
VERTEX
  8
LAYER_2
 10
130.4276
 20
-96.3251
 42
-0.4142092524
  0
VERTEX
  8
LAYER_2
 10
129.589
 20
-93.0369
 42
-0.2647099459
  0
VERTEX
  8
LAYER_2
 10
131.6524
 20
-91.8622
  0
SEQEND
  0
ENDBLK
  0
BLOCK
  8
LAYER_2
  2
AIGNBL02020102
 70
64
 10
0
 20
0
 30
0
  3
AIGNBL02020102
  0
POLYLINE
  8
LAYER_2
 40
0.1764
 41
0.1764
 66
1
 10
0
 20
0
 30
0
  0
VERTEX
  8
LAYER_2
 10
131.6524
 20
-91.8622
 42
-0.4142157647
  0
VERTEX
  8
LAYER_2
 10
134.052
 20
-94.2617
 42
-0.2647061933
  0
VERTEX
  8
LAYER_2
 10
132.8773
 20
-96.3251
  0
SEQEND
  0
ENDBLK
  0
BLOCK
  8
LAYER_2
  2
AIGNBL02020103
 70
64
 10
0
 20
0
 30
0
  3
AIGNBL02020103
  0
POLYLINE
  8
LAYER_2
 40
0.1764
 41
0.1764
 66
1
 10
0
 20
0
 30
0
  0
VERTEX
  8
LAYER_2
 10
133.8897
 20
-94.4995
 42
-0.1989067416
  0
VERTEX
  8
LAYER_2
 10
133.0663
 20
-96.0118
 42
-0.1989120642
  0
VERTEX
  8
LAYER_2
 10
131.4147
 20
-96.4989
 42
-0.09848364173
  0
VERTEX
  8
LAYER_2
 10
130.5767
 20
-96.2377
 42
-0.04926937633
  0
VERTEX
  8
LAYER_2
 10
130.2118
 20
-95.9898
  0
VERTEX
  8
LAYER_2
 10
130.0494
 20
-95.8403
  0
VERTEX
  8
LAYER_2
 10
129.9024
 20
-95.6756
 42
-0.171554642
  0
VERTEX
  8
LAYER_2
 10
129.4026
 20
-94.2616
  0
SEQEND
  0
ENDBLK
  0
BLOCK
  8
LAYER_2
  2
AIGNBL02020104
 70
64
 10
0
 20
0
 30
0
  3
AIGNBL02020104
  0
POLYLINE
  8
LAYER_2
 40
0.1764
 41
0.1764
 66
1
 10
0
 20
0
 30
0
  0
VERTEX
  8
LAYER_2
 10
129.4026
 20
-94.2616
  0
VERTEX
  8
LAYER_2
 10
129.4152
 20
-94.024
  0
SEQEND
  0
ENDBLK
  0
BLOCK
  8
LAYER_2
  2
AIGNBL02020105
 70
64
 10
0
 20
0
 30
0
  3
AIGNBL02020105
  0
POLYLINE
  8
LAYER_2
 40
0.1764
 41
0.1764
 66
1
 10
0
 20
0
 30
0
  0
VERTEX
  8
LAYER_2
 10
129.4152
 20
-94.024
 42
-0.4142088012
  0
VERTEX
  8
LAYER_2
 10
131.8901
 20
-92.0245
 42
-0.3835417959
  0
VERTEX
  8
LAYER_2
 10
133.9023
 20
-94.2617
  0
SEQEND
  0
ENDBLK
  0
BLOCK
  8
LAYER_2
  2
AIGNBL02020106
 70
64
 10
0
 20
0
 30
0
  3
AIGNBL02020106
  0
POLYLINE
  8
LAYER_2
 40
0.1764
 41
0.1764
 66
1
 10
0
 20
0
 30
0
  0
VERTEX
  8
LAYER_2
 10
133.9023
 20
-94.2617
  0
VERTEX
  8
LAYER_2
 10
133.8897
 20
-94.4995
  0
SEQEND
  0
ENDBLK
  0
BLOCK
  8
LAYER_2
  2
AIGNBL02020107
 70
64
 10
0
 20
0
 30
0
  3
AIGNBL02020107
  0
POLYLINE
  8
LAYER_2
 40
0.1764
 41
0.1764
 66
1
 10
0
 20
0
 30
0
  0
VERTEX
  8
LAYER_2
 10
131.9699
 20
-101.4639
  0
VERTEX
  8
LAYER_2
 10
131.9701
 20
-101.5087
  0
VERTEX
  8
LAYER_2
 10
131.9711
 20
-101.5563
  0
VERTEX
  8
LAYER_2
 10
131.9734
 20
-101.6067
  0
VERTEX
  8
LAYER_2
 10
131.9774
 20
-101.6598
  0
VERTEX
  8
LAYER_2
 10
131.9829
 20
-101.7153
  0
VERTEX
  8
LAYER_2
 10
131.9898
 20
-101.7732
  0
VERTEX
  8
LAYER_2
 10
132.006
 20
-101.8943
  0
VERTEX
  8
LAYER_2
 10
132.0222
 20
-102.0198
  0
VERTEX
  8
LAYER_2
 10
132.0346
 20
-102.1448
  0
VERTEX
  8
LAYER_2
 10
132.0385
 20
-102.2053
  0
VERTEX
  8
LAYER_2
 10
132.0409
 20
-102.2633
  0
VERTEX
  8
LAYER_2
 10
132.0419
 20
-102.3178
  0
VERTEX
  8
LAYER_2
 10
132.0421
 20
-102.3677
  0
SEQEND
  0
ENDBLK
  0
BLOCK
  8
LAYER_2
  2
AIGNBL02020108
 70
64
 10
0
 20
0
 30
0
  3
AIGNBL02020108
  0
POLYLINE
  8
LAYER_2
 40
0.1764
 41
0.1764
 66
1
 10
0
 20
0
 30
0
  0
VERTEX
  8
LAYER_2
 10
131.2628
 20
-102.3677
  0
VERTEX
  8
LAYER_2
 10
131.263
 20
-102.3178
  0
VERTEX
  8
LAYER_2
 10
131.264
 20
-102.2633
  0
VERTEX
  8
LAYER_2
 10
131.2663
 20
-102.2053
  0
VERTEX
  8
LAYER_2
 10
131.2703
 20
-102.1448
  0
VERTEX
  8
LAYER_2
 10
131.2827
 20
-102.0198
  0
VERTEX
  8
LAYER_2
 10
131.2989
 20
-101.8943
  0
VERTEX
  8
LAYER_2
 10
131.3151
 20
-101.7732
  0
VERTEX
  8
LAYER_2
 10
131.322
 20
-101.7153
  0
VERTEX
  8
LAYER_2
 10
131.3275
 20
-101.6598
  0
VERTEX
  8
LAYER_2
 10
131.3314
 20
-101.6067
  0
VERTEX
  8
LAYER_2
 10
131.3338
 20
-101.5563
  0
VERTEX
  8
LAYER_2
 10
131.3348
 20
-101.5087
  0
VERTEX
  8
LAYER_2
 10
131.335
 20
-101.4639
  0
SEQEND
  0
ENDBLK
  0
BLOCK
  8
LAYER_2
  2
AIGNBL02020109
 70
64
 10
0
 20
0
 30
0
  3
AIGNBL02020109
  0
POLYLINE
  8
LAYER_2
 40
0.1764
 41
0.1764
 66
1
 10
0
 20
0
 30
0
  0
VERTEX
  8
LAYER_2
 10
131.6768
 20
-103.311
  0
VERTEX
  8
LAYER_2
 10
132.0221
 20
-103.311
  0
SEQEND
  0
ENDBLK
  0
BLOCK
  8
LAYER_2
  2
AIGNBL0202010A
 70
64
 10
0
 20
0
 30
0
  3
AIGNBL0202010A
  0
POLYLINE
  8
LAYER_2
 40
0.1764
 41
0.1764
 66
1
 10
0
 20
0
 30
0
  0
VERTEX
  8
LAYER_2
 10
132.0221
 20
-103.311
  0
VERTEX
  8
LAYER_2
 10
131.6524
 20
-103.311
  0
SEQEND
  0
ENDBLK
  0
BLOCK
  8
LAYER_2
  2
AIGNBL0202010B
 70
64
 10
0
 20
0
 30
0
  3
AIGNBL0202010B
  0
POLYLINE
  8
LAYER_2
 40
0.1764
 41
0.1764
 66
1
 10
0
 20
0
 30
0
  0
VERTEX
  8
LAYER_2
 10
131.6524
 20
-103.311
  0
VERTEX
  8
LAYER_2
 10
131.2828
 20
-103.311
  0
SEQEND
  0
ENDBLK
  0
BLOCK
  8
LAYER_2
  2
AIGNBL0202010C
 70
64
 10
0
 20
0
 30
0
  3
AIGNBL0202010C
  0
POLYLINE
  8
LAYER_2
 40
0.1764
 41
0.1764
 66
1
 10
0
 20
0
 30
0
  0
VERTEX
  8
LAYER_2
 10
131.6524
 20
-103.311
  0
VERTEX
  8
LAYER_2
 10
131.6768
 20
-103.311
  0
SEQEND
  0
ENDBLK
  0
BLOCK
  8
LAYER_2
  2
AIGNBL0202010D
 70
64
 10
0
 20
0
 30
0
  3
AIGNBL0202010D
  0
POLYLINE
  8
LAYER_2
 40
0.1764
 41
0.1764
 66
1
 10
0
 20
0
 30
0
  0
VERTEX
  8
LAYER_2
 10
132.0221
 20
-103.311
 42
0.3930525236
  0
VERTEX
  8
LAYER_2
 10
132.0421
 20
-103.291
  0
SEQEND
  0
ENDBLK
  0
BLOCK
  8
LAYER_2
  2
AIGNBL0202010E
 70
64
 10
0
 20
0
 30
0
  3
AIGNBL0202010E
  0
POLYLINE
  8
LAYER_2
 40
0.1764
 41
0.1764
 66
1
 10
0
 20
0
 30
0
  0
VERTEX
  8
LAYER_2
 10
132.0421
 20
-102.3674
  0
VERTEX
  8
LAYER_2
 10
132.0421
 20
-103.2923
  0
SEQEND
  0
ENDBLK
  0
BLOCK
  8
LAYER_2
  2
AIGNBL0202010F
 70
64
 10
0
 20
0
 30
0
  3
AIGNBL0202010F
  0
POLYLINE
  8
LAYER_2
 40
0.1764
 41
0.1764
 66
1
 10
0
 20
0
 30
0
  0
VERTEX
  8
LAYER_2
 10
131.2628
 20
-103.2923
  0
VERTEX
  8
LAYER_2
 10
131.2628
 20
-102.3674
  0
SEQEND
  0
ENDBLK
  0
BLOCK
  8
LAYER_2
  2
AIGNBL02020110
 70
64
 10
0
 20
0
 30
0
  3
AIGNBL02020110
  0
POLYLINE
  8
LAYER_2
 40
0.1764
 41
0.1764
 66
1
 10
0
 20
0
 30
0
  0
VERTEX
  8
LAYER_2
 10
131.9699
 20
-96.4887
  0
VERTEX
  8
LAYER_2
 10
131.9699
 20
-101.4642
  0
SEQEND
  0
ENDBLK
  0
BLOCK
  8
LAYER_2
  2
AIGNBL02020111
 70
64
 10
0
 20
0
 30
0
  3
AIGNBL02020111
  0
POLYLINE
  8
LAYER_2
 40
0.1764
 41
0.1764
 66
1
 10
0
 20
0
 30
0
  0
VERTEX
  8
LAYER_2
 10
131.335
 20
-101.4642
  0
VERTEX
  8
LAYER_2
 10
131.335
 20
-96.4879
  0
SEQEND
  0
ENDBLK
  0
BLOCK
  8
LAYER_2
  2
AIGNBL02020112
 70
64
 10
0
 20
0
 30
0
  3
AIGNBL02020112
  0
POLYLINE
  8
LAYER_2
 40
0.1764
 41
0.1764
 66
1
 10
0
 20
0
 30
0
  0
VERTEX
  8
LAYER_2
 10
131.2812
 20
-103.3107
  0
VERTEX
  8
LAYER_2
 10
131.2628
 20
-103.291
  0
SEQEND
  0
ENDBLK
  0
BLOCK
  8
LAYER_2
  2
AIGNBL02020113
 70
64
 10
0
 20
0
 30
0
  3
AIGNBL02020113
  0
POLYLINE
  8
LAYER_2
 40
0.1764
 41
0.1764
 66
1
 10
0
 20
0
 30
0
 70
1
  0
VERTEX
  8
LAYER_2
 10
130.8918
 20
-95.7983
 42
0.4144082208
  0
VERTEX
  8
LAYER_2
 10
130.7918
 20
-95.8983
 42
0.4142489478
  0
VERTEX
  8
LAYER_2
 10
130.8918
 20
-95.9983
 42
0.4140190559
  0
VERTEX
  8
LAYER_2
 10
130.9918
 20
-95.8983
 42
0.4141780529
  0
SEQEND
  0
ENDBLK
  0
BLOCK
  8
LAYER_2
  2
AIGNBL02020114
 70
64
 10
0
 20
0
 30
0
  3
AIGNBL02020114
  0
POLYLINE
  8
LAYER_2
 40
0.1764
 41
0.1764
 66
1
 10
0
 20
0
 30
0
 70
1
  0
VERTEX
  8
LAYER_2
 10
132.4131
 20
-95.7983
 42
0.4143786631
  0
VERTEX
  8
LAYER_2
 10
132.3131
 20
-95.8983
 42
0.4142194264
  0
VERTEX
  8
LAYER_2
 10
132.4131
 20
-95.9983
 42
0.4140485739
  0
VERTEX
  8
LAYER_2
 10
132.5131
 20
-95.8983
 42
0.4142076056
  0
SEQEND
  0
ENDBLK
  0
BLOCK
  8
LAYER_2
  2
AIGNBL02020115
 70
64
 10
0
 20
0
 30
0
  3
AIGNBL02020115
  0
POLYLINE
  8
LAYER_2
  6
AIGENLINE001
 40
0.1764
 41
0.1764
 66
1
 10
0
 20
0
 30
0
 70
128
  0
VERTEX
  8
LAYER_2
 10
126.3393
 20
-99.1344
  0
VERTEX
  8
LAYER_2
 10
126.3051
 20
-99.1633
  0
VERTEX
  8
LAYER_2
 10
126.2693
 20
-99.1947
  0
VERTEX
  8
LAYER_2
 10
126.2322
 20
-99.2289
  0
VERTEX
  8
LAYER_2
 10
126.1941
 20
-99.266
  0
VERTEX
  8
LAYER_2
 10
126.1551
 20
-99.306
  0
VERTEX
  8
LAYER_2
 10
126.1152
 20
-99.3484
  0
VERTEX
  8
LAYER_2
 10
126.0744
 20
-99.3928
  0
VERTEX
  8
LAYER_2
 10
126.0328
 20
-99.4387
  0
VERTEX
  8
LAYER_2
 10
125.9471
 20
-99.5318
  0
VERTEX
  8
LAYER_2
 10
125.9033
 20
-99.5775
  0
VERTEX
  8
LAYER_2
 10
125.8593
 20
-99.6216
  0
VERTEX
  8
LAYER_2
 10
125.8154
 20
-99.6636
  0
VERTEX
  8
LAYER_2
 10
125.7725
 20
-99.7027
  0
VERTEX
  8
LAYER_2
 10
125.7314
 20
-99.7384
  0
VERTEX
  8
LAYER_2
 10
125.7119
 20
-99.755
  0
VERTEX
  8
LAYER_2
 10
125.6934
 20
-99.7706
  0
SEQEND
  0
ENDBLK
  0
BLOCK
  8
LAYER_2
  2
AIGNBL02020116
 70
64
 10
0
 20
0
 30
0
  3
AIGNBL02020116
  0
POLYLINE
  8
LAYER_2
  6
AIGENLINE001
 40
0.1764
 41
0.1764
 66
1
 10
0
 20
0
 30
0
 70
128
  0
VERTEX
  8
LAYER_2
 10
125.1925
 20
-99.1736
  0
VERTEX
  8
LAYER_2
 10
125.2307
 20
-99.1417
  0
VERTEX
  8
LAYER_2
 10
125.2731
 20
-99.1075
  0
VERTEX
  8
LAYER_2
 10
125.3191
 20
-99.072
  0
VERTEX
  8
LAYER_2
 10
125.368
 20
-99.0361
  0
VERTEX
  8
LAYER_2
 10
125.4191
 20
-99.0004
  0
VERTEX
  8
LAYER_2
 10
125.4717
 20
-98.9652
  0
VERTEX
  8
LAYER_2
 10
125.5783
 20
-98.897
  0
VERTEX
  8
LAYER_2
 10
125.6307
 20
-98.864
  0
VERTEX
  8
LAYER_2
 10
125.6815
 20
-98.8316
  0
VERTEX
  8
LAYER_2
 10
125.7302
 20
-98.7996
  0
VERTEX
  8
LAYER_2
 10
125.7763
 20
-98.7682
  0
VERTEX
  8
LAYER_2
 10
125.8195
 20
-98.7371
  0
VERTEX
  8
LAYER_2
 10
125.8596
 20
-98.7065
  0
VERTEX
  8
LAYER_2
 10
125.8967
 20
-98.6767
  0
VERTEX
  8
LAYER_2
 10
125.9311
 20
-98.648
  0
SEQEND
  0
ENDBLK
  0
BLOCK
  8
LAYER_2
  2
AIGNBL02020117
 70
64
 10
0
 20
0
 30
0
  3
AIGNBL02020117
  0
POLYLINE
  8
LAYER_2
  6
AIGENLINE001
 40
0.1764
 41
0.1764
 66
1
 10
0
 20
0
 30
0
 70
128
  0
VERTEX
  8
LAYER_2
 10
124.7359
 20
-100.0972
  0
VERTEX
  8
LAYER_2
 10
124.9579
 20
-100.3617
  0
SEQEND
  0
ENDBLK
  0
BLOCK
  8
LAYER_2
  2
AIGNBL02020118
 70
64
 10
0
 20
0
 30
0
  3
AIGNBL02020118
  0
POLYLINE
  8
LAYER_2
  6
AIGENLINE001
 40
0.1764
 41
0.1764
 66
1
 10
0
 20
0
 30
0
 70
128
  0
VERTEX
  8
LAYER_2
 10
124.9579
 20
-100.3617
  0
VERTEX
  8
LAYER_2
 10
124.7203
 20
-100.0785
  0
SEQEND
  0
ENDBLK
  0
BLOCK
  8
LAYER_2
  2
AIGNBL02020119
 70
64
 10
0
 20
0
 30
0
  3
AIGNBL02020119
  0
POLYLINE
  8
LAYER_2
  6
AIGENLINE001
 40
0.1764
 41
0.1764
 66
1
 10
0
 20
0
 30
0
 70
128
  0
VERTEX
  8
LAYER_2
 10
124.7203
 20
-100.0785
  0
VERTEX
  8
LAYER_2
 10
124.4827
 20
-99.7954
  0
SEQEND
  0
ENDBLK
  0
BLOCK
  8
LAYER_2
  2
AIGNBL0202011A
 70
64
 10
0
 20
0
 30
0
  3
AIGNBL0202011A
  0
POLYLINE
  8
LAYER_2
  6
AIGENLINE001
 40
0.1764
 41
0.1764
 66
1
 10
0
 20
0
 30
0
 70
128
  0
VERTEX
  8
LAYER_2
 10
124.7203
 20
-100.0785
  0
VERTEX
  8
LAYER_2
 10
124.7359
 20
-100.0972
  0
SEQEND
  0
ENDBLK
  0
BLOCK
  8
LAYER_2
  2
AIGNBL0202011B
 70
64
 10
0
 20
0
 30
0
  3
AIGNBL0202011B
  0
POLYLINE
  8
LAYER_2
  6
AIGENLINE001
 40
0.1764
 41
0.1764
 66
1
 10
0
 20
0
 30
0
 70
128
  0
VERTEX
  8
LAYER_2
 10
124.9579
 20
-100.3617
 42
0.3936448628
  0
VERTEX
  8
LAYER_2
 10
124.986
 20
-100.3641
  0
SEQEND
  0
ENDBLK
  0
BLOCK
  8
LAYER_2
  2
AIGNBL0202011C
 70
64
 10
0
 20
0
 30
0
  3
AIGNBL0202011C
  0
POLYLINE
  8
LAYER_2
  6
AIGENLINE001
 40
0.1764
 41
0.1764
 66
1
 10
0
 20
0
 30
0
 70
128
  0
VERTEX
  8
LAYER_2
 10
125.6936
 20
-99.7704
  0
VERTEX
  8
LAYER_2
 10
124.985
 20
-100.365
  0
SEQEND
  0
ENDBLK
  0
BLOCK
  8
LAYER_2
  2
AIGNBL0202011D
 70
64
 10
0
 20
0
 30
0
  3
AIGNBL0202011D
  0
POLYLINE
  8
LAYER_2
  6
AIGENLINE001
 40
0.1764
 41
0.1764
 66
1
 10
0
 20
0
 30
0
 70
128
  0
VERTEX
  8
LAYER_2
 10
124.4841
 20
-99.768
  0
VERTEX
  8
LAYER_2
 10
125.1927
 20
-99.1735
  0
SEQEND
  0
ENDBLK
  0
BLOCK
  8
LAYER_2
  2
AIGNBL0202011E
 70
64
 10
0
 20
0
 30
0
  3
AIGNBL0202011E
  0
POLYLINE
  8
LAYER_2
  6
AIGENLINE001
 40
0.1764
 41
0.1764
 66
1
 10
0
 20
0
 30
0
 70
128
  0
VERTEX
  8
LAYER_2
 10
130.1505
 20
-95.9364
  0
VERTEX
  8
LAYER_2
 10
126.3391
 20
-99.1346
  0
SEQEND
  0
ENDBLK
  0
BLOCK
  8
LAYER_2
  2
AIGNBL0202011F
 70
64
 10
0
 20
0
 30
0
  3
AIGNBL0202011F
  0
POLYLINE
  8
LAYER_2
  6
AIGENLINE001
 40
0.1764
 41
0.1764
 66
1
 10
0
 20
0
 30
0
 70
128
  0
VERTEX
  8
LAYER_2
 10
125.9309
 20
-98.6482
  0
VERTEX
  8
LAYER_2
 10
129.743
 20
-95.4495
  0
SEQEND
  0
ENDBLK
  0
BLOCK
  8
LAYER_2
  2
AIGNBL02020120
 70
64
 10
0
 20
0
 30
0
  3
AIGNBL02020120
  0
POLYLINE
  8
LAYER_2
  6
AIGENLINE001
 40
0.1764
 41
0.1764
 66
1
 10
0
 20
0
 30
0
 70
128
  0
VERTEX
  8
LAYER_2
 10
124.4818
 20
-99.7939
  0
VERTEX
  8
LAYER_2
 10
124.4851
 20
-99.7672
  0
SEQEND
  0
ENDBLK
  0
BLOCK
  8
LAYER_2
  2
AIGNBL02020121
 70
64
 10
0
 20
0
 30
0
  3
AIGNBL02020121
  0
POLYLINE
  8
LAYER_2
  6
AIGENLINE001
 40
0.1764
 41
0.1764
 66
1
 10
0
 20
0
 30
0
 70
128
  0
VERTEX
  8
LAYER_2
 10
137.3737
 20
-98.648
  0
VERTEX
  8
LAYER_2
 10
137.4081
 20
-98.6767
  0
VERTEX
  8
LAYER_2
 10
137.4452
 20
-98.7065
  0
VERTEX
  8
LAYER_2
 10
137.4854
 20
-98.7371
  0
VERTEX
  8
LAYER_2
 10
137.5285
 20
-98.7682
  0
VERTEX
  8
LAYER_2
 10
137.5747
 20
-98.7996
  0
VERTEX
  8
LAYER_2
 10
137.6234
 20
-98.8316
  0
VERTEX
  8
LAYER_2
 10
137.6742
 20
-98.864
  0
VERTEX
  8
LAYER_2
 10
137.7266
 20
-98.897
  0
VERTEX
  8
LAYER_2
 10
137.8331
 20
-98.9652
  0
VERTEX
  8
LAYER_2
 10
137.8858
 20
-99.0004
  0
VERTEX
  8
LAYER_2
 10
137.9369
 20
-99.0361
  0
VERTEX
  8
LAYER_2
 10
137.9858
 20
-99.072
  0
VERTEX
  8
LAYER_2
 10
138.0318
 20
-99.1075
  0
VERTEX
  8
LAYER_2
 10
138.0741
 20
-99.1417
  0
VERTEX
  8
LAYER_2
 10
138.1124
 20
-99.1736
  0
SEQEND
  0
ENDBLK
  0
BLOCK
  8
LAYER_2
  2
AIGNBL02020122
 70
64
 10
0
 20
0
 30
0
  3
AIGNBL02020122
  0
POLYLINE
  8
LAYER_2
  6
AIGENLINE001
 40
0.1764
 41
0.1764
 66
1
 10
0
 20
0
 30
0
 70
128
  0
VERTEX
  8
LAYER_2
 10
137.6115
 20
-99.7706
  0
VERTEX
  8
LAYER_2
 10
137.5929
 20
-99.755
  0
VERTEX
  8
LAYER_2
 10
137.5734
 20
-99.7384
  0
VERTEX
  8
LAYER_2
 10
137.5323
 20
-99.7027
  0
VERTEX
  8
LAYER_2
 10
137.4894
 20
-99.6636
  0
VERTEX
  8
LAYER_2
 10
137.4456
 20
-99.6216
  0
VERTEX
  8
LAYER_2
 10
137.4015
 20
-99.5775
  0
VERTEX
  8
LAYER_2
 10
137.3577
 20
-99.5317
  0
VERTEX
  8
LAYER_2
 10
137.2721
 20
-99.4387
  0
VERTEX
  8
LAYER_2
 10
137.2304
 20
-99.3928
  0
VERTEX
  8
LAYER_2
 10
137.1897
 20
-99.3484
  0
VERTEX
  8
LAYER_2
 10
137.1498
 20
-99.306
  0
VERTEX
  8
LAYER_2
 10
137.1108
 20
-99.266
  0
VERTEX
  8
LAYER_2
 10
137.0727
 20
-99.2289
  0
VERTEX
  8
LAYER_2
 10
137.0356
 20
-99.1947
  0
VERTEX
  8
LAYER_2
 10
136.9998
 20
-99.1633
  0
VERTEX
  8
LAYER_2
 10
136.9656
 20
-99.1344
  0
SEQEND
  0
ENDBLK
  0
BLOCK
  8
LAYER_2
  2
AIGNBL02020123
 70
64
 10
0
 20
0
 30
0
  3
AIGNBL02020123
  0
POLYLINE
  8
LAYER_2
  6
AIGENLINE001
 40
0.1764
 41
0.1764
 66
1
 10
0
 20
0
 30
0
 70
128
  0
VERTEX
  8
LAYER_2
 10
138.6003
 20
-100.0598
  0
VERTEX
  8
LAYER_2
 10
138.8222
 20
-99.7953
  0
SEQEND
  0
ENDBLK
  0
BLOCK
  8
LAYER_2
  2
AIGNBL02020124
 70
64
 10
0
 20
0
 30
0
  3
AIGNBL02020124
  0
POLYLINE
  8
LAYER_2
  6
AIGENLINE001
 40
0.1764
 41
0.1764
 66
1
 10
0
 20
0
 30
0
 70
128
  0
VERTEX
  8
LAYER_2
 10
138.8222
 20
-99.7953
  0
VERTEX
  8
LAYER_2
 10
138.5846
 20
-100.0785
  0
SEQEND
  0
ENDBLK
  0
BLOCK
  8
LAYER_2
  2
AIGNBL02020125
 70
64
 10
0
 20
0
 30
0
  3
AIGNBL02020125
  0
POLYLINE
  8
LAYER_2
  6
AIGENLINE001
 40
0.1764
 41
0.1764
 66
1
 10
0
 20
0
 30
0
 70
128
  0
VERTEX
  8
LAYER_2
 10
138.5846
 20
-100.0785
  0
VERTEX
  8
LAYER_2
 10
138.347
 20
-100.3616
  0
SEQEND
  0
ENDBLK
  0
BLOCK
  8
LAYER_2
  2
AIGNBL02020126
 70
64
 10
0
 20
0
 30
0
  3
AIGNBL02020126
  0
POLYLINE
  8
LAYER_2
  6
AIGENLINE001
 40
0.1764
 41
0.1764
 66
1
 10
0
 20
0
 30
0
 70
128
  0
VERTEX
  8
LAYER_2
 10
138.5846
 20
-100.0785
  0
VERTEX
  8
LAYER_2
 10
138.6003
 20
-100.0598
  0
SEQEND
  0
ENDBLK
  0
BLOCK
  8
LAYER_2
  2
AIGNBL02020127
 70
64
 10
0
 20
0
 30
0
  3
AIGNBL02020127
  0
POLYLINE
  8
LAYER_2
  6
AIGENLINE001
 40
0.1764
 41
0.1764
 66
1
 10
0
 20
0
 30
0
 70
128
  0
VERTEX
  8
LAYER_2
 10
138.8222
 20
-99.7953
 42
0.3935526535
  0
VERTEX
  8
LAYER_2
 10
138.8197
 20
-99.7672
  0
SEQEND
  0
ENDBLK
  0
BLOCK
  8
LAYER_2
  2
AIGNBL02020128
 70
64
 10
0
 20
0
 30
0
  3
AIGNBL02020128
  0
POLYLINE
  8
LAYER_2
  6
AIGENLINE001
 40
0.1764
 41
0.1764
 66
1
 10
0
 20
0
 30
0
 70
128
  0
VERTEX
  8
LAYER_2
 10
138.1122
 20
-99.1735
  0
VERTEX
  8
LAYER_2
 10
138.8208
 20
-99.768
  0
SEQEND
  0
ENDBLK
  0
BLOCK
  8
LAYER_2
  2
AIGNBL02020129
 70
64
 10
0
 20
0
 30
0
  3
AIGNBL02020129
  0
POLYLINE
  8
LAYER_2
  6
AIGENLINE001
 40
0.1764
 41
0.1764
 66
1
 10
0
 20
0
 30
0
 70
128
  0
VERTEX
  8
LAYER_2
 10
138.3199
 20
-100.365
  0
VERTEX
  8
LAYER_2
 10
137.6113
 20
-99.7704
  0
SEQEND
  0
ENDBLK
  0
BLOCK
  8
LAYER_2
  2
AIGNBL0202012A
 70
64
 10
0
 20
0
 30
0
  3
AIGNBL0202012A
  0
POLYLINE
  8
LAYER_2
  6
AIGENLINE001
 40
0.1764
 41
0.1764
 66
1
 10
0
 20
0
 30
0
 70
128
  0
VERTEX
  8
LAYER_2
 10
133.5625
 20
-95.45
  0
VERTEX
  8
LAYER_2
 10
137.3739
 20
-98.6482
  0
SEQEND
  0
ENDBLK
  0
BLOCK
  8
LAYER_2
  2
AIGNBL0202012B
 70
64
 10
0
 20
0
 30
0
  3
AIGNBL0202012B
  0
POLYLINE
  8
LAYER_2
  6
AIGENLINE001
 40
0.1764
 41
0.1764
 66
1
 10
0
 20
0
 30
0
 70
128
  0
VERTEX
  8
LAYER_2
 10
136.9658
 20
-99.1346
  0
VERTEX
  8
LAYER_2
 10
133.1537
 20
-95.9359
  0
SEQEND
  0
ENDBLK
  0
BLOCK
  8
LAYER_2
  2
AIGNBL0202012C
 70
64
 10
0
 20
0
 30
0
  3
AIGNBL0202012C
  0
POLYLINE
  8
LAYER_2
  6
AIGENLINE001
 40
0.1764
 41
0.1764
 66
1
 10
0
 20
0
 30
0
 70
128
  0
VERTEX
  8
LAYER_2
 10
138.3457
 20
-100.3627
 42
-0.3814037692
  0
VERTEX
  8
LAYER_2
 10
138.3188
 20
-100.3641
  0
SEQEND
  0
ENDBLK
  0
BLOCK
  8
LAYER_2
  2
AIGNBL0202012D
 70
64
 10
0
 20
0
 30
0
  3
AIGNBL0202012D
  0
POLYLINE
  8
LAYER_2
 40
0.1764
 41
0.1764
 66
1
 10
0
 20
0
 30
0
  0
VERTEX
  8
LAYER_2
 10
131.6524
 20
-103.311
  0
VERTEX
  8
LAYER_2
 10
131.6524
 20
-107.9122
  0
SEQEND
  0
ENDBLK
  0
BLOCK
  8
LAYER_2
  2
AIGNBL0202012E
 70
64
 10
0
 20
0
 30
0
  3
AIGNBL0202012E
  0
POLYLINE
  8
LAYER_2
 40
0.1764
 41
0.1764
 66
1
 10
0
 20
0
 30
0
  0
VERTEX
  8
LAYER_2
 10
138.5846
 20
-100.0785
  0
VERTEX
  8
LAYER_2
 10
139.5532
 20
-100.8913
  0
SEQEND
  0
ENDBLK
  0
BLOCK
  8
LAYER_2
  2
AIGNBL0202012F
 70
64
 10
0
 20
0
 30
0
  3
AIGNBL0202012F
  0
POLYLINE
  8
LAYER_2
 40
0.1764
 41
0.1764
 66
1
 10
0
 20
0
 30
0
  0
VERTEX
  8
LAYER_2
 10
131.6524
 20
-106.9451
 42
-0.1718799386
  0
VERTEX
  8
LAYER_2
 10
130.7862
 20
-106.6344
 42
-0.1261688922
  0
VERTEX
  8
LAYER_2
 10
130.4843
 20
-106.1993
  0
SEQEND
  0
ENDBLK
  0
BLOCK
  8
LAYER_2
  2
AIGNBL02020130
 70
64
 10
0
 20
0
 30
0
  3
AIGNBL02020130
  0
POLYLINE
  8
LAYER_2
 40
0.1764
 41
0.1764
 66
1
 10
0
 20
0
 30
0
  0
VERTEX
  8
LAYER_2
 10
130.4843
 20
-106.1993
 42
-0.0874048027
  0
VERTEX
  8
LAYER_2
 10
130.4275
 20
-105.8854
  0
SEQEND
  0
ENDBLK
  0
BLOCK
  8
LAYER_2
  2
AIGNBL02020131
 70
64
 10
0
 20
0
 30
0
  3
AIGNBL02020131
  0
POLYLINE
  8
LAYER_2
 40
0.1764
 41
0.1764
 66
1
 10
0
 20
0
 30
0
  0
VERTEX
  8
LAYER_2
 10
132.8773
 20
-105.8843
 42
-0.08697684449
  0
VERTEX
  8
LAYER_2
 10
132.8199
 20
-106.2019
  0
SEQEND
  0
ENDBLK
  0
BLOCK
  8
LAYER_2
  2
AIGNBL02020132
 70
64
 10
0
 20
0
 30
0
  3
AIGNBL02020132
  0
POLYLINE
  8
LAYER_2
 40
0.1764
 41
0.1764
 66
1
 10
0
 20
0
 30
0
  0
VERTEX
  8
LAYER_2
 10
132.8199
 20
-106.2019
  0
VERTEX
  8
LAYER_2
 10
132.7834
 20
-106.2888
 42
-0.1028731786
  0
VERTEX
  8
LAYER_2
 10
132.5195
 20
-106.6336
 42
-0.09266028809
  0
VERTEX
  8
LAYER_2
 10
132.1215
 20
-106.863
 42
-0.08623860737
  0
VERTEX
  8
LAYER_2
 10
131.6524
 20
-106.9451
  0
SEQEND
  0
ENDBLK
  0
BLOCK
  8
LAYER_2
  2
AIGNBL02020133
 70
64
 10
0
 20
0
 30
0
  3
AIGNBL02020133
  0
POLYLINE
  8
LAYER_2
 40
0.1764
 41
0.1764
 66
1
 10
0
 20
0
 30
0
  0
VERTEX
  8
LAYER_2
 10
131.6524
 20
-106.9478
  0
VERTEX
  8
LAYER_2
 10
131.6524
 20
-106.9451
  0
SEQEND
  0
ENDBLK
  0
BLOCK
  8
LAYER_2
  2
AIGNBL02020134
 70
64
 10
0
 20
0
 30
0
  3
AIGNBL02020134
  0
POLYLINE
  8
LAYER_2
 40
0.1764
 41
0.1764
 66
1
 10
0
 20
0
 30
0
  0
VERTEX
  8
LAYER_2
 10
132.8773
 20
-102.8349
  0
VERTEX
  8
LAYER_2
 10
132.8773
 20
-105.5194
  0
SEQEND
  0
ENDBLK
  0
BLOCK
  8
LAYER_2
  2
AIGNBL02020135
 70
64
 10
0
 20
0
 30
0
  3
AIGNBL02020135
  0
POLYLINE
  8
LAYER_2
 40
0.1764
 41
0.1764
 66
1
 10
0
 20
0
 30
0
  0
VERTEX
  8
LAYER_2
 10
130.4275
 20
-105.5194
  0
VERTEX
  8
LAYER_2
 10
130.4275
 20
-102.8349
  0
SEQEND
  0
ENDBLK
  0
BLOCK
  8
LAYER_2
  2
AIGNBL02020136
 70
64
 10
0
 20
0
 30
0
  3
AIGNBL02020136
  0
POLYLINE
  8
LAYER_2
 40
0.1764
 41
0.1764
 66
1
 10
0
 20
0
 30
0
  0
VERTEX
  8
LAYER_2
 10
132.8773
 20
-105.5194
  0
VERTEX
  8
LAYER_2
 10
132.8773
 20
-105.8843
  0
SEQEND
  0
ENDBLK
  0
BLOCK
  8
LAYER_2
  2
AIGNBL02020137
 70
64
 10
0
 20
0
 30
0
  3
AIGNBL02020137
  0
POLYLINE
  8
LAYER_2
 40
0.1764
 41
0.1764
 66
1
 10
0
 20
0
 30
0
  0
VERTEX
  8
LAYER_2
 10
130.4275
 20
-105.8843
  0
VERTEX
  8
LAYER_2
 10
130.4275
 20
-105.5194
  0
SEQEND
  0
ENDBLK
  0
BLOCK
  8
LAYER_2
  2
AIGNBL02020138
 70
64
 10
0
 20
0
 30
0
  3
AIGNBL02020138
  0
POLYLINE
  8
LAYER_2
 40
0.1764
 41
0.1764
 66
1
 10
0
 20
0
 30
0
  0
VERTEX
  8
LAYER_2
 10
132.8194
 20
-106.2035
 42
-0.3125096068
  0
VERTEX
  8
LAYER_2
 10
131.6524
 20
-106.9474
  0
SEQEND
  0
ENDBLK
  0
BLOCK
  8
LAYER_2
  2
AIGNBL02020139
 70
64
 10
0
 20
0
 30
0
  3
AIGNBL02020139
  0
POLYLINE
  8
LAYER_2
 40
0.1764
 41
0.1764
 66
1
 10
0
 20
0
 30
0
  0
VERTEX
  8
LAYER_2
 10
131.6524
 20
-106.9476
 42
-0.3114684182
  0
VERTEX
  8
LAYER_2
 10
130.4863
 20
-106.2049
  0
SEQEND
  0
ENDBLK
  0
BLOCK
  8
LAYER_2
  2
AIGNBL0202013A
 70
64
 10
0
 20
0
 30
0
  3
AIGNBL0202013A
  0
POLYLINE
  8
LAYER_2
 40
0.1764
 41
0.1764
 66
1
 10
0
 20
0
 30
0
  0
VERTEX
  8
LAYER_2
 10
132.8773
 20
-96.2286
  0
VERTEX
  8
LAYER_2
 10
132.8773
 20
-102.8349
  0
SEQEND
  0
ENDBLK
  0
BLOCK
  8
LAYER_2
  2
AIGNBL0202013B
 70
64
 10
0
 20
0
 30
0
  3
AIGNBL0202013B
  0
POLYLINE
  8
LAYER_2
 40
0.1764
 41
0.1764
 66
1
 10
0
 20
0
 30
0
  0
VERTEX
  8
LAYER_2
 10
130.4276
 20
-102.8349
  0
VERTEX
  8
LAYER_2
 10
130.4276
 20
-96.2286
  0
SEQEND
  0
ENDBLK
  0
BLOCK
  8
LAYER_2
  2
AIGNBL0202013C
 70
64
 10
0
 20
0
 30
0
  3
AIGNBL0202013C
  0
POLYLINE
  8
LAYER_2
 40
0.1764
 41
0.1764
 66
1
 10
0
 20
0
 30
0
  0
VERTEX
  8
LAYER_2
 10
132.8773
 20
-96.2285
  0
VERTEX
  8
LAYER_2
 10
132.8865
 20
-96.1429
  0
SEQEND
  0
ENDBLK
  0
BLOCK
  8
LAYER_2
  2
AIGNBL0202013D
 70
64
 10
0
 20
0
 30
0
  3
AIGNBL0202013D
  0
POLYLINE
  8
LAYER_2
 40
0.1764
 41
0.1764
 66
1
 10
0
 20
0
 30
0
  0
VERTEX
  8
LAYER_2
 10
130.4184
 20
-96.1429
  0
VERTEX
  8
LAYER_2
 10
130.4276
 20
-96.2285
  0
SEQEND
  0
ENDBLK
  0
BLOCK
  8
LAYER_2
  2
AIGNBL0202013E
 70
64
 10
0
 20
0
 30
0
  3
AIGNBL0202013E
  0
POLYLINE
  8
LAYER_2
 40
0.1764
 41
0.1764
 66
1
 10
0
 20
0
 30
0
  0
VERTEX
  8
LAYER_2
 10
131.8551
 20
-94.4321
  0
VERTEX
  8
LAYER_2
 10
131.8561
 20
-94.4321
  0
SEQEND
  0
ENDBLK
  0
BLOCK
  8
LAYER_2
  2
AIGNBL0202013F
 70
64
 10
0
 20
0
 30
0
  3
AIGNBL0202013F
  0
POLYLINE
  8
LAYER_2
 40
0.1764
 41
0.1764
 66
1
 10
0
 20
0
 30
0
  0
VERTEX
  8
LAYER_2
 10
131.5872
 20
-94.4844
  0
VERTEX
  8
LAYER_2
 10
131.5868
 20
-94.4844
  0
SEQEND
  0
ENDBLK
  0
BLOCK
  8
LAYER_2
  2
AIGNBL02020140
 70
64
 10
0
 20
0
 30
0
  3
AIGNBL02020140
  0
POLYLINE
  8
LAYER_2
 40
0.1764
 41
0.1764
 66
1
 10
0
 20
0
 30
0
  0
VERTEX
  8
LAYER_2
 10
131.9442
 20
-94.0263
  0
VERTEX
  8
LAYER_2
 10
131.9442
 20
-94.0269
  0
SEQEND
  0
ENDBLK
  0
BLOCK
  8
LAYER_2
  2
AIGNBL02020141
 70
64
 10
0
 20
0
 30
0
  3
AIGNBL02020141
  0
POLYLINE
  8
LAYER_2
 40
0.1764
 41
0.1764
 66
1
 10
0
 20
0
 30
0
  0
VERTEX
  8
LAYER_2
 10
131.0555
 20
-94.4545
  0
VERTEX
  8
LAYER_2
 10
131.0555
 20
-94.4537
  0
SEQEND
  0
ENDBLK
  0
BLOCK
  8
LAYER_2
  2
AIGNBL02020142
 70
64
 10
0
 20
0
 30
0
  3
AIGNBL02020142
  0
POLYLINE
  8
LAYER_2
 40
0.1764
 41
0.1764
 66
1
 10
0
 20
0
 30
0
  0
VERTEX
  8
LAYER_2
 10
131.0346
 20
-93.9769
  0
VERTEX
  8
LAYER_2
 10
131.0346
 20
-93.9775
  0
SEQEND
  0
ENDBLK
  0
BLOCK
  8
LAYER_2
  2
AIGNBL02020143
 70
64
 10
0
 20
0
 30
0
  3
AIGNBL02020143
  0
ENDBLK
  0
BLOCK
  8
LAYER_2
  2
AIGNBL02020144
 70
64
 10
0
 20
0
 30
0
  3
AIGNBL02020144
  0
POLYLINE
  8
LAYER_2
 40
0.1764
 41
0.1764
 66
1
 10
0
 20
0
 30
0
  0
VERTEX
  8
LAYER_2
 10
132.3726
 20
-94.1082
  0
VERTEX
  8
LAYER_2
 10
132.37
 20
-94.079
  0
VERTEX
  8
LAYER_2
 10
132.3616
 20
-94.0509
  0
VERTEX
  8
LAYER_2
 10
132.3471
 20
-94.0257
  0
VERTEX
  8
LAYER_2
 10
132.3268
 20
-94.0044
  0
VERTEX
  8
LAYER_2
 10
132.3021
 20
-93.9885
  0
VERTEX
  8
LAYER_2
 10
132.2749
 20
-93.9778
  0
VERTEX
  8
LAYER_2
 10
132.2167
 20
-93.9701
  0
SEQEND
  0
ENDBLK
  0
BLOCK
  8
LAYER_2
  2
AIGNBL02020145
 70
64
 10
0
 20
0
 30
0
  3
AIGNBL02020145
  0
POLYLINE
  8
LAYER_2
 40
0.1764
 41
0.1764
 66
1
 10
0
 20
0
 30
0
  0
VERTEX
  8
LAYER_2
 10
132.1725
 20
-94.1054
  0
VERTEX
  8
LAYER_2
 10
132.1044
 20
-94.1054
  0
SEQEND
  0
ENDBLK
  0
BLOCK
  8
LAYER_2
  2
AIGNBL02020146
 70
64
 10
0
 20
0
 30
0
  3
AIGNBL02020146
  0
POLYLINE
  8
LAYER_2
 40
0.1764
 41
0.1764
 66
1
 10
0
 20
0
 30
0
  0
VERTEX
  8
LAYER_2
 10
132.1725
 20
-94.1824
  0
VERTEX
  8
LAYER_2
 10
132.1725
 20
-94.1054
  0
SEQEND
  0
ENDBLK
  0
BLOCK
  8
LAYER_2
  2
AIGNBL02020147
 70
64
 10
0
 20
0
 30
0
  3
AIGNBL02020147
  0
POLYLINE
  8
LAYER_2
 40
0.1764
 41
0.1764
 66
1
 10
0
 20
0
 30
0
  0
VERTEX
  8
LAYER_2
 10
132.225
 20
-94.1934
  0
VERTEX
  8
LAYER_2
 10
132.1725
 20
-94.1824
  0
SEQEND
  0
ENDBLK
  0
BLOCK
  8
LAYER_2
  2
AIGNBL02020148
 70
64
 10
0
 20
0
 30
0
  3
AIGNBL02020148
  0
POLYLINE
  8
LAYER_2
 40
0.1764
 41
0.1764
 66
1
 10
0
 20
0
 30
0
  0
VERTEX
  8
LAYER_2
 10
132.3017
 20
-94.1089
  0
VERTEX
  8
LAYER_2
 10
132.297
 20
-94.1402
  0
VERTEX
  8
LAYER_2
 10
132.2817
 20
-94.1681
  0
VERTEX
  8
LAYER_2
 10
132.2563
 20
-94.1871
  0
VERTEX
  8
LAYER_2
 10
132.225
 20
-94.1934
  0
SEQEND
  0
ENDBLK
  0
BLOCK
  8
LAYER_2
  2
AIGNBL02020149
 70
64
 10
0
 20
0
 30
0
  3
AIGNBL02020149
  0
POLYLINE
  8
LAYER_2
 40
0.1764
 41
0.1764
 66
1
 10
0
 20
0
 30
0
  0
VERTEX
  8
LAYER_2
 10
132.2097
 20
-94.0182
 42
-0.4141006299
  0
VERTEX
  8
LAYER_2
 10
132.3017
 20
-94.1018
  0
VERTEX
  8
LAYER_2
 10
132.3017
 20
-94.1089
  0
SEQEND
  0
ENDBLK
  0
BLOCK
  8
LAYER_2
  2
AIGNBL0202014A
 70
64
 10
0
 20
0
 30
0
  3
AIGNBL0202014A
  0
POLYLINE
  8
LAYER_2
 40
0.1764
 41
0.1764
 66
1
 10
0
 20
0
 30
0
  0
VERTEX
  8
LAYER_2
 10
132.1129
 20
-94.0458
 42
-0.121446792
  0
VERTEX
  8
LAYER_2
 10
132.2097
 20
-94.0182
  0
SEQEND
  0
ENDBLK
  0
BLOCK
  8
LAYER_2
  2
AIGNBL0202014B
 70
64
 10
0
 20
0
 30
0
  3
AIGNBL0202014B
  0
POLYLINE
  8
LAYER_2
 40
0.1764
 41
0.1764
 66
1
 10
0
 20
0
 30
0
  0
VERTEX
  8
LAYER_2
 10
132.1129
 20
-93.9945
  0
VERTEX
  8
LAYER_2
 10
132.1129
 20
-94.0458
  0
SEQEND
  0
ENDBLK
  0
BLOCK
  8
LAYER_2
  2
AIGNBL0202014C
 70
64
 10
0
 20
0
 30
0
  3
AIGNBL0202014C
  0
POLYLINE
  8
LAYER_2
 40
0.1764
 41
0.1764
 66
1
 10
0
 20
0
 30
0
  0
VERTEX
  8
LAYER_2
 10
132.1129
 20
-93.9945
 42
-0.1113253908
  0
VERTEX
  8
LAYER_2
 10
132.2167
 20
-93.9701
  0
SEQEND
  0
ENDBLK
  0
BLOCK
  8
LAYER_2
  2
AIGNBL0202014D
 70
64
 10
0
 20
0
 30
0
  3
AIGNBL0202014D
  0
POLYLINE
  8
LAYER_2
 40
0.1764
 41
0.1764
 66
1
 10
0
 20
0
 30
0
  0
VERTEX
  8
LAYER_2
 10
132.225
 20
-94.2415
  0
VERTEX
  8
LAYER_2
 10
132.28
 20
-94.2337
  0
VERTEX
  8
LAYER_2
 10
132.3291
 20
-94.2075
  0
VERTEX
  8
LAYER_2
 10
132.3481
 20
-94.1872
  0
VERTEX
  8
LAYER_2
 10
132.362
 20
-94.1629
  0
VERTEX
  8
LAYER_2
 10
132.3726
 20
-94.1082
  0
SEQEND
  0
ENDBLK
  0
BLOCK
  8
LAYER_2
  2
AIGNBL0202014E
 70
64
 10
0
 20
0
 30
0
  3
AIGNBL0202014E
  0
POLYLINE
  8
LAYER_2
 40
0.1764
 41
0.1764
 66
1
 10
0
 20
0
 30
0
  0
VERTEX
  8
LAYER_2
 10
132.225
 20
-94.2415
 42
-0.1251377788
  0
VERTEX
  8
LAYER_2
 10
132.1044
 20
-94.2089
  0
SEQEND
  0
ENDBLK
  0
BLOCK
  8
LAYER_2
  2
AIGNBL0202014F
 70
64
 10
0
 20
0
 30
0
  3
AIGNBL0202014F
  0
POLYLINE
  8
LAYER_2
 40
0.1764
 41
0.1764
 66
1
 10
0
 20
0
 30
0
  0
VERTEX
  8
LAYER_2
 10
132.1044
 20
-94.1054
  0
VERTEX
  8
LAYER_2
 10
132.1044
 20
-94.2089
  0
SEQEND
  0
ENDBLK
  0
BLOCK
  8
LAYER_2
  2
AIGNBL02020150
 70
64
 10
0
 20
0
 30
0
  3
AIGNBL02020150
  0
POLYLINE
  8
LAYER_2
 40
0.1764
 41
0.1764
 66
1
 10
0
 20
0
 30
0
  0
VERTEX
  8
LAYER_2
 10
131.9523
 20
-94.0261
  0
VERTEX
  8
LAYER_2
 10
131.9812
 20
-94.0261
  0
SEQEND
  0
ENDBLK
  0
BLOCK
  8
LAYER_2
  2
AIGNBL02020151
 70
64
 10
0
 20
0
 30
0
  3
AIGNBL02020151
  0
POLYLINE
  8
LAYER_2
 40
0.1764
 41
0.1764
 66
1
 10
0
 20
0
 30
0
  0
VERTEX
  8
LAYER_2
 10
131.8975
 20
-94.0648
  0
VERTEX
  8
LAYER_2
 10
131.9013
 20
-94.0462
  0
VERTEX
  8
LAYER_2
 10
131.9148
 20
-94.0329
  0
VERTEX
  8
LAYER_2
 10
131.9331
 20
-94.0274
  0
VERTEX
  8
LAYER_2
 10
131.9523
 20
-94.0261
  0
SEQEND
  0
ENDBLK
  0
BLOCK
  8
LAYER_2
  2
AIGNBL02020152
 70
64
 10
0
 20
0
 30
0
  3
AIGNBL02020152
  0
POLYLINE
  8
LAYER_2
 40
0.1764
 41
0.1764
 66
1
 10
0
 20
0
 30
0
  0
VERTEX
  8
LAYER_2
 10
131.9497
 20
-94.1082
  0
VERTEX
  8
LAYER_2
 10
131.9308
 20
-94.1062
  0
VERTEX
  8
LAYER_2
 10
131.9133
 20
-94.0985
  0
VERTEX
  8
LAYER_2
 10
131.9012
 20
-94.0837
  0
VERTEX
  8
LAYER_2
 10
131.8975
 20
-94.0648
  0
SEQEND
  0
ENDBLK
  0
BLOCK
  8
LAYER_2
  2
AIGNBL02020153
 70
64
 10
0
 20
0
 30
0
  3
AIGNBL02020153
  0
POLYLINE
  8
LAYER_2
 40
0.1764
 41
0.1764
 66
1
 10
0
 20
0
 30
0
  0
VERTEX
  8
LAYER_2
 10
131.9643
 20
-94.1078
  0
VERTEX
  8
LAYER_2
 10
131.9497
 20
-94.1082
  0
SEQEND
  0
ENDBLK
  0
BLOCK
  8
LAYER_2
  2
AIGNBL02020154
 70
64
 10
0
 20
0
 30
0
  3
AIGNBL02020154
  0
POLYLINE
  8
LAYER_2
 40
0.1764
 41
0.1764
 66
1
 10
0
 20
0
 30
0
  0
VERTEX
  8
LAYER_2
 10
131.9719
 20
-94.1078
  0
VERTEX
  8
LAYER_2
 10
131.9643
 20
-94.1078
  0
SEQEND
  0
ENDBLK
  0
BLOCK
  8
LAYER_2
  2
AIGNBL02020155
 70
64
 10
0
 20
0
 30
0
  3
AIGNBL02020155
  0
POLYLINE
  8
LAYER_2
 40
0.1764
 41
0.1764
 66
1
 10
0
 20
0
 30
0
  0
VERTEX
  8
LAYER_2
 10
131.8788
 20
-94.131
 42
-0.302920551
  0
VERTEX
  8
LAYER_2
 10
131.8302
 20
-94.0581
  0
SEQEND
  0
ENDBLK
  0
BLOCK
  8
LAYER_2
  2
AIGNBL02020156
 70
64
 10
0
 20
0
 30
0
  3
AIGNBL02020156
  0
POLYLINE
  8
LAYER_2
 40
0.1764
 41
0.1764
 66
1
 10
0
 20
0
 30
0
  0
VERTEX
  8
LAYER_2
 10
132.048
 20
-94.234
  0
VERTEX
  8
LAYER_2
 10
132.048
 20
-93.9775
  0
SEQEND
  0
ENDBLK
  0
BLOCK
  8
LAYER_2
  2
AIGNBL02020157
 70
64
 10
0
 20
0
 30
0
  3
AIGNBL02020157
  0
POLYLINE
  8
LAYER_2
 40
0.1764
 41
0.1764
 66
1
 10
0
 20
0
 30
0
  0
VERTEX
  8
LAYER_2
 10
132.048
 20
-93.9775
  0
VERTEX
  8
LAYER_2
 10
131.9387
 20
-93.9775
  0
SEQEND
  0
ENDBLK
  0
BLOCK
  8
LAYER_2
  2
AIGNBL02020158
 70
64
 10
0
 20
0
 30
0
  3
AIGNBL02020158
  0
POLYLINE
  8
LAYER_2
 40
0.1764
 41
0.1764
 66
1
 10
0
 20
0
 30
0
  0
VERTEX
  8
LAYER_2
 10
131.9387
 20
-93.9775
  0
VERTEX
  8
LAYER_2
 10
131.9004
 20
-93.9805
  0
VERTEX
  8
LAYER_2
 10
131.8639
 20
-93.9928
  0
VERTEX
  8
LAYER_2
 10
131.8487
 20
-94.0045
  0
VERTEX
  8
LAYER_2
 10
131.8378
 20
-94.0204
  0
VERTEX
  8
LAYER_2
 10
131.8319
 20
-94.0388
  0
VERTEX
  8
LAYER_2
 10
131.8302
 20
-94.0581
  0
SEQEND
  0
ENDBLK
  0
BLOCK
  8
LAYER_2
  2
AIGNBL02020159
 70
64
 10
0
 20
0
 30
0
  3
AIGNBL02020159
  0
POLYLINE
  8
LAYER_2
 40
0.1764
 41
0.1764
 66
1
 10
0
 20
0
 30
0
  0
VERTEX
  8
LAYER_2
 10
131.9812
 20
-94.234
  0
VERTEX
  8
LAYER_2
 10
132.048
 20
-94.234
  0
SEQEND
  0
ENDBLK
  0
BLOCK
  8
LAYER_2
  2
AIGNBL0202015A
 70
64
 10
0
 20
0
 30
0
  3
AIGNBL0202015A
  0
POLYLINE
  8
LAYER_2
 40
0.1764
 41
0.1764
 66
1
 10
0
 20
0
 30
0
  0
VERTEX
  8
LAYER_2
 10
131.9812
 20
-94.0261
  0
VERTEX
  8
LAYER_2
 10
131.9812
 20
-94.234
  0
SEQEND
  0
ENDBLK
  0
BLOCK
  8
LAYER_2
  2
AIGNBL0202015B
 70
64
 10
0
 20
0
 30
0
  3
AIGNBL0202015B
  0
POLYLINE
  8
LAYER_2
 40
0.1764
 41
0.1764
 66
1
 10
0
 20
0
 30
0
  0
VERTEX
  8
LAYER_2
 10
131.8789
 20
-94.234
  0
VERTEX
  8
LAYER_2
 10
131.9719
 20
-94.1078
  0
SEQEND
  0
ENDBLK
  0
BLOCK
  8
LAYER_2
  2
AIGNBL0202015C
 70
64
 10
0
 20
0
 30
0
  3
AIGNBL0202015C
  0
POLYLINE
  8
LAYER_2
 40
0.1764
 41
0.1764
 66
1
 10
0
 20
0
 30
0
  0
VERTEX
  8
LAYER_2
 10
131.7934
 20
-94.234
  0
VERTEX
  8
LAYER_2
 10
131.8789
 20
-94.234
  0
SEQEND
  0
ENDBLK
  0
BLOCK
  8
LAYER_2
  2
AIGNBL0202015D
 70
64
 10
0
 20
0
 30
0
  3
AIGNBL0202015D
  0
POLYLINE
  8
LAYER_2
 40
0.1764
 41
0.1764
 66
1
 10
0
 20
0
 30
0
  0
VERTEX
  8
LAYER_2
 10
131.8788
 20
-94.131
  0
VERTEX
  8
LAYER_2
 10
131.7934
 20
-94.234
  0
SEQEND
  0
ENDBLK
  0
BLOCK
  8
LAYER_2
  2
AIGNBL0202015E
 70
64
 10
0
 20
0
 30
0
  3
AIGNBL0202015E
  0
POLYLINE
  8
LAYER_2
 40
0.1764
 41
0.1764
 66
1
 10
0
 20
0
 30
0
  0
VERTEX
  8
LAYER_2
 10
131.5433
 20
-94.1059
 42
-0.414363688
  0
VERTEX
  8
LAYER_2
 10
131.6237
 20
-94.016
  0
VERTEX
  8
LAYER_2
 10
131.6306
 20
-94.0159
  0
SEQEND
  0
ENDBLK
  0
BLOCK
  8
LAYER_2
  2
AIGNBL0202015F
 70
64
 10
0
 20
0
 30
0
  3
AIGNBL0202015F
  0
POLYLINE
  8
LAYER_2
 40
0.1764
 41
0.1764
 66
1
 10
0
 20
0
 30
0
  0
VERTEX
  8
LAYER_2
 10
131.6306
 20
-94.0159
 42
-0.4140499608
  0
VERTEX
  8
LAYER_2
 10
131.7178
 20
-94.0988
  0
VERTEX
  8
LAYER_2
 10
131.7177
 20
-94.1059
  0
SEQEND
  0
ENDBLK
  0
BLOCK
  8
LAYER_2
  2
AIGNBL02020160
 70
64
 10
0
 20
0
 30
0
  3
AIGNBL02020160
  0
POLYLINE
  8
LAYER_2
 40
0.1764
 41
0.1764
 66
1
 10
0
 20
0
 30
0
  0
VERTEX
  8
LAYER_2
 10
131.7883
 20
-94.1059
  0
VERTEX
  8
LAYER_2
 10
131.7852
 20
-94.0768
  0
VERTEX
  8
LAYER_2
 10
131.7758
 20
-94.0491
  0
VERTEX
  8
LAYER_2
 10
131.7397
 20
-94.0036
  0
VERTEX
  8
LAYER_2
 10
131.7153
 20
-93.9875
  0
VERTEX
  8
LAYER_2
 10
131.6883
 20
-93.9763
  0
VERTEX
  8
LAYER_2
 10
131.6306
 20
-93.9677
  0
SEQEND
  0
ENDBLK
  0
BLOCK
  8
LAYER_2
  2
AIGNBL02020161
 70
64
 10
0
 20
0
 30
0
  3
AIGNBL02020161
  0
POLYLINE
  8
LAYER_2
 40
0.1764
 41
0.1764
 66
1
 10
0
 20
0
 30
0
  0
VERTEX
  8
LAYER_2
 10
131.6306
 20
-93.9677
  0
VERTEX
  8
LAYER_2
 10
131.5732
 20
-93.9762
  0
VERTEX
  8
LAYER_2
 10
131.5461
 20
-93.9874
  0
VERTEX
  8
LAYER_2
 10
131.5216
 20
-94.0034
  0
VERTEX
  8
LAYER_2
 10
131.4854
 20
-94.0489
  0
VERTEX
  8
LAYER_2
 10
131.4727
 20
-94.1059
  0
SEQEND
  0
ENDBLK
  0
BLOCK
  8
LAYER_2
  2
AIGNBL02020162
 70
64
 10
0
 20
0
 30
0
  3
AIGNBL02020162
  0
POLYLINE
  8
LAYER_2
 40
0.1764
 41
0.1764
 66
1
 10
0
 20
0
 30
0
  0
VERTEX
  8
LAYER_2
 10
131.6306
 20
-94.2439
  0
VERTEX
  8
LAYER_2
 10
131.688
 20
-94.2354
  0
VERTEX
  8
LAYER_2
 10
131.7151
 20
-94.2242
  0
VERTEX
  8
LAYER_2
 10
131.7395
 20
-94.2082
  0
VERTEX
  8
LAYER_2
 10
131.7757
 20
-94.1628
  0
VERTEX
  8
LAYER_2
 10
131.7883
 20
-94.1059
  0
SEQEND
  0
ENDBLK
  0
BLOCK
  8
LAYER_2
  2
AIGNBL02020163
 70
64
 10
0
 20
0
 30
0
  3
AIGNBL02020163
  0
POLYLINE
  8
LAYER_2
 40
0.1764
 41
0.1764
 66
1
 10
0
 20
0
 30
0
  0
VERTEX
  8
LAYER_2
 10
131.4727
 20
-94.1059
  0
VERTEX
  8
LAYER_2
 10
131.4758
 20
-94.1349
  0
VERTEX
  8
LAYER_2
 10
131.4853
 20
-94.1626
  0
VERTEX
  8
LAYER_2
 10
131.5214
 20
-94.208
  0
VERTEX
  8
LAYER_2
 10
131.5459
 20
-94.2241
  0
VERTEX
  8
LAYER_2
 10
131.5729
 20
-94.2353
  0
VERTEX
  8
LAYER_2
 10
131.6306
 20
-94.2439
  0
SEQEND
  0
ENDBLK
  0
BLOCK
  8
LAYER_2
  2
AIGNBL02020164
 70
64
 10
0
 20
0
 30
0
  3
AIGNBL02020164
  0
POLYLINE
  8
LAYER_2
 40
0.1764
 41
0.1764
 66
1
 10
0
 20
0
 30
0
  0
VERTEX
  8
LAYER_2
 10
131.6306
 20
-94.1958
 42
-0.4143985417
  0
VERTEX
  8
LAYER_2
 10
131.5432
 20
-94.1127
  0
VERTEX
  8
LAYER_2
 10
131.5433
 20
-94.1059
  0
SEQEND
  0
ENDBLK
  0
BLOCK
  8
LAYER_2
  2
AIGNBL02020165
 70
64
 10
0
 20
0
 30
0
  3
AIGNBL02020165
  0
POLYLINE
  8
LAYER_2
 40
0.1764
 41
0.1764
 66
1
 10
0
 20
0
 30
0
  0
VERTEX
  8
LAYER_2
 10
131.7177
 20
-94.1059
 42
-0.4141145988
  0
VERTEX
  8
LAYER_2
 10
131.6374
 20
-94.1957
  0
VERTEX
  8
LAYER_2
 10
131.6306
 20
-94.1958
  0
SEQEND
  0
ENDBLK
  0
BLOCK
  8
LAYER_2
  2
AIGNBL02020166
 70
64
 10
0
 20
0
 30
0
  3
AIGNBL02020166
  0
POLYLINE
  8
LAYER_2
 40
0.1764
 41
0.1764
 66
1
 10
0
 20
0
 30
0
  0
VERTEX
  8
LAYER_2
 10
131.2388
 20
-94.1242
  0
VERTEX
  8
LAYER_2
 10
131.3582
 20
-94.1242
  0
SEQEND
  0
ENDBLK
  0
BLOCK
  8
LAYER_2
  2
AIGNBL02020167
 70
64
 10
0
 20
0
 30
0
  3
AIGNBL02020167
  0
POLYLINE
  8
LAYER_2
 40
0.1764
 41
0.1764
 66
1
 10
0
 20
0
 30
0
  0
VERTEX
  8
LAYER_2
 10
131.3587
 20
-94.0722
  0
VERTEX
  8
LAYER_2
 10
131.2388
 20
-94.0724
  0
SEQEND
  0
ENDBLK
  0
BLOCK
  8
LAYER_2
  2
AIGNBL02020168
 70
64
 10
0
 20
0
 30
0
  3
AIGNBL02020168
  0
POLYLINE
  8
LAYER_2
 40
0.1764
 41
0.1764
 66
1
 10
0
 20
0
 30
0
  0
VERTEX
  8
LAYER_2
 10
131.4246
 20
-93.9775
  0
VERTEX
  8
LAYER_2
 10
131.3582
 20
-93.9775
  0
SEQEND
  0
ENDBLK
  0
BLOCK
  8
LAYER_2
  2
AIGNBL02020169
 70
64
 10
0
 20
0
 30
0
  3
AIGNBL02020169
  0
POLYLINE
  8
LAYER_2
 40
0.1764
 41
0.1764
 66
1
 10
0
 20
0
 30
0
  0
VERTEX
  8
LAYER_2
 10
131.2388
 20
-94.0724
  0
VERTEX
  8
LAYER_2
 10
131.2388
 20
-93.9775
  0
SEQEND
  0
ENDBLK
  0
BLOCK
  8
LAYER_2
  2
AIGNBL0202016A
 70
64
 10
0
 20
0
 30
0
  3
AIGNBL0202016A
  0
POLYLINE
  8
LAYER_2
 40
0.1764
 41
0.1764
 66
1
 10
0
 20
0
 30
0
  0
VERTEX
  8
LAYER_2
 10
131.3582
 20
-93.9775
  0
VERTEX
  8
LAYER_2
 10
131.3587
 20
-94.0722
  0
SEQEND
  0
ENDBLK
  0
BLOCK
  8
LAYER_2
  2
AIGNBL0202016B
 70
64
 10
0
 20
0
 30
0
  3
AIGNBL0202016B
  0
POLYLINE
  8
LAYER_2
 40
0.1764
 41
0.1764
 66
1
 10
0
 20
0
 30
0
  0
VERTEX
  8
LAYER_2
 10
131.4246
 20
-94.2337
  0
VERTEX
  8
LAYER_2
 10
131.4246
 20
-93.9775
  0
SEQEND
  0
ENDBLK
  0
BLOCK
  8
LAYER_2
  2
AIGNBL0202016C
 70
64
 10
0
 20
0
 30
0
  3
AIGNBL0202016C
  0
POLYLINE
  8
LAYER_2
 40
0.1764
 41
0.1764
 66
1
 10
0
 20
0
 30
0
  0
VERTEX
  8
LAYER_2
 10
131.3582
 20
-94.2337
  0
VERTEX
  8
LAYER_2
 10
131.4246
 20
-94.2337
  0
SEQEND
  0
ENDBLK
  0
BLOCK
  8
LAYER_2
  2
AIGNBL0202016D
 70
64
 10
0
 20
0
 30
0
  3
AIGNBL0202016D
  0
POLYLINE
  8
LAYER_2
 40
0.1764
 41
0.1764
 66
1
 10
0
 20
0
 30
0
  0
VERTEX
  8
LAYER_2
 10
131.3582
 20
-94.1242
  0
VERTEX
  8
LAYER_2
 10
131.3582
 20
-94.2337
  0
SEQEND
  0
ENDBLK
  0
BLOCK
  8
LAYER_2
  2
AIGNBL0202016E
 70
64
 10
0
 20
0
 30
0
  3
AIGNBL0202016E
  0
POLYLINE
  8
LAYER_2
 40
0.1764
 41
0.1764
 66
1
 10
0
 20
0
 30
0
  0
VERTEX
  8
LAYER_2
 10
131.2388
 20
-94.2337
  0
VERTEX
  8
LAYER_2
 10
131.2388
 20
-94.1242
  0
SEQEND
  0
ENDBLK
  0
BLOCK
  8
LAYER_2
  2
AIGNBL0202016F
 70
64
 10
0
 20
0
 30
0
  3
AIGNBL0202016F
  0
POLYLINE
  8
LAYER_2
 40
0.1764
 41
0.1764
 66
1
 10
0
 20
0
 30
0
  0
VERTEX
  8
LAYER_2
 10
131.2388
 20
-93.9775
  0
VERTEX
  8
LAYER_2
 10
131.1714
 20
-93.9775
  0
SEQEND
  0
ENDBLK
  0
BLOCK
  8
LAYER_2
  2
AIGNBL02020170
 70
64
 10
0
 20
0
 30
0
  3
AIGNBL02020170
  0
POLYLINE
  8
LAYER_2
 40
0.1764
 41
0.1764
 66
1
 10
0
 20
0
 30
0
  0
VERTEX
  8
LAYER_2
 10
131.1714
 20
-94.2337
  0
VERTEX
  8
LAYER_2
 10
131.2388
 20
-94.2337
  0
SEQEND
  0
ENDBLK
  0
BLOCK
  8
LAYER_2
  2
AIGNBL02020171
 70
64
 10
0
 20
0
 30
0
  3
AIGNBL02020171
  0
POLYLINE
  8
LAYER_2
 40
0.1764
 41
0.1764
 66
1
 10
0
 20
0
 30
0
  0
VERTEX
  8
LAYER_2
 10
131.1714
 20
-93.9775
  0
VERTEX
  8
LAYER_2
 10
131.1714
 20
-94.2337
  0
SEQEND
  0
ENDBLK
  0
BLOCK
  8
LAYER_2
  2
AIGNBL02020172
 70
64
 10
0
 20
0
 30
0
  3
AIGNBL02020172
  0
POLYLINE
  8
LAYER_2
 40
0.1764
 41
0.1764
 66
1
 10
0
 20
0
 30
0
  0
VERTEX
  8
LAYER_2
 10
131.1018
 20
-93.9775
  0
VERTEX
  8
LAYER_2
 10
130.9233
 20
-93.9775
  0
SEQEND
  0
ENDBLK
  0
BLOCK
  8
LAYER_2
  2
AIGNBL02020173
 70
64
 10
0
 20
0
 30
0
  3
AIGNBL02020173
  0
POLYLINE
  8
LAYER_2
 40
0.1764
 41
0.1764
 66
1
 10
0
 20
0
 30
0
  0
VERTEX
  8
LAYER_2
 10
130.9233
 20
-93.9775
  0
VERTEX
  8
LAYER_2
 10
130.9233
 20
-94.0277
  0
SEQEND
  0
ENDBLK
  0
BLOCK
  8
LAYER_2
  2
AIGNBL02020174
 70
64
 10
0
 20
0
 30
0
  3
AIGNBL02020174
  0
POLYLINE
  8
LAYER_2
 40
0.1764
 41
0.1764
 66
1
 10
0
 20
0
 30
0
  0
VERTEX
  8
LAYER_2
 10
130.9233
 20
-94.0277
  0
VERTEX
  8
LAYER_2
 10
131.0348
 20
-94.0277
  0
SEQEND
  0
ENDBLK
  0
BLOCK
  8
LAYER_2
  2
AIGNBL02020175
 70
64
 10
0
 20
0
 30
0
  3
AIGNBL02020175
  0
POLYLINE
  8
LAYER_2
 40
0.1764
 41
0.1764
 66
1
 10
0
 20
0
 30
0
  0
VERTEX
  8
LAYER_2
 10
130.9078
 20
-94.1838
  0
VERTEX
  8
LAYER_2
 10
130.9078
 20
-94.2337
  0
SEQEND
  0
ENDBLK
  0
BLOCK
  8
LAYER_2
  2
AIGNBL02020176
 70
64
 10
0
 20
0
 30
0
  3
AIGNBL02020176
  0
POLYLINE
  8
LAYER_2
 40
0.1764
 41
0.1764
 66
1
 10
0
 20
0
 30
0
  0
VERTEX
  8
LAYER_2
 10
131.0348
 20
-94.1838
  0
VERTEX
  8
LAYER_2
 10
130.9078
 20
-94.1838
  0
SEQEND
  0
ENDBLK
  0
BLOCK
  8
LAYER_2
  2
AIGNBL02020177
 70
64
 10
0
 20
0
 30
0
  3
AIGNBL02020177
  0
POLYLINE
  8
LAYER_2
 40
0.1764
 41
0.1764
 66
1
 10
0
 20
0
 30
0
  0
VERTEX
  8
LAYER_2
 10
131.0348
 20
-94.1225
  0
VERTEX
  8
LAYER_2
 10
131.0348
 20
-94.1838
  0
SEQEND
  0
ENDBLK
  0
BLOCK
  8
LAYER_2
  2
AIGNBL02020178
 70
64
 10
0
 20
0
 30
0
  3
AIGNBL02020178
  0
POLYLINE
  8
LAYER_2
 40
0.1764
 41
0.1764
 66
1
 10
0
 20
0
 30
0
  0
VERTEX
  8
LAYER_2
 10
130.9417
 20
-94.1225
  0
VERTEX
  8
LAYER_2
 10
131.0348
 20
-94.1225
  0
SEQEND
  0
ENDBLK
  0
BLOCK
  8
LAYER_2
  2
AIGNBL02020179
 70
64
 10
0
 20
0
 30
0
  3
AIGNBL02020179
  0
POLYLINE
  8
LAYER_2
 40
0.1764
 41
0.1764
 66
1
 10
0
 20
0
 30
0
  0
VERTEX
  8
LAYER_2
 10
130.9417
 20
-94.0749
  0
VERTEX
  8
LAYER_2
 10
130.9417
 20
-94.1225
  0
SEQEND
  0
ENDBLK
  0
BLOCK
  8
LAYER_2
  2
AIGNBL0202017A
 70
64
 10
0
 20
0
 30
0
  3
AIGNBL0202017A
  0
POLYLINE
  8
LAYER_2
 40
0.1764
 41
0.1764
 66
1
 10
0
 20
0
 30
0
  0
VERTEX
  8
LAYER_2
 10
131.0348
 20
-94.0749
  0
VERTEX
  8
LAYER_2
 10
130.9417
 20
-94.0749
  0
SEQEND
  0
ENDBLK
  0
BLOCK
  8
LAYER_2
  2
AIGNBL0202017B
 70
64
 10
0
 20
0
 30
0
  3
AIGNBL0202017B
  0
POLYLINE
  8
LAYER_2
 40
0.1764
 41
0.1764
 66
1
 10
0
 20
0
 30
0
  0
VERTEX
  8
LAYER_2
 10
131.0348
 20
-94.0277
  0
VERTEX
  8
LAYER_2
 10
131.0348
 20
-94.0749
  0
SEQEND
  0
ENDBLK
  0
BLOCK
  8
LAYER_2
  2
AIGNBL0202017C
 70
64
 10
0
 20
0
 30
0
  3
AIGNBL0202017C
  0
POLYLINE
  8
LAYER_2
 40
0.1764
 41
0.1764
 66
1
 10
0
 20
0
 30
0
  0
VERTEX
  8
LAYER_2
 10
131.1018
 20
-94.2337
  0
VERTEX
  8
LAYER_2
 10
131.1018
 20
-93.9775
  0
SEQEND
  0
ENDBLK
  0
BLOCK
  8
LAYER_2
  2
AIGNBL0202017D
 70
64
 10
0
 20
0
 30
0
  3
AIGNBL0202017D
  0
POLYLINE
  8
LAYER_2
 40
0.1764
 41
0.1764
 66
1
 10
0
 20
0
 30
0
  0
VERTEX
  8
LAYER_2
 10
130.9078
 20
-94.2337
  0
VERTEX
  8
LAYER_2
 10
131.1018
 20
-94.2337
  0
SEQEND
  0
ENDBLK
  0
BLOCK
  8
LAYER_2
  2
AIGNBL0202017E
 70
64
 10
0
 20
0
 30
0
  3
AIGNBL0202017E
  0
POLYLINE
  8
LAYER_2
 40
0.1764
 41
0.1764
 66
1
 10
0
 20
0
 30
0
  0
VERTEX
  8
LAYER_2
 10
130.9528
 20
-94.3599
  0
VERTEX
  8
LAYER_2
 10
130.9721
 20
-94.3864
  0
SEQEND
  0
ENDBLK
  0
BLOCK
  8
LAYER_2
  2
AIGNBL0202017F
 70
64
 10
0
 20
0
 30
0
  3
AIGNBL0202017F
  0
POLYLINE
  8
LAYER_2
 40
0.1764
 41
0.1764
 66
1
 10
0
 20
0
 30
0
  0
VERTEX
  8
LAYER_2
 10
130.9499
 20
-94.3548
  0
VERTEX
  8
LAYER_2
 10
130.9528
 20
-94.3599
  0
SEQEND
  0
ENDBLK
  0
BLOCK
  8
LAYER_2
  2
AIGNBL02020180
 70
64
 10
0
 20
0
 30
0
  3
AIGNBL02020180
  0
POLYLINE
  8
LAYER_2
 40
0.1764
 41
0.1764
 66
1
 10
0
 20
0
 30
0
  0
VERTEX
  8
LAYER_2
 10
131
 20
-94.3604
  0
VERTEX
  8
LAYER_2
 10
130.9499
 20
-94.3548
  0
SEQEND
  0
ENDBLK
  0
BLOCK
  8
LAYER_2
  2
AIGNBL02020181
 70
64
 10
0
 20
0
 30
0
  3
AIGNBL02020181
  0
POLYLINE
  8
LAYER_2
 40
0.1764
 41
0.1764
 66
1
 10
0
 20
0
 30
0
  0
VERTEX
  8
LAYER_2
 10
131.1933
 20
-94.341
  0
VERTEX
  8
LAYER_2
 10
131.3161
 20
-94.3162
  0
SEQEND
  0
ENDBLK
  0
BLOCK
  8
LAYER_2
  2
AIGNBL02020182
 70
64
 10
0
 20
0
 30
0
  3
AIGNBL02020182
  0
POLYLINE
  8
LAYER_2
 40
0.1764
 41
0.1764
 66
1
 10
0
 20
0
 30
0
  0
VERTEX
  8
LAYER_2
 10
131.1933
 20
-94.3114
  0
VERTEX
  8
LAYER_2
 10
131.3163
 20
-94.2886
  0
SEQEND
  0
ENDBLK
  0
BLOCK
  8
LAYER_2
  2
AIGNBL02020183
 70
64
 10
0
 20
0
 30
0
  3
AIGNBL02020183
  0
POLYLINE
  8
LAYER_2
 40
0.1764
 41
0.1764
 66
1
 10
0
 20
0
 30
0
  0
VERTEX
  8
LAYER_2
 10
131.9481
 20
-94.2886
  0
VERTEX
  8
LAYER_2
 10
132.0704
 20
-94.3112
  0
SEQEND
  0
ENDBLK
  0
BLOCK
  8
LAYER_2
  2
AIGNBL02020184
 70
64
 10
0
 20
0
 30
0
  3
AIGNBL02020184
  0
POLYLINE
  8
LAYER_2
 40
0.1764
 41
0.1764
 66
1
 10
0
 20
0
 30
0
  0
VERTEX
  8
LAYER_2
 10
131.9481
 20
-94.3162
  0
VERTEX
  8
LAYER_2
 10
132.071
 20
-94.341
  0
SEQEND
  0
ENDBLK
  0
BLOCK
  8
LAYER_2
  2
AIGNBL02020185
 70
64
 10
0
 20
0
 30
0
  3
AIGNBL02020185
  0
POLYLINE
  8
LAYER_2
 40
0.1764
 41
0.1764
 66
1
 10
0
 20
0
 30
0
  0
VERTEX
  8
LAYER_2
 10
131.3161
 20
-94.3162
  0
VERTEX
  8
LAYER_2
 10
131.4214
 20
-94.3356
  0
SEQEND
  0
ENDBLK
  0
BLOCK
  8
LAYER_2
  2
AIGNBL02020186
 70
64
 10
0
 20
0
 30
0
  3
AIGNBL02020186
  0
POLYLINE
  8
LAYER_2
 40
0.1764
 41
0.1764
 66
1
 10
0
 20
0
 30
0
  0
VERTEX
  8
LAYER_2
 10
131.3163
 20
-94.2886
  0
VERTEX
  8
LAYER_2
 10
131.4387
 20
-94.3114
  0
SEQEND
  0
ENDBLK
  0
BLOCK
  8
LAYER_2
  2
AIGNBL02020187
 70
64
 10
0
 20
0
 30
0
  3
AIGNBL02020187
  0
POLYLINE
  8
LAYER_2
 40
0.1764
 41
0.1764
 66
1
 10
0
 20
0
 30
0
  0
VERTEX
  8
LAYER_2
 10
131.5091
 20
-94.3351
  0
VERTEX
  8
LAYER_2
 10
131.4387
 20
-94.3114
  0
SEQEND
  0
ENDBLK
  0
BLOCK
  8
LAYER_2
  2
AIGNBL02020188
 70
64
 10
0
 20
0
 30
0
  3
AIGNBL02020188
  0
POLYLINE
  8
LAYER_2
 40
0.1764
 41
0.1764
 66
1
 10
0
 20
0
 30
0
  0
VERTEX
  8
LAYER_2
 10
131.6322
 20
-94.3604
  0
VERTEX
  8
LAYER_2
 10
131.5091
 20
-94.3351
  0
SEQEND
  0
ENDBLK
  0
BLOCK
  8
LAYER_2
  2
AIGNBL02020189
 70
64
 10
0
 20
0
 30
0
  3
AIGNBL02020189
  0
POLYLINE
  8
LAYER_2
 40
0.1764
 41
0.1764
 66
1
 10
0
 20
0
 30
0
  0
VERTEX
  8
LAYER_2
 10
131.7548
 20
-94.3351
  0
VERTEX
  8
LAYER_2
 10
131.6322
 20
-94.3604
  0
SEQEND
  0
ENDBLK
  0
BLOCK
  8
LAYER_2
  2
AIGNBL0202018A
 70
64
 10
0
 20
0
 30
0
  3
AIGNBL0202018A
  0
POLYLINE
  8
LAYER_2
 40
0.1764
 41
0.1764
 66
1
 10
0
 20
0
 30
0
  0
VERTEX
  8
LAYER_2
 10
131.8252
 20
-94.3114
  0
VERTEX
  8
LAYER_2
 10
131.7548
 20
-94.3351
  0
SEQEND
  0
ENDBLK
  0
BLOCK
  8
LAYER_2
  2
AIGNBL0202018B
 70
64
 10
0
 20
0
 30
0
  3
AIGNBL0202018B
  0
POLYLINE
  8
LAYER_2
 40
0.1764
 41
0.1764
 66
1
 10
0
 20
0
 30
0
  0
VERTEX
  8
LAYER_2
 10
131.8252
 20
-94.3114
  0
VERTEX
  8
LAYER_2
 10
131.9481
 20
-94.2886
  0
SEQEND
  0
ENDBLK
  0
BLOCK
  8
LAYER_2
  2
AIGNBL0202018C
 70
64
 10
0
 20
0
 30
0
  3
AIGNBL0202018C
  0
POLYLINE
  8
LAYER_2
 40
0.1764
 41
0.1764
 66
1
 10
0
 20
0
 30
0
  0
VERTEX
  8
LAYER_2
 10
131.8433
 20
-94.3354
  0
VERTEX
  8
LAYER_2
 10
131.9481
 20
-94.3162
  0
SEQEND
  0
ENDBLK
  0
BLOCK
  8
LAYER_2
  2
AIGNBL0202018D
 70
64
 10
0
 20
0
 30
0
  3
AIGNBL0202018D
  0
POLYLINE
  8
LAYER_2
 40
0.1764
 41
0.1764
 66
1
 10
0
 20
0
 30
0
  0
VERTEX
  8
LAYER_2
 10
131.7548
 20
-94.3647
  0
VERTEX
  8
LAYER_2
 10
131.8433
 20
-94.3354
  0
SEQEND
  0
ENDBLK
  0
BLOCK
  8
LAYER_2
  2
AIGNBL0202018E
 70
64
 10
0
 20
0
 30
0
  3
AIGNBL0202018E
  0
POLYLINE
  8
LAYER_2
 40
0.1764
 41
0.1764
 66
1
 10
0
 20
0
 30
0
  0
VERTEX
  8
LAYER_2
 10
131.7548
 20
-94.3647
  0
VERTEX
  8
LAYER_2
 10
131.6319
 20
-94.3884
  0
SEQEND
  0
ENDBLK
  0
BLOCK
  8
LAYER_2
  2
AIGNBL0202018F
 70
64
 10
0
 20
0
 30
0
  3
AIGNBL0202018F
  0
POLYLINE
  8
LAYER_2
 40
0.1764
 41
0.1764
 66
1
 10
0
 20
0
 30
0
  0
VERTEX
  8
LAYER_2
 10
131.6319
 20
-94.3884
  0
VERTEX
  8
LAYER_2
 10
131.5091
 20
-94.3647
  0
SEQEND
  0
ENDBLK
  0
BLOCK
  8
LAYER_2
  2
AIGNBL02020190
 70
64
 10
0
 20
0
 30
0
  3
AIGNBL02020190
  0
POLYLINE
  8
LAYER_2
 40
0.1764
 41
0.1764
 66
1
 10
0
 20
0
 30
0
  0
VERTEX
  8
LAYER_2
 10
131.4214
 20
-94.3356
  0
VERTEX
  8
LAYER_2
 10
131.5091
 20
-94.3647
  0
SEQEND
  0
ENDBLK
  0
BLOCK
  8
LAYER_2
  2
AIGNBL02020191
 70
64
 10
0
 20
0
 30
0
  3
AIGNBL02020191
  0
POLYLINE
  8
LAYER_2
 40
0.1764
 41
0.1764
 66
1
 10
0
 20
0
 30
0
  0
VERTEX
  8
LAYER_2
 10
131.1228
 20
-94.3647
  0
VERTEX
  8
LAYER_2
 10
131.1933
 20
-94.341
  0
SEQEND
  0
ENDBLK
  0
BLOCK
  8
LAYER_2
  2
AIGNBL02020192
 70
64
 10
0
 20
0
 30
0
  3
AIGNBL02020192
  0
POLYLINE
  8
LAYER_2
 40
0.1764
 41
0.1764
 66
1
 10
0
 20
0
 30
0
  0
VERTEX
  8
LAYER_2
 10
131.1933
 20
-94.3114
  0
VERTEX
  8
LAYER_2
 10
131.1228
 20
-94.3351
  0
SEQEND
  0
ENDBLK
  0
BLOCK
  8
LAYER_2
  2
AIGNBL02020193
 70
64
 10
0
 20
0
 30
0
  3
AIGNBL02020193
  0
POLYLINE
  8
LAYER_2
 40
0.1764
 41
0.1764
 66
1
 10
0
 20
0
 30
0
  0
VERTEX
  8
LAYER_2
 10
132.314
 20
-94.3548
  0
VERTEX
  8
LAYER_2
 10
132.2639
 20
-94.3604
  0
SEQEND
  0
ENDBLK
  0
BLOCK
  8
LAYER_2
  2
AIGNBL02020194
 70
64
 10
0
 20
0
 30
0
  3
AIGNBL02020194
  0
POLYLINE
  8
LAYER_2
 40
0.1764
 41
0.1764
 66
1
 10
0
 20
0
 30
0
  0
VERTEX
  8
LAYER_2
 10
132.3112
 20
-94.3599
  0
VERTEX
  8
LAYER_2
 10
132.314
 20
-94.3548
  0
SEQEND
  0
ENDBLK
  0
BLOCK
  8
LAYER_2
  2
AIGNBL02020195
 70
64
 10
0
 20
0
 30
0
  3
AIGNBL02020195
  0
POLYLINE
  8
LAYER_2
 40
0.1764
 41
0.1764
 66
1
 10
0
 20
0
 30
0
  0
VERTEX
  8
LAYER_2
 10
132.2917
 20
-94.3864
  0
VERTEX
  8
LAYER_2
 10
132.3112
 20
-94.3599
  0
SEQEND
  0
ENDBLK
  0
BLOCK
  8
LAYER_2
  2
AIGNBL02020196
 70
64
 10
0
 20
0
 30
0
  3
AIGNBL02020196
  0
POLYLINE
  8
LAYER_2
 40
0.1764
 41
0.1764
 66
1
 10
0
 20
0
 30
0
  0
VERTEX
  8
LAYER_2
 10
132.1412
 20
-94.3351
  0
VERTEX
  8
LAYER_2
 10
132.0704
 20
-94.3112
  0
SEQEND
  0
ENDBLK
  0
BLOCK
  8
LAYER_2
  2
AIGNBL02020197
 70
64
 10
0
 20
0
 30
0
  3
AIGNBL02020197
  0
POLYLINE
  8
LAYER_2
 40
0.1764
 41
0.1764
 66
1
 10
0
 20
0
 30
0
  0
VERTEX
  8
LAYER_2
 10
132.071
 20
-94.341
  0
VERTEX
  8
LAYER_2
 10
132.142
 20
-94.3649
  0
SEQEND
  0
ENDBLK
  0
BLOCK
  8
LAYER_2
  2
AIGNBL02020198
 70
64
 10
0
 20
0
 30
0
  3
AIGNBL02020198
  0
POLYLINE
  8
LAYER_2
 40
0.1764
 41
0.1764
 66
1
 10
0
 20
0
 30
0
  0
VERTEX
  8
LAYER_2
 10
131.1228
 20
-94.3351
  0
VERTEX
  8
LAYER_2
 10
131
 20
-94.3604
  0
SEQEND
  0
ENDBLK
  0
BLOCK
  8
LAYER_2
  2
AIGNBL02020199
 70
64
 10
0
 20
0
 30
0
  3
AIGNBL02020199
  0
ENDBLK
  0
BLOCK
  8
LAYER_2
  2
AIGNBL0202019A
 70
64
 10
0
 20
0
 30
0
  3
AIGNBL0202019A
  0
POLYLINE
  8
LAYER_2
 40
0.1764
 41
0.1764
 66
1
 10
0
 20
0
 30
0
  0
VERTEX
  8
LAYER_2
 10
131.1228
 20
-94.3647
  0
VERTEX
  8
LAYER_2
 10
130.9996
 20
-94.3884
  0
SEQEND
  0
ENDBLK
  0
BLOCK
  8
LAYER_2
  2
AIGNBL0202019B
 70
64
 10
0
 20
0
 30
0
  3
AIGNBL0202019B
  0
POLYLINE
  8
LAYER_2
 40
0.1764
 41
0.1764
 66
1
 10
0
 20
0
 30
0
  0
VERTEX
  8
LAYER_2
 10
130.9721
 20
-94.3864
  0
VERTEX
  8
LAYER_2
 10
130.9996
 20
-94.3884
  0
SEQEND
  0
ENDBLK
  0
BLOCK
  8
LAYER_2
  2
AIGNBL0202019C
 70
64
 10
0
 20
0
 30
0
  3
AIGNBL0202019C
  0
POLYLINE
  8
LAYER_2
 40
0.1764
 41
0.1764
 66
1
 10
0
 20
0
 30
0
  0
VERTEX
  8
LAYER_2
 10
132.2639
 20
-94.3604
  0
VERTEX
  8
LAYER_2
 10
132.1412
 20
-94.3351
  0
SEQEND
  0
ENDBLK
  0
BLOCK
  8
LAYER_2
  2
AIGNBL0202019D
 70
64
 10
0
 20
0
 30
0
  3
AIGNBL0202019D
  0
POLYLINE
  8
LAYER_2
 40
0.1764
 41
0.1764
 66
1
 10
0
 20
0
 30
0
  0
VERTEX
  8
LAYER_2
 10
132.2647
 20
-94.3884
  0
VERTEX
  8
LAYER_2
 10
132.2917
 20
-94.3864
  0
SEQEND
  0
ENDBLK
  0
BLOCK
  8
LAYER_2
  2
AIGNBL0202019E
 70
64
 10
0
 20
0
 30
0
  3
AIGNBL0202019E
  0
POLYLINE
  8
LAYER_2
 40
0.1764
 41
0.1764
 66
1
 10
0
 20
0
 30
0
  0
VERTEX
  8
LAYER_2
 10
132.2647
 20
-94.3884
  0
VERTEX
  8
LAYER_2
 10
132.142
 20
-94.3649
  0
SEQEND
  0
ENDBLK
  0
BLOCK
  8
LAYER_2
  2
AIGNBL0202019F
 70
64
 10
0
 20
0
 30
0
  3
AIGNBL0202019F
  0
POLYLINE
  8
LAYER_2
 40
0.1764
 41
0.1764
 66
1
 10
0
 20
0
 30
0
  0
VERTEX
  8
LAYER_2
 10
131.0548
 20
-94.4539
  0
VERTEX
  8
LAYER_2
 10
131.0808
 20
-94.4744
  0
SEQEND
  0
ENDBLK
  0
BLOCK
  8
LAYER_2
  2
AIGNBL020201A0
 70
64
 10
0
 20
0
 30
0
  3
AIGNBL020201A0
  0
POLYLINE
  8
LAYER_2
 40
0.1764
 41
0.1764
 66
1
 10
0
 20
0
 30
0
  0
VERTEX
  8
LAYER_2
 10
132.184
 20
-94.4744
  0
VERTEX
  8
LAYER_2
 10
132.21
 20
-94.4539
  0
SEQEND
  0
ENDBLK
  0
BLOCK
  8
LAYER_2
  2
AIGNBL020201A1
 70
64
 10
0
 20
0
 30
0
  3
AIGNBL020201A1
  0
POLYLINE
  8
LAYER_2
 40
0.1764
 41
0.1764
 66
1
 10
0
 20
0
 30
0
  0
VERTEX
  8
LAYER_2
 10
131.2454
 20
-94.3978
  0
VERTEX
  8
LAYER_2
 10
131.316
 20
-94.3888
  0
SEQEND
  0
ENDBLK
  0
BLOCK
  8
LAYER_2
  2
AIGNBL020201A2
 70
64
 10
0
 20
0
 30
0
  3
AIGNBL020201A2
  0
POLYLINE
  8
LAYER_2
 40
0.1764
 41
0.1764
 66
1
 10
0
 20
0
 30
0
  0
VERTEX
  8
LAYER_2
 10
131.9489
 20
-94.3888
  0
VERTEX
  8
LAYER_2
 10
132.0195
 20
-94.3978
  0
SEQEND
  0
ENDBLK
  0
BLOCK
  8
LAYER_2
  2
AIGNBL020201A3
 70
64
 10
0
 20
0
 30
0
  3
AIGNBL020201A3
  0
POLYLINE
  8
LAYER_2
 40
0.1764
 41
0.1764
 66
1
 10
0
 20
0
 30
0
  0
VERTEX
  8
LAYER_2
 10
131.9489
 20
-94.4164
  0
VERTEX
  8
LAYER_2
 10
132.0615
 20
-94.4377
  0
SEQEND
  0
ENDBLK
  0
BLOCK
  8
LAYER_2
  2
AIGNBL020201A4
 70
64
 10
0
 20
0
 30
0
  3
AIGNBL020201A4
  0
POLYLINE
  8
LAYER_2
 40
0.1764
 41
0.1764
 66
1
 10
0
 20
0
 30
0
  0
VERTEX
  8
LAYER_2
 10
131.2035
 20
-94.4377
  0
VERTEX
  8
LAYER_2
 10
131.316
 20
-94.4164
  0
SEQEND
  0
ENDBLK
  0
BLOCK
  8
LAYER_2
  2
AIGNBL020201A5
 70
64
 10
0
 20
0
 30
0
  3
AIGNBL020201A5
  0
POLYLINE
  8
LAYER_2
 40
0.1764
 41
0.1764
 66
1
 10
0
 20
0
 30
0
  0
VERTEX
  8
LAYER_2
 10
131.316
 20
-94.3888
  0
VERTEX
  8
LAYER_2
 10
131.4387
 20
-94.4117
  0
SEQEND
  0
ENDBLK
  0
BLOCK
  8
LAYER_2
  2
AIGNBL020201A6
 70
64
 10
0
 20
0
 30
0
  3
AIGNBL020201A6
  0
POLYLINE
  8
LAYER_2
 40
0.1764
 41
0.1764
 66
1
 10
0
 20
0
 30
0
  0
VERTEX
  8
LAYER_2
 10
131.5091
 20
-94.4357
  0
VERTEX
  8
LAYER_2
 10
131.4387
 20
-94.4117
  0
SEQEND
  0
ENDBLK
  0
BLOCK
  8
LAYER_2
  2
AIGNBL020201A7
 70
64
 10
0
 20
0
 30
0
  3
AIGNBL020201A7
  0
POLYLINE
  8
LAYER_2
 40
0.1764
 41
0.1764
 66
1
 10
0
 20
0
 30
0
  0
VERTEX
  8
LAYER_2
 10
131.6324
 20
-94.4606
  0
VERTEX
  8
LAYER_2
 10
131.5091
 20
-94.4357
  0
SEQEND
  0
ENDBLK
  0
BLOCK
  8
LAYER_2
  2
AIGNBL020201A8
 70
64
 10
0
 20
0
 30
0
  3
AIGNBL020201A8
  0
POLYLINE
  8
LAYER_2
 40
0.1764
 41
0.1764
 66
1
 10
0
 20
0
 30
0
  0
VERTEX
  8
LAYER_2
 10
131.7556
 20
-94.4357
  0
VERTEX
  8
LAYER_2
 10
131.6324
 20
-94.4606
  0
SEQEND
  0
ENDBLK
  0
BLOCK
  8
LAYER_2
  2
AIGNBL020201A9
 70
64
 10
0
 20
0
 30
0
  3
AIGNBL020201A9
  0
POLYLINE
  8
LAYER_2
 40
0.1764
 41
0.1764
 66
1
 10
0
 20
0
 30
0
  0
VERTEX
  8
LAYER_2
 10
131.8258
 20
-94.4117
  0
VERTEX
  8
LAYER_2
 10
131.7556
 20
-94.4357
  0
SEQEND
  0
ENDBLK
  0
BLOCK
  8
LAYER_2
  2
AIGNBL020201AA
 70
64
 10
0
 20
0
 30
0
  3
AIGNBL020201AA
  0
POLYLINE
  8
LAYER_2
 40
0.1764
 41
0.1764
 66
1
 10
0
 20
0
 30
0
  0
VERTEX
  8
LAYER_2
 10
131.8258
 20
-94.4117
  0
VERTEX
  8
LAYER_2
 10
131.9489
 20
-94.3888
  0
SEQEND
  0
ENDBLK
  0
BLOCK
  8
LAYER_2
  2
AIGNBL020201AB
 70
64
 10
0
 20
0
 30
0
  3
AIGNBL020201AB
  0
POLYLINE
  8
LAYER_2
 40
0.1764
 41
0.1764
 66
1
 10
0
 20
0
 30
0
  0
VERTEX
  8
LAYER_2
 10
131.8437
 20
-94.4356
  0
VERTEX
  8
LAYER_2
 10
131.9489
 20
-94.4164
  0
SEQEND
  0
ENDBLK
  0
BLOCK
  8
LAYER_2
  2
AIGNBL020201AC
 70
64
 10
0
 20
0
 30
0
  3
AIGNBL020201AC
  0
POLYLINE
  8
LAYER_2
 40
0.1764
 41
0.1764
 66
1
 10
0
 20
0
 30
0
  0
VERTEX
  8
LAYER_2
 10
131.7551
 20
-94.4655
  0
VERTEX
  8
LAYER_2
 10
131.8437
 20
-94.4356
  0
SEQEND
  0
ENDBLK
  0
BLOCK
  8
LAYER_2
  2
AIGNBL020201AD
 70
64
 10
0
 20
0
 30
0
  3
AIGNBL020201AD
  0
POLYLINE
  8
LAYER_2
 40
0.1764
 41
0.1764
 66
1
 10
0
 20
0
 30
0
  0
VERTEX
  8
LAYER_2
 10
131.7551
 20
-94.4655
  0
VERTEX
  8
LAYER_2
 10
131.6324
 20
-94.4889
  0
SEQEND
  0
ENDBLK
  0
BLOCK
  8
LAYER_2
  2
AIGNBL020201AE
 70
64
 10
0
 20
0
 30
0
  3
AIGNBL020201AE
  0
POLYLINE
  8
LAYER_2
 40
0.1764
 41
0.1764
 66
1
 10
0
 20
0
 30
0
  0
VERTEX
  8
LAYER_2
 10
131.6324
 20
-94.4889
  0
VERTEX
  8
LAYER_2
 10
131.5092
 20
-94.4653
  0
SEQEND
  0
ENDBLK
  0
BLOCK
  8
LAYER_2
  2
AIGNBL020201AF
 70
64
 10
0
 20
0
 30
0
  3
AIGNBL020201AF
  0
POLYLINE
  8
LAYER_2
 40
0.1764
 41
0.1764
 66
1
 10
0
 20
0
 30
0
  0
VERTEX
  8
LAYER_2
 10
131.4214
 20
-94.4357
  0
VERTEX
  8
LAYER_2
 10
131.5092
 20
-94.4653
  0
SEQEND
  0
ENDBLK
  0
BLOCK
  8
LAYER_2
  2
AIGNBL020201B0
 70
64
 10
0
 20
0
 30
0
  3
AIGNBL020201B0
  0
POLYLINE
  8
LAYER_2
 40
0.1764
 41
0.1764
 66
1
 10
0
 20
0
 30
0
  0
VERTEX
  8
LAYER_2
 10
131.316
 20
-94.4164
  0
VERTEX
  8
LAYER_2
 10
131.4214
 20
-94.4357
  0
SEQEND
  0
ENDBLK
  0
BLOCK
  8
LAYER_2
  2
AIGNBL020201B1
 70
64
 10
0
 20
0
 30
0
  3
AIGNBL020201B1
  0
POLYLINE
  8
LAYER_2
 40
0.1764
 41
0.1764
 66
1
 10
0
 20
0
 30
0
  0
VERTEX
  8
LAYER_2
 10
132.1078
 20
-94.4224
  0
VERTEX
  8
LAYER_2
 10
132.0195
 20
-94.3978
  0
SEQEND
  0
ENDBLK
  0
BLOCK
  8
LAYER_2
  2
AIGNBL020201B2
 70
64
 10
0
 20
0
 30
0
  3
AIGNBL020201B2
  0
POLYLINE
  8
LAYER_2
 40
0.1764
 41
0.1764
 66
1
 10
0
 20
0
 30
0
  0
VERTEX
  8
LAYER_2
 10
132.0615
 20
-94.4377
  0
VERTEX
  8
LAYER_2
 10
132.1272
 20
-94.457
  0
SEQEND
  0
ENDBLK
  0
BLOCK
  8
LAYER_2
  2
AIGNBL020201B3
 70
64
 10
0
 20
0
 30
0
  3
AIGNBL020201B3
  0
POLYLINE
  8
LAYER_2
 40
0.1764
 41
0.1764
 66
1
 10
0
 20
0
 30
0
  0
VERTEX
  8
LAYER_2
 10
131.1377
 20
-94.457
  0
VERTEX
  8
LAYER_2
 10
131.2035
 20
-94.4377
  0
SEQEND
  0
ENDBLK
  0
BLOCK
  8
LAYER_2
  2
AIGNBL020201B4
 70
64
 10
0
 20
0
 30
0
  3
AIGNBL020201B4
  0
POLYLINE
  8
LAYER_2
 40
0.1764
 41
0.1764
 66
1
 10
0
 20
0
 30
0
  0
VERTEX
  8
LAYER_2
 10
131.157
 20
-94.4224
  0
VERTEX
  8
LAYER_2
 10
131.2454
 20
-94.3978
  0
SEQEND
  0
ENDBLK
  0
BLOCK
  8
LAYER_2
  2
AIGNBL020201B5
 70
64
 10
0
 20
0
 30
0
  3
AIGNBL020201B5
  0
POLYLINE
  8
LAYER_2
 40
0.1764
 41
0.1764
 66
1
 10
0
 20
0
 30
0
  0
VERTEX
  8
LAYER_2
 10
132.21
 20
-94.4539
  0
VERTEX
  8
LAYER_2
 10
132.1078
 20
-94.4224
  0
SEQEND
  0
ENDBLK
  0
BLOCK
  8
LAYER_2
  2
AIGNBL020201B6
 70
64
 10
0
 20
0
 30
0
  3
AIGNBL020201B6
  0
POLYLINE
  8
LAYER_2
 40
0.1764
 41
0.1764
 66
1
 10
0
 20
0
 30
0
  0
VERTEX
  8
LAYER_2
 10
132.1272
 20
-94.457
  0
VERTEX
  8
LAYER_2
 10
132.184
 20
-94.4744
  0
SEQEND
  0
ENDBLK
  0
BLOCK
  8
LAYER_2
  2
AIGNBL020201B7
 70
64
 10
0
 20
0
 30
0
  3
AIGNBL020201B7
  0
POLYLINE
  8
LAYER_2
 40
0.1764
 41
0.1764
 66
1
 10
0
 20
0
 30
0
  0
VERTEX
  8
LAYER_2
 10
131.0808
 20
-94.4744
  0
VERTEX
  8
LAYER_2
 10
131.1377
 20
-94.457
  0
SEQEND
  0
ENDBLK
  0
BLOCK
  8
LAYER_2
  2
AIGNBL020201B8
 70
64
 10
0
 20
0
 30
0
  3
AIGNBL020201B8
  0
POLYLINE
  8
LAYER_2
 40
0.1764
 41
0.1764
 66
1
 10
0
 20
0
 30
0
  0
VERTEX
  8
LAYER_2
 10
131.157
 20
-94.4224
  0
VERTEX
  8
LAYER_2
 10
131.0548
 20
-94.4539
  0
SEQEND
  0
ENDBLK
  0
BLOCK
  8
LAYER_2
  2
AIGNBL020201B9
 70
64
 10
0
 20
0
 30
0
  3
AIGNBL020201B9
  0
POLYLINE
  8
LAYER_2
 40
0.1764
 41
0.1764
 66
1
 10
0
 20
0
 30
0
  0
VERTEX
  8
LAYER_2
 10
131.4387
 20
-94.5122
  0
VERTEX
  8
LAYER_2
 10
131.4214
 20
-94.5071
  0
SEQEND
  0
ENDBLK
  0
BLOCK
  8
LAYER_2
  2
AIGNBL020201BA
 70
64
 10
0
 20
0
 30
0
  3
AIGNBL020201BA
  0
POLYLINE
  8
LAYER_2
 40
0.1764
 41
0.1764
 66
1
 10
0
 20
0
 30
0
  0
VERTEX
  8
LAYER_2
 10
131.4566
 20
-94.5181
  0
VERTEX
  8
LAYER_2
 10
131.4387
 20
-94.5122
  0
SEQEND
  0
ENDBLK
  0
BLOCK
  8
LAYER_2
  2
AIGNBL020201BB
 70
64
 10
0
 20
0
 30
0
  3
AIGNBL020201BB
  0
POLYLINE
  8
LAYER_2
 40
0.1764
 41
0.1764
 66
1
 10
0
 20
0
 30
0
  0
VERTEX
  8
LAYER_2
 10
131.474
 20
-94.524
  0
VERTEX
  8
LAYER_2
 10
131.4566
 20
-94.5181
  0
SEQEND
  0
ENDBLK
  0
BLOCK
  8
LAYER_2
  2
AIGNBL020201BC
 70
64
 10
0
 20
0
 30
0
  3
AIGNBL020201BC
  0
POLYLINE
  8
LAYER_2
 40
0.1764
 41
0.1764
 66
1
 10
0
 20
0
 30
0
  0
VERTEX
  8
LAYER_2
 10
131.4917
 20
-94.5301
  0
VERTEX
  8
LAYER_2
 10
131.474
 20
-94.524
  0
SEQEND
  0
ENDBLK
  0
BLOCK
  8
LAYER_2
  2
AIGNBL020201BD
 70
64
 10
0
 20
0
 30
0
  3
AIGNBL020201BD
  0
POLYLINE
  8
LAYER_2
 40
0.1764
 41
0.1764
 66
1
 10
0
 20
0
 30
0
  0
VERTEX
  8
LAYER_2
 10
131.5092
 20
-94.536
  0
VERTEX
  8
LAYER_2
 10
131.4917
 20
-94.5301
  0
SEQEND
  0
ENDBLK
  0
BLOCK
  8
LAYER_2
  2
AIGNBL020201BE
 70
64
 10
0
 20
0
 30
0
  3
AIGNBL020201BE
  0
POLYLINE
  8
LAYER_2
 40
0.1764
 41
0.1764
 66
1
 10
0
 20
0
 30
0
  0
VERTEX
  8
LAYER_2
 10
131.7548
 20
-94.536
  0
VERTEX
  8
LAYER_2
 10
131.7373
 20
-94.5415
  0
SEQEND
  0
ENDBLK
  0
BLOCK
  8
LAYER_2
  2
AIGNBL020201BF
 70
64
 10
0
 20
0
 30
0
  3
AIGNBL020201BF
  0
POLYLINE
  8
LAYER_2
 40
0.1764
 41
0.1764
 66
1
 10
0
 20
0
 30
0
  0
VERTEX
  8
LAYER_2
 10
131.7724
 20
-94.5301
  0
VERTEX
  8
LAYER_2
 10
131.7548
 20
-94.536
  0
SEQEND
  0
ENDBLK
  0
BLOCK
  8
LAYER_2
  2
AIGNBL020201C0
 70
64
 10
0
 20
0
 30
0
  3
AIGNBL020201C0
  0
POLYLINE
  8
LAYER_2
 40
0.1764
 41
0.1764
 66
1
 10
0
 20
0
 30
0
  0
VERTEX
  8
LAYER_2
 10
131.7899
 20
-94.524
  0
VERTEX
  8
LAYER_2
 10
131.7724
 20
-94.5301
  0
SEQEND
  0
ENDBLK
  0
BLOCK
  8
LAYER_2
  2
AIGNBL020201C1
 70
64
 10
0
 20
0
 30
0
  3
AIGNBL020201C1
  0
POLYLINE
  8
LAYER_2
 40
0.1764
 41
0.1764
 66
1
 10
0
 20
0
 30
0
  0
VERTEX
  8
LAYER_2
 10
131.8076
 20
-94.5181
  0
VERTEX
  8
LAYER_2
 10
131.7899
 20
-94.524
  0
SEQEND
  0
ENDBLK
  0
BLOCK
  8
LAYER_2
  2
AIGNBL020201C2
 70
64
 10
0
 20
0
 30
0
  3
AIGNBL020201C2
  0
POLYLINE
  8
LAYER_2
 40
0.1764
 41
0.1764
 66
1
 10
0
 20
0
 30
0
  0
VERTEX
  8
LAYER_2
 10
131.8252
 20
-94.5122
  0
VERTEX
  8
LAYER_2
 10
131.8076
 20
-94.5181
  0
SEQEND
  0
ENDBLK
  0
BLOCK
  8
LAYER_2
  2
AIGNBL020201C3
 70
64
 10
0
 20
0
 30
0
  3
AIGNBL020201C3
  0
POLYLINE
  8
LAYER_2
 40
0.1764
 41
0.1764
 66
1
 10
0
 20
0
 30
0
  0
VERTEX
  8
LAYER_2
 10
131.8252
 20
-94.5122
  0
VERTEX
  8
LAYER_2
 10
131.948
 20
-94.4889
  0
SEQEND
  0
ENDBLK
  0
BLOCK
  8
LAYER_2
  2
AIGNBL020201C4
 70
64
 10
0
 20
0
 30
0
  3
AIGNBL020201C4
  0
POLYLINE
  8
LAYER_2
 40
0.1764
 41
0.1764
 66
1
 10
0
 20
0
 30
0
  0
VERTEX
  8
LAYER_2
 10
131.948
 20
-94.4889
  0
VERTEX
  8
LAYER_2
 10
132.0534
 20
-94.5071
  0
SEQEND
  0
ENDBLK
  0
BLOCK
  8
LAYER_2
  2
AIGNBL020201C5
 70
64
 10
0
 20
0
 30
0
  3
AIGNBL020201C5
  0
POLYLINE
  8
LAYER_2
 40
0.1764
 41
0.1764
 66
1
 10
0
 20
0
 30
0
  0
VERTEX
  8
LAYER_2
 10
132.071
 20
-94.5122
  0
VERTEX
  8
LAYER_2
 10
132.0534
 20
-94.5071
  0
SEQEND
  0
ENDBLK
  0
BLOCK
  8
LAYER_2
  2
AIGNBL020201C6
 70
64
 10
0
 20
0
 30
0
  3
AIGNBL020201C6
  0
POLYLINE
  8
LAYER_2
 40
0.1764
 41
0.1764
 66
1
 10
0
 20
0
 30
0
  0
VERTEX
  8
LAYER_2
 10
132.0516
 20
-94.5364
  0
VERTEX
  8
LAYER_2
 10
132.0596
 20
-94.5387
  0
SEQEND
  0
ENDBLK
  0
BLOCK
  8
LAYER_2
  2
AIGNBL020201C7
 70
64
 10
0
 20
0
 30
0
  3
AIGNBL020201C7
  0
POLYLINE
  8
LAYER_2
 40
0.1764
 41
0.1764
 66
1
 10
0
 20
0
 30
0
  0
VERTEX
  8
LAYER_2
 10
131.9477
 20
-94.517
  0
VERTEX
  8
LAYER_2
 10
132.0516
 20
-94.5364
  0
SEQEND
  0
ENDBLK
  0
BLOCK
  8
LAYER_2
  2
AIGNBL020201C8
 70
64
 10
0
 20
0
 30
0
  3
AIGNBL020201C8
  0
POLYLINE
  8
LAYER_2
 40
0.1764
 41
0.1764
 66
1
 10
0
 20
0
 30
0
  0
VERTEX
  8
LAYER_2
 10
131.8602
 20
-94.5313
  0
VERTEX
  8
LAYER_2
 10
131.9477
 20
-94.517
  0
SEQEND
  0
ENDBLK
  0
BLOCK
  8
LAYER_2
  2
AIGNBL020201C9
 70
64
 10
0
 20
0
 30
0
  3
AIGNBL020201C9
  0
POLYLINE
  8
LAYER_2
 40
0.1764
 41
0.1764
 66
1
 10
0
 20
0
 30
0
  0
VERTEX
  8
LAYER_2
 10
131.8427
 20
-94.5364
  0
VERTEX
  8
LAYER_2
 10
131.8602
 20
-94.5313
  0
SEQEND
  0
ENDBLK
  0
BLOCK
  8
LAYER_2
  2
AIGNBL020201CA
 70
64
 10
0
 20
0
 30
0
  3
AIGNBL020201CA
  0
POLYLINE
  8
LAYER_2
 40
0.1764
 41
0.1764
 66
1
 10
0
 20
0
 30
0
  0
VERTEX
  8
LAYER_2
 10
131.8252
 20
-94.5419
  0
VERTEX
  8
LAYER_2
 10
131.8427
 20
-94.5364
  0
SEQEND
  0
ENDBLK
  0
BLOCK
  8
LAYER_2
  2
AIGNBL020201CB
 70
64
 10
0
 20
0
 30
0
  3
AIGNBL020201CB
  0
POLYLINE
  8
LAYER_2
 40
0.1764
 41
0.1764
 66
1
 10
0
 20
0
 30
0
  0
VERTEX
  8
LAYER_2
 10
131.8076
 20
-94.5478
  0
VERTEX
  8
LAYER_2
 10
131.8252
 20
-94.5419
  0
SEQEND
  0
ENDBLK
  0
BLOCK
  8
LAYER_2
  2
AIGNBL020201CC
 70
64
 10
0
 20
0
 30
0
  3
AIGNBL020201CC
  0
POLYLINE
  8
LAYER_2
 40
0.1764
 41
0.1764
 66
1
 10
0
 20
0
 30
0
  0
VERTEX
  8
LAYER_2
 10
131.4387
 20
-94.5419
  0
VERTEX
  8
LAYER_2
 10
131.4566
 20
-94.5478
  0
SEQEND
  0
ENDBLK
  0
BLOCK
  8
LAYER_2
  2
AIGNBL020201CD
 70
64
 10
0
 20
0
 30
0
  3
AIGNBL020201CD
  0
POLYLINE
  8
LAYER_2
 40
0.1764
 41
0.1764
 66
1
 10
0
 20
0
 30
0
  0
VERTEX
  8
LAYER_2
 10
131.4214
 20
-94.5364
  0
VERTEX
  8
LAYER_2
 10
131.4387
 20
-94.5419
  0
SEQEND
  0
ENDBLK
  0
BLOCK
  8
LAYER_2
  2
AIGNBL020201CE
 70
64
 10
0
 20
0
 30
0
  3
AIGNBL020201CE
  0
POLYLINE
  8
LAYER_2
 40
0.1764
 41
0.1764
 66
1
 10
0
 20
0
 30
0
  0
VERTEX
  8
LAYER_2
 10
131.316
 20
-94.517
  0
VERTEX
  8
LAYER_2
 10
131.4214
 20
-94.5364
  0
SEQEND
  0
ENDBLK
  0
BLOCK
  8
LAYER_2
  2
AIGNBL020201CF
 70
64
 10
0
 20
0
 30
0
  3
AIGNBL020201CF
  0
POLYLINE
  8
LAYER_2
 40
0.1764
 41
0.1764
 66
1
 10
0
 20
0
 30
0
  0
VERTEX
  8
LAYER_2
 10
131.2125
 20
-94.5364
  0
VERTEX
  8
LAYER_2
 10
131.316
 20
-94.517
  0
SEQEND
  0
ENDBLK
  0
BLOCK
  8
LAYER_2
  2
AIGNBL020201D0
 70
64
 10
0
 20
0
 30
0
  3
AIGNBL020201D0
  0
POLYLINE
  8
LAYER_2
 40
0.1764
 41
0.1764
 66
1
 10
0
 20
0
 30
0
  0
VERTEX
  8
LAYER_2
 10
131.2045
 20
-94.5387
  0
VERTEX
  8
LAYER_2
 10
131.2125
 20
-94.5364
  0
SEQEND
  0
ENDBLK
  0
BLOCK
  8
LAYER_2
  2
AIGNBL020201D1
 70
64
 10
0
 20
0
 30
0
  3
AIGNBL020201D1
  0
POLYLINE
  8
LAYER_2
 40
0.1764
 41
0.1764
 66
1
 10
0
 20
0
 30
0
  0
VERTEX
  8
LAYER_2
 10
131.1933
 20
-94.5122
  0
VERTEX
  8
LAYER_2
 10
131.3162
 20
-94.4889
  0
SEQEND
  0
ENDBLK
  0
BLOCK
  8
LAYER_2
  2
AIGNBL020201D2
 70
64
 10
0
 20
0
 30
0
  3
AIGNBL020201D2
  0
POLYLINE
  8
LAYER_2
 40
0.1764
 41
0.1764
 66
1
 10
0
 20
0
 30
0
  0
VERTEX
  8
LAYER_2
 10
131.3162
 20
-94.4889
  0
VERTEX
  8
LAYER_2
 10
131.4214
 20
-94.5071
  0
SEQEND
  0
ENDBLK
  0
BLOCK
  8
LAYER_2
  2
AIGNBL020201D3
 70
64
 10
0
 20
0
 30
0
  3
AIGNBL020201D3
  0
POLYLINE
  8
LAYER_2
 40
0.1764
 41
0.1764
 66
1
 10
0
 20
0
 30
0
  0
VERTEX
  8
LAYER_2
 10
132.0949
 20
-94.5202
  0
VERTEX
  8
LAYER_2
 10
132.071
 20
-94.5122
  0
SEQEND
  0
ENDBLK
  0
BLOCK
  8
LAYER_2
  2
AIGNBL020201D4
 70
64
 10
0
 20
0
 30
0
  3
AIGNBL020201D4
  0
POLYLINE
  8
LAYER_2
 40
0.1764
 41
0.1764
 66
1
 10
0
 20
0
 30
0
  0
VERTEX
  8
LAYER_2
 10
132.0596
 20
-94.5387
  0
VERTEX
  8
LAYER_2
 10
132.0949
 20
-94.5202
  0
SEQEND
  0
ENDBLK
  0
BLOCK
  8
LAYER_2
  2
AIGNBL020201D5
 70
64
 10
0
 20
0
 30
0
  3
AIGNBL020201D5
  0
POLYLINE
  8
LAYER_2
 40
0.1764
 41
0.1764
 66
1
 10
0
 20
0
 30
0
  0
VERTEX
  8
LAYER_2
 10
131.1692
 20
-94.5202
  0
VERTEX
  8
LAYER_2
 10
131.2045
 20
-94.5387
  0
SEQEND
  0
ENDBLK
  0
BLOCK
  8
LAYER_2
  2
AIGNBL020201D6
 70
64
 10
0
 20
0
 30
0
  3
AIGNBL020201D6
  0
POLYLINE
  8
LAYER_2
 40
0.1764
 41
0.1764
 66
1
 10
0
 20
0
 30
0
  0
VERTEX
  8
LAYER_2
 10
131.1755
 20
-94.5181
  0
VERTEX
  8
LAYER_2
 10
131.1692
 20
-94.5202
  0
SEQEND
  0
ENDBLK
  0
BLOCK
  8
LAYER_2
  2
AIGNBL020201D7
 70
64
 10
0
 20
0
 30
0
  3
AIGNBL020201D7
  0
POLYLINE
  8
LAYER_2
 40
0.1764
 41
0.1764
 66
1
 10
0
 20
0
 30
0
  0
VERTEX
  8
LAYER_2
 10
131.1933
 20
-94.5122
  0
VERTEX
  8
LAYER_2
 10
131.1755
 20
-94.5181
  0
SEQEND
  0
ENDBLK
  0
BLOCK
  8
LAYER_2
  2
AIGNBL020201D8
 70
64
 10
0
 20
0
 30
0
  3
AIGNBL020201D8
  0
POLYLINE
  8
LAYER_2
 40
0.1764
 41
0.1764
 66
1
 10
0
 20
0
 30
0
  0
VERTEX
  8
LAYER_2
 10
131.6322
 20
-94.5609
  0
VERTEX
  8
LAYER_2
 10
131.5092
 20
-94.536
  0
SEQEND
  0
ENDBLK
  0
BLOCK
  8
LAYER_2
  2
AIGNBL020201D9
 70
64
 10
0
 20
0
 30
0
  3
AIGNBL020201D9
  0
POLYLINE
  8
LAYER_2
 40
0.1764
 41
0.1764
 66
1
 10
0
 20
0
 30
0
  0
VERTEX
  8
LAYER_2
 10
131.7373
 20
-94.5415
  0
VERTEX
  8
LAYER_2
 10
131.6322
 20
-94.5609
  0
SEQEND
  0
ENDBLK
  0
BLOCK
  8
LAYER_2
  2
AIGNBL020201DA
 70
64
 10
0
 20
0
 30
0
  3
AIGNBL020201DA
  0
POLYLINE
  8
LAYER_2
 40
0.1764
 41
0.1764
 66
1
 10
0
 20
0
 30
0
  0
VERTEX
  8
LAYER_2
 10
131.7899
 20
-94.5537
  0
VERTEX
  8
LAYER_2
 10
131.8076
 20
-94.5478
  0
SEQEND
  0
ENDBLK
  0
BLOCK
  8
LAYER_2
  2
AIGNBL020201DB
 70
64
 10
0
 20
0
 30
0
  3
AIGNBL020201DB
  0
POLYLINE
  8
LAYER_2
 40
0.1764
 41
0.1764
 66
1
 10
0
 20
0
 30
0
  0
VERTEX
  8
LAYER_2
 10
131.7548
 20
-94.5655
  0
VERTEX
  8
LAYER_2
 10
131.7899
 20
-94.5537
  0
SEQEND
  0
ENDBLK
  0
BLOCK
  8
LAYER_2
  2
AIGNBL020201DC
 70
64
 10
0
 20
0
 30
0
  3
AIGNBL020201DC
  0
POLYLINE
  8
LAYER_2
 40
0.1764
 41
0.1764
 66
1
 10
0
 20
0
 30
0
  0
VERTEX
  8
LAYER_2
 10
131.7548
 20
-94.5655
  0
VERTEX
  8
LAYER_2
 10
131.6319
 20
-94.5893
  0
SEQEND
  0
ENDBLK
  0
BLOCK
  8
LAYER_2
  2
AIGNBL020201DD
 70
64
 10
0
 20
0
 30
0
  3
AIGNBL020201DD
  0
POLYLINE
  8
LAYER_2
 40
0.1764
 41
0.1764
 66
1
 10
0
 20
0
 30
0
  0
VERTEX
  8
LAYER_2
 10
131.6319
 20
-94.5893
  0
VERTEX
  8
LAYER_2
 10
131.5268
 20
-94.5707
  0
SEQEND
  0
ENDBLK
  0
BLOCK
  8
LAYER_2
  2
AIGNBL020201DE
 70
64
 10
0
 20
0
 30
0
  3
AIGNBL020201DE
  0
POLYLINE
  8
LAYER_2
 40
0.1764
 41
0.1764
 66
1
 10
0
 20
0
 30
0
  0
VERTEX
  8
LAYER_2
 10
131.5092
 20
-94.5655
  0
VERTEX
  8
LAYER_2
 10
131.5268
 20
-94.5707
  0
SEQEND
  0
ENDBLK
  0
BLOCK
  8
LAYER_2
  2
AIGNBL020201DF
 70
64
 10
0
 20
0
 30
0
  3
AIGNBL020201DF
  0
POLYLINE
  8
LAYER_2
 40
0.1764
 41
0.1764
 66
1
 10
0
 20
0
 30
0
  0
VERTEX
  8
LAYER_2
 10
131.4917
 20
-94.5596
  0
VERTEX
  8
LAYER_2
 10
131.5092
 20
-94.5655
  0
SEQEND
  0
ENDBLK
  0
BLOCK
  8
LAYER_2
  2
AIGNBL020201E0
 70
64
 10
0
 20
0
 30
0
  3
AIGNBL020201E0
  0
POLYLINE
  8
LAYER_2
 40
0.1764
 41
0.1764
 66
1
 10
0
 20
0
 30
0
  0
VERTEX
  8
LAYER_2
 10
131.474
 20
-94.5537
  0
VERTEX
  8
LAYER_2
 10
131.4917
 20
-94.5596
  0
SEQEND
  0
ENDBLK
  0
BLOCK
  8
LAYER_2
  2
AIGNBL020201E1
 70
64
 10
0
 20
0
 30
0
  3
AIGNBL020201E1
  0
POLYLINE
  8
LAYER_2
 40
0.1764
 41
0.1764
 66
1
 10
0
 20
0
 30
0
  0
VERTEX
  8
LAYER_2
 10
131.4566
 20
-94.5478
  0
VERTEX
  8
LAYER_2
 10
131.474
 20
-94.5537
  0
SEQEND
  0
ENDBLK
  0
BLOCK
  8
LAYER_2
  2
AIGNBL020201E2
 70
64
 10
0
 20
0
 30
0
  3
AIGNBL020201E2
  0
POLYLINE
  8
LAYER_2
 40
0.1764
 41
0.1764
 66
1
 10
0
 20
0
 30
0
  0
VERTEX
  8
LAYER_2
 10
132.2265
 20
-93.9703
  0
VERTEX
  8
LAYER_2
 10
132.2265
 20
-93.9702
  0
SEQEND
  0
ENDBLK
  0
BLOCK
  8
LAYER_2
  2
AIGNBL020201E3
 70
64
 10
0
 20
0
 30
0
  3
AIGNBL020201E3
  0
ENDBLK
  0
BLOCK
  8
LAYER_14
  2
AIGNBL0E020003
 70
64
 10
0
 20
0
 30
0
  3
AIGNBL0E020003
  0
POLYLINE
  8
LAYER_14
 40
0.1411
 41
0.1411
 66
1
 10
0
 20
0
 30
0
  0
VERTEX
  8
LAYER_14
 10
134.6
 20
-193.0873
  0
VERTEX
  8
LAYER_14
 10
133.9075
 20
-193.0873
  0
SEQEND
  0
POLYLINE
  8
LAYER_14
 40
0.1411
 41
0.1411
 66
1
 10
0
 20
0
 30
0
  0
VERTEX
  8
LAYER_14
 10
129.3077
 20
-193.0873
  0
VERTEX
  8
LAYER_14
 10
128.6152
 20
-193.0873
  0
SEQEND
  0
ENDBLK
  0
BLOCK
  8
LAYER_14
  2
AIGNBL0E020005
 70
64
 10
0
 20
0
 30
0
  3
AIGNBL0E020005
  0
POLYLINE
  8
LAYER_14
 40
0.1411
 41
0.1411
 66
1
 10
0
 20
0
 30
0
  0
VERTEX
  8
LAYER_14
 10
222.8332
 20
-192.9201
  0
VERTEX
  8
LAYER_14
 10
222.1408
 20
-192.9201
  0
SEQEND
  0
POLYLINE
  8
LAYER_14
 40
0.1411
 41
0.1411
 66
1
 10
0
 20
0
 30
0
  0
VERTEX
  8
LAYER_14
 10
217.5409
 20
-192.9201
  0
VERTEX
  8
LAYER_14
 10
216.8484
 20
-192.9201
  0
SEQEND
  0
ENDBLK
  0
BLOCK
  8
LAYER_22
  2
AIGNBL16020003
 70
64
 10
0
 20
0
 30
0
  3
AIGNBL16020003
  0
INSERT
  8
LAYER_22
  2
AIGNBL16030004
 10
0
 20
0
 30
0
  0
INSERT
  8
LAYER_22
  2
AIGNBL16030005
 10
0
 20
0
 30
0
  0
INSERT
  8
LAYER_22
  2
AIGNBL16030006
 10
0
 20
0
 30
0
  0
INSERT
  8
LAYER_22
  2
AIGNBL16030007
 10
0
 20
0
 30
0
  0
INSERT
  8
LAYER_22
  2
AIGNBL16030008
 10
0
 20
0
 30
0
  0
INSERT
  8
LAYER_22
  2
AIGNBL16030009
 10
0
 20
0
 30
0
  0
INSERT
  8
LAYER_22
  2
AIGNBL1603000A
 10
0
 20
0
 30
0
  0
INSERT
  8
LAYER_22
  2
AIGNBL1603000B
 10
0
 20
0
 30
0
  0
INSERT
  8
LAYER_22
  2
AIGNBL1603000C
 10
0
 20
0
 30
0
  0
INSERT
  8
LAYER_22
  2
AIGNBL1603000D
 10
0
 20
0
 30
0
  0
INSERT
  8
LAYER_22
  2
AIGNBL1603000E
 10
0
 20
0
 30
0
  0
INSERT
  8
LAYER_22
  2
AIGNBL1603000F
 10
0
 20
0
 30
0
  0
INSERT
  8
LAYER_22
  2
AIGNBL16030010
 10
0
 20
0
 30
0
  0
INSERT
  8
LAYER_22
  2
AIGNBL16030011
 10
0
 20
0
 30
0
  0
INSERT
  8
LAYER_22
  2
AIGNBL16030012
 10
0
 20
0
 30
0
  0
INSERT
  8
LAYER_22
  2
AIGNBL16030013
 10
0
 20
0
 30
0
  0
ENDBLK
  0
BLOCK
  8
LAYER_22
  2
AIGNBL16020014
 70
64
 10
0
 20
0
 30
0
  3
AIGNBL16020014
  0
INSERT
  8
LAYER_22
  2
AIGNBL16030015
 10
0
 20
0
 30
0
  0
INSERT
  8
LAYER_22
  2
AIGNBL16030020
 10
0
 20
0
 30
0
  0
INSERT
  8
LAYER_22
  2
AIGNBL16030021
 10
0
 20
0
 30
0
  0
INSERT
  8
LAYER_22
  2
AIGNBL16030022
 10
0
 20
0
 30
0
  0
INSERT
  8
LAYER_22
  2
AIGNBL16030023
 10
0
 20
0
 30
0
  0
INSERT
  8
LAYER_22
  2
AIGNBL16030024
 10
0
 20
0
 30
0
  0
INSERT
  8
LAYER_22
  2
AIGNBL16030025
 10
0
 20
0
 30
0
  0
INSERT
  8
LAYER_22
  2
AIGNBL16030026
 10
0
 20
0
 30
0
  0
INSERT
  8
LAYER_22
  2
AIGNBL16030027
 10
0
 20
0
 30
0
  0
INSERT
  8
LAYER_22
  2
AIGNBL16030028
 10
0
 20
0
 30
0
  0
INSERT
  8
LAYER_22
  2
AIGNBL16030029
 10
0
 20
0
 30
0
  0
INSERT
  8
LAYER_22
  2
AIGNBL1603002A
 10
0
 20
0
 30
0
  0
INSERT
  8
LAYER_22
  2
AIGNBL1603002B
 10
0
 20
0
 30
0
  0
INSERT
  8
LAYER_22
  2
AIGNBL1603002C
 10
0
 20
0
 30
0
  0
INSERT
  8
LAYER_22
  2
AIGNBL1603002D
 10
0
 20
0
 30
0
  0
INSERT
  8
LAYER_22
  2
AIGNBL1603002E
 10
0
 20
0
 30
0
  0
INSERT
  8
LAYER_22
  2
AIGNBL1603002F
 10
0
 20
0
 30
0
  0
INSERT
  8
LAYER_22
  2
AIGNBL16030030
 10
0
 20
0
 30
0
  0
INSERT
  8
LAYER_22
  2
AIGNBL16030031
 10
0
 20
0
 30
0
  0
INSERT
  8
LAYER_22
  2
AIGNBL16030032
 10
0
 20
0
 30
0
  0
INSERT
  8
LAYER_22
  2
AIGNBL16030033
 10
0
 20
0
 30
0
  0
ENDBLK
  0
BLOCK
  8
LAYER_22
  2
AIGNBL16020034
 70
64
 10
0
 20
0
 30
0
  3
AIGNBL16020034
  0
INSERT
  8
LAYER_22
  2
AIGNBL16030035
 10
0
 20
0
 30
0
  0
INSERT
  8
LAYER_22
  2
AIGNBL16030036
 10
0
 20
0
 30
0
  0
INSERT
  8
LAYER_22
  2
AIGNBL16030037
 10
0
 20
0
 30
0
  0
INSERT
  8
LAYER_22
  2
AIGNBL16030038
 10
0
 20
0
 30
0
  0
INSERT
  8
LAYER_22
  2
AIGNBL16030039
 10
0
 20
0
 30
0
  0
INSERT
  8
LAYER_22
  2
AIGNBL1603003A
 10
0
 20
0
 30
0
  0
INSERT
  8
LAYER_22
  2
AIGNBL1603003B
 10
0
 20
0
 30
0
  0
INSERT
  8
LAYER_22
  2
AIGNBL1603003C
 10
0
 20
0
 30
0
  0
INSERT
  8
LAYER_22
  2
AIGNBL1603003D
 10
0
 20
0
 30
0
  0
INSERT
  8
LAYER_22
  2
AIGNBL1603003E
 10
0
 20
0
 30
0
  0
INSERT
  8
LAYER_22
  2
AIGNBL1603003F
 10
0
 20
0
 30
0
  0
INSERT
  8
LAYER_22
  2
AIGNBL16030040
 10
0
 20
0
 30
0
  0
INSERT
  8
LAYER_22
  2
AIGNBL16030041
 10
0
 20
0
 30
0
  0
INSERT
  8
LAYER_22
  2
AIGNBL16030042
 10
0
 20
0
 30
0
  0
ENDBLK
  0
BLOCK
  8
LAYER_22
  2
AIGNBL16020043
 70
64
 10
0
 20
0
 30
0
  3
AIGNBL16020043
  0
INSERT
  8
LAYER_22
  2
AIGNBL16030044
 10
0
 20
0
 30
0
  0
INSERT
  8
LAYER_22
  2
AIGNBL16030045
 10
0
 20
0
 30
0
  0
INSERT
  8
LAYER_22
  2
AIGNBL16030046
 10
0
 20
0
 30
0
  0
INSERT
  8
LAYER_22
  2
AIGNBL16030047
 10
0
 20
0
 30
0
  0
INSERT
  8
LAYER_22
  2
AIGNBL16030048
 10
0
 20
0
 30
0
  0
INSERT
  8
LAYER_22
  2
AIGNBL16030049
 10
0
 20
0
 30
0
  0
ENDBLK
  0
BLOCK
  8
LAYER_22
  2
AIGNBL1602004A
 70
64
 10
0
 20
0
 30
0
  3
AIGNBL1602004A
  0
INSERT
  8
LAYER_22
  2
AIGNBL1603004B
 10
0
 20
0
 30
0
  0
INSERT
  8
LAYER_22
  2
AIGNBL1603004C
 10
0
 20
0
 30
0
  0
INSERT
  8
LAYER_22
  2
AIGNBL1603004D
 10
0
 20
0
 30
0
  0
INSERT
  8
LAYER_22
  2
AIGNBL1603004E
 10
0
 20
0
 30
0
  0
INSERT
  8
LAYER_22
  2
AIGNBL1603004F
 10
0
 20
0
 30
0
  0
INSERT
  8
LAYER_22
  2
AIGNBL16030050
 10
0
 20
0
 30
0
  0
INSERT
  8
LAYER_22
  2
AIGNBL16030051
 10
0
 20
0
 30
0
  0
INSERT
  8
LAYER_22
  2
AIGNBL16030052
 10
0
 20
0
 30
0
  0
INSERT
  8
LAYER_22
  2
AIGNBL16030053
 10
0
 20
0
 30
0
  0
INSERT
  8
LAYER_22
  2
AIGNBL16030054
 10
0
 20
0
 30
0
  0
INSERT
  8
LAYER_22
  2
AIGNBL16030055
 10
0
 20
0
 30
0
  0
INSERT
  8
LAYER_22
  2
AIGNBL16030056
 10
0
 20
0
 30
0
  0
INSERT
  8
LAYER_22
  2
AIGNBL16030057
 10
0
 20
0
 30
0
  0
INSERT
  8
LAYER_22
  2
AIGNBL16030058
 10
0
 20
0
 30
0
  0
ENDBLK
  0
BLOCK
  8
LAYER_22
  2
AIGNBL16020059
 70
64
 10
0
 20
0
 30
0
  3
AIGNBL16020059
  0
POLYLINE
  8
LAYER_22
  6
AIGENLINE004
 40
0.1058
 41
0.1058
 66
1
 10
0
 20
0
 30
0
 70
128
  0
VERTEX
  8
LAYER_22
 10
219.8419
 20
-194.7219
  0
VERTEX
  8
LAYER_22
 10
219.8419
 20
-198.0202
  0
SEQEND
  0
ENDBLK
  0
BLOCK
  8
LAYER_22
  2
AIGNBL1602005A
 70
64
 10
0
 20
0
 30
0
  3
AIGNBL1602005A
  0
POLYLINE
  8
LAYER_22
  6
AIGENLINE004
 40
0.1058
 41
0.1058
 66
1
 10
0
 20
0
 30
0
 70
128
  0
VERTEX
  8
LAYER_22
 10
216.1019
 20
-203.9199
  0
VERTEX
  8
LAYER_22
 10
243.6468
 20
-203.9199
  0
SEQEND
  0
ENDBLK
  0
BLOCK
  8
LAYER_22
  2
AIGNBL1602005B
 70
64
 10
0
 20
0
 30
0
  3
AIGNBL1602005B
  0
POLYLINE
  8
LAYER_22
  6
AIGENLINE004
 40
0.1058
 41
0.1058
 66
1
 10
0
 20
0
 30
0
 70
128
  0
VERTEX
  8
LAYER_22
 10
219.8419
 20
-198.0202
  0
VERTEX
  8
LAYER_22
 10
219.8419
 20
-214.1701
  0
SEQEND
  0
ENDBLK
  0
BLOCK
  8
LAYER_22
  2
AIGNBL1602005C
 70
64
 10
0
 20
0
 30
0
  3
AIGNBL1602005C
  0
INSERT
  8
LAYER_22
  2
AIGNBL1603005D
 10
0
 20
0
 30
0
  0
INSERT
  8
LAYER_22
  2
AIGNBL1603005E
 10
0
 20
0
 30
0
  0
ENDBLK
  0
BLOCK
  8
LAYER_22
  2
AIGNBL1602005F
 70
64
 10
0
 20
0
 30
0
  3
AIGNBL1602005F
  0
INSERT
  8
LAYER_22
  2
AIGNBL16030060
 10
0
 20
0
 30
0
  0
INSERT
  8
LAYER_22
  2
AIGNBL16030061
 10
0
 20
0
 30
0
  0
INSERT
  8
LAYER_22
  2
AIGNBL16030062
 10
0
 20
0
 30
0
  0
INSERT
  8
LAYER_22
  2
AIGNBL16030063
 10
0
 20
0
 30
0
  0
INSERT
  8
LAYER_22
  2
AIGNBL16030064
 10
0
 20
0
 30
0
  0
INSERT
  8
LAYER_22
  2
AIGNBL16030065
 10
0
 20
0
 30
0
  0
INSERT
  8
LAYER_22
  2
AIGNBL16030066
 10
0
 20
0
 30
0
  0
INSERT
  8
LAYER_22
  2
AIGNBL16030067
 10
0
 20
0
 30
0
  0
ENDBLK
  0
BLOCK
  8
LAYER_22
  2
AIGNBL16020069
 70
64
 10
0
 20
0
 30
0
  3
AIGNBL16020069
  0
INSERT
  8
LAYER_22
  2
AIGNBL1603006A
 10
0
 20
0
 30
0
  0
INSERT
  8
LAYER_22
  2
AIGNBL1603006B
 10
0
 20
0
 30
0
  0
INSERT
  8
LAYER_22
  2
AIGNBL1603006C
 10
0
 20
0
 30
0
  0
INSERT
  8
LAYER_22
  2
AIGNBL1603006D
 10
0
 20
0
 30
0
  0
INSERT
  8
LAYER_22
  2
AIGNBL1603006E
 10
0
 20
0
 30
0
  0
INSERT
  8
LAYER_22
  2
AIGNBL1603006F
 10
0
 20
0
 30
0
  0
INSERT
  8
LAYER_22
  2
AIGNBL16030070
 10
0
 20
0
 30
0
  0
INSERT
  8
LAYER_22
  2
AIGNBL16030071
 10
0
 20
0
 30
0
  0
INSERT
  8
LAYER_22
  2
AIGNBL16030072
 10
0
 20
0
 30
0
  0
INSERT
  8
LAYER_22
  2
AIGNBL16030073
 10
0
 20
0
 30
0
  0
INSERT
  8
LAYER_22
  2
AIGNBL16030074
 10
0
 20
0
 30
0
  0
INSERT
  8
LAYER_22
  2
AIGNBL16030075
 10
0
 20
0
 30
0
  0
INSERT
  8
LAYER_22
  2
AIGNBL16030076
 10
0
 20
0
 30
0
  0
INSERT
  8
LAYER_22
  2
AIGNBL16030077
 10
0
 20
0
 30
0
  0
INSERT
  8
LAYER_22
  2
AIGNBL16030078
 10
0
 20
0
 30
0
  0
INSERT
  8
LAYER_22
  2
AIGNBL16030079
 10
0
 20
0
 30
0
  0
ENDBLK
  0
BLOCK
  8
LAYER_22
  2
AIGNBL1602007A
 70
64
 10
0
 20
0
 30
0
  3
AIGNBL1602007A
  0
INSERT
  8
LAYER_22
  2
AIGNBL1603007B
 10
0
 20
0
 30
0
  0
INSERT
  8
LAYER_22
  2
AIGNBL16030086
 10
0
 20
0
 30
0
  0
INSERT
  8
LAYER_22
  2
AIGNBL16030087
 10
0
 20
0
 30
0
  0
INSERT
  8
LAYER_22
  2
AIGNBL16030088
 10
0
 20
0
 30
0
  0
INSERT
  8
LAYER_22
  2
AIGNBL16030089
 10
0
 20
0
 30
0
  0
INSERT
  8
LAYER_22
  2
AIGNBL1603008A
 10
0
 20
0
 30
0
  0
INSERT
  8
LAYER_22
  2
AIGNBL1603008B
 10
0
 20
0
 30
0
  0
ENDBLK
  0
BLOCK
  8
LAYER_22
  2
AIGNBL1602008C
 70
64
 10
0
 20
0
 30
0
  3
AIGNBL1602008C
  0
INSERT
  8
LAYER_22
  2
AIGNBL1603008D
 10
0
 20
0
 30
0
  0
INSERT
  8
LAYER_22
  2
AIGNBL1603008E
 10
0
 20
0
 30
0
  0
INSERT
  8
LAYER_22
  2
AIGNBL1603008F
 10
0
 20
0
 30
0
  0
INSERT
  8
LAYER_22
  2
AIGNBL16030090
 10
0
 20
0
 30
0
  0
INSERT
  8
LAYER_22
  2
AIGNBL16030091
 10
0
 20
0
 30
0
  0
INSERT
  8
LAYER_22
  2
AIGNBL16030092
 10
0
 20
0
 30
0
  0
INSERT
  8
LAYER_22
  2
AIGNBL16030093
 10
0
 20
0
 30
0
  0
INSERT
  8
LAYER_22
  2
AIGNBL16030094
 10
0
 20
0
 30
0
  0
INSERT
  8
LAYER_22
  2
AIGNBL16030095
 10
0
 20
0
 30
0
  0
INSERT
  8
LAYER_22
  2
AIGNBL16030096
 10
0
 20
0
 30
0
  0
INSERT
  8
LAYER_22
  2
AIGNBL16030097
 10
0
 20
0
 30
0
  0
INSERT
  8
LAYER_22
  2
AIGNBL16030098
 10
0
 20
0
 30
0
  0
INSERT
  8
LAYER_22
  2
AIGNBL16030099
 10
0
 20
0
 30
0
  0
INSERT
  8
LAYER_22
  2
AIGNBL1603009A
 10
0
 20
0
 30
0
  0
ENDBLK
  0
BLOCK
  8
LAYER_22
  2
AIGNBL1602009B
 70
64
 10
0
 20
0
 30
0
  3
AIGNBL1602009B
  0
POLYLINE
  8
LAYER_22
  6
AIGENLINE004
 40
0.1058
 41
0.1058
 66
1
 10
0
 20
0
 30
0
 70
128
  0
VERTEX
  8
LAYER_22
 10
131.6086
 20
-194.7094
  0
VERTEX
  8
LAYER_22
 10
131.6086
 20
-197.9854
  0
SEQEND
  0
ENDBLK
  0
BLOCK
  8
LAYER_22
  2
AIGNBL1602009C
 70
64
 10
0
 20
0
 30
0
  3
AIGNBL1602009C
  0
INSERT
  8
LAYER_22
  2
AIGNBL1603009D
 10
0
 20
0
 30
0
  0
ENDBLK
  0
BLOCK
  8
LAYER_22
  2
AIGNBL1602009F
 70
64
 10
0
 20
0
 30
0
  3
AIGNBL1602009F
  0
POLYLINE
  8
LAYER_22
  6
AIGENLINE004
 40
0.1058
 41
0.1058
 66
1
 10
0
 20
0
 30
0
 70
128
  0
VERTEX
  8
LAYER_22
 10
131.6086
 20
-197.9854
  0
VERTEX
  8
LAYER_22
 10
131.6086
 20
-215.4076
  0
SEQEND
  0
ENDBLK
  0
BLOCK
  8
LAYER_22
  2
AIGNBL160200A0
 70
64
 10
0
 20
0
 30
0
  3
AIGNBL160200A0
  0
INSERT
  8
LAYER_22
  2
AIGNBL160300A1
 10
0
 20
0
 30
0
  0
INSERT
  8
LAYER_22
  2
AIGNBL160300A2
 10
0
 20
0
 30
0
  0
ENDBLK
  0
BLOCK
  8
LAYER_22
  2
AIGNBL160200A3
 70
64
 10
0
 20
0
 30
0
  3
AIGNBL160200A3
  0
CIRCLE
  8
LAYER_22
  6
AIGENLINE005
 10
131.6086
 20
-203.9202
 40
1.5999
  0
ENDBLK
  0
BLOCK
  8
LAYER_33
  2
AIGNBL21020003
 70
64
 10
0
 20
0
 30
0
  3
AIGNBL21020003
  0
INSERT
  8
LAYER_33
  2
AIGNBL21030004
 10
0
 20
0
 30
0
  0
INSERT
  8
LAYER_33
  2
AIGNBL21030005
 10
0
 20
0
 30
0
  0
INSERT
  8
LAYER_33
  2
AIGNBL21030006
 10
0
 20
0
 30
0
  0
INSERT
  8
LAYER_33
  2
AIGNBL21030007
 10
0
 20
0
 30
0
  0
INSERT
  8
LAYER_33
  2
AIGNBL21030008
 10
0
 20
0
 30
0
  0
INSERT
  8
LAYER_33
  2
AIGNBL21030009
 10
0
 20
0
 30
0
  0
INSERT
  8
LAYER_33
  2
AIGNBL2103000A
 10
0
 20
0
 30
0
  0
ENDBLK
  0
BLOCK
  8
LAYER_33
  2
AIGNBL2102000B
 70
64
 10
0
 20
0
 30
0
  3
AIGNBL2102000B
  0
INSERT
  8
LAYER_33
  2
AIGNBL2103000C
 10
0
 20
0
 30
0
  0
INSERT
  8
LAYER_33
  2
AIGNBL2103000D
 10
0
 20
0
 30
0
  0
INSERT
  8
LAYER_33
  2
AIGNBL2103000E
 10
0
 20
0
 30
0
  0
INSERT
  8
LAYER_33
  2
AIGNBL2103000F
 10
0
 20
0
 30
0
  0
INSERT
  8
LAYER_33
  2
AIGNBL21030010
 10
0
 20
0
 30
0
  0
INSERT
  8
LAYER_33
  2
AIGNBL21030011
 10
0
 20
0
 30
0
  0
INSERT
  8
LAYER_33
  2
AIGNBL21030012
 10
0
 20
0
 30
0
  0
INSERT
  8
LAYER_33
  2
AIGNBL21030013
 10
0
 20
0
 30
0
  0
INSERT
  8
LAYER_33
  2
AIGNBL21030014
 10
0
 20
0
 30
0
  0
INSERT
  8
LAYER_33
  2
AIGNBL21030015
 10
0
 20
0
 30
0
  0
INSERT
  8
LAYER_33
  2
AIGNBL21030016
 10
0
 20
0
 30
0
  0
INSERT
  8
LAYER_33
  2
AIGNBL21030017
 10
0
 20
0
 30
0
  0
INSERT
  8
LAYER_33
  2
AIGNBL21030018
 10
0
 20
0
 30
0
  0
INSERT
  8
LAYER_33
  2
AIGNBL21030019
 10
0
 20
0
 30
0
  0
INSERT
  8
LAYER_33
  2
AIGNBL2103001A
 10
0
 20
0
 30
0
  0
INSERT
  8
LAYER_33
  2
AIGNBL2103001B
 10
0
 20
0
 30
0
  0
INSERT
  8
LAYER_33
  2
AIGNBL2103001C
 10
0
 20
0
 30
0
  0
INSERT
  8
LAYER_33
  2
AIGNBL2103001D
 10
0
 20
0
 30
0
  0
INSERT
  8
LAYER_33
  2
AIGNBL2103001E
 10
0
 20
0
 30
0
  0
INSERT
  8
LAYER_33
  2
AIGNBL2103001F
 10
0
 20
0
 30
0
  0
INSERT
  8
LAYER_33
  2
AIGNBL21030020
 10
0
 20
0
 30
0
  0
INSERT
  8
LAYER_33
  2
AIGNBL21030021
 10
0
 20
0
 30
0
  0
INSERT
  8
LAYER_33
  2
AIGNBL21030022
 10
0
 20
0
 30
0
  0
INSERT
  8
LAYER_33
  2
AIGNBL21030023
 10
0
 20
0
 30
0
  0
INSERT
  8
LAYER_33
  2
AIGNBL21030024
 10
0
 20
0
 30
0
  0
INSERT
  8
LAYER_33
  2
AIGNBL21030025
 10
0
 20
0
 30
0
  0
INSERT
  8
LAYER_33
  2
AIGNBL21030026
 10
0
 20
0
 30
0
  0
INSERT
  8
LAYER_33
  2
AIGNBL21030027
 10
0
 20
0
 30
0
  0
INSERT
  8
LAYER_33
  2
AIGNBL21030028
 10
0
 20
0
 30
0
  0
INSERT
  8
LAYER_33
  2
AIGNBL21030029
 10
0
 20
0
 30
0
  0
INSERT
  8
LAYER_33
  2
AIGNBL2103002A
 10
0
 20
0
 30
0
  0
INSERT
  8
LAYER_33
  2
AIGNBL2103002B
 10
0
 20
0
 30
0
  0
INSERT
  8
LAYER_33
  2
AIGNBL2103002C
 10
0
 20
0
 30
0
  0
INSERT
  8
LAYER_33
  2
AIGNBL2103002D
 10
0
 20
0
 30
0
  0
INSERT
  8
LAYER_33
  2
AIGNBL2103002E
 10
0
 20
0
 30
0
  0
INSERT
  8
LAYER_33
  2
AIGNBL2103002F
 10
0
 20
0
 30
0
  0
INSERT
  8
LAYER_33
  2
AIGNBL21030030
 10
0
 20
0
 30
0
  0
INSERT
  8
LAYER_33
  2
AIGNBL21030031
 10
0
 20
0
 30
0
  0
INSERT
  8
LAYER_33
  2
AIGNBL21030038
 10
0
 20
0
 30
0
  0
INSERT
  8
LAYER_33
  2
AIGNBL21030039
 10
0
 20
0
 30
0
  0
INSERT
  8
LAYER_33
  2
AIGNBL2103003A
 10
0
 20
0
 30
0
  0
INSERT
  8
LAYER_33
  2
AIGNBL2103003B
 10
0
 20
0
 30
0
  0
ENDBLK
  0
BLOCK
  8
LAYER_33
  2
AIGNBL2102003D
 70
64
 10
0
 20
0
 30
0
  3
AIGNBL2102003D
  0
INSERT
  8
LAYER_33
  2
AIGNBL2103003E
 10
0
 20
0
 30
0
  0
INSERT
  8
LAYER_33
  2
AIGNBL2103003F
 10
0
 20
0
 30
0
  0
INSERT
  8
LAYER_33
  2
AIGNBL21030040
 10
0
 20
0
 30
0
  0
INSERT
  8
LAYER_33
  2
AIGNBL21030041
 10
0
 20
0
 30
0
  0
INSERT
  8
LAYER_33
  2
AIGNBL21030042
 10
0
 20
0
 30
0
  0
INSERT
  8
LAYER_33
  2
AIGNBL21030043
 10
0
 20
0
 30
0
  0
INSERT
  8
LAYER_33
  2
AIGNBL21030044
 10
0
 20
0
 30
0
  0
ENDBLK
  0
BLOCK
  8
LAYER_33
  2
AIGNBL21020045
 70
64
 10
0
 20
0
 30
0
  3
AIGNBL21020045
  0
INSERT
  8
LAYER_33
  2
AIGNBL21030046
 10
0
 20
0
 30
0
  0
INSERT
  8
LAYER_33
  2
AIGNBL21030047
 10
0
 20
0
 30
0
  0
INSERT
  8
LAYER_33
  2
AIGNBL21030048
 10
0
 20
0
 30
0
  0
INSERT
  8
LAYER_33
  2
AIGNBL21030049
 10
0
 20
0
 30
0
  0
INSERT
  8
LAYER_33
  2
AIGNBL2103004A
 10
0
 20
0
 30
0
  0
INSERT
  8
LAYER_33
  2
AIGNBL2103004B
 10
0
 20
0
 30
0
  0
INSERT
  8
LAYER_33
  2
AIGNBL2103004C
 10
0
 20
0
 30
0
  0
INSERT
  8
LAYER_33
  2
AIGNBL2103004D
 10
0
 20
0
 30
0
  0
INSERT
  8
LAYER_33
  2
AIGNBL2103004E
 10
0
 20
0
 30
0
  0
INSERT
  8
LAYER_33
  2
AIGNBL2103004F
 10
0
 20
0
 30
0
  0
INSERT
  8
LAYER_33
  2
AIGNBL21030050
 10
0
 20
0
 30
0
  0
INSERT
  8
LAYER_33
  2
AIGNBL21030051
 10
0
 20
0
 30
0
  0
INSERT
  8
LAYER_33
  2
AIGNBL21030052
 10
0
 20
0
 30
0
  0
INSERT
  8
LAYER_33
  2
AIGNBL21030053
 10
0
 20
0
 30
0
  0
INSERT
  8
LAYER_33
  2
AIGNBL21030054
 10
0
 20
0
 30
0
  0
INSERT
  8
LAYER_33
  2
AIGNBL21030055
 10
0
 20
0
 30
0
  0
INSERT
  8
LAYER_33
  2
AIGNBL21030056
 10
0
 20
0
 30
0
  0
INSERT
  8
LAYER_33
  2
AIGNBL21030057
 10
0
 20
0
 30
0
  0
INSERT
  8
LAYER_33
  2
AIGNBL21030058
 10
0
 20
0
 30
0
  0
INSERT
  8
LAYER_33
  2
AIGNBL21030059
 10
0
 20
0
 30
0
  0
INSERT
  8
LAYER_33
  2
AIGNBL2103005A
 10
0
 20
0
 30
0
  0
INSERT
  8
LAYER_33
  2
AIGNBL2103005B
 10
0
 20
0
 30
0
  0
INSERT
  8
LAYER_33
  2
AIGNBL2103005C
 10
0
 20
0
 30
0
  0
INSERT
  8
LAYER_33
  2
AIGNBL2103005D
 10
0
 20
0
 30
0
  0
INSERT
  8
LAYER_33
  2
AIGNBL2103005E
 10
0
 20
0
 30
0
  0
INSERT
  8
LAYER_33
  2
AIGNBL2103005F
 10
0
 20
0
 30
0
  0
INSERT
  8
LAYER_33
  2
AIGNBL21030060
 10
0
 20
0
 30
0
  0
INSERT
  8
LAYER_33
  2
AIGNBL21030061
 10
0
 20
0
 30
0
  0
INSERT
  8
LAYER_33
  2
AIGNBL21030062
 10
0
 20
0
 30
0
  0
INSERT
  8
LAYER_33
  2
AIGNBL21030063
 10
0
 20
0
 30
0
  0
INSERT
  8
LAYER_33
  2
AIGNBL21030064
 10
0
 20
0
 30
0
  0
INSERT
  8
LAYER_33
  2
AIGNBL21030065
 10
0
 20
0
 30
0
  0
INSERT
  8
LAYER_33
  2
AIGNBL21030066
 10
0
 20
0
 30
0
  0
INSERT
  8
LAYER_33
  2
AIGNBL21030067
 10
0
 20
0
 30
0
  0
INSERT
  8
LAYER_33
  2
AIGNBL21030068
 10
0
 20
0
 30
0
  0
INSERT
  8
LAYER_33
  2
AIGNBL21030069
 10
0
 20
0
 30
0
  0
INSERT
  8
LAYER_33
  2
AIGNBL2103006A
 10
0
 20
0
 30
0
  0
INSERT
  8
LAYER_33
  2
AIGNBL2103006B
 10
0
 20
0
 30
0
  0
INSERT
  8
LAYER_33
  2
AIGNBL21030072
 10
0
 20
0
 30
0
  0
INSERT
  8
LAYER_33
  2
AIGNBL21030073
 10
0
 20
0
 30
0
  0
INSERT
  8
LAYER_33
  2
AIGNBL21030074
 10
0
 20
0
 30
0
  0
INSERT
  8
LAYER_33
  2
AIGNBL21030075
 10
0
 20
0
 30
0
  0
ENDBLK
  0
BLOCK
  8
LAYER_33
  2
AIGNBL21020077
 70
64
 10
0
 20
0
 30
0
  3
AIGNBL21020077
  0
INSERT
  8
LAYER_33
  2
AIGNBL21030078
 10
0
 20
0
 30
0
  0
INSERT
  8
LAYER_33
  2
AIGNBL21030079
 10
0
 20
0
 30
0
  0
INSERT
  8
LAYER_33
  2
AIGNBL2103007A
 10
0
 20
0
 30
0
  0
INSERT
  8
LAYER_33
  2
AIGNBL2103007B
 10
0
 20
0
 30
0
  0
INSERT
  8
LAYER_33
  2
AIGNBL2103007C
 10
0
 20
0
 30
0
  0
INSERT
  8
LAYER_33
  2
AIGNBL2103007D
 10
0
 20
0
 30
0
  0
ENDBLK
  0
BLOCK
  8
LAYER_33
  2
AIGNBL2102007E
 70
64
 10
0
 20
0
 30
0
  3
AIGNBL2102007E
  0
POLYLINE
  8
LAYER_33
 40
0.0882
 41
0.0882
 66
1
 10
0
 20
0
 30
0
  0
VERTEX
  8
LAYER_33
 10
229.4472
 20
-202.4301
  0
VERTEX
  8
LAYER_33
 10
229.4472
 20
-201.2698
  0
SEQEND
  0
ENDBLK
  0
BLOCK
  8
LAYER_33
  2
AIGNBL2102007F
 70
64
 10
0
 20
0
 30
0
  3
AIGNBL2102007F
  0
POLYLINE
  8
LAYER_33
 40
0.0882
 41
0.0882
 66
1
 10
0
 20
0
 30
0
  0
VERTEX
  8
LAYER_33
 10
229.7972
 20
-201.75
  0
VERTEX
  8
LAYER_33
 10
229.7772
 20
-201.77
  0
SEQEND
  0
ENDBLK
  0
BLOCK
  8
LAYER_33
  2
AIGNBL21020080
 70
64
 10
0
 20
0
 30
0
  3
AIGNBL21020080
  0
POLYLINE
  8
LAYER_33
 40
0.0882
 41
0.0882
 66
1
 10
0
 20
0
 30
0
  0
VERTEX
  8
LAYER_33
 10
229.0971
 20
-201.75
  0
VERTEX
  8
LAYER_33
 10
229.1171
 20
-201.77
  0
SEQEND
  0
ENDBLK
  0
BLOCK
  8
LAYER_33
  2
AIGNBL21020081
 70
64
 10
0
 20
0
 30
0
  3
AIGNBL21020081
  0
POLYLINE
  8
LAYER_33
 40
0.0882
 41
0.0882
 66
1
 10
0
 20
0
 30
0
  0
VERTEX
  8
LAYER_33
 10
229.7972
 20
-201.75
  0
VERTEX
  8
LAYER_33
 10
229.7972
 20
-201.6198
  0
SEQEND
  0
ENDBLK
  0
BLOCK
  8
LAYER_33
  2
AIGNBL21020082
 70
64
 10
0
 20
0
 30
0
  3
AIGNBL21020082
  0
POLYLINE
  8
LAYER_33
 40
0.0882
 41
0.0882
 66
1
 10
0
 20
0
 30
0
  0
VERTEX
  8
LAYER_33
 10
229.0971
 20
-201.75
  0
VERTEX
  8
LAYER_33
 10
229.0971
 20
-201.6198
  0
SEQEND
  0
ENDBLK
  0
BLOCK
  8
LAYER_33
  2
AIGNBL21020083
 70
64
 10
0
 20
0
 30
0
  3
AIGNBL21020083
  0
POLYLINE
  8
LAYER_33
 40
0.0882
 41
0.0882
 66
1
 10
0
 20
0
 30
0
  0
VERTEX
  8
LAYER_33
 10
229.1471
 20
-201.5699
  0
VERTEX
  8
LAYER_33
 10
229.7472
 20
-201.5699
  0
SEQEND
  0
ENDBLK
  0
BLOCK
  8
LAYER_33
  2
AIGNBL21020084
 70
64
 10
0
 20
0
 30
0
  3
AIGNBL21020084
  0
POLYLINE
  8
LAYER_33
 40
0.0882
 41
0.0882
 66
1
 10
0
 20
0
 30
0
  0
VERTEX
  8
LAYER_33
 10
229.1171
 20
-201.77
  0
VERTEX
  8
LAYER_33
 10
229.1822
 20
-201.77
  0
SEQEND
  0
ENDBLK
  0
BLOCK
  8
LAYER_33
  2
AIGNBL21020085
 70
64
 10
0
 20
0
 30
0
  3
AIGNBL21020085
  0
POLYLINE
  8
LAYER_33
 40
0.0882
 41
0.0882
 66
1
 10
0
 20
0
 30
0
  0
VERTEX
  8
LAYER_33
 10
229.7121
 20
-201.77
  0
VERTEX
  8
LAYER_33
 10
229.7772
 20
-201.77
  0
SEQEND
  0
ENDBLK
  0
BLOCK
  8
LAYER_33
  2
AIGNBL21020086
 70
64
 10
0
 20
0
 30
0
  3
AIGNBL21020086
  0
POLYLINE
  8
LAYER_33
 40
0.0882
 41
0.0882
 66
1
 10
0
 20
0
 30
0
  0
VERTEX
  8
LAYER_33
 10
229.1471
 20
-201.5699
 42
0.3923893105
  0
VERTEX
  8
LAYER_33
 10
229.0971
 20
-201.6198
  0
SEQEND
  0
ENDBLK
  0
BLOCK
  8
LAYER_33
  2
AIGNBL21020087
 70
64
 10
0
 20
0
 30
0
  3
AIGNBL21020087
  0
POLYLINE
  8
LAYER_33
 40
0.0882
 41
0.0882
 66
1
 10
0
 20
0
 30
0
  0
VERTEX
  8
LAYER_33
 10
229.7972
 20
-201.6198
 42
0.3922254328
  0
VERTEX
  8
LAYER_33
 10
229.7472
 20
-201.5699
  0
SEQEND
  0
ENDBLK
  0
BLOCK
  8
LAYER_33
  2
AIGNBL21020088
 70
64
 10
0
 20
0
 30
0
  3
AIGNBL21020088
  0
POLYLINE
  8
LAYER_33
 40
0.0882
 41
0.0882
 66
1
 10
0
 20
0
 30
0
  0
VERTEX
  8
LAYER_33
 10
229.4472
 20
-204.2298
  0
VERTEX
  8
LAYER_33
 10
229.4472
 20
-203.32
  0
SEQEND
  0
ENDBLK
  0
BLOCK
  8
LAYER_33
  2
AIGNBL21020089
 70
64
 10
0
 20
0
 30
0
  3
AIGNBL21020089
  0
POLYLINE
  8
LAYER_33
 40
0.0882
 41
0.0882
 66
1
 10
0
 20
0
 30
0
  0
VERTEX
  8
LAYER_33
 10
231.2472
 20
-206.3699
  0
VERTEX
  8
LAYER_33
 10
229.4971
 20
-206.3699
  0
SEQEND
  0
ENDBLK
  0
BLOCK
  8
LAYER_33
  2
AIGNBL2102008A
 70
64
 10
0
 20
0
 30
0
  3
AIGNBL2102008A
  0
POLYLINE
  8
LAYER_33
 40
0.0882
 41
0.0882
 66
1
 10
0
 20
0
 30
0
  0
VERTEX
  8
LAYER_33
 10
228.4874
 20
-203.4698
  0
VERTEX
  8
LAYER_33
 10
231.2472
 20
-203.4698
  0
SEQEND
  0
ENDBLK
  0
BLOCK
  8
LAYER_33
  2
AIGNBL2102008B
 70
64
 10
0
 20
0
 30
0
  3
AIGNBL2102008B
  0
POLYLINE
  8
LAYER_33
 40
0.0882
 41
0.0882
 66
1
 10
0
 20
0
 30
0
  0
VERTEX
  8
LAYER_33
 10
231.2472
 20
-203.4698
  0
VERTEX
  8
LAYER_33
 10
231.2472
 20
-206.3699
  0
SEQEND
  0
ENDBLK
  0
BLOCK
  8
LAYER_33
  2
AIGNBL2102008C
 70
64
 10
0
 20
0
 30
0
  3
AIGNBL2102008C
  0
POLYLINE
  8
LAYER_33
 40
0.0882
 41
0.0882
 66
1
 10
0
 20
0
 30
0
  0
VERTEX
  8
LAYER_33
 10
229.4971
 20
-206.3699
  0
VERTEX
  8
LAYER_33
 10
228.9573
 20
-206.3699
  0
SEQEND
  0
ENDBLK
  0
BLOCK
  8
LAYER_33
  2
AIGNBL2102008D
 70
64
 10
0
 20
0
 30
0
  3
AIGNBL2102008D
  0
POLYLINE
  8
LAYER_33
 40
0.0882
 41
0.0882
 66
1
 10
0
 20
0
 30
0
  0
VERTEX
  8
LAYER_33
 10
228.9573
 20
-206.3699
  0
VERTEX
  8
LAYER_33
 10
228.4874
 20
-206.3699
  0
SEQEND
  0
ENDBLK
  0
BLOCK
  8
LAYER_33
  2
AIGNBL2102008E
 70
64
 10
0
 20
0
 30
0
  3
AIGNBL2102008E
  0
POLYLINE
  8
LAYER_33
 40
0.0882
 41
0.0882
 66
1
 10
0
 20
0
 30
0
  0
VERTEX
  8
LAYER_33
 10
228.3971
 20
-206.28
  0
VERTEX
  8
LAYER_33
 10
228.3971
 20
-203.5601
  0
SEQEND
  0
ENDBLK
  0
BLOCK
  8
LAYER_33
  2
AIGNBL2102008F
 70
64
 10
0
 20
0
 30
0
  3
AIGNBL2102008F
  0
POLYLINE
  8
LAYER_33
 40
0.0882
 41
0.0882
 66
1
 10
0
 20
0
 30
0
  0
VERTEX
  8
LAYER_33
 10
228.3971
 20
-206.28
 42
0.3931606277
  0
VERTEX
  8
LAYER_33
 10
228.4874
 20
-206.3699
  0
SEQEND
  0
ENDBLK
  0
BLOCK
  8
LAYER_33
  2
AIGNBL21020090
 70
64
 10
0
 20
0
 30
0
  3
AIGNBL21020090
  0
POLYLINE
  8
LAYER_33
 40
0.0882
 41
0.0882
 66
1
 10
0
 20
0
 30
0
  0
VERTEX
  8
LAYER_33
 10
228.4874
 20
-203.4698
 42
0.4143333838
  0
VERTEX
  8
LAYER_33
 10
228.3971
 20
-203.5601
  0
SEQEND
  0
ENDBLK
  0
BLOCK
  8
LAYER_33
  2
AIGNBL21020091
 70
64
 10
0
 20
0
 30
0
  3
AIGNBL21020091
  0
POLYLINE
  8
LAYER_33
 40
0.0882
 41
0.0882
 66
1
 10
0
 20
0
 30
0
  0
VERTEX
  8
LAYER_33
 10
232.1974
 20
-201.5361
  0
VERTEX
  8
LAYER_33
 10
234.2972
 20
-201.5361
  0
SEQEND
  0
ENDBLK
  0
BLOCK
  8
LAYER_33
  2
AIGNBL21020092
 70
64
 10
0
 20
0
 30
0
  3
AIGNBL21020092
  0
POLYLINE
  8
LAYER_33
 40
0.0882
 41
0.0882
 66
1
 10
0
 20
0
 30
0
  0
VERTEX
  8
LAYER_33
 10
232.3135
 20
-202.3199
  0
VERTEX
  8
LAYER_33
 10
234.1811
 20
-202.3199
  0
SEQEND
  0
ENDBLK
  0
BLOCK
  8
LAYER_33
  2
AIGNBL21020093
 70
64
 10
0
 20
0
 30
0
  3
AIGNBL21020093
  0
POLYLINE
  8
LAYER_33
 40
0.0882
 41
0.0882
 66
1
 10
0
 20
0
 30
0
  0
VERTEX
  8
LAYER_33
 10
231.2472
 20
-203.62
  0
VERTEX
  8
LAYER_33
 10
231.2972
 20
-203.62
  0
SEQEND
  0
ENDBLK
  0
BLOCK
  8
LAYER_33
  2
AIGNBL21020094
 70
64
 10
0
 20
0
 30
0
  3
AIGNBL21020094
  0
POLYLINE
  8
LAYER_33
 40
0.0882
 41
0.0882
 66
1
 10
0
 20
0
 30
0
  0
VERTEX
  8
LAYER_33
 10
234.2972
 20
-202.5211
  0
VERTEX
  8
LAYER_33
 10
234.2972
 20
-202.6199
  0
SEQEND
  0
ENDBLK
  0
BLOCK
  8
LAYER_33
  2
AIGNBL21020095
 70
64
 10
0
 20
0
 30
0
  3
AIGNBL21020095
  0
POLYLINE
  8
LAYER_33
 40
0.0882
 41
0.0882
 66
1
 10
0
 20
0
 30
0
  0
VERTEX
  8
LAYER_33
 10
234.2972
 20
-202.3199
  0
VERTEX
  8
LAYER_33
 10
234.2972
 20
-202.5211
  0
SEQEND
  0
ENDBLK
  0
BLOCK
  8
LAYER_33
  2
AIGNBL21020096
 70
64
 10
0
 20
0
 30
0
  3
AIGNBL21020096
  0
POLYLINE
  8
LAYER_33
 40
0.0882
 41
0.0882
 66
1
 10
0
 20
0
 30
0
  0
VERTEX
  8
LAYER_33
 10
232.1974
 20
-202.5211
  0
VERTEX
  8
LAYER_33
 10
232.1974
 20
-202.6199
  0
SEQEND
  0
ENDBLK
  0
BLOCK
  8
LAYER_33
  2
AIGNBL21020097
 70
64
 10
0
 20
0
 30
0
  3
AIGNBL21020097
  0
POLYLINE
  8
LAYER_33
 40
0.0882
 41
0.0882
 66
1
 10
0
 20
0
 30
0
  0
VERTEX
  8
LAYER_33
 10
232.1974
 20
-202.3199
  0
VERTEX
  8
LAYER_33
 10
232.3135
 20
-202.3199
  0
SEQEND
  0
ENDBLK
  0
BLOCK
  8
LAYER_33
  2
AIGNBL21020098
 70
64
 10
0
 20
0
 30
0
  3
AIGNBL21020098
  0
POLYLINE
  8
LAYER_33
 40
0.0882
 41
0.0882
 66
1
 10
0
 20
0
 30
0
  0
VERTEX
  8
LAYER_33
 10
232.1974
 20
-202.3199
  0
VERTEX
  8
LAYER_33
 10
232.1974
 20
-202.5211
  0
SEQEND
  0
ENDBLK
  0
BLOCK
  8
LAYER_33
  2
AIGNBL21020099
 70
64
 10
0
 20
0
 30
0
  3
AIGNBL21020099
  0
POLYLINE
  8
LAYER_33
 40
0.0882
 41
0.0882
 66
1
 10
0
 20
0
 30
0
  0
VERTEX
  8
LAYER_33
 10
232.1974
 20
-202.5211
  0
VERTEX
  8
LAYER_33
 10
232.3135
 20
-202.3199
  0
SEQEND
  0
ENDBLK
  0
BLOCK
  8
LAYER_33
  2
AIGNBL2102009A
 70
64
 10
0
 20
0
 30
0
  3
AIGNBL2102009A
  0
POLYLINE
  8
LAYER_33
 40
0.0882
 41
0.0882
 66
1
 10
0
 20
0
 30
0
  0
VERTEX
  8
LAYER_33
 10
232.1974
 20
-201.5361
  0
VERTEX
  8
LAYER_33
 10
232.1974
 20
-202.3199
  0
SEQEND
  0
ENDBLK
  0
BLOCK
  8
LAYER_33
  2
AIGNBL2102009B
 70
64
 10
0
 20
0
 30
0
  3
AIGNBL2102009B
  0
POLYLINE
  8
LAYER_33
 40
0.0882
 41
0.0882
 66
1
 10
0
 20
0
 30
0
  0
VERTEX
  8
LAYER_33
 10
231.2972
 20
-206.3699
  0
VERTEX
  8
LAYER_33
 10
236.7463
 20
-206.3699
  0
SEQEND
  0
ENDBLK
  0
BLOCK
  8
LAYER_33
  2
AIGNBL2102009C
 70
64
 10
0
 20
0
 30
0
  3
AIGNBL2102009C
  0
POLYLINE
  8
LAYER_33
 40
0.0882
 41
0.0882
 66
1
 10
0
 20
0
 30
0
  0
VERTEX
  8
LAYER_33
 10
236.8472
 20
-206.1949
  0
VERTEX
  8
LAYER_33
 10
236.8472
 20
-203.6448
  0
SEQEND
  0
ENDBLK
  0
BLOCK
  8
LAYER_33
  2
AIGNBL2102009D
 70
64
 10
0
 20
0
 30
0
  3
AIGNBL2102009D
  0
POLYLINE
  8
LAYER_33
 40
0.0882
 41
0.0882
 66
1
 10
0
 20
0
 30
0
  0
VERTEX
  8
LAYER_33
 10
231.2972
 20
-206.22
  0
VERTEX
  8
LAYER_33
 10
231.2472
 20
-206.22
  0
SEQEND
  0
ENDBLK
  0
BLOCK
  8
LAYER_33
  2
AIGNBL2102009E
 70
64
 10
0
 20
0
 30
0
  3
AIGNBL2102009E
  0
POLYLINE
  8
LAYER_33
 40
0.0882
 41
0.0882
 66
1
 10
0
 20
0
 30
0
  0
VERTEX
  8
LAYER_33
 10
234.1811
 20
-202.3199
  0
VERTEX
  8
LAYER_33
 10
234.2972
 20
-202.3199
  0
SEQEND
  0
ENDBLK
  0
BLOCK
  8
LAYER_33
  2
AIGNBL2102009F
 70
64
 10
0
 20
0
 30
0
  3
AIGNBL2102009F
  0
POLYLINE
  8
LAYER_33
 40
0.0882
 41
0.0882
 66
1
 10
0
 20
0
 30
0
  0
VERTEX
  8
LAYER_33
 10
234.1811
 20
-201.42
  0
VERTEX
  8
LAYER_33
 10
234.2972
 20
-201.5361
  0
SEQEND
  0
ENDBLK
  0
BLOCK
  8
LAYER_33
  2
AIGNBL210200A0
 70
64
 10
0
 20
0
 30
0
  3
AIGNBL210200A0
  0
POLYLINE
  8
LAYER_33
 40
0.0882
 41
0.0882
 66
1
 10
0
 20
0
 30
0
  0
VERTEX
  8
LAYER_33
 10
234.2972
 20
-201.5361
  0
VERTEX
  8
LAYER_33
 10
234.2972
 20
-202.3199
  0
SEQEND
  0
ENDBLK
  0
BLOCK
  8
LAYER_33
  2
AIGNBL210200A1
 70
64
 10
0
 20
0
 30
0
  3
AIGNBL210200A1
  0
POLYLINE
  8
LAYER_33
 40
0.0882
 41
0.0882
 66
1
 10
0
 20
0
 30
0
  0
VERTEX
  8
LAYER_33
 10
234.1811
 20
-202.3199
  0
VERTEX
  8
LAYER_33
 10
234.2972
 20
-202.5211
  0
SEQEND
  0
ENDBLK
  0
BLOCK
  8
LAYER_33
  2
AIGNBL210200A2
 70
64
 10
0
 20
0
 30
0
  3
AIGNBL210200A2
  0
POLYLINE
  8
LAYER_33
 40
0.0882
 41
0.0882
 66
1
 10
0
 20
0
 30
0
  0
VERTEX
  8
LAYER_33
 10
234.1811
 20
-201.42
  0
VERTEX
  8
LAYER_33
 10
234.1811
 20
-202.3199
  0
SEQEND
  0
ENDBLK
  0
BLOCK
  8
LAYER_33
  2
AIGNBL210200A3
 70
64
 10
0
 20
0
 30
0
  3
AIGNBL210200A3
  0
POLYLINE
  8
LAYER_33
 40
0.0882
 41
0.0882
 66
1
 10
0
 20
0
 30
0
  0
VERTEX
  8
LAYER_33
 10
232.3135
 20
-201.42
  0
VERTEX
  8
LAYER_33
 10
232.1974
 20
-201.5361
  0
SEQEND
  0
ENDBLK
  0
BLOCK
  8
LAYER_33
  2
AIGNBL210200A4
 70
64
 10
0
 20
0
 30
0
  3
AIGNBL210200A4
  0
POLYLINE
  8
LAYER_33
 40
0.0882
 41
0.0882
 66
1
 10
0
 20
0
 30
0
  0
VERTEX
  8
LAYER_33
 10
232.3135
 20
-201.5361
  0
VERTEX
  8
LAYER_33
 10
232.3135
 20
-201.42
  0
SEQEND
  0
ENDBLK
  0
BLOCK
  8
LAYER_33
  2
AIGNBL210200A5
 70
64
 10
0
 20
0
 30
0
  3
AIGNBL210200A5
  0
POLYLINE
  8
LAYER_33
 40
0.0882
 41
0.0882
 66
1
 10
0
 20
0
 30
0
  0
VERTEX
  8
LAYER_33
 10
232.3135
 20
-201.5361
  0
VERTEX
  8
LAYER_33
 10
232.3135
 20
-201.42
  0
SEQEND
  0
ENDBLK
  0
BLOCK
  8
LAYER_33
  2
AIGNBL210200A6
 70
64
 10
0
 20
0
 30
0
  3
AIGNBL210200A6
  0
POLYLINE
  8
LAYER_33
 40
0.0882
 41
0.0882
 66
1
 10
0
 20
0
 30
0
  0
VERTEX
  8
LAYER_33
 10
232.3135
 20
-202.3199
  0
VERTEX
  8
LAYER_33
 10
232.3135
 20
-201.5361
  0
SEQEND
  0
ENDBLK
  0
BLOCK
  8
LAYER_33
  2
AIGNBL210200A7
 70
64
 10
0
 20
0
 30
0
  3
AIGNBL210200A7
  0
POLYLINE
  8
LAYER_33
 40
0.0882
 41
0.0882
 66
1
 10
0
 20
0
 30
0
  0
VERTEX
  8
LAYER_33
 10
232.3135
 20
-201.42
  0
VERTEX
  8
LAYER_33
 10
234.1811
 20
-201.42
  0
SEQEND
  0
ENDBLK
  0
BLOCK
  8
LAYER_33
  2
AIGNBL210200A8
 70
64
 10
0
 20
0
 30
0
  3
AIGNBL210200A8
  0
POLYLINE
  8
LAYER_33
 40
0.0882
 41
0.0882
 66
1
 10
0
 20
0
 30
0
  0
VERTEX
  8
LAYER_33
 10
231.7974
 20
-203.27
  0
VERTEX
  8
LAYER_33
 10
231.7974
 20
-202.6199
  0
SEQEND
  0
ENDBLK
  0
BLOCK
  8
LAYER_33
  2
AIGNBL210200A9
 70
64
 10
0
 20
0
 30
0
  3
AIGNBL210200A9
  0
POLYLINE
  8
LAYER_33
 40
0.0882
 41
0.0882
 66
1
 10
0
 20
0
 30
0
  0
VERTEX
  8
LAYER_33
 10
231.2972
 20
-203.4698
  0
VERTEX
  8
LAYER_33
 10
231.5972
 20
-203.4698
  0
SEQEND
  0
ENDBLK
  0
BLOCK
  8
LAYER_33
  2
AIGNBL210200AA
 70
64
 10
0
 20
0
 30
0
  3
AIGNBL210200AA
  0
POLYLINE
  8
LAYER_33
 40
0.0882
 41
0.0882
 66
1
 10
0
 20
0
 30
0
  0
VERTEX
  8
LAYER_33
 10
231.2972
 20
-204.9199
  0
VERTEX
  8
LAYER_33
 10
231.2972
 20
-203.4698
  0
SEQEND
  0
ENDBLK
  0
BLOCK
  8
LAYER_33
  2
AIGNBL210200AB
 70
64
 10
0
 20
0
 30
0
  3
AIGNBL210200AB
  0
POLYLINE
  8
LAYER_33
 40
0.0882
 41
0.0882
 66
1
 10
0
 20
0
 30
0
  0
VERTEX
  8
LAYER_33
 10
231.2972
 20
-206.3699
  0
VERTEX
  8
LAYER_33
 10
231.2972
 20
-204.9199
  0
SEQEND
  0
ENDBLK
  0
BLOCK
  8
LAYER_33
  2
AIGNBL210200AC
 70
64
 10
0
 20
0
 30
0
  3
AIGNBL210200AC
  0
POLYLINE
  8
LAYER_33
 40
0.0882
 41
0.0882
 66
1
 10
0
 20
0
 30
0
  0
VERTEX
  8
LAYER_33
 10
236.7463
 20
-206.3699
  0
VERTEX
  8
LAYER_33
 10
236.8472
 20
-206.1949
  0
SEQEND
  0
ENDBLK
  0
BLOCK
  8
LAYER_33
  2
AIGNBL210200AD
 70
64
 10
0
 20
0
 30
0
  3
AIGNBL210200AD
  0
POLYLINE
  8
LAYER_33
 40
0.0882
 41
0.0882
 66
1
 10
0
 20
0
 30
0
  0
VERTEX
  8
LAYER_33
 10
236.7463
 20
-203.4698
  0
VERTEX
  8
LAYER_33
 10
236.8472
 20
-203.6448
  0
SEQEND
  0
ENDBLK
  0
BLOCK
  8
LAYER_33
  2
AIGNBL210200AE
 70
64
 10
0
 20
0
 30
0
  3
AIGNBL210200AE
  0
POLYLINE
  8
LAYER_33
 40
0.0882
 41
0.0882
 66
1
 10
0
 20
0
 30
0
  0
VERTEX
  8
LAYER_33
 10
234.8973
 20
-203.4698
  0
VERTEX
  8
LAYER_33
 10
236.7463
 20
-203.4698
  0
SEQEND
  0
ENDBLK
  0
BLOCK
  8
LAYER_33
  2
AIGNBL210200AF
 70
64
 10
0
 20
0
 30
0
  3
AIGNBL210200AF
  0
POLYLINE
  8
LAYER_33
 40
0.0882
 41
0.0882
 66
1
 10
0
 20
0
 30
0
  0
VERTEX
  8
LAYER_33
 10
234.6971
 20
-202.6199
  0
VERTEX
  8
LAYER_33
 10
234.6971
 20
-203.27
  0
SEQEND
  0
ENDBLK
  0
BLOCK
  8
LAYER_33
  2
AIGNBL210200B0
 70
64
 10
0
 20
0
 30
0
  3
AIGNBL210200B0
  0
POLYLINE
  8
LAYER_33
 40
0.0882
 41
0.0882
 66
1
 10
0
 20
0
 30
0
  0
VERTEX
  8
LAYER_33
 10
231.7974
 20
-202.6199
  0
VERTEX
  8
LAYER_33
 10
234.6971
 20
-202.6199
  0
SEQEND
  0
ENDBLK
  0
BLOCK
  8
LAYER_33
  2
AIGNBL210200B1
 70
64
 10
0
 20
0
 30
0
  3
AIGNBL210200B1
  0
POLYLINE
  8
LAYER_33
 40
0.0882
 41
0.0882
 66
1
 10
0
 20
0
 30
0
  0
VERTEX
  8
LAYER_33
 10
235.8471
 20
-204.278
  0
VERTEX
  8
LAYER_33
 10
236.7463
 20
-204.278
  0
SEQEND
  0
ENDBLK
  0
BLOCK
  8
LAYER_33
  2
AIGNBL210200B2
 70
64
 10
0
 20
0
 30
0
  3
AIGNBL210200B2
  0
POLYLINE
  8
LAYER_33
 40
0.0882
 41
0.0882
 66
1
 10
0
 20
0
 30
0
  0
VERTEX
  8
LAYER_33
 10
236.7463
 20
-204.1151
  0
VERTEX
  8
LAYER_33
 10
235.8471
 20
-204.1151
  0
SEQEND
  0
ENDBLK
  0
BLOCK
  8
LAYER_33
  2
AIGNBL210200B3
 70
64
 10
0
 20
0
 30
0
  3
AIGNBL210200B3
  0
POLYLINE
  8
LAYER_33
 40
0.0882
 41
0.0882
 66
1
 10
0
 20
0
 30
0
  0
VERTEX
  8
LAYER_33
 10
235.8471
 20
-205.725
  0
VERTEX
  8
LAYER_33
 10
236.7463
 20
-205.725
  0
SEQEND
  0
ENDBLK
  0
BLOCK
  8
LAYER_33
  2
AIGNBL210200B4
 70
64
 10
0
 20
0
 30
0
  3
AIGNBL210200B4
  0
POLYLINE
  8
LAYER_33
 40
0.0882
 41
0.0882
 66
1
 10
0
 20
0
 30
0
  0
VERTEX
  8
LAYER_33
 10
236.7463
 20
-205.562
  0
VERTEX
  8
LAYER_33
 10
235.8471
 20
-205.562
  0
SEQEND
  0
ENDBLK
  0
BLOCK
  8
LAYER_33
  2
AIGNBL210200B5
 70
64
 10
0
 20
0
 30
0
  3
AIGNBL210200B5
  0
POLYLINE
  8
LAYER_33
 40
0.0882
 41
0.0882
 66
1
 10
0
 20
0
 30
0
  0
VERTEX
  8
LAYER_33
 10
235.8471
 20
-204.3779
  0
VERTEX
  8
LAYER_33
 10
235.8471
 20
-204.9199
  0
SEQEND
  0
ENDBLK
  0
BLOCK
  8
LAYER_33
  2
AIGNBL210200B6
 70
64
 10
0
 20
0
 30
0
  3
AIGNBL210200B6
  0
POLYLINE
  8
LAYER_33
 40
0.0882
 41
0.0882
 66
1
 10
0
 20
0
 30
0
  0
VERTEX
  8
LAYER_33
 10
235.8471
 20
-203.4729
  0
VERTEX
  8
LAYER_33
 10
235.8471
 20
-204.0148
  0
SEQEND
  0
ENDBLK
  0
BLOCK
  8
LAYER_33
  2
AIGNBL210200B7
 70
64
 10
0
 20
0
 30
0
  3
AIGNBL210200B7
  0
POLYLINE
  8
LAYER_33
 40
0.0882
 41
0.0882
 66
1
 10
0
 20
0
 30
0
  0
VERTEX
  8
LAYER_33
 10
235.8471
 20
-204.9199
  0
VERTEX
  8
LAYER_33
 10
235.8471
 20
-205.4618
  0
SEQEND
  0
ENDBLK
  0
BLOCK
  8
LAYER_33
  2
AIGNBL210200B8
 70
64
 10
0
 20
0
 30
0
  3
AIGNBL210200B8
  0
POLYLINE
  8
LAYER_33
 40
0.0882
 41
0.0882
 66
1
 10
0
 20
0
 30
0
  0
VERTEX
  8
LAYER_33
 10
235.8471
 20
-205.8249
  0
VERTEX
  8
LAYER_33
 10
235.8471
 20
-206.3668
  0
SEQEND
  0
ENDBLK
  0
BLOCK
  8
LAYER_33
  2
AIGNBL210200B9
 70
64
 10
0
 20
0
 30
0
  3
AIGNBL210200B9
  0
POLYLINE
  8
LAYER_33
 40
0.0882
 41
0.0882
 66
1
 10
0
 20
0
 30
0
  0
VERTEX
  8
LAYER_33
 10
236.7463
 20
-205.562
  0
VERTEX
  8
LAYER_33
 10
236.7463
 20
-205.725
  0
SEQEND
  0
ENDBLK
  0
BLOCK
  8
LAYER_33
  2
AIGNBL210200BA
 70
64
 10
0
 20
0
 30
0
  3
AIGNBL210200BA
  0
POLYLINE
  8
LAYER_33
 40
0.0882
 41
0.0882
 66
1
 10
0
 20
0
 30
0
  0
VERTEX
  8
LAYER_33
 10
236.7463
 20
-204.1151
  0
VERTEX
  8
LAYER_33
 10
236.7463
 20
-204.278
  0
SEQEND
  0
ENDBLK
  0
BLOCK
  8
LAYER_33
  2
AIGNBL210200BB
 70
64
 10
0
 20
0
 30
0
  3
AIGNBL210200BB
  0
POLYLINE
  8
LAYER_33
 40
0.0882
 41
0.0882
 66
1
 10
0
 20
0
 30
0
  0
VERTEX
  8
LAYER_33
 10
235.8471
 20
-204.278
 42
0.1947027849
  0
VERTEX
  8
LAYER_33
 10
235.5874
 20
-204.9199
  0
SEQEND
  0
ENDBLK
  0
BLOCK
  8
LAYER_33
  2
AIGNBL210200BC
 70
64
 10
0
 20
0
 30
0
  3
AIGNBL210200BC
  0
POLYLINE
  8
LAYER_33
 40
0.0882
 41
0.0882
 66
1
 10
0
 20
0
 30
0
  0
VERTEX
  8
LAYER_33
 10
235.5874
 20
-203.4729
 42
0.1944350622
  0
VERTEX
  8
LAYER_33
 10
235.8471
 20
-204.1151
  0
SEQEND
  0
ENDBLK
  0
BLOCK
  8
LAYER_33
  2
AIGNBL210200BD
 70
64
 10
0
 20
0
 30
0
  3
AIGNBL210200BD
  0
POLYLINE
  8
LAYER_33
 40
0.0882
 41
0.0882
 66
1
 10
0
 20
0
 30
0
  0
VERTEX
  8
LAYER_33
 10
235.8471
 20
-205.725
 42
0.1944224847
  0
VERTEX
  8
LAYER_33
 10
235.5874
 20
-206.3668
  0
SEQEND
  0
ENDBLK
  0
BLOCK
  8
LAYER_33
  2
AIGNBL210200BE
 70
64
 10
0
 20
0
 30
0
  3
AIGNBL210200BE
  0
POLYLINE
  8
LAYER_33
 40
0.0882
 41
0.0882
 66
1
 10
0
 20
0
 30
0
  0
VERTEX
  8
LAYER_33
 10
235.5874
 20
-204.9199
 42
0.1944111969
  0
VERTEX
  8
LAYER_33
 10
235.8471
 20
-205.562
  0
SEQEND
  0
ENDBLK
  0
BLOCK
  8
LAYER_33
  2
AIGNBL210200BF
 70
64
 10
0
 20
0
 30
0
  3
AIGNBL210200BF
  0
POLYLINE
  8
LAYER_33
 40
0.0882
 41
0.0882
 66
1
 10
0
 20
0
 30
0
  0
VERTEX
  8
LAYER_33
 10
236.7463
 20
-205.562
 42
0.07767206302
  0
VERTEX
  8
LAYER_33
 10
236.7463
 20
-204.278
  0
SEQEND
  0
ENDBLK
  0
BLOCK
  8
LAYER_33
  2
AIGNBL210200C0
 70
64
 10
0
 20
0
 30
0
  3
AIGNBL210200C0
  0
POLYLINE
  8
LAYER_33
 40
0.0882
 41
0.0882
 66
1
 10
0
 20
0
 30
0
  0
VERTEX
  8
LAYER_33
 10
236.7962
 20
-206.2834
 42
0.04440715796
  0
VERTEX
  8
LAYER_33
 10
236.7463
 20
-205.725
  0
SEQEND
  0
ENDBLK
  0
BLOCK
  8
LAYER_33
  2
AIGNBL210200C1
 70
64
 10
0
 20
0
 30
0
  3
AIGNBL210200C1
  0
POLYLINE
  8
LAYER_33
 40
0.0882
 41
0.0882
 66
1
 10
0
 20
0
 30
0
  0
VERTEX
  8
LAYER_33
 10
236.7463
 20
-204.1151
 42
0.05369572409
  0
VERTEX
  8
LAYER_33
 10
236.7962
 20
-203.5566
  0
SEQEND
  0
ENDBLK
  0
BLOCK
  8
LAYER_33
  2
AIGNBL210200C2
 70
64
 10
0
 20
0
 30
0
  3
AIGNBL210200C2
  0
POLYLINE
  8
LAYER_33
 40
0.0882
 41
0.0882
 66
1
 10
0
 20
0
 30
0
  0
VERTEX
  8
LAYER_33
 10
231.5972
 20
-203.4698
 42
0.3928009517
  0
VERTEX
  8
LAYER_33
 10
231.7974
 20
-203.27
  0
SEQEND
  0
ENDBLK
  0
BLOCK
  8
LAYER_33
  2
AIGNBL210200C3
 70
64
 10
0
 20
0
 30
0
  3
AIGNBL210200C3
  0
POLYLINE
  8
LAYER_33
 40
0.0882
 41
0.0882
 66
1
 10
0
 20
0
 30
0
  0
VERTEX
  8
LAYER_33
 10
234.6971
 20
-203.27
 42
0.3932486957
  0
VERTEX
  8
LAYER_33
 10
234.8973
 20
-203.4698
  0
SEQEND
  0
ENDBLK
  0
BLOCK
  8
LAYER_33
  2
AIGNBL210200C4
 70
64
 10
0
 20
0
 30
0
  3
AIGNBL210200C4
  0
POLYLINE
  8
LAYER_33
 40
0.0882
 41
0.0882
 66
1
 10
0
 20
0
 30
0
  0
VERTEX
  8
LAYER_33
 10
237.0581
 20
-203.8898
  0
VERTEX
  8
LAYER_33
 10
239.4472
 20
-203.8898
  0
SEQEND
  0
ENDBLK
  0
BLOCK
  8
LAYER_33
  2
AIGNBL210200C5
 70
64
 10
0
 20
0
 30
0
  3
AIGNBL210200C5
  0
POLYLINE
  8
LAYER_33
 40
0.0882
 41
0.0882
 66
1
 10
0
 20
0
 30
0
  0
VERTEX
  8
LAYER_33
 10
236.8472
 20
-203.8953
  0
VERTEX
  8
LAYER_33
 10
237.0581
 20
-203.8898
  0
SEQEND
  0
ENDBLK
  0
BLOCK
  8
LAYER_33
  2
AIGNBL210200C6
 70
64
 10
0
 20
0
 30
0
  3
AIGNBL210200C6
  0
POLYLINE
  8
LAYER_33
 40
0.0882
 41
0.0882
 66
1
 10
0
 20
0
 30
0
  0
VERTEX
  8
LAYER_33
 10
237.0581
 20
-203.8898
  0
VERTEX
  8
LAYER_33
 10
236.8472
 20
-204.0118
  0
SEQEND
  0
ENDBLK
  0
BLOCK
  8
LAYER_33
  2
AIGNBL210200C7
 70
64
 10
0
 20
0
 30
0
  3
AIGNBL210200C7
  0
POLYLINE
  8
LAYER_33
 40
0.0882
 41
0.0882
 66
1
 10
0
 20
0
 30
0
  0
VERTEX
  8
LAYER_33
 10
237.0581
 20
-205.95
  0
VERTEX
  8
LAYER_33
 10
236.8472
 20
-205.9445
  0
SEQEND
  0
ENDBLK
  0
BLOCK
  8
LAYER_33
  2
AIGNBL210200C8
 70
64
 10
0
 20
0
 30
0
  3
AIGNBL210200C8
  0
POLYLINE
  8
LAYER_33
 40
0.0882
 41
0.0882
 66
1
 10
0
 20
0
 30
0
  0
VERTEX
  8
LAYER_33
 10
236.8472
 20
-205.8284
  0
VERTEX
  8
LAYER_33
 10
237.0581
 20
-205.95
  0
SEQEND
  0
ENDBLK
  0
BLOCK
  8
LAYER_33
  2
AIGNBL210200C9
 70
64
 10
0
 20
0
 30
0
  3
AIGNBL210200C9
  0
POLYLINE
  8
LAYER_33
 40
0.0882
 41
0.0882
 66
1
 10
0
 20
0
 30
0
  0
VERTEX
  8
LAYER_33
 10
241.3362
 20
-205.95
  0
VERTEX
  8
LAYER_33
 10
240.9472
 20
-205.95
  0
SEQEND
  0
ENDBLK
  0
BLOCK
  8
LAYER_33
  2
AIGNBL210200CA
 70
64
 10
0
 20
0
 30
0
  3
AIGNBL210200CA
  0
POLYLINE
  8
LAYER_33
 40
0.0882
 41
0.0882
 66
1
 10
0
 20
0
 30
0
  0
VERTEX
  8
LAYER_33
 10
242.8314
 20
-205.9169
  0
VERTEX
  8
LAYER_33
 10
241.5474
 20
-205.9445
  0
SEQEND
  0
ENDBLK
  0
BLOCK
  8
LAYER_33
  2
AIGNBL210200CB
 70
64
 10
0
 20
0
 30
0
  3
AIGNBL210200CB
  0
POLYLINE
  8
LAYER_33
 40
0.0882
 41
0.0882
 66
1
 10
0
 20
0
 30
0
  0
VERTEX
  8
LAYER_33
 10
241.5474
 20
-205.9445
  0
VERTEX
  8
LAYER_33
 10
241.3362
 20
-205.95
  0
SEQEND
  0
ENDBLK
  0
BLOCK
  8
LAYER_33
  2
AIGNBL210200CC
 70
64
 10
0
 20
0
 30
0
  3
AIGNBL210200CC
  0
POLYLINE
  8
LAYER_33
 40
0.0882
 41
0.0882
 66
1
 10
0
 20
0
 30
0
  0
VERTEX
  8
LAYER_33
 10
241.5474
 20
-205.9445
  0
VERTEX
  8
LAYER_33
 10
241.5474
 20
-203.8953
  0
SEQEND
  0
ENDBLK
  0
BLOCK
  8
LAYER_33
  2
AIGNBL210200CD
 70
64
 10
0
 20
0
 30
0
  3
AIGNBL210200CD
  0
POLYLINE
  8
LAYER_33
 40
0.0882
 41
0.0882
 66
1
 10
0
 20
0
 30
0
  0
VERTEX
  8
LAYER_33
 10
242.9471
 20
-205.7942
  0
VERTEX
  8
LAYER_33
 10
242.8314
 20
-205.9169
  0
SEQEND
  0
ENDBLK
  0
BLOCK
  8
LAYER_33
  2
AIGNBL210200CE
 70
64
 10
0
 20
0
 30
0
  3
AIGNBL210200CE
  0
POLYLINE
  8
LAYER_33
 40
0.0882
 41
0.0882
 66
1
 10
0
 20
0
 30
0
  0
VERTEX
  8
LAYER_33
 10
242.9471
 20
-205.7942
  0
VERTEX
  8
LAYER_33
 10
241.5474
 20
-205.8284
  0
SEQEND
  0
ENDBLK
  0
BLOCK
  8
LAYER_33
  2
AIGNBL210200CF
 70
64
 10
0
 20
0
 30
0
  3
AIGNBL210200CF
  0
POLYLINE
  8
LAYER_33
 40
0.0882
 41
0.0882
 66
1
 10
0
 20
0
 30
0
  0
VERTEX
  8
LAYER_33
 10
241.3362
 20
-205.95
  0
VERTEX
  8
LAYER_33
 10
241.5474
 20
-205.8284
  0
SEQEND
  0
ENDBLK
  0
BLOCK
  8
LAYER_33
  2
AIGNBL210200D0
 70
64
 10
0
 20
0
 30
0
  3
AIGNBL210200D0
  0
POLYLINE
  8
LAYER_33
 40
0.0882
 41
0.0882
 66
1
 10
0
 20
0
 30
0
  0
VERTEX
  8
LAYER_33
 10
242.9471
 20
-205.7942
  0
VERTEX
  8
LAYER_33
 10
242.9471
 20
-204.0455
  0
SEQEND
  0
ENDBLK
  0
BLOCK
  8
LAYER_33
  2
AIGNBL210200D1
 70
64
 10
0
 20
0
 30
0
  3
AIGNBL210200D1
  0
POLYLINE
  8
LAYER_33
 40
0.0882
 41
0.0882
 66
1
 10
0
 20
0
 30
0
  0
VERTEX
  8
LAYER_33
 10
241.5474
 20
-204.0118
  0
VERTEX
  8
LAYER_33
 10
242.9471
 20
-204.0455
  0
SEQEND
  0
ENDBLK
  0
BLOCK
  8
LAYER_33
  2
AIGNBL210200D2
 70
64
 10
0
 20
0
 30
0
  3
AIGNBL210200D2
  0
POLYLINE
  8
LAYER_33
 40
0.0882
 41
0.0882
 66
1
 10
0
 20
0
 30
0
  0
VERTEX
  8
LAYER_33
 10
241.5474
 20
-203.8953
  0
VERTEX
  8
LAYER_33
 10
242.8314
 20
-203.9229
  0
SEQEND
  0
ENDBLK
  0
BLOCK
  8
LAYER_33
  2
AIGNBL210200D3
 70
64
 10
0
 20
0
 30
0
  3
AIGNBL210200D3
  0
POLYLINE
  8
LAYER_33
 40
0.0882
 41
0.0882
 66
1
 10
0
 20
0
 30
0
  0
VERTEX
  8
LAYER_33
 10
242.8314
 20
-203.9229
  0
VERTEX
  8
LAYER_33
 10
242.9471
 20
-204.0455
  0
SEQEND
  0
ENDBLK
  0
BLOCK
  8
LAYER_33
  2
AIGNBL210200D4
 70
64
 10
0
 20
0
 30
0
  3
AIGNBL210200D4
  0
POLYLINE
  8
LAYER_33
 40
0.0882
 41
0.0882
 66
1
 10
0
 20
0
 30
0
  0
VERTEX
  8
LAYER_33
 10
241.5474
 20
-204.0118
  0
VERTEX
  8
LAYER_33
 10
241.3362
 20
-203.8898
  0
SEQEND
  0
ENDBLK
  0
BLOCK
  8
LAYER_33
  2
AIGNBL210200D5
 70
64
 10
0
 20
0
 30
0
  3
AIGNBL210200D5
  0
POLYLINE
  8
LAYER_33
 40
0.0882
 41
0.0882
 66
1
 10
0
 20
0
 30
0
  0
VERTEX
  8
LAYER_33
 10
241.3362
 20
-203.8898
  0
VERTEX
  8
LAYER_33
 10
241.5474
 20
-203.8953
  0
SEQEND
  0
ENDBLK
  0
BLOCK
  8
LAYER_33
  2
AIGNBL210200D6
 70
64
 10
0
 20
0
 30
0
  3
AIGNBL210200D6
  0
POLYLINE
  8
LAYER_33
 40
0.0882
 41
0.0882
 66
1
 10
0
 20
0
 30
0
  0
VERTEX
  8
LAYER_33
 10
242.8314
 20
-203.9229
  0
VERTEX
  8
LAYER_33
 10
242.8314
 20
-205.9169
  0
SEQEND
  0
ENDBLK
  0
BLOCK
  8
LAYER_33
  2
AIGNBL210200D7
 70
64
 10
0
 20
0
 30
0
  3
AIGNBL210200D7
  0
POLYLINE
  8
LAYER_33
 40
0.0882
 41
0.0882
 66
1
 10
0
 20
0
 30
0
  0
VERTEX
  8
LAYER_33
 10
239.4472
 20
-205.95
  0
VERTEX
  8
LAYER_33
 10
237.0581
 20
-205.95
  0
SEQEND
  0
ENDBLK
  0
BLOCK
  8
LAYER_33
  2
AIGNBL210200D8
 70
64
 10
0
 20
0
 30
0
  3
AIGNBL210200D8
  0
POLYLINE
  8
LAYER_33
 40
0.0882
 41
0.0882
 66
1
 10
0
 20
0
 30
0
  0
VERTEX
  8
LAYER_33
 10
240.9472
 20
-203.8898
  0
VERTEX
  8
LAYER_33
 10
241.3362
 20
-203.8898
  0
SEQEND
  0
ENDBLK
  0
BLOCK
  8
LAYER_33
  2
AIGNBL210200D9
 70
64
 10
0
 20
0
 30
0
  3
AIGNBL210200D9
  0
POLYLINE
  8
LAYER_33
 40
0.0882
 41
0.0882
 66
1
 10
0
 20
0
 30
0
  0
VERTEX
  8
LAYER_33
 10
240.9472
 20
-201.9199
  0
VERTEX
  8
LAYER_33
 10
240.9472
 20
-204.9199
  0
SEQEND
  0
ENDBLK
  0
BLOCK
  8
LAYER_33
  2
AIGNBL210200DA
 70
64
 10
0
 20
0
 30
0
  3
AIGNBL210200DA
  0
POLYLINE
  8
LAYER_33
 40
0.0882
 41
0.0882
 66
1
 10
0
 20
0
 30
0
  0
VERTEX
  8
LAYER_33
 10
239.6474
 20
-201.9199
  0
VERTEX
  8
LAYER_33
 10
240.9472
 20
-201.9199
  0
SEQEND
  0
ENDBLK
  0
BLOCK
  8
LAYER_33
  2
AIGNBL210200DB
 70
64
 10
0
 20
0
 30
0
  3
AIGNBL210200DB
  0
POLYLINE
  8
LAYER_33
 40
0.0882
 41
0.0882
 66
1
 10
0
 20
0
 30
0
  0
VERTEX
  8
LAYER_33
 10
239.4472
 20
-202.1201
  0
VERTEX
  8
LAYER_33
 10
239.4472
 20
-204.9199
  0
SEQEND
  0
ENDBLK
  0
BLOCK
  8
LAYER_33
  2
AIGNBL210200DC
 70
64
 10
0
 20
0
 30
0
  3
AIGNBL210200DC
  0
POLYLINE
  8
LAYER_33
 40
0.0882
 41
0.0882
 66
1
 10
0
 20
0
 30
0
  0
VERTEX
  8
LAYER_33
 10
239.4472
 20
-204.9199
  0
VERTEX
  8
LAYER_33
 10
239.4472
 20
-207.7201
  0
SEQEND
  0
ENDBLK
  0
BLOCK
  8
LAYER_33
  2
AIGNBL210200DD
 70
64
 10
0
 20
0
 30
0
  3
AIGNBL210200DD
  0
POLYLINE
  8
LAYER_33
 40
0.0882
 41
0.0882
 66
1
 10
0
 20
0
 30
0
  0
VERTEX
  8
LAYER_33
 10
240.9472
 20
-207.9199
  0
VERTEX
  8
LAYER_33
 10
239.6474
 20
-207.9199
  0
SEQEND
  0
ENDBLK
  0
BLOCK
  8
LAYER_33
  2
AIGNBL210200DE
 70
64
 10
0
 20
0
 30
0
  3
AIGNBL210200DE
  0
POLYLINE
  8
LAYER_33
 40
0.0882
 41
0.0882
 66
1
 10
0
 20
0
 30
0
  0
VERTEX
  8
LAYER_33
 10
240.9472
 20
-204.9199
  0
VERTEX
  8
LAYER_33
 10
240.9472
 20
-207.9199
  0
SEQEND
  0
ENDBLK
  0
BLOCK
  8
LAYER_33
  2
AIGNBL210200DF
 70
64
 10
0
 20
0
 30
0
  3
AIGNBL210200DF
  0
POLYLINE
  8
LAYER_33
 40
0.0882
 41
0.0882
 66
1
 10
0
 20
0
 30
0
  0
VERTEX
  8
LAYER_33
 10
239.6474
 20
-201.9199
 42
0.4142448488
  0
VERTEX
  8
LAYER_33
 10
239.4472
 20
-202.1201
  0
SEQEND
  0
ENDBLK
  0
BLOCK
  8
LAYER_33
  2
AIGNBL210200E0
 70
64
 10
0
 20
0
 30
0
  3
AIGNBL210200E0
  0
POLYLINE
  8
LAYER_33
 40
0.0882
 41
0.0882
 66
1
 10
0
 20
0
 30
0
  0
VERTEX
  8
LAYER_33
 10
239.4472
 20
-207.7201
 42
0.3931074902
  0
VERTEX
  8
LAYER_33
 10
239.6474
 20
-207.9199
  0
SEQEND
  0
ENDBLK
  0
BLOCK
  8
LAYER_33
  2
AIGNBL210200E1
 70
64
 10
0
 20
0
 30
0
  3
AIGNBL210200E1
  0
POLYLINE
  8
LAYER_33
 40
0.0882
 41
0.0882
 66
1
 10
0
 20
0
 30
0
  0
VERTEX
  8
LAYER_33
 10
243.3974
 20
-204.9199
  0
VERTEX
  8
LAYER_33
 10
228.0974
 20
-204.9199
  0
SEQEND
  0
ENDBLK
  0
BLOCK
  8
LAYER_33
  2
AIGNBL210200E2
 70
64
 10
0
 20
0
 30
0
  3
AIGNBL210200E2
  0
POLYLINE
  8
LAYER_33
 40
0.0882
 41
0.0882
 66
1
 10
0
 20
0
 30
0
  0
VERTEX
  8
LAYER_33
 10
233.2471
 20
-201.1199
  0
VERTEX
  8
LAYER_33
 10
233.2471
 20
-206.67
  0
SEQEND
  0
ENDBLK
  0
BLOCK
  8
LAYER_33
  2
AIGNBL210200E3
 70
64
 10
0
 20
0
 30
0
  3
AIGNBL210200E3
  0
POLYLINE
  8
LAYER_33
 40
0.0882
 41
0.0882
 66
1
 10
0
 20
0
 30
0
  0
VERTEX
  8
LAYER_33
 10
229.4472
 20
-206.67
  0
VERTEX
  8
LAYER_33
 10
229.4472
 20
-201.2698
  0
SEQEND
  0
ENDBLK
  0
BLOCK
  8
LAYER_35
  2
AIGNBL23020003
 70
64
 10
0
 20
0
 30
0
  3
AIGNBL23020003
  0
POLYLINE
  8
LAYER_35
 40
0.1764
 41
0.1764
 62
252
 66
1
 10
0
 20
0
 30
0
  0
VERTEX
  8
LAYER_35
 10
134.5163
 20
-189.8388
  0
VERTEX
  8
LAYER_35
 10
175.2624
 20
-189.2851
  0
SEQEND
  0
POLYLINE
  8
LAYER_35
 40
0.1764
 41
0.1764
 62
252
 66
1
 10
0
 20
0
 30
0
  0
VERTEX
  8
LAYER_35
 10
175.2747
 20
-189.2851
  0
VERTEX
  8
LAYER_35
 10
175.4675
 20
-189.2156
  0
VERTEX
  8
LAYER_35
 10
175.5658
 20
-189.0351
  0
VERTEX
  8
LAYER_35
 10
177.2964
 20
-177.163
  0
SEQEND
  0
POLYLINE
  8
LAYER_35
 40
0.1764
 41
0.1764
 62
252
 66
1
 10
0
 20
0
 30
0
  0
VERTEX
  8
LAYER_35
 10
177.8827
 20
-176.4168
  0
VERTEX
  8
LAYER_35
 10
177.4932
 20
-176.716
  0
VERTEX
  8
LAYER_35
 10
177.2964
 20
-177.163
  0
SEQEND
  0
POLYLINE
  8
LAYER_35
 40
0.1764
 41
0.1764
 62
252
 66
1
 10
0
 20
0
 30
0
  0
VERTEX
  8
LAYER_35
 10
101.9267
 20
-174.9199
  0
VERTEX
  8
LAYER_35
 10
181.3234
 20
-174.9199
  0
SEQEND
  0
POLYLINE
  8
LAYER_35
 40
0.1764
 41
0.1764
 62
252
 66
1
 10
0
 20
0
 30
0
  0
VERTEX
  8
LAYER_35
 10
128.6766
 20
-192.9187
  0
VERTEX
  8
LAYER_35
 10
134.5777
 20
-192.9187
  0
VERTEX
  8
LAYER_35
 10
134.5777
 20
-192.5782
  0
VERTEX
  8
LAYER_35
 10
134.6558
 20
-192.3773
  0
VERTEX
  8
LAYER_35
 10
134.8484
 20
-192.2789
  0
VERTEX
  8
LAYER_35
 10
136.3044
 20
-192.1394
  0
VERTEX
  8
LAYER_35
 10
136.4847
 20
-192.0534
  0
VERTEX
  8
LAYER_35
 10
136.5708
 20
-191.8687
  0
VERTEX
  8
LAYER_35
 10
136.7308
 20
-190.1136
  0
VERTEX
  8
LAYER_35
 10
136.821
 20
-189.9249
  0
VERTEX
  8
LAYER_35
 10
137.0177
 20
-189.8388
  0
SEQEND
  0
POLYLINE
  8
LAYER_35
 40
0.1764
 41
0.1764
 62
252
 66
1
 10
0
 20
0
 30
0
  0
VERTEX
  8
LAYER_35
 10
181.3234
 20
-176.4168
  0
VERTEX
  8
LAYER_35
 10
181.5367
 20
-176.3306
  0
VERTEX
  8
LAYER_35
 10
181.6269
 20
-176.1173
  0
VERTEX
  8
LAYER_35
 10
181.6269
 20
-175.2192
  0
VERTEX
  8
LAYER_35
 10
181.5367
 20
-175.006
  0
VERTEX
  8
LAYER_35
 10
181.3234
 20
-174.9199
  0
SEQEND
  0
POLYLINE
  8
LAYER_35
 40
0.1764
 41
0.1764
 62
252
 66
1
 10
0
 20
0
 30
0
  0
VERTEX
  8
LAYER_35
 10
128.4059
 20
-192.2789
  0
VERTEX
  8
LAYER_35
 10
134.8484
 20
-192.2789
  0
SEQEND
  0
POLYLINE
  8
LAYER_35
 40
0.1764
 41
0.1764
 62
252
 66
1
 10
0
 20
0
 30
0
  0
VERTEX
  8
LAYER_35
 10
126.2366
 20
-189.8388
  0
VERTEX
  8
LAYER_35
 10
137.0177
 20
-189.8388
  0
SEQEND
  0
POLYLINE
  8
LAYER_35
 40
0.1764
 41
0.1764
 62
252
 66
1
 10
0
 20
0
 30
0
  0
VERTEX
  8
LAYER_35
 10
105.4207
 20
-176.4168
  0
VERTEX
  8
LAYER_35
 10
181.3234
 20
-176.4168
  0
SEQEND
  0
POLYLINE
  8
LAYER_35
 40
0.1764
 41
0.1764
 62
252
 66
1
 10
0
 20
0
 30
0
  0
VERTEX
  8
LAYER_35
 10
128.6766
 20
-192.9187
  0
VERTEX
  8
LAYER_35
 10
128.6766
 20
-192.5782
  0
VERTEX
  8
LAYER_35
 10
128.5988
 20
-192.3773
  0
VERTEX
  8
LAYER_35
 10
128.4059
 20
-192.2789
  0
VERTEX
  8
LAYER_35
 10
126.9502
 20
-192.1394
  0
SEQEND
  0
POLYLINE
  8
LAYER_35
 40
0.1764
 41
0.1764
 62
252
 66
1
 10
0
 20
0
 30
0
  0
VERTEX
  8
LAYER_35
 10
126.6795
 20
-191.877
  0
VERTEX
  8
LAYER_35
 10
126.7697
 20
-192.0574
  0
VERTEX
  8
LAYER_35
 10
126.9502
 20
-192.1394
  0
SEQEND
  0
POLYLINE
  8
LAYER_35
 40
0.1764
 41
0.1764
 62
252
 66
1
 10
0
 20
0
 30
0
  0
VERTEX
  8
LAYER_35
 10
126.6795
 20
-191.877
  0
VERTEX
  8
LAYER_35
 10
126.5196
 20
-190.1136
  0
VERTEX
  8
LAYER_35
 10
126.4293
 20
-189.9249
  0
VERTEX
  8
LAYER_35
 10
126.2366
 20
-189.8388
  0
VERTEX
  8
LAYER_35
 10
107.9879
 20
-189.2851
  0
SEQEND
  0
POLYLINE
  8
LAYER_35
 40
0.1764
 41
0.1764
 62
252
 66
1
 10
0
 20
0
 30
0
  0
VERTEX
  8
LAYER_35
 10
110.4811
 20
-176.4168
  0
VERTEX
  8
LAYER_35
 10
101.9267
 20
-176.4168
  0
SEQEND
  0
POLYLINE
  8
LAYER_35
 40
0.1764
 41
0.1764
 62
252
 66
1
 10
0
 20
0
 30
0
  0
VERTEX
  8
LAYER_35
 10
101.6273
 20
-176.1173
  0
VERTEX
  8
LAYER_35
 10
101.7136
 20
-176.3306
  0
VERTEX
  8
LAYER_35
 10
101.9267
 20
-176.4168
  0
SEQEND
  0
POLYLINE
  8
LAYER_35
 40
0.1764
 41
0.1764
 62
252
 66
1
 10
0
 20
0
 30
0
  0
VERTEX
  8
LAYER_35
 10
101.6273
 20
-176.1173
  0
VERTEX
  8
LAYER_35
 10
101.6273
 20
-175.2192
  0
SEQEND
  0
POLYLINE
  8
LAYER_35
 40
0.1764
 41
0.1764
 62
252
 66
1
 10
0
 20
0
 30
0
  0
VERTEX
  8
LAYER_35
 10
101.9267
 20
-174.9199
  0
VERTEX
  8
LAYER_35
 10
101.7136
 20
-175.006
  0
VERTEX
  8
LAYER_35
 10
101.6273
 20
-175.2192
  0
SEQEND
  0
POLYLINE
  8
LAYER_35
 40
0.1764
 41
0.1764
 62
252
 66
1
 10
0
 20
0
 30
0
  0
VERTEX
  8
LAYER_35
 10
107.6966
 20
-189.0391
  0
VERTEX
  8
LAYER_35
 10
107.7991
 20
-189.2156
  0
VERTEX
  8
LAYER_35
 10
107.9879
 20
-189.2851
  0
SEQEND
  0
POLYLINE
  8
LAYER_35
 40
0.1764
 41
0.1764
 62
252
 66
1
 10
0
 20
0
 30
0
  0
VERTEX
  8
LAYER_35
 10
107.6966
 20
-189.0391
  0
VERTEX
  8
LAYER_35
 10
105.9578
 20
-177.163
  0
VERTEX
  8
LAYER_35
 10
105.757
 20
-176.716
  0
VERTEX
  8
LAYER_35
 10
105.3715
 20
-176.4168
  0
SEQEND
  0
ENDBLK
  0
BLOCK
  8
LAYER_35
  2
AIGNBL23020004
 70
64
 10
0
 20
0
 30
0
  3
AIGNBL23020004
  0
POLYLINE
  8
LAYER_35
 40
0.1764
 41
0.1764
 66
1
 10
0
 20
0
 30
0
  0
VERTEX
  8
LAYER_35
 10
127.635
 20
-188.4159
  0
VERTEX
  8
LAYER_35
 10
128.1599
 20
-188.4159
  0
SEQEND
  0
POLYLINE
  8
LAYER_35
 40
0.1764
 41
0.1764
 66
1
 10
0
 20
0
 30
0
  0
VERTEX
  8
LAYER_35
 10
128.4799
 20
-188.4159
  0
VERTEX
  8
LAYER_35
 10
129.1114
 20
-188.4159
  0
SEQEND
  0
POLYLINE
  8
LAYER_35
 40
0.1764
 41
0.1764
 66
1
 10
0
 20
0
 30
0
  0
VERTEX
  8
LAYER_35
 10
129.4311
 20
-188.4159
  0
VERTEX
  8
LAYER_35
 10
130.0668
 20
-188.4159
  0
SEQEND
  0
POLYLINE
  8
LAYER_35
 40
0.1764
 41
0.1764
 66
1
 10
0
 20
0
 30
0
  0
VERTEX
  8
LAYER_35
 10
130.3826
 20
-188.4159
  0
VERTEX
  8
LAYER_35
 10
131.0183
 20
-188.4159
  0
SEQEND
  0
POLYLINE
  8
LAYER_35
 40
0.1764
 41
0.1764
 66
1
 10
0
 20
0
 30
0
  0
VERTEX
  8
LAYER_35
 10
131.334
 20
-188.4159
  0
VERTEX
  8
LAYER_35
 10
131.9696
 20
-188.4159
  0
SEQEND
  0
POLYLINE
  8
LAYER_35
 40
0.1764
 41
0.1764
 66
1
 10
0
 20
0
 30
0
  0
VERTEX
  8
LAYER_35
 10
132.2895
 20
-188.4159
  0
VERTEX
  8
LAYER_35
 10
132.921
 20
-188.4159
  0
SEQEND
  0
POLYLINE
  8
LAYER_35
 40
0.1764
 41
0.1764
 66
1
 10
0
 20
0
 30
0
  0
VERTEX
  8
LAYER_35
 10
133.2409
 20
-188.4159
  0
VERTEX
  8
LAYER_35
 10
133.8765
 20
-188.4159
  0
SEQEND
  0
POLYLINE
  8
LAYER_35
 40
0.1764
 41
0.1764
 66
1
 10
0
 20
0
 30
0
  0
VERTEX
  8
LAYER_35
 10
134.1923
 20
-188.4159
  0
VERTEX
  8
LAYER_35
 10
134.8279
 20
-188.4159
  0
SEQEND
  0
POLYLINE
  8
LAYER_35
 40
0.1764
 41
0.1764
 66
1
 10
0
 20
0
 30
0
  0
VERTEX
  8
LAYER_35
 10
135.1436
 20
-188.4159
  0
VERTEX
  8
LAYER_35
 10
135.6686
 20
-188.4159
  0
SEQEND
  0
ENDBLK
  0
BLOCK
  8
LAYER_35
  2
AIGNBL23020005
 70
64
 10
0
 20
0
 30
0
  3
AIGNBL23020005
  0
POLYLINE
  8
LAYER_35
 40
0.1764
 41
0.1764
 66
1
 10
0
 20
0
 30
0
  0
VERTEX
  8
LAYER_35
 10
110.633
 20
-174.9199
  0
VERTEX
  8
LAYER_35
 10
110.756
 20
-175.5351
  0
SEQEND
  0
POLYLINE
  8
LAYER_35
 40
0.1764
 41
0.1764
 66
1
 10
0
 20
0
 30
0
  0
VERTEX
  8
LAYER_35
 10
110.8173
 20
-175.8467
  0
VERTEX
  8
LAYER_35
 10
110.9445
 20
-176.47
  0
SEQEND
  0
POLYLINE
  8
LAYER_35
 40
0.1764
 41
0.1764
 66
1
 10
0
 20
0
 30
0
  0
VERTEX
  8
LAYER_35
 10
111.0061
 20
-176.7817
  0
VERTEX
  8
LAYER_35
 10
111.1332
 20
-177.4051
  0
SEQEND
  0
POLYLINE
  8
LAYER_35
 40
0.1764
 41
0.1764
 66
1
 10
0
 20
0
 30
0
  0
VERTEX
  8
LAYER_35
 10
111.1948
 20
-177.7167
  0
VERTEX
  8
LAYER_35
 10
111.3178
 20
-178.3402
  0
SEQEND
  0
POLYLINE
  8
LAYER_35
 40
0.1764
 41
0.1764
 66
1
 10
0
 20
0
 30
0
  0
VERTEX
  8
LAYER_35
 10
111.3833
 20
-178.6476
  0
VERTEX
  8
LAYER_35
 10
111.5063
 20
-179.271
  0
SEQEND
  0
POLYLINE
  8
LAYER_35
 40
0.1764
 41
0.1764
 66
1
 10
0
 20
0
 30
0
  0
VERTEX
  8
LAYER_35
 10
111.572
 20
-179.5827
  0
VERTEX
  8
LAYER_35
 10
111.695
 20
-180.2059
  0
SEQEND
  0
POLYLINE
  8
LAYER_35
 40
0.1764
 41
0.1764
 66
1
 10
0
 20
0
 30
0
  0
VERTEX
  8
LAYER_35
 10
111.7564
 20
-180.5175
  0
VERTEX
  8
LAYER_35
 10
111.8836
 20
-181.141
  0
SEQEND
  0
POLYLINE
  8
LAYER_35
 40
0.1764
 41
0.1764
 66
1
 10
0
 20
0
 30
0
  0
VERTEX
  8
LAYER_35
 10
111.9453
 20
-181.4525
  0
VERTEX
  8
LAYER_35
 10
112.0722
 20
-182.0717
  0
SEQEND
  0
POLYLINE
  8
LAYER_35
 40
0.1764
 41
0.1764
 66
1
 10
0
 20
0
 30
0
  0
VERTEX
  8
LAYER_35
 10
112.1338
 20
-182.3835
  0
VERTEX
  8
LAYER_35
 10
112.2568
 20
-183.0068
  0
SEQEND
  0
POLYLINE
  8
LAYER_35
 40
0.1764
 41
0.1764
 66
1
 10
0
 20
0
 30
0
  0
VERTEX
  8
LAYER_35
 10
112.3224
 20
-183.3186
  0
VERTEX
  8
LAYER_35
 10
112.4454
 20
-183.9418
  0
SEQEND
  0
POLYLINE
  8
LAYER_35
 40
0.1764
 41
0.1764
 66
1
 10
0
 20
0
 30
0
  0
VERTEX
  8
LAYER_35
 10
112.5071
 20
-184.2536
  0
VERTEX
  8
LAYER_35
 10
112.6341
 20
-184.8768
  0
SEQEND
  0
POLYLINE
  8
LAYER_35
 40
0.1764
 41
0.1764
 66
1
 10
0
 20
0
 30
0
  0
VERTEX
  8
LAYER_35
 10
112.6956
 20
-185.1844
  0
VERTEX
  8
LAYER_35
 10
112.8227
 20
-185.8077
  0
SEQEND
  0
POLYLINE
  8
LAYER_35
 40
0.1764
 41
0.1764
 66
1
 10
0
 20
0
 30
0
  0
VERTEX
  8
LAYER_35
 10
112.8843
 20
-186.1194
  0
VERTEX
  8
LAYER_35
 10
113.0113
 20
-186.7428
  0
SEQEND
  0
POLYLINE
  8
LAYER_35
 40
0.1764
 41
0.1764
 66
1
 10
0
 20
0
 30
0
  0
VERTEX
  8
LAYER_35
 10
113.0729
 20
-187.0544
  0
VERTEX
  8
LAYER_35
 10
113.1959
 20
-187.6735
  0
VERTEX
  8
LAYER_35
 10
113.3149
 20
-187.7966
  0
VERTEX
  8
LAYER_35
 10
113.4831
 20
-187.8336
  0
VERTEX
  8
LAYER_35
 10
113.8602
 20
-187.8498
  0
SEQEND
  0
POLYLINE
  8
LAYER_35
 40
0.1764
 41
0.1764
 66
1
 10
0
 20
0
 30
0
  0
VERTEX
  8
LAYER_35
 10
114.1759
 20
-187.8665
  0
VERTEX
  8
LAYER_35
 10
114.8116
 20
-187.891
  0
SEQEND
  0
POLYLINE
  8
LAYER_35
 40
0.1764
 41
0.1764
 66
1
 10
0
 20
0
 30
0
  0
VERTEX
  8
LAYER_35
 10
115.1274
 20
-187.9073
  0
VERTEX
  8
LAYER_35
 10
115.7632
 20
-187.932
  0
SEQEND
  0
POLYLINE
  8
LAYER_35
 40
0.1764
 41
0.1764
 66
1
 10
0
 20
0
 30
0
  0
VERTEX
  8
LAYER_35
 10
116.0788
 20
-187.9483
  0
VERTEX
  8
LAYER_35
 10
116.7144
 20
-187.973
  0
SEQEND
  0
POLYLINE
  8
LAYER_35
 40
0.1764
 41
0.1764
 66
1
 10
0
 20
0
 30
0
  0
VERTEX
  8
LAYER_35
 10
117.0303
 20
-187.9895
  0
VERTEX
  8
LAYER_35
 10
117.6658
 20
-188.018
  0
SEQEND
  0
POLYLINE
  8
LAYER_35
 40
0.1764
 41
0.1764
 66
1
 10
0
 20
0
 30
0
  0
VERTEX
  8
LAYER_35
 10
117.9816
 20
-188.0303
  0
VERTEX
  8
LAYER_35
 10
118.6172
 20
-188.0592
  0
SEQEND
  0
POLYLINE
  8
LAYER_35
 40
0.1764
 41
0.1764
 66
1
 10
0
 20
0
 30
0
  0
VERTEX
  8
LAYER_35
 10
118.9329
 20
-188.0715
  0
VERTEX
  8
LAYER_35
 10
119.5687
 20
-188.1
  0
SEQEND
  0
POLYLINE
  8
LAYER_35
 40
0.1764
 41
0.1764
 66
1
 10
0
 20
0
 30
0
  0
VERTEX
  8
LAYER_35
 10
119.8844
 20
-188.1125
  0
VERTEX
  8
LAYER_35
 10
120.5201
 20
-188.141
  0
SEQEND
  0
POLYLINE
  8
LAYER_35
 40
0.1764
 41
0.1764
 66
1
 10
0
 20
0
 30
0
  0
VERTEX
  8
LAYER_35
 10
120.8359
 20
-188.1533
  0
VERTEX
  8
LAYER_35
 10
121.4714
 20
-188.1822
  0
SEQEND
  0
POLYLINE
  8
LAYER_35
 40
0.1764
 41
0.1764
 66
1
 10
0
 20
0
 30
0
  0
VERTEX
  8
LAYER_35
 10
121.7872
 20
-188.1944
  0
VERTEX
  8
LAYER_35
 10
122.4228
 20
-188.223
  0
SEQEND
  0
POLYLINE
  8
LAYER_35
 40
0.1764
 41
0.1764
 66
1
 10
0
 20
0
 30
0
  0
VERTEX
  8
LAYER_35
 10
122.7386
 20
-188.2355
  0
VERTEX
  8
LAYER_35
 10
123.3742
 20
-188.2642
  0
SEQEND
  0
POLYLINE
  8
LAYER_35
 40
0.1764
 41
0.1764
 66
1
 10
0
 20
0
 30
0
  0
VERTEX
  8
LAYER_35
 10
123.69
 20
-188.2763
  0
VERTEX
  8
LAYER_35
 10
124.3256
 20
-188.3052
  0
SEQEND
  0
POLYLINE
  8
LAYER_35
 40
0.1764
 41
0.1764
 66
1
 10
0
 20
0
 30
0
  0
VERTEX
  8
LAYER_35
 10
124.6415
 20
-188.3175
  0
VERTEX
  8
LAYER_35
 10
125.277
 20
-188.346
  0
SEQEND
  0
POLYLINE
  8
LAYER_35
 40
0.1764
 41
0.1764
 66
1
 10
0
 20
0
 30
0
  0
VERTEX
  8
LAYER_35
 10
125.5928
 20
-188.3586
  0
VERTEX
  8
LAYER_35
 10
126.2285
 20
-188.3871
  0
SEQEND
  0
POLYLINE
  8
LAYER_35
 40
0.1764
 41
0.1764
 66
1
 10
0
 20
0
 30
0
  0
VERTEX
  8
LAYER_35
 10
126.5442
 20
-188.3993
  0
VERTEX
  8
LAYER_35
 10
126.9214
 20
-188.4159
  0
VERTEX
  8
LAYER_35
 10
127.2455
 20
-188.5553
  0
VERTEX
  8
LAYER_35
 10
127.3971
 20
-188.871
  0
VERTEX
  8
LAYER_35
 10
127.4545
 20
-189.4944
  0
SEQEND
  0
POLYLINE
  8
LAYER_35
 40
0.1764
 41
0.1764
 66
1
 10
0
 20
0
 30
0
  0
VERTEX
  8
LAYER_35
 10
127.4833
 20
-189.8103
  0
VERTEX
  8
LAYER_35
 10
127.5406
 20
-190.4295
  0
VERTEX
  8
LAYER_35
 10
127.6269
 20
-190.6138
  0
VERTEX
  8
LAYER_35
 10
127.8073
 20
-190.7001
  0
VERTEX
  8
LAYER_35
 10
128.4264
 20
-190.7616
  0
SEQEND
  0
POLYLINE
  8
LAYER_35
 40
0.1764
 41
0.1764
 66
1
 10
0
 20
0
 30
0
  0
VERTEX
  8
LAYER_35
 10
128.7422
 20
-190.7902
  0
VERTEX
  8
LAYER_35
 10
129.3575
 20
-190.8519
  0
VERTEX
  8
LAYER_35
 10
129.5501
 20
-190.9461
  0
VERTEX
  8
LAYER_35
 10
129.628
 20
-191.1471
  0
VERTEX
  8
LAYER_35
 10
129.628
 20
-191.873
  0
SEQEND
  0
POLYLINE
  8
LAYER_35
 40
0.1764
 41
0.1764
 66
1
 10
0
 20
0
 30
0
  0
VERTEX
  8
LAYER_35
 10
129.628
 20
-192.1928
  0
VERTEX
  8
LAYER_35
 10
129.628
 20
-192.9187
  0
SEQEND
  0
POLYLINE
  8
LAYER_35
 40
0.1764
 41
0.1764
 66
1
 10
0
 20
0
 30
0
  0
VERTEX
  8
LAYER_35
 10
126.9214
 20
-188.4159
  0
VERTEX
  8
LAYER_35
 10
127.6555
 20
-188.4159
  0
SEQEND
  0
POLYLINE
  8
LAYER_35
 40
0.1764
 41
0.1764
 66
1
 10
0
 20
0
 30
0
  0
VERTEX
  8
LAYER_35
 10
127.9755
 20
-188.4159
  0
VERTEX
  8
LAYER_35
 10
128.611
 20
-188.4159
  0
SEQEND
  0
POLYLINE
  8
LAYER_35
 40
0.1764
 41
0.1764
 66
1
 10
0
 20
0
 30
0
  0
VERTEX
  8
LAYER_35
 10
128.9268
 20
-188.4159
  0
VERTEX
  8
LAYER_35
 10
129.5624
 20
-188.4159
  0
SEQEND
  0
POLYLINE
  8
LAYER_35
 40
0.1764
 41
0.1764
 66
1
 10
0
 20
0
 30
0
  0
VERTEX
  8
LAYER_35
 10
129.8782
 20
-188.4159
  0
VERTEX
  8
LAYER_35
 10
130.5139
 20
-188.4159
  0
SEQEND
  0
POLYLINE
  8
LAYER_35
 40
0.1764
 41
0.1764
 66
1
 10
0
 20
0
 30
0
  0
VERTEX
  8
LAYER_35
 10
130.8337
 20
-188.4159
  0
VERTEX
  8
LAYER_35
 10
131.4693
 20
-188.4159
  0
SEQEND
  0
POLYLINE
  8
LAYER_35
 40
0.1764
 41
0.1764
 66
1
 10
0
 20
0
 30
0
  0
VERTEX
  8
LAYER_35
 10
131.785
 20
-188.4159
  0
VERTEX
  8
LAYER_35
 10
132.4208
 20
-188.4159
  0
SEQEND
  0
POLYLINE
  8
LAYER_35
 40
0.1764
 41
0.1764
 66
1
 10
0
 20
0
 30
0
  0
VERTEX
  8
LAYER_35
 10
132.7365
 20
-188.4159
  0
VERTEX
  8
LAYER_35
 10
133.372
 20
-188.4159
  0
SEQEND
  0
POLYLINE
  8
LAYER_35
 40
0.1764
 41
0.1764
 66
1
 10
0
 20
0
 30
0
  0
VERTEX
  8
LAYER_35
 10
133.6919
 20
-188.4159
  0
VERTEX
  8
LAYER_35
 10
134.3235
 20
-188.4159
  0
SEQEND
  0
POLYLINE
  8
LAYER_35
 40
0.1764
 41
0.1764
 66
1
 10
0
 20
0
 30
0
  0
VERTEX
  8
LAYER_35
 10
134.6435
 20
-188.4159
  0
VERTEX
  8
LAYER_35
 10
135.279
 20
-188.4159
  0
SEQEND
  0
POLYLINE
  8
LAYER_35
 40
0.1764
 41
0.1764
 66
1
 10
0
 20
0
 30
0
  0
VERTEX
  8
LAYER_35
 10
135.5948
 20
-188.4159
  0
VERTEX
  8
LAYER_35
 10
136.3329
 20
-188.4159
  0
SEQEND
  0
POLYLINE
  8
LAYER_35
 40
0.1764
 41
0.1764
 66
1
 10
0
 20
0
 30
0
  0
VERTEX
  8
LAYER_35
 10
129.3575
 20
-190.8519
  0
VERTEX
  8
LAYER_35
 10
130.0381
 20
-190.8519
  0
SEQEND
  0
POLYLINE
  8
LAYER_35
 40
0.1764
 41
0.1764
 66
1
 10
0
 20
0
 30
0
  0
VERTEX
  8
LAYER_35
 10
130.358
 20
-190.8519
  0
VERTEX
  8
LAYER_35
 10
130.9895
 20
-190.8519
  0
SEQEND
  0
POLYLINE
  8
LAYER_35
 40
0.1764
 41
0.1764
 66
1
 10
0
 20
0
 30
0
  0
VERTEX
  8
LAYER_35
 10
131.3095
 20
-190.8519
  0
VERTEX
  8
LAYER_35
 10
131.945
 20
-190.8519
  0
SEQEND
  0
POLYLINE
  8
LAYER_35
 40
0.1764
 41
0.1764
 66
1
 10
0
 20
0
 30
0
  0
VERTEX
  8
LAYER_35
 10
132.2607
 20
-190.8519
  0
VERTEX
  8
LAYER_35
 10
132.8964
 20
-190.8519
  0
SEQEND
  0
POLYLINE
  8
LAYER_35
 40
0.1764
 41
0.1764
 66
1
 10
0
 20
0
 30
0
  0
VERTEX
  8
LAYER_35
 10
133.2122
 20
-190.8519
  0
VERTEX
  8
LAYER_35
 10
133.8929
 20
-190.8519
  0
SEQEND
  0
POLYLINE
  8
LAYER_35
 40
0.1764
 41
0.1764
 66
1
 10
0
 20
0
 30
0
  0
VERTEX
  8
LAYER_35
 10
152.6257
 20
-174.9199
  0
VERTEX
  8
LAYER_35
 10
152.5027
 20
-175.5351
  0
SEQEND
  0
POLYLINE
  8
LAYER_35
 40
0.1764
 41
0.1764
 66
1
 10
0
 20
0
 30
0
  0
VERTEX
  8
LAYER_35
 10
152.437
 20
-175.8467
  0
VERTEX
  8
LAYER_35
 10
152.314
 20
-176.47
  0
SEQEND
  0
POLYLINE
  8
LAYER_35
 40
0.1764
 41
0.1764
 66
1
 10
0
 20
0
 30
0
  0
VERTEX
  8
LAYER_35
 10
152.2524
 20
-176.7817
  0
VERTEX
  8
LAYER_35
 10
152.1254
 20
-177.4051
  0
SEQEND
  0
POLYLINE
  8
LAYER_35
 40
0.1764
 41
0.1764
 66
1
 10
0
 20
0
 30
0
  0
VERTEX
  8
LAYER_35
 10
152.0639
 20
-177.7167
  0
VERTEX
  8
LAYER_35
 10
151.9366
 20
-178.3402
  0
SEQEND
  0
POLYLINE
  8
LAYER_35
 40
0.1764
 41
0.1764
 66
1
 10
0
 20
0
 30
0
  0
VERTEX
  8
LAYER_35
 10
151.8752
 20
-178.6476
  0
VERTEX
  8
LAYER_35
 10
151.7522
 20
-179.271
  0
SEQEND
  0
POLYLINE
  8
LAYER_35
 40
0.1764
 41
0.1764
 66
1
 10
0
 20
0
 30
0
  0
VERTEX
  8
LAYER_35
 10
151.6865
 20
-179.5827
  0
VERTEX
  8
LAYER_35
 10
151.5635
 20
-180.2059
  0
SEQEND
  0
POLYLINE
  8
LAYER_35
 40
0.1764
 41
0.1764
 66
1
 10
0
 20
0
 30
0
  0
VERTEX
  8
LAYER_35
 10
151.4979
 20
-180.5175
  0
VERTEX
  8
LAYER_35
 10
151.3749
 20
-181.141
  0
SEQEND
  0
POLYLINE
  8
LAYER_35
 40
0.1764
 41
0.1764
 66
1
 10
0
 20
0
 30
0
  0
VERTEX
  8
LAYER_35
 10
151.3133
 20
-181.4525
  0
VERTEX
  8
LAYER_35
 10
151.1863
 20
-182.0717
  0
SEQEND
  0
POLYLINE
  8
LAYER_35
 40
0.1764
 41
0.1764
 66
1
 10
0
 20
0
 30
0
  0
VERTEX
  8
LAYER_35
 10
151.1247
 20
-182.3835
  0
VERTEX
  8
LAYER_35
 10
150.9977
 20
-183.0068
  0
SEQEND
  0
POLYLINE
  8
LAYER_35
 40
0.1764
 41
0.1764
 66
1
 10
0
 20
0
 30
0
  0
VERTEX
  8
LAYER_35
 10
150.9361
 20
-183.3186
  0
VERTEX
  8
LAYER_35
 10
150.8131
 20
-183.9418
  0
SEQEND
  0
POLYLINE
  8
LAYER_35
 40
0.1764
 41
0.1764
 66
1
 10
0
 20
0
 30
0
  0
VERTEX
  8
LAYER_35
 10
150.7474
 20
-184.2536
  0
VERTEX
  8
LAYER_35
 10
150.6243
 20
-184.8768
  0
SEQEND
  0
POLYLINE
  8
LAYER_35
 40
0.1764
 41
0.1764
 66
1
 10
0
 20
0
 30
0
  0
VERTEX
  8
LAYER_35
 10
150.5588
 20
-185.1844
  0
VERTEX
  8
LAYER_35
 10
150.4359
 20
-185.8077
  0
SEQEND
  0
POLYLINE
  8
LAYER_35
 40
0.1764
 41
0.1764
 66
1
 10
0
 20
0
 30
0
  0
VERTEX
  8
LAYER_35
 10
150.3743
 20
-186.1194
  0
VERTEX
  8
LAYER_35
 10
150.2473
 20
-186.7428
  0
SEQEND
  0
POLYLINE
  8
LAYER_35
 40
0.1764
 41
0.1764
 66
1
 10
0
 20
0
 30
0
  0
VERTEX
  8
LAYER_35
 10
150.1856
 20
-187.0544
  0
VERTEX
  8
LAYER_35
 10
150.0626
 20
-187.6735
  0
VERTEX
  8
LAYER_35
 10
149.9395
 20
-187.7966
  0
VERTEX
  8
LAYER_35
 10
149.7715
 20
-187.8336
  0
VERTEX
  8
LAYER_35
 10
149.3983
 20
-187.8498
  0
SEQEND
  0
POLYLINE
  8
LAYER_35
 40
0.1764
 41
0.1764
 66
1
 10
0
 20
0
 30
0
  0
VERTEX
  8
LAYER_35
 10
149.0825
 20
-187.8665
  0
VERTEX
  8
LAYER_35
 10
148.4469
 20
-187.891
  0
SEQEND
  0
POLYLINE
  8
LAYER_35
 40
0.1764
 41
0.1764
 66
1
 10
0
 20
0
 30
0
  0
VERTEX
  8
LAYER_35
 10
148.131
 20
-187.9073
  0
VERTEX
  8
LAYER_35
 10
147.4955
 20
-187.932
  0
SEQEND
  0
POLYLINE
  8
LAYER_35
 40
0.1764
 41
0.1764
 66
1
 10
0
 20
0
 30
0
  0
VERTEX
  8
LAYER_35
 10
147.1796
 20
-187.9483
  0
VERTEX
  8
LAYER_35
 10
146.544
 20
-187.973
  0
SEQEND
  0
POLYLINE
  8
LAYER_35
 40
0.1764
 41
0.1764
 66
1
 10
0
 20
0
 30
0
  0
VERTEX
  8
LAYER_35
 10
146.2283
 20
-187.9895
  0
VERTEX
  8
LAYER_35
 10
145.5926
 20
-188.018
  0
SEQEND
  0
POLYLINE
  8
LAYER_35
 40
0.1764
 41
0.1764
 66
1
 10
0
 20
0
 30
0
  0
VERTEX
  8
LAYER_35
 10
145.2769
 20
-188.0303
  0
VERTEX
  8
LAYER_35
 10
144.6413
 20
-188.0592
  0
SEQEND
  0
POLYLINE
  8
LAYER_35
 40
0.1764
 41
0.1764
 66
1
 10
0
 20
0
 30
0
  0
VERTEX
  8
LAYER_35
 10
144.3255
 20
-188.0715
  0
VERTEX
  8
LAYER_35
 10
143.69
 20
-188.1
  0
SEQEND
  0
POLYLINE
  8
LAYER_35
 40
0.1764
 41
0.1764
 66
1
 10
0
 20
0
 30
0
  0
VERTEX
  8
LAYER_35
 10
143.3741
 20
-188.1125
  0
VERTEX
  8
LAYER_35
 10
142.7385
 20
-188.141
  0
SEQEND
  0
POLYLINE
  8
LAYER_35
 40
0.1764
 41
0.1764
 66
1
 10
0
 20
0
 30
0
  0
VERTEX
  8
LAYER_35
 10
142.4228
 20
-188.1533
  0
VERTEX
  8
LAYER_35
 10
141.787
 20
-188.1822
  0
SEQEND
  0
POLYLINE
  8
LAYER_35
 40
0.1764
 41
0.1764
 66
1
 10
0
 20
0
 30
0
  0
VERTEX
  8
LAYER_35
 10
141.4673
 20
-188.1944
  0
VERTEX
  8
LAYER_35
 10
140.8356
 20
-188.223
  0
SEQEND
  0
POLYLINE
  8
LAYER_35
 40
0.1764
 41
0.1764
 66
1
 10
0
 20
0
 30
0
  0
VERTEX
  8
LAYER_35
 10
140.5157
 20
-188.2355
  0
VERTEX
  8
LAYER_35
 10
139.8844
 20
-188.2642
  0
SEQEND
  0
POLYLINE
  8
LAYER_35
 40
0.1764
 41
0.1764
 66
1
 10
0
 20
0
 30
0
  0
VERTEX
  8
LAYER_35
 10
139.5644
 20
-188.2763
  0
VERTEX
  8
LAYER_35
 10
138.9329
 20
-188.3052
  0
SEQEND
  0
POLYLINE
  8
LAYER_35
 40
0.1764
 41
0.1764
 66
1
 10
0
 20
0
 30
0
  0
VERTEX
  8
LAYER_35
 10
138.613
 20
-188.3175
  0
VERTEX
  8
LAYER_35
 10
137.9815
 20
-188.346
  0
SEQEND
  0
POLYLINE
  8
LAYER_35
 40
0.1764
 41
0.1764
 66
1
 10
0
 20
0
 30
0
  0
VERTEX
  8
LAYER_35
 10
137.6617
 20
-188.3586
  0
VERTEX
  8
LAYER_35
 10
137.0301
 20
-188.3871
  0
SEQEND
  0
POLYLINE
  8
LAYER_35
 40
0.1764
 41
0.1764
 66
1
 10
0
 20
0
 30
0
  0
VERTEX
  8
LAYER_35
 10
136.7102
 20
-188.3993
  0
VERTEX
  8
LAYER_35
 10
136.3372
 20
-188.4159
  0
VERTEX
  8
LAYER_35
 10
136.0132
 20
-188.5553
  0
VERTEX
  8
LAYER_35
 10
135.8572
 20
-188.871
  0
VERTEX
  8
LAYER_35
 10
135.8039
 20
-189.4944
  0
SEQEND
  0
POLYLINE
  8
LAYER_35
 40
0.1764
 41
0.1764
 66
1
 10
0
 20
0
 30
0
  0
VERTEX
  8
LAYER_35
 10
135.7753
 20
-189.8103
  0
VERTEX
  8
LAYER_35
 10
135.7178
 20
-190.4295
  0
VERTEX
  8
LAYER_35
 10
135.6317
 20
-190.6138
  0
VERTEX
  8
LAYER_35
 10
135.4471
 20
-190.7001
  0
VERTEX
  8
LAYER_35
 10
134.832
 20
-190.7616
  0
SEQEND
  0
POLYLINE
  8
LAYER_35
 40
0.1764
 41
0.1764
 66
1
 10
0
 20
0
 30
0
  0
VERTEX
  8
LAYER_35
 10
134.5163
 20
-190.7902
  0
VERTEX
  8
LAYER_35
 10
133.9013
 20
-190.8519
  0
VERTEX
  8
LAYER_35
 10
133.7043
 20
-190.9461
  0
VERTEX
  8
LAYER_35
 10
133.6263
 20
-191.1471
  0
VERTEX
  8
LAYER_35
 10
133.6263
 20
-191.873
  0
SEQEND
  0
POLYLINE
  8
LAYER_35
 40
0.1764
 41
0.1764
 66
1
 10
0
 20
0
 30
0
  0
VERTEX
  8
LAYER_35
 10
133.6263
 20
-192.1928
  0
VERTEX
  8
LAYER_35
 10
133.6263
 20
-192.9187
  0
SEQEND
  0
ENDBLK
  0
BLOCK
  8
LAYER_35
  2
AIGNBL23020007
 70
64
 10
0
 20
0
 30
0
  3
AIGNBL23020007
  0
POLYLINE
  8
LAYER_35
 40
0.1764
 41
0.1764
 62
252
 66
1
 10
0
 20
0
 30
0
  0
VERTEX
  8
LAYER_35
 10
101.6939
 20
-87.7416
  0
VERTEX
  8
LAYER_35
 10
181.6935
 20
-87.7416
  0
VERTEX
  8
LAYER_35
 10
181.6935
 20
-133.4415
  0
VERTEX
  8
LAYER_35
 10
181.6033
 20
-133.6548
  0
VERTEX
  8
LAYER_35
 10
181.39
 20
-133.741
  0
VERTEX
  8
LAYER_35
 10
101.9932
 20
-133.741
  0
VERTEX
  8
LAYER_35
 10
101.7801
 20
-133.6548
  0
VERTEX
  8
LAYER_35
 10
101.6939
 20
-133.4415
  0
VERTEX
  8
LAYER_35
 10
101.6939
 20
-87.7416
  0
SEQEND
  0
ENDBLK
  0
BLOCK
  8
LAYER_35
  2
AIGNBL23020008
 70
64
 10
0
 20
0
 30
0
  3
AIGNBL23020008
  0
POLYLINE
  8
LAYER_35
 40
0.1764
 41
0.1764
 66
1
 10
0
 20
0
 30
0
  0
VERTEX
  8
LAYER_35
 10
133.3777
 20
-94.224
 42
0.414214286
  0
VERTEX
  8
LAYER_35
 10
131.6419
 20
-92.4882
 42
0.4142182833
  0
VERTEX
  8
LAYER_35
 10
129.9061
 20
-94.224
 42
0.4142128387
  0
VERTEX
  8
LAYER_35
 10
131.6419
 20
-95.9598
 42
0.4142088418
  0
VERTEX
  8
LAYER_35
 10
133.3777
 20
-94.224
  0
SEQEND
  0
ENDBLK
  0
BLOCK
  8
LAYER_35
  2
AIGNBL23020009
 70
64
 10
0
 20
0
 30
0
  3
AIGNBL23020009
  0
POLYLINE
  8
LAYER_35
 40
0.1764
 41
0.1764
 66
1
 10
0
 20
0
 30
0
  0
VERTEX
  8
LAYER_35
 10
135.64
 20
-108.734
 42
0.4142128878
  0
VERTEX
  8
LAYER_35
 10
131.642
 20
-104.736
 42
0.4142172291
  0
VERTEX
  8
LAYER_35
 10
127.644
 20
-108.734
 42
0.4142142369
  0
VERTEX
  8
LAYER_35
 10
131.642
 20
-112.732
 42
0.414209896
  0
VERTEX
  8
LAYER_35
 10
135.64
 20
-108.734
  0
SEQEND
  0
POLYLINE
  8
LAYER_35
 40
0.1764
 41
0.1764
 66
1
 10
0
 20
0
 30
0
  0
VERTEX
  8
LAYER_35
 10
133.8848
 20
-108.734
 42
0.4142100372
  0
VERTEX
  8
LAYER_35
 10
131.6421
 20
-106.4913
 42
0.4142224212
  0
VERTEX
  8
LAYER_35
 10
129.3993
 20
-108.734
 42
0.4142170875
  0
VERTEX
  8
LAYER_35
 10
131.6421
 20
-110.9767
 42
0.414204704
  0
VERTEX
  8
LAYER_35
 10
133.8848
 20
-108.734
  0
SEQEND
  0
ENDBLK
  0
BLOCK
  8
LAYER_2
  2
AIGNBL02010002
 70
64
 10
0
 20
0
 30
0
  3
AIGNBL02010002
  0
INSERT
  8
LAYER_2
  2
AIGNBL02020003
 10
0
 20
0
 30
0
  0
INSERT
  8
LAYER_2
  2
AIGNBL02020004
 10
0
 20
0
 30
0
  0
INSERT
  8
LAYER_2
  2
AIGNBL02020005
 10
0
 20
0
 30
0
  0
INSERT
  8
LAYER_2
  2
AIGNBL02020006
 10
0
 20
0
 30
0
  0
INSERT
  8
LAYER_2
  2
AIGNBL02020007
 10
0
 20
0
 30
0
  0
INSERT
  8
LAYER_2
  2
AIGNBL02020008
 10
0
 20
0
 30
0
  0
INSERT
  8
LAYER_2
  2
AIGNBL02020009
 10
0
 20
0
 30
0
  0
INSERT
  8
LAYER_2
  2
AIGNBL0202000A
 10
0
 20
0
 30
0
  0
INSERT
  8
LAYER_2
  2
AIGNBL0202000B
 10
0
 20
0
 30
0
  0
INSERT
  8
LAYER_2
  2
AIGNBL0202000C
 10
0
 20
0
 30
0
  0
INSERT
  8
LAYER_2
  2
AIGNBL0202000D
 10
0
 20
0
 30
0
  0
INSERT
  8
LAYER_2
  2
AIGNBL0202000E
 10
0
 20
0
 30
0
  0
INSERT
  8
LAYER_2
  2
AIGNBL0202000F
 10
0
 20
0
 30
0
  0
INSERT
  8
LAYER_2
  2
AIGNBL02020010
 10
0
 20
0
 30
0
  0
INSERT
  8
LAYER_2
  2
AIGNBL02020011
 10
0
 20
0
 30
0
  0
INSERT
  8
LAYER_2
  2
AIGNBL02020012
 10
0
 20
0
 30
0
  0
INSERT
  8
LAYER_2
  2
AIGNBL02020013
 10
0
 20
0
 30
0
  0
INSERT
  8
LAYER_2
  2
AIGNBL02020014
 10
0
 20
0
 30
0
  0
INSERT
  8
LAYER_2
  2
AIGNBL02020015
 10
0
 20
0
 30
0
  0
INSERT
  8
LAYER_2
  2
AIGNBL02020016
 10
0
 20
0
 30
0
  0
INSERT
  8
LAYER_2
  2
AIGNBL02020017
 10
0
 20
0
 30
0
  0
INSERT
  8
LAYER_2
  2
AIGNBL02020018
 10
0
 20
0
 30
0
  0
INSERT
  8
LAYER_2
  2
AIGNBL02020019
 10
0
 20
0
 30
0
  0
INSERT
  8
LAYER_2
  2
AIGNBL0202001A
 10
0
 20
0
 30
0
  0
INSERT
  8
LAYER_2
  2
AIGNBL0202001B
 10
0
 20
0
 30
0
  0
INSERT
  8
LAYER_2
  2
AIGNBL0202001C
 10
0
 20
0
 30
0
  0
INSERT
  8
LAYER_2
  2
AIGNBL0202001D
 10
0
 20
0
 30
0
  0
INSERT
  8
LAYER_2
  2
AIGNBL0202001E
 10
0
 20
0
 30
0
  0
INSERT
  8
LAYER_2
  2
AIGNBL0202001F
 10
0
 20
0
 30
0
  0
INSERT
  8
LAYER_2
  2
AIGNBL02020020
 10
0
 20
0
 30
0
  0
INSERT
  8
LAYER_2
  2
AIGNBL02020021
 10
0
 20
0
 30
0
  0
INSERT
  8
LAYER_2
  2
AIGNBL02020022
 10
0
 20
0
 30
0
  0
INSERT
  8
LAYER_2
  2
AIGNBL02020023
 10
0
 20
0
 30
0
  0
INSERT
  8
LAYER_2
  2
AIGNBL02020024
 10
0
 20
0
 30
0
  0
INSERT
  8
LAYER_2
  2
AIGNBL02020025
 10
0
 20
0
 30
0
  0
INSERT
  8
LAYER_2
  2
AIGNBL02020026
 10
0
 20
0
 30
0
  0
INSERT
  8
LAYER_2
  2
AIGNBL02020027
 10
0
 20
0
 30
0
  0
INSERT
  8
LAYER_2
  2
AIGNBL02020028
 10
0
 20
0
 30
0
  0
INSERT
  8
LAYER_2
  2
AIGNBL02020029
 10
0
 20
0
 30
0
  0
INSERT
  8
LAYER_2
  2
AIGNBL0202002A
 10
0
 20
0
 30
0
  0
INSERT
  8
LAYER_2
  2
AIGNBL0202002B
 10
0
 20
0
 30
0
  0
INSERT
  8
LAYER_2
  2
AIGNBL0202002C
 10
0
 20
0
 30
0
  0
INSERT
  8
LAYER_2
  2
AIGNBL0202002D
 10
0
 20
0
 30
0
  0
INSERT
  8
LAYER_2
  2
AIGNBL0202002E
 10
0
 20
0
 30
0
  0
INSERT
  8
LAYER_2
  2
AIGNBL0202002F
 10
0
 20
0
 30
0
  0
INSERT
  8
LAYER_2
  2
AIGNBL02020030
 10
0
 20
0
 30
0
  0
INSERT
  8
LAYER_2
  2
AIGNBL02020031
 10
0
 20
0
 30
0
  0
INSERT
  8
LAYER_2
  2
AIGNBL02020032
 10
0
 20
0
 30
0
  0
INSERT
  8
LAYER_2
  2
AIGNBL02020033
 10
0
 20
0
 30
0
  0
INSERT
  8
LAYER_2
  2
AIGNBL02020034
 10
0
 20
0
 30
0
  0
INSERT
  8
LAYER_2
  2
AIGNBL02020035
 10
0
 20
0
 30
0
  0
INSERT
  8
LAYER_2
  2
AIGNBL02020036
 10
0
 20
0
 30
0
  0
INSERT
  8
LAYER_2
  2
AIGNBL02020037
 10
0
 20
0
 30
0
  0
INSERT
  8
LAYER_2
  2
AIGNBL02020038
 10
0
 20
0
 30
0
  0
INSERT
  8
LAYER_2
  2
AIGNBL02020039
 10
0
 20
0
 30
0
  0
INSERT
  8
LAYER_2
  2
AIGNBL0202003A
 10
0
 20
0
 30
0
  0
INSERT
  8
LAYER_2
  2
AIGNBL0202003B
 10
0
 20
0
 30
0
  0
INSERT
  8
LAYER_2
  2
AIGNBL0202003C
 10
0
 20
0
 30
0
  0
INSERT
  8
LAYER_2
  2
AIGNBL0202003D
 10
0
 20
0
 30
0
  0
INSERT
  8
LAYER_2
  2
AIGNBL0202003E
 10
0
 20
0
 30
0
  0
INSERT
  8
LAYER_2
  2
AIGNBL0202003F
 10
0
 20
0
 30
0
  0
INSERT
  8
LAYER_2
  2
AIGNBL02020040
 10
0
 20
0
 30
0
  0
INSERT
  8
LAYER_2
  2
AIGNBL02020041
 10
0
 20
0
 30
0
  0
INSERT
  8
LAYER_2
  2
AIGNBL02020042
 10
0
 20
0
 30
0
  0
INSERT
  8
LAYER_2
  2
AIGNBL02020043
 10
0
 20
0
 30
0
  0
INSERT
  8
LAYER_2
  2
AIGNBL02020044
 10
0
 20
0
 30
0
  0
INSERT
  8
LAYER_2
  2
AIGNBL02020045
 10
0
 20
0
 30
0
  0
INSERT
  8
LAYER_2
  2
AIGNBL02020046
 10
0
 20
0
 30
0
  0
INSERT
  8
LAYER_2
  2
AIGNBL02020047
 10
0
 20
0
 30
0
  0
INSERT
  8
LAYER_2
  2
AIGNBL02020048
 10
0
 20
0
 30
0
  0
INSERT
  8
LAYER_2
  2
AIGNBL02020049
 10
0
 20
0
 30
0
  0
INSERT
  8
LAYER_2
  2
AIGNBL0202004A
 10
0
 20
0
 30
0
  0
INSERT
  8
LAYER_2
  2
AIGNBL0202004B
 10
0
 20
0
 30
0
  0
INSERT
  8
LAYER_2
  2
AIGNBL0202004C
 10
0
 20
0
 30
0
  0
INSERT
  8
LAYER_2
  2
AIGNBL0202004D
 10
0
 20
0
 30
0
  0
INSERT
  8
LAYER_2
  2
AIGNBL0202004E
 10
0
 20
0
 30
0
  0
INSERT
  8
LAYER_2
  2
AIGNBL0202004F
 10
0
 20
0
 30
0
  0
INSERT
  8
LAYER_2
  2
AIGNBL02020050
 10
0
 20
0
 30
0
  0
INSERT
  8
LAYER_2
  2
AIGNBL02020051
 10
0
 20
0
 30
0
  0
INSERT
  8
LAYER_2
  2
AIGNBL02020052
 10
0
 20
0
 30
0
  0
INSERT
  8
LAYER_2
  2
AIGNBL02020053
 10
0
 20
0
 30
0
  0
INSERT
  8
LAYER_2
  2
AIGNBL02020054
 10
0
 20
0
 30
0
  0
INSERT
  8
LAYER_2
  2
AIGNBL02020055
 10
0
 20
0
 30
0
  0
INSERT
  8
LAYER_2
  2
AIGNBL02020056
 10
0
 20
0
 30
0
  0
INSERT
  8
LAYER_2
  2
AIGNBL02020057
 10
0
 20
0
 30
0
  0
INSERT
  8
LAYER_2
  2
AIGNBL02020058
 10
0
 20
0
 30
0
  0
INSERT
  8
LAYER_2
  2
AIGNBL02020059
 10
0
 20
0
 30
0
  0
INSERT
  8
LAYER_2
  2
AIGNBL0202005A
 10
0
 20
0
 30
0
  0
INSERT
  8
LAYER_2
  2
AIGNBL0202005B
 10
0
 20
0
 30
0
  0
INSERT
  8
LAYER_2
  2
AIGNBL0202005C
 10
0
 20
0
 30
0
  0
INSERT
  8
LAYER_2
  2
AIGNBL0202005D
 10
0
 20
0
 30
0
  0
INSERT
  8
LAYER_2
  2
AIGNBL0202005E
 10
0
 20
0
 30
0
  0
INSERT
  8
LAYER_2
  2
AIGNBL0202005F
 10
0
 20
0
 30
0
  0
INSERT
  8
LAYER_2
  2
AIGNBL02020060
 10
0
 20
0
 30
0
  0
INSERT
  8
LAYER_2
  2
AIGNBL02020061
 10
0
 20
0
 30
0
  0
INSERT
  8
LAYER_2
  2
AIGNBL02020062
 10
0
 20
0
 30
0
  0
INSERT
  8
LAYER_2
  2
AIGNBL02020063
 10
0
 20
0
 30
0
  0
INSERT
  8
LAYER_2
  2
AIGNBL02020064
 10
0
 20
0
 30
0
  0
INSERT
  8
LAYER_2
  2
AIGNBL02020065
 10
0
 20
0
 30
0
  0
INSERT
  8
LAYER_2
  2
AIGNBL02020066
 10
0
 20
0
 30
0
  0
INSERT
  8
LAYER_2
  2
AIGNBL02020067
 10
0
 20
0
 30
0
  0
INSERT
  8
LAYER_2
  2
AIGNBL02020068
 10
0
 20
0
 30
0
  0
INSERT
  8
LAYER_2
  2
AIGNBL02020069
 10
0
 20
0
 30
0
  0
INSERT
  8
LAYER_2
  2
AIGNBL0202006A
 10
0
 20
0
 30
0
  0
INSERT
  8
LAYER_2
  2
AIGNBL0202006B
 10
0
 20
0
 30
0
  0
INSERT
  8
LAYER_2
  2
AIGNBL0202006C
 10
0
 20
0
 30
0
  0
INSERT
  8
LAYER_2
  2
AIGNBL0202006D
 10
0
 20
0
 30
0
  0
INSERT
  8
LAYER_2
  2
AIGNBL0202006E
 10
0
 20
0
 30
0
  0
INSERT
  8
LAYER_2
  2
AIGNBL0202006F
 10
0
 20
0
 30
0
  0
INSERT
  8
LAYER_2
  2
AIGNBL02020070
 10
0
 20
0
 30
0
  0
INSERT
  8
LAYER_2
  2
AIGNBL02020071
 10
0
 20
0
 30
0
  0
INSERT
  8
LAYER_2
  2
AIGNBL02020072
 10
0
 20
0
 30
0
  0
INSERT
  8
LAYER_2
  2
AIGNBL02020073
 10
0
 20
0
 30
0
  0
INSERT
  8
LAYER_2
  2
AIGNBL02020074
 10
0
 20
0
 30
0
  0
INSERT
  8
LAYER_2
  2
AIGNBL02020075
 10
0
 20
0
 30
0
  0
INSERT
  8
LAYER_2
  2
AIGNBL02020076
 10
0
 20
0
 30
0
  0
INSERT
  8
LAYER_2
  2
AIGNBL02020077
 10
0
 20
0
 30
0
  0
INSERT
  8
LAYER_2
  2
AIGNBL02020078
 10
0
 20
0
 30
0
  0
INSERT
  8
LAYER_2
  2
AIGNBL02020079
 10
0
 20
0
 30
0
  0
INSERT
  8
LAYER_2
  2
AIGNBL0202007A
 10
0
 20
0
 30
0
  0
INSERT
  8
LAYER_2
  2
AIGNBL0202007B
 10
0
 20
0
 30
0
  0
INSERT
  8
LAYER_2
  2
AIGNBL0202007C
 10
0
 20
0
 30
0
  0
INSERT
  8
LAYER_2
  2
AIGNBL0202007D
 10
0
 20
0
 30
0
  0
INSERT
  8
LAYER_2
  2
AIGNBL0202007E
 10
0
 20
0
 30
0
  0
INSERT
  8
LAYER_2
  2
AIGNBL0202007F
 10
0
 20
0
 30
0
  0
INSERT
  8
LAYER_2
  2
AIGNBL02020080
 10
0
 20
0
 30
0
  0
INSERT
  8
LAYER_2
  2
AIGNBL02020081
 10
0
 20
0
 30
0
  0
INSERT
  8
LAYER_2
  2
AIGNBL02020082
 10
0
 20
0
 30
0
  0
INSERT
  8
LAYER_2
  2
AIGNBL02020083
 10
0
 20
0
 30
0
  0
INSERT
  8
LAYER_2
  2
AIGNBL02020084
 10
0
 20
0
 30
0
  0
INSERT
  8
LAYER_2
  2
AIGNBL02020085
 10
0
 20
0
 30
0
  0
INSERT
  8
LAYER_2
  2
AIGNBL02020086
 10
0
 20
0
 30
0
  0
INSERT
  8
LAYER_2
  2
AIGNBL02020087
 10
0
 20
0
 30
0
  0
INSERT
  8
LAYER_2
  2
AIGNBL02020088
 10
0
 20
0
 30
0
  0
INSERT
  8
LAYER_2
  2
AIGNBL02020089
 10
0
 20
0
 30
0
  0
INSERT
  8
LAYER_2
  2
AIGNBL0202008A
 10
0
 20
0
 30
0
  0
INSERT
  8
LAYER_2
  2
AIGNBL0202008B
 10
0
 20
0
 30
0
  0
INSERT
  8
LAYER_2
  2
AIGNBL0202008C
 10
0
 20
0
 30
0
  0
INSERT
  8
LAYER_2
  2
AIGNBL0202008D
 10
0
 20
0
 30
0
  0
INSERT
  8
LAYER_2
  2
AIGNBL0202008E
 10
0
 20
0
 30
0
  0
INSERT
  8
LAYER_2
  2
AIGNBL0202008F
 10
0
 20
0
 30
0
  0
INSERT
  8
LAYER_2
  2
AIGNBL02020090
 10
0
 20
0
 30
0
  0
INSERT
  8
LAYER_2
  2
AIGNBL02020091
 10
0
 20
0
 30
0
  0
INSERT
  8
LAYER_2
  2
AIGNBL02020092
 10
0
 20
0
 30
0
  0
INSERT
  8
LAYER_2
  2
AIGNBL02020093
 10
0
 20
0
 30
0
  0
INSERT
  8
LAYER_2
  2
AIGNBL02020094
 10
0
 20
0
 30
0
  0
INSERT
  8
LAYER_2
  2
AIGNBL02020095
 10
0
 20
0
 30
0
  0
INSERT
  8
LAYER_2
  2
AIGNBL02020096
 10
0
 20
0
 30
0
  0
INSERT
  8
LAYER_2
  2
AIGNBL02020097
 10
0
 20
0
 30
0
  0
INSERT
  8
LAYER_2
  2
AIGNBL02020098
 10
0
 20
0
 30
0
  0
INSERT
  8
LAYER_2
  2
AIGNBL02020099
 10
0
 20
0
 30
0
  0
INSERT
  8
LAYER_2
  2
AIGNBL0202009A
 10
0
 20
0
 30
0
  0
INSERT
  8
LAYER_2
  2
AIGNBL0202009B
 10
0
 20
0
 30
0
  0
INSERT
  8
LAYER_2
  2
AIGNBL0202009C
 10
0
 20
0
 30
0
  0
INSERT
  8
LAYER_2
  2
AIGNBL0202009D
 10
0
 20
0
 30
0
  0
INSERT
  8
LAYER_2
  2
AIGNBL0202009E
 10
0
 20
0
 30
0
  0
ENDBLK
  0
BLOCK
  8
LAYER_2
  2
AIGNBL0201009F
 70
64
 10
0
 20
0
 30
0
  3
AIGNBL0201009F
  0
POLYLINE
  8
LAYER_2
 40
0.1764
 41
0.1764
 66
1
 10
0
 20
0
 30
0
  0
VERTEX
  8
LAYER_2
 10
217.0071
 20
-192.9252
  0
VERTEX
  8
LAYER_2
 10
218.1773
 20
-192.9252
  0
SEQEND
  0
POLYLINE
  8
LAYER_2
 40
0.1764
 41
0.1764
 66
1
 10
0
 20
0
 30
0
  0
VERTEX
  8
LAYER_2
 10
234.4452
 20
-175.6041
  0
VERTEX
  8
LAYER_2
 10
234.4452
 20
-172.9126
  0
SEQEND
  0
POLYLINE
  8
LAYER_2
 40
0.1764
 41
0.1764
 66
1
 10
0
 20
0
 30
0
  0
VERTEX
  8
LAYER_2
 10
234.4452
 20
-175.6431
  0
VERTEX
  8
LAYER_2
 10
234.4452
 20
-173.0295
  0
SEQEND
  0
INSERT
  8
LAYER_2
  2
AIGNBL020200A0
 10
0
 20
0
 30
0
  0
INSERT
  8
LAYER_2
  2
AIGNBL020200A1
 10
0
 20
0
 30
0
  0
INSERT
  8
LAYER_2
  2
AIGNBL020200A2
 10
0
 20
0
 30
0
  0
INSERT
  8
LAYER_2
  2
AIGNBL020200A3
 10
0
 20
0
 30
0
  0
ENDBLK
  0
BLOCK
  8
LAYER_2
  2
AIGNBL020100A4
 70
64
 10
0
 20
0
 30
0
  3
AIGNBL020100A4
  0
INSERT
  8
LAYER_2
  2
AIGNBL020200A5
 10
0
 20
0
 30
0
  0
INSERT
  8
LAYER_2
  2
AIGNBL020200A6
 10
0
 20
0
 30
0
  0
INSERT
  8
LAYER_2
  2
AIGNBL020200A7
 10
0
 20
0
 30
0
  0
INSERT
  8
LAYER_2
  2
AIGNBL020200A8
 10
0
 20
0
 30
0
  0
INSERT
  8
LAYER_2
  2
AIGNBL020200A9
 10
0
 20
0
 30
0
  0
INSERT
  8
LAYER_2
  2
AIGNBL020200AA
 10
0
 20
0
 30
0
  0
INSERT
  8
LAYER_2
  2
AIGNBL020200AB
 10
0
 20
0
 30
0
  0
INSERT
  8
LAYER_2
  2
AIGNBL020200AC
 10
0
 20
0
 30
0
  0
INSERT
  8
LAYER_2
  2
AIGNBL020200AD
 10
0
 20
0
 30
0
  0
INSERT
  8
LAYER_2
  2
AIGNBL020200AE
 10
0
 20
0
 30
0
  0
INSERT
  8
LAYER_2
  2
AIGNBL020200AF
 10
0
 20
0
 30
0
  0
INSERT
  8
LAYER_2
  2
AIGNBL020200B0
 10
0
 20
0
 30
0
  0
INSERT
  8
LAYER_2
  2
AIGNBL020200B1
 10
0
 20
0
 30
0
  0
INSERT
  8
LAYER_2
  2
AIGNBL020200B2
 10
0
 20
0
 30
0
  0
INSERT
  8
LAYER_2
  2
AIGNBL020200B3
 10
0
 20
0
 30
0
  0
INSERT
  8
LAYER_2
  2
AIGNBL020200B4
 10
0
 20
0
 30
0
  0
INSERT
  8
LAYER_2
  2
AIGNBL020200B5
 10
0
 20
0
 30
0
  0
INSERT
  8
LAYER_2
  2
AIGNBL020200B6
 10
0
 20
0
 30
0
  0
INSERT
  8
LAYER_2
  2
AIGNBL020200B7
 10
0
 20
0
 30
0
  0
INSERT
  8
LAYER_2
  2
AIGNBL020200B8
 10
0
 20
0
 30
0
  0
INSERT
  8
LAYER_2
  2
AIGNBL020200B9
 10
0
 20
0
 30
0
  0
INSERT
  8
LAYER_2
  2
AIGNBL020200BA
 10
0
 20
0
 30
0
  0
INSERT
  8
LAYER_2
  2
AIGNBL020200BB
 10
0
 20
0
 30
0
  0
INSERT
  8
LAYER_2
  2
AIGNBL020200BC
 10
0
 20
0
 30
0
  0
INSERT
  8
LAYER_2
  2
AIGNBL020200BD
 10
0
 20
0
 30
0
  0
INSERT
  8
LAYER_2
  2
AIGNBL020200BE
 10
0
 20
0
 30
0
  0
INSERT
  8
LAYER_2
  2
AIGNBL020200BF
 10
0
 20
0
 30
0
  0
INSERT
  8
LAYER_2
  2
AIGNBL020200C0
 10
0
 20
0
 30
0
  0
INSERT
  8
LAYER_2
  2
AIGNBL020200C1
 10
0
 20
0
 30
0
  0
INSERT
  8
LAYER_2
  2
AIGNBL020200C2
 10
0
 20
0
 30
0
  0
INSERT
  8
LAYER_2
  2
AIGNBL020200C3
 10
0
 20
0
 30
0
  0
INSERT
  8
LAYER_2
  2
AIGNBL020200C4
 10
0
 20
0
 30
0
  0
INSERT
  8
LAYER_2
  2
AIGNBL020200C5
 10
0
 20
0
 30
0
  0
INSERT
  8
LAYER_2
  2
AIGNBL020200C6
 10
0
 20
0
 30
0
  0
INSERT
  8
LAYER_2
  2
AIGNBL020200C7
 10
0
 20
0
 30
0
  0
INSERT
  8
LAYER_2
  2
AIGNBL020200C8
 10
0
 20
0
 30
0
  0
INSERT
  8
LAYER_2
  2
AIGNBL020200C9
 10
0
 20
0
 30
0
  0
INSERT
  8
LAYER_2
  2
AIGNBL020200CA
 10
0
 20
0
 30
0
  0
INSERT
  8
LAYER_2
  2
AIGNBL020200CB
 10
0
 20
0
 30
0
  0
INSERT
  8
LAYER_2
  2
AIGNBL020200CC
 10
0
 20
0
 30
0
  0
INSERT
  8
LAYER_2
  2
AIGNBL020200CD
 10
0
 20
0
 30
0
  0
INSERT
  8
LAYER_2
  2
AIGNBL020200CE
 10
0
 20
0
 30
0
  0
INSERT
  8
LAYER_2
  2
AIGNBL020200CF
 10
0
 20
0
 30
0
  0
INSERT
  8
LAYER_2
  2
AIGNBL020200D0
 10
0
 20
0
 30
0
  0
INSERT
  8
LAYER_2
  2
AIGNBL020200D1
 10
0
 20
0
 30
0
  0
INSERT
  8
LAYER_2
  2
AIGNBL020200D2
 10
0
 20
0
 30
0
  0
INSERT
  8
LAYER_2
  2
AIGNBL020200D3
 10
0
 20
0
 30
0
  0
INSERT
  8
LAYER_2
  2
AIGNBL020200D4
 10
0
 20
0
 30
0
  0
INSERT
  8
LAYER_2
  2
AIGNBL020200D5
 10
0
 20
0
 30
0
  0
INSERT
  8
LAYER_2
  2
AIGNBL020200D6
 10
0
 20
0
 30
0
  0
INSERT
  8
LAYER_2
  2
AIGNBL020200D7
 10
0
 20
0
 30
0
  0
INSERT
  8
LAYER_2
  2
AIGNBL020200D8
 10
0
 20
0
 30
0
  0
INSERT
  8
LAYER_2
  2
AIGNBL020200D9
 10
0
 20
0
 30
0
  0
INSERT
  8
LAYER_2
  2
AIGNBL020200DA
 10
0
 20
0
 30
0
  0
INSERT
  8
LAYER_2
  2
AIGNBL020200DB
 10
0
 20
0
 30
0
  0
INSERT
  8
LAYER_2
  2
AIGNBL020200DC
 10
0
 20
0
 30
0
  0
INSERT
  8
LAYER_2
  2
AIGNBL020200DD
 10
0
 20
0
 30
0
  0
INSERT
  8
LAYER_2
  2
AIGNBL020200DE
 10
0
 20
0
 30
0
  0
INSERT
  8
LAYER_2
  2
AIGNBL020200DF
 10
0
 20
0
 30
0
  0
INSERT
  8
LAYER_2
  2
AIGNBL020200E0
 10
0
 20
0
 30
0
  0
INSERT
  8
LAYER_2
  2
AIGNBL020200E1
 10
0
 20
0
 30
0
  0
INSERT
  8
LAYER_2
  2
AIGNBL020200E2
 10
0
 20
0
 30
0
  0
INSERT
  8
LAYER_2
  2
AIGNBL020200E3
 10
0
 20
0
 30
0
  0
INSERT
  8
LAYER_2
  2
AIGNBL020200E4
 10
0
 20
0
 30
0
  0
INSERT
  8
LAYER_2
  2
AIGNBL020200E5
 10
0
 20
0
 30
0
  0
INSERT
  8
LAYER_2
  2
AIGNBL020200E6
 10
0
 20
0
 30
0
  0
INSERT
  8
LAYER_2
  2
AIGNBL020200E7
 10
0
 20
0
 30
0
  0
INSERT
  8
LAYER_2
  2
AIGNBL020200E8
 10
0
 20
0
 30
0
  0
INSERT
  8
LAYER_2
  2
AIGNBL020200E9
 10
0
 20
0
 30
0
  0
INSERT
  8
LAYER_2
  2
AIGNBL020200EA
 10
0
 20
0
 30
0
  0
INSERT
  8
LAYER_2
  2
AIGNBL020200EB
 10
0
 20
0
 30
0
  0
INSERT
  8
LAYER_2
  2
AIGNBL020200EC
 10
0
 20
0
 30
0
  0
INSERT
  8
LAYER_2
  2
AIGNBL020200ED
 10
0
 20
0
 30
0
  0
INSERT
  8
LAYER_2
  2
AIGNBL020200EE
 10
0
 20
0
 30
0
  0
INSERT
  8
LAYER_2
  2
AIGNBL020200EF
 10
0
 20
0
 30
0
  0
INSERT
  8
LAYER_2
  2
AIGNBL020200F0
 10
0
 20
0
 30
0
  0
INSERT
  8
LAYER_2
  2
AIGNBL020200F1
 10
0
 20
0
 30
0
  0
INSERT
  8
LAYER_2
  2
AIGNBL020200F2
 10
0
 20
0
 30
0
  0
INSERT
  8
LAYER_2
  2
AIGNBL020200F3
 10
0
 20
0
 30
0
  0
INSERT
  8
LAYER_2
  2
AIGNBL020200F4
 10
0
 20
0
 30
0
  0
INSERT
  8
LAYER_2
  2
AIGNBL020200F5
 10
0
 20
0
 30
0
  0
INSERT
  8
LAYER_2
  2
AIGNBL020200F6
 10
0
 20
0
 30
0
  0
INSERT
  8
LAYER_2
  2
AIGNBL020200F7
 10
0
 20
0
 30
0
  0
INSERT
  8
LAYER_2
  2
AIGNBL020200F8
 10
0
 20
0
 30
0
  0
INSERT
  8
LAYER_2
  2
AIGNBL020200F9
 10
0
 20
0
 30
0
  0
INSERT
  8
LAYER_2
  2
AIGNBL020200FA
 10
0
 20
0
 30
0
  0
INSERT
  8
LAYER_2
  2
AIGNBL020200FB
 10
0
 20
0
 30
0
  0
INSERT
  8
LAYER_2
  2
AIGNBL020200FC
 10
0
 20
0
 30
0
  0
INSERT
  8
LAYER_2
  2
AIGNBL020200FD
 10
0
 20
0
 30
0
  0
INSERT
  8
LAYER_2
  2
AIGNBL020200FE
 10
0
 20
0
 30
0
  0
INSERT
  8
LAYER_2
  2
AIGNBL020200FF
 10
0
 20
0
 30
0
  0
ENDBLK
  0
BLOCK
  8
LAYER_2
  2
AIGNBL02010100
 70
64
 10
0
 20
0
 30
0
  3
AIGNBL02010100
  0
INSERT
  8
LAYER_2
  2
AIGNBL02020101
 10
0
 20
0
 30
0
  0
INSERT
  8
LAYER_2
  2
AIGNBL02020102
 10
0
 20
0
 30
0
  0
INSERT
  8
LAYER_2
  2
AIGNBL02020103
 10
0
 20
0
 30
0
  0
INSERT
  8
LAYER_2
  2
AIGNBL02020104
 10
0
 20
0
 30
0
  0
INSERT
  8
LAYER_2
  2
AIGNBL02020105
 10
0
 20
0
 30
0
  0
INSERT
  8
LAYER_2
  2
AIGNBL02020106
 10
0
 20
0
 30
0
  0
INSERT
  8
LAYER_2
  2
AIGNBL02020107
 10
0
 20
0
 30
0
  0
INSERT
  8
LAYER_2
  2
AIGNBL02020108
 10
0
 20
0
 30
0
  0
INSERT
  8
LAYER_2
  2
AIGNBL02020109
 10
0
 20
0
 30
0
  0
INSERT
  8
LAYER_2
  2
AIGNBL0202010A
 10
0
 20
0
 30
0
  0
INSERT
  8
LAYER_2
  2
AIGNBL0202010B
 10
0
 20
0
 30
0
  0
INSERT
  8
LAYER_2
  2
AIGNBL0202010C
 10
0
 20
0
 30
0
  0
INSERT
  8
LAYER_2
  2
AIGNBL0202010D
 10
0
 20
0
 30
0
  0
INSERT
  8
LAYER_2
  2
AIGNBL0202010E
 10
0
 20
0
 30
0
  0
INSERT
  8
LAYER_2
  2
AIGNBL0202010F
 10
0
 20
0
 30
0
  0
INSERT
  8
LAYER_2
  2
AIGNBL02020110
 10
0
 20
0
 30
0
  0
INSERT
  8
LAYER_2
  2
AIGNBL02020111
 10
0
 20
0
 30
0
  0
INSERT
  8
LAYER_2
  2
AIGNBL02020112
 10
0
 20
0
 30
0
  0
INSERT
  8
LAYER_2
  2
AIGNBL02020113
 10
0
 20
0
 30
0
  0
INSERT
  8
LAYER_2
  2
AIGNBL02020114
 10
0
 20
0
 30
0
  0
INSERT
  8
LAYER_2
  2
AIGNBL02020115
 10
0
 20
0
 30
0
  0
INSERT
  8
LAYER_2
  2
AIGNBL02020116
 10
0
 20
0
 30
0
  0
INSERT
  8
LAYER_2
  2
AIGNBL02020117
 10
0
 20
0
 30
0
  0
INSERT
  8
LAYER_2
  2
AIGNBL02020118
 10
0
 20
0
 30
0
  0
INSERT
  8
LAYER_2
  2
AIGNBL02020119
 10
0
 20
0
 30
0
  0
INSERT
  8
LAYER_2
  2
AIGNBL0202011A
 10
0
 20
0
 30
0
  0
INSERT
  8
LAYER_2
  2
AIGNBL0202011B
 10
0
 20
0
 30
0
  0
INSERT
  8
LAYER_2
  2
AIGNBL0202011C
 10
0
 20
0
 30
0
  0
INSERT
  8
LAYER_2
  2
AIGNBL0202011D
 10
0
 20
0
 30
0
  0
INSERT
  8
LAYER_2
  2
AIGNBL0202011E
 10
0
 20
0
 30
0
  0
INSERT
  8
LAYER_2
  2
AIGNBL0202011F
 10
0
 20
0
 30
0
  0
INSERT
  8
LAYER_2
  2
AIGNBL02020120
 10
0
 20
0
 30
0
  0
INSERT
  8
LAYER_2
  2
AIGNBL02020121
 10
0
 20
0
 30
0
  0
INSERT
  8
LAYER_2
  2
AIGNBL02020122
 10
0
 20
0
 30
0
  0
INSERT
  8
LAYER_2
  2
AIGNBL02020123
 10
0
 20
0
 30
0
  0
INSERT
  8
LAYER_2
  2
AIGNBL02020124
 10
0
 20
0
 30
0
  0
INSERT
  8
LAYER_2
  2
AIGNBL02020125
 10
0
 20
0
 30
0
  0
INSERT
  8
LAYER_2
  2
AIGNBL02020126
 10
0
 20
0
 30
0
  0
INSERT
  8
LAYER_2
  2
AIGNBL02020127
 10
0
 20
0
 30
0
  0
INSERT
  8
LAYER_2
  2
AIGNBL02020128
 10
0
 20
0
 30
0
  0
INSERT
  8
LAYER_2
  2
AIGNBL02020129
 10
0
 20
0
 30
0
  0
INSERT
  8
LAYER_2
  2
AIGNBL0202012A
 10
0
 20
0
 30
0
  0
INSERT
  8
LAYER_2
  2
AIGNBL0202012B
 10
0
 20
0
 30
0
  0
INSERT
  8
LAYER_2
  2
AIGNBL0202012C
 10
0
 20
0
 30
0
  0
INSERT
  8
LAYER_2
  2
AIGNBL0202012D
 10
0
 20
0
 30
0
  0
INSERT
  8
LAYER_2
  2
AIGNBL0202012E
 10
0
 20
0
 30
0
  0
INSERT
  8
LAYER_2
  2
AIGNBL0202012F
 10
0
 20
0
 30
0
  0
INSERT
  8
LAYER_2
  2
AIGNBL02020130
 10
0
 20
0
 30
0
  0
INSERT
  8
LAYER_2
  2
AIGNBL02020131
 10
0
 20
0
 30
0
  0
INSERT
  8
LAYER_2
  2
AIGNBL02020132
 10
0
 20
0
 30
0
  0
INSERT
  8
LAYER_2
  2
AIGNBL02020133
 10
0
 20
0
 30
0
  0
INSERT
  8
LAYER_2
  2
AIGNBL02020134
 10
0
 20
0
 30
0
  0
INSERT
  8
LAYER_2
  2
AIGNBL02020135
 10
0
 20
0
 30
0
  0
INSERT
  8
LAYER_2
  2
AIGNBL02020136
 10
0
 20
0
 30
0
  0
INSERT
  8
LAYER_2
  2
AIGNBL02020137
 10
0
 20
0
 30
0
  0
INSERT
  8
LAYER_2
  2
AIGNBL02020138
 10
0
 20
0
 30
0
  0
INSERT
  8
LAYER_2
  2
AIGNBL02020139
 10
0
 20
0
 30
0
  0
INSERT
  8
LAYER_2
  2
AIGNBL0202013A
 10
0
 20
0
 30
0
  0
INSERT
  8
LAYER_2
  2
AIGNBL0202013B
 10
0
 20
0
 30
0
  0
INSERT
  8
LAYER_2
  2
AIGNBL0202013C
 10
0
 20
0
 30
0
  0
INSERT
  8
LAYER_2
  2
AIGNBL0202013D
 10
0
 20
0
 30
0
  0
INSERT
  8
LAYER_2
  2
AIGNBL0202013E
 10
0
 20
0
 30
0
  0
INSERT
  8
LAYER_2
  2
AIGNBL0202013F
 10
0
 20
0
 30
0
  0
INSERT
  8
LAYER_2
  2
AIGNBL02020140
 10
0
 20
0
 30
0
  0
INSERT
  8
LAYER_2
  2
AIGNBL02020141
 10
0
 20
0
 30
0
  0
INSERT
  8
LAYER_2
  2
AIGNBL02020142
 10
0
 20
0
 30
0
  0
INSERT
  8
LAYER_2
  2
AIGNBL02020143
 10
0
 20
0
 30
0
  0
INSERT
  8
LAYER_2
  2
AIGNBL02020144
 10
0
 20
0
 30
0
  0
INSERT
  8
LAYER_2
  2
AIGNBL02020145
 10
0
 20
0
 30
0
  0
INSERT
  8
LAYER_2
  2
AIGNBL02020146
 10
0
 20
0
 30
0
  0
INSERT
  8
LAYER_2
  2
AIGNBL02020147
 10
0
 20
0
 30
0
  0
INSERT
  8
LAYER_2
  2
AIGNBL02020148
 10
0
 20
0
 30
0
  0
INSERT
  8
LAYER_2
  2
AIGNBL02020149
 10
0
 20
0
 30
0
  0
INSERT
  8
LAYER_2
  2
AIGNBL0202014A
 10
0
 20
0
 30
0
  0
INSERT
  8
LAYER_2
  2
AIGNBL0202014B
 10
0
 20
0
 30
0
  0
INSERT
  8
LAYER_2
  2
AIGNBL0202014C
 10
0
 20
0
 30
0
  0
INSERT
  8
LAYER_2
  2
AIGNBL0202014D
 10
0
 20
0
 30
0
  0
INSERT
  8
LAYER_2
  2
AIGNBL0202014E
 10
0
 20
0
 30
0
  0
INSERT
  8
LAYER_2
  2
AIGNBL0202014F
 10
0
 20
0
 30
0
  0
INSERT
  8
LAYER_2
  2
AIGNBL02020150
 10
0
 20
0
 30
0
  0
INSERT
  8
LAYER_2
  2
AIGNBL02020151
 10
0
 20
0
 30
0
  0
INSERT
  8
LAYER_2
  2
AIGNBL02020152
 10
0
 20
0
 30
0
  0
INSERT
  8
LAYER_2
  2
AIGNBL02020153
 10
0
 20
0
 30
0
  0
INSERT
  8
LAYER_2
  2
AIGNBL02020154
 10
0
 20
0
 30
0
  0
INSERT
  8
LAYER_2
  2
AIGNBL02020155
 10
0
 20
0
 30
0
  0
INSERT
  8
LAYER_2
  2
AIGNBL02020156
 10
0
 20
0
 30
0
  0
INSERT
  8
LAYER_2
  2
AIGNBL02020157
 10
0
 20
0
 30
0
  0
INSERT
  8
LAYER_2
  2
AIGNBL02020158
 10
0
 20
0
 30
0
  0
INSERT
  8
LAYER_2
  2
AIGNBL02020159
 10
0
 20
0
 30
0
  0
INSERT
  8
LAYER_2
  2
AIGNBL0202015A
 10
0
 20
0
 30
0
  0
INSERT
  8
LAYER_2
  2
AIGNBL0202015B
 10
0
 20
0
 30
0
  0
INSERT
  8
LAYER_2
  2
AIGNBL0202015C
 10
0
 20
0
 30
0
  0
INSERT
  8
LAYER_2
  2
AIGNBL0202015D
 10
0
 20
0
 30
0
  0
INSERT
  8
LAYER_2
  2
AIGNBL0202015E
 10
0
 20
0
 30
0
  0
INSERT
  8
LAYER_2
  2
AIGNBL0202015F
 10
0
 20
0
 30
0
  0
INSERT
  8
LAYER_2
  2
AIGNBL02020160
 10
0
 20
0
 30
0
  0
INSERT
  8
LAYER_2
  2
AIGNBL02020161
 10
0
 20
0
 30
0
  0
INSERT
  8
LAYER_2
  2
AIGNBL02020162
 10
0
 20
0
 30
0
  0
INSERT
  8
LAYER_2
  2
AIGNBL02020163
 10
0
 20
0
 30
0
  0
INSERT
  8
LAYER_2
  2
AIGNBL02020164
 10
0
 20
0
 30
0
  0
INSERT
  8
LAYER_2
  2
AIGNBL02020165
 10
0
 20
0
 30
0
  0
INSERT
  8
LAYER_2
  2
AIGNBL02020166
 10
0
 20
0
 30
0
  0
INSERT
  8
LAYER_2
  2
AIGNBL02020167
 10
0
 20
0
 30
0
  0
INSERT
  8
LAYER_2
  2
AIGNBL02020168
 10
0
 20
0
 30
0
  0
INSERT
  8
LAYER_2
  2
AIGNBL02020169
 10
0
 20
0
 30
0
  0
INSERT
  8
LAYER_2
  2
AIGNBL0202016A
 10
0
 20
0
 30
0
  0
INSERT
  8
LAYER_2
  2
AIGNBL0202016B
 10
0
 20
0
 30
0
  0
INSERT
  8
LAYER_2
  2
AIGNBL0202016C
 10
0
 20
0
 30
0
  0
INSERT
  8
LAYER_2
  2
AIGNBL0202016D
 10
0
 20
0
 30
0
  0
INSERT
  8
LAYER_2
  2
AIGNBL0202016E
 10
0
 20
0
 30
0
  0
INSERT
  8
LAYER_2
  2
AIGNBL0202016F
 10
0
 20
0
 30
0
  0
INSERT
  8
LAYER_2
  2
AIGNBL02020170
 10
0
 20
0
 30
0
  0
INSERT
  8
LAYER_2
  2
AIGNBL02020171
 10
0
 20
0
 30
0
  0
INSERT
  8
LAYER_2
  2
AIGNBL02020172
 10
0
 20
0
 30
0
  0
INSERT
  8
LAYER_2
  2
AIGNBL02020173
 10
0
 20
0
 30
0
  0
INSERT
  8
LAYER_2
  2
AIGNBL02020174
 10
0
 20
0
 30
0
  0
INSERT
  8
LAYER_2
  2
AIGNBL02020175
 10
0
 20
0
 30
0
  0
INSERT
  8
LAYER_2
  2
AIGNBL02020176
 10
0
 20
0
 30
0
  0
INSERT
  8
LAYER_2
  2
AIGNBL02020177
 10
0
 20
0
 30
0
  0
INSERT
  8
LAYER_2
  2
AIGNBL02020178
 10
0
 20
0
 30
0
  0
INSERT
  8
LAYER_2
  2
AIGNBL02020179
 10
0
 20
0
 30
0
  0
INSERT
  8
LAYER_2
  2
AIGNBL0202017A
 10
0
 20
0
 30
0
  0
INSERT
  8
LAYER_2
  2
AIGNBL0202017B
 10
0
 20
0
 30
0
  0
INSERT
  8
LAYER_2
  2
AIGNBL0202017C
 10
0
 20
0
 30
0
  0
INSERT
  8
LAYER_2
  2
AIGNBL0202017D
 10
0
 20
0
 30
0
  0
INSERT
  8
LAYER_2
  2
AIGNBL0202017E
 10
0
 20
0
 30
0
  0
INSERT
  8
LAYER_2
  2
AIGNBL0202017F
 10
0
 20
0
 30
0
  0
INSERT
  8
LAYER_2
  2
AIGNBL02020180
 10
0
 20
0
 30
0
  0
INSERT
  8
LAYER_2
  2
AIGNBL02020181
 10
0
 20
0
 30
0
  0
INSERT
  8
LAYER_2
  2
AIGNBL02020182
 10
0
 20
0
 30
0
  0
INSERT
  8
LAYER_2
  2
AIGNBL02020183
 10
0
 20
0
 30
0
  0
INSERT
  8
LAYER_2
  2
AIGNBL02020184
 10
0
 20
0
 30
0
  0
INSERT
  8
LAYER_2
  2
AIGNBL02020185
 10
0
 20
0
 30
0
  0
INSERT
  8
LAYER_2
  2
AIGNBL02020186
 10
0
 20
0
 30
0
  0
INSERT
  8
LAYER_2
  2
AIGNBL02020187
 10
0
 20
0
 30
0
  0
INSERT
  8
LAYER_2
  2
AIGNBL02020188
 10
0
 20
0
 30
0
  0
INSERT
  8
LAYER_2
  2
AIGNBL02020189
 10
0
 20
0
 30
0
  0
INSERT
  8
LAYER_2
  2
AIGNBL0202018A
 10
0
 20
0
 30
0
  0
INSERT
  8
LAYER_2
  2
AIGNBL0202018B
 10
0
 20
0
 30
0
  0
INSERT
  8
LAYER_2
  2
AIGNBL0202018C
 10
0
 20
0
 30
0
  0
INSERT
  8
LAYER_2
  2
AIGNBL0202018D
 10
0
 20
0
 30
0
  0
INSERT
  8
LAYER_2
  2
AIGNBL0202018E
 10
0
 20
0
 30
0
  0
INSERT
  8
LAYER_2
  2
AIGNBL0202018F
 10
0
 20
0
 30
0
  0
INSERT
  8
LAYER_2
  2
AIGNBL02020190
 10
0
 20
0
 30
0
  0
INSERT
  8
LAYER_2
  2
AIGNBL02020191
 10
0
 20
0
 30
0
  0
INSERT
  8
LAYER_2
  2
AIGNBL02020192
 10
0
 20
0
 30
0
  0
INSERT
  8
LAYER_2
  2
AIGNBL02020193
 10
0
 20
0
 30
0
  0
INSERT
  8
LAYER_2
  2
AIGNBL02020194
 10
0
 20
0
 30
0
  0
INSERT
  8
LAYER_2
  2
AIGNBL02020195
 10
0
 20
0
 30
0
  0
INSERT
  8
LAYER_2
  2
AIGNBL02020196
 10
0
 20
0
 30
0
  0
INSERT
  8
LAYER_2
  2
AIGNBL02020197
 10
0
 20
0
 30
0
  0
INSERT
  8
LAYER_2
  2
AIGNBL02020198
 10
0
 20
0
 30
0
  0
INSERT
  8
LAYER_2
  2
AIGNBL02020199
 10
0
 20
0
 30
0
  0
INSERT
  8
LAYER_2
  2
AIGNBL0202019A
 10
0
 20
0
 30
0
  0
INSERT
  8
LAYER_2
  2
AIGNBL0202019B
 10
0
 20
0
 30
0
  0
INSERT
  8
LAYER_2
  2
AIGNBL0202019C
 10
0
 20
0
 30
0
  0
INSERT
  8
LAYER_2
  2
AIGNBL0202019D
 10
0
 20
0
 30
0
  0
INSERT
  8
LAYER_2
  2
AIGNBL0202019E
 10
0
 20
0
 30
0
  0
INSERT
  8
LAYER_2
  2
AIGNBL0202019F
 10
0
 20
0
 30
0
  0
INSERT
  8
LAYER_2
  2
AIGNBL020201A0
 10
0
 20
0
 30
0
  0
INSERT
  8
LAYER_2
  2
AIGNBL020201A1
 10
0
 20
0
 30
0
  0
INSERT
  8
LAYER_2
  2
AIGNBL020201A2
 10
0
 20
0
 30
0
  0
INSERT
  8
LAYER_2
  2
AIGNBL020201A3
 10
0
 20
0
 30
0
  0
INSERT
  8
LAYER_2
  2
AIGNBL020201A4
 10
0
 20
0
 30
0
  0
INSERT
  8
LAYER_2
  2
AIGNBL020201A5
 10
0
 20
0
 30
0
  0
INSERT
  8
LAYER_2
  2
AIGNBL020201A6
 10
0
 20
0
 30
0
  0
INSERT
  8
LAYER_2
  2
AIGNBL020201A7
 10
0
 20
0
 30
0
  0
INSERT
  8
LAYER_2
  2
AIGNBL020201A8
 10
0
 20
0
 30
0
  0
INSERT
  8
LAYER_2
  2
AIGNBL020201A9
 10
0
 20
0
 30
0
  0
INSERT
  8
LAYER_2
  2
AIGNBL020201AA
 10
0
 20
0
 30
0
  0
INSERT
  8
LAYER_2
  2
AIGNBL020201AB
 10
0
 20
0
 30
0
  0
INSERT
  8
LAYER_2
  2
AIGNBL020201AC
 10
0
 20
0
 30
0
  0
INSERT
  8
LAYER_2
  2
AIGNBL020201AD
 10
0
 20
0
 30
0
  0
INSERT
  8
LAYER_2
  2
AIGNBL020201AE
 10
0
 20
0
 30
0
  0
INSERT
  8
LAYER_2
  2
AIGNBL020201AF
 10
0
 20
0
 30
0
  0
INSERT
  8
LAYER_2
  2
AIGNBL020201B0
 10
0
 20
0
 30
0
  0
INSERT
  8
LAYER_2
  2
AIGNBL020201B1
 10
0
 20
0
 30
0
  0
INSERT
  8
LAYER_2
  2
AIGNBL020201B2
 10
0
 20
0
 30
0
  0
INSERT
  8
LAYER_2
  2
AIGNBL020201B3
 10
0
 20
0
 30
0
  0
INSERT
  8
LAYER_2
  2
AIGNBL020201B4
 10
0
 20
0
 30
0
  0
INSERT
  8
LAYER_2
  2
AIGNBL020201B5
 10
0
 20
0
 30
0
  0
INSERT
  8
LAYER_2
  2
AIGNBL020201B6
 10
0
 20
0
 30
0
  0
INSERT
  8
LAYER_2
  2
AIGNBL020201B7
 10
0
 20
0
 30
0
  0
INSERT
  8
LAYER_2
  2
AIGNBL020201B8
 10
0
 20
0
 30
0
  0
INSERT
  8
LAYER_2
  2
AIGNBL020201B9
 10
0
 20
0
 30
0
  0
INSERT
  8
LAYER_2
  2
AIGNBL020201BA
 10
0
 20
0
 30
0
  0
INSERT
  8
LAYER_2
  2
AIGNBL020201BB
 10
0
 20
0
 30
0
  0
INSERT
  8
LAYER_2
  2
AIGNBL020201BC
 10
0
 20
0
 30
0
  0
INSERT
  8
LAYER_2
  2
AIGNBL020201BD
 10
0
 20
0
 30
0
  0
INSERT
  8
LAYER_2
  2
AIGNBL020201BE
 10
0
 20
0
 30
0
  0
INSERT
  8
LAYER_2
  2
AIGNBL020201BF
 10
0
 20
0
 30
0
  0
INSERT
  8
LAYER_2
  2
AIGNBL020201C0
 10
0
 20
0
 30
0
  0
INSERT
  8
LAYER_2
  2
AIGNBL020201C1
 10
0
 20
0
 30
0
  0
INSERT
  8
LAYER_2
  2
AIGNBL020201C2
 10
0
 20
0
 30
0
  0
INSERT
  8
LAYER_2
  2
AIGNBL020201C3
 10
0
 20
0
 30
0
  0
INSERT
  8
LAYER_2
  2
AIGNBL020201C4
 10
0
 20
0
 30
0
  0
INSERT
  8
LAYER_2
  2
AIGNBL020201C5
 10
0
 20
0
 30
0
  0
INSERT
  8
LAYER_2
  2
AIGNBL020201C6
 10
0
 20
0
 30
0
  0
INSERT
  8
LAYER_2
  2
AIGNBL020201C7
 10
0
 20
0
 30
0
  0
INSERT
  8
LAYER_2
  2
AIGNBL020201C8
 10
0
 20
0
 30
0
  0
INSERT
  8
LAYER_2
  2
AIGNBL020201C9
 10
0
 20
0
 30
0
  0
INSERT
  8
LAYER_2
  2
AIGNBL020201CA
 10
0
 20
0
 30
0
  0
INSERT
  8
LAYER_2
  2
AIGNBL020201CB
 10
0
 20
0
 30
0
  0
INSERT
  8
LAYER_2
  2
AIGNBL020201CC
 10
0
 20
0
 30
0
  0
INSERT
  8
LAYER_2
  2
AIGNBL020201CD
 10
0
 20
0
 30
0
  0
INSERT
  8
LAYER_2
  2
AIGNBL020201CE
 10
0
 20
0
 30
0
  0
INSERT
  8
LAYER_2
  2
AIGNBL020201CF
 10
0
 20
0
 30
0
  0
INSERT
  8
LAYER_2
  2
AIGNBL020201D0
 10
0
 20
0
 30
0
  0
INSERT
  8
LAYER_2
  2
AIGNBL020201D1
 10
0
 20
0
 30
0
  0
INSERT
  8
LAYER_2
  2
AIGNBL020201D2
 10
0
 20
0
 30
0
  0
INSERT
  8
LAYER_2
  2
AIGNBL020201D3
 10
0
 20
0
 30
0
  0
INSERT
  8
LAYER_2
  2
AIGNBL020201D4
 10
0
 20
0
 30
0
  0
INSERT
  8
LAYER_2
  2
AIGNBL020201D5
 10
0
 20
0
 30
0
  0
INSERT
  8
LAYER_2
  2
AIGNBL020201D6
 10
0
 20
0
 30
0
  0
INSERT
  8
LAYER_2
  2
AIGNBL020201D7
 10
0
 20
0
 30
0
  0
INSERT
  8
LAYER_2
  2
AIGNBL020201D8
 10
0
 20
0
 30
0
  0
INSERT
  8
LAYER_2
  2
AIGNBL020201D9
 10
0
 20
0
 30
0
  0
INSERT
  8
LAYER_2
  2
AIGNBL020201DA
 10
0
 20
0
 30
0
  0
INSERT
  8
LAYER_2
  2
AIGNBL020201DB
 10
0
 20
0
 30
0
  0
INSERT
  8
LAYER_2
  2
AIGNBL020201DC
 10
0
 20
0
 30
0
  0
INSERT
  8
LAYER_2
  2
AIGNBL020201DD
 10
0
 20
0
 30
0
  0
INSERT
  8
LAYER_2
  2
AIGNBL020201DE
 10
0
 20
0
 30
0
  0
INSERT
  8
LAYER_2
  2
AIGNBL020201DF
 10
0
 20
0
 30
0
  0
INSERT
  8
LAYER_2
  2
AIGNBL020201E0
 10
0
 20
0
 30
0
  0
INSERT
  8
LAYER_2
  2
AIGNBL020201E1
 10
0
 20
0
 30
0
  0
INSERT
  8
LAYER_2
  2
AIGNBL020201E2
 10
0
 20
0
 30
0
  0
INSERT
  8
LAYER_2
  2
AIGNBL020201E3
 10
0
 20
0
 30
0
  0
ENDBLK
  0
BLOCK
  8
LAYER_2
  2
AIGNBL020101E4
 70
64
 10
0
 20
0
 30
0
  3
AIGNBL020101E4
  0
POLYLINE
  8
LAYER_2
 40
0.1058
 41
0.1058
 66
1
 10
0
 20
0
 30
0
 70
1
  0
VERTEX
  8
LAYER_2
 10
195.4472
 20
-176.5625
  0
VERTEX
  8
LAYER_2
 10
195.4472
 20
-178.5625
  0
VERTEX
  8
LAYER_2
 10
240.9472
 20
-178.5425
  0
VERTEX
  8
LAYER_2
 10
240.9472
 20
-176.5425
  0
SEQEND
  0
ENDBLK
  0
BLOCK
  8
LAYER_14
  2
AIGNBL0E010002
 70
64
 10
0
 20
0
 30
0
  3
AIGNBL0E010002
  0
POLYLINE
  8
LAYER_14
 40
0.1058
 41
0.1058
 66
1
 10
0
 20
0
 30
0
 70
1
  0
VERTEX
  8
LAYER_14
 10
129.1588
 20
-194.0878
  0
VERTEX
  8
LAYER_14
 10
134.0585
 20
-194.0878
  0
VERTEX
  8
LAYER_14
 10
134.0585
 20
-195.9881
  0
VERTEX
  8
LAYER_14
 10
129.1588
 20
-195.9881
  0
SEQEND
  0
POLYLINE
  8
LAYER_14
 40
0.1411
 41
0.1411
 66
1
 10
0
 20
0
 30
0
  0
VERTEX
  8
LAYER_14
 10
129.3077
 20
-193.0873
  0
VERTEX
  8
LAYER_14
 10
128.6152
 20
-193.0873
  0
SEQEND
  0
POLYLINE
  8
LAYER_14
 40
0.1411
 41
0.1411
 66
1
 10
0
 20
0
 30
0
  0
VERTEX
  8
LAYER_14
 10
134.6
 20
-193.0873
  0
VERTEX
  8
LAYER_14
 10
133.9075
 20
-193.0873
  0
SEQEND
  0
POLYLINE
  8
LAYER_14
 40
0.1411
 41
0.1411
 66
1
 10
0
 20
0
 30
0
  0
VERTEX
  8
LAYER_14
 10
129.3077
 20
-193.0873
  0
VERTEX
  8
LAYER_14
 10
129.6604
 20
-193.0873
  0
SEQEND
  0
POLYLINE
  8
LAYER_14
 40
0.1411
 41
0.1411
 66
1
 10
0
 20
0
 30
0
  0
VERTEX
  8
LAYER_14
 10
130.439
 20
-193.0873
  0
VERTEX
  8
LAYER_14
 10
133.1648
 20
-193.0873
  0
SEQEND
  0
POLYLINE
  8
LAYER_14
 40
0.1411
 41
0.1411
 66
1
 10
0
 20
0
 30
0
  0
VERTEX
  8
LAYER_14
 10
133.5541
 20
-193.0873
  0
VERTEX
  8
LAYER_14
 10
133.9069
 20
-193.0873
  0
SEQEND
  0
POLYLINE
  8
LAYER_14
 40
0.1411
 41
0.1411
 66
1
 10
0
 20
0
 30
0
  0
VERTEX
  8
LAYER_14
 10
129.2143
 20
-193.6874
  0
VERTEX
  8
LAYER_14
 10
128.4574
 20
-193.6874
  0
VERTEX
  8
LAYER_14
 10
128.4574
 20
-193.3877
  0
VERTEX
  8
LAYER_14
 10
128.8102
 20
-193.3877
  0
SEQEND
  0
POLYLINE
  8
LAYER_14
 40
0.1411
 41
0.1411
 66
1
 10
0
 20
0
 30
0
  0
VERTEX
  8
LAYER_14
 10
129.6094
 20
-193.3877
  0
VERTEX
  8
LAYER_14
 10
134.0047
 20
-193.3877
  0
SEQEND
  0
POLYLINE
  8
LAYER_14
 40
0.1411
 41
0.1411
 66
1
 10
0
 20
0
 30
0
  0
VERTEX
  8
LAYER_14
 10
134.4043
 20
-193.3877
  0
VERTEX
  8
LAYER_14
 10
134.7571
 20
-193.3877
  0
VERTEX
  8
LAYER_14
 10
134.7571
 20
-193.6874
  0
VERTEX
  8
LAYER_14
 10
134.0502
 20
-193.6874
  0
SEQEND
  0
POLYLINE
  8
LAYER_14
 40
0.1411
 41
0.1411
 66
1
 10
0
 20
0
 30
0
  0
VERTEX
  8
LAYER_14
 10
133.6051
 20
-193.6874
  0
VERTEX
  8
LAYER_14
 10
129.2098
 20
-193.6874
  0
SEQEND
  0
POLYLINE
  8
LAYER_14
 40
0.1411
 41
0.1411
 66
1
 10
0
 20
0
 30
0
  0
VERTEX
  8
LAYER_14
 10
128.8102
 20
-193.3877
  0
VERTEX
  8
LAYER_14
 10
128.4574
 20
-193.3877
  0
VERTEX
  8
LAYER_14
 10
128.4574
 20
-193.0873
  0
VERTEX
  8
LAYER_14
 10
128.8102
 20
-193.0873
  0
SEQEND
  0
POLYLINE
  8
LAYER_14
 40
0.1411
 41
0.1411
 66
1
 10
0
 20
0
 30
0
  0
VERTEX
  8
LAYER_14
 10
129.6094
 20
-193.0873
  0
VERTEX
  8
LAYER_14
 10
134.0047
 20
-193.0873
  0
SEQEND
  0
POLYLINE
  8
LAYER_14
 40
0.1411
 41
0.1411
 66
1
 10
0
 20
0
 30
0
  0
VERTEX
  8
LAYER_14
 10
134.4043
 20
-193.0873
  0
VERTEX
  8
LAYER_14
 10
134.7571
 20
-193.0873
  0
VERTEX
  8
LAYER_14
 10
134.7571
 20
-193.3877
  0
VERTEX
  8
LAYER_14
 10
134.4043
 20
-193.3877
  0
SEQEND
  0
POLYLINE
  8
LAYER_14
 40
0.1411
 41
0.1411
 66
1
 10
0
 20
0
 30
0
  0
VERTEX
  8
LAYER_14
 10
133.6051
 20
-193.3877
  0
VERTEX
  8
LAYER_14
 10
129.2098
 20
-193.3877
  0
SEQEND
  0
POLYLINE
  8
LAYER_14
 40
0.1411
 41
0.1411
 66
1
 10
0
 20
0
 30
0
  0
VERTEX
  8
LAYER_14
 10
129.5102
 20
-194.0878
  0
VERTEX
  8
LAYER_14
 10
129.1575
 20
-194.0878
  0
VERTEX
  8
LAYER_14
 10
129.1575
 20
-193.6867
  0
VERTEX
  8
LAYER_14
 10
129.5102
 20
-193.6867
  0
SEQEND
  0
POLYLINE
  8
LAYER_14
 40
0.1411
 41
0.1411
 66
1
 10
0
 20
0
 30
0
  0
VERTEX
  8
LAYER_14
 10
130.109
 20
-193.6867
  0
VERTEX
  8
LAYER_14
 10
133.4053
 20
-193.6867
  0
SEQEND
  0
POLYLINE
  8
LAYER_14
 40
0.1411
 41
0.1411
 66
1
 10
0
 20
0
 30
0
  0
VERTEX
  8
LAYER_14
 10
133.705
 20
-193.6867
  0
VERTEX
  8
LAYER_14
 10
134.0571
 20
-193.6867
  0
VERTEX
  8
LAYER_14
 10
134.0571
 20
-194.0884
  0
VERTEX
  8
LAYER_14
 10
133.705
 20
-194.0884
  0
SEQEND
  0
POLYLINE
  8
LAYER_14
 40
0.1411
 41
0.1411
 66
1
 10
0
 20
0
 30
0
  0
VERTEX
  8
LAYER_14
 10
133.705
 20
-194.0878
  0
VERTEX
  8
LAYER_14
 10
129.4562
 20
-194.0878
  0
SEQEND
  0
INSERT
  8
LAYER_14
  2
AIGNBL0E020003
 10
0
 20
0
 30
0
  0
POLYLINE
  8
LAYER_14
 40
0.1411
 41
0.1411
 66
1
 10
0
 20
0
 30
0
  0
VERTEX
  8
LAYER_14
 10
129.3077
 20
-193.0873
  0
VERTEX
  8
LAYER_14
 10
129.6604
 20
-193.0873
  0
SEQEND
  0
POLYLINE
  8
LAYER_14
 40
0.1411
 41
0.1411
 66
1
 10
0
 20
0
 30
0
  0
VERTEX
  8
LAYER_14
 10
130.439
 20
-193.0873
  0
VERTEX
  8
LAYER_14
 10
133.1648
 20
-193.0873
  0
SEQEND
  0
POLYLINE
  8
LAYER_14
 40
0.1411
 41
0.1411
 66
1
 10
0
 20
0
 30
0
  0
VERTEX
  8
LAYER_14
 10
133.5541
 20
-193.0873
  0
VERTEX
  8
LAYER_14
 10
133.9069
 20
-193.0873
  0
SEQEND
  0
ENDBLK
  0
BLOCK
  8
LAYER_14
  2
AIGNBL0E010004
 70
64
 10
0
 20
0
 30
0
  3
AIGNBL0E010004
  0
POLYLINE
  8
LAYER_14
 40
0.1058
 41
0.1058
 66
1
 10
0
 20
0
 30
0
 70
1
  0
VERTEX
  8
LAYER_14
 10
217.392
 20
-193.9206
  0
VERTEX
  8
LAYER_14
 10
222.2917
 20
-193.9206
  0
VERTEX
  8
LAYER_14
 10
222.2917
 20
-195.8209
  0
VERTEX
  8
LAYER_14
 10
217.392
 20
-195.8209
  0
SEQEND
  0
POLYLINE
  8
LAYER_14
 40
0.1411
 41
0.1411
 66
1
 10
0
 20
0
 30
0
  0
VERTEX
  8
LAYER_14
 10
217.5409
 20
-192.9201
  0
VERTEX
  8
LAYER_14
 10
216.8484
 20
-192.9201
  0
SEQEND
  0
POLYLINE
  8
LAYER_14
 40
0.1411
 41
0.1411
 66
1
 10
0
 20
0
 30
0
  0
VERTEX
  8
LAYER_14
 10
222.8332
 20
-192.9201
  0
VERTEX
  8
LAYER_14
 10
222.1408
 20
-192.9201
  0
SEQEND
  0
POLYLINE
  8
LAYER_14
 40
0.1411
 41
0.1411
 66
1
 10
0
 20
0
 30
0
  0
VERTEX
  8
LAYER_14
 10
217.5409
 20
-192.9201
  0
VERTEX
  8
LAYER_14
 10
217.8937
 20
-192.9201
  0
SEQEND
  0
POLYLINE
  8
LAYER_14
 40
0.1411
 41
0.1411
 66
1
 10
0
 20
0
 30
0
  0
VERTEX
  8
LAYER_14
 10
218.6723
 20
-192.9201
  0
VERTEX
  8
LAYER_14
 10
221.398
 20
-192.9201
  0
SEQEND
  0
POLYLINE
  8
LAYER_14
 40
0.1411
 41
0.1411
 66
1
 10
0
 20
0
 30
0
  0
VERTEX
  8
LAYER_14
 10
221.7873
 20
-192.9201
  0
VERTEX
  8
LAYER_14
 10
222.1401
 20
-192.9201
  0
SEQEND
  0
POLYLINE
  8
LAYER_14
 40
0.1411
 41
0.1411
 66
1
 10
0
 20
0
 30
0
  0
VERTEX
  8
LAYER_14
 10
217.4475
 20
-193.5203
  0
VERTEX
  8
LAYER_14
 10
216.6906
 20
-193.5203
  0
VERTEX
  8
LAYER_14
 10
216.6906
 20
-193.2206
  0
VERTEX
  8
LAYER_14
 10
217.0434
 20
-193.2206
  0
SEQEND
  0
POLYLINE
  8
LAYER_14
 40
0.1411
 41
0.1411
 66
1
 10
0
 20
0
 30
0
  0
VERTEX
  8
LAYER_14
 10
217.8427
 20
-193.2206
  0
VERTEX
  8
LAYER_14
 10
222.2379
 20
-193.2206
  0
SEQEND
  0
POLYLINE
  8
LAYER_14
 40
0.1411
 41
0.1411
 66
1
 10
0
 20
0
 30
0
  0
VERTEX
  8
LAYER_14
 10
222.6376
 20
-193.2206
  0
VERTEX
  8
LAYER_14
 10
222.9903
 20
-193.2206
  0
VERTEX
  8
LAYER_14
 10
222.9903
 20
-193.5203
  0
VERTEX
  8
LAYER_14
 10
222.2834
 20
-193.5203
  0
SEQEND
  0
POLYLINE
  8
LAYER_14
 40
0.1411
 41
0.1411
 66
1
 10
0
 20
0
 30
0
  0
VERTEX
  8
LAYER_14
 10
221.8383
 20
-193.5203
  0
VERTEX
  8
LAYER_14
 10
217.4431
 20
-193.5203
  0
SEQEND
  0
POLYLINE
  8
LAYER_14
 40
0.1411
 41
0.1411
 66
1
 10
0
 20
0
 30
0
  0
VERTEX
  8
LAYER_14
 10
217.0434
 20
-193.2206
  0
VERTEX
  8
LAYER_14
 10
216.6906
 20
-193.2206
  0
VERTEX
  8
LAYER_14
 10
216.6906
 20
-192.9201
  0
VERTEX
  8
LAYER_14
 10
217.0434
 20
-192.9201
  0
SEQEND
  0
POLYLINE
  8
LAYER_14
 40
0.1411
 41
0.1411
 66
1
 10
0
 20
0
 30
0
  0
VERTEX
  8
LAYER_14
 10
217.8427
 20
-192.9201
  0
VERTEX
  8
LAYER_14
 10
222.2379
 20
-192.9201
  0
SEQEND
  0
POLYLINE
  8
LAYER_14
 40
0.1411
 41
0.1411
 66
1
 10
0
 20
0
 30
0
  0
VERTEX
  8
LAYER_14
 10
222.6376
 20
-192.9201
  0
VERTEX
  8
LAYER_14
 10
222.9903
 20
-192.9201
  0
VERTEX
  8
LAYER_14
 10
222.9903
 20
-193.2206
  0
VERTEX
  8
LAYER_14
 10
222.6376
 20
-193.2206
  0
SEQEND
  0
POLYLINE
  8
LAYER_14
 40
0.1411
 41
0.1411
 66
1
 10
0
 20
0
 30
0
  0
VERTEX
  8
LAYER_14
 10
221.8383
 20
-193.2206
  0
VERTEX
  8
LAYER_14
 10
217.4431
 20
-193.2206
  0
SEQEND
  0
POLYLINE
  8
LAYER_14
 40
0.1411
 41
0.1411
 66
1
 10
0
 20
0
 30
0
  0
VERTEX
  8
LAYER_14
 10
217.7434
 20
-193.9206
  0
VERTEX
  8
LAYER_14
 10
217.3907
 20
-193.9206
  0
VERTEX
  8
LAYER_14
 10
217.3907
 20
-193.5196
  0
VERTEX
  8
LAYER_14
 10
217.7434
 20
-193.5196
  0
SEQEND
  0
POLYLINE
  8
LAYER_14
 40
0.1411
 41
0.1411
 66
1
 10
0
 20
0
 30
0
  0
VERTEX
  8
LAYER_14
 10
218.3422
 20
-193.5196
  0
VERTEX
  8
LAYER_14
 10
221.6385
 20
-193.5196
  0
SEQEND
  0
POLYLINE
  8
LAYER_14
 40
0.1411
 41
0.1411
 66
1
 10
0
 20
0
 30
0
  0
VERTEX
  8
LAYER_14
 10
221.9382
 20
-193.5196
  0
VERTEX
  8
LAYER_14
 10
222.2903
 20
-193.5196
  0
VERTEX
  8
LAYER_14
 10
222.2903
 20
-193.9213
  0
VERTEX
  8
LAYER_14
 10
221.9382
 20
-193.9213
  0
SEQEND
  0
POLYLINE
  8
LAYER_14
 40
0.1411
 41
0.1411
 66
1
 10
0
 20
0
 30
0
  0
VERTEX
  8
LAYER_14
 10
221.9382
 20
-193.9206
  0
VERTEX
  8
LAYER_14
 10
217.6894
 20
-193.9206
  0
SEQEND
  0
INSERT
  8
LAYER_14
  2
AIGNBL0E020005
 10
0
 20
0
 30
0
  0
POLYLINE
  8
LAYER_14
 40
0.1411
 41
0.1411
 66
1
 10
0
 20
0
 30
0
  0
VERTEX
  8
LAYER_14
 10
217.5409
 20
-192.9201
  0
VERTEX
  8
LAYER_14
 10
217.8937
 20
-192.9201
  0
SEQEND
  0
POLYLINE
  8
LAYER_14
 40
0.1411
 41
0.1411
 66
1
 10
0
 20
0
 30
0
  0
VERTEX
  8
LAYER_14
 10
218.6723
 20
-192.9201
  0
VERTEX
  8
LAYER_14
 10
221.398
 20
-192.9201
  0
SEQEND
  0
POLYLINE
  8
LAYER_14
 40
0.1411
 41
0.1411
 66
1
 10
0
 20
0
 30
0
  0
VERTEX
  8
LAYER_14
 10
221.7873
 20
-192.9201
  0
VERTEX
  8
LAYER_14
 10
222.1401
 20
-192.9201
  0
SEQEND
  0
ENDBLK
  0
BLOCK
  8
LAYER_22
  2
AIGNBL16010002
 70
64
 10
0
 20
0
 30
0
  3
AIGNBL16010002
  0
INSERT
  8
LAYER_22
  2
AIGNBL16020003
 10
0
 20
0
 30
0
  0
INSERT
  8
LAYER_22
  2
AIGNBL16020014
 10
0
 20
0
 30
0
  0
INSERT
  8
LAYER_22
  2
AIGNBL16020034
 10
0
 20
0
 30
0
  0
INSERT
  8
LAYER_22
  2
AIGNBL16020043
 10
0
 20
0
 30
0
  0
INSERT
  8
LAYER_22
  2
AIGNBL1602004A
 10
0
 20
0
 30
0
  0
INSERT
  8
LAYER_22
  2
AIGNBL16020059
 10
0
 20
0
 30
0
  0
INSERT
  8
LAYER_22
  2
AIGNBL1602005A
 10
0
 20
0
 30
0
  0
INSERT
  8
LAYER_22
  2
AIGNBL1602005B
 10
0
 20
0
 30
0
  0
INSERT
  8
LAYER_22
  2
AIGNBL1602005C
 10
0
 20
0
 30
0
  0
INSERT
  8
LAYER_22
  2
AIGNBL1602005F
 10
0
 20
0
 30
0
  0
ENDBLK
  0
BLOCK
  8
LAYER_22
  2
AIGNBL16010068
 70
64
 10
0
 20
0
 30
0
  3
AIGNBL16010068
  0
INSERT
  8
LAYER_22
  2
AIGNBL16020069
 10
0
 20
0
 30
0
  0
INSERT
  8
LAYER_22
  2
AIGNBL1602007A
 10
0
 20
0
 30
0
  0
INSERT
  8
LAYER_22
  2
AIGNBL1602008C
 10
0
 20
0
 30
0
  0
INSERT
  8
LAYER_22
  2
AIGNBL1602009B
 10
0
 20
0
 30
0
  0
INSERT
  8
LAYER_22
  2
AIGNBL1602009C
 10
0
 20
0
 30
0
  0
INSERT
  8
LAYER_22
  2
AIGNBL1602009F
 10
0
 20
0
 30
0
  0
INSERT
  8
LAYER_22
  2
AIGNBL160200A0
 10
0
 20
0
 30
0
  0
CIRCLE
  8
LAYER_22
 10
131.6086
 20
-203.9202
 40
3.6
  0
INSERT
  8
LAYER_22
  2
AIGNBL160200A3
 10
0
 20
0
 30
0
  0
ENDBLK
  0
BLOCK
  8
LAYER_23
  2
AIGNBL17010002
 70
64
 10
0
 20
0
 30
0
  3
AIGNBL17010002
  0
POLYLINE
  8
LAYER_23
 40
0.1058
 41
0.1058
 66
1
 10
0
 20
0
 30
0
  0
VERTEX
  8
LAYER_23
 10
180.9271
 20
-133.1147
  0
VERTEX
  8
LAYER_23
 10
180.9271
 20
-87.6147
  0
VERTEX
  8
LAYER_23
 10
187.9255
 20
-87.6147
  0
VERTEX
  8
LAYER_23
 10
187.9455
 20
-133.1147
  0
VERTEX
  8
LAYER_23
 10
180.9471
 20
-133.1147
  0
SEQEND
  0
POLYLINE
  8
LAYER_23
 40
0.1058
 41
0.1058
 66
1
 10
0
 20
0
 30
0
  0
VERTEX
  8
LAYER_23
 10
181.2271
 20
-131.1147
  0
VERTEX
  8
LAYER_23
 10
181.2271
 20
-89.6147
  0
VERTEX
  8
LAYER_23
 10
185.9255
 20
-89.6147
  0
VERTEX
  8
LAYER_23
 10
185.9455
 20
-131.1147
  0
VERTEX
  8
LAYER_23
 10
181.2471
 20
-131.1147
  0
SEQEND
  0
ENDBLK
  0
BLOCK
  8
LAYER_23
  2
AIGNBL17010003
 70
64
 10
0
 20
0
 30
0
  3
AIGNBL17010003
  0
POLYLINE
  8
LAYER_23
 40
0.1058
 41
0.1058
 66
1
 10
0
 20
0
 30
0
 70
1
  0
VERTEX
  8
LAYER_23
 10
180.9271
 20
-176.5625
  0
VERTEX
  8
LAYER_23
 10
187.9271
 20
-176.5625
  0
VERTEX
  8
LAYER_23
 10
187.9271
 20
-178.5625
  0
VERTEX
  8
LAYER_23
 10
180.9271
 20
-178.5625
  0
SEQEND
  0
POLYLINE
  8
LAYER_23
 40
0.1058
 41
0.1058
 66
1
 10
0
 20
0
 30
0
  0
VERTEX
  8
LAYER_23
 10
185.9771
 20
-176.5625
  0
VERTEX
  8
LAYER_23
 10
185.9771
 20
-178.5625
  0
SEQEND
  0
POLYLINE
  8
LAYER_23
  6
AIGENLINE006
 40
0.1058
 41
0.1058
 62
160
 66
1
 10
0
 20
0
 30
0
 70
128
  0
VERTEX
  8
LAYER_23
 10
185.9771
 20
-178.5625
  0
VERTEX
  8
LAYER_23
 10
187.9271
 20
-178.5625
  0
SEQEND
  0
POLYLINE
  8
LAYER_23
  6
AIGENLINE006
 40
0.1058
 41
0.1058
 62
160
 66
1
 10
0
 20
0
 30
0
 70
128
  0
VERTEX
  8
LAYER_23
 10
187.9271
 20
-176.5625
  0
VERTEX
  8
LAYER_23
 10
185.9771
 20
-176.5625
  0
SEQEND
  0
ENDBLK
  0
BLOCK
  8
LAYER_33
  2
AIGNBL21010002
 70
64
 10
0
 20
0
 30
0
  3
AIGNBL21010002
  0
INSERT
  8
LAYER_33
  2
AIGNBL21020003
 10
0
 20
0
 30
0
  0
INSERT
  8
LAYER_33
  2
AIGNBL2102000B
 10
0
 20
0
 30
0
  0
ENDBLK
  0
BLOCK
  8
LAYER_33
  2
AIGNBL2101003C
 70
64
 10
0
 20
0
 30
0
  3
AIGNBL2101003C
  0
INSERT
  8
LAYER_33
  2
AIGNBL2102003D
 10
0
 20
0
 30
0
  0
INSERT
  8
LAYER_33
  2
AIGNBL21020045
 10
0
 20
0
 30
0
  0
ENDBLK
  0
BLOCK
  8
LAYER_33
  2
AIGNBL21010076
 70
64
 10
0
 20
0
 30
0
  3
AIGNBL21010076
  0
INSERT
  8
LAYER_33
  2
AIGNBL21020077
 10
0
 20
0
 30
0
  0
INSERT
  8
LAYER_33
  2
AIGNBL2102007E
 10
0
 20
0
 30
0
  0
INSERT
  8
LAYER_33
  2
AIGNBL2102007F
 10
0
 20
0
 30
0
  0
INSERT
  8
LAYER_33
  2
AIGNBL21020080
 10
0
 20
0
 30
0
  0
INSERT
  8
LAYER_33
  2
AIGNBL21020081
 10
0
 20
0
 30
0
  0
INSERT
  8
LAYER_33
  2
AIGNBL21020082
 10
0
 20
0
 30
0
  0
INSERT
  8
LAYER_33
  2
AIGNBL21020083
 10
0
 20
0
 30
0
  0
INSERT
  8
LAYER_33
  2
AIGNBL21020084
 10
0
 20
0
 30
0
  0
INSERT
  8
LAYER_33
  2
AIGNBL21020085
 10
0
 20
0
 30
0
  0
INSERT
  8
LAYER_33
  2
AIGNBL21020086
 10
0
 20
0
 30
0
  0
INSERT
  8
LAYER_33
  2
AIGNBL21020087
 10
0
 20
0
 30
0
  0
INSERT
  8
LAYER_33
  2
AIGNBL21020088
 10
0
 20
0
 30
0
  0
INSERT
  8
LAYER_33
  2
AIGNBL21020089
 10
0
 20
0
 30
0
  0
INSERT
  8
LAYER_33
  2
AIGNBL2102008A
 10
0
 20
0
 30
0
  0
INSERT
  8
LAYER_33
  2
AIGNBL2102008B
 10
0
 20
0
 30
0
  0
INSERT
  8
LAYER_33
  2
AIGNBL2102008C
 10
0
 20
0
 30
0
  0
INSERT
  8
LAYER_33
  2
AIGNBL2102008D
 10
0
 20
0
 30
0
  0
INSERT
  8
LAYER_33
  2
AIGNBL2102008E
 10
0
 20
0
 30
0
  0
INSERT
  8
LAYER_33
  2
AIGNBL2102008F
 10
0
 20
0
 30
0
  0
INSERT
  8
LAYER_33
  2
AIGNBL21020090
 10
0
 20
0
 30
0
  0
INSERT
  8
LAYER_33
  2
AIGNBL21020091
 10
0
 20
0
 30
0
  0
INSERT
  8
LAYER_33
  2
AIGNBL21020092
 10
0
 20
0
 30
0
  0
INSERT
  8
LAYER_33
  2
AIGNBL21020093
 10
0
 20
0
 30
0
  0
INSERT
  8
LAYER_33
  2
AIGNBL21020094
 10
0
 20
0
 30
0
  0
INSERT
  8
LAYER_33
  2
AIGNBL21020095
 10
0
 20
0
 30
0
  0
INSERT
  8
LAYER_33
  2
AIGNBL21020096
 10
0
 20
0
 30
0
  0
INSERT
  8
LAYER_33
  2
AIGNBL21020097
 10
0
 20
0
 30
0
  0
INSERT
  8
LAYER_33
  2
AIGNBL21020098
 10
0
 20
0
 30
0
  0
INSERT
  8
LAYER_33
  2
AIGNBL21020099
 10
0
 20
0
 30
0
  0
INSERT
  8
LAYER_33
  2
AIGNBL2102009A
 10
0
 20
0
 30
0
  0
INSERT
  8
LAYER_33
  2
AIGNBL2102009B
 10
0
 20
0
 30
0
  0
INSERT
  8
LAYER_33
  2
AIGNBL2102009C
 10
0
 20
0
 30
0
  0
INSERT
  8
LAYER_33
  2
AIGNBL2102009D
 10
0
 20
0
 30
0
  0
INSERT
  8
LAYER_33
  2
AIGNBL2102009E
 10
0
 20
0
 30
0
  0
INSERT
  8
LAYER_33
  2
AIGNBL2102009F
 10
0
 20
0
 30
0
  0
INSERT
  8
LAYER_33
  2
AIGNBL210200A0
 10
0
 20
0
 30
0
  0
INSERT
  8
LAYER_33
  2
AIGNBL210200A1
 10
0
 20
0
 30
0
  0
INSERT
  8
LAYER_33
  2
AIGNBL210200A2
 10
0
 20
0
 30
0
  0
INSERT
  8
LAYER_33
  2
AIGNBL210200A3
 10
0
 20
0
 30
0
  0
INSERT
  8
LAYER_33
  2
AIGNBL210200A4
 10
0
 20
0
 30
0
  0
INSERT
  8
LAYER_33
  2
AIGNBL210200A5
 10
0
 20
0
 30
0
  0
INSERT
  8
LAYER_33
  2
AIGNBL210200A6
 10
0
 20
0
 30
0
  0
INSERT
  8
LAYER_33
  2
AIGNBL210200A7
 10
0
 20
0
 30
0
  0
INSERT
  8
LAYER_33
  2
AIGNBL210200A8
 10
0
 20
0
 30
0
  0
INSERT
  8
LAYER_33
  2
AIGNBL210200A9
 10
0
 20
0
 30
0
  0
INSERT
  8
LAYER_33
  2
AIGNBL210200AA
 10
0
 20
0
 30
0
  0
INSERT
  8
LAYER_33
  2
AIGNBL210200AB
 10
0
 20
0
 30
0
  0
INSERT
  8
LAYER_33
  2
AIGNBL210200AC
 10
0
 20
0
 30
0
  0
INSERT
  8
LAYER_33
  2
AIGNBL210200AD
 10
0
 20
0
 30
0
  0
INSERT
  8
LAYER_33
  2
AIGNBL210200AE
 10
0
 20
0
 30
0
  0
INSERT
  8
LAYER_33
  2
AIGNBL210200AF
 10
0
 20
0
 30
0
  0
INSERT
  8
LAYER_33
  2
AIGNBL210200B0
 10
0
 20
0
 30
0
  0
INSERT
  8
LAYER_33
  2
AIGNBL210200B1
 10
0
 20
0
 30
0
  0
INSERT
  8
LAYER_33
  2
AIGNBL210200B2
 10
0
 20
0
 30
0
  0
INSERT
  8
LAYER_33
  2
AIGNBL210200B3
 10
0
 20
0
 30
0
  0
INSERT
  8
LAYER_33
  2
AIGNBL210200B4
 10
0
 20
0
 30
0
  0
INSERT
  8
LAYER_33
  2
AIGNBL210200B5
 10
0
 20
0
 30
0
  0
INSERT
  8
LAYER_33
  2
AIGNBL210200B6
 10
0
 20
0
 30
0
  0
INSERT
  8
LAYER_33
  2
AIGNBL210200B7
 10
0
 20
0
 30
0
  0
INSERT
  8
LAYER_33
  2
AIGNBL210200B8
 10
0
 20
0
 30
0
  0
INSERT
  8
LAYER_33
  2
AIGNBL210200B9
 10
0
 20
0
 30
0
  0
INSERT
  8
LAYER_33
  2
AIGNBL210200BA
 10
0
 20
0
 30
0
  0
INSERT
  8
LAYER_33
  2
AIGNBL210200BB
 10
0
 20
0
 30
0
  0
INSERT
  8
LAYER_33
  2
AIGNBL210200BC
 10
0
 20
0
 30
0
  0
INSERT
  8
LAYER_33
  2
AIGNBL210200BD
 10
0
 20
0
 30
0
  0
INSERT
  8
LAYER_33
  2
AIGNBL210200BE
 10
0
 20
0
 30
0
  0
INSERT
  8
LAYER_33
  2
AIGNBL210200BF
 10
0
 20
0
 30
0
  0
INSERT
  8
LAYER_33
  2
AIGNBL210200C0
 10
0
 20
0
 30
0
  0
INSERT
  8
LAYER_33
  2
AIGNBL210200C1
 10
0
 20
0
 30
0
  0
INSERT
  8
LAYER_33
  2
AIGNBL210200C2
 10
0
 20
0
 30
0
  0
INSERT
  8
LAYER_33
  2
AIGNBL210200C3
 10
0
 20
0
 30
0
  0
INSERT
  8
LAYER_33
  2
AIGNBL210200C4
 10
0
 20
0
 30
0
  0
INSERT
  8
LAYER_33
  2
AIGNBL210200C5
 10
0
 20
0
 30
0
  0
INSERT
  8
LAYER_33
  2
AIGNBL210200C6
 10
0
 20
0
 30
0
  0
INSERT
  8
LAYER_33
  2
AIGNBL210200C7
 10
0
 20
0
 30
0
  0
INSERT
  8
LAYER_33
  2
AIGNBL210200C8
 10
0
 20
0
 30
0
  0
INSERT
  8
LAYER_33
  2
AIGNBL210200C9
 10
0
 20
0
 30
0
  0
INSERT
  8
LAYER_33
  2
AIGNBL210200CA
 10
0
 20
0
 30
0
  0
INSERT
  8
LAYER_33
  2
AIGNBL210200CB
 10
0
 20
0
 30
0
  0
INSERT
  8
LAYER_33
  2
AIGNBL210200CC
 10
0
 20
0
 30
0
  0
INSERT
  8
LAYER_33
  2
AIGNBL210200CD
 10
0
 20
0
 30
0
  0
INSERT
  8
LAYER_33
  2
AIGNBL210200CE
 10
0
 20
0
 30
0
  0
INSERT
  8
LAYER_33
  2
AIGNBL210200CF
 10
0
 20
0
 30
0
  0
INSERT
  8
LAYER_33
  2
AIGNBL210200D0
 10
0
 20
0
 30
0
  0
INSERT
  8
LAYER_33
  2
AIGNBL210200D1
 10
0
 20
0
 30
0
  0
INSERT
  8
LAYER_33
  2
AIGNBL210200D2
 10
0
 20
0
 30
0
  0
INSERT
  8
LAYER_33
  2
AIGNBL210200D3
 10
0
 20
0
 30
0
  0
INSERT
  8
LAYER_33
  2
AIGNBL210200D4
 10
0
 20
0
 30
0
  0
INSERT
  8
LAYER_33
  2
AIGNBL210200D5
 10
0
 20
0
 30
0
  0
INSERT
  8
LAYER_33
  2
AIGNBL210200D6
 10
0
 20
0
 30
0
  0
INSERT
  8
LAYER_33
  2
AIGNBL210200D7
 10
0
 20
0
 30
0
  0
INSERT
  8
LAYER_33
  2
AIGNBL210200D8
 10
0
 20
0
 30
0
  0
INSERT
  8
LAYER_33
  2
AIGNBL210200D9
 10
0
 20
0
 30
0
  0
INSERT
  8
LAYER_33
  2
AIGNBL210200DA
 10
0
 20
0
 30
0
  0
INSERT
  8
LAYER_33
  2
AIGNBL210200DB
 10
0
 20
0
 30
0
  0
INSERT
  8
LAYER_33
  2
AIGNBL210200DC
 10
0
 20
0
 30
0
  0
INSERT
  8
LAYER_33
  2
AIGNBL210200DD
 10
0
 20
0
 30
0
  0
INSERT
  8
LAYER_33
  2
AIGNBL210200DE
 10
0
 20
0
 30
0
  0
INSERT
  8
LAYER_33
  2
AIGNBL210200DF
 10
0
 20
0
 30
0
  0
INSERT
  8
LAYER_33
  2
AIGNBL210200E0
 10
0
 20
0
 30
0
  0
INSERT
  8
LAYER_33
  2
AIGNBL210200E1
 10
0
 20
0
 30
0
  0
INSERT
  8
LAYER_33
  2
AIGNBL210200E2
 10
0
 20
0
 30
0
  0
INSERT
  8
LAYER_33
  2
AIGNBL210200E3
 10
0
 20
0
 30
0
  0
ENDBLK
  0
BLOCK
  8
LAYER_35
  2
AIGNBL23010002
 70
64
 10
0
 20
0
 30
0
  3
AIGNBL23010002
  0
INSERT
  8
LAYER_35
  2
AIGNBL23020003
 10
0
 20
0
 30
0
  0
INSERT
  8
LAYER_35
  2
AIGNBL23020004
 10
0
 20
0
 30
0
  0
INSERT
  8
LAYER_35
  2
AIGNBL23020005
 10
0
 20
0
 30
0
  0
ENDBLK
  0
BLOCK
  8
LAYER_35
  2
AIGNBL23010006
 70
64
 10
0
 20
0
 30
0
  3
AIGNBL23010006
  0
INSERT
  8
LAYER_35
  2
AIGNBL23020007
 10
0
 20
0
 30
0
  0
POLYLINE
  8
LAYER_35
 40
0.1764
 41
0.1764
 66
1
 10
0
 20
0
 30
0
  0
VERTEX
  8
LAYER_35
 10
114.1974
 20
-102.7467
  0
VERTEX
  8
LAYER_35
 10
149.1941
 20
-102.7427
  0
VERTEX
  8
LAYER_35
 10
149.4443
 20
-102.8082
  0
VERTEX
  8
LAYER_35
 10
149.6248
 20
-102.9927
  0
VERTEX
  8
LAYER_35
 10
149.6903
 20
-103.2429
  0
VERTEX
  8
LAYER_35
 10
149.6903
 20
-125.244
  0
VERTEX
  8
LAYER_35
 10
149.5468
 20
-125.5967
  0
VERTEX
  8
LAYER_35
 10
149.1941
 20
-125.7441
  0
VERTEX
  8
LAYER_35
 10
114.1933
 20
-125.7441
  0
VERTEX
  8
LAYER_35
 10
113.9433
 20
-125.6746
  0
VERTEX
  8
LAYER_35
 10
113.7587
 20
-125.4942
  0
VERTEX
  8
LAYER_35
 10
113.6931
 20
-125.244
  0
VERTEX
  8
LAYER_35
 10
113.6972
 20
-103.247
  0
VERTEX
  8
LAYER_35
 10
113.8448
 20
-102.8901
  0
VERTEX
  8
LAYER_35
 10
114.1974
 20
-102.7467
  0
SEQEND
  0
POLYLINE
  8
LAYER_35
 40
0.1764
 41
0.1764
 62
252
 66
1
 10
0
 20
0
 30
0
  0
VERTEX
  8
LAYER_35
 10
111.1998
 20
-98.7443
  0
VERTEX
  8
LAYER_35
 10
152.1919
 20
-98.7443
  0
VERTEX
  8
LAYER_35
 10
152.5446
 20
-98.8878
  0
VERTEX
  8
LAYER_35
 10
152.6923
 20
-99.2445
  0
VERTEX
  8
LAYER_35
 10
152.6923
 20
-128.2417
  0
VERTEX
  8
LAYER_35
 10
152.5446
 20
-128.5943
  0
VERTEX
  8
LAYER_35
 10
152.1919
 20
-128.7419
  0
VERTEX
  8
LAYER_35
 10
111.1998
 20
-128.7419
  0
VERTEX
  8
LAYER_35
 10
110.843
 20
-128.5943
  0
VERTEX
  8
LAYER_35
 10
110.6995
 20
-128.2417
  0
VERTEX
  8
LAYER_35
 10
110.6995
 20
-99.2445
  0
VERTEX
  8
LAYER_35
 10
110.843
 20
-98.8878
  0
VERTEX
  8
LAYER_35
 10
111.1998
 20
-98.7443
  0
SEQEND
  0
INSERT
  8
LAYER_35
  2
AIGNBL23020008
 10
0
 20
0
 30
0
  0
POLYLINE
  8
LAYER_35
 40
0.1764
 41
0.1764
 66
1
 10
0
 20
0
 30
0
  0
VERTEX
  8
LAYER_35
 10
131.5444
 20
-87.7296
  0
VERTEX
  8
LAYER_35
 10
131.5055
 20
-87.7296
  0
SEQEND
  0
INSERT
  8
LAYER_35
  2
AIGNBL23020009
 10
0
 20
0
 30
0
  0
ENDBLK
  0
BLOCK
  8
LAYER_35
  2
AIGNBL2301000A
 70
64
 10
0
 20
0
 30
0
  3
AIGNBL2301000A
  0
POLYLINE
  8
LAYER_35
 40
0.1764
 41
0.1764
 66
1
 10
0
 20
0
 30
0
  0
VERTEX
  8
LAYER_35
 10
102.3272
 20
-178.4168
  0
VERTEX
  8
LAYER_35
 10
102.3272
 20
-176.4168
  0
VERTEX
  8
LAYER_35
 10
110.8803
 20
-176.4168
  0
SEQEND
  0
POLYLINE
  8
LAYER_35
 40
0.1764
 41
0.1764
 66
1
 10
0
 20
0
 30
0
 70
1
  0
VERTEX
  8
LAYER_35
 10
178.9271
 20
-178.4168
  0
VERTEX
  8
LAYER_35
 10
104.3271
 20
-178.4168
  0
VERTEX
  8
LAYER_35
 10
104.3271
 20
-214.4168
  0
VERTEX
  8
LAYER_35
 10
178.9271
 20
-214.4168
  0
SEQEND
  0
POLYLINE
  8
LAYER_35
 40
0.1764
 41
0.1764
 66
1
 10
0
 20
0
 30
0
  0
VERTEX
  8
LAYER_35
 10
105.8214
 20
-176.4168
  0
VERTEX
  8
LAYER_35
 10
180.9271
 20
-176.4168
  0
VERTEX
  8
LAYER_35
 10
102.3271
 20
-176.4168
  0
VERTEX
  8
LAYER_35
 10
102.3271
 20
-216.4168
  0
VERTEX
  8
LAYER_35
 10
180.9271
 20
-216.4168
  0
VERTEX
  8
LAYER_35
 10
180.9271
 20
-176.4168
  0
VERTEX
  8
LAYER_35
 10
180.9271
 20
-178.4168
  0
SEQEND
  0
POLYLINE
  8
LAYER_35
 40
0.1764
 41
0.1764
 66
1
 10
0
 20
0
 30
0
  0
VERTEX
  8
LAYER_35
 10
104.3271
 20
-181.6668
  0
VERTEX
  8
LAYER_35
 10
105.8271
 20
-181.6668
 42
-0.4142501594
  0
VERTEX
  8
LAYER_35
 10
106.3271
 20
-182.1668
  0
VERTEX
  8
LAYER_35
 10
106.3271
 20
-185.3578
 42
-0.2840436974
  0
VERTEX
  8
LAYER_35
 10
106.0508
 20
-185.805
  0
VERTEX
  8
LAYER_35
 10
104.3271
 20
-186.6668
  0
SEQEND
  0
POLYLINE
  8
LAYER_35
 40
0.1764
 41
0.1764
 66
1
 10
0
 20
0
 30
0
  0
VERTEX
  8
LAYER_35
 10
178.9271
 20
-181.6668
  0
VERTEX
  8
LAYER_35
 10
177.4271
 20
-181.6668
 42
0.4141951428
  0
VERTEX
  8
LAYER_35
 10
176.9271
 20
-182.1668
  0
VERTEX
  8
LAYER_35
 10
176.9271
 20
-185.3578
 42
0.2840466421
  0
VERTEX
  8
LAYER_35
 10
177.2035
 20
-185.805
  0
VERTEX
  8
LAYER_35
 10
178.9271
 20
-186.6668
  0
SEQEND
  0
POLYLINE
  8
LAYER_35
 40
0.1764
 41
0.1764
 66
1
 10
0
 20
0
 30
0
 70
1
  0
VERTEX
  8
LAYER_35
 10
104.8771
 20
-184.9168
 42
0.4141769696
  0
VERTEX
  8
LAYER_35
 10
105.3771
 20
-185.4168
 42
0.4142319793
  0
VERTEX
  8
LAYER_35
 10
105.8771
 20
-184.9168
  0
VERTEX
  8
LAYER_35
 10
105.8771
 20
-182.4168
 42
0.4142501594
  0
VERTEX
  8
LAYER_35
 10
105.3771
 20
-181.9168
 42
0.4141951426
  0
VERTEX
  8
LAYER_35
 10
104.8771
 20
-182.4168
  0
SEQEND
  0
POLYLINE
  8
LAYER_35
 40
0.1764
 41
0.1764
 66
1
 10
0
 20
0
 30
0
 70
1
  0
VERTEX
  8
LAYER_35
 10
177.3771
 20
-184.9168
 42
0.4141769696
  0
VERTEX
  8
LAYER_35
 10
177.8771
 20
-185.4168
 42
0.4142319793
  0
VERTEX
  8
LAYER_35
 10
178.3771
 20
-184.9168
  0
VERTEX
  8
LAYER_35
 10
178.3771
 20
-182.4168
 42
0.4142501594
  0
VERTEX
  8
LAYER_35
 10
177.8771
 20
-181.9168
 42
0.4141951426
  0
VERTEX
  8
LAYER_35
 10
177.3771
 20
-182.4168
  0
SEQEND
  0
ENDBLK
  0
BLOCK
  8
LAYER_36
  2
AIGNBL24010002
 70
64
 10
0
 20
0
 30
0
  3
AIGNBL24010002
  0
POLYLINE
  8
LAYER_36
 40
0.0882
 41
0.0882
 62
254
 66
1
 10
0
 20
0
 30
0
  0
VERTEX
  8
LAYER_36
 10
109.8173
 20
-254.9198
  0
SEQEND
  0
ENDBLK
  0
BLOCK
  8
LAYER_36
  2
AIGNBL24010003
 70
64
 10
0
 20
0
 30
0
  3
AIGNBL24010003
  0
POLYLINE
  8
LAYER_36
 40
0.0882
 41
0.0882
 62
254
 66
1
 10
0
 20
0
 30
0
  0
VERTEX
  8
LAYER_36
 10
103.4169
 20
-254.9198
  0
SEQEND
  0
ENDBLK
  0
BLOCK
  8
LAYER_36
  2
AIGNBL24010004
 70
64
 10
0
 20
0
 30
0
  3
AIGNBL24010004
  0
POLYLINE
  8
LAYER_36
 40
0.0882
 41
0.0882
 62
254
 66
1
 10
0
 20
0
 30
0
  0
VERTEX
  8
LAYER_36
 10
109.8173
 20
-254.9198
  0
SEQEND
  0
ENDBLK
  0
BLOCK
  8
LAYER_36
  2
AIGNBL24010005
 70
64
 10
0
 20
0
 30
0
  3
AIGNBL24010005
  0
POLYLINE
  8
LAYER_36
 40
0.0882
 41
0.0882
 66
1
 10
0
 20
0
 30
0
  0
VERTEX
  8
LAYER_36
 10
103.4169
 20
-254.9198
  0
VERTEX
  8
LAYER_36
 10
109.8173
 20
-254.9198
  0
SEQEND
  0
ENDBLK
  0
ENDSEC
  0
SECTION
  2
ENTITIES
  0
INSERT
  8
LAYER_2
  2
AIGNBL02010002
 10
0
 20
0
 30
0
  0
INSERT
  8
LAYER_2
  2
AIGNBL0201009F
 10
0
 20
0
 30
0
  0
INSERT
  8
LAYER_2
  2
AIGNBL020100A4
 10
0
 20
0
 30
0
  0
INSERT
  8
LAYER_2
  2
AIGNBL02010100
 10
0
 20
0
 30
0
  0
INSERT
  8
LAYER_2
  2
AIGNBL020101E4
 10
0
 20
0
 30
0
  0
POLYLINE
  8
LAYER_5
 40
0.1129
 41
0.1129
 66
1
 10
0
 20
0
 30
0
  0
VERTEX
  8
LAYER_5
 10
96.889
 20
-87.8045
  0
VERTEX
  8
LAYER_5
 10
96.889
 20
-133.8044
  0
SEQEND
  0
POLYLINE
  8
LAYER_5
 40
0.1129
 41
0.1129
 66
1
 10
0
 20
0
 30
0
  0
VERTEX
  8
LAYER_5
 10
99.5965
 20
-133.8957
  0
VERTEX
  8
LAYER_5
 10
94.3045
 20
-133.8957
  0
SEQEND
  0
TEXT
  8
LAYER_5
 10
91.5956
 20
-113.2014
 11
91.5956
 21
-113.2014
 40
4.4427
 41
0.5
 50
89.99999999
  1
460
  0
POLYLINE
  8
LAYER_5
 40
0.1129
 41
0.1129
 66
1
 10
0
 20
0
 30
0
  0
VERTEX
  8
LAYER_5
 10
101.6935
 20
-82.7599
  0
VERTEX
  8
LAYER_5
 10
181.6931
 20
-82.7599
  0
SEQEND
  0
POLYLINE
  8
LAYER_5
 40
0.1129
 41
0.1129
 66
1
 10
0
 20
0
 30
0
  0
VERTEX
  8
LAYER_5
 10
181.6935
 20
-80.1525
  0
VERTEX
  8
LAYER_5
 10
181.6935
 20
-85.4437
  0
SEQEND
  0
POLYLINE
  8
LAYER_5
 40
0.1129
 41
0.1129
 66
1
 10
0
 20
0
 30
0
  0
VERTEX
  8
LAYER_5
 10
101.6949
 20
-85.4437
  0
VERTEX
  8
LAYER_5
 10
101.6949
 20
-80.1525
  0
SEQEND
  0
TEXT
  8
LAYER_5
 10
138.1769
 20
-81.4115
 11
138.1769
 21
-81.4115
 40
4.4427
 41
0.5
  1
800
  0
POLYLINE
  8
LAYER_6
 40
0.3528
 41
0.3528
 66
1
 10
0
 20
0
 30
0
  0
VERTEX
  8
LAYER_6
 10
88.8098
 20
-87.6147
  0
VERTEX
  8
LAYER_6
 10
198.3648
 20
-87.6147
  0
SEQEND
  0
INSERT
  8
LAYER_14
  2
AIGNBL0E010002
 10
0
 20
0
 30
0
  0
INSERT
  8
LAYER_14
  2
AIGNBL0E010004
 10
0
 20
0
 30
0
  0
INSERT
  8
LAYER_22
  2
AIGNBL16010002
 10
0
 20
0
 30
0
  0
INSERT
  8
LAYER_22
  2
AIGNBL16010068
 10
0
 20
0
 30
0
  0
POLYLINE
  8
LAYER_23
 40
0.1764
 41
0.1764
 66
1
 10
0
 20
0
 30
0
 70
1
  0
VERTEX
  8
LAYER_23
 10
188.5036
 20
-17.6279
  0
VERTEX
  8
LAYER_23
 10
145.9243
 20
-17.6279
  0
VERTEX
  8
LAYER_23
 10
145.9243
 20
-11.6279
  0
VERTEX
  8
LAYER_23
 10
188.5036
 20
-11.6279
  0
SEQEND
  0
POLYLINE
  8
LAYER_23
 40
0.1764
 41
0.1764
 66
1
 10
0
 20
0
 30
0
 70
1
  0
VERTEX
  8
LAYER_23
 10
188.5036
 20
-23.6279
  0
VERTEX
  8
LAYER_23
 10
145.9243
 20
-23.6279
  0
VERTEX
  8
LAYER_23
 10
145.9243
 20
-17.6279
  0
VERTEX
  8
LAYER_23
 10
188.5036
 20
-17.6279
  0
SEQEND
  0
POLYLINE
  8
LAYER_23
 40
0.1764
 41
0.1764
 66
1
 10
0
 20
0
 30
0
 70
1
  0
VERTEX
  8
LAYER_23
 10
188.5036
 20
-29.6278
  0
VERTEX
  8
LAYER_23
 10
145.9243
 20
-29.6278
  0
VERTEX
  8
LAYER_23
 10
145.9243
 20
-23.6279
  0
VERTEX
  8
LAYER_23
 10
188.5036
 20
-23.6279
  0
SEQEND
  0
POLYLINE
  8
LAYER_23
 40
0.1764
 41
0.1764
 66
1
 10
0
 20
0
 30
0
 70
1
  0
VERTEX
  8
LAYER_23
 10
188.5036
 20
-35.6278
  0
VERTEX
  8
LAYER_23
 10
145.9243
 20
-35.6278
  0
VERTEX
  8
LAYER_23
 10
145.9243
 20
-29.6278
  0
VERTEX
  8
LAYER_23
 10
188.5036
 20
-29.6278
  0
SEQEND
  0
POLYLINE
  8
LAYER_23
 40
0.1764
 41
0.1764
 66
1
 10
0
 20
0
 30
0
 70
1
  0
VERTEX
  8
LAYER_23
 10
188.5036
 20
-41.6278
  0
VERTEX
  8
LAYER_23
 10
145.9243
 20
-41.6278
  0
VERTEX
  8
LAYER_23
 10
145.9243
 20
-35.6278
  0
VERTEX
  8
LAYER_23
 10
188.5036
 20
-35.6278
  0
SEQEND
  0
POLYLINE
  8
LAYER_23
 40
0.1764
 41
0.1764
 66
1
 10
0
 20
0
 30
0
 70
1
  0
VERTEX
  8
LAYER_23
 10
251.7069
 20
-17.6279
  0
VERTEX
  8
LAYER_23
 10
188.3172
 20
-17.6279
  0
VERTEX
  8
LAYER_23
 10
188.3172
 20
-11.6279
  0
VERTEX
  8
LAYER_23
 10
251.7069
 20
-11.6279
  0
SEQEND
  0
POLYLINE
  8
LAYER_23
 40
0.1764
 41
0.1764
 66
1
 10
0
 20
0
 30
0
 70
1
  0
VERTEX
  8
LAYER_23
 10
251.7069
 20
-23.6279
  0
VERTEX
  8
LAYER_23
 10
188.3172
 20
-23.6279
  0
VERTEX
  8
LAYER_23
 10
188.3172
 20
-17.6279
  0
VERTEX
  8
LAYER_23
 10
251.7069
 20
-17.6279
  0
SEQEND
  0
POLYLINE
  8
LAYER_23
 40
0.1764
 41
0.1764
 66
1
 10
0
 20
0
 30
0
 70
1
  0
VERTEX
  8
LAYER_23
 10
251.7069
 20
-29.6278
  0
VERTEX
  8
LAYER_23
 10
188.3172
 20
-29.6278
  0
VERTEX
  8
LAYER_23
 10
188.3172
 20
-23.6279
  0
VERTEX
  8
LAYER_23
 10
251.7069
 20
-23.6279
  0
SEQEND
  0
POLYLINE
  8
LAYER_23
 40
0.1764
 41
0.1764
 66
1
 10
0
 20
0
 30
0
 70
1
  0
VERTEX
  8
LAYER_23
 10
251.7069
 20
-41.6278
  0
VERTEX
  8
LAYER_23
 10
188.3172
 20
-41.6278
  0
VERTEX
  8
LAYER_23
 10
188.3172
 20
-35.6278
  0
VERTEX
  8
LAYER_23
 10
251.7069
 20
-35.6278
  0
SEQEND
  0
POLYLINE
  8
LAYER_23
 40
0.1764
 41
0.1764
 66
1
 10
0
 20
0
 30
0
 70
1
  0
VERTEX
  8
LAYER_23
 10
188.5036
 20
-47.6278
  0
VERTEX
  8
LAYER_23
 10
145.9243
 20
-47.6278
  0
VERTEX
  8
LAYER_23
 10
145.9243
 20
-41.6278
  0
VERTEX
  8
LAYER_23
 10
188.5036
 20
-41.6278
  0
SEQEND
  0
POLYLINE
  8
LAYER_23
 40
0.1764
 41
0.1764
 66
1
 10
0
 20
0
 30
0
 70
1
  0
VERTEX
  8
LAYER_23
 10
251.7069
 20
-47.6278
  0
VERTEX
  8
LAYER_23
 10
188.3172
 20
-47.6278
  0
VERTEX
  8
LAYER_23
 10
188.3172
 20
-41.6278
  0
VERTEX
  8
LAYER_23
 10
251.7069
 20
-41.6278
  0
SEQEND
  0
POLYLINE
  8
LAYER_23
 40
0.1764
 41
0.1764
 66
1
 10
0
 20
0
 30
0
 70
1
  0
VERTEX
  8
LAYER_23
 10
188.5036
 20
-53.6277
  0
VERTEX
  8
LAYER_23
 10
145.9243
 20
-53.6277
  0
VERTEX
  8
LAYER_23
 10
145.9243
 20
-47.6278
  0
VERTEX
  8
LAYER_23
 10
188.5036
 20
-47.6278
  0
SEQEND
  0
POLYLINE
  8
LAYER_23
 40
0.1764
 41
0.1764
 66
1
 10
0
 20
0
 30
0
 70
1
  0
VERTEX
  8
LAYER_23
 10
251.7069
 20
-53.6277
  0
VERTEX
  8
LAYER_23
 10
188.3172
 20
-53.6277
  0
VERTEX
  8
LAYER_23
 10
188.3172
 20
-47.6278
  0
VERTEX
  8
LAYER_23
 10
251.7069
 20
-47.6278
  0
SEQEND
  0
POLYLINE
  8
LAYER_23
 40
0.1764
 41
0.1764
 66
1
 10
0
 20
0
 30
0
 70
1
  0
VERTEX
  8
LAYER_23
 10
251.7069
 20
-35.6278
  0
VERTEX
  8
LAYER_23
 10
188.3172
 20
-35.6278
  0
VERTEX
  8
LAYER_23
 10
188.3172
 20
-29.6278
  0
VERTEX
  8
LAYER_23
 10
251.7069
 20
-29.6278
  0
SEQEND
  0
TEXT
  8
LAYER_23
 10
147.2513
 20
-16.1001
 11
147.2513
 21
-16.1001
 40
3.7519
 41
0.5
  1
洗面器
  0
TEXT
  8
LAYER_23
 10
147.2513
 20
-22.1001
 11
147.2513
 21
-22.1001
 40
3.7519
 41
0.5
  1
排水目皿
  0
TEXT
  8
LAYER_23
 10
147.2513
 20
-28.1001
 11
147.2513
 21
-28.1001
 40
3.7519
 41
0.5
  1
水栓金具
  0
TEXT
  8
LAYER_23
 10
147.2513
 20
-34.1001
 11
147.2513
 21
-34.1001
 40
3.7519
 41
0.5
  1
トラップ
  0
TEXT
  8
LAYER_23
 10
147.2513
 20
-40.1001
 11
147.2513
 21
-40.1001
 40
4.5023
 41
0.5
  1
止水栓1/2
  0
TEXT
  8
LAYER_23
 10
147.2513
 20
-46.1002
 11
147.2513
 21
-46.1002
 40
3.7519
 41
0.5
  1
バスケット
  0
TEXT
  8
LAYER_23
 10
147.2513
 20
-52.1002
 11
147.2513
 21
-52.1002
 40
3.7519
 41
0.5
  1
タオルレール
  0
TEXT
  8
LAYER_23
 10
191.9101
 20
-16.2402
 11
191.9101
 21
-16.2402
 40
4.5023
 41
0.5
  1
CIE-ERLA80SX/
  0
TEXT
  8
LAYER_23
 10
191.9101
 20
-22.2402
 11
191.9101
 21
-22.2402
 40
4.5023
 41
0.5
  1
PIL01N/色
  0
TEXT
  8
LAYER_23
 10
191.9101
 20
-28.2401
 11
191.9101
 21
-28.2401
 40
4.5023
 41
0.5
  1
JP303801/23590AL1/23590DL1
  0
TEXT
  8
LAYER_23
 10
191.9101
 20
-34.2401
 11
191.9101
 21
-34.2401
 40
4.5023
 41
0.5
  1
AQ-BTN 
  0
TEXT
  8
LAYER_23
 10
191.9101
 20
-40.2401
 11
191.9101
 21
-40.2401
 40
4.5023
 41
0.5
  1
AQ-2261F×2
  0
TEXT
  8
LAYER_23
 10
191.9101
 20
-46.2402
 11
191.9101
 21
-46.2402
 40
4.5023
 41
0.5
  1
CIE-ERST80/
  0
TEXT
  8
LAYER_23
 10
191.9101
 20
-52.2402
 11
191.9101
 21
-52.2402
 40
4.5023
 41
0.5
  1
CIE-ERPLST/
  0
INSERT
  8
LAYER_23
  2
AIGNBL17010002
 10
0
 20
0
 30
0
  0
INSERT
  8
LAYER_23
  2
AIGNBL17010003
 10
0
 20
0
 30
0
  0
INSERT
  8
LAYER_33
  2
AIGNBL21010002
 10
0
 20
0
 30
0
  0
INSERT
  8
LAYER_33
  2
AIGNBL2101003C
 10
0
 20
0
 30
0
  0
INSERT
  8
LAYER_33
  2
AIGNBL21010076
 10
0
 20
0
 30
0
  0
POLYLINE
  8
LAYER_35
 40
0.3528
 41
0.3528
 66
1
 10
0
 20
0
 30
0
  0
VERTEX
  8
LAYER_35
 10
79.1724
 20
-254.9198
  0
VERTEX
  8
LAYER_35
 10
240.9472
 20
-254.9198
  0
SEQEND
  0
POLYLINE
  8
LAYER_35
 40
0.3528
 41
0.3528
 66
1
 10
0
 20
0
 30
0
  0
VERTEX
  8
LAYER_35
 10
240.9472
 20
-130.8763
  0
VERTEX
  8
LAYER_35
 10
240.9472
 20
-254.9198
  0
SEQEND
  0
INSERT
  8
LAYER_35
  2
AIGNBL23010002
 10
0
 20
0
 30
0
  0
INSERT
  8
LAYER_35
  2
AIGNBL23010006
 10
0
 20
0
 30
0
  0
INSERT
  8
LAYER_35
  2
AIGNBL2301000A
 10
0
 20
0
 30
0
  0
POLYLINE
  8
LAYER_36
 40
0.0882
 41
0.0882
 66
1
 10
0
 20
0
 30
0
  0
VERTEX
  8
LAYER_36
 10
131.6086
 20
-221.0835
  0
VERTEX
  8
LAYER_36
 10
141.6087
 20
-221.0835
  0
SEQEND
  0
POLYLINE
  8
LAYER_36
 40
0.0882
 41
0.0882
 66
1
 10
0
 20
0
 30
0
  0
VERTEX
  8
LAYER_36
 10
141.6087
 20
-215.0404
  0
VERTEX
  8
LAYER_36
 10
141.6087
 20
-221.5431
  0
SEQEND
  0
POLYLINE
  8
LAYER_36
 40
0.0882
 41
0.0882
 66
1
 10
0
 20
0
 30
0
  0
VERTEX
  8
LAYER_36
 10
131.6087
 20
-215.0404
  0
VERTEX
  8
LAYER_36
 10
131.6087
 20
-221.5431
  0
SEQEND
  0
TEXT
  8
LAYER_36
 10
134.2309
 20
-225.1738
 11
134.2309
 21
-225.1738
 40
3.258
 41
0.5
  1
100
  0
POLYLINE
  8
LAYER_36
 40
0.0882
 41
0.0882
 66
1
 10
0
 20
0
 30
0
  0
VERTEX
  8
LAYER_36
 10
121.6086
 20
-221.0835
  0
VERTEX
  8
LAYER_36
 10
131.6086
 20
-221.0835
  0
SEQEND
  0
POLYLINE
  8
LAYER_36
 40
0.0882
 41
0.0882
 66
1
 10
0
 20
0
 30
0
  0
VERTEX
  8
LAYER_36
 10
131.6086
 20
-206.7644
  0
VERTEX
  8
LAYER_36
 10
131.6086
 20
-208.9561
  0
SEQEND
  0
POLYLINE
  8
LAYER_36
 40
0.0882
 41
0.0882
 66
1
 10
0
 20
0
 30
0
  0
VERTEX
  8
LAYER_36
 10
121.6086
 20
-215.0404
  0
VERTEX
  8
LAYER_36
 10
121.6086
 20
-221.5431
  0
SEQEND
  0
POLYLINE
  8
LAYER_36
  6
AIGENLINE007
 40
0.1058
 41
0.1058
 66
1
 10
0
 20
0
 30
0
 70
128
  0
VERTEX
  8
LAYER_36
 10
141.6087
 20
-207.8085
  0
VERTEX
  8
LAYER_36
 10
141.6087
 20
-214.3111
  0
SEQEND
  0
POLYLINE
  8
LAYER_36
  6
AIGENLINE007
 40
0.1058
 41
0.1058
 66
1
 10
0
 20
0
 30
0
 70
128
  0
VERTEX
  8
LAYER_36
 10
121.6086
 20
-207.8085
  0
VERTEX
  8
LAYER_36
 10
121.6086
 20
-214.3111
  0
SEQEND
  0
TEXT
  8
LAYER_36
 10
124.5399
 20
-225.1739
 11
124.5399
 21
-225.1739
 40
3.258
 41
0.5
  1
100
  0
POLYLINE
  8
LAYER_36
 40
0.0882
 41
0.0882
 66
1
 10
0
 20
0
 30
0
  0
VERTEX
  8
LAYER_36
 10
147.8218
 20
-254.9198
  0
VERTEX
  8
LAYER_36
 10
147.8218
 20
-204.9688
  0
SEQEND
  0
POLYLINE
  8
LAYER_36
 40
0.0882
 41
0.0882
 66
1
 10
0
 20
0
 30
0
  0
VERTEX
  8
LAYER_36
 10
145.703
 20
-204.9198
  0
VERTEX
  8
LAYER_36
 10
149.9409
 20
-204.9198
  0
SEQEND
  0
TEXT
  8
LAYER_36
 10
157.7356
 20
-206.0382
 11
157.7356
 21
-206.0382
 40
2.5981
 41
0.5
 72
1
  1
給水・給湯
  0
TEXT
  8
LAYER_36
 10
158.9359
 20
-209.3634
 11
158.9359
 21
-209.3634
 40
2.9618
 41
0.5
 72
1
  1
500
  0
POLYLINE
  8
LAYER_36
 40
0.0882
 41
0.0882
 66
1
 10
0
 20
0
 30
0
  0
VERTEX
  8
LAYER_36
 10
94.4642
 20
-254.9198
  0
VERTEX
  8
LAYER_36
 10
94.4642
 20
-203.973
  0
SEQEND
  0
POLYLINE
  8
LAYER_36
 40
0.0882
 41
0.0882
 66
1
 10
0
 20
0
 30
0
  0
VERTEX
  8
LAYER_36
 10
92.3454
 20
-203.9198
  0
VERTEX
  8
LAYER_36
 10
96.5832
 20
-203.9198
  0
SEQEND
  0
POLYLINE
  8
LAYER_36
 40
0.0882
 41
0.0882
 66
1
 10
0
 20
0
 30
0
  0
VERTEX
  8
LAYER_36
 10
94.4642
 20
-203.973
  0
VERTEX
  8
LAYER_36
 10
94.4642
 20
-175.0032
  0
SEQEND
  0
POLYLINE
  8
LAYER_36
  6
AIGENLINE007
 40
0.1058
 41
0.1058
 66
1
 10
0
 20
0
 30
0
 70
128
  0
VERTEX
  8
LAYER_36
 10
97.2885
 20
-203.9198
  0
VERTEX
  8
LAYER_36
 10
127.5279
 20
-203.9198
  0
SEQEND
  0
TEXT
  8
LAYER_36
 10
92.0776
 20
-208.0188
 11
92.0776
 21
-208.0188
 40
2.5981
 41
0.5
 72
1
  1
排水
  0
TEXT
  8
LAYER_36
 10
93.9029
 20
-211.344
 11
93.9029
 21
-211.344
 40
2.9618
 41
0.5
 72
1
  1
510
  0
TEXT
  8
LAYER_36
 10
93.9029
 20
-188.2721
 11
93.9029
 21
-188.2721
 40
2.9618
 41
0.5
 72
1
  1
290
  0
POLYLINE
  8
LAYER_36
 40
0.0882
 41
0.0882
 66
1
 10
0
 20
0
 30
0
  0
VERTEX
  8
LAYER_36
 10
246.741
 20
-254.9198
  0
VERTEX
  8
LAYER_36
 10
246.741
 20
-203.973
  0
SEQEND
  0
POLYLINE
  8
LAYER_36
 40
0.0882
 41
0.0882
 66
1
 10
0
 20
0
 30
0
  0
VERTEX
  8
LAYER_36
 10
244.6223
 20
-203.9198
  0
VERTEX
  8
LAYER_36
 10
248.8601
 20
-203.9198
  0
SEQEND
  0
TEXT
  8
LAYER_36
 10
248.0738
 20
-199.4113
 11
248.0738
 21
-199.4113
 40
2.5981
 41
0.5
 72
1
  1
排水
  0
TEXT
  8
LAYER_36
 10
249.899
 20
-202.7365
 11
249.899
 21
-202.7365
 40
2.9618
 41
0.5
 72
1
  1
510
  0
POLYLINE
  8
LAYER_36
 40
0.0882
 41
0.0882
 66
1
 10
0
 20
0
 30
0
  0
VERTEX
  8
LAYER_36
 10
252.3029
 20
-254.9198
  0
VERTEX
  8
LAYER_36
 10
252.3029
 20
-204.9688
  0
SEQEND
  0
POLYLINE
  8
LAYER_36
 40
0.0882
 41
0.0882
 66
1
 10
0
 20
0
 30
0
  0
VERTEX
  8
LAYER_36
 10
250.1842
 20
-204.9198
  0
VERTEX
  8
LAYER_36
 10
254.422
 20
-204.9198
  0
SEQEND
  0
POLYLINE
  8
LAYER_36
  6
AIGENLINE007
 40
0.1058
 41
0.1058
 66
1
 10
0
 20
0
 30
0
 70
128
  0
VERTEX
  8
LAYER_36
 10
243.6589
 20
-204.9198
  0
VERTEX
  8
LAYER_36
 10
249.9589
 20
-204.9198
  0
SEQEND
  0
TEXT
  8
LAYER_36
 10
260.2428
 20
-222.8354
 11
260.2428
 21
-222.8354
 40
2.5981
 41
0.5
 72
1
  1
給水・給湯
  0
TEXT
  8
LAYER_36
 10
261.4431
 20
-226.1606
 11
261.4431
 21
-226.1606
 40
2.9618
 41
0.5
 72
1
  1
500
  0
INSERT
  8
LAYER_36
  2
AIGNBL24010002
 10
0
 20
0
 30
0
  0
INSERT
  8
LAYER_36
  2
AIGNBL24010003
 10
0
 20
0
 30
0
  0
INSERT
  8
LAYER_36
  2
AIGNBL24010004
 10
0
 20
0
 30
0
  0
INSERT
  8
LAYER_36
  2
AIGNBL24010005
 10
0
 20
0
 30
0
  0
POLYLINE
  8
LAYER_36
 40
0.0882
 41
0.0882
 66
1
 10
0
 20
0
 30
0
  0
VERTEX
  8
LAYER_36
 10
84.3178
 20
-254.9198
  0
VERTEX
  8
LAYER_36
 10
84.3178
 20
-175.0198
  0
SEQEND
  0
POLYLINE
  8
LAYER_36
 40
0.0882
 41
0.0882
 66
1
 10
0
 20
0
 30
0
  0
VERTEX
  8
LAYER_36
 10
81.7154
 20
-174.9199
  0
VERTEX
  8
LAYER_36
 10
100.3649
 20
-174.9199
  0
SEQEND
  0
TEXT
  8
LAYER_36
 10
78.8494
 20
-178.9048
 11
78.8494
 21
-178.9048
 40
2.9618
 41
0.5
  1
800
  0
TEXT
  8
LAYER_36
 10
73.4882
 20
-256.1437
 11
73.4882
 21
-256.1437
 40
3.258
 41
0.5
  1
F.L
  0
ENDSEC
  0
EOF
