  0
SECTION
  2
HEADER
  9
$ACADVER
  1
AC1009
  9
$LUNITS
 70
2
  9
$LUPREC
 70
4
  9
$LTSCALE
 40
1.0
  9
$EXTMIN
 10
-30.3177
 20
33.3285
 30
0
  9
$EXTMAX
 10
251.6749
 20
230.337
 30
0
  0
ENDSEC
  0
SECTION
  2
TABLES
  0
TABLE
  2
LTYPE
 70
256
  0
LTYPE
  2
AIGENLINE001
 70
64
  3
generate AI->DXF Converter
 72
65
 73
2
 40
1.4134
 49
0.7067
 49
-0.7067
  0
LTYPE
  2
AIGENLINE002
 70
64
  3
generate AI->DXF Converter
 72
65
 73
2
 40
1.4299
 49
0.715
 49
-0.715
  0
LTYPE
  2
AIGENLINE003
 70
64
  3
generate AI->DXF Converter
 72
65
 73
2
 40
1.4566
 49
0.7283
 49
-0.7283
  0
LTYPE
  2
AIGENLINE004
 70
64
  3
generate AI->DXF Converter
 72
65
 73
2
 40
1.4111
 49
0.7056
 49
-0.7056
  0
ENDTAB
  0
TABLE
  2
LAYER
 70
2
  0
LAYER
  2
LAYER_1
 70
64
 62
7
  6
CONTINUOUS
  0
LAYER
  2
LAYER_2
 70
64
 62
7
  6
CONTINUOUS
  0
ENDTAB
  0
TABLE
  2
STYLE
 70
6
  0
STYLE
  2
STANDARD
 70
0
 40
0
 50
0
 71
0
 41
0
 42
0
  3
TXT
  4
BIGFONT
  0
ENDTAB
  0
ENDSEC
  0
SECTION
  2
BLOCKS
  0
BLOCK
  8
LAYER_2
  2
AIGNBL02040009
 70
64
 10
0
 20
0
 30
0
  3
AIGNBL02040009
  0
POLYLINE
  8
LAYER_2
 40
0.05
 41
0.05
 66
1
 10
0
 20
0
 30
0
 70
1
  0
VERTEX
  8
LAYER_2
 10
146.7545
 20
39.1418
  0
VERTEX
  8
LAYER_2
 10
146.2656
 20
37.9567
  0
VERTEX
  8
LAYER_2
 10
145.6376
 20
37.9567
  0
VERTEX
  8
LAYER_2
 10
147.2372
 20
41.7225
  0
VERTEX
  8
LAYER_2
 10
147.9703
 20
41.7225
  0
VERTEX
  8
LAYER_2
 10
149.5768
 20
37.9567
  0
VERTEX
  8
LAYER_2
 10
148.9267
 20
37.9567
  0
VERTEX
  8
LAYER_2
 10
148.424
 20
39.1418
  0
SEQEND
  0
POLYLINE
  8
LAYER_2
 40
0.05
 41
0.05
 66
1
 10
0
 20
0
 30
0
 70
1
  0
VERTEX
  8
LAYER_2
 10
148.2983
 20
39.5207
  0
VERTEX
  8
LAYER_2
 10
147.8373
 20
40.6056
  0
VERTEX
  8
LAYER_2
 10
147.5927
 20
41.2926
  0
VERTEX
  8
LAYER_2
 10
147.5789
 20
41.2926
  0
VERTEX
  8
LAYER_2
 10
147.3412
 20
40.6101
  0
VERTEX
  8
LAYER_2
 10
146.8806
 20
39.5207
  0
SEQEND
  0
ENDBLK
  0
BLOCK
  8
LAYER_2
  2
AIGNBL0204000A
 70
64
 10
0
 20
0
 30
0
  3
AIGNBL0204000A
  0
POLYLINE
  8
LAYER_2
 40
0.05
 41
0.05
 66
1
 10
0
 20
0
 30
0
 70
1
  0
VERTEX
  8
LAYER_2
 10
153.942
 20
37.4034
 42
-0.01557776889
  0
VERTEX
  8
LAYER_2
 10
152.1399
 20
37.8395
  0
VERTEX
  8
LAYER_2
 10
151.8533
 20
37.895
 42
-0.08356586593
  0
VERTEX
  8
LAYER_2
 10
150.9892
 20
38.0612
 42
-0.09749891868
  0
VERTEX
  8
LAYER_2
 10
150.3281
 20
38.4671
 42
-0.2129139625
  0
VERTEX
  8
LAYER_2
 10
149.7793
 20
39.7998
 42
-0.09685063121
  0
VERTEX
  8
LAYER_2
 10
149.9239
 20
40.5732
 42
-0.2046489378
  0
VERTEX
  8
LAYER_2
 10
150.9715
 20
41.5974
 42
-0.09824326873
  0
VERTEX
  8
LAYER_2
 10
151.9725
 20
41.7838
 42
-0.08554303155
  0
VERTEX
  8
LAYER_2
 10
152.8411
 20
41.6425
 42
-0.100439485
  0
VERTEX
  8
LAYER_2
 10
153.5062
 20
41.2483
 42
-0.2140965971
  0
VERTEX
  8
LAYER_2
 10
154.0815
 20
39.8784
 42
-0.09539620281
  0
VERTEX
  8
LAYER_2
 10
153.9426
 20
39.1106
 42
-0.2143310008
  0
VERTEX
  8
LAYER_2
 10
152.9198
 20
38.1321
 42
-0.02339132607
  0
VERTEX
  8
LAYER_2
 10
152.7407
 20
38.0738
  0
VERTEX
  8
LAYER_2
 10
152.7407
 20
38.0514
 42
0.01711818545
  0
VERTEX
  8
LAYER_2
 10
154.117
 20
37.8113
  0
SEQEND
  0
POLYLINE
  8
LAYER_2
 40
0.05
 41
0.05
 66
1
 10
0
 20
0
 30
0
 70
1
  0
VERTEX
  8
LAYER_2
 10
153.4394
 20
39.857
 42
0.1071643265
  0
VERTEX
  8
LAYER_2
 10
153.2881
 20
40.5618
 42
0.2976270581
  0
VERTEX
  8
LAYER_2
 10
151.9511
 20
41.3873
 42
0.1072356843
  0
VERTEX
  8
LAYER_2
 10
151.2613
 20
41.2478
 42
0.2385874916
  0
VERTEX
  8
LAYER_2
 10
150.4743
 20
40.2422
 42
0.05751786987
  0
VERTEX
  8
LAYER_2
 10
150.4287
 20
39.8122
 42
0.218058121
  0
VERTEX
  8
LAYER_2
 10
150.9593
 20
38.6168
 42
0.1772828752
  0
VERTEX
  8
LAYER_2
 10
151.9232
 20
38.2912
 42
0.1075205619
  0
VERTEX
  8
LAYER_2
 10
152.6045
 20
38.4302
 42
0.2370768657
  0
VERTEX
  8
LAYER_2
 10
153.3917
 20
39.4298
 42
0.05602139055
  0
SEQEND
  0
ENDBLK
  0
BLOCK
  8
LAYER_2
  2
AIGNBL0204000B
 70
64
 10
0
 20
0
 30
0
  3
AIGNBL0204000B
  0
POLYLINE
  8
LAYER_2
 40
0.05
 41
0.05
 66
1
 10
0
 20
0
 30
0
 70
1
  0
VERTEX
  8
LAYER_2
 10
155.4089
 20
41.7225
  0
VERTEX
  8
LAYER_2
 10
155.4089
 20
39.4932
 42
0.114533087
  0
VERTEX
  8
LAYER_2
 10
155.5428
 20
38.8274
 42
0.1464774934
  0
VERTEX
  8
LAYER_2
 10
155.8932
 20
38.4422
 42
0.1362552487
  0
VERTEX
  8
LAYER_2
 10
156.5055
 20
38.2912
 42
0.1219300979
  0
VERTEX
  8
LAYER_2
 10
157.1286
 20
38.4259
 42
0.1503016186
  0
VERTEX
  8
LAYER_2
 10
157.5004
 20
38.7949
 42
0.1256239276
  0
VERTEX
  8
LAYER_2
 10
157.651
 20
39.4932
  0
VERTEX
  8
LAYER_2
 10
157.651
 20
41.7225
  0
VERTEX
  8
LAYER_2
 10
158.2656
 20
41.7225
  0
VERTEX
  8
LAYER_2
 10
158.2656
 20
39.5266
 42
-0.09996665729
  0
VERTEX
  8
LAYER_2
 10
158.1307
 20
38.7839
 42
-0.1215019567
  0
VERTEX
  8
LAYER_2
 10
157.7575
 20
38.2772
 42
-0.1106305922
  0
VERTEX
  8
LAYER_2
 10
157.132
 20
37.9706
 42
-0.06128719854
  0
VERTEX
  8
LAYER_2
 10
156.4845
 20
37.895
 42
-0.0941826643
  0
VERTEX
  8
LAYER_2
 10
155.6654
 20
38.0331
 42
-0.2431541134
  0
VERTEX
  8
LAYER_2
 10
154.8618
 20
38.9438
 42
-0.06321248355
  0
VERTEX
  8
LAYER_2
 10
154.7943
 20
39.5045
  0
VERTEX
  8
LAYER_2
 10
154.7943
 20
41.7225
  0
SEQEND
  0
ENDBLK
  0
BLOCK
  8
LAYER_2
  2
AIGNBL0204000C
 70
64
 10
0
 20
0
 30
0
  3
AIGNBL0204000C
  0
POLYLINE
  8
LAYER_2
 40
0.05
 41
0.05
 66
1
 10
0
 20
0
 30
0
 70
1
  0
VERTEX
  8
LAYER_2
 10
160.0119
 20
39.1418
  0
VERTEX
  8
LAYER_2
 10
159.5227
 20
37.9567
  0
VERTEX
  8
LAYER_2
 10
158.8947
 20
37.9567
  0
VERTEX
  8
LAYER_2
 10
160.4939
 20
41.7225
  0
VERTEX
  8
LAYER_2
 10
161.227
 20
41.7225
  0
VERTEX
  8
LAYER_2
 10
162.8335
 20
37.9567
  0
VERTEX
  8
LAYER_2
 10
162.1841
 20
37.9567
  0
VERTEX
  8
LAYER_2
 10
161.6814
 20
39.1418
  0
SEQEND
  0
POLYLINE
  8
LAYER_2
 40
0.05
 41
0.05
 66
1
 10
0
 20
0
 30
0
 70
1
  0
VERTEX
  8
LAYER_2
 10
161.5553
 20
39.5207
  0
VERTEX
  8
LAYER_2
 10
161.094
 20
40.6056
  0
VERTEX
  8
LAYER_2
 10
160.8494
 20
41.2926
  0
VERTEX
  8
LAYER_2
 10
160.8357
 20
41.2926
  0
VERTEX
  8
LAYER_2
 10
160.5983
 20
40.6101
  0
VERTEX
  8
LAYER_2
 10
160.1373
 20
39.5207
  0
SEQEND
  0
ENDBLK
  0
BLOCK
  8
LAYER_2
  2
AIGNBL0204000D
 70
64
 10
0
 20
0
 30
0
  3
AIGNBL0204000D
  0
POLYLINE
  8
LAYER_2
 40
0.05
 41
0.05
 66
1
 10
0
 20
0
 30
0
 70
1
  0
VERTEX
  8
LAYER_2
 10
163.8742
 20
41.6777
 42
-0.03245918394
  0
VERTEX
  8
LAYER_2
 10
165.0411
 20
41.7508
 42
-0.08084226265
  0
VERTEX
  8
LAYER_2
 10
165.9975
 20
41.619
 42
-0.07815635113
  0
VERTEX
  8
LAYER_2
 10
166.3609
 20
41.4379
 42
-0.2484709269
  0
VERTEX
  8
LAYER_2
 10
166.7726
 20
40.6497
 42
-0.226147
  0
VERTEX
  8
LAYER_2
 10
166.4095
 20
39.8456
 42
-0.1096895144
  0
VERTEX
  8
LAYER_2
 10
165.7812
 20
39.5323
 42
-0.06565832551
  0
VERTEX
  8
LAYER_2
 10
164.9708
 20
39.4319
 42
-0.06238309955
  0
VERTEX
  8
LAYER_2
 10
164.4823
 20
39.4653
  0
VERTEX
  8
LAYER_2
 10
164.4823
 20
37.9567
  0
VERTEX
  8
LAYER_2
 10
163.8742
 20
37.9567
  0
SEQEND
  0
POLYLINE
  8
LAYER_2
 40
0.05
 41
0.05
 66
1
 10
0
 20
0
 30
0
 70
1
  0
VERTEX
  8
LAYER_2
 10
164.4823
 20
39.8622
 42
0.04203451964
  0
VERTEX
  8
LAYER_2
 10
164.9846
 20
39.8229
 42
0.1032111168
  0
VERTEX
  8
LAYER_2
 10
165.7038
 20
39.9502
 42
0.1555938032
  0
VERTEX
  8
LAYER_2
 10
166.0686
 20
40.2546
 42
0.1352673748
  0
VERTEX
  8
LAYER_2
 10
166.1656
 20
40.6273
 42
0.1737047371
  0
VERTEX
  8
LAYER_2
 10
166.0308
 20
41.0346
 42
0.1517050813
  0
VERTEX
  8
LAYER_2
 10
165.6097
 20
41.2941
 42
0.06879756253
  0
VERTEX
  8
LAYER_2
 10
165.0552
 20
41.3649
 42
0.0634356619
  0
VERTEX
  8
LAYER_2
 10
164.4823
 20
41.3257
  0
SEQEND
  0
ENDBLK
  0
BLOCK
  8
LAYER_2
  2
AIGNBL0204000E
 70
64
 10
0
 20
0
 30
0
  3
AIGNBL0204000E
  0
POLYLINE
  8
LAYER_2
 40
0.05
 41
0.05
 66
1
 10
0
 20
0
 30
0
 70
1
  0
VERTEX
  8
LAYER_2
 10
168.3246
 20
41.4207
 42
-0.2767461975
  0
VERTEX
  8
LAYER_2
 10
168.1851
 20
41.1806
 42
-0.1265294091
  0
VERTEX
  8
LAYER_2
 10
167.9329
 20
41.1189
 42
-0.2237518698
  0
VERTEX
  8
LAYER_2
 10
167.6226
 20
41.2513
 42
-0.1708341408
  0
VERTEX
  8
LAYER_2
 10
167.5626
 20
41.4207
 42
-0.2643879937
  0
VERTEX
  8
LAYER_2
 10
167.712
 20
41.6678
 42
-0.1290073663
  0
VERTEX
  8
LAYER_2
 10
167.9467
 20
41.7277
 42
-0.225342086
  0
VERTEX
  8
LAYER_2
 10
168.2635
 20
41.597
 42
-0.1691136206
  0
SEQEND
  0
POLYLINE
  8
LAYER_2
 40
0.05
 41
0.05
 66
1
 10
0
 20
0
 30
0
 70
1
  0
VERTEX
  8
LAYER_2
 10
167.639
 20
37.9567
  0
VERTEX
  8
LAYER_2
 10
167.639
 20
40.6607
  0
VERTEX
  8
LAYER_2
 10
168.2537
 20
40.6607
  0
VERTEX
  8
LAYER_2
 10
168.2537
 20
37.9567
  0
SEQEND
  0
ENDBLK
  0
BLOCK
  8
LAYER_2
  2
AIGNBL0204000F
 70
64
 10
0
 20
0
 30
0
  3
AIGNBL0204000F
  0
POLYLINE
  8
LAYER_2
 40
0.05
 41
0.05
 66
1
 10
0
 20
0
 30
0
 70
1
  0
VERTEX
  8
LAYER_2
 10
170.1254
 20
39.1418
  0
VERTEX
  8
LAYER_2
 10
169.6372
 20
37.9567
  0
VERTEX
  8
LAYER_2
 10
169.0081
 20
37.9567
  0
VERTEX
  8
LAYER_2
 10
170.6077
 20
41.7225
  0
VERTEX
  8
LAYER_2
 10
171.3415
 20
41.7225
  0
VERTEX
  8
LAYER_2
 10
172.9479
 20
37.9567
  0
VERTEX
  8
LAYER_2
 10
172.2982
 20
37.9567
  0
VERTEX
  8
LAYER_2
 10
171.7955
 20
39.1418
  0
SEQEND
  0
POLYLINE
  8
LAYER_2
 40
0.05
 41
0.05
 66
1
 10
0
 20
0
 30
0
 70
1
  0
VERTEX
  8
LAYER_2
 10
171.6695
 20
39.5207
  0
VERTEX
  8
LAYER_2
 10
171.2085
 20
40.6056
  0
VERTEX
  8
LAYER_2
 10
170.9646
 20
41.2926
  0
VERTEX
  8
LAYER_2
 10
170.9498
 20
41.2926
  0
VERTEX
  8
LAYER_2
 10
170.7128
 20
40.6101
  0
VERTEX
  8
LAYER_2
 10
170.2518
 20
39.5207
  0
SEQEND
  0
ENDBLK
  0
BLOCK
  8
LAYER_2
  2
AIGNBL02030008
 70
64
 10
0
 20
0
 30
0
  3
AIGNBL02030008
  0
INSERT
  8
LAYER_2
  2
AIGNBL02040009
 10
0
 20
0
 30
0
  0
INSERT
  8
LAYER_2
  2
AIGNBL0204000A
 10
0
 20
0
 30
0
  0
INSERT
  8
LAYER_2
  2
AIGNBL0204000B
 10
0
 20
0
 30
0
  0
INSERT
  8
LAYER_2
  2
AIGNBL0204000C
 10
0
 20
0
 30
0
  0
INSERT
  8
LAYER_2
  2
AIGNBL0204000D
 10
0
 20
0
 30
0
  0
INSERT
  8
LAYER_2
  2
AIGNBL0204000E
 10
0
 20
0
 30
0
  0
INSERT
  8
LAYER_2
  2
AIGNBL0204000F
 10
0
 20
0
 30
0
  0
ENDBLK
  0
BLOCK
  8
LAYER_2
  2
AIGNBL02030011
 70
64
 10
0
 20
0
 30
0
  3
AIGNBL02030011
  0
POLYLINE
  8
LAYER_2
 40
0.05
 41
0.05
 66
1
 10
0
 20
0
 30
0
 70
1
  0
VERTEX
  8
LAYER_2
 10
145.7475
 20
36.0574
  0
VERTEX
  8
LAYER_2
 10
146.3008
 20
36.0574
  0
VERTEX
  8
LAYER_2
 10
146.3008
 20
35.9637
  0
VERTEX
  8
LAYER_2
 10
145.6424
 20
35.9637
  0
VERTEX
  8
LAYER_2
 10
145.6424
 20
36.9969
  0
VERTEX
  8
LAYER_2
 10
146.2832
 20
36.9969
  0
VERTEX
  8
LAYER_2
 10
146.2832
 20
36.9035
  0
VERTEX
  8
LAYER_2
 10
145.7475
 20
36.9035
  0
VERTEX
  8
LAYER_2
 10
145.7475
 20
36.549
  0
VERTEX
  8
LAYER_2
 10
146.2481
 20
36.549
  0
VERTEX
  8
LAYER_2
 10
146.2481
 20
36.4557
  0
VERTEX
  8
LAYER_2
 10
145.7475
 20
36.4557
  0
SEQEND
  0
ENDBLK
  0
BLOCK
  8
LAYER_2
  2
AIGNBL02030012
 70
64
 10
0
 20
0
 30
0
  3
AIGNBL02030012
  0
POLYLINE
  8
LAYER_2
 40
0.05
 41
0.05
 66
1
 10
0
 20
0
 30
0
 70
1
  0
VERTEX
  8
LAYER_2
 10
147.4404
 20
36.117
  0
VERTEX
  8
LAYER_2
 10
147.4432
 20
36.117
  0
VERTEX
  8
LAYER_2
 10
147.4432
 20
36.9969
  0
VERTEX
  8
LAYER_2
 10
147.5483
 20
36.9969
  0
VERTEX
  8
LAYER_2
 10
147.5483
 20
35.9637
  0
VERTEX
  8
LAYER_2
 10
147.4174
 20
35.9637
  0
VERTEX
  8
LAYER_2
 10
146.8162
 20
36.8525
  0
VERTEX
  8
LAYER_2
 10
146.8127
 20
36.8525
  0
VERTEX
  8
LAYER_2
 10
146.8127
 20
35.9637
  0
VERTEX
  8
LAYER_2
 10
146.708
 20
35.9637
  0
VERTEX
  8
LAYER_2
 10
146.708
 20
36.9969
  0
VERTEX
  8
LAYER_2
 10
146.8393
 20
36.9969
  0
SEQEND
  0
ENDBLK
  0
BLOCK
  8
LAYER_2
  2
AIGNBL02030013
 70
64
 10
0
 20
0
 30
0
  3
AIGNBL02030013
  0
POLYLINE
  8
LAYER_2
 40
0.05
 41
0.05
 66
1
 10
0
 20
0
 30
0
 70
1
  0
VERTEX
  8
LAYER_2
 10
148.0213
 20
36.1756
  0
VERTEX
  8
LAYER_2
 10
148.0757
 20
36.0725
 42
0.1803975231
  0
VERTEX
  8
LAYER_2
 10
148.1891
 20
36.0309
  0
VERTEX
  8
LAYER_2
 10
148.2783
 20
36.0505
  0
VERTEX
  8
LAYER_2
 10
148.3344
 20
36.1039
  0
VERTEX
  8
LAYER_2
 10
148.3634
 20
36.1804
  0
VERTEX
  8
LAYER_2
 10
148.3717
 20
36.27
  0
VERTEX
  8
LAYER_2
 10
148.3717
 20
36.9969
  0
VERTEX
  8
LAYER_2
 10
148.4767
 20
36.9969
  0
VERTEX
  8
LAYER_2
 10
148.4767
 20
36.2614
  0
VERTEX
  8
LAYER_2
 10
148.4654
 20
36.1535
  0
VERTEX
  8
LAYER_2
 10
148.424
 20
36.0485
  0
VERTEX
  8
LAYER_2
 10
148.3393
 20
35.9689
  0
VERTEX
  8
LAYER_2
 10
148.2004
 20
35.9375
 42
-0.1845231376
  0
VERTEX
  8
LAYER_2
 10
148.0158
 20
35.9974
 42
-0.1765285731
  0
VERTEX
  8
LAYER_2
 10
147.9234
 20
36.149
  0
SEQEND
  0
ENDBLK
  0
BLOCK
  8
LAYER_2
  2
AIGNBL02030014
 70
64
 10
0
 20
0
 30
0
  3
AIGNBL02030014
  0
POLYLINE
  8
LAYER_2
 40
0.05
 41
0.05
 66
1
 10
0
 20
0
 30
0
 70
1
  0
VERTEX
  8
LAYER_2
 10
149.965
 20
36.4805
 42
-0.1041417444
  0
VERTEX
  8
LAYER_2
 10
149.924
 20
36.2631
 42
-0.10057123
  0
VERTEX
  8
LAYER_2
 10
149.8113
 20
36.0915
  0
VERTEX
  8
LAYER_2
 10
149.6405
 20
35.9785
 42
-0.0950295922
  0
VERTEX
  8
LAYER_2
 10
149.4265
 20
35.9375
 42
-0.1010765979
  0
VERTEX
  8
LAYER_2
 10
149.2129
 20
35.9785
 42
-0.1000570207
  0
VERTEX
  8
LAYER_2
 10
149.042
 20
36.0915
 42
-0.09442769366
  0
VERTEX
  8
LAYER_2
 10
148.9287
 20
36.2631
 42
-0.09293305267
  0
VERTEX
  8
LAYER_2
 10
148.8881
 20
36.4805
 42
-0.1024980643
  0
VERTEX
  8
LAYER_2
 10
148.9287
 20
36.6978
 42
-0.1008832254
  0
VERTEX
  8
LAYER_2
 10
149.042
 20
36.8694
 42
-0.09625117665
  0
VERTEX
  8
LAYER_2
 10
149.2129
 20
36.9824
 42
-0.0952064105
  0
VERTEX
  8
LAYER_2
 10
149.4265
 20
37.0234
 42
-0.1012184087
  0
VERTEX
  8
LAYER_2
 10
149.6405
 20
36.9824
 42
-0.09890806396
  0
VERTEX
  8
LAYER_2
 10
149.8113
 20
36.8694
 42
-0.09577200427
  0
VERTEX
  8
LAYER_2
 10
149.924
 20
36.6978
 42
-0.09400765476
  0
SEQEND
  0
POLYLINE
  8
LAYER_2
 40
0.05
 41
0.05
 66
1
 10
0
 20
0
 30
0
 70
1
  0
VERTEX
  8
LAYER_2
 10
149.8541
 20
36.4798
  0
VERTEX
  8
LAYER_2
 10
149.8251
 20
36.6517
  0
VERTEX
  8
LAYER_2
 10
149.7404
 20
36.795
  0
VERTEX
  8
LAYER_2
 10
149.6053
 20
36.8932
  0
VERTEX
  8
LAYER_2
 10
149.4265
 20
36.93
  0
VERTEX
  8
LAYER_2
 10
149.2478
 20
36.8932
  0
VERTEX
  8
LAYER_2
 10
149.113
 20
36.795
  0
VERTEX
  8
LAYER_2
 10
149.0283
 20
36.6517
  0
VERTEX
  8
LAYER_2
 10
148.999
 20
36.4798
  0
VERTEX
  8
LAYER_2
 10
149.0283
 20
36.3079
  0
VERTEX
  8
LAYER_2
 10
149.113
 20
36.1649
  0
VERTEX
  8
LAYER_2
 10
149.2478
 20
36.0674
 42
0.1008814383
  0
VERTEX
  8
LAYER_2
 10
149.4265
 20
36.0309
 42
0.1157330551
  0
VERTEX
  8
LAYER_2
 10
149.6053
 20
36.0674
  0
VERTEX
  8
LAYER_2
 10
149.7404
 20
36.1649
  0
VERTEX
  8
LAYER_2
 10
149.8251
 20
36.3079
  0
SEQEND
  0
ENDBLK
  0
BLOCK
  8
LAYER_2
  2
AIGNBL02030015
 70
64
 10
0
 20
0
 30
0
  3
AIGNBL02030015
  0
POLYLINE
  8
LAYER_2
 40
0.05
 41
0.05
 66
1
 10
0
 20
0
 30
0
 70
1
  0
VERTEX
  8
LAYER_2
 10
150.7398
 20
35.9637
  0
VERTEX
  8
LAYER_2
 10
150.6351
 20
35.9637
  0
VERTEX
  8
LAYER_2
 10
150.6351
 20
36.4091
  0
VERTEX
  8
LAYER_2
 10
150.2482
 20
36.9969
  0
VERTEX
  8
LAYER_2
 10
150.3795
 20
36.9969
  0
VERTEX
  8
LAYER_2
 10
150.6905
 20
36.4967
  0
VERTEX
  8
LAYER_2
 10
151.0041
 20
36.9969
  0
VERTEX
  8
LAYER_2
 10
151.1263
 20
36.9969
  0
VERTEX
  8
LAYER_2
 10
150.7398
 20
36.4091
  0
SEQEND
  0
ENDBLK
  0
BLOCK
  8
LAYER_2
  2
AIGNBL02030016
 70
64
 10
0
 20
0
 30
0
  3
AIGNBL02030016
  0
POLYLINE
  8
LAYER_2
 40
0.05
 41
0.05
 66
1
 10
0
 20
0
 30
0
 70
1
  0
VERTEX
  8
LAYER_2
 10
152.0314
 20
36.9969
  0
VERTEX
  8
LAYER_2
 10
152.339
 20
36.9969
  0
VERTEX
  8
LAYER_2
 10
152.4575
 20
36.9845
  0
VERTEX
  8
LAYER_2
 10
152.5643
 20
36.9421
  0
VERTEX
  8
LAYER_2
 10
152.6422
 20
36.8611
  0
VERTEX
  8
LAYER_2
 10
152.6718
 20
36.733
 42
-0.1790346201
  0
VERTEX
  8
LAYER_2
 10
152.6219
 20
36.5907
 42
-0.1642933266
  0
VERTEX
  8
LAYER_2
 10
152.4885
 20
36.5111
  0
VERTEX
  8
LAYER_2
 10
152.4885
 20
36.5084
 42
-0.1735805246
  0
VERTEX
  8
LAYER_2
 10
152.6553
 20
36.4302
 42
-0.1921994171
  0
VERTEX
  8
LAYER_2
 10
152.7214
 20
36.2496
  0
VERTEX
  8
LAYER_2
 10
152.6942
 20
36.1325
  0
VERTEX
  8
LAYER_2
 10
152.6181
 20
36.0419
  0
VERTEX
  8
LAYER_2
 10
152.4972
 20
35.9844
  0
VERTEX
  8
LAYER_2
 10
152.3373
 20
35.9637
  0
VERTEX
  8
LAYER_2
 10
152.0314
 20
35.9637
  0
SEQEND
  0
POLYLINE
  8
LAYER_2
 40
0.05
 41
0.05
 66
1
 10
0
 20
0
 30
0
 70
1
  0
VERTEX
  8
LAYER_2
 10
152.1364
 20
36.5445
  0
VERTEX
  8
LAYER_2
 10
152.348
 20
36.5445
  0
VERTEX
  8
LAYER_2
 10
152.4248
 20
36.5535
  0
VERTEX
  8
LAYER_2
 10
152.4951
 20
36.5831
  0
VERTEX
  8
LAYER_2
 10
152.5471
 20
36.6396
  0
VERTEX
  8
LAYER_2
 10
152.5668
 20
36.7258
  0
VERTEX
  8
LAYER_2
 10
152.5471
 20
36.8095
  0
VERTEX
  8
LAYER_2
 10
152.494
 20
36.8656
  0
VERTEX
  8
LAYER_2
 10
152.4152
 20
36.897
  0
VERTEX
  8
LAYER_2
 10
152.3187
 20
36.9066
  0
VERTEX
  8
LAYER_2
 10
152.1364
 20
36.9066
  0
SEQEND
  0
POLYLINE
  8
LAYER_2
 40
0.05
 41
0.05
 66
1
 10
0
 20
0
 30
0
 70
1
  0
VERTEX
  8
LAYER_2
 10
152.1364
 20
36.0543
  0
VERTEX
  8
LAYER_2
 10
152.3321
 20
36.0543
  0
VERTEX
  8
LAYER_2
 10
152.4406
 20
36.0653
  0
VERTEX
  8
LAYER_2
 10
152.5313
 20
36.1001
  0
VERTEX
  8
LAYER_2
 10
152.5929
 20
36.1632
  0
VERTEX
  8
LAYER_2
 10
152.6164
 20
36.2559
 42
0.2557371221
  0
VERTEX
  8
LAYER_2
 10
152.5471
 20
36.4081
 42
0.1381508151
  0
VERTEX
  8
LAYER_2
 10
152.3511
 20
36.4584
  0
VERTEX
  8
LAYER_2
 10
152.1364
 20
36.4584
  0
SEQEND
  0
ENDBLK
  0
BLOCK
  8
LAYER_2
  2
AIGNBL02030017
 70
64
 10
0
 20
0
 30
0
  3
AIGNBL02030017
  0
POLYLINE
  8
LAYER_2
 40
0.05
 41
0.05
 66
1
 10
0
 20
0
 30
0
 70
1
  0
VERTEX
  8
LAYER_2
 10
153.1534
 20
35.9637
  0
VERTEX
  8
LAYER_2
 10
153.038
 20
35.9637
  0
VERTEX
  8
LAYER_2
 10
153.4849
 20
36.9969
  0
VERTEX
  8
LAYER_2
 10
153.5872
 20
36.9969
  0
VERTEX
  8
LAYER_2
 10
154.0306
 20
35.9637
  0
VERTEX
  8
LAYER_2
 10
153.9138
 20
35.9637
  0
VERTEX
  8
LAYER_2
 10
153.7997
 20
36.2352
  0
VERTEX
  8
LAYER_2
 10
153.2657
 20
36.2352
  0
SEQEND
  0
POLYLINE
  8
LAYER_2
 40
0.05
 41
0.05
 66
1
 10
0
 20
0
 30
0
 70
1
  0
VERTEX
  8
LAYER_2
 10
153.305
 20
36.3316
  0
VERTEX
  8
LAYER_2
 10
153.7604
 20
36.3316
  0
VERTEX
  8
LAYER_2
 10
153.5327
 20
36.8804
  0
SEQEND
  0
ENDBLK
  0
BLOCK
  8
LAYER_2
  2
AIGNBL02030018
 70
64
 10
0
 20
0
 30
0
  3
AIGNBL02030018
  0
POLYLINE
  8
LAYER_2
 40
0.05
 41
0.05
 66
1
 10
0
 20
0
 30
0
 70
1
  0
VERTEX
  8
LAYER_2
 10
154.7151
 20
35.9637
  0
VERTEX
  8
LAYER_2
 10
154.61
 20
35.9637
  0
VERTEX
  8
LAYER_2
 10
154.61
 20
36.9035
  0
VERTEX
  8
LAYER_2
 10
154.2638
 20
36.9035
  0
VERTEX
  8
LAYER_2
 10
154.2638
 20
36.9969
  0
VERTEX
  8
LAYER_2
 10
155.0606
 20
36.9969
  0
VERTEX
  8
LAYER_2
 10
155.0606
 20
36.9035
  0
VERTEX
  8
LAYER_2
 10
154.7151
 20
36.9035
  0
SEQEND
  0
ENDBLK
  0
BLOCK
  8
LAYER_2
  2
AIGNBL02030019
 70
64
 10
0
 20
0
 30
0
  3
AIGNBL02030019
  0
POLYLINE
  8
LAYER_2
 40
0.05
 41
0.05
 66
1
 10
0
 20
0
 30
0
 70
1
  0
VERTEX
  8
LAYER_2
 10
155.4169
 20
36.9969
  0
VERTEX
  8
LAYER_2
 10
155.5216
 20
36.9969
  0
VERTEX
  8
LAYER_2
 10
155.5216
 20
36.549
  0
VERTEX
  8
LAYER_2
 10
156.0852
 20
36.549
  0
VERTEX
  8
LAYER_2
 10
156.0852
 20
36.9969
  0
VERTEX
  8
LAYER_2
 10
156.1903
 20
36.9969
  0
VERTEX
  8
LAYER_2
 10
156.1903
 20
35.9637
  0
VERTEX
  8
LAYER_2
 10
156.0852
 20
35.9637
  0
VERTEX
  8
LAYER_2
 10
156.0852
 20
36.4529
  0
VERTEX
  8
LAYER_2
 10
155.5216
 20
36.4529
  0
VERTEX
  8
LAYER_2
 10
155.5216
 20
35.9637
  0
VERTEX
  8
LAYER_2
 10
155.4169
 20
35.9637
  0
SEQEND
  0
ENDBLK
  0
BLOCK
  8
LAYER_2
  2
AIGNBL0203001A
 70
64
 10
0
 20
0
 30
0
  3
AIGNBL0203001A
  0
POLYLINE
  8
LAYER_2
 40
0.05
 41
0.05
 66
1
 10
0
 20
0
 30
0
 70
1
  0
VERTEX
  8
LAYER_2
 10
156.7708
 20
35.9637
  0
VERTEX
  8
LAYER_2
 10
156.6657
 20
35.9637
  0
VERTEX
  8
LAYER_2
 10
156.6657
 20
36.9969
  0
VERTEX
  8
LAYER_2
 10
156.9696
 20
36.9969
  0
VERTEX
  8
LAYER_2
 10
157.1101
 20
36.9824
  0
VERTEX
  8
LAYER_2
 10
157.2228
 20
36.9349
  0
VERTEX
  8
LAYER_2
 10
157.2962
 20
36.8494
  0
VERTEX
  8
LAYER_2
 10
157.3223
 20
36.7213
  0
VERTEX
  8
LAYER_2
 10
157.3024
 20
36.6176
  0
VERTEX
  8
LAYER_2
 10
157.2469
 20
36.5366
  0
VERTEX
  8
LAYER_2
 10
157.1635
 20
36.4818
  0
VERTEX
  8
LAYER_2
 10
157.0585
 20
36.4557
  0
VERTEX
  8
LAYER_2
 10
157.3606
 20
35.9637
  0
VERTEX
  8
LAYER_2
 10
157.2321
 20
35.9637
  0
VERTEX
  8
LAYER_2
 10
156.9461
 20
36.4467
  0
VERTEX
  8
LAYER_2
 10
156.7708
 20
36.4467
  0
SEQEND
  0
POLYLINE
  8
LAYER_2
 40
0.05
 41
0.05
 66
1
 10
0
 20
0
 30
0
 70
1
  0
VERTEX
  8
LAYER_2
 10
156.7708
 20
36.5373
  0
VERTEX
  8
LAYER_2
 10
156.9534
 20
36.5373
 42
0.165389034
  0
VERTEX
  8
LAYER_2
 10
157.1491
 20
36.5831
 42
0.2500512188
  0
VERTEX
  8
LAYER_2
 10
157.2176
 20
36.7213
  0
VERTEX
  8
LAYER_2
 10
157.1983
 20
36.8071
  0
VERTEX
  8
LAYER_2
 10
157.146
 20
36.8643
  0
VERTEX
  8
LAYER_2
 10
157.0643
 20
36.8963
  0
VERTEX
  8
LAYER_2
 10
156.9578
 20
36.9066
  0
VERTEX
  8
LAYER_2
 10
156.7708
 20
36.9066
  0
SEQEND
  0
ENDBLK
  0
BLOCK
  8
LAYER_2
  2
AIGNBL0203001B
 70
64
 10
0
 20
0
 30
0
  3
AIGNBL0203001B
  0
POLYLINE
  8
LAYER_2
 40
0.05
 41
0.05
 66
1
 10
0
 20
0
 30
0
 70
1
  0
VERTEX
  8
LAYER_2
 10
158.7627
 20
36.4805
 42
-0.1007216321
  0
VERTEX
  8
LAYER_2
 10
158.7221
 20
36.2631
 42
-0.1006914115
  0
VERTEX
  8
LAYER_2
 10
158.6087
 20
36.0915
 42
-0.09598545762
  0
VERTEX
  8
LAYER_2
 10
158.4382
 20
35.9785
 42
-0.09506675375
  0
VERTEX
  8
LAYER_2
 10
158.2243
 20
35.9375
 42
-0.1012083438
  0
VERTEX
  8
LAYER_2
 10
158.0103
 20
35.9785
 42
-0.1000476754
  0
VERTEX
  8
LAYER_2
 10
157.8398
 20
36.0915
 42
-0.09637642458
  0
VERTEX
  8
LAYER_2
 10
157.7268
 20
36.2631
 42
-0.09293305267
  0
VERTEX
  8
LAYER_2
 10
157.6862
 20
36.4805
 42
-0.1024980643
  0
VERTEX
  8
LAYER_2
 10
157.7268
 20
36.6978
 42
-0.101511181
  0
VERTEX
  8
LAYER_2
 10
157.8398
 20
36.8694
 42
-0.09563682649
  0
VERTEX
  8
LAYER_2
 10
158.0103
 20
36.9824
 42
-0.09502028874
  0
VERTEX
  8
LAYER_2
 10
158.2243
 20
37.0234
 42
-0.101175466
  0
VERTEX
  8
LAYER_2
 10
158.4382
 20
36.9824
 42
-0.1020868526
  0
VERTEX
  8
LAYER_2
 10
158.6087
 20
36.8694
 42
-0.09463764759
  0
VERTEX
  8
LAYER_2
 10
158.7221
 20
36.6978
 42
-0.09279149058
  0
SEQEND
  0
POLYLINE
  8
LAYER_2
 40
0.05
 41
0.05
 66
1
 10
0
 20
0
 30
0
 70
1
  0
VERTEX
  8
LAYER_2
 10
158.6518
 20
36.4798
  0
VERTEX
  8
LAYER_2
 10
158.6225
 20
36.6517
  0
VERTEX
  8
LAYER_2
 10
158.5378
 20
36.795
  0
VERTEX
  8
LAYER_2
 10
158.4031
 20
36.8932
  0
VERTEX
  8
LAYER_2
 10
158.2243
 20
36.93
  0
VERTEX
  8
LAYER_2
 10
158.0455
 20
36.8932
  0
VERTEX
  8
LAYER_2
 10
157.9104
 20
36.795
  0
VERTEX
  8
LAYER_2
 10
157.8257
 20
36.6517
  0
VERTEX
  8
LAYER_2
 10
157.7968
 20
36.4798
  0
VERTEX
  8
LAYER_2
 10
157.8257
 20
36.3079
  0
VERTEX
  8
LAYER_2
 10
157.9104
 20
36.1649
  0
VERTEX
  8
LAYER_2
 10
158.0455
 20
36.0674
 42
0.1008280473
  0
VERTEX
  8
LAYER_2
 10
158.2243
 20
36.0309
  0
VERTEX
  8
LAYER_2
 10
158.4031
 20
36.0674
  0
VERTEX
  8
LAYER_2
 10
158.5378
 20
36.1649
  0
VERTEX
  8
LAYER_2
 10
158.6225
 20
36.3079
  0
SEQEND
  0
ENDBLK
  0
BLOCK
  8
LAYER_2
  2
AIGNBL0203001C
 70
64
 10
0
 20
0
 30
0
  3
AIGNBL0203001C
  0
POLYLINE
  8
LAYER_2
 40
0.05
 41
0.05
 66
1
 10
0
 20
0
 30
0
 70
1
  0
VERTEX
  8
LAYER_2
 10
160.2045
 20
36.4805
 42
-0.1041417444
  0
VERTEX
  8
LAYER_2
 10
160.1635
 20
36.2631
 42
-0.09974098701
  0
VERTEX
  8
LAYER_2
 10
160.0509
 20
36.0915
 42
-0.09536265516
  0
VERTEX
  8
LAYER_2
 10
159.88
 20
35.9785
 42
-0.09506675375
  0
VERTEX
  8
LAYER_2
 10
159.6661
 20
35.9375
 42
-0.1018653774
  0
VERTEX
  8
LAYER_2
 10
159.4524
 20
35.9785
 42
-0.1019766254
  0
VERTEX
  8
LAYER_2
 10
159.2816
 20
36.0915
 42
-0.09463339148
  0
VERTEX
  8
LAYER_2
 10
159.1682
 20
36.2631
 42
-0.09293305267
  0
VERTEX
  8
LAYER_2
 10
159.1276
 20
36.4805
 42
-0.1024980643
  0
VERTEX
  8
LAYER_2
 10
159.1682
 20
36.6978
 42
-0.1011981835
  0
VERTEX
  8
LAYER_2
 10
159.2816
 20
36.8694
 42
-0.09612009159
  0
VERTEX
  8
LAYER_2
 10
159.4524
 20
36.9824
 42
-0.09524800311
  0
VERTEX
  8
LAYER_2
 10
159.6661
 20
37.0234
 42
-0.101175466
  0
VERTEX
  8
LAYER_2
 10
159.88
 20
36.9824
 42
-0.09853409661
  0
VERTEX
  8
LAYER_2
 10
160.0509
 20
36.8694
 42
-0.09555545285
  0
VERTEX
  8
LAYER_2
 10
160.1635
 20
36.6978
 42
-0.09400765476
  0
SEQEND
  0
POLYLINE
  8
LAYER_2
 40
0.05
 41
0.05
 66
1
 10
0
 20
0
 30
0
 70
1
  0
VERTEX
  8
LAYER_2
 10
160.0936
 20
36.4798
  0
VERTEX
  8
LAYER_2
 10
160.0647
 20
36.6517
  0
VERTEX
  8
LAYER_2
 10
159.9799
 20
36.795
  0
VERTEX
  8
LAYER_2
 10
159.8448
 20
36.8932
  0
VERTEX
  8
LAYER_2
 10
159.6661
 20
36.93
  0
VERTEX
  8
LAYER_2
 10
159.4872
 20
36.8932
  0
VERTEX
  8
LAYER_2
 10
159.3525
 20
36.795
  0
VERTEX
  8
LAYER_2
 10
159.2678
 20
36.6517
  0
VERTEX
  8
LAYER_2
 10
159.2385
 20
36.4798
  0
VERTEX
  8
LAYER_2
 10
159.2678
 20
36.3079
  0
VERTEX
  8
LAYER_2
 10
159.3525
 20
36.1649
  0
VERTEX
  8
LAYER_2
 10
159.4872
 20
36.0674
  0
VERTEX
  8
LAYER_2
 10
159.6661
 20
36.0309
  0
VERTEX
  8
LAYER_2
 10
159.8448
 20
36.0674
  0
VERTEX
  8
LAYER_2
 10
159.9799
 20
36.1649
  0
VERTEX
  8
LAYER_2
 10
160.0647
 20
36.3079
  0
SEQEND
  0
ENDBLK
  0
BLOCK
  8
LAYER_2
  2
AIGNBL0203001D
 70
64
 10
0
 20
0
 30
0
  3
AIGNBL0203001D
  0
POLYLINE
  8
LAYER_2
 40
0.05
 41
0.05
 66
1
 10
0
 20
0
 30
0
 70
1
  0
VERTEX
  8
LAYER_2
 10
161.1354
 20
36.1418
  0
VERTEX
  8
LAYER_2
 10
161.1371
 20
36.1418
  0
VERTEX
  8
LAYER_2
 10
161.4826
 20
36.9969
  0
VERTEX
  8
LAYER_2
 10
161.6435
 20
36.9969
  0
VERTEX
  8
LAYER_2
 10
161.6435
 20
35.9637
  0
VERTEX
  8
LAYER_2
 10
161.5381
 20
35.9637
  0
VERTEX
  8
LAYER_2
 10
161.5381
 20
36.8611
  0
VERTEX
  8
LAYER_2
 10
161.5354
 20
36.8611
  0
VERTEX
  8
LAYER_2
 10
161.1619
 20
35.9637
  0
VERTEX
  8
LAYER_2
 10
161.1064
 20
35.9637
  0
VERTEX
  8
LAYER_2
 10
160.7326
 20
36.8611
  0
VERTEX
  8
LAYER_2
 10
160.7299
 20
36.8611
  0
VERTEX
  8
LAYER_2
 10
160.7299
 20
35.9637
  0
VERTEX
  8
LAYER_2
 10
160.6248
 20
35.9637
  0
VERTEX
  8
LAYER_2
 10
160.6248
 20
36.9969
  0
VERTEX
  8
LAYER_2
 10
160.7853
 20
36.9969
  0
SEQEND
  0
ENDBLK
  0
BLOCK
  8
LAYER_2
  2
AIGNBL0203001E
 70
64
 10
0
 20
0
 30
0
  3
AIGNBL0203001E
  0
POLYLINE
  8
LAYER_2
 40
0.05
 41
0.05
 66
1
 10
0
 20
0
 30
0
 70
1
  0
VERTEX
  8
LAYER_2
 10
162.79
 20
36.0574
  0
VERTEX
  8
LAYER_2
 10
163.3433
 20
36.0574
  0
VERTEX
  8
LAYER_2
 10
163.3433
 20
35.9637
  0
VERTEX
  8
LAYER_2
 10
162.685
 20
35.9637
  0
VERTEX
  8
LAYER_2
 10
162.685
 20
36.9969
  0
VERTEX
  8
LAYER_2
 10
163.3258
 20
36.9969
  0
VERTEX
  8
LAYER_2
 10
163.3258
 20
36.9035
  0
VERTEX
  8
LAYER_2
 10
162.79
 20
36.9035
  0
VERTEX
  8
LAYER_2
 10
162.79
 20
36.549
  0
VERTEX
  8
LAYER_2
 10
163.2906
 20
36.549
  0
VERTEX
  8
LAYER_2
 10
163.2906
 20
36.4557
  0
VERTEX
  8
LAYER_2
 10
162.79
 20
36.4557
  0
SEQEND
  0
ENDBLK
  0
BLOCK
  8
LAYER_2
  2
AIGNBL0203001F
 70
64
 10
0
 20
0
 30
0
  3
AIGNBL0203001F
  0
POLYLINE
  8
LAYER_2
 40
0.05
 41
0.05
 66
1
 10
0
 20
0
 30
0
 70
1
  0
VERTEX
  8
LAYER_2
 10
164.0885
 20
36.5797
  0
VERTEX
  8
LAYER_2
 10
164.3707
 20
36.9969
  0
VERTEX
  8
LAYER_2
 10
164.4957
 20
36.9969
  0
VERTEX
  8
LAYER_2
 10
164.1533
 20
36.5053
  0
VERTEX
  8
LAYER_2
 10
164.5326
 20
35.9637
  0
VERTEX
  8
LAYER_2
 10
164.4013
 20
35.9637
  0
VERTEX
  8
LAYER_2
 10
164.0858
 20
36.4295
  0
VERTEX
  8
LAYER_2
 10
163.7722
 20
35.9637
  0
VERTEX
  8
LAYER_2
 10
163.6407
 20
35.9637
  0
VERTEX
  8
LAYER_2
 10
164.0203
 20
36.5066
  0
VERTEX
  8
LAYER_2
 10
163.6744
 20
36.9969
  0
VERTEX
  8
LAYER_2
 10
163.806
 20
36.9969
  0
SEQEND
  0
ENDBLK
  0
BLOCK
  8
LAYER_2
  2
AIGNBL02030020
 70
64
 10
0
 20
0
 30
0
  3
AIGNBL02030020
  0
POLYLINE
  8
LAYER_2
 40
0.05
 41
0.05
 66
1
 10
0
 20
0
 30
0
 70
1
  0
VERTEX
  8
LAYER_2
 10
164.8988
 20
36.9969
  0
VERTEX
  8
LAYER_2
 10
165.1909
 20
36.9969
  0
VERTEX
  8
LAYER_2
 10
165.3339
 20
36.9804
  0
VERTEX
  8
LAYER_2
 10
165.4438
 20
36.929
  0
VERTEX
  8
LAYER_2
 10
165.5148
 20
36.8429
  0
VERTEX
  8
LAYER_2
 10
165.5392
 20
36.7213
  0
VERTEX
  8
LAYER_2
 10
165.5141
 20
36.5993
  0
VERTEX
  8
LAYER_2
 10
165.4424
 20
36.5132
  0
VERTEX
  8
LAYER_2
 10
165.3315
 20
36.4615
  0
VERTEX
  8
LAYER_2
 10
165.1878
 20
36.444
  0
VERTEX
  8
LAYER_2
 10
165.0039
 20
36.444
  0
VERTEX
  8
LAYER_2
 10
165.0039
 20
35.9637
  0
VERTEX
  8
LAYER_2
 10
164.8988
 20
35.9637
  0
SEQEND
  0
POLYLINE
  8
LAYER_2
 40
0.05
 41
0.05
 66
1
 10
0
 20
0
 30
0
 70
1
  0
VERTEX
  8
LAYER_2
 10
165.0039
 20
36.5328
  0
VERTEX
  8
LAYER_2
 10
165.1816
 20
36.5328
 42
0.1829732243
  0
VERTEX
  8
LAYER_2
 10
165.3701
 20
36.581
 42
0.2345943979
  0
VERTEX
  8
LAYER_2
 10
165.4345
 20
36.7213
 42
0.26486771
  0
VERTEX
  8
LAYER_2
 10
165.368
 20
36.8622
 42
0.126412566
  0
VERTEX
  8
LAYER_2
 10
165.1816
 20
36.9066
  0
VERTEX
  8
LAYER_2
 10
165.0039
 20
36.9066
  0
SEQEND
  0
ENDBLK
  0
BLOCK
  8
LAYER_2
  2
AIGNBL02030021
 70
64
 10
0
 20
0
 30
0
  3
AIGNBL02030021
  0
POLYLINE
  8
LAYER_2
 40
0.05
 41
0.05
 66
1
 10
0
 20
0
 30
0
 70
1
  0
VERTEX
  8
LAYER_2
 10
166.0515
 20
36.0574
  0
VERTEX
  8
LAYER_2
 10
166.6048
 20
36.0574
  0
VERTEX
  8
LAYER_2
 10
166.6048
 20
35.9637
  0
VERTEX
  8
LAYER_2
 10
165.9465
 20
35.9637
  0
VERTEX
  8
LAYER_2
 10
165.9465
 20
36.9969
  0
VERTEX
  8
LAYER_2
 10
166.5872
 20
36.9969
  0
VERTEX
  8
LAYER_2
 10
166.5872
 20
36.9035
  0
VERTEX
  8
LAYER_2
 10
166.0515
 20
36.9035
  0
VERTEX
  8
LAYER_2
 10
166.0515
 20
36.549
  0
VERTEX
  8
LAYER_2
 10
166.5521
 20
36.549
  0
VERTEX
  8
LAYER_2
 10
166.5521
 20
36.4557
  0
VERTEX
  8
LAYER_2
 10
166.0515
 20
36.4557
  0
SEQEND
  0
ENDBLK
  0
BLOCK
  8
LAYER_2
  2
AIGNBL02030022
 70
64
 10
0
 20
0
 30
0
  3
AIGNBL02030022
  0
POLYLINE
  8
LAYER_2
 40
0.05
 41
0.05
 66
1
 10
0
 20
0
 30
0
 70
1
  0
VERTEX
  8
LAYER_2
 10
167.1168
 20
35.9637
  0
VERTEX
  8
LAYER_2
 10
167.0117
 20
35.9637
  0
VERTEX
  8
LAYER_2
 10
167.0117
 20
36.9969
  0
VERTEX
  8
LAYER_2
 10
167.3155
 20
36.9969
  0
VERTEX
  8
LAYER_2
 10
167.4561
 20
36.9824
  0
VERTEX
  8
LAYER_2
 10
167.5687
 20
36.9349
  0
VERTEX
  8
LAYER_2
 10
167.6425
 20
36.8494
  0
VERTEX
  8
LAYER_2
 10
167.6683
 20
36.7213
  0
VERTEX
  8
LAYER_2
 10
167.6483
 20
36.6176
  0
VERTEX
  8
LAYER_2
 10
167.5929
 20
36.5366
  0
VERTEX
  8
LAYER_2
 10
167.5095
 20
36.4818
  0
VERTEX
  8
LAYER_2
 10
167.4044
 20
36.4557
  0
VERTEX
  8
LAYER_2
 10
167.7066
 20
35.9637
  0
VERTEX
  8
LAYER_2
 10
167.578
 20
35.9637
  0
VERTEX
  8
LAYER_2
 10
167.2921
 20
36.4467
  0
VERTEX
  8
LAYER_2
 10
167.1168
 20
36.4467
  0
SEQEND
  0
POLYLINE
  8
LAYER_2
 40
0.05
 41
0.05
 66
1
 10
0
 20
0
 30
0
 70
1
  0
VERTEX
  8
LAYER_2
 10
167.1168
 20
36.5373
  0
VERTEX
  8
LAYER_2
 10
167.2994
 20
36.5373
 42
0.1667243505
  0
VERTEX
  8
LAYER_2
 10
167.495
 20
36.5831
 42
0.2503949893
  0
VERTEX
  8
LAYER_2
 10
167.5636
 20
36.7213
  0
VERTEX
  8
LAYER_2
 10
167.5446
 20
36.8071
  0
VERTEX
  8
LAYER_2
 10
167.4919
 20
36.8643
  0
VERTEX
  8
LAYER_2
 10
167.4103
 20
36.8963
  0
VERTEX
  8
LAYER_2
 10
167.3038
 20
36.9066
  0
VERTEX
  8
LAYER_2
 10
167.1168
 20
36.9066
  0
SEQEND
  0
ENDBLK
  0
BLOCK
  8
LAYER_2
  2
AIGNBL02030023
 70
64
 10
0
 20
0
 30
0
  3
AIGNBL02030023
  0
POLYLINE
  8
LAYER_2
 40
0.05
 41
0.05
 66
1
 10
0
 20
0
 30
0
 70
1
  0
VERTEX
  8
LAYER_2
 10
168.1923
 20
35.9637
  0
VERTEX
  8
LAYER_2
 10
168.0876
 20
35.9637
  0
VERTEX
  8
LAYER_2
 10
168.0876
 20
36.9969
  0
VERTEX
  8
LAYER_2
 10
168.1923
 20
36.9969
  0
SEQEND
  0
ENDBLK
  0
BLOCK
  8
LAYER_2
  2
AIGNBL02030024
 70
64
 10
0
 20
0
 30
0
  3
AIGNBL02030024
  0
POLYLINE
  8
LAYER_2
 40
0.05
 41
0.05
 66
1
 10
0
 20
0
 30
0
 70
1
  0
VERTEX
  8
LAYER_2
 10
168.7732
 20
36.0574
  0
VERTEX
  8
LAYER_2
 10
169.3261
 20
36.0574
  0
VERTEX
  8
LAYER_2
 10
169.3261
 20
35.9637
  0
VERTEX
  8
LAYER_2
 10
168.6681
 20
35.9637
  0
VERTEX
  8
LAYER_2
 10
168.6681
 20
36.9969
  0
VERTEX
  8
LAYER_2
 10
169.3089
 20
36.9969
  0
VERTEX
  8
LAYER_2
 10
169.3089
 20
36.9035
  0
VERTEX
  8
LAYER_2
 10
168.7732
 20
36.9035
  0
VERTEX
  8
LAYER_2
 10
168.7732
 20
36.549
  0
VERTEX
  8
LAYER_2
 10
169.2737
 20
36.549
  0
VERTEX
  8
LAYER_2
 10
169.2737
 20
36.4557
  0
VERTEX
  8
LAYER_2
 10
168.7732
 20
36.4557
  0
SEQEND
  0
ENDBLK
  0
BLOCK
  8
LAYER_2
  2
AIGNBL02030025
 70
64
 10
0
 20
0
 30
0
  3
AIGNBL02030025
  0
POLYLINE
  8
LAYER_2
 40
0.05
 41
0.05
 66
1
 10
0
 20
0
 30
0
 70
1
  0
VERTEX
  8
LAYER_2
 10
170.4661
 20
36.117
  0
VERTEX
  8
LAYER_2
 10
170.4689
 20
36.117
  0
VERTEX
  8
LAYER_2
 10
170.4689
 20
36.9969
  0
VERTEX
  8
LAYER_2
 10
170.5739
 20
36.9969
  0
VERTEX
  8
LAYER_2
 10
170.5739
 20
35.9637
  0
VERTEX
  8
LAYER_2
 10
170.4426
 20
35.9637
  0
VERTEX
  8
LAYER_2
 10
169.8415
 20
36.8525
  0
VERTEX
  8
LAYER_2
 10
169.8384
 20
36.8525
  0
VERTEX
  8
LAYER_2
 10
169.8384
 20
35.9637
  0
VERTEX
  8
LAYER_2
 10
169.7333
 20
35.9637
  0
VERTEX
  8
LAYER_2
 10
169.7333
 20
36.9969
  0
VERTEX
  8
LAYER_2
 10
169.8649
 20
36.9969
  0
SEQEND
  0
ENDBLK
  0
BLOCK
  8
LAYER_2
  2
AIGNBL02030026
 70
64
 10
0
 20
0
 30
0
  3
AIGNBL02030026
  0
POLYLINE
  8
LAYER_2
 40
0.05
 41
0.05
 66
1
 10
0
 20
0
 30
0
 70
1
  0
VERTEX
  8
LAYER_2
 10
171.9196
 20
36.1315
  0
VERTEX
  8
LAYER_2
 10
171.8558
 20
36.0571
  0
VERTEX
  8
LAYER_2
 10
171.7697
 20
35.9954
  0
VERTEX
  8
LAYER_2
 10
171.6615
 20
35.953
  0
VERTEX
  8
LAYER_2
 10
171.5327
 20
35.9375
 42
-0.1011939289
  0
VERTEX
  8
LAYER_2
 10
171.3167
 20
35.9785
 42
-0.1032846426
  0
VERTEX
  8
LAYER_2
 10
171.1461
 20
36.0915
 42
-0.0974858305
  0
VERTEX
  8
LAYER_2
 10
171.0345
 20
36.2631
 42
-0.09232404316
  0
VERTEX
  8
LAYER_2
 10
170.9942
 20
36.4805
 42
-0.1041003847
  0
VERTEX
  8
LAYER_2
 10
171.0352
 20
36.6978
 42
-0.1005616574
  0
VERTEX
  8
LAYER_2
 10
171.1479
 20
36.8694
 42
-0.09522588778
  0
VERTEX
  8
LAYER_2
 10
171.3187
 20
36.9824
 42
-0.09501991035
  0
VERTEX
  8
LAYER_2
 10
171.5327
 20
37.0234
  0
VERTEX
  8
LAYER_2
 10
171.6443
 20
37.0114
  0
VERTEX
  8
LAYER_2
 10
171.7473
 20
36.9779
  0
VERTEX
  8
LAYER_2
 10
171.8348
 20
36.9263
  0
VERTEX
  8
LAYER_2
 10
171.9006
 20
36.8584
  0
VERTEX
  8
LAYER_2
 10
171.8131
 20
36.794
  0
VERTEX
  8
LAYER_2
 10
171.7697
 20
36.8439
  0
VERTEX
  8
LAYER_2
 10
171.7063
 20
36.8877
  0
VERTEX
  8
LAYER_2
 10
171.6267
 20
36.9183
  0
VERTEX
  8
LAYER_2
 10
171.5341
 20
36.93
  0
VERTEX
  8
LAYER_2
 10
171.3539
 20
36.8935
  0
VERTEX
  8
LAYER_2
 10
171.2188
 20
36.7954
  0
VERTEX
  8
LAYER_2
 10
171.1341
 20
36.652
  0
VERTEX
  8
LAYER_2
 10
171.1052
 20
36.4805
  0
VERTEX
  8
LAYER_2
 10
171.1351
 20
36.3089
  0
VERTEX
  8
LAYER_2
 10
171.2205
 20
36.1656
  0
VERTEX
  8
LAYER_2
 10
171.3556
 20
36.0674
 42
0.100995487
  0
VERTEX
  8
LAYER_2
 10
171.5341
 20
36.0309
  0
VERTEX
  8
LAYER_2
 10
171.7032
 20
36.0674
 42
0.1321059012
  0
VERTEX
  8
LAYER_2
 10
171.8376
 20
36.1842
  0
SEQEND
  0
ENDBLK
  0
BLOCK
  8
LAYER_2
  2
AIGNBL02030027
 70
64
 10
0
 20
0
 30
0
  3
AIGNBL02030027
  0
POLYLINE
  8
LAYER_2
 40
0.05
 41
0.05
 66
1
 10
0
 20
0
 30
0
 70
1
  0
VERTEX
  8
LAYER_2
 10
172.4067
 20
36.0574
  0
VERTEX
  8
LAYER_2
 10
172.96
 20
36.0574
  0
VERTEX
  8
LAYER_2
 10
172.96
 20
35.9637
  0
VERTEX
  8
LAYER_2
 10
172.3016
 20
35.9637
  0
VERTEX
  8
LAYER_2
 10
172.3016
 20
36.9969
  0
VERTEX
  8
LAYER_2
 10
172.9424
 20
36.9969
  0
VERTEX
  8
LAYER_2
 10
172.9424
 20
36.9035
  0
VERTEX
  8
LAYER_2
 10
172.4067
 20
36.9035
  0
VERTEX
  8
LAYER_2
 10
172.4067
 20
36.549
  0
VERTEX
  8
LAYER_2
 10
172.9073
 20
36.549
  0
VERTEX
  8
LAYER_2
 10
172.9073
 20
36.4557
  0
VERTEX
  8
LAYER_2
 10
172.4067
 20
36.4557
  0
SEQEND
  0
ENDBLK
  0
BLOCK
  8
LAYER_2
  2
AIGNBL0203002B
 70
64
 10
0
 20
0
 30
0
  3
AIGNBL0203002B
  0
POLYLINE
  8
LAYER_2
 40
0.1446
 41
0.1446
 66
1
 10
0
 20
0
 30
0
  0
VERTEX
  8
LAYER_2
 10
55.2829
 20
155.0025
  0
VERTEX
  8
LAYER_2
 10
55.2795
 20
155.3553
  0
SEQEND
  0
POLYLINE
  8
LAYER_2
  6
AIGENLINE001
 40
0.1446
 41
0.1446
 66
1
 10
0
 20
0
 30
0
 70
128
  0
VERTEX
  8
LAYER_2
 10
55.2522
 20
156.0616
 42
0.06042311958
  0
VERTEX
  8
LAYER_2
 10
54.4826
 20
160.3261
 42
0.08807948875
  0
VERTEX
  8
LAYER_2
 10
51.6039
 20
165.9086
 42
0.1447876229
  0
VERTEX
  8
LAYER_2
 10
43.2641
 20
171.985
 42
0.08499630027
  0
VERTEX
  8
LAYER_2
 10
37.2827
 20
173.0027
 42
0.4142135343
  0
VERTEX
  8
LAYER_2
 10
19.2829
 20
155.0025
 42
0.4142131677
  0
VERTEX
  8
LAYER_2
 10
37.2827
 20
137.0024
 42
0.06137591526
  0
VERTEX
  8
LAYER_2
 10
41.6784
 20
137.543
 42
0.08963601094
  0
VERTEX
  8
LAYER_2
 10
47.4915
 20
140.1754
 42
0.1763552712
  0
VERTEX
  8
LAYER_2
 10
54.6812
 20
150.3705
 42
0.05535582099
  0
VERTEX
  8
LAYER_2
 10
55.2692
 20
154.2955
  0
SEQEND
  0
POLYLINE
  8
LAYER_2
 40
0.1446
 41
0.1446
 66
1
 10
0
 20
0
 30
0
  0
VERTEX
  8
LAYER_2
 10
55.2795
 20
154.6497
  0
VERTEX
  8
LAYER_2
 10
55.2829
 20
155.0025
  0
SEQEND
  0
ENDBLK
  0
BLOCK
  8
LAYER_2
  2
AIGNBL0203004A
 70
64
 10
0
 20
0
 30
0
  3
AIGNBL0203004A
  0
POLYLINE
  8
LAYER_2
 40
0.1446
 41
0.1446
 66
1
 10
0
 20
0
 30
0
  0
VERTEX
  8
LAYER_2
 10
217.0903
 20
155.0025
  0
VERTEX
  8
LAYER_2
 10
217.0869
 20
155.3553
  0
SEQEND
  0
POLYLINE
  8
LAYER_2
  6
AIGENLINE001
 40
0.1446
 41
0.1446
 66
1
 10
0
 20
0
 30
0
 70
128
  0
VERTEX
  8
LAYER_2
 10
217.0596
 20
156.0616
 42
0.06042311958
  0
VERTEX
  8
LAYER_2
 10
216.29
 20
160.3261
 42
0.08807948875
  0
VERTEX
  8
LAYER_2
 10
213.4113
 20
165.9086
 42
0.1447876229
  0
VERTEX
  8
LAYER_2
 10
205.0715
 20
171.985
 42
0.08499630027
  0
VERTEX
  8
LAYER_2
 10
199.0901
 20
173.0027
 42
0.4142132532
  0
VERTEX
  8
LAYER_2
 10
181.0903
 20
155.0025
 42
0.4142128865
  0
VERTEX
  8
LAYER_2
 10
199.0901
 20
137.0024
 42
0.06137553261
  0
VERTEX
  8
LAYER_2
 10
203.4858
 20
137.543
 42
0.08963618502
  0
VERTEX
  8
LAYER_2
 10
209.299
 20
140.1754
 42
0.1763546995
  0
VERTEX
  8
LAYER_2
 10
216.4887
 20
150.3705
 42
0.05535457658
  0
VERTEX
  8
LAYER_2
 10
217.0767
 20
154.2955
  0
SEQEND
  0
POLYLINE
  8
LAYER_2
 40
0.1446
 41
0.1446
 66
1
 10
0
 20
0
 30
0
  0
VERTEX
  8
LAYER_2
 10
217.0869
 20
154.6497
  0
VERTEX
  8
LAYER_2
 10
217.0903
 20
155.0025
  0
SEQEND
  0
ENDBLK
  0
BLOCK
  8
LAYER_2
  2
AIGNBL02020004
 70
64
 10
0
 20
0
 30
0
  3
AIGNBL02020004
  0
POLYLINE
  8
LAYER_2
 40
0.05
 41
0.05
 66
1
 10
0
 20
0
 30
0
  0
VERTEX
  8
LAYER_2
 10
-1.196
 20
217.6012
 42
-0.07434374488
  0
VERTEX
  8
LAYER_2
 10
-1.3046
 20
216.4751
 42
-0.1312981164
  0
VERTEX
  8
LAYER_2
 10
-1.5732
 20
216.0054
 42
-0.208619006
  0
VERTEX
  8
LAYER_2
 10
-2.3408
 20
215.7164
 42
-0.1980855618
  0
VERTEX
  8
LAYER_2
 10
-3.0956
 20
216.0054
 42
-0.1359059684
  0
VERTEX
  8
LAYER_2
 10
-3.3746
 20
216.5106
 42
-0.06699191066
  0
VERTEX
  8
LAYER_2
 10
-3.4732
 20
217.6012
 42
-0.07470238595
  0
VERTEX
  8
LAYER_2
 10
-3.3644
 20
218.7157
 42
-0.1310826725
  0
VERTEX
  8
LAYER_2
 10
-3.0956
 20
219.1845
 42
-0.2061520596
  0
VERTEX
  8
LAYER_2
 10
-2.3408
 20
219.4732
 42
-0.1977437771
  0
VERTEX
  8
LAYER_2
 10
-1.5732
 20
219.1845
 42
-0.1358673357
  0
VERTEX
  8
LAYER_2
 10
-1.2943
 20
218.6804
 42
-0.06720044206
  0
VERTEX
  8
LAYER_2
 10
-1.196
 20
217.6012
  0
SEQEND
  0
POLYLINE
  8
LAYER_2
 40
0.05
 41
0.05
 66
1
 10
0
 20
0
 30
0
  0
VERTEX
  8
LAYER_2
 10
0.4394
 20
217.6012
 42
0.0577585355
  0
VERTEX
  8
LAYER_2
 10
0.3194
 20
218.9609
 42
0.1358747382
  0
VERTEX
  8
LAYER_2
 10
-0.303
 20
220.1395
 42
0.1777268905
  0
VERTEX
  8
LAYER_2
 10
-1.8892
 20
220.9154
 42
0.03495822391
  0
VERTEX
  8
LAYER_2
 10
-2.3408
 20
220.9436
 42
0.07961804251
  0
VERTEX
  8
LAYER_2
 10
-3.315
 20
220.7962
 42
0.1217450219
  0
VERTEX
  8
LAYER_2
 10
-4.3662
 20
220.1395
 42
0.09150776818
  0
VERTEX
  8
LAYER_2
 10
-4.8465
 20
219.4067
 42
0.07735978812
  0
VERTEX
  8
LAYER_2
 10
-5.0776
 20
218.3847
 42
0.03281807239
  0
VERTEX
  8
LAYER_2
 10
-5.1082
 20
217.6012
 42
0.05725233541
  0
VERTEX
  8
LAYER_2
 10
-4.9885
 20
216.2362
 42
0.1359864428
  0
VERTEX
  8
LAYER_2
 10
-4.3662
 20
215.0504
 42
0.175204158
  0
VERTEX
  8
LAYER_2
 10
-2.7508
 20
214.2702
 42
0.03231924249
  0
VERTEX
  8
LAYER_2
 10
-2.3408
 20
214.2463
 42
0.07899302184
  0
VERTEX
  8
LAYER_2
 10
-1.3625
 20
214.3937
 42
0.1216861451
  0
VERTEX
  8
LAYER_2
 10
-0.303
 20
215.0504
 42
0.09340304456
  0
VERTEX
  8
LAYER_2
 10
0.1681
 20
215.7463
 42
0.0774645698
  0
VERTEX
  8
LAYER_2
 10
0.4017
 20
216.7223
 42
0.02212089617
  0
VERTEX
  8
LAYER_2
 10
0.4394
 20
217.6012
  0
SEQEND
  0
POLYLINE
  8
LAYER_2
 40
0.05
 41
0.05
 66
1
 10
0
 20
0
 30
0
  0
VERTEX
  8
LAYER_2
 10
-11.3166
 20
218.2044
  0
VERTEX
  8
LAYER_2
 10
-13.8074
 20
218.2044
 42
-0.1153546446
  0
VERTEX
  8
LAYER_2
 10
-13.6562
 20
218.9079
 42
-0.3007040875
  0
VERTEX
  8
LAYER_2
 10
-12.562
 20
219.5866
 42
-0.1235431447
  0
VERTEX
  8
LAYER_2
 10
-11.9621
 20
219.4464
 42
-0.1667603161
  0
VERTEX
  8
LAYER_2
 10
-11.4672
 20
218.9079
 42
-0.1143399212
  0
VERTEX
  8
LAYER_2
 10
-11.3166
 20
218.2044
  0
SEQEND
  0
POLYLINE
  8
LAYER_2
 40
0.05
 41
0.05
 66
1
 10
0
 20
0
 30
0
 70
1
  0
VERTEX
  8
LAYER_2
 10
-9.7064
 20
217.0861
  0
VERTEX
  8
LAYER_2
 10
-9.7064
 20
217.7772
 42
0.0677042249
  0
VERTEX
  8
LAYER_2
 10
-9.852
 20
218.9102
 42
0.07767771487
  0
VERTEX
  8
LAYER_2
 10
-10.2392
 20
219.7789
 42
0.1724975422
  0
VERTEX
  8
LAYER_2
 10
-11.5857
 20
220.7996
 42
0.07776532921
  0
VERTEX
  8
LAYER_2
 10
-12.562
 20
220.9436
 42
0.0796960513
  0
VERTEX
  8
LAYER_2
 10
-13.5247
 20
220.7966
 42
0.168887661
  0
VERTEX
  8
LAYER_2
 10
-14.846
 20
219.7874
 42
0.07658055294
  0
VERTEX
  8
LAYER_2
 10
-15.2466
 20
218.9066
 42
0.07097127065
  0
VERTEX
  8
LAYER_2
 10
-15.4177
 20
217.6012
 42
0.05685454964
  0
VERTEX
  8
LAYER_2
 10
-15.2934
 20
216.4004
 42
0.07540481703
  0
VERTEX
  8
LAYER_2
 10
-14.9492
 20
215.5069
 42
0.1774924504
  0
VERTEX
  8
LAYER_2
 10
-13.6777
 20
214.4527
 42
0.08958127581
  0
VERTEX
  8
LAYER_2
 10
-12.386
 20
214.2463
 42
0.07080596686
  0
VERTEX
  8
LAYER_2
 10
-11.2943
 20
214.3814
 42
0.08369033087
  0
VERTEX
  8
LAYER_2
 10
-10.4805
 20
214.7708
 42
0.04417423811
  0
VERTEX
  8
LAYER_2
 10
-9.8948
 20
215.2768
  0
VERTEX
  8
LAYER_2
 10
-10.8887
 20
216.2442
 42
-0.09875545259
  0
VERTEX
  8
LAYER_2
 10
-11.5612
 20
215.7667
 42
-0.1006814841
  0
VERTEX
  8
LAYER_2
 10
-12.3732
 20
215.6285
 42
-0.1070981108
  0
VERTEX
  8
LAYER_2
 10
-13.0555
 20
215.7638
 42
-0.2542521374
  0
VERTEX
  8
LAYER_2
 10
-13.7778
 20
216.7415
 42
-0.04997815034
  0
VERTEX
  8
LAYER_2
 10
-13.8074
 20
217.0861
  0
SEQEND
  0
POLYLINE
  8
LAYER_2
 40
0.05
 41
0.05
 66
1
 10
0
 20
0
 30
0
 70
1
  0
VERTEX
  8
LAYER_2
 10
-16.9018
 20
223.2773
  0
VERTEX
  8
LAYER_2
 10
-18.5517
 20
223.2773
  0
VERTEX
  8
LAYER_2
 10
-18.5517
 20
221.9454
  0
VERTEX
  8
LAYER_2
 10
-16.9018
 20
221.9454
  0
SEQEND
  0
POLYLINE
  8
LAYER_2
 40
0.05
 41
0.05
 66
1
 10
0
 20
0
 30
0
 70
1
  0
VERTEX
  8
LAYER_2
 10
-16.9146
 20
220.79
  0
VERTEX
  8
LAYER_2
 10
-18.5499
 20
220.79
  0
VERTEX
  8
LAYER_2
 10
-18.5499
 20
214.3218
  0
VERTEX
  8
LAYER_2
 10
-16.9146
 20
214.3218
  0
SEQEND
  0
POLYLINE
  8
LAYER_2
 40
0.05
 41
0.05
 66
1
 10
0
 20
0
 30
0
  0
VERTEX
  8
LAYER_2
 10
-19.8205
 20
215.1386
  0
VERTEX
  8
LAYER_2
 10
-20.9274
 20
216.2317
 42
-0.1123773458
  0
VERTEX
  8
LAYER_2
 10
-21.5025
 20
215.8017
 42
-0.09517045223
  0
VERTEX
  8
LAYER_2
 10
-21.984
 20
215.7164
 42
-0.2295666259
  0
VERTEX
  8
LAYER_2
 10
-22.9149
 20
216.1436
 42
-0.1146247369
  0
VERTEX
  8
LAYER_2
 10
-23.2025
 20
216.7765
 42
-0.05302023055
  0
VERTEX
  8
LAYER_2
 10
-23.2797
 20
217.6012
 42
-0.07909887362
  0
VERTEX
  8
LAYER_2
 10
-23.1547
 20
218.5928
 42
-0.092262399
  0
VERTEX
  8
LAYER_2
 10
-22.9149
 20
219.0461
 42
-0.2338488836
  0
VERTEX
  8
LAYER_2
 10
-21.984
 20
219.4732
 42
-0.128883052
  0
VERTEX
  8
LAYER_2
 10
-21.3835
 20
219.3322
 42
-0.07812769659
  0
VERTEX
  8
LAYER_2
 10
-20.9274
 20
218.9585
  0
VERTEX
  8
LAYER_2
 10
-19.8205
 20
220.0637
 42
0.170273791
  0
VERTEX
  8
LAYER_2
 10
-21.4399
 20
220.9062
 42
0.04126809408
  0
VERTEX
  8
LAYER_2
 10
-21.984
 20
220.9436
 42
0.07342899762
  0
VERTEX
  8
LAYER_2
 10
-22.9625
 20
220.804
 42
0.1715306153
  0
VERTEX
  8
LAYER_2
 10
-24.3547
 20
219.7917
 42
0.07792315428
  0
VERTEX
  8
LAYER_2
 10
-24.7438
 20
218.9398
 42
0.07121572719
  0
VERTEX
  8
LAYER_2
 10
-24.9151
 20
217.6012
 42
0.06071119945
  0
VERTEX
  8
LAYER_2
 10
-24.7811
 20
216.4004
 42
0.07599045696
  0
VERTEX
  8
LAYER_2
 10
-24.4186
 20
215.5069
 42
0.1707838222
  0
VERTEX
  8
LAYER_2
 10
-23.1195
 20
214.4409
 42
0.08917342928
  0
VERTEX
  8
LAYER_2
 10
-21.984
 20
214.2463
 42
0.07667723183
  0
VERTEX
  8
LAYER_2
 10
-21.0013
 20
214.3855
 42
0.1303789466
  0
VERTEX
  8
LAYER_2
 10
-19.8205
 20
215.1386
  0
SEQEND
  0
ENDBLK
  0
BLOCK
  8
LAYER_2
  2
AIGNBL02020005
 70
64
 10
0
 20
0
 30
0
  3
AIGNBL02020005
  0
POLYLINE
  8
LAYER_2
 40
0.05
 41
0.05
 66
1
 10
0
 20
0
 30
0
 70
1
  0
VERTEX
  8
LAYER_2
 10
0.3288
 20
212.6805
  0
VERTEX
  8
LAYER_2
 10
0.0009
 20
212.6805
  0
VERTEX
  8
LAYER_2
 10
-0.2479
 20
211.9109
  0
VERTEX
  8
LAYER_2
 10
-0.5066
 20
212.6805
  0
VERTEX
  8
LAYER_2
 10
-0.8342
 20
212.6805
  0
VERTEX
  8
LAYER_2
 10
-0.4084
 20
211.5234
  0
VERTEX
  8
LAYER_2
 10
-0.4611
 20
211.3704
 42
-0.396721792
  0
VERTEX
  8
LAYER_2
 10
-0.6165
 20
211.2581
  0
VERTEX
  8
LAYER_2
 10
-0.6882
 20
211.2581
  0
VERTEX
  8
LAYER_2
 10
-0.6882
 20
210.9783
  0
VERTEX
  8
LAYER_2
 10
-0.5662
 20
210.9783
 42
0.2105921841
  0
VERTEX
  8
LAYER_2
 10
-0.2985
 20
211.0741
  0
VERTEX
  8
LAYER_2
 10
-0.2048
 20
211.2343
  0
SEQEND
  0
POLYLINE
  8
LAYER_2
 40
0.05
 41
0.05
 66
1
 10
0
 20
0
 30
0
 70
1
  0
VERTEX
  8
LAYER_2
 10
-0.8704
 20
211.4352
  0
VERTEX
  8
LAYER_2
 10
-0.8704
 20
211.6977
  0
VERTEX
  8
LAYER_2
 10
-0.9899
 20
211.6977
 42
-0.4758158184
  0
VERTEX
  8
LAYER_2
 10
-1.0998
 20
211.8103
  0
VERTEX
  8
LAYER_2
 10
-1.0998
 20
213.137
  0
VERTEX
  8
LAYER_2
 10
-1.4109
 20
213.137
  0
VERTEX
  8
LAYER_2
 10
-1.4109
 20
211.7914
 42
0.4199153803
  0
VERTEX
  8
LAYER_2
 10
-1.0475
 20
211.4352
  0
SEQEND
  0
POLYLINE
  8
LAYER_2
 40
0.05
 41
0.05
 66
1
 10
0
 20
0
 30
0
 70
1
  0
VERTEX
  8
LAYER_2
 10
-1.9739
 20
211.894
 42
-0.2612643935
  0
VERTEX
  8
LAYER_2
 10
-2.0214
 20
211.7363
 42
-0.1972145384
  0
VERTEX
  8
LAYER_2
 10
-2.2057
 20
211.6763
 42
-0.4351815088
  0
VERTEX
  8
LAYER_2
 10
-2.3949
 20
211.8175
 42
-0.4650020324
  0
VERTEX
  8
LAYER_2
 10
-2.2105
 20
211.9609
  0
VERTEX
  8
LAYER_2
 10
-1.9739
 20
211.9609
  0
SEQEND
  0
POLYLINE
  8
LAYER_2
 40
0.05
 41
0.05
 66
1
 10
0
 20
0
 30
0
 70
1
  0
VERTEX
  8
LAYER_2
 10
-1.6624
 20
211.4352
  0
VERTEX
  8
LAYER_2
 10
-1.6624
 20
212.2551
 42
0.2205564812
  0
VERTEX
  8
LAYER_2
 10
-1.7881
 20
212.5772
 42
0.1806009816
  0
VERTEX
  8
LAYER_2
 10
-2.194
 20
212.6947
 42
0.2375604919
  0
VERTEX
  8
LAYER_2
 10
-2.6412
 20
212.5179
  0
VERTEX
  8
LAYER_2
 10
-2.4452
 20
212.3243
 42
-0.2464065653
  0
VERTEX
  8
LAYER_2
 10
-2.2057
 20
212.4322
 42
-0.4684872669
  0
VERTEX
  8
LAYER_2
 10
-1.9739
 20
212.2358
  0
VERTEX
  8
LAYER_2
 10
-1.9739
 20
212.1738
  0
VERTEX
  8
LAYER_2
 10
-2.2633
 20
212.1738
 42
0.2103132122
  0
VERTEX
  8
LAYER_2
 10
-2.6081
 20
212.0486
 42
0.18506809
  0
VERTEX
  8
LAYER_2
 10
-2.6942
 20
211.8127
 42
0.1945609364
  0
VERTEX
  8
LAYER_2
 10
-2.5912
 20
211.533
 42
0.1980708175
  0
VERTEX
  8
LAYER_2
 10
-2.2729
 20
211.4228
 42
0.2246292991
  0
VERTEX
  8
LAYER_2
 10
-1.9663
 20
211.5426
  0
VERTEX
  8
LAYER_2
 10
-1.9663
 20
211.4352
  0
SEQEND
  0
POLYLINE
  8
LAYER_2
 40
0.05
 41
0.05
 66
1
 10
0
 20
0
 30
0
 70
1
  0
VERTEX
  8
LAYER_2
 10
-2.8758
 20
211.4352
  0
VERTEX
  8
LAYER_2
 10
-2.8758
 20
211.6977
  0
VERTEX
  8
LAYER_2
 10
-2.9884
 20
211.6977
 42
-0.4605815503
  0
VERTEX
  8
LAYER_2
 10
-3.0963
 20
211.8103
  0
VERTEX
  8
LAYER_2
 10
-3.0963
 20
212.4081
  0
VERTEX
  8
LAYER_2
 10
-2.8758
 20
212.4081
  0
VERTEX
  8
LAYER_2
 10
-2.8758
 20
212.6444
  0
VERTEX
  8
LAYER_2
 10
-3.0963
 20
212.6444
  0
VERTEX
  8
LAYER_2
 10
-3.0963
 20
213.0126
  0
VERTEX
  8
LAYER_2
 10
-3.407
 20
213.0126
  0
VERTEX
  8
LAYER_2
 10
-3.407
 20
212.6444
  0
VERTEX
  8
LAYER_2
 10
-3.539
 20
212.6444
  0
VERTEX
  8
LAYER_2
 10
-3.539
 20
212.4081
  0
VERTEX
  8
LAYER_2
 10
-3.407
 20
212.4081
  0
VERTEX
  8
LAYER_2
 10
-3.407
 20
211.7914
 42
0.4187763975
  0
VERTEX
  8
LAYER_2
 10
-3.0456
 20
211.4352
  0
SEQEND
  0
POLYLINE
  8
LAYER_2
 40
0.05
 41
0.05
 66
1
 10
0
 20
0
 30
0
 70
1
  0
VERTEX
  8
LAYER_2
 10
-3.8091
 20
213.137
  0
VERTEX
  8
LAYER_2
 10
-4.1419
 20
213.137
  0
VERTEX
  8
LAYER_2
 10
-4.1419
 20
211.4352
  0
VERTEX
  8
LAYER_2
 10
-3.8091
 20
211.4352
  0
SEQEND
  0
POLYLINE
  8
LAYER_2
 40
0.05
 41
0.05
 66
1
 10
0
 20
0
 30
0
 70
1
  0
VERTEX
  8
LAYER_2
 10
-5.0562
 20
211.4352
  0
VERTEX
  8
LAYER_2
 10
-5.0562
 20
212.231
 42
0.2135728393
  0
VERTEX
  8
LAYER_2
 10
-5.183
 20
212.5844
 42
0.1976836271
  0
VERTEX
  8
LAYER_2
 10
-5.4775
 20
212.6947
 42
0.2038428178
  0
VERTEX
  8
LAYER_2
 10
-5.7886
 20
212.5658
  0
VERTEX
  8
LAYER_2
 10
-5.7886
 20
212.6805
  0
VERTEX
  8
LAYER_2
 10
-6.0925
 20
212.6805
  0
VERTEX
  8
LAYER_2
 10
-6.0925
 20
211.4352
  0
VERTEX
  8
LAYER_2
 10
-5.7814
 20
211.4352
  0
VERTEX
  8
LAYER_2
 10
-5.7814
 20
212.1882
 42
-0.4265123439
  0
VERTEX
  8
LAYER_2
 10
-5.573
 20
212.4149
 42
-0.4361688158
  0
VERTEX
  8
LAYER_2
 10
-5.3673
 20
212.1882
  0
VERTEX
  8
LAYER_2
 10
-5.3673
 20
211.4352
  0
SEQEND
  0
POLYLINE
  8
LAYER_2
 40
0.05
 41
0.05
 66
1
 10
0
 20
0
 30
0
 70
1
  0
VERTEX
  8
LAYER_2
 10
-6.437
 20
213.1467
  0
VERTEX
  8
LAYER_2
 10
-6.7553
 20
213.1467
  0
VERTEX
  8
LAYER_2
 10
-6.7553
 20
212.8931
  0
VERTEX
  8
LAYER_2
 10
-6.437
 20
212.8931
  0
SEQEND
  0
POLYLINE
  8
LAYER_2
 40
0.05
 41
0.05
 66
1
 10
0
 20
0
 30
0
 70
1
  0
VERTEX
  8
LAYER_2
 10
-6.4394
 20
212.6444
  0
VERTEX
  8
LAYER_2
 10
-6.7508
 20
212.6444
  0
VERTEX
  8
LAYER_2
 10
-6.7508
 20
211.4352
  0
VERTEX
  8
LAYER_2
 10
-6.4394
 20
211.4352
  0
SEQEND
  0
POLYLINE
  8
LAYER_2
 40
0.05
 41
0.05
 66
1
 10
0
 20
0
 30
0
  0
VERTEX
  8
LAYER_2
 10
-7.8994
 20
212.1738
  0
VERTEX
  8
LAYER_2
 10
-8.3735
 20
212.1738
  0
VERTEX
  8
LAYER_2
 10
-8.3445
 20
212.3074
 42
-0.3006254692
  0
VERTEX
  8
LAYER_2
 10
-8.1365
 20
212.4363
 42
-0.3004502708
  0
VERTEX
  8
LAYER_2
 10
-7.9284
 20
212.3074
  0
VERTEX
  8
LAYER_2
 10
-7.8994
 20
212.1738
  0
SEQEND
  0
POLYLINE
  8
LAYER_2
 40
0.05
 41
0.05
 66
1
 10
0
 20
0
 30
0
 70
1
  0
VERTEX
  8
LAYER_2
 10
-7.5932
 20
211.9609
  0
VERTEX
  8
LAYER_2
 10
-7.5932
 20
212.0925
 42
0.1727949422
  0
VERTEX
  8
LAYER_2
 10
-7.7261
 20
212.5161
 42
0.2293242446
  0
VERTEX
  8
LAYER_2
 10
-8.1365
 20
212.6947
 42
0.4082688927
  0
VERTEX
  8
LAYER_2
 10
-8.6757
 20
212.151
 42
0.02665393029
  0
VERTEX
  8
LAYER_2
 10
-8.6797
 20
212.0591
 42
0.1685110564
  0
VERTEX
  8
LAYER_2
 10
-8.5537
 20
211.6061
 42
0.2404561047
  0
VERTEX
  8
LAYER_2
 10
-8.103
 20
211.4207
 42
0.2250390665
  0
VERTEX
  8
LAYER_2
 10
-7.629
 20
211.6167
  0
VERTEX
  8
LAYER_2
 10
-7.8181
 20
211.801
 42
-0.2242451699
  0
VERTEX
  8
LAYER_2
 10
-8.1003
 20
211.6839
 42
-0.4312737558
  0
VERTEX
  8
LAYER_2
 10
-8.3735
 20
211.9609
  0
SEQEND
  0
POLYLINE
  8
LAYER_2
 40
0.05
 41
0.05
 66
1
 10
0
 20
0
 30
0
  0
VERTEX
  8
LAYER_2
 10
-9.2778
 20
212.0591
 42
-0.253040373
  0
VERTEX
  8
LAYER_2
 10
-9.3737
 20
211.7317
 42
-0.1751487426
  0
VERTEX
  8
LAYER_2
 10
-9.4911
 20
211.7004
 42
-0.3550784466
  0
VERTEX
  8
LAYER_2
 10
-9.6774
 20
211.8331
 42
-0.1590539016
  0
VERTEX
  8
LAYER_2
 10
-9.7016
 20
212.0591
 42
-0.2613372193
  0
VERTEX
  8
LAYER_2
 10
-9.6054
 20
212.3859
 42
-0.1728730088
  0
VERTEX
  8
LAYER_2
 10
-9.4911
 20
212.4149
 42
-0.3508351005
  0
VERTEX
  8
LAYER_2
 10
-9.3031
 20
212.2839
 42
-0.1617280931
  0
VERTEX
  8
LAYER_2
 10
-9.2778
 20
212.0591
  0
SEQEND
  0
POLYLINE
  8
LAYER_2
 40
0.05
 41
0.05
 66
1
 10
0
 20
0
 30
0
 70
1
  0
VERTEX
  8
LAYER_2
 10
-8.9667
 20
211.4352
  0
VERTEX
  8
LAYER_2
 10
-8.9667
 20
213.137
  0
VERTEX
  8
LAYER_2
 10
-9.2778
 20
213.137
  0
VERTEX
  8
LAYER_2
 10
-9.2778
 20
212.5707
 42
0.2263222596
  0
VERTEX
  8
LAYER_2
 10
-9.582
 20
212.6947
 42
0.2021447193
  0
VERTEX
  8
LAYER_2
 10
-9.8835
 20
212.5824
 42
0.1955994833
  0
VERTEX
  8
LAYER_2
 10
-10.0116
 20
212.1647
 42
0.01858076917
  0
VERTEX
  8
LAYER_2
 10
-10.013
 20
212.0591
 42
0.1992737425
  0
VERTEX
  8
LAYER_2
 10
-9.8835
 20
211.533
 42
0.1967798833
  0
VERTEX
  8
LAYER_2
 10
-9.5796
 20
211.4207
 42
0.2329721531
  0
VERTEX
  8
LAYER_2
 10
-9.2709
 20
211.5523
  0
VERTEX
  8
LAYER_2
 10
-9.2709
 20
211.4352
  0
SEQEND
  0
POLYLINE
  8
LAYER_2
 40
0.05
 41
0.05
 66
1
 10
0
 20
0
 30
0
 70
1
  0
VERTEX
  8
LAYER_2
 10
-10.6062
 20
211.894
 42
-0.2606176184
  0
VERTEX
  8
LAYER_2
 10
-10.6541
 20
211.7363
 42
-0.1975146001
  0
VERTEX
  8
LAYER_2
 10
-10.8384
 20
211.6763
 42
-0.4358674545
  0
VERTEX
  8
LAYER_2
 10
-11.0272
 20
211.8175
 42
-0.4654392595
  0
VERTEX
  8
LAYER_2
 10
-10.8433
 20
211.9609
  0
VERTEX
  8
LAYER_2
 10
-10.6062
 20
211.9609
  0
SEQEND
  0
POLYLINE
  8
LAYER_2
 40
0.05
 41
0.05
 66
1
 10
0
 20
0
 30
0
 70
1
  0
VERTEX
  8
LAYER_2
 10
-10.2951
 20
211.4352
  0
VERTEX
  8
LAYER_2
 10
-10.2951
 20
212.2551
 42
0.2204713638
  0
VERTEX
  8
LAYER_2
 10
-10.4207
 20
212.5772
 42
0.1806796456
  0
VERTEX
  8
LAYER_2
 10
-10.8267
 20
212.6947
 42
0.2375604919
  0
VERTEX
  8
LAYER_2
 10
-11.2739
 20
212.5179
  0
VERTEX
  8
LAYER_2
 10
-11.0779
 20
212.3243
 42
-0.2460763492
  0
VERTEX
  8
LAYER_2
 10
-10.8384
 20
212.4322
 42
-0.4683426501
  0
VERTEX
  8
LAYER_2
 10
-10.6062
 20
212.2358
  0
VERTEX
  8
LAYER_2
 10
-10.6062
 20
212.1738
  0
VERTEX
  8
LAYER_2
 10
-10.896
 20
212.1738
 42
0.2105830771
  0
VERTEX
  8
LAYER_2
 10
-11.2407
 20
212.0486
 42
0.1847749138
  0
VERTEX
  8
LAYER_2
 10
-11.3266
 20
211.8127
 42
0.1946881207
  0
VERTEX
  8
LAYER_2
 10
-11.2239
 20
211.533
 42
0.1984095291
  0
VERTEX
  8
LAYER_2
 10
-10.9053
 20
211.4228
 42
0.2251045156
  0
VERTEX
  8
LAYER_2
 10
-10.599
 20
211.5426
  0
VERTEX
  8
LAYER_2
 10
-10.599
 20
211.4352
  0
SEQEND
  0
POLYLINE
  8
LAYER_2
 40
0.05
 41
0.05
 66
1
 10
0
 20
0
 30
0
 70
1
  0
VERTEX
  8
LAYER_2
 10
-11.5733
 20
211.4352
  0
VERTEX
  8
LAYER_2
 10
-11.5733
 20
212.231
 42
0.2096424971
  0
VERTEX
  8
LAYER_2
 10
-11.7097
 20
212.5844
 42
0.1904514856
  0
VERTEX
  8
LAYER_2
 10
-12.016
 20
212.6947
 42
0.2201014615
  0
VERTEX
  8
LAYER_2
 10
-12.3894
 20
212.5369
 42
0.2475119635
  0
VERTEX
  8
LAYER_2
 10
-12.7198
 20
212.6947
 42
0.1971786765
  0
VERTEX
  8
LAYER_2
 10
-13.0309
 20
212.5658
  0
VERTEX
  8
LAYER_2
 10
-13.0309
 20
212.6805
  0
VERTEX
  8
LAYER_2
 10
-13.3348
 20
212.6805
  0
VERTEX
  8
LAYER_2
 10
-13.3348
 20
211.4352
  0
VERTEX
  8
LAYER_2
 10
-13.0233
 20
211.4352
  0
VERTEX
  8
LAYER_2
 10
-13.0233
 20
212.1882
 42
-0.4265481482
  0
VERTEX
  8
LAYER_2
 10
-12.8153
 20
212.4149
 42
-0.4361688158
  0
VERTEX
  8
LAYER_2
 10
-12.6096
 20
212.1882
  0
VERTEX
  8
LAYER_2
 10
-12.6096
 20
211.4352
  0
VERTEX
  8
LAYER_2
 10
-12.2985
 20
211.4352
  0
VERTEX
  8
LAYER_2
 10
-12.2985
 20
212.1951
 42
-0.4236814191
  0
VERTEX
  8
LAYER_2
 10
-12.0904
 20
212.4149
 42
-0.4367319455
  0
VERTEX
  8
LAYER_2
 10
-11.8844
 20
212.1882
  0
VERTEX
  8
LAYER_2
 10
-11.8844
 20
211.4352
  0
SEQEND
  0
POLYLINE
  8
LAYER_2
 40
0.05
 41
0.05
 66
1
 10
0
 20
0
 30
0
  0
VERTEX
  8
LAYER_2
 10
-13.8973
 20
212.0229
 42
-0.2061577285
  0
VERTEX
  8
LAYER_2
 10
-14.0003
 20
211.6401
 42
-0.1860547104
  0
VERTEX
  8
LAYER_2
 10
-14.1915
 20
211.5736
 42
-0.2912351062
  0
VERTEX
  8
LAYER_2
 10
-14.4327
 20
211.7044
 42
-0.1074256356
  0
VERTEX
  8
LAYER_2
 10
-14.4882
 20
212.0229
 42
-0.2074793493
  0
VERTEX
  8
LAYER_2
 10
-14.3843
 20
212.406
 42
-0.1847812498
  0
VERTEX
  8
LAYER_2
 10
-14.1915
 20
212.4725
 42
-0.2924886932
  0
VERTEX
  8
LAYER_2
 10
-13.9523
 20
212.3416
 42
-0.1065173685
  0
VERTEX
  8
LAYER_2
 10
-13.8973
 20
212.0229
  0
SEQEND
  0
POLYLINE
  8
LAYER_2
 40
0.05
 41
0.05
 66
1
 10
0
 20
0
 30
0
 70
1
  0
VERTEX
  8
LAYER_2
 10
-13.7247
 20
211.4352
  0
VERTEX
  8
LAYER_2
 10
-13.7247
 20
213.137
  0
VERTEX
  8
LAYER_2
 10
-13.8973
 20
213.137
  0
VERTEX
  8
LAYER_2
 10
-13.8973
 20
212.4749
 42
0.2526586678
  0
VERTEX
  8
LAYER_2
 10
-14.2298
 20
212.6258
 42
0.19617536
  0
VERTEX
  8
LAYER_2
 10
-14.5171
 20
212.5224
 42
0.2062736322
  0
VERTEX
  8
LAYER_2
 10
-14.6608
 20
212.0229
 42
0.1925049638
  0
VERTEX
  8
LAYER_2
 10
-14.5171
 20
211.5234
 42
0.1893263809
  0
VERTEX
  8
LAYER_2
 10
-14.2298
 20
211.4207
 42
0.2549957718
  0
VERTEX
  8
LAYER_2
 10
-13.8949
 20
211.5761
  0
VERTEX
  8
LAYER_2
 10
-13.8949
 20
211.4352
  0
SEQEND
  0
POLYLINE
  8
LAYER_2
 40
0.05
 41
0.05
 66
1
 10
0
 20
0
 30
0
 70
1
  0
VERTEX
  8
LAYER_2
 10
-15.0173
 20
211.4352
  0
VERTEX
  8
LAYER_2
 10
-15.0173
 20
212.1882
 42
0.2089360908
  0
VERTEX
  8
LAYER_2
 10
-15.1393
 20
212.5156
 42
0.1977212202
  0
VERTEX
  8
LAYER_2
 10
-15.4411
 20
212.6258
 42
0.2189458741
  0
VERTEX
  8
LAYER_2
 10
-15.7711
 20
212.4818
  0
VERTEX
  8
LAYER_2
 10
-15.7711
 20
212.6113
  0
VERTEX
  8
LAYER_2
 10
-15.9434
 20
212.6113
  0
VERTEX
  8
LAYER_2
 10
-15.9434
 20
211.4352
  0
VERTEX
  8
LAYER_2
 10
-15.7711
 20
211.4352
  0
VERTEX
  8
LAYER_2
 10
-15.7711
 20
212.1593
 42
-0.4284576329
  0
VERTEX
  8
LAYER_2
 10
-15.479
 20
212.4725
 42
-0.4466039224
  0
VERTEX
  8
LAYER_2
 10
-15.1896
 20
212.1593
  0
VERTEX
  8
LAYER_2
 10
-15.1896
 20
211.4352
  0
SEQEND
  0
POLYLINE
  8
LAYER_2
 40
0.05
 41
0.05
 66
1
 10
0
 20
0
 30
0
 70
1
  0
VERTEX
  8
LAYER_2
 10
-16.5346
 20
211.8506
 42
-0.2283736068
  0
VERTEX
  8
LAYER_2
 10
-16.5945
 20
211.6477
 42
-0.1936527339
  0
VERTEX
  8
LAYER_2
 10
-16.8553
 20
211.5688
 42
-0.4421173513
  0
VERTEX
  8
LAYER_2
 10
-17.1281
 20
211.77
 42
-0.3470924647
  0
VERTEX
  8
LAYER_2
 10
-16.9968
 20
211.9592
 42
-0.1261120874
  0
VERTEX
  8
LAYER_2
 10
-16.8625
 20
211.9774
  0
VERTEX
  8
LAYER_2
 10
-16.5346
 20
211.9774
  0
SEQEND
  0
POLYLINE
  8
LAYER_2
 40
0.05
 41
0.05
 66
1
 10
0
 20
0
 30
0
 70
1
  0
VERTEX
  8
LAYER_2
 10
-16.362
 20
211.4352
  0
VERTEX
  8
LAYER_2
 10
-16.362
 20
212.233
 42
0.2383829599
  0
VERTEX
  8
LAYER_2
 10
-16.4898
 20
212.5337
 42
0.1599209503
  0
VERTEX
  8
LAYER_2
 10
-16.8336
 20
212.6258
 42
0.2578644009
  0
VERTEX
  8
LAYER_2
 10
-17.2501
 20
212.4487
  0
VERTEX
  8
LAYER_2
 10
-17.133
 20
212.3409
 42
-0.2730960706
  0
VERTEX
  8
LAYER_2
 10
-16.8364
 20
212.4776
 42
-0.4521672334
  0
VERTEX
  8
LAYER_2
 10
-16.5346
 20
212.2193
  0
VERTEX
  8
LAYER_2
 10
-16.5346
 20
212.1066
  0
VERTEX
  8
LAYER_2
 10
-16.8863
 20
212.1066
 42
0.2189203862
  0
VERTEX
  8
LAYER_2
 10
-17.2226
 20
211.9822
 42
0.17494127
  0
VERTEX
  8
LAYER_2
 10
-17.2956
 20
211.7673
 42
0.2075768001
  0
VERTEX
  8
LAYER_2
 10
-17.2071
 20
211.5282
 42
0.2128603639
  0
VERTEX
  8
LAYER_2
 10
-16.8742
 20
211.4207
 42
0.2247839487
  0
VERTEX
  8
LAYER_2
 10
-16.5346
 20
211.5471
  0
VERTEX
  8
LAYER_2
 10
-16.5346
 20
211.4352
  0
SEQEND
  0
POLYLINE
  8
LAYER_2
 40
0.05
 41
0.05
 66
1
 10
0
 20
0
 30
0
 70
1
  0
VERTEX
  8
LAYER_2
 10
-17.6211
 20
211.4352
  0
VERTEX
  8
LAYER_2
 10
-17.6211
 20
212.1903
 42
0.2163078196
  0
VERTEX
  8
LAYER_2
 10
-17.7538
 20
212.5281
 42
0.1798246735
  0
VERTEX
  8
LAYER_2
 10
-18.0449
 20
212.6258
 42
0.2190712165
  0
VERTEX
  8
LAYER_2
 10
-18.3749
 20
212.4818
  0
VERTEX
  8
LAYER_2
 10
-18.3749
 20
213.137
  0
VERTEX
  8
LAYER_2
 10
-18.5475
 20
213.137
  0
VERTEX
  8
LAYER_2
 10
-18.5475
 20
211.4352
  0
VERTEX
  8
LAYER_2
 10
-18.3749
 20
211.4352
  0
VERTEX
  8
LAYER_2
 10
-18.3749
 20
212.1617
 42
-0.4350388577
  0
VERTEX
  8
LAYER_2
 10
-18.0807
 20
212.4725
 42
-0.4517618327
  0
VERTEX
  8
LAYER_2
 10
-17.7934
 20
212.1617
  0
VERTEX
  8
LAYER_2
 10
-17.7934
 20
211.4352
  0
SEQEND
  0
ENDBLK
  0
BLOCK
  8
LAYER_2
  2
AIGNBL02020007
 70
64
 10
0
 20
0
 30
0
  3
AIGNBL02020007
  0
INSERT
  8
LAYER_2
  2
AIGNBL02030008
 10
0
 20
0
 30
0
  0
ENDBLK
  0
BLOCK
  8
LAYER_2
  2
AIGNBL02020010
 70
64
 10
0
 20
0
 30
0
  3
AIGNBL02020010
  0
INSERT
  8
LAYER_2
  2
AIGNBL02030011
 10
0
 20
0
 30
0
  0
INSERT
  8
LAYER_2
  2
AIGNBL02030012
 10
0
 20
0
 30
0
  0
INSERT
  8
LAYER_2
  2
AIGNBL02030013
 10
0
 20
0
 30
0
  0
INSERT
  8
LAYER_2
  2
AIGNBL02030014
 10
0
 20
0
 30
0
  0
INSERT
  8
LAYER_2
  2
AIGNBL02030015
 10
0
 20
0
 30
0
  0
INSERT
  8
LAYER_2
  2
AIGNBL02030016
 10
0
 20
0
 30
0
  0
INSERT
  8
LAYER_2
  2
AIGNBL02030017
 10
0
 20
0
 30
0
  0
INSERT
  8
LAYER_2
  2
AIGNBL02030018
 10
0
 20
0
 30
0
  0
INSERT
  8
LAYER_2
  2
AIGNBL02030019
 10
0
 20
0
 30
0
  0
INSERT
  8
LAYER_2
  2
AIGNBL0203001A
 10
0
 20
0
 30
0
  0
INSERT
  8
LAYER_2
  2
AIGNBL0203001B
 10
0
 20
0
 30
0
  0
INSERT
  8
LAYER_2
  2
AIGNBL0203001C
 10
0
 20
0
 30
0
  0
INSERT
  8
LAYER_2
  2
AIGNBL0203001D
 10
0
 20
0
 30
0
  0
INSERT
  8
LAYER_2
  2
AIGNBL0203001E
 10
0
 20
0
 30
0
  0
INSERT
  8
LAYER_2
  2
AIGNBL0203001F
 10
0
 20
0
 30
0
  0
INSERT
  8
LAYER_2
  2
AIGNBL02030020
 10
0
 20
0
 30
0
  0
INSERT
  8
LAYER_2
  2
AIGNBL02030021
 10
0
 20
0
 30
0
  0
INSERT
  8
LAYER_2
  2
AIGNBL02030022
 10
0
 20
0
 30
0
  0
INSERT
  8
LAYER_2
  2
AIGNBL02030023
 10
0
 20
0
 30
0
  0
INSERT
  8
LAYER_2
  2
AIGNBL02030024
 10
0
 20
0
 30
0
  0
INSERT
  8
LAYER_2
  2
AIGNBL02030025
 10
0
 20
0
 30
0
  0
INSERT
  8
LAYER_2
  2
AIGNBL02030026
 10
0
 20
0
 30
0
  0
INSERT
  8
LAYER_2
  2
AIGNBL02030027
 10
0
 20
0
 30
0
  0
ENDBLK
  0
BLOCK
  8
LAYER_2
  2
AIGNBL0202002A
 70
64
 10
0
 20
0
 30
0
  3
AIGNBL0202002A
  0
INSERT
  8
LAYER_2
  2
AIGNBL0203002B
 10
0
 20
0
 30
0
  0
ENDBLK
  0
BLOCK
  8
LAYER_2
  2
AIGNBL02020047
 70
64
 10
0
 20
0
 30
0
  3
AIGNBL02020047
  0
POLYLINE
  8
LAYER_2
 40
0.1446
 41
0.1446
 66
1
 10
0
 20
0
 30
0
  0
VERTEX
  8
LAYER_2
 10
42.2829
 20
150.3554
  0
VERTEX
  8
LAYER_2
 10
42.2829
 20
150.0027
  0
VERTEX
  8
LAYER_2
 10
41.9301
 20
150.0027
  0
SEQEND
  0
POLYLINE
  8
LAYER_2
  6
AIGENLINE002
 40
0.1446
 41
0.1446
 66
1
 10
0
 20
0
 30
0
 70
128
  0
VERTEX
  8
LAYER_2
 10
41.2152
 20
150.0027
  0
VERTEX
  8
LAYER_2
 10
32.9932
 20
150.0027
  0
SEQEND
  0
POLYLINE
  8
LAYER_2
 40
0.1446
 41
0.1446
 66
1
 10
0
 20
0
 30
0
  0
VERTEX
  8
LAYER_2
 10
32.6357
 20
150.0027
  0
VERTEX
  8
LAYER_2
 10
32.2829
 20
150.0027
  0
VERTEX
  8
LAYER_2
 10
32.2829
 20
150.3554
  0
SEQEND
  0
POLYLINE
  8
LAYER_2
  6
AIGENLINE003
 40
0.1446
 41
0.1446
 66
1
 10
0
 20
0
 30
0
 70
128
  0
VERTEX
  8
LAYER_2
 10
32.2829
 20
151.0837
  0
VERTEX
  8
LAYER_2
 10
32.2829
 20
165.2857
  0
SEQEND
  0
POLYLINE
  8
LAYER_2
 40
0.1446
 41
0.1446
 66
1
 10
0
 20
0
 30
0
  0
VERTEX
  8
LAYER_2
 10
32.2829
 20
165.6499
  0
VERTEX
  8
LAYER_2
 10
32.2829
 20
166.0027
  0
VERTEX
  8
LAYER_2
 10
32.6357
 20
166.0027
  0
SEQEND
  0
POLYLINE
  8
LAYER_2
  6
AIGENLINE002
 40
0.1446
 41
0.1446
 66
1
 10
0
 20
0
 30
0
 70
128
  0
VERTEX
  8
LAYER_2
 10
33.3506
 20
166.0027
  0
VERTEX
  8
LAYER_2
 10
41.5726
 20
166.0027
  0
SEQEND
  0
POLYLINE
  8
LAYER_2
 40
0.1446
 41
0.1446
 66
1
 10
0
 20
0
 30
0
  0
VERTEX
  8
LAYER_2
 10
41.9301
 20
166.0027
  0
VERTEX
  8
LAYER_2
 10
42.2829
 20
166.0027
  0
VERTEX
  8
LAYER_2
 10
42.2829
 20
165.6499
  0
SEQEND
  0
POLYLINE
  8
LAYER_2
  6
AIGENLINE003
 40
0.1446
 41
0.1446
 66
1
 10
0
 20
0
 30
0
 70
128
  0
VERTEX
  8
LAYER_2
 10
42.2829
 20
164.9216
  0
VERTEX
  8
LAYER_2
 10
42.2829
 20
150.7196
  0
SEQEND
  0
ENDBLK
  0
BLOCK
  8
LAYER_2
  2
AIGNBL02020049
 70
64
 10
0
 20
0
 30
0
  3
AIGNBL02020049
  0
INSERT
  8
LAYER_2
  2
AIGNBL0203004A
 10
0
 20
0
 30
0
  0
ENDBLK
  0
BLOCK
  8
LAYER_2
  2
AIGNBL0202004C
 70
64
 10
0
 20
0
 30
0
  3
AIGNBL0202004C
  0
POLYLINE
  8
LAYER_2
 40
0.1446
 41
0.1446
 62
1
 66
1
 10
0
 20
0
 30
0
  0
VERTEX
  8
LAYER_2
 10
204.0903
 20
150.3554
  0
VERTEX
  8
LAYER_2
 10
204.0903
 20
150.0027
  0
VERTEX
  8
LAYER_2
 10
203.7375
 20
150.0027
  0
SEQEND
  0
POLYLINE
  8
LAYER_2
  6
AIGENLINE002
 40
0.1446
 41
0.1446
 62
1
 66
1
 10
0
 20
0
 30
0
 70
128
  0
VERTEX
  8
LAYER_2
 10
203.0226
 20
150.0027
  0
VERTEX
  8
LAYER_2
 10
194.8006
 20
150.0027
  0
SEQEND
  0
POLYLINE
  8
LAYER_2
 40
0.1446
 41
0.1446
 62
1
 66
1
 10
0
 20
0
 30
0
  0
VERTEX
  8
LAYER_2
 10
194.4431
 20
150.0027
  0
VERTEX
  8
LAYER_2
 10
194.0903
 20
150.0027
  0
VERTEX
  8
LAYER_2
 10
194.0903
 20
150.3554
  0
SEQEND
  0
POLYLINE
  8
LAYER_2
  6
AIGENLINE003
 40
0.1446
 41
0.1446
 62
1
 66
1
 10
0
 20
0
 30
0
 70
128
  0
VERTEX
  8
LAYER_2
 10
194.0903
 20
151.0837
  0
VERTEX
  8
LAYER_2
 10
194.0903
 20
165.2857
  0
SEQEND
  0
POLYLINE
  8
LAYER_2
 40
0.1446
 41
0.1446
 62
1
 66
1
 10
0
 20
0
 30
0
  0
VERTEX
  8
LAYER_2
 10
194.0903
 20
165.6499
  0
VERTEX
  8
LAYER_2
 10
194.0903
 20
166.0027
  0
VERTEX
  8
LAYER_2
 10
194.4431
 20
166.0027
  0
SEQEND
  0
POLYLINE
  8
LAYER_2
  6
AIGENLINE002
 40
0.1446
 41
0.1446
 62
1
 66
1
 10
0
 20
0
 30
0
 70
128
  0
VERTEX
  8
LAYER_2
 10
195.158
 20
166.0027
  0
VERTEX
  8
LAYER_2
 10
203.38
 20
166.0027
  0
SEQEND
  0
POLYLINE
  8
LAYER_2
 40
0.1446
 41
0.1446
 62
1
 66
1
 10
0
 20
0
 30
0
  0
VERTEX
  8
LAYER_2
 10
203.7375
 20
166.0027
  0
VERTEX
  8
LAYER_2
 10
204.0903
 20
166.0027
  0
VERTEX
  8
LAYER_2
 10
204.0903
 20
165.6499
  0
SEQEND
  0
POLYLINE
  8
LAYER_2
  6
AIGENLINE003
 40
0.1446
 41
0.1446
 62
1
 66
1
 10
0
 20
0
 30
0
 70
128
  0
VERTEX
  8
LAYER_2
 10
204.0903
 20
164.9216
  0
VERTEX
  8
LAYER_2
 10
204.0903
 20
150.7196
  0
SEQEND
  0
ENDBLK
  0
BLOCK
  8
LAYER_2
  2
AIGNBL02010002
 70
64
 10
0
 20
0
 30
0
  3
AIGNBL02010002
  0
POLYLINE
  8
LAYER_2
 40
0.7056
 41
0.7056
 66
1
 10
0
 20
0
 30
0
 70
1
  0
VERTEX
  8
LAYER_2
 10
251.6749
 20
230.337
  0
VERTEX
  8
LAYER_2
 10
251.6749
 20
33.3285
  0
VERTEX
  8
LAYER_2
 10
-30.3177
 20
33.3285
  0
VERTEX
  8
LAYER_2
 10
-30.3177
 20
230.337
  0
SEQEND
  0
ENDBLK
  0
BLOCK
  8
LAYER_2
  2
AIGNBL02010003
 70
64
 10
0
 20
0
 30
0
  3
AIGNBL02010003
  0
INSERT
  8
LAYER_2
  2
AIGNBL02020004
 10
0
 20
0
 30
0
  0
POLYLINE
  8
LAYER_2
 40
0.05
 41
0.05
 66
1
 10
0
 20
0
 30
0
  0
VERTEX
  8
LAYER_2
 10
-6.457
 20
223.2684
  0
VERTEX
  8
LAYER_2
 10
-8.0924
 20
223.2684
  0
VERTEX
  8
LAYER_2
 10
-8.0924
 20
216.1939
 42
0.09304299953
  0
VERTEX
  8
LAYER_2
 10
-7.9518
 20
215.4241
 42
0.2872011141
  0
VERTEX
  8
LAYER_2
 10
-6.4597
 20
214.3359
  0
VERTEX
  8
LAYER_2
 10
-6.457
 20
223.2684
  0
SEQEND
  0
INSERT
  8
LAYER_2
  2
AIGNBL02020005
 10
0
 20
0
 30
0
  0
ENDBLK
  0
BLOCK
  8
LAYER_2
  2
AIGNBL02010006
 70
64
 10
0
 20
0
 30
0
  3
AIGNBL02010006
  0
INSERT
  8
LAYER_2
  2
AIGNBL02020007
 10
0
 20
0
 30
0
  0
INSERT
  8
LAYER_2
  2
AIGNBL02020010
 10
0
 20
0
 30
0
  0
ENDBLK
  0
BLOCK
  8
LAYER_2
  2
AIGNBL02010028
 70
64
 10
0
 20
0
 30
0
  3
AIGNBL02010028
  0
POLYLINE
  8
LAYER_2
 40
0.4339
 41
0.4339
 66
1
 10
0
 20
0
 30
0
  0
VERTEX
  8
LAYER_2
 10
33.8972
 20
95.9242
 42
0.1647639136
  0
VERTEX
  8
LAYER_2
 10
33.7454
 20
95.9831
  0
SEQEND
  0
POLYLINE
  8
LAYER_2
 40
0.4339
 41
0.4339
 66
1
 10
0
 20
0
 30
0
  0
VERTEX
  8
LAYER_2
 10
33.7147
 20
91.5965
 42
0.4141695119
  0
VERTEX
  8
LAYER_2
 10
33.8121
 20
91.4991
  0
SEQEND
  0
POLYLINE
  8
LAYER_2
 40
0.4339
 41
0.4339
 66
1
 10
0
 20
0
 30
0
  0
VERTEX
  8
LAYER_2
 10
34.9431
 20
91.4991
  0
VERTEX
  8
LAYER_2
 10
35.0119
 20
91.5276
  0
VERTEX
  8
LAYER_2
 10
35.0405
 20
91.5964
  0
SEQEND
  0
ENDBLK
  0
BLOCK
  8
LAYER_2
  2
AIGNBL02010029
 70
64
 10
0
 20
0
 30
0
  3
AIGNBL02010029
  0
POLYLINE
  8
LAYER_2
 40
0.1446
 41
0.1446
 66
1
 10
0
 20
0
 30
0
  0
VERTEX
  8
LAYER_2
 10
59.7634
 20
155.0025
 42
0.4142134556
  0
VERTEX
  8
LAYER_2
 10
37.2827
 20
177.4833
 42
0.4142141198
  0
VERTEX
  8
LAYER_2
 10
14.8023
 20
155.0025
 42
0.4142136691
  0
VERTEX
  8
LAYER_2
 10
37.2827
 20
132.5217
 42
0.4142130052
  0
VERTEX
  8
LAYER_2
 10
59.7634
 20
155.0025
  0
SEQEND
  0
INSERT
  8
LAYER_2
  2
AIGNBL0202002A
 10
0
 20
0
 30
0
  0
POLYLINE
  8
LAYER_2
 40
0.1446
 41
0.1446
 66
1
 10
0
 20
0
 30
0
  0
VERTEX
  8
LAYER_2
 10
55.7859
 20
154.9635
 42
0.4142133217
  0
VERTEX
  8
LAYER_2
 10
37.2829
 20
173.4666
 42
0.4142145802
  0
VERTEX
  8
LAYER_2
 10
18.7798
 20
154.9635
 42
0.414213803
  0
VERTEX
  8
LAYER_2
 10
37.2829
 20
136.4604
 42
0.4142125448
  0
VERTEX
  8
LAYER_2
 10
55.7859
 20
154.9635
  0
SEQEND
  0
ENDBLK
  0
BLOCK
  8
LAYER_2
  2
AIGNBL0201002C
 70
64
 10
0
 20
0
 30
0
  3
AIGNBL0201002C
  0
POLYLINE
  8
LAYER_2
 40
0.4339
 41
0.4339
 66
1
 10
0
 20
0
 30
0
  0
VERTEX
  8
LAYER_2
 10
14.8041
 20
106.2068
 42
0.16289911
  0
VERTEX
  8
LAYER_2
 10
19.2059
 20
93.6259
  0
SEQEND
  0
POLYLINE
  8
LAYER_2
 40
0.4339
 41
0.4339
 66
1
 10
0
 20
0
 30
0
  0
VERTEX
  8
LAYER_2
 10
19.1919
 20
93.6011
 42
0.2317178837
  0
VERTEX
  8
LAYER_2
 10
19.4232
 20
93.4877
  0
SEQEND
  0
POLYLINE
  8
LAYER_2
 40
0.4339
 41
0.4339
 66
1
 10
0
 20
0
 30
0
  0
VERTEX
  8
LAYER_2
 10
15.1184
 20
106.6371
 42
0.3174447468
  0
VERTEX
  8
LAYER_2
 10
14.8023
 20
106.1726
  0
SEQEND
  0
POLYLINE
  8
LAYER_2
 40
0.4339
 41
0.4339
 66
1
 10
0
 20
0
 30
0
  0
VERTEX
  8
LAYER_2
 10
15.8182
 20
105.2092
 42
0.1366537087
  0
VERTEX
  8
LAYER_2
 10
19.3592
 20
95.0632
  0
SEQEND
  0
POLYLINE
  8
LAYER_2
 40
0.4339
 41
0.4339
 66
1
 10
0
 20
0
 30
0
  0
VERTEX
  8
LAYER_2
 10
16.3347
 20
105.9933
 42
0.3305783936
  0
VERTEX
  8
LAYER_2
 10
15.8178
 20
105.1937
  0
SEQEND
  0
POLYLINE
  8
LAYER_2
 40
0.4339
 41
0.4339
 66
1
 10
0
 20
0
 30
0
  0
VERTEX
  8
LAYER_2
 10
19.3516
 20
95.0398
 42
0.4036383942
  0
VERTEX
  8
LAYER_2
 10
20.4395
 20
94.8233
  0
SEQEND
  0
POLYLINE
  8
LAYER_2
 40
0.4339
 41
0.4339
 66
1
 10
0
 20
0
 30
0
  0
VERTEX
  8
LAYER_2
 10
18.7744
 20
107.5387
 42
0.2262525101
  0
VERTEX
  8
LAYER_2
 10
18.5397
 20
107.8875
 42
0.2263601929
  0
VERTEX
  8
LAYER_2
 10
18.1209
 20
107.924
  0
SEQEND
  0
POLYLINE
  8
LAYER_2
 40
0.4339
 41
0.4339
 66
1
 10
0
 20
0
 30
0
  0
VERTEX
  8
LAYER_2
 10
18.187
 20
105.7462
 42
0.1381213045
  0
VERTEX
  8
LAYER_2
 10
22.3533
 20
98.4489
  0
SEQEND
  0
POLYLINE
  8
LAYER_2
 40
0.4339
 41
0.4339
 66
1
 10
0
 20
0
 30
0
  0
VERTEX
  8
LAYER_2
 10
18.1709
 20
105.7111
 42
0.2135952345
  0
VERTEX
  8
LAYER_2
 10
17.7673
 20
106.2254
 42
0.214044293
  0
VERTEX
  8
LAYER_2
 10
17.1146
 20
106.2661
  0
SEQEND
  0
POLYLINE
  8
LAYER_2
 40
0.4339
 41
0.4339
 66
1
 10
0
 20
0
 30
0
  0
VERTEX
  8
LAYER_2
 10
22.5621
 20
97.8357
 42
0.2009083544
  0
VERTEX
  8
LAYER_2
 10
22.3236
 20
98.4056
  0
SEQEND
  0
POLYLINE
  8
LAYER_2
 40
0.4339
 41
0.4339
 66
1
 10
0
 20
0
 30
0
  0
VERTEX
  8
LAYER_2
 10
25.4044
 20
96.7916
 42
0.2385423829
  0
VERTEX
  8
LAYER_2
 10
24.6832
 20
96.7969
 42
0.2384787657
  0
VERTEX
  8
LAYER_2
 10
24.251
 20
96.2199
  0
SEQEND
  0
ENDBLK
  0
BLOCK
  8
LAYER_2
  2
AIGNBL0201002D
 70
64
 10
0
 20
0
 30
0
  3
AIGNBL0201002D
  0
POLYLINE
  8
LAYER_2
 40
0.4339
 41
0.4339
 66
1
 10
0
 20
0
 30
0
  0
VERTEX
  8
LAYER_2
 10
23.3225
 20
93.4878
 42
0.3637709804
  0
VERTEX
  8
LAYER_2
 10
23.6105
 20
93.7293
  0
SEQEND
  0
ENDBLK
  0
BLOCK
  8
LAYER_2
  2
AIGNBL0201002E
 70
64
 10
0
 20
0
 30
0
  3
AIGNBL0201002E
  0
POLYLINE
  8
LAYER_2
 40
0.4339
 41
0.4339
 66
1
 10
0
 20
0
 30
0
  0
VERTEX
  8
LAYER_2
 10
22.4931
 20
93.6203
 42
0.266293583
  0
VERTEX
  8
LAYER_2
 10
21.5676
 20
94.1506
 42
0.2662998532
  0
VERTEX
  8
LAYER_2
 10
20.6425
 20
93.6203
  0
SEQEND
  0
POLYLINE
  8
LAYER_2
 40
0.4339
 41
0.4339
 66
1
 10
0
 20
0
 30
0
  0
VERTEX
  8
LAYER_2
 10
22.5243
 20
93.6324
 42
0.2664831263
  0
VERTEX
  8
LAYER_2
 10
22.7765
 20
93.4879
  0
SEQEND
  0
POLYLINE
  8
LAYER_2
 40
0.4339
 41
0.4339
 66
1
 10
0
 20
0
 30
0
  0
VERTEX
  8
LAYER_2
 10
20.3979
 20
93.4878
 42
0.2659552703
  0
VERTEX
  8
LAYER_2
 10
20.6501
 20
93.6323
  0
SEQEND
  0
POLYLINE
  8
LAYER_2
 40
0.4339
 41
0.4339
 66
1
 10
0
 20
0
 30
0
  0
VERTEX
  8
LAYER_2
 10
21.7129
 20
95.1595
 42
0.1613616937
  0
VERTEX
  8
LAYER_2
 10
20.4412
 20
94.8343
  0
SEQEND
  0
POLYLINE
  8
LAYER_2
 40
0.4339
 41
0.4339
 66
1
 10
0
 20
0
 30
0
  0
VERTEX
  8
LAYER_2
 10
21.7072
 20
95.1665
 42
0.2081131887
  0
VERTEX
  8
LAYER_2
 10
22.3082
 20
95.3795
 42
0.2080942769
  0
VERTEX
  8
LAYER_2
 10
22.5623
 20
95.9638
  0
SEQEND
  0
ENDBLK
  0
BLOCK
  8
LAYER_2
  2
AIGNBL0201002F
 70
64
 10
0
 20
0
 30
0
  3
AIGNBL0201002F
  0
POLYLINE
  8
LAYER_2
 40
0.4339
 41
0.4339
 66
1
 10
0
 20
0
 30
0
  0
VERTEX
  8
LAYER_2
 10
55.3598
 20
93.6259
 42
0.162912002
  0
VERTEX
  8
LAYER_2
 10
59.7616
 20
106.2068
  0
SEQEND
  0
POLYLINE
  8
LAYER_2
 40
0.4339
 41
0.4339
 66
1
 10
0
 20
0
 30
0
  0
VERTEX
  8
LAYER_2
 10
55.1425
 20
93.4878
 42
0.2316406868
  0
VERTEX
  8
LAYER_2
 10
55.3738
 20
93.6011
  0
SEQEND
  0
POLYLINE
  8
LAYER_2
 40
0.4339
 41
0.4339
 66
1
 10
0
 20
0
 30
0
  0
VERTEX
  8
LAYER_2
 10
59.7634
 20
106.1724
 42
0.3172494323
  0
VERTEX
  8
LAYER_2
 10
59.4473
 20
106.6369
  0
SEQEND
  0
POLYLINE
  8
LAYER_2
 40
0.4339
 41
0.4339
 66
1
 10
0
 20
0
 30
0
  0
VERTEX
  8
LAYER_2
 10
56.4445
 20
107.9239
 42
0.2265972601
  0
VERTEX
  8
LAYER_2
 10
56.0257
 20
107.8874
 42
0.2262661226
  0
VERTEX
  8
LAYER_2
 10
55.791
 20
107.5386
  0
SEQEND
  0
ENDBLK
  0
BLOCK
  8
LAYER_2
  2
AIGNBL02010030
 70
64
 10
0
 20
0
 30
0
  3
AIGNBL02010030
  0
POLYLINE
  8
LAYER_2
 40
0.1446
 41
0.1446
 66
1
 10
0
 20
0
 30
0
  0
VERTEX
  8
LAYER_2
 10
36.0155
 20
172.2383
 42
0.2166495041
  0
VERTEX
  8
LAYER_2
 10
36.1834
 20
171.9182
 42
0.1211144187
  0
VERTEX
  8
LAYER_2
 10
36.7613
 20
171.6519
 42
0.05481267581
  0
VERTEX
  8
LAYER_2
 10
37.2829
 20
171.5951
 42
0.09301911206
  0
VERTEX
  8
LAYER_2
 10
38.0652
 20
171.7323
 42
0.1475678774
  0
VERTEX
  8
LAYER_2
 10
38.4834
 20
172.032
 42
0.1534169101
  0
VERTEX
  8
LAYER_2
 10
38.55
 20
172.2383
 42
0.2165838488
  0
VERTEX
  8
LAYER_2
 10
38.3821
 20
172.5585
 42
0.1211748055
  0
VERTEX
  8
LAYER_2
 10
37.8044
 20
172.8248
 42
0.05482216097
  0
VERTEX
  8
LAYER_2
 10
37.2829
 20
172.8816
 42
0.09300101843
  0
VERTEX
  8
LAYER_2
 10
36.5005
 20
172.7444
 42
0.1475517185
  0
VERTEX
  8
LAYER_2
 10
36.0821
 20
172.4446
 42
0.1534510103
  0
VERTEX
  8
LAYER_2
 10
36.0155
 20
172.2383
  0
SEQEND
  0
POLYLINE
  8
LAYER_2
 40
0.1446
 41
0.1446
 66
1
 10
0
 20
0
 30
0
  0
VERTEX
  8
LAYER_2
 10
221.5709
 20
155.0025
 42
0.4142135521
  0
VERTEX
  8
LAYER_2
 10
199.0901
 20
177.4833
 42
0.4142140233
  0
VERTEX
  8
LAYER_2
 10
176.6097
 20
155.0025
 42
0.4142135726
  0
VERTEX
  8
LAYER_2
 10
199.0901
 20
132.5217
 42
0.4142131017
  0
VERTEX
  8
LAYER_2
 10
221.5709
 20
155.0025
  0
SEQEND
  0
POLYLINE
  8
LAYER_2
  6
AIGENLINE004
 40
0.1446
 41
0.1446
 66
1
 10
0
 20
0
 30
0
 70
128
  0
VERTEX
  8
LAYER_2
 10
197.8229
 20
172.2383
 42
0.2166495041
  0
VERTEX
  8
LAYER_2
 10
197.9908
 20
171.9182
 42
0.1211144187
  0
VERTEX
  8
LAYER_2
 10
198.5687
 20
171.6519
 42
0.05481267581
  0
VERTEX
  8
LAYER_2
 10
199.0903
 20
171.5951
 42
0.09301911206
  0
VERTEX
  8
LAYER_2
 10
199.8726
 20
171.7323
 42
0.1475678774
  0
VERTEX
  8
LAYER_2
 10
200.2908
 20
172.032
 42
0.1534169101
  0
VERTEX
  8
LAYER_2
 10
200.3574
 20
172.2383
 42
0.2165838488
  0
VERTEX
  8
LAYER_2
 10
200.1895
 20
172.5585
 42
0.1211748055
  0
VERTEX
  8
LAYER_2
 10
199.6118
 20
172.8248
 42
0.05482216097
  0
VERTEX
  8
LAYER_2
 10
199.0903
 20
172.8816
 42
0.09300101843
  0
VERTEX
  8
LAYER_2
 10
198.3079
 20
172.7444
 42
0.1475517185
  0
VERTEX
  8
LAYER_2
 10
197.8895
 20
172.4446
 42
0.1534510103
  0
VERTEX
  8
LAYER_2
 10
197.8229
 20
172.2383
  0
SEQEND
  0
POLYLINE
  8
LAYER_2
 40
0.1446
 41
0.1446
 66
1
 10
0
 20
0
 30
0
  0
VERTEX
  8
LAYER_2
 10
33.7147
 20
91.5965
 42
0.4141695119
  0
VERTEX
  8
LAYER_2
 10
33.8121
 20
91.4991
  0
SEQEND
  0
ENDBLK
  0
BLOCK
  8
LAYER_2
  2
AIGNBL02010031
 70
64
 10
0
 20
0
 30
0
  3
AIGNBL02010031
  0
POLYLINE
  8
LAYER_2
 40
0.1446
 41
0.1446
 66
1
 10
0
 20
0
 30
0
  0
VERTEX
  8
LAYER_2
 10
19.1919
 20
93.6011
 42
0.2317178837
  0
VERTEX
  8
LAYER_2
 10
19.4232
 20
93.4877
  0
SEQEND
  0
POLYLINE
  8
LAYER_2
 40
0.1446
 41
0.1446
 66
1
 10
0
 20
0
 30
0
  0
VERTEX
  8
LAYER_2
 10
56.5092
 20
107.9298
 42
0.1009586951
  0
VERTEX
  8
LAYER_2
 10
56.1954
 20
107.9941
  0
SEQEND
  0
POLYLINE
  8
LAYER_2
 40
0.1446
 41
0.1446
 66
1
 10
0
 20
0
 30
0
  0
VERTEX
  8
LAYER_2
 10
55.1425
 20
93.4878
 42
0.2316406868
  0
VERTEX
  8
LAYER_2
 10
55.3738
 20
93.6011
  0
SEQEND
  0
POLYLINE
  8
LAYER_2
 40
0.1446
 41
0.1446
 66
1
 10
0
 20
0
 30
0
  0
VERTEX
  8
LAYER_2
 10
18.3702
 20
107.994
 42
0.1011639923
  0
VERTEX
  8
LAYER_2
 10
18.0567
 20
107.93
  0
SEQEND
  0
ENDBLK
  0
BLOCK
  8
LAYER_2
  2
AIGNBL02010032
 70
64
 10
0
 20
0
 30
0
  3
AIGNBL02010032
  0
POLYLINE
  8
LAYER_2
 40
0.4339
 41
0.4339
 66
1
 10
0
 20
0
 30
0
  0
VERTEX
  8
LAYER_2
 10
18.8015
 20
107.5558
 42
0.3526774354
  0
VERTEX
  8
LAYER_2
 10
33.759
 20
95.9864
  0
SEQEND
  0
POLYLINE
  8
LAYER_2
 40
0.4339
 41
0.4339
 66
1
 10
0
 20
0
 30
0
  0
VERTEX
  8
LAYER_2
 10
25.4378
 20
96.7995
 42
0.1256256948
  0
VERTEX
  8
LAYER_2
 10
33.2528
 20
94.6978
  0
SEQEND
  0
POLYLINE
  8
LAYER_2
 40
0.4339
 41
0.4339
 66
1
 10
0
 20
0
 30
0
  0
VERTEX
  8
LAYER_2
 10
33.7147
 20
94.1703
 42
0.4104659171
  0
VERTEX
  8
LAYER_2
 10
33.2335
 20
94.6575
  0
SEQEND
  0
ENDBLK
  0
BLOCK
  8
LAYER_2
  2
AIGNBL02010033
 70
64
 10
0
 20
0
 30
0
  3
AIGNBL02010033
  0
POLYLINE
  8
LAYER_2
 40
0.1446
 41
0.1446
 66
1
 10
0
 20
0
 30
0
  0
VERTEX
  8
LAYER_2
 10
106.7135
 20
134.7251
 42
0.414288182
  0
VERTEX
  8
LAYER_2
 10
106.8109
 20
134.6277
  0
SEQEND
  0
ENDBLK
  0
BLOCK
  8
LAYER_2
  2
AIGNBL02010034
 70
64
 10
0
 20
0
 30
0
  3
AIGNBL02010034
  0
POLYLINE
  8
LAYER_2
 40
0.1446
 41
0.1446
 66
1
 10
0
 20
0
 30
0
  0
VERTEX
  8
LAYER_2
 10
87.8029
 20
149.3353
 42
0.1628982707
  0
VERTEX
  8
LAYER_2
 10
92.2047
 20
136.7545
  0
SEQEND
  0
POLYLINE
  8
LAYER_2
 40
0.1446
 41
0.1446
 66
1
 10
0
 20
0
 30
0
  0
VERTEX
  8
LAYER_2
 10
92.1907
 20
136.7686
 42
0.2316578322
  0
VERTEX
  8
LAYER_2
 10
92.422
 20
136.6553
  0
SEQEND
  0
POLYLINE
  8
LAYER_2
 40
0.1446
 41
0.1446
 66
1
 10
0
 20
0
 30
0
  0
VERTEX
  8
LAYER_2
 10
88.1172
 20
149.8046
 42
0.3174103544
  0
VERTEX
  8
LAYER_2
 10
87.8011
 20
149.3402
  0
SEQEND
  0
ENDBLK
  0
BLOCK
  8
LAYER_2
  2
AIGNBL02010035
 70
64
 10
0
 20
0
 30
0
  3
AIGNBL02010035
  0
POLYLINE
  8
LAYER_2
 40
0.1446
 41
0.1446
 66
1
 10
0
 20
0
 30
0
  0
VERTEX
  8
LAYER_2
 10
106.7135
 20
134.7251
 42
0.414288182
  0
VERTEX
  8
LAYER_2
 10
106.8109
 20
134.6277
  0
SEQEND
  0
ENDBLK
  0
BLOCK
  8
LAYER_2
  2
AIGNBL02010036
 70
64
 10
0
 20
0
 30
0
  3
AIGNBL02010036
  0
POLYLINE
  8
LAYER_2
 40
0.1446
 41
0.1446
 66
1
 10
0
 20
0
 30
0
  0
VERTEX
  8
LAYER_2
 10
129.508
 20
151.0584
 42
0.100851054
  0
VERTEX
  8
LAYER_2
 10
129.1941
 20
151.1227
  0
SEQEND
  0
POLYLINE
  8
LAYER_2
 40
0.1446
 41
0.1446
 66
1
 10
0
 20
0
 30
0
  0
VERTEX
  8
LAYER_2
 10
128.3586
 20
136.7545
 42
0.1629223516
  0
VERTEX
  8
LAYER_2
 10
132.7604
 20
149.3372
  0
SEQEND
  0
POLYLINE
  8
LAYER_2
 40
0.1446
 41
0.1446
 66
1
 10
0
 20
0
 30
0
  0
VERTEX
  8
LAYER_2
 10
128.1413
 20
136.6553
 42
0.2316644022
  0
VERTEX
  8
LAYER_2
 10
128.3726
 20
136.7687
  0
SEQEND
  0
POLYLINE
  8
LAYER_2
 40
0.1446
 41
0.1446
 66
1
 10
0
 20
0
 30
0
  0
VERTEX
  8
LAYER_2
 10
132.7622
 20
149.34
 42
0.3172901712
  0
VERTEX
  8
LAYER_2
 10
132.446
 20
149.8045
  0
SEQEND
  0
POLYLINE
  8
LAYER_2
 40
0.1446
 41
0.1446
 66
1
 10
0
 20
0
 30
0
  0
VERTEX
  8
LAYER_2
 10
91.3299
 20
151.1225
 42
0.1008821857
  0
VERTEX
  8
LAYER_2
 10
91.0165
 20
151.0586
  0
SEQEND
  0
POLYLINE
  8
LAYER_2
 40
0.1446
 41
0.1446
 66
1
 10
0
 20
0
 30
0
  0
VERTEX
  8
LAYER_2
 10
113.7132
 20
134.6276
 42
0.4141699749
  0
VERTEX
  8
LAYER_2
 10
113.8105
 20
134.725
  0
SEQEND
  0
ENDBLK
  0
BLOCK
  8
LAYER_2
  2
AIGNBL02010037
 70
64
 10
0
 20
0
 30
0
  3
AIGNBL02010037
  0
POLYLINE
  8
LAYER_2
 40
0.1446
 41
0.1446
 66
1
 10
0
 20
0
 30
0
  0
VERTEX
  8
LAYER_2
 10
128.3586
 20
136.7545
 42
0.1629223516
  0
VERTEX
  8
LAYER_2
 10
132.7604
 20
149.3372
  0
SEQEND
  0
POLYLINE
  8
LAYER_2
 40
0.1446
 41
0.1446
 66
1
 10
0
 20
0
 30
0
  0
VERTEX
  8
LAYER_2
 10
128.1414
 20
136.6553
 42
0.2315865927
  0
VERTEX
  8
LAYER_2
 10
128.3726
 20
136.7687
  0
SEQEND
  0
POLYLINE
  8
LAYER_2
 40
0.1446
 41
0.1446
 66
1
 10
0
 20
0
 30
0
  0
VERTEX
  8
LAYER_2
 10
132.7622
 20
149.3401
 42
0.3172464718
  0
VERTEX
  8
LAYER_2
 10
132.446
 20
149.8045
  0
SEQEND
  0
ENDBLK
  0
BLOCK
  8
LAYER_2
  2
AIGNBL02010038
 70
64
 10
0
 20
0
 30
0
  3
AIGNBL02010038
  0
POLYLINE
  8
LAYER_2
 40
0.1446
 41
0.1446
 66
1
 10
0
 20
0
 30
0
  0
VERTEX
  8
LAYER_2
 10
40.7728
 20
154.9635
 42
0.4142143464
  0
VERTEX
  8
LAYER_2
 10
37.2828
 20
158.4536
 42
0.4142168977
  0
VERTEX
  8
LAYER_2
 10
33.7927
 20
154.9635
 42
0.4142127784
  0
VERTEX
  8
LAYER_2
 10
37.2828
 20
151.4735
 42
0.4142102272
  0
VERTEX
  8
LAYER_2
 10
40.7728
 20
154.9635
  0
SEQEND
  0
POLYLINE
  8
LAYER_2
 40
0.1446
 41
0.1446
 66
1
 10
0
 20
0
 30
0
  0
VERTEX
  8
LAYER_2
 10
39.564
 20
154.9635
 42
0.4142192333
  0
VERTEX
  8
LAYER_2
 10
37.2828
 20
157.2447
 42
0.4142141938
  0
VERTEX
  8
LAYER_2
 10
35.0017
 20
154.9635
 42
0.4142078914
  0
VERTEX
  8
LAYER_2
 10
37.2828
 20
152.6824
 42
0.4142129313
  0
VERTEX
  8
LAYER_2
 10
39.564
 20
154.9635
  0
SEQEND
  0
ENDBLK
  0
BLOCK
  8
LAYER_2
  2
AIGNBL02010039
 70
64
 10
0
 20
0
 30
0
  3
AIGNBL02010039
  0
POLYLINE
  8
LAYER_2
 40
0.1446
 41
0.1446
 66
1
 10
0
 20
0
 30
0
  0
VERTEX
  8
LAYER_2
 10
202.5802
 20
154.9635
 42
0.414214968
  0
VERTEX
  8
LAYER_2
 10
199.0902
 20
158.4536
 42
0.4142162761
  0
VERTEX
  8
LAYER_2
 10
195.6002
 20
154.9635
 42
0.4142121567
  0
VERTEX
  8
LAYER_2
 10
199.0902
 20
151.4735
 42
0.4142108488
  0
VERTEX
  8
LAYER_2
 10
202.5802
 20
154.9635
  0
SEQEND
  0
POLYLINE
  8
LAYER_2
 40
0.1446
 41
0.1446
 66
1
 10
0
 20
0
 30
0
  0
VERTEX
  8
LAYER_2
 10
201.3714
 20
154.9635
 42
0.4142201843
  0
VERTEX
  8
LAYER_2
 10
199.0902
 20
157.2447
 42
0.4142132427
  0
VERTEX
  8
LAYER_2
 10
196.8091
 20
154.9635
 42
0.4142069403
  0
VERTEX
  8
LAYER_2
 10
199.0902
 20
152.6824
 42
0.4142138824
  0
VERTEX
  8
LAYER_2
 10
201.3714
 20
154.9635
  0
SEQEND
  0
ENDBLK
  0
BLOCK
  8
LAYER_2
  2
AIGNBL0201003A
 70
64
 10
0
 20
0
 30
0
  3
AIGNBL0201003A
  0
POLYLINE
  8
LAYER_2
 40
0.1446
 41
0.1446
 66
1
 10
0
 20
0
 30
0
  0
VERTEX
  8
LAYER_2
 10
106.7135
 20
91.5965
 42
0.4142287208
  0
VERTEX
  8
LAYER_2
 10
106.8109
 20
91.4991
  0
SEQEND
  0
ENDBLK
  0
BLOCK
  8
LAYER_2
  2
AIGNBL0201003B
 70
64
 10
0
 20
0
 30
0
  3
AIGNBL0201003B
  0
POLYLINE
  8
LAYER_2
 40
0.1446
 41
0.1446
 66
1
 10
0
 20
0
 30
0
  0
VERTEX
  8
LAYER_2
 10
87.8029
 20
106.2068
 42
0.1628994273
  0
VERTEX
  8
LAYER_2
 10
92.2047
 20
93.6259
  0
SEQEND
  0
POLYLINE
  8
LAYER_2
 40
0.1446
 41
0.1446
 66
1
 10
0
 20
0
 30
0
  0
VERTEX
  8
LAYER_2
 10
92.1907
 20
93.6011
 42
0.2317138108
  0
VERTEX
  8
LAYER_2
 10
92.422
 20
93.4877
  0
SEQEND
  0
POLYLINE
  8
LAYER_2
 40
0.1446
 41
0.1446
 66
1
 10
0
 20
0
 30
0
  0
VERTEX
  8
LAYER_2
 10
88.1172
 20
106.6371
 42
0.3174549903
  0
VERTEX
  8
LAYER_2
 10
87.8011
 20
106.1726
  0
SEQEND
  0
ENDBLK
  0
BLOCK
  8
LAYER_2
  2
AIGNBL0201003C
 70
64
 10
0
 20
0
 30
0
  3
AIGNBL0201003C
  0
POLYLINE
  8
LAYER_2
 40
0.1446
 41
0.1446
 66
1
 10
0
 20
0
 30
0
  0
VERTEX
  8
LAYER_2
 10
128.3586
 20
93.6259
 42
0.1629116847
  0
VERTEX
  8
LAYER_2
 10
132.7604
 20
106.2068
  0
SEQEND
  0
POLYLINE
  8
LAYER_2
 40
0.1446
 41
0.1446
 66
1
 10
0
 20
0
 30
0
  0
VERTEX
  8
LAYER_2
 10
128.1413
 20
93.4878
 42
0.2316410808
  0
VERTEX
  8
LAYER_2
 10
128.3726
 20
93.6011
  0
SEQEND
  0
POLYLINE
  8
LAYER_2
 40
0.1446
 41
0.1446
 66
1
 10
0
 20
0
 30
0
  0
VERTEX
  8
LAYER_2
 10
132.7622
 20
106.1724
 42
0.3172979512
  0
VERTEX
  8
LAYER_2
 10
132.446
 20
106.6369
  0
SEQEND
  0
ENDBLK
  0
BLOCK
  8
LAYER_2
  2
AIGNBL0201003D
 70
64
 10
0
 20
0
 30
0
  3
AIGNBL0201003D
  0
POLYLINE
  8
LAYER_2
 40
0.1446
 41
0.1446
 66
1
 10
0
 20
0
 30
0
  0
VERTEX
  8
LAYER_2
 10
106.7135
 20
91.5965
 42
0.4142287208
  0
VERTEX
  8
LAYER_2
 10
106.8109
 20
91.4991
  0
SEQEND
  0
POLYLINE
  8
LAYER_2
 40
0.1446
 41
0.1446
 66
1
 10
0
 20
0
 30
0
  0
VERTEX
  8
LAYER_2
 10
129.508
 20
107.9298
 42
0.1009519486
  0
VERTEX
  8
LAYER_2
 10
129.1941
 20
107.9941
  0
SEQEND
  0
POLYLINE
  8
LAYER_2
 40
0.1446
 41
0.1446
 66
1
 10
0
 20
0
 30
0
  0
VERTEX
  8
LAYER_2
 10
91.3299
 20
107.994
 42
0.1011357041
  0
VERTEX
  8
LAYER_2
 10
91.0165
 20
107.93
  0
SEQEND
  0
ENDBLK
  0
BLOCK
  8
LAYER_2
  2
AIGNBL0201003E
 70
64
 10
0
 20
0
 30
0
  3
AIGNBL0201003E
  0
POLYLINE
  8
LAYER_2
 40
0.1446
 41
0.1446
 66
1
 10
0
 20
0
 30
0
  0
VERTEX
  8
LAYER_2
 10
113.7923
 20
91.471
 42
0.1049338289
  0
VERTEX
  8
LAYER_2
 10
121.898
 20
93.4734
  0
SEQEND
  0
ENDBLK
  0
BLOCK
  8
LAYER_2
  2
AIGNBL0201003F
 70
64
 10
0
 20
0
 30
0
  3
AIGNBL0201003F
  0
POLYLINE
  8
LAYER_2
 40
0.1446
 41
0.1446
 66
1
 10
0
 20
0
 30
0
  0
VERTEX
  8
LAYER_2
 10
128.1413
 20
136.6553
 42
0.2316644022
  0
VERTEX
  8
LAYER_2
 10
128.3726
 20
136.7687
  0
SEQEND
  0
ENDBLK
  0
BLOCK
  8
LAYER_2
  2
AIGNBL02010040
 70
64
 10
0
 20
0
 30
0
  3
AIGNBL02010040
  0
POLYLINE
  8
LAYER_2
 40
0.4339
 41
0.4339
 66
1
 10
0
 20
0
 30
0
  0
VERTEX
  8
LAYER_2
 10
40.8202
 20
95.9832
 42
0.1638022155
  0
VERTEX
  8
LAYER_2
 10
40.6684
 20
95.9243
  0
SEQEND
  0
POLYLINE
  8
LAYER_2
 40
0.4339
 41
0.4339
 66
1
 10
0
 20
0
 30
0
  0
VERTEX
  8
LAYER_2
 10
40.7144
 20
91.4991
 42
0.4139950627
  0
VERTEX
  8
LAYER_2
 10
40.8117
 20
91.5964
  0
SEQEND
  0
POLYLINE
  8
LAYER_2
 40
0.4339
 41
0.4339
 66
1
 10
0
 20
0
 30
0
  0
VERTEX
  8
LAYER_2
 10
39.525
 20
91.5965
  0
VERTEX
  8
LAYER_2
 10
39.5535
 20
91.5277
  0
VERTEX
  8
LAYER_2
 10
39.6224
 20
91.4992
  0
SEQEND
  0
ENDBLK
  0
BLOCK
  8
LAYER_2
  2
AIGNBL02010041
 70
64
 10
0
 20
0
 30
0
  3
AIGNBL02010041
  0
POLYLINE
  8
LAYER_2
 40
0.4339
 41
0.4339
 66
1
 10
0
 20
0
 30
0
  0
VERTEX
  8
LAYER_2
 10
55.2063
 20
95.0633
 42
0.1366536519
  0
VERTEX
  8
LAYER_2
 10
58.7473
 20
105.2093
  0
SEQEND
  0
POLYLINE
  8
LAYER_2
 40
0.4339
 41
0.4339
 66
1
 10
0
 20
0
 30
0
  0
VERTEX
  8
LAYER_2
 10
58.7479
 20
105.1936
 42
0.3301253078
  0
VERTEX
  8
LAYER_2
 10
58.231
 20
105.9931
  0
SEQEND
  0
POLYLINE
  8
LAYER_2
 40
0.4339
 41
0.4339
 66
1
 10
0
 20
0
 30
0
  0
VERTEX
  8
LAYER_2
 10
54.0869
 20
94.8232
 42
0.4033960315
  0
VERTEX
  8
LAYER_2
 10
55.1748
 20
95.0396
  0
SEQEND
  0
POLYLINE
  8
LAYER_2
 40
0.4339
 41
0.4339
 66
1
 10
0
 20
0
 30
0
  0
VERTEX
  8
LAYER_2
 10
56.4445
 20
107.9239
 42
0.2265972601
  0
VERTEX
  8
LAYER_2
 10
56.0257
 20
107.8874
 42
0.225918619
  0
VERTEX
  8
LAYER_2
 10
55.791
 20
107.5386
  0
SEQEND
  0
POLYLINE
  8
LAYER_2
 40
0.4339
 41
0.4339
 66
1
 10
0
 20
0
 30
0
  0
VERTEX
  8
LAYER_2
 10
52.2123
 20
98.4489
 42
0.1381221059
  0
VERTEX
  8
LAYER_2
 10
56.3787
 20
105.7462
  0
SEQEND
  0
POLYLINE
  8
LAYER_2
 40
0.4339
 41
0.4339
 66
1
 10
0
 20
0
 30
0
  0
VERTEX
  8
LAYER_2
 10
57.451
 20
106.2663
 42
0.2132859582
  0
VERTEX
  8
LAYER_2
 10
56.7982
 20
106.2256
 42
0.2135782682
  0
VERTEX
  8
LAYER_2
 10
56.3946
 20
105.7113
  0
SEQEND
  0
POLYLINE
  8
LAYER_2
 40
0.4339
 41
0.4339
 66
1
 10
0
 20
0
 30
0
  0
VERTEX
  8
LAYER_2
 10
52.242
 20
98.4054
 42
0.2008597147
  0
VERTEX
  8
LAYER_2
 10
52.0035
 20
97.8356
  0
SEQEND
  0
POLYLINE
  8
LAYER_2
 40
0.4339
 41
0.4339
 66
1
 10
0
 20
0
 30
0
  0
VERTEX
  8
LAYER_2
 10
50.3145
 20
96.2197
 42
0.2381936987
  0
VERTEX
  8
LAYER_2
 10
49.8824
 20
96.7972
 42
0.238550785
  0
VERTEX
  8
LAYER_2
 10
49.1611
 20
96.7915
  0
SEQEND
  0
ENDBLK
  0
BLOCK
  8
LAYER_2
  2
AIGNBL02010042
 70
64
 10
0
 20
0
 30
0
  3
AIGNBL02010042
  0
POLYLINE
  8
LAYER_2
 40
0.4339
 41
0.4339
 66
1
 10
0
 20
0
 30
0
  0
VERTEX
  8
LAYER_2
 10
50.955
 20
93.7295
 42
0.3638274263
  0
VERTEX
  8
LAYER_2
 10
51.243
 20
93.4879
  0
SEQEND
  0
ENDBLK
  0
BLOCK
  8
LAYER_2
  2
AIGNBL02010043
 70
64
 10
0
 20
0
 30
0
  3
AIGNBL02010043
  0
POLYLINE
  8
LAYER_2
 40
0.4339
 41
0.4339
 66
1
 10
0
 20
0
 30
0
  0
VERTEX
  8
LAYER_2
 10
53.9231
 20
93.6203
 42
0.2662960651
  0
VERTEX
  8
LAYER_2
 10
52.9976
 20
94.1506
 42
0.2662973711
  0
VERTEX
  8
LAYER_2
 10
52.0725
 20
93.6203
  0
SEQEND
  0
POLYLINE
  8
LAYER_2
 40
0.4339
 41
0.4339
 66
1
 10
0
 20
0
 30
0
  0
VERTEX
  8
LAYER_2
 10
51.7889
 20
93.4878
 42
0.2659702301
  0
VERTEX
  8
LAYER_2
 10
52.0411
 20
93.6323
  0
SEQEND
  0
POLYLINE
  8
LAYER_2
 40
0.4339
 41
0.4339
 66
1
 10
0
 20
0
 30
0
  0
VERTEX
  8
LAYER_2
 10
53.9153
 20
93.6324
 42
0.2664707022
  0
VERTEX
  8
LAYER_2
 10
54.1675
 20
93.4879
  0
SEQEND
  0
POLYLINE
  8
LAYER_2
 40
0.4339
 41
0.4339
 66
1
 10
0
 20
0
 30
0
  0
VERTEX
  8
LAYER_2
 10
54.1244
 20
94.8342
 42
0.161355774
  0
VERTEX
  8
LAYER_2
 10
52.8528
 20
95.1595
  0
SEQEND
  0
POLYLINE
  8
LAYER_2
 40
0.4339
 41
0.4339
 66
1
 10
0
 20
0
 30
0
  0
VERTEX
  8
LAYER_2
 10
52.0034
 20
95.964
 42
0.2077595717
  0
VERTEX
  8
LAYER_2
 10
52.2575
 20
95.3793
 42
0.2080554064
  0
VERTEX
  8
LAYER_2
 10
52.8585
 20
95.1667
  0
SEQEND
  0
ENDBLK
  0
BLOCK
  8
LAYER_2
  2
AIGNBL02010044
 70
64
 10
0
 20
0
 30
0
  3
AIGNBL02010044
  0
POLYLINE
  8
LAYER_2
 40
0.1446
 41
0.1446
 66
1
 10
0
 20
0
 30
0
  0
VERTEX
  8
LAYER_2
 10
40.7144
 20
91.4991
 42
0.4139950627
  0
VERTEX
  8
LAYER_2
 10
40.8117
 20
91.5964
  0
SEQEND
  0
ENDBLK
  0
BLOCK
  8
LAYER_2
  2
AIGNBL02010045
 70
64
 10
0
 20
0
 30
0
  3
AIGNBL02010045
  0
POLYLINE
  8
LAYER_2
 40
0.4339
 41
0.4339
 66
1
 10
0
 20
0
 30
0
  0
VERTEX
  8
LAYER_2
 10
40.8066
 20
95.9864
 42
0.3526773156
  0
VERTEX
  8
LAYER_2
 10
55.7641
 20
107.5558
  0
SEQEND
  0
POLYLINE
  8
LAYER_2
 40
0.4339
 41
0.4339
 66
1
 10
0
 20
0
 30
0
  0
VERTEX
  8
LAYER_2
 10
41.3129
 20
94.698
 42
0.1256390068
  0
VERTEX
  8
LAYER_2
 10
49.1279
 20
96.7996
  0
SEQEND
  0
POLYLINE
  8
LAYER_2
 40
0.4339
 41
0.4339
 66
1
 10
0
 20
0
 30
0
  0
VERTEX
  8
LAYER_2
 10
41.3321
 20
94.6576
 42
0.4105051505
  0
VERTEX
  8
LAYER_2
 10
40.8509
 20
94.1703
  0
SEQEND
  0
ENDBLK
  0
BLOCK
  8
LAYER_2
  2
AIGNBL02010046
 70
64
 10
0
 20
0
 30
0
  3
AIGNBL02010046
  0
INSERT
  8
LAYER_2
  2
AIGNBL02020047
 10
0
 20
0
 30
0
  0
ENDBLK
  0
BLOCK
  8
LAYER_2
  2
AIGNBL02010048
 70
64
 10
0
 20
0
 30
0
  3
AIGNBL02010048
  0
INSERT
  8
LAYER_2
  2
AIGNBL02020049
 10
0
 20
0
 30
0
  0
ENDBLK
  0
BLOCK
  8
LAYER_2
  2
AIGNBL0201004B
 70
64
 10
0
 20
0
 30
0
  3
AIGNBL0201004B
  0
INSERT
  8
LAYER_2
  2
AIGNBL0202004C
 10
0
 20
0
 30
0
  0
ENDBLK
  0
ENDSEC
  0
SECTION
  2
ENTITIES
  0
TEXT
  8
LAYER_2
 10
-26.2556
 20
43.1712
 11
-26.2556
 21
43.1712
 40
3.2995
 41
0.5
  1
仕様
  0
POLYLINE
  8
LAYER_2
 40
0.3528
 41
0.3528
 66
1
 10
0
 20
0
 30
0
  0
VERTEX
  8
LAYER_2
 10
250.6748
 20
51.9507
  0
VERTEX
  8
LAYER_2
 10
-29.3178
 20
51.9507
  0
SEQEND
  0
INSERT
  8
LAYER_2
  2
AIGNBL02010002
 10
0
 20
0
 30
0
  0
POLYLINE
  8
LAYER_2
 40
0.3528
 41
0.3528
 66
1
 10
0
 20
0
 30
0
  0
VERTEX
  8
LAYER_2
 10
-29.3178
 20
229.3369
  0
VERTEX
  8
LAYER_2
 10
-29.3178
 20
34.3283
  0
VERTEX
  8
LAYER_2
 10
250.6748
 20
34.3283
  0
VERTEX
  8
LAYER_2
 10
250.6748
 20
229.3369
  0
VERTEX
  8
LAYER_2
 10
-29.3178
 20
229.3369
  0
SEQEND
  0
POLYLINE
  8
LAYER_2
 40
0.3528
 41
0.3528
 66
1
 10
0
 20
0
 30
0
  0
VERTEX
  8
LAYER_2
 10
250.6748
 20
60.4597
  0
VERTEX
  8
LAYER_2
 10
-29.3178
 20
60.4597
  0
SEQEND
  0
POLYLINE
  8
LAYER_2
 40
0.3528
 41
0.3528
 66
1
 10
0
 20
0
 30
0
  0
VERTEX
  8
LAYER_2
 10
250.6748
 20
43.4416
  0
VERTEX
  8
LAYER_2
 10
143.5341
 20
43.4416
  0
SEQEND
  0
TEXT
  8
LAYER_2
 10
188.1725
 20
45.7175
 11
188.1725
 21
45.7175
 40
3.7615
 41
0.5
  1
-
  0
TEXT
  8
LAYER_2
 10
182.8808
 20
49.4743
 11
182.8808
 21
49.4743
 40
2.1997
 41
0.5
  1
縮尺
  0
POLYLINE
  8
LAYER_2
 40
0.3528
 41
0.3528
 66
1
 10
0
 20
0
 30
0
  0
VERTEX
  8
LAYER_2
 10
181.3526
 20
43.4416
  0
VERTEX
  8
LAYER_2
 10
181.3526
 20
51.9507
  0
SEQEND
  0
TEXT
  8
LAYER_2
 10
144.2327
 20
57.9834
 11
144.2327
 21
57.9834
 40
2.1997
 41
0.5
  1
品番
  0
TEXT
  8
LAYER_2
 10
-28.1609
 20
57.9834
 11
-28.1609
 21
57.9834
 40
2.1997
 41
0.5
  1
品名
  0
TEXT
  8
LAYER_2
 10
144.2327
 20
49.4743
 11
144.2327
 21
49.4743
 40
2.1997
 41
0.5
  1
重量
  0
TEXT
  8
LAYER_2
 10
150.2547
 20
54.1514
 11
150.2547
 21
54.1514
 40
5.9385
 41
0.5
  1
CIE-FLLA45/
  0
TEXT
  8
LAYER_2
 10
149.5454
 20
45.7175
 11
149.5454
 21
45.7175
 40
3.7615
 41
0.5
  1
10.3kg
  0
POLYLINE
  8
LAYER_2
 40
0.3528
 41
0.3528
 66
1
 10
0
 20
0
 30
0
  0
VERTEX
  8
LAYER_2
 10
143.5341
 20
34.9539
  0
VERTEX
  8
LAYER_2
 10
143.5341
 20
60.4597
  0
SEQEND
  0
TEXT
  8
LAYER_2
 10
-15.4006
 20
54.891
 11
-15.4006
 21
54.891
 40
4.1465
 41
0.5
  1
フルイドカウンター置き型洗面器450ｍｍ
  0
INSERT
  8
LAYER_2
  2
AIGNBL02010003
 10
0
 20
0
 30
0
  0
TEXT
  8
LAYER_2
 10
-15.6835
 20
43.9625
 11
-15.6835
 21
43.9625
 40
3.1177
 41
0.5
  1
●設置方法：カウンター置き●水栓取付穴：なし●オーバーフローあり
  0
TEXT
  8
LAYER_2
 10
-15.6835
 20
39.2124
 11
-15.6835
 21
39.2124
 40
3.5541
 41
0.5
  1
●排水金具別途●容量：3.6L
  0
TEXT
  8
LAYER_2
 10
237.263
 20
63.2582
 11
237.263
 21
63.2582
 40
2.9618
 41
0.5
  1
単位：mm
  0
TEXT
  8
LAYER_2
 10
6.5217
 20
219.7385
 11
6.5217
 21
219.7385
 40
2.5981
 41
0.5
  1
※陶器製品は寸法公差が発生します。カウンター切り込みの際は必ず現物を合わせてご確認ください。
  0
TEXT
  8
LAYER_2
 10
6.5217
 20
214.9886
 11
6.5217
 21
214.9886
 40
2.5981
 41
0.5
  1
※固定には、シリコンコーキング材等を手洗器とカウンターの接地面に塗布ください。
  0
TEXT
  8
LAYER_2
 10
240.3591
 20
225.8432
 11
240.3591
 21
225.8432
 40
2.0732
 41
0.5
  1
211111RT
  0
TEXT
  8
LAYER_2
 10
176.0254
 20
39.5359
 11
176.0254
 21
39.5359
 40
3.3853
 41
0.5
  1
●TEL 0120-65-1232●FAX 06-6532-1580
  0
TEXT
  8
LAYER_2
 10
176.0254
 20
36.0212
 11
176.0254
 21
36.0212
 40
3.3853
 41
0.5
  1
hits@hiratatile.co.jp
  0
INSERT
  8
LAYER_2
  2
AIGNBL02010006
 10
0
 20
0
 30
0
  0
POLYLINE
  8
LAYER_2
 40
0.4339
 41
0.4339
 66
1
 10
0
 20
0
 30
0
  0
VERTEX
  8
LAYER_2
 10
35.0016
 20
94.9306
  0
VERTEX
  8
LAYER_2
 10
35.0016
 20
91.5771
  0
SEQEND
  0
INSERT
  8
LAYER_2
  2
AIGNBL02010028
 10
0
 20
0
 30
0
  0
POLYLINE
  8
LAYER_2
 40
0.4339
 41
0.4339
 66
1
 10
0
 20
0
 30
0
  0
VERTEX
  8
LAYER_2
 10
34.9236
 20
91.46
  0
VERTEX
  8
LAYER_2
 10
39.6031
 20
91.46
  0
SEQEND
  0
POLYLINE
  8
LAYER_2
 40
0.4339
 41
0.4339
 66
1
 10
0
 20
0
 30
0
  0
VERTEX
  8
LAYER_2
 10
39.525
 20
94.9306
  0
VERTEX
  8
LAYER_2
 10
35.0015
 20
94.9306
  0
VERTEX
  8
LAYER_2
 10
33.8706
 20
95.9055
  0
SEQEND
  0
POLYLINE
  8
LAYER_2
 40
0.4339
 41
0.4339
 66
1
 10
0
 20
0
 30
0
  0
VERTEX
  8
LAYER_2
 10
33.7147
 20
95.9445
  0
VERTEX
  8
LAYER_2
 10
40.812
 20
95.9445
  0
SEQEND
  0
INSERT
  8
LAYER_2
  2
AIGNBL02010029
 10
0
 20
0
 30
0
  0
POLYLINE
  8
LAYER_2
 40
0.4339
 41
0.4339
 66
1
 10
0
 20
0
 30
0
  0
VERTEX
  8
LAYER_2
 10
33.7147
 20
94.1507
  0
VERTEX
  8
LAYER_2
 10
33.7147
 20
91.577
  0
SEQEND
  0
POLYLINE
  8
LAYER_2
 40
0.4339
 41
0.4339
 66
1
 10
0
 20
0
 30
0
  0
VERTEX
  8
LAYER_2
 10
15.0751
 20
106.6291
  0
VERTEX
  8
LAYER_2
 10
18.0779
 20
107.916
  0
SEQEND
  0
POLYLINE
  8
LAYER_2
 40
0.4339
 41
0.4339
 66
1
 10
0
 20
0
 30
0
  0
VERTEX
  8
LAYER_2
 10
16.3229
 20
105.9662
  0
VERTEX
  8
LAYER_2
 10
17.1027
 20
106.2781
  0
SEQEND
  0
INSERT
  8
LAYER_2
  2
AIGNBL0201002C
 10
0
 20
0
 30
0
  0
POLYLINE
  8
LAYER_2
 40
0.4339
 41
0.4339
 66
1
 10
0
 20
0
 30
0
  0
VERTEX
  8
LAYER_2
 10
19.4035
 20
93.4488
  0
VERTEX
  8
LAYER_2
 10
20.3785
 20
93.4488
  0
SEQEND
  0
POLYLINE
  8
LAYER_2
 40
0.4339
 41
0.4339
 66
1
 10
0
 20
0
 30
0
  0
VERTEX
  8
LAYER_2
 10
22.7571
 20
93.4488
  0
VERTEX
  8
LAYER_2
 10
23.303
 20
93.4488
  0
SEQEND
  0
INSERT
  8
LAYER_2
  2
AIGNBL0201002D
 10
0
 20
0
 30
0
  0
POLYLINE
  8
LAYER_2
 40
0.4339
 41
0.4339
 66
1
 10
0
 20
0
 30
0
  0
VERTEX
  8
LAYER_2
 10
22.5621
 20
95.9445
  0
VERTEX
  8
LAYER_2
 10
22.5621
 20
97.8163
  0
SEQEND
  0
POLYLINE
  8
LAYER_2
 40
0.4339
 41
0.4339
 66
1
 10
0
 20
0
 30
0
  0
VERTEX
  8
LAYER_2
 10
23.615
 20
93.7218
  0
VERTEX
  8
LAYER_2
 10
24.2388
 20
96.1783
  0
SEQEND
  0
INSERT
  8
LAYER_2
  2
AIGNBL0201002E
 10
0
 20
0
 30
0
  0
POLYLINE
  8
LAYER_2
 40
0.4339
 41
0.4339
 66
1
 10
0
 20
0
 30
0
  0
VERTEX
  8
LAYER_2
 10
59.4125
 20
106.6291
  0
VERTEX
  8
LAYER_2
 10
56.4097
 20
107.916
  0
SEQEND
  0
INSERT
  8
LAYER_2
  2
AIGNBL0201002F
 10
0
 20
0
 30
0
  0
POLYLINE
  8
LAYER_2
 40
0.4339
 41
0.4339
 66
1
 10
0
 20
0
 30
0
  0
VERTEX
  8
LAYER_2
 10
55.123
 20
93.4488
  0
VERTEX
  8
LAYER_2
 10
54.616
 20
93.4488
  0
SEQEND
  0
POLYLINE
  8
LAYER_2
 40
0.4339
 41
0.4339
 66
1
 10
0
 20
0
 30
0
  0
VERTEX
  8
LAYER_2
 10
18.2727
 20
107.955
  0
VERTEX
  8
LAYER_2
 10
56.2538
 20
107.955
  0
SEQEND
  0
POLYLINE
  8
LAYER_2
 40
0.4339
 41
0.4339
 66
1
 10
0
 20
0
 30
0
  0
VERTEX
  8
LAYER_2
 10
20.3784
 20
93.4488
  0
VERTEX
  8
LAYER_2
 10
22.757
 20
93.4488
  0
SEQEND
  0
POLYLINE
  8
LAYER_2
 40
0.4339
 41
0.4339
 66
1
 10
0
 20
0
 30
0
  0
VERTEX
  8
LAYER_2
 10
23.3031
 20
93.4488
  0
VERTEX
  8
LAYER_2
 10
33.7146
 20
93.4488
  0
SEQEND
  0
POLYLINE
  8
LAYER_2
 40
0.4339
 41
0.4339
 66
1
 10
0
 20
0
 30
0
  0
VERTEX
  8
LAYER_2
 10
33.7927
 20
91.46
  0
VERTEX
  8
LAYER_2
 10
34.9236
 20
91.46
  0
SEQEND
  0
INSERT
  8
LAYER_2
  2
AIGNBL02010030
 10
0
 20
0
 30
0
  0
POLYLINE
  8
LAYER_2
 40
0.1446
 41
0.1446
 66
1
 10
0
 20
0
 30
0
  0
VERTEX
  8
LAYER_2
 10
33.7147
 20
93.4488
  0
VERTEX
  8
LAYER_2
 10
33.7147
 20
91.5769
  0
SEQEND
  0
INSERT
  8
LAYER_2
  2
AIGNBL02010031
 10
0
 20
0
 30
0
  0
POLYLINE
  8
LAYER_2
 66
1
 10
0
 20
0
 30
0
  0
VERTEX
  8
LAYER_2
 10
14.7631
 20
155.295
  0
VERTEX
  8
LAYER_2
 10
14.7631
 20
183.3324
  0
SEQEND
  0
POLYLINE
  8
LAYER_2
 66
1
 10
0
 20
0
 30
0
  0
VERTEX
  8
LAYER_2
 10
59.7634
 20
154.7881
  0
VERTEX
  8
LAYER_2
 10
59.7634
 20
183.3325
  0
SEQEND
  0
POLYLINE
  8
LAYER_2
 66
1
 10
0
 20
0
 30
0
  0
VERTEX
  8
LAYER_2
 10
16.2449
 20
183.2155
  0
VERTEX
  8
LAYER_2
 10
34.3775
 20
183.2155
  0
SEQEND
  0
POLYLINE
  8
LAYER_2
 66
1
 10
0
 20
0
 30
0
  0
VERTEX
  8
LAYER_2
 10
58.2426
 20
183.2155
  0
VERTEX
  8
LAYER_2
 10
40.11
 20
183.2155
  0
SEQEND
  0
POLYLINE
  8
LAYER_2
 40
0.05
 41
0.05
 66
1
 10
0
 20
0
 30
0
 70
1
  0
VERTEX
  8
LAYER_2
 10
16.2449
 20
183.4494
  0
VERTEX
  8
LAYER_2
 10
16.2449
 20
182.9424
  0
VERTEX
  8
LAYER_2
 10
14.7629
 20
183.2155
  0
SEQEND
  0
POLYLINE
  8
LAYER_2
 66
1
 10
0
 20
0
 30
0
 70
1
  0
VERTEX
  8
LAYER_2
 10
16.2449
 20
183.4494
  0
VERTEX
  8
LAYER_2
 10
16.2449
 20
182.9424
  0
VERTEX
  8
LAYER_2
 10
14.7629
 20
183.2155
  0
SEQEND
  0
POLYLINE
  8
LAYER_2
 40
0.05
 41
0.05
 66
1
 10
0
 20
0
 30
0
 70
1
  0
VERTEX
  8
LAYER_2
 10
58.2426
 20
183.4494
  0
VERTEX
  8
LAYER_2
 10
58.2426
 20
182.9424
  0
VERTEX
  8
LAYER_2
 10
59.7634
 20
183.2155
  0
SEQEND
  0
POLYLINE
  8
LAYER_2
 66
1
 10
0
 20
0
 30
0
 70
1
  0
VERTEX
  8
LAYER_2
 10
58.2426
 20
183.4494
  0
VERTEX
  8
LAYER_2
 10
58.2426
 20
182.9424
  0
VERTEX
  8
LAYER_2
 10
59.7634
 20
183.2155
  0
SEQEND
  0
TEXT
  8
LAYER_2
 10
34.4168
 20
181.8957
 11
34.4168
 21
181.8957
 40
2.8433
 41
0.5
  1
450
  0
POLYLINE
  8
LAYER_2
 66
1
 10
0
 20
0
 30
0
  0
VERTEX
  8
LAYER_2
 10
36.9903
 20
177.4832
  0
VERTEX
  8
LAYER_2
 10
8.2899
 20
177.4832
  0
SEQEND
  0
POLYLINE
  8
LAYER_2
 66
1
 10
0
 20
0
 30
0
  0
VERTEX
  8
LAYER_2
 10
37.3803
 20
132.4829
  0
VERTEX
  8
LAYER_2
 10
8.2899
 20
132.4829
  0
SEQEND
  0
POLYLINE
  8
LAYER_2
 66
1
 10
0
 20
0
 30
0
  0
VERTEX
  8
LAYER_2
 10
8.4069
 20
175.9624
  0
VERTEX
  8
LAYER_2
 10
8.4069
 20
157.8298
  0
SEQEND
  0
POLYLINE
  8
LAYER_2
 66
1
 10
0
 20
0
 30
0
  0
VERTEX
  8
LAYER_2
 10
8.4069
 20
133.9647
  0
VERTEX
  8
LAYER_2
 10
8.4069
 20
152.0973
  0
SEQEND
  0
POLYLINE
  8
LAYER_2
 40
0.05
 41
0.05
 66
1
 10
0
 20
0
 30
0
 70
1
  0
VERTEX
  8
LAYER_2
 10
8.173
 20
175.9624
  0
VERTEX
  8
LAYER_2
 10
8.68
 20
175.9624
  0
VERTEX
  8
LAYER_2
 10
8.4069
 20
177.4832
  0
SEQEND
  0
POLYLINE
  8
LAYER_2
 66
1
 10
0
 20
0
 30
0
 70
1
  0
VERTEX
  8
LAYER_2
 10
8.173
 20
175.9624
  0
VERTEX
  8
LAYER_2
 10
8.68
 20
175.9624
  0
VERTEX
  8
LAYER_2
 10
8.4069
 20
177.4832
  0
SEQEND
  0
POLYLINE
  8
LAYER_2
 40
0.05
 41
0.05
 66
1
 10
0
 20
0
 30
0
 70
1
  0
VERTEX
  8
LAYER_2
 10
8.173
 20
133.9647
  0
VERTEX
  8
LAYER_2
 10
8.68
 20
133.9647
  0
VERTEX
  8
LAYER_2
 10
8.4069
 20
132.4827
  0
SEQEND
  0
POLYLINE
  8
LAYER_2
 66
1
 10
0
 20
0
 30
0
 70
1
  0
VERTEX
  8
LAYER_2
 10
8.173
 20
133.9647
  0
VERTEX
  8
LAYER_2
 10
8.68
 20
133.9647
  0
VERTEX
  8
LAYER_2
 10
8.4069
 20
132.4827
  0
SEQEND
  0
TEXT
  8
LAYER_2
 10
9.7272
 20
152.1361
 11
9.7272
 21
152.1361
 40
2.8433
 41
0.5
 50
89.99999999
  1
450
  0
POLYLINE
  8
LAYER_2
 66
1
 10
0
 20
0
 30
0
  0
VERTEX
  8
LAYER_2
 10
36.6394
 20
136.4604
  0
VERTEX
  8
LAYER_2
 10
36.6002
 20
136.4604
  0
SEQEND
  0
POLYLINE
  8
LAYER_2
 66
1
 10
0
 20
0
 30
0
  0
VERTEX
  8
LAYER_2
 10
36.6394
 20
132.4829
  0
VERTEX
  8
LAYER_2
 10
36.6002
 20
132.4829
  0
SEQEND
  0
POLYLINE
  8
LAYER_2
 66
1
 10
0
 20
0
 30
0
  0
VERTEX
  8
LAYER_2
 10
36.7173
 20
137.9812
  0
VERTEX
  8
LAYER_2
 10
36.7173
 20
139.4632
  0
SEQEND
  0
POLYLINE
  8
LAYER_2
 66
1
 10
0
 20
0
 30
0
  0
VERTEX
  8
LAYER_2
 10
36.7173
 20
131.001
  0
VERTEX
  8
LAYER_2
 10
36.7173
 20
129.4803
  0
SEQEND
  0
POLYLINE
  8
LAYER_2
 66
1
 10
0
 20
0
 30
0
  0
VERTEX
  8
LAYER_2
 10
36.7173
 20
136.4604
  0
VERTEX
  8
LAYER_2
 10
36.7173
 20
136.3824
  0
SEQEND
  0
POLYLINE
  8
LAYER_2
 66
1
 10
0
 20
0
 30
0
  0
VERTEX
  8
LAYER_2
 10
36.7173
 20
132.4829
  0
VERTEX
  8
LAYER_2
 10
36.7173
 20
132.5608
  0
SEQEND
  0
POLYLINE
  8
LAYER_2
 40
0.05
 41
0.05
 66
1
 10
0
 20
0
 30
0
 70
1
  0
VERTEX
  8
LAYER_2
 10
36.4444
 20
137.9812
  0
VERTEX
  8
LAYER_2
 10
36.9514
 20
137.9812
  0
VERTEX
  8
LAYER_2
 10
36.7175
 20
136.4604
  0
SEQEND
  0
POLYLINE
  8
LAYER_2
 66
1
 10
0
 20
0
 30
0
 70
1
  0
VERTEX
  8
LAYER_2
 10
36.4444
 20
137.9812
  0
VERTEX
  8
LAYER_2
 10
36.9514
 20
137.9812
  0
VERTEX
  8
LAYER_2
 10
36.7175
 20
136.4604
  0
SEQEND
  0
POLYLINE
  8
LAYER_2
 40
0.05
 41
0.05
 66
1
 10
0
 20
0
 30
0
 70
1
  0
VERTEX
  8
LAYER_2
 10
36.4444
 20
131.001
  0
VERTEX
  8
LAYER_2
 10
36.9514
 20
131.001
  0
VERTEX
  8
LAYER_2
 10
36.7175
 20
132.483
  0
SEQEND
  0
POLYLINE
  8
LAYER_2
 66
1
 10
0
 20
0
 30
0
 70
1
  0
VERTEX
  8
LAYER_2
 10
36.4444
 20
131.001
  0
VERTEX
  8
LAYER_2
 10
36.9514
 20
131.001
  0
VERTEX
  8
LAYER_2
 10
36.7175
 20
132.483
  0
SEQEND
  0
TEXT
  8
LAYER_2
 10
37.9987
 20
132.599
 11
37.9987
 21
132.599
 40
2.8433
 41
0.5
 50
89.99999999
  1
40
  0
POLYLINE
  8
LAYER_2
 66
1
 10
0
 20
0
 30
0
  0
VERTEX
  8
LAYER_2
 10
59.7634
 20
154.7491
  0
VERTEX
  8
LAYER_2
 10
59.7634
 20
154.8662
  0
SEQEND
  0
POLYLINE
  8
LAYER_2
 66
1
 10
0
 20
0
 30
0
  0
VERTEX
  8
LAYER_2
 10
55.747
 20
154.7881
  0
VERTEX
  8
LAYER_2
 10
55.747
 20
154.866
  0
SEQEND
  0
POLYLINE
  8
LAYER_2
 66
1
 10
0
 20
0
 30
0
  0
VERTEX
  8
LAYER_2
 10
61.2453
 20
154.7491
  0
VERTEX
  8
LAYER_2
 10
62.7273
 20
154.7491
  0
SEQEND
  0
POLYLINE
  8
LAYER_2
 66
1
 10
0
 20
0
 30
0
  0
VERTEX
  8
LAYER_2
 10
54.2651
 20
154.7491
  0
VERTEX
  8
LAYER_2
 10
52.7443
 20
154.7491
  0
SEQEND
  0
POLYLINE
  8
LAYER_2
 66
1
 10
0
 20
0
 30
0
  0
VERTEX
  8
LAYER_2
 10
59.7634
 20
154.7491
  0
VERTEX
  8
LAYER_2
 10
59.6463
 20
154.7491
  0
SEQEND
  0
POLYLINE
  8
LAYER_2
 66
1
 10
0
 20
0
 30
0
  0
VERTEX
  8
LAYER_2
 10
55.747
 20
154.7491
  0
VERTEX
  8
LAYER_2
 10
55.8641
 20
154.7491
  0
SEQEND
  0
POLYLINE
  8
LAYER_2
 40
0.05
 41
0.05
 66
1
 10
0
 20
0
 30
0
 70
1
  0
VERTEX
  8
LAYER_2
 10
61.2453
 20
154.983
  0
VERTEX
  8
LAYER_2
 10
61.2453
 20
154.476
  0
VERTEX
  8
LAYER_2
 10
59.7633
 20
154.7491
  0
SEQEND
  0
POLYLINE
  8
LAYER_2
 66
1
 10
0
 20
0
 30
0
 70
1
  0
VERTEX
  8
LAYER_2
 10
61.2453
 20
154.983
  0
VERTEX
  8
LAYER_2
 10
61.2453
 20
154.476
  0
VERTEX
  8
LAYER_2
 10
59.7633
 20
154.7491
  0
SEQEND
  0
POLYLINE
  8
LAYER_2
 40
0.05
 41
0.05
 66
1
 10
0
 20
0
 30
0
 70
1
  0
VERTEX
  8
LAYER_2
 10
54.2651
 20
154.983
  0
VERTEX
  8
LAYER_2
 10
54.2651
 20
154.476
  0
VERTEX
  8
LAYER_2
 10
55.7471
 20
154.7491
  0
SEQEND
  0
POLYLINE
  8
LAYER_2
 66
1
 10
0
 20
0
 30
0
 70
1
  0
VERTEX
  8
LAYER_2
 10
54.2651
 20
154.983
  0
VERTEX
  8
LAYER_2
 10
54.2651
 20
154.476
  0
VERTEX
  8
LAYER_2
 10
55.7471
 20
154.7491
  0
SEQEND
  0
TEXT
  8
LAYER_2
 10
56.184
 20
153.4289
 11
56.184
 21
153.4289
 40
2.8433
 41
0.5
  1
40
  0
POLYLINE
  8
LAYER_2
 66
1
 10
0
 20
0
 30
0
  0
VERTEX
  8
LAYER_2
 10
14.7631
 20
108.1889
  0
VERTEX
  8
LAYER_2
 10
14.7631
 20
114.8963
  0
SEQEND
  0
POLYLINE
  8
LAYER_2
 66
1
 10
0
 20
0
 30
0
  0
VERTEX
  8
LAYER_2
 10
59.7634
 20
108.1889
  0
VERTEX
  8
LAYER_2
 10
59.7634
 20
114.8963
  0
SEQEND
  0
POLYLINE
  8
LAYER_2
 66
1
 10
0
 20
0
 30
0
  0
VERTEX
  8
LAYER_2
 10
16.2839
 20
114.7791
  0
VERTEX
  8
LAYER_2
 10
34.3777
 20
114.7791
  0
SEQEND
  0
POLYLINE
  8
LAYER_2
 66
1
 10
0
 20
0
 30
0
  0
VERTEX
  8
LAYER_2
 10
58.2426
 20
114.7791
  0
VERTEX
  8
LAYER_2
 10
40.1488
 20
114.7791
  0
SEQEND
  0
POLYLINE
  8
LAYER_2
 40
0.05
 41
0.05
 66
1
 10
0
 20
0
 30
0
 70
1
  0
VERTEX
  8
LAYER_2
 10
16.2839
 20
115.0521
  0
VERTEX
  8
LAYER_2
 10
16.2839
 20
114.545
  0
VERTEX
  8
LAYER_2
 10
14.7631
 20
114.7789
  0
SEQEND
  0
POLYLINE
  8
LAYER_2
 66
1
 10
0
 20
0
 30
0
 70
1
  0
VERTEX
  8
LAYER_2
 10
16.2839
 20
115.0521
  0
VERTEX
  8
LAYER_2
 10
16.2839
 20
114.545
  0
VERTEX
  8
LAYER_2
 10
14.7631
 20
114.7789
  0
SEQEND
  0
POLYLINE
  8
LAYER_2
 40
0.05
 41
0.05
 66
1
 10
0
 20
0
 30
0
 70
1
  0
VERTEX
  8
LAYER_2
 10
58.2426
 20
115.0521
  0
VERTEX
  8
LAYER_2
 10
58.2426
 20
114.545
  0
VERTEX
  8
LAYER_2
 10
59.7634
 20
114.7789
  0
SEQEND
  0
POLYLINE
  8
LAYER_2
 66
1
 10
0
 20
0
 30
0
 70
1
  0
VERTEX
  8
LAYER_2
 10
58.2426
 20
115.0521
  0
VERTEX
  8
LAYER_2
 10
58.2426
 20
114.545
  0
VERTEX
  8
LAYER_2
 10
59.7634
 20
114.7789
  0
SEQEND
  0
TEXT
  8
LAYER_2
 10
34.4168
 20
113.4597
 11
34.4168
 21
113.4597
 40
2.8433
 41
0.5
  1
450
  0
POLYLINE
  8
LAYER_2
 66
1
 10
0
 20
0
 30
0
  0
VERTEX
  8
LAYER_2
 10
18.7406
 20
154.944
  0
VERTEX
  8
LAYER_2
 10
18.7406
 20
180.0179
  0
SEQEND
  0
POLYLINE
  8
LAYER_2
 66
1
 10
0
 20
0
 30
0
  0
VERTEX
  8
LAYER_2
 10
55.747
 20
155.1
  0
VERTEX
  8
LAYER_2
 10
55.747
 20
180.0179
  0
SEQEND
  0
POLYLINE
  8
LAYER_2
 66
1
 10
0
 20
0
 30
0
  0
VERTEX
  8
LAYER_2
 10
20.2614
 20
179.9009
  0
VERTEX
  8
LAYER_2
 10
34.4167
 20
179.9009
  0
SEQEND
  0
POLYLINE
  8
LAYER_2
 66
1
 10
0
 20
0
 30
0
  0
VERTEX
  8
LAYER_2
 10
54.2651
 20
179.9009
  0
VERTEX
  8
LAYER_2
 10
40.0711
 20
179.9009
  0
SEQEND
  0
POLYLINE
  8
LAYER_2
 40
0.05
 41
0.05
 66
1
 10
0
 20
0
 30
0
 70
1
  0
VERTEX
  8
LAYER_2
 10
20.2614
 20
180.1349
  0
VERTEX
  8
LAYER_2
 10
20.2614
 20
179.6278
  0
VERTEX
  8
LAYER_2
 10
18.7406
 20
179.9009
  0
SEQEND
  0
POLYLINE
  8
LAYER_2
 66
1
 10
0
 20
0
 30
0
 70
1
  0
VERTEX
  8
LAYER_2
 10
20.2614
 20
180.1349
  0
VERTEX
  8
LAYER_2
 10
20.2614
 20
179.6278
  0
VERTEX
  8
LAYER_2
 10
18.7406
 20
179.9009
  0
SEQEND
  0
POLYLINE
  8
LAYER_2
 40
0.05
 41
0.05
 66
1
 10
0
 20
0
 30
0
 70
1
  0
VERTEX
  8
LAYER_2
 10
54.2651
 20
180.1349
  0
VERTEX
  8
LAYER_2
 10
54.2651
 20
179.6278
  0
VERTEX
  8
LAYER_2
 10
55.7471
 20
179.9009
  0
SEQEND
  0
POLYLINE
  8
LAYER_2
 66
1
 10
0
 20
0
 30
0
 70
1
  0
VERTEX
  8
LAYER_2
 10
54.2651
 20
180.1349
  0
VERTEX
  8
LAYER_2
 10
54.2651
 20
179.6278
  0
VERTEX
  8
LAYER_2
 10
55.7471
 20
179.9009
  0
SEQEND
  0
TEXT
  8
LAYER_2
 10
34.3388
 20
178.5808
 11
34.3388
 21
178.5808
 40
2.8433
 41
0.5
  1
370
  0
POLYLINE
  8
LAYER_2
 66
1
 10
0
 20
0
 30
0
  0
VERTEX
  8
LAYER_2
 10
18.7796
 20
107.604
  0
VERTEX
  8
LAYER_2
 10
18.7796
 20
110.7235
  0
SEQEND
  0
POLYLINE
  8
LAYER_2
 66
1
 10
0
 20
0
 30
0
  0
VERTEX
  8
LAYER_2
 10
55.747
 20
107.604
  0
VERTEX
  8
LAYER_2
 10
55.747
 20
110.7235
  0
SEQEND
  0
POLYLINE
  8
LAYER_2
 66
1
 10
0
 20
0
 30
0
  0
VERTEX
  8
LAYER_2
 10
20.2614
 20
110.5677
  0
VERTEX
  8
LAYER_2
 10
34.4555
 20
110.5677
  0
SEQEND
  0
POLYLINE
  8
LAYER_2
 66
1
 10
0
 20
0
 30
0
  0
VERTEX
  8
LAYER_2
 10
54.2651
 20
110.5677
  0
VERTEX
  8
LAYER_2
 10
40.0711
 20
110.5677
  0
SEQEND
  0
POLYLINE
  8
LAYER_2
 40
0.05
 41
0.05
 66
1
 10
0
 20
0
 30
0
 70
1
  0
VERTEX
  8
LAYER_2
 10
20.2614
 20
110.8406
  0
VERTEX
  8
LAYER_2
 10
20.2614
 20
110.3335
  0
VERTEX
  8
LAYER_2
 10
18.7794
 20
110.5675
  0
SEQEND
  0
POLYLINE
  8
LAYER_2
 66
1
 10
0
 20
0
 30
0
 70
1
  0
VERTEX
  8
LAYER_2
 10
20.2614
 20
110.8406
  0
VERTEX
  8
LAYER_2
 10
20.2614
 20
110.3335
  0
VERTEX
  8
LAYER_2
 10
18.7794
 20
110.5675
  0
SEQEND
  0
POLYLINE
  8
LAYER_2
 40
0.05
 41
0.05
 66
1
 10
0
 20
0
 30
0
 70
1
  0
VERTEX
  8
LAYER_2
 10
54.2651
 20
110.8406
  0
VERTEX
  8
LAYER_2
 10
54.2651
 20
110.3335
  0
VERTEX
  8
LAYER_2
 10
55.7471
 20
110.5675
  0
SEQEND
  0
POLYLINE
  8
LAYER_2
 66
1
 10
0
 20
0
 30
0
 70
1
  0
VERTEX
  8
LAYER_2
 10
54.2651
 20
110.8406
  0
VERTEX
  8
LAYER_2
 10
54.2651
 20
110.3335
  0
VERTEX
  8
LAYER_2
 10
55.7471
 20
110.5675
  0
SEQEND
  0
TEXT
  8
LAYER_2
 10
34.3388
 20
109.287
 11
34.3388
 21
109.287
 40
2.8433
 41
0.5
  1
370
  0
INSERT
  8
LAYER_2
  2
AIGNBL02010032
 10
0
 20
0
 30
0
  0
POLYLINE
  8
LAYER_2
 66
1
 10
0
 20
0
 30
0
  0
VERTEX
  8
LAYER_2
 10
39.603
 20
95.9445
  0
VERTEX
  8
LAYER_2
 10
41.7088
 20
95.9445
  0
SEQEND
  0
POLYLINE
  8
LAYER_2
 66
1
 10
0
 20
0
 30
0
  0
VERTEX
  8
LAYER_2
 10
39.603
 20
107.955
  0
VERTEX
  8
LAYER_2
 10
41.7088
 20
107.955
  0
SEQEND
  0
POLYLINE
  8
LAYER_2
 66
1
 10
0
 20
0
 30
0
  0
VERTEX
  8
LAYER_2
 10
41.5918
 20
97.4653
  0
VERTEX
  8
LAYER_2
 10
41.5918
 20
99.2592
  0
SEQEND
  0
POLYLINE
  8
LAYER_2
 66
1
 10
0
 20
0
 30
0
  0
VERTEX
  8
LAYER_2
 10
41.5918
 20
106.4731
  0
VERTEX
  8
LAYER_2
 10
41.5918
 20
104.6792
  0
SEQEND
  0
POLYLINE
  8
LAYER_2
 40
0.05
 41
0.05
 66
1
 10
0
 20
0
 30
0
 70
1
  0
VERTEX
  8
LAYER_2
 10
41.3188
 20
97.4653
  0
VERTEX
  8
LAYER_2
 10
41.8258
 20
97.4653
  0
VERTEX
  8
LAYER_2
 10
41.5919
 20
95.9445
  0
SEQEND
  0
POLYLINE
  8
LAYER_2
 66
1
 10
0
 20
0
 30
0
 70
1
  0
VERTEX
  8
LAYER_2
 10
41.3188
 20
97.4653
  0
VERTEX
  8
LAYER_2
 10
41.8258
 20
97.4653
  0
VERTEX
  8
LAYER_2
 10
41.5919
 20
95.9445
  0
SEQEND
  0
POLYLINE
  8
LAYER_2
 40
0.05
 41
0.05
 66
1
 10
0
 20
0
 30
0
 70
1
  0
VERTEX
  8
LAYER_2
 10
41.3188
 20
106.4731
  0
VERTEX
  8
LAYER_2
 10
41.8258
 20
106.4731
  0
VERTEX
  8
LAYER_2
 10
41.5919
 20
107.9551
  0
SEQEND
  0
POLYLINE
  8
LAYER_2
 66
1
 10
0
 20
0
 30
0
 70
1
  0
VERTEX
  8
LAYER_2
 10
41.3188
 20
106.4731
  0
VERTEX
  8
LAYER_2
 10
41.8258
 20
106.4731
  0
VERTEX
  8
LAYER_2
 10
41.5919
 20
107.9551
  0
SEQEND
  0
TEXT
  8
LAYER_2
 10
42.8728
 20
98.9469
 11
42.8728
 21
98.9469
 40
2.8433
 41
0.5
 50
89.99999999
  1
120
  0
POLYLINE
  8
LAYER_2
 66
1
 10
0
 20
0
 30
0
  0
VERTEX
  8
LAYER_2
 10
19.2866
 20
93.4488
  0
VERTEX
  8
LAYER_2
 10
19.2866
 20
88.2626
  0
SEQEND
  0
POLYLINE
  8
LAYER_2
 66
1
 10
0
 20
0
 30
0
  0
VERTEX
  8
LAYER_2
 10
55.24
 20
93.4488
  0
VERTEX
  8
LAYER_2
 10
55.24
 20
88.2626
  0
SEQEND
  0
POLYLINE
  8
LAYER_2
 66
1
 10
0
 20
0
 30
0
  0
VERTEX
  8
LAYER_2
 10
20.7684
 20
88.3794
  0
VERTEX
  8
LAYER_2
 10
34.4558
 20
88.3794
  0
SEQEND
  0
POLYLINE
  8
LAYER_2
 66
1
 10
0
 20
0
 30
0
  0
VERTEX
  8
LAYER_2
 10
53.7582
 20
88.3794
  0
VERTEX
  8
LAYER_2
 10
40.0708
 20
88.3794
  0
SEQEND
  0
POLYLINE
  8
LAYER_2
 40
0.05
 41
0.05
 66
1
 10
0
 20
0
 30
0
 70
1
  0
VERTEX
  8
LAYER_2
 10
20.7684
 20
88.6134
  0
VERTEX
  8
LAYER_2
 10
20.7684
 20
88.1064
  0
VERTEX
  8
LAYER_2
 10
19.2864
 20
88.3795
  0
SEQEND
  0
POLYLINE
  8
LAYER_2
 66
1
 10
0
 20
0
 30
0
 70
1
  0
VERTEX
  8
LAYER_2
 10
20.7684
 20
88.6134
  0
VERTEX
  8
LAYER_2
 10
20.7684
 20
88.1064
  0
VERTEX
  8
LAYER_2
 10
19.2864
 20
88.3795
  0
SEQEND
  0
POLYLINE
  8
LAYER_2
 40
0.05
 41
0.05
 66
1
 10
0
 20
0
 30
0
 70
1
  0
VERTEX
  8
LAYER_2
 10
53.7582
 20
88.6134
  0
VERTEX
  8
LAYER_2
 10
53.7582
 20
88.1064
  0
VERTEX
  8
LAYER_2
 10
55.2402
 20
88.3795
  0
SEQEND
  0
POLYLINE
  8
LAYER_2
 66
1
 10
0
 20
0
 30
0
 70
1
  0
VERTEX
  8
LAYER_2
 10
53.7582
 20
88.6134
  0
VERTEX
  8
LAYER_2
 10
53.7582
 20
88.1064
  0
VERTEX
  8
LAYER_2
 10
55.2402
 20
88.3795
  0
SEQEND
  0
TEXT
  8
LAYER_2
 10
34.3388
 20
87.0593
 11
34.3388
 21
87.0593
 40
2.8433
 41
0.5
  1
360
  0
POLYLINE
  8
LAYER_2
 66
1
 10
0
 20
0
 30
0
  0
VERTEX
  8
LAYER_2
 10
18.2727
 20
107.955
  0
VERTEX
  8
LAYER_2
 10
8.8749
 20
107.955
  0
SEQEND
  0
POLYLINE
  8
LAYER_2
 66
1
 10
0
 20
0
 30
0
  0
VERTEX
  8
LAYER_2
 10
37.1853
 20
91.46
  0
VERTEX
  8
LAYER_2
 10
8.8747
 20
91.46
  0
SEQEND
  0
POLYLINE
  8
LAYER_2
 66
1
 10
0
 20
0
 30
0
  0
VERTEX
  8
LAYER_2
 10
9.0308
 20
106.4731
  0
VERTEX
  8
LAYER_2
 10
9.0308
 20
102.4175
  0
SEQEND
  0
POLYLINE
  8
LAYER_2
 66
1
 10
0
 20
0
 30
0
  0
VERTEX
  8
LAYER_2
 10
9.0308
 20
92.9419
  0
VERTEX
  8
LAYER_2
 10
9.0308
 20
96.9975
  0
SEQEND
  0
POLYLINE
  8
LAYER_2
 40
0.05
 41
0.05
 66
1
 10
0
 20
0
 30
0
 70
1
  0
VERTEX
  8
LAYER_2
 10
8.7579
 20
106.4731
  0
VERTEX
  8
LAYER_2
 10
9.2649
 20
106.4731
  0
VERTEX
  8
LAYER_2
 10
9.031
 20
107.9551
  0
SEQEND
  0
POLYLINE
  8
LAYER_2
 66
1
 10
0
 20
0
 30
0
 70
1
  0
VERTEX
  8
LAYER_2
 10
8.7579
 20
106.4731
  0
VERTEX
  8
LAYER_2
 10
9.2649
 20
106.4731
  0
VERTEX
  8
LAYER_2
 10
9.031
 20
107.9551
  0
SEQEND
  0
POLYLINE
  8
LAYER_2
 40
0.05
 41
0.05
 66
1
 10
0
 20
0
 30
0
 70
1
  0
VERTEX
  8
LAYER_2
 10
8.7579
 20
92.9419
  0
VERTEX
  8
LAYER_2
 10
9.2649
 20
92.9419
  0
VERTEX
  8
LAYER_2
 10
9.031
 20
91.4599
  0
SEQEND
  0
POLYLINE
  8
LAYER_2
 66
1
 10
0
 20
0
 30
0
 70
1
  0
VERTEX
  8
LAYER_2
 10
8.7579
 20
92.9419
  0
VERTEX
  8
LAYER_2
 10
9.2649
 20
92.9419
  0
VERTEX
  8
LAYER_2
 10
9.031
 20
91.4599
  0
SEQEND
  0
TEXT
  8
LAYER_2
 10
10.3117
 20
96.6852
 11
10.3117
 21
96.6852
 40
2.8433
 41
0.5
 50
89.99999999
  1
165
  0
POLYLINE
  8
LAYER_2
 66
1
 10
0
 20
0
 30
0
  0
VERTEX
  8
LAYER_2
 10
54.6551
 20
93.4488
  0
VERTEX
  8
LAYER_2
 10
61.7523
 20
93.4488
  0
SEQEND
  0
POLYLINE
  8
LAYER_2
 66
1
 10
0
 20
0
 30
0
  0
VERTEX
  8
LAYER_2
 10
56.4879
 20
107.916
  0
VERTEX
  8
LAYER_2
 10
61.752
 20
107.916
  0
SEQEND
  0
POLYLINE
  8
LAYER_2
 66
1
 10
0
 20
0
 30
0
  0
VERTEX
  8
LAYER_2
 10
61.6352
 20
94.9696
  0
VERTEX
  8
LAYER_2
 10
61.6352
 20
97.9724
  0
SEQEND
  0
POLYLINE
  8
LAYER_2
 66
1
 10
0
 20
0
 30
0
  0
VERTEX
  8
LAYER_2
 10
61.6352
 20
106.4342
  0
VERTEX
  8
LAYER_2
 10
61.6352
 20
103.3926
  0
SEQEND
  0
POLYLINE
  8
LAYER_2
 40
0.05
 41
0.05
 66
1
 10
0
 20
0
 30
0
 70
1
  0
VERTEX
  8
LAYER_2
 10
61.4012
 20
94.9696
  0
VERTEX
  8
LAYER_2
 10
61.9083
 20
94.9696
  0
VERTEX
  8
LAYER_2
 10
61.6352
 20
93.4488
  0
SEQEND
  0
POLYLINE
  8
LAYER_2
 66
1
 10
0
 20
0
 30
0
 70
1
  0
VERTEX
  8
LAYER_2
 10
61.4012
 20
94.9696
  0
VERTEX
  8
LAYER_2
 10
61.9083
 20
94.9696
  0
VERTEX
  8
LAYER_2
 10
61.6352
 20
93.4488
  0
SEQEND
  0
POLYLINE
  8
LAYER_2
 40
0.05
 41
0.05
 66
1
 10
0
 20
0
 30
0
 70
1
  0
VERTEX
  8
LAYER_2
 10
61.4012
 20
106.4342
  0
VERTEX
  8
LAYER_2
 10
61.9083
 20
106.4342
  0
VERTEX
  8
LAYER_2
 10
61.6352
 20
107.9161
  0
SEQEND
  0
POLYLINE
  8
LAYER_2
 66
1
 10
0
 20
0
 30
0
 70
1
  0
VERTEX
  8
LAYER_2
 10
61.4012
 20
106.4342
  0
VERTEX
  8
LAYER_2
 10
61.9083
 20
106.4342
  0
VERTEX
  8
LAYER_2
 10
61.6352
 20
107.9161
  0
SEQEND
  0
TEXT
  8
LAYER_2
 10
62.9553
 20
97.6598
 11
62.9553
 21
97.6598
 40
2.8433
 41
0.5
 50
89.99999999
  1
145
  0
POLYLINE
  8
LAYER_2
 66
1
 10
0
 20
0
 30
0
  0
VERTEX
  8
LAYER_2
 10
55.162
 20
93.4488
  0
VERTEX
  8
LAYER_2
 10
61.7914
 20
93.4488
  0
SEQEND
  0
POLYLINE
  8
LAYER_2
 66
1
 10
0
 20
0
 30
0
  0
VERTEX
  8
LAYER_2
 10
55.318
 20
91.46
  0
VERTEX
  8
LAYER_2
 10
61.791
 20
91.46
  0
SEQEND
  0
POLYLINE
  8
LAYER_2
 66
1
 10
0
 20
0
 30
0
  0
VERTEX
  8
LAYER_2
 10
61.6742
 20
94.9696
  0
VERTEX
  8
LAYER_2
 10
61.6742
 20
96.4516
  0
SEQEND
  0
POLYLINE
  8
LAYER_2
 66
1
 10
0
 20
0
 30
0
  0
VERTEX
  8
LAYER_2
 10
61.6742
 20
89.9782
  0
VERTEX
  8
LAYER_2
 10
61.6742
 20
88.4575
  0
SEQEND
  0
POLYLINE
  8
LAYER_2
 66
1
 10
0
 20
0
 30
0
  0
VERTEX
  8
LAYER_2
 10
61.6742
 20
93.4488
  0
VERTEX
  8
LAYER_2
 10
61.6742
 20
91.4601
  0
SEQEND
  0
POLYLINE
  8
LAYER_2
 40
0.05
 41
0.05
 66
1
 10
0
 20
0
 30
0
 70
1
  0
VERTEX
  8
LAYER_2
 10
61.4012
 20
94.9696
  0
VERTEX
  8
LAYER_2
 10
61.9083
 20
94.9696
  0
VERTEX
  8
LAYER_2
 10
61.6743
 20
93.4488
  0
SEQEND
  0
POLYLINE
  8
LAYER_2
 66
1
 10
0
 20
0
 30
0
 70
1
  0
VERTEX
  8
LAYER_2
 10
61.4012
 20
94.9696
  0
VERTEX
  8
LAYER_2
 10
61.9083
 20
94.9696
  0
VERTEX
  8
LAYER_2
 10
61.6743
 20
93.4488
  0
SEQEND
  0
POLYLINE
  8
LAYER_2
 40
0.05
 41
0.05
 66
1
 10
0
 20
0
 30
0
 70
1
  0
VERTEX
  8
LAYER_2
 10
61.4012
 20
89.9782
  0
VERTEX
  8
LAYER_2
 10
61.9083
 20
89.9782
  0
VERTEX
  8
LAYER_2
 10
61.6743
 20
91.4602
  0
SEQEND
  0
POLYLINE
  8
LAYER_2
 66
1
 10
0
 20
0
 30
0
 70
1
  0
VERTEX
  8
LAYER_2
 10
61.4012
 20
89.9782
  0
VERTEX
  8
LAYER_2
 10
61.9083
 20
89.9782
  0
VERTEX
  8
LAYER_2
 10
61.6743
 20
91.4602
  0
SEQEND
  0
TEXT
  8
LAYER_2
 10
62.9555
 20
84.6746
 11
62.9555
 21
84.6746
 40
2.8433
 41
0.5
 50
89.99999999
  1
20
  0
POLYLINE
  8
LAYER_2
 66
1
 10
0
 20
0
 30
0
  0
VERTEX
  8
LAYER_2
 10
18.1947
 20
107.955
  0
VERTEX
  8
LAYER_2
 10
12.6574
 20
107.955
  0
SEQEND
  0
POLYLINE
  8
LAYER_2
 66
1
 10
0
 20
0
 30
0
  0
VERTEX
  8
LAYER_2
 10
18.1167
 20
106.4342
  0
VERTEX
  8
LAYER_2
 10
12.6574
 20
106.4342
  0
SEQEND
  0
POLYLINE
  8
LAYER_2
 66
1
 10
0
 20
0
 30
0
  0
VERTEX
  8
LAYER_2
 10
12.7744
 20
109.4758
  0
VERTEX
  8
LAYER_2
 10
12.7744
 20
110.9577
  0
SEQEND
  0
POLYLINE
  8
LAYER_2
 66
1
 10
0
 20
0
 30
0
  0
VERTEX
  8
LAYER_2
 10
12.7744
 20
104.9523
  0
VERTEX
  8
LAYER_2
 10
12.7744
 20
103.4315
  0
SEQEND
  0
POLYLINE
  8
LAYER_2
 66
1
 10
0
 20
0
 30
0
  0
VERTEX
  8
LAYER_2
 10
12.7744
 20
107.955
  0
VERTEX
  8
LAYER_2
 10
12.7744
 20
106.4342
  0
SEQEND
  0
POLYLINE
  8
LAYER_2
 40
0.05
 41
0.05
 66
1
 10
0
 20
0
 30
0
 70
1
  0
VERTEX
  8
LAYER_2
 10
12.5014
 20
109.4758
  0
VERTEX
  8
LAYER_2
 10
13.0085
 20
109.4758
  0
VERTEX
  8
LAYER_2
 10
12.7745
 20
107.955
  0
SEQEND
  0
POLYLINE
  8
LAYER_2
 66
1
 10
0
 20
0
 30
0
 70
1
  0
VERTEX
  8
LAYER_2
 10
12.5014
 20
109.4758
  0
VERTEX
  8
LAYER_2
 10
13.0085
 20
109.4758
  0
VERTEX
  8
LAYER_2
 10
12.7745
 20
107.955
  0
SEQEND
  0
POLYLINE
  8
LAYER_2
 40
0.05
 41
0.05
 66
1
 10
0
 20
0
 30
0
 70
1
  0
VERTEX
  8
LAYER_2
 10
12.5014
 20
104.9523
  0
VERTEX
  8
LAYER_2
 10
13.0085
 20
104.9523
  0
VERTEX
  8
LAYER_2
 10
12.7745
 20
106.4343
  0
SEQEND
  0
POLYLINE
  8
LAYER_2
 66
1
 10
0
 20
0
 30
0
 70
1
  0
VERTEX
  8
LAYER_2
 10
12.5014
 20
104.9523
  0
VERTEX
  8
LAYER_2
 10
13.0085
 20
104.9523
  0
VERTEX
  8
LAYER_2
 10
12.7745
 20
106.4343
  0
SEQEND
  0
TEXT
  8
LAYER_2
 10
12.0549
 20
104.9693
 11
12.0549
 21
104.9693
 40
2.8433
 41
0.5
 50
89.99999999
  1
15
  0
POLYLINE
  8
LAYER_2
 66
1
 10
0
 20
0
 30
0
  0
VERTEX
  8
LAYER_2
 10
19.2086
 20
93.4878
  0
VERTEX
  8
LAYER_2
 10
12.6576
 20
93.4878
  0
SEQEND
  0
POLYLINE
  8
LAYER_2
 66
1
 10
0
 20
0
 30
0
  0
VERTEX
  8
LAYER_2
 10
12.8134
 20
106.4342
  0
VERTEX
  8
LAYER_2
 10
12.8913
 20
106.4342
  0
SEQEND
  0
POLYLINE
  8
LAYER_2
 66
1
 10
0
 20
0
 30
0
  0
VERTEX
  8
LAYER_2
 10
12.7744
 20
95.0086
  0
VERTEX
  8
LAYER_2
 10
12.7744
 20
97.2704
  0
SEQEND
  0
POLYLINE
  8
LAYER_2
 66
1
 10
0
 20
0
 30
0
  0
VERTEX
  8
LAYER_2
 10
12.7744
 20
104.9523
  0
VERTEX
  8
LAYER_2
 10
12.7744
 20
102.6518
  0
SEQEND
  0
POLYLINE
  8
LAYER_2
 40
0.05
 41
0.05
 66
1
 10
0
 20
0
 30
0
 70
1
  0
VERTEX
  8
LAYER_2
 10
12.5014
 20
95.0086
  0
VERTEX
  8
LAYER_2
 10
13.0085
 20
95.0086
  0
VERTEX
  8
LAYER_2
 10
12.7745
 20
93.4878
  0
SEQEND
  0
POLYLINE
  8
LAYER_2
 66
1
 10
0
 20
0
 30
0
 70
1
  0
VERTEX
  8
LAYER_2
 10
12.5014
 20
95.0086
  0
VERTEX
  8
LAYER_2
 10
13.0085
 20
95.0086
  0
VERTEX
  8
LAYER_2
 10
12.7745
 20
93.4878
  0
SEQEND
  0
POLYLINE
  8
LAYER_2
 40
0.05
 41
0.05
 66
1
 10
0
 20
0
 30
0
 70
1
  0
VERTEX
  8
LAYER_2
 10
12.5014
 20
104.9523
  0
VERTEX
  8
LAYER_2
 10
13.0085
 20
104.9523
  0
VERTEX
  8
LAYER_2
 10
12.7745
 20
106.4343
  0
SEQEND
  0
POLYLINE
  8
LAYER_2
 66
1
 10
0
 20
0
 30
0
 70
1
  0
VERTEX
  8
LAYER_2
 10
12.5014
 20
104.9523
  0
VERTEX
  8
LAYER_2
 10
13.0085
 20
104.9523
  0
VERTEX
  8
LAYER_2
 10
12.7745
 20
106.4343
  0
SEQEND
  0
TEXT
  8
LAYER_2
 10
14.0553
 20
96.9584
 11
14.0553
 21
96.9584
 40
2.8433
 41
0.5
 50
89.99999999
  1
130
  0
INSERT
  8
LAYER_2
  2
AIGNBL02010033
 10
0
 20
0
 30
0
  0
POLYLINE
  8
LAYER_2
 40
0.1446
 41
0.1446
 66
1
 10
0
 20
0
 30
0
  0
VERTEX
  8
LAYER_2
 10
106.7135
 20
136.6164
  0
VERTEX
  8
LAYER_2
 10
106.7135
 20
134.7057
  0
SEQEND
  0
POLYLINE
  8
LAYER_2
 40
0.1446
 41
0.1446
 66
1
 10
0
 20
0
 30
0
  0
VERTEX
  8
LAYER_2
 10
88.0739
 20
149.7967
  0
VERTEX
  8
LAYER_2
 10
90.9987
 20
151.0443
  0
SEQEND
  0
INSERT
  8
LAYER_2
  2
AIGNBL02010034
 10
0
 20
0
 30
0
  0
POLYLINE
  8
LAYER_2
 40
0.1446
 41
0.1446
 66
1
 10
0
 20
0
 30
0
  0
VERTEX
  8
LAYER_2
 10
92.4023
 20
136.6164
  0
VERTEX
  8
LAYER_2
 10
110.2622
 20
136.6164
  0
SEQEND
  0
POLYLINE
  8
LAYER_2
 40
0.1446
 41
0.1446
 66
1
 10
0
 20
0
 30
0
  0
VERTEX
  8
LAYER_2
 10
91.3105
 20
151.1225
  0
VERTEX
  8
LAYER_2
 10
129.1748
 20
151.1225
  0
SEQEND
  0
POLYLINE
  8
LAYER_2
 40
0.1446
 41
0.1446
 66
1
 10
0
 20
0
 30
0
  0
VERTEX
  8
LAYER_2
 10
106.7915
 20
134.6276
  0
VERTEX
  8
LAYER_2
 10
110.223
 20
134.6276
  0
SEQEND
  0
INSERT
  8
LAYER_2
  2
AIGNBL02010035
 10
0
 20
0
 30
0
  0
POLYLINE
  8
LAYER_2
 40
0.1446
 41
0.1446
 66
1
 10
0
 20
0
 30
0
  0
VERTEX
  8
LAYER_2
 10
132.4113
 20
149.7967
  0
VERTEX
  8
LAYER_2
 10
129.4865
 20
151.0443
  0
SEQEND
  0
INSERT
  8
LAYER_2
  2
AIGNBL02010036
 10
0
 20
0
 30
0
  0
POLYLINE
  8
LAYER_2
 40
0.1446
 41
0.1446
 66
1
 10
0
 20
0
 30
0
  0
VERTEX
  8
LAYER_2
 10
113.8106
 20
136.6164
  0
VERTEX
  8
LAYER_2
 10
113.8106
 20
134.7057
  0
SEQEND
  0
INSERT
  8
LAYER_2
  2
AIGNBL02010037
 10
0
 20
0
 30
0
  0
POLYLINE
  8
LAYER_2
 40
0.1446
 41
0.1446
 66
1
 10
0
 20
0
 30
0
  0
VERTEX
  8
LAYER_2
 10
128.1218
 20
136.6164
  0
VERTEX
  8
LAYER_2
 10
110.2619
 20
136.6164
  0
SEQEND
  0
POLYLINE
  8
LAYER_2
 40
0.1446
 41
0.1446
 66
1
 10
0
 20
0
 30
0
  0
VERTEX
  8
LAYER_2
 10
113.6936
 20
134.6276
  0
VERTEX
  8
LAYER_2
 10
110.223
 20
134.6276
  0
SEQEND
  0
POLYLINE
  8
LAYER_2
 40
0.4339
 41
0.4339
 66
1
 10
0
 20
0
 30
0
  0
VERTEX
  8
LAYER_2
 10
54.6161
 20
93.4488
  0
VERTEX
  8
LAYER_2
 10
48.8837
 20
93.4488
  0
SEQEND
  0
POLYLINE
  8
LAYER_2
 40
0.6844
 41
0.6844
 66
1
 10
0
 20
0
 30
0
  0
VERTEX
  8
LAYER_2
 10
63.663
 20
93.4488
  0
VERTEX
  8
LAYER_2
 10
9.0309
 20
93.4488
  0
SEQEND
  0
POLYLINE
  8
LAYER_2
 40
0.6844
 41
0.6844
 66
1
 10
0
 20
0
 30
0
  0
VERTEX
  8
LAYER_2
 10
137.5586
 20
136.6164
  0
VERTEX
  8
LAYER_2
 10
82.9265
 20
136.6164
  0
SEQEND
  0
POLYLINE
  8
LAYER_2
 40
0.6844
 41
0.6844
 66
1
 10
0
 20
0
 30
0
  0
VERTEX
  8
LAYER_2
 10
137.5586
 20
93.4488
  0
VERTEX
  8
LAYER_2
 10
80.7819
 20
93.4488
  0
SEQEND
  0
POLYLINE
  8
LAYER_2
 40
0.1446
 41
0.1446
 66
1
 10
0
 20
0
 30
0
  0
VERTEX
  8
LAYER_2
 10
204.7452
 20
159.9492
  0
VERTEX
  8
LAYER_2
 10
223.8139
 20
164.1608
  0
VERTEX
  8
LAYER_2
 10
238.008
 20
164.1608
  0
SEQEND
  0
TEXT
  8
LAYER_2
 10
224.0871
 20
166.6167
 11
224.0871
 21
166.6167
 40
2.4941
 41
0.5
  1
カウンター開口
  0
TEXT
  8
LAYER_2
 10
175.2409
 20
191.9444
 11
175.2409
 21
191.9444
 40
3.258
 41
0.5
  1
カウンター開口寸法：100×160mm
  0
POLYLINE
  8
LAYER_2
 40
0.05
 41
0.05
 66
1
 10
0
 20
0
 30
0
  0
VERTEX
  8
LAYER_2
 10
204.8622
 20
159.7542
  0
VERTEX
  8
LAYER_2
 10
204.2384
 20
159.637
  0
VERTEX
  8
LAYER_2
 10
204.6283
 20
160.1441
  0
VERTEX
  8
LAYER_2
 10
204.8622
 20
159.7542
  0
SEQEND
  0
POLYLINE
  8
LAYER_2
 40
0.1446
 41
0.1446
 66
1
 10
0
 20
0
 30
0
  0
VERTEX
  8
LAYER_2
 10
208.5709
 20
138.8385
  0
VERTEX
  8
LAYER_2
 10
215.3562
 20
133.184
  0
VERTEX
  8
LAYER_2
 10
231.149
 20
133.184
  0
SEQEND
  0
POLYLINE
  8
LAYER_2
 40
0.05
 41
0.05
 66
1
 10
0
 20
0
 30
0
  0
VERTEX
  8
LAYER_2
 10
208.7269
 20
138.9944
  0
VERTEX
  8
LAYER_2
 10
208.1418
 20
139.1896
  0
VERTEX
  8
LAYER_2
 10
208.4537
 20
138.6825
  0
VERTEX
  8
LAYER_2
 10
208.7269
 20
138.9944
  0
SEQEND
  0
TEXT
  8
LAYER_2
 10
215.3171
 20
129.9083
 11
215.3171
 21
129.9083
 40
2.4941
 41
0.5
  1
洗面器ベース
  0
POLYLINE
  8
LAYER_2
 66
1
 10
0
 20
0
 30
0
  0
VERTEX
  8
LAYER_2
 10
37.1853
 20
173.4667
  0
VERTEX
  8
LAYER_2
 10
12.5793
 20
173.4667
  0
SEQEND
  0
POLYLINE
  8
LAYER_2
 66
1
 10
0
 20
0
 30
0
  0
VERTEX
  8
LAYER_2
 10
36.6394
 20
136.4604
  0
VERTEX
  8
LAYER_2
 10
12.5792
 20
136.4604
  0
SEQEND
  0
POLYLINE
  8
LAYER_2
 66
1
 10
0
 20
0
 30
0
  0
VERTEX
  8
LAYER_2
 10
12.6964
 20
171.9459
  0
VERTEX
  8
LAYER_2
 10
12.6964
 20
157.7906
  0
SEQEND
  0
POLYLINE
  8
LAYER_2
 66
1
 10
0
 20
0
 30
0
  0
VERTEX
  8
LAYER_2
 10
12.6964
 20
137.9812
  0
VERTEX
  8
LAYER_2
 10
12.6964
 20
152.1365
  0
SEQEND
  0
POLYLINE
  8
LAYER_2
 40
0.05
 41
0.05
 66
1
 10
0
 20
0
 30
0
 70
1
  0
VERTEX
  8
LAYER_2
 10
12.4624
 20
171.9459
  0
VERTEX
  8
LAYER_2
 10
12.9695
 20
171.9459
  0
VERTEX
  8
LAYER_2
 10
12.6964
 20
173.4667
  0
SEQEND
  0
POLYLINE
  8
LAYER_2
 66
1
 10
0
 20
0
 30
0
 70
1
  0
VERTEX
  8
LAYER_2
 10
12.4624
 20
171.9459
  0
VERTEX
  8
LAYER_2
 10
12.9695
 20
171.9459
  0
VERTEX
  8
LAYER_2
 10
12.6964
 20
173.4667
  0
SEQEND
  0
POLYLINE
  8
LAYER_2
 40
0.05
 41
0.05
 66
1
 10
0
 20
0
 30
0
 70
1
  0
VERTEX
  8
LAYER_2
 10
12.4624
 20
137.9812
  0
VERTEX
  8
LAYER_2
 10
12.9695
 20
137.9812
  0
VERTEX
  8
LAYER_2
 10
12.6964
 20
136.4604
  0
SEQEND
  0
POLYLINE
  8
LAYER_2
 66
1
 10
0
 20
0
 30
0
 70
1
  0
VERTEX
  8
LAYER_2
 10
12.4624
 20
137.9812
  0
VERTEX
  8
LAYER_2
 10
12.9695
 20
137.9812
  0
VERTEX
  8
LAYER_2
 10
12.6964
 20
136.4604
  0
SEQEND
  0
TEXT
  8
LAYER_2
 10
14.0164
 20
152.0589
 11
14.0164
 21
152.0589
 40
2.8433
 41
0.5
 50
89.99999999
  1
370
  0
POLYLINE
  8
LAYER_2
 40
0.1446
 41
0.1446
 66
1
 10
0
 20
0
 30
0
  0
VERTEX
  8
LAYER_2
 10
35.5475
 20
156.5428
  0
SEQEND
  0
INSERT
  8
LAYER_2
  2
AIGNBL02010038
 10
0
 20
0
 30
0
  0
INSERT
  8
LAYER_2
  2
AIGNBL02010039
 10
0
 20
0
 30
0
  0
POLYLINE
  8
LAYER_2
 66
1
 10
0
 20
0
 30
0
  0
VERTEX
  8
LAYER_2
 10
42.0987
 20
152.7993
  0
VERTEX
  8
LAYER_2
 10
40.7338
 20
153.4231
  0
SEQEND
  0
POLYLINE
  8
LAYER_2
 66
1
 10
0
 20
0
 30
0
  0
VERTEX
  8
LAYER_2
 10
33.7927
 20
156.5039
  0
VERTEX
  8
LAYER_2
 10
32.4279
 20
157.1277
  0
SEQEND
  0
TEXT
  8
LAYER_2
 10
41.4998
 20
151.6423
 11
41.4998
 21
151.6423
 40
2.8433
 41
0.5
 50
336.0060957
  1
45
  0
POLYLINE
  8
LAYER_2
 66
1
 10
0
 20
0
 30
0
  0
VERTEX
  8
LAYER_2
 10
35.1575
 20
155.8799
  0
VERTEX
  8
LAYER_2
 10
39.3692
 20
154.008
  0
SEQEND
  0
POLYLINE
  8
LAYER_2
 40
0.05
 41
0.05
 66
1
 10
0
 20
0
 30
0
 70
1
  0
VERTEX
  8
LAYER_2
 10
33.8707
 20
156.7378
  0
VERTEX
  8
LAYER_2
 10
33.6756
 20
156.2699
  0
VERTEX
  8
LAYER_2
 10
35.1575
 20
155.88
  0
SEQEND
  0
POLYLINE
  8
LAYER_2
 66
1
 10
0
 20
0
 30
0
 70
1
  0
VERTEX
  8
LAYER_2
 10
33.8707
 20
156.7378
  0
VERTEX
  8
LAYER_2
 10
33.6756
 20
156.2699
  0
VERTEX
  8
LAYER_2
 10
35.1575
 20
155.88
  0
SEQEND
  0
POLYLINE
  8
LAYER_2
 40
0.05
 41
0.05
 66
1
 10
0
 20
0
 30
0
 70
1
  0
VERTEX
  8
LAYER_2
 10
40.8118
 20
153.6182
  0
VERTEX
  8
LAYER_2
 10
40.6167
 20
153.1891
  0
VERTEX
  8
LAYER_2
 10
39.369
 20
154.0081
  0
SEQEND
  0
POLYLINE
  8
LAYER_2
 66
1
 10
0
 20
0
 30
0
 70
1
  0
VERTEX
  8
LAYER_2
 10
40.8118
 20
153.6182
  0
VERTEX
  8
LAYER_2
 10
40.6167
 20
153.1891
  0
VERTEX
  8
LAYER_2
 10
39.369
 20
154.0081
  0
SEQEND
  0
POLYLINE
  8
LAYER_2
 40
0.0353
 41
0.0353
 62
252
 66
1
 10
0
 20
0
 30
0
  0
VERTEX
  8
LAYER_2
 10
108.0004
 20
94.9306
  0
VERTEX
  8
LAYER_2
 10
108.0004
 20
94.3848
  0
SEQEND
  0
POLYLINE
  8
LAYER_2
 40
0.0353
 41
0.0353
 62
252
 66
1
 10
0
 20
0
 30
0
  0
VERTEX
  8
LAYER_2
 10
108.0004
 20
94.0337
  0
VERTEX
  8
LAYER_2
 10
108.0004
 20
93.4099
  0
SEQEND
  0
POLYLINE
  8
LAYER_2
 40
0.0353
 41
0.0353
 62
252
 66
1
 10
0
 20
0
 30
0
  0
VERTEX
  8
LAYER_2
 10
108.0004
 20
93.0979
  0
VERTEX
  8
LAYER_2
 10
108.0004
 20
92.474
  0
SEQEND
  0
POLYLINE
  8
LAYER_2
 40
0.0353
 41
0.0353
 62
252
 66
1
 10
0
 20
0
 30
0
  0
VERTEX
  8
LAYER_2
 10
108.0004
 20
92.1619
  0
VERTEX
  8
LAYER_2
 10
108.0004
 20
91.5769
  0
SEQEND
  0
POLYLINE
  8
LAYER_2
 40
0.0353
 41
0.0353
 62
252
 66
1
 10
0
 20
0
 30
0
  0
VERTEX
  8
LAYER_2
 10
112.5238
 20
92.4739
  0
VERTEX
  8
LAYER_2
 10
112.5238
 20
91.577
  0
SEQEND
  0
POLYLINE
  8
LAYER_2
 40
0.0353
 41
0.0353
 62
252
 66
1
 10
0
 20
0
 30
0
  0
VERTEX
  8
LAYER_2
 10
113.8106
 20
95.9445
  0
VERTEX
  8
LAYER_2
 10
113.7715
 20
95.9445
  0
VERTEX
  8
LAYER_2
 10
113.7327
 20
95.9445
  0
VERTEX
  8
LAYER_2
 10
113.6935
 20
95.9445
  0
VERTEX
  8
LAYER_2
 10
113.6547
 20
95.9053
  0
SEQEND
  0
POLYLINE
  8
LAYER_2
 40
0.0353
 41
0.0353
 62
252
 66
1
 10
0
 20
0
 30
0
  0
VERTEX
  8
LAYER_2
 10
112.5238
 20
91.577
  0
VERTEX
  8
LAYER_2
 10
112.5238
 20
91.5378
  0
VERTEX
  8
LAYER_2
 10
112.5238
 20
91.4991
  0
VERTEX
  8
LAYER_2
 10
112.563
 20
91.4599
  0
VERTEX
  8
LAYER_2
 10
112.6018
 20
91.4599
  0
SEQEND
  0
POLYLINE
  8
LAYER_2
 40
0.0353
 41
0.0353
 62
252
 66
1
 10
0
 20
0
 30
0
  0
VERTEX
  8
LAYER_2
 10
106.8695
 20
95.9055
  0
VERTEX
  8
LAYER_2
 10
106.8303
 20
95.9446
  0
VERTEX
  8
LAYER_2
 10
106.7915
 20
95.9446
  0
VERTEX
  8
LAYER_2
 10
106.7523
 20
95.9446
  0
VERTEX
  8
LAYER_2
 10
106.7135
 20
95.9446
  0
SEQEND
  0
INSERT
  8
LAYER_2
  2
AIGNBL0201003A
 10
0
 20
0
 30
0
  0
POLYLINE
  8
LAYER_2
 40
0.0353
 41
0.0353
 62
252
 66
1
 10
0
 20
0
 30
0
  0
VERTEX
  8
LAYER_2
 10
107.9224
 20
91.46
  0
VERTEX
  8
LAYER_2
 10
107.9615
 20
91.46
  0
VERTEX
  8
LAYER_2
 10
107.9615
 20
91.4992
  0
VERTEX
  8
LAYER_2
 10
108.0003
 20
91.4992
  0
VERTEX
  8
LAYER_2
 10
108.0003
 20
91.538
  0
VERTEX
  8
LAYER_2
 10
108.0003
 20
91.5772
  0
SEQEND
  0
POLYLINE
  8
LAYER_2
 40
0.0353
 41
0.0353
 62
252
 66
1
 10
0
 20
0
 30
0
  0
VERTEX
  8
LAYER_2
 10
112.5238
 20
94.9306
  0
VERTEX
  8
LAYER_2
 10
111.8608
 20
94.9306
  0
SEQEND
  0
POLYLINE
  8
LAYER_2
 40
0.0353
 41
0.0353
 62
252
 66
1
 10
0
 20
0
 30
0
  0
VERTEX
  8
LAYER_2
 10
111.5099
 20
94.9306
  0
VERTEX
  8
LAYER_2
 10
110.8861
 20
94.9306
  0
SEQEND
  0
POLYLINE
  8
LAYER_2
 40
0.0353
 41
0.0353
 62
252
 66
1
 10
0
 20
0
 30
0
  0
VERTEX
  8
LAYER_2
 10
110.574
 20
94.9306
  0
VERTEX
  8
LAYER_2
 10
109.9502
 20
94.9306
  0
SEQEND
  0
POLYLINE
  8
LAYER_2
 40
0.0353
 41
0.0353
 62
252
 66
1
 10
0
 20
0
 30
0
  0
VERTEX
  8
LAYER_2
 10
109.6382
 20
94.9306
  0
VERTEX
  8
LAYER_2
 10
108.9751
 20
94.9306
  0
SEQEND
  0
POLYLINE
  8
LAYER_2
 40
0.0353
 41
0.0353
 62
252
 66
1
 10
0
 20
0
 30
0
  0
VERTEX
  8
LAYER_2
 10
108.6633
 20
94.9306
  0
VERTEX
  8
LAYER_2
 10
108.0002
 20
94.9306
  0
SEQEND
  0
POLYLINE
  8
LAYER_2
 40
0.0353
 41
0.0353
 62
252
 66
1
 10
0
 20
0
 30
0
  0
VERTEX
  8
LAYER_2
 10
112.5238
 20
94.9306
  0
VERTEX
  8
LAYER_2
 10
112.9529
 20
95.3205
  0
SEQEND
  0
POLYLINE
  8
LAYER_2
 40
0.0353
 41
0.0353
 62
252
 66
1
 10
0
 20
0
 30
0
  0
VERTEX
  8
LAYER_2
 10
113.1867
 20
95.5155
  0
VERTEX
  8
LAYER_2
 10
113.6546
 20
95.9054
  0
SEQEND
  0
POLYLINE
  8
LAYER_2
 40
0.0353
 41
0.0353
 62
252
 66
1
 10
0
 20
0
 30
0
  0
VERTEX
  8
LAYER_2
 10
108.0004
 20
94.9306
  0
VERTEX
  8
LAYER_2
 10
107.5713
 20
95.3205
  0
SEQEND
  0
POLYLINE
  8
LAYER_2
 40
0.0353
 41
0.0353
 62
252
 66
1
 10
0
 20
0
 30
0
  0
VERTEX
  8
LAYER_2
 10
107.2984
 20
95.5155
  0
VERTEX
  8
LAYER_2
 10
106.8694
 20
95.9054
  0
SEQEND
  0
POLYLINE
  8
LAYER_2
 40
0.0353
 41
0.0353
 62
252
 66
1
 10
0
 20
0
 30
0
  0
VERTEX
  8
LAYER_2
 10
106.7135
 20
95.9445
  0
VERTEX
  8
LAYER_2
 10
107.2594
 20
95.9445
  0
SEQEND
  0
POLYLINE
  8
LAYER_2
 40
0.0353
 41
0.0353
 62
252
 66
1
 10
0
 20
0
 30
0
  0
VERTEX
  8
LAYER_2
 10
107.5714
 20
95.9445
  0
VERTEX
  8
LAYER_2
 10
108.1952
 20
95.9445
  0
SEQEND
  0
POLYLINE
  8
LAYER_2
 40
0.0353
 41
0.0353
 62
252
 66
1
 10
0
 20
0
 30
0
  0
VERTEX
  8
LAYER_2
 10
108.5073
 20
95.9445
  0
VERTEX
  8
LAYER_2
 10
109.1311
 20
95.9445
  0
SEQEND
  0
POLYLINE
  8
LAYER_2
 40
0.0353
 41
0.0353
 62
252
 66
1
 10
0
 20
0
 30
0
  0
VERTEX
  8
LAYER_2
 10
109.4432
 20
95.9445
  0
VERTEX
  8
LAYER_2
 10
110.1062
 20
95.9445
  0
SEQEND
  0
POLYLINE
  8
LAYER_2
 40
0.0353
 41
0.0353
 62
252
 66
1
 10
0
 20
0
 30
0
  0
VERTEX
  8
LAYER_2
 10
110.4181
 20
95.9445
  0
VERTEX
  8
LAYER_2
 10
111.0419
 20
95.9445
  0
SEQEND
  0
POLYLINE
  8
LAYER_2
 40
0.0353
 41
0.0353
 62
252
 66
1
 10
0
 20
0
 30
0
  0
VERTEX
  8
LAYER_2
 10
111.3539
 20
95.9445
  0
VERTEX
  8
LAYER_2
 10
112.0169
 20
95.9445
  0
SEQEND
  0
POLYLINE
  8
LAYER_2
 40
0.0353
 41
0.0353
 62
252
 66
1
 10
0
 20
0
 30
0
  0
VERTEX
  8
LAYER_2
 10
112.3288
 20
95.9445
  0
VERTEX
  8
LAYER_2
 10
112.9526
 20
95.9445
  0
SEQEND
  0
POLYLINE
  8
LAYER_2
 40
0.0353
 41
0.0353
 62
252
 66
1
 10
0
 20
0
 30
0
  0
VERTEX
  8
LAYER_2
 10
113.2647
 20
95.9445
  0
VERTEX
  8
LAYER_2
 10
113.8106
 20
95.9445
  0
SEQEND
  0
POLYLINE
  8
LAYER_2
 40
0.0353
 41
0.0353
 62
252
 66
1
 10
0
 20
0
 30
0
  0
VERTEX
  8
LAYER_2
 10
106.7135
 20
94.1507
  0
VERTEX
  8
LAYER_2
 10
106.7135
 20
93.4489
  0
SEQEND
  0
POLYLINE
  8
LAYER_2
 40
0.1446
 41
0.1446
 66
1
 10
0
 20
0
 30
0
  0
VERTEX
  8
LAYER_2
 10
106.7135
 20
93.4488
  0
VERTEX
  8
LAYER_2
 10
106.7135
 20
91.5769
  0
SEQEND
  0
POLYLINE
  8
LAYER_2
 40
0.1446
 41
0.1446
 66
1
 10
0
 20
0
 30
0
  0
VERTEX
  8
LAYER_2
 10
88.0739
 20
106.6291
  0
VERTEX
  8
LAYER_2
 10
91.0766
 20
107.916
  0
SEQEND
  0
POLYLINE
  8
LAYER_2
 40
0.0353
 41
0.0353
 62
252
 66
1
 10
0
 20
0
 30
0
  0
VERTEX
  8
LAYER_2
 10
89.3217
 20
105.9662
  0
VERTEX
  8
LAYER_2
 10
90.1015
 20
106.2781
  0
SEQEND
  0
INSERT
  8
LAYER_2
  2
AIGNBL0201003B
 10
0
 20
0
 30
0
  0
POLYLINE
  8
LAYER_2
 40
0.0353
 41
0.0353
 62
252
 66
1
 10
0
 20
0
 30
0
  0
VERTEX
  8
LAYER_2
 10
88.8148
 20
105.1863
  0
VERTEX
  8
LAYER_2
 10
88.854
 20
104.6792
  0
SEQEND
  0
POLYLINE
  8
LAYER_2
 40
0.0353
 41
0.0353
 62
252
 66
1
 10
0
 20
0
 30
0
  0
VERTEX
  8
LAYER_2
 10
88.8928
 20
104.3284
  0
VERTEX
  8
LAYER_2
 10
88.9708
 20
103.7046
  0
SEQEND
  0
POLYLINE
  8
LAYER_2
 40
0.0353
 41
0.0353
 62
252
 66
1
 10
0
 20
0
 30
0
  0
VERTEX
  8
LAYER_2
 10
89.0097
 20
103.3926
  0
VERTEX
  8
LAYER_2
 10
89.1269
 20
102.7687
  0
SEQEND
  0
POLYLINE
  8
LAYER_2
 40
0.0353
 41
0.0353
 62
252
 66
1
 10
0
 20
0
 30
0
  0
VERTEX
  8
LAYER_2
 10
89.1657
 20
102.4567
  0
VERTEX
  8
LAYER_2
 10
89.2437
 20
102.1056
  0
VERTEX
  8
LAYER_2
 10
89.3217
 20
101.8328
  0
SEQEND
  0
POLYLINE
  8
LAYER_2
 40
0.0353
 41
0.0353
 62
252
 66
1
 10
0
 20
0
 30
0
  0
VERTEX
  8
LAYER_2
 10
89.3997
 20
101.5208
  0
VERTEX
  8
LAYER_2
 10
89.5557
 20
100.9357
  0
SEQEND
  0
POLYLINE
  8
LAYER_2
 40
0.0353
 41
0.0353
 62
252
 66
1
 10
0
 20
0
 30
0
  0
VERTEX
  8
LAYER_2
 10
89.6337
 20
100.6239
  0
VERTEX
  8
LAYER_2
 10
89.6337
 20
100.5847
  0
VERTEX
  8
LAYER_2
 10
89.8288
 20
100
  0
SEQEND
  0
POLYLINE
  8
LAYER_2
 40
0.0353
 41
0.0353
 62
252
 66
1
 10
0
 20
0
 30
0
  0
VERTEX
  8
LAYER_2
 10
89.9456
 20
99.727
  0
VERTEX
  8
LAYER_2
 10
90.1408
 20
99.142
  0
VERTEX
  8
LAYER_2
 10
90.1408
 20
99.1032
  0
SEQEND
  0
POLYLINE
  8
LAYER_2
 40
0.0353
 41
0.0353
 62
252
 66
1
 10
0
 20
0
 30
0
  0
VERTEX
  8
LAYER_2
 10
90.2966
 20
98.8301
  0
VERTEX
  8
LAYER_2
 10
90.5305
 20
98.2451
  0
SEQEND
  0
POLYLINE
  8
LAYER_2
 40
0.0353
 41
0.0353
 62
252
 66
1
 10
0
 20
0
 30
0
  0
VERTEX
  8
LAYER_2
 10
90.6475
 20
97.9722
  0
VERTEX
  8
LAYER_2
 10
90.7647
 20
97.6991
  0
VERTEX
  8
LAYER_2
 10
90.9594
 20
97.3872
  0
SEQEND
  0
POLYLINE
  8
LAYER_2
 40
0.0353
 41
0.0353
 62
252
 66
1
 10
0
 20
0
 30
0
  0
VERTEX
  8
LAYER_2
 10
91.1155
 20
97.1143
  0
VERTEX
  8
LAYER_2
 10
91.3886
 20
96.5293
  0
SEQEND
  0
POLYLINE
  8
LAYER_2
 40
0.0353
 41
0.0353
 62
252
 66
1
 10
0
 20
0
 30
0
  0
VERTEX
  8
LAYER_2
 10
91.5444
 20
96.2564
  0
VERTEX
  8
LAYER_2
 10
91.8955
 20
95.7494
  0
SEQEND
  0
POLYLINE
  8
LAYER_2
 40
0.0353
 41
0.0353
 62
252
 66
1
 10
0
 20
0
 30
0
  0
VERTEX
  8
LAYER_2
 10
92.0514
 20
95.4765
  0
VERTEX
  8
LAYER_2
 10
92.3245
 20
95.0475
  0
SEQEND
  0
POLYLINE
  8
LAYER_2
 40
0.0353
 41
0.0353
 62
252
 66
1
 10
0
 20
0
 30
0
  0
VERTEX
  8
LAYER_2
 10
89.3217
 20
105.9662
  0
VERTEX
  8
LAYER_2
 10
89.2046
 20
105.927
  0
VERTEX
  8
LAYER_2
 10
89.0878
 20
105.8103
  0
VERTEX
  8
LAYER_2
 10
89.0098
 20
105.7711
  0
SEQEND
  0
POLYLINE
  8
LAYER_2
 40
0.0353
 41
0.0353
 62
252
 66
1
 10
0
 20
0
 30
0
  0
VERTEX
  8
LAYER_2
 10
88.8538
 20
105.5373
  0
VERTEX
  8
LAYER_2
 10
88.8538
 20
105.4593
  0
VERTEX
  8
LAYER_2
 10
88.8146
 20
105.3033
  0
VERTEX
  8
LAYER_2
 10
88.8146
 20
105.1862
  0
SEQEND
  0
POLYLINE
  8
LAYER_2
 40
0.0353
 41
0.0353
 62
252
 66
1
 10
0
 20
0
 30
0
  0
VERTEX
  8
LAYER_2
 10
92.3244
 20
95.0476
  0
VERTEX
  8
LAYER_2
 10
92.4415
 20
94.9304
  0
VERTEX
  8
LAYER_2
 10
92.5583
 20
94.8136
  0
VERTEX
  8
LAYER_2
 10
92.6754
 20
94.7357
  0
SEQEND
  0
POLYLINE
  8
LAYER_2
 40
0.0353
 41
0.0353
 62
252
 66
1
 10
0
 20
0
 30
0
  0
VERTEX
  8
LAYER_2
 10
92.9873
 20
94.6966
  0
VERTEX
  8
LAYER_2
 10
93.1432
 20
94.6966
  0
VERTEX
  8
LAYER_2
 10
93.2992
 20
94.7358
  0
VERTEX
  8
LAYER_2
 10
93.4163
 20
94.8138
  0
SEQEND
  0
POLYLINE
  8
LAYER_2
 40
0.0353
 41
0.0353
 62
252
 66
1
 10
0
 20
0
 30
0
  0
VERTEX
  8
LAYER_2
 10
113.8106
 20
94.3457
  0
VERTEX
  8
LAYER_2
 10
113.8106
 20
94.2677
  0
VERTEX
  8
LAYER_2
 10
113.8106
 20
94.1897
  0
VERTEX
  8
LAYER_2
 10
113.7715
 20
94.0725
  0
VERTEX
  8
LAYER_2
 10
113.7327
 20
93.9946
  0
VERTEX
  8
LAYER_2
 10
113.6935
 20
93.9558
  0
VERTEX
  8
LAYER_2
 10
113.6155
 20
93.8778
  0
VERTEX
  8
LAYER_2
 10
113.5375
 20
93.8386
  0
VERTEX
  8
LAYER_2
 10
113.4595
 20
93.7998
  0
VERTEX
  8
LAYER_2
 10
113.3816
 20
93.7606
  0
VERTEX
  8
LAYER_2
 10
113.3036
 20
93.7606
  0
VERTEX
  8
LAYER_2
 10
112.7969
 20
93.7606
  0
VERTEX
  8
LAYER_2
 10
112.7577
 20
93.7606
  0
VERTEX
  8
LAYER_2
 10
112.6797
 20
93.7998
  0
VERTEX
  8
LAYER_2
 10
112.641
 20
93.7998
  0
VERTEX
  8
LAYER_2
 10
112.6018
 20
93.8386
  0
VERTEX
  8
LAYER_2
 10
112.563
 20
93.8778
  0
VERTEX
  8
LAYER_2
 10
112.5238
 20
93.9558
  0
VERTEX
  8
LAYER_2
 10
112.5238
 20
93.9946
  0
VERTEX
  8
LAYER_2
 10
112.5238
 20
94.0725
  0
SEQEND
  0
POLYLINE
  8
LAYER_2
 40
0.0353
 41
0.0353
 62
252
 66
1
 10
0
 20
0
 30
0
  0
VERTEX
  8
LAYER_2
 10
91.7784
 20
107.526
  0
VERTEX
  8
LAYER_2
 10
91.7392
 20
107.604
  0
VERTEX
  8
LAYER_2
 10
91.7004
 20
107.682
  0
VERTEX
  8
LAYER_2
 10
91.6613
 20
107.7599
  0
VERTEX
  8
LAYER_2
 10
91.5833
 20
107.8379
  0
VERTEX
  8
LAYER_2
 10
91.5053
 20
107.8771
  0
VERTEX
  8
LAYER_2
 10
91.4273
 20
107.9159
  0
VERTEX
  8
LAYER_2
 10
91.3493
 20
107.9551
  0
VERTEX
  8
LAYER_2
 10
91.2714
 20
107.9551
  0
VERTEX
  8
LAYER_2
 10
91.1934
 20
107.9551
  0
VERTEX
  8
LAYER_2
 10
91.0766
 20
107.9159
  0
SEQEND
  0
POLYLINE
  8
LAYER_2
 40
0.0353
 41
0.0353
 62
252
 66
1
 10
0
 20
0
 30
0
  0
VERTEX
  8
LAYER_2
 10
91.1545
 20
105.6932
  0
VERTEX
  8
LAYER_2
 10
91.3496
 20
104.9914
  0
SEQEND
  0
POLYLINE
  8
LAYER_2
 40
0.0353
 41
0.0353
 62
252
 66
1
 10
0
 20
0
 30
0
  0
VERTEX
  8
LAYER_2
 10
91.4665
 20
104.6794
  0
VERTEX
  8
LAYER_2
 10
91.5444
 20
104.3674
  0
VERTEX
  8
LAYER_2
 10
91.6616
 20
104.0555
  0
SEQEND
  0
POLYLINE
  8
LAYER_2
 40
0.0353
 41
0.0353
 62
252
 66
1
 10
0
 20
0
 30
0
  0
VERTEX
  8
LAYER_2
 10
91.7784
 20
103.7825
  0
VERTEX
  8
LAYER_2
 10
92.0124
 20
103.1974
  0
SEQEND
  0
POLYLINE
  8
LAYER_2
 40
0.0353
 41
0.0353
 62
252
 66
1
 10
0
 20
0
 30
0
  0
VERTEX
  8
LAYER_2
 10
92.1294
 20
102.8856
  0
VERTEX
  8
LAYER_2
 10
92.4413
 20
102.3397
  0
SEQEND
  0
POLYLINE
  8
LAYER_2
 40
0.0353
 41
0.0353
 62
252
 66
1
 10
0
 20
0
 30
0
  0
VERTEX
  8
LAYER_2
 10
92.5973
 20
102.0667
  0
VERTEX
  8
LAYER_2
 10
92.7145
 20
101.7548
  0
VERTEX
  8
LAYER_2
 10
92.9092
 20
101.4816
  0
SEQEND
  0
POLYLINE
  8
LAYER_2
 40
0.0353
 41
0.0353
 62
252
 66
1
 10
0
 20
0
 30
0
  0
VERTEX
  8
LAYER_2
 10
93.0652
 20
101.2478
  0
VERTEX
  8
LAYER_2
 10
93.4163
 20
100.7019
  0
SEQEND
  0
POLYLINE
  8
LAYER_2
 40
0.0353
 41
0.0353
 62
252
 66
1
 10
0
 20
0
 30
0
  0
VERTEX
  8
LAYER_2
 10
93.5722
 20
100.4289
  0
VERTEX
  8
LAYER_2
 10
93.9621
 20
99.9218
  0
SEQEND
  0
POLYLINE
  8
LAYER_2
 40
0.0353
 41
0.0353
 62
252
 66
1
 10
0
 20
0
 30
0
  0
VERTEX
  8
LAYER_2
 10
94.1571
 20
99.688
  0
VERTEX
  8
LAYER_2
 10
94.3523
 20
99.4541
  0
VERTEX
  8
LAYER_2
 10
94.5862
 20
99.181
  0
SEQEND
  0
POLYLINE
  8
LAYER_2
 40
0.0353
 41
0.0353
 62
252
 66
1
 10
0
 20
0
 30
0
  0
VERTEX
  8
LAYER_2
 10
94.781
 20
98.9471
  0
VERTEX
  8
LAYER_2
 10
95.3269
 20
98.4012
  0
SEQEND
  0
POLYLINE
  8
LAYER_2
 40
0.0353
 41
0.0353
 62
252
 66
1
 10
0
 20
0
 30
0
  0
VERTEX
  8
LAYER_2
 10
91.1545
 20
105.6932
  0
VERTEX
  8
LAYER_2
 10
91.0765
 20
105.8492
  0
VERTEX
  8
LAYER_2
 10
90.9985
 20
105.9664
  0
VERTEX
  8
LAYER_2
 10
90.9205
 20
106.0831
  0
VERTEX
  8
LAYER_2
 10
90.8814
 20
106.1223
  0
SEQEND
  0
POLYLINE
  8
LAYER_2
 40
0.0353
 41
0.0353
 62
252
 66
1
 10
0
 20
0
 30
0
  0
VERTEX
  8
LAYER_2
 10
90.6086
 20
106.2782
  0
VERTEX
  8
LAYER_2
 10
90.5306
 20
106.3173
  0
VERTEX
  8
LAYER_2
 10
90.3746
 20
106.3173
  0
VERTEX
  8
LAYER_2
 10
90.2187
 20
106.3173
  0
VERTEX
  8
LAYER_2
 10
90.1015
 20
106.2782
  0
SEQEND
  0
POLYLINE
  8
LAYER_2
 40
0.0353
 41
0.0353
 62
252
 66
1
 10
0
 20
0
 30
0
  0
VERTEX
  8
LAYER_2
 10
95.5609
 20
97.8162
  0
VERTEX
  8
LAYER_2
 10
95.5217
 20
97.9722
  0
VERTEX
  8
LAYER_2
 10
95.5217
 20
98.0893
  0
VERTEX
  8
LAYER_2
 10
95.4438
 20
98.2061
  0
VERTEX
  8
LAYER_2
 10
95.405
 20
98.3233
  0
VERTEX
  8
LAYER_2
 10
95.327
 20
98.4013
  0
SEQEND
  0
POLYLINE
  8
LAYER_2
 40
0.0353
 41
0.0353
 62
252
 66
1
 10
0
 20
0
 30
0
  0
VERTEX
  8
LAYER_2
 10
98.4076
 20
96.7634
  0
VERTEX
  8
LAYER_2
 10
98.2516
 20
96.8026
  0
VERTEX
  8
LAYER_2
 10
98.0957
 20
96.8414
  0
VERTEX
  8
LAYER_2
 10
97.9397
 20
96.8414
  0
VERTEX
  8
LAYER_2
 10
97.8225
 20
96.8414
  0
SEQEND
  0
POLYLINE
  8
LAYER_2
 40
0.0353
 41
0.0353
 62
252
 66
1
 10
0
 20
0
 30
0
  0
VERTEX
  8
LAYER_2
 10
97.5497
 20
96.6854
  0
VERTEX
  8
LAYER_2
 10
97.4329
 20
96.6074
  0
VERTEX
  8
LAYER_2
 10
97.3545
 20
96.4514
  0
VERTEX
  8
LAYER_2
 10
97.2765
 20
96.3343
  0
VERTEX
  8
LAYER_2
 10
97.2377
 20
96.1783
  0
SEQEND
  0
POLYLINE
  8
LAYER_2
 40
0.0353
 41
0.0353
 62
252
 66
1
 10
0
 20
0
 30
0
  0
VERTEX
  8
LAYER_2
 10
95.7559
 20
93.4488
  0
VERTEX
  8
LAYER_2
 10
96.3018
 20
93.4488
  0
VERTEX
  8
LAYER_2
 10
96.341
 20
93.4488
  0
VERTEX
  8
LAYER_2
 10
96.4189
 20
93.488
  0
VERTEX
  8
LAYER_2
 10
96.4577
 20
93.488
  0
VERTEX
  8
LAYER_2
 10
96.4969
 20
93.5268
  0
VERTEX
  8
LAYER_2
 10
96.5357
 20
93.5659
  0
VERTEX
  8
LAYER_2
 10
96.5749
 20
93.6047
  0
VERTEX
  8
LAYER_2
 10
96.5749
 20
93.6439
  0
VERTEX
  8
LAYER_2
 10
96.6137
 20
93.7219
  0
SEQEND
  0
POLYLINE
  8
LAYER_2
 40
0.0353
 41
0.0353
 62
252
 66
1
 10
0
 20
0
 30
0
  0
VERTEX
  8
LAYER_2
 10
95.5609
 20
95.9445
  0
VERTEX
  8
LAYER_2
 10
95.5609
 20
96.7242
  0
SEQEND
  0
POLYLINE
  8
LAYER_2
 40
0.0353
 41
0.0353
 62
252
 66
1
 10
0
 20
0
 30
0
  0
VERTEX
  8
LAYER_2
 10
95.5609
 20
97.0364
  0
VERTEX
  8
LAYER_2
 10
95.5609
 20
97.8161
  0
SEQEND
  0
POLYLINE
  8
LAYER_2
 40
0.0353
 41
0.0353
 62
252
 66
1
 10
0
 20
0
 30
0
  0
VERTEX
  8
LAYER_2
 10
96.6138
 20
93.7218
  0
VERTEX
  8
LAYER_2
 10
96.7697
 20
94.3456
  0
SEQEND
  0
POLYLINE
  8
LAYER_2
 40
0.0353
 41
0.0353
 62
252
 66
1
 10
0
 20
0
 30
0
  0
VERTEX
  8
LAYER_2
 10
96.8478
 20
94.6577
  0
VERTEX
  8
LAYER_2
 10
97.0037
 20
95.2427
  0
SEQEND
  0
POLYLINE
  8
LAYER_2
 40
0.0353
 41
0.0353
 62
252
 66
1
 10
0
 20
0
 30
0
  0
VERTEX
  8
LAYER_2
 10
97.0817
 20
95.5545
  0
VERTEX
  8
LAYER_2
 10
97.2377
 20
96.1784
  0
SEQEND
  0
POLYLINE
  8
LAYER_2
 40
0.0353
 41
0.0353
 62
252
 66
1
 10
0
 20
0
 30
0
  0
VERTEX
  8
LAYER_2
 10
95.4829
 20
93.6048
  0
VERTEX
  8
LAYER_2
 10
95.3658
 20
93.7607
  0
VERTEX
  8
LAYER_2
 10
95.2098
 20
93.9167
  0
VERTEX
  8
LAYER_2
 10
95.1319
 20
93.9559
  0
SEQEND
  0
POLYLINE
  8
LAYER_2
 40
0.0353
 41
0.0353
 62
252
 66
1
 10
0
 20
0
 30
0
  0
VERTEX
  8
LAYER_2
 10
94.859
 20
94.1117
  0
VERTEX
  8
LAYER_2
 10
94.6639
 20
94.1509
  0
VERTEX
  8
LAYER_2
 10
94.4691
 20
94.1509
  0
VERTEX
  8
LAYER_2
 10
94.2352
 20
94.1117
  0
SEQEND
  0
POLYLINE
  8
LAYER_2
 40
0.0353
 41
0.0353
 62
252
 66
1
 10
0
 20
0
 30
0
  0
VERTEX
  8
LAYER_2
 10
93.9621
 20
93.9557
  0
VERTEX
  8
LAYER_2
 10
93.8842
 20
93.9165
  0
VERTEX
  8
LAYER_2
 10
93.7282
 20
93.7606
  0
VERTEX
  8
LAYER_2
 10
93.611
 20
93.6046
  0
SEQEND
  0
POLYLINE
  8
LAYER_2
 40
0.0353
 41
0.0353
 62
252
 66
1
 10
0
 20
0
 30
0
  0
VERTEX
  8
LAYER_2
 10
95.4829
 20
93.6048
  0
VERTEX
  8
LAYER_2
 10
95.5217
 20
93.5656
  0
VERTEX
  8
LAYER_2
 10
95.5609
 20
93.5268
  0
VERTEX
  8
LAYER_2
 10
95.5997
 20
93.4876
  0
VERTEX
  8
LAYER_2
 10
95.6389
 20
93.4876
  0
VERTEX
  8
LAYER_2
 10
95.6781
 20
93.4488
  0
VERTEX
  8
LAYER_2
 10
95.7561
 20
93.4488
  0
SEQEND
  0
POLYLINE
  8
LAYER_2
 40
0.0353
 41
0.0353
 62
252
 66
1
 10
0
 20
0
 30
0
  0
VERTEX
  8
LAYER_2
 10
93.3772
 20
93.4488
  0
VERTEX
  8
LAYER_2
 10
93.4164
 20
93.4488
  0
VERTEX
  8
LAYER_2
 10
93.4552
 20
93.488
  0
VERTEX
  8
LAYER_2
 10
93.5332
 20
93.488
  0
VERTEX
  8
LAYER_2
 10
93.5723
 20
93.5268
  0
VERTEX
  8
LAYER_2
 10
93.6111
 20
93.5659
  0
VERTEX
  8
LAYER_2
 10
93.6111
 20
93.6047
  0
SEQEND
  0
POLYLINE
  8
LAYER_2
 40
0.0353
 41
0.0353
 62
252
 66
1
 10
0
 20
0
 30
0
  0
VERTEX
  8
LAYER_2
 10
94.703
 20
95.1256
  0
VERTEX
  8
LAYER_2
 10
94.3519
 20
95.1256
  0
VERTEX
  8
LAYER_2
 10
94.196
 20
95.0864
  0
SEQEND
  0
POLYLINE
  8
LAYER_2
 40
0.0353
 41
0.0353
 62
252
 66
1
 10
0
 20
0
 30
0
  0
VERTEX
  8
LAYER_2
 10
93.8842
 20
95.0086
  0
VERTEX
  8
LAYER_2
 10
93.7282
 20
94.9694
  0
VERTEX
  8
LAYER_2
 10
93.4163
 20
94.8135
  0
SEQEND
  0
POLYLINE
  8
LAYER_2
 40
0.0353
 41
0.0353
 62
252
 66
1
 10
0
 20
0
 30
0
  0
VERTEX
  8
LAYER_2
 10
94.703
 20
95.1256
  0
VERTEX
  8
LAYER_2
 10
94.859
 20
95.1256
  0
VERTEX
  8
LAYER_2
 10
94.9762
 20
95.1647
  0
VERTEX
  8
LAYER_2
 10
95.1321
 20
95.2427
  0
VERTEX
  8
LAYER_2
 10
95.1709
 20
95.2427
  0
SEQEND
  0
POLYLINE
  8
LAYER_2
 40
0.0353
 41
0.0353
 62
252
 66
1
 10
0
 20
0
 30
0
  0
VERTEX
  8
LAYER_2
 10
95.4049
 20
95.4765
  0
VERTEX
  8
LAYER_2
 10
95.4441
 20
95.5157
  0
VERTEX
  8
LAYER_2
 10
95.4829
 20
95.6325
  0
VERTEX
  8
LAYER_2
 10
95.5221
 20
95.7885
  0
VERTEX
  8
LAYER_2
 10
95.5609
 20
95.9444
  0
SEQEND
  0
POLYLINE
  8
LAYER_2
 40
0.1446
 41
0.1446
 66
1
 10
0
 20
0
 30
0
  0
VERTEX
  8
LAYER_2
 10
132.4113
 20
106.6291
  0
VERTEX
  8
LAYER_2
 10
129.4085
 20
107.916
  0
SEQEND
  0
POLYLINE
  8
LAYER_2
 40
0.0353
 41
0.0353
 62
252
 66
1
 10
0
 20
0
 30
0
  0
VERTEX
  8
LAYER_2
 10
130.3445
 20
106.2782
  0
VERTEX
  8
LAYER_2
 10
130.3053
 20
106.3173
  0
SEQEND
  0
INSERT
  8
LAYER_2
  2
AIGNBL0201003C
 10
0
 20
0
 30
0
  0
POLYLINE
  8
LAYER_2
 40
0.0353
 41
0.0353
 62
252
 66
1
 10
0
 20
0
 30
0
  0
VERTEX
  8
LAYER_2
 10
127.3809
 20
93.9557
  0
VERTEX
  8
LAYER_2
 10
127.81
 20
94.5408
  0
SEQEND
  0
POLYLINE
  8
LAYER_2
 40
0.0353
 41
0.0353
 62
252
 66
1
 10
0
 20
0
 30
0
  0
VERTEX
  8
LAYER_2
 10
128.0048
 20
94.8136
  0
VERTEX
  8
LAYER_2
 10
128.2388
 20
95.1647
  0
VERTEX
  8
LAYER_2
 10
128.3559
 20
95.3207
  0
SEQEND
  0
POLYLINE
  8
LAYER_2
 40
0.0353
 41
0.0353
 62
252
 66
1
 10
0
 20
0
 30
0
  0
VERTEX
  8
LAYER_2
 10
128.5118
 20
95.5935
  0
VERTEX
  8
LAYER_2
 10
128.8629
 20
96.1394
  0
SEQEND
  0
POLYLINE
  8
LAYER_2
 40
0.0353
 41
0.0353
 62
252
 66
1
 10
0
 20
0
 30
0
  0
VERTEX
  8
LAYER_2
 10
129.0187
 20
96.4124
  0
VERTEX
  8
LAYER_2
 10
129.0579
 20
96.4124
  0
VERTEX
  8
LAYER_2
 10
129.3306
 20
96.9583
  0
SEQEND
  0
POLYLINE
  8
LAYER_2
 40
0.0353
 41
0.0353
 62
252
 66
1
 10
0
 20
0
 30
0
  0
VERTEX
  8
LAYER_2
 10
129.4866
 20
97.2313
  0
VERTEX
  8
LAYER_2
 10
129.7597
 20
97.7772
  0
VERTEX
  8
LAYER_2
 10
129.7985
 20
97.8163
  0
SEQEND
  0
POLYLINE
  8
LAYER_2
 40
0.0353
 41
0.0353
 62
252
 66
1
 10
0
 20
0
 30
0
  0
VERTEX
  8
LAYER_2
 10
129.9156
 20
98.0892
  0
VERTEX
  8
LAYER_2
 10
130.1495
 20
98.6742
  0
SEQEND
  0
POLYLINE
  8
LAYER_2
 40
0.0353
 41
0.0353
 62
252
 66
1
 10
0
 20
0
 30
0
  0
VERTEX
  8
LAYER_2
 10
130.3056
 20
98.9471
  0
VERTEX
  8
LAYER_2
 10
130.3835
 20
99.1422
  0
VERTEX
  8
LAYER_2
 10
130.5007
 20
99.5709
  0
SEQEND
  0
POLYLINE
  8
LAYER_2
 40
0.0353
 41
0.0353
 62
252
 66
1
 10
0
 20
0
 30
0
  0
VERTEX
  8
LAYER_2
 10
130.6175
 20
99.844
  0
VERTEX
  8
LAYER_2
 10
130.8514
 20
100.5458
  0
SEQEND
  0
POLYLINE
  8
LAYER_2
 40
0.0353
 41
0.0353
 62
252
 66
1
 10
0
 20
0
 30
0
  0
VERTEX
  8
LAYER_2
 10
127.3809
 20
93.9557
  0
VERTEX
  8
LAYER_2
 10
127.3417
 20
93.9165
  0
VERTEX
  8
LAYER_2
 10
127.3029
 20
93.8386
  0
VERTEX
  8
LAYER_2
 10
127.3029
 20
93.7998
  0
VERTEX
  8
LAYER_2
 10
127.3029
 20
93.7218
  0
VERTEX
  8
LAYER_2
 10
127.3029
 20
93.6826
  0
VERTEX
  8
LAYER_2
 10
127.3417
 20
93.6438
  0
VERTEX
  8
LAYER_2
 10
127.3417
 20
93.5658
  0
VERTEX
  8
LAYER_2
 10
127.3809
 20
93.5266
  0
VERTEX
  8
LAYER_2
 10
127.4201
 20
93.5266
  0
VERTEX
  8
LAYER_2
 10
127.4981
 20
93.4878
  0
VERTEX
  8
LAYER_2
 10
127.5369
 20
93.4487
  0
VERTEX
  8
LAYER_2
 10
127.6149
 20
93.4487
  0
SEQEND
  0
POLYLINE
  8
LAYER_2
 40
0.0353
 41
0.0353
 62
252
 66
1
 10
0
 20
0
 30
0
  0
VERTEX
  8
LAYER_2
 10
129.4086
 20
107.916
  0
VERTEX
  8
LAYER_2
 10
129.3307
 20
107.9551
  0
VERTEX
  8
LAYER_2
 10
129.2527
 20
107.9551
  0
VERTEX
  8
LAYER_2
 10
129.1747
 20
107.9551
  0
VERTEX
  8
LAYER_2
 10
129.0575
 20
107.916
  0
VERTEX
  8
LAYER_2
 10
128.9796
 20
107.8768
  0
VERTEX
  8
LAYER_2
 10
128.9408
 20
107.838
  0
VERTEX
  8
LAYER_2
 10
128.8628
 20
107.76
  0
VERTEX
  8
LAYER_2
 10
128.8236
 20
107.682
  0
VERTEX
  8
LAYER_2
 10
128.7848
 20
107.604
  0
VERTEX
  8
LAYER_2
 10
128.7456
 20
107.526
  0
SEQEND
  0
POLYLINE
  8
LAYER_2
 40
0.0353
 41
0.0353
 62
252
 66
1
 10
0
 20
0
 30
0
  0
VERTEX
  8
LAYER_2
 10
130.8515
 20
100.5459
  0
VERTEX
  8
LAYER_2
 10
130.8515
 20
100.6239
  0
VERTEX
  8
LAYER_2
 10
130.8515
 20
100.7019
  0
VERTEX
  8
LAYER_2
 10
130.8127
 20
100.7798
  0
VERTEX
  8
LAYER_2
 10
130.7735
 20
100.819
  0
VERTEX
  8
LAYER_2
 10
130.7347
 20
100.8578
  0
SEQEND
  0
POLYLINE
  8
LAYER_2
 40
0.0353
 41
0.0353
 62
252
 66
1
 10
0
 20
0
 30
0
  0
VERTEX
  8
LAYER_2
 10
130.4615
 20
100.9748
  0
VERTEX
  8
LAYER_2
 10
130.4227
 20
100.9748
  0
VERTEX
  8
LAYER_2
 10
130.3835
 20
100.9748
  0
VERTEX
  8
LAYER_2
 10
130.3056
 20
100.9356
  0
VERTEX
  8
LAYER_2
 10
130.2276
 20
100.9356
  0
VERTEX
  8
LAYER_2
 10
130.1884
 20
100.8577
  0
SEQEND
  0
POLYLINE
  8
LAYER_2
 40
0.1446
 41
0.1446
 66
1
 10
0
 20
0
 30
0
  0
VERTEX
  8
LAYER_2
 10
91.2715
 20
107.955
  0
VERTEX
  8
LAYER_2
 10
129.2526
 20
107.955
  0
SEQEND
  0
POLYLINE
  8
LAYER_2
 40
0.1446
 41
0.1446
 66
1
 10
0
 20
0
 30
0
  0
VERTEX
  8
LAYER_2
 10
106.7915
 20
91.46
  0
VERTEX
  8
LAYER_2
 10
112.6019
 20
91.46
  0
VERTEX
  8
LAYER_2
 10
113.8107
 20
91.46
  0
SEQEND
  0
POLYLINE
  8
LAYER_2
 40
0.0353
 41
0.0353
 62
252
 66
1
 10
0
 20
0
 30
0
  0
VERTEX
  8
LAYER_2
 10
112.7968
 20
92.7469
  0
VERTEX
  8
LAYER_2
 10
113.1478
 20
92.7469
  0
SEQEND
  0
POLYLINE
  8
LAYER_2
 40
0.0353
 41
0.0353
 62
252
 66
1
 10
0
 20
0
 30
0
  0
VERTEX
  8
LAYER_2
 10
113.4597
 20
92.7469
  0
VERTEX
  8
LAYER_2
 10
113.8108
 20
92.7469
  0
SEQEND
  0
POLYLINE
  8
LAYER_2
 40
0.0353
 41
0.0353
 62
252
 66
1
 10
0
 20
0
 30
0
  0
VERTEX
  8
LAYER_2
 10
112.7968
 20
92.7469
  0
VERTEX
  8
LAYER_2
 10
112.758
 20
92.7469
  0
VERTEX
  8
LAYER_2
 10
112.68
 20
92.7469
  0
VERTEX
  8
LAYER_2
 10
112.6408
 20
92.7077
  0
VERTEX
  8
LAYER_2
 10
112.6016
 20
92.6689
  0
VERTEX
  8
LAYER_2
 10
112.5628
 20
92.6297
  0
VERTEX
  8
LAYER_2
 10
112.5236
 20
92.5909
  0
VERTEX
  8
LAYER_2
 10
112.5236
 20
92.5129
  0
VERTEX
  8
LAYER_2
 10
112.5236
 20
92.4737
  0
SEQEND
  0
INSERT
  8
LAYER_2
  2
AIGNBL0201003D
 10
0
 20
0
 30
0
  0
POLYLINE
  8
LAYER_2
 66
1
 10
0
 20
0
 30
0
  0
VERTEX
  8
LAYER_2
 10
87.7619
 20
108.1889
  0
VERTEX
  8
LAYER_2
 10
87.7619
 20
114.8963
  0
SEQEND
  0
POLYLINE
  8
LAYER_2
 66
1
 10
0
 20
0
 30
0
  0
VERTEX
  8
LAYER_2
 10
132.7622
 20
108.1889
  0
VERTEX
  8
LAYER_2
 10
132.7622
 20
114.8963
  0
SEQEND
  0
POLYLINE
  8
LAYER_2
 66
1
 10
0
 20
0
 30
0
  0
VERTEX
  8
LAYER_2
 10
89.2437
 20
114.7791
  0
VERTEX
  8
LAYER_2
 10
107.3763
 20
114.7791
  0
SEQEND
  0
POLYLINE
  8
LAYER_2
 66
1
 10
0
 20
0
 30
0
  0
VERTEX
  8
LAYER_2
 10
131.2415
 20
114.7791
  0
VERTEX
  8
LAYER_2
 10
113.1089
 20
114.7791
  0
SEQEND
  0
POLYLINE
  8
LAYER_2
 40
0.05
 41
0.05
 66
1
 10
0
 20
0
 30
0
 70
1
  0
VERTEX
  8
LAYER_2
 10
89.2437
 20
115.0521
  0
VERTEX
  8
LAYER_2
 10
89.2437
 20
114.545
  0
VERTEX
  8
LAYER_2
 10
87.7617
 20
114.7789
  0
SEQEND
  0
POLYLINE
  8
LAYER_2
 66
1
 10
0
 20
0
 30
0
 70
1
  0
VERTEX
  8
LAYER_2
 10
89.2437
 20
115.0521
  0
VERTEX
  8
LAYER_2
 10
89.2437
 20
114.545
  0
VERTEX
  8
LAYER_2
 10
87.7617
 20
114.7789
  0
SEQEND
  0
POLYLINE
  8
LAYER_2
 40
0.05
 41
0.05
 66
1
 10
0
 20
0
 30
0
 70
1
  0
VERTEX
  8
LAYER_2
 10
131.2415
 20
115.0521
  0
VERTEX
  8
LAYER_2
 10
131.2415
 20
114.545
  0
VERTEX
  8
LAYER_2
 10
132.7622
 20
114.7789
  0
SEQEND
  0
POLYLINE
  8
LAYER_2
 66
1
 10
0
 20
0
 30
0
 70
1
  0
VERTEX
  8
LAYER_2
 10
131.2415
 20
115.0521
  0
VERTEX
  8
LAYER_2
 10
131.2415
 20
114.545
  0
VERTEX
  8
LAYER_2
 10
132.7622
 20
114.7789
  0
SEQEND
  0
TEXT
  8
LAYER_2
 10
107.416
 20
113.4597
 11
107.416
 21
113.4597
 40
2.8433
 41
0.5
  1
450
  0
POLYLINE
  8
LAYER_2
 66
1
 10
0
 20
0
 30
0
  0
VERTEX
  8
LAYER_2
 10
91.7784
 20
107.604
  0
VERTEX
  8
LAYER_2
 10
91.7784
 20
110.7235
  0
SEQEND
  0
POLYLINE
  8
LAYER_2
 66
1
 10
0
 20
0
 30
0
  0
VERTEX
  8
LAYER_2
 10
128.7457
 20
107.604
  0
VERTEX
  8
LAYER_2
 10
128.7457
 20
110.7235
  0
SEQEND
  0
POLYLINE
  8
LAYER_2
 66
1
 10
0
 20
0
 30
0
  0
VERTEX
  8
LAYER_2
 10
93.2602
 20
110.5677
  0
VERTEX
  8
LAYER_2
 10
107.4543
 20
110.5677
  0
SEQEND
  0
POLYLINE
  8
LAYER_2
 66
1
 10
0
 20
0
 30
0
  0
VERTEX
  8
LAYER_2
 10
127.2639
 20
110.5677
  0
VERTEX
  8
LAYER_2
 10
113.0698
 20
110.5677
  0
SEQEND
  0
POLYLINE
  8
LAYER_2
 40
0.05
 41
0.05
 66
1
 10
0
 20
0
 30
0
 70
1
  0
VERTEX
  8
LAYER_2
 10
93.2602
 20
110.8406
  0
VERTEX
  8
LAYER_2
 10
93.2602
 20
110.3335
  0
VERTEX
  8
LAYER_2
 10
91.7782
 20
110.5675
  0
SEQEND
  0
POLYLINE
  8
LAYER_2
 66
1
 10
0
 20
0
 30
0
 70
1
  0
VERTEX
  8
LAYER_2
 10
93.2602
 20
110.8406
  0
VERTEX
  8
LAYER_2
 10
93.2602
 20
110.3335
  0
VERTEX
  8
LAYER_2
 10
91.7782
 20
110.5675
  0
SEQEND
  0
POLYLINE
  8
LAYER_2
 40
0.05
 41
0.05
 66
1
 10
0
 20
0
 30
0
 70
1
  0
VERTEX
  8
LAYER_2
 10
127.2639
 20
110.8406
  0
VERTEX
  8
LAYER_2
 10
127.2639
 20
110.3335
  0
VERTEX
  8
LAYER_2
 10
128.7459
 20
110.5675
  0
SEQEND
  0
POLYLINE
  8
LAYER_2
 66
1
 10
0
 20
0
 30
0
 70
1
  0
VERTEX
  8
LAYER_2
 10
127.2639
 20
110.8406
  0
VERTEX
  8
LAYER_2
 10
127.2639
 20
110.3335
  0
VERTEX
  8
LAYER_2
 10
128.7459
 20
110.5675
  0
SEQEND
  0
TEXT
  8
LAYER_2
 10
107.3376
 20
109.287
 11
107.3376
 21
109.287
 40
2.8433
 41
0.5
  1
370
  0
POLYLINE
  8
LAYER_2
 40
0.0353
 41
0.0353
 62
252
 66
1
 10
0
 20
0
 30
0
  0
VERTEX
  8
LAYER_2
 10
91.7784
 20
107.526
  0
VERTEX
  8
LAYER_2
 10
91.8952
 20
107.019
  0
SEQEND
  0
POLYLINE
  8
LAYER_2
 40
0.0353
 41
0.0353
 62
252
 66
1
 10
0
 20
0
 30
0
  0
VERTEX
  8
LAYER_2
 10
92.0124
 20
106.7071
  0
VERTEX
  8
LAYER_2
 10
92.1683
 20
106.1221
  0
VERTEX
  8
LAYER_2
 10
92.1683
 20
106.0833
  0
SEQEND
  0
POLYLINE
  8
LAYER_2
 40
0.0353
 41
0.0353
 62
252
 66
1
 10
0
 20
0
 30
0
  0
VERTEX
  8
LAYER_2
 10
92.2853
 20
105.8102
  0
VERTEX
  8
LAYER_2
 10
92.5193
 20
105.2252
  0
SEQEND
  0
POLYLINE
  8
LAYER_2
 40
0.0353
 41
0.0353
 62
252
 66
1
 10
0
 20
0
 30
0
  0
VERTEX
  8
LAYER_2
 10
92.6363
 20
104.9133
  0
VERTEX
  8
LAYER_2
 10
92.7143
 20
104.7574
  0
VERTEX
  8
LAYER_2
 10
92.9094
 20
104.3675
  0
SEQEND
  0
POLYLINE
  8
LAYER_2
 40
0.0353
 41
0.0353
 62
252
 66
1
 10
0
 20
0
 30
0
  0
VERTEX
  8
LAYER_2
 10
93.0652
 20
104.0555
  0
VERTEX
  8
LAYER_2
 10
93.3771
 20
103.5096
  0
SEQEND
  0
POLYLINE
  8
LAYER_2
 40
0.0353
 41
0.0353
 62
252
 66
1
 10
0
 20
0
 30
0
  0
VERTEX
  8
LAYER_2
 10
93.5332
 20
103.2366
  0
VERTEX
  8
LAYER_2
 10
93.8843
 20
102.6907
  0
SEQEND
  0
POLYLINE
  8
LAYER_2
 40
0.0353
 41
0.0353
 62
252
 66
1
 10
0
 20
0
 30
0
  0
VERTEX
  8
LAYER_2
 10
94.0401
 20
102.4177
  0
VERTEX
  8
LAYER_2
 10
94.1573
 20
102.2617
  0
VERTEX
  8
LAYER_2
 10
94.43
 20
101.9106
  0
SEQEND
  0
POLYLINE
  8
LAYER_2
 40
0.0353
 41
0.0353
 62
252
 66
1
 10
0
 20
0
 30
0
  0
VERTEX
  8
LAYER_2
 10
94.625
 20
101.6768
  0
VERTEX
  8
LAYER_2
 10
95.0149
 20
101.1697
  0
SEQEND
  0
POLYLINE
  8
LAYER_2
 40
0.0353
 41
0.0353
 62
252
 66
1
 10
0
 20
0
 30
0
  0
VERTEX
  8
LAYER_2
 10
95.249
 20
100.9358
  0
VERTEX
  8
LAYER_2
 10
95.6781
 20
100.5068
  0
SEQEND
  0
POLYLINE
  8
LAYER_2
 40
0.0353
 41
0.0353
 62
252
 66
1
 10
0
 20
0
 30
0
  0
VERTEX
  8
LAYER_2
 10
95.9119
 20
100.2729
  0
VERTEX
  8
LAYER_2
 10
96.107
 20
100.039
  0
VERTEX
  8
LAYER_2
 10
96.341
 20
99.8439
  0
SEQEND
  0
POLYLINE
  8
LAYER_2
 40
0.0353
 41
0.0353
 62
252
 66
1
 10
0
 20
0
 30
0
  0
VERTEX
  8
LAYER_2
 10
96.6138
 20
99.61
  0
VERTEX
  8
LAYER_2
 10
97.0817
 20
99.2201
  0
SEQEND
  0
POLYLINE
  8
LAYER_2
 40
0.0353
 41
0.0353
 62
252
 66
1
 10
0
 20
0
 30
0
  0
VERTEX
  8
LAYER_2
 10
97.3157
 20
99.0251
  0
VERTEX
  8
LAYER_2
 10
97.8616
 20
98.6352
  0
SEQEND
  0
POLYLINE
  8
LAYER_2
 40
0.0353
 41
0.0353
 62
252
 66
1
 10
0
 20
0
 30
0
  0
VERTEX
  8
LAYER_2
 10
98.0956
 20
98.4792
  0
VERTEX
  8
LAYER_2
 10
98.4075
 20
98.284
  0
VERTEX
  8
LAYER_2
 10
98.6415
 20
98.1281
  0
SEQEND
  0
POLYLINE
  8
LAYER_2
 40
0.0353
 41
0.0353
 62
252
 66
1
 10
0
 20
0
 30
0
  0
VERTEX
  8
LAYER_2
 10
98.9145
 20
97.9722
  0
VERTEX
  8
LAYER_2
 10
99.4604
 20
97.6603
  0
SEQEND
  0
POLYLINE
  8
LAYER_2
 40
0.0353
 41
0.0353
 62
252
 66
1
 10
0
 20
0
 30
0
  0
VERTEX
  8
LAYER_2
 10
99.7724
 20
97.5043
  0
VERTEX
  8
LAYER_2
 10
100.3574
 20
97.2703
  0
SEQEND
  0
POLYLINE
  8
LAYER_2
 40
0.0353
 41
0.0353
 62
252
 66
1
 10
0
 20
0
 30
0
  0
VERTEX
  8
LAYER_2
 10
100.6303
 20
97.1143
  0
VERTEX
  8
LAYER_2
 10
101.0202
 20
96.9584
  0
VERTEX
  8
LAYER_2
 10
101.2153
 20
96.8804
  0
SEQEND
  0
POLYLINE
  8
LAYER_2
 40
0.0353
 41
0.0353
 62
252
 66
1
 10
0
 20
0
 30
0
  0
VERTEX
  8
LAYER_2
 10
101.5272
 20
96.8024
  0
VERTEX
  8
LAYER_2
 10
102.1122
 20
96.6072
  0
SEQEND
  0
POLYLINE
  8
LAYER_2
 40
0.0353
 41
0.0353
 62
252
 66
1
 10
0
 20
0
 30
0
  0
VERTEX
  8
LAYER_2
 10
102.4241
 20
96.4904
  0
VERTEX
  8
LAYER_2
 10
103.0479
 20
96.3732
  0
SEQEND
  0
POLYLINE
  8
LAYER_2
 40
0.0353
 41
0.0353
 62
252
 66
1
 10
0
 20
0
 30
0
  0
VERTEX
  8
LAYER_2
 10
103.3599
 20
96.2954
  0
VERTEX
  8
LAYER_2
 10
103.8278
 20
96.1783
  0
VERTEX
  8
LAYER_2
 10
103.9838
 20
96.1783
  0
SEQEND
  0
POLYLINE
  8
LAYER_2
 40
0.0353
 41
0.0353
 62
252
 66
1
 10
0
 20
0
 30
0
  0
VERTEX
  8
LAYER_2
 10
104.2958
 20
96.1394
  0
VERTEX
  8
LAYER_2
 10
104.9197
 20
96.0615
  0
SEQEND
  0
POLYLINE
  8
LAYER_2
 40
0.0353
 41
0.0353
 62
252
 66
1
 10
0
 20
0
 30
0
  0
VERTEX
  8
LAYER_2
 10
105.2317
 20
96.0225
  0
VERTEX
  8
LAYER_2
 10
105.2705
 20
95.9833
  0
VERTEX
  8
LAYER_2
 10
105.8555
 20
95.9833
  0
SEQEND
  0
POLYLINE
  8
LAYER_2
 40
0.0353
 41
0.0353
 62
252
 66
1
 10
0
 20
0
 30
0
  0
VERTEX
  8
LAYER_2
 10
106.2066
 20
95.9835
  0
VERTEX
  8
LAYER_2
 10
106.7136
 20
95.9443
  0
SEQEND
  0
POLYLINE
  8
LAYER_2
 40
0.0353
 41
0.0353
 62
252
 66
1
 10
0
 20
0
 30
0
  0
VERTEX
  8
LAYER_2
 10
98.4076
 20
96.7634
  0
VERTEX
  8
LAYER_2
 10
98.9146
 20
96.4903
  0
SEQEND
  0
POLYLINE
  8
LAYER_2
 40
0.0353
 41
0.0353
 62
252
 66
1
 10
0
 20
0
 30
0
  0
VERTEX
  8
LAYER_2
 10
99.2265
 20
96.3344
  0
VERTEX
  8
LAYER_2
 10
99.6164
 20
96.1393
  0
VERTEX
  8
LAYER_2
 10
99.7723
 20
96.0613
  0
SEQEND
  0
POLYLINE
  8
LAYER_2
 40
0.0353
 41
0.0353
 62
252
 66
1
 10
0
 20
0
 30
0
  0
VERTEX
  8
LAYER_2
 10
100.0844
 20
95.9445
  0
VERTEX
  8
LAYER_2
 10
100.6694
 20
95.7105
  0
SEQEND
  0
POLYLINE
  8
LAYER_2
 40
0.0353
 41
0.0353
 62
252
 66
1
 10
0
 20
0
 30
0
  0
VERTEX
  8
LAYER_2
 10
100.9422
 20
95.5935
  0
VERTEX
  8
LAYER_2
 10
101.5661
 20
95.3984
  0
SEQEND
  0
POLYLINE
  8
LAYER_2
 40
0.0353
 41
0.0353
 62
252
 66
1
 10
0
 20
0
 30
0
  0
VERTEX
  8
LAYER_2
 10
101.8781
 20
95.3206
  0
VERTEX
  8
LAYER_2
 10
102.1513
 20
95.2034
  0
VERTEX
  8
LAYER_2
 10
102.4632
 20
95.1646
  0
SEQEND
  0
POLYLINE
  8
LAYER_2
 40
0.0353
 41
0.0353
 62
252
 66
1
 10
0
 20
0
 30
0
  0
VERTEX
  8
LAYER_2
 10
102.775
 20
95.0866
  0
VERTEX
  8
LAYER_2
 10
103.3988
 20
94.9306
  0
SEQEND
  0
POLYLINE
  8
LAYER_2
 40
0.0353
 41
0.0353
 62
252
 66
1
 10
0
 20
0
 30
0
  0
VERTEX
  8
LAYER_2
 10
103.7109
 20
94.8916
  0
VERTEX
  8
LAYER_2
 10
104.3347
 20
94.8136
  0
SEQEND
  0
POLYLINE
  8
LAYER_2
 40
0.0353
 41
0.0353
 62
252
 66
1
 10
0
 20
0
 30
0
  0
VERTEX
  8
LAYER_2
 10
104.6468
 20
94.7746
  0
VERTEX
  8
LAYER_2
 10
104.8419
 20
94.7354
  0
VERTEX
  8
LAYER_2
 10
105.3098
 20
94.6966
  0
SEQEND
  0
POLYLINE
  8
LAYER_2
 40
0.0353
 41
0.0353
 62
252
 66
1
 10
0
 20
0
 30
0
  0
VERTEX
  8
LAYER_2
 10
105.6217
 20
94.6966
  0
VERTEX
  8
LAYER_2
 10
106.2067
 20
94.6575
  0
VERTEX
  8
LAYER_2
 10
106.3235
 20
94.6575
  0
VERTEX
  8
LAYER_2
 10
106.4015
 20
94.6187
  0
VERTEX
  8
LAYER_2
 10
106.4794
 20
94.5795
  0
VERTEX
  8
LAYER_2
 10
106.5574
 20
94.5015
  0
VERTEX
  8
LAYER_2
 10
106.6354
 20
94.4235
  0
VERTEX
  8
LAYER_2
 10
106.6746
 20
94.3455
  0
VERTEX
  8
LAYER_2
 10
106.7134
 20
94.2676
  0
VERTEX
  8
LAYER_2
 10
106.7134
 20
94.1508
  0
SEQEND
  0
POLYLINE
  8
LAYER_2
 40
0.0353
 41
0.0353
 62
252
 66
1
 10
0
 20
0
 30
0
  0
VERTEX
  8
LAYER_2
 10
113.8106
 20
95.9445
  0
VERTEX
  8
LAYER_2
 10
114.3177
 20
95.9836
  0
SEQEND
  0
POLYLINE
  8
LAYER_2
 40
0.0353
 41
0.0353
 62
252
 66
1
 10
0
 20
0
 30
0
  0
VERTEX
  8
LAYER_2
 10
114.6685
 20
95.9835
  0
VERTEX
  8
LAYER_2
 10
115.2536
 20
95.9835
  0
VERTEX
  8
LAYER_2
 10
115.2924
 20
96.0227
  0
SEQEND
  0
POLYLINE
  8
LAYER_2
 40
0.0353
 41
0.0353
 62
252
 66
1
 10
0
 20
0
 30
0
  0
VERTEX
  8
LAYER_2
 10
115.6044
 20
96.0615
  0
VERTEX
  8
LAYER_2
 10
116.2282
 20
96.1394
  0
SEQEND
  0
POLYLINE
  8
LAYER_2
 40
0.0353
 41
0.0353
 62
252
 66
1
 10
0
 20
0
 30
0
  0
VERTEX
  8
LAYER_2
 10
116.5403
 20
96.1784
  0
VERTEX
  8
LAYER_2
 10
116.6962
 20
96.1784
  0
VERTEX
  8
LAYER_2
 10
117.1641
 20
96.2956
  0
SEQEND
  0
POLYLINE
  8
LAYER_2
 40
0.0353
 41
0.0353
 62
252
 66
1
 10
0
 20
0
 30
0
  0
VERTEX
  8
LAYER_2
 10
117.4761
 20
96.3734
  0
VERTEX
  8
LAYER_2
 10
118.1
 20
96.4906
  0
SEQEND
  0
POLYLINE
  8
LAYER_2
 40
0.0353
 41
0.0353
 62
252
 66
1
 10
0
 20
0
 30
0
  0
VERTEX
  8
LAYER_2
 10
118.4121
 20
96.6074
  0
VERTEX
  8
LAYER_2
 10
118.9971
 20
96.8025
  0
SEQEND
  0
POLYLINE
  8
LAYER_2
 40
0.0353
 41
0.0353
 62
252
 66
1
 10
0
 20
0
 30
0
  0
VERTEX
  8
LAYER_2
 10
119.309
 20
96.8804
  0
VERTEX
  8
LAYER_2
 10
119.5041
 20
96.9583
  0
VERTEX
  8
LAYER_2
 10
119.894
 20
97.1143
  0
SEQEND
  0
POLYLINE
  8
LAYER_2
 40
0.0353
 41
0.0353
 62
252
 66
1
 10
0
 20
0
 30
0
  0
VERTEX
  8
LAYER_2
 10
120.1668
 20
97.2703
  0
VERTEX
  8
LAYER_2
 10
120.7519
 20
97.5042
  0
SEQEND
  0
POLYLINE
  8
LAYER_2
 40
0.0353
 41
0.0353
 62
252
 66
1
 10
0
 20
0
 30
0
  0
VERTEX
  8
LAYER_2
 10
121.0247
 20
97.6603
  0
VERTEX
  8
LAYER_2
 10
121.6098
 20
97.9722
  0
SEQEND
  0
POLYLINE
  8
LAYER_2
 40
0.0353
 41
0.0353
 62
252
 66
1
 10
0
 20
0
 30
0
  0
VERTEX
  8
LAYER_2
 10
121.8826
 20
98.1282
  0
VERTEX
  8
LAYER_2
 10
122.1165
 20
98.2842
  0
VERTEX
  8
LAYER_2
 10
122.3896
 20
98.4793
  0
SEQEND
  0
POLYLINE
  8
LAYER_2
 40
0.0353
 41
0.0353
 62
252
 66
1
 10
0
 20
0
 30
0
  0
VERTEX
  8
LAYER_2
 10
122.6625
 20
98.6741
  0
VERTEX
  8
LAYER_2
 10
123.1696
 20
99.0252
  0
SEQEND
  0
POLYLINE
  8
LAYER_2
 40
0.0353
 41
0.0353
 62
252
 66
1
 10
0
 20
0
 30
0
  0
VERTEX
  8
LAYER_2
 10
123.4424
 20
99.2201
  0
VERTEX
  8
LAYER_2
 10
123.9103
 20
99.61
  0
SEQEND
  0
POLYLINE
  8
LAYER_2
 40
0.0353
 41
0.0353
 62
252
 66
1
 10
0
 20
0
 30
0
  0
VERTEX
  8
LAYER_2
 10
124.1443
 20
99.844
  0
VERTEX
  8
LAYER_2
 10
124.4175
 20
100.0391
  0
VERTEX
  8
LAYER_2
 10
124.6122
 20
100.2731
  0
SEQEND
  0
POLYLINE
  8
LAYER_2
 40
0.0353
 41
0.0353
 62
252
 66
1
 10
0
 20
0
 30
0
  0
VERTEX
  8
LAYER_2
 10
124.8462
 20
100.5069
  0
VERTEX
  8
LAYER_2
 10
125.2753
 20
100.936
  0
SEQEND
  0
POLYLINE
  8
LAYER_2
 40
0.0353
 41
0.0353
 62
252
 66
1
 10
0
 20
0
 30
0
  0
VERTEX
  8
LAYER_2
 10
125.5092
 20
101.1698
  0
VERTEX
  8
LAYER_2
 10
125.8991
 20
101.6769
  0
SEQEND
  0
POLYLINE
  8
LAYER_2
 40
0.0353
 41
0.0353
 62
252
 66
1
 10
0
 20
0
 30
0
  0
VERTEX
  8
LAYER_2
 10
126.0941
 20
101.9497
  0
VERTEX
  8
LAYER_2
 10
126.328
 20
102.2616
  0
VERTEX
  8
LAYER_2
 10
126.484
 20
102.4568
  0
SEQEND
  0
POLYLINE
  8
LAYER_2
 40
0.0353
 41
0.0353
 62
252
 66
1
 10
0
 20
0
 30
0
  0
VERTEX
  8
LAYER_2
 10
126.64
 20
102.6906
  0
VERTEX
  8
LAYER_2
 10
126.9911
 20
103.2365
  0
SEQEND
  0
POLYLINE
  8
LAYER_2
 40
0.0353
 41
0.0353
 62
252
 66
1
 10
0
 20
0
 30
0
  0
VERTEX
  8
LAYER_2
 10
127.1469
 20
103.5095
  0
VERTEX
  8
LAYER_2
 10
127.4589
 20
104.0946
  0
SEQEND
  0
POLYLINE
  8
LAYER_2
 40
0.0353
 41
0.0353
 62
252
 66
1
 10
0
 20
0
 30
0
  0
VERTEX
  8
LAYER_2
 10
127.5759
 20
104.3674
  0
VERTEX
  8
LAYER_2
 10
127.8098
 20
104.7573
  0
VERTEX
  8
LAYER_2
 10
127.849
 20
104.9133
  0
SEQEND
  0
POLYLINE
  8
LAYER_2
 40
0.0353
 41
0.0353
 62
252
 66
1
 10
0
 20
0
 30
0
  0
VERTEX
  8
LAYER_2
 10
127.9658
 20
105.2253
  0
VERTEX
  8
LAYER_2
 10
128.1998
 20
105.8103
  0
SEQEND
  0
POLYLINE
  8
LAYER_2
 40
0.0353
 41
0.0353
 62
252
 66
1
 10
0
 20
0
 30
0
  0
VERTEX
  8
LAYER_2
 10
128.3558
 20
106.1222
  0
VERTEX
  8
LAYER_2
 10
128.5117
 20
106.7072
  0
SEQEND
  0
POLYLINE
  8
LAYER_2
 40
0.0353
 41
0.0353
 62
252
 66
1
 10
0
 20
0
 30
0
  0
VERTEX
  8
LAYER_2
 10
128.5898
 20
107.0191
  0
VERTEX
  8
LAYER_2
 10
128.7457
 20
107.5261
  0
SEQEND
  0
POLYLINE
  8
LAYER_2
 40
0.0353
 41
0.0353
 62
252
 66
1
 10
0
 20
0
 30
0
  0
VERTEX
  8
LAYER_2
 10
114.1226
 20
94.6577
  0
VERTEX
  8
LAYER_2
 10
114.7076
 20
94.6968
  0
SEQEND
  0
POLYLINE
  8
LAYER_2
 40
0.0353
 41
0.0353
 62
252
 66
1
 10
0
 20
0
 30
0
  0
VERTEX
  8
LAYER_2
 10
115.0195
 20
94.6966
  0
VERTEX
  8
LAYER_2
 10
115.6825
 20
94.7358
  0
SEQEND
  0
POLYLINE
  8
LAYER_2
 40
0.0353
 41
0.0353
 62
252
 66
1
 10
0
 20
0
 30
0
  0
VERTEX
  8
LAYER_2
 10
115.9944
 20
94.7746
  0
VERTEX
  8
LAYER_2
 10
116.6182
 20
94.8526
  0
SEQEND
  0
POLYLINE
  8
LAYER_2
 40
0.0353
 41
0.0353
 62
252
 66
1
 10
0
 20
0
 30
0
  0
VERTEX
  8
LAYER_2
 10
116.9302
 20
94.9306
  0
VERTEX
  8
LAYER_2
 10
117.2421
 20
94.9698
  0
VERTEX
  8
LAYER_2
 10
117.554
 20
95.0478
  0
SEQEND
  0
POLYLINE
  8
LAYER_2
 40
0.0353
 41
0.0353
 62
252
 66
1
 10
0
 20
0
 30
0
  0
VERTEX
  8
LAYER_2
 10
117.8661
 20
95.1256
  0
VERTEX
  8
LAYER_2
 10
118.4511
 20
95.2815
  0
SEQEND
  0
POLYLINE
  8
LAYER_2
 40
0.0353
 41
0.0353
 62
252
 66
1
 10
0
 20
0
 30
0
  0
VERTEX
  8
LAYER_2
 10
118.763
 20
95.3595
  0
VERTEX
  8
LAYER_2
 10
118.8022
 20
95.3595
  0
VERTEX
  8
LAYER_2
 10
119.3868
 20
95.5547
  0
SEQEND
  0
POLYLINE
  8
LAYER_2
 40
0.0353
 41
0.0353
 62
252
 66
1
 10
0
 20
0
 30
0
  0
VERTEX
  8
LAYER_2
 10
119.6599
 20
95.6715
  0
VERTEX
  8
LAYER_2
 10
120.2837
 20
95.8666
  0
SEQEND
  0
POLYLINE
  8
LAYER_2
 40
0.0353
 41
0.0353
 62
252
 66
1
 10
0
 20
0
 30
0
  0
VERTEX
  8
LAYER_2
 10
120.5568
 20
96.0225
  0
VERTEX
  8
LAYER_2
 10
121.1418
 20
96.2564
  0
SEQEND
  0
POLYLINE
  8
LAYER_2
 40
0.0353
 41
0.0353
 62
252
 66
1
 10
0
 20
0
 30
0
  0
VERTEX
  8
LAYER_2
 10
121.4147
 20
96.4124
  0
VERTEX
  8
LAYER_2
 10
121.7266
 20
96.5296
  0
VERTEX
  8
LAYER_2
 10
121.9997
 20
96.6855
  0
SEQEND
  0
POLYLINE
  8
LAYER_2
 40
0.0353
 41
0.0353
 62
252
 66
1
 10
0
 20
0
 30
0
  0
VERTEX
  8
LAYER_2
 10
122.2725
 20
96.8804
  0
VERTEX
  8
LAYER_2
 10
122.8184
 20
97.1923
  0
SEQEND
  0
POLYLINE
  8
LAYER_2
 40
0.0353
 41
0.0353
 62
252
 66
1
 10
0
 20
0
 30
0
  0
VERTEX
  8
LAYER_2
 10
123.0915
 20
97.3483
  0
VERTEX
  8
LAYER_2
 10
123.5985
 20
97.7382
  0
SEQEND
  0
POLYLINE
  8
LAYER_2
 40
0.0353
 41
0.0353
 62
252
 66
1
 10
0
 20
0
 30
0
  0
VERTEX
  8
LAYER_2
 10
123.8323
 20
97.8942
  0
VERTEX
  8
LAYER_2
 10
124.3394
 20
98.2841
  0
VERTEX
  8
LAYER_2
 10
124.3782
 20
98.2841
  0
SEQEND
  0
POLYLINE
  8
LAYER_2
 40
0.0353
 41
0.0353
 62
252
 66
1
 10
0
 20
0
 30
0
  0
VERTEX
  8
LAYER_2
 10
124.6123
 20
98.4792
  0
VERTEX
  8
LAYER_2
 10
125.0801
 20
98.9082
  0
SEQEND
  0
POLYLINE
  8
LAYER_2
 40
0.0353
 41
0.0353
 62
252
 66
1
 10
0
 20
0
 30
0
  0
VERTEX
  8
LAYER_2
 10
125.3142
 20
99.1421
  0
VERTEX
  8
LAYER_2
 10
125.5481
 20
99.3372
  0
VERTEX
  8
LAYER_2
 10
125.782
 20
99.5711
  0
SEQEND
  0
POLYLINE
  8
LAYER_2
 40
0.0353
 41
0.0353
 62
252
 66
1
 10
0
 20
0
 30
0
  0
VERTEX
  8
LAYER_2
 10
125.9771
 20
99.805
  0
VERTEX
  8
LAYER_2
 10
126.4061
 20
100.2729
  0
SEQEND
  0
POLYLINE
  8
LAYER_2
 40
0.0353
 41
0.0353
 62
252
 66
1
 10
0
 20
0
 30
0
  0
VERTEX
  8
LAYER_2
 10
126.64
 20
100.5069
  0
VERTEX
  8
LAYER_2
 10
127.0299
 20
101.014
  0
SEQEND
  0
POLYLINE
  8
LAYER_2
 40
0.0353
 41
0.0353
 62
252
 66
1
 10
0
 20
0
 30
0
  0
VERTEX
  8
LAYER_2
 10
127.1859
 20
101.2478
  0
VERTEX
  8
LAYER_2
 10
127.5758
 20
101.7548
  0
SEQEND
  0
POLYLINE
  8
LAYER_2
 40
0.0353
 41
0.0353
 62
252
 66
1
 10
0
 20
0
 30
0
  0
VERTEX
  8
LAYER_2
 10
127.7709
 20
102.0277
  0
VERTEX
  8
LAYER_2
 10
128.0828
 20
102.5736
  0
SEQEND
  0
POLYLINE
  8
LAYER_2
 40
0.0353
 41
0.0353
 62
252
 66
1
 10
0
 20
0
 30
0
  0
VERTEX
  8
LAYER_2
 10
128.2388
 20
102.8466
  0
VERTEX
  8
LAYER_2
 10
128.3948
 20
103.0805
  0
VERTEX
  8
LAYER_2
 10
128.5507
 20
103.3924
  0
SEQEND
  0
POLYLINE
  8
LAYER_2
 40
0.0353
 41
0.0353
 62
252
 66
1
 10
0
 20
0
 30
0
  0
VERTEX
  8
LAYER_2
 10
128.7068
 20
103.6655
  0
VERTEX
  8
LAYER_2
 10
128.9799
 20
104.2505
  0
SEQEND
  0
POLYLINE
  8
LAYER_2
 40
0.0353
 41
0.0353
 62
252
 66
1
 10
0
 20
0
 30
0
  0
VERTEX
  8
LAYER_2
 10
129.1357
 20
104.5234
  0
VERTEX
  8
LAYER_2
 10
129.3308
 20
105.1472
  0
SEQEND
  0
POLYLINE
  8
LAYER_2
 40
0.0353
 41
0.0353
 62
252
 66
1
 10
0
 20
0
 30
0
  0
VERTEX
  8
LAYER_2
 10
129.4477
 20
105.4203
  0
VERTEX
  8
LAYER_2
 10
129.6816
 20
106.0053
  0
SEQEND
  0
POLYLINE
  8
LAYER_2
 40
0.0353
 41
0.0353
 62
252
 66
1
 10
0
 20
0
 30
0
  0
VERTEX
  8
LAYER_2
 10
114.1226
 20
94.6577
  0
VERTEX
  8
LAYER_2
 10
114.0446
 20
94.6577
  0
VERTEX
  8
LAYER_2
 10
114.0054
 20
94.6185
  0
VERTEX
  8
LAYER_2
 10
113.9275
 20
94.6185
  0
VERTEX
  8
LAYER_2
 10
113.8886
 20
94.5797
  0
VERTEX
  8
LAYER_2
 10
113.8495
 20
94.5405
  0
VERTEX
  8
LAYER_2
 10
113.8107
 20
94.4625
  0
VERTEX
  8
LAYER_2
 10
113.8107
 20
94.4237
  0
VERTEX
  8
LAYER_2
 10
113.8107
 20
94.3457
  0
SEQEND
  0
POLYLINE
  8
LAYER_2
 40
0.0353
 41
0.0353
 62
252
 66
1
 10
0
 20
0
 30
0
  0
VERTEX
  8
LAYER_2
 10
130.3056
 20
106.3172
  0
VERTEX
  8
LAYER_2
 10
130.2276
 20
106.3172
  0
VERTEX
  8
LAYER_2
 10
130.1496
 20
106.3172
  0
VERTEX
  8
LAYER_2
 10
130.0716
 20
106.3172
  0
VERTEX
  8
LAYER_2
 10
129.9545
 20
106.3172
  0
VERTEX
  8
LAYER_2
 10
129.8765
 20
106.278
  0
VERTEX
  8
LAYER_2
 10
129.7985
 20
106.2
  0
VERTEX
  8
LAYER_2
 10
129.7597
 20
106.1612
  0
VERTEX
  8
LAYER_2
 10
129.7205
 20
106.0832
  0
VERTEX
  8
LAYER_2
 10
129.6817
 20
106.0053
  0
SEQEND
  0
POLYLINE
  8
LAYER_2
 40
0.0353
 41
0.0353
 62
252
 66
1
 10
0
 20
0
 30
0
  0
VERTEX
  8
LAYER_2
 10
113.8106
 20
92.7469
  0
VERTEX
  8
LAYER_2
 10
114.3957
 20
92.786
  0
SEQEND
  0
POLYLINE
  8
LAYER_2
 40
0.0353
 41
0.0353
 62
252
 66
1
 10
0
 20
0
 30
0
  0
VERTEX
  8
LAYER_2
 10
114.7075
 20
92.7859
  0
VERTEX
  8
LAYER_2
 10
115.1366
 20
92.7859
  0
VERTEX
  8
LAYER_2
 10
115.3705
 20
92.7859
  0
SEQEND
  0
POLYLINE
  8
LAYER_2
 40
0.0353
 41
0.0353
 62
252
 66
1
 10
0
 20
0
 30
0
  0
VERTEX
  8
LAYER_2
 10
115.6824
 20
92.8249
  0
VERTEX
  8
LAYER_2
 10
116.3062
 20
92.9029
  0
SEQEND
  0
POLYLINE
  8
LAYER_2
 40
0.0353
 41
0.0353
 62
252
 66
1
 10
0
 20
0
 30
0
  0
VERTEX
  8
LAYER_2
 10
116.6183
 20
92.9419
  0
VERTEX
  8
LAYER_2
 10
117.2421
 20
93.059
  0
SEQEND
  0
POLYLINE
  8
LAYER_2
 40
0.0353
 41
0.0353
 62
252
 66
1
 10
0
 20
0
 30
0
  0
VERTEX
  8
LAYER_2
 10
117.5542
 20
93.0979
  0
VERTEX
  8
LAYER_2
 10
117.7881
 20
93.137
  0
VERTEX
  8
LAYER_2
 10
118.178
 20
93.2538
  0
SEQEND
  0
POLYLINE
  8
LAYER_2
 40
0.0353
 41
0.0353
 62
252
 66
1
 10
0
 20
0
 30
0
  0
VERTEX
  8
LAYER_2
 10
118.49
 20
93.3318
  0
VERTEX
  8
LAYER_2
 10
119.0751
 20
93.449
  0
VERTEX
  8
LAYER_2
 10
119.6209
 20
93.6437
  0
SEQEND
  0
POLYLINE
  8
LAYER_2
 40
0.0353
 41
0.0353
 62
252
 66
1
 10
0
 20
0
 30
0
  0
VERTEX
  8
LAYER_2
 10
119.8939
 20
93.7607
  0
VERTEX
  8
LAYER_2
 10
120.5177
 20
93.9559
  0
SEQEND
  0
POLYLINE
  8
LAYER_2
 40
0.0353
 41
0.0353
 62
252
 66
1
 10
0
 20
0
 30
0
  0
VERTEX
  8
LAYER_2
 10
120.7907
 20
94.1117
  0
VERTEX
  8
LAYER_2
 10
121.3758
 20
94.3457
  0
SEQEND
  0
POLYLINE
  8
LAYER_2
 40
0.0353
 41
0.0353
 62
252
 66
1
 10
0
 20
0
 30
0
  0
VERTEX
  8
LAYER_2
 10
121.6486
 20
94.5017
  0
VERTEX
  8
LAYER_2
 10
122.0385
 20
94.6576
  0
VERTEX
  8
LAYER_2
 10
122.2337
 20
94.7748
  0
SEQEND
  0
POLYLINE
  8
LAYER_2
 40
0.0353
 41
0.0353
 62
252
 66
1
 10
0
 20
0
 30
0
  0
VERTEX
  8
LAYER_2
 10
122.5065
 20
94.9306
  0
VERTEX
  8
LAYER_2
 10
123.0524
 20
95.2425
  0
SEQEND
  0
POLYLINE
  8
LAYER_2
 40
0.0353
 41
0.0353
 62
252
 66
1
 10
0
 20
0
 30
0
  0
VERTEX
  8
LAYER_2
 10
123.3255
 20
95.4376
  0
VERTEX
  8
LAYER_2
 10
123.4034
 20
95.4767
  0
VERTEX
  8
LAYER_2
 10
123.8325
 20
95.7886
  0
SEQEND
  0
POLYLINE
  8
LAYER_2
 40
0.0353
 41
0.0353
 62
252
 66
1
 10
0
 20
0
 30
0
  0
VERTEX
  8
LAYER_2
 10
124.1054
 20
95.9835
  0
VERTEX
  8
LAYER_2
 10
124.6124
 20
96.3346
  0
SEQEND
  0
POLYLINE
  8
LAYER_2
 40
0.0353
 41
0.0353
 62
252
 66
1
 10
0
 20
0
 30
0
  0
VERTEX
  8
LAYER_2
 10
124.8462
 20
96.5294
  0
VERTEX
  8
LAYER_2
 10
125.3533
 20
96.9584
  0
SEQEND
  0
POLYLINE
  8
LAYER_2
 40
0.0353
 41
0.0353
 62
252
 66
1
 10
0
 20
0
 30
0
  0
VERTEX
  8
LAYER_2
 10
125.5871
 20
97.1533
  0
VERTEX
  8
LAYER_2
 10
125.9382
 20
97.4652
  0
VERTEX
  8
LAYER_2
 10
126.055
 20
97.5824
  0
SEQEND
  0
POLYLINE
  8
LAYER_2
 40
0.0353
 41
0.0353
 62
252
 66
1
 10
0
 20
0
 30
0
  0
VERTEX
  8
LAYER_2
 10
126.2501
 20
97.8162
  0
VERTEX
  8
LAYER_2
 10
126.7179
 20
98.2841
  0
SEQEND
  0
POLYLINE
  8
LAYER_2
 40
0.0353
 41
0.0353
 62
252
 66
1
 10
0
 20
0
 30
0
  0
VERTEX
  8
LAYER_2
 10
126.913
 20
98.5181
  0
VERTEX
  8
LAYER_2
 10
127.0301
 20
98.6353
  0
VERTEX
  8
LAYER_2
 10
127.342
 20
98.986
  0
SEQEND
  0
POLYLINE
  8
LAYER_2
 40
0.0353
 41
0.0353
 62
252
 66
1
 10
0
 20
0
 30
0
  0
VERTEX
  8
LAYER_2
 10
127.5369
 20
99.2591
  0
VERTEX
  8
LAYER_2
 10
127.9268
 20
99.7661
  0
SEQEND
  0
POLYLINE
  8
LAYER_2
 40
0.0353
 41
0.0353
 62
252
 66
1
 10
0
 20
0
 30
0
  0
VERTEX
  8
LAYER_2
 10
128.0828
 20
100
  0
VERTEX
  8
LAYER_2
 10
128.4339
 20
100.5458
  0
SEQEND
  0
POLYLINE
  8
LAYER_2
 40
0.0353
 41
0.0353
 62
252
 66
1
 10
0
 20
0
 30
0
  0
VERTEX
  8
LAYER_2
 10
128.6287
 20
100.8189
  0
VERTEX
  8
LAYER_2
 10
128.9019
 20
101.2479
  0
VERTEX
  8
LAYER_2
 10
128.9406
 20
101.3647
  0
SEQEND
  0
POLYLINE
  8
LAYER_2
 40
0.0353
 41
0.0353
 62
252
 66
1
 10
0
 20
0
 30
0
  0
VERTEX
  8
LAYER_2
 10
129.0967
 20
101.6378
  0
VERTEX
  8
LAYER_2
 10
129.3698
 20
102.1836
  0
SEQEND
  0
POLYLINE
  8
LAYER_2
 40
0.0353
 41
0.0353
 62
252
 66
1
 10
0
 20
0
 30
0
  0
VERTEX
  8
LAYER_2
 10
129.5256
 20
102.4956
  0
VERTEX
  8
LAYER_2
 10
129.6036
 20
102.6908
  0
VERTEX
  8
LAYER_2
 10
129.7596
 20
103.0807
  0
SEQEND
  0
POLYLINE
  8
LAYER_2
 40
0.0353
 41
0.0353
 62
252
 66
1
 10
0
 20
0
 30
0
  0
VERTEX
  8
LAYER_2
 10
129.8766
 20
103.3535
  0
VERTEX
  8
LAYER_2
 10
130.1105
 20
103.9386
  0
SEQEND
  0
POLYLINE
  8
LAYER_2
 40
0.0353
 41
0.0353
 62
252
 66
1
 10
0
 20
0
 30
0
  0
VERTEX
  8
LAYER_2
 10
130.2276
 20
104.2504
  0
VERTEX
  8
LAYER_2
 10
130.4227
 20
104.8355
  0
SEQEND
  0
POLYLINE
  8
LAYER_2
 40
0.0353
 41
0.0353
 62
252
 66
1
 10
0
 20
0
 30
0
  0
VERTEX
  8
LAYER_2
 10
130.5005
 20
105.1473
  0
VERTEX
  8
LAYER_2
 10
130.6565
 20
105.6932
  0
VERTEX
  8
LAYER_2
 10
130.6957
 20
105.8103
  0
VERTEX
  8
LAYER_2
 10
130.6565
 20
105.8883
  0
VERTEX
  8
LAYER_2
 10
130.6565
 20
105.9663
  0
VERTEX
  8
LAYER_2
 10
130.6177
 20
106.0443
  0
VERTEX
  8
LAYER_2
 10
130.5785
 20
106.1222
  0
VERTEX
  8
LAYER_2
 10
130.5005
 20
106.2002
  0
VERTEX
  8
LAYER_2
 10
130.4226
 20
106.239
  0
VERTEX
  8
LAYER_2
 10
130.3446
 20
106.2782
  0
SEQEND
  0
INSERT
  8
LAYER_2
  2
AIGNBL0201003E
 10
0
 20
0
 30
0
  0
POLYLINE
  8
LAYER_2
 40
0.0353
 41
0.0353
 62
252
 66
1
 10
0
 20
0
 30
0
  0
VERTEX
  8
LAYER_2
 10
121.8826
 20
93.4488
  0
VERTEX
  8
LAYER_2
 10
122.5064
 20
93.7999
  0
SEQEND
  0
POLYLINE
  8
LAYER_2
 40
0.0353
 41
0.0353
 62
252
 66
1
 10
0
 20
0
 30
0
  0
VERTEX
  8
LAYER_2
 10
122.7795
 20
93.9557
  0
VERTEX
  8
LAYER_2
 10
123.2865
 20
94.2288
  0
VERTEX
  8
LAYER_2
 10
123.3645
 20
94.2288
  0
SEQEND
  0
POLYLINE
  8
LAYER_2
 40
0.0353
 41
0.0353
 62
252
 66
1
 10
0
 20
0
 30
0
  0
VERTEX
  8
LAYER_2
 10
123.5984
 20
94.4237
  0
VERTEX
  8
LAYER_2
 10
124.1443
 20
94.7748
  0
SEQEND
  0
POLYLINE
  8
LAYER_2
 40
0.0353
 41
0.0353
 62
252
 66
1
 10
0
 20
0
 30
0
  0
VERTEX
  8
LAYER_2
 10
124.4173
 20
94.9306
  0
VERTEX
  8
LAYER_2
 10
124.6512
 20
95.0866
  0
VERTEX
  8
LAYER_2
 10
124.9243
 20
95.2817
  0
SEQEND
  0
POLYLINE
  8
LAYER_2
 40
0.0353
 41
0.0353
 62
252
 66
1
 10
0
 20
0
 30
0
  0
VERTEX
  8
LAYER_2
 10
125.1972
 20
95.4765
  0
VERTEX
  8
LAYER_2
 10
125.7042
 20
95.8664
  0
SEQEND
  0
POLYLINE
  8
LAYER_2
 40
0.0353
 41
0.0353
 62
252
 66
1
 10
0
 20
0
 30
0
  0
VERTEX
  8
LAYER_2
 10
125.9381
 20
96.0615
  0
VERTEX
  8
LAYER_2
 10
126.4059
 20
96.4905
  0
SEQEND
  0
POLYLINE
  8
LAYER_2
 40
0.0353
 41
0.0353
 62
252
 66
1
 10
0
 20
0
 30
0
  0
VERTEX
  8
LAYER_2
 10
126.64
 20
96.6854
  0
VERTEX
  8
LAYER_2
 10
127.1471
 20
97.1145
  0
SEQEND
  0
POLYLINE
  8
LAYER_2
 40
0.0353
 41
0.0353
 62
252
 66
1
 10
0
 20
0
 30
0
  0
VERTEX
  8
LAYER_2
 10
127.3419
 20
97.3483
  0
VERTEX
  8
LAYER_2
 10
127.771
 20
97.8162
  0
SEQEND
  0
POLYLINE
  8
LAYER_2
 40
0.0353
 41
0.0353
 62
252
 66
1
 10
0
 20
0
 30
0
  0
VERTEX
  8
LAYER_2
 10
128.0048
 20
98.0502
  0
VERTEX
  8
LAYER_2
 10
128.2388
 20
98.2841
  0
VERTEX
  8
LAYER_2
 10
128.4339
 20
98.5181
  0
SEQEND
  0
POLYLINE
  8
LAYER_2
 40
0.0353
 41
0.0353
 62
252
 66
1
 10
0
 20
0
 30
0
  0
VERTEX
  8
LAYER_2
 10
128.6287
 20
98.7521
  0
VERTEX
  8
LAYER_2
 10
129.0186
 20
99.2592
  0
SEQEND
  0
POLYLINE
  8
LAYER_2
 40
0.0353
 41
0.0353
 62
252
 66
1
 10
0
 20
0
 30
0
  0
VERTEX
  8
LAYER_2
 10
129.2137
 20
99.493
  0
VERTEX
  8
LAYER_2
 10
129.2529
 20
99.5322
  0
VERTEX
  8
LAYER_2
 10
129.6036
 20
100.0389
  0
SEQEND
  0
POLYLINE
  8
LAYER_2
 40
0.0353
 41
0.0353
 62
252
 66
1
 10
0
 20
0
 30
0
  0
VERTEX
  8
LAYER_2
 10
129.7596
 20
100.2729
  0
VERTEX
  8
LAYER_2
 10
130.1887
 20
100.858
  0
SEQEND
  0
POLYLINE
  8
LAYER_2
 40
0.0353
 41
0.0353
 62
252
 66
1
 10
0
 20
0
 30
0
  0
VERTEX
  8
LAYER_2
 10
112.5238
 20
94.0727
  0
VERTEX
  8
LAYER_2
 10
112.5238
 20
94.9305
  0
SEQEND
  0
POLYLINE
  8
LAYER_2
 40
0.0353
 41
0.0353
 62
252
 66
1
 10
0
 20
0
 30
0
  0
VERTEX
  8
LAYER_2
 10
112.5238
 20
92.4739
  0
VERTEX
  8
LAYER_2
 10
112.5238
 20
93.0978
  0
SEQEND
  0
POLYLINE
  8
LAYER_2
 40
0.0353
 41
0.0353
 62
252
 66
1
 10
0
 20
0
 30
0
  0
VERTEX
  8
LAYER_2
 10
112.5238
 20
93.4098
  0
VERTEX
  8
LAYER_2
 10
112.5238
 20
94.0728
  0
SEQEND
  0
POLYLINE
  8
LAYER_2
 40
0.0353
 41
0.0353
 62
252
 66
1
 10
0
 20
0
 30
0
  0
VERTEX
  8
LAYER_2
 10
128.1998
 20
105.6932
  0
VERTEX
  8
LAYER_2
 10
128.6289
 20
105.4981
  0
SEQEND
  0
POLYLINE
  8
LAYER_2
 40
0.0353
 41
0.0353
 62
252
 66
1
 10
0
 20
0
 30
0
  0
VERTEX
  8
LAYER_2
 10
128.9407
 20
105.3813
  0
VERTEX
  8
LAYER_2
 10
129.4086
 20
105.2253
  0
SEQEND
  0
POLYLINE
  8
LAYER_2
 40
0.0353
 41
0.0353
 62
252
 66
1
 10
0
 20
0
 30
0
  0
VERTEX
  8
LAYER_2
 10
126.835
 20
103.0026
  0
VERTEX
  8
LAYER_2
 10
127.2641
 20
102.7295
  0
SEQEND
  0
POLYLINE
  8
LAYER_2
 40
0.0353
 41
0.0353
 62
252
 66
1
 10
0
 20
0
 30
0
  0
VERTEX
  8
LAYER_2
 10
127.5369
 20
102.5737
  0
VERTEX
  8
LAYER_2
 10
127.966
 20
102.3005
  0
SEQEND
  0
POLYLINE
  8
LAYER_2
 66
1
 10
0
 20
0
 30
0
  0
VERTEX
  8
LAYER_2
 10
112.6018
 20
95.9445
  0
VERTEX
  8
LAYER_2
 10
114.7076
 20
95.9445
  0
SEQEND
  0
POLYLINE
  8
LAYER_2
 66
1
 10
0
 20
0
 30
0
  0
VERTEX
  8
LAYER_2
 10
112.6018
 20
107.955
  0
VERTEX
  8
LAYER_2
 10
114.7076
 20
107.955
  0
SEQEND
  0
POLYLINE
  8
LAYER_2
 66
1
 10
0
 20
0
 30
0
  0
VERTEX
  8
LAYER_2
 10
114.5905
 20
97.4653
  0
VERTEX
  8
LAYER_2
 10
114.5905
 20
99.2592
  0
SEQEND
  0
POLYLINE
  8
LAYER_2
 66
1
 10
0
 20
0
 30
0
  0
VERTEX
  8
LAYER_2
 10
114.5905
 20
106.4731
  0
VERTEX
  8
LAYER_2
 10
114.5905
 20
104.6792
  0
SEQEND
  0
POLYLINE
  8
LAYER_2
 40
0.05
 41
0.05
 66
1
 10
0
 20
0
 30
0
 70
1
  0
VERTEX
  8
LAYER_2
 10
114.3176
 20
97.4653
  0
VERTEX
  8
LAYER_2
 10
114.8246
 20
97.4653
  0
VERTEX
  8
LAYER_2
 10
114.5907
 20
95.9445
  0
SEQEND
  0
POLYLINE
  8
LAYER_2
 66
1
 10
0
 20
0
 30
0
 70
1
  0
VERTEX
  8
LAYER_2
 10
114.3176
 20
97.4653
  0
VERTEX
  8
LAYER_2
 10
114.8246
 20
97.4653
  0
VERTEX
  8
LAYER_2
 10
114.5907
 20
95.9445
  0
SEQEND
  0
POLYLINE
  8
LAYER_2
 40
0.05
 41
0.05
 66
1
 10
0
 20
0
 30
0
 70
1
  0
VERTEX
  8
LAYER_2
 10
114.3176
 20
106.4731
  0
VERTEX
  8
LAYER_2
 10
114.8246
 20
106.4731
  0
VERTEX
  8
LAYER_2
 10
114.5907
 20
107.9551
  0
SEQEND
  0
POLYLINE
  8
LAYER_2
 66
1
 10
0
 20
0
 30
0
 70
1
  0
VERTEX
  8
LAYER_2
 10
114.3176
 20
106.4731
  0
VERTEX
  8
LAYER_2
 10
114.8246
 20
106.4731
  0
VERTEX
  8
LAYER_2
 10
114.5907
 20
107.9551
  0
SEQEND
  0
TEXT
  8
LAYER_2
 10
115.8713
 20
98.9469
 11
115.8713
 21
98.9469
 40
2.8433
 41
0.5
 50
89.99999999
  1
120
  0
POLYLINE
  8
LAYER_2
 66
1
 10
0
 20
0
 30
0
  0
VERTEX
  8
LAYER_2
 10
92.2853
 20
93.4488
  0
VERTEX
  8
LAYER_2
 10
92.2853
 20
88.2626
  0
SEQEND
  0
POLYLINE
  8
LAYER_2
 66
1
 10
0
 20
0
 30
0
  0
VERTEX
  8
LAYER_2
 10
128.2388
 20
93.4488
  0
VERTEX
  8
LAYER_2
 10
128.2388
 20
88.2626
  0
SEQEND
  0
POLYLINE
  8
LAYER_2
 66
1
 10
0
 20
0
 30
0
  0
VERTEX
  8
LAYER_2
 10
93.7672
 20
88.3794
  0
VERTEX
  8
LAYER_2
 10
107.4546
 20
88.3794
  0
SEQEND
  0
POLYLINE
  8
LAYER_2
 66
1
 10
0
 20
0
 30
0
  0
VERTEX
  8
LAYER_2
 10
126.757
 20
88.3794
  0
VERTEX
  8
LAYER_2
 10
113.0696
 20
88.3794
  0
SEQEND
  0
POLYLINE
  8
LAYER_2
 40
0.05
 41
0.05
 66
1
 10
0
 20
0
 30
0
 70
1
  0
VERTEX
  8
LAYER_2
 10
93.7672
 20
88.6134
  0
VERTEX
  8
LAYER_2
 10
93.7672
 20
88.1064
  0
VERTEX
  8
LAYER_2
 10
92.2852
 20
88.3795
  0
SEQEND
  0
POLYLINE
  8
LAYER_2
 66
1
 10
0
 20
0
 30
0
 70
1
  0
VERTEX
  8
LAYER_2
 10
93.7672
 20
88.6134
  0
VERTEX
  8
LAYER_2
 10
93.7672
 20
88.1064
  0
VERTEX
  8
LAYER_2
 10
92.2852
 20
88.3795
  0
SEQEND
  0
POLYLINE
  8
LAYER_2
 40
0.05
 41
0.05
 66
1
 10
0
 20
0
 30
0
 70
1
  0
VERTEX
  8
LAYER_2
 10
126.757
 20
88.6134
  0
VERTEX
  8
LAYER_2
 10
126.757
 20
88.1064
  0
VERTEX
  8
LAYER_2
 10
128.239
 20
88.3795
  0
SEQEND
  0
POLYLINE
  8
LAYER_2
 66
1
 10
0
 20
0
 30
0
 70
1
  0
VERTEX
  8
LAYER_2
 10
126.757
 20
88.6134
  0
VERTEX
  8
LAYER_2
 10
126.757
 20
88.1064
  0
VERTEX
  8
LAYER_2
 10
128.239
 20
88.3795
  0
SEQEND
  0
TEXT
  8
LAYER_2
 10
107.3376
 20
87.0593
 11
107.3376
 21
87.0593
 40
2.8433
 41
0.5
  1
360
  0
POLYLINE
  8
LAYER_2
 66
1
 10
0
 20
0
 30
0
  0
VERTEX
  8
LAYER_2
 10
91.2715
 20
107.955
  0
VERTEX
  8
LAYER_2
 10
78.3251
 20
107.955
  0
SEQEND
  0
POLYLINE
  8
LAYER_2
 66
1
 10
0
 20
0
 30
0
  0
VERTEX
  8
LAYER_2
 10
106.0896
 20
91.46
  0
VERTEX
  8
LAYER_2
 10
78.3253
 20
91.46
  0
SEQEND
  0
POLYLINE
  8
LAYER_2
 66
1
 10
0
 20
0
 30
0
  0
VERTEX
  8
LAYER_2
 10
78.4421
 20
106.4731
  0
VERTEX
  8
LAYER_2
 10
78.4421
 20
102.4175
  0
SEQEND
  0
POLYLINE
  8
LAYER_2
 66
1
 10
0
 20
0
 30
0
  0
VERTEX
  8
LAYER_2
 10
78.4421
 20
92.9419
  0
VERTEX
  8
LAYER_2
 10
78.4421
 20
96.9975
  0
SEQEND
  0
POLYLINE
  8
LAYER_2
 40
0.05
 41
0.05
 66
1
 10
0
 20
0
 30
0
 70
1
  0
VERTEX
  8
LAYER_2
 10
78.2081
 20
106.4731
  0
VERTEX
  8
LAYER_2
 10
78.676
 20
106.4731
  0
VERTEX
  8
LAYER_2
 10
78.4421
 20
107.9551
  0
SEQEND
  0
POLYLINE
  8
LAYER_2
 66
1
 10
0
 20
0
 30
0
 70
1
  0
VERTEX
  8
LAYER_2
 10
78.2081
 20
106.4731
  0
VERTEX
  8
LAYER_2
 10
78.676
 20
106.4731
  0
VERTEX
  8
LAYER_2
 10
78.4421
 20
107.9551
  0
SEQEND
  0
POLYLINE
  8
LAYER_2
 40
0.05
 41
0.05
 66
1
 10
0
 20
0
 30
0
 70
1
  0
VERTEX
  8
LAYER_2
 10
78.2081
 20
92.9419
  0
VERTEX
  8
LAYER_2
 10
78.676
 20
92.9419
  0
VERTEX
  8
LAYER_2
 10
78.4421
 20
91.4599
  0
SEQEND
  0
POLYLINE
  8
LAYER_2
 66
1
 10
0
 20
0
 30
0
 70
1
  0
VERTEX
  8
LAYER_2
 10
78.2081
 20
92.9419
  0
VERTEX
  8
LAYER_2
 10
78.676
 20
92.9419
  0
VERTEX
  8
LAYER_2
 10
78.4421
 20
91.4599
  0
SEQEND
  0
TEXT
  8
LAYER_2
 10
79.7619
 20
96.6852
 11
79.7619
 21
96.6852
 40
2.8433
 41
0.5
 50
89.99999999
  1
165
  0
POLYLINE
  8
LAYER_2
 66
1
 10
0
 20
0
 30
0
  0
VERTEX
  8
LAYER_2
 10
91.1935
 20
107.955
  0
VERTEX
  8
LAYER_2
 10
85.6562
 20
107.955
  0
SEQEND
  0
POLYLINE
  8
LAYER_2
 66
1
 10
0
 20
0
 30
0
  0
VERTEX
  8
LAYER_2
 10
91.1155
 20
106.4342
  0
VERTEX
  8
LAYER_2
 10
85.6562
 20
106.4342
  0
SEQEND
  0
POLYLINE
  8
LAYER_2
 66
1
 10
0
 20
0
 30
0
  0
VERTEX
  8
LAYER_2
 10
85.7732
 20
109.4758
  0
VERTEX
  8
LAYER_2
 10
85.7732
 20
110.9577
  0
SEQEND
  0
POLYLINE
  8
LAYER_2
 66
1
 10
0
 20
0
 30
0
  0
VERTEX
  8
LAYER_2
 10
85.7732
 20
104.9523
  0
VERTEX
  8
LAYER_2
 10
85.7732
 20
103.4315
  0
SEQEND
  0
POLYLINE
  8
LAYER_2
 66
1
 10
0
 20
0
 30
0
  0
VERTEX
  8
LAYER_2
 10
85.7732
 20
107.955
  0
VERTEX
  8
LAYER_2
 10
85.7732
 20
106.4342
  0
SEQEND
  0
POLYLINE
  8
LAYER_2
 40
0.05
 41
0.05
 66
1
 10
0
 20
0
 30
0
 70
1
  0
VERTEX
  8
LAYER_2
 10
85.5002
 20
109.4758
  0
VERTEX
  8
LAYER_2
 10
86.0072
 20
109.4758
  0
VERTEX
  8
LAYER_2
 10
85.7733
 20
107.955
  0
SEQEND
  0
POLYLINE
  8
LAYER_2
 66
1
 10
0
 20
0
 30
0
 70
1
  0
VERTEX
  8
LAYER_2
 10
85.5002
 20
109.4758
  0
VERTEX
  8
LAYER_2
 10
86.0072
 20
109.4758
  0
VERTEX
  8
LAYER_2
 10
85.7733
 20
107.955
  0
SEQEND
  0
POLYLINE
  8
LAYER_2
 40
0.05
 41
0.05
 66
1
 10
0
 20
0
 30
0
 70
1
  0
VERTEX
  8
LAYER_2
 10
85.5002
 20
104.9523
  0
VERTEX
  8
LAYER_2
 10
86.0072
 20
104.9523
  0
VERTEX
  8
LAYER_2
 10
85.7733
 20
106.4343
  0
SEQEND
  0
POLYLINE
  8
LAYER_2
 66
1
 10
0
 20
0
 30
0
 70
1
  0
VERTEX
  8
LAYER_2
 10
85.5002
 20
104.9523
  0
VERTEX
  8
LAYER_2
 10
86.0072
 20
104.9523
  0
VERTEX
  8
LAYER_2
 10
85.7733
 20
106.4343
  0
SEQEND
  0
TEXT
  8
LAYER_2
 10
85.1728
 20
104.8653
 11
85.1728
 21
104.8653
 40
2.8433
 41
0.5
 50
89.99999999
  1
15
  0
POLYLINE
  8
LAYER_2
 66
1
 10
0
 20
0
 30
0
  0
VERTEX
  8
LAYER_2
 10
92.2073
 20
93.4878
  0
VERTEX
  8
LAYER_2
 10
85.6563
 20
93.4878
  0
SEQEND
  0
POLYLINE
  8
LAYER_2
 66
1
 10
0
 20
0
 30
0
  0
VERTEX
  8
LAYER_2
 10
85.8122
 20
106.4342
  0
VERTEX
  8
LAYER_2
 10
85.8901
 20
106.4342
  0
SEQEND
  0
POLYLINE
  8
LAYER_2
 66
1
 10
0
 20
0
 30
0
  0
VERTEX
  8
LAYER_2
 10
85.7732
 20
95.0086
  0
VERTEX
  8
LAYER_2
 10
85.7732
 20
97.2704
  0
SEQEND
  0
POLYLINE
  8
LAYER_2
 66
1
 10
0
 20
0
 30
0
  0
VERTEX
  8
LAYER_2
 10
85.7732
 20
104.9523
  0
VERTEX
  8
LAYER_2
 10
85.7732
 20
102.6518
  0
SEQEND
  0
POLYLINE
  8
LAYER_2
 40
0.05
 41
0.05
 66
1
 10
0
 20
0
 30
0
 70
1
  0
VERTEX
  8
LAYER_2
 10
85.5002
 20
95.0086
  0
VERTEX
  8
LAYER_2
 10
86.0072
 20
95.0086
  0
VERTEX
  8
LAYER_2
 10
85.7733
 20
93.4878
  0
SEQEND
  0
POLYLINE
  8
LAYER_2
 66
1
 10
0
 20
0
 30
0
 70
1
  0
VERTEX
  8
LAYER_2
 10
85.5002
 20
95.0086
  0
VERTEX
  8
LAYER_2
 10
86.0072
 20
95.0086
  0
VERTEX
  8
LAYER_2
 10
85.7733
 20
93.4878
  0
SEQEND
  0
POLYLINE
  8
LAYER_2
 40
0.05
 41
0.05
 66
1
 10
0
 20
0
 30
0
 70
1
  0
VERTEX
  8
LAYER_2
 10
85.5002
 20
104.9523
  0
VERTEX
  8
LAYER_2
 10
86.0072
 20
104.9523
  0
VERTEX
  8
LAYER_2
 10
85.7733
 20
106.4343
  0
SEQEND
  0
POLYLINE
  8
LAYER_2
 66
1
 10
0
 20
0
 30
0
 70
1
  0
VERTEX
  8
LAYER_2
 10
85.5002
 20
104.9523
  0
VERTEX
  8
LAYER_2
 10
86.0072
 20
104.9523
  0
VERTEX
  8
LAYER_2
 10
85.7733
 20
106.4343
  0
SEQEND
  0
TEXT
  8
LAYER_2
 10
87.0545
 20
96.9584
 11
87.0545
 21
96.9584
 40
2.8433
 41
0.5
 50
89.99999999
  1
130
  0
POLYLINE
  8
LAYER_2
 66
1
 10
0
 20
0
 30
0
  0
VERTEX
  8
LAYER_2
 10
91.7004
 20
107.955
  0
VERTEX
  8
LAYER_2
 10
81.6788
 20
107.955
  0
SEQEND
  0
POLYLINE
  8
LAYER_2
 66
1
 10
0
 20
0
 30
0
  0
VERTEX
  8
LAYER_2
 10
92.2073
 20
93.4878
  0
VERTEX
  8
LAYER_2
 10
81.6786
 20
93.4878
  0
SEQEND
  0
POLYLINE
  8
LAYER_2
 66
1
 10
0
 20
0
 30
0
  0
VERTEX
  8
LAYER_2
 10
81.7957
 20
106.4731
  0
VERTEX
  8
LAYER_2
 10
81.7957
 20
103.4316
  0
SEQEND
  0
POLYLINE
  8
LAYER_2
 66
1
 10
0
 20
0
 30
0
  0
VERTEX
  8
LAYER_2
 10
81.7957
 20
95.0086
  0
VERTEX
  8
LAYER_2
 10
81.7957
 20
98.0114
  0
SEQEND
  0
POLYLINE
  8
LAYER_2
 40
0.05
 41
0.05
 66
1
 10
0
 20
0
 30
0
 70
1
  0
VERTEX
  8
LAYER_2
 10
81.5617
 20
106.4731
  0
VERTEX
  8
LAYER_2
 10
82.0296
 20
106.4731
  0
VERTEX
  8
LAYER_2
 10
81.7956
 20
107.9551
  0
SEQEND
  0
POLYLINE
  8
LAYER_2
 66
1
 10
0
 20
0
 30
0
 70
1
  0
VERTEX
  8
LAYER_2
 10
81.5617
 20
106.4731
  0
VERTEX
  8
LAYER_2
 10
82.0296
 20
106.4731
  0
VERTEX
  8
LAYER_2
 10
81.7956
 20
107.9551
  0
SEQEND
  0
POLYLINE
  8
LAYER_2
 40
0.05
 41
0.05
 66
1
 10
0
 20
0
 30
0
 70
1
  0
VERTEX
  8
LAYER_2
 10
81.5617
 20
95.0086
  0
VERTEX
  8
LAYER_2
 10
82.0296
 20
95.0086
  0
VERTEX
  8
LAYER_2
 10
81.7956
 20
93.4878
  0
SEQEND
  0
POLYLINE
  8
LAYER_2
 66
1
 10
0
 20
0
 30
0
 70
1
  0
VERTEX
  8
LAYER_2
 10
81.5617
 20
95.0086
  0
VERTEX
  8
LAYER_2
 10
82.0296
 20
95.0086
  0
VERTEX
  8
LAYER_2
 10
81.7956
 20
93.4878
  0
SEQEND
  0
TEXT
  8
LAYER_2
 10
83.116
 20
97.6995
 11
83.116
 21
97.6995
 40
2.8433
 41
0.5
 50
89.99999999
  1
145
  0
POLYLINE
  8
LAYER_2
 66
1
 10
0
 20
0
 30
0
  0
VERTEX
  8
LAYER_2
 10
87.7619
 20
149.3677
  0
VERTEX
  8
LAYER_2
 10
87.7619
 20
154.983
  0
SEQEND
  0
POLYLINE
  8
LAYER_2
 66
1
 10
0
 20
0
 30
0
  0
VERTEX
  8
LAYER_2
 10
132.7622
 20
149.3677
  0
VERTEX
  8
LAYER_2
 10
132.7622
 20
154.983
  0
SEQEND
  0
POLYLINE
  8
LAYER_2
 66
1
 10
0
 20
0
 30
0
  0
VERTEX
  8
LAYER_2
 10
89.2437
 20
154.866
  0
VERTEX
  8
LAYER_2
 10
107.3763
 20
154.866
  0
SEQEND
  0
POLYLINE
  8
LAYER_2
 66
1
 10
0
 20
0
 30
0
  0
VERTEX
  8
LAYER_2
 10
131.2415
 20
154.866
  0
VERTEX
  8
LAYER_2
 10
113.1089
 20
154.866
  0
SEQEND
  0
POLYLINE
  8
LAYER_2
 40
0.05
 41
0.05
 66
1
 10
0
 20
0
 30
0
 70
1
  0
VERTEX
  8
LAYER_2
 10
89.2437
 20
155.1
  0
VERTEX
  8
LAYER_2
 10
89.2437
 20
154.6321
  0
VERTEX
  8
LAYER_2
 10
87.7617
 20
154.8661
  0
SEQEND
  0
POLYLINE
  8
LAYER_2
 66
1
 10
0
 20
0
 30
0
 70
1
  0
VERTEX
  8
LAYER_2
 10
89.2437
 20
155.1
  0
VERTEX
  8
LAYER_2
 10
89.2437
 20
154.6321
  0
VERTEX
  8
LAYER_2
 10
87.7617
 20
154.8661
  0
SEQEND
  0
POLYLINE
  8
LAYER_2
 40
0.05
 41
0.05
 66
1
 10
0
 20
0
 30
0
 70
1
  0
VERTEX
  8
LAYER_2
 10
131.2415
 20
155.1
  0
VERTEX
  8
LAYER_2
 10
131.2415
 20
154.6321
  0
VERTEX
  8
LAYER_2
 10
132.7622
 20
154.8661
  0
SEQEND
  0
POLYLINE
  8
LAYER_2
 66
1
 10
0
 20
0
 30
0
 70
1
  0
VERTEX
  8
LAYER_2
 10
131.2415
 20
155.1
  0
VERTEX
  8
LAYER_2
 10
131.2415
 20
154.6321
  0
VERTEX
  8
LAYER_2
 10
132.7622
 20
154.8661
  0
SEQEND
  0
TEXT
  8
LAYER_2
 10
107.8961
 20
153.546
 11
107.8961
 21
153.546
 40
2.8433
 41
0.5
  1
450
  0
POLYLINE
  8
LAYER_2
 66
1
 10
0
 20
0
 30
0
  0
VERTEX
  8
LAYER_2
 10
91.2715
 20
151.1225
  0
VERTEX
  8
LAYER_2
 10
85.1884
 20
151.1225
  0
SEQEND
  0
POLYLINE
  8
LAYER_2
 66
1
 10
0
 20
0
 30
0
  0
VERTEX
  8
LAYER_2
 10
91.2715
 20
136.6164
  0
VERTEX
  8
LAYER_2
 10
85.1884
 20
136.6164
  0
SEQEND
  0
POLYLINE
  8
LAYER_2
 66
1
 10
0
 20
0
 30
0
  0
VERTEX
  8
LAYER_2
 10
85.3052
 20
149.6017
  0
VERTEX
  8
LAYER_2
 10
85.3052
 20
146.5602
  0
SEQEND
  0
POLYLINE
  8
LAYER_2
 66
1
 10
0
 20
0
 30
0
  0
VERTEX
  8
LAYER_2
 10
85.3052
 20
138.0981
  0
VERTEX
  8
LAYER_2
 10
85.3052
 20
141.1397
  0
SEQEND
  0
POLYLINE
  8
LAYER_2
 40
0.05
 41
0.05
 66
1
 10
0
 20
0
 30
0
 70
1
  0
VERTEX
  8
LAYER_2
 10
85.0712
 20
149.6017
  0
VERTEX
  8
LAYER_2
 10
85.5391
 20
149.6017
  0
VERTEX
  8
LAYER_2
 10
85.3052
 20
151.1225
  0
SEQEND
  0
POLYLINE
  8
LAYER_2
 66
1
 10
0
 20
0
 30
0
 70
1
  0
VERTEX
  8
LAYER_2
 10
85.0712
 20
149.6017
  0
VERTEX
  8
LAYER_2
 10
85.5391
 20
149.6017
  0
VERTEX
  8
LAYER_2
 10
85.3052
 20
151.1225
  0
SEQEND
  0
POLYLINE
  8
LAYER_2
 40
0.05
 41
0.05
 66
1
 10
0
 20
0
 30
0
 70
1
  0
VERTEX
  8
LAYER_2
 10
85.0712
 20
138.0981
  0
VERTEX
  8
LAYER_2
 10
85.5391
 20
138.0981
  0
VERTEX
  8
LAYER_2
 10
85.3052
 20
136.6162
  0
SEQEND
  0
POLYLINE
  8
LAYER_2
 66
1
 10
0
 20
0
 30
0
 70
1
  0
VERTEX
  8
LAYER_2
 10
85.0712
 20
138.0981
  0
VERTEX
  8
LAYER_2
 10
85.5391
 20
138.0981
  0
VERTEX
  8
LAYER_2
 10
85.3052
 20
136.6162
  0
SEQEND
  0
TEXT
  8
LAYER_2
 10
86.625
 20
140.8279
 11
86.625
 21
140.8279
 40
2.8433
 41
0.5
 50
89.99999999
  1
145
  0
POLYLINE
  8
LAYER_2
 40
0.0353
 41
0.0353
 62
252
 66
1
 10
0
 20
0
 30
0
  0
VERTEX
  8
LAYER_2
 10
108.0004
 20
138.0981
  0
VERTEX
  8
LAYER_2
 10
108.0004
 20
137.5131
  0
SEQEND
  0
POLYLINE
  8
LAYER_2
 40
0.0353
 41
0.0353
 62
252
 66
1
 10
0
 20
0
 30
0
  0
VERTEX
  8
LAYER_2
 10
108.0004
 20
137.2013
  0
VERTEX
  8
LAYER_2
 10
108.0004
 20
136.5774
  0
SEQEND
  0
POLYLINE
  8
LAYER_2
 40
0.0353
 41
0.0353
 62
252
 66
1
 10
0
 20
0
 30
0
  0
VERTEX
  8
LAYER_2
 10
108.0004
 20
136.2264
  0
VERTEX
  8
LAYER_2
 10
108.0004
 20
135.6026
  0
SEQEND
  0
POLYLINE
  8
LAYER_2
 40
0.0353
 41
0.0353
 62
252
 66
1
 10
0
 20
0
 30
0
  0
VERTEX
  8
LAYER_2
 10
108.0004
 20
135.2905
  0
VERTEX
  8
LAYER_2
 10
108.0004
 20
134.7055
  0
SEQEND
  0
POLYLINE
  8
LAYER_2
 40
0.0353
 41
0.0353
 62
252
 66
1
 10
0
 20
0
 30
0
  0
VERTEX
  8
LAYER_2
 10
106.8695
 20
139.0341
  0
VERTEX
  8
LAYER_2
 10
106.8303
 20
139.0732
  0
VERTEX
  8
LAYER_2
 10
106.7915
 20
139.0732
  0
VERTEX
  8
LAYER_2
 10
106.7523
 20
139.112
  0
VERTEX
  8
LAYER_2
 10
106.7135
 20
139.112
  0
SEQEND
  0
POLYLINE
  8
LAYER_2
 40
0.0353
 41
0.0353
 62
252
 66
1
 10
0
 20
0
 30
0
  0
VERTEX
  8
LAYER_2
 10
112.4848
 20
138.0981
  0
VERTEX
  8
LAYER_2
 10
111.861
 20
138.0981
  0
SEQEND
  0
POLYLINE
  8
LAYER_2
 40
0.0353
 41
0.0353
 62
252
 66
1
 10
0
 20
0
 30
0
  0
VERTEX
  8
LAYER_2
 10
111.5099
 20
138.0981
  0
VERTEX
  8
LAYER_2
 10
110.8861
 20
138.0981
  0
SEQEND
  0
POLYLINE
  8
LAYER_2
 40
0.0353
 41
0.0353
 62
252
 66
1
 10
0
 20
0
 30
0
  0
VERTEX
  8
LAYER_2
 10
110.574
 20
138.0981
  0
VERTEX
  8
LAYER_2
 10
109.9502
 20
138.0981
  0
SEQEND
  0
POLYLINE
  8
LAYER_2
 40
0.0353
 41
0.0353
 62
252
 66
1
 10
0
 20
0
 30
0
  0
VERTEX
  8
LAYER_2
 10
109.6382
 20
138.0981
  0
VERTEX
  8
LAYER_2
 10
108.9751
 20
138.0981
  0
SEQEND
  0
POLYLINE
  8
LAYER_2
 40
0.0353
 41
0.0353
 62
252
 66
1
 10
0
 20
0
 30
0
  0
VERTEX
  8
LAYER_2
 10
108.6633
 20
138.0981
  0
VERTEX
  8
LAYER_2
 10
108.0002
 20
138.0981
  0
VERTEX
  8
LAYER_2
 10
107.5715
 20
138.488
  0
SEQEND
  0
POLYLINE
  8
LAYER_2
 40
0.0353
 41
0.0353
 62
252
 66
1
 10
0
 20
0
 30
0
  0
VERTEX
  8
LAYER_2
 10
107.2984
 20
138.6831
  0
VERTEX
  8
LAYER_2
 10
106.8694
 20
139.0342
  0
SEQEND
  0
POLYLINE
  8
LAYER_2
 40
0.0353
 41
0.0353
 62
252
 66
1
 10
0
 20
0
 30
0
  0
VERTEX
  8
LAYER_2
 10
106.7135
 20
139.112
  0
VERTEX
  8
LAYER_2
 10
107.2206
 20
139.112
  0
SEQEND
  0
POLYLINE
  8
LAYER_2
 40
0.0353
 41
0.0353
 62
252
 66
1
 10
0
 20
0
 30
0
  0
VERTEX
  8
LAYER_2
 10
107.5714
 20
139.112
  0
VERTEX
  8
LAYER_2
 10
108.1952
 20
139.112
  0
SEQEND
  0
POLYLINE
  8
LAYER_2
 40
0.0353
 41
0.0353
 62
252
 66
1
 10
0
 20
0
 30
0
  0
VERTEX
  8
LAYER_2
 10
108.5073
 20
139.112
  0
VERTEX
  8
LAYER_2
 10
109.1311
 20
139.112
  0
SEQEND
  0
POLYLINE
  8
LAYER_2
 40
0.0353
 41
0.0353
 62
252
 66
1
 10
0
 20
0
 30
0
  0
VERTEX
  8
LAYER_2
 10
109.4432
 20
139.112
  0
VERTEX
  8
LAYER_2
 10
110.1062
 20
139.112
  0
SEQEND
  0
POLYLINE
  8
LAYER_2
 40
0.0353
 41
0.0353
 62
252
 66
1
 10
0
 20
0
 30
0
  0
VERTEX
  8
LAYER_2
 10
110.4181
 20
139.112
  0
VERTEX
  8
LAYER_2
 10
111.0419
 20
139.112
  0
SEQEND
  0
POLYLINE
  8
LAYER_2
 40
0.0353
 41
0.0353
 62
252
 66
1
 10
0
 20
0
 30
0
  0
VERTEX
  8
LAYER_2
 10
111.3539
 20
139.112
  0
VERTEX
  8
LAYER_2
 10
112.0169
 20
139.112
  0
SEQEND
  0
POLYLINE
  8
LAYER_2
 40
0.0353
 41
0.0353
 62
252
 66
1
 10
0
 20
0
 30
0
  0
VERTEX
  8
LAYER_2
 10
112.3288
 20
139.112
  0
VERTEX
  8
LAYER_2
 10
112.9526
 20
139.112
  0
SEQEND
  0
POLYLINE
  8
LAYER_2
 40
0.0353
 41
0.0353
 62
252
 66
1
 10
0
 20
0
 30
0
  0
VERTEX
  8
LAYER_2
 10
113.2647
 20
139.112
  0
VERTEX
  8
LAYER_2
 10
113.8106
 20
139.112
  0
SEQEND
  0
POLYLINE
  8
LAYER_2
 40
0.0353
 41
0.0353
 62
252
 66
1
 10
0
 20
0
 30
0
  0
VERTEX
  8
LAYER_2
 10
106.7135
 20
137.3182
  0
VERTEX
  8
LAYER_2
 10
106.7135
 20
136.6164
  0
SEQEND
  0
POLYLINE
  8
LAYER_2
 40
0.0353
 41
0.0353
 62
252
 66
1
 10
0
 20
0
 30
0
  0
VERTEX
  8
LAYER_2
 10
89.3217
 20
149.1338
  0
VERTEX
  8
LAYER_2
 10
90.1015
 20
149.4069
  0
SEQEND
  0
POLYLINE
  8
LAYER_2
 40
0.0353
 41
0.0353
 62
252
 66
1
 10
0
 20
0
 30
0
  0
VERTEX
  8
LAYER_2
 10
88.8148
 20
148.3149
  0
VERTEX
  8
LAYER_2
 10
88.854
 20
147.8078
  0
SEQEND
  0
POLYLINE
  8
LAYER_2
 40
0.0353
 41
0.0353
 62
252
 66
1
 10
0
 20
0
 30
0
  0
VERTEX
  8
LAYER_2
 10
88.8928
 20
147.496
  0
VERTEX
  8
LAYER_2
 10
88.932
 20
146.8722
  0
SEQEND
  0
POLYLINE
  8
LAYER_2
 40
0.0353
 41
0.0353
 62
252
 66
1
 10
0
 20
0
 30
0
  0
VERTEX
  8
LAYER_2
 10
89.0097
 20
146.5601
  0
VERTEX
  8
LAYER_2
 10
89.1269
 20
145.9362
  0
SEQEND
  0
POLYLINE
  8
LAYER_2
 40
0.0353
 41
0.0353
 62
252
 66
1
 10
0
 20
0
 30
0
  0
VERTEX
  8
LAYER_2
 10
89.1657
 20
145.6242
  0
VERTEX
  8
LAYER_2
 10
89.2437
 20
145.2343
  0
VERTEX
  8
LAYER_2
 10
89.3217
 20
145.0004
  0
SEQEND
  0
POLYLINE
  8
LAYER_2
 40
0.0353
 41
0.0353
 62
252
 66
1
 10
0
 20
0
 30
0
  0
VERTEX
  8
LAYER_2
 10
89.3997
 20
144.6883
  0
VERTEX
  8
LAYER_2
 10
89.5557
 20
144.0645
  0
SEQEND
  0
POLYLINE
  8
LAYER_2
 40
0.0353
 41
0.0353
 62
252
 66
1
 10
0
 20
0
 30
0
  0
VERTEX
  8
LAYER_2
 10
89.6337
 20
143.7524
  0
VERTEX
  8
LAYER_2
 10
89.8288
 20
143.1674
  0
SEQEND
  0
POLYLINE
  8
LAYER_2
 40
0.0353
 41
0.0353
 62
252
 66
1
 10
0
 20
0
 30
0
  0
VERTEX
  8
LAYER_2
 10
89.9456
 20
142.8556
  0
VERTEX
  8
LAYER_2
 10
90.1408
 20
142.2705
  0
SEQEND
  0
POLYLINE
  8
LAYER_2
 40
0.0353
 41
0.0353
 62
252
 66
1
 10
0
 20
0
 30
0
  0
VERTEX
  8
LAYER_2
 10
90.2966
 20
141.9587
  0
VERTEX
  8
LAYER_2
 10
90.5305
 20
141.3736
  0
SEQEND
  0
POLYLINE
  8
LAYER_2
 40
0.0353
 41
0.0353
 62
252
 66
1
 10
0
 20
0
 30
0
  0
VERTEX
  8
LAYER_2
 10
90.6475
 20
141.1008
  0
VERTEX
  8
LAYER_2
 10
90.7647
 20
140.8669
  0
VERTEX
  8
LAYER_2
 10
90.9594
 20
140.5158
  0
SEQEND
  0
POLYLINE
  8
LAYER_2
 40
0.0353
 41
0.0353
 62
252
 66
1
 10
0
 20
0
 30
0
  0
VERTEX
  8
LAYER_2
 10
91.0765
 20
140.2429
  0
VERTEX
  8
LAYER_2
 10
91.3884
 20
139.697
  0
SEQEND
  0
POLYLINE
  8
LAYER_2
 40
0.0353
 41
0.0353
 62
252
 66
1
 10
0
 20
0
 30
0
  0
VERTEX
  8
LAYER_2
 10
91.5444
 20
139.424
  0
VERTEX
  8
LAYER_2
 10
91.8955
 20
138.8781
  0
SEQEND
  0
POLYLINE
  8
LAYER_2
 40
0.0353
 41
0.0353
 62
252
 66
1
 10
0
 20
0
 30
0
  0
VERTEX
  8
LAYER_2
 10
92.0514
 20
138.6051
  0
VERTEX
  8
LAYER_2
 10
92.3245
 20
138.176
  0
SEQEND
  0
POLYLINE
  8
LAYER_2
 40
0.0353
 41
0.0353
 62
252
 66
1
 10
0
 20
0
 30
0
  0
VERTEX
  8
LAYER_2
 10
89.3217
 20
149.1338
  0
VERTEX
  8
LAYER_2
 10
89.2046
 20
149.0558
  0
VERTEX
  8
LAYER_2
 10
89.0878
 20
148.9778
  0
VERTEX
  8
LAYER_2
 10
89.0098
 20
148.9386
  0
SEQEND
  0
POLYLINE
  8
LAYER_2
 40
0.0353
 41
0.0353
 62
252
 66
1
 10
0
 20
0
 30
0
  0
VERTEX
  8
LAYER_2
 10
88.8538
 20
148.6658
  0
VERTEX
  8
LAYER_2
 10
88.8146
 20
148.6266
  0
VERTEX
  8
LAYER_2
 10
88.8146
 20
148.4707
  0
VERTEX
  8
LAYER_2
 10
88.8146
 20
148.3147
  0
SEQEND
  0
POLYLINE
  8
LAYER_2
 40
0.0353
 41
0.0353
 62
252
 66
1
 10
0
 20
0
 30
0
  0
VERTEX
  8
LAYER_2
 10
91.7394
 20
150.6936
  0
VERTEX
  8
LAYER_2
 10
91.7394
 20
150.7716
  0
VERTEX
  8
LAYER_2
 10
91.7002
 20
150.8495
  0
VERTEX
  8
LAYER_2
 10
91.6615
 20
150.9275
  0
VERTEX
  8
LAYER_2
 10
91.5835
 20
151.0055
  0
VERTEX
  8
LAYER_2
 10
91.5055
 20
151.0447
  0
VERTEX
  8
LAYER_2
 10
91.4275
 20
151.0835
  0
VERTEX
  8
LAYER_2
 10
91.3495
 20
151.0835
  0
VERTEX
  8
LAYER_2
 10
91.2716
 20
151.1227
  0
VERTEX
  8
LAYER_2
 10
91.1544
 20
151.0835
  0
VERTEX
  8
LAYER_2
 10
91.0764
 20
151.0835
  0
SEQEND
  0
POLYLINE
  8
LAYER_2
 40
0.0353
 41
0.0353
 62
252
 66
1
 10
0
 20
0
 30
0
  0
VERTEX
  8
LAYER_2
 10
91.1545
 20
148.8608
  0
VERTEX
  8
LAYER_2
 10
91.3496
 20
148.1198
  0
SEQEND
  0
POLYLINE
  8
LAYER_2
 40
0.0353
 41
0.0353
 62
252
 66
1
 10
0
 20
0
 30
0
  0
VERTEX
  8
LAYER_2
 10
91.4665
 20
147.8079
  0
VERTEX
  8
LAYER_2
 10
91.5444
 20
147.496
  0
VERTEX
  8
LAYER_2
 10
91.6616
 20
147.2229
  0
SEQEND
  0
POLYLINE
  8
LAYER_2
 40
0.0353
 41
0.0353
 62
252
 66
1
 10
0
 20
0
 30
0
  0
VERTEX
  8
LAYER_2
 10
91.7784
 20
146.9111
  0
VERTEX
  8
LAYER_2
 10
92.0124
 20
146.326
  0
SEQEND
  0
POLYLINE
  8
LAYER_2
 40
0.0353
 41
0.0353
 62
252
 66
1
 10
0
 20
0
 30
0
  0
VERTEX
  8
LAYER_2
 10
92.1294
 20
146.0532
  0
VERTEX
  8
LAYER_2
 10
92.4413
 20
145.4681
  0
SEQEND
  0
POLYLINE
  8
LAYER_2
 40
0.0353
 41
0.0353
 62
252
 66
1
 10
0
 20
0
 30
0
  0
VERTEX
  8
LAYER_2
 10
92.5583
 20
145.1953
  0
VERTEX
  8
LAYER_2
 10
92.7143
 20
144.9221
  0
VERTEX
  8
LAYER_2
 10
92.9094
 20
144.6494
  0
SEQEND
  0
POLYLINE
  8
LAYER_2
 40
0.0353
 41
0.0353
 62
252
 66
1
 10
0
 20
0
 30
0
  0
VERTEX
  8
LAYER_2
 10
93.0652
 20
144.3764
  0
VERTEX
  8
LAYER_2
 10
93.4163
 20
143.8305
  0
SEQEND
  0
POLYLINE
  8
LAYER_2
 40
0.0353
 41
0.0353
 62
252
 66
1
 10
0
 20
0
 30
0
  0
VERTEX
  8
LAYER_2
 10
93.5722
 20
143.5965
  0
VERTEX
  8
LAYER_2
 10
93.9621
 20
143.0894
  0
SEQEND
  0
POLYLINE
  8
LAYER_2
 40
0.0353
 41
0.0353
 62
252
 66
1
 10
0
 20
0
 30
0
  0
VERTEX
  8
LAYER_2
 10
94.1571
 20
142.8166
  0
VERTEX
  8
LAYER_2
 10
94.3523
 20
142.5826
  0
VERTEX
  8
LAYER_2
 10
94.5862
 20
142.3487
  0
SEQEND
  0
POLYLINE
  8
LAYER_2
 40
0.0353
 41
0.0353
 62
252
 66
1
 10
0
 20
0
 30
0
  0
VERTEX
  8
LAYER_2
 10
94.781
 20
142.1146
  0
VERTEX
  8
LAYER_2
 10
95.3269
 20
141.5688
  0
SEQEND
  0
POLYLINE
  8
LAYER_2
 40
0.0353
 41
0.0353
 62
252
 66
1
 10
0
 20
0
 30
0
  0
VERTEX
  8
LAYER_2
 10
91.1545
 20
148.8608
  0
VERTEX
  8
LAYER_2
 10
91.0765
 20
149.0168
  0
VERTEX
  8
LAYER_2
 10
90.9985
 20
149.1339
  0
VERTEX
  8
LAYER_2
 10
90.9205
 20
149.2507
  0
VERTEX
  8
LAYER_2
 10
90.8814
 20
149.2899
  0
SEQEND
  0
POLYLINE
  8
LAYER_2
 40
0.0353
 41
0.0353
 62
252
 66
1
 10
0
 20
0
 30
0
  0
VERTEX
  8
LAYER_2
 10
90.5696
 20
149.4457
  0
VERTEX
  8
LAYER_2
 10
90.5304
 20
149.4457
  0
VERTEX
  8
LAYER_2
 10
90.3744
 20
149.4457
  0
VERTEX
  8
LAYER_2
 10
90.2185
 20
149.4457
  0
VERTEX
  8
LAYER_2
 10
90.1017
 20
149.4065
  0
SEQEND
  0
POLYLINE
  8
LAYER_2
 40
0.0353
 41
0.0353
 62
252
 66
1
 10
0
 20
0
 30
0
  0
VERTEX
  8
LAYER_2
 10
95.5609
 20
140.9838
  0
VERTEX
  8
LAYER_2
 10
95.5217
 20
141.1009
  0
VERTEX
  8
LAYER_2
 10
95.5217
 20
141.2177
  0
VERTEX
  8
LAYER_2
 10
95.4438
 20
141.3349
  0
VERTEX
  8
LAYER_2
 10
95.405
 20
141.4517
  0
VERTEX
  8
LAYER_2
 10
95.327
 20
141.5688
  0
SEQEND
  0
POLYLINE
  8
LAYER_2
 40
0.0353
 41
0.0353
 62
252
 66
1
 10
0
 20
0
 30
0
  0
VERTEX
  8
LAYER_2
 10
98.4076
 20
139.8919
  0
VERTEX
  8
LAYER_2
 10
98.2516
 20
139.9699
  0
VERTEX
  8
LAYER_2
 10
98.0957
 20
140.0091
  0
VERTEX
  8
LAYER_2
 10
97.9397
 20
140.0091
  0
VERTEX
  8
LAYER_2
 10
97.8225
 20
139.9699
  0
SEQEND
  0
POLYLINE
  8
LAYER_2
 40
0.0353
 41
0.0353
 62
252
 66
1
 10
0
 20
0
 30
0
  0
VERTEX
  8
LAYER_2
 10
97.5497
 20
139.814
  0
VERTEX
  8
LAYER_2
 10
97.4329
 20
139.736
  0
VERTEX
  8
LAYER_2
 10
97.3545
 20
139.6188
  0
VERTEX
  8
LAYER_2
 10
97.2765
 20
139.502
  0
VERTEX
  8
LAYER_2
 10
97.2377
 20
139.3461
  0
SEQEND
  0
POLYLINE
  8
LAYER_2
 40
0.0353
 41
0.0353
 62
252
 66
1
 10
0
 20
0
 30
0
  0
VERTEX
  8
LAYER_2
 10
95.7559
 20
136.6164
  0
VERTEX
  8
LAYER_2
 10
96.3018
 20
136.6164
  0
VERTEX
  8
LAYER_2
 10
96.341
 20
136.6164
  0
VERTEX
  8
LAYER_2
 10
96.4189
 20
136.6164
  0
VERTEX
  8
LAYER_2
 10
96.4577
 20
136.6555
  0
VERTEX
  8
LAYER_2
 10
96.4969
 20
136.6943
  0
VERTEX
  8
LAYER_2
 10
96.5357
 20
136.7335
  0
VERTEX
  8
LAYER_2
 10
96.5749
 20
136.7723
  0
VERTEX
  8
LAYER_2
 10
96.5749
 20
136.8115
  0
VERTEX
  8
LAYER_2
 10
96.5749
 20
136.8503
  0
SEQEND
  0
POLYLINE
  8
LAYER_2
 40
0.0353
 41
0.0353
 62
252
 66
1
 10
0
 20
0
 30
0
  0
VERTEX
  8
LAYER_2
 10
95.5609
 20
139.073
  0
VERTEX
  8
LAYER_2
 10
95.5609
 20
139.892
  0
SEQEND
  0
POLYLINE
  8
LAYER_2
 40
0.0353
 41
0.0353
 62
252
 66
1
 10
0
 20
0
 30
0
  0
VERTEX
  8
LAYER_2
 10
95.5609
 20
140.2039
  0
VERTEX
  8
LAYER_2
 10
95.5609
 20
140.9837
  0
SEQEND
  0
POLYLINE
  8
LAYER_2
 40
0.0353
 41
0.0353
 62
252
 66
1
 10
0
 20
0
 30
0
  0
VERTEX
  8
LAYER_2
 10
96.5748
 20
136.8503
  0
VERTEX
  8
LAYER_2
 10
96.7699
 20
137.4742
  0
SEQEND
  0
POLYLINE
  8
LAYER_2
 40
0.0353
 41
0.0353
 62
252
 66
1
 10
0
 20
0
 30
0
  0
VERTEX
  8
LAYER_2
 10
96.8478
 20
137.7862
  0
VERTEX
  8
LAYER_2
 10
97.0037
 20
138.41
  0
SEQEND
  0
POLYLINE
  8
LAYER_2
 40
0.0353
 41
0.0353
 62
252
 66
1
 10
0
 20
0
 30
0
  0
VERTEX
  8
LAYER_2
 10
97.0817
 20
138.7221
  0
VERTEX
  8
LAYER_2
 10
97.2377
 20
139.3459
  0
SEQEND
  0
POLYLINE
  8
LAYER_2
 40
0.0353
 41
0.0353
 62
252
 66
1
 10
0
 20
0
 30
0
  0
VERTEX
  8
LAYER_2
 10
95.4829
 20
136.7723
  0
VERTEX
  8
LAYER_2
 10
95.3658
 20
136.9283
  0
VERTEX
  8
LAYER_2
 10
95.2098
 20
137.0454
  0
VERTEX
  8
LAYER_2
 10
95.1319
 20
137.1234
  0
SEQEND
  0
POLYLINE
  8
LAYER_2
 40
0.0353
 41
0.0353
 62
252
 66
1
 10
0
 20
0
 30
0
  0
VERTEX
  8
LAYER_2
 10
94.859
 20
137.2403
  0
VERTEX
  8
LAYER_2
 10
94.6639
 20
137.2795
  0
VERTEX
  8
LAYER_2
 10
94.4299
 20
137.2795
  0
VERTEX
  8
LAYER_2
 10
94.2352
 20
137.2403
  0
SEQEND
  0
POLYLINE
  8
LAYER_2
 40
0.0353
 41
0.0353
 62
252
 66
1
 10
0
 20
0
 30
0
  0
VERTEX
  8
LAYER_2
 10
93.9621
 20
137.0843
  0
VERTEX
  8
LAYER_2
 10
93.8842
 20
137.0451
  0
VERTEX
  8
LAYER_2
 10
93.7282
 20
136.9283
  0
VERTEX
  8
LAYER_2
 10
93.611
 20
136.7724
  0
SEQEND
  0
POLYLINE
  8
LAYER_2
 40
0.0353
 41
0.0353
 62
252
 66
1
 10
0
 20
0
 30
0
  0
VERTEX
  8
LAYER_2
 10
95.4829
 20
136.7723
  0
VERTEX
  8
LAYER_2
 10
95.5217
 20
136.7331
  0
VERTEX
  8
LAYER_2
 10
95.5609
 20
136.6943
  0
VERTEX
  8
LAYER_2
 10
95.5997
 20
136.6551
  0
VERTEX
  8
LAYER_2
 10
95.6389
 20
136.6164
  0
VERTEX
  8
LAYER_2
 10
95.6781
 20
136.6164
  0
VERTEX
  8
LAYER_2
 10
95.7561
 20
136.6164
  0
SEQEND
  0
POLYLINE
  8
LAYER_2
 40
0.0353
 41
0.0353
 62
252
 66
1
 10
0
 20
0
 30
0
  0
VERTEX
  8
LAYER_2
 10
93.3772
 20
136.6164
  0
VERTEX
  8
LAYER_2
 10
93.4164
 20
136.6164
  0
VERTEX
  8
LAYER_2
 10
93.4552
 20
136.6164
  0
VERTEX
  8
LAYER_2
 10
93.4944
 20
136.6555
  0
VERTEX
  8
LAYER_2
 10
93.5723
 20
136.6943
  0
VERTEX
  8
LAYER_2
 10
93.6111
 20
136.7335
  0
VERTEX
  8
LAYER_2
 10
93.6111
 20
136.7723
  0
SEQEND
  0
POLYLINE
  8
LAYER_2
 40
0.0353
 41
0.0353
 62
252
 66
1
 10
0
 20
0
 30
0
  0
VERTEX
  8
LAYER_2
 10
94.703
 20
138.2931
  0
VERTEX
  8
LAYER_2
 10
94.3519
 20
138.2931
  0
VERTEX
  8
LAYER_2
 10
94.196
 20
138.2539
  0
SEQEND
  0
POLYLINE
  8
LAYER_2
 40
0.0353
 41
0.0353
 62
252
 66
1
 10
0
 20
0
 30
0
  0
VERTEX
  8
LAYER_2
 10
93.8842
 20
138.1761
  0
VERTEX
  8
LAYER_2
 10
93.7282
 20
138.1369
  0
VERTEX
  8
LAYER_2
 10
93.4163
 20
137.981
  0
SEQEND
  0
POLYLINE
  8
LAYER_2
 40
0.0353
 41
0.0353
 62
252
 66
1
 10
0
 20
0
 30
0
  0
VERTEX
  8
LAYER_2
 10
94.703
 20
138.2931
  0
VERTEX
  8
LAYER_2
 10
94.859
 20
138.2931
  0
VERTEX
  8
LAYER_2
 10
94.9762
 20
138.3323
  0
VERTEX
  8
LAYER_2
 10
95.1321
 20
138.3711
  0
VERTEX
  8
LAYER_2
 10
95.1709
 20
138.4103
  0
SEQEND
  0
POLYLINE
  8
LAYER_2
 40
0.0353
 41
0.0353
 62
252
 66
1
 10
0
 20
0
 30
0
  0
VERTEX
  8
LAYER_2
 10
95.4049
 20
138.6051
  0
VERTEX
  8
LAYER_2
 10
95.4441
 20
138.6831
  0
VERTEX
  8
LAYER_2
 10
95.4829
 20
138.8002
  0
VERTEX
  8
LAYER_2
 10
95.5221
 20
138.9562
  0
VERTEX
  8
LAYER_2
 10
95.5609
 20
139.073
  0
SEQEND
  0
POLYLINE
  8
LAYER_2
 40
0.0353
 41
0.0353
 62
252
 66
1
 10
0
 20
0
 30
0
  0
VERTEX
  8
LAYER_2
 10
91.7394
 20
150.6936
  0
VERTEX
  8
LAYER_2
 10
91.8954
 20
150.1477
  0
SEQEND
  0
POLYLINE
  8
LAYER_2
 40
0.0353
 41
0.0353
 62
252
 66
1
 10
0
 20
0
 30
0
  0
VERTEX
  8
LAYER_2
 10
92.0124
 20
149.8747
  0
VERTEX
  8
LAYER_2
 10
92.1683
 20
149.2896
  0
VERTEX
  8
LAYER_2
 10
92.1683
 20
149.2508
  0
SEQEND
  0
POLYLINE
  8
LAYER_2
 40
0.0353
 41
0.0353
 62
252
 66
1
 10
0
 20
0
 30
0
  0
VERTEX
  8
LAYER_2
 10
92.2853
 20
148.9388
  0
VERTEX
  8
LAYER_2
 10
92.5193
 20
148.3537
  0
SEQEND
  0
POLYLINE
  8
LAYER_2
 40
0.0353
 41
0.0353
 62
252
 66
1
 10
0
 20
0
 30
0
  0
VERTEX
  8
LAYER_2
 10
92.6363
 20
148.0809
  0
VERTEX
  8
LAYER_2
 10
92.7143
 20
147.9249
  0
VERTEX
  8
LAYER_2
 10
92.9094
 20
147.4959
  0
SEQEND
  0
POLYLINE
  8
LAYER_2
 40
0.0353
 41
0.0353
 62
252
 66
1
 10
0
 20
0
 30
0
  0
VERTEX
  8
LAYER_2
 10
93.0652
 20
147.223
  0
VERTEX
  8
LAYER_2
 10
93.3771
 20
146.638
  0
SEQEND
  0
POLYLINE
  8
LAYER_2
 40
0.0353
 41
0.0353
 62
252
 66
1
 10
0
 20
0
 30
0
  0
VERTEX
  8
LAYER_2
 10
93.5332
 20
146.3651
  0
VERTEX
  8
LAYER_2
 10
93.8843
 20
145.8581
  0
SEQEND
  0
POLYLINE
  8
LAYER_2
 40
0.0353
 41
0.0353
 62
252
 66
1
 10
0
 20
0
 30
0
  0
VERTEX
  8
LAYER_2
 10
94.0401
 20
145.5852
  0
VERTEX
  8
LAYER_2
 10
94.1573
 20
145.3901
  0
VERTEX
  8
LAYER_2
 10
94.43
 20
145.0782
  0
SEQEND
  0
POLYLINE
  8
LAYER_2
 40
0.0353
 41
0.0353
 62
252
 66
1
 10
0
 20
0
 30
0
  0
VERTEX
  8
LAYER_2
 10
94.625
 20
144.8443
  0
VERTEX
  8
LAYER_2
 10
95.0149
 20
144.3373
  0
SEQEND
  0
POLYLINE
  8
LAYER_2
 40
0.0353
 41
0.0353
 62
252
 66
1
 10
0
 20
0
 30
0
  0
VERTEX
  8
LAYER_2
 10
95.249
 20
144.1034
  0
VERTEX
  8
LAYER_2
 10
95.6781
 20
143.6355
  0
SEQEND
  0
POLYLINE
  8
LAYER_2
 40
0.0353
 41
0.0353
 62
252
 66
1
 10
0
 20
0
 30
0
  0
VERTEX
  8
LAYER_2
 10
95.8729
 20
143.4015
  0
VERTEX
  8
LAYER_2
 10
96.1068
 20
143.2063
  0
VERTEX
  8
LAYER_2
 10
96.3408
 20
142.9724
  0
SEQEND
  0
POLYLINE
  8
LAYER_2
 40
0.0353
 41
0.0353
 62
252
 66
1
 10
0
 20
0
 30
0
  0
VERTEX
  8
LAYER_2
 10
96.6138
 20
142.7776
  0
VERTEX
  8
LAYER_2
 10
97.0817
 20
142.3485
  0
SEQEND
  0
POLYLINE
  8
LAYER_2
 40
0.0353
 41
0.0353
 62
252
 66
1
 10
0
 20
0
 30
0
  0
VERTEX
  8
LAYER_2
 10
97.3157
 20
142.1536
  0
VERTEX
  8
LAYER_2
 10
97.8616
 20
141.8025
  0
SEQEND
  0
POLYLINE
  8
LAYER_2
 40
0.0353
 41
0.0353
 62
252
 66
1
 10
0
 20
0
 30
0
  0
VERTEX
  8
LAYER_2
 10
98.0956
 20
141.6077
  0
VERTEX
  8
LAYER_2
 10
98.4075
 20
141.4126
  0
VERTEX
  8
LAYER_2
 10
98.6415
 20
141.2958
  0
SEQEND
  0
POLYLINE
  8
LAYER_2
 40
0.0353
 41
0.0353
 62
252
 66
1
 10
0
 20
0
 30
0
  0
VERTEX
  8
LAYER_2
 10
98.9145
 20
141.1398
  0
VERTEX
  8
LAYER_2
 10
99.4604
 20
140.8279
  0
SEQEND
  0
POLYLINE
  8
LAYER_2
 40
0.0353
 41
0.0353
 62
252
 66
1
 10
0
 20
0
 30
0
  0
VERTEX
  8
LAYER_2
 10
99.7724
 20
140.6718
  0
VERTEX
  8
LAYER_2
 10
100.3574
 20
140.3987
  0
SEQEND
  0
POLYLINE
  8
LAYER_2
 40
0.0353
 41
0.0353
 62
252
 66
1
 10
0
 20
0
 30
0
  0
VERTEX
  8
LAYER_2
 10
100.6303
 20
140.2819
  0
VERTEX
  8
LAYER_2
 10
101.0202
 20
140.1259
  0
VERTEX
  8
LAYER_2
 10
101.2153
 20
140.0479
  0
SEQEND
  0
POLYLINE
  8
LAYER_2
 40
0.0353
 41
0.0353
 62
252
 66
1
 10
0
 20
0
 30
0
  0
VERTEX
  8
LAYER_2
 10
101.5272
 20
139.9309
  0
VERTEX
  8
LAYER_2
 10
102.1122
 20
139.7358
  0
SEQEND
  0
POLYLINE
  8
LAYER_2
 40
0.0353
 41
0.0353
 62
252
 66
1
 10
0
 20
0
 30
0
  0
VERTEX
  8
LAYER_2
 10
102.4241
 20
139.658
  0
VERTEX
  8
LAYER_2
 10
103.0479
 20
139.502
  0
SEQEND
  0
POLYLINE
  8
LAYER_2
 40
0.0353
 41
0.0353
 62
252
 66
1
 10
0
 20
0
 30
0
  0
VERTEX
  8
LAYER_2
 10
103.3599
 20
139.424
  0
VERTEX
  8
LAYER_2
 10
103.8278
 20
139.346
  0
VERTEX
  8
LAYER_2
 10
103.9838
 20
139.3068
  0
SEQEND
  0
POLYLINE
  8
LAYER_2
 40
0.0353
 41
0.0353
 62
252
 66
1
 10
0
 20
0
 30
0
  0
VERTEX
  8
LAYER_2
 10
104.2958
 20
139.268
  0
VERTEX
  8
LAYER_2
 10
104.9197
 20
139.19
  0
SEQEND
  0
POLYLINE
  8
LAYER_2
 40
0.0353
 41
0.0353
 62
252
 66
1
 10
0
 20
0
 30
0
  0
VERTEX
  8
LAYER_2
 10
105.2317
 20
139.151
  0
VERTEX
  8
LAYER_2
 10
105.2705
 20
139.151
  0
VERTEX
  8
LAYER_2
 10
105.8555
 20
139.151
  0
SEQEND
  0
POLYLINE
  8
LAYER_2
 40
0.0353
 41
0.0353
 62
252
 66
1
 10
0
 20
0
 30
0
  0
VERTEX
  8
LAYER_2
 10
106.1676
 20
139.112
  0
VERTEX
  8
LAYER_2
 10
106.7135
 20
139.112
  0
SEQEND
  0
POLYLINE
  8
LAYER_2
 40
0.0353
 41
0.0353
 62
252
 66
1
 10
0
 20
0
 30
0
  0
VERTEX
  8
LAYER_2
 10
98.4076
 20
139.8919
  0
VERTEX
  8
LAYER_2
 10
98.9146
 20
139.658
  0
SEQEND
  0
POLYLINE
  8
LAYER_2
 40
0.0353
 41
0.0353
 62
252
 66
1
 10
0
 20
0
 30
0
  0
VERTEX
  8
LAYER_2
 10
99.2265
 20
139.502
  0
VERTEX
  8
LAYER_2
 10
99.6164
 20
139.3068
  0
VERTEX
  8
LAYER_2
 10
99.7723
 20
139.2288
  0
SEQEND
  0
POLYLINE
  8
LAYER_2
 40
0.0353
 41
0.0353
 62
252
 66
1
 10
0
 20
0
 30
0
  0
VERTEX
  8
LAYER_2
 10
100.0844
 20
139.112
  0
VERTEX
  8
LAYER_2
 10
100.6694
 20
138.8781
  0
SEQEND
  0
POLYLINE
  8
LAYER_2
 40
0.0353
 41
0.0353
 62
252
 66
1
 10
0
 20
0
 30
0
  0
VERTEX
  8
LAYER_2
 10
100.9422
 20
138.7611
  0
VERTEX
  8
LAYER_2
 10
101.5661
 20
138.5659
  0
SEQEND
  0
POLYLINE
  8
LAYER_2
 40
0.0353
 41
0.0353
 62
252
 66
1
 10
0
 20
0
 30
0
  0
VERTEX
  8
LAYER_2
 10
101.8781
 20
138.4491
  0
VERTEX
  8
LAYER_2
 10
102.1513
 20
138.3711
  0
VERTEX
  8
LAYER_2
 10
102.4632
 20
138.2932
  0
SEQEND
  0
POLYLINE
  8
LAYER_2
 40
0.0353
 41
0.0353
 62
252
 66
1
 10
0
 20
0
 30
0
  0
VERTEX
  8
LAYER_2
 10
102.775
 20
138.2152
  0
VERTEX
  8
LAYER_2
 10
103.3988
 20
138.098
  0
SEQEND
  0
POLYLINE
  8
LAYER_2
 40
0.0353
 41
0.0353
 62
252
 66
1
 10
0
 20
0
 30
0
  0
VERTEX
  8
LAYER_2
 10
103.7109
 20
138.0202
  0
VERTEX
  8
LAYER_2
 10
104.3347
 20
137.9422
  0
SEQEND
  0
POLYLINE
  8
LAYER_2
 40
0.0353
 41
0.0353
 62
252
 66
1
 10
0
 20
0
 30
0
  0
VERTEX
  8
LAYER_2
 10
104.6468
 20
137.9032
  0
VERTEX
  8
LAYER_2
 10
104.8419
 20
137.864
  0
VERTEX
  8
LAYER_2
 10
105.3098
 20
137.864
  0
SEQEND
  0
POLYLINE
  8
LAYER_2
 40
0.0353
 41
0.0353
 62
252
 66
1
 10
0
 20
0
 30
0
  0
VERTEX
  8
LAYER_2
 10
105.6217
 20
137.8252
  0
VERTEX
  8
LAYER_2
 10
106.2067
 20
137.8252
  0
VERTEX
  8
LAYER_2
 10
106.3235
 20
137.786
  0
VERTEX
  8
LAYER_2
 10
106.4015
 20
137.786
  0
VERTEX
  8
LAYER_2
 10
106.4794
 20
137.708
  0
VERTEX
  8
LAYER_2
 10
106.5574
 20
137.6692
  0
VERTEX
  8
LAYER_2
 10
106.6354
 20
137.5912
  0
VERTEX
  8
LAYER_2
 10
106.6746
 20
137.5133
  0
VERTEX
  8
LAYER_2
 10
106.7134
 20
137.3961
  0
VERTEX
  8
LAYER_2
 10
106.7134
 20
137.3181
  0
SEQEND
  0
INSERT
  8
LAYER_2
  2
AIGNBL0201003F
 10
0
 20
0
 30
0
  0
POLYLINE
  8
LAYER_2
 40
0.0353
 41
0.0353
 62
252
 66
1
 10
0
 20
0
 30
0
  0
VERTEX
  8
LAYER_2
 10
112.5238
 20
138.0981
  0
VERTEX
  8
LAYER_2
 10
112.5238
 20
137.5131
  0
SEQEND
  0
POLYLINE
  8
LAYER_2
 40
0.0353
 41
0.0353
 62
252
 66
1
 10
0
 20
0
 30
0
  0
VERTEX
  8
LAYER_2
 10
112.5238
 20
137.2013
  0
VERTEX
  8
LAYER_2
 10
112.5238
 20
136.5774
  0
SEQEND
  0
POLYLINE
  8
LAYER_2
 40
0.0353
 41
0.0353
 62
252
 66
1
 10
0
 20
0
 30
0
  0
VERTEX
  8
LAYER_2
 10
112.5238
 20
136.2264
  0
VERTEX
  8
LAYER_2
 10
112.5238
 20
135.6026
  0
SEQEND
  0
POLYLINE
  8
LAYER_2
 40
0.0353
 41
0.0353
 62
252
 66
1
 10
0
 20
0
 30
0
  0
VERTEX
  8
LAYER_2
 10
112.5238
 20
135.2905
  0
VERTEX
  8
LAYER_2
 10
112.5238
 20
134.7055
  0
SEQEND
  0
POLYLINE
  8
LAYER_2
 40
0.0353
 41
0.0353
 62
252
 66
1
 10
0
 20
0
 30
0
  0
VERTEX
  8
LAYER_2
 10
113.8106
 20
139.112
  0
VERTEX
  8
LAYER_2
 10
113.7715
 20
139.112
  0
VERTEX
  8
LAYER_2
 10
113.7327
 20
139.0728
  0
VERTEX
  8
LAYER_2
 10
113.6935
 20
139.0728
  0
VERTEX
  8
LAYER_2
 10
113.6547
 20
139.034
  0
SEQEND
  0
POLYLINE
  8
LAYER_2
 40
0.0353
 41
0.0353
 62
252
 66
1
 10
0
 20
0
 30
0
  0
VERTEX
  8
LAYER_2
 10
112.5238
 20
138.0981
  0
VERTEX
  8
LAYER_2
 10
112.9529
 20
138.488
  0
SEQEND
  0
POLYLINE
  8
LAYER_2
 40
0.0353
 41
0.0353
 62
252
 66
1
 10
0
 20
0
 30
0
  0
VERTEX
  8
LAYER_2
 10
113.1867
 20
138.6831
  0
VERTEX
  8
LAYER_2
 10
113.6546
 20
139.0342
  0
SEQEND
  0
POLYLINE
  8
LAYER_2
 40
0.0353
 41
0.0353
 62
252
 66
1
 10
0
 20
0
 30
0
  0
VERTEX
  8
LAYER_2
 10
113.8106
 20
137.3182
  0
VERTEX
  8
LAYER_2
 10
113.8106
 20
136.6164
  0
SEQEND
  0
POLYLINE
  8
LAYER_2
 40
0.0353
 41
0.0353
 62
252
 66
1
 10
0
 20
0
 30
0
  0
VERTEX
  8
LAYER_2
 10
131.2024
 20
149.1338
  0
VERTEX
  8
LAYER_2
 10
130.4226
 20
149.4069
  0
SEQEND
  0
POLYLINE
  8
LAYER_2
 40
0.0353
 41
0.0353
 62
252
 66
1
 10
0
 20
0
 30
0
  0
VERTEX
  8
LAYER_2
 10
128.1608
 20
138.1761
  0
VERTEX
  8
LAYER_2
 10
128.4339
 20
138.6052
  0
SEQEND
  0
POLYLINE
  8
LAYER_2
 40
0.0353
 41
0.0353
 62
252
 66
1
 10
0
 20
0
 30
0
  0
VERTEX
  8
LAYER_2
 10
128.6287
 20
138.8781
  0
VERTEX
  8
LAYER_2
 10
128.9798
 20
139.4239
  0
SEQEND
  0
POLYLINE
  8
LAYER_2
 40
0.0353
 41
0.0353
 62
252
 66
1
 10
0
 20
0
 30
0
  0
VERTEX
  8
LAYER_2
 10
129.1357
 20
139.697
  0
VERTEX
  8
LAYER_2
 10
129.4088
 20
140.2428
  0
SEQEND
  0
POLYLINE
  8
LAYER_2
 40
0.0353
 41
0.0353
 62
252
 66
1
 10
0
 20
0
 30
0
  0
VERTEX
  8
LAYER_2
 10
129.5646
 20
140.5549
  0
VERTEX
  8
LAYER_2
 10
129.7598
 20
140.8668
  0
VERTEX
  8
LAYER_2
 10
129.8377
 20
141.1007
  0
SEQEND
  0
POLYLINE
  8
LAYER_2
 40
0.0353
 41
0.0353
 62
252
 66
1
 10
0
 20
0
 30
0
  0
VERTEX
  8
LAYER_2
 10
129.9936
 20
141.4128
  0
VERTEX
  8
LAYER_2
 10
130.2275
 20
141.9586
  0
SEQEND
  0
POLYLINE
  8
LAYER_2
 40
0.0353
 41
0.0353
 62
252
 66
1
 10
0
 20
0
 30
0
  0
VERTEX
  8
LAYER_2
 10
130.3445
 20
142.2706
  0
VERTEX
  8
LAYER_2
 10
130.3833
 20
142.2706
  0
VERTEX
  8
LAYER_2
 10
130.5785
 20
142.8557
  0
SEQEND
  0
POLYLINE
  8
LAYER_2
 40
0.0353
 41
0.0353
 62
252
 66
1
 10
0
 20
0
 30
0
  0
VERTEX
  8
LAYER_2
 10
130.6565
 20
143.1675
  0
VERTEX
  8
LAYER_2
 10
130.8904
 20
143.7525
  0
SEQEND
  0
POLYLINE
  8
LAYER_2
 40
0.0353
 41
0.0353
 62
252
 66
1
 10
0
 20
0
 30
0
  0
VERTEX
  8
LAYER_2
 10
130.9685
 20
144.0644
  0
VERTEX
  8
LAYER_2
 10
131.1244
 20
144.6882
  0
SEQEND
  0
POLYLINE
  8
LAYER_2
 40
0.0353
 41
0.0353
 62
252
 66
1
 10
0
 20
0
 30
0
  0
VERTEX
  8
LAYER_2
 10
131.2024
 20
145.0003
  0
VERTEX
  8
LAYER_2
 10
131.2804
 20
145.2342
  0
VERTEX
  8
LAYER_2
 10
131.3584
 20
145.6241
  0
SEQEND
  0
POLYLINE
  8
LAYER_2
 40
0.0353
 41
0.0353
 62
252
 66
1
 10
0
 20
0
 30
0
  0
VERTEX
  8
LAYER_2
 10
131.3974
 20
145.9362
  0
VERTEX
  8
LAYER_2
 10
131.5146
 20
146.56
  0
SEQEND
  0
POLYLINE
  8
LAYER_2
 40
0.0353
 41
0.0353
 62
252
 66
1
 10
0
 20
0
 30
0
  0
VERTEX
  8
LAYER_2
 10
131.5534
 20
146.872
  0
VERTEX
  8
LAYER_2
 10
131.6313
 20
147.4959
  0
SEQEND
  0
POLYLINE
  8
LAYER_2
 40
0.0353
 41
0.0353
 62
252
 66
1
 10
0
 20
0
 30
0
  0
VERTEX
  8
LAYER_2
 10
131.6704
 20
147.8079
  0
VERTEX
  8
LAYER_2
 10
131.7096
 20
148.315
  0
VERTEX
  8
LAYER_2
 10
131.7096
 20
148.4709
  0
VERTEX
  8
LAYER_2
 10
131.6704
 20
148.6269
  0
VERTEX
  8
LAYER_2
 10
131.6704
 20
148.6657
  0
SEQEND
  0
POLYLINE
  8
LAYER_2
 40
0.0353
 41
0.0353
 62
252
 66
1
 10
0
 20
0
 30
0
  0
VERTEX
  8
LAYER_2
 10
131.4754
 20
148.9388
  0
VERTEX
  8
LAYER_2
 10
131.4366
 20
148.978
  0
VERTEX
  8
LAYER_2
 10
131.3194
 20
149.0559
  0
VERTEX
  8
LAYER_2
 10
131.2023
 20
149.1339
  0
SEQEND
  0
POLYLINE
  8
LAYER_2
 40
0.0353
 41
0.0353
 62
252
 66
1
 10
0
 20
0
 30
0
  0
VERTEX
  8
LAYER_2
 10
125.1972
 20
141.5687
  0
VERTEX
  8
LAYER_2
 10
125.7042
 20
142.1146
  0
SEQEND
  0
POLYLINE
  8
LAYER_2
 40
0.0353
 41
0.0353
 62
252
 66
1
 10
0
 20
0
 30
0
  0
VERTEX
  8
LAYER_2
 10
125.9381
 20
142.3486
  0
VERTEX
  8
LAYER_2
 10
126.172
 20
142.5825
  0
VERTEX
  8
LAYER_2
 10
126.3672
 20
142.8165
  0
SEQEND
  0
POLYLINE
  8
LAYER_2
 40
0.0353
 41
0.0353
 62
252
 66
1
 10
0
 20
0
 30
0
  0
VERTEX
  8
LAYER_2
 10
126.562
 20
143.0895
  0
VERTEX
  8
LAYER_2
 10
126.9131
 20
143.5966
  0
SEQEND
  0
POLYLINE
  8
LAYER_2
 40
0.0353
 41
0.0353
 62
252
 66
1
 10
0
 20
0
 30
0
  0
VERTEX
  8
LAYER_2
 10
127.108
 20
143.8304
  0
VERTEX
  8
LAYER_2
 10
127.459
 20
144.3763
  0
SEQEND
  0
POLYLINE
  8
LAYER_2
 40
0.0353
 41
0.0353
 62
252
 66
1
 10
0
 20
0
 30
0
  0
VERTEX
  8
LAYER_2
 10
127.6149
 20
144.6493
  0
VERTEX
  8
LAYER_2
 10
127.81
 20
144.9224
  0
VERTEX
  8
LAYER_2
 10
127.9268
 20
145.1952
  0
SEQEND
  0
POLYLINE
  8
LAYER_2
 40
0.0353
 41
0.0353
 62
252
 66
1
 10
0
 20
0
 30
0
  0
VERTEX
  8
LAYER_2
 10
128.0828
 20
145.4682
  0
VERTEX
  8
LAYER_2
 10
128.356
 20
146.0533
  0
SEQEND
  0
POLYLINE
  8
LAYER_2
 40
0.0353
 41
0.0353
 62
252
 66
1
 10
0
 20
0
 30
0
  0
VERTEX
  8
LAYER_2
 10
128.5118
 20
146.3261
  0
VERTEX
  8
LAYER_2
 10
128.7457
 20
146.9111
  0
SEQEND
  0
POLYLINE
  8
LAYER_2
 40
0.0353
 41
0.0353
 62
252
 66
1
 10
0
 20
0
 30
0
  0
VERTEX
  8
LAYER_2
 10
128.8627
 20
147.223
  0
VERTEX
  8
LAYER_2
 10
128.9799
 20
147.4961
  0
VERTEX
  8
LAYER_2
 10
129.0578
 20
147.8081
  0
SEQEND
  0
POLYLINE
  8
LAYER_2
 40
0.0353
 41
0.0353
 62
252
 66
1
 10
0
 20
0
 30
0
  0
VERTEX
  8
LAYER_2
 10
129.1357
 20
148.1199
  0
VERTEX
  8
LAYER_2
 10
129.3696
 20
148.8609
  0
SEQEND
  0
POLYLINE
  8
LAYER_2
 40
0.0353
 41
0.0353
 62
252
 66
1
 10
0
 20
0
 30
0
  0
VERTEX
  8
LAYER_2
 10
130.4225
 20
149.4067
  0
VERTEX
  8
LAYER_2
 10
130.2666
 20
149.4459
  0
VERTEX
  8
LAYER_2
 10
130.1494
 20
149.4459
  0
VERTEX
  8
LAYER_2
 10
129.9934
 20
149.4459
  0
VERTEX
  8
LAYER_2
 10
129.9155
 20
149.4459
  0
SEQEND
  0
POLYLINE
  8
LAYER_2
 40
0.0353
 41
0.0353
 62
252
 66
1
 10
0
 20
0
 30
0
  0
VERTEX
  8
LAYER_2
 10
129.6426
 20
149.2897
  0
VERTEX
  8
LAYER_2
 10
129.6034
 20
149.2505
  0
VERTEX
  8
LAYER_2
 10
129.4867
 20
149.1338
  0
VERTEX
  8
LAYER_2
 10
129.4087
 20
149.0166
  0
VERTEX
  8
LAYER_2
 10
129.3695
 20
148.8607
  0
SEQEND
  0
POLYLINE
  8
LAYER_2
 40
0.0353
 41
0.0353
 62
252
 66
1
 10
0
 20
0
 30
0
  0
VERTEX
  8
LAYER_2
 10
125.1972
 20
141.5687
  0
VERTEX
  8
LAYER_2
 10
125.1192
 20
141.4515
  0
VERTEX
  8
LAYER_2
 10
125.0412
 20
141.3348
  0
VERTEX
  8
LAYER_2
 10
125.002
 20
141.2176
  0
VERTEX
  8
LAYER_2
 10
124.9632
 20
141.1008
  0
VERTEX
  8
LAYER_2
 10
124.9632
 20
140.9837
  0
SEQEND
  0
POLYLINE
  8
LAYER_2
 40
0.0353
 41
0.0353
 62
252
 66
1
 10
0
 20
0
 30
0
  0
VERTEX
  8
LAYER_2
 10
123.2864
 20
139.346
  0
VERTEX
  8
LAYER_2
 10
123.2472
 20
139.502
  0
VERTEX
  8
LAYER_2
 10
123.1693
 20
139.6191
  0
VERTEX
  8
LAYER_2
 10
123.0913
 20
139.7359
  0
VERTEX
  8
LAYER_2
 10
122.9745
 20
139.8139
  0
SEQEND
  0
POLYLINE
  8
LAYER_2
 40
0.0353
 41
0.0353
 62
252
 66
1
 10
0
 20
0
 30
0
  0
VERTEX
  8
LAYER_2
 10
122.7015
 20
139.9699
  0
VERTEX
  8
LAYER_2
 10
122.5455
 20
140.0091
  0
VERTEX
  8
LAYER_2
 10
122.3896
 20
140.0091
  0
VERTEX
  8
LAYER_2
 10
122.2724
 20
139.9699
  0
VERTEX
  8
LAYER_2
 10
122.1165
 20
139.8919
  0
SEQEND
  0
POLYLINE
  8
LAYER_2
 40
0.0353
 41
0.0353
 62
252
 66
1
 10
0
 20
0
 30
0
  0
VERTEX
  8
LAYER_2
 10
124.7683
 20
136.6164
  0
VERTEX
  8
LAYER_2
 10
124.2224
 20
136.6164
  0
VERTEX
  8
LAYER_2
 10
124.1444
 20
136.6164
  0
VERTEX
  8
LAYER_2
 10
124.1052
 20
136.6164
  0
VERTEX
  8
LAYER_2
 10
124.0664
 20
136.6555
  0
VERTEX
  8
LAYER_2
 10
124.0273
 20
136.6943
  0
VERTEX
  8
LAYER_2
 10
123.9885
 20
136.7335
  0
VERTEX
  8
LAYER_2
 10
123.9493
 20
136.7723
  0
VERTEX
  8
LAYER_2
 10
123.9493
 20
136.8115
  0
VERTEX
  8
LAYER_2
 10
123.9105
 20
136.8503
  0
SEQEND
  0
POLYLINE
  8
LAYER_2
 40
0.0353
 41
0.0353
 62
252
 66
1
 10
0
 20
0
 30
0
  0
VERTEX
  8
LAYER_2
 10
124.9632
 20
139.073
  0
VERTEX
  8
LAYER_2
 10
124.9632
 20
139.892
  0
SEQEND
  0
POLYLINE
  8
LAYER_2
 40
0.0353
 41
0.0353
 62
252
 66
1
 10
0
 20
0
 30
0
  0
VERTEX
  8
LAYER_2
 10
124.9632
 20
140.2039
  0
VERTEX
  8
LAYER_2
 10
124.9632
 20
140.9837
  0
SEQEND
  0
POLYLINE
  8
LAYER_2
 40
0.0353
 41
0.0353
 62
252
 66
1
 10
0
 20
0
 30
0
  0
VERTEX
  8
LAYER_2
 10
123.9104
 20
136.8503
  0
VERTEX
  8
LAYER_2
 10
123.7544
 20
137.4742
  0
SEQEND
  0
POLYLINE
  8
LAYER_2
 40
0.0353
 41
0.0353
 62
252
 66
1
 10
0
 20
0
 30
0
  0
VERTEX
  8
LAYER_2
 10
123.6764
 20
137.7862
  0
VERTEX
  8
LAYER_2
 10
123.5204
 20
138.41
  0
SEQEND
  0
POLYLINE
  8
LAYER_2
 40
0.0353
 41
0.0353
 62
252
 66
1
 10
0
 20
0
 30
0
  0
VERTEX
  8
LAYER_2
 10
123.4424
 20
138.7221
  0
VERTEX
  8
LAYER_2
 10
123.2865
 20
139.3459
  0
SEQEND
  0
POLYLINE
  8
LAYER_2
 40
0.0353
 41
0.0353
 62
252
 66
1
 10
0
 20
0
 30
0
  0
VERTEX
  8
LAYER_2
 10
126.874
 20
136.7723
  0
VERTEX
  8
LAYER_2
 10
126.7568
 20
136.9283
  0
VERTEX
  8
LAYER_2
 10
126.64
 20
137.0454
  0
VERTEX
  8
LAYER_2
 10
126.5621
 20
137.1234
  0
SEQEND
  0
POLYLINE
  8
LAYER_2
 40
0.0353
 41
0.0353
 62
252
 66
1
 10
0
 20
0
 30
0
  0
VERTEX
  8
LAYER_2
 10
126.2891
 20
137.2403
  0
VERTEX
  8
LAYER_2
 10
126.2503
 20
137.2403
  0
VERTEX
  8
LAYER_2
 10
126.0551
 20
137.2795
  0
VERTEX
  8
LAYER_2
 10
125.86
 20
137.2795
  0
VERTEX
  8
LAYER_2
 10
125.6652
 20
137.2403
  0
SEQEND
  0
POLYLINE
  8
LAYER_2
 40
0.0353
 41
0.0353
 62
252
 66
1
 10
0
 20
0
 30
0
  0
VERTEX
  8
LAYER_2
 10
125.3532
 20
137.0843
  0
VERTEX
  8
LAYER_2
 10
125.314
 20
137.0451
  0
VERTEX
  8
LAYER_2
 10
125.158
 20
136.9283
  0
VERTEX
  8
LAYER_2
 10
125.0412
 20
136.7724
  0
VERTEX
  8
LAYER_2
 10
125.0021
 20
136.7332
  0
VERTEX
  8
LAYER_2
 10
124.9633
 20
136.6944
  0
VERTEX
  8
LAYER_2
 10
124.9241
 20
136.6552
  0
VERTEX
  8
LAYER_2
 10
124.8853
 20
136.6164
  0
VERTEX
  8
LAYER_2
 10
124.8461
 20
136.6164
  0
VERTEX
  8
LAYER_2
 10
124.7681
 20
136.6164
  0
SEQEND
  0
POLYLINE
  8
LAYER_2
 40
0.0353
 41
0.0353
 62
252
 66
1
 10
0
 20
0
 30
0
  0
VERTEX
  8
LAYER_2
 10
126.874
 20
136.7723
  0
VERTEX
  8
LAYER_2
 10
126.9132
 20
136.7331
  0
VERTEX
  8
LAYER_2
 10
126.952
 20
136.6943
  0
VERTEX
  8
LAYER_2
 10
126.9911
 20
136.6551
  0
VERTEX
  8
LAYER_2
 10
127.0299
 20
136.6164
  0
VERTEX
  8
LAYER_2
 10
127.1079
 20
136.6164
  0
VERTEX
  8
LAYER_2
 10
127.1471
 20
136.6164
  0
SEQEND
  0
POLYLINE
  8
LAYER_2
 40
0.0353
 41
0.0353
 62
252
 66
1
 10
0
 20
0
 30
0
  0
VERTEX
  8
LAYER_2
 10
127.0689
 20
137.9812
  0
VERTEX
  8
LAYER_2
 10
126.7958
 20
138.1371
  0
VERTEX
  8
LAYER_2
 10
126.6398
 20
138.1763
  0
SEQEND
  0
POLYLINE
  8
LAYER_2
 40
0.0353
 41
0.0353
 62
252
 66
1
 10
0
 20
0
 30
0
  0
VERTEX
  8
LAYER_2
 10
126.3281
 20
138.2541
  0
VERTEX
  8
LAYER_2
 10
126.1329
 20
138.2933
  0
VERTEX
  8
LAYER_2
 10
125.821
 20
138.2933
  0
SEQEND
  0
POLYLINE
  8
LAYER_2
 40
0.0353
 41
0.0353
 62
252
 66
1
 10
0
 20
0
 30
0
  0
VERTEX
  8
LAYER_2
 10
124.9632
 20
139.073
  0
VERTEX
  8
LAYER_2
 10
124.9632
 20
138.9559
  0
VERTEX
  8
LAYER_2
 10
125.002
 20
138.7999
  0
VERTEX
  8
LAYER_2
 10
125.0804
 20
138.6831
  0
VERTEX
  8
LAYER_2
 10
125.1192
 20
138.6052
  0
SEQEND
  0
POLYLINE
  8
LAYER_2
 40
0.0353
 41
0.0353
 62
252
 66
1
 10
0
 20
0
 30
0
  0
VERTEX
  8
LAYER_2
 10
125.3532
 20
138.4101
  0
VERTEX
  8
LAYER_2
 10
125.392
 20
138.3709
  0
VERTEX
  8
LAYER_2
 10
125.5483
 20
138.3321
  0
VERTEX
  8
LAYER_2
 10
125.6651
 20
138.2929
  0
VERTEX
  8
LAYER_2
 10
125.821
 20
138.2929
  0
SEQEND
  0
POLYLINE
  8
LAYER_2
 40
0.0353
 41
0.0353
 62
252
 66
1
 10
0
 20
0
 30
0
  0
VERTEX
  8
LAYER_2
 10
113.8106
 20
139.112
  0
VERTEX
  8
LAYER_2
 10
114.3177
 20
139.112
  0
SEQEND
  0
POLYLINE
  8
LAYER_2
 40
0.0353
 41
0.0353
 62
252
 66
1
 10
0
 20
0
 30
0
  0
VERTEX
  8
LAYER_2
 10
114.6685
 20
139.151
  0
VERTEX
  8
LAYER_2
 10
115.2536
 20
139.151
  0
VERTEX
  8
LAYER_2
 10
115.2924
 20
139.151
  0
SEQEND
  0
POLYLINE
  8
LAYER_2
 40
0.0353
 41
0.0353
 62
252
 66
1
 10
0
 20
0
 30
0
  0
VERTEX
  8
LAYER_2
 10
115.6044
 20
139.19
  0
VERTEX
  8
LAYER_2
 10
116.2282
 20
139.268
  0
SEQEND
  0
POLYLINE
  8
LAYER_2
 40
0.0353
 41
0.0353
 62
252
 66
1
 10
0
 20
0
 30
0
  0
VERTEX
  8
LAYER_2
 10
116.5403
 20
139.307
  0
VERTEX
  8
LAYER_2
 10
116.6962
 20
139.3462
  0
VERTEX
  8
LAYER_2
 10
117.1641
 20
139.4242
  0
SEQEND
  0
POLYLINE
  8
LAYER_2
 40
0.0353
 41
0.0353
 62
252
 66
1
 10
0
 20
0
 30
0
  0
VERTEX
  8
LAYER_2
 10
117.4761
 20
139.502
  0
VERTEX
  8
LAYER_2
 10
118.1
 20
139.6579
  0
SEQEND
  0
POLYLINE
  8
LAYER_2
 40
0.0353
 41
0.0353
 62
252
 66
1
 10
0
 20
0
 30
0
  0
VERTEX
  8
LAYER_2
 10
118.4121
 20
139.736
  0
VERTEX
  8
LAYER_2
 10
118.9971
 20
139.9311
  0
SEQEND
  0
POLYLINE
  8
LAYER_2
 40
0.0353
 41
0.0353
 62
252
 66
1
 10
0
 20
0
 30
0
  0
VERTEX
  8
LAYER_2
 10
119.309
 20
140.0479
  0
VERTEX
  8
LAYER_2
 10
119.5041
 20
140.1259
  0
VERTEX
  8
LAYER_2
 10
119.894
 20
140.2819
  0
SEQEND
  0
POLYLINE
  8
LAYER_2
 40
0.0353
 41
0.0353
 62
252
 66
1
 10
0
 20
0
 30
0
  0
VERTEX
  8
LAYER_2
 10
120.1668
 20
140.3989
  0
VERTEX
  8
LAYER_2
 10
120.7519
 20
140.672
  0
SEQEND
  0
POLYLINE
  8
LAYER_2
 40
0.0353
 41
0.0353
 62
252
 66
1
 10
0
 20
0
 30
0
  0
VERTEX
  8
LAYER_2
 10
121.0247
 20
140.8278
  0
VERTEX
  8
LAYER_2
 10
121.6098
 20
141.1397
  0
SEQEND
  0
POLYLINE
  8
LAYER_2
 40
0.0353
 41
0.0353
 62
252
 66
1
 10
0
 20
0
 30
0
  0
VERTEX
  8
LAYER_2
 10
121.8826
 20
141.2957
  0
VERTEX
  8
LAYER_2
 10
122.1165
 20
141.4129
  0
VERTEX
  8
LAYER_2
 10
122.3896
 20
141.6077
  0
SEQEND
  0
POLYLINE
  8
LAYER_2
 40
0.0353
 41
0.0353
 62
252
 66
1
 10
0
 20
0
 30
0
  0
VERTEX
  8
LAYER_2
 10
122.6625
 20
141.8027
  0
VERTEX
  8
LAYER_2
 10
123.1696
 20
142.1538
  0
SEQEND
  0
POLYLINE
  8
LAYER_2
 40
0.0353
 41
0.0353
 62
252
 66
1
 10
0
 20
0
 30
0
  0
VERTEX
  8
LAYER_2
 10
123.4424
 20
142.3486
  0
VERTEX
  8
LAYER_2
 10
123.9103
 20
142.7777
  0
SEQEND
  0
POLYLINE
  8
LAYER_2
 40
0.0353
 41
0.0353
 62
252
 66
1
 10
0
 20
0
 30
0
  0
VERTEX
  8
LAYER_2
 10
124.1443
 20
142.9726
  0
VERTEX
  8
LAYER_2
 10
124.4175
 20
143.2065
  0
VERTEX
  8
LAYER_2
 10
124.6122
 20
143.4016
  0
SEQEND
  0
POLYLINE
  8
LAYER_2
 40
0.0353
 41
0.0353
 62
252
 66
1
 10
0
 20
0
 30
0
  0
VERTEX
  8
LAYER_2
 10
124.8462
 20
143.6355
  0
VERTEX
  8
LAYER_2
 10
125.2753
 20
144.1033
  0
SEQEND
  0
POLYLINE
  8
LAYER_2
 40
0.0353
 41
0.0353
 62
252
 66
1
 10
0
 20
0
 30
0
  0
VERTEX
  8
LAYER_2
 10
125.5092
 20
144.3374
  0
VERTEX
  8
LAYER_2
 10
125.8991
 20
144.8444
  0
SEQEND
  0
POLYLINE
  8
LAYER_2
 40
0.0353
 41
0.0353
 62
252
 66
1
 10
0
 20
0
 30
0
  0
VERTEX
  8
LAYER_2
 10
126.0941
 20
145.0783
  0
VERTEX
  8
LAYER_2
 10
126.328
 20
145.3902
  0
VERTEX
  8
LAYER_2
 10
126.484
 20
145.5853
  0
SEQEND
  0
POLYLINE
  8
LAYER_2
 40
0.0353
 41
0.0353
 62
252
 66
1
 10
0
 20
0
 30
0
  0
VERTEX
  8
LAYER_2
 10
126.64
 20
145.8582
  0
VERTEX
  8
LAYER_2
 10
126.9911
 20
146.404
  0
SEQEND
  0
POLYLINE
  8
LAYER_2
 40
0.0353
 41
0.0353
 62
252
 66
1
 10
0
 20
0
 30
0
  0
VERTEX
  8
LAYER_2
 10
127.1469
 20
146.6771
  0
VERTEX
  8
LAYER_2
 10
127.4589
 20
147.2229
  0
SEQEND
  0
POLYLINE
  8
LAYER_2
 40
0.0353
 41
0.0353
 62
252
 66
1
 10
0
 20
0
 30
0
  0
VERTEX
  8
LAYER_2
 10
127.5759
 20
147.496
  0
VERTEX
  8
LAYER_2
 10
127.8098
 20
147.9251
  0
VERTEX
  8
LAYER_2
 10
127.849
 20
148.081
  0
SEQEND
  0
POLYLINE
  8
LAYER_2
 40
0.0353
 41
0.0353
 62
252
 66
1
 10
0
 20
0
 30
0
  0
VERTEX
  8
LAYER_2
 10
127.9658
 20
148.3539
  0
VERTEX
  8
LAYER_2
 10
128.239
 20
148.9777
  0
SEQEND
  0
POLYLINE
  8
LAYER_2
 40
0.0353
 41
0.0353
 62
252
 66
1
 10
0
 20
0
 30
0
  0
VERTEX
  8
LAYER_2
 10
128.3558
 20
149.2507
  0
VERTEX
  8
LAYER_2
 10
128.3558
 20
149.2899
  0
VERTEX
  8
LAYER_2
 10
128.5117
 20
149.8746
  0
SEQEND
  0
POLYLINE
  8
LAYER_2
 40
0.0353
 41
0.0353
 62
252
 66
1
 10
0
 20
0
 30
0
  0
VERTEX
  8
LAYER_2
 10
128.5898
 20
150.1866
  0
VERTEX
  8
LAYER_2
 10
128.7457
 20
150.6937
  0
SEQEND
  0
POLYLINE
  8
LAYER_2
 40
0.0353
 41
0.0353
 62
252
 66
1
 10
0
 20
0
 30
0
  0
VERTEX
  8
LAYER_2
 10
114.3176
 20
137.8252
  0
VERTEX
  8
LAYER_2
 10
114.9026
 20
137.8252
  0
SEQEND
  0
POLYLINE
  8
LAYER_2
 40
0.0353
 41
0.0353
 62
252
 66
1
 10
0
 20
0
 30
0
  0
VERTEX
  8
LAYER_2
 10
115.2144
 20
137.8642
  0
VERTEX
  8
LAYER_2
 10
115.6435
 20
137.8642
  0
VERTEX
  8
LAYER_2
 10
115.8383
 20
137.9034
  0
SEQEND
  0
POLYLINE
  8
LAYER_2
 40
0.0353
 41
0.0353
 62
252
 66
1
 10
0
 20
0
 30
0
  0
VERTEX
  8
LAYER_2
 10
116.1503
 20
137.9422
  0
VERTEX
  8
LAYER_2
 10
116.7741
 20
138.0202
  0
SEQEND
  0
POLYLINE
  8
LAYER_2
 40
0.0353
 41
0.0353
 62
252
 66
1
 10
0
 20
0
 30
0
  0
VERTEX
  8
LAYER_2
 10
117.1252
 20
138.0981
  0
VERTEX
  8
LAYER_2
 10
117.7102
 20
138.2153
  0
SEQEND
  0
POLYLINE
  8
LAYER_2
 40
0.0353
 41
0.0353
 62
252
 66
1
 10
0
 20
0
 30
0
  0
VERTEX
  8
LAYER_2
 10
118.0221
 20
138.2931
  0
VERTEX
  8
LAYER_2
 10
118.334
 20
138.3711
  0
VERTEX
  8
LAYER_2
 10
118.6459
 20
138.4491
  0
SEQEND
  0
POLYLINE
  8
LAYER_2
 40
0.0353
 41
0.0353
 62
252
 66
1
 10
0
 20
0
 30
0
  0
VERTEX
  8
LAYER_2
 10
118.958
 20
138.5661
  0
VERTEX
  8
LAYER_2
 10
119.543
 20
138.7612
  0
SEQEND
  0
POLYLINE
  8
LAYER_2
 40
0.0353
 41
0.0353
 62
252
 66
1
 10
0
 20
0
 30
0
  0
VERTEX
  8
LAYER_2
 10
119.8549
 20
138.8781
  0
VERTEX
  8
LAYER_2
 10
120.4399
 20
139.112
  0
SEQEND
  0
POLYLINE
  8
LAYER_2
 40
0.0353
 41
0.0353
 62
252
 66
1
 10
0
 20
0
 30
0
  0
VERTEX
  8
LAYER_2
 10
120.7518
 20
139.229
  0
VERTEX
  8
LAYER_2
 10
120.9077
 20
139.307
  0
VERTEX
  8
LAYER_2
 10
121.2976
 20
139.5022
  0
SEQEND
  0
POLYLINE
  8
LAYER_2
 40
0.0353
 41
0.0353
 62
252
 66
1
 10
0
 20
0
 30
0
  0
VERTEX
  8
LAYER_2
 10
121.6096
 20
139.658
  0
VERTEX
  8
LAYER_2
 10
122.1167
 20
139.8919
  0
SEQEND
  0
POLYLINE
  8
LAYER_2
 40
0.0353
 41
0.0353
 62
252
 66
1
 10
0
 20
0
 30
0
  0
VERTEX
  8
LAYER_2
 10
114.3176
 20
137.8252
  0
VERTEX
  8
LAYER_2
 10
114.2004
 20
137.786
  0
VERTEX
  8
LAYER_2
 10
114.1224
 20
137.786
  0
VERTEX
  8
LAYER_2
 10
114.0445
 20
137.708
  0
VERTEX
  8
LAYER_2
 10
113.9665
 20
137.6692
  0
VERTEX
  8
LAYER_2
 10
113.8885
 20
137.5912
  0
VERTEX
  8
LAYER_2
 10
113.8497
 20
137.5133
  0
VERTEX
  8
LAYER_2
 10
113.8105
 20
137.3961
  0
VERTEX
  8
LAYER_2
 10
113.8105
 20
137.3181
  0
SEQEND
  0
POLYLINE
  8
LAYER_2
 40
0.0353
 41
0.0353
 62
252
 66
1
 10
0
 20
0
 30
0
  0
VERTEX
  8
LAYER_2
 10
129.4086
 20
151.0835
  0
VERTEX
  8
LAYER_2
 10
129.3307
 20
151.0835
  0
VERTEX
  8
LAYER_2
 10
129.2527
 20
151.1227
  0
VERTEX
  8
LAYER_2
 10
129.1747
 20
151.0835
  0
VERTEX
  8
LAYER_2
 10
129.0575
 20
151.0835
  0
VERTEX
  8
LAYER_2
 10
128.9796
 20
151.0443
  0
VERTEX
  8
LAYER_2
 10
128.9408
 20
151.0055
  0
VERTEX
  8
LAYER_2
 10
128.8628
 20
150.9276
  0
VERTEX
  8
LAYER_2
 10
128.8236
 20
150.8496
  0
VERTEX
  8
LAYER_2
 10
128.7848
 20
150.7716
  0
VERTEX
  8
LAYER_2
 10
128.7456
 20
150.6936
  0
SEQEND
  0
POLYLINE
  8
LAYER_2
 40
0.0353
 41
0.0353
 62
252
 66
1
 10
0
 20
0
 30
0
  0
VERTEX
  8
LAYER_2
 10
92.3244
 20
138.1761
  0
VERTEX
  8
LAYER_2
 10
92.4415
 20
138.059
  0
VERTEX
  8
LAYER_2
 10
92.5583
 20
137.981
  0
VERTEX
  8
LAYER_2
 10
92.6754
 20
137.903
  0
SEQEND
  0
POLYLINE
  8
LAYER_2
 40
0.0353
 41
0.0353
 62
252
 66
1
 10
0
 20
0
 30
0
  0
VERTEX
  8
LAYER_2
 10
92.9873
 20
137.8252
  0
VERTEX
  8
LAYER_2
 10
93.1432
 20
137.8644
  0
VERTEX
  8
LAYER_2
 10
93.2992
 20
137.9032
  0
VERTEX
  8
LAYER_2
 10
93.4163
 20
137.9811
  0
SEQEND
  0
POLYLINE
  8
LAYER_2
 40
0.0353
 41
0.0353
 62
252
 66
1
 10
0
 20
0
 30
0
  0
VERTEX
  8
LAYER_2
 10
127.0689
 20
137.9812
  0
VERTEX
  8
LAYER_2
 10
127.2249
 20
137.9032
  0
VERTEX
  8
LAYER_2
 10
127.3808
 20
137.864
  0
VERTEX
  8
LAYER_2
 10
127.498
 20
137.8252
  0
SEQEND
  0
POLYLINE
  8
LAYER_2
 40
0.0353
 41
0.0353
 62
252
 66
1
 10
0
 20
0
 30
0
  0
VERTEX
  8
LAYER_2
 10
127.8099
 20
137.9032
  0
VERTEX
  8
LAYER_2
 10
127.9658
 20
137.9811
  0
VERTEX
  8
LAYER_2
 10
128.083
 20
138.0591
  0
VERTEX
  8
LAYER_2
 10
128.161
 20
138.1763
  0
SEQEND
  0
POLYLINE
  8
LAYER_2
 40
0.4339
 41
0.4339
 66
1
 10
0
 20
0
 30
0
  0
VERTEX
  8
LAYER_2
 10
39.525
 20
94.9306
  0
VERTEX
  8
LAYER_2
 10
39.525
 20
91.5771
  0
SEQEND
  0
INSERT
  8
LAYER_2
  2
AIGNBL02010040
 10
0
 20
0
 30
0
  0
POLYLINE
  8
LAYER_2
 40
0.4339
 41
0.4339
 66
1
 10
0
 20
0
 30
0
  0
VERTEX
  8
LAYER_2
 10
39.525
 20
94.9306
  0
VERTEX
  8
LAYER_2
 10
40.6559
 20
95.9055
  0
SEQEND
  0
POLYLINE
  8
LAYER_2
 40
0.4339
 41
0.4339
 66
1
 10
0
 20
0
 30
0
  0
VERTEX
  8
LAYER_2
 10
40.8118
 20
94.1507
  0
VERTEX
  8
LAYER_2
 10
40.8118
 20
91.577
  0
SEQEND
  0
POLYLINE
  8
LAYER_2
 40
0.4339
 41
0.4339
 66
1
 10
0
 20
0
 30
0
  0
VERTEX
  8
LAYER_2
 10
58.2036
 20
105.9662
  0
VERTEX
  8
LAYER_2
 10
57.4238
 20
106.2781
  0
SEQEND
  0
INSERT
  8
LAYER_2
  2
AIGNBL02010041
 10
0
 20
0
 30
0
  0
POLYLINE
  8
LAYER_2
 40
0.4339
 41
0.4339
 66
1
 10
0
 20
0
 30
0
  0
VERTEX
  8
LAYER_2
 10
51.7695
 20
93.4488
  0
VERTEX
  8
LAYER_2
 10
51.2236
 20
93.4488
  0
SEQEND
  0
INSERT
  8
LAYER_2
  2
AIGNBL02010042
 10
0
 20
0
 30
0
  0
POLYLINE
  8
LAYER_2
 40
0.4339
 41
0.4339
 66
1
 10
0
 20
0
 30
0
  0
VERTEX
  8
LAYER_2
 10
51.9644
 20
95.9445
  0
VERTEX
  8
LAYER_2
 10
51.9644
 20
97.8163
  0
SEQEND
  0
POLYLINE
  8
LAYER_2
 40
0.4339
 41
0.4339
 66
1
 10
0
 20
0
 30
0
  0
VERTEX
  8
LAYER_2
 10
50.9116
 20
93.7218
  0
VERTEX
  8
LAYER_2
 10
50.2877
 20
96.1783
  0
SEQEND
  0
INSERT
  8
LAYER_2
  2
AIGNBL02010043
 10
0
 20
0
 30
0
  0
POLYLINE
  8
LAYER_2
 40
0.4339
 41
0.4339
 66
1
 10
0
 20
0
 30
0
  0
VERTEX
  8
LAYER_2
 10
54.1482
 20
93.4488
  0
VERTEX
  8
LAYER_2
 10
51.7696
 20
93.4488
  0
SEQEND
  0
POLYLINE
  8
LAYER_2
 40
0.4339
 41
0.4339
 66
1
 10
0
 20
0
 30
0
  0
VERTEX
  8
LAYER_2
 10
40.6948
 20
91.46
  0
VERTEX
  8
LAYER_2
 10
39.6031
 20
91.46
  0
SEQEND
  0
INSERT
  8
LAYER_2
  2
AIGNBL02010044
 10
0
 20
0
 30
0
  0
POLYLINE
  8
LAYER_2
 40
0.1446
 41
0.1446
 66
1
 10
0
 20
0
 30
0
  0
VERTEX
  8
LAYER_2
 10
40.8118
 20
93.4488
  0
VERTEX
  8
LAYER_2
 10
40.8118
 20
91.5769
  0
SEQEND
  0
INSERT
  8
LAYER_2
  2
AIGNBL02010045
 10
0
 20
0
 30
0
  0
INSERT
  8
LAYER_2
  2
AIGNBL02010046
 10
0
 20
0
 30
0
  0
INSERT
  8
LAYER_2
  2
AIGNBL02010048
 10
0
 20
0
 30
0
  0
POLYLINE
  8
LAYER_2
 66
1
 10
0
 20
0
 30
0
  0
VERTEX
  8
LAYER_2
 10
176.5705
 20
155.295
  0
VERTEX
  8
LAYER_2
 10
176.5705
 20
183.3324
  0
SEQEND
  0
POLYLINE
  8
LAYER_2
 66
1
 10
0
 20
0
 30
0
  0
VERTEX
  8
LAYER_2
 10
221.5709
 20
154.7881
  0
VERTEX
  8
LAYER_2
 10
221.5709
 20
183.3325
  0
SEQEND
  0
POLYLINE
  8
LAYER_2
 66
1
 10
0
 20
0
 30
0
  0
VERTEX
  8
LAYER_2
 10
178.0523
 20
183.2155
  0
VERTEX
  8
LAYER_2
 10
196.1849
 20
183.2155
  0
SEQEND
  0
POLYLINE
  8
LAYER_2
 66
1
 10
0
 20
0
 30
0
  0
VERTEX
  8
LAYER_2
 10
220.05
 20
183.2155
  0
VERTEX
  8
LAYER_2
 10
201.9174
 20
183.2155
  0
SEQEND
  0
POLYLINE
  8
LAYER_2
 40
0.05
 41
0.05
 66
1
 10
0
 20
0
 30
0
 70
1
  0
VERTEX
  8
LAYER_2
 10
178.0523
 20
183.4494
  0
VERTEX
  8
LAYER_2
 10
178.0523
 20
182.9424
  0
VERTEX
  8
LAYER_2
 10
176.5704
 20
183.2155
  0
SEQEND
  0
POLYLINE
  8
LAYER_2
 66
1
 10
0
 20
0
 30
0
 70
1
  0
VERTEX
  8
LAYER_2
 10
178.0523
 20
183.4494
  0
VERTEX
  8
LAYER_2
 10
178.0523
 20
182.9424
  0
VERTEX
  8
LAYER_2
 10
176.5704
 20
183.2155
  0
SEQEND
  0
POLYLINE
  8
LAYER_2
 40
0.05
 41
0.05
 66
1
 10
0
 20
0
 30
0
 70
1
  0
VERTEX
  8
LAYER_2
 10
220.05
 20
183.4494
  0
VERTEX
  8
LAYER_2
 10
220.05
 20
182.9424
  0
VERTEX
  8
LAYER_2
 10
221.5708
 20
183.2155
  0
SEQEND
  0
POLYLINE
  8
LAYER_2
 66
1
 10
0
 20
0
 30
0
 70
1
  0
VERTEX
  8
LAYER_2
 10
220.05
 20
183.4494
  0
VERTEX
  8
LAYER_2
 10
220.05
 20
182.9424
  0
VERTEX
  8
LAYER_2
 10
221.5708
 20
183.2155
  0
SEQEND
  0
TEXT
  8
LAYER_2
 10
197.165
 20
182.4837
 11
197.165
 21
182.4837
 40
2.8433
 41
0.5
  1
450
  0
POLYLINE
  8
LAYER_2
 66
1
 10
0
 20
0
 30
0
  0
VERTEX
  8
LAYER_2
 10
198.7977
 20
177.4832
  0
VERTEX
  8
LAYER_2
 10
170.0973
 20
177.4832
  0
SEQEND
  0
POLYLINE
  8
LAYER_2
 66
1
 10
0
 20
0
 30
0
  0
VERTEX
  8
LAYER_2
 10
199.1877
 20
132.4829
  0
VERTEX
  8
LAYER_2
 10
170.0973
 20
132.4829
  0
SEQEND
  0
POLYLINE
  8
LAYER_2
 66
1
 10
0
 20
0
 30
0
  0
VERTEX
  8
LAYER_2
 10
170.2143
 20
175.9624
  0
VERTEX
  8
LAYER_2
 10
170.2143
 20
157.8298
  0
SEQEND
  0
POLYLINE
  8
LAYER_2
 66
1
 10
0
 20
0
 30
0
  0
VERTEX
  8
LAYER_2
 10
170.2143
 20
133.9647
  0
VERTEX
  8
LAYER_2
 10
170.2143
 20
152.0973
  0
SEQEND
  0
POLYLINE
  8
LAYER_2
 40
0.05
 41
0.05
 66
1
 10
0
 20
0
 30
0
 70
1
  0
VERTEX
  8
LAYER_2
 10
169.9804
 20
175.9624
  0
VERTEX
  8
LAYER_2
 10
170.4874
 20
175.9624
  0
VERTEX
  8
LAYER_2
 10
170.2143
 20
177.4832
  0
SEQEND
  0
POLYLINE
  8
LAYER_2
 66
1
 10
0
 20
0
 30
0
 70
1
  0
VERTEX
  8
LAYER_2
 10
169.9804
 20
175.9624
  0
VERTEX
  8
LAYER_2
 10
170.4874
 20
175.9624
  0
VERTEX
  8
LAYER_2
 10
170.2143
 20
177.4832
  0
SEQEND
  0
POLYLINE
  8
LAYER_2
 40
0.05
 41
0.05
 66
1
 10
0
 20
0
 30
0
 70
1
  0
VERTEX
  8
LAYER_2
 10
169.9804
 20
133.9647
  0
VERTEX
  8
LAYER_2
 10
170.4874
 20
133.9647
  0
VERTEX
  8
LAYER_2
 10
170.2143
 20
132.4827
  0
SEQEND
  0
POLYLINE
  8
LAYER_2
 66
1
 10
0
 20
0
 30
0
 70
1
  0
VERTEX
  8
LAYER_2
 10
169.9804
 20
133.9647
  0
VERTEX
  8
LAYER_2
 10
170.4874
 20
133.9647
  0
VERTEX
  8
LAYER_2
 10
170.2143
 20
132.4827
  0
SEQEND
  0
TEXT
  8
LAYER_2
 10
171.5346
 20
152.1361
 11
171.5346
 21
152.1361
 40
2.8433
 41
0.5
 50
89.99999999
  1
450
  0
POLYLINE
  8
LAYER_2
 66
1
 10
0
 20
0
 30
0
  0
VERTEX
  8
LAYER_2
 10
198.4468
 20
136.4604
  0
VERTEX
  8
LAYER_2
 10
198.4076
 20
136.4604
  0
SEQEND
  0
POLYLINE
  8
LAYER_2
 66
1
 10
0
 20
0
 30
0
  0
VERTEX
  8
LAYER_2
 10
198.4468
 20
132.4829
  0
VERTEX
  8
LAYER_2
 10
198.4076
 20
132.4829
  0
SEQEND
  0
POLYLINE
  8
LAYER_2
 66
1
 10
0
 20
0
 30
0
  0
VERTEX
  8
LAYER_2
 10
198.5248
 20
136.4604
  0
VERTEX
  8
LAYER_2
 10
198.5248
 20
136.3824
  0
SEQEND
  0
POLYLINE
  8
LAYER_2
 66
1
 10
0
 20
0
 30
0
  0
VERTEX
  8
LAYER_2
 10
198.5248
 20
132.4829
  0
VERTEX
  8
LAYER_2
 10
198.5248
 20
132.5608
  0
SEQEND
  0
POLYLINE
  8
LAYER_2
 66
1
 10
0
 20
0
 30
0
  0
VERTEX
  8
LAYER_2
 10
221.5709
 20
154.7491
  0
VERTEX
  8
LAYER_2
 10
221.5709
 20
154.8662
  0
SEQEND
  0
POLYLINE
  8
LAYER_2
 66
1
 10
0
 20
0
 30
0
  0
VERTEX
  8
LAYER_2
 10
217.5544
 20
154.7881
  0
VERTEX
  8
LAYER_2
 10
217.5544
 20
154.866
  0
SEQEND
  0
POLYLINE
  8
LAYER_2
 66
1
 10
0
 20
0
 30
0
  0
VERTEX
  8
LAYER_2
 10
217.5544
 20
154.7491
  0
VERTEX
  8
LAYER_2
 10
217.6715
 20
154.7491
  0
SEQEND
  0
POLYLINE
  8
LAYER_2
 66
1
 10
0
 20
0
 30
0
  0
VERTEX
  8
LAYER_2
 10
181.048
 20
154.944
  0
VERTEX
  8
LAYER_2
 10
181.048
 20
180.0179
  0
SEQEND
  0
POLYLINE
  8
LAYER_2
 66
1
 10
0
 20
0
 30
0
  0
VERTEX
  8
LAYER_2
 10
217.0544
 20
155.1
  0
VERTEX
  8
LAYER_2
 10
217.0544
 20
180.0179
  0
SEQEND
  0
POLYLINE
  8
LAYER_2
 66
1
 10
0
 20
0
 30
0
  0
VERTEX
  8
LAYER_2
 10
182.5688
 20
179.9009
  0
VERTEX
  8
LAYER_2
 10
196.7241
 20
179.9009
  0
SEQEND
  0
POLYLINE
  8
LAYER_2
 66
1
 10
0
 20
0
 30
0
  0
VERTEX
  8
LAYER_2
 10
215.5725
 20
179.9009
  0
VERTEX
  8
LAYER_2
 10
202.4944
 20
179.9009
  0
SEQEND
  0
POLYLINE
  8
LAYER_2
 40
0.05
 41
0.05
 66
1
 10
0
 20
0
 30
0
 70
1
  0
VERTEX
  8
LAYER_2
 10
182.5688
 20
180.1349
  0
VERTEX
  8
LAYER_2
 10
182.5688
 20
179.6278
  0
VERTEX
  8
LAYER_2
 10
181.048
 20
179.9009
  0
SEQEND
  0
POLYLINE
  8
LAYER_2
 66
1
 10
0
 20
0
 30
0
 70
1
  0
VERTEX
  8
LAYER_2
 10
182.5688
 20
180.1349
  0
VERTEX
  8
LAYER_2
 10
182.5688
 20
179.6278
  0
VERTEX
  8
LAYER_2
 10
181.048
 20
179.9009
  0
SEQEND
  0
POLYLINE
  8
LAYER_2
 40
0.05
 41
0.05
 66
1
 10
0
 20
0
 30
0
 70
1
  0
VERTEX
  8
LAYER_2
 10
215.5725
 20
180.1349
  0
VERTEX
  8
LAYER_2
 10
215.5725
 20
179.6278
  0
VERTEX
  8
LAYER_2
 10
217.0545
 20
179.9009
  0
SEQEND
  0
POLYLINE
  8
LAYER_2
 66
1
 10
0
 20
0
 30
0
 70
1
  0
VERTEX
  8
LAYER_2
 10
215.5725
 20
180.1349
  0
VERTEX
  8
LAYER_2
 10
215.5725
 20
179.6278
  0
VERTEX
  8
LAYER_2
 10
217.0545
 20
179.9009
  0
SEQEND
  0
TEXT
  8
LAYER_2
 10
197.4397
 20
178.9336
 11
197.4397
 21
178.9336
 40
2.8433
 41
0.5
  1
360
  0
POLYLINE
  8
LAYER_2
 66
1
 10
0
 20
0
 30
0
  0
VERTEX
  8
LAYER_2
 10
198.9927
 20
172.9667
  0
VERTEX
  8
LAYER_2
 10
174.3867
 20
172.9667
  0
SEQEND
  0
POLYLINE
  8
LAYER_2
 66
1
 10
0
 20
0
 30
0
  0
VERTEX
  8
LAYER_2
 10
198.4468
 20
136.9604
  0
VERTEX
  8
LAYER_2
 10
174.3866
 20
136.9604
  0
SEQEND
  0
POLYLINE
  8
LAYER_2
 66
1
 10
0
 20
0
 30
0
  0
VERTEX
  8
LAYER_2
 10
174.5038
 20
171.4459
  0
VERTEX
  8
LAYER_2
 10
174.5038
 20
157.2906
  0
SEQEND
  0
POLYLINE
  8
LAYER_2
 66
1
 10
0
 20
0
 30
0
  0
VERTEX
  8
LAYER_2
 10
174.5038
 20
138.4812
  0
VERTEX
  8
LAYER_2
 10
174.5038
 20
150.7537
  0
SEQEND
  0
POLYLINE
  8
LAYER_2
 40
0.05
 41
0.05
 66
1
 10
0
 20
0
 30
0
 70
1
  0
VERTEX
  8
LAYER_2
 10
174.2698
 20
171.4459
  0
VERTEX
  8
LAYER_2
 10
174.7769
 20
171.4459
  0
VERTEX
  8
LAYER_2
 10
174.5038
 20
172.9667
  0
SEQEND
  0
POLYLINE
  8
LAYER_2
 66
1
 10
0
 20
0
 30
0
 70
1
  0
VERTEX
  8
LAYER_2
 10
174.2698
 20
171.4459
  0
VERTEX
  8
LAYER_2
 10
174.7769
 20
171.4459
  0
VERTEX
  8
LAYER_2
 10
174.5038
 20
172.9667
  0
SEQEND
  0
POLYLINE
  8
LAYER_2
 40
0.05
 41
0.05
 66
1
 10
0
 20
0
 30
0
 70
1
  0
VERTEX
  8
LAYER_2
 10
174.2698
 20
138.4812
  0
VERTEX
  8
LAYER_2
 10
174.7769
 20
138.4812
  0
VERTEX
  8
LAYER_2
 10
174.5038
 20
136.9604
  0
SEQEND
  0
POLYLINE
  8
LAYER_2
 66
1
 10
0
 20
0
 30
0
 70
1
  0
VERTEX
  8
LAYER_2
 10
174.2698
 20
138.4812
  0
VERTEX
  8
LAYER_2
 10
174.7769
 20
138.4812
  0
VERTEX
  8
LAYER_2
 10
174.5038
 20
136.9604
  0
SEQEND
  0
TEXT
  8
LAYER_2
 10
175.1358
 20
152.0589
 11
175.1358
 21
152.0589
 40
2.8433
 41
0.5
 50
89.99999999
  1
360
  0
INSERT
  8
LAYER_2
  2
AIGNBL0201004B
 10
0
 20
0
 30
0
  0
POLYLINE
  8
LAYER_2
 66
1
 10
0
 20
0
 30
0
  0
VERTEX
  8
LAYER_2
 10
204.0903
 20
165.3787
  0
VERTEX
  8
LAYER_2
 10
204.0903
 20
169.356
  0
SEQEND
  0
POLYLINE
  8
LAYER_2
 66
1
 10
0
 20
0
 30
0
  0
VERTEX
  8
LAYER_2
 10
194.1075
 20
166.1702
  0
VERTEX
  8
LAYER_2
 10
194.1075
 20
170.1475
  0
SEQEND
  0
POLYLINE
  8
LAYER_2
 66
1
 10
0
 20
0
 30
0
  0
VERTEX
  8
LAYER_2
 10
202.6085
 20
169.2392
  0
VERTEX
  8
LAYER_2
 10
201.7895
 20
169.2392
  0
SEQEND
  0
POLYLINE
  8
LAYER_2
 66
1
 10
0
 20
0
 30
0
  0
VERTEX
  8
LAYER_2
 10
195.5894
 20
169.2392
  0
VERTEX
  8
LAYER_2
 10
196.4083
 20
169.2392
  0
SEQEND
  0
POLYLINE
  8
LAYER_2
 40
0.05
 41
0.05
 66
1
 10
0
 20
0
 30
0
 70
1
  0
VERTEX
  8
LAYER_2
 10
202.6085
 20
169.5122
  0
VERTEX
  8
LAYER_2
 10
202.6085
 20
169.0052
  0
VERTEX
  8
LAYER_2
 10
204.0905
 20
169.2391
  0
SEQEND
  0
POLYLINE
  8
LAYER_2
 66
1
 10
0
 20
0
 30
0
 70
1
  0
VERTEX
  8
LAYER_2
 10
202.6085
 20
169.5122
  0
VERTEX
  8
LAYER_2
 10
202.6085
 20
169.0052
  0
VERTEX
  8
LAYER_2
 10
204.0905
 20
169.2391
  0
SEQEND
  0
POLYLINE
  8
LAYER_2
 40
0.05
 41
0.05
 66
1
 10
0
 20
0
 30
0
 70
1
  0
VERTEX
  8
LAYER_2
 10
195.5894
 20
169.5122
  0
VERTEX
  8
LAYER_2
 10
195.5894
 20
169.0052
  0
VERTEX
  8
LAYER_2
 10
194.1074
 20
169.2391
  0
SEQEND
  0
POLYLINE
  8
LAYER_2
 66
1
 10
0
 20
0
 30
0
 70
1
  0
VERTEX
  8
LAYER_2
 10
195.5894
 20
169.5122
  0
VERTEX
  8
LAYER_2
 10
195.5894
 20
169.0052
  0
VERTEX
  8
LAYER_2
 10
194.1074
 20
169.2391
  0
SEQEND
  0
TEXT
  8
LAYER_2
 10
196.9446
 20
167.9584
 11
196.9446
 21
167.9584
 40
2.8433
 41
0.5
 62
1
  1
100
  0
POLYLINE
  8
LAYER_2
 66
1
 10
0
 20
0
 30
0
  0
VERTEX
  8
LAYER_2
 10
193.6868
 20
150.0146
  0
VERTEX
  8
LAYER_2
 10
191.3
 20
150.0146
  0
SEQEND
  0
POLYLINE
  8
LAYER_2
 66
1
 10
0
 20
0
 30
0
  0
VERTEX
  8
LAYER_2
 10
191.4169
 20
164.4818
  0
VERTEX
  8
LAYER_2
 10
191.4169
 20
160.6993
  0
SEQEND
  0
POLYLINE
  8
LAYER_2
 66
1
 10
0
 20
0
 30
0
  0
VERTEX
  8
LAYER_2
 10
191.4169
 20
151.4965
  0
VERTEX
  8
LAYER_2
 10
191.4169
 20
155.279
  0
SEQEND
  0
POLYLINE
  8
LAYER_2
 40
0.05
 41
0.05
 66
1
 10
0
 20
0
 30
0
 70
1
  0
VERTEX
  8
LAYER_2
 10
191.1829
 20
164.4818
  0
VERTEX
  8
LAYER_2
 10
191.69
 20
164.4818
  0
VERTEX
  8
LAYER_2
 10
191.4168
 20
166.0026
  0
SEQEND
  0
POLYLINE
  8
LAYER_2
 66
1
 10
0
 20
0
 30
0
 70
1
  0
VERTEX
  8
LAYER_2
 10
191.1829
 20
164.4818
  0
VERTEX
  8
LAYER_2
 10
191.69
 20
164.4818
  0
VERTEX
  8
LAYER_2
 10
191.4168
 20
166.0026
  0
SEQEND
  0
POLYLINE
  8
LAYER_2
 40
0.05
 41
0.05
 66
1
 10
0
 20
0
 30
0
 70
1
  0
VERTEX
  8
LAYER_2
 10
191.1829
 20
151.4965
  0
VERTEX
  8
LAYER_2
 10
191.69
 20
151.4965
  0
VERTEX
  8
LAYER_2
 10
191.4168
 20
150.0145
  0
SEQEND
  0
POLYLINE
  8
LAYER_2
 66
1
 10
0
 20
0
 30
0
 70
1
  0
VERTEX
  8
LAYER_2
 10
191.1829
 20
151.4965
  0
VERTEX
  8
LAYER_2
 10
191.69
 20
151.4965
  0
VERTEX
  8
LAYER_2
 10
191.4168
 20
150.0145
  0
SEQEND
  0
TEXT
  8
LAYER_2
 10
192.7372
 20
155.4376
 11
192.7372
 21
155.4376
 40
2.8433
 41
0.5
 50
89.99999999
 62
1
  1
160
  0
POLYLINE
  8
LAYER_2
 66
1
 10
0
 20
0
 30
0
  0
VERTEX
  8
LAYER_2
 10
194.015
 20
166.0027
  0
VERTEX
  8
LAYER_2
 10
191.3001
 20
166.0027
  0
SEQEND
  0
POLYLINE
  8
LAYER_2
 66
1
 10
0
 20
0
 30
0
  0
VERTEX
  8
LAYER_2
 10
191.4169
 20
167.4844
  0
VERTEX
  8
LAYER_2
 10
191.4169
 20
167.6796
  0
SEQEND
  0
POLYLINE
  8
LAYER_2
 40
0.05
 41
0.05
 66
1
 10
0
 20
0
 30
0
 70
1
  0
VERTEX
  8
LAYER_2
 10
191.1829
 20
167.4844
  0
VERTEX
  8
LAYER_2
 10
191.69
 20
167.4844
  0
VERTEX
  8
LAYER_2
 10
191.4168
 20
166.0025
  0
SEQEND
  0
POLYLINE
  8
LAYER_2
 66
1
 10
0
 20
0
 30
0
 70
1
  0
VERTEX
  8
LAYER_2
 10
191.1829
 20
167.4844
  0
VERTEX
  8
LAYER_2
 10
191.69
 20
167.4844
  0
VERTEX
  8
LAYER_2
 10
191.4168
 20
166.0025
  0
SEQEND
  0
POLYLINE
  8
LAYER_2
 40
0.05
 41
0.05
 66
1
 10
0
 20
0
 30
0
 70
1
  0
VERTEX
  8
LAYER_2
 10
191.1829
 20
171.5009
  0
VERTEX
  8
LAYER_2
 10
191.69
 20
171.5009
  0
VERTEX
  8
LAYER_2
 10
191.4168
 20
173.0217
  0
SEQEND
  0
POLYLINE
  8
LAYER_2
 66
1
 10
0
 20
0
 30
0
 70
1
  0
VERTEX
  8
LAYER_2
 10
191.1829
 20
171.5009
  0
VERTEX
  8
LAYER_2
 10
191.69
 20
171.5009
  0
VERTEX
  8
LAYER_2
 10
191.4168
 20
173.0217
  0
SEQEND
  0
TEXT
  8
LAYER_2
 10
192.7372
 20
167.5618
 11
192.7372
 21
167.5618
 40
2.8433
 41
0.5
 50
89.99999999
  1
70
  0
POLYLINE
  8
LAYER_2
 66
1
 10
0
 20
0
 30
0
  0
VERTEX
  8
LAYER_2
 10
207.5177
 20
166.0027
  0
VERTEX
  8
LAYER_2
 10
203.8913
 20
166.0027
  0
SEQEND
  0
POLYLINE
  8
LAYER_2
 66
1
 10
0
 20
0
 30
0
  0
VERTEX
  8
LAYER_2
 10
207.5177
 20
177.5027
  0
VERTEX
  8
LAYER_2
 10
198.6727
 20
177.5027
  0
SEQEND
  0
POLYLINE
  8
LAYER_2
 66
1
 10
0
 20
0
 30
0
  0
VERTEX
  8
LAYER_2
 10
205.4443
 20
167.4844
  0
VERTEX
  8
LAYER_2
 10
205.4443
 20
168.5396
  0
SEQEND
  0
POLYLINE
  8
LAYER_2
 66
1
 10
0
 20
0
 30
0
  0
VERTEX
  8
LAYER_2
 10
205.4443
 20
174.0485
  0
VERTEX
  8
LAYER_2
 10
205.4443
 20
176.0163
  0
SEQEND
  0
POLYLINE
  8
LAYER_2
 40
0.05
 41
0.05
 66
1
 10
0
 20
0
 30
0
 70
1
  0
VERTEX
  8
LAYER_2
 10
205.2103
 20
167.4844
  0
VERTEX
  8
LAYER_2
 10
205.7174
 20
167.4844
  0
VERTEX
  8
LAYER_2
 10
205.4443
 20
166.0025
  0
SEQEND
  0
POLYLINE
  8
LAYER_2
 66
1
 10
0
 20
0
 30
0
 70
1
  0
VERTEX
  8
LAYER_2
 10
205.2103
 20
167.4844
  0
VERTEX
  8
LAYER_2
 10
205.7174
 20
167.4844
  0
VERTEX
  8
LAYER_2
 10
205.4443
 20
166.0025
  0
SEQEND
  0
POLYLINE
  8
LAYER_2
 40
0.05
 41
0.05
 66
1
 10
0
 20
0
 30
0
 70
1
  0
VERTEX
  8
LAYER_2
 10
205.2103
 20
176.0009
  0
VERTEX
  8
LAYER_2
 10
205.7174
 20
176.0009
  0
VERTEX
  8
LAYER_2
 10
205.4443
 20
177.5217
  0
SEQEND
  0
POLYLINE
  8
LAYER_2
 66
1
 10
0
 20
0
 30
0
 70
1
  0
VERTEX
  8
LAYER_2
 10
205.2103
 20
176.0009
  0
VERTEX
  8
LAYER_2
 10
205.7174
 20
176.0009
  0
VERTEX
  8
LAYER_2
 10
205.4443
 20
177.5217
  0
SEQEND
  0
TEXT
  8
LAYER_2
 10
206.7064
 20
168.9392
 11
206.7064
 21
168.9392
 40
2.8433
 41
0.5
 50
89.99999999
  1
115
  0
ENDSEC
  0
EOF
