  0
SECTION
  2
HEADER
  9
$ACADVER
  1
AC1009
  9
$LUNITS
 70
2
  9
$LUPREC
 70
4
  9
$LTSCALE
 40
1.0
  9
$EXTMIN
 10
-30.3177
 20
33.3285
 30
0
  9
$EXTMAX
 10
251.6749
 20
230.337
 30
0
  0
ENDSEC
  0
SECTION
  2
TABLES
  0
TABLE
  2
LTYPE
 70
256
  0
LTYPE
  2
AIGENLINE001
 70
64
  3
generate AI->DXF Converter
 72
65
 73
2
 40
1.4111
 49
0.7056
 49
-0.7056
  0
ENDTAB
  0
TABLE
  2
LAYER
 70
5
  0
LAYER
  2
LAYER_1
 70
64
 62
7
  6
CONTINUOUS
  0
LAYER
  2
LAYER_2
 70
64
 62
7
  6
CONTINUOUS
  0
LAYER
  2
LAYER_3
 70
64
 62
7
  6
CONTINUOUS
  0
LAYER
  2
LAYER_4
 70
64
 62
7
  6
CONTINUOUS
  0
LAYER
  2
LAYER_5
 70
64
 62
7
  6
CONTINUOUS
  0
ENDTAB
  0
TABLE
  2
STYLE
 70
6
  0
STYLE
  2
STANDARD
 70
0
 40
0
 50
0
 71
0
 41
0
 42
0
  3
TXT
  4
BIGFONT
  0
ENDTAB
  0
ENDSEC
  0
SECTION
  2
BLOCKS
  0
BLOCK
  8
LAYER_5
  2
AIGNBL05040009
 70
64
 10
0
 20
0
 30
0
  3
AIGNBL05040009
  0
POLYLINE
  8
LAYER_5
 40
0.05
 41
0.05
 66
1
 10
0
 20
0
 30
0
 70
1
  0
VERTEX
  8
LAYER_5
 10
146.7545
 20
39.1418
  0
VERTEX
  8
LAYER_5
 10
146.2656
 20
37.9567
  0
VERTEX
  8
LAYER_5
 10
145.6376
 20
37.9567
  0
VERTEX
  8
LAYER_5
 10
147.2372
 20
41.7225
  0
VERTEX
  8
LAYER_5
 10
147.9703
 20
41.7225
  0
VERTEX
  8
LAYER_5
 10
149.5768
 20
37.9567
  0
VERTEX
  8
LAYER_5
 10
148.9267
 20
37.9567
  0
VERTEX
  8
LAYER_5
 10
148.424
 20
39.1418
  0
SEQEND
  0
POLYLINE
  8
LAYER_5
 40
0.05
 41
0.05
 66
1
 10
0
 20
0
 30
0
 70
1
  0
VERTEX
  8
LAYER_5
 10
148.2983
 20
39.5207
  0
VERTEX
  8
LAYER_5
 10
147.8373
 20
40.6056
  0
VERTEX
  8
LAYER_5
 10
147.5927
 20
41.2926
  0
VERTEX
  8
LAYER_5
 10
147.5789
 20
41.2926
  0
VERTEX
  8
LAYER_5
 10
147.3412
 20
40.6101
  0
VERTEX
  8
LAYER_5
 10
146.8806
 20
39.5207
  0
SEQEND
  0
ENDBLK
  0
BLOCK
  8
LAYER_5
  2
AIGNBL0504000A
 70
64
 10
0
 20
0
 30
0
  3
AIGNBL0504000A
  0
POLYLINE
  8
LAYER_5
 40
0.05
 41
0.05
 66
1
 10
0
 20
0
 30
0
 70
1
  0
VERTEX
  8
LAYER_5
 10
153.942
 20
37.4034
 42
-0.01557776889
  0
VERTEX
  8
LAYER_5
 10
152.1399
 20
37.8395
  0
VERTEX
  8
LAYER_5
 10
151.8533
 20
37.895
 42
-0.08356586593
  0
VERTEX
  8
LAYER_5
 10
150.9892
 20
38.0612
 42
-0.09749891868
  0
VERTEX
  8
LAYER_5
 10
150.3281
 20
38.4671
 42
-0.2129139625
  0
VERTEX
  8
LAYER_5
 10
149.7793
 20
39.7998
 42
-0.09685063121
  0
VERTEX
  8
LAYER_5
 10
149.9239
 20
40.5732
 42
-0.2046489378
  0
VERTEX
  8
LAYER_5
 10
150.9715
 20
41.5974
 42
-0.09824326873
  0
VERTEX
  8
LAYER_5
 10
151.9725
 20
41.7838
 42
-0.08554303155
  0
VERTEX
  8
LAYER_5
 10
152.8411
 20
41.6425
 42
-0.100439485
  0
VERTEX
  8
LAYER_5
 10
153.5062
 20
41.2483
 42
-0.2140965971
  0
VERTEX
  8
LAYER_5
 10
154.0815
 20
39.8784
 42
-0.09539620281
  0
VERTEX
  8
LAYER_5
 10
153.9426
 20
39.1106
 42
-0.2143310008
  0
VERTEX
  8
LAYER_5
 10
152.9198
 20
38.1321
 42
-0.02339132607
  0
VERTEX
  8
LAYER_5
 10
152.7407
 20
38.0738
  0
VERTEX
  8
LAYER_5
 10
152.7407
 20
38.0514
 42
0.01711818545
  0
VERTEX
  8
LAYER_5
 10
154.117
 20
37.8113
  0
SEQEND
  0
POLYLINE
  8
LAYER_5
 40
0.05
 41
0.05
 66
1
 10
0
 20
0
 30
0
 70
1
  0
VERTEX
  8
LAYER_5
 10
153.4394
 20
39.857
 42
0.1071643265
  0
VERTEX
  8
LAYER_5
 10
153.2881
 20
40.5618
 42
0.2976270581
  0
VERTEX
  8
LAYER_5
 10
151.9511
 20
41.3873
 42
0.1072356843
  0
VERTEX
  8
LAYER_5
 10
151.2613
 20
41.2478
 42
0.2385874916
  0
VERTEX
  8
LAYER_5
 10
150.4743
 20
40.2422
 42
0.05751786987
  0
VERTEX
  8
LAYER_5
 10
150.4287
 20
39.8122
 42
0.218058121
  0
VERTEX
  8
LAYER_5
 10
150.9593
 20
38.6168
 42
0.1772828752
  0
VERTEX
  8
LAYER_5
 10
151.9232
 20
38.2912
 42
0.1075205619
  0
VERTEX
  8
LAYER_5
 10
152.6045
 20
38.4302
 42
0.2370768657
  0
VERTEX
  8
LAYER_5
 10
153.3917
 20
39.4298
 42
0.05602139055
  0
SEQEND
  0
ENDBLK
  0
BLOCK
  8
LAYER_5
  2
AIGNBL0504000B
 70
64
 10
0
 20
0
 30
0
  3
AIGNBL0504000B
  0
POLYLINE
  8
LAYER_5
 40
0.05
 41
0.05
 66
1
 10
0
 20
0
 30
0
 70
1
  0
VERTEX
  8
LAYER_5
 10
155.4089
 20
41.7225
  0
VERTEX
  8
LAYER_5
 10
155.4089
 20
39.4932
 42
0.114533087
  0
VERTEX
  8
LAYER_5
 10
155.5428
 20
38.8274
 42
0.1464774934
  0
VERTEX
  8
LAYER_5
 10
155.8932
 20
38.4422
 42
0.1362552487
  0
VERTEX
  8
LAYER_5
 10
156.5055
 20
38.2912
 42
0.1219300979
  0
VERTEX
  8
LAYER_5
 10
157.1286
 20
38.4259
 42
0.1503016186
  0
VERTEX
  8
LAYER_5
 10
157.5004
 20
38.7949
 42
0.1256239276
  0
VERTEX
  8
LAYER_5
 10
157.651
 20
39.4932
  0
VERTEX
  8
LAYER_5
 10
157.651
 20
41.7225
  0
VERTEX
  8
LAYER_5
 10
158.2656
 20
41.7225
  0
VERTEX
  8
LAYER_5
 10
158.2656
 20
39.5266
 42
-0.09996665729
  0
VERTEX
  8
LAYER_5
 10
158.1307
 20
38.7839
 42
-0.1215019567
  0
VERTEX
  8
LAYER_5
 10
157.7575
 20
38.2772
 42
-0.1106305922
  0
VERTEX
  8
LAYER_5
 10
157.132
 20
37.9706
 42
-0.06128719854
  0
VERTEX
  8
LAYER_5
 10
156.4845
 20
37.895
 42
-0.0941826643
  0
VERTEX
  8
LAYER_5
 10
155.6654
 20
38.0331
 42
-0.2431541134
  0
VERTEX
  8
LAYER_5
 10
154.8618
 20
38.9438
 42
-0.06321248355
  0
VERTEX
  8
LAYER_5
 10
154.7943
 20
39.5045
  0
VERTEX
  8
LAYER_5
 10
154.7943
 20
41.7225
  0
SEQEND
  0
ENDBLK
  0
BLOCK
  8
LAYER_5
  2
AIGNBL0504000C
 70
64
 10
0
 20
0
 30
0
  3
AIGNBL0504000C
  0
POLYLINE
  8
LAYER_5
 40
0.05
 41
0.05
 66
1
 10
0
 20
0
 30
0
 70
1
  0
VERTEX
  8
LAYER_5
 10
160.0119
 20
39.1418
  0
VERTEX
  8
LAYER_5
 10
159.5227
 20
37.9567
  0
VERTEX
  8
LAYER_5
 10
158.8947
 20
37.9567
  0
VERTEX
  8
LAYER_5
 10
160.4939
 20
41.7225
  0
VERTEX
  8
LAYER_5
 10
161.227
 20
41.7225
  0
VERTEX
  8
LAYER_5
 10
162.8335
 20
37.9567
  0
VERTEX
  8
LAYER_5
 10
162.1841
 20
37.9567
  0
VERTEX
  8
LAYER_5
 10
161.6814
 20
39.1418
  0
SEQEND
  0
POLYLINE
  8
LAYER_5
 40
0.05
 41
0.05
 66
1
 10
0
 20
0
 30
0
 70
1
  0
VERTEX
  8
LAYER_5
 10
161.5553
 20
39.5207
  0
VERTEX
  8
LAYER_5
 10
161.094
 20
40.6056
  0
VERTEX
  8
LAYER_5
 10
160.8494
 20
41.2926
  0
VERTEX
  8
LAYER_5
 10
160.8357
 20
41.2926
  0
VERTEX
  8
LAYER_5
 10
160.5983
 20
40.6101
  0
VERTEX
  8
LAYER_5
 10
160.1373
 20
39.5207
  0
SEQEND
  0
ENDBLK
  0
BLOCK
  8
LAYER_5
  2
AIGNBL0504000D
 70
64
 10
0
 20
0
 30
0
  3
AIGNBL0504000D
  0
POLYLINE
  8
LAYER_5
 40
0.05
 41
0.05
 66
1
 10
0
 20
0
 30
0
 70
1
  0
VERTEX
  8
LAYER_5
 10
163.8742
 20
41.6777
 42
-0.03245918394
  0
VERTEX
  8
LAYER_5
 10
165.0411
 20
41.7508
 42
-0.08084226265
  0
VERTEX
  8
LAYER_5
 10
165.9975
 20
41.619
 42
-0.07815635113
  0
VERTEX
  8
LAYER_5
 10
166.3609
 20
41.4379
 42
-0.2484709269
  0
VERTEX
  8
LAYER_5
 10
166.7726
 20
40.6497
 42
-0.226147
  0
VERTEX
  8
LAYER_5
 10
166.4095
 20
39.8456
 42
-0.1096895144
  0
VERTEX
  8
LAYER_5
 10
165.7812
 20
39.5323
 42
-0.06565832551
  0
VERTEX
  8
LAYER_5
 10
164.9708
 20
39.4319
 42
-0.06238309955
  0
VERTEX
  8
LAYER_5
 10
164.4823
 20
39.4653
  0
VERTEX
  8
LAYER_5
 10
164.4823
 20
37.9567
  0
VERTEX
  8
LAYER_5
 10
163.8742
 20
37.9567
  0
SEQEND
  0
POLYLINE
  8
LAYER_5
 40
0.05
 41
0.05
 66
1
 10
0
 20
0
 30
0
 70
1
  0
VERTEX
  8
LAYER_5
 10
164.4823
 20
39.8622
 42
0.04203451964
  0
VERTEX
  8
LAYER_5
 10
164.9846
 20
39.8229
 42
0.1032111168
  0
VERTEX
  8
LAYER_5
 10
165.7038
 20
39.9502
 42
0.1555938032
  0
VERTEX
  8
LAYER_5
 10
166.0686
 20
40.2546
 42
0.1352673748
  0
VERTEX
  8
LAYER_5
 10
166.1656
 20
40.6273
 42
0.1737047371
  0
VERTEX
  8
LAYER_5
 10
166.0308
 20
41.0346
 42
0.1517050813
  0
VERTEX
  8
LAYER_5
 10
165.6097
 20
41.2941
 42
0.06879756253
  0
VERTEX
  8
LAYER_5
 10
165.0552
 20
41.3649
 42
0.0634356619
  0
VERTEX
  8
LAYER_5
 10
164.4823
 20
41.3257
  0
SEQEND
  0
ENDBLK
  0
BLOCK
  8
LAYER_5
  2
AIGNBL0504000E
 70
64
 10
0
 20
0
 30
0
  3
AIGNBL0504000E
  0
POLYLINE
  8
LAYER_5
 40
0.05
 41
0.05
 66
1
 10
0
 20
0
 30
0
 70
1
  0
VERTEX
  8
LAYER_5
 10
168.3246
 20
41.4207
 42
-0.2767461975
  0
VERTEX
  8
LAYER_5
 10
168.1851
 20
41.1806
 42
-0.1265294091
  0
VERTEX
  8
LAYER_5
 10
167.9329
 20
41.1189
 42
-0.2237518698
  0
VERTEX
  8
LAYER_5
 10
167.6226
 20
41.2513
 42
-0.1708341408
  0
VERTEX
  8
LAYER_5
 10
167.5626
 20
41.4207
 42
-0.2643879937
  0
VERTEX
  8
LAYER_5
 10
167.712
 20
41.6678
 42
-0.1290073663
  0
VERTEX
  8
LAYER_5
 10
167.9467
 20
41.7277
 42
-0.225342086
  0
VERTEX
  8
LAYER_5
 10
168.2635
 20
41.597
 42
-0.1691136206
  0
SEQEND
  0
POLYLINE
  8
LAYER_5
 40
0.05
 41
0.05
 66
1
 10
0
 20
0
 30
0
 70
1
  0
VERTEX
  8
LAYER_5
 10
167.639
 20
37.9567
  0
VERTEX
  8
LAYER_5
 10
167.639
 20
40.6607
  0
VERTEX
  8
LAYER_5
 10
168.2537
 20
40.6607
  0
VERTEX
  8
LAYER_5
 10
168.2537
 20
37.9567
  0
SEQEND
  0
ENDBLK
  0
BLOCK
  8
LAYER_5
  2
AIGNBL0504000F
 70
64
 10
0
 20
0
 30
0
  3
AIGNBL0504000F
  0
POLYLINE
  8
LAYER_5
 40
0.05
 41
0.05
 66
1
 10
0
 20
0
 30
0
 70
1
  0
VERTEX
  8
LAYER_5
 10
170.1254
 20
39.1418
  0
VERTEX
  8
LAYER_5
 10
169.6372
 20
37.9567
  0
VERTEX
  8
LAYER_5
 10
169.0081
 20
37.9567
  0
VERTEX
  8
LAYER_5
 10
170.6077
 20
41.7225
  0
VERTEX
  8
LAYER_5
 10
171.3415
 20
41.7225
  0
VERTEX
  8
LAYER_5
 10
172.9479
 20
37.9567
  0
VERTEX
  8
LAYER_5
 10
172.2982
 20
37.9567
  0
VERTEX
  8
LAYER_5
 10
171.7955
 20
39.1418
  0
SEQEND
  0
POLYLINE
  8
LAYER_5
 40
0.05
 41
0.05
 66
1
 10
0
 20
0
 30
0
 70
1
  0
VERTEX
  8
LAYER_5
 10
171.6695
 20
39.5207
  0
VERTEX
  8
LAYER_5
 10
171.2085
 20
40.6056
  0
VERTEX
  8
LAYER_5
 10
170.9646
 20
41.2926
  0
VERTEX
  8
LAYER_5
 10
170.9498
 20
41.2926
  0
VERTEX
  8
LAYER_5
 10
170.7128
 20
40.6101
  0
VERTEX
  8
LAYER_5
 10
170.2518
 20
39.5207
  0
SEQEND
  0
ENDBLK
  0
BLOCK
  8
LAYER_5
  2
AIGNBL05030008
 70
64
 10
0
 20
0
 30
0
  3
AIGNBL05030008
  0
INSERT
  8
LAYER_5
  2
AIGNBL05040009
 10
0
 20
0
 30
0
  0
INSERT
  8
LAYER_5
  2
AIGNBL0504000A
 10
0
 20
0
 30
0
  0
INSERT
  8
LAYER_5
  2
AIGNBL0504000B
 10
0
 20
0
 30
0
  0
INSERT
  8
LAYER_5
  2
AIGNBL0504000C
 10
0
 20
0
 30
0
  0
INSERT
  8
LAYER_5
  2
AIGNBL0504000D
 10
0
 20
0
 30
0
  0
INSERT
  8
LAYER_5
  2
AIGNBL0504000E
 10
0
 20
0
 30
0
  0
INSERT
  8
LAYER_5
  2
AIGNBL0504000F
 10
0
 20
0
 30
0
  0
ENDBLK
  0
BLOCK
  8
LAYER_5
  2
AIGNBL05030011
 70
64
 10
0
 20
0
 30
0
  3
AIGNBL05030011
  0
POLYLINE
  8
LAYER_5
 40
0.05
 41
0.05
 66
1
 10
0
 20
0
 30
0
 70
1
  0
VERTEX
  8
LAYER_5
 10
145.7475
 20
36.0574
  0
VERTEX
  8
LAYER_5
 10
146.3008
 20
36.0574
  0
VERTEX
  8
LAYER_5
 10
146.3008
 20
35.9637
  0
VERTEX
  8
LAYER_5
 10
145.6424
 20
35.9637
  0
VERTEX
  8
LAYER_5
 10
145.6424
 20
36.9969
  0
VERTEX
  8
LAYER_5
 10
146.2832
 20
36.9969
  0
VERTEX
  8
LAYER_5
 10
146.2832
 20
36.9035
  0
VERTEX
  8
LAYER_5
 10
145.7475
 20
36.9035
  0
VERTEX
  8
LAYER_5
 10
145.7475
 20
36.549
  0
VERTEX
  8
LAYER_5
 10
146.2481
 20
36.549
  0
VERTEX
  8
LAYER_5
 10
146.2481
 20
36.4557
  0
VERTEX
  8
LAYER_5
 10
145.7475
 20
36.4557
  0
SEQEND
  0
ENDBLK
  0
BLOCK
  8
LAYER_5
  2
AIGNBL05030012
 70
64
 10
0
 20
0
 30
0
  3
AIGNBL05030012
  0
POLYLINE
  8
LAYER_5
 40
0.05
 41
0.05
 66
1
 10
0
 20
0
 30
0
 70
1
  0
VERTEX
  8
LAYER_5
 10
147.4404
 20
36.117
  0
VERTEX
  8
LAYER_5
 10
147.4432
 20
36.117
  0
VERTEX
  8
LAYER_5
 10
147.4432
 20
36.9969
  0
VERTEX
  8
LAYER_5
 10
147.5483
 20
36.9969
  0
VERTEX
  8
LAYER_5
 10
147.5483
 20
35.9637
  0
VERTEX
  8
LAYER_5
 10
147.4174
 20
35.9637
  0
VERTEX
  8
LAYER_5
 10
146.8162
 20
36.8525
  0
VERTEX
  8
LAYER_5
 10
146.8127
 20
36.8525
  0
VERTEX
  8
LAYER_5
 10
146.8127
 20
35.9637
  0
VERTEX
  8
LAYER_5
 10
146.708
 20
35.9637
  0
VERTEX
  8
LAYER_5
 10
146.708
 20
36.9969
  0
VERTEX
  8
LAYER_5
 10
146.8393
 20
36.9969
  0
SEQEND
  0
ENDBLK
  0
BLOCK
  8
LAYER_5
  2
AIGNBL05030013
 70
64
 10
0
 20
0
 30
0
  3
AIGNBL05030013
  0
POLYLINE
  8
LAYER_5
 40
0.05
 41
0.05
 66
1
 10
0
 20
0
 30
0
 70
1
  0
VERTEX
  8
LAYER_5
 10
148.0213
 20
36.1756
  0
VERTEX
  8
LAYER_5
 10
148.0757
 20
36.0725
 42
0.1803975231
  0
VERTEX
  8
LAYER_5
 10
148.1891
 20
36.0309
  0
VERTEX
  8
LAYER_5
 10
148.2783
 20
36.0505
  0
VERTEX
  8
LAYER_5
 10
148.3344
 20
36.1039
  0
VERTEX
  8
LAYER_5
 10
148.3634
 20
36.1804
  0
VERTEX
  8
LAYER_5
 10
148.3717
 20
36.27
  0
VERTEX
  8
LAYER_5
 10
148.3717
 20
36.9969
  0
VERTEX
  8
LAYER_5
 10
148.4767
 20
36.9969
  0
VERTEX
  8
LAYER_5
 10
148.4767
 20
36.2614
  0
VERTEX
  8
LAYER_5
 10
148.4654
 20
36.1535
  0
VERTEX
  8
LAYER_5
 10
148.424
 20
36.0485
  0
VERTEX
  8
LAYER_5
 10
148.3393
 20
35.9689
  0
VERTEX
  8
LAYER_5
 10
148.2004
 20
35.9375
 42
-0.1845231376
  0
VERTEX
  8
LAYER_5
 10
148.0158
 20
35.9974
 42
-0.1765285731
  0
VERTEX
  8
LAYER_5
 10
147.9234
 20
36.149
  0
SEQEND
  0
ENDBLK
  0
BLOCK
  8
LAYER_5
  2
AIGNBL05030014
 70
64
 10
0
 20
0
 30
0
  3
AIGNBL05030014
  0
POLYLINE
  8
LAYER_5
 40
0.05
 41
0.05
 66
1
 10
0
 20
0
 30
0
 70
1
  0
VERTEX
  8
LAYER_5
 10
149.965
 20
36.4805
 42
-0.1041417444
  0
VERTEX
  8
LAYER_5
 10
149.924
 20
36.2631
 42
-0.10057123
  0
VERTEX
  8
LAYER_5
 10
149.8113
 20
36.0915
  0
VERTEX
  8
LAYER_5
 10
149.6405
 20
35.9785
 42
-0.0950295922
  0
VERTEX
  8
LAYER_5
 10
149.4265
 20
35.9375
 42
-0.1010765979
  0
VERTEX
  8
LAYER_5
 10
149.2129
 20
35.9785
 42
-0.1000570207
  0
VERTEX
  8
LAYER_5
 10
149.042
 20
36.0915
 42
-0.09442769366
  0
VERTEX
  8
LAYER_5
 10
148.9287
 20
36.2631
 42
-0.09293305267
  0
VERTEX
  8
LAYER_5
 10
148.8881
 20
36.4805
 42
-0.1024980643
  0
VERTEX
  8
LAYER_5
 10
148.9287
 20
36.6978
 42
-0.1008832254
  0
VERTEX
  8
LAYER_5
 10
149.042
 20
36.8694
 42
-0.09625117665
  0
VERTEX
  8
LAYER_5
 10
149.2129
 20
36.9824
 42
-0.0952064105
  0
VERTEX
  8
LAYER_5
 10
149.4265
 20
37.0234
 42
-0.1012184087
  0
VERTEX
  8
LAYER_5
 10
149.6405
 20
36.9824
 42
-0.09890806396
  0
VERTEX
  8
LAYER_5
 10
149.8113
 20
36.8694
 42
-0.09577200427
  0
VERTEX
  8
LAYER_5
 10
149.924
 20
36.6978
 42
-0.09400765476
  0
SEQEND
  0
POLYLINE
  8
LAYER_5
 40
0.05
 41
0.05
 66
1
 10
0
 20
0
 30
0
 70
1
  0
VERTEX
  8
LAYER_5
 10
149.8541
 20
36.4798
  0
VERTEX
  8
LAYER_5
 10
149.8251
 20
36.6517
  0
VERTEX
  8
LAYER_5
 10
149.7404
 20
36.795
  0
VERTEX
  8
LAYER_5
 10
149.6053
 20
36.8932
  0
VERTEX
  8
LAYER_5
 10
149.4265
 20
36.93
  0
VERTEX
  8
LAYER_5
 10
149.2478
 20
36.8932
  0
VERTEX
  8
LAYER_5
 10
149.113
 20
36.795
  0
VERTEX
  8
LAYER_5
 10
149.0283
 20
36.6517
  0
VERTEX
  8
LAYER_5
 10
148.999
 20
36.4798
  0
VERTEX
  8
LAYER_5
 10
149.0283
 20
36.3079
  0
VERTEX
  8
LAYER_5
 10
149.113
 20
36.1649
  0
VERTEX
  8
LAYER_5
 10
149.2478
 20
36.0674
 42
0.1008814383
  0
VERTEX
  8
LAYER_5
 10
149.4265
 20
36.0309
 42
0.1157330551
  0
VERTEX
  8
LAYER_5
 10
149.6053
 20
36.0674
  0
VERTEX
  8
LAYER_5
 10
149.7404
 20
36.1649
  0
VERTEX
  8
LAYER_5
 10
149.8251
 20
36.3079
  0
SEQEND
  0
ENDBLK
  0
BLOCK
  8
LAYER_5
  2
AIGNBL05030015
 70
64
 10
0
 20
0
 30
0
  3
AIGNBL05030015
  0
POLYLINE
  8
LAYER_5
 40
0.05
 41
0.05
 66
1
 10
0
 20
0
 30
0
 70
1
  0
VERTEX
  8
LAYER_5
 10
150.7398
 20
35.9637
  0
VERTEX
  8
LAYER_5
 10
150.6351
 20
35.9637
  0
VERTEX
  8
LAYER_5
 10
150.6351
 20
36.4091
  0
VERTEX
  8
LAYER_5
 10
150.2482
 20
36.9969
  0
VERTEX
  8
LAYER_5
 10
150.3795
 20
36.9969
  0
VERTEX
  8
LAYER_5
 10
150.6905
 20
36.4967
  0
VERTEX
  8
LAYER_5
 10
151.0041
 20
36.9969
  0
VERTEX
  8
LAYER_5
 10
151.1263
 20
36.9969
  0
VERTEX
  8
LAYER_5
 10
150.7398
 20
36.4091
  0
SEQEND
  0
ENDBLK
  0
BLOCK
  8
LAYER_5
  2
AIGNBL05030016
 70
64
 10
0
 20
0
 30
0
  3
AIGNBL05030016
  0
POLYLINE
  8
LAYER_5
 40
0.05
 41
0.05
 66
1
 10
0
 20
0
 30
0
 70
1
  0
VERTEX
  8
LAYER_5
 10
152.0314
 20
36.9969
  0
VERTEX
  8
LAYER_5
 10
152.339
 20
36.9969
  0
VERTEX
  8
LAYER_5
 10
152.4575
 20
36.9845
  0
VERTEX
  8
LAYER_5
 10
152.5643
 20
36.9421
  0
VERTEX
  8
LAYER_5
 10
152.6422
 20
36.8611
  0
VERTEX
  8
LAYER_5
 10
152.6718
 20
36.733
 42
-0.1790346201
  0
VERTEX
  8
LAYER_5
 10
152.6219
 20
36.5907
 42
-0.1642933266
  0
VERTEX
  8
LAYER_5
 10
152.4885
 20
36.5111
  0
VERTEX
  8
LAYER_5
 10
152.4885
 20
36.5084
 42
-0.1735805246
  0
VERTEX
  8
LAYER_5
 10
152.6553
 20
36.4302
 42
-0.1921994171
  0
VERTEX
  8
LAYER_5
 10
152.7214
 20
36.2496
  0
VERTEX
  8
LAYER_5
 10
152.6942
 20
36.1325
  0
VERTEX
  8
LAYER_5
 10
152.6181
 20
36.0419
  0
VERTEX
  8
LAYER_5
 10
152.4972
 20
35.9844
  0
VERTEX
  8
LAYER_5
 10
152.3373
 20
35.9637
  0
VERTEX
  8
LAYER_5
 10
152.0314
 20
35.9637
  0
SEQEND
  0
POLYLINE
  8
LAYER_5
 40
0.05
 41
0.05
 66
1
 10
0
 20
0
 30
0
 70
1
  0
VERTEX
  8
LAYER_5
 10
152.1364
 20
36.5445
  0
VERTEX
  8
LAYER_5
 10
152.348
 20
36.5445
  0
VERTEX
  8
LAYER_5
 10
152.4248
 20
36.5535
  0
VERTEX
  8
LAYER_5
 10
152.4951
 20
36.5831
  0
VERTEX
  8
LAYER_5
 10
152.5471
 20
36.6396
  0
VERTEX
  8
LAYER_5
 10
152.5668
 20
36.7258
  0
VERTEX
  8
LAYER_5
 10
152.5471
 20
36.8095
  0
VERTEX
  8
LAYER_5
 10
152.494
 20
36.8656
  0
VERTEX
  8
LAYER_5
 10
152.4152
 20
36.897
  0
VERTEX
  8
LAYER_5
 10
152.3187
 20
36.9066
  0
VERTEX
  8
LAYER_5
 10
152.1364
 20
36.9066
  0
SEQEND
  0
POLYLINE
  8
LAYER_5
 40
0.05
 41
0.05
 66
1
 10
0
 20
0
 30
0
 70
1
  0
VERTEX
  8
LAYER_5
 10
152.1364
 20
36.0543
  0
VERTEX
  8
LAYER_5
 10
152.3321
 20
36.0543
  0
VERTEX
  8
LAYER_5
 10
152.4406
 20
36.0653
  0
VERTEX
  8
LAYER_5
 10
152.5313
 20
36.1001
  0
VERTEX
  8
LAYER_5
 10
152.5929
 20
36.1632
  0
VERTEX
  8
LAYER_5
 10
152.6164
 20
36.2559
 42
0.2557371221
  0
VERTEX
  8
LAYER_5
 10
152.5471
 20
36.4081
 42
0.1381508151
  0
VERTEX
  8
LAYER_5
 10
152.3511
 20
36.4584
  0
VERTEX
  8
LAYER_5
 10
152.1364
 20
36.4584
  0
SEQEND
  0
ENDBLK
  0
BLOCK
  8
LAYER_5
  2
AIGNBL05030017
 70
64
 10
0
 20
0
 30
0
  3
AIGNBL05030017
  0
POLYLINE
  8
LAYER_5
 40
0.05
 41
0.05
 66
1
 10
0
 20
0
 30
0
 70
1
  0
VERTEX
  8
LAYER_5
 10
153.1534
 20
35.9637
  0
VERTEX
  8
LAYER_5
 10
153.038
 20
35.9637
  0
VERTEX
  8
LAYER_5
 10
153.4849
 20
36.9969
  0
VERTEX
  8
LAYER_5
 10
153.5872
 20
36.9969
  0
VERTEX
  8
LAYER_5
 10
154.0306
 20
35.9637
  0
VERTEX
  8
LAYER_5
 10
153.9138
 20
35.9637
  0
VERTEX
  8
LAYER_5
 10
153.7997
 20
36.2352
  0
VERTEX
  8
LAYER_5
 10
153.2657
 20
36.2352
  0
SEQEND
  0
POLYLINE
  8
LAYER_5
 40
0.05
 41
0.05
 66
1
 10
0
 20
0
 30
0
 70
1
  0
VERTEX
  8
LAYER_5
 10
153.305
 20
36.3316
  0
VERTEX
  8
LAYER_5
 10
153.7604
 20
36.3316
  0
VERTEX
  8
LAYER_5
 10
153.5327
 20
36.8804
  0
SEQEND
  0
ENDBLK
  0
BLOCK
  8
LAYER_5
  2
AIGNBL05030018
 70
64
 10
0
 20
0
 30
0
  3
AIGNBL05030018
  0
POLYLINE
  8
LAYER_5
 40
0.05
 41
0.05
 66
1
 10
0
 20
0
 30
0
 70
1
  0
VERTEX
  8
LAYER_5
 10
154.7151
 20
35.9637
  0
VERTEX
  8
LAYER_5
 10
154.61
 20
35.9637
  0
VERTEX
  8
LAYER_5
 10
154.61
 20
36.9035
  0
VERTEX
  8
LAYER_5
 10
154.2638
 20
36.9035
  0
VERTEX
  8
LAYER_5
 10
154.2638
 20
36.9969
  0
VERTEX
  8
LAYER_5
 10
155.0606
 20
36.9969
  0
VERTEX
  8
LAYER_5
 10
155.0606
 20
36.9035
  0
VERTEX
  8
LAYER_5
 10
154.7151
 20
36.9035
  0
SEQEND
  0
ENDBLK
  0
BLOCK
  8
LAYER_5
  2
AIGNBL05030019
 70
64
 10
0
 20
0
 30
0
  3
AIGNBL05030019
  0
POLYLINE
  8
LAYER_5
 40
0.05
 41
0.05
 66
1
 10
0
 20
0
 30
0
 70
1
  0
VERTEX
  8
LAYER_5
 10
155.4169
 20
36.9969
  0
VERTEX
  8
LAYER_5
 10
155.5216
 20
36.9969
  0
VERTEX
  8
LAYER_5
 10
155.5216
 20
36.549
  0
VERTEX
  8
LAYER_5
 10
156.0852
 20
36.549
  0
VERTEX
  8
LAYER_5
 10
156.0852
 20
36.9969
  0
VERTEX
  8
LAYER_5
 10
156.1903
 20
36.9969
  0
VERTEX
  8
LAYER_5
 10
156.1903
 20
35.9637
  0
VERTEX
  8
LAYER_5
 10
156.0852
 20
35.9637
  0
VERTEX
  8
LAYER_5
 10
156.0852
 20
36.4529
  0
VERTEX
  8
LAYER_5
 10
155.5216
 20
36.4529
  0
VERTEX
  8
LAYER_5
 10
155.5216
 20
35.9637
  0
VERTEX
  8
LAYER_5
 10
155.4169
 20
35.9637
  0
SEQEND
  0
ENDBLK
  0
BLOCK
  8
LAYER_5
  2
AIGNBL0503001A
 70
64
 10
0
 20
0
 30
0
  3
AIGNBL0503001A
  0
POLYLINE
  8
LAYER_5
 40
0.05
 41
0.05
 66
1
 10
0
 20
0
 30
0
 70
1
  0
VERTEX
  8
LAYER_5
 10
156.7708
 20
35.9637
  0
VERTEX
  8
LAYER_5
 10
156.6657
 20
35.9637
  0
VERTEX
  8
LAYER_5
 10
156.6657
 20
36.9969
  0
VERTEX
  8
LAYER_5
 10
156.9696
 20
36.9969
  0
VERTEX
  8
LAYER_5
 10
157.1101
 20
36.9824
  0
VERTEX
  8
LAYER_5
 10
157.2228
 20
36.9349
  0
VERTEX
  8
LAYER_5
 10
157.2962
 20
36.8494
  0
VERTEX
  8
LAYER_5
 10
157.3223
 20
36.7213
  0
VERTEX
  8
LAYER_5
 10
157.3024
 20
36.6176
  0
VERTEX
  8
LAYER_5
 10
157.2469
 20
36.5366
  0
VERTEX
  8
LAYER_5
 10
157.1635
 20
36.4818
  0
VERTEX
  8
LAYER_5
 10
157.0585
 20
36.4557
  0
VERTEX
  8
LAYER_5
 10
157.3606
 20
35.9637
  0
VERTEX
  8
LAYER_5
 10
157.2321
 20
35.9637
  0
VERTEX
  8
LAYER_5
 10
156.9461
 20
36.4467
  0
VERTEX
  8
LAYER_5
 10
156.7708
 20
36.4467
  0
SEQEND
  0
POLYLINE
  8
LAYER_5
 40
0.05
 41
0.05
 66
1
 10
0
 20
0
 30
0
 70
1
  0
VERTEX
  8
LAYER_5
 10
156.7708
 20
36.5373
  0
VERTEX
  8
LAYER_5
 10
156.9534
 20
36.5373
 42
0.165389034
  0
VERTEX
  8
LAYER_5
 10
157.1491
 20
36.5831
 42
0.2500512188
  0
VERTEX
  8
LAYER_5
 10
157.2176
 20
36.7213
  0
VERTEX
  8
LAYER_5
 10
157.1983
 20
36.8071
  0
VERTEX
  8
LAYER_5
 10
157.146
 20
36.8643
  0
VERTEX
  8
LAYER_5
 10
157.0643
 20
36.8963
  0
VERTEX
  8
LAYER_5
 10
156.9578
 20
36.9066
  0
VERTEX
  8
LAYER_5
 10
156.7708
 20
36.9066
  0
SEQEND
  0
ENDBLK
  0
BLOCK
  8
LAYER_5
  2
AIGNBL0503001B
 70
64
 10
0
 20
0
 30
0
  3
AIGNBL0503001B
  0
POLYLINE
  8
LAYER_5
 40
0.05
 41
0.05
 66
1
 10
0
 20
0
 30
0
 70
1
  0
VERTEX
  8
LAYER_5
 10
158.7627
 20
36.4805
 42
-0.1007216321
  0
VERTEX
  8
LAYER_5
 10
158.7221
 20
36.2631
 42
-0.1006914115
  0
VERTEX
  8
LAYER_5
 10
158.6087
 20
36.0915
 42
-0.09598545762
  0
VERTEX
  8
LAYER_5
 10
158.4382
 20
35.9785
 42
-0.09506675375
  0
VERTEX
  8
LAYER_5
 10
158.2243
 20
35.9375
 42
-0.1012083438
  0
VERTEX
  8
LAYER_5
 10
158.0103
 20
35.9785
 42
-0.1000476754
  0
VERTEX
  8
LAYER_5
 10
157.8398
 20
36.0915
 42
-0.09637642458
  0
VERTEX
  8
LAYER_5
 10
157.7268
 20
36.2631
 42
-0.09293305267
  0
VERTEX
  8
LAYER_5
 10
157.6862
 20
36.4805
 42
-0.1024980643
  0
VERTEX
  8
LAYER_5
 10
157.7268
 20
36.6978
 42
-0.101511181
  0
VERTEX
  8
LAYER_5
 10
157.8398
 20
36.8694
 42
-0.09563682649
  0
VERTEX
  8
LAYER_5
 10
158.0103
 20
36.9824
 42
-0.09502028874
  0
VERTEX
  8
LAYER_5
 10
158.2243
 20
37.0234
 42
-0.101175466
  0
VERTEX
  8
LAYER_5
 10
158.4382
 20
36.9824
 42
-0.1020868526
  0
VERTEX
  8
LAYER_5
 10
158.6087
 20
36.8694
 42
-0.09463764759
  0
VERTEX
  8
LAYER_5
 10
158.7221
 20
36.6978
 42
-0.09279149058
  0
SEQEND
  0
POLYLINE
  8
LAYER_5
 40
0.05
 41
0.05
 66
1
 10
0
 20
0
 30
0
 70
1
  0
VERTEX
  8
LAYER_5
 10
158.6518
 20
36.4798
  0
VERTEX
  8
LAYER_5
 10
158.6225
 20
36.6517
  0
VERTEX
  8
LAYER_5
 10
158.5378
 20
36.795
  0
VERTEX
  8
LAYER_5
 10
158.4031
 20
36.8932
  0
VERTEX
  8
LAYER_5
 10
158.2243
 20
36.93
  0
VERTEX
  8
LAYER_5
 10
158.0455
 20
36.8932
  0
VERTEX
  8
LAYER_5
 10
157.9104
 20
36.795
  0
VERTEX
  8
LAYER_5
 10
157.8257
 20
36.6517
  0
VERTEX
  8
LAYER_5
 10
157.7968
 20
36.4798
  0
VERTEX
  8
LAYER_5
 10
157.8257
 20
36.3079
  0
VERTEX
  8
LAYER_5
 10
157.9104
 20
36.1649
  0
VERTEX
  8
LAYER_5
 10
158.0455
 20
36.0674
 42
0.1008280473
  0
VERTEX
  8
LAYER_5
 10
158.2243
 20
36.0309
  0
VERTEX
  8
LAYER_5
 10
158.4031
 20
36.0674
  0
VERTEX
  8
LAYER_5
 10
158.5378
 20
36.1649
  0
VERTEX
  8
LAYER_5
 10
158.6225
 20
36.3079
  0
SEQEND
  0
ENDBLK
  0
BLOCK
  8
LAYER_5
  2
AIGNBL0503001C
 70
64
 10
0
 20
0
 30
0
  3
AIGNBL0503001C
  0
POLYLINE
  8
LAYER_5
 40
0.05
 41
0.05
 66
1
 10
0
 20
0
 30
0
 70
1
  0
VERTEX
  8
LAYER_5
 10
160.2045
 20
36.4805
 42
-0.1041417444
  0
VERTEX
  8
LAYER_5
 10
160.1635
 20
36.2631
 42
-0.09974098701
  0
VERTEX
  8
LAYER_5
 10
160.0509
 20
36.0915
 42
-0.09536265516
  0
VERTEX
  8
LAYER_5
 10
159.88
 20
35.9785
 42
-0.09506675375
  0
VERTEX
  8
LAYER_5
 10
159.6661
 20
35.9375
 42
-0.1018653774
  0
VERTEX
  8
LAYER_5
 10
159.4524
 20
35.9785
 42
-0.1019766254
  0
VERTEX
  8
LAYER_5
 10
159.2816
 20
36.0915
 42
-0.09463339148
  0
VERTEX
  8
LAYER_5
 10
159.1682
 20
36.2631
 42
-0.09293305267
  0
VERTEX
  8
LAYER_5
 10
159.1276
 20
36.4805
 42
-0.1024980643
  0
VERTEX
  8
LAYER_5
 10
159.1682
 20
36.6978
 42
-0.1011981835
  0
VERTEX
  8
LAYER_5
 10
159.2816
 20
36.8694
 42
-0.09612009159
  0
VERTEX
  8
LAYER_5
 10
159.4524
 20
36.9824
 42
-0.09524800311
  0
VERTEX
  8
LAYER_5
 10
159.6661
 20
37.0234
 42
-0.101175466
  0
VERTEX
  8
LAYER_5
 10
159.88
 20
36.9824
 42
-0.09853409661
  0
VERTEX
  8
LAYER_5
 10
160.0509
 20
36.8694
 42
-0.09555545285
  0
VERTEX
  8
LAYER_5
 10
160.1635
 20
36.6978
 42
-0.09400765476
  0
SEQEND
  0
POLYLINE
  8
LAYER_5
 40
0.05
 41
0.05
 66
1
 10
0
 20
0
 30
0
 70
1
  0
VERTEX
  8
LAYER_5
 10
160.0936
 20
36.4798
  0
VERTEX
  8
LAYER_5
 10
160.0647
 20
36.6517
  0
VERTEX
  8
LAYER_5
 10
159.9799
 20
36.795
  0
VERTEX
  8
LAYER_5
 10
159.8448
 20
36.8932
  0
VERTEX
  8
LAYER_5
 10
159.6661
 20
36.93
  0
VERTEX
  8
LAYER_5
 10
159.4872
 20
36.8932
  0
VERTEX
  8
LAYER_5
 10
159.3525
 20
36.795
  0
VERTEX
  8
LAYER_5
 10
159.2678
 20
36.6517
  0
VERTEX
  8
LAYER_5
 10
159.2385
 20
36.4798
  0
VERTEX
  8
LAYER_5
 10
159.2678
 20
36.3079
  0
VERTEX
  8
LAYER_5
 10
159.3525
 20
36.1649
  0
VERTEX
  8
LAYER_5
 10
159.4872
 20
36.0674
  0
VERTEX
  8
LAYER_5
 10
159.6661
 20
36.0309
  0
VERTEX
  8
LAYER_5
 10
159.8448
 20
36.0674
  0
VERTEX
  8
LAYER_5
 10
159.9799
 20
36.1649
  0
VERTEX
  8
LAYER_5
 10
160.0647
 20
36.3079
  0
SEQEND
  0
ENDBLK
  0
BLOCK
  8
LAYER_5
  2
AIGNBL0503001D
 70
64
 10
0
 20
0
 30
0
  3
AIGNBL0503001D
  0
POLYLINE
  8
LAYER_5
 40
0.05
 41
0.05
 66
1
 10
0
 20
0
 30
0
 70
1
  0
VERTEX
  8
LAYER_5
 10
161.1354
 20
36.1418
  0
VERTEX
  8
LAYER_5
 10
161.1371
 20
36.1418
  0
VERTEX
  8
LAYER_5
 10
161.4826
 20
36.9969
  0
VERTEX
  8
LAYER_5
 10
161.6435
 20
36.9969
  0
VERTEX
  8
LAYER_5
 10
161.6435
 20
35.9637
  0
VERTEX
  8
LAYER_5
 10
161.5381
 20
35.9637
  0
VERTEX
  8
LAYER_5
 10
161.5381
 20
36.8611
  0
VERTEX
  8
LAYER_5
 10
161.5354
 20
36.8611
  0
VERTEX
  8
LAYER_5
 10
161.1619
 20
35.9637
  0
VERTEX
  8
LAYER_5
 10
161.1064
 20
35.9637
  0
VERTEX
  8
LAYER_5
 10
160.7326
 20
36.8611
  0
VERTEX
  8
LAYER_5
 10
160.7299
 20
36.8611
  0
VERTEX
  8
LAYER_5
 10
160.7299
 20
35.9637
  0
VERTEX
  8
LAYER_5
 10
160.6248
 20
35.9637
  0
VERTEX
  8
LAYER_5
 10
160.6248
 20
36.9969
  0
VERTEX
  8
LAYER_5
 10
160.7853
 20
36.9969
  0
SEQEND
  0
ENDBLK
  0
BLOCK
  8
LAYER_5
  2
AIGNBL0503001E
 70
64
 10
0
 20
0
 30
0
  3
AIGNBL0503001E
  0
POLYLINE
  8
LAYER_5
 40
0.05
 41
0.05
 66
1
 10
0
 20
0
 30
0
 70
1
  0
VERTEX
  8
LAYER_5
 10
162.79
 20
36.0574
  0
VERTEX
  8
LAYER_5
 10
163.3433
 20
36.0574
  0
VERTEX
  8
LAYER_5
 10
163.3433
 20
35.9637
  0
VERTEX
  8
LAYER_5
 10
162.685
 20
35.9637
  0
VERTEX
  8
LAYER_5
 10
162.685
 20
36.9969
  0
VERTEX
  8
LAYER_5
 10
163.3258
 20
36.9969
  0
VERTEX
  8
LAYER_5
 10
163.3258
 20
36.9035
  0
VERTEX
  8
LAYER_5
 10
162.79
 20
36.9035
  0
VERTEX
  8
LAYER_5
 10
162.79
 20
36.549
  0
VERTEX
  8
LAYER_5
 10
163.2906
 20
36.549
  0
VERTEX
  8
LAYER_5
 10
163.2906
 20
36.4557
  0
VERTEX
  8
LAYER_5
 10
162.79
 20
36.4557
  0
SEQEND
  0
ENDBLK
  0
BLOCK
  8
LAYER_5
  2
AIGNBL0503001F
 70
64
 10
0
 20
0
 30
0
  3
AIGNBL0503001F
  0
POLYLINE
  8
LAYER_5
 40
0.05
 41
0.05
 66
1
 10
0
 20
0
 30
0
 70
1
  0
VERTEX
  8
LAYER_5
 10
164.0885
 20
36.5797
  0
VERTEX
  8
LAYER_5
 10
164.3707
 20
36.9969
  0
VERTEX
  8
LAYER_5
 10
164.4957
 20
36.9969
  0
VERTEX
  8
LAYER_5
 10
164.1533
 20
36.5053
  0
VERTEX
  8
LAYER_5
 10
164.5326
 20
35.9637
  0
VERTEX
  8
LAYER_5
 10
164.4013
 20
35.9637
  0
VERTEX
  8
LAYER_5
 10
164.0858
 20
36.4295
  0
VERTEX
  8
LAYER_5
 10
163.7722
 20
35.9637
  0
VERTEX
  8
LAYER_5
 10
163.6407
 20
35.9637
  0
VERTEX
  8
LAYER_5
 10
164.0203
 20
36.5066
  0
VERTEX
  8
LAYER_5
 10
163.6744
 20
36.9969
  0
VERTEX
  8
LAYER_5
 10
163.806
 20
36.9969
  0
SEQEND
  0
ENDBLK
  0
BLOCK
  8
LAYER_5
  2
AIGNBL05030020
 70
64
 10
0
 20
0
 30
0
  3
AIGNBL05030020
  0
POLYLINE
  8
LAYER_5
 40
0.05
 41
0.05
 66
1
 10
0
 20
0
 30
0
 70
1
  0
VERTEX
  8
LAYER_5
 10
164.8988
 20
36.9969
  0
VERTEX
  8
LAYER_5
 10
165.1909
 20
36.9969
  0
VERTEX
  8
LAYER_5
 10
165.3339
 20
36.9804
  0
VERTEX
  8
LAYER_5
 10
165.4438
 20
36.929
  0
VERTEX
  8
LAYER_5
 10
165.5148
 20
36.8429
  0
VERTEX
  8
LAYER_5
 10
165.5392
 20
36.7213
  0
VERTEX
  8
LAYER_5
 10
165.5141
 20
36.5993
  0
VERTEX
  8
LAYER_5
 10
165.4424
 20
36.5132
  0
VERTEX
  8
LAYER_5
 10
165.3315
 20
36.4615
  0
VERTEX
  8
LAYER_5
 10
165.1878
 20
36.444
  0
VERTEX
  8
LAYER_5
 10
165.0039
 20
36.444
  0
VERTEX
  8
LAYER_5
 10
165.0039
 20
35.9637
  0
VERTEX
  8
LAYER_5
 10
164.8988
 20
35.9637
  0
SEQEND
  0
POLYLINE
  8
LAYER_5
 40
0.05
 41
0.05
 66
1
 10
0
 20
0
 30
0
 70
1
  0
VERTEX
  8
LAYER_5
 10
165.0039
 20
36.5328
  0
VERTEX
  8
LAYER_5
 10
165.1816
 20
36.5328
 42
0.1829732243
  0
VERTEX
  8
LAYER_5
 10
165.3701
 20
36.581
 42
0.2345943979
  0
VERTEX
  8
LAYER_5
 10
165.4345
 20
36.7213
 42
0.26486771
  0
VERTEX
  8
LAYER_5
 10
165.368
 20
36.8622
 42
0.126412566
  0
VERTEX
  8
LAYER_5
 10
165.1816
 20
36.9066
  0
VERTEX
  8
LAYER_5
 10
165.0039
 20
36.9066
  0
SEQEND
  0
ENDBLK
  0
BLOCK
  8
LAYER_5
  2
AIGNBL05030021
 70
64
 10
0
 20
0
 30
0
  3
AIGNBL05030021
  0
POLYLINE
  8
LAYER_5
 40
0.05
 41
0.05
 66
1
 10
0
 20
0
 30
0
 70
1
  0
VERTEX
  8
LAYER_5
 10
166.0515
 20
36.0574
  0
VERTEX
  8
LAYER_5
 10
166.6048
 20
36.0574
  0
VERTEX
  8
LAYER_5
 10
166.6048
 20
35.9637
  0
VERTEX
  8
LAYER_5
 10
165.9465
 20
35.9637
  0
VERTEX
  8
LAYER_5
 10
165.9465
 20
36.9969
  0
VERTEX
  8
LAYER_5
 10
166.5872
 20
36.9969
  0
VERTEX
  8
LAYER_5
 10
166.5872
 20
36.9035
  0
VERTEX
  8
LAYER_5
 10
166.0515
 20
36.9035
  0
VERTEX
  8
LAYER_5
 10
166.0515
 20
36.549
  0
VERTEX
  8
LAYER_5
 10
166.5521
 20
36.549
  0
VERTEX
  8
LAYER_5
 10
166.5521
 20
36.4557
  0
VERTEX
  8
LAYER_5
 10
166.0515
 20
36.4557
  0
SEQEND
  0
ENDBLK
  0
BLOCK
  8
LAYER_5
  2
AIGNBL05030022
 70
64
 10
0
 20
0
 30
0
  3
AIGNBL05030022
  0
POLYLINE
  8
LAYER_5
 40
0.05
 41
0.05
 66
1
 10
0
 20
0
 30
0
 70
1
  0
VERTEX
  8
LAYER_5
 10
167.1168
 20
35.9637
  0
VERTEX
  8
LAYER_5
 10
167.0117
 20
35.9637
  0
VERTEX
  8
LAYER_5
 10
167.0117
 20
36.9969
  0
VERTEX
  8
LAYER_5
 10
167.3155
 20
36.9969
  0
VERTEX
  8
LAYER_5
 10
167.4561
 20
36.9824
  0
VERTEX
  8
LAYER_5
 10
167.5687
 20
36.9349
  0
VERTEX
  8
LAYER_5
 10
167.6425
 20
36.8494
  0
VERTEX
  8
LAYER_5
 10
167.6683
 20
36.7213
  0
VERTEX
  8
LAYER_5
 10
167.6483
 20
36.6176
  0
VERTEX
  8
LAYER_5
 10
167.5929
 20
36.5366
  0
VERTEX
  8
LAYER_5
 10
167.5095
 20
36.4818
  0
VERTEX
  8
LAYER_5
 10
167.4044
 20
36.4557
  0
VERTEX
  8
LAYER_5
 10
167.7066
 20
35.9637
  0
VERTEX
  8
LAYER_5
 10
167.578
 20
35.9637
  0
VERTEX
  8
LAYER_5
 10
167.2921
 20
36.4467
  0
VERTEX
  8
LAYER_5
 10
167.1168
 20
36.4467
  0
SEQEND
  0
POLYLINE
  8
LAYER_5
 40
0.05
 41
0.05
 66
1
 10
0
 20
0
 30
0
 70
1
  0
VERTEX
  8
LAYER_5
 10
167.1168
 20
36.5373
  0
VERTEX
  8
LAYER_5
 10
167.2994
 20
36.5373
 42
0.1667243505
  0
VERTEX
  8
LAYER_5
 10
167.495
 20
36.5831
 42
0.2503949893
  0
VERTEX
  8
LAYER_5
 10
167.5636
 20
36.7213
  0
VERTEX
  8
LAYER_5
 10
167.5446
 20
36.8071
  0
VERTEX
  8
LAYER_5
 10
167.4919
 20
36.8643
  0
VERTEX
  8
LAYER_5
 10
167.4103
 20
36.8963
  0
VERTEX
  8
LAYER_5
 10
167.3038
 20
36.9066
  0
VERTEX
  8
LAYER_5
 10
167.1168
 20
36.9066
  0
SEQEND
  0
ENDBLK
  0
BLOCK
  8
LAYER_5
  2
AIGNBL05030023
 70
64
 10
0
 20
0
 30
0
  3
AIGNBL05030023
  0
POLYLINE
  8
LAYER_5
 40
0.05
 41
0.05
 66
1
 10
0
 20
0
 30
0
 70
1
  0
VERTEX
  8
LAYER_5
 10
168.1923
 20
35.9637
  0
VERTEX
  8
LAYER_5
 10
168.0876
 20
35.9637
  0
VERTEX
  8
LAYER_5
 10
168.0876
 20
36.9969
  0
VERTEX
  8
LAYER_5
 10
168.1923
 20
36.9969
  0
SEQEND
  0
ENDBLK
  0
BLOCK
  8
LAYER_5
  2
AIGNBL05030024
 70
64
 10
0
 20
0
 30
0
  3
AIGNBL05030024
  0
POLYLINE
  8
LAYER_5
 40
0.05
 41
0.05
 66
1
 10
0
 20
0
 30
0
 70
1
  0
VERTEX
  8
LAYER_5
 10
168.7732
 20
36.0574
  0
VERTEX
  8
LAYER_5
 10
169.3261
 20
36.0574
  0
VERTEX
  8
LAYER_5
 10
169.3261
 20
35.9637
  0
VERTEX
  8
LAYER_5
 10
168.6681
 20
35.9637
  0
VERTEX
  8
LAYER_5
 10
168.6681
 20
36.9969
  0
VERTEX
  8
LAYER_5
 10
169.3089
 20
36.9969
  0
VERTEX
  8
LAYER_5
 10
169.3089
 20
36.9035
  0
VERTEX
  8
LAYER_5
 10
168.7732
 20
36.9035
  0
VERTEX
  8
LAYER_5
 10
168.7732
 20
36.549
  0
VERTEX
  8
LAYER_5
 10
169.2737
 20
36.549
  0
VERTEX
  8
LAYER_5
 10
169.2737
 20
36.4557
  0
VERTEX
  8
LAYER_5
 10
168.7732
 20
36.4557
  0
SEQEND
  0
ENDBLK
  0
BLOCK
  8
LAYER_5
  2
AIGNBL05030025
 70
64
 10
0
 20
0
 30
0
  3
AIGNBL05030025
  0
POLYLINE
  8
LAYER_5
 40
0.05
 41
0.05
 66
1
 10
0
 20
0
 30
0
 70
1
  0
VERTEX
  8
LAYER_5
 10
170.4661
 20
36.117
  0
VERTEX
  8
LAYER_5
 10
170.4689
 20
36.117
  0
VERTEX
  8
LAYER_5
 10
170.4689
 20
36.9969
  0
VERTEX
  8
LAYER_5
 10
170.5739
 20
36.9969
  0
VERTEX
  8
LAYER_5
 10
170.5739
 20
35.9637
  0
VERTEX
  8
LAYER_5
 10
170.4426
 20
35.9637
  0
VERTEX
  8
LAYER_5
 10
169.8415
 20
36.8525
  0
VERTEX
  8
LAYER_5
 10
169.8384
 20
36.8525
  0
VERTEX
  8
LAYER_5
 10
169.8384
 20
35.9637
  0
VERTEX
  8
LAYER_5
 10
169.7333
 20
35.9637
  0
VERTEX
  8
LAYER_5
 10
169.7333
 20
36.9969
  0
VERTEX
  8
LAYER_5
 10
169.8649
 20
36.9969
  0
SEQEND
  0
ENDBLK
  0
BLOCK
  8
LAYER_5
  2
AIGNBL05030026
 70
64
 10
0
 20
0
 30
0
  3
AIGNBL05030026
  0
POLYLINE
  8
LAYER_5
 40
0.05
 41
0.05
 66
1
 10
0
 20
0
 30
0
 70
1
  0
VERTEX
  8
LAYER_5
 10
171.9196
 20
36.1315
  0
VERTEX
  8
LAYER_5
 10
171.8558
 20
36.0571
  0
VERTEX
  8
LAYER_5
 10
171.7697
 20
35.9954
  0
VERTEX
  8
LAYER_5
 10
171.6615
 20
35.953
  0
VERTEX
  8
LAYER_5
 10
171.5327
 20
35.9375
 42
-0.1011939289
  0
VERTEX
  8
LAYER_5
 10
171.3167
 20
35.9785
 42
-0.1032846426
  0
VERTEX
  8
LAYER_5
 10
171.1461
 20
36.0915
 42
-0.0974858305
  0
VERTEX
  8
LAYER_5
 10
171.0345
 20
36.2631
 42
-0.09232404316
  0
VERTEX
  8
LAYER_5
 10
170.9942
 20
36.4805
 42
-0.1041003847
  0
VERTEX
  8
LAYER_5
 10
171.0352
 20
36.6978
 42
-0.1005616574
  0
VERTEX
  8
LAYER_5
 10
171.1479
 20
36.8694
 42
-0.09522588778
  0
VERTEX
  8
LAYER_5
 10
171.3187
 20
36.9824
 42
-0.09501991035
  0
VERTEX
  8
LAYER_5
 10
171.5327
 20
37.0234
  0
VERTEX
  8
LAYER_5
 10
171.6443
 20
37.0114
  0
VERTEX
  8
LAYER_5
 10
171.7473
 20
36.9779
  0
VERTEX
  8
LAYER_5
 10
171.8348
 20
36.9263
  0
VERTEX
  8
LAYER_5
 10
171.9006
 20
36.8584
  0
VERTEX
  8
LAYER_5
 10
171.8131
 20
36.794
  0
VERTEX
  8
LAYER_5
 10
171.7697
 20
36.8439
  0
VERTEX
  8
LAYER_5
 10
171.7063
 20
36.8877
  0
VERTEX
  8
LAYER_5
 10
171.6267
 20
36.9183
  0
VERTEX
  8
LAYER_5
 10
171.5341
 20
36.93
  0
VERTEX
  8
LAYER_5
 10
171.3539
 20
36.8935
  0
VERTEX
  8
LAYER_5
 10
171.2188
 20
36.7954
  0
VERTEX
  8
LAYER_5
 10
171.1341
 20
36.652
  0
VERTEX
  8
LAYER_5
 10
171.1052
 20
36.4805
  0
VERTEX
  8
LAYER_5
 10
171.1351
 20
36.3089
  0
VERTEX
  8
LAYER_5
 10
171.2205
 20
36.1656
  0
VERTEX
  8
LAYER_5
 10
171.3556
 20
36.0674
 42
0.100995487
  0
VERTEX
  8
LAYER_5
 10
171.5341
 20
36.0309
  0
VERTEX
  8
LAYER_5
 10
171.7032
 20
36.0674
 42
0.1321059012
  0
VERTEX
  8
LAYER_5
 10
171.8376
 20
36.1842
  0
SEQEND
  0
ENDBLK
  0
BLOCK
  8
LAYER_5
  2
AIGNBL05030027
 70
64
 10
0
 20
0
 30
0
  3
AIGNBL05030027
  0
POLYLINE
  8
LAYER_5
 40
0.05
 41
0.05
 66
1
 10
0
 20
0
 30
0
 70
1
  0
VERTEX
  8
LAYER_5
 10
172.4067
 20
36.0574
  0
VERTEX
  8
LAYER_5
 10
172.96
 20
36.0574
  0
VERTEX
  8
LAYER_5
 10
172.96
 20
35.9637
  0
VERTEX
  8
LAYER_5
 10
172.3016
 20
35.9637
  0
VERTEX
  8
LAYER_5
 10
172.3016
 20
36.9969
  0
VERTEX
  8
LAYER_5
 10
172.9424
 20
36.9969
  0
VERTEX
  8
LAYER_5
 10
172.9424
 20
36.9035
  0
VERTEX
  8
LAYER_5
 10
172.4067
 20
36.9035
  0
VERTEX
  8
LAYER_5
 10
172.4067
 20
36.549
  0
VERTEX
  8
LAYER_5
 10
172.9073
 20
36.549
  0
VERTEX
  8
LAYER_5
 10
172.9073
 20
36.4557
  0
VERTEX
  8
LAYER_5
 10
172.4067
 20
36.4557
  0
SEQEND
  0
ENDBLK
  0
BLOCK
  8
LAYER_5
  2
AIGNBL05020004
 70
64
 10
0
 20
0
 30
0
  3
AIGNBL05020004
  0
POLYLINE
  8
LAYER_5
 40
0.05
 41
0.05
 66
1
 10
0
 20
0
 30
0
  0
VERTEX
  8
LAYER_5
 10
-1.196
 20
217.6012
 42
-0.07434374488
  0
VERTEX
  8
LAYER_5
 10
-1.3046
 20
216.4751
 42
-0.1312981164
  0
VERTEX
  8
LAYER_5
 10
-1.5732
 20
216.0054
 42
-0.208619006
  0
VERTEX
  8
LAYER_5
 10
-2.3408
 20
215.7164
 42
-0.1980855618
  0
VERTEX
  8
LAYER_5
 10
-3.0956
 20
216.0054
 42
-0.1359059684
  0
VERTEX
  8
LAYER_5
 10
-3.3746
 20
216.5106
 42
-0.06699191066
  0
VERTEX
  8
LAYER_5
 10
-3.4732
 20
217.6012
 42
-0.07470238595
  0
VERTEX
  8
LAYER_5
 10
-3.3644
 20
218.7157
 42
-0.1310826725
  0
VERTEX
  8
LAYER_5
 10
-3.0956
 20
219.1845
 42
-0.2061520596
  0
VERTEX
  8
LAYER_5
 10
-2.3408
 20
219.4732
 42
-0.1977437771
  0
VERTEX
  8
LAYER_5
 10
-1.5732
 20
219.1845
 42
-0.1358673357
  0
VERTEX
  8
LAYER_5
 10
-1.2943
 20
218.6804
 42
-0.06720044206
  0
VERTEX
  8
LAYER_5
 10
-1.196
 20
217.6012
  0
SEQEND
  0
POLYLINE
  8
LAYER_5
 40
0.05
 41
0.05
 66
1
 10
0
 20
0
 30
0
  0
VERTEX
  8
LAYER_5
 10
0.4394
 20
217.6012
 42
0.0577585355
  0
VERTEX
  8
LAYER_5
 10
0.3194
 20
218.9609
 42
0.1358747382
  0
VERTEX
  8
LAYER_5
 10
-0.303
 20
220.1395
 42
0.1777268905
  0
VERTEX
  8
LAYER_5
 10
-1.8892
 20
220.9154
 42
0.03495822391
  0
VERTEX
  8
LAYER_5
 10
-2.3408
 20
220.9436
 42
0.07961804251
  0
VERTEX
  8
LAYER_5
 10
-3.315
 20
220.7962
 42
0.1217450219
  0
VERTEX
  8
LAYER_5
 10
-4.3662
 20
220.1395
 42
0.09150776818
  0
VERTEX
  8
LAYER_5
 10
-4.8465
 20
219.4067
 42
0.07735978812
  0
VERTEX
  8
LAYER_5
 10
-5.0776
 20
218.3847
 42
0.03281807239
  0
VERTEX
  8
LAYER_5
 10
-5.1082
 20
217.6012
 42
0.05725233541
  0
VERTEX
  8
LAYER_5
 10
-4.9885
 20
216.2362
 42
0.1359864428
  0
VERTEX
  8
LAYER_5
 10
-4.3662
 20
215.0504
 42
0.175204158
  0
VERTEX
  8
LAYER_5
 10
-2.7508
 20
214.2702
 42
0.03231924249
  0
VERTEX
  8
LAYER_5
 10
-2.3408
 20
214.2463
 42
0.07899302184
  0
VERTEX
  8
LAYER_5
 10
-1.3625
 20
214.3937
 42
0.1216861451
  0
VERTEX
  8
LAYER_5
 10
-0.303
 20
215.0504
 42
0.09340304456
  0
VERTEX
  8
LAYER_5
 10
0.1681
 20
215.7463
 42
0.0774645698
  0
VERTEX
  8
LAYER_5
 10
0.4017
 20
216.7223
 42
0.02212089617
  0
VERTEX
  8
LAYER_5
 10
0.4394
 20
217.6012
  0
SEQEND
  0
POLYLINE
  8
LAYER_5
 40
0.05
 41
0.05
 66
1
 10
0
 20
0
 30
0
  0
VERTEX
  8
LAYER_5
 10
-11.3166
 20
218.2044
  0
VERTEX
  8
LAYER_5
 10
-13.8074
 20
218.2044
 42
-0.1153546446
  0
VERTEX
  8
LAYER_5
 10
-13.6562
 20
218.9079
 42
-0.3007040875
  0
VERTEX
  8
LAYER_5
 10
-12.562
 20
219.5866
 42
-0.1235431447
  0
VERTEX
  8
LAYER_5
 10
-11.9621
 20
219.4464
 42
-0.1667603161
  0
VERTEX
  8
LAYER_5
 10
-11.4672
 20
218.9079
 42
-0.1143399212
  0
VERTEX
  8
LAYER_5
 10
-11.3166
 20
218.2044
  0
SEQEND
  0
POLYLINE
  8
LAYER_5
 40
0.05
 41
0.05
 66
1
 10
0
 20
0
 30
0
 70
1
  0
VERTEX
  8
LAYER_5
 10
-9.7064
 20
217.0861
  0
VERTEX
  8
LAYER_5
 10
-9.7064
 20
217.7772
 42
0.0677042249
  0
VERTEX
  8
LAYER_5
 10
-9.852
 20
218.9102
 42
0.07767771487
  0
VERTEX
  8
LAYER_5
 10
-10.2392
 20
219.7789
 42
0.1724975422
  0
VERTEX
  8
LAYER_5
 10
-11.5857
 20
220.7996
 42
0.07776532921
  0
VERTEX
  8
LAYER_5
 10
-12.562
 20
220.9436
 42
0.0796960513
  0
VERTEX
  8
LAYER_5
 10
-13.5247
 20
220.7966
 42
0.168887661
  0
VERTEX
  8
LAYER_5
 10
-14.846
 20
219.7874
 42
0.07658055294
  0
VERTEX
  8
LAYER_5
 10
-15.2466
 20
218.9066
 42
0.07097127065
  0
VERTEX
  8
LAYER_5
 10
-15.4177
 20
217.6012
 42
0.05685454964
  0
VERTEX
  8
LAYER_5
 10
-15.2934
 20
216.4004
 42
0.07540481703
  0
VERTEX
  8
LAYER_5
 10
-14.9492
 20
215.5069
 42
0.1774924504
  0
VERTEX
  8
LAYER_5
 10
-13.6777
 20
214.4527
 42
0.08958127581
  0
VERTEX
  8
LAYER_5
 10
-12.386
 20
214.2463
 42
0.07080596686
  0
VERTEX
  8
LAYER_5
 10
-11.2943
 20
214.3814
 42
0.08369033087
  0
VERTEX
  8
LAYER_5
 10
-10.4805
 20
214.7708
 42
0.04417423811
  0
VERTEX
  8
LAYER_5
 10
-9.8948
 20
215.2768
  0
VERTEX
  8
LAYER_5
 10
-10.8887
 20
216.2442
 42
-0.09875545259
  0
VERTEX
  8
LAYER_5
 10
-11.5612
 20
215.7667
 42
-0.1006814841
  0
VERTEX
  8
LAYER_5
 10
-12.3732
 20
215.6285
 42
-0.1070981108
  0
VERTEX
  8
LAYER_5
 10
-13.0555
 20
215.7638
 42
-0.2542521374
  0
VERTEX
  8
LAYER_5
 10
-13.7778
 20
216.7415
 42
-0.04997815034
  0
VERTEX
  8
LAYER_5
 10
-13.8074
 20
217.0861
  0
SEQEND
  0
POLYLINE
  8
LAYER_5
 40
0.05
 41
0.05
 66
1
 10
0
 20
0
 30
0
 70
1
  0
VERTEX
  8
LAYER_5
 10
-16.9018
 20
223.2773
  0
VERTEX
  8
LAYER_5
 10
-18.5517
 20
223.2773
  0
VERTEX
  8
LAYER_5
 10
-18.5517
 20
221.9454
  0
VERTEX
  8
LAYER_5
 10
-16.9018
 20
221.9454
  0
SEQEND
  0
POLYLINE
  8
LAYER_5
 40
0.05
 41
0.05
 66
1
 10
0
 20
0
 30
0
 70
1
  0
VERTEX
  8
LAYER_5
 10
-16.9146
 20
220.79
  0
VERTEX
  8
LAYER_5
 10
-18.5499
 20
220.79
  0
VERTEX
  8
LAYER_5
 10
-18.5499
 20
214.3218
  0
VERTEX
  8
LAYER_5
 10
-16.9146
 20
214.3218
  0
SEQEND
  0
POLYLINE
  8
LAYER_5
 40
0.05
 41
0.05
 66
1
 10
0
 20
0
 30
0
  0
VERTEX
  8
LAYER_5
 10
-19.8205
 20
215.1386
  0
VERTEX
  8
LAYER_5
 10
-20.9274
 20
216.2317
 42
-0.1123773458
  0
VERTEX
  8
LAYER_5
 10
-21.5025
 20
215.8017
 42
-0.09517045223
  0
VERTEX
  8
LAYER_5
 10
-21.984
 20
215.7164
 42
-0.2295666259
  0
VERTEX
  8
LAYER_5
 10
-22.9149
 20
216.1436
 42
-0.1146247369
  0
VERTEX
  8
LAYER_5
 10
-23.2025
 20
216.7765
 42
-0.05302023055
  0
VERTEX
  8
LAYER_5
 10
-23.2797
 20
217.6012
 42
-0.07909887362
  0
VERTEX
  8
LAYER_5
 10
-23.1547
 20
218.5928
 42
-0.092262399
  0
VERTEX
  8
LAYER_5
 10
-22.9149
 20
219.0461
 42
-0.2338488836
  0
VERTEX
  8
LAYER_5
 10
-21.984
 20
219.4732
 42
-0.128883052
  0
VERTEX
  8
LAYER_5
 10
-21.3835
 20
219.3322
 42
-0.07812769659
  0
VERTEX
  8
LAYER_5
 10
-20.9274
 20
218.9585
  0
VERTEX
  8
LAYER_5
 10
-19.8205
 20
220.0637
 42
0.170273791
  0
VERTEX
  8
LAYER_5
 10
-21.4399
 20
220.9062
 42
0.04126809408
  0
VERTEX
  8
LAYER_5
 10
-21.984
 20
220.9436
 42
0.07342899762
  0
VERTEX
  8
LAYER_5
 10
-22.9625
 20
220.804
 42
0.1715306153
  0
VERTEX
  8
LAYER_5
 10
-24.3547
 20
219.7917
 42
0.07792315428
  0
VERTEX
  8
LAYER_5
 10
-24.7438
 20
218.9398
 42
0.07121572719
  0
VERTEX
  8
LAYER_5
 10
-24.9151
 20
217.6012
 42
0.06071119945
  0
VERTEX
  8
LAYER_5
 10
-24.7811
 20
216.4004
 42
0.07599045696
  0
VERTEX
  8
LAYER_5
 10
-24.4186
 20
215.5069
 42
0.1707838222
  0
VERTEX
  8
LAYER_5
 10
-23.1195
 20
214.4409
 42
0.08917342928
  0
VERTEX
  8
LAYER_5
 10
-21.984
 20
214.2463
 42
0.07667723183
  0
VERTEX
  8
LAYER_5
 10
-21.0013
 20
214.3855
 42
0.1303789466
  0
VERTEX
  8
LAYER_5
 10
-19.8205
 20
215.1386
  0
SEQEND
  0
ENDBLK
  0
BLOCK
  8
LAYER_5
  2
AIGNBL05020005
 70
64
 10
0
 20
0
 30
0
  3
AIGNBL05020005
  0
POLYLINE
  8
LAYER_5
 40
0.05
 41
0.05
 66
1
 10
0
 20
0
 30
0
 70
1
  0
VERTEX
  8
LAYER_5
 10
0.3288
 20
212.6805
  0
VERTEX
  8
LAYER_5
 10
0.0009
 20
212.6805
  0
VERTEX
  8
LAYER_5
 10
-0.2479
 20
211.9109
  0
VERTEX
  8
LAYER_5
 10
-0.5066
 20
212.6805
  0
VERTEX
  8
LAYER_5
 10
-0.8342
 20
212.6805
  0
VERTEX
  8
LAYER_5
 10
-0.4084
 20
211.5234
  0
VERTEX
  8
LAYER_5
 10
-0.4611
 20
211.3704
 42
-0.396721792
  0
VERTEX
  8
LAYER_5
 10
-0.6165
 20
211.2581
  0
VERTEX
  8
LAYER_5
 10
-0.6882
 20
211.2581
  0
VERTEX
  8
LAYER_5
 10
-0.6882
 20
210.9783
  0
VERTEX
  8
LAYER_5
 10
-0.5662
 20
210.9783
 42
0.2105921841
  0
VERTEX
  8
LAYER_5
 10
-0.2985
 20
211.0741
  0
VERTEX
  8
LAYER_5
 10
-0.2048
 20
211.2343
  0
SEQEND
  0
POLYLINE
  8
LAYER_5
 40
0.05
 41
0.05
 66
1
 10
0
 20
0
 30
0
 70
1
  0
VERTEX
  8
LAYER_5
 10
-0.8704
 20
211.4352
  0
VERTEX
  8
LAYER_5
 10
-0.8704
 20
211.6977
  0
VERTEX
  8
LAYER_5
 10
-0.9899
 20
211.6977
 42
-0.4758158184
  0
VERTEX
  8
LAYER_5
 10
-1.0998
 20
211.8103
  0
VERTEX
  8
LAYER_5
 10
-1.0998
 20
213.137
  0
VERTEX
  8
LAYER_5
 10
-1.4109
 20
213.137
  0
VERTEX
  8
LAYER_5
 10
-1.4109
 20
211.7914
 42
0.4199153803
  0
VERTEX
  8
LAYER_5
 10
-1.0475
 20
211.4352
  0
SEQEND
  0
POLYLINE
  8
LAYER_5
 40
0.05
 41
0.05
 66
1
 10
0
 20
0
 30
0
 70
1
  0
VERTEX
  8
LAYER_5
 10
-1.9739
 20
211.894
 42
-0.2612643935
  0
VERTEX
  8
LAYER_5
 10
-2.0214
 20
211.7363
 42
-0.1972145384
  0
VERTEX
  8
LAYER_5
 10
-2.2057
 20
211.6763
 42
-0.4351815088
  0
VERTEX
  8
LAYER_5
 10
-2.3949
 20
211.8175
 42
-0.4650020324
  0
VERTEX
  8
LAYER_5
 10
-2.2105
 20
211.9609
  0
VERTEX
  8
LAYER_5
 10
-1.9739
 20
211.9609
  0
SEQEND
  0
POLYLINE
  8
LAYER_5
 40
0.05
 41
0.05
 66
1
 10
0
 20
0
 30
0
 70
1
  0
VERTEX
  8
LAYER_5
 10
-1.6624
 20
211.4352
  0
VERTEX
  8
LAYER_5
 10
-1.6624
 20
212.2551
 42
0.2205564812
  0
VERTEX
  8
LAYER_5
 10
-1.7881
 20
212.5772
 42
0.1806009816
  0
VERTEX
  8
LAYER_5
 10
-2.194
 20
212.6947
 42
0.2375604919
  0
VERTEX
  8
LAYER_5
 10
-2.6412
 20
212.5179
  0
VERTEX
  8
LAYER_5
 10
-2.4452
 20
212.3243
 42
-0.2464065653
  0
VERTEX
  8
LAYER_5
 10
-2.2057
 20
212.4322
 42
-0.4684872669
  0
VERTEX
  8
LAYER_5
 10
-1.9739
 20
212.2358
  0
VERTEX
  8
LAYER_5
 10
-1.9739
 20
212.1738
  0
VERTEX
  8
LAYER_5
 10
-2.2633
 20
212.1738
 42
0.2103132122
  0
VERTEX
  8
LAYER_5
 10
-2.6081
 20
212.0486
 42
0.18506809
  0
VERTEX
  8
LAYER_5
 10
-2.6942
 20
211.8127
 42
0.1945609364
  0
VERTEX
  8
LAYER_5
 10
-2.5912
 20
211.533
 42
0.1980708175
  0
VERTEX
  8
LAYER_5
 10
-2.2729
 20
211.4228
 42
0.2246292991
  0
VERTEX
  8
LAYER_5
 10
-1.9663
 20
211.5426
  0
VERTEX
  8
LAYER_5
 10
-1.9663
 20
211.4352
  0
SEQEND
  0
POLYLINE
  8
LAYER_5
 40
0.05
 41
0.05
 66
1
 10
0
 20
0
 30
0
 70
1
  0
VERTEX
  8
LAYER_5
 10
-2.8758
 20
211.4352
  0
VERTEX
  8
LAYER_5
 10
-2.8758
 20
211.6977
  0
VERTEX
  8
LAYER_5
 10
-2.9884
 20
211.6977
 42
-0.4605815503
  0
VERTEX
  8
LAYER_5
 10
-3.0963
 20
211.8103
  0
VERTEX
  8
LAYER_5
 10
-3.0963
 20
212.4081
  0
VERTEX
  8
LAYER_5
 10
-2.8758
 20
212.4081
  0
VERTEX
  8
LAYER_5
 10
-2.8758
 20
212.6444
  0
VERTEX
  8
LAYER_5
 10
-3.0963
 20
212.6444
  0
VERTEX
  8
LAYER_5
 10
-3.0963
 20
213.0126
  0
VERTEX
  8
LAYER_5
 10
-3.407
 20
213.0126
  0
VERTEX
  8
LAYER_5
 10
-3.407
 20
212.6444
  0
VERTEX
  8
LAYER_5
 10
-3.539
 20
212.6444
  0
VERTEX
  8
LAYER_5
 10
-3.539
 20
212.4081
  0
VERTEX
  8
LAYER_5
 10
-3.407
 20
212.4081
  0
VERTEX
  8
LAYER_5
 10
-3.407
 20
211.7914
 42
0.4187763975
  0
VERTEX
  8
LAYER_5
 10
-3.0456
 20
211.4352
  0
SEQEND
  0
POLYLINE
  8
LAYER_5
 40
0.05
 41
0.05
 66
1
 10
0
 20
0
 30
0
 70
1
  0
VERTEX
  8
LAYER_5
 10
-3.8091
 20
213.137
  0
VERTEX
  8
LAYER_5
 10
-4.1419
 20
213.137
  0
VERTEX
  8
LAYER_5
 10
-4.1419
 20
211.4352
  0
VERTEX
  8
LAYER_5
 10
-3.8091
 20
211.4352
  0
SEQEND
  0
POLYLINE
  8
LAYER_5
 40
0.05
 41
0.05
 66
1
 10
0
 20
0
 30
0
 70
1
  0
VERTEX
  8
LAYER_5
 10
-5.0562
 20
211.4352
  0
VERTEX
  8
LAYER_5
 10
-5.0562
 20
212.231
 42
0.2135728393
  0
VERTEX
  8
LAYER_5
 10
-5.183
 20
212.5844
 42
0.1976836271
  0
VERTEX
  8
LAYER_5
 10
-5.4775
 20
212.6947
 42
0.2038428178
  0
VERTEX
  8
LAYER_5
 10
-5.7886
 20
212.5658
  0
VERTEX
  8
LAYER_5
 10
-5.7886
 20
212.6805
  0
VERTEX
  8
LAYER_5
 10
-6.0925
 20
212.6805
  0
VERTEX
  8
LAYER_5
 10
-6.0925
 20
211.4352
  0
VERTEX
  8
LAYER_5
 10
-5.7814
 20
211.4352
  0
VERTEX
  8
LAYER_5
 10
-5.7814
 20
212.1882
 42
-0.4265123439
  0
VERTEX
  8
LAYER_5
 10
-5.573
 20
212.4149
 42
-0.4361688158
  0
VERTEX
  8
LAYER_5
 10
-5.3673
 20
212.1882
  0
VERTEX
  8
LAYER_5
 10
-5.3673
 20
211.4352
  0
SEQEND
  0
POLYLINE
  8
LAYER_5
 40
0.05
 41
0.05
 66
1
 10
0
 20
0
 30
0
 70
1
  0
VERTEX
  8
LAYER_5
 10
-6.437
 20
213.1467
  0
VERTEX
  8
LAYER_5
 10
-6.7553
 20
213.1467
  0
VERTEX
  8
LAYER_5
 10
-6.7553
 20
212.8931
  0
VERTEX
  8
LAYER_5
 10
-6.437
 20
212.8931
  0
SEQEND
  0
POLYLINE
  8
LAYER_5
 40
0.05
 41
0.05
 66
1
 10
0
 20
0
 30
0
 70
1
  0
VERTEX
  8
LAYER_5
 10
-6.4394
 20
212.6444
  0
VERTEX
  8
LAYER_5
 10
-6.7508
 20
212.6444
  0
VERTEX
  8
LAYER_5
 10
-6.7508
 20
211.4352
  0
VERTEX
  8
LAYER_5
 10
-6.4394
 20
211.4352
  0
SEQEND
  0
POLYLINE
  8
LAYER_5
 40
0.05
 41
0.05
 66
1
 10
0
 20
0
 30
0
  0
VERTEX
  8
LAYER_5
 10
-7.8994
 20
212.1738
  0
VERTEX
  8
LAYER_5
 10
-8.3735
 20
212.1738
  0
VERTEX
  8
LAYER_5
 10
-8.3445
 20
212.3074
 42
-0.3006254692
  0
VERTEX
  8
LAYER_5
 10
-8.1365
 20
212.4363
 42
-0.3004502708
  0
VERTEX
  8
LAYER_5
 10
-7.9284
 20
212.3074
  0
VERTEX
  8
LAYER_5
 10
-7.8994
 20
212.1738
  0
SEQEND
  0
POLYLINE
  8
LAYER_5
 40
0.05
 41
0.05
 66
1
 10
0
 20
0
 30
0
 70
1
  0
VERTEX
  8
LAYER_5
 10
-7.5932
 20
211.9609
  0
VERTEX
  8
LAYER_5
 10
-7.5932
 20
212.0925
 42
0.1727949422
  0
VERTEX
  8
LAYER_5
 10
-7.7261
 20
212.5161
 42
0.2293242446
  0
VERTEX
  8
LAYER_5
 10
-8.1365
 20
212.6947
 42
0.4082688927
  0
VERTEX
  8
LAYER_5
 10
-8.6757
 20
212.151
 42
0.02665393029
  0
VERTEX
  8
LAYER_5
 10
-8.6797
 20
212.0591
 42
0.1685110564
  0
VERTEX
  8
LAYER_5
 10
-8.5537
 20
211.6061
 42
0.2404561047
  0
VERTEX
  8
LAYER_5
 10
-8.103
 20
211.4207
 42
0.2250390665
  0
VERTEX
  8
LAYER_5
 10
-7.629
 20
211.6167
  0
VERTEX
  8
LAYER_5
 10
-7.8181
 20
211.801
 42
-0.2242451699
  0
VERTEX
  8
LAYER_5
 10
-8.1003
 20
211.6839
 42
-0.4312737558
  0
VERTEX
  8
LAYER_5
 10
-8.3735
 20
211.9609
  0
SEQEND
  0
POLYLINE
  8
LAYER_5
 40
0.05
 41
0.05
 66
1
 10
0
 20
0
 30
0
  0
VERTEX
  8
LAYER_5
 10
-9.2778
 20
212.0591
 42
-0.253040373
  0
VERTEX
  8
LAYER_5
 10
-9.3737
 20
211.7317
 42
-0.1751487426
  0
VERTEX
  8
LAYER_5
 10
-9.4911
 20
211.7004
 42
-0.3550784466
  0
VERTEX
  8
LAYER_5
 10
-9.6774
 20
211.8331
 42
-0.1590539016
  0
VERTEX
  8
LAYER_5
 10
-9.7016
 20
212.0591
 42
-0.2613372193
  0
VERTEX
  8
LAYER_5
 10
-9.6054
 20
212.3859
 42
-0.1728730088
  0
VERTEX
  8
LAYER_5
 10
-9.4911
 20
212.4149
 42
-0.3508351005
  0
VERTEX
  8
LAYER_5
 10
-9.3031
 20
212.2839
 42
-0.1617280931
  0
VERTEX
  8
LAYER_5
 10
-9.2778
 20
212.0591
  0
SEQEND
  0
POLYLINE
  8
LAYER_5
 40
0.05
 41
0.05
 66
1
 10
0
 20
0
 30
0
 70
1
  0
VERTEX
  8
LAYER_5
 10
-8.9667
 20
211.4352
  0
VERTEX
  8
LAYER_5
 10
-8.9667
 20
213.137
  0
VERTEX
  8
LAYER_5
 10
-9.2778
 20
213.137
  0
VERTEX
  8
LAYER_5
 10
-9.2778
 20
212.5707
 42
0.2263222596
  0
VERTEX
  8
LAYER_5
 10
-9.582
 20
212.6947
 42
0.2021447193
  0
VERTEX
  8
LAYER_5
 10
-9.8835
 20
212.5824
 42
0.1955994833
  0
VERTEX
  8
LAYER_5
 10
-10.0116
 20
212.1647
 42
0.01858076917
  0
VERTEX
  8
LAYER_5
 10
-10.013
 20
212.0591
 42
0.1992737425
  0
VERTEX
  8
LAYER_5
 10
-9.8835
 20
211.533
 42
0.1967798833
  0
VERTEX
  8
LAYER_5
 10
-9.5796
 20
211.4207
 42
0.2329721531
  0
VERTEX
  8
LAYER_5
 10
-9.2709
 20
211.5523
  0
VERTEX
  8
LAYER_5
 10
-9.2709
 20
211.4352
  0
SEQEND
  0
POLYLINE
  8
LAYER_5
 40
0.05
 41
0.05
 66
1
 10
0
 20
0
 30
0
 70
1
  0
VERTEX
  8
LAYER_5
 10
-10.6062
 20
211.894
 42
-0.2606176184
  0
VERTEX
  8
LAYER_5
 10
-10.6541
 20
211.7363
 42
-0.1975146001
  0
VERTEX
  8
LAYER_5
 10
-10.8384
 20
211.6763
 42
-0.4358674545
  0
VERTEX
  8
LAYER_5
 10
-11.0272
 20
211.8175
 42
-0.4654392595
  0
VERTEX
  8
LAYER_5
 10
-10.8433
 20
211.9609
  0
VERTEX
  8
LAYER_5
 10
-10.6062
 20
211.9609
  0
SEQEND
  0
POLYLINE
  8
LAYER_5
 40
0.05
 41
0.05
 66
1
 10
0
 20
0
 30
0
 70
1
  0
VERTEX
  8
LAYER_5
 10
-10.2951
 20
211.4352
  0
VERTEX
  8
LAYER_5
 10
-10.2951
 20
212.2551
 42
0.2204713638
  0
VERTEX
  8
LAYER_5
 10
-10.4207
 20
212.5772
 42
0.1806796456
  0
VERTEX
  8
LAYER_5
 10
-10.8267
 20
212.6947
 42
0.2375604919
  0
VERTEX
  8
LAYER_5
 10
-11.2739
 20
212.5179
  0
VERTEX
  8
LAYER_5
 10
-11.0779
 20
212.3243
 42
-0.2460763492
  0
VERTEX
  8
LAYER_5
 10
-10.8384
 20
212.4322
 42
-0.4683426501
  0
VERTEX
  8
LAYER_5
 10
-10.6062
 20
212.2358
  0
VERTEX
  8
LAYER_5
 10
-10.6062
 20
212.1738
  0
VERTEX
  8
LAYER_5
 10
-10.896
 20
212.1738
 42
0.2105830771
  0
VERTEX
  8
LAYER_5
 10
-11.2407
 20
212.0486
 42
0.1847749138
  0
VERTEX
  8
LAYER_5
 10
-11.3266
 20
211.8127
 42
0.1946881207
  0
VERTEX
  8
LAYER_5
 10
-11.2239
 20
211.533
 42
0.1984095291
  0
VERTEX
  8
LAYER_5
 10
-10.9053
 20
211.4228
 42
0.2251045156
  0
VERTEX
  8
LAYER_5
 10
-10.599
 20
211.5426
  0
VERTEX
  8
LAYER_5
 10
-10.599
 20
211.4352
  0
SEQEND
  0
POLYLINE
  8
LAYER_5
 40
0.05
 41
0.05
 66
1
 10
0
 20
0
 30
0
 70
1
  0
VERTEX
  8
LAYER_5
 10
-11.5733
 20
211.4352
  0
VERTEX
  8
LAYER_5
 10
-11.5733
 20
212.231
 42
0.2096424971
  0
VERTEX
  8
LAYER_5
 10
-11.7097
 20
212.5844
 42
0.1904514856
  0
VERTEX
  8
LAYER_5
 10
-12.016
 20
212.6947
 42
0.2201014615
  0
VERTEX
  8
LAYER_5
 10
-12.3894
 20
212.5369
 42
0.2475119635
  0
VERTEX
  8
LAYER_5
 10
-12.7198
 20
212.6947
 42
0.1971786765
  0
VERTEX
  8
LAYER_5
 10
-13.0309
 20
212.5658
  0
VERTEX
  8
LAYER_5
 10
-13.0309
 20
212.6805
  0
VERTEX
  8
LAYER_5
 10
-13.3348
 20
212.6805
  0
VERTEX
  8
LAYER_5
 10
-13.3348
 20
211.4352
  0
VERTEX
  8
LAYER_5
 10
-13.0233
 20
211.4352
  0
VERTEX
  8
LAYER_5
 10
-13.0233
 20
212.1882
 42
-0.4265481482
  0
VERTEX
  8
LAYER_5
 10
-12.8153
 20
212.4149
 42
-0.4361688158
  0
VERTEX
  8
LAYER_5
 10
-12.6096
 20
212.1882
  0
VERTEX
  8
LAYER_5
 10
-12.6096
 20
211.4352
  0
VERTEX
  8
LAYER_5
 10
-12.2985
 20
211.4352
  0
VERTEX
  8
LAYER_5
 10
-12.2985
 20
212.1951
 42
-0.4236814191
  0
VERTEX
  8
LAYER_5
 10
-12.0904
 20
212.4149
 42
-0.4367319455
  0
VERTEX
  8
LAYER_5
 10
-11.8844
 20
212.1882
  0
VERTEX
  8
LAYER_5
 10
-11.8844
 20
211.4352
  0
SEQEND
  0
POLYLINE
  8
LAYER_5
 40
0.05
 41
0.05
 66
1
 10
0
 20
0
 30
0
  0
VERTEX
  8
LAYER_5
 10
-13.8973
 20
212.0229
 42
-0.2061577285
  0
VERTEX
  8
LAYER_5
 10
-14.0003
 20
211.6401
 42
-0.1860547104
  0
VERTEX
  8
LAYER_5
 10
-14.1915
 20
211.5736
 42
-0.2912351062
  0
VERTEX
  8
LAYER_5
 10
-14.4327
 20
211.7044
 42
-0.1074256356
  0
VERTEX
  8
LAYER_5
 10
-14.4882
 20
212.0229
 42
-0.2074793493
  0
VERTEX
  8
LAYER_5
 10
-14.3843
 20
212.406
 42
-0.1847812498
  0
VERTEX
  8
LAYER_5
 10
-14.1915
 20
212.4725
 42
-0.2924886932
  0
VERTEX
  8
LAYER_5
 10
-13.9523
 20
212.3416
 42
-0.1065173685
  0
VERTEX
  8
LAYER_5
 10
-13.8973
 20
212.0229
  0
SEQEND
  0
POLYLINE
  8
LAYER_5
 40
0.05
 41
0.05
 66
1
 10
0
 20
0
 30
0
 70
1
  0
VERTEX
  8
LAYER_5
 10
-13.7247
 20
211.4352
  0
VERTEX
  8
LAYER_5
 10
-13.7247
 20
213.137
  0
VERTEX
  8
LAYER_5
 10
-13.8973
 20
213.137
  0
VERTEX
  8
LAYER_5
 10
-13.8973
 20
212.4749
 42
0.2526586678
  0
VERTEX
  8
LAYER_5
 10
-14.2298
 20
212.6258
 42
0.19617536
  0
VERTEX
  8
LAYER_5
 10
-14.5171
 20
212.5224
 42
0.2062736322
  0
VERTEX
  8
LAYER_5
 10
-14.6608
 20
212.0229
 42
0.1925049638
  0
VERTEX
  8
LAYER_5
 10
-14.5171
 20
211.5234
 42
0.1893263809
  0
VERTEX
  8
LAYER_5
 10
-14.2298
 20
211.4207
 42
0.2549957718
  0
VERTEX
  8
LAYER_5
 10
-13.8949
 20
211.5761
  0
VERTEX
  8
LAYER_5
 10
-13.8949
 20
211.4352
  0
SEQEND
  0
POLYLINE
  8
LAYER_5
 40
0.05
 41
0.05
 66
1
 10
0
 20
0
 30
0
 70
1
  0
VERTEX
  8
LAYER_5
 10
-15.0173
 20
211.4352
  0
VERTEX
  8
LAYER_5
 10
-15.0173
 20
212.1882
 42
0.2089360908
  0
VERTEX
  8
LAYER_5
 10
-15.1393
 20
212.5156
 42
0.1977212202
  0
VERTEX
  8
LAYER_5
 10
-15.4411
 20
212.6258
 42
0.2189458741
  0
VERTEX
  8
LAYER_5
 10
-15.7711
 20
212.4818
  0
VERTEX
  8
LAYER_5
 10
-15.7711
 20
212.6113
  0
VERTEX
  8
LAYER_5
 10
-15.9434
 20
212.6113
  0
VERTEX
  8
LAYER_5
 10
-15.9434
 20
211.4352
  0
VERTEX
  8
LAYER_5
 10
-15.7711
 20
211.4352
  0
VERTEX
  8
LAYER_5
 10
-15.7711
 20
212.1593
 42
-0.4284576329
  0
VERTEX
  8
LAYER_5
 10
-15.479
 20
212.4725
 42
-0.4466039224
  0
VERTEX
  8
LAYER_5
 10
-15.1896
 20
212.1593
  0
VERTEX
  8
LAYER_5
 10
-15.1896
 20
211.4352
  0
SEQEND
  0
POLYLINE
  8
LAYER_5
 40
0.05
 41
0.05
 66
1
 10
0
 20
0
 30
0
 70
1
  0
VERTEX
  8
LAYER_5
 10
-16.5346
 20
211.8506
 42
-0.2283736068
  0
VERTEX
  8
LAYER_5
 10
-16.5945
 20
211.6477
 42
-0.1936527339
  0
VERTEX
  8
LAYER_5
 10
-16.8553
 20
211.5688
 42
-0.4421173513
  0
VERTEX
  8
LAYER_5
 10
-17.1281
 20
211.77
 42
-0.3470924647
  0
VERTEX
  8
LAYER_5
 10
-16.9968
 20
211.9592
 42
-0.1261120874
  0
VERTEX
  8
LAYER_5
 10
-16.8625
 20
211.9774
  0
VERTEX
  8
LAYER_5
 10
-16.5346
 20
211.9774
  0
SEQEND
  0
POLYLINE
  8
LAYER_5
 40
0.05
 41
0.05
 66
1
 10
0
 20
0
 30
0
 70
1
  0
VERTEX
  8
LAYER_5
 10
-16.362
 20
211.4352
  0
VERTEX
  8
LAYER_5
 10
-16.362
 20
212.233
 42
0.2383829599
  0
VERTEX
  8
LAYER_5
 10
-16.4898
 20
212.5337
 42
0.1599209503
  0
VERTEX
  8
LAYER_5
 10
-16.8336
 20
212.6258
 42
0.2578644009
  0
VERTEX
  8
LAYER_5
 10
-17.2501
 20
212.4487
  0
VERTEX
  8
LAYER_5
 10
-17.133
 20
212.3409
 42
-0.2730960706
  0
VERTEX
  8
LAYER_5
 10
-16.8364
 20
212.4776
 42
-0.4521672334
  0
VERTEX
  8
LAYER_5
 10
-16.5346
 20
212.2193
  0
VERTEX
  8
LAYER_5
 10
-16.5346
 20
212.1066
  0
VERTEX
  8
LAYER_5
 10
-16.8863
 20
212.1066
 42
0.2189203862
  0
VERTEX
  8
LAYER_5
 10
-17.2226
 20
211.9822
 42
0.17494127
  0
VERTEX
  8
LAYER_5
 10
-17.2956
 20
211.7673
 42
0.2075768001
  0
VERTEX
  8
LAYER_5
 10
-17.2071
 20
211.5282
 42
0.2128603639
  0
VERTEX
  8
LAYER_5
 10
-16.8742
 20
211.4207
 42
0.2247839487
  0
VERTEX
  8
LAYER_5
 10
-16.5346
 20
211.5471
  0
VERTEX
  8
LAYER_5
 10
-16.5346
 20
211.4352
  0
SEQEND
  0
POLYLINE
  8
LAYER_5
 40
0.05
 41
0.05
 66
1
 10
0
 20
0
 30
0
 70
1
  0
VERTEX
  8
LAYER_5
 10
-17.6211
 20
211.4352
  0
VERTEX
  8
LAYER_5
 10
-17.6211
 20
212.1903
 42
0.2163078196
  0
VERTEX
  8
LAYER_5
 10
-17.7538
 20
212.5281
 42
0.1798246735
  0
VERTEX
  8
LAYER_5
 10
-18.0449
 20
212.6258
 42
0.2190712165
  0
VERTEX
  8
LAYER_5
 10
-18.3749
 20
212.4818
  0
VERTEX
  8
LAYER_5
 10
-18.3749
 20
213.137
  0
VERTEX
  8
LAYER_5
 10
-18.5475
 20
213.137
  0
VERTEX
  8
LAYER_5
 10
-18.5475
 20
211.4352
  0
VERTEX
  8
LAYER_5
 10
-18.3749
 20
211.4352
  0
VERTEX
  8
LAYER_5
 10
-18.3749
 20
212.1617
 42
-0.4350388577
  0
VERTEX
  8
LAYER_5
 10
-18.0807
 20
212.4725
 42
-0.4517618327
  0
VERTEX
  8
LAYER_5
 10
-17.7934
 20
212.1617
  0
VERTEX
  8
LAYER_5
 10
-17.7934
 20
211.4352
  0
SEQEND
  0
ENDBLK
  0
BLOCK
  8
LAYER_5
  2
AIGNBL05020007
 70
64
 10
0
 20
0
 30
0
  3
AIGNBL05020007
  0
INSERT
  8
LAYER_5
  2
AIGNBL05030008
 10
0
 20
0
 30
0
  0
ENDBLK
  0
BLOCK
  8
LAYER_5
  2
AIGNBL05020010
 70
64
 10
0
 20
0
 30
0
  3
AIGNBL05020010
  0
INSERT
  8
LAYER_5
  2
AIGNBL05030011
 10
0
 20
0
 30
0
  0
INSERT
  8
LAYER_5
  2
AIGNBL05030012
 10
0
 20
0
 30
0
  0
INSERT
  8
LAYER_5
  2
AIGNBL05030013
 10
0
 20
0
 30
0
  0
INSERT
  8
LAYER_5
  2
AIGNBL05030014
 10
0
 20
0
 30
0
  0
INSERT
  8
LAYER_5
  2
AIGNBL05030015
 10
0
 20
0
 30
0
  0
INSERT
  8
LAYER_5
  2
AIGNBL05030016
 10
0
 20
0
 30
0
  0
INSERT
  8
LAYER_5
  2
AIGNBL05030017
 10
0
 20
0
 30
0
  0
INSERT
  8
LAYER_5
  2
AIGNBL05030018
 10
0
 20
0
 30
0
  0
INSERT
  8
LAYER_5
  2
AIGNBL05030019
 10
0
 20
0
 30
0
  0
INSERT
  8
LAYER_5
  2
AIGNBL0503001A
 10
0
 20
0
 30
0
  0
INSERT
  8
LAYER_5
  2
AIGNBL0503001B
 10
0
 20
0
 30
0
  0
INSERT
  8
LAYER_5
  2
AIGNBL0503001C
 10
0
 20
0
 30
0
  0
INSERT
  8
LAYER_5
  2
AIGNBL0503001D
 10
0
 20
0
 30
0
  0
INSERT
  8
LAYER_5
  2
AIGNBL0503001E
 10
0
 20
0
 30
0
  0
INSERT
  8
LAYER_5
  2
AIGNBL0503001F
 10
0
 20
0
 30
0
  0
INSERT
  8
LAYER_5
  2
AIGNBL05030020
 10
0
 20
0
 30
0
  0
INSERT
  8
LAYER_5
  2
AIGNBL05030021
 10
0
 20
0
 30
0
  0
INSERT
  8
LAYER_5
  2
AIGNBL05030022
 10
0
 20
0
 30
0
  0
INSERT
  8
LAYER_5
  2
AIGNBL05030023
 10
0
 20
0
 30
0
  0
INSERT
  8
LAYER_5
  2
AIGNBL05030024
 10
0
 20
0
 30
0
  0
INSERT
  8
LAYER_5
  2
AIGNBL05030025
 10
0
 20
0
 30
0
  0
INSERT
  8
LAYER_5
  2
AIGNBL05030026
 10
0
 20
0
 30
0
  0
INSERT
  8
LAYER_5
  2
AIGNBL05030027
 10
0
 20
0
 30
0
  0
ENDBLK
  0
BLOCK
  8
LAYER_5
  2
AIGNBL05010002
 70
64
 10
0
 20
0
 30
0
  3
AIGNBL05010002
  0
POLYLINE
  8
LAYER_5
 40
0.7056
 41
0.7056
 66
1
 10
0
 20
0
 30
0
 70
1
  0
VERTEX
  8
LAYER_5
 10
251.6749
 20
230.337
  0
VERTEX
  8
LAYER_5
 10
251.6749
 20
33.3285
  0
VERTEX
  8
LAYER_5
 10
-30.3177
 20
33.3285
  0
VERTEX
  8
LAYER_5
 10
-30.3177
 20
230.337
  0
SEQEND
  0
ENDBLK
  0
BLOCK
  8
LAYER_5
  2
AIGNBL05010003
 70
64
 10
0
 20
0
 30
0
  3
AIGNBL05010003
  0
INSERT
  8
LAYER_5
  2
AIGNBL05020004
 10
0
 20
0
 30
0
  0
POLYLINE
  8
LAYER_5
 40
0.05
 41
0.05
 66
1
 10
0
 20
0
 30
0
  0
VERTEX
  8
LAYER_5
 10
-6.457
 20
223.2684
  0
VERTEX
  8
LAYER_5
 10
-8.0924
 20
223.2684
  0
VERTEX
  8
LAYER_5
 10
-8.0924
 20
216.1939
 42
0.09304299953
  0
VERTEX
  8
LAYER_5
 10
-7.9518
 20
215.4241
 42
0.2872011141
  0
VERTEX
  8
LAYER_5
 10
-6.4597
 20
214.3359
  0
VERTEX
  8
LAYER_5
 10
-6.457
 20
223.2684
  0
SEQEND
  0
INSERT
  8
LAYER_5
  2
AIGNBL05020005
 10
0
 20
0
 30
0
  0
ENDBLK
  0
BLOCK
  8
LAYER_5
  2
AIGNBL05010006
 70
64
 10
0
 20
0
 30
0
  3
AIGNBL05010006
  0
INSERT
  8
LAYER_5
  2
AIGNBL05020007
 10
0
 20
0
 30
0
  0
INSERT
  8
LAYER_5
  2
AIGNBL05020010
 10
0
 20
0
 30
0
  0
ENDBLK
  0
BLOCK
  8
LAYER_5
  2
AIGNBL05010028
 70
64
 10
0
 20
0
 30
0
  3
AIGNBL05010028
  0
POLYLINE
  8
LAYER_5
 40
0.1446
 41
0.1446
 66
1
 10
0
 20
0
 30
0
  0
VERTEX
  8
LAYER_5
 10
49.3288
 20
177.0222
 42
0.2570016531
  0
VERTEX
  8
LAYER_5
 10
46.8082
 20
178.4095
  0
SEQEND
  0
POLYLINE
  8
LAYER_5
 40
0.1446
 41
0.1446
 66
1
 10
0
 20
0
 30
0
  0
VERTEX
  8
LAYER_5
 10
12.9219
 20
178.4096
 42
0.2569932073
  0
VERTEX
  8
LAYER_5
 10
10.4014
 20
177.0223
  0
SEQEND
  0
ENDBLK
  0
BLOCK
  8
LAYER_5
  2
AIGNBL05010029
 70
64
 10
0
 20
0
 30
0
  3
AIGNBL05010029
  0
POLYLINE
  8
LAYER_5
 40
0.1446
 41
0.1446
 66
1
 10
0
 20
0
 30
0
  0
VERTEX
  8
LAYER_5
 10
31.5809
 20
185.2532
 42
0.4142107842
  0
VERTEX
  8
LAYER_5
 10
29.8456
 20
186.9884
 42
0.4142013819
  0
VERTEX
  8
LAYER_5
 10
28.1103
 20
185.2532
 42
0.4142163406
  0
VERTEX
  8
LAYER_5
 10
29.8456
 20
183.5179
 42
0.4142257432
  0
VERTEX
  8
LAYER_5
 10
31.5809
 20
185.2532
  0
SEQEND
  0
POLYLINE
  8
LAYER_5
 40
0.1446
 41
0.1446
 66
1
 10
0
 20
0
 30
0
  0
VERTEX
  8
LAYER_5
 10
52.3261
 20
167.9395
 42
0.4142142432
  0
VERTEX
  8
LAYER_5
 10
29.8455
 20
190.4201
 42
0.4142137599
  0
VERTEX
  8
LAYER_5
 10
7.3653
 20
167.9395
 42
0.4142128816
  0
VERTEX
  8
LAYER_5
 10
29.8455
 20
145.4589
 42
0.4142133651
  0
VERTEX
  8
LAYER_5
 10
52.3261
 20
167.9395
  0
SEQEND
  0
POLYLINE
  8
LAYER_5
 40
0.1446
 41
0.1446
 66
1
 10
0
 20
0
 30
0
  0
VERTEX
  8
LAYER_5
 10
51.8582
 20
167.9395
 42
0.4142137868
  0
VERTEX
  8
LAYER_5
 10
29.8458
 20
189.9519
 42
0.4142142349
  0
VERTEX
  8
LAYER_5
 10
7.833
 20
167.9395
 42
0.414213338
  0
VERTEX
  8
LAYER_5
 10
29.8458
 20
145.9271
 42
0.41421289
  0
VERTEX
  8
LAYER_5
 10
51.8582
 20
167.9395
  0
SEQEND
  0
POLYLINE
  8
LAYER_5
 40
0.1446
 41
0.1446
 66
1
 10
0
 20
0
 30
0
  0
VERTEX
  8
LAYER_5
 10
49.3277
 20
177.0466
 42
0.2912173075
  0
VERTEX
  8
LAYER_5
 10
29.8457
 20
189.4451
 42
0.2912183358
  0
VERTEX
  8
LAYER_5
 10
10.3636
 20
177.0466
  0
SEQEND
  0
ENDBLK
  0
BLOCK
  8
LAYER_5
  2
AIGNBL0501002A
 70
64
 10
0
 20
0
 30
0
  3
AIGNBL0501002A
  0
POLYLINE
  8
LAYER_5
 40
0.1446
 41
0.1446
 66
1
 10
0
 20
0
 30
0
  0
VERTEX
  8
LAYER_5
 10
84.262
 20
150.6111
 42
0.06443975322
  0
VERTEX
  8
LAYER_5
 10
84.1116
 20
151.9581
  0
SEQEND
  0
POLYLINE
  8
LAYER_5
 40
0.1446
 41
0.1446
 66
1
 10
0
 20
0
 30
0
  0
VERTEX
  8
LAYER_5
 10
84.3019
 20
150.5954
 42
0.2012884479
  0
VERTEX
  8
LAYER_5
 10
84.4417
 20
150.2452
 42
0.2010452185
  0
VERTEX
  8
LAYER_5
 10
84.7893
 20
150.0993
  0
SEQEND
  0
ENDBLK
  0
BLOCK
  8
LAYER_5
  2
AIGNBL0501002B
 70
64
 10
0
 20
0
 30
0
  3
AIGNBL0501002B
  0
POLYLINE
  8
LAYER_5
 40
0.1446
 41
0.1446
 66
1
 10
0
 20
0
 30
0
  0
VERTEX
  8
LAYER_5
 10
85.2767
 20
149.612
 42
0.4142259945
  0
VERTEX
  8
LAYER_5
 10
84.7892
 20
150.0994
  0
SEQEND
  0
ENDBLK
  0
BLOCK
  8
LAYER_5
  2
AIGNBL0501002C
 70
64
 10
0
 20
0
 30
0
  3
AIGNBL0501002C
  0
POLYLINE
  8
LAYER_5
 40
0.1446
 41
0.1446
 66
1
 10
0
 20
0
 30
0
  0
VERTEX
  8
LAYER_5
 10
13.1031
 20
174.5384
 42
0.3362525563
  0
VERTEX
  8
LAYER_5
 10
18.9728
 20
153.5993
 42
0.3362407523
  0
VERTEX
  8
LAYER_5
 10
40.7186
 20
153.5993
 42
0.3362406048
  0
VERTEX
  8
LAYER_5
 10
46.5883
 20
174.5384
  0
SEQEND
  0
POLYLINE
  8
LAYER_5
 40
0.1446
 41
0.1446
 66
1
 10
0
 20
0
 30
0
  0
VERTEX
  8
LAYER_5
 10
46.5811
 20
174.5316
 42
0.3080546841
  0
VERTEX
  8
LAYER_5
 10
43.8057
 20
176.4207
  0
SEQEND
  0
POLYLINE
  8
LAYER_5
 40
0.1446
 41
0.1446
 66
1
 10
0
 20
0
 30
0
  0
VERTEX
  8
LAYER_5
 10
15.8855
 20
176.4209
 42
0.3080206527
  0
VERTEX
  8
LAYER_5
 10
13.1101
 20
174.5318
  0
SEQEND
  0
ENDBLK
  0
BLOCK
  8
LAYER_5
  2
AIGNBL0501002D
 70
64
 10
0
 20
0
 30
0
  3
AIGNBL0501002D
  0
POLYLINE
  8
LAYER_5
 40
0.1446
 41
0.1446
 66
1
 10
0
 20
0
 30
0
  0
VERTEX
  8
LAYER_5
 10
28.8513
 20
177.7662
 42
0.2658025539
  0
VERTEX
  8
LAYER_5
 10
29.0348
 20
177.5291
 42
0.1271235123
  0
VERTEX
  8
LAYER_5
 10
29.8458
 20
177.3567
 42
0.1020215315
  0
VERTEX
  8
LAYER_5
 10
30.5816
 20
177.4908
 42
0.2747942724
  0
VERTEX
  8
LAYER_5
 10
30.8399
 20
177.7662
 42
0.2657809886
  0
VERTEX
  8
LAYER_5
 10
30.6565
 20
178.0032
 42
0.127117099
  0
VERTEX
  8
LAYER_5
 10
29.8458
 20
178.1756
 42
0.1019822785
  0
VERTEX
  8
LAYER_5
 10
29.1096
 20
178.0415
 42
0.2748067048
  0
VERTEX
  8
LAYER_5
 10
28.8513
 20
177.7662
  0
SEQEND
  0
ENDBLK
  0
BLOCK
  8
LAYER_5
  2
AIGNBL0501002E
 70
64
 10
0
 20
0
 30
0
  3
AIGNBL0501002E
  0
POLYLINE
  8
LAYER_5
 40
0.1446
 41
0.1446
 66
1
 10
0
 20
0
 30
0
  0
VERTEX
  8
LAYER_5
 10
123.4086
 20
151.9582
 42
0.06443937068
  0
VERTEX
  8
LAYER_5
 10
123.2581
 20
150.6112
  0
SEQEND
  0
POLYLINE
  8
LAYER_5
 40
0.1446
 41
0.1446
 66
1
 10
0
 20
0
 30
0
  0
VERTEX
  8
LAYER_5
 10
122.7701
 20
150.0994
 42
0.2015569379
  0
VERTEX
  8
LAYER_5
 10
123.1177
 20
150.2453
 42
0.2013068984
  0
VERTEX
  8
LAYER_5
 10
123.2575
 20
150.5956
  0
SEQEND
  0
ENDBLK
  0
BLOCK
  8
LAYER_5
  2
AIGNBL0501002F
 70
64
 10
0
 20
0
 30
0
  3
AIGNBL0501002F
  0
POLYLINE
  8
LAYER_5
 40
0.1446
 41
0.1446
 66
1
 10
0
 20
0
 30
0
  0
VERTEX
  8
LAYER_5
 10
122.7701
 20
150.0994
 42
0.4142014784
  0
VERTEX
  8
LAYER_5
 10
122.2826
 20
149.612
  0
SEQEND
  0
ENDBLK
  0
BLOCK
  8
LAYER_5
  2
AIGNBL05010030
 70
64
 10
0
 20
0
 30
0
  3
AIGNBL05010030
  0
POLYLINE
  8
LAYER_5
 40
0.4374
 41
0.4374
 66
1
 10
0
 20
0
 30
0
  0
VERTEX
  8
LAYER_5
 10
13.8968
 20
92.4652
 42
0.3726375829
  0
VERTEX
  8
LAYER_5
 10
14.3789
 20
92.8821
  0
SEQEND
  0
ENDBLK
  0
BLOCK
  8
LAYER_5
  2
AIGNBL05010031
 70
64
 10
0
 20
0
 30
0
  3
AIGNBL05010031
  0
POLYLINE
  8
LAYER_5
 40
0.1446
 41
0.1446
 66
1
 10
0
 20
0
 30
0
  0
VERTEX
  8
LAYER_5
 10
7.8215
 20
107.8638
 42
0.2661091028
  0
VERTEX
  8
LAYER_5
 10
8.2614
 20
107.4551
  0
SEQEND
  0
POLYLINE
  8
LAYER_5
 40
0.4374
 41
0.4374
 66
1
 10
0
 20
0
 30
0
  0
VERTEX
  8
LAYER_5
 10
7.7135
 20
108.1481
 42
0.344205413
  0
VERTEX
  8
LAYER_5
 10
7.5797
 20
108.2582
  0
SEQEND
  0
ENDBLK
  0
BLOCK
  8
LAYER_5
  2
AIGNBL05010032
 70
64
 10
0
 20
0
 30
0
  3
AIGNBL05010032
  0
POLYLINE
  8
LAYER_5
 40
0.4374
 41
0.4374
 66
1
 10
0
 20
0
 30
0
  0
VERTEX
  8
LAYER_5
 10
7.3847
 20
108.2581
 42
0.2214278328
  0
VERTEX
  8
LAYER_5
 10
7.2791
 20
108.2083
 42
0.2204502893
  0
VERTEX
  8
LAYER_5
 10
7.2508
 20
108.0952
  0
SEQEND
  0
ENDBLK
  0
BLOCK
  8
LAYER_5
  2
AIGNBL05010033
 70
64
 10
0
 20
0
 30
0
  3
AIGNBL05010033
  0
POLYLINE
  8
LAYER_5
 40
0.4374
 41
0.4374
 66
1
 10
0
 20
0
 30
0
  0
VERTEX
  8
LAYER_5
 10
10.211
 20
92.47
 42
0.06423574267
  0
VERTEX
  8
LAYER_5
 10
10.0609
 20
93.817
  0
SEQEND
  0
POLYLINE
  8
LAYER_5
 40
0.4374
 41
0.4374
 66
1
 10
0
 20
0
 30
0
  0
VERTEX
  8
LAYER_5
 10
10.2119
 20
92.4543
 42
0.2013290694
  0
VERTEX
  8
LAYER_5
 10
10.3517
 20
92.104
 42
0.2010209461
  0
VERTEX
  8
LAYER_5
 10
10.6993
 20
91.9581
  0
SEQEND
  0
ENDBLK
  0
BLOCK
  8
LAYER_5
  2
AIGNBL05010034
 70
64
 10
0
 20
0
 30
0
  3
AIGNBL05010034
  0
POLYLINE
  8
LAYER_5
 40
0.4374
 41
0.4374
 66
1
 10
0
 20
0
 30
0
  0
VERTEX
  8
LAYER_5
 10
11.1866
 20
91.4708
 42
0.4142401658
  0
VERTEX
  8
LAYER_5
 10
10.6992
 20
91.9583
  0
SEQEND
  0
ENDBLK
  0
BLOCK
  8
LAYER_5
  2
AIGNBL05010035
 70
64
 10
0
 20
0
 30
0
  3
AIGNBL05010035
  0
POLYLINE
  8
LAYER_5
 40
0.1446
 41
0.1446
 66
1
 10
0
 20
0
 30
0
  0
VERTEX
  8
LAYER_5
 10
32.0879
 20
167.9395
 42
0.4142203877
  0
VERTEX
  8
LAYER_5
 10
29.8455
 20
170.1819
 42
0.414215541
  0
VERTEX
  8
LAYER_5
 10
27.6036
 20
167.9395
 42
0.4142067361
  0
VERTEX
  8
LAYER_5
 10
29.8455
 20
165.6972
 42
0.4142115849
  0
VERTEX
  8
LAYER_5
 10
32.0879
 20
167.9395
  0
SEQEND
  0
POLYLINE
  8
LAYER_5
 40
0.1446
 41
0.1446
 66
1
 10
0
 20
0
 30
0
  0
VERTEX
  8
LAYER_5
 10
33.6086
 20
167.9395
 42
0.4142176295
  0
VERTEX
  8
LAYER_5
 10
29.8455
 20
171.7026
 42
0.4142147412
  0
VERTEX
  8
LAYER_5
 10
26.0828
 20
167.9395
 42
0.414209495
  0
VERTEX
  8
LAYER_5
 10
29.8455
 20
164.1764
 42
0.414212384
  0
VERTEX
  8
LAYER_5
 10
33.6086
 20
167.9395
  0
SEQEND
  0
ENDBLK
  0
BLOCK
  8
LAYER_5
  2
AIGNBL05010036
 70
64
 10
0
 20
0
 30
0
  3
AIGNBL05010036
  0
POLYLINE
  8
LAYER_5
 40
0.4374
 41
0.4374
 66
1
 10
0
 20
0
 30
0
  0
VERTEX
  8
LAYER_5
 10
27.4475
 20
95.0583
 42
0.1994833282
  0
VERTEX
  8
LAYER_5
 10
27.3046
 20
95.4029
  0
SEQEND
  0
ENDBLK
  0
BLOCK
  8
LAYER_5
  2
AIGNBL05010037
 70
64
 10
0
 20
0
 30
0
  3
AIGNBL05010037
  0
POLYLINE
  8
LAYER_5
 40
0.4374
 41
0.4374
 66
1
 10
0
 20
0
 30
0
  0
VERTEX
  8
LAYER_5
 10
26.4336
 20
94.6294
 42
0.1994870159
  0
VERTEX
  8
LAYER_5
 10
26.2907
 20
94.974
  0
SEQEND
  0
ENDBLK
  0
BLOCK
  8
LAYER_5
  2
AIGNBL05010038
 70
64
 10
0
 20
0
 30
0
  3
AIGNBL05010038
  0
POLYLINE
  8
LAYER_5
 40
0.4374
 41
0.4374
 66
1
 10
0
 20
0
 30
0
  0
VERTEX
  8
LAYER_5
 10
26.0959
 20
96.6118
 42
0.1894045875
  0
VERTEX
  8
LAYER_5
 10
25.7683
 20
96.7543
  0
SEQEND
  0
ENDBLK
  0
BLOCK
  8
LAYER_5
  2
AIGNBL05010039
 70
64
 10
0
 20
0
 30
0
  3
AIGNBL05010039
  0
POLYLINE
  8
LAYER_5
 40
0.4374
 41
0.4374
 66
1
 10
0
 20
0
 30
0
  0
VERTEX
  8
LAYER_5
 10
25.6669
 20
95.637
 42
0.1893934651
  0
VERTEX
  8
LAYER_5
 10
25.3393
 20
95.7795
  0
SEQEND
  0
ENDBLK
  0
BLOCK
  8
LAYER_5
  2
AIGNBL0501003A
 70
64
 10
0
 20
0
 30
0
  3
AIGNBL0501003A
  0
POLYLINE
  8
LAYER_5
 40
0.4374
 41
0.4374
 66
1
 10
0
 20
0
 30
0
  0
VERTEX
  8
LAYER_5
 10
11.357
 20
96.777
 42
0.1360640005
  0
VERTEX
  8
LAYER_5
 10
13.0025
 20
96.2145
  0
SEQEND
  0
POLYLINE
  8
LAYER_5
 40
0.1446
 41
0.1446
 66
1
 10
0
 20
0
 30
0
  0
VERTEX
  8
LAYER_5
 10
30.684
 20
105.275
 42
0.4142138582
  0
VERTEX
  8
LAYER_5
 10
29.6895
 20
106.2695
 42
0.4141990365
  0
VERTEX
  8
LAYER_5
 10
28.6954
 20
105.275
 42
0.414213269
  0
VERTEX
  8
LAYER_5
 10
29.6895
 20
104.2805
 42
0.4142280862
  0
VERTEX
  8
LAYER_5
 10
30.684
 20
105.275
  0
SEQEND
  0
ENDBLK
  0
BLOCK
  8
LAYER_5
  2
AIGNBL0501003B
 70
64
 10
0
 20
0
 30
0
  3
AIGNBL0501003B
  0
POLYLINE
  8
LAYER_5
 40
0.4374
 41
0.4374
 66
1
 10
0
 20
0
 30
0
  0
VERTEX
  8
LAYER_5
 10
11.2307
 20
98.5024
 42
0.3053874178
  0
VERTEX
  8
LAYER_5
 10
13.0463
 20
97.1848
  0
SEQEND
  0
ENDBLK
  0
BLOCK
  8
LAYER_5
  2
AIGNBL0501003C
 70
64
 10
0
 20
0
 30
0
  3
AIGNBL0501003C
  0
POLYLINE
  8
LAYER_5
 40
0.4374
 41
0.4374
 66
1
 10
0
 20
0
 30
0
  0
VERTEX
  8
LAYER_5
 10
11.3643
 20
96.7475
 42
0.3045153428
  0
VERTEX
  8
LAYER_5
 10
10.8207
 20
96.752
 42
0.3047174016
  0
VERTEX
  8
LAYER_5
 10
10.6111
 20
96.2506
  0
SEQEND
  0
POLYLINE
  8
LAYER_5
 40
0.4374
 41
0.4374
 66
1
 10
0
 20
0
 30
0
  0
VERTEX
  8
LAYER_5
 10
16.3316
 20
96.0914
 42
0.3824490486
  0
VERTEX
  8
LAYER_5
 10
15.8321
 20
95.6745
  0
SEQEND
  0
POLYLINE
  8
LAYER_5
 40
0.4374
 41
0.4374
 66
1
 10
0
 20
0
 30
0
  0
VERTEX
  8
LAYER_5
 10
11.2739
 20
92.8581
 42
0.3580544066
  0
VERTEX
  8
LAYER_5
 10
11.7519
 20
92.4652
  0
SEQEND
  0
ENDBLK
  0
BLOCK
  8
LAYER_5
  2
AIGNBL0501003D
 70
64
 10
0
 20
0
 30
0
  3
AIGNBL0501003D
  0
POLYLINE
  8
LAYER_5
 40
0.4374
 41
0.4374
 66
1
 10
0
 20
0
 30
0
  0
VERTEX
  8
LAYER_5
 10
14.7691
 20
95.6119
 42
0.2134669101
  0
VERTEX
  8
LAYER_5
 10
14.6609
 20
95.9945
 42
0.2133143167
  0
VERTEX
  8
LAYER_5
 10
14.3039
 20
96.1694
  0
SEQEND
  0
ENDBLK
  0
BLOCK
  8
LAYER_5
  2
AIGNBL0501003E
 70
64
 10
0
 20
0
 30
0
  3
AIGNBL0501003E
  0
POLYLINE
  8
LAYER_5
 40
0.4374
 41
0.4374
 66
1
 10
0
 20
0
 30
0
  0
VERTEX
  8
LAYER_5
 10
32.4256
 20
95.403
 42
0.1988829715
  0
VERTEX
  8
LAYER_5
 10
32.2827
 20
95.0585
  0
SEQEND
  0
ENDBLK
  0
BLOCK
  8
LAYER_5
  2
AIGNBL0501003F
 70
64
 10
0
 20
0
 30
0
  3
AIGNBL0501003F
  0
POLYLINE
  8
LAYER_5
 40
0.4374
 41
0.4374
 66
1
 10
0
 20
0
 30
0
  0
VERTEX
  8
LAYER_5
 10
33.4005
 20
94.9741
 42
0.1989397779
  0
VERTEX
  8
LAYER_5
 10
33.2576
 20
94.6295
  0
SEQEND
  0
ENDBLK
  0
BLOCK
  8
LAYER_5
  2
AIGNBL05010040
 70
64
 10
0
 20
0
 30
0
  3
AIGNBL05010040
  0
POLYLINE
  8
LAYER_5
 40
0.4374
 41
0.4374
 66
1
 10
0
 20
0
 30
0
  0
VERTEX
  8
LAYER_5
 10
33.962
 20
96.7543
 42
0.1901856766
  0
VERTEX
  8
LAYER_5
 10
33.6344
 20
96.6118
  0
SEQEND
  0
ENDBLK
  0
BLOCK
  8
LAYER_5
  2
AIGNBL05010041
 70
64
 10
0
 20
0
 30
0
  3
AIGNBL05010041
  0
POLYLINE
  8
LAYER_5
 40
0.4374
 41
0.4374
 66
1
 10
0
 20
0
 30
0
  0
VERTEX
  8
LAYER_5
 10
34.391
 20
95.7795
 42
0.1902443171
  0
VERTEX
  8
LAYER_5
 10
34.0633
 20
95.6369
  0
SEQEND
  0
ENDBLK
  0
BLOCK
  8
LAYER_5
  2
AIGNBL05010042
 70
64
 10
0
 20
0
 30
0
  3
AIGNBL05010042
  0
POLYLINE
  8
LAYER_5
 40
0.4374
 41
0.4374
 66
1
 10
0
 20
0
 30
0
  0
VERTEX
  8
LAYER_5
 10
45.3122
 20
92.8823
 42
0.372243432
  0
VERTEX
  8
LAYER_5
 10
45.7943
 20
92.4653
  0
SEQEND
  0
POLYLINE
  8
LAYER_5
 40
0.4374
 41
0.4374
 66
1
 10
0
 20
0
 30
0
  0
VERTEX
  8
LAYER_5
 10
52.1117
 20
108.2581
 42
0.3450008816
  0
VERTEX
  8
LAYER_5
 10
51.9778
 20
108.148
  0
SEQEND
  0
ENDBLK
  0
BLOCK
  8
LAYER_5
  2
AIGNBL05010043
 70
64
 10
0
 20
0
 30
0
  3
AIGNBL05010043
  0
POLYLINE
  8
LAYER_5
 40
0.4374
 41
0.4374
 66
1
 10
0
 20
0
 30
0
  0
VERTEX
  8
LAYER_5
 10
52.4405
 20
108.0951
 42
0.2183105106
  0
VERTEX
  8
LAYER_5
 10
52.4122
 20
108.2082
 42
0.2206326009
  0
VERTEX
  8
LAYER_5
 10
52.3067
 20
108.258
  0
SEQEND
  0
ENDBLK
  0
BLOCK
  8
LAYER_5
  2
AIGNBL05010044
 70
64
 10
0
 20
0
 30
0
  3
AIGNBL05010044
  0
POLYLINE
  8
LAYER_5
 40
0.4374
 41
0.4374
 66
1
 10
0
 20
0
 30
0
  0
VERTEX
  8
LAYER_5
 10
49.6305
 20
93.817
 42
0.06464438991
  0
VERTEX
  8
LAYER_5
 10
49.4805
 20
92.4701
  0
SEQEND
  0
POLYLINE
  8
LAYER_5
 40
0.4374
 41
0.4374
 66
1
 10
0
 20
0
 30
0
  0
VERTEX
  8
LAYER_5
 10
48.9921
 20
91.9583
 42
0.201536303
  0
VERTEX
  8
LAYER_5
 10
49.3396
 20
92.1042
 42
0.2012971947
  0
VERTEX
  8
LAYER_5
 10
49.4795
 20
92.4544
  0
SEQEND
  0
ENDBLK
  0
BLOCK
  8
LAYER_5
  2
AIGNBL05010045
 70
64
 10
0
 20
0
 30
0
  3
AIGNBL05010045
  0
POLYLINE
  8
LAYER_5
 40
0.4374
 41
0.4374
 66
1
 10
0
 20
0
 30
0
  0
VERTEX
  8
LAYER_5
 10
48.9921
 20
91.9583
 42
0.4142391249
  0
VERTEX
  8
LAYER_5
 10
48.5046
 20
91.4708
  0
SEQEND
  0
ENDBLK
  0
BLOCK
  8
LAYER_5
  2
AIGNBL05010046
 70
64
 10
0
 20
0
 30
0
  3
AIGNBL05010046
  0
POLYLINE
  8
LAYER_5
 40
0.4374
 41
0.4374
 66
1
 10
0
 20
0
 30
0
  0
VERTEX
  8
LAYER_5
 10
46.6889
 20
96.2144
 42
0.1358891824
  0
VERTEX
  8
LAYER_5
 10
48.3344
 20
96.7768
  0
SEQEND
  0
POLYLINE
  8
LAYER_5
 40
0.4374
 41
0.4374
 66
1
 10
0
 20
0
 30
0
  0
VERTEX
  8
LAYER_5
 10
46.6449
 20
97.1848
 42
0.3053804988
  0
VERTEX
  8
LAYER_5
 10
48.4604
 20
98.5024
  0
SEQEND
  0
ENDBLK
  0
BLOCK
  8
LAYER_5
  2
AIGNBL05010047
 70
64
 10
0
 20
0
 30
0
  3
AIGNBL05010047
  0
POLYLINE
  8
LAYER_5
 40
0.4374
 41
0.4374
 66
1
 10
0
 20
0
 30
0
  0
VERTEX
  8
LAYER_5
 10
49.0803
 20
96.2506
 42
0.3046866718
  0
VERTEX
  8
LAYER_5
 10
48.8707
 20
96.752
 42
0.295657702
  0
VERTEX
  8
LAYER_5
 10
48.3271
 20
96.7474
  0
SEQEND
  0
POLYLINE
  8
LAYER_5
 40
0.4374
 41
0.4374
 66
1
 10
0
 20
0
 30
0
  0
VERTEX
  8
LAYER_5
 10
43.8591
 20
95.6746
 42
0.3824487816
  0
VERTEX
  8
LAYER_5
 10
43.3596
 20
96.0916
  0
SEQEND
  0
POLYLINE
  8
LAYER_5
 40
0.4374
 41
0.4374
 66
1
 10
0
 20
0
 30
0
  0
VERTEX
  8
LAYER_5
 10
47.9392
 20
92.4652
 42
0.3584919322
  0
VERTEX
  8
LAYER_5
 10
48.4172
 20
92.858
  0
SEQEND
  0
ENDBLK
  0
BLOCK
  8
LAYER_5
  2
AIGNBL05010048
 70
64
 10
0
 20
0
 30
0
  3
AIGNBL05010048
  0
POLYLINE
  8
LAYER_5
 40
0.4374
 41
0.4374
 66
1
 10
0
 20
0
 30
0
  0
VERTEX
  8
LAYER_5
 10
45.3874
 20
96.1694
 42
0.213323324
  0
VERTEX
  8
LAYER_5
 10
45.0304
 20
95.9944
 42
0.2134907512
  0
VERTEX
  8
LAYER_5
 10
44.9222
 20
95.6118
  0
SEQEND
  0
ENDBLK
  0
BLOCK
  8
LAYER_5
  2
AIGNBL05010049
 70
64
 10
0
 20
0
 30
0
  3
AIGNBL05010049
  0
POLYLINE
  8
LAYER_5
 40
0.1446
 41
0.1446
 66
1
 10
0
 20
0
 30
0
  0
VERTEX
  8
LAYER_5
 10
51.4299
 20
107.4549
 42
0.2659799348
  0
VERTEX
  8
LAYER_5
 10
51.8699
 20
107.8636
  0
SEQEND
  0
ENDBLK
  0
BLOCK
  8
LAYER_5
  2
AIGNBL0501004A
 70
64
 10
0
 20
0
 30
0
  3
AIGNBL0501004A
  0
POLYLINE
  8
LAYER_5
 40
0.1446
 41
0.1446
 66
1
 10
0
 20
0
 30
0
  0
VERTEX
  8
LAYER_5
 10
81.4357
 20
108.2191
 42
0.2183632549
  0
VERTEX
  8
LAYER_5
 10
81.3301
 20
108.1693
 42
0.221129737
  0
VERTEX
  8
LAYER_5
 10
81.3019
 20
108.0562
  0
SEQEND
  0
ENDBLK
  0
BLOCK
  8
LAYER_5
  2
AIGNBL0501004B
 70
64
 10
0
 20
0
 30
0
  3
AIGNBL0501004B
  0
POLYLINE
  8
LAYER_5
 40
0.1446
 41
0.1446
 66
1
 10
0
 20
0
 30
0
  0
VERTEX
  8
LAYER_5
 10
84.223
 20
92.431
 42
0.06443937059
  0
VERTEX
  8
LAYER_5
 10
84.0726
 20
93.778
  0
SEQEND
  0
POLYLINE
  8
LAYER_5
 40
0.1446
 41
0.1446
 66
1
 10
0
 20
0
 30
0
  0
VERTEX
  8
LAYER_5
 10
84.2629
 20
92.4543
 42
0.2013267307
  0
VERTEX
  8
LAYER_5
 10
84.4027
 20
92.104
 42
0.2010169322
  0
VERTEX
  8
LAYER_5
 10
84.7503
 20
91.9581
  0
SEQEND
  0
ENDBLK
  0
BLOCK
  8
LAYER_5
  2
AIGNBL0501004C
 70
64
 10
0
 20
0
 30
0
  3
AIGNBL0501004C
  0
POLYLINE
  8
LAYER_5
 40
0.1446
 41
0.1446
 66
1
 10
0
 20
0
 30
0
  0
VERTEX
  8
LAYER_5
 10
85.2377
 20
91.4318
 42
0.414232635
  0
VERTEX
  8
LAYER_5
 10
84.7502
 20
91.9193
  0
SEQEND
  0
ENDBLK
  0
BLOCK
  8
LAYER_5
  2
AIGNBL0501004D
 70
64
 10
0
 20
0
 30
0
  3
AIGNBL0501004D
  0
POLYLINE
  8
LAYER_5
 40
0.1446
 41
0.1446
 66
1
 10
0
 20
0
 30
0
  0
VERTEX
  8
LAYER_5
 10
126.4915
 20
108.0561
 42
0.2183105106
  0
VERTEX
  8
LAYER_5
 10
126.4632
 20
108.1692
 42
0.2203718985
  0
VERTEX
  8
LAYER_5
 10
126.3577
 20
108.2189
  0
SEQEND
  0
ENDBLK
  0
BLOCK
  8
LAYER_5
  2
AIGNBL0501004E
 70
64
 10
0
 20
0
 30
0
  3
AIGNBL0501004E
  0
POLYLINE
  8
LAYER_5
 40
0.1446
 41
0.1446
 66
1
 10
0
 20
0
 30
0
  0
VERTEX
  8
LAYER_5
 10
123.6815
 20
93.7781
 42
0.06443880345
  0
VERTEX
  8
LAYER_5
 10
123.5311
 20
92.4311
  0
SEQEND
  0
POLYLINE
  8
LAYER_5
 40
0.1446
 41
0.1446
 66
1
 10
0
 20
0
 30
0
  0
VERTEX
  8
LAYER_5
 10
123.0041
 20
91.9583
 42
0.201536139
  0
VERTEX
  8
LAYER_5
 10
123.3516
 20
92.1042
 42
0.2012771989
  0
VERTEX
  8
LAYER_5
 10
123.4915
 20
92.4544
  0
SEQEND
  0
ENDBLK
  0
BLOCK
  8
LAYER_5
  2
AIGNBL0501004F
 70
64
 10
0
 20
0
 30
0
  3
AIGNBL0501004F
  0
POLYLINE
  8
LAYER_5
 40
0.1446
 41
0.1446
 66
1
 10
0
 20
0
 30
0
  0
VERTEX
  8
LAYER_5
 10
123.0431
 20
91.9193
 42
0.4142417221
  0
VERTEX
  8
LAYER_5
 10
122.5556
 20
91.4318
  0
SEQEND
  0
ENDBLK
  0
BLOCK
  8
LAYER_5
  2
AIGNBL05010050
 70
64
 10
0
 20
0
 30
0
  3
AIGNBL05010050
  0
POLYLINE
  8
LAYER_5
 40
0.1446
 41
0.1446
 66
1
 10
0
 20
0
 30
0
  0
VERTEX
  8
LAYER_5
 10
202.8408
 20
167.9395
 42
0.4142236846
  0
VERTEX
  8
LAYER_5
 10
200.5984
 20
170.1819
 42
0.4142122441
  0
VERTEX
  8
LAYER_5
 10
198.3565
 20
167.9395
 42
0.4142034393
  0
VERTEX
  8
LAYER_5
 10
200.5984
 20
165.6972
 42
0.4142148818
  0
VERTEX
  8
LAYER_5
 10
202.8408
 20
167.9395
  0
SEQEND
  0
POLYLINE
  8
LAYER_5
 40
0.1446
 41
0.1446
 66
1
 10
0
 20
0
 30
0
  0
VERTEX
  8
LAYER_5
 10
204.3616
 20
167.9395
 42
0.414219594
  0
VERTEX
  8
LAYER_5
 10
200.5984
 20
171.7026
 42
0.4142127767
  0
VERTEX
  8
LAYER_5
 10
196.8357
 20
167.9395
 42
0.4142075305
  0
VERTEX
  8
LAYER_5
 10
200.5984
 20
164.1764
 42
0.4142143486
  0
VERTEX
  8
LAYER_5
 10
204.3616
 20
167.9395
  0
SEQEND
  0
ENDBLK
  0
ENDSEC
  0
SECTION
  2
ENTITIES
  0
TEXT
  8
LAYER_5
 10
-26.2556
 20
43.1712
 11
-26.2556
 21
43.1712
 40
3.2995
 41
0.5
  1
仕様
  0
POLYLINE
  8
LAYER_5
 40
0.3528
 41
0.3528
 66
1
 10
0
 20
0
 30
0
  0
VERTEX
  8
LAYER_5
 10
250.6748
 20
51.9507
  0
VERTEX
  8
LAYER_5
 10
-29.3178
 20
51.9507
  0
SEQEND
  0
INSERT
  8
LAYER_5
  2
AIGNBL05010002
 10
0
 20
0
 30
0
  0
POLYLINE
  8
LAYER_5
 40
0.3528
 41
0.3528
 66
1
 10
0
 20
0
 30
0
  0
VERTEX
  8
LAYER_5
 10
-29.3178
 20
229.3369
  0
VERTEX
  8
LAYER_5
 10
-29.3178
 20
34.3283
  0
VERTEX
  8
LAYER_5
 10
250.6748
 20
34.3283
  0
VERTEX
  8
LAYER_5
 10
250.6748
 20
229.3369
  0
VERTEX
  8
LAYER_5
 10
-29.3178
 20
229.3369
  0
SEQEND
  0
POLYLINE
  8
LAYER_5
 40
0.3528
 41
0.3528
 66
1
 10
0
 20
0
 30
0
  0
VERTEX
  8
LAYER_5
 10
250.6748
 20
60.4597
  0
VERTEX
  8
LAYER_5
 10
-29.3178
 20
60.4597
  0
SEQEND
  0
POLYLINE
  8
LAYER_5
 40
0.3528
 41
0.3528
 66
1
 10
0
 20
0
 30
0
  0
VERTEX
  8
LAYER_5
 10
250.6748
 20
43.4416
  0
VERTEX
  8
LAYER_5
 10
143.5341
 20
43.4416
  0
SEQEND
  0
TEXT
  8
LAYER_5
 10
188.1725
 20
45.7175
 11
188.1725
 21
45.7175
 40
3.7615
 41
0.5
  1
-
  0
TEXT
  8
LAYER_5
 10
182.8808
 20
49.4743
 11
182.8808
 21
49.4743
 40
2.1997
 41
0.5
  1
縮尺
  0
POLYLINE
  8
LAYER_5
 40
0.3528
 41
0.3528
 66
1
 10
0
 20
0
 30
0
  0
VERTEX
  8
LAYER_5
 10
181.3526
 20
43.4416
  0
VERTEX
  8
LAYER_5
 10
181.3526
 20
51.9507
  0
SEQEND
  0
TEXT
  8
LAYER_5
 10
144.2327
 20
57.9834
 11
144.2327
 21
57.9834
 40
2.1997
 41
0.5
  1
品番
  0
TEXT
  8
LAYER_5
 10
-28.1609
 20
57.9834
 11
-28.1609
 21
57.9834
 40
2.1997
 41
0.5
  1
品名
  0
TEXT
  8
LAYER_5
 10
144.2327
 20
49.4743
 11
144.2327
 21
49.4743
 40
2.1997
 41
0.5
  1
重量
  0
TEXT
  8
LAYER_5
 10
150.2547
 20
54.1514
 11
150.2547
 21
54.1514
 40
5.9385
 41
0.5
  1
CIE-HALAT45/
  0
TEXT
  8
LAYER_5
 10
149.5454
 20
45.7175
 11
149.5454
 21
45.7175
 40
3.7615
 41
0.5
  1
10.5kg
  0
POLYLINE
  8
LAYER_5
 40
0.3528
 41
0.3528
 66
1
 10
0
 20
0
 30
0
  0
VERTEX
  8
LAYER_5
 10
143.5341
 20
34.9539
  0
VERTEX
  8
LAYER_5
 10
143.5341
 20
60.4597
  0
SEQEND
  0
TEXT
  8
LAYER_5
 10
-15.2886
 20
54.891
 11
-15.2886
 21
54.891
 40
4.1465
 41
0.5
  1
ハンディカウンター置き型洗面器450ｍｍ
  0
INSERT
  8
LAYER_5
  2
AIGNBL05010003
 10
0
 20
0
 30
0
  0
TEXT
  8
LAYER_5
 10
-15.6835
 20
43.9625
 11
-15.6835
 21
43.9625
 40
3.5541
 41
0.5
  1
●設置方法：カウンター置き●水栓取付穴：1穴●オーバーフローあり
  0
TEXT
  8
LAYER_5
 10
-15.6835
 20
39.2124
 11
-15.6835
 21
39.2124
 40
3.5541
 41
0.5
  1
●排水金具別途●容量：5L
  0
TEXT
  8
LAYER_5
 10
237.263
 20
63.2582
 11
237.263
 21
63.2582
 40
2.9618
 41
0.5
  1
単位：mm
  0
TEXT
  8
LAYER_5
 10
6.5217
 20
219.7385
 11
6.5217
 21
219.7385
 40
2.5981
 41
0.5
  1
※陶器製品は寸法公差が発生します。カウンター切り込みの際は必ず現物を合わせてご確認ください。
  0
TEXT
  8
LAYER_5
 10
6.5217
 20
214.9886
 11
6.5217
 21
214.9886
 40
2.5981
 41
0.5
  1
※固定には、シリコンコーキング材等を手洗器とカウンターの接地面に塗布ください。
  0
TEXT
  8
LAYER_5
 10
240.3591
 20
225.8432
 11
240.3591
 21
225.8432
 40
2.0732
 41
0.5
  1
211111RT
  0
TEXT
  8
LAYER_5
 10
176.0254
 20
39.5359
 11
176.0254
 21
39.5359
 40
3.3853
 41
0.5
  1
●TEL 0120-65-1232●FAX 06-6532-1580
  0
TEXT
  8
LAYER_5
 10
176.0254
 20
36.0212
 11
176.0254
 21
36.0212
 40
3.3853
 41
0.5
  1
hits@hiratatile.co.jp
  0
INSERT
  8
LAYER_5
  2
AIGNBL05010006
 10
0
 20
0
 30
0
  0
TEXT
  8
LAYER_5
 10
176.4754
 20
200.2337
 11
176.4754
 21
200.2337
 40
3.258
 41
0.5
  1
カウンター開口寸法：100×215mm
  0
TEXT
  8
LAYER_5
 10
6.0062
 20
167.4554
 11
6.0062
 21
167.4554
 40
2.8433
 41
0.5
 50
89.99999999
  1
450
  0
TEXT
  8
LAYER_5
 10
35.2374
 20
181.048
 11
35.2374
 21
181.048
 40
2.8433
 41
0.5
 50
89.99999999
  1
110
  0
TEXT
  8
LAYER_5
 10
77.3356
 20
155.4127
 11
77.3356
 21
155.4127
 40
2.8433
 41
0.5
 50
89.99999999
  1
170
  0
TEXT
  8
LAYER_5
 10
75.6118
 20
97.4473
 11
75.6118
 21
97.4473
 40
2.8433
 41
0.5
 50
89.99999999
  1
170
  0
TEXT
  8
LAYER_5
 10
57.6139
 20
97.4473
 11
57.6139
 21
97.4473
 40
2.8433
 41
0.5
 50
89.99999999
  1
170
  0
TEXT
  8
LAYER_5
 10
34.9508
 20
100.1582
 11
34.9508
 21
100.1582
 40
2.8433
 41
0.5
 50
89.99999999
  1
115
  0
TEXT
  8
LAYER_5
 10
25.4513
 20
171.3477
 11
25.4513
 21
171.3477
 40
2.8433
 41
0.5
 50
89.99999999
  1
175
  0
TEXT
  8
LAYER_5
 10
29.841
 20
186.2157
 11
29.841
 21
186.2157
 40
2.8433
 41
0.5
 50
89.99999999
  1
40
  0
TEXT
  8
LAYER_5
 10
27.1268
 20
141.3676
 11
27.1268
 21
141.3676
 40
2.8433
 41
0.5
  1
450
  0
TEXT
  8
LAYER_5
 10
101.7981
 20
168.2963
 11
101.7981
 21
168.2963
 40
2.8433
 41
0.5
  1
450
  0
TEXT
  8
LAYER_5
 10
101.8805
 20
110.3231
 11
101.8805
 21
110.3231
 40
2.8433
 41
0.5
  1
450
  0
TEXT
  8
LAYER_5
 10
113.3458
 20
85.2759
 11
113.3458
 21
85.2759
 40
2.8433
 41
0.5
  1
225
  0
TEXT
  8
LAYER_5
 10
27.8912
 20
110.088
 11
27.8912
 21
110.088
 40
2.8433
 41
0.5
  1
450
  0
TEXT
  8
LAYER_5
 10
27.803
 20
87.5102
 11
27.803
 21
87.5102
 40
2.8433
 41
0.5
  1
390
  0
TEXT
  8
LAYER_5
 10
101.4792
 20
145.4879
 11
101.4792
 21
145.4879
 40
2.8433
 41
0.5
  1
390
  0
TEXT
  8
LAYER_5
 10
58.2582
 20
166.7988
 11
58.2582
 21
166.7988
 40
2.8433
 41
0.5
  1
5
  0
POLYLINE
  8
LAYER_5
 40
0.1446
 41
0.1446
 66
1
 10
0
 20
0
 30
0
  0
VERTEX
  8
LAYER_5
 10
81.2602
 20
166.3992
  0
VERTEX
  8
LAYER_5
 10
126.2602
 20
166.3992
  0
SEQEND
  0
INSERT
  8
LAYER_5
  2
AIGNBL05010028
 10
0
 20
0
 30
0
  0
POLYLINE
  8
LAYER_5
 40
0.1446
 41
0.1446
 66
1
 10
0
 20
0
 30
0
  0
VERTEX
  8
LAYER_5
 10
46.7889
 20
178.4096
  0
VERTEX
  8
LAYER_5
 10
12.9025
 20
178.4096
  0
SEQEND
  0
INSERT
  8
LAYER_5
  2
AIGNBL05010029
 10
0
 20
0
 30
0
  0
POLYLINE
  8
LAYER_5
 40
0.0353
 41
0.0353
 66
1
 10
0
 20
0
 30
0
  0
VERTEX
  8
LAYER_5
 10
84.2628
 20
149.5145
  0
VERTEX
  8
LAYER_5
 10
84.2628
 20
146.3561
  0
SEQEND
  0
POLYLINE
  8
LAYER_5
 40
0.0353
 41
0.0353
 66
1
 10
0
 20
0
 30
0
  0
VERTEX
  8
LAYER_5
 10
123.2575
 20
149.5145
  0
VERTEX
  8
LAYER_5
 10
123.2575
 20
146.3561
  0
SEQEND
  0
POLYLINE
  8
LAYER_5
 40
0.0353
 41
0.0353
 66
1
 10
0
 20
0
 30
0
  0
VERTEX
  8
LAYER_5
 10
85.7446
 20
146.4729
  0
VERTEX
  8
LAYER_5
 10
100.9527
 20
146.4729
  0
SEQEND
  0
POLYLINE
  8
LAYER_5
 40
0.0353
 41
0.0353
 66
1
 10
0
 20
0
 30
0
  0
VERTEX
  8
LAYER_5
 10
121.7367
 20
146.4729
  0
VERTEX
  8
LAYER_5
 10
106.5678
 20
146.4729
  0
SEQEND
  0
POLYLINE
  8
LAYER_5
 40
0.05
 41
0.05
 66
1
 10
0
 20
0
 30
0
 70
1
  0
VERTEX
  8
LAYER_5
 10
85.7446
 20
146.7459
  0
VERTEX
  8
LAYER_5
 10
85.7446
 20
146.2388
  0
VERTEX
  8
LAYER_5
 10
84.2626
 20
146.4729
  0
SEQEND
  0
POLYLINE
  8
LAYER_5
 66
1
 10
0
 20
0
 30
0
 70
1
  0
VERTEX
  8
LAYER_5
 10
85.7446
 20
146.7459
  0
VERTEX
  8
LAYER_5
 10
85.7446
 20
146.2388
  0
VERTEX
  8
LAYER_5
 10
84.2626
 20
146.4729
  0
SEQEND
  0
POLYLINE
  8
LAYER_5
 40
0.05
 41
0.05
 66
1
 10
0
 20
0
 30
0
 70
1
  0
VERTEX
  8
LAYER_5
 10
121.7367
 20
146.7459
  0
VERTEX
  8
LAYER_5
 10
121.7367
 20
146.2388
  0
VERTEX
  8
LAYER_5
 10
123.2575
 20
146.4729
  0
SEQEND
  0
POLYLINE
  8
LAYER_5
 66
1
 10
0
 20
0
 30
0
 70
1
  0
VERTEX
  8
LAYER_5
 10
121.7367
 20
146.7459
  0
VERTEX
  8
LAYER_5
 10
121.7367
 20
146.2388
  0
VERTEX
  8
LAYER_5
 10
123.2575
 20
146.4729
  0
SEQEND
  0
POLYLINE
  8
LAYER_5
 40
0.0353
 41
0.0353
 66
1
 10
0
 20
0
 30
0
  0
VERTEX
  8
LAYER_5
 10
29.7872
 20
190.42
  0
VERTEX
  8
LAYER_5
 10
5.1426
 20
190.42
  0
SEQEND
  0
POLYLINE
  8
LAYER_5
 40
0.0353
 41
0.0353
 66
1
 10
0
 20
0
 30
0
  0
VERTEX
  8
LAYER_5
 10
29.7872
 20
145.42
  0
VERTEX
  8
LAYER_5
 10
5.1426
 20
145.42
  0
SEQEND
  0
POLYLINE
  8
LAYER_5
 40
0.0353
 41
0.0353
 66
1
 10
0
 20
0
 30
0
  0
VERTEX
  8
LAYER_5
 10
5.2595
 20
188.9382
  0
VERTEX
  8
LAYER_5
 10
5.2595
 20
173.6127
  0
SEQEND
  0
POLYLINE
  8
LAYER_5
 40
0.0353
 41
0.0353
 66
1
 10
0
 20
0
 30
0
  0
VERTEX
  8
LAYER_5
 10
5.2595
 20
146.9408
  0
VERTEX
  8
LAYER_5
 10
5.2595
 20
165.0732
  0
SEQEND
  0
POLYLINE
  8
LAYER_5
 40
0.05
 41
0.05
 66
1
 10
0
 20
0
 30
0
 70
1
  0
VERTEX
  8
LAYER_5
 10
4.9865
 20
188.9382
  0
VERTEX
  8
LAYER_5
 10
5.4935
 20
188.9382
  0
VERTEX
  8
LAYER_5
 10
5.2594
 20
190.4201
  0
SEQEND
  0
POLYLINE
  8
LAYER_5
 66
1
 10
0
 20
0
 30
0
 70
1
  0
VERTEX
  8
LAYER_5
 10
4.9865
 20
188.9382
  0
VERTEX
  8
LAYER_5
 10
5.4935
 20
188.9382
  0
VERTEX
  8
LAYER_5
 10
5.2594
 20
190.4201
  0
SEQEND
  0
POLYLINE
  8
LAYER_5
 40
0.05
 41
0.05
 66
1
 10
0
 20
0
 30
0
 70
1
  0
VERTEX
  8
LAYER_5
 10
4.9865
 20
146.9408
  0
VERTEX
  8
LAYER_5
 10
5.4935
 20
146.9408
  0
VERTEX
  8
LAYER_5
 10
5.2594
 20
145.4201
  0
SEQEND
  0
POLYLINE
  8
LAYER_5
 66
1
 10
0
 20
0
 30
0
 70
1
  0
VERTEX
  8
LAYER_5
 10
4.9865
 20
146.9408
  0
VERTEX
  8
LAYER_5
 10
5.4935
 20
146.9408
  0
VERTEX
  8
LAYER_5
 10
5.2594
 20
145.4201
  0
SEQEND
  0
POLYLINE
  8
LAYER_5
 40
0.1446
 41
0.1446
 66
1
 10
0
 20
0
 30
0
  0
VERTEX
  8
LAYER_5
 10
81.2602
 20
166.3992
  0
VERTEX
  8
LAYER_5
 10
84.1068
 20
151.9323
  0
SEQEND
  0
INSERT
  8
LAYER_5
  2
AIGNBL0501002A
 10
0
 20
0
 30
0
  0
POLYLINE
  8
LAYER_5
 40
0.1446
 41
0.1446
 66
1
 10
0
 20
0
 30
0
  0
VERTEX
  8
LAYER_5
 10
84.7697
 20
150.0994
  0
SEQEND
  0
INSERT
  8
LAYER_5
  2
AIGNBL0501002B
 10
0
 20
0
 30
0
  0
POLYLINE
  8
LAYER_5
 40
0.1446
 41
0.1446
 66
1
 10
0
 20
0
 30
0
  0
VERTEX
  8
LAYER_5
 10
85.2377
 20
149.5925
  0
SEQEND
  0
POLYLINE
  8
LAYER_5
 40
0.0353
 41
0.0353
 66
1
 10
0
 20
0
 30
0
  0
VERTEX
  8
LAYER_5
 10
81.2602
 20
166.4382
  0
VERTEX
  8
LAYER_5
 10
81.2602
 20
169.4017
  0
SEQEND
  0
POLYLINE
  8
LAYER_5
 40
0.0353
 41
0.0353
 66
1
 10
0
 20
0
 30
0
  0
VERTEX
  8
LAYER_5
 10
126.2601
 20
166.4382
  0
VERTEX
  8
LAYER_5
 10
126.2601
 20
169.4017
  0
SEQEND
  0
POLYLINE
  8
LAYER_5
 40
0.0353
 41
0.0353
 66
1
 10
0
 20
0
 30
0
  0
VERTEX
  8
LAYER_5
 10
82.742
 20
169.2848
  0
VERTEX
  8
LAYER_5
 10
100.8744
 20
169.2848
  0
SEQEND
  0
POLYLINE
  8
LAYER_5
 40
0.0353
 41
0.0353
 66
1
 10
0
 20
0
 30
0
  0
VERTEX
  8
LAYER_5
 10
124.7393
 20
169.2848
  0
VERTEX
  8
LAYER_5
 10
106.6069
 20
169.2848
  0
SEQEND
  0
POLYLINE
  8
LAYER_5
 40
0.05
 41
0.05
 66
1
 10
0
 20
0
 30
0
 70
1
  0
VERTEX
  8
LAYER_5
 10
82.742
 20
169.5188
  0
VERTEX
  8
LAYER_5
 10
82.742
 20
169.051
  0
VERTEX
  8
LAYER_5
 10
81.26
 20
169.2847
  0
SEQEND
  0
POLYLINE
  8
LAYER_5
 66
1
 10
0
 20
0
 30
0
 70
1
  0
VERTEX
  8
LAYER_5
 10
82.742
 20
169.5188
  0
VERTEX
  8
LAYER_5
 10
82.742
 20
169.051
  0
VERTEX
  8
LAYER_5
 10
81.26
 20
169.2847
  0
SEQEND
  0
POLYLINE
  8
LAYER_5
 40
0.05
 41
0.05
 66
1
 10
0
 20
0
 30
0
 70
1
  0
VERTEX
  8
LAYER_5
 10
124.7393
 20
169.5188
  0
VERTEX
  8
LAYER_5
 10
124.7393
 20
169.051
  0
VERTEX
  8
LAYER_5
 10
126.2601
 20
169.2847
  0
SEQEND
  0
POLYLINE
  8
LAYER_5
 66
1
 10
0
 20
0
 30
0
 70
1
  0
VERTEX
  8
LAYER_5
 10
124.7393
 20
169.5188
  0
VERTEX
  8
LAYER_5
 10
124.7393
 20
169.051
  0
VERTEX
  8
LAYER_5
 10
126.2601
 20
169.2847
  0
SEQEND
  0
POLYLINE
  8
LAYER_5
 40
0.0353
 41
0.0353
 66
1
 10
0
 20
0
 30
0
  0
VERTEX
  8
LAYER_5
 10
85.1987
 20
149.5925
  0
VERTEX
  8
LAYER_5
 10
75.996
 20
149.5925
  0
SEQEND
  0
POLYLINE
  8
LAYER_5
 40
0.0353
 41
0.0353
 66
1
 10
0
 20
0
 30
0
  0
VERTEX
  8
LAYER_5
 10
81.1822
 20
166.3992
  0
VERTEX
  8
LAYER_5
 10
75.996
 20
166.3992
  0
SEQEND
  0
POLYLINE
  8
LAYER_5
 40
0.0353
 41
0.0353
 66
1
 10
0
 20
0
 30
0
  0
VERTEX
  8
LAYER_5
 10
76.1129
 20
151.0743
  0
VERTEX
  8
LAYER_5
 10
76.1129
 20
155.2856
  0
SEQEND
  0
POLYLINE
  8
LAYER_5
 40
0.0353
 41
0.0353
 66
1
 10
0
 20
0
 30
0
  0
VERTEX
  8
LAYER_5
 10
76.1129
 20
164.8784
  0
VERTEX
  8
LAYER_5
 10
76.1129
 20
160.7059
  0
SEQEND
  0
POLYLINE
  8
LAYER_5
 40
0.05
 41
0.05
 66
1
 10
0
 20
0
 30
0
 70
1
  0
VERTEX
  8
LAYER_5
 10
75.8789
 20
151.0743
  0
VERTEX
  8
LAYER_5
 10
76.386
 20
151.0743
  0
VERTEX
  8
LAYER_5
 10
76.113
 20
149.5923
  0
SEQEND
  0
POLYLINE
  8
LAYER_5
 66
1
 10
0
 20
0
 30
0
 70
1
  0
VERTEX
  8
LAYER_5
 10
75.8789
 20
151.0743
  0
VERTEX
  8
LAYER_5
 10
76.386
 20
151.0743
  0
VERTEX
  8
LAYER_5
 10
76.113
 20
149.5923
  0
SEQEND
  0
POLYLINE
  8
LAYER_5
 40
0.05
 41
0.05
 66
1
 10
0
 20
0
 30
0
 70
1
  0
VERTEX
  8
LAYER_5
 10
75.8789
 20
164.8784
  0
VERTEX
  8
LAYER_5
 10
76.386
 20
164.8784
  0
VERTEX
  8
LAYER_5
 10
76.113
 20
166.3992
  0
SEQEND
  0
POLYLINE
  8
LAYER_5
 66
1
 10
0
 20
0
 30
0
 70
1
  0
VERTEX
  8
LAYER_5
 10
75.8789
 20
164.8784
  0
VERTEX
  8
LAYER_5
 10
76.386
 20
164.8784
  0
VERTEX
  8
LAYER_5
 10
76.113
 20
166.3992
  0
SEQEND
  0
POLYLINE
  8
LAYER_5
 40
0.1446
 41
0.1446
 66
1
 10
0
 20
0
 30
0
  0
VERTEX
  8
LAYER_5
 10
15.866
 20
176.4209
  0
VERTEX
  8
LAYER_5
 10
43.7862
 20
176.4209
  0
SEQEND
  0
INSERT
  8
LAYER_5
  2
AIGNBL0501002C
 10
0
 20
0
 30
0
  0
POLYLINE
  8
LAYER_5
 40
0.1446
 41
0.1446
 66
1
 10
0
 20
0
 30
0
  0
VERTEX
  8
LAYER_5
 10
10.3678
 20
177.0448
  0
VERTEX
  8
LAYER_5
 10
13.3705
 20
175.0562
  0
SEQEND
  0
POLYLINE
  8
LAYER_5
 40
0.1446
 41
0.1446
 66
1
 10
0
 20
0
 30
0
  0
VERTEX
  8
LAYER_5
 10
46.5939
 20
174.5101
  0
VERTEX
  8
LAYER_5
 10
49.3237
 20
177.0446
  0
SEQEND
  0
INSERT
  8
LAYER_5
  2
AIGNBL0501002D
 10
0
 20
0
 30
0
  0
POLYLINE
  8
LAYER_5
 40
0.1446
 41
0.1446
 66
1
 10
0
 20
0
 30
0
  0
VERTEX
  8
LAYER_5
 10
126.2601
 20
166.3992
  0
VERTEX
  8
LAYER_5
 10
123.3746
 20
151.9323
  0
SEQEND
  0
INSERT
  8
LAYER_5
  2
AIGNBL0501002E
 10
0
 20
0
 30
0
  0
POLYLINE
  8
LAYER_5
 40
0.1446
 41
0.1446
 66
1
 10
0
 20
0
 30
0
  0
VERTEX
  8
LAYER_5
 10
122.7506
 20
150.0994
  0
SEQEND
  0
INSERT
  8
LAYER_5
  2
AIGNBL0501002F
 10
0
 20
0
 30
0
  0
POLYLINE
  8
LAYER_5
 40
0.1446
 41
0.1446
 66
1
 10
0
 20
0
 30
0
  0
VERTEX
  8
LAYER_5
 10
122.2437
 20
149.5925
  0
SEQEND
  0
POLYLINE
  8
LAYER_5
 40
0.1446
 41
0.1446
 66
1
 10
0
 20
0
 30
0
  0
VERTEX
  8
LAYER_5
 10
85.1207
 20
149.9434
  0
VERTEX
  8
LAYER_5
 10
122.3996
 20
149.9434
  0
SEQEND
  0
POLYLINE
  8
LAYER_5
 40
0.4374
 41
0.4374
 66
1
 10
0
 20
0
 30
0
  0
VERTEX
  8
LAYER_5
 10
11.7326
 20
92.4262
  0
VERTEX
  8
LAYER_5
 10
13.8773
 20
92.4262
  0
SEQEND
  0
INSERT
  8
LAYER_5
  2
AIGNBL05010030
 10
0
 20
0
 30
0
  0
POLYLINE
  8
LAYER_5
 40
0.1446
 41
0.1446
 66
1
 10
0
 20
0
 30
0
  0
VERTEX
  8
LAYER_5
 10
29.8261
 20
107.4392
  0
VERTEX
  8
LAYER_5
 10
8.262
 20
107.4392
  0
SEQEND
  0
INSERT
  8
LAYER_5
  2
AIGNBL05010031
 10
0
 20
0
 30
0
  0
POLYLINE
  8
LAYER_5
 40
0.4374
 41
0.4374
 66
1
 10
0
 20
0
 30
0
  0
VERTEX
  8
LAYER_5
 10
7.5602
 20
108.2581
  0
VERTEX
  8
LAYER_5
 10
7.3653
 20
108.2581
  0
SEQEND
  0
INSERT
  8
LAYER_5
  2
AIGNBL05010032
 10
0
 20
0
 30
0
  0
POLYLINE
  8
LAYER_5
 40
0.4374
 41
0.4374
 66
1
 10
0
 20
0
 30
0
  0
VERTEX
  8
LAYER_5
 10
7.2092
 20
108.0631
  0
VERTEX
  8
LAYER_5
 10
10.0558
 20
93.7911
  0
SEQEND
  0
INSERT
  8
LAYER_5
  2
AIGNBL05010033
 10
0
 20
0
 30
0
  0
POLYLINE
  8
LAYER_5
 40
0.4374
 41
0.4374
 66
1
 10
0
 20
0
 30
0
  0
VERTEX
  8
LAYER_5
 10
10.6797
 20
91.9583
  0
SEQEND
  0
INSERT
  8
LAYER_5
  2
AIGNBL05010034
 10
0
 20
0
 30
0
  0
POLYLINE
  8
LAYER_5
 40
0.4374
 41
0.4374
 66
1
 10
0
 20
0
 30
0
  0
VERTEX
  8
LAYER_5
 10
11.1866
 20
91.4513
  0
SEQEND
  0
INSERT
  8
LAYER_5
  2
AIGNBL05010035
 10
0
 20
0
 30
0
  0
POLYLINE
  8
LAYER_5
 40
0.0353
 41
0.0353
 66
1
 10
0
 20
0
 30
0
  0
VERTEX
  8
LAYER_5
 10
48.3487
 20
167.92
  0
VERTEX
  8
LAYER_5
 10
48.3098
 20
168.5439
  0
SEQEND
  0
POLYLINE
  8
LAYER_5
 40
0.0353
 41
0.0353
 66
1
 10
0
 20
0
 30
0
  0
VERTEX
  8
LAYER_5
 10
48.2707
 20
168.8949
  0
VERTEX
  8
LAYER_5
 10
48.2707
 20
169.5188
  0
SEQEND
  0
POLYLINE
  8
LAYER_5
 40
0.0353
 41
0.0353
 66
1
 10
0
 20
0
 30
0
  0
VERTEX
  8
LAYER_5
 10
48.2316
 20
169.8307
  0
VERTEX
  8
LAYER_5
 10
48.1536
 20
170.4547
  0
SEQEND
  0
POLYLINE
  8
LAYER_5
 40
0.0353
 41
0.0353
 66
1
 10
0
 20
0
 30
0
  0
VERTEX
  8
LAYER_5
 10
48.0757
 20
170.7666
  0
VERTEX
  8
LAYER_5
 10
48.0369
 20
171.2737
  0
VERTEX
  8
LAYER_5
 10
47.9976
 20
171.3906
  0
SEQEND
  0
POLYLINE
  8
LAYER_5
 40
0.0353
 41
0.0353
 66
1
 10
0
 20
0
 30
0
  0
VERTEX
  8
LAYER_5
 10
47.9197
 20
171.7025
  0
VERTEX
  8
LAYER_5
 10
47.7636
 20
172.3264
  0
SEQEND
  0
POLYLINE
  8
LAYER_5
 40
0.0353
 41
0.0353
 66
1
 10
0
 20
0
 30
0
  0
VERTEX
  8
LAYER_5
 10
47.7247
 20
172.6384
  0
VERTEX
  8
LAYER_5
 10
47.6467
 20
172.9113
  0
VERTEX
  8
LAYER_5
 10
47.5298
 20
173.2623
  0
SEQEND
  0
POLYLINE
  8
LAYER_5
 40
0.0353
 41
0.0353
 66
1
 10
0
 20
0
 30
0
  0
VERTEX
  8
LAYER_5
 10
47.4518
 20
173.5353
  0
VERTEX
  8
LAYER_5
 10
47.2177
 20
174.1592
  0
SEQEND
  0
POLYLINE
  8
LAYER_5
 40
0.0353
 41
0.0353
 66
1
 10
0
 20
0
 30
0
  0
VERTEX
  8
LAYER_5
 10
47.1398
 20
174.4321
  0
VERTEX
  8
LAYER_5
 10
47.101
 20
174.5102
  0
VERTEX
  8
LAYER_5
 10
46.9057
 20
175.0172
  0
SEQEND
  0
POLYLINE
  8
LAYER_5
 40
0.0353
 41
0.0353
 66
1
 10
0
 20
0
 30
0
  0
VERTEX
  8
LAYER_5
 10
46.7499
 20
175.329
  0
VERTEX
  8
LAYER_5
 10
46.5157
 20
175.9141
  0
SEQEND
  0
POLYLINE
  8
LAYER_5
 40
0.0353
 41
0.0353
 66
1
 10
0
 20
0
 30
0
  0
VERTEX
  8
LAYER_5
 10
46.3599
 20
176.1869
  0
VERTEX
  8
LAYER_5
 10
46.0482
 20
176.7328
  0
SEQEND
  0
POLYLINE
  8
LAYER_5
 40
0.0353
 41
0.0353
 66
1
 10
0
 20
0
 30
0
  0
VERTEX
  8
LAYER_5
 10
45.931
 20
177.0448
  0
VERTEX
  8
LAYER_5
 10
45.6192
 20
177.5518
  0
VERTEX
  8
LAYER_5
 10
45.6192
 20
177.5907
  0
SEQEND
  0
POLYLINE
  8
LAYER_5
 40
0.0353
 41
0.0353
 66
1
 10
0
 20
0
 30
0
  0
VERTEX
  8
LAYER_5
 10
45.4241
 20
177.8637
  0
VERTEX
  8
LAYER_5
 10
45.0731
 20
178.3707
  0
SEQEND
  0
POLYLINE
  8
LAYER_5
 40
0.0353
 41
0.0353
 66
1
 10
0
 20
0
 30
0
  0
VERTEX
  8
LAYER_5
 10
44.8781
 20
178.6436
  0
VERTEX
  8
LAYER_5
 10
44.6832
 20
178.9165
  0
VERTEX
  8
LAYER_5
 10
44.5271
 20
179.1506
  0
SEQEND
  0
POLYLINE
  8
LAYER_5
 40
0.0353
 41
0.0353
 66
1
 10
0
 20
0
 30
0
  0
VERTEX
  8
LAYER_5
 10
44.3322
 20
179.3845
  0
VERTEX
  8
LAYER_5
 10
43.9032
 20
179.8915
  0
SEQEND
  0
POLYLINE
  8
LAYER_5
 40
0.0353
 41
0.0353
 66
1
 10
0
 20
0
 30
0
  0
VERTEX
  8
LAYER_5
 10
43.7083
 20
180.1254
  0
VERTEX
  8
LAYER_5
 10
43.6302
 20
180.2422
  0
VERTEX
  8
LAYER_5
 10
43.2793
 20
180.5932
  0
SEQEND
  0
POLYLINE
  8
LAYER_5
 40
0.0353
 41
0.0353
 66
1
 10
0
 20
0
 30
0
  0
VERTEX
  8
LAYER_5
 10
43.0454
 20
180.8273
  0
VERTEX
  8
LAYER_5
 10
42.6164
 20
181.2951
  0
SEQEND
  0
POLYLINE
  8
LAYER_5
 40
0.0353
 41
0.0353
 66
1
 10
0
 20
0
 30
0
  0
VERTEX
  8
LAYER_5
 10
42.3825
 20
181.4902
  0
VERTEX
  8
LAYER_5
 10
41.9146
 20
181.9192
  0
SEQEND
  0
POLYLINE
  8
LAYER_5
 40
0.0353
 41
0.0353
 66
1
 10
0
 20
0
 30
0
  0
VERTEX
  8
LAYER_5
 10
41.6806
 20
182.1141
  0
VERTEX
  8
LAYER_5
 10
41.1735
 20
182.5431
  0
SEQEND
  0
POLYLINE
  8
LAYER_5
 40
0.0353
 41
0.0353
 66
1
 10
0
 20
0
 30
0
  0
VERTEX
  8
LAYER_5
 10
40.9396
 20
182.699
  0
VERTEX
  8
LAYER_5
 10
40.3937
 20
183.0888
  0
SEQEND
  0
POLYLINE
  8
LAYER_5
 40
0.0353
 41
0.0353
 66
1
 10
0
 20
0
 30
0
  0
VERTEX
  8
LAYER_5
 10
40.1597
 20
183.2449
  0
VERTEX
  8
LAYER_5
 10
39.8088
 20
183.5179
  0
VERTEX
  8
LAYER_5
 10
39.6139
 20
183.5959
  0
SEQEND
  0
POLYLINE
  8
LAYER_5
 40
0.0353
 41
0.0353
 66
1
 10
0
 20
0
 30
0
  0
VERTEX
  8
LAYER_5
 10
39.3409
 20
183.7909
  0
VERTEX
  8
LAYER_5
 10
38.795
 20
184.103
  0
SEQEND
  0
POLYLINE
  8
LAYER_5
 40
0.0353
 41
0.0353
 66
1
 10
0
 20
0
 30
0
  0
VERTEX
  8
LAYER_5
 10
38.522
 20
184.2588
  0
VERTEX
  8
LAYER_5
 10
38.327
 20
184.3368
  0
VERTEX
  8
LAYER_5
 10
37.9369
 20
184.5317
  0
SEQEND
  0
POLYLINE
  8
LAYER_5
 40
0.0353
 41
0.0353
 66
1
 10
0
 20
0
 30
0
  0
VERTEX
  8
LAYER_5
 10
37.6641
 20
184.6488
  0
VERTEX
  8
LAYER_5
 10
37.079
 20
184.9217
  0
SEQEND
  0
POLYLINE
  8
LAYER_5
 40
0.0353
 41
0.0353
 66
1
 10
0
 20
0
 30
0
  0
VERTEX
  8
LAYER_5
 10
36.8062
 20
185.0777
  0
VERTEX
  8
LAYER_5
 10
36.1823
 20
185.2726
  0
SEQEND
  0
POLYLINE
  8
LAYER_5
 40
0.0353
 41
0.0353
 66
1
 10
0
 20
0
 30
0
  0
VERTEX
  8
LAYER_5
 10
35.9093
 20
185.3897
  0
VERTEX
  8
LAYER_5
 10
35.2854
 20
185.5846
  0
SEQEND
  0
POLYLINE
  8
LAYER_5
 40
0.0353
 41
0.0353
 66
1
 10
0
 20
0
 30
0
  0
VERTEX
  8
LAYER_5
 10
34.9734
 20
185.6626
  0
VERTEX
  8
LAYER_5
 10
34.3884
 20
185.8187
  0
SEQEND
  0
POLYLINE
  8
LAYER_5
 40
0.0353
 41
0.0353
 66
1
 10
0
 20
0
 30
0
  0
VERTEX
  8
LAYER_5
 10
34.0766
 20
185.8966
  0
VERTEX
  8
LAYER_5
 10
33.6087
 20
186.0527
  0
VERTEX
  8
LAYER_5
 10
33.4527
 20
186.0527
  0
SEQEND
  0
POLYLINE
  8
LAYER_5
 40
0.0353
 41
0.0353
 66
1
 10
0
 20
0
 30
0
  0
VERTEX
  8
LAYER_5
 10
33.1407
 20
186.0915
  0
VERTEX
  8
LAYER_5
 10
32.5168
 20
186.2084
  0
SEQEND
  0
POLYLINE
  8
LAYER_5
 40
0.0353
 41
0.0353
 66
1
 10
0
 20
0
 30
0
  0
VERTEX
  8
LAYER_5
 10
32.2048
 20
186.2475
  0
VERTEX
  8
LAYER_5
 10
31.9319
 20
186.2864
  0
VERTEX
  8
LAYER_5
 10
31.5809
 20
186.3256
  0
SEQEND
  0
POLYLINE
  8
LAYER_5
 40
0.0353
 41
0.0353
 66
1
 10
0
 20
0
 30
0
  0
VERTEX
  8
LAYER_5
 10
31.269
 20
186.3645
  0
VERTEX
  8
LAYER_5
 10
30.6062
 20
186.4033
  0
SEQEND
  0
POLYLINE
  8
LAYER_5
 40
0.0353
 41
0.0353
 66
1
 10
0
 20
0
 30
0
  0
VERTEX
  8
LAYER_5
 10
30.2941
 20
186.4035
  0
VERTEX
  8
LAYER_5
 10
30.2552
 20
186.4035
  0
VERTEX
  8
LAYER_5
 10
29.6701
 20
186.4035
  0
SEQEND
  0
POLYLINE
  8
LAYER_5
 40
0.0353
 41
0.0353
 66
1
 10
0
 20
0
 30
0
  0
VERTEX
  8
LAYER_5
 10
29.3582
 20
186.4035
  0
VERTEX
  8
LAYER_5
 10
28.6955
 20
186.3647
  0
SEQEND
  0
POLYLINE
  8
LAYER_5
 40
0.0353
 41
0.0353
 66
1
 10
0
 20
0
 30
0
  0
VERTEX
  8
LAYER_5
 10
28.3833
 20
186.3645
  0
VERTEX
  8
LAYER_5
 10
27.7594
 20
186.2865
  0
SEQEND
  0
POLYLINE
  8
LAYER_5
 40
0.0353
 41
0.0353
 66
1
 10
0
 20
0
 30
0
  0
VERTEX
  8
LAYER_5
 10
27.4475
 20
186.2475
  0
VERTEX
  8
LAYER_5
 10
26.9016
 20
186.1695
  0
VERTEX
  8
LAYER_5
 10
26.8235
 20
186.1695
  0
SEQEND
  0
POLYLINE
  8
LAYER_5
 40
0.0353
 41
0.0353
 66
1
 10
0
 20
0
 30
0
  0
VERTEX
  8
LAYER_5
 10
26.5116
 20
186.0915
  0
VERTEX
  8
LAYER_5
 10
25.8877
 20
185.9747
  0
SEQEND
  0
POLYLINE
  8
LAYER_5
 40
0.0353
 41
0.0353
 66
1
 10
0
 20
0
 30
0
  0
VERTEX
  8
LAYER_5
 10
25.5757
 20
185.8966
  0
VERTEX
  8
LAYER_5
 10
25.2636
 20
185.8578
  0
VERTEX
  8
LAYER_5
 10
24.9518
 20
185.7405
  0
SEQEND
  0
POLYLINE
  8
LAYER_5
 40
0.0353
 41
0.0353
 66
1
 10
0
 20
0
 30
0
  0
VERTEX
  8
LAYER_5
 10
24.6398
 20
185.6626
  0
VERTEX
  8
LAYER_5
 10
24.0547
 20
185.4677
  0
SEQEND
  0
POLYLINE
  8
LAYER_5
 40
0.0353
 41
0.0353
 66
1
 10
0
 20
0
 30
0
  0
VERTEX
  8
LAYER_5
 10
23.743
 20
185.3897
  0
VERTEX
  8
LAYER_5
 10
23.6261
 20
185.3508
  0
VERTEX
  8
LAYER_5
 10
23.1579
 20
185.1555
  0
SEQEND
  0
POLYLINE
  8
LAYER_5
 40
0.0353
 41
0.0353
 66
1
 10
0
 20
0
 30
0
  0
VERTEX
  8
LAYER_5
 10
22.8461
 20
185.0387
  0
VERTEX
  8
LAYER_5
 10
22.261
 20
184.8046
  0
SEQEND
  0
POLYLINE
  8
LAYER_5
 40
0.0353
 41
0.0353
 66
1
 10
0
 20
0
 30
0
  0
VERTEX
  8
LAYER_5
 10
21.9882
 20
184.6878
  0
VERTEX
  8
LAYER_5
 10
21.4031
 20
184.376
  0
SEQEND
  0
POLYLINE
  8
LAYER_5
 40
0.0353
 41
0.0353
 66
1
 10
0
 20
0
 30
0
  0
VERTEX
  8
LAYER_5
 10
21.1303
 20
184.2198
  0
VERTEX
  8
LAYER_5
 10
20.5844
 20
183.9468
  0
SEQEND
  0
POLYLINE
  8
LAYER_5
 40
0.0353
 41
0.0353
 66
1
 10
0
 20
0
 30
0
  0
VERTEX
  8
LAYER_5
 10
20.3114
 20
183.7519
  0
VERTEX
  8
LAYER_5
 10
19.7656
 20
183.4397
  0
SEQEND
  0
POLYLINE
  8
LAYER_5
 40
0.0353
 41
0.0353
 66
1
 10
0
 20
0
 30
0
  0
VERTEX
  8
LAYER_5
 10
19.4925
 20
183.2449
  0
VERTEX
  8
LAYER_5
 10
19.1804
 20
183.05
  0
VERTEX
  8
LAYER_5
 10
18.9855
 20
182.8939
  0
SEQEND
  0
POLYLINE
  8
LAYER_5
 40
0.0353
 41
0.0353
 66
1
 10
0
 20
0
 30
0
  0
VERTEX
  8
LAYER_5
 10
18.7127
 20
182.699
  0
VERTEX
  8
LAYER_5
 10
18.2448
 20
182.3092
  0
SEQEND
  0
POLYLINE
  8
LAYER_5
 40
0.0353
 41
0.0353
 66
1
 10
0
 20
0
 30
0
  0
VERTEX
  8
LAYER_5
 10
17.9718
 20
182.1141
  0
VERTEX
  8
LAYER_5
 10
17.8549
 20
181.9972
  0
VERTEX
  8
LAYER_5
 10
17.5039
 20
181.6851
  0
SEQEND
  0
POLYLINE
  8
LAYER_5
 40
0.0353
 41
0.0353
 66
1
 10
0
 20
0
 30
0
  0
VERTEX
  8
LAYER_5
 10
17.2699
 20
181.4902
  0
VERTEX
  8
LAYER_5
 10
16.802
 20
181.0612
  0
SEQEND
  0
POLYLINE
  8
LAYER_5
 40
0.0353
 41
0.0353
 66
1
 10
0
 20
0
 30
0
  0
VERTEX
  8
LAYER_5
 10
16.5679
 20
180.8273
  0
VERTEX
  8
LAYER_5
 10
16.1389
 20
180.3594
  0
SEQEND
  0
POLYLINE
  8
LAYER_5
 40
0.0353
 41
0.0353
 66
1
 10
0
 20
0
 30
0
  0
VERTEX
  8
LAYER_5
 10
15.944
 20
180.1254
  0
VERTEX
  8
LAYER_5
 10
15.515
 20
179.6575
  0
SEQEND
  0
POLYLINE
  8
LAYER_5
 40
0.0353
 41
0.0353
 66
1
 10
0
 20
0
 30
0
  0
VERTEX
  8
LAYER_5
 10
15.3201
 20
179.3845
  0
VERTEX
  8
LAYER_5
 10
14.9691
 20
178.8774
  0
SEQEND
  0
POLYLINE
  8
LAYER_5
 40
0.0353
 41
0.0353
 66
1
 10
0
 20
0
 30
0
  0
VERTEX
  8
LAYER_5
 10
14.7742
 20
178.6046
  0
VERTEX
  8
LAYER_5
 10
14.5012
 20
178.2536
  0
VERTEX
  8
LAYER_5
 10
14.3844
 20
178.0975
  0
SEQEND
  0
POLYLINE
  8
LAYER_5
 40
0.0353
 41
0.0353
 66
1
 10
0
 20
0
 30
0
  0
VERTEX
  8
LAYER_5
 10
14.2283
 20
177.8247
  0
VERTEX
  8
LAYER_5
 10
13.9165
 20
177.2788
  0
SEQEND
  0
POLYLINE
  8
LAYER_5
 40
0.0353
 41
0.0353
 66
1
 10
0
 20
0
 30
0
  0
VERTEX
  8
LAYER_5
 10
13.7213
 20
177.0058
  0
VERTEX
  8
LAYER_5
 10
13.6045
 20
176.8109
  0
VERTEX
  8
LAYER_5
 10
13.4484
 20
176.4599
  0
SEQEND
  0
POLYLINE
  8
LAYER_5
 40
0.0353
 41
0.0353
 66
1
 10
0
 20
0
 30
0
  0
VERTEX
  8
LAYER_5
 10
13.2924
 20
176.1869
  0
VERTEX
  8
LAYER_5
 10
13.0194
 20
175.6018
  0
SEQEND
  0
POLYLINE
  8
LAYER_5
 40
0.0353
 41
0.0353
 66
1
 10
0
 20
0
 30
0
  0
VERTEX
  8
LAYER_5
 10
12.8635
 20
175.329
  0
VERTEX
  8
LAYER_5
 10
12.8635
 20
175.2902
  0
VERTEX
  8
LAYER_5
 10
12.6686
 20
174.7051
  0
SEQEND
  0
POLYLINE
  8
LAYER_5
 40
0.0353
 41
0.0353
 66
1
 10
0
 20
0
 30
0
  0
VERTEX
  8
LAYER_5
 10
12.5515
 20
174.4321
  0
VERTEX
  8
LAYER_5
 10
12.3173
 20
173.8471
  0
SEQEND
  0
POLYLINE
  8
LAYER_5
 40
0.0353
 41
0.0353
 66
1
 10
0
 20
0
 30
0
  0
VERTEX
  8
LAYER_5
 10
12.2005
 20
173.5353
  0
VERTEX
  8
LAYER_5
 10
12.0445
 20
172.9113
  0
SEQEND
  0
POLYLINE
  8
LAYER_5
 40
0.0353
 41
0.0353
 66
1
 10
0
 20
0
 30
0
  0
VERTEX
  8
LAYER_5
 10
11.9666
 20
172.5994
  0
VERTEX
  8
LAYER_5
 10
11.8105
 20
172.0923
  0
VERTEX
  8
LAYER_5
 10
11.8105
 20
172.0143
  0
SEQEND
  0
POLYLINE
  8
LAYER_5
 40
0.0353
 41
0.0353
 66
1
 10
0
 20
0
 30
0
  0
VERTEX
  8
LAYER_5
 10
11.7326
 20
171.7025
  0
VERTEX
  8
LAYER_5
 10
11.6157
 20
171.0786
  0
SEQEND
  0
POLYLINE
  8
LAYER_5
 40
0.0353
 41
0.0353
 66
1
 10
0
 20
0
 30
0
  0
VERTEX
  8
LAYER_5
 10
11.5766
 20
170.7666
  0
VERTEX
  8
LAYER_5
 10
11.4986
 20
170.4545
  0
VERTEX
  8
LAYER_5
 10
11.4986
 20
170.1039
  0
SEQEND
  0
POLYLINE
  8
LAYER_5
 40
0.0353
 41
0.0353
 66
1
 10
0
 20
0
 30
0
  0
VERTEX
  8
LAYER_5
 10
11.4596
 20
169.7917
  0
VERTEX
  8
LAYER_5
 10
11.3816
 20
169.1678
  0
SEQEND
  0
POLYLINE
  8
LAYER_5
 40
0.0353
 41
0.0353
 66
1
 10
0
 20
0
 30
0
  0
VERTEX
  8
LAYER_5
 10
11.3816
 20
168.8559
  0
VERTEX
  8
LAYER_5
 10
11.3428
 20
168.7778
  0
VERTEX
  8
LAYER_5
 10
11.3428
 20
168.232
  0
SEQEND
  0
POLYLINE
  8
LAYER_5
 40
0.0353
 41
0.0353
 66
1
 10
0
 20
0
 30
0
  0
VERTEX
  8
LAYER_5
 10
11.3426
 20
167.92
  0
VERTEX
  8
LAYER_5
 10
11.3426
 20
167.2572
  0
SEQEND
  0
POLYLINE
  8
LAYER_5
 40
0.0353
 41
0.0353
 66
1
 10
0
 20
0
 30
0
  0
VERTEX
  8
LAYER_5
 10
11.3816
 20
166.9451
  0
VERTEX
  8
LAYER_5
 10
11.4205
 20
166.3212
  0
SEQEND
  0
POLYLINE
  8
LAYER_5
 40
0.0353
 41
0.0353
 66
1
 10
0
 20
0
 30
0
  0
VERTEX
  8
LAYER_5
 10
11.4596
 20
166.0093
  0
VERTEX
  8
LAYER_5
 10
11.4985
 20
165.4242
  0
VERTEX
  8
LAYER_5
 10
11.4985
 20
165.3853
  0
SEQEND
  0
POLYLINE
  8
LAYER_5
 40
0.0353
 41
0.0353
 66
1
 10
0
 20
0
 30
0
  0
VERTEX
  8
LAYER_5
 10
11.5766
 20
165.0734
  0
VERTEX
  8
LAYER_5
 10
11.6935
 20
164.4495
  0
SEQEND
  0
POLYLINE
  8
LAYER_5
 40
0.0353
 41
0.0353
 66
1
 10
0
 20
0
 30
0
  0
VERTEX
  8
LAYER_5
 10
11.7326
 20
164.1375
  0
VERTEX
  8
LAYER_5
 10
11.8106
 20
163.7477
  0
VERTEX
  8
LAYER_5
 10
11.8887
 20
163.5136
  0
SEQEND
  0
POLYLINE
  8
LAYER_5
 40
0.0353
 41
0.0353
 66
1
 10
0
 20
0
 30
0
  0
VERTEX
  8
LAYER_5
 10
11.9666
 20
163.2016
  0
VERTEX
  8
LAYER_5
 10
12.1226
 20
162.5777
  0
SEQEND
  0
POLYLINE
  8
LAYER_5
 40
0.0353
 41
0.0353
 66
1
 10
0
 20
0
 30
0
  0
VERTEX
  8
LAYER_5
 10
12.2395
 20
162.2658
  0
VERTEX
  8
LAYER_5
 10
12.2784
 20
162.1097
  0
VERTEX
  8
LAYER_5
 10
12.4344
 20
161.6807
  0
SEQEND
  0
POLYLINE
  8
LAYER_5
 40
0.0353
 41
0.0353
 66
1
 10
0
 20
0
 30
0
  0
VERTEX
  8
LAYER_5
 10
12.5515
 20
161.3689
  0
VERTEX
  8
LAYER_5
 10
12.7856
 20
160.7838
  0
SEQEND
  0
POLYLINE
  8
LAYER_5
 40
0.0353
 41
0.0353
 66
1
 10
0
 20
0
 30
0
  0
VERTEX
  8
LAYER_5
 10
12.9024
 20
160.511
  0
VERTEX
  8
LAYER_5
 10
13.1754
 20
159.9259
  0
SEQEND
  0
POLYLINE
  8
LAYER_5
 40
0.0353
 41
0.0353
 66
1
 10
0
 20
0
 30
0
  0
VERTEX
  8
LAYER_5
 10
13.3314
 20
159.6531
  0
VERTEX
  8
LAYER_5
 10
13.6043
 20
159.068
  0
SEQEND
  0
POLYLINE
  8
LAYER_5
 40
0.0353
 41
0.0353
 66
1
 10
0
 20
0
 30
0
  0
VERTEX
  8
LAYER_5
 10
13.7603
 20
158.7953
  0
VERTEX
  8
LAYER_5
 10
14.0721
 20
158.2494
  0
SEQEND
  0
POLYLINE
  8
LAYER_5
 40
0.0353
 41
0.0353
 66
1
 10
0
 20
0
 30
0
  0
VERTEX
  8
LAYER_5
 10
14.2672
 20
157.9764
  0
VERTEX
  8
LAYER_5
 10
14.5014
 20
157.5865
  0
VERTEX
  8
LAYER_5
 10
14.579
 20
157.4693
  0
SEQEND
  0
POLYLINE
  8
LAYER_5
 40
0.0353
 41
0.0353
 66
1
 10
0
 20
0
 30
0
  0
VERTEX
  8
LAYER_5
 10
14.7742
 20
157.1964
  0
VERTEX
  8
LAYER_5
 10
15.164
 20
156.6894
  0
SEQEND
  0
POLYLINE
  8
LAYER_5
 40
0.0353
 41
0.0353
 66
1
 10
0
 20
0
 30
0
  0
VERTEX
  8
LAYER_5
 10
15.3591
 20
156.4166
  0
VERTEX
  8
LAYER_5
 10
15.4759
 20
156.2605
  0
VERTEX
  8
LAYER_5
 10
15.7489
 20
155.9487
  0
SEQEND
  0
POLYLINE
  8
LAYER_5
 40
0.0353
 41
0.0353
 66
1
 10
0
 20
0
 30
0
  0
VERTEX
  8
LAYER_5
 10
15.983
 20
155.7147
  0
VERTEX
  8
LAYER_5
 10
16.412
 20
155.2468
  0
SEQEND
  0
POLYLINE
  8
LAYER_5
 40
0.0353
 41
0.0353
 66
1
 10
0
 20
0
 30
0
  0
VERTEX
  8
LAYER_5
 10
16.6069
 20
155.0128
  0
VERTEX
  8
LAYER_5
 10
17.0748
 20
154.5449
  0
SEQEND
  0
POLYLINE
  8
LAYER_5
 40
0.0353
 41
0.0353
 66
1
 10
0
 20
0
 30
0
  0
VERTEX
  8
LAYER_5
 10
17.3088
 20
154.3498
  0
VERTEX
  8
LAYER_5
 10
17.7767
 20
153.9208
  0
SEQEND
  0
POLYLINE
  8
LAYER_5
 40
0.0353
 41
0.0353
 66
1
 10
0
 20
0
 30
0
  0
VERTEX
  8
LAYER_5
 10
18.0107
 20
153.7259
  0
VERTEX
  8
LAYER_5
 10
18.5178
 20
153.3361
  0
SEQEND
  0
POLYLINE
  8
LAYER_5
 40
0.0353
 41
0.0353
 66
1
 10
0
 20
0
 30
0
  0
VERTEX
  8
LAYER_5
 10
18.7516
 20
153.141
  0
VERTEX
  8
LAYER_5
 10
19.1807
 20
152.8289
  0
VERTEX
  8
LAYER_5
 10
19.2587
 20
152.7512
  0
SEQEND
  0
POLYLINE
  8
LAYER_5
 40
0.0353
 41
0.0353
 66
1
 10
0
 20
0
 30
0
  0
VERTEX
  8
LAYER_5
 10
19.5315
 20
152.5951
  0
VERTEX
  8
LAYER_5
 10
20.0774
 20
152.2441
  0
SEQEND
  0
POLYLINE
  8
LAYER_5
 40
0.0353
 41
0.0353
 66
1
 10
0
 20
0
 30
0
  0
VERTEX
  8
LAYER_5
 10
20.3504
 20
152.0491
  0
VERTEX
  8
LAYER_5
 10
20.5845
 20
151.8931
  0
VERTEX
  8
LAYER_5
 10
20.8963
 20
151.737
  0
SEQEND
  0
POLYLINE
  8
LAYER_5
 40
0.0353
 41
0.0353
 66
1
 10
0
 20
0
 30
0
  0
VERTEX
  8
LAYER_5
 10
21.1693
 20
151.6202
  0
VERTEX
  8
LAYER_5
 10
21.7544
 20
151.3081
  0
SEQEND
  0
POLYLINE
  8
LAYER_5
 40
0.0353
 41
0.0353
 66
1
 10
0
 20
0
 30
0
  0
VERTEX
  8
LAYER_5
 10
22.0272
 20
151.1523
  0
VERTEX
  8
LAYER_5
 10
22.066
 20
151.1135
  0
VERTEX
  8
LAYER_5
 10
22.6123
 20
150.9182
  0
SEQEND
  0
POLYLINE
  8
LAYER_5
 40
0.0353
 41
0.0353
 66
1
 10
0
 20
0
 30
0
  0
VERTEX
  8
LAYER_5
 10
22.8851
 20
150.8013
  0
VERTEX
  8
LAYER_5
 10
23.4702
 20
150.5672
  0
SEQEND
  0
POLYLINE
  8
LAYER_5
 40
0.0353
 41
0.0353
 66
1
 10
0
 20
0
 30
0
  0
VERTEX
  8
LAYER_5
 10
23.782
 20
150.4504
  0
VERTEX
  8
LAYER_5
 10
24.4059
 20
150.2555
  0
SEQEND
  0
POLYLINE
  8
LAYER_5
 40
0.0353
 41
0.0353
 66
1
 10
0
 20
0
 30
0
  0
VERTEX
  8
LAYER_5
 10
24.6789
 20
150.1774
  0
VERTEX
  8
LAYER_5
 10
25.2639
 20
150.0213
  0
VERTEX
  8
LAYER_5
 10
25.3028
 20
149.9825
  0
SEQEND
  0
POLYLINE
  8
LAYER_5
 40
0.0353
 41
0.0353
 66
1
 10
0
 20
0
 30
0
  0
VERTEX
  8
LAYER_5
 10
25.6147
 20
149.9434
  0
VERTEX
  8
LAYER_5
 10
26.2386
 20
149.7874
  0
SEQEND
  0
POLYLINE
  8
LAYER_5
 40
0.0353
 41
0.0353
 66
1
 10
0
 20
0
 30
0
  0
VERTEX
  8
LAYER_5
 10
26.5506
 20
149.7485
  0
VERTEX
  8
LAYER_5
 10
26.9016
 20
149.6704
  0
VERTEX
  8
LAYER_5
 10
27.1745
 20
149.6316
  0
SEQEND
  0
POLYLINE
  8
LAYER_5
 40
0.0353
 41
0.0353
 66
1
 10
0
 20
0
 30
0
  0
VERTEX
  8
LAYER_5
 10
27.4865
 20
149.5925
  0
VERTEX
  8
LAYER_5
 10
28.1104
 20
149.5145
  0
SEQEND
  0
POLYLINE
  8
LAYER_5
 40
0.0353
 41
0.0353
 66
1
 10
0
 20
0
 30
0
  0
VERTEX
  8
LAYER_5
 10
28.4224
 20
149.4755
  0
VERTEX
  8
LAYER_5
 10
28.5784
 20
149.4755
  0
VERTEX
  8
LAYER_5
 10
29.0851
 20
149.4755
  0
SEQEND
  0
POLYLINE
  8
LAYER_5
 40
0.0353
 41
0.0353
 66
1
 10
0
 20
0
 30
0
  0
VERTEX
  8
LAYER_5
 10
29.3972
 20
149.4365
  0
VERTEX
  8
LAYER_5
 10
30.0211
 20
149.4365
  0
SEQEND
  0
POLYLINE
  8
LAYER_5
 40
0.0353
 41
0.0353
 66
1
 10
0
 20
0
 30
0
  0
VERTEX
  8
LAYER_5
 10
30.3331
 20
149.4365
  0
VERTEX
  8
LAYER_5
 10
30.957
 20
149.4753
  0
SEQEND
  0
POLYLINE
  8
LAYER_5
 40
0.0353
 41
0.0353
 66
1
 10
0
 20
0
 30
0
  0
VERTEX
  8
LAYER_5
 10
31.3079
 20
149.5145
  0
VERTEX
  8
LAYER_5
 10
31.9319
 20
149.5533
  0
SEQEND
  0
POLYLINE
  8
LAYER_5
 40
0.0353
 41
0.0353
 66
1
 10
0
 20
0
 30
0
  0
VERTEX
  8
LAYER_5
 10
32.2438
 20
149.5925
  0
VERTEX
  8
LAYER_5
 10
32.8677
 20
149.7094
  0
SEQEND
  0
POLYLINE
  8
LAYER_5
 40
0.0353
 41
0.0353
 66
1
 10
0
 20
0
 30
0
  0
VERTEX
  8
LAYER_5
 10
33.1797
 20
149.7485
  0
VERTEX
  8
LAYER_5
 10
33.6087
 20
149.8265
  0
VERTEX
  8
LAYER_5
 10
33.8036
 20
149.8653
  0
SEQEND
  0
POLYLINE
  8
LAYER_5
 40
0.0353
 41
0.0353
 66
1
 10
0
 20
0
 30
0
  0
VERTEX
  8
LAYER_5
 10
34.1156
 20
149.9434
  0
VERTEX
  8
LAYER_5
 10
34.7395
 20
150.0995
  0
SEQEND
  0
POLYLINE
  8
LAYER_5
 40
0.0353
 41
0.0353
 66
1
 10
0
 20
0
 30
0
  0
VERTEX
  8
LAYER_5
 10
35.0125
 20
150.1774
  0
VERTEX
  8
LAYER_5
 10
35.2466
 20
150.2162
  0
VERTEX
  8
LAYER_5
 10
35.6364
 20
150.3723
  0
SEQEND
  0
POLYLINE
  8
LAYER_5
 40
0.0353
 41
0.0353
 66
1
 10
0
 20
0
 30
0
  0
VERTEX
  8
LAYER_5
 10
35.9483
 20
150.4894
  0
VERTEX
  8
LAYER_5
 10
36.5334
 20
150.6843
  0
SEQEND
  0
POLYLINE
  8
LAYER_5
 40
0.0353
 41
0.0353
 66
1
 10
0
 20
0
 30
0
  0
VERTEX
  8
LAYER_5
 10
36.8452
 20
150.8013
  0
VERTEX
  8
LAYER_5
 10
37.3911
 20
151.0743
  0
SEQEND
  0
POLYLINE
  8
LAYER_5
 40
0.0353
 41
0.0353
 66
1
 10
0
 20
0
 30
0
  0
VERTEX
  8
LAYER_5
 10
37.7031
 20
151.1913
  0
VERTEX
  8
LAYER_5
 10
38.2881
 20
151.4642
  0
SEQEND
  0
POLYLINE
  8
LAYER_5
 40
0.0353
 41
0.0353
 66
1
 10
0
 20
0
 30
0
  0
VERTEX
  8
LAYER_5
 10
38.561
 20
151.6202
  0
VERTEX
  8
LAYER_5
 10
39.1069
 20
151.932
  0
SEQEND
  0
POLYLINE
  8
LAYER_5
 40
0.0353
 41
0.0353
 66
1
 10
0
 20
0
 30
0
  0
VERTEX
  8
LAYER_5
 10
39.3799
 20
152.0881
  0
VERTEX
  8
LAYER_5
 10
39.8089
 20
152.3611
  0
VERTEX
  8
LAYER_5
 10
39.9257
 20
152.4391
  0
SEQEND
  0
POLYLINE
  8
LAYER_5
 40
0.0353
 41
0.0353
 66
1
 10
0
 20
0
 30
0
  0
VERTEX
  8
LAYER_5
 10
40.1597
 20
152.5951
  0
VERTEX
  8
LAYER_5
 10
40.7056
 20
152.9849
  0
SEQEND
  0
POLYLINE
  8
LAYER_5
 40
0.0353
 41
0.0353
 66
1
 10
0
 20
0
 30
0
  0
VERTEX
  8
LAYER_5
 10
40.9396
 20
153.141
  0
VERTEX
  8
LAYER_5
 10
41.1737
 20
153.2971
  0
VERTEX
  8
LAYER_5
 10
41.4467
 20
153.57
  0
SEQEND
  0
POLYLINE
  8
LAYER_5
 40
0.0353
 41
0.0353
 66
1
 10
0
 20
0
 30
0
  0
VERTEX
  8
LAYER_5
 10
41.6806
 20
153.7649
  0
VERTEX
  8
LAYER_5
 10
42.1876
 20
154.1547
  0
SEQEND
  0
POLYLINE
  8
LAYER_5
 40
0.0353
 41
0.0353
 66
1
 10
0
 20
0
 30
0
  0
VERTEX
  8
LAYER_5
 10
42.4215
 20
154.3889
  0
VERTEX
  8
LAYER_5
 10
42.4603
 20
154.3889
  0
VERTEX
  8
LAYER_5
 10
42.8505
 20
154.8179
  0
SEQEND
  0
POLYLINE
  8
LAYER_5
 40
0.0353
 41
0.0353
 66
1
 10
0
 20
0
 30
0
  0
VERTEX
  8
LAYER_5
 10
43.0844
 20
155.0517
  0
VERTEX
  8
LAYER_5
 10
43.5522
 20
155.5196
  0
SEQEND
  0
POLYLINE
  8
LAYER_5
 40
0.0353
 41
0.0353
 66
1
 10
0
 20
0
 30
0
  0
VERTEX
  8
LAYER_5
 10
43.7473
 20
155.7537
  0
VERTEX
  8
LAYER_5
 10
44.1371
 20
156.2215
  0
SEQEND
  0
POLYLINE
  8
LAYER_5
 40
0.0353
 41
0.0353
 66
1
 10
0
 20
0
 30
0
  0
VERTEX
  8
LAYER_5
 10
44.3322
 20
156.4946
  0
VERTEX
  8
LAYER_5
 10
44.6832
 20
156.9236
  0
VERTEX
  8
LAYER_5
 10
44.722
 20
156.9624
  0
SEQEND
  0
POLYLINE
  8
LAYER_5
 40
0.0353
 41
0.0353
 66
1
 10
0
 20
0
 30
0
  0
VERTEX
  8
LAYER_5
 10
44.9171
 20
157.2355
  0
VERTEX
  8
LAYER_5
 10
45.2681
 20
157.7813
  0
SEQEND
  0
POLYLINE
  8
LAYER_5
 40
0.0353
 41
0.0353
 66
1
 10
0
 20
0
 30
0
  0
VERTEX
  8
LAYER_5
 10
45.463
 20
158.0544
  0
VERTEX
  8
LAYER_5
 10
45.6191
 20
158.3273
  0
VERTEX
  8
LAYER_5
 10
45.7752
 20
158.5614
  0
SEQEND
  0
POLYLINE
  8
LAYER_5
 40
0.0353
 41
0.0353
 66
1
 10
0
 20
0
 30
0
  0
VERTEX
  8
LAYER_5
 10
45.931
 20
158.8732
  0
VERTEX
  8
LAYER_5
 10
46.2431
 20
159.4191
  0
SEQEND
  0
POLYLINE
  8
LAYER_5
 40
0.0353
 41
0.0353
 66
1
 10
0
 20
0
 30
0
  0
VERTEX
  8
LAYER_5
 10
46.3989
 20
159.6921
  0
VERTEX
  8
LAYER_5
 10
46.4377
 20
159.809
  0
VERTEX
  8
LAYER_5
 10
46.6719
 20
160.2772
  0
SEQEND
  0
POLYLINE
  8
LAYER_5
 40
0.0353
 41
0.0353
 66
1
 10
0
 20
0
 30
0
  0
VERTEX
  8
LAYER_5
 10
46.7889
 20
160.55
  0
VERTEX
  8
LAYER_5
 10
47.023
 20
161.1351
  0
SEQEND
  0
POLYLINE
  8
LAYER_5
 40
0.0353
 41
0.0353
 66
1
 10
0
 20
0
 30
0
  0
VERTEX
  8
LAYER_5
 10
47.1398
 20
161.4469
  0
VERTEX
  8
LAYER_5
 10
47.3347
 20
162.032
  0
SEQEND
  0
POLYLINE
  8
LAYER_5
 40
0.0353
 41
0.0353
 66
1
 10
0
 20
0
 30
0
  0
VERTEX
  8
LAYER_5
 10
47.4518
 20
162.3438
  0
VERTEX
  8
LAYER_5
 10
47.6467
 20
162.9288
  0
SEQEND
  0
POLYLINE
  8
LAYER_5
 40
0.0353
 41
0.0353
 66
1
 10
0
 20
0
 30
0
  0
VERTEX
  8
LAYER_5
 10
47.7247
 20
163.2406
  0
VERTEX
  8
LAYER_5
 10
47.8808
 20
163.8645
  0
SEQEND
  0
POLYLINE
  8
LAYER_5
 40
0.0353
 41
0.0353
 66
1
 10
0
 20
0
 30
0
  0
VERTEX
  8
LAYER_5
 10
47.9197
 20
164.1765
  0
VERTEX
  8
LAYER_5
 10
48.0366
 20
164.5663
  0
VERTEX
  8
LAYER_5
 10
48.0366
 20
164.8004
  0
SEQEND
  0
POLYLINE
  8
LAYER_5
 40
0.0353
 41
0.0353
 66
1
 10
0
 20
0
 30
0
  0
VERTEX
  8
LAYER_5
 10
48.1147
 20
165.1124
  0
VERTEX
  8
LAYER_5
 10
48.1927
 20
165.7363
  0
SEQEND
  0
POLYLINE
  8
LAYER_5
 40
0.0353
 41
0.0353
 66
1
 10
0
 20
0
 30
0
  0
VERTEX
  8
LAYER_5
 10
48.2316
 20
166.0483
  0
VERTEX
  8
LAYER_5
 10
48.2705
 20
166.2432
  0
VERTEX
  8
LAYER_5
 10
48.2705
 20
166.711
  0
SEQEND
  0
POLYLINE
  8
LAYER_5
 40
0.0353
 41
0.0353
 66
1
 10
0
 20
0
 30
0
  0
VERTEX
  8
LAYER_5
 10
48.2707
 20
167.0231
  0
VERTEX
  8
LAYER_5
 10
48.3095
 20
167.6471
  0
SEQEND
  0
POLYLINE
  8
LAYER_5
 40
0.0353
 41
0.0353
 66
1
 10
0
 20
0
 30
0
  0
VERTEX
  8
LAYER_5
 10
17.8938
 20
176.1479
  0
VERTEX
  8
LAYER_5
 10
17.6989
 20
175.7969
  0
SEQEND
  0
POLYLINE
  8
LAYER_5
 40
0.0353
 41
0.0353
 66
1
 10
0
 20
0
 30
0
  0
VERTEX
  8
LAYER_5
 10
17.5038
 20
175.524
  0
VERTEX
  8
LAYER_5
 10
17.192
 20
174.9781
  0
SEQEND
  0
POLYLINE
  8
LAYER_5
 40
0.0353
 41
0.0353
 66
1
 10
0
 20
0
 30
0
  0
VERTEX
  8
LAYER_5
 10
17.0359
 20
174.7051
  0
VERTEX
  8
LAYER_5
 10
16.7629
 20
174.12
  0
SEQEND
  0
POLYLINE
  8
LAYER_5
 40
0.0353
 41
0.0353
 66
1
 10
0
 20
0
 30
0
  0
VERTEX
  8
LAYER_5
 10
16.6069
 20
173.8472
  0
VERTEX
  8
LAYER_5
 10
16.4508
 20
173.5354
  0
VERTEX
  8
LAYER_5
 10
16.3728
 20
173.2621
  0
SEQEND
  0
POLYLINE
  8
LAYER_5
 40
0.0353
 41
0.0353
 66
1
 10
0
 20
0
 30
0
  0
VERTEX
  8
LAYER_5
 10
16.256
 20
172.9893
  0
VERTEX
  8
LAYER_5
 10
16.0611
 20
172.3654
  0
SEQEND
  0
POLYLINE
  8
LAYER_5
 40
0.0353
 41
0.0353
 66
1
 10
0
 20
0
 30
0
  0
VERTEX
  8
LAYER_5
 10
15.944
 20
172.0924
  0
VERTEX
  8
LAYER_5
 10
15.7879
 20
171.4685
  0
SEQEND
  0
POLYLINE
  8
LAYER_5
 40
0.0353
 41
0.0353
 66
1
 10
0
 20
0
 30
0
  0
VERTEX
  8
LAYER_5
 10
15.7101
 20
171.1566
  0
VERTEX
  8
LAYER_5
 10
15.5932
 20
170.6495
  0
VERTEX
  8
LAYER_5
 10
15.5932
 20
170.5326
  0
SEQEND
  0
POLYLINE
  8
LAYER_5
 40
0.0353
 41
0.0353
 66
1
 10
0
 20
0
 30
0
  0
VERTEX
  8
LAYER_5
 10
15.5541
 20
170.2207
  0
VERTEX
  8
LAYER_5
 10
15.4372
 20
169.5968
  0
SEQEND
  0
POLYLINE
  8
LAYER_5
 40
0.0353
 41
0.0353
 66
1
 10
0
 20
0
 30
0
  0
VERTEX
  8
LAYER_5
 10
15.3981
 20
169.2848
  0
VERTEX
  8
LAYER_5
 10
15.3981
 20
169.1679
  0
VERTEX
  8
LAYER_5
 10
15.3593
 20
168.6221
  0
SEQEND
  0
POLYLINE
  8
LAYER_5
 40
0.0353
 41
0.0353
 66
1
 10
0
 20
0
 30
0
  0
VERTEX
  8
LAYER_5
 10
15.3591
 20
168.31
  0
VERTEX
  8
LAYER_5
 10
15.3202
 20
167.686
  0
SEQEND
  0
POLYLINE
  8
LAYER_5
 40
0.0353
 41
0.0353
 66
1
 10
0
 20
0
 30
0
  0
VERTEX
  8
LAYER_5
 10
15.3591
 20
167.3741
  0
VERTEX
  8
LAYER_5
 10
15.3979
 20
166.7502
  0
SEQEND
  0
POLYLINE
  8
LAYER_5
 40
0.0353
 41
0.0353
 66
1
 10
0
 20
0
 30
0
  0
VERTEX
  8
LAYER_5
 10
15.4371
 20
166.4382
  0
VERTEX
  8
LAYER_5
 10
15.4371
 20
166.1653
  0
VERTEX
  8
LAYER_5
 10
15.5151
 20
165.7754
  0
SEQEND
  0
POLYLINE
  8
LAYER_5
 40
0.0353
 41
0.0353
 66
1
 10
0
 20
0
 30
0
  0
VERTEX
  8
LAYER_5
 10
15.5541
 20
165.4634
  0
VERTEX
  8
LAYER_5
 10
15.6709
 20
164.8394
  0
SEQEND
  0
POLYLINE
  8
LAYER_5
 40
0.0353
 41
0.0353
 66
1
 10
0
 20
0
 30
0
  0
VERTEX
  8
LAYER_5
 10
15.749
 20
164.5275
  0
VERTEX
  8
LAYER_5
 10
15.9051
 20
163.9424
  0
SEQEND
  0
POLYLINE
  8
LAYER_5
 40
0.0353
 41
0.0353
 66
1
 10
0
 20
0
 30
0
  0
VERTEX
  8
LAYER_5
 10
16.022
 20
163.6306
  0
VERTEX
  8
LAYER_5
 10
16.1
 20
163.2408
  0
VERTEX
  8
LAYER_5
 10
16.2169
 20
163.0067
  0
SEQEND
  0
POLYLINE
  8
LAYER_5
 40
0.0353
 41
0.0353
 66
1
 10
0
 20
0
 30
0
  0
VERTEX
  8
LAYER_5
 10
16.334
 20
162.7337
  0
VERTEX
  8
LAYER_5
 10
16.5681
 20
162.1486
  0
SEQEND
  0
POLYLINE
  8
LAYER_5
 40
0.0353
 41
0.0353
 66
1
 10
0
 20
0
 30
0
  0
VERTEX
  8
LAYER_5
 10
16.6849
 20
161.8368
  0
VERTEX
  8
LAYER_5
 10
16.9579
 20
161.2909
  0
SEQEND
  0
POLYLINE
  8
LAYER_5
 40
0.0353
 41
0.0353
 66
1
 10
0
 20
0
 30
0
  0
VERTEX
  8
LAYER_5
 10
17.1139
 20
161.0179
  0
VERTEX
  8
LAYER_5
 10
17.348
 20
160.5109
  0
VERTEX
  8
LAYER_5
 10
17.426
 20
160.4329
  0
SEQEND
  0
POLYLINE
  8
LAYER_5
 40
0.0353
 41
0.0353
 66
1
 10
0
 20
0
 30
0
  0
VERTEX
  8
LAYER_5
 10
17.5818
 20
160.199
  0
VERTEX
  8
LAYER_5
 10
17.9328
 20
159.6532
  0
SEQEND
  0
POLYLINE
  8
LAYER_5
 40
0.0353
 41
0.0353
 66
1
 10
0
 20
0
 30
0
  0
VERTEX
  8
LAYER_5
 10
18.1277
 20
159.3801
  0
VERTEX
  8
LAYER_5
 10
18.2058
 20
159.2633
  0
VERTEX
  8
LAYER_5
 10
18.5175
 20
158.8731
  0
SEQEND
  0
POLYLINE
  8
LAYER_5
 40
0.0353
 41
0.0353
 66
1
 10
0
 20
0
 30
0
  0
VERTEX
  8
LAYER_5
 10
18.7127
 20
158.6392
  0
VERTEX
  8
LAYER_5
 10
19.1417
 20
158.1714
  0
SEQEND
  0
POLYLINE
  8
LAYER_5
 40
0.0353
 41
0.0353
 66
1
 10
0
 20
0
 30
0
  0
VERTEX
  8
LAYER_5
 10
19.3366
 20
157.9373
  0
VERTEX
  8
LAYER_5
 10
19.8044
 20
157.4695
  0
SEQEND
  0
POLYLINE
  8
LAYER_5
 40
0.0353
 41
0.0353
 66
1
 10
0
 20
0
 30
0
  0
VERTEX
  8
LAYER_5
 10
20.0385
 20
157.2744
  0
VERTEX
  8
LAYER_5
 10
20.2334
 20
157.0795
  0
VERTEX
  8
LAYER_5
 10
20.5063
 20
156.8454
  0
SEQEND
  0
POLYLINE
  8
LAYER_5
 40
0.0353
 41
0.0353
 66
1
 10
0
 20
0
 30
0
  0
VERTEX
  8
LAYER_5
 10
20.7404
 20
156.6505
  0
VERTEX
  8
LAYER_5
 10
21.2474
 20
156.2607
  0
SEQEND
  0
POLYLINE
  8
LAYER_5
 40
0.0353
 41
0.0353
 66
1
 10
0
 20
0
 30
0
  0
VERTEX
  8
LAYER_5
 10
21.5203
 20
156.0656
  0
VERTEX
  8
LAYER_5
 10
22.0273
 20
155.7146
  0
SEQEND
  0
POLYLINE
  8
LAYER_5
 40
0.0353
 41
0.0353
 66
1
 10
0
 20
0
 30
0
  0
VERTEX
  8
LAYER_5
 10
22.3002
 20
155.5587
  0
VERTEX
  8
LAYER_5
 10
22.6511
 20
155.3246
  0
VERTEX
  8
LAYER_5
 10
22.846
 20
155.2465
  0
SEQEND
  0
POLYLINE
  8
LAYER_5
 40
0.0353
 41
0.0353
 66
1
 10
0
 20
0
 30
0
  0
VERTEX
  8
LAYER_5
 10
23.1191
 20
155.0907
  0
VERTEX
  8
LAYER_5
 10
23.7041
 20
154.8178
  0
SEQEND
  0
POLYLINE
  8
LAYER_5
 40
0.0353
 41
0.0353
 66
1
 10
0
 20
0
 30
0
  0
VERTEX
  8
LAYER_5
 10
23.9769
 20
154.6618
  0
VERTEX
  8
LAYER_5
 10
24.0158
 20
154.6618
  0
VERTEX
  8
LAYER_5
 10
24.562
 20
154.4277
  0
SEQEND
  0
POLYLINE
  8
LAYER_5
 40
0.0353
 41
0.0353
 66
1
 10
0
 20
0
 30
0
  0
VERTEX
  8
LAYER_5
 10
24.8738
 20
154.3108
  0
VERTEX
  8
LAYER_5
 10
25.4197
 20
154.1159
  0
VERTEX
  8
LAYER_5
 10
25.4589
 20
154.1159
  0
SEQEND
  0
POLYLINE
  8
LAYER_5
 40
0.0353
 41
0.0353
 66
1
 10
0
 20
0
 30
0
  0
VERTEX
  8
LAYER_5
 10
25.7707
 20
154.0379
  0
VERTEX
  8
LAYER_5
 10
26.3946
 20
153.843
  0
SEQEND
  0
POLYLINE
  8
LAYER_5
 40
0.0353
 41
0.0353
 66
1
 10
0
 20
0
 30
0
  0
VERTEX
  8
LAYER_5
 10
26.7066
 20
153.7649
  0
VERTEX
  8
LAYER_5
 10
26.8626
 20
153.7261
  0
VERTEX
  8
LAYER_5
 10
27.3305
 20
153.6481
  0
SEQEND
  0
POLYLINE
  8
LAYER_5
 40
0.0353
 41
0.0353
 66
1
 10
0
 20
0
 30
0
  0
VERTEX
  8
LAYER_5
 10
27.6424
 20
153.6089
  0
VERTEX
  8
LAYER_5
 10
28.2664
 20
153.5309
  0
SEQEND
  0
POLYLINE
  8
LAYER_5
 40
0.0353
 41
0.0353
 66
1
 10
0
 20
0
 30
0
  0
VERTEX
  8
LAYER_5
 10
28.5783
 20
153.492
  0
VERTEX
  8
LAYER_5
 10
29.2022
 20
153.4531
  0
SEQEND
  0
POLYLINE
  8
LAYER_5
 40
0.0353
 41
0.0353
 66
1
 10
0
 20
0
 30
0
  0
VERTEX
  8
LAYER_5
 10
29.5142
 20
153.453
  0
VERTEX
  8
LAYER_5
 10
29.826
 20
153.4141
  0
VERTEX
  8
LAYER_5
 10
30.1769
 20
153.453
  0
SEQEND
  0
POLYLINE
  8
LAYER_5
 40
0.0353
 41
0.0353
 66
1
 10
0
 20
0
 30
0
  0
VERTEX
  8
LAYER_5
 10
30.4891
 20
153.453
  0
VERTEX
  8
LAYER_5
 10
31.113
 20
153.4918
  0
SEQEND
  0
POLYLINE
  8
LAYER_5
 40
0.0353
 41
0.0353
 66
1
 10
0
 20
0
 30
0
  0
VERTEX
  8
LAYER_5
 10
31.4249
 20
153.5309
  0
VERTEX
  8
LAYER_5
 10
32.0488
 20
153.609
  0
SEQEND
  0
POLYLINE
  8
LAYER_5
 40
0.0353
 41
0.0353
 66
1
 10
0
 20
0
 30
0
  0
VERTEX
  8
LAYER_5
 10
32.3608
 20
153.6869
  0
VERTEX
  8
LAYER_5
 10
32.8286
 20
153.7258
  0
VERTEX
  8
LAYER_5
 10
32.9847
 20
153.8038
  0
SEQEND
  0
POLYLINE
  8
LAYER_5
 40
0.0353
 41
0.0353
 66
1
 10
0
 20
0
 30
0
  0
VERTEX
  8
LAYER_5
 10
33.2967
 20
153.8819
  0
VERTEX
  8
LAYER_5
 10
33.9206
 20
154.038
  0
SEQEND
  0
POLYLINE
  8
LAYER_5
 40
0.0353
 41
0.0353
 66
1
 10
0
 20
0
 30
0
  0
VERTEX
  8
LAYER_5
 10
34.2325
 20
154.1159
  0
VERTEX
  8
LAYER_5
 10
34.2714
 20
154.1159
  0
VERTEX
  8
LAYER_5
 10
34.8176
 20
154.35
  0
SEQEND
  0
POLYLINE
  8
LAYER_5
 40
0.0353
 41
0.0353
 66
1
 10
0
 20
0
 30
0
  0
VERTEX
  8
LAYER_5
 10
35.1294
 20
154.4278
  0
VERTEX
  8
LAYER_5
 10
35.6753
 20
154.6619
  0
VERTEX
  8
LAYER_5
 10
35.7145
 20
154.6619
  0
SEQEND
  0
POLYLINE
  8
LAYER_5
 40
0.0353
 41
0.0353
 66
1
 10
0
 20
0
 30
0
  0
VERTEX
  8
LAYER_5
 10
35.9873
 20
154.8178
  0
VERTEX
  8
LAYER_5
 10
36.5724
 20
155.0907
  0
SEQEND
  0
POLYLINE
  8
LAYER_5
 40
0.0353
 41
0.0353
 66
1
 10
0
 20
0
 30
0
  0
VERTEX
  8
LAYER_5
 10
36.8452
 20
155.2467
  0
VERTEX
  8
LAYER_5
 10
37.0013
 20
155.3248
  0
VERTEX
  8
LAYER_5
 10
37.3911
 20
155.5589
  0
SEQEND
  0
POLYLINE
  8
LAYER_5
 40
0.0353
 41
0.0353
 66
1
 10
0
 20
0
 30
0
  0
VERTEX
  8
LAYER_5
 10
37.6641
 20
155.7537
  0
VERTEX
  8
LAYER_5
 10
38.1711
 20
156.0654
  0
SEQEND
  0
POLYLINE
  8
LAYER_5
 40
0.0353
 41
0.0353
 66
1
 10
0
 20
0
 30
0
  0
VERTEX
  8
LAYER_5
 10
38.444
 20
156.2606
  0
VERTEX
  8
LAYER_5
 10
38.951
 20
156.6504
  0
SEQEND
  0
POLYLINE
  8
LAYER_5
 40
0.0353
 41
0.0353
 66
1
 10
0
 20
0
 30
0
  0
VERTEX
  8
LAYER_5
 10
39.1849
 20
156.8845
  0
VERTEX
  8
LAYER_5
 10
39.4578
 20
157.0794
  0
VERTEX
  8
LAYER_5
 10
39.6527
 20
157.2743
  0
SEQEND
  0
POLYLINE
  8
LAYER_5
 40
0.0353
 41
0.0353
 66
1
 10
0
 20
0
 30
0
  0
VERTEX
  8
LAYER_5
 10
39.8868
 20
157.5084
  0
VERTEX
  8
LAYER_5
 10
40.3547
 20
157.9374
  0
SEQEND
  0
POLYLINE
  8
LAYER_5
 40
0.0353
 41
0.0353
 66
1
 10
0
 20
0
 30
0
  0
VERTEX
  8
LAYER_5
 10
40.5497
 20
158.1713
  0
VERTEX
  8
LAYER_5
 10
40.9787
 20
158.6784
  0
SEQEND
  0
POLYLINE
  8
LAYER_5
 40
0.0353
 41
0.0353
 66
1
 10
0
 20
0
 30
0
  0
VERTEX
  8
LAYER_5
 10
41.1736
 20
158.9122
  0
VERTEX
  8
LAYER_5
 10
41.4858
 20
159.2632
  0
VERTEX
  8
LAYER_5
 10
41.5634
 20
159.4193
  0
SEQEND
  0
POLYLINE
  8
LAYER_5
 40
0.0353
 41
0.0353
 66
1
 10
0
 20
0
 30
0
  0
VERTEX
  8
LAYER_5
 10
41.7195
 20
159.6921
  0
VERTEX
  8
LAYER_5
 10
42.0705
 20
160.1991
  0
SEQEND
  0
POLYLINE
  8
LAYER_5
 40
0.0353
 41
0.0353
 66
1
 10
0
 20
0
 30
0
  0
VERTEX
  8
LAYER_5
 10
42.2655
 20
160.472
  0
VERTEX
  8
LAYER_5
 10
42.3043
 20
160.5108
  0
VERTEX
  8
LAYER_5
 10
42.5776
 20
161.0179
  0
SEQEND
  0
POLYLINE
  8
LAYER_5
 40
0.0353
 41
0.0353
 66
1
 10
0
 20
0
 30
0
  0
VERTEX
  8
LAYER_5
 10
42.6944
 20
161.2909
  0
VERTEX
  8
LAYER_5
 10
43.0065
 20
161.876
  0
SEQEND
  0
POLYLINE
  8
LAYER_5
 40
0.0353
 41
0.0353
 66
1
 10
0
 20
0
 30
0
  0
VERTEX
  8
LAYER_5
 10
43.1234
 20
162.1488
  0
VERTEX
  8
LAYER_5
 10
43.3575
 20
162.7727
  0
SEQEND
  0
POLYLINE
  8
LAYER_5
 40
0.0353
 41
0.0353
 66
1
 10
0
 20
0
 30
0
  0
VERTEX
  8
LAYER_5
 10
43.4743
 20
163.0457
  0
VERTEX
  8
LAYER_5
 10
43.5523
 20
163.2406
  0
VERTEX
  8
LAYER_5
 10
43.6692
 20
163.6696
  0
SEQEND
  0
POLYLINE
  8
LAYER_5
 40
0.0353
 41
0.0353
 66
1
 10
0
 20
0
 30
0
  0
VERTEX
  8
LAYER_5
 10
43.7473
 20
163.9425
  0
VERTEX
  8
LAYER_5
 10
43.9422
 20
164.5665
  0
SEQEND
  0
POLYLINE
  8
LAYER_5
 40
0.0353
 41
0.0353
 66
1
 10
0
 20
0
 30
0
  0
VERTEX
  8
LAYER_5
 10
43.9812
 20
164.8784
  0
VERTEX
  8
LAYER_5
 10
44.0981
 20
165.5023
  0
SEQEND
  0
POLYLINE
  8
LAYER_5
 40
0.0353
 41
0.0353
 66
1
 10
0
 20
0
 30
0
  0
VERTEX
  8
LAYER_5
 10
44.1762
 20
165.8143
  0
VERTEX
  8
LAYER_5
 10
44.2151
 20
166.1653
  0
VERTEX
  8
LAYER_5
 10
44.2543
 20
166.4382
  0
SEQEND
  0
POLYLINE
  8
LAYER_5
 40
0.0353
 41
0.0353
 66
1
 10
0
 20
0
 30
0
  0
VERTEX
  8
LAYER_5
 10
44.2542
 20
166.7502
  0
VERTEX
  8
LAYER_5
 10
44.2931
 20
167.4129
  0
SEQEND
  0
POLYLINE
  8
LAYER_5
 40
0.0353
 41
0.0353
 66
1
 10
0
 20
0
 30
0
  0
VERTEX
  8
LAYER_5
 10
44.3322
 20
167.725
  0
VERTEX
  8
LAYER_5
 10
44.2934
 20
168.3489
  0
SEQEND
  0
POLYLINE
  8
LAYER_5
 40
0.0353
 41
0.0353
 66
1
 10
0
 20
0
 30
0
  0
VERTEX
  8
LAYER_5
 10
44.2932
 20
168.6609
  0
VERTEX
  8
LAYER_5
 10
44.2932
 20
169.1679
  0
VERTEX
  8
LAYER_5
 10
44.2544
 20
169.2848
  0
SEQEND
  0
POLYLINE
  8
LAYER_5
 40
0.0353
 41
0.0353
 66
1
 10
0
 20
0
 30
0
  0
VERTEX
  8
LAYER_5
 10
44.2152
 20
169.5968
  0
VERTEX
  8
LAYER_5
 10
44.1372
 20
170.2595
  0
SEQEND
  0
POLYLINE
  8
LAYER_5
 40
0.0353
 41
0.0353
 66
1
 10
0
 20
0
 30
0
  0
VERTEX
  8
LAYER_5
 10
44.0982
 20
170.5717
  0
VERTEX
  8
LAYER_5
 10
44.0594
 20
170.6497
  0
VERTEX
  8
LAYER_5
 10
43.9421
 20
171.1956
  0
SEQEND
  0
POLYLINE
  8
LAYER_5
 40
0.0353
 41
0.0353
 66
1
 10
0
 20
0
 30
0
  0
VERTEX
  8
LAYER_5
 10
43.8643
 20
171.4685
  0
VERTEX
  8
LAYER_5
 10
43.7082
 20
172.0924
  0
SEQEND
  0
POLYLINE
  8
LAYER_5
 40
0.0353
 41
0.0353
 66
1
 10
0
 20
0
 30
0
  0
VERTEX
  8
LAYER_5
 10
43.5913
 20
172.4044
  0
VERTEX
  8
LAYER_5
 10
43.3964
 20
172.9895
  0
SEQEND
  0
POLYLINE
  8
LAYER_5
 40
0.0353
 41
0.0353
 66
1
 10
0
 20
0
 30
0
  0
VERTEX
  8
LAYER_5
 10
43.2793
 20
173.3013
  0
VERTEX
  8
LAYER_5
 10
43.2013
 20
173.5354
  0
VERTEX
  8
LAYER_5
 10
43.0452
 20
173.8864
  0
SEQEND
  0
POLYLINE
  8
LAYER_5
 40
0.0353
 41
0.0353
 66
1
 10
0
 20
0
 30
0
  0
VERTEX
  8
LAYER_5
 10
42.8894
 20
174.1592
  0
VERTEX
  8
LAYER_5
 10
42.6164
 20
174.7442
  0
SEQEND
  0
POLYLINE
  8
LAYER_5
 40
0.0353
 41
0.0353
 66
1
 10
0
 20
0
 30
0
  0
VERTEX
  8
LAYER_5
 10
42.4604
 20
175.017
  0
VERTEX
  8
LAYER_5
 10
42.1487
 20
175.5629
  0
SEQEND
  0
POLYLINE
  8
LAYER_5
 40
0.0353
 41
0.0353
 66
1
 10
0
 20
0
 30
0
  0
VERTEX
  8
LAYER_5
 10
41.9535
 20
175.8359
  0
VERTEX
  8
LAYER_5
 10
41.7586
 20
176.1481
  0
SEQEND
  0
POLYLINE
  8
LAYER_5
 40
0.0353
 41
0.0353
 66
1
 10
0
 20
0
 30
0
  0
VERTEX
  8
LAYER_5
 10
18.7127
 20
176.5768
  0
VERTEX
  8
LAYER_5
 10
18.5178
 20
176.5768
  0
VERTEX
  8
LAYER_5
 10
18.4009
 20
176.538
  0
SEQEND
  0
POLYLINE
  8
LAYER_5
 40
0.0353
 41
0.0353
 66
1
 10
0
 20
0
 30
0
  0
VERTEX
  8
LAYER_5
 10
18.1277
 20
176.3818
  0
VERTEX
  8
LAYER_5
 10
18.0109
 20
176.3038
  0
VERTEX
  8
LAYER_5
 10
17.8936
 20
176.1477
  0
SEQEND
  0
POLYLINE
  8
LAYER_5
 40
0.0353
 41
0.0353
 66
1
 10
0
 20
0
 30
0
  0
VERTEX
  8
LAYER_5
 10
41.7586
 20
176.1479
  0
VERTEX
  8
LAYER_5
 10
41.6417
 20
176.304
  0
VERTEX
  8
LAYER_5
 10
41.5244
 20
176.382
  0
SEQEND
  0
POLYLINE
  8
LAYER_5
 40
0.0353
 41
0.0353
 66
1
 10
0
 20
0
 30
0
  0
VERTEX
  8
LAYER_5
 10
41.2516
 20
176.5379
  0
VERTEX
  8
LAYER_5
 10
41.1348
 20
176.5767
  0
VERTEX
  8
LAYER_5
 10
40.9395
 20
176.5767
  0
SEQEND
  0
POLYLINE
  8
LAYER_5
 40
0.0353
 41
0.0353
 66
1
 10
0
 20
0
 30
0
  0
VERTEX
  8
LAYER_5
 10
20.8184
 20
177.0838
  0
VERTEX
  8
LAYER_5
 10
20.8184
 20
177.3959
  0
SEQEND
  0
POLYLINE
  8
LAYER_5
 40
0.0353
 41
0.0353
 66
1
 10
0
 20
0
 30
0
  0
VERTEX
  8
LAYER_5
 10
20.8184
 20
177.7467
  0
VERTEX
  8
LAYER_5
 10
20.8184
 20
178.3706
  0
SEQEND
  0
POLYLINE
  8
LAYER_5
 40
0.0353
 41
0.0353
 66
1
 10
0
 20
0
 30
0
  0
VERTEX
  8
LAYER_5
 10
20.8184
 20
178.6825
  0
VERTEX
  8
LAYER_5
 10
20.8184
 20
179.3065
  0
SEQEND
  0
POLYLINE
  8
LAYER_5
 40
0.0353
 41
0.0353
 66
1
 10
0
 20
0
 30
0
  0
VERTEX
  8
LAYER_5
 10
20.8184
 20
179.6184
  0
VERTEX
  8
LAYER_5
 10
20.8184
 20
180.2812
  0
SEQEND
  0
POLYLINE
  8
LAYER_5
 40
0.0353
 41
0.0353
 66
1
 10
0
 20
0
 30
0
  0
VERTEX
  8
LAYER_5
 10
20.8184
 20
180.5933
  0
VERTEX
  8
LAYER_5
 10
20.8184
 20
181.2172
  0
SEQEND
  0
POLYLINE
  8
LAYER_5
 40
0.0353
 41
0.0353
 66
1
 10
0
 20
0
 30
0
  0
VERTEX
  8
LAYER_5
 10
20.8184
 20
181.5292
  0
VERTEX
  8
LAYER_5
 10
20.8184
 20
181.8802
  0
SEQEND
  0
POLYLINE
  8
LAYER_5
 40
0.0353
 41
0.0353
 66
1
 10
0
 20
0
 30
0
  0
VERTEX
  8
LAYER_5
 10
20.3504
 20
176.5768
  0
VERTEX
  8
LAYER_5
 10
20.4284
 20
176.5768
  0
VERTEX
  8
LAYER_5
 10
20.5065
 20
176.6157
  0
VERTEX
  8
LAYER_5
 10
20.5845
 20
176.6549
  0
VERTEX
  8
LAYER_5
 10
20.6626
 20
176.6937
  0
VERTEX
  8
LAYER_5
 10
20.7014
 20
176.7717
  0
VERTEX
  8
LAYER_5
 10
20.7794
 20
176.8498
  0
VERTEX
  8
LAYER_5
 10
20.8183
 20
176.9278
  0
VERTEX
  8
LAYER_5
 10
20.8183
 20
177.0058
  0
VERTEX
  8
LAYER_5
 10
20.8183
 20
177.0839
  0
SEQEND
  0
POLYLINE
  8
LAYER_5
 40
0.0353
 41
0.0353
 66
1
 10
0
 20
0
 30
0
  0
VERTEX
  8
LAYER_5
 10
38.444
 20
182.66
  0
VERTEX
  8
LAYER_5
 10
38.015
 20
182.9718
  0
SEQEND
  0
POLYLINE
  8
LAYER_5
 40
0.0353
 41
0.0353
 66
1
 10
0
 20
0
 30
0
  0
VERTEX
  8
LAYER_5
 10
37.7421
 20
183.1669
  0
VERTEX
  8
LAYER_5
 10
37.2742
 20
183.4791
  0
VERTEX
  8
LAYER_5
 10
37.1962
 20
183.5179
  0
SEQEND
  0
POLYLINE
  8
LAYER_5
 40
0.0353
 41
0.0353
 66
1
 10
0
 20
0
 30
0
  0
VERTEX
  8
LAYER_5
 10
36.9232
 20
183.6739
  0
VERTEX
  8
LAYER_5
 10
36.3773
 20
183.9856
  0
SEQEND
  0
POLYLINE
  8
LAYER_5
 40
0.0353
 41
0.0353
 66
1
 10
0
 20
0
 30
0
  0
VERTEX
  8
LAYER_5
 10
36.1043
 20
184.1418
  0
VERTEX
  8
LAYER_5
 10
36.0263
 20
184.1807
  0
VERTEX
  8
LAYER_5
 10
35.5192
 20
184.3759
  0
SEQEND
  0
POLYLINE
  8
LAYER_5
 40
0.0353
 41
0.0353
 66
1
 10
0
 20
0
 30
0
  0
VERTEX
  8
LAYER_5
 10
35.2464
 20
184.5318
  0
VERTEX
  8
LAYER_5
 10
34.7394
 20
184.7267
  0
VERTEX
  8
LAYER_5
 10
34.6613
 20
184.7659
  0
SEQEND
  0
POLYLINE
  8
LAYER_5
 40
0.0353
 41
0.0353
 66
1
 10
0
 20
0
 30
0
  0
VERTEX
  8
LAYER_5
 10
34.3495
 20
184.8437
  0
VERTEX
  8
LAYER_5
 10
33.7256
 20
185.0386
  0
SEQEND
  0
POLYLINE
  8
LAYER_5
 40
0.0353
 41
0.0353
 66
1
 10
0
 20
0
 30
0
  0
VERTEX
  8
LAYER_5
 10
33.4527
 20
185.1557
  0
VERTEX
  8
LAYER_5
 10
33.3746
 20
185.1557
  0
VERTEX
  8
LAYER_5
 10
32.8287
 20
185.2726
  0
SEQEND
  0
POLYLINE
  8
LAYER_5
 40
0.0353
 41
0.0353
 66
1
 10
0
 20
0
 30
0
  0
VERTEX
  8
LAYER_5
 10
32.5168
 20
185.3506
  0
VERTEX
  8
LAYER_5
 10
31.9709
 20
185.4675
  0
VERTEX
  8
LAYER_5
 10
31.8929
 20
185.4675
  0
SEQEND
  0
POLYLINE
  8
LAYER_5
 40
0.0353
 41
0.0353
 66
1
 10
0
 20
0
 30
0
  0
VERTEX
  8
LAYER_5
 10
31.5809
 20
185.5066
  0
VERTEX
  8
LAYER_5
 10
30.957
 20
185.5455
  0
SEQEND
  0
POLYLINE
  8
LAYER_5
 40
0.0353
 41
0.0353
 66
1
 10
0
 20
0
 30
0
  0
VERTEX
  8
LAYER_5
 10
30.6061
 20
185.5846
  0
VERTEX
  8
LAYER_5
 10
30.528
 20
185.6234
  0
VERTEX
  8
LAYER_5
 10
29.9821
 20
185.6234
  0
SEQEND
  0
POLYLINE
  8
LAYER_5
 40
0.0353
 41
0.0353
 66
1
 10
0
 20
0
 30
0
  0
VERTEX
  8
LAYER_5
 10
29.6702
 20
185.6236
  0
VERTEX
  8
LAYER_5
 10
29.1243
 20
185.6236
  0
VERTEX
  8
LAYER_5
 10
29.0463
 20
185.5848
  0
SEQEND
  0
POLYLINE
  8
LAYER_5
 40
0.0353
 41
0.0353
 66
1
 10
0
 20
0
 30
0
  0
VERTEX
  8
LAYER_5
 10
28.7343
 20
185.5456
  0
VERTEX
  8
LAYER_5
 10
28.0716
 20
185.5068
  0
SEQEND
  0
POLYLINE
  8
LAYER_5
 40
0.0353
 41
0.0353
 66
1
 10
0
 20
0
 30
0
  0
VERTEX
  8
LAYER_5
 10
27.7594
 20
185.4676
  0
VERTEX
  8
LAYER_5
 10
27.6814
 20
185.4676
  0
VERTEX
  8
LAYER_5
 10
27.1355
 20
185.3508
  0
SEQEND
  0
POLYLINE
  8
LAYER_5
 40
0.0353
 41
0.0353
 66
1
 10
0
 20
0
 30
0
  0
VERTEX
  8
LAYER_5
 10
26.8235
 20
185.2727
  0
VERTEX
  8
LAYER_5
 10
26.3165
 20
185.1558
  0
VERTEX
  8
LAYER_5
 10
26.2385
 20
185.1558
  0
SEQEND
  0
POLYLINE
  8
LAYER_5
 40
0.0353
 41
0.0353
 66
1
 10
0
 20
0
 30
0
  0
VERTEX
  8
LAYER_5
 10
25.9267
 20
185.0387
  0
VERTEX
  8
LAYER_5
 10
25.3028
 20
184.8438
  0
SEQEND
  0
POLYLINE
  8
LAYER_5
 40
0.0353
 41
0.0353
 66
1
 10
0
 20
0
 30
0
  0
VERTEX
  8
LAYER_5
 10
24.9908
 20
184.7657
  0
VERTEX
  8
LAYER_5
 10
24.952
 20
184.7269
  0
VERTEX
  8
LAYER_5
 10
24.4057
 20
184.5316
  0
SEQEND
  0
POLYLINE
  8
LAYER_5
 40
0.0353
 41
0.0353
 66
1
 10
0
 20
0
 30
0
  0
VERTEX
  8
LAYER_5
 10
24.1329
 20
184.3758
  0
VERTEX
  8
LAYER_5
 10
23.6259
 20
184.1809
  0
VERTEX
  8
LAYER_5
 10
23.5478
 20
184.1417
  0
SEQEND
  0
POLYLINE
  8
LAYER_5
 40
0.0353
 41
0.0353
 66
1
 10
0
 20
0
 30
0
  0
VERTEX
  8
LAYER_5
 10
23.275
 20
183.9858
  0
VERTEX
  8
LAYER_5
 10
22.7291
 20
183.6741
  0
SEQEND
  0
POLYLINE
  8
LAYER_5
 40
0.0353
 41
0.0353
 66
1
 10
0
 20
0
 30
0
  0
VERTEX
  8
LAYER_5
 10
22.4561
 20
183.5179
  0
VERTEX
  8
LAYER_5
 10
22.3781
 20
183.4791
  0
VERTEX
  8
LAYER_5
 10
21.9102
 20
183.1669
  0
SEQEND
  0
POLYLINE
  8
LAYER_5
 40
0.0353
 41
0.0353
 66
1
 10
0
 20
0
 30
0
  0
VERTEX
  8
LAYER_5
 10
21.6763
 20
182.972
  0
VERTEX
  8
LAYER_5
 10
21.2084
 20
182.6602
  0
SEQEND
  0
POLYLINE
  8
LAYER_5
 40
0.0353
 41
0.0353
 66
1
 10
0
 20
0
 30
0
  0
VERTEX
  8
LAYER_5
 10
38.8339
 20
181.8801
  0
VERTEX
  8
LAYER_5
 10
38.8339
 20
182.0362
  0
VERTEX
  8
LAYER_5
 10
38.7559
 20
182.2311
  0
VERTEX
  8
LAYER_5
 10
38.6778
 20
182.3872
  0
VERTEX
  8
LAYER_5
 10
38.561
 20
182.5429
  0
VERTEX
  8
LAYER_5
 10
38.4441
 20
182.6601
  0
SEQEND
  0
POLYLINE
  8
LAYER_5
 40
0.0353
 41
0.0353
 66
1
 10
0
 20
0
 30
0
  0
VERTEX
  8
LAYER_5
 10
21.2083
 20
182.66
  0
VERTEX
  8
LAYER_5
 10
21.0915
 20
182.5432
  0
VERTEX
  8
LAYER_5
 10
20.9742
 20
182.3871
  0
VERTEX
  8
LAYER_5
 10
20.8966
 20
182.231
  0
VERTEX
  8
LAYER_5
 10
20.8573
 20
182.0361
  0
VERTEX
  8
LAYER_5
 10
20.8185
 20
181.88
  0
SEQEND
  0
POLYLINE
  8
LAYER_5
 40
0.0353
 41
0.0353
 66
1
 10
0
 20
0
 30
0
  0
VERTEX
  8
LAYER_5
 10
20.3504
 20
176.5768
  0
VERTEX
  8
LAYER_5
 10
19.6877
 20
176.5768
  0
SEQEND
  0
POLYLINE
  8
LAYER_5
 40
0.0353
 41
0.0353
 66
1
 10
0
 20
0
 30
0
  0
VERTEX
  8
LAYER_5
 10
19.3756
 20
176.5768
  0
VERTEX
  8
LAYER_5
 10
18.7128
 20
176.5768
  0
SEQEND
  0
POLYLINE
  8
LAYER_5
 40
0.0353
 41
0.0353
 66
1
 10
0
 20
0
 30
0
  0
VERTEX
  8
LAYER_5
 10
38.8339
 20
177.0838
  0
VERTEX
  8
LAYER_5
 10
38.8339
 20
177.3959
  0
SEQEND
  0
POLYLINE
  8
LAYER_5
 40
0.0353
 41
0.0353
 66
1
 10
0
 20
0
 30
0
  0
VERTEX
  8
LAYER_5
 10
38.8339
 20
177.7467
  0
VERTEX
  8
LAYER_5
 10
38.8339
 20
178.3706
  0
SEQEND
  0
POLYLINE
  8
LAYER_5
 40
0.0353
 41
0.0353
 66
1
 10
0
 20
0
 30
0
  0
VERTEX
  8
LAYER_5
 10
38.8339
 20
178.6825
  0
VERTEX
  8
LAYER_5
 10
38.8339
 20
179.3065
  0
SEQEND
  0
POLYLINE
  8
LAYER_5
 40
0.0353
 41
0.0353
 66
1
 10
0
 20
0
 30
0
  0
VERTEX
  8
LAYER_5
 10
38.8339
 20
179.6184
  0
VERTEX
  8
LAYER_5
 10
38.8339
 20
180.2812
  0
SEQEND
  0
POLYLINE
  8
LAYER_5
 40
0.0353
 41
0.0353
 66
1
 10
0
 20
0
 30
0
  0
VERTEX
  8
LAYER_5
 10
38.8339
 20
180.5933
  0
VERTEX
  8
LAYER_5
 10
38.8339
 20
181.2172
  0
SEQEND
  0
POLYLINE
  8
LAYER_5
 40
0.0353
 41
0.0353
 66
1
 10
0
 20
0
 30
0
  0
VERTEX
  8
LAYER_5
 10
38.8339
 20
181.5292
  0
VERTEX
  8
LAYER_5
 10
38.8339
 20
181.8802
  0
SEQEND
  0
POLYLINE
  8
LAYER_5
 40
0.0353
 41
0.0353
 66
1
 10
0
 20
0
 30
0
  0
VERTEX
  8
LAYER_5
 10
39.3409
 20
176.5768
  0
VERTEX
  8
LAYER_5
 10
39.9648
 20
176.5768
  0
SEQEND
  0
POLYLINE
  8
LAYER_5
 40
0.0353
 41
0.0353
 66
1
 10
0
 20
0
 30
0
  0
VERTEX
  8
LAYER_5
 10
40.3157
 20
176.5768
  0
VERTEX
  8
LAYER_5
 10
40.9396
 20
176.5768
  0
SEQEND
  0
POLYLINE
  8
LAYER_5
 40
0.0353
 41
0.0353
 66
1
 10
0
 20
0
 30
0
  0
VERTEX
  8
LAYER_5
 10
38.8339
 20
177.0838
  0
VERTEX
  8
LAYER_5
 10
38.8339
 20
177.0057
  0
VERTEX
  8
LAYER_5
 10
38.8727
 20
176.9277
  0
VERTEX
  8
LAYER_5
 10
38.9119
 20
176.8497
  0
VERTEX
  8
LAYER_5
 10
38.9508
 20
176.772
  0
VERTEX
  8
LAYER_5
 10
39.0288
 20
176.694
  0
VERTEX
  8
LAYER_5
 10
39.068
 20
176.6548
  0
VERTEX
  8
LAYER_5
 10
39.1457
 20
176.6159
  0
VERTEX
  8
LAYER_5
 10
39.2629
 20
176.5767
  0
VERTEX
  8
LAYER_5
 10
39.341
 20
176.5767
  0
SEQEND
  0
POLYLINE
  8
LAYER_5
 40
0.4374
 41
0.4374
 66
1
 10
0
 20
0
 30
0
  0
VERTEX
  8
LAYER_5
 10
27.4475
 20
95.0389
  0
VERTEX
  8
LAYER_5
 10
27.4475
 20
91.8024
  0
SEQEND
  0
INSERT
  8
LAYER_5
  2
AIGNBL05010036
 10
0
 20
0
 30
0
  0
POLYLINE
  8
LAYER_5
 40
0.4374
 41
0.4374
 66
1
 10
0
 20
0
 30
0
  0
VERTEX
  8
LAYER_5
 10
26.4336
 20
94.6099
  0
VERTEX
  8
LAYER_5
 10
26.4336
 20
91.8025
  0
SEQEND
  0
INSERT
  8
LAYER_5
  2
AIGNBL05010037
 10
0
 20
0
 30
0
  0
POLYLINE
  8
LAYER_5
 40
0.4374
 41
0.4374
 66
1
 10
0
 20
0
 30
0
  0
VERTEX
  8
LAYER_5
 10
26.0826
 20
96.5987
  0
VERTEX
  8
LAYER_5
 10
27.2916
 20
95.3896
  0
SEQEND
  0
INSERT
  8
LAYER_5
  2
AIGNBL05010038
 10
0
 20
0
 30
0
  0
POLYLINE
  8
LAYER_5
 40
0.4374
 41
0.4374
 66
1
 10
0
 20
0
 30
0
  0
VERTEX
  8
LAYER_5
 10
25.6537
 20
95.6238
  0
VERTEX
  8
LAYER_5
 10
26.2776
 20
94.961
  0
SEQEND
  0
INSERT
  8
LAYER_5
  2
AIGNBL05010039
 10
0
 20
0
 30
0
  0
POLYLINE
  8
LAYER_5
 40
0.4374
 41
0.4374
 66
1
 10
0
 20
0
 30
0
  0
VERTEX
  8
LAYER_5
 10
7.7161
 20
108.1021
  0
VERTEX
  8
LAYER_5
 10
11.2255
 20
98.5092
  0
SEQEND
  0
INSERT
  8
LAYER_5
  2
AIGNBL0501003A
 10
0
 20
0
 30
0
  0
POLYLINE
  8
LAYER_5
 40
0.4374
 41
0.4374
 66
1
 10
0
 20
0
 30
0
  0
VERTEX
  8
LAYER_5
 10
13.0194
 20
97.1835
  0
VERTEX
  8
LAYER_5
 10
25.7319
 20
96.7545
  0
SEQEND
  0
POLYLINE
  8
LAYER_5
 40
0.4374
 41
0.4374
 66
1
 10
0
 20
0
 30
0
  0
VERTEX
  8
LAYER_5
 10
11.2646
 20
92.8552
  0
VERTEX
  8
LAYER_5
 10
10.5627
 20
96.2477
  0
SEQEND
  0
POLYLINE
  8
LAYER_5
 40
0.4374
 41
0.4374
 66
1
 10
0
 20
0
 30
0
  0
VERTEX
  8
LAYER_5
 10
12.9804
 20
96.2087
  0
VERTEX
  8
LAYER_5
 10
14.3063
 20
96.1307
  0
SEQEND
  0
POLYLINE
  8
LAYER_5
 40
0.4374
 41
0.4374
 66
1
 10
0
 20
0
 30
0
  0
VERTEX
  8
LAYER_5
 10
16.295
 20
96.0917
  0
VERTEX
  8
LAYER_5
 10
25.3027
 20
95.7796
  0
SEQEND
  0
INSERT
  8
LAYER_5
  2
AIGNBL0501003B
 10
0
 20
0
 30
0
  0
POLYLINE
  8
LAYER_5
 40
0.4374
 41
0.4374
 66
1
 10
0
 20
0
 30
0
  0
VERTEX
  8
LAYER_5
 10
15.2031
 20
91.4513
  0
VERTEX
  8
LAYER_5
 10
15.7882
 20
95.6627
  0
SEQEND
  0
INSERT
  8
LAYER_5
  2
AIGNBL0501003C
 10
0
 20
0
 30
0
  0
POLYLINE
  8
LAYER_5
 40
0.4374
 41
0.4374
 66
1
 10
0
 20
0
 30
0
  0
VERTEX
  8
LAYER_5
 10
14.3842
 20
92.8552
  0
VERTEX
  8
LAYER_5
 10
14.774
 20
95.5849
  0
SEQEND
  0
INSERT
  8
LAYER_5
  2
AIGNBL0501003D
 10
0
 20
0
 30
0
  0
POLYLINE
  8
LAYER_5
 40
0.4374
 41
0.4374
 66
1
 10
0
 20
0
 30
0
  0
VERTEX
  8
LAYER_5
 10
32.2438
 20
95.0389
  0
VERTEX
  8
LAYER_5
 10
32.2438
 20
91.8024
  0
SEQEND
  0
INSERT
  8
LAYER_5
  2
AIGNBL0501003E
 10
0
 20
0
 30
0
  0
POLYLINE
  8
LAYER_5
 40
0.4374
 41
0.4374
 66
1
 10
0
 20
0
 30
0
  0
VERTEX
  8
LAYER_5
 10
33.2187
 20
94.6099
  0
VERTEX
  8
LAYER_5
 10
33.2187
 20
91.8025
  0
SEQEND
  0
INSERT
  8
LAYER_5
  2
AIGNBL0501003F
 10
0
 20
0
 30
0
  0
POLYLINE
  8
LAYER_5
 40
0.4374
 41
0.4374
 66
1
 10
0
 20
0
 30
0
  0
VERTEX
  8
LAYER_5
 10
33.6086
 20
96.5987
  0
VERTEX
  8
LAYER_5
 10
32.3608
 20
95.3896
  0
SEQEND
  0
INSERT
  8
LAYER_5
  2
AIGNBL05010040
 10
0
 20
0
 30
0
  0
POLYLINE
  8
LAYER_5
 40
0.4374
 41
0.4374
 66
1
 10
0
 20
0
 30
0
  0
VERTEX
  8
LAYER_5
 10
34.0376
 20
95.6238
  0
VERTEX
  8
LAYER_5
 10
33.3748
 20
94.961
  0
SEQEND
  0
INSERT
  8
LAYER_5
  2
AIGNBL05010041
 10
0
 20
0
 30
0
  0
POLYLINE
  8
LAYER_5
 40
0.4374
 41
0.4374
 66
1
 10
0
 20
0
 30
0
  0
VERTEX
  8
LAYER_5
 10
46.6329
 20
97.1835
  0
VERTEX
  8
LAYER_5
 10
33.9204
 20
96.7545
  0
SEQEND
  0
POLYLINE
  8
LAYER_5
 40
0.4374
 41
0.4374
 66
1
 10
0
 20
0
 30
0
  0
VERTEX
  8
LAYER_5
 10
43.3573
 20
96.0917
  0
VERTEX
  8
LAYER_5
 10
34.3496
 20
95.7796
  0
SEQEND
  0
POLYLINE
  8
LAYER_5
 40
0.4374
 41
0.4374
 66
1
 10
0
 20
0
 30
0
  0
VERTEX
  8
LAYER_5
 10
26.4336
 20
91.8023
  0
VERTEX
  8
LAYER_5
 10
27.4473
 20
91.8023
  0
SEQEND
  0
POLYLINE
  8
LAYER_5
 40
0.4374
 41
0.4374
 66
1
 10
0
 20
0
 30
0
  0
VERTEX
  8
LAYER_5
 10
32.2438
 20
91.8023
  0
VERTEX
  8
LAYER_5
 10
33.2187
 20
91.8023
  0
SEQEND
  0
POLYLINE
  8
LAYER_5
 40
0.1446
 41
0.1446
 66
1
 10
0
 20
0
 30
0
  0
VERTEX
  8
LAYER_5
 10
27.4475
 20
95.0389
  0
VERTEX
  8
LAYER_5
 10
32.2439
 20
95.0389
  0
SEQEND
  0
POLYLINE
  8
LAYER_5
 40
0.1446
 41
0.1446
 66
1
 10
0
 20
0
 30
0
  0
VERTEX
  8
LAYER_5
 10
25.7317
 20
96.7546
  0
VERTEX
  8
LAYER_5
 10
33.9207
 20
96.7546
  0
SEQEND
  0
POLYLINE
  8
LAYER_5
 40
0.1446
 41
0.1446
 66
1
 10
0
 20
0
 30
0
  0
VERTEX
  8
LAYER_5
 10
27.4475
 20
91.8023
  0
VERTEX
  8
LAYER_5
 10
32.2439
 20
91.8023
  0
SEQEND
  0
POLYLINE
  8
LAYER_5
 40
0.4374
 41
0.4374
 66
1
 10
0
 20
0
 30
0
  0
VERTEX
  8
LAYER_5
 10
47.9197
 20
92.4262
  0
VERTEX
  8
LAYER_5
 10
45.775
 20
92.4262
  0
SEQEND
  0
INSERT
  8
LAYER_5
  2
AIGNBL05010042
 10
0
 20
0
 30
0
  0
POLYLINE
  8
LAYER_5
 40
0.4374
 41
0.4374
 66
1
 10
0
 20
0
 30
0
  0
VERTEX
  8
LAYER_5
 10
52.0921
 20
108.2581
  0
VERTEX
  8
LAYER_5
 10
52.287
 20
108.2581
  0
SEQEND
  0
INSERT
  8
LAYER_5
  2
AIGNBL05010043
 10
0
 20
0
 30
0
  0
POLYLINE
  8
LAYER_5
 40
0.4374
 41
0.4374
 66
1
 10
0
 20
0
 30
0
  0
VERTEX
  8
LAYER_5
 10
52.4431
 20
108.0631
  0
VERTEX
  8
LAYER_5
 10
49.6357
 20
93.7911
  0
SEQEND
  0
INSERT
  8
LAYER_5
  2
AIGNBL05010044
 10
0
 20
0
 30
0
  0
POLYLINE
  8
LAYER_5
 40
0.4374
 41
0.4374
 66
1
 10
0
 20
0
 30
0
  0
VERTEX
  8
LAYER_5
 10
48.9725
 20
91.9583
  0
SEQEND
  0
INSERT
  8
LAYER_5
  2
AIGNBL05010045
 10
0
 20
0
 30
0
  0
POLYLINE
  8
LAYER_5
 40
0.4374
 41
0.4374
 66
1
 10
0
 20
0
 30
0
  0
VERTEX
  8
LAYER_5
 10
48.4656
 20
91.4513
  0
SEQEND
  0
POLYLINE
  8
LAYER_5
 40
0.4374
 41
0.4374
 66
1
 10
0
 20
0
 30
0
  0
VERTEX
  8
LAYER_5
 10
51.9362
 20
108.1021
  0
VERTEX
  8
LAYER_5
 10
48.4268
 20
98.5092
  0
SEQEND
  0
POLYLINE
  8
LAYER_5
 40
0.4374
 41
0.4374
 66
1
 10
0
 20
0
 30
0
  0
VERTEX
  8
LAYER_5
 10
48.4266
 20
92.8552
  0
VERTEX
  8
LAYER_5
 10
49.0894
 20
96.2477
  0
SEQEND
  0
POLYLINE
  8
LAYER_5
 40
0.4374
 41
0.4374
 66
1
 10
0
 20
0
 30
0
  0
VERTEX
  8
LAYER_5
 10
46.6719
 20
96.2087
  0
VERTEX
  8
LAYER_5
 10
45.346
 20
96.1307
  0
SEQEND
  0
INSERT
  8
LAYER_5
  2
AIGNBL05010046
 10
0
 20
0
 30
0
  0
POLYLINE
  8
LAYER_5
 40
0.4374
 41
0.4374
 66
1
 10
0
 20
0
 30
0
  0
VERTEX
  8
LAYER_5
 10
44.4882
 20
91.4513
  0
VERTEX
  8
LAYER_5
 10
43.8643
 20
95.6627
  0
SEQEND
  0
INSERT
  8
LAYER_5
  2
AIGNBL05010047
 10
0
 20
0
 30
0
  0
POLYLINE
  8
LAYER_5
 40
0.4374
 41
0.4374
 66
1
 10
0
 20
0
 30
0
  0
VERTEX
  8
LAYER_5
 10
45.2681
 20
92.8552
  0
VERTEX
  8
LAYER_5
 10
44.8782
 20
95.5849
  0
SEQEND
  0
INSERT
  8
LAYER_5
  2
AIGNBL05010048
 10
0
 20
0
 30
0
  0
POLYLINE
  8
LAYER_5
 40
0.1446
 41
0.1446
 66
1
 10
0
 20
0
 30
0
  0
VERTEX
  8
LAYER_5
 10
29.8261
 20
107.4392
  0
VERTEX
  8
LAYER_5
 10
51.3903
 20
107.4392
  0
SEQEND
  0
INSERT
  8
LAYER_5
  2
AIGNBL05010049
 10
0
 20
0
 30
0
  0
POLYLINE
  8
LAYER_5
 40
0.1446
 41
0.1446
 66
1
 10
0
 20
0
 30
0
  0
VERTEX
  8
LAYER_5
 10
7.5602
 20
108.2581
  0
VERTEX
  8
LAYER_5
 10
52.092
 20
108.2581
  0
SEQEND
  0
POLYLINE
  8
LAYER_5
 40
0.0353
 41
0.0353
 66
1
 10
0
 20
0
 30
0
  0
VERTEX
  8
LAYER_5
 10
10.3288
 20
91.3734
  0
VERTEX
  8
LAYER_5
 10
10.3288
 20
88.2538
  0
SEQEND
  0
POLYLINE
  8
LAYER_5
 40
0.0353
 41
0.0353
 66
1
 10
0
 20
0
 30
0
  0
VERTEX
  8
LAYER_5
 10
49.3235
 20
91.3734
  0
VERTEX
  8
LAYER_5
 10
49.3235
 20
88.2538
  0
SEQEND
  0
POLYLINE
  8
LAYER_5
 40
0.0353
 41
0.0353
 66
1
 10
0
 20
0
 30
0
  0
VERTEX
  8
LAYER_5
 10
11.8496
 20
88.3708
  0
VERTEX
  8
LAYER_5
 10
25.4
 20
88.3708
  0
SEQEND
  0
POLYLINE
  8
LAYER_5
 40
0.0353
 41
0.0353
 66
1
 10
0
 20
0
 30
0
  0
VERTEX
  8
LAYER_5
 10
47.8417
 20
88.3708
  0
VERTEX
  8
LAYER_5
 10
33.7785
 20
88.3708
  0
SEQEND
  0
POLYLINE
  8
LAYER_5
 40
0.05
 41
0.05
 66
1
 10
0
 20
0
 30
0
 70
1
  0
VERTEX
  8
LAYER_5
 10
11.8496
 20
88.6437
  0
VERTEX
  8
LAYER_5
 10
11.8496
 20
88.1366
  0
VERTEX
  8
LAYER_5
 10
10.3288
 20
88.3708
  0
SEQEND
  0
POLYLINE
  8
LAYER_5
 66
1
 10
0
 20
0
 30
0
 70
1
  0
VERTEX
  8
LAYER_5
 10
11.8496
 20
88.6437
  0
VERTEX
  8
LAYER_5
 10
11.8496
 20
88.1366
  0
VERTEX
  8
LAYER_5
 10
10.3288
 20
88.3708
  0
SEQEND
  0
POLYLINE
  8
LAYER_5
 40
0.05
 41
0.05
 66
1
 10
0
 20
0
 30
0
 70
1
  0
VERTEX
  8
LAYER_5
 10
47.8417
 20
88.6437
  0
VERTEX
  8
LAYER_5
 10
47.8417
 20
88.1366
  0
VERTEX
  8
LAYER_5
 10
49.3237
 20
88.3708
  0
SEQEND
  0
POLYLINE
  8
LAYER_5
 66
1
 10
0
 20
0
 30
0
 70
1
  0
VERTEX
  8
LAYER_5
 10
47.8417
 20
88.6437
  0
VERTEX
  8
LAYER_5
 10
47.8417
 20
88.1366
  0
VERTEX
  8
LAYER_5
 10
49.3237
 20
88.3708
  0
SEQEND
  0
POLYLINE
  8
LAYER_5
 40
0.0353
 41
0.0353
 66
1
 10
0
 20
0
 30
0
  0
VERTEX
  8
LAYER_5
 10
48.5436
 20
91.4513
  0
VERTEX
  8
LAYER_5
 10
56.6933
 20
91.4513
  0
SEQEND
  0
POLYLINE
  8
LAYER_5
 40
0.0353
 41
0.0353
 66
1
 10
0
 20
0
 30
0
  0
VERTEX
  8
LAYER_5
 10
52.4041
 20
108.2581
  0
VERTEX
  8
LAYER_5
 10
56.6935
 20
108.2581
  0
SEQEND
  0
POLYLINE
  8
LAYER_5
 40
0.0353
 41
0.0353
 66
1
 10
0
 20
0
 30
0
  0
VERTEX
  8
LAYER_5
 10
56.5375
 20
92.9332
  0
VERTEX
  8
LAYER_5
 10
56.5375
 20
97.1445
  0
SEQEND
  0
POLYLINE
  8
LAYER_5
 40
0.0353
 41
0.0353
 66
1
 10
0
 20
0
 30
0
  0
VERTEX
  8
LAYER_5
 10
56.5375
 20
106.7373
  0
VERTEX
  8
LAYER_5
 10
56.5375
 20
102.5259
  0
SEQEND
  0
POLYLINE
  8
LAYER_5
 40
0.05
 41
0.05
 66
1
 10
0
 20
0
 30
0
 70
1
  0
VERTEX
  8
LAYER_5
 10
56.3036
 20
92.9332
  0
VERTEX
  8
LAYER_5
 10
56.8106
 20
92.9332
  0
VERTEX
  8
LAYER_5
 10
56.5377
 20
91.4512
  0
SEQEND
  0
POLYLINE
  8
LAYER_5
 66
1
 10
0
 20
0
 30
0
 70
1
  0
VERTEX
  8
LAYER_5
 10
56.3036
 20
92.9332
  0
VERTEX
  8
LAYER_5
 10
56.8106
 20
92.9332
  0
VERTEX
  8
LAYER_5
 10
56.5377
 20
91.4512
  0
SEQEND
  0
POLYLINE
  8
LAYER_5
 40
0.05
 41
0.05
 66
1
 10
0
 20
0
 30
0
 70
1
  0
VERTEX
  8
LAYER_5
 10
56.3036
 20
106.7373
  0
VERTEX
  8
LAYER_5
 10
56.8106
 20
106.7373
  0
VERTEX
  8
LAYER_5
 10
56.5377
 20
108.2581
  0
SEQEND
  0
POLYLINE
  8
LAYER_5
 66
1
 10
0
 20
0
 30
0
 70
1
  0
VERTEX
  8
LAYER_5
 10
56.3036
 20
106.7373
  0
VERTEX
  8
LAYER_5
 10
56.8106
 20
106.7373
  0
VERTEX
  8
LAYER_5
 10
56.5377
 20
108.2581
  0
SEQEND
  0
POLYLINE
  8
LAYER_5
 40
0.0353
 41
0.0353
 66
1
 10
0
 20
0
 30
0
  0
VERTEX
  8
LAYER_5
 10
85.7836
 20
92.4262
  0
VERTEX
  8
LAYER_5
 10
86.2126
 20
92.4262
  0
SEQEND
  0
POLYLINE
  8
LAYER_5
 40
0.0353
 41
0.0353
 66
1
 10
0
 20
0
 30
0
  0
VERTEX
  8
LAYER_5
 10
86.5245
 20
92.4262
  0
VERTEX
  8
LAYER_5
 10
87.1484
 20
92.4262
  0
SEQEND
  0
POLYLINE
  8
LAYER_5
 40
0.0353
 41
0.0353
 66
1
 10
0
 20
0
 30
0
  0
VERTEX
  8
LAYER_5
 10
87.4994
 20
92.4262
  0
VERTEX
  8
LAYER_5
 10
87.9284
 20
92.4262
  0
VERTEX
  8
LAYER_5
 10
88.0064
 20
92.4262
  0
VERTEX
  8
LAYER_5
 10
88.0844
 20
92.4262
  0
VERTEX
  8
LAYER_5
 10
88.1621
 20
92.465
  0
VERTEX
  8
LAYER_5
 10
88.2401
 20
92.5431
  0
VERTEX
  8
LAYER_5
 10
88.3182
 20
92.5823
  0
VERTEX
  8
LAYER_5
 10
88.3574
 20
92.6603
  0
VERTEX
  8
LAYER_5
 10
88.3962
 20
92.738
  0
VERTEX
  8
LAYER_5
 10
88.4354
 20
92.8552
  0
SEQEND
  0
POLYLINE
  8
LAYER_5
 40
0.0353
 41
0.0353
 66
1
 10
0
 20
0
 30
0
  0
VERTEX
  8
LAYER_5
 10
81.7282
 20
108.1021
  0
VERTEX
  8
LAYER_5
 10
81.7282
 20
108.1409
  0
VERTEX
  8
LAYER_5
 10
81.6893
 20
108.1801
  0
VERTEX
  8
LAYER_5
 10
81.6501
 20
108.219
  0
VERTEX
  8
LAYER_5
 10
81.6113
 20
108.219
  0
SEQEND
  0
POLYLINE
  8
LAYER_5
 40
0.1446
 41
0.1446
 66
1
 10
0
 20
0
 30
0
  0
VERTEX
  8
LAYER_5
 10
81.6111
 20
108.2191
  0
VERTEX
  8
LAYER_5
 10
81.4162
 20
108.2191
  0
SEQEND
  0
INSERT
  8
LAYER_5
  2
AIGNBL0501004A
 10
0
 20
0
 30
0
  0
POLYLINE
  8
LAYER_5
 40
0.1446
 41
0.1446
 66
1
 10
0
 20
0
 30
0
  0
VERTEX
  8
LAYER_5
 10
81.2602
 20
108.0241
  0
VERTEX
  8
LAYER_5
 10
84.068
 20
93.752
  0
SEQEND
  0
INSERT
  8
LAYER_5
  2
AIGNBL0501004B
 10
0
 20
0
 30
0
  0
POLYLINE
  8
LAYER_5
 40
0.1446
 41
0.1446
 66
1
 10
0
 20
0
 30
0
  0
VERTEX
  8
LAYER_5
 10
84.7307
 20
91.9193
  0
SEQEND
  0
INSERT
  8
LAYER_5
  2
AIGNBL0501004C
 10
0
 20
0
 30
0
  0
POLYLINE
  8
LAYER_5
 40
0.1446
 41
0.1446
 66
1
 10
0
 20
0
 30
0
  0
VERTEX
  8
LAYER_5
 10
85.2377
 20
91.4123
  0
SEQEND
  0
POLYLINE
  8
LAYER_5
 40
0.0353
 41
0.0353
 66
1
 10
0
 20
0
 30
0
  0
VERTEX
  8
LAYER_5
 10
101.4595
 20
94.9998
  0
VERTEX
  8
LAYER_5
 10
101.4595
 20
94.4928
  0
SEQEND
  0
POLYLINE
  8
LAYER_5
 40
0.0353
 41
0.0353
 66
1
 10
0
 20
0
 30
0
  0
VERTEX
  8
LAYER_5
 10
101.4595
 20
94.181
  0
VERTEX
  8
LAYER_5
 10
101.4595
 20
93.5571
  0
SEQEND
  0
POLYLINE
  8
LAYER_5
 40
0.0353
 41
0.0353
 66
1
 10
0
 20
0
 30
0
  0
VERTEX
  8
LAYER_5
 10
101.4595
 20
93.2061
  0
VERTEX
  8
LAYER_5
 10
101.4595
 20
92.5822
  0
SEQEND
  0
POLYLINE
  8
LAYER_5
 40
0.0353
 41
0.0353
 66
1
 10
0
 20
0
 30
0
  0
VERTEX
  8
LAYER_5
 10
101.4595
 20
92.2702
  0
VERTEX
  8
LAYER_5
 10
101.4595
 20
91.7632
  0
SEQEND
  0
POLYLINE
  8
LAYER_5
 40
0.0353
 41
0.0353
 66
1
 10
0
 20
0
 30
0
  0
VERTEX
  8
LAYER_5
 10
101.4595
 20
94.9998
  0
VERTEX
  8
LAYER_5
 10
101.4595
 20
95.1167
  0
VERTEX
  8
LAYER_5
 10
101.4206
 20
95.1947
  0
VERTEX
  8
LAYER_5
 10
101.3815
 20
95.2728
  0
VERTEX
  8
LAYER_5
 10
101.3034
 20
95.3508
  0
SEQEND
  0
POLYLINE
  8
LAYER_5
 40
0.0353
 41
0.0353
 66
1
 10
0
 20
0
 30
0
  0
VERTEX
  8
LAYER_5
 10
100.4846
 20
94.5709
  0
VERTEX
  8
LAYER_5
 10
100.4846
 20
93.8301
  0
SEQEND
  0
POLYLINE
  8
LAYER_5
 40
0.0353
 41
0.0353
 66
1
 10
0
 20
0
 30
0
  0
VERTEX
  8
LAYER_5
 10
100.4846
 20
93.4791
  0
VERTEX
  8
LAYER_5
 10
100.4846
 20
92.8551
  0
SEQEND
  0
POLYLINE
  8
LAYER_5
 40
0.0353
 41
0.0353
 66
1
 10
0
 20
0
 30
0
  0
VERTEX
  8
LAYER_5
 10
100.4846
 20
92.5432
  0
VERTEX
  8
LAYER_5
 10
100.4846
 20
91.7632
  0
SEQEND
  0
POLYLINE
  8
LAYER_5
 40
0.0353
 41
0.0353
 66
1
 10
0
 20
0
 30
0
  0
VERTEX
  8
LAYER_5
 10
100.4846
 20
94.5709
  0
VERTEX
  8
LAYER_5
 10
100.4458
 20
94.6878
  0
VERTEX
  8
LAYER_5
 10
100.4458
 20
94.7658
  0
VERTEX
  8
LAYER_5
 10
100.3677
 20
94.883
  0
VERTEX
  8
LAYER_5
 10
100.3285
 20
94.9607
  0
SEQEND
  0
POLYLINE
  8
LAYER_5
 40
0.0353
 41
0.0353
 66
1
 10
0
 20
0
 30
0
  0
VERTEX
  8
LAYER_5
 10
100.0947
 20
96.5597
  0
VERTEX
  8
LAYER_5
 10
100.6017
 20
96.0918
  0
SEQEND
  0
POLYLINE
  8
LAYER_5
 40
0.0353
 41
0.0353
 66
1
 10
0
 20
0
 30
0
  0
VERTEX
  8
LAYER_5
 10
100.8356
 20
95.8578
  0
VERTEX
  8
LAYER_5
 10
101.3034
 20
95.3507
  0
SEQEND
  0
POLYLINE
  8
LAYER_5
 40
0.0353
 41
0.0353
 66
1
 10
0
 20
0
 30
0
  0
VERTEX
  8
LAYER_5
 10
100.0947
 20
96.5597
  0
VERTEX
  8
LAYER_5
 10
100.0166
 20
96.6377
  0
VERTEX
  8
LAYER_5
 10
99.9386
 20
96.6765
  0
VERTEX
  8
LAYER_5
 10
99.8606
 20
96.7157
  0
VERTEX
  8
LAYER_5
 10
99.7825
 20
96.7157
  0
SEQEND
  0
POLYLINE
  8
LAYER_5
 40
0.0353
 41
0.0353
 66
1
 10
0
 20
0
 30
0
  0
VERTEX
  8
LAYER_5
 10
99.3538
 20
95.7408
  0
VERTEX
  8
LAYER_5
 10
99.4318
 20
95.7019
  0
VERTEX
  8
LAYER_5
 10
99.5098
 20
95.7019
  0
VERTEX
  8
LAYER_5
 10
99.5879
 20
95.6627
  0
VERTEX
  8
LAYER_5
 10
99.6655
 20
95.5847
  0
VERTEX
  8
LAYER_5
 10
100.3287
 20
94.9608
  0
SEQEND
  0
POLYLINE
  8
LAYER_5
 40
0.0353
 41
0.0353
 66
1
 10
0
 20
0
 30
0
  0
VERTEX
  8
LAYER_5
 10
81.7282
 20
108.1021
  0
VERTEX
  8
LAYER_5
 10
81.9623
 20
107.4393
  0
SEQEND
  0
POLYLINE
  8
LAYER_5
 40
0.0353
 41
0.0353
 66
1
 10
0
 20
0
 30
0
  0
VERTEX
  8
LAYER_5
 10
82.0791
 20
107.1662
  0
VERTEX
  8
LAYER_5
 10
82.3132
 20
106.5423
  0
SEQEND
  0
POLYLINE
  8
LAYER_5
 40
0.0353
 41
0.0353
 66
1
 10
0
 20
0
 30
0
  0
VERTEX
  8
LAYER_5
 10
82.43
 20
106.2693
  0
VERTEX
  8
LAYER_5
 10
82.6249
 20
105.6842
  0
SEQEND
  0
POLYLINE
  8
LAYER_5
 40
0.0353
 41
0.0353
 66
1
 10
0
 20
0
 30
0
  0
VERTEX
  8
LAYER_5
 10
82.742
 20
105.3725
  0
VERTEX
  8
LAYER_5
 10
82.9761
 20
104.7874
  0
SEQEND
  0
POLYLINE
  8
LAYER_5
 40
0.0353
 41
0.0353
 66
1
 10
0
 20
0
 30
0
  0
VERTEX
  8
LAYER_5
 10
83.0539
 20
104.4756
  0
VERTEX
  8
LAYER_5
 10
83.288
 20
103.8905
  0
SEQEND
  0
POLYLINE
  8
LAYER_5
 40
0.0353
 41
0.0353
 66
1
 10
0
 20
0
 30
0
  0
VERTEX
  8
LAYER_5
 10
83.4049
 20
103.5787
  0
VERTEX
  8
LAYER_5
 10
83.5998
 20
102.9936
  0
SEQEND
  0
POLYLINE
  8
LAYER_5
 40
0.0353
 41
0.0353
 66
1
 10
0
 20
0
 30
0
  0
VERTEX
  8
LAYER_5
 10
83.7169
 20
102.6818
  0
VERTEX
  8
LAYER_5
 10
83.951
 20
102.0967
  0
SEQEND
  0
POLYLINE
  8
LAYER_5
 40
0.0353
 41
0.0353
 66
1
 10
0
 20
0
 30
0
  0
VERTEX
  8
LAYER_5
 10
84.0289
 20
101.7849
  0
VERTEX
  8
LAYER_5
 10
84.263
 20
101.1998
  0
SEQEND
  0
POLYLINE
  8
LAYER_5
 40
0.0353
 41
0.0353
 66
1
 10
0
 20
0
 30
0
  0
VERTEX
  8
LAYER_5
 10
84.3798
 20
100.8881
  0
VERTEX
  8
LAYER_5
 10
84.5747
 20
100.303
  0
SEQEND
  0
POLYLINE
  8
LAYER_5
 40
0.0353
 41
0.0353
 66
1
 10
0
 20
0
 30
0
  0
VERTEX
  8
LAYER_5
 10
84.6917
 20
99.9912
  0
VERTEX
  8
LAYER_5
 10
84.9258
 20
99.4061
  0
SEQEND
  0
POLYLINE
  8
LAYER_5
 40
0.0353
 41
0.0353
 66
1
 10
0
 20
0
 30
0
  0
VERTEX
  8
LAYER_5
 10
85.0427
 20
99.0943
  0
VERTEX
  8
LAYER_5
 10
85.2768
 20
98.4704
  0
SEQEND
  0
POLYLINE
  8
LAYER_5
 40
0.0353
 41
0.0353
 66
1
 10
0
 20
0
 30
0
  0
VERTEX
  8
LAYER_5
 10
85.3937
 20
96.7156
  0
VERTEX
  8
LAYER_5
 10
85.9007
 20
96.4427
  0
VERTEX
  8
LAYER_5
 10
86.0176
 20
96.4039
  0
SEQEND
  0
POLYLINE
  8
LAYER_5
 40
0.0353
 41
0.0353
 66
1
 10
0
 20
0
 30
0
  0
VERTEX
  8
LAYER_5
 10
86.3295
 20
96.2867
  0
VERTEX
  8
LAYER_5
 10
86.4464
 20
96.2478
  0
VERTEX
  8
LAYER_5
 10
87.0315
 20
96.1698
  0
SEQEND
  0
POLYLINE
  8
LAYER_5
 40
0.0353
 41
0.0353
 66
1
 10
0
 20
0
 30
0
  0
VERTEX
  8
LAYER_5
 10
87.0704
 20
97.1446
  0
VERTEX
  8
LAYER_5
 10
87.5383
 20
97.1446
  0
SEQEND
  0
POLYLINE
  8
LAYER_5
 40
0.0353
 41
0.0353
 66
1
 10
0
 20
0
 30
0
  0
VERTEX
  8
LAYER_5
 10
87.8503
 20
97.1446
  0
VERTEX
  8
LAYER_5
 10
88.513
 20
97.1057
  0
SEQEND
  0
POLYLINE
  8
LAYER_5
 40
0.0353
 41
0.0353
 66
1
 10
0
 20
0
 30
0
  0
VERTEX
  8
LAYER_5
 10
88.8252
 20
97.1056
  0
VERTEX
  8
LAYER_5
 10
89.4491
 20
97.0667
  0
SEQEND
  0
POLYLINE
  8
LAYER_5
 40
0.0353
 41
0.0353
 66
1
 10
0
 20
0
 30
0
  0
VERTEX
  8
LAYER_5
 10
89.761
 20
97.0666
  0
VERTEX
  8
LAYER_5
 10
90.4238
 20
97.0277
  0
SEQEND
  0
POLYLINE
  8
LAYER_5
 40
0.0353
 41
0.0353
 66
1
 10
0
 20
0
 30
0
  0
VERTEX
  8
LAYER_5
 10
90.7359
 20
97.0276
  0
VERTEX
  8
LAYER_5
 10
91.3599
 20
97.0276
  0
SEQEND
  0
POLYLINE
  8
LAYER_5
 40
0.0353
 41
0.0353
 66
1
 10
0
 20
0
 30
0
  0
VERTEX
  8
LAYER_5
 10
91.6718
 20
96.9886
  0
VERTEX
  8
LAYER_5
 10
92.2957
 20
96.9886
  0
SEQEND
  0
POLYLINE
  8
LAYER_5
 40
0.0353
 41
0.0353
 66
1
 10
0
 20
0
 30
0
  0
VERTEX
  8
LAYER_5
 10
92.6077
 20
96.9496
  0
VERTEX
  8
LAYER_5
 10
93.2704
 20
96.9496
  0
SEQEND
  0
POLYLINE
  8
LAYER_5
 40
0.0353
 41
0.0353
 66
1
 10
0
 20
0
 30
0
  0
VERTEX
  8
LAYER_5
 10
93.5825
 20
96.9496
  0
VERTEX
  8
LAYER_5
 10
94.2064
 20
96.9108
  0
SEQEND
  0
POLYLINE
  8
LAYER_5
 40
0.0353
 41
0.0353
 66
1
 10
0
 20
0
 30
0
  0
VERTEX
  8
LAYER_5
 10
94.5184
 20
96.9106
  0
VERTEX
  8
LAYER_5
 10
95.1812
 20
96.8718
  0
SEQEND
  0
POLYLINE
  8
LAYER_5
 40
0.0353
 41
0.0353
 66
1
 10
0
 20
0
 30
0
  0
VERTEX
  8
LAYER_5
 10
95.4933
 20
96.8716
  0
VERTEX
  8
LAYER_5
 10
96.1172
 20
96.8328
  0
SEQEND
  0
POLYLINE
  8
LAYER_5
 40
0.0353
 41
0.0353
 66
1
 10
0
 20
0
 30
0
  0
VERTEX
  8
LAYER_5
 10
96.4292
 20
96.8326
  0
VERTEX
  8
LAYER_5
 10
97.0531
 20
96.7938
  0
SEQEND
  0
POLYLINE
  8
LAYER_5
 40
0.0353
 41
0.0353
 66
1
 10
0
 20
0
 30
0
  0
VERTEX
  8
LAYER_5
 10
97.404
 20
96.7936
  0
VERTEX
  8
LAYER_5
 10
98.0279
 20
96.7936
  0
SEQEND
  0
POLYLINE
  8
LAYER_5
 40
0.0353
 41
0.0353
 66
1
 10
0
 20
0
 30
0
  0
VERTEX
  8
LAYER_5
 10
98.3399
 20
96.7546
  0
VERTEX
  8
LAYER_5
 10
98.9638
 20
96.7546
  0
SEQEND
  0
POLYLINE
  8
LAYER_5
 40
0.0353
 41
0.0353
 66
1
 10
0
 20
0
 30
0
  0
VERTEX
  8
LAYER_5
 10
99.2758
 20
96.7156
  0
VERTEX
  8
LAYER_5
 10
99.7828
 20
96.7156
  0
SEQEND
  0
POLYLINE
  8
LAYER_5
 40
0.0353
 41
0.0353
 66
1
 10
0
 20
0
 30
0
  0
VERTEX
  8
LAYER_5
 10
85.2767
 20
92.8161
  0
VERTEX
  8
LAYER_5
 10
85.1598
 20
93.44
  0
SEQEND
  0
POLYLINE
  8
LAYER_5
 40
0.0353
 41
0.0353
 66
1
 10
0
 20
0
 30
0
  0
VERTEX
  8
LAYER_5
 10
85.1207
 20
93.752
  0
VERTEX
  8
LAYER_5
 10
84.9646
 20
94.3759
  0
SEQEND
  0
POLYLINE
  8
LAYER_5
 40
0.0353
 41
0.0353
 66
1
 10
0
 20
0
 30
0
  0
VERTEX
  8
LAYER_5
 10
84.9257
 20
94.6879
  0
VERTEX
  8
LAYER_5
 10
84.8088
 20
95.3118
  0
SEQEND
  0
POLYLINE
  8
LAYER_5
 40
0.0353
 41
0.0353
 66
1
 10
0
 20
0
 30
0
  0
VERTEX
  8
LAYER_5
 10
84.7307
 20
95.6238
  0
VERTEX
  8
LAYER_5
 10
84.6138
 20
96.2088
  0
SEQEND
  0
POLYLINE
  8
LAYER_5
 40
0.0353
 41
0.0353
 66
1
 10
0
 20
0
 30
0
  0
VERTEX
  8
LAYER_5
 10
87.0314
 20
96.1697
  0
VERTEX
  8
LAYER_5
 10
87.5385
 20
96.1309
  0
SEQEND
  0
POLYLINE
  8
LAYER_5
 40
0.0353
 41
0.0353
 66
1
 10
0
 20
0
 30
0
  0
VERTEX
  8
LAYER_5
 10
87.8503
 20
96.1307
  0
VERTEX
  8
LAYER_5
 10
88.3181
 20
96.1307
  0
SEQEND
  0
POLYLINE
  8
LAYER_5
 40
0.0353
 41
0.0353
 66
1
 10
0
 20
0
 30
0
  0
VERTEX
  8
LAYER_5
 10
90.346
 20
96.0527
  0
VERTEX
  8
LAYER_5
 10
90.8918
 20
96.0139
  0
SEQEND
  0
POLYLINE
  8
LAYER_5
 40
0.0353
 41
0.0353
 66
1
 10
0
 20
0
 30
0
  0
VERTEX
  8
LAYER_5
 10
91.2038
 20
96.0137
  0
VERTEX
  8
LAYER_5
 10
91.8278
 20
96.0137
  0
SEQEND
  0
POLYLINE
  8
LAYER_5
 40
0.0353
 41
0.0353
 66
1
 10
0
 20
0
 30
0
  0
VERTEX
  8
LAYER_5
 10
92.1397
 20
95.9747
  0
VERTEX
  8
LAYER_5
 10
92.7636
 20
95.9747
  0
SEQEND
  0
POLYLINE
  8
LAYER_5
 40
0.0353
 41
0.0353
 66
1
 10
0
 20
0
 30
0
  0
VERTEX
  8
LAYER_5
 10
93.1146
 20
95.9357
  0
VERTEX
  8
LAYER_5
 10
93.7385
 20
95.9357
  0
SEQEND
  0
POLYLINE
  8
LAYER_5
 40
0.0353
 41
0.0353
 66
1
 10
0
 20
0
 30
0
  0
VERTEX
  8
LAYER_5
 10
94.0505
 20
95.9357
  0
VERTEX
  8
LAYER_5
 10
94.6744
 20
95.8969
  0
SEQEND
  0
POLYLINE
  8
LAYER_5
 40
0.0353
 41
0.0353
 66
1
 10
0
 20
0
 30
0
  0
VERTEX
  8
LAYER_5
 10
94.9864
 20
95.8967
  0
VERTEX
  8
LAYER_5
 10
95.6491
 20
95.8579
  0
SEQEND
  0
POLYLINE
  8
LAYER_5
 40
0.0353
 41
0.0353
 66
1
 10
0
 20
0
 30
0
  0
VERTEX
  8
LAYER_5
 10
95.9612
 20
95.8578
  0
VERTEX
  8
LAYER_5
 10
96.5851
 20
95.8189
  0
SEQEND
  0
POLYLINE
  8
LAYER_5
 40
0.0353
 41
0.0353
 66
1
 10
0
 20
0
 30
0
  0
VERTEX
  8
LAYER_5
 10
96.8971
 20
95.8187
  0
VERTEX
  8
LAYER_5
 10
97.5598
 20
95.7799
  0
SEQEND
  0
POLYLINE
  8
LAYER_5
 40
0.0353
 41
0.0353
 66
1
 10
0
 20
0
 30
0
  0
VERTEX
  8
LAYER_5
 10
97.872
 20
95.7798
  0
VERTEX
  8
LAYER_5
 10
98.4959
 20
95.7798
  0
SEQEND
  0
POLYLINE
  8
LAYER_5
 40
0.0353
 41
0.0353
 66
1
 10
0
 20
0
 30
0
  0
VERTEX
  8
LAYER_5
 10
98.8078
 20
95.7408
  0
VERTEX
  8
LAYER_5
 10
99.3537
 20
95.7408
  0
SEQEND
  0
POLYLINE
  8
LAYER_5
 40
0.0353
 41
0.0353
 66
1
 10
0
 20
0
 30
0
  0
VERTEX
  8
LAYER_5
 10
85.2767
 20
98.4704
  0
VERTEX
  8
LAYER_5
 10
85.3935
 20
98.1583
  0
VERTEX
  8
LAYER_5
 10
85.5108
 20
98.0025
  0
SEQEND
  0
POLYLINE
  8
LAYER_5
 40
0.0353
 41
0.0353
 66
1
 10
0
 20
0
 30
0
  0
VERTEX
  8
LAYER_5
 10
85.7446
 20
97.7685
  0
VERTEX
  8
LAYER_5
 10
85.8226
 20
97.6516
  0
VERTEX
  8
LAYER_5
 10
86.0956
 20
97.4563
  0
VERTEX
  8
LAYER_5
 10
86.2516
 20
97.3787
  0
SEQEND
  0
POLYLINE
  8
LAYER_5
 40
0.0353
 41
0.0353
 66
1
 10
0
 20
0
 30
0
  0
VERTEX
  8
LAYER_5
 10
86.5245
 20
97.2615
  0
VERTEX
  8
LAYER_5
 10
86.7194
 20
97.2227
  0
VERTEX
  8
LAYER_5
 10
87.0703
 20
97.1447
  0
SEQEND
  0
POLYLINE
  8
LAYER_5
 40
0.0353
 41
0.0353
 66
1
 10
0
 20
0
 30
0
  0
VERTEX
  8
LAYER_5
 10
89.2151
 20
91.4123
  0
VERTEX
  8
LAYER_5
 10
89.2931
 20
91.9582
  0
SEQEND
  0
POLYLINE
  8
LAYER_5
 40
0.0353
 41
0.0353
 66
1
 10
0
 20
0
 30
0
  0
VERTEX
  8
LAYER_5
 10
89.3321
 20
92.2702
  0
VERTEX
  8
LAYER_5
 10
89.449
 20
92.8941
  0
SEQEND
  0
POLYLINE
  8
LAYER_5
 40
0.0353
 41
0.0353
 66
1
 10
0
 20
0
 30
0
  0
VERTEX
  8
LAYER_5
 10
89.4881
 20
93.2061
  0
VERTEX
  8
LAYER_5
 10
89.5661
 20
93.83
  0
SEQEND
  0
POLYLINE
  8
LAYER_5
 40
0.0353
 41
0.0353
 66
1
 10
0
 20
0
 30
0
  0
VERTEX
  8
LAYER_5
 10
89.6051
 20
94.142
  0
VERTEX
  8
LAYER_5
 10
89.7219
 20
94.7659
  0
SEQEND
  0
POLYLINE
  8
LAYER_5
 40
0.0353
 41
0.0353
 66
1
 10
0
 20
0
 30
0
  0
VERTEX
  8
LAYER_5
 10
89.761
 20
95.0778
  0
VERTEX
  8
LAYER_5
 10
89.8391
 20
95.6237
  0
SEQEND
  0
POLYLINE
  8
LAYER_5
 40
0.0353
 41
0.0353
 66
1
 10
0
 20
0
 30
0
  0
VERTEX
  8
LAYER_5
 10
85.3937
 20
96.7156
  0
VERTEX
  8
LAYER_5
 10
85.3156
 20
96.7545
  0
VERTEX
  8
LAYER_5
 10
85.2376
 20
96.7937
  0
VERTEX
  8
LAYER_5
 10
85.1207
 20
96.8325
  0
VERTEX
  8
LAYER_5
 10
85.0427
 20
96.7937
  0
VERTEX
  8
LAYER_5
 10
84.9647
 20
96.7937
  0
SEQEND
  0
POLYLINE
  8
LAYER_5
 40
0.0353
 41
0.0353
 66
1
 10
0
 20
0
 30
0
  0
VERTEX
  8
LAYER_5
 10
84.7307
 20
96.6376
  0
VERTEX
  8
LAYER_5
 10
84.6919
 20
96.5596
  0
VERTEX
  8
LAYER_5
 10
84.6527
 20
96.4816
  0
VERTEX
  8
LAYER_5
 10
84.6138
 20
96.4035
  0
VERTEX
  8
LAYER_5
 10
84.6138
 20
96.3259
  0
VERTEX
  8
LAYER_5
 10
84.6138
 20
96.2086
  0
SEQEND
  0
POLYLINE
  8
LAYER_5
 40
0.0353
 41
0.0353
 66
1
 10
0
 20
0
 30
0
  0
VERTEX
  8
LAYER_5
 10
90.346
 20
96.0527
  0
VERTEX
  8
LAYER_5
 10
90.2679
 20
96.0527
  0
VERTEX
  8
LAYER_5
 10
90.1511
 20
96.0139
  0
VERTEX
  8
LAYER_5
 10
90.073
 20
95.9747
  0
VERTEX
  8
LAYER_5
 10
89.995
 20
95.9359
  0
VERTEX
  8
LAYER_5
 10
89.9562
 20
95.8578
  0
VERTEX
  8
LAYER_5
 10
89.8781
 20
95.7798
  0
VERTEX
  8
LAYER_5
 10
89.8389
 20
95.7018
  0
VERTEX
  8
LAYER_5
 10
89.8389
 20
95.6237
  0
SEQEND
  0
POLYLINE
  8
LAYER_5
 40
0.0353
 41
0.0353
 66
1
 10
0
 20
0
 30
0
  0
VERTEX
  8
LAYER_5
 10
85.2767
 20
92.8161
  0
VERTEX
  8
LAYER_5
 10
85.3155
 20
92.7381
  0
VERTEX
  8
LAYER_5
 10
85.3547
 20
92.6601
  0
VERTEX
  8
LAYER_5
 10
85.3935
 20
92.582
  0
VERTEX
  8
LAYER_5
 10
85.4716
 20
92.5432
  0
VERTEX
  8
LAYER_5
 10
85.5496
 20
92.4651
  0
VERTEX
  8
LAYER_5
 10
85.6277
 20
92.4263
  0
VERTEX
  8
LAYER_5
 10
85.7057
 20
92.4263
  0
VERTEX
  8
LAYER_5
 10
85.7837
 20
92.4263
  0
SEQEND
  0
POLYLINE
  8
LAYER_5
 40
0.0353
 41
0.0353
 66
1
 10
0
 20
0
 30
0
  0
VERTEX
  8
LAYER_5
 10
88.4352
 20
92.8552
  0
VERTEX
  8
LAYER_5
 10
88.5133
 20
93.5571
  0
SEQEND
  0
POLYLINE
  8
LAYER_5
 40
0.0353
 41
0.0353
 66
1
 10
0
 20
0
 30
0
  0
VERTEX
  8
LAYER_5
 10
88.5522
 20
93.869
  0
VERTEX
  8
LAYER_5
 10
88.6691
 20
94.4929
  0
SEQEND
  0
POLYLINE
  8
LAYER_5
 40
0.0353
 41
0.0353
 66
1
 10
0
 20
0
 30
0
  0
VERTEX
  8
LAYER_5
 10
88.7082
 20
94.8049
  0
VERTEX
  8
LAYER_5
 10
88.8251
 20
95.5457
  0
VERTEX
  8
LAYER_5
 10
88.8251
 20
95.6237
  0
VERTEX
  8
LAYER_5
 10
88.7862
 20
95.7409
  0
VERTEX
  8
LAYER_5
 10
88.7862
 20
95.8186
  0
VERTEX
  8
LAYER_5
 10
88.747
 20
95.8967
  0
VERTEX
  8
LAYER_5
 10
88.6694
 20
95.9747
  0
VERTEX
  8
LAYER_5
 10
88.5913
 20
96.0139
  0
VERTEX
  8
LAYER_5
 10
88.5133
 20
96.0916
  0
VERTEX
  8
LAYER_5
 10
88.4353
 20
96.0916
  0
VERTEX
  8
LAYER_5
 10
88.3184
 20
96.1308
  0
SEQEND
  0
POLYLINE
  8
LAYER_5
 40
0.0353
 41
0.0353
 66
1
 10
0
 20
0
 30
0
  0
VERTEX
  8
LAYER_5
 10
106.2558
 20
94.9998
  0
VERTEX
  8
LAYER_5
 10
106.2558
 20
94.0642
  0
SEQEND
  0
POLYLINE
  8
LAYER_5
 40
0.0353
 41
0.0353
 66
1
 10
0
 20
0
 30
0
  0
VERTEX
  8
LAYER_5
 10
106.2558
 20
93.0501
  0
VERTEX
  8
LAYER_5
 10
106.2558
 20
92.5823
  0
SEQEND
  0
POLYLINE
  8
LAYER_5
 40
0.0353
 41
0.0353
 66
1
 10
0
 20
0
 30
0
  0
VERTEX
  8
LAYER_5
 10
106.2558
 20
92.2702
  0
VERTEX
  8
LAYER_5
 10
106.2558
 20
91.7632
  0
SEQEND
  0
POLYLINE
  8
LAYER_5
 40
0.0353
 41
0.0353
 66
1
 10
0
 20
0
 30
0
  0
VERTEX
  8
LAYER_5
 10
106.4118
 20
95.3508
  0
VERTEX
  8
LAYER_5
 10
106.3338
 20
95.2728
  0
VERTEX
  8
LAYER_5
 10
106.2949
 20
95.1947
  0
VERTEX
  8
LAYER_5
 10
106.2557
 20
95.1167
  0
VERTEX
  8
LAYER_5
 10
106.2557
 20
94.9998
  0
SEQEND
  0
POLYLINE
  8
LAYER_5
 40
0.0353
 41
0.0353
 66
1
 10
0
 20
0
 30
0
  0
VERTEX
  8
LAYER_5
 10
107.2697
 20
94.5709
  0
VERTEX
  8
LAYER_5
 10
107.2697
 20
94.0638
  0
SEQEND
  0
POLYLINE
  8
LAYER_5
 40
0.0353
 41
0.0353
 66
1
 10
0
 20
0
 30
0
  0
VERTEX
  8
LAYER_5
 10
107.2697
 20
92.0752
  0
VERTEX
  8
LAYER_5
 10
107.2697
 20
91.7635
  0
SEQEND
  0
POLYLINE
  8
LAYER_5
 40
0.0353
 41
0.0353
 66
1
 10
0
 20
0
 30
0
  0
VERTEX
  8
LAYER_5
 10
107.4257
 20
94.9609
  0
VERTEX
  8
LAYER_5
 10
107.3476
 20
94.8828
  0
VERTEX
  8
LAYER_5
 10
107.3088
 20
94.766
  0
VERTEX
  8
LAYER_5
 10
107.2696
 20
94.6879
  0
VERTEX
  8
LAYER_5
 10
107.2696
 20
94.571
  0
SEQEND
  0
POLYLINE
  8
LAYER_5
 40
0.0353
 41
0.0353
 66
1
 10
0
 20
0
 30
0
  0
VERTEX
  8
LAYER_5
 10
107.6207
 20
96.5597
  0
VERTEX
  8
LAYER_5
 10
107.1136
 20
96.0918
  0
SEQEND
  0
POLYLINE
  8
LAYER_5
 40
0.0353
 41
0.0353
 66
1
 10
0
 20
0
 30
0
  0
VERTEX
  8
LAYER_5
 10
106.9187
 20
95.8578
  0
VERTEX
  8
LAYER_5
 10
106.4117
 20
95.3507
  0
SEQEND
  0
POLYLINE
  8
LAYER_5
 40
0.0353
 41
0.0353
 66
1
 10
0
 20
0
 30
0
  0
VERTEX
  8
LAYER_5
 10
107.9716
 20
96.7156
  0
VERTEX
  8
LAYER_5
 10
107.8547
 20
96.7156
  0
VERTEX
  8
LAYER_5
 10
107.7767
 20
96.6768
  0
VERTEX
  8
LAYER_5
 10
107.6986
 20
96.6376
  0
VERTEX
  8
LAYER_5
 10
107.6206
 20
96.5596
  0
SEQEND
  0
POLYLINE
  8
LAYER_5
 40
0.0353
 41
0.0353
 66
1
 10
0
 20
0
 30
0
  0
VERTEX
  8
LAYER_5
 10
108.4005
 20
95.7408
  0
VERTEX
  8
LAYER_5
 10
108.2837
 20
95.7019
  0
VERTEX
  8
LAYER_5
 10
108.2056
 20
95.7019
  0
VERTEX
  8
LAYER_5
 10
108.1276
 20
95.6627
  0
VERTEX
  8
LAYER_5
 10
108.0495
 20
95.5847
  0
VERTEX
  8
LAYER_5
 10
107.4256
 20
94.9608
  0
SEQEND
  0
POLYLINE
  8
LAYER_5
 40
0.0353
 41
0.0353
 66
1
 10
0
 20
0
 30
0
  0
VERTEX
  8
LAYER_5
 10
112.261
 20
96.8716
  0
VERTEX
  8
LAYER_5
 10
111.6759
 20
96.8328
  0
SEQEND
  0
POLYLINE
  8
LAYER_5
 40
0.0353
 41
0.0353
 66
1
 10
0
 20
0
 30
0
  0
VERTEX
  8
LAYER_5
 10
111.3642
 20
96.8326
  0
VERTEX
  8
LAYER_5
 10
110.7402
 20
96.8326
  0
SEQEND
  0
POLYLINE
  8
LAYER_5
 40
0.0353
 41
0.0353
 66
1
 10
0
 20
0
 30
0
  0
VERTEX
  8
LAYER_5
 10
110.4283
 20
96.7936
  0
VERTEX
  8
LAYER_5
 10
109.8044
 20
96.7936
  0
SEQEND
  0
POLYLINE
  8
LAYER_5
 40
0.0353
 41
0.0353
 66
1
 10
0
 20
0
 30
0
  0
VERTEX
  8
LAYER_5
 10
109.4534
 20
96.7546
  0
VERTEX
  8
LAYER_5
 10
108.8295
 20
96.7546
  0
SEQEND
  0
POLYLINE
  8
LAYER_5
 40
0.0353
 41
0.0353
 66
1
 10
0
 20
0
 30
0
  0
VERTEX
  8
LAYER_5
 10
108.5175
 20
96.7546
  0
VERTEX
  8
LAYER_5
 10
107.9716
 20
96.7158
  0
SEQEND
  0
POLYLINE
  8
LAYER_5
 40
0.0353
 41
0.0353
 66
1
 10
0
 20
0
 30
0
  0
VERTEX
  8
LAYER_5
 10
112.69
 20
95.8967
  0
VERTEX
  8
LAYER_5
 10
112.1049
 20
95.8579
  0
SEQEND
  0
POLYLINE
  8
LAYER_5
 40
0.0353
 41
0.0353
 66
1
 10
0
 20
0
 30
0
  0
VERTEX
  8
LAYER_5
 10
111.7931
 20
95.8578
  0
VERTEX
  8
LAYER_5
 10
111.1692
 20
95.8189
  0
SEQEND
  0
POLYLINE
  8
LAYER_5
 40
0.0353
 41
0.0353
 66
1
 10
0
 20
0
 30
0
  0
VERTEX
  8
LAYER_5
 10
110.8572
 20
95.8187
  0
VERTEX
  8
LAYER_5
 10
110.2333
 20
95.7799
  0
SEQEND
  0
POLYLINE
  8
LAYER_5
 40
0.0353
 41
0.0353
 66
1
 10
0
 20
0
 30
0
  0
VERTEX
  8
LAYER_5
 10
109.9213
 20
95.7798
  0
VERTEX
  8
LAYER_5
 10
109.2586
 20
95.7798
  0
SEQEND
  0
POLYLINE
  8
LAYER_5
 40
0.0353
 41
0.0353
 66
1
 10
0
 20
0
 30
0
  0
VERTEX
  8
LAYER_5
 10
108.9465
 20
95.7408
  0
VERTEX
  8
LAYER_5
 10
108.4006
 20
95.7408
  0
SEQEND
  0
POLYLINE
  8
LAYER_5
 40
0.0353
 41
0.0353
 66
1
 10
0
 20
0
 30
0
  0
VERTEX
  8
LAYER_5
 10
100.4846
 20
91.7633
  0
VERTEX
  8
LAYER_5
 10
100.7967
 20
91.7633
  0
SEQEND
  0
POLYLINE
  8
LAYER_5
 40
0.0353
 41
0.0353
 66
1
 10
0
 20
0
 30
0
  0
VERTEX
  8
LAYER_5
 10
101.1085
 20
91.7633
  0
VERTEX
  8
LAYER_5
 10
101.4595
 20
91.7633
  0
SEQEND
  0
POLYLINE
  8
LAYER_5
 40
0.0353
 41
0.0353
 66
1
 10
0
 20
0
 30
0
  0
VERTEX
  8
LAYER_5
 10
106.2558
 20
91.7633
  0
VERTEX
  8
LAYER_5
 10
106.6068
 20
91.7633
  0
SEQEND
  0
POLYLINE
  8
LAYER_5
 40
0.0353
 41
0.0353
 66
1
 10
0
 20
0
 30
0
  0
VERTEX
  8
LAYER_5
 10
106.9187
 20
91.7633
  0
VERTEX
  8
LAYER_5
 10
107.2697
 20
91.7633
  0
SEQEND
  0
POLYLINE
  8
LAYER_5
 40
0.0353
 41
0.0353
 66
1
 10
0
 20
0
 30
0
  0
VERTEX
  8
LAYER_5
 10
101.4595
 20
94.9998
  0
VERTEX
  8
LAYER_5
 10
101.8105
 20
94.9998
  0
SEQEND
  0
POLYLINE
  8
LAYER_5
 40
0.0353
 41
0.0353
 66
1
 10
0
 20
0
 30
0
  0
VERTEX
  8
LAYER_5
 10
102.1224
 20
94.9998
  0
VERTEX
  8
LAYER_5
 10
102.7463
 20
94.9998
  0
SEQEND
  0
POLYLINE
  8
LAYER_5
 40
0.0353
 41
0.0353
 66
1
 10
0
 20
0
 30
0
  0
VERTEX
  8
LAYER_5
 10
103.0583
 20
94.9998
  0
VERTEX
  8
LAYER_5
 10
103.721
 20
94.9998
  0
SEQEND
  0
POLYLINE
  8
LAYER_5
 40
0.0353
 41
0.0353
 66
1
 10
0
 20
0
 30
0
  0
VERTEX
  8
LAYER_5
 10
104.0331
 20
94.9998
  0
VERTEX
  8
LAYER_5
 10
104.657
 20
94.9998
  0
SEQEND
  0
POLYLINE
  8
LAYER_5
 40
0.0353
 41
0.0353
 66
1
 10
0
 20
0
 30
0
  0
VERTEX
  8
LAYER_5
 10
104.969
 20
94.9998
  0
VERTEX
  8
LAYER_5
 10
105.5929
 20
94.9998
  0
SEQEND
  0
POLYLINE
  8
LAYER_5
 40
0.0353
 41
0.0353
 66
1
 10
0
 20
0
 30
0
  0
VERTEX
  8
LAYER_5
 10
105.9439
 20
94.9998
  0
VERTEX
  8
LAYER_5
 10
106.256
 20
94.9998
  0
SEQEND
  0
POLYLINE
  8
LAYER_5
 40
0.0353
 41
0.0353
 66
1
 10
0
 20
0
 30
0
  0
VERTEX
  8
LAYER_5
 10
99.7827
 20
96.7156
  0
VERTEX
  8
LAYER_5
 10
100.3678
 20
96.7156
  0
SEQEND
  0
POLYLINE
  8
LAYER_5
 40
0.0353
 41
0.0353
 66
1
 10
0
 20
0
 30
0
  0
VERTEX
  8
LAYER_5
 10
100.6796
 20
96.7156
  0
VERTEX
  8
LAYER_5
 10
101.3423
 20
96.7156
  0
SEQEND
  0
POLYLINE
  8
LAYER_5
 40
0.0353
 41
0.0353
 66
1
 10
0
 20
0
 30
0
  0
VERTEX
  8
LAYER_5
 10
101.6544
 20
96.7156
  0
VERTEX
  8
LAYER_5
 10
102.2783
 20
96.7156
  0
SEQEND
  0
POLYLINE
  8
LAYER_5
 40
0.0353
 41
0.0353
 66
1
 10
0
 20
0
 30
0
  0
VERTEX
  8
LAYER_5
 10
102.5903
 20
96.7156
  0
VERTEX
  8
LAYER_5
 10
103.2143
 20
96.7156
  0
SEQEND
  0
POLYLINE
  8
LAYER_5
 40
0.0353
 41
0.0353
 66
1
 10
0
 20
0
 30
0
  0
VERTEX
  8
LAYER_5
 10
103.5652
 20
96.7156
  0
VERTEX
  8
LAYER_5
 10
104.1891
 20
96.7156
  0
SEQEND
  0
POLYLINE
  8
LAYER_5
 40
0.0353
 41
0.0353
 66
1
 10
0
 20
0
 30
0
  0
VERTEX
  8
LAYER_5
 10
104.5011
 20
96.7156
  0
VERTEX
  8
LAYER_5
 10
105.125
 20
96.7156
  0
SEQEND
  0
POLYLINE
  8
LAYER_5
 40
0.0353
 41
0.0353
 66
1
 10
0
 20
0
 30
0
  0
VERTEX
  8
LAYER_5
 10
105.4369
 20
96.7156
  0
VERTEX
  8
LAYER_5
 10
106.0997
 20
96.7156
  0
SEQEND
  0
POLYLINE
  8
LAYER_5
 40
0.0353
 41
0.0353
 66
1
 10
0
 20
0
 30
0
  0
VERTEX
  8
LAYER_5
 10
106.4118
 20
96.7156
  0
VERTEX
  8
LAYER_5
 10
107.0357
 20
96.7156
  0
SEQEND
  0
POLYLINE
  8
LAYER_5
 40
0.0353
 41
0.0353
 66
1
 10
0
 20
0
 30
0
  0
VERTEX
  8
LAYER_5
 10
107.3477
 20
96.7156
  0
VERTEX
  8
LAYER_5
 10
107.9716
 20
96.7156
  0
SEQEND
  0
POLYLINE
  8
LAYER_5
 40
0.0353
 41
0.0353
 66
1
 10
0
 20
0
 30
0
  0
VERTEX
  8
LAYER_5
 10
101.4595
 20
91.7633
  0
VERTEX
  8
LAYER_5
 10
101.8105
 20
91.7633
  0
SEQEND
  0
POLYLINE
  8
LAYER_5
 40
0.0353
 41
0.0353
 66
1
 10
0
 20
0
 30
0
  0
VERTEX
  8
LAYER_5
 10
102.1224
 20
91.7633
  0
VERTEX
  8
LAYER_5
 10
102.7463
 20
91.7633
  0
SEQEND
  0
POLYLINE
  8
LAYER_5
 40
0.0353
 41
0.0353
 66
1
 10
0
 20
0
 30
0
  0
VERTEX
  8
LAYER_5
 10
103.0583
 20
91.7633
  0
VERTEX
  8
LAYER_5
 10
103.721
 20
91.7633
  0
SEQEND
  0
POLYLINE
  8
LAYER_5
 40
0.0353
 41
0.0353
 66
1
 10
0
 20
0
 30
0
  0
VERTEX
  8
LAYER_5
 10
104.0331
 20
91.7633
  0
VERTEX
  8
LAYER_5
 10
104.657
 20
91.7633
  0
SEQEND
  0
POLYLINE
  8
LAYER_5
 40
0.0353
 41
0.0353
 66
1
 10
0
 20
0
 30
0
  0
VERTEX
  8
LAYER_5
 10
104.969
 20
91.7633
  0
VERTEX
  8
LAYER_5
 10
105.5929
 20
91.7633
  0
SEQEND
  0
POLYLINE
  8
LAYER_5
 40
0.0353
 41
0.0353
 66
1
 10
0
 20
0
 30
0
  0
VERTEX
  8
LAYER_5
 10
105.9439
 20
91.7633
  0
VERTEX
  8
LAYER_5
 10
106.256
 20
91.7633
  0
SEQEND
  0
POLYLINE
  8
LAYER_5
 40
0.0353
 41
0.0353
 66
1
 10
0
 20
0
 30
0
  0
VERTEX
  8
LAYER_5
 10
126.1431
 20
108.2191
  0
VERTEX
  8
LAYER_5
 10
126.1043
 20
108.2191
  0
VERTEX
  8
LAYER_5
 10
126.0651
 20
108.2191
  0
VERTEX
  8
LAYER_5
 10
126.0651
 20
108.1802
  0
VERTEX
  8
LAYER_5
 10
126.0263
 20
108.1802
  0
VERTEX
  8
LAYER_5
 10
126.0263
 20
108.141
  0
VERTEX
  8
LAYER_5
 10
125.9871
 20
108.141
  0
VERTEX
  8
LAYER_5
 10
125.9871
 20
108.1022
  0
SEQEND
  0
POLYLINE
  8
LAYER_5
 40
0.1446
 41
0.1446
 66
1
 10
0
 20
0
 30
0
  0
VERTEX
  8
LAYER_5
 10
126.1431
 20
108.2191
  0
VERTEX
  8
LAYER_5
 10
126.338
 20
108.2191
  0
SEQEND
  0
INSERT
  8
LAYER_5
  2
AIGNBL0501004D
 10
0
 20
0
 30
0
  0
POLYLINE
  8
LAYER_5
 40
0.1446
 41
0.1446
 66
1
 10
0
 20
0
 30
0
  0
VERTEX
  8
LAYER_5
 10
126.4941
 20
108.0241
  0
VERTEX
  8
LAYER_5
 10
123.6475
 20
93.752
  0
SEQEND
  0
INSERT
  8
LAYER_5
  2
AIGNBL0501004E
 10
0
 20
0
 30
0
  0
POLYLINE
  8
LAYER_5
 40
0.1446
 41
0.1446
 66
1
 10
0
 20
0
 30
0
  0
VERTEX
  8
LAYER_5
 10
122.9846
 20
91.9193
  0
VERTEX
  8
LAYER_5
 10
123.0234
 20
91.9193
  0
SEQEND
  0
INSERT
  8
LAYER_5
  2
AIGNBL0501004F
 10
0
 20
0
 30
0
  0
POLYLINE
  8
LAYER_5
 40
0.1446
 41
0.1446
 66
1
 10
0
 20
0
 30
0
  0
VERTEX
  8
LAYER_5
 10
122.5166
 20
91.4123
  0
SEQEND
  0
POLYLINE
  8
LAYER_5
 40
0.0353
 41
0.0353
 66
1
 10
0
 20
0
 30
0
  0
VERTEX
  8
LAYER_5
 10
115.6536
 20
93.3621
  0
VERTEX
  8
LAYER_5
 10
115.7704
 20
93.986
  0
SEQEND
  0
POLYLINE
  8
LAYER_5
 40
0.0353
 41
0.0353
 66
1
 10
0
 20
0
 30
0
  0
VERTEX
  8
LAYER_5
 10
115.8485
 20
94.298
  0
VERTEX
  8
LAYER_5
 10
115.9654
 20
94.9219
  0
SEQEND
  0
POLYLINE
  8
LAYER_5
 40
0.0353
 41
0.0353
 66
1
 10
0
 20
0
 30
0
  0
VERTEX
  8
LAYER_5
 10
116.0045
 20
95.2338
  0
VERTEX
  8
LAYER_5
 10
116.1214
 20
95.8577
  0
SEQEND
  0
POLYLINE
  8
LAYER_5
 40
0.0353
 41
0.0353
 66
1
 10
0
 20
0
 30
0
  0
VERTEX
  8
LAYER_5
 10
116.1995
 20
96.1697
  0
VERTEX
  8
LAYER_5
 10
116.3164
 20
96.7936
  0
SEQEND
  0
POLYLINE
  8
LAYER_5
 40
0.0353
 41
0.0353
 66
1
 10
0
 20
0
 30
0
  0
VERTEX
  8
LAYER_5
 10
116.3555
 20
97.1056
  0
VERTEX
  8
LAYER_5
 10
116.4723
 20
97.7295
  0
SEQEND
  0
POLYLINE
  8
LAYER_5
 40
0.0353
 41
0.0353
 66
1
 10
0
 20
0
 30
0
  0
VERTEX
  8
LAYER_5
 10
116.5504
 20
98.0415
  0
VERTEX
  8
LAYER_5
 10
116.6673
 20
98.6654
  0
SEQEND
  0
POLYLINE
  8
LAYER_5
 40
0.0353
 41
0.0353
 66
1
 10
0
 20
0
 30
0
  0
VERTEX
  8
LAYER_5
 10
116.7064
 20
98.9773
  0
VERTEX
  8
LAYER_5
 10
116.8233
 20
99.6012
  0
SEQEND
  0
POLYLINE
  8
LAYER_5
 40
0.0353
 41
0.0353
 66
1
 10
0
 20
0
 30
0
  0
VERTEX
  8
LAYER_5
 10
116.9014
 20
99.9132
  0
VERTEX
  8
LAYER_5
 10
117.0183
 20
100.5371
  0
SEQEND
  0
POLYLINE
  8
LAYER_5
 40
0.0353
 41
0.0353
 66
1
 10
0
 20
0
 30
0
  0
VERTEX
  8
LAYER_5
 10
117.0964
 20
100.8491
  0
VERTEX
  8
LAYER_5
 10
117.2132
 20
101.473
  0
SEQEND
  0
POLYLINE
  8
LAYER_5
 40
0.0353
 41
0.0353
 66
1
 10
0
 20
0
 30
0
  0
VERTEX
  8
LAYER_5
 10
117.2523
 20
101.7849
  0
VERTEX
  8
LAYER_5
 10
117.3692
 20
102.4088
  0
SEQEND
  0
POLYLINE
  8
LAYER_5
 40
0.0353
 41
0.0353
 66
1
 10
0
 20
0
 30
0
  0
VERTEX
  8
LAYER_5
 10
117.4473
 20
102.7208
  0
VERTEX
  8
LAYER_5
 10
117.5642
 20
103.3447
  0
SEQEND
  0
POLYLINE
  8
LAYER_5
 40
0.0353
 41
0.0353
 66
1
 10
0
 20
0
 30
0
  0
VERTEX
  8
LAYER_5
 10
117.6033
 20
103.6567
  0
VERTEX
  8
LAYER_5
 10
117.7201
 20
104.2806
  0
SEQEND
  0
POLYLINE
  8
LAYER_5
 40
0.0353
 41
0.0353
 66
1
 10
0
 20
0
 30
0
  0
VERTEX
  8
LAYER_5
 10
117.7983
 20
104.5925
  0
VERTEX
  8
LAYER_5
 10
117.9151
 20
105.2165
  0
SEQEND
  0
POLYLINE
  8
LAYER_5
 40
0.0353
 41
0.0353
 66
1
 10
0
 20
0
 30
0
  0
VERTEX
  8
LAYER_5
 10
117.9543
 20
105.5284
  0
VERTEX
  8
LAYER_5
 10
118.0711
 20
106.1523
  0
VERTEX
  8
LAYER_5
 10
118.1103
 20
106.2304
  0
VERTEX
  8
LAYER_5
 10
118.1103
 20
106.2692
  0
VERTEX
  8
LAYER_5
 10
118.1492
 20
106.3084
  0
VERTEX
  8
LAYER_5
 10
118.1884
 20
106.3472
  0
VERTEX
  8
LAYER_5
 10
118.2272
 20
106.3864
  0
VERTEX
  8
LAYER_5
 10
118.2664
 20
106.3864
  0
VERTEX
  8
LAYER_5
 10
118.3441
 20
106.3864
  0
VERTEX
  8
LAYER_5
 10
118.3833
 20
106.4253
  0
VERTEX
  8
LAYER_5
 10
119.319
 20
106.4253
  0
SEQEND
  0
POLYLINE
  8
LAYER_5
 40
0.0353
 41
0.0353
 66
1
 10
0
 20
0
 30
0
  0
VERTEX
  8
LAYER_5
 10
122.7896
 20
106.4253
  0
VERTEX
  8
LAYER_5
 10
123.1406
 20
106.4253
  0
SEQEND
  0
POLYLINE
  8
LAYER_5
 40
0.0353
 41
0.0353
 66
1
 10
0
 20
0
 30
0
  0
VERTEX
  8
LAYER_5
 10
123.4525
 20
106.4253
  0
VERTEX
  8
LAYER_5
 10
124.1152
 20
106.4253
  0
SEQEND
  0
POLYLINE
  8
LAYER_5
 40
0.0353
 41
0.0353
 66
1
 10
0
 20
0
 30
0
  0
VERTEX
  8
LAYER_5
 10
124.4274
 20
106.4253
  0
VERTEX
  8
LAYER_5
 10
124.7784
 20
106.4253
  0
VERTEX
  8
LAYER_5
 10
124.8172
 20
106.3865
  0
VERTEX
  8
LAYER_5
 10
124.8952
 20
106.3865
  0
VERTEX
  8
LAYER_5
 10
124.9344
 20
106.3473
  0
VERTEX
  8
LAYER_5
 10
124.9733
 20
106.3084
  0
VERTEX
  8
LAYER_5
 10
125.0125
 20
106.2692
  0
VERTEX
  8
LAYER_5
 10
125.0513
 20
106.2304
  0
VERTEX
  8
LAYER_5
 10
125.0513
 20
106.1524
  0
VERTEX
  8
LAYER_5
 10
125.0513
 20
106.1135
  0
VERTEX
  8
LAYER_5
 10
125.0513
 20
106.0355
  0
VERTEX
  8
LAYER_5
 10
124.9344
 20
105.2943
  0
SEQEND
  0
POLYLINE
  8
LAYER_5
 40
0.0353
 41
0.0353
 66
1
 10
0
 20
0
 30
0
  0
VERTEX
  8
LAYER_5
 10
124.8563
 20
104.9825
  0
VERTEX
  8
LAYER_5
 10
124.7394
 20
104.3586
  0
SEQEND
  0
POLYLINE
  8
LAYER_5
 40
0.0353
 41
0.0353
 66
1
 10
0
 20
0
 30
0
  0
VERTEX
  8
LAYER_5
 10
124.6613
 20
104.0466
  0
VERTEX
  8
LAYER_5
 10
124.5445
 20
103.4615
  0
SEQEND
  0
POLYLINE
  8
LAYER_5
 40
0.0353
 41
0.0353
 66
1
 10
0
 20
0
 30
0
  0
VERTEX
  8
LAYER_5
 10
124.5054
 20
103.1497
  0
VERTEX
  8
LAYER_5
 10
124.3493
 20
102.5258
  0
SEQEND
  0
POLYLINE
  8
LAYER_5
 40
0.0353
 41
0.0353
 66
1
 10
0
 20
0
 30
0
  0
VERTEX
  8
LAYER_5
 10
124.3104
 20
102.2139
  0
VERTEX
  8
LAYER_5
 10
124.1935
 20
101.59
  0
SEQEND
  0
POLYLINE
  8
LAYER_5
 40
0.0353
 41
0.0353
 66
1
 10
0
 20
0
 30
0
  0
VERTEX
  8
LAYER_5
 10
124.1154
 20
101.278
  0
VERTEX
  8
LAYER_5
 10
123.9986
 20
100.6541
  0
SEQEND
  0
POLYLINE
  8
LAYER_5
 40
0.0353
 41
0.0353
 66
1
 10
0
 20
0
 30
0
  0
VERTEX
  8
LAYER_5
 10
123.9204
 20
100.3421
  0
VERTEX
  8
LAYER_5
 10
123.8036
 20
99.7182
  0
SEQEND
  0
POLYLINE
  8
LAYER_5
 40
0.0353
 41
0.0353
 66
1
 10
0
 20
0
 30
0
  0
VERTEX
  8
LAYER_5
 10
123.7645
 20
99.4063
  0
VERTEX
  8
LAYER_5
 10
123.6084
 20
98.7824
  0
SEQEND
  0
POLYLINE
  8
LAYER_5
 40
0.0353
 41
0.0353
 66
1
 10
0
 20
0
 30
0
  0
VERTEX
  8
LAYER_5
 10
123.5695
 20
98.4704
  0
VERTEX
  8
LAYER_5
 10
123.4526
 20
97.8465
  0
SEQEND
  0
POLYLINE
  8
LAYER_5
 40
0.0353
 41
0.0353
 66
1
 10
0
 20
0
 30
0
  0
VERTEX
  8
LAYER_5
 10
123.3745
 20
97.5345
  0
VERTEX
  8
LAYER_5
 10
123.2577
 20
96.9106
  0
SEQEND
  0
POLYLINE
  8
LAYER_5
 40
0.0353
 41
0.0353
 66
1
 10
0
 20
0
 30
0
  0
VERTEX
  8
LAYER_5
 10
123.1795
 20
96.5987
  0
VERTEX
  8
LAYER_5
 10
123.0627
 20
95.9747
  0
SEQEND
  0
POLYLINE
  8
LAYER_5
 40
0.0353
 41
0.0353
 66
1
 10
0
 20
0
 30
0
  0
VERTEX
  8
LAYER_5
 10
123.0236
 20
95.6628
  0
VERTEX
  8
LAYER_5
 10
122.8675
 20
95.0388
  0
SEQEND
  0
POLYLINE
  8
LAYER_5
 40
0.0353
 41
0.0353
 66
1
 10
0
 20
0
 30
0
  0
VERTEX
  8
LAYER_5
 10
122.8286
 20
94.7269
  0
VERTEX
  8
LAYER_5
 10
122.6725
 20
93.9861
  0
SEQEND
  0
POLYLINE
  8
LAYER_5
 40
0.0353
 41
0.0353
 66
1
 10
0
 20
0
 30
0
  0
VERTEX
  8
LAYER_5
 10
121.4638
 20
91.4123
  0
VERTEX
  8
LAYER_5
 10
121.6587
 20
91.6853
  0
SEQEND
  0
POLYLINE
  8
LAYER_5
 40
0.0353
 41
0.0353
 66
1
 10
0
 20
0
 30
0
  0
VERTEX
  8
LAYER_5
 10
121.8537
 20
91.9193
  0
VERTEX
  8
LAYER_5
 10
121.8926
 20
91.9581
  0
VERTEX
  8
LAYER_5
 10
122.2047
 20
92.4652
  0
SEQEND
  0
POLYLINE
  8
LAYER_5
 40
0.0353
 41
0.0353
 66
1
 10
0
 20
0
 30
0
  0
VERTEX
  8
LAYER_5
 10
122.3217
 20
92.7382
  0
VERTEX
  8
LAYER_5
 10
122.5166
 20
93.284
  0
VERTEX
  8
LAYER_5
 10
122.5558
 20
93.3621
  0
SEQEND
  0
POLYLINE
  8
LAYER_5
 40
0.0353
 41
0.0353
 66
1
 10
0
 20
0
 30
0
  0
VERTEX
  8
LAYER_5
 10
122.5946
 20
93.674
  0
VERTEX
  8
LAYER_5
 10
122.6726
 20
93.9858
  0
SEQEND
  0
POLYLINE
  8
LAYER_5
 40
0.0353
 41
0.0353
 66
1
 10
0
 20
0
 30
0
  0
VERTEX
  8
LAYER_5
 10
114.2497
 20
107.4002
  0
VERTEX
  8
LAYER_5
 10
114.7176
 20
107.4002
  0
SEQEND
  0
POLYLINE
  8
LAYER_5
 40
0.0353
 41
0.0353
 66
1
 10
0
 20
0
 30
0
  0
VERTEX
  8
LAYER_5
 10
115.0297
 20
107.4002
  0
VERTEX
  8
LAYER_5
 10
115.6536
 20
107.4002
  0
SEQEND
  0
POLYLINE
  8
LAYER_5
 40
0.0353
 41
0.0353
 66
1
 10
0
 20
0
 30
0
  0
VERTEX
  8
LAYER_5
 10
115.9655
 20
107.4002
  0
VERTEX
  8
LAYER_5
 10
116.6283
 20
107.4002
  0
SEQEND
  0
POLYLINE
  8
LAYER_5
 40
0.0353
 41
0.0353
 66
1
 10
0
 20
0
 30
0
  0
VERTEX
  8
LAYER_5
 10
116.9404
 20
107.4002
  0
VERTEX
  8
LAYER_5
 10
117.5643
 20
107.4002
  0
SEQEND
  0
POLYLINE
  8
LAYER_5
 40
0.0353
 41
0.0353
 66
1
 10
0
 20
0
 30
0
  0
VERTEX
  8
LAYER_5
 10
117.8763
 20
107.4002
  0
VERTEX
  8
LAYER_5
 10
118.539
 20
107.4002
  0
SEQEND
  0
POLYLINE
  8
LAYER_5
 40
0.0353
 41
0.0353
 66
1
 10
0
 20
0
 30
0
  0
VERTEX
  8
LAYER_5
 10
118.8511
 20
107.4002
  0
VERTEX
  8
LAYER_5
 10
119.319
 20
107.4002
  0
SEQEND
  0
POLYLINE
  8
LAYER_5
 40
0.0353
 41
0.0353
 66
1
 10
0
 20
0
 30
0
  0
VERTEX
  8
LAYER_5
 10
122.7896
 20
107.4002
  0
VERTEX
  8
LAYER_5
 10
123.4915
 20
107.4002
  0
SEQEND
  0
POLYLINE
  8
LAYER_5
 40
0.0353
 41
0.0353
 66
1
 10
0
 20
0
 30
0
  0
VERTEX
  8
LAYER_5
 10
123.8035
 20
107.4002
  0
VERTEX
  8
LAYER_5
 10
124.4274
 20
107.4002
  0
SEQEND
  0
POLYLINE
  8
LAYER_5
 40
0.0353
 41
0.0353
 66
1
 10
0
 20
0
 30
0
  0
VERTEX
  8
LAYER_5
 10
124.7393
 20
107.4002
  0
VERTEX
  8
LAYER_5
 10
125.4413
 20
107.4002
  0
VERTEX
  8
LAYER_5
 10
125.5582
 20
107.439
  0
VERTEX
  8
LAYER_5
 10
125.6362
 20
107.4782
  0
VERTEX
  8
LAYER_5
 10
125.7142
 20
107.5562
  0
VERTEX
  8
LAYER_5
 10
125.7923
 20
107.6343
  0
VERTEX
  8
LAYER_5
 10
125.8311
 20
107.7119
  0
VERTEX
  8
LAYER_5
 10
125.9091
 20
107.8292
  0
SEQEND
  0
POLYLINE
  8
LAYER_5
 40
0.0353
 41
0.0353
 66
1
 10
0
 20
0
 30
0
  0
VERTEX
  8
LAYER_5
 10
113.1579
 20
96.2867
  0
VERTEX
  8
LAYER_5
 10
113.2748
 20
96.8326
  0
SEQEND
  0
POLYLINE
  8
LAYER_5
 40
0.0353
 41
0.0353
 66
1
 10
0
 20
0
 30
0
  0
VERTEX
  8
LAYER_5
 10
113.3139
 20
97.1446
  0
VERTEX
  8
LAYER_5
 10
113.4307
 20
97.7685
  0
SEQEND
  0
POLYLINE
  8
LAYER_5
 40
0.0353
 41
0.0353
 66
1
 10
0
 20
0
 30
0
  0
VERTEX
  8
LAYER_5
 10
113.5088
 20
98.0804
  0
VERTEX
  8
LAYER_5
 10
113.6257
 20
98.7044
  0
SEQEND
  0
POLYLINE
  8
LAYER_5
 40
0.0353
 41
0.0353
 66
1
 10
0
 20
0
 30
0
  0
VERTEX
  8
LAYER_5
 10
113.6648
 20
99.0163
  0
VERTEX
  8
LAYER_5
 10
113.7817
 20
99.6402
  0
SEQEND
  0
POLYLINE
  8
LAYER_5
 40
0.0353
 41
0.0353
 66
1
 10
0
 20
0
 30
0
  0
VERTEX
  8
LAYER_5
 10
113.8598
 20
99.9522
  0
VERTEX
  8
LAYER_5
 10
113.9767
 20
100.5761
  0
SEQEND
  0
POLYLINE
  8
LAYER_5
 40
0.0353
 41
0.0353
 66
1
 10
0
 20
0
 30
0
  0
VERTEX
  8
LAYER_5
 10
114.0158
 20
100.8881
  0
VERTEX
  8
LAYER_5
 10
114.1326
 20
101.512
  0
SEQEND
  0
POLYLINE
  8
LAYER_5
 40
0.0353
 41
0.0353
 66
1
 10
0
 20
0
 30
0
  0
VERTEX
  8
LAYER_5
 10
114.2108
 20
101.8239
  0
VERTEX
  8
LAYER_5
 10
114.3276
 20
102.4479
  0
SEQEND
  0
POLYLINE
  8
LAYER_5
 40
0.0353
 41
0.0353
 66
1
 10
0
 20
0
 30
0
  0
VERTEX
  8
LAYER_5
 10
114.3667
 20
102.7598
  0
VERTEX
  8
LAYER_5
 10
114.4836
 20
103.3837
  0
SEQEND
  0
POLYLINE
  8
LAYER_5
 40
0.0353
 41
0.0353
 66
1
 10
0
 20
0
 30
0
  0
VERTEX
  8
LAYER_5
 10
114.5617
 20
103.6957
  0
VERTEX
  8
LAYER_5
 10
114.6786
 20
104.2027
  0
SEQEND
  0
POLYLINE
  8
LAYER_5
 40
0.0353
 41
0.0353
 66
1
 10
0
 20
0
 30
0
  0
VERTEX
  8
LAYER_5
 10
115.7706
 20
106.4253
  0
VERTEX
  8
LAYER_5
 10
115.3415
 20
106.4253
  0
VERTEX
  8
LAYER_5
 10
115.2635
 20
106.3865
  0
VERTEX
  8
LAYER_5
 10
115.2247
 20
106.3865
  0
VERTEX
  8
LAYER_5
 10
115.1855
 20
106.3865
  0
VERTEX
  8
LAYER_5
 10
115.1466
 20
106.3473
  0
VERTEX
  8
LAYER_5
 10
115.1078
 20
106.3084
  0
VERTEX
  8
LAYER_5
 10
115.0686
 20
106.2692
  0
VERTEX
  8
LAYER_5
 10
115.0298
 20
106.1912
  0
SEQEND
  0
POLYLINE
  8
LAYER_5
 40
0.0353
 41
0.0353
 66
1
 10
0
 20
0
 30
0
  0
VERTEX
  8
LAYER_5
 10
116.0825
 20
106.4253
  0
VERTEX
  8
LAYER_5
 10
116.5115
 20
106.4253
  0
VERTEX
  8
LAYER_5
 10
116.5895
 20
106.3865
  0
VERTEX
  8
LAYER_5
 10
116.7064
 20
106.3865
  0
VERTEX
  8
LAYER_5
 10
116.7845
 20
106.3084
  0
VERTEX
  8
LAYER_5
 10
116.8625
 20
106.2692
  0
VERTEX
  8
LAYER_5
 10
116.9405
 20
106.1912
  0
VERTEX
  8
LAYER_5
 10
116.9794
 20
106.1135
  0
VERTEX
  8
LAYER_5
 10
117.0186
 20
105.9963
  0
VERTEX
  8
LAYER_5
 10
117.0186
 20
105.9183
  0
VERTEX
  8
LAYER_5
 10
117.0186
 20
105.8014
  0
VERTEX
  8
LAYER_5
 10
116.9013
 20
105.3724
  0
SEQEND
  0
POLYLINE
  8
LAYER_5
 40
0.0353
 41
0.0353
 66
1
 10
0
 20
0
 30
0
  0
VERTEX
  8
LAYER_5
 10
116.8624
 20
105.0605
  0
VERTEX
  8
LAYER_5
 10
116.7455
 20
104.4366
  0
SEQEND
  0
POLYLINE
  8
LAYER_5
 40
0.0353
 41
0.0353
 66
1
 10
0
 20
0
 30
0
  0
VERTEX
  8
LAYER_5
 10
116.6674
 20
104.1246
  0
VERTEX
  8
LAYER_5
 10
116.5505
 20
103.5007
  0
SEQEND
  0
POLYLINE
  8
LAYER_5
 40
0.0353
 41
0.0353
 66
1
 10
0
 20
0
 30
0
  0
VERTEX
  8
LAYER_5
 10
116.5115
 20
103.1888
  0
VERTEX
  8
LAYER_5
 10
116.3946
 20
102.5648
  0
SEQEND
  0
POLYLINE
  8
LAYER_5
 40
0.0353
 41
0.0353
 66
1
 10
0
 20
0
 30
0
  0
VERTEX
  8
LAYER_5
 10
116.3165
 20
102.2529
  0
VERTEX
  8
LAYER_5
 10
116.1996
 20
101.6289
  0
SEQEND
  0
POLYLINE
  8
LAYER_5
 40
0.0353
 41
0.0353
 66
1
 10
0
 20
0
 30
0
  0
VERTEX
  8
LAYER_5
 10
116.1605
 20
101.317
  0
VERTEX
  8
LAYER_5
 10
116.0436
 20
100.6931
  0
SEQEND
  0
POLYLINE
  8
LAYER_5
 40
0.0353
 41
0.0353
 66
1
 10
0
 20
0
 30
0
  0
VERTEX
  8
LAYER_5
 10
115.9655
 20
100.3811
  0
VERTEX
  8
LAYER_5
 10
115.8487
 20
99.7572
  0
SEQEND
  0
POLYLINE
  8
LAYER_5
 40
0.0353
 41
0.0353
 66
1
 10
0
 20
0
 30
0
  0
VERTEX
  8
LAYER_5
 10
115.8095
 20
99.4453
  0
VERTEX
  8
LAYER_5
 10
115.6927
 20
98.8213
  0
SEQEND
  0
POLYLINE
  8
LAYER_5
 40
0.0353
 41
0.0353
 66
1
 10
0
 20
0
 30
0
  0
VERTEX
  8
LAYER_5
 10
115.6146
 20
98.5094
  0
VERTEX
  8
LAYER_5
 10
115.4977
 20
97.8855
  0
SEQEND
  0
POLYLINE
  8
LAYER_5
 40
0.0353
 41
0.0353
 66
1
 10
0
 20
0
 30
0
  0
VERTEX
  8
LAYER_5
 10
115.4196
 20
97.5735
  0
VERTEX
  8
LAYER_5
 10
115.3027
 20
96.9496
  0
SEQEND
  0
POLYLINE
  8
LAYER_5
 40
0.0353
 41
0.0353
 66
1
 10
0
 20
0
 30
0
  0
VERTEX
  8
LAYER_5
 10
115.2636
 20
96.6376
  0
VERTEX
  8
LAYER_5
 10
115.1467
 20
96.0137
  0
SEQEND
  0
POLYLINE
  8
LAYER_5
 40
0.0353
 41
0.0353
 66
1
 10
0
 20
0
 30
0
  0
VERTEX
  8
LAYER_5
 10
115.0686
 20
95.7018
  0
VERTEX
  8
LAYER_5
 10
114.9518
 20
95.0778
  0
SEQEND
  0
POLYLINE
  8
LAYER_5
 40
0.0353
 41
0.0353
 66
1
 10
0
 20
0
 30
0
  0
VERTEX
  8
LAYER_5
 10
114.9126
 20
94.7659
  0
VERTEX
  8
LAYER_5
 10
114.8346
 20
94.298
  0
SEQEND
  0
POLYLINE
  8
LAYER_5
 40
0.1446
 41
0.1446
 66
1
 10
0
 20
0
 30
0
  0
VERTEX
  8
LAYER_5
 10
81.6111
 20
108.2191
  0
VERTEX
  8
LAYER_5
 10
126.143
 20
108.2191
  0
SEQEND
  0
POLYLINE
  8
LAYER_5
 40
0.0353
 41
0.0353
 66
1
 10
0
 20
0
 30
0
  0
VERTEX
  8
LAYER_5
 10
112.261
 20
96.8716
  0
VERTEX
  8
LAYER_5
 10
112.3779
 20
97.5735
  0
SEQEND
  0
POLYLINE
  8
LAYER_5
 40
0.0353
 41
0.0353
 66
1
 10
0
 20
0
 30
0
  0
VERTEX
  8
LAYER_5
 10
112.456
 20
97.8855
  0
VERTEX
  8
LAYER_5
 10
112.5729
 20
98.5094
  0
SEQEND
  0
POLYLINE
  8
LAYER_5
 40
0.0353
 41
0.0353
 66
1
 10
0
 20
0
 30
0
  0
VERTEX
  8
LAYER_5
 10
112.612
 20
98.8213
  0
VERTEX
  8
LAYER_5
 10
112.7289
 20
99.4453
  0
SEQEND
  0
POLYLINE
  8
LAYER_5
 40
0.0353
 41
0.0353
 66
1
 10
0
 20
0
 30
0
  0
VERTEX
  8
LAYER_5
 10
112.8069
 20
99.7572
  0
VERTEX
  8
LAYER_5
 10
112.9238
 20
100.3811
  0
SEQEND
  0
POLYLINE
  8
LAYER_5
 40
0.0353
 41
0.0353
 66
1
 10
0
 20
0
 30
0
  0
VERTEX
  8
LAYER_5
 10
112.9629
 20
100.6931
  0
VERTEX
  8
LAYER_5
 10
113.0798
 20
101.317
  0
SEQEND
  0
POLYLINE
  8
LAYER_5
 40
0.0353
 41
0.0353
 66
1
 10
0
 20
0
 30
0
  0
VERTEX
  8
LAYER_5
 10
113.1579
 20
101.629
  0
VERTEX
  8
LAYER_5
 10
113.2748
 20
102.2529
  0
SEQEND
  0
POLYLINE
  8
LAYER_5
 40
0.0353
 41
0.0353
 66
1
 10
0
 20
0
 30
0
  0
VERTEX
  8
LAYER_5
 10
113.3139
 20
102.5648
  0
VERTEX
  8
LAYER_5
 10
113.4699
 20
103.1888
  0
SEQEND
  0
POLYLINE
  8
LAYER_5
 40
0.0353
 41
0.0353
 66
1
 10
0
 20
0
 30
0
  0
VERTEX
  8
LAYER_5
 10
113.5088
 20
103.5007
  0
VERTEX
  8
LAYER_5
 10
113.6257
 20
104.2027
  0
SEQEND
  0
POLYLINE
  8
LAYER_5
 40
0.0353
 41
0.0353
 66
1
 10
0
 20
0
 30
0
  0
VERTEX
  8
LAYER_5
 10
114.0158
 20
106.1914
  0
VERTEX
  8
LAYER_5
 10
114.0938
 20
106.6592
  0
SEQEND
  0
POLYLINE
  8
LAYER_5
 40
0.0353
 41
0.0353
 66
1
 10
0
 20
0
 30
0
  0
VERTEX
  8
LAYER_5
 10
114.1717
 20
106.9712
  0
VERTEX
  8
LAYER_5
 10
114.2498
 20
107.4002
  0
SEQEND
  0
POLYLINE
  8
LAYER_5
 40
0.0353
 41
0.0353
 66
1
 10
0
 20
0
 30
0
  0
VERTEX
  8
LAYER_5
 10
112.69
 20
95.8967
  0
VERTEX
  8
LAYER_5
 10
112.768
 20
95.8967
  0
VERTEX
  8
LAYER_5
 10
112.8849
 20
95.9356
  0
VERTEX
  8
LAYER_5
 10
112.9629
 20
95.9748
  0
VERTEX
  8
LAYER_5
 10
113.0409
 20
96.0528
  0
VERTEX
  8
LAYER_5
 10
113.0798
 20
96.1308
  0
VERTEX
  8
LAYER_5
 10
113.119
 20
96.2085
  0
VERTEX
  8
LAYER_5
 10
113.1578
 20
96.2865
  0
SEQEND
  0
POLYLINE
  8
LAYER_5
 40
0.0353
 41
0.0353
 66
1
 10
0
 20
0
 30
0
  0
VERTEX
  8
LAYER_5
 10
114.4057
 20
93.908
  0
VERTEX
  8
LAYER_5
 10
114.4838
 20
93.9468
  0
VERTEX
  8
LAYER_5
 10
114.5618
 20
93.9468
  0
VERTEX
  8
LAYER_5
 10
114.6398
 20
94.0249
  0
VERTEX
  8
LAYER_5
 10
114.7175
 20
94.0641
  0
VERTEX
  8
LAYER_5
 10
114.7567
 20
94.1421
  0
VERTEX
  8
LAYER_5
 10
114.7955
 20
94.2198
  0
VERTEX
  8
LAYER_5
 10
114.8347
 20
94.2978
  0
SEQEND
  0
POLYLINE
  8
LAYER_5
 40
0.0353
 41
0.0353
 66
1
 10
0
 20
0
 30
0
  0
VERTEX
  8
LAYER_5
 10
115.2246
 20
92.9332
  0
VERTEX
  8
LAYER_5
 10
115.3027
 20
92.972
  0
VERTEX
  8
LAYER_5
 10
115.3807
 20
93.0112
  0
VERTEX
  8
LAYER_5
 10
115.4587
 20
93.05
  0
VERTEX
  8
LAYER_5
 10
115.5364
 20
93.0892
  0
VERTEX
  8
LAYER_5
 10
115.5756
 20
93.1673
  0
VERTEX
  8
LAYER_5
 10
115.6144
 20
93.2449
  0
VERTEX
  8
LAYER_5
 10
115.6536
 20
93.3622
  0
SEQEND
  0
POLYLINE
  8
LAYER_5
 40
0.0353
 41
0.0353
 66
1
 10
0
 20
0
 30
0
  0
VERTEX
  8
LAYER_5
 10
119.3191
 20
107.4002
  0
VERTEX
  8
LAYER_5
 10
119.3191
 20
107.0492
  0
SEQEND
  0
POLYLINE
  8
LAYER_5
 40
0.0353
 41
0.0353
 66
1
 10
0
 20
0
 30
0
  0
VERTEX
  8
LAYER_5
 10
119.3191
 20
106.7373
  0
VERTEX
  8
LAYER_5
 10
119.3191
 20
106.4251
  0
SEQEND
  0
POLYLINE
  8
LAYER_5
 40
0.0353
 41
0.0353
 66
1
 10
0
 20
0
 30
0
  0
VERTEX
  8
LAYER_5
 10
122.7896
 20
107.4002
  0
VERTEX
  8
LAYER_5
 10
122.7896
 20
107.0492
  0
SEQEND
  0
POLYLINE
  8
LAYER_5
 40
0.0353
 41
0.0353
 66
1
 10
0
 20
0
 30
0
  0
VERTEX
  8
LAYER_5
 10
122.7896
 20
106.7373
  0
VERTEX
  8
LAYER_5
 10
122.7896
 20
106.4251
  0
SEQEND
  0
POLYLINE
  8
LAYER_5
 40
0.0353
 41
0.0353
 66
1
 10
0
 20
0
 30
0
  0
VERTEX
  8
LAYER_5
 10
125.9092
 20
107.8291
  0
VERTEX
  8
LAYER_5
 10
125.9872
 20
108.102
  0
SEQEND
  0
POLYLINE
  8
LAYER_5
 40
0.0353
 41
0.0353
 66
1
 10
0
 20
0
 30
0
  0
VERTEX
  8
LAYER_5
 10
114.6787
 20
104.2026
  0
VERTEX
  8
LAYER_5
 10
114.3277
 20
104.2026
  0
SEQEND
  0
POLYLINE
  8
LAYER_5
 40
0.0353
 41
0.0353
 66
1
 10
0
 20
0
 30
0
  0
VERTEX
  8
LAYER_5
 10
113.9768
 20
104.2026
  0
VERTEX
  8
LAYER_5
 10
113.6258
 20
104.2026
  0
SEQEND
  0
POLYLINE
  8
LAYER_5
 40
0.0353
 41
0.0353
 66
1
 10
0
 20
0
 30
0
  0
VERTEX
  8
LAYER_5
 10
115.0297
 20
106.1914
  0
VERTEX
  8
LAYER_5
 10
114.6787
 20
106.1914
  0
SEQEND
  0
POLYLINE
  8
LAYER_5
 40
0.0353
 41
0.0353
 66
1
 10
0
 20
0
 30
0
  0
VERTEX
  8
LAYER_5
 10
114.3667
 20
106.1914
  0
VERTEX
  8
LAYER_5
 10
114.0157
 20
106.1914
  0
SEQEND
  0
POLYLINE
  8
LAYER_5
 40
0.0353
 41
0.0353
 66
1
 10
0
 20
0
 30
0
  0
VERTEX
  8
LAYER_5
 10
107.2697
 20
93.0501
  0
VERTEX
  8
LAYER_5
 10
107.8156
 20
93.1282
  0
SEQEND
  0
POLYLINE
  8
LAYER_5
 40
0.0353
 41
0.0353
 66
1
 10
0
 20
0
 30
0
  0
VERTEX
  8
LAYER_5
 10
108.1276
 20
93.1671
  0
VERTEX
  8
LAYER_5
 10
108.7903
 20
93.2451
  0
SEQEND
  0
POLYLINE
  8
LAYER_5
 40
0.0353
 41
0.0353
 66
1
 10
0
 20
0
 30
0
  0
VERTEX
  8
LAYER_5
 10
109.1025
 20
93.2841
  0
VERTEX
  8
LAYER_5
 10
109.7264
 20
93.3621
  0
SEQEND
  0
POLYLINE
  8
LAYER_5
 40
0.0353
 41
0.0353
 66
1
 10
0
 20
0
 30
0
  0
VERTEX
  8
LAYER_5
 10
110.0383
 20
93.4011
  0
VERTEX
  8
LAYER_5
 10
110.6622
 20
93.4791
  0
SEQEND
  0
POLYLINE
  8
LAYER_5
 40
0.0353
 41
0.0353
 66
1
 10
0
 20
0
 30
0
  0
VERTEX
  8
LAYER_5
 10
110.9742
 20
93.5181
  0
VERTEX
  8
LAYER_5
 10
111.5981
 20
93.5961
  0
SEQEND
  0
POLYLINE
  8
LAYER_5
 40
0.0353
 41
0.0353
 66
1
 10
0
 20
0
 30
0
  0
VERTEX
  8
LAYER_5
 10
111.9101
 20
93.635
  0
VERTEX
  8
LAYER_5
 10
112.5728
 20
93.7131
  0
SEQEND
  0
POLYLINE
  8
LAYER_5
 40
0.0353
 41
0.0353
 66
1
 10
0
 20
0
 30
0
  0
VERTEX
  8
LAYER_5
 10
112.8849
 20
93.713
  0
VERTEX
  8
LAYER_5
 10
113.5088
 20
93.7911
  0
SEQEND
  0
POLYLINE
  8
LAYER_5
 40
0.0353
 41
0.0353
 66
1
 10
0
 20
0
 30
0
  0
VERTEX
  8
LAYER_5
 10
113.8208
 20
93.83
  0
VERTEX
  8
LAYER_5
 10
114.4059
 20
93.908
  0
SEQEND
  0
POLYLINE
  8
LAYER_5
 40
0.0353
 41
0.0353
 66
1
 10
0
 20
0
 30
0
  0
VERTEX
  8
LAYER_5
 10
107.2697
 20
92.0752
  0
VERTEX
  8
LAYER_5
 10
107.7767
 20
92.1141
  0
SEQEND
  0
POLYLINE
  8
LAYER_5
 40
0.0353
 41
0.0353
 66
1
 10
0
 20
0
 30
0
  0
VERTEX
  8
LAYER_5
 10
108.0886
 20
92.1532
  0
VERTEX
  8
LAYER_5
 10
108.7125
 20
92.2313
  0
SEQEND
  0
POLYLINE
  8
LAYER_5
 40
0.0353
 41
0.0353
 66
1
 10
0
 20
0
 30
0
  0
VERTEX
  8
LAYER_5
 10
109.0244
 20
92.2702
  0
VERTEX
  8
LAYER_5
 10
109.6484
 20
92.3482
  0
SEQEND
  0
POLYLINE
  8
LAYER_5
 40
0.0353
 41
0.0353
 66
1
 10
0
 20
0
 30
0
  0
VERTEX
  8
LAYER_5
 10
109.9603
 20
92.3482
  0
VERTEX
  8
LAYER_5
 10
110.6231
 20
92.4262
  0
SEQEND
  0
POLYLINE
  8
LAYER_5
 40
0.0353
 41
0.0353
 66
1
 10
0
 20
0
 30
0
  0
VERTEX
  8
LAYER_5
 10
110.9352
 20
92.4652
  0
VERTEX
  8
LAYER_5
 10
111.5591
 20
92.5432
  0
SEQEND
  0
POLYLINE
  8
LAYER_5
 40
0.0353
 41
0.0353
 66
1
 10
0
 20
0
 30
0
  0
VERTEX
  8
LAYER_5
 10
111.8711
 20
92.5822
  0
VERTEX
  8
LAYER_5
 10
112.495
 20
92.6602
  0
SEQEND
  0
POLYLINE
  8
LAYER_5
 40
0.0353
 41
0.0353
 66
1
 10
0
 20
0
 30
0
  0
VERTEX
  8
LAYER_5
 10
112.8069
 20
92.6602
  0
VERTEX
  8
LAYER_5
 10
113.4308
 20
92.7382
  0
SEQEND
  0
POLYLINE
  8
LAYER_5
 40
0.0353
 41
0.0353
 66
1
 10
0
 20
0
 30
0
  0
VERTEX
  8
LAYER_5
 10
113.7818
 20
92.7772
  0
VERTEX
  8
LAYER_5
 10
114.4057
 20
92.8552
  0
SEQEND
  0
POLYLINE
  8
LAYER_5
 40
0.0353
 41
0.0353
 66
1
 10
0
 20
0
 30
0
  0
VERTEX
  8
LAYER_5
 10
114.7177
 20
92.8941
  0
VERTEX
  8
LAYER_5
 10
115.2247
 20
92.933
  0
SEQEND
  0
POLYLINE
  8
LAYER_5
 40
0.0353
 41
0.0353
 66
1
 10
0
 20
0
 30
0
  0
VERTEX
  8
LAYER_5
 10
107.2697
 20
93.0501
  0
VERTEX
  8
LAYER_5
 10
106.9187
 20
93.0501
  0
SEQEND
  0
POLYLINE
  8
LAYER_5
 40
0.0353
 41
0.0353
 66
1
 10
0
 20
0
 30
0
  0
VERTEX
  8
LAYER_5
 10
106.6068
 20
93.0501
  0
VERTEX
  8
LAYER_5
 10
106.2558
 20
93.0501
  0
SEQEND
  0
POLYLINE
  8
LAYER_5
 40
0.0353
 41
0.0353
 66
1
 10
0
 20
0
 30
0
  0
VERTEX
  8
LAYER_5
 10
107.2697
 20
94.064
  0
VERTEX
  8
LAYER_5
 10
106.9187
 20
94.064
  0
SEQEND
  0
POLYLINE
  8
LAYER_5
 40
0.0353
 41
0.0353
 66
1
 10
0
 20
0
 30
0
  0
VERTEX
  8
LAYER_5
 10
106.6068
 20
94.064
  0
VERTEX
  8
LAYER_5
 10
106.2558
 20
94.064
  0
SEQEND
  0
POLYLINE
  8
LAYER_5
 40
0.0353
 41
0.0353
 66
1
 10
0
 20
0
 30
0
  0
VERTEX
  8
LAYER_5
 10
113.6258
 20
104.2026
  0
VERTEX
  8
LAYER_5
 10
113.7038
 20
104.5924
  0
SEQEND
  0
POLYLINE
  8
LAYER_5
 40
0.0353
 41
0.0353
 66
1
 10
0
 20
0
 30
0
  0
VERTEX
  8
LAYER_5
 10
113.7818
 20
104.9045
  0
VERTEX
  8
LAYER_5
 10
113.8987
 20
105.5284
  0
SEQEND
  0
POLYLINE
  8
LAYER_5
 40
0.0353
 41
0.0353
 66
1
 10
0
 20
0
 30
0
  0
VERTEX
  8
LAYER_5
 10
113.9378
 20
105.8404
  0
VERTEX
  8
LAYER_5
 10
114.0158
 20
106.1914
  0
SEQEND
  0
POLYLINE
  8
LAYER_5
 40
0.0353
 41
0.0353
 66
1
 10
0
 20
0
 30
0
  0
VERTEX
  8
LAYER_5
 10
114.6787
 20
104.2026
  0
VERTEX
  8
LAYER_5
 10
114.7175
 20
104.5924
  0
SEQEND
  0
POLYLINE
  8
LAYER_5
 40
0.0353
 41
0.0353
 66
1
 10
0
 20
0
 30
0
  0
VERTEX
  8
LAYER_5
 10
114.7957
 20
104.9045
  0
VERTEX
  8
LAYER_5
 10
114.9125
 20
105.5284
  0
SEQEND
  0
POLYLINE
  8
LAYER_5
 40
0.0353
 41
0.0353
 66
1
 10
0
 20
0
 30
0
  0
VERTEX
  8
LAYER_5
 10
114.9906
 20
105.8404
  0
VERTEX
  8
LAYER_5
 10
115.0295
 20
106.1914
  0
SEQEND
  0
POLYLINE
  8
LAYER_5
 40
0.0353
 41
0.0353
 66
1
 10
0
 20
0
 30
0
  0
VERTEX
  8
LAYER_5
 10
106.2558
 20
93.0501
  0
VERTEX
  8
LAYER_5
 10
106.2558
 20
93.4011
  0
SEQEND
  0
POLYLINE
  8
LAYER_5
 40
0.0353
 41
0.0353
 66
1
 10
0
 20
0
 30
0
  0
VERTEX
  8
LAYER_5
 10
106.2558
 20
93.713
  0
VERTEX
  8
LAYER_5
 10
106.2558
 20
94.064
  0
SEQEND
  0
POLYLINE
  8
LAYER_5
 40
0.0353
 41
0.0353
 66
1
 10
0
 20
0
 30
0
  0
VERTEX
  8
LAYER_5
 10
107.2697
 20
94.064
  0
VERTEX
  8
LAYER_5
 10
107.2697
 20
93.713
  0
SEQEND
  0
POLYLINE
  8
LAYER_5
 40
0.0353
 41
0.0353
 66
1
 10
0
 20
0
 30
0
  0
VERTEX
  8
LAYER_5
 10
107.2697
 20
93.4011
  0
VERTEX
  8
LAYER_5
 10
107.2697
 20
93.0501
  0
SEQEND
  0
POLYLINE
  8
LAYER_5
 40
0.0353
 41
0.0353
 66
1
 10
0
 20
0
 30
0
  0
VERTEX
  8
LAYER_5
 10
119.3191
 20
107.4002
  0
VERTEX
  8
LAYER_5
 10
119.943
 20
107.4002
  0
SEQEND
  0
POLYLINE
  8
LAYER_5
 40
0.0353
 41
0.0353
 66
1
 10
0
 20
0
 30
0
  0
VERTEX
  8
LAYER_5
 10
120.255
 20
107.4002
  0
VERTEX
  8
LAYER_5
 10
120.8789
 20
107.4002
  0
SEQEND
  0
POLYLINE
  8
LAYER_5
 40
0.0353
 41
0.0353
 66
1
 10
0
 20
0
 30
0
  0
VERTEX
  8
LAYER_5
 10
121.1908
 20
107.4002
  0
VERTEX
  8
LAYER_5
 10
121.8536
 20
107.4002
  0
SEQEND
  0
POLYLINE
  8
LAYER_5
 40
0.0353
 41
0.0353
 66
1
 10
0
 20
0
 30
0
  0
VERTEX
  8
LAYER_5
 10
122.1657
 20
107.4002
  0
VERTEX
  8
LAYER_5
 10
122.7896
 20
107.4002
  0
SEQEND
  0
POLYLINE
  8
LAYER_5
 40
0.0353
 41
0.0353
 66
1
 10
0
 20
0
 30
0
  0
VERTEX
  8
LAYER_5
 10
119.3191
 20
106.4253
  0
VERTEX
  8
LAYER_5
 10
119.943
 20
106.4253
  0
SEQEND
  0
POLYLINE
  8
LAYER_5
 40
0.0353
 41
0.0353
 66
1
 10
0
 20
0
 30
0
  0
VERTEX
  8
LAYER_5
 10
120.255
 20
106.4253
  0
VERTEX
  8
LAYER_5
 10
120.8789
 20
106.4253
  0
SEQEND
  0
POLYLINE
  8
LAYER_5
 40
0.0353
 41
0.0353
 66
1
 10
0
 20
0
 30
0
  0
VERTEX
  8
LAYER_5
 10
121.1908
 20
106.4253
  0
VERTEX
  8
LAYER_5
 10
121.8536
 20
106.4253
  0
SEQEND
  0
POLYLINE
  8
LAYER_5
 40
0.0353
 41
0.0353
 66
1
 10
0
 20
0
 30
0
  0
VERTEX
  8
LAYER_5
 10
122.1657
 20
106.4253
  0
VERTEX
  8
LAYER_5
 10
122.7896
 20
106.4253
  0
SEQEND
  0
POLYLINE
  8
LAYER_5
 40
0.0353
 41
0.0353
 66
1
 10
0
 20
0
 30
0
  0
VERTEX
  8
LAYER_5
 10
84.9257
 20
91.4513
  0
VERTEX
  8
LAYER_5
 10
74.6313
 20
91.4513
  0
SEQEND
  0
POLYLINE
  8
LAYER_5
 40
0.0353
 41
0.0353
 66
1
 10
0
 20
0
 30
0
  0
VERTEX
  8
LAYER_5
 10
81.0652
 20
108.2191
  0
VERTEX
  8
LAYER_5
 10
74.6311
 20
108.2191
  0
SEQEND
  0
POLYLINE
  8
LAYER_5
 40
0.0353
 41
0.0353
 66
1
 10
0
 20
0
 30
0
  0
VERTEX
  8
LAYER_5
 10
74.7481
 20
92.9332
  0
VERTEX
  8
LAYER_5
 10
74.7481
 20
97.1057
  0
SEQEND
  0
POLYLINE
  8
LAYER_5
 40
0.0353
 41
0.0353
 66
1
 10
0
 20
0
 30
0
  0
VERTEX
  8
LAYER_5
 10
74.7481
 20
106.6983
  0
VERTEX
  8
LAYER_5
 10
74.7481
 20
102.5257
  0
SEQEND
  0
POLYLINE
  8
LAYER_5
 40
0.05
 41
0.05
 66
1
 10
0
 20
0
 30
0
 70
1
  0
VERTEX
  8
LAYER_5
 10
74.5141
 20
92.9332
  0
VERTEX
  8
LAYER_5
 10
75.0211
 20
92.9332
  0
VERTEX
  8
LAYER_5
 10
74.7482
 20
91.4512
  0
SEQEND
  0
POLYLINE
  8
LAYER_5
 66
1
 10
0
 20
0
 30
0
 70
1
  0
VERTEX
  8
LAYER_5
 10
74.5141
 20
92.9332
  0
VERTEX
  8
LAYER_5
 10
75.0211
 20
92.9332
  0
VERTEX
  8
LAYER_5
 10
74.7482
 20
91.4512
  0
SEQEND
  0
POLYLINE
  8
LAYER_5
 40
0.05
 41
0.05
 66
1
 10
0
 20
0
 30
0
 70
1
  0
VERTEX
  8
LAYER_5
 10
74.5141
 20
106.6983
  0
VERTEX
  8
LAYER_5
 10
75.0211
 20
106.6983
  0
VERTEX
  8
LAYER_5
 10
74.7482
 20
108.219
  0
SEQEND
  0
POLYLINE
  8
LAYER_5
 66
1
 10
0
 20
0
 30
0
 70
1
  0
VERTEX
  8
LAYER_5
 10
74.5141
 20
106.6983
  0
VERTEX
  8
LAYER_5
 10
75.0211
 20
106.6983
  0
VERTEX
  8
LAYER_5
 10
74.7482
 20
108.219
  0
SEQEND
  0
POLYLINE
  8
LAYER_5
 40
0.0353
 41
0.0353
 66
1
 10
0
 20
0
 30
0
  0
VERTEX
  8
LAYER_5
 10
29.9041
 20
178.4096
  0
VERTEX
  8
LAYER_5
 10
33.6865
 20
178.4096
  0
SEQEND
  0
POLYLINE
  8
LAYER_5
 40
0.0353
 41
0.0353
 66
1
 10
0
 20
0
 30
0
  0
VERTEX
  8
LAYER_5
 10
29.9041
 20
189.4061
  0
VERTEX
  8
LAYER_5
 10
33.6865
 20
189.4061
  0
SEQEND
  0
POLYLINE
  8
LAYER_5
 40
0.0353
 41
0.0353
 66
1
 10
0
 20
0
 30
0
  0
VERTEX
  8
LAYER_5
 10
33.5696
 20
179.9304
  0
VERTEX
  8
LAYER_5
 10
33.5696
 20
181.217
  0
SEQEND
  0
POLYLINE
  8
LAYER_5
 40
0.0353
 41
0.0353
 66
1
 10
0
 20
0
 30
0
  0
VERTEX
  8
LAYER_5
 10
33.5696
 20
187.9243
  0
VERTEX
  8
LAYER_5
 10
33.5696
 20
186.6376
  0
SEQEND
  0
POLYLINE
  8
LAYER_5
 40
0.05
 41
0.05
 66
1
 10
0
 20
0
 30
0
 70
1
  0
VERTEX
  8
LAYER_5
 10
33.3357
 20
179.9304
  0
VERTEX
  8
LAYER_5
 10
33.8427
 20
179.9304
  0
VERTEX
  8
LAYER_5
 10
33.5698
 20
178.4096
  0
SEQEND
  0
POLYLINE
  8
LAYER_5
 66
1
 10
0
 20
0
 30
0
 70
1
  0
VERTEX
  8
LAYER_5
 10
33.3357
 20
179.9304
  0
VERTEX
  8
LAYER_5
 10
33.8427
 20
179.9304
  0
VERTEX
  8
LAYER_5
 10
33.5698
 20
178.4096
  0
SEQEND
  0
POLYLINE
  8
LAYER_5
 40
0.05
 41
0.05
 66
1
 10
0
 20
0
 30
0
 70
1
  0
VERTEX
  8
LAYER_5
 10
33.3357
 20
187.9243
  0
VERTEX
  8
LAYER_5
 10
33.8427
 20
187.9243
  0
VERTEX
  8
LAYER_5
 10
33.5698
 20
189.4063
  0
SEQEND
  0
POLYLINE
  8
LAYER_5
 66
1
 10
0
 20
0
 30
0
 70
1
  0
VERTEX
  8
LAYER_5
 10
33.3357
 20
187.9243
  0
VERTEX
  8
LAYER_5
 10
33.8427
 20
187.9243
  0
VERTEX
  8
LAYER_5
 10
33.5698
 20
189.4063
  0
SEQEND
  0
POLYLINE
  8
LAYER_5
 40
0.0353
 41
0.0353
 66
1
 10
0
 20
0
 30
0
  0
VERTEX
  8
LAYER_5
 10
29.9041
 20
185.2337
  0
VERTEX
  8
LAYER_5
 10
29.943
 20
185.2337
  0
SEQEND
  0
POLYLINE
  8
LAYER_5
 40
0.0353
 41
0.0353
 66
1
 10
0
 20
0
 30
0
  0
VERTEX
  8
LAYER_5
 10
29.9041
 20
189.4061
  0
VERTEX
  8
LAYER_5
 10
29.943
 20
189.4061
  0
SEQEND
  0
POLYLINE
  8
LAYER_5
 40
0.0353
 41
0.0353
 66
1
 10
0
 20
0
 30
0
  0
VERTEX
  8
LAYER_5
 10
29.8261
 20
183.7129
  0
VERTEX
  8
LAYER_5
 10
29.8261
 20
182.2309
  0
SEQEND
  0
POLYLINE
  8
LAYER_5
 40
0.0353
 41
0.0353
 66
1
 10
0
 20
0
 30
0
  0
VERTEX
  8
LAYER_5
 10
29.8261
 20
190.9269
  0
VERTEX
  8
LAYER_5
 10
29.8261
 20
192.4088
  0
SEQEND
  0
POLYLINE
  8
LAYER_5
 40
0.0353
 41
0.0353
 66
1
 10
0
 20
0
 30
0
  0
VERTEX
  8
LAYER_5
 10
29.8261
 20
185.2337
  0
VERTEX
  8
LAYER_5
 10
29.8261
 20
185.4286
  0
SEQEND
  0
POLYLINE
  8
LAYER_5
 40
0.0353
 41
0.0353
 66
1
 10
0
 20
0
 30
0
  0
VERTEX
  8
LAYER_5
 10
29.8261
 20
189.4061
  0
VERTEX
  8
LAYER_5
 10
29.8261
 20
189.2112
  0
SEQEND
  0
POLYLINE
  8
LAYER_5
 40
0.05
 41
0.05
 66
1
 10
0
 20
0
 30
0
 70
1
  0
VERTEX
  8
LAYER_5
 10
29.5922
 20
183.7129
  0
VERTEX
  8
LAYER_5
 10
30.0992
 20
183.7129
  0
VERTEX
  8
LAYER_5
 10
29.8263
 20
185.2336
  0
SEQEND
  0
POLYLINE
  8
LAYER_5
 66
1
 10
0
 20
0
 30
0
 70
1
  0
VERTEX
  8
LAYER_5
 10
29.5922
 20
183.7129
  0
VERTEX
  8
LAYER_5
 10
30.0992
 20
183.7129
  0
VERTEX
  8
LAYER_5
 10
29.8263
 20
185.2336
  0
SEQEND
  0
POLYLINE
  8
LAYER_5
 40
0.05
 41
0.05
 66
1
 10
0
 20
0
 30
0
 70
1
  0
VERTEX
  8
LAYER_5
 10
29.5922
 20
190.9269
  0
VERTEX
  8
LAYER_5
 10
30.0992
 20
190.9269
  0
VERTEX
  8
LAYER_5
 10
29.8263
 20
189.4061
  0
SEQEND
  0
POLYLINE
  8
LAYER_5
 66
1
 10
0
 20
0
 30
0
 70
1
  0
VERTEX
  8
LAYER_5
 10
29.5922
 20
190.9269
  0
VERTEX
  8
LAYER_5
 10
30.0992
 20
190.9269
  0
VERTEX
  8
LAYER_5
 10
29.8263
 20
189.4061
  0
SEQEND
  0
POLYLINE
  8
LAYER_5
 40
0.0353
 41
0.0353
 66
1
 10
0
 20
0
 30
0
  0
VERTEX
  8
LAYER_5
 10
33.9986
 20
96.7546
  0
VERTEX
  8
LAYER_5
 10
34.0374
 20
96.7546
  0
SEQEND
  0
POLYLINE
  8
LAYER_5
 40
0.0353
 41
0.0353
 66
1
 10
0
 20
0
 30
0
  0
VERTEX
  8
LAYER_5
 10
33.9986
 20
108.2581
  0
VERTEX
  8
LAYER_5
 10
34.0374
 20
108.2581
  0
SEQEND
  0
POLYLINE
  8
LAYER_5
 40
0.0353
 41
0.0353
 66
1
 10
0
 20
0
 30
0
  0
VERTEX
  8
LAYER_5
 10
33.9206
 20
98.2364
  0
VERTEX
  8
LAYER_5
 10
33.9206
 20
99.796
  0
SEQEND
  0
POLYLINE
  8
LAYER_5
 40
0.0353
 41
0.0353
 66
1
 10
0
 20
0
 30
0
  0
VERTEX
  8
LAYER_5
 10
33.9206
 20
106.7373
  0
VERTEX
  8
LAYER_5
 10
33.9206
 20
105.2165
  0
SEQEND
  0
POLYLINE
  8
LAYER_5
 40
0.05
 41
0.05
 66
1
 10
0
 20
0
 30
0
 70
1
  0
VERTEX
  8
LAYER_5
 10
33.6866
 20
98.2364
  0
VERTEX
  8
LAYER_5
 10
34.1937
 20
98.2364
  0
VERTEX
  8
LAYER_5
 10
33.9207
 20
96.7545
  0
SEQEND
  0
POLYLINE
  8
LAYER_5
 66
1
 10
0
 20
0
 30
0
 70
1
  0
VERTEX
  8
LAYER_5
 10
33.6866
 20
98.2364
  0
VERTEX
  8
LAYER_5
 10
34.1937
 20
98.2364
  0
VERTEX
  8
LAYER_5
 10
33.9207
 20
96.7545
  0
SEQEND
  0
POLYLINE
  8
LAYER_5
 40
0.05
 41
0.05
 66
1
 10
0
 20
0
 30
0
 70
1
  0
VERTEX
  8
LAYER_5
 10
33.6866
 20
106.7373
  0
VERTEX
  8
LAYER_5
 10
34.1937
 20
106.7373
  0
VERTEX
  8
LAYER_5
 10
33.9207
 20
108.2581
  0
SEQEND
  0
POLYLINE
  8
LAYER_5
 66
1
 10
0
 20
0
 30
0
 70
1
  0
VERTEX
  8
LAYER_5
 10
33.6866
 20
106.7373
  0
VERTEX
  8
LAYER_5
 10
34.1937
 20
106.7373
  0
VERTEX
  8
LAYER_5
 10
33.9207
 20
108.2581
  0
SEQEND
  0
POLYLINE
  8
LAYER_5
 40
0.0353
 41
0.0353
 66
1
 10
0
 20
0
 30
0
  0
VERTEX
  8
LAYER_5
 10
7.3262
 20
108.2971
  0
VERTEX
  8
LAYER_5
 10
7.3262
 20
111.2606
  0
SEQEND
  0
POLYLINE
  8
LAYER_5
 40
0.0353
 41
0.0353
 66
1
 10
0
 20
0
 30
0
  0
VERTEX
  8
LAYER_5
 10
52.3261
 20
108.2971
  0
VERTEX
  8
LAYER_5
 10
52.3261
 20
111.2606
  0
SEQEND
  0
POLYLINE
  8
LAYER_5
 40
0.0353
 41
0.0353
 66
1
 10
0
 20
0
 30
0
  0
VERTEX
  8
LAYER_5
 10
8.847
 20
111.1437
  0
VERTEX
  8
LAYER_5
 10
25.0472
 20
111.1437
  0
SEQEND
  0
POLYLINE
  8
LAYER_5
 40
0.0353
 41
0.0353
 66
1
 10
0
 20
0
 30
0
  0
VERTEX
  8
LAYER_5
 10
50.8443
 20
111.1437
  0
VERTEX
  8
LAYER_5
 10
35.1014
 20
111.1437
  0
SEQEND
  0
POLYLINE
  8
LAYER_5
 40
0.05
 41
0.05
 66
1
 10
0
 20
0
 30
0
 70
1
  0
VERTEX
  8
LAYER_5
 10
8.847
 20
111.3776
  0
VERTEX
  8
LAYER_5
 10
8.847
 20
110.8706
  0
VERTEX
  8
LAYER_5
 10
7.3262
 20
111.1435
  0
SEQEND
  0
POLYLINE
  8
LAYER_5
 66
1
 10
0
 20
0
 30
0
 70
1
  0
VERTEX
  8
LAYER_5
 10
8.847
 20
111.3776
  0
VERTEX
  8
LAYER_5
 10
8.847
 20
110.8706
  0
VERTEX
  8
LAYER_5
 10
7.3262
 20
111.1435
  0
SEQEND
  0
POLYLINE
  8
LAYER_5
 40
0.05
 41
0.05
 66
1
 10
0
 20
0
 30
0
 70
1
  0
VERTEX
  8
LAYER_5
 10
50.8443
 20
111.3776
  0
VERTEX
  8
LAYER_5
 10
50.8443
 20
110.8706
  0
VERTEX
  8
LAYER_5
 10
52.3262
 20
111.1435
  0
SEQEND
  0
POLYLINE
  8
LAYER_5
 66
1
 10
0
 20
0
 30
0
 70
1
  0
VERTEX
  8
LAYER_5
 10
50.8443
 20
111.3776
  0
VERTEX
  8
LAYER_5
 10
50.8443
 20
110.8706
  0
VERTEX
  8
LAYER_5
 10
52.3262
 20
111.1435
  0
SEQEND
  0
POLYLINE
  8
LAYER_5
 40
0.0353
 41
0.0353
 66
1
 10
0
 20
0
 30
0
  0
VERTEX
  8
LAYER_5
 10
81.3772
 20
108.2581
  0
VERTEX
  8
LAYER_5
 10
81.3772
 20
111.2216
  0
SEQEND
  0
POLYLINE
  8
LAYER_5
 40
0.0353
 41
0.0353
 66
1
 10
0
 20
0
 30
0
  0
VERTEX
  8
LAYER_5
 10
126.3771
 20
108.2581
  0
VERTEX
  8
LAYER_5
 10
126.3771
 20
111.2216
  0
SEQEND
  0
POLYLINE
  8
LAYER_5
 40
0.0353
 41
0.0353
 66
1
 10
0
 20
0
 30
0
  0
VERTEX
  8
LAYER_5
 10
82.859
 20
111.1047
  0
VERTEX
  8
LAYER_5
 10
99.7185
 20
111.1047
  0
SEQEND
  0
POLYLINE
  8
LAYER_5
 40
0.0353
 41
0.0353
 66
1
 10
0
 20
0
 30
0
  0
VERTEX
  8
LAYER_5
 10
124.8563
 20
111.1047
  0
VERTEX
  8
LAYER_5
 10
107.95
 20
111.1047
  0
SEQEND
  0
POLYLINE
  8
LAYER_5
 40
0.05
 41
0.05
 66
1
 10
0
 20
0
 30
0
 70
1
  0
VERTEX
  8
LAYER_5
 10
82.859
 20
111.3387
  0
VERTEX
  8
LAYER_5
 10
82.859
 20
110.8708
  0
VERTEX
  8
LAYER_5
 10
81.377
 20
111.1045
  0
SEQEND
  0
POLYLINE
  8
LAYER_5
 66
1
 10
0
 20
0
 30
0
 70
1
  0
VERTEX
  8
LAYER_5
 10
82.859
 20
111.3387
  0
VERTEX
  8
LAYER_5
 10
82.859
 20
110.8708
  0
VERTEX
  8
LAYER_5
 10
81.377
 20
111.1045
  0
SEQEND
  0
POLYLINE
  8
LAYER_5
 40
0.05
 41
0.05
 66
1
 10
0
 20
0
 30
0
 70
1
  0
VERTEX
  8
LAYER_5
 10
124.8563
 20
111.3387
  0
VERTEX
  8
LAYER_5
 10
124.8563
 20
110.8708
  0
VERTEX
  8
LAYER_5
 10
126.3771
 20
111.1045
  0
SEQEND
  0
POLYLINE
  8
LAYER_5
 66
1
 10
0
 20
0
 30
0
 70
1
  0
VERTEX
  8
LAYER_5
 10
124.8563
 20
111.3387
  0
VERTEX
  8
LAYER_5
 10
124.8563
 20
110.8708
  0
VERTEX
  8
LAYER_5
 10
126.3771
 20
111.1045
  0
SEQEND
  0
POLYLINE
  8
LAYER_5
 40
0.6914
 41
0.6914
 66
1
 10
0
 20
0
 30
0
  0
VERTEX
  8
LAYER_5
 10
57.1615
 20
91.4513
  0
VERTEX
  8
LAYER_5
 10
2.5297
 20
91.4513
  0
SEQEND
  0
POLYLINE
  8
LAYER_5
 40
0.6914
 41
0.6914
 66
1
 10
0
 20
0
 30
0
  0
VERTEX
  8
LAYER_5
 10
131.0565
 20
149.5925
  0
VERTEX
  8
LAYER_5
 10
76.4248
 20
149.5925
  0
SEQEND
  0
POLYLINE
  8
LAYER_5
 40
0.6914
 41
0.6914
 66
1
 10
0
 20
0
 30
0
  0
VERTEX
  8
LAYER_5
 10
131.0565
 20
91.4513
  0
VERTEX
  8
LAYER_5
 10
74.2801
 20
91.4513
  0
SEQEND
  0
POLYLINE
  8
LAYER_5
 40
0.0353
 41
0.0353
 66
1
 10
0
 20
0
 30
0
  0
VERTEX
  8
LAYER_5
 10
34.6615
 20
165.7753
  0
VERTEX
  8
LAYER_5
 10
33.2968
 20
166.3604
  0
SEQEND
  0
POLYLINE
  8
LAYER_5
 40
0.0353
 41
0.0353
 66
1
 10
0
 20
0
 30
0
  0
VERTEX
  8
LAYER_5
 10
26.3556
 20
169.4798
  0
VERTEX
  8
LAYER_5
 10
24.9909
 20
170.1037
  0
SEQEND
  0
TEXT
  8
LAYER_5
 10
34.06
 20
164.5831
 11
34.06
 21
164.5831
 40
2.8433
 41
0.5
 50
336.0060957
  1
45
  0
POLYLINE
  8
LAYER_5
 40
0.0353
 41
0.0353
 66
1
 10
0
 20
0
 30
0
  0
VERTEX
  8
LAYER_5
 10
27.7204
 20
168.8559
  0
VERTEX
  8
LAYER_5
 10
31.9318
 20
166.9841
  0
SEQEND
  0
POLYLINE
  8
LAYER_5
 40
0.05
 41
0.05
 66
1
 10
0
 20
0
 30
0
 70
1
  0
VERTEX
  8
LAYER_5
 10
26.4726
 20
169.7138
  0
VERTEX
  8
LAYER_5
 10
26.2385
 20
169.2459
  0
VERTEX
  8
LAYER_5
 10
27.7204
 20
168.8557
  0
SEQEND
  0
POLYLINE
  8
LAYER_5
 66
1
 10
0
 20
0
 30
0
 70
1
  0
VERTEX
  8
LAYER_5
 10
26.4726
 20
169.7138
  0
VERTEX
  8
LAYER_5
 10
26.2385
 20
169.2459
  0
VERTEX
  8
LAYER_5
 10
27.7204
 20
168.8557
  0
SEQEND
  0
POLYLINE
  8
LAYER_5
 40
0.05
 41
0.05
 66
1
 10
0
 20
0
 30
0
 70
1
  0
VERTEX
  8
LAYER_5
 10
33.4136
 20
166.5942
  0
VERTEX
  8
LAYER_5
 10
33.1795
 20
166.1263
  0
VERTEX
  8
LAYER_5
 10
31.9317
 20
166.984
  0
SEQEND
  0
POLYLINE
  8
LAYER_5
 66
1
 10
0
 20
0
 30
0
 70
1
  0
VERTEX
  8
LAYER_5
 10
33.4136
 20
166.5942
  0
VERTEX
  8
LAYER_5
 10
33.1795
 20
166.1263
  0
VERTEX
  8
LAYER_5
 10
31.9317
 20
166.984
  0
SEQEND
  0
POLYLINE
  8
LAYER_5
 40
0.0353
 41
0.0353
 66
1
 10
0
 20
0
 30
0
  0
VERTEX
  8
LAYER_5
 10
205.5459
 20
185.1721
  0
VERTEX
  8
LAYER_5
 10
205.5459
 20
193.3595
  0
SEQEND
  0
POLYLINE
  8
LAYER_5
 40
0.0353
 41
0.0353
 66
1
 10
0
 20
0
 30
0
  0
VERTEX
  8
LAYER_5
 10
195.5633
 20
185.1721
  0
VERTEX
  8
LAYER_5
 10
195.5633
 20
193.3595
  0
SEQEND
  0
POLYLINE
  8
LAYER_5
 40
0.0353
 41
0.0353
 66
1
 10
0
 20
0
 30
0
  0
VERTEX
  8
LAYER_5
 10
204.0641
 20
193.2426
  0
VERTEX
  8
LAYER_5
 10
203.2453
 20
193.2426
  0
SEQEND
  0
POLYLINE
  8
LAYER_5
 40
0.0353
 41
0.0353
 66
1
 10
0
 20
0
 30
0
  0
VERTEX
  8
LAYER_5
 10
197.0451
 20
193.2426
  0
VERTEX
  8
LAYER_5
 10
197.8639
 20
193.2426
  0
SEQEND
  0
POLYLINE
  8
LAYER_5
 40
0.05
 41
0.05
 66
1
 10
0
 20
0
 30
0
 70
1
  0
VERTEX
  8
LAYER_5
 10
204.0641
 20
193.4765
  0
VERTEX
  8
LAYER_5
 10
204.0641
 20
193.0087
  0
VERTEX
  8
LAYER_5
 10
205.5461
 20
193.2424
  0
SEQEND
  0
POLYLINE
  8
LAYER_5
 66
1
 10
0
 20
0
 30
0
 70
1
  0
VERTEX
  8
LAYER_5
 10
204.0641
 20
193.4765
  0
VERTEX
  8
LAYER_5
 10
204.0641
 20
193.0087
  0
VERTEX
  8
LAYER_5
 10
205.5461
 20
193.2424
  0
SEQEND
  0
POLYLINE
  8
LAYER_5
 40
0.05
 41
0.05
 66
1
 10
0
 20
0
 30
0
 70
1
  0
VERTEX
  8
LAYER_5
 10
197.0451
 20
193.4765
  0
VERTEX
  8
LAYER_5
 10
197.0451
 20
193.0087
  0
VERTEX
  8
LAYER_5
 10
195.5632
 20
193.2424
  0
SEQEND
  0
POLYLINE
  8
LAYER_5
 66
1
 10
0
 20
0
 30
0
 70
1
  0
VERTEX
  8
LAYER_5
 10
197.0451
 20
193.4765
  0
VERTEX
  8
LAYER_5
 10
197.0451
 20
193.0087
  0
VERTEX
  8
LAYER_5
 10
195.5632
 20
193.2424
  0
SEQEND
  0
POLYLINE
  8
LAYER_5
 40
0.0353
 41
0.0353
 66
1
 10
0
 20
0
 30
0
  0
VERTEX
  8
LAYER_5
 10
194.9459
 20
162.7586
  0
VERTEX
  8
LAYER_5
 10
190.4381
 20
162.7586
  0
SEQEND
  0
POLYLINE
  8
LAYER_5
 40
0.0353
 41
0.0353
 66
1
 10
0
 20
0
 30
0
  0
VERTEX
  8
LAYER_5
 10
190.5941
 20
182.9579
  0
VERTEX
  8
LAYER_5
 10
190.5941
 20
176.4458
  0
SEQEND
  0
POLYLINE
  8
LAYER_5
 40
0.0353
 41
0.0353
 66
1
 10
0
 20
0
 30
0
  0
VERTEX
  8
LAYER_5
 10
190.5941
 20
164.2404
  0
VERTEX
  8
LAYER_5
 10
190.5941
 20
170.7525
  0
SEQEND
  0
POLYLINE
  8
LAYER_5
 40
0.05
 41
0.05
 66
1
 10
0
 20
0
 30
0
 70
1
  0
VERTEX
  8
LAYER_5
 10
190.3211
 20
182.9579
  0
VERTEX
  8
LAYER_5
 10
190.8282
 20
182.9579
  0
VERTEX
  8
LAYER_5
 10
190.5941
 20
184.4398
  0
SEQEND
  0
POLYLINE
  8
LAYER_5
 66
1
 10
0
 20
0
 30
0
 70
1
  0
VERTEX
  8
LAYER_5
 10
190.3211
 20
182.9579
  0
VERTEX
  8
LAYER_5
 10
190.8282
 20
182.9579
  0
VERTEX
  8
LAYER_5
 10
190.5941
 20
184.4398
  0
SEQEND
  0
POLYLINE
  8
LAYER_5
 40
0.05
 41
0.05
 66
1
 10
0
 20
0
 30
0
 70
1
  0
VERTEX
  8
LAYER_5
 10
190.3211
 20
164.2404
  0
VERTEX
  8
LAYER_5
 10
190.8282
 20
164.2404
  0
VERTEX
  8
LAYER_5
 10
190.5941
 20
162.7585
  0
SEQEND
  0
POLYLINE
  8
LAYER_5
 66
1
 10
0
 20
0
 30
0
 70
1
  0
VERTEX
  8
LAYER_5
 10
190.3211
 20
164.2404
  0
VERTEX
  8
LAYER_5
 10
190.8282
 20
164.2404
  0
VERTEX
  8
LAYER_5
 10
190.5941
 20
162.7585
  0
SEQEND
  0
POLYLINE
  8
LAYER_5
 40
0.0353
 41
0.0353
 66
1
 10
0
 20
0
 30
0
  0
VERTEX
  8
LAYER_5
 10
194.9459
 20
184.4397
  0
VERTEX
  8
LAYER_5
 10
190.4381
 20
184.4397
  0
SEQEND
  0
POLYLINE
  8
LAYER_5
 40
0.0353
 41
0.0353
 66
1
 10
0
 20
0
 30
0
  0
VERTEX
  8
LAYER_5
 10
190.5941
 20
182.9579
  0
VERTEX
  8
LAYER_5
 10
190.5941
 20
181.4371
  0
SEQEND
  0
POLYLINE
  8
LAYER_5
 40
0.05
 41
0.05
 66
1
 10
0
 20
0
 30
0
 70
1
  0
VERTEX
  8
LAYER_5
 10
190.3211
 20
182.9579
  0
VERTEX
  8
LAYER_5
 10
190.8282
 20
182.9579
  0
VERTEX
  8
LAYER_5
 10
190.5941
 20
184.4398
  0
SEQEND
  0
POLYLINE
  8
LAYER_5
 66
1
 10
0
 20
0
 30
0
 70
1
  0
VERTEX
  8
LAYER_5
 10
190.3211
 20
182.9579
  0
VERTEX
  8
LAYER_5
 10
190.8282
 20
182.9579
  0
VERTEX
  8
LAYER_5
 10
190.5941
 20
184.4398
  0
SEQEND
  0
POLYLINE
  8
LAYER_5
 40
0.0353
 41
0.0353
 66
1
 10
0
 20
0
 30
0
  0
VERTEX
  8
LAYER_5
 10
194.9459
 20
162.7586
  0
VERTEX
  8
LAYER_5
 10
190.4381
 20
162.7586
  0
SEQEND
  0
POLYLINE
  8
LAYER_5
 40
0.0353
 41
0.0353
 66
1
 10
0
 20
0
 30
0
  0
VERTEX
  8
LAYER_5
 10
7.3262
 20
167.881
  0
VERTEX
  8
LAYER_5
 10
7.3262
 20
142.4565
  0
SEQEND
  0
POLYLINE
  8
LAYER_5
 40
0.0353
 41
0.0353
 66
1
 10
0
 20
0
 30
0
  0
VERTEX
  8
LAYER_5
 10
52.3261
 20
167.881
  0
VERTEX
  8
LAYER_5
 10
52.3261
 20
142.4565
  0
SEQEND
  0
POLYLINE
  8
LAYER_5
 40
0.0353
 41
0.0353
 66
1
 10
0
 20
0
 30
0
  0
VERTEX
  8
LAYER_5
 10
8.847
 20
142.5734
  0
VERTEX
  8
LAYER_5
 10
24.3441
 20
142.5734
  0
SEQEND
  0
POLYLINE
  8
LAYER_5
 40
0.0353
 41
0.0353
 66
1
 10
0
 20
0
 30
0
  0
VERTEX
  8
LAYER_5
 10
50.8443
 20
142.5734
  0
VERTEX
  8
LAYER_5
 10
32.7119
 20
142.5734
  0
SEQEND
  0
POLYLINE
  8
LAYER_5
 40
0.05
 41
0.05
 66
1
 10
0
 20
0
 30
0
 70
1
  0
VERTEX
  8
LAYER_5
 10
8.847
 20
142.8464
  0
VERTEX
  8
LAYER_5
 10
8.847
 20
142.3393
  0
VERTEX
  8
LAYER_5
 10
7.3262
 20
142.5734
  0
SEQEND
  0
POLYLINE
  8
LAYER_5
 66
1
 10
0
 20
0
 30
0
 70
1
  0
VERTEX
  8
LAYER_5
 10
8.847
 20
142.8464
  0
VERTEX
  8
LAYER_5
 10
8.847
 20
142.3393
  0
VERTEX
  8
LAYER_5
 10
7.3262
 20
142.5734
  0
SEQEND
  0
POLYLINE
  8
LAYER_5
 40
0.05
 41
0.05
 66
1
 10
0
 20
0
 30
0
 70
1
  0
VERTEX
  8
LAYER_5
 10
50.8443
 20
142.8464
  0
VERTEX
  8
LAYER_5
 10
50.8443
 20
142.3393
  0
VERTEX
  8
LAYER_5
 10
52.3262
 20
142.5734
  0
SEQEND
  0
POLYLINE
  8
LAYER_5
 66
1
 10
0
 20
0
 30
0
 70
1
  0
VERTEX
  8
LAYER_5
 10
50.8443
 20
142.8464
  0
VERTEX
  8
LAYER_5
 10
50.8443
 20
142.3393
  0
VERTEX
  8
LAYER_5
 10
52.3262
 20
142.5734
  0
SEQEND
  0
POLYLINE
  8
LAYER_5
 40
0.0353
 41
0.0353
 66
1
 10
0
 20
0
 30
0
  0
VERTEX
  8
LAYER_5
 10
29.7872
 20
185.2337
  0
VERTEX
  8
LAYER_5
 10
24.4841
 20
185.2337
  0
SEQEND
  0
POLYLINE
  8
LAYER_5
 40
0.0353
 41
0.0353
 66
1
 10
0
 20
0
 30
0
  0
VERTEX
  8
LAYER_5
 10
29.7481
 20
167.92
  0
VERTEX
  8
LAYER_5
 10
24.4839
 20
167.92
  0
SEQEND
  0
POLYLINE
  8
LAYER_5
 40
0.0353
 41
0.0353
 66
1
 10
0
 20
0
 30
0
  0
VERTEX
  8
LAYER_5
 10
24.6009
 20
183.7129
  0
VERTEX
  8
LAYER_5
 10
24.6009
 20
177.3247
  0
SEQEND
  0
POLYLINE
  8
LAYER_5
 40
0.0353
 41
0.0353
 66
1
 10
0
 20
0
 30
0
  0
VERTEX
  8
LAYER_5
 10
24.6009
 20
169.4408
  0
VERTEX
  8
LAYER_5
 10
24.6009
 20
171.2798
  0
SEQEND
  0
POLYLINE
  8
LAYER_5
 40
0.05
 41
0.05
 66
1
 10
0
 20
0
 30
0
 70
1
  0
VERTEX
  8
LAYER_5
 10
24.3669
 20
183.7129
  0
VERTEX
  8
LAYER_5
 10
24.8739
 20
183.7129
  0
VERTEX
  8
LAYER_5
 10
24.601
 20
185.2336
  0
SEQEND
  0
POLYLINE
  8
LAYER_5
 66
1
 10
0
 20
0
 30
0
 70
1
  0
VERTEX
  8
LAYER_5
 10
24.3669
 20
183.7129
  0
VERTEX
  8
LAYER_5
 10
24.8739
 20
183.7129
  0
VERTEX
  8
LAYER_5
 10
24.601
 20
185.2336
  0
SEQEND
  0
POLYLINE
  8
LAYER_5
 40
0.05
 41
0.05
 66
1
 10
0
 20
0
 30
0
 70
1
  0
VERTEX
  8
LAYER_5
 10
24.3669
 20
169.4408
  0
VERTEX
  8
LAYER_5
 10
24.8739
 20
169.4408
  0
VERTEX
  8
LAYER_5
 10
24.601
 20
167.92
  0
SEQEND
  0
POLYLINE
  8
LAYER_5
 66
1
 10
0
 20
0
 30
0
 70
1
  0
VERTEX
  8
LAYER_5
 10
24.3669
 20
169.4408
  0
VERTEX
  8
LAYER_5
 10
24.8739
 20
169.4408
  0
VERTEX
  8
LAYER_5
 10
24.601
 20
167.92
  0
SEQEND
  0
POLYLINE
  8
LAYER_5
 40
0.0353
 41
0.0353
 66
1
 10
0
 20
0
 30
0
  0
VERTEX
  8
LAYER_5
 10
103.8772
 20
91.6853
  0
VERTEX
  8
LAYER_5
 10
103.8772
 20
86.3042
  0
SEQEND
  0
POLYLINE
  8
LAYER_5
 40
0.0353
 41
0.0353
 66
1
 10
0
 20
0
 30
0
  0
VERTEX
  8
LAYER_5
 10
126.4941
 20
107.9851
  0
VERTEX
  8
LAYER_5
 10
126.4941
 20
86.3041
  0
SEQEND
  0
POLYLINE
  8
LAYER_5
 40
0.0353
 41
0.0353
 66
1
 10
0
 20
0
 30
0
  0
VERTEX
  8
LAYER_5
 10
105.359
 20
86.421
  0
VERTEX
  8
LAYER_5
 10
112.3001
 20
86.421
  0
SEQEND
  0
POLYLINE
  8
LAYER_5
 40
0.0353
 41
0.0353
 66
1
 10
0
 20
0
 30
0
  0
VERTEX
  8
LAYER_5
 10
124.9733
 20
86.421
  0
VERTEX
  8
LAYER_5
 10
118.0322
 20
86.421
  0
SEQEND
  0
POLYLINE
  8
LAYER_5
 40
0.05
 41
0.05
 66
1
 10
0
 20
0
 30
0
 70
1
  0
VERTEX
  8
LAYER_5
 10
105.359
 20
86.694
  0
VERTEX
  8
LAYER_5
 10
105.359
 20
86.1869
  0
VERTEX
  8
LAYER_5
 10
103.877
 20
86.421
  0
SEQEND
  0
POLYLINE
  8
LAYER_5
 66
1
 10
0
 20
0
 30
0
 70
1
  0
VERTEX
  8
LAYER_5
 10
105.359
 20
86.694
  0
VERTEX
  8
LAYER_5
 10
105.359
 20
86.1869
  0
VERTEX
  8
LAYER_5
 10
103.877
 20
86.421
  0
SEQEND
  0
POLYLINE
  8
LAYER_5
 40
0.05
 41
0.05
 66
1
 10
0
 20
0
 30
0
 70
1
  0
VERTEX
  8
LAYER_5
 10
124.9733
 20
86.694
  0
VERTEX
  8
LAYER_5
 10
124.9733
 20
86.1869
  0
VERTEX
  8
LAYER_5
 10
126.4941
 20
86.421
  0
SEQEND
  0
POLYLINE
  8
LAYER_5
 66
1
 10
0
 20
0
 30
0
 70
1
  0
VERTEX
  8
LAYER_5
 10
124.9733
 20
86.694
  0
VERTEX
  8
LAYER_5
 10
124.9733
 20
86.1869
  0
VERTEX
  8
LAYER_5
 10
126.4941
 20
86.421
  0
SEQEND
  0
POLYLINE
  8
LAYER_5
 40
0.0353
 41
0.0353
 66
1
 10
0
 20
0
 30
0
  0
VERTEX
  8
LAYER_5
 10
52.3261
 20
167.998
  0
VERTEX
  8
LAYER_5
 10
52.3261
 20
168.0368
  0
SEQEND
  0
POLYLINE
  8
LAYER_5
 40
0.0353
 41
0.0353
 66
1
 10
0
 20
0
 30
0
  0
VERTEX
  8
LAYER_5
 10
51.8192
 20
167.998
  0
VERTEX
  8
LAYER_5
 10
51.8192
 20
168.0368
  0
SEQEND
  0
POLYLINE
  8
LAYER_5
 40
0.0353
 41
0.0353
 66
1
 10
0
 20
0
 30
0
  0
VERTEX
  8
LAYER_5
 10
50.3374
 20
167.92
  0
VERTEX
  8
LAYER_5
 10
48.8166
 20
167.92
  0
SEQEND
  0
POLYLINE
  8
LAYER_5
 40
0.0353
 41
0.0353
 66
1
 10
0
 20
0
 30
0
  0
VERTEX
  8
LAYER_5
 10
53.8469
 20
167.92
  0
VERTEX
  8
LAYER_5
 10
57.2006
 20
167.92
  0
SEQEND
  0
POLYLINE
  8
LAYER_5
 40
0.0353
 41
0.0353
 66
1
 10
0
 20
0
 30
0
  0
VERTEX
  8
LAYER_5
 10
51.8192
 20
167.92
  0
VERTEX
  8
LAYER_5
 10
52.3262
 20
167.92
  0
SEQEND
  0
POLYLINE
  8
LAYER_5
 40
0.05
 41
0.05
 66
1
 10
0
 20
0
 30
0
 70
1
  0
VERTEX
  8
LAYER_5
 10
50.3374
 20
168.193
  0
VERTEX
  8
LAYER_5
 10
50.3374
 20
167.6859
  0
VERTEX
  8
LAYER_5
 10
51.8193
 20
167.92
  0
SEQEND
  0
POLYLINE
  8
LAYER_5
 66
1
 10
0
 20
0
 30
0
 70
1
  0
VERTEX
  8
LAYER_5
 10
50.3374
 20
168.193
  0
VERTEX
  8
LAYER_5
 10
50.3374
 20
167.6859
  0
VERTEX
  8
LAYER_5
 10
51.8193
 20
167.92
  0
SEQEND
  0
POLYLINE
  8
LAYER_5
 40
0.05
 41
0.05
 66
1
 10
0
 20
0
 30
0
 70
1
  0
VERTEX
  8
LAYER_5
 10
53.8469
 20
168.193
  0
VERTEX
  8
LAYER_5
 10
53.8469
 20
167.6859
  0
VERTEX
  8
LAYER_5
 10
52.3261
 20
167.92
  0
SEQEND
  0
POLYLINE
  8
LAYER_5
 66
1
 10
0
 20
0
 30
0
 70
1
  0
VERTEX
  8
LAYER_5
 10
53.8469
 20
168.193
  0
VERTEX
  8
LAYER_5
 10
53.8469
 20
167.6859
  0
VERTEX
  8
LAYER_5
 10
52.3261
 20
167.92
  0
SEQEND
  0
TEXT
  8
LAYER_5
 10
176.7591
 20
167.4554
 11
176.7591
 21
167.4554
 40
2.8433
 41
0.5
 50
89.99999999
  1
450
  0
TEXT
  8
LAYER_5
 10
222.7507
 20
185.8147
 11
222.7507
 21
185.8147
 40
2.8433
 41
0.5
 50
89.99999999
  1
60
  0
TEXT
  8
LAYER_5
 10
198.2935
 20
192.2948
 11
198.2935
 21
192.2948
 40
2.8433
 41
0.5
 62
1
  1
100
  0
TEXT
  8
LAYER_5
 10
191.4449
 20
171.4121
 11
191.4449
 21
171.4121
 40
2.8433
 41
0.5
 50
89.99999999
 62
1
  1
215
  0
TEXT
  8
LAYER_5
 10
197.8798
 20
141.3676
 11
197.8798
 21
141.3676
 40
2.8433
 41
0.5
  1
450
  0
POLYLINE
  8
LAYER_5
  6
AIGENLINE001
 40
0.1446
 41
0.1446
 66
1
 10
0
 20
0
 30
0
 70
128
  0
VERTEX
  8
LAYER_5
 10
220.0986
 20
167.9395
 42
0.4142135909
  0
VERTEX
  8
LAYER_5
 10
200.5985
 20
187.4397
 42
0.4142145234
  0
VERTEX
  8
LAYER_5
 10
181.0986
 20
167.9395
 42
0.4142135338
  0
VERTEX
  8
LAYER_5
 10
200.5985
 20
148.4394
 42
0.4142126016
  0
VERTEX
  8
LAYER_5
 10
220.0986
 20
167.9395
  0
SEQEND
  0
POLYLINE
  8
LAYER_5
 40
0.1446
 41
0.1446
 66
1
 10
0
 20
0
 30
0
  0
VERTEX
  8
LAYER_5
 10
223.0985
 20
167.9395
 42
0.4142141669
  0
VERTEX
  8
LAYER_5
 10
200.5987
 20
190.4393
 42
0.4142138387
  0
VERTEX
  8
LAYER_5
 10
178.0985
 20
167.9395
 42
0.4142129579
  0
VERTEX
  8
LAYER_5
 10
200.5987
 20
145.4397
 42
0.4142132862
  0
VERTEX
  8
LAYER_5
 10
223.0985
 20
167.9395
  0
SEQEND
  0
POLYLINE
  8
LAYER_5
 40
0.0353
 41
0.0353
 66
1
 10
0
 20
0
 30
0
  0
VERTEX
  8
LAYER_5
 10
200.5401
 20
190.4393
  0
VERTEX
  8
LAYER_5
 10
175.8956
 20
190.4393
  0
SEQEND
  0
POLYLINE
  8
LAYER_5
 40
0.0353
 41
0.0353
 66
1
 10
0
 20
0
 30
0
  0
VERTEX
  8
LAYER_5
 10
200.5401
 20
145.4397
  0
VERTEX
  8
LAYER_5
 10
175.8956
 20
145.4397
  0
SEQEND
  0
POLYLINE
  8
LAYER_5
 40
0.0353
 41
0.0353
 66
1
 10
0
 20
0
 30
0
  0
VERTEX
  8
LAYER_5
 10
176.0124
 20
188.9575
  0
VERTEX
  8
LAYER_5
 10
176.0124
 20
173.6127
  0
SEQEND
  0
POLYLINE
  8
LAYER_5
 40
0.0353
 41
0.0353
 66
1
 10
0
 20
0
 30
0
  0
VERTEX
  8
LAYER_5
 10
176.0124
 20
146.9605
  0
VERTEX
  8
LAYER_5
 10
176.0124
 20
165.6559
  0
SEQEND
  0
POLYLINE
  8
LAYER_5
 40
0.05
 41
0.05
 66
1
 10
0
 20
0
 30
0
 70
1
  0
VERTEX
  8
LAYER_5
 10
175.7394
 20
188.9575
  0
VERTEX
  8
LAYER_5
 10
176.2465
 20
188.9575
  0
VERTEX
  8
LAYER_5
 10
176.0124
 20
190.4395
  0
SEQEND
  0
POLYLINE
  8
LAYER_5
 66
1
 10
0
 20
0
 30
0
 70
1
  0
VERTEX
  8
LAYER_5
 10
175.7394
 20
188.9575
  0
VERTEX
  8
LAYER_5
 10
176.2465
 20
188.9575
  0
VERTEX
  8
LAYER_5
 10
176.0124
 20
190.4395
  0
SEQEND
  0
POLYLINE
  8
LAYER_5
 40
0.05
 41
0.05
 66
1
 10
0
 20
0
 30
0
 70
1
  0
VERTEX
  8
LAYER_5
 10
175.7394
 20
146.9605
  0
VERTEX
  8
LAYER_5
 10
176.2465
 20
146.9605
  0
VERTEX
  8
LAYER_5
 10
176.0124
 20
145.4397
  0
SEQEND
  0
POLYLINE
  8
LAYER_5
 66
1
 10
0
 20
0
 30
0
 70
1
  0
VERTEX
  8
LAYER_5
 10
175.7394
 20
146.9605
  0
VERTEX
  8
LAYER_5
 10
176.2465
 20
146.9605
  0
VERTEX
  8
LAYER_5
 10
176.0124
 20
145.4397
  0
SEQEND
  0
INSERT
  8
LAYER_5
  2
AIGNBL05010050
 10
0
 20
0
 30
0
  0
POLYLINE
  8
LAYER_5
 40
0.0353
 41
0.0353
 66
1
 10
0
 20
0
 30
0
  0
VERTEX
  8
LAYER_5
 10
206.2868
 20
184.4397
  0
VERTEX
  8
LAYER_5
 10
220.0309
 20
184.4397
  0
SEQEND
  0
POLYLINE
  8
LAYER_5
 40
0.0353
 41
0.0353
 66
1
 10
0
 20
0
 30
0
  0
VERTEX
  8
LAYER_5
 10
200.2014
 20
190.4392
  0
VERTEX
  8
LAYER_5
 10
220.0309
 20
190.4392
  0
SEQEND
  0
POLYLINE
  8
LAYER_5
 40
0.0353
 41
0.0353
 66
1
 10
0
 20
0
 30
0
  0
VERTEX
  8
LAYER_5
 10
219.9141
 20
185.9727
  0
VERTEX
  8
LAYER_5
 10
219.9141
 20
187.2593
  0
SEQEND
  0
POLYLINE
  8
LAYER_5
 40
0.0353
 41
0.0353
 66
1
 10
0
 20
0
 30
0
  0
VERTEX
  8
LAYER_5
 10
219.9141
 20
188.9574
  0
VERTEX
  8
LAYER_5
 10
219.9141
 20
187.1835
  0
SEQEND
  0
POLYLINE
  8
LAYER_5
 40
0.05
 41
0.05
 66
1
 10
0
 20
0
 30
0
 70
1
  0
VERTEX
  8
LAYER_5
 10
219.6801
 20
185.9727
  0
VERTEX
  8
LAYER_5
 10
220.1871
 20
185.9727
  0
VERTEX
  8
LAYER_5
 10
219.9142
 20
184.4519
  0
SEQEND
  0
POLYLINE
  8
LAYER_5
 66
1
 10
0
 20
0
 30
0
 70
1
  0
VERTEX
  8
LAYER_5
 10
219.6801
 20
185.9727
  0
VERTEX
  8
LAYER_5
 10
220.1871
 20
185.9727
  0
VERTEX
  8
LAYER_5
 10
219.9142
 20
184.4519
  0
SEQEND
  0
POLYLINE
  8
LAYER_5
 40
0.05
 41
0.05
 66
1
 10
0
 20
0
 30
0
 70
1
  0
VERTEX
  8
LAYER_5
 10
219.6801
 20
188.9574
  0
VERTEX
  8
LAYER_5
 10
220.1871
 20
188.9574
  0
VERTEX
  8
LAYER_5
 10
219.9142
 20
190.4393
  0
SEQEND
  0
POLYLINE
  8
LAYER_5
 66
1
 10
0
 20
0
 30
0
 70
1
  0
VERTEX
  8
LAYER_5
 10
219.6801
 20
188.9574
  0
VERTEX
  8
LAYER_5
 10
220.1871
 20
188.9574
  0
VERTEX
  8
LAYER_5
 10
219.9142
 20
190.4393
  0
SEQEND
  0
TEXT
  8
LAYER_5
 10
229.2716
 20
152.3883
 11
229.2716
 21
152.3883
 40
2.8433
 41
0.5
 50
89.99999999
  1
175
  0
POLYLINE
  8
LAYER_5
 40
0.0353
 41
0.0353
 66
1
 10
0
 20
0
 30
0
  0
VERTEX
  8
LAYER_5
 10
200.7306
 20
145.4397
  0
VERTEX
  8
LAYER_5
 10
226.5552
 20
145.4397
  0
SEQEND
  0
POLYLINE
  8
LAYER_5
 40
0.0353
 41
0.0353
 66
1
 10
0
 20
0
 30
0
  0
VERTEX
  8
LAYER_5
 10
206.7257
 20
162.9397
  0
VERTEX
  8
LAYER_5
 10
226.5552
 20
162.9397
  0
SEQEND
  0
POLYLINE
  8
LAYER_5
 40
0.0353
 41
0.0353
 66
1
 10
0
 20
0
 30
0
  0
VERTEX
  8
LAYER_5
 10
226.4384
 20
146.9605
  0
VERTEX
  8
LAYER_5
 10
226.4384
 20
160.2471
  0
SEQEND
  0
POLYLINE
  8
LAYER_5
 40
0.0353
 41
0.0353
 66
1
 10
0
 20
0
 30
0
  0
VERTEX
  8
LAYER_5
 10
226.4384
 20
161.4579
  0
VERTEX
  8
LAYER_5
 10
226.4384
 20
160.1712
  0
SEQEND
  0
POLYLINE
  8
LAYER_5
 40
0.05
 41
0.05
 66
1
 10
0
 20
0
 30
0
 70
1
  0
VERTEX
  8
LAYER_5
 10
226.2044
 20
146.9605
  0
VERTEX
  8
LAYER_5
 10
226.7115
 20
146.9605
  0
VERTEX
  8
LAYER_5
 10
226.4385
 20
145.4397
  0
SEQEND
  0
POLYLINE
  8
LAYER_5
 66
1
 10
0
 20
0
 30
0
 70
1
  0
VERTEX
  8
LAYER_5
 10
226.2044
 20
146.9605
  0
VERTEX
  8
LAYER_5
 10
226.7115
 20
146.9605
  0
VERTEX
  8
LAYER_5
 10
226.4385
 20
145.4397
  0
SEQEND
  0
POLYLINE
  8
LAYER_5
 40
0.05
 41
0.05
 66
1
 10
0
 20
0
 30
0
 70
1
  0
VERTEX
  8
LAYER_5
 10
226.2044
 20
161.4579
  0
VERTEX
  8
LAYER_5
 10
226.7115
 20
161.4579
  0
VERTEX
  8
LAYER_5
 10
226.4385
 20
162.9398
  0
SEQEND
  0
POLYLINE
  8
LAYER_5
 66
1
 10
0
 20
0
 30
0
 70
1
  0
VERTEX
  8
LAYER_5
 10
226.2044
 20
161.4579
  0
VERTEX
  8
LAYER_5
 10
226.7115
 20
161.4579
  0
VERTEX
  8
LAYER_5
 10
226.4385
 20
162.9398
  0
SEQEND
  0
POLYLINE
  8
LAYER_5
 40
0.0353
 41
0.0353
 66
1
 10
0
 20
0
 30
0
  0
VERTEX
  8
LAYER_5
 10
178.0985
 20
167.881
  0
VERTEX
  8
LAYER_5
 10
178.0985
 20
142.4565
  0
SEQEND
  0
POLYLINE
  8
LAYER_5
 40
0.0353
 41
0.0353
 66
1
 10
0
 20
0
 30
0
  0
VERTEX
  8
LAYER_5
 10
223.0984
 20
167.881
  0
VERTEX
  8
LAYER_5
 10
223.0984
 20
142.4565
  0
SEQEND
  0
POLYLINE
  8
LAYER_5
 40
0.0353
 41
0.0353
 66
1
 10
0
 20
0
 30
0
  0
VERTEX
  8
LAYER_5
 10
179.6193
 20
142.5734
  0
VERTEX
  8
LAYER_5
 10
195.6038
 20
142.5734
  0
SEQEND
  0
POLYLINE
  8
LAYER_5
 40
0.0353
 41
0.0353
 66
1
 10
0
 20
0
 30
0
  0
VERTEX
  8
LAYER_5
 10
221.6166
 20
142.5734
  0
VERTEX
  8
LAYER_5
 10
202.9968
 20
142.5734
  0
SEQEND
  0
POLYLINE
  8
LAYER_5
 40
0.05
 41
0.05
 66
1
 10
0
 20
0
 30
0
 70
1
  0
VERTEX
  8
LAYER_5
 10
179.6193
 20
142.8464
  0
VERTEX
  8
LAYER_5
 10
179.6193
 20
142.3393
  0
VERTEX
  8
LAYER_5
 10
178.0985
 20
142.5734
  0
SEQEND
  0
POLYLINE
  8
LAYER_5
 66
1
 10
0
 20
0
 30
0
 70
1
  0
VERTEX
  8
LAYER_5
 10
179.6193
 20
142.8464
  0
VERTEX
  8
LAYER_5
 10
179.6193
 20
142.3393
  0
VERTEX
  8
LAYER_5
 10
178.0985
 20
142.5734
  0
SEQEND
  0
POLYLINE
  8
LAYER_5
 40
0.05
 41
0.05
 66
1
 10
0
 20
0
 30
0
 70
1
  0
VERTEX
  8
LAYER_5
 10
221.6166
 20
142.8464
  0
VERTEX
  8
LAYER_5
 10
221.6166
 20
142.3393
  0
VERTEX
  8
LAYER_5
 10
223.0985
 20
142.5734
  0
SEQEND
  0
POLYLINE
  8
LAYER_5
 66
1
 10
0
 20
0
 30
0
 70
1
  0
VERTEX
  8
LAYER_5
 10
221.6166
 20
142.8464
  0
VERTEX
  8
LAYER_5
 10
221.6166
 20
142.3393
  0
VERTEX
  8
LAYER_5
 10
223.0985
 20
142.5734
  0
SEQEND
  0
POLYLINE
  8
LAYER_5
 40
0.0353
 41
0.0353
 66
1
 10
0
 20
0
 30
0
  0
VERTEX
  8
LAYER_5
 10
223.0594
 20
167.998
  0
VERTEX
  8
LAYER_5
 10
223.0594
 20
168.0368
  0
SEQEND
  0
POLYLINE
  8
LAYER_5
  6
AIGENLINE001
 40
0.1446
 41
0.1446
 62
1
 66
1
 10
0
 20
0
 30
0
 70
129
  0
VERTEX
  8
LAYER_5
 10
205.5459
 20
162.9397
  0
VERTEX
  8
LAYER_5
 10
195.5459
 20
162.9397
  0
VERTEX
  8
LAYER_5
 10
195.5459
 20
184.4397
  0
VERTEX
  8
LAYER_5
 10
205.5459
 20
184.4397
  0
SEQEND
  0
ENDSEC
  0
EOF
