  0
SECTION
  2
HEADER
  9
$ACADVER
  1
AC1009
  9
$LUNITS
 70
2
  9
$LUPREC
 70
4
  9
$LTSCALE
 40
1.0
  9
$EXTMIN
 10
70.625
 20
-279.0724
 30
0
  9
$EXTMAX
 10
259.7609
 20
-11.6279
 30
0
  0
ENDSEC
  0
SECTION
  2
TABLES
  0
TABLE
  2
LTYPE
 70
256
  0
LTYPE
  2
AIGENLINE001
 70
64
  3
generate AI->DXF Converter
 72
65
 73
2
 40
0.9384
 49
0.4692
 49
-0.4692
  0
LTYPE
  2
AIGENLINE002
 70
64
  3
generate AI->DXF Converter
 72
65
 73
2
 40
1.0685
 49
0.5342
 49
-0.5342
  0
LTYPE
  2
AIGENLINE003
 70
64
  3
generate AI->DXF Converter
 72
65
 73
2
 40
1.1122
 49
0.5561
 49
-0.5561
  0
LTYPE
  2
AIGENLINE004
 70
64
  3
generate AI->DXF Converter
 72
65
 73
2
 40
1.2095
 49
0.6048
 49
-0.6048
  0
LTYPE
  2
AIGENLINE005
 70
64
  3
generate AI->DXF Converter
 72
65
 73
2
 40
1.1792
 49
0.5896
 49
-0.5896
  0
LTYPE
  2
AIGENLINE006
 70
64
  3
generate AI->DXF Converter
 72
65
 73
2
 40
1.0657
 49
0.5328
 49
-0.5328
  0
LTYPE
  2
AIGENLINE007
 70
64
  3
generate AI->DXF Converter
 72
65
 73
2
 40
1.0966
 49
0.5483
 49
-0.5483
  0
LTYPE
  2
AIGENLINE008
 70
64
  3
generate AI->DXF Converter
 72
65
 73
4
 40
0.7056
 49
0.3528
 49
-0.3528
 49
0
 49
0
  0
ENDTAB
  0
TABLE
  2
LAYER
 70
43
  0
LAYER
  2
LAYER_1
 70
64
 62
7
  6
CONTINUOUS
  0
LAYER
  2
LAYER_2
 70
64
 62
7
  6
CONTINUOUS
  0
LAYER
  2
LAYER_3
 70
64
 62
7
  6
CONTINUOUS
  0
LAYER
  2
LAYER_4
 70
64
 62
7
  6
CONTINUOUS
  0
LAYER
  2
LAYER_5
 70
64
 62
7
  6
CONTINUOUS
  0
LAYER
  2
LAYER_6
 70
64
 62
7
  6
CONTINUOUS
  0
LAYER
  2
LAYER_7
 70
64
 62
7
  6
CONTINUOUS
  0
LAYER
  2
LAYER_8
 70
64
 62
7
  6
CONTINUOUS
  0
LAYER
  2
LAYER_9
 70
64
 62
7
  6
CONTINUOUS
  0
LAYER
  2
LAYER_10
 70
64
 62
7
  6
CONTINUOUS
  0
LAYER
  2
LAYER_11
 70
64
 62
7
  6
CONTINUOUS
  0
LAYER
  2
LAYER_12
 70
64
 62
7
  6
CONTINUOUS
  0
LAYER
  2
LAYER_13
 70
64
 62
7
  6
CONTINUOUS
  0
LAYER
  2
LAYER_14
 70
64
 62
7
  6
CONTINUOUS
  0
LAYER
  2
LAYER_15
 70
64
 62
7
  6
CONTINUOUS
  0
LAYER
  2
LAYER_16
 70
64
 62
7
  6
CONTINUOUS
  0
LAYER
  2
LAYER_17
 70
64
 62
7
  6
CONTINUOUS
  0
LAYER
  2
LAYER_18
 70
64
 62
7
  6
CONTINUOUS
  0
LAYER
  2
LAYER_19
 70
64
 62
7
  6
CONTINUOUS
  0
LAYER
  2
LAYER_20
 70
64
 62
7
  6
CONTINUOUS
  0
LAYER
  2
LAYER_21
 70
64
 62
7
  6
CONTINUOUS
  0
LAYER
  2
LAYER_22
 70
64
 62
7
  6
CONTINUOUS
  0
LAYER
  2
LAYER_23
 70
64
 62
7
  6
CONTINUOUS
  0
LAYER
  2
LAYER_24
 70
64
 62
7
  6
CONTINUOUS
  0
LAYER
  2
LAYER_25
 70
64
 62
7
  6
CONTINUOUS
  0
LAYER
  2
LAYER_26
 70
64
 62
7
  6
CONTINUOUS
  0
LAYER
  2
LAYER_27
 70
64
 62
7
  6
CONTINUOUS
  0
LAYER
  2
LAYER_28
 70
64
 62
7
  6
CONTINUOUS
  0
LAYER
  2
LAYER_29
 70
64
 62
7
  6
CONTINUOUS
  0
LAYER
  2
LAYER_30
 70
64
 62
7
  6
CONTINUOUS
  0
LAYER
  2
LAYER_31
 70
64
 62
7
  6
CONTINUOUS
  0
LAYER
  2
LAYER_32
 70
64
 62
7
  6
CONTINUOUS
  0
LAYER
  2
LAYER_33
 70
64
 62
7
  6
CONTINUOUS
  0
LAYER
  2
LAYER_34
 70
64
 62
7
  6
CONTINUOUS
  0
LAYER
  2
LAYER_35
 70
64
 62
7
  6
CONTINUOUS
  0
LAYER
  2
LAYER_36
 70
64
 62
7
  6
CONTINUOUS
  0
LAYER
  2
LAYER_37
 70
64
 62
7
  6
CONTINUOUS
  0
LAYER
  2
LAYER_38
 70
64
 62
7
  6
CONTINUOUS
  0
LAYER
  2
LAYER_39
 70
64
 62
7
  6
CONTINUOUS
  0
LAYER
  2
LAYER_40
 70
64
 62
7
  6
CONTINUOUS
  0
LAYER
  2
LAYER_41
 70
64
 62
7
  6
CONTINUOUS
  0
LAYER
  2
LAYER_42
 70
64
 62
7
  6
CONTINUOUS
  0
LAYER
  2
LAYER_43
 70
64
 62
7
  6
CONTINUOUS
  0
ENDTAB
  0
TABLE
  2
STYLE
 70
6
  0
STYLE
  2
STANDARD
 70
0
 40
0
 50
0
 71
0
 41
0
 42
0
  3
TXT
  4
BIGFONT
  0
ENDTAB
  0
ENDSEC
  0
SECTION
  2
BLOCKS
  0
BLOCK
  8
LAYER_1
  2
AIGNBL01040163
 70
64
 10
0
 20
0
 30
0
  3
AIGNBL01040163
  0
POLYLINE
  8
LAYER_1
 40
0.0882
 41
0.0882
 62
211
 66
1
 10
0
 20
0
 30
0
  0
VERTEX
  8
LAYER_1
 10
123.9005
 20
-178.4485
  0
VERTEX
  8
LAYER_1
 10
123.9005
 20
-180.1711
  0
SEQEND
  0
ENDBLK
  0
BLOCK
  8
LAYER_1
  2
AIGNBL01040164
 70
64
 10
0
 20
0
 30
0
  3
AIGNBL01040164
  0
POLYLINE
  8
LAYER_1
 40
0.0882
 41
0.0882
 62
211
 66
1
 10
0
 20
0
 30
0
  0
VERTEX
  8
LAYER_1
 10
123.8805
 20
-178.4285
  0
VERTEX
  8
LAYER_1
 10
123.9005
 20
-178.4485
  0
SEQEND
  0
ENDBLK
  0
BLOCK
  8
LAYER_1
  2
AIGNBL01040165
 70
64
 10
0
 20
0
 30
0
  3
AIGNBL01040165
  0
POLYLINE
  8
LAYER_1
 40
0.0882
 41
0.0882
 62
211
 66
1
 10
0
 20
0
 30
0
  0
VERTEX
  8
LAYER_1
 10
123.5504
 20
-181.228
  0
VERTEX
  8
LAYER_1
 10
123.5504
 20
-178.1281
  0
SEQEND
  0
ENDBLK
  0
BLOCK
  8
LAYER_1
  2
AIGNBL01040166
 70
64
 10
0
 20
0
 30
0
  3
AIGNBL01040166
  0
POLYLINE
  8
LAYER_1
 40
0.0882
 41
0.0882
 62
211
 66
1
 10
0
 20
0
 30
0
  0
VERTEX
  8
LAYER_1
 10
123.2004
 20
-178.4485
  0
VERTEX
  8
LAYER_1
 10
123.2204
 20
-178.4285
  0
SEQEND
  0
ENDBLK
  0
BLOCK
  8
LAYER_1
  2
AIGNBL01040167
 70
64
 10
0
 20
0
 30
0
  3
AIGNBL01040167
  0
POLYLINE
  8
LAYER_1
 40
0.0882
 41
0.0882
 62
211
 66
1
 10
0
 20
0
 30
0
  0
VERTEX
  8
LAYER_1
 10
123.8805
 20
-178.4285
  0
VERTEX
  8
LAYER_1
 10
123.2204
 20
-178.4285
  0
SEQEND
  0
ENDBLK
  0
BLOCK
  8
LAYER_1
  2
AIGNBL01040168
 70
64
 10
0
 20
0
 30
0
  3
AIGNBL01040168
  0
POLYLINE
  8
LAYER_1
 40
0.0882
 41
0.0882
 62
211
 66
1
 10
0
 20
0
 30
0
  0
VERTEX
  8
LAYER_1
 10
123.2004
 20
-180.1711
  0
VERTEX
  8
LAYER_1
 10
123.2004
 20
-178.4485
  0
SEQEND
  0
ENDBLK
  0
BLOCK
  8
LAYER_1
  2
AIGNBL0104019D
 70
64
 10
0
 20
0
 30
0
  3
AIGNBL0104019D
  0
POLYLINE
  8
LAYER_1
 40
0.0882
 41
0.0882
 62
211
 66
1
 10
0
 20
0
 30
0
  0
VERTEX
  8
LAYER_1
 10
140.0607
 20
-178.4485
  0
VERTEX
  8
LAYER_1
 10
140.0607
 20
-180.1711
  0
SEQEND
  0
ENDBLK
  0
BLOCK
  8
LAYER_1
  2
AIGNBL0104019E
 70
64
 10
0
 20
0
 30
0
  3
AIGNBL0104019E
  0
POLYLINE
  8
LAYER_1
 40
0.0882
 41
0.0882
 62
211
 66
1
 10
0
 20
0
 30
0
  0
VERTEX
  8
LAYER_1
 10
140.0407
 20
-178.4285
  0
VERTEX
  8
LAYER_1
 10
140.0607
 20
-178.4485
  0
SEQEND
  0
ENDBLK
  0
BLOCK
  8
LAYER_1
  2
AIGNBL0104019F
 70
64
 10
0
 20
0
 30
0
  3
AIGNBL0104019F
  0
POLYLINE
  8
LAYER_1
 40
0.0882
 41
0.0882
 62
211
 66
1
 10
0
 20
0
 30
0
  0
VERTEX
  8
LAYER_1
 10
139.7107
 20
-181.228
  0
VERTEX
  8
LAYER_1
 10
139.7107
 20
-178.1281
  0
SEQEND
  0
ENDBLK
  0
BLOCK
  8
LAYER_1
  2
AIGNBL010401A0
 70
64
 10
0
 20
0
 30
0
  3
AIGNBL010401A0
  0
POLYLINE
  8
LAYER_1
 40
0.0882
 41
0.0882
 62
211
 66
1
 10
0
 20
0
 30
0
  0
VERTEX
  8
LAYER_1
 10
139.3607
 20
-178.4485
  0
VERTEX
  8
LAYER_1
 10
139.3806
 20
-178.4285
  0
SEQEND
  0
ENDBLK
  0
BLOCK
  8
LAYER_1
  2
AIGNBL010401A1
 70
64
 10
0
 20
0
 30
0
  3
AIGNBL010401A1
  0
POLYLINE
  8
LAYER_1
 40
0.0882
 41
0.0882
 62
211
 66
1
 10
0
 20
0
 30
0
  0
VERTEX
  8
LAYER_1
 10
140.0407
 20
-178.4285
  0
VERTEX
  8
LAYER_1
 10
139.3806
 20
-178.4285
  0
SEQEND
  0
ENDBLK
  0
BLOCK
  8
LAYER_1
  2
AIGNBL010401A2
 70
64
 10
0
 20
0
 30
0
  3
AIGNBL010401A2
  0
POLYLINE
  8
LAYER_1
 40
0.0882
 41
0.0882
 62
211
 66
1
 10
0
 20
0
 30
0
  0
VERTEX
  8
LAYER_1
 10
139.3607
 20
-180.1711
  0
VERTEX
  8
LAYER_1
 10
139.3607
 20
-178.4485
  0
SEQEND
  0
ENDBLK
  0
BLOCK
  8
LAYER_1
  2
AIGNBL010300C7
 70
64
 10
0
 20
0
 30
0
  3
AIGNBL010300C7
  0
POLYLINE
  8
LAYER_1
 40
0.0882
 41
0.0882
 62
211
 66
1
 10
0
 20
0
 30
0
  0
VERTEX
  8
LAYER_1
 10
236.2026
 20
-180.2117
  0
VERTEX
  8
LAYER_1
 10
236.2026
 20
-178.5319
  0
SEQEND
  0
ENDBLK
  0
BLOCK
  8
LAYER_1
  2
AIGNBL010300C8
 70
64
 10
0
 20
0
 30
0
  3
AIGNBL010300C8
  0
POLYLINE
  8
LAYER_1
 40
0.0882
 41
0.0882
 62
211
 66
1
 10
0
 20
0
 30
0
  0
VERTEX
  8
LAYER_1
 10
236.2026
 20
-178.5319
  0
VERTEX
  8
LAYER_1
 10
236.1826
 20
-178.5119
  0
SEQEND
  0
ENDBLK
  0
BLOCK
  8
LAYER_1
  2
AIGNBL010300C9
 70
64
 10
0
 20
0
 30
0
  3
AIGNBL010300C9
  0
POLYLINE
  8
LAYER_1
 40
0.0882
 41
0.0882
 62
211
 66
1
 10
0
 20
0
 30
0
  0
VERTEX
  8
LAYER_1
 10
235.5226
 20
-178.5119
  0
VERTEX
  8
LAYER_1
 10
236.1826
 20
-178.5119
  0
SEQEND
  0
ENDBLK
  0
BLOCK
  8
LAYER_1
  2
AIGNBL010300CA
 70
64
 10
0
 20
0
 30
0
  3
AIGNBL010300CA
  0
POLYLINE
  8
LAYER_1
 40
0.0882
 41
0.0882
 62
211
 66
1
 10
0
 20
0
 30
0
  0
VERTEX
  8
LAYER_1
 10
235.5026
 20
-178.5319
  0
VERTEX
  8
LAYER_1
 10
235.5026
 20
-180.2117
  0
SEQEND
  0
ENDBLK
  0
BLOCK
  8
LAYER_1
  2
AIGNBL010300CB
 70
64
 10
0
 20
0
 30
0
  3
AIGNBL010300CB
  0
POLYLINE
  8
LAYER_1
 40
0.0882
 41
0.0882
 62
211
 66
1
 10
0
 20
0
 30
0
  0
VERTEX
  8
LAYER_1
 10
235.5226
 20
-178.5119
  0
VERTEX
  8
LAYER_1
 10
235.5026
 20
-178.5319
  0
SEQEND
  0
ENDBLK
  0
BLOCK
  8
LAYER_1
  2
AIGNBL010300CC
 70
64
 10
0
 20
0
 30
0
  3
AIGNBL010300CC
  0
POLYLINE
  8
LAYER_1
 40
0.0882
 41
0.0882
 62
211
 66
1
 10
0
 20
0
 30
0
  0
VERTEX
  8
LAYER_1
 10
235.8526
 20
-181.3117
  0
VERTEX
  8
LAYER_1
 10
235.8526
 20
-178.2118
  0
SEQEND
  0
ENDBLK
  0
BLOCK
  8
LAYER_1
  2
AIGNBL01030135
 70
64
 10
0
 20
0
 30
0
  3
AIGNBL01030135
  0
POLYLINE
  8
LAYER_1
 40
0.0882
 41
0.0882
 62
211
 66
1
 10
0
 20
0
 30
0
  0
VERTEX
  8
LAYER_1
 10
123.5311
 20
-178.9783
  0
VERTEX
  8
LAYER_1
 10
123.5504
 20
-178.9783
  0
SEQEND
  0
ENDBLK
  0
BLOCK
  8
LAYER_1
  2
AIGNBL01030136
 70
64
 10
0
 20
0
 30
0
  3
AIGNBL01030136
  0
POLYLINE
  8
LAYER_1
 40
0.0882
 41
0.0882
 62
211
 66
1
 10
0
 20
0
 30
0
  0
VERTEX
  8
LAYER_1
 10
122.5224
 20
-178.9783
  0
VERTEX
  8
LAYER_1
 10
123.5311
 20
-178.9783
  0
SEQEND
  0
ENDBLK
  0
BLOCK
  8
LAYER_1
  2
AIGNBL01030137
 70
64
 10
0
 20
0
 30
0
  3
AIGNBL01030137
  0
POLYLINE
  8
LAYER_1
 40
0.0882
 41
0.0882
 62
211
 66
1
 10
0
 20
0
 30
0
  0
VERTEX
  8
LAYER_1
 10
123.5697
 20
-178.9783
  0
VERTEX
  8
LAYER_1
 10
124.5784
 20
-178.9783
  0
SEQEND
  0
ENDBLK
  0
BLOCK
  8
LAYER_1
  2
AIGNBL01030138
 70
64
 10
0
 20
0
 30
0
  3
AIGNBL01030138
  0
POLYLINE
  8
LAYER_1
 40
0.0882
 41
0.0882
 62
211
 66
1
 10
0
 20
0
 30
0
  0
VERTEX
  8
LAYER_1
 10
124.8754
 20
-178.8777
  0
VERTEX
  8
LAYER_1
 10
124.8203
 20
-178.9191
  0
SEQEND
  0
ENDBLK
  0
BLOCK
  8
LAYER_1
  2
AIGNBL01030139
 70
64
 10
0
 20
0
 30
0
  3
AIGNBL01030139
  0
POLYLINE
  8
LAYER_1
 40
0.0882
 41
0.0882
 62
211
 66
1
 10
0
 20
0
 30
0
  0
VERTEX
  8
LAYER_1
 10
124.5971
 20
-178.9783
  0
VERTEX
  8
LAYER_1
 10
124.5881
 20
-178.9783
  0
SEQEND
  0
ENDBLK
  0
BLOCK
  8
LAYER_1
  2
AIGNBL0103013A
 70
64
 10
0
 20
0
 30
0
  3
AIGNBL0103013A
  0
POLYLINE
  8
LAYER_1
 40
0.0882
 41
0.0882
 62
211
 66
1
 10
0
 20
0
 30
0
  0
VERTEX
  8
LAYER_1
 10
122.5224
 20
-178.9783
  0
VERTEX
  8
LAYER_1
 10
122.5134
 20
-178.9783
  0
SEQEND
  0
ENDBLK
  0
BLOCK
  8
LAYER_1
  2
AIGNBL0103013B
 70
64
 10
0
 20
0
 30
0
  3
AIGNBL0103013B
  0
POLYLINE
  8
LAYER_1
 40
0.0882
 41
0.0882
 62
211
 66
1
 10
0
 20
0
 30
0
  0
VERTEX
  8
LAYER_1
 10
124.5881
 20
-178.9783
  0
VERTEX
  8
LAYER_1
 10
124.5784
 20
-178.9783
  0
SEQEND
  0
ENDBLK
  0
BLOCK
  8
LAYER_1
  2
AIGNBL0103013D
 70
64
 10
0
 20
0
 30
0
  3
AIGNBL0103013D
  0
POLYLINE
  8
LAYER_1
 40
0.0882
 41
0.0882
 62
211
 66
1
 10
0
 20
0
 30
0
  0
VERTEX
  8
LAYER_1
 10
123.8805
 20
-178.4285
  0
VERTEX
  8
LAYER_1
 10
123.2204
 20
-178.4285
  0
SEQEND
  0
ENDBLK
  0
BLOCK
  8
LAYER_1
  2
AIGNBL0103013E
 70
64
 10
0
 20
0
 30
0
  3
AIGNBL0103013E
  0
POLYLINE
  8
LAYER_1
 40
0.0882
 41
0.0882
 62
211
 66
1
 10
0
 20
0
 30
0
  0
VERTEX
  8
LAYER_1
 10
123.8508
 20
-178.228
  0
VERTEX
  8
LAYER_1
 10
123.2507
 20
-178.228
  0
SEQEND
  0
ENDBLK
  0
BLOCK
  8
LAYER_1
  2
AIGNBL0103013F
 70
64
 10
0
 20
0
 30
0
  3
AIGNBL0103013F
  0
POLYLINE
  8
LAYER_1
 40
0.0882
 41
0.0882
 62
211
 66
1
 10
0
 20
0
 30
0
  0
VERTEX
  8
LAYER_1
 10
123.9005
 20
-178.4085
  0
VERTEX
  8
LAYER_1
 10
123.9005
 20
-178.2783
  0
SEQEND
  0
ENDBLK
  0
BLOCK
  8
LAYER_1
  2
AIGNBL01030140
 70
64
 10
0
 20
0
 30
0
  3
AIGNBL01030140
  0
POLYLINE
  8
LAYER_1
 40
0.0882
 41
0.0882
 62
211
 66
1
 10
0
 20
0
 30
0
  0
VERTEX
  8
LAYER_1
 10
123.2004
 20
-178.4085
  0
VERTEX
  8
LAYER_1
 10
123.2004
 20
-178.2783
  0
SEQEND
  0
ENDBLK
  0
BLOCK
  8
LAYER_1
  2
AIGNBL01030141
 70
64
 10
0
 20
0
 30
0
  3
AIGNBL01030141
  0
POLYLINE
  8
LAYER_1
 40
0.0882
 41
0.0882
 62
211
 66
1
 10
0
 20
0
 30
0
  0
VERTEX
  8
LAYER_1
 10
123.9005
 20
-178.4085
  0
VERTEX
  8
LAYER_1
 10
123.8805
 20
-178.4285
  0
SEQEND
  0
ENDBLK
  0
BLOCK
  8
LAYER_1
  2
AIGNBL01030142
 70
64
 10
0
 20
0
 30
0
  3
AIGNBL01030142
  0
POLYLINE
  8
LAYER_1
 40
0.0882
 41
0.0882
 62
211
 66
1
 10
0
 20
0
 30
0
  0
VERTEX
  8
LAYER_1
 10
123.2004
 20
-178.4085
  0
VERTEX
  8
LAYER_1
 10
123.2204
 20
-178.4285
  0
SEQEND
  0
ENDBLK
  0
BLOCK
  8
LAYER_1
  2
AIGNBL01030143
 70
64
 10
0
 20
0
 30
0
  3
AIGNBL01030143
  0
POLYLINE
  8
LAYER_1
 40
0.0882
 41
0.0882
 62
211
 66
1
 10
0
 20
0
 30
0
  0
VERTEX
  8
LAYER_1
 10
123.5504
 20
-179.0879
  0
VERTEX
  8
LAYER_1
 10
123.5504
 20
-177.8284
  0
SEQEND
  0
ENDBLK
  0
BLOCK
  8
LAYER_1
  2
AIGNBL01030144
 70
64
 10
0
 20
0
 30
0
  3
AIGNBL01030144
  0
POLYLINE
  8
LAYER_1
 40
0.0882
 41
0.0882
 62
211
 66
1
 10
0
 20
0
 30
0
  0
VERTEX
  8
LAYER_1
 10
123.2004
 20
-178.2783
 42
-0.390518874
  0
VERTEX
  8
LAYER_1
 10
123.2507
 20
-178.228
  0
SEQEND
  0
ENDBLK
  0
BLOCK
  8
LAYER_1
  2
AIGNBL01030145
 70
64
 10
0
 20
0
 30
0
  3
AIGNBL01030145
  0
POLYLINE
  8
LAYER_1
 40
0.0882
 41
0.0882
 62
211
 66
1
 10
0
 20
0
 30
0
  0
VERTEX
  8
LAYER_1
 10
123.8508
 20
-178.228
 42
-0.3919810976
  0
VERTEX
  8
LAYER_1
 10
123.9005
 20
-178.2783
  0
SEQEND
  0
ENDBLK
  0
BLOCK
  8
LAYER_1
  2
AIGNBL01030146
 70
64
 10
0
 20
0
 30
0
  3
AIGNBL01030146
  0
POLYLINE
  8
LAYER_1
 40
0.0882
 41
0.0882
 62
211
 66
1
 10
0
 20
0
 30
0
 70
1
  0
VERTEX
  8
LAYER_1
 10
122.1007
 20
-181.578
 42
-0.4142075148
  0
VERTEX
  8
LAYER_1
 10
123.5504
 20
-180.1283
 42
-0.4142196102
  0
VERTEX
  8
LAYER_1
 10
125.0008
 20
-181.578
 42
-0.4142196073
  0
VERTEX
  8
LAYER_1
 10
123.5504
 20
-183.0284
 42
-0.4142075174
  0
SEQEND
  0
ENDBLK
  0
BLOCK
  8
LAYER_1
  2
AIGNBL01030147
 70
64
 10
0
 20
0
 30
0
  3
AIGNBL01030147
  0
POLYLINE
  8
LAYER_1
 40
0.0882
 41
0.0882
 62
211
 66
1
 10
0
 20
0
 30
0
  0
VERTEX
  8
LAYER_1
 10
123.2004
 20
-179.2781
  0
VERTEX
  8
LAYER_1
 10
122.1007
 20
-179.2781
  0
SEQEND
  0
ENDBLK
  0
BLOCK
  8
LAYER_1
  2
AIGNBL01030148
 70
64
 10
0
 20
0
 30
0
  3
AIGNBL01030148
  0
POLYLINE
  8
LAYER_1
 40
0.0882
 41
0.0882
 62
211
 66
1
 10
0
 20
0
 30
0
  0
VERTEX
  8
LAYER_1
 10
122.5004
 20
-179.1795
  0
VERTEX
  8
LAYER_1
 10
122.5004
 20
-179.2781
  0
SEQEND
  0
ENDBLK
  0
BLOCK
  8
LAYER_1
  2
AIGNBL01030149
 70
64
 10
0
 20
0
 30
0
  3
AIGNBL01030149
  0
POLYLINE
  8
LAYER_1
 40
0.0882
 41
0.0882
 62
211
 66
1
 10
0
 20
0
 30
0
  0
VERTEX
  8
LAYER_1
 10
122.5004
 20
-178.9783
  0
VERTEX
  8
LAYER_1
 10
122.5004
 20
-179.1795
  0
SEQEND
  0
ENDBLK
  0
BLOCK
  8
LAYER_1
  2
AIGNBL0103014A
 70
64
 10
0
 20
0
 30
0
  3
AIGNBL0103014A
  0
POLYLINE
  8
LAYER_1
 40
0.0882
 41
0.0882
 62
211
 66
1
 10
0
 20
0
 30
0
  0
VERTEX
  8
LAYER_1
 10
124.6005
 20
-179.1795
  0
VERTEX
  8
LAYER_1
 10
124.6005
 20
-179.2781
  0
SEQEND
  0
ENDBLK
  0
BLOCK
  8
LAYER_1
  2
AIGNBL0103014B
 70
64
 10
0
 20
0
 30
0
  3
AIGNBL0103014B
  0
POLYLINE
  8
LAYER_1
 40
0.0882
 41
0.0882
 62
211
 66
1
 10
0
 20
0
 30
0
  0
VERTEX
  8
LAYER_1
 10
124.6005
 20
-178.9783
  0
VERTEX
  8
LAYER_1
 10
124.4847
 20
-178.9783
  0
SEQEND
  0
ENDBLK
  0
BLOCK
  8
LAYER_1
  2
AIGNBL0103014C
 70
64
 10
0
 20
0
 30
0
  3
AIGNBL0103014C
  0
POLYLINE
  8
LAYER_1
 40
0.0882
 41
0.0882
 62
211
 66
1
 10
0
 20
0
 30
0
  0
VERTEX
  8
LAYER_1
 10
124.6005
 20
-178.9783
  0
VERTEX
  8
LAYER_1
 10
124.6005
 20
-179.1795
  0
SEQEND
  0
ENDBLK
  0
BLOCK
  8
LAYER_1
  2
AIGNBL0103014D
 70
64
 10
0
 20
0
 30
0
  3
AIGNBL0103014D
  0
POLYLINE
  8
LAYER_1
 40
0.0882
 41
0.0882
 62
211
 66
1
 10
0
 20
0
 30
0
  0
VERTEX
  8
LAYER_1
 10
124.6005
 20
-179.1795
  0
VERTEX
  8
LAYER_1
 10
124.4847
 20
-178.9783
  0
SEQEND
  0
ENDBLK
  0
BLOCK
  8
LAYER_1
  2
AIGNBL0103014E
 70
64
 10
0
 20
0
 30
0
  3
AIGNBL0103014E
  0
POLYLINE
  8
LAYER_1
 40
0.0882
 41
0.0882
 62
211
 66
1
 10
0
 20
0
 30
0
  0
VERTEX
  8
LAYER_1
 10
124.6005
 20
-178.1942
  0
VERTEX
  8
LAYER_1
 10
124.6005
 20
-178.9783
  0
SEQEND
  0
ENDBLK
  0
BLOCK
  8
LAYER_1
  2
AIGNBL0103014F
 70
64
 10
0
 20
0
 30
0
  3
AIGNBL0103014F
  0
POLYLINE
  8
LAYER_1
 40
0.0882
 41
0.0882
 62
211
 66
1
 10
0
 20
0
 30
0
  0
VERTEX
  8
LAYER_1
 10
122.6168
 20
-178.9783
  0
VERTEX
  8
LAYER_1
 10
122.5004
 20
-178.9783
  0
SEQEND
  0
ENDBLK
  0
BLOCK
  8
LAYER_1
  2
AIGNBL01030150
 70
64
 10
0
 20
0
 30
0
  3
AIGNBL01030150
  0
POLYLINE
  8
LAYER_1
 40
0.0882
 41
0.0882
 62
211
 66
1
 10
0
 20
0
 30
0
  0
VERTEX
  8
LAYER_1
 10
122.6168
 20
-178.0785
  0
VERTEX
  8
LAYER_1
 10
122.5004
 20
-178.1942
  0
SEQEND
  0
ENDBLK
  0
BLOCK
  8
LAYER_1
  2
AIGNBL01030151
 70
64
 10
0
 20
0
 30
0
  3
AIGNBL01030151
  0
POLYLINE
  8
LAYER_1
 40
0.0882
 41
0.0882
 62
211
 66
1
 10
0
 20
0
 30
0
  0
VERTEX
  8
LAYER_1
 10
122.5004
 20
-178.1942
  0
VERTEX
  8
LAYER_1
 10
122.5004
 20
-178.9783
  0
SEQEND
  0
ENDBLK
  0
BLOCK
  8
LAYER_1
  2
AIGNBL01030152
 70
64
 10
0
 20
0
 30
0
  3
AIGNBL01030152
  0
POLYLINE
  8
LAYER_1
 40
0.0882
 41
0.0882
 62
211
 66
1
 10
0
 20
0
 30
0
  0
VERTEX
  8
LAYER_1
 10
122.5004
 20
-178.1942
  0
VERTEX
  8
LAYER_1
 10
122.6168
 20
-178.1942
  0
SEQEND
  0
ENDBLK
  0
BLOCK
  8
LAYER_1
  2
AIGNBL01030153
 70
64
 10
0
 20
0
 30
0
  3
AIGNBL01030153
  0
POLYLINE
  8
LAYER_1
 40
0.0882
 41
0.0882
 62
211
 66
1
 10
0
 20
0
 30
0
  0
VERTEX
  8
LAYER_1
 10
122.6168
 20
-178.9783
  0
VERTEX
  8
LAYER_1
 10
122.5004
 20
-179.1795
  0
SEQEND
  0
ENDBLK
  0
BLOCK
  8
LAYER_1
  2
AIGNBL01030154
 70
64
 10
0
 20
0
 30
0
  3
AIGNBL01030154
  0
POLYLINE
  8
LAYER_1
 40
0.0882
 41
0.0882
 62
211
 66
1
 10
0
 20
0
 30
0
  0
VERTEX
  8
LAYER_1
 10
122.6168
 20
-178.1942
  0
VERTEX
  8
LAYER_1
 10
122.6168
 20
-178.9783
  0
SEQEND
  0
ENDBLK
  0
BLOCK
  8
LAYER_1
  2
AIGNBL01030155
 70
64
 10
0
 20
0
 30
0
  3
AIGNBL01030155
  0
POLYLINE
  8
LAYER_1
 40
0.0882
 41
0.0882
 62
211
 66
1
 10
0
 20
0
 30
0
  0
VERTEX
  8
LAYER_1
 10
122.6168
 20
-178.0785
  0
VERTEX
  8
LAYER_1
 10
122.6168
 20
-178.1942
  0
SEQEND
  0
ENDBLK
  0
BLOCK
  8
LAYER_1
  2
AIGNBL01030156
 70
64
 10
0
 20
0
 30
0
  3
AIGNBL01030156
  0
POLYLINE
  8
LAYER_1
 40
0.0882
 41
0.0882
 62
211
 66
1
 10
0
 20
0
 30
0
  0
VERTEX
  8
LAYER_1
 10
124.4847
 20
-178.0785
  0
VERTEX
  8
LAYER_1
 10
124.6005
 20
-178.1942
  0
SEQEND
  0
ENDBLK
  0
BLOCK
  8
LAYER_1
  2
AIGNBL01030157
 70
64
 10
0
 20
0
 30
0
  3
AIGNBL01030157
  0
POLYLINE
  8
LAYER_1
 40
0.0882
 41
0.0882
 62
211
 66
1
 10
0
 20
0
 30
0
  0
VERTEX
  8
LAYER_1
 10
124.6005
 20
-178.1942
  0
VERTEX
  8
LAYER_1
 10
124.4847
 20
-178.1942
  0
SEQEND
  0
ENDBLK
  0
BLOCK
  8
LAYER_1
  2
AIGNBL01030158
 70
64
 10
0
 20
0
 30
0
  3
AIGNBL01030158
  0
POLYLINE
  8
LAYER_1
 40
0.0882
 41
0.0882
 62
211
 66
1
 10
0
 20
0
 30
0
  0
VERTEX
  8
LAYER_1
 10
124.4847
 20
-178.1942
  0
VERTEX
  8
LAYER_1
 10
124.4847
 20
-178.0785
  0
SEQEND
  0
ENDBLK
  0
BLOCK
  8
LAYER_1
  2
AIGNBL01030159
 70
64
 10
0
 20
0
 30
0
  3
AIGNBL01030159
  0
POLYLINE
  8
LAYER_1
 40
0.0882
 41
0.0882
 62
211
 66
1
 10
0
 20
0
 30
0
  0
VERTEX
  8
LAYER_1
 10
124.4847
 20
-178.1942
  0
VERTEX
  8
LAYER_1
 10
124.4847
 20
-178.0785
  0
SEQEND
  0
ENDBLK
  0
BLOCK
  8
LAYER_1
  2
AIGNBL0103015A
 70
64
 10
0
 20
0
 30
0
  3
AIGNBL0103015A
  0
POLYLINE
  8
LAYER_1
 40
0.0882
 41
0.0882
 62
211
 66
1
 10
0
 20
0
 30
0
  0
VERTEX
  8
LAYER_1
 10
124.4847
 20
-178.9783
  0
VERTEX
  8
LAYER_1
 10
124.4847
 20
-178.1942
  0
SEQEND
  0
ENDBLK
  0
BLOCK
  8
LAYER_1
  2
AIGNBL0103015B
 70
64
 10
0
 20
0
 30
0
  3
AIGNBL0103015B
  0
POLYLINE
  8
LAYER_1
 40
0.0882
 41
0.0882
 62
211
 66
1
 10
0
 20
0
 30
0
  0
VERTEX
  8
LAYER_1
 10
124.4847
 20
-178.0785
  0
VERTEX
  8
LAYER_1
 10
122.6168
 20
-178.0785
  0
SEQEND
  0
ENDBLK
  0
BLOCK
  8
LAYER_1
  2
AIGNBL0103015C
 70
64
 10
0
 20
0
 30
0
  3
AIGNBL0103015C
  0
POLYLINE
  8
LAYER_1
 40
0.0882
 41
0.0882
 62
211
 66
1
 10
0
 20
0
 30
0
  0
VERTEX
  8
LAYER_1
 10
124.4847
 20
-178.9783
  0
VERTEX
  8
LAYER_1
 10
123.9005
 20
-178.9783
  0
SEQEND
  0
ENDBLK
  0
BLOCK
  8
LAYER_1
  2
AIGNBL0103015D
 70
64
 10
0
 20
0
 30
0
  3
AIGNBL0103015D
  0
POLYLINE
  8
LAYER_1
 40
0.0882
 41
0.0882
 62
211
 66
1
 10
0
 20
0
 30
0
  0
VERTEX
  8
LAYER_1
 10
122.6168
 20
-178.1942
  0
VERTEX
  8
LAYER_1
 10
124.4847
 20
-178.1942
  0
SEQEND
  0
ENDBLK
  0
BLOCK
  8
LAYER_1
  2
AIGNBL0103015E
 70
64
 10
0
 20
0
 30
0
  3
AIGNBL0103015E
  0
POLYLINE
  8
LAYER_1
 40
0.0882
 41
0.0882
 62
211
 66
1
 10
0
 20
0
 30
0
  0
VERTEX
  8
LAYER_1
 10
122.1007
 20
-179.2781
  0
VERTEX
  8
LAYER_1
 10
122.1007
 20
-181.578
  0
SEQEND
  0
ENDBLK
  0
BLOCK
  8
LAYER_1
  2
AIGNBL0103015F
 70
64
 10
0
 20
0
 30
0
  3
AIGNBL0103015F
  0
POLYLINE
  8
LAYER_1
 40
0.0882
 41
0.0882
 62
211
 66
1
 10
0
 20
0
 30
0
  0
VERTEX
  8
LAYER_1
 10
125.0008
 20
-179.2781
  0
VERTEX
  8
LAYER_1
 10
123.9005
 20
-179.2781
  0
SEQEND
  0
ENDBLK
  0
BLOCK
  8
LAYER_1
  2
AIGNBL01030160
 70
64
 10
0
 20
0
 30
0
  3
AIGNBL01030160
  0
POLYLINE
  8
LAYER_1
 40
0.0882
 41
0.0882
 62
211
 66
1
 10
0
 20
0
 30
0
  0
VERTEX
  8
LAYER_1
 10
125.0008
 20
-181.578
  0
VERTEX
  8
LAYER_1
 10
125.0008
 20
-179.2781
  0
SEQEND
  0
ENDBLK
  0
BLOCK
  8
LAYER_1
  2
AIGNBL01030161
 70
64
 10
0
 20
0
 30
0
  3
AIGNBL01030161
  0
POLYLINE
  8
LAYER_1
 40
0.0882
 41
0.0882
 62
211
 66
1
 10
0
 20
0
 30
0
  0
VERTEX
  8
LAYER_1
 10
123.5504
 20
-183.3281
  0
VERTEX
  8
LAYER_1
 10
123.5504
 20
-177.7781
  0
SEQEND
  0
ENDBLK
  0
BLOCK
  8
LAYER_1
  2
AIGNBL01030162
 70
64
 10
0
 20
0
 30
0
  3
AIGNBL01030162
  0
INSERT
  8
LAYER_1
  2
AIGNBL01040163
 10
0
 20
0
 30
0
  0
INSERT
  8
LAYER_1
  2
AIGNBL01040164
 10
0
 20
0
 30
0
  0
INSERT
  8
LAYER_1
  2
AIGNBL01040165
 10
0
 20
0
 30
0
  0
INSERT
  8
LAYER_1
  2
AIGNBL01040166
 10
0
 20
0
 30
0
  0
INSERT
  8
LAYER_1
  2
AIGNBL01040167
 10
0
 20
0
 30
0
  0
INSERT
  8
LAYER_1
  2
AIGNBL01040168
 10
0
 20
0
 30
0
  0
ENDBLK
  0
BLOCK
  8
LAYER_1
  2
AIGNBL01030169
 70
64
 10
0
 20
0
 30
0
  3
AIGNBL01030169
  0
POLYLINE
  8
LAYER_1
 40
0.0882
 41
0.0882
 62
211
 66
1
 10
0
 20
0
 30
0
  0
VERTEX
  8
LAYER_1
 10
120.5504
 20
-181.578
 42
-0.3129542438
  0
VERTEX
  8
LAYER_1
 10
122.5004
 20
-178.7682
  0
SEQEND
  0
ENDBLK
  0
BLOCK
  8
LAYER_1
  2
AIGNBL0103016A
 70
64
 10
0
 20
0
 30
0
  3
AIGNBL0103016A
  0
POLYLINE
  8
LAYER_1
 40
0.0882
 41
0.0882
 62
211
 66
1
 10
0
 20
0
 30
0
  0
VERTEX
  8
LAYER_1
 10
124.6005
 20
-178.7682
 42
-0.4142579099
  0
VERTEX
  8
LAYER_1
 10
126.3609
 20
-182.6281
 42
-0.4142061419
  0
VERTEX
  8
LAYER_1
 10
122.5004
 20
-184.3885
 42
-0.3129540647
  0
VERTEX
  8
LAYER_1
 10
120.5504
 20
-181.578
  0
SEQEND
  0
ENDBLK
  0
BLOCK
  8
LAYER_1
  2
AIGNBL0103016B
 70
64
 10
0
 20
0
 30
0
  3
AIGNBL0103016B
  0
POLYLINE
  8
LAYER_1
 40
0.0882
 41
0.0882
 62
211
 66
1
 10
0
 20
0
 30
0
  0
VERTEX
  8
LAYER_1
 10
123.5504
 20
-184.8784
  0
VERTEX
  8
LAYER_1
 10
123.5504
 20
-177.7781
  0
SEQEND
  0
ENDBLK
  0
BLOCK
  8
LAYER_1
  2
AIGNBL0103016C
 70
64
 10
0
 20
0
 30
0
  3
AIGNBL0103016C
  0
POLYLINE
  8
LAYER_1
 40
0.0882
 41
0.0882
 62
211
 66
1
 10
0
 20
0
 30
0
  0
VERTEX
  8
LAYER_1
 10
126.8508
 20
-181.578
  0
VERTEX
  8
LAYER_1
 10
120.2507
 20
-181.578
  0
SEQEND
  0
ENDBLK
  0
BLOCK
  8
LAYER_1
  2
AIGNBL0103016F
 70
64
 10
0
 20
0
 30
0
  3
AIGNBL0103016F
  0
POLYLINE
  8
LAYER_1
 40
0.0882
 41
0.0882
 62
211
 66
1
 10
0
 20
0
 30
0
  0
VERTEX
  8
LAYER_1
 10
139.6914
 20
-178.9783
  0
VERTEX
  8
LAYER_1
 10
139.7107
 20
-178.9783
  0
SEQEND
  0
ENDBLK
  0
BLOCK
  8
LAYER_1
  2
AIGNBL01030170
 70
64
 10
0
 20
0
 30
0
  3
AIGNBL01030170
  0
POLYLINE
  8
LAYER_1
 40
0.0882
 41
0.0882
 62
211
 66
1
 10
0
 20
0
 30
0
  0
VERTEX
  8
LAYER_1
 10
138.6827
 20
-178.9783
  0
VERTEX
  8
LAYER_1
 10
139.6914
 20
-178.9783
  0
SEQEND
  0
ENDBLK
  0
BLOCK
  8
LAYER_1
  2
AIGNBL01030171
 70
64
 10
0
 20
0
 30
0
  3
AIGNBL01030171
  0
POLYLINE
  8
LAYER_1
 40
0.0882
 41
0.0882
 62
211
 66
1
 10
0
 20
0
 30
0
  0
VERTEX
  8
LAYER_1
 10
139.73
 20
-178.9783
  0
VERTEX
  8
LAYER_1
 10
140.7387
 20
-178.9783
  0
SEQEND
  0
ENDBLK
  0
BLOCK
  8
LAYER_1
  2
AIGNBL01030172
 70
64
 10
0
 20
0
 30
0
  3
AIGNBL01030172
  0
POLYLINE
  8
LAYER_1
 40
0.0882
 41
0.0882
 62
211
 66
1
 10
0
 20
0
 30
0
  0
VERTEX
  8
LAYER_1
 10
141.0356
 20
-178.8777
  0
VERTEX
  8
LAYER_1
 10
140.9805
 20
-178.9191
  0
SEQEND
  0
ENDBLK
  0
BLOCK
  8
LAYER_1
  2
AIGNBL01030173
 70
64
 10
0
 20
0
 30
0
  3
AIGNBL01030173
  0
POLYLINE
  8
LAYER_1
 40
0.0882
 41
0.0882
 62
211
 66
1
 10
0
 20
0
 30
0
  0
VERTEX
  8
LAYER_1
 10
140.7573
 20
-178.9783
  0
VERTEX
  8
LAYER_1
 10
140.7483
 20
-178.9783
  0
SEQEND
  0
ENDBLK
  0
BLOCK
  8
LAYER_1
  2
AIGNBL01030174
 70
64
 10
0
 20
0
 30
0
  3
AIGNBL01030174
  0
POLYLINE
  8
LAYER_1
 40
0.0882
 41
0.0882
 62
211
 66
1
 10
0
 20
0
 30
0
  0
VERTEX
  8
LAYER_1
 10
138.6827
 20
-178.9783
  0
VERTEX
  8
LAYER_1
 10
138.6737
 20
-178.9783
  0
SEQEND
  0
ENDBLK
  0
BLOCK
  8
LAYER_1
  2
AIGNBL01030175
 70
64
 10
0
 20
0
 30
0
  3
AIGNBL01030175
  0
POLYLINE
  8
LAYER_1
 40
0.0882
 41
0.0882
 62
211
 66
1
 10
0
 20
0
 30
0
  0
VERTEX
  8
LAYER_1
 10
140.7483
 20
-178.9783
  0
VERTEX
  8
LAYER_1
 10
140.7387
 20
-178.9783
  0
SEQEND
  0
ENDBLK
  0
BLOCK
  8
LAYER_1
  2
AIGNBL01030177
 70
64
 10
0
 20
0
 30
0
  3
AIGNBL01030177
  0
POLYLINE
  8
LAYER_1
 40
0.0882
 41
0.0882
 62
211
 66
1
 10
0
 20
0
 30
0
  0
VERTEX
  8
LAYER_1
 10
140.0407
 20
-178.4285
  0
VERTEX
  8
LAYER_1
 10
139.3806
 20
-178.4285
  0
SEQEND
  0
ENDBLK
  0
BLOCK
  8
LAYER_1
  2
AIGNBL01030178
 70
64
 10
0
 20
0
 30
0
  3
AIGNBL01030178
  0
POLYLINE
  8
LAYER_1
 40
0.0882
 41
0.0882
 62
211
 66
1
 10
0
 20
0
 30
0
  0
VERTEX
  8
LAYER_1
 10
140.0111
 20
-178.228
  0
VERTEX
  8
LAYER_1
 10
139.411
 20
-178.228
  0
SEQEND
  0
ENDBLK
  0
BLOCK
  8
LAYER_1
  2
AIGNBL01030179
 70
64
 10
0
 20
0
 30
0
  3
AIGNBL01030179
  0
POLYLINE
  8
LAYER_1
 40
0.0882
 41
0.0882
 62
211
 66
1
 10
0
 20
0
 30
0
  0
VERTEX
  8
LAYER_1
 10
140.0607
 20
-178.4085
  0
VERTEX
  8
LAYER_1
 10
140.0607
 20
-178.2783
  0
SEQEND
  0
ENDBLK
  0
BLOCK
  8
LAYER_1
  2
AIGNBL0103017A
 70
64
 10
0
 20
0
 30
0
  3
AIGNBL0103017A
  0
POLYLINE
  8
LAYER_1
 40
0.0882
 41
0.0882
 62
211
 66
1
 10
0
 20
0
 30
0
  0
VERTEX
  8
LAYER_1
 10
139.3607
 20
-178.4085
  0
VERTEX
  8
LAYER_1
 10
139.3607
 20
-178.2783
  0
SEQEND
  0
ENDBLK
  0
BLOCK
  8
LAYER_1
  2
AIGNBL0103017B
 70
64
 10
0
 20
0
 30
0
  3
AIGNBL0103017B
  0
POLYLINE
  8
LAYER_1
 40
0.0882
 41
0.0882
 62
211
 66
1
 10
0
 20
0
 30
0
  0
VERTEX
  8
LAYER_1
 10
140.0607
 20
-178.4085
  0
VERTEX
  8
LAYER_1
 10
140.0407
 20
-178.4285
  0
SEQEND
  0
ENDBLK
  0
BLOCK
  8
LAYER_1
  2
AIGNBL0103017C
 70
64
 10
0
 20
0
 30
0
  3
AIGNBL0103017C
  0
POLYLINE
  8
LAYER_1
 40
0.0882
 41
0.0882
 62
211
 66
1
 10
0
 20
0
 30
0
  0
VERTEX
  8
LAYER_1
 10
139.3607
 20
-178.4085
  0
VERTEX
  8
LAYER_1
 10
139.3806
 20
-178.4285
  0
SEQEND
  0
ENDBLK
  0
BLOCK
  8
LAYER_1
  2
AIGNBL0103017D
 70
64
 10
0
 20
0
 30
0
  3
AIGNBL0103017D
  0
POLYLINE
  8
LAYER_1
 40
0.0882
 41
0.0882
 62
211
 66
1
 10
0
 20
0
 30
0
  0
VERTEX
  8
LAYER_1
 10
139.7107
 20
-179.0879
  0
VERTEX
  8
LAYER_1
 10
139.7107
 20
-177.8284
  0
SEQEND
  0
ENDBLK
  0
BLOCK
  8
LAYER_1
  2
AIGNBL0103017E
 70
64
 10
0
 20
0
 30
0
  3
AIGNBL0103017E
  0
POLYLINE
  8
LAYER_1
 40
0.0882
 41
0.0882
 62
211
 66
1
 10
0
 20
0
 30
0
  0
VERTEX
  8
LAYER_1
 10
139.3607
 20
-178.2783
 42
-0.390518874
  0
VERTEX
  8
LAYER_1
 10
139.411
 20
-178.228
  0
SEQEND
  0
ENDBLK
  0
BLOCK
  8
LAYER_1
  2
AIGNBL0103017F
 70
64
 10
0
 20
0
 30
0
  3
AIGNBL0103017F
  0
POLYLINE
  8
LAYER_1
 40
0.0882
 41
0.0882
 62
211
 66
1
 10
0
 20
0
 30
0
  0
VERTEX
  8
LAYER_1
 10
140.0111
 20
-178.228
 42
-0.3922235239
  0
VERTEX
  8
LAYER_1
 10
140.0607
 20
-178.2783
  0
SEQEND
  0
ENDBLK
  0
BLOCK
  8
LAYER_1
  2
AIGNBL01030180
 70
64
 10
0
 20
0
 30
0
  3
AIGNBL01030180
  0
POLYLINE
  8
LAYER_1
 40
0.0882
 41
0.0882
 62
211
 66
1
 10
0
 20
0
 30
0
 70
1
  0
VERTEX
  8
LAYER_1
 10
138.261
 20
-181.578
 42
-0.4142164644
  0
VERTEX
  8
LAYER_1
 10
139.7107
 20
-180.1283
 42
-0.4142106606
  0
VERTEX
  8
LAYER_1
 10
141.1611
 20
-181.578
 42
-0.414210662
  0
VERTEX
  8
LAYER_1
 10
139.7107
 20
-183.0284
 42
-0.4142164628
  0
SEQEND
  0
ENDBLK
  0
BLOCK
  8
LAYER_1
  2
AIGNBL01030181
 70
64
 10
0
 20
0
 30
0
  3
AIGNBL01030181
  0
POLYLINE
  8
LAYER_1
 40
0.0882
 41
0.0882
 62
211
 66
1
 10
0
 20
0
 30
0
  0
VERTEX
  8
LAYER_1
 10
139.3607
 20
-179.2781
  0
VERTEX
  8
LAYER_1
 10
138.261
 20
-179.2781
  0
SEQEND
  0
ENDBLK
  0
BLOCK
  8
LAYER_1
  2
AIGNBL01030182
 70
64
 10
0
 20
0
 30
0
  3
AIGNBL01030182
  0
POLYLINE
  8
LAYER_1
 40
0.0882
 41
0.0882
 62
211
 66
1
 10
0
 20
0
 30
0
  0
VERTEX
  8
LAYER_1
 10
138.6606
 20
-179.1795
  0
VERTEX
  8
LAYER_1
 10
138.6606
 20
-179.2781
  0
SEQEND
  0
ENDBLK
  0
BLOCK
  8
LAYER_1
  2
AIGNBL01030183
 70
64
 10
0
 20
0
 30
0
  3
AIGNBL01030183
  0
POLYLINE
  8
LAYER_1
 40
0.0882
 41
0.0882
 62
211
 66
1
 10
0
 20
0
 30
0
  0
VERTEX
  8
LAYER_1
 10
138.6606
 20
-178.9783
  0
VERTEX
  8
LAYER_1
 10
138.6606
 20
-179.1795
  0
SEQEND
  0
ENDBLK
  0
BLOCK
  8
LAYER_1
  2
AIGNBL01030184
 70
64
 10
0
 20
0
 30
0
  3
AIGNBL01030184
  0
POLYLINE
  8
LAYER_1
 40
0.0882
 41
0.0882
 62
211
 66
1
 10
0
 20
0
 30
0
  0
VERTEX
  8
LAYER_1
 10
140.7607
 20
-179.1795
  0
VERTEX
  8
LAYER_1
 10
140.7607
 20
-179.2781
  0
SEQEND
  0
ENDBLK
  0
BLOCK
  8
LAYER_1
  2
AIGNBL01030185
 70
64
 10
0
 20
0
 30
0
  3
AIGNBL01030185
  0
POLYLINE
  8
LAYER_1
 40
0.0882
 41
0.0882
 62
211
 66
1
 10
0
 20
0
 30
0
  0
VERTEX
  8
LAYER_1
 10
140.7607
 20
-178.9783
  0
VERTEX
  8
LAYER_1
 10
140.645
 20
-178.9783
  0
SEQEND
  0
ENDBLK
  0
BLOCK
  8
LAYER_1
  2
AIGNBL01030186
 70
64
 10
0
 20
0
 30
0
  3
AIGNBL01030186
  0
POLYLINE
  8
LAYER_1
 40
0.0882
 41
0.0882
 62
211
 66
1
 10
0
 20
0
 30
0
  0
VERTEX
  8
LAYER_1
 10
140.7607
 20
-178.9783
  0
VERTEX
  8
LAYER_1
 10
140.7607
 20
-179.1795
  0
SEQEND
  0
ENDBLK
  0
BLOCK
  8
LAYER_1
  2
AIGNBL01030187
 70
64
 10
0
 20
0
 30
0
  3
AIGNBL01030187
  0
POLYLINE
  8
LAYER_1
 40
0.0882
 41
0.0882
 62
211
 66
1
 10
0
 20
0
 30
0
  0
VERTEX
  8
LAYER_1
 10
140.7607
 20
-179.1795
  0
VERTEX
  8
LAYER_1
 10
140.645
 20
-178.9783
  0
SEQEND
  0
ENDBLK
  0
BLOCK
  8
LAYER_1
  2
AIGNBL01030188
 70
64
 10
0
 20
0
 30
0
  3
AIGNBL01030188
  0
POLYLINE
  8
LAYER_1
 40
0.0882
 41
0.0882
 62
211
 66
1
 10
0
 20
0
 30
0
  0
VERTEX
  8
LAYER_1
 10
140.7607
 20
-178.1942
  0
VERTEX
  8
LAYER_1
 10
140.7607
 20
-178.9783
  0
SEQEND
  0
ENDBLK
  0
BLOCK
  8
LAYER_1
  2
AIGNBL01030189
 70
64
 10
0
 20
0
 30
0
  3
AIGNBL01030189
  0
POLYLINE
  8
LAYER_1
 40
0.0882
 41
0.0882
 62
211
 66
1
 10
0
 20
0
 30
0
  0
VERTEX
  8
LAYER_1
 10
138.7771
 20
-178.9783
  0
VERTEX
  8
LAYER_1
 10
138.6606
 20
-178.9783
  0
SEQEND
  0
ENDBLK
  0
BLOCK
  8
LAYER_1
  2
AIGNBL0103018A
 70
64
 10
0
 20
0
 30
0
  3
AIGNBL0103018A
  0
POLYLINE
  8
LAYER_1
 40
0.0882
 41
0.0882
 62
211
 66
1
 10
0
 20
0
 30
0
  0
VERTEX
  8
LAYER_1
 10
138.7771
 20
-178.0785
  0
VERTEX
  8
LAYER_1
 10
138.6606
 20
-178.1942
  0
SEQEND
  0
ENDBLK
  0
BLOCK
  8
LAYER_1
  2
AIGNBL0103018B
 70
64
 10
0
 20
0
 30
0
  3
AIGNBL0103018B
  0
POLYLINE
  8
LAYER_1
 40
0.0882
 41
0.0882
 62
211
 66
1
 10
0
 20
0
 30
0
  0
VERTEX
  8
LAYER_1
 10
138.6606
 20
-178.1942
  0
VERTEX
  8
LAYER_1
 10
138.6606
 20
-178.9783
  0
SEQEND
  0
ENDBLK
  0
BLOCK
  8
LAYER_1
  2
AIGNBL0103018C
 70
64
 10
0
 20
0
 30
0
  3
AIGNBL0103018C
  0
POLYLINE
  8
LAYER_1
 40
0.0882
 41
0.0882
 62
211
 66
1
 10
0
 20
0
 30
0
  0
VERTEX
  8
LAYER_1
 10
138.6606
 20
-178.1942
  0
VERTEX
  8
LAYER_1
 10
138.7771
 20
-178.1942
  0
SEQEND
  0
ENDBLK
  0
BLOCK
  8
LAYER_1
  2
AIGNBL0103018D
 70
64
 10
0
 20
0
 30
0
  3
AIGNBL0103018D
  0
POLYLINE
  8
LAYER_1
 40
0.0882
 41
0.0882
 62
211
 66
1
 10
0
 20
0
 30
0
  0
VERTEX
  8
LAYER_1
 10
138.7771
 20
-178.9783
  0
VERTEX
  8
LAYER_1
 10
138.6606
 20
-179.1795
  0
SEQEND
  0
ENDBLK
  0
BLOCK
  8
LAYER_1
  2
AIGNBL0103018E
 70
64
 10
0
 20
0
 30
0
  3
AIGNBL0103018E
  0
POLYLINE
  8
LAYER_1
 40
0.0882
 41
0.0882
 62
211
 66
1
 10
0
 20
0
 30
0
  0
VERTEX
  8
LAYER_1
 10
138.7771
 20
-178.1942
  0
VERTEX
  8
LAYER_1
 10
138.7771
 20
-178.9783
  0
SEQEND
  0
ENDBLK
  0
BLOCK
  8
LAYER_1
  2
AIGNBL0103018F
 70
64
 10
0
 20
0
 30
0
  3
AIGNBL0103018F
  0
POLYLINE
  8
LAYER_1
 40
0.0882
 41
0.0882
 62
211
 66
1
 10
0
 20
0
 30
0
  0
VERTEX
  8
LAYER_1
 10
138.7771
 20
-178.0785
  0
VERTEX
  8
LAYER_1
 10
138.7771
 20
-178.1942
  0
SEQEND
  0
ENDBLK
  0
BLOCK
  8
LAYER_1
  2
AIGNBL01030190
 70
64
 10
0
 20
0
 30
0
  3
AIGNBL01030190
  0
POLYLINE
  8
LAYER_1
 40
0.0882
 41
0.0882
 62
211
 66
1
 10
0
 20
0
 30
0
  0
VERTEX
  8
LAYER_1
 10
140.645
 20
-178.0785
  0
VERTEX
  8
LAYER_1
 10
140.7607
 20
-178.1942
  0
SEQEND
  0
ENDBLK
  0
BLOCK
  8
LAYER_1
  2
AIGNBL01030191
 70
64
 10
0
 20
0
 30
0
  3
AIGNBL01030191
  0
POLYLINE
  8
LAYER_1
 40
0.0882
 41
0.0882
 62
211
 66
1
 10
0
 20
0
 30
0
  0
VERTEX
  8
LAYER_1
 10
140.7607
 20
-178.1942
  0
VERTEX
  8
LAYER_1
 10
140.645
 20
-178.1942
  0
SEQEND
  0
ENDBLK
  0
BLOCK
  8
LAYER_1
  2
AIGNBL01030192
 70
64
 10
0
 20
0
 30
0
  3
AIGNBL01030192
  0
POLYLINE
  8
LAYER_1
 40
0.0882
 41
0.0882
 62
211
 66
1
 10
0
 20
0
 30
0
  0
VERTEX
  8
LAYER_1
 10
140.645
 20
-178.1942
  0
VERTEX
  8
LAYER_1
 10
140.645
 20
-178.0785
  0
SEQEND
  0
ENDBLK
  0
BLOCK
  8
LAYER_1
  2
AIGNBL01030193
 70
64
 10
0
 20
0
 30
0
  3
AIGNBL01030193
  0
POLYLINE
  8
LAYER_1
 40
0.0882
 41
0.0882
 62
211
 66
1
 10
0
 20
0
 30
0
  0
VERTEX
  8
LAYER_1
 10
140.645
 20
-178.1942
  0
VERTEX
  8
LAYER_1
 10
140.645
 20
-178.0785
  0
SEQEND
  0
ENDBLK
  0
BLOCK
  8
LAYER_1
  2
AIGNBL01030194
 70
64
 10
0
 20
0
 30
0
  3
AIGNBL01030194
  0
POLYLINE
  8
LAYER_1
 40
0.0882
 41
0.0882
 62
211
 66
1
 10
0
 20
0
 30
0
  0
VERTEX
  8
LAYER_1
 10
140.645
 20
-178.9783
  0
VERTEX
  8
LAYER_1
 10
140.645
 20
-178.1942
  0
SEQEND
  0
ENDBLK
  0
BLOCK
  8
LAYER_1
  2
AIGNBL01030195
 70
64
 10
0
 20
0
 30
0
  3
AIGNBL01030195
  0
POLYLINE
  8
LAYER_1
 40
0.0882
 41
0.0882
 62
211
 66
1
 10
0
 20
0
 30
0
  0
VERTEX
  8
LAYER_1
 10
140.645
 20
-178.0785
  0
VERTEX
  8
LAYER_1
 10
138.7771
 20
-178.0785
  0
SEQEND
  0
ENDBLK
  0
BLOCK
  8
LAYER_1
  2
AIGNBL01030196
 70
64
 10
0
 20
0
 30
0
  3
AIGNBL01030196
  0
POLYLINE
  8
LAYER_1
 40
0.0882
 41
0.0882
 62
211
 66
1
 10
0
 20
0
 30
0
  0
VERTEX
  8
LAYER_1
 10
140.645
 20
-178.9783
  0
VERTEX
  8
LAYER_1
 10
140.0607
 20
-178.9783
  0
SEQEND
  0
ENDBLK
  0
BLOCK
  8
LAYER_1
  2
AIGNBL01030197
 70
64
 10
0
 20
0
 30
0
  3
AIGNBL01030197
  0
POLYLINE
  8
LAYER_1
 40
0.0882
 41
0.0882
 62
211
 66
1
 10
0
 20
0
 30
0
  0
VERTEX
  8
LAYER_1
 10
138.7771
 20
-178.1942
  0
VERTEX
  8
LAYER_1
 10
140.645
 20
-178.1942
  0
SEQEND
  0
ENDBLK
  0
BLOCK
  8
LAYER_1
  2
AIGNBL01030198
 70
64
 10
0
 20
0
 30
0
  3
AIGNBL01030198
  0
POLYLINE
  8
LAYER_1
 40
0.0882
 41
0.0882
 62
211
 66
1
 10
0
 20
0
 30
0
  0
VERTEX
  8
LAYER_1
 10
138.261
 20
-179.2781
  0
VERTEX
  8
LAYER_1
 10
138.261
 20
-181.578
  0
SEQEND
  0
ENDBLK
  0
BLOCK
  8
LAYER_1
  2
AIGNBL01030199
 70
64
 10
0
 20
0
 30
0
  3
AIGNBL01030199
  0
POLYLINE
  8
LAYER_1
 40
0.0882
 41
0.0882
 62
211
 66
1
 10
0
 20
0
 30
0
  0
VERTEX
  8
LAYER_1
 10
141.1611
 20
-179.2781
  0
VERTEX
  8
LAYER_1
 10
140.0607
 20
-179.2781
  0
SEQEND
  0
ENDBLK
  0
BLOCK
  8
LAYER_1
  2
AIGNBL0103019A
 70
64
 10
0
 20
0
 30
0
  3
AIGNBL0103019A
  0
POLYLINE
  8
LAYER_1
 40
0.0882
 41
0.0882
 62
211
 66
1
 10
0
 20
0
 30
0
  0
VERTEX
  8
LAYER_1
 10
141.1611
 20
-181.578
  0
VERTEX
  8
LAYER_1
 10
141.1611
 20
-179.2781
  0
SEQEND
  0
ENDBLK
  0
BLOCK
  8
LAYER_1
  2
AIGNBL0103019B
 70
64
 10
0
 20
0
 30
0
  3
AIGNBL0103019B
  0
POLYLINE
  8
LAYER_1
 40
0.0882
 41
0.0882
 62
211
 66
1
 10
0
 20
0
 30
0
  0
VERTEX
  8
LAYER_1
 10
139.7107
 20
-183.3281
  0
VERTEX
  8
LAYER_1
 10
139.7107
 20
-177.7781
  0
SEQEND
  0
ENDBLK
  0
BLOCK
  8
LAYER_1
  2
AIGNBL0103019C
 70
64
 10
0
 20
0
 30
0
  3
AIGNBL0103019C
  0
INSERT
  8
LAYER_1
  2
AIGNBL0104019D
 10
0
 20
0
 30
0
  0
INSERT
  8
LAYER_1
  2
AIGNBL0104019E
 10
0
 20
0
 30
0
  0
INSERT
  8
LAYER_1
  2
AIGNBL0104019F
 10
0
 20
0
 30
0
  0
INSERT
  8
LAYER_1
  2
AIGNBL010401A0
 10
0
 20
0
 30
0
  0
INSERT
  8
LAYER_1
  2
AIGNBL010401A1
 10
0
 20
0
 30
0
  0
INSERT
  8
LAYER_1
  2
AIGNBL010401A2
 10
0
 20
0
 30
0
  0
ENDBLK
  0
BLOCK
  8
LAYER_1
  2
AIGNBL010301A3
 70
64
 10
0
 20
0
 30
0
  3
AIGNBL010301A3
  0
POLYLINE
  8
LAYER_1
 40
0.0882
 41
0.0882
 62
211
 66
1
 10
0
 20
0
 30
0
  0
VERTEX
  8
LAYER_1
 10
136.7107
 20
-181.578
 42
-0.312949469
  0
VERTEX
  8
LAYER_1
 10
138.6606
 20
-178.7682
  0
SEQEND
  0
ENDBLK
  0
BLOCK
  8
LAYER_1
  2
AIGNBL010301A4
 70
64
 10
0
 20
0
 30
0
  3
AIGNBL010301A4
  0
POLYLINE
  8
LAYER_1
 40
0.0882
 41
0.0882
 62
211
 66
1
 10
0
 20
0
 30
0
  0
VERTEX
  8
LAYER_1
 10
140.7607
 20
-178.7682
 42
-0.4142556471
  0
VERTEX
  8
LAYER_1
 10
142.5212
 20
-182.6281
 42
-0.4142127493
  0
VERTEX
  8
LAYER_1
 10
138.6606
 20
-184.3885
 42
-0.3129492911
  0
VERTEX
  8
LAYER_1
 10
136.7107
 20
-181.578
  0
SEQEND
  0
ENDBLK
  0
BLOCK
  8
LAYER_1
  2
AIGNBL010301A5
 70
64
 10
0
 20
0
 30
0
  3
AIGNBL010301A5
  0
POLYLINE
  8
LAYER_1
 40
0.0882
 41
0.0882
 62
211
 66
1
 10
0
 20
0
 30
0
  0
VERTEX
  8
LAYER_1
 10
139.7107
 20
-184.8784
  0
VERTEX
  8
LAYER_1
 10
139.7107
 20
-177.7781
  0
SEQEND
  0
ENDBLK
  0
BLOCK
  8
LAYER_1
  2
AIGNBL010301A6
 70
64
 10
0
 20
0
 30
0
  3
AIGNBL010301A6
  0
POLYLINE
  8
LAYER_1
 40
0.0882
 41
0.0882
 62
211
 66
1
 10
0
 20
0
 30
0
  0
VERTEX
  8
LAYER_1
 10
143.0111
 20
-181.578
  0
VERTEX
  8
LAYER_1
 10
136.411
 20
-181.578
  0
SEQEND
  0
ENDBLK
  0
BLOCK
  8
LAYER_3
  2
AIGNBL03030004
 70
64
 10
0
 20
0
 30
0
  3
AIGNBL03030004
  0
POLYLINE
  8
LAYER_3
 40
0.1764
 41
0.1764
 62
4
 66
1
 10
0
 20
0
 30
0
  0
VERTEX
  8
LAYER_3
 10
220.9088
 20
-168.8507
  0
VERTEX
  8
LAYER_3
 10
220.9088
 20
-168.4459
  0
SEQEND
  0
POLYLINE
  8
LAYER_3
 40
0.1764
 41
0.1764
 62
4
 66
1
 10
0
 20
0
 30
0
  0
VERTEX
  8
LAYER_3
 10
224.3519
 20
-168.8507
  0
VERTEX
  8
LAYER_3
 10
224.3519
 20
-168.4459
  0
SEQEND
  0
POLYLINE
  8
LAYER_3
 40
0.1764
 41
0.1764
 62
4
 66
1
 10
0
 20
0
 30
0
  0
VERTEX
  8
LAYER_3
 10
219.0884
 20
-168.007
 42
-0.09315463462
  0
VERTEX
  8
LAYER_3
 10
219.2284
 20
-167.7919
 42
-0.06099431051
  0
VERTEX
  8
LAYER_3
 10
219.4625
 20
-167.6013
 42
-0.04343028764
  0
VERTEX
  8
LAYER_3
 10
219.8307
 20
-167.4112
 42
-0.04818415866
  0
VERTEX
  8
LAYER_3
 10
220.729
 20
-167.1405
 42
-0.05019060955
  0
VERTEX
  8
LAYER_3
 10
222.5851
 20
-166.9366
 42
-0.0009775359455
  0
VERTEX
  8
LAYER_3
 10
222.6303
 20
-166.9359
  0
SEQEND
  0
POLYLINE
  8
LAYER_3
 40
0.1764
 41
0.1764
 62
4
 66
1
 10
0
 20
0
 30
0
  0
VERTEX
  8
LAYER_3
 10
220.4658
 20
-168.4459
  0
VERTEX
  8
LAYER_3
 10
224.7949
 20
-168.4459
  0
SEQEND
  0
POLYLINE
  8
LAYER_3
 40
0.1764
 41
0.1764
 62
4
 66
1
 10
0
 20
0
 30
0
  0
VERTEX
  8
LAYER_3
 10
224.7949
 20
-168.4459
 42
-0.1038571388
  0
VERTEX
  8
LAYER_3
 10
224.966
 20
-168.2923
 42
-0.07248586319
  0
VERTEX
  8
LAYER_3
 10
225.2171
 20
-168.1938
 42
-0.05970155757
  0
VERTEX
  8
LAYER_3
 10
225.6675
 20
-168.1441
  0
SEQEND
  0
POLYLINE
  8
LAYER_3
 40
0.1764
 41
0.1764
 62
4
 66
1
 10
0
 20
0
 30
0
  0
VERTEX
  8
LAYER_3
 10
219.0884
 20
-168.007
 42
0.5974496259
  0
VERTEX
  8
LAYER_3
 10
219.1825
 20
-168.1441
  0
SEQEND
  0
POLYLINE
  8
LAYER_3
 40
0.1764
 41
0.1764
 62
4
 66
1
 10
0
 20
0
 30
0
  0
VERTEX
  8
LAYER_3
 10
226.0778
 20
-168.1441
  0
VERTEX
  8
LAYER_3
 10
219.1825
 20
-168.1441
  0
SEQEND
  0
POLYLINE
  8
LAYER_3
 40
0.1764
 41
0.1764
 62
4
 66
1
 10
0
 20
0
 30
0
  0
VERTEX
  8
LAYER_3
 10
226.1719
 20
-168.007
 42
0.09313307397
  0
VERTEX
  8
LAYER_3
 10
226.0319
 20
-167.7919
 42
0.0609909956
  0
VERTEX
  8
LAYER_3
 10
225.7979
 20
-167.6013
 42
0.04343422422
  0
VERTEX
  8
LAYER_3
 10
225.4298
 20
-167.4112
 42
0.0481947386
  0
VERTEX
  8
LAYER_3
 10
224.5317
 20
-167.1405
 42
0.0501918133
  0
VERTEX
  8
LAYER_3
 10
222.6752
 20
-166.9366
 42
0.0009773916597
  0
VERTEX
  8
LAYER_3
 10
222.63
 20
-166.9359
  0
SEQEND
  0
POLYLINE
  8
LAYER_3
 40
0.1764
 41
0.1764
 62
4
 66
1
 10
0
 20
0
 30
0
  0
VERTEX
  8
LAYER_3
 10
225.6582
 20
-168.1441
  0
VERTEX
  8
LAYER_3
 10
225.6751
 20
-168.1437
  0
SEQEND
  0
POLYLINE
  8
LAYER_3
 40
0.1764
 41
0.1764
 62
4
 66
1
 10
0
 20
0
 30
0
  0
VERTEX
  8
LAYER_3
 10
220.4658
 20
-168.4459
 42
0.104388051
  0
VERTEX
  8
LAYER_3
 10
220.2931
 20
-168.2915
 42
0.07251651004
  0
VERTEX
  8
LAYER_3
 10
220.0396
 20
-168.1929
 42
0.05923572747
  0
VERTEX
  8
LAYER_3
 10
219.5852
 20
-168.1437
  0
SEQEND
  0
POLYLINE
  8
LAYER_3
 40
0.1764
 41
0.1764
 62
4
 66
1
 10
0
 20
0
 30
0
  0
VERTEX
  8
LAYER_3
 10
226.1719
 20
-168.007
 42
-0.5971611011
  0
VERTEX
  8
LAYER_3
 10
226.0782
 20
-168.1441
  0
SEQEND
  0
POLYLINE
  8
LAYER_3
 40
0.1764
 41
0.1764
 62
4
 66
1
 10
0
 20
0
 30
0
  0
VERTEX
  8
LAYER_3
 10
226.0782
 20
-168.1441
  0
VERTEX
  8
LAYER_3
 10
226.0778
 20
-168.1441
  0
SEQEND
  0
ENDBLK
  0
BLOCK
  8
LAYER_1
  2
AIGNBL01020003
 70
64
 10
0
 20
0
 30
0
  3
AIGNBL01020003
  0
POLYLINE
  8
LAYER_1
 40
0.0882
 41
0.0882
 62
211
 66
1
 10
0
 20
0
 30
0
  0
VERTEX
  8
LAYER_1
 10
124.8706
 20
-175.8584
  0
VERTEX
  8
LAYER_1
 10
124.8706
 20
-177.9579
  0
SEQEND
  0
ENDBLK
  0
BLOCK
  8
LAYER_1
  2
AIGNBL01020004
 70
64
 10
0
 20
0
 30
0
  3
AIGNBL01020004
  0
POLYLINE
  8
LAYER_1
 40
0.0882
 41
0.0882
 62
211
 66
1
 10
0
 20
0
 30
0
  0
VERTEX
  8
LAYER_1
 10
122.5455
 20
-174.5583
  0
VERTEX
  8
LAYER_1
 10
122.7205
 20
-174.3585
  0
SEQEND
  0
ENDBLK
  0
BLOCK
  8
LAYER_1
  2
AIGNBL01020005
 70
64
 10
0
 20
0
 30
0
  3
AIGNBL01020005
  0
POLYLINE
  8
LAYER_1
 40
0.0882
 41
0.0882
 62
211
 66
1
 10
0
 20
0
 30
0
  0
VERTEX
  8
LAYER_1
 10
124.5457
 20
-174.5583
  0
VERTEX
  8
LAYER_1
 10
124.3707
 20
-174.3585
  0
SEQEND
  0
ENDBLK
  0
BLOCK
  8
LAYER_1
  2
AIGNBL01020006
 70
64
 10
0
 20
0
 30
0
  3
AIGNBL01020006
  0
POLYLINE
  8
LAYER_1
 40
0.0882
 41
0.0882
 62
211
 66
1
 10
0
 20
0
 30
0
  0
VERTEX
  8
LAYER_1
 10
122.5455
 20
-175.7579
  0
VERTEX
  8
LAYER_1
 10
122.5083
 20
-175.7579
  0
SEQEND
  0
ENDBLK
  0
BLOCK
  8
LAYER_1
  2
AIGNBL01020007
 70
64
 10
0
 20
0
 30
0
  3
AIGNBL01020007
  0
POLYLINE
  8
LAYER_1
 40
0.0882
 41
0.0882
 62
211
 66
1
 10
0
 20
0
 30
0
  0
VERTEX
  8
LAYER_1
 10
122.2206
 20
-175.8584
  0
VERTEX
  8
LAYER_1
 10
122.2206
 20
-177.9579
  0
SEQEND
  0
ENDBLK
  0
BLOCK
  8
LAYER_1
  2
AIGNBL01020008
 70
64
 10
0
 20
0
 30
0
  3
AIGNBL01020008
  0
POLYLINE
  8
LAYER_1
 40
0.0882
 41
0.0882
 62
211
 66
1
 10
0
 20
0
 30
0
  0
VERTEX
  8
LAYER_1
 10
122.4445
 20
-173.4586
  0
VERTEX
  8
LAYER_1
 10
122.4445
 20
-172.4079
  0
SEQEND
  0
ENDBLK
  0
BLOCK
  8
LAYER_1
  2
AIGNBL01020009
 70
64
 10
0
 20
0
 30
0
  3
AIGNBL01020009
  0
POLYLINE
  8
LAYER_1
 40
0.0882
 41
0.0882
 62
211
 66
1
 10
0
 20
0
 30
0
  0
VERTEX
  8
LAYER_1
 10
124.6446
 20
-173.4586
  0
VERTEX
  8
LAYER_1
 10
124.6446
 20
-172.4079
  0
SEQEND
  0
ENDBLK
  0
BLOCK
  8
LAYER_1
  2
AIGNBL0102000A
 70
64
 10
0
 20
0
 30
0
  3
AIGNBL0102000A
  0
POLYLINE
  8
LAYER_1
 40
0.0882
 41
0.0882
 62
211
 66
1
 10
0
 20
0
 30
0
  0
VERTEX
  8
LAYER_1
 10
123.5456
 20
-172.248
  0
VERTEX
  8
LAYER_1
 10
123.0447
 20
-172.248
  0
SEQEND
  0
ENDBLK
  0
BLOCK
  8
LAYER_1
  2
AIGNBL0102000B
 70
64
 10
0
 20
0
 30
0
  3
AIGNBL0102000B
  0
POLYLINE
  8
LAYER_1
 40
0.0882
 41
0.0882
 62
211
 66
1
 10
0
 20
0
 30
0
  0
VERTEX
  8
LAYER_1
 10
123.5456
 20
-172.248
  0
VERTEX
  8
LAYER_1
 10
124.0445
 20
-172.248
  0
SEQEND
  0
ENDBLK
  0
BLOCK
  8
LAYER_1
  2
AIGNBL0102000C
 70
64
 10
0
 20
0
 30
0
  3
AIGNBL0102000C
  0
POLYLINE
  8
LAYER_1
 40
0.0882
 41
0.0882
 62
211
 66
1
 10
0
 20
0
 30
0
  0
VERTEX
  8
LAYER_1
 10
124.3707
 20
-173.5585
  0
VERTEX
  8
LAYER_1
 10
124.4648
 20
-173.5585
  0
SEQEND
  0
ENDBLK
  0
BLOCK
  8
LAYER_1
  2
AIGNBL0102000D
 70
64
 10
0
 20
0
 30
0
  3
AIGNBL0102000D
  0
POLYLINE
  8
LAYER_1
 40
0.0882
 41
0.0882
 62
211
 66
1
 10
0
 20
0
 30
0
  0
VERTEX
  8
LAYER_1
 10
124.4648
 20
-173.5585
  0
VERTEX
  8
LAYER_1
 10
124.6446
 20
-173.4586
  0
SEQEND
  0
ENDBLK
  0
BLOCK
  8
LAYER_1
  2
AIGNBL0102000E
 70
64
 10
0
 20
0
 30
0
  3
AIGNBL0102000E
  0
POLYLINE
  8
LAYER_1
 40
0.0882
 41
0.0882
 62
211
 66
1
 10
0
 20
0
 30
0
  0
VERTEX
  8
LAYER_1
 10
124.1647
 20
-172.308
  0
VERTEX
  8
LAYER_1
 10
124.4648
 20
-172.308
  0
SEQEND
  0
ENDBLK
  0
BLOCK
  8
LAYER_1
  2
AIGNBL0102000F
 70
64
 10
0
 20
0
 30
0
  3
AIGNBL0102000F
  0
POLYLINE
  8
LAYER_1
 40
0.0882
 41
0.0882
 62
211
 66
1
 10
0
 20
0
 30
0
  0
VERTEX
  8
LAYER_1
 10
122.8745
 20
-172.0578
  0
VERTEX
  8
LAYER_1
 10
122.8883
 20
-172.0978
  0
SEQEND
  0
ENDBLK
  0
BLOCK
  8
LAYER_1
  2
AIGNBL01020010
 70
64
 10
0
 20
0
 30
0
  3
AIGNBL01020010
  0
POLYLINE
  8
LAYER_1
 40
0.0882
 41
0.0882
 62
211
 66
1
 10
0
 20
0
 30
0
  0
VERTEX
  8
LAYER_1
 10
122.8745
 20
-171.9979
  0
VERTEX
  8
LAYER_1
 10
122.8745
 20
-172.0578
  0
SEQEND
  0
ENDBLK
  0
BLOCK
  8
LAYER_1
  2
AIGNBL01020011
 70
64
 10
0
 20
0
 30
0
  3
AIGNBL01020011
  0
POLYLINE
  8
LAYER_1
 40
0.0882
 41
0.0882
 62
211
 66
1
 10
0
 20
0
 30
0
  0
VERTEX
  8
LAYER_1
 10
122.8945
 20
-171.9283
  0
VERTEX
  8
LAYER_1
 10
122.8745
 20
-171.9979
  0
SEQEND
  0
ENDBLK
  0
BLOCK
  8
LAYER_1
  2
AIGNBL01020012
 70
64
 10
0
 20
0
 30
0
  3
AIGNBL01020012
  0
POLYLINE
  8
LAYER_1
 40
0.0882
 41
0.0882
 62
211
 66
1
 10
0
 20
0
 30
0
  0
VERTEX
  8
LAYER_1
 10
124.1947
 20
-171.9283
  0
VERTEX
  8
LAYER_1
 10
124.2047
 20
-171.9283
  0
SEQEND
  0
ENDBLK
  0
BLOCK
  8
LAYER_1
  2
AIGNBL01020013
 70
64
 10
0
 20
0
 30
0
  3
AIGNBL01020013
  0
POLYLINE
  8
LAYER_1
 40
0.0882
 41
0.0882
 62
211
 66
1
 10
0
 20
0
 30
0
  0
VERTEX
  8
LAYER_1
 10
124.2146
 20
-172.0578
  0
VERTEX
  8
LAYER_1
 10
124.2146
 20
-171.9979
  0
SEQEND
  0
ENDBLK
  0
BLOCK
  8
LAYER_1
  2
AIGNBL01020014
 70
64
 10
0
 20
0
 30
0
  3
AIGNBL01020014
  0
POLYLINE
  8
LAYER_1
 40
0.0882
 41
0.0882
 62
211
 66
1
 10
0
 20
0
 30
0
  0
VERTEX
  8
LAYER_1
 10
124.2016
 20
-172.0978
  0
VERTEX
  8
LAYER_1
 10
124.2146
 20
-172.0578
  0
SEQEND
  0
ENDBLK
  0
BLOCK
  8
LAYER_1
  2
AIGNBL01020015
 70
64
 10
0
 20
0
 30
0
  3
AIGNBL01020015
  0
POLYLINE
  8
LAYER_1
 40
0.0882
 41
0.0882
 62
211
 66
1
 10
0
 20
0
 30
0
  0
VERTEX
  8
LAYER_1
 10
124.0445
 20
-172.248
  0
VERTEX
  8
LAYER_1
 10
124.0548
 20
-172.248
  0
SEQEND
  0
ENDBLK
  0
BLOCK
  8
LAYER_1
  2
AIGNBL01020016
 70
64
 10
0
 20
0
 30
0
  3
AIGNBL01020016
  0
POLYLINE
  8
LAYER_1
 40
0.0882
 41
0.0882
 62
211
 66
1
 10
0
 20
0
 30
0
  0
VERTEX
  8
LAYER_1
 10
122.8745
 20
-170.788
  0
VERTEX
  8
LAYER_1
 10
122.8745
 20
-170.7377
  0
SEQEND
  0
ENDBLK
  0
BLOCK
  8
LAYER_1
  2
AIGNBL01020017
 70
64
 10
0
 20
0
 30
0
  3
AIGNBL01020017
  0
POLYLINE
  8
LAYER_1
 40
0.0882
 41
0.0882
 62
211
 66
1
 10
0
 20
0
 30
0
  0
VERTEX
  8
LAYER_1
 10
122.9048
 20
-170.8383
  0
VERTEX
  8
LAYER_1
 10
122.8745
 20
-170.788
  0
SEQEND
  0
ENDBLK
  0
BLOCK
  8
LAYER_1
  2
AIGNBL01020018
 70
64
 10
0
 20
0
 30
0
  3
AIGNBL01020018
  0
POLYLINE
  8
LAYER_1
 40
0.0882
 41
0.0882
 62
211
 66
1
 10
0
 20
0
 30
0
  0
VERTEX
  8
LAYER_1
 10
124.2146
 20
-170.788
  0
VERTEX
  8
LAYER_1
 10
124.225
 20
-170.7377
  0
SEQEND
  0
ENDBLK
  0
BLOCK
  8
LAYER_1
  2
AIGNBL01020019
 70
64
 10
0
 20
0
 30
0
  3
AIGNBL01020019
  0
POLYLINE
  8
LAYER_1
 40
0.0882
 41
0.0882
 62
211
 66
1
 10
0
 20
0
 30
0
  0
VERTEX
  8
LAYER_1
 10
124.1947
 20
-170.8383
  0
VERTEX
  8
LAYER_1
 10
124.2146
 20
-170.788
  0
SEQEND
  0
ENDBLK
  0
BLOCK
  8
LAYER_1
  2
AIGNBL0102001A
 70
64
 10
0
 20
0
 30
0
  3
AIGNBL0102001A
  0
POLYLINE
  8
LAYER_1
 40
0.0882
 41
0.0882
 62
211
 66
1
 10
0
 20
0
 30
0
  0
VERTEX
  8
LAYER_1
 10
124.225
 20
-170.7377
  0
VERTEX
  8
LAYER_1
 10
124.225
 20
-170.458
  0
SEQEND
  0
ENDBLK
  0
BLOCK
  8
LAYER_1
  2
AIGNBL0102001B
 70
64
 10
0
 20
0
 30
0
  3
AIGNBL0102001B
  0
POLYLINE
  8
LAYER_1
 40
0.0882
 41
0.0882
 62
211
 66
1
 10
0
 20
0
 30
0
  0
VERTEX
  8
LAYER_1
 10
122.8745
 20
-170.7377
  0
VERTEX
  8
LAYER_1
 10
122.8745
 20
-170.458
  0
SEQEND
  0
ENDBLK
  0
BLOCK
  8
LAYER_1
  2
AIGNBL0102001C
 70
64
 10
0
 20
0
 30
0
  3
AIGNBL0102001C
  0
POLYLINE
  8
LAYER_1
 40
0.0882
 41
0.0882
 62
211
 66
1
 10
0
 20
0
 30
0
  0
VERTEX
  8
LAYER_1
 10
122.4445
 20
-172.4079
  0
VERTEX
  8
LAYER_1
 10
122.6244
 20
-172.308
  0
SEQEND
  0
ENDBLK
  0
BLOCK
  8
LAYER_1
  2
AIGNBL0102001D
 70
64
 10
0
 20
0
 30
0
  3
AIGNBL0102001D
  0
POLYLINE
  8
LAYER_1
 40
0.0882
 41
0.0882
 62
211
 66
1
 10
0
 20
0
 30
0
  0
VERTEX
  8
LAYER_1
 10
124.6446
 20
-172.4079
  0
VERTEX
  8
LAYER_1
 10
124.4648
 20
-172.308
  0
SEQEND
  0
ENDBLK
  0
BLOCK
  8
LAYER_1
  2
AIGNBL0102001E
 70
64
 10
0
 20
0
 30
0
  3
AIGNBL0102001E
  0
POLYLINE
  8
LAYER_1
 40
0.0882
 41
0.0882
 62
211
 66
1
 10
0
 20
0
 30
0
  0
VERTEX
  8
LAYER_1
 10
124.1247
 20
-170.9582
  0
VERTEX
  8
LAYER_1
 10
124.1947
 20
-170.8383
  0
SEQEND
  0
ENDBLK
  0
BLOCK
  8
LAYER_1
  2
AIGNBL0102001F
 70
64
 10
0
 20
0
 30
0
  3
AIGNBL0102001F
  0
POLYLINE
  8
LAYER_1
 40
0.0882
 41
0.0882
 62
211
 66
1
 10
0
 20
0
 30
0
  0
VERTEX
  8
LAYER_1
 10
124.1947
 20
-171.9283
  0
VERTEX
  8
LAYER_1
 10
124.1247
 20
-171.7581
  0
SEQEND
  0
ENDBLK
  0
BLOCK
  8
LAYER_1
  2
AIGNBL01020020
 70
64
 10
0
 20
0
 30
0
  3
AIGNBL01020020
  0
POLYLINE
  8
LAYER_1
 40
0.0882
 41
0.0882
 62
211
 66
1
 10
0
 20
0
 30
0
  0
VERTEX
  8
LAYER_1
 10
122.9744
 20
-170.9582
  0
VERTEX
  8
LAYER_1
 10
122.9048
 20
-170.8383
  0
SEQEND
  0
ENDBLK
  0
BLOCK
  8
LAYER_1
  2
AIGNBL01020021
 70
64
 10
0
 20
0
 30
0
  3
AIGNBL01020021
  0
POLYLINE
  8
LAYER_1
 40
0.0882
 41
0.0882
 62
211
 66
1
 10
0
 20
0
 30
0
  0
VERTEX
  8
LAYER_1
 10
122.8945
 20
-171.9283
  0
VERTEX
  8
LAYER_1
 10
122.9744
 20
-171.7581
  0
SEQEND
  0
ENDBLK
  0
BLOCK
  8
LAYER_1
  2
AIGNBL01020022
 70
64
 10
0
 20
0
 30
0
  3
AIGNBL01020022
  0
POLYLINE
  8
LAYER_1
 40
0.0882
 41
0.0882
 62
211
 66
1
 10
0
 20
0
 30
0
  0
VERTEX
  8
LAYER_1
 10
124.1247
 20
-171.7581
  0
VERTEX
  8
LAYER_1
 10
124.1247
 20
-170.9582
  0
SEQEND
  0
ENDBLK
  0
BLOCK
  8
LAYER_1
  2
AIGNBL01020023
 70
64
 10
0
 20
0
 30
0
  3
AIGNBL01020023
  0
POLYLINE
  8
LAYER_1
 40
0.0882
 41
0.0882
 62
211
 66
1
 10
0
 20
0
 30
0
  0
VERTEX
  8
LAYER_1
 10
122.9744
 20
-171.7581
  0
VERTEX
  8
LAYER_1
 10
122.9744
 20
-170.9582
  0
SEQEND
  0
ENDBLK
  0
BLOCK
  8
LAYER_1
  2
AIGNBL01020024
 70
64
 10
0
 20
0
 30
0
  3
AIGNBL01020024
  0
POLYLINE
  8
LAYER_1
 40
0.0882
 41
0.0882
 62
211
 66
1
 10
0
 20
0
 30
0
  0
VERTEX
  8
LAYER_1
 10
124.1647
 20
-172.308
  0
VERTEX
  8
LAYER_1
 10
124.1647
 20
-172.2584
  0
SEQEND
  0
ENDBLK
  0
BLOCK
  8
LAYER_1
  2
AIGNBL01020025
 70
64
 10
0
 20
0
 30
0
  3
AIGNBL01020025
  0
POLYLINE
  8
LAYER_1
 40
0.0882
 41
0.0882
 62
211
 66
1
 10
0
 20
0
 30
0
  0
VERTEX
  8
LAYER_1
 10
122.9248
 20
-172.308
  0
VERTEX
  8
LAYER_1
 10
122.9248
 20
-172.2584
  0
SEQEND
  0
ENDBLK
  0
BLOCK
  8
LAYER_1
  2
AIGNBL01020026
 70
64
 10
0
 20
0
 30
0
  3
AIGNBL01020026
  0
POLYLINE
  8
LAYER_1
 40
0.0882
 41
0.0882
 62
211
 66
1
 10
0
 20
0
 30
0
  0
VERTEX
  8
LAYER_1
 10
122.6244
 20
-173.5585
  0
VERTEX
  8
LAYER_1
 10
122.4445
 20
-173.4586
  0
SEQEND
  0
ENDBLK
  0
BLOCK
  8
LAYER_1
  2
AIGNBL01020027
 70
64
 10
0
 20
0
 30
0
  3
AIGNBL01020027
  0
POLYLINE
  8
LAYER_1
 40
0.0882
 41
0.0882
 62
211
 66
1
 10
0
 20
0
 30
0
  0
VERTEX
  8
LAYER_1
 10
122.7205
 20
-173.5585
  0
VERTEX
  8
LAYER_1
 10
122.7205
 20
-174.3585
  0
SEQEND
  0
ENDBLK
  0
BLOCK
  8
LAYER_1
  2
AIGNBL01020028
 70
64
 10
0
 20
0
 30
0
  3
AIGNBL01020028
  0
POLYLINE
  8
LAYER_1
 40
0.0882
 41
0.0882
 62
211
 66
1
 10
0
 20
0
 30
0
  0
VERTEX
  8
LAYER_1
 10
124.3707
 20
-174.3585
  0
VERTEX
  8
LAYER_1
 10
124.3707
 20
-173.5585
  0
SEQEND
  0
ENDBLK
  0
BLOCK
  8
LAYER_1
  2
AIGNBL01020029
 70
64
 10
0
 20
0
 30
0
  3
AIGNBL01020029
  0
POLYLINE
  8
LAYER_1
 40
0.0882
 41
0.0882
 62
211
 66
1
 10
0
 20
0
 30
0
  0
VERTEX
  8
LAYER_1
 10
122.6244
 20
-172.308
  0
VERTEX
  8
LAYER_1
 10
122.9248
 20
-172.308
  0
SEQEND
  0
ENDBLK
  0
BLOCK
  8
LAYER_1
  2
AIGNBL0102002A
 70
64
 10
0
 20
0
 30
0
  3
AIGNBL0102002A
  0
POLYLINE
  8
LAYER_1
 40
0.0882
 41
0.0882
 62
211
 66
1
 10
0
 20
0
 30
0
  0
VERTEX
  8
LAYER_1
 10
122.6244
 20
-173.5585
  0
VERTEX
  8
LAYER_1
 10
122.7205
 20
-173.5585
  0
SEQEND
  0
ENDBLK
  0
BLOCK
  8
LAYER_1
  2
AIGNBL0102002B
 70
64
 10
0
 20
0
 30
0
  3
AIGNBL0102002B
  0
POLYLINE
  8
LAYER_1
 40
0.0882
 41
0.0882
 62
211
 66
1
 10
0
 20
0
 30
0
  0
VERTEX
  8
LAYER_1
 10
122.7205
 20
-173.5585
  0
VERTEX
  8
LAYER_1
 10
124.3707
 20
-173.5585
  0
SEQEND
  0
ENDBLK
  0
BLOCK
  8
LAYER_1
  2
AIGNBL0102002C
 70
64
 10
0
 20
0
 30
0
  3
AIGNBL0102002C
  0
POLYLINE
  8
LAYER_1
 40
0.0882
 41
0.0882
 62
211
 66
1
 10
0
 20
0
 30
0
  0
VERTEX
  8
LAYER_1
 10
122.5455
 20
-174.5583
  0
VERTEX
  8
LAYER_1
 10
122.5455
 20
-175.7579
  0
SEQEND
  0
ENDBLK
  0
BLOCK
  8
LAYER_1
  2
AIGNBL0102002D
 70
64
 10
0
 20
0
 30
0
  3
AIGNBL0102002D
  0
POLYLINE
  8
LAYER_1
 40
0.0882
 41
0.0882
 62
211
 66
1
 10
0
 20
0
 30
0
  0
VERTEX
  8
LAYER_1
 10
124.5833
 20
-175.7579
  0
VERTEX
  8
LAYER_1
 10
124.5457
 20
-175.7579
  0
SEQEND
  0
ENDBLK
  0
BLOCK
  8
LAYER_1
  2
AIGNBL0102002E
 70
64
 10
0
 20
0
 30
0
  3
AIGNBL0102002E
  0
POLYLINE
  8
LAYER_1
 40
0.0882
 41
0.0882
 62
211
 66
1
 10
0
 20
0
 30
0
  0
VERTEX
  8
LAYER_1
 10
124.5457
 20
-174.5583
  0
VERTEX
  8
LAYER_1
 10
124.5457
 20
-175.7579
  0
SEQEND
  0
ENDBLK
  0
BLOCK
  8
LAYER_1
  2
AIGNBL0102002F
 70
64
 10
0
 20
0
 30
0
  3
AIGNBL0102002F
  0
POLYLINE
  8
LAYER_1
 40
0.0882
 41
0.0882
 62
211
 66
1
 10
0
 20
0
 30
0
  0
VERTEX
  8
LAYER_1
 10
124.5457
 20
-175.7579
  0
VERTEX
  8
LAYER_1
 10
122.5455
 20
-175.7579
  0
SEQEND
  0
ENDBLK
  0
BLOCK
  8
LAYER_1
  2
AIGNBL01020030
 70
64
 10
0
 20
0
 30
0
  3
AIGNBL01020030
  0
POLYLINE
  8
LAYER_1
 40
0.0882
 41
0.0882
 62
211
 66
1
 10
0
 20
0
 30
0
  0
VERTEX
  8
LAYER_1
 10
124.5926
 20
-178.0585
  0
VERTEX
  8
LAYER_1
 10
122.5083
 20
-178.0585
  0
SEQEND
  0
ENDBLK
  0
BLOCK
  8
LAYER_1
  2
AIGNBL01020031
 70
64
 10
0
 20
0
 30
0
  3
AIGNBL01020031
  0
POLYLINE
  8
LAYER_1
 40
0.0882
 41
0.0882
 62
211
 66
1
 10
0
 20
0
 30
0
  0
VERTEX
  8
LAYER_1
 10
124.5457
 20
-174.5583
  0
VERTEX
  8
LAYER_1
 10
122.5455
 20
-174.5583
  0
SEQEND
  0
ENDBLK
  0
BLOCK
  8
LAYER_1
  2
AIGNBL01020032
 70
64
 10
0
 20
0
 30
0
  3
AIGNBL01020032
  0
POLYLINE
  8
LAYER_1
 40
0.0882
 41
0.0882
 62
211
 66
1
 10
0
 20
0
 30
0
  0
VERTEX
  8
LAYER_1
 10
122.9248
 20
-172.308
  0
VERTEX
  8
LAYER_1
 10
124.1647
 20
-172.308
  0
SEQEND
  0
ENDBLK
  0
BLOCK
  8
LAYER_1
  2
AIGNBL01020033
 70
64
 10
0
 20
0
 30
0
  3
AIGNBL01020033
  0
POLYLINE
  8
LAYER_1
 40
0.0882
 41
0.0882
 62
211
 66
1
 10
0
 20
0
 30
0
  0
VERTEX
  8
LAYER_1
 10
122.9248
 20
-172.2584
  0
VERTEX
  8
LAYER_1
 10
124.1647
 20
-172.2584
  0
SEQEND
  0
ENDBLK
  0
BLOCK
  8
LAYER_1
  2
AIGNBL01020034
 70
64
 10
0
 20
0
 30
0
  3
AIGNBL01020034
  0
POLYLINE
  8
LAYER_1
 40
0.0882
 41
0.0882
 62
211
 66
1
 10
0
 20
0
 30
0
  0
VERTEX
  8
LAYER_1
 10
122.8745
 20
-170.458
  0
VERTEX
  8
LAYER_1
 10
124.225
 20
-170.458
  0
SEQEND
  0
ENDBLK
  0
BLOCK
  8
LAYER_1
  2
AIGNBL01020035
 70
64
 10
0
 20
0
 30
0
  3
AIGNBL01020035
  0
POLYLINE
  8
LAYER_1
 40
0.0882
 41
0.0882
 62
211
 66
1
 10
0
 20
0
 30
0
  0
VERTEX
  8
LAYER_1
 10
124.8151
 20
-177.9992
  0
VERTEX
  8
LAYER_1
 10
124.8706
 20
-177.9579
  0
SEQEND
  0
ENDBLK
  0
BLOCK
  8
LAYER_1
  2
AIGNBL01020036
 70
64
 10
0
 20
0
 30
0
  3
AIGNBL01020036
  0
POLYLINE
  8
LAYER_1
 40
0.0882
 41
0.0882
 62
211
 66
1
 10
0
 20
0
 30
0
  0
VERTEX
  8
LAYER_1
 10
124.5926
 20
-178.0585
 42
0.1242777376
  0
VERTEX
  8
LAYER_1
 10
124.8151
 20
-177.9992
  0
SEQEND
  0
ENDBLK
  0
BLOCK
  8
LAYER_1
  2
AIGNBL01020037
 70
64
 10
0
 20
0
 30
0
  3
AIGNBL01020037
  0
POLYLINE
  8
LAYER_1
 40
0.0882
 41
0.0882
 62
211
 66
1
 10
0
 20
0
 30
0
  0
VERTEX
  8
LAYER_1
 10
124.8706
 20
-175.8584
  0
VERTEX
  8
LAYER_1
 10
124.8151
 20
-175.8171
  0
SEQEND
  0
ENDBLK
  0
BLOCK
  8
LAYER_1
  2
AIGNBL01020038
 70
64
 10
0
 20
0
 30
0
  3
AIGNBL01020038
  0
POLYLINE
  8
LAYER_1
 40
0.0882
 41
0.0882
 62
211
 66
1
 10
0
 20
0
 30
0
  0
VERTEX
  8
LAYER_1
 10
124.8151
 20
-175.8171
 42
0.1286392752
  0
VERTEX
  8
LAYER_1
 10
124.5833
 20
-175.7579
  0
SEQEND
  0
ENDBLK
  0
BLOCK
  8
LAYER_1
  2
AIGNBL01020039
 70
64
 10
0
 20
0
 30
0
  3
AIGNBL01020039
  0
POLYLINE
  8
LAYER_1
 40
0.0882
 41
0.0882
 62
211
 66
1
 10
0
 20
0
 30
0
  0
VERTEX
  8
LAYER_1
 10
122.2206
 20
-177.9579
  0
VERTEX
  8
LAYER_1
 10
122.2761
 20
-177.9992
  0
SEQEND
  0
ENDBLK
  0
BLOCK
  8
LAYER_1
  2
AIGNBL0102003A
 70
64
 10
0
 20
0
 30
0
  3
AIGNBL0102003A
  0
POLYLINE
  8
LAYER_1
 40
0.0882
 41
0.0882
 62
211
 66
1
 10
0
 20
0
 30
0
  0
VERTEX
  8
LAYER_1
 10
122.2761
 20
-177.9992
 42
0.1305518007
  0
VERTEX
  8
LAYER_1
 10
122.5083
 20
-178.0585
  0
SEQEND
  0
ENDBLK
  0
BLOCK
  8
LAYER_1
  2
AIGNBL0102003B
 70
64
 10
0
 20
0
 30
0
  3
AIGNBL0102003B
  0
POLYLINE
  8
LAYER_1
 40
0.0882
 41
0.0882
 62
211
 66
1
 10
0
 20
0
 30
0
  0
VERTEX
  8
LAYER_1
 10
122.2761
 20
-175.8171
  0
VERTEX
  8
LAYER_1
 10
122.2206
 20
-175.8584
  0
SEQEND
  0
ENDBLK
  0
BLOCK
  8
LAYER_1
  2
AIGNBL0102003C
 70
64
 10
0
 20
0
 30
0
  3
AIGNBL0102003C
  0
POLYLINE
  8
LAYER_1
 40
0.0882
 41
0.0882
 62
211
 66
1
 10
0
 20
0
 30
0
  0
VERTEX
  8
LAYER_1
 10
122.5083
 20
-175.7579
 42
0.1285850345
  0
VERTEX
  8
LAYER_1
 10
122.2761
 20
-175.8171
  0
SEQEND
  0
ENDBLK
  0
BLOCK
  8
LAYER_1
  2
AIGNBL0102003D
 70
64
 10
0
 20
0
 30
0
  3
AIGNBL0102003D
  0
POLYLINE
  8
LAYER_1
 40
0.0882
 41
0.0882
 62
211
 66
1
 10
0
 20
0
 30
0
  0
VERTEX
  8
LAYER_1
 10
122.9159
 20
-172.1522
 42
0.139348472
  0
VERTEX
  8
LAYER_1
 10
123.0447
 20
-172.248
  0
SEQEND
  0
ENDBLK
  0
BLOCK
  8
LAYER_1
  2
AIGNBL0102003E
 70
64
 10
0
 20
0
 30
0
  3
AIGNBL0102003E
  0
POLYLINE
  8
LAYER_1
 40
0.0882
 41
0.0882
 62
211
 66
1
 10
0
 20
0
 30
0
  0
VERTEX
  8
LAYER_1
 10
122.8883
 20
-172.0978
  0
VERTEX
  8
LAYER_1
 10
122.9159
 20
-172.1522
  0
SEQEND
  0
ENDBLK
  0
BLOCK
  8
LAYER_1
  2
AIGNBL0102003F
 70
64
 10
0
 20
0
 30
0
  3
AIGNBL0102003F
  0
POLYLINE
  8
LAYER_1
 40
0.0882
 41
0.0882
 62
211
 66
1
 10
0
 20
0
 30
0
  0
VERTEX
  8
LAYER_1
 10
124.2146
 20
-171.9979
  0
VERTEX
  8
LAYER_1
 10
124.2047
 20
-171.9283
  0
SEQEND
  0
ENDBLK
  0
BLOCK
  8
LAYER_1
  2
AIGNBL01020040
 70
64
 10
0
 20
0
 30
0
  3
AIGNBL01020040
  0
POLYLINE
  8
LAYER_1
 40
0.0882
 41
0.0882
 62
211
 66
1
 10
0
 20
0
 30
0
  0
VERTEX
  8
LAYER_1
 10
124.1867
 20
-172.1364
  0
VERTEX
  8
LAYER_1
 10
124.2016
 20
-172.0978
  0
SEQEND
  0
ENDBLK
  0
BLOCK
  8
LAYER_1
  2
AIGNBL01020041
 70
64
 10
0
 20
0
 30
0
  3
AIGNBL01020041
  0
POLYLINE
  8
LAYER_1
 40
0.0882
 41
0.0882
 62
211
 66
1
 10
0
 20
0
 30
0
  0
VERTEX
  8
LAYER_1
 10
124.1209
 20
-172.2129
 42
0.1494287408
  0
VERTEX
  8
LAYER_1
 10
124.1867
 20
-172.1364
  0
SEQEND
  0
ENDBLK
  0
BLOCK
  8
LAYER_1
  2
AIGNBL01020042
 70
64
 10
0
 20
0
 30
0
  3
AIGNBL01020042
  0
POLYLINE
  8
LAYER_1
 40
0.0882
 41
0.0882
 62
211
 66
1
 10
0
 20
0
 30
0
  0
VERTEX
  8
LAYER_1
 10
124.0548
 20
-172.248
  0
VERTEX
  8
LAYER_1
 10
124.1209
 20
-172.2129
  0
SEQEND
  0
ENDBLK
  0
BLOCK
  8
LAYER_1
  2
AIGNBL01020044
 70
64
 10
0
 20
0
 30
0
  3
AIGNBL01020044
  0
POLYLINE
  8
LAYER_1
 40
0.0882
 41
0.0882
 62
211
 66
1
 10
0
 20
0
 30
0
  0
VERTEX
  8
LAYER_1
 10
141.1686
 20
-175.8584
  0
VERTEX
  8
LAYER_1
 10
141.1686
 20
-177.9579
  0
SEQEND
  0
ENDBLK
  0
BLOCK
  8
LAYER_1
  2
AIGNBL01020045
 70
64
 10
0
 20
0
 30
0
  3
AIGNBL01020045
  0
POLYLINE
  8
LAYER_1
 40
0.0882
 41
0.0882
 62
211
 66
1
 10
0
 20
0
 30
0
  0
VERTEX
  8
LAYER_1
 10
138.8436
 20
-174.5583
  0
VERTEX
  8
LAYER_1
 10
139.0186
 20
-174.3585
  0
SEQEND
  0
ENDBLK
  0
BLOCK
  8
LAYER_1
  2
AIGNBL01020046
 70
64
 10
0
 20
0
 30
0
  3
AIGNBL01020046
  0
POLYLINE
  8
LAYER_1
 40
0.0882
 41
0.0882
 62
211
 66
1
 10
0
 20
0
 30
0
  0
VERTEX
  8
LAYER_1
 10
140.8438
 20
-174.5583
  0
VERTEX
  8
LAYER_1
 10
140.6688
 20
-174.3585
  0
SEQEND
  0
ENDBLK
  0
BLOCK
  8
LAYER_1
  2
AIGNBL01020047
 70
64
 10
0
 20
0
 30
0
  3
AIGNBL01020047
  0
POLYLINE
  8
LAYER_1
 40
0.0882
 41
0.0882
 62
211
 66
1
 10
0
 20
0
 30
0
  0
VERTEX
  8
LAYER_1
 10
138.8436
 20
-175.7579
  0
VERTEX
  8
LAYER_1
 10
138.8063
 20
-175.7579
  0
SEQEND
  0
ENDBLK
  0
BLOCK
  8
LAYER_1
  2
AIGNBL01020048
 70
64
 10
0
 20
0
 30
0
  3
AIGNBL01020048
  0
POLYLINE
  8
LAYER_1
 40
0.0882
 41
0.0882
 62
211
 66
1
 10
0
 20
0
 30
0
  0
VERTEX
  8
LAYER_1
 10
138.5187
 20
-175.8584
  0
VERTEX
  8
LAYER_1
 10
138.5187
 20
-177.9579
  0
SEQEND
  0
ENDBLK
  0
BLOCK
  8
LAYER_1
  2
AIGNBL01020049
 70
64
 10
0
 20
0
 30
0
  3
AIGNBL01020049
  0
POLYLINE
  8
LAYER_1
 40
0.0882
 41
0.0882
 62
211
 66
1
 10
0
 20
0
 30
0
  0
VERTEX
  8
LAYER_1
 10
138.7426
 20
-173.4586
  0
VERTEX
  8
LAYER_1
 10
138.7426
 20
-172.4079
  0
SEQEND
  0
ENDBLK
  0
BLOCK
  8
LAYER_1
  2
AIGNBL0102004A
 70
64
 10
0
 20
0
 30
0
  3
AIGNBL0102004A
  0
POLYLINE
  8
LAYER_1
 40
0.0882
 41
0.0882
 62
211
 66
1
 10
0
 20
0
 30
0
  0
VERTEX
  8
LAYER_1
 10
140.9427
 20
-173.4586
  0
VERTEX
  8
LAYER_1
 10
140.9427
 20
-172.4079
  0
SEQEND
  0
ENDBLK
  0
BLOCK
  8
LAYER_1
  2
AIGNBL0102004B
 70
64
 10
0
 20
0
 30
0
  3
AIGNBL0102004B
  0
POLYLINE
  8
LAYER_1
 40
0.0882
 41
0.0882
 62
211
 66
1
 10
0
 20
0
 30
0
  0
VERTEX
  8
LAYER_1
 10
139.8436
 20
-172.248
  0
VERTEX
  8
LAYER_1
 10
139.3427
 20
-172.248
  0
SEQEND
  0
ENDBLK
  0
BLOCK
  8
LAYER_1
  2
AIGNBL0102004C
 70
64
 10
0
 20
0
 30
0
  3
AIGNBL0102004C
  0
POLYLINE
  8
LAYER_1
 40
0.0882
 41
0.0882
 62
211
 66
1
 10
0
 20
0
 30
0
  0
VERTEX
  8
LAYER_1
 10
139.8436
 20
-172.248
  0
VERTEX
  8
LAYER_1
 10
140.3425
 20
-172.248
  0
SEQEND
  0
ENDBLK
  0
BLOCK
  8
LAYER_1
  2
AIGNBL0102004D
 70
64
 10
0
 20
0
 30
0
  3
AIGNBL0102004D
  0
POLYLINE
  8
LAYER_1
 40
0.0882
 41
0.0882
 62
211
 66
1
 10
0
 20
0
 30
0
  0
VERTEX
  8
LAYER_1
 10
140.6688
 20
-173.5585
  0
VERTEX
  8
LAYER_1
 10
140.7628
 20
-173.5585
  0
SEQEND
  0
ENDBLK
  0
BLOCK
  8
LAYER_1
  2
AIGNBL0102004E
 70
64
 10
0
 20
0
 30
0
  3
AIGNBL0102004E
  0
POLYLINE
  8
LAYER_1
 40
0.0882
 41
0.0882
 62
211
 66
1
 10
0
 20
0
 30
0
  0
VERTEX
  8
LAYER_1
 10
140.7628
 20
-173.5585
  0
VERTEX
  8
LAYER_1
 10
140.9427
 20
-173.4586
  0
SEQEND
  0
ENDBLK
  0
BLOCK
  8
LAYER_1
  2
AIGNBL0102004F
 70
64
 10
0
 20
0
 30
0
  3
AIGNBL0102004F
  0
POLYLINE
  8
LAYER_1
 40
0.0882
 41
0.0882
 62
211
 66
1
 10
0
 20
0
 30
0
  0
VERTEX
  8
LAYER_1
 10
140.4627
 20
-172.308
  0
VERTEX
  8
LAYER_1
 10
140.7628
 20
-172.308
  0
SEQEND
  0
ENDBLK
  0
BLOCK
  8
LAYER_1
  2
AIGNBL01020050
 70
64
 10
0
 20
0
 30
0
  3
AIGNBL01020050
  0
POLYLINE
  8
LAYER_1
 40
0.0882
 41
0.0882
 62
211
 66
1
 10
0
 20
0
 30
0
  0
VERTEX
  8
LAYER_1
 10
139.1726
 20
-172.0578
  0
VERTEX
  8
LAYER_1
 10
139.1863
 20
-172.0978
  0
SEQEND
  0
ENDBLK
  0
BLOCK
  8
LAYER_1
  2
AIGNBL01020051
 70
64
 10
0
 20
0
 30
0
  3
AIGNBL01020051
  0
POLYLINE
  8
LAYER_1
 40
0.0882
 41
0.0882
 62
211
 66
1
 10
0
 20
0
 30
0
  0
VERTEX
  8
LAYER_1
 10
139.1726
 20
-171.9979
  0
VERTEX
  8
LAYER_1
 10
139.1726
 20
-172.0578
  0
SEQEND
  0
ENDBLK
  0
BLOCK
  8
LAYER_1
  2
AIGNBL01020052
 70
64
 10
0
 20
0
 30
0
  3
AIGNBL01020052
  0
POLYLINE
  8
LAYER_1
 40
0.0882
 41
0.0882
 62
211
 66
1
 10
0
 20
0
 30
0
  0
VERTEX
  8
LAYER_1
 10
139.1925
 20
-171.9283
  0
VERTEX
  8
LAYER_1
 10
139.1726
 20
-171.9979
  0
SEQEND
  0
ENDBLK
  0
BLOCK
  8
LAYER_1
  2
AIGNBL01020053
 70
64
 10
0
 20
0
 30
0
  3
AIGNBL01020053
  0
POLYLINE
  8
LAYER_1
 40
0.0882
 41
0.0882
 62
211
 66
1
 10
0
 20
0
 30
0
  0
VERTEX
  8
LAYER_1
 10
140.4927
 20
-171.9283
  0
VERTEX
  8
LAYER_1
 10
140.5027
 20
-171.9283
  0
SEQEND
  0
ENDBLK
  0
BLOCK
  8
LAYER_1
  2
AIGNBL01020054
 70
64
 10
0
 20
0
 30
0
  3
AIGNBL01020054
  0
POLYLINE
  8
LAYER_1
 40
0.0882
 41
0.0882
 62
211
 66
1
 10
0
 20
0
 30
0
  0
VERTEX
  8
LAYER_1
 10
140.5127
 20
-172.0578
  0
VERTEX
  8
LAYER_1
 10
140.5127
 20
-171.9979
  0
SEQEND
  0
ENDBLK
  0
BLOCK
  8
LAYER_1
  2
AIGNBL01020055
 70
64
 10
0
 20
0
 30
0
  3
AIGNBL01020055
  0
POLYLINE
  8
LAYER_1
 40
0.0882
 41
0.0882
 62
211
 66
1
 10
0
 20
0
 30
0
  0
VERTEX
  8
LAYER_1
 10
140.4996
 20
-172.0978
  0
VERTEX
  8
LAYER_1
 10
140.5127
 20
-172.0578
  0
SEQEND
  0
ENDBLK
  0
BLOCK
  8
LAYER_1
  2
AIGNBL01020056
 70
64
 10
0
 20
0
 30
0
  3
AIGNBL01020056
  0
POLYLINE
  8
LAYER_1
 40
0.0882
 41
0.0882
 62
211
 66
1
 10
0
 20
0
 30
0
  0
VERTEX
  8
LAYER_1
 10
140.3425
 20
-172.248
  0
VERTEX
  8
LAYER_1
 10
140.3528
 20
-172.248
  0
SEQEND
  0
ENDBLK
  0
BLOCK
  8
LAYER_1
  2
AIGNBL01020057
 70
64
 10
0
 20
0
 30
0
  3
AIGNBL01020057
  0
POLYLINE
  8
LAYER_1
 40
0.0882
 41
0.0882
 62
211
 66
1
 10
0
 20
0
 30
0
  0
VERTEX
  8
LAYER_1
 10
139.1726
 20
-170.788
  0
VERTEX
  8
LAYER_1
 10
139.1726
 20
-170.7377
  0
SEQEND
  0
ENDBLK
  0
BLOCK
  8
LAYER_1
  2
AIGNBL01020058
 70
64
 10
0
 20
0
 30
0
  3
AIGNBL01020058
  0
POLYLINE
  8
LAYER_1
 40
0.0882
 41
0.0882
 62
211
 66
1
 10
0
 20
0
 30
0
  0
VERTEX
  8
LAYER_1
 10
139.2029
 20
-170.8383
  0
VERTEX
  8
LAYER_1
 10
139.1726
 20
-170.788
  0
SEQEND
  0
ENDBLK
  0
BLOCK
  8
LAYER_1
  2
AIGNBL01020059
 70
64
 10
0
 20
0
 30
0
  3
AIGNBL01020059
  0
POLYLINE
  8
LAYER_1
 40
0.0882
 41
0.0882
 62
211
 66
1
 10
0
 20
0
 30
0
  0
VERTEX
  8
LAYER_1
 10
140.5127
 20
-170.788
  0
VERTEX
  8
LAYER_1
 10
140.523
 20
-170.7377
  0
SEQEND
  0
ENDBLK
  0
BLOCK
  8
LAYER_1
  2
AIGNBL0102005A
 70
64
 10
0
 20
0
 30
0
  3
AIGNBL0102005A
  0
POLYLINE
  8
LAYER_1
 40
0.0882
 41
0.0882
 62
211
 66
1
 10
0
 20
0
 30
0
  0
VERTEX
  8
LAYER_1
 10
140.4927
 20
-170.8383
  0
VERTEX
  8
LAYER_1
 10
140.5127
 20
-170.788
  0
SEQEND
  0
ENDBLK
  0
BLOCK
  8
LAYER_1
  2
AIGNBL0102005B
 70
64
 10
0
 20
0
 30
0
  3
AIGNBL0102005B
  0
POLYLINE
  8
LAYER_1
 40
0.0882
 41
0.0882
 62
211
 66
1
 10
0
 20
0
 30
0
  0
VERTEX
  8
LAYER_1
 10
140.523
 20
-170.7377
  0
VERTEX
  8
LAYER_1
 10
140.523
 20
-170.458
  0
SEQEND
  0
ENDBLK
  0
BLOCK
  8
LAYER_1
  2
AIGNBL0102005C
 70
64
 10
0
 20
0
 30
0
  3
AIGNBL0102005C
  0
POLYLINE
  8
LAYER_1
 40
0.0882
 41
0.0882
 62
211
 66
1
 10
0
 20
0
 30
0
  0
VERTEX
  8
LAYER_1
 10
139.1726
 20
-170.7377
  0
VERTEX
  8
LAYER_1
 10
139.1726
 20
-170.458
  0
SEQEND
  0
ENDBLK
  0
BLOCK
  8
LAYER_1
  2
AIGNBL0102005D
 70
64
 10
0
 20
0
 30
0
  3
AIGNBL0102005D
  0
POLYLINE
  8
LAYER_1
 40
0.0882
 41
0.0882
 62
211
 66
1
 10
0
 20
0
 30
0
  0
VERTEX
  8
LAYER_1
 10
138.7426
 20
-172.4079
  0
VERTEX
  8
LAYER_1
 10
138.9224
 20
-172.308
  0
SEQEND
  0
ENDBLK
  0
BLOCK
  8
LAYER_1
  2
AIGNBL0102005E
 70
64
 10
0
 20
0
 30
0
  3
AIGNBL0102005E
  0
POLYLINE
  8
LAYER_1
 40
0.0882
 41
0.0882
 62
211
 66
1
 10
0
 20
0
 30
0
  0
VERTEX
  8
LAYER_1
 10
140.9427
 20
-172.4079
  0
VERTEX
  8
LAYER_1
 10
140.7628
 20
-172.308
  0
SEQEND
  0
ENDBLK
  0
BLOCK
  8
LAYER_1
  2
AIGNBL0102005F
 70
64
 10
0
 20
0
 30
0
  3
AIGNBL0102005F
  0
POLYLINE
  8
LAYER_1
 40
0.0882
 41
0.0882
 62
211
 66
1
 10
0
 20
0
 30
0
  0
VERTEX
  8
LAYER_1
 10
140.4228
 20
-170.9582
  0
VERTEX
  8
LAYER_1
 10
140.4927
 20
-170.8383
  0
SEQEND
  0
ENDBLK
  0
BLOCK
  8
LAYER_1
  2
AIGNBL01020060
 70
64
 10
0
 20
0
 30
0
  3
AIGNBL01020060
  0
POLYLINE
  8
LAYER_1
 40
0.0882
 41
0.0882
 62
211
 66
1
 10
0
 20
0
 30
0
  0
VERTEX
  8
LAYER_1
 10
140.4927
 20
-171.9283
  0
VERTEX
  8
LAYER_1
 10
140.4228
 20
-171.7581
  0
SEQEND
  0
ENDBLK
  0
BLOCK
  8
LAYER_1
  2
AIGNBL01020061
 70
64
 10
0
 20
0
 30
0
  3
AIGNBL01020061
  0
POLYLINE
  8
LAYER_1
 40
0.0882
 41
0.0882
 62
211
 66
1
 10
0
 20
0
 30
0
  0
VERTEX
  8
LAYER_1
 10
139.2725
 20
-170.9582
  0
VERTEX
  8
LAYER_1
 10
139.2029
 20
-170.8383
  0
SEQEND
  0
ENDBLK
  0
BLOCK
  8
LAYER_1
  2
AIGNBL01020062
 70
64
 10
0
 20
0
 30
0
  3
AIGNBL01020062
  0
POLYLINE
  8
LAYER_1
 40
0.0882
 41
0.0882
 62
211
 66
1
 10
0
 20
0
 30
0
  0
VERTEX
  8
LAYER_1
 10
139.1925
 20
-171.9283
  0
VERTEX
  8
LAYER_1
 10
139.2725
 20
-171.7581
  0
SEQEND
  0
ENDBLK
  0
BLOCK
  8
LAYER_1
  2
AIGNBL01020063
 70
64
 10
0
 20
0
 30
0
  3
AIGNBL01020063
  0
POLYLINE
  8
LAYER_1
 40
0.0882
 41
0.0882
 62
211
 66
1
 10
0
 20
0
 30
0
  0
VERTEX
  8
LAYER_1
 10
140.4228
 20
-171.7581
  0
VERTEX
  8
LAYER_1
 10
140.4228
 20
-170.9582
  0
SEQEND
  0
ENDBLK
  0
BLOCK
  8
LAYER_1
  2
AIGNBL01020064
 70
64
 10
0
 20
0
 30
0
  3
AIGNBL01020064
  0
POLYLINE
  8
LAYER_1
 40
0.0882
 41
0.0882
 62
211
 66
1
 10
0
 20
0
 30
0
  0
VERTEX
  8
LAYER_1
 10
139.2725
 20
-171.7581
  0
VERTEX
  8
LAYER_1
 10
139.2725
 20
-170.9582
  0
SEQEND
  0
ENDBLK
  0
BLOCK
  8
LAYER_1
  2
AIGNBL01020065
 70
64
 10
0
 20
0
 30
0
  3
AIGNBL01020065
  0
POLYLINE
  8
LAYER_1
 40
0.0882
 41
0.0882
 62
211
 66
1
 10
0
 20
0
 30
0
  0
VERTEX
  8
LAYER_1
 10
140.4627
 20
-172.308
  0
VERTEX
  8
LAYER_1
 10
140.4627
 20
-172.2584
  0
SEQEND
  0
ENDBLK
  0
BLOCK
  8
LAYER_1
  2
AIGNBL01020066
 70
64
 10
0
 20
0
 30
0
  3
AIGNBL01020066
  0
POLYLINE
  8
LAYER_1
 40
0.0882
 41
0.0882
 62
211
 66
1
 10
0
 20
0
 30
0
  0
VERTEX
  8
LAYER_1
 10
139.2229
 20
-172.308
  0
VERTEX
  8
LAYER_1
 10
139.2229
 20
-172.2584
  0
SEQEND
  0
ENDBLK
  0
BLOCK
  8
LAYER_1
  2
AIGNBL01020067
 70
64
 10
0
 20
0
 30
0
  3
AIGNBL01020067
  0
POLYLINE
  8
LAYER_1
 40
0.0882
 41
0.0882
 62
211
 66
1
 10
0
 20
0
 30
0
  0
VERTEX
  8
LAYER_1
 10
138.9224
 20
-173.5585
  0
VERTEX
  8
LAYER_1
 10
138.7426
 20
-173.4586
  0
SEQEND
  0
ENDBLK
  0
BLOCK
  8
LAYER_1
  2
AIGNBL01020068
 70
64
 10
0
 20
0
 30
0
  3
AIGNBL01020068
  0
POLYLINE
  8
LAYER_1
 40
0.0882
 41
0.0882
 62
211
 66
1
 10
0
 20
0
 30
0
  0
VERTEX
  8
LAYER_1
 10
139.0186
 20
-173.5585
  0
VERTEX
  8
LAYER_1
 10
139.0186
 20
-174.3585
  0
SEQEND
  0
ENDBLK
  0
BLOCK
  8
LAYER_1
  2
AIGNBL01020069
 70
64
 10
0
 20
0
 30
0
  3
AIGNBL01020069
  0
POLYLINE
  8
LAYER_1
 40
0.0882
 41
0.0882
 62
211
 66
1
 10
0
 20
0
 30
0
  0
VERTEX
  8
LAYER_1
 10
140.6688
 20
-174.3585
  0
VERTEX
  8
LAYER_1
 10
140.6688
 20
-173.5585
  0
SEQEND
  0
ENDBLK
  0
BLOCK
  8
LAYER_1
  2
AIGNBL0102006A
 70
64
 10
0
 20
0
 30
0
  3
AIGNBL0102006A
  0
POLYLINE
  8
LAYER_1
 40
0.0882
 41
0.0882
 62
211
 66
1
 10
0
 20
0
 30
0
  0
VERTEX
  8
LAYER_1
 10
138.9224
 20
-172.308
  0
VERTEX
  8
LAYER_1
 10
139.2229
 20
-172.308
  0
SEQEND
  0
ENDBLK
  0
BLOCK
  8
LAYER_1
  2
AIGNBL0102006B
 70
64
 10
0
 20
0
 30
0
  3
AIGNBL0102006B
  0
POLYLINE
  8
LAYER_1
 40
0.0882
 41
0.0882
 62
211
 66
1
 10
0
 20
0
 30
0
  0
VERTEX
  8
LAYER_1
 10
138.9224
 20
-173.5585
  0
VERTEX
  8
LAYER_1
 10
139.0186
 20
-173.5585
  0
SEQEND
  0
ENDBLK
  0
BLOCK
  8
LAYER_1
  2
AIGNBL0102006C
 70
64
 10
0
 20
0
 30
0
  3
AIGNBL0102006C
  0
POLYLINE
  8
LAYER_1
 40
0.0882
 41
0.0882
 62
211
 66
1
 10
0
 20
0
 30
0
  0
VERTEX
  8
LAYER_1
 10
139.0186
 20
-173.5585
  0
VERTEX
  8
LAYER_1
 10
140.6688
 20
-173.5585
  0
SEQEND
  0
ENDBLK
  0
BLOCK
  8
LAYER_1
  2
AIGNBL0102006D
 70
64
 10
0
 20
0
 30
0
  3
AIGNBL0102006D
  0
POLYLINE
  8
LAYER_1
 40
0.0882
 41
0.0882
 62
211
 66
1
 10
0
 20
0
 30
0
  0
VERTEX
  8
LAYER_1
 10
138.8436
 20
-174.5583
  0
VERTEX
  8
LAYER_1
 10
138.8436
 20
-175.7579
  0
SEQEND
  0
ENDBLK
  0
BLOCK
  8
LAYER_1
  2
AIGNBL0102006E
 70
64
 10
0
 20
0
 30
0
  3
AIGNBL0102006E
  0
POLYLINE
  8
LAYER_1
 40
0.0882
 41
0.0882
 62
211
 66
1
 10
0
 20
0
 30
0
  0
VERTEX
  8
LAYER_1
 10
140.8813
 20
-175.7579
  0
VERTEX
  8
LAYER_1
 10
140.8438
 20
-175.7579
  0
SEQEND
  0
ENDBLK
  0
BLOCK
  8
LAYER_1
  2
AIGNBL0102006F
 70
64
 10
0
 20
0
 30
0
  3
AIGNBL0102006F
  0
POLYLINE
  8
LAYER_1
 40
0.0882
 41
0.0882
 62
211
 66
1
 10
0
 20
0
 30
0
  0
VERTEX
  8
LAYER_1
 10
140.8438
 20
-174.5583
  0
VERTEX
  8
LAYER_1
 10
140.8438
 20
-175.7579
  0
SEQEND
  0
ENDBLK
  0
BLOCK
  8
LAYER_1
  2
AIGNBL01020070
 70
64
 10
0
 20
0
 30
0
  3
AIGNBL01020070
  0
POLYLINE
  8
LAYER_1
 40
0.0882
 41
0.0882
 62
211
 66
1
 10
0
 20
0
 30
0
  0
VERTEX
  8
LAYER_1
 10
140.8438
 20
-175.7579
  0
VERTEX
  8
LAYER_1
 10
138.8436
 20
-175.7579
  0
SEQEND
  0
ENDBLK
  0
BLOCK
  8
LAYER_1
  2
AIGNBL01020071
 70
64
 10
0
 20
0
 30
0
  3
AIGNBL01020071
  0
POLYLINE
  8
LAYER_1
 40
0.0882
 41
0.0882
 62
211
 66
1
 10
0
 20
0
 30
0
  0
VERTEX
  8
LAYER_1
 10
140.8906
 20
-178.0585
  0
VERTEX
  8
LAYER_1
 10
138.8063
 20
-178.0585
  0
SEQEND
  0
ENDBLK
  0
BLOCK
  8
LAYER_1
  2
AIGNBL01020072
 70
64
 10
0
 20
0
 30
0
  3
AIGNBL01020072
  0
POLYLINE
  8
LAYER_1
 40
0.0882
 41
0.0882
 62
211
 66
1
 10
0
 20
0
 30
0
  0
VERTEX
  8
LAYER_1
 10
140.8438
 20
-174.5583
  0
VERTEX
  8
LAYER_1
 10
138.8436
 20
-174.5583
  0
SEQEND
  0
ENDBLK
  0
BLOCK
  8
LAYER_1
  2
AIGNBL01020073
 70
64
 10
0
 20
0
 30
0
  3
AIGNBL01020073
  0
POLYLINE
  8
LAYER_1
 40
0.0882
 41
0.0882
 62
211
 66
1
 10
0
 20
0
 30
0
  0
VERTEX
  8
LAYER_1
 10
139.2229
 20
-172.308
  0
VERTEX
  8
LAYER_1
 10
140.4627
 20
-172.308
  0
SEQEND
  0
ENDBLK
  0
BLOCK
  8
LAYER_1
  2
AIGNBL01020074
 70
64
 10
0
 20
0
 30
0
  3
AIGNBL01020074
  0
POLYLINE
  8
LAYER_1
 40
0.0882
 41
0.0882
 62
211
 66
1
 10
0
 20
0
 30
0
  0
VERTEX
  8
LAYER_1
 10
139.2229
 20
-172.2584
  0
VERTEX
  8
LAYER_1
 10
140.4627
 20
-172.2584
  0
SEQEND
  0
ENDBLK
  0
BLOCK
  8
LAYER_1
  2
AIGNBL01020075
 70
64
 10
0
 20
0
 30
0
  3
AIGNBL01020075
  0
POLYLINE
  8
LAYER_1
 40
0.0882
 41
0.0882
 62
211
 66
1
 10
0
 20
0
 30
0
  0
VERTEX
  8
LAYER_1
 10
139.1726
 20
-170.458
  0
VERTEX
  8
LAYER_1
 10
140.523
 20
-170.458
  0
SEQEND
  0
ENDBLK
  0
BLOCK
  8
LAYER_1
  2
AIGNBL01020076
 70
64
 10
0
 20
0
 30
0
  3
AIGNBL01020076
  0
POLYLINE
  8
LAYER_1
 40
0.0882
 41
0.0882
 62
211
 66
1
 10
0
 20
0
 30
0
  0
VERTEX
  8
LAYER_1
 10
141.1132
 20
-177.9992
  0
VERTEX
  8
LAYER_1
 10
141.1686
 20
-177.9579
  0
SEQEND
  0
ENDBLK
  0
BLOCK
  8
LAYER_1
  2
AIGNBL01020077
 70
64
 10
0
 20
0
 30
0
  3
AIGNBL01020077
  0
POLYLINE
  8
LAYER_1
 40
0.0882
 41
0.0882
 62
211
 66
1
 10
0
 20
0
 30
0
  0
VERTEX
  8
LAYER_1
 10
140.8906
 20
-178.0585
 42
0.1243168047
  0
VERTEX
  8
LAYER_1
 10
141.1132
 20
-177.9992
  0
SEQEND
  0
ENDBLK
  0
BLOCK
  8
LAYER_1
  2
AIGNBL01020078
 70
64
 10
0
 20
0
 30
0
  3
AIGNBL01020078
  0
POLYLINE
  8
LAYER_1
 40
0.0882
 41
0.0882
 62
211
 66
1
 10
0
 20
0
 30
0
  0
VERTEX
  8
LAYER_1
 10
141.1686
 20
-175.8584
  0
VERTEX
  8
LAYER_1
 10
141.1132
 20
-175.8171
  0
SEQEND
  0
ENDBLK
  0
BLOCK
  8
LAYER_1
  2
AIGNBL01020079
 70
64
 10
0
 20
0
 30
0
  3
AIGNBL01020079
  0
POLYLINE
  8
LAYER_1
 40
0.0882
 41
0.0882
 62
211
 66
1
 10
0
 20
0
 30
0
  0
VERTEX
  8
LAYER_1
 10
141.1132
 20
-175.8171
 42
0.1285997522
  0
VERTEX
  8
LAYER_1
 10
140.8813
 20
-175.7579
  0
SEQEND
  0
ENDBLK
  0
BLOCK
  8
LAYER_1
  2
AIGNBL0102007A
 70
64
 10
0
 20
0
 30
0
  3
AIGNBL0102007A
  0
POLYLINE
  8
LAYER_1
 40
0.0882
 41
0.0882
 62
211
 66
1
 10
0
 20
0
 30
0
  0
VERTEX
  8
LAYER_1
 10
138.5187
 20
-177.9579
  0
VERTEX
  8
LAYER_1
 10
138.5741
 20
-177.9992
  0
SEQEND
  0
ENDBLK
  0
BLOCK
  8
LAYER_1
  2
AIGNBL0102007B
 70
64
 10
0
 20
0
 30
0
  3
AIGNBL0102007B
  0
POLYLINE
  8
LAYER_1
 40
0.0882
 41
0.0882
 62
211
 66
1
 10
0
 20
0
 30
0
  0
VERTEX
  8
LAYER_1
 10
138.5741
 20
-177.9992
 42
0.1304937141
  0
VERTEX
  8
LAYER_1
 10
138.8063
 20
-178.0585
  0
SEQEND
  0
ENDBLK
  0
BLOCK
  8
LAYER_1
  2
AIGNBL0102007C
 70
64
 10
0
 20
0
 30
0
  3
AIGNBL0102007C
  0
POLYLINE
  8
LAYER_1
 40
0.0882
 41
0.0882
 62
211
 66
1
 10
0
 20
0
 30
0
  0
VERTEX
  8
LAYER_1
 10
138.5741
 20
-175.8171
  0
VERTEX
  8
LAYER_1
 10
138.5187
 20
-175.8584
  0
SEQEND
  0
ENDBLK
  0
BLOCK
  8
LAYER_1
  2
AIGNBL0102007D
 70
64
 10
0
 20
0
 30
0
  3
AIGNBL0102007D
  0
POLYLINE
  8
LAYER_1
 40
0.0882
 41
0.0882
 62
211
 66
1
 10
0
 20
0
 30
0
  0
VERTEX
  8
LAYER_1
 10
138.8063
 20
-175.7579
 42
0.128488716
  0
VERTEX
  8
LAYER_1
 10
138.5741
 20
-175.8171
  0
SEQEND
  0
ENDBLK
  0
BLOCK
  8
LAYER_1
  2
AIGNBL0102007E
 70
64
 10
0
 20
0
 30
0
  3
AIGNBL0102007E
  0
POLYLINE
  8
LAYER_1
 40
0.0882
 41
0.0882
 62
211
 66
1
 10
0
 20
0
 30
0
  0
VERTEX
  8
LAYER_1
 10
139.2139
 20
-172.1522
 42
0.1388705878
  0
VERTEX
  8
LAYER_1
 10
139.3427
 20
-172.248
  0
SEQEND
  0
ENDBLK
  0
BLOCK
  8
LAYER_1
  2
AIGNBL0102007F
 70
64
 10
0
 20
0
 30
0
  3
AIGNBL0102007F
  0
POLYLINE
  8
LAYER_1
 40
0.0882
 41
0.0882
 62
211
 66
1
 10
0
 20
0
 30
0
  0
VERTEX
  8
LAYER_1
 10
139.1863
 20
-172.0978
  0
VERTEX
  8
LAYER_1
 10
139.2139
 20
-172.1522
  0
SEQEND
  0
ENDBLK
  0
BLOCK
  8
LAYER_1
  2
AIGNBL01020080
 70
64
 10
0
 20
0
 30
0
  3
AIGNBL01020080
  0
POLYLINE
  8
LAYER_1
 40
0.0882
 41
0.0882
 62
211
 66
1
 10
0
 20
0
 30
0
  0
VERTEX
  8
LAYER_1
 10
140.5127
 20
-171.9979
  0
VERTEX
  8
LAYER_1
 10
140.5027
 20
-171.9283
  0
SEQEND
  0
ENDBLK
  0
BLOCK
  8
LAYER_1
  2
AIGNBL01020081
 70
64
 10
0
 20
0
 30
0
  3
AIGNBL01020081
  0
POLYLINE
  8
LAYER_1
 40
0.0882
 41
0.0882
 62
211
 66
1
 10
0
 20
0
 30
0
  0
VERTEX
  8
LAYER_1
 10
140.4848
 20
-172.1364
  0
VERTEX
  8
LAYER_1
 10
140.4996
 20
-172.0978
  0
SEQEND
  0
ENDBLK
  0
BLOCK
  8
LAYER_1
  2
AIGNBL01020082
 70
64
 10
0
 20
0
 30
0
  3
AIGNBL01020082
  0
POLYLINE
  8
LAYER_1
 40
0.0882
 41
0.0882
 62
211
 66
1
 10
0
 20
0
 30
0
  0
VERTEX
  8
LAYER_1
 10
140.419
 20
-172.2129
 42
0.1492117815
  0
VERTEX
  8
LAYER_1
 10
140.4848
 20
-172.1364
  0
SEQEND
  0
ENDBLK
  0
BLOCK
  8
LAYER_1
  2
AIGNBL01020083
 70
64
 10
0
 20
0
 30
0
  3
AIGNBL01020083
  0
POLYLINE
  8
LAYER_1
 40
0.0882
 41
0.0882
 62
211
 66
1
 10
0
 20
0
 30
0
  0
VERTEX
  8
LAYER_1
 10
140.3528
 20
-172.248
  0
VERTEX
  8
LAYER_1
 10
140.419
 20
-172.2129
  0
SEQEND
  0
ENDBLK
  0
BLOCK
  8
LAYER_1
  2
AIGNBL01020085
 70
64
 10
0
 20
0
 30
0
  3
AIGNBL01020085
  0
POLYLINE
  8
LAYER_1
 40
0.0882
 41
0.0882
 62
211
 66
1
 10
0
 20
0
 30
0
  0
VERTEX
  8
LAYER_1
 10
240.9727
 20
-176.0614
  0
VERTEX
  8
LAYER_1
 10
240.9727
 20
-178.1608
  0
SEQEND
  0
ENDBLK
  0
BLOCK
  8
LAYER_1
  2
AIGNBL01020086
 70
64
 10
0
 20
0
 30
0
  3
AIGNBL01020086
  0
POLYLINE
  8
LAYER_1
 40
0.0882
 41
0.0882
 62
211
 66
1
 10
0
 20
0
 30
0
  0
VERTEX
  8
LAYER_1
 10
238.6476
 20
-174.7612
  0
VERTEX
  8
LAYER_1
 10
238.8226
 20
-174.5614
  0
SEQEND
  0
ENDBLK
  0
BLOCK
  8
LAYER_1
  2
AIGNBL01020087
 70
64
 10
0
 20
0
 30
0
  3
AIGNBL01020087
  0
POLYLINE
  8
LAYER_1
 40
0.0882
 41
0.0882
 62
211
 66
1
 10
0
 20
0
 30
0
  0
VERTEX
  8
LAYER_1
 10
240.6478
 20
-174.7612
  0
VERTEX
  8
LAYER_1
 10
240.4728
 20
-174.5614
  0
SEQEND
  0
ENDBLK
  0
BLOCK
  8
LAYER_1
  2
AIGNBL01020088
 70
64
 10
0
 20
0
 30
0
  3
AIGNBL01020088
  0
POLYLINE
  8
LAYER_1
 40
0.0882
 41
0.0882
 62
211
 66
1
 10
0
 20
0
 30
0
  0
VERTEX
  8
LAYER_1
 10
238.6476
 20
-175.9608
  0
VERTEX
  8
LAYER_1
 10
238.6104
 20
-175.9608
  0
SEQEND
  0
ENDBLK
  0
BLOCK
  8
LAYER_1
  2
AIGNBL01020089
 70
64
 10
0
 20
0
 30
0
  3
AIGNBL01020089
  0
POLYLINE
  8
LAYER_1
 40
0.0882
 41
0.0882
 62
211
 66
1
 10
0
 20
0
 30
0
  0
VERTEX
  8
LAYER_1
 10
238.3227
 20
-176.0614
  0
VERTEX
  8
LAYER_1
 10
238.3227
 20
-178.1608
  0
SEQEND
  0
ENDBLK
  0
BLOCK
  8
LAYER_1
  2
AIGNBL0102008A
 70
64
 10
0
 20
0
 30
0
  3
AIGNBL0102008A
  0
POLYLINE
  8
LAYER_1
 40
0.0882
 41
0.0882
 62
211
 66
1
 10
0
 20
0
 30
0
  0
VERTEX
  8
LAYER_1
 10
238.5467
 20
-173.6615
  0
VERTEX
  8
LAYER_1
 10
238.5467
 20
-172.6108
  0
SEQEND
  0
ENDBLK
  0
BLOCK
  8
LAYER_1
  2
AIGNBL0102008B
 70
64
 10
0
 20
0
 30
0
  3
AIGNBL0102008B
  0
POLYLINE
  8
LAYER_1
 40
0.0882
 41
0.0882
 62
211
 66
1
 10
0
 20
0
 30
0
  0
VERTEX
  8
LAYER_1
 10
240.7467
 20
-173.6615
  0
VERTEX
  8
LAYER_1
 10
240.7467
 20
-172.6108
  0
SEQEND
  0
ENDBLK
  0
BLOCK
  8
LAYER_1
  2
AIGNBL0102008C
 70
64
 10
0
 20
0
 30
0
  3
AIGNBL0102008C
  0
POLYLINE
  8
LAYER_1
 40
0.0882
 41
0.0882
 62
211
 66
1
 10
0
 20
0
 30
0
  0
VERTEX
  8
LAYER_1
 10
239.6477
 20
-172.4509
  0
VERTEX
  8
LAYER_1
 10
239.1468
 20
-172.4509
  0
SEQEND
  0
ENDBLK
  0
BLOCK
  8
LAYER_1
  2
AIGNBL0102008D
 70
64
 10
0
 20
0
 30
0
  3
AIGNBL0102008D
  0
POLYLINE
  8
LAYER_1
 40
0.0882
 41
0.0882
 62
211
 66
1
 10
0
 20
0
 30
0
  0
VERTEX
  8
LAYER_1
 10
239.6477
 20
-172.4509
  0
VERTEX
  8
LAYER_1
 10
240.1466
 20
-172.4509
  0
SEQEND
  0
ENDBLK
  0
BLOCK
  8
LAYER_1
  2
AIGNBL0102008E
 70
64
 10
0
 20
0
 30
0
  3
AIGNBL0102008E
  0
POLYLINE
  8
LAYER_1
 40
0.0882
 41
0.0882
 62
211
 66
1
 10
0
 20
0
 30
0
  0
VERTEX
  8
LAYER_1
 10
240.4728
 20
-173.7614
  0
VERTEX
  8
LAYER_1
 10
240.5669
 20
-173.7614
  0
SEQEND
  0
ENDBLK
  0
BLOCK
  8
LAYER_1
  2
AIGNBL0102008F
 70
64
 10
0
 20
0
 30
0
  3
AIGNBL0102008F
  0
POLYLINE
  8
LAYER_1
 40
0.0882
 41
0.0882
 62
211
 66
1
 10
0
 20
0
 30
0
  0
VERTEX
  8
LAYER_1
 10
240.5669
 20
-173.7614
  0
VERTEX
  8
LAYER_1
 10
240.7467
 20
-173.6615
  0
SEQEND
  0
ENDBLK
  0
BLOCK
  8
LAYER_1
  2
AIGNBL01020090
 70
64
 10
0
 20
0
 30
0
  3
AIGNBL01020090
  0
POLYLINE
  8
LAYER_1
 40
0.0882
 41
0.0882
 62
211
 66
1
 10
0
 20
0
 30
0
  0
VERTEX
  8
LAYER_1
 10
240.2668
 20
-172.5109
  0
VERTEX
  8
LAYER_1
 10
240.5669
 20
-172.5109
  0
SEQEND
  0
ENDBLK
  0
BLOCK
  8
LAYER_1
  2
AIGNBL01020091
 70
64
 10
0
 20
0
 30
0
  3
AIGNBL01020091
  0
POLYLINE
  8
LAYER_1
 40
0.0882
 41
0.0882
 62
211
 66
1
 10
0
 20
0
 30
0
  0
VERTEX
  8
LAYER_1
 10
238.9766
 20
-172.2608
  0
VERTEX
  8
LAYER_1
 10
238.9904
 20
-172.3007
  0
SEQEND
  0
ENDBLK
  0
BLOCK
  8
LAYER_1
  2
AIGNBL01020092
 70
64
 10
0
 20
0
 30
0
  3
AIGNBL01020092
  0
POLYLINE
  8
LAYER_1
 40
0.0882
 41
0.0882
 62
211
 66
1
 10
0
 20
0
 30
0
  0
VERTEX
  8
LAYER_1
 10
238.9766
 20
-172.2008
  0
VERTEX
  8
LAYER_1
 10
238.9766
 20
-172.2608
  0
SEQEND
  0
ENDBLK
  0
BLOCK
  8
LAYER_1
  2
AIGNBL01020093
 70
64
 10
0
 20
0
 30
0
  3
AIGNBL01020093
  0
POLYLINE
  8
LAYER_1
 40
0.0882
 41
0.0882
 62
211
 66
1
 10
0
 20
0
 30
0
  0
VERTEX
  8
LAYER_1
 10
238.9966
 20
-172.1312
  0
VERTEX
  8
LAYER_1
 10
238.9766
 20
-172.2008
  0
SEQEND
  0
ENDBLK
  0
BLOCK
  8
LAYER_1
  2
AIGNBL01020094
 70
64
 10
0
 20
0
 30
0
  3
AIGNBL01020094
  0
POLYLINE
  8
LAYER_1
 40
0.0882
 41
0.0882
 62
211
 66
1
 10
0
 20
0
 30
0
  0
VERTEX
  8
LAYER_1
 10
240.2968
 20
-172.1312
  0
VERTEX
  8
LAYER_1
 10
240.3068
 20
-172.1312
  0
SEQEND
  0
ENDBLK
  0
BLOCK
  8
LAYER_1
  2
AIGNBL01020095
 70
64
 10
0
 20
0
 30
0
  3
AIGNBL01020095
  0
POLYLINE
  8
LAYER_1
 40
0.0882
 41
0.0882
 62
211
 66
1
 10
0
 20
0
 30
0
  0
VERTEX
  8
LAYER_1
 10
240.3168
 20
-172.2608
  0
VERTEX
  8
LAYER_1
 10
240.3168
 20
-172.2008
  0
SEQEND
  0
ENDBLK
  0
BLOCK
  8
LAYER_1
  2
AIGNBL01020096
 70
64
 10
0
 20
0
 30
0
  3
AIGNBL01020096
  0
POLYLINE
  8
LAYER_1
 40
0.0882
 41
0.0882
 62
211
 66
1
 10
0
 20
0
 30
0
  0
VERTEX
  8
LAYER_1
 10
240.3037
 20
-172.3007
  0
VERTEX
  8
LAYER_1
 10
240.3168
 20
-172.2608
  0
SEQEND
  0
ENDBLK
  0
BLOCK
  8
LAYER_1
  2
AIGNBL01020097
 70
64
 10
0
 20
0
 30
0
  3
AIGNBL01020097
  0
POLYLINE
  8
LAYER_1
 40
0.0882
 41
0.0882
 62
211
 66
1
 10
0
 20
0
 30
0
  0
VERTEX
  8
LAYER_1
 10
240.1466
 20
-172.4509
  0
VERTEX
  8
LAYER_1
 10
240.1569
 20
-172.4509
  0
SEQEND
  0
ENDBLK
  0
BLOCK
  8
LAYER_1
  2
AIGNBL01020098
 70
64
 10
0
 20
0
 30
0
  3
AIGNBL01020098
  0
POLYLINE
  8
LAYER_1
 40
0.0882
 41
0.0882
 62
211
 66
1
 10
0
 20
0
 30
0
  0
VERTEX
  8
LAYER_1
 10
238.9766
 20
-170.9909
  0
VERTEX
  8
LAYER_1
 10
238.9766
 20
-170.9406
  0
SEQEND
  0
ENDBLK
  0
BLOCK
  8
LAYER_1
  2
AIGNBL01020099
 70
64
 10
0
 20
0
 30
0
  3
AIGNBL01020099
  0
POLYLINE
  8
LAYER_1
 40
0.0882
 41
0.0882
 62
211
 66
1
 10
0
 20
0
 30
0
  0
VERTEX
  8
LAYER_1
 10
239.0069
 20
-171.0412
  0
VERTEX
  8
LAYER_1
 10
238.9766
 20
-170.9909
  0
SEQEND
  0
ENDBLK
  0
BLOCK
  8
LAYER_1
  2
AIGNBL0102009A
 70
64
 10
0
 20
0
 30
0
  3
AIGNBL0102009A
  0
POLYLINE
  8
LAYER_1
 40
0.0882
 41
0.0882
 62
211
 66
1
 10
0
 20
0
 30
0
  0
VERTEX
  8
LAYER_1
 10
240.3168
 20
-170.9909
  0
VERTEX
  8
LAYER_1
 10
240.3271
 20
-170.9406
  0
SEQEND
  0
ENDBLK
  0
BLOCK
  8
LAYER_1
  2
AIGNBL0102009B
 70
64
 10
0
 20
0
 30
0
  3
AIGNBL0102009B
  0
POLYLINE
  8
LAYER_1
 40
0.0882
 41
0.0882
 62
211
 66
1
 10
0
 20
0
 30
0
  0
VERTEX
  8
LAYER_1
 10
240.2968
 20
-171.0412
  0
VERTEX
  8
LAYER_1
 10
240.3168
 20
-170.9909
  0
SEQEND
  0
ENDBLK
  0
BLOCK
  8
LAYER_1
  2
AIGNBL0102009C
 70
64
 10
0
 20
0
 30
0
  3
AIGNBL0102009C
  0
POLYLINE
  8
LAYER_1
 40
0.0882
 41
0.0882
 62
211
 66
1
 10
0
 20
0
 30
0
  0
VERTEX
  8
LAYER_1
 10
240.3271
 20
-170.9406
  0
VERTEX
  8
LAYER_1
 10
240.3271
 20
-170.6609
  0
SEQEND
  0
ENDBLK
  0
BLOCK
  8
LAYER_1
  2
AIGNBL0102009D
 70
64
 10
0
 20
0
 30
0
  3
AIGNBL0102009D
  0
POLYLINE
  8
LAYER_1
 40
0.0882
 41
0.0882
 62
211
 66
1
 10
0
 20
0
 30
0
  0
VERTEX
  8
LAYER_1
 10
238.9766
 20
-170.9406
  0
VERTEX
  8
LAYER_1
 10
238.9766
 20
-170.6609
  0
SEQEND
  0
ENDBLK
  0
BLOCK
  8
LAYER_1
  2
AIGNBL0102009E
 70
64
 10
0
 20
0
 30
0
  3
AIGNBL0102009E
  0
POLYLINE
  8
LAYER_1
 40
0.0882
 41
0.0882
 62
211
 66
1
 10
0
 20
0
 30
0
  0
VERTEX
  8
LAYER_1
 10
238.5467
 20
-172.6108
  0
VERTEX
  8
LAYER_1
 10
238.7265
 20
-172.5109
  0
SEQEND
  0
ENDBLK
  0
BLOCK
  8
LAYER_1
  2
AIGNBL0102009F
 70
64
 10
0
 20
0
 30
0
  3
AIGNBL0102009F
  0
POLYLINE
  8
LAYER_1
 40
0.0882
 41
0.0882
 62
211
 66
1
 10
0
 20
0
 30
0
  0
VERTEX
  8
LAYER_1
 10
240.7467
 20
-172.6108
  0
VERTEX
  8
LAYER_1
 10
240.5669
 20
-172.5109
  0
SEQEND
  0
ENDBLK
  0
BLOCK
  8
LAYER_1
  2
AIGNBL010200A0
 70
64
 10
0
 20
0
 30
0
  3
AIGNBL010200A0
  0
POLYLINE
  8
LAYER_1
 40
0.0882
 41
0.0882
 62
211
 66
1
 10
0
 20
0
 30
0
  0
VERTEX
  8
LAYER_1
 10
240.2269
 20
-171.1611
  0
VERTEX
  8
LAYER_1
 10
240.2968
 20
-171.0412
  0
SEQEND
  0
ENDBLK
  0
BLOCK
  8
LAYER_1
  2
AIGNBL010200A1
 70
64
 10
0
 20
0
 30
0
  3
AIGNBL010200A1
  0
POLYLINE
  8
LAYER_1
 40
0.0882
 41
0.0882
 62
211
 66
1
 10
0
 20
0
 30
0
  0
VERTEX
  8
LAYER_1
 10
240.2968
 20
-172.1312
  0
VERTEX
  8
LAYER_1
 10
240.2269
 20
-171.961
  0
SEQEND
  0
ENDBLK
  0
BLOCK
  8
LAYER_1
  2
AIGNBL010200A2
 70
64
 10
0
 20
0
 30
0
  3
AIGNBL010200A2
  0
POLYLINE
  8
LAYER_1
 40
0.0882
 41
0.0882
 62
211
 66
1
 10
0
 20
0
 30
0
  0
VERTEX
  8
LAYER_1
 10
239.0765
 20
-171.1611
  0
VERTEX
  8
LAYER_1
 10
239.0069
 20
-171.0412
  0
SEQEND
  0
ENDBLK
  0
BLOCK
  8
LAYER_1
  2
AIGNBL010200A3
 70
64
 10
0
 20
0
 30
0
  3
AIGNBL010200A3
  0
POLYLINE
  8
LAYER_1
 40
0.0882
 41
0.0882
 62
211
 66
1
 10
0
 20
0
 30
0
  0
VERTEX
  8
LAYER_1
 10
238.9966
 20
-172.1312
  0
VERTEX
  8
LAYER_1
 10
239.0765
 20
-171.961
  0
SEQEND
  0
ENDBLK
  0
BLOCK
  8
LAYER_1
  2
AIGNBL010200A4
 70
64
 10
0
 20
0
 30
0
  3
AIGNBL010200A4
  0
POLYLINE
  8
LAYER_1
 40
0.0882
 41
0.0882
 62
211
 66
1
 10
0
 20
0
 30
0
  0
VERTEX
  8
LAYER_1
 10
240.2269
 20
-171.961
  0
VERTEX
  8
LAYER_1
 10
240.2269
 20
-171.1611
  0
SEQEND
  0
ENDBLK
  0
BLOCK
  8
LAYER_1
  2
AIGNBL010200A5
 70
64
 10
0
 20
0
 30
0
  3
AIGNBL010200A5
  0
POLYLINE
  8
LAYER_1
 40
0.0882
 41
0.0882
 62
211
 66
1
 10
0
 20
0
 30
0
  0
VERTEX
  8
LAYER_1
 10
239.0765
 20
-171.961
  0
VERTEX
  8
LAYER_1
 10
239.0765
 20
-171.1611
  0
SEQEND
  0
ENDBLK
  0
BLOCK
  8
LAYER_1
  2
AIGNBL010200A6
 70
64
 10
0
 20
0
 30
0
  3
AIGNBL010200A6
  0
POLYLINE
  8
LAYER_1
 40
0.0882
 41
0.0882
 62
211
 66
1
 10
0
 20
0
 30
0
  0
VERTEX
  8
LAYER_1
 10
240.2668
 20
-172.5109
  0
VERTEX
  8
LAYER_1
 10
240.2668
 20
-172.4613
  0
SEQEND
  0
ENDBLK
  0
BLOCK
  8
LAYER_1
  2
AIGNBL010200A7
 70
64
 10
0
 20
0
 30
0
  3
AIGNBL010200A7
  0
POLYLINE
  8
LAYER_1
 40
0.0882
 41
0.0882
 62
211
 66
1
 10
0
 20
0
 30
0
  0
VERTEX
  8
LAYER_1
 10
239.0269
 20
-172.5109
  0
VERTEX
  8
LAYER_1
 10
239.0269
 20
-172.4613
  0
SEQEND
  0
ENDBLK
  0
BLOCK
  8
LAYER_1
  2
AIGNBL010200A8
 70
64
 10
0
 20
0
 30
0
  3
AIGNBL010200A8
  0
POLYLINE
  8
LAYER_1
 40
0.0882
 41
0.0882
 62
211
 66
1
 10
0
 20
0
 30
0
  0
VERTEX
  8
LAYER_1
 10
238.7265
 20
-173.7614
  0
VERTEX
  8
LAYER_1
 10
238.5467
 20
-173.6615
  0
SEQEND
  0
ENDBLK
  0
BLOCK
  8
LAYER_1
  2
AIGNBL010200A9
 70
64
 10
0
 20
0
 30
0
  3
AIGNBL010200A9
  0
POLYLINE
  8
LAYER_1
 40
0.0882
 41
0.0882
 62
211
 66
1
 10
0
 20
0
 30
0
  0
VERTEX
  8
LAYER_1
 10
238.8226
 20
-173.7614
  0
VERTEX
  8
LAYER_1
 10
238.8226
 20
-174.5614
  0
SEQEND
  0
ENDBLK
  0
BLOCK
  8
LAYER_1
  2
AIGNBL010200AA
 70
64
 10
0
 20
0
 30
0
  3
AIGNBL010200AA
  0
POLYLINE
  8
LAYER_1
 40
0.0882
 41
0.0882
 62
211
 66
1
 10
0
 20
0
 30
0
  0
VERTEX
  8
LAYER_1
 10
240.4728
 20
-174.5614
  0
VERTEX
  8
LAYER_1
 10
240.4728
 20
-173.7614
  0
SEQEND
  0
ENDBLK
  0
BLOCK
  8
LAYER_1
  2
AIGNBL010200AB
 70
64
 10
0
 20
0
 30
0
  3
AIGNBL010200AB
  0
POLYLINE
  8
LAYER_1
 40
0.0882
 41
0.0882
 62
211
 66
1
 10
0
 20
0
 30
0
  0
VERTEX
  8
LAYER_1
 10
238.7265
 20
-172.5109
  0
VERTEX
  8
LAYER_1
 10
239.0269
 20
-172.5109
  0
SEQEND
  0
ENDBLK
  0
BLOCK
  8
LAYER_1
  2
AIGNBL010200AC
 70
64
 10
0
 20
0
 30
0
  3
AIGNBL010200AC
  0
POLYLINE
  8
LAYER_1
 40
0.0882
 41
0.0882
 62
211
 66
1
 10
0
 20
0
 30
0
  0
VERTEX
  8
LAYER_1
 10
238.7265
 20
-173.7614
  0
VERTEX
  8
LAYER_1
 10
238.8226
 20
-173.7614
  0
SEQEND
  0
ENDBLK
  0
BLOCK
  8
LAYER_1
  2
AIGNBL010200AD
 70
64
 10
0
 20
0
 30
0
  3
AIGNBL010200AD
  0
POLYLINE
  8
LAYER_1
 40
0.0882
 41
0.0882
 62
211
 66
1
 10
0
 20
0
 30
0
  0
VERTEX
  8
LAYER_1
 10
238.8226
 20
-173.7614
  0
VERTEX
  8
LAYER_1
 10
240.4728
 20
-173.7614
  0
SEQEND
  0
ENDBLK
  0
BLOCK
  8
LAYER_1
  2
AIGNBL010200AE
 70
64
 10
0
 20
0
 30
0
  3
AIGNBL010200AE
  0
POLYLINE
  8
LAYER_1
 40
0.0882
 41
0.0882
 62
211
 66
1
 10
0
 20
0
 30
0
  0
VERTEX
  8
LAYER_1
 10
238.6476
 20
-174.7612
  0
VERTEX
  8
LAYER_1
 10
238.6476
 20
-175.9608
  0
SEQEND
  0
ENDBLK
  0
BLOCK
  8
LAYER_1
  2
AIGNBL010200AF
 70
64
 10
0
 20
0
 30
0
  3
AIGNBL010200AF
  0
POLYLINE
  8
LAYER_1
 40
0.0882
 41
0.0882
 62
211
 66
1
 10
0
 20
0
 30
0
  0
VERTEX
  8
LAYER_1
 10
240.6854
 20
-175.9608
  0
VERTEX
  8
LAYER_1
 10
240.6478
 20
-175.9608
  0
SEQEND
  0
ENDBLK
  0
BLOCK
  8
LAYER_1
  2
AIGNBL010200B0
 70
64
 10
0
 20
0
 30
0
  3
AIGNBL010200B0
  0
POLYLINE
  8
LAYER_1
 40
0.0882
 41
0.0882
 62
211
 66
1
 10
0
 20
0
 30
0
  0
VERTEX
  8
LAYER_1
 10
240.6478
 20
-174.7612
  0
VERTEX
  8
LAYER_1
 10
240.6478
 20
-175.9608
  0
SEQEND
  0
ENDBLK
  0
BLOCK
  8
LAYER_1
  2
AIGNBL010200B1
 70
64
 10
0
 20
0
 30
0
  3
AIGNBL010200B1
  0
POLYLINE
  8
LAYER_1
 40
0.0882
 41
0.0882
 62
211
 66
1
 10
0
 20
0
 30
0
  0
VERTEX
  8
LAYER_1
 10
240.6478
 20
-175.9608
  0
VERTEX
  8
LAYER_1
 10
238.6476
 20
-175.9608
  0
SEQEND
  0
ENDBLK
  0
BLOCK
  8
LAYER_1
  2
AIGNBL010200B2
 70
64
 10
0
 20
0
 30
0
  3
AIGNBL010200B2
  0
POLYLINE
  8
LAYER_1
 40
0.0882
 41
0.0882
 62
211
 66
1
 10
0
 20
0
 30
0
  0
VERTEX
  8
LAYER_1
 10
240.6947
 20
-178.2614
  0
VERTEX
  8
LAYER_1
 10
238.6104
 20
-178.2614
  0
SEQEND
  0
ENDBLK
  0
BLOCK
  8
LAYER_1
  2
AIGNBL010200B3
 70
64
 10
0
 20
0
 30
0
  3
AIGNBL010200B3
  0
POLYLINE
  8
LAYER_1
 40
0.0882
 41
0.0882
 62
211
 66
1
 10
0
 20
0
 30
0
  0
VERTEX
  8
LAYER_1
 10
240.6478
 20
-174.7612
  0
VERTEX
  8
LAYER_1
 10
238.6476
 20
-174.7612
  0
SEQEND
  0
ENDBLK
  0
BLOCK
  8
LAYER_1
  2
AIGNBL010200B4
 70
64
 10
0
 20
0
 30
0
  3
AIGNBL010200B4
  0
POLYLINE
  8
LAYER_1
 40
0.0882
 41
0.0882
 62
211
 66
1
 10
0
 20
0
 30
0
  0
VERTEX
  8
LAYER_1
 10
239.0269
 20
-172.5109
  0
VERTEX
  8
LAYER_1
 10
240.2668
 20
-172.5109
  0
SEQEND
  0
ENDBLK
  0
BLOCK
  8
LAYER_1
  2
AIGNBL010200B5
 70
64
 10
0
 20
0
 30
0
  3
AIGNBL010200B5
  0
POLYLINE
  8
LAYER_1
 40
0.0882
 41
0.0882
 62
211
 66
1
 10
0
 20
0
 30
0
  0
VERTEX
  8
LAYER_1
 10
239.0269
 20
-172.4613
  0
VERTEX
  8
LAYER_1
 10
240.2668
 20
-172.4613
  0
SEQEND
  0
ENDBLK
  0
BLOCK
  8
LAYER_1
  2
AIGNBL010200B6
 70
64
 10
0
 20
0
 30
0
  3
AIGNBL010200B6
  0
POLYLINE
  8
LAYER_1
 40
0.0882
 41
0.0882
 62
211
 66
1
 10
0
 20
0
 30
0
  0
VERTEX
  8
LAYER_1
 10
238.9766
 20
-170.6609
  0
VERTEX
  8
LAYER_1
 10
240.3271
 20
-170.6609
  0
SEQEND
  0
ENDBLK
  0
BLOCK
  8
LAYER_1
  2
AIGNBL010200B7
 70
64
 10
0
 20
0
 30
0
  3
AIGNBL010200B7
  0
POLYLINE
  8
LAYER_1
 40
0.0882
 41
0.0882
 62
211
 66
1
 10
0
 20
0
 30
0
  0
VERTEX
  8
LAYER_1
 10
240.9172
 20
-178.2022
  0
VERTEX
  8
LAYER_1
 10
240.9727
 20
-178.1608
  0
SEQEND
  0
ENDBLK
  0
BLOCK
  8
LAYER_1
  2
AIGNBL010200B8
 70
64
 10
0
 20
0
 30
0
  3
AIGNBL010200B8
  0
POLYLINE
  8
LAYER_1
 40
0.0882
 41
0.0882
 62
211
 66
1
 10
0
 20
0
 30
0
  0
VERTEX
  8
LAYER_1
 10
240.6947
 20
-178.2614
 42
0.1244076639
  0
VERTEX
  8
LAYER_1
 10
240.9172
 20
-178.2022
  0
SEQEND
  0
ENDBLK
  0
BLOCK
  8
LAYER_1
  2
AIGNBL010200B9
 70
64
 10
0
 20
0
 30
0
  3
AIGNBL010200B9
  0
POLYLINE
  8
LAYER_1
 40
0.0882
 41
0.0882
 62
211
 66
1
 10
0
 20
0
 30
0
  0
VERTEX
  8
LAYER_1
 10
240.9727
 20
-176.0614
  0
VERTEX
  8
LAYER_1
 10
240.9172
 20
-176.0201
  0
SEQEND
  0
ENDBLK
  0
BLOCK
  8
LAYER_1
  2
AIGNBL010200BA
 70
64
 10
0
 20
0
 30
0
  3
AIGNBL010200BA
  0
POLYLINE
  8
LAYER_1
 40
0.0882
 41
0.0882
 62
211
 66
1
 10
0
 20
0
 30
0
  0
VERTEX
  8
LAYER_1
 10
240.9172
 20
-176.0201
 42
0.1286554523
  0
VERTEX
  8
LAYER_1
 10
240.6854
 20
-175.9608
  0
SEQEND
  0
ENDBLK
  0
BLOCK
  8
LAYER_1
  2
AIGNBL010200BB
 70
64
 10
0
 20
0
 30
0
  3
AIGNBL010200BB
  0
POLYLINE
  8
LAYER_1
 40
0.0882
 41
0.0882
 62
211
 66
1
 10
0
 20
0
 30
0
  0
VERTEX
  8
LAYER_1
 10
238.3227
 20
-178.1608
  0
VERTEX
  8
LAYER_1
 10
238.3782
 20
-178.2022
  0
SEQEND
  0
ENDBLK
  0
BLOCK
  8
LAYER_1
  2
AIGNBL010200BC
 70
64
 10
0
 20
0
 30
0
  3
AIGNBL010200BC
  0
POLYLINE
  8
LAYER_1
 40
0.0882
 41
0.0882
 62
211
 66
1
 10
0
 20
0
 30
0
  0
VERTEX
  8
LAYER_1
 10
238.3782
 20
-178.2022
 42
0.130217852
  0
VERTEX
  8
LAYER_1
 10
238.6104
 20
-178.2614
  0
SEQEND
  0
ENDBLK
  0
BLOCK
  8
LAYER_1
  2
AIGNBL010200BD
 70
64
 10
0
 20
0
 30
0
  3
AIGNBL010200BD
  0
POLYLINE
  8
LAYER_1
 40
0.0882
 41
0.0882
 62
211
 66
1
 10
0
 20
0
 30
0
  0
VERTEX
  8
LAYER_1
 10
238.3782
 20
-176.0201
  0
VERTEX
  8
LAYER_1
 10
238.3227
 20
-176.0614
  0
SEQEND
  0
ENDBLK
  0
BLOCK
  8
LAYER_1
  2
AIGNBL010200BE
 70
64
 10
0
 20
0
 30
0
  3
AIGNBL010200BE
  0
POLYLINE
  8
LAYER_1
 40
0.0882
 41
0.0882
 62
211
 66
1
 10
0
 20
0
 30
0
  0
VERTEX
  8
LAYER_1
 10
238.6104
 20
-175.9608
 42
0.1284498425
  0
VERTEX
  8
LAYER_1
 10
238.3782
 20
-176.0201
  0
SEQEND
  0
ENDBLK
  0
BLOCK
  8
LAYER_1
  2
AIGNBL010200BF
 70
64
 10
0
 20
0
 30
0
  3
AIGNBL010200BF
  0
POLYLINE
  8
LAYER_1
 40
0.0882
 41
0.0882
 62
211
 66
1
 10
0
 20
0
 30
0
  0
VERTEX
  8
LAYER_1
 10
239.018
 20
-172.3552
 42
0.1390463186
  0
VERTEX
  8
LAYER_1
 10
239.1468
 20
-172.4509
  0
SEQEND
  0
ENDBLK
  0
BLOCK
  8
LAYER_1
  2
AIGNBL010200C0
 70
64
 10
0
 20
0
 30
0
  3
AIGNBL010200C0
  0
POLYLINE
  8
LAYER_1
 40
0.0882
 41
0.0882
 62
211
 66
1
 10
0
 20
0
 30
0
  0
VERTEX
  8
LAYER_1
 10
238.9904
 20
-172.3007
  0
VERTEX
  8
LAYER_1
 10
239.018
 20
-172.3552
  0
SEQEND
  0
ENDBLK
  0
BLOCK
  8
LAYER_1
  2
AIGNBL010200C1
 70
64
 10
0
 20
0
 30
0
  3
AIGNBL010200C1
  0
POLYLINE
  8
LAYER_1
 40
0.0882
 41
0.0882
 62
211
 66
1
 10
0
 20
0
 30
0
  0
VERTEX
  8
LAYER_1
 10
240.3168
 20
-172.2008
  0
VERTEX
  8
LAYER_1
 10
240.3068
 20
-172.1312
  0
SEQEND
  0
ENDBLK
  0
BLOCK
  8
LAYER_1
  2
AIGNBL010200C2
 70
64
 10
0
 20
0
 30
0
  3
AIGNBL010200C2
  0
POLYLINE
  8
LAYER_1
 40
0.0882
 41
0.0882
 62
211
 66
1
 10
0
 20
0
 30
0
  0
VERTEX
  8
LAYER_1
 10
240.2889
 20
-172.3393
  0
VERTEX
  8
LAYER_1
 10
240.3037
 20
-172.3007
  0
SEQEND
  0
ENDBLK
  0
BLOCK
  8
LAYER_1
  2
AIGNBL010200C3
 70
64
 10
0
 20
0
 30
0
  3
AIGNBL010200C3
  0
POLYLINE
  8
LAYER_1
 40
0.0882
 41
0.0882
 62
211
 66
1
 10
0
 20
0
 30
0
  0
VERTEX
  8
LAYER_1
 10
240.2231
 20
-172.4158
 42
0.1492117815
  0
VERTEX
  8
LAYER_1
 10
240.2889
 20
-172.3393
  0
SEQEND
  0
ENDBLK
  0
BLOCK
  8
LAYER_1
  2
AIGNBL010200C4
 70
64
 10
0
 20
0
 30
0
  3
AIGNBL010200C4
  0
POLYLINE
  8
LAYER_1
 40
0.0882
 41
0.0882
 62
211
 66
1
 10
0
 20
0
 30
0
  0
VERTEX
  8
LAYER_1
 10
240.1569
 20
-172.4509
  0
VERTEX
  8
LAYER_1
 10
240.2231
 20
-172.4158
  0
SEQEND
  0
ENDBLK
  0
BLOCK
  8
LAYER_1
  2
AIGNBL010200C6
 70
64
 10
0
 20
0
 30
0
  3
AIGNBL010200C6
  0
INSERT
  8
LAYER_1
  2
AIGNBL010300C7
 10
0
 20
0
 30
0
  0
INSERT
  8
LAYER_1
  2
AIGNBL010300C8
 10
0
 20
0
 30
0
  0
INSERT
  8
LAYER_1
  2
AIGNBL010300C9
 10
0
 20
0
 30
0
  0
INSERT
  8
LAYER_1
  2
AIGNBL010300CA
 10
0
 20
0
 30
0
  0
INSERT
  8
LAYER_1
  2
AIGNBL010300CB
 10
0
 20
0
 30
0
  0
INSERT
  8
LAYER_1
  2
AIGNBL010300CC
 10
0
 20
0
 30
0
  0
ENDBLK
  0
BLOCK
  8
LAYER_1
  2
AIGNBL010200CD
 70
64
 10
0
 20
0
 30
0
  3
AIGNBL010200CD
  0
POLYLINE
  8
LAYER_1
 40
0.0882
 41
0.0882
 62
211
 66
1
 10
0
 20
0
 30
0
  0
VERTEX
  8
LAYER_1
 10
235.8526
 20
-179.1719
  0
VERTEX
  8
LAYER_1
 10
235.8526
 20
-178.0117
  0
SEQEND
  0
ENDBLK
  0
BLOCK
  8
LAYER_1
  2
AIGNBL010200CE
 70
64
 10
0
 20
0
 30
0
  3
AIGNBL010200CE
  0
POLYLINE
  8
LAYER_1
 40
0.0882
 41
0.0882
 62
211
 66
1
 10
0
 20
0
 30
0
  0
VERTEX
  8
LAYER_1
 10
236.2026
 20
-178.4919
  0
VERTEX
  8
LAYER_1
 10
236.1826
 20
-178.5119
  0
SEQEND
  0
ENDBLK
  0
BLOCK
  8
LAYER_1
  2
AIGNBL010200CF
 70
64
 10
0
 20
0
 30
0
  3
AIGNBL010200CF
  0
POLYLINE
  8
LAYER_1
 40
0.0882
 41
0.0882
 62
211
 66
1
 10
0
 20
0
 30
0
  0
VERTEX
  8
LAYER_1
 10
235.5026
 20
-178.4919
  0
VERTEX
  8
LAYER_1
 10
235.5226
 20
-178.5119
  0
SEQEND
  0
ENDBLK
  0
BLOCK
  8
LAYER_1
  2
AIGNBL010200D0
 70
64
 10
0
 20
0
 30
0
  3
AIGNBL010200D0
  0
POLYLINE
  8
LAYER_1
 40
0.0882
 41
0.0882
 62
211
 66
1
 10
0
 20
0
 30
0
  0
VERTEX
  8
LAYER_1
 10
236.2026
 20
-178.4919
  0
VERTEX
  8
LAYER_1
 10
236.2026
 20
-178.3617
  0
SEQEND
  0
ENDBLK
  0
BLOCK
  8
LAYER_1
  2
AIGNBL010200D1
 70
64
 10
0
 20
0
 30
0
  3
AIGNBL010200D1
  0
POLYLINE
  8
LAYER_1
 40
0.0882
 41
0.0882
 62
211
 66
1
 10
0
 20
0
 30
0
  0
VERTEX
  8
LAYER_1
 10
235.5026
 20
-178.4919
  0
VERTEX
  8
LAYER_1
 10
235.5026
 20
-178.3617
  0
SEQEND
  0
ENDBLK
  0
BLOCK
  8
LAYER_1
  2
AIGNBL010200D2
 70
64
 10
0
 20
0
 30
0
  3
AIGNBL010200D2
  0
POLYLINE
  8
LAYER_1
 40
0.0882
 41
0.0882
 62
211
 66
1
 10
0
 20
0
 30
0
  0
VERTEX
  8
LAYER_1
 10
235.5529
 20
-178.3117
  0
VERTEX
  8
LAYER_1
 10
236.153
 20
-178.3117
  0
SEQEND
  0
ENDBLK
  0
BLOCK
  8
LAYER_1
  2
AIGNBL010200D3
 70
64
 10
0
 20
0
 30
0
  3
AIGNBL010200D3
  0
POLYLINE
  8
LAYER_1
 40
0.0882
 41
0.0882
 62
211
 66
1
 10
0
 20
0
 30
0
  0
VERTEX
  8
LAYER_1
 10
235.5226
 20
-178.5119
  0
VERTEX
  8
LAYER_1
 10
235.588
 20
-178.5119
  0
SEQEND
  0
ENDBLK
  0
BLOCK
  8
LAYER_1
  2
AIGNBL010200D4
 70
64
 10
0
 20
0
 30
0
  3
AIGNBL010200D4
  0
POLYLINE
  8
LAYER_1
 40
0.0882
 41
0.0882
 62
211
 66
1
 10
0
 20
0
 30
0
  0
VERTEX
  8
LAYER_1
 10
236.1179
 20
-178.5119
  0
VERTEX
  8
LAYER_1
 10
236.1826
 20
-178.5119
  0
SEQEND
  0
ENDBLK
  0
BLOCK
  8
LAYER_1
  2
AIGNBL010200D5
 70
64
 10
0
 20
0
 30
0
  3
AIGNBL010200D5
  0
POLYLINE
  8
LAYER_1
 40
0.0882
 41
0.0882
 62
211
 66
1
 10
0
 20
0
 30
0
  0
VERTEX
  8
LAYER_1
 10
235.5529
 20
-178.3117
 42
0.391877493
  0
VERTEX
  8
LAYER_1
 10
235.5026
 20
-178.3617
  0
SEQEND
  0
ENDBLK
  0
BLOCK
  8
LAYER_1
  2
AIGNBL010200D6
 70
64
 10
0
 20
0
 30
0
  3
AIGNBL010200D6
  0
POLYLINE
  8
LAYER_1
 40
0.0882
 41
0.0882
 62
211
 66
1
 10
0
 20
0
 30
0
  0
VERTEX
  8
LAYER_1
 10
236.2026
 20
-178.3617
 42
0.3943858634
  0
VERTEX
  8
LAYER_1
 10
236.153
 20
-178.3117
  0
SEQEND
  0
ENDBLK
  0
BLOCK
  8
LAYER_1
  2
AIGNBL010200D7
 70
64
 10
0
 20
0
 30
0
  3
AIGNBL010200D7
  0
POLYLINE
  8
LAYER_1
 40
0.0882
 41
0.0882
 62
211
 66
1
 10
0
 20
0
 30
0
  0
VERTEX
  8
LAYER_1
 10
235.8526
 20
-180.9717
  0
VERTEX
  8
LAYER_1
 10
235.8526
 20
-180.0618
  0
SEQEND
  0
ENDBLK
  0
BLOCK
  8
LAYER_1
  2
AIGNBL010200D8
 70
64
 10
0
 20
0
 30
0
  3
AIGNBL010200D8
  0
POLYLINE
  8
LAYER_1
 40
0.0882
 41
0.0882
 62
211
 66
1
 10
0
 20
0
 30
0
  0
VERTEX
  8
LAYER_1
 10
237.653
 20
-183.1118
  0
VERTEX
  8
LAYER_1
 10
235.9029
 20
-183.1118
  0
SEQEND
  0
ENDBLK
  0
BLOCK
  8
LAYER_1
  2
AIGNBL010200D9
 70
64
 10
0
 20
0
 30
0
  3
AIGNBL010200D9
  0
POLYLINE
  8
LAYER_1
 40
0.0882
 41
0.0882
 62
211
 66
1
 10
0
 20
0
 30
0
  0
VERTEX
  8
LAYER_1
 10
234.8928
 20
-180.2117
  0
VERTEX
  8
LAYER_1
 10
237.653
 20
-180.2117
  0
SEQEND
  0
ENDBLK
  0
BLOCK
  8
LAYER_1
  2
AIGNBL010200DA
 70
64
 10
0
 20
0
 30
0
  3
AIGNBL010200DA
  0
POLYLINE
  8
LAYER_1
 40
0.0882
 41
0.0882
 62
211
 66
1
 10
0
 20
0
 30
0
  0
VERTEX
  8
LAYER_1
 10
237.653
 20
-180.2117
  0
VERTEX
  8
LAYER_1
 10
237.653
 20
-183.1118
  0
SEQEND
  0
ENDBLK
  0
BLOCK
  8
LAYER_1
  2
AIGNBL010200DB
 70
64
 10
0
 20
0
 30
0
  3
AIGNBL010200DB
  0
POLYLINE
  8
LAYER_1
 40
0.0882
 41
0.0882
 62
211
 66
1
 10
0
 20
0
 30
0
  0
VERTEX
  8
LAYER_1
 10
235.9029
 20
-183.1118
  0
VERTEX
  8
LAYER_1
 10
235.3627
 20
-183.1118
  0
SEQEND
  0
ENDBLK
  0
BLOCK
  8
LAYER_1
  2
AIGNBL010200DC
 70
64
 10
0
 20
0
 30
0
  3
AIGNBL010200DC
  0
POLYLINE
  8
LAYER_1
 40
0.0882
 41
0.0882
 62
211
 66
1
 10
0
 20
0
 30
0
  0
VERTEX
  8
LAYER_1
 10
235.3627
 20
-183.1118
  0
VERTEX
  8
LAYER_1
 10
234.8928
 20
-183.1118
  0
SEQEND
  0
ENDBLK
  0
BLOCK
  8
LAYER_1
  2
AIGNBL010200DD
 70
64
 10
0
 20
0
 30
0
  3
AIGNBL010200DD
  0
POLYLINE
  8
LAYER_1
 40
0.0882
 41
0.0882
 62
211
 66
1
 10
0
 20
0
 30
0
  0
VERTEX
  8
LAYER_1
 10
234.8025
 20
-183.0218
  0
VERTEX
  8
LAYER_1
 10
234.8025
 20
-180.302
  0
SEQEND
  0
ENDBLK
  0
BLOCK
  8
LAYER_1
  2
AIGNBL010200DE
 70
64
 10
0
 20
0
 30
0
  3
AIGNBL010200DE
  0
POLYLINE
  8
LAYER_1
 40
0.0882
 41
0.0882
 62
211
 66
1
 10
0
 20
0
 30
0
  0
VERTEX
  8
LAYER_1
 10
234.8025
 20
-183.0218
 42
0.3915753941
  0
VERTEX
  8
LAYER_1
 10
234.8928
 20
-183.1118
  0
SEQEND
  0
ENDBLK
  0
BLOCK
  8
LAYER_1
  2
AIGNBL010200DF
 70
64
 10
0
 20
0
 30
0
  3
AIGNBL010200DF
  0
POLYLINE
  8
LAYER_1
 40
0.0882
 41
0.0882
 62
211
 66
1
 10
0
 20
0
 30
0
  0
VERTEX
  8
LAYER_1
 10
234.8928
 20
-180.2117
 42
0.4142904543
  0
VERTEX
  8
LAYER_1
 10
234.8025
 20
-180.302
  0
SEQEND
  0
ENDBLK
  0
BLOCK
  8
LAYER_1
  2
AIGNBL010200E0
 70
64
 10
0
 20
0
 30
0
  3
AIGNBL010200E0
  0
POLYLINE
  8
LAYER_1
 40
0.0882
 41
0.0882
 62
211
 66
1
 10
0
 20
0
 30
0
  0
VERTEX
  8
LAYER_1
 10
238.6032
 20
-178.2779
  0
VERTEX
  8
LAYER_1
 10
240.7026
 20
-178.2779
  0
SEQEND
  0
ENDBLK
  0
BLOCK
  8
LAYER_1
  2
AIGNBL010200E1
 70
64
 10
0
 20
0
 30
0
  3
AIGNBL010200E1
  0
POLYLINE
  8
LAYER_1
 40
0.0882
 41
0.0882
 62
211
 66
1
 10
0
 20
0
 30
0
  0
VERTEX
  8
LAYER_1
 10
238.7189
 20
-179.0617
  0
VERTEX
  8
LAYER_1
 10
240.5869
 20
-179.0617
  0
SEQEND
  0
ENDBLK
  0
BLOCK
  8
LAYER_1
  2
AIGNBL010200E2
 70
64
 10
0
 20
0
 30
0
  3
AIGNBL010200E2
  0
POLYLINE
  8
LAYER_1
 40
0.0882
 41
0.0882
 62
211
 66
1
 10
0
 20
0
 30
0
  0
VERTEX
  8
LAYER_1
 10
237.653
 20
-180.3619
  0
VERTEX
  8
LAYER_1
 10
237.7026
 20
-180.3619
  0
SEQEND
  0
ENDBLK
  0
BLOCK
  8
LAYER_1
  2
AIGNBL010200E3
 70
64
 10
0
 20
0
 30
0
  3
AIGNBL010200E3
  0
POLYLINE
  8
LAYER_1
 40
0.0882
 41
0.0882
 62
211
 66
1
 10
0
 20
0
 30
0
  0
VERTEX
  8
LAYER_1
 10
240.7026
 20
-179.2629
  0
VERTEX
  8
LAYER_1
 10
240.7026
 20
-179.3618
  0
SEQEND
  0
ENDBLK
  0
BLOCK
  8
LAYER_1
  2
AIGNBL010200E4
 70
64
 10
0
 20
0
 30
0
  3
AIGNBL010200E4
  0
POLYLINE
  8
LAYER_1
 40
0.0882
 41
0.0882
 62
211
 66
1
 10
0
 20
0
 30
0
  0
VERTEX
  8
LAYER_1
 10
240.7026
 20
-179.0617
  0
VERTEX
  8
LAYER_1
 10
240.7026
 20
-179.2629
  0
SEQEND
  0
ENDBLK
  0
BLOCK
  8
LAYER_1
  2
AIGNBL010200E5
 70
64
 10
0
 20
0
 30
0
  3
AIGNBL010200E5
  0
POLYLINE
  8
LAYER_1
 40
0.0882
 41
0.0882
 62
211
 66
1
 10
0
 20
0
 30
0
  0
VERTEX
  8
LAYER_1
 10
238.6032
 20
-179.2629
  0
VERTEX
  8
LAYER_1
 10
238.6032
 20
-179.3618
  0
SEQEND
  0
ENDBLK
  0
BLOCK
  8
LAYER_1
  2
AIGNBL010200E6
 70
64
 10
0
 20
0
 30
0
  3
AIGNBL010200E6
  0
POLYLINE
  8
LAYER_1
 40
0.0882
 41
0.0882
 62
211
 66
1
 10
0
 20
0
 30
0
  0
VERTEX
  8
LAYER_1
 10
238.6032
 20
-179.0617
  0
VERTEX
  8
LAYER_1
 10
238.7189
 20
-179.0617
  0
SEQEND
  0
ENDBLK
  0
BLOCK
  8
LAYER_1
  2
AIGNBL010200E7
 70
64
 10
0
 20
0
 30
0
  3
AIGNBL010200E7
  0
POLYLINE
  8
LAYER_1
 40
0.0882
 41
0.0882
 62
211
 66
1
 10
0
 20
0
 30
0
  0
VERTEX
  8
LAYER_1
 10
238.6032
 20
-179.0617
  0
VERTEX
  8
LAYER_1
 10
238.6032
 20
-179.2629
  0
SEQEND
  0
ENDBLK
  0
BLOCK
  8
LAYER_1
  2
AIGNBL010200E8
 70
64
 10
0
 20
0
 30
0
  3
AIGNBL010200E8
  0
POLYLINE
  8
LAYER_1
 40
0.0882
 41
0.0882
 62
211
 66
1
 10
0
 20
0
 30
0
  0
VERTEX
  8
LAYER_1
 10
238.6032
 20
-179.2629
  0
VERTEX
  8
LAYER_1
 10
238.7189
 20
-179.0617
  0
SEQEND
  0
ENDBLK
  0
BLOCK
  8
LAYER_1
  2
AIGNBL010200E9
 70
64
 10
0
 20
0
 30
0
  3
AIGNBL010200E9
  0
POLYLINE
  8
LAYER_1
 40
0.0882
 41
0.0882
 62
211
 66
1
 10
0
 20
0
 30
0
  0
VERTEX
  8
LAYER_1
 10
238.6032
 20
-178.2779
  0
VERTEX
  8
LAYER_1
 10
238.6032
 20
-179.0617
  0
SEQEND
  0
ENDBLK
  0
BLOCK
  8
LAYER_1
  2
AIGNBL010200EA
 70
64
 10
0
 20
0
 30
0
  3
AIGNBL010200EA
  0
POLYLINE
  8
LAYER_1
 40
0.0882
 41
0.0882
 62
211
 66
1
 10
0
 20
0
 30
0
  0
VERTEX
  8
LAYER_1
 10
237.7026
 20
-183.1118
  0
VERTEX
  8
LAYER_1
 10
243.1521
 20
-183.1118
  0
SEQEND
  0
ENDBLK
  0
BLOCK
  8
LAYER_1
  2
AIGNBL010200EB
 70
64
 10
0
 20
0
 30
0
  3
AIGNBL010200EB
  0
POLYLINE
  8
LAYER_1
 40
0.0882
 41
0.0882
 62
211
 66
1
 10
0
 20
0
 30
0
  0
VERTEX
  8
LAYER_1
 10
243.2527
 20
-182.9368
  0
VERTEX
  8
LAYER_1
 10
243.2527
 20
-180.3867
  0
SEQEND
  0
ENDBLK
  0
BLOCK
  8
LAYER_1
  2
AIGNBL010200EC
 70
64
 10
0
 20
0
 30
0
  3
AIGNBL010200EC
  0
POLYLINE
  8
LAYER_1
 40
0.0882
 41
0.0882
 62
211
 66
1
 10
0
 20
0
 30
0
  0
VERTEX
  8
LAYER_1
 10
237.7026
 20
-182.9619
  0
VERTEX
  8
LAYER_1
 10
237.653
 20
-182.9619
  0
SEQEND
  0
ENDBLK
  0
BLOCK
  8
LAYER_1
  2
AIGNBL010200ED
 70
64
 10
0
 20
0
 30
0
  3
AIGNBL010200ED
  0
POLYLINE
  8
LAYER_1
 40
0.0882
 41
0.0882
 62
211
 66
1
 10
0
 20
0
 30
0
  0
VERTEX
  8
LAYER_1
 10
240.5869
 20
-179.0617
  0
VERTEX
  8
LAYER_1
 10
240.7026
 20
-179.0617
  0
SEQEND
  0
ENDBLK
  0
BLOCK
  8
LAYER_1
  2
AIGNBL010200EE
 70
64
 10
0
 20
0
 30
0
  3
AIGNBL010200EE
  0
POLYLINE
  8
LAYER_1
 40
0.0882
 41
0.0882
 62
211
 66
1
 10
0
 20
0
 30
0
  0
VERTEX
  8
LAYER_1
 10
240.5869
 20
-178.1618
  0
VERTEX
  8
LAYER_1
 10
240.7026
 20
-178.2779
  0
SEQEND
  0
ENDBLK
  0
BLOCK
  8
LAYER_1
  2
AIGNBL010200EF
 70
64
 10
0
 20
0
 30
0
  3
AIGNBL010200EF
  0
POLYLINE
  8
LAYER_1
 40
0.0882
 41
0.0882
 62
211
 66
1
 10
0
 20
0
 30
0
  0
VERTEX
  8
LAYER_1
 10
240.7026
 20
-178.2779
  0
VERTEX
  8
LAYER_1
 10
240.7026
 20
-179.0617
  0
SEQEND
  0
ENDBLK
  0
BLOCK
  8
LAYER_1
  2
AIGNBL010200F0
 70
64
 10
0
 20
0
 30
0
  3
AIGNBL010200F0
  0
POLYLINE
  8
LAYER_1
 40
0.0882
 41
0.0882
 62
211
 66
1
 10
0
 20
0
 30
0
  0
VERTEX
  8
LAYER_1
 10
240.5869
 20
-179.0617
  0
VERTEX
  8
LAYER_1
 10
240.7026
 20
-179.2629
  0
SEQEND
  0
ENDBLK
  0
BLOCK
  8
LAYER_1
  2
AIGNBL010200F1
 70
64
 10
0
 20
0
 30
0
  3
AIGNBL010200F1
  0
POLYLINE
  8
LAYER_1
 40
0.0882
 41
0.0882
 62
211
 66
1
 10
0
 20
0
 30
0
  0
VERTEX
  8
LAYER_1
 10
240.5869
 20
-178.1618
  0
VERTEX
  8
LAYER_1
 10
240.5869
 20
-179.0617
  0
SEQEND
  0
ENDBLK
  0
BLOCK
  8
LAYER_1
  2
AIGNBL010200F2
 70
64
 10
0
 20
0
 30
0
  3
AIGNBL010200F2
  0
POLYLINE
  8
LAYER_1
 40
0.0882
 41
0.0882
 62
211
 66
1
 10
0
 20
0
 30
0
  0
VERTEX
  8
LAYER_1
 10
238.7189
 20
-178.1618
  0
VERTEX
  8
LAYER_1
 10
238.6032
 20
-178.2779
  0
SEQEND
  0
ENDBLK
  0
BLOCK
  8
LAYER_1
  2
AIGNBL010200F3
 70
64
 10
0
 20
0
 30
0
  3
AIGNBL010200F3
  0
POLYLINE
  8
LAYER_1
 40
0.0882
 41
0.0882
 62
211
 66
1
 10
0
 20
0
 30
0
  0
VERTEX
  8
LAYER_1
 10
238.7189
 20
-178.2779
  0
VERTEX
  8
LAYER_1
 10
238.7189
 20
-178.1618
  0
SEQEND
  0
ENDBLK
  0
BLOCK
  8
LAYER_1
  2
AIGNBL010200F4
 70
64
 10
0
 20
0
 30
0
  3
AIGNBL010200F4
  0
POLYLINE
  8
LAYER_1
 40
0.0882
 41
0.0882
 62
211
 66
1
 10
0
 20
0
 30
0
  0
VERTEX
  8
LAYER_1
 10
238.7189
 20
-178.2779
  0
VERTEX
  8
LAYER_1
 10
238.7189
 20
-178.1618
  0
SEQEND
  0
ENDBLK
  0
BLOCK
  8
LAYER_1
  2
AIGNBL010200F5
 70
64
 10
0
 20
0
 30
0
  3
AIGNBL010200F5
  0
POLYLINE
  8
LAYER_1
 40
0.0882
 41
0.0882
 62
211
 66
1
 10
0
 20
0
 30
0
  0
VERTEX
  8
LAYER_1
 10
238.7189
 20
-179.0617
  0
VERTEX
  8
LAYER_1
 10
238.7189
 20
-178.2779
  0
SEQEND
  0
ENDBLK
  0
BLOCK
  8
LAYER_1
  2
AIGNBL010200F6
 70
64
 10
0
 20
0
 30
0
  3
AIGNBL010200F6
  0
POLYLINE
  8
LAYER_1
 40
0.0882
 41
0.0882
 62
211
 66
1
 10
0
 20
0
 30
0
  0
VERTEX
  8
LAYER_1
 10
238.7189
 20
-178.1618
  0
VERTEX
  8
LAYER_1
 10
240.5869
 20
-178.1618
  0
SEQEND
  0
ENDBLK
  0
BLOCK
  8
LAYER_1
  2
AIGNBL010200F7
 70
64
 10
0
 20
0
 30
0
  3
AIGNBL010200F7
  0
POLYLINE
  8
LAYER_1
 40
0.0882
 41
0.0882
 62
211
 66
1
 10
0
 20
0
 30
0
  0
VERTEX
  8
LAYER_1
 10
238.2029
 20
-180.0119
  0
VERTEX
  8
LAYER_1
 10
238.2029
 20
-179.3618
  0
SEQEND
  0
ENDBLK
  0
BLOCK
  8
LAYER_1
  2
AIGNBL010200F8
 70
64
 10
0
 20
0
 30
0
  3
AIGNBL010200F8
  0
POLYLINE
  8
LAYER_1
 40
0.0882
 41
0.0882
 62
211
 66
1
 10
0
 20
0
 30
0
  0
VERTEX
  8
LAYER_1
 10
237.7026
 20
-180.2117
  0
VERTEX
  8
LAYER_1
 10
238.003
 20
-180.2117
  0
SEQEND
  0
ENDBLK
  0
BLOCK
  8
LAYER_1
  2
AIGNBL010200F9
 70
64
 10
0
 20
0
 30
0
  3
AIGNBL010200F9
  0
POLYLINE
  8
LAYER_1
 40
0.0882
 41
0.0882
 62
211
 66
1
 10
0
 20
0
 30
0
  0
VERTEX
  8
LAYER_1
 10
237.7026
 20
-181.6617
  0
VERTEX
  8
LAYER_1
 10
237.7026
 20
-180.2117
  0
SEQEND
  0
ENDBLK
  0
BLOCK
  8
LAYER_1
  2
AIGNBL010200FA
 70
64
 10
0
 20
0
 30
0
  3
AIGNBL010200FA
  0
POLYLINE
  8
LAYER_1
 40
0.0882
 41
0.0882
 62
211
 66
1
 10
0
 20
0
 30
0
  0
VERTEX
  8
LAYER_1
 10
237.7026
 20
-183.1118
  0
VERTEX
  8
LAYER_1
 10
237.7026
 20
-181.6617
  0
SEQEND
  0
ENDBLK
  0
BLOCK
  8
LAYER_1
  2
AIGNBL010200FB
 70
64
 10
0
 20
0
 30
0
  3
AIGNBL010200FB
  0
POLYLINE
  8
LAYER_1
 40
0.0882
 41
0.0882
 62
211
 66
1
 10
0
 20
0
 30
0
  0
VERTEX
  8
LAYER_1
 10
243.1521
 20
-183.1118
  0
VERTEX
  8
LAYER_1
 10
243.2527
 20
-182.9368
  0
SEQEND
  0
ENDBLK
  0
BLOCK
  8
LAYER_1
  2
AIGNBL010200FC
 70
64
 10
0
 20
0
 30
0
  3
AIGNBL010200FC
  0
POLYLINE
  8
LAYER_1
 40
0.0882
 41
0.0882
 62
211
 66
1
 10
0
 20
0
 30
0
  0
VERTEX
  8
LAYER_1
 10
243.1521
 20
-180.2117
  0
VERTEX
  8
LAYER_1
 10
243.2527
 20
-180.3867
  0
SEQEND
  0
ENDBLK
  0
BLOCK
  8
LAYER_1
  2
AIGNBL010200FD
 70
64
 10
0
 20
0
 30
0
  3
AIGNBL010200FD
  0
POLYLINE
  8
LAYER_1
 40
0.0882
 41
0.0882
 62
211
 66
1
 10
0
 20
0
 30
0
  0
VERTEX
  8
LAYER_1
 10
241.3027
 20
-180.2117
  0
VERTEX
  8
LAYER_1
 10
243.1521
 20
-180.2117
  0
SEQEND
  0
ENDBLK
  0
BLOCK
  8
LAYER_1
  2
AIGNBL010200FE
 70
64
 10
0
 20
0
 30
0
  3
AIGNBL010200FE
  0
POLYLINE
  8
LAYER_1
 40
0.0882
 41
0.0882
 62
211
 66
1
 10
0
 20
0
 30
0
  0
VERTEX
  8
LAYER_1
 10
241.1029
 20
-179.3618
  0
VERTEX
  8
LAYER_1
 10
241.1029
 20
-180.0119
  0
SEQEND
  0
ENDBLK
  0
BLOCK
  8
LAYER_1
  2
AIGNBL010200FF
 70
64
 10
0
 20
0
 30
0
  3
AIGNBL010200FF
  0
POLYLINE
  8
LAYER_1
 40
0.0882
 41
0.0882
 62
211
 66
1
 10
0
 20
0
 30
0
  0
VERTEX
  8
LAYER_1
 10
238.2029
 20
-179.3618
  0
VERTEX
  8
LAYER_1
 10
241.1029
 20
-179.3618
  0
SEQEND
  0
ENDBLK
  0
BLOCK
  8
LAYER_1
  2
AIGNBL01020100
 70
64
 10
0
 20
0
 30
0
  3
AIGNBL01020100
  0
POLYLINE
  8
LAYER_1
 40
0.0882
 41
0.0882
 62
211
 66
1
 10
0
 20
0
 30
0
  0
VERTEX
  8
LAYER_1
 10
242.2529
 20
-181.0199
  0
VERTEX
  8
LAYER_1
 10
243.1521
 20
-181.0199
  0
SEQEND
  0
ENDBLK
  0
BLOCK
  8
LAYER_1
  2
AIGNBL01020101
 70
64
 10
0
 20
0
 30
0
  3
AIGNBL01020101
  0
POLYLINE
  8
LAYER_1
 40
0.0882
 41
0.0882
 62
211
 66
1
 10
0
 20
0
 30
0
  0
VERTEX
  8
LAYER_1
 10
243.1521
 20
-180.857
  0
VERTEX
  8
LAYER_1
 10
242.2529
 20
-180.857
  0
SEQEND
  0
ENDBLK
  0
BLOCK
  8
LAYER_1
  2
AIGNBL01020102
 70
64
 10
0
 20
0
 30
0
  3
AIGNBL01020102
  0
POLYLINE
  8
LAYER_1
 40
0.0882
 41
0.0882
 62
211
 66
1
 10
0
 20
0
 30
0
  0
VERTEX
  8
LAYER_1
 10
242.2529
 20
-182.4669
  0
VERTEX
  8
LAYER_1
 10
243.1521
 20
-182.4669
  0
SEQEND
  0
ENDBLK
  0
BLOCK
  8
LAYER_1
  2
AIGNBL01020103
 70
64
 10
0
 20
0
 30
0
  3
AIGNBL01020103
  0
POLYLINE
  8
LAYER_1
 40
0.0882
 41
0.0882
 62
211
 66
1
 10
0
 20
0
 30
0
  0
VERTEX
  8
LAYER_1
 10
243.1521
 20
-182.3039
  0
VERTEX
  8
LAYER_1
 10
242.2529
 20
-182.3039
  0
SEQEND
  0
ENDBLK
  0
BLOCK
  8
LAYER_1
  2
AIGNBL01020104
 70
64
 10
0
 20
0
 30
0
  3
AIGNBL01020104
  0
POLYLINE
  8
LAYER_1
 40
0.0882
 41
0.0882
 62
211
 66
1
 10
0
 20
0
 30
0
  0
VERTEX
  8
LAYER_1
 10
242.2529
 20
-181.1198
  0
VERTEX
  8
LAYER_1
 10
242.2529
 20
-181.6617
  0
SEQEND
  0
ENDBLK
  0
BLOCK
  8
LAYER_1
  2
AIGNBL01020105
 70
64
 10
0
 20
0
 30
0
  3
AIGNBL01020105
  0
POLYLINE
  8
LAYER_1
 40
0.0882
 41
0.0882
 62
211
 66
1
 10
0
 20
0
 30
0
  0
VERTEX
  8
LAYER_1
 10
242.2529
 20
-180.2148
  0
VERTEX
  8
LAYER_1
 10
242.2529
 20
-180.7567
  0
SEQEND
  0
ENDBLK
  0
BLOCK
  8
LAYER_1
  2
AIGNBL01020106
 70
64
 10
0
 20
0
 30
0
  3
AIGNBL01020106
  0
POLYLINE
  8
LAYER_1
 40
0.0882
 41
0.0882
 62
211
 66
1
 10
0
 20
0
 30
0
  0
VERTEX
  8
LAYER_1
 10
242.2529
 20
-181.6617
  0
VERTEX
  8
LAYER_1
 10
242.2529
 20
-182.2037
  0
SEQEND
  0
ENDBLK
  0
BLOCK
  8
LAYER_1
  2
AIGNBL01020107
 70
64
 10
0
 20
0
 30
0
  3
AIGNBL01020107
  0
POLYLINE
  8
LAYER_1
 40
0.0882
 41
0.0882
 62
211
 66
1
 10
0
 20
0
 30
0
  0
VERTEX
  8
LAYER_1
 10
242.2529
 20
-182.5668
  0
VERTEX
  8
LAYER_1
 10
242.2529
 20
-183.1087
  0
SEQEND
  0
ENDBLK
  0
BLOCK
  8
LAYER_1
  2
AIGNBL01020108
 70
64
 10
0
 20
0
 30
0
  3
AIGNBL01020108
  0
POLYLINE
  8
LAYER_1
 40
0.0882
 41
0.0882
 62
211
 66
1
 10
0
 20
0
 30
0
  0
VERTEX
  8
LAYER_1
 10
243.1521
 20
-182.3039
  0
VERTEX
  8
LAYER_1
 10
243.1521
 20
-182.4669
  0
SEQEND
  0
ENDBLK
  0
BLOCK
  8
LAYER_1
  2
AIGNBL01020109
 70
64
 10
0
 20
0
 30
0
  3
AIGNBL01020109
  0
POLYLINE
  8
LAYER_1
 40
0.0882
 41
0.0882
 62
211
 66
1
 10
0
 20
0
 30
0
  0
VERTEX
  8
LAYER_1
 10
243.1521
 20
-180.857
  0
VERTEX
  8
LAYER_1
 10
243.1521
 20
-181.0199
  0
SEQEND
  0
ENDBLK
  0
BLOCK
  8
LAYER_1
  2
AIGNBL0102010A
 70
64
 10
0
 20
0
 30
0
  3
AIGNBL0102010A
  0
POLYLINE
  8
LAYER_1
 40
0.0882
 41
0.0882
 62
211
 66
1
 10
0
 20
0
 30
0
  0
VERTEX
  8
LAYER_1
 10
242.2529
 20
-181.0199
 42
0.1949568781
  0
VERTEX
  8
LAYER_1
 10
241.9931
 20
-181.6617
  0
SEQEND
  0
ENDBLK
  0
BLOCK
  8
LAYER_1
  2
AIGNBL0102010B
 70
64
 10
0
 20
0
 30
0
  3
AIGNBL0102010B
  0
POLYLINE
  8
LAYER_1
 40
0.0882
 41
0.0882
 62
211
 66
1
 10
0
 20
0
 30
0
  0
VERTEX
  8
LAYER_1
 10
241.9931
 20
-180.2148
 42
0.1947013948
  0
VERTEX
  8
LAYER_1
 10
242.2529
 20
-180.857
  0
SEQEND
  0
ENDBLK
  0
BLOCK
  8
LAYER_1
  2
AIGNBL0102010C
 70
64
 10
0
 20
0
 30
0
  3
AIGNBL0102010C
  0
POLYLINE
  8
LAYER_1
 40
0.0882
 41
0.0882
 62
211
 66
1
 10
0
 20
0
 30
0
  0
VERTEX
  8
LAYER_1
 10
242.2529
 20
-182.4669
 42
0.1946947367
  0
VERTEX
  8
LAYER_1
 10
241.9931
 20
-183.1087
  0
SEQEND
  0
ENDBLK
  0
BLOCK
  8
LAYER_1
  2
AIGNBL0102010D
 70
64
 10
0
 20
0
 30
0
  3
AIGNBL0102010D
  0
POLYLINE
  8
LAYER_1
 40
0.0882
 41
0.0882
 62
211
 66
1
 10
0
 20
0
 30
0
  0
VERTEX
  8
LAYER_1
 10
241.9931
 20
-181.6617
 42
0.1946957009
  0
VERTEX
  8
LAYER_1
 10
242.2529
 20
-182.3039
  0
SEQEND
  0
ENDBLK
  0
BLOCK
  8
LAYER_1
  2
AIGNBL0102010E
 70
64
 10
0
 20
0
 30
0
  3
AIGNBL0102010E
  0
POLYLINE
  8
LAYER_1
 40
0.0882
 41
0.0882
 62
211
 66
1
 10
0
 20
0
 30
0
  0
VERTEX
  8
LAYER_1
 10
243.1521
 20
-182.3039
 42
0.07725811138
  0
VERTEX
  8
LAYER_1
 10
243.1521
 20
-181.0199
  0
SEQEND
  0
ENDBLK
  0
BLOCK
  8
LAYER_1
  2
AIGNBL0102010F
 70
64
 10
0
 20
0
 30
0
  3
AIGNBL0102010F
  0
POLYLINE
  8
LAYER_1
 40
0.0882
 41
0.0882
 62
211
 66
1
 10
0
 20
0
 30
0
  0
VERTEX
  8
LAYER_1
 10
243.2017
 20
-183.0253
 42
0.04449902783
  0
VERTEX
  8
LAYER_1
 10
243.1521
 20
-182.4669
  0
SEQEND
  0
ENDBLK
  0
BLOCK
  8
LAYER_1
  2
AIGNBL01020110
 70
64
 10
0
 20
0
 30
0
  3
AIGNBL01020110
  0
POLYLINE
  8
LAYER_1
 40
0.0882
 41
0.0882
 62
211
 66
1
 10
0
 20
0
 30
0
  0
VERTEX
  8
LAYER_1
 10
243.1521
 20
-180.857
 42
0.0534914613
  0
VERTEX
  8
LAYER_1
 10
243.2017
 20
-180.2985
  0
SEQEND
  0
ENDBLK
  0
BLOCK
  8
LAYER_1
  2
AIGNBL01020111
 70
64
 10
0
 20
0
 30
0
  3
AIGNBL01020111
  0
POLYLINE
  8
LAYER_1
 40
0.0882
 41
0.0882
 62
211
 66
1
 10
0
 20
0
 30
0
  0
VERTEX
  8
LAYER_1
 10
238.003
 20
-180.2117
 42
0.4142385502
  0
VERTEX
  8
LAYER_1
 10
238.2029
 20
-180.0119
  0
SEQEND
  0
ENDBLK
  0
BLOCK
  8
LAYER_1
  2
AIGNBL01020112
 70
64
 10
0
 20
0
 30
0
  3
AIGNBL01020112
  0
POLYLINE
  8
LAYER_1
 40
0.0882
 41
0.0882
 62
211
 66
1
 10
0
 20
0
 30
0
  0
VERTEX
  8
LAYER_1
 10
241.1029
 20
-180.0119
 42
0.4141150147
  0
VERTEX
  8
LAYER_1
 10
241.3027
 20
-180.2117
  0
SEQEND
  0
ENDBLK
  0
BLOCK
  8
LAYER_1
  2
AIGNBL01020113
 70
64
 10
0
 20
0
 30
0
  3
AIGNBL01020113
  0
POLYLINE
  8
LAYER_1
 40
0.0882
 41
0.0882
 62
211
 66
1
 10
0
 20
0
 30
0
  0
VERTEX
  8
LAYER_1
 10
243.4635
 20
-180.6316
  0
VERTEX
  8
LAYER_1
 10
245.853
 20
-180.6316
  0
SEQEND
  0
ENDBLK
  0
BLOCK
  8
LAYER_1
  2
AIGNBL01020114
 70
64
 10
0
 20
0
 30
0
  3
AIGNBL01020114
  0
POLYLINE
  8
LAYER_1
 40
0.0882
 41
0.0882
 62
211
 66
1
 10
0
 20
0
 30
0
  0
VERTEX
  8
LAYER_1
 10
243.2527
 20
-180.6371
  0
VERTEX
  8
LAYER_1
 10
243.4635
 20
-180.6316
  0
SEQEND
  0
ENDBLK
  0
BLOCK
  8
LAYER_1
  2
AIGNBL01020115
 70
64
 10
0
 20
0
 30
0
  3
AIGNBL01020115
  0
POLYLINE
  8
LAYER_1
 40
0.0882
 41
0.0882
 62
211
 66
1
 10
0
 20
0
 30
0
  0
VERTEX
  8
LAYER_1
 10
243.4635
 20
-180.6316
  0
VERTEX
  8
LAYER_1
 10
243.2527
 20
-180.7536
  0
SEQEND
  0
ENDBLK
  0
BLOCK
  8
LAYER_1
  2
AIGNBL01020116
 70
64
 10
0
 20
0
 30
0
  3
AIGNBL01020116
  0
POLYLINE
  8
LAYER_1
 40
0.0882
 41
0.0882
 62
211
 66
1
 10
0
 20
0
 30
0
  0
VERTEX
  8
LAYER_1
 10
243.4635
 20
-182.6918
  0
VERTEX
  8
LAYER_1
 10
243.2527
 20
-182.6863
  0
SEQEND
  0
ENDBLK
  0
BLOCK
  8
LAYER_1
  2
AIGNBL01020117
 70
64
 10
0
 20
0
 30
0
  3
AIGNBL01020117
  0
POLYLINE
  8
LAYER_1
 40
0.0882
 41
0.0882
 62
211
 66
1
 10
0
 20
0
 30
0
  0
VERTEX
  8
LAYER_1
 10
243.2527
 20
-182.5702
  0
VERTEX
  8
LAYER_1
 10
243.4635
 20
-182.6918
  0
SEQEND
  0
ENDBLK
  0
BLOCK
  8
LAYER_1
  2
AIGNBL01020118
 70
64
 10
0
 20
0
 30
0
  3
AIGNBL01020118
  0
POLYLINE
  8
LAYER_1
 40
0.0882
 41
0.0882
 62
211
 66
1
 10
0
 20
0
 30
0
  0
VERTEX
  8
LAYER_1
 10
247.7416
 20
-182.6918
  0
VERTEX
  8
LAYER_1
 10
247.353
 20
-182.6918
  0
SEQEND
  0
ENDBLK
  0
BLOCK
  8
LAYER_1
  2
AIGNBL01020119
 70
64
 10
0
 20
0
 30
0
  3
AIGNBL01020119
  0
POLYLINE
  8
LAYER_1
 40
0.0882
 41
0.0882
 62
211
 66
1
 10
0
 20
0
 30
0
  0
VERTEX
  8
LAYER_1
 10
249.2368
 20
-182.6587
  0
VERTEX
  8
LAYER_1
 10
247.9532
 20
-182.6863
  0
SEQEND
  0
ENDBLK
  0
BLOCK
  8
LAYER_1
  2
AIGNBL0102011A
 70
64
 10
0
 20
0
 30
0
  3
AIGNBL0102011A
  0
POLYLINE
  8
LAYER_1
 40
0.0882
 41
0.0882
 62
211
 66
1
 10
0
 20
0
 30
0
  0
VERTEX
  8
LAYER_1
 10
247.9532
 20
-182.6863
  0
VERTEX
  8
LAYER_1
 10
247.7416
 20
-182.6918
  0
SEQEND
  0
ENDBLK
  0
BLOCK
  8
LAYER_1
  2
AIGNBL0102011B
 70
64
 10
0
 20
0
 30
0
  3
AIGNBL0102011B
  0
POLYLINE
  8
LAYER_1
 40
0.0882
 41
0.0882
 62
211
 66
1
 10
0
 20
0
 30
0
  0
VERTEX
  8
LAYER_1
 10
247.9532
 20
-182.6863
  0
VERTEX
  8
LAYER_1
 10
247.9532
 20
-180.6371
  0
SEQEND
  0
ENDBLK
  0
BLOCK
  8
LAYER_1
  2
AIGNBL0102011C
 70
64
 10
0
 20
0
 30
0
  3
AIGNBL0102011C
  0
POLYLINE
  8
LAYER_1
 40
0.0882
 41
0.0882
 62
211
 66
1
 10
0
 20
0
 30
0
  0
VERTEX
  8
LAYER_1
 10
249.3526
 20
-182.5361
  0
VERTEX
  8
LAYER_1
 10
249.2368
 20
-182.6587
  0
SEQEND
  0
ENDBLK
  0
BLOCK
  8
LAYER_1
  2
AIGNBL0102011D
 70
64
 10
0
 20
0
 30
0
  3
AIGNBL0102011D
  0
POLYLINE
  8
LAYER_1
 40
0.0882
 41
0.0882
 62
211
 66
1
 10
0
 20
0
 30
0
  0
VERTEX
  8
LAYER_1
 10
249.3526
 20
-182.5361
  0
VERTEX
  8
LAYER_1
 10
247.9532
 20
-182.5702
  0
SEQEND
  0
ENDBLK
  0
BLOCK
  8
LAYER_1
  2
AIGNBL0102011E
 70
64
 10
0
 20
0
 30
0
  3
AIGNBL0102011E
  0
POLYLINE
  8
LAYER_1
 40
0.0882
 41
0.0882
 62
211
 66
1
 10
0
 20
0
 30
0
  0
VERTEX
  8
LAYER_1
 10
247.7416
 20
-182.6918
  0
VERTEX
  8
LAYER_1
 10
247.9532
 20
-182.5702
  0
SEQEND
  0
ENDBLK
  0
BLOCK
  8
LAYER_1
  2
AIGNBL0102011F
 70
64
 10
0
 20
0
 30
0
  3
AIGNBL0102011F
  0
POLYLINE
  8
LAYER_1
 40
0.0882
 41
0.0882
 62
211
 66
1
 10
0
 20
0
 30
0
  0
VERTEX
  8
LAYER_1
 10
249.3526
 20
-182.5361
  0
VERTEX
  8
LAYER_1
 10
249.3526
 20
-180.7874
  0
SEQEND
  0
ENDBLK
  0
BLOCK
  8
LAYER_1
  2
AIGNBL01020120
 70
64
 10
0
 20
0
 30
0
  3
AIGNBL01020120
  0
POLYLINE
  8
LAYER_1
 40
0.0882
 41
0.0882
 62
211
 66
1
 10
0
 20
0
 30
0
  0
VERTEX
  8
LAYER_1
 10
247.9532
 20
-180.7536
  0
VERTEX
  8
LAYER_1
 10
249.3526
 20
-180.7874
  0
SEQEND
  0
ENDBLK
  0
BLOCK
  8
LAYER_1
  2
AIGNBL01020121
 70
64
 10
0
 20
0
 30
0
  3
AIGNBL01020121
  0
POLYLINE
  8
LAYER_1
 40
0.0882
 41
0.0882
 62
211
 66
1
 10
0
 20
0
 30
0
  0
VERTEX
  8
LAYER_1
 10
247.9532
 20
-180.6371
  0
VERTEX
  8
LAYER_1
 10
249.2368
 20
-180.6647
  0
SEQEND
  0
ENDBLK
  0
BLOCK
  8
LAYER_1
  2
AIGNBL01020122
 70
64
 10
0
 20
0
 30
0
  3
AIGNBL01020122
  0
POLYLINE
  8
LAYER_1
 40
0.0882
 41
0.0882
 62
211
 66
1
 10
0
 20
0
 30
0
  0
VERTEX
  8
LAYER_1
 10
249.2368
 20
-180.6647
  0
VERTEX
  8
LAYER_1
 10
249.3526
 20
-180.7874
  0
SEQEND
  0
ENDBLK
  0
BLOCK
  8
LAYER_1
  2
AIGNBL01020123
 70
64
 10
0
 20
0
 30
0
  3
AIGNBL01020123
  0
POLYLINE
  8
LAYER_1
 40
0.0882
 41
0.0882
 62
211
 66
1
 10
0
 20
0
 30
0
  0
VERTEX
  8
LAYER_1
 10
247.9532
 20
-180.7536
  0
VERTEX
  8
LAYER_1
 10
247.7416
 20
-180.6316
  0
SEQEND
  0
ENDBLK
  0
BLOCK
  8
LAYER_1
  2
AIGNBL01020124
 70
64
 10
0
 20
0
 30
0
  3
AIGNBL01020124
  0
POLYLINE
  8
LAYER_1
 40
0.0882
 41
0.0882
 62
211
 66
1
 10
0
 20
0
 30
0
  0
VERTEX
  8
LAYER_1
 10
247.7416
 20
-180.6316
  0
VERTEX
  8
LAYER_1
 10
247.9532
 20
-180.6371
  0
SEQEND
  0
ENDBLK
  0
BLOCK
  8
LAYER_1
  2
AIGNBL01020125
 70
64
 10
0
 20
0
 30
0
  3
AIGNBL01020125
  0
POLYLINE
  8
LAYER_1
 40
0.0882
 41
0.0882
 62
211
 66
1
 10
0
 20
0
 30
0
  0
VERTEX
  8
LAYER_1
 10
249.2368
 20
-180.6647
  0
VERTEX
  8
LAYER_1
 10
249.2368
 20
-182.6587
  0
SEQEND
  0
ENDBLK
  0
BLOCK
  8
LAYER_1
  2
AIGNBL01020126
 70
64
 10
0
 20
0
 30
0
  3
AIGNBL01020126
  0
POLYLINE
  8
LAYER_1
 40
0.0882
 41
0.0882
 62
211
 66
1
 10
0
 20
0
 30
0
  0
VERTEX
  8
LAYER_1
 10
245.853
 20
-182.6918
  0
VERTEX
  8
LAYER_1
 10
243.4635
 20
-182.6918
  0
SEQEND
  0
ENDBLK
  0
BLOCK
  8
LAYER_1
  2
AIGNBL01020127
 70
64
 10
0
 20
0
 30
0
  3
AIGNBL01020127
  0
POLYLINE
  8
LAYER_1
 40
0.0882
 41
0.0882
 62
211
 66
1
 10
0
 20
0
 30
0
  0
VERTEX
  8
LAYER_1
 10
247.353
 20
-180.6316
  0
VERTEX
  8
LAYER_1
 10
247.7416
 20
-180.6316
  0
SEQEND
  0
ENDBLK
  0
BLOCK
  8
LAYER_1
  2
AIGNBL01020128
 70
64
 10
0
 20
0
 30
0
  3
AIGNBL01020128
  0
POLYLINE
  8
LAYER_1
 40
0.0882
 41
0.0882
 62
211
 66
1
 10
0
 20
0
 30
0
  0
VERTEX
  8
LAYER_1
 10
247.353
 20
-178.6617
  0
VERTEX
  8
LAYER_1
 10
247.353
 20
-181.6617
  0
SEQEND
  0
ENDBLK
  0
BLOCK
  8
LAYER_1
  2
AIGNBL01020129
 70
64
 10
0
 20
0
 30
0
  3
AIGNBL01020129
  0
POLYLINE
  8
LAYER_1
 40
0.0882
 41
0.0882
 62
211
 66
1
 10
0
 20
0
 30
0
  0
VERTEX
  8
LAYER_1
 10
246.0529
 20
-178.6617
  0
VERTEX
  8
LAYER_1
 10
247.353
 20
-178.6617
  0
SEQEND
  0
ENDBLK
  0
BLOCK
  8
LAYER_1
  2
AIGNBL0102012A
 70
64
 10
0
 20
0
 30
0
  3
AIGNBL0102012A
  0
POLYLINE
  8
LAYER_1
 40
0.0882
 41
0.0882
 62
211
 66
1
 10
0
 20
0
 30
0
  0
VERTEX
  8
LAYER_1
 10
245.853
 20
-178.8619
  0
VERTEX
  8
LAYER_1
 10
245.853
 20
-181.6617
  0
SEQEND
  0
ENDBLK
  0
BLOCK
  8
LAYER_1
  2
AIGNBL0102012B
 70
64
 10
0
 20
0
 30
0
  3
AIGNBL0102012B
  0
POLYLINE
  8
LAYER_1
 40
0.0882
 41
0.0882
 62
211
 66
1
 10
0
 20
0
 30
0
  0
VERTEX
  8
LAYER_1
 10
245.853
 20
-181.6617
  0
VERTEX
  8
LAYER_1
 10
245.853
 20
-184.4619
  0
SEQEND
  0
ENDBLK
  0
BLOCK
  8
LAYER_1
  2
AIGNBL0102012C
 70
64
 10
0
 20
0
 30
0
  3
AIGNBL0102012C
  0
POLYLINE
  8
LAYER_1
 40
0.0882
 41
0.0882
 62
211
 66
1
 10
0
 20
0
 30
0
  0
VERTEX
  8
LAYER_1
 10
247.353
 20
-184.6617
  0
VERTEX
  8
LAYER_1
 10
246.0529
 20
-184.6617
  0
SEQEND
  0
ENDBLK
  0
BLOCK
  8
LAYER_1
  2
AIGNBL0102012D
 70
64
 10
0
 20
0
 30
0
  3
AIGNBL0102012D
  0
POLYLINE
  8
LAYER_1
 40
0.0882
 41
0.0882
 62
211
 66
1
 10
0
 20
0
 30
0
  0
VERTEX
  8
LAYER_1
 10
247.353
 20
-181.6617
  0
VERTEX
  8
LAYER_1
 10
247.353
 20
-184.6617
  0
SEQEND
  0
ENDBLK
  0
BLOCK
  8
LAYER_1
  2
AIGNBL0102012E
 70
64
 10
0
 20
0
 30
0
  3
AIGNBL0102012E
  0
POLYLINE
  8
LAYER_1
 40
0.0882
 41
0.0882
 62
211
 66
1
 10
0
 20
0
 30
0
  0
VERTEX
  8
LAYER_1
 10
246.0529
 20
-178.6617
 42
0.3931123454
  0
VERTEX
  8
LAYER_1
 10
245.853
 20
-178.8619
  0
SEQEND
  0
ENDBLK
  0
BLOCK
  8
LAYER_1
  2
AIGNBL0102012F
 70
64
 10
0
 20
0
 30
0
  3
AIGNBL0102012F
  0
POLYLINE
  8
LAYER_1
 40
0.0882
 41
0.0882
 62
211
 66
1
 10
0
 20
0
 30
0
  0
VERTEX
  8
LAYER_1
 10
245.853
 20
-184.4619
 42
0.4142499598
  0
VERTEX
  8
LAYER_1
 10
246.0529
 20
-184.6617
  0
SEQEND
  0
ENDBLK
  0
BLOCK
  8
LAYER_1
  2
AIGNBL01020130
 70
64
 10
0
 20
0
 30
0
  3
AIGNBL01020130
  0
POLYLINE
  8
LAYER_1
 40
0.0882
 41
0.0882
 62
211
 66
1
 10
0
 20
0
 30
0
  0
VERTEX
  8
LAYER_1
 10
249.8032
 20
-181.6617
  0
VERTEX
  8
LAYER_1
 10
234.5028
 20
-181.6617
  0
SEQEND
  0
ENDBLK
  0
BLOCK
  8
LAYER_1
  2
AIGNBL01020131
 70
64
 10
0
 20
0
 30
0
  3
AIGNBL01020131
  0
POLYLINE
  8
LAYER_1
 40
0.0882
 41
0.0882
 62
211
 66
1
 10
0
 20
0
 30
0
  0
VERTEX
  8
LAYER_1
 10
239.6526
 20
-177.8618
  0
VERTEX
  8
LAYER_1
 10
239.6526
 20
-183.4118
  0
SEQEND
  0
ENDBLK
  0
BLOCK
  8
LAYER_1
  2
AIGNBL01020132
 70
64
 10
0
 20
0
 30
0
  3
AIGNBL01020132
  0
POLYLINE
  8
LAYER_1
 40
0.0882
 41
0.0882
 62
211
 66
1
 10
0
 20
0
 30
0
  0
VERTEX
  8
LAYER_1
 10
235.8526
 20
-183.4118
  0
VERTEX
  8
LAYER_1
 10
235.8526
 20
-178.0117
  0
SEQEND
  0
ENDBLK
  0
BLOCK
  8
LAYER_1
  2
AIGNBL01020134
 70
64
 10
0
 20
0
 30
0
  3
AIGNBL01020134
  0
INSERT
  8
LAYER_1
  2
AIGNBL01030135
 10
0
 20
0
 30
0
  0
INSERT
  8
LAYER_1
  2
AIGNBL01030136
 10
0
 20
0
 30
0
  0
INSERT
  8
LAYER_1
  2
AIGNBL01030137
 10
0
 20
0
 30
0
  0
INSERT
  8
LAYER_1
  2
AIGNBL01030138
 10
0
 20
0
 30
0
  0
INSERT
  8
LAYER_1
  2
AIGNBL01030139
 10
0
 20
0
 30
0
  0
INSERT
  8
LAYER_1
  2
AIGNBL0103013A
 10
0
 20
0
 30
0
  0
INSERT
  8
LAYER_1
  2
AIGNBL0103013B
 10
0
 20
0
 30
0
  0
ENDBLK
  0
BLOCK
  8
LAYER_1
  2
AIGNBL0102013C
 70
64
 10
0
 20
0
 30
0
  3
AIGNBL0102013C
  0
INSERT
  8
LAYER_1
  2
AIGNBL0103013D
 10
0
 20
0
 30
0
  0
INSERT
  8
LAYER_1
  2
AIGNBL0103013E
 10
0
 20
0
 30
0
  0
INSERT
  8
LAYER_1
  2
AIGNBL0103013F
 10
0
 20
0
 30
0
  0
INSERT
  8
LAYER_1
  2
AIGNBL01030140
 10
0
 20
0
 30
0
  0
INSERT
  8
LAYER_1
  2
AIGNBL01030141
 10
0
 20
0
 30
0
  0
INSERT
  8
LAYER_1
  2
AIGNBL01030142
 10
0
 20
0
 30
0
  0
INSERT
  8
LAYER_1
  2
AIGNBL01030143
 10
0
 20
0
 30
0
  0
INSERT
  8
LAYER_1
  2
AIGNBL01030144
 10
0
 20
0
 30
0
  0
INSERT
  8
LAYER_1
  2
AIGNBL01030145
 10
0
 20
0
 30
0
  0
INSERT
  8
LAYER_1
  2
AIGNBL01030146
 10
0
 20
0
 30
0
  0
INSERT
  8
LAYER_1
  2
AIGNBL01030147
 10
0
 20
0
 30
0
  0
INSERT
  8
LAYER_1
  2
AIGNBL01030148
 10
0
 20
0
 30
0
  0
INSERT
  8
LAYER_1
  2
AIGNBL01030149
 10
0
 20
0
 30
0
  0
INSERT
  8
LAYER_1
  2
AIGNBL0103014A
 10
0
 20
0
 30
0
  0
INSERT
  8
LAYER_1
  2
AIGNBL0103014B
 10
0
 20
0
 30
0
  0
INSERT
  8
LAYER_1
  2
AIGNBL0103014C
 10
0
 20
0
 30
0
  0
INSERT
  8
LAYER_1
  2
AIGNBL0103014D
 10
0
 20
0
 30
0
  0
INSERT
  8
LAYER_1
  2
AIGNBL0103014E
 10
0
 20
0
 30
0
  0
INSERT
  8
LAYER_1
  2
AIGNBL0103014F
 10
0
 20
0
 30
0
  0
INSERT
  8
LAYER_1
  2
AIGNBL01030150
 10
0
 20
0
 30
0
  0
INSERT
  8
LAYER_1
  2
AIGNBL01030151
 10
0
 20
0
 30
0
  0
INSERT
  8
LAYER_1
  2
AIGNBL01030152
 10
0
 20
0
 30
0
  0
INSERT
  8
LAYER_1
  2
AIGNBL01030153
 10
0
 20
0
 30
0
  0
INSERT
  8
LAYER_1
  2
AIGNBL01030154
 10
0
 20
0
 30
0
  0
INSERT
  8
LAYER_1
  2
AIGNBL01030155
 10
0
 20
0
 30
0
  0
INSERT
  8
LAYER_1
  2
AIGNBL01030156
 10
0
 20
0
 30
0
  0
INSERT
  8
LAYER_1
  2
AIGNBL01030157
 10
0
 20
0
 30
0
  0
INSERT
  8
LAYER_1
  2
AIGNBL01030158
 10
0
 20
0
 30
0
  0
INSERT
  8
LAYER_1
  2
AIGNBL01030159
 10
0
 20
0
 30
0
  0
INSERT
  8
LAYER_1
  2
AIGNBL0103015A
 10
0
 20
0
 30
0
  0
INSERT
  8
LAYER_1
  2
AIGNBL0103015B
 10
0
 20
0
 30
0
  0
INSERT
  8
LAYER_1
  2
AIGNBL0103015C
 10
0
 20
0
 30
0
  0
INSERT
  8
LAYER_1
  2
AIGNBL0103015D
 10
0
 20
0
 30
0
  0
INSERT
  8
LAYER_1
  2
AIGNBL0103015E
 10
0
 20
0
 30
0
  0
INSERT
  8
LAYER_1
  2
AIGNBL0103015F
 10
0
 20
0
 30
0
  0
INSERT
  8
LAYER_1
  2
AIGNBL01030160
 10
0
 20
0
 30
0
  0
INSERT
  8
LAYER_1
  2
AIGNBL01030161
 10
0
 20
0
 30
0
  0
INSERT
  8
LAYER_1
  2
AIGNBL01030162
 10
0
 20
0
 30
0
  0
INSERT
  8
LAYER_1
  2
AIGNBL01030169
 10
0
 20
0
 30
0
  0
INSERT
  8
LAYER_1
  2
AIGNBL0103016A
 10
0
 20
0
 30
0
  0
INSERT
  8
LAYER_1
  2
AIGNBL0103016B
 10
0
 20
0
 30
0
  0
INSERT
  8
LAYER_1
  2
AIGNBL0103016C
 10
0
 20
0
 30
0
  0
ENDBLK
  0
BLOCK
  8
LAYER_1
  2
AIGNBL0102016E
 70
64
 10
0
 20
0
 30
0
  3
AIGNBL0102016E
  0
INSERT
  8
LAYER_1
  2
AIGNBL0103016F
 10
0
 20
0
 30
0
  0
INSERT
  8
LAYER_1
  2
AIGNBL01030170
 10
0
 20
0
 30
0
  0
INSERT
  8
LAYER_1
  2
AIGNBL01030171
 10
0
 20
0
 30
0
  0
INSERT
  8
LAYER_1
  2
AIGNBL01030172
 10
0
 20
0
 30
0
  0
INSERT
  8
LAYER_1
  2
AIGNBL01030173
 10
0
 20
0
 30
0
  0
INSERT
  8
LAYER_1
  2
AIGNBL01030174
 10
0
 20
0
 30
0
  0
INSERT
  8
LAYER_1
  2
AIGNBL01030175
 10
0
 20
0
 30
0
  0
ENDBLK
  0
BLOCK
  8
LAYER_1
  2
AIGNBL01020176
 70
64
 10
0
 20
0
 30
0
  3
AIGNBL01020176
  0
INSERT
  8
LAYER_1
  2
AIGNBL01030177
 10
0
 20
0
 30
0
  0
INSERT
  8
LAYER_1
  2
AIGNBL01030178
 10
0
 20
0
 30
0
  0
INSERT
  8
LAYER_1
  2
AIGNBL01030179
 10
0
 20
0
 30
0
  0
INSERT
  8
LAYER_1
  2
AIGNBL0103017A
 10
0
 20
0
 30
0
  0
INSERT
  8
LAYER_1
  2
AIGNBL0103017B
 10
0
 20
0
 30
0
  0
INSERT
  8
LAYER_1
  2
AIGNBL0103017C
 10
0
 20
0
 30
0
  0
INSERT
  8
LAYER_1
  2
AIGNBL0103017D
 10
0
 20
0
 30
0
  0
INSERT
  8
LAYER_1
  2
AIGNBL0103017E
 10
0
 20
0
 30
0
  0
INSERT
  8
LAYER_1
  2
AIGNBL0103017F
 10
0
 20
0
 30
0
  0
INSERT
  8
LAYER_1
  2
AIGNBL01030180
 10
0
 20
0
 30
0
  0
INSERT
  8
LAYER_1
  2
AIGNBL01030181
 10
0
 20
0
 30
0
  0
INSERT
  8
LAYER_1
  2
AIGNBL01030182
 10
0
 20
0
 30
0
  0
INSERT
  8
LAYER_1
  2
AIGNBL01030183
 10
0
 20
0
 30
0
  0
INSERT
  8
LAYER_1
  2
AIGNBL01030184
 10
0
 20
0
 30
0
  0
INSERT
  8
LAYER_1
  2
AIGNBL01030185
 10
0
 20
0
 30
0
  0
INSERT
  8
LAYER_1
  2
AIGNBL01030186
 10
0
 20
0
 30
0
  0
INSERT
  8
LAYER_1
  2
AIGNBL01030187
 10
0
 20
0
 30
0
  0
INSERT
  8
LAYER_1
  2
AIGNBL01030188
 10
0
 20
0
 30
0
  0
INSERT
  8
LAYER_1
  2
AIGNBL01030189
 10
0
 20
0
 30
0
  0
INSERT
  8
LAYER_1
  2
AIGNBL0103018A
 10
0
 20
0
 30
0
  0
INSERT
  8
LAYER_1
  2
AIGNBL0103018B
 10
0
 20
0
 30
0
  0
INSERT
  8
LAYER_1
  2
AIGNBL0103018C
 10
0
 20
0
 30
0
  0
INSERT
  8
LAYER_1
  2
AIGNBL0103018D
 10
0
 20
0
 30
0
  0
INSERT
  8
LAYER_1
  2
AIGNBL0103018E
 10
0
 20
0
 30
0
  0
INSERT
  8
LAYER_1
  2
AIGNBL0103018F
 10
0
 20
0
 30
0
  0
INSERT
  8
LAYER_1
  2
AIGNBL01030190
 10
0
 20
0
 30
0
  0
INSERT
  8
LAYER_1
  2
AIGNBL01030191
 10
0
 20
0
 30
0
  0
INSERT
  8
LAYER_1
  2
AIGNBL01030192
 10
0
 20
0
 30
0
  0
INSERT
  8
LAYER_1
  2
AIGNBL01030193
 10
0
 20
0
 30
0
  0
INSERT
  8
LAYER_1
  2
AIGNBL01030194
 10
0
 20
0
 30
0
  0
INSERT
  8
LAYER_1
  2
AIGNBL01030195
 10
0
 20
0
 30
0
  0
INSERT
  8
LAYER_1
  2
AIGNBL01030196
 10
0
 20
0
 30
0
  0
INSERT
  8
LAYER_1
  2
AIGNBL01030197
 10
0
 20
0
 30
0
  0
INSERT
  8
LAYER_1
  2
AIGNBL01030198
 10
0
 20
0
 30
0
  0
INSERT
  8
LAYER_1
  2
AIGNBL01030199
 10
0
 20
0
 30
0
  0
INSERT
  8
LAYER_1
  2
AIGNBL0103019A
 10
0
 20
0
 30
0
  0
INSERT
  8
LAYER_1
  2
AIGNBL0103019B
 10
0
 20
0
 30
0
  0
INSERT
  8
LAYER_1
  2
AIGNBL0103019C
 10
0
 20
0
 30
0
  0
INSERT
  8
LAYER_1
  2
AIGNBL010301A3
 10
0
 20
0
 30
0
  0
INSERT
  8
LAYER_1
  2
AIGNBL010301A4
 10
0
 20
0
 30
0
  0
INSERT
  8
LAYER_1
  2
AIGNBL010301A5
 10
0
 20
0
 30
0
  0
INSERT
  8
LAYER_1
  2
AIGNBL010301A6
 10
0
 20
0
 30
0
  0
ENDBLK
  0
BLOCK
  8
LAYER_3
  2
AIGNBL03020003
 70
64
 10
0
 20
0
 30
0
  3
AIGNBL03020003
  0
POLYLINE
  8
LAYER_3
 40
0.1764
 41
0.1764
 62
4
 66
1
 10
0
 20
0
 30
0
  0
VERTEX
  8
LAYER_3
 10
220.0379
 20
-169.2262
  0
VERTEX
  8
LAYER_3
 10
219.5394
 20
-169.065
  0
SEQEND
  0
POLYLINE
  8
LAYER_3
 40
0.1764
 41
0.1764
 62
4
 66
1
 10
0
 20
0
 30
0
  0
VERTEX
  8
LAYER_3
 10
225.2224
 20
-169.2262
  0
VERTEX
  8
LAYER_3
 10
225.7209
 20
-169.065
  0
SEQEND
  0
POLYLINE
  8
LAYER_3
 40
0.1764
 41
0.1764
 62
4
 66
1
 10
0
 20
0
 30
0
  0
VERTEX
  8
LAYER_3
 10
219.5397
 20
-169.065
  0
VERTEX
  8
LAYER_3
 10
225.7209
 20
-169.065
  0
SEQEND
  0
POLYLINE
  8
LAYER_3
 40
0.1764
 41
0.1764
 62
4
 66
1
 10
0
 20
0
 30
0
  0
VERTEX
  8
LAYER_3
 10
219.5397
 20
-168.924
  0
VERTEX
  8
LAYER_3
 10
225.7209
 20
-168.924
  0
SEQEND
  0
POLYLINE
  8
LAYER_3
 40
0.1764
 41
0.1764
 62
4
 66
1
 10
0
 20
0
 30
0
  0
VERTEX
  8
LAYER_3
 10
221.8559
 20
-171.5682
  0
VERTEX
  8
LAYER_3
 10
221.8559
 20
-171.2092
  0
SEQEND
  0
POLYLINE
  8
LAYER_3
 40
0.1764
 41
0.1764
 62
4
 66
1
 10
0
 20
0
 30
0
  0
VERTEX
  8
LAYER_3
 10
220.5915
 20
-171.2092
  0
VERTEX
  8
LAYER_3
 10
224.6688
 20
-171.2092
  0
SEQEND
  0
POLYLINE
  8
LAYER_3
 40
0.1764
 41
0.1764
 62
4
 66
1
 10
0
 20
0
 30
0
  0
VERTEX
  8
LAYER_3
 10
223.0834
 20
-171.914
  0
VERTEX
  8
LAYER_3
 10
222.1773
 20
-171.914
  0
SEQEND
  0
POLYLINE
  8
LAYER_3
 40
0.1764
 41
0.1764
 62
4
 66
1
 10
0
 20
0
 30
0
  0
VERTEX
  8
LAYER_3
 10
221.8559
 20
-171.5682
  0
VERTEX
  8
LAYER_3
 10
223.4045
 20
-171.5682
  0
SEQEND
  0
POLYLINE
  8
LAYER_3
 40
0.1764
 41
0.1764
 62
4
 66
1
 10
0
 20
0
 30
0
  0
VERTEX
  8
LAYER_3
 10
222.9321
 20
-171.914
  0
VERTEX
  8
LAYER_3
 10
222.9321
 20
-173.1949
  0
SEQEND
  0
POLYLINE
  8
LAYER_3
 40
0.1764
 41
0.1764
 62
4
 66
1
 10
0
 20
0
 30
0
  0
VERTEX
  8
LAYER_3
 10
222.3282
 20
-173.1949
  0
VERTEX
  8
LAYER_3
 10
222.3282
 20
-171.914
  0
SEQEND
  0
POLYLINE
  8
LAYER_3
 40
0.1764
 41
0.1764
 62
4
 66
1
 10
0
 20
0
 30
0
  0
VERTEX
  8
LAYER_3
 10
223.4103
 20
-171.2092
  0
VERTEX
  8
LAYER_3
 10
223.4103
 20
-171.5575
  0
SEQEND
  0
POLYLINE
  8
LAYER_3
 40
0.1764
 41
0.1764
 62
4
 66
1
 10
0
 20
0
 30
0
  0
VERTEX
  8
LAYER_3
 10
222.1773
 20
-171.914
  0
VERTEX
  8
LAYER_3
 10
221.8562
 20
-171.5682
  0
SEQEND
  0
POLYLINE
  8
LAYER_3
 40
0.1764
 41
0.1764
 62
4
 66
1
 10
0
 20
0
 30
0
  0
VERTEX
  8
LAYER_3
 10
223.4045
 20
-171.5682
  0
VERTEX
  8
LAYER_3
 10
223.0834
 20
-171.9137
  0
SEQEND
  0
POLYLINE
  8
LAYER_3
 40
0.1764
 41
0.1764
 62
4
 66
1
 10
0
 20
0
 30
0
  0
VERTEX
  8
LAYER_3
 10
225.7209
 20
-168.924
 42
-0.4141733727
  0
VERTEX
  8
LAYER_3
 10
225.7912
 20
-168.9943
 42
-0.4866597235
  0
VERTEX
  8
LAYER_3
 10
225.7209
 20
-169.065
  0
SEQEND
  0
POLYLINE
  8
LAYER_3
 40
0.1764
 41
0.1764
 62
4
 66
1
 10
0
 20
0
 30
0
  0
VERTEX
  8
LAYER_3
 10
219.5397
 20
-169.065
  0
VERTEX
  8
LAYER_3
 10
219.5342
 20
-169.0646
  0
VERTEX
  8
LAYER_3
 10
219.5318
 20
-169.0643
  0
VERTEX
  8
LAYER_3
 10
219.5253
 20
-169.0632
  0
VERTEX
  8
LAYER_3
 10
219.5125
 20
-169.0594
  0
VERTEX
  8
LAYER_3
 10
219.4898
 20
-169.0443
  0
VERTEX
  8
LAYER_3
 10
219.4746
 20
-169.0215
  0
VERTEX
  8
LAYER_3
 10
219.4691
 20
-168.9943
  0
VERTEX
  8
LAYER_3
 10
219.4705
 20
-168.9806
  0
VERTEX
  8
LAYER_3
 10
219.4746
 20
-168.9675
  0
VERTEX
  8
LAYER_3
 10
219.4898
 20
-168.9444
  0
VERTEX
  8
LAYER_3
 10
219.5125
 20
-168.9296
  0
VERTEX
  8
LAYER_3
 10
219.5253
 20
-168.9255
  0
VERTEX
  8
LAYER_3
 10
219.5318
 20
-168.9244
  0
VERTEX
  8
LAYER_3
 10
219.5342
 20
-168.924
  0
VERTEX
  8
LAYER_3
 10
219.5397
 20
-168.924
  0
SEQEND
  0
POLYLINE
  8
LAYER_3
 40
0.1764
 41
0.1764
 62
4
 66
1
 10
0
 20
0
 30
0
  0
VERTEX
  8
LAYER_3
 10
220.5915
 20
-171.2092
  0
VERTEX
  8
LAYER_3
 10
220.5915
 20
-169.9307
  0
SEQEND
  0
POLYLINE
  8
LAYER_3
 40
0.1764
 41
0.1764
 62
4
 66
1
 10
0
 20
0
 30
0
  0
VERTEX
  8
LAYER_3
 10
224.6688
 20
-169.9307
  0
VERTEX
  8
LAYER_3
 10
224.6688
 20
-171.2092
  0
SEQEND
  0
POLYLINE
  8
LAYER_3
 40
0.1764
 41
0.1764
 62
4
 66
1
 10
0
 20
0
 30
0
  0
VERTEX
  8
LAYER_3
 10
220.0379
 20
-169.2262
  0
SEQEND
  0
POLYLINE
  8
LAYER_3
 40
0.1764
 41
0.1764
 62
4
 66
1
 10
0
 20
0
 30
0
  0
VERTEX
  8
LAYER_3
 10
220.5915
 20
-169.9307
 42
0.3192893343
  0
VERTEX
  8
LAYER_3
 10
220.0379
 20
-169.2262
  0
SEQEND
  0
POLYLINE
  8
LAYER_3
 40
0.1764
 41
0.1764
 62
4
 66
1
 10
0
 20
0
 30
0
  0
VERTEX
  8
LAYER_3
 10
225.2224
 20
-169.2262
 42
0.3191645134
  0
VERTEX
  8
LAYER_3
 10
224.6688
 20
-169.9307
  0
SEQEND
  0
INSERT
  8
LAYER_3
  2
AIGNBL03030004
 10
0
 20
0
 30
0
  0
POLYLINE
  8
LAYER_3
 40
0.1764
 41
0.1764
 62
4
 66
1
 10
0
 20
0
 30
0
  0
VERTEX
  8
LAYER_3
 10
220.5922
 20
-169.9307
  0
VERTEX
  8
LAYER_3
 10
220.5919
 20
-169.9307
  0
VERTEX
  8
LAYER_3
 10
220.5915
 20
-169.9307
  0
SEQEND
  0
POLYLINE
  8
LAYER_3
 40
0.1764
 41
0.1764
 62
4
 66
1
 10
0
 20
0
 30
0
  0
VERTEX
  8
LAYER_3
 10
220.5922
 20
-169.9307
  0
VERTEX
  8
LAYER_3
 10
224.6688
 20
-169.9307
  0
SEQEND
  0
POLYLINE
  8
LAYER_3
 40
0.1764
 41
0.1764
 62
4
 66
1
 10
0
 20
0
 30
0
  0
VERTEX
  8
LAYER_3
 10
225.2224
 20
-169.2262
  0
VERTEX
  8
LAYER_3
 10
222.63
 20
-169.2262
  0
VERTEX
  8
LAYER_3
 10
221.3339
 20
-169.2262
  0
VERTEX
  8
LAYER_3
 10
220.6856
 20
-169.2262
  0
VERTEX
  8
LAYER_3
 10
220.2336
 20
-169.2262
  0
VERTEX
  8
LAYER_3
 10
220.0379
 20
-169.2262
  0
SEQEND
  0
ENDBLK
  0
BLOCK
  8
LAYER_3
  2
AIGNBL03020005
 70
64
 10
0
 20
0
 30
0
  3
AIGNBL03020005
  0
POLYLINE
  8
LAYER_3
 40
0.1764
 41
0.1764
 62
4
 66
1
 10
0
 20
0
 30
0
  0
VERTEX
  8
LAYER_3
 10
220.9801
 20
-176.6349
  0
VERTEX
  8
LAYER_3
 10
224.2805
 20
-176.6349
  0
SEQEND
  0
POLYLINE
  8
LAYER_3
 40
0.1764
 41
0.1764
 62
4
 66
1
 10
0
 20
0
 30
0
 70
1
  0
VERTEX
  8
LAYER_3
 10
224.8304
 20
-176.6349
  0
VERTEX
  8
LAYER_3
 10
220.4303
 20
-176.6349
  0
VERTEX
  8
LAYER_3
 10
220.4303
 20
-175.8094
  0
VERTEX
  8
LAYER_3
 10
220.7052
 20
-175.5345
  0
VERTEX
  8
LAYER_3
 10
224.5555
 20
-175.5345
  0
VERTEX
  8
LAYER_3
 10
224.8304
 20
-175.8094
  0
SEQEND
  0
POLYLINE
  8
LAYER_3
 40
0.1764
 41
0.1764
 62
4
 66
1
 10
0
 20
0
 30
0
  0
VERTEX
  8
LAYER_3
 10
220.4303
 20
-175.8094
  0
VERTEX
  8
LAYER_3
 10
224.8304
 20
-175.8094
  0
SEQEND
  0
POLYLINE
  8
LAYER_3
 40
0.1764
 41
0.1764
 62
4
 66
1
 10
0
 20
0
 30
0
  0
VERTEX
  8
LAYER_3
 10
221.5303
 20
-175.8094
  0
VERTEX
  8
LAYER_3
 10
221.5303
 20
-176.6349
  0
SEQEND
  0
POLYLINE
  8
LAYER_3
 40
0.1764
 41
0.1764
 62
4
 66
1
 10
0
 20
0
 30
0
  0
VERTEX
  8
LAYER_3
 10
222.6303
 20
-175.8094
  0
VERTEX
  8
LAYER_3
 10
222.6303
 20
-176.6349
  0
SEQEND
  0
POLYLINE
  8
LAYER_3
 40
0.1764
 41
0.1764
 62
4
 66
1
 10
0
 20
0
 30
0
  0
VERTEX
  8
LAYER_3
 10
223.7304
 20
-175.8094
  0
VERTEX
  8
LAYER_3
 10
223.7304
 20
-176.6349
  0
SEQEND
  0
ENDBLK
  0
BLOCK
  8
LAYER_3
  2
AIGNBL03020006
 70
64
 10
0
 20
0
 30
0
  3
AIGNBL03020006
  0
POLYLINE
  8
LAYER_3
 40
0.1764
 41
0.1764
 62
4
 66
1
 10
0
 20
0
 30
0
  0
VERTEX
  8
LAYER_3
 10
224.2805
 20
-174.4211
  0
VERTEX
  8
LAYER_3
 10
220.9801
 20
-174.4211
  0
SEQEND
  0
POLYLINE
  8
LAYER_3
 40
0.1764
 41
0.1764
 62
4
 66
1
 10
0
 20
0
 30
0
 70
1
  0
VERTEX
  8
LAYER_3
 10
220.4303
 20
-174.4211
  0
VERTEX
  8
LAYER_3
 10
224.8304
 20
-174.4211
  0
VERTEX
  8
LAYER_3
 10
224.8304
 20
-175.2458
  0
VERTEX
  8
LAYER_3
 10
224.5555
 20
-175.5207
  0
VERTEX
  8
LAYER_3
 10
220.7052
 20
-175.5207
  0
VERTEX
  8
LAYER_3
 10
220.4303
 20
-175.2458
  0
SEQEND
  0
POLYLINE
  8
LAYER_3
 40
0.1764
 41
0.1764
 62
4
 66
1
 10
0
 20
0
 30
0
  0
VERTEX
  8
LAYER_3
 10
224.8304
 20
-175.2458
  0
VERTEX
  8
LAYER_3
 10
220.4303
 20
-175.2458
  0
SEQEND
  0
POLYLINE
  8
LAYER_3
 40
0.1764
 41
0.1764
 62
4
 66
1
 10
0
 20
0
 30
0
  0
VERTEX
  8
LAYER_3
 10
223.7304
 20
-175.2458
  0
VERTEX
  8
LAYER_3
 10
223.7304
 20
-174.4211
  0
SEQEND
  0
POLYLINE
  8
LAYER_3
 40
0.1764
 41
0.1764
 62
4
 66
1
 10
0
 20
0
 30
0
  0
VERTEX
  8
LAYER_3
 10
222.6303
 20
-175.2458
  0
VERTEX
  8
LAYER_3
 10
222.6303
 20
-174.4211
  0
SEQEND
  0
POLYLINE
  8
LAYER_3
 40
0.1764
 41
0.1764
 62
4
 66
1
 10
0
 20
0
 30
0
  0
VERTEX
  8
LAYER_3
 10
221.5303
 20
-175.2458
  0
VERTEX
  8
LAYER_3
 10
221.5303
 20
-174.4211
  0
SEQEND
  0
ENDBLK
  0
BLOCK
  8
LAYER_3
  2
AIGNBL03020007
 70
64
 10
0
 20
0
 30
0
  3
AIGNBL03020007
  0
POLYLINE
  8
LAYER_3
 40
0.1764
 41
0.1764
 62
4
 66
1
 10
0
 20
0
 30
0
  0
VERTEX
  8
LAYER_3
 10
229.7803
 20
-174.4345
  0
VERTEX
  8
LAYER_3
 10
229.7803
 20
-177.7346
  0
SEQEND
  0
POLYLINE
  8
LAYER_3
 40
0.1764
 41
0.1764
 62
4
 66
1
 10
0
 20
0
 30
0
 70
1
  0
VERTEX
  8
LAYER_3
 10
229.7803
 20
-178.2844
  0
VERTEX
  8
LAYER_3
 10
229.7803
 20
-173.8843
  0
VERTEX
  8
LAYER_3
 10
230.6054
 20
-173.8843
  0
VERTEX
  8
LAYER_3
 10
230.8806
 20
-174.1596
  0
VERTEX
  8
LAYER_3
 10
230.8806
 20
-178.0095
  0
VERTEX
  8
LAYER_3
 10
230.6054
 20
-178.2844
  0
SEQEND
  0
POLYLINE
  8
LAYER_3
 40
0.1764
 41
0.1764
 62
4
 66
1
 10
0
 20
0
 30
0
  0
VERTEX
  8
LAYER_3
 10
230.6054
 20
-173.8843
  0
VERTEX
  8
LAYER_3
 10
230.6054
 20
-178.2844
  0
SEQEND
  0
POLYLINE
  8
LAYER_3
 40
0.1764
 41
0.1764
 62
4
 66
1
 10
0
 20
0
 30
0
  0
VERTEX
  8
LAYER_3
 10
230.6054
 20
-174.9847
  0
VERTEX
  8
LAYER_3
 10
229.7803
 20
-174.9847
  0
SEQEND
  0
POLYLINE
  8
LAYER_3
 40
0.1764
 41
0.1764
 62
4
 66
1
 10
0
 20
0
 30
0
  0
VERTEX
  8
LAYER_3
 10
230.6054
 20
-176.0843
  0
VERTEX
  8
LAYER_3
 10
229.7803
 20
-176.0843
  0
SEQEND
  0
POLYLINE
  8
LAYER_3
 40
0.1764
 41
0.1764
 62
4
 66
1
 10
0
 20
0
 30
0
  0
VERTEX
  8
LAYER_3
 10
230.6054
 20
-177.1847
  0
VERTEX
  8
LAYER_3
 10
229.7803
 20
-177.1847
  0
SEQEND
  0
ENDBLK
  0
BLOCK
  8
LAYER_3
  2
AIGNBL03020008
 70
64
 10
0
 20
0
 30
0
  3
AIGNBL03020008
  0
POLYLINE
  8
LAYER_3
 40
0.1764
 41
0.1764
 62
4
 66
1
 10
0
 20
0
 30
0
  0
VERTEX
  8
LAYER_3
 10
245.277
 20
-173.6948
  0
VERTEX
  8
LAYER_3
 10
245.2336
 20
-173.752
  0
VERTEX
  8
LAYER_3
 10
245.1998
 20
-173.8127
  0
VERTEX
  8
LAYER_3
 10
245.1723
 20
-173.8802
  0
VERTEX
  8
LAYER_3
 10
245.1557
 20
-173.9511
  0
VERTEX
  8
LAYER_3
 10
245.1523
 20
-174.0221
  0
VERTEX
  8
LAYER_3
 10
245.1523
 20
-178.1466
  0
VERTEX
  8
LAYER_3
 10
245.1557
 20
-178.2175
  0
VERTEX
  8
LAYER_3
 10
245.1723
 20
-178.2885
  0
VERTEX
  8
LAYER_3
 10
245.1998
 20
-178.356
  0
VERTEX
  8
LAYER_3
 10
245.2336
 20
-178.4201
  0
VERTEX
  8
LAYER_3
 10
245.277
 20
-178.4773
  0
VERTEX
  8
LAYER_3
 10
246.1038
 20
-179.4158
  0
VERTEX
  8
LAYER_3
 10
246.1652
 20
-179.4736
  0
VERTEX
  8
LAYER_3
 10
246.2361
 20
-179.5205
  0
VERTEX
  8
LAYER_3
 10
246.3099
 20
-179.5577
  0
VERTEX
  8
LAYER_3
 10
246.3946
 20
-179.5777
  0
VERTEX
  8
LAYER_3
 10
246.4787
 20
-179.5846
  0
VERTEX
  8
LAYER_3
 10
247.1505
 20
-179.5846
  0
VERTEX
  8
LAYER_3
 10
247.1842
 20
-179.5914
  0
VERTEX
  8
LAYER_3
 10
247.2111
 20
-179.6052
  0
VERTEX
  8
LAYER_3
 10
247.2318
 20
-179.6252
  0
VERTEX
  8
LAYER_3
 10
247.2483
 20
-179.6555
  0
VERTEX
  8
LAYER_3
 10
247.2517
 20
-179.6858
  0
VERTEX
  8
LAYER_3
 10
247.2517
 20
-179.7368
  0
VERTEX
  8
LAYER_3
 10
247.2586
 20
-179.7672
  0
VERTEX
  8
LAYER_3
 10
247.2717
 20
-179.794
  0
VERTEX
  8
LAYER_3
 10
247.2924
 20
-179.8175
  0
VERTEX
  8
LAYER_3
 10
247.3227
 20
-179.8312
  0
VERTEX
  8
LAYER_3
 10
247.353
 20
-179.8347
  0
VERTEX
  8
LAYER_3
 10
247.5522
 20
-179.8347
  0
VERTEX
  8
LAYER_3
 10
247.5522
 20
-172.3347
  0
VERTEX
  8
LAYER_3
 10
247.353
 20
-172.3347
  0
VERTEX
  8
LAYER_3
 10
247.3227
 20
-172.3416
  0
VERTEX
  8
LAYER_3
 10
247.2924
 20
-172.3547
  0
VERTEX
  8
LAYER_3
 10
247.2717
 20
-172.3747
  0
VERTEX
  8
LAYER_3
 10
247.2586
 20
-172.4057
  0
VERTEX
  8
LAYER_3
 10
247.2517
 20
-172.436
  0
VERTEX
  8
LAYER_3
 10
247.2517
 20
-172.4863
  0
VERTEX
  8
LAYER_3
 10
247.2483
 20
-172.5166
  0
VERTEX
  8
LAYER_3
 10
247.2318
 20
-172.5435
  0
VERTEX
  8
LAYER_3
 10
247.2111
 20
-172.5676
  0
VERTEX
  8
LAYER_3
 10
247.1842
 20
-172.5807
  0
VERTEX
  8
LAYER_3
 10
247.1505
 20
-172.5841
  0
VERTEX
  8
LAYER_3
 10
246.4787
 20
-172.5841
  0
VERTEX
  8
LAYER_3
 10
246.3946
 20
-172.591
  0
VERTEX
  8
LAYER_3
 10
246.3099
 20
-172.6144
  0
VERTEX
  8
LAYER_3
 10
246.2361
 20
-172.6482
  0
VERTEX
  8
LAYER_3
 10
246.1652
 20
-172.6958
  0
VERTEX
  8
LAYER_3
 10
246.1038
 20
-172.7529
  0
VERTEX
  8
LAYER_3
 10
245.277
 20
-173.6948
  0
SEQEND
  0
POLYLINE
  8
LAYER_3
 40
0.1764
 41
0.1764
 62
4
 66
1
 10
0
 20
0
 30
0
  0
VERTEX
  8
LAYER_3
 10
247.2517
 20
-179.6521
  0
VERTEX
  8
LAYER_3
 10
247.2517
 20
-172.5263
  0
SEQEND
  0
POLYLINE
  8
LAYER_3
 40
0.1764
 41
0.1764
 62
4
 66
1
 10
0
 20
0
 30
0
  0
VERTEX
  8
LAYER_3
 10
246.2726
 20
-179.5411
  0
VERTEX
  8
LAYER_3
 10
246.2726
 20
-172.6282
  0
SEQEND
  0
ENDBLK
  0
BLOCK
  8
LAYER_1
  2
AIGNBL01010002
 70
64
 10
0
 20
0
 30
0
  3
AIGNBL01010002
  0
INSERT
  8
LAYER_1
  2
AIGNBL01020003
 10
0
 20
0
 30
0
  0
INSERT
  8
LAYER_1
  2
AIGNBL01020004
 10
0
 20
0
 30
0
  0
INSERT
  8
LAYER_1
  2
AIGNBL01020005
 10
0
 20
0
 30
0
  0
INSERT
  8
LAYER_1
  2
AIGNBL01020006
 10
0
 20
0
 30
0
  0
INSERT
  8
LAYER_1
  2
AIGNBL01020007
 10
0
 20
0
 30
0
  0
INSERT
  8
LAYER_1
  2
AIGNBL01020008
 10
0
 20
0
 30
0
  0
INSERT
  8
LAYER_1
  2
AIGNBL01020009
 10
0
 20
0
 30
0
  0
INSERT
  8
LAYER_1
  2
AIGNBL0102000A
 10
0
 20
0
 30
0
  0
INSERT
  8
LAYER_1
  2
AIGNBL0102000B
 10
0
 20
0
 30
0
  0
INSERT
  8
LAYER_1
  2
AIGNBL0102000C
 10
0
 20
0
 30
0
  0
INSERT
  8
LAYER_1
  2
AIGNBL0102000D
 10
0
 20
0
 30
0
  0
INSERT
  8
LAYER_1
  2
AIGNBL0102000E
 10
0
 20
0
 30
0
  0
INSERT
  8
LAYER_1
  2
AIGNBL0102000F
 10
0
 20
0
 30
0
  0
INSERT
  8
LAYER_1
  2
AIGNBL01020010
 10
0
 20
0
 30
0
  0
INSERT
  8
LAYER_1
  2
AIGNBL01020011
 10
0
 20
0
 30
0
  0
INSERT
  8
LAYER_1
  2
AIGNBL01020012
 10
0
 20
0
 30
0
  0
INSERT
  8
LAYER_1
  2
AIGNBL01020013
 10
0
 20
0
 30
0
  0
INSERT
  8
LAYER_1
  2
AIGNBL01020014
 10
0
 20
0
 30
0
  0
INSERT
  8
LAYER_1
  2
AIGNBL01020015
 10
0
 20
0
 30
0
  0
INSERT
  8
LAYER_1
  2
AIGNBL01020016
 10
0
 20
0
 30
0
  0
INSERT
  8
LAYER_1
  2
AIGNBL01020017
 10
0
 20
0
 30
0
  0
INSERT
  8
LAYER_1
  2
AIGNBL01020018
 10
0
 20
0
 30
0
  0
INSERT
  8
LAYER_1
  2
AIGNBL01020019
 10
0
 20
0
 30
0
  0
INSERT
  8
LAYER_1
  2
AIGNBL0102001A
 10
0
 20
0
 30
0
  0
INSERT
  8
LAYER_1
  2
AIGNBL0102001B
 10
0
 20
0
 30
0
  0
INSERT
  8
LAYER_1
  2
AIGNBL0102001C
 10
0
 20
0
 30
0
  0
INSERT
  8
LAYER_1
  2
AIGNBL0102001D
 10
0
 20
0
 30
0
  0
INSERT
  8
LAYER_1
  2
AIGNBL0102001E
 10
0
 20
0
 30
0
  0
INSERT
  8
LAYER_1
  2
AIGNBL0102001F
 10
0
 20
0
 30
0
  0
INSERT
  8
LAYER_1
  2
AIGNBL01020020
 10
0
 20
0
 30
0
  0
INSERT
  8
LAYER_1
  2
AIGNBL01020021
 10
0
 20
0
 30
0
  0
INSERT
  8
LAYER_1
  2
AIGNBL01020022
 10
0
 20
0
 30
0
  0
INSERT
  8
LAYER_1
  2
AIGNBL01020023
 10
0
 20
0
 30
0
  0
INSERT
  8
LAYER_1
  2
AIGNBL01020024
 10
0
 20
0
 30
0
  0
INSERT
  8
LAYER_1
  2
AIGNBL01020025
 10
0
 20
0
 30
0
  0
INSERT
  8
LAYER_1
  2
AIGNBL01020026
 10
0
 20
0
 30
0
  0
INSERT
  8
LAYER_1
  2
AIGNBL01020027
 10
0
 20
0
 30
0
  0
INSERT
  8
LAYER_1
  2
AIGNBL01020028
 10
0
 20
0
 30
0
  0
INSERT
  8
LAYER_1
  2
AIGNBL01020029
 10
0
 20
0
 30
0
  0
INSERT
  8
LAYER_1
  2
AIGNBL0102002A
 10
0
 20
0
 30
0
  0
INSERT
  8
LAYER_1
  2
AIGNBL0102002B
 10
0
 20
0
 30
0
  0
INSERT
  8
LAYER_1
  2
AIGNBL0102002C
 10
0
 20
0
 30
0
  0
INSERT
  8
LAYER_1
  2
AIGNBL0102002D
 10
0
 20
0
 30
0
  0
INSERT
  8
LAYER_1
  2
AIGNBL0102002E
 10
0
 20
0
 30
0
  0
INSERT
  8
LAYER_1
  2
AIGNBL0102002F
 10
0
 20
0
 30
0
  0
INSERT
  8
LAYER_1
  2
AIGNBL01020030
 10
0
 20
0
 30
0
  0
INSERT
  8
LAYER_1
  2
AIGNBL01020031
 10
0
 20
0
 30
0
  0
INSERT
  8
LAYER_1
  2
AIGNBL01020032
 10
0
 20
0
 30
0
  0
INSERT
  8
LAYER_1
  2
AIGNBL01020033
 10
0
 20
0
 30
0
  0
INSERT
  8
LAYER_1
  2
AIGNBL01020034
 10
0
 20
0
 30
0
  0
INSERT
  8
LAYER_1
  2
AIGNBL01020035
 10
0
 20
0
 30
0
  0
INSERT
  8
LAYER_1
  2
AIGNBL01020036
 10
0
 20
0
 30
0
  0
INSERT
  8
LAYER_1
  2
AIGNBL01020037
 10
0
 20
0
 30
0
  0
INSERT
  8
LAYER_1
  2
AIGNBL01020038
 10
0
 20
0
 30
0
  0
INSERT
  8
LAYER_1
  2
AIGNBL01020039
 10
0
 20
0
 30
0
  0
INSERT
  8
LAYER_1
  2
AIGNBL0102003A
 10
0
 20
0
 30
0
  0
INSERT
  8
LAYER_1
  2
AIGNBL0102003B
 10
0
 20
0
 30
0
  0
INSERT
  8
LAYER_1
  2
AIGNBL0102003C
 10
0
 20
0
 30
0
  0
INSERT
  8
LAYER_1
  2
AIGNBL0102003D
 10
0
 20
0
 30
0
  0
INSERT
  8
LAYER_1
  2
AIGNBL0102003E
 10
0
 20
0
 30
0
  0
INSERT
  8
LAYER_1
  2
AIGNBL0102003F
 10
0
 20
0
 30
0
  0
INSERT
  8
LAYER_1
  2
AIGNBL01020040
 10
0
 20
0
 30
0
  0
INSERT
  8
LAYER_1
  2
AIGNBL01020041
 10
0
 20
0
 30
0
  0
INSERT
  8
LAYER_1
  2
AIGNBL01020042
 10
0
 20
0
 30
0
  0
ENDBLK
  0
BLOCK
  8
LAYER_1
  2
AIGNBL01010043
 70
64
 10
0
 20
0
 30
0
  3
AIGNBL01010043
  0
INSERT
  8
LAYER_1
  2
AIGNBL01020044
 10
0
 20
0
 30
0
  0
INSERT
  8
LAYER_1
  2
AIGNBL01020045
 10
0
 20
0
 30
0
  0
INSERT
  8
LAYER_1
  2
AIGNBL01020046
 10
0
 20
0
 30
0
  0
INSERT
  8
LAYER_1
  2
AIGNBL01020047
 10
0
 20
0
 30
0
  0
INSERT
  8
LAYER_1
  2
AIGNBL01020048
 10
0
 20
0
 30
0
  0
INSERT
  8
LAYER_1
  2
AIGNBL01020049
 10
0
 20
0
 30
0
  0
INSERT
  8
LAYER_1
  2
AIGNBL0102004A
 10
0
 20
0
 30
0
  0
INSERT
  8
LAYER_1
  2
AIGNBL0102004B
 10
0
 20
0
 30
0
  0
INSERT
  8
LAYER_1
  2
AIGNBL0102004C
 10
0
 20
0
 30
0
  0
INSERT
  8
LAYER_1
  2
AIGNBL0102004D
 10
0
 20
0
 30
0
  0
INSERT
  8
LAYER_1
  2
AIGNBL0102004E
 10
0
 20
0
 30
0
  0
INSERT
  8
LAYER_1
  2
AIGNBL0102004F
 10
0
 20
0
 30
0
  0
INSERT
  8
LAYER_1
  2
AIGNBL01020050
 10
0
 20
0
 30
0
  0
INSERT
  8
LAYER_1
  2
AIGNBL01020051
 10
0
 20
0
 30
0
  0
INSERT
  8
LAYER_1
  2
AIGNBL01020052
 10
0
 20
0
 30
0
  0
INSERT
  8
LAYER_1
  2
AIGNBL01020053
 10
0
 20
0
 30
0
  0
INSERT
  8
LAYER_1
  2
AIGNBL01020054
 10
0
 20
0
 30
0
  0
INSERT
  8
LAYER_1
  2
AIGNBL01020055
 10
0
 20
0
 30
0
  0
INSERT
  8
LAYER_1
  2
AIGNBL01020056
 10
0
 20
0
 30
0
  0
INSERT
  8
LAYER_1
  2
AIGNBL01020057
 10
0
 20
0
 30
0
  0
INSERT
  8
LAYER_1
  2
AIGNBL01020058
 10
0
 20
0
 30
0
  0
INSERT
  8
LAYER_1
  2
AIGNBL01020059
 10
0
 20
0
 30
0
  0
INSERT
  8
LAYER_1
  2
AIGNBL0102005A
 10
0
 20
0
 30
0
  0
INSERT
  8
LAYER_1
  2
AIGNBL0102005B
 10
0
 20
0
 30
0
  0
INSERT
  8
LAYER_1
  2
AIGNBL0102005C
 10
0
 20
0
 30
0
  0
INSERT
  8
LAYER_1
  2
AIGNBL0102005D
 10
0
 20
0
 30
0
  0
INSERT
  8
LAYER_1
  2
AIGNBL0102005E
 10
0
 20
0
 30
0
  0
INSERT
  8
LAYER_1
  2
AIGNBL0102005F
 10
0
 20
0
 30
0
  0
INSERT
  8
LAYER_1
  2
AIGNBL01020060
 10
0
 20
0
 30
0
  0
INSERT
  8
LAYER_1
  2
AIGNBL01020061
 10
0
 20
0
 30
0
  0
INSERT
  8
LAYER_1
  2
AIGNBL01020062
 10
0
 20
0
 30
0
  0
INSERT
  8
LAYER_1
  2
AIGNBL01020063
 10
0
 20
0
 30
0
  0
INSERT
  8
LAYER_1
  2
AIGNBL01020064
 10
0
 20
0
 30
0
  0
INSERT
  8
LAYER_1
  2
AIGNBL01020065
 10
0
 20
0
 30
0
  0
INSERT
  8
LAYER_1
  2
AIGNBL01020066
 10
0
 20
0
 30
0
  0
INSERT
  8
LAYER_1
  2
AIGNBL01020067
 10
0
 20
0
 30
0
  0
INSERT
  8
LAYER_1
  2
AIGNBL01020068
 10
0
 20
0
 30
0
  0
INSERT
  8
LAYER_1
  2
AIGNBL01020069
 10
0
 20
0
 30
0
  0
INSERT
  8
LAYER_1
  2
AIGNBL0102006A
 10
0
 20
0
 30
0
  0
INSERT
  8
LAYER_1
  2
AIGNBL0102006B
 10
0
 20
0
 30
0
  0
INSERT
  8
LAYER_1
  2
AIGNBL0102006C
 10
0
 20
0
 30
0
  0
INSERT
  8
LAYER_1
  2
AIGNBL0102006D
 10
0
 20
0
 30
0
  0
INSERT
  8
LAYER_1
  2
AIGNBL0102006E
 10
0
 20
0
 30
0
  0
INSERT
  8
LAYER_1
  2
AIGNBL0102006F
 10
0
 20
0
 30
0
  0
INSERT
  8
LAYER_1
  2
AIGNBL01020070
 10
0
 20
0
 30
0
  0
INSERT
  8
LAYER_1
  2
AIGNBL01020071
 10
0
 20
0
 30
0
  0
INSERT
  8
LAYER_1
  2
AIGNBL01020072
 10
0
 20
0
 30
0
  0
INSERT
  8
LAYER_1
  2
AIGNBL01020073
 10
0
 20
0
 30
0
  0
INSERT
  8
LAYER_1
  2
AIGNBL01020074
 10
0
 20
0
 30
0
  0
INSERT
  8
LAYER_1
  2
AIGNBL01020075
 10
0
 20
0
 30
0
  0
INSERT
  8
LAYER_1
  2
AIGNBL01020076
 10
0
 20
0
 30
0
  0
INSERT
  8
LAYER_1
  2
AIGNBL01020077
 10
0
 20
0
 30
0
  0
INSERT
  8
LAYER_1
  2
AIGNBL01020078
 10
0
 20
0
 30
0
  0
INSERT
  8
LAYER_1
  2
AIGNBL01020079
 10
0
 20
0
 30
0
  0
INSERT
  8
LAYER_1
  2
AIGNBL0102007A
 10
0
 20
0
 30
0
  0
INSERT
  8
LAYER_1
  2
AIGNBL0102007B
 10
0
 20
0
 30
0
  0
INSERT
  8
LAYER_1
  2
AIGNBL0102007C
 10
0
 20
0
 30
0
  0
INSERT
  8
LAYER_1
  2
AIGNBL0102007D
 10
0
 20
0
 30
0
  0
INSERT
  8
LAYER_1
  2
AIGNBL0102007E
 10
0
 20
0
 30
0
  0
INSERT
  8
LAYER_1
  2
AIGNBL0102007F
 10
0
 20
0
 30
0
  0
INSERT
  8
LAYER_1
  2
AIGNBL01020080
 10
0
 20
0
 30
0
  0
INSERT
  8
LAYER_1
  2
AIGNBL01020081
 10
0
 20
0
 30
0
  0
INSERT
  8
LAYER_1
  2
AIGNBL01020082
 10
0
 20
0
 30
0
  0
INSERT
  8
LAYER_1
  2
AIGNBL01020083
 10
0
 20
0
 30
0
  0
ENDBLK
  0
BLOCK
  8
LAYER_1
  2
AIGNBL01010084
 70
64
 10
0
 20
0
 30
0
  3
AIGNBL01010084
  0
INSERT
  8
LAYER_1
  2
AIGNBL01020085
 10
0
 20
0
 30
0
  0
INSERT
  8
LAYER_1
  2
AIGNBL01020086
 10
0
 20
0
 30
0
  0
INSERT
  8
LAYER_1
  2
AIGNBL01020087
 10
0
 20
0
 30
0
  0
INSERT
  8
LAYER_1
  2
AIGNBL01020088
 10
0
 20
0
 30
0
  0
INSERT
  8
LAYER_1
  2
AIGNBL01020089
 10
0
 20
0
 30
0
  0
INSERT
  8
LAYER_1
  2
AIGNBL0102008A
 10
0
 20
0
 30
0
  0
INSERT
  8
LAYER_1
  2
AIGNBL0102008B
 10
0
 20
0
 30
0
  0
INSERT
  8
LAYER_1
  2
AIGNBL0102008C
 10
0
 20
0
 30
0
  0
INSERT
  8
LAYER_1
  2
AIGNBL0102008D
 10
0
 20
0
 30
0
  0
INSERT
  8
LAYER_1
  2
AIGNBL0102008E
 10
0
 20
0
 30
0
  0
INSERT
  8
LAYER_1
  2
AIGNBL0102008F
 10
0
 20
0
 30
0
  0
INSERT
  8
LAYER_1
  2
AIGNBL01020090
 10
0
 20
0
 30
0
  0
INSERT
  8
LAYER_1
  2
AIGNBL01020091
 10
0
 20
0
 30
0
  0
INSERT
  8
LAYER_1
  2
AIGNBL01020092
 10
0
 20
0
 30
0
  0
INSERT
  8
LAYER_1
  2
AIGNBL01020093
 10
0
 20
0
 30
0
  0
INSERT
  8
LAYER_1
  2
AIGNBL01020094
 10
0
 20
0
 30
0
  0
INSERT
  8
LAYER_1
  2
AIGNBL01020095
 10
0
 20
0
 30
0
  0
INSERT
  8
LAYER_1
  2
AIGNBL01020096
 10
0
 20
0
 30
0
  0
INSERT
  8
LAYER_1
  2
AIGNBL01020097
 10
0
 20
0
 30
0
  0
INSERT
  8
LAYER_1
  2
AIGNBL01020098
 10
0
 20
0
 30
0
  0
INSERT
  8
LAYER_1
  2
AIGNBL01020099
 10
0
 20
0
 30
0
  0
INSERT
  8
LAYER_1
  2
AIGNBL0102009A
 10
0
 20
0
 30
0
  0
INSERT
  8
LAYER_1
  2
AIGNBL0102009B
 10
0
 20
0
 30
0
  0
INSERT
  8
LAYER_1
  2
AIGNBL0102009C
 10
0
 20
0
 30
0
  0
INSERT
  8
LAYER_1
  2
AIGNBL0102009D
 10
0
 20
0
 30
0
  0
INSERT
  8
LAYER_1
  2
AIGNBL0102009E
 10
0
 20
0
 30
0
  0
INSERT
  8
LAYER_1
  2
AIGNBL0102009F
 10
0
 20
0
 30
0
  0
INSERT
  8
LAYER_1
  2
AIGNBL010200A0
 10
0
 20
0
 30
0
  0
INSERT
  8
LAYER_1
  2
AIGNBL010200A1
 10
0
 20
0
 30
0
  0
INSERT
  8
LAYER_1
  2
AIGNBL010200A2
 10
0
 20
0
 30
0
  0
INSERT
  8
LAYER_1
  2
AIGNBL010200A3
 10
0
 20
0
 30
0
  0
INSERT
  8
LAYER_1
  2
AIGNBL010200A4
 10
0
 20
0
 30
0
  0
INSERT
  8
LAYER_1
  2
AIGNBL010200A5
 10
0
 20
0
 30
0
  0
INSERT
  8
LAYER_1
  2
AIGNBL010200A6
 10
0
 20
0
 30
0
  0
INSERT
  8
LAYER_1
  2
AIGNBL010200A7
 10
0
 20
0
 30
0
  0
INSERT
  8
LAYER_1
  2
AIGNBL010200A8
 10
0
 20
0
 30
0
  0
INSERT
  8
LAYER_1
  2
AIGNBL010200A9
 10
0
 20
0
 30
0
  0
INSERT
  8
LAYER_1
  2
AIGNBL010200AA
 10
0
 20
0
 30
0
  0
INSERT
  8
LAYER_1
  2
AIGNBL010200AB
 10
0
 20
0
 30
0
  0
INSERT
  8
LAYER_1
  2
AIGNBL010200AC
 10
0
 20
0
 30
0
  0
INSERT
  8
LAYER_1
  2
AIGNBL010200AD
 10
0
 20
0
 30
0
  0
INSERT
  8
LAYER_1
  2
AIGNBL010200AE
 10
0
 20
0
 30
0
  0
INSERT
  8
LAYER_1
  2
AIGNBL010200AF
 10
0
 20
0
 30
0
  0
INSERT
  8
LAYER_1
  2
AIGNBL010200B0
 10
0
 20
0
 30
0
  0
INSERT
  8
LAYER_1
  2
AIGNBL010200B1
 10
0
 20
0
 30
0
  0
INSERT
  8
LAYER_1
  2
AIGNBL010200B2
 10
0
 20
0
 30
0
  0
INSERT
  8
LAYER_1
  2
AIGNBL010200B3
 10
0
 20
0
 30
0
  0
INSERT
  8
LAYER_1
  2
AIGNBL010200B4
 10
0
 20
0
 30
0
  0
INSERT
  8
LAYER_1
  2
AIGNBL010200B5
 10
0
 20
0
 30
0
  0
INSERT
  8
LAYER_1
  2
AIGNBL010200B6
 10
0
 20
0
 30
0
  0
INSERT
  8
LAYER_1
  2
AIGNBL010200B7
 10
0
 20
0
 30
0
  0
INSERT
  8
LAYER_1
  2
AIGNBL010200B8
 10
0
 20
0
 30
0
  0
INSERT
  8
LAYER_1
  2
AIGNBL010200B9
 10
0
 20
0
 30
0
  0
INSERT
  8
LAYER_1
  2
AIGNBL010200BA
 10
0
 20
0
 30
0
  0
INSERT
  8
LAYER_1
  2
AIGNBL010200BB
 10
0
 20
0
 30
0
  0
INSERT
  8
LAYER_1
  2
AIGNBL010200BC
 10
0
 20
0
 30
0
  0
INSERT
  8
LAYER_1
  2
AIGNBL010200BD
 10
0
 20
0
 30
0
  0
INSERT
  8
LAYER_1
  2
AIGNBL010200BE
 10
0
 20
0
 30
0
  0
INSERT
  8
LAYER_1
  2
AIGNBL010200BF
 10
0
 20
0
 30
0
  0
INSERT
  8
LAYER_1
  2
AIGNBL010200C0
 10
0
 20
0
 30
0
  0
INSERT
  8
LAYER_1
  2
AIGNBL010200C1
 10
0
 20
0
 30
0
  0
INSERT
  8
LAYER_1
  2
AIGNBL010200C2
 10
0
 20
0
 30
0
  0
INSERT
  8
LAYER_1
  2
AIGNBL010200C3
 10
0
 20
0
 30
0
  0
INSERT
  8
LAYER_1
  2
AIGNBL010200C4
 10
0
 20
0
 30
0
  0
ENDBLK
  0
BLOCK
  8
LAYER_1
  2
AIGNBL010100C5
 70
64
 10
0
 20
0
 30
0
  3
AIGNBL010100C5
  0
INSERT
  8
LAYER_1
  2
AIGNBL010200C6
 10
0
 20
0
 30
0
  0
INSERT
  8
LAYER_1
  2
AIGNBL010200CD
 10
0
 20
0
 30
0
  0
INSERT
  8
LAYER_1
  2
AIGNBL010200CE
 10
0
 20
0
 30
0
  0
INSERT
  8
LAYER_1
  2
AIGNBL010200CF
 10
0
 20
0
 30
0
  0
INSERT
  8
LAYER_1
  2
AIGNBL010200D0
 10
0
 20
0
 30
0
  0
INSERT
  8
LAYER_1
  2
AIGNBL010200D1
 10
0
 20
0
 30
0
  0
INSERT
  8
LAYER_1
  2
AIGNBL010200D2
 10
0
 20
0
 30
0
  0
INSERT
  8
LAYER_1
  2
AIGNBL010200D3
 10
0
 20
0
 30
0
  0
INSERT
  8
LAYER_1
  2
AIGNBL010200D4
 10
0
 20
0
 30
0
  0
INSERT
  8
LAYER_1
  2
AIGNBL010200D5
 10
0
 20
0
 30
0
  0
INSERT
  8
LAYER_1
  2
AIGNBL010200D6
 10
0
 20
0
 30
0
  0
INSERT
  8
LAYER_1
  2
AIGNBL010200D7
 10
0
 20
0
 30
0
  0
INSERT
  8
LAYER_1
  2
AIGNBL010200D8
 10
0
 20
0
 30
0
  0
INSERT
  8
LAYER_1
  2
AIGNBL010200D9
 10
0
 20
0
 30
0
  0
INSERT
  8
LAYER_1
  2
AIGNBL010200DA
 10
0
 20
0
 30
0
  0
INSERT
  8
LAYER_1
  2
AIGNBL010200DB
 10
0
 20
0
 30
0
  0
INSERT
  8
LAYER_1
  2
AIGNBL010200DC
 10
0
 20
0
 30
0
  0
INSERT
  8
LAYER_1
  2
AIGNBL010200DD
 10
0
 20
0
 30
0
  0
INSERT
  8
LAYER_1
  2
AIGNBL010200DE
 10
0
 20
0
 30
0
  0
INSERT
  8
LAYER_1
  2
AIGNBL010200DF
 10
0
 20
0
 30
0
  0
INSERT
  8
LAYER_1
  2
AIGNBL010200E0
 10
0
 20
0
 30
0
  0
INSERT
  8
LAYER_1
  2
AIGNBL010200E1
 10
0
 20
0
 30
0
  0
INSERT
  8
LAYER_1
  2
AIGNBL010200E2
 10
0
 20
0
 30
0
  0
INSERT
  8
LAYER_1
  2
AIGNBL010200E3
 10
0
 20
0
 30
0
  0
INSERT
  8
LAYER_1
  2
AIGNBL010200E4
 10
0
 20
0
 30
0
  0
INSERT
  8
LAYER_1
  2
AIGNBL010200E5
 10
0
 20
0
 30
0
  0
INSERT
  8
LAYER_1
  2
AIGNBL010200E6
 10
0
 20
0
 30
0
  0
INSERT
  8
LAYER_1
  2
AIGNBL010200E7
 10
0
 20
0
 30
0
  0
INSERT
  8
LAYER_1
  2
AIGNBL010200E8
 10
0
 20
0
 30
0
  0
INSERT
  8
LAYER_1
  2
AIGNBL010200E9
 10
0
 20
0
 30
0
  0
INSERT
  8
LAYER_1
  2
AIGNBL010200EA
 10
0
 20
0
 30
0
  0
INSERT
  8
LAYER_1
  2
AIGNBL010200EB
 10
0
 20
0
 30
0
  0
INSERT
  8
LAYER_1
  2
AIGNBL010200EC
 10
0
 20
0
 30
0
  0
INSERT
  8
LAYER_1
  2
AIGNBL010200ED
 10
0
 20
0
 30
0
  0
INSERT
  8
LAYER_1
  2
AIGNBL010200EE
 10
0
 20
0
 30
0
  0
INSERT
  8
LAYER_1
  2
AIGNBL010200EF
 10
0
 20
0
 30
0
  0
INSERT
  8
LAYER_1
  2
AIGNBL010200F0
 10
0
 20
0
 30
0
  0
INSERT
  8
LAYER_1
  2
AIGNBL010200F1
 10
0
 20
0
 30
0
  0
INSERT
  8
LAYER_1
  2
AIGNBL010200F2
 10
0
 20
0
 30
0
  0
INSERT
  8
LAYER_1
  2
AIGNBL010200F3
 10
0
 20
0
 30
0
  0
INSERT
  8
LAYER_1
  2
AIGNBL010200F4
 10
0
 20
0
 30
0
  0
INSERT
  8
LAYER_1
  2
AIGNBL010200F5
 10
0
 20
0
 30
0
  0
INSERT
  8
LAYER_1
  2
AIGNBL010200F6
 10
0
 20
0
 30
0
  0
INSERT
  8
LAYER_1
  2
AIGNBL010200F7
 10
0
 20
0
 30
0
  0
INSERT
  8
LAYER_1
  2
AIGNBL010200F8
 10
0
 20
0
 30
0
  0
INSERT
  8
LAYER_1
  2
AIGNBL010200F9
 10
0
 20
0
 30
0
  0
INSERT
  8
LAYER_1
  2
AIGNBL010200FA
 10
0
 20
0
 30
0
  0
INSERT
  8
LAYER_1
  2
AIGNBL010200FB
 10
0
 20
0
 30
0
  0
INSERT
  8
LAYER_1
  2
AIGNBL010200FC
 10
0
 20
0
 30
0
  0
INSERT
  8
LAYER_1
  2
AIGNBL010200FD
 10
0
 20
0
 30
0
  0
INSERT
  8
LAYER_1
  2
AIGNBL010200FE
 10
0
 20
0
 30
0
  0
INSERT
  8
LAYER_1
  2
AIGNBL010200FF
 10
0
 20
0
 30
0
  0
INSERT
  8
LAYER_1
  2
AIGNBL01020100
 10
0
 20
0
 30
0
  0
INSERT
  8
LAYER_1
  2
AIGNBL01020101
 10
0
 20
0
 30
0
  0
INSERT
  8
LAYER_1
  2
AIGNBL01020102
 10
0
 20
0
 30
0
  0
INSERT
  8
LAYER_1
  2
AIGNBL01020103
 10
0
 20
0
 30
0
  0
INSERT
  8
LAYER_1
  2
AIGNBL01020104
 10
0
 20
0
 30
0
  0
INSERT
  8
LAYER_1
  2
AIGNBL01020105
 10
0
 20
0
 30
0
  0
INSERT
  8
LAYER_1
  2
AIGNBL01020106
 10
0
 20
0
 30
0
  0
INSERT
  8
LAYER_1
  2
AIGNBL01020107
 10
0
 20
0
 30
0
  0
INSERT
  8
LAYER_1
  2
AIGNBL01020108
 10
0
 20
0
 30
0
  0
INSERT
  8
LAYER_1
  2
AIGNBL01020109
 10
0
 20
0
 30
0
  0
INSERT
  8
LAYER_1
  2
AIGNBL0102010A
 10
0
 20
0
 30
0
  0
INSERT
  8
LAYER_1
  2
AIGNBL0102010B
 10
0
 20
0
 30
0
  0
INSERT
  8
LAYER_1
  2
AIGNBL0102010C
 10
0
 20
0
 30
0
  0
INSERT
  8
LAYER_1
  2
AIGNBL0102010D
 10
0
 20
0
 30
0
  0
INSERT
  8
LAYER_1
  2
AIGNBL0102010E
 10
0
 20
0
 30
0
  0
INSERT
  8
LAYER_1
  2
AIGNBL0102010F
 10
0
 20
0
 30
0
  0
INSERT
  8
LAYER_1
  2
AIGNBL01020110
 10
0
 20
0
 30
0
  0
INSERT
  8
LAYER_1
  2
AIGNBL01020111
 10
0
 20
0
 30
0
  0
INSERT
  8
LAYER_1
  2
AIGNBL01020112
 10
0
 20
0
 30
0
  0
INSERT
  8
LAYER_1
  2
AIGNBL01020113
 10
0
 20
0
 30
0
  0
INSERT
  8
LAYER_1
  2
AIGNBL01020114
 10
0
 20
0
 30
0
  0
INSERT
  8
LAYER_1
  2
AIGNBL01020115
 10
0
 20
0
 30
0
  0
INSERT
  8
LAYER_1
  2
AIGNBL01020116
 10
0
 20
0
 30
0
  0
INSERT
  8
LAYER_1
  2
AIGNBL01020117
 10
0
 20
0
 30
0
  0
INSERT
  8
LAYER_1
  2
AIGNBL01020118
 10
0
 20
0
 30
0
  0
INSERT
  8
LAYER_1
  2
AIGNBL01020119
 10
0
 20
0
 30
0
  0
INSERT
  8
LAYER_1
  2
AIGNBL0102011A
 10
0
 20
0
 30
0
  0
INSERT
  8
LAYER_1
  2
AIGNBL0102011B
 10
0
 20
0
 30
0
  0
INSERT
  8
LAYER_1
  2
AIGNBL0102011C
 10
0
 20
0
 30
0
  0
INSERT
  8
LAYER_1
  2
AIGNBL0102011D
 10
0
 20
0
 30
0
  0
INSERT
  8
LAYER_1
  2
AIGNBL0102011E
 10
0
 20
0
 30
0
  0
INSERT
  8
LAYER_1
  2
AIGNBL0102011F
 10
0
 20
0
 30
0
  0
INSERT
  8
LAYER_1
  2
AIGNBL01020120
 10
0
 20
0
 30
0
  0
INSERT
  8
LAYER_1
  2
AIGNBL01020121
 10
0
 20
0
 30
0
  0
INSERT
  8
LAYER_1
  2
AIGNBL01020122
 10
0
 20
0
 30
0
  0
INSERT
  8
LAYER_1
  2
AIGNBL01020123
 10
0
 20
0
 30
0
  0
INSERT
  8
LAYER_1
  2
AIGNBL01020124
 10
0
 20
0
 30
0
  0
INSERT
  8
LAYER_1
  2
AIGNBL01020125
 10
0
 20
0
 30
0
  0
INSERT
  8
LAYER_1
  2
AIGNBL01020126
 10
0
 20
0
 30
0
  0
INSERT
  8
LAYER_1
  2
AIGNBL01020127
 10
0
 20
0
 30
0
  0
INSERT
  8
LAYER_1
  2
AIGNBL01020128
 10
0
 20
0
 30
0
  0
INSERT
  8
LAYER_1
  2
AIGNBL01020129
 10
0
 20
0
 30
0
  0
INSERT
  8
LAYER_1
  2
AIGNBL0102012A
 10
0
 20
0
 30
0
  0
INSERT
  8
LAYER_1
  2
AIGNBL0102012B
 10
0
 20
0
 30
0
  0
INSERT
  8
LAYER_1
  2
AIGNBL0102012C
 10
0
 20
0
 30
0
  0
INSERT
  8
LAYER_1
  2
AIGNBL0102012D
 10
0
 20
0
 30
0
  0
INSERT
  8
LAYER_1
  2
AIGNBL0102012E
 10
0
 20
0
 30
0
  0
INSERT
  8
LAYER_1
  2
AIGNBL0102012F
 10
0
 20
0
 30
0
  0
INSERT
  8
LAYER_1
  2
AIGNBL01020130
 10
0
 20
0
 30
0
  0
INSERT
  8
LAYER_1
  2
AIGNBL01020131
 10
0
 20
0
 30
0
  0
INSERT
  8
LAYER_1
  2
AIGNBL01020132
 10
0
 20
0
 30
0
  0
ENDBLK
  0
BLOCK
  8
LAYER_1
  2
AIGNBL01010133
 70
64
 10
0
 20
0
 30
0
  3
AIGNBL01010133
  0
INSERT
  8
LAYER_1
  2
AIGNBL01020134
 10
0
 20
0
 30
0
  0
INSERT
  8
LAYER_1
  2
AIGNBL0102013C
 10
0
 20
0
 30
0
  0
ENDBLK
  0
BLOCK
  8
LAYER_1
  2
AIGNBL0101016D
 70
64
 10
0
 20
0
 30
0
  3
AIGNBL0101016D
  0
INSERT
  8
LAYER_1
  2
AIGNBL0102016E
 10
0
 20
0
 30
0
  0
INSERT
  8
LAYER_1
  2
AIGNBL01020176
 10
0
 20
0
 30
0
  0
ENDBLK
  0
BLOCK
  8
LAYER_2
  2
AIGNBL02010002
 70
64
 10
0
 20
0
 30
0
  3
AIGNBL02010002
  0
POLYLINE
  8
LAYER_2
 40
0.0353
 41
0.0353
 66
1
 10
0
 20
0
 30
0
  0
VERTEX
  8
LAYER_2
 10
137.7881
 20
-70.0657
  0
VERTEX
  8
LAYER_2
 10
137.7779
 20
-70.0691
  0
VERTEX
  8
LAYER_2
 10
137.6979
 20
-70.0958
  0
VERTEX
  8
LAYER_2
 10
137.6177
 20
-70.1359
  0
VERTEX
  8
LAYER_2
 10
137.5376
 20
-70.196
  0
VERTEX
  8
LAYER_2
 10
137.4473
 20
-70.2863
  0
VERTEX
  8
LAYER_2
 10
137.2678
 20
-70.4658
  0
SEQEND
  0
POLYLINE
  8
LAYER_2
 40
0.0353
 41
0.0353
 66
1
 10
0
 20
0
 30
0
 70
1
  0
VERTEX
  8
LAYER_2
 10
136.5713
 20
-69.8196
 42
0.123677245
  0
VERTEX
  8
LAYER_2
 10
137.5678
 20
-70.0699
 42
0.06518968442
  0
VERTEX
  8
LAYER_2
 10
138.1042
 20
-70.0005
 42
0.3407375148
  0
VERTEX
  8
LAYER_2
 10
139.6764
 20
-67.9612
 42
0.4142037703
  0
VERTEX
  8
LAYER_2
 10
137.5678
 20
-65.8526
 42
0.414209913
  0
VERTEX
  8
LAYER_2
 10
135.4591
 20
-67.9612
 42
0.1236760807
  0
VERTEX
  8
LAYER_2
 10
135.7094
 20
-68.9577
  0
VERTEX
  8
LAYER_2
 10
135.6976
 20
-69.1104
  0
VERTEX
  8
LAYER_2
 10
135.1828
 20
-69.6249
  0
VERTEX
  8
LAYER_2
 10
131.1443
 20
-73.6832
  0
VERTEX
  8
LAYER_2
 10
131.1242
 20
-73.7032
  0
VERTEX
  8
LAYER_2
 10
131.1143
 20
-73.7335
  0
VERTEX
  8
LAYER_2
 10
131.1142
 20
-73.7533
  0
VERTEX
  8
LAYER_2
 10
131.1244
 20
-73.7635
  0
VERTEX
  8
LAYER_2
 10
131.445
 20
-74.084
  0
VERTEX
  8
LAYER_2
 10
131.7655
 20
-74.4046
  0
VERTEX
  8
LAYER_2
 10
131.7757
 20
-74.4148
  0
VERTEX
  8
LAYER_2
 10
131.7956
 20
-74.4147
  0
VERTEX
  8
LAYER_2
 10
131.8258
 20
-74.4048
  0
VERTEX
  8
LAYER_2
 10
131.8458
 20
-74.3847
  0
VERTEX
  8
LAYER_2
 10
136.4187
 20
-69.8314
  0
SEQEND
  0
POLYLINE
  8
LAYER_2
 40
0.0353
 41
0.0353
 66
1
 10
0
 20
0
 30
0
  0
VERTEX
  8
LAYER_2
 10
135.0632
 20
-68.2615
  0
VERTEX
  8
LAYER_2
 10
135.0453
 20
-67.9612
 42
-0.4142105116
  0
VERTEX
  8
LAYER_2
 10
137.5678
 20
-65.4388
 42
-0.1756344645
  0
VERTEX
  8
LAYER_2
 10
139.184
 20
-66.0246
  0
VERTEX
  8
LAYER_2
 10
139.5046
 20
-66.3452
  0
SEQEND
  0
POLYLINE
  8
LAYER_2
 40
0.0353
 41
0.0353
 66
1
 10
0
 20
0
 30
0
  0
VERTEX
  8
LAYER_2
 10
139.5016
 20
-66.3481
  0
VERTEX
  8
LAYER_2
 10
139.5046
 20
-66.3452
 42
-0.1756067266
  0
VERTEX
  8
LAYER_2
 10
140.0903
 20
-67.9612
 42
-0.1989194739
  0
VERTEX
  8
LAYER_2
 10
139.3514
 20
-69.7449
 42
-0.1989079679
  0
VERTEX
  8
LAYER_2
 10
137.5678
 20
-70.4837
  0
VERTEX
  8
LAYER_2
 10
137.2678
 20
-70.4658
  0
VERTEX
  8
LAYER_2
 10
137.2469
 20
-70.4867
  0
VERTEX
  8
LAYER_2
 10
130.3227
 20
-77.4109
  0
VERTEX
  8
LAYER_2
 10
130.2426
 20
-77.491
  0
VERTEX
  8
LAYER_2
 10
130.0622
 20
-77.5913
  0
VERTEX
  8
LAYER_2
 10
129.8218
 20
-77.6115
  0
VERTEX
  8
LAYER_2
 10
129.541
 20
-77.5512
  0
VERTEX
  8
LAYER_2
 10
129.2205
 20
-77.411
  0
VERTEX
  8
LAYER_2
 10
128.8897
 20
-77.2005
  0
VERTEX
  8
LAYER_2
 10
128.5891
 20
-76.94
  0
VERTEX
  8
LAYER_2
 10
128.3286
 20
-76.6394
  0
VERTEX
  8
LAYER_2
 10
128.1182
 20
-76.3087
  0
VERTEX
  8
LAYER_2
 10
127.9778
 20
-75.988
  0
VERTEX
  8
LAYER_2
 10
127.9177
 20
-75.7074
  0
VERTEX
  8
LAYER_2
 10
127.9379
 20
-75.467
  0
VERTEX
  8
LAYER_2
 10
128.0381
 20
-75.2866
  0
VERTEX
  8
LAYER_2
 10
128.1182
 20
-75.2065
  0
VERTEX
  8
LAYER_2
 10
135.0425
 20
-68.2823
  0
VERTEX
  8
LAYER_2
 10
135.0632
 20
-68.2615
  0
VERTEX
  8
LAYER_2
 10
135.2429
 20
-68.0818
  0
VERTEX
  8
LAYER_2
 10
135.3331
 20
-67.9916
  0
VERTEX
  8
LAYER_2
 10
135.3931
 20
-67.9113
  0
VERTEX
  8
LAYER_2
 10
135.4332
 20
-67.8311
  0
VERTEX
  8
LAYER_2
 10
135.46
 20
-67.7513
  0
VERTEX
  8
LAYER_2
 10
135.4634
 20
-67.741
  0
SEQEND
  0
ENDBLK
  0
BLOCK
  8
LAYER_2
  2
AIGNBL02010003
 70
64
 10
0
 20
0
 30
0
  3
AIGNBL02010003
  0
POLYLINE
  8
LAYER_2
 40
0.0353
 41
0.0353
 66
1
 10
0
 20
0
 30
0
  0
VERTEX
  8
LAYER_2
 10
137.3651
 20
-140.6913
  0
VERTEX
  8
LAYER_2
 10
138.9368
 20
-139.4031
  0
SEQEND
  0
POLYLINE
  8
LAYER_2
 40
0.0353
 41
0.0353
 66
1
 10
0
 20
0
 30
0
  0
VERTEX
  8
LAYER_2
 10
137.5944
 20
-135.957
  0
VERTEX
  8
LAYER_2
 10
137.6836
 20
-135.957
  0
VERTEX
  8
LAYER_2
 10
137.9896
 20
-135.957
  0
VERTEX
  8
LAYER_2
 10
138.372
 20
-135.957
  0
VERTEX
  8
LAYER_2
 10
138.6906
 20
-135.957
  0
VERTEX
  8
LAYER_2
 10
139.022
 20
-135.957
  0
VERTEX
  8
LAYER_2
 10
139.2513
 20
-135.957
  0
VERTEX
  8
LAYER_2
 10
139.4808
 20
-135.957
  0
VERTEX
  8
LAYER_2
 10
139.8122
 20
-135.957
  0
VERTEX
  8
LAYER_2
 10
140.1308
 20
-135.957
  0
VERTEX
  8
LAYER_2
 10
140.5132
 20
-135.957
  0
VERTEX
  8
LAYER_2
 10
140.819
 20
-135.957
  0
VERTEX
  8
LAYER_2
 10
140.897
 20
-135.957
  0
SEQEND
  0
POLYLINE
  8
LAYER_2
 40
0.0353
 41
0.0353
 66
1
 10
0
 20
0
 30
0
  0
VERTEX
  8
LAYER_2
 10
140.8514
 20
-135.6927
  0
VERTEX
  8
LAYER_2
 10
141.1122
 20
-135.6422
  0
VERTEX
  8
LAYER_2
 10
141.1122
 20
-133.255
  0
VERTEX
  8
LAYER_2
 10
141.1122
 20
-132.5667
  0
VERTEX
  8
LAYER_2
 10
141.1122
 20
-132.4265
  0
VERTEX
  8
LAYER_2
 10
141.1122
 20
-132.2864
  0
VERTEX
  8
LAYER_2
 10
141.1122
 20
-132.2735
  0
VERTEX
  8
LAYER_2
 10
141.1122
 20
-132.2355
  0
VERTEX
  8
LAYER_2
 10
141.0867
 20
-132.2225
  0
VERTEX
  8
LAYER_2
 10
141.0484
 20
-132.2225
  0
VERTEX
  8
LAYER_2
 10
140.9082
 20
-132.2225
  0
VERTEX
  8
LAYER_2
 10
139.2513
 20
-132.2225
  0
VERTEX
  8
LAYER_2
 10
133.5239
 20
-132.2225
  0
VERTEX
  8
LAYER_2
 10
133.4984
 20
-132.2225
  0
VERTEX
  8
LAYER_2
 10
133.4856
 20
-132.2225
  0
VERTEX
  8
LAYER_2
 10
133.4729
 20
-132.2225
  0
VERTEX
  8
LAYER_2
 10
133.4474
 20
-132.2355
  0
VERTEX
  8
LAYER_2
 10
133.4474
 20
-132.2735
  0
VERTEX
  8
LAYER_2
 10
133.4474
 20
-132.3119
  0
VERTEX
  8
LAYER_2
 10
133.4474
 20
-132.452
  0
VERTEX
  8
LAYER_2
 10
133.4474
 20
-132.605
  0
VERTEX
  8
LAYER_2
 10
133.4474
 20
-132.7452
  0
VERTEX
  8
LAYER_2
 10
133.4474
 20
-132.8854
  0
VERTEX
  8
LAYER_2
 10
133.4474
 20
-132.9746
  0
VERTEX
  8
LAYER_2
 10
133.4474
 20
-133.0383
  0
VERTEX
  8
LAYER_2
 10
133.4474
 20
-133.0638
  0
VERTEX
  8
LAYER_2
 10
133.4729
 20
-133.0893
  0
VERTEX
  8
LAYER_2
 10
133.4856
 20
-133.1148
  0
VERTEX
  8
LAYER_2
 10
133.5239
 20
-133.1148
  0
VERTEX
  8
LAYER_2
 10
137.3779
 20
-133.1638
  0
SEQEND
  0
POLYLINE
  8
LAYER_2
 40
0.0353
 41
0.0353
 66
1
 10
0
 20
0
 30
0
  0
VERTEX
  8
LAYER_2
 10
138.3545
 20
-132.3982
  0
VERTEX
  8
LAYER_2
 10
138.3545
 20
-133.0909
  0
SEQEND
  0
POLYLINE
  8
LAYER_2
 40
0.0353
 41
0.0353
 66
1
 10
0
 20
0
 30
0
  0
VERTEX
  8
LAYER_2
 10
134.0423
 20
-132.2735
  0
VERTEX
  8
LAYER_2
 10
134.0423
 20
-133.0638
  0
SEQEND
  0
POLYLINE
  8
LAYER_2
 40
0.0353
 41
0.0353
 66
1
 10
0
 20
0
 30
0
  0
VERTEX
  8
LAYER_2
 10
132.5337
 20
-144.6511
  0
VERTEX
  8
LAYER_2
 10
137.3651
 20
-140.6913
  0
VERTEX
  8
LAYER_2
 10
137.3651
 20
-150.1241
  0
VERTEX
  8
LAYER_2
 10
141.1377
 20
-150.1243
  0
VERTEX
  8
LAYER_2
 10
141.1377
 20
-148.8481
  0
VERTEX
  8
LAYER_2
 10
141.1377
 20
-148.4215
  0
VERTEX
  8
LAYER_2
 10
141.1377
 20
-140.048
  0
VERTEX
  8
LAYER_2
 10
141.1377
 20
-139.8058
  0
VERTEX
  8
LAYER_2
 10
141.1377
 20
-139.3854
  0
VERTEX
  8
LAYER_2
 10
141.1377
 20
-138.8502
  0
VERTEX
  8
LAYER_2
 10
141.1377
 20
-138.2893
  0
VERTEX
  8
LAYER_2
 10
141.1377
 20
-137.8686
  0
VERTEX
  8
LAYER_2
 10
141.1377
 20
-137.448
  0
VERTEX
  8
LAYER_2
 10
141.1377
 20
-137.295
  0
VERTEX
  8
LAYER_2
 10
141.1377
 20
-136.0335
  0
VERTEX
  8
LAYER_2
 10
141.1377
 20
-135.957
  0
VERTEX
  8
LAYER_2
 10
141.0229
 20
-135.957
  0
VERTEX
  8
LAYER_2
 10
140.897
 20
-135.957
  0
VERTEX
  8
LAYER_2
 10
140.8945
 20
-135.9161
  0
VERTEX
  8
LAYER_2
 10
140.8911
 20
-135.8756
  0
VERTEX
  8
LAYER_2
 10
140.8863
 20
-135.8345
  0
VERTEX
  8
LAYER_2
 10
140.8669
 20
-135.7452
  0
VERTEX
  8
LAYER_2
 10
140.8514
 20
-135.6927
  0
VERTEX
  8
LAYER_2
 10
140.2776
 20
-135.8041
  0
VERTEX
  8
LAYER_2
 10
139.9906
 20
-135.8041
  0
VERTEX
  8
LAYER_2
 10
139.7994
 20
-135.8168
  0
VERTEX
  8
LAYER_2
 10
139.6082
 20
-135.8168
  0
VERTEX
  8
LAYER_2
 10
139.4043
 20
-135.8168
  0
VERTEX
  8
LAYER_2
 10
139.2513
 20
-135.8168
  0
VERTEX
  8
LAYER_2
 10
139.0856
 20
-135.8168
  0
VERTEX
  8
LAYER_2
 10
138.8817
 20
-135.8168
  0
VERTEX
  8
LAYER_2
 10
138.6207
 20
-135.8121
  0
VERTEX
  8
LAYER_2
 10
138.168
 20
-135.8041
  0
VERTEX
  8
LAYER_2
 10
138.117
 20
-135.8041
  0
VERTEX
  8
LAYER_2
 10
137.7985
 20
-135.8041
  0
VERTEX
  8
LAYER_2
 10
137.6135
 20
-135.8041
  0
SEQEND
  0
POLYLINE
  8
LAYER_2
 40
0.0353
 41
0.0353
 66
1
 10
0
 20
0
 30
0
 70
1
  0
VERTEX
  8
LAYER_2
 10
130.7155
 20
-143.4154
  0
VERTEX
  8
LAYER_2
 10
130.7113
 20
-143.3229
  0
VERTEX
  8
LAYER_2
 10
130.7228
 20
-143.1706
 42
-0.07240616008
  0
VERTEX
  8
LAYER_2
 10
130.7916
 20
-142.9513
 42
-0.1058660034
  0
VERTEX
  8
LAYER_2
 10
130.9627
 20
-142.7343
 42
-0.1247691941
  0
VERTEX
  8
LAYER_2
 10
131.251
 20
-142.5993
  0
VERTEX
  8
LAYER_2
 10
131.4062
 20
-142.5839
  0
VERTEX
  8
LAYER_2
 10
131.4829
 20
-142.5876
 42
-0.06359672445
  0
VERTEX
  8
LAYER_2
 10
131.7254
 20
-142.6406
 42
-0.07145260696
  0
VERTEX
  8
LAYER_2
 10
132.0328
 20
-142.7987
 42
-0.07073770255
  0
VERTEX
  8
LAYER_2
 10
132.3295
 20
-143.0744
 42
-0.08401937145
  0
VERTEX
  8
LAYER_2
 10
132.5757
 20
-143.5057
 42
-0.06158678916
  0
VERTEX
  8
LAYER_2
 10
132.6418
 20
-143.8004
  0
VERTEX
  8
LAYER_2
 10
132.6461
 20
-143.8928
  0
VERTEX
  8
LAYER_2
 10
132.6345
 20
-144.0451
 42
-0.07264905094
  0
VERTEX
  8
LAYER_2
 10
132.5657
 20
-144.2644
 42
-0.1060097747
  0
VERTEX
  8
LAYER_2
 10
132.3946
 20
-144.4814
 42
-0.1247691941
  0
VERTEX
  8
LAYER_2
 10
132.1063
 20
-144.6164
  0
VERTEX
  8
LAYER_2
 10
131.9513
 20
-144.6319
  0
VERTEX
  8
LAYER_2
 10
131.8744
 20
-144.6281
 42
-0.06359672445
  0
VERTEX
  8
LAYER_2
 10
131.6319
 20
-144.5751
 42
-0.06380042322
  0
VERTEX
  8
LAYER_2
 10
131.3577
 20
-144.4394
 42
-0.07877341495
  0
VERTEX
  8
LAYER_2
 10
131.0278
 20
-144.1413
 42
-0.08404736263
  0
VERTEX
  8
LAYER_2
 10
130.7816
 20
-143.71
 42
-0.06109446201
  0
SEQEND
  0
POLYLINE
  8
LAYER_2
 40
0.0353
 41
0.0353
 66
1
 10
0
 20
0
 30
0
  0
VERTEX
  8
LAYER_2
 10
130.8236
 20
-142.5646
 42
0.1059425179
  0
VERTEX
  8
LAYER_2
 10
130.6192
 20
-142.8237
 42
0.08143097441
  0
VERTEX
  8
LAYER_2
 10
130.5314
 20
-143.1259
  0
VERTEX
  8
LAYER_2
 10
130.5234
 20
-143.2666
  0
VERTEX
  8
LAYER_2
 10
130.5331
 20
-143.4213
 42
0.06077125335
  0
VERTEX
  8
LAYER_2
 10
130.6238
 20
-143.7741
 42
0.07706993989
  0
VERTEX
  8
LAYER_2
 10
130.9014
 20
-144.2449
  0
VERTEX
  8
LAYER_2
 10
131.0527
 20
-144.4081
 42
0.0677676566
  0
VERTEX
  8
LAYER_2
 10
131.4028
 20
-144.6653
 42
0.05750154035
  0
VERTEX
  8
LAYER_2
 10
131.6921
 20
-144.785
 42
0.05554816416
  0
VERTEX
  8
LAYER_2
 10
131.9396
 20
-144.8284
  0
VERTEX
  8
LAYER_2
 10
132.0049
 20
-144.8307
  0
VERTEX
  8
LAYER_2
 10
132.164
 20
-144.8171
 42
0.1322822947
  0
VERTEX
  8
LAYER_2
 10
132.5337
 20
-144.6511
 42
0.1097241108
  0
VERTEX
  8
LAYER_2
 10
132.7437
 20
-144.3804
 42
0.07793737105
  0
VERTEX
  8
LAYER_2
 10
132.826
 20
-144.0899
  0
VERTEX
  8
LAYER_2
 10
132.8339
 20
-143.9492
  0
VERTEX
  8
LAYER_2
 10
132.8243
 20
-143.7944
 42
0.06067591924
  0
VERTEX
  8
LAYER_2
 10
132.7335
 20
-143.4417
 42
0.07704931607
  0
VERTEX
  8
LAYER_2
 10
132.456
 20
-142.9708
  0
VERTEX
  8
LAYER_2
 10
132.3168
 20
-142.8192
 42
0.06747664944
  0
VERTEX
  8
LAYER_2
 10
131.9681
 20
-142.5579
 42
0.05727139784
  0
VERTEX
  8
LAYER_2
 10
131.6791
 20
-142.4348
 42
0.05516189709
  0
VERTEX
  8
LAYER_2
 10
131.4313
 20
-142.3883
  0
VERTEX
  8
LAYER_2
 10
131.3529
 20
-142.385
  0
VERTEX
  8
LAYER_2
 10
131.1933
 20
-142.3986
 42
0.1322561556
  0
VERTEX
  8
LAYER_2
 10
130.8236
 20
-142.5646
  0
VERTEX
  8
LAYER_2
 10
137.2143
 20
-137.3971
 42
0.1088267059
  0
VERTEX
  8
LAYER_2
 10
137.3093
 20
-137.2821
  0
VERTEX
  8
LAYER_2
 10
137.345
 20
-137.1855
  0
VERTEX
  8
LAYER_2
 10
137.3605
 20
-137.0949
  0
VERTEX
  8
LAYER_2
 10
137.3651
 20
-136.9988
  0
VERTEX
  8
LAYER_2
 10
137.3651
 20
-136.9985
  0
VERTEX
  8
LAYER_2
 10
137.3651
 20
-135.957
  0
VERTEX
  8
LAYER_2
 10
137.4799
 20
-135.957
  0
VERTEX
  8
LAYER_2
 10
137.5944
 20
-135.957
  0
VERTEX
  8
LAYER_2
 10
137.6135
 20
-135.8041
  0
VERTEX
  8
LAYER_2
 10
137.5691
 20
-135.8041
  0
VERTEX
  8
LAYER_2
 10
137.4161
 20
-135.8041
  0
VERTEX
  8
LAYER_2
 10
137.3779
 20
-135.8041
  0
VERTEX
  8
LAYER_2
 10
137.3779
 20
-135.7404
  0
VERTEX
  8
LAYER_2
 10
137.3779
 20
-133.1638
  0
VERTEX
  8
LAYER_2
 10
137.5347
 20
-133.1658
  0
VERTEX
  8
LAYER_2
 10
138.0573
 20
-133.1658
  0
VERTEX
  8
LAYER_2
 10
138.1593
 20
-133.1913
  0
VERTEX
  8
LAYER_2
 10
138.2357
 20
-133.2296
  0
VERTEX
  8
LAYER_2
 10
138.2867
 20
-133.2933
  0
VERTEX
  8
LAYER_2
 10
138.3248
 20
-133.3698
  0
VERTEX
  8
LAYER_2
 10
138.3248
 20
-133.4717
  0
SEQEND
  0
POLYLINE
  8
LAYER_2
 40
0.0353
 41
0.0353
 66
1
 10
0
 20
0
 30
0
  0
VERTEX
  8
LAYER_2
 10
137.3652
 20
-140.7123
  0
VERTEX
  8
LAYER_2
 10
137.3652
 20
-149.7835
  0
VERTEX
  8
LAYER_2
 10
137.3652
 20
-149.822
  0
VERTEX
  8
LAYER_2
 10
137.3269
 20
-149.9745
  0
VERTEX
  8
LAYER_2
 10
137.2122
 20
-150.0765
  0
VERTEX
  8
LAYER_2
 10
136.9897
 20
-150.1145
  0
VERTEX
  8
LAYER_2
 10
136.9514
 20
-150.1275
  0
SEQEND
  0
POLYLINE
  8
LAYER_2
 40
0.0353
 41
0.0353
 66
1
 10
0
 20
0
 30
0
  0
VERTEX
  8
LAYER_2
 10
141.5515
 20
-150.1275
  0
VERTEX
  8
LAYER_2
 10
136.9514
 20
-150.1275
  0
VERTEX
  8
LAYER_2
 10
136.9514
 20
-150.1655
  0
VERTEX
  8
LAYER_2
 10
136.9514
 20
-150.497
  0
VERTEX
  8
LAYER_2
 10
136.9514
 20
-150.5225
  0
VERTEX
  8
LAYER_2
 10
141.5515
 20
-150.5225
  0
VERTEX
  8
LAYER_2
 10
141.5515
 20
-150.497
  0
VERTEX
  8
LAYER_2
 10
141.5515
 20
-150.1655
  0
VERTEX
  8
LAYER_2
 10
141.5515
 20
-150.1275
  0
VERTEX
  8
LAYER_2
 10
141.4819
 20
-150.1145
  0
VERTEX
  8
LAYER_2
 10
141.2905
 20
-150.0765
  0
VERTEX
  8
LAYER_2
 10
141.1759
 20
-149.9745
  0
VERTEX
  8
LAYER_2
 10
141.1377
 20
-149.822
  0
VERTEX
  8
LAYER_2
 10
141.1377
 20
-149.7835
  0
VERTEX
  8
LAYER_2
 10
141.1377
 20
-137.5482
  0
SEQEND
  0
ENDBLK
  0
BLOCK
  8
LAYER_2
  2
AIGNBL02010004
 70
64
 10
0
 20
0
 30
0
  3
AIGNBL02010004
  0
POLYLINE
  8
LAYER_2
 40
0.0353
 41
0.0353
 66
1
 10
0
 20
0
 30
0
  0
VERTEX
  8
LAYER_2
 10
237.4065
 20
-150.0174
  0
VERTEX
  8
LAYER_2
 10
237.4065
 20
-140.5974
  0
SEQEND
  0
POLYLINE
  8
LAYER_2
 40
0.0353
 41
0.0353
 66
1
 10
0
 20
0
 30
0
  0
VERTEX
  8
LAYER_2
 10
241.1888
 20
-150.0174
  0
VERTEX
  8
LAYER_2
 10
241.2046
 20
-149.9592
  0
SEQEND
  0
POLYLINE
  8
LAYER_2
 40
0.0353
 41
0.0353
 66
1
 10
0
 20
0
 30
0
  0
VERTEX
  8
LAYER_2
 10
241.2046
 20
-148.3413
  0
VERTEX
  8
LAYER_2
 10
241.2046
 20
-138.7459
  0
VERTEX
  8
LAYER_2
 10
241.2046
 20
-138.185
  0
VERTEX
  8
LAYER_2
 10
241.2046
 20
-137.7643
  0
VERTEX
  8
LAYER_2
 10
241.2046
 20
-137.3437
  0
VERTEX
  8
LAYER_2
 10
241.2046
 20
-137.1907
  0
VERTEX
  8
LAYER_2
 10
241.2046
 20
-135.9291
  0
VERTEX
  8
LAYER_2
 10
241.2046
 20
-135.8526
  0
VERTEX
  8
LAYER_2
 10
241.1409
 20
-135.8526
  0
VERTEX
  8
LAYER_2
 10
240.9753
 20
-135.8526
  0
SEQEND
  0
POLYLINE
  8
LAYER_2
 40
0.0353
 41
0.0353
 66
1
 10
0
 20
0
 30
0
  0
VERTEX
  8
LAYER_2
 10
237.534
 20
-133.0869
  0
VERTEX
  8
LAYER_2
 10
237.534
 20
-135.6487
  0
VERTEX
  8
LAYER_2
 10
237.534
 20
-135.7124
  0
VERTEX
  8
LAYER_2
 10
237.5468
 20
-135.7124
  0
VERTEX
  8
LAYER_2
 10
237.5723
 20
-135.7124
  0
VERTEX
  8
LAYER_2
 10
237.6232
 20
-135.7124
  0
SEQEND
  0
POLYLINE
  8
LAYER_2
 40
0.0353
 41
0.0353
 66
1
 10
0
 20
0
 30
0
  0
VERTEX
  8
LAYER_2
 10
237.8654
 20
-135.8526
  0
VERTEX
  8
LAYER_2
 10
237.6232
 20
-135.8526
  0
VERTEX
  8
LAYER_2
 10
237.483
 20
-135.8526
  0
VERTEX
  8
LAYER_2
 10
237.432
 20
-135.8526
  0
VERTEX
  8
LAYER_2
 10
237.4065
 20
-135.8526
  0
VERTEX
  8
LAYER_2
 10
237.4065
 20
-135.9291
  0
VERTEX
  8
LAYER_2
 10
237.4065
 20
-137.1775
  0
VERTEX
  8
LAYER_2
 10
230.8779
 20
-142.4602
 42
0.1058643406
  0
VERTEX
  8
LAYER_2
 10
230.6735
 20
-142.7194
 42
0.08143616982
  0
VERTEX
  8
LAYER_2
 10
230.5857
 20
-143.0215
  0
VERTEX
  8
LAYER_2
 10
230.5777
 20
-143.1622
  0
VERTEX
  8
LAYER_2
 10
230.5874
 20
-143.317
 42
0.0608537184
  0
VERTEX
  8
LAYER_2
 10
230.6781
 20
-143.6697
 42
0.07708938831
  0
VERTEX
  8
LAYER_2
 10
230.9557
 20
-144.1406
  0
VERTEX
  8
LAYER_2
 10
231.107
 20
-144.3038
 42
0.06764594788
  0
VERTEX
  8
LAYER_2
 10
231.4571
 20
-144.561
 42
0.05731948578
  0
VERTEX
  8
LAYER_2
 10
231.7464
 20
-144.6806
 42
0.05600111924
  0
VERTEX
  8
LAYER_2
 10
231.9939
 20
-144.724
  0
VERTEX
  8
LAYER_2
 10
232.0592
 20
-144.7263
  0
VERTEX
  8
LAYER_2
 10
232.2183
 20
-144.7128
 42
0.132315686
  0
VERTEX
  8
LAYER_2
 10
232.5881
 20
-144.5468
  0
VERTEX
  8
LAYER_2
 10
237.4065
 20
-140.5974
  0
VERTEX
  8
LAYER_2
 10
237.4065
 20
-138.8534
  0
VERTEX
  8
LAYER_2
 10
237.4065
 20
-137.1775
  0
SEQEND
  0
POLYLINE
  8
LAYER_2
 40
0.0353
 41
0.0353
 66
1
 10
0
 20
0
 30
0
  0
VERTEX
  8
LAYER_2
 10
240.9649
 20
-135.2771
  0
VERTEX
  8
LAYER_2
 10
241.06
 20
-135.2318
  0
VERTEX
  8
LAYER_2
 10
241.1576
 20
-135.1661
  0
VERTEX
  8
LAYER_2
 10
241.2241
 20
-135.1003
  0
VERTEX
  8
LAYER_2
 10
241.2705
 20
-135.0271
 42
0.111051688
  0
VERTEX
  8
LAYER_2
 10
241.2938
 20
-134.9236
  0
SEQEND
  0
POLYLINE
  8
LAYER_2
 40
0.0353
 41
0.0353
 66
1
 10
0
 20
0
 30
0
  0
VERTEX
  8
LAYER_2
 10
240.8563
 20
-134.8459
  0
VERTEX
  8
LAYER_2
 10
241.016
 20
-134.8554
  0
VERTEX
  8
LAYER_2
 10
241.1234
 20
-134.8672
  0
VERTEX
  8
LAYER_2
 10
241.1989
 20
-134.8798
  0
VERTEX
  8
LAYER_2
 10
241.2287
 20
-134.8867
  0
VERTEX
  8
LAYER_2
 10
241.248
 20
-134.8922
  0
VERTEX
  8
LAYER_2
 10
241.2643
 20
-134.8981
  0
VERTEX
  8
LAYER_2
 10
241.2754
 20
-134.9032
  0
VERTEX
  8
LAYER_2
 10
241.2825
 20
-134.9075
  0
VERTEX
  8
LAYER_2
 10
241.2917
 20
-134.9165
  0
VERTEX
  8
LAYER_2
 10
241.2938
 20
-134.9235
  0
VERTEX
  8
LAYER_2
 10
241.2938
 20
-134.9236
  0
VERTEX
  8
LAYER_2
 10
241.2938
 20
-134.8074
  0
VERTEX
  8
LAYER_2
 10
241.2938
 20
-133.1379
  0
VERTEX
  8
LAYER_2
 10
241.2938
 20
-132.4623
  0
VERTEX
  8
LAYER_2
 10
241.2938
 20
-132.3221
  0
VERTEX
  8
LAYER_2
 10
241.2938
 20
-132.182
  0
VERTEX
  8
LAYER_2
 10
241.2938
 20
-132.1691
  0
VERTEX
  8
LAYER_2
 10
241.2938
 20
-132.1311
  0
VERTEX
  8
LAYER_2
 10
241.2683
 20
-132.1181
  0
VERTEX
  8
LAYER_2
 10
241.2174
 20
-132.1181
  0
VERTEX
  8
LAYER_2
 10
241.0899
 20
-132.1181
  0
VERTEX
  8
LAYER_2
 10
240.8604
 20
-132.1181
  0
VERTEX
  8
LAYER_2
 10
240.5674
 20
-132.1181
  0
VERTEX
  8
LAYER_2
 10
240.2105
 20
-132.1181
  0
VERTEX
  8
LAYER_2
 10
239.8154
 20
-132.1181
  0
VERTEX
  8
LAYER_2
 10
239.4076
 20
-132.1181
  0
VERTEX
  8
LAYER_2
 10
239.3138
 20
-132.1181
  0
VERTEX
  8
LAYER_2
 10
239.0252
 20
-132.1181
  0
VERTEX
  8
LAYER_2
 10
238.6173
 20
-132.1181
  0
VERTEX
  8
LAYER_2
 10
238.2477
 20
-132.1181
  0
VERTEX
  8
LAYER_2
 10
237.9419
 20
-132.1181
  0
VERTEX
  8
LAYER_2
 10
237.7252
 20
-132.1181
  0
VERTEX
  8
LAYER_2
 10
237.6742
 20
-132.1181
  0
VERTEX
  8
LAYER_2
 10
237.6105
 20
-132.1181
  0
VERTEX
  8
LAYER_2
 10
237.5595
 20
-132.1181
  0
VERTEX
  8
LAYER_2
 10
237.5214
 20
-132.1181
  0
VERTEX
  8
LAYER_2
 10
237.4065
 20
-132.1181
  0
VERTEX
  8
LAYER_2
 10
237.2665
 20
-132.1181
  0
VERTEX
  8
LAYER_2
 10
236.7439
 20
-132.1181
  0
VERTEX
  8
LAYER_2
 10
233.6115
 20
-132.1181
  0
VERTEX
  8
LAYER_2
 10
233.586
 20
-132.1181
  0
VERTEX
  8
LAYER_2
 10
233.5733
 20
-132.1181
  0
VERTEX
  8
LAYER_2
 10
233.5606
 20
-132.1181
  0
VERTEX
  8
LAYER_2
 10
233.5351
 20
-132.1311
  0
VERTEX
  8
LAYER_2
 10
233.5351
 20
-132.1691
  0
VERTEX
  8
LAYER_2
 10
233.5351
 20
-132.2075
  0
VERTEX
  8
LAYER_2
 10
233.5351
 20
-132.3476
  0
VERTEX
  8
LAYER_2
 10
233.5351
 20
-132.5006
  0
VERTEX
  8
LAYER_2
 10
233.5351
 20
-132.6408
  0
VERTEX
  8
LAYER_2
 10
233.5351
 20
-132.781
  0
VERTEX
  8
LAYER_2
 10
233.5351
 20
-132.8702
  0
VERTEX
  8
LAYER_2
 10
233.5351
 20
-132.9339
  0
VERTEX
  8
LAYER_2
 10
233.5351
 20
-132.9594
  0
VERTEX
  8
LAYER_2
 10
233.5606
 20
-132.9849
  0
VERTEX
  8
LAYER_2
 10
233.5733
 20
-133.0104
  0
VERTEX
  8
LAYER_2
 10
233.6115
 20
-133.0104
  0
VERTEX
  8
LAYER_2
 10
236.7439
 20
-133.0869
  0
VERTEX
  8
LAYER_2
 10
237.534
 20
-133.0869
  0
VERTEX
  8
LAYER_2
 10
237.534
 20
-132.1311
  0
VERTEX
  8
LAYER_2
 10
237.5595
 20
-132.1181
  0
SEQEND
  0
POLYLINE
  8
LAYER_2
 40
0.0353
 41
0.0353
 66
1
 10
0
 20
0
 30
0
 70
1
  0
VERTEX
  8
LAYER_2
 10
239.5185
 20
-135.2502
  0
VERTEX
  8
LAYER_2
 10
239.7501
 20
-135.1468
  0
VERTEX
  8
LAYER_2
 10
239.9565
 20
-135.0587
  0
VERTEX
  8
LAYER_2
 10
240.1178
 20
-134.9951
  0
VERTEX
  8
LAYER_2
 10
240.3136
 20
-134.9277
  0
VERTEX
  8
LAYER_2
 10
240.5385
 20
-134.8702
  0
VERTEX
  8
LAYER_2
 10
240.7161
 20
-134.8467
  0
VERTEX
  8
LAYER_2
 10
240.7843
 20
-134.8445
  0
VERTEX
  8
LAYER_2
 10
240.8563
 20
-134.8459
  0
VERTEX
  8
LAYER_2
 10
240.8995
 20
-134.9418
  0
VERTEX
  8
LAYER_2
 10
240.9362
 20
-135.0736
  0
VERTEX
  8
LAYER_2
 10
240.9591
 20
-135.2182
  0
VERTEX
  8
LAYER_2
 10
240.9649
 20
-135.2771
  0
VERTEX
  8
LAYER_2
 10
240.9722
 20
-135.3872
  0
VERTEX
  8
LAYER_2
 10
240.9763
 20
-135.541
  0
VERTEX
  8
LAYER_2
 10
240.9767
 20
-135.6284
  0
VERTEX
  8
LAYER_2
 10
240.9758
 20
-135.7621
  0
VERTEX
  8
LAYER_2
 10
240.9753
 20
-135.8526
  0
VERTEX
  8
LAYER_2
 10
240.7204
 20
-135.8526
  0
VERTEX
  8
LAYER_2
 10
240.3762
 20
-135.8526
  0
VERTEX
  8
LAYER_2
 10
239.9683
 20
-135.8526
  0
VERTEX
  8
LAYER_2
 10
239.5224
 20
-135.8526
  0
VERTEX
  8
LAYER_2
 10
239.3138
 20
-135.8526
  0
VERTEX
  8
LAYER_2
 10
239.0635
 20
-135.8526
  0
VERTEX
  8
LAYER_2
 10
238.6301
 20
-135.8526
  0
VERTEX
  8
LAYER_2
 10
238.2222
 20
-135.8526
  0
VERTEX
  8
LAYER_2
 10
237.8782
 20
-135.8526
  0
VERTEX
  8
LAYER_2
 10
237.8654
 20
-135.8526
  0
VERTEX
  8
LAYER_2
 10
237.8782
 20
-135.7124
  0
VERTEX
  8
LAYER_2
 10
237.6997
 20
-135.7124
  0
VERTEX
  8
LAYER_2
 10
237.6232
 20
-135.7124
  0
VERTEX
  8
LAYER_2
 10
237.6997
 20
-135.6997
  0
VERTEX
  8
LAYER_2
 10
238.1796
 20
-135.6997
  0
VERTEX
  8
LAYER_2
 10
238.4283
 20
-135.6592
  0
VERTEX
  8
LAYER_2
 10
238.6611
 20
-135.5964
  0
VERTEX
  8
LAYER_2
 10
238.8536
 20
-135.5308
  0
VERTEX
  8
LAYER_2
 10
239.1117
 20
-135.4288
  0
VERTEX
  8
LAYER_2
 10
239.3138
 20
-135.3417
  0
VERTEX
  8
LAYER_2
 10
239.3265
 20
-135.3361
  0
SEQEND
  0
POLYLINE
  8
LAYER_2
 40
0.0353
 41
0.0353
 66
1
 10
0
 20
0
 30
0
  0
VERTEX
  8
LAYER_2
 10
232.6007
 20
-144.5441
  0
VERTEX
  8
LAYER_2
 10
237.432
 20
-140.5843
  0
VERTEX
  8
LAYER_2
 10
237.432
 20
-150.0171
  0
VERTEX
  8
LAYER_2
 10
241.2046
 20
-150.0173
  0
VERTEX
  8
LAYER_2
 10
241.2046
 20
-148.7411
  0
VERTEX
  8
LAYER_2
 10
241.2046
 20
-148.3145
  0
VERTEX
  8
LAYER_2
 10
241.2046
 20
-139.941
  0
VERTEX
  8
LAYER_2
 10
241.2046
 20
-139.6988
  0
VERTEX
  8
LAYER_2
 10
241.2046
 20
-139.2784
  0
VERTEX
  8
LAYER_2
 10
241.2046
 20
-138.7432
  0
VERTEX
  8
LAYER_2
 10
241.2046
 20
-138.1823
  0
VERTEX
  8
LAYER_2
 10
241.2046
 20
-137.7616
  0
VERTEX
  8
LAYER_2
 10
241.2046
 20
-137.341
  0
VERTEX
  8
LAYER_2
 10
241.2046
 20
-137.188
  0
VERTEX
  8
LAYER_2
 10
241.2046
 20
-135.9264
  0
VERTEX
  8
LAYER_2
 10
241.2046
 20
-135.8499
  0
VERTEX
  8
LAYER_2
 10
241.0899
 20
-135.8499
  0
VERTEX
  8
LAYER_2
 10
240.9639
 20
-135.8499
  0
VERTEX
  8
LAYER_2
 10
240.9614
 20
-135.809
  0
VERTEX
  8
LAYER_2
 10
240.958
 20
-135.7685
  0
VERTEX
  8
LAYER_2
 10
240.9533
 20
-135.7274
  0
VERTEX
  8
LAYER_2
 10
240.9338
 20
-135.6381
  0
VERTEX
  8
LAYER_2
 10
240.9183
 20
-135.5857
  0
VERTEX
  8
LAYER_2
 10
240.3445
 20
-135.697
  0
VERTEX
  8
LAYER_2
 10
240.0575
 20
-135.697
  0
VERTEX
  8
LAYER_2
 10
239.8663
 20
-135.7097
  0
VERTEX
  8
LAYER_2
 10
239.6751
 20
-135.7097
  0
VERTEX
  8
LAYER_2
 10
239.4712
 20
-135.7097
  0
VERTEX
  8
LAYER_2
 10
239.3182
 20
-135.7097
  0
VERTEX
  8
LAYER_2
 10
239.1525
 20
-135.7097
  0
VERTEX
  8
LAYER_2
 10
238.9486
 20
-135.7097
  0
VERTEX
  8
LAYER_2
 10
238.6876
 20
-135.7051
  0
VERTEX
  8
LAYER_2
 10
238.2349
 20
-135.697
  0
VERTEX
  8
LAYER_2
 10
238.1839
 20
-135.697
  0
VERTEX
  8
LAYER_2
 10
237.8654
 20
-135.697
  0
VERTEX
  8
LAYER_2
 10
237.6804
 20
-135.697
  0
SEQEND
  0
POLYLINE
  8
LAYER_2
 40
0.0353
 41
0.0353
 66
1
 10
0
 20
0
 30
0
  0
VERTEX
  8
LAYER_2
 10
237.4321
 20
-140.6052
  0
VERTEX
  8
LAYER_2
 10
237.4321
 20
-149.6765
  0
VERTEX
  8
LAYER_2
 10
237.4321
 20
-149.715
  0
VERTEX
  8
LAYER_2
 10
237.3938
 20
-149.8675
  0
VERTEX
  8
LAYER_2
 10
237.2791
 20
-149.9695
  0
VERTEX
  8
LAYER_2
 10
237.0566
 20
-150.0075
  0
VERTEX
  8
LAYER_2
 10
237.0183
 20
-150.0205
  0
SEQEND
  0
POLYLINE
  8
LAYER_2
 40
0.0353
 41
0.0353
 66
1
 10
0
 20
0
 30
0
  0
VERTEX
  8
LAYER_2
 10
241.6184
 20
-150.0205
  0
VERTEX
  8
LAYER_2
 10
237.0183
 20
-150.0205
  0
VERTEX
  8
LAYER_2
 10
237.0183
 20
-150.0585
  0
VERTEX
  8
LAYER_2
 10
237.0183
 20
-150.39
  0
VERTEX
  8
LAYER_2
 10
237.0183
 20
-150.4155
  0
VERTEX
  8
LAYER_2
 10
241.6184
 20
-150.4155
  0
VERTEX
  8
LAYER_2
 10
241.6184
 20
-150.39
  0
VERTEX
  8
LAYER_2
 10
241.6184
 20
-150.0585
  0
VERTEX
  8
LAYER_2
 10
241.6184
 20
-150.0205
  0
VERTEX
  8
LAYER_2
 10
241.5488
 20
-150.0075
  0
VERTEX
  8
LAYER_2
 10
241.3574
 20
-149.9695
  0
VERTEX
  8
LAYER_2
 10
241.2428
 20
-149.8675
  0
VERTEX
  8
LAYER_2
 10
241.2046
 20
-149.715
  0
VERTEX
  8
LAYER_2
 10
241.2046
 20
-149.6765
  0
VERTEX
  8
LAYER_2
 10
241.2046
 20
-137.4412
  0
SEQEND
  0
ENDBLK
  0
BLOCK
  8
LAYER_3
  2
AIGNBL03010002
 70
64
 10
0
 20
0
 30
0
  3
AIGNBL03010002
  0
POLYLINE
  8
LAYER_3
 40
0.1764
 41
0.1764
 62
4
 66
1
 10
0
 20
0
 30
0
  0
VERTEX
  8
LAYER_3
 10
250.9159
 20
-176.0892
  0
VERTEX
  8
LAYER_3
 10
232.3727
 20
-176.0892
  0
SEQEND
  0
POLYLINE
  8
LAYER_3
 40
0.1764
 41
0.1764
 62
4
 66
1
 10
0
 20
0
 30
0
 70
1
  0
VERTEX
  8
LAYER_3
 10
220.1805
 20
-172.4921
  0
VERTEX
  8
LAYER_3
 10
225.0802
 20
-172.4921
  0
VERTEX
  8
LAYER_3
 10
225.0802
 20
-174.3924
  0
VERTEX
  8
LAYER_3
 10
220.1805
 20
-174.3924
  0
SEQEND
  0
POLYLINE
  8
LAYER_3
 40
0.1764
 41
0.1764
 62
4
 66
1
 10
0
 20
0
 30
0
  0
VERTEX
  8
LAYER_3
 10
220.3294
 20
-172.0911
  0
VERTEX
  8
LAYER_3
 10
220.6821
 20
-172.0911
  0
SEQEND
  0
POLYLINE
  8
LAYER_3
 40
0.1764
 41
0.1764
 62
4
 66
1
 10
0
 20
0
 30
0
  0
VERTEX
  8
LAYER_3
 10
221.4607
 20
-172.0911
  0
VERTEX
  8
LAYER_3
 10
224.1865
 20
-172.0911
  0
SEQEND
  0
POLYLINE
  8
LAYER_3
 40
0.1764
 41
0.1764
 62
4
 66
1
 10
0
 20
0
 30
0
  0
VERTEX
  8
LAYER_3
 10
224.5758
 20
-172.0911
  0
VERTEX
  8
LAYER_3
 10
224.9286
 20
-172.0911
  0
SEQEND
  0
POLYLINE
  8
LAYER_3
 40
0.1764
 41
0.1764
 62
4
 66
1
 10
0
 20
0
 30
0
  0
VERTEX
  8
LAYER_3
 10
224.6268
 20
-172.0918
  0
VERTEX
  8
LAYER_3
 10
220.2315
 20
-172.0918
  0
SEQEND
  0
POLYLINE
  8
LAYER_3
 40
0.1764
 41
0.1764
 62
4
 66
1
 10
0
 20
0
 30
0
  0
VERTEX
  8
LAYER_3
 10
220.5319
 20
-172.4921
  0
VERTEX
  8
LAYER_3
 10
220.1792
 20
-172.4921
  0
VERTEX
  8
LAYER_3
 10
220.1792
 20
-172.0911
  0
VERTEX
  8
LAYER_3
 10
220.5319
 20
-172.0911
  0
SEQEND
  0
POLYLINE
  8
LAYER_3
 40
0.1764
 41
0.1764
 62
4
 66
1
 10
0
 20
0
 30
0
  0
VERTEX
  8
LAYER_3
 10
221.1307
 20
-172.0911
  0
VERTEX
  8
LAYER_3
 10
224.427
 20
-172.0911
  0
SEQEND
  0
POLYLINE
  8
LAYER_3
 40
0.1764
 41
0.1764
 62
4
 66
1
 10
0
 20
0
 30
0
  0
VERTEX
  8
LAYER_3
 10
224.7267
 20
-172.0911
  0
VERTEX
  8
LAYER_3
 10
225.0788
 20
-172.0911
  0
VERTEX
  8
LAYER_3
 10
225.0788
 20
-172.4928
  0
VERTEX
  8
LAYER_3
 10
224.7267
 20
-172.4928
  0
SEQEND
  0
POLYLINE
  8
LAYER_3
 40
0.1764
 41
0.1764
 62
4
 66
1
 10
0
 20
0
 30
0
  0
VERTEX
  8
LAYER_3
 10
224.7267
 20
-172.4921
  0
VERTEX
  8
LAYER_3
 10
220.4779
 20
-172.4921
  0
SEQEND
  0
POLYLINE
  8
LAYER_3
 40
0.1764
 41
0.1764
 62
4
 66
1
 10
0
 20
0
 30
0
  0
VERTEX
  8
LAYER_3
 10
220.3294
 20
-172.0911
  0
VERTEX
  8
LAYER_3
 10
220.6821
 20
-172.0911
  0
SEQEND
  0
POLYLINE
  8
LAYER_3
 40
0.1764
 41
0.1764
 62
4
 66
1
 10
0
 20
0
 30
0
  0
VERTEX
  8
LAYER_3
 10
221.4607
 20
-172.0911
  0
VERTEX
  8
LAYER_3
 10
224.1865
 20
-172.0911
  0
SEQEND
  0
INSERT
  8
LAYER_3
  2
AIGNBL03020003
 10
0
 20
0
 30
0
  0
POLYLINE
  8
LAYER_3
 40
0.1764
 41
0.1764
 62
4
 66
1
 10
0
 20
0
 30
0
  0
VERTEX
  8
LAYER_3
 10
221.4204
 20
-181.5848
  0
VERTEX
  8
LAYER_3
 10
227.6905
 20
-181.5848
  0
SEQEND
  0
POLYLINE
  8
LAYER_3
 40
0.1764
 41
0.1764
 62
4
 66
1
 10
0
 20
0
 30
0
  0
VERTEX
  8
LAYER_3
 10
220.9801
 20
-181.1448
  0
VERTEX
  8
LAYER_3
 10
220.9801
 20
-176.6349
  0
SEQEND
  0
POLYLINE
  8
LAYER_3
 40
0.1764
 41
0.1764
 62
4
 66
1
 10
0
 20
0
 30
0
  0
VERTEX
  8
LAYER_3
 10
224.2805
 20
-176.6349
  0
VERTEX
  8
LAYER_3
 10
224.2805
 20
-177.0745
  0
SEQEND
  0
POLYLINE
  8
LAYER_3
 40
0.1764
 41
0.1764
 62
4
 66
1
 10
0
 20
0
 30
0
 70
1
  0
VERTEX
  8
LAYER_3
 10
224.2805
 20
-175.5345
  0
VERTEX
  8
LAYER_3
 10
220.9801
 20
-175.5345
  0
VERTEX
  8
LAYER_3
 10
220.9801
 20
-175.5207
  0
VERTEX
  8
LAYER_3
 10
224.2805
 20
-175.5207
  0
SEQEND
  0
POLYLINE
  8
LAYER_3
 40
0.1764
 41
0.1764
 62
4
 66
1
 10
0
 20
0
 30
0
 70
1
  0
VERTEX
  8
LAYER_3
 10
245.1778
 20
-174.4345
  0
VERTEX
  8
LAYER_3
 10
245.1778
 20
-177.7346
  0
VERTEX
  8
LAYER_3
 10
230.8806
 20
-177.7346
  0
VERTEX
  8
LAYER_3
 10
230.8806
 20
-174.4345
  0
SEQEND
  0
INSERT
  8
LAYER_3
  2
AIGNBL03020005
 10
0
 20
0
 30
0
  0
INSERT
  8
LAYER_3
  2
AIGNBL03020006
 10
0
 20
0
 30
0
  0
INSERT
  8
LAYER_3
  2
AIGNBL03020007
 10
0
 20
0
 30
0
  0
POLYLINE
  8
LAYER_3
 40
0.1764
 41
0.1764
 62
4
 66
1
 10
0
 20
0
 30
0
  0
VERTEX
  8
LAYER_3
 10
224.6654
 20
-177.5147
  0
VERTEX
  8
LAYER_3
 10
225.8208
 20
-177.5147
  0
SEQEND
  0
POLYLINE
  8
LAYER_3
 40
0.1764
 41
0.1764
 62
4
 66
1
 10
0
 20
0
 30
0
  0
VERTEX
  8
LAYER_3
 10
228.2431
 20
-181.1448
  0
VERTEX
  8
LAYER_3
 10
229.0227
 20
-178.1007
  0
SEQEND
  0
POLYLINE
  8
LAYER_3
 40
0.1764
 41
0.1764
 62
4
 66
1
 10
0
 20
0
 30
0
  0
VERTEX
  8
LAYER_3
 10
226.6904
 20
-176.0843
 42
-0.1060823833
  0
VERTEX
  8
LAYER_3
 10
226.8585
 20
-175.2803
 42
-0.1134556433
  0
VERTEX
  8
LAYER_3
 10
227.273
 20
-174.7388
 42
-0.1748557784
  0
VERTEX
  8
LAYER_3
 10
228.1659
 20
-174.4345
  0
SEQEND
  0
POLYLINE
  8
LAYER_3
 40
0.1764
 41
0.1764
 62
4
 66
1
 10
0
 20
0
 30
0
  0
VERTEX
  8
LAYER_3
 10
226.6904
 20
-176.0843
 42
-0.09860534014
  0
VERTEX
  8
LAYER_3
 10
226.5249
 20
-176.9677
 42
-0.1353425611
  0
VERTEX
  8
LAYER_3
 10
226.1766
 20
-177.4091
 42
-0.1462679863
  0
VERTEX
  8
LAYER_3
 10
225.8208
 20
-177.5147
  0
SEQEND
  0
POLYLINE
  8
LAYER_3
 40
0.1764
 41
0.1764
 62
4
 66
1
 10
0
 20
0
 30
0
  0
VERTEX
  8
LAYER_3
 10
228.1659
 20
-174.4345
  0
VERTEX
  8
LAYER_3
 10
229.7803
 20
-174.4345
  0
SEQEND
  0
POLYLINE
  8
LAYER_3
 40
0.1764
 41
0.1764
 62
4
 66
1
 10
0
 20
0
 30
0
  0
VERTEX
  8
LAYER_3
 10
220.9801
 20
-181.1448
 42
0.4142302171
  0
VERTEX
  8
LAYER_3
 10
221.4204
 20
-181.5848
  0
SEQEND
  0
POLYLINE
  8
LAYER_3
 40
0.1764
 41
0.1764
 62
4
 66
1
 10
0
 20
0
 30
0
  0
VERTEX
  8
LAYER_3
 10
228.2431
 20
-181.1448
 42
-0.1032551449
  0
VERTEX
  8
LAYER_3
 10
228.1078
 20
-181.4262
 42
-0.2252325083
  0
VERTEX
  8
LAYER_3
 10
227.7723
 20
-181.5819
 42
-0.02424008497
  0
VERTEX
  8
LAYER_3
 10
227.6905
 20
-181.5848
  0
SEQEND
  0
POLYLINE
  8
LAYER_3
 40
0.1764
 41
0.1764
 62
4
 66
1
 10
0
 20
0
 30
0
  0
VERTEX
  8
LAYER_3
 10
224.2805
 20
-177.0745
 42
0.2232757605
  0
VERTEX
  8
LAYER_3
 10
224.4502
 20
-177.4395
 42
0.1646768517
  0
VERTEX
  8
LAYER_3
 10
224.6654
 20
-177.5147
  0
SEQEND
  0
POLYLINE
  8
LAYER_3
 40
0.1764
 41
0.1764
 62
4
 66
1
 10
0
 20
0
 30
0
  0
VERTEX
  8
LAYER_3
 10
229.0227
 20
-178.1007
 42
-0.1283932079
  0
VERTEX
  8
LAYER_3
 10
229.1351
 20
-177.8618
 42
-0.1290485312
  0
VERTEX
  8
LAYER_3
 10
229.2674
 20
-177.7779
 42
-0.06869631836
  0
VERTEX
  8
LAYER_3
 10
229.5094
 20
-177.7399
 42
-0.01021993964
  0
VERTEX
  8
LAYER_3
 10
229.7803
 20
-177.7346
  0
SEQEND
  0
POLYLINE
  8
LAYER_3
 40
0.1764
 41
0.1764
 62
4
 66
1
 10
0
 20
0
 30
0
 70
1
  0
VERTEX
  8
LAYER_3
 10
228.4205
 20
-180.7628
  0
VERTEX
  8
LAYER_3
 10
228.6045
 20
-180.8024
  0
VERTEX
  8
LAYER_3
 10
229.0685
 20
-178.9892
  0
VERTEX
  8
LAYER_3
 10
228.8863
 20
-178.9438
  0
SEQEND
  0
INSERT
  8
LAYER_3
  2
AIGNBL03020008
 10
0
 20
0
 30
0
  0
ENDBLK
  0
BLOCK
  8
LAYER_43
  2
AIGNBL2B010002
 70
64
 10
0
 20
0
 30
0
  3
AIGNBL2B010002
  0
POLYLINE
  8
LAYER_43
 40
0.1058
 41
0.1058
 66
1
 10
0
 20
0
 30
0
  0
VERTEX
  8
LAYER_43
 10
116.1803
 20
-68.4973
  0
VERTEX
  8
LAYER_43
 10
116.1803
 20
-59.4832
  0
VERTEX
  8
LAYER_43
 10
116.354
 20
-59.2979
  0
VERTEX
  8
LAYER_43
 10
116.7019
 20
-59.1628
  0
VERTEX
  8
LAYER_43
 10
117.2228
 20
-59.1118
  0
SEQEND
  0
POLYLINE
  8
LAYER_43
 40
0.1058
 41
0.1058
 66
1
 10
0
 20
0
 30
0
  0
VERTEX
  8
LAYER_43
 10
146.2512
 20
-59.1118
  0
VERTEX
  8
LAYER_43
 10
146.7287
 20
-59.1628
  0
VERTEX
  8
LAYER_43
 10
147.12
 20
-59.2979
  0
VERTEX
  8
LAYER_43
 10
147.2503
 20
-59.4832
  0
VERTEX
  8
LAYER_43
 10
147.2503
 20
-67.0486
  0
SEQEND
  0
POLYLINE
  8
LAYER_43
 40
0.1058
 41
0.1058
 66
1
 10
0
 20
0
 30
0
  0
VERTEX
  8
LAYER_43
 10
117.2235
 20
-59.1118
  0
VERTEX
  8
LAYER_43
 10
146.2512
 20
-59.1118
  0
SEQEND
  0
POLYLINE
  8
LAYER_43
 40
0.1058
 41
0.1058
 66
1
 10
0
 20
0
 30
0
 70
1
  0
VERTEX
  8
LAYER_43
 10
128.6371
 20
-99.4398
  0
VERTEX
  8
LAYER_43
 10
130.3135
 20
-99.3464
  0
VERTEX
  8
LAYER_43
 10
131.9451
 20
-99.0649
 42
0.03217118263
  0
VERTEX
  8
LAYER_43
 10
134.1393
 20
-98.3553
 42
0.03350638533
  0
VERTEX
  8
LAYER_43
 10
136.1015
 20
-97.4195
 42
0.03423249458
  0
VERTEX
  8
LAYER_43
 10
137.8329
 20
-96.2819
 42
0.03433266168
  0
VERTEX
  8
LAYER_43
 10
139.3349
 20
-94.9672
 42
0.08340427991
  0
VERTEX
  8
LAYER_43
 10
142.0954
 20
-91.0673
 42
0.04192482905
  0
VERTEX
  8
LAYER_43
 10
142.9923
 20
-88.7305
 42
0.04036066376
  0
VERTEX
  8
LAYER_43
 10
143.4931
 20
-86.2904
 42
0.05898714569
  0
VERTEX
  8
LAYER_43
 10
143.5085
 20
-82.5642
 42
0.0394129037
  0
VERTEX
  8
LAYER_43
 10
143.033
 20
-80.1212
 42
0.04041956502
  0
VERTEX
  8
LAYER_43
 10
142.1726
 20
-77.779
 42
0.03669232022
  0
VERTEX
  8
LAYER_43
 10
141.1065
 20
-75.8583
 42
0.03257826249
  0
VERTEX
  8
LAYER_43
 10
139.9618
 20
-74.3387
 42
0.08522348458
  0
VERTEX
  8
LAYER_43
 10
136.1766
 20
-71.2187
 42
0.034279477
  0
VERTEX
  8
LAYER_43
 10
134.2967
 20
-70.307
 42
0.03357914894
  0
VERTEX
  8
LAYER_43
 10
132.2098
 20
-69.6244
 42
0.02691780405
  0
VERTEX
  8
LAYER_43
 10
130.3135
 20
-69.2483
  0
VERTEX
  8
LAYER_43
 10
128.6371
 20
-69.1543
  0
VERTEX
  8
LAYER_43
 10
126.9118
 20
-69.2483
 42
0.03206044442
  0
VERTEX
  8
LAYER_43
 10
124.6532
 20
-69.7235
 42
0.03336569663
  0
VERTEX
  8
LAYER_43
 10
122.6005
 20
-70.4477
 42
0.03407254542
  0
VERTEX
  8
LAYER_43
 10
120.7551
 20
-71.3962
 42
0.0341677117
  0
VERTEX
  8
LAYER_43
 10
119.1183
 20
-72.5446
 42
0.08303814971
  0
VERTEX
  8
LAYER_43
 10
115.9479
 20
-76.1287
 42
0.04180955091
  0
VERTEX
  8
LAYER_43
 10
114.801
 20
-78.3558
 42
0.04030266873
  0
VERTEX
  8
LAYER_43
 10
114.0365
 20
-80.7272
 42
0.05898964764
  0
VERTEX
  8
LAYER_43
 10
113.6141
 20
-84.4276
 42
0.03947497347
  0
VERTEX
  8
LAYER_43
 10
113.82
 20
-86.9052
 42
0.0405149425
  0
VERTEX
  8
LAYER_43
 10
114.4197
 20
-89.3235
 42
0.03679390378
  0
VERTEX
  8
LAYER_43
 10
115.2699
 20
-91.345
 42
0.0326694263
  0
VERTEX
  8
LAYER_43
 10
116.2422
 20
-92.9767
 42
0.08542547168
  0
VERTEX
  8
LAYER_43
 10
119.6657
 20
-96.4801
 42
0.03431292837
  0
VERTEX
  8
LAYER_43
 10
121.4357
 20
-97.5867
 42
0.03358310907
  0
VERTEX
  8
LAYER_43
 10
123.4367
 20
-98.4882
 42
0.02689873517
  0
VERTEX
  8
LAYER_43
 10
125.2816
 20
-99.0649
  0
VERTEX
  8
LAYER_43
 10
126.9118
 20
-99.3464
  0
SEQEND
  0
POLYLINE
  8
LAYER_43
 40
0.1058
 41
0.1058
 66
1
 10
0
 20
0
 30
0
  0
VERTEX
  8
LAYER_43
 10
111.5343
 20
-96.2145
  0
VERTEX
  8
LAYER_43
 10
113.1452
 20
-97.7406
 42
0.02574713519
  0
VERTEX
  8
LAYER_43
 10
115.9314
 20
-99.8375
 42
0.02511057653
  0
VERTEX
  8
LAYER_43
 10
118.4359
 20
-101.3449
 42
0.02516515993
  0
VERTEX
  8
LAYER_43
 10
120.9055
 20
-102.5083
 42
0.02520707244
  0
VERTEX
  8
LAYER_43
 10
123.4816
 20
-103.4169
 42
0.02522935448
  0
VERTEX
  8
LAYER_43
 10
126.3271
 20
-104.1082
 42
0.02384790003
  0
VERTEX
  8
LAYER_43
 10
129.4922
 20
-104.5571
  0
VERTEX
  8
LAYER_43
 10
131.7191
 20
-104.6053
  0
SEQEND
  0
POLYLINE
  8
LAYER_43
 40
0.1058
 41
0.1058
 66
1
 10
0
 20
0
 30
0
  0
VERTEX
  8
LAYER_43
 10
106.6071
 20
-84.2968
  0
VERTEX
  8
LAYER_43
 10
106.749
 20
-86.2037
 42
0.04170846454
  0
VERTEX
  8
LAYER_43
 10
107.1139
 20
-88.3984
 42
0.03498121661
  0
VERTEX
  8
LAYER_43
 10
107.8311
 20
-90.6067
 42
0.03435564678
  0
VERTEX
  8
LAYER_43
 10
108.8772
 20
-92.7689
 42
0.03542021681
  0
VERTEX
  8
LAYER_43
 10
110.0816
 20
-94.5673
 42
0.005233178032
  0
VERTEX
  8
LAYER_43
 10
110.2555
 20
-94.7841
  0
VERTEX
  8
LAYER_43
 10
111.5343
 20
-96.2145
  0
SEQEND
  0
POLYLINE
  8
LAYER_43
 40
0.1058
 41
0.1058
 66
1
 10
0
 20
0
 30
0
  0
VERTEX
  8
LAYER_43
 10
111.5343
 20
-72.4271
  0
VERTEX
  8
LAYER_43
 10
110.2548
 20
-73.8093
 42
0.04072519904
  0
VERTEX
  8
LAYER_43
 10
108.9837
 20
-75.6384
 42
0.03440893582
  0
VERTEX
  8
LAYER_43
 10
107.9445
 20
-77.7296
 42
0.03448876636
  0
VERTEX
  8
LAYER_43
 10
107.1715
 20
-80.0206
 42
0.03513850691
  0
VERTEX
  8
LAYER_43
 10
106.7827
 20
-82.0907
 42
0.006796941888
  0
VERTEX
  8
LAYER_43
 10
106.749
 20
-82.4386
  0
VERTEX
  8
LAYER_43
 10
106.6071
 20
-84.2968
  0
SEQEND
  0
POLYLINE
  8
LAYER_43
 40
0.1058
 41
0.1058
 66
1
 10
0
 20
0
 30
0
  0
VERTEX
  8
LAYER_43
 10
131.7191
 20
-63.9887
  0
VERTEX
  8
LAYER_43
 10
129.4922
 20
-64.0844
 42
0.02754605942
  0
VERTEX
  8
LAYER_43
 10
126.1185
 20
-64.5701
 42
0.02505044496
  0
VERTEX
  8
LAYER_43
 10
123.2676
 20
-65.2943
 42
0.02449287175
  0
VERTEX
  8
LAYER_43
 10
120.6508
 20
-66.2442
 42
0.06255210277
  0
VERTEX
  8
LAYER_43
 10
114.5932
 20
-69.733
 42
0.01606761192
  0
VERTEX
  8
LAYER_43
 10
113.1452
 20
-70.9016
  0
VERTEX
  8
LAYER_43
 10
111.5343
 20
-72.4271
  0
SEQEND
  0
POLYLINE
  8
LAYER_43
 40
0.1058
 41
0.1058
 66
1
 10
0
 20
0
 30
0
  0
VERTEX
  8
LAYER_43
 10
156.9737
 20
-72.9514
  0
VERTEX
  8
LAYER_43
 10
154.793
 20
-71.2826
 42
0.0231533915
  0
VERTEX
  8
LAYER_43
 10
151.4047
 20
-69.1579
 42
0.02100339372
  0
VERTEX
  8
LAYER_43
 10
148.3721
 20
-67.6132
 42
0.02141595208
  0
VERTEX
  8
LAYER_43
 10
145.2519
 20
-66.3456
 42
0.02136322154
  0
VERTEX
  8
LAYER_43
 10
142.0369
 20
-65.3504
 42
0.02084919002
  0
VERTEX
  8
LAYER_43
 10
138.7199
 20
-64.6231
 42
0.01992805267
  0
VERTEX
  8
LAYER_43
 10
135.2938
 20
-64.1592
 42
0.004815280732
  0
VERTEX
  8
LAYER_43
 10
134.4194
 20
-64.0838
  0
VERTEX
  8
LAYER_43
 10
131.7191
 20
-63.9887
  0
SEQEND
  0
POLYLINE
  8
LAYER_43
 40
0.1058
 41
0.1058
 66
1
 10
0
 20
0
 30
0
  0
VERTEX
  8
LAYER_43
 10
156.9723
 20
-95.6908
  0
VERTEX
  8
LAYER_43
 10
158.205
 20
-94.6411
 42
0.03878620805
  0
VERTEX
  8
LAYER_43
 10
159.6986
 20
-92.9628
 42
0.187182561
  0
VERTEX
  8
LAYER_43
 10
162.534
 20
-82.9112
 42
0.07419882451
  0
VERTEX
  8
LAYER_43
 10
161.5041
 20
-78.8063
 42
0.09669975296
  0
VERTEX
  8
LAYER_43
 10
158.4757
 20
-74.2663
 42
0.006531242634
  0
VERTEX
  8
LAYER_43
 10
158.205
 20
-73.9998
  0
VERTEX
  8
LAYER_43
 10
156.9723
 20
-72.9514
  0
SEQEND
  0
POLYLINE
  8
LAYER_43
 40
0.1058
 41
0.1058
 66
1
 10
0
 20
0
 30
0
  0
VERTEX
  8
LAYER_43
 10
131.7191
 20
-104.6053
  0
VERTEX
  8
LAYER_43
 10
134.4194
 20
-104.5089
 42
0.02702757935
  0
VERTEX
  8
LAYER_43
 10
137.8801
 20
-104.1523
 42
0.02268177763
  0
VERTEX
  8
LAYER_43
 10
141.2372
 20
-103.4704
 42
0.02091256212
  0
VERTEX
  8
LAYER_43
 10
144.5825
 20
-102.4848
 42
0.030416111
  0
VERTEX
  8
LAYER_43
 10
149.4253
 20
-100.5024
 42
0.02132108192
  0
VERTEX
  8
LAYER_43
 10
152.4346
 20
-98.8882
 42
0.0199018028
  0
VERTEX
  8
LAYER_43
 10
154.793
 20
-97.3582
  0
VERTEX
  8
LAYER_43
 10
156.9723
 20
-95.6908
  0
SEQEND
  0
CIRCLE
  8
LAYER_43
 10
128.6123
 20
-84.2961
 40
2.2496
  0
CIRCLE
  8
LAYER_43
 10
128.6123
 20
-84.2961
 40
3.2072
  0
ENDBLK
  0
BLOCK
  8
LAYER_43
  2
AIGNBL2B010003
 70
64
 10
0
 20
0
 30
0
  3
AIGNBL2B010003
  0
POLYLINE
  8
LAYER_43
 40
0.1058
 41
0.1058
 66
1
 10
0
 20
0
 30
0
  0
VERTEX
  8
LAYER_43
 10
242.5571
 20
-150.5782
  0
VERTEX
  8
LAYER_43
 10
202.7246
 20
-150.5782
  0
SEQEND
  0
POLYLINE
  8
LAYER_43
 40
0.1058
 41
0.1058
 66
1
 10
0
 20
0
 30
0
  0
VERTEX
  8
LAYER_43
 10
214.3917
 20
-182.1467
  0
VERTEX
  8
LAYER_43
 10
213.135
 20
-180.8269
 42
-0.02304717829
  0
VERTEX
  8
LAYER_43
 10
210.7936
 20
-178.0124
 42
-0.02125212414
  0
VERTEX
  8
LAYER_43
 10
208.8592
 20
-175.2169
 42
-0.02103889159
  0
VERTEX
  8
LAYER_43
 10
207.1731
 20
-172.2775
 42
-0.03128956003
  0
VERTEX
  8
LAYER_43
 10
205.123
 20
-167.639
 42
-0.09534515833
  0
VERTEX
  8
LAYER_43
 10
202.6181
 20
-152.4083
  0
VERTEX
  8
LAYER_43
 10
202.7246
 20
-150.5782
  0
SEQEND
  0
POLYLINE
  8
LAYER_43
 40
0.1058
 41
0.1058
 66
1
 10
0
 20
0
 30
0
  0
VERTEX
  8
LAYER_43
 10
222.6303
 20
-185.5742
  0
VERTEX
  8
LAYER_43
 10
221.7139
 20
-185.5315
 42
-0.04632633971
  0
VERTEX
  8
LAYER_43
 10
219.6814
 20
-185.1941
 42
-0.03965591474
  0
VERTEX
  8
LAYER_43
 10
217.9512
 20
-184.5906
 42
-0.07374754856
  0
VERTEX
  8
LAYER_43
 10
215.0511
 20
-182.7644
  0
VERTEX
  8
LAYER_43
 10
214.3917
 20
-182.1467
  0
SEQEND
  0
POLYLINE
  8
LAYER_43
 40
0.1058
 41
0.1058
 66
1
 10
0
 20
0
 30
0
  0
VERTEX
  8
LAYER_43
 10
230.8903
 20
-182.1467
  0
VERTEX
  8
LAYER_43
 10
230.2088
 20
-182.7644
 42
-0.08291160524
  0
VERTEX
  8
LAYER_43
 10
226.8867
 20
-184.7687
 42
-0.04006571605
  0
VERTEX
  8
LAYER_43
 10
225.1376
 20
-185.3019
 42
-0.03606128824
  0
VERTEX
  8
LAYER_43
 10
223.5457
 20
-185.5315
  0
VERTEX
  8
LAYER_43
 10
222.6303
 20
-185.5742
  0
SEQEND
  0
POLYLINE
  8
LAYER_43
 40
0.1058
 41
0.1058
 66
1
 10
0
 20
0
 30
0
  0
VERTEX
  8
LAYER_43
 10
242.5571
 20
-150.5782
  0
VERTEX
  8
LAYER_43
 10
242.6419
 20
-152.4083
 42
-0.02328514669
  0
VERTEX
  8
LAYER_43
 10
242.5887
 20
-156.0546
 42
-0.02131279212
  0
VERTEX
  8
LAYER_43
 10
242.2374
 20
-159.432
 42
-0.02098795637
  0
VERTEX
  8
LAYER_43
 10
241.603
 20
-162.7634
 42
-0.02076480991
  0
VERTEX
  8
LAYER_43
 10
240.6938
 20
-166.0285
 42
-0.06350940413
  0
VERTEX
  8
LAYER_43
 10
236.2684
 20
-175.4271
 42
-0.02104772806
  0
VERTEX
  8
LAYER_43
 10
234.3239
 20
-178.2118
 42
-0.02139077714
  0
VERTEX
  8
LAYER_43
 10
232.1457
 20
-180.8269
  0
VERTEX
  8
LAYER_43
 10
230.8896
 20
-182.1467
  0
SEQEND
  0
POLYLINE
  8
LAYER_43
 40
0.1058
 41
0.1058
 66
1
 10
0
 20
0
 30
0
  0
VERTEX
  8
LAYER_43
 10
242.6625
 20
-153.5507
  0
VERTEX
  8
LAYER_43
 10
247.5522
 20
-153.5507
  0
VERTEX
  8
LAYER_43
 10
247.5522
 20
-174.5478
  0
VERTEX
  8
LAYER_43
 10
236.8131
 20
-174.5478
  0
SEQEND
  0
POLYLINE
  8
LAYER_43
 40
0.1058
 41
0.1058
 66
1
 10
0
 20
0
 30
0
  0
VERTEX
  8
LAYER_43
 10
236.3545
 20
-153.303
  0
VERTEX
  8
LAYER_43
 10
236.3907
 20
-152.9516
  0
SEQEND
  0
POLYLINE
  8
LAYER_43
  6
AIGENLINE002
 40
0.1058
 41
0.1058
 66
1
 10
0
 20
0
 30
0
 70
128
  0
VERTEX
  8
LAYER_43
 10
236.4362
 20
-152.2667
 42
0.008420563668
  0
VERTEX
  8
LAYER_43
 10
236.4624
 20
-151.2342
  0
SEQEND
  0
POLYLINE
  8
LAYER_43
 40
0.1058
 41
0.1058
 66
1
 10
0
 20
0
 30
0
  0
VERTEX
  8
LAYER_43
 10
236.4641
 20
-150.8897
  0
VERTEX
  8
LAYER_43
 10
236.4641
 20
-150.5383
  0
SEQEND
  0
POLYLINE
  8
LAYER_43
 40
0.1058
 41
0.1058
 66
1
 10
0
 20
0
 30
0
  0
VERTEX
  8
LAYER_43
 10
208.5402
 20
-150.5383
  0
VERTEX
  8
LAYER_43
 10
208.5423
 20
-150.8907
  0
SEQEND
  0
POLYLINE
  8
LAYER_43
  6
AIGENLINE003
 40
0.1058
 41
0.1058
 66
1
 10
0
 20
0
 30
0
 70
128
  0
VERTEX
  8
LAYER_43
 10
208.5582
 20
-151.6063
 42
0.02611834354
  0
VERTEX
  8
LAYER_43
 10
208.8362
 20
-154.8811
 42
0.02802314468
  0
VERTEX
  8
LAYER_43
 10
209.4468
 20
-157.9988
 42
0.02744607209
  0
VERTEX
  8
LAYER_43
 10
210.2479
 20
-160.5365
 42
0.02926289931
  0
VERTEX
  8
LAYER_43
 10
211.2102
 20
-162.6858
 42
0.03143227076
  0
VERTEX
  8
LAYER_43
 10
212.2815
 20
-164.4554
 42
0.03667358287
  0
VERTEX
  8
LAYER_43
 10
213.5254
 20
-165.9853
 42
0.04263884241
  0
VERTEX
  8
LAYER_43
 10
214.9386
 20
-167.2426
 42
0.04841664572
  0
VERTEX
  8
LAYER_43
 10
216.5179
 20
-168.1941
 42
0.09283080084
  0
VERTEX
  8
LAYER_43
 10
219.672
 20
-169.0243
  0
SEQEND
  0
POLYLINE
  8
LAYER_43
 40
0.1058
 41
0.1058
 66
1
 10
0
 20
0
 30
0
  0
VERTEX
  8
LAYER_43
 10
220.0293
 20
-169.045
  0
VERTEX
  8
LAYER_43
 10
220.3803
 20
-169.0519
  0
VERTEX
  8
LAYER_43
 10
220.3803
 20
-169.4036
  0
SEQEND
  0
POLYLINE
  8
LAYER_43
  6
AIGENLINE004
 40
0.1058
 41
0.1058
 66
1
 10
0
 20
0
 30
0
 70
128
  0
VERTEX
  8
LAYER_43
 10
220.3803
 20
-170.1819
  0
VERTEX
  8
LAYER_43
 10
220.3803
 20
-171.3501
  0
SEQEND
  0
POLYLINE
  8
LAYER_43
 40
0.1058
 41
0.1058
 66
1
 10
0
 20
0
 30
0
  0
VERTEX
  8
LAYER_43
 10
220.3803
 20
-171.7387
  0
VERTEX
  8
LAYER_43
 10
220.3803
 20
-172.0911
  0
VERTEX
  8
LAYER_43
 10
220.7328
 20
-172.0911
  0
SEQEND
  0
POLYLINE
  8
LAYER_43
  6
AIGENLINE005
 40
0.1058
 41
0.1058
 66
1
 10
0
 20
0
 30
0
 70
128
  0
VERTEX
  8
LAYER_43
 10
221.4914
 20
-172.0911
  0
VERTEX
  8
LAYER_43
 10
224.1469
 20
-172.0911
  0
SEQEND
  0
POLYLINE
  8
LAYER_43
 40
0.1058
 41
0.1058
 66
1
 10
0
 20
0
 30
0
  0
VERTEX
  8
LAYER_43
 10
224.5269
 20
-172.0911
  0
VERTEX
  8
LAYER_43
 10
224.8796
 20
-172.0911
  0
VERTEX
  8
LAYER_43
 10
224.8796
 20
-171.7394
  0
SEQEND
  0
POLYLINE
  8
LAYER_43
  6
AIGENLINE004
 40
0.1058
 41
0.1058
 66
1
 10
0
 20
0
 30
0
 70
128
  0
VERTEX
  8
LAYER_43
 10
224.8796
 20
-170.9601
  0
VERTEX
  8
LAYER_43
 10
224.8796
 20
-169.7929
  0
SEQEND
  0
POLYLINE
  8
LAYER_43
 40
0.1058
 41
0.1058
 66
1
 10
0
 20
0
 30
0
  0
VERTEX
  8
LAYER_43
 10
224.8796
 20
-169.4043
  0
VERTEX
  8
LAYER_43
 10
224.8796
 20
-169.0519
  0
VERTEX
  8
LAYER_43
 10
225.2307
 20
-169.0439
  0
SEQEND
  0
POLYLINE
  8
LAYER_43
  6
AIGENLINE006
 40
0.1058
 41
0.1058
 66
1
 10
0
 20
0
 30
0
 70
128
  0
VERTEX
  8
LAYER_43
 10
225.9135
 20
-168.9943
 42
0.05221523992
  0
VERTEX
  8
LAYER_43
 10
227.6644
 20
-168.6103
 42
0.04382289544
  0
VERTEX
  8
LAYER_43
 10
229.035
 20
-168.016
 42
0.04407566021
  0
VERTEX
  8
LAYER_43
 10
230.3856
 20
-167.1221
 42
0.04189889409
  0
VERTEX
  8
LAYER_43
 10
231.6855
 20
-165.8991
 42
0.04034947624
  0
VERTEX
  8
LAYER_43
 10
232.977
 20
-164.2134
 42
0.03333323273
  0
VERTEX
  8
LAYER_43
 10
234.0637
 20
-162.2694
 42
0.02954225416
  0
VERTEX
  8
LAYER_43
 10
234.9969
 20
-159.9777
 42
0.02791232722
  0
VERTEX
  8
LAYER_43
 10
235.7734
 20
-157.214
 42
0.009223499146
  0
VERTEX
  8
LAYER_43
 10
235.9894
 20
-156.1582
  0
SEQEND
  0
ENDBLK
  0
BLOCK
  8
LAYER_43
  2
AIGNBL2B010004
 70
64
 10
0
 20
0
 30
0
  3
AIGNBL2B010004
  0
POLYLINE
  8
LAYER_43
  6
AIGENLINE007
 40
0.1058
 41
0.1058
 66
1
 10
0
 20
0
 30
0
 70
128
  0
VERTEX
  8
LAYER_43
 10
137.5151
 20
-158.5915
  0
VERTEX
  8
LAYER_43
 10
140.9864
 20
-158.5915
  0
SEQEND
  0
POLYLINE
  8
LAYER_43
  6
AIGENLINE007
 40
0.1058
 41
0.1058
 66
1
 10
0
 20
0
 30
0
 70
128
  0
VERTEX
  8
LAYER_43
 10
139.2514
 20
-148.6555
  0
VERTEX
  8
LAYER_43
 10
139.2514
 20
-160.3254
  0
SEQEND
  0
POLYLINE
  8
LAYER_43
  6
AIGENLINE007
 40
0.1058
 41
0.1058
 66
1
 10
0
 20
0
 30
0
 70
129
  0
VERTEX
  8
LAYER_43
 10
140.4345
 20
-158.5908
 42
-0.4142299561
  0
VERTEX
  8
LAYER_43
 10
139.2514
 20
-159.7735
 42
-0.3930369022
  0
VERTEX
  8
LAYER_43
 10
138.067
 20
-158.5908
 42
-0.4141971828
  0
VERTEX
  8
LAYER_43
 10
139.2514
 20
-157.4074
 42
-0.4142167459
  0
SEQEND
  0
POLYLINE
  8
LAYER_43
  6
AIGENLINE007
 40
0.1058
 41
0.1058
 66
1
 10
0
 20
0
 30
0
 70
128
  0
VERTEX
  8
LAYER_43
 10
122.5159
 20
-158.5915
  0
VERTEX
  8
LAYER_43
 10
125.9878
 20
-158.5915
  0
SEQEND
  0
POLYLINE
  8
LAYER_43
  6
AIGENLINE007
 40
0.1058
 41
0.1058
 66
1
 10
0
 20
0
 30
0
 70
128
  0
VERTEX
  8
LAYER_43
 10
124.2529
 20
-148.3231
  0
VERTEX
  8
LAYER_43
 10
124.2529
 20
-160.3254
  0
SEQEND
  0
CIRCLE
  8
LAYER_43
  6
AIGENLINE007
 10
124.2522
 20
-158.5908
 40
1.1832
  0
ENDBLK
  0
BLOCK
  8
LAYER_43
  2
AIGNBL2B010005
 70
64
 10
0
 20
0
 30
0
  3
AIGNBL2B010005
  0
POLYLINE
  8
LAYER_43
 40
0.1058
 41
0.1058
 66
1
 10
0
 20
0
 30
0
 70
1
  0
VERTEX
  8
LAYER_43
 10
132.508
 20
-176.845
  0
VERTEX
  8
LAYER_43
 10
130.9956
 20
-176.845
  0
VERTEX
  8
LAYER_43
 10
130.9956
 20
-175.3323
  0
VERTEX
  8
LAYER_43
 10
132.508
 20
-175.3323
  0
SEQEND
  0
CIRCLE
  8
LAYER_43
 10
131.7515
 20
-176.0892
 40
1.4001
  0
ENDBLK
  0
BLOCK
  8
LAYER_43
  2
AIGNBL2B010006
 70
64
 10
0
 20
0
 30
0
  3
AIGNBL2B010006
  0
POLYLINE
  8
LAYER_43
 40
0.1058
 41
0.1058
 66
1
 10
0
 20
0
 30
0
  0
VERTEX
  8
LAYER_43
 10
130.1702
 20
-173.2101
  0
VERTEX
  8
LAYER_43
 10
133.4706
 20
-173.2101
  0
SEQEND
  0
POLYLINE
  8
LAYER_43
 40
0.1058
 41
0.1058
 66
1
 10
0
 20
0
 30
0
 70
1
  0
VERTEX
  8
LAYER_43
 10
134.0204
 20
-173.2101
  0
VERTEX
  8
LAYER_43
 10
129.6203
 20
-173.2101
  0
VERTEX
  8
LAYER_43
 10
129.6203
 20
-172.3846
  0
VERTEX
  8
LAYER_43
 10
129.8952
 20
-172.1097
  0
VERTEX
  8
LAYER_43
 10
133.7455
 20
-172.1097
  0
VERTEX
  8
LAYER_43
 10
134.0204
 20
-172.3846
  0
SEQEND
  0
POLYLINE
  8
LAYER_43
 40
0.1058
 41
0.1058
 66
1
 10
0
 20
0
 30
0
  0
VERTEX
  8
LAYER_43
 10
129.6203
 20
-172.3846
  0
VERTEX
  8
LAYER_43
 10
134.0204
 20
-172.3846
  0
SEQEND
  0
POLYLINE
  8
LAYER_43
 40
0.1058
 41
0.1058
 66
1
 10
0
 20
0
 30
0
  0
VERTEX
  8
LAYER_43
 10
130.7207
 20
-172.3846
  0
VERTEX
  8
LAYER_43
 10
130.7207
 20
-173.2101
  0
SEQEND
  0
POLYLINE
  8
LAYER_43
 40
0.1058
 41
0.1058
 66
1
 10
0
 20
0
 30
0
  0
VERTEX
  8
LAYER_43
 10
131.8204
 20
-172.3846
  0
VERTEX
  8
LAYER_43
 10
131.8204
 20
-173.2101
  0
SEQEND
  0
POLYLINE
  8
LAYER_43
 40
0.1058
 41
0.1058
 66
1
 10
0
 20
0
 30
0
  0
VERTEX
  8
LAYER_43
 10
132.9201
 20
-172.3846
  0
VERTEX
  8
LAYER_43
 10
132.9201
 20
-173.2101
  0
SEQEND
  0
ENDBLK
  0
BLOCK
  8
LAYER_43
  2
AIGNBL2B010007
 70
64
 10
0
 20
0
 30
0
  3
AIGNBL2B010007
  0
POLYLINE
  8
LAYER_43
 40
0.1058
 41
0.1058
 66
1
 10
0
 20
0
 30
0
  0
VERTEX
  8
LAYER_43
 10
133.4706
 20
-170.6628
  0
VERTEX
  8
LAYER_43
 10
130.1702
 20
-170.6628
  0
SEQEND
  0
POLYLINE
  8
LAYER_43
 40
0.1058
 41
0.1058
 66
1
 10
0
 20
0
 30
0
 70
1
  0
VERTEX
  8
LAYER_43
 10
129.6203
 20
-170.6628
  0
VERTEX
  8
LAYER_43
 10
134.0204
 20
-170.6628
  0
VERTEX
  8
LAYER_43
 10
134.0204
 20
-171.4875
  0
VERTEX
  8
LAYER_43
 10
133.7455
 20
-171.7625
  0
VERTEX
  8
LAYER_43
 10
129.8952
 20
-171.7625
  0
VERTEX
  8
LAYER_43
 10
129.6203
 20
-171.4875
  0
SEQEND
  0
POLYLINE
  8
LAYER_43
 40
0.1058
 41
0.1058
 66
1
 10
0
 20
0
 30
0
  0
VERTEX
  8
LAYER_43
 10
134.0204
 20
-171.4875
  0
VERTEX
  8
LAYER_43
 10
129.6203
 20
-171.4875
  0
SEQEND
  0
POLYLINE
  8
LAYER_43
 40
0.1058
 41
0.1058
 66
1
 10
0
 20
0
 30
0
  0
VERTEX
  8
LAYER_43
 10
132.9201
 20
-171.4875
  0
VERTEX
  8
LAYER_43
 10
132.9201
 20
-170.6628
  0
SEQEND
  0
POLYLINE
  8
LAYER_43
 40
0.1058
 41
0.1058
 66
1
 10
0
 20
0
 30
0
  0
VERTEX
  8
LAYER_43
 10
131.8204
 20
-171.4875
  0
VERTEX
  8
LAYER_43
 10
131.8204
 20
-170.6628
  0
SEQEND
  0
POLYLINE
  8
LAYER_43
 40
0.1058
 41
0.1058
 66
1
 10
0
 20
0
 30
0
  0
VERTEX
  8
LAYER_43
 10
130.7207
 20
-171.4875
  0
VERTEX
  8
LAYER_43
 10
130.7207
 20
-170.6628
  0
SEQEND
  0
ENDBLK
  0
BLOCK
  8
LAYER_43
  2
AIGNBL2B010008
 70
64
 10
0
 20
0
 30
0
  3
AIGNBL2B010008
  0
POLYLINE
  8
LAYER_43
 40
0.1164
 41
0.1164
 66
1
 10
0
 20
0
 30
0
  0
VERTEX
  8
LAYER_43
 10
109.2774
 20
-149.4527
  0
VERTEX
  8
LAYER_43
 10
121.6901
 20
-149.4527
  0
SEQEND
  0
POLYLINE
  8
LAYER_43
 40
0.05
 41
0.05
 66
1
 10
0
 20
0
 30
0
  0
VERTEX
  8
LAYER_43
 10
109.8317
 20
-149.9426
  0
VERTEX
  8
LAYER_43
 10
106.6064
 20
-149.4314
  0
VERTEX
  8
LAYER_43
 10
109.8317
 20
-148.9208
  0
SEQEND
  0
POLYLINE
  8
LAYER_43
 40
0.05
 41
0.05
 66
1
 10
0
 20
0
 30
0
  0
VERTEX
  8
LAYER_43
 10
121.358
 20
-149.9426
  0
VERTEX
  8
LAYER_43
 10
124.2064
 20
-149.4314
  0
VERTEX
  8
LAYER_43
 10
121.358
 20
-148.9208
  0
SEQEND
  0
ENDBLK
  0
BLOCK
  8
LAYER_43
  2
AIGNBL2B010009
 70
64
 10
0
 20
0
 30
0
  3
AIGNBL2B010009
  0
POLYLINE
  8
LAYER_43
 40
0.1164
 41
0.1164
 66
1
 10
0
 20
0
 30
0
  0
VERTEX
  8
LAYER_43
 10
126.4519
 20
-149.4527
  0
VERTEX
  8
LAYER_43
 10
137.0307
 20
-149.4527
  0
SEQEND
  0
POLYLINE
  8
LAYER_43
 40
0.05
 41
0.05
 66
1
 10
0
 20
0
 30
0
  0
VERTEX
  8
LAYER_43
 10
126.9242
 20
-149.9426
  0
VERTEX
  8
LAYER_43
 10
124.1754
 20
-149.4314
  0
VERTEX
  8
LAYER_43
 10
126.9242
 20
-148.9208
  0
SEQEND
  0
POLYLINE
  8
LAYER_43
 40
0.05
 41
0.05
 66
1
 10
0
 20
0
 30
0
  0
VERTEX
  8
LAYER_43
 10
136.7476
 20
-149.9426
  0
VERTEX
  8
LAYER_43
 10
139.1753
 20
-149.4314
  0
VERTEX
  8
LAYER_43
 10
136.7476
 20
-148.9208
  0
SEQEND
  0
ENDBLK
  0
BLOCK
  8
LAYER_43
  2
AIGNBL2B01000A
 70
64
 10
0
 20
0
 30
0
  3
AIGNBL2B01000A
  0
POLYLINE
  8
LAYER_43
 40
0.1164
 41
0.1164
 66
1
 10
0
 20
0
 30
0
  0
VERTEX
  8
LAYER_43
 10
126.4519
 20
-57.4709
  0
VERTEX
  8
LAYER_43
 10
137.0307
 20
-57.4709
  0
SEQEND
  0
POLYLINE
  8
LAYER_43
 40
0.05
 41
0.05
 66
1
 10
0
 20
0
 30
0
  0
VERTEX
  8
LAYER_43
 10
126.9242
 20
-57.9608
  0
VERTEX
  8
LAYER_43
 10
124.1754
 20
-57.4495
  0
VERTEX
  8
LAYER_43
 10
126.9242
 20
-56.939
  0
SEQEND
  0
POLYLINE
  8
LAYER_43
 40
0.05
 41
0.05
 66
1
 10
0
 20
0
 30
0
  0
VERTEX
  8
LAYER_43
 10
136.7476
 20
-57.9608
  0
VERTEX
  8
LAYER_43
 10
139.1753
 20
-57.4495
  0
VERTEX
  8
LAYER_43
 10
136.7476
 20
-56.939
  0
SEQEND
  0
ENDBLK
  0
BLOCK
  8
LAYER_43
  2
AIGNBL2B01000B
 70
64
 10
0
 20
0
 30
0
  3
AIGNBL2B01000B
  0
POLYLINE
  8
LAYER_43
  6
AIGENLINE008
 40
0.0882
 41
0.0882
 66
1
 10
0
 20
0
 30
0
 70
128
  0
VERTEX
  8
LAYER_43
 10
131.7515
 20
-162.1765
  0
VERTEX
  8
LAYER_43
 10
131.7515
 20
-211.1482
  0
SEQEND
  0
ENDBLK
  0
BLOCK
  8
LAYER_43
  2
AIGNBL2B01000C
 70
64
 10
0
 20
0
 30
0
  3
AIGNBL2B01000C
  0
POLYLINE
  8
LAYER_43
 40
0.1164
 41
0.1164
 66
1
 10
0
 20
0
 30
0
  0
VERTEX
  8
LAYER_43
 10
141.53
 20
-149.4527
  0
VERTEX
  8
LAYER_43
 10
160.1738
 20
-149.4527
  0
SEQEND
  0
POLYLINE
  8
LAYER_43
 40
0.05
 41
0.05
 66
1
 10
0
 20
0
 30
0
  0
VERTEX
  8
LAYER_43
 10
142.2669
 20
-149.9426
  0
VERTEX
  8
LAYER_43
 10
139.2514
 20
-149.4314
  0
VERTEX
  8
LAYER_43
 10
142.2669
 20
-148.9208
  0
SEQEND
  0
POLYLINE
  8
LAYER_43
 40
0.05
 41
0.05
 66
1
 10
0
 20
0
 30
0
  0
VERTEX
  8
LAYER_43
 10
160.0912
 20
-149.9426
  0
VERTEX
  8
LAYER_43
 10
162.6512
 20
-149.4314
  0
VERTEX
  8
LAYER_43
 10
160.0912
 20
-148.9208
  0
SEQEND
  0
ENDBLK
  0
ENDSEC
  0
SECTION
  2
ENTITIES
  0
INSERT
  8
LAYER_1
  2
AIGNBL01010002
 10
0
 20
0
 30
0
  0
INSERT
  8
LAYER_1
  2
AIGNBL01010043
 10
0
 20
0
 30
0
  0
INSERT
  8
LAYER_1
  2
AIGNBL01010084
 10
0
 20
0
 30
0
  0
POLYLINE
  8
LAYER_1
 40
0.05
 41
0.05
 66
1
 10
0
 20
0
 30
0
  0
VERTEX
  8
LAYER_1
 10
144.867
 20
-228.8036
  0
VERTEX
  8
LAYER_1
 10
144.355
 20
-230.7156
  0
VERTEX
  8
LAYER_1
 10
143.8424
 20
-228.8036
  0
SEQEND
  0
POLYLINE
  8
LAYER_1
 40
0.1058
 41
0.1058
 66
1
 10
0
 20
0
 30
0
  0
VERTEX
  8
LAYER_1
 10
144.3771
 20
-229.1292
  0
VERTEX
  8
LAYER_1
 10
144.3771
 20
-181.3875
  0
SEQEND
  0
POLYLINE
  8
LAYER_1
 40
0.05
 41
0.05
 66
1
 10
0
 20
0
 30
0
  0
VERTEX
  8
LAYER_1
 10
144.867
 20
-183.4897
  0
VERTEX
  8
LAYER_1
 10
144.355
 20
-181.578
  0
VERTEX
  8
LAYER_1
 10
143.8424
 20
-183.4897
  0
SEQEND
  0
TEXT
  8
LAYER_1
 10
148.4874
 20
-199.089
 11
148.4874
 21
-199.089
 40
3.7611
 41
0.5
 50
89.99999999
  1
490
  0
POLYLINE
  8
LAYER_1
 40
0.05
 41
0.05
 66
1
 10
0
 20
0
 30
0
  0
VERTEX
  8
LAYER_1
 10
251.4058
 20
-228.8036
  0
VERTEX
  8
LAYER_1
 10
250.8939
 20
-230.7156
  0
VERTEX
  8
LAYER_1
 10
250.3813
 20
-228.8036
  0
SEQEND
  0
POLYLINE
  8
LAYER_1
 40
0.1058
 41
0.1058
 66
1
 10
0
 20
0
 30
0
  0
VERTEX
  8
LAYER_1
 10
250.9159
 20
-229.1292
  0
VERTEX
  8
LAYER_1
 10
250.9159
 20
-182.152
  0
SEQEND
  0
POLYLINE
  8
LAYER_1
 40
0.05
 41
0.05
 66
1
 10
0
 20
0
 30
0
  0
VERTEX
  8
LAYER_1
 10
251.4058
 20
-183.4897
  0
VERTEX
  8
LAYER_1
 10
250.8939
 20
-181.578
  0
VERTEX
  8
LAYER_1
 10
250.3813
 20
-183.4897
  0
SEQEND
  0
TEXT
  8
LAYER_1
 10
253.9902
 20
-199.089
 11
253.9902
 21
-199.089
 40
3.7611
 41
0.5
 50
89.99999999
  1
給水490
  0
POLYLINE
  8
LAYER_1
 40
0.0882
 41
0.0882
 66
1
 10
0
 20
0
 30
0
  0
VERTEX
  8
LAYER_1
 10
131.5427
 20
-193.0997
  0
VERTEX
  8
LAYER_1
 10
139.5429
 20
-193.0997
  0
SEQEND
  0
POLYLINE
  8
LAYER_1
 40
0.0882
 41
0.0882
 66
1
 10
0
 20
0
 30
0
  0
VERTEX
  8
LAYER_1
 10
139.6283
 20
-187.0566
  0
VERTEX
  8
LAYER_1
 10
139.6283
 20
-193.5593
  0
SEQEND
  0
TEXT
  8
LAYER_1
 10
133.8389
 20
-196.578
 11
133.8389
 21
-196.578
 40
3.258
 41
0.5
  1
80
  0
POLYLINE
  8
LAYER_1
 40
0.0882
 41
0.0882
 66
1
 10
0
 20
0
 30
0
  0
VERTEX
  8
LAYER_1
 10
123.5425
 20
-193.0997
  0
VERTEX
  8
LAYER_1
 10
131.5427
 20
-193.0997
  0
SEQEND
  0
POLYLINE
  8
LAYER_1
 40
0.0882
 41
0.0882
 66
1
 10
0
 20
0
 30
0
  0
VERTEX
  8
LAYER_1
 10
123.6279
 20
-187.0566
  0
VERTEX
  8
LAYER_1
 10
123.6279
 20
-193.5593
  0
SEQEND
  0
TEXT
  8
LAYER_1
 10
125.8388
 20
-196.578
 11
125.8388
 21
-196.578
 40
3.258
 41
0.5
  1
80
  0
POLYLINE
  8
LAYER_1
 40
0.1058
 41
0.1058
 66
1
 10
0
 20
0
 30
0
  0
VERTEX
  8
LAYER_1
 10
251.8861
 20
-181.6614
  0
VERTEX
  8
LAYER_1
 10
249.8859
 20
-181.6614
  0
SEQEND
  0
INSERT
  8
LAYER_1
  2
AIGNBL010100C5
 10
0
 20
0
 30
0
  0
INSERT
  8
LAYER_1
  2
AIGNBL01010133
 10
0
 20
0
 30
0
  0
INSERT
  8
LAYER_1
  2
AIGNBL0101016D
 10
0
 20
0
 30
0
  0
INSERT
  8
LAYER_2
  2
AIGNBL02010002
 10
0
 20
0
 30
0
  0
INSERT
  8
LAYER_2
  2
AIGNBL02010003
 10
0
 20
0
 30
0
  0
INSERT
  8
LAYER_2
  2
AIGNBL02010004
 10
0
 20
0
 30
0
  0
INSERT
  8
LAYER_3
  2
AIGNBL03010002
 10
0
 20
0
 30
0
  0
CIRCLE
  8
LAYER_3
 10
131.8204
 20
-176.2652
 40
3.75
  0
POLYLINE
  8
LAYER_13
  6
AIGENLINE001
 40
0.1764
 41
0.1764
 66
1
 10
0
 20
0
 30
0
 70
128
  0
VERTEX
  8
LAYER_13
 10
124.1754
 20
-61.8696
  0
VERTEX
  8
LAYER_13
 10
124.1754
 20
-56.9018
  0
SEQEND
  0
POLYLINE
  8
LAYER_13
  6
AIGENLINE001
 40
0.1764
 41
0.1764
 66
1
 10
0
 20
0
 30
0
 70
128
  0
VERTEX
  8
LAYER_13
 10
139.1753
 20
-61.8696
  0
VERTEX
  8
LAYER_13
 10
139.1753
 20
-56.9018
  0
SEQEND
  0
POLYLINE
  8
LAYER_30
 40
0.1764
 41
0.1764
 66
1
 10
0
 20
0
 30
0
 70
1
  0
VERTEX
  8
LAYER_30
 10
194.8191
 20
-17.6279
  0
VERTEX
  8
LAYER_30
 10
152.2398
 20
-17.6279
  0
VERTEX
  8
LAYER_30
 10
152.2398
 20
-11.6279
  0
VERTEX
  8
LAYER_30
 10
194.8191
 20
-11.6279
  0
SEQEND
  0
POLYLINE
  8
LAYER_30
 40
0.1764
 41
0.1764
 66
1
 10
0
 20
0
 30
0
 70
1
  0
VERTEX
  8
LAYER_30
 10
194.8191
 20
-23.6279
  0
VERTEX
  8
LAYER_30
 10
152.2398
 20
-23.6279
  0
VERTEX
  8
LAYER_30
 10
152.2398
 20
-17.6279
  0
VERTEX
  8
LAYER_30
 10
194.8191
 20
-17.6279
  0
SEQEND
  0
POLYLINE
  8
LAYER_30
 40
0.1764
 41
0.1764
 66
1
 10
0
 20
0
 30
0
 70
1
  0
VERTEX
  8
LAYER_30
 10
194.8191
 20
-29.6278
  0
VERTEX
  8
LAYER_30
 10
152.2398
 20
-29.6278
  0
VERTEX
  8
LAYER_30
 10
152.2398
 20
-23.6279
  0
VERTEX
  8
LAYER_30
 10
194.8191
 20
-23.6279
  0
SEQEND
  0
POLYLINE
  8
LAYER_30
 40
0.1764
 41
0.1764
 66
1
 10
0
 20
0
 30
0
 70
1
  0
VERTEX
  8
LAYER_30
 10
194.8191
 20
-35.6278
  0
VERTEX
  8
LAYER_30
 10
152.2398
 20
-35.6278
  0
VERTEX
  8
LAYER_30
 10
152.2398
 20
-29.6278
  0
VERTEX
  8
LAYER_30
 10
194.8191
 20
-29.6278
  0
SEQEND
  0
POLYLINE
  8
LAYER_30
 40
0.1764
 41
0.1764
 66
1
 10
0
 20
0
 30
0
 70
1
  0
VERTEX
  8
LAYER_30
 10
194.8191
 20
-41.6278
  0
VERTEX
  8
LAYER_30
 10
152.2398
 20
-41.6278
  0
VERTEX
  8
LAYER_30
 10
152.2398
 20
-35.6278
  0
VERTEX
  8
LAYER_30
 10
194.8191
 20
-35.6278
  0
SEQEND
  0
POLYLINE
  8
LAYER_30
 40
0.1764
 41
0.1764
 66
1
 10
0
 20
0
 30
0
 70
1
  0
VERTEX
  8
LAYER_30
 10
251.4961
 20
-17.6279
  0
VERTEX
  8
LAYER_30
 10
194.6327
 20
-17.6279
  0
VERTEX
  8
LAYER_30
 10
194.6327
 20
-11.6279
  0
VERTEX
  8
LAYER_30
 10
251.4961
 20
-11.6279
  0
SEQEND
  0
POLYLINE
  8
LAYER_30
 40
0.1764
 41
0.1764
 66
1
 10
0
 20
0
 30
0
 70
1
  0
VERTEX
  8
LAYER_30
 10
251.4961
 20
-23.6279
  0
VERTEX
  8
LAYER_30
 10
194.6327
 20
-23.6279
  0
VERTEX
  8
LAYER_30
 10
194.6327
 20
-17.6279
  0
VERTEX
  8
LAYER_30
 10
251.4961
 20
-17.6279
  0
SEQEND
  0
POLYLINE
  8
LAYER_30
 40
0.1764
 41
0.1764
 66
1
 10
0
 20
0
 30
0
 70
1
  0
VERTEX
  8
LAYER_30
 10
251.4961
 20
-29.6278
  0
VERTEX
  8
LAYER_30
 10
194.6327
 20
-29.6278
  0
VERTEX
  8
LAYER_30
 10
194.6327
 20
-23.6279
  0
VERTEX
  8
LAYER_30
 10
251.4961
 20
-23.6279
  0
SEQEND
  0
POLYLINE
  8
LAYER_30
 40
0.1764
 41
0.1764
 66
1
 10
0
 20
0
 30
0
 70
1
  0
VERTEX
  8
LAYER_30
 10
251.4961
 20
-35.6278
  0
VERTEX
  8
LAYER_30
 10
194.6327
 20
-35.6278
  0
VERTEX
  8
LAYER_30
 10
194.6327
 20
-29.6278
  0
VERTEX
  8
LAYER_30
 10
251.4961
 20
-29.6278
  0
SEQEND
  0
POLYLINE
  8
LAYER_30
 40
0.1764
 41
0.1764
 66
1
 10
0
 20
0
 30
0
 70
1
  0
VERTEX
  8
LAYER_30
 10
251.4961
 20
-41.6278
  0
VERTEX
  8
LAYER_30
 10
194.6327
 20
-41.6278
  0
VERTEX
  8
LAYER_30
 10
194.6327
 20
-35.6278
  0
VERTEX
  8
LAYER_30
 10
251.4961
 20
-35.6278
  0
SEQEND
  0
TEXT
  8
LAYER_30
 10
153.5669
 20
-16.1001
 11
153.5669
 21
-16.1001
 40
3.7519
 41
0.5
  1
手洗器
  0
TEXT
  8
LAYER_30
 10
153.5669
 20
-22.1001
 11
153.5669
 21
-22.1001
 40
3.7519
 41
0.5
  1
排水目皿
  0
TEXT
  8
LAYER_30
 10
153.5669
 20
-28.1001
 11
153.5669
 21
-28.1001
 40
3.7519
 41
0.5
  1
水栓金具
  0
TEXT
  8
LAYER_30
 10
153.5669
 20
-34.1001
 11
153.5669
 21
-34.1001
 40
3.7519
 41
0.5
  1
トラップ
  0
TEXT
  8
LAYER_30
 10
153.5669
 20
-40.1001
 11
153.5669
 21
-40.1001
 40
4.5023
 41
0.5
  1
止水栓1/2
  0
TEXT
  8
LAYER_30
 10
200.1659
 20
-16.2402
 11
200.1659
 21
-16.2402
 40
4.5023
 41
0.5
  1
CIE-LGLS56/
  0
TEXT
  8
LAYER_30
 10
200.1659
 20
-22.2402
 11
200.1659
 21
-22.2402
 40
4.5023
 41
0.5
  1
PIL01N/
  0
TEXT
  8
LAYER_30
 10
200.1659
 20
-28.2401
 11
200.1659
 21
-28.2401
 40
4.5023
 41
0.5
  1
10003000
  0
TEXT
  8
LAYER_30
 10
200.1659
 20
-34.2401
 11
200.1659
 21
-34.2401
 40
4.5023
 41
0.5
  1
CIE-SIFR
  0
TEXT
  8
LAYER_30
 10
200.1659
 20
-40.2401
 11
200.1659
 21
-40.2401
 40
4.5023
 41
0.5
  1
AQ-2261F×2
  0
POLYLINE
  8
LAYER_42
 40
0.3528
 41
0.3528
 66
1
 10
0
 20
0
 30
0
  0
VERTEX
  8
LAYER_42
 10
76.9393
 20
-230.5782
  0
VERTEX
  8
LAYER_42
 10
257.0868
 20
-230.5782
  0
SEQEND
  0
POLYLINE
  8
LAYER_42
 40
0.3528
 41
0.3528
 66
1
 10
0
 20
0
 30
0
  0
VERTEX
  8
LAYER_42
 10
247.5522
 20
-71.3321
  0
VERTEX
  8
LAYER_42
 10
247.5522
 20
-230.5782
  0
SEQEND
  0
POLYLINE
  8
LAYER_42
 40
0.3528
 41
0.3528
 66
1
 10
0
 20
0
 30
0
  0
VERTEX
  8
LAYER_42
 10
247.5522
 20
-71.3321
  0
VERTEX
  8
LAYER_42
 10
247.5522
 20
-230.5782
  0
SEQEND
  0
TEXT
  8
LAYER_43
 10
70.625
 20
-231.2486
 11
70.625
 21
-231.2486
 40
3.258
 41
0.5
  1
F.L
  0
POLYLINE
  8
LAYER_43
 40
0.1058
 41
0.1058
 66
1
 10
0
 20
0
 30
0
 70
1
  0
VERTEX
  8
LAYER_43
 10
162.6071
 20
-150.5782
  0
VERTEX
  8
LAYER_43
 10
106.6064
 20
-150.5782
  0
VERTEX
  8
LAYER_43
 10
106.6484
 20
-152.4193
 42
0.1742217583
  0
VERTEX
  8
LAYER_43
 10
116.9348
 20
-177.2457
  0
VERTEX
  8
LAYER_43
 10
118.204
 20
-178.5783
  0
VERTEX
  8
LAYER_43
 10
119.2203
 20
-179.5312
 42
0.1681877642
  0
VERTEX
  8
LAYER_43
 10
133.2101
 20
-185.3303
  0
VERTEX
  8
LAYER_43
 10
134.6061
 20
-185.3723
  0
VERTEX
  8
LAYER_43
 10
135.9827
 20
-185.3303
 42
0.0295169595
  0
VERTEX
  8
LAYER_43
 10
138.9813
 20
-184.951
 42
0.02944189375
  0
VERTEX
  8
LAYER_43
 10
141.5356
 20
-184.318
 42
0.01892937665
  0
VERTEX
  8
LAYER_43
 10
142.7337
 20
-183.8902
  0
VERTEX
  8
LAYER_43
 10
144.025
 20
-183.3824
  0
VERTEX
  8
LAYER_43
 10
144.025
 20
-183.3834
  0
VERTEX
  8
LAYER_43
 10
145.2941
 20
-182.7692
 42
0.03253929085
  0
VERTEX
  8
LAYER_43
 10
147.7672
 20
-181.2798
 42
0.02816874276
  0
VERTEX
  8
LAYER_43
 10
149.8734
 20
-179.6368
 42
0.01601625795
  0
VERTEX
  8
LAYER_43
 10
151.0089
 20
-178.5783
  0
VERTEX
  8
LAYER_43
 10
152.2581
 20
-177.2664
 42
0.1288211521
  0
VERTEX
  8
LAYER_43
 10
161.5068
 20
-159.8059
  0
VERTEX
  8
LAYER_43
 10
161.8878
 20
-158.0283
  0
VERTEX
  8
LAYER_43
 10
161.9092
 20
-158.0283
  0
VERTEX
  8
LAYER_43
 10
162.2048
 20
-156.1869
  0
VERTEX
  8
LAYER_43
 10
162.4383
 20
-154.3237
  0
VERTEX
  8
LAYER_43
 10
162.5637
 20
-152.4624
  0
SEQEND
  0
INSERT
  8
LAYER_43
  2
AIGNBL2B010002
 10
0
 20
0
 30
0
  0
INSERT
  8
LAYER_43
  2
AIGNBL2B010003
 10
0
 20
0
 30
0
  0
INSERT
  8
LAYER_43
  2
AIGNBL2B010004
 10
0
 20
0
 30
0
  0
INSERT
  8
LAYER_43
  2
AIGNBL2B010005
 10
0
 20
0
 30
0
  0
POLYLINE
  8
LAYER_43
 40
0.1058
 41
0.1058
 66
1
 10
0
 20
0
 30
0
  0
VERTEX
  8
LAYER_43
 10
130.9956
 20
-175.3323
  0
VERTEX
  8
LAYER_43
 10
132.508
 20
-176.845
  0
SEQEND
  0
POLYLINE
  8
LAYER_43
 40
0.1058
 41
0.1058
 66
1
 10
0
 20
0
 30
0
  0
VERTEX
  8
LAYER_43
 10
130.9956
 20
-176.845
  0
VERTEX
  8
LAYER_43
 10
132.508
 20
-175.3323
  0
SEQEND
  0
POLYLINE
  8
LAYER_43
  6
AIGENLINE007
 40
0.1058
 41
0.1058
 66
1
 10
0
 20
0
 30
0
 70
129
  0
VERTEX
  8
LAYER_43
 10
143.5247
 20
-174.0666
  0
VERTEX
  8
LAYER_43
 10
147.2503
 20
-174.0666
  0
VERTEX
  8
LAYER_43
 10
147.2503
 20
-153.591
  0
VERTEX
  8
LAYER_43
 10
116.2534
 20
-153.591
  0
VERTEX
  8
LAYER_43
 10
116.2534
 20
-174.0666
  0
VERTEX
  8
LAYER_43
 10
119.9796
 20
-174.0666
  0
VERTEX
  8
LAYER_43
 10
122.5613
 20
-168.5637
  0
VERTEX
  8
LAYER_43
 10
141.0284
 20
-168.5637
  0
SEQEND
  0
POLYLINE
  8
LAYER_43
 40
0.1058
 41
0.1058
 66
1
 10
0
 20
0
 30
0
  0
VERTEX
  8
LAYER_43
 10
174.3632
 20
-176.0892
  0
VERTEX
  8
LAYER_43
 10
134.0556
 20
-176.0892
  0
SEQEND
  0
POLYLINE
  8
LAYER_43
 40
0.1058
 41
0.1058
 66
1
 10
0
 20
0
 30
0
  0
VERTEX
  8
LAYER_43
 10
174.3632
 20
-229.3056
  0
VERTEX
  8
LAYER_43
 10
174.3632
 20
-152.1406
  0
SEQEND
  0
POLYLINE
  8
LAYER_43
 40
0.05
 41
0.05
 66
1
 10
0
 20
0
 30
0
  0
VERTEX
  8
LAYER_43
 10
174.8531
 20
-174.1761
  0
VERTEX
  8
LAYER_43
 10
174.3411
 20
-176.0881
  0
VERTEX
  8
LAYER_43
 10
173.8285
 20
-174.1761
  0
SEQEND
  0
POLYLINE
  8
LAYER_43
 40
0.05
 41
0.05
 66
1
 10
0
 20
0
 30
0
  0
VERTEX
  8
LAYER_43
 10
174.8531
 20
-152.4899
  0
VERTEX
  8
LAYER_43
 10
174.3411
 20
-150.5782
  0
VERTEX
  8
LAYER_43
 10
173.8285
 20
-152.4899
  0
SEQEND
  0
POLYLINE
  8
LAYER_43
 40
0.1058
 41
0.1058
 66
1
 10
0
 20
0
 30
0
  0
VERTEX
  8
LAYER_43
 10
174.3632
 20
-150.5782
  0
VERTEX
  8
LAYER_43
 10
169.0715
 20
-150.5782
  0
SEQEND
  0
POLYLINE
  8
LAYER_43
 40
0.1058
 41
0.1058
 66
1
 10
0
 20
0
 30
0
  0
VERTEX
  8
LAYER_43
 10
93.5757
 20
-152.1395
  0
VERTEX
  8
LAYER_43
 10
93.5757
 20
-229.0065
  0
SEQEND
  0
POLYLINE
  8
LAYER_43
 40
0.05
 41
0.05
 66
1
 10
0
 20
0
 30
0
  0
VERTEX
  8
LAYER_43
 10
93.0837
 20
-152.4892
  0
VERTEX
  8
LAYER_43
 10
93.5964
 20
-150.5772
  0
VERTEX
  8
LAYER_43
 10
94.1083
 20
-152.4892
  0
SEQEND
  0
POLYLINE
  8
LAYER_43
 40
0.05
 41
0.05
 66
1
 10
0
 20
0
 30
0
  0
VERTEX
  8
LAYER_43
 10
93.0837
 20
-228.6572
  0
VERTEX
  8
LAYER_43
 10
93.5964
 20
-230.5692
  0
VERTEX
  8
LAYER_43
 10
94.1083
 20
-228.6572
  0
SEQEND
  0
POLYLINE
  8
LAYER_43
 40
0.1058
 41
0.1058
 66
1
 10
0
 20
0
 30
0
  0
VERTEX
  8
LAYER_43
 10
98.866
 20
-150.5772
  0
VERTEX
  8
LAYER_43
 10
93.5757
 20
-150.5772
  0
SEQEND
  0
TEXT
  8
LAYER_43
 10
92.3975
 20
-195.5591
 11
92.3975
 21
-195.5591
 40
3.7611
 41
0.5
 50
89.99999999
  1
800
  0
TEXT
  8
LAYER_43
 10
173.3579
 20
-164.4058
 11
173.3579
 21
-164.4058
 40
3.7611
 41
0.5
 50
89.99999999
  1
255
  0
POLYLINE
  8
LAYER_43
 40
0.05
 41
0.05
 66
1
 10
0
 20
0
 30
0
  0
VERTEX
  8
LAYER_43
 10
174.8531
 20
-178.0008
  0
VERTEX
  8
LAYER_43
 10
174.3411
 20
-176.0892
  0
VERTEX
  8
LAYER_43
 10
173.8285
 20
-178.0008
  0
SEQEND
  0
POLYLINE
  8
LAYER_43
 40
0.1058
 41
0.1058
 66
1
 10
0
 20
0
 30
0
  0
VERTEX
  8
LAYER_43
 10
174.3632
 20
-176.0892
  0
VERTEX
  8
LAYER_43
 10
169.0715
 20
-176.0892
  0
SEQEND
  0
POLYLINE
  8
LAYER_43
 40
0.05
 41
0.05
 66
1
 10
0
 20
0
 30
0
  0
VERTEX
  8
LAYER_43
 10
174.8531
 20
-228.8036
  0
VERTEX
  8
LAYER_43
 10
174.3411
 20
-230.7156
  0
VERTEX
  8
LAYER_43
 10
173.8285
 20
-228.8036
  0
SEQEND
  0
POLYLINE
  8
LAYER_43
 40
0.05
 41
0.05
 66
1
 10
0
 20
0
 30
0
  0
VERTEX
  8
LAYER_43
 10
144.867
 20
-228.8036
  0
VERTEX
  8
LAYER_43
 10
144.355
 20
-230.7156
  0
VERTEX
  8
LAYER_43
 10
143.8424
 20
-228.8036
  0
SEQEND
  0
POLYLINE
  8
LAYER_43
 40
0.1058
 41
0.1058
 66
1
 10
0
 20
0
 30
0
  0
VERTEX
  8
LAYER_43
 10
174.3632
 20
-230.7167
  0
VERTEX
  8
LAYER_43
 10
169.0715
 20
-230.7167
  0
SEQEND
  0
TEXT
  8
LAYER_43
 10
173.3582
 20
-199.089
 11
173.3582
 21
-199.089
 40
3.7611
 41
0.5
 50
89.99999999
  1
545
  0
POLYLINE
  8
LAYER_43
 40
0.05
 41
0.05
 66
1
 10
0
 20
0
 30
0
  0
VERTEX
  8
LAYER_43
 10
251.4058
 20
-228.8036
  0
VERTEX
  8
LAYER_43
 10
250.8939
 20
-230.7156
  0
VERTEX
  8
LAYER_43
 10
250.3813
 20
-228.8036
  0
SEQEND
  0
TEXT
  8
LAYER_43
 10
258.8116
 20
-190.152
 11
258.8116
 21
-190.152
 40
3.7611
 41
0.5
 50
89.99999999
  1
排水545
  0
POLYLINE
  8
LAYER_43
 40
0.1058
 41
0.1058
 66
1
 10
0
 20
0
 30
0
  0
VERTEX
  8
LAYER_43
 10
130.6105
 20
-178.16
  0
VERTEX
  8
LAYER_43
 10
133.0303
 20
-178.16
  0
SEQEND
  0
POLYLINE
  8
LAYER_43
 40
0.1058
 41
0.1058
 66
1
 10
0
 20
0
 30
0
  0
VERTEX
  8
LAYER_43
 10
130.1702
 20
-177.7201
  0
VERTEX
  8
LAYER_43
 10
130.1702
 20
-173.2101
  0
SEQEND
  0
POLYLINE
  8
LAYER_43
 40
0.1058
 41
0.1058
 66
1
 10
0
 20
0
 30
0
  0
VERTEX
  8
LAYER_43
 10
133.4706
 20
-173.2101
  0
VERTEX
  8
LAYER_43
 10
133.4706
 20
-177.7201
  0
SEQEND
  0
POLYLINE
  8
LAYER_43
 40
0.1058
 41
0.1058
 66
1
 10
0
 20
0
 30
0
 70
1
  0
VERTEX
  8
LAYER_43
 10
133.4706
 20
-172.1097
  0
VERTEX
  8
LAYER_43
 10
130.1702
 20
-172.1097
  0
VERTEX
  8
LAYER_43
 10
130.1702
 20
-171.7625
  0
VERTEX
  8
LAYER_43
 10
133.4706
 20
-171.7625
  0
SEQEND
  0
INSERT
  8
LAYER_43
  2
AIGNBL2B010006
 10
0
 20
0
 30
0
  0
INSERT
  8
LAYER_43
  2
AIGNBL2B010007
 10
0
 20
0
 30
0
  0
POLYLINE
  8
LAYER_43
 40
0.1058
 41
0.1058
 66
1
 10
0
 20
0
 30
0
  0
VERTEX
  8
LAYER_43
 10
130.1702
 20
-177.7201
 42
0.4142102305
  0
VERTEX
  8
LAYER_43
 10
130.6105
 20
-178.16
  0
SEQEND
  0
POLYLINE
  8
LAYER_43
 40
0.1058
 41
0.1058
 66
1
 10
0
 20
0
 30
0
  0
VERTEX
  8
LAYER_43
 10
133.4706
 20
-177.7201
 42
-0.4141935925
  0
VERTEX
  8
LAYER_43
 10
133.0303
 20
-178.16
  0
SEQEND
  0
POLYLINE
  8
LAYER_43
 40
0.1164
 41
0.1164
 66
1
 10
0
 20
0
 30
0
  0
VERTEX
  8
LAYER_43
 10
245.9929
 20
-195.104
  0
VERTEX
  8
LAYER_43
 10
224.1689
 20
-195.104
  0
SEQEND
  0
POLYLINE
  8
LAYER_43
 40
0.05
 41
0.05
 66
1
 10
0
 20
0
 30
0
  0
VERTEX
  8
LAYER_43
 10
245.6449
 20
-194.6148
  0
VERTEX
  8
LAYER_43
 10
247.5522
 20
-195.1257
  0
VERTEX
  8
LAYER_43
 10
245.6449
 20
-195.6366
  0
SEQEND
  0
POLYLINE
  8
LAYER_43
 40
0.05
 41
0.05
 66
1
 10
0
 20
0
 30
0
  0
VERTEX
  8
LAYER_43
 10
224.5182
 20
-194.6148
  0
VERTEX
  8
LAYER_43
 10
222.611
 20
-195.1257
  0
VERTEX
  8
LAYER_43
 10
224.5182
 20
-195.6366
  0
SEQEND
  0
POLYLINE
  8
LAYER_43
 40
0.1164
 41
0.1164
 66
1
 10
0
 20
0
 30
0
  0
VERTEX
  8
LAYER_43
 10
222.611
 20
-195.104
  0
VERTEX
  8
LAYER_43
 10
222.611
 20
-189.8251
  0
SEQEND
  0
TEXT
  8
LAYER_43
 10
231.5847
 20
-199.007
 11
231.5847
 21
-199.007
 40
3.7611
 41
0.5
  1
250
  0
POLYLINE
  8
LAYER_43
 40
0.1164
 41
0.1164
 66
1
 10
0
 20
0
 30
0
  0
VERTEX
  8
LAYER_43
 10
153.6854
 20
-158.5736
  0
VERTEX
  8
LAYER_43
 10
142.2807
 20
-158.5736
  0
SEQEND
  0
POLYLINE
  8
LAYER_43
 40
0.1164
 41
0.1164
 66
1
 10
0
 20
0
 30
0
  0
VERTEX
  8
LAYER_43
 10
153.6854
 20
-157.0144
  0
VERTEX
  8
LAYER_43
 10
153.6854
 20
-152.1375
  0
SEQEND
  0
POLYLINE
  8
LAYER_43
 40
0.05
 41
0.05
 66
1
 10
0
 20
0
 30
0
  0
VERTEX
  8
LAYER_43
 10
154.1752
 20
-156.6664
  0
VERTEX
  8
LAYER_43
 10
153.664
 20
-158.5736
  0
VERTEX
  8
LAYER_43
 10
153.1534
 20
-156.6664
  0
SEQEND
  0
POLYLINE
  8
LAYER_43
 40
0.05
 41
0.05
 66
1
 10
0
 20
0
 30
0
  0
VERTEX
  8
LAYER_43
 10
154.1752
 20
-152.4858
  0
VERTEX
  8
LAYER_43
 10
153.664
 20
-150.5782
  0
VERTEX
  8
LAYER_43
 10
153.1534
 20
-152.4858
  0
SEQEND
  0
INSERT
  8
LAYER_43
  2
AIGNBL2B010008
 10
0
 20
0
 30
0
  0
POLYLINE
  8
LAYER_43
 40
0.1164
 41
0.1164
 66
1
 10
0
 20
0
 30
0
  0
VERTEX
  8
LAYER_43
 10
148.3655
 20
-150.5782
  0
VERTEX
  8
LAYER_43
 10
143.0862
 20
-150.5782
  0
SEQEND
  0
TEXT
  8
LAYER_43
 10
155.1519
 20
-156.0755
 11
155.1519
 21
-156.0755
 40
3.7611
 41
0.5
  1
80
  0
TEXT
  8
LAYER_43
 10
113.7019
 20
-148.539
 11
113.7019
 21
-148.539
 40
3.7611
 41
0.5
  1
176
  0
INSERT
  8
LAYER_43
  2
AIGNBL2B010009
 10
0
 20
0
 30
0
  0
TEXT
  8
LAYER_43
 10
128.7153
 20
-148.5393
 11
128.7153
 21
-148.5393
 40
3.7611
 41
0.5
  1
150
  0
INSERT
  8
LAYER_43
  2
AIGNBL2B01000A
 10
0
 20
0
 30
0
  0
TEXT
  8
LAYER_43
 10
128.7153
 20
-56.5574
 11
128.7153
 21
-56.5574
 40
3.7611
 41
0.5
  1
150
  0
POLYLINE
  8
LAYER_43
 40
0.0882
 41
0.0882
 66
1
 10
0
 20
0
 30
0
  0
VERTEX
  8
LAYER_43
 10
131.5427
 20
-193.0997
  0
VERTEX
  8
LAYER_43
 10
139.5429
 20
-193.0997
  0
SEQEND
  0
POLYLINE
  8
LAYER_43
 40
0.0882
 41
0.0882
 66
1
 10
0
 20
0
 30
0
  0
VERTEX
  8
LAYER_43
 10
139.6283
 20
-187.0566
  0
VERTEX
  8
LAYER_43
 10
139.6283
 20
-193.5593
  0
SEQEND
  0
TEXT
  8
LAYER_43
 10
133.8389
 20
-196.578
 11
133.8389
 21
-196.578
 40
3.258
 41
0.5
  1
80
  0
POLYLINE
  8
LAYER_43
 40
0.0882
 41
0.0882
 66
1
 10
0
 20
0
 30
0
  0
VERTEX
  8
LAYER_43
 10
123.5425
 20
-193.0997
  0
VERTEX
  8
LAYER_43
 10
131.5427
 20
-193.0997
  0
SEQEND
  0
POLYLINE
  8
LAYER_43
 40
0.0882
 41
0.0882
 66
1
 10
0
 20
0
 30
0
  0
VERTEX
  8
LAYER_43
 10
123.6279
 20
-187.0566
  0
VERTEX
  8
LAYER_43
 10
123.6279
 20
-193.5593
  0
SEQEND
  0
TEXT
  8
LAYER_43
 10
125.8388
 20
-196.578
 11
125.8388
 21
-196.578
 40
3.258
 41
0.5
  1
80
  0
INSERT
  8
LAYER_43
  2
AIGNBL2B01000B
 10
0
 20
0
 30
0
  0
POLYLINE
  8
LAYER_43
 40
0.1164
 41
0.1164
 66
1
 10
0
 20
0
 30
0
  0
VERTEX
  8
LAYER_43
 10
106.6064
 20
-149.9788
  0
VERTEX
  8
LAYER_43
 10
106.6064
 20
-148.3231
  0
SEQEND
  0
POLYLINE
  8
LAYER_43
 40
0.1164
 41
0.1164
 66
1
 10
0
 20
0
 30
0
  0
VERTEX
  8
LAYER_43
 10
162.6512
 20
-149.9788
  0
VERTEX
  8
LAYER_43
 10
162.6512
 20
-148.3231
  0
SEQEND
  0
INSERT
  8
LAYER_43
  2
AIGNBL2B01000C
 10
0
 20
0
 30
0
  0
TEXT
  8
LAYER_43
 10
148.6855
 20
-148.5393
 11
148.6855
 21
-148.5393
 40
3.7611
 41
0.5
  1
234
  0
POLYLINE
  8
LAYER_43
 40
0.1164
 41
0.1164
 66
1
 10
0
 20
0
 30
0
  0
VERTEX
  8
LAYER_43
 10
139.2514
 20
-149.9788
  0
VERTEX
  8
LAYER_43
 10
139.2514
 20
-148.3231
  0
SEQEND
  0
POLYLINE
  8
LAYER_43
 40
0.05
 41
0.05
 66
1
 10
0
 20
0
 30
0
  0
VERTEX
  8
LAYER_43
 10
255.1982
 20
-228.8036
  0
VERTEX
  8
LAYER_43
 10
254.6863
 20
-230.7156
  0
VERTEX
  8
LAYER_43
 10
254.1736
 20
-228.8036
  0
SEQEND
  0
POLYLINE
  8
LAYER_43
 40
0.1058
 41
0.1058
 66
1
 10
0
 20
0
 30
0
  0
VERTEX
  8
LAYER_43
 10
254.7083
 20
-229.1292
  0
VERTEX
  8
LAYER_43
 10
254.7083
 20
-176.5797
  0
SEQEND
  0
POLYLINE
  8
LAYER_43
 40
0.05
 41
0.05
 66
1
 10
0
 20
0
 30
0
  0
VERTEX
  8
LAYER_43
 10
255.1982
 20
-177.9175
  0
VERTEX
  8
LAYER_43
 10
254.6863
 20
-176.0058
  0
VERTEX
  8
LAYER_43
 10
254.1736
 20
-177.9175
  0
SEQEND
  0
POLYLINE
  8
LAYER_43
 40
0.1058
 41
0.1058
 66
1
 10
0
 20
0
 30
0
  0
VERTEX
  8
LAYER_43
 10
255.6784
 20
-176.0892
  0
VERTEX
  8
LAYER_43
 10
252.1186
 20
-176.0892
  0
SEQEND
  0
POLYLINE
  8
LAYER_43
 40
0.1164
 41
0.1164
 66
1
 10
0
 20
0
 30
0
  0
VERTEX
  8
LAYER_43
 10
117.9125
 20
-50.6822
  0
VERTEX
  8
LAYER_43
 10
145.7227
 20
-50.6822
  0
SEQEND
  0
POLYLINE
  8
LAYER_43
 40
0.05
 41
0.05
 66
1
 10
0
 20
0
 30
0
  0
VERTEX
  8
LAYER_43
 10
118.2612
 20
-51.1717
  0
VERTEX
  8
LAYER_43
 10
116.3533
 20
-50.6605
  0
VERTEX
  8
LAYER_43
 10
118.2612
 20
-50.1496
  0
SEQEND
  0
POLYLINE
  8
LAYER_43
 40
0.05
 41
0.05
 66
1
 10
0
 20
0
 30
0
  0
VERTEX
  8
LAYER_43
 10
145.3741
 20
-51.1717
  0
VERTEX
  8
LAYER_43
 10
147.2813
 20
-50.6605
  0
VERTEX
  8
LAYER_43
 10
145.3741
 20
-50.1496
  0
SEQEND
  0
POLYLINE
  8
LAYER_43
 40
0.1164
 41
0.1164
 66
1
 10
0
 20
0
 30
0
  0
VERTEX
  8
LAYER_43
 10
147.282
 20
-50.6822
  0
VERTEX
  8
LAYER_43
 10
147.282
 20
-55.9611
  0
SEQEND
  0
POLYLINE
  8
LAYER_43
 40
0.1164
 41
0.1164
 66
1
 10
0
 20
0
 30
0
  0
VERTEX
  8
LAYER_43
 10
116.354
 20
-55.9611
  0
VERTEX
  8
LAYER_43
 10
116.354
 20
-50.6822
  0
SEQEND
  0
TEXT
  8
LAYER_43
 10
127.3182
 20
-49.3057
 11
127.3182
 21
-49.3057
 40
3.7611
 41
0.5
  1
310
  0
POLYLINE
  8
LAYER_43
 40
0.1164
 41
0.1164
 66
1
 10
0
 20
0
 30
0
  0
VERTEX
  8
LAYER_43
 10
94.7343
 20
-103.0678
  0
VERTEX
  8
LAYER_43
 10
94.7343
 20
-60.6717
  0
SEQEND
  0
POLYLINE
  8
LAYER_43
 40
0.05
 41
0.05
 66
1
 10
0
 20
0
 30
0
  0
VERTEX
  8
LAYER_43
 10
95.2242
 20
-102.7195
  0
VERTEX
  8
LAYER_43
 10
94.7129
 20
-104.6267
  0
VERTEX
  8
LAYER_43
 10
94.2024
 20
-102.7195
  0
SEQEND
  0
POLYLINE
  8
LAYER_43
 40
0.05
 41
0.05
 66
1
 10
0
 20
0
 30
0
  0
VERTEX
  8
LAYER_43
 10
95.2242
 20
-61.0194
  0
VERTEX
  8
LAYER_43
 10
94.7129
 20
-59.1115
  0
VERTEX
  8
LAYER_43
 10
94.2024
 20
-61.0194
  0
SEQEND
  0
POLYLINE
  8
LAYER_43
 40
0.1164
 41
0.1164
 66
1
 10
0
 20
0
 30
0
  0
VERTEX
  8
LAYER_43
 10
94.7343
 20
-59.1118
  0
VERTEX
  8
LAYER_43
 10
100.0139
 20
-59.1118
  0
SEQEND
  0
POLYLINE
  8
LAYER_43
 40
0.1164
 41
0.1164
 66
1
 10
0
 20
0
 30
0
  0
VERTEX
  8
LAYER_43
 10
100.0139
 20
-104.626
  0
VERTEX
  8
LAYER_43
 10
94.7343
 20
-104.626
  0
SEQEND
  0
TEXT
  8
LAYER_43
 10
93.3531
 20
-84.1952
 11
93.3531
 21
-84.1952
 40
3.5541
 41
0.5
 50
89.99999999
  1
450
  0
POLYLINE
  8
LAYER_43
 40
0.1164
 41
0.1164
 66
1
 10
0
 20
0
 30
0
  0
VERTEX
  8
LAYER_43
 10
104.3382
 20
-62.541
  0
VERTEX
  8
LAYER_43
 10
104.3382
 20
-60.6711
  0
SEQEND
  0
POLYLINE
  8
LAYER_43
 40
0.05
 41
0.05
 66
1
 10
0
 20
0
 30
0
  0
VERTEX
  8
LAYER_43
 10
104.8273
 20
-62.1921
  0
VERTEX
  8
LAYER_43
 10
104.3168
 20
-64.1
  0
VERTEX
  8
LAYER_43
 10
103.8056
 20
-62.1921
  0
SEQEND
  0
POLYLINE
  8
LAYER_43
 40
0.05
 41
0.05
 66
1
 10
0
 20
0
 30
0
  0
VERTEX
  8
LAYER_43
 10
104.8273
 20
-61.0194
  0
VERTEX
  8
LAYER_43
 10
104.3168
 20
-59.1115
  0
VERTEX
  8
LAYER_43
 10
103.8056
 20
-61.0194
  0
SEQEND
  0
POLYLINE
  8
LAYER_43
 40
0.1164
 41
0.1164
 66
1
 10
0
 20
0
 30
0
  0
VERTEX
  8
LAYER_43
 10
104.3382
 20
-59.1118
  0
VERTEX
  8
LAYER_43
 10
114.1353
 20
-59.1118
  0
SEQEND
  0
POLYLINE
  8
LAYER_43
 40
0.1164
 41
0.1164
 66
1
 10
0
 20
0
 30
0
  0
VERTEX
  8
LAYER_43
 10
114.1347
 20
-64.1
  0
VERTEX
  8
LAYER_43
 10
104.3382
 20
-64.1
  0
SEQEND
  0
TEXT
  8
LAYER_43
 10
103.1011
 20
-64.1346
 11
103.1011
 21
-64.1346
 40
3.5541
 41
0.5
 50
89.99999999
  1
50
  0
POLYLINE
  8
LAYER_43
 40
0.1164
 41
0.1164
 66
1
 10
0
 20
0
 30
0
  0
VERTEX
  8
LAYER_43
 10
104.3382
 20
-103.0678
  0
VERTEX
  8
LAYER_43
 10
104.3382
 20
-65.6599
  0
SEQEND
  0
POLYLINE
  8
LAYER_43
 40
0.05
 41
0.05
 66
1
 10
0
 20
0
 30
0
  0
VERTEX
  8
LAYER_43
 10
104.8273
 20
-102.7195
  0
VERTEX
  8
LAYER_43
 10
104.3168
 20
-104.6267
  0
VERTEX
  8
LAYER_43
 10
103.8056
 20
-102.7195
  0
SEQEND
  0
POLYLINE
  8
LAYER_43
 40
0.05
 41
0.05
 66
1
 10
0
 20
0
 30
0
  0
VERTEX
  8
LAYER_43
 10
104.8273
 20
-66.0082
  0
VERTEX
  8
LAYER_43
 10
104.3168
 20
-64.1
  0
VERTEX
  8
LAYER_43
 10
103.8056
 20
-66.0082
  0
SEQEND
  0
POLYLINE
  8
LAYER_43
 40
0.1164
 41
0.1164
 66
1
 10
0
 20
0
 30
0
  0
VERTEX
  8
LAYER_43
 10
123.6435
 20
-104.6267
  0
VERTEX
  8
LAYER_43
 10
104.3382
 20
-104.6267
  0
SEQEND
  0
TEXT
  8
LAYER_43
 10
102.7485
 20
-84.7411
 11
102.7485
 21
-84.7411
 40
3.5541
 41
0.5
 50
89.99999999
  1
400
  0
POLYLINE
  8
LAYER_43
 40
0.1164
 41
0.1164
 66
1
 10
0
 20
0
 30
0
  0
VERTEX
  8
LAYER_43
 10
161.0472
 20
-118.1783
  0
VERTEX
  8
LAYER_43
 10
108.2931
 20
-118.1783
  0
SEQEND
  0
POLYLINE
  8
LAYER_43
 40
0.05
 41
0.05
 66
1
 10
0
 20
0
 30
0
  0
VERTEX
  8
LAYER_43
 10
160.6992
 20
-117.6888
  0
VERTEX
  8
LAYER_43
 10
162.6064
 20
-118.1997
  0
VERTEX
  8
LAYER_43
 10
160.6992
 20
-118.7116
  0
SEQEND
  0
POLYLINE
  8
LAYER_43
 40
0.05
 41
0.05
 66
1
 10
0
 20
0
 30
0
  0
VERTEX
  8
LAYER_43
 10
108.6418
 20
-117.6888
  0
VERTEX
  8
LAYER_43
 10
106.7339
 20
-118.1997
  0
VERTEX
  8
LAYER_43
 10
108.6418
 20
-118.7116
  0
SEQEND
  0
POLYLINE
  8
LAYER_43
 40
0.1164
 41
0.1164
 66
1
 10
0
 20
0
 30
0
  0
VERTEX
  8
LAYER_43
 10
106.7339
 20
-118.1783
  0
VERTEX
  8
LAYER_43
 10
106.7339
 20
-112.8994
  0
SEQEND
  0
POLYLINE
  8
LAYER_43
 40
0.1164
 41
0.1164
 66
1
 10
0
 20
0
 30
0
  0
VERTEX
  8
LAYER_43
 10
162.6064
 20
-112.8994
  0
VERTEX
  8
LAYER_43
 10
162.6064
 20
-118.1783
  0
SEQEND
  0
TEXT
  8
LAYER_43
 10
131.0472
 20
-123.1334
 11
131.0472
 21
-123.1334
 40
3.5541
 41
0.5
  1
560
  0
POLYLINE
  8
LAYER_43
 40
0.1164
 41
0.1164
 66
1
 10
0
 20
0
 30
0
  0
VERTEX
  8
LAYER_43
 10
112.1592
 20
-110.6873
  0
VERTEX
  8
LAYER_43
 10
108.2938
 20
-110.6873
  0
SEQEND
  0
POLYLINE
  8
LAYER_43
 40
0.05
 41
0.05
 66
1
 10
0
 20
0
 30
0
  0
VERTEX
  8
LAYER_43
 10
111.8092
 20
-110.1981
  0
VERTEX
  8
LAYER_43
 10
113.7185
 20
-110.709
  0
VERTEX
  8
LAYER_43
 10
111.8092
 20
-111.2206
  0
SEQEND
  0
POLYLINE
  8
LAYER_43
 40
0.05
 41
0.05
 66
1
 10
0
 20
0
 30
0
  0
VERTEX
  8
LAYER_43
 10
108.6418
 20
-110.1981
  0
VERTEX
  8
LAYER_43
 10
106.7339
 20
-110.709
  0
VERTEX
  8
LAYER_43
 10
108.6418
 20
-111.2206
  0
SEQEND
  0
POLYLINE
  8
LAYER_43
 40
0.1164
 41
0.1164
 66
1
 10
0
 20
0
 30
0
  0
VERTEX
  8
LAYER_43
 10
106.7339
 20
-110.6873
  0
VERTEX
  8
LAYER_43
 10
106.7339
 20
-92.5818
  0
SEQEND
  0
POLYLINE
  8
LAYER_43
 40
0.1164
 41
0.1164
 66
1
 10
0
 20
0
 30
0
  0
VERTEX
  8
LAYER_43
 10
113.7178
 20
-92.2807
  0
VERTEX
  8
LAYER_43
 10
113.7178
 20
-110.6873
  0
SEQEND
  0
TEXT
  8
LAYER_43
 10
107.9186
 20
-115.3206
 11
107.9186
 21
-115.3206
 40
3.5541
 41
0.5
  1
70
  0
POLYLINE
  8
LAYER_43
 40
0.1164
 41
0.1164
 66
1
 10
0
 20
0
 30
0
  0
VERTEX
  8
LAYER_43
 10
142.0861
 20
-110.687
  0
VERTEX
  8
LAYER_43
 10
115.2736
 20
-110.687
  0
SEQEND
  0
POLYLINE
  8
LAYER_43
 40
0.05
 41
0.05
 66
1
 10
0
 20
0
 30
0
  0
VERTEX
  8
LAYER_43
 10
141.7367
 20
-110.1971
  0
VERTEX
  8
LAYER_43
 10
143.6453
 20
-110.708
  0
VERTEX
  8
LAYER_43
 10
141.7367
 20
-111.2189
  0
SEQEND
  0
POLYLINE
  8
LAYER_43
 40
0.05
 41
0.05
 66
1
 10
0
 20
0
 30
0
  0
VERTEX
  8
LAYER_43
 10
115.6222
 20
-110.1971
  0
VERTEX
  8
LAYER_43
 10
113.7143
 20
-110.708
  0
VERTEX
  8
LAYER_43
 10
115.6222
 20
-111.2189
  0
SEQEND
  0
POLYLINE
  8
LAYER_43
 40
0.1164
 41
0.1164
 66
1
 10
0
 20
0
 30
0
  0
VERTEX
  8
LAYER_43
 10
143.6453
 20
-91.0761
  0
VERTEX
  8
LAYER_43
 10
143.6453
 20
-110.687
  0
SEQEND
  0
TEXT
  8
LAYER_43
 10
125.8479
 20
-115.3206
 11
125.8479
 21
-115.3206
 40
3.5541
 41
0.5
  1
300
  0
POLYLINE
  8
LAYER_43
 40
0.1164
 41
0.1164
 66
1
 10
0
 20
0
 30
0
  0
VERTEX
  8
LAYER_43
 10
161.0472
 20
-110.687
  0
VERTEX
  8
LAYER_43
 10
145.2046
 20
-110.687
  0
SEQEND
  0
POLYLINE
  8
LAYER_43
 40
0.05
 41
0.05
 66
1
 10
0
 20
0
 30
0
  0
VERTEX
  8
LAYER_43
 10
160.6992
 20
-110.1971
  0
VERTEX
  8
LAYER_43
 10
162.6064
 20
-110.708
  0
VERTEX
  8
LAYER_43
 10
160.6992
 20
-111.2189
  0
SEQEND
  0
POLYLINE
  8
LAYER_43
 40
0.05
 41
0.05
 66
1
 10
0
 20
0
 30
0
  0
VERTEX
  8
LAYER_43
 10
145.5518
 20
-110.1971
  0
VERTEX
  8
LAYER_43
 10
143.6453
 20
-110.708
  0
VERTEX
  8
LAYER_43
 10
145.5518
 20
-111.2189
  0
SEQEND
  0
POLYLINE
  8
LAYER_43
 40
0.1164
 41
0.1164
 66
1
 10
0
 20
0
 30
0
  0
VERTEX
  8
LAYER_43
 10
162.6064
 20
-92.2807
  0
VERTEX
  8
LAYER_43
 10
162.6064
 20
-110.687
  0
SEQEND
  0
TEXT
  8
LAYER_43
 10
149.3345
 20
-115.3206
 11
149.3345
 21
-115.3206
 40
3.5541
 41
0.5
  1
190
  0
ENDSEC
  0
EOF
