  0
SECTION
  2
HEADER
  9
$ACADVER
  1
AC1009
  9
$LUNITS
 70
2
  9
$LUPREC
 70
4
  9
$LTSCALE
 40
1.0
  9
$EXTMIN
 10
-30.3177
 20
33.3285
 30
0
  9
$EXTMAX
 10
251.6749
 20
230.337
 30
0
  0
ENDSEC
  0
SECTION
  2
TABLES
  0
TABLE
  2
LTYPE
 70
256
  0
LTYPE
  2
AIGENLINE001
 70
64
  3
generate AI->DXF Converter
 72
65
 73
0
 40
0
  0
LTYPE
  2
AIGENLINE002
 70
64
  3
generate AI->DXF Converter
 72
65
 73
2
 40
0.9021
 49
0.451
 49
-0.451
  0
LTYPE
  2
AIGENLINE003
 70
64
  3
generate AI->DXF Converter
 72
65
 73
2
 40
0.5409
 49
0.2705
 49
-0.2705
  0
LTYPE
  2
AIGENLINE004
 70
64
  3
generate AI->DXF Converter
 72
65
 73
2
 40
0.6467
 49
0.3234
 49
-0.3234
  0
LTYPE
  2
AIGENLINE005
 70
64
  3
generate AI->DXF Converter
 72
65
 73
2
 40
0.8689
 49
0.4344
 49
-0.4344
  0
LTYPE
  2
AIGENLINE006
 70
64
  3
generate AI->DXF Converter
 72
65
 73
2
 40
0.8774
 49
0.4387
 49
-0.4387
  0
LTYPE
  2
AIGENLINE007
 70
64
  3
generate AI->DXF Converter
 72
65
 73
2
 40
1.1136
 49
0.5568
 49
-0.5568
  0
LTYPE
  2
AIGENLINE008
 70
64
  3
generate AI->DXF Converter
 72
65
 73
2
 40
0.9351
 49
0.4676
 49
-0.4676
  0
LTYPE
  2
AIGENLINE009
 70
64
  3
generate AI->DXF Converter
 72
65
 73
2
 40
0.9295
 49
0.4647
 49
-0.4647
  0
ENDTAB
  0
TABLE
  2
LAYER
 70
2
  0
LAYER
  2
LAYER_1
 70
64
 62
7
  6
CONTINUOUS
  0
LAYER
  2
LAYER_2
 70
64
 62
7
  6
CONTINUOUS
  0
ENDTAB
  0
TABLE
  2
STYLE
 70
6
  0
STYLE
  2
STANDARD
 70
0
 40
0
 50
0
 71
0
 41
0
 42
0
  3
TXT
  4
BIGFONT
  0
ENDTAB
  0
ENDSEC
  0
SECTION
  2
BLOCKS
  0
BLOCK
  8
LAYER_2
  2
AIGNBL02040009
 70
64
 10
0
 20
0
 30
0
  3
AIGNBL02040009
  0
POLYLINE
  8
LAYER_2
 40
0.05
 41
0.05
 66
1
 10
0
 20
0
 30
0
 70
1
  0
VERTEX
  8
LAYER_2
 10
146.7545
 20
39.1418
  0
VERTEX
  8
LAYER_2
 10
146.2656
 20
37.9567
  0
VERTEX
  8
LAYER_2
 10
145.6376
 20
37.9567
  0
VERTEX
  8
LAYER_2
 10
147.2372
 20
41.7225
  0
VERTEX
  8
LAYER_2
 10
147.9703
 20
41.7225
  0
VERTEX
  8
LAYER_2
 10
149.5768
 20
37.9567
  0
VERTEX
  8
LAYER_2
 10
148.9267
 20
37.9567
  0
VERTEX
  8
LAYER_2
 10
148.424
 20
39.1418
  0
SEQEND
  0
POLYLINE
  8
LAYER_2
 40
0.05
 41
0.05
 66
1
 10
0
 20
0
 30
0
 70
1
  0
VERTEX
  8
LAYER_2
 10
148.2983
 20
39.5207
  0
VERTEX
  8
LAYER_2
 10
147.8373
 20
40.6056
 42
-0.02317247198
  0
VERTEX
  8
LAYER_2
 10
147.5927
 20
41.2926
  0
VERTEX
  8
LAYER_2
 10
147.5789
 20
41.2926
 42
-0.02064481114
  0
VERTEX
  8
LAYER_2
 10
147.3412
 20
40.6101
  0
VERTEX
  8
LAYER_2
 10
146.8806
 20
39.5207
  0
SEQEND
  0
ENDBLK
  0
BLOCK
  8
LAYER_2
  2
AIGNBL0204000A
 70
64
 10
0
 20
0
 30
0
  3
AIGNBL0204000A
  0
POLYLINE
  8
LAYER_2
 40
0.05
 41
0.05
 66
1
 10
0
 20
0
 30
0
 70
1
  0
VERTEX
  8
LAYER_2
 10
153.942
 20
37.4034
 42
-0.01520763512
  0
VERTEX
  8
LAYER_2
 10
152.1399
 20
37.8395
 42
0.09160443264
  0
VERTEX
  8
LAYER_2
 10
151.8533
 20
37.895
 42
-0.09256808484
  0
VERTEX
  8
LAYER_2
 10
150.8994
 20
38.0977
 42
-0.09799469934
  0
VERTEX
  8
LAYER_2
 10
150.2621
 20
38.5324
 42
-0.1630918382
  0
VERTEX
  8
LAYER_2
 10
149.7964
 20
39.5259
 42
-0.0316951694
  0
VERTEX
  8
LAYER_2
 10
149.7793
 20
39.7998
 42
-0.1055313794
  0
VERTEX
  8
LAYER_2
 10
149.9533
 20
40.6417
 42
-0.1619874109
  0
VERTEX
  8
LAYER_2
 10
150.7418
 20
41.4867
 42
-0.09224146328
  0
VERTEX
  8
LAYER_2
 10
151.5409
 20
41.7524
 42
-0.03717154931
  0
VERTEX
  8
LAYER_2
 10
151.9725
 20
41.7838
 42
-0.09530639066
  0
VERTEX
  8
LAYER_2
 10
152.9361
 20
41.6062
 42
-0.1001950085
  0
VERTEX
  8
LAYER_2
 10
153.5732
 20
41.1834
 42
-0.1611155306
  0
VERTEX
  8
LAYER_2
 10
154.0599
 20
40.1825
 42
-0.03590167283
  0
VERTEX
  8
LAYER_2
 10
154.0815
 20
39.8784
 42
-0.1066761192
  0
VERTEX
  8
LAYER_2
 10
153.9051
 20
39.0236
 42
-0.2183970027
  0
VERTEX
  8
LAYER_2
 10
152.7953
 20
38.0897
 42
-0.006706711403
  0
VERTEX
  8
LAYER_2
 10
152.7407
 20
38.0738
  0
VERTEX
  8
LAYER_2
 10
152.7407
 20
38.0514
 42
0.01533555045
  0
VERTEX
  8
LAYER_2
 10
154.117
 20
37.8113
  0
SEQEND
  0
POLYLINE
  8
LAYER_2
 40
0.05
 41
0.05
 66
1
 10
0
 20
0
 30
0
 70
1
  0
VERTEX
  8
LAYER_2
 10
153.4394
 20
39.857
 42
0.1175610784
  0
VERTEX
  8
LAYER_2
 10
153.257
 20
40.6254
 42
0.1170135141
  0
VERTEX
  8
LAYER_2
 10
152.8315
 20
41.1234
 42
0.1200044572
  0
VERTEX
  8
LAYER_2
 10
152.2186
 20
41.3675
 42
0.03774262044
  0
VERTEX
  8
LAYER_2
 10
151.9511
 20
41.3873
 42
0.1153139376
  0
VERTEX
  8
LAYER_2
 10
151.2089
 20
41.2226
 42
0.1853550912
  0
VERTEX
  8
LAYER_2
 10
150.5507
 20
40.4882
 42
0.09859892291
  0
VERTEX
  8
LAYER_2
 10
150.4287
 20
39.8122
 42
0.1178359247
  0
VERTEX
  8
LAYER_2
 10
150.5964
 20
39.0734
 42
0.2866694251
  0
VERTEX
  8
LAYER_2
 10
151.9232
 20
38.2912
 42
0.1188197759
  0
VERTEX
  8
LAYER_2
 10
152.6722
 20
38.4633
 42
0.1796740134
  0
VERTEX
  8
LAYER_2
 10
153.3126
 20
39.18
 42
0.09850052237
  0
SEQEND
  0
ENDBLK
  0
BLOCK
  8
LAYER_2
  2
AIGNBL0204000B
 70
64
 10
0
 20
0
 30
0
  3
AIGNBL0204000B
  0
POLYLINE
  8
LAYER_2
 40
0.05
 41
0.05
 66
1
 10
0
 20
0
 30
0
 70
1
  0
VERTEX
  8
LAYER_2
 10
155.4089
 20
41.7225
  0
VERTEX
  8
LAYER_2
 10
155.4089
 20
39.4932
 42
0.1220213404
  0
VERTEX
  8
LAYER_2
 10
155.569
 20
38.7775
 42
0.2218709818
  0
VERTEX
  8
LAYER_2
 10
156.2104
 20
38.3206
 42
0.05223876895
  0
VERTEX
  8
LAYER_2
 10
156.5055
 20
38.2912
 42
0.1302821267
  0
VERTEX
  8
LAYER_2
 10
157.1748
 20
38.452
 42
0.1509367336
  0
VERTEX
  8
LAYER_2
 10
157.526
 20
38.8454
 42
0.1174732039
  0
VERTEX
  8
LAYER_2
 10
157.651
 20
39.4932
  0
VERTEX
  8
LAYER_2
 10
157.651
 20
41.7225
  0
VERTEX
  8
LAYER_2
 10
158.2656
 20
41.7225
  0
VERTEX
  8
LAYER_2
 10
158.2656
 20
39.5266
 42
-0.1106199636
  0
VERTEX
  8
LAYER_2
 10
158.0961
 20
38.708
 42
-0.1822316276
  0
VERTEX
  8
LAYER_2
 10
157.4057
 20
38.0637
 42
-0.09768689614
  0
VERTEX
  8
LAYER_2
 10
156.6028
 20
37.8972
 42
-0.01000776787
  0
VERTEX
  8
LAYER_2
 10
156.4845
 20
37.895
 42
-0.09899539667
  0
VERTEX
  8
LAYER_2
 10
155.612
 20
38.0554
 42
-0.120955925
  0
VERTEX
  8
LAYER_2
 10
155.1093
 20
38.4366
 42
-0.1193006487
  0
VERTEX
  8
LAYER_2
 10
154.8407
 20
39.0316
 42
-0.05319923583
  0
VERTEX
  8
LAYER_2
 10
154.7943
 20
39.5045
  0
VERTEX
  8
LAYER_2
 10
154.7943
 20
41.7225
  0
SEQEND
  0
ENDBLK
  0
BLOCK
  8
LAYER_2
  2
AIGNBL0204000C
 70
64
 10
0
 20
0
 30
0
  3
AIGNBL0204000C
  0
POLYLINE
  8
LAYER_2
 40
0.05
 41
0.05
 66
1
 10
0
 20
0
 30
0
 70
1
  0
VERTEX
  8
LAYER_2
 10
160.0119
 20
39.1418
  0
VERTEX
  8
LAYER_2
 10
159.5227
 20
37.9567
  0
VERTEX
  8
LAYER_2
 10
158.8947
 20
37.9567
  0
VERTEX
  8
LAYER_2
 10
160.4939
 20
41.7225
  0
VERTEX
  8
LAYER_2
 10
161.227
 20
41.7225
  0
VERTEX
  8
LAYER_2
 10
162.8335
 20
37.9567
  0
VERTEX
  8
LAYER_2
 10
162.1841
 20
37.9567
  0
VERTEX
  8
LAYER_2
 10
161.6814
 20
39.1418
  0
SEQEND
  0
POLYLINE
  8
LAYER_2
 40
0.05
 41
0.05
 66
1
 10
0
 20
0
 30
0
 70
1
  0
VERTEX
  8
LAYER_2
 10
161.5553
 20
39.5207
  0
VERTEX
  8
LAYER_2
 10
161.094
 20
40.6056
 42
-0.02227599701
  0
VERTEX
  8
LAYER_2
 10
160.8494
 20
41.2926
  0
VERTEX
  8
LAYER_2
 10
160.8357
 20
41.2926
 42
-0.0208222547
  0
VERTEX
  8
LAYER_2
 10
160.5983
 20
40.6101
  0
VERTEX
  8
LAYER_2
 10
160.1373
 20
39.5207
  0
SEQEND
  0
ENDBLK
  0
BLOCK
  8
LAYER_2
  2
AIGNBL0204000D
 70
64
 10
0
 20
0
 30
0
  3
AIGNBL0204000D
  0
POLYLINE
  8
LAYER_2
 40
0.05
 41
0.05
 66
1
 10
0
 20
0
 30
0
 70
1
  0
VERTEX
  8
LAYER_2
 10
163.8742
 20
41.6777
 42
-0.03334485223
  0
VERTEX
  8
LAYER_2
 10
165.0411
 20
41.7508
 42
-0.08844478427
  0
VERTEX
  8
LAYER_2
 10
166.0871
 20
41.5858
 42
-0.06037505309
  0
VERTEX
  8
LAYER_2
 10
166.3609
 20
41.4379
 42
-0.2472514979
  0
VERTEX
  8
LAYER_2
 10
166.7726
 20
40.6497
 42
-0.1483298328
  0
VERTEX
  8
LAYER_2
 10
166.6029
 20
40.0554
 42
-0.07223194904
  0
VERTEX
  8
LAYER_2
 10
166.4095
 20
39.8456
 42
-0.1209372404
  0
VERTEX
  8
LAYER_2
 10
165.7228
 20
39.517
 42
-0.06224269186
  0
VERTEX
  8
LAYER_2
 10
164.9708
 20
39.4319
 42
-0.05738783264
  0
VERTEX
  8
LAYER_2
 10
164.4823
 20
39.4653
  0
VERTEX
  8
LAYER_2
 10
164.4823
 20
37.9567
  0
VERTEX
  8
LAYER_2
 10
163.8742
 20
37.9567
  0
SEQEND
  0
POLYLINE
  8
LAYER_2
 40
0.05
 41
0.05
 66
1
 10
0
 20
0
 30
0
 70
1
  0
VERTEX
  8
LAYER_2
 10
164.4823
 20
39.8622
 42
0.05012782438
  0
VERTEX
  8
LAYER_2
 10
164.9846
 20
39.8229
 42
0.1135299982
  0
VERTEX
  8
LAYER_2
 10
165.7697
 20
39.9822
 42
0.1653556145
  0
VERTEX
  8
LAYER_2
 10
166.1074
 20
40.3302
 42
0.1044590446
  0
VERTEX
  8
LAYER_2
 10
166.1656
 20
40.6273
 42
0.2826437488
  0
VERTEX
  8
LAYER_2
 10
165.8147
 20
41.2103
 42
0.0629694601
  0
VERTEX
  8
LAYER_2
 10
165.549
 20
41.3107
 42
0.06259589917
  0
VERTEX
  8
LAYER_2
 10
165.0552
 20
41.3649
 42
0.05192366909
  0
VERTEX
  8
LAYER_2
 10
164.4823
 20
41.3257
  0
SEQEND
  0
ENDBLK
  0
BLOCK
  8
LAYER_2
  2
AIGNBL0204000E
 70
64
 10
0
 20
0
 30
0
  3
AIGNBL0204000E
  0
POLYLINE
  8
LAYER_2
 40
0.05
 41
0.05
 66
1
 10
0
 20
0
 30
0
 70
1
  0
VERTEX
  8
LAYER_2
 10
168.3246
 20
41.4207
 42
-0.3048675751
  0
VERTEX
  8
LAYER_2
 10
168.1582
 20
41.1661
 42
-0.1151020929
  0
VERTEX
  8
LAYER_2
 10
167.9329
 20
41.1189
 42
-0.2442513348
  0
VERTEX
  8
LAYER_2
 10
167.6028
 20
41.2794
 42
-0.1394546152
  0
VERTEX
  8
LAYER_2
 10
167.5626
 20
41.4207
 42
-0.287439772
  0
VERTEX
  8
LAYER_2
 10
167.7346
 20
41.6803
 42
-0.1179404017
  0
VERTEX
  8
LAYER_2
 10
167.9467
 20
41.7277
 42
-0.2416274379
  0
VERTEX
  8
LAYER_2
 10
168.2814
 20
41.5719
 42
-0.1426378456
  0
SEQEND
  0
POLYLINE
  8
LAYER_2
 40
0.05
 41
0.05
 66
1
 10
0
 20
0
 30
0
 70
1
  0
VERTEX
  8
LAYER_2
 10
167.639
 20
37.9567
  0
VERTEX
  8
LAYER_2
 10
167.639
 20
40.6607
  0
VERTEX
  8
LAYER_2
 10
168.2537
 20
40.6607
  0
VERTEX
  8
LAYER_2
 10
168.2537
 20
37.9567
  0
SEQEND
  0
ENDBLK
  0
BLOCK
  8
LAYER_2
  2
AIGNBL0204000F
 70
64
 10
0
 20
0
 30
0
  3
AIGNBL0204000F
  0
POLYLINE
  8
LAYER_2
 40
0.05
 41
0.05
 66
1
 10
0
 20
0
 30
0
 70
1
  0
VERTEX
  8
LAYER_2
 10
170.1254
 20
39.1418
  0
VERTEX
  8
LAYER_2
 10
169.6372
 20
37.9567
  0
VERTEX
  8
LAYER_2
 10
169.0081
 20
37.9567
  0
VERTEX
  8
LAYER_2
 10
170.6077
 20
41.7225
  0
VERTEX
  8
LAYER_2
 10
171.3415
 20
41.7225
  0
VERTEX
  8
LAYER_2
 10
172.9479
 20
37.9567
  0
VERTEX
  8
LAYER_2
 10
172.2982
 20
37.9567
  0
VERTEX
  8
LAYER_2
 10
171.7955
 20
39.1418
  0
SEQEND
  0
POLYLINE
  8
LAYER_2
 40
0.05
 41
0.05
 66
1
 10
0
 20
0
 30
0
 70
1
  0
VERTEX
  8
LAYER_2
 10
171.6695
 20
39.5207
  0
VERTEX
  8
LAYER_2
 10
171.2085
 20
40.6056
 42
-0.02430767271
  0
VERTEX
  8
LAYER_2
 10
170.9646
 20
41.2926
  0
VERTEX
  8
LAYER_2
 10
170.9498
 20
41.2926
 42
-0.02034719794
  0
VERTEX
  8
LAYER_2
 10
170.7128
 20
40.6101
  0
VERTEX
  8
LAYER_2
 10
170.2518
 20
39.5207
  0
SEQEND
  0
ENDBLK
  0
BLOCK
  8
LAYER_2
  2
AIGNBL02030008
 70
64
 10
0
 20
0
 30
0
  3
AIGNBL02030008
  0
INSERT
  8
LAYER_2
  2
AIGNBL02040009
 10
0
 20
0
 30
0
  0
INSERT
  8
LAYER_2
  2
AIGNBL0204000A
 10
0
 20
0
 30
0
  0
INSERT
  8
LAYER_2
  2
AIGNBL0204000B
 10
0
 20
0
 30
0
  0
INSERT
  8
LAYER_2
  2
AIGNBL0204000C
 10
0
 20
0
 30
0
  0
INSERT
  8
LAYER_2
  2
AIGNBL0204000D
 10
0
 20
0
 30
0
  0
INSERT
  8
LAYER_2
  2
AIGNBL0204000E
 10
0
 20
0
 30
0
  0
INSERT
  8
LAYER_2
  2
AIGNBL0204000F
 10
0
 20
0
 30
0
  0
ENDBLK
  0
BLOCK
  8
LAYER_2
  2
AIGNBL02030011
 70
64
 10
0
 20
0
 30
0
  3
AIGNBL02030011
  0
POLYLINE
  8
LAYER_2
 40
0.05
 41
0.05
 66
1
 10
0
 20
0
 30
0
 70
1
  0
VERTEX
  8
LAYER_2
 10
145.7475
 20
36.0574
  0
VERTEX
  8
LAYER_2
 10
146.3008
 20
36.0574
  0
VERTEX
  8
LAYER_2
 10
146.3008
 20
35.9637
  0
VERTEX
  8
LAYER_2
 10
145.6424
 20
35.9637
  0
VERTEX
  8
LAYER_2
 10
145.6424
 20
36.9969
  0
VERTEX
  8
LAYER_2
 10
146.2832
 20
36.9969
  0
VERTEX
  8
LAYER_2
 10
146.2832
 20
36.9035
  0
VERTEX
  8
LAYER_2
 10
145.7475
 20
36.9035
  0
VERTEX
  8
LAYER_2
 10
145.7475
 20
36.549
  0
VERTEX
  8
LAYER_2
 10
146.2481
 20
36.549
  0
VERTEX
  8
LAYER_2
 10
146.2481
 20
36.4557
  0
VERTEX
  8
LAYER_2
 10
145.7475
 20
36.4557
  0
SEQEND
  0
ENDBLK
  0
BLOCK
  8
LAYER_2
  2
AIGNBL02030012
 70
64
 10
0
 20
0
 30
0
  3
AIGNBL02030012
  0
POLYLINE
  8
LAYER_2
 40
0.05
 41
0.05
 66
1
 10
0
 20
0
 30
0
 70
1
  0
VERTEX
  8
LAYER_2
 10
147.4404
 20
36.117
  0
VERTEX
  8
LAYER_2
 10
147.4432
 20
36.117
  0
VERTEX
  8
LAYER_2
 10
147.4432
 20
36.9969
  0
VERTEX
  8
LAYER_2
 10
147.5483
 20
36.9969
  0
VERTEX
  8
LAYER_2
 10
147.5483
 20
35.9637
  0
VERTEX
  8
LAYER_2
 10
147.4174
 20
35.9637
  0
VERTEX
  8
LAYER_2
 10
146.8162
 20
36.8525
  0
VERTEX
  8
LAYER_2
 10
146.8127
 20
36.8525
  0
VERTEX
  8
LAYER_2
 10
146.8127
 20
35.9637
  0
VERTEX
  8
LAYER_2
 10
146.708
 20
35.9637
  0
VERTEX
  8
LAYER_2
 10
146.708
 20
36.9969
  0
VERTEX
  8
LAYER_2
 10
146.8393
 20
36.9969
  0
SEQEND
  0
ENDBLK
  0
BLOCK
  8
LAYER_2
  2
AIGNBL02030013
 70
64
 10
0
 20
0
 30
0
  3
AIGNBL02030013
  0
POLYLINE
  8
LAYER_2
 40
0.05
 41
0.05
 66
1
 10
0
 20
0
 30
0
 70
1
  0
VERTEX
  8
LAYER_2
 10
148.0213
 20
36.1756
 42
0.1557655154
  0
VERTEX
  8
LAYER_2
 10
148.0757
 20
36.0725
 42
0.1918235184
  0
VERTEX
  8
LAYER_2
 10
148.1891
 20
36.0309
  0
VERTEX
  8
LAYER_2
 10
148.2783
 20
36.0505
  0
VERTEX
  8
LAYER_2
 10
148.3344
 20
36.1039
  0
VERTEX
  8
LAYER_2
 10
148.3634
 20
36.1804
  0
VERTEX
  8
LAYER_2
 10
148.3717
 20
36.27
  0
VERTEX
  8
LAYER_2
 10
148.3717
 20
36.9969
  0
VERTEX
  8
LAYER_2
 10
148.4767
 20
36.9969
  0
VERTEX
  8
LAYER_2
 10
148.4767
 20
36.2614
  0
VERTEX
  8
LAYER_2
 10
148.4654
 20
36.1535
 42
-0.0973308998
  0
VERTEX
  8
LAYER_2
 10
148.424
 20
36.0485
 42
-0.1149355521
  0
VERTEX
  8
LAYER_2
 10
148.3393
 20
35.9689
 42
-0.1249341208
  0
VERTEX
  8
LAYER_2
 10
148.2004
 20
35.9375
 42
-0.1793665557
  0
VERTEX
  8
LAYER_2
 10
148.0158
 20
35.9974
 42
-0.1772363953
  0
VERTEX
  8
LAYER_2
 10
147.9234
 20
36.149
  0
SEQEND
  0
ENDBLK
  0
BLOCK
  8
LAYER_2
  2
AIGNBL02030014
 70
64
 10
0
 20
0
 30
0
  3
AIGNBL02030014
  0
POLYLINE
  8
LAYER_2
 40
0.05
 41
0.05
 66
1
 10
0
 20
0
 30
0
 70
1
  0
VERTEX
  8
LAYER_2
 10
149.965
 20
36.4805
 42
-0.1019307791
  0
VERTEX
  8
LAYER_2
 10
149.924
 20
36.2631
 42
-0.1000112985
  0
VERTEX
  8
LAYER_2
 10
149.8113
 20
36.0915
 42
-0.09646612644
  0
VERTEX
  8
LAYER_2
 10
149.6405
 20
35.9785
 42
-0.09758594962
  0
VERTEX
  8
LAYER_2
 10
149.4265
 20
35.9375
 42
-0.1000844711
  0
VERTEX
  8
LAYER_2
 10
149.2129
 20
35.9785
 42
-0.09954994557
  0
VERTEX
  8
LAYER_2
 10
149.042
 20
36.0915
 42
-0.09699237735
  0
VERTEX
  8
LAYER_2
 10
148.9287
 20
36.2631
 42
-0.09653980076
  0
VERTEX
  8
LAYER_2
 10
148.8881
 20
36.4805
 42
-0.1004051845
  0
VERTEX
  8
LAYER_2
 10
148.9287
 20
36.6978
 42
-0.0998654539
  0
VERTEX
  8
LAYER_2
 10
149.042
 20
36.8694
 42
-0.09851519288
  0
VERTEX
  8
LAYER_2
 10
149.2129
 20
36.9824
 42
-0.09768823248
  0
VERTEX
  8
LAYER_2
 10
149.4265
 20
37.0234
 42
-0.1000514256
  0
VERTEX
  8
LAYER_2
 10
149.6405
 20
36.9824
 42
-0.09863053528
  0
VERTEX
  8
LAYER_2
 10
149.8113
 20
36.8694
 42
-0.09807107579
  0
VERTEX
  8
LAYER_2
 10
149.924
 20
36.6978
 42
-0.0978256893
  0
SEQEND
  0
POLYLINE
  8
LAYER_2
 40
0.05
 41
0.05
 66
1
 10
0
 20
0
 30
0
 70
1
  0
VERTEX
  8
LAYER_2
 10
149.8541
 20
36.4798
 42
0.08634913196
  0
VERTEX
  8
LAYER_2
 10
149.8251
 20
36.6517
 42
0.09649608129
  0
VERTEX
  8
LAYER_2
 10
149.7404
 20
36.795
 42
0.1032857511
  0
VERTEX
  8
LAYER_2
 10
149.6053
 20
36.8932
 42
0.1061320656
  0
VERTEX
  8
LAYER_2
 10
149.4265
 20
36.93
 42
0.1115874499
  0
VERTEX
  8
LAYER_2
 10
149.2478
 20
36.8932
 42
0.1058584166
  0
VERTEX
  8
LAYER_2
 10
149.113
 20
36.795
 42
0.09787799956
  0
VERTEX
  8
LAYER_2
 10
149.0283
 20
36.6517
 42
0.08491464556
  0
VERTEX
  8
LAYER_2
 10
148.999
 20
36.4798
 42
0.08693146424
  0
VERTEX
  8
LAYER_2
 10
149.0283
 20
36.3079
 42
0.1009797617
  0
VERTEX
  8
LAYER_2
 10
149.113
 20
36.1649
 42
0.09998489394
  0
VERTEX
  8
LAYER_2
 10
149.2478
 20
36.0674
 42
0.1061678446
  0
VERTEX
  8
LAYER_2
 10
149.4265
 20
36.0309
 42
0.1126980581
  0
VERTEX
  8
LAYER_2
 10
149.6053
 20
36.0674
 42
0.1036982708
  0
VERTEX
  8
LAYER_2
 10
149.7404
 20
36.1649
 42
0.09370250368
  0
VERTEX
  8
LAYER_2
 10
149.8251
 20
36.3079
 42
0.08466662837
  0
SEQEND
  0
ENDBLK
  0
BLOCK
  8
LAYER_2
  2
AIGNBL02030015
 70
64
 10
0
 20
0
 30
0
  3
AIGNBL02030015
  0
POLYLINE
  8
LAYER_2
 40
0.05
 41
0.05
 66
1
 10
0
 20
0
 30
0
 70
1
  0
VERTEX
  8
LAYER_2
 10
150.7398
 20
35.9637
  0
VERTEX
  8
LAYER_2
 10
150.6351
 20
35.9637
  0
VERTEX
  8
LAYER_2
 10
150.6351
 20
36.4091
  0
VERTEX
  8
LAYER_2
 10
150.2482
 20
36.9969
  0
VERTEX
  8
LAYER_2
 10
150.3795
 20
36.9969
  0
VERTEX
  8
LAYER_2
 10
150.6905
 20
36.4967
  0
VERTEX
  8
LAYER_2
 10
151.0041
 20
36.9969
  0
VERTEX
  8
LAYER_2
 10
151.1263
 20
36.9969
  0
VERTEX
  8
LAYER_2
 10
150.7398
 20
36.4091
  0
SEQEND
  0
ENDBLK
  0
BLOCK
  8
LAYER_2
  2
AIGNBL02030016
 70
64
 10
0
 20
0
 30
0
  3
AIGNBL02030016
  0
POLYLINE
  8
LAYER_2
 40
0.05
 41
0.05
 66
1
 10
0
 20
0
 30
0
 70
1
  0
VERTEX
  8
LAYER_2
 10
152.0314
 20
36.9969
  0
VERTEX
  8
LAYER_2
 10
152.339
 20
36.9969
  0
VERTEX
  8
LAYER_2
 10
152.4575
 20
36.9845
  0
VERTEX
  8
LAYER_2
 10
152.5643
 20
36.9421
 42
-0.1168262011
  0
VERTEX
  8
LAYER_2
 10
152.6422
 20
36.8611
 42
-0.1230288266
  0
VERTEX
  8
LAYER_2
 10
152.6718
 20
36.733
 42
-0.1795449175
  0
VERTEX
  8
LAYER_2
 10
152.6219
 20
36.5907
 42
-0.170141964
  0
VERTEX
  8
LAYER_2
 10
152.4885
 20
36.5111
  0
VERTEX
  8
LAYER_2
 10
152.4885
 20
36.5084
 42
-0.1719890535
  0
VERTEX
  8
LAYER_2
 10
152.6553
 20
36.4302
 42
-0.2018462152
  0
VERTEX
  8
LAYER_2
 10
152.7214
 20
36.2496
 42
-0.1247085485
  0
VERTEX
  8
LAYER_2
 10
152.6942
 20
36.1325
 42
-0.1153486961
  0
VERTEX
  8
LAYER_2
 10
152.6181
 20
36.0419
 42
-0.08656795839
  0
VERTEX
  8
LAYER_2
 10
152.4972
 20
35.9844
 42
-0.06557363107
  0
VERTEX
  8
LAYER_2
 10
152.3373
 20
35.9637
  0
VERTEX
  8
LAYER_2
 10
152.0314
 20
35.9637
  0
SEQEND
  0
POLYLINE
  8
LAYER_2
 40
0.05
 41
0.05
 66
1
 10
0
 20
0
 30
0
 70
1
  0
VERTEX
  8
LAYER_2
 10
152.1364
 20
36.5445
  0
VERTEX
  8
LAYER_2
 10
152.348
 20
36.5445
  0
VERTEX
  8
LAYER_2
 10
152.4248
 20
36.5535
  0
VERTEX
  8
LAYER_2
 10
152.4951
 20
36.5831
  0
VERTEX
  8
LAYER_2
 10
152.5471
 20
36.6396
 42
0.1162126025
  0
VERTEX
  8
LAYER_2
 10
152.5668
 20
36.7258
  0
VERTEX
  8
LAYER_2
 10
152.5471
 20
36.8095
  0
VERTEX
  8
LAYER_2
 10
152.494
 20
36.8656
  0
VERTEX
  8
LAYER_2
 10
152.4152
 20
36.897
  0
VERTEX
  8
LAYER_2
 10
152.3187
 20
36.9066
  0
VERTEX
  8
LAYER_2
 10
152.1364
 20
36.9066
  0
SEQEND
  0
POLYLINE
  8
LAYER_2
 40
0.05
 41
0.05
 66
1
 10
0
 20
0
 30
0
 70
1
  0
VERTEX
  8
LAYER_2
 10
152.1364
 20
36.0543
  0
VERTEX
  8
LAYER_2
 10
152.3321
 20
36.0543
  0
VERTEX
  8
LAYER_2
 10
152.4406
 20
36.0653
  0
VERTEX
  8
LAYER_2
 10
152.5313
 20
36.1001
 42
0.1172546835
  0
VERTEX
  8
LAYER_2
 10
152.5929
 20
36.1632
 42
0.1286243504
  0
VERTEX
  8
LAYER_2
 10
152.6164
 20
36.2559
 42
0.2498669706
  0
VERTEX
  8
LAYER_2
 10
152.5471
 20
36.4081
 42
0.1538083763
  0
VERTEX
  8
LAYER_2
 10
152.3511
 20
36.4584
  0
VERTEX
  8
LAYER_2
 10
152.1364
 20
36.4584
  0
SEQEND
  0
ENDBLK
  0
BLOCK
  8
LAYER_2
  2
AIGNBL02030017
 70
64
 10
0
 20
0
 30
0
  3
AIGNBL02030017
  0
POLYLINE
  8
LAYER_2
 40
0.05
 41
0.05
 66
1
 10
0
 20
0
 30
0
 70
1
  0
VERTEX
  8
LAYER_2
 10
153.1534
 20
35.9637
  0
VERTEX
  8
LAYER_2
 10
153.038
 20
35.9637
  0
VERTEX
  8
LAYER_2
 10
153.4849
 20
36.9969
  0
VERTEX
  8
LAYER_2
 10
153.5872
 20
36.9969
  0
VERTEX
  8
LAYER_2
 10
154.0306
 20
35.9637
  0
VERTEX
  8
LAYER_2
 10
153.9138
 20
35.9637
  0
VERTEX
  8
LAYER_2
 10
153.7997
 20
36.2352
  0
VERTEX
  8
LAYER_2
 10
153.2657
 20
36.2352
  0
SEQEND
  0
POLYLINE
  8
LAYER_2
 40
0.05
 41
0.05
 66
1
 10
0
 20
0
 30
0
 70
1
  0
VERTEX
  8
LAYER_2
 10
153.305
 20
36.3316
  0
VERTEX
  8
LAYER_2
 10
153.7604
 20
36.3316
  0
VERTEX
  8
LAYER_2
 10
153.5327
 20
36.8804
  0
SEQEND
  0
ENDBLK
  0
BLOCK
  8
LAYER_2
  2
AIGNBL02030018
 70
64
 10
0
 20
0
 30
0
  3
AIGNBL02030018
  0
POLYLINE
  8
LAYER_2
 40
0.05
 41
0.05
 66
1
 10
0
 20
0
 30
0
 70
1
  0
VERTEX
  8
LAYER_2
 10
154.7151
 20
35.9637
  0
VERTEX
  8
LAYER_2
 10
154.61
 20
35.9637
  0
VERTEX
  8
LAYER_2
 10
154.61
 20
36.9035
  0
VERTEX
  8
LAYER_2
 10
154.2638
 20
36.9035
  0
VERTEX
  8
LAYER_2
 10
154.2638
 20
36.9969
  0
VERTEX
  8
LAYER_2
 10
155.0606
 20
36.9969
  0
VERTEX
  8
LAYER_2
 10
155.0606
 20
36.9035
  0
VERTEX
  8
LAYER_2
 10
154.7151
 20
36.9035
  0
SEQEND
  0
ENDBLK
  0
BLOCK
  8
LAYER_2
  2
AIGNBL02030019
 70
64
 10
0
 20
0
 30
0
  3
AIGNBL02030019
  0
POLYLINE
  8
LAYER_2
 40
0.05
 41
0.05
 66
1
 10
0
 20
0
 30
0
 70
1
  0
VERTEX
  8
LAYER_2
 10
155.4169
 20
36.9969
  0
VERTEX
  8
LAYER_2
 10
155.5216
 20
36.9969
  0
VERTEX
  8
LAYER_2
 10
155.5216
 20
36.549
  0
VERTEX
  8
LAYER_2
 10
156.0852
 20
36.549
  0
VERTEX
  8
LAYER_2
 10
156.0852
 20
36.9969
  0
VERTEX
  8
LAYER_2
 10
156.1903
 20
36.9969
  0
VERTEX
  8
LAYER_2
 10
156.1903
 20
35.9637
  0
VERTEX
  8
LAYER_2
 10
156.0852
 20
35.9637
  0
VERTEX
  8
LAYER_2
 10
156.0852
 20
36.4529
  0
VERTEX
  8
LAYER_2
 10
155.5216
 20
36.4529
  0
VERTEX
  8
LAYER_2
 10
155.5216
 20
35.9637
  0
VERTEX
  8
LAYER_2
 10
155.4169
 20
35.9637
  0
SEQEND
  0
ENDBLK
  0
BLOCK
  8
LAYER_2
  2
AIGNBL0203001A
 70
64
 10
0
 20
0
 30
0
  3
AIGNBL0203001A
  0
POLYLINE
  8
LAYER_2
 40
0.05
 41
0.05
 66
1
 10
0
 20
0
 30
0
 70
1
  0
VERTEX
  8
LAYER_2
 10
156.7708
 20
35.9637
  0
VERTEX
  8
LAYER_2
 10
156.6657
 20
35.9637
  0
VERTEX
  8
LAYER_2
 10
156.6657
 20
36.9969
  0
VERTEX
  8
LAYER_2
 10
156.9696
 20
36.9969
  0
VERTEX
  8
LAYER_2
 10
157.1101
 20
36.9824
 42
-0.1032885834
  0
VERTEX
  8
LAYER_2
 10
157.2228
 20
36.9349
 42
-0.1280591957
  0
VERTEX
  8
LAYER_2
 10
157.2962
 20
36.8494
 42
-0.1078860225
  0
VERTEX
  8
LAYER_2
 10
157.3223
 20
36.7213
  0
VERTEX
  8
LAYER_2
 10
157.3024
 20
36.6176
  0
VERTEX
  8
LAYER_2
 10
157.2469
 20
36.5366
  0
VERTEX
  8
LAYER_2
 10
157.1635
 20
36.4818
  0
VERTEX
  8
LAYER_2
 10
157.0585
 20
36.4557
  0
VERTEX
  8
LAYER_2
 10
157.3606
 20
35.9637
  0
VERTEX
  8
LAYER_2
 10
157.2321
 20
35.9637
  0
VERTEX
  8
LAYER_2
 10
156.9461
 20
36.4467
  0
VERTEX
  8
LAYER_2
 10
156.7708
 20
36.4467
  0
SEQEND
  0
POLYLINE
  8
LAYER_2
 40
0.05
 41
0.05
 66
1
 10
0
 20
0
 30
0
 70
1
  0
VERTEX
  8
LAYER_2
 10
156.7708
 20
36.5373
  0
VERTEX
  8
LAYER_2
 10
156.9534
 20
36.5373
 42
0.153451873
  0
VERTEX
  8
LAYER_2
 10
157.1491
 20
36.5831
 42
0.2580279849
  0
VERTEX
  8
LAYER_2
 10
157.2176
 20
36.7213
  0
VERTEX
  8
LAYER_2
 10
157.1983
 20
36.8071
  0
VERTEX
  8
LAYER_2
 10
157.146
 20
36.8643
  0
VERTEX
  8
LAYER_2
 10
157.0643
 20
36.8963
  0
VERTEX
  8
LAYER_2
 10
156.9578
 20
36.9066
  0
VERTEX
  8
LAYER_2
 10
156.7708
 20
36.9066
  0
SEQEND
  0
ENDBLK
  0
BLOCK
  8
LAYER_2
  2
AIGNBL0203001B
 70
64
 10
0
 20
0
 30
0
  3
AIGNBL0203001B
  0
POLYLINE
  8
LAYER_2
 40
0.05
 41
0.05
 66
1
 10
0
 20
0
 30
0
 70
1
  0
VERTEX
  8
LAYER_2
 10
158.7627
 20
36.4805
 42
-0.09904480664
  0
VERTEX
  8
LAYER_2
 10
158.7221
 20
36.2631
 42
-0.09984043552
  0
VERTEX
  8
LAYER_2
 10
158.6087
 20
36.0915
 42
-0.09841590082
  0
VERTEX
  8
LAYER_2
 10
158.4382
 20
35.9785
 42
-0.09758412454
  0
VERTEX
  8
LAYER_2
 10
158.2243
 20
35.9375
 42
-0.09999517154
  0
VERTEX
  8
LAYER_2
 10
158.0103
 20
35.9785
 42
-0.09953435427
  0
VERTEX
  8
LAYER_2
 10
157.8398
 20
36.0915
 42
-0.09853706159
  0
VERTEX
  8
LAYER_2
 10
157.7268
 20
36.2631
 42
-0.09653980076
  0
VERTEX
  8
LAYER_2
 10
157.6862
 20
36.4805
 42
-0.1004051845
  0
VERTEX
  8
LAYER_2
 10
157.7268
 20
36.6978
 42
-0.1008040346
  0
VERTEX
  8
LAYER_2
 10
157.8398
 20
36.8694
 42
-0.09763764092
  0
VERTEX
  8
LAYER_2
 10
158.0103
 20
36.9824
 42
-0.09752919603
  0
VERTEX
  8
LAYER_2
 10
158.2243
 20
37.0234
 42
-0.1000174927
  0
VERTEX
  8
LAYER_2
 10
158.4382
 20
36.9824
 42
-0.1009762109
  0
VERTEX
  8
LAYER_2
 10
158.6087
 20
36.8694
 42
-0.09735230618
  0
VERTEX
  8
LAYER_2
 10
158.7221
 20
36.6978
 42
-0.09580191209
  0
SEQEND
  0
POLYLINE
  8
LAYER_2
 40
0.05
 41
0.05
 66
1
 10
0
 20
0
 30
0
 70
1
  0
VERTEX
  8
LAYER_2
 10
158.6518
 20
36.4798
 42
0.08852014676
  0
VERTEX
  8
LAYER_2
 10
158.6225
 20
36.6517
 42
0.09973444611
  0
VERTEX
  8
LAYER_2
 10
158.5378
 20
36.795
 42
0.1024799068
  0
VERTEX
  8
LAYER_2
 10
158.4031
 20
36.8932
 42
0.1060321998
  0
VERTEX
  8
LAYER_2
 10
158.2243
 20
36.93
 42
0.1116325688
  0
VERTEX
  8
LAYER_2
 10
158.0455
 20
36.8932
 42
0.1060506217
  0
VERTEX
  8
LAYER_2
 10
157.9104
 20
36.795
 42
0.09526104957
  0
VERTEX
  8
LAYER_2
 10
157.8257
 20
36.6517
 42
0.08422602157
  0
VERTEX
  8
LAYER_2
 10
157.7968
 20
36.4798
 42
0.0876992245
  0
VERTEX
  8
LAYER_2
 10
157.8257
 20
36.3079
 42
0.09826867926
  0
VERTEX
  8
LAYER_2
 10
157.9104
 20
36.1649
 42
0.09965756504
  0
VERTEX
  8
LAYER_2
 10
158.0455
 20
36.0674
 42
0.1061654103
  0
VERTEX
  8
LAYER_2
 10
158.2243
 20
36.0309
 42
0.1124388132
  0
VERTEX
  8
LAYER_2
 10
158.4031
 20
36.0674
 42
0.1029122982
  0
VERTEX
  8
LAYER_2
 10
158.5378
 20
36.1649
 42
0.09882210045
  0
VERTEX
  8
LAYER_2
 10
158.6225
 20
36.3079
 42
0.08589740831
  0
SEQEND
  0
ENDBLK
  0
BLOCK
  8
LAYER_2
  2
AIGNBL0203001C
 70
64
 10
0
 20
0
 30
0
  3
AIGNBL0203001C
  0
POLYLINE
  8
LAYER_2
 40
0.05
 41
0.05
 66
1
 10
0
 20
0
 30
0
 70
1
  0
VERTEX
  8
LAYER_2
 10
160.2045
 20
36.4805
 42
-0.1019307791
  0
VERTEX
  8
LAYER_2
 10
160.1635
 20
36.2631
 42
-0.09929652324
  0
VERTEX
  8
LAYER_2
 10
160.0509
 20
36.0915
 42
-0.09710469009
  0
VERTEX
  8
LAYER_2
 10
159.88
 20
35.9785
 42
-0.09758412454
  0
VERTEX
  8
LAYER_2
 10
159.6661
 20
35.9375
 42
-0.1005051182
  0
VERTEX
  8
LAYER_2
 10
159.4524
 20
35.9785
 42
-0.1009789173
  0
VERTEX
  8
LAYER_2
 10
159.2816
 20
36.0915
 42
-0.09724598852
  0
VERTEX
  8
LAYER_2
 10
159.1682
 20
36.2631
 42
-0.09653980076
  0
VERTEX
  8
LAYER_2
 10
159.1276
 20
36.4805
 42
-0.1004051845
  0
VERTEX
  8
LAYER_2
 10
159.1682
 20
36.6978
 42
-0.1001669327
  0
VERTEX
  8
LAYER_2
 10
159.2816
 20
36.8694
 42
-0.09846843416
  0
VERTEX
  8
LAYER_2
 10
159.4524
 20
36.9824
 42
-0.09783444074
  0
VERTEX
  8
LAYER_2
 10
159.6661
 20
37.0234
 42
-0.1000174927
  0
VERTEX
  8
LAYER_2
 10
159.88
 20
36.9824
 42
-0.098457988
  0
VERTEX
  8
LAYER_2
 10
160.0509
 20
36.8694
 42
-0.09762598086
  0
VERTEX
  8
LAYER_2
 10
160.1635
 20
36.6978
 42
-0.0978256893
  0
SEQEND
  0
POLYLINE
  8
LAYER_2
 40
0.05
 41
0.05
 66
1
 10
0
 20
0
 30
0
 70
1
  0
VERTEX
  8
LAYER_2
 10
160.0936
 20
36.4798
 42
0.08653869446
  0
VERTEX
  8
LAYER_2
 10
160.0647
 20
36.6517
 42
0.09689814906
  0
VERTEX
  8
LAYER_2
 10
159.9799
 20
36.795
 42
0.1032857511
  0
VERTEX
  8
LAYER_2
 10
159.8448
 20
36.8932
 42
0.1061350344
  0
VERTEX
  8
LAYER_2
 10
159.6661
 20
36.93
 42
0.1114208933
  0
VERTEX
  8
LAYER_2
 10
159.4872
 20
36.8932
 42
0.1056595975
  0
VERTEX
  8
LAYER_2
 10
159.3525
 20
36.795
 42
0.09787799956
  0
VERTEX
  8
LAYER_2
 10
159.2678
 20
36.6517
 42
0.08491464556
  0
VERTEX
  8
LAYER_2
 10
159.2385
 20
36.4798
 42
0.08693146424
  0
VERTEX
  8
LAYER_2
 10
159.2678
 20
36.3079
 42
0.1009797617
  0
VERTEX
  8
LAYER_2
 10
159.3525
 20
36.1649
 42
0.09978391674
  0
VERTEX
  8
LAYER_2
 10
159.4872
 20
36.0674
 42
0.1060616244
  0
VERTEX
  8
LAYER_2
 10
159.6661
 20
36.0309
 42
0.1126531325
  0
VERTEX
  8
LAYER_2
 10
159.8448
 20
36.0674
 42
0.1036982708
  0
VERTEX
  8
LAYER_2
 10
159.9799
 20
36.1649
 42
0.09401062747
  0
VERTEX
  8
LAYER_2
 10
160.0647
 20
36.3079
 42
0.0844927763
  0
SEQEND
  0
ENDBLK
  0
BLOCK
  8
LAYER_2
  2
AIGNBL0203001D
 70
64
 10
0
 20
0
 30
0
  3
AIGNBL0203001D
  0
POLYLINE
  8
LAYER_2
 40
0.05
 41
0.05
 66
1
 10
0
 20
0
 30
0
 70
1
  0
VERTEX
  8
LAYER_2
 10
161.1354
 20
36.1418
  0
VERTEX
  8
LAYER_2
 10
161.1371
 20
36.1418
  0
VERTEX
  8
LAYER_2
 10
161.4826
 20
36.9969
  0
VERTEX
  8
LAYER_2
 10
161.6435
 20
36.9969
  0
VERTEX
  8
LAYER_2
 10
161.6435
 20
35.9637
  0
VERTEX
  8
LAYER_2
 10
161.5381
 20
35.9637
  0
VERTEX
  8
LAYER_2
 10
161.5381
 20
36.8611
  0
VERTEX
  8
LAYER_2
 10
161.5354
 20
36.8611
  0
VERTEX
  8
LAYER_2
 10
161.1619
 20
35.9637
  0
VERTEX
  8
LAYER_2
 10
161.1064
 20
35.9637
  0
VERTEX
  8
LAYER_2
 10
160.7326
 20
36.8611
  0
VERTEX
  8
LAYER_2
 10
160.7299
 20
36.8611
  0
VERTEX
  8
LAYER_2
 10
160.7299
 20
35.9637
  0
VERTEX
  8
LAYER_2
 10
160.6248
 20
35.9637
  0
VERTEX
  8
LAYER_2
 10
160.6248
 20
36.9969
  0
VERTEX
  8
LAYER_2
 10
160.7853
 20
36.9969
  0
SEQEND
  0
ENDBLK
  0
BLOCK
  8
LAYER_2
  2
AIGNBL0203001E
 70
64
 10
0
 20
0
 30
0
  3
AIGNBL0203001E
  0
POLYLINE
  8
LAYER_2
 40
0.05
 41
0.05
 66
1
 10
0
 20
0
 30
0
 70
1
  0
VERTEX
  8
LAYER_2
 10
162.79
 20
36.0574
  0
VERTEX
  8
LAYER_2
 10
163.3433
 20
36.0574
  0
VERTEX
  8
LAYER_2
 10
163.3433
 20
35.9637
  0
VERTEX
  8
LAYER_2
 10
162.685
 20
35.9637
  0
VERTEX
  8
LAYER_2
 10
162.685
 20
36.9969
  0
VERTEX
  8
LAYER_2
 10
163.3258
 20
36.9969
  0
VERTEX
  8
LAYER_2
 10
163.3258
 20
36.9035
  0
VERTEX
  8
LAYER_2
 10
162.79
 20
36.9035
  0
VERTEX
  8
LAYER_2
 10
162.79
 20
36.549
  0
VERTEX
  8
LAYER_2
 10
163.2906
 20
36.549
  0
VERTEX
  8
LAYER_2
 10
163.2906
 20
36.4557
  0
VERTEX
  8
LAYER_2
 10
162.79
 20
36.4557
  0
SEQEND
  0
ENDBLK
  0
BLOCK
  8
LAYER_2
  2
AIGNBL0203001F
 70
64
 10
0
 20
0
 30
0
  3
AIGNBL0203001F
  0
POLYLINE
  8
LAYER_2
 40
0.05
 41
0.05
 66
1
 10
0
 20
0
 30
0
 70
1
  0
VERTEX
  8
LAYER_2
 10
164.0885
 20
36.5797
  0
VERTEX
  8
LAYER_2
 10
164.3707
 20
36.9969
  0
VERTEX
  8
LAYER_2
 10
164.4957
 20
36.9969
  0
VERTEX
  8
LAYER_2
 10
164.1533
 20
36.5053
  0
VERTEX
  8
LAYER_2
 10
164.5326
 20
35.9637
  0
VERTEX
  8
LAYER_2
 10
164.4013
 20
35.9637
  0
VERTEX
  8
LAYER_2
 10
164.0858
 20
36.4295
  0
VERTEX
  8
LAYER_2
 10
163.7722
 20
35.9637
  0
VERTEX
  8
LAYER_2
 10
163.6407
 20
35.9637
  0
VERTEX
  8
LAYER_2
 10
164.0203
 20
36.5066
  0
VERTEX
  8
LAYER_2
 10
163.6744
 20
36.9969
  0
VERTEX
  8
LAYER_2
 10
163.806
 20
36.9969
  0
SEQEND
  0
ENDBLK
  0
BLOCK
  8
LAYER_2
  2
AIGNBL02030020
 70
64
 10
0
 20
0
 30
0
  3
AIGNBL02030020
  0
POLYLINE
  8
LAYER_2
 40
0.05
 41
0.05
 66
1
 10
0
 20
0
 30
0
 70
1
  0
VERTEX
  8
LAYER_2
 10
164.8988
 20
36.9969
  0
VERTEX
  8
LAYER_2
 10
165.1909
 20
36.9969
  0
VERTEX
  8
LAYER_2
 10
165.3339
 20
36.9804
 42
-0.104160294
  0
VERTEX
  8
LAYER_2
 10
165.4438
 20
36.929
 42
-0.1209616443
  0
VERTEX
  8
LAYER_2
 10
165.5148
 20
36.8429
 42
-0.1032545831
  0
VERTEX
  8
LAYER_2
 10
165.5392
 20
36.7213
 42
-0.1239274235
  0
VERTEX
  8
LAYER_2
 10
165.5141
 20
36.5993
 42
-0.1163667494
  0
VERTEX
  8
LAYER_2
 10
165.4424
 20
36.5132
 42
-0.08715194998
  0
VERTEX
  8
LAYER_2
 10
165.3315
 20
36.4615
 42
-0.06075348808
  0
VERTEX
  8
LAYER_2
 10
165.1878
 20
36.444
  0
VERTEX
  8
LAYER_2
 10
165.0039
 20
36.444
  0
VERTEX
  8
LAYER_2
 10
165.0039
 20
35.9637
  0
VERTEX
  8
LAYER_2
 10
164.8988
 20
35.9637
  0
SEQEND
  0
POLYLINE
  8
LAYER_2
 40
0.05
 41
0.05
 66
1
 10
0
 20
0
 30
0
 70
1
  0
VERTEX
  8
LAYER_2
 10
165.0039
 20
36.5328
  0
VERTEX
  8
LAYER_2
 10
165.1816
 20
36.5328
 42
0.1694225951
  0
VERTEX
  8
LAYER_2
 10
165.3701
 20
36.581
 42
0.2442570363
  0
VERTEX
  8
LAYER_2
 10
165.4345
 20
36.7213
 42
0.2590967024
  0
VERTEX
  8
LAYER_2
 10
165.368
 20
36.8622
 42
0.143072224
  0
VERTEX
  8
LAYER_2
 10
165.1816
 20
36.9066
  0
VERTEX
  8
LAYER_2
 10
165.0039
 20
36.9066
  0
SEQEND
  0
ENDBLK
  0
BLOCK
  8
LAYER_2
  2
AIGNBL02030021
 70
64
 10
0
 20
0
 30
0
  3
AIGNBL02030021
  0
POLYLINE
  8
LAYER_2
 40
0.05
 41
0.05
 66
1
 10
0
 20
0
 30
0
 70
1
  0
VERTEX
  8
LAYER_2
 10
166.0515
 20
36.0574
  0
VERTEX
  8
LAYER_2
 10
166.6048
 20
36.0574
  0
VERTEX
  8
LAYER_2
 10
166.6048
 20
35.9637
  0
VERTEX
  8
LAYER_2
 10
165.9465
 20
35.9637
  0
VERTEX
  8
LAYER_2
 10
165.9465
 20
36.9969
  0
VERTEX
  8
LAYER_2
 10
166.5872
 20
36.9969
  0
VERTEX
  8
LAYER_2
 10
166.5872
 20
36.9035
  0
VERTEX
  8
LAYER_2
 10
166.0515
 20
36.9035
  0
VERTEX
  8
LAYER_2
 10
166.0515
 20
36.549
  0
VERTEX
  8
LAYER_2
 10
166.5521
 20
36.549
  0
VERTEX
  8
LAYER_2
 10
166.5521
 20
36.4557
  0
VERTEX
  8
LAYER_2
 10
166.0515
 20
36.4557
  0
SEQEND
  0
ENDBLK
  0
BLOCK
  8
LAYER_2
  2
AIGNBL02030022
 70
64
 10
0
 20
0
 30
0
  3
AIGNBL02030022
  0
POLYLINE
  8
LAYER_2
 40
0.05
 41
0.05
 66
1
 10
0
 20
0
 30
0
 70
1
  0
VERTEX
  8
LAYER_2
 10
167.1168
 20
35.9637
  0
VERTEX
  8
LAYER_2
 10
167.0117
 20
35.9637
  0
VERTEX
  8
LAYER_2
 10
167.0117
 20
36.9969
  0
VERTEX
  8
LAYER_2
 10
167.3155
 20
36.9969
  0
VERTEX
  8
LAYER_2
 10
167.4561
 20
36.9824
 42
-0.1039428931
  0
VERTEX
  8
LAYER_2
 10
167.5687
 20
36.9349
 42
-0.1259973384
  0
VERTEX
  8
LAYER_2
 10
167.6425
 20
36.8494
 42
-0.1064650891
  0
VERTEX
  8
LAYER_2
 10
167.6683
 20
36.7213
  0
VERTEX
  8
LAYER_2
 10
167.6483
 20
36.6176
  0
VERTEX
  8
LAYER_2
 10
167.5929
 20
36.5366
  0
VERTEX
  8
LAYER_2
 10
167.5095
 20
36.4818
  0
VERTEX
  8
LAYER_2
 10
167.4044
 20
36.4557
  0
VERTEX
  8
LAYER_2
 10
167.7066
 20
35.9637
  0
VERTEX
  8
LAYER_2
 10
167.578
 20
35.9637
  0
VERTEX
  8
LAYER_2
 10
167.2921
 20
36.4467
  0
VERTEX
  8
LAYER_2
 10
167.1168
 20
36.4467
  0
SEQEND
  0
POLYLINE
  8
LAYER_2
 40
0.05
 41
0.05
 66
1
 10
0
 20
0
 30
0
 70
1
  0
VERTEX
  8
LAYER_2
 10
167.1168
 20
36.5373
  0
VERTEX
  8
LAYER_2
 10
167.2994
 20
36.5373
 42
0.1542400453
  0
VERTEX
  8
LAYER_2
 10
167.495
 20
36.5831
 42
0.2583775622
  0
VERTEX
  8
LAYER_2
 10
167.5636
 20
36.7213
  0
VERTEX
  8
LAYER_2
 10
167.5446
 20
36.8071
  0
VERTEX
  8
LAYER_2
 10
167.4919
 20
36.8643
  0
VERTEX
  8
LAYER_2
 10
167.4103
 20
36.8963
  0
VERTEX
  8
LAYER_2
 10
167.3038
 20
36.9066
  0
VERTEX
  8
LAYER_2
 10
167.1168
 20
36.9066
  0
SEQEND
  0
ENDBLK
  0
BLOCK
  8
LAYER_2
  2
AIGNBL02030023
 70
64
 10
0
 20
0
 30
0
  3
AIGNBL02030023
  0
POLYLINE
  8
LAYER_2
 40
0.05
 41
0.05
 66
1
 10
0
 20
0
 30
0
 70
1
  0
VERTEX
  8
LAYER_2
 10
168.1923
 20
35.9637
  0
VERTEX
  8
LAYER_2
 10
168.0876
 20
35.9637
  0
VERTEX
  8
LAYER_2
 10
168.0876
 20
36.9969
  0
VERTEX
  8
LAYER_2
 10
168.1923
 20
36.9969
  0
SEQEND
  0
ENDBLK
  0
BLOCK
  8
LAYER_2
  2
AIGNBL02030024
 70
64
 10
0
 20
0
 30
0
  3
AIGNBL02030024
  0
POLYLINE
  8
LAYER_2
 40
0.05
 41
0.05
 66
1
 10
0
 20
0
 30
0
 70
1
  0
VERTEX
  8
LAYER_2
 10
168.7732
 20
36.0574
  0
VERTEX
  8
LAYER_2
 10
169.3261
 20
36.0574
  0
VERTEX
  8
LAYER_2
 10
169.3261
 20
35.9637
  0
VERTEX
  8
LAYER_2
 10
168.6681
 20
35.9637
  0
VERTEX
  8
LAYER_2
 10
168.6681
 20
36.9969
  0
VERTEX
  8
LAYER_2
 10
169.3089
 20
36.9969
  0
VERTEX
  8
LAYER_2
 10
169.3089
 20
36.9035
  0
VERTEX
  8
LAYER_2
 10
168.7732
 20
36.9035
  0
VERTEX
  8
LAYER_2
 10
168.7732
 20
36.549
  0
VERTEX
  8
LAYER_2
 10
169.2737
 20
36.549
  0
VERTEX
  8
LAYER_2
 10
169.2737
 20
36.4557
  0
VERTEX
  8
LAYER_2
 10
168.7732
 20
36.4557
  0
SEQEND
  0
ENDBLK
  0
BLOCK
  8
LAYER_2
  2
AIGNBL02030025
 70
64
 10
0
 20
0
 30
0
  3
AIGNBL02030025
  0
POLYLINE
  8
LAYER_2
 40
0.05
 41
0.05
 66
1
 10
0
 20
0
 30
0
 70
1
  0
VERTEX
  8
LAYER_2
 10
170.4661
 20
36.117
  0
VERTEX
  8
LAYER_2
 10
170.4689
 20
36.117
  0
VERTEX
  8
LAYER_2
 10
170.4689
 20
36.9969
  0
VERTEX
  8
LAYER_2
 10
170.5739
 20
36.9969
  0
VERTEX
  8
LAYER_2
 10
170.5739
 20
35.9637
  0
VERTEX
  8
LAYER_2
 10
170.4426
 20
35.9637
  0
VERTEX
  8
LAYER_2
 10
169.8415
 20
36.8525
  0
VERTEX
  8
LAYER_2
 10
169.8384
 20
36.8525
  0
VERTEX
  8
LAYER_2
 10
169.8384
 20
35.9637
  0
VERTEX
  8
LAYER_2
 10
169.7333
 20
35.9637
  0
VERTEX
  8
LAYER_2
 10
169.7333
 20
36.9969
  0
VERTEX
  8
LAYER_2
 10
169.8649
 20
36.9969
  0
SEQEND
  0
ENDBLK
  0
BLOCK
  8
LAYER_2
  2
AIGNBL02030026
 70
64
 10
0
 20
0
 30
0
  3
AIGNBL02030026
  0
POLYLINE
  8
LAYER_2
 40
0.05
 41
0.05
 66
1
 10
0
 20
0
 30
0
 70
1
  0
VERTEX
  8
LAYER_2
 10
171.9196
 20
36.1315
  0
VERTEX
  8
LAYER_2
 10
171.8558
 20
36.0571
  0
VERTEX
  8
LAYER_2
 10
171.7697
 20
35.9954
  0
VERTEX
  8
LAYER_2
 10
171.6615
 20
35.953
  0
VERTEX
  8
LAYER_2
 10
171.5327
 20
35.9375
 42
-0.0997799169
  0
VERTEX
  8
LAYER_2
 10
171.3167
 20
35.9785
 42
-0.102530266
  0
VERTEX
  8
LAYER_2
 10
171.1461
 20
36.0915
 42
-0.09968794278
  0
VERTEX
  8
LAYER_2
 10
171.0345
 20
36.2631
 42
-0.09630702324
  0
VERTEX
  8
LAYER_2
 10
170.9942
 20
36.4805
 42
-0.1018981748
  0
VERTEX
  8
LAYER_2
 10
171.0352
 20
36.6978
 42
-0.09989904409
  0
VERTEX
  8
LAYER_2
 10
171.1479
 20
36.8694
 42
-0.09694965588
  0
VERTEX
  8
LAYER_2
 10
171.3187
 20
36.9824
 42
-0.09744116728
  0
VERTEX
  8
LAYER_2
 10
171.5327
 20
37.0234
  0
VERTEX
  8
LAYER_2
 10
171.6443
 20
37.0114
  0
VERTEX
  8
LAYER_2
 10
171.7473
 20
36.9779
  0
VERTEX
  8
LAYER_2
 10
171.8348
 20
36.9263
  0
VERTEX
  8
LAYER_2
 10
171.9006
 20
36.8584
  0
VERTEX
  8
LAYER_2
 10
171.8131
 20
36.794
  0
VERTEX
  8
LAYER_2
 10
171.7697
 20
36.8439
  0
VERTEX
  8
LAYER_2
 10
171.7063
 20
36.8877
  0
VERTEX
  8
LAYER_2
 10
171.6267
 20
36.9183
  0
VERTEX
  8
LAYER_2
 10
171.5341
 20
36.93
 42
0.1106055686
  0
VERTEX
  8
LAYER_2
 10
171.3539
 20
36.8935
 42
0.1037389517
  0
VERTEX
  8
LAYER_2
 10
171.2188
 20
36.7954
 42
0.09534605581
  0
VERTEX
  8
LAYER_2
 10
171.1341
 20
36.652
 42
0.08447361069
  0
VERTEX
  8
LAYER_2
 10
171.1052
 20
36.4805
 42
0.09038739564
  0
VERTEX
  8
LAYER_2
 10
171.1351
 20
36.3089
 42
0.09795352863
  0
VERTEX
  8
LAYER_2
 10
171.2205
 20
36.1656
 42
0.1034747097
  0
VERTEX
  8
LAYER_2
 10
171.3556
 20
36.0674
 42
0.1064777274
  0
VERTEX
  8
LAYER_2
 10
171.5341
 20
36.0309
 42
0.1092499226
  0
VERTEX
  8
LAYER_2
 10
171.7032
 20
36.0674
 42
0.1370031249
  0
VERTEX
  8
LAYER_2
 10
171.8376
 20
36.1842
  0
SEQEND
  0
ENDBLK
  0
BLOCK
  8
LAYER_2
  2
AIGNBL02030027
 70
64
 10
0
 20
0
 30
0
  3
AIGNBL02030027
  0
POLYLINE
  8
LAYER_2
 40
0.05
 41
0.05
 66
1
 10
0
 20
0
 30
0
 70
1
  0
VERTEX
  8
LAYER_2
 10
172.4067
 20
36.0574
  0
VERTEX
  8
LAYER_2
 10
172.96
 20
36.0574
  0
VERTEX
  8
LAYER_2
 10
172.96
 20
35.9637
  0
VERTEX
  8
LAYER_2
 10
172.3016
 20
35.9637
  0
VERTEX
  8
LAYER_2
 10
172.3016
 20
36.9969
  0
VERTEX
  8
LAYER_2
 10
172.9424
 20
36.9969
  0
VERTEX
  8
LAYER_2
 10
172.9424
 20
36.9035
  0
VERTEX
  8
LAYER_2
 10
172.4067
 20
36.9035
  0
VERTEX
  8
LAYER_2
 10
172.4067
 20
36.549
  0
VERTEX
  8
LAYER_2
 10
172.9073
 20
36.549
  0
VERTEX
  8
LAYER_2
 10
172.9073
 20
36.4557
  0
VERTEX
  8
LAYER_2
 10
172.4067
 20
36.4557
  0
SEQEND
  0
ENDBLK
  0
BLOCK
  8
LAYER_2
  2
AIGNBL02020004
 70
64
 10
0
 20
0
 30
0
  3
AIGNBL02020004
  0
POLYLINE
  8
LAYER_2
 40
0.05
 41
0.05
 66
1
 10
0
 20
0
 30
0
  0
VERTEX
  8
LAYER_2
 10
-1.196
 20
217.6012
 42
-0.04245719054
  0
VERTEX
  8
LAYER_2
 10
-1.2437
 20
216.7495
 42
-0.1145799327
  0
VERTEX
  8
LAYER_2
 10
-1.4854
 20
216.1042
 42
-0.03657724702
  0
VERTEX
  8
LAYER_2
 10
-1.5732
 20
216.0054
 42
-0.1577844027
  0
VERTEX
  8
LAYER_2
 10
-2.1025
 20
215.7362
 42
-0.04286355862
  0
VERTEX
  8
LAYER_2
 10
-2.3408
 20
215.7164
 42
-0.1461347274
  0
VERTEX
  8
LAYER_2
 10
-2.9525
 20
215.8874
 42
-0.04825720136
  0
VERTEX
  8
LAYER_2
 10
-3.0956
 20
216.0054
 42
-0.1514389093
  0
VERTEX
  8
LAYER_2
 10
-3.3903
 20
216.5711
 42
-0.04033585951
  0
VERTEX
  8
LAYER_2
 10
-3.4563
 20
217.0249
 42
-0.01781626242
  0
VERTEX
  8
LAYER_2
 10
-3.4732
 20
217.6012
 42
-0.04130139583
  0
VERTEX
  8
LAYER_2
 10
-3.4273
 20
218.4296
 42
-0.115134122
  0
VERTEX
  8
LAYER_2
 10
-3.1834
 20
219.0859
 42
-0.03655204802
  0
VERTEX
  8
LAYER_2
 10
-3.0956
 20
219.1845
 42
-0.2077091659
  0
VERTEX
  8
LAYER_2
 10
-2.3408
 20
219.4732
 42
-0.1450941273
  0
VERTEX
  8
LAYER_2
 10
-1.7165
 20
219.3022
 42
-0.04840000405
  0
VERTEX
  8
LAYER_2
 10
-1.5732
 20
219.1845
 42
-0.1513847701
  0
VERTEX
  8
LAYER_2
 10
-1.2787
 20
218.6201
 42
-0.04039612069
  0
VERTEX
  8
LAYER_2
 10
-1.2128
 20
218.1697
 42
-0.01794233576
  0
VERTEX
  8
LAYER_2
 10
-1.196
 20
217.6012
  0
SEQEND
  0
POLYLINE
  8
LAYER_2
 40
0.05
 41
0.05
 66
1
 10
0
 20
0
 30
0
  0
VERTEX
  8
LAYER_2
 10
0.4394
 20
217.6012
 42
0.03175065208
  0
VERTEX
  8
LAYER_2
 10
0.3919
 20
218.5427
 42
0.07858555415
  0
VERTEX
  8
LAYER_2
 10
0.123
 20
219.5272
 42
0.07786217308
  0
VERTEX
  8
LAYER_2
 10
-0.303
 20
220.1395
 42
0.1422741765
  0
VERTEX
  8
LAYER_2
 10
-1.5044
 20
220.8409
 42
0.06575783118
  0
VERTEX
  8
LAYER_2
 10
-2.3408
 20
220.9436
 42
0.08626163736
  0
VERTEX
  8
LAYER_2
 10
-3.3996
 20
220.7669
 42
0.1130730203
  0
VERTEX
  8
LAYER_2
 10
-4.3662
 20
220.1395
 42
0.09873852385
  0
VERTEX
  8
LAYER_2
 10
-4.8748
 20
219.3361
 42
0.04046067269
  0
VERTEX
  8
LAYER_2
 10
-5.006
 20
218.8809
 42
0.03220856709
  0
VERTEX
  8
LAYER_2
 10
-5.0854
 20
218.2915
 42
0.01857685015
  0
VERTEX
  8
LAYER_2
 10
-5.1082
 20
217.6012
 42
0.03149278186
  0
VERTEX
  8
LAYER_2
 10
-5.0608
 20
216.6571
 42
0.0779698511
  0
VERTEX
  8
LAYER_2
 10
-4.7923
 20
215.6655
 42
0.07853580552
  0
VERTEX
  8
LAYER_2
 10
-4.3662
 20
215.0504
 42
0.1826502598
  0
VERTEX
  8
LAYER_2
 10
-2.668
 20
214.2613
 42
0.02311737764
  0
VERTEX
  8
LAYER_2
 10
-2.3408
 20
214.2463
 42
0.08564977323
  0
VERTEX
  8
LAYER_2
 10
-1.2772
 20
214.423
 42
0.1129150187
  0
VERTEX
  8
LAYER_2
 10
-0.303
 20
215.0504
 42
0.1497181056
  0
VERTEX
  8
LAYER_2
 10
0.3325
 20
216.2722
 42
0.03273812963
  0
VERTEX
  8
LAYER_2
 10
0.4143
 20
216.8609
 42
0.01955851524
  0
VERTEX
  8
LAYER_2
 10
0.4394
 20
217.6012
  0
SEQEND
  0
POLYLINE
  8
LAYER_2
 40
0.05
 41
0.05
 66
1
 10
0
 20
0
 30
0
  0
VERTEX
  8
LAYER_2
 10
-11.3166
 20
218.2044
  0
VERTEX
  8
LAYER_2
 10
-13.8074
 20
218.2044
 42
-0.1126267973
  0
VERTEX
  8
LAYER_2
 10
-13.6562
 20
218.9079
 42
-0.1394863081
  0
VERTEX
  8
LAYER_2
 10
-13.2507
 20
219.3934
 42
-0.1317584651
  0
VERTEX
  8
LAYER_2
 10
-12.676
 20
219.5824
 42
-0.01996454454
  0
VERTEX
  8
LAYER_2
 10
-12.562
 20
219.5866
 42
-0.137467943
  0
VERTEX
  8
LAYER_2
 10
-11.8991
 20
219.4101
 42
-0.150691583
  0
VERTEX
  8
LAYER_2
 10
-11.4672
 20
218.9079
 42
-0.1174358853
  0
VERTEX
  8
LAYER_2
 10
-11.3166
 20
218.2044
  0
SEQEND
  0
POLYLINE
  8
LAYER_2
 40
0.05
 41
0.05
 66
1
 10
0
 20
0
 30
0
 70
1
  0
VERTEX
  8
LAYER_2
 10
-9.7064
 20
217.0861
  0
VERTEX
  8
LAYER_2
 10
-9.7064
 20
217.7772
 42
0.07163312002
  0
VERTEX
  8
LAYER_2
 10
-9.8733
 20
218.9838
 42
0.08028385511
  0
VERTEX
  8
LAYER_2
 10
-10.299
 20
219.8659
 42
0.0865588964
  0
VERTEX
  8
LAYER_2
 10
-10.9136
 20
220.4722
 42
0.08455684744
  0
VERTEX
  8
LAYER_2
 10
-11.6929
 20
220.8316
 42
0.06903226706
  0
VERTEX
  8
LAYER_2
 10
-12.562
 20
220.9436
 42
0.08515866825
  0
VERTEX
  8
LAYER_2
 10
-13.5923
 20
220.7733
 42
0.2152076095
  0
VERTEX
  8
LAYER_2
 10
-15.1128
 20
219.2869
 42
0.07250212731
  0
VERTEX
  8
LAYER_2
 10
-15.3825
 20
218.223
 42
0.02934637219
  0
VERTEX
  8
LAYER_2
 10
-15.4177
 20
217.6012
 42
0.06683021014
  0
VERTEX
  8
LAYER_2
 10
-15.2459
 20
216.2162
 42
0.08312981404
  0
VERTEX
  8
LAYER_2
 10
-14.8229
 20
215.3116
 42
0.184288283
  0
VERTEX
  8
LAYER_2
 10
-13.3775
 20
214.3603
 42
0.06413161868
  0
VERTEX
  8
LAYER_2
 10
-12.386
 20
214.2463
 42
0.07683816196
  0
VERTEX
  8
LAYER_2
 10
-11.1942
 20
214.4123
 42
0.08470040866
  0
VERTEX
  8
LAYER_2
 10
-10.383
 20
214.8416
 42
0.03763897922
  0
VERTEX
  8
LAYER_2
 10
-9.8948
 20
215.2768
  0
VERTEX
  8
LAYER_2
 10
-10.8887
 20
216.2442
 42
-0.1072414833
  0
VERTEX
  8
LAYER_2
 10
-11.6397
 20
215.7366
 42
-0.09138316631
  0
VERTEX
  8
LAYER_2
 10
-12.3732
 20
215.6285
 42
-0.1206713536
  0
VERTEX
  8
LAYER_2
 10
-13.1336
 20
215.8026
 42
-0.1907051017
  0
VERTEX
  8
LAYER_2
 10
-13.7142
 20
216.4979
 42
-0.08636520349
  0
VERTEX
  8
LAYER_2
 10
-13.8074
 20
217.0861
  0
SEQEND
  0
POLYLINE
  8
LAYER_2
 40
0.05
 41
0.05
 66
1
 10
0
 20
0
 30
0
 70
1
  0
VERTEX
  8
LAYER_2
 10
-16.9018
 20
223.2773
  0
VERTEX
  8
LAYER_2
 10
-18.5517
 20
223.2773
  0
VERTEX
  8
LAYER_2
 10
-18.5517
 20
221.9454
  0
VERTEX
  8
LAYER_2
 10
-16.9018
 20
221.9454
  0
SEQEND
  0
POLYLINE
  8
LAYER_2
 40
0.05
 41
0.05
 66
1
 10
0
 20
0
 30
0
 70
1
  0
VERTEX
  8
LAYER_2
 10
-16.9146
 20
220.79
  0
VERTEX
  8
LAYER_2
 10
-18.5499
 20
220.79
  0
VERTEX
  8
LAYER_2
 10
-18.5499
 20
214.3218
  0
VERTEX
  8
LAYER_2
 10
-16.9146
 20
214.3218
  0
SEQEND
  0
POLYLINE
  8
LAYER_2
 40
0.05
 41
0.05
 66
1
 10
0
 20
0
 30
0
  0
VERTEX
  8
LAYER_2
 10
-19.8205
 20
215.1386
  0
VERTEX
  8
LAYER_2
 10
-20.9274
 20
216.2317
 42
-0.1240518821
  0
VERTEX
  8
LAYER_2
 10
-21.5761
 20
215.7751
 42
-0.08031715103
  0
VERTEX
  8
LAYER_2
 10
-21.984
 20
215.7164
 42
-0.1386946894
  0
VERTEX
  8
LAYER_2
 10
-22.625
 20
215.8856
 42
-0.08219094685
  0
VERTEX
  8
LAYER_2
 10
-22.9149
 20
216.1436
 42
-0.1253393202
  0
VERTEX
  8
LAYER_2
 10
-23.215
 20
216.8347
 42
-0.05211869655
  0
VERTEX
  8
LAYER_2
 10
-23.2797
 20
217.6012
 42
-0.0435450793
  0
VERTEX
  8
LAYER_2
 10
-23.2306
 20
218.2793
 42
-0.1072750387
  0
VERTEX
  8
LAYER_2
 10
-22.9604
 20
218.9857
 42
-0.01439054395
  0
VERTEX
  8
LAYER_2
 10
-22.9149
 20
219.0461
 42
-0.143087315
  0
VERTEX
  8
LAYER_2
 10
-22.387
 20
219.4143
 42
-0.07946465155
  0
VERTEX
  8
LAYER_2
 10
-21.984
 20
219.4732
 42
-0.1421084185
  0
VERTEX
  8
LAYER_2
 10
-21.3214
 20
219.2962
 42
-0.06975828358
  0
VERTEX
  8
LAYER_2
 10
-20.9274
 20
218.9585
  0
VERTEX
  8
LAYER_2
 10
-19.8205
 20
220.0637
 42
0.08882909472
  0
VERTEX
  8
LAYER_2
 10
-20.632
 20
220.6645
 42
0.08605806955
  0
VERTEX
  8
LAYER_2
 10
-21.5364
 20
220.9189
 42
0.02865290108
  0
VERTEX
  8
LAYER_2
 10
-21.984
 20
220.9436
 42
0.0806713287
  0
VERTEX
  8
LAYER_2
 10
-23.0569
 20
220.7735
 42
0.08357777431
  0
VERTEX
  8
LAYER_2
 10
-23.8317
 20
220.3573
 42
0.09024198391
  0
VERTEX
  8
LAYER_2
 10
-24.4186
 20
219.692
 42
0.07835989587
  0
VERTEX
  8
LAYER_2
 10
-24.7811
 20
218.801
 42
0.06322906838
  0
VERTEX
  8
LAYER_2
 10
-24.9151
 20
217.6012
 42
0.06782437491
  0
VERTEX
  8
LAYER_2
 10
-24.7438
 20
216.2613
 42
0.08255528881
  0
VERTEX
  8
LAYER_2
 10
-24.3104
 20
215.3428
 42
0.176800775
  0
VERTEX
  8
LAYER_2
 10
-22.8675
 20
214.3603
 42
0.06692285682
  0
VERTEX
  8
LAYER_2
 10
-21.984
 20
214.2463
 42
0.08462179993
  0
VERTEX
  8
LAYER_2
 10
-20.8976
 20
214.4204
 42
0.08609104881
  0
VERTEX
  8
LAYER_2
 10
-20.1139
 20
214.8669
 42
0.03054496576
  0
VERTEX
  8
LAYER_2
 10
-19.8205
 20
215.1386
  0
SEQEND
  0
ENDBLK
  0
BLOCK
  8
LAYER_2
  2
AIGNBL02020005
 70
64
 10
0
 20
0
 30
0
  3
AIGNBL02020005
  0
POLYLINE
  8
LAYER_2
 40
0.05
 41
0.05
 66
1
 10
0
 20
0
 30
0
 70
1
  0
VERTEX
  8
LAYER_2
 10
0.3288
 20
212.6805
  0
VERTEX
  8
LAYER_2
 10
0.0009
 20
212.6805
  0
VERTEX
  8
LAYER_2
 10
-0.2479
 20
211.9109
  0
VERTEX
  8
LAYER_2
 10
-0.5066
 20
212.6805
  0
VERTEX
  8
LAYER_2
 10
-0.8342
 20
212.6805
  0
VERTEX
  8
LAYER_2
 10
-0.4084
 20
211.5234
  0
VERTEX
  8
LAYER_2
 10
-0.4611
 20
211.3704
 42
-0.3961336399
  0
VERTEX
  8
LAYER_2
 10
-0.6165
 20
211.2581
  0
VERTEX
  8
LAYER_2
 10
-0.6882
 20
211.2581
  0
VERTEX
  8
LAYER_2
 10
-0.6882
 20
210.9783
  0
VERTEX
  8
LAYER_2
 10
-0.5662
 20
210.9783
 42
0.2034440672
  0
VERTEX
  8
LAYER_2
 10
-0.2985
 20
211.0741
 42
0.1004639661
  0
VERTEX
  8
LAYER_2
 10
-0.2048
 20
211.2343
  0
SEQEND
  0
POLYLINE
  8
LAYER_2
 40
0.05
 41
0.05
 66
1
 10
0
 20
0
 30
0
 70
1
  0
VERTEX
  8
LAYER_2
 10
-0.8704
 20
211.4352
  0
VERTEX
  8
LAYER_2
 10
-0.8704
 20
211.6977
  0
VERTEX
  8
LAYER_2
 10
-0.9899
 20
211.6977
 42
-0.4751531158
  0
VERTEX
  8
LAYER_2
 10
-1.0998
 20
211.8103
  0
VERTEX
  8
LAYER_2
 10
-1.0998
 20
213.137
  0
VERTEX
  8
LAYER_2
 10
-1.4109
 20
213.137
  0
VERTEX
  8
LAYER_2
 10
-1.4109
 20
211.7914
 42
0.2572712742
  0
VERTEX
  8
LAYER_2
 10
-1.2491
 20
211.4844
 42
0.1351549622
  0
VERTEX
  8
LAYER_2
 10
-1.0475
 20
211.4352
  0
SEQEND
  0
POLYLINE
  8
LAYER_2
 40
0.05
 41
0.05
 66
1
 10
0
 20
0
 30
0
 70
1
  0
VERTEX
  8
LAYER_2
 10
-1.9739
 20
211.894
 42
-0.2469446344
  0
VERTEX
  8
LAYER_2
 10
-2.0214
 20
211.7363
 42
-0.2123665607
  0
VERTEX
  8
LAYER_2
 10
-2.2057
 20
211.6763
 42
-0.2053009356
  0
VERTEX
  8
LAYER_2
 10
-2.3584
 20
211.723
 42
-0.206083917
  0
VERTEX
  8
LAYER_2
 10
-2.3949
 20
211.8175
 42
-0.4725867343
  0
VERTEX
  8
LAYER_2
 10
-2.2105
 20
211.9609
  0
VERTEX
  8
LAYER_2
 10
-1.9739
 20
211.9609
  0
SEQEND
  0
POLYLINE
  8
LAYER_2
 40
0.05
 41
0.05
 66
1
 10
0
 20
0
 30
0
 70
1
  0
VERTEX
  8
LAYER_2
 10
-1.6624
 20
211.4352
  0
VERTEX
  8
LAYER_2
 10
-1.6624
 20
212.2551
 42
0.2451162416
  0
VERTEX
  8
LAYER_2
 10
-1.8225
 20
212.6039
 42
0.1630344424
  0
VERTEX
  8
LAYER_2
 10
-2.194
 20
212.6947
 42
0.223003002
  0
VERTEX
  8
LAYER_2
 10
-2.6298
 20
212.5302
 42
0.006267388191
  0
VERTEX
  8
LAYER_2
 10
-2.6412
 20
212.5179
  0
VERTEX
  8
LAYER_2
 10
-2.4452
 20
212.3243
 42
-0.2474228759
  0
VERTEX
  8
LAYER_2
 10
-2.2057
 20
212.4322
 42
-0.1875116517
  0
VERTEX
  8
LAYER_2
 10
-2.0297
 20
212.3865
 42
-0.2385471677
  0
VERTEX
  8
LAYER_2
 10
-1.9739
 20
212.2358
  0
VERTEX
  8
LAYER_2
 10
-1.9739
 20
212.1738
  0
VERTEX
  8
LAYER_2
 10
-2.2633
 20
212.1738
 42
0.2343493414
  0
VERTEX
  8
LAYER_2
 10
-2.6354
 20
212.0142
 42
0.1534284984
  0
VERTEX
  8
LAYER_2
 10
-2.6942
 20
211.8127
 42
0.1895201048
  0
VERTEX
  8
LAYER_2
 10
-2.5912
 20
211.533
 42
0.2074502918
  0
VERTEX
  8
LAYER_2
 10
-2.2729
 20
211.4228
 42
0.2214267061
  0
VERTEX
  8
LAYER_2
 10
-1.9663
 20
211.5426
  0
VERTEX
  8
LAYER_2
 10
-1.9663
 20
211.4352
  0
SEQEND
  0
POLYLINE
  8
LAYER_2
 40
0.05
 41
0.05
 66
1
 10
0
 20
0
 30
0
 70
1
  0
VERTEX
  8
LAYER_2
 10
-2.8758
 20
211.4352
  0
VERTEX
  8
LAYER_2
 10
-2.8758
 20
211.6977
  0
VERTEX
  8
LAYER_2
 10
-2.9884
 20
211.6977
 42
-0.4616084329
  0
VERTEX
  8
LAYER_2
 10
-3.0963
 20
211.8103
  0
VERTEX
  8
LAYER_2
 10
-3.0963
 20
212.4081
  0
VERTEX
  8
LAYER_2
 10
-2.8758
 20
212.4081
  0
VERTEX
  8
LAYER_2
 10
-2.8758
 20
212.6444
  0
VERTEX
  8
LAYER_2
 10
-3.0963
 20
212.6444
  0
VERTEX
  8
LAYER_2
 10
-3.0963
 20
213.0126
  0
VERTEX
  8
LAYER_2
 10
-3.407
 20
213.0126
  0
VERTEX
  8
LAYER_2
 10
-3.407
 20
212.6444
  0
VERTEX
  8
LAYER_2
 10
-3.539
 20
212.6444
  0
VERTEX
  8
LAYER_2
 10
-3.539
 20
212.4081
  0
VERTEX
  8
LAYER_2
 10
-3.407
 20
212.4081
  0
VERTEX
  8
LAYER_2
 10
-3.407
 20
211.7914
 42
0.2563568817
  0
VERTEX
  8
LAYER_2
 10
-3.2458
 20
211.4844
 42
0.1357760723
  0
VERTEX
  8
LAYER_2
 10
-3.0456
 20
211.4352
  0
SEQEND
  0
POLYLINE
  8
LAYER_2
 40
0.05
 41
0.05
 66
1
 10
0
 20
0
 30
0
 70
1
  0
VERTEX
  8
LAYER_2
 10
-3.8091
 20
213.137
  0
VERTEX
  8
LAYER_2
 10
-4.1419
 20
213.137
  0
VERTEX
  8
LAYER_2
 10
-4.1419
 20
211.4352
  0
VERTEX
  8
LAYER_2
 10
-3.8091
 20
211.4352
  0
SEQEND
  0
POLYLINE
  8
LAYER_2
 40
0.05
 41
0.05
 66
1
 10
0
 20
0
 30
0
 70
1
  0
VERTEX
  8
LAYER_2
 10
-5.0562
 20
211.4352
  0
VERTEX
  8
LAYER_2
 10
-5.0562
 20
212.231
 42
0.2072987281
  0
VERTEX
  8
LAYER_2
 10
-5.183
 20
212.5844
 42
0.2031043538
  0
VERTEX
  8
LAYER_2
 10
-5.4775
 20
212.6947
 42
0.201378382
  0
VERTEX
  8
LAYER_2
 10
-5.7886
 20
212.5658
  0
VERTEX
  8
LAYER_2
 10
-5.7886
 20
212.6805
  0
VERTEX
  8
LAYER_2
 10
-6.0925
 20
212.6805
  0
VERTEX
  8
LAYER_2
 10
-6.0925
 20
211.4352
  0
VERTEX
  8
LAYER_2
 10
-5.7814
 20
211.4352
  0
VERTEX
  8
LAYER_2
 10
-5.7814
 20
212.1882
 42
-0.4179312156
  0
VERTEX
  8
LAYER_2
 10
-5.573
 20
212.4149
 42
-0.4343639015
  0
VERTEX
  8
LAYER_2
 10
-5.3673
 20
212.1882
  0
VERTEX
  8
LAYER_2
 10
-5.3673
 20
211.4352
  0
SEQEND
  0
POLYLINE
  8
LAYER_2
 40
0.05
 41
0.05
 66
1
 10
0
 20
0
 30
0
 70
1
  0
VERTEX
  8
LAYER_2
 10
-6.437
 20
213.1467
  0
VERTEX
  8
LAYER_2
 10
-6.7553
 20
213.1467
  0
VERTEX
  8
LAYER_2
 10
-6.7553
 20
212.8931
  0
VERTEX
  8
LAYER_2
 10
-6.437
 20
212.8931
  0
SEQEND
  0
POLYLINE
  8
LAYER_2
 40
0.05
 41
0.05
 66
1
 10
0
 20
0
 30
0
 70
1
  0
VERTEX
  8
LAYER_2
 10
-6.4394
 20
212.6444
  0
VERTEX
  8
LAYER_2
 10
-6.7508
 20
212.6444
  0
VERTEX
  8
LAYER_2
 10
-6.7508
 20
211.4352
  0
VERTEX
  8
LAYER_2
 10
-6.4394
 20
211.4352
  0
SEQEND
  0
POLYLINE
  8
LAYER_2
 40
0.05
 41
0.05
 66
1
 10
0
 20
0
 30
0
  0
VERTEX
  8
LAYER_2
 10
-7.8994
 20
212.1738
  0
VERTEX
  8
LAYER_2
 10
-8.3735
 20
212.1738
 42
-0.1150247832
  0
VERTEX
  8
LAYER_2
 10
-8.3445
 20
212.3074
 42
-0.3021002553
  0
VERTEX
  8
LAYER_2
 10
-8.1365
 20
212.4363
 42
-0.2972451875
  0
VERTEX
  8
LAYER_2
 10
-7.9284
 20
212.3074
 42
-0.09898717384
  0
VERTEX
  8
LAYER_2
 10
-7.8994
 20
212.1738
  0
SEQEND
  0
POLYLINE
  8
LAYER_2
 40
0.05
 41
0.05
 66
1
 10
0
 20
0
 30
0
 70
1
  0
VERTEX
  8
LAYER_2
 10
-7.5932
 20
211.9609
  0
VERTEX
  8
LAYER_2
 10
-7.5932
 20
212.0925
 42
0.1892091988
  0
VERTEX
  8
LAYER_2
 10
-7.7571
 20
212.5503
 42
0.2074689034
  0
VERTEX
  8
LAYER_2
 10
-8.1365
 20
212.6947
 42
0.212635805
  0
VERTEX
  8
LAYER_2
 10
-8.5293
 20
212.5292
 42
0.1815550622
  0
VERTEX
  8
LAYER_2
 10
-8.6787
 20
212.1059
 42
0.01190200981
  0
VERTEX
  8
LAYER_2
 10
-8.6797
 20
212.0591
 42
0.1802893809
  0
VERTEX
  8
LAYER_2
 10
-8.5263
 20
211.5744
 42
0.2020162133
  0
VERTEX
  8
LAYER_2
 10
-8.158
 20
211.4223
 42
0.01695408336
  0
VERTEX
  8
LAYER_2
 10
-8.103
 20
211.4207
 42
0.2069028033
  0
VERTEX
  8
LAYER_2
 10
-7.6557
 20
211.5904
 42
0.01111068861
  0
VERTEX
  8
LAYER_2
 10
-7.629
 20
211.6167
  0
VERTEX
  8
LAYER_2
 10
-7.8181
 20
211.801
 42
-0.224324849
  0
VERTEX
  8
LAYER_2
 10
-8.1003
 20
211.6839
 42
-0.4264622019
  0
VERTEX
  8
LAYER_2
 10
-8.3735
 20
211.9609
  0
SEQEND
  0
POLYLINE
  8
LAYER_2
 40
0.05
 41
0.05
 66
1
 10
0
 20
0
 30
0
  0
VERTEX
  8
LAYER_2
 10
-9.2778
 20
212.0591
 42
-0.1438386142
  0
VERTEX
  8
LAYER_2
 10
-9.3235
 20
211.7869
 42
-0.2886460427
  0
VERTEX
  8
LAYER_2
 10
-9.4911
 20
211.7004
 42
-0.3841580528
  0
VERTEX
  8
LAYER_2
 10
-9.6851
 20
211.8609
 42
-0.05455021257
  0
VERTEX
  8
LAYER_2
 10
-9.7016
 20
212.0591
 42
-0.1483049254
  0
VERTEX
  8
LAYER_2
 10
-9.6559
 20
212.3323
 42
-0.2855556046
  0
VERTEX
  8
LAYER_2
 10
-9.4911
 20
212.4149
 42
-0.3794480357
  0
VERTEX
  8
LAYER_2
 10
-9.2951
 20
212.2564
 42
-0.05697683845
  0
VERTEX
  8
LAYER_2
 10
-9.2778
 20
212.0591
  0
SEQEND
  0
POLYLINE
  8
LAYER_2
 40
0.05
 41
0.05
 66
1
 10
0
 20
0
 30
0
 70
1
  0
VERTEX
  8
LAYER_2
 10
-8.9667
 20
211.4352
  0
VERTEX
  8
LAYER_2
 10
-8.9667
 20
213.137
  0
VERTEX
  8
LAYER_2
 10
-9.2778
 20
213.137
  0
VERTEX
  8
LAYER_2
 10
-9.2778
 20
212.5707
 42
0.2297998422
  0
VERTEX
  8
LAYER_2
 10
-9.582
 20
212.6947
 42
0.1954770263
  0
VERTEX
  8
LAYER_2
 10
-9.8835
 20
212.5824
 42
0.1230294745
  0
VERTEX
  8
LAYER_2
 10
-9.9795
 20
212.4101
 42
0.0747779445
  0
VERTEX
  8
LAYER_2
 10
-10.013
 20
212.0591
 42
0.0994726102
  0
VERTEX
  8
LAYER_2
 10
-9.9681
 20
211.6704
 42
0.1089535567
  0
VERTEX
  8
LAYER_2
 10
-9.8835
 20
211.533
 42
0.2047870903
  0
VERTEX
  8
LAYER_2
 10
-9.5796
 20
211.4207
 42
0.2301632332
  0
VERTEX
  8
LAYER_2
 10
-9.2709
 20
211.5523
  0
VERTEX
  8
LAYER_2
 10
-9.2709
 20
211.4352
  0
SEQEND
  0
POLYLINE
  8
LAYER_2
 40
0.05
 41
0.05
 66
1
 10
0
 20
0
 30
0
 70
1
  0
VERTEX
  8
LAYER_2
 10
-10.6062
 20
211.894
 42
-0.2466163696
  0
VERTEX
  8
LAYER_2
 10
-10.6541
 20
211.7363
 42
-0.212724989
  0
VERTEX
  8
LAYER_2
 10
-10.8384
 20
211.6763
 42
-0.2058776096
  0
VERTEX
  8
LAYER_2
 10
-10.9909
 20
211.723
 42
-0.205582218
  0
VERTEX
  8
LAYER_2
 10
-11.0272
 20
211.8175
 42
-0.4728058788
  0
VERTEX
  8
LAYER_2
 10
-10.8433
 20
211.9609
  0
VERTEX
  8
LAYER_2
 10
-10.6062
 20
211.9609
  0
SEQEND
  0
POLYLINE
  8
LAYER_2
 40
0.05
 41
0.05
 66
1
 10
0
 20
0
 30
0
 70
1
  0
VERTEX
  8
LAYER_2
 10
-10.2951
 20
211.4352
  0
VERTEX
  8
LAYER_2
 10
-10.2951
 20
212.2551
 42
0.2450199827
  0
VERTEX
  8
LAYER_2
 10
-10.455
 20
212.6039
 42
0.1631220144
  0
VERTEX
  8
LAYER_2
 10
-10.8267
 20
212.6947
 42
0.223003002
  0
VERTEX
  8
LAYER_2
 10
-11.2625
 20
212.5302
 42
0.006267388191
  0
VERTEX
  8
LAYER_2
 10
-11.2739
 20
212.5179
  0
VERTEX
  8
LAYER_2
 10
-11.0779
 20
212.3243
 42
-0.2470834876
  0
VERTEX
  8
LAYER_2
 10
-10.8384
 20
212.4322
 42
-0.1872740545
  0
VERTEX
  8
LAYER_2
 10
-10.6621
 20
212.3865
 42
-0.238797369
  0
VERTEX
  8
LAYER_2
 10
-10.6062
 20
212.2358
  0
VERTEX
  8
LAYER_2
 10
-10.6062
 20
212.1738
  0
VERTEX
  8
LAYER_2
 10
-10.896
 20
212.1738
 42
0.2346153399
  0
VERTEX
  8
LAYER_2
 10
-11.268
 20
212.0142
 42
0.1531846975
  0
VERTEX
  8
LAYER_2
 10
-11.3266
 20
211.8127
 42
0.1894880782
  0
VERTEX
  8
LAYER_2
 10
-11.2239
 20
211.533
 42
0.2078362131
  0
VERTEX
  8
LAYER_2
 10
-10.9053
 20
211.4228
 42
0.2218282602
  0
VERTEX
  8
LAYER_2
 10
-10.599
 20
211.5426
  0
VERTEX
  8
LAYER_2
 10
-10.599
 20
211.4352
  0
SEQEND
  0
POLYLINE
  8
LAYER_2
 40
0.05
 41
0.05
 66
1
 10
0
 20
0
 30
0
 70
1
  0
VERTEX
  8
LAYER_2
 10
-11.5733
 20
211.4352
  0
VERTEX
  8
LAYER_2
 10
-11.5733
 20
212.231
 42
0.205542241
  0
VERTEX
  8
LAYER_2
 10
-11.7097
 20
212.5844
 42
0.1987814349
  0
VERTEX
  8
LAYER_2
 10
-12.016
 20
212.6947
 42
0.2182066523
  0
VERTEX
  8
LAYER_2
 10
-12.3894
 20
212.5369
 42
0.2492914965
  0
VERTEX
  8
LAYER_2
 10
-12.7198
 20
212.6947
 42
0.1963594215
  0
VERTEX
  8
LAYER_2
 10
-13.0309
 20
212.5658
  0
VERTEX
  8
LAYER_2
 10
-13.0309
 20
212.6805
  0
VERTEX
  8
LAYER_2
 10
-13.3348
 20
212.6805
  0
VERTEX
  8
LAYER_2
 10
-13.3348
 20
211.4352
  0
VERTEX
  8
LAYER_2
 10
-13.0233
 20
211.4352
  0
VERTEX
  8
LAYER_2
 10
-13.0233
 20
212.1882
 42
-0.4178253314
  0
VERTEX
  8
LAYER_2
 10
-12.8153
 20
212.4149
 42
-0.4343639015
  0
VERTEX
  8
LAYER_2
 10
-12.6096
 20
212.1882
  0
VERTEX
  8
LAYER_2
 10
-12.6096
 20
211.4352
  0
VERTEX
  8
LAYER_2
 10
-12.2985
 20
211.4352
  0
VERTEX
  8
LAYER_2
 10
-12.2985
 20
212.1951
 42
-0.4176164983
  0
VERTEX
  8
LAYER_2
 10
-12.0904
 20
212.4149
 42
-0.434797635
  0
VERTEX
  8
LAYER_2
 10
-11.8844
 20
212.1882
  0
VERTEX
  8
LAYER_2
 10
-11.8844
 20
211.4352
  0
SEQEND
  0
POLYLINE
  8
LAYER_2
 40
0.05
 41
0.05
 66
1
 10
0
 20
0
 30
0
  0
VERTEX
  8
LAYER_2
 10
-13.8973
 20
212.0229
 42
-0.1159462989
  0
VERTEX
  8
LAYER_2
 10
-13.9445
 20
211.7201
 42
-0.3129536504
  0
VERTEX
  8
LAYER_2
 10
-14.1915
 20
211.5736
 42
-0.314965659
  0
VERTEX
  8
LAYER_2
 10
-14.446
 20
211.7323
 42
-0.1053090454
  0
VERTEX
  8
LAYER_2
 10
-14.4882
 20
212.0229
 42
-0.113954245
  0
VERTEX
  8
LAYER_2
 10
-14.4424
 20
212.3219
 42
-0.3163619605
  0
VERTEX
  8
LAYER_2
 10
-14.1915
 20
212.4725
 42
-0.3164516036
  0
VERTEX
  8
LAYER_2
 10
-13.9392
 20
212.3138
 42
-0.103439187
  0
VERTEX
  8
LAYER_2
 10
-13.8973
 20
212.0229
  0
SEQEND
  0
POLYLINE
  8
LAYER_2
 40
0.05
 41
0.05
 66
1
 10
0
 20
0
 30
0
 70
1
  0
VERTEX
  8
LAYER_2
 10
-13.7247
 20
211.4352
  0
VERTEX
  8
LAYER_2
 10
-13.7247
 20
213.137
  0
VERTEX
  8
LAYER_2
 10
-13.8973
 20
213.137
  0
VERTEX
  8
LAYER_2
 10
-13.8973
 20
212.4749
 42
0.2525818121
  0
VERTEX
  8
LAYER_2
 10
-14.2298
 20
212.6258
 42
0.1886393528
  0
VERTEX
  8
LAYER_2
 10
-14.5171
 20
212.5224
 42
0.1172978386
  0
VERTEX
  8
LAYER_2
 10
-14.6205
 20
212.3434
 42
0.07876818405
  0
VERTEX
  8
LAYER_2
 10
-14.6608
 20
212.0229
 42
0.09207329595
  0
VERTEX
  8
LAYER_2
 10
-14.6127
 20
211.6805
 42
0.1077667615
  0
VERTEX
  8
LAYER_2
 10
-14.5171
 20
211.5234
 42
0.198210181
  0
VERTEX
  8
LAYER_2
 10
-14.2298
 20
211.4207
 42
0.2515984765
  0
VERTEX
  8
LAYER_2
 10
-13.8949
 20
211.5761
  0
VERTEX
  8
LAYER_2
 10
-13.8949
 20
211.4352
  0
SEQEND
  0
POLYLINE
  8
LAYER_2
 40
0.05
 41
0.05
 66
1
 10
0
 20
0
 30
0
 70
1
  0
VERTEX
  8
LAYER_2
 10
-15.0173
 20
211.4352
  0
VERTEX
  8
LAYER_2
 10
-15.0173
 20
212.1882
 42
0.2025955741
  0
VERTEX
  8
LAYER_2
 10
-15.1393
 20
212.5156
 42
0.2044555257
  0
VERTEX
  8
LAYER_2
 10
-15.4411
 20
212.6258
 42
0.2165707378
  0
VERTEX
  8
LAYER_2
 10
-15.7711
 20
212.4818
  0
VERTEX
  8
LAYER_2
 10
-15.7711
 20
212.6113
  0
VERTEX
  8
LAYER_2
 10
-15.9434
 20
212.6113
  0
VERTEX
  8
LAYER_2
 10
-15.9434
 20
211.4352
  0
VERTEX
  8
LAYER_2
 10
-15.7711
 20
211.4352
  0
VERTEX
  8
LAYER_2
 10
-15.7711
 20
212.1593
 42
-0.2837547598
  0
VERTEX
  8
LAYER_2
 10
-15.6189
 20
212.4442
 42
-0.1086336204
  0
VERTEX
  8
LAYER_2
 10
-15.479
 20
212.4725
 42
-0.442304779
  0
VERTEX
  8
LAYER_2
 10
-15.1896
 20
212.1593
  0
VERTEX
  8
LAYER_2
 10
-15.1896
 20
211.4352
  0
SEQEND
  0
POLYLINE
  8
LAYER_2
 40
0.05
 41
0.05
 66
1
 10
0
 20
0
 30
0
 70
1
  0
VERTEX
  8
LAYER_2
 10
-16.5346
 20
211.8506
 42
-0.2101171453
  0
VERTEX
  8
LAYER_2
 10
-16.5945
 20
211.6477
 42
-0.2061049303
  0
VERTEX
  8
LAYER_2
 10
-16.8553
 20
211.5688
 42
-0.162375608
  0
VERTEX
  8
LAYER_2
 10
-17.0584
 20
211.6151
 42
-0.2625865829
  0
VERTEX
  8
LAYER_2
 10
-17.1281
 20
211.77
 42
-0.3766203625
  0
VERTEX
  8
LAYER_2
 10
-16.9692
 20
211.9668
 42
-0.05119198821
  0
VERTEX
  8
LAYER_2
 10
-16.8625
 20
211.9774
  0
VERTEX
  8
LAYER_2
 10
-16.5346
 20
211.9774
  0
SEQEND
  0
POLYLINE
  8
LAYER_2
 40
0.05
 41
0.05
 66
1
 10
0
 20
0
 30
0
 70
1
  0
VERTEX
  8
LAYER_2
 10
-16.362
 20
211.4352
  0
VERTEX
  8
LAYER_2
 10
-16.362
 20
212.233
 42
0.2623610217
  0
VERTEX
  8
LAYER_2
 10
-16.5224
 20
212.5561
 42
0.1450933816
  0
VERTEX
  8
LAYER_2
 10
-16.8336
 20
212.6258
 42
0.2362276322
  0
VERTEX
  8
LAYER_2
 10
-17.2355
 20
212.4672
 42
0.01170794038
  0
VERTEX
  8
LAYER_2
 10
-17.2501
 20
212.4487
  0
VERTEX
  8
LAYER_2
 10
-17.133
 20
212.3409
 42
-0.2755800686
  0
VERTEX
  8
LAYER_2
 10
-16.8364
 20
212.4776
 42
-0.1517468402
  0
VERTEX
  8
LAYER_2
 10
-16.6283
 20
212.4308
 42
-0.2800643637
  0
VERTEX
  8
LAYER_2
 10
-16.5346
 20
212.2193
  0
VERTEX
  8
LAYER_2
 10
-16.5346
 20
212.1066
  0
VERTEX
  8
LAYER_2
 10
-16.8863
 20
212.1066
 42
0.2378691362
  0
VERTEX
  8
LAYER_2
 10
-17.2451
 20
211.9523
 42
0.1477379502
  0
VERTEX
  8
LAYER_2
 10
-17.2956
 20
211.7673
 42
0.1983884986
  0
VERTEX
  8
LAYER_2
 10
-17.2071
 20
211.5282
 42
0.2222408302
  0
VERTEX
  8
LAYER_2
 10
-16.8742
 20
211.4207
 42
0.21971579
  0
VERTEX
  8
LAYER_2
 10
-16.5346
 20
211.5471
  0
VERTEX
  8
LAYER_2
 10
-16.5346
 20
211.4352
  0
SEQEND
  0
POLYLINE
  8
LAYER_2
 40
0.05
 41
0.05
 66
1
 10
0
 20
0
 30
0
 70
1
  0
VERTEX
  8
LAYER_2
 10
-17.6211
 20
211.4352
  0
VERTEX
  8
LAYER_2
 10
-17.6211
 20
212.1903
 42
0.2366048602
  0
VERTEX
  8
LAYER_2
 10
-17.7848
 20
212.5524
 42
0.1585996094
  0
VERTEX
  8
LAYER_2
 10
-18.0449
 20
212.6258
 42
0.2174282511
  0
VERTEX
  8
LAYER_2
 10
-18.3749
 20
212.4818
  0
VERTEX
  8
LAYER_2
 10
-18.3749
 20
213.137
  0
VERTEX
  8
LAYER_2
 10
-18.5475
 20
213.137
  0
VERTEX
  8
LAYER_2
 10
-18.5475
 20
211.4352
  0
VERTEX
  8
LAYER_2
 10
-18.3749
 20
211.4352
  0
VERTEX
  8
LAYER_2
 10
-18.3749
 20
212.1617
 42
-0.2889308341
  0
VERTEX
  8
LAYER_2
 10
-18.2221
 20
212.4453
 42
-0.1047577161
  0
VERTEX
  8
LAYER_2
 10
-18.0807
 20
212.4725
 42
-0.4463558923
  0
VERTEX
  8
LAYER_2
 10
-17.7934
 20
212.1617
  0
VERTEX
  8
LAYER_2
 10
-17.7934
 20
211.4352
  0
SEQEND
  0
ENDBLK
  0
BLOCK
  8
LAYER_2
  2
AIGNBL02020007
 70
64
 10
0
 20
0
 30
0
  3
AIGNBL02020007
  0
INSERT
  8
LAYER_2
  2
AIGNBL02030008
 10
0
 20
0
 30
0
  0
ENDBLK
  0
BLOCK
  8
LAYER_2
  2
AIGNBL02020010
 70
64
 10
0
 20
0
 30
0
  3
AIGNBL02020010
  0
INSERT
  8
LAYER_2
  2
AIGNBL02030011
 10
0
 20
0
 30
0
  0
INSERT
  8
LAYER_2
  2
AIGNBL02030012
 10
0
 20
0
 30
0
  0
INSERT
  8
LAYER_2
  2
AIGNBL02030013
 10
0
 20
0
 30
0
  0
INSERT
  8
LAYER_2
  2
AIGNBL02030014
 10
0
 20
0
 30
0
  0
INSERT
  8
LAYER_2
  2
AIGNBL02030015
 10
0
 20
0
 30
0
  0
INSERT
  8
LAYER_2
  2
AIGNBL02030016
 10
0
 20
0
 30
0
  0
INSERT
  8
LAYER_2
  2
AIGNBL02030017
 10
0
 20
0
 30
0
  0
INSERT
  8
LAYER_2
  2
AIGNBL02030018
 10
0
 20
0
 30
0
  0
INSERT
  8
LAYER_2
  2
AIGNBL02030019
 10
0
 20
0
 30
0
  0
INSERT
  8
LAYER_2
  2
AIGNBL0203001A
 10
0
 20
0
 30
0
  0
INSERT
  8
LAYER_2
  2
AIGNBL0203001B
 10
0
 20
0
 30
0
  0
INSERT
  8
LAYER_2
  2
AIGNBL0203001C
 10
0
 20
0
 30
0
  0
INSERT
  8
LAYER_2
  2
AIGNBL0203001D
 10
0
 20
0
 30
0
  0
INSERT
  8
LAYER_2
  2
AIGNBL0203001E
 10
0
 20
0
 30
0
  0
INSERT
  8
LAYER_2
  2
AIGNBL0203001F
 10
0
 20
0
 30
0
  0
INSERT
  8
LAYER_2
  2
AIGNBL02030020
 10
0
 20
0
 30
0
  0
INSERT
  8
LAYER_2
  2
AIGNBL02030021
 10
0
 20
0
 30
0
  0
INSERT
  8
LAYER_2
  2
AIGNBL02030022
 10
0
 20
0
 30
0
  0
INSERT
  8
LAYER_2
  2
AIGNBL02030023
 10
0
 20
0
 30
0
  0
INSERT
  8
LAYER_2
  2
AIGNBL02030024
 10
0
 20
0
 30
0
  0
INSERT
  8
LAYER_2
  2
AIGNBL02030025
 10
0
 20
0
 30
0
  0
INSERT
  8
LAYER_2
  2
AIGNBL02030026
 10
0
 20
0
 30
0
  0
INSERT
  8
LAYER_2
  2
AIGNBL02030027
 10
0
 20
0
 30
0
  0
ENDBLK
  0
BLOCK
  8
LAYER_1
  2
AIGNBL01010002
 70
64
 10
0
 20
0
 30
0
  3
AIGNBL01010002
  0
POLYLINE
  8
LAYER_1
 40
0.1058
 41
0.1058
 66
1
 10
0
 20
0
 30
0
  0
VERTEX
  8
LAYER_1
 10
86.2552
 20
178.7599
  0
VERTEX
  8
LAYER_1
 10
85.2558
 20
178.7599
  0
SEQEND
  0
POLYLINE
  8
LAYER_1
 40
0.1058
 41
0.1058
 66
1
 10
0
 20
0
 30
0
  0
VERTEX
  8
LAYER_1
 10
85.2551
 20
178.7599
  0
VERTEX
  8
LAYER_1
 10
83.6662
 20
180.2172
  0
SEQEND
  0
TEXT
  8
LAYER_1
 10
86.567
 20
178.2707
 11
86.567
 21
178.2707
 40
4.1465
 41
0.5
  1
35
  0
POLYLINE
  8
LAYER_1
 40
0.05
 41
0.05
 66
1
 10
0
 20
0
 30
0
 70
1
  0
VERTEX
  8
LAYER_1
 10
83.7789
 20
180.3405
  0
VERTEX
  8
LAYER_1
 10
83.5535
 20
180.0945
  0
VERTEX
  8
LAYER_1
 10
82.9297
 20
180.8931
  0
SEQEND
  0
ENDBLK
  0
BLOCK
  8
LAYER_2
  2
AIGNBL02010002
 70
64
 10
0
 20
0
 30
0
  3
AIGNBL02010002
  0
POLYLINE
  8
LAYER_2
 40
0.7056
 41
0.7056
 66
1
 10
0
 20
0
 30
0
 70
1
  0
VERTEX
  8
LAYER_2
 10
251.6749
 20
230.337
  0
VERTEX
  8
LAYER_2
 10
251.6749
 20
33.3285
  0
VERTEX
  8
LAYER_2
 10
-30.3177
 20
33.3285
  0
VERTEX
  8
LAYER_2
 10
-30.3177
 20
230.337
  0
SEQEND
  0
ENDBLK
  0
BLOCK
  8
LAYER_2
  2
AIGNBL02010003
 70
64
 10
0
 20
0
 30
0
  3
AIGNBL02010003
  0
INSERT
  8
LAYER_2
  2
AIGNBL02020004
 10
0
 20
0
 30
0
  0
POLYLINE
  8
LAYER_2
 40
0.05
 41
0.05
 66
1
 10
0
 20
0
 30
0
  0
VERTEX
  8
LAYER_2
 10
-6.457
 20
223.2684
  0
VERTEX
  8
LAYER_2
 10
-8.0924
 20
223.2684
  0
VERTEX
  8
LAYER_2
 10
-8.0924
 20
216.1939
 42
0.1050424825
  0
VERTEX
  8
LAYER_2
 10
-7.9127
 20
215.3316
 42
0.1079536646
  0
VERTEX
  8
LAYER_2
 10
-7.4796
 20
214.75
 42
0.105678841
  0
VERTEX
  8
LAYER_2
 10
-6.8587
 20
214.4154
 42
0.04706827067
  0
VERTEX
  8
LAYER_2
 10
-6.4597
 20
214.3359
  0
VERTEX
  8
LAYER_2
 10
-6.457
 20
223.2684
  0
SEQEND
  0
INSERT
  8
LAYER_2
  2
AIGNBL02020005
 10
0
 20
0
 30
0
  0
ENDBLK
  0
BLOCK
  8
LAYER_2
  2
AIGNBL02010006
 70
64
 10
0
 20
0
 30
0
  3
AIGNBL02010006
  0
INSERT
  8
LAYER_2
  2
AIGNBL02020007
 10
0
 20
0
 30
0
  0
INSERT
  8
LAYER_2
  2
AIGNBL02020010
 10
0
 20
0
 30
0
  0
ENDBLK
  0
BLOCK
  8
LAYER_2
  2
AIGNBL02010028
 70
64
 10
0
 20
0
 30
0
  3
AIGNBL02010028
  0
CIRCLE
  8
LAYER_2
  6
AIGENLINE002
 10
66.2089
 20
89.4354
 40
1.1837
  0
POLYLINE
  8
LAYER_2
  6
AIGENLINE002
 40
0.1129
 41
0.1129
 66
1
 10
0
 20
0
 30
0
 70
128
  0
VERTEX
  8
LAYER_2
 10
82.4721
 20
83.258
  0
VERTEX
  8
LAYER_2
 10
82.4032
 20
83.1515
  0
VERTEX
  8
LAYER_2
 10
82.3795
 20
83.033
  0
SEQEND
  0
POLYLINE
  8
LAYER_2
  6
AIGENLINE002
 40
0.1129
 41
0.1129
 66
1
 10
0
 20
0
 30
0
 70
128
  0
VERTEX
  8
LAYER_2
 10
77.8833
 20
83.1629
  0
VERTEX
  8
LAYER_2
 10
80.1305
 20
83.1629
  0
SEQEND
  0
ENDBLK
  0
BLOCK
  8
LAYER_2
  2
AIGNBL02010029
 70
64
 10
0
 20
0
 30
0
  3
AIGNBL02010029
  0
POLYLINE
  8
LAYER_2
  6
AIGENLINE002
 40
0.1129
 41
0.1129
 66
1
 10
0
 20
0
 30
0
 70
128
  0
VERTEX
  8
LAYER_2
 10
174.7084
 20
96.287
  0
VERTEX
  8
LAYER_2
 10
174.5565
 20
96.2639
  0
VERTEX
  8
LAYER_2
 10
174.4162
 20
96.1922
  0
VERTEX
  8
LAYER_2
 10
174.3005
 20
96.0741
  0
VERTEX
  8
LAYER_2
 10
174.2302
 20
95.9325
  0
VERTEX
  8
LAYER_2
 10
174.2068
 20
95.7788
  0
VERTEX
  8
LAYER_2
 10
174.2068
 20
84.9364
  0
VERTEX
  8
LAYER_2
 10
174.1489
 20
84.7473
 42
-0.1533052187
  0
VERTEX
  8
LAYER_2
 10
173.763
 20
84.2759
 42
-0.08194421189
  0
VERTEX
  8
LAYER_2
 10
173.4147
 20
84.1327
  0
VERTEX
  8
LAYER_2
 10
173.2163
 20
84.1086
  0
VERTEX
  8
LAYER_2
 10
168.5888
 20
84.1086
  0
VERTEX
  8
LAYER_2
 10
168.2309
 20
84.1086
  0
VERTEX
  8
LAYER_2
 10
164.701
 20
84.1086
  0
VERTEX
  8
LAYER_2
 10
161.0792
 20
84.1086
  0
VERTEX
  8
LAYER_2
 10
160.9673
 20
84.1086
  0
VERTEX
  8
LAYER_2
 10
148.7237
 20
84.1086
  0
VERTEX
  8
LAYER_2
 10
148.3465
 20
84.1086
  0
VERTEX
  8
LAYER_2
 10
148.1605
 20
84.1327
  0
VERTEX
  8
LAYER_2
 10
147.9741
 20
84.1806
  0
VERTEX
  8
LAYER_2
 10
147.8108
 20
84.2749
  0
VERTEX
  8
LAYER_2
 10
147.6592
 20
84.3931
  0
VERTEX
  8
LAYER_2
 10
147.5304
 20
84.5344
  0
VERTEX
  8
LAYER_2
 10
147.4373
 20
84.699
  0
VERTEX
  8
LAYER_2
 10
142.836
 20
95.9907
  0
VERTEX
  8
LAYER_2
 10
142.7665
 20
96.1085
  0
VERTEX
  8
LAYER_2
 10
142.6504
 20
96.2039
  0
VERTEX
  8
LAYER_2
 10
142.5219
 20
96.2639
  0
VERTEX
  8
LAYER_2
 10
142.3817
 20
96.287
  0
SEQEND
  0
POLYLINE
  8
LAYER_2
  6
AIGENLINE002
 40
0.1129
 41
0.1129
 66
1
 10
0
 20
0
 30
0
 70
128
  0
VERTEX
  8
LAYER_2
 10
160.9673
 20
84.1086
  0
VERTEX
  8
LAYER_2
 10
148.7237
 20
84.1086
  0
SEQEND
  0
POLYLINE
  8
LAYER_2
  6
AIGENLINE002
 40
0.1129
 41
0.1129
 66
1
 10
0
 20
0
 30
0
 70
128
  0
VERTEX
  8
LAYER_2
 10
162.5003
 20
83.1629
  0
VERTEX
  8
LAYER_2
 10
163.9669
 20
83.1629
  0
VERTEX
  8
LAYER_2
 10
167.0086
 20
83.1629
  0
SEQEND
  0
POLYLINE
  8
LAYER_2
  6
AIGENLINE002
 40
0.1129
 41
0.1129
 66
1
 10
0
 20
0
 30
0
 70
128
  0
VERTEX
  8
LAYER_2
 10
161.5915
 20
84.0259
  0
VERTEX
  8
LAYER_2
 10
162.3601
 20
83.258
  0
VERTEX
  8
LAYER_2
 10
162.43
 20
83.1515
  0
VERTEX
  8
LAYER_2
 10
162.4528
 20
83.033
  0
VERTEX
  8
LAYER_2
 10
162.4528
 20
81.0586
  0
SEQEND
  0
POLYLINE
  8
LAYER_2
  6
AIGENLINE002
 40
0.1129
 41
0.1129
 66
1
 10
0
 20
0
 30
0
 70
128
  0
VERTEX
  8
LAYER_2
 10
167.824
 20
84.0259
  0
VERTEX
  8
LAYER_2
 10
167.0547
 20
83.258
  0
VERTEX
  8
LAYER_2
 10
166.9848
 20
83.1515
  0
VERTEX
  8
LAYER_2
 10
166.9621
 20
83.033
  0
VERTEX
  8
LAYER_2
 10
166.9621
 20
81.0586
  0
SEQEND
  0
ENDBLK
  0
BLOCK
  8
LAYER_2
  2
AIGNBL0201002A
 70
64
 10
0
 20
0
 30
0
  3
AIGNBL0201002A
  0
POLYLINE
  8
LAYER_2
 40
0.05
 41
0.05
 66
1
 10
0
 20
0
 30
0
  0
VERTEX
  8
LAYER_2
 10
161.7045
 20
163.7647
 42
-0.08002146857
  0
VERTEX
  8
LAYER_2
 10
160.9835
 20
163.8808
  0
VERTEX
  8
LAYER_2
 10
160.9273
 20
163.9924
  0
VERTEX
  8
LAYER_2
 10
161.0382
 20
164.0479
 42
0.07832670557
  0
VERTEX
  8
LAYER_2
 10
161.7045
 20
163.9418
  0
VERTEX
  8
LAYER_2
 10
161.7931
 20
163.8532
  0
VERTEX
  8
LAYER_2
 10
161.7045
 20
163.7647
  0
SEQEND
  0
POLYLINE
  8
LAYER_2
 40
0.05
 41
0.05
 66
1
 10
0
 20
0
 30
0
  0
VERTEX
  8
LAYER_2
 10
163.0402
 20
164.1933
 42
-0.08059412431
  0
VERTEX
  8
LAYER_2
 10
162.3853
 20
163.8684
  0
VERTEX
  8
LAYER_2
 10
162.276
 20
163.9259
  0
VERTEX
  8
LAYER_2
 10
162.3336
 20
164.0365
 42
0.0798273124
  0
VERTEX
  8
LAYER_2
 10
162.9372
 20
164.3362
  0
VERTEX
  8
LAYER_2
 10
163.0608
 20
164.3156
  0
VERTEX
  8
LAYER_2
 10
163.0402
 20
164.1933
  0
SEQEND
  0
POLYLINE
  8
LAYER_2
 40
0.05
 41
0.05
 66
1
 10
0
 20
0
 30
0
  0
VERTEX
  8
LAYER_2
 10
163.8984
 20
165.3522
 42
-0.07851272873
  0
VERTEX
  8
LAYER_2
 10
163.5611
 20
164.7048
  0
VERTEX
  8
LAYER_2
 10
163.4374
 20
164.6866
  0
VERTEX
  8
LAYER_2
 10
163.4188
 20
164.8099
 42
0.07788661543
  0
VERTEX
  8
LAYER_2
 10
163.7313
 20
165.4087
  0
VERTEX
  8
LAYER_2
 10
163.8436
 20
165.4645
  0
VERTEX
  8
LAYER_2
 10
163.8984
 20
165.3522
  0
SEQEND
  0
POLYLINE
  8
LAYER_2
 40
0.05
 41
0.05
 66
1
 10
0
 20
0
 30
0
  0
VERTEX
  8
LAYER_2
 10
163.9176
 20
166.7946
 42
-0.07427281834
  0
VERTEX
  8
LAYER_2
 10
164.0213
 20
166.1042
  0
VERTEX
  8
LAYER_2
 10
164.0203
 20
166.0712
  0
VERTEX
  8
LAYER_2
 10
163.9314
 20
165.9854
  0
VERTEX
  8
LAYER_2
 10
163.8439
 20
166.075
  0
VERTEX
  8
LAYER_2
 10
163.8446
 20
166.1042
 42
0.0741548311
  0
VERTEX
  8
LAYER_2
 10
163.7492
 20
166.7423
  0
VERTEX
  8
LAYER_2
 10
163.8074
 20
166.8532
  0
VERTEX
  8
LAYER_2
 10
163.9176
 20
166.7946
  0
SEQEND
  0
POLYLINE
  8
LAYER_2
 40
0.05
 41
0.05
 66
1
 10
0
 20
0
 30
0
  0
VERTEX
  8
LAYER_2
 10
163.0905
 20
167.9767
 42
-0.07912256961
  0
VERTEX
  8
LAYER_2
 10
163.5972
 20
167.4506
  0
VERTEX
  8
LAYER_2
 10
163.5762
 20
167.3276
  0
VERTEX
  8
LAYER_2
 10
163.4532
 20
167.3497
 42
0.07738235609
  0
VERTEX
  8
LAYER_2
 10
162.9844
 20
167.8354
  0
VERTEX
  8
LAYER_2
 10
162.9671
 20
167.9594
  0
VERTEX
  8
LAYER_2
 10
163.0905
 20
167.9767
  0
SEQEND
  0
POLYLINE
  8
LAYER_2
 40
0.05
 41
0.05
 66
1
 10
0
 20
0
 30
0
  0
VERTEX
  8
LAYER_2
 10
161.7255
 20
168.4414
 42
-0.07956458626
  0
VERTEX
  8
LAYER_2
 10
162.4452
 20
168.3195
  0
VERTEX
  8
LAYER_2
 10
162.5007
 20
168.2075
  0
VERTEX
  8
LAYER_2
 10
162.3887
 20
168.1523
 42
0.0794267575
  0
VERTEX
  8
LAYER_2
 10
161.7242
 20
168.265
  0
VERTEX
  8
LAYER_2
 10
161.6363
 20
168.3539
  0
VERTEX
  8
LAYER_2
 10
161.7255
 20
168.4414
  0
SEQEND
  0
POLYLINE
  8
LAYER_2
 40
0.05
 41
0.05
 66
1
 10
0
 20
0
 30
0
  0
VERTEX
  8
LAYER_2
 10
160.3516
 20
168.0015
 42
-0.07905292676
  0
VERTEX
  8
LAYER_2
 10
161.0027
 20
168.3325
  0
VERTEX
  8
LAYER_2
 10
161.1137
 20
168.2754
  0
VERTEX
  8
LAYER_2
 10
161.0568
 20
168.1644
 42
0.07901739934
  0
VERTEX
  8
LAYER_2
 10
160.455
 20
167.8585
  0
VERTEX
  8
LAYER_2
 10
160.3323
 20
167.8781
  0
VERTEX
  8
LAYER_2
 10
160.3516
 20
168.0015
  0
SEQEND
  0
POLYLINE
  8
LAYER_2
 40
0.05
 41
0.05
 66
1
 10
0
 20
0
 30
0
  0
VERTEX
  8
LAYER_2
 10
159.5038
 20
166.8339
 42
-0.07925225425
  0
VERTEX
  8
LAYER_2
 10
159.8359
 20
167.485
  0
VERTEX
  8
LAYER_2
 10
159.9592
 20
167.5047
  0
VERTEX
  8
LAYER_2
 10
159.9785
 20
167.3817
 42
0.07740340997
  0
VERTEX
  8
LAYER_2
 10
159.6716
 20
166.7802
  0
VERTEX
  8
LAYER_2
 10
159.5603
 20
166.7233
  0
VERTEX
  8
LAYER_2
 10
159.5038
 20
166.8339
  0
SEQEND
  0
POLYLINE
  8
LAYER_2
 40
0.05
 41
0.05
 66
1
 10
0
 20
0
 30
0
  0
VERTEX
  8
LAYER_2
 10
159.4972
 20
165.3921
 42
-0.07554816986
  0
VERTEX
  8
LAYER_2
 10
159.3884
 20
166.1042
  0
VERTEX
  8
LAYER_2
 10
159.3884
 20
166.1132
  0
VERTEX
  8
LAYER_2
 10
159.4772
 20
166.2017
  0
VERTEX
  8
LAYER_2
 10
159.5651
 20
166.1129
  0
VERTEX
  8
LAYER_2
 10
159.5651
 20
166.1042
 42
0.07602960934
  0
VERTEX
  8
LAYER_2
 10
159.6653
 20
165.4455
  0
VERTEX
  8
LAYER_2
 10
159.6089
 20
165.3343
  0
VERTEX
  8
LAYER_2
 10
159.4972
 20
165.3921
  0
SEQEND
  0
POLYLINE
  8
LAYER_2
 40
0.05
 41
0.05
 66
1
 10
0
 20
0
 30
0
  0
VERTEX
  8
LAYER_2
 10
160.3344
 20
164.2181
 42
-0.07854115433
  0
VERTEX
  8
LAYER_2
 10
159.8235
 20
164.739
  0
VERTEX
  8
LAYER_2
 10
159.8438
 20
164.8623
  0
VERTEX
  8
LAYER_2
 10
159.9671
 20
164.8413
 42
0.0785307676
  0
VERTEX
  8
LAYER_2
 10
160.4402
 20
164.3593
  0
VERTEX
  8
LAYER_2
 10
160.4584
 20
164.2363
  0
VERTEX
  8
LAYER_2
 10
160.3344
 20
164.2181
  0
SEQEND
  0
ENDBLK
  0
BLOCK
  8
LAYER_2
  2
AIGNBL0201002B
 70
64
 10
0
 20
0
 30
0
  3
AIGNBL0201002B
  0
POLYLINE
  8
LAYER_2
 40
0.05
 41
0.05
 66
1
 10
0
 20
0
 30
0
  0
VERTEX
  8
LAYER_2
 10
162.0166
 20
162.8221
  0
VERTEX
  8
LAYER_2
 10
161.7042
 20
162.8077
 42
-0.05662146357
  0
VERTEX
  8
LAYER_2
 10
160.9855
 20
162.8879
  0
VERTEX
  8
LAYER_2
 10
160.9187
 20
162.9933
  0
VERTEX
  8
LAYER_2
 10
161.0238
 20
163.0598
 42
0.05580756504
  0
VERTEX
  8
LAYER_2
 10
161.7042
 20
162.9837
  0
VERTEX
  8
LAYER_2
 10
161.9994
 20
162.9982
  0
VERTEX
  8
LAYER_2
 10
162.0959
 20
162.9186
  0
VERTEX
  8
LAYER_2
 10
162.0166
 20
162.8221
  0
SEQEND
  0
POLYLINE
  8
LAYER_2
 40
0.05
 41
0.05
 66
1
 10
0
 20
0
 30
0
  0
VERTEX
  8
LAYER_2
 10
163.3819
 20
163.2755
 42
-0.05688214176
  0
VERTEX
  8
LAYER_2
 10
162.7242
 20
162.972
  0
VERTEX
  8
LAYER_2
 10
162.6133
 20
163.0274
  0
VERTEX
  8
LAYER_2
 10
162.6688
 20
163.139
 42
0.05634081582
  0
VERTEX
  8
LAYER_2
 10
163.2903
 20
163.4264
  0
VERTEX
  8
LAYER_2
 10
163.4116
 20
163.3967
  0
VERTEX
  8
LAYER_2
 10
163.3819
 20
163.2755
  0
SEQEND
  0
POLYLINE
  8
LAYER_2
 40
0.05
 41
0.05
 66
1
 10
0
 20
0
 30
0
  0
VERTEX
  8
LAYER_2
 10
164.4186
 20
164.2715
 42
-0.05471767578
  0
VERTEX
  8
LAYER_2
 10
163.9548
 20
163.7164
  0
VERTEX
  8
LAYER_2
 10
163.8305
 20
163.7185
  0
VERTEX
  8
LAYER_2
 10
163.8325
 20
163.8439
 42
0.0569445367
  0
VERTEX
  8
LAYER_2
 10
164.2708
 20
164.37
  0
VERTEX
  8
LAYER_2
 10
164.3944
 20
164.3944
  0
VERTEX
  8
LAYER_2
 10
164.4186
 20
164.2715
  0
SEQEND
  0
POLYLINE
  8
LAYER_2
 40
0.05
 41
0.05
 66
1
 10
0
 20
0
 30
0
  0
VERTEX
  8
LAYER_2
 10
164.9329
 20
165.6154
 42
-0.05518450949
  0
VERTEX
  8
LAYER_2
 10
164.7496
 20
164.915
  0
VERTEX
  8
LAYER_2
 10
164.636
 20
164.8643
  0
VERTEX
  8
LAYER_2
 10
164.5846
 20
164.978
 42
0.05552803682
  0
VERTEX
  8
LAYER_2
 10
164.7586
 20
165.6412
  0
VERTEX
  8
LAYER_2
 10
164.8585
 20
165.7156
  0
VERTEX
  8
LAYER_2
 10
164.9329
 20
165.6154
  0
SEQEND
  0
POLYLINE
  8
LAYER_2
 40
0.05
 41
0.05
 66
1
 10
0
 20
0
 30
0
  0
VERTEX
  8
LAYER_2
 10
164.832
 20
167.0496
 42
-0.05563141641
  0
VERTEX
  8
LAYER_2
 10
164.9598
 20
166.3375
  0
VERTEX
  8
LAYER_2
 10
164.8788
 20
166.2438
  0
VERTEX
  8
LAYER_2
 10
164.7844
 20
166.3258
 42
0.05577417871
  0
VERTEX
  8
LAYER_2
 10
164.6621
 20
166.9989
  0
VERTEX
  8
LAYER_2
 10
164.7221
 20
167.1088
  0
VERTEX
  8
LAYER_2
 10
164.832
 20
167.0496
  0
SEQEND
  0
POLYLINE
  8
LAYER_2
 40
0.05
 41
0.05
 66
1
 10
0
 20
0
 30
0
  0
VERTEX
  8
LAYER_2
 10
164.1323
 20
168.3057
 42
-0.05533066836
  0
VERTEX
  8
LAYER_2
 10
164.5515
 20
167.7162
  0
VERTEX
  8
LAYER_2
 10
164.5171
 20
167.5963
  0
VERTEX
  8
LAYER_2
 10
164.3975
 20
167.6308
 42
0.05476965929
  0
VERTEX
  8
LAYER_2
 10
164.0007
 20
168.1878
  0
VERTEX
  8
LAYER_2
 10
164.0079
 20
168.3129
  0
VERTEX
  8
LAYER_2
 10
164.1323
 20
168.3057
  0
SEQEND
  0
POLYLINE
  8
LAYER_2
 40
0.05
 41
0.05
 66
1
 10
0
 20
0
 30
0
  0
VERTEX
  8
LAYER_2
 10
162.9644
 20
169.1442
 42
-0.05618531137
  0
VERTEX
  8
LAYER_2
 10
163.5948
 20
168.7897
  0
VERTEX
  8
LAYER_2
 10
163.6148
 20
168.6667
  0
VERTEX
  8
LAYER_2
 10
163.4918
 20
168.6471
 42
0.05459528189
  0
VERTEX
  8
LAYER_2
 10
162.8951
 20
168.9819
  0
VERTEX
  8
LAYER_2
 10
162.8483
 20
169.0974
  0
VERTEX
  8
LAYER_2
 10
162.9644
 20
169.1442
  0
SEQEND
  0
POLYLINE
  8
LAYER_2
 40
0.05
 41
0.05
 66
1
 10
0
 20
0
 30
0
  0
VERTEX
  8
LAYER_2
 10
161.5471
 20
169.3953
  0
VERTEX
  8
LAYER_2
 10
161.7042
 20
169.3988
 42
-0.04479767201
  0
VERTEX
  8
LAYER_2
 10
162.2695
 20
169.3495
  0
VERTEX
  8
LAYER_2
 10
162.3405
 20
169.2475
  0
VERTEX
  8
LAYER_2
 10
162.2382
 20
169.1755
 42
0.04372226419
  0
VERTEX
  8
LAYER_2
 10
161.7042
 20
169.2217
  0
VERTEX
  8
LAYER_2
 10
161.5557
 20
169.2186
  0
VERTEX
  8
LAYER_2
 10
161.4637
 20
169.302
  0
VERTEX
  8
LAYER_2
 10
161.5471
 20
169.3953
  0
SEQEND
  0
POLYLINE
  8
LAYER_2
 40
0.05
 41
0.05
 66
1
 10
0
 20
0
 30
0
  0
VERTEX
  8
LAYER_2
 10
160.1625
 20
169.0085
 42
-0.05646845394
  0
VERTEX
  8
LAYER_2
 10
160.8325
 20
169.2799
  0
VERTEX
  8
LAYER_2
 10
160.9418
 20
169.2186
  0
VERTEX
  8
LAYER_2
 10
160.8805
 20
169.1097
 42
0.05651119123
  0
VERTEX
  8
LAYER_2
 10
160.2455
 20
168.8531
  0
VERTEX
  8
LAYER_2
 10
160.1263
 20
168.8893
  0
VERTEX
  8
LAYER_2
 10
160.1625
 20
169.0085
  0
SEQEND
  0
POLYLINE
  8
LAYER_2
 40
0.05
 41
0.05
 66
1
 10
0
 20
0
 30
0
  0
VERTEX
  8
LAYER_2
 10
159.079
 20
168.0628
 42
-0.05503026958
  0
VERTEX
  8
LAYER_2
 10
159.5679
 20
168.5954
  0
VERTEX
  8
LAYER_2
 10
159.6926
 20
168.5875
  0
VERTEX
  8
LAYER_2
 10
159.6843
 20
168.4627
 42
0.05452863115
  0
VERTEX
  8
LAYER_2
 10
159.2213
 20
167.9584
  0
VERTEX
  8
LAYER_2
 10
159.0979
 20
167.9391
  0
VERTEX
  8
LAYER_2
 10
159.079
 20
168.0628
  0
SEQEND
  0
POLYLINE
  8
LAYER_2
 40
0.05
 41
0.05
 66
1
 10
0
 20
0
 30
0
  0
VERTEX
  8
LAYER_2
 10
158.5016
 20
166.745
 42
-0.05462151785
  0
VERTEX
  8
LAYER_2
 10
158.7173
 20
167.4361
  0
VERTEX
  8
LAYER_2
 10
158.8337
 20
167.4813
  0
VERTEX
  8
LAYER_2
 10
158.8792
 20
167.3644
 42
0.05460014653
  0
VERTEX
  8
LAYER_2
 10
158.6742
 20
166.7109
  0
VERTEX
  8
LAYER_2
 10
158.5712
 20
166.6417
  0
VERTEX
  8
LAYER_2
 10
158.5016
 20
166.745
  0
SEQEND
  0
POLYLINE
  8
LAYER_2
 40
0.05
 41
0.05
 66
1
 10
0
 20
0
 30
0
  0
VERTEX
  8
LAYER_2
 10
158.535
 20
165.3074
 42
-0.05411315694
  0
VERTEX
  8
LAYER_2
 10
158.441
 20
166.0243
  0
VERTEX
  8
LAYER_2
 10
158.5264
 20
166.1142
  0
VERTEX
  8
LAYER_2
 10
158.617
 20
166.0291
 42
0.05334329478
  0
VERTEX
  8
LAYER_2
 10
158.7059
 20
165.3494
  0
VERTEX
  8
LAYER_2
 10
158.6425
 20
165.2426
  0
VERTEX
  8
LAYER_2
 10
158.535
 20
165.3074
  0
SEQEND
  0
POLYLINE
  8
LAYER_2
 40
0.05
 41
0.05
 66
1
 10
0
 20
0
 30
0
  0
VERTEX
  8
LAYER_2
 10
159.1744
 20
164.0193
 42
-0.05411016077
  0
VERTEX
  8
LAYER_2
 10
158.7841
 20
164.6287
  0
VERTEX
  8
LAYER_2
 10
158.8234
 20
164.7469
  0
VERTEX
  8
LAYER_2
 10
158.9422
 20
164.7066
 42
0.05542169042
  0
VERTEX
  8
LAYER_2
 10
159.3119
 20
164.1309
  0
VERTEX
  8
LAYER_2
 10
159.2985
 20
164.0069
  0
VERTEX
  8
LAYER_2
 10
159.1744
 20
164.0193
  0
SEQEND
  0
POLYLINE
  8
LAYER_2
 40
0.05
 41
0.05
 66
1
 10
0
 20
0
 30
0
  0
VERTEX
  8
LAYER_2
 10
160.3017
 20
163.126
 42
-0.05527371845
  0
VERTEX
  8
LAYER_2
 10
159.6881
 20
163.5104
  0
VERTEX
  8
LAYER_2
 10
159.6736
 20
163.6348
  0
VERTEX
  8
LAYER_2
 10
159.7976
 20
163.6482
 42
0.05465608394
  0
VERTEX
  8
LAYER_2
 10
160.3781
 20
163.2851
  0
VERTEX
  8
LAYER_2
 10
160.4195
 20
163.167
  0
VERTEX
  8
LAYER_2
 10
160.3017
 20
163.126
  0
SEQEND
  0
ENDBLK
  0
BLOCK
  8
LAYER_2
  2
AIGNBL0201002C
 70
64
 10
0
 20
0
 30
0
  3
AIGNBL0201002C
  0
POLYLINE
  8
LAYER_2
 40
0.05
 41
0.05
 66
1
 10
0
 20
0
 30
0
  0
VERTEX
  8
LAYER_2
 10
163.3826
 20
182.3253
  0
VERTEX
  8
LAYER_2
 10
163.3595
 20
182.6022
  0
VERTEX
  8
LAYER_2
 10
163.3023
 20
182.8692
  0
VERTEX
  8
LAYER_2
 10
163.3885
 20
182.8875
  0
VERTEX
  8
LAYER_2
 10
163.3055
 20
182.8578
  0
VERTEX
  8
LAYER_2
 10
163.2548
 20
182.9857
  0
VERTEX
  8
LAYER_2
 10
163.3006
 20
183.1014
  0
VERTEX
  8
LAYER_2
 10
163.4171
 20
183.0556
 42
-0.06639422709
  0
VERTEX
  8
LAYER_2
 10
163.5219
 20
182.7107
 42
-0.03055868186
  0
VERTEX
  8
LAYER_2
 10
163.5583
 20
182.3394
  0
VERTEX
  8
LAYER_2
 10
163.4774
 20
182.2443
  0
VERTEX
  8
LAYER_2
 10
163.3826
 20
182.3253
  0
SEQEND
  0
POLYLINE
  8
LAYER_2
 40
0.05
 41
0.05
 66
1
 10
0
 20
0
 30
0
  0
VERTEX
  8
LAYER_2
 10
163.0188
 20
181.2821
 42
0.07884313177
  0
VERTEX
  8
LAYER_2
 10
163.3055
 20
181.8174
  0
VERTEX
  8
LAYER_2
 10
163.3885
 20
181.7885
  0
VERTEX
  8
LAYER_2
 10
163.3023
 20
181.8071
  0
VERTEX
  8
LAYER_2
 10
163.3168
 20
181.8726
  0
VERTEX
  8
LAYER_2
 10
163.4212
 20
181.9404
  0
VERTEX
  8
LAYER_2
 10
163.4887
 20
181.8353
  0
VERTEX
  8
LAYER_2
 10
163.4753
 20
181.7699
  0
VERTEX
  8
LAYER_2
 10
163.4722
 20
181.7592
 42
-0.08055631564
  0
VERTEX
  8
LAYER_2
 10
163.1576
 20
181.1749
  0
VERTEX
  8
LAYER_2
 10
163.0343
 20
181.1584
  0
VERTEX
  8
LAYER_2
 10
163.0188
 20
181.2821
  0
SEQEND
  0
POLYLINE
  8
LAYER_2
 40
0.05
 41
0.05
 66
1
 10
0
 20
0
 30
0
  0
VERTEX
  8
LAYER_2
 10
161.8781
 20
180.6557
 42
0.1036169906
  0
VERTEX
  8
LAYER_2
 10
162.5141
 20
180.8494
  0
VERTEX
  8
LAYER_2
 10
162.634
 20
180.8142
  0
VERTEX
  8
LAYER_2
 10
162.5999
 20
180.694
 42
-0.1019671573
  0
VERTEX
  8
LAYER_2
 10
161.8943
 20
180.4797
  0
VERTEX
  8
LAYER_2
 10
161.7989
 20
180.5593
  0
VERTEX
  8
LAYER_2
 10
161.8781
 20
180.6557
  0
SEQEND
  0
POLYLINE
  8
LAYER_2
 40
0.05
 41
0.05
 66
1
 10
0
 20
0
 30
0
  0
VERTEX
  8
LAYER_2
 10
160.6369
 20
181.0526
 42
0.1031991891
  0
VERTEX
  8
LAYER_2
 10
161.2167
 20
180.7274
  0
VERTEX
  8
LAYER_2
 10
161.2739
 20
180.6165
  0
VERTEX
  8
LAYER_2
 10
161.1629
 20
180.5593
 42
-0.1030577404
  0
VERTEX
  8
LAYER_2
 10
160.5208
 20
180.9207
  0
VERTEX
  8
LAYER_2
 10
160.5122
 20
181.0451
  0
VERTEX
  8
LAYER_2
 10
160.6369
 20
181.0526
  0
SEQEND
  0
POLYLINE
  8
LAYER_2
 40
0.05
 41
0.05
 66
1
 10
0
 20
0
 30
0
  0
VERTEX
  8
LAYER_2
 10
160.0736
 20
182.2326
  0
VERTEX
  8
LAYER_2
 10
160.087
 20
182.0676
  0
VERTEX
  8
LAYER_2
 10
159.9992
 20
182.06
  0
VERTEX
  8
LAYER_2
 10
160.086
 20
182.0751
 42
0.06976534562
  0
VERTEX
  8
LAYER_2
 10
160.2379
 20
181.5845
  0
VERTEX
  8
LAYER_2
 10
160.1959
 20
181.4664
  0
VERTEX
  8
LAYER_2
 10
160.0784
 20
181.5088
 42
-0.06898296333
  0
VERTEX
  8
LAYER_2
 10
159.9117
 20
182.0448
  0
VERTEX
  8
LAYER_2
 10
159.9113
 20
182.0524
  0
VERTEX
  8
LAYER_2
 10
159.8972
 20
182.2181
  0
VERTEX
  8
LAYER_2
 10
159.9782
 20
182.3132
  0
VERTEX
  8
LAYER_2
 10
160.0736
 20
182.2326
  0
SEQEND
  0
POLYLINE
  8
LAYER_2
 40
0.05
 41
0.05
 66
1
 10
0
 20
0
 30
0
  0
VERTEX
  8
LAYER_2
 10
160.4918
 20
183.469
 42
0.1000325294
  0
VERTEX
  8
LAYER_2
 10
160.1608
 20
182.8906
  0
VERTEX
  8
LAYER_2
 10
160.0488
 20
182.8361
  0
VERTEX
  8
LAYER_2
 10
159.9933
 20
182.9485
 42
-0.09726403898
  0
VERTEX
  8
LAYER_2
 10
160.3592
 20
183.5865
  0
VERTEX
  8
LAYER_2
 10
160.4836
 20
183.5941
  0
VERTEX
  8
LAYER_2
 10
160.4918
 20
183.469
  0
SEQEND
  0
POLYLINE
  8
LAYER_2
 40
0.05
 41
0.05
 66
1
 10
0
 20
0
 30
0
  0
VERTEX
  8
LAYER_2
 10
161.6718
 20
184.0182
 42
0.1013526841
  0
VERTEX
  8
LAYER_2
 10
161.0238
 20
183.8659
  0
VERTEX
  8
LAYER_2
 10
160.9063
 20
183.9089
  0
VERTEX
  8
LAYER_2
 10
160.95
 20
184.0264
 42
-0.1006388311
  0
VERTEX
  8
LAYER_2
 10
161.6663
 20
184.1946
  0
VERTEX
  8
LAYER_2
 10
161.7576
 20
184.1095
  0
VERTEX
  8
LAYER_2
 10
161.6718
 20
184.0182
  0
SEQEND
  0
POLYLINE
  8
LAYER_2
 40
0.05
 41
0.05
 66
1
 10
0
 20
0
 30
0
  0
VERTEX
  8
LAYER_2
 10
162.8834
 20
183.5413
 42
0.1032691226
  0
VERTEX
  8
LAYER_2
 10
162.3277
 20
183.9052
  0
VERTEX
  8
LAYER_2
 10
162.2774
 20
184.0199
  0
VERTEX
  8
LAYER_2
 10
162.3925
 20
184.0695
 42
-0.103909417
  0
VERTEX
  8
LAYER_2
 10
163.0078
 20
183.6657
  0
VERTEX
  8
LAYER_2
 10
163.0078
 20
183.5413
  0
VERTEX
  8
LAYER_2
 10
162.8834
 20
183.5413
  0
SEQEND
  0
ENDBLK
  0
BLOCK
  8
LAYER_2
  2
AIGNBL0201002D
 70
64
 10
0
 20
0
 30
0
  3
AIGNBL0201002D
  0
POLYLINE
  8
LAYER_2
 40
0.05
 41
0.05
 66
1
 10
0
 20
0
 30
0
  0
VERTEX
  8
LAYER_2
 10
186.7927
 20
142.3854
  0
VERTEX
  8
LAYER_2
 10
186.7927
 20
142.3424
 42
-0.3966389466
  0
VERTEX
  8
LAYER_2
 10
186.5998
 20
142.1581
  0
VERTEX
  8
LAYER_2
 10
186.0517
 20
142.1581
  0
VERTEX
  8
LAYER_2
 10
185.9638
 20
142.2466
  0
VERTEX
  8
LAYER_2
 10
186.0517
 20
142.3345
  0
VERTEX
  8
LAYER_2
 10
186.5998
 20
142.3345
  0
VERTEX
  8
LAYER_2
 10
186.6139
 20
142.34
  0
VERTEX
  8
LAYER_2
 10
186.616
 20
142.3424
  0
VERTEX
  8
LAYER_2
 10
186.616
 20
142.3854
  0
VERTEX
  8
LAYER_2
 10
186.7042
 20
142.4736
  0
VERTEX
  8
LAYER_2
 10
186.7927
 20
142.3854
  0
SEQEND
  0
POLYLINE
  8
LAYER_2
 40
0.05
 41
0.05
 66
1
 10
0
 20
0
 30
0
  0
VERTEX
  8
LAYER_2
 10
186.7927
 20
143.7955
  0
VERTEX
  8
LAYER_2
 10
186.7927
 20
143.0906
  0
VERTEX
  8
LAYER_2
 10
186.7042
 20
143.0021
  0
VERTEX
  8
LAYER_2
 10
186.616
 20
143.0906
  0
VERTEX
  8
LAYER_2
 10
186.616
 20
143.7955
  0
VERTEX
  8
LAYER_2
 10
186.7042
 20
143.8841
  0
VERTEX
  8
LAYER_2
 10
186.7927
 20
143.7955
  0
SEQEND
  0
POLYLINE
  8
LAYER_2
 40
0.05
 41
0.05
 66
1
 10
0
 20
0
 30
0
  0
VERTEX
  8
LAYER_2
 10
186.7927
 20
145.2063
  0
VERTEX
  8
LAYER_2
 10
186.7927
 20
144.5014
  0
VERTEX
  8
LAYER_2
 10
186.7042
 20
144.4129
  0
VERTEX
  8
LAYER_2
 10
186.616
 20
144.5014
  0
VERTEX
  8
LAYER_2
 10
186.616
 20
145.2063
  0
VERTEX
  8
LAYER_2
 10
186.7042
 20
145.2948
  0
VERTEX
  8
LAYER_2
 10
186.7927
 20
145.2063
  0
SEQEND
  0
POLYLINE
  8
LAYER_2
 40
0.05
 41
0.05
 66
1
 10
0
 20
0
 30
0
  0
VERTEX
  8
LAYER_2
 10
186.7927
 20
146.6164
  0
VERTEX
  8
LAYER_2
 10
186.7927
 20
145.9115
  0
VERTEX
  8
LAYER_2
 10
186.7042
 20
145.8229
  0
VERTEX
  8
LAYER_2
 10
186.616
 20
145.9115
  0
VERTEX
  8
LAYER_2
 10
186.616
 20
146.6164
  0
VERTEX
  8
LAYER_2
 10
186.7042
 20
146.7042
  0
VERTEX
  8
LAYER_2
 10
186.7927
 20
146.6164
  0
SEQEND
  0
POLYLINE
  8
LAYER_2
 40
0.05
 41
0.05
 66
1
 10
0
 20
0
 30
0
  0
VERTEX
  8
LAYER_2
 10
186.7927
 20
148.0264
  0
VERTEX
  8
LAYER_2
 10
186.7927
 20
147.3216
  0
VERTEX
  8
LAYER_2
 10
186.7042
 20
147.233
  0
VERTEX
  8
LAYER_2
 10
186.616
 20
147.3216
  0
VERTEX
  8
LAYER_2
 10
186.616
 20
148.0264
  0
VERTEX
  8
LAYER_2
 10
186.7042
 20
148.115
  0
VERTEX
  8
LAYER_2
 10
186.7927
 20
148.0264
  0
SEQEND
  0
POLYLINE
  8
LAYER_2
 40
0.05
 41
0.05
 66
1
 10
0
 20
0
 30
0
  0
VERTEX
  8
LAYER_2
 10
186.7927
 20
149.4372
  0
VERTEX
  8
LAYER_2
 10
186.7927
 20
148.7317
  0
VERTEX
  8
LAYER_2
 10
186.7042
 20
148.6431
  0
VERTEX
  8
LAYER_2
 10
186.616
 20
148.7317
  0
VERTEX
  8
LAYER_2
 10
186.616
 20
149.4372
  0
VERTEX
  8
LAYER_2
 10
186.7042
 20
149.5251
  0
VERTEX
  8
LAYER_2
 10
186.7927
 20
149.4372
  0
SEQEND
  0
POLYLINE
  8
LAYER_2
 40
0.05
 41
0.05
 66
1
 10
0
 20
0
 30
0
  0
VERTEX
  8
LAYER_2
 10
186.7927
 20
150.8473
  0
VERTEX
  8
LAYER_2
 10
186.7927
 20
150.1421
  0
VERTEX
  8
LAYER_2
 10
186.7042
 20
150.0539
  0
VERTEX
  8
LAYER_2
 10
186.616
 20
150.1421
  0
VERTEX
  8
LAYER_2
 10
186.616
 20
150.8473
  0
VERTEX
  8
LAYER_2
 10
186.7042
 20
150.9352
  0
VERTEX
  8
LAYER_2
 10
186.7927
 20
150.8473
  0
SEQEND
  0
POLYLINE
  8
LAYER_2
 40
0.05
 41
0.05
 66
1
 10
0
 20
0
 30
0
  0
VERTEX
  8
LAYER_2
 10
186.7927
 20
152.2574
  0
VERTEX
  8
LAYER_2
 10
186.7927
 20
151.5518
  0
VERTEX
  8
LAYER_2
 10
186.7042
 20
151.4633
  0
VERTEX
  8
LAYER_2
 10
186.616
 20
151.5518
  0
VERTEX
  8
LAYER_2
 10
186.616
 20
152.2574
  0
VERTEX
  8
LAYER_2
 10
186.7042
 20
152.3456
  0
VERTEX
  8
LAYER_2
 10
186.7927
 20
152.2574
  0
SEQEND
  0
POLYLINE
  8
LAYER_2
 40
0.05
 41
0.05
 66
1
 10
0
 20
0
 30
0
  0
VERTEX
  8
LAYER_2
 10
186.7927
 20
153.6668
  0
VERTEX
  8
LAYER_2
 10
186.7927
 20
152.9619
  0
VERTEX
  8
LAYER_2
 10
186.7042
 20
152.8741
  0
VERTEX
  8
LAYER_2
 10
186.616
 20
152.9619
  0
VERTEX
  8
LAYER_2
 10
186.616
 20
153.6668
  0
VERTEX
  8
LAYER_2
 10
186.7042
 20
153.7553
  0
VERTEX
  8
LAYER_2
 10
186.7927
 20
153.6668
  0
SEQEND
  0
POLYLINE
  8
LAYER_2
 40
0.05
 41
0.05
 66
1
 10
0
 20
0
 30
0
  0
VERTEX
  8
LAYER_2
 10
186.7927
 20
155.0775
  0
VERTEX
  8
LAYER_2
 10
186.7927
 20
154.3723
  0
VERTEX
  8
LAYER_2
 10
186.7042
 20
154.2845
  0
VERTEX
  8
LAYER_2
 10
186.616
 20
154.3723
  0
VERTEX
  8
LAYER_2
 10
186.616
 20
155.0775
  0
VERTEX
  8
LAYER_2
 10
186.7042
 20
155.1654
  0
VERTEX
  8
LAYER_2
 10
186.7927
 20
155.0775
  0
SEQEND
  0
POLYLINE
  8
LAYER_2
 40
0.05
 41
0.05
 66
1
 10
0
 20
0
 30
0
  0
VERTEX
  8
LAYER_2
 10
186.7927
 20
156.4879
  0
VERTEX
  8
LAYER_2
 10
186.7927
 20
155.7824
  0
VERTEX
  8
LAYER_2
 10
186.7042
 20
155.6942
  0
VERTEX
  8
LAYER_2
 10
186.616
 20
155.7824
  0
VERTEX
  8
LAYER_2
 10
186.616
 20
156.4879
  0
VERTEX
  8
LAYER_2
 10
186.7042
 20
156.5765
  0
VERTEX
  8
LAYER_2
 10
186.7927
 20
156.4879
  0
SEQEND
  0
POLYLINE
  8
LAYER_2
 40
0.05
 41
0.05
 66
1
 10
0
 20
0
 30
0
  0
VERTEX
  8
LAYER_2
 10
186.7927
 20
157.8977
  0
VERTEX
  8
LAYER_2
 10
186.7927
 20
157.1925
  0
VERTEX
  8
LAYER_2
 10
186.7042
 20
157.1046
  0
VERTEX
  8
LAYER_2
 10
186.616
 20
157.1925
  0
VERTEX
  8
LAYER_2
 10
186.616
 20
157.8977
  0
VERTEX
  8
LAYER_2
 10
186.7042
 20
157.9859
  0
VERTEX
  8
LAYER_2
 10
186.7927
 20
157.8977
  0
SEQEND
  0
POLYLINE
  8
LAYER_2
 40
0.05
 41
0.05
 66
1
 10
0
 20
0
 30
0
  0
VERTEX
  8
LAYER_2
 10
186.7927
 20
159.3078
  0
VERTEX
  8
LAYER_2
 10
186.7927
 20
158.6032
  0
VERTEX
  8
LAYER_2
 10
186.7042
 20
158.5147
  0
VERTEX
  8
LAYER_2
 10
186.616
 20
158.6032
  0
VERTEX
  8
LAYER_2
 10
186.616
 20
159.3078
  0
VERTEX
  8
LAYER_2
 10
186.7042
 20
159.396
  0
VERTEX
  8
LAYER_2
 10
186.7927
 20
159.3078
  0
SEQEND
  0
POLYLINE
  8
LAYER_2
 40
0.05
 41
0.05
 66
1
 10
0
 20
0
 30
0
  0
VERTEX
  8
LAYER_2
 10
186.7927
 20
160.7189
  0
VERTEX
  8
LAYER_2
 10
186.7927
 20
160.0126
  0
VERTEX
  8
LAYER_2
 10
186.7042
 20
159.9248
  0
VERTEX
  8
LAYER_2
 10
186.616
 20
160.0126
  0
VERTEX
  8
LAYER_2
 10
186.616
 20
160.7189
  0
VERTEX
  8
LAYER_2
 10
186.7042
 20
160.8071
  0
VERTEX
  8
LAYER_2
 10
186.7927
 20
160.7189
  0
SEQEND
  0
POLYLINE
  8
LAYER_2
 40
0.05
 41
0.05
 66
1
 10
0
 20
0
 30
0
  0
VERTEX
  8
LAYER_2
 10
186.7927
 20
162.1283
  0
VERTEX
  8
LAYER_2
 10
186.7927
 20
161.4234
  0
VERTEX
  8
LAYER_2
 10
186.7042
 20
161.3355
  0
VERTEX
  8
LAYER_2
 10
186.616
 20
161.4234
  0
VERTEX
  8
LAYER_2
 10
186.616
 20
162.1283
  0
VERTEX
  8
LAYER_2
 10
186.7042
 20
162.2168
  0
VERTEX
  8
LAYER_2
 10
186.7927
 20
162.1283
  0
SEQEND
  0
POLYLINE
  8
LAYER_2
 40
0.05
 41
0.05
 66
1
 10
0
 20
0
 30
0
  0
VERTEX
  8
LAYER_2
 10
186.7927
 20
163.5383
  0
VERTEX
  8
LAYER_2
 10
186.7927
 20
162.8338
  0
VERTEX
  8
LAYER_2
 10
186.7042
 20
162.7456
  0
VERTEX
  8
LAYER_2
 10
186.616
 20
162.8338
  0
VERTEX
  8
LAYER_2
 10
186.616
 20
163.5383
  0
VERTEX
  8
LAYER_2
 10
186.7042
 20
163.6269
  0
VERTEX
  8
LAYER_2
 10
186.7927
 20
163.5383
  0
SEQEND
  0
POLYLINE
  8
LAYER_2
 40
0.05
 41
0.05
 66
1
 10
0
 20
0
 30
0
  0
VERTEX
  8
LAYER_2
 10
186.7927
 20
164.9491
  0
VERTEX
  8
LAYER_2
 10
186.7927
 20
164.2436
  0
VERTEX
  8
LAYER_2
 10
186.7042
 20
164.155
  0
VERTEX
  8
LAYER_2
 10
186.616
 20
164.2436
  0
VERTEX
  8
LAYER_2
 10
186.616
 20
164.9491
  0
VERTEX
  8
LAYER_2
 10
186.7042
 20
165.0373
  0
VERTEX
  8
LAYER_2
 10
186.7927
 20
164.9491
  0
SEQEND
  0
POLYLINE
  8
LAYER_2
 40
0.05
 41
0.05
 66
1
 10
0
 20
0
 30
0
  0
VERTEX
  8
LAYER_2
 10
186.7927
 20
166.3592
  0
VERTEX
  8
LAYER_2
 10
186.7927
 20
165.654
  0
VERTEX
  8
LAYER_2
 10
186.7042
 20
165.5661
  0
VERTEX
  8
LAYER_2
 10
186.616
 20
165.654
  0
VERTEX
  8
LAYER_2
 10
186.616
 20
166.3592
  0
VERTEX
  8
LAYER_2
 10
186.7042
 20
166.4474
  0
VERTEX
  8
LAYER_2
 10
186.7927
 20
166.3592
  0
SEQEND
  0
POLYLINE
  8
LAYER_2
 40
0.05
 41
0.05
 66
1
 10
0
 20
0
 30
0
  0
VERTEX
  8
LAYER_2
 10
186.7927
 20
167.7696
  0
VERTEX
  8
LAYER_2
 10
186.7927
 20
167.0637
  0
VERTEX
  8
LAYER_2
 10
186.7042
 20
166.9759
  0
VERTEX
  8
LAYER_2
 10
186.616
 20
167.0637
  0
VERTEX
  8
LAYER_2
 10
186.616
 20
167.7696
  0
VERTEX
  8
LAYER_2
 10
186.7042
 20
167.8574
  0
VERTEX
  8
LAYER_2
 10
186.7927
 20
167.7696
  0
SEQEND
  0
POLYLINE
  8
LAYER_2
 40
0.05
 41
0.05
 66
1
 10
0
 20
0
 30
0
  0
VERTEX
  8
LAYER_2
 10
186.7927
 20
169.1786
  0
VERTEX
  8
LAYER_2
 10
186.7927
 20
168.4741
  0
VERTEX
  8
LAYER_2
 10
186.7042
 20
168.3859
  0
VERTEX
  8
LAYER_2
 10
186.616
 20
168.4741
  0
VERTEX
  8
LAYER_2
 10
186.616
 20
169.1786
  0
VERTEX
  8
LAYER_2
 10
186.7042
 20
169.2672
  0
VERTEX
  8
LAYER_2
 10
186.7927
 20
169.1786
  0
SEQEND
  0
POLYLINE
  8
LAYER_2
 40
0.05
 41
0.05
 66
1
 10
0
 20
0
 30
0
  0
VERTEX
  8
LAYER_2
 10
186.7927
 20
170.5894
  0
VERTEX
  8
LAYER_2
 10
186.7927
 20
169.8849
  0
VERTEX
  8
LAYER_2
 10
186.7042
 20
169.7963
  0
VERTEX
  8
LAYER_2
 10
186.616
 20
169.8849
  0
VERTEX
  8
LAYER_2
 10
186.616
 20
170.5894
  0
VERTEX
  8
LAYER_2
 10
186.7042
 20
170.6776
  0
VERTEX
  8
LAYER_2
 10
186.7927
 20
170.5894
  0
SEQEND
  0
POLYLINE
  8
LAYER_2
 40
0.05
 41
0.05
 66
1
 10
0
 20
0
 30
0
  0
VERTEX
  8
LAYER_2
 10
186.7927
 20
171.9998
  0
VERTEX
  8
LAYER_2
 10
186.7927
 20
171.2949
  0
VERTEX
  8
LAYER_2
 10
186.7042
 20
171.2064
  0
VERTEX
  8
LAYER_2
 10
186.616
 20
171.2949
  0
VERTEX
  8
LAYER_2
 10
186.616
 20
171.9998
  0
VERTEX
  8
LAYER_2
 10
186.7042
 20
172.0884
  0
VERTEX
  8
LAYER_2
 10
186.7927
 20
171.9998
  0
SEQEND
  0
POLYLINE
  8
LAYER_2
 40
0.05
 41
0.05
 66
1
 10
0
 20
0
 30
0
  0
VERTEX
  8
LAYER_2
 10
186.7927
 20
173.4099
  0
VERTEX
  8
LAYER_2
 10
186.7927
 20
172.705
  0
VERTEX
  8
LAYER_2
 10
186.7042
 20
172.6165
  0
VERTEX
  8
LAYER_2
 10
186.616
 20
172.705
  0
VERTEX
  8
LAYER_2
 10
186.616
 20
173.4099
  0
VERTEX
  8
LAYER_2
 10
186.7042
 20
173.4984
  0
VERTEX
  8
LAYER_2
 10
186.7927
 20
173.4099
  0
SEQEND
  0
POLYLINE
  8
LAYER_2
 40
0.05
 41
0.05
 66
1
 10
0
 20
0
 30
0
  0
VERTEX
  8
LAYER_2
 10
186.7927
 20
174.82
  0
VERTEX
  8
LAYER_2
 10
186.7927
 20
174.1151
  0
VERTEX
  8
LAYER_2
 10
186.7042
 20
174.0266
  0
VERTEX
  8
LAYER_2
 10
186.616
 20
174.1151
  0
VERTEX
  8
LAYER_2
 10
186.616
 20
174.82
  0
VERTEX
  8
LAYER_2
 10
186.7042
 20
174.9085
  0
VERTEX
  8
LAYER_2
 10
186.7927
 20
174.82
  0
SEQEND
  0
POLYLINE
  8
LAYER_2
 40
0.05
 41
0.05
 66
1
 10
0
 20
0
 30
0
  0
VERTEX
  8
LAYER_2
 10
186.7927
 20
176.2308
  0
VERTEX
  8
LAYER_2
 10
186.7927
 20
175.5252
  0
VERTEX
  8
LAYER_2
 10
186.7042
 20
175.4367
  0
VERTEX
  8
LAYER_2
 10
186.616
 20
175.5252
  0
VERTEX
  8
LAYER_2
 10
186.616
 20
176.2308
  0
VERTEX
  8
LAYER_2
 10
186.7042
 20
176.3186
  0
VERTEX
  8
LAYER_2
 10
186.7927
 20
176.2308
  0
SEQEND
  0
POLYLINE
  8
LAYER_2
 40
0.05
 41
0.05
 66
1
 10
0
 20
0
 30
0
  0
VERTEX
  8
LAYER_2
 10
186.7927
 20
177.6402
  0
VERTEX
  8
LAYER_2
 10
186.7927
 20
176.9356
  0
VERTEX
  8
LAYER_2
 10
186.7042
 20
176.8474
  0
VERTEX
  8
LAYER_2
 10
186.616
 20
176.9356
  0
VERTEX
  8
LAYER_2
 10
186.616
 20
177.6402
  0
VERTEX
  8
LAYER_2
 10
186.7042
 20
177.7287
  0
VERTEX
  8
LAYER_2
 10
186.7927
 20
177.6402
  0
SEQEND
  0
POLYLINE
  8
LAYER_2
 40
0.05
 41
0.05
 66
1
 10
0
 20
0
 30
0
  0
VERTEX
  8
LAYER_2
 10
186.7927
 20
179.0509
  0
VERTEX
  8
LAYER_2
 10
186.7927
 20
178.3457
  0
VERTEX
  8
LAYER_2
 10
186.7042
 20
178.2568
  0
VERTEX
  8
LAYER_2
 10
186.616
 20
178.3457
  0
VERTEX
  8
LAYER_2
 10
186.616
 20
179.0509
  0
VERTEX
  8
LAYER_2
 10
186.7042
 20
179.1388
  0
VERTEX
  8
LAYER_2
 10
186.7927
 20
179.0509
  0
SEQEND
  0
POLYLINE
  8
LAYER_2
 40
0.05
 41
0.05
 66
1
 10
0
 20
0
 30
0
  0
VERTEX
  8
LAYER_2
 10
186.7927
 20
180.4603
  0
VERTEX
  8
LAYER_2
 10
186.7927
 20
179.7554
  0
VERTEX
  8
LAYER_2
 10
186.7042
 20
179.6669
  0
VERTEX
  8
LAYER_2
 10
186.616
 20
179.7554
  0
VERTEX
  8
LAYER_2
 10
186.616
 20
180.4603
  0
VERTEX
  8
LAYER_2
 10
186.7042
 20
180.5488
  0
VERTEX
  8
LAYER_2
 10
186.7927
 20
180.4603
  0
SEQEND
  0
POLYLINE
  8
LAYER_2
 40
0.05
 41
0.05
 66
1
 10
0
 20
0
 30
0
  0
VERTEX
  8
LAYER_2
 10
186.7927
 20
181.8714
  0
VERTEX
  8
LAYER_2
 10
186.7927
 20
181.1659
  0
VERTEX
  8
LAYER_2
 10
186.7042
 20
181.078
  0
VERTEX
  8
LAYER_2
 10
186.616
 20
181.1659
  0
VERTEX
  8
LAYER_2
 10
186.616
 20
181.8714
  0
VERTEX
  8
LAYER_2
 10
186.7042
 20
181.9589
  0
VERTEX
  8
LAYER_2
 10
186.7927
 20
181.8714
  0
SEQEND
  0
POLYLINE
  8
LAYER_2
 40
0.05
 41
0.05
 66
1
 10
0
 20
0
 30
0
  0
VERTEX
  8
LAYER_2
 10
186.7927
 20
183.2815
  0
VERTEX
  8
LAYER_2
 10
186.7927
 20
182.5759
  0
VERTEX
  8
LAYER_2
 10
186.7042
 20
182.4881
  0
VERTEX
  8
LAYER_2
 10
186.616
 20
182.5759
  0
VERTEX
  8
LAYER_2
 10
186.616
 20
183.2815
  0
VERTEX
  8
LAYER_2
 10
186.7042
 20
183.37
  0
VERTEX
  8
LAYER_2
 10
186.7927
 20
183.2815
  0
SEQEND
  0
POLYLINE
  8
LAYER_2
 40
0.05
 41
0.05
 66
1
 10
0
 20
0
 30
0
  0
VERTEX
  8
LAYER_2
 10
186.7927
 20
184.6912
  0
VERTEX
  8
LAYER_2
 10
186.7927
 20
183.9867
  0
VERTEX
  8
LAYER_2
 10
186.7042
 20
183.8981
  0
VERTEX
  8
LAYER_2
 10
186.616
 20
183.9867
  0
VERTEX
  8
LAYER_2
 10
186.616
 20
184.6912
  0
VERTEX
  8
LAYER_2
 10
186.7042
 20
184.7794
  0
VERTEX
  8
LAYER_2
 10
186.7927
 20
184.6912
  0
SEQEND
  0
POLYLINE
  8
LAYER_2
 40
0.05
 41
0.05
 66
1
 10
0
 20
0
 30
0
  0
VERTEX
  8
LAYER_2
 10
186.7927
 20
186.1016
  0
VERTEX
  8
LAYER_2
 10
186.7927
 20
185.3968
  0
VERTEX
  8
LAYER_2
 10
186.7042
 20
185.3082
  0
VERTEX
  8
LAYER_2
 10
186.616
 20
185.3968
  0
VERTEX
  8
LAYER_2
 10
186.616
 20
186.1016
  0
VERTEX
  8
LAYER_2
 10
186.7042
 20
186.1902
  0
VERTEX
  8
LAYER_2
 10
186.7927
 20
186.1016
  0
SEQEND
  0
POLYLINE
  8
LAYER_2
 40
0.05
 41
0.05
 66
1
 10
0
 20
0
 30
0
  0
VERTEX
  8
LAYER_2
 10
186.7927
 20
187.5124
  0
VERTEX
  8
LAYER_2
 10
186.7927
 20
186.8062
  0
VERTEX
  8
LAYER_2
 10
186.7042
 20
186.7183
  0
VERTEX
  8
LAYER_2
 10
186.616
 20
186.8062
  0
VERTEX
  8
LAYER_2
 10
186.616
 20
187.5124
  0
VERTEX
  8
LAYER_2
 10
186.7042
 20
187.6003
  0
VERTEX
  8
LAYER_2
 10
186.7927
 20
187.5124
  0
SEQEND
  0
POLYLINE
  8
LAYER_2
 40
0.05
 41
0.05
 66
1
 10
0
 20
0
 30
0
  0
VERTEX
  8
LAYER_2
 10
185.9862
 20
188.3355
  0
VERTEX
  8
LAYER_2
 10
186.5998
 20
188.3355
 42
-0.2105724982
  0
VERTEX
  8
LAYER_2
 10
186.7476
 20
188.2696
  0
VERTEX
  8
LAYER_2
 10
186.739
 20
188.1446
  0
VERTEX
  8
LAYER_2
 10
186.615
 20
188.1522
  0
VERTEX
  8
LAYER_2
 10
186.5998
 20
188.1594
  0
VERTEX
  8
LAYER_2
 10
185.9862
 20
188.1594
  0
VERTEX
  8
LAYER_2
 10
185.898
 20
188.2476
  0
VERTEX
  8
LAYER_2
 10
185.9862
 20
188.3355
  0
SEQEND
  0
POLYLINE
  8
LAYER_2
 40
0.05
 41
0.05
 66
1
 10
0
 20
0
 30
0
  0
VERTEX
  8
LAYER_2
 10
184.5762
 20
188.3355
  0
VERTEX
  8
LAYER_2
 10
185.2814
 20
188.3355
  0
VERTEX
  8
LAYER_2
 10
185.3699
 20
188.2476
  0
VERTEX
  8
LAYER_2
 10
185.2814
 20
188.1594
  0
VERTEX
  8
LAYER_2
 10
184.5762
 20
188.1594
  0
VERTEX
  8
LAYER_2
 10
184.488
 20
188.2476
  0
VERTEX
  8
LAYER_2
 10
184.5762
 20
188.3355
  0
SEQEND
  0
POLYLINE
  8
LAYER_2
 40
0.05
 41
0.05
 66
1
 10
0
 20
0
 30
0
  0
VERTEX
  8
LAYER_2
 10
183.1657
 20
188.3355
  0
VERTEX
  8
LAYER_2
 10
183.8706
 20
188.3355
  0
VERTEX
  8
LAYER_2
 10
183.9584
 20
188.2476
  0
VERTEX
  8
LAYER_2
 10
183.8706
 20
188.1594
  0
VERTEX
  8
LAYER_2
 10
183.1657
 20
188.1594
  0
VERTEX
  8
LAYER_2
 10
183.0772
 20
188.2476
  0
VERTEX
  8
LAYER_2
 10
183.1657
 20
188.3355
  0
SEQEND
  0
POLYLINE
  8
LAYER_2
 40
0.05
 41
0.05
 66
1
 10
0
 20
0
 30
0
  0
VERTEX
  8
LAYER_2
 10
181.7557
 20
188.3355
  0
VERTEX
  8
LAYER_2
 10
182.4605
 20
188.3355
  0
VERTEX
  8
LAYER_2
 10
182.5491
 20
188.2476
  0
VERTEX
  8
LAYER_2
 10
182.4605
 20
188.1594
  0
VERTEX
  8
LAYER_2
 10
181.7557
 20
188.1594
  0
VERTEX
  8
LAYER_2
 10
181.6671
 20
188.2476
  0
VERTEX
  8
LAYER_2
 10
181.7557
 20
188.3355
  0
SEQEND
  0
POLYLINE
  8
LAYER_2
 40
0.05
 41
0.05
 66
1
 10
0
 20
0
 30
0
  0
VERTEX
  8
LAYER_2
 10
180.3456
 20
188.3355
  0
VERTEX
  8
LAYER_2
 10
181.0505
 20
188.3355
  0
VERTEX
  8
LAYER_2
 10
181.139
 20
188.2476
  0
VERTEX
  8
LAYER_2
 10
181.0505
 20
188.1594
  0
VERTEX
  8
LAYER_2
 10
180.3456
 20
188.1594
  0
VERTEX
  8
LAYER_2
 10
180.2577
 20
188.2476
  0
VERTEX
  8
LAYER_2
 10
180.3456
 20
188.3355
  0
SEQEND
  0
POLYLINE
  8
LAYER_2
 40
0.05
 41
0.05
 66
1
 10
0
 20
0
 30
0
  0
VERTEX
  8
LAYER_2
 10
178.9355
 20
188.3355
  0
VERTEX
  8
LAYER_2
 10
179.6404
 20
188.3355
  0
VERTEX
  8
LAYER_2
 10
179.7289
 20
188.2476
  0
VERTEX
  8
LAYER_2
 10
179.6404
 20
188.1594
  0
VERTEX
  8
LAYER_2
 10
178.9355
 20
188.1594
  0
VERTEX
  8
LAYER_2
 10
178.847
 20
188.2476
  0
VERTEX
  8
LAYER_2
 10
178.9355
 20
188.3355
  0
SEQEND
  0
POLYLINE
  8
LAYER_2
 40
0.05
 41
0.05
 66
1
 10
0
 20
0
 30
0
  0
VERTEX
  8
LAYER_2
 10
177.5254
 20
188.3355
  0
VERTEX
  8
LAYER_2
 10
178.23
 20
188.3355
  0
VERTEX
  8
LAYER_2
 10
178.3182
 20
188.2476
  0
VERTEX
  8
LAYER_2
 10
178.23
 20
188.1594
  0
VERTEX
  8
LAYER_2
 10
177.5254
 20
188.1594
  0
VERTEX
  8
LAYER_2
 10
177.4365
 20
188.2476
  0
VERTEX
  8
LAYER_2
 10
177.5254
 20
188.3355
  0
SEQEND
  0
POLYLINE
  8
LAYER_2
 40
0.05
 41
0.05
 66
1
 10
0
 20
0
 30
0
  0
VERTEX
  8
LAYER_2
 10
176.1147
 20
188.3355
  0
VERTEX
  8
LAYER_2
 10
176.8199
 20
188.3355
  0
VERTEX
  8
LAYER_2
 10
176.9081
 20
188.2476
  0
VERTEX
  8
LAYER_2
 10
176.8199
 20
188.1594
  0
VERTEX
  8
LAYER_2
 10
176.1147
 20
188.1594
  0
VERTEX
  8
LAYER_2
 10
176.0268
 20
188.2476
  0
VERTEX
  8
LAYER_2
 10
176.1147
 20
188.3355
  0
SEQEND
  0
POLYLINE
  8
LAYER_2
 40
0.05
 41
0.05
 66
1
 10
0
 20
0
 30
0
  0
VERTEX
  8
LAYER_2
 10
174.7046
 20
188.3355
  0
VERTEX
  8
LAYER_2
 10
175.4101
 20
188.3355
  0
VERTEX
  8
LAYER_2
 10
175.4987
 20
188.2476
  0
VERTEX
  8
LAYER_2
 10
175.4101
 20
188.1594
  0
VERTEX
  8
LAYER_2
 10
174.7046
 20
188.1594
  0
VERTEX
  8
LAYER_2
 10
174.6164
 20
188.2476
  0
VERTEX
  8
LAYER_2
 10
174.7046
 20
188.3355
  0
SEQEND
  0
POLYLINE
  8
LAYER_2
 40
0.05
 41
0.05
 66
1
 10
0
 20
0
 30
0
  0
VERTEX
  8
LAYER_2
 10
173.2952
 20
188.3355
  0
VERTEX
  8
LAYER_2
 10
173.9997
 20
188.3355
  0
VERTEX
  8
LAYER_2
 10
174.0879
 20
188.2476
  0
VERTEX
  8
LAYER_2
 10
173.9997
 20
188.1594
  0
VERTEX
  8
LAYER_2
 10
173.2952
 20
188.1594
  0
VERTEX
  8
LAYER_2
 10
173.2067
 20
188.2476
  0
VERTEX
  8
LAYER_2
 10
173.2952
 20
188.3355
  0
SEQEND
  0
POLYLINE
  8
LAYER_2
 40
0.05
 41
0.05
 66
1
 10
0
 20
0
 30
0
  0
VERTEX
  8
LAYER_2
 10
171.8841
 20
188.3355
  0
VERTEX
  8
LAYER_2
 10
172.5889
 20
188.3355
  0
VERTEX
  8
LAYER_2
 10
172.6775
 20
188.2476
  0
VERTEX
  8
LAYER_2
 10
172.5889
 20
188.1594
  0
VERTEX
  8
LAYER_2
 10
171.8841
 20
188.1594
  0
VERTEX
  8
LAYER_2
 10
171.7962
 20
188.2476
  0
VERTEX
  8
LAYER_2
 10
171.8841
 20
188.3355
  0
SEQEND
  0
POLYLINE
  8
LAYER_2
 40
0.05
 41
0.05
 66
1
 10
0
 20
0
 30
0
  0
VERTEX
  8
LAYER_2
 10
170.474
 20
188.3355
  0
VERTEX
  8
LAYER_2
 10
171.1796
 20
188.3355
  0
VERTEX
  8
LAYER_2
 10
171.2678
 20
188.2476
  0
VERTEX
  8
LAYER_2
 10
171.1796
 20
188.1594
  0
VERTEX
  8
LAYER_2
 10
170.474
 20
188.1594
  0
VERTEX
  8
LAYER_2
 10
170.3855
 20
188.2476
  0
VERTEX
  8
LAYER_2
 10
170.474
 20
188.3355
  0
SEQEND
  0
POLYLINE
  8
LAYER_2
 40
0.05
 41
0.05
 66
1
 10
0
 20
0
 30
0
  0
VERTEX
  8
LAYER_2
 10
169.0643
 20
188.3355
  0
VERTEX
  8
LAYER_2
 10
169.7688
 20
188.3355
  0
VERTEX
  8
LAYER_2
 10
169.8573
 20
188.2476
  0
VERTEX
  8
LAYER_2
 10
169.7688
 20
188.1594
  0
VERTEX
  8
LAYER_2
 10
169.0643
 20
188.1594
  0
VERTEX
  8
LAYER_2
 10
168.9761
 20
188.2476
  0
VERTEX
  8
LAYER_2
 10
169.0643
 20
188.3355
  0
SEQEND
  0
POLYLINE
  8
LAYER_2
 40
0.05
 41
0.05
 66
1
 10
0
 20
0
 30
0
  0
VERTEX
  8
LAYER_2
 10
167.6532
 20
188.3355
  0
VERTEX
  8
LAYER_2
 10
168.3587
 20
188.3355
  0
VERTEX
  8
LAYER_2
 10
168.4466
 20
188.2476
  0
VERTEX
  8
LAYER_2
 10
168.3587
 20
188.1594
  0
VERTEX
  8
LAYER_2
 10
167.6532
 20
188.1594
  0
VERTEX
  8
LAYER_2
 10
167.566
 20
188.2476
  0
VERTEX
  8
LAYER_2
 10
167.6532
 20
188.3355
  0
SEQEND
  0
POLYLINE
  8
LAYER_2
 40
0.05
 41
0.05
 66
1
 10
0
 20
0
 30
0
  0
VERTEX
  8
LAYER_2
 10
166.2431
 20
188.3355
  0
VERTEX
  8
LAYER_2
 10
166.9486
 20
188.3355
  0
VERTEX
  8
LAYER_2
 10
167.0372
 20
188.2476
  0
VERTEX
  8
LAYER_2
 10
166.9486
 20
188.1594
  0
VERTEX
  8
LAYER_2
 10
166.2431
 20
188.1594
  0
VERTEX
  8
LAYER_2
 10
166.1549
 20
188.2476
  0
VERTEX
  8
LAYER_2
 10
166.2431
 20
188.3355
  0
SEQEND
  0
POLYLINE
  8
LAYER_2
 40
0.05
 41
0.05
 66
1
 10
0
 20
0
 30
0
  0
VERTEX
  8
LAYER_2
 10
164.8337
 20
188.3355
  0
VERTEX
  8
LAYER_2
 10
165.5382
 20
188.3355
  0
VERTEX
  8
LAYER_2
 10
165.6264
 20
188.2476
  0
VERTEX
  8
LAYER_2
 10
165.5382
 20
188.1594
  0
VERTEX
  8
LAYER_2
 10
164.8337
 20
188.1594
  0
VERTEX
  8
LAYER_2
 10
164.7451
 20
188.2476
  0
VERTEX
  8
LAYER_2
 10
164.8337
 20
188.3355
  0
SEQEND
  0
POLYLINE
  8
LAYER_2
 40
0.05
 41
0.05
 66
1
 10
0
 20
0
 30
0
  0
VERTEX
  8
LAYER_2
 10
163.4236
 20
188.3355
  0
VERTEX
  8
LAYER_2
 10
164.1285
 20
188.3355
  0
VERTEX
  8
LAYER_2
 10
164.217
 20
188.2476
  0
VERTEX
  8
LAYER_2
 10
164.1285
 20
188.1594
  0
VERTEX
  8
LAYER_2
 10
163.4236
 20
188.1594
  0
VERTEX
  8
LAYER_2
 10
163.3351
 20
188.2476
  0
VERTEX
  8
LAYER_2
 10
163.4236
 20
188.3355
  0
SEQEND
  0
POLYLINE
  8
LAYER_2
 40
0.05
 41
0.05
 66
1
 10
0
 20
0
 30
0
  0
VERTEX
  8
LAYER_2
 10
162.0128
 20
188.3355
  0
VERTEX
  8
LAYER_2
 10
162.7184
 20
188.3355
  0
VERTEX
  8
LAYER_2
 10
162.8062
 20
188.2476
  0
VERTEX
  8
LAYER_2
 10
162.7184
 20
188.1594
  0
VERTEX
  8
LAYER_2
 10
162.0128
 20
188.1594
  0
VERTEX
  8
LAYER_2
 10
161.925
 20
188.2476
  0
VERTEX
  8
LAYER_2
 10
162.0128
 20
188.3355
  0
SEQEND
  0
POLYLINE
  8
LAYER_2
 40
0.05
 41
0.05
 66
1
 10
0
 20
0
 30
0
  0
VERTEX
  8
LAYER_2
 10
160.6028
 20
188.3355
  0
VERTEX
  8
LAYER_2
 10
161.308
 20
188.3355
  0
VERTEX
  8
LAYER_2
 10
161.3958
 20
188.2476
  0
VERTEX
  8
LAYER_2
 10
161.308
 20
188.1594
  0
VERTEX
  8
LAYER_2
 10
160.6028
 20
188.1594
  0
VERTEX
  8
LAYER_2
 10
160.5146
 20
188.2476
  0
VERTEX
  8
LAYER_2
 10
160.6028
 20
188.3355
  0
SEQEND
  0
POLYLINE
  8
LAYER_2
 40
0.05
 41
0.05
 66
1
 10
0
 20
0
 30
0
  0
VERTEX
  8
LAYER_2
 10
159.1927
 20
188.3355
  0
VERTEX
  8
LAYER_2
 10
159.8979
 20
188.3355
  0
VERTEX
  8
LAYER_2
 10
159.9861
 20
188.2476
  0
VERTEX
  8
LAYER_2
 10
159.8979
 20
188.1594
  0
VERTEX
  8
LAYER_2
 10
159.1927
 20
188.1594
  0
VERTEX
  8
LAYER_2
 10
159.1045
 20
188.2476
  0
VERTEX
  8
LAYER_2
 10
159.1927
 20
188.3355
  0
SEQEND
  0
POLYLINE
  8
LAYER_2
 40
0.05
 41
0.05
 66
1
 10
0
 20
0
 30
0
  0
VERTEX
  8
LAYER_2
 10
157.7826
 20
188.3355
  0
VERTEX
  8
LAYER_2
 10
158.4878
 20
188.3355
  0
VERTEX
  8
LAYER_2
 10
158.576
 20
188.2476
  0
VERTEX
  8
LAYER_2
 10
158.4878
 20
188.1594
  0
VERTEX
  8
LAYER_2
 10
157.7826
 20
188.1594
  0
VERTEX
  8
LAYER_2
 10
157.6944
 20
188.2476
  0
VERTEX
  8
LAYER_2
 10
157.7826
 20
188.3355
  0
SEQEND
  0
POLYLINE
  8
LAYER_2
 40
0.05
 41
0.05
 66
1
 10
0
 20
0
 30
0
  0
VERTEX
  8
LAYER_2
 10
156.3722
 20
188.3355
  0
VERTEX
  8
LAYER_2
 10
157.0771
 20
188.3355
  0
VERTEX
  8
LAYER_2
 10
157.1649
 20
188.2476
  0
VERTEX
  8
LAYER_2
 10
157.0771
 20
188.1594
  0
VERTEX
  8
LAYER_2
 10
156.3722
 20
188.1594
  0
VERTEX
  8
LAYER_2
 10
156.2837
 20
188.2476
  0
VERTEX
  8
LAYER_2
 10
156.3722
 20
188.3355
  0
SEQEND
  0
POLYLINE
  8
LAYER_2
 40
0.05
 41
0.05
 66
1
 10
0
 20
0
 30
0
  0
VERTEX
  8
LAYER_2
 10
154.9621
 20
188.3355
  0
VERTEX
  8
LAYER_2
 10
155.667
 20
188.3355
  0
VERTEX
  8
LAYER_2
 10
155.7555
 20
188.2476
  0
VERTEX
  8
LAYER_2
 10
155.667
 20
188.1594
  0
VERTEX
  8
LAYER_2
 10
154.9621
 20
188.1594
  0
VERTEX
  8
LAYER_2
 10
154.8736
 20
188.2476
  0
VERTEX
  8
LAYER_2
 10
154.9621
 20
188.3355
  0
SEQEND
  0
POLYLINE
  8
LAYER_2
 40
0.05
 41
0.05
 66
1
 10
0
 20
0
 30
0
  0
VERTEX
  8
LAYER_2
 10
153.552
 20
188.3355
  0
VERTEX
  8
LAYER_2
 10
154.2569
 20
188.3355
  0
VERTEX
  8
LAYER_2
 10
154.3454
 20
188.2476
  0
VERTEX
  8
LAYER_2
 10
154.2569
 20
188.1594
  0
VERTEX
  8
LAYER_2
 10
153.552
 20
188.1594
  0
VERTEX
  8
LAYER_2
 10
153.4642
 20
188.2476
  0
VERTEX
  8
LAYER_2
 10
153.552
 20
188.3355
  0
SEQEND
  0
POLYLINE
  8
LAYER_2
 40
0.05
 41
0.05
 66
1
 10
0
 20
0
 30
0
  0
VERTEX
  8
LAYER_2
 10
152.142
 20
188.3355
  0
VERTEX
  8
LAYER_2
 10
152.8468
 20
188.3355
  0
VERTEX
  8
LAYER_2
 10
152.9347
 20
188.2476
  0
VERTEX
  8
LAYER_2
 10
152.8468
 20
188.1594
  0
VERTEX
  8
LAYER_2
 10
152.142
 20
188.1594
  0
VERTEX
  8
LAYER_2
 10
152.0534
 20
188.2476
  0
VERTEX
  8
LAYER_2
 10
152.142
 20
188.3355
  0
SEQEND
  0
POLYLINE
  8
LAYER_2
 40
0.05
 41
0.05
 66
1
 10
0
 20
0
 30
0
  0
VERTEX
  8
LAYER_2
 10
150.7319
 20
188.3355
  0
VERTEX
  8
LAYER_2
 10
151.4364
 20
188.3355
  0
VERTEX
  8
LAYER_2
 10
151.5246
 20
188.2476
  0
VERTEX
  8
LAYER_2
 10
151.4364
 20
188.1594
  0
VERTEX
  8
LAYER_2
 10
150.7319
 20
188.1594
  0
VERTEX
  8
LAYER_2
 10
150.6433
 20
188.2476
  0
VERTEX
  8
LAYER_2
 10
150.7319
 20
188.3355
  0
SEQEND
  0
POLYLINE
  8
LAYER_2
 40
0.05
 41
0.05
 66
1
 10
0
 20
0
 30
0
  0
VERTEX
  8
LAYER_2
 10
149.3211
 20
188.3355
  0
VERTEX
  8
LAYER_2
 10
150.0263
 20
188.3355
  0
VERTEX
  8
LAYER_2
 10
150.1145
 20
188.2476
  0
VERTEX
  8
LAYER_2
 10
150.0263
 20
188.1594
  0
VERTEX
  8
LAYER_2
 10
149.3211
 20
188.1594
  0
VERTEX
  8
LAYER_2
 10
149.2333
 20
188.2476
  0
VERTEX
  8
LAYER_2
 10
149.3211
 20
188.3355
  0
SEQEND
  0
POLYLINE
  8
LAYER_2
 40
0.05
 41
0.05
 66
1
 10
0
 20
0
 30
0
  0
VERTEX
  8
LAYER_2
 10
147.911
 20
188.3355
  0
VERTEX
  8
LAYER_2
 10
148.6166
 20
188.3355
  0
VERTEX
  8
LAYER_2
 10
148.7051
 20
188.2476
  0
VERTEX
  8
LAYER_2
 10
148.6166
 20
188.1594
  0
VERTEX
  8
LAYER_2
 10
147.911
 20
188.1594
  0
VERTEX
  8
LAYER_2
 10
147.8225
 20
188.2476
  0
VERTEX
  8
LAYER_2
 10
147.911
 20
188.3355
  0
SEQEND
  0
POLYLINE
  8
LAYER_2
 40
0.05
 41
0.05
 66
1
 10
0
 20
0
 30
0
  0
VERTEX
  8
LAYER_2
 10
146.5017
 20
188.3355
  0
VERTEX
  8
LAYER_2
 10
147.2062
 20
188.3355
  0
VERTEX
  8
LAYER_2
 10
147.2943
 20
188.2476
  0
VERTEX
  8
LAYER_2
 10
147.2062
 20
188.1594
  0
VERTEX
  8
LAYER_2
 10
146.5017
 20
188.1594
  0
VERTEX
  8
LAYER_2
 10
146.4131
 20
188.2476
  0
VERTEX
  8
LAYER_2
 10
146.5017
 20
188.3355
  0
SEQEND
  0
POLYLINE
  8
LAYER_2
 40
0.05
 41
0.05
 66
1
 10
0
 20
0
 30
0
  0
VERTEX
  8
LAYER_2
 10
145.0902
 20
188.3355
  0
VERTEX
  8
LAYER_2
 10
145.7954
 20
188.3355
  0
VERTEX
  8
LAYER_2
 10
145.8839
 20
188.2476
  0
VERTEX
  8
LAYER_2
 10
145.7954
 20
188.1594
  0
VERTEX
  8
LAYER_2
 10
145.0902
 20
188.1594
  0
VERTEX
  8
LAYER_2
 10
145.0024
 20
188.2476
  0
VERTEX
  8
LAYER_2
 10
145.0902
 20
188.3355
  0
SEQEND
  0
POLYLINE
  8
LAYER_2
 40
0.05
 41
0.05
 66
1
 10
0
 20
0
 30
0
  0
VERTEX
  8
LAYER_2
 10
143.6801
 20
188.3355
  0
VERTEX
  8
LAYER_2
 10
144.386
 20
188.3355
  0
VERTEX
  8
LAYER_2
 10
144.4742
 20
188.2476
  0
VERTEX
  8
LAYER_2
 10
144.386
 20
188.1594
  0
VERTEX
  8
LAYER_2
 10
143.6801
 20
188.1594
  0
VERTEX
  8
LAYER_2
 10
143.5919
 20
188.2476
  0
VERTEX
  8
LAYER_2
 10
143.6801
 20
188.3355
  0
SEQEND
  0
POLYLINE
  8
LAYER_2
 40
0.05
 41
0.05
 66
1
 10
0
 20
0
 30
0
  0
VERTEX
  8
LAYER_2
 10
142.2707
 20
188.3355
  0
VERTEX
  8
LAYER_2
 10
142.9753
 20
188.3355
  0
VERTEX
  8
LAYER_2
 10
143.0638
 20
188.2476
  0
VERTEX
  8
LAYER_2
 10
142.9753
 20
188.1594
  0
VERTEX
  8
LAYER_2
 10
142.2707
 20
188.1594
  0
VERTEX
  8
LAYER_2
 10
142.1822
 20
188.2476
  0
VERTEX
  8
LAYER_2
 10
142.2707
 20
188.3355
  0
SEQEND
  0
POLYLINE
  8
LAYER_2
 40
0.05
 41
0.05
 66
1
 10
0
 20
0
 30
0
  0
VERTEX
  8
LAYER_2
 10
140.8596
 20
188.3355
  0
VERTEX
  8
LAYER_2
 10
141.5652
 20
188.3355
  0
VERTEX
  8
LAYER_2
 10
141.653
 20
188.2476
  0
VERTEX
  8
LAYER_2
 10
141.5652
 20
188.1594
  0
VERTEX
  8
LAYER_2
 10
140.8596
 20
188.1594
  0
VERTEX
  8
LAYER_2
 10
140.7721
 20
188.2476
  0
VERTEX
  8
LAYER_2
 10
140.8596
 20
188.3355
  0
SEQEND
  0
POLYLINE
  8
LAYER_2
 40
0.05
 41
0.05
 66
1
 10
0
 20
0
 30
0
  0
VERTEX
  8
LAYER_2
 10
139.4495
 20
188.3355
  0
VERTEX
  8
LAYER_2
 10
140.1551
 20
188.3355
  0
VERTEX
  8
LAYER_2
 10
140.2436
 20
188.2476
  0
VERTEX
  8
LAYER_2
 10
140.1551
 20
188.1594
  0
VERTEX
  8
LAYER_2
 10
139.4495
 20
188.1594
  0
VERTEX
  8
LAYER_2
 10
139.361
 20
188.2476
  0
VERTEX
  8
LAYER_2
 10
139.4495
 20
188.3355
  0
SEQEND
  0
POLYLINE
  8
LAYER_2
 40
0.05
 41
0.05
 66
1
 10
0
 20
0
 30
0
  0
VERTEX
  8
LAYER_2
 10
138.0398
 20
188.3355
  0
VERTEX
  8
LAYER_2
 10
138.7443
 20
188.3355
  0
VERTEX
  8
LAYER_2
 10
138.8329
 20
188.2476
  0
VERTEX
  8
LAYER_2
 10
138.7443
 20
188.1594
  0
VERTEX
  8
LAYER_2
 10
138.0398
 20
188.1594
  0
VERTEX
  8
LAYER_2
 10
137.9516
 20
188.2476
  0
VERTEX
  8
LAYER_2
 10
138.0398
 20
188.3355
  0
SEQEND
  0
POLYLINE
  8
LAYER_2
 40
0.05
 41
0.05
 66
1
 10
0
 20
0
 30
0
  0
VERTEX
  8
LAYER_2
 10
136.6163
 20
188.1294
  0
VERTEX
  8
LAYER_2
 10
136.6163
 20
188.1511
 42
-0.3973437933
  0
VERTEX
  8
LAYER_2
 10
136.8082
 20
188.3355
  0
VERTEX
  8
LAYER_2
 10
137.3342
 20
188.3355
  0
VERTEX
  8
LAYER_2
 10
137.4228
 20
188.2476
  0
VERTEX
  8
LAYER_2
 10
137.3342
 20
188.1594
  0
VERTEX
  8
LAYER_2
 10
136.8082
 20
188.1594
  0
VERTEX
  8
LAYER_2
 10
136.7934
 20
188.1511
  0
VERTEX
  8
LAYER_2
 10
136.7934
 20
188.1294
  0
VERTEX
  8
LAYER_2
 10
136.7048
 20
188.0416
  0
VERTEX
  8
LAYER_2
 10
136.6163
 20
188.1294
  0
SEQEND
  0
POLYLINE
  8
LAYER_2
 40
0.05
 41
0.05
 66
1
 10
0
 20
0
 30
0
  0
VERTEX
  8
LAYER_2
 10
136.6163
 20
186.7193
  0
VERTEX
  8
LAYER_2
 10
136.6163
 20
187.4245
  0
VERTEX
  8
LAYER_2
 10
136.7048
 20
187.5131
  0
VERTEX
  8
LAYER_2
 10
136.7934
 20
187.4245
  0
VERTEX
  8
LAYER_2
 10
136.7934
 20
186.7193
  0
VERTEX
  8
LAYER_2
 10
136.7048
 20
186.6312
  0
VERTEX
  8
LAYER_2
 10
136.6163
 20
186.7193
  0
SEQEND
  0
POLYLINE
  8
LAYER_2
 40
0.05
 41
0.05
 66
1
 10
0
 20
0
 30
0
  0
VERTEX
  8
LAYER_2
 10
136.6163
 20
185.3089
  0
VERTEX
  8
LAYER_2
 10
136.6163
 20
186.0145
  0
VERTEX
  8
LAYER_2
 10
136.7048
 20
186.103
  0
VERTEX
  8
LAYER_2
 10
136.7934
 20
186.0145
  0
VERTEX
  8
LAYER_2
 10
136.7934
 20
185.3089
  0
VERTEX
  8
LAYER_2
 10
136.7048
 20
185.2204
  0
VERTEX
  8
LAYER_2
 10
136.6163
 20
185.3089
  0
SEQEND
  0
POLYLINE
  8
LAYER_2
 40
0.05
 41
0.05
 66
1
 10
0
 20
0
 30
0
  0
VERTEX
  8
LAYER_2
 10
136.6163
 20
183.8992
  0
VERTEX
  8
LAYER_2
 10
136.6163
 20
184.6044
  0
VERTEX
  8
LAYER_2
 10
136.7048
 20
184.6923
  0
VERTEX
  8
LAYER_2
 10
136.7934
 20
184.6044
  0
VERTEX
  8
LAYER_2
 10
136.7934
 20
183.8992
  0
VERTEX
  8
LAYER_2
 10
136.7048
 20
183.811
  0
VERTEX
  8
LAYER_2
 10
136.6163
 20
183.8992
  0
SEQEND
  0
POLYLINE
  8
LAYER_2
 40
0.05
 41
0.05
 66
1
 10
0
 20
0
 30
0
  0
VERTEX
  8
LAYER_2
 10
136.6163
 20
182.4891
  0
VERTEX
  8
LAYER_2
 10
136.6163
 20
183.1943
  0
VERTEX
  8
LAYER_2
 10
136.7048
 20
183.2829
  0
VERTEX
  8
LAYER_2
 10
136.7934
 20
183.1943
  0
VERTEX
  8
LAYER_2
 10
136.7934
 20
182.4891
  0
VERTEX
  8
LAYER_2
 10
136.7048
 20
182.4009
  0
VERTEX
  8
LAYER_2
 10
136.6163
 20
182.4891
  0
SEQEND
  0
POLYLINE
  8
LAYER_2
 40
0.05
 41
0.05
 66
1
 10
0
 20
0
 30
0
  0
VERTEX
  8
LAYER_2
 10
136.6163
 20
181.079
  0
VERTEX
  8
LAYER_2
 10
136.6163
 20
181.7842
  0
VERTEX
  8
LAYER_2
 10
136.7048
 20
181.8728
  0
VERTEX
  8
LAYER_2
 10
136.7934
 20
181.7842
  0
VERTEX
  8
LAYER_2
 10
136.7934
 20
181.079
  0
VERTEX
  8
LAYER_2
 10
136.7048
 20
180.9908
  0
VERTEX
  8
LAYER_2
 10
136.6163
 20
181.079
  0
SEQEND
  0
POLYLINE
  8
LAYER_2
 40
0.05
 41
0.05
 66
1
 10
0
 20
0
 30
0
  0
VERTEX
  8
LAYER_2
 10
136.6163
 20
179.6679
  0
VERTEX
  8
LAYER_2
 10
136.6163
 20
180.3731
  0
VERTEX
  8
LAYER_2
 10
136.7048
 20
180.4613
  0
VERTEX
  8
LAYER_2
 10
136.7934
 20
180.3731
  0
VERTEX
  8
LAYER_2
 10
136.7934
 20
179.6679
  0
VERTEX
  8
LAYER_2
 10
136.7048
 20
179.5801
  0
VERTEX
  8
LAYER_2
 10
136.6163
 20
179.6679
  0
SEQEND
  0
POLYLINE
  8
LAYER_2
 40
0.05
 41
0.05
 66
1
 10
0
 20
0
 30
0
  0
VERTEX
  8
LAYER_2
 10
136.6163
 20
178.2579
  0
VERTEX
  8
LAYER_2
 10
136.6163
 20
178.9634
  0
VERTEX
  8
LAYER_2
 10
136.7048
 20
179.0519
  0
VERTEX
  8
LAYER_2
 10
136.7934
 20
178.9634
  0
VERTEX
  8
LAYER_2
 10
136.7934
 20
178.2579
  0
VERTEX
  8
LAYER_2
 10
136.7048
 20
178.1697
  0
VERTEX
  8
LAYER_2
 10
136.6163
 20
178.2579
  0
SEQEND
  0
POLYLINE
  8
LAYER_2
 40
0.05
 41
0.05
 66
1
 10
0
 20
0
 30
0
  0
VERTEX
  8
LAYER_2
 10
136.6163
 20
176.8484
  0
VERTEX
  8
LAYER_2
 10
136.6163
 20
177.5533
  0
VERTEX
  8
LAYER_2
 10
136.7048
 20
177.6412
  0
VERTEX
  8
LAYER_2
 10
136.7934
 20
177.5533
  0
VERTEX
  8
LAYER_2
 10
136.7934
 20
176.8484
  0
VERTEX
  8
LAYER_2
 10
136.7048
 20
176.7599
  0
VERTEX
  8
LAYER_2
 10
136.6163
 20
176.8484
  0
SEQEND
  0
POLYLINE
  8
LAYER_2
 40
0.05
 41
0.05
 66
1
 10
0
 20
0
 30
0
  0
VERTEX
  8
LAYER_2
 10
136.6163
 20
175.4384
  0
VERTEX
  8
LAYER_2
 10
136.6163
 20
176.1429
  0
VERTEX
  8
LAYER_2
 10
136.7048
 20
176.2311
  0
VERTEX
  8
LAYER_2
 10
136.7934
 20
176.1429
  0
VERTEX
  8
LAYER_2
 10
136.7934
 20
175.4384
  0
VERTEX
  8
LAYER_2
 10
136.7048
 20
175.3498
  0
VERTEX
  8
LAYER_2
 10
136.6163
 20
175.4384
  0
SEQEND
  0
POLYLINE
  8
LAYER_2
 40
0.05
 41
0.05
 66
1
 10
0
 20
0
 30
0
  0
VERTEX
  8
LAYER_2
 10
136.6163
 20
174.0276
  0
VERTEX
  8
LAYER_2
 10
136.6163
 20
174.7328
  0
VERTEX
  8
LAYER_2
 10
136.7048
 20
174.821
  0
VERTEX
  8
LAYER_2
 10
136.7934
 20
174.7328
  0
VERTEX
  8
LAYER_2
 10
136.7934
 20
174.0276
  0
VERTEX
  8
LAYER_2
 10
136.7048
 20
173.9394
  0
VERTEX
  8
LAYER_2
 10
136.6163
 20
174.0276
  0
SEQEND
  0
POLYLINE
  8
LAYER_2
 40
0.05
 41
0.05
 66
1
 10
0
 20
0
 30
0
  0
VERTEX
  8
LAYER_2
 10
136.6163
 20
172.6175
  0
VERTEX
  8
LAYER_2
 10
136.6163
 20
173.3228
  0
VERTEX
  8
LAYER_2
 10
136.7048
 20
173.4109
  0
VERTEX
  8
LAYER_2
 10
136.7934
 20
173.3228
  0
VERTEX
  8
LAYER_2
 10
136.7934
 20
172.6175
  0
VERTEX
  8
LAYER_2
 10
136.7048
 20
172.5294
  0
VERTEX
  8
LAYER_2
 10
136.6163
 20
172.6175
  0
SEQEND
  0
POLYLINE
  8
LAYER_2
 40
0.05
 41
0.05
 66
1
 10
0
 20
0
 30
0
  0
VERTEX
  8
LAYER_2
 10
136.6163
 20
171.2075
  0
VERTEX
  8
LAYER_2
 10
136.6163
 20
171.9127
  0
VERTEX
  8
LAYER_2
 10
136.7048
 20
172.0009
  0
VERTEX
  8
LAYER_2
 10
136.7934
 20
171.9127
  0
VERTEX
  8
LAYER_2
 10
136.7934
 20
171.2075
  0
VERTEX
  8
LAYER_2
 10
136.7048
 20
171.1193
  0
VERTEX
  8
LAYER_2
 10
136.6163
 20
171.2075
  0
SEQEND
  0
POLYLINE
  8
LAYER_2
 40
0.05
 41
0.05
 66
1
 10
0
 20
0
 30
0
  0
VERTEX
  8
LAYER_2
 10
136.6163
 20
169.7974
  0
VERTEX
  8
LAYER_2
 10
136.6163
 20
170.5026
  0
VERTEX
  8
LAYER_2
 10
136.7048
 20
170.5908
  0
VERTEX
  8
LAYER_2
 10
136.7934
 20
170.5026
  0
VERTEX
  8
LAYER_2
 10
136.7934
 20
169.7974
  0
VERTEX
  8
LAYER_2
 10
136.7048
 20
169.7092
  0
VERTEX
  8
LAYER_2
 10
136.6163
 20
169.7974
  0
SEQEND
  0
POLYLINE
  8
LAYER_2
 40
0.05
 41
0.05
 66
1
 10
0
 20
0
 30
0
  0
VERTEX
  8
LAYER_2
 10
136.6163
 20
168.387
  0
VERTEX
  8
LAYER_2
 10
136.6163
 20
169.0918
  0
VERTEX
  8
LAYER_2
 10
136.7048
 20
169.1797
  0
VERTEX
  8
LAYER_2
 10
136.7934
 20
169.0918
  0
VERTEX
  8
LAYER_2
 10
136.7934
 20
168.387
  0
VERTEX
  8
LAYER_2
 10
136.7048
 20
168.2991
  0
VERTEX
  8
LAYER_2
 10
136.6163
 20
168.387
  0
SEQEND
  0
POLYLINE
  8
LAYER_2
 40
0.05
 41
0.05
 66
1
 10
0
 20
0
 30
0
  0
VERTEX
  8
LAYER_2
 10
136.6163
 20
166.9769
  0
VERTEX
  8
LAYER_2
 10
136.6163
 20
167.6824
  0
VERTEX
  8
LAYER_2
 10
136.7048
 20
167.7706
  0
VERTEX
  8
LAYER_2
 10
136.7934
 20
167.6824
  0
VERTEX
  8
LAYER_2
 10
136.7934
 20
166.9769
  0
VERTEX
  8
LAYER_2
 10
136.7048
 20
166.8883
  0
VERTEX
  8
LAYER_2
 10
136.6163
 20
166.9769
  0
SEQEND
  0
POLYLINE
  8
LAYER_2
 40
0.05
 41
0.05
 66
1
 10
0
 20
0
 30
0
  0
VERTEX
  8
LAYER_2
 10
136.6163
 20
165.5671
  0
VERTEX
  8
LAYER_2
 10
136.6163
 20
166.2717
  0
VERTEX
  8
LAYER_2
 10
136.7048
 20
166.3602
  0
VERTEX
  8
LAYER_2
 10
136.7934
 20
166.2717
  0
VERTEX
  8
LAYER_2
 10
136.7934
 20
165.5671
  0
VERTEX
  8
LAYER_2
 10
136.7048
 20
165.4789
  0
VERTEX
  8
LAYER_2
 10
136.6163
 20
165.5671
  0
SEQEND
  0
POLYLINE
  8
LAYER_2
 40
0.05
 41
0.05
 66
1
 10
0
 20
0
 30
0
  0
VERTEX
  8
LAYER_2
 10
136.6163
 20
164.156
  0
VERTEX
  8
LAYER_2
 10
136.6163
 20
164.8616
  0
VERTEX
  8
LAYER_2
 10
136.7048
 20
164.9494
  0
VERTEX
  8
LAYER_2
 10
136.7934
 20
164.8616
  0
VERTEX
  8
LAYER_2
 10
136.7934
 20
164.156
  0
VERTEX
  8
LAYER_2
 10
136.7048
 20
164.0682
  0
VERTEX
  8
LAYER_2
 10
136.6163
 20
164.156
  0
SEQEND
  0
POLYLINE
  8
LAYER_2
 40
0.05
 41
0.05
 66
1
 10
0
 20
0
 30
0
  0
VERTEX
  8
LAYER_2
 10
136.6163
 20
162.7459
  0
VERTEX
  8
LAYER_2
 10
136.6163
 20
163.4515
  0
VERTEX
  8
LAYER_2
 10
136.7048
 20
163.5394
  0
VERTEX
  8
LAYER_2
 10
136.7934
 20
163.4515
  0
VERTEX
  8
LAYER_2
 10
136.7934
 20
162.7459
  0
VERTEX
  8
LAYER_2
 10
136.7048
 20
162.6578
  0
VERTEX
  8
LAYER_2
 10
136.6163
 20
162.7459
  0
SEQEND
  0
POLYLINE
  8
LAYER_2
 40
0.05
 41
0.05
 66
1
 10
0
 20
0
 30
0
  0
VERTEX
  8
LAYER_2
 10
136.6163
 20
161.3366
  0
VERTEX
  8
LAYER_2
 10
136.6163
 20
162.0411
  0
VERTEX
  8
LAYER_2
 10
136.7048
 20
162.1293
  0
VERTEX
  8
LAYER_2
 10
136.7934
 20
162.0411
  0
VERTEX
  8
LAYER_2
 10
136.7934
 20
161.3366
  0
VERTEX
  8
LAYER_2
 10
136.7048
 20
161.2481
  0
VERTEX
  8
LAYER_2
 10
136.6163
 20
161.3366
  0
SEQEND
  0
POLYLINE
  8
LAYER_2
 40
0.05
 41
0.05
 66
1
 10
0
 20
0
 30
0
  0
VERTEX
  8
LAYER_2
 10
136.6163
 20
159.9258
  0
VERTEX
  8
LAYER_2
 10
136.6163
 20
160.631
  0
VERTEX
  8
LAYER_2
 10
136.7048
 20
160.7192
  0
VERTEX
  8
LAYER_2
 10
136.7934
 20
160.631
  0
VERTEX
  8
LAYER_2
 10
136.7934
 20
159.9258
  0
VERTEX
  8
LAYER_2
 10
136.7048
 20
159.8376
  0
VERTEX
  8
LAYER_2
 10
136.6163
 20
159.9258
  0
SEQEND
  0
POLYLINE
  8
LAYER_2
 40
0.05
 41
0.05
 66
1
 10
0
 20
0
 30
0
  0
VERTEX
  8
LAYER_2
 10
136.6163
 20
158.5154
  0
VERTEX
  8
LAYER_2
 10
136.6163
 20
159.2213
  0
VERTEX
  8
LAYER_2
 10
136.7048
 20
159.3088
  0
VERTEX
  8
LAYER_2
 10
136.7934
 20
159.2213
  0
VERTEX
  8
LAYER_2
 10
136.7934
 20
158.5154
  0
VERTEX
  8
LAYER_2
 10
136.7048
 20
158.4269
  0
VERTEX
  8
LAYER_2
 10
136.6163
 20
158.5154
  0
SEQEND
  0
POLYLINE
  8
LAYER_2
 40
0.05
 41
0.05
 66
1
 10
0
 20
0
 30
0
  0
VERTEX
  8
LAYER_2
 10
136.6163
 20
157.1057
  0
VERTEX
  8
LAYER_2
 10
136.6163
 20
157.8102
  0
VERTEX
  8
LAYER_2
 10
136.7048
 20
157.8987
  0
VERTEX
  8
LAYER_2
 10
136.7934
 20
157.8102
  0
VERTEX
  8
LAYER_2
 10
136.7934
 20
157.1057
  0
VERTEX
  8
LAYER_2
 10
136.7048
 20
157.0175
  0
VERTEX
  8
LAYER_2
 10
136.6163
 20
157.1057
  0
SEQEND
  0
POLYLINE
  8
LAYER_2
 40
0.05
 41
0.05
 66
1
 10
0
 20
0
 30
0
  0
VERTEX
  8
LAYER_2
 10
136.6163
 20
155.6952
  0
VERTEX
  8
LAYER_2
 10
136.6163
 20
156.4008
  0
VERTEX
  8
LAYER_2
 10
136.7048
 20
156.489
  0
VERTEX
  8
LAYER_2
 10
136.7934
 20
156.4008
  0
VERTEX
  8
LAYER_2
 10
136.7934
 20
155.6952
  0
VERTEX
  8
LAYER_2
 10
136.7048
 20
155.6067
  0
VERTEX
  8
LAYER_2
 10
136.6163
 20
155.6952
  0
SEQEND
  0
POLYLINE
  8
LAYER_2
 40
0.05
 41
0.05
 66
1
 10
0
 20
0
 30
0
  0
VERTEX
  8
LAYER_2
 10
136.6163
 20
154.2855
  0
VERTEX
  8
LAYER_2
 10
136.6163
 20
154.9907
  0
VERTEX
  8
LAYER_2
 10
136.7048
 20
155.0789
  0
VERTEX
  8
LAYER_2
 10
136.7934
 20
154.9907
  0
VERTEX
  8
LAYER_2
 10
136.7934
 20
154.2855
  0
VERTEX
  8
LAYER_2
 10
136.7048
 20
154.1973
  0
VERTEX
  8
LAYER_2
 10
136.6163
 20
154.2855
  0
SEQEND
  0
POLYLINE
  8
LAYER_2
 40
0.05
 41
0.05
 66
1
 10
0
 20
0
 30
0
  0
VERTEX
  8
LAYER_2
 10
136.6163
 20
152.8751
  0
VERTEX
  8
LAYER_2
 10
136.6163
 20
153.5796
  0
VERTEX
  8
LAYER_2
 10
136.7048
 20
153.6678
  0
VERTEX
  8
LAYER_2
 10
136.7934
 20
153.5796
  0
VERTEX
  8
LAYER_2
 10
136.7934
 20
152.8751
  0
VERTEX
  8
LAYER_2
 10
136.7048
 20
152.7865
  0
VERTEX
  8
LAYER_2
 10
136.6163
 20
152.8751
  0
SEQEND
  0
POLYLINE
  8
LAYER_2
 40
0.05
 41
0.05
 66
1
 10
0
 20
0
 30
0
  0
VERTEX
  8
LAYER_2
 10
136.6163
 20
151.4643
  0
VERTEX
  8
LAYER_2
 10
136.6163
 20
152.1699
  0
VERTEX
  8
LAYER_2
 10
136.7048
 20
152.2584
  0
VERTEX
  8
LAYER_2
 10
136.7934
 20
152.1699
  0
VERTEX
  8
LAYER_2
 10
136.7934
 20
151.4643
  0
VERTEX
  8
LAYER_2
 10
136.7048
 20
151.3764
  0
VERTEX
  8
LAYER_2
 10
136.6163
 20
151.4643
  0
SEQEND
  0
POLYLINE
  8
LAYER_2
 40
0.05
 41
0.05
 66
1
 10
0
 20
0
 30
0
  0
VERTEX
  8
LAYER_2
 10
136.6163
 20
150.0549
  0
VERTEX
  8
LAYER_2
 10
136.6163
 20
150.7598
  0
VERTEX
  8
LAYER_2
 10
136.7048
 20
150.8483
  0
VERTEX
  8
LAYER_2
 10
136.7934
 20
150.7598
  0
VERTEX
  8
LAYER_2
 10
136.7934
 20
150.0549
  0
VERTEX
  8
LAYER_2
 10
136.7048
 20
149.9664
  0
VERTEX
  8
LAYER_2
 10
136.6163
 20
150.0549
  0
SEQEND
  0
POLYLINE
  8
LAYER_2
 40
0.05
 41
0.05
 66
1
 10
0
 20
0
 30
0
  0
VERTEX
  8
LAYER_2
 10
136.6163
 20
148.6449
  0
VERTEX
  8
LAYER_2
 10
136.6163
 20
149.3494
  0
VERTEX
  8
LAYER_2
 10
136.7048
 20
149.4375
  0
VERTEX
  8
LAYER_2
 10
136.7934
 20
149.3494
  0
VERTEX
  8
LAYER_2
 10
136.7934
 20
148.6449
  0
VERTEX
  8
LAYER_2
 10
136.7048
 20
148.5563
  0
VERTEX
  8
LAYER_2
 10
136.6163
 20
148.6449
  0
SEQEND
  0
POLYLINE
  8
LAYER_2
 40
0.05
 41
0.05
 66
1
 10
0
 20
0
 30
0
  0
VERTEX
  8
LAYER_2
 10
136.6163
 20
147.2337
  0
VERTEX
  8
LAYER_2
 10
136.6163
 20
147.9393
  0
VERTEX
  8
LAYER_2
 10
136.7048
 20
148.0275
  0
VERTEX
  8
LAYER_2
 10
136.7934
 20
147.9393
  0
VERTEX
  8
LAYER_2
 10
136.7934
 20
147.2337
  0
VERTEX
  8
LAYER_2
 10
136.7048
 20
147.1459
  0
VERTEX
  8
LAYER_2
 10
136.6163
 20
147.2337
  0
SEQEND
  0
POLYLINE
  8
LAYER_2
 40
0.05
 41
0.05
 66
1
 10
0
 20
0
 30
0
  0
VERTEX
  8
LAYER_2
 10
136.6163
 20
145.824
  0
VERTEX
  8
LAYER_2
 10
136.6163
 20
146.5292
  0
VERTEX
  8
LAYER_2
 10
136.7048
 20
146.6174
  0
VERTEX
  8
LAYER_2
 10
136.7934
 20
146.5292
  0
VERTEX
  8
LAYER_2
 10
136.7934
 20
145.824
  0
VERTEX
  8
LAYER_2
 10
136.7048
 20
145.7358
  0
VERTEX
  8
LAYER_2
 10
136.6163
 20
145.824
  0
SEQEND
  0
POLYLINE
  8
LAYER_2
 40
0.05
 41
0.05
 66
1
 10
0
 20
0
 30
0
  0
VERTEX
  8
LAYER_2
 10
136.6163
 20
144.4139
  0
VERTEX
  8
LAYER_2
 10
136.6163
 20
145.1185
  0
VERTEX
  8
LAYER_2
 10
136.7048
 20
145.207
  0
VERTEX
  8
LAYER_2
 10
136.7934
 20
145.1185
  0
VERTEX
  8
LAYER_2
 10
136.7934
 20
144.4139
  0
VERTEX
  8
LAYER_2
 10
136.7048
 20
144.3257
  0
VERTEX
  8
LAYER_2
 10
136.6163
 20
144.4139
  0
SEQEND
  0
POLYLINE
  8
LAYER_2
 40
0.05
 41
0.05
 66
1
 10
0
 20
0
 30
0
  0
VERTEX
  8
LAYER_2
 10
136.6163
 20
143.0028
  0
VERTEX
  8
LAYER_2
 10
136.6163
 20
143.7091
  0
VERTEX
  8
LAYER_2
 10
136.7048
 20
143.7969
  0
VERTEX
  8
LAYER_2
 10
136.7934
 20
143.7091
  0
VERTEX
  8
LAYER_2
 10
136.7934
 20
143.0028
  0
VERTEX
  8
LAYER_2
 10
136.7048
 20
142.9153
  0
VERTEX
  8
LAYER_2
 10
136.6163
 20
143.0028
  0
SEQEND
  0
POLYLINE
  8
LAYER_2
 40
0.05
 41
0.05
 66
1
 10
0
 20
0
 30
0
  0
VERTEX
  8
LAYER_2
 10
137.4001
 20
142.1581
  0
VERTEX
  8
LAYER_2
 10
136.8082
 20
142.1581
 42
-0.2684940371
  0
VERTEX
  8
LAYER_2
 10
136.637
 20
142.259
  0
VERTEX
  8
LAYER_2
 10
136.6735
 20
142.3782
  0
VERTEX
  8
LAYER_2
 10
136.7934
 20
142.3413
  0
VERTEX
  8
LAYER_2
 10
136.8082
 20
142.3345
  0
VERTEX
  8
LAYER_2
 10
137.4001
 20
142.3345
  0
VERTEX
  8
LAYER_2
 10
137.4886
 20
142.2466
  0
VERTEX
  8
LAYER_2
 10
137.4001
 20
142.1581
  0
SEQEND
  0
POLYLINE
  8
LAYER_2
 40
0.05
 41
0.05
 66
1
 10
0
 20
0
 30
0
  0
VERTEX
  8
LAYER_2
 10
138.8101
 20
142.1581
  0
VERTEX
  8
LAYER_2
 10
138.1053
 20
142.1581
  0
VERTEX
  8
LAYER_2
 10
138.0167
 20
142.2466
  0
VERTEX
  8
LAYER_2
 10
138.1053
 20
142.3345
  0
VERTEX
  8
LAYER_2
 10
138.8101
 20
142.3345
  0
VERTEX
  8
LAYER_2
 10
138.8987
 20
142.2466
  0
VERTEX
  8
LAYER_2
 10
138.8101
 20
142.1581
  0
SEQEND
  0
POLYLINE
  8
LAYER_2
 40
0.05
 41
0.05
 66
1
 10
0
 20
0
 30
0
  0
VERTEX
  8
LAYER_2
 10
140.2209
 20
142.1581
  0
VERTEX
  8
LAYER_2
 10
139.5157
 20
142.1581
  0
VERTEX
  8
LAYER_2
 10
139.4275
 20
142.2466
  0
VERTEX
  8
LAYER_2
 10
139.5157
 20
142.3345
  0
VERTEX
  8
LAYER_2
 10
140.2209
 20
142.3345
  0
VERTEX
  8
LAYER_2
 10
140.3087
 20
142.2466
  0
VERTEX
  8
LAYER_2
 10
140.2209
 20
142.1581
  0
SEQEND
  0
POLYLINE
  8
LAYER_2
 40
0.05
 41
0.05
 66
1
 10
0
 20
0
 30
0
  0
VERTEX
  8
LAYER_2
 10
141.631
 20
142.1581
  0
VERTEX
  8
LAYER_2
 10
140.9258
 20
142.1581
  0
VERTEX
  8
LAYER_2
 10
140.8379
 20
142.2466
  0
VERTEX
  8
LAYER_2
 10
140.9258
 20
142.3345
  0
VERTEX
  8
LAYER_2
 10
141.631
 20
142.3345
  0
VERTEX
  8
LAYER_2
 10
141.7192
 20
142.2466
  0
VERTEX
  8
LAYER_2
 10
141.631
 20
142.1581
  0
SEQEND
  0
POLYLINE
  8
LAYER_2
 40
0.05
 41
0.05
 66
1
 10
0
 20
0
 30
0
  0
VERTEX
  8
LAYER_2
 10
143.0404
 20
142.1581
  0
VERTEX
  8
LAYER_2
 10
142.3358
 20
142.1581
  0
VERTEX
  8
LAYER_2
 10
142.2477
 20
142.2466
  0
VERTEX
  8
LAYER_2
 10
142.3358
 20
142.3345
  0
VERTEX
  8
LAYER_2
 10
143.0404
 20
142.3345
  0
VERTEX
  8
LAYER_2
 10
143.1292
 20
142.2466
  0
VERTEX
  8
LAYER_2
 10
143.0404
 20
142.1581
  0
SEQEND
  0
POLYLINE
  8
LAYER_2
 40
0.05
 41
0.05
 66
1
 10
0
 20
0
 30
0
  0
VERTEX
  8
LAYER_2
 10
144.4511
 20
142.1581
  0
VERTEX
  8
LAYER_2
 10
143.7459
 20
142.1581
  0
VERTEX
  8
LAYER_2
 10
143.6577
 20
142.2466
  0
VERTEX
  8
LAYER_2
 10
143.7459
 20
142.3345
  0
VERTEX
  8
LAYER_2
 10
144.4511
 20
142.3345
  0
VERTEX
  8
LAYER_2
 10
144.539
 20
142.2466
  0
VERTEX
  8
LAYER_2
 10
144.4511
 20
142.1581
  0
SEQEND
  0
POLYLINE
  8
LAYER_2
 40
0.05
 41
0.05
 66
1
 10
0
 20
0
 30
0
  0
VERTEX
  8
LAYER_2
 10
145.8615
 20
142.1581
  0
VERTEX
  8
LAYER_2
 10
145.156
 20
142.1581
  0
VERTEX
  8
LAYER_2
 10
145.0678
 20
142.2466
  0
VERTEX
  8
LAYER_2
 10
145.156
 20
142.3345
  0
VERTEX
  8
LAYER_2
 10
145.8615
 20
142.3345
  0
VERTEX
  8
LAYER_2
 10
145.9501
 20
142.2466
  0
VERTEX
  8
LAYER_2
 10
145.8615
 20
142.1581
  0
SEQEND
  0
POLYLINE
  8
LAYER_2
 40
0.05
 41
0.05
 66
1
 10
0
 20
0
 30
0
  0
VERTEX
  8
LAYER_2
 10
147.2713
 20
142.1581
  0
VERTEX
  8
LAYER_2
 10
146.5667
 20
142.1581
  0
VERTEX
  8
LAYER_2
 10
146.4782
 20
142.2466
  0
VERTEX
  8
LAYER_2
 10
146.5667
 20
142.3345
  0
VERTEX
  8
LAYER_2
 10
147.2713
 20
142.3345
  0
VERTEX
  8
LAYER_2
 10
147.3595
 20
142.2466
  0
VERTEX
  8
LAYER_2
 10
147.2713
 20
142.1581
  0
SEQEND
  0
POLYLINE
  8
LAYER_2
 40
0.05
 41
0.05
 66
1
 10
0
 20
0
 30
0
  0
VERTEX
  8
LAYER_2
 10
148.6817
 20
142.1581
  0
VERTEX
  8
LAYER_2
 10
147.9768
 20
142.1581
  0
VERTEX
  8
LAYER_2
 10
147.8883
 20
142.2466
  0
VERTEX
  8
LAYER_2
 10
147.9768
 20
142.3345
  0
VERTEX
  8
LAYER_2
 10
148.6817
 20
142.3345
  0
VERTEX
  8
LAYER_2
 10
148.7696
 20
142.2466
  0
VERTEX
  8
LAYER_2
 10
148.6817
 20
142.1581
  0
SEQEND
  0
POLYLINE
  8
LAYER_2
 40
0.05
 41
0.05
 66
1
 10
0
 20
0
 30
0
  0
VERTEX
  8
LAYER_2
 10
150.0925
 20
142.1581
  0
VERTEX
  8
LAYER_2
 10
149.3862
 20
142.1581
  0
VERTEX
  8
LAYER_2
 10
149.298
 20
142.2466
  0
VERTEX
  8
LAYER_2
 10
149.3862
 20
142.3345
  0
VERTEX
  8
LAYER_2
 10
150.0925
 20
142.3345
  0
VERTEX
  8
LAYER_2
 10
150.1803
 20
142.2466
  0
VERTEX
  8
LAYER_2
 10
150.0925
 20
142.1581
  0
SEQEND
  0
POLYLINE
  8
LAYER_2
 40
0.05
 41
0.05
 66
1
 10
0
 20
0
 30
0
  0
VERTEX
  8
LAYER_2
 10
151.5019
 20
142.1581
  0
VERTEX
  8
LAYER_2
 10
150.7973
 20
142.1581
  0
VERTEX
  8
LAYER_2
 10
150.7091
 20
142.2466
  0
VERTEX
  8
LAYER_2
 10
150.7973
 20
142.3345
  0
VERTEX
  8
LAYER_2
 10
151.5019
 20
142.3345
  0
VERTEX
  8
LAYER_2
 10
151.5904
 20
142.2466
  0
VERTEX
  8
LAYER_2
 10
151.5019
 20
142.1581
  0
SEQEND
  0
POLYLINE
  8
LAYER_2
 40
0.05
 41
0.05
 66
1
 10
0
 20
0
 30
0
  0
VERTEX
  8
LAYER_2
 10
152.9119
 20
142.1581
  0
VERTEX
  8
LAYER_2
 10
152.2074
 20
142.1581
  0
VERTEX
  8
LAYER_2
 10
152.1192
 20
142.2466
  0
VERTEX
  8
LAYER_2
 10
152.2074
 20
142.3345
  0
VERTEX
  8
LAYER_2
 10
152.9119
 20
142.3345
  0
VERTEX
  8
LAYER_2
 10
153.0005
 20
142.2466
  0
VERTEX
  8
LAYER_2
 10
152.9119
 20
142.1581
  0
SEQEND
  0
POLYLINE
  8
LAYER_2
 40
0.05
 41
0.05
 66
1
 10
0
 20
0
 30
0
  0
VERTEX
  8
LAYER_2
 10
154.3227
 20
142.1581
  0
VERTEX
  8
LAYER_2
 10
153.6172
 20
142.1581
  0
VERTEX
  8
LAYER_2
 10
153.5286
 20
142.2466
  0
VERTEX
  8
LAYER_2
 10
153.6172
 20
142.3345
  0
VERTEX
  8
LAYER_2
 10
154.3227
 20
142.3345
  0
VERTEX
  8
LAYER_2
 10
154.4113
 20
142.2466
  0
VERTEX
  8
LAYER_2
 10
154.3227
 20
142.1581
  0
SEQEND
  0
POLYLINE
  8
LAYER_2
 40
0.05
 41
0.05
 66
1
 10
0
 20
0
 30
0
  0
VERTEX
  8
LAYER_2
 10
155.7328
 20
142.1581
  0
VERTEX
  8
LAYER_2
 10
155.0272
 20
142.1581
  0
VERTEX
  8
LAYER_2
 10
154.9397
 20
142.2466
  0
VERTEX
  8
LAYER_2
 10
155.0272
 20
142.3345
  0
VERTEX
  8
LAYER_2
 10
155.7328
 20
142.3345
  0
VERTEX
  8
LAYER_2
 10
155.8206
 20
142.2466
  0
VERTEX
  8
LAYER_2
 10
155.7328
 20
142.1581
  0
SEQEND
  0
POLYLINE
  8
LAYER_2
 40
0.05
 41
0.05
 66
1
 10
0
 20
0
 30
0
  0
VERTEX
  8
LAYER_2
 10
157.1428
 20
142.1581
  0
VERTEX
  8
LAYER_2
 10
156.4376
 20
142.1581
  0
VERTEX
  8
LAYER_2
 10
156.3494
 20
142.2466
  0
VERTEX
  8
LAYER_2
 10
156.4376
 20
142.3345
  0
VERTEX
  8
LAYER_2
 10
157.1428
 20
142.3345
  0
VERTEX
  8
LAYER_2
 10
157.2314
 20
142.2466
  0
VERTEX
  8
LAYER_2
 10
157.1428
 20
142.1581
  0
SEQEND
  0
POLYLINE
  8
LAYER_2
 40
0.05
 41
0.05
 66
1
 10
0
 20
0
 30
0
  0
VERTEX
  8
LAYER_2
 10
158.5529
 20
142.1581
  0
VERTEX
  8
LAYER_2
 10
157.8477
 20
142.1581
  0
VERTEX
  8
LAYER_2
 10
157.7595
 20
142.2466
  0
VERTEX
  8
LAYER_2
 10
157.8477
 20
142.3345
  0
VERTEX
  8
LAYER_2
 10
158.5529
 20
142.3345
  0
VERTEX
  8
LAYER_2
 10
158.6415
 20
142.2466
  0
VERTEX
  8
LAYER_2
 10
158.5529
 20
142.1581
  0
SEQEND
  0
POLYLINE
  8
LAYER_2
 40
0.05
 41
0.05
 66
1
 10
0
 20
0
 30
0
  0
VERTEX
  8
LAYER_2
 10
159.963
 20
142.1581
  0
VERTEX
  8
LAYER_2
 10
159.2578
 20
142.1581
  0
VERTEX
  8
LAYER_2
 10
159.1699
 20
142.2466
  0
VERTEX
  8
LAYER_2
 10
159.2578
 20
142.3345
  0
VERTEX
  8
LAYER_2
 10
159.963
 20
142.3345
  0
VERTEX
  8
LAYER_2
 10
160.0516
 20
142.2466
  0
VERTEX
  8
LAYER_2
 10
159.963
 20
142.1581
  0
SEQEND
  0
POLYLINE
  8
LAYER_2
 40
0.05
 41
0.05
 66
1
 10
0
 20
0
 30
0
  0
VERTEX
  8
LAYER_2
 10
161.3738
 20
142.1581
  0
VERTEX
  8
LAYER_2
 10
160.6679
 20
142.1581
  0
VERTEX
  8
LAYER_2
 10
160.58
 20
142.2466
  0
VERTEX
  8
LAYER_2
 10
160.6679
 20
142.3345
  0
VERTEX
  8
LAYER_2
 10
161.3738
 20
142.3345
  0
VERTEX
  8
LAYER_2
 10
161.462
 20
142.2466
  0
VERTEX
  8
LAYER_2
 10
161.3738
 20
142.1581
  0
SEQEND
  0
POLYLINE
  8
LAYER_2
 40
0.05
 41
0.05
 66
1
 10
0
 20
0
 30
0
  0
VERTEX
  8
LAYER_2
 10
162.7839
 20
142.1581
  0
VERTEX
  8
LAYER_2
 10
162.0786
 20
142.1581
  0
VERTEX
  8
LAYER_2
 10
161.9901
 20
142.2466
  0
VERTEX
  8
LAYER_2
 10
162.0786
 20
142.3345
  0
VERTEX
  8
LAYER_2
 10
162.7839
 20
142.3345
  0
VERTEX
  8
LAYER_2
 10
162.8721
 20
142.2466
  0
VERTEX
  8
LAYER_2
 10
162.7839
 20
142.1581
  0
SEQEND
  0
POLYLINE
  8
LAYER_2
 40
0.05
 41
0.05
 66
1
 10
0
 20
0
 30
0
  0
VERTEX
  8
LAYER_2
 10
164.1939
 20
142.1581
  0
VERTEX
  8
LAYER_2
 10
163.4887
 20
142.1581
  0
VERTEX
  8
LAYER_2
 10
163.4009
 20
142.2466
  0
VERTEX
  8
LAYER_2
 10
163.4887
 20
142.3345
  0
VERTEX
  8
LAYER_2
 10
164.1939
 20
142.3345
  0
VERTEX
  8
LAYER_2
 10
164.2821
 20
142.2466
  0
VERTEX
  8
LAYER_2
 10
164.1939
 20
142.1581
  0
SEQEND
  0
POLYLINE
  8
LAYER_2
 40
0.05
 41
0.05
 66
1
 10
0
 20
0
 30
0
  0
VERTEX
  8
LAYER_2
 10
165.604
 20
142.1581
  0
VERTEX
  8
LAYER_2
 10
164.8988
 20
142.1581
  0
VERTEX
  8
LAYER_2
 10
164.8103
 20
142.2466
  0
VERTEX
  8
LAYER_2
 10
164.8988
 20
142.3345
  0
VERTEX
  8
LAYER_2
 10
165.604
 20
142.3345
  0
VERTEX
  8
LAYER_2
 10
165.6922
 20
142.2466
  0
VERTEX
  8
LAYER_2
 10
165.604
 20
142.1581
  0
SEQEND
  0
POLYLINE
  8
LAYER_2
 40
0.05
 41
0.05
 66
1
 10
0
 20
0
 30
0
  0
VERTEX
  8
LAYER_2
 10
167.0145
 20
142.1581
  0
VERTEX
  8
LAYER_2
 10
166.3096
 20
142.1581
  0
VERTEX
  8
LAYER_2
 10
166.221
 20
142.2466
  0
VERTEX
  8
LAYER_2
 10
166.3096
 20
142.3345
  0
VERTEX
  8
LAYER_2
 10
167.0145
 20
142.3345
  0
VERTEX
  8
LAYER_2
 10
167.103
 20
142.2466
  0
VERTEX
  8
LAYER_2
 10
167.0145
 20
142.1581
  0
SEQEND
  0
POLYLINE
  8
LAYER_2
 40
0.05
 41
0.05
 66
1
 10
0
 20
0
 30
0
  0
VERTEX
  8
LAYER_2
 10
168.4245
 20
142.1581
  0
VERTEX
  8
LAYER_2
 10
167.7189
 20
142.1581
  0
VERTEX
  8
LAYER_2
 10
167.6304
 20
142.2466
  0
VERTEX
  8
LAYER_2
 10
167.7189
 20
142.3345
  0
VERTEX
  8
LAYER_2
 10
168.4245
 20
142.3345
  0
VERTEX
  8
LAYER_2
 10
168.5131
 20
142.2466
  0
VERTEX
  8
LAYER_2
 10
168.4245
 20
142.1581
  0
SEQEND
  0
POLYLINE
  8
LAYER_2
 40
0.05
 41
0.05
 66
1
 10
0
 20
0
 30
0
  0
VERTEX
  8
LAYER_2
 10
169.8342
 20
142.1581
  0
VERTEX
  8
LAYER_2
 10
169.1297
 20
142.1581
  0
VERTEX
  8
LAYER_2
 10
169.0412
 20
142.2466
  0
VERTEX
  8
LAYER_2
 10
169.1297
 20
142.3345
  0
VERTEX
  8
LAYER_2
 10
169.8342
 20
142.3345
  0
VERTEX
  8
LAYER_2
 10
169.9224
 20
142.2466
  0
VERTEX
  8
LAYER_2
 10
169.8342
 20
142.1581
  0
SEQEND
  0
POLYLINE
  8
LAYER_2
 40
0.05
 41
0.05
 66
1
 10
0
 20
0
 30
0
  0
VERTEX
  8
LAYER_2
 10
171.2447
 20
142.1581
  0
VERTEX
  8
LAYER_2
 10
170.5398
 20
142.1581
  0
VERTEX
  8
LAYER_2
 10
170.4512
 20
142.2466
  0
VERTEX
  8
LAYER_2
 10
170.5398
 20
142.3345
  0
VERTEX
  8
LAYER_2
 10
171.2447
 20
142.3345
  0
VERTEX
  8
LAYER_2
 10
171.3325
 20
142.2466
  0
VERTEX
  8
LAYER_2
 10
171.2447
 20
142.1581
  0
SEQEND
  0
POLYLINE
  8
LAYER_2
 40
0.05
 41
0.05
 66
1
 10
0
 20
0
 30
0
  0
VERTEX
  8
LAYER_2
 10
172.6554
 20
142.1581
  0
VERTEX
  8
LAYER_2
 10
171.9499
 20
142.1581
  0
VERTEX
  8
LAYER_2
 10
171.8613
 20
142.2466
  0
VERTEX
  8
LAYER_2
 10
171.9499
 20
142.3345
  0
VERTEX
  8
LAYER_2
 10
172.6554
 20
142.3345
  0
VERTEX
  8
LAYER_2
 10
172.7436
 20
142.2466
  0
VERTEX
  8
LAYER_2
 10
172.6554
 20
142.1581
  0
SEQEND
  0
POLYLINE
  8
LAYER_2
 40
0.05
 41
0.05
 66
1
 10
0
 20
0
 30
0
  0
VERTEX
  8
LAYER_2
 10
174.0648
 20
142.1581
  0
VERTEX
  8
LAYER_2
 10
173.3603
 20
142.1581
  0
VERTEX
  8
LAYER_2
 10
173.2721
 20
142.2466
  0
VERTEX
  8
LAYER_2
 10
173.3603
 20
142.3345
  0
VERTEX
  8
LAYER_2
 10
174.0648
 20
142.3345
  0
VERTEX
  8
LAYER_2
 10
174.1534
 20
142.2466
  0
VERTEX
  8
LAYER_2
 10
174.0648
 20
142.1581
  0
SEQEND
  0
POLYLINE
  8
LAYER_2
 40
0.05
 41
0.05
 66
1
 10
0
 20
0
 30
0
  0
VERTEX
  8
LAYER_2
 10
175.4756
 20
142.1581
  0
VERTEX
  8
LAYER_2
 10
174.7704
 20
142.1581
  0
VERTEX
  8
LAYER_2
 10
174.6822
 20
142.2466
  0
VERTEX
  8
LAYER_2
 10
174.7704
 20
142.3345
  0
VERTEX
  8
LAYER_2
 10
175.4756
 20
142.3345
  0
VERTEX
  8
LAYER_2
 10
175.5635
 20
142.2466
  0
VERTEX
  8
LAYER_2
 10
175.4756
 20
142.1581
  0
SEQEND
  0
POLYLINE
  8
LAYER_2
 40
0.05
 41
0.05
 66
1
 10
0
 20
0
 30
0
  0
VERTEX
  8
LAYER_2
 10
176.886
 20
142.1581
  0
VERTEX
  8
LAYER_2
 10
176.1801
 20
142.1581
  0
VERTEX
  8
LAYER_2
 10
176.0916
 20
142.2466
  0
VERTEX
  8
LAYER_2
 10
176.1801
 20
142.3345
  0
VERTEX
  8
LAYER_2
 10
176.886
 20
142.3345
  0
VERTEX
  8
LAYER_2
 10
176.9739
 20
142.2466
  0
VERTEX
  8
LAYER_2
 10
176.886
 20
142.1581
  0
SEQEND
  0
POLYLINE
  8
LAYER_2
 40
0.05
 41
0.05
 66
1
 10
0
 20
0
 30
0
  0
VERTEX
  8
LAYER_2
 10
178.2958
 20
142.1581
  0
VERTEX
  8
LAYER_2
 10
177.5912
 20
142.1581
  0
VERTEX
  8
LAYER_2
 10
177.5027
 20
142.2466
  0
VERTEX
  8
LAYER_2
 10
177.5912
 20
142.3345
  0
VERTEX
  8
LAYER_2
 10
178.2958
 20
142.3345
  0
VERTEX
  8
LAYER_2
 10
178.3839
 20
142.2466
  0
VERTEX
  8
LAYER_2
 10
178.2958
 20
142.1581
  0
SEQEND
  0
POLYLINE
  8
LAYER_2
 40
0.05
 41
0.05
 66
1
 10
0
 20
0
 30
0
  0
VERTEX
  8
LAYER_2
 10
179.7062
 20
142.1581
  0
VERTEX
  8
LAYER_2
 10
179.0013
 20
142.1581
  0
VERTEX
  8
LAYER_2
 10
178.9128
 20
142.2466
  0
VERTEX
  8
LAYER_2
 10
179.0013
 20
142.3345
  0
VERTEX
  8
LAYER_2
 10
179.7062
 20
142.3345
  0
VERTEX
  8
LAYER_2
 10
179.794
 20
142.2466
  0
VERTEX
  8
LAYER_2
 10
179.7062
 20
142.1581
  0
SEQEND
  0
POLYLINE
  8
LAYER_2
 40
0.05
 41
0.05
 66
1
 10
0
 20
0
 30
0
  0
VERTEX
  8
LAYER_2
 10
181.1162
 20
142.1581
  0
VERTEX
  8
LAYER_2
 10
180.4107
 20
142.1581
  0
VERTEX
  8
LAYER_2
 10
180.3225
 20
142.2466
  0
VERTEX
  8
LAYER_2
 10
180.4107
 20
142.3345
  0
VERTEX
  8
LAYER_2
 10
181.1162
 20
142.3345
  0
VERTEX
  8
LAYER_2
 10
181.2048
 20
142.2466
  0
VERTEX
  8
LAYER_2
 10
181.1162
 20
142.1581
  0
SEQEND
  0
POLYLINE
  8
LAYER_2
 40
0.05
 41
0.05
 66
1
 10
0
 20
0
 30
0
  0
VERTEX
  8
LAYER_2
 10
182.5263
 20
142.1581
  0
VERTEX
  8
LAYER_2
 10
181.8208
 20
142.1581
  0
VERTEX
  8
LAYER_2
 10
181.7336
 20
142.2466
  0
VERTEX
  8
LAYER_2
 10
181.8208
 20
142.3345
  0
VERTEX
  8
LAYER_2
 10
182.5263
 20
142.3345
  0
VERTEX
  8
LAYER_2
 10
182.6148
 20
142.2466
  0
VERTEX
  8
LAYER_2
 10
182.5263
 20
142.1581
  0
SEQEND
  0
POLYLINE
  8
LAYER_2
 40
0.05
 41
0.05
 66
1
 10
0
 20
0
 30
0
  0
VERTEX
  8
LAYER_2
 10
183.9371
 20
142.1581
  0
VERTEX
  8
LAYER_2
 10
183.2315
 20
142.1581
  0
VERTEX
  8
LAYER_2
 10
183.143
 20
142.2466
  0
VERTEX
  8
LAYER_2
 10
183.2315
 20
142.3345
  0
VERTEX
  8
LAYER_2
 10
183.9371
 20
142.3345
  0
VERTEX
  8
LAYER_2
 10
184.0249
 20
142.2466
  0
VERTEX
  8
LAYER_2
 10
183.9371
 20
142.1581
  0
SEQEND
  0
POLYLINE
  8
LAYER_2
 40
0.05
 41
0.05
 66
1
 10
0
 20
0
 30
0
  0
VERTEX
  8
LAYER_2
 10
185.3465
 20
142.1581
  0
VERTEX
  8
LAYER_2
 10
184.6416
 20
142.1581
  0
VERTEX
  8
LAYER_2
 10
184.5531
 20
142.2466
  0
VERTEX
  8
LAYER_2
 10
184.6416
 20
142.3345
  0
VERTEX
  8
LAYER_2
 10
185.3465
 20
142.3345
  0
VERTEX
  8
LAYER_2
 10
185.435
 20
142.2466
  0
VERTEX
  8
LAYER_2
 10
185.3465
 20
142.1581
  0
SEQEND
  0
ENDBLK
  0
BLOCK
  8
LAYER_2
  2
AIGNBL0201002E
 70
64
 10
0
 20
0
 30
0
  3
AIGNBL0201002E
  0
POLYLINE
  8
LAYER_2
 40
0.05
 41
0.05
 66
1
 10
0
 20
0
 30
0
  0
VERTEX
  8
LAYER_2
 10
162.3887
 20
168.1523
 42
0.0794267575
  0
VERTEX
  8
LAYER_2
 10
161.7242
 20
168.265
  0
VERTEX
  8
LAYER_2
 10
161.6363
 20
168.3539
  0
VERTEX
  8
LAYER_2
 10
161.7255
 20
168.4414
 42
-0.07956458626
  0
VERTEX
  8
LAYER_2
 10
162.4452
 20
168.3195
  0
VERTEX
  8
LAYER_2
 10
162.5007
 20
168.2075
  0
VERTEX
  8
LAYER_2
 10
162.3887
 20
168.1523
  0
SEQEND
  0
POLYLINE
  8
LAYER_2
 40
0.05
 41
0.05
 66
1
 10
0
 20
0
 30
0
  0
VERTEX
  8
LAYER_2
 10
160.455
 20
167.8585
  0
VERTEX
  8
LAYER_2
 10
160.3323
 20
167.8781
  0
VERTEX
  8
LAYER_2
 10
160.3516
 20
168.0015
 42
-0.07905292676
  0
VERTEX
  8
LAYER_2
 10
161.0027
 20
168.3325
  0
VERTEX
  8
LAYER_2
 10
161.1137
 20
168.2754
  0
VERTEX
  8
LAYER_2
 10
161.0568
 20
168.1644
 42
0.07901739934
  0
VERTEX
  8
LAYER_2
 10
160.455
 20
167.8585
  0
SEQEND
  0
POLYLINE
  8
LAYER_2
 40
0.05
 41
0.05
 66
1
 10
0
 20
0
 30
0
  0
VERTEX
  8
LAYER_2
 10
163.5762
 20
167.3276
  0
VERTEX
  8
LAYER_2
 10
163.4532
 20
167.3497
 42
0.07797834992
  0
VERTEX
  8
LAYER_2
 10
162.9844
 20
167.8354
  0
VERTEX
  8
LAYER_2
 10
162.9671
 20
167.9594
  0
VERTEX
  8
LAYER_2
 10
163.0905
 20
167.9767
 42
-0.07912256961
  0
VERTEX
  8
LAYER_2
 10
163.5972
 20
167.4506
  0
VERTEX
  8
LAYER_2
 10
163.5762
 20
167.3276
  0
SEQEND
  0
POLYLINE
  8
LAYER_2
 40
0.05
 41
0.05
 66
1
 10
0
 20
0
 30
0
  0
VERTEX
  8
LAYER_2
 10
159.5603
 20
166.7233
  0
VERTEX
  8
LAYER_2
 10
159.5038
 20
166.8339
 42
-0.07925225425
  0
VERTEX
  8
LAYER_2
 10
159.8359
 20
167.485
  0
VERTEX
  8
LAYER_2
 10
159.9592
 20
167.5047
  0
VERTEX
  8
LAYER_2
 10
159.9785
 20
167.3817
 42
0.07754045775
  0
VERTEX
  8
LAYER_2
 10
159.6716
 20
166.7802
  0
VERTEX
  8
LAYER_2
 10
159.5603
 20
166.7233
  0
SEQEND
  0
POLYLINE
  8
LAYER_2
 40
0.05
 41
0.05
 66
1
 10
0
 20
0
 30
0
  0
VERTEX
  8
LAYER_2
 10
163.9314
 20
165.9854
  0
VERTEX
  8
LAYER_2
 10
163.8439
 20
166.075
  0
VERTEX
  8
LAYER_2
 10
163.8446
 20
166.1042
 42
0.0741548311
  0
VERTEX
  8
LAYER_2
 10
163.7492
 20
166.7423
  0
VERTEX
  8
LAYER_2
 10
163.8074
 20
166.8532
  0
VERTEX
  8
LAYER_2
 10
163.9176
 20
166.7946
 42
-0.07427281834
  0
VERTEX
  8
LAYER_2
 10
164.0213
 20
166.1042
  0
VERTEX
  8
LAYER_2
 10
164.0203
 20
166.0712
  0
VERTEX
  8
LAYER_2
 10
163.9314
 20
165.9854
  0
SEQEND
  0
POLYLINE
  8
LAYER_2
 40
0.05
 41
0.05
 66
1
 10
0
 20
0
 30
0
  0
VERTEX
  8
LAYER_2
 10
159.6089
 20
165.3343
  0
VERTEX
  8
LAYER_2
 10
159.4972
 20
165.3921
 42
-0.07554816986
  0
VERTEX
  8
LAYER_2
 10
159.3884
 20
166.1042
  0
VERTEX
  8
LAYER_2
 10
159.3884
 20
166.1132
  0
VERTEX
  8
LAYER_2
 10
159.4772
 20
166.2017
  0
VERTEX
  8
LAYER_2
 10
159.5651
 20
166.1129
  0
VERTEX
  8
LAYER_2
 10
159.5651
 20
166.1042
 42
0.07602960934
  0
VERTEX
  8
LAYER_2
 10
159.6653
 20
165.4455
  0
VERTEX
  8
LAYER_2
 10
159.6089
 20
165.3343
  0
SEQEND
  0
POLYLINE
  8
LAYER_2
 40
0.05
 41
0.05
 66
1
 10
0
 20
0
 30
0
  0
VERTEX
  8
LAYER_2
 10
163.4374
 20
164.6866
  0
VERTEX
  8
LAYER_2
 10
163.4188
 20
164.8099
 42
0.07788661543
  0
VERTEX
  8
LAYER_2
 10
163.7313
 20
165.4087
  0
VERTEX
  8
LAYER_2
 10
163.8436
 20
165.4645
  0
VERTEX
  8
LAYER_2
 10
163.8984
 20
165.3522
 42
-0.07851272873
  0
VERTEX
  8
LAYER_2
 10
163.5611
 20
164.7048
  0
VERTEX
  8
LAYER_2
 10
163.4374
 20
164.6866
  0
SEQEND
  0
POLYLINE
  8
LAYER_2
 40
0.05
 41
0.05
 66
1
 10
0
 20
0
 30
0
  0
VERTEX
  8
LAYER_2
 10
160.3344
 20
164.2181
 42
-0.07854115433
  0
VERTEX
  8
LAYER_2
 10
159.8235
 20
164.739
  0
VERTEX
  8
LAYER_2
 10
159.8438
 20
164.8623
  0
VERTEX
  8
LAYER_2
 10
159.9671
 20
164.8413
 42
0.0785307676
  0
VERTEX
  8
LAYER_2
 10
160.4402
 20
164.3593
  0
VERTEX
  8
LAYER_2
 10
160.4584
 20
164.2363
  0
VERTEX
  8
LAYER_2
 10
160.3344
 20
164.2181
  0
SEQEND
  0
POLYLINE
  8
LAYER_2
 40
0.05
 41
0.05
 66
1
 10
0
 20
0
 30
0
  0
VERTEX
  8
LAYER_2
 10
162.3853
 20
163.8684
  0
VERTEX
  8
LAYER_2
 10
162.276
 20
163.9259
  0
VERTEX
  8
LAYER_2
 10
162.3336
 20
164.0365
 42
0.0798273124
  0
VERTEX
  8
LAYER_2
 10
162.9372
 20
164.3362
  0
VERTEX
  8
LAYER_2
 10
163.0608
 20
164.3156
  0
VERTEX
  8
LAYER_2
 10
163.0402
 20
164.1933
 42
-0.08059412431
  0
VERTEX
  8
LAYER_2
 10
162.3853
 20
163.8684
  0
SEQEND
  0
POLYLINE
  8
LAYER_2
 40
0.05
 41
0.05
 66
1
 10
0
 20
0
 30
0
  0
VERTEX
  8
LAYER_2
 10
161.7045
 20
163.7647
 42
-0.08002146857
  0
VERTEX
  8
LAYER_2
 10
160.9835
 20
163.8808
  0
VERTEX
  8
LAYER_2
 10
160.9273
 20
163.9924
  0
VERTEX
  8
LAYER_2
 10
161.0382
 20
164.0479
 42
0.07832670557
  0
VERTEX
  8
LAYER_2
 10
161.7045
 20
163.9418
  0
VERTEX
  8
LAYER_2
 10
161.7931
 20
163.8532
  0
VERTEX
  8
LAYER_2
 10
161.7045
 20
163.7647
  0
SEQEND
  0
ENDBLK
  0
BLOCK
  8
LAYER_2
  2
AIGNBL0201002F
 70
64
 10
0
 20
0
 30
0
  3
AIGNBL0201002F
  0
POLYLINE
  8
LAYER_2
 40
0.05
 41
0.05
 66
1
 10
0
 20
0
 30
0
  0
VERTEX
  8
LAYER_2
 10
162.2382
 20
169.1755
 42
0.04372226419
  0
VERTEX
  8
LAYER_2
 10
161.7042
 20
169.2217
  0
VERTEX
  8
LAYER_2
 10
161.5557
 20
169.2186
  0
VERTEX
  8
LAYER_2
 10
161.4637
 20
169.302
  0
VERTEX
  8
LAYER_2
 10
161.5471
 20
169.3953
  0
VERTEX
  8
LAYER_2
 10
161.7042
 20
169.3988
 42
-0.04479767201
  0
VERTEX
  8
LAYER_2
 10
162.2695
 20
169.3495
  0
VERTEX
  8
LAYER_2
 10
162.3405
 20
169.2475
  0
VERTEX
  8
LAYER_2
 10
162.2382
 20
169.1755
  0
SEQEND
  0
POLYLINE
  8
LAYER_2
 40
0.05
 41
0.05
 66
1
 10
0
 20
0
 30
0
  0
VERTEX
  8
LAYER_2
 10
160.2455
 20
168.8531
  0
VERTEX
  8
LAYER_2
 10
160.1263
 20
168.8893
  0
VERTEX
  8
LAYER_2
 10
160.1625
 20
169.0085
 42
-0.05646845394
  0
VERTEX
  8
LAYER_2
 10
160.8325
 20
169.2799
  0
VERTEX
  8
LAYER_2
 10
160.9418
 20
169.2186
  0
VERTEX
  8
LAYER_2
 10
160.8805
 20
169.1097
 42
0.05651119123
  0
VERTEX
  8
LAYER_2
 10
160.2455
 20
168.8531
  0
SEQEND
  0
POLYLINE
  8
LAYER_2
 40
0.05
 41
0.05
 66
1
 10
0
 20
0
 30
0
  0
VERTEX
  8
LAYER_2
 10
163.4918
 20
168.6471
 42
0.05459528189
  0
VERTEX
  8
LAYER_2
 10
162.8951
 20
168.9819
  0
VERTEX
  8
LAYER_2
 10
162.8483
 20
169.0974
  0
VERTEX
  8
LAYER_2
 10
162.9644
 20
169.1442
 42
-0.05618531137
  0
VERTEX
  8
LAYER_2
 10
163.5948
 20
168.7897
  0
VERTEX
  8
LAYER_2
 10
163.6148
 20
168.6667
  0
VERTEX
  8
LAYER_2
 10
163.4918
 20
168.6471
  0
SEQEND
  0
POLYLINE
  8
LAYER_2
 40
0.05
 41
0.05
 66
1
 10
0
 20
0
 30
0
  0
VERTEX
  8
LAYER_2
 10
159.0979
 20
167.9391
  0
VERTEX
  8
LAYER_2
 10
159.079
 20
168.0628
 42
-0.05503026958
  0
VERTEX
  8
LAYER_2
 10
159.5679
 20
168.5954
  0
VERTEX
  8
LAYER_2
 10
159.6926
 20
168.5875
  0
VERTEX
  8
LAYER_2
 10
159.6843
 20
168.4627
 42
0.05452863115
  0
VERTEX
  8
LAYER_2
 10
159.2213
 20
167.9584
  0
VERTEX
  8
LAYER_2
 10
159.0979
 20
167.9391
  0
SEQEND
  0
POLYLINE
  8
LAYER_2
 40
0.05
 41
0.05
 66
1
 10
0
 20
0
 30
0
  0
VERTEX
  8
LAYER_2
 10
164.5171
 20
167.5963
  0
VERTEX
  8
LAYER_2
 10
164.3975
 20
167.6308
 42
0.05476965929
  0
VERTEX
  8
LAYER_2
 10
164.0007
 20
168.1878
  0
VERTEX
  8
LAYER_2
 10
164.0079
 20
168.3129
  0
VERTEX
  8
LAYER_2
 10
164.1323
 20
168.3057
 42
-0.05533066836
  0
VERTEX
  8
LAYER_2
 10
164.5515
 20
167.7162
  0
VERTEX
  8
LAYER_2
 10
164.5171
 20
167.5963
  0
SEQEND
  0
POLYLINE
  8
LAYER_2
 40
0.05
 41
0.05
 66
1
 10
0
 20
0
 30
0
  0
VERTEX
  8
LAYER_2
 10
158.5712
 20
166.6417
  0
VERTEX
  8
LAYER_2
 10
158.5016
 20
166.745
 42
-0.05462151785
  0
VERTEX
  8
LAYER_2
 10
158.7173
 20
167.4361
  0
VERTEX
  8
LAYER_2
 10
158.8337
 20
167.4813
  0
VERTEX
  8
LAYER_2
 10
158.8792
 20
167.3644
 42
0.05460014653
  0
VERTEX
  8
LAYER_2
 10
158.6742
 20
166.7109
  0
VERTEX
  8
LAYER_2
 10
158.5712
 20
166.6417
  0
SEQEND
  0
POLYLINE
  8
LAYER_2
 40
0.05
 41
0.05
 66
1
 10
0
 20
0
 30
0
  0
VERTEX
  8
LAYER_2
 10
164.8788
 20
166.2438
  0
VERTEX
  8
LAYER_2
 10
164.7844
 20
166.3258
 42
0.05577417871
  0
VERTEX
  8
LAYER_2
 10
164.6621
 20
166.9989
  0
VERTEX
  8
LAYER_2
 10
164.7221
 20
167.1088
  0
VERTEX
  8
LAYER_2
 10
164.832
 20
167.0496
 42
-0.05563141641
  0
VERTEX
  8
LAYER_2
 10
164.9598
 20
166.3375
  0
VERTEX
  8
LAYER_2
 10
164.8788
 20
166.2438
  0
SEQEND
  0
POLYLINE
  8
LAYER_2
 40
0.05
 41
0.05
 66
1
 10
0
 20
0
 30
0
  0
VERTEX
  8
LAYER_2
 10
158.6425
 20
165.2426
  0
VERTEX
  8
LAYER_2
 10
158.535
 20
165.3074
 42
-0.05411315694
  0
VERTEX
  8
LAYER_2
 10
158.441
 20
166.0243
  0
VERTEX
  8
LAYER_2
 10
158.5264
 20
166.1142
  0
VERTEX
  8
LAYER_2
 10
158.617
 20
166.0291
 42
0.05334329478
  0
VERTEX
  8
LAYER_2
 10
158.7059
 20
165.3494
  0
VERTEX
  8
LAYER_2
 10
158.6425
 20
165.2426
  0
SEQEND
  0
POLYLINE
  8
LAYER_2
 40
0.05
 41
0.05
 66
1
 10
0
 20
0
 30
0
  0
VERTEX
  8
LAYER_2
 10
164.636
 20
164.8643
  0
VERTEX
  8
LAYER_2
 10
164.5846
 20
164.978
 42
0.05552803682
  0
VERTEX
  8
LAYER_2
 10
164.7586
 20
165.6412
  0
VERTEX
  8
LAYER_2
 10
164.8585
 20
165.7156
  0
VERTEX
  8
LAYER_2
 10
164.9329
 20
165.6154
 42
-0.05518450949
  0
VERTEX
  8
LAYER_2
 10
164.7496
 20
164.915
  0
VERTEX
  8
LAYER_2
 10
164.636
 20
164.8643
  0
SEQEND
  0
POLYLINE
  8
LAYER_2
 40
0.05
 41
0.05
 66
1
 10
0
 20
0
 30
0
  0
VERTEX
  8
LAYER_2
 10
159.2985
 20
164.0069
  0
VERTEX
  8
LAYER_2
 10
159.1744
 20
164.0193
 42
-0.05472927769
  0
VERTEX
  8
LAYER_2
 10
158.7841
 20
164.6287
  0
VERTEX
  8
LAYER_2
 10
158.823
 20
164.7469
  0
VERTEX
  8
LAYER_2
 10
158.9422
 20
164.7066
 42
0.05607463301
  0
VERTEX
  8
LAYER_2
 10
159.3119
 20
164.1309
  0
VERTEX
  8
LAYER_2
 10
159.2985
 20
164.0069
  0
SEQEND
  0
POLYLINE
  8
LAYER_2
 40
0.05
 41
0.05
 66
1
 10
0
 20
0
 30
0
  0
VERTEX
  8
LAYER_2
 10
163.9548
 20
163.7164
  0
VERTEX
  8
LAYER_2
 10
163.8305
 20
163.7185
  0
VERTEX
  8
LAYER_2
 10
163.8325
 20
163.8439
 42
0.0569445367
  0
VERTEX
  8
LAYER_2
 10
164.2708
 20
164.37
  0
VERTEX
  8
LAYER_2
 10
164.3944
 20
164.3944
  0
VERTEX
  8
LAYER_2
 10
164.4186
 20
164.2715
 42
-0.05471767578
  0
VERTEX
  8
LAYER_2
 10
163.9548
 20
163.7164
  0
SEQEND
  0
POLYLINE
  8
LAYER_2
 40
0.05
 41
0.05
 66
1
 10
0
 20
0
 30
0
  0
VERTEX
  8
LAYER_2
 10
160.3017
 20
163.126
 42
-0.05527371845
  0
VERTEX
  8
LAYER_2
 10
159.6881
 20
163.5104
  0
VERTEX
  8
LAYER_2
 10
159.6736
 20
163.6348
  0
VERTEX
  8
LAYER_2
 10
159.7976
 20
163.6482
 42
0.05465608394
  0
VERTEX
  8
LAYER_2
 10
160.3781
 20
163.2851
  0
VERTEX
  8
LAYER_2
 10
160.4195
 20
163.167
  0
VERTEX
  8
LAYER_2
 10
160.3017
 20
163.126
  0
SEQEND
  0
POLYLINE
  8
LAYER_2
 40
0.05
 41
0.05
 66
1
 10
0
 20
0
 30
0
  0
VERTEX
  8
LAYER_2
 10
162.7242
 20
162.972
  0
VERTEX
  8
LAYER_2
 10
162.6133
 20
163.0274
  0
VERTEX
  8
LAYER_2
 10
162.6688
 20
163.139
 42
0.05634081582
  0
VERTEX
  8
LAYER_2
 10
163.2903
 20
163.4264
  0
VERTEX
  8
LAYER_2
 10
163.4116
 20
163.3967
  0
VERTEX
  8
LAYER_2
 10
163.3819
 20
163.2755
 42
-0.05688214176
  0
VERTEX
  8
LAYER_2
 10
162.7242
 20
162.972
  0
SEQEND
  0
POLYLINE
  8
LAYER_2
 40
0.05
 41
0.05
 66
1
 10
0
 20
0
 30
0
  0
VERTEX
  8
LAYER_2
 10
161.7042
 20
162.8077
 42
-0.05662146357
  0
VERTEX
  8
LAYER_2
 10
160.9855
 20
162.8879
  0
VERTEX
  8
LAYER_2
 10
160.9187
 20
162.9933
  0
VERTEX
  8
LAYER_2
 10
161.0238
 20
163.0591
 42
0.05505422107
  0
VERTEX
  8
LAYER_2
 10
161.7042
 20
162.9837
  0
VERTEX
  8
LAYER_2
 10
161.9994
 20
162.9982
  0
VERTEX
  8
LAYER_2
 10
162.0959
 20
162.9186
  0
VERTEX
  8
LAYER_2
 10
162.0166
 20
162.8221
  0
VERTEX
  8
LAYER_2
 10
161.7042
 20
162.8077
  0
SEQEND
  0
ENDBLK
  0
BLOCK
  8
LAYER_2
  2
AIGNBL02010030
 70
64
 10
0
 20
0
 30
0
  3
AIGNBL02010030
  0
POLYLINE
  8
LAYER_2
 40
0.05
 41
0.05
 66
1
 10
0
 20
0
 30
0
  0
VERTEX
  8
LAYER_2
 10
161.0238
 20
183.8645
  0
VERTEX
  8
LAYER_2
 10
160.9063
 20
183.9089
  0
VERTEX
  8
LAYER_2
 10
160.95
 20
184.0254
 42
-0.1016854414
  0
VERTEX
  8
LAYER_2
 10
161.6663
 20
184.1938
  0
VERTEX
  8
LAYER_2
 10
161.7576
 20
184.1088
  0
VERTEX
  8
LAYER_2
 10
161.6718
 20
184.0178
 42
0.1013131089
  0
VERTEX
  8
LAYER_2
 10
161.0238
 20
183.8645
  0
SEQEND
  0
POLYLINE
  8
LAYER_2
 40
0.05
 41
0.05
 66
1
 10
0
 20
0
 30
0
  0
VERTEX
  8
LAYER_2
 10
163.0078
 20
183.5403
  0
VERTEX
  8
LAYER_2
 10
162.8834
 20
183.5403
 42
0.1045129415
  0
VERTEX
  8
LAYER_2
 10
162.3277
 20
183.9045
  0
VERTEX
  8
LAYER_2
 10
162.2774
 20
184.0192
  0
VERTEX
  8
LAYER_2
 10
162.3925
 20
184.0695
 42
-0.1025444954
  0
VERTEX
  8
LAYER_2
 10
163.0078
 20
183.665
  0
VERTEX
  8
LAYER_2
 10
163.0078
 20
183.5403
  0
SEQEND
  0
POLYLINE
  8
LAYER_2
 40
0.05
 41
0.05
 66
1
 10
0
 20
0
 30
0
  0
VERTEX
  8
LAYER_2
 10
160.0488
 20
182.8351
  0
VERTEX
  8
LAYER_2
 10
159.9933
 20
182.9471
 42
-0.09795972503
  0
VERTEX
  8
LAYER_2
 10
160.3592
 20
183.5854
  0
VERTEX
  8
LAYER_2
 10
160.4836
 20
183.593
  0
VERTEX
  8
LAYER_2
 10
160.4918
 20
183.4683
 42
0.09968555783
  0
VERTEX
  8
LAYER_2
 10
160.1608
 20
182.8902
  0
VERTEX
  8
LAYER_2
 10
160.0488
 20
182.8351
  0
SEQEND
  0
POLYLINE
  8
LAYER_2
 40
0.05
 41
0.05
 66
1
 10
0
 20
0
 30
0
  0
VERTEX
  8
LAYER_2
 10
163.4774
 20
182.2439
  0
VERTEX
  8
LAYER_2
 10
163.3826
 20
182.3242
  0
VERTEX
  8
LAYER_2
 10
163.3595
 20
182.6022
  0
VERTEX
  8
LAYER_2
 10
163.3034
 20
182.8627
  0
VERTEX
  8
LAYER_2
 10
163.2548
 20
182.985
  0
VERTEX
  8
LAYER_2
 10
163.3006
 20
183.1007
  0
VERTEX
  8
LAYER_2
 10
163.4171
 20
183.0549
 42
-0.06688546406
  0
VERTEX
  8
LAYER_2
 10
163.5228
 20
182.7044
 42
-0.0296272715
  0
VERTEX
  8
LAYER_2
 10
163.5583
 20
182.3387
  0
VERTEX
  8
LAYER_2
 10
163.4774
 20
182.2439
  0
SEQEND
  0
POLYLINE
  8
LAYER_2
 40
0.05
 41
0.05
 66
1
 10
0
 20
0
 30
0
  0
VERTEX
  8
LAYER_2
 10
160.1959
 20
181.466
  0
VERTEX
  8
LAYER_2
 10
160.0784
 20
181.5081
 42
-0.06897021782
  0
VERTEX
  8
LAYER_2
 10
159.9117
 20
182.0448
  0
VERTEX
  8
LAYER_2
 10
159.9113
 20
182.0514
  0
VERTEX
  8
LAYER_2
 10
159.8972
 20
182.2174
  0
VERTEX
  8
LAYER_2
 10
159.9782
 20
182.3128
  0
VERTEX
  8
LAYER_2
 10
160.0736
 20
182.2326
  0
VERTEX
  8
LAYER_2
 10
160.0864
 20
182.0686
 42
0.06837099605
  0
VERTEX
  8
LAYER_2
 10
160.2379
 20
181.5835
  0
VERTEX
  8
LAYER_2
 10
160.1959
 20
181.466
  0
SEQEND
  0
POLYLINE
  8
LAYER_2
 40
0.05
 41
0.05
 66
1
 10
0
 20
0
 30
0
  0
VERTEX
  8
LAYER_2
 10
163.0343
 20
181.1577
  0
VERTEX
  8
LAYER_2
 10
163.0188
 20
181.2817
 42
0.07832278437
  0
VERTEX
  8
LAYER_2
 10
163.3023
 20
181.8081
  0
VERTEX
  8
LAYER_2
 10
163.3168
 20
181.8719
  0
VERTEX
  8
LAYER_2
 10
163.4212
 20
181.9397
  0
VERTEX
  8
LAYER_2
 10
163.4887
 20
181.8346
  0
VERTEX
  8
LAYER_2
 10
163.4753
 20
181.7689
  0
VERTEX
  8
LAYER_2
 10
163.4722
 20
181.7585
 42
-0.08027362783
  0
VERTEX
  8
LAYER_2
 10
163.1576
 20
181.1739
  0
VERTEX
  8
LAYER_2
 10
163.0343
 20
181.1577
  0
SEQEND
  0
POLYLINE
  8
LAYER_2
 40
0.05
 41
0.05
 66
1
 10
0
 20
0
 30
0
  0
VERTEX
  8
LAYER_2
 10
161.1629
 20
180.5583
 42
-0.1019440461
  0
VERTEX
  8
LAYER_2
 10
160.5208
 20
180.9193
  0
VERTEX
  8
LAYER_2
 10
160.5122
 20
181.0444
  0
VERTEX
  8
LAYER_2
 10
160.6369
 20
181.0519
 42
0.1036507964
  0
VERTEX
  8
LAYER_2
 10
161.2167
 20
180.7271
  0
VERTEX
  8
LAYER_2
 10
161.2739
 20
180.6161
  0
VERTEX
  8
LAYER_2
 10
161.1629
 20
180.5583
  0
SEQEND
  0
POLYLINE
  8
LAYER_2
 40
0.05
 41
0.05
 66
1
 10
0
 20
0
 30
0
  0
VERTEX
  8
LAYER_2
 10
161.8943
 20
180.479
  0
VERTEX
  8
LAYER_2
 10
161.7989
 20
180.5583
  0
VERTEX
  8
LAYER_2
 10
161.8781
 20
180.6554
 42
0.102596699
  0
VERTEX
  8
LAYER_2
 10
162.5141
 20
180.8483
  0
VERTEX
  8
LAYER_2
 10
162.634
 20
180.8139
  0
VERTEX
  8
LAYER_2
 10
162.5999
 20
180.6929
 42
-0.1017356701
  0
VERTEX
  8
LAYER_2
 10
161.8943
 20
180.479
  0
SEQEND
  0
ENDBLK
  0
ENDSEC
  0
SECTION
  2
ENTITIES
  0
INSERT
  8
LAYER_1
  2
AIGNBL01010002
 10
0
 20
0
 30
0
  0
POLYLINE
  8
LAYER_1
 40
0.1129
 41
0.1129
 66
1
 10
0
 20
0
 30
0
  0
VERTEX
  8
LAYER_1
 10
176.0485
 20
188.0967
  0
VERTEX
  8
LAYER_1
 10
176.0485
 20
159.7453
  0
SEQEND
  0
POLYLINE
  8
LAYER_1
 40
0.05
 41
0.05
 66
1
 10
0
 20
0
 30
0
  0
VERTEX
  8
LAYER_1
 10
175.5579
 20
160.1132
  0
VERTEX
  8
LAYER_1
 10
176.0695
 20
158.0965
  0
VERTEX
  8
LAYER_1
 10
176.5822
 20
160.1132
  0
SEQEND
  0
POLYLINE
  8
LAYER_1
 40
0.1129
 41
0.1129
 66
1
 10
0
 20
0
 30
0
  0
VERTEX
  8
LAYER_1
 10
176.0485
 20
158.0968
  0
VERTEX
  8
LAYER_1
 10
170.7572
 20
158.0968
  0
SEQEND
  0
TEXT
  8
LAYER_1
 10
180.3258
 20
168.4786
 11
180.3258
 21
168.4786
 40
4.1465
 41
0.5
 50
89.99999999
 62
1
  1
300
  0
POLYLINE
  8
LAYER_1
 40
0.1129
 41
0.1129
 66
1
 10
0
 20
0
 30
0
  0
VERTEX
  8
LAYER_1
 10
167.8051
 20
151.7754
  0
VERTEX
  8
LAYER_1
 10
155.9302
 20
151.7754
  0
SEQEND
  0
POLYLINE
  8
LAYER_1
 40
0.05
 41
0.05
 66
1
 10
0
 20
0
 30
0
  0
VERTEX
  8
LAYER_1
 10
167.4561
 20
152.2667
  0
VERTEX
  8
LAYER_1
 10
169.3681
 20
151.7547
  0
VERTEX
  8
LAYER_1
 10
167.4561
 20
151.2421
  0
SEQEND
  0
POLYLINE
  8
LAYER_1
 40
0.05
 41
0.05
 66
1
 10
0
 20
0
 30
0
  0
VERTEX
  8
LAYER_1
 10
156.2795
 20
151.2421
  0
VERTEX
  8
LAYER_1
 10
154.3675
 20
151.754
  0
VERTEX
  8
LAYER_1
 10
156.2795
 20
152.2667
  0
SEQEND
  0
POLYLINE
  8
LAYER_1
 40
0.1129
 41
0.1129
 66
1
 10
0
 20
0
 30
0
  0
VERTEX
  8
LAYER_1
 10
154.3675
 20
151.7754
  0
VERTEX
  8
LAYER_1
 10
154.3675
 20
157.0671
  0
SEQEND
  0
POLYLINE
  8
LAYER_1
 40
0.1129
 41
0.1129
 66
1
 10
0
 20
0
 30
0
  0
VERTEX
  8
LAYER_1
 10
169.3681
 20
157.0671
  0
VERTEX
  8
LAYER_1
 10
169.3681
 20
151.7754
  0
SEQEND
  0
TEXT
  8
LAYER_1
 10
158.0927
 20
147.0019
 11
158.0927
 21
147.0019
 40
4.1465
 41
0.5
 62
1
  1
150
  0
POLYLINE
  8
LAYER_1
  6
AIGENLINE001
 40
0.0882
 41
0.0882
 62
1
 66
1
 10
0
 20
0
 30
0
 70
129
  0
VERTEX
  8
LAYER_1
 10
154.2476
 20
158.2694
  0
VERTEX
  8
LAYER_1
 10
169.2475
 20
158.2694
  0
VERTEX
  8
LAYER_1
 10
169.2475
 20
188.2696
  0
VERTEX
  8
LAYER_1
 10
154.2476
 20
188.2696
  0
SEQEND
  0
TEXT
  8
LAYER_2
 10
-26.2556
 20
43.1712
 11
-26.2556
 21
43.1712
 40
3.2995
 41
0.5
  1
仕様
  0
POLYLINE
  8
LAYER_2
 40
0.3528
 41
0.3528
 66
1
 10
0
 20
0
 30
0
  0
VERTEX
  8
LAYER_2
 10
250.6748
 20
51.9507
  0
VERTEX
  8
LAYER_2
 10
-29.3178
 20
51.9507
  0
SEQEND
  0
INSERT
  8
LAYER_2
  2
AIGNBL02010002
 10
0
 20
0
 30
0
  0
POLYLINE
  8
LAYER_2
 40
0.3528
 41
0.3528
 66
1
 10
0
 20
0
 30
0
  0
VERTEX
  8
LAYER_2
 10
-29.3178
 20
229.3369
  0
VERTEX
  8
LAYER_2
 10
-29.3178
 20
34.3283
  0
VERTEX
  8
LAYER_2
 10
250.6748
 20
34.3283
  0
VERTEX
  8
LAYER_2
 10
250.6748
 20
229.3369
  0
VERTEX
  8
LAYER_2
 10
-29.3178
 20
229.3369
  0
SEQEND
  0
POLYLINE
  8
LAYER_2
 40
0.3528
 41
0.3528
 66
1
 10
0
 20
0
 30
0
  0
VERTEX
  8
LAYER_2
 10
250.6748
 20
60.4597
  0
VERTEX
  8
LAYER_2
 10
-29.3178
 20
60.4597
  0
SEQEND
  0
POLYLINE
  8
LAYER_2
 40
0.3528
 41
0.3528
 66
1
 10
0
 20
0
 30
0
  0
VERTEX
  8
LAYER_2
 10
250.6748
 20
43.4416
  0
VERTEX
  8
LAYER_2
 10
143.5341
 20
43.4416
  0
SEQEND
  0
TEXT
  8
LAYER_2
 10
188.1725
 20
45.7175
 11
188.1725
 21
45.7175
 40
3.7615
 41
0.5
  1
-
  0
TEXT
  8
LAYER_2
 10
182.8808
 20
49.4743
 11
182.8808
 21
49.4743
 40
2.1997
 41
0.5
  1
縮尺
  0
POLYLINE
  8
LAYER_2
 40
0.3528
 41
0.3528
 66
1
 10
0
 20
0
 30
0
  0
VERTEX
  8
LAYER_2
 10
181.3526
 20
43.4416
  0
VERTEX
  8
LAYER_2
 10
181.3526
 20
51.9507
  0
SEQEND
  0
TEXT
  8
LAYER_2
 10
144.2327
 20
57.9834
 11
144.2327
 21
57.9834
 40
2.1997
 41
0.5
  1
品番
  0
TEXT
  8
LAYER_2
 10
-28.1609
 20
57.9834
 11
-28.1609
 21
57.9834
 40
2.1997
 41
0.5
  1
品名
  0
TEXT
  8
LAYER_2
 10
144.2327
 20
49.4743
 11
144.2327
 21
49.4743
 40
2.1997
 41
0.5
  1
重量
  0
TEXT
  8
LAYER_2
 10
150.2547
 20
54.1514
 11
150.2547
 21
54.1514
 40
5.9385
 41
0.5
  1
CIE-SMLAA50/
  0
TEXT
  8
LAYER_2
 10
149.5454
 20
45.7175
 11
149.5454
 21
45.7175
 40
3.7615
 41
0.5
  1
17.35kg
  0
POLYLINE
  8
LAYER_2
 40
0.3528
 41
0.3528
 66
1
 10
0
 20
0
 30
0
  0
VERTEX
  8
LAYER_2
 10
143.5341
 20
34.9539
  0
VERTEX
  8
LAYER_2
 10
143.5341
 20
60.4597
  0
SEQEND
  0
TEXT
  8
LAYER_2
 10
-15.2914
 20
54.891
 11
-15.2914
 21
54.891
 40
4.1465
 41
0.5
  1
スマイル 壁付け／カウンター置き型洗面器500ｍｍ
  0
INSERT
  8
LAYER_2
  2
AIGNBL02010003
 10
0
 20
0
 30
0
  0
TEXT
  8
LAYER_2
 10
-15.6835
 20
45.3736
 11
-15.6835
 21
45.3736
 40
3.1177
 41
0.5
  1
●設置方法：壁付け・カウンター置き●水栓取付穴：１穴●オーバーフロー付き
  0
TEXT
  8
LAYER_2
 10
-15.6835
 20
40.6235
 11
-15.6835
 21
40.6235
 40
3.1177
 41
0.5
  1
●排水金具別途●取り付けボルト同梱
  0
TEXT
  8
LAYER_2
 10
237.263
 20
63.2582
 11
237.263
 21
63.2582
 40
2.9618
 41
0.5
  1
単位：mm
  0
TEXT
  8
LAYER_2
 10
6.5217
 20
219.7385
 11
6.5217
 21
219.7385
 40
2.5981
 41
0.5
  1
※陶器製品は寸法公差が発生します。カウンター切り込みの際は必ず現物を合わせてご確認ください。
  0
TEXT
  8
LAYER_2
 10
6.5217
 20
214.9886
 11
6.5217
 21
214.9886
 40
2.9618
 41
0.5
  1
※壁面には50mm以上の補強材を入れてください。
  0
TEXT
  8
LAYER_2
 10
6.5217
 20
210.2385
 11
6.5217
 21
210.2385
 40
2.5981
 41
0.5
  1
※製品と接する部分には必ずコーキング処理を行ってください。
  0
TEXT
  8
LAYER_2
 10
176.0254
 20
39.5359
 11
176.0254
 21
39.5359
 40
3.3853
 41
0.5
  1
●TEL 0120-65-1232●FAX 06-6532-1580
  0
TEXT
  8
LAYER_2
 10
176.0254
 20
36.0212
 11
176.0254
 21
36.0212
 40
3.3853
 41
0.5
  1
hits@hiratatile.co.jp
  0
TEXT
  8
LAYER_2
 10
240.3591
 20
225.8432
 11
240.3591
 21
225.8432
 40
2.0732
 41
0.5
  1
160906RT
  0
INSERT
  8
LAYER_2
  2
AIGNBL02010006
 10
0
 20
0
 30
0
  0
TEXT
  8
LAYER_2
 10
70.2779
 20
88.2406
 11
70.2779
 21
88.2406
 40
3.6373
 41
0.5
  1
壁取付ボルト穴
  0
POLYLINE
  8
LAYER_2
 40
0.2222
 41
0.2222
 66
1
 10
0
 20
0
 30
0
 70
1
  0
VERTEX
  8
LAYER_2
 10
80.1122
 20
163.672
 42
-0.3953555437
  0
VERTEX
  8
LAYER_2
 10
77.8847
 20
165.9224
 42
-0.3910344476
  0
VERTEX
  8
LAYER_2
 10
80.1122
 20
168.172
 42
-0.3951526469
  0
VERTEX
  8
LAYER_2
 10
82.3406
 20
165.9224
 42
-0.3910954287
  0
SEQEND
  0
POLYLINE
  8
LAYER_2
 40
0.2222
 41
0.2222
 66
1
 10
0
 20
0
 30
0
 70
1
  0
VERTEX
  8
LAYER_2
 10
80.1122
 20
162.7143
 42
-0.3953001523
  0
VERTEX
  8
LAYER_2
 10
76.9352
 20
165.9224
 42
-0.3910834013
  0
VERTEX
  8
LAYER_2
 10
80.1122
 20
169.129
 42
-0.3952772321
  0
VERTEX
  8
LAYER_2
 10
83.2876
 20
165.9224
 42
-0.3526313437
  0
VERTEX
  8
LAYER_2
 10
80.5958
 20
162.7512
 42
-0.03827970226
  0
SEQEND
  0
POLYLINE
  8
LAYER_2
 40
0.2222
 41
0.2222
 66
1
 10
0
 20
0
 30
0
  0
VERTEX
  8
LAYER_2
 10
103.7353
 20
175.0529
  0
VERTEX
  8
LAYER_2
 10
103.7122
 20
175.2072
  0
VERTEX
  8
LAYER_2
 10
103.6309
 20
175.3488
  0
VERTEX
  8
LAYER_2
 10
103.5258
 20
175.467
  0
VERTEX
  8
LAYER_2
 10
103.3856
 20
175.5376
  0
VERTEX
  8
LAYER_2
 10
103.234
 20
175.5614
  0
SEQEND
  0
POLYLINE
  8
LAYER_2
 40
0.2222
 41
0.2222
 66
1
 10
0
 20
0
 30
0
  0
VERTEX
  8
LAYER_2
 10
103.7353
 20
175.0529
  0
VERTEX
  8
LAYER_2
 10
103.7353
 20
144.0997
  0
SEQEND
  0
POLYLINE
  8
LAYER_2
 40
0.2222
 41
0.2222
 66
1
 10
0
 20
0
 30
0
  0
VERTEX
  8
LAYER_2
 10
103.2347
 20
143.5916
  0
VERTEX
  8
LAYER_2
 10
103.3849
 20
143.615
  0
VERTEX
  8
LAYER_2
 10
103.5258
 20
143.6856
  0
VERTEX
  8
LAYER_2
 10
103.6309
 20
143.8038
  0
VERTEX
  8
LAYER_2
 10
103.7118
 20
143.9337
  0
VERTEX
  8
LAYER_2
 10
103.7353
 20
144.099
  0
SEQEND
  0
POLYLINE
  8
LAYER_2
 40
0.2222
 41
0.2222
 66
1
 10
0
 20
0
 30
0
  0
VERTEX
  8
LAYER_2
 10
103.2347
 20
143.5916
  0
VERTEX
  8
LAYER_2
 10
57.2286
 20
143.5916
  0
SEQEND
  0
POLYLINE
  8
LAYER_2
 40
0.2222
 41
0.2222
 66
1
 10
0
 20
0
 30
0
  0
VERTEX
  8
LAYER_2
 10
56.728
 20
144.0997
  0
VERTEX
  8
LAYER_2
 10
56.751
 20
143.9337
  0
VERTEX
  8
LAYER_2
 10
56.8214
 20
143.8031
  0
VERTEX
  8
LAYER_2
 10
56.9378
 20
143.6853
  0
VERTEX
  8
LAYER_2
 10
57.0773
 20
143.615
  0
VERTEX
  8
LAYER_2
 10
57.2292
 20
143.5909
  0
SEQEND
  0
POLYLINE
  8
LAYER_2
 40
0.2222
 41
0.2222
 66
1
 10
0
 20
0
 30
0
  0
VERTEX
  8
LAYER_2
 10
56.728
 20
144.0997
  0
VERTEX
  8
LAYER_2
 10
56.728
 20
175.0529
  0
SEQEND
  0
POLYLINE
  8
LAYER_2
 40
0.2222
 41
0.2222
 66
1
 10
0
 20
0
 30
0
  0
VERTEX
  8
LAYER_2
 10
57.2292
 20
175.5614
  0
VERTEX
  8
LAYER_2
 10
57.0776
 20
175.5376
  0
VERTEX
  8
LAYER_2
 10
56.9381
 20
175.4663
  0
VERTEX
  8
LAYER_2
 10
56.8214
 20
175.3485
  0
VERTEX
  8
LAYER_2
 10
56.7517
 20
175.2072
  0
VERTEX
  8
LAYER_2
 10
56.728
 20
175.0529
  0
SEQEND
  0
POLYLINE
  8
LAYER_2
 40
0.2222
 41
0.2222
 66
1
 10
0
 20
0
 30
0
  0
VERTEX
  8
LAYER_2
 10
57.2292
 20
175.5614
  0
VERTEX
  8
LAYER_2
 10
103.234
 20
175.5614
  0
SEQEND
  0
POLYLINE
  8
LAYER_2
 40
0.2222
 41
0.2222
 66
1
 10
0
 20
0
 30
0
  0
VERTEX
  8
LAYER_2
 10
99.227
 20
175.5614
  0
VERTEX
  8
LAYER_2
 10
99.227
 20
148.7775
  0
SEQEND
  0
POLYLINE
  8
LAYER_2
 40
0.2222
 41
0.2222
 66
1
 10
0
 20
0
 30
0
  0
VERTEX
  8
LAYER_2
 10
98.7264
 20
148.269
  0
VERTEX
  8
LAYER_2
 10
98.8897
 20
148.2921
  0
VERTEX
  8
LAYER_2
 10
99.0286
 20
148.3634
  0
VERTEX
  8
LAYER_2
 10
99.1333
 20
148.4819
  0
VERTEX
  8
LAYER_2
 10
99.2033
 20
148.6242
  0
VERTEX
  8
LAYER_2
 10
99.227
 20
148.7775
  0
SEQEND
  0
POLYLINE
  8
LAYER_2
 40
0.2222
 41
0.2222
 66
1
 10
0
 20
0
 30
0
  0
VERTEX
  8
LAYER_2
 10
98.7264
 20
148.269
  0
VERTEX
  8
LAYER_2
 10
61.7382
 20
148.269
  0
SEQEND
  0
POLYLINE
  8
LAYER_2
 40
0.2222
 41
0.2222
 66
1
 10
0
 20
0
 30
0
  0
VERTEX
  8
LAYER_2
 10
61.2362
 20
148.7775
  0
VERTEX
  8
LAYER_2
 10
61.2596
 20
148.6238
  0
VERTEX
  8
LAYER_2
 10
61.3296
 20
148.4816
  0
VERTEX
  8
LAYER_2
 10
61.434
 20
148.3623
  0
VERTEX
  8
LAYER_2
 10
61.5732
 20
148.2927
  0
VERTEX
  8
LAYER_2
 10
61.7375
 20
148.2697
  0
SEQEND
  0
POLYLINE
  8
LAYER_2
 40
0.2222
 41
0.2222
 66
1
 10
0
 20
0
 30
0
  0
VERTEX
  8
LAYER_2
 10
61.2362
 20
148.7775
  0
VERTEX
  8
LAYER_2
 10
61.2362
 20
175.5614
  0
SEQEND
  0
POLYLINE
  8
LAYER_2
 40
0.2222
 41
0.2222
 66
1
 10
0
 20
0
 30
0
  0
VERTEX
  8
LAYER_2
 10
105.2263
 20
187.7394
  0
VERTEX
  8
LAYER_2
 10
105.2032
 20
187.9055
  0
VERTEX
  8
LAYER_2
 10
105.1326
 20
188.0347
  0
VERTEX
  8
LAYER_2
 10
105.0279
 20
188.1532
  0
VERTEX
  8
LAYER_2
 10
104.889
 20
188.2235
  0
VERTEX
  8
LAYER_2
 10
104.7368
 20
188.2483
  0
SEQEND
  0
POLYLINE
  8
LAYER_2
 40
0.2222
 41
0.2222
 66
1
 10
0
 20
0
 30
0
  0
VERTEX
  8
LAYER_2
 10
105.2263
 20
187.7394
  0
VERTEX
  8
LAYER_2
 10
105.2263
 20
142.5743
  0
SEQEND
  0
POLYLINE
  8
LAYER_2
 40
0.2222
 41
0.2222
 66
1
 10
0
 20
0
 30
0
  0
VERTEX
  8
LAYER_2
 10
104.7368
 20
142.0664
  0
VERTEX
  8
LAYER_2
 10
104.889
 20
142.0899
  0
VERTEX
  8
LAYER_2
 10
105.0279
 20
142.1598
  0
VERTEX
  8
LAYER_2
 10
105.1326
 20
142.279
  0
VERTEX
  8
LAYER_2
 10
105.2036
 20
142.4202
  0
VERTEX
  8
LAYER_2
 10
105.2263
 20
142.5743
  0
SEQEND
  0
POLYLINE
  8
LAYER_2
 40
0.2222
 41
0.2222
 66
1
 10
0
 20
0
 30
0
  0
VERTEX
  8
LAYER_2
 10
104.7368
 20
142.0664
  0
VERTEX
  8
LAYER_2
 10
55.7258
 20
142.0664
  0
SEQEND
  0
POLYLINE
  8
LAYER_2
 40
0.2222
 41
0.2222
 66
1
 10
0
 20
0
 30
0
  0
VERTEX
  8
LAYER_2
 10
55.2256
 20
142.5743
  0
VERTEX
  8
LAYER_2
 10
55.2604
 20
142.4202
  0
VERTEX
  8
LAYER_2
 10
55.3303
 20
142.279
  0
VERTEX
  8
LAYER_2
 10
55.4354
 20
142.1598
  0
VERTEX
  8
LAYER_2
 10
55.5749
 20
142.0899
  0
VERTEX
  8
LAYER_2
 10
55.7268
 20
142.0661
  0
SEQEND
  0
POLYLINE
  8
LAYER_2
 40
0.2222
 41
0.2222
 66
1
 10
0
 20
0
 30
0
  0
VERTEX
  8
LAYER_2
 10
55.2256
 20
142.5743
  0
VERTEX
  8
LAYER_2
 10
55.2256
 20
187.7394
  0
SEQEND
  0
POLYLINE
  8
LAYER_2
 40
0.2222
 41
0.2222
 66
1
 10
0
 20
0
 30
0
  0
VERTEX
  8
LAYER_2
 10
55.7268
 20
188.2483
  0
VERTEX
  8
LAYER_2
 10
55.5749
 20
188.2245
  0
VERTEX
  8
LAYER_2
 10
55.4361
 20
188.1532
  0
VERTEX
  8
LAYER_2
 10
55.3313
 20
188.0347
  0
VERTEX
  8
LAYER_2
 10
55.2607
 20
187.9048
  0
VERTEX
  8
LAYER_2
 10
55.2256
 20
187.7394
  0
SEQEND
  0
POLYLINE
  8
LAYER_2
 40
0.2222
 41
0.2222
 66
1
 10
0
 20
0
 30
0
  0
VERTEX
  8
LAYER_2
 10
55.7268
 20
188.2483
  0
VERTEX
  8
LAYER_2
 10
104.7368
 20
188.2483
  0
SEQEND
  0
POLYLINE
  8
LAYER_2
 40
0.2222
 41
0.2222
 66
1
 10
0
 20
0
 30
0
 70
1
  0
VERTEX
  8
LAYER_2
 10
81.8792
 20
182.1513
  0
VERTEX
  8
LAYER_2
 10
81.8555
 20
182.4334
  0
VERTEX
  8
LAYER_2
 10
81.7972
 20
182.7059
 42
0.1082568964
  0
VERTEX
  8
LAYER_2
 10
81.3596
 20
183.4163
 42
0.5562524945
  0
VERTEX
  8
LAYER_2
 10
78.4069
 20
182.4334
  0
VERTEX
  8
LAYER_2
 10
78.3842
 20
182.1513
  0
VERTEX
  8
LAYER_2
 10
78.4069
 20
181.8784
 42
0.1098822943
  0
VERTEX
  8
LAYER_2
 10
78.7142
 20
181.1092
 42
0.3092816791
  0
VERTEX
  8
LAYER_2
 10
80.5954
 20
180.4406
 42
0.2162960039
  0
VERTEX
  8
LAYER_2
 10
81.6968
 20
181.3686
 42
0.02983383303
  0
VERTEX
  8
LAYER_2
 10
81.7972
 20
181.6073
  0
VERTEX
  8
LAYER_2
 10
81.8555
 20
181.8784
  0
SEQEND
  0
POLYLINE
  8
LAYER_2
 40
0.2222
 41
0.2222
 66
1
 10
0
 20
0
 30
0
 70
1
  0
VERTEX
  8
LAYER_2
 10
78.6288
 20
174.1544
  0
VERTEX
  8
LAYER_2
 10
78.6525
 20
174.0359
  0
VERTEX
  8
LAYER_2
 10
78.7339
 20
173.9177
 42
0.08051332589
  0
VERTEX
  8
LAYER_2
 10
78.9675
 20
173.7504
 42
0.05289420488
  0
VERTEX
  8
LAYER_2
 10
79.3098
 20
173.6227
 42
0.07989311286
  0
VERTEX
  8
LAYER_2
 10
80.3181
 20
173.5301
 42
0.08150977592
  0
VERTEX
  8
LAYER_2
 10
81.2069
 20
173.7167
 42
0.119825796
  0
VERTEX
  8
LAYER_2
 10
81.565
 20
173.976
  0
VERTEX
  8
LAYER_2
 10
81.6226
 20
174.0955
  0
VERTEX
  8
LAYER_2
 10
81.6226
 20
174.2133
  0
VERTEX
  8
LAYER_2
 10
81.565
 20
174.3318
 42
0.1557041697
  0
VERTEX
  8
LAYER_2
 10
81.0358
 20
174.6467
 42
0.01575798968
  0
VERTEX
  8
LAYER_2
 10
80.6211
 20
174.7456
  0
VERTEX
  8
LAYER_2
 10
80.342
 20
174.7694
  0
VERTEX
  8
LAYER_2
 10
80.0616
 20
174.7804
 42
0.06033333051
  0
VERTEX
  8
LAYER_2
 10
79.3135
 20
174.679
 42
0.07251916926
  0
VERTEX
  8
LAYER_2
 10
78.8737
 20
174.4848
  0
VERTEX
  8
LAYER_2
 10
78.7339
 20
174.379
  0
VERTEX
  8
LAYER_2
 10
78.6525
 20
174.2729
  0
SEQEND
  0
POLYLINE
  8
LAYER_2
 40
0.2222
 41
0.2222
 66
1
 10
0
 20
0
 30
0
  0
VERTEX
  8
LAYER_2
 10
61.434
 20
148.3634
  0
VERTEX
  8
LAYER_2
 10
56.9381
 20
143.6856
  0
SEQEND
  0
POLYLINE
  8
LAYER_2
 40
0.2222
 41
0.2222
 66
1
 10
0
 20
0
 30
0
  0
VERTEX
  8
LAYER_2
 10
99.0286
 20
148.3634
  0
VERTEX
  8
LAYER_2
 10
103.6309
 20
143.8031
  0
SEQEND
  0
POLYLINE
  8
LAYER_2
 40
0.2222
 41
0.2222
 66
1
 10
0
 20
0
 30
0
  0
VERTEX
  8
LAYER_2
 10
104.3171
 20
96.2877
  0
VERTEX
  8
LAYER_2
 10
104.3402
 20
96.2877
  0
SEQEND
  0
POLYLINE
  8
LAYER_2
 40
0.2222
 41
0.2222
 66
1
 10
0
 20
0
 30
0
  0
VERTEX
  8
LAYER_2
 10
80.1315
 20
96.2877
  0
VERTEX
  8
LAYER_2
 10
104.3402
 20
96.2877
  0
SEQEND
  0
POLYLINE
  8
LAYER_2
 40
0.2222
 41
0.2222
 66
1
 10
0
 20
0
 30
0
  0
VERTEX
  8
LAYER_2
 10
82.3805
 20
81.0593
  0
VERTEX
  8
LAYER_2
 10
80.1315
 20
81.0593
  0
SEQEND
  0
POLYLINE
  8
LAYER_2
 40
0.2222
 41
0.2222
 66
1
 10
0
 20
0
 30
0
  0
VERTEX
  8
LAYER_2
 10
83.382
 20
82.6082
  0
VERTEX
  8
LAYER_2
 10
83.382
 20
81.0593
  0
SEQEND
  0
POLYLINE
  8
LAYER_2
 40
0.2222
 41
0.2222
 66
1
 10
0
 20
0
 30
0
  0
VERTEX
  8
LAYER_2
 10
104.3413
 20
96.2877
  0
VERTEX
  8
LAYER_2
 10
104.7243
 20
96.2877
  0
VERTEX
  8
LAYER_2
 10
104.8883
 20
96.2642
  0
VERTEX
  8
LAYER_2
 10
105.0279
 20
96.1926
  0
VERTEX
  8
LAYER_2
 10
105.1326
 20
96.0748
  0
VERTEX
  8
LAYER_2
 10
105.2025
 20
95.9328
  0
VERTEX
  8
LAYER_2
 10
105.2263
 20
95.7792
  0
VERTEX
  8
LAYER_2
 10
105.2263
 20
83.093
  0
SEQEND
  0
POLYLINE
  8
LAYER_2
 40
0.2222
 41
0.2222
 66
1
 10
0
 20
0
 30
0
  0
VERTEX
  8
LAYER_2
 10
83.6493
 20
83.0099
  0
VERTEX
  8
LAYER_2
 10
83.4753
 20
82.8325
  0
VERTEX
  8
LAYER_2
 10
83.4047
 20
82.7257
  0
VERTEX
  8
LAYER_2
 10
83.382
 20
82.6082
  0
SEQEND
  0
POLYLINE
  8
LAYER_2
 40
0.2222
 41
0.2222
 66
1
 10
0
 20
0
 30
0
  0
VERTEX
  8
LAYER_2
 10
82.3805
 20
81.0593
  0
VERTEX
  8
LAYER_2
 10
83.382
 20
81.0593
  0
SEQEND
  0
POLYLINE
  8
LAYER_2
 40
0.2222
 41
0.2222
 66
1
 10
0
 20
0
 30
0
  0
VERTEX
  8
LAYER_2
 10
55.2256
 20
95.7788
  0
VERTEX
  8
LAYER_2
 10
55.2256
 20
83.0923
  0
SEQEND
  0
POLYLINE
  8
LAYER_2
 40
0.2222
 41
0.2222
 66
1
 10
0
 20
0
 30
0
  0
VERTEX
  8
LAYER_2
 10
80.1315
 20
96.2877
  0
VERTEX
  8
LAYER_2
 10
56.1227
 20
96.2877
  0
SEQEND
  0
POLYLINE
  8
LAYER_2
 40
0.2222
 41
0.2222
 66
1
 10
0
 20
0
 30
0
  0
VERTEX
  8
LAYER_2
 10
77.8839
 20
81.0593
  0
VERTEX
  8
LAYER_2
 10
80.1315
 20
81.0593
  0
SEQEND
  0
POLYLINE
  8
LAYER_2
 40
0.2222
 41
0.2222
 66
1
 10
0
 20
0
 30
0
  0
VERTEX
  8
LAYER_2
 10
76.8814
 20
82.6082
  0
VERTEX
  8
LAYER_2
 10
76.8814
 20
81.0593
  0
SEQEND
  0
POLYLINE
  8
LAYER_2
 40
0.2222
 41
0.2222
 66
1
 10
0
 20
0
 30
0
  0
VERTEX
  8
LAYER_2
 10
55.2369
 20
83.093
  0
VERTEX
  8
LAYER_2
 10
105.2253
 20
83.093
  0
SEQEND
  0
POLYLINE
  8
LAYER_2
 40
0.2222
 41
0.2222
 66
1
 10
0
 20
0
 30
0
  0
VERTEX
  8
LAYER_2
 10
76.6141
 20
83.0099
  0
VERTEX
  8
LAYER_2
 10
76.5083
 20
83.0699
  0
VERTEX
  8
LAYER_2
 10
76.4039
 20
83.093
  0
SEQEND
  0
POLYLINE
  8
LAYER_2
 40
0.2222
 41
0.2222
 66
1
 10
0
 20
0
 30
0
  0
VERTEX
  8
LAYER_2
 10
56.4138
 20
96.2877
  0
VERTEX
  8
LAYER_2
 10
55.7268
 20
96.2877
  0
VERTEX
  8
LAYER_2
 10
55.5749
 20
96.2642
  0
VERTEX
  8
LAYER_2
 10
55.4354
 20
96.1926
  0
VERTEX
  8
LAYER_2
 10
55.3296
 20
96.0748
  0
VERTEX
  8
LAYER_2
 10
55.2604
 20
95.9328
  0
VERTEX
  8
LAYER_2
 10
55.2256
 20
95.7792
  0
SEQEND
  0
POLYLINE
  8
LAYER_2
 40
0.2222
 41
0.2222
 66
1
 10
0
 20
0
 30
0
  0
VERTEX
  8
LAYER_2
 10
76.6141
 20
83.0099
  0
VERTEX
  8
LAYER_2
 10
76.7881
 20
82.8325
  0
SEQEND
  0
POLYLINE
  8
LAYER_2
 40
0.2222
 41
0.2222
 66
1
 10
0
 20
0
 30
0
  0
VERTEX
  8
LAYER_2
 10
76.8814
 20
82.6082
  0
VERTEX
  8
LAYER_2
 10
76.8587
 20
82.7264
  0
VERTEX
  8
LAYER_2
 10
76.7881
 20
82.8325
  0
SEQEND
  0
POLYLINE
  8
LAYER_2
 40
0.2222
 41
0.2222
 66
1
 10
0
 20
0
 30
0
  0
VERTEX
  8
LAYER_2
 10
77.8839
 20
81.0593
  0
VERTEX
  8
LAYER_2
 10
76.8814
 20
81.0593
  0
SEQEND
  0
POLYLINE
  8
LAYER_2
 40
0.2222
 41
0.2222
 66
1
 10
0
 20
0
 30
0
  0
VERTEX
  8
LAYER_2
 10
160.9742
 20
83.093
  0
VERTEX
  8
LAYER_2
 10
168.4414
 20
83.093
  0
SEQEND
  0
POLYLINE
  8
LAYER_2
 40
0.2222
 41
0.2222
 66
1
 10
0
 20
0
 30
0
  0
VERTEX
  8
LAYER_2
 10
166.9617
 20
81.0593
  0
VERTEX
  8
LAYER_2
 10
164.701
 20
81.0593
  0
SEQEND
  0
POLYLINE
  8
LAYER_2
 40
0.2222
 41
0.2222
 66
1
 10
0
 20
0
 30
0
  0
VERTEX
  8
LAYER_2
 10
166.9617
 20
81.0593
  0
VERTEX
  8
LAYER_2
 10
167.5994
 20
81.0593
  0
VERTEX
  8
LAYER_2
 10
167.9512
 20
82.6082
  0
VERTEX
  8
LAYER_2
 10
167.9746
 20
82.7264
  0
VERTEX
  8
LAYER_2
 10
168.0442
 20
82.8325
  0
VERTEX
  8
LAYER_2
 10
168.2309
 20
83.0092
  0
VERTEX
  8
LAYER_2
 10
168.3242
 20
83.0692
  0
VERTEX
  8
LAYER_2
 10
168.4407
 20
83.093
  0
VERTEX
  8
LAYER_2
 10
186.7059
 20
83.093
  0
SEQEND
  0
POLYLINE
  8
LAYER_2
 40
0.2222
 41
0.2222
 66
1
 10
0
 20
0
 30
0
  0
VERTEX
  8
LAYER_2
 10
162.4528
 20
81.0593
  0
VERTEX
  8
LAYER_2
 10
164.7014
 20
81.0593
  0
SEQEND
  0
POLYLINE
  8
LAYER_2
 40
0.2222
 41
0.2222
 66
1
 10
0
 20
0
 30
0
  0
VERTEX
  8
LAYER_2
 10
141.5324
 20
96.2877
  0
VERTEX
  8
LAYER_2
 10
186.2053
 20
96.2877
  0
SEQEND
  0
POLYLINE
  8
LAYER_2
  6
AIGENLINE002
 40
0.1129
 41
0.1129
 66
1
 10
0
 20
0
 30
0
 70
128
  0
VERTEX
  8
LAYER_2
 10
160.9673
 20
84.1086
  0
VERTEX
  8
LAYER_2
 10
148.7237
 20
84.1086
  0
SEQEND
  0
POLYLINE
  8
LAYER_2
 40
0.2222
 41
0.2222
 66
1
 10
0
 20
0
 30
0
  0
VERTEX
  8
LAYER_2
 10
162.4528
 20
81.0593
  0
VERTEX
  8
LAYER_2
 10
161.8168
 20
81.0593
  0
VERTEX
  8
LAYER_2
 10
161.463
 20
82.6082
  0
VERTEX
  8
LAYER_2
 10
161.4399
 20
82.7264
  0
VERTEX
  8
LAYER_2
 10
161.37
 20
82.8325
  0
VERTEX
  8
LAYER_2
 10
161.1833
 20
83.0092
  0
VERTEX
  8
LAYER_2
 10
161.0906
 20
83.0692
  0
VERTEX
  8
LAYER_2
 10
160.9748
 20
83.093
  0
VERTEX
  8
LAYER_2
 10
141.2055
 20
83.093
  0
VERTEX
  8
LAYER_2
 10
141.2055
 20
95.9566
  0
VERTEX
  8
LAYER_2
 10
141.2176
 20
95.9683
  0
VERTEX
  8
LAYER_2
 10
141.2176
 20
95.9917
  0
VERTEX
  8
LAYER_2
 10
141.2293
 20
96.0041
  0
VERTEX
  8
LAYER_2
 10
141.2293
 20
96.0389
  0
VERTEX
  8
LAYER_2
 10
141.2403
 20
96.0513
  0
VERTEX
  8
LAYER_2
 10
141.2403
 20
96.0627
  0
VERTEX
  8
LAYER_2
 10
141.252
 20
96.0751
  0
VERTEX
  8
LAYER_2
 10
141.2644
 20
96.0865
  0
VERTEX
  8
LAYER_2
 10
141.2644
 20
96.0985
  0
VERTEX
  8
LAYER_2
 10
141.2751
 20
96.1095
  0
VERTEX
  8
LAYER_2
 10
141.2751
 20
96.1216
  0
VERTEX
  8
LAYER_2
 10
141.2875
 20
96.133
  0
VERTEX
  8
LAYER_2
 10
141.2989
 20
96.1457
  0
VERTEX
  8
LAYER_2
 10
141.3106
 20
96.1571
  0
VERTEX
  8
LAYER_2
 10
141.3571
 20
96.205
  0
VERTEX
  8
LAYER_2
 10
141.3695
 20
96.2164
  0
VERTEX
  8
LAYER_2
 10
141.3808
 20
96.2164
  0
VERTEX
  8
LAYER_2
 10
141.4039
 20
96.2401
  0
VERTEX
  8
LAYER_2
 10
141.416
 20
96.2401
  0
VERTEX
  8
LAYER_2
 10
141.427
 20
96.2518
  0
VERTEX
  8
LAYER_2
 10
141.4394
 20
96.2518
  0
VERTEX
  8
LAYER_2
 10
141.4508
 20
96.2639
  0
VERTEX
  8
LAYER_2
 10
141.4852
 20
96.2639
  0
VERTEX
  8
LAYER_2
 10
141.4966
 20
96.2763
  0
VERTEX
  8
LAYER_2
 10
141.5204
 20
96.2763
  0
VERTEX
  8
LAYER_2
 10
141.5324
 20
96.2877
  0
VERTEX
  8
LAYER_2
 10
186.2053
 20
96.2877
  0
SEQEND
  0
POLYLINE
  8
LAYER_2
 40
0.1129
 41
0.1129
 66
1
 10
0
 20
0
 30
0
  0
VERTEX
  8
LAYER_2
 10
82.3795
 20
83.033
  0
VERTEX
  8
LAYER_2
 10
82.3795
 20
82.6806
  0
SEQEND
  0
POLYLINE
  8
LAYER_2
  6
AIGENLINE003
 40
0.1129
 41
0.1129
 66
1
 10
0
 20
0
 30
0
 70
128
  0
VERTEX
  8
LAYER_2
 10
82.3795
 20
82.2575
  0
VERTEX
  8
LAYER_2
 10
82.3795
 20
81.6226
  0
SEQEND
  0
POLYLINE
  8
LAYER_2
 40
0.1129
 41
0.1129
 66
1
 10
0
 20
0
 30
0
  0
VERTEX
  8
LAYER_2
 10
82.3795
 20
81.4111
  0
VERTEX
  8
LAYER_2
 10
82.3795
 20
81.0593
  0
SEQEND
  0
POLYLINE
  8
LAYER_2
 40
0.1129
 41
0.1129
 66
1
 10
0
 20
0
 30
0
  0
VERTEX
  8
LAYER_2
 10
83.2538
 20
84.0259
  0
VERTEX
  8
LAYER_2
 10
83.0023
 20
83.7785
  0
SEQEND
  0
POLYLINE
  8
LAYER_2
 40
0.1129
 41
0.1129
 66
1
 10
0
 20
0
 30
0
  0
VERTEX
  8
LAYER_2
 10
82.7243
 20
83.5053
  0
VERTEX
  8
LAYER_2
 10
82.4721
 20
83.258
  0
SEQEND
  0
POLYLINE
  8
LAYER_2
  6
AIGENLINE002
 40
0.1129
 41
0.1129
 66
1
 10
0
 20
0
 30
0
 70
128
  0
VERTEX
  8
LAYER_2
 10
82.3795
 20
83.1629
  0
VERTEX
  8
LAYER_2
 10
80.1315
 20
83.1629
  0
SEQEND
  0
POLYLINE
  8
LAYER_2
 40
0.1129
 41
0.1129
 66
1
 10
0
 20
0
 30
0
  0
VERTEX
  8
LAYER_2
 10
77.8833
 20
81.0586
  0
VERTEX
  8
LAYER_2
 10
77.8833
 20
81.4111
  0
SEQEND
  0
POLYLINE
  8
LAYER_2
  6
AIGENLINE004
 40
0.1129
 41
0.1129
 66
1
 10
0
 20
0
 30
0
 70
128
  0
VERTEX
  8
LAYER_2
 10
77.8833
 20
81.9168
  0
VERTEX
  8
LAYER_2
 10
77.8833
 20
82.6757
  0
SEQEND
  0
POLYLINE
  8
LAYER_2
 40
0.1129
 41
0.1129
 66
1
 10
0
 20
0
 30
0
  0
VERTEX
  8
LAYER_2
 10
77.8833
 20
82.9286
  0
VERTEX
  8
LAYER_2
 10
77.8833
 20
83.033
  0
VERTEX
  8
LAYER_2
 10
77.8599
 20
83.1515
  0
VERTEX
  8
LAYER_2
 10
77.7892
 20
83.258
  0
SEQEND
  0
POLYLINE
  8
LAYER_2
 40
0.1129
 41
0.1129
 66
1
 10
0
 20
0
 30
0
  0
VERTEX
  8
LAYER_2
 10
77.0092
 20
84.0259
  0
VERTEX
  8
LAYER_2
 10
77.2607
 20
83.7785
  0
SEQEND
  0
POLYLINE
  8
LAYER_2
 40
0.1129
 41
0.1129
 66
1
 10
0
 20
0
 30
0
  0
VERTEX
  8
LAYER_2
 10
77.5381
 20
83.5053
  0
VERTEX
  8
LAYER_2
 10
77.7896
 20
83.258
  0
SEQEND
  0
INSERT
  8
LAYER_2
  2
AIGNBL02010028
 10
0
 20
0
 30
0
  0
POLYLINE
  8
LAYER_2
 40
0.1129
 41
0.1129
 66
1
 10
0
 20
0
 30
0
  0
VERTEX
  8
LAYER_2
 10
66.2099
 20
91.1714
  0
VERTEX
  8
LAYER_2
 10
66.2099
 20
87.6997
  0
SEQEND
  0
POLYLINE
  8
LAYER_2
 40
0.1129
 41
0.1129
 66
1
 10
0
 20
0
 30
0
  0
VERTEX
  8
LAYER_2
 10
64.4732
 20
89.4343
  0
VERTEX
  8
LAYER_2
 10
67.9449
 20
89.4343
  0
SEQEND
  0
POLYLINE
  8
LAYER_2
  6
AIGENLINE002
 40
0.1129
 41
0.1129
 66
1
 10
0
 20
0
 30
0
 70
129
  0
VERTEX
  8
LAYER_2
 10
95.4043
 20
89.4354
 42
-0.3935408506
  0
VERTEX
  8
LAYER_2
 10
94.2196
 20
88.252
 42
-0.4142278443
  0
VERTEX
  8
LAYER_2
 10
93.0365
 20
89.4354
 42
-0.4142146196
  0
VERTEX
  8
LAYER_2
 10
94.2196
 20
90.6191
 42
-0.4141992924
  0
SEQEND
  0
POLYLINE
  8
LAYER_2
 40
0.1129
 41
0.1129
 66
1
 10
0
 20
0
 30
0
  0
VERTEX
  8
LAYER_2
 10
94.2206
 20
91.1714
  0
VERTEX
  8
LAYER_2
 10
94.2206
 20
87.6997
  0
SEQEND
  0
POLYLINE
  8
LAYER_2
 40
0.1129
 41
0.1129
 66
1
 10
0
 20
0
 30
0
  0
VERTEX
  8
LAYER_2
 10
92.4843
 20
89.4343
  0
VERTEX
  8
LAYER_2
 10
95.9563
 20
89.4343
  0
SEQEND
  0
POLYLINE
  8
LAYER_2
 40
0.1129
 41
0.1129
 66
1
 10
0
 20
0
 30
0
  0
VERTEX
  8
LAYER_2
 10
104.3295
 20
96.287
  0
VERTEX
  8
LAYER_2
 10
104.2937
 20
96.287
 42
0.07811760662
  0
VERTEX
  8
LAYER_2
 10
103.9864
 20
96.2088
  0
SEQEND
  0
POLYLINE
  8
LAYER_2
 40
0.1129
 41
0.1129
 66
1
 10
0
 20
0
 30
0
  0
VERTEX
  8
LAYER_2
 10
103.6636
 20
95.9862
 42
0.07091173651
  0
VERTEX
  8
LAYER_2
 10
103.4793
 20
95.7313
  0
VERTEX
  8
LAYER_2
 10
103.4669
 20
95.6958
  0
VERTEX
  8
LAYER_2
 10
103.502
 20
95.7664
  0
VERTEX
  8
LAYER_2
 10
103.3925
 20
95.4315
  0
SEQEND
  0
POLYLINE
  8
LAYER_2
  6
AIGENLINE005
 40
0.1129
 41
0.1129
 66
1
 10
0
 20
0
 30
0
 70
128
  0
VERTEX
  8
LAYER_2
 10
103.184
 20
94.7852
  0
VERTEX
  8
LAYER_2
 10
99.9408
 20
84.7669
  0
SEQEND
  0
POLYLINE
  8
LAYER_2
 40
0.1129
 41
0.1129
 66
1
 10
0
 20
0
 30
0
  0
VERTEX
  8
LAYER_2
 10
99.8361
 20
84.4441
  0
VERTEX
  8
LAYER_2
 10
99.7272
 20
84.1086
  0
VERTEX
  8
LAYER_2
 10
99.3748
 20
84.1086
  0
SEQEND
  0
POLYLINE
  8
LAYER_2
  6
AIGENLINE006
 40
0.1129
 41
0.1129
 66
1
 10
0
 20
0
 30
0
 70
128
  0
VERTEX
  8
LAYER_2
 10
98.6879
 20
84.1086
  0
VERTEX
  8
LAYER_2
 10
83.9297
 20
84.1086
  0
SEQEND
  0
POLYLINE
  8
LAYER_2
 40
0.1129
 41
0.1129
 66
1
 10
0
 20
0
 30
0
  0
VERTEX
  8
LAYER_2
 10
83.587
 20
84.1086
  0
VERTEX
  8
LAYER_2
 10
83.463
 20
84.1086
  0
VERTEX
  8
LAYER_2
 10
83.3465
 20
84.0851
  0
VERTEX
  8
LAYER_2
 10
83.2538
 20
84.0259
  0
SEQEND
  0
POLYLINE
  8
LAYER_2
 40
0.1129
 41
0.1129
 66
1
 10
0
 20
0
 30
0
  0
VERTEX
  8
LAYER_2
 10
83.4509
 20
84.1086
  0
VERTEX
  8
LAYER_2
 10
83.0985
 20
84.1086
  0
SEQEND
  0
POLYLINE
  8
LAYER_2
  6
AIGENLINE007
 40
0.1129
 41
0.1129
 66
1
 10
0
 20
0
 30
0
 70
128
  0
VERTEX
  8
LAYER_2
 10
82.2269
 20
84.1086
  0
VERTEX
  8
LAYER_2
 10
80.9198
 20
84.1086
  0
SEQEND
  0
POLYLINE
  8
LAYER_2
 40
0.1129
 41
0.1129
 66
1
 10
0
 20
0
 30
0
  0
VERTEX
  8
LAYER_2
 10
80.4843
 20
84.1086
  0
VERTEX
  8
LAYER_2
 10
80.1305
 20
84.1086
  0
SEQEND
  0
POLYLINE
  8
LAYER_2
 40
0.1129
 41
0.1129
 66
1
 10
0
 20
0
 30
0
  0
VERTEX
  8
LAYER_2
 10
76.8001
 20
84.1086
  0
VERTEX
  8
LAYER_2
 10
76.447
 20
84.1086
  0
SEQEND
  0
POLYLINE
  8
LAYER_2
  6
AIGENLINE008
 40
0.1129
 41
0.1129
 66
1
 10
0
 20
0
 30
0
 70
128
  0
VERTEX
  8
LAYER_2
 10
75.7149
 20
84.1086
  0
VERTEX
  8
LAYER_2
 10
61.4536
 20
84.1086
  0
SEQEND
  0
POLYLINE
  8
LAYER_2
 40
0.1129
 41
0.1129
 66
1
 10
0
 20
0
 30
0
  0
VERTEX
  8
LAYER_2
 10
61.0881
 20
84.1086
  0
VERTEX
  8
LAYER_2
 10
60.7346
 20
84.1086
  0
VERTEX
  8
LAYER_2
 10
60.6257
 20
84.4441
  0
SEQEND
  0
POLYLINE
  8
LAYER_2
  6
AIGENLINE009
 40
0.1129
 41
0.1129
 66
1
 10
0
 20
0
 30
0
 70
128
  0
VERTEX
  8
LAYER_2
 10
60.4005
 20
85.1352
  0
VERTEX
  8
LAYER_2
 10
56.9133
 20
95.8505
  0
SEQEND
  0
POLYLINE
  8
LAYER_2
 40
0.1129
 41
0.1129
 66
1
 10
0
 20
0
 30
0
  0
VERTEX
  8
LAYER_2
 10
56.7328
 20
96.1578
  0
VERTEX
  8
LAYER_2
 10
56.6811
 20
96.2039
  0
VERTEX
  8
LAYER_2
 10
56.5526
 20
96.2639
  0
VERTEX
  8
LAYER_2
 10
56.4128
 20
96.287
  0
SEQEND
  0
POLYLINE
  8
LAYER_2
 40
0.1129
 41
0.1129
 66
1
 10
0
 20
0
 30
0
  0
VERTEX
  8
LAYER_2
 10
76.8112
 20
84.1086
  0
VERTEX
  8
LAYER_2
 10
77.1639
 20
84.1086
  0
SEQEND
  0
POLYLINE
  8
LAYER_2
  6
AIGENLINE007
 40
0.1129
 41
0.1129
 66
1
 10
0
 20
0
 30
0
 70
128
  0
VERTEX
  8
LAYER_2
 10
78.0359
 20
84.1086
  0
VERTEX
  8
LAYER_2
 10
79.3426
 20
84.1086
  0
SEQEND
  0
POLYLINE
  8
LAYER_2
 40
0.1129
 41
0.1129
 66
1
 10
0
 20
0
 30
0
  0
VERTEX
  8
LAYER_2
 10
79.7791
 20
84.1086
  0
VERTEX
  8
LAYER_2
 10
80.1305
 20
84.1086
  0
SEQEND
  0
INSERT
  8
LAYER_2
  2
AIGNBL02010029
 10
0
 20
0
 30
0
  0
POLYLINE
  8
LAYER_2
 40
0.1129
 41
0.1129
 66
1
 10
0
 20
0
 30
0
  0
VERTEX
  8
LAYER_2
 10
39.1111
 20
186.6856
  0
VERTEX
  8
LAYER_2
 10
39.1111
 20
143.6284
  0
SEQEND
  0
POLYLINE
  8
LAYER_2
 40
0.05
 41
0.05
 66
1
 10
0
 20
0
 30
0
  0
VERTEX
  8
LAYER_2
 10
38.6206
 20
186.3356
  0
VERTEX
  8
LAYER_2
 10
39.1322
 20
188.2483
  0
VERTEX
  8
LAYER_2
 10
39.6448
 20
186.3356
  0
SEQEND
  0
POLYLINE
  8
LAYER_2
 40
0.05
 41
0.05
 66
1
 10
0
 20
0
 30
0
  0
VERTEX
  8
LAYER_2
 10
38.6206
 20
143.9778
  0
VERTEX
  8
LAYER_2
 10
39.1322
 20
142.0651
  0
VERTEX
  8
LAYER_2
 10
39.6448
 20
143.9778
  0
SEQEND
  0
POLYLINE
  8
LAYER_2
 40
0.1129
 41
0.1129
 66
1
 10
0
 20
0
 30
0
  0
VERTEX
  8
LAYER_2
 10
44.3019
 20
142.0661
  0
VERTEX
  8
LAYER_2
 10
39.0109
 20
142.0661
  0
SEQEND
  0
POLYLINE
  8
LAYER_2
 40
0.1129
 41
0.1129
 66
1
 10
0
 20
0
 30
0
  0
VERTEX
  8
LAYER_2
 10
39.0098
 20
188.2476
  0
VERTEX
  8
LAYER_2
 10
44.3019
 20
188.2476
  0
SEQEND
  0
TEXT
  8
LAYER_2
 10
38.4972
 20
162.7881
 11
38.4972
 21
162.7881
 40
4.1557
 41
0.5
 50
89.99999999
  1
460
  0
POLYLINE
  8
LAYER_2
 40
0.1129
 41
0.1129
 66
1
 10
0
 20
0
 30
0
  0
VERTEX
  8
LAYER_2
 10
47.0359
 20
183.7153
  0
VERTEX
  8
LAYER_2
 10
47.0359
 20
186.6856
  0
SEQEND
  0
POLYLINE
  8
LAYER_2
 40
0.05
 41
0.05
 66
1
 10
0
 20
0
 30
0
  0
VERTEX
  8
LAYER_2
 10
47.5268
 20
184.0647
  0
VERTEX
  8
LAYER_2
 10
47.0142
 20
182.1523
  0
VERTEX
  8
LAYER_2
 10
46.5022
 20
184.0647
  0
SEQEND
  0
POLYLINE
  8
LAYER_2
 40
0.05
 41
0.05
 66
1
 10
0
 20
0
 30
0
  0
VERTEX
  8
LAYER_2
 10
47.5268
 20
186.3356
  0
VERTEX
  8
LAYER_2
 10
47.0142
 20
188.2483
  0
VERTEX
  8
LAYER_2
 10
46.5022
 20
186.3356
  0
SEQEND
  0
POLYLINE
  8
LAYER_2
 40
0.1129
 41
0.1129
 66
1
 10
0
 20
0
 30
0
  0
VERTEX
  8
LAYER_2
 10
47.0359
 20
188.2483
  0
VERTEX
  8
LAYER_2
 10
52.3269
 20
188.2483
  0
SEQEND
  0
POLYLINE
  8
LAYER_2
 40
0.1129
 41
0.1129
 66
1
 10
0
 20
0
 30
0
  0
VERTEX
  8
LAYER_2
 10
52.3279
 20
182.1526
  0
VERTEX
  8
LAYER_2
 10
47.0359
 20
182.1526
  0
SEQEND
  0
TEXT
  8
LAYER_2
 10
46.1275
 20
183.0442
 11
46.1275
 21
183.0442
 40
4.1557
 41
0.5
 50
89.99999999
  1
60
  0
POLYLINE
  8
LAYER_2
 40
0.1129
 41
0.1129
 66
1
 10
0
 20
0
 30
0
  0
VERTEX
  8
LAYER_2
 10
185.1432
 20
75.0542
  0
VERTEX
  8
LAYER_2
 10
166.2637
 20
75.0542
  0
SEQEND
  0
POLYLINE
  8
LAYER_2
 40
0.05
 41
0.05
 66
1
 10
0
 20
0
 30
0
  0
VERTEX
  8
LAYER_2
 10
184.7942
 20
75.5447
  0
VERTEX
  8
LAYER_2
 10
186.7059
 20
75.0328
  0
VERTEX
  8
LAYER_2
 10
184.7942
 20
74.5202
  0
SEQEND
  0
POLYLINE
  8
LAYER_2
 40
0.05
 41
0.05
 66
1
 10
0
 20
0
 30
0
  0
VERTEX
  8
LAYER_2
 10
166.6134
 20
75.5447
  0
VERTEX
  8
LAYER_2
 10
164.701
 20
75.0328
  0
VERTEX
  8
LAYER_2
 10
166.6134
 20
74.5202
  0
SEQEND
  0
POLYLINE
  8
LAYER_2
 40
0.1129
 41
0.1129
 66
1
 10
0
 20
0
 30
0
  0
VERTEX
  8
LAYER_2
 10
164.701
 20
75.0542
  0
VERTEX
  8
LAYER_2
 10
164.701
 20
78.0524
  0
SEQEND
  0
POLYLINE
  8
LAYER_2
 40
0.1129
 41
0.1129
 66
1
 10
0
 20
0
 30
0
  0
VERTEX
  8
LAYER_2
 10
186.7059
 20
78.0524
  0
VERTEX
  8
LAYER_2
 10
186.7059
 20
75.0542
  0
SEQEND
  0
POLYLINE
  8
LAYER_2
 40
0.1129
 41
0.1129
 66
1
 10
0
 20
0
 30
0
  0
VERTEX
  8
LAYER_2
 10
113.8297
 20
186.6849
  0
VERTEX
  8
LAYER_2
 10
113.8297
 20
177.1234
  0
SEQEND
  0
POLYLINE
  8
LAYER_2
 40
0.05
 41
0.05
 66
1
 10
0
 20
0
 30
0
  0
VERTEX
  8
LAYER_2
 10
113.3385
 20
186.3356
  0
VERTEX
  8
LAYER_2
 10
113.8511
 20
188.2483
  0
VERTEX
  8
LAYER_2
 10
114.3634
 20
186.3356
  0
SEQEND
  0
POLYLINE
  8
LAYER_2
 40
0.05
 41
0.05
 66
1
 10
0
 20
0
 30
0
  0
VERTEX
  8
LAYER_2
 10
113.3385
 20
177.473
  0
VERTEX
  8
LAYER_2
 10
113.8511
 20
175.5614
  0
VERTEX
  8
LAYER_2
 10
114.3634
 20
177.473
  0
SEQEND
  0
POLYLINE
  8
LAYER_2
 40
0.1129
 41
0.1129
 66
1
 10
0
 20
0
 30
0
  0
VERTEX
  8
LAYER_2
 10
113.8297
 20
175.5614
  0
VERTEX
  8
LAYER_2
 10
108.5387
 20
175.5614
  0
SEQEND
  0
POLYLINE
  8
LAYER_2
 40
0.1129
 41
0.1129
 66
1
 10
0
 20
0
 30
0
  0
VERTEX
  8
LAYER_2
 10
108.5381
 20
188.2483
  0
VERTEX
  8
LAYER_2
 10
113.8297
 20
188.2483
  0
SEQEND
  0
TEXT
  8
LAYER_2
 10
119.3477
 20
177.913
 11
119.3477
 21
177.913
 40
4.1557
 41
0.5
 50
89.99999999
  1
125
  0
POLYLINE
  8
LAYER_2
 40
0.1129
 41
0.1129
 66
1
 10
0
 20
0
 30
0
  0
VERTEX
  8
LAYER_2
 10
175.4253
 20
106.0858
  0
VERTEX
  8
LAYER_2
 10
185.1429
 20
106.0858
  0
SEQEND
  0
POLYLINE
  8
LAYER_2
 40
0.05
 41
0.05
 66
1
 10
0
 20
0
 30
0
  0
VERTEX
  8
LAYER_2
 10
175.7753
 20
105.5949
  0
VERTEX
  8
LAYER_2
 10
173.8626
 20
106.1069
  0
VERTEX
  8
LAYER_2
 10
175.7753
 20
106.6188
  0
SEQEND
  0
POLYLINE
  8
LAYER_2
 40
0.05
 41
0.05
 66
1
 10
0
 20
0
 30
0
  0
VERTEX
  8
LAYER_2
 10
184.7942
 20
105.5949
  0
VERTEX
  8
LAYER_2
 10
186.7059
 20
106.1069
  0
VERTEX
  8
LAYER_2
 10
184.7942
 20
106.6188
  0
SEQEND
  0
POLYLINE
  8
LAYER_2
 40
0.1129
 41
0.1129
 66
1
 10
0
 20
0
 30
0
  0
VERTEX
  8
LAYER_2
 10
186.7059
 20
106.0858
  0
VERTEX
  8
LAYER_2
 10
186.7059
 20
100.7942
  0
SEQEND
  0
POLYLINE
  8
LAYER_2
 40
0.1129
 41
0.1129
 66
1
 10
0
 20
0
 30
0
  0
VERTEX
  8
LAYER_2
 10
173.8626
 20
100.7938
  0
VERTEX
  8
LAYER_2
 10
173.8626
 20
106.0852
  0
SEQEND
  0
TEXT
  8
LAYER_2
 10
176.834
 20
107.3171
 11
176.834
 21
107.3171
 40
4.1557
 41
0.5
  1
125
  0
POLYLINE
  8
LAYER_2
 40
0.1129
 41
0.1129
 66
1
 10
0
 20
0
 30
0
  0
VERTEX
  8
LAYER_2
 10
144.3987
 20
106.0858
  0
VERTEX
  8
LAYER_2
 10
172.3006
 20
106.0858
  0
SEQEND
  0
POLYLINE
  8
LAYER_2
 40
0.05
 41
0.05
 66
1
 10
0
 20
0
 30
0
  0
VERTEX
  8
LAYER_2
 10
144.7488
 20
105.5949
  0
VERTEX
  8
LAYER_2
 10
142.836
 20
106.1069
  0
VERTEX
  8
LAYER_2
 10
144.7488
 20
106.6188
  0
SEQEND
  0
POLYLINE
  8
LAYER_2
 40
0.05
 41
0.05
 66
1
 10
0
 20
0
 30
0
  0
VERTEX
  8
LAYER_2
 10
171.9502
 20
105.5949
  0
VERTEX
  8
LAYER_2
 10
173.8626
 20
106.1069
  0
VERTEX
  8
LAYER_2
 10
171.9502
 20
106.6188
  0
SEQEND
  0
POLYLINE
  8
LAYER_2
 40
0.1129
 41
0.1129
 66
1
 10
0
 20
0
 30
0
  0
VERTEX
  8
LAYER_2
 10
173.8626
 20
106.0858
  0
VERTEX
  8
LAYER_2
 10
173.8626
 20
100.7942
  0
SEQEND
  0
POLYLINE
  8
LAYER_2
 40
0.1129
 41
0.1129
 66
1
 10
0
 20
0
 30
0
  0
VERTEX
  8
LAYER_2
 10
142.8368
 20
100.7938
  0
VERTEX
  8
LAYER_2
 10
142.8368
 20
106.0852
  0
SEQEND
  0
TEXT
  8
LAYER_2
 10
156.1731
 20
107.3171
 11
156.1731
 21
107.3171
 40
4.1557
 41
0.5
  1
320
  0
POLYLINE
  8
LAYER_2
 40
0.1129
 41
0.1129
 66
1
 10
0
 20
0
 30
0
  0
VERTEX
  8
LAYER_2
 10
67.7716
 20
102.9105
  0
VERTEX
  8
LAYER_2
 10
92.6576
 20
102.9105
  0
SEQEND
  0
POLYLINE
  8
LAYER_2
 40
0.05
 41
0.05
 66
1
 10
0
 20
0
 30
0
  0
VERTEX
  8
LAYER_2
 10
68.1212
 20
102.4199
  0
VERTEX
  8
LAYER_2
 10
66.2082
 20
102.9322
  0
VERTEX
  8
LAYER_2
 10
68.1212
 20
103.4441
  0
SEQEND
  0
POLYLINE
  8
LAYER_2
 40
0.05
 41
0.05
 66
1
 10
0
 20
0
 30
0
  0
VERTEX
  8
LAYER_2
 10
92.3082
 20
102.4199
  0
VERTEX
  8
LAYER_2
 10
94.2196
 20
102.9322
  0
VERTEX
  8
LAYER_2
 10
92.3082
 20
103.4441
  0
SEQEND
  0
POLYLINE
  8
LAYER_2
 40
0.1129
 41
0.1129
 66
1
 10
0
 20
0
 30
0
  0
VERTEX
  8
LAYER_2
 10
94.2206
 20
102.9105
  0
VERTEX
  8
LAYER_2
 10
94.2206
 20
97.6188
  0
SEQEND
  0
POLYLINE
  8
LAYER_2
 40
0.1129
 41
0.1129
 66
1
 10
0
 20
0
 30
0
  0
VERTEX
  8
LAYER_2
 10
66.2099
 20
97.6188
  0
VERTEX
  8
LAYER_2
 10
66.2099
 20
102.9105
  0
SEQEND
  0
TEXT
  8
LAYER_2
 10
76.827
 20
104.1421
 11
76.827
 21
104.1421
 40
4.1557
 41
0.5
  1
280
  0
POLYLINE
  8
LAYER_2
 40
0.1129
 41
0.1129
 66
1
 10
0
 20
0
 30
0
  0
VERTEX
  8
LAYER_2
 10
56.7879
 20
197.692
  0
VERTEX
  8
LAYER_2
 10
103.6626
 20
197.692
  0
SEQEND
  0
POLYLINE
  8
LAYER_2
 40
0.05
 41
0.05
 66
1
 10
0
 20
0
 30
0
  0
VERTEX
  8
LAYER_2
 10
57.1369
 20
197.2007
  0
VERTEX
  8
LAYER_2
 10
55.2245
 20
197.7123
  0
VERTEX
  8
LAYER_2
 10
57.1369
 20
198.2253
  0
SEQEND
  0
POLYLINE
  8
LAYER_2
 40
0.05
 41
0.05
 66
1
 10
0
 20
0
 30
0
  0
VERTEX
  8
LAYER_2
 10
103.3139
 20
197.2007
  0
VERTEX
  8
LAYER_2
 10
105.2263
 20
197.7123
  0
VERTEX
  8
LAYER_2
 10
103.3139
 20
198.2253
  0
SEQEND
  0
POLYLINE
  8
LAYER_2
 40
0.1129
 41
0.1129
 66
1
 10
0
 20
0
 30
0
  0
VERTEX
  8
LAYER_2
 10
105.2263
 20
197.692
  0
VERTEX
  8
LAYER_2
 10
105.2263
 20
192.3996
  0
SEQEND
  0
POLYLINE
  8
LAYER_2
 40
0.1129
 41
0.1129
 66
1
 10
0
 20
0
 30
0
  0
VERTEX
  8
LAYER_2
 10
55.2256
 20
192.3996
  0
VERTEX
  8
LAYER_2
 10
55.2256
 20
197.692
  0
SEQEND
  0
TEXT
  8
LAYER_2
 10
76.6134
 20
198.9227
 11
76.6134
 21
198.9227
 40
4.1557
 41
0.5
  1
500
  0
POLYLINE
  8
LAYER_2
 40
0.1129
 41
0.1129
 66
1
 10
0
 20
0
 30
0
  0
VERTEX
  8
LAYER_2
 10
113.8297
 20
173.998
  0
VERTEX
  8
LAYER_2
 10
113.8297
 20
145.1536
  0
SEQEND
  0
POLYLINE
  8
LAYER_2
 40
0.05
 41
0.05
 66
1
 10
0
 20
0
 30
0
  0
VERTEX
  8
LAYER_2
 10
113.3385
 20
173.6494
  0
VERTEX
  8
LAYER_2
 10
113.8508
 20
175.5614
  0
VERTEX
  8
LAYER_2
 10
114.3634
 20
173.6494
  0
SEQEND
  0
POLYLINE
  8
LAYER_2
 40
0.05
 41
0.05
 66
1
 10
0
 20
0
 30
0
  0
VERTEX
  8
LAYER_2
 10
113.3385
 20
145.5029
  0
VERTEX
  8
LAYER_2
 10
113.8508
 20
143.5902
  0
VERTEX
  8
LAYER_2
 10
114.3634
 20
145.5029
  0
SEQEND
  0
POLYLINE
  8
LAYER_2
 40
0.1129
 41
0.1129
 66
1
 10
0
 20
0
 30
0
  0
VERTEX
  8
LAYER_2
 10
113.8297
 20
143.5909
  0
VERTEX
  8
LAYER_2
 10
108.5381
 20
143.5909
  0
SEQEND
  0
POLYLINE
  8
LAYER_2
 40
0.1129
 41
0.1129
 66
1
 10
0
 20
0
 30
0
  0
VERTEX
  8
LAYER_2
 10
108.5381
 20
175.5607
  0
VERTEX
  8
LAYER_2
 10
113.8297
 20
175.5607
  0
SEQEND
  0
TEXT
  8
LAYER_2
 10
119.3471
 20
156.4358
 11
119.3471
 21
156.4358
 40
4.1557
 41
0.5
 50
89.99999999
  1
320
  0
POLYLINE
  8
LAYER_2
 40
0.1129
 41
0.1129
 66
1
 10
0
 20
0
 30
0
  0
VERTEX
  8
LAYER_2
 10
195.6914
 20
94.7243
  0
VERTEX
  8
LAYER_2
 10
195.6914
 20
84.7084
  0
SEQEND
  0
POLYLINE
  8
LAYER_2
 40
0.05
 41
0.05
 66
1
 10
0
 20
0
 30
0
  0
VERTEX
  8
LAYER_2
 10
195.1998
 20
94.3746
  0
VERTEX
  8
LAYER_2
 10
195.7124
 20
96.287
  0
VERTEX
  8
LAYER_2
 10
196.225
 20
94.3746
  0
SEQEND
  0
POLYLINE
  8
LAYER_2
 40
0.05
 41
0.05
 66
1
 10
0
 20
0
 30
0
  0
VERTEX
  8
LAYER_2
 10
195.1998
 20
85.0577
  0
VERTEX
  8
LAYER_2
 10
195.7124
 20
83.1457
  0
VERTEX
  8
LAYER_2
 10
196.225
 20
85.0577
  0
SEQEND
  0
POLYLINE
  8
LAYER_2
 40
0.1129
 41
0.1129
 66
1
 10
0
 20
0
 30
0
  0
VERTEX
  8
LAYER_2
 10
195.6914
 20
83.1457
  0
VERTEX
  8
LAYER_2
 10
190.3997
 20
83.1457
  0
SEQEND
  0
POLYLINE
  8
LAYER_2
 40
0.1129
 41
0.1129
 66
1
 10
0
 20
0
 30
0
  0
VERTEX
  8
LAYER_2
 10
190.3997
 20
96.287
  0
VERTEX
  8
LAYER_2
 10
195.6914
 20
96.287
  0
SEQEND
  0
TEXT
  8
LAYER_2
 10
203.0884
 20
85.4135
 11
203.0884
 21
85.4135
 40
4.1557
 41
0.5
 50
89.99999999
  1
130
  0
POLYLINE
  8
LAYER_2
 40
0.1129
 41
0.1129
 66
1
 10
0
 20
0
 30
0
  0
VERTEX
  8
LAYER_2
 10
113.4776
 20
94.7243
  0
VERTEX
  8
LAYER_2
 10
113.4776
 20
90.9981
  0
SEQEND
  0
POLYLINE
  8
LAYER_2
 40
0.05
 41
0.05
 66
1
 10
0
 20
0
 30
0
  0
VERTEX
  8
LAYER_2
 10
112.986
 20
94.3746
  0
VERTEX
  8
LAYER_2
 10
113.498
 20
96.287
  0
VERTEX
  8
LAYER_2
 10
114.0106
 20
94.3746
  0
SEQEND
  0
POLYLINE
  8
LAYER_2
 40
0.05
 41
0.05
 66
1
 10
0
 20
0
 30
0
  0
VERTEX
  8
LAYER_2
 10
112.986
 20
91.3474
  0
VERTEX
  8
LAYER_2
 10
113.498
 20
89.4354
  0
VERTEX
  8
LAYER_2
 10
114.0106
 20
91.3474
  0
SEQEND
  0
POLYLINE
  8
LAYER_2
 40
0.1129
 41
0.1129
 66
1
 10
0
 20
0
 30
0
  0
VERTEX
  8
LAYER_2
 10
113.4776
 20
89.4354
  0
VERTEX
  8
LAYER_2
 10
108.1857
 20
89.4354
  0
SEQEND
  0
POLYLINE
  8
LAYER_2
 40
0.1129
 41
0.1129
 66
1
 10
0
 20
0
 30
0
  0
VERTEX
  8
LAYER_2
 10
108.1857
 20
96.287
  0
VERTEX
  8
LAYER_2
 10
113.4766
 20
96.287
  0
SEQEND
  0
TEXT
  8
LAYER_2
 10
118.0751
 20
89.9007
 11
118.0751
 21
89.9007
 40
4.1557
 41
0.5
 50
89.99999999
  1
45
  0
POLYLINE
  8
LAYER_2
 40
0.1129
 41
0.1129
 66
1
 10
0
 20
0
 30
0
  0
VERTEX
  8
LAYER_2
 10
113.8297
 20
143.5902
  0
VERTEX
  8
LAYER_2
 10
113.8297
 20
142.0654
  0
SEQEND
  0
POLYLINE
  8
LAYER_2
 40
0.05
 41
0.05
 66
1
 10
0
 20
0
 30
0
  0
VERTEX
  8
LAYER_2
 10
113.3385
 20
143.2412
  0
VERTEX
  8
LAYER_2
 10
113.8508
 20
145.1529
  0
VERTEX
  8
LAYER_2
 10
114.3634
 20
143.2412
  0
SEQEND
  0
POLYLINE
  8
LAYER_2
 40
0.05
 41
0.05
 66
1
 10
0
 20
0
 30
0
  0
VERTEX
  8
LAYER_2
 10
113.3385
 20
142.4154
  0
VERTEX
  8
LAYER_2
 10
113.8508
 20
140.5027
  0
VERTEX
  8
LAYER_2
 10
114.3634
 20
142.4154
  0
SEQEND
  0
POLYLINE
  8
LAYER_2
 40
0.1129
 41
0.1129
 66
1
 10
0
 20
0
 30
0
  0
VERTEX
  8
LAYER_2
 10
113.8297
 20
142.0661
  0
VERTEX
  8
LAYER_2
 10
108.5381
 20
142.0661
  0
SEQEND
  0
POLYLINE
  8
LAYER_2
 40
0.1129
 41
0.1129
 66
1
 10
0
 20
0
 30
0
  0
VERTEX
  8
LAYER_2
 10
108.5381
 20
143.5902
  0
VERTEX
  8
LAYER_2
 10
113.8297
 20
143.5902
  0
SEQEND
  0
TEXT
  8
LAYER_2
 10
118.9943
 20
140.09
 11
118.9943
 21
140.09
 40
4.1557
 41
0.5
 50
89.99999999
  1
15
  0
POLYLINE
  8
LAYER_2
 40
0.1129
 41
0.1129
 66
1
 10
0
 20
0
 30
0
  0
VERTEX
  8
LAYER_2
 10
141.3244
 20
106.0858
  0
VERTEX
  8
LAYER_2
 10
142.8485
 20
106.0858
  0
SEQEND
  0
POLYLINE
  8
LAYER_2
 40
0.05
 41
0.05
 66
1
 10
0
 20
0
 30
0
  0
VERTEX
  8
LAYER_2
 10
141.6734
 20
105.5949
  0
VERTEX
  8
LAYER_2
 10
139.7617
 20
106.1069
  0
VERTEX
  8
LAYER_2
 10
141.6734
 20
106.6188
  0
SEQEND
  0
POLYLINE
  8
LAYER_2
 40
0.05
 41
0.05
 66
1
 10
0
 20
0
 30
0
  0
VERTEX
  8
LAYER_2
 10
142.4988
 20
105.5949
  0
VERTEX
  8
LAYER_2
 10
144.4112
 20
106.1069
  0
VERTEX
  8
LAYER_2
 10
142.4988
 20
106.6188
  0
SEQEND
  0
POLYLINE
  8
LAYER_2
 40
0.1129
 41
0.1129
 66
1
 10
0
 20
0
 30
0
  0
VERTEX
  8
LAYER_2
 10
142.8485
 20
106.0858
  0
VERTEX
  8
LAYER_2
 10
142.8485
 20
100.7942
  0
SEQEND
  0
POLYLINE
  8
LAYER_2
 40
0.1129
 41
0.1129
 66
1
 10
0
 20
0
 30
0
  0
VERTEX
  8
LAYER_2
 10
141.3244
 20
100.7938
  0
VERTEX
  8
LAYER_2
 10
141.3244
 20
106.0852
  0
SEQEND
  0
TEXT
  8
LAYER_2
 10
140.1334
 20
107.6706
 11
140.1334
 21
107.6706
 40
4.1557
 41
0.5
  1
15
  0
POLYLINE
  8
LAYER_2
 40
0.2222
 41
0.2222
 66
1
 10
0
 20
0
 30
0
  0
VERTEX
  8
LAYER_2
 10
186.7059
 20
94.8679
  0
VERTEX
  8
LAYER_2
 10
186.7059
 20
83.0919
  0
SEQEND
  0
POLYLINE
  8
LAYER_2
 40
0.2222
 41
0.2222
 66
1
 10
0
 20
0
 30
0
  0
VERTEX
  8
LAYER_2
 10
186.7059
 20
83.0923
  0
VERTEX
  8
LAYER_2
 10
186.7059
 20
95.7781
  0
VERTEX
  8
LAYER_2
 10
186.6828
 20
95.9325
  0
VERTEX
  8
LAYER_2
 10
186.6132
 20
96.0748
  0
VERTEX
  8
LAYER_2
 10
186.4968
 20
96.1922
  0
VERTEX
  8
LAYER_2
 10
186.3573
 20
96.2632
  0
VERTEX
  8
LAYER_2
 10
186.2046
 20
96.2866
  0
SEQEND
  0
INSERT
  8
LAYER_2
  2
AIGNBL0201002A
 10
0
 20
0
 30
0
  0
INSERT
  8
LAYER_2
  2
AIGNBL0201002B
 10
0
 20
0
 30
0
  0
INSERT
  8
LAYER_2
  2
AIGNBL0201002C
 10
0
 20
0
 30
0
  0
POLYLINE
  8
LAYER_2
 40
0.1129
 41
0.1129
 66
1
 10
0
 20
0
 30
0
  0
VERTEX
  8
LAYER_2
 10
185.1412
 20
126.2641
  0
VERTEX
  8
LAYER_2
 10
138.2675
 20
126.2641
  0
SEQEND
  0
POLYLINE
  8
LAYER_2
 40
0.05
 41
0.05
 66
1
 10
0
 20
0
 30
0
  0
VERTEX
  8
LAYER_2
 10
184.7918
 20
126.7551
  0
VERTEX
  8
LAYER_2
 10
186.7042
 20
126.2431
  0
VERTEX
  8
LAYER_2
 10
184.7918
 20
125.7298
  0
SEQEND
  0
POLYLINE
  8
LAYER_2
 40
0.05
 41
0.05
 66
1
 10
0
 20
0
 30
0
  0
VERTEX
  8
LAYER_2
 10
138.6162
 20
126.7551
  0
VERTEX
  8
LAYER_2
 10
136.7041
 20
126.2431
  0
VERTEX
  8
LAYER_2
 10
138.6162
 20
125.7298
  0
SEQEND
  0
POLYLINE
  8
LAYER_2
 40
0.1129
 41
0.1129
 66
1
 10
0
 20
0
 30
0
  0
VERTEX
  8
LAYER_2
 10
136.7041
 20
126.2641
  0
VERTEX
  8
LAYER_2
 10
136.7041
 20
131.5558
  0
SEQEND
  0
POLYLINE
  8
LAYER_2
 40
0.1129
 41
0.1129
 66
1
 10
0
 20
0
 30
0
  0
VERTEX
  8
LAYER_2
 10
186.7042
 20
131.5561
  0
VERTEX
  8
LAYER_2
 10
186.7042
 20
126.2645
  0
SEQEND
  0
TEXT
  8
LAYER_2
 10
157.5518
 20
121.2815
 11
157.5518
 21
121.2815
 40
4.1465
 41
0.5
  1
500
  0
POLYLINE
  8
LAYER_2
 40
0.1129
 41
0.1129
 66
1
 10
0
 20
0
 30
0
  0
VERTEX
  8
LAYER_2
 10
199.687
 20
186.6856
  0
VERTEX
  8
LAYER_2
 10
199.687
 20
143.6284
  0
SEQEND
  0
POLYLINE
  8
LAYER_2
 40
0.05
 41
0.05
 66
1
 10
0
 20
0
 30
0
  0
VERTEX
  8
LAYER_2
 10
199.1961
 20
186.3356
  0
VERTEX
  8
LAYER_2
 10
199.7077
 20
188.2483
  0
VERTEX
  8
LAYER_2
 10
200.2207
 20
186.3356
  0
SEQEND
  0
POLYLINE
  8
LAYER_2
 40
0.05
 41
0.05
 66
1
 10
0
 20
0
 30
0
  0
VERTEX
  8
LAYER_2
 10
199.1961
 20
143.9778
  0
VERTEX
  8
LAYER_2
 10
199.7077
 20
142.0651
  0
VERTEX
  8
LAYER_2
 10
200.2207
 20
143.9778
  0
SEQEND
  0
POLYLINE
  8
LAYER_2
 40
0.1129
 41
0.1129
 66
1
 10
0
 20
0
 30
0
  0
VERTEX
  8
LAYER_2
 10
199.687
 20
142.0661
  0
VERTEX
  8
LAYER_2
 10
194.3957
 20
142.0661
  0
SEQEND
  0
POLYLINE
  8
LAYER_2
 40
0.1129
 41
0.1129
 66
1
 10
0
 20
0
 30
0
  0
VERTEX
  8
LAYER_2
 10
194.3957
 20
188.2476
  0
VERTEX
  8
LAYER_2
 10
199.6867
 20
188.2476
  0
SEQEND
  0
TEXT
  8
LAYER_2
 10
204.6373
 20
161.4473
 11
204.6373
 21
161.4473
 40
4.1465
 41
0.5
 50
89.99999999
  1
460
  0
POLYLINE
  8
LAYER_2
 40
0.1129
 41
0.1129
 66
1
 10
0
 20
0
 30
0
  0
VERTEX
  8
LAYER_2
 10
193.0266
 20
186.6883
  0
VERTEX
  8
LAYER_2
 10
193.0266
 20
159.8101
  0
SEQEND
  0
POLYLINE
  8
LAYER_2
 40
0.05
 41
0.05
 66
1
 10
0
 20
0
 30
0
  0
VERTEX
  8
LAYER_2
 10
192.535
 20
186.339
  0
VERTEX
  8
LAYER_2
 10
193.0477
 20
188.251
  0
VERTEX
  8
LAYER_2
 10
193.5603
 20
186.339
  0
SEQEND
  0
POLYLINE
  8
LAYER_2
 40
0.05
 41
0.05
 66
1
 10
0
 20
0
 30
0
  0
VERTEX
  8
LAYER_2
 10
192.535
 20
160.1594
  0
VERTEX
  8
LAYER_2
 10
193.0477
 20
158.2467
  0
VERTEX
  8
LAYER_2
 10
193.5603
 20
160.1594
  0
SEQEND
  0
POLYLINE
  8
LAYER_2
 40
0.1129
 41
0.1129
 66
1
 10
0
 20
0
 30
0
  0
VERTEX
  8
LAYER_2
 10
193.0266
 20
158.2467
  0
VERTEX
  8
LAYER_2
 10
187.735
 20
158.2467
  0
SEQEND
  0
POLYLINE
  8
LAYER_2
 40
0.1129
 41
0.1129
 66
1
 10
0
 20
0
 30
0
  0
VERTEX
  8
LAYER_2
 10
187.735
 20
188.2503
  0
VERTEX
  8
LAYER_2
 10
193.0266
 20
188.2503
  0
SEQEND
  0
TEXT
  8
LAYER_2
 10
197.2711
 20
168.6592
 11
197.2711
 21
168.6592
 40
4.1465
 41
0.5
 50
89.99999999
  1
300
  0
POLYLINE
  8
LAYER_2
 40
0.1129
 41
0.1129
 66
1
 10
0
 20
0
 30
0
  0
VERTEX
  8
LAYER_2
 10
167.6414
 20
134.2533
  0
VERTEX
  8
LAYER_2
 10
155.7669
 20
134.2533
  0
SEQEND
  0
POLYLINE
  8
LAYER_2
 40
0.05
 41
0.05
 66
1
 10
0
 20
0
 30
0
  0
VERTEX
  8
LAYER_2
 10
167.2921
 20
134.7446
  0
VERTEX
  8
LAYER_2
 10
169.2045
 20
134.2323
  0
VERTEX
  8
LAYER_2
 10
167.2921
 20
133.7197
  0
SEQEND
  0
POLYLINE
  8
LAYER_2
 40
0.05
 41
0.05
 66
1
 10
0
 20
0
 30
0
  0
VERTEX
  8
LAYER_2
 10
156.1166
 20
134.7446
  0
VERTEX
  8
LAYER_2
 10
154.2035
 20
134.2323
  0
VERTEX
  8
LAYER_2
 10
156.1166
 20
133.7197
  0
SEQEND
  0
POLYLINE
  8
LAYER_2
 40
0.1129
 41
0.1129
 66
1
 10
0
 20
0
 30
0
  0
VERTEX
  8
LAYER_2
 10
154.2042
 20
134.2533
  0
VERTEX
  8
LAYER_2
 10
154.2042
 20
139.545
  0
SEQEND
  0
POLYLINE
  8
LAYER_2
 40
0.1129
 41
0.1129
 66
1
 10
0
 20
0
 30
0
  0
VERTEX
  8
LAYER_2
 10
169.2041
 20
139.5457
  0
VERTEX
  8
LAYER_2
 10
169.2041
 20
134.254
  0
SEQEND
  0
TEXT
  8
LAYER_2
 10
157.0819
 20
129.4794
 11
157.0819
 21
129.4794
 40
4.1465
 41
0.5
  1
150
  0
INSERT
  8
LAYER_2
  2
AIGNBL0201002D
 10
0
 20
0
 30
0
  0
INSERT
  8
LAYER_2
  2
AIGNBL0201002E
 10
0
 20
0
 30
0
  0
INSERT
  8
LAYER_2
  2
AIGNBL0201002F
 10
0
 20
0
 30
0
  0
INSERT
  8
LAYER_2
  2
AIGNBL02010030
 10
0
 20
0
 30
0
  0
TEXT
  8
LAYER_2
 10
172.1824
 20
70.5624
 11
172.1824
 21
70.5624
 40
4.1557
 41
0.5
  1
220
  0
ENDSEC
  0
EOF
