  0
SECTION
  2
HEADER
  9
$ACADVER
  1
AC1009
  9
$LUNITS
 70
2
  9
$LUPREC
 70
4
  9
$LTSCALE
 40
1.0
  9
$EXTMIN
 10
16.0764
 20
-7.7766
 30
0
  9
$EXTMAX
 10
206.0763
 20
269.2235
 30
0
  0
ENDSEC
  0
SECTION
  2
TABLES
  0
TABLE
  2
LTYPE
 70
256
  0
ENDTAB
  0
TABLE
  2
LAYER
 70
6
  0
LAYER
  2
LAYER_1
 70
64
 62
7
  6
CONTINUOUS
  0
LAYER
  2
LAYER_2
 70
64
 62
7
  6
CONTINUOUS
  0
LAYER
  2
LAYER_3
 70
64
 62
7
  6
CONTINUOUS
  0
LAYER
  2
LAYER_4
 70
64
 62
7
  6
CONTINUOUS
  0
LAYER
  2
LAYER_5
 70
64
 62
7
  6
CONTINUOUS
  0
LAYER
  2
LAYER_6
 70
64
 62
7
  6
CONTINUOUS
  0
ENDTAB
  0
TABLE
  2
STYLE
 70
6
  0
STYLE
  2
STANDARD
 70
0
 40
0
 50
0
 71
0
 41
0
 42
0
  3
TXT
  4
BIGFONT
  0
ENDTAB
  0
ENDSEC
  0
SECTION
  2
BLOCKS
  0
BLOCK
  8
LAYER_6
  2
AIGNBL06040006
 70
64
 10
0
 20
0
 30
0
  3
AIGNBL06040006
  0
POLYLINE
  8
LAYER_6
 40
0.05
 41
0.05
 66
1
 10
0
 20
0
 30
0
 70
1
  0
VERTEX
  8
LAYER_6
 10
129.5759
 20
-1.9017
  0
VERTEX
  8
LAYER_6
 10
129.1615
 20
-2.9063
  0
VERTEX
  8
LAYER_6
 10
128.6292
 20
-2.9063
  0
VERTEX
  8
LAYER_6
 10
129.9848
 20
0.2856
  0
VERTEX
  8
LAYER_6
 10
130.6063
 20
0.2856
  0
VERTEX
  8
LAYER_6
 10
131.9682
 20
-2.9063
  0
VERTEX
  8
LAYER_6
 10
131.417
 20
-2.9063
  0
VERTEX
  8
LAYER_6
 10
130.9908
 20
-1.9017
  0
SEQEND
  0
POLYLINE
  8
LAYER_6
 40
0.05
 41
0.05
 66
1
 10
0
 20
0
 30
0
 70
1
  0
VERTEX
  8
LAYER_6
 10
130.8843
 20
-1.5806
  0
VERTEX
  8
LAYER_6
 10
130.4937
 20
-0.6611
  0
VERTEX
  8
LAYER_6
 10
130.2863
 20
-0.0789
  0
VERTEX
  8
LAYER_6
 10
130.2746
 20
-0.0789
  0
VERTEX
  8
LAYER_6
 10
130.073
 20
-0.6573
  0
VERTEX
  8
LAYER_6
 10
129.6827
 20
-1.5806
  0
SEQEND
  0
ENDBLK
  0
BLOCK
  8
LAYER_6
  2
AIGNBL06040007
 70
64
 10
0
 20
0
 30
0
  3
AIGNBL06040007
  0
POLYLINE
  8
LAYER_6
 40
0.05
 41
0.05
 66
1
 10
0
 20
0
 30
0
 70
1
  0
VERTEX
  8
LAYER_6
 10
135.6682
 20
-3.3752
 42
-0.01590442139
  0
VERTEX
  8
LAYER_6
 10
134.1406
 20
-3.0055
  0
VERTEX
  8
LAYER_6
 10
133.8978
 20
-2.9586
 42
-0.09413929591
  0
VERTEX
  8
LAYER_6
 10
133.0892
 20
-2.7867
 42
-0.1068219955
  0
VERTEX
  8
LAYER_6
 10
132.5221
 20
-2.3895
 42
-0.1913088984
  0
VERTEX
  8
LAYER_6
 10
132.1397
 20
-1.3439
 42
-0.1037337018
  0
VERTEX
  8
LAYER_6
 10
132.2786
 20
-0.6495
 42
-0.2229654776
  0
VERTEX
  8
LAYER_6
 10
133.3175
 20
0.2396
 42
-0.07415788599
  0
VERTEX
  8
LAYER_6
 10
133.9987
 20
0.3376
 42
-0.09141547712
  0
VERTEX
  8
LAYER_6
 10
134.7756
 20
0.2029
 42
-0.2208357411
  0
VERTEX
  8
LAYER_6
 10
135.7019
 20
-0.7397
 42
-0.07993307355
  0
VERTEX
  8
LAYER_6
 10
135.7864
 20
-1.2774
 42
-0.1063866822
  0
VERTEX
  8
LAYER_6
 10
135.6435
 20
-1.9875
 42
-0.2277750027
  0
VERTEX
  8
LAYER_6
 10
134.6498
 20
-2.8071
  0
VERTEX
  8
LAYER_6
 10
134.6498
 20
-2.826
  0
VERTEX
  8
LAYER_6
 10
135.8163
 20
-3.0296
  0
SEQEND
  0
POLYLINE
  8
LAYER_6
 40
0.05
 41
0.05
 66
1
 10
0
 20
0
 30
0
 70
1
  0
VERTEX
  8
LAYER_6
 10
135.242
 20
-1.2957
 42
0.1155159286
  0
VERTEX
  8
LAYER_6
 10
135.0943
 20
-0.6577
 42
0.2893632681
  0
VERTEX
  8
LAYER_6
 10
133.9804
 20
0.0014
 42
0.1181347236
  0
VERTEX
  8
LAYER_6
 10
133.3513
 20
-0.1381
 42
0.130394181
  0
VERTEX
  8
LAYER_6
 10
132.9142
 20
-0.5289
 42
0.1498939419
  0
VERTEX
  8
LAYER_6
 10
132.6903
 20
-1.3336
 42
0.1187923829
  0
VERTEX
  8
LAYER_6
 10
132.8324
 20
-1.9598
 42
0.2872436897
  0
VERTEX
  8
LAYER_6
 10
133.957
 20
-2.6228
 42
0.1213423942
  0
VERTEX
  8
LAYER_6
 10
134.5918
 20
-2.4769
 42
0.1309340911
  0
VERTEX
  8
LAYER_6
 10
135.0283
 20
-2.0753
 42
0.1440639306
  0
SEQEND
  0
ENDBLK
  0
BLOCK
  8
LAYER_6
  2
AIGNBL06040008
 70
64
 10
0
 20
0
 30
0
  3
AIGNBL06040008
  0
POLYLINE
  8
LAYER_6
 40
0.05
 41
0.05
 66
1
 10
0
 20
0
 30
0
 70
1
  0
VERTEX
  8
LAYER_6
 10
136.9115
 20
0.2856
  0
VERTEX
  8
LAYER_6
 10
136.9115
 20
-1.604
 42
0.1245662292
  0
VERTEX
  8
LAYER_6
 10
137.0415
 20
-2.2002
 42
0.1608226014
  0
VERTEX
  8
LAYER_6
 10
137.3893
 20
-2.5306
 42
0.1085933755
  0
VERTEX
  8
LAYER_6
 10
137.841
 20
-2.6228
 42
0.1363071186
  0
VERTEX
  8
LAYER_6
 10
138.4083
 20
-2.4865
 42
0.1572655498
  0
VERTEX
  8
LAYER_6
 10
138.716
 20
-2.1307
 42
0.1010048886
  0
VERTEX
  8
LAYER_6
 10
138.8118
 20
-1.604
  0
VERTEX
  8
LAYER_6
 10
138.8118
 20
0.2856
  0
VERTEX
  8
LAYER_6
 10
139.3328
 20
0.2856
  0
VERTEX
  8
LAYER_6
 10
139.3328
 20
-1.5758
 42
-0.1114113393
  0
VERTEX
  8
LAYER_6
 10
139.1968
 20
-2.2537
 42
-0.1324547527
  0
VERTEX
  8
LAYER_6
 10
138.8235
 20
-2.6942
 42
-0.1131342628
  0
VERTEX
  8
LAYER_6
 10
138.1922
 20
-2.9314
 42
-0.04549211769
  0
VERTEX
  8
LAYER_6
 10
137.8231
 20
-2.9586
 42
-0.1002764947
  0
VERTEX
  8
LAYER_6
 10
137.0985
 20
-2.8291
 42
-0.2729567785
  0
VERTEX
  8
LAYER_6
 10
136.4121
 20
-1.8973
 42
-0.04477569465
  0
VERTEX
  8
LAYER_6
 10
136.3906
 20
-1.5944
  0
VERTEX
  8
LAYER_6
 10
136.3906
 20
0.2856
  0
SEQEND
  0
ENDBLK
  0
BLOCK
  8
LAYER_6
  2
AIGNBL06040009
 70
64
 10
0
 20
0
 30
0
  3
AIGNBL06040009
  0
POLYLINE
  8
LAYER_6
 40
0.05
 41
0.05
 66
1
 10
0
 20
0
 30
0
 70
1
  0
VERTEX
  8
LAYER_6
 10
140.8131
 20
-1.9017
  0
VERTEX
  8
LAYER_6
 10
140.3983
 20
-2.9063
  0
VERTEX
  8
LAYER_6
 10
139.866
 20
-2.9063
  0
VERTEX
  8
LAYER_6
 10
141.2217
 20
0.2856
  0
VERTEX
  8
LAYER_6
 10
141.8428
 20
0.2856
  0
VERTEX
  8
LAYER_6
 10
143.2047
 20
-2.9063
  0
VERTEX
  8
LAYER_6
 10
142.6542
 20
-2.9063
  0
VERTEX
  8
LAYER_6
 10
142.228
 20
-1.9017
  0
SEQEND
  0
POLYLINE
  8
LAYER_6
 40
0.05
 41
0.05
 66
1
 10
0
 20
0
 30
0
 70
1
  0
VERTEX
  8
LAYER_6
 10
142.1212
 20
-1.5806
  0
VERTEX
  8
LAYER_6
 10
141.7302
 20
-0.6611
  0
VERTEX
  8
LAYER_6
 10
141.5228
 20
-0.0789
  0
VERTEX
  8
LAYER_6
 10
141.5111
 20
-0.0789
  0
VERTEX
  8
LAYER_6
 10
141.3099
 20
-0.6573
  0
VERTEX
  8
LAYER_6
 10
140.9192
 20
-1.5806
  0
SEQEND
  0
ENDBLK
  0
BLOCK
  8
LAYER_6
  2
AIGNBL0604000A
 70
64
 10
0
 20
0
 30
0
  3
AIGNBL0604000A
  0
POLYLINE
  8
LAYER_6
 40
0.05
 41
0.05
 66
1
 10
0
 20
0
 30
0
 70
1
  0
VERTEX
  8
LAYER_6
 10
144.0866
 20
0.2477
 42
-0.03224903245
  0
VERTEX
  8
LAYER_6
 10
145.0757
 20
0.3097
 42
-0.09041197006
  0
VERTEX
  8
LAYER_6
 10
145.9402
 20
0.1785
 42
-0.04994368477
  0
VERTEX
  8
LAYER_6
 10
146.1944
 20
0.0444
 42
-0.2487132909
  0
VERTEX
  8
LAYER_6
 10
146.5433
 20
-0.6236
 42
-0.2272146381
  0
VERTEX
  8
LAYER_6
 10
146.2357
 20
-1.3053
 42
-0.1170283825
  0
VERTEX
  8
LAYER_6
 10
145.6436
 20
-1.5863
 42
-0.05742943746
  0
VERTEX
  8
LAYER_6
 10
145.0161
 20
-1.6561
  0
VERTEX
  8
LAYER_6
 10
144.602
 20
-1.6275
  0
VERTEX
  8
LAYER_6
 10
144.602
 20
-2.9063
  0
VERTEX
  8
LAYER_6
 10
144.0866
 20
-2.9063
  0
SEQEND
  0
POLYLINE
  8
LAYER_6
 40
0.05
 41
0.05
 66
1
 10
0
 20
0
 30
0
 70
1
  0
VERTEX
  8
LAYER_6
 10
144.602
 20
-1.2912
 42
0.04008411413
  0
VERTEX
  8
LAYER_6
 10
145.0278
 20
-1.3246
 42
0.1145518016
  0
VERTEX
  8
LAYER_6
 10
145.6752
 20
-1.1988
 42
0.2903179778
  0
VERTEX
  8
LAYER_6
 10
146.029
 20
-0.6425
 42
0.1914957055
  0
VERTEX
  8
LAYER_6
 10
145.8927
 20
-0.2718
 42
0.1589955053
  0
VERTEX
  8
LAYER_6
 10
145.4418
 20
-0.0491
 42
0.06415510501
  0
VERTEX
  8
LAYER_6
 10
145.0878
 20
-0.0176
 42
0.06838414011
  0
VERTEX
  8
LAYER_6
 10
144.602
 20
-0.0506
  0
SEQEND
  0
ENDBLK
  0
BLOCK
  8
LAYER_6
  2
AIGNBL0604000B
 70
64
 10
0
 20
0
 30
0
  3
AIGNBL0604000B
  0
POLYLINE
  8
LAYER_6
 40
0.05
 41
0.05
 66
1
 10
0
 20
0
 30
0
 70
1
  0
VERTEX
  8
LAYER_6
 10
147.859
 20
0.03
 42
-0.2988654244
  0
VERTEX
  8
LAYER_6
 10
147.7179
 20
-0.186
 42
-0.1045089306
  0
VERTEX
  8
LAYER_6
 10
147.5269
 20
-0.226
 42
-0.3827056298
  0
VERTEX
  8
LAYER_6
 10
147.2131
 20
0.03
 42
-0.2852467472
  0
VERTEX
  8
LAYER_6
 10
147.3622
 20
0.2515
 42
-0.1078871437
  0
VERTEX
  8
LAYER_6
 10
147.5386
 20
0.2901
 42
-0.2463889277
  0
VERTEX
  8
LAYER_6
 10
147.8188
 20
0.1635
 42
-0.1466000164
  0
SEQEND
  0
POLYLINE
  8
LAYER_6
 40
0.05
 41
0.05
 66
1
 10
0
 20
0
 30
0
 70
1
  0
VERTEX
  8
LAYER_6
 10
147.2778
 20
-2.9063
  0
VERTEX
  8
LAYER_6
 10
147.2778
 20
-0.6143
  0
VERTEX
  8
LAYER_6
 10
147.7987
 20
-0.6143
  0
VERTEX
  8
LAYER_6
 10
147.7987
 20
-2.9063
  0
SEQEND
  0
ENDBLK
  0
BLOCK
  8
LAYER_6
  2
AIGNBL0604000C
 70
64
 10
0
 20
0
 30
0
  3
AIGNBL0604000C
  0
POLYLINE
  8
LAYER_6
 40
0.05
 41
0.05
 66
1
 10
0
 20
0
 30
0
 70
1
  0
VERTEX
  8
LAYER_6
 10
149.3852
 20
-1.9017
  0
VERTEX
  8
LAYER_6
 10
148.9715
 20
-2.9063
  0
VERTEX
  8
LAYER_6
 10
148.4381
 20
-2.9063
  0
VERTEX
  8
LAYER_6
 10
149.7941
 20
0.2856
  0
VERTEX
  8
LAYER_6
 10
150.416
 20
0.2856
  0
VERTEX
  8
LAYER_6
 10
151.7778
 20
-2.9063
  0
VERTEX
  8
LAYER_6
 10
151.2269
 20
-2.9063
  0
VERTEX
  8
LAYER_6
 10
150.8008
 20
-1.9017
  0
SEQEND
  0
POLYLINE
  8
LAYER_6
 40
0.05
 41
0.05
 66
1
 10
0
 20
0
 30
0
 70
1
  0
VERTEX
  8
LAYER_6
 10
150.694
 20
-1.5806
  0
VERTEX
  8
LAYER_6
 10
150.3033
 20
-0.6611
  0
VERTEX
  8
LAYER_6
 10
150.0966
 20
-0.0789
  0
VERTEX
  8
LAYER_6
 10
150.0842
 20
-0.0789
  0
VERTEX
  8
LAYER_6
 10
149.883
 20
-0.6573
  0
VERTEX
  8
LAYER_6
 10
149.4923
 20
-1.5806
  0
SEQEND
  0
ENDBLK
  0
BLOCK
  8
LAYER_6
  2
AIGNBL06030005
 70
64
 10
0
 20
0
 30
0
  3
AIGNBL06030005
  0
INSERT
  8
LAYER_6
  2
AIGNBL06040006
 10
0
 20
0
 30
0
  0
INSERT
  8
LAYER_6
  2
AIGNBL06040007
 10
0
 20
0
 30
0
  0
INSERT
  8
LAYER_6
  2
AIGNBL06040008
 10
0
 20
0
 30
0
  0
INSERT
  8
LAYER_6
  2
AIGNBL06040009
 10
0
 20
0
 30
0
  0
INSERT
  8
LAYER_6
  2
AIGNBL0604000A
 10
0
 20
0
 30
0
  0
INSERT
  8
LAYER_6
  2
AIGNBL0604000B
 10
0
 20
0
 30
0
  0
INSERT
  8
LAYER_6
  2
AIGNBL0604000C
 10
0
 20
0
 30
0
  0
ENDBLK
  0
BLOCK
  8
LAYER_6
  2
AIGNBL0603000E
 70
64
 10
0
 20
0
 30
0
  3
AIGNBL0603000E
  0
POLYLINE
  8
LAYER_6
 40
0.05
 41
0.05
 66
1
 10
0
 20
0
 30
0
 70
1
  0
VERTEX
  8
LAYER_6
 10
128.7222
 20
-4.5162
  0
VERTEX
  8
LAYER_6
 10
129.1914
 20
-4.5162
  0
VERTEX
  8
LAYER_6
 10
129.1914
 20
-4.5957
  0
VERTEX
  8
LAYER_6
 10
128.6333
 20
-4.5957
  0
VERTEX
  8
LAYER_6
 10
128.6333
 20
-3.72
  0
VERTEX
  8
LAYER_6
 10
129.1762
 20
-3.72
  0
VERTEX
  8
LAYER_6
 10
129.1762
 20
-3.7989
  0
VERTEX
  8
LAYER_6
 10
128.7222
 20
-3.7989
  0
VERTEX
  8
LAYER_6
 10
128.7222
 20
-4.0993
  0
VERTEX
  8
LAYER_6
 10
129.1467
 20
-4.0993
  0
VERTEX
  8
LAYER_6
 10
129.1467
 20
-4.1785
  0
VERTEX
  8
LAYER_6
 10
128.7222
 20
-4.1785
  0
SEQEND
  0
ENDBLK
  0
BLOCK
  8
LAYER_6
  2
AIGNBL0603000F
 70
64
 10
0
 20
0
 30
0
  3
AIGNBL0603000F
  0
POLYLINE
  8
LAYER_6
 40
0.05
 41
0.05
 66
1
 10
0
 20
0
 30
0
 70
1
  0
VERTEX
  8
LAYER_6
 10
130.1574
 20
-4.4655
  0
VERTEX
  8
LAYER_6
 10
130.1595
 20
-4.4655
  0
VERTEX
  8
LAYER_6
 10
130.1595
 20
-3.72
  0
VERTEX
  8
LAYER_6
 10
130.2487
 20
-3.72
  0
VERTEX
  8
LAYER_6
 10
130.2487
 20
-4.5957
  0
VERTEX
  8
LAYER_6
 10
130.1378
 20
-4.5957
  0
VERTEX
  8
LAYER_6
 10
129.6283
 20
-3.8423
  0
VERTEX
  8
LAYER_6
 10
129.6252
 20
-3.8423
  0
VERTEX
  8
LAYER_6
 10
129.6252
 20
-4.5957
  0
VERTEX
  8
LAYER_6
 10
129.5366
 20
-4.5957
  0
VERTEX
  8
LAYER_6
 10
129.5366
 20
-3.72
  0
VERTEX
  8
LAYER_6
 10
129.6476
 20
-3.72
  0
SEQEND
  0
ENDBLK
  0
BLOCK
  8
LAYER_6
  2
AIGNBL06030010
 70
64
 10
0
 20
0
 30
0
  3
AIGNBL06030010
  0
POLYLINE
  8
LAYER_6
 40
0.05
 41
0.05
 66
1
 10
0
 20
0
 30
0
 70
1
  0
VERTEX
  8
LAYER_6
 10
130.6497
 20
-4.4159
  0
VERTEX
  8
LAYER_6
 10
130.6959
 20
-4.5034
 42
0.1764403825
  0
VERTEX
  8
LAYER_6
 10
130.7917
 20
-4.5386
  0
VERTEX
  8
LAYER_6
 10
130.8675
 20
-4.522
  0
VERTEX
  8
LAYER_6
 10
130.915
 20
-4.4769
  0
VERTEX
  8
LAYER_6
 10
130.9395
 20
-4.4118
  0
VERTEX
  8
LAYER_6
 10
130.9467
 20
-4.336
  0
VERTEX
  8
LAYER_6
 10
130.9467
 20
-3.72
  0
VERTEX
  8
LAYER_6
 10
131.0356
 20
-3.72
  0
VERTEX
  8
LAYER_6
 10
131.0356
 20
-4.3432
  0
VERTEX
  8
LAYER_6
 10
131.0259
 20
-4.4345
  0
VERTEX
  8
LAYER_6
 10
130.9908
 20
-4.5237
  0
VERTEX
  8
LAYER_6
 10
130.9191
 20
-4.5913
  0
VERTEX
  8
LAYER_6
 10
130.8013
 20
-4.6178
 42
-0.1867451878
  0
VERTEX
  8
LAYER_6
 10
130.6449
 20
-4.5668
 42
-0.1769176705
  0
VERTEX
  8
LAYER_6
 10
130.5667
 20
-4.4387
  0
SEQEND
  0
ENDBLK
  0
BLOCK
  8
LAYER_6
  2
AIGNBL06030011
 70
64
 10
0
 20
0
 30
0
  3
AIGNBL06030011
  0
POLYLINE
  8
LAYER_6
 40
0.05
 41
0.05
 66
1
 10
0
 20
0
 30
0
 70
1
  0
VERTEX
  8
LAYER_6
 10
132.2972
 20
-4.1576
  0
VERTEX
  8
LAYER_6
 10
132.2624
 20
-4.3418
  0
VERTEX
  8
LAYER_6
 10
132.167
 20
-4.4872
  0
VERTEX
  8
LAYER_6
 10
132.0219
 20
-4.583
  0
VERTEX
  8
LAYER_6
 10
131.8407
 20
-4.6178
  0
VERTEX
  8
LAYER_6
 10
131.6595
 20
-4.583
  0
VERTEX
  8
LAYER_6
 10
131.5148
 20
-4.4872
  0
VERTEX
  8
LAYER_6
 10
131.4187
 20
-4.3418
  0
VERTEX
  8
LAYER_6
 10
131.3842
 20
-4.1576
  0
VERTEX
  8
LAYER_6
 10
131.4187
 20
-3.9732
  0
VERTEX
  8
LAYER_6
 10
131.5148
 20
-3.8279
  0
VERTEX
  8
LAYER_6
 10
131.6595
 20
-3.7321
  0
VERTEX
  8
LAYER_6
 10
131.8407
 20
-3.6973
  0
VERTEX
  8
LAYER_6
 10
132.0219
 20
-3.7321
  0
VERTEX
  8
LAYER_6
 10
132.167
 20
-3.8279
  0
VERTEX
  8
LAYER_6
 10
132.2624
 20
-3.9732
  0
SEQEND
  0
POLYLINE
  8
LAYER_6
 40
0.05
 41
0.05
 66
1
 10
0
 20
0
 30
0
 70
1
  0
VERTEX
  8
LAYER_6
 10
132.2031
 20
-4.1582
  0
VERTEX
  8
LAYER_6
 10
132.1787
 20
-4.0125
  0
VERTEX
  8
LAYER_6
 10
132.1067
 20
-3.8909
  0
VERTEX
  8
LAYER_6
 10
131.9923
 20
-3.8078
  0
VERTEX
  8
LAYER_6
 10
131.8407
 20
-3.7765
  0
VERTEX
  8
LAYER_6
 10
131.6891
 20
-3.8078
  0
VERTEX
  8
LAYER_6
 10
131.5751
 20
-3.8909
  0
VERTEX
  8
LAYER_6
 10
131.5031
 20
-4.0125
  0
VERTEX
  8
LAYER_6
 10
131.4783
 20
-4.1582
  0
VERTEX
  8
LAYER_6
 10
131.5031
 20
-4.304
  0
VERTEX
  8
LAYER_6
 10
131.5751
 20
-4.4252
  0
VERTEX
  8
LAYER_6
 10
131.6891
 20
-4.5075
  0
VERTEX
  8
LAYER_6
 10
131.8407
 20
-4.5386
  0
VERTEX
  8
LAYER_6
 10
131.9923
 20
-4.5075
  0
VERTEX
  8
LAYER_6
 10
132.1067
 20
-4.4252
  0
VERTEX
  8
LAYER_6
 10
132.1787
 20
-4.304
  0
SEQEND
  0
ENDBLK
  0
BLOCK
  8
LAYER_6
  2
AIGNBL06030012
 70
64
 10
0
 20
0
 30
0
  3
AIGNBL06030012
  0
POLYLINE
  8
LAYER_6
 40
0.05
 41
0.05
 66
1
 10
0
 20
0
 30
0
 70
1
  0
VERTEX
  8
LAYER_6
 10
132.9538
 20
-4.5957
  0
VERTEX
  8
LAYER_6
 10
132.8649
 20
-4.5957
  0
VERTEX
  8
LAYER_6
 10
132.8649
 20
-4.2182
  0
VERTEX
  8
LAYER_6
 10
132.5373
 20
-3.72
  0
VERTEX
  8
LAYER_6
 10
132.6486
 20
-3.72
  0
VERTEX
  8
LAYER_6
 10
132.9121
 20
-4.1438
  0
VERTEX
  8
LAYER_6
 10
133.1777
 20
-3.72
  0
VERTEX
  8
LAYER_6
 10
133.2815
 20
-3.72
  0
VERTEX
  8
LAYER_6
 10
132.9538
 20
-4.2182
  0
SEQEND
  0
ENDBLK
  0
BLOCK
  8
LAYER_6
  2
AIGNBL06030013
 70
64
 10
0
 20
0
 30
0
  3
AIGNBL06030013
  0
POLYLINE
  8
LAYER_6
 40
0.05
 41
0.05
 66
1
 10
0
 20
0
 30
0
 70
1
  0
VERTEX
  8
LAYER_6
 10
134.0487
 20
-3.72
  0
VERTEX
  8
LAYER_6
 10
134.3094
 20
-3.72
  0
VERTEX
  8
LAYER_6
 10
134.4097
 20
-3.7303
  0
VERTEX
  8
LAYER_6
 10
134.5003
 20
-3.7662
  0
VERTEX
  8
LAYER_6
 10
134.5664
 20
-3.8351
  0
VERTEX
  8
LAYER_6
 10
134.5916
 20
-3.9436
 42
-0.1782454861
  0
VERTEX
  8
LAYER_6
 10
134.5492
 20
-4.0642
 42
-0.1596818957
  0
VERTEX
  8
LAYER_6
 10
134.4362
 20
-4.1317
  0
VERTEX
  8
LAYER_6
 10
134.4362
 20
-4.1338
 42
-0.1731234976
  0
VERTEX
  8
LAYER_6
 10
134.5775
 20
-4.2003
 42
-0.1887742098
  0
VERTEX
  8
LAYER_6
 10
134.6336
 20
-4.3532
  0
VERTEX
  8
LAYER_6
 10
134.6105
 20
-4.4524
  0
VERTEX
  8
LAYER_6
 10
134.5458
 20
-4.5293
  0
VERTEX
  8
LAYER_6
 10
134.4435
 20
-4.5782
  0
VERTEX
  8
LAYER_6
 10
134.3081
 20
-4.5957
  0
VERTEX
  8
LAYER_6
 10
134.0487
 20
-4.5957
  0
SEQEND
  0
POLYLINE
  8
LAYER_6
 40
0.05
 41
0.05
 66
1
 10
0
 20
0
 30
0
 70
1
  0
VERTEX
  8
LAYER_6
 10
134.1375
 20
-4.1031
  0
VERTEX
  8
LAYER_6
 10
134.317
 20
-4.1031
  0
VERTEX
  8
LAYER_6
 10
134.3822
 20
-4.0955
  0
VERTEX
  8
LAYER_6
 10
134.4417
 20
-4.0707
  0
VERTEX
  8
LAYER_6
 10
134.4858
 20
-4.0228
  0
VERTEX
  8
LAYER_6
 10
134.5024
 20
-3.9498
  0
VERTEX
  8
LAYER_6
 10
134.4858
 20
-3.8788
  0
VERTEX
  8
LAYER_6
 10
134.4407
 20
-3.831
  0
VERTEX
  8
LAYER_6
 10
134.3739
 20
-3.8044
  0
VERTEX
  8
LAYER_6
 10
134.2922
 20
-3.7965
  0
VERTEX
  8
LAYER_6
 10
134.1375
 20
-3.7965
  0
SEQEND
  0
POLYLINE
  8
LAYER_6
 40
0.05
 41
0.05
 66
1
 10
0
 20
0
 30
0
 70
1
  0
VERTEX
  8
LAYER_6
 10
134.1375
 20
-4.5189
  0
VERTEX
  8
LAYER_6
 10
134.3036
 20
-4.5189
  0
VERTEX
  8
LAYER_6
 10
134.3956
 20
-4.5093
  0
VERTEX
  8
LAYER_6
 10
134.4724
 20
-4.48
  0
VERTEX
  8
LAYER_6
 10
134.5244
 20
-4.4266
  0
VERTEX
  8
LAYER_6
 10
134.5444
 20
-4.3481
 42
0.2573427114
  0
VERTEX
  8
LAYER_6
 10
134.4858
 20
-4.2189
 42
0.1341930545
  0
VERTEX
  8
LAYER_6
 10
134.3194
 20
-4.1761
  0
VERTEX
  8
LAYER_6
 10
134.1375
 20
-4.1761
  0
SEQEND
  0
ENDBLK
  0
BLOCK
  8
LAYER_6
  2
AIGNBL06030014
 70
64
 10
0
 20
0
 30
0
  3
AIGNBL06030014
  0
POLYLINE
  8
LAYER_6
 40
0.05
 41
0.05
 66
1
 10
0
 20
0
 30
0
 70
1
  0
VERTEX
  8
LAYER_6
 10
134.9999
 20
-4.5957
  0
VERTEX
  8
LAYER_6
 10
134.902
 20
-4.5957
  0
VERTEX
  8
LAYER_6
 10
135.2806
 20
-3.72
  0
VERTEX
  8
LAYER_6
 10
135.3675
 20
-3.72
  0
VERTEX
  8
LAYER_6
 10
135.7433
 20
-4.5957
  0
VERTEX
  8
LAYER_6
 10
135.6441
 20
-4.5957
  0
VERTEX
  8
LAYER_6
 10
135.5476
 20
-4.3656
  0
VERTEX
  8
LAYER_6
 10
135.0949
 20
-4.3656
  0
SEQEND
  0
POLYLINE
  8
LAYER_6
 40
0.05
 41
0.05
 66
1
 10
0
 20
0
 30
0
 70
1
  0
VERTEX
  8
LAYER_6
 10
135.128
 20
-4.2836
  0
VERTEX
  8
LAYER_6
 10
135.5142
 20
-4.2836
  0
VERTEX
  8
LAYER_6
 10
135.3213
 20
-3.8185
  0
SEQEND
  0
ENDBLK
  0
BLOCK
  8
LAYER_6
  2
AIGNBL06030015
 70
64
 10
0
 20
0
 30
0
  3
AIGNBL06030015
  0
POLYLINE
  8
LAYER_6
 40
0.05
 41
0.05
 66
1
 10
0
 20
0
 30
0
 70
1
  0
VERTEX
  8
LAYER_6
 10
136.3235
 20
-4.5957
  0
VERTEX
  8
LAYER_6
 10
136.2342
 20
-4.5957
  0
VERTEX
  8
LAYER_6
 10
136.2342
 20
-3.7989
  0
VERTEX
  8
LAYER_6
 10
135.9407
 20
-3.7989
  0
VERTEX
  8
LAYER_6
 10
135.9407
 20
-3.72
  0
VERTEX
  8
LAYER_6
 10
136.6163
 20
-3.72
  0
VERTEX
  8
LAYER_6
 10
136.6163
 20
-3.7989
  0
VERTEX
  8
LAYER_6
 10
136.3235
 20
-3.7989
  0
SEQEND
  0
ENDBLK
  0
BLOCK
  8
LAYER_6
  2
AIGNBL06030016
 70
64
 10
0
 20
0
 30
0
  3
AIGNBL06030016
  0
POLYLINE
  8
LAYER_6
 40
0.05
 41
0.05
 66
1
 10
0
 20
0
 30
0
 70
1
  0
VERTEX
  8
LAYER_6
 10
136.9181
 20
-3.72
  0
VERTEX
  8
LAYER_6
 10
137.007
 20
-3.72
  0
VERTEX
  8
LAYER_6
 10
137.007
 20
-4.0993
  0
VERTEX
  8
LAYER_6
 10
137.4848
 20
-4.0993
  0
VERTEX
  8
LAYER_6
 10
137.4848
 20
-3.72
  0
VERTEX
  8
LAYER_6
 10
137.5737
 20
-3.72
  0
VERTEX
  8
LAYER_6
 10
137.5737
 20
-4.5957
  0
VERTEX
  8
LAYER_6
 10
137.4848
 20
-4.5957
  0
VERTEX
  8
LAYER_6
 10
137.4848
 20
-4.181
  0
VERTEX
  8
LAYER_6
 10
137.007
 20
-4.181
  0
VERTEX
  8
LAYER_6
 10
137.007
 20
-4.5957
  0
VERTEX
  8
LAYER_6
 10
136.9181
 20
-4.5957
  0
SEQEND
  0
ENDBLK
  0
BLOCK
  8
LAYER_6
  2
AIGNBL06030017
 70
64
 10
0
 20
0
 30
0
  3
AIGNBL06030017
  0
POLYLINE
  8
LAYER_6
 40
0.05
 41
0.05
 66
1
 10
0
 20
0
 30
0
 70
1
  0
VERTEX
  8
LAYER_6
 10
138.0656
 20
-4.5957
  0
VERTEX
  8
LAYER_6
 10
137.9767
 20
-4.5957
  0
VERTEX
  8
LAYER_6
 10
137.9767
 20
-3.72
  0
VERTEX
  8
LAYER_6
 10
138.2341
 20
-3.72
  0
VERTEX
  8
LAYER_6
 10
138.3533
 20
-3.7321
  0
VERTEX
  8
LAYER_6
 10
138.4487
 20
-3.7724
  0
VERTEX
  8
LAYER_6
 10
138.5111
 20
-3.8447
  0
VERTEX
  8
LAYER_6
 10
138.5331
 20
-3.9536
  0
VERTEX
  8
LAYER_6
 10
138.5163
 20
-4.0415
  0
VERTEX
  8
LAYER_6
 10
138.4694
 20
-4.11
  0
VERTEX
  8
LAYER_6
 10
138.3988
 20
-4.1565
  0
VERTEX
  8
LAYER_6
 10
138.3096
 20
-4.1785
  0
VERTEX
  8
LAYER_6
 10
138.5655
 20
-4.5957
  0
VERTEX
  8
LAYER_6
 10
138.4567
 20
-4.5957
  0
VERTEX
  8
LAYER_6
 10
138.2145
 20
-4.1861
  0
VERTEX
  8
LAYER_6
 10
138.0656
 20
-4.1861
  0
SEQEND
  0
POLYLINE
  8
LAYER_6
 40
0.05
 41
0.05
 66
1
 10
0
 20
0
 30
0
 70
1
  0
VERTEX
  8
LAYER_6
 10
138.0656
 20
-4.1093
  0
VERTEX
  8
LAYER_6
 10
138.2207
 20
-4.1093
 42
0.1680930757
  0
VERTEX
  8
LAYER_6
 10
138.3864
 20
-4.0707
 42
0.2475915739
  0
VERTEX
  8
LAYER_6
 10
138.4446
 20
-3.9536
  0
VERTEX
  8
LAYER_6
 10
138.4281
 20
-3.8809
  0
VERTEX
  8
LAYER_6
 10
138.3836
 20
-3.8323
  0
VERTEX
  8
LAYER_6
 10
138.3147
 20
-3.8051
  0
VERTEX
  8
LAYER_6
 10
138.2245
 20
-3.7965
  0
VERTEX
  8
LAYER_6
 10
138.0656
 20
-3.7965
  0
SEQEND
  0
ENDBLK
  0
BLOCK
  8
LAYER_6
  2
AIGNBL06030018
 70
64
 10
0
 20
0
 30
0
  3
AIGNBL06030018
  0
POLYLINE
  8
LAYER_6
 40
0.05
 41
0.05
 66
1
 10
0
 20
0
 30
0
 70
1
  0
VERTEX
  8
LAYER_6
 10
139.7541
 20
-4.1576
  0
VERTEX
  8
LAYER_6
 10
139.7196
 20
-4.3418
  0
VERTEX
  8
LAYER_6
 10
139.6235
 20
-4.4872
  0
VERTEX
  8
LAYER_6
 10
139.4792
 20
-4.583
  0
VERTEX
  8
LAYER_6
 10
139.2976
 20
-4.6178
  0
VERTEX
  8
LAYER_6
 10
139.1164
 20
-4.583
  0
VERTEX
  8
LAYER_6
 10
138.972
 20
-4.4872
  0
VERTEX
  8
LAYER_6
 10
138.8763
 20
-4.3418
  0
VERTEX
  8
LAYER_6
 10
138.8418
 20
-4.1576
  0
VERTEX
  8
LAYER_6
 10
138.8763
 20
-3.9732
  0
VERTEX
  8
LAYER_6
 10
138.972
 20
-3.8279
  0
VERTEX
  8
LAYER_6
 10
139.1164
 20
-3.7321
  0
VERTEX
  8
LAYER_6
 10
139.2976
 20
-3.6973
  0
VERTEX
  8
LAYER_6
 10
139.4792
 20
-3.7321
  0
VERTEX
  8
LAYER_6
 10
139.6235
 20
-3.8279
  0
VERTEX
  8
LAYER_6
 10
139.7196
 20
-3.9732
  0
SEQEND
  0
POLYLINE
  8
LAYER_6
 40
0.05
 41
0.05
 66
1
 10
0
 20
0
 30
0
 70
1
  0
VERTEX
  8
LAYER_6
 10
139.66
 20
-4.1582
  0
VERTEX
  8
LAYER_6
 10
139.6352
 20
-4.0125
  0
VERTEX
  8
LAYER_6
 10
139.5636
 20
-3.8909
  0
VERTEX
  8
LAYER_6
 10
139.4492
 20
-3.8078
  0
VERTEX
  8
LAYER_6
 10
139.2976
 20
-3.7765
  0
VERTEX
  8
LAYER_6
 10
139.1464
 20
-3.8078
  0
VERTEX
  8
LAYER_6
 10
139.0317
 20
-3.8909
  0
VERTEX
  8
LAYER_6
 10
138.96
 20
-4.0125
  0
VERTEX
  8
LAYER_6
 10
138.9355
 20
-4.1582
  0
VERTEX
  8
LAYER_6
 10
138.96
 20
-4.304
  0
VERTEX
  8
LAYER_6
 10
139.0317
 20
-4.4252
  0
VERTEX
  8
LAYER_6
 10
139.1464
 20
-4.5075
  0
VERTEX
  8
LAYER_6
 10
139.2976
 20
-4.5386
  0
VERTEX
  8
LAYER_6
 10
139.4492
 20
-4.5075
  0
VERTEX
  8
LAYER_6
 10
139.5636
 20
-4.4252
  0
VERTEX
  8
LAYER_6
 10
139.6352
 20
-4.304
  0
SEQEND
  0
ENDBLK
  0
BLOCK
  8
LAYER_6
  2
AIGNBL06030019
 70
64
 10
0
 20
0
 30
0
  3
AIGNBL06030019
  0
POLYLINE
  8
LAYER_6
 40
0.05
 41
0.05
 66
1
 10
0
 20
0
 30
0
 70
1
  0
VERTEX
  8
LAYER_6
 10
140.9764
 20
-4.1576
  0
VERTEX
  8
LAYER_6
 10
140.9416
 20
-4.3418
  0
VERTEX
  8
LAYER_6
 10
140.8462
 20
-4.4872
  0
VERTEX
  8
LAYER_6
 10
140.7011
 20
-4.583
  0
VERTEX
  8
LAYER_6
 10
140.5199
 20
-4.6178
  0
VERTEX
  8
LAYER_6
 10
140.3387
 20
-4.583
  0
VERTEX
  8
LAYER_6
 10
140.194
 20
-4.4872
  0
VERTEX
  8
LAYER_6
 10
140.0979
 20
-4.3418
  0
VERTEX
  8
LAYER_6
 10
140.0635
 20
-4.1576
  0
VERTEX
  8
LAYER_6
 10
140.0979
 20
-3.9732
  0
VERTEX
  8
LAYER_6
 10
140.194
 20
-3.8279
  0
VERTEX
  8
LAYER_6
 10
140.3387
 20
-3.7321
  0
VERTEX
  8
LAYER_6
 10
140.5199
 20
-3.6973
  0
VERTEX
  8
LAYER_6
 10
140.7011
 20
-3.7321
  0
VERTEX
  8
LAYER_6
 10
140.8462
 20
-3.8279
  0
VERTEX
  8
LAYER_6
 10
140.9416
 20
-3.9732
  0
SEQEND
  0
POLYLINE
  8
LAYER_6
 40
0.05
 41
0.05
 66
1
 10
0
 20
0
 30
0
 70
1
  0
VERTEX
  8
LAYER_6
 10
140.8824
 20
-4.1582
  0
VERTEX
  8
LAYER_6
 10
140.8576
 20
-4.0125
  0
VERTEX
  8
LAYER_6
 10
140.7859
 20
-3.8909
  0
VERTEX
  8
LAYER_6
 10
140.6715
 20
-3.8078
  0
VERTEX
  8
LAYER_6
 10
140.5199
 20
-3.7765
  0
VERTEX
  8
LAYER_6
 10
140.3683
 20
-3.8078
  0
VERTEX
  8
LAYER_6
 10
140.254
 20
-3.8909
  0
VERTEX
  8
LAYER_6
 10
140.1823
 20
-4.0125
  0
VERTEX
  8
LAYER_6
 10
140.1575
 20
-4.1582
  0
VERTEX
  8
LAYER_6
 10
140.1823
 20
-4.304
  0
VERTEX
  8
LAYER_6
 10
140.254
 20
-4.4252
  0
VERTEX
  8
LAYER_6
 10
140.3683
 20
-4.5075
  0
VERTEX
  8
LAYER_6
 10
140.5199
 20
-4.5386
  0
VERTEX
  8
LAYER_6
 10
140.6715
 20
-4.5075
  0
VERTEX
  8
LAYER_6
 10
140.7859
 20
-4.4252
  0
VERTEX
  8
LAYER_6
 10
140.8576
 20
-4.304
  0
SEQEND
  0
ENDBLK
  0
BLOCK
  8
LAYER_6
  2
AIGNBL0603001A
 70
64
 10
0
 20
0
 30
0
  3
AIGNBL0603001A
  0
POLYLINE
  8
LAYER_6
 40
0.05
 41
0.05
 66
1
 10
0
 20
0
 30
0
 70
1
  0
VERTEX
  8
LAYER_6
 10
141.7653
 20
-4.4445
  0
VERTEX
  8
LAYER_6
 10
141.7667
 20
-4.4445
  0
VERTEX
  8
LAYER_6
 10
142.0596
 20
-3.72
  0
VERTEX
  8
LAYER_6
 10
142.196
 20
-3.72
  0
VERTEX
  8
LAYER_6
 10
142.196
 20
-4.5957
  0
VERTEX
  8
LAYER_6
 10
142.1068
 20
-4.5957
  0
VERTEX
  8
LAYER_6
 10
142.1068
 20
-3.8351
  0
VERTEX
  8
LAYER_6
 10
142.1043
 20
-3.8351
  0
VERTEX
  8
LAYER_6
 10
141.7877
 20
-4.5957
  0
VERTEX
  8
LAYER_6
 10
141.7409
 20
-4.5957
  0
VERTEX
  8
LAYER_6
 10
141.4239
 20
-3.8351
  0
VERTEX
  8
LAYER_6
 10
141.4215
 20
-3.8351
  0
VERTEX
  8
LAYER_6
 10
141.4215
 20
-4.5957
  0
VERTEX
  8
LAYER_6
 10
141.3326
 20
-4.5957
  0
VERTEX
  8
LAYER_6
 10
141.3326
 20
-3.72
  0
VERTEX
  8
LAYER_6
 10
141.4687
 20
-3.72
  0
SEQEND
  0
ENDBLK
  0
BLOCK
  8
LAYER_6
  2
AIGNBL0603001B
 70
64
 10
0
 20
0
 30
0
  3
AIGNBL0603001B
  0
POLYLINE
  8
LAYER_6
 40
0.05
 41
0.05
 66
1
 10
0
 20
0
 30
0
 70
1
  0
VERTEX
  8
LAYER_6
 10
143.1678
 20
-4.5162
  0
VERTEX
  8
LAYER_6
 10
143.6367
 20
-4.5162
  0
VERTEX
  8
LAYER_6
 10
143.6367
 20
-4.5957
  0
VERTEX
  8
LAYER_6
 10
143.0786
 20
-4.5957
  0
VERTEX
  8
LAYER_6
 10
143.0786
 20
-3.72
  0
VERTEX
  8
LAYER_6
 10
143.6219
 20
-3.72
  0
VERTEX
  8
LAYER_6
 10
143.6219
 20
-3.7989
  0
VERTEX
  8
LAYER_6
 10
143.1678
 20
-3.7989
  0
VERTEX
  8
LAYER_6
 10
143.1678
 20
-4.0993
  0
VERTEX
  8
LAYER_6
 10
143.5919
 20
-4.0993
  0
VERTEX
  8
LAYER_6
 10
143.5919
 20
-4.1785
  0
VERTEX
  8
LAYER_6
 10
143.1678
 20
-4.1785
  0
SEQEND
  0
ENDBLK
  0
BLOCK
  8
LAYER_6
  2
AIGNBL0603001C
 70
64
 10
0
 20
0
 30
0
  3
AIGNBL0603001C
  0
POLYLINE
  8
LAYER_6
 40
0.05
 41
0.05
 66
1
 10
0
 20
0
 30
0
 70
1
  0
VERTEX
  8
LAYER_6
 10
144.2685
 20
-4.0735
  0
VERTEX
  8
LAYER_6
 10
144.5076
 20
-3.72
  0
VERTEX
  8
LAYER_6
 10
144.6134
 20
-3.72
  0
VERTEX
  8
LAYER_6
 10
144.3233
 20
-4.1365
  0
VERTEX
  8
LAYER_6
 10
144.6447
 20
-4.5957
  0
VERTEX
  8
LAYER_6
 10
144.5335
 20
-4.5957
  0
VERTEX
  8
LAYER_6
 10
144.2661
 20
-4.2009
  0
VERTEX
  8
LAYER_6
 10
144.0002
 20
-4.5957
  0
VERTEX
  8
LAYER_6
 10
143.8889
 20
-4.5957
  0
VERTEX
  8
LAYER_6
 10
144.2106
 20
-4.1355
  0
VERTEX
  8
LAYER_6
 10
143.9175
 20
-3.72
  0
VERTEX
  8
LAYER_6
 10
144.0288
 20
-3.72
  0
SEQEND
  0
ENDBLK
  0
BLOCK
  8
LAYER_6
  2
AIGNBL0603001D
 70
64
 10
0
 20
0
 30
0
  3
AIGNBL0603001D
  0
POLYLINE
  8
LAYER_6
 40
0.05
 41
0.05
 66
1
 10
0
 20
0
 30
0
 70
1
  0
VERTEX
  8
LAYER_6
 10
144.9552
 20
-3.72
  0
VERTEX
  8
LAYER_6
 10
145.2028
 20
-3.72
  0
VERTEX
  8
LAYER_6
 10
145.3241
 20
-3.7338
  0
VERTEX
  8
LAYER_6
 10
145.4171
 20
-3.7775
  0
VERTEX
  8
LAYER_6
 10
145.4774
 20
-3.8503
  0
VERTEX
  8
LAYER_6
 10
145.4981
 20
-3.9536
  0
VERTEX
  8
LAYER_6
 10
145.4767
 20
-4.0569
  0
VERTEX
  8
LAYER_6
 10
145.4161
 20
-4.13
  0
VERTEX
  8
LAYER_6
 10
145.322
 20
-4.1737
  0
VERTEX
  8
LAYER_6
 10
145.2001
 20
-4.1885
  0
VERTEX
  8
LAYER_6
 10
145.0444
 20
-4.1885
  0
VERTEX
  8
LAYER_6
 10
145.0444
 20
-4.5957
  0
VERTEX
  8
LAYER_6
 10
144.9552
 20
-4.5957
  0
SEQEND
  0
POLYLINE
  8
LAYER_6
 40
0.05
 41
0.05
 66
1
 10
0
 20
0
 30
0
 70
1
  0
VERTEX
  8
LAYER_6
 10
145.0444
 20
-4.1131
  0
VERTEX
  8
LAYER_6
 10
145.1949
 20
-4.1131
 42
0.1861162373
  0
VERTEX
  8
LAYER_6
 10
145.3548
 20
-4.0724
 42
0.2307474552
  0
VERTEX
  8
LAYER_6
 10
145.4092
 20
-3.9536
 42
0.2664837056
  0
VERTEX
  8
LAYER_6
 10
145.353
 20
-3.8341
 42
0.1218688638
  0
VERTEX
  8
LAYER_6
 10
145.1949
 20
-3.7965
  0
VERTEX
  8
LAYER_6
 10
145.0444
 20
-3.7965
  0
SEQEND
  0
ENDBLK
  0
BLOCK
  8
LAYER_6
  2
AIGNBL0603001E
 70
64
 10
0
 20
0
 30
0
  3
AIGNBL0603001E
  0
POLYLINE
  8
LAYER_6
 40
0.05
 41
0.05
 66
1
 10
0
 20
0
 30
0
 70
1
  0
VERTEX
  8
LAYER_6
 10
145.9322
 20
-4.5162
  0
VERTEX
  8
LAYER_6
 10
146.401
 20
-4.5162
  0
VERTEX
  8
LAYER_6
 10
146.401
 20
-4.5957
  0
VERTEX
  8
LAYER_6
 10
145.8433
 20
-4.5957
  0
VERTEX
  8
LAYER_6
 10
145.8433
 20
-3.72
  0
VERTEX
  8
LAYER_6
 10
146.3862
 20
-3.72
  0
VERTEX
  8
LAYER_6
 10
146.3862
 20
-3.7989
  0
VERTEX
  8
LAYER_6
 10
145.9322
 20
-3.7989
  0
VERTEX
  8
LAYER_6
 10
145.9322
 20
-4.0993
  0
VERTEX
  8
LAYER_6
 10
146.3566
 20
-4.0993
  0
VERTEX
  8
LAYER_6
 10
146.3566
 20
-4.1785
  0
VERTEX
  8
LAYER_6
 10
145.9322
 20
-4.1785
  0
SEQEND
  0
ENDBLK
  0
BLOCK
  8
LAYER_6
  2
AIGNBL0603001F
 70
64
 10
0
 20
0
 30
0
  3
AIGNBL0603001F
  0
POLYLINE
  8
LAYER_6
 40
0.05
 41
0.05
 66
1
 10
0
 20
0
 30
0
 70
1
  0
VERTEX
  8
LAYER_6
 10
146.8351
 20
-4.5957
  0
VERTEX
  8
LAYER_6
 10
146.7462
 20
-4.5957
  0
VERTEX
  8
LAYER_6
 10
146.7462
 20
-3.72
  0
VERTEX
  8
LAYER_6
 10
147.0036
 20
-3.72
  0
VERTEX
  8
LAYER_6
 10
147.1228
 20
-3.7321
  0
VERTEX
  8
LAYER_6
 10
147.2182
 20
-3.7724
  0
VERTEX
  8
LAYER_6
 10
147.2806
 20
-3.8447
  0
VERTEX
  8
LAYER_6
 10
147.3026
 20
-3.9536
  0
VERTEX
  8
LAYER_6
 10
147.2857
 20
-4.0415
  0
VERTEX
  8
LAYER_6
 10
147.2385
 20
-4.11
  0
VERTEX
  8
LAYER_6
 10
147.1679
 20
-4.1565
  0
VERTEX
  8
LAYER_6
 10
147.0791
 20
-4.1785
  0
VERTEX
  8
LAYER_6
 10
147.335
 20
-4.5957
  0
VERTEX
  8
LAYER_6
 10
147.2262
 20
-4.5957
  0
VERTEX
  8
LAYER_6
 10
146.9836
 20
-4.1861
  0
VERTEX
  8
LAYER_6
 10
146.8351
 20
-4.1861
  0
SEQEND
  0
POLYLINE
  8
LAYER_6
 40
0.05
 41
0.05
 66
1
 10
0
 20
0
 30
0
 70
1
  0
VERTEX
  8
LAYER_6
 10
146.8351
 20
-4.1093
  0
VERTEX
  8
LAYER_6
 10
146.9898
 20
-4.1093
 42
0.1697533841
  0
VERTEX
  8
LAYER_6
 10
147.1559
 20
-4.0707
 42
0.2467482694
  0
VERTEX
  8
LAYER_6
 10
147.2137
 20
-3.9536
  0
VERTEX
  8
LAYER_6
 10
147.1979
 20
-3.8809
  0
VERTEX
  8
LAYER_6
 10
147.1531
 20
-3.8323
  0
VERTEX
  8
LAYER_6
 10
147.0839
 20
-3.8051
  0
VERTEX
  8
LAYER_6
 10
146.9936
 20
-3.7965
  0
VERTEX
  8
LAYER_6
 10
146.8351
 20
-3.7965
  0
SEQEND
  0
ENDBLK
  0
BLOCK
  8
LAYER_6
  2
AIGNBL06030020
 70
64
 10
0
 20
0
 30
0
  3
AIGNBL06030020
  0
POLYLINE
  8
LAYER_6
 40
0.05
 41
0.05
 66
1
 10
0
 20
0
 30
0
 70
1
  0
VERTEX
  8
LAYER_6
 10
147.7467
 20
-4.5957
  0
VERTEX
  8
LAYER_6
 10
147.6582
 20
-4.5957
  0
VERTEX
  8
LAYER_6
 10
147.6582
 20
-3.72
  0
VERTEX
  8
LAYER_6
 10
147.7467
 20
-3.72
  0
SEQEND
  0
ENDBLK
  0
BLOCK
  8
LAYER_6
  2
AIGNBL06030021
 70
64
 10
0
 20
0
 30
0
  3
AIGNBL06030021
  0
POLYLINE
  8
LAYER_6
 40
0.05
 41
0.05
 66
1
 10
0
 20
0
 30
0
 70
1
  0
VERTEX
  8
LAYER_6
 10
148.239
 20
-4.5162
  0
VERTEX
  8
LAYER_6
 10
148.7079
 20
-4.5162
  0
VERTEX
  8
LAYER_6
 10
148.7079
 20
-4.5957
  0
VERTEX
  8
LAYER_6
 10
148.1501
 20
-4.5957
  0
VERTEX
  8
LAYER_6
 10
148.1501
 20
-3.72
  0
VERTEX
  8
LAYER_6
 10
148.6931
 20
-3.72
  0
VERTEX
  8
LAYER_6
 10
148.6931
 20
-3.7989
  0
VERTEX
  8
LAYER_6
 10
148.239
 20
-3.7989
  0
VERTEX
  8
LAYER_6
 10
148.239
 20
-4.0993
  0
VERTEX
  8
LAYER_6
 10
148.6634
 20
-4.0993
  0
VERTEX
  8
LAYER_6
 10
148.6634
 20
-4.1785
  0
VERTEX
  8
LAYER_6
 10
148.239
 20
-4.1785
  0
SEQEND
  0
ENDBLK
  0
BLOCK
  8
LAYER_6
  2
AIGNBL06030022
 70
64
 10
0
 20
0
 30
0
  3
AIGNBL06030022
  0
POLYLINE
  8
LAYER_6
 40
0.05
 41
0.05
 66
1
 10
0
 20
0
 30
0
 70
1
  0
VERTEX
  8
LAYER_6
 10
149.6739
 20
-4.4655
  0
VERTEX
  8
LAYER_6
 10
149.6763
 20
-4.4655
  0
VERTEX
  8
LAYER_6
 10
149.6763
 20
-3.72
  0
VERTEX
  8
LAYER_6
 10
149.7655
 20
-3.72
  0
VERTEX
  8
LAYER_6
 10
149.7655
 20
-4.5957
  0
VERTEX
  8
LAYER_6
 10
149.6543
 20
-4.5957
  0
VERTEX
  8
LAYER_6
 10
149.1447
 20
-3.8423
  0
VERTEX
  8
LAYER_6
 10
149.142
 20
-3.8423
  0
VERTEX
  8
LAYER_6
 10
149.142
 20
-4.5957
  0
VERTEX
  8
LAYER_6
 10
149.0531
 20
-4.5957
  0
VERTEX
  8
LAYER_6
 10
149.0531
 20
-3.72
  0
VERTEX
  8
LAYER_6
 10
149.1644
 20
-3.72
  0
SEQEND
  0
ENDBLK
  0
BLOCK
  8
LAYER_6
  2
AIGNBL06030023
 70
64
 10
0
 20
0
 30
0
  3
AIGNBL06030023
  0
POLYLINE
  8
LAYER_6
 40
0.05
 41
0.05
 66
1
 10
0
 20
0
 30
0
 70
1
  0
VERTEX
  8
LAYER_6
 10
150.9062
 20
-4.4535
  0
VERTEX
  8
LAYER_6
 10
150.8521
 20
-4.5165
  0
VERTEX
  8
LAYER_6
 10
150.7791
 20
-4.5689
  0
VERTEX
  8
LAYER_6
 10
150.6874
 20
-4.6047
  0
VERTEX
  8
LAYER_6
 10
150.5782
 20
-4.6178
  0
VERTEX
  8
LAYER_6
 10
150.3949
 20
-4.583
  0
VERTEX
  8
LAYER_6
 10
150.2506
 20
-4.4872
  0
VERTEX
  8
LAYER_6
 10
150.1559
 20
-4.3418
  0
VERTEX
  8
LAYER_6
 10
150.1218
 20
-4.1576
  0
VERTEX
  8
LAYER_6
 10
150.1565
 20
-3.9732
  0
VERTEX
  8
LAYER_6
 10
150.252
 20
-3.8279
  0
VERTEX
  8
LAYER_6
 10
150.3967
 20
-3.7321
  0
VERTEX
  8
LAYER_6
 10
150.5782
 20
-3.6973
  0
VERTEX
  8
LAYER_6
 10
150.6726
 20
-3.7076
  0
VERTEX
  8
LAYER_6
 10
150.7601
 20
-3.7358
  0
VERTEX
  8
LAYER_6
 10
150.8342
 20
-3.7796
  0
VERTEX
  8
LAYER_6
 10
150.89
 20
-3.8372
  0
VERTEX
  8
LAYER_6
 10
150.816
 20
-3.8919
  0
VERTEX
  8
LAYER_6
 10
150.7791
 20
-3.8495
  0
VERTEX
  8
LAYER_6
 10
150.7253
 20
-3.8123
  0
VERTEX
  8
LAYER_6
 10
150.6578
 20
-3.7865
  0
VERTEX
  8
LAYER_6
 10
150.5793
 20
-3.7765
  0
VERTEX
  8
LAYER_6
 10
150.4267
 20
-3.8075
  0
VERTEX
  8
LAYER_6
 10
150.3123
 20
-3.8905
  0
VERTEX
  8
LAYER_6
 10
150.2403
 20
-4.0121
  0
VERTEX
  8
LAYER_6
 10
150.2158
 20
-4.1576
  0
VERTEX
  8
LAYER_6
 10
150.2413
 20
-4.3029
  0
VERTEX
  8
LAYER_6
 10
150.3136
 20
-4.4245
  0
VERTEX
  8
LAYER_6
 10
150.428
 20
-4.5075
  0
VERTEX
  8
LAYER_6
 10
150.5793
 20
-4.5386
  0
VERTEX
  8
LAYER_6
 10
150.7226
 20
-4.5075
 42
0.1302205371
  0
VERTEX
  8
LAYER_6
 10
150.8366
 20
-4.4087
  0
SEQEND
  0
ENDBLK
  0
BLOCK
  8
LAYER_6
  2
AIGNBL06030024
 70
64
 10
0
 20
0
 30
0
  3
AIGNBL06030024
  0
POLYLINE
  8
LAYER_6
 40
0.05
 41
0.05
 66
1
 10
0
 20
0
 30
0
 70
1
  0
VERTEX
  8
LAYER_6
 10
151.3189
 20
-4.5162
  0
VERTEX
  8
LAYER_6
 10
151.7878
 20
-4.5162
  0
VERTEX
  8
LAYER_6
 10
151.7878
 20
-4.5957
  0
VERTEX
  8
LAYER_6
 10
151.23
 20
-4.5957
  0
VERTEX
  8
LAYER_6
 10
151.23
 20
-3.72
  0
VERTEX
  8
LAYER_6
 10
151.773
 20
-3.72
  0
VERTEX
  8
LAYER_6
 10
151.773
 20
-3.7989
  0
VERTEX
  8
LAYER_6
 10
151.3189
 20
-3.7989
  0
VERTEX
  8
LAYER_6
 10
151.3189
 20
-4.0993
  0
VERTEX
  8
LAYER_6
 10
151.7434
 20
-4.0993
  0
VERTEX
  8
LAYER_6
 10
151.7434
 20
-4.1785
  0
VERTEX
  8
LAYER_6
 10
151.3189
 20
-4.1785
  0
SEQEND
  0
ENDBLK
  0
BLOCK
  8
LAYER_6
  2
AIGNBL06020004
 70
64
 10
0
 20
0
 30
0
  3
AIGNBL06020004
  0
INSERT
  8
LAYER_6
  2
AIGNBL06030005
 10
0
 20
0
 30
0
  0
ENDBLK
  0
BLOCK
  8
LAYER_6
  2
AIGNBL0602000D
 70
64
 10
0
 20
0
 30
0
  3
AIGNBL0602000D
  0
INSERT
  8
LAYER_6
  2
AIGNBL0603000E
 10
0
 20
0
 30
0
  0
INSERT
  8
LAYER_6
  2
AIGNBL0603000F
 10
0
 20
0
 30
0
  0
INSERT
  8
LAYER_6
  2
AIGNBL06030010
 10
0
 20
0
 30
0
  0
INSERT
  8
LAYER_6
  2
AIGNBL06030011
 10
0
 20
0
 30
0
  0
INSERT
  8
LAYER_6
  2
AIGNBL06030012
 10
0
 20
0
 30
0
  0
INSERT
  8
LAYER_6
  2
AIGNBL06030013
 10
0
 20
0
 30
0
  0
INSERT
  8
LAYER_6
  2
AIGNBL06030014
 10
0
 20
0
 30
0
  0
INSERT
  8
LAYER_6
  2
AIGNBL06030015
 10
0
 20
0
 30
0
  0
INSERT
  8
LAYER_6
  2
AIGNBL06030016
 10
0
 20
0
 30
0
  0
INSERT
  8
LAYER_6
  2
AIGNBL06030017
 10
0
 20
0
 30
0
  0
INSERT
  8
LAYER_6
  2
AIGNBL06030018
 10
0
 20
0
 30
0
  0
INSERT
  8
LAYER_6
  2
AIGNBL06030019
 10
0
 20
0
 30
0
  0
INSERT
  8
LAYER_6
  2
AIGNBL0603001A
 10
0
 20
0
 30
0
  0
INSERT
  8
LAYER_6
  2
AIGNBL0603001B
 10
0
 20
0
 30
0
  0
INSERT
  8
LAYER_6
  2
AIGNBL0603001C
 10
0
 20
0
 30
0
  0
INSERT
  8
LAYER_6
  2
AIGNBL0603001D
 10
0
 20
0
 30
0
  0
INSERT
  8
LAYER_6
  2
AIGNBL0603001E
 10
0
 20
0
 30
0
  0
INSERT
  8
LAYER_6
  2
AIGNBL0603001F
 10
0
 20
0
 30
0
  0
INSERT
  8
LAYER_6
  2
AIGNBL06030020
 10
0
 20
0
 30
0
  0
INSERT
  8
LAYER_6
  2
AIGNBL06030021
 10
0
 20
0
 30
0
  0
INSERT
  8
LAYER_6
  2
AIGNBL06030022
 10
0
 20
0
 30
0
  0
INSERT
  8
LAYER_6
  2
AIGNBL06030023
 10
0
 20
0
 30
0
  0
INSERT
  8
LAYER_6
  2
AIGNBL06030024
 10
0
 20
0
 30
0
  0
ENDBLK
  0
BLOCK
  8
LAYER_6
  2
AIGNBL06010002
 70
64
 10
0
 20
0
 30
0
  3
AIGNBL06010002
  0
POLYLINE
  8
LAYER_6
 40
0.7056
 41
0.7056
 66
1
 10
0
 20
0
 30
0
 70
1
  0
VERTEX
  8
LAYER_6
 10
206.0763
 20
269.2235
  0
VERTEX
  8
LAYER_6
 10
206.0763
 20
-7.7766
  0
VERTEX
  8
LAYER_6
 10
16.0764
 20
-7.7766
  0
VERTEX
  8
LAYER_6
 10
16.0764
 20
269.2235
  0
SEQEND
  0
ENDBLK
  0
BLOCK
  8
LAYER_6
  2
AIGNBL06010003
 70
64
 10
0
 20
0
 30
0
  3
AIGNBL06010003
  0
INSERT
  8
LAYER_6
  2
AIGNBL06020004
 10
0
 20
0
 30
0
  0
INSERT
  8
LAYER_6
  2
AIGNBL0602000D
 10
0
 20
0
 30
0
  0
ENDBLK
  0
BLOCK
  8
LAYER_6
  2
AIGNBL06010025
 70
64
 10
0
 20
0
 30
0
  3
AIGNBL06010025
  0
POLYLINE
  8
LAYER_6
 40
0.1058
 41
0.1058
 66
1
 10
0
 20
0
 30
0
  0
VERTEX
  8
LAYER_6
 10
108.9977
 20
170.1506
  0
VERTEX
  8
LAYER_6
 10
111.3531
 20
170.1506
  0
SEQEND
  0
POLYLINE
  8
LAYER_6
 40
0.1058
 41
0.1058
 66
1
 10
0
 20
0
 30
0
  0
VERTEX
  8
LAYER_6
 10
108.9977
 20
110.1925
  0
VERTEX
  8
LAYER_6
 10
111.3531
 20
110.1925
  0
SEQEND
  0
POLYLINE
  8
LAYER_6
 40
0.1058
 41
0.1058
 66
1
 10
0
 20
0
 30
0
  0
VERTEX
  8
LAYER_6
 10
110.1749
 20
170.1506
  0
VERTEX
  8
LAYER_6
 10
110.1749
 20
110.1925
  0
SEQEND
  0
ENDBLK
  0
BLOCK
  8
LAYER_6
  2
AIGNBL06010026
 70
64
 10
0
 20
0
 30
0
  3
AIGNBL06010026
  0
POLYLINE
  8
LAYER_6
 40
0.1058
 41
0.1058
 66
1
 10
0
 20
0
 30
0
  0
VERTEX
  8
LAYER_6
 10
40.9458
 20
170.1506
  0
VERTEX
  8
LAYER_6
 10
62.6809
 20
170.1506
  0
SEQEND
  0
POLYLINE
  8
LAYER_6
 40
0.1058
 41
0.1058
 66
1
 10
0
 20
0
 30
0
  0
VERTEX
  8
LAYER_6
 10
40.9458
 20
110.1925
  0
VERTEX
  8
LAYER_6
 10
62.6809
 20
110.1925
  0
SEQEND
  0
POLYLINE
  8
LAYER_6
 40
0.1058
 41
0.1058
 66
1
 10
0
 20
0
 30
0
  0
VERTEX
  8
LAYER_6
 10
42.125
 20
170.1506
  0
VERTEX
  8
LAYER_6
 10
42.125
 20
110.1925
  0
SEQEND
  0
ENDBLK
  0
BLOCK
  8
LAYER_6
  2
AIGNBL06010027
 70
64
 10
0
 20
0
 30
0
  3
AIGNBL06010027
  0
POLYLINE
  8
LAYER_6
 40
0.1058
 41
0.1058
 66
1
 10
0
 20
0
 30
0
  0
VERTEX
  8
LAYER_6
 10
192.9226
 20
141.2759
  0
VERTEX
  8
LAYER_6
 10
157.8422
 20
141.2759
  0
VERTEX
  8
LAYER_6
 10
157.8422
 20
139.0241
  0
VERTEX
  8
LAYER_6
 10
192.9226
 20
139.0241
  0
SEQEND
  0
POLYLINE
  8
LAYER_6
 40
0.1058
 41
0.1058
 66
1
 10
0
 20
0
 30
0
 70
1
  0
VERTEX
  8
LAYER_6
 10
192.9226
 20
139.028
  0
VERTEX
  8
LAYER_6
 10
195.5286
 20
140.1499
  0
VERTEX
  8
LAYER_6
 10
192.9226
 20
141.2718
  0
SEQEND
  0
POLYLINE
  8
LAYER_6
 40
0.1058
 41
0.1058
 66
1
 10
0
 20
0
 30
0
  0
VERTEX
  8
LAYER_6
 10
192.9438
 20
141.5842
  0
VERTEX
  8
LAYER_6
 10
191.5728
 20
138.7148
  0
SEQEND
  0
POLYLINE
  8
LAYER_6
 40
0.1058
 41
0.1058
 66
1
 10
0
 20
0
 30
0
  0
VERTEX
  8
LAYER_6
 10
191.7221
 20
141.5842
  0
VERTEX
  8
LAYER_6
 10
190.3504
 20
138.7148
  0
SEQEND
  0
POLYLINE
  8
LAYER_6
 40
0.1058
 41
0.1058
 66
1
 10
0
 20
0
 30
0
  0
VERTEX
  8
LAYER_6
 10
190.5002
 20
141.5842
  0
VERTEX
  8
LAYER_6
 10
189.1287
 20
138.7148
  0
SEQEND
  0
POLYLINE
  8
LAYER_6
 40
0.1058
 41
0.1058
 66
1
 10
0
 20
0
 30
0
  0
VERTEX
  8
LAYER_6
 10
189.2784
 20
141.5842
  0
VERTEX
  8
LAYER_6
 10
187.9071
 20
138.7148
  0
SEQEND
  0
POLYLINE
  8
LAYER_6
 40
0.1058
 41
0.1058
 66
1
 10
0
 20
0
 30
0
  0
VERTEX
  8
LAYER_6
 10
188.0562
 20
141.5842
  0
VERTEX
  8
LAYER_6
 10
186.6852
 20
138.7148
  0
SEQEND
  0
POLYLINE
  8
LAYER_6
 40
0.1058
 41
0.1058
 66
1
 10
0
 20
0
 30
0
  0
VERTEX
  8
LAYER_6
 10
186.8343
 20
141.5842
  0
VERTEX
  8
LAYER_6
 10
185.4633
 20
138.7148
  0
SEQEND
  0
POLYLINE
  8
LAYER_6
 40
0.1058
 41
0.1058
 66
1
 10
0
 20
0
 30
0
  0
VERTEX
  8
LAYER_6
 10
185.6127
 20
141.5842
  0
VERTEX
  8
LAYER_6
 10
184.2425
 20
138.7148
  0
SEQEND
  0
POLYLINE
  8
LAYER_6
 40
0.1058
 41
0.1058
 66
1
 10
0
 20
0
 30
0
  0
VERTEX
  8
LAYER_6
 10
184.3923
 20
141.5842
  0
VERTEX
  8
LAYER_6
 10
183.0214
 20
138.7148
  0
SEQEND
  0
POLYLINE
  8
LAYER_6
 40
0.1058
 41
0.1058
 66
1
 10
0
 20
0
 30
0
  0
VERTEX
  8
LAYER_6
 10
183.1704
 20
141.5842
  0
VERTEX
  8
LAYER_6
 10
181.7997
 20
138.7148
  0
SEQEND
  0
POLYLINE
  8
LAYER_6
 40
0.1058
 41
0.1058
 66
1
 10
0
 20
0
 30
0
  0
VERTEX
  8
LAYER_6
 10
181.9485
 20
141.5842
  0
VERTEX
  8
LAYER_6
 10
180.5773
 20
138.7148
  0
SEQEND
  0
POLYLINE
  8
LAYER_6
 40
0.1058
 41
0.1058
 66
1
 10
0
 20
0
 30
0
  0
VERTEX
  8
LAYER_6
 10
180.7264
 20
141.5842
  0
VERTEX
  8
LAYER_6
 10
179.3557
 20
138.7148
  0
SEQEND
  0
POLYLINE
  8
LAYER_6
 40
0.1058
 41
0.1058
 66
1
 10
0
 20
0
 30
0
  0
VERTEX
  8
LAYER_6
 10
179.5045
 20
141.5842
  0
VERTEX
  8
LAYER_6
 10
178.1338
 20
138.7148
  0
SEQEND
  0
POLYLINE
  8
LAYER_6
 40
0.1058
 41
0.1058
 66
1
 10
0
 20
0
 30
0
  0
VERTEX
  8
LAYER_6
 10
178.2826
 20
141.5842
  0
VERTEX
  8
LAYER_6
 10
176.9114
 20
138.7148
  0
SEQEND
  0
POLYLINE
  8
LAYER_6
 40
0.1058
 41
0.1058
 66
1
 10
0
 20
0
 30
0
  0
VERTEX
  8
LAYER_6
 10
177.0605
 20
141.5842
  0
VERTEX
  8
LAYER_6
 10
175.6898
 20
138.7148
  0
SEQEND
  0
POLYLINE
  8
LAYER_6
 40
0.1058
 41
0.1058
 66
1
 10
0
 20
0
 30
0
  0
VERTEX
  8
LAYER_6
 10
175.8383
 20
141.5842
  0
VERTEX
  8
LAYER_6
 10
174.4676
 20
138.7148
  0
SEQEND
  0
POLYLINE
  8
LAYER_6
 40
0.1058
 41
0.1058
 66
1
 10
0
 20
0
 30
0
  0
VERTEX
  8
LAYER_6
 10
174.6162
 20
141.5842
  0
VERTEX
  8
LAYER_6
 10
173.2455
 20
138.7148
  0
SEQEND
  0
POLYLINE
  8
LAYER_6
 40
0.1058
 41
0.1058
 66
1
 10
0
 20
0
 30
0
  0
VERTEX
  8
LAYER_6
 10
173.394
 20
141.5842
  0
VERTEX
  8
LAYER_6
 10
172.0233
 20
138.7148
  0
SEQEND
  0
POLYLINE
  8
LAYER_6
 40
0.1058
 41
0.1058
 66
1
 10
0
 20
0
 30
0
  0
VERTEX
  8
LAYER_6
 10
172.1718
 20
141.5842
  0
VERTEX
  8
LAYER_6
 10
170.8011
 20
138.7148
  0
SEQEND
  0
POLYLINE
  8
LAYER_6
 40
0.1058
 41
0.1058
 66
1
 10
0
 20
0
 30
0
  0
VERTEX
  8
LAYER_6
 10
170.9497
 20
141.5842
  0
VERTEX
  8
LAYER_6
 10
169.579
 20
138.7148
  0
SEQEND
  0
POLYLINE
  8
LAYER_6
 40
0.1058
 41
0.1058
 66
1
 10
0
 20
0
 30
0
  0
VERTEX
  8
LAYER_6
 10
169.7275
 20
141.5842
  0
VERTEX
  8
LAYER_6
 10
168.3568
 20
138.7148
  0
SEQEND
  0
POLYLINE
  8
LAYER_6
 40
0.1058
 41
0.1058
 66
1
 10
0
 20
0
 30
0
  0
VERTEX
  8
LAYER_6
 10
168.5053
 20
141.5842
  0
VERTEX
  8
LAYER_6
 10
167.1346
 20
138.7148
  0
SEQEND
  0
POLYLINE
  8
LAYER_6
 40
0.1058
 41
0.1058
 66
1
 10
0
 20
0
 30
0
  0
VERTEX
  8
LAYER_6
 10
168.0022
 20
141.5842
  0
VERTEX
  8
LAYER_6
 10
166.6315
 20
138.7148
  0
SEQEND
  0
POLYLINE
  8
LAYER_6
 40
0.1058
 41
0.1058
 66
1
 10
0
 20
0
 30
0
  0
VERTEX
  8
LAYER_6
 10
167.4992
 20
141.5842
  0
VERTEX
  8
LAYER_6
 10
166.1285
 20
138.7148
  0
SEQEND
  0
POLYLINE
  8
LAYER_6
 40
0.1058
 41
0.1058
 66
1
 10
0
 20
0
 30
0
  0
VERTEX
  8
LAYER_6
 10
166.9961
 20
141.5842
  0
VERTEX
  8
LAYER_6
 10
165.6254
 20
138.7148
  0
SEQEND
  0
POLYLINE
  8
LAYER_6
 40
0.1058
 41
0.1058
 66
1
 10
0
 20
0
 30
0
  0
VERTEX
  8
LAYER_6
 10
166.493
 20
141.5842
  0
VERTEX
  8
LAYER_6
 10
165.1223
 20
138.7148
  0
SEQEND
  0
POLYLINE
  8
LAYER_6
 40
0.1058
 41
0.1058
 66
1
 10
0
 20
0
 30
0
  0
VERTEX
  8
LAYER_6
 10
165.9899
 20
141.5842
  0
VERTEX
  8
LAYER_6
 10
164.6192
 20
138.7148
  0
SEQEND
  0
POLYLINE
  8
LAYER_6
 40
0.1058
 41
0.1058
 66
1
 10
0
 20
0
 30
0
  0
VERTEX
  8
LAYER_6
 10
165.4868
 20
141.5842
  0
VERTEX
  8
LAYER_6
 10
164.1161
 20
138.7148
  0
SEQEND
  0
POLYLINE
  8
LAYER_6
 40
0.1058
 41
0.1058
 66
1
 10
0
 20
0
 30
0
  0
VERTEX
  8
LAYER_6
 10
164.9837
 20
141.5842
  0
VERTEX
  8
LAYER_6
 10
163.613
 20
138.7148
  0
SEQEND
  0
POLYLINE
  8
LAYER_6
 40
0.1058
 41
0.1058
 66
1
 10
0
 20
0
 30
0
  0
VERTEX
  8
LAYER_6
 10
164.4806
 20
141.5842
  0
VERTEX
  8
LAYER_6
 10
163.1099
 20
138.7148
  0
SEQEND
  0
POLYLINE
  8
LAYER_6
 40
0.1058
 41
0.1058
 66
1
 10
0
 20
0
 30
0
  0
VERTEX
  8
LAYER_6
 10
163.9776
 20
141.5842
  0
VERTEX
  8
LAYER_6
 10
162.6069
 20
138.7148
  0
SEQEND
  0
POLYLINE
  8
LAYER_6
 40
0.1058
 41
0.1058
 66
1
 10
0
 20
0
 30
0
  0
VERTEX
  8
LAYER_6
 10
163.4745
 20
141.5842
  0
VERTEX
  8
LAYER_6
 10
162.1038
 20
138.7148
  0
SEQEND
  0
POLYLINE
  8
LAYER_6
 40
0.1058
 41
0.1058
 66
1
 10
0
 20
0
 30
0
  0
VERTEX
  8
LAYER_6
 10
162.9714
 20
141.5842
  0
VERTEX
  8
LAYER_6
 10
161.6007
 20
138.7148
  0
SEQEND
  0
POLYLINE
  8
LAYER_6
 40
0.1058
 41
0.1058
 66
1
 10
0
 20
0
 30
0
  0
VERTEX
  8
LAYER_6
 10
162.4683
 20
141.5842
  0
VERTEX
  8
LAYER_6
 10
161.0976
 20
138.7148
  0
SEQEND
  0
POLYLINE
  8
LAYER_6
 40
0.1058
 41
0.1058
 66
1
 10
0
 20
0
 30
0
  0
VERTEX
  8
LAYER_6
 10
161.9652
 20
141.5842
  0
VERTEX
  8
LAYER_6
 10
160.5945
 20
138.7148
  0
SEQEND
  0
POLYLINE
  8
LAYER_6
 40
0.1058
 41
0.1058
 66
1
 10
0
 20
0
 30
0
  0
VERTEX
  8
LAYER_6
 10
161.4621
 20
141.5842
  0
VERTEX
  8
LAYER_6
 10
160.0914
 20
138.7148
  0
SEQEND
  0
POLYLINE
  8
LAYER_6
 40
0.1058
 41
0.1058
 66
1
 10
0
 20
0
 30
0
  0
VERTEX
  8
LAYER_6
 10
160.959
 20
141.5842
  0
VERTEX
  8
LAYER_6
 10
159.5883
 20
138.7148
  0
SEQEND
  0
POLYLINE
  8
LAYER_6
 40
0.1058
 41
0.1058
 66
1
 10
0
 20
0
 30
0
  0
VERTEX
  8
LAYER_6
 10
160.4559
 20
141.5842
  0
VERTEX
  8
LAYER_6
 10
159.0852
 20
138.7148
  0
SEQEND
  0
POLYLINE
  8
LAYER_6
 40
0.1058
 41
0.1058
 66
1
 10
0
 20
0
 30
0
  0
VERTEX
  8
LAYER_6
 10
159.9529
 20
141.5842
  0
VERTEX
  8
LAYER_6
 10
158.5822
 20
138.7148
  0
SEQEND
  0
POLYLINE
  8
LAYER_6
 40
0.1058
 41
0.1058
 66
1
 10
0
 20
0
 30
0
  0
VERTEX
  8
LAYER_6
 10
159.4498
 20
141.5842
  0
VERTEX
  8
LAYER_6
 10
158.0791
 20
138.7148
  0
SEQEND
  0
POLYLINE
  8
LAYER_6
 40
0.1058
 41
0.1058
 66
1
 10
0
 20
0
 30
0
  0
VERTEX
  8
LAYER_6
 10
154.5859
 20
140.1499
  0
VERTEX
  8
LAYER_6
 10
196.7428
 20
140.1499
  0
SEQEND
  0
ENDBLK
  0
ENDSEC
  0
SECTION
  2
ENTITIES
  0
TEXT
  8
LAYER_6
 10
18.4399
 20
5.4632
 11
18.4399
 21
5.4632
 40
3.6126
 41
0.5
  1
仕様
  0
POLYLINE
  8
LAYER_6
 40
0.3528
 41
0.3528
 66
1
 10
0
 20
0
 30
0
  0
VERTEX
  8
LAYER_6
 10
205.0762
 20
10.8455
  0
VERTEX
  8
LAYER_6
 10
17.0763
 20
10.8455
  0
SEQEND
  0
INSERT
  8
LAYER_6
  2
AIGNBL06010002
 10
0
 20
0
 30
0
  0
POLYLINE
  8
LAYER_6
 40
0.3528
 41
0.3528
 66
1
 10
0
 20
0
 30
0
  0
VERTEX
  8
LAYER_6
 10
17.0763
 20
268.2234
  0
VERTEX
  8
LAYER_6
 10
17.0763
 20
-6.7769
  0
VERTEX
  8
LAYER_6
 10
205.0762
 20
-6.7769
  0
VERTEX
  8
LAYER_6
 10
205.0762
 20
268.2234
  0
VERTEX
  8
LAYER_6
 10
17.0763
 20
268.2234
  0
SEQEND
  0
POLYLINE
  8
LAYER_6
 40
0.3528
 41
0.3528
 66
1
 10
0
 20
0
 30
0
  0
VERTEX
  8
LAYER_6
 10
205.0762
 20
19.3546
  0
VERTEX
  8
LAYER_6
 10
17.0763
 20
19.3546
  0
SEQEND
  0
POLYLINE
  8
LAYER_6
 40
0.3528
 41
0.3528
 66
1
 10
0
 20
0
 30
0
  0
VERTEX
  8
LAYER_6
 10
205.0762
 20
2.3365
  0
VERTEX
  8
LAYER_6
 10
127.3025
 20
2.3365
  0
SEQEND
  0
TEXT
  8
LAYER_6
 10
157.5084
 20
4.5803
 11
157.5084
 21
4.5803
 40
4.2629
 41
0.5
  1
-
  0
TEXT
  8
LAYER_6
 10
152.2167
 20
8.3692
 11
152.2167
 21
8.3692
 40
2.4084
 41
0.5
  1
縮尺
  0
POLYLINE
  8
LAYER_6
 40
0.3528
 41
0.3528
 66
1
 10
0
 20
0
 30
0
  0
VERTEX
  8
LAYER_6
 10
150.6885
 20
2.3365
  0
VERTEX
  8
LAYER_6
 10
150.6885
 20
10.8455
  0
SEQEND
  0
TEXT
  8
LAYER_6
 10
128.0011
 20
16.8782
 11
128.0011
 21
16.8782
 40
2.4084
 41
0.5
  1
品番
  0
TEXT
  8
LAYER_6
 10
18.2332
 20
16.8782
 11
18.2332
 21
16.8782
 40
2.4084
 41
0.5
  1
品名
  0
TEXT
  8
LAYER_6
 10
128.0011
 20
8.3692
 11
128.0011
 21
8.3692
 40
2.4084
 41
0.5
  1
重量
  0
TEXT
  8
LAYER_6
 10
135.5345
 20
13.0714
 11
135.5345
 21
13.0714
 40
4.3757
 41
0.5
  1
EX-DOTS●●/BI　
  0
TEXT
  8
LAYER_6
 10
133.3138
 20
4.5803
 11
133.3138
 21
4.5803
 40
4.2629
 41
0.5
  1
-
  0
POLYLINE
  8
LAYER_6
 40
0.3528
 41
0.3528
 66
1
 10
0
 20
0
 30
0
  0
VERTEX
  8
LAYER_6
 10
127.3025
 20
-6.1512
  0
VERTEX
  8
LAYER_6
 10
127.3025
 20
19.3546
  0
SEQEND
  0
TEXT
  8
LAYER_6
 10
23.755
 20
13.7859
 11
23.755
 21
13.7859
 40
3.9824
 41
0.5
  1
ドッツ・壁付けフック
  0
TEXT
  8
LAYER_6
 10
26.8572
 20
5.6546
 11
26.8572
 21
5.6546
 40
3.5245
 41
0.5
  1
●大理石×アルミニウム塗装（ブラケット部）●サイズ：80×D60mm●アンカープラグ同梱
  0
TEXT
  8
LAYER_6
 10
26.8572
 20
0.9045
 11
26.8572
 21
0.9045
 40
2.9868
 41
0.5
  1
●フック部は天然石のため、ひとつづつ柄や色調が異なります。
  0
TEXT
  8
LAYER_6
 10
26.8572
 20
-3.8453
 11
26.8572
 21
-3.8453
 40
3.5245
 41
0.5
  1
●酸洗いはお避けください。●裏板補強30mm以上推奨●耐荷重5kg以下
  0
TEXT
  8
LAYER_6
 10
191.6644
 20
22.153
 11
191.6644
 21
22.153
 40
3.3566
 41
0.5
  1
単位：mm
  0
TEXT
  8
LAYER_6
 10
192.6441
 20
263.4961
 11
192.6441
 21
263.4961
 40
2.3496
 41
0.5
  1
200203RT
  0
TEXT
  8
LAYER_6
 10
154.3861
 20
-1.5679
 11
154.3861
 21
-1.5679
 40
3.252
 41
0.5
  1
●TEL 0120-65-1232●FAX 06-6532-1580
  0
TEXT
  8
LAYER_6
 10
154.3861
 20
-4.5713
 11
154.3861
 21
-4.5713
 40
3.252
 41
0.5
  1
hits@hiratatile.co.jp
  0
INSERT
  8
LAYER_6
  2
AIGNBL06010003
 10
0
 20
0
 30
0
  0
POLYLINE
  8
LAYER_6
 40
0.1058
 41
0.1058
 66
1
 10
0
 20
0
 30
0
  0
VERTEX
  8
LAYER_6
 10
112.83
 20
107.1281
  0
VERTEX
  8
LAYER_6
 10
112.83
 20
109.4856
  0
SEQEND
  0
POLYLINE
  8
LAYER_6
 40
0.1058
 41
0.1058
 66
1
 10
0
 20
0
 30
0
  0
VERTEX
  8
LAYER_6
 10
127.8183
 20
107.1281
  0
VERTEX
  8
LAYER_6
 10
127.8183
 20
109.4856
  0
SEQEND
  0
POLYLINE
  8
LAYER_6
 40
0.1058
 41
0.1058
 66
1
 10
0
 20
0
 30
0
  0
VERTEX
  8
LAYER_6
 10
157.7988
 20
129.1867
  0
VERTEX
  8
LAYER_6
 10
157.7988
 20
131.5411
  0
SEQEND
  0
POLYLINE
  8
LAYER_6
 40
0.1058
 41
0.1058
 66
1
 10
0
 20
0
 30
0
  0
VERTEX
  8
LAYER_6
 10
157.7988
 20
171.1149
  0
VERTEX
  8
LAYER_6
 10
157.7988
 20
173.4703
  0
SEQEND
  0
POLYLINE
  8
LAYER_6
 40
0.1058
 41
0.1058
 66
1
 10
0
 20
0
 30
0
  0
VERTEX
  8
LAYER_6
 10
112.83
 20
171.1149
  0
VERTEX
  8
LAYER_6
 10
112.83
 20
173.4703
  0
SEQEND
  0
POLYLINE
  8
LAYER_6
 40
0.1058
 41
0.1058
 66
1
 10
0
 20
0
 30
0
 70
1
  0
VERTEX
  8
LAYER_6
 10
104.0096
 20
140.1731
  0
VERTEX
  8
LAYER_6
 10
103.9238
 20
142.3983
  0
VERTEX
  8
LAYER_6
 10
103.6696
 20
144.6245
  0
VERTEX
  8
LAYER_6
 10
103.2396
 20
146.8094
  0
VERTEX
  8
LAYER_6
 10
102.6805
 20
148.9943
  0
VERTEX
  8
LAYER_6
 10
101.955
 20
151.1347
  0
VERTEX
  8
LAYER_6
 10
101.0537
 20
153.1894
  0
VERTEX
  8
LAYER_6
 10
99.9851
 20
155.1614
  0
VERTEX
  8
LAYER_6
 10
98.7851
 20
157.0445
  0
VERTEX
  8
LAYER_6
 10
97.457
 20
158.8449
  0
VERTEX
  8
LAYER_6
 10
95.9998
 20
160.5564
  0
VERTEX
  8
LAYER_6
 10
94.4164
 20
162.1428
  0
VERTEX
  8
LAYER_6
 10
92.7018
 20
163.597
  0
VERTEX
  8
LAYER_6
 10
90.9024
 20
164.9272
  0
VERTEX
  8
LAYER_6
 10
89.0204
 20
166.124
  0
VERTEX
  8
LAYER_6
 10
87.0091
 20
167.1958
  0
VERTEX
  8
LAYER_6
 10
84.9524
 20
168.096
  0
VERTEX
  8
LAYER_6
 10
82.8523
 20
168.8236
  0
VERTEX
  8
LAYER_6
 10
80.6684
 20
169.422
  0
VERTEX
  8
LAYER_6
 10
78.4856
 20
169.8085
  0
VERTEX
  8
LAYER_6
 10
76.2583
 20
170.0659
  0
VERTEX
  8
LAYER_6
 10
73.9877
 20
170.1506
  0
VERTEX
  8
LAYER_6
 10
71.7604
 20
170.0659
  0
VERTEX
  8
LAYER_6
 10
69.5342
 20
169.8085
  0
VERTEX
  8
LAYER_6
 10
67.309
 20
169.422
  0
VERTEX
  8
LAYER_6
 10
65.1644
 20
168.8236
  0
VERTEX
  8
LAYER_6
 10
63.0261
 20
168.096
  0
VERTEX
  8
LAYER_6
 10
60.9683
 20
167.1958
  0
VERTEX
  8
LAYER_6
 10
58.9984
 20
166.124
  0
VERTEX
  8
LAYER_6
 10
57.1133
 20
164.9272
  0
VERTEX
  8
LAYER_6
 10
55.2725
 20
163.597
  0
VERTEX
  8
LAYER_6
 10
53.6013
 20
162.1428
  0
VERTEX
  8
LAYER_6
 10
52.018
 20
160.5564
  0
VERTEX
  8
LAYER_6
 10
50.5617
 20
158.8449
  0
VERTEX
  8
LAYER_6
 10
49.1902
 20
157.0445
  0
VERTEX
  8
LAYER_6
 10
48.0347
 20
155.1614
  0
VERTEX
  8
LAYER_6
 10
46.9651
 20
153.1894
  0
VERTEX
  8
LAYER_6
 10
46.0648
 20
151.1347
  0
VERTEX
  8
LAYER_6
 10
45.3372
 20
148.9943
  0
VERTEX
  8
LAYER_6
 10
44.7368
 20
146.8094
  0
VERTEX
  8
LAYER_6
 10
44.3089
 20
144.6245
  0
VERTEX
  8
LAYER_6
 10
44.0949
 20
142.3983
  0
VERTEX
  8
LAYER_6
 10
44.0092
 20
140.1731
  0
VERTEX
  8
LAYER_6
 10
44.0949
 20
137.9014
  0
VERTEX
  8
LAYER_6
 10
44.3089
 20
135.6742
  0
VERTEX
  8
LAYER_6
 10
44.7368
 20
133.4914
  0
VERTEX
  8
LAYER_6
 10
45.3372
 20
131.3065
  0
VERTEX
  8
LAYER_6
 10
46.0648
 20
129.2095
  0
VERTEX
  8
LAYER_6
 10
46.9651
 20
127.1517
  0
VERTEX
  8
LAYER_6
 10
48.0347
 20
125.1394
  0
VERTEX
  8
LAYER_6
 10
49.1902
 20
123.2532
  0
VERTEX
  8
LAYER_6
 10
50.5617
 20
121.4559
  0
VERTEX
  8
LAYER_6
 10
52.018
 20
119.7413
  0
VERTEX
  8
LAYER_6
 10
53.6013
 20
118.1579
  0
VERTEX
  8
LAYER_6
 10
55.2725
 20
116.7007
  0
VERTEX
  8
LAYER_6
 10
57.1133
 20
115.3736
  0
VERTEX
  8
LAYER_6
 10
58.9984
 20
114.1737
  0
VERTEX
  8
LAYER_6
 10
60.9683
 20
113.104
  0
VERTEX
  8
LAYER_6
 10
63.0261
 20
112.2038
  0
VERTEX
  8
LAYER_6
 10
65.1644
 20
111.4772
  0
VERTEX
  8
LAYER_6
 10
67.309
 20
110.9191
  0
VERTEX
  8
LAYER_6
 10
69.5342
 20
110.4923
  0
VERTEX
  8
LAYER_6
 10
71.7604
 20
110.2359
  0
VERTEX
  8
LAYER_6
 10
73.9877
 20
110.1481
  0
VERTEX
  8
LAYER_6
 10
76.2583
 20
110.2359
  0
VERTEX
  8
LAYER_6
 10
78.4856
 20
110.4923
  0
VERTEX
  8
LAYER_6
 10
80.6684
 20
110.9191
  0
VERTEX
  8
LAYER_6
 10
82.8523
 20
111.4772
  0
VERTEX
  8
LAYER_6
 10
84.9524
 20
112.2038
  0
VERTEX
  8
LAYER_6
 10
87.0091
 20
113.104
  0
VERTEX
  8
LAYER_6
 10
89.0204
 20
114.1737
  0
VERTEX
  8
LAYER_6
 10
90.9024
 20
115.3736
  0
VERTEX
  8
LAYER_6
 10
92.7018
 20
116.7007
  0
VERTEX
  8
LAYER_6
 10
94.4164
 20
118.1579
  0
VERTEX
  8
LAYER_6
 10
95.9998
 20
119.7413
  0
VERTEX
  8
LAYER_6
 10
97.457
 20
121.4559
  0
VERTEX
  8
LAYER_6
 10
98.7851
 20
123.2532
  0
VERTEX
  8
LAYER_6
 10
99.9851
 20
125.1394
  0
VERTEX
  8
LAYER_6
 10
101.0537
 20
127.1517
  0
VERTEX
  8
LAYER_6
 10
101.955
 20
129.2095
  0
VERTEX
  8
LAYER_6
 10
102.6805
 20
131.3065
  0
VERTEX
  8
LAYER_6
 10
103.2396
 20
133.4914
  0
VERTEX
  8
LAYER_6
 10
103.6696
 20
135.6742
  0
VERTEX
  8
LAYER_6
 10
103.9238
 20
137.9014
  0
SEQEND
  0
POLYLINE
  8
LAYER_6
 40
0.1058
 41
0.1058
 66
1
 10
0
 20
0
 30
0
  0
VERTEX
  8
LAYER_6
 10
81.5262
 20
140.1731
  0
VERTEX
  8
LAYER_6
 10
81.4404
 20
141.2408
  0
VERTEX
  8
LAYER_6
 10
81.2689
 20
142.0118
  0
SEQEND
  0
POLYLINE
  8
LAYER_6
 40
0.1058
 41
0.1058
 66
1
 10
0
 20
0
 30
0
  0
VERTEX
  8
LAYER_6
 10
80.069
 20
144.5388
  0
VERTEX
  8
LAYER_6
 10
79.6855
 20
145.0545
  0
VERTEX
  8
LAYER_6
 10
78.9156
 20
145.8255
  0
VERTEX
  8
LAYER_6
 10
78.7864
 20
145.9102
  0
SEQEND
  0
POLYLINE
  8
LAYER_6
 40
0.1058
 41
0.1058
 66
1
 10
0
 20
0
 30
0
  0
VERTEX
  8
LAYER_6
 10
76.2997
 20
147.2797
  0
VERTEX
  8
LAYER_6
 10
76.1291
 20
147.3675
  0
VERTEX
  8
LAYER_6
 10
75.0584
 20
147.5804
  0
VERTEX
  8
LAYER_6
 10
74.459
 20
147.6238
  0
SEQEND
  0
POLYLINE
  8
LAYER_6
 40
0.1058
 41
0.1058
 66
1
 10
0
 20
0
 30
0
  0
VERTEX
  8
LAYER_6
 10
71.6757
 20
147.2797
  0
VERTEX
  8
LAYER_6
 10
70.9036
 20
146.981
  0
VERTEX
  8
LAYER_6
 10
70.0045
 20
146.4673
  0
SEQEND
  0
POLYLINE
  8
LAYER_6
 40
0.1058
 41
0.1058
 66
1
 10
0
 20
0
 30
0
  0
VERTEX
  8
LAYER_6
 10
67.9488
 20
144.5388
  0
VERTEX
  8
LAYER_6
 10
67.6914
 20
144.1977
  0
VERTEX
  8
LAYER_6
 10
67.1778
 20
143.2541
  0
VERTEX
  8
LAYER_6
 10
67.0506
 20
142.912
  0
SEQEND
  0
POLYLINE
  8
LAYER_6
 40
0.1058
 41
0.1058
 66
1
 10
0
 20
0
 30
0
  0
VERTEX
  8
LAYER_6
 10
66.4936
 20
140.1731
  0
VERTEX
  8
LAYER_6
 10
66.5783
 20
139.1003
  0
VERTEX
  8
LAYER_6
 10
66.7499
 20
138.288
  0
SEQEND
  0
POLYLINE
  8
LAYER_6
 40
0.1058
 41
0.1058
 66
1
 10
0
 20
0
 30
0
  0
VERTEX
  8
LAYER_6
 10
67.9488
 20
135.761
  0
VERTEX
  8
LAYER_6
 10
68.3353
 20
135.2463
  0
VERTEX
  8
LAYER_6
 10
69.1042
 20
134.4753
  0
VERTEX
  8
LAYER_6
 10
69.2324
 20
134.3895
  0
SEQEND
  0
POLYLINE
  8
LAYER_6
 40
0.1058
 41
0.1058
 66
1
 10
0
 20
0
 30
0
  0
VERTEX
  8
LAYER_6
 10
71.6757
 20
133.0201
  0
VERTEX
  8
LAYER_6
 10
71.8896
 20
132.9767
  0
VERTEX
  8
LAYER_6
 10
72.9169
 20
132.7193
  0
VERTEX
  8
LAYER_6
 10
73.5164
 20
132.6769
  0
SEQEND
  0
POLYLINE
  8
LAYER_6
 40
0.1058
 41
0.1058
 66
1
 10
0
 20
0
 30
0
  0
VERTEX
  8
LAYER_6
 10
76.2997
 20
133.0201
  0
VERTEX
  8
LAYER_6
 10
77.1151
 20
133.3188
  0
VERTEX
  8
LAYER_6
 10
78.0143
 20
133.8324
  0
SEQEND
  0
POLYLINE
  8
LAYER_6
 40
0.1058
 41
0.1058
 66
1
 10
0
 20
0
 30
0
  0
VERTEX
  8
LAYER_6
 10
80.069
 20
135.761
  0
VERTEX
  8
LAYER_6
 10
80.3263
 20
136.1021
  0
VERTEX
  8
LAYER_6
 10
80.8389
 20
137.0457
  0
VERTEX
  8
LAYER_6
 10
80.9671
 20
137.3888
  0
SEQEND
  0
POLYLINE
  8
LAYER_6
 40
0.1058
 41
0.1058
 66
1
 10
0
 20
0
 30
0
  0
VERTEX
  8
LAYER_6
 10
81.5262
 20
140.1731
  0
VERTEX
  8
LAYER_6
 10
81.5696
 20
140.1731
  0
SEQEND
  0
POLYLINE
  8
LAYER_6
 40
0.1058
 41
0.1058
 66
1
 10
0
 20
0
 30
0
 70
1
  0
VERTEX
  8
LAYER_6
 10
112.83
 20
110.1481
  0
VERTEX
  8
LAYER_6
 10
127.8627
 20
110.1481
  0
VERTEX
  8
LAYER_6
 10
127.8627
 20
170.1506
  0
VERTEX
  8
LAYER_6
 10
112.83
 20
170.1506
  0
SEQEND
  0
POLYLINE
  8
LAYER_6
 40
0.1058
 41
0.1058
 66
1
 10
0
 20
0
 30
0
 70
1
  0
VERTEX
  8
LAYER_6
 10
127.8627
 20
132.6335
  0
VERTEX
  8
LAYER_6
 10
157.8422
 20
132.6335
  0
VERTEX
  8
LAYER_6
 10
157.8422
 20
147.6662
  0
VERTEX
  8
LAYER_6
 10
127.8627
 20
147.6662
  0
SEQEND
  0
INSERT
  8
LAYER_6
  2
AIGNBL06010025
 10
0
 20
0
 30
0
  0
INSERT
  8
LAYER_6
  2
AIGNBL06010026
 10
0
 20
0
 30
0
  0
POLYLINE
  8
LAYER_6
 40
0.1058
 41
0.1058
 66
1
 10
0
 20
0
 30
0
  0
VERTEX
  8
LAYER_6
 10
127.8183
 20
130.3639
  0
VERTEX
  8
LAYER_6
 10
157.7988
 20
130.3639
  0
SEQEND
  0
POLYLINE
  8
LAYER_6
 40
0.1058
 41
0.1058
 66
1
 10
0
 20
0
 30
0
  0
VERTEX
  8
LAYER_6
 10
127.8183
 20
108.3074
  0
VERTEX
  8
LAYER_6
 10
112.83
 20
108.3074
  0
SEQEND
  0
POLYLINE
  8
LAYER_6
 40
0.1058
 41
0.1058
 66
1
 10
0
 20
0
 30
0
  0
VERTEX
  8
LAYER_6
 10
112.83
 20
172.2911
  0
VERTEX
  8
LAYER_6
 10
157.7988
 20
172.2911
  0
SEQEND
  0
TEXT
  8
LAYER_6
 10
36.1466
 20
145.6791
 11
36.1466
 21
145.6791
 40
7.0986
 41
0.5
 50
270
  1
80
  0
TEXT
  8
LAYER_6
 10
140.0769
 20
124.7944
 11
140.0769
 21
124.7944
 40
7.0986
 41
0.5
  1
40
  0
TEXT
  8
LAYER_6
 10
134.0101
 20
174.3947
 11
134.0101
 21
174.3947
 40
7.0986
 41
0.5
  1
60
  0
POLYLINE
  8
LAYER_6
 40
0.1058
 41
0.1058
 66
1
 10
0
 20
0
 30
0
  0
VERTEX
  8
LAYER_6
 10
195.3422
 20
149.1074
  0
VERTEX
  8
LAYER_6
 10
195.3422
 20
151.0716
  0
SEQEND
  0
POLYLINE
  8
LAYER_6
 40
0.1058
 41
0.1058
 66
1
 10
0
 20
0
 30
0
  0
VERTEX
  8
LAYER_6
 10
157.8422
 20
149.1074
  0
VERTEX
  8
LAYER_6
 10
157.8422
 20
151.0716
  0
SEQEND
  0
POLYLINE
  8
LAYER_6
 40
0.1058
 41
0.1058
 66
1
 10
0
 20
0
 30
0
  0
VERTEX
  8
LAYER_6
 10
157.8422
 20
150.0882
  0
VERTEX
  8
LAYER_6
 10
195.3422
 20
150.0882
  0
SEQEND
  0
TEXT
  8
LAYER_6
 10
170.6545
 20
152.2074
 11
170.6545
 21
152.2074
 40
7.0986
 41
0.5
  1
≒50
  0
TEXT
  8
LAYER_6
 10
68.3624
 20
150.6339
 11
68.3624
 21
150.6339
 40
7.0986
 41
0.5
  1
20
  0
TEXT
  8
LAYER_6
 10
116.3471
 20
101.7812
 11
116.3471
 21
101.7812
 40
7.0986
 41
0.5
  1
20
  0
POLYLINE
  8
LAYER_6
 40
0.1058
 41
0.1058
 66
1
 10
0
 20
0
 30
0
  0
VERTEX
  8
LAYER_6
 10
66.5359
 20
144.1904
  0
VERTEX
  8
LAYER_6
 10
66.5359
 20
150.3255
  0
SEQEND
  0
POLYLINE
  8
LAYER_6
 40
0.1058
 41
0.1058
 66
1
 10
0
 20
0
 30
0
  0
VERTEX
  8
LAYER_6
 10
81.5262
 20
144.1904
  0
VERTEX
  8
LAYER_6
 10
81.5262
 20
150.3255
  0
SEQEND
  0
POLYLINE
  8
LAYER_6
 40
0.1058
 41
0.1058
 66
1
 10
0
 20
0
 30
0
  0
VERTEX
  8
LAYER_6
 10
81.5262
 20
149.1483
  0
VERTEX
  8
LAYER_6
 10
66.5359
 20
149.1483
  0
SEQEND
  0
INSERT
  8
LAYER_6
  2
AIGNBL06010027
 10
0
 20
0
 30
0
  0
ENDSEC
  0
EOF
