  0
SECTION
  2
HEADER
  9
$ACADVER
  1
AC1009
  9
$LUNITS
 70
2
  9
$LUPREC
 70
4
  9
$LTSCALE
 40
1.0
  9
$EXTMIN
 10
16.0764
 20
-7.7766
 30
0
  9
$EXTMAX
 10
206.0763
 20
269.2235
 30
0
  0
ENDSEC
  0
SECTION
  2
TABLES
  0
TABLE
  2
LTYPE
 70
256
  0
ENDTAB
  0
TABLE
  2
LAYER
 70
9
  0
LAYER
  2
LAYER_1
 70
64
 62
7
  6
CONTINUOUS
  0
LAYER
  2
LAYER_2
 70
64
 62
7
  6
CONTINUOUS
  0
LAYER
  2
LAYER_3
 70
64
 62
7
  6
CONTINUOUS
  0
LAYER
  2
LAYER_4
 70
64
 62
7
  6
CONTINUOUS
  0
LAYER
  2
LAYER_5
 70
64
 62
7
  6
CONTINUOUS
  0
LAYER
  2
LAYER_6
 70
64
 62
7
  6
CONTINUOUS
  0
LAYER
  2
LAYER_7
 70
64
 62
7
  6
CONTINUOUS
  0
LAYER
  2
LAYER_8
 70
64
 62
7
  6
CONTINUOUS
  0
LAYER
  2
LAYER_9
 70
64
 62
7
  6
CONTINUOUS
  0
ENDTAB
  0
TABLE
  2
STYLE
 70
6
  0
STYLE
  2
STANDARD
 70
0
 40
0
 50
0
 71
0
 41
0
 42
0
  3
TXT
  4
BIGFONT
  0
ENDTAB
  0
ENDSEC
  0
SECTION
  2
BLOCKS
  0
BLOCK
  8
LAYER_9
  2
AIGNBL09040006
 70
64
 10
0
 20
0
 30
0
  3
AIGNBL09040006
  0
POLYLINE
  8
LAYER_9
 40
0.05
 41
0.05
 66
1
 10
0
 20
0
 30
0
 70
1
  0
VERTEX
  8
LAYER_9
 10
129.456
 20
-2.0154
  0
VERTEX
  8
LAYER_9
 10
129.0416
 20
-3.02
  0
VERTEX
  8
LAYER_9
 10
128.5093
 20
-3.02
  0
VERTEX
  8
LAYER_9
 10
129.8649
 20
0.1719
  0
VERTEX
  8
LAYER_9
 10
130.4864
 20
0.1719
  0
VERTEX
  8
LAYER_9
 10
131.8483
 20
-3.02
  0
VERTEX
  8
LAYER_9
 10
131.2971
 20
-3.02
  0
VERTEX
  8
LAYER_9
 10
130.8709
 20
-2.0154
  0
SEQEND
  0
POLYLINE
  8
LAYER_9
 40
0.05
 41
0.05
 66
1
 10
0
 20
0
 30
0
 70
1
  0
VERTEX
  8
LAYER_9
 10
130.7645
 20
-1.6943
  0
VERTEX
  8
LAYER_9
 10
130.3738
 20
-0.7748
 42
-0.02216005297
  0
VERTEX
  8
LAYER_9
 10
130.1664
 20
-0.1926
  0
VERTEX
  8
LAYER_9
 10
130.1547
 20
-0.1926
  0
VERTEX
  8
LAYER_9
 10
129.9531
 20
-0.771
  0
VERTEX
  8
LAYER_9
 10
129.5628
 20
-1.6943
  0
SEQEND
  0
ENDBLK
  0
BLOCK
  8
LAYER_9
  2
AIGNBL09040007
 70
64
 10
0
 20
0
 30
0
  3
AIGNBL09040007
  0
POLYLINE
  8
LAYER_9
 40
0.05
 41
0.05
 66
1
 10
0
 20
0
 30
0
 70
1
  0
VERTEX
  8
LAYER_9
 10
135.5483
 20
-3.4888
 42
-0.01552181083
  0
VERTEX
  8
LAYER_9
 10
134.0208
 20
-3.1192
 42
0.09485548057
  0
VERTEX
  8
LAYER_9
 10
133.7779
 20
-3.0723
 42
-0.1003837549
  0
VERTEX
  8
LAYER_9
 10
132.9136
 20
-2.8753
 42
-0.1096977777
  0
VERTEX
  8
LAYER_9
 10
132.3509
 20
-2.4434
 42
-0.1713220547
  0
VERTEX
  8
LAYER_9
 10
132.0204
 20
-1.5054
 42
-0.006481895679
  0
VERTEX
  8
LAYER_9
 10
132.0198
 20
-1.4576
 42
-0.1157034776
  0
VERTEX
  8
LAYER_9
 10
132.1944
 20
-0.6874
 42
-0.1679073219
  0
VERTEX
  8
LAYER_9
 10
132.9309
 20
0.0216
 42
-0.1003512093
  0
VERTEX
  8
LAYER_9
 10
133.7293
 20
0.2196
 42
-0.01509702754
  0
VERTEX
  8
LAYER_9
 10
133.8788
 20
0.2239
 42
-0.1039813645
  0
VERTEX
  8
LAYER_9
 10
134.7542
 20
0.0481
 42
-0.1145898629
  0
VERTEX
  8
LAYER_9
 10
135.3272
 20
-0.3876
 42
-0.1701856296
  0
VERTEX
  8
LAYER_9
 10
135.666
 20
-1.3471
 42
-0.006054360336
  0
VERTEX
  8
LAYER_9
 10
135.6665
 20
-1.3911
 42
-0.1147479258
  0
VERTEX
  8
LAYER_9
 10
135.4962
 20
-2.1585
 42
-0.1768882835
  0
VERTEX
  8
LAYER_9
 10
134.7691
 20
-2.8357
 42
-0.03553098636
  0
VERTEX
  8
LAYER_9
 10
134.5299
 20
-2.9208
  0
VERTEX
  8
LAYER_9
 10
134.5299
 20
-2.9397
 42
0.015518042
  0
VERTEX
  8
LAYER_9
 10
135.6965
 20
-3.1433
  0
SEQEND
  0
POLYLINE
  8
LAYER_9
 40
0.05
 41
0.05
 66
1
 10
0
 20
0
 30
0
 70
1
  0
VERTEX
  8
LAYER_9
 10
135.1221
 20
-1.4094
 42
0.1259362341
  0
VERTEX
  8
LAYER_9
 10
134.9462
 20
-0.7184
 42
0.276679865
  0
VERTEX
  8
LAYER_9
 10
133.8606
 20
-0.1123
 42
0.1289955121
  0
VERTEX
  8
LAYER_9
 10
133.1745
 20
-0.2827
 42
0.1986420642
  0
VERTEX
  8
LAYER_9
 10
132.6285
 20
-1.0068
 42
0.0720917222
  0
VERTEX
  8
LAYER_9
 10
132.5704
 20
-1.4473
 42
0.1267003761
  0
VERTEX
  8
LAYER_9
 10
132.7336
 20
-2.1134
 42
0.2778201673
  0
VERTEX
  8
LAYER_9
 10
133.8371
 20
-2.7364
 42
0.1289462616
  0
VERTEX
  8
LAYER_9
 10
134.5134
 20
-2.5677
 42
0.1974163715
  0
VERTEX
  8
LAYER_9
 10
135.0613
 20
-1.849
 42
0.07132768739
  0
SEQEND
  0
ENDBLK
  0
BLOCK
  8
LAYER_9
  2
AIGNBL09040008
 70
64
 10
0
 20
0
 30
0
  3
AIGNBL09040008
  0
POLYLINE
  8
LAYER_9
 40
0.05
 41
0.05
 66
1
 10
0
 20
0
 30
0
 70
1
  0
VERTEX
  8
LAYER_9
 10
136.7917
 20
0.1719
  0
VERTEX
  8
LAYER_9
 10
136.7917
 20
-1.7177
 42
0.1389690947
  0
VERTEX
  8
LAYER_9
 10
136.9577
 20
-2.374
 42
0.2427126428
  0
VERTEX
  8
LAYER_9
 10
137.6108
 20
-2.7319
 42
0.02279498975
  0
VERTEX
  8
LAYER_9
 10
137.7211
 20
-2.7364
 42
0.1446729725
  0
VERTEX
  8
LAYER_9
 10
138.3259
 20
-2.5761
 42
0.1656579644
  0
VERTEX
  8
LAYER_9
 10
138.6235
 20
-2.1745
 42
0.08655069697
  0
VERTEX
  8
LAYER_9
 10
138.692
 20
-1.7177
  0
VERTEX
  8
LAYER_9
 10
138.692
 20
0.1719
  0
VERTEX
  8
LAYER_9
 10
139.2128
 20
0.1719
  0
VERTEX
  8
LAYER_9
 10
139.2128
 20
-1.6895
 42
-0.1213820876
  0
VERTEX
  8
LAYER_9
 10
139.0452
 20
-2.4294
 42
-0.2016338535
  0
VERTEX
  8
LAYER_9
 10
138.3376
 20
-2.9837
 42
-0.07892789043
  0
VERTEX
  8
LAYER_9
 10
137.7032
 20
-3.0723
 42
-0.1140673463
  0
VERTEX
  8
LAYER_9
 10
136.8908
 20
-2.9015
 42
-0.2086854916
  0
VERTEX
  8
LAYER_9
 10
136.338
 20
-2.2193
 42
-0.07376116688
  0
VERTEX
  8
LAYER_9
 10
136.2707
 20
-1.7081
  0
VERTEX
  8
LAYER_9
 10
136.2707
 20
0.1719
  0
SEQEND
  0
ENDBLK
  0
BLOCK
  8
LAYER_9
  2
AIGNBL09040009
 70
64
 10
0
 20
0
 30
0
  3
AIGNBL09040009
  0
POLYLINE
  8
LAYER_9
 40
0.05
 41
0.05
 66
1
 10
0
 20
0
 30
0
 70
1
  0
VERTEX
  8
LAYER_9
 10
140.6932
 20
-2.0154
  0
VERTEX
  8
LAYER_9
 10
140.2784
 20
-3.02
  0
VERTEX
  8
LAYER_9
 10
139.7462
 20
-3.02
  0
VERTEX
  8
LAYER_9
 10
141.1018
 20
0.1719
  0
VERTEX
  8
LAYER_9
 10
141.723
 20
0.1719
  0
VERTEX
  8
LAYER_9
 10
143.0848
 20
-3.02
  0
VERTEX
  8
LAYER_9
 10
142.5343
 20
-3.02
  0
VERTEX
  8
LAYER_9
 10
142.1081
 20
-2.0154
  0
SEQEND
  0
POLYLINE
  8
LAYER_9
 40
0.05
 41
0.05
 66
1
 10
0
 20
0
 30
0
 70
1
  0
VERTEX
  8
LAYER_9
 10
142.0013
 20
-1.6943
  0
VERTEX
  8
LAYER_9
 10
141.6103
 20
-0.7748
 42
-0.02125651819
  0
VERTEX
  8
LAYER_9
 10
141.4029
 20
-0.1926
  0
VERTEX
  8
LAYER_9
 10
141.3912
 20
-0.1926
 42
-0.02103918769
  0
VERTEX
  8
LAYER_9
 10
141.19
 20
-0.771
  0
VERTEX
  8
LAYER_9
 10
140.7993
 20
-1.6943
  0
SEQEND
  0
ENDBLK
  0
BLOCK
  8
LAYER_9
  2
AIGNBL0904000A
 70
64
 10
0
 20
0
 30
0
  3
AIGNBL0904000A
  0
POLYLINE
  8
LAYER_9
 40
0.05
 41
0.05
 66
1
 10
0
 20
0
 30
0
 70
1
  0
VERTEX
  8
LAYER_9
 10
143.9667
 20
0.134
 42
-0.03323004622
  0
VERTEX
  8
LAYER_9
 10
144.9558
 20
0.196
 42
-0.09647193575
  0
VERTEX
  8
LAYER_9
 10
145.8857
 20
0.0378
 42
-0.05236720747
  0
VERTEX
  8
LAYER_9
 10
146.0744
 20
-0.0692
 42
-0.2475259652
  0
VERTEX
  8
LAYER_9
 10
146.4234
 20
-0.7372
 42
-0.1633402787
  0
VERTEX
  8
LAYER_9
 10
146.2524
 20
-1.2789
 42
-0.05697727427
  0
VERTEX
  8
LAYER_9
 10
146.1158
 20
-1.419
 42
-0.07156855431
  0
VERTEX
  8
LAYER_9
 10
145.8226
 20
-1.5999
 42
-0.09992408918
  0
VERTEX
  8
LAYER_9
 10
145.0131
 20
-1.7676
 42
-0.009805001523
  0
VERTEX
  8
LAYER_9
 10
144.8962
 20
-1.7697
 42
-0.05927523618
  0
VERTEX
  8
LAYER_9
 10
144.4821
 20
-1.7412
  0
VERTEX
  8
LAYER_9
 10
144.4821
 20
-3.02
  0
VERTEX
  8
LAYER_9
 10
143.9667
 20
-3.02
  0
SEQEND
  0
POLYLINE
  8
LAYER_9
 40
0.05
 41
0.05
 66
1
 10
0
 20
0
 30
0
 70
1
  0
VERTEX
  8
LAYER_9
 10
144.4821
 20
-1.4049
 42
0.04848394292
  0
VERTEX
  8
LAYER_9
 10
144.9079
 20
-1.4383
 42
0.1267241775
  0
VERTEX
  8
LAYER_9
 10
145.6171
 20
-1.2783
 42
0.1801713856
  0
VERTEX
  8
LAYER_9
 10
145.8819
 20
-0.948
 42
0.07354410889
  0
VERTEX
  8
LAYER_9
 10
145.9091
 20
-0.7562
 42
0.3108550011
  0
VERTEX
  8
LAYER_9
 10
145.5518
 20
-0.2329
 42
0.1110538748
  0
VERTEX
  8
LAYER_9
 10
144.9679
 20
-0.1313
 42
0.05507706355
  0
VERTEX
  8
LAYER_9
 10
144.4821
 20
-0.1643
  0
SEQEND
  0
ENDBLK
  0
BLOCK
  8
LAYER_9
  2
AIGNBL0904000B
 70
64
 10
0
 20
0
 30
0
  3
AIGNBL0904000B
  0
POLYLINE
  8
LAYER_9
 40
0.05
 41
0.05
 66
1
 10
0
 20
0
 30
0
 70
1
  0
VERTEX
  8
LAYER_9
 10
147.7391
 20
-0.0837
 42
-0.324457032
  0
VERTEX
  8
LAYER_9
 10
147.577
 20
-0.309
 42
-0.09625236779
  0
VERTEX
  8
LAYER_9
 10
147.407
 20
-0.3397
 42
-0.2676203371
  0
VERTEX
  8
LAYER_9
 10
147.1164
 20
-0.1839
 42
-0.1146645173
  0
VERTEX
  8
LAYER_9
 10
147.0932
 20
-0.0837
 42
-0.3123927637
  0
VERTEX
  8
LAYER_9
 10
147.2663
 20
0.1485
 42
-0.09437290663
  0
VERTEX
  8
LAYER_9
 10
147.4187
 20
0.1764
 42
-0.2690720095
  0
VERTEX
  8
LAYER_9
 10
147.7152
 20
0.0218
 42
-0.1137202002
  0
SEQEND
  0
POLYLINE
  8
LAYER_9
 40
0.05
 41
0.05
 66
1
 10
0
 20
0
 30
0
 70
1
  0
VERTEX
  8
LAYER_9
 10
147.1579
 20
-3.02
  0
VERTEX
  8
LAYER_9
 10
147.1579
 20
-0.7279
  0
VERTEX
  8
LAYER_9
 10
147.6788
 20
-0.7279
  0
VERTEX
  8
LAYER_9
 10
147.6788
 20
-3.02
  0
SEQEND
  0
ENDBLK
  0
BLOCK
  8
LAYER_9
  2
AIGNBL0904000C
 70
64
 10
0
 20
0
 30
0
  3
AIGNBL0904000C
  0
POLYLINE
  8
LAYER_9
 40
0.05
 41
0.05
 66
1
 10
0
 20
0
 30
0
 70
1
  0
VERTEX
  8
LAYER_9
 10
149.2653
 20
-2.0154
  0
VERTEX
  8
LAYER_9
 10
148.8515
 20
-3.02
  0
VERTEX
  8
LAYER_9
 10
148.3183
 20
-3.02
  0
VERTEX
  8
LAYER_9
 10
149.6742
 20
0.1719
  0
VERTEX
  8
LAYER_9
 10
150.2961
 20
0.1719
  0
VERTEX
  8
LAYER_9
 10
151.6579
 20
-3.02
  0
VERTEX
  8
LAYER_9
 10
151.1071
 20
-3.02
  0
VERTEX
  8
LAYER_9
 10
150.6809
 20
-2.0154
  0
SEQEND
  0
POLYLINE
  8
LAYER_9
 40
0.05
 41
0.05
 66
1
 10
0
 20
0
 30
0
 70
1
  0
VERTEX
  8
LAYER_9
 10
150.5741
 20
-1.6943
  0
VERTEX
  8
LAYER_9
 10
150.1834
 20
-0.7748
 42
-0.02374663041
  0
VERTEX
  8
LAYER_9
 10
149.9767
 20
-0.1926
  0
VERTEX
  8
LAYER_9
 10
149.9643
 20
-0.1926
  0
VERTEX
  8
LAYER_9
 10
149.7631
 20
-0.771
  0
VERTEX
  8
LAYER_9
 10
149.3725
 20
-1.6943
  0
SEQEND
  0
ENDBLK
  0
BLOCK
  8
LAYER_9
  2
AIGNBL09030005
 70
64
 10
0
 20
0
 30
0
  3
AIGNBL09030005
  0
INSERT
  8
LAYER_9
  2
AIGNBL09040006
 10
0
 20
0
 30
0
  0
INSERT
  8
LAYER_9
  2
AIGNBL09040007
 10
0
 20
0
 30
0
  0
INSERT
  8
LAYER_9
  2
AIGNBL09040008
 10
0
 20
0
 30
0
  0
INSERT
  8
LAYER_9
  2
AIGNBL09040009
 10
0
 20
0
 30
0
  0
INSERT
  8
LAYER_9
  2
AIGNBL0904000A
 10
0
 20
0
 30
0
  0
INSERT
  8
LAYER_9
  2
AIGNBL0904000B
 10
0
 20
0
 30
0
  0
INSERT
  8
LAYER_9
  2
AIGNBL0904000C
 10
0
 20
0
 30
0
  0
ENDBLK
  0
BLOCK
  8
LAYER_9
  2
AIGNBL0903000E
 70
64
 10
0
 20
0
 30
0
  3
AIGNBL0903000E
  0
POLYLINE
  8
LAYER_9
 40
0.05
 41
0.05
 66
1
 10
0
 20
0
 30
0
 70
1
  0
VERTEX
  8
LAYER_9
 10
128.6023
 20
-4.6299
  0
VERTEX
  8
LAYER_9
 10
129.0715
 20
-4.6299
  0
VERTEX
  8
LAYER_9
 10
129.0715
 20
-4.7094
  0
VERTEX
  8
LAYER_9
 10
128.5134
 20
-4.7094
  0
VERTEX
  8
LAYER_9
 10
128.5134
 20
-3.8337
  0
VERTEX
  8
LAYER_9
 10
129.0564
 20
-3.8337
  0
VERTEX
  8
LAYER_9
 10
129.0564
 20
-3.9126
  0
VERTEX
  8
LAYER_9
 10
128.6023
 20
-3.9126
  0
VERTEX
  8
LAYER_9
 10
128.6023
 20
-4.213
  0
VERTEX
  8
LAYER_9
 10
129.0267
 20
-4.213
  0
VERTEX
  8
LAYER_9
 10
129.0267
 20
-4.2922
  0
VERTEX
  8
LAYER_9
 10
128.6023
 20
-4.2922
  0
SEQEND
  0
ENDBLK
  0
BLOCK
  8
LAYER_9
  2
AIGNBL0903000F
 70
64
 10
0
 20
0
 30
0
  3
AIGNBL0903000F
  0
POLYLINE
  8
LAYER_9
 40
0.05
 41
0.05
 66
1
 10
0
 20
0
 30
0
 70
1
  0
VERTEX
  8
LAYER_9
 10
130.0376
 20
-4.5792
  0
VERTEX
  8
LAYER_9
 10
130.0396
 20
-4.5792
  0
VERTEX
  8
LAYER_9
 10
130.0396
 20
-3.8337
  0
VERTEX
  8
LAYER_9
 10
130.1288
 20
-3.8337
  0
VERTEX
  8
LAYER_9
 10
130.1288
 20
-4.7094
  0
VERTEX
  8
LAYER_9
 10
130.0179
 20
-4.7094
  0
VERTEX
  8
LAYER_9
 10
129.5084
 20
-3.956
  0
VERTEX
  8
LAYER_9
 10
129.5053
 20
-3.956
  0
VERTEX
  8
LAYER_9
 10
129.5053
 20
-4.7094
  0
VERTEX
  8
LAYER_9
 10
129.4167
 20
-4.7094
  0
VERTEX
  8
LAYER_9
 10
129.4167
 20
-3.8337
  0
VERTEX
  8
LAYER_9
 10
129.5277
 20
-3.8337
  0
SEQEND
  0
ENDBLK
  0
BLOCK
  8
LAYER_9
  2
AIGNBL09030010
 70
64
 10
0
 20
0
 30
0
  3
AIGNBL09030010
  0
POLYLINE
  8
LAYER_9
 40
0.05
 41
0.05
 66
1
 10
0
 20
0
 30
0
 70
1
  0
VERTEX
  8
LAYER_9
 10
130.5299
 20
-4.5296
 42
0.1582167888
  0
VERTEX
  8
LAYER_9
 10
130.576
 20
-4.6171
 42
0.1888509688
  0
VERTEX
  8
LAYER_9
 10
130.6718
 20
-4.6523
  0
VERTEX
  8
LAYER_9
 10
130.7476
 20
-4.6357
  0
VERTEX
  8
LAYER_9
 10
130.7951
 20
-4.5906
  0
VERTEX
  8
LAYER_9
 10
130.8196
 20
-4.5255
  0
VERTEX
  8
LAYER_9
 10
130.8268
 20
-4.4497
  0
VERTEX
  8
LAYER_9
 10
130.8268
 20
-3.8337
  0
VERTEX
  8
LAYER_9
 10
130.9157
 20
-3.8337
  0
VERTEX
  8
LAYER_9
 10
130.9157
 20
-4.4569
  0
VERTEX
  8
LAYER_9
 10
130.9061
 20
-4.5482
  0
VERTEX
  8
LAYER_9
 10
130.8709
 20
-4.6374
 42
-0.1127204021
  0
VERTEX
  8
LAYER_9
 10
130.7992
 20
-4.705
 42
-0.1223515967
  0
VERTEX
  8
LAYER_9
 10
130.6814
 20
-4.7315
 42
-0.1817315996
  0
VERTEX
  8
LAYER_9
 10
130.525
 20
-4.6805
 42
-0.1775350534
  0
VERTEX
  8
LAYER_9
 10
130.4468
 20
-4.5524
  0
SEQEND
  0
ENDBLK
  0
BLOCK
  8
LAYER_9
  2
AIGNBL09030011
 70
64
 10
0
 20
0
 30
0
  3
AIGNBL09030011
  0
POLYLINE
  8
LAYER_9
 40
0.05
 41
0.05
 66
1
 10
0
 20
0
 30
0
 70
1
  0
VERTEX
  8
LAYER_9
 10
132.1773
 20
-4.2712
 42
-0.1023210957
  0
VERTEX
  8
LAYER_9
 10
132.1425
 20
-4.4555
 42
-0.100049973
  0
VERTEX
  8
LAYER_9
 10
132.047
 20
-4.6009
 42
-0.09591375735
  0
VERTEX
  8
LAYER_9
 10
131.902
 20
-4.6967
 42
-0.09730113973
  0
VERTEX
  8
LAYER_9
 10
131.7208
 20
-4.7315
 42
-0.1005044879
  0
VERTEX
  8
LAYER_9
 10
131.5396
 20
-4.6967
 42
-0.1000956886
  0
VERTEX
  8
LAYER_9
 10
131.3949
 20
-4.6009
 42
-0.09705125056
  0
VERTEX
  8
LAYER_9
 10
131.2988
 20
-4.4555
 42
-0.09606953098
  0
VERTEX
  8
LAYER_9
 10
131.2643
 20
-4.2712
 42
-0.1007319707
  0
VERTEX
  8
LAYER_9
 10
131.2988
 20
-4.0869
 42
-0.1001858518
  0
VERTEX
  8
LAYER_9
 10
131.3949
 20
-3.9416
 42
-0.09844109675
  0
VERTEX
  8
LAYER_9
 10
131.5396
 20
-3.8458
 42
-0.09730113973
  0
VERTEX
  8
LAYER_9
 10
131.7208
 20
-3.811
 42
-0.1005044879
  0
VERTEX
  8
LAYER_9
 10
131.902
 20
-3.8458
 42
-0.09944636466
  0
VERTEX
  8
LAYER_9
 10
132.047
 20
-3.9416
 42
-0.09657751445
  0
VERTEX
  8
LAYER_9
 10
132.1425
 20
-4.0869
 42
-0.09699716326
  0
SEQEND
  0
POLYLINE
  8
LAYER_9
 40
0.05
 41
0.05
 66
1
 10
0
 20
0
 30
0
 70
1
  0
VERTEX
  8
LAYER_9
 10
132.0832
 20
-4.2719
 42
0.08590651275
  0
VERTEX
  8
LAYER_9
 10
132.0588
 20
-4.1262
 42
0.09671154951
  0
VERTEX
  8
LAYER_9
 10
131.9868
 20
-4.0046
 42
0.1020590541
  0
VERTEX
  8
LAYER_9
 10
131.8724
 20
-3.9215
 42
0.106231093
  0
VERTEX
  8
LAYER_9
 10
131.7208
 20
-3.8902
 42
0.1137246109
  0
VERTEX
  8
LAYER_9
 10
131.5692
 20
-3.9215
 42
0.1061646081
  0
VERTEX
  8
LAYER_9
 10
131.4552
 20
-4.0046
 42
0.09706696705
  0
VERTEX
  8
LAYER_9
 10
131.3832
 20
-4.1262
 42
0.08453380862
  0
VERTEX
  8
LAYER_9
 10
131.3584
 20
-4.2719
 42
0.08539697836
  0
VERTEX
  8
LAYER_9
 10
131.3832
 20
-4.4177
 42
0.1012181166
  0
VERTEX
  8
LAYER_9
 10
131.4552
 20
-4.5389
 42
0.09946553095
  0
VERTEX
  8
LAYER_9
 10
131.5692
 20
-4.6212
 42
0.1061791796
  0
VERTEX
  8
LAYER_9
 10
131.7208
 20
-4.6523
 42
0.1152832113
  0
VERTEX
  8
LAYER_9
 10
131.8724
 20
-4.6212
 42
0.10635245
  0
VERTEX
  8
LAYER_9
 10
131.9868
 20
-4.5389
 42
0.09368815098
  0
VERTEX
  8
LAYER_9
 10
132.0588
 20
-4.4177
 42
0.0834821187
  0
SEQEND
  0
ENDBLK
  0
BLOCK
  8
LAYER_9
  2
AIGNBL09030012
 70
64
 10
0
 20
0
 30
0
  3
AIGNBL09030012
  0
POLYLINE
  8
LAYER_9
 40
0.05
 41
0.05
 66
1
 10
0
 20
0
 30
0
 70
1
  0
VERTEX
  8
LAYER_9
 10
132.8339
 20
-4.7094
  0
VERTEX
  8
LAYER_9
 10
132.7451
 20
-4.7094
  0
VERTEX
  8
LAYER_9
 10
132.7451
 20
-4.3319
  0
VERTEX
  8
LAYER_9
 10
132.4174
 20
-3.8337
  0
VERTEX
  8
LAYER_9
 10
132.5287
 20
-3.8337
  0
VERTEX
  8
LAYER_9
 10
132.7922
 20
-4.2575
  0
VERTEX
  8
LAYER_9
 10
133.0579
 20
-3.8337
  0
VERTEX
  8
LAYER_9
 10
133.1615
 20
-3.8337
  0
VERTEX
  8
LAYER_9
 10
132.8339
 20
-4.3319
  0
SEQEND
  0
ENDBLK
  0
BLOCK
  8
LAYER_9
  2
AIGNBL09030013
 70
64
 10
0
 20
0
 30
0
  3
AIGNBL09030013
  0
POLYLINE
  8
LAYER_9
 40
0.05
 41
0.05
 66
1
 10
0
 20
0
 30
0
 70
1
  0
VERTEX
  8
LAYER_9
 10
133.9288
 20
-3.8337
  0
VERTEX
  8
LAYER_9
 10
134.1896
 20
-3.8337
  0
VERTEX
  8
LAYER_9
 10
134.2898
 20
-3.844
  0
VERTEX
  8
LAYER_9
 10
134.3804
 20
-3.8798
 42
-0.1156779106
  0
VERTEX
  8
LAYER_9
 10
134.4466
 20
-3.9488
 42
-0.1209575962
  0
VERTEX
  8
LAYER_9
 10
134.4717
 20
-4.0573
 42
-0.1791591056
  0
VERTEX
  8
LAYER_9
 10
134.4294
 20
-4.1779
 42
-0.1661642399
  0
VERTEX
  8
LAYER_9
 10
134.3164
 20
-4.2454
  0
VERTEX
  8
LAYER_9
 10
134.3164
 20
-4.2474
 42
-0.1711702155
  0
VERTEX
  8
LAYER_9
 10
134.4576
 20
-4.3139
 42
-0.1994341856
  0
VERTEX
  8
LAYER_9
 10
134.5137
 20
-4.4669
 42
-0.1266512869
  0
VERTEX
  8
LAYER_9
 10
134.4907
 20
-4.5661
 42
-0.1175617318
  0
VERTEX
  8
LAYER_9
 10
134.4259
 20
-4.6429
 42
-0.0864784881
  0
VERTEX
  8
LAYER_9
 10
134.3236
 20
-4.6919
 42
-0.06453463165
  0
VERTEX
  8
LAYER_9
 10
134.1882
 20
-4.7094
  0
VERTEX
  8
LAYER_9
 10
133.9288
 20
-4.7094
  0
SEQEND
  0
POLYLINE
  8
LAYER_9
 40
0.05
 41
0.05
 66
1
 10
0
 20
0
 30
0
 70
1
  0
VERTEX
  8
LAYER_9
 10
134.0177
 20
-4.2168
  0
VERTEX
  8
LAYER_9
 10
134.1972
 20
-4.2168
  0
VERTEX
  8
LAYER_9
 10
134.2622
 20
-4.2092
  0
VERTEX
  8
LAYER_9
 10
134.3219
 20
-4.1844
  0
VERTEX
  8
LAYER_9
 10
134.366
 20
-4.1365
 42
0.1124215474
  0
VERTEX
  8
LAYER_9
 10
134.3825
 20
-4.0635
  0
VERTEX
  8
LAYER_9
 10
134.366
 20
-3.9925
  0
VERTEX
  8
LAYER_9
 10
134.3208
 20
-3.9446
  0
VERTEX
  8
LAYER_9
 10
134.254
 20
-3.9181
  0
VERTEX
  8
LAYER_9
 10
134.1724
 20
-3.9102
  0
VERTEX
  8
LAYER_9
 10
134.0177
 20
-3.9102
  0
SEQEND
  0
POLYLINE
  8
LAYER_9
 40
0.05
 41
0.05
 66
1
 10
0
 20
0
 30
0
 70
1
  0
VERTEX
  8
LAYER_9
 10
134.0177
 20
-4.6326
  0
VERTEX
  8
LAYER_9
 10
134.1837
 20
-4.6326
  0
VERTEX
  8
LAYER_9
 10
134.2757
 20
-4.623
  0
VERTEX
  8
LAYER_9
 10
134.3525
 20
-4.5937
  0
VERTEX
  8
LAYER_9
 10
134.4046
 20
-4.5403
 42
0.1274798788
  0
VERTEX
  8
LAYER_9
 10
134.4245
 20
-4.4618
 42
0.2508484857
  0
VERTEX
  8
LAYER_9
 10
134.366
 20
-4.3326
 42
0.1505365177
  0
VERTEX
  8
LAYER_9
 10
134.1996
 20
-4.2898
  0
VERTEX
  8
LAYER_9
 10
134.0177
 20
-4.2898
  0
SEQEND
  0
ENDBLK
  0
BLOCK
  8
LAYER_9
  2
AIGNBL09030014
 70
64
 10
0
 20
0
 30
0
  3
AIGNBL09030014
  0
POLYLINE
  8
LAYER_9
 40
0.05
 41
0.05
 66
1
 10
0
 20
0
 30
0
 70
1
  0
VERTEX
  8
LAYER_9
 10
134.88
 20
-4.7094
  0
VERTEX
  8
LAYER_9
 10
134.7821
 20
-4.7094
  0
VERTEX
  8
LAYER_9
 10
135.1607
 20
-3.8337
  0
VERTEX
  8
LAYER_9
 10
135.2476
 20
-3.8337
  0
VERTEX
  8
LAYER_9
 10
135.6234
 20
-4.7094
  0
VERTEX
  8
LAYER_9
 10
135.5242
 20
-4.7094
  0
VERTEX
  8
LAYER_9
 10
135.4277
 20
-4.4793
  0
VERTEX
  8
LAYER_9
 10
134.975
 20
-4.4793
  0
SEQEND
  0
POLYLINE
  8
LAYER_9
 40
0.05
 41
0.05
 66
1
 10
0
 20
0
 30
0
 70
1
  0
VERTEX
  8
LAYER_9
 10
135.0081
 20
-4.3973
  0
VERTEX
  8
LAYER_9
 10
135.3943
 20
-4.3973
  0
VERTEX
  8
LAYER_9
 10
135.2014
 20
-3.9322
  0
SEQEND
  0
ENDBLK
  0
BLOCK
  8
LAYER_9
  2
AIGNBL09030015
 70
64
 10
0
 20
0
 30
0
  3
AIGNBL09030015
  0
POLYLINE
  8
LAYER_9
 40
0.05
 41
0.05
 66
1
 10
0
 20
0
 30
0
 70
1
  0
VERTEX
  8
LAYER_9
 10
136.2036
 20
-4.7094
  0
VERTEX
  8
LAYER_9
 10
136.1143
 20
-4.7094
  0
VERTEX
  8
LAYER_9
 10
136.1143
 20
-3.9126
  0
VERTEX
  8
LAYER_9
 10
135.8208
 20
-3.9126
  0
VERTEX
  8
LAYER_9
 10
135.8208
 20
-3.8337
  0
VERTEX
  8
LAYER_9
 10
136.4964
 20
-3.8337
  0
VERTEX
  8
LAYER_9
 10
136.4964
 20
-3.9126
  0
VERTEX
  8
LAYER_9
 10
136.2036
 20
-3.9126
  0
SEQEND
  0
ENDBLK
  0
BLOCK
  8
LAYER_9
  2
AIGNBL09030016
 70
64
 10
0
 20
0
 30
0
  3
AIGNBL09030016
  0
POLYLINE
  8
LAYER_9
 40
0.05
 41
0.05
 66
1
 10
0
 20
0
 30
0
 70
1
  0
VERTEX
  8
LAYER_9
 10
136.7982
 20
-3.8337
  0
VERTEX
  8
LAYER_9
 10
136.8871
 20
-3.8337
  0
VERTEX
  8
LAYER_9
 10
136.8871
 20
-4.213
  0
VERTEX
  8
LAYER_9
 10
137.3649
 20
-4.213
  0
VERTEX
  8
LAYER_9
 10
137.3649
 20
-3.8337
  0
VERTEX
  8
LAYER_9
 10
137.4538
 20
-3.8337
  0
VERTEX
  8
LAYER_9
 10
137.4538
 20
-4.7094
  0
VERTEX
  8
LAYER_9
 10
137.3649
 20
-4.7094
  0
VERTEX
  8
LAYER_9
 10
137.3649
 20
-4.2946
  0
VERTEX
  8
LAYER_9
 10
136.8871
 20
-4.2946
  0
VERTEX
  8
LAYER_9
 10
136.8871
 20
-4.7094
  0
VERTEX
  8
LAYER_9
 10
136.7982
 20
-4.7094
  0
SEQEND
  0
ENDBLK
  0
BLOCK
  8
LAYER_9
  2
AIGNBL09030017
 70
64
 10
0
 20
0
 30
0
  3
AIGNBL09030017
  0
POLYLINE
  8
LAYER_9
 40
0.05
 41
0.05
 66
1
 10
0
 20
0
 30
0
 70
1
  0
VERTEX
  8
LAYER_9
 10
137.9457
 20
-4.7094
  0
VERTEX
  8
LAYER_9
 10
137.8569
 20
-4.7094
  0
VERTEX
  8
LAYER_9
 10
137.8569
 20
-3.8337
  0
VERTEX
  8
LAYER_9
 10
138.1142
 20
-3.8337
  0
VERTEX
  8
LAYER_9
 10
138.2334
 20
-3.8458
  0
VERTEX
  8
LAYER_9
 10
138.3289
 20
-3.8861
 42
-0.1283108691
  0
VERTEX
  8
LAYER_9
 10
138.3912
 20
-3.9584
 42
-0.1051928432
  0
VERTEX
  8
LAYER_9
 10
138.4132
 20
-4.0673
  0
VERTEX
  8
LAYER_9
 10
138.3964
 20
-4.1551
  0
VERTEX
  8
LAYER_9
 10
138.3495
 20
-4.2237
  0
VERTEX
  8
LAYER_9
 10
138.2789
 20
-4.2702
  0
VERTEX
  8
LAYER_9
 10
138.1897
 20
-4.2922
  0
VERTEX
  8
LAYER_9
 10
138.4456
 20
-4.7094
  0
VERTEX
  8
LAYER_9
 10
138.3368
 20
-4.7094
  0
VERTEX
  8
LAYER_9
 10
138.0946
 20
-4.2998
  0
VERTEX
  8
LAYER_9
 10
137.9457
 20
-4.2998
  0
SEQEND
  0
POLYLINE
  8
LAYER_9
 40
0.05
 41
0.05
 66
1
 10
0
 20
0
 30
0
 70
1
  0
VERTEX
  8
LAYER_9
 10
137.9457
 20
-4.223
  0
VERTEX
  8
LAYER_9
 10
138.1008
 20
-4.223
 42
0.1560036385
  0
VERTEX
  8
LAYER_9
 10
138.2665
 20
-4.1844
 42
0.256718439
  0
VERTEX
  8
LAYER_9
 10
138.3247
 20
-4.0673
  0
VERTEX
  8
LAYER_9
 10
138.3082
 20
-3.9946
  0
VERTEX
  8
LAYER_9
 10
138.2637
 20
-3.946
  0
VERTEX
  8
LAYER_9
 10
138.1948
 20
-3.9188
  0
VERTEX
  8
LAYER_9
 10
138.1046
 20
-3.9102
  0
VERTEX
  8
LAYER_9
 10
137.9457
 20
-3.9102
  0
SEQEND
  0
ENDBLK
  0
BLOCK
  8
LAYER_9
  2
AIGNBL09030018
 70
64
 10
0
 20
0
 30
0
  3
AIGNBL09030018
  0
POLYLINE
  8
LAYER_9
 40
0.05
 41
0.05
 66
1
 10
0
 20
0
 30
0
 70
1
  0
VERTEX
  8
LAYER_9
 10
139.6342
 20
-4.2712
 42
-0.09919881555
  0
VERTEX
  8
LAYER_9
 10
139.5997
 20
-4.4555
 42
-0.1002507449
  0
VERTEX
  8
LAYER_9
 10
139.5036
 20
-4.6009
 42
-0.09817592867
  0
VERTEX
  8
LAYER_9
 10
139.3593
 20
-4.6967
 42
-0.09703887645
  0
VERTEX
  8
LAYER_9
 10
139.1777
 20
-4.7315
 42
-0.1005044879
  0
VERTEX
  8
LAYER_9
 10
138.9965
 20
-4.6967
 42
-0.1014225475
  0
VERTEX
  8
LAYER_9
 10
138.8522
 20
-4.6009
 42
-0.1006710624
  0
VERTEX
  8
LAYER_9
 10
138.7564
 20
-4.4555
 42
-0.09606953098
  0
VERTEX
  8
LAYER_9
 10
138.7219
 20
-4.2712
 42
-0.1007319707
  0
VERTEX
  8
LAYER_9
 10
138.7564
 20
-4.0869
 42
-0.1015908991
  0
VERTEX
  8
LAYER_9
 10
138.8522
 20
-3.9416
 42
-0.09884634081
  0
VERTEX
  8
LAYER_9
 10
138.9965
 20
-3.8458
 42
-0.09730113973
  0
VERTEX
  8
LAYER_9
 10
139.1777
 20
-3.811
 42
-0.1004491736
  0
VERTEX
  8
LAYER_9
 10
139.3593
 20
-3.8458
 42
-0.103270482
  0
VERTEX
  8
LAYER_9
 10
139.5036
 20
-3.9416
 42
-0.09614814713
  0
VERTEX
  8
LAYER_9
 10
139.5997
 20
-4.0869
 42
-0.09519358797
  0
SEQEND
  0
POLYLINE
  8
LAYER_9
 40
0.05
 41
0.05
 66
1
 10
0
 20
0
 30
0
 70
1
  0
VERTEX
  8
LAYER_9
 10
139.5402
 20
-4.2719
 42
0.09005809491
  0
VERTEX
  8
LAYER_9
 10
139.5154
 20
-4.1262
 42
0.09823469525
  0
VERTEX
  8
LAYER_9
 10
139.4437
 20
-4.0046
 42
0.1015931446
  0
VERTEX
  8
LAYER_9
 10
139.3293
 20
-3.9215
 42
0.1064387823
  0
VERTEX
  8
LAYER_9
 10
139.1777
 20
-3.8902
 42
0.1146236776
  0
VERTEX
  8
LAYER_9
 10
139.0265
 20
-3.9215
 42
0.1048939392
  0
VERTEX
  8
LAYER_9
 10
138.9117
 20
-4.0046
 42
0.09514694971
  0
VERTEX
  8
LAYER_9
 10
138.8401
 20
-4.1262
 42
0.08394620596
  0
VERTEX
  8
LAYER_9
 10
138.8157
 20
-4.2719
 42
0.08914187326
  0
VERTEX
  8
LAYER_9
 10
138.8401
 20
-4.4177
 42
0.09716720095
  0
VERTEX
  8
LAYER_9
 10
138.9117
 20
-4.5389
 42
0.09885574029
  0
VERTEX
  8
LAYER_9
 10
139.0265
 20
-4.6212
 42
0.1065525522
  0
VERTEX
  8
LAYER_9
 10
139.1777
 20
-4.6523
 42
0.1160974191
  0
VERTEX
  8
LAYER_9
 10
139.3293
 20
-4.6212
 42
0.1037742872
  0
VERTEX
  8
LAYER_9
 10
139.4437
 20
-4.5389
 42
0.09874351489
  0
VERTEX
  8
LAYER_9
 10
139.5154
 20
-4.4177
 42
0.08539015582
  0
SEQEND
  0
ENDBLK
  0
BLOCK
  8
LAYER_9
  2
AIGNBL09030019
 70
64
 10
0
 20
0
 30
0
  3
AIGNBL09030019
  0
POLYLINE
  8
LAYER_9
 40
0.05
 41
0.05
 66
1
 10
0
 20
0
 30
0
 70
1
  0
VERTEX
  8
LAYER_9
 10
140.8565
 20
-4.2712
 42
-0.1005579471
  0
VERTEX
  8
LAYER_9
 10
140.8217
 20
-4.4555
 42
-0.09829254072
  0
VERTEX
  8
LAYER_9
 10
140.7263
 20
-4.6009
 42
-0.09635359363
  0
VERTEX
  8
LAYER_9
 10
140.5812
 20
-4.6967
 42
-0.09730113973
  0
VERTEX
  8
LAYER_9
 10
140.4
 20
-4.7315
 42
-0.1010483144
  0
VERTEX
  8
LAYER_9
 10
140.2188
 20
-4.6967
 42
-0.1015483086
  0
VERTEX
  8
LAYER_9
 10
140.0741
 20
-4.6009
 42
-0.09705125056
  0
VERTEX
  8
LAYER_9
 10
139.978
 20
-4.4555
 42
-0.09594934368
  0
VERTEX
  8
LAYER_9
 10
139.9436
 20
-4.2712
 42
-0.1009359332
  0
VERTEX
  8
LAYER_9
 10
139.978
 20
-4.0869
 42
-0.1001858518
  0
VERTEX
  8
LAYER_9
 10
140.0741
 20
-3.9416
 42
-0.09916337287
  0
VERTEX
  8
LAYER_9
 10
140.2188
 20
-3.8458
 42
-0.09743363976
  0
VERTEX
  8
LAYER_9
 10
140.4
 20
-3.811
 42
-0.1005044879
  0
VERTEX
  8
LAYER_9
 10
140.5812
 20
-3.8458
 42
-0.09950324727
  0
VERTEX
  8
LAYER_9
 10
140.7263
 20
-3.9416
 42
-0.09627394303
  0
VERTEX
  8
LAYER_9
 10
140.8217
 20
-4.0869
 42
-0.09626911005
  0
SEQEND
  0
POLYLINE
  8
LAYER_9
 40
0.05
 41
0.05
 66
1
 10
0
 20
0
 30
0
 70
1
  0
VERTEX
  8
LAYER_9
 10
140.7625
 20
-4.2719
 42
0.08744350066
  0
VERTEX
  8
LAYER_9
 10
140.7377
 20
-4.1262
 42
0.0974662867
  0
VERTEX
  8
LAYER_9
 10
140.666
 20
-4.0046
 42
0.1015931446
  0
VERTEX
  8
LAYER_9
 10
140.5516
 20
-3.9215
 42
0.1060164095
  0
VERTEX
  8
LAYER_9
 10
140.4
 20
-3.8902
 42
0.1150639473
  0
VERTEX
  8
LAYER_9
 10
140.2485
 20
-3.9215
 42
0.1052132674
  0
VERTEX
  8
LAYER_9
 10
140.1341
 20
-4.0046
 42
0.09840570806
  0
VERTEX
  8
LAYER_9
 10
140.0624
 20
-4.1262
 42
0.08491299828
  0
VERTEX
  8
LAYER_9
 10
140.0376
 20
-4.2719
 42
0.08802482071
  0
VERTEX
  8
LAYER_9
 10
140.0624
 20
-4.4177
 42
0.1001537592
  0
VERTEX
  8
LAYER_9
 10
140.1341
 20
-4.5389
 42
0.1000329357
  0
VERTEX
  8
LAYER_9
 10
140.2485
 20
-4.6212
 42
0.1065438079
  0
VERTEX
  8
LAYER_9
 10
140.4
 20
-4.6523
 42
0.1150863754
  0
VERTEX
  8
LAYER_9
 10
140.5516
 20
-4.6212
 42
0.1037742872
  0
VERTEX
  8
LAYER_9
 10
140.666
 20
-4.5389
 42
0.0931574303
  0
VERTEX
  8
LAYER_9
 10
140.7377
 20
-4.4177
 42
0.08489455374
  0
SEQEND
  0
ENDBLK
  0
BLOCK
  8
LAYER_9
  2
AIGNBL0903001A
 70
64
 10
0
 20
0
 30
0
  3
AIGNBL0903001A
  0
POLYLINE
  8
LAYER_9
 40
0.05
 41
0.05
 66
1
 10
0
 20
0
 30
0
 70
1
  0
VERTEX
  8
LAYER_9
 10
141.6454
 20
-4.5582
  0
VERTEX
  8
LAYER_9
 10
141.6468
 20
-4.5582
  0
VERTEX
  8
LAYER_9
 10
141.9396
 20
-3.8337
  0
VERTEX
  8
LAYER_9
 10
142.0761
 20
-3.8337
  0
VERTEX
  8
LAYER_9
 10
142.0761
 20
-4.7094
  0
VERTEX
  8
LAYER_9
 10
141.9868
 20
-4.7094
  0
VERTEX
  8
LAYER_9
 10
141.9868
 20
-3.9488
  0
VERTEX
  8
LAYER_9
 10
141.9844
 20
-3.9488
  0
VERTEX
  8
LAYER_9
 10
141.6678
 20
-4.7094
  0
VERTEX
  8
LAYER_9
 10
141.621
 20
-4.7094
  0
VERTEX
  8
LAYER_9
 10
141.304
 20
-3.9488
  0
VERTEX
  8
LAYER_9
 10
141.3016
 20
-3.9488
  0
VERTEX
  8
LAYER_9
 10
141.3016
 20
-4.7094
  0
VERTEX
  8
LAYER_9
 10
141.2127
 20
-4.7094
  0
VERTEX
  8
LAYER_9
 10
141.2127
 20
-3.8337
  0
VERTEX
  8
LAYER_9
 10
141.3488
 20
-3.8337
  0
SEQEND
  0
ENDBLK
  0
BLOCK
  8
LAYER_9
  2
AIGNBL0903001B
 70
64
 10
0
 20
0
 30
0
  3
AIGNBL0903001B
  0
POLYLINE
  8
LAYER_9
 40
0.05
 41
0.05
 66
1
 10
0
 20
0
 30
0
 70
1
  0
VERTEX
  8
LAYER_9
 10
143.0479
 20
-4.6299
  0
VERTEX
  8
LAYER_9
 10
143.5168
 20
-4.6299
  0
VERTEX
  8
LAYER_9
 10
143.5168
 20
-4.7094
  0
VERTEX
  8
LAYER_9
 10
142.9587
 20
-4.7094
  0
VERTEX
  8
LAYER_9
 10
142.9587
 20
-3.8337
  0
VERTEX
  8
LAYER_9
 10
143.502
 20
-3.8337
  0
VERTEX
  8
LAYER_9
 10
143.502
 20
-3.9126
  0
VERTEX
  8
LAYER_9
 10
143.0479
 20
-3.9126
  0
VERTEX
  8
LAYER_9
 10
143.0479
 20
-4.213
  0
VERTEX
  8
LAYER_9
 10
143.472
 20
-4.213
  0
VERTEX
  8
LAYER_9
 10
143.472
 20
-4.2922
  0
VERTEX
  8
LAYER_9
 10
143.0479
 20
-4.2922
  0
SEQEND
  0
ENDBLK
  0
BLOCK
  8
LAYER_9
  2
AIGNBL0903001C
 70
64
 10
0
 20
0
 30
0
  3
AIGNBL0903001C
  0
POLYLINE
  8
LAYER_9
 40
0.05
 41
0.05
 66
1
 10
0
 20
0
 30
0
 70
1
  0
VERTEX
  8
LAYER_9
 10
144.1487
 20
-4.1872
  0
VERTEX
  8
LAYER_9
 10
144.3877
 20
-3.8337
  0
VERTEX
  8
LAYER_9
 10
144.4935
 20
-3.8337
  0
VERTEX
  8
LAYER_9
 10
144.2034
 20
-4.2502
  0
VERTEX
  8
LAYER_9
 10
144.5249
 20
-4.7094
  0
VERTEX
  8
LAYER_9
 10
144.4136
 20
-4.7094
  0
VERTEX
  8
LAYER_9
 10
144.1462
 20
-4.3146
  0
VERTEX
  8
LAYER_9
 10
143.8803
 20
-4.7094
  0
VERTEX
  8
LAYER_9
 10
143.769
 20
-4.7094
  0
VERTEX
  8
LAYER_9
 10
144.0908
 20
-4.2492
  0
VERTEX
  8
LAYER_9
 10
143.7976
 20
-3.8337
  0
VERTEX
  8
LAYER_9
 10
143.9089
 20
-3.8337
  0
SEQEND
  0
ENDBLK
  0
BLOCK
  8
LAYER_9
  2
AIGNBL0903001D
 70
64
 10
0
 20
0
 30
0
  3
AIGNBL0903001D
  0
POLYLINE
  8
LAYER_9
 40
0.05
 41
0.05
 66
1
 10
0
 20
0
 30
0
 70
1
  0
VERTEX
  8
LAYER_9
 10
144.8352
 20
-3.8337
  0
VERTEX
  8
LAYER_9
 10
145.083
 20
-3.8337
  0
VERTEX
  8
LAYER_9
 10
145.2042
 20
-3.8475
  0
VERTEX
  8
LAYER_9
 10
145.2972
 20
-3.8912
 42
-0.1196760771
  0
VERTEX
  8
LAYER_9
 10
145.3575
 20
-3.9639
 42
-0.1008071579
  0
VERTEX
  8
LAYER_9
 10
145.3782
 20
-4.0673
 42
-0.1226625575
  0
VERTEX
  8
LAYER_9
 10
145.3569
 20
-4.1706
 42
-0.1130948084
  0
VERTEX
  8
LAYER_9
 10
145.2962
 20
-4.2437
 42
-0.08414869483
  0
VERTEX
  8
LAYER_9
 10
145.2022
 20
-4.2874
  0
VERTEX
  8
LAYER_9
 10
145.0802
 20
-4.3022
  0
VERTEX
  8
LAYER_9
 10
144.9245
 20
-4.3022
  0
VERTEX
  8
LAYER_9
 10
144.9245
 20
-4.7094
  0
VERTEX
  8
LAYER_9
 10
144.8352
 20
-4.7094
  0
SEQEND
  0
POLYLINE
  8
LAYER_9
 40
0.05
 41
0.05
 66
1
 10
0
 20
0
 30
0
 70
1
  0
VERTEX
  8
LAYER_9
 10
144.9245
 20
-4.2268
  0
VERTEX
  8
LAYER_9
 10
145.075
 20
-4.2268
 42
0.1719973382
  0
VERTEX
  8
LAYER_9
 10
145.2349
 20
-4.1861
 42
0.2424570955
  0
VERTEX
  8
LAYER_9
 10
145.2893
 20
-4.0673
 42
0.2605346944
  0
VERTEX
  8
LAYER_9
 10
145.2332
 20
-3.9477
 42
0.1395217604
  0
VERTEX
  8
LAYER_9
 10
145.075
 20
-3.9102
  0
VERTEX
  8
LAYER_9
 10
144.9245
 20
-3.9102
  0
SEQEND
  0
ENDBLK
  0
BLOCK
  8
LAYER_9
  2
AIGNBL0903001E
 70
64
 10
0
 20
0
 30
0
  3
AIGNBL0903001E
  0
POLYLINE
  8
LAYER_9
 40
0.05
 41
0.05
 66
1
 10
0
 20
0
 30
0
 70
1
  0
VERTEX
  8
LAYER_9
 10
145.8123
 20
-4.6299
  0
VERTEX
  8
LAYER_9
 10
146.2812
 20
-4.6299
  0
VERTEX
  8
LAYER_9
 10
146.2812
 20
-4.7094
  0
VERTEX
  8
LAYER_9
 10
145.7234
 20
-4.7094
  0
VERTEX
  8
LAYER_9
 10
145.7234
 20
-3.8337
  0
VERTEX
  8
LAYER_9
 10
146.2664
 20
-3.8337
  0
VERTEX
  8
LAYER_9
 10
146.2664
 20
-3.9126
  0
VERTEX
  8
LAYER_9
 10
145.8123
 20
-3.9126
  0
VERTEX
  8
LAYER_9
 10
145.8123
 20
-4.213
  0
VERTEX
  8
LAYER_9
 10
146.2367
 20
-4.213
  0
VERTEX
  8
LAYER_9
 10
146.2367
 20
-4.2922
  0
VERTEX
  8
LAYER_9
 10
145.8123
 20
-4.2922
  0
SEQEND
  0
ENDBLK
  0
BLOCK
  8
LAYER_9
  2
AIGNBL0903001F
 70
64
 10
0
 20
0
 30
0
  3
AIGNBL0903001F
  0
POLYLINE
  8
LAYER_9
 40
0.05
 41
0.05
 66
1
 10
0
 20
0
 30
0
 70
1
  0
VERTEX
  8
LAYER_9
 10
146.7152
 20
-4.7094
  0
VERTEX
  8
LAYER_9
 10
146.6264
 20
-4.7094
  0
VERTEX
  8
LAYER_9
 10
146.6264
 20
-3.8337
  0
VERTEX
  8
LAYER_9
 10
146.8837
 20
-3.8337
  0
VERTEX
  8
LAYER_9
 10
147.0029
 20
-3.8458
  0
VERTEX
  8
LAYER_9
 10
147.0983
 20
-3.8861
 42
-0.1251490281
  0
VERTEX
  8
LAYER_9
 10
147.1607
 20
-3.9584
 42
-0.1051928432
  0
VERTEX
  8
LAYER_9
 10
147.1827
 20
-4.0673
  0
VERTEX
  8
LAYER_9
 10
147.1659
 20
-4.1551
  0
VERTEX
  8
LAYER_9
 10
147.1187
 20
-4.2237
  0
VERTEX
  8
LAYER_9
 10
147.048
 20
-4.2702
  0
VERTEX
  8
LAYER_9
 10
146.9591
 20
-4.2922
  0
VERTEX
  8
LAYER_9
 10
147.2151
 20
-4.7094
  0
VERTEX
  8
LAYER_9
 10
147.1062
 20
-4.7094
  0
VERTEX
  8
LAYER_9
 10
146.8637
 20
-4.2998
  0
VERTEX
  8
LAYER_9
 10
146.7152
 20
-4.2998
  0
SEQEND
  0
POLYLINE
  8
LAYER_9
 40
0.05
 41
0.05
 66
1
 10
0
 20
0
 30
0
 70
1
  0
VERTEX
  8
LAYER_9
 10
146.7152
 20
-4.223
  0
VERTEX
  8
LAYER_9
 10
146.8699
 20
-4.223
 42
0.1572399812
  0
VERTEX
  8
LAYER_9
 10
147.036
 20
-4.1844
 42
0.2567768408
  0
VERTEX
  8
LAYER_9
 10
147.0939
 20
-4.0673
  0
VERTEX
  8
LAYER_9
 10
147.078
 20
-3.9946
  0
VERTEX
  8
LAYER_9
 10
147.0332
 20
-3.946
  0
VERTEX
  8
LAYER_9
 10
146.964
 20
-3.9188
  0
VERTEX
  8
LAYER_9
 10
146.8737
 20
-3.9102
  0
VERTEX
  8
LAYER_9
 10
146.7152
 20
-3.9102
  0
SEQEND
  0
ENDBLK
  0
BLOCK
  8
LAYER_9
  2
AIGNBL09030020
 70
64
 10
0
 20
0
 30
0
  3
AIGNBL09030020
  0
POLYLINE
  8
LAYER_9
 40
0.05
 41
0.05
 66
1
 10
0
 20
0
 30
0
 70
1
  0
VERTEX
  8
LAYER_9
 10
147.6268
 20
-4.7094
  0
VERTEX
  8
LAYER_9
 10
147.5383
 20
-4.7094
  0
VERTEX
  8
LAYER_9
 10
147.5383
 20
-3.8337
  0
VERTEX
  8
LAYER_9
 10
147.6268
 20
-3.8337
  0
SEQEND
  0
ENDBLK
  0
BLOCK
  8
LAYER_9
  2
AIGNBL09030021
 70
64
 10
0
 20
0
 30
0
  3
AIGNBL09030021
  0
POLYLINE
  8
LAYER_9
 40
0.05
 41
0.05
 66
1
 10
0
 20
0
 30
0
 70
1
  0
VERTEX
  8
LAYER_9
 10
148.1191
 20
-4.6299
  0
VERTEX
  8
LAYER_9
 10
148.588
 20
-4.6299
  0
VERTEX
  8
LAYER_9
 10
148.588
 20
-4.7094
  0
VERTEX
  8
LAYER_9
 10
148.0302
 20
-4.7094
  0
VERTEX
  8
LAYER_9
 10
148.0302
 20
-3.8337
  0
VERTEX
  8
LAYER_9
 10
148.5732
 20
-3.8337
  0
VERTEX
  8
LAYER_9
 10
148.5732
 20
-3.9126
  0
VERTEX
  8
LAYER_9
 10
148.1191
 20
-3.9126
  0
VERTEX
  8
LAYER_9
 10
148.1191
 20
-4.213
  0
VERTEX
  8
LAYER_9
 10
148.5436
 20
-4.213
  0
VERTEX
  8
LAYER_9
 10
148.5436
 20
-4.2922
  0
VERTEX
  8
LAYER_9
 10
148.1191
 20
-4.2922
  0
SEQEND
  0
ENDBLK
  0
BLOCK
  8
LAYER_9
  2
AIGNBL09030022
 70
64
 10
0
 20
0
 30
0
  3
AIGNBL09030022
  0
POLYLINE
  8
LAYER_9
 40
0.05
 41
0.05
 66
1
 10
0
 20
0
 30
0
 70
1
  0
VERTEX
  8
LAYER_9
 10
149.554
 20
-4.5792
  0
VERTEX
  8
LAYER_9
 10
149.5564
 20
-4.5792
  0
VERTEX
  8
LAYER_9
 10
149.5564
 20
-3.8337
  0
VERTEX
  8
LAYER_9
 10
149.6456
 20
-3.8337
  0
VERTEX
  8
LAYER_9
 10
149.6456
 20
-4.7094
  0
VERTEX
  8
LAYER_9
 10
149.5344
 20
-4.7094
  0
VERTEX
  8
LAYER_9
 10
149.0248
 20
-3.956
  0
VERTEX
  8
LAYER_9
 10
149.0221
 20
-3.956
  0
VERTEX
  8
LAYER_9
 10
149.0221
 20
-4.7094
  0
VERTEX
  8
LAYER_9
 10
148.9332
 20
-4.7094
  0
VERTEX
  8
LAYER_9
 10
148.9332
 20
-3.8337
  0
VERTEX
  8
LAYER_9
 10
149.0445
 20
-3.8337
  0
SEQEND
  0
ENDBLK
  0
BLOCK
  8
LAYER_9
  2
AIGNBL09030023
 70
64
 10
0
 20
0
 30
0
  3
AIGNBL09030023
  0
POLYLINE
  8
LAYER_9
 40
0.05
 41
0.05
 66
1
 10
0
 20
0
 30
0
 70
1
  0
VERTEX
  8
LAYER_9
 10
150.7863
 20
-4.5672
  0
VERTEX
  8
LAYER_9
 10
150.7322
 20
-4.6302
  0
VERTEX
  8
LAYER_9
 10
150.6592
 20
-4.6826
  0
VERTEX
  8
LAYER_9
 10
150.5676
 20
-4.7184
  0
VERTEX
  8
LAYER_9
 10
150.4583
 20
-4.7315
 42
-0.1002604889
  0
VERTEX
  8
LAYER_9
 10
150.2751
 20
-4.6967
 42
-0.103618762
  0
VERTEX
  8
LAYER_9
 10
150.1307
 20
-4.6009
 42
-0.1006399092
  0
VERTEX
  8
LAYER_9
 10
150.036
 20
-4.4555
 42
-0.09570873126
  0
VERTEX
  8
LAYER_9
 10
150.0018
 20
-4.2712
 42
-0.1025357642
  0
VERTEX
  8
LAYER_9
 10
150.0367
 20
-4.0869
 42
-0.09974197432
  0
VERTEX
  8
LAYER_9
 10
150.1321
 20
-3.9416
 42
-0.09791826644
  0
VERTEX
  8
LAYER_9
 10
150.2768
 20
-3.8458
 42
-0.09710431873
  0
VERTEX
  8
LAYER_9
 10
150.4583
 20
-3.811
  0
VERTEX
  8
LAYER_9
 10
150.5527
 20
-3.8213
  0
VERTEX
  8
LAYER_9
 10
150.6402
 20
-3.8495
  0
VERTEX
  8
LAYER_9
 10
150.7143
 20
-3.8933
  0
VERTEX
  8
LAYER_9
 10
150.7701
 20
-3.9508
  0
VERTEX
  8
LAYER_9
 10
150.696
 20
-4.0056
  0
VERTEX
  8
LAYER_9
 10
150.6592
 20
-3.9632
  0
VERTEX
  8
LAYER_9
 10
150.6055
 20
-3.926
  0
VERTEX
  8
LAYER_9
 10
150.5379
 20
-3.9002
  0
VERTEX
  8
LAYER_9
 10
150.4594
 20
-3.8902
 42
0.113658286
  0
VERTEX
  8
LAYER_9
 10
150.3068
 20
-3.9212
 42
0.1043770607
  0
VERTEX
  8
LAYER_9
 10
150.1924
 20
-4.0042
 42
0.09614808583
  0
VERTEX
  8
LAYER_9
 10
150.1204
 20
-4.1258
 42
0.08382976821
  0
VERTEX
  8
LAYER_9
 10
150.0959
 20
-4.2712
 42
0.09237333632
  0
VERTEX
  8
LAYER_9
 10
150.1214
 20
-4.4166
 42
0.09906074874
  0
VERTEX
  8
LAYER_9
 10
150.1938
 20
-4.5382
 42
0.1047661843
  0
VERTEX
  8
LAYER_9
 10
150.3081
 20
-4.6212
 42
0.1066098621
  0
VERTEX
  8
LAYER_9
 10
150.4594
 20
-4.6523
 42
0.1116904268
  0
VERTEX
  8
LAYER_9
 10
150.6027
 20
-4.6212
 42
0.1367806879
  0
VERTEX
  8
LAYER_9
 10
150.7167
 20
-4.5224
  0
SEQEND
  0
ENDBLK
  0
BLOCK
  8
LAYER_9
  2
AIGNBL09030024
 70
64
 10
0
 20
0
 30
0
  3
AIGNBL09030024
  0
POLYLINE
  8
LAYER_9
 40
0.05
 41
0.05
 66
1
 10
0
 20
0
 30
0
 70
1
  0
VERTEX
  8
LAYER_9
 10
151.199
 20
-4.6299
  0
VERTEX
  8
LAYER_9
 10
151.6679
 20
-4.6299
  0
VERTEX
  8
LAYER_9
 10
151.6679
 20
-4.7094
  0
VERTEX
  8
LAYER_9
 10
151.1102
 20
-4.7094
  0
VERTEX
  8
LAYER_9
 10
151.1102
 20
-3.8337
  0
VERTEX
  8
LAYER_9
 10
151.6531
 20
-3.8337
  0
VERTEX
  8
LAYER_9
 10
151.6531
 20
-3.9126
  0
VERTEX
  8
LAYER_9
 10
151.199
 20
-3.9126
  0
VERTEX
  8
LAYER_9
 10
151.199
 20
-4.213
  0
VERTEX
  8
LAYER_9
 10
151.6235
 20
-4.213
  0
VERTEX
  8
LAYER_9
 10
151.6235
 20
-4.2922
  0
VERTEX
  8
LAYER_9
 10
151.199
 20
-4.2922
  0
SEQEND
  0
ENDBLK
  0
BLOCK
  8
LAYER_9
  2
AIGNBL09020004
 70
64
 10
0
 20
0
 30
0
  3
AIGNBL09020004
  0
INSERT
  8
LAYER_9
  2
AIGNBL09030005
 10
0
 20
0
 30
0
  0
ENDBLK
  0
BLOCK
  8
LAYER_9
  2
AIGNBL0902000D
 70
64
 10
0
 20
0
 30
0
  3
AIGNBL0902000D
  0
INSERT
  8
LAYER_9
  2
AIGNBL0903000E
 10
0
 20
0
 30
0
  0
INSERT
  8
LAYER_9
  2
AIGNBL0903000F
 10
0
 20
0
 30
0
  0
INSERT
  8
LAYER_9
  2
AIGNBL09030010
 10
0
 20
0
 30
0
  0
INSERT
  8
LAYER_9
  2
AIGNBL09030011
 10
0
 20
0
 30
0
  0
INSERT
  8
LAYER_9
  2
AIGNBL09030012
 10
0
 20
0
 30
0
  0
INSERT
  8
LAYER_9
  2
AIGNBL09030013
 10
0
 20
0
 30
0
  0
INSERT
  8
LAYER_9
  2
AIGNBL09030014
 10
0
 20
0
 30
0
  0
INSERT
  8
LAYER_9
  2
AIGNBL09030015
 10
0
 20
0
 30
0
  0
INSERT
  8
LAYER_9
  2
AIGNBL09030016
 10
0
 20
0
 30
0
  0
INSERT
  8
LAYER_9
  2
AIGNBL09030017
 10
0
 20
0
 30
0
  0
INSERT
  8
LAYER_9
  2
AIGNBL09030018
 10
0
 20
0
 30
0
  0
INSERT
  8
LAYER_9
  2
AIGNBL09030019
 10
0
 20
0
 30
0
  0
INSERT
  8
LAYER_9
  2
AIGNBL0903001A
 10
0
 20
0
 30
0
  0
INSERT
  8
LAYER_9
  2
AIGNBL0903001B
 10
0
 20
0
 30
0
  0
INSERT
  8
LAYER_9
  2
AIGNBL0903001C
 10
0
 20
0
 30
0
  0
INSERT
  8
LAYER_9
  2
AIGNBL0903001D
 10
0
 20
0
 30
0
  0
INSERT
  8
LAYER_9
  2
AIGNBL0903001E
 10
0
 20
0
 30
0
  0
INSERT
  8
LAYER_9
  2
AIGNBL0903001F
 10
0
 20
0
 30
0
  0
INSERT
  8
LAYER_9
  2
AIGNBL09030020
 10
0
 20
0
 30
0
  0
INSERT
  8
LAYER_9
  2
AIGNBL09030021
 10
0
 20
0
 30
0
  0
INSERT
  8
LAYER_9
  2
AIGNBL09030022
 10
0
 20
0
 30
0
  0
INSERT
  8
LAYER_9
  2
AIGNBL09030023
 10
0
 20
0
 30
0
  0
INSERT
  8
LAYER_9
  2
AIGNBL09030024
 10
0
 20
0
 30
0
  0
ENDBLK
  0
BLOCK
  8
LAYER_9
  2
AIGNBL09010002
 70
64
 10
0
 20
0
 30
0
  3
AIGNBL09010002
  0
POLYLINE
  8
LAYER_9
 40
0.7056
 41
0.7056
 66
1
 10
0
 20
0
 30
0
 70
1
  0
VERTEX
  8
LAYER_9
 10
206.0763
 20
269.2235
  0
VERTEX
  8
LAYER_9
 10
206.0763
 20
-7.7766
  0
VERTEX
  8
LAYER_9
 10
16.0764
 20
-7.7766
  0
VERTEX
  8
LAYER_9
 10
16.0764
 20
269.2235
  0
SEQEND
  0
ENDBLK
  0
BLOCK
  8
LAYER_9
  2
AIGNBL09010003
 70
64
 10
0
 20
0
 30
0
  3
AIGNBL09010003
  0
INSERT
  8
LAYER_9
  2
AIGNBL09020004
 10
0
 20
0
 30
0
  0
INSERT
  8
LAYER_9
  2
AIGNBL0902000D
 10
0
 20
0
 30
0
  0
ENDBLK
  0
BLOCK
  8
LAYER_9
  2
AIGNBL09010025
 70
64
 10
0
 20
0
 30
0
  3
AIGNBL09010025
  0
POLYLINE
  8
LAYER_9
 40
0.0882
 41
0.0882
 66
1
 10
0
 20
0
 30
0
  0
VERTEX
  8
LAYER_9
 10
179.5081
 20
58.5604
  0
VERTEX
  8
LAYER_9
 10
179.5081
 20
170.3444
  0
SEQEND
  0
POLYLINE
  8
LAYER_9
 40
0.0882
 41
0.0882
 66
1
 10
0
 20
0
 30
0
  0
VERTEX
  8
LAYER_9
 10
148.5215
 20
134.7266
  0
VERTEX
  8
LAYER_9
 10
141.5742
 20
59.1292
  0
SEQEND
  0
POLYLINE
  8
LAYER_9
 40
0.0882
 41
0.0882
 66
1
 10
0
 20
0
 30
0
  0
VERTEX
  8
LAYER_9
 10
167.7306
 20
134.6612
  0
VERTEX
  8
LAYER_9
 10
174.6719
 20
59.1294
  0
SEQEND
  0
POLYLINE
  8
LAYER_9
 40
0.0882
 41
0.0882
 66
1
 10
0
 20
0
 30
0
  0
VERTEX
  8
LAYER_9
 10
175.4242
 20
58.6603
  0
VERTEX
  8
LAYER_9
 10
176.3697
 20
58.6603
  0
SEQEND
  0
POLYLINE
  8
LAYER_9
 40
0.0882
 41
0.0882
 66
1
 10
0
 20
0
 30
0
  0
VERTEX
  8
LAYER_9
 10
172.54
 20
58.6603
  0
VERTEX
  8
LAYER_9
 10
172.54
 20
58.6603
  0
VERTEX
  8
LAYER_9
 10
175.4243
 20
58.6603
  0
SEQEND
  0
POLYLINE
  8
LAYER_9
 40
0.0882
 41
0.0882
 66
1
 10
0
 20
0
 30
0
  0
VERTEX
  8
LAYER_9
 10
140.8217
 20
58.6603
  0
VERTEX
  8
LAYER_9
 10
139.8763
 20
58.6603
  0
SEQEND
  0
POLYLINE
  8
LAYER_9
 40
0.0882
 41
0.0882
 66
1
 10
0
 20
0
 30
0
  0
VERTEX
  8
LAYER_9
 10
143.7059
 20
58.6603
  0
VERTEX
  8
LAYER_9
 10
143.7066
 20
58.6603
  0
VERTEX
  8
LAYER_9
 10
143.6371
 20
58.6603
  0
VERTEX
  8
LAYER_9
 10
143.5786
 20
58.6603
  0
VERTEX
  8
LAYER_9
 10
143.5034
 20
58.6603
  0
VERTEX
  8
LAYER_9
 10
143.3909
 20
58.6603
  0
VERTEX
  8
LAYER_9
 10
143.1817
 20
58.6603
  0
VERTEX
  8
LAYER_9
 10
142.7704
 20
58.6603
  0
VERTEX
  8
LAYER_9
 10
142.1734
 20
58.6603
  0
VERTEX
  8
LAYER_9
 10
141.2365
 20
58.6603
  0
VERTEX
  8
LAYER_9
 10
140.8216
 20
58.6603
  0
SEQEND
  0
POLYLINE
  8
LAYER_9
 40
0.0882
 41
0.0882
 66
1
 10
0
 20
0
 30
0
  0
VERTEX
  8
LAYER_9
 10
149.2181
 20
134.6626
  0
VERTEX
  8
LAYER_9
 10
148.7256
 20
129.3081
  0
SEQEND
  0
POLYLINE
  8
LAYER_9
 40
0.0882
 41
0.0882
 66
1
 10
0
 20
0
 30
0
  0
VERTEX
  8
LAYER_9
 10
148.7055
 20
129.0839
  0
VERTEX
  8
LAYER_9
 10
142.2736
 20
59.0872
  0
SEQEND
  0
POLYLINE
  8
LAYER_9
 40
0.0882
 41
0.0882
 66
1
 10
0
 20
0
 30
0
  0
VERTEX
  8
LAYER_9
 10
173.9725
 20
59.0872
  0
VERTEX
  8
LAYER_9
 10
167.5399
 20
129.0931
  0
SEQEND
  0
POLYLINE
  8
LAYER_9
 40
0.0882
 41
0.0882
 66
1
 10
0
 20
0
 30
0
  0
VERTEX
  8
LAYER_9
 10
167.5198
 20
129.3082
  0
VERTEX
  8
LAYER_9
 10
167.0273
 20
134.6627
  0
SEQEND
  0
POLYLINE
  8
LAYER_9
 40
0.0882
 41
0.0882
 66
1
 10
0
 20
0
 30
0
  0
VERTEX
  8
LAYER_9
 10
172.54
 20
58.6603
  0
SEQEND
  0
POLYLINE
  8
LAYER_9
 40
0.0882
 41
0.0882
 66
1
 10
0
 20
0
 30
0
  0
VERTEX
  8
LAYER_9
 10
172.5407
 20
58.661
  0
VERTEX
  8
LAYER_9
 10
172.6483
 20
58.7312
  0
VERTEX
  8
LAYER_9
 10
172.7806
 20
58.7982
 42
-0.03193270054
  0
VERTEX
  8
LAYER_9
 10
173.1133
 20
58.9192
 42
-0.02277934191
  0
VERTEX
  8
LAYER_9
 10
173.5186
 20
59.018
  0
VERTEX
  8
LAYER_9
 10
173.9726
 20
59.0872
  0
SEQEND
  0
POLYLINE
  8
LAYER_9
 40
0.0882
 41
0.0882
 66
1
 10
0
 20
0
 30
0
  0
VERTEX
  8
LAYER_9
 10
174.6718
 20
59.1292
  0
VERTEX
  8
LAYER_9
 10
175.0013
 20
59.1218
  0
VERTEX
  8
LAYER_9
 10
175.3146
 20
59.0985
 42
-0.04260137157
  0
VERTEX
  8
LAYER_9
 10
175.848
 20
59.0022
  0
VERTEX
  8
LAYER_9
 10
176.0547
 20
58.9323
  0
VERTEX
  8
LAYER_9
 10
176.2138
 20
58.8501
  0
VERTEX
  8
LAYER_9
 10
176.32
 20
58.7588
 42
-0.1278807298
  0
VERTEX
  8
LAYER_9
 10
176.3697
 20
58.6603
  0
SEQEND
  0
POLYLINE
  8
LAYER_9
 40
0.0882
 41
0.0882
 66
1
 10
0
 20
0
 30
0
  0
VERTEX
  8
LAYER_9
 10
139.8764
 20
58.6603
 42
-0.1135986217
  0
VERTEX
  8
LAYER_9
 10
139.9261
 20
58.7587
 42
-0.06789804138
  0
VERTEX
  8
LAYER_9
 10
140.0319
 20
58.8501
  0
VERTEX
  8
LAYER_9
 10
140.1911
 20
58.932
  0
VERTEX
  8
LAYER_9
 10
140.3981
 20
59.0022
 42
-0.03896458899
  0
VERTEX
  8
LAYER_9
 10
140.9319
 20
59.0985
 42
-0.02854842511
  0
VERTEX
  8
LAYER_9
 10
141.5743
 20
59.1292
  0
SEQEND
  0
POLYLINE
  8
LAYER_9
 40
0.0882
 41
0.0882
 66
1
 10
0
 20
0
 30
0
  0
VERTEX
  8
LAYER_9
 10
142.2735
 20
59.0872
  0
VERTEX
  8
LAYER_9
 10
142.5056
 20
59.0561
  0
VERTEX
  8
LAYER_9
 10
142.7275
 20
59.018
  0
VERTEX
  8
LAYER_9
 10
143.1339
 20
58.9192
 42
-0.0362122541
  0
VERTEX
  8
LAYER_9
 10
143.4655
 20
58.7982
 42
-0.05929439009
  0
VERTEX
  8
LAYER_9
 10
143.7054
 20
58.661
  0
SEQEND
  0
POLYLINE
  8
LAYER_9
 40
0.0882
 41
0.0882
 66
1
 10
0
 20
0
 30
0
  0
VERTEX
  8
LAYER_9
 10
143.7059
 20
58.6603
  0
SEQEND
  0
POLYLINE
  8
LAYER_9
 40
0.0882
 41
0.0882
 66
1
 10
0
 20
0
 30
0
  0
VERTEX
  8
LAYER_9
 10
173.5005
 20
63.3663
  0
VERTEX
  8
LAYER_9
 10
173.5149
 20
63.3946
  0
VERTEX
  8
LAYER_9
 10
173.5245
 20
63.4344
  0
VERTEX
  8
LAYER_9
 10
173.5273
 20
63.4806
  0
VERTEX
  8
LAYER_9
 10
173.5266
 20
63.4986
  0
VERTEX
  8
LAYER_9
 10
173.5238
 20
63.5275
  0
VERTEX
  8
LAYER_9
 10
173.1505
 20
66.6461
  0
VERTEX
  8
LAYER_9
 10
168.3309
 20
106.8571
  0
VERTEX
  8
LAYER_9
 10
168.2152
 20
107.8244
  0
VERTEX
  8
LAYER_9
 10
168.1626
 20
108.2598
  0
VERTEX
  8
LAYER_9
 10
168.1598
 20
108.282
  0
VERTEX
  8
LAYER_9
 10
168.1573
 20
108.3085
  0
VERTEX
  8
LAYER_9
 10
168.1503
 20
108.3635
  0
VERTEX
  8
LAYER_9
 10
168.1414
 20
108.4559
  0
VERTEX
  8
LAYER_9
 10
168.1241
 20
108.7011
  0
VERTEX
  8
LAYER_9
 10
168.1192
 20
108.8214
  0
VERTEX
  8
LAYER_9
 10
168.1164
 20
108.9209
  0
VERTEX
  8
LAYER_9
 10
168.0772
 20
110.2932
  0
VERTEX
  8
LAYER_9
 10
167.9661
 20
114.1561
  0
VERTEX
  8
LAYER_9
 10
167.5399
 20
129.0821
  0
SEQEND
  0
POLYLINE
  8
LAYER_9
 40
0.0882
 41
0.0882
 66
1
 10
0
 20
0
 30
0
  0
VERTEX
  8
LAYER_9
 10
168.266
 20
121.1912
  0
VERTEX
  8
LAYER_9
 10
168.6188
 20
108.8489
  0
VERTEX
  8
LAYER_9
 10
168.6216
 20
108.7742
  0
VERTEX
  8
LAYER_9
 10
168.6262
 20
108.674
  0
VERTEX
  8
LAYER_9
 10
168.6325
 20
108.5868
  0
VERTEX
  8
LAYER_9
 10
168.64
 20
108.4937
  0
VERTEX
  8
LAYER_9
 10
168.6541
 20
108.3635
  0
VERTEX
  8
LAYER_9
 10
168.6555
 20
108.342
  0
VERTEX
  8
LAYER_9
 10
168.6594
 20
108.3152
  0
VERTEX
  8
LAYER_9
 10
168.7041
 20
107.9402
  0
VERTEX
  8
LAYER_9
 10
168.7973
 20
107.1673
  0
VERTEX
  8
LAYER_9
 10
169.0517
 20
105.0432
  0
VERTEX
  8
LAYER_9
 10
172.0432
 20
80.0866
  0
SEQEND
  0
POLYLINE
  8
LAYER_9
 40
0.0882
 41
0.0882
 66
1
 10
0
 20
0
 30
0
  0
VERTEX
  8
LAYER_9
 10
161.6921
 20
108.7651
  0
VERTEX
  8
LAYER_9
 10
161.684
 20
108.7355
  0
VERTEX
  8
LAYER_9
 10
161.679
 20
108.7171
  0
VERTEX
  8
LAYER_9
 10
161.6755
 20
108.6984
  0
VERTEX
  8
LAYER_9
 10
161.672
 20
108.6751
  0
VERTEX
  8
LAYER_9
 10
161.6667
 20
108.6328
  0
VERTEX
  8
LAYER_9
 10
161.6632
 20
108.5665
  0
VERTEX
  8
LAYER_9
 10
161.6727
 20
108.4434
  0
VERTEX
  8
LAYER_9
 10
161.6886
 20
108.3696
  0
VERTEX
  8
LAYER_9
 10
161.7023
 20
108.3167
  0
VERTEX
  8
LAYER_9
 10
161.7464
 20
108.1477
  0
VERTEX
  8
LAYER_9
 10
162.0304
 20
107.0517
  0
VERTEX
  8
LAYER_9
 10
162.5567
 20
105.0242
  0
VERTEX
  8
LAYER_9
 10
162.858
 20
103.8654
  0
VERTEX
  8
LAYER_9
 10
163.1589
 20
102.7065
  0
VERTEX
  8
LAYER_9
 10
163.8123
 20
100.1922
  0
VERTEX
  8
LAYER_9
 10
169.5848
 20
77.963
  0
VERTEX
  8
LAYER_9
 10
171.7946
 20
69.4544
  0
VERTEX
  8
LAYER_9
 10
173.3105
 20
63.6215
  0
VERTEX
  8
LAYER_9
 10
173.3228
 20
63.5764
  0
VERTEX
  8
LAYER_9
 10
173.3415
 20
63.5309
  0
VERTEX
  8
LAYER_9
 10
173.3909
 20
63.4511
  0
SEQEND
  0
POLYLINE
  8
LAYER_9
 40
0.0882
 41
0.0882
 66
1
 10
0
 20
0
 30
0
  0
VERTEX
  8
LAYER_9
 10
173.3909
 20
63.4511
 42
0.2928460656
  0
VERTEX
  8
LAYER_9
 10
173.5031
 20
63.3664
  0
SEQEND
  0
POLYLINE
  8
LAYER_9
 40
0.0882
 41
0.0882
 66
1
 10
0
 20
0
 30
0
  0
VERTEX
  8
LAYER_9
 10
142.742
 20
63.3663
  0
VERTEX
  8
LAYER_9
 10
142.7529
 20
63.3684
  0
VERTEX
  8
LAYER_9
 10
142.7667
 20
63.3737
  0
VERTEX
  8
LAYER_9
 10
142.7963
 20
63.3917
  0
VERTEX
  8
LAYER_9
 10
142.8549
 20
63.451
  0
SEQEND
  0
POLYLINE
  8
LAYER_9
 40
0.0882
 41
0.0882
 66
1
 10
0
 20
0
 30
0
  0
VERTEX
  8
LAYER_9
 10
149.1292
 20
129.4188
  0
VERTEX
  8
LAYER_9
 10
153.9944
 20
112.5197
  0
VERTEX
  8
LAYER_9
 10
154.2857
 20
111.5068
  0
VERTEX
  8
LAYER_9
 10
154.6068
 20
110.3924
  0
VERTEX
  8
LAYER_9
 10
155.0079
 20
108.9972
  0
VERTEX
  8
LAYER_9
 10
155.0382
 20
108.8885
  0
VERTEX
  8
LAYER_9
 10
155.0576
 20
108.8141
  0
VERTEX
  8
LAYER_9
 10
155.0774
 20
108.6702
  0
VERTEX
  8
LAYER_9
 10
155.0816
 20
108.5125
  0
VERTEX
  8
LAYER_9
 10
155.0767
 20
108.4398
  0
VERTEX
  8
LAYER_9
 10
155.0622
 20
108.3364
  0
VERTEX
  8
LAYER_9
 10
155.0499
 20
108.2796
  0
VERTEX
  8
LAYER_9
 10
155.0382
 20
108.2352
  0
VERTEX
  8
LAYER_9
 10
154.5669
 20
106.4152
  0
VERTEX
  8
LAYER_9
 10
154.3679
 20
105.6493
  0
VERTEX
  8
LAYER_9
 10
154.1686
 20
104.8813
  0
VERTEX
  8
LAYER_9
 10
153.667
 20
102.9506
  0
VERTEX
  8
LAYER_9
 10
152.9134
 20
100.049
  0
VERTEX
  8
LAYER_9
 10
150.6038
 20
91.1565
  0
VERTEX
  8
LAYER_9
 10
147.1399
 20
77.8176
  0
VERTEX
  8
LAYER_9
 10
146.3871
 20
74.9189
  0
VERTEX
  8
LAYER_9
 10
144.9805
 20
69.5041
  0
VERTEX
  8
LAYER_9
 10
143.6735
 20
64.4728
  0
VERTEX
  8
LAYER_9
 10
143.4283
 20
63.5298
  0
VERTEX
  8
LAYER_9
 10
143.4146
 20
63.4751
  0
VERTEX
  8
LAYER_9
 10
143.4096
 20
63.4592
  0
VERTEX
  8
LAYER_9
 10
143.3944
 20
63.4116
 42
-0.06317343914
  0
VERTEX
  8
LAYER_9
 10
143.2844
 20
63.1915
  0
VERTEX
  8
LAYER_9
 10
143.2043
 20
63.0902
  0
VERTEX
  8
LAYER_9
 10
143.0935
 20
62.9893
  0
VERTEX
  8
LAYER_9
 10
143.017
 20
62.9403
 42
-0.07046264301
  0
VERTEX
  8
LAYER_9
 10
142.861
 20
62.88
  0
VERTEX
  8
LAYER_9
 10
142.7545
 20
62.8666
  0
VERTEX
  8
LAYER_9
 10
142.6222
 20
62.881
  0
SEQEND
  0
POLYLINE
  8
LAYER_9
 40
0.0882
 41
0.0882
 66
1
 10
0
 20
0
 30
0
  0
VERTEX
  8
LAYER_9
 10
144.2027
 20
80.0868
  0
VERTEX
  8
LAYER_9
 10
147.4493
 20
107.1674
  0
VERTEX
  8
LAYER_9
 10
147.5417
 20
107.9403
  0
VERTEX
  8
LAYER_9
 10
147.5865
 20
108.3153
  0
VERTEX
  8
LAYER_9
 10
147.5901
 20
108.3421
  0
VERTEX
  8
LAYER_9
 10
147.5922
 20
108.3605
  0
VERTEX
  8
LAYER_9
 10
147.5989
 20
108.4194
  0
VERTEX
  8
LAYER_9
 10
147.6056
 20
108.4928
  0
VERTEX
  8
LAYER_9
 10
147.6243
 20
108.763
  0
VERTEX
  8
LAYER_9
 10
147.6271
 20
108.8487
  0
VERTEX
  8
LAYER_9
 10
147.6299
 20
108.9338
  0
VERTEX
  8
LAYER_9
 10
147.6663
 20
110.2048
  0
VERTEX
  8
LAYER_9
 10
147.7354
 20
112.6203
  0
VERTEX
  8
LAYER_9
 10
147.9806
 20
121.1914
  0
SEQEND
  0
POLYLINE
  8
LAYER_9
 40
0.0882
 41
0.0882
 66
1
 10
0
 20
0
 30
0
  0
VERTEX
  8
LAYER_9
 10
142.855
 20
63.4511
  0
VERTEX
  8
LAYER_9
 10
142.904
 20
63.5304
  0
VERTEX
  8
LAYER_9
 10
142.9231
 20
63.576
  0
VERTEX
  8
LAYER_9
 10
142.9354
 20
63.6215
  0
VERTEX
  8
LAYER_9
 10
144.4513
 20
69.4546
  0
VERTEX
  8
LAYER_9
 10
152.5846
 20
100.7728
  0
VERTEX
  8
LAYER_9
 10
153.1367
 20
102.8994
  0
VERTEX
  8
LAYER_9
 10
153.7392
 20
105.2178
  0
VERTEX
  8
LAYER_9
 10
154.4995
 20
108.1477
  0
VERTEX
  8
LAYER_9
 10
154.5566
 20
108.3696
  0
VERTEX
  8
LAYER_9
 10
154.5732
 20
108.4412
  0
VERTEX
  8
LAYER_9
 10
154.582
 20
108.5675
  0
VERTEX
  8
LAYER_9
 10
154.5785
 20
108.6405
  0
VERTEX
  8
LAYER_9
 10
154.5739
 20
108.6761
  0
VERTEX
  8
LAYER_9
 10
154.5704
 20
108.6983
  0
VERTEX
  8
LAYER_9
 10
154.5668
 20
108.7174
  0
VERTEX
  8
LAYER_9
 10
154.5623
 20
108.7354
  0
VERTEX
  8
LAYER_9
 10
154.5545
 20
108.765
  0
SEQEND
  0
POLYLINE
  8
LAYER_9
 40
0.0882
 41
0.0882
 66
1
 10
0
 20
0
 30
0
  0
VERTEX
  8
LAYER_9
 10
148.7062
 20
129.0839
  0
VERTEX
  8
LAYER_9
 10
148.1265
 20
108.8211
  0
VERTEX
  8
LAYER_9
 10
148.1248
 20
108.754
  0
VERTEX
  8
LAYER_9
 10
148.1184
 20
108.6447
  0
VERTEX
  8
LAYER_9
 10
148.1096
 20
108.5156
  0
VERTEX
  8
LAYER_9
 10
148.1047
 20
108.4549
  0
VERTEX
  8
LAYER_9
 10
148.0962
 20
108.3759
  0
VERTEX
  8
LAYER_9
 10
148.0888
 20
108.305
  0
VERTEX
  8
LAYER_9
 10
148.0764
 20
108.1995
  0
VERTEX
  8
LAYER_9
 10
147.9152
 20
106.8572
  0
VERTEX
  8
LAYER_9
 10
145.0418
 20
82.8852
  0
VERTEX
  8
LAYER_9
 10
143.0956
 20
66.6461
  0
VERTEX
  8
LAYER_9
 10
142.722
 20
63.5276
  0
VERTEX
  8
LAYER_9
 10
142.7192
 20
63.4987
  0
VERTEX
  8
LAYER_9
 10
142.7184
 20
63.48
  0
VERTEX
  8
LAYER_9
 10
142.7213
 20
63.4337
  0
VERTEX
  8
LAYER_9
 10
142.7304
 20
63.3946
  0
VERTEX
  8
LAYER_9
 10
142.7456
 20
63.3664
  0
SEQEND
  0
POLYLINE
  8
LAYER_9
 40
0.0882
 41
0.0882
 66
1
 10
0
 20
0
 30
0
  0
VERTEX
  8
LAYER_9
 10
168.1475
 20
108.393
 42
-0.2038580701
  0
VERTEX
  8
LAYER_9
 10
167.9767
 20
108.326
  0
SEQEND
  0
POLYLINE
  8
LAYER_9
 40
0.0882
 41
0.0882
 66
1
 10
0
 20
0
 30
0
  0
VERTEX
  8
LAYER_9
 10
167.9608
 20
108.3262
  0
VERTEX
  8
LAYER_9
 10
167.9456
 20
108.328
  0
SEQEND
  0
POLYLINE
  8
LAYER_9
 40
0.0882
 41
0.0882
 66
1
 10
0
 20
0
 30
0
  0
VERTEX
  8
LAYER_9
 10
167.9767
 20
108.8257
 42
-0.163654944
  0
VERTEX
  8
LAYER_9
 10
168.1206
 20
108.7802
  0
SEQEND
  0
POLYLINE
  8
LAYER_9
 40
0.0882
 41
0.0882
 66
1
 10
0
 20
0
 30
0
  0
VERTEX
  8
LAYER_9
 10
167.9767
 20
108.3259
  0
VERTEX
  8
LAYER_9
 10
161.7004
 20
108.3259
  0
SEQEND
  0
POLYLINE
  8
LAYER_9
 40
0.0882
 41
0.0882
 66
1
 10
0
 20
0
 30
0
  0
VERTEX
  8
LAYER_9
 10
161.1857
 20
108.3259
  0
VERTEX
  8
LAYER_9
 10
155.0604
 20
108.3259
  0
SEQEND
  0
POLYLINE
  8
LAYER_9
 40
0.0882
 41
0.0882
 66
1
 10
0
 20
0
 30
0
  0
VERTEX
  8
LAYER_9
 10
154.5456
 20
108.3259
  0
VERTEX
  8
LAYER_9
 10
148.4161
 20
108.3259
  0
SEQEND
  0
POLYLINE
  8
LAYER_9
 40
0.0882
 41
0.0882
 66
1
 10
0
 20
0
 30
0
  0
VERTEX
  8
LAYER_9
 10
148.2693
 20
108.3259
 42
-0.2034672749
  0
VERTEX
  8
LAYER_9
 10
148.0986
 20
108.3936
  0
SEQEND
  0
POLYLINE
  8
LAYER_9
 40
0.0882
 41
0.0882
 66
1
 10
0
 20
0
 30
0
  0
VERTEX
  8
LAYER_9
 10
148.27
 20
108.8257
  0
VERTEX
  8
LAYER_9
 10
148.416
 20
108.8257
  0
SEQEND
  0
POLYLINE
  8
LAYER_9
 40
0.0882
 41
0.0882
 66
1
 10
0
 20
0
 30
0
  0
VERTEX
  8
LAYER_9
 10
148.1349
 20
108.7865
  0
VERTEX
  8
LAYER_9
 10
148.1536
 20
108.7971
  0
SEQEND
  0
POLYLINE
  8
LAYER_9
 40
0.0882
 41
0.0882
 66
1
 10
0
 20
0
 30
0
  0
VERTEX
  8
LAYER_9
 10
148.1563
 20
108.7989
  0
VERTEX
  8
LAYER_9
 10
148.2121
 20
108.8193
  0
SEQEND
  0
POLYLINE
  8
LAYER_9
 40
0.0882
 41
0.0882
 66
1
 10
0
 20
0
 30
0
  0
VERTEX
  8
LAYER_9
 10
148.2342
 20
108.8233
  0
VERTEX
  8
LAYER_9
 10
148.243
 20
108.8244
  0
SEQEND
  0
POLYLINE
  8
LAYER_9
 40
0.0882
 41
0.0882
 66
1
 10
0
 20
0
 30
0
  0
VERTEX
  8
LAYER_9
 10
148.2459
 20
108.8247
  0
VERTEX
  8
LAYER_9
 10
148.2692
 20
108.8258
  0
SEQEND
  0
POLYLINE
  8
LAYER_9
 40
0.0882
 41
0.0882
 66
1
 10
0
 20
0
 30
0
  0
VERTEX
  8
LAYER_9
 10
148.2852
 20
108.3262
  0
VERTEX
  8
LAYER_9
 10
148.294
 20
108.3269
  0
SEQEND
  0
POLYLINE
  8
LAYER_9
 40
0.0882
 41
0.0882
 66
1
 10
0
 20
0
 30
0
  0
VERTEX
  8
LAYER_9
 10
148.2459
 20
108.8247
  0
VERTEX
  8
LAYER_9
 10
148.2431
 20
108.8244
  0
SEQEND
  0
POLYLINE
  8
LAYER_9
 40
0.0882
 41
0.0882
 66
1
 10
0
 20
0
 30
0
  0
VERTEX
  8
LAYER_9
 10
148.2342
 20
108.8233
  0
VERTEX
  8
LAYER_9
 10
148.2116
 20
108.8191
  0
SEQEND
  0
POLYLINE
  8
LAYER_9
 40
0.0882
 41
0.0882
 66
1
 10
0
 20
0
 30
0
  0
VERTEX
  8
LAYER_9
 10
148.1563
 20
108.7989
  0
VERTEX
  8
LAYER_9
 10
148.1535
 20
108.7971
  0
SEQEND
  0
POLYLINE
  8
LAYER_9
 40
0.0882
 41
0.0882
 66
1
 10
0
 20
0
 30
0
  0
VERTEX
  8
LAYER_9
 10
148.1349
 20
108.7865
  0
VERTEX
  8
LAYER_9
 10
148.1254
 20
108.7798
  0
SEQEND
  0
POLYLINE
  8
LAYER_9
 40
0.0882
 41
0.0882
 66
1
 10
0
 20
0
 30
0
  0
VERTEX
  8
LAYER_9
 10
148.2879
 20
108.8257
  0
VERTEX
  8
LAYER_9
 10
148.2949
 20
108.8257
  0
SEQEND
  0
POLYLINE
  8
LAYER_9
 40
0.0882
 41
0.0882
 66
1
 10
0
 20
0
 30
0
  0
VERTEX
  8
LAYER_9
 10
148.4161
 20
108.3259
  0
VERTEX
  8
LAYER_9
 10
148.3952
 20
108.3259
  0
SEQEND
  0
POLYLINE
  8
LAYER_9
 40
0.0882
 41
0.0882
 66
1
 10
0
 20
0
 30
0
  0
VERTEX
  8
LAYER_9
 10
148.3919
 20
108.3259
  0
VERTEX
  8
LAYER_9
 10
148.3567
 20
108.3259
  0
SEQEND
  0
POLYLINE
  8
LAYER_9
 40
0.0882
 41
0.0882
 66
1
 10
0
 20
0
 30
0
  0
VERTEX
  8
LAYER_9
 10
148.3554
 20
108.3259
  0
VERTEX
  8
LAYER_9
 10
148.3106
 20
108.3259
  0
SEQEND
  0
POLYLINE
  8
LAYER_9
 40
0.0882
 41
0.0882
 66
1
 10
0
 20
0
 30
0
  0
VERTEX
  8
LAYER_9
 10
148.3051
 20
108.3259
  0
VERTEX
  8
LAYER_9
 10
148.2956
 20
108.3259
  0
SEQEND
  0
POLYLINE
  8
LAYER_9
 40
0.0882
 41
0.0882
 66
1
 10
0
 20
0
 30
0
  0
VERTEX
  8
LAYER_9
 10
148.292
 20
108.3259
  0
VERTEX
  8
LAYER_9
 10
148.2698
 20
108.3259
  0
SEQEND
  0
POLYLINE
  8
LAYER_9
 40
0.0882
 41
0.0882
 66
1
 10
0
 20
0
 30
0
  0
VERTEX
  8
LAYER_9
 10
148.3954
 20
108.3259
  0
VERTEX
  8
LAYER_9
 10
148.3919
 20
108.3259
  0
SEQEND
  0
POLYLINE
  8
LAYER_9
 40
0.0882
 41
0.0882
 66
1
 10
0
 20
0
 30
0
  0
VERTEX
  8
LAYER_9
 10
148.3568
 20
108.3259
  0
VERTEX
  8
LAYER_9
 10
148.3554
 20
108.3259
  0
SEQEND
  0
POLYLINE
  8
LAYER_9
 40
0.0882
 41
0.0882
 66
1
 10
0
 20
0
 30
0
  0
VERTEX
  8
LAYER_9
 10
148.3107
 20
108.3259
  0
VERTEX
  8
LAYER_9
 10
148.305
 20
108.3259
  0
SEQEND
  0
POLYLINE
  8
LAYER_9
 40
0.0882
 41
0.0882
 66
1
 10
0
 20
0
 30
0
  0
VERTEX
  8
LAYER_9
 10
148.2955
 20
108.3259
  0
VERTEX
  8
LAYER_9
 10
148.292
 20
108.3259
  0
SEQEND
  0
POLYLINE
  8
LAYER_9
 40
0.0882
 41
0.0882
 66
1
 10
0
 20
0
 30
0
  0
VERTEX
  8
LAYER_9
 10
148.2707
 20
108.3259
  0
VERTEX
  8
LAYER_9
 10
148.27
 20
108.3259
  0
SEQEND
  0
POLYLINE
  8
LAYER_9
 40
0.0882
 41
0.0882
 66
1
 10
0
 20
0
 30
0
  0
VERTEX
  8
LAYER_9
 10
148.2865
 20
108.3266
  0
VERTEX
  8
LAYER_9
 10
148.2939
 20
108.3269
  0
SEQEND
  0
POLYLINE
  8
LAYER_9
 40
0.0882
 41
0.0882
 66
1
 10
0
 20
0
 30
0
  0
VERTEX
  8
LAYER_9
 10
148.4161
 20
108.8257
  0
VERTEX
  8
LAYER_9
 10
154.5368
 20
108.8257
  0
SEQEND
  0
POLYLINE
  8
LAYER_9
 40
0.0882
 41
0.0882
 66
1
 10
0
 20
0
 30
0
  0
VERTEX
  8
LAYER_9
 10
155.0548
 20
108.8257
  0
VERTEX
  8
LAYER_9
 10
161.1917
 20
108.8257
  0
SEQEND
  0
POLYLINE
  8
LAYER_9
 40
0.0882
 41
0.0882
 66
1
 10
0
 20
0
 30
0
  0
VERTEX
  8
LAYER_9
 10
161.7093
 20
108.8257
  0
VERTEX
  8
LAYER_9
 10
167.9767
 20
108.8257
  0
SEQEND
  0
POLYLINE
  8
LAYER_9
 40
0.0882
 41
0.0882
 66
1
 10
0
 20
0
 30
0
  0
VERTEX
  8
LAYER_9
 10
148.649
 20
129.2834
  0
VERTEX
  8
LAYER_9
 10
154.5545
 20
108.7651
  0
SEQEND
  0
POLYLINE
  8
LAYER_9
 40
0.0882
 41
0.0882
 66
1
 10
0
 20
0
 30
0
  0
VERTEX
  8
LAYER_9
 10
173.6238
 20
62.8809
 42
-0.1175173085
  0
VERTEX
  8
LAYER_9
 10
173.3853
 20
62.8799
 42
-0.1006697248
  0
VERTEX
  8
LAYER_9
 10
173.1546
 20
62.9882
 42
-0.08583338898
  0
VERTEX
  8
LAYER_9
 10
172.9617
 20
63.1921
  0
VERTEX
  8
LAYER_9
 10
172.9183
 20
63.2623
  0
VERTEX
  8
LAYER_9
 10
172.8879
 20
63.3215
  0
VERTEX
  8
LAYER_9
 10
172.8667
 20
63.3713
  0
VERTEX
  8
LAYER_9
 10
172.8583
 20
63.3924
  0
VERTEX
  8
LAYER_9
 10
172.8445
 20
63.4305
  0
VERTEX
  8
LAYER_9
 10
172.8364
 20
63.4598
  0
VERTEX
  8
LAYER_9
 10
172.8294
 20
63.4842
  0
VERTEX
  8
LAYER_9
 10
171.2648
 20
69.504
  0
VERTEX
  8
LAYER_9
 10
169.859
 20
74.9187
  0
VERTEX
  8
LAYER_9
 10
169.1058
 20
77.8179
  0
VERTEX
  8
LAYER_9
 10
163.2821
 20
100.2425
  0
VERTEX
  8
LAYER_9
 10
162.5787
 20
102.9505
  0
VERTEX
  8
LAYER_9
 10
162.0778
 20
104.8816
  0
VERTEX
  8
LAYER_9
 10
161.8781
 20
105.6492
  0
VERTEX
  8
LAYER_9
 10
161.6791
 20
106.4151
  0
VERTEX
  8
LAYER_9
 10
161.2078
 20
108.2347
  0
VERTEX
  8
LAYER_9
 10
161.1958
 20
108.2795
  0
VERTEX
  8
LAYER_9
 10
161.1849
 20
108.331
  0
VERTEX
  8
LAYER_9
 10
161.169
 20
108.44
  0
VERTEX
  8
LAYER_9
 10
161.1644
 20
108.518
  0
VERTEX
  8
LAYER_9
 10
161.1676
 20
108.6701
  0
VERTEX
  8
LAYER_9
 10
161.1884
 20
108.8105
  0
VERTEX
  8
LAYER_9
 10
161.2078
 20
108.892
  0
VERTEX
  8
LAYER_9
 10
161.2244
 20
108.9459
  0
VERTEX
  8
LAYER_9
 10
161.2389
 20
108.9974
  0
VERTEX
  8
LAYER_9
 10
161.2671
 20
109.0973
  0
VERTEX
  8
LAYER_9
 10
161.6389
 20
110.3927
  0
VERTEX
  8
LAYER_9
 10
161.9596
 20
111.5067
  0
VERTEX
  8
LAYER_9
 10
162.2517
 20
112.5196
  0
VERTEX
  8
LAYER_9
 10
162.5851
 20
113.6777
  0
VERTEX
  8
LAYER_9
 10
163.1685
 20
115.7062
  0
VERTEX
  8
LAYER_9
 10
165.1152
 20
122.4668
  0
VERTEX
  8
LAYER_9
 10
167.1168
 20
129.4187
  0
SEQEND
  0
POLYLINE
  8
LAYER_9
 40
0.0882
 41
0.0882
 66
1
 10
0
 20
0
 30
0
  0
VERTEX
  8
LAYER_9
 10
167.5976
 20
129.2834
  0
VERTEX
  8
LAYER_9
 10
161.6921
 20
108.7651
  0
SEQEND
  0
POLYLINE
  8
LAYER_9
 40
0.0882
 41
0.0882
 66
1
 10
0
 20
0
 30
0
  0
VERTEX
  8
LAYER_9
 10
141.5741
 20
59.1292
  0
VERTEX
  8
LAYER_9
 10
142.2733
 20
59.0872
  0
SEQEND
  0
POLYLINE
  8
LAYER_9
 40
0.0882
 41
0.0882
 66
1
 10
0
 20
0
 30
0
  0
VERTEX
  8
LAYER_9
 10
173.9725
 20
59.0872
  0
VERTEX
  8
LAYER_9
 10
174.6717
 20
59.1292
  0
SEQEND
  0
POLYLINE
  8
LAYER_9
 40
0.0882
 41
0.0882
 66
1
 10
0
 20
0
 30
0
  0
VERTEX
  8
LAYER_9
 10
149.1292
 20
129.4188
  0
VERTEX
  8
LAYER_9
 10
148.6491
 20
129.2833
  0
SEQEND
  0
POLYLINE
  8
LAYER_9
 40
0.0882
 41
0.0882
 66
1
 10
0
 20
0
 30
0
  0
VERTEX
  8
LAYER_9
 10
167.1168
 20
129.4188
  0
VERTEX
  8
LAYER_9
 10
167.5969
 20
129.2805
  0
SEQEND
  0
POLYLINE
  8
LAYER_9
 40
0.0882
 41
0.0882
 66
1
 10
0
 20
0
 30
0
 70
1
  0
VERTEX
  8
LAYER_9
 10
175.5772
 20
135.0588
  0
VERTEX
  8
LAYER_9
 10
174.7647
 20
135.0588
 42
0.007715360356
  0
VERTEX
  8
LAYER_9
 10
175.3175
 20
138.3442
 42
0.01455114887
  0
VERTEX
  8
LAYER_9
 10
176.0845
 20
144.5732
  0
VERTEX
  8
LAYER_9
 10
172.3341
 20
144.5728
  0
VERTEX
  8
LAYER_9
 10
172.3341
 20
145.3659
  0
VERTEX
  8
LAYER_9
 10
176.1561
 20
145.3595
 42
-0.1140558047
  0
VERTEX
  8
LAYER_9
 10
176.2551
 20
146.0051
 42
-0.1668426763
  0
VERTEX
  8
LAYER_9
 10
176.3635
 20
146.1374
 42
-0.4172514669
  0
VERTEX
  8
LAYER_9
 10
176.9972
 20
145.9002
 42
-0.05572041518
  0
VERTEX
  8
LAYER_9
 10
177.0077
 20
145.8245
 42
-0.01734717698
  0
VERTEX
  8
LAYER_9
 10
176.1296
 20
138.3442
 42
-0.007397834028
  0
SEQEND
  0
POLYLINE
  8
LAYER_9
 40
0.0882
 41
0.0882
 66
1
 10
0
 20
0
 30
0
  0
VERTEX
  8
LAYER_9
 10
174.7649
 20
135.0588
  0
VERTEX
  8
LAYER_9
 10
174.64
 20
134.3966
  0
VERTEX
  8
LAYER_9
 10
174.4488
 20
133.4332
  0
VERTEX
  8
LAYER_9
 10
174.3514
 20
132.9523
  0
VERTEX
  8
LAYER_9
 10
174.1496
 20
131.992
  0
VERTEX
  8
LAYER_9
 10
174.1165
 20
131.8361
  0
VERTEX
  8
LAYER_9
 10
174.0897
 20
131.7148
  0
VERTEX
  8
LAYER_9
 10
174.0642
 20
131.5998
  0
VERTEX
  8
LAYER_9
 10
174.0346
 20
131.4759
  0
VERTEX
  8
LAYER_9
 10
174.0096
 20
131.3828
  0
VERTEX
  8
LAYER_9
 10
173.9835
 20
131.2911
  0
VERTEX
  8
LAYER_9
 10
173.9242
 20
131.1105
  0
VERTEX
  8
LAYER_9
 10
173.7803
 20
130.7591
 42
-0.05215331105
  0
VERTEX
  8
LAYER_9
 10
173.3971
 20
130.122
 42
-0.04012731613
  0
VERTEX
  8
LAYER_9
 10
173.0828
 20
129.7688
 42
-0.04351685697
  0
VERTEX
  8
LAYER_9
 10
172.724
 20
129.4803
 42
-0.04438409837
  0
VERTEX
  8
LAYER_9
 10
172.3663
 20
129.2852
  0
VERTEX
  8
LAYER_9
 10
171.5761
 20
129.0756
  0
VERTEX
  8
LAYER_9
 10
171.5906
 20
128.8142
  0
VERTEX
  8
LAYER_9
 10
171.5927
 20
128.7811
  0
VERTEX
  8
LAYER_9
 10
171.5973
 20
128.7109
 42
0.1576449827
  0
VERTEX
  8
LAYER_9
 10
171.7105
 20
128.4484
 42
0.1012969737
  0
VERTEX
  8
LAYER_9
 10
171.8178
 20
128.369
 42
0.1162171333
  0
VERTEX
  8
LAYER_9
 10
171.9331
 20
128.3436
  0
VERTEX
  8
LAYER_9
 10
171.9758
 20
128.3471
  0
VERTEX
  8
LAYER_9
 10
172.0778
 20
128.3634
  0
VERTEX
  8
LAYER_9
 10
172.2616
 20
128.4054
 42
0.03032341962
  0
VERTEX
  8
LAYER_9
 10
172.6034
 20
128.5172
 42
0.05941524186
  0
VERTEX
  8
LAYER_9
 10
173.2518
 20
128.8728
 42
0.05484171522
  0
VERTEX
  8
LAYER_9
 10
173.8251
 20
129.3854
 42
0.05102317553
  0
VERTEX
  8
LAYER_9
 10
174.3073
 20
130.0458
 42
0.0695482449
  0
VERTEX
  8
LAYER_9
 10
174.7987
 20
131.2368
  0
VERTEX
  8
LAYER_9
 10
174.8358
 20
131.3874
  0
VERTEX
  8
LAYER_9
 10
174.8929
 20
131.6424
  0
VERTEX
  8
LAYER_9
 10
175.112
 20
132.6782
  0
VERTEX
  8
LAYER_9
 10
175.5304
 20
134.8033
  0
VERTEX
  8
LAYER_9
 10
175.5773
 20
135.0588
  0
SEQEND
  0
POLYLINE
  8
LAYER_9
 40
0.0882
 41
0.0882
 66
1
 10
0
 20
0
 30
0
 70
1
  0
VERTEX
  8
LAYER_9
 10
157.8053
 20
134.9588
  0
VERTEX
  8
LAYER_9
 10
157.7785
 20
135.2654
  0
VERTEX
  8
LAYER_9
 10
157.691
 20
136.2617
  0
VERTEX
  8
LAYER_9
 10
156.7491
 20
136.6966
  0
VERTEX
  8
LAYER_9
 10
153.614
 20
136.7647
  0
VERTEX
  8
LAYER_9
 10
152.2099
 20
136.831
  0
VERTEX
  8
LAYER_9
 10
149.4318
 20
136.9534
  0
VERTEX
  8
LAYER_9
 10
143.8748
 20
137.1817
  0
VERTEX
  8
LAYER_9
 10
142.4986
 20
137.236
  0
VERTEX
  8
LAYER_9
 10
141.8097
 20
137.2635
 42
-0.1071763457
  0
VERTEX
  8
LAYER_9
 10
141.4461
 20
137.3222
 42
-0.1633517073
  0
VERTEX
  8
LAYER_9
 10
141.2131
 20
137.5352
 42
-0.08535294921
  0
VERTEX
  8
LAYER_9
 10
140.8068
 20
138.5646
 42
-0.02646833534
  0
VERTEX
  8
LAYER_9
 10
140.7004
 20
139.2181
 42
0.005516115344
  0
VERTEX
  8
LAYER_9
 10
140.5915
 20
140.2244
 42
-0.01234153953
  0
VERTEX
  8
LAYER_9
 10
139.995
 20
145.7524
 42
0.120369687
  0
VERTEX
  8
LAYER_9
 10
139.9315
 20
146.0334
 42
0.2791936886
  0
VERTEX
  8
LAYER_9
 10
139.6737
 20
146.1752
 42
0.02400923543
  0
VERTEX
  8
LAYER_9
 10
139.6207
 20
146.1765
 42
0.1399632181
  0
VERTEX
  8
LAYER_9
 10
139.4022
 20
146.1259
 42
0.1505932087
  0
VERTEX
  8
LAYER_9
 10
139.3095
 20
146.0214
 42
0.1366038797
  0
VERTEX
  8
LAYER_9
 10
139.2771
 20
145.7426
  0
VERTEX
  8
LAYER_9
 10
139.3822
 20
144.4066
 42
0.005078848369
  0
VERTEX
  8
LAYER_9
 10
139.6291
 20
141.8101
 42
0.01073615032
  0
VERTEX
  8
LAYER_9
 10
140.2885
 20
136.6352
 42
0.01157768901
  0
VERTEX
  8
LAYER_9
 10
141.1669
 20
131.4932
 42
0.0643398231
  0
VERTEX
  8
LAYER_9
 10
141.6023
 20
130.1263
 42
0.07581517115
  0
VERTEX
  8
LAYER_9
 10
142.2714
 20
129.1673
 42
0.09257029242
  0
VERTEX
  8
LAYER_9
 10
143.0981
 20
128.5463
 42
0.02384738017
  0
VERTEX
  8
LAYER_9
 10
143.327
 20
128.4508
 42
0.08614092373
  0
VERTEX
  8
LAYER_9
 10
143.7231
 20
128.3567
 42
0.292239596
  0
VERTEX
  8
LAYER_9
 10
143.9792
 20
128.4947
 42
0.08151614762
  0
VERTEX
  8
LAYER_9
 10
144.0377
 20
128.6994
 42
0.02402652623
  0
VERTEX
  8
LAYER_9
 10
144.0678
 20
129.0766
  0
VERTEX
  8
LAYER_9
 10
143.3704
 20
129.2862
 42
-0.1032688051
  0
VERTEX
  8
LAYER_9
 10
142.6669
 20
129.8378
 42
-0.08096432818
  0
VERTEX
  8
LAYER_9
 10
142.1618
 20
130.6788
 42
-0.05597269236
  0
VERTEX
  8
LAYER_9
 10
141.8174
 20
131.8745
 42
-0.009046154491
  0
VERTEX
  8
LAYER_9
 10
141.2731
 20
134.9588
  0
SEQEND
  0
POLYLINE
  8
LAYER_9
 40
0.0882
 41
0.0882
 66
1
 10
0
 20
0
 30
0
  0
VERTEX
  8
LAYER_9
 10
161.1657
 20
136.2618
  0
VERTEX
  8
LAYER_9
 10
161.0514
 20
134.959
  0
VERTEX
  8
LAYER_9
 10
166.8613
 20
134.959
  0
VERTEX
  8
LAYER_9
 10
166.983
 20
136.356
  0
VERTEX
  8
LAYER_9
 10
167.0899
 20
137.5716
  0
VERTEX
  8
LAYER_9
 10
167.7319
 20
144.1167
 42
-0.1106227314
  0
VERTEX
  8
LAYER_9
 10
167.8019
 20
144.3817
 42
-0.2463228106
  0
VERTEX
  8
LAYER_9
 10
168.0834
 20
144.5624
 42
-0.03788839981
  0
VERTEX
  8
LAYER_9
 10
168.23
 20
144.5732
  0
VERTEX
  8
LAYER_9
 10
168.3341
 20
144.5729
  0
VERTEX
  8
LAYER_9
 10
168.3341
 20
145.3666
  0
VERTEX
  8
LAYER_9
 10
167.426
 20
145.3631
 42
0.1108682104
  0
VERTEX
  8
LAYER_9
 10
167.1557
 20
145.3167
 42
0.246811068
  0
VERTEX
  8
LAYER_9
 10
166.9515
 20
145.0519
 42
0.03750003018
  0
VERTEX
  8
LAYER_9
 10
166.9279
 20
144.9066
  0
VERTEX
  8
LAYER_9
 10
166.2859
 20
137.5618
  0
VERTEX
  8
LAYER_9
 10
166.2291
 20
136.9289
 42
-0.3804366457
  0
VERTEX
  8
LAYER_9
 10
166.0379
 20
136.7462
  0
VERTEX
  8
LAYER_9
 10
164.6102
 20
136.6964
  0
VERTEX
  8
LAYER_9
 10
162.1076
 20
136.6964
 42
0.04783422436
  0
VERTEX
  8
LAYER_9
 10
161.839
 20
136.5859
 42
0.005547258412
  0
VERTEX
  8
LAYER_9
 10
161.1657
 20
136.2618
  0
VERTEX
  8
LAYER_9
 10
161.0782
 20
135.2655
  0
SEQEND
  0
POLYLINE
  8
LAYER_9
 40
0.0882
 41
0.0882
 66
1
 10
0
 20
0
 30
0
  0
VERTEX
  8
LAYER_9
 10
156.7491
 20
136.6966
  0
VERTEX
  8
LAYER_9
 10
162.0474
 20
136.6966
  0
SEQEND
  0
POLYLINE
  8
LAYER_9
 40
0.0882
 41
0.0882
 66
1
 10
0
 20
0
 30
0
  0
VERTEX
  8
LAYER_9
 10
172.7012
 20
145.3699
  0
VERTEX
  8
LAYER_9
 10
172.1562
 20
145.3699
  0
VERTEX
  8
LAYER_9
 10
171.5914
 20
145.3699
  0
VERTEX
  8
LAYER_9
 10
170.4653
 20
145.3699
  0
VERTEX
  8
LAYER_9
 10
169.3382
 20
145.3699
  0
VERTEX
  8
LAYER_9
 10
168.7737
 20
145.3699
  0
VERTEX
  8
LAYER_9
 10
168.3451
 20
145.3699
 42
-0.3000830637
  0
VERTEX
  8
LAYER_9
 10
168.2107
 20
145.3699
  0
SEQEND
  0
POLYLINE
  8
LAYER_9
 40
0.0882
 41
0.0882
 66
1
 10
0
 20
0
 30
0
  0
VERTEX
  8
LAYER_9
 10
148.5215
 20
134.9588
  0
VERTEX
  8
LAYER_9
 10
167.7306
 20
134.9588
  0
SEQEND
  0
POLYLINE
  8
LAYER_9
 40
0.0882
 41
0.0882
 66
1
 10
0
 20
0
 30
0
  0
VERTEX
  8
LAYER_9
 10
148.5215
 20
134.9588
  0
VERTEX
  8
LAYER_9
 10
167.7306
 20
134.9588
  0
SEQEND
  0
POLYLINE
  8
LAYER_9
 40
0.0882
 41
0.0882
 66
1
 10
0
 20
0
 30
0
 70
1
  0
VERTEX
  8
LAYER_9
 10
148.5213
 20
134.6592
  0
VERTEX
  8
LAYER_9
 10
167.728
 20
134.6592
  0
VERTEX
  8
LAYER_9
 10
167.728
 20
134.9605
  0
VERTEX
  8
LAYER_9
 10
148.5213
 20
134.9605
  0
SEQEND
  0
POLYLINE
  8
LAYER_9
 40
0.0882
 41
0.0882
 66
1
 10
0
 20
0
 30
0
  0
VERTEX
  8
LAYER_9
 10
148.5215
 20
134.9588
  0
VERTEX
  8
LAYER_9
 10
148.5215
 20
134.6611
  0
SEQEND
  0
POLYLINE
  8
LAYER_9
 40
0.0882
 41
0.0882
 66
1
 10
0
 20
0
 30
0
 70
1
  0
VERTEX
  8
LAYER_9
 10
179.5079
 20
128.106
  0
VERTEX
  8
LAYER_9
 10
179.2067
 20
128.106
  0
VERTEX
  8
LAYER_9
 10
179.2067
 20
134.6088
  0
VERTEX
  8
LAYER_9
 10
179.5079
 20
134.6088
  0
SEQEND
  0
POLYLINE
  8
LAYER_9
 40
0.0882
 41
0.0882
 66
1
 10
0
 20
0
 30
0
  0
VERTEX
  8
LAYER_9
 10
179.2076
 20
129.9063
  0
VERTEX
  8
LAYER_9
 10
179.5082
 20
129.9063
  0
SEQEND
  0
POLYLINE
  8
LAYER_9
 40
0.0882
 41
0.0882
 66
1
 10
0
 20
0
 30
0
  0
VERTEX
  8
LAYER_9
 10
179.5081
 20
129.3061
  0
VERTEX
  8
LAYER_9
 10
179.2071
 20
129.3061
  0
SEQEND
  0
POLYLINE
  8
LAYER_9
 40
0.0882
 41
0.0882
 66
1
 10
0
 20
0
 30
0
  0
VERTEX
  8
LAYER_9
 10
179.2076
 20
134.3063
  0
VERTEX
  8
LAYER_9
 10
160.121
 20
134.3063
  0
SEQEND
  0
POLYLINE
  8
LAYER_9
 40
0.0882
 41
0.0882
 66
1
 10
0
 20
0
 30
0
  0
VERTEX
  8
LAYER_9
 10
179.2076
 20
134.6061
  0
VERTEX
  8
LAYER_9
 10
160.121
 20
134.6061
  0
SEQEND
  0
POLYLINE
  8
LAYER_9
 40
0.0882
 41
0.0882
 66
1
 10
0
 20
0
 30
0
  0
VERTEX
  8
LAYER_9
 10
162.6781
 20
134.6591
  0
VERTEX
  8
LAYER_9
 10
162.4844
 20
134.6591
  0
VERTEX
  8
LAYER_9
 10
161.8656
 20
134.6591
  0
VERTEX
  8
LAYER_9
 10
161.0535
 20
134.6591
  0
VERTEX
  8
LAYER_9
 10
159.4279
 20
134.6591
  0
VERTEX
  8
LAYER_9
 10
156.1778
 20
134.6591
  0
SEQEND
  0
POLYLINE
  8
LAYER_9
 40
0.0882
 41
0.0882
 66
1
 10
0
 20
0
 30
0
  0
VERTEX
  8
LAYER_9
 10
179.5081
 20
118.1499
  0
VERTEX
  8
LAYER_9
 10
179.5081
 20
127.1517
  0
SEQEND
  0
ENDBLK
  0
BLOCK
  8
LAYER_9
  2
AIGNBL09010026
 70
64
 10
0
 20
0
 30
0
  3
AIGNBL09010026
  0
POLYLINE
  8
LAYER_9
 40
0.0353
 41
0.0353
 66
1
 10
0
 20
0
 30
0
  0
VERTEX
  8
LAYER_9
 10
139.2776
 20
146.3759
  0
VERTEX
  8
LAYER_9
 10
139.2776
 20
164.0656
  0
SEQEND
  0
POLYLINE
  8
LAYER_9
 40
0.0353
 41
0.0353
 66
1
 10
0
 20
0
 30
0
  0
VERTEX
  8
LAYER_9
 10
179.5081
 20
146.121
  0
VERTEX
  8
LAYER_9
 10
179.5081
 20
164.0654
  0
SEQEND
  0
POLYLINE
  8
LAYER_9
 40
0.0353
 41
0.0353
 66
1
 10
0
 20
0
 30
0
  0
VERTEX
  8
LAYER_9
 10
139.2776
 20
163.5656
  0
VERTEX
  8
LAYER_9
 10
179.508
 20
163.5656
  0
SEQEND
  0
POLYLINE
  8
LAYER_9
 40
0.05
 41
0.05
 66
1
 10
0
 20
0
 30
0
 70
1
  0
VERTEX
  8
LAYER_9
 10
139.2776
 20
163.5656
  0
VERTEX
  8
LAYER_9
 10
141.2772
 20
163.0653
  0
VERTEX
  8
LAYER_9
 10
141.2772
 20
164.0654
  0
SEQEND
  0
POLYLINE
  8
LAYER_9
 40
0.05
 41
0.05
 66
1
 10
0
 20
0
 30
0
 70
1
  0
VERTEX
  8
LAYER_9
 10
179.5081
 20
163.5656
  0
VERTEX
  8
LAYER_9
 10
177.5078
 20
164.0654
  0
VERTEX
  8
LAYER_9
 10
177.5078
 20
163.0653
  0
SEQEND
  0
ENDBLK
  0
BLOCK
  8
LAYER_9
  2
AIGNBL09010027
 70
64
 10
0
 20
0
 30
0
  3
AIGNBL09010027
  0
POLYLINE
  8
LAYER_9
 40
0.0353
 41
0.0353
 66
1
 10
0
 20
0
 30
0
  0
VERTEX
  8
LAYER_9
 10
166.7922
 20
149.0996
  0
VERTEX
  8
LAYER_9
 10
175.9129
 20
149.0996
  0
SEQEND
  0
POLYLINE
  8
LAYER_9
 40
0.05
 41
0.05
 66
1
 10
0
 20
0
 30
0
 70
1
  0
VERTEX
  8
LAYER_9
 10
166.7922
 20
149.0996
  0
VERTEX
  8
LAYER_9
 10
168.7924
 20
148.5993
  0
VERTEX
  8
LAYER_9
 10
168.7924
 20
149.5991
  0
SEQEND
  0
POLYLINE
  8
LAYER_9
 40
0.05
 41
0.05
 66
1
 10
0
 20
0
 30
0
 70
1
  0
VERTEX
  8
LAYER_9
 10
176.2538
 20
149.0996
  0
VERTEX
  8
LAYER_9
 10
174.2536
 20
149.5991
  0
VERTEX
  8
LAYER_9
 10
174.2536
 20
148.5993
  0
SEQEND
  0
ENDBLK
  0
BLOCK
  8
LAYER_9
  2
AIGNBL09010028
 70
64
 10
0
 20
0
 30
0
  3
AIGNBL09010028
  0
POLYLINE
  8
LAYER_9
 40
0.0353
 41
0.0353
 66
1
 10
0
 20
0
 30
0
  0
VERTEX
  8
LAYER_9
 10
165.1672
 20
143.7197
  0
VERTEX
  8
LAYER_9
 10
168.3566
 20
143.7197
  0
SEQEND
  0
POLYLINE
  8
LAYER_9
 40
0.05
 41
0.05
 66
1
 10
0
 20
0
 30
0
 70
1
  0
VERTEX
  8
LAYER_9
 10
168.4838
 20
143.7191
  0
VERTEX
  8
LAYER_9
 10
166.4835
 20
144.2193
  0
VERTEX
  8
LAYER_9
 10
166.4835
 20
143.2195
  0
SEQEND
  0
POLYLINE
  8
LAYER_9
 40
0.05
 41
0.05
 66
1
 10
0
 20
0
 30
0
 70
1
  0
VERTEX
  8
LAYER_9
 10
172.0711
 20
143.7191
  0
VERTEX
  8
LAYER_9
 10
174.0714
 20
143.2195
  0
VERTEX
  8
LAYER_9
 10
174.0714
 20
144.2193
  0
SEQEND
  0
ENDBLK
  0
BLOCK
  8
LAYER_9
  2
AIGNBL09010029
 70
64
 10
0
 20
0
 30
0
  3
AIGNBL09010029
  0
POLYLINE
  8
LAYER_9
 40
0.0353
 41
0.0353
 66
1
 10
0
 20
0
 30
0
  0
VERTEX
  8
LAYER_9
 10
172.2227
 20
143.7097
  0
VERTEX
  8
LAYER_9
 10
175.4122
 20
143.7097
  0
SEQEND
  0
ENDBLK
  0
BLOCK
  8
LAYER_9
  2
AIGNBL0901002A
 70
64
 10
0
 20
0
 30
0
  3
AIGNBL0901002A
  0
POLYLINE
  8
LAYER_9
 40
0.0882
 41
0.0882
 66
1
 10
0
 20
0
 30
0
  0
VERTEX
  8
LAYER_9
 10
176.682
 20
146.1764
  0
VERTEX
  8
LAYER_9
 10
139.6206
 20
146.1764
  0
SEQEND
  0
POLYLINE
  8
LAYER_9
 40
0.0882
 41
0.0882
 66
1
 10
0
 20
0
 30
0
  0
VERTEX
  8
LAYER_9
 10
143.9574
 20
128.4614
  0
VERTEX
  8
LAYER_9
 10
171.7104
 20
128.4484
  0
SEQEND
  0
POLYLINE
  8
LAYER_9
 40
0.0882
 41
0.0882
 66
1
 10
0
 20
0
 30
0
  0
VERTEX
  8
LAYER_9
 10
160.1211
 20
134.3063
  0
VERTEX
  8
LAYER_9
 10
160.1211
 20
134.6062
  0
SEQEND
  0
ENDBLK
  0
BLOCK
  8
LAYER_9
  2
AIGNBL0901002B
 70
64
 10
0
 20
0
 30
0
  3
AIGNBL0901002B
  0
POLYLINE
  8
LAYER_9
 40
0.0353
 41
0.0353
 66
1
 10
0
 20
0
 30
0
  0
VERTEX
  8
LAYER_9
 10
70.8627
 20
207.7036
  0
VERTEX
  8
LAYER_9
 10
70.8627
 20
184.7036
  0
SEQEND
  0
POLYLINE
  8
LAYER_9
 40
0.0353
 41
0.0353
 66
1
 10
0
 20
0
 30
0
  0
VERTEX
  8
LAYER_9
 10
125.3684
 20
207.2244
  0
VERTEX
  8
LAYER_9
 10
125.3684
 20
184.7034
  0
SEQEND
  0
POLYLINE
  8
LAYER_9
 40
0.0353
 41
0.0353
 66
1
 10
0
 20
0
 30
0
  0
VERTEX
  8
LAYER_9
 10
70.8627
 20
185.2033
  0
VERTEX
  8
LAYER_9
 10
125.3683
 20
185.2033
  0
SEQEND
  0
POLYLINE
  8
LAYER_9
 40
0.05
 41
0.05
 66
1
 10
0
 20
0
 30
0
 70
1
  0
VERTEX
  8
LAYER_9
 10
70.8627
 20
185.2033
  0
VERTEX
  8
LAYER_9
 10
72.8626
 20
184.7034
  0
VERTEX
  8
LAYER_9
 10
72.8626
 20
185.7032
  0
SEQEND
  0
POLYLINE
  8
LAYER_9
 40
0.05
 41
0.05
 66
1
 10
0
 20
0
 30
0
 70
1
  0
VERTEX
  8
LAYER_9
 10
125.3684
 20
185.2033
  0
VERTEX
  8
LAYER_9
 10
123.3682
 20
185.7032
  0
VERTEX
  8
LAYER_9
 10
123.3682
 20
184.7034
  0
SEQEND
  0
ENDBLK
  0
BLOCK
  8
LAYER_9
  2
AIGNBL0901002C
 70
64
 10
0
 20
0
 30
0
  3
AIGNBL0901002C
  0
POLYLINE
  8
LAYER_9
 40
0.0353
 41
0.0353
 66
1
 10
0
 20
0
 30
0
  0
VERTEX
  8
LAYER_9
 10
97.6154
 20
188.8741
  0
VERTEX
  8
LAYER_9
 10
65.657
 20
188.8741
  0
SEQEND
  0
POLYLINE
  8
LAYER_9
 40
0.0353
 41
0.0353
 66
1
 10
0
 20
0
 30
0
  0
VERTEX
  8
LAYER_9
 10
98.4416
 20
226.5721
  0
VERTEX
  8
LAYER_9
 10
65.6569
 20
226.5721
  0
SEQEND
  0
POLYLINE
  8
LAYER_9
 40
0.0353
 41
0.0353
 66
1
 10
0
 20
0
 30
0
  0
VERTEX
  8
LAYER_9
 10
66.157
 20
188.8741
  0
VERTEX
  8
LAYER_9
 10
66.157
 20
226.5719
  0
SEQEND
  0
POLYLINE
  8
LAYER_9
 40
0.05
 41
0.05
 66
1
 10
0
 20
0
 30
0
 70
1
  0
VERTEX
  8
LAYER_9
 10
66.157
 20
188.8741
  0
VERTEX
  8
LAYER_9
 10
66.6566
 20
190.8743
  0
VERTEX
  8
LAYER_9
 10
65.6568
 20
190.8743
  0
SEQEND
  0
POLYLINE
  8
LAYER_9
 40
0.05
 41
0.05
 66
1
 10
0
 20
0
 30
0
 70
1
  0
VERTEX
  8
LAYER_9
 10
66.157
 20
226.5721
  0
VERTEX
  8
LAYER_9
 10
65.6568
 20
224.5722
  0
VERTEX
  8
LAYER_9
 10
66.6566
 20
224.5722
  0
SEQEND
  0
ENDBLK
  0
BLOCK
  8
LAYER_9
  2
AIGNBL0901002D
 70
64
 10
0
 20
0
 30
0
  3
AIGNBL0901002D
  0
POLYLINE
  8
LAYER_9
 40
0.05
 41
0.05
 62
255
 66
1
 10
0
 20
0
 30
0
 70
1
  0
VERTEX
  8
LAYER_9
 10
97.6559
 20
219.6746
  0
VERTEX
  8
LAYER_9
 10
98.4641
 20
219.6746
  0
SEQEND
  0
POLYLINE
  8
LAYER_9
 40
0.0882
 41
0.0882
 66
1
 10
0
 20
0
 30
0
  0
VERTEX
  8
LAYER_9
 10
97.6561
 20
219.6746
  0
VERTEX
  8
LAYER_9
 10
98.4646
 20
219.6746
  0
SEQEND
  0
ENDBLK
  0
BLOCK
  8
LAYER_9
  2
AIGNBL0901002E
 70
64
 10
0
 20
0
 30
0
  3
AIGNBL0901002E
  0
POLYLINE
  8
LAYER_9
 40
0.0353
 41
0.0353
 66
1
 10
0
 20
0
 30
0
  0
VERTEX
  8
LAYER_9
 10
131.993
 20
229.6496
  0
VERTEX
  8
LAYER_9
 10
63.1177
 20
229.6496
  0
SEQEND
  0
ENDBLK
  0
BLOCK
  8
LAYER_9
  2
AIGNBL0901002F
 70
64
 10
0
 20
0
 30
0
  3
AIGNBL0901002F
  0
POLYLINE
  8
LAYER_9
 40
0.0353
 41
0.0353
 66
1
 10
0
 20
0
 30
0
  0
VERTEX
  8
LAYER_9
 10
71.0565
 20
145.999
  0
VERTEX
  8
LAYER_9
 10
62.6565
 20
145.999
  0
SEQEND
  0
POLYLINE
  8
LAYER_9
 40
0.0353
 41
0.0353
 66
1
 10
0
 20
0
 30
0
  0
VERTEX
  8
LAYER_9
 10
73.938
 20
58.5604
  0
VERTEX
  8
LAYER_9
 10
62.6565
 20
58.5604
  0
SEQEND
  0
POLYLINE
  8
LAYER_9
 40
0.0353
 41
0.0353
 66
1
 10
0
 20
0
 30
0
  0
VERTEX
  8
LAYER_9
 10
63.1569
 20
58.5604
  0
VERTEX
  8
LAYER_9
 10
63.1569
 20
145.9985
  0
SEQEND
  0
POLYLINE
  8
LAYER_9
 40
0.05
 41
0.05
 66
1
 10
0
 20
0
 30
0
 70
1
  0
VERTEX
  8
LAYER_9
 10
63.1569
 20
58.5604
  0
VERTEX
  8
LAYER_9
 10
63.6564
 20
60.5607
  0
VERTEX
  8
LAYER_9
 10
62.6566
 20
60.5607
  0
SEQEND
  0
POLYLINE
  8
LAYER_9
 40
0.05
 41
0.05
 66
1
 10
0
 20
0
 30
0
 70
1
  0
VERTEX
  8
LAYER_9
 10
63.1569
 20
145.999
  0
VERTEX
  8
LAYER_9
 10
62.6566
 20
143.9988
  0
VERTEX
  8
LAYER_9
 10
63.6564
 20
143.9988
  0
SEQEND
  0
ENDBLK
  0
BLOCK
  8
LAYER_9
  2
AIGNBL09010030
 70
64
 10
0
 20
0
 30
0
  3
AIGNBL09010030
  0
POLYLINE
  8
LAYER_9
 40
0.0353
 41
0.0353
 66
1
 10
0
 20
0
 30
0
  0
VERTEX
  8
LAYER_9
 10
70.5642
 20
59.0606
  0
VERTEX
  8
LAYER_9
 10
70.5642
 20
72.2602
  0
SEQEND
  0
POLYLINE
  8
LAYER_9
 40
0.0353
 41
0.0353
 66
1
 10
0
 20
0
 30
0
  0
VERTEX
  8
LAYER_9
 10
125.6838
 20
59.0606
  0
VERTEX
  8
LAYER_9
 10
125.6838
 20
72.2602
  0
SEQEND
  0
POLYLINE
  8
LAYER_9
 40
0.0353
 41
0.0353
 66
1
 10
0
 20
0
 30
0
  0
VERTEX
  8
LAYER_9
 10
70.5642
 20
71.7606
  0
VERTEX
  8
LAYER_9
 10
125.684
 20
71.7606
  0
SEQEND
  0
POLYLINE
  8
LAYER_9
 40
0.05
 41
0.05
 66
1
 10
0
 20
0
 30
0
 70
1
  0
VERTEX
  8
LAYER_9
 10
70.5642
 20
71.7606
  0
VERTEX
  8
LAYER_9
 10
72.5641
 20
71.2604
  0
VERTEX
  8
LAYER_9
 10
72.5641
 20
72.2602
  0
SEQEND
  0
POLYLINE
  8
LAYER_9
 40
0.05
 41
0.05
 66
1
 10
0
 20
0
 30
0
 70
1
  0
VERTEX
  8
LAYER_9
 10
125.6838
 20
71.7606
  0
VERTEX
  8
LAYER_9
 10
123.6836
 20
72.2602
  0
VERTEX
  8
LAYER_9
 10
123.6836
 20
71.2604
  0
SEQEND
  0
ENDBLK
  0
BLOCK
  8
LAYER_9
  2
AIGNBL09010031
 70
64
 10
0
 20
0
 30
0
  3
AIGNBL09010031
  0
POLYLINE
  8
LAYER_9
 40
0.0353
 41
0.0353
 66
1
 10
0
 20
0
 30
0
  0
VERTEX
  8
LAYER_9
 10
70.8539
 20
146.2656
  0
VERTEX
  8
LAYER_9
 10
70.8539
 20
163.9656
  0
SEQEND
  0
POLYLINE
  8
LAYER_9
 40
0.0353
 41
0.0353
 66
1
 10
0
 20
0
 30
0
  0
VERTEX
  8
LAYER_9
 10
125.38
 20
146.2167
  0
VERTEX
  8
LAYER_9
 10
125.38
 20
163.9657
  0
SEQEND
  0
POLYLINE
  8
LAYER_9
 40
0.0353
 41
0.0353
 66
1
 10
0
 20
0
 30
0
  0
VERTEX
  8
LAYER_9
 10
70.8539
 20
163.4657
  0
VERTEX
  8
LAYER_9
 10
125.38
 20
163.4657
  0
SEQEND
  0
POLYLINE
  8
LAYER_9
 40
0.05
 41
0.05
 66
1
 10
0
 20
0
 30
0
 70
1
  0
VERTEX
  8
LAYER_9
 10
70.8539
 20
163.4657
  0
VERTEX
  8
LAYER_9
 10
72.8542
 20
162.9654
  0
VERTEX
  8
LAYER_9
 10
72.8542
 20
163.9655
  0
SEQEND
  0
POLYLINE
  8
LAYER_9
 40
0.05
 41
0.05
 66
1
 10
0
 20
0
 30
0
 70
1
  0
VERTEX
  8
LAYER_9
 10
125.38
 20
163.4657
  0
VERTEX
  8
LAYER_9
 10
123.3797
 20
163.9655
  0
VERTEX
  8
LAYER_9
 10
123.3797
 20
162.9654
  0
SEQEND
  0
ENDBLK
  0
BLOCK
  8
LAYER_9
  2
AIGNBL09010032
 70
64
 10
0
 20
0
 30
0
  3
AIGNBL09010032
  0
POLYLINE
  8
LAYER_9
 40
0.0353
 41
0.0353
 66
1
 10
0
 20
0
 30
0
  0
VERTEX
  8
LAYER_9
 10
87.2455
 20
129.8615
  0
VERTEX
  8
LAYER_9
 10
87.677
 20
129.8615
  0
SEQEND
  0
POLYLINE
  8
LAYER_9
 40
0.0353
 41
0.0353
 66
1
 10
0
 20
0
 30
0
  0
VERTEX
  8
LAYER_9
 10
109.2452
 20
129.8615
  0
VERTEX
  8
LAYER_9
 10
109.6767
 20
129.8615
  0
SEQEND
  0
POLYLINE
  8
LAYER_9
 40
0.0353
 41
0.0353
 66
1
 10
0
 20
0
 30
0
  0
VERTEX
  8
LAYER_9
 10
109.2452
 20
58.4605
  0
VERTEX
  8
LAYER_9
 10
109.6767
 20
58.4605
  0
SEQEND
  0
POLYLINE
  8
LAYER_9
 40
0.0353
 41
0.0353
 66
1
 10
0
 20
0
 30
0
  0
VERTEX
  8
LAYER_9
 10
109.177
 20
58.4605
  0
VERTEX
  8
LAYER_9
 10
109.177
 20
129.861
  0
SEQEND
  0
POLYLINE
  8
LAYER_9
 40
0.05
 41
0.05
 66
1
 10
0
 20
0
 30
0
 70
1
  0
VERTEX
  8
LAYER_9
 10
109.177
 20
58.4605
  0
VERTEX
  8
LAYER_9
 10
109.6765
 20
60.4607
  0
VERTEX
  8
LAYER_9
 10
108.6767
 20
60.4607
  0
SEQEND
  0
POLYLINE
  8
LAYER_9
 40
0.05
 41
0.05
 66
1
 10
0
 20
0
 30
0
 70
1
  0
VERTEX
  8
LAYER_9
 10
109.177
 20
129.8615
  0
VERTEX
  8
LAYER_9
 10
108.6767
 20
127.8612
  0
VERTEX
  8
LAYER_9
 10
109.6765
 20
127.8612
  0
SEQEND
  0
ENDBLK
  0
BLOCK
  8
LAYER_9
  2
AIGNBL09010033
 70
64
 10
0
 20
0
 30
0
  3
AIGNBL09010033
  0
POLYLINE
  8
LAYER_9
 40
0.0353
 41
0.0353
 66
1
 10
0
 20
0
 30
0
  0
VERTEX
  8
LAYER_9
 10
87.1766
 20
129.3613
  0
SEQEND
  0
POLYLINE
  8
LAYER_9
 40
0.0353
 41
0.0353
 66
1
 10
0
 20
0
 30
0
  0
VERTEX
  8
LAYER_9
 10
109.177
 20
129.3613
  0
VERTEX
  8
LAYER_9
 10
109.177
 20
130.3611
  0
SEQEND
  0
POLYLINE
  8
LAYER_9
 40
0.0353
 41
0.0353
 66
1
 10
0
 20
0
 30
0
  0
VERTEX
  8
LAYER_9
 10
87.1766
 20
130.2143
  0
VERTEX
  8
LAYER_9
 10
109.1769
 20
130.2143
  0
SEQEND
  0
POLYLINE
  8
LAYER_9
 40
0.05
 41
0.05
 66
1
 10
0
 20
0
 30
0
 70
1
  0
VERTEX
  8
LAYER_9
 10
87.1766
 20
130.2143
  0
VERTEX
  8
LAYER_9
 10
89.1769
 20
129.714
  0
VERTEX
  8
LAYER_9
 10
89.1769
 20
130.7138
  0
SEQEND
  0
POLYLINE
  8
LAYER_9
 40
0.05
 41
0.05
 66
1
 10
0
 20
0
 30
0
 70
1
  0
VERTEX
  8
LAYER_9
 10
109.177
 20
130.2143
  0
VERTEX
  8
LAYER_9
 10
107.1767
 20
130.7138
  0
VERTEX
  8
LAYER_9
 10
107.1767
 20
129.714
  0
SEQEND
  0
ENDBLK
  0
ENDSEC
  0
SECTION
  2
ENTITIES
  0
TEXT
  8
LAYER_9
 10
18.1791
 20
6.2646
 11
18.1791
 21
6.2646
 40
3.2995
 41
0.5
  1
仕様
  0
POLYLINE
  8
LAYER_9
 40
0.3528
 41
0.3528
 66
1
 10
0
 20
0
 30
0
  0
VERTEX
  8
LAYER_9
 10
205.0762
 20
10.8455
  0
VERTEX
  8
LAYER_9
 10
17.0763
 20
10.8455
  0
SEQEND
  0
INSERT
  8
LAYER_9
  2
AIGNBL09010002
 10
0
 20
0
 30
0
  0
POLYLINE
  8
LAYER_9
 40
0.3528
 41
0.3528
 66
1
 10
0
 20
0
 30
0
  0
VERTEX
  8
LAYER_9
 10
17.0763
 20
268.2234
  0
VERTEX
  8
LAYER_9
 10
17.0763
 20
-6.7769
  0
VERTEX
  8
LAYER_9
 10
205.0762
 20
-6.7769
  0
VERTEX
  8
LAYER_9
 10
205.0762
 20
268.2234
  0
VERTEX
  8
LAYER_9
 10
17.0763
 20
268.2234
  0
SEQEND
  0
POLYLINE
  8
LAYER_9
 40
0.3528
 41
0.3528
 66
1
 10
0
 20
0
 30
0
  0
VERTEX
  8
LAYER_9
 10
205.0762
 20
19.3546
  0
VERTEX
  8
LAYER_9
 10
17.0763
 20
19.3546
  0
SEQEND
  0
POLYLINE
  8
LAYER_9
 40
0.3528
 41
0.3528
 66
1
 10
0
 20
0
 30
0
  0
VERTEX
  8
LAYER_9
 10
205.0762
 20
2.3365
  0
VERTEX
  8
LAYER_9
 10
127.3025
 20
2.3365
  0
SEQEND
  0
TEXT
  8
LAYER_9
 10
157.5084
 20
4.6123
 11
157.5084
 21
4.6123
 40
3.7615
 41
0.5
  1
-
  0
TEXT
  8
LAYER_9
 10
152.2167
 20
8.3692
 11
152.2167
 21
8.3692
 40
2.1997
 41
0.5
  1
縮尺
  0
POLYLINE
  8
LAYER_9
 40
0.3528
 41
0.3528
 66
1
 10
0
 20
0
 30
0
  0
VERTEX
  8
LAYER_9
 10
150.6885
 20
2.3365
  0
VERTEX
  8
LAYER_9
 10
150.6885
 20
10.8455
  0
SEQEND
  0
TEXT
  8
LAYER_9
 10
128.0011
 20
16.8782
 11
128.0011
 21
16.8782
 40
2.1997
 41
0.5
  1
品番
  0
TEXT
  8
LAYER_9
 10
18.2332
 20
16.8782
 11
18.2332
 21
16.8782
 40
2.1997
 41
0.5
  1
品名
  0
TEXT
  8
LAYER_9
 10
128.0011
 20
8.3692
 11
128.0011
 21
8.3692
 40
2.1997
 41
0.5
  1
重量
  0
TEXT
  8
LAYER_9
 10
135.5345
 20
13.0462
 11
135.5345
 21
13.0462
 40
5.9385
 41
0.5
  1
EX-GUS/BL（脚部ブラック）
  0
TEXT
  8
LAYER_9
 10
133.3138
 20
4.6123
 11
133.3138
 21
4.6123
 40
3.7615
 41
0.5
  1
-
  0
POLYLINE
  8
LAYER_9
 40
0.3528
 41
0.3528
 66
1
 10
0
 20
0
 30
0
  0
VERTEX
  8
LAYER_9
 10
127.3025
 20
-6.1512
  0
VERTEX
  8
LAYER_9
 10
127.3025
 20
19.3546
  0
SEQEND
  0
TEXT
  8
LAYER_9
 10
24.3868
 20
13.7859
 11
24.3868
 21
13.7859
 40
4.1465
 41
0.5
  1
ガス 壁付け型洗傭器545ｍｍ
  0
TEXT
  8
LAYER_9
 10
28.7512
 20
5.7361
 11
28.7512
 21
5.7361
 40
3.5541
 41
0.5
  1
●ホワイト●サイズ：W545×D400×H178（880）mm●重量：20kg
  0
TEXT
  8
LAYER_9
 10
28.7512
 20
0.986
 11
28.7512
 21
0.986
 40
3.5541
 41
0.5
  1
●設置方法：壁付け●l4栓取付zt：1穴●オーバーフローなし●排l4帯具別途
  0
TEXT
  8
LAYER_9
 10
28.7512
 20
-3.7638
 11
28.7512
 21
-3.7638
 40
3.1177
 41
0.5
  1
●シンクはブラケットにて壁固定です。
  0
TEXT
  8
LAYER_9
 10
191.6644
 20
22.153
 11
191.6644
 21
22.153
 40
2.9618
 41
0.5
  1
単位：mm
  0
TEXT
  8
LAYER_9
 10
140.6169
 20
220.1974
 11
140.6169
 21
220.1974
 40
2.5981
 41
0.5
  1
※陶器製品は寸法公差が発生します。
  0
TEXT
  8
LAYER_9
 10
140.6169
 20
215.4475
 11
140.6169
 21
215.4475
 40
2.5981
 41
0.5
  1
設置の際は必ず現物を合わせてご確認ください。
  0
TEXT
  8
LAYER_9
 10
140.6169
 20
210.6974
 11
140.6169
 21
210.6974
 40
2.5981
 41
0.5
  1
※固定には、シリコン系接着剤材等を手洗器と
  0
TEXT
  8
LAYER_9
 10
140.502
 20
205.9475
 11
140.502
 21
205.9475
 40
2.5981
 41
0.5
  1
ブラケットの接地面に塗布ください。
  0
TEXT
  8
LAYER_9
 10
194.7605
 20
264.7297
 11
194.7605
 21
264.7297
 40
2.0732
 41
0.5
  1
190115RT
  0
POLYLINE
  8
LAYER_9
 40
0.1764
 41
0.1764
 66
1
 10
0
 20
0
 30
0
  0
VERTEX
  8
LAYER_9
 10
179.5081
 20
58.5604
  0
VERTEX
  8
LAYER_9
 10
52.0693
 20
58.5604
  0
SEQEND
  0
POLYLINE
  8
LAYER_9
 40
0.1764
 41
0.1764
 66
1
 10
0
 20
0
 30
0
  0
VERTEX
  8
LAYER_9
 10
179.5081
 20
58.5604
  0
VERTEX
  8
LAYER_9
 10
179.5081
 20
170.2925
  0
SEQEND
  0
POLYLINE
  8
LAYER_9
 40
0.1058
 41
0.1058
 66
1
 10
0
 20
0
 30
0
  0
VERTEX
  8
LAYER_9
 10
87.2651
 20
58.5604
  0
VERTEX
  8
LAYER_9
 10
87.6965
 20
58.5604
  0
SEQEND
  0
POLYLINE
  8
LAYER_9
 40
0.1058
 41
0.1058
 66
1
 10
0
 20
0
 30
0
  0
VERTEX
  8
LAYER_9
 10
109.2543
 20
58.5604
  0
VERTEX
  8
LAYER_9
 10
109.6856
 20
58.5604
  0
SEQEND
  0
POLYLINE
  8
LAYER_9
 40
0.1058
 41
0.1058
 66
1
 10
0
 20
0
 30
0
  0
VERTEX
  8
LAYER_9
 10
98.6324
 20
58.5604
  0
VERTEX
  8
LAYER_9
 10
97.6333
 20
58.5604
  0
SEQEND
  0
TEXT
  8
LAYER_9
 10
167.3209
 20
138.6181
 11
167.3209
 21
138.6181
 40
3.5541
 41
0.5
  1
35
  0
TEXT
  8
LAYER_9
 10
154.2662
 20
-1.6816
 11
154.2662
 21
-1.6816
 40
2.8694
 41
0.5
  1
●TEL 0120-65-1232●FAX 06-6532-1580
  0
TEXT
  8
LAYER_9
 10
154.2662
 20
-4.6609
 11
154.2662
 21
-4.6609
 40
2.8694
 41
0.5
  1
hits@hiratatile.co.jp
  0
INSERT
  8
LAYER_9
  2
AIGNBL09010003
 10
0
 20
0
 30
0
  0
INSERT
  8
LAYER_9
  2
AIGNBL09010025
 10
0
 20
0
 30
0
  0
INSERT
  8
LAYER_9
  2
AIGNBL09010026
 10
0
 20
0
 30
0
  0
TEXT
  8
LAYER_9
 10
158.6576
 20
164.0682
 11
158.6576
 21
164.0682
 40
3.8503
 41
0.5
  1
400
  0
INSERT
  8
LAYER_9
  2
AIGNBL09010027
 10
0
 20
0
 30
0
  0
TEXT
  8
LAYER_9
 10
169.5422
 20
150.7456
 11
169.5422
 21
150.7456
 40
3.8503
 41
0.5
  1
90
  0
INSERT
  8
LAYER_9
  2
AIGNBL09010028
 10
0
 20
0
 30
0
  0
INSERT
  8
LAYER_9
  2
AIGNBL09010029
 10
0
 20
0
 30
0
  0
INSERT
  8
LAYER_9
  2
AIGNBL0901002A
 10
0
 20
0
 30
0
  0
POLYLINE
  8
LAYER_9
 40
0.0353
 41
0.0353
 66
1
 10
0
 20
0
 30
0
  0
VERTEX
  8
LAYER_9
 10
123.2001
 20
222.2378
 42
0.07364622966
  0
VERTEX
  8
LAYER_9
 10
123.7698
 20
222.163
 42
0.07165341277
  0
VERTEX
  8
LAYER_9
 10
124.3293
 20
222.2529
 42
0.07788464961
  0
VERTEX
  8
LAYER_9
 10
124.8715
 20
222.521
 42
0.07482034296
  0
VERTEX
  8
LAYER_9
 10
125.2815
 20
222.9112
 42
0.07561491991
  0
VERTEX
  8
LAYER_9
 10
125.5598
 20
223.4044
 42
0.07700270323
  0
VERTEX
  8
LAYER_9
 10
125.6805
 20
223.9583
 42
0.0759706101
  0
VERTEX
  8
LAYER_9
 10
125.6311
 20
224.5231
 42
0.07533583282
  0
VERTEX
  8
LAYER_9
 10
125.4166
 20
225.0469
  0
SEQEND
  0
POLYLINE
  8
LAYER_9
 40
0.0353
 41
0.0353
 66
1
 10
0
 20
0
 30
0
  0
VERTEX
  8
LAYER_9
 10
122.3312
 20
223.6241
  0
VERTEX
  8
LAYER_9
 10
122.3436
 20
223.6297
  0
SEQEND
  0
POLYLINE
  8
LAYER_9
 40
0.0353
 41
0.0353
 66
1
 10
0
 20
0
 30
0
  0
VERTEX
  8
LAYER_9
 10
123.3682
 20
222.6043
  0
VERTEX
  8
LAYER_9
 10
123.3647
 20
222.5962
  0
SEQEND
  0
POLYLINE
  8
LAYER_9
 40
0.0353
 41
0.0353
 66
1
 10
0
 20
0
 30
0
  0
VERTEX
  8
LAYER_9
 10
123.3806
 20
222.7979
  0
VERTEX
  8
LAYER_9
 10
123.3806
 20
222.7951
  0
SEQEND
  0
POLYLINE
  8
LAYER_9
 40
0.0353
 41
0.0353
 66
1
 10
0
 20
0
 30
0
  0
VERTEX
  8
LAYER_9
 10
123.2683
 20
223.0343
  0
VERTEX
  8
LAYER_9
 10
123.2891
 20
223.0025
  0
SEQEND
  0
POLYLINE
  8
LAYER_9
 40
0.0353
 41
0.0353
 66
1
 10
0
 20
0
 30
0
  0
VERTEX
  8
LAYER_9
 10
98.1109
 20
191.1689
  0
VERTEX
  8
LAYER_9
 10
98.1151
 20
191.1689
  0
VERTEX
  8
LAYER_9
 10
98.1197
 20
191.1689
  0
SEQEND
  0
CIRCLE
  8
LAYER_9
 10
98.115
 20
209.0741
 40
2.7497
  0
CIRCLE
  8
LAYER_9
 10
98.1149
 20
209.0741
 40
1.7501
  0
POLYLINE
  8
LAYER_9
 40
0.0353
 41
0.0353
 66
1
 10
0
 20
0
 30
0
  0
VERTEX
  8
LAYER_9
 10
73.9002
 20
223.6241
  0
VERTEX
  8
LAYER_9
 10
74.4075
 20
223.3997
  0
SEQEND
  0
POLYLINE
  8
LAYER_9
 40
0.0353
 41
0.0353
 66
1
 10
0
 20
0
 30
0
  0
VERTEX
  8
LAYER_9
 10
73.7177
 20
223.6458
  0
VERTEX
  8
LAYER_9
 10
73.8129
 20
223.6489
  0
SEQEND
  0
POLYLINE
  8
LAYER_9
 40
0.0353
 41
0.0353
 66
1
 10
0
 20
0
 30
0
  0
VERTEX
  8
LAYER_9
 10
72.8433
 20
222.7525
  0
VERTEX
  8
LAYER_9
 10
72.8465
 20
222.774
  0
SEQEND
  0
POLYLINE
  8
LAYER_9
 40
0.0353
 41
0.0353
 66
1
 10
0
 20
0
 30
0
  0
VERTEX
  8
LAYER_9
 10
73.5361
 20
222.461
  0
VERTEX
  8
LAYER_9
 10
72.2594
 20
223.7374
  0
SEQEND
  0
POLYLINE
  8
LAYER_9
 40
0.0353
 41
0.0353
 66
1
 10
0
 20
0
 30
0
  0
VERTEX
  8
LAYER_9
 10
73.0314
 20
193.2549
 42
0.07260534396
  0
VERTEX
  8
LAYER_9
 10
72.4617
 20
193.3293
 42
0.07196936386
  0
VERTEX
  8
LAYER_9
 10
71.9018
 20
193.239
 42
0.07765604608
  0
VERTEX
  8
LAYER_9
 10
71.36
 20
192.9716
 42
0.07404965989
  0
VERTEX
  8
LAYER_9
 10
70.9497
 20
192.5811
 42
0.07496262974
  0
VERTEX
  8
LAYER_9
 10
70.671
 20
192.0875
 42
0.07563308723
  0
VERTEX
  8
LAYER_9
 10
70.5507
 20
191.534
 42
0.07564460597
  0
VERTEX
  8
LAYER_9
 10
70.5997
 20
190.9692
 42
0.0749421155
  0
VERTEX
  8
LAYER_9
 10
70.8146
 20
190.445
  0
SEQEND
  0
POLYLINE
  8
LAYER_9
 40
0.0353
 41
0.0353
 66
1
 10
0
 20
0
 30
0
  0
VERTEX
  8
LAYER_9
 10
72.8467
 20
222.7773
  0
VERTEX
  8
LAYER_9
 10
72.8496
 20
222.7917
  0
SEQEND
  0
POLYLINE
  8
LAYER_9
 40
0.0353
 41
0.0353
 66
1
 10
0
 20
0
 30
0
  0
VERTEX
  8
LAYER_9
 10
122.4539
 20
223.6506
  0
VERTEX
  8
LAYER_9
 10
122.511
 20
223.646
  0
SEQEND
  0
POLYLINE
  8
LAYER_9
 40
0.0353
 41
0.0353
 66
1
 10
0
 20
0
 30
0
  0
VERTEX
  8
LAYER_9
 10
73.8803
 20
223.6323
  0
VERTEX
  8
LAYER_9
 10
73.894
 20
223.6267
  0
SEQEND
  0
POLYLINE
  8
LAYER_9
 40
0.0353
 41
0.0353
 66
1
 10
0
 20
0
 30
0
  0
VERTEX
  8
LAYER_9
 10
73.6784
 20
223.6372
  0
VERTEX
  8
LAYER_9
 10
73.708
 20
223.6442
  0
SEQEND
  0
POLYLINE
  8
LAYER_9
 40
0.0353
 41
0.0353
 66
1
 10
0
 20
0
 30
0
  0
VERTEX
  8
LAYER_9
 10
73.555
 20
223.5879
  0
VERTEX
  8
LAYER_9
 10
73.5995
 20
223.6091
  0
SEQEND
  0
POLYLINE
  8
LAYER_9
 40
0.0353
 41
0.0353
 66
1
 10
0
 20
0
 30
0
  0
VERTEX
  8
LAYER_9
 10
72.9604
 20
223.0308
  0
VERTEX
  8
LAYER_9
 10
72.9629
 20
223.0344
  0
SEQEND
  0
POLYLINE
  8
LAYER_9
 40
0.0353
 41
0.0353
 66
1
 10
0
 20
0
 30
0
  0
VERTEX
  8
LAYER_9
 10
122.6758
 20
191.9044
  0
VERTEX
  8
LAYER_9
 10
122.6317
 20
191.8829
  0
SEQEND
  0
POLYLINE
  8
LAYER_9
 40
0.0353
 41
0.0353
 66
1
 10
0
 20
0
 30
0
  0
VERTEX
  8
LAYER_9
 10
72.8764
 20
222.8775
  0
VERTEX
  8
LAYER_9
 10
72.8873
 20
222.9029
  0
SEQEND
  0
POLYLINE
  8
LAYER_9
 40
0.0353
 41
0.0353
 66
1
 10
0
 20
0
 30
0
  0
VERTEX
  8
LAYER_9
 10
73.8296
 20
223.6461
  0
VERTEX
  8
LAYER_9
 10
73.8737
 20
223.6352
  0
SEQEND
  0
POLYLINE
  8
LAYER_9
 40
0.0353
 41
0.0353
 66
1
 10
0
 20
0
 30
0
  0
VERTEX
  8
LAYER_9
 10
73.6364
 20
223.6241
  0
VERTEX
  8
LAYER_9
 10
73.6438
 20
223.6269
  0
SEQEND
  0
POLYLINE
  8
LAYER_9
 40
0.0353
 41
0.0353
 66
1
 10
0
 20
0
 30
0
  0
VERTEX
  8
LAYER_9
 10
73.4579
 20
223.5297
  0
VERTEX
  8
LAYER_9
 10
73.5482
 20
223.584
  0
SEQEND
  0
POLYLINE
  8
LAYER_9
 40
0.0353
 41
0.0353
 66
1
 10
0
 20
0
 30
0
  0
VERTEX
  8
LAYER_9
 10
73.0314
 20
222.2378
 42
-0.07351842958
  0
VERTEX
  8
LAYER_9
 10
72.4617
 20
222.163
 42
-0.07151845632
  0
VERTEX
  8
LAYER_9
 10
71.9018
 20
222.2529
 42
-0.07801021763
  0
VERTEX
  8
LAYER_9
 10
71.36
 20
222.521
 42
-0.07481651351
  0
VERTEX
  8
LAYER_9
 10
70.9497
 20
222.9112
 42
-0.07525418323
  0
VERTEX
  8
LAYER_9
 10
70.671
 20
223.4044
 42
-0.07566553044
  0
VERTEX
  8
LAYER_9
 10
70.5507
 20
223.9583
 42
-0.07550332391
  0
VERTEX
  8
LAYER_9
 10
70.5997
 20
224.5231
 42
-0.07493759044
  0
VERTEX
  8
LAYER_9
 10
70.8146
 20
225.0469
  0
SEQEND
  0
POLYLINE
  8
LAYER_9
 40
0.0353
 41
0.0353
 66
1
 10
0
 20
0
 30
0
  0
VERTEX
  8
LAYER_9
 10
72.8419
 20
222.698
  0
VERTEX
  8
LAYER_9
 10
72.8419
 20
222.7047
  0
SEQEND
  0
POLYLINE
  8
LAYER_9
 40
0.0353
 41
0.0353
 66
1
 10
0
 20
0
 30
0
  0
VERTEX
  8
LAYER_9
 10
72.8912
 20
222.9106
  0
VERTEX
  8
LAYER_9
 10
72.9349
 20
222.9914
  0
SEQEND
  0
POLYLINE
  8
LAYER_9
 40
0.0353
 41
0.0353
 66
1
 10
0
 20
0
 30
0
  0
VERTEX
  8
LAYER_9
 10
122.6227
 20
223.6131
  0
VERTEX
  8
LAYER_9
 10
122.7557
 20
223.5415
  0
SEQEND
  0
POLYLINE
  8
LAYER_9
 40
0.0353
 41
0.0353
 66
1
 10
0
 20
0
 30
0
  0
VERTEX
  8
LAYER_9
 10
122.52
 20
223.6448
  0
VERTEX
  8
LAYER_9
 10
122.5408
 20
223.6405
  0
SEQEND
  0
POLYLINE
  8
LAYER_9
 40
0.0353
 41
0.0353
 66
1
 10
0
 20
0
 30
0
  0
VERTEX
  8
LAYER_9
 10
122.7736
 20
191.963
  0
VERTEX
  8
LAYER_9
 10
122.6833
 20
191.9079
  0
SEQEND
  0
POLYLINE
  8
LAYER_9
 40
0.0353
 41
0.0353
 66
1
 10
0
 20
0
 30
0
  0
VERTEX
  8
LAYER_9
 10
123.34
 20
192.5817
  0
VERTEX
  8
LAYER_9
 10
123.2959
 20
192.5009
  0
SEQEND
  0
POLYLINE
  8
LAYER_9
 40
0.0353
 41
0.0353
 66
1
 10
0
 20
0
 30
0
  0
VERTEX
  8
LAYER_9
 10
123.3841
 20
192.715
  0
VERTEX
  8
LAYER_9
 10
123.3812
 20
192.7002
  0
SEQEND
  0
POLYLINE
  8
LAYER_9
 40
0.0353
 41
0.0353
 66
1
 10
0
 20
0
 30
0
  0
VERTEX
  8
LAYER_9
 10
72.8419
 20
222.7301
  0
VERTEX
  8
LAYER_9
 10
72.8419
 20
222.7332
  0
SEQEND
  0
POLYLINE
  8
LAYER_9
 40
0.0353
 41
0.0353
 66
1
 10
0
 20
0
 30
0
  0
VERTEX
  8
LAYER_9
 10
73.8128
 20
223.6489
  0
VERTEX
  8
LAYER_9
 10
73.8297
 20
223.646
  0
SEQEND
  0
POLYLINE
  8
LAYER_9
 40
0.0353
 41
0.0353
 66
1
 10
0
 20
0
 30
0
  0
VERTEX
  8
LAYER_9
 10
121.8317
 20
223.3946
  0
VERTEX
  8
LAYER_9
 10
121.9075
 20
223.4299
  0
SEQEND
  0
POLYLINE
  8
LAYER_9
 40
0.0353
 41
0.0353
 66
1
 10
0
 20
0
 30
0
  0
VERTEX
  8
LAYER_9
 10
123.3896
 20
192.7588
  0
VERTEX
  8
LAYER_9
 10
123.3874
 20
192.7397
  0
SEQEND
  0
POLYLINE
  8
LAYER_9
 40
0.0353
 41
0.0353
 66
1
 10
0
 20
0
 30
0
  0
VERTEX
  8
LAYER_9
 10
123.3813
 20
192.7002
  0
VERTEX
  8
LAYER_9
 10
123.3552
 20
192.6148
  0
SEQEND
  0
POLYLINE
  8
LAYER_9
 40
0.0353
 41
0.0353
 66
1
 10
0
 20
0
 30
0
  0
VERTEX
  8
LAYER_9
 10
122.3574
 20
191.8572
  0
VERTEX
  8
LAYER_9
 10
122.3511
 20
191.8597
  0
SEQEND
  0
POLYLINE
  8
LAYER_9
 40
0.0353
 41
0.0353
 66
1
 10
0
 20
0
 30
0
  0
VERTEX
  8
LAYER_9
 10
123.3882
 20
192.8077
  0
VERTEX
  8
LAYER_9
 10
123.3896
 20
192.7943
  0
SEQEND
  0
POLYLINE
  8
LAYER_9
 40
0.0353
 41
0.0353
 66
1
 10
0
 20
0
 30
0
  0
VERTEX
  8
LAYER_9
 10
122.6951
 20
193.0309
  0
VERTEX
  8
LAYER_9
 10
122.7406
 20
193.0585
  0
SEQEND
  0
POLYLINE
  8
LAYER_9
 40
0.0353
 41
0.0353
 66
1
 10
0
 20
0
 30
0
  0
VERTEX
  8
LAYER_9
 10
72.9628
 20
192.4577
  0
VERTEX
  8
LAYER_9
 10
72.942
 20
192.4894
  0
SEQEND
  0
POLYLINE
  8
LAYER_9
 40
0.0353
 41
0.0353
 66
1
 10
0
 20
0
 30
0
  0
VERTEX
  8
LAYER_9
 10
122.3374
 20
191.8651
  0
VERTEX
  8
LAYER_9
 10
122.3311
 20
191.8679
  0
SEQEND
  0
POLYLINE
  8
LAYER_9
 40
0.0353
 41
0.0353
 66
1
 10
0
 20
0
 30
0
  0
VERTEX
  8
LAYER_9
 10
73.5482
 20
223.5841
  0
VERTEX
  8
LAYER_9
 10
73.5552
 20
223.588
  0
SEQEND
  0
POLYLINE
  8
LAYER_9
 40
0.0353
 41
0.0353
 66
1
 10
0
 20
0
 30
0
  0
VERTEX
  8
LAYER_9
 10
72.8874
 20
222.903
  0
VERTEX
  8
LAYER_9
 10
72.8913
 20
222.9104
  0
SEQEND
  0
POLYLINE
  8
LAYER_9
 40
0.0353
 41
0.0353
 66
1
 10
0
 20
0
 30
0
  0
VERTEX
  8
LAYER_9
 10
72.8509
 20
192.6944
  0
VERTEX
  8
LAYER_9
 10
72.8502
 20
192.6968
  0
SEQEND
  0
POLYLINE
  8
LAYER_9
 40
0.0353
 41
0.0353
 66
1
 10
0
 20
0
 30
0
  0
VERTEX
  8
LAYER_9
 10
122.6317
 20
191.883
  0
VERTEX
  8
LAYER_9
 10
122.595
 20
191.8682
  0
SEQEND
  0
POLYLINE
  8
LAYER_9
 40
0.0353
 41
0.0353
 66
1
 10
0
 20
0
 30
0
  0
VERTEX
  8
LAYER_9
 10
72.9019
 20
192.5597
  0
VERTEX
  8
LAYER_9
 10
72.8599
 20
192.662
  0
SEQEND
  0
POLYLINE
  8
LAYER_9
 40
0.0353
 41
0.0353
 66
1
 10
0
 20
0
 30
0
  0
VERTEX
  8
LAYER_9
 10
72.8461
 20
222.6629
  0
VERTEX
  8
LAYER_9
 10
72.8432
 20
222.6844
  0
SEQEND
  0
POLYLINE
  8
LAYER_9
 40
0.0353
 41
0.0353
 66
1
 10
0
 20
0
 30
0
  0
VERTEX
  8
LAYER_9
 10
72.8464
 20
222.7738
  0
VERTEX
  8
LAYER_9
 10
72.8467
 20
222.7774
  0
SEQEND
  0
POLYLINE
  8
LAYER_9
 40
0.0353
 41
0.0353
 66
1
 10
0
 20
0
 30
0
  0
VERTEX
  8
LAYER_9
 10
123.3648
 20
222.596
  0
VERTEX
  8
LAYER_9
 10
123.091
 20
222.0002
  0
SEQEND
  0
POLYLINE
  8
LAYER_9
 40
0.0353
 41
0.0353
 66
1
 10
0
 20
0
 30
0
  0
VERTEX
  8
LAYER_9
 10
123.9718
 20
223.7374
  0
VERTEX
  8
LAYER_9
 10
122.6951
 20
222.4611
  0
SEQEND
  0
POLYLINE
  8
LAYER_9
 40
0.0353
 41
0.0353
 66
1
 10
0
 20
0
 30
0
  0
VERTEX
  8
LAYER_9
 10
73.8985
 20
192.4043
  0
VERTEX
  8
LAYER_9
 10
72.7527
 20
191.2581
  0
SEQEND
  0
POLYLINE
  8
LAYER_9
 40
0.0353
 41
0.0353
 66
1
 10
0
 20
0
 30
0
  0
VERTEX
  8
LAYER_9
 10
123.3896
 20
192.7877
  0
VERTEX
  8
LAYER_9
 10
123.3896
 20
192.7623
  0
SEQEND
  0
POLYLINE
  8
LAYER_9
 40
0.0353
 41
0.0353
 66
1
 10
0
 20
0
 30
0
  0
VERTEX
  8
LAYER_9
 10
123.3847
 20
192.7185
  0
VERTEX
  8
LAYER_9
 10
123.384
 20
192.715
  0
SEQEND
  0
POLYLINE
  8
LAYER_9
 40
0.0353
 41
0.0353
 66
1
 10
0
 20
0
 30
0
  0
VERTEX
  8
LAYER_9
 10
123.3434
 20
192.5893
  0
VERTEX
  8
LAYER_9
 10
123.3399
 20
192.5819
  0
SEQEND
  0
POLYLINE
  8
LAYER_9
 40
0.0353
 41
0.0353
 66
1
 10
0
 20
0
 30
0
  0
VERTEX
  8
LAYER_9
 10
122.6833
 20
191.9078
  0
VERTEX
  8
LAYER_9
 10
122.6759
 20
191.9043
  0
SEQEND
  0
POLYLINE
  8
LAYER_9
 40
0.0353
 41
0.0353
 66
1
 10
0
 20
0
 30
0
  0
VERTEX
  8
LAYER_9
 10
122.5876
 20
191.8655
  0
VERTEX
  8
LAYER_9
 10
122.553
 20
191.8549
  0
SEQEND
  0
POLYLINE
  8
LAYER_9
 40
0.0353
 41
0.0353
 66
1
 10
0
 20
0
 30
0
  0
VERTEX
  8
LAYER_9
 10
123.3875
 20
192.7398
  0
VERTEX
  8
LAYER_9
 10
123.3847
 20
192.7172
  0
SEQEND
  0
POLYLINE
  8
LAYER_9
 40
0.0353
 41
0.0353
 66
1
 10
0
 20
0
 30
0
  0
VERTEX
  8
LAYER_9
 10
72.8433
 20
222.6842
  0
VERTEX
  8
LAYER_9
 10
72.8419
 20
222.698
  0
SEQEND
  0
POLYLINE
  8
LAYER_9
 40
0.0353
 41
0.0353
 66
1
 10
0
 20
0
 30
0
  0
VERTEX
  8
LAYER_9
 10
72.9353
 20
222.9916
  0
VERTEX
  8
LAYER_9
 10
72.9603
 20
223.0307
  0
SEQEND
  0
POLYLINE
  8
LAYER_9
 40
0.0353
 41
0.0353
 66
1
 10
0
 20
0
 30
0
  0
VERTEX
  8
LAYER_9
 10
73.5995
 20
223.6093
  0
VERTEX
  8
LAYER_9
 10
73.6362
 20
223.6241
  0
SEQEND
  0
POLYLINE
  8
LAYER_9
 40
0.0353
 41
0.0353
 66
1
 10
0
 20
0
 30
0
  0
VERTEX
  8
LAYER_9
 10
72.8629
 20
192.8876
  0
VERTEX
  8
LAYER_9
 10
72.8668
 20
192.8958
  0
SEQEND
  0
POLYLINE
  8
LAYER_9
 40
0.0353
 41
0.0353
 66
1
 10
0
 20
0
 30
0
  0
VERTEX
  8
LAYER_9
 10
72.2597
 20
191.7542
 42
0.1417139613
  0
VERTEX
  8
LAYER_9
 10
72.1353
 20
191.5633
 42
0.1513576674
  0
VERTEX
  8
LAYER_9
 10
72.1418
 20
191.4279
 42
0.1132375063
  0
VERTEX
  8
LAYER_9
 10
72.2583
 20
191.2589
 42
0.1418664686
  0
VERTEX
  8
LAYER_9
 10
72.4489
 20
191.1345
 42
0.1515296266
  0
VERTEX
  8
LAYER_9
 10
72.5842
 20
191.141
 42
0.1134237696
  0
VERTEX
  8
LAYER_9
 10
72.7529
 20
191.2575
  0
SEQEND
  0
POLYLINE
  8
LAYER_9
 40
0.0353
 41
0.0353
 66
1
 10
0
 20
0
 30
0
  0
VERTEX
  8
LAYER_9
 10
123.4826
 20
191.2574
 42
0.1420734643
  0
VERTEX
  8
LAYER_9
 10
123.6738
 20
191.134
 42
0.1514554855
  0
VERTEX
  8
LAYER_9
 10
123.8091
 20
191.1413
 42
0.1134909667
  0
VERTEX
  8
LAYER_9
 10
123.9772
 20
191.2588
 42
0.1416225645
  0
VERTEX
  8
LAYER_9
 10
124.1006
 20
191.4505
 42
0.1513705237
  0
VERTEX
  8
LAYER_9
 10
124.0933
 20
191.5859
 42
0.113315558
  0
VERTEX
  8
LAYER_9
 10
123.9758
 20
191.7541
  0
SEQEND
  0
POLYLINE
  8
LAYER_9
 40
0.0353
 41
0.0353
 66
1
 10
0
 20
0
 30
0
  0
VERTEX
  8
LAYER_9
 10
122.6951
 20
222.461
  0
VERTEX
  8
LAYER_9
 10
122.7406
 20
222.4338
  0
SEQEND
  0
POLYLINE
  8
LAYER_9
 40
0.0353
 41
0.0353
 66
1
 10
0
 20
0
 30
0
  0
VERTEX
  8
LAYER_9
 10
125.4167
 20
225.0469
 42
0.0946767728
  0
VERTEX
  8
LAYER_9
 10
124.9411
 20
225.5831
 42
0.09266986938
  0
VERTEX
  8
LAYER_9
 10
124.304
 20
225.9101
 42
0.09120114996
  0
VERTEX
  8
LAYER_9
 10
123.5921
 20
225.9874
 42
0.09098043775
  0
VERTEX
  8
LAYER_9
 10
122.9003
 20
225.8057
 42
0.09283242497
  0
VERTEX
  8
LAYER_9
 10
122.3189
 20
225.388
 42
0.08894433231
  0
VERTEX
  8
LAYER_9
 10
121.9453
 20
224.8215
 42
0.09557493045
  0
VERTEX
  8
LAYER_9
 10
121.7933
 20
224.1219
 42
0.09477733745
  0
VERTEX
  8
LAYER_9
 10
121.9076
 20
223.4298
  0
SEQEND
  0
POLYLINE
  8
LAYER_9
 40
0.0353
 41
0.0353
 66
1
 10
0
 20
0
 30
0
  0
VERTEX
  8
LAYER_9
 10
73.6439
 20
223.6268
  0
VERTEX
  8
LAYER_9
 10
73.6785
 20
223.6371
  0
SEQEND
  0
POLYLINE
  8
LAYER_9
 40
0.0353
 41
0.0353
 66
1
 10
0
 20
0
 30
0
  0
VERTEX
  8
LAYER_9
 10
123.2711
 20
192.4615
  0
VERTEX
  8
LAYER_9
 10
123.2682
 20
192.4576
  0
SEQEND
  0
POLYLINE
  8
LAYER_9
 40
0.0353
 41
0.0353
 66
1
 10
0
 20
0
 30
0
  0
VERTEX
  8
LAYER_9
 10
123.9759
 20
223.7374
 42
0.1416176288
  0
VERTEX
  8
LAYER_9
 10
124.1002
 20
223.9281
 42
0.1513154649
  0
VERTEX
  8
LAYER_9
 10
124.0937
 20
224.0634
 42
0.1133651933
  0
VERTEX
  8
LAYER_9
 10
123.9773
 20
224.2324
 42
0.1420883264
  0
VERTEX
  8
LAYER_9
 10
123.7866
 20
224.3571
 42
0.1517107855
  0
VERTEX
  8
LAYER_9
 10
123.6513
 20
224.3505
 42
0.1137413819
  0
VERTEX
  8
LAYER_9
 10
123.4827
 20
224.2338
  0
SEQEND
  0
POLYLINE
  8
LAYER_9
 40
0.0353
 41
0.0353
 66
1
 10
0
 20
0
 30
0
  0
VERTEX
  8
LAYER_9
 10
122.7634
 20
192.9631
  0
VERTEX
  8
LAYER_9
 10
123.972
 20
191.7548
  0
SEQEND
  0
POLYLINE
  8
LAYER_9
 40
0.0353
 41
0.0353
 66
1
 10
0
 20
0
 30
0
  0
VERTEX
  8
LAYER_9
 10
123.3854
 20
192.829
  0
VERTEX
  8
LAYER_9
 10
123.3883
 20
192.8068
  0
SEQEND
  0
POLYLINE
  8
LAYER_9
 40
0.0353
 41
0.0353
 66
1
 10
0
 20
0
 30
0
  0
VERTEX
  8
LAYER_9
 10
123.3896
 20
192.7622
  0
VERTEX
  8
LAYER_9
 10
123.3896
 20
192.7587
  0
SEQEND
  0
POLYLINE
  8
LAYER_9
 40
0.0353
 41
0.0353
 66
1
 10
0
 20
0
 30
0
  0
VERTEX
  8
LAYER_9
 10
72.8495
 20
222.7917
  0
VERTEX
  8
LAYER_9
 10
72.8763
 20
222.8775
  0
SEQEND
  0
POLYLINE
  8
LAYER_9
 40
0.0353
 41
0.0353
 66
1
 10
0
 20
0
 30
0
  0
VERTEX
  8
LAYER_9
 10
122.1774
 20
222.9337
  0
VERTEX
  8
LAYER_9
 10
123.4781
 20
224.234
  0
SEQEND
  0
POLYLINE
  8
LAYER_9
 40
0.0353
 41
0.0353
 66
1
 10
0
 20
0
 30
0
  0
VERTEX
  8
LAYER_9
 10
73.8589
 20
191.8527
  0
VERTEX
  8
LAYER_9
 10
73.8064
 20
191.8432
  0
SEQEND
  0
POLYLINE
  8
LAYER_9
 40
0.0353
 41
0.0353
 66
1
 10
0
 20
0
 30
0
  0
VERTEX
  8
LAYER_9
 10
123.2001
 20
193.2549
 42
-0.07273238294
  0
VERTEX
  8
LAYER_9
 10
123.7698
 20
193.3293
 42
-0.07210503109
  0
VERTEX
  8
LAYER_9
 10
124.3293
 20
193.239
 42
-0.07753045616
  0
VERTEX
  8
LAYER_9
 10
124.8715
 20
192.9716
 42
-0.07405344458
  0
VERTEX
  8
LAYER_9
 10
125.2815
 20
192.5811
 42
-0.07532318269
  0
VERTEX
  8
LAYER_9
 10
125.5598
 20
192.0875
 42
-0.07697103489
  0
VERTEX
  8
LAYER_9
 10
125.6805
 20
191.534
 42
-0.07611276257
  0
VERTEX
  8
LAYER_9
 10
125.6311
 20
190.9692
 42
-0.07534038057
  0
VERTEX
  8
LAYER_9
 10
125.4166
 20
190.445
  0
SEQEND
  0
POLYLINE
  8
LAYER_9
 40
0.0353
 41
0.0353
 66
1
 10
0
 20
0
 30
0
  0
VERTEX
  8
LAYER_9
 10
121.9075
 20
223.4298
  0
VERTEX
  8
LAYER_9
 10
122.3312
 20
223.6241
  0
SEQEND
  0
POLYLINE
  8
LAYER_9
 40
0.0353
 41
0.0353
 66
1
 10
0
 20
0
 30
0
  0
VERTEX
  8
LAYER_9
 10
122.3436
 20
223.6296
  0
VERTEX
  8
LAYER_9
 10
122.3726
 20
223.6395
  0
SEQEND
  0
POLYLINE
  8
LAYER_9
 40
0.0353
 41
0.0353
 66
1
 10
0
 20
0
 30
0
  0
VERTEX
  8
LAYER_9
 10
122.4249
 20
223.6492
  0
VERTEX
  8
LAYER_9
 10
122.4539
 20
223.6506
  0
SEQEND
  0
POLYLINE
  8
LAYER_9
 40
0.0353
 41
0.0353
 66
1
 10
0
 20
0
 30
0
  0
VERTEX
  8
LAYER_9
 10
122.5111
 20
223.6461
  0
VERTEX
  8
LAYER_9
 10
122.5199
 20
223.6447
  0
SEQEND
  0
POLYLINE
  8
LAYER_9
 40
0.0353
 41
0.0353
 66
1
 10
0
 20
0
 30
0
  0
VERTEX
  8
LAYER_9
 10
122.7557
 20
223.5414
  0
VERTEX
  8
LAYER_9
 10
122.7736
 20
223.5297
  0
SEQEND
  0
POLYLINE
  8
LAYER_9
 40
0.0353
 41
0.0353
 66
1
 10
0
 20
0
 30
0
  0
VERTEX
  8
LAYER_9
 10
123.289
 20
223.0026
  0
VERTEX
  8
LAYER_9
 10
123.3296
 20
222.9324
  0
SEQEND
  0
POLYLINE
  8
LAYER_9
 40
0.0353
 41
0.0353
 66
1
 10
0
 20
0
 30
0
  0
VERTEX
  8
LAYER_9
 10
123.3716
 20
222.8303
  0
VERTEX
  8
LAYER_9
 10
123.3805
 20
222.7979
  0
SEQEND
  0
POLYLINE
  8
LAYER_9
 40
0.0353
 41
0.0353
 66
1
 10
0
 20
0
 30
0
  0
VERTEX
  8
LAYER_9
 10
123.3806
 20
222.7952
  0
VERTEX
  8
LAYER_9
 10
123.387
 20
222.7585
  0
SEQEND
  0
POLYLINE
  8
LAYER_9
 40
0.0353
 41
0.0353
 66
1
 10
0
 20
0
 30
0
  0
VERTEX
  8
LAYER_9
 10
123.3751
 20
222.6226
  0
VERTEX
  8
LAYER_9
 10
123.368
 20
222.6042
  0
SEQEND
  0
POLYLINE
  8
LAYER_9
 40
0.0353
 41
0.0353
 66
1
 10
0
 20
0
 30
0
  0
VERTEX
  8
LAYER_9
 10
122.5407
 20
223.6406
  0
VERTEX
  8
LAYER_9
 10
122.6226
 20
223.6131
  0
SEQEND
  0
POLYLINE
  8
LAYER_9
 40
0.0353
 41
0.0353
 66
1
 10
0
 20
0
 30
0
  0
VERTEX
  8
LAYER_9
 10
125.4167
 20
190.445
 42
-0.09448734629
  0
VERTEX
  8
LAYER_9
 10
124.9411
 20
189.9085
 42
-0.09208802161
  0
VERTEX
  8
LAYER_9
 10
124.304
 20
189.5821
 42
-0.09119839377
  0
VERTEX
  8
LAYER_9
 10
123.5921
 20
189.5049
 42
-0.09167620013
  0
VERTEX
  8
LAYER_9
 10
122.9003
 20
189.6866
 42
-0.0928224531
  0
VERTEX
  8
LAYER_9
 10
122.3189
 20
190.1043
 42
-0.08909737698
  0
VERTEX
  8
LAYER_9
 10
121.9453
 20
190.6708
 42
-0.09557796216
  0
VERTEX
  8
LAYER_9
 10
121.7933
 20
191.3704
 42
-0.0945302875
  0
VERTEX
  8
LAYER_9
 10
121.9076
 20
192.0629
  0
SEQEND
  0
POLYLINE
  8
LAYER_9
 40
0.0353
 41
0.0353
 66
1
 10
0
 20
0
 30
0
  0
VERTEX
  8
LAYER_9
 10
73.9002
 20
191.8679
  0
VERTEX
  8
LAYER_9
 10
73.8875
 20
191.8622
  0
SEQEND
  0
POLYLINE
  8
LAYER_9
 40
0.0353
 41
0.0353
 66
1
 10
0
 20
0
 30
0
  0
VERTEX
  8
LAYER_9
 10
72.2597
 20
191.7549
  0
VERTEX
  8
LAYER_9
 10
73.4292
 20
192.9236
  0
SEQEND
  0
POLYLINE
  8
LAYER_9
 40
0.0353
 41
0.0353
 66
1
 10
0
 20
0
 30
0
  0
VERTEX
  8
LAYER_9
 10
123.4778
 20
191.2581
  0
VERTEX
  8
LAYER_9
 10
122.2959
 20
192.4406
  0
SEQEND
  0
POLYLINE
  8
LAYER_9
 40
0.0353
 41
0.0353
 66
1
 10
0
 20
0
 30
0
  0
VERTEX
  8
LAYER_9
 10
73.6908
 20
191.852
  0
VERTEX
  8
LAYER_9
 10
73.6082
 20
191.8788
  0
SEQEND
  0
POLYLINE
  8
LAYER_9
 40
0.0353
 41
0.0353
 66
1
 10
0
 20
0
 30
0
  0
VERTEX
  8
LAYER_9
 10
122.4015
 20
191.8458
  0
VERTEX
  8
LAYER_9
 10
122.3574
 20
191.8571
  0
SEQEND
  0
POLYLINE
  8
LAYER_9
 40
0.0353
 41
0.0353
 66
1
 10
0
 20
0
 30
0
  0
VERTEX
  8
LAYER_9
 10
72.8598
 20
192.662
  0
VERTEX
  8
LAYER_9
 10
72.851
 20
192.6944
  0
SEQEND
  0
POLYLINE
  8
LAYER_9
 40
0.0353
 41
0.0353
 66
1
 10
0
 20
0
 30
0
  0
VERTEX
  8
LAYER_9
 10
122.5531
 20
191.8548
  0
VERTEX
  8
LAYER_9
 10
122.5235
 20
191.8474
  0
SEQEND
  0
POLYLINE
  8
LAYER_9
 40
0.0353
 41
0.0353
 66
1
 10
0
 20
0
 30
0
  0
VERTEX
  8
LAYER_9
 10
73.4758
 20
191.9509
  0
VERTEX
  8
LAYER_9
 10
73.4578
 20
191.9629
  0
SEQEND
  0
POLYLINE
  8
LAYER_9
 40
0.0353
 41
0.0353
 66
1
 10
0
 20
0
 30
0
  0
VERTEX
  8
LAYER_9
 10
72.9422
 20
192.4894
  0
VERTEX
  8
LAYER_9
 10
72.9019
 20
192.5596
  0
SEQEND
  0
POLYLINE
  8
LAYER_9
 40
0.0353
 41
0.0353
 66
1
 10
0
 20
0
 30
0
  0
VERTEX
  8
LAYER_9
 10
122.3312
 20
191.8679
  0
VERTEX
  8
LAYER_9
 10
121.9082
 20
192.0626
  0
SEQEND
  0
POLYLINE
  8
LAYER_9
 40
0.0353
 41
0.0353
 66
1
 10
0
 20
0
 30
0
  0
VERTEX
  8
LAYER_9
 10
123.3551
 20
192.6148
  0
VERTEX
  8
LAYER_9
 10
123.3435
 20
192.5894
  0
SEQEND
  0
POLYLINE
  8
LAYER_9
 40
0.0353
 41
0.0353
 66
1
 10
0
 20
0
 30
0
  0
VERTEX
  8
LAYER_9
 10
72.8502
 20
192.6968
  0
VERTEX
  8
LAYER_9
 10
72.8438
 20
192.7334
  0
SEQEND
  0
POLYLINE
  8
LAYER_9
 40
0.0353
 41
0.0353
 66
1
 10
0
 20
0
 30
0
  0
VERTEX
  8
LAYER_9
 10
73.7201
 20
191.8458
  0
VERTEX
  8
LAYER_9
 10
73.7116
 20
191.8476
  0
SEQEND
  0
POLYLINE
  8
LAYER_9
 40
0.0353
 41
0.0353
 66
1
 10
0
 20
0
 30
0
  0
VERTEX
  8
LAYER_9
 10
70.8145
 20
225.0469
 42
-0.09412646663
  0
VERTEX
  8
LAYER_9
 10
71.29
 20
225.5831
 42
-0.09244921877
  0
VERTEX
  8
LAYER_9
 10
71.9275
 20
225.9101
 42
-0.09128719722
  0
VERTEX
  8
LAYER_9
 10
72.6391
 20
225.9874
 42
-0.0909752066
  0
VERTEX
  8
LAYER_9
 10
73.3312
 20
225.8057
 42
-0.09305603547
  0
VERTEX
  8
LAYER_9
 10
73.9119
 20
225.388
 42
-0.08950944951
  0
VERTEX
  8
LAYER_9
 10
74.2862
 20
224.8215
 42
-0.0955750263
  0
VERTEX
  8
LAYER_9
 10
74.4382
 20
224.1219
 42
-0.09406728218
  0
VERTEX
  8
LAYER_9
 10
74.3239
 20
223.4298
  0
SEQEND
  0
POLYLINE
  8
LAYER_9
 40
0.0353
 41
0.0353
 66
1
 10
0
 20
0
 30
0
  0
VERTEX
  8
LAYER_9
 10
122.1397
 20
222.986
  0
VERTEX
  8
LAYER_9
 10
122.1774
 20
222.9338
  0
SEQEND
  0
POLYLINE
  8
LAYER_9
 40
0.0353
 41
0.0353
 66
1
 10
0
 20
0
 30
0
  0
VERTEX
  8
LAYER_9
 10
72.865
 20
222.5995
  0
VERTEX
  8
LAYER_9
 10
72.846
 20
222.663
  0
SEQEND
  0
POLYLINE
  8
LAYER_9
 40
0.0353
 41
0.0353
 66
1
 10
0
 20
0
 30
0
  0
VERTEX
  8
LAYER_9
 10
122.5235
 20
191.8479
  0
VERTEX
  8
LAYER_9
 10
122.5139
 20
191.8465
  0
SEQEND
  0
POLYLINE
  8
LAYER_9
 40
0.0353
 41
0.0353
 66
1
 10
0
 20
0
 30
0
  0
VERTEX
  8
LAYER_9
 10
72.8667
 20
192.8959
  0
VERTEX
  8
LAYER_9
 10
73.0812
 20
193.3609
  0
SEQEND
  0
POLYLINE
  8
LAYER_9
 40
0.0353
 41
0.0353
 66
1
 10
0
 20
0
 30
0
  0
VERTEX
  8
LAYER_9
 10
72.8419
 20
222.7046
  0
VERTEX
  8
LAYER_9
 10
72.8419
 20
222.73
  0
SEQEND
  0
POLYLINE
  8
LAYER_9
 40
0.0353
 41
0.0353
 66
1
 10
0
 20
0
 30
0
  0
VERTEX
  8
LAYER_9
 10
123.3296
 20
222.9323
  0
VERTEX
  8
LAYER_9
 10
123.3716
 20
222.8304
  0
SEQEND
  0
POLYLINE
  8
LAYER_9
 40
0.0353
 41
0.0353
 66
1
 10
0
 20
0
 30
0
  0
VERTEX
  8
LAYER_9
 10
123.3868
 20
222.7587
 42
-0.1146836764
  0
VERTEX
  8
LAYER_9
 10
123.3752
 20
222.6225
  0
SEQEND
  0
POLYLINE
  8
LAYER_9
 40
0.0353
 41
0.0353
 66
1
 10
0
 20
0
 30
0
  0
VERTEX
  8
LAYER_9
 10
73.1404
 20
222.0011
  0
VERTEX
  8
LAYER_9
 10
72.8649
 20
222.5994
  0
SEQEND
  0
POLYLINE
  8
LAYER_9
 40
0.0353
 41
0.0353
 66
1
 10
0
 20
0
 30
0
  0
VERTEX
  8
LAYER_9
 10
122.3078
 20
223.0636
  0
VERTEX
  8
LAYER_9
 10
122.1522
 20
222.9912
  0
SEQEND
  0
POLYLINE
  8
LAYER_9
 40
0.0353
 41
0.0353
 66
1
 10
0
 20
0
 30
0
  0
VERTEX
  8
LAYER_9
 10
73.5361
 20
222.461
  0
VERTEX
  8
LAYER_9
 10
73.4909
 20
222.4338
  0
SEQEND
  0
POLYLINE
  8
LAYER_9
 40
0.0353
 41
0.0353
 66
1
 10
0
 20
0
 30
0
  0
VERTEX
  8
LAYER_9
 10
70.8145
 20
190.445
 42
0.09393685927
  0
VERTEX
  8
LAYER_9
 10
71.29
 20
189.9085
 42
0.09186763416
  0
VERTEX
  8
LAYER_9
 10
71.9275
 20
189.5821
 42
0.09128441745
  0
VERTEX
  8
LAYER_9
 10
72.6391
 20
189.5049
 42
0.09167091594
  0
VERTEX
  8
LAYER_9
 10
73.3312
 20
189.6866
 42
0.09304604215
  0
VERTEX
  8
LAYER_9
 10
73.9119
 20
190.1043
 42
0.08966250991
  0
VERTEX
  8
LAYER_9
 10
74.2862
 20
190.6708
 42
0.09557805801
  0
VERTEX
  8
LAYER_9
 10
74.4382
 20
191.3704
 42
0.09382197079
  0
VERTEX
  8
LAYER_9
 10
74.3239
 20
192.0629
  0
SEQEND
  0
POLYLINE
  8
LAYER_9
 40
0.0353
 41
0.0353
 66
1
 10
0
 20
0
 30
0
  0
VERTEX
  8
LAYER_9
 10
74.0918
 20
222.986
  0
VERTEX
  8
LAYER_9
 10
74.0537
 20
222.9338
  0
SEQEND
  0
POLYLINE
  8
LAYER_9
 40
0.0353
 41
0.0353
 66
1
 10
0
 20
0
 30
0
  0
VERTEX
  8
LAYER_9
 10
73.5361
 20
193.0309
  0
VERTEX
  8
LAYER_9
 10
73.4909
 20
193.0585
  0
SEQEND
  0
POLYLINE
  8
LAYER_9
 40
0.0353
 41
0.0353
 66
1
 10
0
 20
0
 30
0
  0
VERTEX
  8
LAYER_9
 10
122.3512
 20
191.8596
  0
VERTEX
  8
LAYER_9
 10
122.3374
 20
191.8653
  0
SEQEND
  0
POLYLINE
  8
LAYER_9
 40
0.0353
 41
0.0353
 66
1
 10
0
 20
0
 30
0
  0
VERTEX
  8
LAYER_9
 10
122.5951
 20
191.8682
  0
VERTEX
  8
LAYER_9
 10
122.5877
 20
191.8654
  0
SEQEND
  0
POLYLINE
  8
LAYER_9
 40
0.0353
 41
0.0353
 66
1
 10
0
 20
0
 30
0
  0
VERTEX
  8
LAYER_9
 10
122.5138
 20
191.8465
  0
VERTEX
  8
LAYER_9
 10
122.4182
 20
191.8437
  0
SEQEND
  0
POLYLINE
  8
LAYER_9
 40
0.0353
 41
0.0353
 66
1
 10
0
 20
0
 30
0
  0
VERTEX
  8
LAYER_9
 10
123.3896
 20
192.7943
  0
VERTEX
  8
LAYER_9
 10
123.3896
 20
192.7879
  0
SEQEND
  0
POLYLINE
  8
LAYER_9
 40
0.0353
 41
0.0353
 66
1
 10
0
 20
0
 30
0
  0
VERTEX
  8
LAYER_9
 10
72.8419
 20
222.7332
  0
VERTEX
  8
LAYER_9
 10
72.8433
 20
222.7526
  0
SEQEND
  0
POLYLINE
  8
LAYER_9
 40
0.0353
 41
0.0353
 66
1
 10
0
 20
0
 30
0
  0
VERTEX
  8
LAYER_9
 10
123.1362
 20
193.3927
  0
VERTEX
  8
LAYER_9
 10
123.3662
 20
192.8924
  0
SEQEND
  0
POLYLINE
  8
LAYER_9
 40
0.0353
 41
0.0353
 66
1
 10
0
 20
0
 30
0
  0
VERTEX
  8
LAYER_9
 10
122.3726
 20
223.6396
  0
VERTEX
  8
LAYER_9
 10
122.4248
 20
223.6491
  0
SEQEND
  0
POLYLINE
  8
LAYER_9
 40
0.0353
 41
0.0353
 66
1
 10
0
 20
0
 30
0
  0
VERTEX
  8
LAYER_9
 10
72.844
 20
192.7336
 42
-0.1127650322
  0
VERTEX
  8
LAYER_9
 10
72.856
 20
192.8698
  0
SEQEND
  0
POLYLINE
  8
LAYER_9
 40
0.0353
 41
0.0353
 66
1
 10
0
 20
0
 30
0
  0
VERTEX
  8
LAYER_9
 10
74.3998
 20
192.0973
  0
VERTEX
  8
LAYER_9
 10
74.324
 20
192.0624
  0
SEQEND
  0
POLYLINE
  8
LAYER_9
 40
0.0353
 41
0.0353
 66
1
 10
0
 20
0
 30
0
  0
VERTEX
  8
LAYER_9
 10
73.6081
 20
191.8789
  0
VERTEX
  8
LAYER_9
 10
73.4758
 20
191.9509
  0
SEQEND
  0
POLYLINE
  8
LAYER_9
 40
0.0353
 41
0.0353
 66
1
 10
0
 20
0
 30
0
  0
VERTEX
  8
LAYER_9
 10
73.708
 20
223.6441
  0
VERTEX
  8
LAYER_9
 10
73.7175
 20
223.6458
  0
SEQEND
  0
POLYLINE
  8
LAYER_9
 40
0.0353
 41
0.0353
 66
1
 10
0
 20
0
 30
0
  0
VERTEX
  8
LAYER_9
 10
73.7773
 20
191.8417
  0
VERTEX
  8
LAYER_9
 10
73.7201
 20
191.8459
  0
SEQEND
  0
POLYLINE
  8
LAYER_9
 40
0.0353
 41
0.0353
 66
1
 10
0
 20
0
 30
0
  0
VERTEX
  8
LAYER_9
 10
73.7115
 20
191.8475
  0
VERTEX
  8
LAYER_9
 10
73.6907
 20
191.8521
  0
SEQEND
  0
POLYLINE
  8
LAYER_9
 40
0.0353
 41
0.0353
 66
1
 10
0
 20
0
 30
0
  0
VERTEX
  8
LAYER_9
 10
123.3661
 20
192.8924
  0
VERTEX
  8
LAYER_9
 10
123.3855
 20
192.8289
  0
SEQEND
  0
POLYLINE
  8
LAYER_9
 40
0.0353
 41
0.0353
 66
1
 10
0
 20
0
 30
0
  0
VERTEX
  8
LAYER_9
 10
73.8737
 20
223.6351
  0
VERTEX
  8
LAYER_9
 10
73.8804
 20
223.6323
  0
SEQEND
  0
POLYLINE
  8
LAYER_9
 40
0.0353
 41
0.0353
 66
1
 10
0
 20
0
 30
0
  0
VERTEX
  8
LAYER_9
 10
73.8941
 20
223.6268
  0
VERTEX
  8
LAYER_9
 10
73.9004
 20
223.624
  0
SEQEND
  0
POLYLINE
  8
LAYER_9
 40
0.0353
 41
0.0353
 66
1
 10
0
 20
0
 30
0
  0
VERTEX
  8
LAYER_9
 10
122.4181
 20
191.8438
  0
VERTEX
  8
LAYER_9
 10
122.4015
 20
191.8459
  0
SEQEND
  0
POLYLINE
  8
LAYER_9
 40
0.0353
 41
0.0353
 66
1
 10
0
 20
0
 30
0
  0
VERTEX
  8
LAYER_9
 10
123.2959
 20
192.5008
  0
VERTEX
  8
LAYER_9
 10
123.2712
 20
192.4616
  0
SEQEND
  0
POLYLINE
  8
LAYER_9
 40
0.0353
 41
0.0353
 66
1
 10
0
 20
0
 30
0
  0
VERTEX
  8
LAYER_9
 10
72.8561
 20
192.8697
  0
VERTEX
  8
LAYER_9
 10
72.8631
 20
192.8877
  0
SEQEND
  0
POLYLINE
  8
LAYER_9
 40
0.0353
 41
0.0353
 66
1
 10
0
 20
0
 30
0
  0
VERTEX
  8
LAYER_9
 10
73.8875
 20
191.8624
  0
VERTEX
  8
LAYER_9
 10
73.8589
 20
191.8528
  0
SEQEND
  0
POLYLINE
  8
LAYER_9
 40
0.0353
 41
0.0353
 66
1
 10
0
 20
0
 30
0
  0
VERTEX
  8
LAYER_9
 10
72.753
 20
224.2339
 42
0.1419896291
  0
VERTEX
  8
LAYER_9
 10
72.5617
 20
224.3575
 42
0.1518284214
  0
VERTEX
  8
LAYER_9
 10
72.4264
 20
224.3501
 42
0.113529996
  0
VERTEX
  8
LAYER_9
 10
72.2584
 20
224.2324
 42
0.14143169
  0
VERTEX
  8
LAYER_9
 10
72.135
 20
224.0408
 42
0.1516397893
  0
VERTEX
  8
LAYER_9
 10
72.1423
 20
223.9055
 42
0.1137491012
  0
VERTEX
  8
LAYER_9
 10
72.2599
 20
223.7375
  0
SEQEND
  0
POLYLINE
  8
LAYER_9
 40
0.0353
 41
0.0353
 66
1
 10
0
 20
0
 30
0
  0
VERTEX
  8
LAYER_9
 10
74.324
 20
192.0625
  0
VERTEX
  8
LAYER_9
 10
73.9003
 20
191.8678
  0
SEQEND
  0
POLYLINE
  8
LAYER_9
 40
0.0353
 41
0.0353
 66
1
 10
0
 20
0
 30
0
  0
VERTEX
  8
LAYER_9
 10
73.8062
 20
191.8431
  0
VERTEX
  8
LAYER_9
 10
73.7773
 20
191.8417
  0
SEQEND
  0
POLYLINE
  8
LAYER_9
 40
0.0882
 41
0.0882
 66
1
 10
0
 20
0
 30
0
  0
VERTEX
  8
LAYER_9
 10
73.6116
 20
215.7741
  0
VERTEX
  8
LAYER_9
 10
71.9412
 20
216.5742
  0
VERTEX
  8
LAYER_9
 10
124.2895
 20
216.5742
  0
VERTEX
  8
LAYER_9
 10
122.6191
 20
215.7741
  0
SEQEND
  0
POLYLINE
  8
LAYER_9
 40
0.0882
 41
0.0882
 66
1
 10
0
 20
0
 30
0
  0
VERTEX
  8
LAYER_9
 10
98.1198
 20
191.4228
  0
VERTEX
  8
LAYER_9
 10
98.1148
 20
191.4228
  0
VERTEX
  8
LAYER_9
 10
95.9301
 20
191.4298
  0
VERTEX
  8
LAYER_9
 10
93.5958
 20
191.4503
 42
-0.00278073363
  0
VERTEX
  8
LAYER_9
 10
89.0192
 20
191.524
 42
-0.00302921717
  0
VERTEX
  8
LAYER_9
 10
84.6888
 20
191.6425
  0
VERTEX
  8
LAYER_9
 10
82.5083
 20
191.7223
  0
VERTEX
  8
LAYER_9
 10
81.4429
 20
191.7667
  0
VERTEX
  8
LAYER_9
 10
80.7945
 20
191.7957
  0
VERTEX
  8
LAYER_9
 10
80.6576
 20
191.8031
  0
VERTEX
  8
LAYER_9
 10
80.5652
 20
191.8108
  0
VERTEX
  8
LAYER_9
 10
80.211
 20
191.8479
  0
VERTEX
  8
LAYER_9
 10
79.9933
 20
191.8803
  0
VERTEX
  8
LAYER_9
 10
79.776
 20
191.9191
 42
-0.03124558846
  0
VERTEX
  8
LAYER_9
 10
78.9054
 20
192.1442
  0
VERTEX
  8
LAYER_9
 10
78.5646
 20
192.261
  0
VERTEX
  8
LAYER_9
 10
78.1977
 20
192.3933
  0
VERTEX
  8
LAYER_9
 10
78.1134
 20
192.425
  0
VERTEX
  8
LAYER_9
 10
78.0672
 20
192.4441
  0
VERTEX
  8
LAYER_9
 10
78.0213
 20
192.4652
  0
VERTEX
  8
LAYER_9
 10
77.8894
 20
192.5255
  0
VERTEX
  8
LAYER_9
 10
77.7899
 20
192.5735
  0
VERTEX
  8
LAYER_9
 10
77.5355
 20
192.7044
 42
-0.01840066691
  0
VERTEX
  8
LAYER_9
 10
77.0487
 20
192.988
 42
-0.02255462381
  0
VERTEX
  8
LAYER_9
 10
76.4504
 20
193.41
  0
VERTEX
  8
LAYER_9
 10
76.1756
 20
193.6343
  0
VERTEX
  8
LAYER_9
 10
75.9156
 20
193.8689
  0
VERTEX
  8
LAYER_9
 10
75.6669
 20
194.1113
  0
VERTEX
  8
LAYER_9
 10
75.451
 20
194.3434
  0
VERTEX
  8
LAYER_9
 10
75.2122
 20
194.6246
  0
VERTEX
  8
LAYER_9
 10
75.0993
 20
194.766
  0
VERTEX
  8
LAYER_9
 10
74.9825
 20
194.9209
  0
VERTEX
  8
LAYER_9
 10
74.7288
 20
195.291
  0
VERTEX
  8
LAYER_9
 10
74.5824
 20
195.5259
  0
VERTEX
  8
LAYER_9
 10
74.4537
 20
195.7489
  0
VERTEX
  8
LAYER_9
 10
74.2621
 20
196.1214
  0
VERTEX
  8
LAYER_9
 10
74.0617
 20
196.5726
  0
VERTEX
  8
LAYER_9
 10
73.9238
 20
196.942
  0
VERTEX
  8
LAYER_9
 10
73.7636
 20
197.4634
  0
VERTEX
  8
LAYER_9
 10
73.7058
 20
197.6962
  0
VERTEX
  8
LAYER_9
 10
73.6927
 20
197.7495
  0
VERTEX
  8
LAYER_9
 10
73.6832
 20
197.7918
  0
VERTEX
  8
LAYER_9
 10
73.6695
 20
197.8567
  0
VERTEX
  8
LAYER_9
 10
73.6571
 20
197.9238
  0
VERTEX
  8
LAYER_9
 10
73.5943
 20
198.2716
  0
VERTEX
  8
LAYER_9
 10
73.5696
 20
198.4402
  0
VERTEX
  8
LAYER_9
 10
73.5467
 20
198.6215
  0
VERTEX
  8
LAYER_9
 10
73.5206
 20
198.9052
  0
VERTEX
  8
LAYER_9
 10
73.5135
 20
199.0135
  0
VERTEX
  8
LAYER_9
 10
73.4927
 20
199.3761
  0
VERTEX
  8
LAYER_9
 10
73.4469
 20
200.2849
 42
-0.00820960486
  0
VERTEX
  8
LAYER_9
 10
73.3117
 20
204.6311
 42
-0.00488983885
  0
VERTEX
  8
LAYER_9
 10
73.2987
 20
207.2431
  0
VERTEX
  8
LAYER_9
 10
73.3244
 20
209.3167
  0
VERTEX
  8
LAYER_9
 10
73.3833
 20
211.4422
  0
VERTEX
  8
LAYER_9
 10
73.4814
 20
213.6823
  0
VERTEX
  8
LAYER_9
 10
73.5499
 20
214.9072
  0
VERTEX
  8
LAYER_9
 10
73.5855
 20
215.4674
  0
VERTEX
  8
LAYER_9
 10
73.6024
 20
215.6879
  0
VERTEX
  8
LAYER_9
 10
73.6116
 20
215.774
  0
VERTEX
  8
LAYER_9
 10
122.6191
 20
215.774
  0
VERTEX
  8
LAYER_9
 10
122.6283
 20
215.6879
  0
VERTEX
  8
LAYER_9
 10
122.6452
 20
215.4674
  0
VERTEX
  8
LAYER_9
 10
122.6812
 20
214.9072
  0
VERTEX
  8
LAYER_9
 10
122.7493
 20
213.6823
  0
VERTEX
  8
LAYER_9
 10
122.8474
 20
211.4422
  0
VERTEX
  8
LAYER_9
 10
122.9059
 20
209.3167
  0
VERTEX
  8
LAYER_9
 10
122.932
 20
207.2431
 42
-0.004624755255
  0
VERTEX
  8
LAYER_9
 10
122.919
 20
204.6311
 42
-0.008165962135
  0
VERTEX
  8
LAYER_9
 10
122.7839
 20
200.2849
  0
VERTEX
  8
LAYER_9
 10
122.7377
 20
199.3761
  0
VERTEX
  8
LAYER_9
 10
122.7172
 20
199.0135
  0
VERTEX
  8
LAYER_9
 10
122.7102
 20
198.9052
  0
VERTEX
  8
LAYER_9
 10
122.684
 20
198.6215
  0
VERTEX
  8
LAYER_9
 10
122.6611
 20
198.4402
  0
VERTEX
  8
LAYER_9
 10
122.6364
 20
198.2716
  0
VERTEX
  8
LAYER_9
 10
122.5736
 20
197.9238
  0
VERTEX
  8
LAYER_9
 10
122.5613
 20
197.8567
  0
VERTEX
  8
LAYER_9
 10
122.5475
 20
197.7918
  0
VERTEX
  8
LAYER_9
 10
122.538
 20
197.7495
  0
VERTEX
  8
LAYER_9
 10
122.5249
 20
197.6962
  0
VERTEX
  8
LAYER_9
 10
122.4671
 20
197.4634
 42
-0.0163612403
  0
VERTEX
  8
LAYER_9
 10
122.3073
 20
196.942
  0
VERTEX
  8
LAYER_9
 10
122.1686
 20
196.5726
  0
VERTEX
  8
LAYER_9
 10
121.969
 20
196.1214
  0
VERTEX
  8
LAYER_9
 10
121.7774
 20
195.7489
  0
VERTEX
  8
LAYER_9
 10
121.6483
 20
195.5259
  0
VERTEX
  8
LAYER_9
 10
121.5022
 20
195.291
  0
VERTEX
  8
LAYER_9
 10
121.2489
 20
194.9209
  0
VERTEX
  8
LAYER_9
 10
121.1315
 20
194.766
  0
VERTEX
  8
LAYER_9
 10
121.0186
 20
194.6246
  0
VERTEX
  8
LAYER_9
 10
120.7794
 20
194.3434
  0
VERTEX
  8
LAYER_9
 10
120.5638
 20
194.1113
  0
VERTEX
  8
LAYER_9
 10
120.3151
 20
193.8689
  0
VERTEX
  8
LAYER_9
 10
120.0548
 20
193.6343
  0
VERTEX
  8
LAYER_9
 10
119.7803
 20
193.41
 42
-0.02286903347
  0
VERTEX
  8
LAYER_9
 10
119.1817
 20
192.988
 42
-0.01893534324
  0
VERTEX
  8
LAYER_9
 10
118.6952
 20
192.7044
  0
VERTEX
  8
LAYER_9
 10
118.4412
 20
192.5735
  0
VERTEX
  8
LAYER_9
 10
118.341
 20
192.5255
  0
VERTEX
  8
LAYER_9
 10
118.2094
 20
192.4652
  0
VERTEX
  8
LAYER_9
 10
118.1632
 20
192.4441
  0
VERTEX
  8
LAYER_9
 10
118.1173
 20
192.425
  0
VERTEX
  8
LAYER_9
 10
118.033
 20
192.3933
  0
VERTEX
  8
LAYER_9
 10
117.6658
 20
192.261
  0
VERTEX
  8
LAYER_9
 10
117.3253
 20
192.1442
 42
-0.03120379613
  0
VERTEX
  8
LAYER_9
 10
116.4547
 20
191.9191
  0
VERTEX
  8
LAYER_9
 10
116.2374
 20
191.8803
  0
VERTEX
  8
LAYER_9
 10
116.0197
 20
191.8479
  0
VERTEX
  8
LAYER_9
 10
115.6655
 20
191.8108
  0
VERTEX
  8
LAYER_9
 10
115.5727
 20
191.8031
  0
VERTEX
  8
LAYER_9
 10
115.4362
 20
191.7957
  0
VERTEX
  8
LAYER_9
 10
114.7878
 20
191.7667
  0
VERTEX
  8
LAYER_9
 10
113.7228
 20
191.7223
  0
VERTEX
  8
LAYER_9
 10
111.5419
 20
191.6425
 42
-0.002926188075
  0
VERTEX
  8
LAYER_9
 10
107.2112
 20
191.524
 42
-0.002632575096
  0
VERTEX
  8
LAYER_9
 10
102.635
 20
191.4503
  0
VERTEX
  8
LAYER_9
 10
100.3006
 20
191.4298
  0
VERTEX
  8
LAYER_9
 10
98.1148
 20
191.4228
  0
VERTEX
  8
LAYER_9
 10
98.111
 20
191.4228
  0
SEQEND
  0
POLYLINE
  8
LAYER_9
 40
0.1764
 41
0.1764
 66
1
 10
0
 20
0
 30
0
 70
1
  0
VERTEX
  8
LAYER_9
 10
84.0288
 20
225.4307
  0
VERTEX
  8
LAYER_9
 10
82.5796
 20
225.3591
  0
VERTEX
  8
LAYER_9
 10
81.1308
 20
225.2801
  0
VERTEX
  8
LAYER_9
 10
80.9569
 20
225.2702
  0
VERTEX
  8
LAYER_9
 10
80.7829
 20
225.261
  0
VERTEX
  8
LAYER_9
 10
80.4347
 20
225.2345
  0
VERTEX
  8
LAYER_9
 10
80.0326
 20
225.1876
 42
0.01910097685
  0
VERTEX
  8
LAYER_9
 10
79.3351
 20
225.0627
  0
VERTEX
  8
LAYER_9
 10
78.8462
 20
224.9407
  0
VERTEX
  8
LAYER_9
 10
78.3671
 20
224.7925
  0
VERTEX
  8
LAYER_9
 10
78.0687
 20
224.6874
  0
VERTEX
  8
LAYER_9
 10
77.8471
 20
224.6059
  0
VERTEX
  8
LAYER_9
 10
77.7131
 20
224.5562
  0
VERTEX
  8
LAYER_9
 10
77.6065
 20
224.5163
  0
VERTEX
  8
LAYER_9
 10
77.4901
 20
224.4687
  0
VERTEX
  8
LAYER_9
 10
77.2548
 20
224.3621
 42
0.01902309838
  0
VERTEX
  8
LAYER_9
 10
76.6096
 20
224.0245
 42
0.02194912766
  0
VERTEX
  8
LAYER_9
 10
75.9086
 20
223.5807
 42
0.0193573084
  0
VERTEX
  8
LAYER_9
 10
75.3396
 20
223.15
  0
VERTEX
  8
LAYER_9
 10
75.0813
 20
222.9302
  0
VERTEX
  8
LAYER_9
 10
74.8379
 20
222.7076
  0
VERTEX
  8
LAYER_9
 10
74.6076
 20
222.4832
 42
0.01599596755
  0
VERTEX
  8
LAYER_9
 10
74.1923
 20
222.0331
  0
VERTEX
  8
LAYER_9
 10
73.9694
 20
221.765
  0
VERTEX
  8
LAYER_9
 10
73.7665
 20
221.5036
  0
VERTEX
  8
LAYER_9
 10
73.5852
 20
221.2513
  0
VERTEX
  8
LAYER_9
 10
73.4751
 20
221.0876
  0
VERTEX
  8
LAYER_9
 10
73.3675
 20
220.9218
  0
VERTEX
  8
LAYER_9
 10
73.2444
 20
220.7222
  0
VERTEX
  8
LAYER_9
 10
73.1259
 20
220.5193
 42
0.01578891479
  0
VERTEX
  8
LAYER_9
 10
72.85
 20
219.9909
  0
VERTEX
  8
LAYER_9
 10
72.7241
 20
219.7196
  0
VERTEX
  8
LAYER_9
 10
72.6073
 20
219.4451
  0
VERTEX
  8
LAYER_9
 10
72.5057
 20
219.1833
  0
VERTEX
  8
LAYER_9
 10
72.4115
 20
218.9188
  0
VERTEX
  8
LAYER_9
 10
72.2535
 20
218.4005
  0
VERTEX
  8
LAYER_9
 10
72.2027
 20
218.2054
  0
VERTEX
  8
LAYER_9
 10
72.155
 20
218.0104
  0
VERTEX
  8
LAYER_9
 10
72.1314
 20
217.901
  0
VERTEX
  8
LAYER_9
 10
72.1
 20
217.738
  0
VERTEX
  8
LAYER_9
 10
72.0683
 20
217.575
  0
VERTEX
  8
LAYER_9
 10
72.0485
 20
217.4636
  0
VERTEX
  8
LAYER_9
 10
72.009
 20
217.212
  0
VERTEX
  8
LAYER_9
 10
71.9557
 20
216.7643
  0
VERTEX
  8
LAYER_9
 10
71.9339
 20
216.4701
  0
VERTEX
  8
LAYER_9
 10
71.8629
 20
215.3098
 42
0.01403650495
  0
VERTEX
  8
LAYER_9
 10
71.6626
 20
208.2031
  0
VERTEX
  8
LAYER_9
 10
71.6619
 20
207.245
 42
0.01440327028
  0
VERTEX
  8
LAYER_9
 10
71.8735
 20
199.9347
  0
VERTEX
  8
LAYER_9
 10
71.9275
 20
199.0528
  0
VERTEX
  8
LAYER_9
 10
71.942
 20
198.8468
  0
VERTEX
  8
LAYER_9
 10
71.9564
 20
198.6728
  0
VERTEX
  8
LAYER_9
 10
71.9896
 20
198.3751
  0
VERTEX
  8
LAYER_9
 10
72.0556
 20
197.9415
  0
VERTEX
  8
LAYER_9
 10
72.0771
 20
197.8248
  0
VERTEX
  8
LAYER_9
 10
72.1004
 20
197.7027
  0
VERTEX
  8
LAYER_9
 10
72.1226
 20
197.5881
  0
VERTEX
  8
LAYER_9
 10
72.1529
 20
197.4455
  0
VERTEX
  8
LAYER_9
 10
72.2425
 20
197.0868
  0
VERTEX
  8
LAYER_9
 10
72.3371
 20
196.7559
  0
VERTEX
  8
LAYER_9
 10
72.4531
 20
196.408
  0
VERTEX
  8
LAYER_9
 10
72.5876
 20
196.0503
  0
VERTEX
  8
LAYER_9
 10
72.7357
 20
195.701
  0
VERTEX
  8
LAYER_9
 10
72.8931
 20
195.368
  0
VERTEX
  8
LAYER_9
 10
73.0458
 20
195.0731
  0
VERTEX
  8
LAYER_9
 10
73.2794
 20
194.6674
 42
0.01881414276
  0
VERTEX
  8
LAYER_9
 10
73.6452
 20
194.1111
 42
0.01812635901
  0
VERTEX
  8
LAYER_9
 10
74.065
 20
193.5657
  0
VERTEX
  8
LAYER_9
 10
74.4008
 20
193.1812
  0
VERTEX
  8
LAYER_9
 10
74.6562
 20
192.9159
  0
VERTEX
  8
LAYER_9
 10
75.0344
 20
192.5596
 42
0.01966701438
  0
VERTEX
  8
LAYER_9
 10
75.6031
 20
192.09
 42
0.02296863849
  0
VERTEX
  8
LAYER_9
 10
76.3034
 20
191.6071
 42
0.02316715217
  0
VERTEX
  8
LAYER_9
 10
77.0742
 20
191.1746
  0
VERTEX
  8
LAYER_9
 10
77.428
 20
191.0066
  0
VERTEX
  8
LAYER_9
 10
77.5836
 20
190.9407
  0
VERTEX
  8
LAYER_9
 10
77.6242
 20
190.9251
  0
VERTEX
  8
LAYER_9
 10
77.9526
 20
190.8041
  0
VERTEX
  8
LAYER_9
 10
78.3011
 20
190.6785
  0
VERTEX
  8
LAYER_9
 10
78.6514
 20
190.5643
 42
0.02731898092
  0
VERTEX
  8
LAYER_9
 10
79.6286
 20
190.3265
 42
0.01951040645
  0
VERTEX
  8
LAYER_9
 10
80.3219
 20
190.2252
  0
VERTEX
  8
LAYER_9
 10
80.6189
 20
190.1984
  0
VERTEX
  8
LAYER_9
 10
80.8436
 20
190.1847
  0
VERTEX
  8
LAYER_9
 10
82.9448
 20
190.0711
 42
0.003040165768
  0
VERTEX
  8
LAYER_9
 10
86.4926
 20
189.9109
 42
0.006191236988
  0
VERTEX
  8
LAYER_9
 10
94.1433
 20
189.7052
  0
VERTEX
  8
LAYER_9
 10
96.1513
 20
189.683
  0
VERTEX
  8
LAYER_9
 10
98.1149
 20
189.6742
  0
VERTEX
  8
LAYER_9
 10
100.0795
 20
189.683
  0
VERTEX
  8
LAYER_9
 10
102.0879
 20
189.7052
 42
0.006190246581
  0
VERTEX
  8
LAYER_9
 10
109.7379
 20
189.9109
 42
0.002965377479
  0
VERTEX
  8
LAYER_9
 10
113.2858
 20
190.0711
  0
VERTEX
  8
LAYER_9
 10
115.3873
 20
190.1847
  0
VERTEX
  8
LAYER_9
 10
115.612
 20
190.1984
  0
VERTEX
  8
LAYER_9
 10
115.909
 20
190.2252
 42
0.01925932898
  0
VERTEX
  8
LAYER_9
 10
116.6019
 20
190.3265
 42
0.0273665839
  0
VERTEX
  8
LAYER_9
 10
117.5791
 20
190.5643
  0
VERTEX
  8
LAYER_9
 10
117.9297
 20
190.6785
  0
VERTEX
  8
LAYER_9
 10
118.2776
 20
190.8041
  0
VERTEX
  8
LAYER_9
 10
118.6064
 20
190.9251
  0
VERTEX
  8
LAYER_9
 10
118.6469
 20
190.9407
  0
VERTEX
  8
LAYER_9
 10
118.8029
 20
191.0066
  0
VERTEX
  8
LAYER_9
 10
119.1563
 20
191.1746
 42
0.02323151002
  0
VERTEX
  8
LAYER_9
 10
119.9272
 20
191.6071
 42
0.02348713378
  0
VERTEX
  8
LAYER_9
 10
120.6274
 20
192.09
 42
0.01997388741
  0
VERTEX
  8
LAYER_9
 10
121.1965
 20
192.5596
  0
VERTEX
  8
LAYER_9
 10
121.5746
 20
192.9159
  0
VERTEX
  8
LAYER_9
 10
121.8297
 20
193.1812
  0
VERTEX
  8
LAYER_9
 10
122.1659
 20
193.5657
 42
0.01900280388
  0
VERTEX
  8
LAYER_9
 10
122.5853
 20
194.1111
 42
0.01670588865
  0
VERTEX
  8
LAYER_9
 10
122.9515
 20
194.6674
  0
VERTEX
  8
LAYER_9
 10
123.1851
 20
195.0731
  0
VERTEX
  8
LAYER_9
 10
123.3378
 20
195.368
  0
VERTEX
  8
LAYER_9
 10
123.4951
 20
195.701
  0
VERTEX
  8
LAYER_9
 10
123.643
 20
196.0503
  0
VERTEX
  8
LAYER_9
 10
123.7774
 20
196.408
  0
VERTEX
  8
LAYER_9
 10
123.8931
 20
196.7559
  0
VERTEX
  8
LAYER_9
 10
123.9883
 20
197.0868
  0
VERTEX
  8
LAYER_9
 10
124.0779
 20
197.4455
  0
VERTEX
  8
LAYER_9
 10
124.1083
 20
197.5881
  0
VERTEX
  8
LAYER_9
 10
124.1302
 20
197.7027
  0
VERTEX
  8
LAYER_9
 10
124.1538
 20
197.8248
  0
VERTEX
  8
LAYER_9
 10
124.175
 20
197.9415
  0
VERTEX
  8
LAYER_9
 10
124.2413
 20
198.3751
  0
VERTEX
  8
LAYER_9
 10
124.2744
 20
198.6728
  0
VERTEX
  8
LAYER_9
 10
124.2889
 20
198.8468
  0
VERTEX
  8
LAYER_9
 10
124.3034
 20
199.0528
  0
VERTEX
  8
LAYER_9
 10
124.357
 20
199.9347
 42
0.01440313452
  0
VERTEX
  8
LAYER_9
 10
124.5687
 20
207.245
  0
VERTEX
  8
LAYER_9
 10
124.5679
 20
208.2031
 42
0.01403651244
  0
VERTEX
  8
LAYER_9
 10
124.3679
 20
215.3098
  0
VERTEX
  8
LAYER_9
 10
124.297
 20
216.4701
  0
VERTEX
  8
LAYER_9
 10
124.2748
 20
216.7643
  0
VERTEX
  8
LAYER_9
 10
124.2219
 20
217.212
  0
VERTEX
  8
LAYER_9
 10
124.182
 20
217.4636
  0
VERTEX
  8
LAYER_9
 10
124.1626
 20
217.575
  0
VERTEX
  8
LAYER_9
 10
124.1309
 20
217.738
  0
VERTEX
  8
LAYER_9
 10
124.0991
 20
217.901
  0
VERTEX
  8
LAYER_9
 10
124.0758
 20
218.0104
  0
VERTEX
  8
LAYER_9
 10
124.0282
 20
218.2054
  0
VERTEX
  8
LAYER_9
 10
123.9774
 20
218.4005
  0
VERTEX
  8
LAYER_9
 10
123.819
 20
218.9188
  0
VERTEX
  8
LAYER_9
 10
123.7252
 20
219.1833
  0
VERTEX
  8
LAYER_9
 10
123.6232
 20
219.4451
  0
VERTEX
  8
LAYER_9
 10
123.5068
 20
219.7196
  0
VERTEX
  8
LAYER_9
 10
123.3805
 20
219.9909
  0
VERTEX
  8
LAYER_9
 10
123.105
 20
220.5193
  0
VERTEX
  8
LAYER_9
 10
122.9864
 20
220.7222
  0
VERTEX
  8
LAYER_9
 10
122.8633
 20
220.9218
  0
VERTEX
  8
LAYER_9
 10
122.7557
 20
221.0876
  0
VERTEX
  8
LAYER_9
 10
122.6453
 20
221.2513
  0
VERTEX
  8
LAYER_9
 10
122.4643
 20
221.5036
  0
VERTEX
  8
LAYER_9
 10
122.2611
 20
221.765
  0
VERTEX
  8
LAYER_9
 10
122.0385
 20
222.0331
  0
VERTEX
  8
LAYER_9
 10
121.6237
 20
222.4832
  0
VERTEX
  8
LAYER_9
 10
121.3929
 20
222.7076
  0
VERTEX
  8
LAYER_9
 10
121.1495
 20
222.9302
  0
VERTEX
  8
LAYER_9
 10
120.8913
 20
223.15
 42
0.01871060369
  0
VERTEX
  8
LAYER_9
 10
120.3219
 20
223.5807
 42
0.022342717
  0
VERTEX
  8
LAYER_9
 10
119.6213
 20
224.0245
 42
0.01799160876
  0
VERTEX
  8
LAYER_9
 10
118.9757
 20
224.3621
  0
VERTEX
  8
LAYER_9
 10
118.7408
 20
224.4687
  0
VERTEX
  8
LAYER_9
 10
118.6243
 20
224.5163
  0
VERTEX
  8
LAYER_9
 10
118.5175
 20
224.5562
  0
VERTEX
  8
LAYER_9
 10
118.3838
 20
224.6059
  0
VERTEX
  8
LAYER_9
 10
118.1619
 20
224.6874
  0
VERTEX
  8
LAYER_9
 10
117.8638
 20
224.7925
  0
VERTEX
  8
LAYER_9
 10
117.3847
 20
224.9407
  0
VERTEX
  8
LAYER_9
 10
116.8957
 20
225.0627
 42
0.01957462119
  0
VERTEX
  8
LAYER_9
 10
116.1983
 20
225.1876
  0
VERTEX
  8
LAYER_9
 10
115.7958
 20
225.2345
  0
VERTEX
  8
LAYER_9
 10
115.4479
 20
225.261
  0
VERTEX
  8
LAYER_9
 10
115.2744
 20
225.2702
  0
VERTEX
  8
LAYER_9
 10
115.1001
 20
225.2801
  0
VERTEX
  8
LAYER_9
 10
113.6509
 20
225.3591
  0
VERTEX
  8
LAYER_9
 10
112.202
 20
225.4307
 42
0.01132086509
  0
VERTEX
  8
LAYER_9
 10
98.1149
 20
225.7739
 42
0.0113217404
  0
SEQEND
  0
POLYLINE
  8
LAYER_9
 40
0.1764
 41
0.1764
 66
1
 10
0
 20
0
 30
0
  0
VERTEX
  8
LAYER_9
 10
123.0725
 20
193.422
  0
VERTEX
  8
LAYER_9
 10
123.1532
 20
193.5306
 42
0.02131146007
  0
VERTEX
  8
LAYER_9
 10
123.6507
 20
194.2781
  0
VERTEX
  8
LAYER_9
 10
123.9216
 20
194.753
  0
VERTEX
  8
LAYER_9
 10
124.0511
 20
195.0066
  0
VERTEX
  8
LAYER_9
 10
124.2137
 20
195.3495
  0
VERTEX
  8
LAYER_9
 10
124.4017
 20
195.7933
  0
VERTEX
  8
LAYER_9
 10
124.5583
 20
196.2177
  0
VERTEX
  8
LAYER_9
 10
124.6931
 20
196.6379
  0
VERTEX
  8
LAYER_9
 10
124.7781
 20
196.9437
  0
VERTEX
  8
LAYER_9
 10
124.8547
 20
197.2517
  0
VERTEX
  8
LAYER_9
 10
124.8931
 20
197.4341
  0
VERTEX
  8
LAYER_9
 10
124.9136
 20
197.5413
  0
VERTEX
  8
LAYER_9
 10
124.9464
 20
197.7131
  0
VERTEX
  8
LAYER_9
 10
124.9729
 20
197.8567
  0
VERTEX
  8
LAYER_9
 10
125.0551
 20
198.4423
  0
VERTEX
  8
LAYER_9
 10
125.0805
 20
198.7112
  0
VERTEX
  8
LAYER_9
 10
125.1041
 20
199.0459
 42
0.01619970096
  0
VERTEX
  8
LAYER_9
 10
125.3687
 20
207.2456
  0
VERTEX
  8
LAYER_9
 10
125.368
 20
208.203
 42
0.0102456673
  0
VERTEX
  8
LAYER_9
 10
125.2618
 20
213.3941
  0
VERTEX
  8
LAYER_9
 10
125.2262
 20
214.1914
  0
VERTEX
  8
LAYER_9
 10
125.1866
 20
214.9887
  0
VERTEX
  8
LAYER_9
 10
125.1274
 20
216.0297
  0
VERTEX
  8
LAYER_9
 10
125.0949
 20
216.5352
  0
VERTEX
  8
LAYER_9
 10
125.0579
 20
216.9783
  0
VERTEX
  8
LAYER_9
 10
124.9873
 20
217.4952
  0
VERTEX
  8
LAYER_9
 10
124.9676
 20
217.6165
  0
VERTEX
  8
LAYER_9
 10
124.9461
 20
217.7375
  0
VERTEX
  8
LAYER_9
 10
124.9164
 20
217.8882
  0
VERTEX
  8
LAYER_9
 10
124.8903
 20
218.0271
  0
VERTEX
  8
LAYER_9
 10
124.8677
 20
218.1362
  0
VERTEX
  8
LAYER_9
 10
124.8099
 20
218.3789
  0
VERTEX
  8
LAYER_9
 10
124.7259
 20
218.6943
  0
VERTEX
  8
LAYER_9
 10
124.5591
 20
219.2284
  0
VERTEX
  8
LAYER_9
 10
124.3442
 20
219.7953
  0
VERTEX
  8
LAYER_9
 10
124.1001
 20
220.3417
  0
VERTEX
  8
LAYER_9
 10
123.8246
 20
220.8719
  0
VERTEX
  8
LAYER_9
 10
123.5124
 20
221.3919
  0
VERTEX
  8
LAYER_9
 10
123.1712
 20
221.8929
 42
0.01638025353
  0
VERTEX
  8
LAYER_9
 10
122.7549
 20
222.4245
 42
0.01768227248
  0
VERTEX
  8
LAYER_9
 10
122.3006
 20
222.9343
 42
0.01619395463
  0
VERTEX
  8
LAYER_9
 10
121.8229
 20
223.3999
  0
VERTEX
  8
LAYER_9
 10
121.5707
 20
223.6243
  0
VERTEX
  8
LAYER_9
 10
121.3047
 20
223.8444
 42
0.04496693298
  0
VERTEX
  8
LAYER_9
 10
119.7902
 20
224.846
  0
VERTEX
  8
LAYER_9
 10
119.2625
 20
225.1113
  0
VERTEX
  8
LAYER_9
 10
118.9675
 20
225.2411
  0
VERTEX
  8
LAYER_9
 10
118.9386
 20
225.252
  0
VERTEX
  8
LAYER_9
 10
118.9104
 20
225.2633
  0
VERTEX
  8
LAYER_9
 10
118.8455
 20
225.2877
  0
VERTEX
  8
LAYER_9
 10
118.6659
 20
225.3543
  0
VERTEX
  8
LAYER_9
 10
118.4422
 20
225.4365
  0
VERTEX
  8
LAYER_9
 10
118.2835
 20
225.4933
  0
VERTEX
  8
LAYER_9
 10
118.153
 20
225.5388
  0
VERTEX
  8
LAYER_9
 10
117.6337
 20
225.7018
  0
VERTEX
  8
LAYER_9
 10
117.3296
 20
225.7812
 42
0.02569274537
  0
VERTEX
  8
LAYER_9
 10
116.3817
 20
225.9696
  0
VERTEX
  8
LAYER_9
 10
116.1686
 20
225.9985
  0
VERTEX
  8
LAYER_9
 10
115.9855
 20
226.0193
  0
VERTEX
  8
LAYER_9
 10
115.7181
 20
226.0447
  0
VERTEX
  8
LAYER_9
 10
115.5953
 20
226.0525
  0
VERTEX
  8
LAYER_9
 10
114.9526
 20
226.0899
  0
VERTEX
  8
LAYER_9
 10
112.2393
 20
226.2299
 42
0.01132885089
  0
VERTEX
  8
LAYER_9
 10
98.1152
 20
226.5742
 42
0.01132886582
  0
VERTEX
  8
LAYER_9
 10
83.9914
 20
226.2299
  0
VERTEX
  8
LAYER_9
 10
81.2789
 20
226.0899
  0
VERTEX
  8
LAYER_9
 10
80.635
 20
226.0525
  0
VERTEX
  8
LAYER_9
 10
80.513
 20
226.0447
  0
VERTEX
  8
LAYER_9
 10
80.2456
 20
226.0193
  0
VERTEX
  8
LAYER_9
 10
80.0621
 20
225.9985
  0
VERTEX
  8
LAYER_9
 10
79.8494
 20
225.9696
 42
0.02556701213
  0
VERTEX
  8
LAYER_9
 10
78.9015
 20
225.7812
  0
VERTEX
  8
LAYER_9
 10
78.5974
 20
225.7018
  0
VERTEX
  8
LAYER_9
 10
78.0774
 20
225.5388
  0
VERTEX
  8
LAYER_9
 10
77.9472
 20
225.4933
  0
VERTEX
  8
LAYER_9
 10
77.7885
 20
225.4365
  0
VERTEX
  8
LAYER_9
 10
77.5652
 20
225.3543
  0
VERTEX
  8
LAYER_9
 10
77.3853
 20
225.2877
  0
VERTEX
  8
LAYER_9
 10
77.3207
 20
225.2633
  0
VERTEX
  8
LAYER_9
 10
77.2921
 20
225.252
  0
VERTEX
  8
LAYER_9
 10
77.2636
 20
225.2411
  0
VERTEX
  8
LAYER_9
 10
76.9686
 20
225.1113
  0
VERTEX
  8
LAYER_9
 10
76.4409
 20
224.846
 42
0.04505724642
  0
VERTEX
  8
LAYER_9
 10
74.9264
 20
223.8444
  0
VERTEX
  8
LAYER_9
 10
74.6604
 20
223.6243
  0
VERTEX
  8
LAYER_9
 10
74.4078
 20
223.3999
 42
0.01655547032
  0
VERTEX
  8
LAYER_9
 10
73.9298
 20
222.9343
 42
0.01618283571
  0
VERTEX
  8
LAYER_9
 10
73.4758
 20
222.4245
 42
0.01826924013
  0
VERTEX
  8
LAYER_9
 10
73.0599
 20
221.8929
  0
VERTEX
  8
LAYER_9
 10
72.7187
 20
221.3919
  0
VERTEX
  8
LAYER_9
 10
72.4065
 20
220.8719
  0
VERTEX
  8
LAYER_9
 10
72.131
 20
220.3417
  0
VERTEX
  8
LAYER_9
 10
71.8865
 20
219.7953
  0
VERTEX
  8
LAYER_9
 10
71.672
 20
219.2284
  0
VERTEX
  8
LAYER_9
 10
71.5045
 20
218.6943
  0
VERTEX
  8
LAYER_9
 10
71.4212
 20
218.3789
  0
VERTEX
  8
LAYER_9
 10
71.3633
 20
218.1362
  0
VERTEX
  8
LAYER_9
 10
71.3408
 20
218.0271
  0
VERTEX
  8
LAYER_9
 10
71.314
 20
217.8882
  0
VERTEX
  8
LAYER_9
 10
71.2847
 20
217.7375
  0
VERTEX
  8
LAYER_9
 10
71.2632
 20
217.6165
  0
VERTEX
  8
LAYER_9
 10
71.243
 20
217.4952
  0
VERTEX
  8
LAYER_9
 10
71.1732
 20
216.9783
  0
VERTEX
  8
LAYER_9
 10
71.1362
 20
216.5352
  0
VERTEX
  8
LAYER_9
 10
71.1041
 20
216.0297
  0
VERTEX
  8
LAYER_9
 10
71.0441
 20
214.9887
  0
VERTEX
  8
LAYER_9
 10
71.0042
 20
214.1914
  0
VERTEX
  8
LAYER_9
 10
70.9689
 20
213.3941
 42
0.01024488839
  0
VERTEX
  8
LAYER_9
 10
70.8628
 20
208.203
  0
VERTEX
  8
LAYER_9
 10
70.862
 20
207.2456
 42
0.01616728338
  0
VERTEX
  8
LAYER_9
 10
71.1266
 20
199.0459
  0
VERTEX
  8
LAYER_9
 10
71.1506
 20
198.7112
  0
VERTEX
  8
LAYER_9
 10
71.176
 20
198.4423
  0
VERTEX
  8
LAYER_9
 10
71.2579
 20
197.8567
  0
VERTEX
  8
LAYER_9
 10
71.284
 20
197.7131
  0
VERTEX
  8
LAYER_9
 10
71.3171
 20
197.5413
  0
VERTEX
  8
LAYER_9
 10
71.3376
 20
197.4341
  0
VERTEX
  8
LAYER_9
 10
71.3764
 20
197.2517
  0
VERTEX
  8
LAYER_9
 10
71.4529
 20
196.9437
  0
VERTEX
  8
LAYER_9
 10
71.5373
 20
196.6379
  0
VERTEX
  8
LAYER_9
 10
71.6724
 20
196.2177
  0
VERTEX
  8
LAYER_9
 10
71.829
 20
195.7933
  0
VERTEX
  8
LAYER_9
 10
72.017
 20
195.3495
  0
VERTEX
  8
LAYER_9
 10
72.1797
 20
195.0066
  0
VERTEX
  8
LAYER_9
 10
72.3091
 20
194.753
  0
VERTEX
  8
LAYER_9
 10
72.5801
 20
194.2781
 42
0.02189089042
  0
VERTEX
  8
LAYER_9
 10
73.0771
 20
193.5306
  0
SEQEND
  0
POLYLINE
  8
LAYER_9
 40
0.1764
 41
0.1764
 66
1
 10
0
 20
0
 30
0
  0
VERTEX
  8
LAYER_9
 10
73.077
 20
193.5305
 42
0.02102003079
  0
VERTEX
  8
LAYER_9
 10
73.6302
 20
192.8426
  0
VERTEX
  8
LAYER_9
 10
73.9149
 20
192.5293
  0
VERTEX
  8
LAYER_9
 10
74.2091
 20
192.2347
 42
0.02170703799
  0
VERTEX
  8
LAYER_9
 10
74.8751
 20
191.6445
 42
0.0218436917
  0
VERTEX
  8
LAYER_9
 10
75.5909
 20
191.1154
 42
0.03225984832
  0
VERTEX
  8
LAYER_9
 10
76.7318
 20
190.4511
  0
VERTEX
  8
LAYER_9
 10
76.9819
 20
190.3311
  0
VERTEX
  8
LAYER_9
 10
77.2151
 20
190.2271
  0
VERTEX
  8
LAYER_9
 10
77.3784
 20
190.1632
  0
VERTEX
  8
LAYER_9
 10
77.4328
 20
190.1431
  0
VERTEX
  8
LAYER_9
 10
77.7341
 20
190.0316
  0
VERTEX
  8
LAYER_9
 10
77.8575
 20
189.9868
  0
VERTEX
  8
LAYER_9
 10
78.1644
 20
189.8799
  0
VERTEX
  8
LAYER_9
 10
78.5931
 20
189.7476
 42
0.04429602656
  0
VERTEX
  8
LAYER_9
 10
80.3192
 20
189.4213
  0
VERTEX
  8
LAYER_9
 10
80.4938
 20
189.4061
  0
VERTEX
  8
LAYER_9
 10
80.6618
 20
189.3942
  0
VERTEX
  8
LAYER_9
 10
81.084
 20
189.3698
  0
VERTEX
  8
LAYER_9
 10
81.7977
 20
189.3303
  0
VERTEX
  8
LAYER_9
 10
83.0808
 20
189.2626
  0
VERTEX
  8
LAYER_9
 10
84.3638
 20
189.2012
 42
0.003745663443
  0
VERTEX
  8
LAYER_9
 10
89.0311
 20
189.0213
 42
0.003802604273
  0
VERTEX
  8
LAYER_9
 10
93.5847
 20
188.9137
  0
VERTEX
  8
LAYER_9
 10
95.919
 20
188.8847
  0
VERTEX
  8
LAYER_9
 10
98.1151
 20
188.8742
  0
VERTEX
  8
LAYER_9
 10
100.3122
 20
188.8847
  0
VERTEX
  8
LAYER_9
 10
102.6458
 20
188.9137
 42
0.003775605642
  0
VERTEX
  8
LAYER_9
 10
107.1998
 20
189.0213
 42
0.003735002879
  0
VERTEX
  8
LAYER_9
 10
111.8671
 20
189.2012
  0
VERTEX
  8
LAYER_9
 10
113.1501
 20
189.2626
  0
VERTEX
  8
LAYER_9
 10
114.4325
 20
189.3303
  0
VERTEX
  8
LAYER_9
 10
115.1468
 20
189.3698
  0
VERTEX
  8
LAYER_9
 10
115.5691
 20
189.3942
  0
VERTEX
  8
LAYER_9
 10
115.7374
 20
189.4061
  0
VERTEX
  8
LAYER_9
 10
115.9117
 20
189.4213
 42
0.04430828635
  0
VERTEX
  8
LAYER_9
 10
117.6375
 20
189.7476
  0
VERTEX
  8
LAYER_9
 10
118.0661
 20
189.8799
  0
VERTEX
  8
LAYER_9
 10
118.3726
 20
189.9868
  0
VERTEX
  8
LAYER_9
 10
118.4968
 20
190.0316
  0
VERTEX
  8
LAYER_9
 10
118.7981
 20
190.1431
  0
VERTEX
  8
LAYER_9
 10
118.8524
 20
190.1632
  0
VERTEX
  8
LAYER_9
 10
119.0158
 20
190.2271
  0
VERTEX
  8
LAYER_9
 10
119.2493
 20
190.3311
  0
VERTEX
  8
LAYER_9
 10
119.4987
 20
190.4511
 42
0.03237017352
  0
VERTEX
  8
LAYER_9
 10
120.6396
 20
191.1154
 42
0.02243939056
  0
VERTEX
  8
LAYER_9
 10
121.3557
 20
191.6445
 42
0.02117734915
  0
VERTEX
  8
LAYER_9
 10
122.0218
 20
192.2347
  0
VERTEX
  8
LAYER_9
 10
122.3153
 20
192.5293
  0
VERTEX
  8
LAYER_9
 10
122.6007
 20
192.8426
 42
0.01832899329
  0
VERTEX
  8
LAYER_9
 10
123.0723
 20
193.4218
  0
SEQEND
  0
CIRCLE
  8
LAYER_9
 10
98.1149
 20
219.8741
 40
2.0001
  0
POLYLINE
  8
LAYER_9
 40
0.0353
 41
0.0353
 66
1
 10
0
 20
0
 30
0
  0
VERTEX
  8
LAYER_9
 10
110.5538
 20
226.3047
  0
VERTEX
  8
LAYER_9
 10
110.5538
 20
229.6494
  0
VERTEX
  8
LAYER_9
 10
107.5538
 20
229.6494
  0
VERTEX
  8
LAYER_9
 10
107.5538
 20
226.4148
  0
SEQEND
  0
POLYLINE
  8
LAYER_9
 40
0.0353
 41
0.0353
 66
1
 10
0
 20
0
 30
0
  0
VERTEX
  8
LAYER_9
 10
85.677
 20
226.3047
  0
VERTEX
  8
LAYER_9
 10
85.677
 20
229.6494
  0
VERTEX
  8
LAYER_9
 10
88.6767
 20
229.6494
  0
VERTEX
  8
LAYER_9
 10
88.6767
 20
226.4148
  0
SEQEND
  0
POLYLINE
  8
LAYER_9
 40
0.0353
 41
0.0353
 66
1
 10
0
 20
0
 30
0
  0
VERTEX
  8
LAYER_9
 10
107.5538
 20
229.3495
  0
VERTEX
  8
LAYER_9
 10
110.5539
 20
229.3495
  0
SEQEND
  0
POLYLINE
  8
LAYER_9
 40
0.0353
 41
0.0353
 66
1
 10
0
 20
0
 30
0
  0
VERTEX
  8
LAYER_9
 10
85.677
 20
229.3495
  0
VERTEX
  8
LAYER_9
 10
88.6767
 20
229.3495
  0
SEQEND
  0
INSERT
  8
LAYER_9
  2
AIGNBL0901002B
 10
0
 20
0
 30
0
  0
TEXT
  8
LAYER_9
 10
96.2512
 20
181.7027
 11
96.2512
 21
181.7027
 40
3.8503
 41
0.5
  1
545
  0
POLYLINE
  8
LAYER_9
 40
0.0353
 41
0.0353
 66
1
 10
0
 20
0
 30
0
  0
VERTEX
  8
LAYER_9
 10
98.4416
 20
226.5721
  0
VERTEX
  8
LAYER_9
 10
65.6569
 20
226.5721
  0
SEQEND
  0
POLYLINE
  8
LAYER_9
 40
0.0353
 41
0.0353
 66
1
 10
0
 20
0
 30
0
  0
VERTEX
  8
LAYER_9
 10
66.157
 20
226.5721
  0
VERTEX
  8
LAYER_9
 10
66.157
 20
223.572
  0
SEQEND
  0
POLYLINE
  8
LAYER_9
 40
0.05
 41
0.05
 66
1
 10
0
 20
0
 30
0
 70
1
  0
VERTEX
  8
LAYER_9
 10
66.157
 20
226.5721
  0
VERTEX
  8
LAYER_9
 10
65.6568
 20
224.5722
  0
VERTEX
  8
LAYER_9
 10
66.6566
 20
224.5722
  0
SEQEND
  0
INSERT
  8
LAYER_9
  2
AIGNBL0901002C
 10
0
 20
0
 30
0
  0
TEXT
  8
LAYER_9
 10
65.6544
 20
206.4312
 11
65.6544
 21
206.4312
 40
3.8503
 41
0.5
 50
89.99999999
  1
377
  0
POLYLINE
  8
LAYER_9
 40
0.0353
 41
0.0353
 66
1
 10
0
 20
0
 30
0
  0
VERTEX
  8
LAYER_9
 10
98.1101
 20
219.6746
  0
VERTEX
  8
LAYER_9
 10
98.1101
 20
224.5892
  0
SEQEND
  0
POLYLINE
  8
LAYER_9
 40
0.05
 41
0.05
 66
1
 10
0
 20
0
 30
0
 70
1
  0
VERTEX
  8
LAYER_9
 10
98.1101
 20
219.6746
  0
VERTEX
  8
LAYER_9
 10
98.61
 20
221.6749
  0
VERTEX
  8
LAYER_9
 10
97.6103
 20
221.6749
  0
SEQEND
  0
POLYLINE
  8
LAYER_9
 40
0.05
 41
0.05
 66
1
 10
0
 20
0
 30
0
 70
1
  0
VERTEX
  8
LAYER_9
 10
98.1101
 20
225.6891
  0
VERTEX
  8
LAYER_9
 10
97.6103
 20
223.6888
  0
VERTEX
  8
LAYER_9
 10
98.61
 20
223.6888
  0
SEQEND
  0
TEXT
  8
LAYER_9
 10
95.1307
 20
221.6309
 11
95.1307
 21
221.6309
 40
3.8503
 41
0.5
 50
89.99999999
  1
58
  0
INSERT
  8
LAYER_9
  2
AIGNBL0901002D
 10
0
 20
0
 30
0
  0
INSERT
  8
LAYER_9
  2
AIGNBL0901002E
 10
0
 20
0
 30
0
  0
POLYLINE
  8
LAYER_9
 40
0.0353
 41
0.0353
 66
1
 10
0
 20
0
 30
0
  0
VERTEX
  8
LAYER_9
 10
72.753
 20
224.2339
  0
VERTEX
  8
LAYER_9
 10
73.9296
 20
222.9342
  0
SEQEND
  0
POLYLINE
  8
LAYER_9
 40
0.0882
 41
0.0882
 66
1
 10
0
 20
0
 30
0
  0
VERTEX
  8
LAYER_9
 10
79.1297
 20
125.2444
  0
VERTEX
  8
LAYER_9
 10
79.0899
 20
125.2444
  0
SEQEND
  0
POLYLINE
  8
LAYER_9
 40
0.0882
 41
0.0882
 66
1
 10
0
 20
0
 30
0
  0
VERTEX
  8
LAYER_9
 10
79.1363
 20
125.2444
  0
VERTEX
  8
LAYER_9
 10
79.1296
 20
125.2444
  0
SEQEND
  0
POLYLINE
  8
LAYER_9
 40
0.0882
 41
0.0882
 66
1
 10
0
 20
0
 30
0
  0
VERTEX
  8
LAYER_9
 10
117.1503
 20
125.2444
  0
VERTEX
  8
LAYER_9
 10
117.1574
 20
125.2444
  0
SEQEND
  0
POLYLINE
  8
LAYER_9
 40
0.0882
 41
0.0882
 66
1
 10
0
 20
0
 30
0
  0
VERTEX
  8
LAYER_9
 10
117.1572
 20
125.2444
  0
VERTEX
  8
LAYER_9
 10
117.1971
 20
125.2444
  0
SEQEND
  0
POLYLINE
  8
LAYER_9
 40
0.0882
 41
0.0882
 66
1
 10
0
 20
0
 30
0
  0
VERTEX
  8
LAYER_9
 10
111.0711
 20
108.7258
  0
VERTEX
  8
LAYER_9
 10
117.3379
 20
108.7258
  0
SEQEND
  0
POLYLINE
  8
LAYER_9
 40
0.0882
 41
0.0882
 66
1
 10
0
 20
0
 30
0
  0
VERTEX
  8
LAYER_9
 10
73.3682
 20
63.2664
  0
VERTEX
  8
LAYER_9
 10
73.3756
 20
63.2685
  0
VERTEX
  8
LAYER_9
 10
73.3897
 20
63.2738
  0
VERTEX
  8
LAYER_9
 10
73.4197
 20
63.2925
  0
VERTEX
  8
LAYER_9
 10
73.4779
 20
63.3511
  0
SEQEND
  0
POLYLINE
  8
LAYER_9
 40
0.0882
 41
0.0882
 66
1
 10
0
 20
0
 30
0
  0
VERTEX
  8
LAYER_9
 10
116.9595
 20
129.1835
  0
VERTEX
  8
LAYER_9
 10
111.0533
 20
108.6656
  0
SEQEND
  0
POLYLINE
  8
LAYER_9
 40
0.0882
 41
0.0882
 66
1
 10
0
 20
0
 30
0
  0
VERTEX
  8
LAYER_9
 10
116.8954
 20
129.2038
  0
VERTEX
  8
LAYER_9
 10
116.9596
 20
129.1834
  0
SEQEND
  0
POLYLINE
  8
LAYER_9
 40
0.0882
 41
0.0882
 66
1
 10
0
 20
0
 30
0
  0
VERTEX
  8
LAYER_9
 10
116.8954
 20
129.2038
  0
VERTEX
  8
LAYER_9
 10
116.7204
 20
129.2564
  0
SEQEND
  0
POLYLINE
  8
LAYER_9
 40
0.0882
 41
0.0882
 66
1
 10
0
 20
0
 30
0
  0
VERTEX
  8
LAYER_9
 10
116.4785
 20
129.3189
 42
-0.5974046541
  0
VERTEX
  8
LAYER_9
 10
116.5261
 20
129.3426
 42
0.1075909672
  0
VERTEX
  8
LAYER_9
 10
116.5999
 20
129.29
  0
VERTEX
  8
LAYER_9
 10
116.7202
 20
129.2564
  0
SEQEND
  0
POLYLINE
  8
LAYER_9
 40
0.0882
 41
0.0882
 66
1
 10
0
 20
0
 30
0
  0
VERTEX
  8
LAYER_9
 10
79.7523
 20
129.3189
  0
VERTEX
  8
LAYER_9
 10
83.5421
 20
116.1543
  0
VERTEX
  8
LAYER_9
 10
84.5987
 20
112.4829
  0
VERTEX
  8
LAYER_9
 10
84.9328
 20
111.323
  0
VERTEX
  8
LAYER_9
 10
85.2376
 20
110.265
  0
VERTEX
  8
LAYER_9
 10
85.6472
 20
108.8391
  0
VERTEX
  8
LAYER_9
 10
85.6595
 20
108.7943
  0
VERTEX
  8
LAYER_9
 10
85.6796
 20
108.7167
  0
VERTEX
  8
LAYER_9
 10
85.7001
 20
108.5717
  0
VERTEX
  8
LAYER_9
 10
85.7036
 20
108.3963
  0
VERTEX
  8
LAYER_9
 10
85.6994
 20
108.3395
  0
VERTEX
  8
LAYER_9
 10
85.6856
 20
108.2404
  0
VERTEX
  8
LAYER_9
 10
85.6726
 20
108.1804
  0
VERTEX
  8
LAYER_9
 10
85.6634
 20
108.1441
  0
VERTEX
  8
LAYER_9
 10
85.1967
 20
106.3425
  0
VERTEX
  8
LAYER_9
 10
84.9945
 20
105.5649
  0
VERTEX
  8
LAYER_9
 10
84.7927
 20
104.7881
  0
VERTEX
  8
LAYER_9
 10
84.1401
 20
102.2739
  0
VERTEX
  8
LAYER_9
 10
83.5877
 20
100.1484
  0
VERTEX
  8
LAYER_9
 10
78.9687
 20
82.3624
  0
VERTEX
  8
LAYER_9
 10
75.956
 20
70.7634
  0
VERTEX
  8
LAYER_9
 10
74.8522
 20
66.5124
  0
VERTEX
  8
LAYER_9
 10
74.3537
 20
64.5926
  0
VERTEX
  8
LAYER_9
 10
74.1032
 20
63.6306
  0
VERTEX
  8
LAYER_9
 10
74.044
 20
63.4006
  0
VERTEX
  8
LAYER_9
 10
74.0401
 20
63.3861
  0
VERTEX
  8
LAYER_9
 10
74.0337
 20
63.3628
 42
-0.07658912174
  0
VERTEX
  8
LAYER_9
 10
73.9078
 20
63.0919
 42
-0.08483186017
  0
VERTEX
  8
LAYER_9
 10
73.7134
 20
62.8876
 42
-0.1008744838
  0
VERTEX
  8
LAYER_9
 10
73.4834
 20
62.7801
 42
-0.1187956505
  0
VERTEX
  8
LAYER_9
 10
73.2449
 20
62.7811
  0
SEQEND
  0
POLYLINE
  8
LAYER_9
 40
0.0882
 41
0.0882
 66
1
 10
0
 20
0
 30
0
  0
VERTEX
  8
LAYER_9
 10
78.9079
 20
108.2263
  0
VERTEX
  8
LAYER_9
 10
78.9093
 20
108.2263
  0
SEQEND
  0
POLYLINE
  8
LAYER_9
 40
0.0882
 41
0.0882
 66
1
 10
0
 20
0
 30
0
  0
VERTEX
  8
LAYER_9
 10
111.0532
 20
108.6655
  0
VERTEX
  8
LAYER_9
 10
111.0409
 20
108.6161
  0
VERTEX
  8
LAYER_9
 10
111.0331
 20
108.5728
  0
VERTEX
  8
LAYER_9
 10
111.0285
 20
108.5357
  0
VERTEX
  8
LAYER_9
 10
111.025
 20
108.4627
  0
VERTEX
  8
LAYER_9
 10
111.0292
 20
108.3861
  0
VERTEX
  8
LAYER_9
 10
111.0324
 20
108.3537
  0
VERTEX
  8
LAYER_9
 10
111.0525
 20
108.2634
  0
VERTEX
  8
LAYER_9
 10
111.8579
 20
105.1593
  0
VERTEX
  8
LAYER_9
 10
113.1127
 20
100.3273
  0
VERTEX
  8
LAYER_9
 10
121.8983
 20
66.4966
  0
VERTEX
  8
LAYER_9
 10
122.6702
 20
63.5283
  0
VERTEX
  8
LAYER_9
 10
122.6825
 20
63.4835
  0
VERTEX
  8
LAYER_9
 10
122.7019
 20
63.4355
  0
VERTEX
  8
LAYER_9
 10
122.7527
 20
63.3512
  0
SEQEND
  0
POLYLINE
  8
LAYER_9
 40
0.0882
 41
0.0882
 66
1
 10
0
 20
0
 30
0
  0
VERTEX
  8
LAYER_9
 10
79.3289
 20
128.9933
  0
VERTEX
  8
LAYER_9
 10
72.8988
 20
59.0167
  0
SEQEND
  0
POLYLINE
  8
LAYER_9
 40
0.0882
 41
0.0882
 66
1
 10
0
 20
0
 30
0
  0
VERTEX
  8
LAYER_9
 10
125.6838
 20
58.5604
  0
SEQEND
  0
POLYLINE
  8
LAYER_9
 40
0.0882
 41
0.0882
 66
1
 10
0
 20
0
 30
0
  0
VERTEX
  8
LAYER_9
 10
72.1961
 20
59.0228
  0
VERTEX
  8
LAYER_9
 10
79.1437
 20
134.6266
  0
SEQEND
  0
POLYLINE
  8
LAYER_9
 40
0.0882
 41
0.0882
 66
1
 10
0
 20
0
 30
0
  0
VERTEX
  8
LAYER_9
 10
121.7923
 20
58.5611
 42
-0.05616983735
  0
VERTEX
  8
LAYER_9
 10
121.897
 20
58.6581
  0
VERTEX
  8
LAYER_9
 10
122.0526
 20
58.7481
  0
VERTEX
  8
LAYER_9
 10
122.2558
 20
58.8292
  0
VERTEX
  8
LAYER_9
 10
122.4999
 20
58.8987
 42
-0.03198254296
  0
VERTEX
  8
LAYER_9
 10
123.0869
 20
58.9961
 42
-0.02597137185
  0
VERTEX
  8
LAYER_9
 10
123.7396
 20
59.0296
 42
-0.02666626791
  0
VERTEX
  8
LAYER_9
 10
124.3926
 20
58.9957
 42
-0.03482664292
  0
VERTEX
  8
LAYER_9
 10
124.9775
 20
58.898
  0
VERTEX
  8
LAYER_9
 10
125.2216
 20
58.8289
  0
VERTEX
  8
LAYER_9
 10
125.4241
 20
58.7477
  0
VERTEX
  8
LAYER_9
 10
125.579
 20
58.6578
  0
VERTEX
  8
LAYER_9
 10
125.6837
 20
58.5611
  0
SEQEND
  0
POLYLINE
  8
LAYER_9
 40
0.0882
 41
0.0882
 66
1
 10
0
 20
0
 30
0
  0
VERTEX
  8
LAYER_9
 10
78.913
 20
108.227
  0
VERTEX
  8
LAYER_9
 10
78.9187
 20
108.2273
  0
SEQEND
  0
POLYLINE
  8
LAYER_9
 40
0.0882
 41
0.0882
 66
1
 10
0
 20
0
 30
0
  0
VERTEX
  8
LAYER_9
 10
122.7527
 20
63.3512
  0
VERTEX
  8
LAYER_9
 10
122.7665
 20
63.3339
  0
VERTEX
  8
LAYER_9
 10
122.7802
 20
63.3187
  0
VERTEX
  8
LAYER_9
 10
122.8113
 20
63.2922
  0
VERTEX
  8
LAYER_9
 10
122.8395
 20
63.2746
  0
VERTEX
  8
LAYER_9
 10
122.8624
 20
63.2665
  0
SEQEND
  0
POLYLINE
  8
LAYER_9
 40
0.0882
 41
0.0882
 66
1
 10
0
 20
0
 30
0
  0
VERTEX
  8
LAYER_9
 10
117.6272
 20
121.0913
  0
VERTEX
  8
LAYER_9
 10
117.9813
 20
108.7342
  0
VERTEX
  8
LAYER_9
 10
117.9835
 20
108.6559
  0
VERTEX
  8
LAYER_9
 10
117.9887
 20
108.5642
  0
VERTEX
  8
LAYER_9
 10
117.9951
 20
108.4753
  0
VERTEX
  8
LAYER_9
 10
118.0022
 20
108.3917
  0
VERTEX
  8
LAYER_9
 10
118.0152
 20
108.2643
  0
VERTEX
  8
LAYER_9
 10
118.0184
 20
108.2396
  0
VERTEX
  8
LAYER_9
 10
118.1376
 20
107.2451
  0
VERTEX
  8
LAYER_9
 10
118.3927
 20
105.1151
  0
VERTEX
  8
LAYER_9
 10
121.405
 20
79.9853
  0
SEQEND
  0
POLYLINE
  8
LAYER_9
 40
0.0882
 41
0.0882
 66
1
 10
0
 20
0
 30
0
  0
VERTEX
  8
LAYER_9
 10
79.3289
 20
128.9933
  0
VERTEX
  8
LAYER_9
 10
78.7492
 20
108.722
  0
VERTEX
  8
LAYER_9
 10
78.7471
 20
108.655
  0
VERTEX
  8
LAYER_9
 10
78.7411
 20
108.5418
  0
VERTEX
  8
LAYER_9
 10
78.7323
 20
108.4151
  0
VERTEX
  8
LAYER_9
 10
78.727
 20
108.3558
  0
VERTEX
  8
LAYER_9
 10
78.7115
 20
108.2059
  0
VERTEX
  8
LAYER_9
 10
78.7094
 20
108.1876
  0
VERTEX
  8
LAYER_9
 10
78.7058
 20
108.1604
  0
VERTEX
  8
LAYER_9
 10
78.6381
 20
107.5924
  0
VERTEX
  8
LAYER_9
 10
78.5337
 20
106.7218
  0
VERTEX
  8
LAYER_9
 10
74.0499
 20
69.3132
  0
VERTEX
  8
LAYER_9
 10
73.345
 20
63.4289
  0
VERTEX
  8
LAYER_9
 10
73.3408
 20
63.3844
  0
VERTEX
  8
LAYER_9
 10
73.344
 20
63.3358
  0
VERTEX
  8
LAYER_9
 10
73.3531
 20
63.2962
  0
VERTEX
  8
LAYER_9
 10
73.3683
 20
63.2666
  0
SEQEND
  0
POLYLINE
  8
LAYER_9
 40
0.0882
 41
0.0882
 66
1
 10
0
 20
0
 30
0
  0
VERTEX
  8
LAYER_9
 10
79.271
 20
129.1835
  0
VERTEX
  8
LAYER_9
 10
85.1769
 20
108.6656
  0
SEQEND
  0
POLYLINE
  8
LAYER_9
 40
0.0882
 41
0.0882
 66
1
 10
0
 20
0
 30
0
  0
VERTEX
  8
LAYER_9
 10
78.8924
 20
108.7258
  0
VERTEX
  8
LAYER_9
 10
85.1595
 20
108.7258
  0
SEQEND
  0
POLYLINE
  8
LAYER_9
 40
0.0882
 41
0.0882
 66
1
 10
0
 20
0
 30
0
  0
VERTEX
  8
LAYER_9
 10
111.025
 20
108.4757
  0
VERTEX
  8
LAYER_9
 10
117.5877
 20
108.4757
  0
SEQEND
  0
POLYLINE
  8
LAYER_9
 40
0.0882
 41
0.0882
 66
1
 10
0
 20
0
 30
0
  0
VERTEX
  8
LAYER_9
 10
125.4165
 20
58.5604
  0
VERTEX
  8
LAYER_9
 10
121.7924
 20
58.5604
  0
SEQEND
  0
POLYLINE
  8
LAYER_9
 40
0.0882
 41
0.0882
 66
1
 10
0
 20
0
 30
0
  0
VERTEX
  8
LAYER_9
 10
70.5463
 20
58.5604
  0
VERTEX
  8
LAYER_9
 10
70.5466
 20
58.5604
  0
SEQEND
  0
POLYLINE
  8
LAYER_9
 40
0.0882
 41
0.0882
 66
1
 10
0
 20
0
 30
0
  0
VERTEX
  8
LAYER_9
 10
85.683
 20
108.2259
  0
VERTEX
  8
LAYER_9
 10
110.5475
 20
108.2259
  0
SEQEND
  0
POLYLINE
  8
LAYER_9
 40
0.0882
 41
0.0882
 66
1
 10
0
 20
0
 30
0
  0
VERTEX
  8
LAYER_9
 10
117.3377
 20
108.2259
  0
VERTEX
  8
LAYER_9
 10
111.0622
 20
108.2259
  0
SEQEND
  0
POLYLINE
  8
LAYER_9
 40
0.0882
 41
0.0882
 66
1
 10
0
 20
0
 30
0
  0
VERTEX
  8
LAYER_9
 10
117.5093
 20
108.2938
 42
-0.2049216896
  0
VERTEX
  8
LAYER_9
 10
117.3386
 20
108.2261
  0
SEQEND
  0
POLYLINE
  8
LAYER_9
 40
0.0882
 41
0.0882
 66
1
 10
0
 20
0
 30
0
  0
VERTEX
  8
LAYER_9
 10
78.8924
 20
108.2259
  0
VERTEX
  8
LAYER_9
 10
85.1683
 20
108.2259
  0
SEQEND
  0
POLYLINE
  8
LAYER_9
 40
0.0882
 41
0.0882
 66
1
 10
0
 20
0
 30
0
  0
VERTEX
  8
LAYER_9
 10
117.3384
 20
108.7258
 42
-0.163730532
  0
VERTEX
  8
LAYER_9
 10
117.4824
 20
108.6803
  0
SEQEND
  0
POLYLINE
  8
LAYER_9
 40
0.0882
 41
0.0882
 66
1
 10
0
 20
0
 30
0
  0
VERTEX
  8
LAYER_9
 10
85.6775
 20
108.7258
  0
VERTEX
  8
LAYER_9
 10
110.5529
 20
108.7258
  0
SEQEND
  0
POLYLINE
  8
LAYER_9
 40
0.0882
 41
0.0882
 66
1
 10
0
 20
0
 30
0
  0
VERTEX
  8
LAYER_9
 10
78.8924
 20
108.2259
 42
-0.2061525524
  0
VERTEX
  8
LAYER_9
 10
78.7213
 20
108.2937
  0
SEQEND
  0
POLYLINE
  8
LAYER_9
 40
0.0882
 41
0.0882
 66
1
 10
0
 20
0
 30
0
  0
VERTEX
  8
LAYER_9
 10
78.9247
 20
108.228
  0
VERTEX
  8
LAYER_9
 10
78.9131
 20
108.227
  0
SEQEND
  0
POLYLINE
  8
LAYER_9
 40
0.0882
 41
0.0882
 66
1
 10
0
 20
0
 30
0
  0
VERTEX
  8
LAYER_9
 10
117.3115
 20
108.7245
  0
VERTEX
  8
LAYER_9
 10
117.3144
 20
108.7248
  0
SEQEND
  0
POLYLINE
  8
LAYER_9
 40
0.0882
 41
0.0882
 66
1
 10
0
 20
0
 30
0
  0
VERTEX
  8
LAYER_9
 10
78.892
 20
108.7258
 42
0.163654944
  0
VERTEX
  8
LAYER_9
 10
78.7481
 20
108.6803
  0
SEQEND
  0
POLYLINE
  8
LAYER_9
 40
0.0882
 41
0.0882
 66
1
 10
0
 20
0
 30
0
  0
VERTEX
  8
LAYER_9
 10
122.8623
 20
63.2664
  0
VERTEX
  8
LAYER_9
 10
122.8768
 20
63.295
  0
VERTEX
  8
LAYER_9
 10
122.8863
 20
63.3356
  0
VERTEX
  8
LAYER_9
 10
122.8891
 20
63.3835
  0
VERTEX
  8
LAYER_9
 10
122.8849
 20
63.4291
  0
VERTEX
  8
LAYER_9
 10
122.1807
 20
69.3134
  0
VERTEX
  8
LAYER_9
 10
117.6892
 20
106.7851
  0
VERTEX
  8
LAYER_9
 10
117.5879
 20
107.6318
  0
VERTEX
  8
LAYER_9
 10
117.5244
 20
108.1606
  0
VERTEX
  8
LAYER_9
 10
117.5216
 20
108.1831
  0
VERTEX
  8
LAYER_9
 10
117.5188
 20
108.2075
  0
VERTEX
  8
LAYER_9
 10
117.5121
 20
108.2646
  0
VERTEX
  8
LAYER_9
 10
117.5032
 20
108.356
  0
VERTEX
  8
LAYER_9
 10
117.486
 20
108.6019
  0
VERTEX
  8
LAYER_9
 10
117.481
 20
108.7222
  0
VERTEX
  8
LAYER_9
 10
117.4747
 20
108.906
  0
VERTEX
  8
LAYER_9
 10
117.4405
 20
110.1224
  0
VERTEX
  8
LAYER_9
 10
117.408
 20
111.2802
  0
VERTEX
  8
LAYER_9
 10
117.3717
 20
112.5357
  0
VERTEX
  8
LAYER_9
 10
117.0545
 20
123.6415
  0
VERTEX
  8
LAYER_9
 10
116.9014
 20
128.9822
  0
SEQEND
  0
POLYLINE
  8
LAYER_9
 40
0.0882
 41
0.0882
 66
1
 10
0
 20
0
 30
0
  0
VERTEX
  8
LAYER_9
 10
122.9856
 20
62.781
 42
-0.1158403453
  0
VERTEX
  8
LAYER_9
 10
122.7486
 20
62.7792
 42
-0.102225193
  0
VERTEX
  8
LAYER_9
 10
122.5136
 20
62.8904
 42
-0.08419344538
  0
VERTEX
  8
LAYER_9
 10
122.3213
 20
63.0946
 42
-0.07654729095
  0
VERTEX
  8
LAYER_9
 10
122.1968
 20
63.3627
  0
VERTEX
  8
LAYER_9
 10
122.1905
 20
63.3864
  0
VERTEX
  8
LAYER_9
 10
122.1862
 20
63.4015
  0
VERTEX
  8
LAYER_9
 10
122.127
 20
63.6305
  0
VERTEX
  8
LAYER_9
 10
121.8769
 20
64.5929
  0
VERTEX
  8
LAYER_9
 10
121.378
 20
66.5123
  0
VERTEX
  8
LAYER_9
 10
120.2731
 20
70.7633
  0
VERTEX
  8
LAYER_9
 10
112.6429
 20
100.1483
  0
VERTEX
  8
LAYER_9
 10
112.0908
 20
102.2738
  0
VERTEX
  8
LAYER_9
 10
111.4378
 20
104.788
  0
VERTEX
  8
LAYER_9
 10
111.2357
 20
105.5648
  0
VERTEX
  8
LAYER_9
 10
111.0339
 20
106.3424
  0
VERTEX
  8
LAYER_9
 10
110.5675
 20
108.144
  0
VERTEX
  8
LAYER_9
 10
110.5573
 20
108.1803
  0
VERTEX
  8
LAYER_9
 10
110.5453
 20
108.2375
  0
VERTEX
  8
LAYER_9
 10
110.5308
 20
108.3405
  0
VERTEX
  8
LAYER_9
 10
110.5255
 20
108.4209
  0
VERTEX
  8
LAYER_9
 10
110.5301
 20
108.573
  0
VERTEX
  8
LAYER_9
 10
110.5509
 20
108.7141
  0
VERTEX
  8
LAYER_9
 10
110.5703
 20
108.7949
  0
VERTEX
  8
LAYER_9
 10
110.5834
 20
108.8397
  0
VERTEX
  8
LAYER_9
 10
110.9926
 20
110.2652
  0
VERTEX
  8
LAYER_9
 10
111.2833
 20
111.2749
  0
VERTEX
  8
LAYER_9
 10
111.6311
 20
112.4832
  0
VERTEX
  8
LAYER_9
 10
113.2994
 20
118.2768
  0
VERTEX
  8
LAYER_9
 10
116.4786
 20
129.3188
  0
SEQEND
  0
POLYLINE
  8
LAYER_9
 40
0.0882
 41
0.0882
 66
1
 10
0
 20
0
 30
0
  0
VERTEX
  8
LAYER_9
 10
73.4777
 20
63.3512
  0
VERTEX
  8
LAYER_9
 10
73.5282
 20
63.4337
  0
VERTEX
  8
LAYER_9
 10
73.5476
 20
63.4827
  0
VERTEX
  8
LAYER_9
 10
73.5603
 20
63.5283
  0
VERTEX
  8
LAYER_9
 10
74.3318
 20
66.4965
  0
VERTEX
  8
LAYER_9
 10
83.1177
 20
100.3272
  0
VERTEX
  8
LAYER_9
 10
84.3726
 20
105.1592
  0
VERTEX
  8
LAYER_9
 10
85.1779
 20
108.2637
  0
VERTEX
  8
LAYER_9
 10
85.198
 20
108.3536
  0
VERTEX
  8
LAYER_9
 10
85.2023
 20
108.3967
  0
VERTEX
  8
LAYER_9
 10
85.2055
 20
108.464
  0
VERTEX
  8
LAYER_9
 10
85.1973
 20
108.5734
  0
VERTEX
  8
LAYER_9
 10
85.1896
 20
108.6171
  0
VERTEX
  8
LAYER_9
 10
85.1769
 20
108.6655
  0
SEQEND
  0
POLYLINE
  8
LAYER_9
 40
0.0882
 41
0.0882
 66
1
 10
0
 20
0
 30
0
  0
VERTEX
  8
LAYER_9
 10
70.5466
 20
58.5611
 42
-0.06346523869
  0
VERTEX
  8
LAYER_9
 10
70.6507
 20
58.6574
  0
VERTEX
  8
LAYER_9
 10
70.8063
 20
58.7477
  0
VERTEX
  8
LAYER_9
 10
71.0091
 20
58.8289
  0
VERTEX
  8
LAYER_9
 10
71.2529
 20
58.898
 42
-0.03263873628
  0
VERTEX
  8
LAYER_9
 10
71.8378
 20
58.9957
 42
-0.02601668924
  0
VERTEX
  8
LAYER_9
 10
72.495
 20
59.0296
 42
-0.02746918843
  0
VERTEX
  8
LAYER_9
 10
73.1519
 20
58.995
 42
-0.03466293019
  0
VERTEX
  8
LAYER_9
 10
73.7326
 20
58.898
  0
VERTEX
  8
LAYER_9
 10
73.9767
 20
58.8285
  0
VERTEX
  8
LAYER_9
 10
74.1785
 20
58.7477
  0
VERTEX
  8
LAYER_9
 10
74.3333
 20
58.6574
  0
VERTEX
  8
LAYER_9
 10
74.4378
 20
58.5611
  0
SEQEND
  0
POLYLINE
  8
LAYER_9
 40
0.0882
 41
0.0882
 66
1
 10
0
 20
0
 30
0
  0
VERTEX
  8
LAYER_9
 10
74.8254
 20
79.9848
  0
VERTEX
  8
LAYER_9
 10
78.0929
 20
107.245
  0
VERTEX
  8
LAYER_9
 10
78.2121
 20
108.2398
  0
VERTEX
  8
LAYER_9
 10
78.2135
 20
108.2518
  0
VERTEX
  8
LAYER_9
 10
78.2146
 20
108.2641
  0
VERTEX
  8
LAYER_9
 10
78.2209
 20
108.3181
  0
VERTEX
  8
LAYER_9
 10
78.2283
 20
108.3933
  0
VERTEX
  8
LAYER_9
 10
78.2446
 20
108.6152
  0
VERTEX
  8
LAYER_9
 10
78.2495
 20
108.734
  0
VERTEX
  8
LAYER_9
 10
78.2569
 20
108.9792
  0
VERTEX
  8
LAYER_9
 10
78.2925
 20
110.2334
  0
VERTEX
  8
LAYER_9
 10
78.3257
 20
111.3922
  0
VERTEX
  8
LAYER_9
 10
78.3589
 20
112.5515
  0
VERTEX
  8
LAYER_9
 10
78.603
 20
121.0915
  0
SEQEND
  0
POLYLINE
  8
LAYER_9
 40
0.0882
 41
0.0882
 66
1
 10
0
 20
0
 30
0
  0
VERTEX
  8
LAYER_9
 10
125.6838
 20
58.5604
  0
VERTEX
  8
LAYER_9
 10
125.6507
 20
58.5604
  0
VERTEX
  8
LAYER_9
 10
125.6171
 20
58.5604
  0
VERTEX
  8
LAYER_9
 10
125.5501
 20
58.5604
  0
VERTEX
  8
LAYER_9
 10
125.4164
 20
58.5604
  0
SEQEND
  0
POLYLINE
  8
LAYER_9
 40
0.0882
 41
0.0882
 66
1
 10
0
 20
0
 30
0
  0
VERTEX
  8
LAYER_9
 10
70.814
 20
58.5604
  0
VERTEX
  8
LAYER_9
 10
74.438
 20
58.5604
  0
SEQEND
  0
POLYLINE
  8
LAYER_9
 40
0.0882
 41
0.0882
 66
1
 10
0
 20
0
 30
0
  0
VERTEX
  8
LAYER_9
 10
117.0869
 20
134.6264
  0
VERTEX
  8
LAYER_9
 10
124.0342
 20
59.0226
  0
SEQEND
  0
POLYLINE
  8
LAYER_9
 40
0.0882
 41
0.0882
 66
1
 10
0
 20
0
 30
0
  0
VERTEX
  8
LAYER_9
 10
123.3315
 20
59.0165
  0
VERTEX
  8
LAYER_9
 10
116.9014
 20
128.9932
  0
SEQEND
  0
POLYLINE
  8
LAYER_9
 40
0.0882
 41
0.0882
 66
1
 10
0
 20
0
 30
0
  0
VERTEX
  8
LAYER_9
 10
116.8816
 20
129.2083
  0
VERTEX
  8
LAYER_9
 10
116.3891
 20
134.5628
  0
SEQEND
  0
POLYLINE
  8
LAYER_9
 40
0.0882
 41
0.0882
 66
1
 10
0
 20
0
 30
0
  0
VERTEX
  8
LAYER_9
 10
70.5466
 20
58.5604
  0
VERTEX
  8
LAYER_9
 10
70.5798
 20
58.5604
  0
VERTEX
  8
LAYER_9
 10
70.6129
 20
58.5604
  0
VERTEX
  8
LAYER_9
 10
70.6803
 20
58.5604
  0
VERTEX
  8
LAYER_9
 10
70.814
 20
58.5604
  0
SEQEND
  0
POLYLINE
  8
LAYER_9
 40
0.0882
 41
0.0882
 66
1
 10
0
 20
0
 30
0
  0
VERTEX
  8
LAYER_9
 10
79.7523
 20
129.3189
  0
VERTEX
  8
LAYER_9
 10
79.2711
 20
129.1834
  0
SEQEND
  0
POLYLINE
  8
LAYER_9
 40
0.0882
 41
0.0882
 66
1
 10
0
 20
0
 30
0
  0
VERTEX
  8
LAYER_9
 10
79.3489
 20
129.2083
  0
VERTEX
  8
LAYER_9
 10
79.841
 20
134.5628
  0
SEQEND
  0
POLYLINE
  8
LAYER_9
 40
0.0882
 41
0.0882
 66
1
 10
0
 20
0
 30
0
  0
VERTEX
  8
LAYER_9
 10
111.8463
 20
134.8865
  0
VERTEX
  8
LAYER_9
 10
111.8463
 20
128.2444
  0
SEQEND
  0
POLYLINE
  8
LAYER_9
 40
0.0882
 41
0.0882
 66
1
 10
0
 20
0
 30
0
  0
VERTEX
  8
LAYER_9
 10
84.3838
 20
134.8865
  0
VERTEX
  8
LAYER_9
 10
84.3838
 20
128.2444
  0
SEQEND
  0
POLYLINE
  8
LAYER_9
 40
0.0882
 41
0.0882
 66
1
 10
0
 20
0
 30
0
  0
VERTEX
  8
LAYER_9
 10
71.2898
 20
146.0769
  0
VERTEX
  8
LAYER_9
 10
124.9402
 20
146.0769
  0
SEQEND
  0
POLYLINE
  8
LAYER_9
 40
0.0882
 41
0.0882
 66
1
 10
0
 20
0
 30
0
 70
1
  0
VERTEX
  8
LAYER_9
 10
119.7659
 20
128.2444
  0
VERTEX
  8
LAYER_9
 10
119.9327
 20
128.2444
  0
VERTEX
  8
LAYER_9
 10
119.9553
 20
128.2444
  0
VERTEX
  8
LAYER_9
 10
120.3088
 20
128.2444
  0
VERTEX
  8
LAYER_9
 10
120.3494
 20
128.2479
  0
VERTEX
  8
LAYER_9
 10
120.4527
 20
128.2652
  0
VERTEX
  8
LAYER_9
 10
120.6376
 20
128.3064
 42
0.03153139115
  0
VERTEX
  8
LAYER_9
 10
120.9791
 20
128.4183
 42
0.05972530045
  0
VERTEX
  8
LAYER_9
 10
121.6275
 20
128.7735
 42
0.05421837132
  0
VERTEX
  8
LAYER_9
 10
122.2
 20
129.2858
 42
0.05053203545
  0
VERTEX
  8
LAYER_9
 10
122.6826
 20
129.9454
 42
0.06954251431
  0
VERTEX
  8
LAYER_9
 10
123.1744
 20
131.1371
  0
VERTEX
  8
LAYER_9
 10
123.2118
 20
131.2878
  0
VERTEX
  8
LAYER_9
 10
123.2682
 20
131.5435
  0
VERTEX
  8
LAYER_9
 10
123.488
 20
132.5789
  0
VERTEX
  8
LAYER_9
 10
123.8235
 20
134.2687
 42
0.01341942763
  0
VERTEX
  8
LAYER_9
 10
124.764
 20
140.0437
 42
0.006360223747
  0
VERTEX
  8
LAYER_9
 10
125.103
 20
142.8127
  0
VERTEX
  8
LAYER_9
 10
125.2561
 20
144.2993
  0
VERTEX
  8
LAYER_9
 10
125.3302
 20
145.1177
  0
VERTEX
  8
LAYER_9
 10
125.3757
 20
145.6515
  0
VERTEX
  8
LAYER_9
 10
125.38
 20
145.7164
 42
0.1063854518
  0
VERTEX
  8
LAYER_9
 10
125.3496
 20
145.8589
 42
0.09542457463
  0
VERTEX
  8
LAYER_9
 10
125.2706
 20
145.9704
 42
0.09994569177
  0
VERTEX
  8
LAYER_9
 10
125.1464
 20
146.0508
  0
VERTEX
  8
LAYER_9
 10
125.0748
 20
146.0706
  0
VERTEX
  8
LAYER_9
 10
125.006
 20
146.0769
  0
VERTEX
  8
LAYER_9
 10
124.8755
 20
146.0769
 42
0.164154045
  0
VERTEX
  8
LAYER_9
 10
124.6787
 20
146.0292
 42
0.2442039461
  0
VERTEX
  8
LAYER_9
 10
124.5767
 20
145.8053
  0
VERTEX
  8
LAYER_9
 10
124.5622
 20
145.6525
 42
-0.008585826429
  0
VERTEX
  8
LAYER_9
 10
124.1668
 20
142.1138
 42
-0.008394660042
  0
VERTEX
  8
LAYER_9
 10
123.7092
 20
139.0005
  0
VERTEX
  8
LAYER_9
 10
123.6401
 20
138.5927
  0
VERTEX
  8
LAYER_9
 10
123.6175
 20
138.4675
  0
VERTEX
  8
LAYER_9
 10
123.5321
 20
138.1451
  0
VERTEX
  8
LAYER_9
 10
123.4404
 20
137.9016
 42
-0.1577641296
  0
VERTEX
  8
LAYER_9
 10
123.0554
 20
137.4152
 42
-0.1332201295
  0
VERTEX
  8
LAYER_9
 10
122.5556
 20
137.2945
 42
-0.000766297646
  0
VERTEX
  8
LAYER_9
 10
100.7903
 20
136.5964
  0
VERTEX
  8
LAYER_9
 10
99.8526
 20
136.1356
  0
VERTEX
  8
LAYER_9
 10
99.8477
 20
136.1356
  0
VERTEX
  8
LAYER_9
 10
99.7574
 20
134.8864
  0
VERTEX
  8
LAYER_9
 10
122.9126
 20
134.8864
  0
VERTEX
  8
LAYER_9
 10
122.852
 20
134.5414
  0
VERTEX
  8
LAYER_9
 10
122.6396
 20
133.4566
  0
VERTEX
  8
LAYER_9
 10
122.5412
 20
132.9765
  0
VERTEX
  8
LAYER_9
 10
122.3394
 20
132.0159
  0
VERTEX
  8
LAYER_9
 10
122.3055
 20
131.8603
  0
VERTEX
  8
LAYER_9
 10
122.2794
 20
131.739
  0
VERTEX
  8
LAYER_9
 10
122.254
 20
131.624
  0
VERTEX
  8
LAYER_9
 10
122.2244
 20
131.4998
  0
VERTEX
  8
LAYER_9
 10
122.1993
 20
131.407
  0
VERTEX
  8
LAYER_9
 10
122.1732
 20
131.3153
  0
VERTEX
  8
LAYER_9
 10
122.1139
 20
131.134
  0
VERTEX
  8
LAYER_9
 10
121.97
 20
130.7836
 42
-0.05250861723
  0
VERTEX
  8
LAYER_9
 10
121.5869
 20
130.1462
 42
-0.04063137229
  0
VERTEX
  8
LAYER_9
 10
121.2726
 20
129.7927
 42
-0.04382436781
  0
VERTEX
  8
LAYER_9
 10
120.9138
 20
129.5045
 42
-0.04587916585
  0
VERTEX
  8
LAYER_9
 10
120.5561
 20
129.309
  0
VERTEX
  8
LAYER_9
 10
119.7659
 20
129.0995
  0
SEQEND
  0
POLYLINE
  8
LAYER_9
 40
0.0882
 41
0.0882
 66
1
 10
0
 20
0
 30
0
 70
1
  0
VERTEX
  8
LAYER_9
 10
76.4643
 20
128.2444
  0
VERTEX
  8
LAYER_9
 10
76.2974
 20
128.2444
  0
VERTEX
  8
LAYER_9
 10
76.2752
 20
128.2444
  0
VERTEX
  8
LAYER_9
 10
75.9217
 20
128.2444
  0
VERTEX
  8
LAYER_9
 10
75.8811
 20
128.2479
  0
VERTEX
  8
LAYER_9
 10
75.7774
 20
128.2652
  0
VERTEX
  8
LAYER_9
 10
75.5929
 20
128.3064
 42
-0.03153139115
  0
VERTEX
  8
LAYER_9
 10
75.2514
 20
128.4183
 42
-0.05993430273
  0
VERTEX
  8
LAYER_9
 10
74.603
 20
128.7735
 42
-0.05422339687
  0
VERTEX
  8
LAYER_9
 10
74.0304
 20
129.2858
 42
-0.05076463798
  0
VERTEX
  8
LAYER_9
 10
73.5478
 20
129.9454
 42
-0.06954114432
  0
VERTEX
  8
LAYER_9
 10
73.0561
 20
131.1371
  0
VERTEX
  8
LAYER_9
 10
73.0187
 20
131.2878
  0
VERTEX
  8
LAYER_9
 10
72.9619
 20
131.5435
  0
VERTEX
  8
LAYER_9
 10
72.7424
 20
132.5789
  0
VERTEX
  8
LAYER_9
 10
72.407
 20
134.2687
 42
-0.01341943279
  0
VERTEX
  8
LAYER_9
 10
71.4665
 20
140.0437
 42
-0.006369002032
  0
VERTEX
  8
LAYER_9
 10
71.1274
 20
142.8127
  0
VERTEX
  8
LAYER_9
 10
70.975
 20
144.2993
  0
VERTEX
  8
LAYER_9
 10
70.9002
 20
145.1177
  0
VERTEX
  8
LAYER_9
 10
70.8547
 20
145.6515
  0
VERTEX
  8
LAYER_9
 10
70.8505
 20
145.7164
 42
-0.1066300529
  0
VERTEX
  8
LAYER_9
 10
70.8808
 20
145.8589
 42
-0.09273030345
  0
VERTEX
  8
LAYER_9
 10
70.9592
 20
145.9704
 42
-0.0995290159
  0
VERTEX
  8
LAYER_9
 10
71.084
 20
146.0508
  0
VERTEX
  8
LAYER_9
 10
71.1557
 20
146.0706
  0
VERTEX
  8
LAYER_9
 10
71.2244
 20
146.0769
  0
VERTEX
  8
LAYER_9
 10
71.355
 20
146.0769
 42
-0.1643306103
  0
VERTEX
  8
LAYER_9
 10
71.5515
 20
146.0292
 42
-0.2440185562
  0
VERTEX
  8
LAYER_9
 10
71.6534
 20
145.8053
  0
VERTEX
  8
LAYER_9
 10
71.6679
 20
145.6525
 42
0.008512976636
  0
VERTEX
  8
LAYER_9
 10
72.0637
 20
142.1138
 42
0.00849645812
  0
VERTEX
  8
LAYER_9
 10
72.5213
 20
139.0005
  0
VERTEX
  8
LAYER_9
 10
72.59
 20
138.5927
  0
VERTEX
  8
LAYER_9
 10
72.613
 20
138.4675
  0
VERTEX
  8
LAYER_9
 10
72.6983
 20
138.1451
  0
VERTEX
  8
LAYER_9
 10
72.7897
 20
137.9016
 42
0.157475716
  0
VERTEX
  8
LAYER_9
 10
73.1749
 20
137.4152
 42
0.1332795497
  0
VERTEX
  8
LAYER_9
 10
73.6745
 20
137.2945
 42
0.0007663070272
  0
VERTEX
  8
LAYER_9
 10
95.4409
 20
136.5964
  0
VERTEX
  8
LAYER_9
 10
96.3779
 20
136.1356
  0
VERTEX
  8
LAYER_9
 10
96.3824
 20
136.1356
  0
VERTEX
  8
LAYER_9
 10
96.4727
 20
134.8864
  0
VERTEX
  8
LAYER_9
 10
73.3178
 20
134.8864
  0
VERTEX
  8
LAYER_9
 10
73.3789
 20
134.5414
  0
VERTEX
  8
LAYER_9
 10
73.5912
 20
133.4566
  0
VERTEX
  8
LAYER_9
 10
73.689
 20
132.9765
  0
VERTEX
  8
LAYER_9
 10
73.8911
 20
132.0159
  0
VERTEX
  8
LAYER_9
 10
73.9246
 20
131.8603
  0
VERTEX
  8
LAYER_9
 10
73.9507
 20
131.739
  0
VERTEX
  8
LAYER_9
 10
73.9765
 20
131.624
  0
VERTEX
  8
LAYER_9
 10
74.0061
 20
131.4998
  0
VERTEX
  8
LAYER_9
 10
74.0311
 20
131.407
  0
VERTEX
  8
LAYER_9
 10
74.0572
 20
131.3153
  0
VERTEX
  8
LAYER_9
 10
74.1169
 20
131.134
  0
VERTEX
  8
LAYER_9
 10
74.2605
 20
130.7836
 42
0.05259196392
  0
VERTEX
  8
LAYER_9
 10
74.6436
 20
130.1462
 42
0.04085339743
  0
VERTEX
  8
LAYER_9
 10
74.9579
 20
129.7927
 42
0.04396452807
  0
VERTEX
  8
LAYER_9
 10
75.3167
 20
129.5045
 42
0.04587916585
  0
VERTEX
  8
LAYER_9
 10
75.6744
 20
129.309
  0
VERTEX
  8
LAYER_9
 10
76.4643
 20
129.0995
  0
SEQEND
  0
POLYLINE
  8
LAYER_9
 40
0.0882
 41
0.0882
 66
1
 10
0
 20
0
 30
0
  0
VERTEX
  8
LAYER_9
 10
76.4643
 20
128.2444
  0
VERTEX
  8
LAYER_9
 10
120.1205
 20
128.2444
  0
SEQEND
  0
POLYLINE
  8
LAYER_9
 40
0.0882
 41
0.0882
 66
1
 10
0
 20
0
 30
0
  0
VERTEX
  8
LAYER_9
 10
96.5197
 20
134.5613
  0
VERTEX
  8
LAYER_9
 10
99.7194
 20
134.5613
  0
SEQEND
  0
POLYLINE
  8
LAYER_9
 40
0.0882
 41
0.0882
 66
1
 10
0
 20
0
 30
0
  0
VERTEX
  8
LAYER_9
 10
96.5556
 20
134.5613
  0
VERTEX
  8
LAYER_9
 10
99.6836
 20
134.5613
  0
SEQEND
  0
POLYLINE
  8
LAYER_9
 40
0.0882
 41
0.0882
 66
1
 10
0
 20
0
 30
0
  0
VERTEX
  8
LAYER_9
 10
96.5197
 20
134.5613
  0
VERTEX
  8
LAYER_9
 10
99.7194
 20
134.5613
  0
SEQEND
  0
POLYLINE
  8
LAYER_9
 40
0.0882
 41
0.0882
 66
1
 10
0
 20
0
 30
0
  0
VERTEX
  8
LAYER_9
 10
81.6567
 20
134.5613
  0
VERTEX
  8
LAYER_9
 10
81.6567
 20
133.9612
  0
SEQEND
  0
POLYLINE
  8
LAYER_9
 40
0.0882
 41
0.0882
 66
1
 10
0
 20
0
 30
0
  0
VERTEX
  8
LAYER_9
 10
81.9768
 20
133.9612
  0
VERTEX
  8
LAYER_9
 10
81.9768
 20
134.5612
  0
SEQEND
  0
POLYLINE
  8
LAYER_9
 40
0.0882
 41
0.0882
 66
1
 10
0
 20
0
 30
0
  0
VERTEX
  8
LAYER_9
 10
81.5764
 20
133.9612
  0
VERTEX
  8
LAYER_9
 10
81.9768
 20
133.9612
  0
SEQEND
  0
POLYLINE
  8
LAYER_9
 40
0.0882
 41
0.0882
 66
1
 10
0
 20
0
 30
0
  0
VERTEX
  8
LAYER_9
 10
80.5767
 20
133.9612
  0
VERTEX
  8
LAYER_9
 10
80.5767
 20
134.5612
  0
SEQEND
  0
POLYLINE
  8
LAYER_9
 40
0.0882
 41
0.0882
 66
1
 10
0
 20
0
 30
0
  0
VERTEX
  8
LAYER_9
 10
81.5764
 20
133.9612
  0
VERTEX
  8
LAYER_9
 10
80.5767
 20
133.9612
  0
SEQEND
  0
POLYLINE
  8
LAYER_9
 40
0.0882
 41
0.0882
 66
1
 10
0
 20
0
 30
0
  0
VERTEX
  8
LAYER_9
 10
80.8964
 20
134.5613
  0
VERTEX
  8
LAYER_9
 10
80.8964
 20
133.9612
  0
SEQEND
  0
POLYLINE
  8
LAYER_9
 40
0.0882
 41
0.0882
 66
1
 10
0
 20
0
 30
0
  0
VERTEX
  8
LAYER_9
 10
80.9766
 20
132.6599
  0
VERTEX
  8
LAYER_9
 10
80.9766
 20
133.961
  0
SEQEND
  0
POLYLINE
  8
LAYER_9
 40
0.0882
 41
0.0882
 66
1
 10
0
 20
0
 30
0
  0
VERTEX
  8
LAYER_9
 10
81.5764
 20
132.6599
  0
VERTEX
  8
LAYER_9
 10
80.9767
 20
132.6599
  0
SEQEND
  0
POLYLINE
  8
LAYER_9
 40
0.0882
 41
0.0882
 66
1
 10
0
 20
0
 30
0
  0
VERTEX
  8
LAYER_9
 10
81.5764
 20
133.9612
  0
VERTEX
  8
LAYER_9
 10
81.5764
 20
132.6601
  0
SEQEND
  0
POLYLINE
  8
LAYER_9
 40
0.0882
 41
0.0882
 66
1
 10
0
 20
0
 30
0
  0
VERTEX
  8
LAYER_9
 10
81.6567
 20
134.5613
  0
VERTEX
  8
LAYER_9
 10
81.6567
 20
133.9612
  0
SEQEND
  0
POLYLINE
  8
LAYER_9
 40
0.0882
 41
0.0882
 66
1
 10
0
 20
0
 30
0
  0
VERTEX
  8
LAYER_9
 10
81.9768
 20
133.9612
  0
VERTEX
  8
LAYER_9
 10
81.9768
 20
134.5612
  0
SEQEND
  0
POLYLINE
  8
LAYER_9
 40
0.0882
 41
0.0882
 66
1
 10
0
 20
0
 30
0
  0
VERTEX
  8
LAYER_9
 10
81.5764
 20
133.9612
  0
VERTEX
  8
LAYER_9
 10
81.9768
 20
133.9612
  0
SEQEND
  0
POLYLINE
  8
LAYER_9
 40
0.0882
 41
0.0882
 66
1
 10
0
 20
0
 30
0
  0
VERTEX
  8
LAYER_9
 10
80.5767
 20
133.9612
  0
VERTEX
  8
LAYER_9
 10
80.5767
 20
134.5612
  0
SEQEND
  0
POLYLINE
  8
LAYER_9
 40
0.0882
 41
0.0882
 66
1
 10
0
 20
0
 30
0
  0
VERTEX
  8
LAYER_9
 10
81.5764
 20
133.9612
  0
VERTEX
  8
LAYER_9
 10
80.5767
 20
133.9612
  0
SEQEND
  0
POLYLINE
  8
LAYER_9
 40
0.0882
 41
0.0882
 66
1
 10
0
 20
0
 30
0
  0
VERTEX
  8
LAYER_9
 10
80.8964
 20
134.5613
  0
VERTEX
  8
LAYER_9
 10
80.8964
 20
133.9612
  0
SEQEND
  0
POLYLINE
  8
LAYER_9
 40
0.0882
 41
0.0882
 66
1
 10
0
 20
0
 30
0
  0
VERTEX
  8
LAYER_9
 10
80.9766
 20
132.6599
  0
VERTEX
  8
LAYER_9
 10
80.9766
 20
133.961
  0
SEQEND
  0
POLYLINE
  8
LAYER_9
 40
0.0882
 41
0.0882
 66
1
 10
0
 20
0
 30
0
  0
VERTEX
  8
LAYER_9
 10
81.5764
 20
132.6599
  0
VERTEX
  8
LAYER_9
 10
80.9767
 20
132.6599
  0
SEQEND
  0
POLYLINE
  8
LAYER_9
 40
0.0882
 41
0.0882
 66
1
 10
0
 20
0
 30
0
  0
VERTEX
  8
LAYER_9
 10
81.5764
 20
133.9612
  0
VERTEX
  8
LAYER_9
 10
81.5764
 20
132.6601
  0
SEQEND
  0
POLYLINE
  8
LAYER_9
 40
0.0882
 41
0.0882
 66
1
 10
0
 20
0
 30
0
 70
1
  0
VERTEX
  8
LAYER_9
 10
108.8766
 20
129.8615
 42
0.1550587364
  0
VERTEX
  8
LAYER_9
 10
108.9227
 20
129.6612
 42
0.157505494
  0
VERTEX
  8
LAYER_9
 10
109.0199
 20
129.5845
 42
0.09147463131
  0
VERTEX
  8
LAYER_9
 10
109.1772
 20
129.5602
 42
0.156061541
  0
VERTEX
  8
LAYER_9
 10
109.3764
 20
129.6063
 42
0.1573819804
  0
VERTEX
  8
LAYER_9
 10
109.4526
 20
129.7038
 42
0.09064734143
  0
VERTEX
  8
LAYER_9
 10
109.4767
 20
129.8615
 42
0.1600878658
  0
VERTEX
  8
LAYER_9
 10
109.4291
 20
130.0635
 42
0.1568187299
  0
VERTEX
  8
LAYER_9
 10
109.3307
 20
130.1384
 42
0.0876042713
  0
VERTEX
  8
LAYER_9
 10
109.1772
 20
130.1613
 42
0.1548963594
  0
VERTEX
  8
LAYER_9
 10
108.9774
 20
130.1154
 42
0.1575285498
  0
VERTEX
  8
LAYER_9
 10
108.9009
 20
130.0184
 42
0.09160085585
  0
SEQEND
  0
POLYLINE
  8
LAYER_9
 40
0.0882
 41
0.0882
 66
1
 10
0
 20
0
 30
0
 70
1
  0
VERTEX
  8
LAYER_9
 10
87.477
 20
129.8615
 42
-0.1550301091
  0
VERTEX
  8
LAYER_9
 10
87.4309
 20
129.6612
 42
-0.1575007533
  0
VERTEX
  8
LAYER_9
 10
87.3337
 20
129.5845
 42
-0.09150584691
  0
VERTEX
  8
LAYER_9
 10
87.1765
 20
129.5602
 42
-0.1560814696
  0
VERTEX
  8
LAYER_9
 10
86.9772
 20
129.6063
 42
-0.157424126
  0
VERTEX
  8
LAYER_9
 10
86.9011
 20
129.7038
 42
-0.09059358186
  0
VERTEX
  8
LAYER_9
 10
86.877
 20
129.8615
 42
-0.1600415768
  0
VERTEX
  8
LAYER_9
 10
86.9246
 20
130.0635
 42
-0.1568774183
  0
VERTEX
  8
LAYER_9
 10
87.0229
 20
130.1384
 42
-0.08759504252
  0
VERTEX
  8
LAYER_9
 10
87.1765
 20
130.1613
 42
-0.1549330857
  0
VERTEX
  8
LAYER_9
 10
87.3762
 20
130.1154
 42
-0.1575036495
  0
VERTEX
  8
LAYER_9
 10
87.4527
 20
130.0184
 42
-0.09158784266
  0
SEQEND
  0
POLYLINE
  8
LAYER_9
 40
0.0882
 41
0.0882
 66
1
 10
0
 20
0
 30
0
  0
VERTEX
  8
LAYER_9
 10
88.6766
 20
134.5613
  0
VERTEX
  8
LAYER_9
 10
88.6766
 20
131.0342
 42
-0.0488875765
  0
VERTEX
  8
LAYER_9
 10
88.6369
 20
129.5952
 42
-0.06506114496
  0
VERTEX
  8
LAYER_9
 10
88.5616
 20
129.2844
 42
-0.302951711
  0
VERTEX
  8
LAYER_9
 10
87.1766
 20
128.3616
 42
-0.3024795861
  0
VERTEX
  8
LAYER_9
 10
85.7927
 20
129.2834
 42
-0.05944408545
  0
VERTEX
  8
LAYER_9
 10
85.713
 20
129.6219
 42
-0.02841496649
  0
VERTEX
  8
LAYER_9
 10
85.6732
 20
130.2567
 42
-0.004465787085
  0
VERTEX
  8
LAYER_9
 10
85.6769
 20
131.0328
  0
VERTEX
  8
LAYER_9
 10
85.6769
 20
134.5613
  0
SEQEND
  0
POLYLINE
  8
LAYER_9
 40
0.0882
 41
0.0882
 66
1
 10
0
 20
0
 30
0
  0
VERTEX
  8
LAYER_9
 10
107.677
 20
134.5613
  0
VERTEX
  8
LAYER_9
 10
107.677
 20
131.0342
 42
0.0488875767
  0
VERTEX
  8
LAYER_9
 10
107.7167
 20
129.5952
 42
0.06506114496
  0
VERTEX
  8
LAYER_9
 10
107.792
 20
129.2844
 42
0.302949186
  0
VERTEX
  8
LAYER_9
 10
109.177
 20
128.3616
 42
0.3024852366
  0
VERTEX
  8
LAYER_9
 10
110.5613
 20
129.2834
 42
0.05928441327
  0
VERTEX
  8
LAYER_9
 10
110.6408
 20
129.6219
 42
0.02833723029
  0
VERTEX
  8
LAYER_9
 10
110.6806
 20
130.2567
 42
0.004485766658
  0
VERTEX
  8
LAYER_9
 10
110.677
 20
131.0328
  0
VERTEX
  8
LAYER_9
 10
110.677
 20
134.5613
  0
SEQEND
  0
POLYLINE
  8
LAYER_9
 40
0.0882
 41
0.0882
 66
1
 10
0
 20
0
 30
0
  0
VERTEX
  8
LAYER_9
 10
79.1439
 20
134.5613
  0
VERTEX
  8
LAYER_9
 10
117.0869
 20
134.5613
  0
SEQEND
  0
POLYLINE
  8
LAYER_9
 40
0.0882
 41
0.0882
 66
1
 10
0
 20
0
 30
0
  0
VERTEX
  8
LAYER_9
 10
79.1439
 20
134.8589
  0
VERTEX
  8
LAYER_9
 10
117.0869
 20
134.8589
  0
SEQEND
  0
POLYLINE
  8
LAYER_9
 40
0.0882
 41
0.0882
 66
1
 10
0
 20
0
 30
0
  0
VERTEX
  8
LAYER_9
 10
79.1439
 20
134.8589
  0
VERTEX
  8
LAYER_9
 10
79.1439
 20
134.5612
  0
SEQEND
  0
POLYLINE
  8
LAYER_9
 40
0.0882
 41
0.0882
 66
1
 10
0
 20
0
 30
0
  0
VERTEX
  8
LAYER_9
 10
117.0869
 20
134.5613
  0
VERTEX
  8
LAYER_9
 10
117.0869
 20
134.859
  0
SEQEND
  0
POLYLINE
  8
LAYER_9
 40
0.0882
 41
0.0882
 66
1
 10
0
 20
0
 30
0
  0
VERTEX
  8
LAYER_9
 10
114.654
 20
133.9612
  0
VERTEX
  8
LAYER_9
 10
114.654
 20
132.6601
  0
SEQEND
  0
POLYLINE
  8
LAYER_9
 40
0.0882
 41
0.0882
 66
1
 10
0
 20
0
 30
0
  0
VERTEX
  8
LAYER_9
 10
114.654
 20
132.6599
  0
VERTEX
  8
LAYER_9
 10
115.2541
 20
132.6599
  0
SEQEND
  0
POLYLINE
  8
LAYER_9
 40
0.0882
 41
0.0882
 66
1
 10
0
 20
0
 30
0
  0
VERTEX
  8
LAYER_9
 10
115.2541
 20
132.6599
  0
VERTEX
  8
LAYER_9
 10
115.2541
 20
133.961
  0
SEQEND
  0
POLYLINE
  8
LAYER_9
 40
0.0882
 41
0.0882
 66
1
 10
0
 20
0
 30
0
  0
VERTEX
  8
LAYER_9
 10
115.3341
 20
134.5613
  0
VERTEX
  8
LAYER_9
 10
115.3341
 20
133.9612
  0
SEQEND
  0
POLYLINE
  8
LAYER_9
 40
0.0882
 41
0.0882
 66
1
 10
0
 20
0
 30
0
  0
VERTEX
  8
LAYER_9
 10
114.654
 20
133.9612
  0
VERTEX
  8
LAYER_9
 10
115.6538
 20
133.9612
  0
SEQEND
  0
POLYLINE
  8
LAYER_9
 40
0.0882
 41
0.0882
 66
1
 10
0
 20
0
 30
0
  0
VERTEX
  8
LAYER_9
 10
115.6538
 20
133.9612
  0
VERTEX
  8
LAYER_9
 10
115.6538
 20
134.5612
  0
SEQEND
  0
POLYLINE
  8
LAYER_9
 40
0.0882
 41
0.0882
 66
1
 10
0
 20
0
 30
0
  0
VERTEX
  8
LAYER_9
 10
114.654
 20
133.9612
  0
VERTEX
  8
LAYER_9
 10
114.2536
 20
133.9612
  0
SEQEND
  0
POLYLINE
  8
LAYER_9
 40
0.0882
 41
0.0882
 66
1
 10
0
 20
0
 30
0
  0
VERTEX
  8
LAYER_9
 10
114.2537
 20
133.9612
  0
VERTEX
  8
LAYER_9
 10
114.2537
 20
134.5612
  0
SEQEND
  0
POLYLINE
  8
LAYER_9
 40
0.0882
 41
0.0882
 66
1
 10
0
 20
0
 30
0
  0
VERTEX
  8
LAYER_9
 10
114.5734
 20
134.5613
  0
VERTEX
  8
LAYER_9
 10
114.5734
 20
133.9612
  0
SEQEND
  0
POLYLINE
  8
LAYER_9
 40
0.0882
 41
0.0882
 66
1
 10
0
 20
0
 30
0
  0
VERTEX
  8
LAYER_9
 10
79.1439
 20
134.5613
  0
VERTEX
  8
LAYER_9
 10
117.0869
 20
134.5613
  0
SEQEND
  0
POLYLINE
  8
LAYER_9
 40
0.0882
 41
0.0882
 66
1
 10
0
 20
0
 30
0
  0
VERTEX
  8
LAYER_9
 10
79.1439
 20
134.8589
  0
VERTEX
  8
LAYER_9
 10
117.0869
 20
134.8589
  0
SEQEND
  0
POLYLINE
  8
LAYER_9
 40
0.0882
 41
0.0882
 66
1
 10
0
 20
0
 30
0
  0
VERTEX
  8
LAYER_9
 10
79.1439
 20
134.8589
  0
VERTEX
  8
LAYER_9
 10
79.1439
 20
134.5612
  0
SEQEND
  0
POLYLINE
  8
LAYER_9
 40
0.0882
 41
0.0882
 66
1
 10
0
 20
0
 30
0
  0
VERTEX
  8
LAYER_9
 10
117.0869
 20
134.5613
  0
VERTEX
  8
LAYER_9
 10
117.0869
 20
134.859
  0
SEQEND
  0
POLYLINE
  8
LAYER_9
 40
0.0882
 41
0.0882
 66
1
 10
0
 20
0
 30
0
  0
VERTEX
  8
LAYER_9
 10
114.654
 20
133.9612
  0
VERTEX
  8
LAYER_9
 10
114.654
 20
132.6601
  0
SEQEND
  0
POLYLINE
  8
LAYER_9
 40
0.0882
 41
0.0882
 66
1
 10
0
 20
0
 30
0
  0
VERTEX
  8
LAYER_9
 10
114.654
 20
132.6599
  0
VERTEX
  8
LAYER_9
 10
115.2541
 20
132.6599
  0
SEQEND
  0
POLYLINE
  8
LAYER_9
 40
0.0882
 41
0.0882
 66
1
 10
0
 20
0
 30
0
  0
VERTEX
  8
LAYER_9
 10
115.2541
 20
132.6599
  0
VERTEX
  8
LAYER_9
 10
115.2541
 20
133.961
  0
SEQEND
  0
POLYLINE
  8
LAYER_9
 40
0.0882
 41
0.0882
 66
1
 10
0
 20
0
 30
0
  0
VERTEX
  8
LAYER_9
 10
115.3341
 20
134.5613
  0
VERTEX
  8
LAYER_9
 10
115.3341
 20
133.9612
  0
SEQEND
  0
POLYLINE
  8
LAYER_9
 40
0.0882
 41
0.0882
 66
1
 10
0
 20
0
 30
0
  0
VERTEX
  8
LAYER_9
 10
114.654
 20
133.9612
  0
VERTEX
  8
LAYER_9
 10
115.6538
 20
133.9612
  0
SEQEND
  0
POLYLINE
  8
LAYER_9
 40
0.0882
 41
0.0882
 66
1
 10
0
 20
0
 30
0
  0
VERTEX
  8
LAYER_9
 10
115.6538
 20
133.9612
  0
VERTEX
  8
LAYER_9
 10
115.6538
 20
134.5612
  0
SEQEND
  0
POLYLINE
  8
LAYER_9
 40
0.0882
 41
0.0882
 66
1
 10
0
 20
0
 30
0
  0
VERTEX
  8
LAYER_9
 10
114.654
 20
133.9612
  0
VERTEX
  8
LAYER_9
 10
114.2536
 20
133.9612
  0
SEQEND
  0
POLYLINE
  8
LAYER_9
 40
0.0882
 41
0.0882
 66
1
 10
0
 20
0
 30
0
  0
VERTEX
  8
LAYER_9
 10
114.2537
 20
133.9612
  0
VERTEX
  8
LAYER_9
 10
114.2537
 20
134.5612
  0
SEQEND
  0
POLYLINE
  8
LAYER_9
 40
0.0882
 41
0.0882
 66
1
 10
0
 20
0
 30
0
  0
VERTEX
  8
LAYER_9
 10
114.5734
 20
134.5613
  0
VERTEX
  8
LAYER_9
 10
114.5734
 20
133.9612
  0
SEQEND
  0
POLYLINE
  8
LAYER_9
 40
0.0882
 41
0.0882
 66
1
 10
0
 20
0
 30
0
  0
VERTEX
  8
LAYER_9
 10
101.3684
 20
134.5613
  0
VERTEX
  8
LAYER_9
 10
101.1891
 20
134.5613
  0
VERTEX
  8
LAYER_9
 10
100.5573
 20
134.5613
  0
VERTEX
  8
LAYER_9
 10
99.7449
 20
134.5613
  0
VERTEX
  8
LAYER_9
 10
98.1196
 20
134.5613
  0
VERTEX
  8
LAYER_9
 10
94.8688
 20
134.5613
  0
SEQEND
  0
POLYLINE
  8
LAYER_9
 40
0.0353
 41
0.0353
 66
1
 10
0
 20
0
 30
0
  0
VERTEX
  8
LAYER_9
 10
70.7899
 20
146.0769
  0
VERTEX
  8
LAYER_9
 10
68.6898
 20
146.0769
  0
SEQEND
  0
POLYLINE
  8
LAYER_9
 40
0.0353
 41
0.0353
 66
1
 10
0
 20
0
 30
0
  0
VERTEX
  8
LAYER_9
 10
83.8839
 20
128.2444
  0
VERTEX
  8
LAYER_9
 10
68.6898
 20
128.2444
  0
SEQEND
  0
POLYLINE
  8
LAYER_9
 40
0.0353
 41
0.0353
 66
1
 10
0
 20
0
 30
0
  0
VERTEX
  8
LAYER_9
 10
69.1896
 20
128.2444
  0
VERTEX
  8
LAYER_9
 10
69.1896
 20
146.0769
  0
SEQEND
  0
POLYLINE
  8
LAYER_9
 40
0.05
 41
0.05
 66
1
 10
0
 20
0
 30
0
 70
1
  0
VERTEX
  8
LAYER_9
 10
69.1896
 20
128.2444
  0
VERTEX
  8
LAYER_9
 10
69.6895
 20
130.2446
  0
VERTEX
  8
LAYER_9
 10
68.6897
 20
130.2446
  0
SEQEND
  0
POLYLINE
  8
LAYER_9
 40
0.05
 41
0.05
 66
1
 10
0
 20
0
 30
0
 70
1
  0
VERTEX
  8
LAYER_9
 10
69.1896
 20
146.0769
  0
VERTEX
  8
LAYER_9
 10
68.6897
 20
144.0766
  0
VERTEX
  8
LAYER_9
 10
69.6895
 20
144.0766
  0
SEQEND
  0
TEXT
  8
LAYER_9
 10
68.6879
 20
135.9168
 11
68.6879
 21
135.9168
 40
3.8503
 41
0.5
 50
89.99999999
  1
178
  0
INSERT
  8
LAYER_9
  2
AIGNBL0901002F
 10
0
 20
0
 30
0
  0
TEXT
  8
LAYER_9
 10
62.5232
 20
101.5654
 11
62.5232
 21
101.5654
 40
3.8503
 41
0.5
 50
89.99999999
  1
880
  0
INSERT
  8
LAYER_9
  2
AIGNBL09010030
 10
0
 20
0
 30
0
  0
TEXT
  8
LAYER_9
 10
97.4099
 20
72.2629
 11
97.4099
 21
72.2629
 40
3.8503
 41
0.5
  1
550
  0
INSERT
  8
LAYER_9
  2
AIGNBL09010031
 10
0
 20
0
 30
0
  0
TEXT
  8
LAYER_9
 10
96.8249
 20
163.9683
 11
96.8249
 21
163.9683
 40
3.8503
 41
0.5
  1
545
  0
INSERT
  8
LAYER_9
  2
AIGNBL09010032
 10
0
 20
0
 30
0
  0
TEXT
  8
LAYER_9
 10
108.6744
 20
92.8712
 11
108.6744
 21
92.8712
 40
3.8503
 41
0.5
 50
89.99999999
  1
715
  0
INSERT
  8
LAYER_9
  2
AIGNBL09010033
 10
0
 20
0
 30
0
  0
TEXT
  8
LAYER_9
 10
94.6037
 20
123.6637
 11
94.6037
 21
123.6637
 40
3.8503
 41
0.5
  1
220
  0
POLYLINE
  8
LAYER_9
 40
0.0882
 41
0.0882
 66
1
 10
0
 20
0
 30
0
 70
1
  0
VERTEX
  8
LAYER_9
 10
88.6765
 20
134.2612
  0
VERTEX
  8
LAYER_9
 10
85.6768
 20
134.2612
  0
VERTEX
  8
LAYER_9
 10
85.6768
 20
134.5614
  0
VERTEX
  8
LAYER_9
 10
88.6765
 20
134.5614
  0
SEQEND
  0
POLYLINE
  8
LAYER_9
 40
0.0882
 41
0.0882
 66
1
 10
0
 20
0
 30
0
 70
1
  0
VERTEX
  8
LAYER_9
 10
110.6771
 20
134.5614
  0
VERTEX
  8
LAYER_9
 10
107.6771
 20
134.5614
  0
VERTEX
  8
LAYER_9
 10
107.6771
 20
134.2612
  0
VERTEX
  8
LAYER_9
 10
110.6771
 20
134.2612
  0
SEQEND
  0
POLYLINE
  8
LAYER_9
 40
0.0882
 41
0.0882
 66
1
 10
0
 20
0
 30
0
  0
VERTEX
  8
LAYER_9
 10
95.4407
 20
136.5963
  0
VERTEX
  8
LAYER_9
 10
100.7902
 20
136.5963
  0
SEQEND
  0
ENDSEC
  0
EOF
