  0
SECTION
  2
HEADER
  9
$ACADVER
  1
AC1009
  9
$LUNITS
 70
2
  9
$LUPREC
 70
4
  9
$LTSCALE
 40
1.0
  9
$EXTMIN
 10
16.0764
 20
-7.7766
 30
0
  9
$EXTMAX
 10
206.0763
 20
269.2235
 30
0
  0
ENDSEC
  0
SECTION
  2
TABLES
  0
TABLE
  2
LTYPE
 70
256
  0
ENDTAB
  0
TABLE
  2
LAYER
 70
9
  0
LAYER
  2
LAYER_1
 70
64
 62
7
  6
CONTINUOUS
  0
LAYER
  2
LAYER_2
 70
64
 62
7
  6
CONTINUOUS
  0
LAYER
  2
LAYER_3
 70
64
 62
7
  6
CONTINUOUS
  0
LAYER
  2
LAYER_4
 70
64
 62
7
  6
CONTINUOUS
  0
LAYER
  2
LAYER_5
 70
64
 62
7
  6
CONTINUOUS
  0
LAYER
  2
LAYER_6
 70
64
 62
7
  6
CONTINUOUS
  0
LAYER
  2
LAYER_7
 70
64
 62
7
  6
CONTINUOUS
  0
LAYER
  2
LAYER_8
 70
64
 62
7
  6
CONTINUOUS
  0
LAYER
  2
LAYER_9
 70
64
 62
7
  6
CONTINUOUS
  0
ENDTAB
  0
TABLE
  2
STYLE
 70
6
  0
STYLE
  2
STANDARD
 70
0
 40
0
 50
0
 71
0
 41
0
 42
0
  3
TXT
  4
BIGFONT
  0
ENDTAB
  0
ENDSEC
  0
SECTION
  2
BLOCKS
  0
BLOCK
  8
LAYER_9
  2
AIGNBL09040006
 70
64
 10
0
 20
0
 30
0
  3
AIGNBL09040006
  0
POLYLINE
  8
LAYER_9
 40
0.05
 41
0.05
 66
1
 10
0
 20
0
 30
0
 70
1
  0
VERTEX
  8
LAYER_9
 10
129.456
 20
-2.0154
  0
VERTEX
  8
LAYER_9
 10
129.0416
 20
-3.02
  0
VERTEX
  8
LAYER_9
 10
128.5093
 20
-3.02
  0
VERTEX
  8
LAYER_9
 10
129.8649
 20
0.1719
  0
VERTEX
  8
LAYER_9
 10
130.4864
 20
0.1719
  0
VERTEX
  8
LAYER_9
 10
131.8483
 20
-3.02
  0
VERTEX
  8
LAYER_9
 10
131.2971
 20
-3.02
  0
VERTEX
  8
LAYER_9
 10
130.8709
 20
-2.0154
  0
SEQEND
  0
POLYLINE
  8
LAYER_9
 40
0.05
 41
0.05
 66
1
 10
0
 20
0
 30
0
 70
1
  0
VERTEX
  8
LAYER_9
 10
130.7645
 20
-1.6943
  0
VERTEX
  8
LAYER_9
 10
130.3738
 20
-0.7748
 42
-0.02216005297
  0
VERTEX
  8
LAYER_9
 10
130.1664
 20
-0.1926
  0
VERTEX
  8
LAYER_9
 10
130.1547
 20
-0.1926
  0
VERTEX
  8
LAYER_9
 10
129.9531
 20
-0.771
  0
VERTEX
  8
LAYER_9
 10
129.5628
 20
-1.6943
  0
SEQEND
  0
ENDBLK
  0
BLOCK
  8
LAYER_9
  2
AIGNBL09040007
 70
64
 10
0
 20
0
 30
0
  3
AIGNBL09040007
  0
POLYLINE
  8
LAYER_9
 40
0.05
 41
0.05
 66
1
 10
0
 20
0
 30
0
 70
1
  0
VERTEX
  8
LAYER_9
 10
135.5483
 20
-3.4888
 42
-0.01552181083
  0
VERTEX
  8
LAYER_9
 10
134.0208
 20
-3.1192
 42
0.09485548057
  0
VERTEX
  8
LAYER_9
 10
133.7779
 20
-3.0723
 42
-0.1003837549
  0
VERTEX
  8
LAYER_9
 10
132.9136
 20
-2.8753
 42
-0.1096977777
  0
VERTEX
  8
LAYER_9
 10
132.3509
 20
-2.4434
 42
-0.1713220547
  0
VERTEX
  8
LAYER_9
 10
132.0204
 20
-1.5054
 42
-0.006481895679
  0
VERTEX
  8
LAYER_9
 10
132.0198
 20
-1.4576
 42
-0.1157034776
  0
VERTEX
  8
LAYER_9
 10
132.1944
 20
-0.6874
 42
-0.1679073219
  0
VERTEX
  8
LAYER_9
 10
132.9309
 20
0.0216
 42
-0.1003512093
  0
VERTEX
  8
LAYER_9
 10
133.7293
 20
0.2196
 42
-0.01509702754
  0
VERTEX
  8
LAYER_9
 10
133.8788
 20
0.2239
 42
-0.1039813645
  0
VERTEX
  8
LAYER_9
 10
134.7542
 20
0.0481
 42
-0.1145898629
  0
VERTEX
  8
LAYER_9
 10
135.3272
 20
-0.3876
 42
-0.1701856296
  0
VERTEX
  8
LAYER_9
 10
135.666
 20
-1.3471
 42
-0.006054360336
  0
VERTEX
  8
LAYER_9
 10
135.6665
 20
-1.3911
 42
-0.1147479258
  0
VERTEX
  8
LAYER_9
 10
135.4962
 20
-2.1585
 42
-0.1768882835
  0
VERTEX
  8
LAYER_9
 10
134.7691
 20
-2.8357
 42
-0.03553098636
  0
VERTEX
  8
LAYER_9
 10
134.5299
 20
-2.9208
  0
VERTEX
  8
LAYER_9
 10
134.5299
 20
-2.9397
 42
0.015518042
  0
VERTEX
  8
LAYER_9
 10
135.6965
 20
-3.1433
  0
SEQEND
  0
POLYLINE
  8
LAYER_9
 40
0.05
 41
0.05
 66
1
 10
0
 20
0
 30
0
 70
1
  0
VERTEX
  8
LAYER_9
 10
135.1221
 20
-1.4094
 42
0.1259362341
  0
VERTEX
  8
LAYER_9
 10
134.9462
 20
-0.7184
 42
0.276679865
  0
VERTEX
  8
LAYER_9
 10
133.8606
 20
-0.1123
 42
0.1289955121
  0
VERTEX
  8
LAYER_9
 10
133.1745
 20
-0.2827
 42
0.1986420642
  0
VERTEX
  8
LAYER_9
 10
132.6285
 20
-1.0068
 42
0.0720917222
  0
VERTEX
  8
LAYER_9
 10
132.5704
 20
-1.4473
 42
0.1267003761
  0
VERTEX
  8
LAYER_9
 10
132.7336
 20
-2.1134
 42
0.2778201673
  0
VERTEX
  8
LAYER_9
 10
133.8371
 20
-2.7364
 42
0.1289462616
  0
VERTEX
  8
LAYER_9
 10
134.5134
 20
-2.5677
 42
0.1974163715
  0
VERTEX
  8
LAYER_9
 10
135.0613
 20
-1.849
 42
0.07132768739
  0
SEQEND
  0
ENDBLK
  0
BLOCK
  8
LAYER_9
  2
AIGNBL09040008
 70
64
 10
0
 20
0
 30
0
  3
AIGNBL09040008
  0
POLYLINE
  8
LAYER_9
 40
0.05
 41
0.05
 66
1
 10
0
 20
0
 30
0
 70
1
  0
VERTEX
  8
LAYER_9
 10
136.7917
 20
0.1719
  0
VERTEX
  8
LAYER_9
 10
136.7917
 20
-1.7177
 42
0.1389690947
  0
VERTEX
  8
LAYER_9
 10
136.9577
 20
-2.374
 42
0.2427126428
  0
VERTEX
  8
LAYER_9
 10
137.6108
 20
-2.7319
 42
0.02279498975
  0
VERTEX
  8
LAYER_9
 10
137.7211
 20
-2.7364
 42
0.1446729725
  0
VERTEX
  8
LAYER_9
 10
138.3259
 20
-2.5761
 42
0.1656579644
  0
VERTEX
  8
LAYER_9
 10
138.6235
 20
-2.1745
 42
0.08655069697
  0
VERTEX
  8
LAYER_9
 10
138.692
 20
-1.7177
  0
VERTEX
  8
LAYER_9
 10
138.692
 20
0.1719
  0
VERTEX
  8
LAYER_9
 10
139.2128
 20
0.1719
  0
VERTEX
  8
LAYER_9
 10
139.2128
 20
-1.6895
 42
-0.1213820876
  0
VERTEX
  8
LAYER_9
 10
139.0452
 20
-2.4294
 42
-0.2016338535
  0
VERTEX
  8
LAYER_9
 10
138.3376
 20
-2.9837
 42
-0.07892789043
  0
VERTEX
  8
LAYER_9
 10
137.7032
 20
-3.0723
 42
-0.1140673463
  0
VERTEX
  8
LAYER_9
 10
136.8908
 20
-2.9015
 42
-0.2086854916
  0
VERTEX
  8
LAYER_9
 10
136.338
 20
-2.2193
 42
-0.07376116688
  0
VERTEX
  8
LAYER_9
 10
136.2707
 20
-1.7081
  0
VERTEX
  8
LAYER_9
 10
136.2707
 20
0.1719
  0
SEQEND
  0
ENDBLK
  0
BLOCK
  8
LAYER_9
  2
AIGNBL09040009
 70
64
 10
0
 20
0
 30
0
  3
AIGNBL09040009
  0
POLYLINE
  8
LAYER_9
 40
0.05
 41
0.05
 66
1
 10
0
 20
0
 30
0
 70
1
  0
VERTEX
  8
LAYER_9
 10
140.6932
 20
-2.0154
  0
VERTEX
  8
LAYER_9
 10
140.2784
 20
-3.02
  0
VERTEX
  8
LAYER_9
 10
139.7462
 20
-3.02
  0
VERTEX
  8
LAYER_9
 10
141.1018
 20
0.1719
  0
VERTEX
  8
LAYER_9
 10
141.723
 20
0.1719
  0
VERTEX
  8
LAYER_9
 10
143.0848
 20
-3.02
  0
VERTEX
  8
LAYER_9
 10
142.5343
 20
-3.02
  0
VERTEX
  8
LAYER_9
 10
142.1081
 20
-2.0154
  0
SEQEND
  0
POLYLINE
  8
LAYER_9
 40
0.05
 41
0.05
 66
1
 10
0
 20
0
 30
0
 70
1
  0
VERTEX
  8
LAYER_9
 10
142.0013
 20
-1.6943
  0
VERTEX
  8
LAYER_9
 10
141.6103
 20
-0.7748
 42
-0.02125651819
  0
VERTEX
  8
LAYER_9
 10
141.4029
 20
-0.1926
  0
VERTEX
  8
LAYER_9
 10
141.3912
 20
-0.1926
 42
-0.02103918769
  0
VERTEX
  8
LAYER_9
 10
141.19
 20
-0.771
  0
VERTEX
  8
LAYER_9
 10
140.7993
 20
-1.6943
  0
SEQEND
  0
ENDBLK
  0
BLOCK
  8
LAYER_9
  2
AIGNBL0904000A
 70
64
 10
0
 20
0
 30
0
  3
AIGNBL0904000A
  0
POLYLINE
  8
LAYER_9
 40
0.05
 41
0.05
 66
1
 10
0
 20
0
 30
0
 70
1
  0
VERTEX
  8
LAYER_9
 10
143.9667
 20
0.134
 42
-0.03323004622
  0
VERTEX
  8
LAYER_9
 10
144.9558
 20
0.196
 42
-0.09647193575
  0
VERTEX
  8
LAYER_9
 10
145.8857
 20
0.0378
 42
-0.05236720747
  0
VERTEX
  8
LAYER_9
 10
146.0744
 20
-0.0692
 42
-0.2475259652
  0
VERTEX
  8
LAYER_9
 10
146.4234
 20
-0.7372
 42
-0.1633402787
  0
VERTEX
  8
LAYER_9
 10
146.2524
 20
-1.2789
 42
-0.05697727427
  0
VERTEX
  8
LAYER_9
 10
146.1158
 20
-1.419
 42
-0.07156855431
  0
VERTEX
  8
LAYER_9
 10
145.8226
 20
-1.5999
 42
-0.09992408918
  0
VERTEX
  8
LAYER_9
 10
145.0131
 20
-1.7676
 42
-0.009805001523
  0
VERTEX
  8
LAYER_9
 10
144.8962
 20
-1.7697
 42
-0.05927523618
  0
VERTEX
  8
LAYER_9
 10
144.4821
 20
-1.7412
  0
VERTEX
  8
LAYER_9
 10
144.4821
 20
-3.02
  0
VERTEX
  8
LAYER_9
 10
143.9667
 20
-3.02
  0
SEQEND
  0
POLYLINE
  8
LAYER_9
 40
0.05
 41
0.05
 66
1
 10
0
 20
0
 30
0
 70
1
  0
VERTEX
  8
LAYER_9
 10
144.4821
 20
-1.4049
 42
0.04848394292
  0
VERTEX
  8
LAYER_9
 10
144.9079
 20
-1.4383
 42
0.1267241775
  0
VERTEX
  8
LAYER_9
 10
145.6171
 20
-1.2783
 42
0.1801713856
  0
VERTEX
  8
LAYER_9
 10
145.8819
 20
-0.948
 42
0.07354410889
  0
VERTEX
  8
LAYER_9
 10
145.9091
 20
-0.7562
 42
0.3108550011
  0
VERTEX
  8
LAYER_9
 10
145.5518
 20
-0.2329
 42
0.1110538748
  0
VERTEX
  8
LAYER_9
 10
144.9679
 20
-0.1313
 42
0.05507706355
  0
VERTEX
  8
LAYER_9
 10
144.4821
 20
-0.1643
  0
SEQEND
  0
ENDBLK
  0
BLOCK
  8
LAYER_9
  2
AIGNBL0904000B
 70
64
 10
0
 20
0
 30
0
  3
AIGNBL0904000B
  0
POLYLINE
  8
LAYER_9
 40
0.05
 41
0.05
 66
1
 10
0
 20
0
 30
0
 70
1
  0
VERTEX
  8
LAYER_9
 10
147.7391
 20
-0.0837
 42
-0.324457032
  0
VERTEX
  8
LAYER_9
 10
147.577
 20
-0.309
 42
-0.09625236779
  0
VERTEX
  8
LAYER_9
 10
147.407
 20
-0.3397
 42
-0.2676203371
  0
VERTEX
  8
LAYER_9
 10
147.1164
 20
-0.1839
 42
-0.1146645173
  0
VERTEX
  8
LAYER_9
 10
147.0932
 20
-0.0837
 42
-0.3123927637
  0
VERTEX
  8
LAYER_9
 10
147.2663
 20
0.1485
 42
-0.09437290663
  0
VERTEX
  8
LAYER_9
 10
147.4187
 20
0.1764
 42
-0.2690720095
  0
VERTEX
  8
LAYER_9
 10
147.7152
 20
0.0218
 42
-0.1137202002
  0
SEQEND
  0
POLYLINE
  8
LAYER_9
 40
0.05
 41
0.05
 66
1
 10
0
 20
0
 30
0
 70
1
  0
VERTEX
  8
LAYER_9
 10
147.1579
 20
-3.02
  0
VERTEX
  8
LAYER_9
 10
147.1579
 20
-0.7279
  0
VERTEX
  8
LAYER_9
 10
147.6788
 20
-0.7279
  0
VERTEX
  8
LAYER_9
 10
147.6788
 20
-3.02
  0
SEQEND
  0
ENDBLK
  0
BLOCK
  8
LAYER_9
  2
AIGNBL0904000C
 70
64
 10
0
 20
0
 30
0
  3
AIGNBL0904000C
  0
POLYLINE
  8
LAYER_9
 40
0.05
 41
0.05
 66
1
 10
0
 20
0
 30
0
 70
1
  0
VERTEX
  8
LAYER_9
 10
149.2653
 20
-2.0154
  0
VERTEX
  8
LAYER_9
 10
148.8515
 20
-3.02
  0
VERTEX
  8
LAYER_9
 10
148.3183
 20
-3.02
  0
VERTEX
  8
LAYER_9
 10
149.6742
 20
0.1719
  0
VERTEX
  8
LAYER_9
 10
150.2961
 20
0.1719
  0
VERTEX
  8
LAYER_9
 10
151.6579
 20
-3.02
  0
VERTEX
  8
LAYER_9
 10
151.1071
 20
-3.02
  0
VERTEX
  8
LAYER_9
 10
150.6809
 20
-2.0154
  0
SEQEND
  0
POLYLINE
  8
LAYER_9
 40
0.05
 41
0.05
 66
1
 10
0
 20
0
 30
0
 70
1
  0
VERTEX
  8
LAYER_9
 10
150.5741
 20
-1.6943
  0
VERTEX
  8
LAYER_9
 10
150.1834
 20
-0.7748
 42
-0.02374663041
  0
VERTEX
  8
LAYER_9
 10
149.9767
 20
-0.1926
  0
VERTEX
  8
LAYER_9
 10
149.9643
 20
-0.1926
  0
VERTEX
  8
LAYER_9
 10
149.7631
 20
-0.771
  0
VERTEX
  8
LAYER_9
 10
149.3725
 20
-1.6943
  0
SEQEND
  0
ENDBLK
  0
BLOCK
  8
LAYER_9
  2
AIGNBL09030005
 70
64
 10
0
 20
0
 30
0
  3
AIGNBL09030005
  0
INSERT
  8
LAYER_9
  2
AIGNBL09040006
 10
0
 20
0
 30
0
  0
INSERT
  8
LAYER_9
  2
AIGNBL09040007
 10
0
 20
0
 30
0
  0
INSERT
  8
LAYER_9
  2
AIGNBL09040008
 10
0
 20
0
 30
0
  0
INSERT
  8
LAYER_9
  2
AIGNBL09040009
 10
0
 20
0
 30
0
  0
INSERT
  8
LAYER_9
  2
AIGNBL0904000A
 10
0
 20
0
 30
0
  0
INSERT
  8
LAYER_9
  2
AIGNBL0904000B
 10
0
 20
0
 30
0
  0
INSERT
  8
LAYER_9
  2
AIGNBL0904000C
 10
0
 20
0
 30
0
  0
ENDBLK
  0
BLOCK
  8
LAYER_9
  2
AIGNBL0903000E
 70
64
 10
0
 20
0
 30
0
  3
AIGNBL0903000E
  0
POLYLINE
  8
LAYER_9
 40
0.05
 41
0.05
 66
1
 10
0
 20
0
 30
0
 70
1
  0
VERTEX
  8
LAYER_9
 10
128.6023
 20
-4.6299
  0
VERTEX
  8
LAYER_9
 10
129.0715
 20
-4.6299
  0
VERTEX
  8
LAYER_9
 10
129.0715
 20
-4.7094
  0
VERTEX
  8
LAYER_9
 10
128.5134
 20
-4.7094
  0
VERTEX
  8
LAYER_9
 10
128.5134
 20
-3.8337
  0
VERTEX
  8
LAYER_9
 10
129.0564
 20
-3.8337
  0
VERTEX
  8
LAYER_9
 10
129.0564
 20
-3.9126
  0
VERTEX
  8
LAYER_9
 10
128.6023
 20
-3.9126
  0
VERTEX
  8
LAYER_9
 10
128.6023
 20
-4.213
  0
VERTEX
  8
LAYER_9
 10
129.0267
 20
-4.213
  0
VERTEX
  8
LAYER_9
 10
129.0267
 20
-4.2922
  0
VERTEX
  8
LAYER_9
 10
128.6023
 20
-4.2922
  0
SEQEND
  0
ENDBLK
  0
BLOCK
  8
LAYER_9
  2
AIGNBL0903000F
 70
64
 10
0
 20
0
 30
0
  3
AIGNBL0903000F
  0
POLYLINE
  8
LAYER_9
 40
0.05
 41
0.05
 66
1
 10
0
 20
0
 30
0
 70
1
  0
VERTEX
  8
LAYER_9
 10
130.0376
 20
-4.5792
  0
VERTEX
  8
LAYER_9
 10
130.0396
 20
-4.5792
  0
VERTEX
  8
LAYER_9
 10
130.0396
 20
-3.8337
  0
VERTEX
  8
LAYER_9
 10
130.1288
 20
-3.8337
  0
VERTEX
  8
LAYER_9
 10
130.1288
 20
-4.7094
  0
VERTEX
  8
LAYER_9
 10
130.0179
 20
-4.7094
  0
VERTEX
  8
LAYER_9
 10
129.5084
 20
-3.956
  0
VERTEX
  8
LAYER_9
 10
129.5053
 20
-3.956
  0
VERTEX
  8
LAYER_9
 10
129.5053
 20
-4.7094
  0
VERTEX
  8
LAYER_9
 10
129.4167
 20
-4.7094
  0
VERTEX
  8
LAYER_9
 10
129.4167
 20
-3.8337
  0
VERTEX
  8
LAYER_9
 10
129.5277
 20
-3.8337
  0
SEQEND
  0
ENDBLK
  0
BLOCK
  8
LAYER_9
  2
AIGNBL09030010
 70
64
 10
0
 20
0
 30
0
  3
AIGNBL09030010
  0
POLYLINE
  8
LAYER_9
 40
0.05
 41
0.05
 66
1
 10
0
 20
0
 30
0
 70
1
  0
VERTEX
  8
LAYER_9
 10
130.5299
 20
-4.5296
 42
0.1582167888
  0
VERTEX
  8
LAYER_9
 10
130.576
 20
-4.6171
 42
0.1888509688
  0
VERTEX
  8
LAYER_9
 10
130.6718
 20
-4.6523
  0
VERTEX
  8
LAYER_9
 10
130.7476
 20
-4.6357
  0
VERTEX
  8
LAYER_9
 10
130.7951
 20
-4.5906
  0
VERTEX
  8
LAYER_9
 10
130.8196
 20
-4.5255
  0
VERTEX
  8
LAYER_9
 10
130.8268
 20
-4.4497
  0
VERTEX
  8
LAYER_9
 10
130.8268
 20
-3.8337
  0
VERTEX
  8
LAYER_9
 10
130.9157
 20
-3.8337
  0
VERTEX
  8
LAYER_9
 10
130.9157
 20
-4.4569
  0
VERTEX
  8
LAYER_9
 10
130.9061
 20
-4.5482
  0
VERTEX
  8
LAYER_9
 10
130.8709
 20
-4.6374
 42
-0.1127204021
  0
VERTEX
  8
LAYER_9
 10
130.7992
 20
-4.705
 42
-0.1223515967
  0
VERTEX
  8
LAYER_9
 10
130.6814
 20
-4.7315
 42
-0.1817315996
  0
VERTEX
  8
LAYER_9
 10
130.525
 20
-4.6805
 42
-0.1775350534
  0
VERTEX
  8
LAYER_9
 10
130.4468
 20
-4.5524
  0
SEQEND
  0
ENDBLK
  0
BLOCK
  8
LAYER_9
  2
AIGNBL09030011
 70
64
 10
0
 20
0
 30
0
  3
AIGNBL09030011
  0
POLYLINE
  8
LAYER_9
 40
0.05
 41
0.05
 66
1
 10
0
 20
0
 30
0
 70
1
  0
VERTEX
  8
LAYER_9
 10
132.1773
 20
-4.2712
 42
-0.1023210957
  0
VERTEX
  8
LAYER_9
 10
132.1425
 20
-4.4555
 42
-0.100049973
  0
VERTEX
  8
LAYER_9
 10
132.047
 20
-4.6009
 42
-0.09591375735
  0
VERTEX
  8
LAYER_9
 10
131.902
 20
-4.6967
 42
-0.09730113973
  0
VERTEX
  8
LAYER_9
 10
131.7208
 20
-4.7315
 42
-0.1005044879
  0
VERTEX
  8
LAYER_9
 10
131.5396
 20
-4.6967
 42
-0.1000956886
  0
VERTEX
  8
LAYER_9
 10
131.3949
 20
-4.6009
 42
-0.09705125056
  0
VERTEX
  8
LAYER_9
 10
131.2988
 20
-4.4555
 42
-0.09606953098
  0
VERTEX
  8
LAYER_9
 10
131.2643
 20
-4.2712
 42
-0.1007319707
  0
VERTEX
  8
LAYER_9
 10
131.2988
 20
-4.0869
 42
-0.1001858518
  0
VERTEX
  8
LAYER_9
 10
131.3949
 20
-3.9416
 42
-0.09844109675
  0
VERTEX
  8
LAYER_9
 10
131.5396
 20
-3.8458
 42
-0.09730113973
  0
VERTEX
  8
LAYER_9
 10
131.7208
 20
-3.811
 42
-0.1005044879
  0
VERTEX
  8
LAYER_9
 10
131.902
 20
-3.8458
 42
-0.09944636466
  0
VERTEX
  8
LAYER_9
 10
132.047
 20
-3.9416
 42
-0.09657751445
  0
VERTEX
  8
LAYER_9
 10
132.1425
 20
-4.0869
 42
-0.09699716326
  0
SEQEND
  0
POLYLINE
  8
LAYER_9
 40
0.05
 41
0.05
 66
1
 10
0
 20
0
 30
0
 70
1
  0
VERTEX
  8
LAYER_9
 10
132.0832
 20
-4.2719
 42
0.08590651275
  0
VERTEX
  8
LAYER_9
 10
132.0588
 20
-4.1262
 42
0.09671154951
  0
VERTEX
  8
LAYER_9
 10
131.9868
 20
-4.0046
 42
0.1020590541
  0
VERTEX
  8
LAYER_9
 10
131.8724
 20
-3.9215
 42
0.106231093
  0
VERTEX
  8
LAYER_9
 10
131.7208
 20
-3.8902
 42
0.1137246109
  0
VERTEX
  8
LAYER_9
 10
131.5692
 20
-3.9215
 42
0.1061646081
  0
VERTEX
  8
LAYER_9
 10
131.4552
 20
-4.0046
 42
0.09706696705
  0
VERTEX
  8
LAYER_9
 10
131.3832
 20
-4.1262
 42
0.08453380862
  0
VERTEX
  8
LAYER_9
 10
131.3584
 20
-4.2719
 42
0.08539697836
  0
VERTEX
  8
LAYER_9
 10
131.3832
 20
-4.4177
 42
0.1012181166
  0
VERTEX
  8
LAYER_9
 10
131.4552
 20
-4.5389
 42
0.09946553095
  0
VERTEX
  8
LAYER_9
 10
131.5692
 20
-4.6212
 42
0.1061791796
  0
VERTEX
  8
LAYER_9
 10
131.7208
 20
-4.6523
 42
0.1152832113
  0
VERTEX
  8
LAYER_9
 10
131.8724
 20
-4.6212
 42
0.10635245
  0
VERTEX
  8
LAYER_9
 10
131.9868
 20
-4.5389
 42
0.09368815098
  0
VERTEX
  8
LAYER_9
 10
132.0588
 20
-4.4177
 42
0.0834821187
  0
SEQEND
  0
ENDBLK
  0
BLOCK
  8
LAYER_9
  2
AIGNBL09030012
 70
64
 10
0
 20
0
 30
0
  3
AIGNBL09030012
  0
POLYLINE
  8
LAYER_9
 40
0.05
 41
0.05
 66
1
 10
0
 20
0
 30
0
 70
1
  0
VERTEX
  8
LAYER_9
 10
132.8339
 20
-4.7094
  0
VERTEX
  8
LAYER_9
 10
132.7451
 20
-4.7094
  0
VERTEX
  8
LAYER_9
 10
132.7451
 20
-4.3319
  0
VERTEX
  8
LAYER_9
 10
132.4174
 20
-3.8337
  0
VERTEX
  8
LAYER_9
 10
132.5287
 20
-3.8337
  0
VERTEX
  8
LAYER_9
 10
132.7922
 20
-4.2575
  0
VERTEX
  8
LAYER_9
 10
133.0579
 20
-3.8337
  0
VERTEX
  8
LAYER_9
 10
133.1615
 20
-3.8337
  0
VERTEX
  8
LAYER_9
 10
132.8339
 20
-4.3319
  0
SEQEND
  0
ENDBLK
  0
BLOCK
  8
LAYER_9
  2
AIGNBL09030013
 70
64
 10
0
 20
0
 30
0
  3
AIGNBL09030013
  0
POLYLINE
  8
LAYER_9
 40
0.05
 41
0.05
 66
1
 10
0
 20
0
 30
0
 70
1
  0
VERTEX
  8
LAYER_9
 10
133.9288
 20
-3.8337
  0
VERTEX
  8
LAYER_9
 10
134.1896
 20
-3.8337
  0
VERTEX
  8
LAYER_9
 10
134.2898
 20
-3.844
  0
VERTEX
  8
LAYER_9
 10
134.3804
 20
-3.8798
 42
-0.1156779106
  0
VERTEX
  8
LAYER_9
 10
134.4466
 20
-3.9488
 42
-0.1209575962
  0
VERTEX
  8
LAYER_9
 10
134.4717
 20
-4.0573
 42
-0.1791591056
  0
VERTEX
  8
LAYER_9
 10
134.4294
 20
-4.1779
 42
-0.1661642399
  0
VERTEX
  8
LAYER_9
 10
134.3164
 20
-4.2454
  0
VERTEX
  8
LAYER_9
 10
134.3164
 20
-4.2474
 42
-0.1711702155
  0
VERTEX
  8
LAYER_9
 10
134.4576
 20
-4.3139
 42
-0.1994341856
  0
VERTEX
  8
LAYER_9
 10
134.5137
 20
-4.4669
 42
-0.1266512869
  0
VERTEX
  8
LAYER_9
 10
134.4907
 20
-4.5661
 42
-0.1175617318
  0
VERTEX
  8
LAYER_9
 10
134.4259
 20
-4.6429
 42
-0.0864784881
  0
VERTEX
  8
LAYER_9
 10
134.3236
 20
-4.6919
 42
-0.06453463165
  0
VERTEX
  8
LAYER_9
 10
134.1882
 20
-4.7094
  0
VERTEX
  8
LAYER_9
 10
133.9288
 20
-4.7094
  0
SEQEND
  0
POLYLINE
  8
LAYER_9
 40
0.05
 41
0.05
 66
1
 10
0
 20
0
 30
0
 70
1
  0
VERTEX
  8
LAYER_9
 10
134.0177
 20
-4.2168
  0
VERTEX
  8
LAYER_9
 10
134.1972
 20
-4.2168
  0
VERTEX
  8
LAYER_9
 10
134.2622
 20
-4.2092
  0
VERTEX
  8
LAYER_9
 10
134.3219
 20
-4.1844
  0
VERTEX
  8
LAYER_9
 10
134.366
 20
-4.1365
 42
0.1124215474
  0
VERTEX
  8
LAYER_9
 10
134.3825
 20
-4.0635
  0
VERTEX
  8
LAYER_9
 10
134.366
 20
-3.9925
  0
VERTEX
  8
LAYER_9
 10
134.3208
 20
-3.9446
  0
VERTEX
  8
LAYER_9
 10
134.254
 20
-3.9181
  0
VERTEX
  8
LAYER_9
 10
134.1724
 20
-3.9102
  0
VERTEX
  8
LAYER_9
 10
134.0177
 20
-3.9102
  0
SEQEND
  0
POLYLINE
  8
LAYER_9
 40
0.05
 41
0.05
 66
1
 10
0
 20
0
 30
0
 70
1
  0
VERTEX
  8
LAYER_9
 10
134.0177
 20
-4.6326
  0
VERTEX
  8
LAYER_9
 10
134.1837
 20
-4.6326
  0
VERTEX
  8
LAYER_9
 10
134.2757
 20
-4.623
  0
VERTEX
  8
LAYER_9
 10
134.3525
 20
-4.5937
  0
VERTEX
  8
LAYER_9
 10
134.4046
 20
-4.5403
 42
0.1274798788
  0
VERTEX
  8
LAYER_9
 10
134.4245
 20
-4.4618
 42
0.2508484857
  0
VERTEX
  8
LAYER_9
 10
134.366
 20
-4.3326
 42
0.1505365177
  0
VERTEX
  8
LAYER_9
 10
134.1996
 20
-4.2898
  0
VERTEX
  8
LAYER_9
 10
134.0177
 20
-4.2898
  0
SEQEND
  0
ENDBLK
  0
BLOCK
  8
LAYER_9
  2
AIGNBL09030014
 70
64
 10
0
 20
0
 30
0
  3
AIGNBL09030014
  0
POLYLINE
  8
LAYER_9
 40
0.05
 41
0.05
 66
1
 10
0
 20
0
 30
0
 70
1
  0
VERTEX
  8
LAYER_9
 10
134.88
 20
-4.7094
  0
VERTEX
  8
LAYER_9
 10
134.7821
 20
-4.7094
  0
VERTEX
  8
LAYER_9
 10
135.1607
 20
-3.8337
  0
VERTEX
  8
LAYER_9
 10
135.2476
 20
-3.8337
  0
VERTEX
  8
LAYER_9
 10
135.6234
 20
-4.7094
  0
VERTEX
  8
LAYER_9
 10
135.5242
 20
-4.7094
  0
VERTEX
  8
LAYER_9
 10
135.4277
 20
-4.4793
  0
VERTEX
  8
LAYER_9
 10
134.975
 20
-4.4793
  0
SEQEND
  0
POLYLINE
  8
LAYER_9
 40
0.05
 41
0.05
 66
1
 10
0
 20
0
 30
0
 70
1
  0
VERTEX
  8
LAYER_9
 10
135.0081
 20
-4.3973
  0
VERTEX
  8
LAYER_9
 10
135.3943
 20
-4.3973
  0
VERTEX
  8
LAYER_9
 10
135.2014
 20
-3.9322
  0
SEQEND
  0
ENDBLK
  0
BLOCK
  8
LAYER_9
  2
AIGNBL09030015
 70
64
 10
0
 20
0
 30
0
  3
AIGNBL09030015
  0
POLYLINE
  8
LAYER_9
 40
0.05
 41
0.05
 66
1
 10
0
 20
0
 30
0
 70
1
  0
VERTEX
  8
LAYER_9
 10
136.2036
 20
-4.7094
  0
VERTEX
  8
LAYER_9
 10
136.1143
 20
-4.7094
  0
VERTEX
  8
LAYER_9
 10
136.1143
 20
-3.9126
  0
VERTEX
  8
LAYER_9
 10
135.8208
 20
-3.9126
  0
VERTEX
  8
LAYER_9
 10
135.8208
 20
-3.8337
  0
VERTEX
  8
LAYER_9
 10
136.4964
 20
-3.8337
  0
VERTEX
  8
LAYER_9
 10
136.4964
 20
-3.9126
  0
VERTEX
  8
LAYER_9
 10
136.2036
 20
-3.9126
  0
SEQEND
  0
ENDBLK
  0
BLOCK
  8
LAYER_9
  2
AIGNBL09030016
 70
64
 10
0
 20
0
 30
0
  3
AIGNBL09030016
  0
POLYLINE
  8
LAYER_9
 40
0.05
 41
0.05
 66
1
 10
0
 20
0
 30
0
 70
1
  0
VERTEX
  8
LAYER_9
 10
136.7982
 20
-3.8337
  0
VERTEX
  8
LAYER_9
 10
136.8871
 20
-3.8337
  0
VERTEX
  8
LAYER_9
 10
136.8871
 20
-4.213
  0
VERTEX
  8
LAYER_9
 10
137.3649
 20
-4.213
  0
VERTEX
  8
LAYER_9
 10
137.3649
 20
-3.8337
  0
VERTEX
  8
LAYER_9
 10
137.4538
 20
-3.8337
  0
VERTEX
  8
LAYER_9
 10
137.4538
 20
-4.7094
  0
VERTEX
  8
LAYER_9
 10
137.3649
 20
-4.7094
  0
VERTEX
  8
LAYER_9
 10
137.3649
 20
-4.2946
  0
VERTEX
  8
LAYER_9
 10
136.8871
 20
-4.2946
  0
VERTEX
  8
LAYER_9
 10
136.8871
 20
-4.7094
  0
VERTEX
  8
LAYER_9
 10
136.7982
 20
-4.7094
  0
SEQEND
  0
ENDBLK
  0
BLOCK
  8
LAYER_9
  2
AIGNBL09030017
 70
64
 10
0
 20
0
 30
0
  3
AIGNBL09030017
  0
POLYLINE
  8
LAYER_9
 40
0.05
 41
0.05
 66
1
 10
0
 20
0
 30
0
 70
1
  0
VERTEX
  8
LAYER_9
 10
137.9457
 20
-4.7094
  0
VERTEX
  8
LAYER_9
 10
137.8569
 20
-4.7094
  0
VERTEX
  8
LAYER_9
 10
137.8569
 20
-3.8337
  0
VERTEX
  8
LAYER_9
 10
138.1142
 20
-3.8337
  0
VERTEX
  8
LAYER_9
 10
138.2334
 20
-3.8458
  0
VERTEX
  8
LAYER_9
 10
138.3289
 20
-3.8861
 42
-0.1283108691
  0
VERTEX
  8
LAYER_9
 10
138.3912
 20
-3.9584
 42
-0.1051928432
  0
VERTEX
  8
LAYER_9
 10
138.4132
 20
-4.0673
  0
VERTEX
  8
LAYER_9
 10
138.3964
 20
-4.1551
  0
VERTEX
  8
LAYER_9
 10
138.3495
 20
-4.2237
  0
VERTEX
  8
LAYER_9
 10
138.2789
 20
-4.2702
  0
VERTEX
  8
LAYER_9
 10
138.1897
 20
-4.2922
  0
VERTEX
  8
LAYER_9
 10
138.4456
 20
-4.7094
  0
VERTEX
  8
LAYER_9
 10
138.3368
 20
-4.7094
  0
VERTEX
  8
LAYER_9
 10
138.0946
 20
-4.2998
  0
VERTEX
  8
LAYER_9
 10
137.9457
 20
-4.2998
  0
SEQEND
  0
POLYLINE
  8
LAYER_9
 40
0.05
 41
0.05
 66
1
 10
0
 20
0
 30
0
 70
1
  0
VERTEX
  8
LAYER_9
 10
137.9457
 20
-4.223
  0
VERTEX
  8
LAYER_9
 10
138.1008
 20
-4.223
 42
0.1560036385
  0
VERTEX
  8
LAYER_9
 10
138.2665
 20
-4.1844
 42
0.256718439
  0
VERTEX
  8
LAYER_9
 10
138.3247
 20
-4.0673
  0
VERTEX
  8
LAYER_9
 10
138.3082
 20
-3.9946
  0
VERTEX
  8
LAYER_9
 10
138.2637
 20
-3.946
  0
VERTEX
  8
LAYER_9
 10
138.1948
 20
-3.9188
  0
VERTEX
  8
LAYER_9
 10
138.1046
 20
-3.9102
  0
VERTEX
  8
LAYER_9
 10
137.9457
 20
-3.9102
  0
SEQEND
  0
ENDBLK
  0
BLOCK
  8
LAYER_9
  2
AIGNBL09030018
 70
64
 10
0
 20
0
 30
0
  3
AIGNBL09030018
  0
POLYLINE
  8
LAYER_9
 40
0.05
 41
0.05
 66
1
 10
0
 20
0
 30
0
 70
1
  0
VERTEX
  8
LAYER_9
 10
139.6342
 20
-4.2712
 42
-0.09919881555
  0
VERTEX
  8
LAYER_9
 10
139.5997
 20
-4.4555
 42
-0.1002507449
  0
VERTEX
  8
LAYER_9
 10
139.5036
 20
-4.6009
 42
-0.09817592867
  0
VERTEX
  8
LAYER_9
 10
139.3593
 20
-4.6967
 42
-0.09703887645
  0
VERTEX
  8
LAYER_9
 10
139.1777
 20
-4.7315
 42
-0.1005044879
  0
VERTEX
  8
LAYER_9
 10
138.9965
 20
-4.6967
 42
-0.1014225475
  0
VERTEX
  8
LAYER_9
 10
138.8522
 20
-4.6009
 42
-0.1006710624
  0
VERTEX
  8
LAYER_9
 10
138.7564
 20
-4.4555
 42
-0.09606953098
  0
VERTEX
  8
LAYER_9
 10
138.7219
 20
-4.2712
 42
-0.1007319707
  0
VERTEX
  8
LAYER_9
 10
138.7564
 20
-4.0869
 42
-0.1015908991
  0
VERTEX
  8
LAYER_9
 10
138.8522
 20
-3.9416
 42
-0.09884634081
  0
VERTEX
  8
LAYER_9
 10
138.9965
 20
-3.8458
 42
-0.09730113973
  0
VERTEX
  8
LAYER_9
 10
139.1777
 20
-3.811
 42
-0.1004491736
  0
VERTEX
  8
LAYER_9
 10
139.3593
 20
-3.8458
 42
-0.103270482
  0
VERTEX
  8
LAYER_9
 10
139.5036
 20
-3.9416
 42
-0.09614814713
  0
VERTEX
  8
LAYER_9
 10
139.5997
 20
-4.0869
 42
-0.09519358797
  0
SEQEND
  0
POLYLINE
  8
LAYER_9
 40
0.05
 41
0.05
 66
1
 10
0
 20
0
 30
0
 70
1
  0
VERTEX
  8
LAYER_9
 10
139.5402
 20
-4.2719
 42
0.09005809491
  0
VERTEX
  8
LAYER_9
 10
139.5154
 20
-4.1262
 42
0.09823469525
  0
VERTEX
  8
LAYER_9
 10
139.4437
 20
-4.0046
 42
0.1015931446
  0
VERTEX
  8
LAYER_9
 10
139.3293
 20
-3.9215
 42
0.1064387823
  0
VERTEX
  8
LAYER_9
 10
139.1777
 20
-3.8902
 42
0.1146236776
  0
VERTEX
  8
LAYER_9
 10
139.0265
 20
-3.9215
 42
0.1048939392
  0
VERTEX
  8
LAYER_9
 10
138.9117
 20
-4.0046
 42
0.09514694971
  0
VERTEX
  8
LAYER_9
 10
138.8401
 20
-4.1262
 42
0.08394620596
  0
VERTEX
  8
LAYER_9
 10
138.8157
 20
-4.2719
 42
0.08914187326
  0
VERTEX
  8
LAYER_9
 10
138.8401
 20
-4.4177
 42
0.09716720095
  0
VERTEX
  8
LAYER_9
 10
138.9117
 20
-4.5389
 42
0.09885574029
  0
VERTEX
  8
LAYER_9
 10
139.0265
 20
-4.6212
 42
0.1065525522
  0
VERTEX
  8
LAYER_9
 10
139.1777
 20
-4.6523
 42
0.1160974191
  0
VERTEX
  8
LAYER_9
 10
139.3293
 20
-4.6212
 42
0.1037742872
  0
VERTEX
  8
LAYER_9
 10
139.4437
 20
-4.5389
 42
0.09874351489
  0
VERTEX
  8
LAYER_9
 10
139.5154
 20
-4.4177
 42
0.08539015582
  0
SEQEND
  0
ENDBLK
  0
BLOCK
  8
LAYER_9
  2
AIGNBL09030019
 70
64
 10
0
 20
0
 30
0
  3
AIGNBL09030019
  0
POLYLINE
  8
LAYER_9
 40
0.05
 41
0.05
 66
1
 10
0
 20
0
 30
0
 70
1
  0
VERTEX
  8
LAYER_9
 10
140.8565
 20
-4.2712
 42
-0.1005579471
  0
VERTEX
  8
LAYER_9
 10
140.8217
 20
-4.4555
 42
-0.09829254072
  0
VERTEX
  8
LAYER_9
 10
140.7263
 20
-4.6009
 42
-0.09635359363
  0
VERTEX
  8
LAYER_9
 10
140.5812
 20
-4.6967
 42
-0.09730113973
  0
VERTEX
  8
LAYER_9
 10
140.4
 20
-4.7315
 42
-0.1010483144
  0
VERTEX
  8
LAYER_9
 10
140.2188
 20
-4.6967
 42
-0.1015483086
  0
VERTEX
  8
LAYER_9
 10
140.0741
 20
-4.6009
 42
-0.09705125056
  0
VERTEX
  8
LAYER_9
 10
139.978
 20
-4.4555
 42
-0.09594934368
  0
VERTEX
  8
LAYER_9
 10
139.9436
 20
-4.2712
 42
-0.1009359332
  0
VERTEX
  8
LAYER_9
 10
139.978
 20
-4.0869
 42
-0.1001858518
  0
VERTEX
  8
LAYER_9
 10
140.0741
 20
-3.9416
 42
-0.09916337287
  0
VERTEX
  8
LAYER_9
 10
140.2188
 20
-3.8458
 42
-0.09743363976
  0
VERTEX
  8
LAYER_9
 10
140.4
 20
-3.811
 42
-0.1005044879
  0
VERTEX
  8
LAYER_9
 10
140.5812
 20
-3.8458
 42
-0.09950324727
  0
VERTEX
  8
LAYER_9
 10
140.7263
 20
-3.9416
 42
-0.09627394303
  0
VERTEX
  8
LAYER_9
 10
140.8217
 20
-4.0869
 42
-0.09626911005
  0
SEQEND
  0
POLYLINE
  8
LAYER_9
 40
0.05
 41
0.05
 66
1
 10
0
 20
0
 30
0
 70
1
  0
VERTEX
  8
LAYER_9
 10
140.7625
 20
-4.2719
 42
0.08744350066
  0
VERTEX
  8
LAYER_9
 10
140.7377
 20
-4.1262
 42
0.0974662867
  0
VERTEX
  8
LAYER_9
 10
140.666
 20
-4.0046
 42
0.1015931446
  0
VERTEX
  8
LAYER_9
 10
140.5516
 20
-3.9215
 42
0.1060164095
  0
VERTEX
  8
LAYER_9
 10
140.4
 20
-3.8902
 42
0.1150639473
  0
VERTEX
  8
LAYER_9
 10
140.2485
 20
-3.9215
 42
0.1052132674
  0
VERTEX
  8
LAYER_9
 10
140.1341
 20
-4.0046
 42
0.09840570806
  0
VERTEX
  8
LAYER_9
 10
140.0624
 20
-4.1262
 42
0.08491299828
  0
VERTEX
  8
LAYER_9
 10
140.0376
 20
-4.2719
 42
0.08802482071
  0
VERTEX
  8
LAYER_9
 10
140.0624
 20
-4.4177
 42
0.1001537592
  0
VERTEX
  8
LAYER_9
 10
140.1341
 20
-4.5389
 42
0.1000329357
  0
VERTEX
  8
LAYER_9
 10
140.2485
 20
-4.6212
 42
0.1065438079
  0
VERTEX
  8
LAYER_9
 10
140.4
 20
-4.6523
 42
0.1150863754
  0
VERTEX
  8
LAYER_9
 10
140.5516
 20
-4.6212
 42
0.1037742872
  0
VERTEX
  8
LAYER_9
 10
140.666
 20
-4.5389
 42
0.0931574303
  0
VERTEX
  8
LAYER_9
 10
140.7377
 20
-4.4177
 42
0.08489455374
  0
SEQEND
  0
ENDBLK
  0
BLOCK
  8
LAYER_9
  2
AIGNBL0903001A
 70
64
 10
0
 20
0
 30
0
  3
AIGNBL0903001A
  0
POLYLINE
  8
LAYER_9
 40
0.05
 41
0.05
 66
1
 10
0
 20
0
 30
0
 70
1
  0
VERTEX
  8
LAYER_9
 10
141.6454
 20
-4.5582
  0
VERTEX
  8
LAYER_9
 10
141.6468
 20
-4.5582
  0
VERTEX
  8
LAYER_9
 10
141.9396
 20
-3.8337
  0
VERTEX
  8
LAYER_9
 10
142.0761
 20
-3.8337
  0
VERTEX
  8
LAYER_9
 10
142.0761
 20
-4.7094
  0
VERTEX
  8
LAYER_9
 10
141.9868
 20
-4.7094
  0
VERTEX
  8
LAYER_9
 10
141.9868
 20
-3.9488
  0
VERTEX
  8
LAYER_9
 10
141.9844
 20
-3.9488
  0
VERTEX
  8
LAYER_9
 10
141.6678
 20
-4.7094
  0
VERTEX
  8
LAYER_9
 10
141.621
 20
-4.7094
  0
VERTEX
  8
LAYER_9
 10
141.304
 20
-3.9488
  0
VERTEX
  8
LAYER_9
 10
141.3016
 20
-3.9488
  0
VERTEX
  8
LAYER_9
 10
141.3016
 20
-4.7094
  0
VERTEX
  8
LAYER_9
 10
141.2127
 20
-4.7094
  0
VERTEX
  8
LAYER_9
 10
141.2127
 20
-3.8337
  0
VERTEX
  8
LAYER_9
 10
141.3488
 20
-3.8337
  0
SEQEND
  0
ENDBLK
  0
BLOCK
  8
LAYER_9
  2
AIGNBL0903001B
 70
64
 10
0
 20
0
 30
0
  3
AIGNBL0903001B
  0
POLYLINE
  8
LAYER_9
 40
0.05
 41
0.05
 66
1
 10
0
 20
0
 30
0
 70
1
  0
VERTEX
  8
LAYER_9
 10
143.0479
 20
-4.6299
  0
VERTEX
  8
LAYER_9
 10
143.5168
 20
-4.6299
  0
VERTEX
  8
LAYER_9
 10
143.5168
 20
-4.7094
  0
VERTEX
  8
LAYER_9
 10
142.9587
 20
-4.7094
  0
VERTEX
  8
LAYER_9
 10
142.9587
 20
-3.8337
  0
VERTEX
  8
LAYER_9
 10
143.502
 20
-3.8337
  0
VERTEX
  8
LAYER_9
 10
143.502
 20
-3.9126
  0
VERTEX
  8
LAYER_9
 10
143.0479
 20
-3.9126
  0
VERTEX
  8
LAYER_9
 10
143.0479
 20
-4.213
  0
VERTEX
  8
LAYER_9
 10
143.472
 20
-4.213
  0
VERTEX
  8
LAYER_9
 10
143.472
 20
-4.2922
  0
VERTEX
  8
LAYER_9
 10
143.0479
 20
-4.2922
  0
SEQEND
  0
ENDBLK
  0
BLOCK
  8
LAYER_9
  2
AIGNBL0903001C
 70
64
 10
0
 20
0
 30
0
  3
AIGNBL0903001C
  0
POLYLINE
  8
LAYER_9
 40
0.05
 41
0.05
 66
1
 10
0
 20
0
 30
0
 70
1
  0
VERTEX
  8
LAYER_9
 10
144.1487
 20
-4.1872
  0
VERTEX
  8
LAYER_9
 10
144.3877
 20
-3.8337
  0
VERTEX
  8
LAYER_9
 10
144.4935
 20
-3.8337
  0
VERTEX
  8
LAYER_9
 10
144.2034
 20
-4.2502
  0
VERTEX
  8
LAYER_9
 10
144.5249
 20
-4.7094
  0
VERTEX
  8
LAYER_9
 10
144.4136
 20
-4.7094
  0
VERTEX
  8
LAYER_9
 10
144.1462
 20
-4.3146
  0
VERTEX
  8
LAYER_9
 10
143.8803
 20
-4.7094
  0
VERTEX
  8
LAYER_9
 10
143.769
 20
-4.7094
  0
VERTEX
  8
LAYER_9
 10
144.0908
 20
-4.2492
  0
VERTEX
  8
LAYER_9
 10
143.7976
 20
-3.8337
  0
VERTEX
  8
LAYER_9
 10
143.9089
 20
-3.8337
  0
SEQEND
  0
ENDBLK
  0
BLOCK
  8
LAYER_9
  2
AIGNBL0903001D
 70
64
 10
0
 20
0
 30
0
  3
AIGNBL0903001D
  0
POLYLINE
  8
LAYER_9
 40
0.05
 41
0.05
 66
1
 10
0
 20
0
 30
0
 70
1
  0
VERTEX
  8
LAYER_9
 10
144.8352
 20
-3.8337
  0
VERTEX
  8
LAYER_9
 10
145.083
 20
-3.8337
  0
VERTEX
  8
LAYER_9
 10
145.2042
 20
-3.8475
  0
VERTEX
  8
LAYER_9
 10
145.2972
 20
-3.8912
 42
-0.1196760771
  0
VERTEX
  8
LAYER_9
 10
145.3575
 20
-3.9639
 42
-0.1008071579
  0
VERTEX
  8
LAYER_9
 10
145.3782
 20
-4.0673
 42
-0.1226625575
  0
VERTEX
  8
LAYER_9
 10
145.3569
 20
-4.1706
 42
-0.1130948084
  0
VERTEX
  8
LAYER_9
 10
145.2962
 20
-4.2437
 42
-0.08414869483
  0
VERTEX
  8
LAYER_9
 10
145.2022
 20
-4.2874
  0
VERTEX
  8
LAYER_9
 10
145.0802
 20
-4.3022
  0
VERTEX
  8
LAYER_9
 10
144.9245
 20
-4.3022
  0
VERTEX
  8
LAYER_9
 10
144.9245
 20
-4.7094
  0
VERTEX
  8
LAYER_9
 10
144.8352
 20
-4.7094
  0
SEQEND
  0
POLYLINE
  8
LAYER_9
 40
0.05
 41
0.05
 66
1
 10
0
 20
0
 30
0
 70
1
  0
VERTEX
  8
LAYER_9
 10
144.9245
 20
-4.2268
  0
VERTEX
  8
LAYER_9
 10
145.075
 20
-4.2268
 42
0.1719973382
  0
VERTEX
  8
LAYER_9
 10
145.2349
 20
-4.1861
 42
0.2424570955
  0
VERTEX
  8
LAYER_9
 10
145.2893
 20
-4.0673
 42
0.2605346944
  0
VERTEX
  8
LAYER_9
 10
145.2332
 20
-3.9477
 42
0.1395217604
  0
VERTEX
  8
LAYER_9
 10
145.075
 20
-3.9102
  0
VERTEX
  8
LAYER_9
 10
144.9245
 20
-3.9102
  0
SEQEND
  0
ENDBLK
  0
BLOCK
  8
LAYER_9
  2
AIGNBL0903001E
 70
64
 10
0
 20
0
 30
0
  3
AIGNBL0903001E
  0
POLYLINE
  8
LAYER_9
 40
0.05
 41
0.05
 66
1
 10
0
 20
0
 30
0
 70
1
  0
VERTEX
  8
LAYER_9
 10
145.8123
 20
-4.6299
  0
VERTEX
  8
LAYER_9
 10
146.2812
 20
-4.6299
  0
VERTEX
  8
LAYER_9
 10
146.2812
 20
-4.7094
  0
VERTEX
  8
LAYER_9
 10
145.7234
 20
-4.7094
  0
VERTEX
  8
LAYER_9
 10
145.7234
 20
-3.8337
  0
VERTEX
  8
LAYER_9
 10
146.2664
 20
-3.8337
  0
VERTEX
  8
LAYER_9
 10
146.2664
 20
-3.9126
  0
VERTEX
  8
LAYER_9
 10
145.8123
 20
-3.9126
  0
VERTEX
  8
LAYER_9
 10
145.8123
 20
-4.213
  0
VERTEX
  8
LAYER_9
 10
146.2367
 20
-4.213
  0
VERTEX
  8
LAYER_9
 10
146.2367
 20
-4.2922
  0
VERTEX
  8
LAYER_9
 10
145.8123
 20
-4.2922
  0
SEQEND
  0
ENDBLK
  0
BLOCK
  8
LAYER_9
  2
AIGNBL0903001F
 70
64
 10
0
 20
0
 30
0
  3
AIGNBL0903001F
  0
POLYLINE
  8
LAYER_9
 40
0.05
 41
0.05
 66
1
 10
0
 20
0
 30
0
 70
1
  0
VERTEX
  8
LAYER_9
 10
146.7152
 20
-4.7094
  0
VERTEX
  8
LAYER_9
 10
146.6264
 20
-4.7094
  0
VERTEX
  8
LAYER_9
 10
146.6264
 20
-3.8337
  0
VERTEX
  8
LAYER_9
 10
146.8837
 20
-3.8337
  0
VERTEX
  8
LAYER_9
 10
147.0029
 20
-3.8458
  0
VERTEX
  8
LAYER_9
 10
147.0983
 20
-3.8861
 42
-0.1251490281
  0
VERTEX
  8
LAYER_9
 10
147.1607
 20
-3.9584
 42
-0.1051928432
  0
VERTEX
  8
LAYER_9
 10
147.1827
 20
-4.0673
  0
VERTEX
  8
LAYER_9
 10
147.1659
 20
-4.1551
  0
VERTEX
  8
LAYER_9
 10
147.1187
 20
-4.2237
  0
VERTEX
  8
LAYER_9
 10
147.048
 20
-4.2702
  0
VERTEX
  8
LAYER_9
 10
146.9591
 20
-4.2922
  0
VERTEX
  8
LAYER_9
 10
147.2151
 20
-4.7094
  0
VERTEX
  8
LAYER_9
 10
147.1062
 20
-4.7094
  0
VERTEX
  8
LAYER_9
 10
146.8637
 20
-4.2998
  0
VERTEX
  8
LAYER_9
 10
146.7152
 20
-4.2998
  0
SEQEND
  0
POLYLINE
  8
LAYER_9
 40
0.05
 41
0.05
 66
1
 10
0
 20
0
 30
0
 70
1
  0
VERTEX
  8
LAYER_9
 10
146.7152
 20
-4.223
  0
VERTEX
  8
LAYER_9
 10
146.8699
 20
-4.223
 42
0.1572399812
  0
VERTEX
  8
LAYER_9
 10
147.036
 20
-4.1844
 42
0.2567768408
  0
VERTEX
  8
LAYER_9
 10
147.0939
 20
-4.0673
  0
VERTEX
  8
LAYER_9
 10
147.078
 20
-3.9946
  0
VERTEX
  8
LAYER_9
 10
147.0332
 20
-3.946
  0
VERTEX
  8
LAYER_9
 10
146.964
 20
-3.9188
  0
VERTEX
  8
LAYER_9
 10
146.8737
 20
-3.9102
  0
VERTEX
  8
LAYER_9
 10
146.7152
 20
-3.9102
  0
SEQEND
  0
ENDBLK
  0
BLOCK
  8
LAYER_9
  2
AIGNBL09030020
 70
64
 10
0
 20
0
 30
0
  3
AIGNBL09030020
  0
POLYLINE
  8
LAYER_9
 40
0.05
 41
0.05
 66
1
 10
0
 20
0
 30
0
 70
1
  0
VERTEX
  8
LAYER_9
 10
147.6268
 20
-4.7094
  0
VERTEX
  8
LAYER_9
 10
147.5383
 20
-4.7094
  0
VERTEX
  8
LAYER_9
 10
147.5383
 20
-3.8337
  0
VERTEX
  8
LAYER_9
 10
147.6268
 20
-3.8337
  0
SEQEND
  0
ENDBLK
  0
BLOCK
  8
LAYER_9
  2
AIGNBL09030021
 70
64
 10
0
 20
0
 30
0
  3
AIGNBL09030021
  0
POLYLINE
  8
LAYER_9
 40
0.05
 41
0.05
 66
1
 10
0
 20
0
 30
0
 70
1
  0
VERTEX
  8
LAYER_9
 10
148.1191
 20
-4.6299
  0
VERTEX
  8
LAYER_9
 10
148.588
 20
-4.6299
  0
VERTEX
  8
LAYER_9
 10
148.588
 20
-4.7094
  0
VERTEX
  8
LAYER_9
 10
148.0302
 20
-4.7094
  0
VERTEX
  8
LAYER_9
 10
148.0302
 20
-3.8337
  0
VERTEX
  8
LAYER_9
 10
148.5732
 20
-3.8337
  0
VERTEX
  8
LAYER_9
 10
148.5732
 20
-3.9126
  0
VERTEX
  8
LAYER_9
 10
148.1191
 20
-3.9126
  0
VERTEX
  8
LAYER_9
 10
148.1191
 20
-4.213
  0
VERTEX
  8
LAYER_9
 10
148.5436
 20
-4.213
  0
VERTEX
  8
LAYER_9
 10
148.5436
 20
-4.2922
  0
VERTEX
  8
LAYER_9
 10
148.1191
 20
-4.2922
  0
SEQEND
  0
ENDBLK
  0
BLOCK
  8
LAYER_9
  2
AIGNBL09030022
 70
64
 10
0
 20
0
 30
0
  3
AIGNBL09030022
  0
POLYLINE
  8
LAYER_9
 40
0.05
 41
0.05
 66
1
 10
0
 20
0
 30
0
 70
1
  0
VERTEX
  8
LAYER_9
 10
149.554
 20
-4.5792
  0
VERTEX
  8
LAYER_9
 10
149.5564
 20
-4.5792
  0
VERTEX
  8
LAYER_9
 10
149.5564
 20
-3.8337
  0
VERTEX
  8
LAYER_9
 10
149.6456
 20
-3.8337
  0
VERTEX
  8
LAYER_9
 10
149.6456
 20
-4.7094
  0
VERTEX
  8
LAYER_9
 10
149.5344
 20
-4.7094
  0
VERTEX
  8
LAYER_9
 10
149.0248
 20
-3.956
  0
VERTEX
  8
LAYER_9
 10
149.0221
 20
-3.956
  0
VERTEX
  8
LAYER_9
 10
149.0221
 20
-4.7094
  0
VERTEX
  8
LAYER_9
 10
148.9332
 20
-4.7094
  0
VERTEX
  8
LAYER_9
 10
148.9332
 20
-3.8337
  0
VERTEX
  8
LAYER_9
 10
149.0445
 20
-3.8337
  0
SEQEND
  0
ENDBLK
  0
BLOCK
  8
LAYER_9
  2
AIGNBL09030023
 70
64
 10
0
 20
0
 30
0
  3
AIGNBL09030023
  0
POLYLINE
  8
LAYER_9
 40
0.05
 41
0.05
 66
1
 10
0
 20
0
 30
0
 70
1
  0
VERTEX
  8
LAYER_9
 10
150.7863
 20
-4.5672
  0
VERTEX
  8
LAYER_9
 10
150.7322
 20
-4.6302
  0
VERTEX
  8
LAYER_9
 10
150.6592
 20
-4.6826
  0
VERTEX
  8
LAYER_9
 10
150.5676
 20
-4.7184
  0
VERTEX
  8
LAYER_9
 10
150.4583
 20
-4.7315
 42
-0.1002604889
  0
VERTEX
  8
LAYER_9
 10
150.2751
 20
-4.6967
 42
-0.103618762
  0
VERTEX
  8
LAYER_9
 10
150.1307
 20
-4.6009
 42
-0.1006399092
  0
VERTEX
  8
LAYER_9
 10
150.036
 20
-4.4555
 42
-0.09570873126
  0
VERTEX
  8
LAYER_9
 10
150.0018
 20
-4.2712
 42
-0.1025357642
  0
VERTEX
  8
LAYER_9
 10
150.0367
 20
-4.0869
 42
-0.09974197432
  0
VERTEX
  8
LAYER_9
 10
150.1321
 20
-3.9416
 42
-0.09791826644
  0
VERTEX
  8
LAYER_9
 10
150.2768
 20
-3.8458
 42
-0.09710431873
  0
VERTEX
  8
LAYER_9
 10
150.4583
 20
-3.811
  0
VERTEX
  8
LAYER_9
 10
150.5527
 20
-3.8213
  0
VERTEX
  8
LAYER_9
 10
150.6402
 20
-3.8495
  0
VERTEX
  8
LAYER_9
 10
150.7143
 20
-3.8933
  0
VERTEX
  8
LAYER_9
 10
150.7701
 20
-3.9508
  0
VERTEX
  8
LAYER_9
 10
150.696
 20
-4.0056
  0
VERTEX
  8
LAYER_9
 10
150.6592
 20
-3.9632
  0
VERTEX
  8
LAYER_9
 10
150.6055
 20
-3.926
  0
VERTEX
  8
LAYER_9
 10
150.5379
 20
-3.9002
  0
VERTEX
  8
LAYER_9
 10
150.4594
 20
-3.8902
 42
0.113658286
  0
VERTEX
  8
LAYER_9
 10
150.3068
 20
-3.9212
 42
0.1043770607
  0
VERTEX
  8
LAYER_9
 10
150.1924
 20
-4.0042
 42
0.09614808583
  0
VERTEX
  8
LAYER_9
 10
150.1204
 20
-4.1258
 42
0.08382976821
  0
VERTEX
  8
LAYER_9
 10
150.0959
 20
-4.2712
 42
0.09237333632
  0
VERTEX
  8
LAYER_9
 10
150.1214
 20
-4.4166
 42
0.09906074874
  0
VERTEX
  8
LAYER_9
 10
150.1938
 20
-4.5382
 42
0.1047661843
  0
VERTEX
  8
LAYER_9
 10
150.3081
 20
-4.6212
 42
0.1066098621
  0
VERTEX
  8
LAYER_9
 10
150.4594
 20
-4.6523
 42
0.1116904268
  0
VERTEX
  8
LAYER_9
 10
150.6027
 20
-4.6212
 42
0.1367806879
  0
VERTEX
  8
LAYER_9
 10
150.7167
 20
-4.5224
  0
SEQEND
  0
ENDBLK
  0
BLOCK
  8
LAYER_9
  2
AIGNBL09030024
 70
64
 10
0
 20
0
 30
0
  3
AIGNBL09030024
  0
POLYLINE
  8
LAYER_9
 40
0.05
 41
0.05
 66
1
 10
0
 20
0
 30
0
 70
1
  0
VERTEX
  8
LAYER_9
 10
151.199
 20
-4.6299
  0
VERTEX
  8
LAYER_9
 10
151.6679
 20
-4.6299
  0
VERTEX
  8
LAYER_9
 10
151.6679
 20
-4.7094
  0
VERTEX
  8
LAYER_9
 10
151.1102
 20
-4.7094
  0
VERTEX
  8
LAYER_9
 10
151.1102
 20
-3.8337
  0
VERTEX
  8
LAYER_9
 10
151.6531
 20
-3.8337
  0
VERTEX
  8
LAYER_9
 10
151.6531
 20
-3.9126
  0
VERTEX
  8
LAYER_9
 10
151.199
 20
-3.9126
  0
VERTEX
  8
LAYER_9
 10
151.199
 20
-4.213
  0
VERTEX
  8
LAYER_9
 10
151.6235
 20
-4.213
  0
VERTEX
  8
LAYER_9
 10
151.6235
 20
-4.2922
  0
VERTEX
  8
LAYER_9
 10
151.199
 20
-4.2922
  0
SEQEND
  0
ENDBLK
  0
BLOCK
  8
LAYER_9
  2
AIGNBL09020004
 70
64
 10
0
 20
0
 30
0
  3
AIGNBL09020004
  0
INSERT
  8
LAYER_9
  2
AIGNBL09030005
 10
0
 20
0
 30
0
  0
ENDBLK
  0
BLOCK
  8
LAYER_9
  2
AIGNBL0902000D
 70
64
 10
0
 20
0
 30
0
  3
AIGNBL0902000D
  0
INSERT
  8
LAYER_9
  2
AIGNBL0903000E
 10
0
 20
0
 30
0
  0
INSERT
  8
LAYER_9
  2
AIGNBL0903000F
 10
0
 20
0
 30
0
  0
INSERT
  8
LAYER_9
  2
AIGNBL09030010
 10
0
 20
0
 30
0
  0
INSERT
  8
LAYER_9
  2
AIGNBL09030011
 10
0
 20
0
 30
0
  0
INSERT
  8
LAYER_9
  2
AIGNBL09030012
 10
0
 20
0
 30
0
  0
INSERT
  8
LAYER_9
  2
AIGNBL09030013
 10
0
 20
0
 30
0
  0
INSERT
  8
LAYER_9
  2
AIGNBL09030014
 10
0
 20
0
 30
0
  0
INSERT
  8
LAYER_9
  2
AIGNBL09030015
 10
0
 20
0
 30
0
  0
INSERT
  8
LAYER_9
  2
AIGNBL09030016
 10
0
 20
0
 30
0
  0
INSERT
  8
LAYER_9
  2
AIGNBL09030017
 10
0
 20
0
 30
0
  0
INSERT
  8
LAYER_9
  2
AIGNBL09030018
 10
0
 20
0
 30
0
  0
INSERT
  8
LAYER_9
  2
AIGNBL09030019
 10
0
 20
0
 30
0
  0
INSERT
  8
LAYER_9
  2
AIGNBL0903001A
 10
0
 20
0
 30
0
  0
INSERT
  8
LAYER_9
  2
AIGNBL0903001B
 10
0
 20
0
 30
0
  0
INSERT
  8
LAYER_9
  2
AIGNBL0903001C
 10
0
 20
0
 30
0
  0
INSERT
  8
LAYER_9
  2
AIGNBL0903001D
 10
0
 20
0
 30
0
  0
INSERT
  8
LAYER_9
  2
AIGNBL0903001E
 10
0
 20
0
 30
0
  0
INSERT
  8
LAYER_9
  2
AIGNBL0903001F
 10
0
 20
0
 30
0
  0
INSERT
  8
LAYER_9
  2
AIGNBL09030020
 10
0
 20
0
 30
0
  0
INSERT
  8
LAYER_9
  2
AIGNBL09030021
 10
0
 20
0
 30
0
  0
INSERT
  8
LAYER_9
  2
AIGNBL09030022
 10
0
 20
0
 30
0
  0
INSERT
  8
LAYER_9
  2
AIGNBL09030023
 10
0
 20
0
 30
0
  0
INSERT
  8
LAYER_9
  2
AIGNBL09030024
 10
0
 20
0
 30
0
  0
ENDBLK
  0
BLOCK
  8
LAYER_9
  2
AIGNBL09010002
 70
64
 10
0
 20
0
 30
0
  3
AIGNBL09010002
  0
POLYLINE
  8
LAYER_9
 40
0.7056
 41
0.7056
 66
1
 10
0
 20
0
 30
0
 70
1
  0
VERTEX
  8
LAYER_9
 10
206.0763
 20
269.2235
  0
VERTEX
  8
LAYER_9
 10
206.0763
 20
-7.7766
  0
VERTEX
  8
LAYER_9
 10
16.0764
 20
-7.7766
  0
VERTEX
  8
LAYER_9
 10
16.0764
 20
269.2235
  0
SEQEND
  0
ENDBLK
  0
BLOCK
  8
LAYER_9
  2
AIGNBL09010003
 70
64
 10
0
 20
0
 30
0
  3
AIGNBL09010003
  0
INSERT
  8
LAYER_9
  2
AIGNBL09020004
 10
0
 20
0
 30
0
  0
INSERT
  8
LAYER_9
  2
AIGNBL0902000D
 10
0
 20
0
 30
0
  0
ENDBLK
  0
ENDSEC
  0
SECTION
  2
ENTITIES
  0
POLYLINE
  8
LAYER_1
 40
0.1905
 41
0.1905
 66
1
 10
0
 20
0
 30
0
  0
VERTEX
  8
LAYER_1
 10
143.3101
 20
131.4601
  0
VERTEX
  8
LAYER_1
 10
141.648
 20
131.4601
  0
SEQEND
  0
POLYLINE
  8
LAYER_1
 40
0.1905
 41
0.1905
 66
1
 10
0
 20
0
 30
0
  0
VERTEX
  8
LAYER_1
 10
138.3027
 20
131.4601
  0
VERTEX
  8
LAYER_1
 10
136.63
 20
131.4601
  0
SEQEND
  0
POLYLINE
  8
LAYER_1
 40
0.1905
 41
0.1905
 66
1
 10
0
 20
0
 30
0
  0
VERTEX
  8
LAYER_1
 10
143.4477
 20
124.3142
  0
VERTEX
  8
LAYER_1
 10
143.4477
 20
131.9576
  0
SEQEND
  0
POLYLINE
  8
LAYER_1
 40
0.1905
 41
0.1905
 66
1
 10
0
 20
0
 30
0
  0
VERTEX
  8
LAYER_1
 10
132.4484
 20
101.8815
  0
VERTEX
  8
LAYER_1
 10
132.4484
 20
128.6653
  0
SEQEND
  0
POLYLINE
  8
LAYER_1
 40
0.1905
 41
0.1905
 66
1
 10
0
 20
0
 30
0
  0
VERTEX
  8
LAYER_1
 10
125.6307
 20
129.2581
  0
VERTEX
  8
LAYER_1
 10
152.4462
 20
129.2581
  0
SEQEND
  0
POLYLINE
  8
LAYER_1
 40
0.1905
 41
0.1905
 66
1
 10
0
 20
0
 30
0
  0
VERTEX
  8
LAYER_1
 10
152.4462
 20
92.2795
  0
VERTEX
  8
LAYER_1
 10
121.8725
 20
92.2795
  0
SEQEND
  0
POLYLINE
  8
LAYER_1
 40
0.1905
 41
0.1905
 66
1
 10
0
 20
0
 30
0
  0
VERTEX
  8
LAYER_1
 10
151.9487
 20
92.2795
  0
VERTEX
  8
LAYER_1
 10
151.9487
 20
129.2581
  0
SEQEND
  0
POLYLINE
  8
LAYER_1
 40
0.1905
 41
0.1905
 66
1
 10
0
 20
0
 30
0
  0
VERTEX
  8
LAYER_1
 10
152.4462
 20
92.2795
  0
VERTEX
  8
LAYER_1
 10
121.8725
 20
92.2795
  0
SEQEND
  0
POLYLINE
  8
LAYER_1
 40
0.1905
 41
0.1905
 66
1
 10
0
 20
0
 30
0
  0
VERTEX
  8
LAYER_1
 10
121.2796
 20
129.2581
  0
VERTEX
  8
LAYER_1
 10
148.1058
 20
129.2581
  0
SEQEND
  0
POLYLINE
  8
LAYER_1
 40
0.1905
 41
0.1905
 66
1
 10
0
 20
0
 30
0
  0
VERTEX
  8
LAYER_1
 10
147.5976
 20
115.2734
  0
VERTEX
  8
LAYER_1
 10
147.5976
 20
129.2581
  0
SEQEND
  0
POLYLINE
  8
LAYER_1
 40
0.1905
 41
0.1905
 66
1
 10
0
 20
0
 30
0
  0
VERTEX
  8
LAYER_1
 10
134.1634
 20
101.278
  0
VERTEX
  8
LAYER_1
 10
152.4462
 20
101.278
  0
SEQEND
  0
POLYLINE
  8
LAYER_1
 40
0.1905
 41
0.1905
 66
1
 10
0
 20
0
 30
0
  0
VERTEX
  8
LAYER_1
 10
147.5976
 20
101.278
  0
VERTEX
  8
LAYER_1
 10
147.5976
 20
115.2734
  0
SEQEND
  0
POLYLINE
  8
LAYER_1
 40
0.1905
 41
0.1905
 66
1
 10
0
 20
0
 30
0
  0
VERTEX
  8
LAYER_1
 10
121.2796
 20
129.2581
  0
VERTEX
  8
LAYER_1
 10
148.1058
 20
129.2581
  0
SEQEND
  0
POLYLINE
  8
LAYER_1
 40
0.1905
 41
0.1905
 66
1
 10
0
 20
0
 30
0
  0
VERTEX
  8
LAYER_1
 10
52.4993
 20
165.9403
  0
VERTEX
  8
LAYER_1
 10
52.4993
 20
168.9892
  0
SEQEND
  0
POLYLINE
  8
LAYER_1
 40
0.1905
 41
0.1905
 66
1
 10
0
 20
0
 30
0
  0
VERTEX
  8
LAYER_1
 10
89.499
 20
165.7179
  0
VERTEX
  8
LAYER_1
 10
89.499
 20
168.9892
  0
SEQEND
  0
POLYLINE
  8
LAYER_1
 40
0.1905
 41
0.1905
 66
1
 10
0
 20
0
 30
0
  0
VERTEX
  8
LAYER_1
 10
89.499
 20
167.2953
  0
VERTEX
  8
LAYER_1
 10
52.4993
 20
167.2953
  0
SEQEND
  0
TEXT
  8
LAYER_1
 10
68.4744
 20
168.5648
 11
68.4744
 21
168.5648
 40
2.9618
 41
0.5
  1
370
  0
POLYLINE
  8
LAYER_1
 40
0.1905
 41
0.1905
 66
1
 10
0
 20
0
 30
0
  0
VERTEX
  8
LAYER_1
 10
153.7484
 20
152.1249
  0
VERTEX
  8
LAYER_1
 10
145.2474
 20
152.1249
  0
SEQEND
  0
POLYLINE
  8
LAYER_1
 40
0.1905
 41
0.1905
 66
1
 10
0
 20
0
 30
0
  0
VERTEX
  8
LAYER_1
 10
153.7484
 20
163.6218
  0
VERTEX
  8
LAYER_1
 10
145.2474
 20
163.6218
  0
SEQEND
  0
POLYLINE
  8
LAYER_1
 40
0.1905
 41
0.1905
 66
1
 10
0
 20
0
 30
0
  0
VERTEX
  8
LAYER_1
 10
151.1123
 20
152.1249
  0
VERTEX
  8
LAYER_1
 10
151.1123
 20
163.6218
  0
SEQEND
  0
TEXT
  8
LAYER_1
 10
149.79
 20
154.6125
 11
149.79
 21
154.6125
 40
2.9618
 41
0.5
 50
89.99999999
  1
115
  0
POLYLINE
  8
LAYER_1
 40
0.1905
 41
0.1905
 66
1
 10
0
 20
0
 30
0
  0
VERTEX
  8
LAYER_1
 10
98.4658
 20
84.8055
  0
VERTEX
  8
LAYER_1
 10
98.4658
 20
109.165
  0
SEQEND
  0
POLYLINE
  8
LAYER_1
 40
0.1905
 41
0.1905
 66
1
 10
0
 20
0
 30
0
  0
VERTEX
  8
LAYER_1
 10
143.4477
 20
84.8055
  0
VERTEX
  8
LAYER_1
 10
143.4477
 20
109.165
  0
SEQEND
  0
POLYLINE
  8
LAYER_1
 40
0.1905
 41
0.1905
 66
1
 10
0
 20
0
 30
0
  0
VERTEX
  8
LAYER_1
 10
143.4477
 20
85.303
  0
VERTEX
  8
LAYER_1
 10
98.4658
 20
85.303
  0
SEQEND
  0
TEXT
  8
LAYER_1
 10
117.5532
 20
86.5722
 11
117.5532
 21
86.5722
 40
2.9618
 41
0.5
  1
450
  0
POLYLINE
  8
LAYER_1
 40
0.1905
 41
0.1905
 66
1
 10
0
 20
0
 30
0
  0
VERTEX
  8
LAYER_1
 10
98.4658
 20
110.1601
  0
VERTEX
  8
LAYER_1
 10
98.4658
 20
136.5416
  0
SEQEND
  0
POLYLINE
  8
LAYER_1
 40
0.1905
 41
0.1905
 66
1
 10
0
 20
0
 30
0
  0
VERTEX
  8
LAYER_1
 10
116.9498
 20
111.2717
  0
VERTEX
  8
LAYER_1
 10
116.9498
 20
136.5416
  0
SEQEND
  0
POLYLINE
  8
LAYER_1
 40
0.1905
 41
0.1905
 66
1
 10
0
 20
0
 30
0
  0
VERTEX
  8
LAYER_1
 10
116.9498
 20
136.044
  0
VERTEX
  8
LAYER_1
 10
98.4658
 20
136.044
  0
SEQEND
  0
POLYLINE
  8
LAYER_1
 40
0.1905
 41
0.1905
 66
1
 10
0
 20
0
 30
0
  0
VERTEX
  8
LAYER_1
 10
116.9498
 20
111.2717
  0
VERTEX
  8
LAYER_1
 10
116.9498
 20
136.5416
  0
SEQEND
  0
POLYLINE
  8
LAYER_1
 40
0.1905
 41
0.1905
 66
1
 10
0
 20
0
 30
0
  0
VERTEX
  8
LAYER_1
 10
143.4477
 20
111.2717
  0
VERTEX
  8
LAYER_1
 10
143.4477
 20
136.5416
  0
SEQEND
  0
POLYLINE
  8
LAYER_1
 40
0.1905
 41
0.1905
 66
1
 10
0
 20
0
 30
0
  0
VERTEX
  8
LAYER_1
 10
132.9353
 20
128.6653
  0
VERTEX
  8
LAYER_1
 10
131.8873
 20
128.6653
  0
SEQEND
  0
POLYLINE
  8
LAYER_1
 40
0.1905
 41
0.1905
 66
1
 10
0
 20
0
 30
0
  0
VERTEX
  8
LAYER_1
 10
125.0378
 20
92.2689
  0
VERTEX
  8
LAYER_1
 10
125.0484
 20
92.2689
 42
0.07837251185
  0
VERTEX
  8
LAYER_1
 10
127.519
 20
92.658
 42
0.1210456075
  0
VERTEX
  8
LAYER_1
 10
130.7691
 20
94.6781
 42
0.1453689131
  0
VERTEX
  8
LAYER_1
 10
132.9055
 20
98.7486
 42
0.0473160787
  0
VERTEX
  8
LAYER_1
 10
133.0518
 20
100.2617
  0
SEQEND
  0
POLYLINE
  8
LAYER_1
 40
0.1905
 41
0.1905
 66
1
 10
0
 20
0
 30
0
  0
VERTEX
  8
LAYER_1
 10
133.0412
 20
100.2723
  0
VERTEX
  8
LAYER_1
 10
133.0412
 20
101.1722
  0
SEQEND
  0
POLYLINE
  8
LAYER_1
 40
0.1905
 41
0.1905
 66
1
 10
0
 20
0
 30
0
  0
VERTEX
  8
LAYER_1
 10
133.1365
 20
101.2674
 42
0.3428587361
  0
VERTEX
  8
LAYER_1
 10
133.0518
 20
101.1722
  0
VERTEX
  8
LAYER_1
 10
133.0518
 20
101.1616
  0
SEQEND
  0
POLYLINE
  8
LAYER_1
 40
0.1905
 41
0.1905
 66
1
 10
0
 20
0
 30
0
  0
VERTEX
  8
LAYER_1
 10
135.4443
 20
101.278
  0
VERTEX
  8
LAYER_1
 10
133.1471
 20
101.278
  0
SEQEND
  0
POLYLINE
  8
LAYER_1
 40
0.1905
 41
0.1905
 66
1
 10
0
 20
0
 30
0
  0
VERTEX
  8
LAYER_1
 10
135.4338
 20
101.2674
  0
VERTEX
  8
LAYER_1
 10
135.4443
 20
101.2674
 42
0.07837251185
  0
VERTEX
  8
LAYER_1
 10
137.9149
 20
101.6565
 42
0.1210456075
  0
VERTEX
  8
LAYER_1
 10
141.165
 20
103.6766
 42
0.1453689131
  0
VERTEX
  8
LAYER_1
 10
143.3014
 20
107.7471
 42
0.0473160787
  0
VERTEX
  8
LAYER_1
 10
143.4477
 20
109.2602
  0
SEQEND
  0
POLYLINE
  8
LAYER_1
 40
0.1905
 41
0.1905
 66
1
 10
0
 20
0
 30
0
  0
VERTEX
  8
LAYER_1
 10
143.4477
 20
109.2708
  0
VERTEX
  8
LAYER_1
 10
143.4477
 20
129.1628
  0
SEQEND
  0
POLYLINE
  8
LAYER_1
 40
0.1905
 41
0.1905
 66
1
 10
0
 20
0
 30
0
  0
VERTEX
  8
LAYER_1
 10
99.6197
 20
92.883
  0
VERTEX
  8
LAYER_1
 10
118.94
 20
92.883
  0
SEQEND
  0
POLYLINE
  8
LAYER_1
 40
0.1905
 41
0.1905
 66
1
 10
0
 20
0
 30
0
  0
VERTEX
  8
LAYER_1
 10
123.7674
 20
92.883
  0
VERTEX
  8
LAYER_1
 10
118.94
 20
92.883
  0
SEQEND
  0
POLYLINE
  8
LAYER_1
 40
0.1905
 41
0.1905
 66
1
 10
0
 20
0
 30
0
  0
VERTEX
  8
LAYER_1
 10
123.7674
 20
92.8724
 42
0.02115938595
  0
VERTEX
  8
LAYER_1
 10
124.5297
 20
92.8512
 42
0.03462405635
  0
VERTEX
  8
LAYER_1
 10
126.16
 20
92.9571
 42
0.08600165984
  0
VERTEX
  8
LAYER_1
 10
128.4573
 20
93.7087
 42
0.05304022016
  0
VERTEX
  8
LAYER_1
 10
129.897
 20
94.6615
  0
SEQEND
  0
POLYLINE
  8
LAYER_1
 40
0.1905
 41
0.1905
 66
1
 10
0
 20
0
 30
0
  0
VERTEX
  8
LAYER_1
 10
129.897
 20
94.6721
 42
0.061432768
  0
VERTEX
  8
LAYER_1
 10
130.9513
 20
95.7969
 42
0.02343119131
  0
VERTEX
  8
LAYER_1
 10
131.3156
 20
96.3447
  0
SEQEND
  0
POLYLINE
  8
LAYER_1
 40
0.1905
 41
0.1905
 66
1
 10
0
 20
0
 30
0
  0
VERTEX
  8
LAYER_1
 10
131.3262
 20
96.3341
 42
0.02691559898
  0
VERTEX
  8
LAYER_1
 10
131.7497
 20
97.1387
 42
0.06239686108
  0
VERTEX
  8
LAYER_1
 10
132.232
 20
98.5691
 42
0.002514162967
  0
VERTEX
  8
LAYER_1
 10
132.2472
 20
98.642
 42
0.04868643179
  0
VERTEX
  8
LAYER_1
 10
132.4272
 20
100.3994
  0
SEQEND
  0
POLYLINE
  8
LAYER_1
 40
0.1905
 41
0.1905
 66
1
 10
0
 20
0
 30
0
  0
VERTEX
  8
LAYER_1
 10
132.4378
 20
100.4099
  0
VERTEX
  8
LAYER_1
 10
132.4484
 20
101.8815
  0
SEQEND
  0
POLYLINE
  8
LAYER_1
 40
0.1905
 41
0.1905
 66
1
 10
0
 20
0
 30
0
  0
VERTEX
  8
LAYER_1
 10
99.2174
 20
92.9147
 42
0.1125653082
  0
VERTEX
  8
LAYER_1
 10
99.4291
 20
92.8724
  0
VERTEX
  8
LAYER_1
 10
99.4397
 20
92.8724
  0
SEQEND
  0
POLYLINE
  8
LAYER_1
 40
0.1905
 41
0.1905
 66
1
 10
0
 20
0
 30
0
  0
VERTEX
  8
LAYER_1
 10
99.0692
 20
93.1794
 42
0.2699960621
  0
VERTEX
  8
LAYER_1
 10
99.2174
 20
92.9253
  0
SEQEND
  0
POLYLINE
  8
LAYER_1
 40
0.1905
 41
0.1905
 66
1
 10
0
 20
0
 30
0
  0
VERTEX
  8
LAYER_1
 10
99.0586
 20
93.2641
  0
VERTEX
  8
LAYER_1
 10
99.0586
 20
93.19
  0
SEQEND
  0
POLYLINE
  8
LAYER_1
 40
0.1905
 41
0.1905
 66
1
 10
0
 20
0
 30
0
  0
VERTEX
  8
LAYER_1
 10
99.0586
 20
93.2747
  0
VERTEX
  8
LAYER_1
 10
99.0586
 20
93.4335
  0
SEQEND
  0
POLYLINE
  8
LAYER_1
 40
0.1905
 41
0.1905
 66
1
 10
0
 20
0
 30
0
  0
VERTEX
  8
LAYER_1
 10
99.6197
 20
92.883
  0
VERTEX
  8
LAYER_1
 10
99.4609
 20
92.883
  0
SEQEND
  0
POLYLINE
  8
LAYER_1
 40
0.1905
 41
0.1905
 66
1
 10
0
 20
0
 30
0
  0
VERTEX
  8
LAYER_1
 10
116.9392
 20
112.9761
 42
0.3941150871
  0
VERTEX
  8
LAYER_1
 10
114.7372
 20
110.7635
 42
0.4142153823
  0
VERTEX
  8
LAYER_1
 10
116.9392
 20
108.5615
 42
0.3919726895
  0
VERTEX
  8
LAYER_1
 10
119.1517
 20
110.7635
 42
0.4142117512
  0
VERTEX
  8
LAYER_1
 10
116.9392
 20
112.9761
  0
SEQEND
  0
POLYLINE
  8
LAYER_1
 40
0.1905
 41
0.1905
 66
1
 10
0
 20
0
 30
0
  0
VERTEX
  8
LAYER_1
 10
69.5012
 20
163.6218
  0
VERTEX
  8
LAYER_1
 10
61.4978
 20
163.6218
  0
SEQEND
  0
POLYLINE
  8
LAYER_1
 40
0.1905
 41
0.1905
 66
1
 10
0
 20
0
 30
0
  0
VERTEX
  8
LAYER_1
 10
98.561
 20
92.2795
  0
VERTEX
  8
LAYER_1
 10
125.0484
 20
92.2795
  0
SEQEND
  0
POLYLINE
  8
LAYER_1
 40
0.1905
 41
0.1905
 66
1
 10
0
 20
0
 30
0
  0
VERTEX
  8
LAYER_1
 10
61.4025
 20
163.6218
  0
VERTEX
  8
LAYER_1
 10
60.5027
 20
163.6218
  0
VERTEX
  8
LAYER_1
 10
52.4993
 20
163.6218
  0
SEQEND
  0
POLYLINE
  8
LAYER_1
 40
0.1905
 41
0.1905
 66
1
 10
0
 20
0
 30
0
  0
VERTEX
  8
LAYER_1
 10
120.1786
 20
110.7635
  0
VERTEX
  8
LAYER_1
 10
120.1786
 20
110.7741
 42
0.4142110115
  0
VERTEX
  8
LAYER_1
 10
116.9498
 20
114.003
  0
VERTEX
  8
LAYER_1
 10
116.9392
 20
114.003
 42
0.3910364289
  0
VERTEX
  8
LAYER_1
 10
113.7209
 20
110.7741
  0
VERTEX
  8
LAYER_1
 10
113.7209
 20
110.7635
 42
0.4142135825
  0
VERTEX
  8
LAYER_1
 10
116.9392
 20
107.5452
  0
VERTEX
  8
LAYER_1
 10
116.9498
 20
107.5452
 42
0.3922685598
  0
VERTEX
  8
LAYER_1
 10
120.1786
 20
110.7635
  0
SEQEND
  0
POLYLINE
  8
LAYER_1
 40
0.1905
 41
0.1905
 66
1
 10
0
 20
0
 30
0
  0
VERTEX
  8
LAYER_1
 10
98.561
 20
163.6218
  0
VERTEX
  8
LAYER_1
 10
98.4658
 20
163.6218
  0
SEQEND
  0
POLYLINE
  8
LAYER_1
 40
0.1905
 41
0.1905
 66
1
 10
0
 20
0
 30
0
  0
VERTEX
  8
LAYER_1
 10
125.0484
 20
163.6218
  0
VERTEX
  8
LAYER_1
 10
98.561
 20
163.6218
  0
SEQEND
  0
POLYLINE
  8
LAYER_1
 40
0.1905
 41
0.1905
 66
1
 10
0
 20
0
 30
0
  0
VERTEX
  8
LAYER_1
 10
133.0412
 20
163.6218
  0
VERTEX
  8
LAYER_1
 10
125.0484
 20
163.6218
  0
SEQEND
  0
POLYLINE
  8
LAYER_1
 40
0.1905
 41
0.1905
 66
1
 10
0
 20
0
 30
0
  0
VERTEX
  8
LAYER_1
 10
133.1471
 20
163.6218
  0
VERTEX
  8
LAYER_1
 10
133.0412
 20
163.6218
  0
SEQEND
  0
POLYLINE
  8
LAYER_1
 40
0.1905
 41
0.1905
 66
1
 10
0
 20
0
 30
0
  0
VERTEX
  8
LAYER_1
 10
135.4443
 20
163.6218
  0
VERTEX
  8
LAYER_1
 10
133.1471
 20
163.6218
  0
SEQEND
  0
POLYLINE
  8
LAYER_1
 40
0.1905
 41
0.1905
 66
1
 10
0
 20
0
 30
0
  0
VERTEX
  8
LAYER_1
 10
143.4477
 20
163.6218
  0
VERTEX
  8
LAYER_1
 10
135.4443
 20
163.6218
  0
SEQEND
  0
POLYLINE
  8
LAYER_1
 40
0.1905
 41
0.1905
 66
1
 10
0
 20
0
 30
0
  0
VERTEX
  8
LAYER_1
 10
98.4658
 20
152.1249
  0
VERTEX
  8
LAYER_1
 10
98.4658
 20
163.6218
  0
SEQEND
  0
POLYLINE
  8
LAYER_1
 40
0.1905
 41
0.1905
 66
1
 10
0
 20
0
 30
0
  0
VERTEX
  8
LAYER_1
 10
98.561
 20
152.1249
  0
VERTEX
  8
LAYER_1
 10
98.4658
 20
152.1249
  0
SEQEND
  0
POLYLINE
  8
LAYER_1
 40
0.1905
 41
0.1905
 66
1
 10
0
 20
0
 30
0
  0
VERTEX
  8
LAYER_1
 10
98.4658
 20
92.3536
 42
0.4142056568
  0
VERTEX
  8
LAYER_1
 10
98.5399
 20
92.2795
  0
SEQEND
  0
POLYLINE
  8
LAYER_1
 40
0.1905
 41
0.1905
 66
1
 10
0
 20
0
 30
0
  0
VERTEX
  8
LAYER_1
 10
98.4658
 20
112.2774
  0
VERTEX
  8
LAYER_1
 10
98.4658
 20
92.3748
  0
SEQEND
  0
POLYLINE
  8
LAYER_1
 40
0.1905
 41
0.1905
 66
1
 10
0
 20
0
 30
0
  0
VERTEX
  8
LAYER_1
 10
115.4359
 20
129.2793
 42
0.03469615352
  0
VERTEX
  8
LAYER_1
 10
113.0583
 20
129.1119
 42
0.1828130821
  0
VERTEX
  8
LAYER_1
 10
102.4533
 20
123.2411
 42
0.07222022155
  0
VERTEX
  8
LAYER_1
 10
99.8607
 20
119.0795
 42
0.1034607652
  0
VERTEX
  8
LAYER_1
 10
98.4446
 20
112.2774
  0
VERTEX
  8
LAYER_1
 10
98.4446
 20
112.2668
  0
SEQEND
  0
POLYLINE
  8
LAYER_1
 40
0.1905
 41
0.1905
 66
1
 10
0
 20
0
 30
0
  0
VERTEX
  8
LAYER_1
 10
143.4371
 20
129.1628
  0
VERTEX
  8
LAYER_1
 10
143.4371
 20
129.1734
 42
0.414385297
  0
VERTEX
  8
LAYER_1
 10
143.3524
 20
129.2581
  0
VERTEX
  8
LAYER_1
 10
143.3419
 20
129.2581
  0
VERTEX
  8
LAYER_1
 10
115.4465
 20
129.2581
  0
SEQEND
  0
POLYLINE
  8
LAYER_1
 40
0.1905
 41
0.1905
 66
1
 10
0
 20
0
 30
0
  0
VERTEX
  8
LAYER_1
 10
131.8873
 20
128.6653
  0
VERTEX
  8
LAYER_1
 10
116.6322
 20
128.6653
  0
VERTEX
  8
LAYER_1
 10
114.4725
 20
128.6123
  0
SEQEND
  0
POLYLINE
  8
LAYER_1
 40
0.1905
 41
0.1905
 66
1
 10
0
 20
0
 30
0
  0
VERTEX
  8
LAYER_1
 10
114.4619
 20
128.6123
 42
0.03518304229
  0
VERTEX
  8
LAYER_1
 10
112.1753
 20
128.3371
  0
SEQEND
  0
POLYLINE
  8
LAYER_1
 40
0.1905
 41
0.1905
 66
1
 10
0
 20
0
 30
0
  0
VERTEX
  8
LAYER_1
 10
112.1647
 20
128.3477
 42
0.03955808872
  0
VERTEX
  8
LAYER_1
 10
110.1321
 20
127.7866
  0
SEQEND
  0
POLYLINE
  8
LAYER_1
 40
0.1905
 41
0.1905
 66
1
 10
0
 20
0
 30
0
  0
VERTEX
  8
LAYER_1
 10
110.1427
 20
127.7866
  0
VERTEX
  8
LAYER_1
 10
109.1687
 20
127.4055
  0
SEQEND
  0
POLYLINE
  8
LAYER_1
 40
0.1905
 41
0.1905
 66
1
 10
0
 20
0
 30
0
  0
VERTEX
  8
LAYER_1
 10
109.1581
 20
127.4055
 42
0.03715877728
  0
VERTEX
  8
LAYER_1
 10
106.9693
 20
126.2999
 42
0.05209556457
  0
VERTEX
  8
LAYER_1
 10
104.2666
 20
124.2608
 42
0.02770117944
  0
VERTEX
  8
LAYER_1
 10
103.0285
 20
122.9697
  0
SEQEND
  0
POLYLINE
  8
LAYER_1
 40
0.1905
 41
0.1905
 66
1
 10
0
 20
0
 30
0
  0
VERTEX
  8
LAYER_1
 10
103.0285
 20
122.9803
 42
0.1064324342
  0
VERTEX
  8
LAYER_1
 10
99.7257
 20
116.963
 42
0.01097353671
  0
VERTEX
  8
LAYER_1
 10
99.535
 20
116.2685
  0
SEQEND
  0
POLYLINE
  8
LAYER_1
 40
0.1905
 41
0.1905
 66
1
 10
0
 20
0
 30
0
  0
VERTEX
  8
LAYER_1
 10
99.5456
 20
116.2685
 42
0.03953303318
  0
VERTEX
  8
LAYER_1
 10
99.1486
 20
113.9529
 42
0.0008031172496
  0
VERTEX
  8
LAYER_1
 10
99.1433
 20
113.8971
  0
SEQEND
  0
POLYLINE
  8
LAYER_1
 40
0.1905
 41
0.1905
 66
1
 10
0
 20
0
 30
0
  0
VERTEX
  8
LAYER_1
 10
99.1645
 20
113.9077
  0
VERTEX
  8
LAYER_1
 10
99.0692
 20
112.5526
  0
VERTEX
  8
LAYER_1
 10
99.048
 20
110.8376
  0
VERTEX
  8
LAYER_1
 10
99.0586
 20
109.5884
  0
VERTEX
  8
LAYER_1
 10
99.0586
 20
108.6992
  0
VERTEX
  8
LAYER_1
 10
99.0586
 20
93.4334
  0
SEQEND
  0
POLYLINE
  8
LAYER_1
 40
0.1905
 41
0.1905
 66
1
 10
0
 20
0
 30
0
  0
VERTEX
  8
LAYER_1
 10
142.442
 20
128.6653
  0
VERTEX
  8
LAYER_1
 10
132.9354
 20
128.6653
  0
SEQEND
  0
POLYLINE
  8
LAYER_1
 40
0.1905
 41
0.1905
 66
1
 10
0
 20
0
 30
0
  0
VERTEX
  8
LAYER_1
 10
61.4978
 20
163.6218
  0
VERTEX
  8
LAYER_1
 10
61.4025
 20
163.6218
  0
SEQEND
  0
POLYLINE
  8
LAYER_1
 40
0.1905
 41
0.1905
 66
1
 10
0
 20
0
 30
0
  0
VERTEX
  8
LAYER_1
 10
89.3932
 20
152.1249
  0
VERTEX
  8
LAYER_1
 10
69.5012
 20
152.1249
  0
VERTEX
  8
LAYER_1
 10
61.4978
 20
152.1249
  0
SEQEND
  0
POLYLINE
  8
LAYER_1
 40
0.1905
 41
0.1905
 66
1
 10
0
 20
0
 30
0
  0
VERTEX
  8
LAYER_1
 10
61.4978
 20
163.6218
  0
VERTEX
  8
LAYER_1
 10
61.4978
 20
152.1249
  0
VERTEX
  8
LAYER_1
 10
61.4025
 20
152.1249
  0
VERTEX
  8
LAYER_1
 10
60.5027
 20
152.1249
  0
VERTEX
  8
LAYER_1
 10
52.4993
 20
152.1249
  0
SEQEND
  0
POLYLINE
  8
LAYER_1
 40
0.1905
 41
0.1905
 66
1
 10
0
 20
0
 30
0
  0
VERTEX
  8
LAYER_1
 10
52.4993
 20
163.6218
  0
VERTEX
  8
LAYER_1
 10
52.4993
 20
152.1249
  0
SEQEND
  0
POLYLINE
  8
LAYER_1
 40
0.1905
 41
0.1905
 66
1
 10
0
 20
0
 30
0
  0
VERTEX
  8
LAYER_1
 10
89.499
 20
152.1249
  0
VERTEX
  8
LAYER_1
 10
89.3932
 20
152.1249
  0
SEQEND
  0
POLYLINE
  8
LAYER_1
 40
0.1905
 41
0.1905
 66
1
 10
0
 20
0
 30
0
  0
VERTEX
  8
LAYER_1
 10
89.3932
 20
163.6218
  0
VERTEX
  8
LAYER_1
 10
69.5012
 20
163.6218
  0
VERTEX
  8
LAYER_1
 10
61.4978
 20
163.6218
  0
VERTEX
  8
LAYER_1
 10
61.4025
 20
163.6218
  0
VERTEX
  8
LAYER_1
 10
60.5027
 20
163.6218
  0
VERTEX
  8
LAYER_1
 10
52.4993
 20
163.6218
  0
SEQEND
  0
POLYLINE
  8
LAYER_1
 40
0.1905
 41
0.1905
 66
1
 10
0
 20
0
 30
0
  0
VERTEX
  8
LAYER_1
 10
89.499
 20
163.6218
  0
VERTEX
  8
LAYER_1
 10
89.3932
 20
163.6218
  0
SEQEND
  0
POLYLINE
  8
LAYER_1
 40
0.1905
 41
0.1905
 66
1
 10
0
 20
0
 30
0
  0
VERTEX
  8
LAYER_1
 10
89.499
 20
152.1249
  0
VERTEX
  8
LAYER_1
 10
89.499
 20
163.6218
  0
SEQEND
  0
POLYLINE
  8
LAYER_1
 40
0.1905
 41
0.1905
 66
1
 10
0
 20
0
 30
0
  0
VERTEX
  8
LAYER_1
 10
143.4477
 20
152.1249
  0
VERTEX
  8
LAYER_1
 10
143.4477
 20
163.6218
  0
SEQEND
  0
POLYLINE
  8
LAYER_1
 40
0.1905
 41
0.1905
 66
1
 10
0
 20
0
 30
0
  0
VERTEX
  8
LAYER_1
 10
143.4477
 20
152.1249
  0
VERTEX
  8
LAYER_1
 10
135.4444
 20
152.1249
  0
VERTEX
  8
LAYER_1
 10
133.1471
 20
152.1249
  0
VERTEX
  8
LAYER_1
 10
133.0412
 20
152.1249
  0
VERTEX
  8
LAYER_1
 10
133.0412
 20
163.6218
  0
SEQEND
  0
POLYLINE
  8
LAYER_1
 40
0.1905
 41
0.1905
 66
1
 10
0
 20
0
 30
0
  0
VERTEX
  8
LAYER_1
 10
133.0412
 20
152.1249
  0
VERTEX
  8
LAYER_1
 10
125.0484
 20
152.1249
  0
VERTEX
  8
LAYER_1
 10
98.5611
 20
152.1249
  0
SEQEND
  0
POLYLINE
  8
LAYER_1
 40
0.1905
 41
0.1905
 66
1
 10
0
 20
0
 30
0
  0
VERTEX
  8
LAYER_1
 10
142.6749
 20
128.6017
 42
0.1159278901
  0
VERTEX
  8
LAYER_1
 10
142.4738
 20
128.6547
  0
VERTEX
  8
LAYER_1
 10
142.442
 20
128.6441
  0
SEQEND
  0
POLYLINE
  8
LAYER_1
 40
0.1905
 41
0.1905
 66
1
 10
0
 20
0
 30
0
  0
VERTEX
  8
LAYER_1
 10
142.7808
 20
128.5065
 42
0.1747036866
  0
VERTEX
  8
LAYER_1
 10
142.6643
 20
128.6123
  0
SEQEND
  0
POLYLINE
  8
LAYER_1
 40
0.1905
 41
0.1905
 66
1
 10
0
 20
0
 30
0
  0
VERTEX
  8
LAYER_1
 10
142.8443
 20
128.2841
 42
0.1201692095
  0
VERTEX
  8
LAYER_1
 10
142.7808
 20
128.517
  0
SEQEND
  0
POLYLINE
  8
LAYER_1
 40
0.1905
 41
0.1905
 66
1
 10
0
 20
0
 30
0
  0
VERTEX
  8
LAYER_1
 10
142.8443
 20
128.2947
  0
VERTEX
  8
LAYER_1
 10
142.8443
 20
127.0984
  0
SEQEND
  0
POLYLINE
  8
LAYER_1
 40
0.1905
 41
0.1905
 66
1
 10
0
 20
0
 30
0
  0
VERTEX
  8
LAYER_1
 10
142.8443
 20
124.6212
  0
VERTEX
  8
LAYER_1
 10
142.8443
 20
127.0984
  0
SEQEND
  0
POLYLINE
  8
LAYER_1
 40
0.1905
 41
0.1905
 66
1
 10
0
 20
0
 30
0
  0
VERTEX
  8
LAYER_1
 10
142.8443
 20
120.3337
  0
VERTEX
  8
LAYER_1
 10
142.8443
 20
124.6212
  0
SEQEND
  0
POLYLINE
  8
LAYER_1
 40
0.1905
 41
0.1905
 66
1
 10
0
 20
0
 30
0
  0
VERTEX
  8
LAYER_1
 10
142.8443
 20
111.7798
  0
VERTEX
  8
LAYER_1
 10
142.8443
 20
120.3337
  0
SEQEND
  0
POLYLINE
  8
LAYER_1
 40
0.1905
 41
0.1905
 66
1
 10
0
 20
0
 30
0
  0
VERTEX
  8
LAYER_1
 10
142.8443
 20
111.7798
  0
VERTEX
  8
LAYER_1
 10
142.8655
 20
109.3767
  0
SEQEND
  0
POLYLINE
  8
LAYER_1
 40
0.1905
 41
0.1905
 66
1
 10
0
 20
0
 30
0
  0
VERTEX
  8
LAYER_1
 10
142.6749
 20
107.704
 42
0.04128245952
  0
VERTEX
  8
LAYER_1
 10
142.8549
 20
109.3767
  0
SEQEND
  0
POLYLINE
  8
LAYER_1
 40
0.1905
 41
0.1905
 66
1
 10
0
 20
0
 30
0
  0
VERTEX
  8
LAYER_1
 10
142.6749
 20
107.7146
  0
VERTEX
  8
LAYER_1
 10
142.6326
 20
107.5135
  0
SEQEND
  0
POLYLINE
  8
LAYER_1
 40
0.1905
 41
0.1905
 66
1
 10
0
 20
0
 30
0
  0
VERTEX
  8
LAYER_1
 10
140.4835
 20
103.8717
 42
0.1483784696
  0
VERTEX
  8
LAYER_1
 10
142.622
 20
107.5135
  0
SEQEND
  0
POLYLINE
  8
LAYER_1
 40
0.1905
 41
0.1905
 66
1
 10
0
 20
0
 30
0
  0
VERTEX
  8
LAYER_1
 10
139.1814
 20
102.8872
 42
0.05790175059
  0
VERTEX
  8
LAYER_1
 10
140.4651
 20
103.8438
 42
0.0008746959862
  0
VERTEX
  8
LAYER_1
 10
140.4835
 20
103.8611
  0
SEQEND
  0
POLYLINE
  8
LAYER_1
 40
0.1905
 41
0.1905
 66
1
 10
0
 20
0
 30
0
  0
VERTEX
  8
LAYER_1
 10
137.1805
 20
102.0932
 42
0.08254541568
  0
VERTEX
  8
LAYER_1
 10
139.1814
 20
102.8766
  0
SEQEND
  0
POLYLINE
  8
LAYER_1
 40
0.1905
 41
0.1905
 66
1
 10
0
 20
0
 30
0
  0
VERTEX
  8
LAYER_1
 10
135.4126
 20
101.8709
 42
0.04480815357
  0
VERTEX
  8
LAYER_1
 10
137.1805
 20
102.0932
  0
SEQEND
  0
POLYLINE
  8
LAYER_1
 40
0.1905
 41
0.1905
 66
1
 10
0
 20
0
 30
0
  0
VERTEX
  8
LAYER_1
 10
135.4232
 20
101.8815
  0
VERTEX
  8
LAYER_1
 10
134.1316
 20
101.8603
  0
VERTEX
  8
LAYER_1
 10
133.1894
 20
101.8709
  0
VERTEX
  8
LAYER_1
 10
132.4484
 20
101.8815
  0
SEQEND
  0
POLYLINE
  8
LAYER_1
 40
0.1905
 41
0.1905
 66
1
 10
0
 20
0
 30
0
  0
VERTEX
  8
LAYER_1
 10
120.1786
 20
153.8611
  0
VERTEX
  8
LAYER_1
 10
119.4694
 20
153.8611
  0
SEQEND
  0
POLYLINE
  8
LAYER_1
 40
0.1905
 41
0.1905
 66
1
 10
0
 20
0
 30
0
  0
VERTEX
  8
LAYER_1
 10
117.7861
 20
153.8611
  0
VERTEX
  8
LAYER_1
 10
117.1615
 20
153.8611
  0
SEQEND
  0
POLYLINE
  8
LAYER_1
 40
0.1905
 41
0.1905
 66
1
 10
0
 20
0
 30
0
  0
VERTEX
  8
LAYER_1
 10
115.9017
 20
153.8611
  0
VERTEX
  8
LAYER_1
 10
115.2665
 20
153.8611
  0
SEQEND
  0
POLYLINE
  8
LAYER_1
 40
0.1905
 41
0.1905
 66
1
 10
0
 20
0
 30
0
  0
VERTEX
  8
LAYER_1
 10
114.4196
 20
153.8611
  0
VERTEX
  8
LAYER_1
 10
113.7209
 20
153.8611
  0
VERTEX
  8
LAYER_1
 10
113.7527
 20
153.8505
  0
VERTEX
  8
LAYER_1
 10
113.7738
 20
153.8505
  0
SEQEND
  0
POLYLINE
  8
LAYER_1
 40
0.1905
 41
0.1905
 66
1
 10
0
 20
0
 30
0
  0
VERTEX
  8
LAYER_1
 10
113.9326
 20
153.8611
  0
VERTEX
  8
LAYER_1
 10
113.7738
 20
153.8611
  0
SEQEND
  0
POLYLINE
  8
LAYER_1
 40
0.1905
 41
0.1905
 66
1
 10
0
 20
0
 30
0
  0
VERTEX
  8
LAYER_1
 10
114.409
 20
153.8611
  0
VERTEX
  8
LAYER_1
 10
113.9326
 20
153.8611
  0
SEQEND
  0
POLYLINE
  8
LAYER_1
 40
0.1905
 41
0.1905
 66
1
 10
0
 20
0
 30
0
  0
VERTEX
  8
LAYER_1
 10
116.9498
 20
153.8611
  0
VERTEX
  8
LAYER_1
 10
116.6851
 20
153.8611
  0
SEQEND
  0
POLYLINE
  8
LAYER_1
 40
0.1905
 41
0.1905
 66
1
 10
0
 20
0
 30
0
  0
VERTEX
  8
LAYER_1
 10
116.1558
 20
153.8611
  0
VERTEX
  8
LAYER_1
 10
115.8911
 20
153.8611
  0
SEQEND
  0
POLYLINE
  8
LAYER_1
 40
0.1905
 41
0.1905
 66
1
 10
0
 20
0
 30
0
  0
VERTEX
  8
LAYER_1
 10
120.1786
 20
153.8611
  0
VERTEX
  8
LAYER_1
 10
119.3741
 20
153.8611
  0
SEQEND
  0
POLYLINE
  8
LAYER_1
 40
0.1905
 41
0.1905
 66
1
 10
0
 20
0
 30
0
  0
VERTEX
  8
LAYER_1
 10
117.7649
 20
153.8611
  0
VERTEX
  8
LAYER_1
 10
116.9498
 20
153.8611
  0
SEQEND
  0
POLYLINE
  8
LAYER_1
 40
0.1905
 41
0.1905
 66
1
 10
0
 20
0
 30
0
  0
VERTEX
  8
LAYER_1
 10
120.1786
 20
153.8611
  0
VERTEX
  8
LAYER_1
 10
120.655
 20
153.8928
  0
SEQEND
  0
POLYLINE
  8
LAYER_1
 40
0.1905
 41
0.1905
 66
1
 10
0
 20
0
 30
0
  0
VERTEX
  8
LAYER_1
 10
121.6078
 20
153.9564
  0
VERTEX
  8
LAYER_1
 10
122.5606
 20
154.0199
  0
SEQEND
  0
POLYLINE
  8
LAYER_1
 40
0.1905
 41
0.1905
 66
1
 10
0
 20
0
 30
0
  0
VERTEX
  8
LAYER_1
 10
123.5134
 20
154.094
  0
VERTEX
  8
LAYER_1
 10
124.4662
 20
154.1575
  0
SEQEND
  0
POLYLINE
  8
LAYER_1
 40
0.1905
 41
0.1905
 66
1
 10
0
 20
0
 30
0
  0
VERTEX
  8
LAYER_1
 10
125.419
 20
154.221
  0
VERTEX
  8
LAYER_1
 10
126.3823
 20
154.2951
  0
SEQEND
  0
POLYLINE
  8
LAYER_1
 40
0.1905
 41
0.1905
 66
1
 10
0
 20
0
 30
0
  0
VERTEX
  8
LAYER_1
 10
127.3351
 20
154.3586
  0
VERTEX
  8
LAYER_1
 10
128.2879
 20
154.4222
  0
SEQEND
  0
POLYLINE
  8
LAYER_1
 40
0.1905
 41
0.1905
 66
1
 10
0
 20
0
 30
0
  0
VERTEX
  8
LAYER_1
 10
129.2407
 20
154.4963
  0
VERTEX
  8
LAYER_1
 10
130.1935
 20
154.5598
  0
SEQEND
  0
POLYLINE
  8
LAYER_1
 40
0.1905
 41
0.1905
 66
1
 10
0
 20
0
 30
0
  0
VERTEX
  8
LAYER_1
 10
131.1462
 20
154.6233
  0
VERTEX
  8
LAYER_1
 10
131.6332
 20
154.6657
  0
VERTEX
  8
LAYER_1
 10
131.6544
 20
154.6657
  0
VERTEX
  8
LAYER_1
 10
131.6756
 20
154.6657
  0
VERTEX
  8
LAYER_1
 10
131.6967
 20
154.6657
  0
VERTEX
  8
LAYER_1
 10
131.7179
 20
154.6762
  0
SEQEND
  0
POLYLINE
  8
LAYER_1
 40
0.1905
 41
0.1905
 66
1
 10
0
 20
0
 30
0
  0
VERTEX
  8
LAYER_1
 10
131.8555
 20
154.7292
  0
VERTEX
  8
LAYER_1
 10
131.8661
 20
154.7292
  0
VERTEX
  8
LAYER_1
 10
131.8767
 20
154.7398
  0
VERTEX
  8
LAYER_1
 10
131.8873
 20
154.7503
  0
VERTEX
  8
LAYER_1
 10
131.8979
 20
154.7609
  0
SEQEND
  0
POLYLINE
  8
LAYER_1
 40
0.1905
 41
0.1905
 66
1
 10
0
 20
0
 30
0
  0
VERTEX
  8
LAYER_1
 10
131.9508
 20
154.835
  0
VERTEX
  8
LAYER_1
 10
131.9614
 20
154.8562
  0
VERTEX
  8
LAYER_1
 10
131.972
 20
154.888
  0
VERTEX
  8
LAYER_1
 10
131.9826
 20
154.9091
  0
VERTEX
  8
LAYER_1
 10
131.9826
 20
154.9303
  0
SEQEND
  0
POLYLINE
  8
LAYER_1
 40
0.1905
 41
0.1905
 66
1
 10
0
 20
0
 30
0
  0
VERTEX
  8
LAYER_1
 10
131.9931
 20
155.0362
  0
VERTEX
  8
LAYER_1
 10
131.9931
 20
155.0574
  0
SEQEND
  0
POLYLINE
  8
LAYER_1
 40
0.1905
 41
0.1905
 66
1
 10
0
 20
0
 30
0
  0
VERTEX
  8
LAYER_1
 10
131.9931
 20
155.1209
  0
VERTEX
  8
LAYER_1
 10
132.0037
 20
155.1526
  0
VERTEX
  8
LAYER_1
 10
132.0037
 20
155.1632
  0
VERTEX
  8
LAYER_1
 10
132.0037
 20
155.1738
  0
VERTEX
  8
LAYER_1
 10
132.0037
 20
155.195
  0
VERTEX
  8
LAYER_1
 10
132.0037
 20
155.2056
  0
VERTEX
  8
LAYER_1
 10
132.0037
 20
155.2162
  0
SEQEND
  0
POLYLINE
  8
LAYER_1
 40
0.1905
 41
0.1905
 66
1
 10
0
 20
0
 30
0
  0
VERTEX
  8
LAYER_1
 10
132.0037
 20
155.2479
  0
VERTEX
  8
LAYER_1
 10
132.0037
 20
155.2691
  0
VERTEX
  8
LAYER_1
 10
132.0355
 20
155.7984
  0
SEQEND
  0
POLYLINE
  8
LAYER_1
 40
0.1905
 41
0.1905
 66
1
 10
0
 20
0
 30
0
  0
VERTEX
  8
LAYER_1
 10
132.1096
 20
156.8571
  0
VERTEX
  8
LAYER_1
 10
132.1731
 20
157.9157
  0
SEQEND
  0
POLYLINE
  8
LAYER_1
 40
0.1905
 41
0.1905
 66
1
 10
0
 20
0
 30
0
  0
VERTEX
  8
LAYER_1
 10
132.2472
 20
158.9744
  0
VERTEX
  8
LAYER_1
 10
132.3107
 20
160.033
  0
SEQEND
  0
POLYLINE
  8
LAYER_1
 40
0.1905
 41
0.1905
 66
1
 10
0
 20
0
 30
0
  0
VERTEX
  8
LAYER_1
 10
132.3848
 20
161.0917
  0
VERTEX
  8
LAYER_1
 10
132.4272
 20
161.621
  0
SEQEND
  0
POLYLINE
  8
LAYER_1
 40
0.1905
 41
0.1905
 66
1
 10
0
 20
0
 30
0
  0
VERTEX
  8
LAYER_1
 10
132.4695
 20
162.362
  0
VERTEX
  8
LAYER_1
 10
132.5119
 20
163.0607
  0
SEQEND
  0
POLYLINE
  8
LAYER_1
 40
0.1905
 41
0.1905
 66
1
 10
0
 20
0
 30
0
  0
VERTEX
  8
LAYER_1
 10
132.6389
 20
163.1137
 42
0.1116758769
  0
VERTEX
  8
LAYER_1
 10
132.5013
 20
163.0502
  0
SEQEND
  0
POLYLINE
  8
LAYER_1
 40
0.1905
 41
0.1905
 66
1
 10
0
 20
0
 30
0
  0
VERTEX
  8
LAYER_1
 10
113.7209
 20
153.8611
  0
VERTEX
  8
LAYER_1
 10
114.3455
 20
153.5435
  0
SEQEND
  0
POLYLINE
  8
LAYER_1
 40
0.1905
 41
0.1905
 66
1
 10
0
 20
0
 30
0
  0
VERTEX
  8
LAYER_1
 10
118.7177
 20
153.3424
  0
VERTEX
  8
LAYER_1
 10
118.0613
 20
153.3424
  0
SEQEND
  0
POLYLINE
  8
LAYER_1
 40
0.1905
 41
0.1905
 66
1
 10
0
 20
0
 30
0
  0
VERTEX
  8
LAYER_1
 10
116.7274
 20
153.3424
  0
VERTEX
  8
LAYER_1
 10
116.0605
 20
153.3424
  0
SEQEND
  0
POLYLINE
  8
LAYER_1
 40
0.1905
 41
0.1905
 66
1
 10
0
 20
0
 30
0
  0
VERTEX
  8
LAYER_1
 10
119.5434
 20
153.5435
  0
VERTEX
  8
LAYER_1
 10
120.1786
 20
153.8611
  0
SEQEND
  0
POLYLINE
  8
LAYER_1
 40
0.1905
 41
0.1905
 66
1
 10
0
 20
0
 30
0
  0
VERTEX
  8
LAYER_1
 10
142.8443
 20
163.6218
  0
VERTEX
  8
LAYER_1
 10
142.8231
 20
163.3148
  0
SEQEND
  0
POLYLINE
  8
LAYER_1
 40
0.1905
 41
0.1905
 66
1
 10
0
 20
0
 30
0
  0
VERTEX
  8
LAYER_1
 10
142.622
 20
163.1243
  0
VERTEX
  8
LAYER_1
 10
142.6326
 20
163.1243
 42
0.3736459002
  0
VERTEX
  8
LAYER_1
 10
142.8337
 20
163.3148
  0
SEQEND
  0
POLYLINE
  8
LAYER_1
 40
0.1905
 41
0.1905
 66
1
 10
0
 20
0
 30
0
  0
VERTEX
  8
LAYER_1
 10
142.6326
 20
163.1243
  0
VERTEX
  8
LAYER_1
 10
142.5479
 20
163.1243
  0
SEQEND
  0
POLYLINE
  8
LAYER_1
 40
0.1905
 41
0.1905
 66
1
 10
0
 20
0
 30
0
  0
VERTEX
  8
LAYER_1
 10
141.2351
 20
163.1243
  0
VERTEX
  8
LAYER_1
 10
140.7799
 20
163.1243
  0
SEQEND
  0
POLYLINE
  8
LAYER_1
 40
0.1905
 41
0.1905
 66
1
 10
0
 20
0
 30
0
  0
VERTEX
  8
LAYER_1
 10
139.8695
 20
163.1243
  0
VERTEX
  8
LAYER_1
 10
138.9591
 20
163.1243
  0
SEQEND
  0
POLYLINE
  8
LAYER_1
 40
0.1905
 41
0.1905
 66
1
 10
0
 20
0
 30
0
  0
VERTEX
  8
LAYER_1
 10
138.0486
 20
163.1243
  0
VERTEX
  8
LAYER_1
 10
137.1382
 20
163.1243
  0
SEQEND
  0
POLYLINE
  8
LAYER_1
 40
0.1905
 41
0.1905
 66
1
 10
0
 20
0
 30
0
  0
VERTEX
  8
LAYER_1
 10
136.2277
 20
163.1243
  0
VERTEX
  8
LAYER_1
 10
135.3173
 20
163.1243
  0
SEQEND
  0
POLYLINE
  8
LAYER_1
 40
0.1905
 41
0.1905
 66
1
 10
0
 20
0
 30
0
  0
VERTEX
  8
LAYER_1
 10
134.4069
 20
163.1243
  0
VERTEX
  8
LAYER_1
 10
133.9516
 20
163.1243
  0
SEQEND
  0
POLYLINE
  8
LAYER_1
 40
0.1905
 41
0.1905
 66
1
 10
0
 20
0
 30
0
  0
VERTEX
  8
LAYER_1
 10
133.2953
 20
163.1243
  0
VERTEX
  8
LAYER_1
 10
132.7024
 20
163.1243
  0
SEQEND
  0
POLYLINE
  8
LAYER_1
 40
0.1905
 41
0.1905
 66
1
 10
0
 20
0
 30
0
  0
VERTEX
  8
LAYER_1
 10
132.6919
 20
163.1243
  0
VERTEX
  8
LAYER_1
 10
132.586
 20
163.0925
  0
SEQEND
  0
POLYLINE
  8
LAYER_1
 40
0.1905
 41
0.1905
 66
1
 10
0
 20
0
 30
0
  0
VERTEX
  8
LAYER_1
 10
88.6839
 20
163.1243
  0
VERTEX
  8
LAYER_1
 10
88.6415
 20
163.1243
  0
SEQEND
  0
POLYLINE
  8
LAYER_1
 40
0.1905
 41
0.1905
 66
1
 10
0
 20
0
 30
0
  0
VERTEX
  8
LAYER_1
 10
88.5462
 20
163.1243
  0
VERTEX
  8
LAYER_1
 10
88.4933
 20
163.1243
  0
VERTEX
  8
LAYER_1
 10
87.7946
 20
163.1243
  0
SEQEND
  0
POLYLINE
  8
LAYER_1
 40
0.1905
 41
0.1905
 66
1
 10
0
 20
0
 30
0
  0
VERTEX
  8
LAYER_1
 10
86.3442
 20
163.1243
  0
VERTEX
  8
LAYER_1
 10
85.9102
 20
163.1243
  0
SEQEND
  0
POLYLINE
  8
LAYER_1
 40
0.1905
 41
0.1905
 66
1
 10
0
 20
0
 30
0
  0
VERTEX
  8
LAYER_1
 10
85.0421
 20
163.1243
  0
VERTEX
  8
LAYER_1
 10
84.174
 20
163.1243
  0
SEQEND
  0
POLYLINE
  8
LAYER_1
 40
0.1905
 41
0.1905
 66
1
 10
0
 20
0
 30
0
  0
VERTEX
  8
LAYER_1
 10
83.3059
 20
163.1243
  0
VERTEX
  8
LAYER_1
 10
82.4378
 20
163.1243
  0
SEQEND
  0
POLYLINE
  8
LAYER_1
 40
0.1905
 41
0.1905
 66
1
 10
0
 20
0
 30
0
  0
VERTEX
  8
LAYER_1
 10
81.5697
 20
163.1243
  0
VERTEX
  8
LAYER_1
 10
80.7016
 20
163.1243
  0
SEQEND
  0
POLYLINE
  8
LAYER_1
 40
0.1905
 41
0.1905
 66
1
 10
0
 20
0
 30
0
  0
VERTEX
  8
LAYER_1
 10
79.8335
 20
163.1243
  0
VERTEX
  8
LAYER_1
 10
78.9655
 20
163.1243
  0
SEQEND
  0
POLYLINE
  8
LAYER_1
 40
0.1905
 41
0.1905
 66
1
 10
0
 20
0
 30
0
  0
VERTEX
  8
LAYER_1
 10
78.0868
 20
163.1243
  0
VERTEX
  8
LAYER_1
 10
77.2187
 20
163.1243
  0
SEQEND
  0
POLYLINE
  8
LAYER_1
 40
0.1905
 41
0.1905
 66
1
 10
0
 20
0
 30
0
  0
VERTEX
  8
LAYER_1
 10
76.3506
 20
163.1243
  0
VERTEX
  8
LAYER_1
 10
75.4825
 20
163.1243
  0
SEQEND
  0
POLYLINE
  8
LAYER_1
 40
0.1905
 41
0.1905
 66
1
 10
0
 20
0
 30
0
  0
VERTEX
  8
LAYER_1
 10
74.6144
 20
163.1243
  0
VERTEX
  8
LAYER_1
 10
73.7463
 20
163.1243
  0
SEQEND
  0
POLYLINE
  8
LAYER_1
 40
0.1905
 41
0.1905
 66
1
 10
0
 20
0
 30
0
  0
VERTEX
  8
LAYER_1
 10
72.8782
 20
163.1243
  0
VERTEX
  8
LAYER_1
 10
72.0101
 20
163.1243
  0
SEQEND
  0
POLYLINE
  8
LAYER_1
 40
0.1905
 41
0.1905
 66
1
 10
0
 20
0
 30
0
  0
VERTEX
  8
LAYER_1
 10
71.1315
 20
163.1243
  0
VERTEX
  8
LAYER_1
 10
70.2634
 20
163.1243
  0
SEQEND
  0
POLYLINE
  8
LAYER_1
 40
0.1905
 41
0.1905
 66
1
 10
0
 20
0
 30
0
  0
VERTEX
  8
LAYER_1
 10
69.3953
 20
163.1243
  0
VERTEX
  8
LAYER_1
 10
68.5272
 20
163.1243
  0
SEQEND
  0
POLYLINE
  8
LAYER_1
 40
0.1905
 41
0.1905
 66
1
 10
0
 20
0
 30
0
  0
VERTEX
  8
LAYER_1
 10
67.6591
 20
163.1243
  0
VERTEX
  8
LAYER_1
 10
66.791
 20
163.1243
  0
SEQEND
  0
POLYLINE
  8
LAYER_1
 40
0.1905
 41
0.1905
 66
1
 10
0
 20
0
 30
0
  0
VERTEX
  8
LAYER_1
 10
65.9229
 20
163.1243
  0
VERTEX
  8
LAYER_1
 10
65.0548
 20
163.1243
  0
SEQEND
  0
POLYLINE
  8
LAYER_1
 40
0.1905
 41
0.1905
 66
1
 10
0
 20
0
 30
0
  0
VERTEX
  8
LAYER_1
 10
64.1867
 20
163.1243
  0
VERTEX
  8
LAYER_1
 10
63.7421
 20
163.1243
  0
SEQEND
  0
POLYLINE
  8
LAYER_1
 40
0.1905
 41
0.1905
 66
1
 10
0
 20
0
 30
0
  0
VERTEX
  8
LAYER_1
 10
63.0222
 20
163.1243
  0
VERTEX
  8
LAYER_1
 10
62.3129
 20
163.1243
  0
SEQEND
  0
POLYLINE
  8
LAYER_1
 40
0.1905
 41
0.1905
 66
1
 10
0
 20
0
 30
0
  0
VERTEX
  8
LAYER_1
 10
88.8956
 20
163.6218
  0
VERTEX
  8
LAYER_1
 10
88.8956
 20
163.5477
  0
SEQEND
  0
POLYLINE
  8
LAYER_1
 40
0.1905
 41
0.1905
 66
1
 10
0
 20
0
 30
0
  0
VERTEX
  8
LAYER_1
 10
88.8956
 20
163.3995
  0
VERTEX
  8
LAYER_1
 10
88.885
 20
163.3148
  0
SEQEND
  0
POLYLINE
  8
LAYER_1
 40
0.1905
 41
0.1905
 66
1
 10
0
 20
0
 30
0
  0
VERTEX
  8
LAYER_1
 10
88.6838
 20
163.1243
  0
VERTEX
  8
LAYER_1
 10
88.6944
 20
163.1243
  0
VERTEX
  8
LAYER_1
 10
88.705
 20
163.1243
  0
VERTEX
  8
LAYER_1
 10
88.7156
 20
163.1243
  0
VERTEX
  8
LAYER_1
 10
88.7262
 20
163.1243
  0
SEQEND
  0
POLYLINE
  8
LAYER_1
 40
0.1905
 41
0.1905
 66
1
 10
0
 20
0
 30
0
  0
VERTEX
  8
LAYER_1
 10
88.8109
 20
163.1666
  0
VERTEX
  8
LAYER_1
 10
88.8215
 20
163.1772
  0
VERTEX
  8
LAYER_1
 10
88.8215
 20
163.1878
  0
VERTEX
  8
LAYER_1
 10
88.832
 20
163.1878
  0
VERTEX
  8
LAYER_1
 10
88.8426
 20
163.1984
  0
VERTEX
  8
LAYER_1
 10
88.8426
 20
163.2089
  0
VERTEX
  8
LAYER_1
 10
88.8532
 20
163.2195
  0
VERTEX
  8
LAYER_1
 10
88.8638
 20
163.2301
  0
VERTEX
  8
LAYER_1
 10
88.8638
 20
163.2407
  0
SEQEND
  0
POLYLINE
  8
LAYER_1
 40
0.1905
 41
0.1905
 66
1
 10
0
 20
0
 30
0
  0
VERTEX
  8
LAYER_1
 10
88.885
 20
163.3148
  0
SEQEND
  0
POLYLINE
  8
LAYER_1
 40
0.1905
 41
0.1905
 66
1
 10
0
 20
0
 30
0
  0
VERTEX
  8
LAYER_1
 10
88.7367
 20
160.5941
  0
VERTEX
  8
LAYER_1
 10
88.7791
 20
161.3034
  0
SEQEND
  0
POLYLINE
  8
LAYER_1
 40
0.1905
 41
0.1905
 66
1
 10
0
 20
0
 30
0
  0
VERTEX
  8
LAYER_1
 10
88.8214
 20
162.1397
  0
VERTEX
  8
LAYER_1
 10
88.8532
 20
162.8384
  0
SEQEND
  0
POLYLINE
  8
LAYER_1
 40
0.1905
 41
0.1905
 66
1
 10
0
 20
0
 30
0
  0
VERTEX
  8
LAYER_1
 10
88.4721
 20
155.5761
  0
VERTEX
  8
LAYER_1
 10
88.5144
 20
156.2854
  0
SEQEND
  0
POLYLINE
  8
LAYER_1
 40
0.1905
 41
0.1905
 66
1
 10
0
 20
0
 30
0
  0
VERTEX
  8
LAYER_1
 10
88.5779
 20
157.4816
  0
VERTEX
  8
LAYER_1
 10
88.5991
 20
157.9263
  0
SEQEND
  0
POLYLINE
  8
LAYER_1
 40
0.1905
 41
0.1905
 66
1
 10
0
 20
0
 30
0
  0
VERTEX
  8
LAYER_1
 10
88.6415
 20
158.8367
  0
VERTEX
  8
LAYER_1
 10
88.6732
 20
159.2919
  0
SEQEND
  0
POLYLINE
  8
LAYER_1
 40
0.1905
 41
0.1905
 66
1
 10
0
 20
0
 30
0
  0
VERTEX
  8
LAYER_1
 10
88.705
 20
159.8954
  0
VERTEX
  8
LAYER_1
 10
88.7367
 20
160.5941
  0
SEQEND
  0
POLYLINE
  8
LAYER_1
 40
0.1905
 41
0.1905
 66
1
 10
0
 20
0
 30
0
  0
VERTEX
  8
LAYER_1
 10
74.2227
 20
153.8611
  0
VERTEX
  8
LAYER_1
 10
73.524
 20
153.8611
  0
SEQEND
  0
POLYLINE
  8
LAYER_1
 40
0.1905
 41
0.1905
 66
1
 10
0
 20
0
 30
0
  0
VERTEX
  8
LAYER_1
 10
71.8407
 20
153.8611
  0
VERTEX
  8
LAYER_1
 10
71.2161
 20
153.8611
  0
SEQEND
  0
POLYLINE
  8
LAYER_1
 40
0.1905
 41
0.1905
 66
1
 10
0
 20
0
 30
0
  0
VERTEX
  8
LAYER_1
 10
69.9563
 20
153.8611
  0
VERTEX
  8
LAYER_1
 10
69.3211
 20
153.8611
  0
SEQEND
  0
POLYLINE
  8
LAYER_1
 40
0.1905
 41
0.1905
 66
1
 10
0
 20
0
 30
0
  0
VERTEX
  8
LAYER_1
 10
68.4742
 20
153.8611
  0
VERTEX
  8
LAYER_1
 10
67.7755
 20
153.8611
  0
SEQEND
  0
POLYLINE
  8
LAYER_1
 40
0.1905
 41
0.1905
 66
1
 10
0
 20
0
 30
0
  0
VERTEX
  8
LAYER_1
 10
69.4799
 20
153.3423
  0
VERTEX
  8
LAYER_1
 10
68.7812
 20
153.3423
  0
SEQEND
  0
POLYLINE
  8
LAYER_1
 40
0.1905
 41
0.1905
 66
1
 10
0
 20
0
 30
0
  0
VERTEX
  8
LAYER_1
 10
72.0101
 20
153.3423
  0
VERTEX
  8
LAYER_1
 10
71.6396
 20
153.3423
  0
SEQEND
  0
POLYLINE
  8
LAYER_1
 40
0.1905
 41
0.1905
 66
1
 10
0
 20
0
 30
0
  0
VERTEX
  8
LAYER_1
 10
70.8773
 20
153.3423
  0
VERTEX
  8
LAYER_1
 10
70.4962
 20
153.3423
  0
SEQEND
  0
POLYLINE
  8
LAYER_1
 40
0.1905
 41
0.1905
 66
1
 10
0
 20
0
 30
0
  0
VERTEX
  8
LAYER_1
 10
73.217
 20
153.3423
  0
VERTEX
  8
LAYER_1
 10
72.5183
 20
153.3423
  0
SEQEND
  0
POLYLINE
  8
LAYER_1
 40
0.1905
 41
0.1905
 66
1
 10
0
 20
0
 30
0
  0
VERTEX
  8
LAYER_1
 10
71.7031
 20
153.8611
  0
VERTEX
  8
LAYER_1
 10
71.0044
 20
153.8611
  0
SEQEND
  0
POLYLINE
  8
LAYER_1
 40
0.1905
 41
0.1905
 66
1
 10
0
 20
0
 30
0
  0
VERTEX
  8
LAYER_1
 10
74.2227
 20
153.8611
  0
VERTEX
  8
LAYER_1
 10
73.524
 20
153.8611
  0
SEQEND
  0
POLYLINE
  8
LAYER_1
 40
0.1905
 41
0.1905
 66
1
 10
0
 20
0
 30
0
  0
VERTEX
  8
LAYER_1
 10
67.7755
 20
153.8505
 42
0.269769524
  0
VERTEX
  8
LAYER_1
 10
67.7967
 20
153.8399
 42
0.07369225523
  0
VERTEX
  8
LAYER_1
 10
67.8602
 20
153.8611
  0
SEQEND
  0
POLYLINE
  8
LAYER_1
 40
0.1905
 41
0.1905
 66
1
 10
0
 20
0
 30
0
  0
VERTEX
  8
LAYER_1
 10
68.1778
 20
153.8611
  0
VERTEX
  8
LAYER_1
 10
67.8814
 20
153.8611
  0
SEQEND
  0
POLYLINE
  8
LAYER_1
 40
0.1905
 41
0.1905
 66
1
 10
0
 20
0
 30
0
  0
VERTEX
  8
LAYER_1
 10
68.4531
 20
153.8611
  0
VERTEX
  8
LAYER_1
 10
68.1778
 20
153.8611
  0
SEQEND
  0
POLYLINE
  8
LAYER_1
 40
0.1905
 41
0.1905
 66
1
 10
0
 20
0
 30
0
  0
VERTEX
  8
LAYER_1
 10
71.0044
 20
153.8611
  0
VERTEX
  8
LAYER_1
 10
70.2951
 20
153.8611
  0
SEQEND
  0
POLYLINE
  8
LAYER_1
 40
0.1905
 41
0.1905
 66
1
 10
0
 20
0
 30
0
  0
VERTEX
  8
LAYER_1
 10
62.1223
 20
163.3148
  0
VERTEX
  8
LAYER_1
 10
62.1223
 20
163.3889
  0
SEQEND
  0
POLYLINE
  8
LAYER_1
 40
0.1905
 41
0.1905
 66
1
 10
0
 20
0
 30
0
  0
VERTEX
  8
LAYER_1
 10
62.1118
 20
163.5371
  0
VERTEX
  8
LAYER_1
 10
62.1012
 20
163.6218
  0
SEQEND
  0
POLYLINE
  8
LAYER_1
 40
0.1905
 41
0.1905
 66
1
 10
0
 20
0
 30
0
  0
VERTEX
  8
LAYER_1
 10
62.3129
 20
163.1242
  0
VERTEX
  8
LAYER_1
 10
62.3023
 20
163.1242
  0
VERTEX
  8
LAYER_1
 10
62.2917
 20
163.1242
  0
VERTEX
  8
LAYER_1
 10
62.2811
 20
163.1242
  0
VERTEX
  8
LAYER_1
 10
62.2706
 20
163.1348
  0
SEQEND
  0
POLYLINE
  8
LAYER_1
 40
0.1905
 41
0.1905
 66
1
 10
0
 20
0
 30
0
  0
VERTEX
  8
LAYER_1
 10
62.1965
 20
163.1666
  0
VERTEX
  8
LAYER_1
 10
62.1859
 20
163.1666
  0
VERTEX
  8
LAYER_1
 10
62.1859
 20
163.1772
  0
VERTEX
  8
LAYER_1
 10
62.1753
 20
163.1878
  0
VERTEX
  8
LAYER_1
 10
62.1647
 20
163.1878
  0
VERTEX
  8
LAYER_1
 10
62.1647
 20
163.1983
  0
VERTEX
  8
LAYER_1
 10
62.1541
 20
163.2089
  0
VERTEX
  8
LAYER_1
 10
62.1541
 20
163.2195
  0
VERTEX
  8
LAYER_1
 10
62.1435
 20
163.2195
  0
SEQEND
  0
POLYLINE
  8
LAYER_1
 40
0.1905
 41
0.1905
 66
1
 10
0
 20
0
 30
0
  0
VERTEX
  8
LAYER_1
 10
62.1224
 20
163.3042
  0
VERTEX
  8
LAYER_1
 10
62.1224
 20
163.3148
  0
SEQEND
  0
POLYLINE
  8
LAYER_1
 40
0.1905
 41
0.1905
 66
1
 10
0
 20
0
 30
0
  0
VERTEX
  8
LAYER_1
 10
53.1344
 20
163.1242
  0
VERTEX
  8
LAYER_1
 10
53.1344
 20
163.2407
  0
SEQEND
  0
POLYLINE
  8
LAYER_1
 40
0.1905
 41
0.1905
 66
1
 10
0
 20
0
 30
0
  0
VERTEX
  8
LAYER_1
 10
53.1133
 20
163.4948
  0
VERTEX
  8
LAYER_1
 10
53.1027
 20
163.6218
  0
SEQEND
  0
POLYLINE
  8
LAYER_1
 40
0.1905
 41
0.1905
 66
1
 10
0
 20
0
 30
0
  0
VERTEX
  8
LAYER_1
 10
53.5367
 20
155.3326
  0
VERTEX
  8
LAYER_1
 10
53.505
 20
156.0313
  0
SEQEND
  0
POLYLINE
  8
LAYER_1
 40
0.1905
 41
0.1905
 66
1
 10
0
 20
0
 30
0
  0
VERTEX
  8
LAYER_1
 10
53.4309
 20
157.3017
  0
VERTEX
  8
LAYER_1
 10
53.4097
 20
157.8522
  0
SEQEND
  0
POLYLINE
  8
LAYER_1
 40
0.1905
 41
0.1905
 66
1
 10
0
 20
0
 30
0
  0
VERTEX
  8
LAYER_1
 10
53.3462
 20
158.9743
  0
VERTEX
  8
LAYER_1
 10
53.2932
 20
160.0965
  0
SEQEND
  0
POLYLINE
  8
LAYER_1
 40
0.1905
 41
0.1905
 66
1
 10
0
 20
0
 30
0
  0
VERTEX
  8
LAYER_1
 10
53.2297
 20
161.2187
  0
VERTEX
  8
LAYER_1
 10
53.198
 20
161.7798
  0
SEQEND
  0
POLYLINE
  8
LAYER_1
 40
0.1905
 41
0.1905
 66
1
 10
0
 20
0
 30
0
  0
VERTEX
  8
LAYER_1
 10
53.1662
 20
162.4255
  0
VERTEX
  8
LAYER_1
 10
53.1344
 20
163.1242
  0
SEQEND
  0
POLYLINE
  8
LAYER_1
 40
0.1905
 41
0.1905
 66
1
 10
0
 20
0
 30
0
  0
VERTEX
  8
LAYER_1
 10
53.5367
 20
155.3326
  0
VERTEX
  8
LAYER_1
 10
53.5367
 20
155.3008
  0
SEQEND
  0
POLYLINE
  8
LAYER_1
 40
0.1905
 41
0.1905
 66
1
 10
0
 20
0
 30
0
  0
VERTEX
  8
LAYER_1
 10
53.5367
 20
155.2373
  0
VERTEX
  8
LAYER_1
 10
53.5473
 20
155.195
  0
SEQEND
  0
POLYLINE
  8
LAYER_1
 40
0.1905
 41
0.1905
 66
1
 10
0
 20
0
 30
0
  0
VERTEX
  8
LAYER_1
 10
53.9073
 20
154.835
  0
VERTEX
  8
LAYER_1
 10
53.8861
 20
154.835
  0
VERTEX
  8
LAYER_1
 10
53.8649
 20
154.835
  0
VERTEX
  8
LAYER_1
 10
53.8437
 20
154.835
  0
VERTEX
  8
LAYER_1
 10
53.8226
 20
154.835
  0
SEQEND
  0
POLYLINE
  8
LAYER_1
 40
0.1905
 41
0.1905
 66
1
 10
0
 20
0
 30
0
  0
VERTEX
  8
LAYER_1
 10
53.6849
 20
154.8985
  0
VERTEX
  8
LAYER_1
 10
53.6743
 20
154.8985
  0
VERTEX
  8
LAYER_1
 10
53.6638
 20
154.9091
  0
VERTEX
  8
LAYER_1
 10
53.6532
 20
154.9197
  0
VERTEX
  8
LAYER_1
 10
53.6426
 20
154.9303
  0
SEQEND
  0
POLYLINE
  8
LAYER_1
 40
0.1905
 41
0.1905
 66
1
 10
0
 20
0
 30
0
  0
VERTEX
  8
LAYER_1
 10
53.5897
 20
155.0044
  0
VERTEX
  8
LAYER_1
 10
53.5791
 20
155.0256
  0
VERTEX
  8
LAYER_1
 10
53.5685
 20
155.0573
  0
VERTEX
  8
LAYER_1
 10
53.5579
 20
155.0785
  0
VERTEX
  8
LAYER_1
 10
53.5579
 20
155.0997
  0
SEQEND
  0
POLYLINE
  8
LAYER_1
 40
0.1905
 41
0.1905
 66
1
 10
0
 20
0
 30
0
  0
VERTEX
  8
LAYER_1
 10
53.5473
 20
155.195
  0
SEQEND
  0
POLYLINE
  8
LAYER_1
 40
0.1905
 41
0.1905
 66
1
 10
0
 20
0
 30
0
  0
VERTEX
  8
LAYER_1
 10
88.4615
 20
155.195
  0
VERTEX
  8
LAYER_1
 10
88.4509
 20
155.1738
  0
VERTEX
  8
LAYER_1
 10
88.4509
 20
155.1526
  0
VERTEX
  8
LAYER_1
 10
88.4509
 20
155.1314
  0
VERTEX
  8
LAYER_1
 10
88.4509
 20
155.1103
  0
SEQEND
  0
POLYLINE
  8
LAYER_1
 40
0.1905
 41
0.1905
 66
1
 10
0
 20
0
 30
0
  0
VERTEX
  8
LAYER_1
 10
88.398
 20
154.9726
  0
VERTEX
  8
LAYER_1
 10
88.3874
 20
154.9621
  0
VERTEX
  8
LAYER_1
 10
88.3768
 20
154.9515
  0
VERTEX
  8
LAYER_1
 10
88.3768
 20
154.9409
  0
VERTEX
  8
LAYER_1
 10
88.3663
 20
154.9303
  0
SEQEND
  0
POLYLINE
  8
LAYER_1
 40
0.1905
 41
0.1905
 66
1
 10
0
 20
0
 30
0
  0
VERTEX
  8
LAYER_1
 10
88.2922
 20
154.8774
  0
VERTEX
  8
LAYER_1
 10
88.2604
 20
154.8668
  0
VERTEX
  8
LAYER_1
 10
88.2392
 20
154.8562
  0
VERTEX
  8
LAYER_1
 10
88.2181
 20
154.8456
  0
VERTEX
  8
LAYER_1
 10
88.1863
 20
154.8456
  0
SEQEND
  0
POLYLINE
  8
LAYER_1
 40
0.1905
 41
0.1905
 66
1
 10
0
 20
0
 30
0
  0
VERTEX
  8
LAYER_1
 10
88.091
 20
154.835
  0
SEQEND
  0
POLYLINE
  8
LAYER_1
 40
0.1905
 41
0.1905
 66
1
 10
0
 20
0
 30
0
  0
VERTEX
  8
LAYER_1
 10
88.4615
 20
155.195
  0
VERTEX
  8
LAYER_1
 10
88.4615
 20
155.2902
  0
SEQEND
  0
POLYLINE
  8
LAYER_1
 40
0.1905
 41
0.1905
 66
1
 10
0
 20
0
 30
0
  0
VERTEX
  8
LAYER_1
 10
88.4615
 20
155.4808
  0
VERTEX
  8
LAYER_1
 10
88.4721
 20
155.5761
  0
SEQEND
  0
POLYLINE
  8
LAYER_1
 40
0.1905
 41
0.1905
 66
1
 10
0
 20
0
 30
0
  0
VERTEX
  8
LAYER_1
 10
74.2227
 20
153.8611
  0
VERTEX
  8
LAYER_1
 10
73.9792
 20
153.734
  0
SEQEND
  0
POLYLINE
  8
LAYER_1
 40
0.1905
 41
0.1905
 66
1
 10
0
 20
0
 30
0
  0
VERTEX
  8
LAYER_1
 10
73.4711
 20
153.48
  0
VERTEX
  8
LAYER_1
 10
73.217
 20
153.3423
  0
SEQEND
  0
POLYLINE
  8
LAYER_1
 40
0.1905
 41
0.1905
 66
1
 10
0
 20
0
 30
0
  0
VERTEX
  8
LAYER_1
 10
67.7755
 20
153.8611
  0
VERTEX
  8
LAYER_1
 10
68.019
 20
153.734
  0
SEQEND
  0
POLYLINE
  8
LAYER_1
 40
0.1905
 41
0.1905
 66
1
 10
0
 20
0
 30
0
  0
VERTEX
  8
LAYER_1
 10
68.5272
 20
153.48
  0
VERTEX
  8
LAYER_1
 10
68.7813
 20
153.3423
  0
SEQEND
  0
POLYLINE
  8
LAYER_1
 40
0.1905
 41
0.1905
 66
1
 10
0
 20
0
 30
0
  0
VERTEX
  8
LAYER_1
 10
74.2227
 20
153.8611
  0
SEQEND
  0
POLYLINE
  8
LAYER_1
 40
0.1905
 41
0.1905
 66
1
 10
0
 20
0
 30
0
  0
VERTEX
  8
LAYER_1
 10
67.7755
 20
153.8611
  0
VERTEX
  8
LAYER_1
 10
67.0768
 20
153.914
  0
SEQEND
  0
POLYLINE
  8
LAYER_1
 40
0.1905
 41
0.1905
 66
1
 10
0
 20
0
 30
0
  0
VERTEX
  8
LAYER_1
 10
65.69
 20
154.0093
  0
VERTEX
  8
LAYER_1
 10
65.2666
 20
154.0305
  0
SEQEND
  0
POLYLINE
  8
LAYER_1
 40
0.1905
 41
0.1905
 66
1
 10
0
 20
0
 30
0
  0
VERTEX
  8
LAYER_1
 10
64.3985
 20
154.094
  0
VERTEX
  8
LAYER_1
 10
63.5304
 20
154.1575
  0
SEQEND
  0
POLYLINE
  8
LAYER_1
 40
0.1905
 41
0.1905
 66
1
 10
0
 20
0
 30
0
  0
VERTEX
  8
LAYER_1
 10
62.6623
 20
154.2104
  0
VERTEX
  8
LAYER_1
 10
61.7942
 20
154.2739
  0
SEQEND
  0
POLYLINE
  8
LAYER_1
 40
0.1905
 41
0.1905
 66
1
 10
0
 20
0
 30
0
  0
VERTEX
  8
LAYER_1
 10
60.9261
 20
154.3375
  0
VERTEX
  8
LAYER_1
 10
60.0686
 20
154.3904
  0
SEQEND
  0
POLYLINE
  8
LAYER_1
 40
0.1905
 41
0.1905
 66
1
 10
0
 20
0
 30
0
  0
VERTEX
  8
LAYER_1
 10
59.2005
 20
154.4539
  0
VERTEX
  8
LAYER_1
 10
58.3324
 20
154.5174
  0
SEQEND
  0
POLYLINE
  8
LAYER_1
 40
0.1905
 41
0.1905
 66
1
 10
0
 20
0
 30
0
  0
VERTEX
  8
LAYER_1
 10
57.4643
 20
154.5704
  0
VERTEX
  8
LAYER_1
 10
56.5962
 20
154.6339
  0
SEQEND
  0
POLYLINE
  8
LAYER_1
 40
0.1905
 41
0.1905
 66
1
 10
0
 20
0
 30
0
  0
VERTEX
  8
LAYER_1
 10
55.7281
 20
154.6974
  0
VERTEX
  8
LAYER_1
 10
55.2941
 20
154.7292
  0
SEQEND
  0
POLYLINE
  8
LAYER_1
 40
0.1905
 41
0.1905
 66
1
 10
0
 20
0
 30
0
  0
VERTEX
  8
LAYER_1
 10
54.6059
 20
154.7821
  0
VERTEX
  8
LAYER_1
 10
53.9072
 20
154.835
  0
SEQEND
  0
POLYLINE
  8
LAYER_1
 40
0.1905
 41
0.1905
 66
1
 10
0
 20
0
 30
0
  0
VERTEX
  8
LAYER_1
 10
74.2227
 20
153.8611
  0
VERTEX
  8
LAYER_1
 10
74.9214
 20
153.914
  0
SEQEND
  0
POLYLINE
  8
LAYER_1
 40
0.1905
 41
0.1905
 66
1
 10
0
 20
0
 30
0
  0
VERTEX
  8
LAYER_1
 10
76.3082
 20
154.0093
  0
VERTEX
  8
LAYER_1
 10
76.7317
 20
154.0305
  0
SEQEND
  0
POLYLINE
  8
LAYER_1
 40
0.1905
 41
0.1905
 66
1
 10
0
 20
0
 30
0
  0
VERTEX
  8
LAYER_1
 10
77.5998
 20
154.094
  0
VERTEX
  8
LAYER_1
 10
78.4679
 20
154.1575
  0
SEQEND
  0
POLYLINE
  8
LAYER_1
 40
0.1905
 41
0.1905
 66
1
 10
0
 20
0
 30
0
  0
VERTEX
  8
LAYER_1
 10
79.336
 20
154.2104
  0
VERTEX
  8
LAYER_1
 10
80.2041
 20
154.2739
  0
SEQEND
  0
POLYLINE
  8
LAYER_1
 40
0.1905
 41
0.1905
 66
1
 10
0
 20
0
 30
0
  0
VERTEX
  8
LAYER_1
 10
81.0722
 20
154.3375
  0
VERTEX
  8
LAYER_1
 10
81.9297
 20
154.3904
  0
SEQEND
  0
POLYLINE
  8
LAYER_1
 40
0.1905
 41
0.1905
 66
1
 10
0
 20
0
 30
0
  0
VERTEX
  8
LAYER_1
 10
82.7978
 20
154.4539
  0
VERTEX
  8
LAYER_1
 10
83.6659
 20
154.5174
  0
SEQEND
  0
POLYLINE
  8
LAYER_1
 40
0.1905
 41
0.1905
 66
1
 10
0
 20
0
 30
0
  0
VERTEX
  8
LAYER_1
 10
84.5339
 20
154.5704
  0
VERTEX
  8
LAYER_1
 10
85.402
 20
154.6339
  0
SEQEND
  0
POLYLINE
  8
LAYER_1
 40
0.1905
 41
0.1905
 66
1
 10
0
 20
0
 30
0
  0
VERTEX
  8
LAYER_1
 10
86.2701
 20
154.6974
  0
VERTEX
  8
LAYER_1
 10
86.7042
 20
154.7292
  0
SEQEND
  0
POLYLINE
  8
LAYER_1
 40
0.1905
 41
0.1905
 66
1
 10
0
 20
0
 30
0
  0
VERTEX
  8
LAYER_1
 10
87.3923
 20
154.7821
  0
VERTEX
  8
LAYER_1
 10
88.091
 20
154.835
  0
SEQEND
  0
POLYLINE
  8
LAYER_1
 40
0.1905
 41
0.1905
 66
1
 10
0
 20
0
 30
0
  0
VERTEX
  8
LAYER_1
 10
88.885
 20
163.3148
  0
VERTEX
  8
LAYER_1
 10
88.885
 20
163.1984
  0
SEQEND
  0
POLYLINE
  8
LAYER_1
 40
0.1905
 41
0.1905
 66
1
 10
0
 20
0
 30
0
  0
VERTEX
  8
LAYER_1
 10
88.8638
 20
162.9655
  0
VERTEX
  8
LAYER_1
 10
88.8532
 20
162.8384
  0
SEQEND
  0
POLYLINE
  8
LAYER_1
 40
0.1905
 41
0.1905
 66
1
 10
0
 20
0
 30
0
  0
VERTEX
  8
LAYER_1
 10
99.0586
 20
163.6218
  0
VERTEX
  8
LAYER_1
 10
99.101
 20
162.9231
  0
SEQEND
  0
POLYLINE
  8
LAYER_1
 40
0.1905
 41
0.1905
 66
1
 10
0
 20
0
 30
0
  0
VERTEX
  8
LAYER_1
 10
99.1751
 20
161.4939
  0
VERTEX
  8
LAYER_1
 10
99.1856
 20
161.2716
  0
SEQEND
  0
POLYLINE
  8
LAYER_1
 40
0.1905
 41
0.1905
 66
1
 10
0
 20
0
 30
0
  0
VERTEX
  8
LAYER_1
 10
99.2068
 20
160.827
  0
VERTEX
  8
LAYER_1
 10
99.2174
 20
160.5941
  0
VERTEX
  8
LAYER_1
 10
99.2492
 20
159.9907
  0
SEQEND
  0
POLYLINE
  8
LAYER_1
 40
0.1905
 41
0.1905
 66
1
 10
0
 20
0
 30
0
  0
VERTEX
  8
LAYER_1
 10
99.3127
 20
158.7626
  0
VERTEX
  8
LAYER_1
 10
99.3762
 20
157.5346
  0
SEQEND
  0
POLYLINE
  8
LAYER_1
 40
0.1905
 41
0.1905
 66
1
 10
0
 20
0
 30
0
  0
VERTEX
  8
LAYER_1
 10
99.4397
 20
156.3066
  0
VERTEX
  8
LAYER_1
 10
99.4821
 20
155.6925
  0
VERTEX
  8
LAYER_1
 10
99.4821
 20
155.5761
  0
SEQEND
  0
POLYLINE
  8
LAYER_1
 40
0.1905
 41
0.1905
 66
1
 10
0
 20
0
 30
0
  0
VERTEX
  8
LAYER_1
 10
99.4926
 20
155.322
  0
VERTEX
  8
LAYER_1
 10
99.5032
 20
155.195
  0
VERTEX
  8
LAYER_1
 10
99.5032
 20
155.1844
  0
VERTEX
  8
LAYER_1
 10
99.5032
 20
155.1632
  0
VERTEX
  8
LAYER_1
 10
99.5032
 20
155.142
  0
VERTEX
  8
LAYER_1
 10
99.5138
 20
155.1209
  0
SEQEND
  0
POLYLINE
  8
LAYER_1
 40
0.1905
 41
0.1905
 66
1
 10
0
 20
0
 30
0
  0
VERTEX
  8
LAYER_1
 10
99.5668
 20
154.9832
  0
VERTEX
  8
LAYER_1
 10
99.5773
 20
154.9727
  0
VERTEX
  8
LAYER_1
 10
99.5879
 20
154.9515
  0
VERTEX
  8
LAYER_1
 10
99.6091
 20
154.9409
  0
VERTEX
  8
LAYER_1
 10
99.6197
 20
154.9303
  0
VERTEX
  8
LAYER_1
 10
99.6303
 20
154.9197
  0
VERTEX
  8
LAYER_1
 10
99.6514
 20
154.8986
  0
VERTEX
  8
LAYER_1
 10
99.662
 20
154.888
  0
VERTEX
  8
LAYER_1
 10
99.6726
 20
154.8774
  0
VERTEX
  8
LAYER_1
 10
99.6938
 20
154.8774
  0
VERTEX
  8
LAYER_1
 10
99.715
 20
154.8668
  0
VERTEX
  8
LAYER_1
 10
99.7361
 20
154.8562
  0
VERTEX
  8
LAYER_1
 10
99.7573
 20
154.8456
  0
SEQEND
  0
POLYLINE
  8
LAYER_1
 40
0.1905
 41
0.1905
 66
1
 10
0
 20
0
 30
0
  0
VERTEX
  8
LAYER_1
 10
99.8632
 20
154.835
  0
VERTEX
  8
LAYER_1
 10
100.3078
 20
154.8139
  0
SEQEND
  0
POLYLINE
  8
LAYER_1
 40
0.1905
 41
0.1905
 66
1
 10
0
 20
0
 30
0
  0
VERTEX
  8
LAYER_1
 10
101.1971
 20
154.7503
  0
VERTEX
  8
LAYER_1
 10
102.0863
 20
154.6868
  0
SEQEND
  0
POLYLINE
  8
LAYER_1
 40
0.1905
 41
0.1905
 66
1
 10
0
 20
0
 30
0
  0
VERTEX
  8
LAYER_1
 10
102.9756
 20
154.6233
  0
VERTEX
  8
LAYER_1
 10
103.8649
 20
154.5598
  0
SEQEND
  0
POLYLINE
  8
LAYER_1
 40
0.1905
 41
0.1905
 66
1
 10
0
 20
0
 30
0
  0
VERTEX
  8
LAYER_1
 10
104.7541
 20
154.4963
  0
VERTEX
  8
LAYER_1
 10
105.6434
 20
154.4327
  0
SEQEND
  0
POLYLINE
  8
LAYER_1
 40
0.1905
 41
0.1905
 66
1
 10
0
 20
0
 30
0
  0
VERTEX
  8
LAYER_1
 10
106.5326
 20
154.3692
  0
VERTEX
  8
LAYER_1
 10
107.4219
 20
154.3057
  0
SEQEND
  0
POLYLINE
  8
LAYER_1
 40
0.1905
 41
0.1905
 66
1
 10
0
 20
0
 30
0
  0
VERTEX
  8
LAYER_1
 10
108.3112
 20
154.2422
  0
VERTEX
  8
LAYER_1
 10
109.2004
 20
154.1787
  0
SEQEND
  0
POLYLINE
  8
LAYER_1
 40
0.1905
 41
0.1905
 66
1
 10
0
 20
0
 30
0
  0
VERTEX
  8
LAYER_1
 10
110.0897
 20
154.1152
  0
VERTEX
  8
LAYER_1
 10
110.979
 20
154.0516
  0
SEQEND
  0
POLYLINE
  8
LAYER_1
 40
0.1905
 41
0.1905
 66
1
 10
0
 20
0
 30
0
  0
VERTEX
  8
LAYER_1
 10
111.8682
 20
153.9881
  0
VERTEX
  8
LAYER_1
 10
112.3129
 20
153.9563
  0
SEQEND
  0
POLYLINE
  8
LAYER_1
 40
0.1905
 41
0.1905
 66
1
 10
0
 20
0
 30
0
  0
VERTEX
  8
LAYER_1
 10
113.0222
 20
153.914
  0
VERTEX
  8
LAYER_1
 10
113.7209
 20
153.8611
  0
SEQEND
  0
POLYLINE
  8
LAYER_1
 40
0.1905
 41
0.1905
 66
1
 10
0
 20
0
 30
0
  0
VERTEX
  8
LAYER_1
 10
136.6194
 20
117.0095
 42
0.3947102137
  0
VERTEX
  8
LAYER_1
 10
134.8832
 20
115.2628
 42
0.414216474
  0
VERTEX
  8
LAYER_1
 10
136.6194
 20
113.5266
 42
0.3920447208
  0
VERTEX
  8
LAYER_1
 10
138.3662
 20
115.2628
 42
0.4142106686
  0
VERTEX
  8
LAYER_1
 10
136.6194
 20
117.0095
  0
SEQEND
  0
POLYLINE
  8
LAYER_1
 40
0.1905
 41
0.1905
 66
1
 10
0
 20
0
 30
0
  0
VERTEX
  8
LAYER_1
 10
143.4477
 20
131.4601
  0
VERTEX
  8
LAYER_1
 10
143.4159
 20
131.4601
  0
SEQEND
  0
POLYLINE
  8
LAYER_1
 40
0.1905
 41
0.1905
 66
1
 10
0
 20
0
 30
0
  0
VERTEX
  8
LAYER_1
 10
143.3524
 20
131.4601
  0
VERTEX
  8
LAYER_1
 10
143.3101
 20
131.4601
  0
VERTEX
  8
LAYER_1
 10
136.63
 20
131.4601
  0
SEQEND
  0
POLYLINE
  8
LAYER_1
 40
0.1905
 41
0.1905
 66
1
 10
0
 20
0
 30
0
  0
VERTEX
  8
LAYER_1
 10
132.4483
 20
124.3142
  0
VERTEX
  8
LAYER_1
 10
132.4483
 20
128.6652
  0
SEQEND
  0
TEXT
  8
LAYER_1
 10
137.7426
 20
132.031
 11
137.7426
 21
132.031
 40
2.9618
 41
0.5
  1
67.5
  0
POLYLINE
  8
LAYER_1
 40
0.1905
 41
0.1905
 66
1
 10
0
 20
0
 30
0
  0
VERTEX
  8
LAYER_1
 10
116.9498
 20
136.044
  0
VERTEX
  8
LAYER_1
 10
116.9498
 20
110.7741
  0
SEQEND
  0
POLYLINE
  8
LAYER_1
 40
0.1058
 41
0.1058
 62
1
 66
1
 10
0
 20
0
 30
0
  0
VERTEX
  8
LAYER_1
 10
136.6194
 20
119.2645
 42
0.3936744895
  0
VERTEX
  8
LAYER_1
 10
132.6283
 20
115.2628
 42
0.4142128534
  0
VERTEX
  8
LAYER_1
 10
136.6194
 20
111.2717
 42
0.3922993714
  0
VERTEX
  8
LAYER_1
 10
140.6211
 20
115.2628
 42
0.3930364823
  0
VERTEX
  8
LAYER_1
 10
136.6194
 20
119.2645
  0
SEQEND
  0
POLYLINE
  8
LAYER_1
 40
0.1058
 41
0.1058
 62
1
 66
1
 10
0
 20
0
 30
0
  0
VERTEX
  8
LAYER_1
 10
116.9392
 20
115.7603
 42
0.3934492911
  0
VERTEX
  8
LAYER_1
 10
111.9529
 20
110.7635
 42
0.4142143661
  0
VERTEX
  8
LAYER_1
 10
116.9392
 20
105.7773
 42
0.3924595883
  0
VERTEX
  8
LAYER_1
 10
121.936
 20
110.7635
 42
0.4142127603
  0
VERTEX
  8
LAYER_1
 10
116.9392
 20
115.7603
  0
SEQEND
  0
TEXT
  8
LAYER_1
 10
133.9565
 20
110.8478
 11
133.9565
 21
110.8478
 40
2.9618
 41
0.5
  1
%%c35
  0
TEXT
  8
LAYER_1
 10
126.4633
 20
120.3719
 11
126.4633
 21
120.3719
 40
2.5981
 41
0.5
 62
1
  1
カウンター
  0
TEXT
  8
LAYER_1
 10
126.4633
 20
117.3719
 11
126.4633
 21
117.3719
 40
2.5981
 41
0.5
 62
1
  1
開口
  0
TEXT
  8
LAYER_1
 10
126.0344
 20
114.5408
 11
126.0344
 21
114.5408
 40
2.9618
 41
0.5
 62
1
  1
%%c80
  0
TEXT
  8
LAYER_1
 10
109.8375
 20
102.6157
 11
109.8375
 21
102.6157
 40
2.5981
 41
0.5
 62
1
  1
カウンター開口
  0
TEXT
  8
LAYER_1
 10
109.8375
 20
99.6158
 11
109.8375
 21
99.6158
 40
2.9618
 41
0.5
 62
1
  1
%%c100
  0
POLYLINE
  8
LAYER_1
 40
0.1905
 41
0.1905
 66
1
 10
0
 20
0
 30
0
  0
VERTEX
  8
LAYER_1
 10
116.9498
 20
136.044
  0
VERTEX
  8
LAYER_1
 10
143.4477
 20
136.044
  0
SEQEND
  0
POLYLINE
  8
LAYER_1
 40
0.1905
 41
0.1905
 66
1
 10
0
 20
0
 30
0
  0
VERTEX
  8
LAYER_1
 10
136.63
 20
115.2522
  0
VERTEX
  8
LAYER_1
 10
136.63
 20
115.2734
  0
SEQEND
  0
POLYLINE
  8
LAYER_1
 40
0.1905
 41
0.1905
 66
1
 10
0
 20
0
 30
0
  0
VERTEX
  8
LAYER_1
 10
147.5976
 20
115.2734
  0
VERTEX
  8
LAYER_1
 10
136.63
 20
115.2734
  0
VERTEX
  8
LAYER_1
 10
136.63
 20
131.4601
  0
SEQEND
  0
TEXT
  8
LAYER_1
 10
146.8639
 20
116.767
 11
146.8639
 21
116.767
 40
2.9618
 41
0.5
 50
89.99999999
  1
140
  0
TEXT
  8
LAYER_1
 10
146.8639
 20
106.4717
 11
146.8639
 21
106.4717
 40
2.9618
 41
0.5
 50
89.99999999
  1
140
  0
TEXT
  8
LAYER_1
 10
155.1681
 20
113.9394
 11
155.1681
 21
113.9394
 40
2.9618
 41
0.5
 50
89.99999999
  1
370
  0
POLYLINE
  8
LAYER_1
 40
0.1905
 41
0.1905
 66
1
 10
0
 20
0
 30
0
  0
VERTEX
  8
LAYER_1
 10
98.0635
 20
92.2795
  0
VERTEX
  8
LAYER_1
 10
89.2767
 20
92.2795
  0
SEQEND
  0
POLYLINE
  8
LAYER_1
 40
0.1905
 41
0.1905
 66
1
 10
0
 20
0
 30
0
  0
VERTEX
  8
LAYER_1
 10
89.7743
 20
92.2795
  0
VERTEX
  8
LAYER_1
 10
89.7743
 20
110.7741
  0
SEQEND
  0
POLYLINE
  8
LAYER_1
 40
0.1905
 41
0.1905
 66
1
 10
0
 20
0
 30
0
  0
VERTEX
  8
LAYER_1
 10
116.9498
 20
110.7741
  0
VERTEX
  8
LAYER_1
 10
89.2767
 20
110.7741
  0
SEQEND
  0
TEXT
  8
LAYER_1
 10
89.4788
 20
99.7322
 11
89.4788
 21
99.7322
 40
2.9618
 41
0.5
 50
89.99999999
  1
185
  0
TEXT
  8
LAYER_1
 10
106.0957
 20
136.7311
 11
106.0957
 21
136.7311
 40
2.9618
 41
0.5
  1
185
  0
TEXT
  8
LAYER_1
 10
126.7933
 20
136.7311
 11
126.7933
 21
136.7311
 40
2.9618
 41
0.5
  1
265
  0
TEXT
  8
LAYER_9
 10
18.1791
 20
6.2646
 11
18.1791
 21
6.2646
 40
3.2995
 41
0.5
  1
仕様
  0
POLYLINE
  8
LAYER_9
 40
0.3528
 41
0.3528
 66
1
 10
0
 20
0
 30
0
  0
VERTEX
  8
LAYER_9
 10
205.0762
 20
10.8455
  0
VERTEX
  8
LAYER_9
 10
17.0763
 20
10.8455
  0
SEQEND
  0
INSERT
  8
LAYER_9
  2
AIGNBL09010002
 10
0
 20
0
 30
0
  0
POLYLINE
  8
LAYER_9
 40
0.3528
 41
0.3528
 66
1
 10
0
 20
0
 30
0
  0
VERTEX
  8
LAYER_9
 10
17.0763
 20
268.2234
  0
VERTEX
  8
LAYER_9
 10
17.0763
 20
-6.7769
  0
VERTEX
  8
LAYER_9
 10
205.0762
 20
-6.7769
  0
VERTEX
  8
LAYER_9
 10
205.0762
 20
268.2234
  0
VERTEX
  8
LAYER_9
 10
17.0763
 20
268.2234
  0
SEQEND
  0
POLYLINE
  8
LAYER_9
 40
0.3528
 41
0.3528
 66
1
 10
0
 20
0
 30
0
  0
VERTEX
  8
LAYER_9
 10
205.0762
 20
19.3546
  0
VERTEX
  8
LAYER_9
 10
17.0763
 20
19.3546
  0
SEQEND
  0
POLYLINE
  8
LAYER_9
 40
0.3528
 41
0.3528
 66
1
 10
0
 20
0
 30
0
  0
VERTEX
  8
LAYER_9
 10
205.0762
 20
2.3365
  0
VERTEX
  8
LAYER_9
 10
127.3025
 20
2.3365
  0
SEQEND
  0
TEXT
  8
LAYER_9
 10
157.5084
 20
4.6123
 11
157.5084
 21
4.6123
 40
3.7615
 41
0.5
  1
-
  0
TEXT
  8
LAYER_9
 10
152.2167
 20
8.3692
 11
152.2167
 21
8.3692
 40
2.1997
 41
0.5
  1
縮尺
  0
POLYLINE
  8
LAYER_9
 40
0.3528
 41
0.3528
 66
1
 10
0
 20
0
 30
0
  0
VERTEX
  8
LAYER_9
 10
150.6885
 20
2.3365
  0
VERTEX
  8
LAYER_9
 10
150.6885
 20
10.8455
  0
SEQEND
  0
TEXT
  8
LAYER_9
 10
128.0011
 20
16.8782
 11
128.0011
 21
16.8782
 40
2.1997
 41
0.5
  1
品番
  0
TEXT
  8
LAYER_9
 10
18.2332
 20
16.8782
 11
18.2332
 21
16.8782
 40
2.1997
 41
0.5
  1
品名
  0
TEXT
  8
LAYER_9
 10
128.0011
 20
8.3692
 11
128.0011
 21
8.3692
 40
2.1997
 41
0.5
  1
重量
  0
TEXT
  8
LAYER_9
 10
135.5345
 20
13.0462
 11
135.5345
 21
13.0462
 40
5.9385
 41
0.5
  1
EX-LAVNOU/
  0
TEXT
  8
LAYER_9
 10
133.3138
 20
4.6123
 11
133.3138
 21
4.6123
 40
3.7615
 41
0.5
  1
-
  0
POLYLINE
  8
LAYER_9
 40
0.3528
 41
0.3528
 66
1
 10
0
 20
0
 30
0
  0
VERTEX
  8
LAYER_9
 10
127.3025
 20
-6.1512
  0
VERTEX
  8
LAYER_9
 10
127.3025
 20
19.3546
  0
SEQEND
  0
TEXT
  8
LAYER_9
 10
24.2354
 20
13.7859
 11
24.2354
 21
13.7859
 40
4.1465
 41
0.5
  1
ヌーヴォー 置き型洗面器450ｍｍ
  0
TEXT
  8
LAYER_9
 10
28.7512
 20
5.7361
 11
28.7512
 21
5.7361
 40
3.5541
 41
0.5
  1
●洗面器：LivingTec（人工大理石）●サイズ：W450×D370×H115mm
  0
TEXT
  8
LAYER_9
 10
28.7512
 20
0.986
 11
28.7512
 21
0.986
 40
3.5541
 41
0.5
  1
●重量：8.5Kg●設置方法：カウンター置き●水栓取付穴：1穴
  0
TEXT
  8
LAYER_9
 10
28.7512
 20
-3.7638
 11
28.7512
 21
-3.7638
 40
3.1177
 41
0.5
  1
●オーバーフローなし
  0
TEXT
  8
LAYER_9
 10
191.6644
 20
22.153
 11
191.6644
 21
22.153
 40
2.9618
 41
0.5
  1
単位：mm
  0
TEXT
  8
LAYER_9
 10
194.7605
 20
264.7297
 11
194.7605
 21
264.7297
 40
2.0732
 41
0.5
  1
190711RT
  0
TEXT
  8
LAYER_9
 10
154.2662
 20
-1.6816
 11
154.2662
 21
-1.6816
 40
2.8694
 41
0.5
  1
●TEL 0120-65-1232●FAX 06-6532-1580
  0
TEXT
  8
LAYER_9
 10
154.2662
 20
-4.6609
 11
154.2662
 21
-4.6609
 40
2.8694
 41
0.5
  1
hits@hiratatile.co.jp
  0
INSERT
  8
LAYER_9
  2
AIGNBL09010003
 10
0
 20
0
 30
0
  0
ENDSEC
  0
EOF
