  0
SECTION
  2
HEADER
  9
$ACADVER
  1
AC1009
  9
$LUNITS
 70
2
  9
$LUPREC
 70
4
  9
$LTSCALE
 40
1.0
  9
$EXTMIN
 10
16.0764
 20
-7.7766
 30
0
  9
$EXTMAX
 10
206.0763
 20
269.2235
 30
0
  0
ENDSEC
  0
SECTION
  2
TABLES
  0
TABLE
  2
LTYPE
 70
256
  0
ENDTAB
  0
TABLE
  2
LAYER
 70
9
  0
LAYER
  2
LAYER_1
 70
64
 62
7
  6
CONTINUOUS
  0
LAYER
  2
LAYER_2
 70
64
 62
7
  6
CONTINUOUS
  0
LAYER
  2
LAYER_3
 70
64
 62
7
  6
CONTINUOUS
  0
LAYER
  2
LAYER_4
 70
64
 62
7
  6
CONTINUOUS
  0
LAYER
  2
LAYER_5
 70
64
 62
7
  6
CONTINUOUS
  0
LAYER
  2
LAYER_6
 70
64
 62
7
  6
CONTINUOUS
  0
LAYER
  2
LAYER_7
 70
64
 62
7
  6
CONTINUOUS
  0
LAYER
  2
LAYER_8
 70
64
 62
7
  6
CONTINUOUS
  0
LAYER
  2
LAYER_9
 70
64
 62
7
  6
CONTINUOUS
  0
ENDTAB
  0
TABLE
  2
STYLE
 70
6
  0
STYLE
  2
STANDARD
 70
0
 40
0
 50
0
 71
0
 41
0
 42
0
  3
TXT
  4
BIGFONT
  0
ENDTAB
  0
ENDSEC
  0
SECTION
  2
BLOCKS
  0
BLOCK
  8
LAYER_9
  2
AIGNBL09040006
 70
64
 10
0
 20
0
 30
0
  3
AIGNBL09040006
  0
POLYLINE
  8
LAYER_9
 40
0.05
 41
0.05
 66
1
 10
0
 20
0
 30
0
 70
1
  0
VERTEX
  8
LAYER_9
 10
129.456
 20
-2.0154
  0
VERTEX
  8
LAYER_9
 10
129.0416
 20
-3.02
  0
VERTEX
  8
LAYER_9
 10
128.5093
 20
-3.02
  0
VERTEX
  8
LAYER_9
 10
129.8649
 20
0.1719
  0
VERTEX
  8
LAYER_9
 10
130.4864
 20
0.1719
  0
VERTEX
  8
LAYER_9
 10
131.8483
 20
-3.02
  0
VERTEX
  8
LAYER_9
 10
131.2971
 20
-3.02
  0
VERTEX
  8
LAYER_9
 10
130.8709
 20
-2.0154
  0
SEQEND
  0
POLYLINE
  8
LAYER_9
 40
0.05
 41
0.05
 66
1
 10
0
 20
0
 30
0
 70
1
  0
VERTEX
  8
LAYER_9
 10
130.7645
 20
-1.6943
  0
VERTEX
  8
LAYER_9
 10
130.3738
 20
-0.7748
 42
-0.02216005297
  0
VERTEX
  8
LAYER_9
 10
130.1664
 20
-0.1926
  0
VERTEX
  8
LAYER_9
 10
130.1547
 20
-0.1926
  0
VERTEX
  8
LAYER_9
 10
129.9531
 20
-0.771
  0
VERTEX
  8
LAYER_9
 10
129.5628
 20
-1.6943
  0
SEQEND
  0
ENDBLK
  0
BLOCK
  8
LAYER_9
  2
AIGNBL09040007
 70
64
 10
0
 20
0
 30
0
  3
AIGNBL09040007
  0
POLYLINE
  8
LAYER_9
 40
0.05
 41
0.05
 66
1
 10
0
 20
0
 30
0
 70
1
  0
VERTEX
  8
LAYER_9
 10
135.5483
 20
-3.4888
 42
-0.01552181083
  0
VERTEX
  8
LAYER_9
 10
134.0208
 20
-3.1192
 42
0.09485548057
  0
VERTEX
  8
LAYER_9
 10
133.7779
 20
-3.0723
 42
-0.1003837549
  0
VERTEX
  8
LAYER_9
 10
132.9136
 20
-2.8753
 42
-0.1096977777
  0
VERTEX
  8
LAYER_9
 10
132.3509
 20
-2.4434
 42
-0.1713220547
  0
VERTEX
  8
LAYER_9
 10
132.0204
 20
-1.5054
 42
-0.006481895679
  0
VERTEX
  8
LAYER_9
 10
132.0198
 20
-1.4576
 42
-0.1157034776
  0
VERTEX
  8
LAYER_9
 10
132.1944
 20
-0.6874
 42
-0.1679073219
  0
VERTEX
  8
LAYER_9
 10
132.9309
 20
0.0216
 42
-0.1003512093
  0
VERTEX
  8
LAYER_9
 10
133.7293
 20
0.2196
 42
-0.01509702754
  0
VERTEX
  8
LAYER_9
 10
133.8788
 20
0.2239
 42
-0.1039813645
  0
VERTEX
  8
LAYER_9
 10
134.7542
 20
0.0481
 42
-0.1145898629
  0
VERTEX
  8
LAYER_9
 10
135.3272
 20
-0.3876
 42
-0.1701856296
  0
VERTEX
  8
LAYER_9
 10
135.666
 20
-1.3471
 42
-0.006054360336
  0
VERTEX
  8
LAYER_9
 10
135.6665
 20
-1.3911
 42
-0.1147479258
  0
VERTEX
  8
LAYER_9
 10
135.4962
 20
-2.1585
 42
-0.1768882835
  0
VERTEX
  8
LAYER_9
 10
134.7691
 20
-2.8357
 42
-0.03553098636
  0
VERTEX
  8
LAYER_9
 10
134.5299
 20
-2.9208
  0
VERTEX
  8
LAYER_9
 10
134.5299
 20
-2.9397
 42
0.015518042
  0
VERTEX
  8
LAYER_9
 10
135.6965
 20
-3.1433
  0
SEQEND
  0
POLYLINE
  8
LAYER_9
 40
0.05
 41
0.05
 66
1
 10
0
 20
0
 30
0
 70
1
  0
VERTEX
  8
LAYER_9
 10
135.1221
 20
-1.4094
 42
0.1259362341
  0
VERTEX
  8
LAYER_9
 10
134.9462
 20
-0.7184
 42
0.276679865
  0
VERTEX
  8
LAYER_9
 10
133.8606
 20
-0.1123
 42
0.1289955121
  0
VERTEX
  8
LAYER_9
 10
133.1745
 20
-0.2827
 42
0.1986420642
  0
VERTEX
  8
LAYER_9
 10
132.6285
 20
-1.0068
 42
0.0720917222
  0
VERTEX
  8
LAYER_9
 10
132.5704
 20
-1.4473
 42
0.1267003761
  0
VERTEX
  8
LAYER_9
 10
132.7336
 20
-2.1134
 42
0.2778201673
  0
VERTEX
  8
LAYER_9
 10
133.8371
 20
-2.7364
 42
0.1289462616
  0
VERTEX
  8
LAYER_9
 10
134.5134
 20
-2.5677
 42
0.1974163715
  0
VERTEX
  8
LAYER_9
 10
135.0613
 20
-1.849
 42
0.07132768739
  0
SEQEND
  0
ENDBLK
  0
BLOCK
  8
LAYER_9
  2
AIGNBL09040008
 70
64
 10
0
 20
0
 30
0
  3
AIGNBL09040008
  0
POLYLINE
  8
LAYER_9
 40
0.05
 41
0.05
 66
1
 10
0
 20
0
 30
0
 70
1
  0
VERTEX
  8
LAYER_9
 10
136.7917
 20
0.1719
  0
VERTEX
  8
LAYER_9
 10
136.7917
 20
-1.7177
 42
0.1389690947
  0
VERTEX
  8
LAYER_9
 10
136.9577
 20
-2.374
 42
0.2427126428
  0
VERTEX
  8
LAYER_9
 10
137.6108
 20
-2.7319
 42
0.02279498975
  0
VERTEX
  8
LAYER_9
 10
137.7211
 20
-2.7364
 42
0.1446729725
  0
VERTEX
  8
LAYER_9
 10
138.3259
 20
-2.5761
 42
0.1656579644
  0
VERTEX
  8
LAYER_9
 10
138.6235
 20
-2.1745
 42
0.08655069697
  0
VERTEX
  8
LAYER_9
 10
138.692
 20
-1.7177
  0
VERTEX
  8
LAYER_9
 10
138.692
 20
0.1719
  0
VERTEX
  8
LAYER_9
 10
139.2128
 20
0.1719
  0
VERTEX
  8
LAYER_9
 10
139.2128
 20
-1.6895
 42
-0.1213820876
  0
VERTEX
  8
LAYER_9
 10
139.0452
 20
-2.4294
 42
-0.2016338535
  0
VERTEX
  8
LAYER_9
 10
138.3376
 20
-2.9837
 42
-0.07892789043
  0
VERTEX
  8
LAYER_9
 10
137.7032
 20
-3.0723
 42
-0.1140673463
  0
VERTEX
  8
LAYER_9
 10
136.8908
 20
-2.9015
 42
-0.2086854916
  0
VERTEX
  8
LAYER_9
 10
136.338
 20
-2.2193
 42
-0.07376116688
  0
VERTEX
  8
LAYER_9
 10
136.2707
 20
-1.7081
  0
VERTEX
  8
LAYER_9
 10
136.2707
 20
0.1719
  0
SEQEND
  0
ENDBLK
  0
BLOCK
  8
LAYER_9
  2
AIGNBL09040009
 70
64
 10
0
 20
0
 30
0
  3
AIGNBL09040009
  0
POLYLINE
  8
LAYER_9
 40
0.05
 41
0.05
 66
1
 10
0
 20
0
 30
0
 70
1
  0
VERTEX
  8
LAYER_9
 10
140.6932
 20
-2.0154
  0
VERTEX
  8
LAYER_9
 10
140.2784
 20
-3.02
  0
VERTEX
  8
LAYER_9
 10
139.7462
 20
-3.02
  0
VERTEX
  8
LAYER_9
 10
141.1018
 20
0.1719
  0
VERTEX
  8
LAYER_9
 10
141.723
 20
0.1719
  0
VERTEX
  8
LAYER_9
 10
143.0848
 20
-3.02
  0
VERTEX
  8
LAYER_9
 10
142.5343
 20
-3.02
  0
VERTEX
  8
LAYER_9
 10
142.1081
 20
-2.0154
  0
SEQEND
  0
POLYLINE
  8
LAYER_9
 40
0.05
 41
0.05
 66
1
 10
0
 20
0
 30
0
 70
1
  0
VERTEX
  8
LAYER_9
 10
142.0013
 20
-1.6943
  0
VERTEX
  8
LAYER_9
 10
141.6103
 20
-0.7748
 42
-0.02125651819
  0
VERTEX
  8
LAYER_9
 10
141.4029
 20
-0.1926
  0
VERTEX
  8
LAYER_9
 10
141.3912
 20
-0.1926
 42
-0.02103918769
  0
VERTEX
  8
LAYER_9
 10
141.19
 20
-0.771
  0
VERTEX
  8
LAYER_9
 10
140.7993
 20
-1.6943
  0
SEQEND
  0
ENDBLK
  0
BLOCK
  8
LAYER_9
  2
AIGNBL0904000A
 70
64
 10
0
 20
0
 30
0
  3
AIGNBL0904000A
  0
POLYLINE
  8
LAYER_9
 40
0.05
 41
0.05
 66
1
 10
0
 20
0
 30
0
 70
1
  0
VERTEX
  8
LAYER_9
 10
143.9667
 20
0.134
 42
-0.03323004622
  0
VERTEX
  8
LAYER_9
 10
144.9558
 20
0.196
 42
-0.09647193575
  0
VERTEX
  8
LAYER_9
 10
145.8857
 20
0.0378
 42
-0.05236720747
  0
VERTEX
  8
LAYER_9
 10
146.0744
 20
-0.0692
 42
-0.2475259652
  0
VERTEX
  8
LAYER_9
 10
146.4234
 20
-0.7372
 42
-0.1633402787
  0
VERTEX
  8
LAYER_9
 10
146.2524
 20
-1.2789
 42
-0.05697727427
  0
VERTEX
  8
LAYER_9
 10
146.1158
 20
-1.419
 42
-0.07156855431
  0
VERTEX
  8
LAYER_9
 10
145.8226
 20
-1.5999
 42
-0.09992408918
  0
VERTEX
  8
LAYER_9
 10
145.0131
 20
-1.7676
 42
-0.009805001523
  0
VERTEX
  8
LAYER_9
 10
144.8962
 20
-1.7697
 42
-0.05927523618
  0
VERTEX
  8
LAYER_9
 10
144.4821
 20
-1.7412
  0
VERTEX
  8
LAYER_9
 10
144.4821
 20
-3.02
  0
VERTEX
  8
LAYER_9
 10
143.9667
 20
-3.02
  0
SEQEND
  0
POLYLINE
  8
LAYER_9
 40
0.05
 41
0.05
 66
1
 10
0
 20
0
 30
0
 70
1
  0
VERTEX
  8
LAYER_9
 10
144.4821
 20
-1.4049
 42
0.04848394292
  0
VERTEX
  8
LAYER_9
 10
144.9079
 20
-1.4383
 42
0.1267241775
  0
VERTEX
  8
LAYER_9
 10
145.6171
 20
-1.2783
 42
0.1801713856
  0
VERTEX
  8
LAYER_9
 10
145.8819
 20
-0.948
 42
0.07354410889
  0
VERTEX
  8
LAYER_9
 10
145.9091
 20
-0.7562
 42
0.3108550011
  0
VERTEX
  8
LAYER_9
 10
145.5518
 20
-0.2329
 42
0.1110538748
  0
VERTEX
  8
LAYER_9
 10
144.9679
 20
-0.1313
 42
0.05507706355
  0
VERTEX
  8
LAYER_9
 10
144.4821
 20
-0.1643
  0
SEQEND
  0
ENDBLK
  0
BLOCK
  8
LAYER_9
  2
AIGNBL0904000B
 70
64
 10
0
 20
0
 30
0
  3
AIGNBL0904000B
  0
POLYLINE
  8
LAYER_9
 40
0.05
 41
0.05
 66
1
 10
0
 20
0
 30
0
 70
1
  0
VERTEX
  8
LAYER_9
 10
147.7391
 20
-0.0837
 42
-0.324457032
  0
VERTEX
  8
LAYER_9
 10
147.577
 20
-0.309
 42
-0.09625236779
  0
VERTEX
  8
LAYER_9
 10
147.407
 20
-0.3397
 42
-0.2676203371
  0
VERTEX
  8
LAYER_9
 10
147.1164
 20
-0.1839
 42
-0.1146645173
  0
VERTEX
  8
LAYER_9
 10
147.0932
 20
-0.0837
 42
-0.3123927637
  0
VERTEX
  8
LAYER_9
 10
147.2663
 20
0.1485
 42
-0.09437290663
  0
VERTEX
  8
LAYER_9
 10
147.4187
 20
0.1764
 42
-0.2690720095
  0
VERTEX
  8
LAYER_9
 10
147.7152
 20
0.0218
 42
-0.1137202002
  0
SEQEND
  0
POLYLINE
  8
LAYER_9
 40
0.05
 41
0.05
 66
1
 10
0
 20
0
 30
0
 70
1
  0
VERTEX
  8
LAYER_9
 10
147.1579
 20
-3.02
  0
VERTEX
  8
LAYER_9
 10
147.1579
 20
-0.7279
  0
VERTEX
  8
LAYER_9
 10
147.6788
 20
-0.7279
  0
VERTEX
  8
LAYER_9
 10
147.6788
 20
-3.02
  0
SEQEND
  0
ENDBLK
  0
BLOCK
  8
LAYER_9
  2
AIGNBL0904000C
 70
64
 10
0
 20
0
 30
0
  3
AIGNBL0904000C
  0
POLYLINE
  8
LAYER_9
 40
0.05
 41
0.05
 66
1
 10
0
 20
0
 30
0
 70
1
  0
VERTEX
  8
LAYER_9
 10
149.2653
 20
-2.0154
  0
VERTEX
  8
LAYER_9
 10
148.8515
 20
-3.02
  0
VERTEX
  8
LAYER_9
 10
148.3183
 20
-3.02
  0
VERTEX
  8
LAYER_9
 10
149.6742
 20
0.1719
  0
VERTEX
  8
LAYER_9
 10
150.2961
 20
0.1719
  0
VERTEX
  8
LAYER_9
 10
151.6579
 20
-3.02
  0
VERTEX
  8
LAYER_9
 10
151.1071
 20
-3.02
  0
VERTEX
  8
LAYER_9
 10
150.6809
 20
-2.0154
  0
SEQEND
  0
POLYLINE
  8
LAYER_9
 40
0.05
 41
0.05
 66
1
 10
0
 20
0
 30
0
 70
1
  0
VERTEX
  8
LAYER_9
 10
150.5741
 20
-1.6943
  0
VERTEX
  8
LAYER_9
 10
150.1834
 20
-0.7748
 42
-0.02374663041
  0
VERTEX
  8
LAYER_9
 10
149.9767
 20
-0.1926
  0
VERTEX
  8
LAYER_9
 10
149.9643
 20
-0.1926
  0
VERTEX
  8
LAYER_9
 10
149.7631
 20
-0.771
  0
VERTEX
  8
LAYER_9
 10
149.3725
 20
-1.6943
  0
SEQEND
  0
ENDBLK
  0
BLOCK
  8
LAYER_9
  2
AIGNBL09030005
 70
64
 10
0
 20
0
 30
0
  3
AIGNBL09030005
  0
INSERT
  8
LAYER_9
  2
AIGNBL09040006
 10
0
 20
0
 30
0
  0
INSERT
  8
LAYER_9
  2
AIGNBL09040007
 10
0
 20
0
 30
0
  0
INSERT
  8
LAYER_9
  2
AIGNBL09040008
 10
0
 20
0
 30
0
  0
INSERT
  8
LAYER_9
  2
AIGNBL09040009
 10
0
 20
0
 30
0
  0
INSERT
  8
LAYER_9
  2
AIGNBL0904000A
 10
0
 20
0
 30
0
  0
INSERT
  8
LAYER_9
  2
AIGNBL0904000B
 10
0
 20
0
 30
0
  0
INSERT
  8
LAYER_9
  2
AIGNBL0904000C
 10
0
 20
0
 30
0
  0
ENDBLK
  0
BLOCK
  8
LAYER_9
  2
AIGNBL0903000E
 70
64
 10
0
 20
0
 30
0
  3
AIGNBL0903000E
  0
POLYLINE
  8
LAYER_9
 40
0.05
 41
0.05
 66
1
 10
0
 20
0
 30
0
 70
1
  0
VERTEX
  8
LAYER_9
 10
128.6023
 20
-4.6299
  0
VERTEX
  8
LAYER_9
 10
129.0715
 20
-4.6299
  0
VERTEX
  8
LAYER_9
 10
129.0715
 20
-4.7094
  0
VERTEX
  8
LAYER_9
 10
128.5134
 20
-4.7094
  0
VERTEX
  8
LAYER_9
 10
128.5134
 20
-3.8337
  0
VERTEX
  8
LAYER_9
 10
129.0564
 20
-3.8337
  0
VERTEX
  8
LAYER_9
 10
129.0564
 20
-3.9126
  0
VERTEX
  8
LAYER_9
 10
128.6023
 20
-3.9126
  0
VERTEX
  8
LAYER_9
 10
128.6023
 20
-4.213
  0
VERTEX
  8
LAYER_9
 10
129.0267
 20
-4.213
  0
VERTEX
  8
LAYER_9
 10
129.0267
 20
-4.2922
  0
VERTEX
  8
LAYER_9
 10
128.6023
 20
-4.2922
  0
SEQEND
  0
ENDBLK
  0
BLOCK
  8
LAYER_9
  2
AIGNBL0903000F
 70
64
 10
0
 20
0
 30
0
  3
AIGNBL0903000F
  0
POLYLINE
  8
LAYER_9
 40
0.05
 41
0.05
 66
1
 10
0
 20
0
 30
0
 70
1
  0
VERTEX
  8
LAYER_9
 10
130.0376
 20
-4.5792
  0
VERTEX
  8
LAYER_9
 10
130.0396
 20
-4.5792
  0
VERTEX
  8
LAYER_9
 10
130.0396
 20
-3.8337
  0
VERTEX
  8
LAYER_9
 10
130.1288
 20
-3.8337
  0
VERTEX
  8
LAYER_9
 10
130.1288
 20
-4.7094
  0
VERTEX
  8
LAYER_9
 10
130.0179
 20
-4.7094
  0
VERTEX
  8
LAYER_9
 10
129.5084
 20
-3.956
  0
VERTEX
  8
LAYER_9
 10
129.5053
 20
-3.956
  0
VERTEX
  8
LAYER_9
 10
129.5053
 20
-4.7094
  0
VERTEX
  8
LAYER_9
 10
129.4167
 20
-4.7094
  0
VERTEX
  8
LAYER_9
 10
129.4167
 20
-3.8337
  0
VERTEX
  8
LAYER_9
 10
129.5277
 20
-3.8337
  0
SEQEND
  0
ENDBLK
  0
BLOCK
  8
LAYER_9
  2
AIGNBL09030010
 70
64
 10
0
 20
0
 30
0
  3
AIGNBL09030010
  0
POLYLINE
  8
LAYER_9
 40
0.05
 41
0.05
 66
1
 10
0
 20
0
 30
0
 70
1
  0
VERTEX
  8
LAYER_9
 10
130.5299
 20
-4.5296
 42
0.1582167888
  0
VERTEX
  8
LAYER_9
 10
130.576
 20
-4.6171
 42
0.1888509688
  0
VERTEX
  8
LAYER_9
 10
130.6718
 20
-4.6523
  0
VERTEX
  8
LAYER_9
 10
130.7476
 20
-4.6357
  0
VERTEX
  8
LAYER_9
 10
130.7951
 20
-4.5906
  0
VERTEX
  8
LAYER_9
 10
130.8196
 20
-4.5255
  0
VERTEX
  8
LAYER_9
 10
130.8268
 20
-4.4497
  0
VERTEX
  8
LAYER_9
 10
130.8268
 20
-3.8337
  0
VERTEX
  8
LAYER_9
 10
130.9157
 20
-3.8337
  0
VERTEX
  8
LAYER_9
 10
130.9157
 20
-4.4569
  0
VERTEX
  8
LAYER_9
 10
130.9061
 20
-4.5482
  0
VERTEX
  8
LAYER_9
 10
130.8709
 20
-4.6374
 42
-0.1127204021
  0
VERTEX
  8
LAYER_9
 10
130.7992
 20
-4.705
 42
-0.1223515967
  0
VERTEX
  8
LAYER_9
 10
130.6814
 20
-4.7315
 42
-0.1817315996
  0
VERTEX
  8
LAYER_9
 10
130.525
 20
-4.6805
 42
-0.1775350534
  0
VERTEX
  8
LAYER_9
 10
130.4468
 20
-4.5524
  0
SEQEND
  0
ENDBLK
  0
BLOCK
  8
LAYER_9
  2
AIGNBL09030011
 70
64
 10
0
 20
0
 30
0
  3
AIGNBL09030011
  0
POLYLINE
  8
LAYER_9
 40
0.05
 41
0.05
 66
1
 10
0
 20
0
 30
0
 70
1
  0
VERTEX
  8
LAYER_9
 10
132.1773
 20
-4.2712
 42
-0.1023210957
  0
VERTEX
  8
LAYER_9
 10
132.1425
 20
-4.4555
 42
-0.100049973
  0
VERTEX
  8
LAYER_9
 10
132.047
 20
-4.6009
 42
-0.09591375735
  0
VERTEX
  8
LAYER_9
 10
131.902
 20
-4.6967
 42
-0.09730113973
  0
VERTEX
  8
LAYER_9
 10
131.7208
 20
-4.7315
 42
-0.1005044879
  0
VERTEX
  8
LAYER_9
 10
131.5396
 20
-4.6967
 42
-0.1000956886
  0
VERTEX
  8
LAYER_9
 10
131.3949
 20
-4.6009
 42
-0.09705125056
  0
VERTEX
  8
LAYER_9
 10
131.2988
 20
-4.4555
 42
-0.09606953098
  0
VERTEX
  8
LAYER_9
 10
131.2643
 20
-4.2712
 42
-0.1007319707
  0
VERTEX
  8
LAYER_9
 10
131.2988
 20
-4.0869
 42
-0.1001858518
  0
VERTEX
  8
LAYER_9
 10
131.3949
 20
-3.9416
 42
-0.09844109675
  0
VERTEX
  8
LAYER_9
 10
131.5396
 20
-3.8458
 42
-0.09730113973
  0
VERTEX
  8
LAYER_9
 10
131.7208
 20
-3.811
 42
-0.1005044879
  0
VERTEX
  8
LAYER_9
 10
131.902
 20
-3.8458
 42
-0.09944636466
  0
VERTEX
  8
LAYER_9
 10
132.047
 20
-3.9416
 42
-0.09657751445
  0
VERTEX
  8
LAYER_9
 10
132.1425
 20
-4.0869
 42
-0.09699716326
  0
SEQEND
  0
POLYLINE
  8
LAYER_9
 40
0.05
 41
0.05
 66
1
 10
0
 20
0
 30
0
 70
1
  0
VERTEX
  8
LAYER_9
 10
132.0832
 20
-4.2719
 42
0.08590651275
  0
VERTEX
  8
LAYER_9
 10
132.0588
 20
-4.1262
 42
0.09671154951
  0
VERTEX
  8
LAYER_9
 10
131.9868
 20
-4.0046
 42
0.1020590541
  0
VERTEX
  8
LAYER_9
 10
131.8724
 20
-3.9215
 42
0.106231093
  0
VERTEX
  8
LAYER_9
 10
131.7208
 20
-3.8902
 42
0.1137246109
  0
VERTEX
  8
LAYER_9
 10
131.5692
 20
-3.9215
 42
0.1061646081
  0
VERTEX
  8
LAYER_9
 10
131.4552
 20
-4.0046
 42
0.09706696705
  0
VERTEX
  8
LAYER_9
 10
131.3832
 20
-4.1262
 42
0.08453380862
  0
VERTEX
  8
LAYER_9
 10
131.3584
 20
-4.2719
 42
0.08539697836
  0
VERTEX
  8
LAYER_9
 10
131.3832
 20
-4.4177
 42
0.1012181166
  0
VERTEX
  8
LAYER_9
 10
131.4552
 20
-4.5389
 42
0.09946553095
  0
VERTEX
  8
LAYER_9
 10
131.5692
 20
-4.6212
 42
0.1061791796
  0
VERTEX
  8
LAYER_9
 10
131.7208
 20
-4.6523
 42
0.1152832113
  0
VERTEX
  8
LAYER_9
 10
131.8724
 20
-4.6212
 42
0.10635245
  0
VERTEX
  8
LAYER_9
 10
131.9868
 20
-4.5389
 42
0.09368815098
  0
VERTEX
  8
LAYER_9
 10
132.0588
 20
-4.4177
 42
0.0834821187
  0
SEQEND
  0
ENDBLK
  0
BLOCK
  8
LAYER_9
  2
AIGNBL09030012
 70
64
 10
0
 20
0
 30
0
  3
AIGNBL09030012
  0
POLYLINE
  8
LAYER_9
 40
0.05
 41
0.05
 66
1
 10
0
 20
0
 30
0
 70
1
  0
VERTEX
  8
LAYER_9
 10
132.8339
 20
-4.7094
  0
VERTEX
  8
LAYER_9
 10
132.7451
 20
-4.7094
  0
VERTEX
  8
LAYER_9
 10
132.7451
 20
-4.3319
  0
VERTEX
  8
LAYER_9
 10
132.4174
 20
-3.8337
  0
VERTEX
  8
LAYER_9
 10
132.5287
 20
-3.8337
  0
VERTEX
  8
LAYER_9
 10
132.7922
 20
-4.2575
  0
VERTEX
  8
LAYER_9
 10
133.0579
 20
-3.8337
  0
VERTEX
  8
LAYER_9
 10
133.1615
 20
-3.8337
  0
VERTEX
  8
LAYER_9
 10
132.8339
 20
-4.3319
  0
SEQEND
  0
ENDBLK
  0
BLOCK
  8
LAYER_9
  2
AIGNBL09030013
 70
64
 10
0
 20
0
 30
0
  3
AIGNBL09030013
  0
POLYLINE
  8
LAYER_9
 40
0.05
 41
0.05
 66
1
 10
0
 20
0
 30
0
 70
1
  0
VERTEX
  8
LAYER_9
 10
133.9288
 20
-3.8337
  0
VERTEX
  8
LAYER_9
 10
134.1896
 20
-3.8337
  0
VERTEX
  8
LAYER_9
 10
134.2898
 20
-3.844
  0
VERTEX
  8
LAYER_9
 10
134.3804
 20
-3.8798
 42
-0.1156779106
  0
VERTEX
  8
LAYER_9
 10
134.4466
 20
-3.9488
 42
-0.1209575962
  0
VERTEX
  8
LAYER_9
 10
134.4717
 20
-4.0573
 42
-0.1791591056
  0
VERTEX
  8
LAYER_9
 10
134.4294
 20
-4.1779
 42
-0.1661642399
  0
VERTEX
  8
LAYER_9
 10
134.3164
 20
-4.2454
  0
VERTEX
  8
LAYER_9
 10
134.3164
 20
-4.2474
 42
-0.1711702155
  0
VERTEX
  8
LAYER_9
 10
134.4576
 20
-4.3139
 42
-0.1994341856
  0
VERTEX
  8
LAYER_9
 10
134.5137
 20
-4.4669
 42
-0.1266512869
  0
VERTEX
  8
LAYER_9
 10
134.4907
 20
-4.5661
 42
-0.1175617318
  0
VERTEX
  8
LAYER_9
 10
134.4259
 20
-4.6429
 42
-0.0864784881
  0
VERTEX
  8
LAYER_9
 10
134.3236
 20
-4.6919
 42
-0.06453463165
  0
VERTEX
  8
LAYER_9
 10
134.1882
 20
-4.7094
  0
VERTEX
  8
LAYER_9
 10
133.9288
 20
-4.7094
  0
SEQEND
  0
POLYLINE
  8
LAYER_9
 40
0.05
 41
0.05
 66
1
 10
0
 20
0
 30
0
 70
1
  0
VERTEX
  8
LAYER_9
 10
134.0177
 20
-4.2168
  0
VERTEX
  8
LAYER_9
 10
134.1972
 20
-4.2168
  0
VERTEX
  8
LAYER_9
 10
134.2622
 20
-4.2092
  0
VERTEX
  8
LAYER_9
 10
134.3219
 20
-4.1844
  0
VERTEX
  8
LAYER_9
 10
134.366
 20
-4.1365
 42
0.1124215474
  0
VERTEX
  8
LAYER_9
 10
134.3825
 20
-4.0635
  0
VERTEX
  8
LAYER_9
 10
134.366
 20
-3.9925
  0
VERTEX
  8
LAYER_9
 10
134.3208
 20
-3.9446
  0
VERTEX
  8
LAYER_9
 10
134.254
 20
-3.9181
  0
VERTEX
  8
LAYER_9
 10
134.1724
 20
-3.9102
  0
VERTEX
  8
LAYER_9
 10
134.0177
 20
-3.9102
  0
SEQEND
  0
POLYLINE
  8
LAYER_9
 40
0.05
 41
0.05
 66
1
 10
0
 20
0
 30
0
 70
1
  0
VERTEX
  8
LAYER_9
 10
134.0177
 20
-4.6326
  0
VERTEX
  8
LAYER_9
 10
134.1837
 20
-4.6326
  0
VERTEX
  8
LAYER_9
 10
134.2757
 20
-4.623
  0
VERTEX
  8
LAYER_9
 10
134.3525
 20
-4.5937
  0
VERTEX
  8
LAYER_9
 10
134.4046
 20
-4.5403
 42
0.1274798788
  0
VERTEX
  8
LAYER_9
 10
134.4245
 20
-4.4618
 42
0.2508484857
  0
VERTEX
  8
LAYER_9
 10
134.366
 20
-4.3326
 42
0.1505365177
  0
VERTEX
  8
LAYER_9
 10
134.1996
 20
-4.2898
  0
VERTEX
  8
LAYER_9
 10
134.0177
 20
-4.2898
  0
SEQEND
  0
ENDBLK
  0
BLOCK
  8
LAYER_9
  2
AIGNBL09030014
 70
64
 10
0
 20
0
 30
0
  3
AIGNBL09030014
  0
POLYLINE
  8
LAYER_9
 40
0.05
 41
0.05
 66
1
 10
0
 20
0
 30
0
 70
1
  0
VERTEX
  8
LAYER_9
 10
134.88
 20
-4.7094
  0
VERTEX
  8
LAYER_9
 10
134.7821
 20
-4.7094
  0
VERTEX
  8
LAYER_9
 10
135.1607
 20
-3.8337
  0
VERTEX
  8
LAYER_9
 10
135.2476
 20
-3.8337
  0
VERTEX
  8
LAYER_9
 10
135.6234
 20
-4.7094
  0
VERTEX
  8
LAYER_9
 10
135.5242
 20
-4.7094
  0
VERTEX
  8
LAYER_9
 10
135.4277
 20
-4.4793
  0
VERTEX
  8
LAYER_9
 10
134.975
 20
-4.4793
  0
SEQEND
  0
POLYLINE
  8
LAYER_9
 40
0.05
 41
0.05
 66
1
 10
0
 20
0
 30
0
 70
1
  0
VERTEX
  8
LAYER_9
 10
135.0081
 20
-4.3973
  0
VERTEX
  8
LAYER_9
 10
135.3943
 20
-4.3973
  0
VERTEX
  8
LAYER_9
 10
135.2014
 20
-3.9322
  0
SEQEND
  0
ENDBLK
  0
BLOCK
  8
LAYER_9
  2
AIGNBL09030015
 70
64
 10
0
 20
0
 30
0
  3
AIGNBL09030015
  0
POLYLINE
  8
LAYER_9
 40
0.05
 41
0.05
 66
1
 10
0
 20
0
 30
0
 70
1
  0
VERTEX
  8
LAYER_9
 10
136.2036
 20
-4.7094
  0
VERTEX
  8
LAYER_9
 10
136.1143
 20
-4.7094
  0
VERTEX
  8
LAYER_9
 10
136.1143
 20
-3.9126
  0
VERTEX
  8
LAYER_9
 10
135.8208
 20
-3.9126
  0
VERTEX
  8
LAYER_9
 10
135.8208
 20
-3.8337
  0
VERTEX
  8
LAYER_9
 10
136.4964
 20
-3.8337
  0
VERTEX
  8
LAYER_9
 10
136.4964
 20
-3.9126
  0
VERTEX
  8
LAYER_9
 10
136.2036
 20
-3.9126
  0
SEQEND
  0
ENDBLK
  0
BLOCK
  8
LAYER_9
  2
AIGNBL09030016
 70
64
 10
0
 20
0
 30
0
  3
AIGNBL09030016
  0
POLYLINE
  8
LAYER_9
 40
0.05
 41
0.05
 66
1
 10
0
 20
0
 30
0
 70
1
  0
VERTEX
  8
LAYER_9
 10
136.7982
 20
-3.8337
  0
VERTEX
  8
LAYER_9
 10
136.8871
 20
-3.8337
  0
VERTEX
  8
LAYER_9
 10
136.8871
 20
-4.213
  0
VERTEX
  8
LAYER_9
 10
137.3649
 20
-4.213
  0
VERTEX
  8
LAYER_9
 10
137.3649
 20
-3.8337
  0
VERTEX
  8
LAYER_9
 10
137.4538
 20
-3.8337
  0
VERTEX
  8
LAYER_9
 10
137.4538
 20
-4.7094
  0
VERTEX
  8
LAYER_9
 10
137.3649
 20
-4.7094
  0
VERTEX
  8
LAYER_9
 10
137.3649
 20
-4.2946
  0
VERTEX
  8
LAYER_9
 10
136.8871
 20
-4.2946
  0
VERTEX
  8
LAYER_9
 10
136.8871
 20
-4.7094
  0
VERTEX
  8
LAYER_9
 10
136.7982
 20
-4.7094
  0
SEQEND
  0
ENDBLK
  0
BLOCK
  8
LAYER_9
  2
AIGNBL09030017
 70
64
 10
0
 20
0
 30
0
  3
AIGNBL09030017
  0
POLYLINE
  8
LAYER_9
 40
0.05
 41
0.05
 66
1
 10
0
 20
0
 30
0
 70
1
  0
VERTEX
  8
LAYER_9
 10
137.9457
 20
-4.7094
  0
VERTEX
  8
LAYER_9
 10
137.8569
 20
-4.7094
  0
VERTEX
  8
LAYER_9
 10
137.8569
 20
-3.8337
  0
VERTEX
  8
LAYER_9
 10
138.1142
 20
-3.8337
  0
VERTEX
  8
LAYER_9
 10
138.2334
 20
-3.8458
  0
VERTEX
  8
LAYER_9
 10
138.3289
 20
-3.8861
 42
-0.1283108691
  0
VERTEX
  8
LAYER_9
 10
138.3912
 20
-3.9584
 42
-0.1051928432
  0
VERTEX
  8
LAYER_9
 10
138.4132
 20
-4.0673
  0
VERTEX
  8
LAYER_9
 10
138.3964
 20
-4.1551
  0
VERTEX
  8
LAYER_9
 10
138.3495
 20
-4.2237
  0
VERTEX
  8
LAYER_9
 10
138.2789
 20
-4.2702
  0
VERTEX
  8
LAYER_9
 10
138.1897
 20
-4.2922
  0
VERTEX
  8
LAYER_9
 10
138.4456
 20
-4.7094
  0
VERTEX
  8
LAYER_9
 10
138.3368
 20
-4.7094
  0
VERTEX
  8
LAYER_9
 10
138.0946
 20
-4.2998
  0
VERTEX
  8
LAYER_9
 10
137.9457
 20
-4.2998
  0
SEQEND
  0
POLYLINE
  8
LAYER_9
 40
0.05
 41
0.05
 66
1
 10
0
 20
0
 30
0
 70
1
  0
VERTEX
  8
LAYER_9
 10
137.9457
 20
-4.223
  0
VERTEX
  8
LAYER_9
 10
138.1008
 20
-4.223
 42
0.1560036385
  0
VERTEX
  8
LAYER_9
 10
138.2665
 20
-4.1844
 42
0.256718439
  0
VERTEX
  8
LAYER_9
 10
138.3247
 20
-4.0673
  0
VERTEX
  8
LAYER_9
 10
138.3082
 20
-3.9946
  0
VERTEX
  8
LAYER_9
 10
138.2637
 20
-3.946
  0
VERTEX
  8
LAYER_9
 10
138.1948
 20
-3.9188
  0
VERTEX
  8
LAYER_9
 10
138.1046
 20
-3.9102
  0
VERTEX
  8
LAYER_9
 10
137.9457
 20
-3.9102
  0
SEQEND
  0
ENDBLK
  0
BLOCK
  8
LAYER_9
  2
AIGNBL09030018
 70
64
 10
0
 20
0
 30
0
  3
AIGNBL09030018
  0
POLYLINE
  8
LAYER_9
 40
0.05
 41
0.05
 66
1
 10
0
 20
0
 30
0
 70
1
  0
VERTEX
  8
LAYER_9
 10
139.6342
 20
-4.2712
 42
-0.09919881555
  0
VERTEX
  8
LAYER_9
 10
139.5997
 20
-4.4555
 42
-0.1002507449
  0
VERTEX
  8
LAYER_9
 10
139.5036
 20
-4.6009
 42
-0.09817592867
  0
VERTEX
  8
LAYER_9
 10
139.3593
 20
-4.6967
 42
-0.09703887645
  0
VERTEX
  8
LAYER_9
 10
139.1777
 20
-4.7315
 42
-0.1005044879
  0
VERTEX
  8
LAYER_9
 10
138.9965
 20
-4.6967
 42
-0.1014225475
  0
VERTEX
  8
LAYER_9
 10
138.8522
 20
-4.6009
 42
-0.1006710624
  0
VERTEX
  8
LAYER_9
 10
138.7564
 20
-4.4555
 42
-0.09606953098
  0
VERTEX
  8
LAYER_9
 10
138.7219
 20
-4.2712
 42
-0.1007319707
  0
VERTEX
  8
LAYER_9
 10
138.7564
 20
-4.0869
 42
-0.1015908991
  0
VERTEX
  8
LAYER_9
 10
138.8522
 20
-3.9416
 42
-0.09884634081
  0
VERTEX
  8
LAYER_9
 10
138.9965
 20
-3.8458
 42
-0.09730113973
  0
VERTEX
  8
LAYER_9
 10
139.1777
 20
-3.811
 42
-0.1004491736
  0
VERTEX
  8
LAYER_9
 10
139.3593
 20
-3.8458
 42
-0.103270482
  0
VERTEX
  8
LAYER_9
 10
139.5036
 20
-3.9416
 42
-0.09614814713
  0
VERTEX
  8
LAYER_9
 10
139.5997
 20
-4.0869
 42
-0.09519358797
  0
SEQEND
  0
POLYLINE
  8
LAYER_9
 40
0.05
 41
0.05
 66
1
 10
0
 20
0
 30
0
 70
1
  0
VERTEX
  8
LAYER_9
 10
139.5402
 20
-4.2719
 42
0.09005809491
  0
VERTEX
  8
LAYER_9
 10
139.5154
 20
-4.1262
 42
0.09823469525
  0
VERTEX
  8
LAYER_9
 10
139.4437
 20
-4.0046
 42
0.1015931446
  0
VERTEX
  8
LAYER_9
 10
139.3293
 20
-3.9215
 42
0.1064387823
  0
VERTEX
  8
LAYER_9
 10
139.1777
 20
-3.8902
 42
0.1146236776
  0
VERTEX
  8
LAYER_9
 10
139.0265
 20
-3.9215
 42
0.1048939392
  0
VERTEX
  8
LAYER_9
 10
138.9117
 20
-4.0046
 42
0.09514694971
  0
VERTEX
  8
LAYER_9
 10
138.8401
 20
-4.1262
 42
0.08394620596
  0
VERTEX
  8
LAYER_9
 10
138.8157
 20
-4.2719
 42
0.08914187326
  0
VERTEX
  8
LAYER_9
 10
138.8401
 20
-4.4177
 42
0.09716720095
  0
VERTEX
  8
LAYER_9
 10
138.9117
 20
-4.5389
 42
0.09885574029
  0
VERTEX
  8
LAYER_9
 10
139.0265
 20
-4.6212
 42
0.1065525522
  0
VERTEX
  8
LAYER_9
 10
139.1777
 20
-4.6523
 42
0.1160974191
  0
VERTEX
  8
LAYER_9
 10
139.3293
 20
-4.6212
 42
0.1037742872
  0
VERTEX
  8
LAYER_9
 10
139.4437
 20
-4.5389
 42
0.09874351489
  0
VERTEX
  8
LAYER_9
 10
139.5154
 20
-4.4177
 42
0.08539015582
  0
SEQEND
  0
ENDBLK
  0
BLOCK
  8
LAYER_9
  2
AIGNBL09030019
 70
64
 10
0
 20
0
 30
0
  3
AIGNBL09030019
  0
POLYLINE
  8
LAYER_9
 40
0.05
 41
0.05
 66
1
 10
0
 20
0
 30
0
 70
1
  0
VERTEX
  8
LAYER_9
 10
140.8565
 20
-4.2712
 42
-0.1005579471
  0
VERTEX
  8
LAYER_9
 10
140.8217
 20
-4.4555
 42
-0.09829254072
  0
VERTEX
  8
LAYER_9
 10
140.7263
 20
-4.6009
 42
-0.09635359363
  0
VERTEX
  8
LAYER_9
 10
140.5812
 20
-4.6967
 42
-0.09730113973
  0
VERTEX
  8
LAYER_9
 10
140.4
 20
-4.7315
 42
-0.1010483144
  0
VERTEX
  8
LAYER_9
 10
140.2188
 20
-4.6967
 42
-0.1015483086
  0
VERTEX
  8
LAYER_9
 10
140.0741
 20
-4.6009
 42
-0.09705125056
  0
VERTEX
  8
LAYER_9
 10
139.978
 20
-4.4555
 42
-0.09594934368
  0
VERTEX
  8
LAYER_9
 10
139.9436
 20
-4.2712
 42
-0.1009359332
  0
VERTEX
  8
LAYER_9
 10
139.978
 20
-4.0869
 42
-0.1001858518
  0
VERTEX
  8
LAYER_9
 10
140.0741
 20
-3.9416
 42
-0.09916337287
  0
VERTEX
  8
LAYER_9
 10
140.2188
 20
-3.8458
 42
-0.09743363976
  0
VERTEX
  8
LAYER_9
 10
140.4
 20
-3.811
 42
-0.1005044879
  0
VERTEX
  8
LAYER_9
 10
140.5812
 20
-3.8458
 42
-0.09950324727
  0
VERTEX
  8
LAYER_9
 10
140.7263
 20
-3.9416
 42
-0.09627394303
  0
VERTEX
  8
LAYER_9
 10
140.8217
 20
-4.0869
 42
-0.09626911005
  0
SEQEND
  0
POLYLINE
  8
LAYER_9
 40
0.05
 41
0.05
 66
1
 10
0
 20
0
 30
0
 70
1
  0
VERTEX
  8
LAYER_9
 10
140.7625
 20
-4.2719
 42
0.08744350066
  0
VERTEX
  8
LAYER_9
 10
140.7377
 20
-4.1262
 42
0.0974662867
  0
VERTEX
  8
LAYER_9
 10
140.666
 20
-4.0046
 42
0.1015931446
  0
VERTEX
  8
LAYER_9
 10
140.5516
 20
-3.9215
 42
0.1060164095
  0
VERTEX
  8
LAYER_9
 10
140.4
 20
-3.8902
 42
0.1150639473
  0
VERTEX
  8
LAYER_9
 10
140.2485
 20
-3.9215
 42
0.1052132674
  0
VERTEX
  8
LAYER_9
 10
140.1341
 20
-4.0046
 42
0.09840570806
  0
VERTEX
  8
LAYER_9
 10
140.0624
 20
-4.1262
 42
0.08491299828
  0
VERTEX
  8
LAYER_9
 10
140.0376
 20
-4.2719
 42
0.08802482071
  0
VERTEX
  8
LAYER_9
 10
140.0624
 20
-4.4177
 42
0.1001537592
  0
VERTEX
  8
LAYER_9
 10
140.1341
 20
-4.5389
 42
0.1000329357
  0
VERTEX
  8
LAYER_9
 10
140.2485
 20
-4.6212
 42
0.1065438079
  0
VERTEX
  8
LAYER_9
 10
140.4
 20
-4.6523
 42
0.1150863754
  0
VERTEX
  8
LAYER_9
 10
140.5516
 20
-4.6212
 42
0.1037742872
  0
VERTEX
  8
LAYER_9
 10
140.666
 20
-4.5389
 42
0.0931574303
  0
VERTEX
  8
LAYER_9
 10
140.7377
 20
-4.4177
 42
0.08489455374
  0
SEQEND
  0
ENDBLK
  0
BLOCK
  8
LAYER_9
  2
AIGNBL0903001A
 70
64
 10
0
 20
0
 30
0
  3
AIGNBL0903001A
  0
POLYLINE
  8
LAYER_9
 40
0.05
 41
0.05
 66
1
 10
0
 20
0
 30
0
 70
1
  0
VERTEX
  8
LAYER_9
 10
141.6454
 20
-4.5582
  0
VERTEX
  8
LAYER_9
 10
141.6468
 20
-4.5582
  0
VERTEX
  8
LAYER_9
 10
141.9396
 20
-3.8337
  0
VERTEX
  8
LAYER_9
 10
142.0761
 20
-3.8337
  0
VERTEX
  8
LAYER_9
 10
142.0761
 20
-4.7094
  0
VERTEX
  8
LAYER_9
 10
141.9868
 20
-4.7094
  0
VERTEX
  8
LAYER_9
 10
141.9868
 20
-3.9488
  0
VERTEX
  8
LAYER_9
 10
141.9844
 20
-3.9488
  0
VERTEX
  8
LAYER_9
 10
141.6678
 20
-4.7094
  0
VERTEX
  8
LAYER_9
 10
141.621
 20
-4.7094
  0
VERTEX
  8
LAYER_9
 10
141.304
 20
-3.9488
  0
VERTEX
  8
LAYER_9
 10
141.3016
 20
-3.9488
  0
VERTEX
  8
LAYER_9
 10
141.3016
 20
-4.7094
  0
VERTEX
  8
LAYER_9
 10
141.2127
 20
-4.7094
  0
VERTEX
  8
LAYER_9
 10
141.2127
 20
-3.8337
  0
VERTEX
  8
LAYER_9
 10
141.3488
 20
-3.8337
  0
SEQEND
  0
ENDBLK
  0
BLOCK
  8
LAYER_9
  2
AIGNBL0903001B
 70
64
 10
0
 20
0
 30
0
  3
AIGNBL0903001B
  0
POLYLINE
  8
LAYER_9
 40
0.05
 41
0.05
 66
1
 10
0
 20
0
 30
0
 70
1
  0
VERTEX
  8
LAYER_9
 10
143.0479
 20
-4.6299
  0
VERTEX
  8
LAYER_9
 10
143.5168
 20
-4.6299
  0
VERTEX
  8
LAYER_9
 10
143.5168
 20
-4.7094
  0
VERTEX
  8
LAYER_9
 10
142.9587
 20
-4.7094
  0
VERTEX
  8
LAYER_9
 10
142.9587
 20
-3.8337
  0
VERTEX
  8
LAYER_9
 10
143.502
 20
-3.8337
  0
VERTEX
  8
LAYER_9
 10
143.502
 20
-3.9126
  0
VERTEX
  8
LAYER_9
 10
143.0479
 20
-3.9126
  0
VERTEX
  8
LAYER_9
 10
143.0479
 20
-4.213
  0
VERTEX
  8
LAYER_9
 10
143.472
 20
-4.213
  0
VERTEX
  8
LAYER_9
 10
143.472
 20
-4.2922
  0
VERTEX
  8
LAYER_9
 10
143.0479
 20
-4.2922
  0
SEQEND
  0
ENDBLK
  0
BLOCK
  8
LAYER_9
  2
AIGNBL0903001C
 70
64
 10
0
 20
0
 30
0
  3
AIGNBL0903001C
  0
POLYLINE
  8
LAYER_9
 40
0.05
 41
0.05
 66
1
 10
0
 20
0
 30
0
 70
1
  0
VERTEX
  8
LAYER_9
 10
144.1487
 20
-4.1872
  0
VERTEX
  8
LAYER_9
 10
144.3877
 20
-3.8337
  0
VERTEX
  8
LAYER_9
 10
144.4935
 20
-3.8337
  0
VERTEX
  8
LAYER_9
 10
144.2034
 20
-4.2502
  0
VERTEX
  8
LAYER_9
 10
144.5249
 20
-4.7094
  0
VERTEX
  8
LAYER_9
 10
144.4136
 20
-4.7094
  0
VERTEX
  8
LAYER_9
 10
144.1462
 20
-4.3146
  0
VERTEX
  8
LAYER_9
 10
143.8803
 20
-4.7094
  0
VERTEX
  8
LAYER_9
 10
143.769
 20
-4.7094
  0
VERTEX
  8
LAYER_9
 10
144.0908
 20
-4.2492
  0
VERTEX
  8
LAYER_9
 10
143.7976
 20
-3.8337
  0
VERTEX
  8
LAYER_9
 10
143.9089
 20
-3.8337
  0
SEQEND
  0
ENDBLK
  0
BLOCK
  8
LAYER_9
  2
AIGNBL0903001D
 70
64
 10
0
 20
0
 30
0
  3
AIGNBL0903001D
  0
POLYLINE
  8
LAYER_9
 40
0.05
 41
0.05
 66
1
 10
0
 20
0
 30
0
 70
1
  0
VERTEX
  8
LAYER_9
 10
144.8352
 20
-3.8337
  0
VERTEX
  8
LAYER_9
 10
145.083
 20
-3.8337
  0
VERTEX
  8
LAYER_9
 10
145.2042
 20
-3.8475
  0
VERTEX
  8
LAYER_9
 10
145.2972
 20
-3.8912
 42
-0.1196760771
  0
VERTEX
  8
LAYER_9
 10
145.3575
 20
-3.9639
 42
-0.1008071579
  0
VERTEX
  8
LAYER_9
 10
145.3782
 20
-4.0673
 42
-0.1226625575
  0
VERTEX
  8
LAYER_9
 10
145.3569
 20
-4.1706
 42
-0.1130948084
  0
VERTEX
  8
LAYER_9
 10
145.2962
 20
-4.2437
 42
-0.08414869483
  0
VERTEX
  8
LAYER_9
 10
145.2022
 20
-4.2874
  0
VERTEX
  8
LAYER_9
 10
145.0802
 20
-4.3022
  0
VERTEX
  8
LAYER_9
 10
144.9245
 20
-4.3022
  0
VERTEX
  8
LAYER_9
 10
144.9245
 20
-4.7094
  0
VERTEX
  8
LAYER_9
 10
144.8352
 20
-4.7094
  0
SEQEND
  0
POLYLINE
  8
LAYER_9
 40
0.05
 41
0.05
 66
1
 10
0
 20
0
 30
0
 70
1
  0
VERTEX
  8
LAYER_9
 10
144.9245
 20
-4.2268
  0
VERTEX
  8
LAYER_9
 10
145.075
 20
-4.2268
 42
0.1719973382
  0
VERTEX
  8
LAYER_9
 10
145.2349
 20
-4.1861
 42
0.2424570955
  0
VERTEX
  8
LAYER_9
 10
145.2893
 20
-4.0673
 42
0.2605346944
  0
VERTEX
  8
LAYER_9
 10
145.2332
 20
-3.9477
 42
0.1395217604
  0
VERTEX
  8
LAYER_9
 10
145.075
 20
-3.9102
  0
VERTEX
  8
LAYER_9
 10
144.9245
 20
-3.9102
  0
SEQEND
  0
ENDBLK
  0
BLOCK
  8
LAYER_9
  2
AIGNBL0903001E
 70
64
 10
0
 20
0
 30
0
  3
AIGNBL0903001E
  0
POLYLINE
  8
LAYER_9
 40
0.05
 41
0.05
 66
1
 10
0
 20
0
 30
0
 70
1
  0
VERTEX
  8
LAYER_9
 10
145.8123
 20
-4.6299
  0
VERTEX
  8
LAYER_9
 10
146.2812
 20
-4.6299
  0
VERTEX
  8
LAYER_9
 10
146.2812
 20
-4.7094
  0
VERTEX
  8
LAYER_9
 10
145.7234
 20
-4.7094
  0
VERTEX
  8
LAYER_9
 10
145.7234
 20
-3.8337
  0
VERTEX
  8
LAYER_9
 10
146.2664
 20
-3.8337
  0
VERTEX
  8
LAYER_9
 10
146.2664
 20
-3.9126
  0
VERTEX
  8
LAYER_9
 10
145.8123
 20
-3.9126
  0
VERTEX
  8
LAYER_9
 10
145.8123
 20
-4.213
  0
VERTEX
  8
LAYER_9
 10
146.2367
 20
-4.213
  0
VERTEX
  8
LAYER_9
 10
146.2367
 20
-4.2922
  0
VERTEX
  8
LAYER_9
 10
145.8123
 20
-4.2922
  0
SEQEND
  0
ENDBLK
  0
BLOCK
  8
LAYER_9
  2
AIGNBL0903001F
 70
64
 10
0
 20
0
 30
0
  3
AIGNBL0903001F
  0
POLYLINE
  8
LAYER_9
 40
0.05
 41
0.05
 66
1
 10
0
 20
0
 30
0
 70
1
  0
VERTEX
  8
LAYER_9
 10
146.7152
 20
-4.7094
  0
VERTEX
  8
LAYER_9
 10
146.6264
 20
-4.7094
  0
VERTEX
  8
LAYER_9
 10
146.6264
 20
-3.8337
  0
VERTEX
  8
LAYER_9
 10
146.8837
 20
-3.8337
  0
VERTEX
  8
LAYER_9
 10
147.0029
 20
-3.8458
  0
VERTEX
  8
LAYER_9
 10
147.0983
 20
-3.8861
 42
-0.1251490281
  0
VERTEX
  8
LAYER_9
 10
147.1607
 20
-3.9584
 42
-0.1051928432
  0
VERTEX
  8
LAYER_9
 10
147.1827
 20
-4.0673
  0
VERTEX
  8
LAYER_9
 10
147.1659
 20
-4.1551
  0
VERTEX
  8
LAYER_9
 10
147.1187
 20
-4.2237
  0
VERTEX
  8
LAYER_9
 10
147.048
 20
-4.2702
  0
VERTEX
  8
LAYER_9
 10
146.9591
 20
-4.2922
  0
VERTEX
  8
LAYER_9
 10
147.2151
 20
-4.7094
  0
VERTEX
  8
LAYER_9
 10
147.1062
 20
-4.7094
  0
VERTEX
  8
LAYER_9
 10
146.8637
 20
-4.2998
  0
VERTEX
  8
LAYER_9
 10
146.7152
 20
-4.2998
  0
SEQEND
  0
POLYLINE
  8
LAYER_9
 40
0.05
 41
0.05
 66
1
 10
0
 20
0
 30
0
 70
1
  0
VERTEX
  8
LAYER_9
 10
146.7152
 20
-4.223
  0
VERTEX
  8
LAYER_9
 10
146.8699
 20
-4.223
 42
0.1572399812
  0
VERTEX
  8
LAYER_9
 10
147.036
 20
-4.1844
 42
0.2567768408
  0
VERTEX
  8
LAYER_9
 10
147.0939
 20
-4.0673
  0
VERTEX
  8
LAYER_9
 10
147.078
 20
-3.9946
  0
VERTEX
  8
LAYER_9
 10
147.0332
 20
-3.946
  0
VERTEX
  8
LAYER_9
 10
146.964
 20
-3.9188
  0
VERTEX
  8
LAYER_9
 10
146.8737
 20
-3.9102
  0
VERTEX
  8
LAYER_9
 10
146.7152
 20
-3.9102
  0
SEQEND
  0
ENDBLK
  0
BLOCK
  8
LAYER_9
  2
AIGNBL09030020
 70
64
 10
0
 20
0
 30
0
  3
AIGNBL09030020
  0
POLYLINE
  8
LAYER_9
 40
0.05
 41
0.05
 66
1
 10
0
 20
0
 30
0
 70
1
  0
VERTEX
  8
LAYER_9
 10
147.6268
 20
-4.7094
  0
VERTEX
  8
LAYER_9
 10
147.5383
 20
-4.7094
  0
VERTEX
  8
LAYER_9
 10
147.5383
 20
-3.8337
  0
VERTEX
  8
LAYER_9
 10
147.6268
 20
-3.8337
  0
SEQEND
  0
ENDBLK
  0
BLOCK
  8
LAYER_9
  2
AIGNBL09030021
 70
64
 10
0
 20
0
 30
0
  3
AIGNBL09030021
  0
POLYLINE
  8
LAYER_9
 40
0.05
 41
0.05
 66
1
 10
0
 20
0
 30
0
 70
1
  0
VERTEX
  8
LAYER_9
 10
148.1191
 20
-4.6299
  0
VERTEX
  8
LAYER_9
 10
148.588
 20
-4.6299
  0
VERTEX
  8
LAYER_9
 10
148.588
 20
-4.7094
  0
VERTEX
  8
LAYER_9
 10
148.0302
 20
-4.7094
  0
VERTEX
  8
LAYER_9
 10
148.0302
 20
-3.8337
  0
VERTEX
  8
LAYER_9
 10
148.5732
 20
-3.8337
  0
VERTEX
  8
LAYER_9
 10
148.5732
 20
-3.9126
  0
VERTEX
  8
LAYER_9
 10
148.1191
 20
-3.9126
  0
VERTEX
  8
LAYER_9
 10
148.1191
 20
-4.213
  0
VERTEX
  8
LAYER_9
 10
148.5436
 20
-4.213
  0
VERTEX
  8
LAYER_9
 10
148.5436
 20
-4.2922
  0
VERTEX
  8
LAYER_9
 10
148.1191
 20
-4.2922
  0
SEQEND
  0
ENDBLK
  0
BLOCK
  8
LAYER_9
  2
AIGNBL09030022
 70
64
 10
0
 20
0
 30
0
  3
AIGNBL09030022
  0
POLYLINE
  8
LAYER_9
 40
0.05
 41
0.05
 66
1
 10
0
 20
0
 30
0
 70
1
  0
VERTEX
  8
LAYER_9
 10
149.554
 20
-4.5792
  0
VERTEX
  8
LAYER_9
 10
149.5564
 20
-4.5792
  0
VERTEX
  8
LAYER_9
 10
149.5564
 20
-3.8337
  0
VERTEX
  8
LAYER_9
 10
149.6456
 20
-3.8337
  0
VERTEX
  8
LAYER_9
 10
149.6456
 20
-4.7094
  0
VERTEX
  8
LAYER_9
 10
149.5344
 20
-4.7094
  0
VERTEX
  8
LAYER_9
 10
149.0248
 20
-3.956
  0
VERTEX
  8
LAYER_9
 10
149.0221
 20
-3.956
  0
VERTEX
  8
LAYER_9
 10
149.0221
 20
-4.7094
  0
VERTEX
  8
LAYER_9
 10
148.9332
 20
-4.7094
  0
VERTEX
  8
LAYER_9
 10
148.9332
 20
-3.8337
  0
VERTEX
  8
LAYER_9
 10
149.0445
 20
-3.8337
  0
SEQEND
  0
ENDBLK
  0
BLOCK
  8
LAYER_9
  2
AIGNBL09030023
 70
64
 10
0
 20
0
 30
0
  3
AIGNBL09030023
  0
POLYLINE
  8
LAYER_9
 40
0.05
 41
0.05
 66
1
 10
0
 20
0
 30
0
 70
1
  0
VERTEX
  8
LAYER_9
 10
150.7863
 20
-4.5672
  0
VERTEX
  8
LAYER_9
 10
150.7322
 20
-4.6302
  0
VERTEX
  8
LAYER_9
 10
150.6592
 20
-4.6826
  0
VERTEX
  8
LAYER_9
 10
150.5676
 20
-4.7184
  0
VERTEX
  8
LAYER_9
 10
150.4583
 20
-4.7315
 42
-0.1002604889
  0
VERTEX
  8
LAYER_9
 10
150.2751
 20
-4.6967
 42
-0.103618762
  0
VERTEX
  8
LAYER_9
 10
150.1307
 20
-4.6009
 42
-0.1006399092
  0
VERTEX
  8
LAYER_9
 10
150.036
 20
-4.4555
 42
-0.09570873126
  0
VERTEX
  8
LAYER_9
 10
150.0018
 20
-4.2712
 42
-0.1025357642
  0
VERTEX
  8
LAYER_9
 10
150.0367
 20
-4.0869
 42
-0.09974197432
  0
VERTEX
  8
LAYER_9
 10
150.1321
 20
-3.9416
 42
-0.09791826644
  0
VERTEX
  8
LAYER_9
 10
150.2768
 20
-3.8458
 42
-0.09710431873
  0
VERTEX
  8
LAYER_9
 10
150.4583
 20
-3.811
  0
VERTEX
  8
LAYER_9
 10
150.5527
 20
-3.8213
  0
VERTEX
  8
LAYER_9
 10
150.6402
 20
-3.8495
  0
VERTEX
  8
LAYER_9
 10
150.7143
 20
-3.8933
  0
VERTEX
  8
LAYER_9
 10
150.7701
 20
-3.9508
  0
VERTEX
  8
LAYER_9
 10
150.696
 20
-4.0056
  0
VERTEX
  8
LAYER_9
 10
150.6592
 20
-3.9632
  0
VERTEX
  8
LAYER_9
 10
150.6055
 20
-3.926
  0
VERTEX
  8
LAYER_9
 10
150.5379
 20
-3.9002
  0
VERTEX
  8
LAYER_9
 10
150.4594
 20
-3.8902
 42
0.113658286
  0
VERTEX
  8
LAYER_9
 10
150.3068
 20
-3.9212
 42
0.1043770607
  0
VERTEX
  8
LAYER_9
 10
150.1924
 20
-4.0042
 42
0.09614808583
  0
VERTEX
  8
LAYER_9
 10
150.1204
 20
-4.1258
 42
0.08382976821
  0
VERTEX
  8
LAYER_9
 10
150.0959
 20
-4.2712
 42
0.09237333632
  0
VERTEX
  8
LAYER_9
 10
150.1214
 20
-4.4166
 42
0.09906074874
  0
VERTEX
  8
LAYER_9
 10
150.1938
 20
-4.5382
 42
0.1047661843
  0
VERTEX
  8
LAYER_9
 10
150.3081
 20
-4.6212
 42
0.1066098621
  0
VERTEX
  8
LAYER_9
 10
150.4594
 20
-4.6523
 42
0.1116904268
  0
VERTEX
  8
LAYER_9
 10
150.6027
 20
-4.6212
 42
0.1367806879
  0
VERTEX
  8
LAYER_9
 10
150.7167
 20
-4.5224
  0
SEQEND
  0
ENDBLK
  0
BLOCK
  8
LAYER_9
  2
AIGNBL09030024
 70
64
 10
0
 20
0
 30
0
  3
AIGNBL09030024
  0
POLYLINE
  8
LAYER_9
 40
0.05
 41
0.05
 66
1
 10
0
 20
0
 30
0
 70
1
  0
VERTEX
  8
LAYER_9
 10
151.199
 20
-4.6299
  0
VERTEX
  8
LAYER_9
 10
151.6679
 20
-4.6299
  0
VERTEX
  8
LAYER_9
 10
151.6679
 20
-4.7094
  0
VERTEX
  8
LAYER_9
 10
151.1102
 20
-4.7094
  0
VERTEX
  8
LAYER_9
 10
151.1102
 20
-3.8337
  0
VERTEX
  8
LAYER_9
 10
151.6531
 20
-3.8337
  0
VERTEX
  8
LAYER_9
 10
151.6531
 20
-3.9126
  0
VERTEX
  8
LAYER_9
 10
151.199
 20
-3.9126
  0
VERTEX
  8
LAYER_9
 10
151.199
 20
-4.213
  0
VERTEX
  8
LAYER_9
 10
151.6235
 20
-4.213
  0
VERTEX
  8
LAYER_9
 10
151.6235
 20
-4.2922
  0
VERTEX
  8
LAYER_9
 10
151.199
 20
-4.2922
  0
SEQEND
  0
ENDBLK
  0
BLOCK
  8
LAYER_9
  2
AIGNBL09020004
 70
64
 10
0
 20
0
 30
0
  3
AIGNBL09020004
  0
INSERT
  8
LAYER_9
  2
AIGNBL09030005
 10
0
 20
0
 30
0
  0
ENDBLK
  0
BLOCK
  8
LAYER_9
  2
AIGNBL0902000D
 70
64
 10
0
 20
0
 30
0
  3
AIGNBL0902000D
  0
INSERT
  8
LAYER_9
  2
AIGNBL0903000E
 10
0
 20
0
 30
0
  0
INSERT
  8
LAYER_9
  2
AIGNBL0903000F
 10
0
 20
0
 30
0
  0
INSERT
  8
LAYER_9
  2
AIGNBL09030010
 10
0
 20
0
 30
0
  0
INSERT
  8
LAYER_9
  2
AIGNBL09030011
 10
0
 20
0
 30
0
  0
INSERT
  8
LAYER_9
  2
AIGNBL09030012
 10
0
 20
0
 30
0
  0
INSERT
  8
LAYER_9
  2
AIGNBL09030013
 10
0
 20
0
 30
0
  0
INSERT
  8
LAYER_9
  2
AIGNBL09030014
 10
0
 20
0
 30
0
  0
INSERT
  8
LAYER_9
  2
AIGNBL09030015
 10
0
 20
0
 30
0
  0
INSERT
  8
LAYER_9
  2
AIGNBL09030016
 10
0
 20
0
 30
0
  0
INSERT
  8
LAYER_9
  2
AIGNBL09030017
 10
0
 20
0
 30
0
  0
INSERT
  8
LAYER_9
  2
AIGNBL09030018
 10
0
 20
0
 30
0
  0
INSERT
  8
LAYER_9
  2
AIGNBL09030019
 10
0
 20
0
 30
0
  0
INSERT
  8
LAYER_9
  2
AIGNBL0903001A
 10
0
 20
0
 30
0
  0
INSERT
  8
LAYER_9
  2
AIGNBL0903001B
 10
0
 20
0
 30
0
  0
INSERT
  8
LAYER_9
  2
AIGNBL0903001C
 10
0
 20
0
 30
0
  0
INSERT
  8
LAYER_9
  2
AIGNBL0903001D
 10
0
 20
0
 30
0
  0
INSERT
  8
LAYER_9
  2
AIGNBL0903001E
 10
0
 20
0
 30
0
  0
INSERT
  8
LAYER_9
  2
AIGNBL0903001F
 10
0
 20
0
 30
0
  0
INSERT
  8
LAYER_9
  2
AIGNBL09030020
 10
0
 20
0
 30
0
  0
INSERT
  8
LAYER_9
  2
AIGNBL09030021
 10
0
 20
0
 30
0
  0
INSERT
  8
LAYER_9
  2
AIGNBL09030022
 10
0
 20
0
 30
0
  0
INSERT
  8
LAYER_9
  2
AIGNBL09030023
 10
0
 20
0
 30
0
  0
INSERT
  8
LAYER_9
  2
AIGNBL09030024
 10
0
 20
0
 30
0
  0
ENDBLK
  0
BLOCK
  8
LAYER_9
  2
AIGNBL09010002
 70
64
 10
0
 20
0
 30
0
  3
AIGNBL09010002
  0
POLYLINE
  8
LAYER_9
 40
0.7056
 41
0.7056
 66
1
 10
0
 20
0
 30
0
 70
1
  0
VERTEX
  8
LAYER_9
 10
206.0763
 20
269.2235
  0
VERTEX
  8
LAYER_9
 10
206.0763
 20
-7.7766
  0
VERTEX
  8
LAYER_9
 10
16.0764
 20
-7.7766
  0
VERTEX
  8
LAYER_9
 10
16.0764
 20
269.2235
  0
SEQEND
  0
ENDBLK
  0
BLOCK
  8
LAYER_9
  2
AIGNBL09010003
 70
64
 10
0
 20
0
 30
0
  3
AIGNBL09010003
  0
INSERT
  8
LAYER_9
  2
AIGNBL09020004
 10
0
 20
0
 30
0
  0
INSERT
  8
LAYER_9
  2
AIGNBL0902000D
 10
0
 20
0
 30
0
  0
ENDBLK
  0
BLOCK
  8
LAYER_9
  2
AIGNBL09010025
 70
64
 10
0
 20
0
 30
0
  3
AIGNBL09010025
  0
POLYLINE
  8
LAYER_9
 40
0.1058
 41
0.1058
 66
1
 10
0
 20
0
 30
0
  0
VERTEX
  8
LAYER_9
 10
112.9842
 20
89.9996
  0
VERTEX
  8
LAYER_9
 10
142.9827
 20
89.9996
  0
SEQEND
  0
ENDBLK
  0
BLOCK
  8
LAYER_9
  2
AIGNBL09010026
 70
64
 10
0
 20
0
 30
0
  3
AIGNBL09010026
  0
POLYLINE
  8
LAYER_9
 40
0.1058
 41
0.1058
 66
1
 10
0
 20
0
 30
0
  0
VERTEX
  8
LAYER_9
 10
142.9827
 20
89.9996
  0
VERTEX
  8
LAYER_9
 10
142.9827
 20
89.4996
  0
SEQEND
  0
ENDBLK
  0
BLOCK
  8
LAYER_9
  2
AIGNBL09010027
 70
64
 10
0
 20
0
 30
0
  3
AIGNBL09010027
  0
POLYLINE
  8
LAYER_9
 40
0.1058
 41
0.1058
 66
1
 10
0
 20
0
 30
0
  0
VERTEX
  8
LAYER_9
 10
142.9827
 20
89.4996
  0
VERTEX
  8
LAYER_9
 10
112.9842
 20
89.4996
  0
SEQEND
  0
ENDBLK
  0
BLOCK
  8
LAYER_9
  2
AIGNBL09010028
 70
64
 10
0
 20
0
 30
0
  3
AIGNBL09010028
  0
POLYLINE
  8
LAYER_9
 40
0.1058
 41
0.1058
 66
1
 10
0
 20
0
 30
0
  0
VERTEX
  8
LAYER_9
 10
113.2841
 20
90.1996
  0
VERTEX
  8
LAYER_9
 10
142.6827
 20
90.1996
  0
SEQEND
  0
ENDBLK
  0
BLOCK
  8
LAYER_9
  2
AIGNBL09010029
 70
64
 10
0
 20
0
 30
0
  3
AIGNBL09010029
  0
POLYLINE
  8
LAYER_9
 40
0.1058
 41
0.1058
 66
1
 10
0
 20
0
 30
0
  0
VERTEX
  8
LAYER_9
 10
142.6827
 20
90.1996
  0
VERTEX
  8
LAYER_9
 10
142.6832
 20
89.9996
  0
SEQEND
  0
ENDBLK
  0
BLOCK
  8
LAYER_9
  2
AIGNBL0901002A
 70
64
 10
0
 20
0
 30
0
  3
AIGNBL0901002A
  0
POLYLINE
  8
LAYER_9
 40
0.1058
 41
0.1058
 66
1
 10
0
 20
0
 30
0
  0
VERTEX
  8
LAYER_9
 10
117.85
 20
92.6996
  0
VERTEX
  8
LAYER_9
 10
120.85
 20
92.6996
  0
SEQEND
  0
ENDBLK
  0
BLOCK
  8
LAYER_9
  2
AIGNBL0901002B
 70
64
 10
0
 20
0
 30
0
  3
AIGNBL0901002B
  0
POLYLINE
  8
LAYER_9
 40
0.1058
 41
0.1058
 66
1
 10
0
 20
0
 30
0
  0
VERTEX
  8
LAYER_9
 10
116.9832
 20
168.4013
 42
0.0603212615
  0
VERTEX
  8
LAYER_9
 10
115.5232
 20
168.2363
 42
0.07083520213
  0
VERTEX
  8
LAYER_9
 10
114.5457
 20
167.8388
 42
0.08067934056
  0
VERTEX
  8
LAYER_9
 10
113.833
 20
167.239
 42
0.07875717696
  0
VERTEX
  8
LAYER_9
 10
113.3357
 20
166.4238
 42
0.06700609548
  0
VERTEX
  8
LAYER_9
 10
113.0457
 20
165.3388
 42
0.03596781689
  0
VERTEX
  8
LAYER_9
 10
112.9832
 20
164.4013
  0
VERTEX
  8
LAYER_9
 10
112.9832
 20
122.4013
 42
0.06032126171
  0
VERTEX
  8
LAYER_9
 10
113.1482
 20
120.9413
 42
0.07083520213
  0
VERTEX
  8
LAYER_9
 10
113.5457
 20
119.9638
 42
0.08067934056
  0
VERTEX
  8
LAYER_9
 10
114.1455
 20
119.2511
 42
0.07875717696
  0
VERTEX
  8
LAYER_9
 10
114.9607
 20
118.7538
 42
0.06700609548
  0
VERTEX
  8
LAYER_9
 10
116.0457
 20
118.4638
 42
0.03596781668
  0
VERTEX
  8
LAYER_9
 10
116.9832
 20
118.4013
  0
SEQEND
  0
ENDBLK
  0
BLOCK
  8
LAYER_9
  2
AIGNBL0901002C
 70
64
 10
0
 20
0
 30
0
  3
AIGNBL0901002C
  0
POLYLINE
  8
LAYER_9
 40
0.1058
 41
0.1058
 66
1
 10
0
 20
0
 30
0
  0
VERTEX
  8
LAYER_9
 10
116.9832
 20
118.4013
  0
VERTEX
  8
LAYER_9
 10
138.9832
 20
118.4013
  0
SEQEND
  0
ENDBLK
  0
BLOCK
  8
LAYER_9
  2
AIGNBL0901002D
 70
64
 10
0
 20
0
 30
0
  3
AIGNBL0901002D
  0
POLYLINE
  8
LAYER_9
 40
0.1058
 41
0.1058
 66
1
 10
0
 20
0
 30
0
  0
VERTEX
  8
LAYER_9
 10
138.9832
 20
118.4013
 42
0.0603212615
  0
VERTEX
  8
LAYER_9
 10
140.4432
 20
118.5663
 42
0.07083520213
  0
VERTEX
  8
LAYER_9
 10
141.4207
 20
118.9638
 42
0.08067934056
  0
VERTEX
  8
LAYER_9
 10
142.1334
 20
119.5636
 42
0.07875717696
  0
VERTEX
  8
LAYER_9
 10
142.6307
 20
120.3788
 42
0.06700609548
  0
VERTEX
  8
LAYER_9
 10
142.9207
 20
121.4638
 42
0.03596781668
  0
VERTEX
  8
LAYER_9
 10
142.9832
 20
122.4013
  0
VERTEX
  8
LAYER_9
 10
142.9832
 20
164.4013
 42
0.0603212615
  0
VERTEX
  8
LAYER_9
 10
142.8182
 20
165.8613
 42
0.07083520213
  0
VERTEX
  8
LAYER_9
 10
142.4207
 20
166.8388
 42
0.08067934056
  0
VERTEX
  8
LAYER_9
 10
141.8209
 20
167.5515
 42
0.07875717696
  0
VERTEX
  8
LAYER_9
 10
141.0057
 20
168.0488
 42
0.06700609548
  0
VERTEX
  8
LAYER_9
 10
139.9207
 20
168.3388
 42
0.03596781668
  0
VERTEX
  8
LAYER_9
 10
138.9832
 20
168.4013
  0
SEQEND
  0
ENDBLK
  0
BLOCK
  8
LAYER_9
  2
AIGNBL0901002E
 70
64
 10
0
 20
0
 30
0
  3
AIGNBL0901002E
  0
POLYLINE
  8
LAYER_9
 40
0.1058
 41
0.1058
 66
1
 10
0
 20
0
 30
0
  0
VERTEX
  8
LAYER_9
 10
138.9832
 20
168.4013
  0
VERTEX
  8
LAYER_9
 10
116.9832
 20
168.4013
  0
SEQEND
  0
ENDBLK
  0
BLOCK
  8
LAYER_9
  2
AIGNBL0901002F
 70
64
 10
0
 20
0
 30
0
  3
AIGNBL0901002F
  0
POLYLINE
  8
LAYER_9
 40
0.1058
 41
0.1058
 66
1
 10
0
 20
0
 30
0
  0
VERTEX
  8
LAYER_9
 10
75.1422
 20
125.0013
  0
VERTEX
  8
LAYER_9
 10
77.6422
 20
125.0013
  0
SEQEND
  0
ENDBLK
  0
BLOCK
  8
LAYER_9
  2
AIGNBL09010030
 70
64
 10
0
 20
0
 30
0
  3
AIGNBL09010030
  0
POLYLINE
  8
LAYER_9
 40
0.1058
 41
0.1058
 66
1
 10
0
 20
0
 30
0
  0
VERTEX
  8
LAYER_9
 10
77.6422
 20
125.0013
 42
-0.201969714
  0
VERTEX
  8
LAYER_9
 10
77.7129
 20
124.972
 42
-0.2008853042
  0
VERTEX
  8
LAYER_9
 10
77.7422
 20
124.9013
  0
SEQEND
  0
ENDBLK
  0
BLOCK
  8
LAYER_9
  2
AIGNBL09010031
 70
64
 10
0
 20
0
 30
0
  3
AIGNBL09010031
  0
POLYLINE
  8
LAYER_9
 40
0.1058
 41
0.1058
 66
1
 10
0
 20
0
 30
0
  0
VERTEX
  8
LAYER_9
 10
77.7422
 20
124.9013
  0
VERTEX
  8
LAYER_9
 10
77.7422
 20
121.8013
  0
SEQEND
  0
ENDBLK
  0
BLOCK
  8
LAYER_9
  2
AIGNBL09010032
 70
64
 10
0
 20
0
 30
0
  3
AIGNBL09010032
  0
POLYLINE
  8
LAYER_9
 40
0.1058
 41
0.1058
 66
1
 10
0
 20
0
 30
0
  0
VERTEX
  8
LAYER_9
 10
77.7422
 20
121.8013
  0
VERTEX
  8
LAYER_9
 10
77.9422
 20
121.8013
  0
SEQEND
  0
ENDBLK
  0
BLOCK
  8
LAYER_9
  2
AIGNBL09010033
 70
64
 10
0
 20
0
 30
0
  3
AIGNBL09010033
  0
POLYLINE
  8
LAYER_9
 40
0.1058
 41
0.1058
 66
1
 10
0
 20
0
 30
0
  0
VERTEX
  8
LAYER_9
 10
77.9422
 20
121.8013
  0
VERTEX
  8
LAYER_9
 10
77.9422
 20
124.9013
  0
SEQEND
  0
ENDBLK
  0
BLOCK
  8
LAYER_9
  2
AIGNBL09010034
 70
64
 10
0
 20
0
 30
0
  3
AIGNBL09010034
  0
POLYLINE
  8
LAYER_9
 40
0.1058
 41
0.1058
 66
1
 10
0
 20
0
 30
0
  0
VERTEX
  8
LAYER_9
 10
77.9422
 20
124.9013
 42
0.4141876097
  0
VERTEX
  8
LAYER_9
 10
77.6422
 20
125.2013
  0
SEQEND
  0
ENDBLK
  0
BLOCK
  8
LAYER_9
  2
AIGNBL09010035
 70
64
 10
0
 20
0
 30
0
  3
AIGNBL09010035
  0
POLYLINE
  8
LAYER_9
 40
0.1058
 41
0.1058
 66
1
 10
0
 20
0
 30
0
  0
VERTEX
  8
LAYER_9
 10
77.6422
 20
125.2013
  0
VERTEX
  8
LAYER_9
 10
75.1422
 20
125.2013
  0
SEQEND
  0
ENDBLK
  0
BLOCK
  8
LAYER_9
  2
AIGNBL09010036
 70
64
 10
0
 20
0
 30
0
  3
AIGNBL09010036
  0
POLYLINE
  8
LAYER_9
 40
0.1058
 41
0.1058
 66
1
 10
0
 20
0
 30
0
  0
VERTEX
  8
LAYER_9
 10
74.9422
 20
168.1013
  0
VERTEX
  8
LAYER_9
 10
75.1422
 20
168.1008
  0
SEQEND
  0
ENDBLK
  0
BLOCK
  8
LAYER_9
  2
AIGNBL09010037
 70
64
 10
0
 20
0
 30
0
  3
AIGNBL09010037
  0
POLYLINE
  8
LAYER_9
 40
0.1058
 41
0.1058
 66
1
 10
0
 20
0
 30
0
  0
VERTEX
  8
LAYER_9
 10
75.1422
 20
168.1008
  0
VERTEX
  8
LAYER_9
 10
75.1422
 20
118.7013
  0
SEQEND
  0
ENDBLK
  0
BLOCK
  8
LAYER_9
  2
AIGNBL09010038
 70
64
 10
0
 20
0
 30
0
  3
AIGNBL09010038
  0
POLYLINE
  8
LAYER_9
 40
0.1058
 41
0.1058
 66
1
 10
0
 20
0
 30
0
  0
VERTEX
  8
LAYER_9
 10
75.1422
 20
118.7013
  0
VERTEX
  8
LAYER_9
 10
74.9422
 20
118.7013
  0
SEQEND
  0
ENDBLK
  0
BLOCK
  8
LAYER_9
  2
AIGNBL09010039
 70
64
 10
0
 20
0
 30
0
  3
AIGNBL09010039
  0
POLYLINE
  8
LAYER_9
 40
0.1058
 41
0.1058
 66
1
 10
0
 20
0
 30
0
  0
VERTEX
  8
LAYER_9
 10
75.1422
 20
165.1013
  0
VERTEX
  8
LAYER_9
 10
77.6422
 20
165.1013
  0
SEQEND
  0
ENDBLK
  0
BLOCK
  8
LAYER_9
  2
AIGNBL0901003A
 70
64
 10
0
 20
0
 30
0
  3
AIGNBL0901003A
  0
POLYLINE
  8
LAYER_9
 40
0.1058
 41
0.1058
 66
1
 10
0
 20
0
 30
0
  0
VERTEX
  8
LAYER_9
 10
77.6422
 20
165.1013
 42
-0.4141357396
  0
VERTEX
  8
LAYER_9
 10
77.7422
 20
165.0013
  0
SEQEND
  0
ENDBLK
  0
BLOCK
  8
LAYER_9
  2
AIGNBL0901003B
 70
64
 10
0
 20
0
 30
0
  3
AIGNBL0901003B
  0
POLYLINE
  8
LAYER_9
 40
0.1058
 41
0.1058
 66
1
 10
0
 20
0
 30
0
  0
VERTEX
  8
LAYER_9
 10
77.7422
 20
165.0013
  0
VERTEX
  8
LAYER_9
 10
77.7422
 20
162.0013
  0
SEQEND
  0
ENDBLK
  0
BLOCK
  8
LAYER_9
  2
AIGNBL0901003C
 70
64
 10
0
 20
0
 30
0
  3
AIGNBL0901003C
  0
POLYLINE
  8
LAYER_9
 40
0.1058
 41
0.1058
 66
1
 10
0
 20
0
 30
0
  0
VERTEX
  8
LAYER_9
 10
77.7422
 20
162.0013
  0
VERTEX
  8
LAYER_9
 10
77.7422
 20
161.9013
  0
SEQEND
  0
ENDBLK
  0
BLOCK
  8
LAYER_9
  2
AIGNBL0901003D
 70
64
 10
0
 20
0
 30
0
  3
AIGNBL0901003D
  0
POLYLINE
  8
LAYER_9
 40
0.1058
 41
0.1058
 66
1
 10
0
 20
0
 30
0
  0
VERTEX
  8
LAYER_9
 10
77.7422
 20
161.9013
  0
VERTEX
  8
LAYER_9
 10
77.9422
 20
161.9013
  0
SEQEND
  0
ENDBLK
  0
BLOCK
  8
LAYER_9
  2
AIGNBL0901003E
 70
64
 10
0
 20
0
 30
0
  3
AIGNBL0901003E
  0
POLYLINE
  8
LAYER_9
 40
0.1058
 41
0.1058
 66
1
 10
0
 20
0
 30
0
  0
VERTEX
  8
LAYER_9
 10
77.9422
 20
161.9013
  0
VERTEX
  8
LAYER_9
 10
77.9422
 20
165.0013
  0
SEQEND
  0
ENDBLK
  0
BLOCK
  8
LAYER_9
  2
AIGNBL0901003F
 70
64
 10
0
 20
0
 30
0
  3
AIGNBL0901003F
  0
POLYLINE
  8
LAYER_9
 40
0.1058
 41
0.1058
 66
1
 10
0
 20
0
 30
0
  0
VERTEX
  8
LAYER_9
 10
77.9422
 20
165.0013
 42
0.4141876195
  0
VERTEX
  8
LAYER_9
 10
77.6422
 20
165.3013
  0
SEQEND
  0
ENDBLK
  0
BLOCK
  8
LAYER_9
  2
AIGNBL09010040
 70
64
 10
0
 20
0
 30
0
  3
AIGNBL09010040
  0
POLYLINE
  8
LAYER_9
 40
0.1058
 41
0.1058
 66
1
 10
0
 20
0
 30
0
  0
VERTEX
  8
LAYER_9
 10
77.6422
 20
165.3013
  0
VERTEX
  8
LAYER_9
 10
75.1422
 20
165.3013
  0
SEQEND
  0
ENDBLK
  0
BLOCK
  8
LAYER_9
  2
AIGNBL09010041
 70
64
 10
0
 20
0
 30
0
  3
AIGNBL09010041
  0
POLYLINE
  8
LAYER_9
 40
0.1058
 41
0.1058
 66
1
 10
0
 20
0
 30
0
  0
VERTEX
  8
LAYER_9
 10
74.4422
 20
168.4008
  0
VERTEX
  8
LAYER_9
 10
74.9422
 20
168.4008
  0
SEQEND
  0
ENDBLK
  0
BLOCK
  8
LAYER_9
  2
AIGNBL09010042
 70
64
 10
0
 20
0
 30
0
  3
AIGNBL09010042
  0
POLYLINE
  8
LAYER_9
 40
0.1058
 41
0.1058
 66
1
 10
0
 20
0
 30
0
  0
VERTEX
  8
LAYER_9
 10
74.9422
 20
168.4008
  0
VERTEX
  8
LAYER_9
 10
74.9422
 20
118.4013
  0
SEQEND
  0
ENDBLK
  0
BLOCK
  8
LAYER_9
  2
AIGNBL09010043
 70
64
 10
0
 20
0
 30
0
  3
AIGNBL09010043
  0
POLYLINE
  8
LAYER_9
 40
0.1058
 41
0.1058
 66
1
 10
0
 20
0
 30
0
  0
VERTEX
  8
LAYER_9
 10
74.9422
 20
118.4013
  0
VERTEX
  8
LAYER_9
 10
74.4422
 20
118.4013
  0
SEQEND
  0
ENDBLK
  0
BLOCK
  8
LAYER_9
  2
AIGNBL09010044
 70
64
 10
0
 20
0
 30
0
  3
AIGNBL09010044
  0
POLYLINE
  8
LAYER_9
 40
0.1058
 41
0.1058
 66
1
 10
0
 20
0
 30
0
  0
VERTEX
  8
LAYER_9
 10
74.4422
 20
118.4013
  0
VERTEX
  8
LAYER_9
 10
74.4422
 20
168.4008
  0
SEQEND
  0
ENDBLK
  0
BLOCK
  8
LAYER_9
  2
AIGNBL09010045
 70
64
 10
0
 20
0
 30
0
  3
AIGNBL09010045
  0
POLYLINE
  8
LAYER_9
 40
0.1058
 41
0.1058
 66
1
 10
0
 20
0
 30
0
  0
VERTEX
  8
LAYER_9
 10
135.1164
 20
92.9996
  0
VERTEX
  8
LAYER_9
 10
135.1164
 20
92.6996
  0
SEQEND
  0
ENDBLK
  0
BLOCK
  8
LAYER_9
  2
AIGNBL09010046
 70
64
 10
0
 20
0
 30
0
  3
AIGNBL09010046
  0
POLYLINE
  8
LAYER_9
 40
0.1058
 41
0.1058
 66
1
 10
0
 20
0
 30
0
  0
VERTEX
  8
LAYER_9
 10
135.1164
 20
90.1996
  0
VERTEX
  8
LAYER_9
 10
135.1164
 20
92.6996
  0
SEQEND
  0
ENDBLK
  0
BLOCK
  8
LAYER_9
  2
AIGNBL09010047
 70
64
 10
0
 20
0
 30
0
  3
AIGNBL09010047
  0
POLYLINE
  8
LAYER_9
 40
0.1058
 41
0.1058
 66
1
 10
0
 20
0
 30
0
  0
VERTEX
  8
LAYER_9
 10
132.1164
 20
92.6996
  0
VERTEX
  8
LAYER_9
 10
135.1164
 20
92.6996
  0
SEQEND
  0
ENDBLK
  0
BLOCK
  8
LAYER_9
  2
AIGNBL09010048
 70
64
 10
0
 20
0
 30
0
  3
AIGNBL09010048
  0
POLYLINE
  8
LAYER_9
 40
0.1058
 41
0.1058
 66
1
 10
0
 20
0
 30
0
  0
VERTEX
  8
LAYER_9
 10
132.1164
 20
92.9996
  0
VERTEX
  8
LAYER_9
 10
135.1164
 20
92.9996
  0
SEQEND
  0
ENDBLK
  0
BLOCK
  8
LAYER_9
  2
AIGNBL09010049
 70
64
 10
0
 20
0
 30
0
  3
AIGNBL09010049
  0
POLYLINE
  8
LAYER_9
 40
0.1058
 41
0.1058
 66
1
 10
0
 20
0
 30
0
  0
VERTEX
  8
LAYER_9
 10
132.1164
 20
92.6996
  0
VERTEX
  8
LAYER_9
 10
132.1164
 20
90.1996
  0
SEQEND
  0
ENDBLK
  0
BLOCK
  8
LAYER_9
  2
AIGNBL0901004A
 70
64
 10
0
 20
0
 30
0
  3
AIGNBL0901004A
  0
POLYLINE
  8
LAYER_9
 40
0.1058
 41
0.1058
 66
1
 10
0
 20
0
 30
0
  0
VERTEX
  8
LAYER_9
 10
132.1164
 20
92.9996
  0
VERTEX
  8
LAYER_9
 10
132.1164
 20
92.6996
  0
SEQEND
  0
ENDBLK
  0
BLOCK
  8
LAYER_9
  2
AIGNBL0901004B
 70
64
 10
0
 20
0
 30
0
  3
AIGNBL0901004B
  0
POLYLINE
  8
LAYER_9
 40
0.1058
 41
0.1058
 66
1
 10
0
 20
0
 30
0
  0
VERTEX
  8
LAYER_9
 10
120.85
 20
90.1996
  0
VERTEX
  8
LAYER_9
 10
120.85
 20
92.6996
  0
SEQEND
  0
ENDBLK
  0
BLOCK
  8
LAYER_9
  2
AIGNBL0901004C
 70
64
 10
0
 20
0
 30
0
  3
AIGNBL0901004C
  0
POLYLINE
  8
LAYER_9
 40
0.1058
 41
0.1058
 66
1
 10
0
 20
0
 30
0
  0
VERTEX
  8
LAYER_9
 10
117.7832
 20
92.9996
  0
VERTEX
  8
LAYER_9
 10
117.7832
 20
92.6996
  0
SEQEND
  0
ENDBLK
  0
BLOCK
  8
LAYER_9
  2
AIGNBL0901004D
 70
64
 10
0
 20
0
 30
0
  3
AIGNBL0901004D
  0
POLYLINE
  8
LAYER_9
 40
0.1058
 41
0.1058
 66
1
 10
0
 20
0
 30
0
  0
VERTEX
  8
LAYER_9
 10
117.7832
 20
92.9996
  0
VERTEX
  8
LAYER_9
 10
117.85
 20
92.9996
  0
SEQEND
  0
ENDBLK
  0
BLOCK
  8
LAYER_9
  2
AIGNBL0901004E
 70
64
 10
0
 20
0
 30
0
  3
AIGNBL0901004E
  0
POLYLINE
  8
LAYER_9
 40
0.1058
 41
0.1058
 66
1
 10
0
 20
0
 30
0
  0
VERTEX
  8
LAYER_9
 10
117.7832
 20
92.6996
  0
VERTEX
  8
LAYER_9
 10
117.7832
 20
90.1996
  0
SEQEND
  0
ENDBLK
  0
BLOCK
  8
LAYER_9
  2
AIGNBL0901004F
 70
64
 10
0
 20
0
 30
0
  3
AIGNBL0901004F
  0
POLYLINE
  8
LAYER_9
 40
0.1058
 41
0.1058
 66
1
 10
0
 20
0
 30
0
  0
VERTEX
  8
LAYER_9
 10
112.9832
 20
89.4996
  0
VERTEX
  8
LAYER_9
 10
112.9832
 20
89.9996
  0
SEQEND
  0
ENDBLK
  0
BLOCK
  8
LAYER_9
  2
AIGNBL09010050
 70
64
 10
0
 20
0
 30
0
  3
AIGNBL09010050
  0
POLYLINE
  8
LAYER_9
 40
0.1058
 41
0.1058
 66
1
 10
0
 20
0
 30
0
  0
VERTEX
  8
LAYER_9
 10
113.2832
 20
89.9996
  0
VERTEX
  8
LAYER_9
 10
113.2832
 20
90.1996
  0
SEQEND
  0
ENDBLK
  0
BLOCK
  8
LAYER_9
  2
AIGNBL09010051
 70
64
 10
0
 20
0
 30
0
  3
AIGNBL09010051
  0
POLYLINE
  8
LAYER_9
 40
0.1058
 41
0.1058
 66
1
 10
0
 20
0
 30
0
  0
VERTEX
  8
LAYER_9
 10
120.85
 20
92.9996
  0
VERTEX
  8
LAYER_9
 10
120.85
 20
92.6996
  0
SEQEND
  0
ENDBLK
  0
BLOCK
  8
LAYER_9
  2
AIGNBL09010052
 70
64
 10
0
 20
0
 30
0
  3
AIGNBL09010052
  0
POLYLINE
  8
LAYER_9
 40
0.1058
 41
0.1058
 66
1
 10
0
 20
0
 30
0
  0
VERTEX
  8
LAYER_9
 10
117.85
 20
92.9996
  0
VERTEX
  8
LAYER_9
 10
120.85
 20
92.9996
  0
SEQEND
  0
ENDBLK
  0
BLOCK
  8
LAYER_9
  2
AIGNBL09010053
 70
64
 10
0
 20
0
 30
0
  3
AIGNBL09010053
  0
POLYLINE
  8
LAYER_9
 40
0.1058
 41
0.1058
 66
1
 10
0
 20
0
 30
0
  0
VERTEX
  8
LAYER_9
 10
132.1164
 20
165.0013
  0
VERTEX
  8
LAYER_9
 10
132.1164
 20
165.1013
  0
SEQEND
  0
ENDBLK
  0
BLOCK
  8
LAYER_9
  2
AIGNBL09010054
 70
64
 10
0
 20
0
 30
0
  3
AIGNBL09010054
  0
POLYLINE
  8
LAYER_9
 40
0.1058
 41
0.1058
 66
1
 10
0
 20
0
 30
0
  0
VERTEX
  8
LAYER_9
 10
132.1164
 20
165.1013
  0
VERTEX
  8
LAYER_9
 10
132.1164
 20
165.3013
  0
SEQEND
  0
ENDBLK
  0
BLOCK
  8
LAYER_9
  2
AIGNBL09010055
 70
64
 10
0
 20
0
 30
0
  3
AIGNBL09010055
  0
POLYLINE
  8
LAYER_9
 40
0.1058
 41
0.1058
 66
1
 10
0
 20
0
 30
0
  0
VERTEX
  8
LAYER_9
 10
132.1164
 20
165.3013
  0
VERTEX
  8
LAYER_9
 10
135.1164
 20
165.3013
  0
SEQEND
  0
ENDBLK
  0
BLOCK
  8
LAYER_9
  2
AIGNBL09010056
 70
64
 10
0
 20
0
 30
0
  3
AIGNBL09010056
  0
POLYLINE
  8
LAYER_9
 40
0.1058
 41
0.1058
 66
1
 10
0
 20
0
 30
0
  0
VERTEX
  8
LAYER_9
 10
135.1164
 20
165.3013
  0
VERTEX
  8
LAYER_9
 10
135.1164
 20
165.1013
  0
SEQEND
  0
ENDBLK
  0
BLOCK
  8
LAYER_9
  2
AIGNBL09010057
 70
64
 10
0
 20
0
 30
0
  3
AIGNBL09010057
  0
POLYLINE
  8
LAYER_9
 40
0.1058
 41
0.1058
 66
1
 10
0
 20
0
 30
0
  0
VERTEX
  8
LAYER_9
 10
135.1164
 20
165.1013
  0
VERTEX
  8
LAYER_9
 10
135.1164
 20
165.072
  0
SEQEND
  0
ENDBLK
  0
BLOCK
  8
LAYER_9
  2
AIGNBL09010058
 70
64
 10
0
 20
0
 30
0
  3
AIGNBL09010058
  0
POLYLINE
  8
LAYER_9
 40
0.1058
 41
0.1058
 66
1
 10
0
 20
0
 30
0
  0
VERTEX
  8
LAYER_9
 10
135.1164
 20
165.072
  0
VERTEX
  8
LAYER_9
 10
135.1164
 20
165.0283
  0
SEQEND
  0
ENDBLK
  0
BLOCK
  8
LAYER_9
  2
AIGNBL09010059
 70
64
 10
0
 20
0
 30
0
  3
AIGNBL09010059
  0
POLYLINE
  8
LAYER_9
 40
0.1058
 41
0.1058
 66
1
 10
0
 20
0
 30
0
  0
VERTEX
  8
LAYER_9
 10
135.1164
 20
165.0283
  0
VERTEX
  8
LAYER_9
 10
135.1164
 20
165.0013
  0
SEQEND
  0
ENDBLK
  0
BLOCK
  8
LAYER_9
  2
AIGNBL0901005A
 70
64
 10
0
 20
0
 30
0
  3
AIGNBL0901005A
  0
POLYLINE
  8
LAYER_9
 40
0.1058
 41
0.1058
 66
1
 10
0
 20
0
 30
0
  0
VERTEX
  8
LAYER_9
 10
135.1164
 20
165.0013
  0
VERTEX
  8
LAYER_9
 10
132.1164
 20
165.0013
  0
SEQEND
  0
ENDBLK
  0
BLOCK
  8
LAYER_9
  2
AIGNBL0901005B
 70
64
 10
0
 20
0
 30
0
  3
AIGNBL0901005B
  0
POLYLINE
  8
LAYER_9
 40
0.1058
 41
0.1058
 66
1
 10
0
 20
0
 30
0
  0
VERTEX
  8
LAYER_9
 10
132.1164
 20
165.0013
  0
VERTEX
  8
LAYER_9
 10
132.1164
 20
162.0013
  0
SEQEND
  0
ENDBLK
  0
BLOCK
  8
LAYER_9
  2
AIGNBL0901005C
 70
64
 10
0
 20
0
 30
0
  3
AIGNBL0901005C
  0
POLYLINE
  8
LAYER_9
 40
0.1058
 41
0.1058
 66
1
 10
0
 20
0
 30
0
  0
VERTEX
  8
LAYER_9
 10
132.1164
 20
162.0013
 42
0.4142914524
  0
VERTEX
  8
LAYER_9
 10
132.2164
 20
161.9013
  0
SEQEND
  0
ENDBLK
  0
BLOCK
  8
LAYER_9
  2
AIGNBL0901005D
 70
64
 10
0
 20
0
 30
0
  3
AIGNBL0901005D
  0
POLYLINE
  8
LAYER_9
 40
0.1058
 41
0.1058
 66
1
 10
0
 20
0
 30
0
  0
VERTEX
  8
LAYER_9
 10
132.2164
 20
161.9013
  0
VERTEX
  8
LAYER_9
 10
135.0164
 20
161.9013
  0
SEQEND
  0
ENDBLK
  0
BLOCK
  8
LAYER_9
  2
AIGNBL0901005E
 70
64
 10
0
 20
0
 30
0
  3
AIGNBL0901005E
  0
POLYLINE
  8
LAYER_9
 40
0.1058
 41
0.1058
 66
1
 10
0
 20
0
 30
0
  0
VERTEX
  8
LAYER_9
 10
135.0164
 20
161.9013
 42
0.4141679088
  0
VERTEX
  8
LAYER_9
 10
135.1164
 20
162.0013
  0
SEQEND
  0
ENDBLK
  0
BLOCK
  8
LAYER_9
  2
AIGNBL0901005F
 70
64
 10
0
 20
0
 30
0
  3
AIGNBL0901005F
  0
POLYLINE
  8
LAYER_9
 40
0.1058
 41
0.1058
 66
1
 10
0
 20
0
 30
0
  0
VERTEX
  8
LAYER_9
 10
135.1164
 20
162.0013
  0
VERTEX
  8
LAYER_9
 10
135.1164
 20
165.0013
  0
SEQEND
  0
ENDBLK
  0
BLOCK
  8
LAYER_9
  2
AIGNBL09010060
 70
64
 10
0
 20
0
 30
0
  3
AIGNBL09010060
  0
POLYLINE
  8
LAYER_9
 40
0.1058
 41
0.1058
 66
1
 10
0
 20
0
 30
0
  0
VERTEX
  8
LAYER_9
 10
135.1164
 20
124.9013
  0
VERTEX
  8
LAYER_9
 10
135.1164
 20
121.9013
 42
-0.4141679382
  0
VERTEX
  8
LAYER_9
 10
135.0164
 20
121.8013
  0
VERTEX
  8
LAYER_9
 10
132.2164
 20
121.8013
 42
-0.4142914817
  0
VERTEX
  8
LAYER_9
 10
132.1164
 20
121.9013
  0
VERTEX
  8
LAYER_9
 10
132.1164
 20
124.9013
  0
SEQEND
  0
ENDBLK
  0
BLOCK
  8
LAYER_9
  2
AIGNBL09010061
 70
64
 10
0
 20
0
 30
0
  3
AIGNBL09010061
  0
POLYLINE
  8
LAYER_9
 40
0.1058
 41
0.1058
 66
1
 10
0
 20
0
 30
0
  0
VERTEX
  8
LAYER_9
 10
132.1164
 20
124.9013
  0
VERTEX
  8
LAYER_9
 10
132.1164
 20
124.9283
  0
SEQEND
  0
ENDBLK
  0
BLOCK
  8
LAYER_9
  2
AIGNBL09010062
 70
64
 10
0
 20
0
 30
0
  3
AIGNBL09010062
  0
POLYLINE
  8
LAYER_9
 40
0.1058
 41
0.1058
 66
1
 10
0
 20
0
 30
0
  0
VERTEX
  8
LAYER_9
 10
132.1164
 20
124.9283
  0
VERTEX
  8
LAYER_9
 10
132.1164
 20
124.972
  0
SEQEND
  0
ENDBLK
  0
BLOCK
  8
LAYER_9
  2
AIGNBL09010063
 70
64
 10
0
 20
0
 30
0
  3
AIGNBL09010063
  0
POLYLINE
  8
LAYER_9
 40
0.1058
 41
0.1058
 66
1
 10
0
 20
0
 30
0
  0
VERTEX
  8
LAYER_9
 10
132.1164
 20
124.972
  0
VERTEX
  8
LAYER_9
 10
132.1164
 20
124.9922
  0
SEQEND
  0
ENDBLK
  0
BLOCK
  8
LAYER_9
  2
AIGNBL09010064
 70
64
 10
0
 20
0
 30
0
  3
AIGNBL09010064
  0
POLYLINE
  8
LAYER_9
 40
0.1058
 41
0.1058
 66
1
 10
0
 20
0
 30
0
  0
VERTEX
  8
LAYER_9
 10
132.1164
 20
124.9922
  0
VERTEX
  8
LAYER_9
 10
132.1164
 20
124.9969
  0
SEQEND
  0
ENDBLK
  0
BLOCK
  8
LAYER_9
  2
AIGNBL09010065
 70
64
 10
0
 20
0
 30
0
  3
AIGNBL09010065
  0
POLYLINE
  8
LAYER_9
 40
0.1058
 41
0.1058
 66
1
 10
0
 20
0
 30
0
  0
VERTEX
  8
LAYER_9
 10
132.1164
 20
124.9969
  0
VERTEX
  8
LAYER_9
 10
132.1164
 20
125.0013
  0
SEQEND
  0
ENDBLK
  0
BLOCK
  8
LAYER_9
  2
AIGNBL09010066
 70
64
 10
0
 20
0
 30
0
  3
AIGNBL09010066
  0
POLYLINE
  8
LAYER_9
 40
0.1058
 41
0.1058
 66
1
 10
0
 20
0
 30
0
  0
VERTEX
  8
LAYER_9
 10
132.1609
 20
125.2013
  0
VERTEX
  8
LAYER_9
 10
132.1164
 20
125.2013
  0
SEQEND
  0
ENDBLK
  0
BLOCK
  8
LAYER_9
  2
AIGNBL09010067
 70
64
 10
0
 20
0
 30
0
  3
AIGNBL09010067
  0
POLYLINE
  8
LAYER_9
 40
0.1058
 41
0.1058
 66
1
 10
0
 20
0
 30
0
  0
VERTEX
  8
LAYER_9
 10
132.1164
 20
125.2013
  0
VERTEX
  8
LAYER_9
 10
132.1164
 20
125.0013
  0
SEQEND
  0
ENDBLK
  0
BLOCK
  8
LAYER_9
  2
AIGNBL09010068
 70
64
 10
0
 20
0
 30
0
  3
AIGNBL09010068
  0
POLYLINE
  8
LAYER_9
 40
0.1058
 41
0.1058
 66
1
 10
0
 20
0
 30
0
  0
VERTEX
  8
LAYER_9
 10
132.1164
 20
125.0013
  0
VERTEX
  8
LAYER_9
 10
135.1164
 20
125.0013
  0
SEQEND
  0
ENDBLK
  0
BLOCK
  8
LAYER_9
  2
AIGNBL09010069
 70
64
 10
0
 20
0
 30
0
  3
AIGNBL09010069
  0
POLYLINE
  8
LAYER_9
 40
0.1058
 41
0.1058
 66
1
 10
0
 20
0
 30
0
  0
VERTEX
  8
LAYER_9
 10
120.7832
 20
124.9058
  0
VERTEX
  8
LAYER_9
 10
120.7832
 20
121.9058
 42
-0.4142692873
  0
VERTEX
  8
LAYER_9
 10
120.6832
 20
121.8058
  0
VERTEX
  8
LAYER_9
 10
117.8832
 20
121.8058
 42
-0.4142781726
  0
VERTEX
  8
LAYER_9
 10
117.7832
 20
121.9058
  0
VERTEX
  8
LAYER_9
 10
117.7832
 20
124.9058
  0
SEQEND
  0
ENDBLK
  0
BLOCK
  8
LAYER_9
  2
AIGNBL0901006A
 70
64
 10
0
 20
0
 30
0
  3
AIGNBL0901006A
  0
POLYLINE
  8
LAYER_9
 40
0.1058
 41
0.1058
 66
1
 10
0
 20
0
 30
0
  0
VERTEX
  8
LAYER_9
 10
117.7832
 20
124.9058
  0
VERTEX
  8
LAYER_9
 10
117.7832
 20
124.9327
  0
SEQEND
  0
ENDBLK
  0
BLOCK
  8
LAYER_9
  2
AIGNBL0901006B
 70
64
 10
0
 20
0
 30
0
  3
AIGNBL0901006B
  0
POLYLINE
  8
LAYER_9
 40
0.1058
 41
0.1058
 66
1
 10
0
 20
0
 30
0
  0
VERTEX
  8
LAYER_9
 10
117.7832
 20
124.9327
  0
VERTEX
  8
LAYER_9
 10
117.7832
 20
124.9765
  0
SEQEND
  0
ENDBLK
  0
BLOCK
  8
LAYER_9
  2
AIGNBL0901006C
 70
64
 10
0
 20
0
 30
0
  3
AIGNBL0901006C
  0
POLYLINE
  8
LAYER_9
 40
0.1058
 41
0.1058
 66
1
 10
0
 20
0
 30
0
  0
VERTEX
  8
LAYER_9
 10
117.7832
 20
124.9765
  0
VERTEX
  8
LAYER_9
 10
117.7832
 20
124.9966
  0
SEQEND
  0
ENDBLK
  0
BLOCK
  8
LAYER_9
  2
AIGNBL0901006D
 70
64
 10
0
 20
0
 30
0
  3
AIGNBL0901006D
  0
POLYLINE
  8
LAYER_9
 40
0.1058
 41
0.1058
 66
1
 10
0
 20
0
 30
0
  0
VERTEX
  8
LAYER_9
 10
117.7832
 20
124.9966
  0
VERTEX
  8
LAYER_9
 10
117.7832
 20
125.0014
  0
SEQEND
  0
ENDBLK
  0
BLOCK
  8
LAYER_9
  2
AIGNBL0901006E
 70
64
 10
0
 20
0
 30
0
  3
AIGNBL0901006E
  0
POLYLINE
  8
LAYER_9
 40
0.1058
 41
0.1058
 66
1
 10
0
 20
0
 30
0
  0
VERTEX
  8
LAYER_9
 10
117.7832
 20
125.0014
  0
VERTEX
  8
LAYER_9
 10
117.7832
 20
125.0058
  0
SEQEND
  0
ENDBLK
  0
BLOCK
  8
LAYER_9
  2
AIGNBL0901006F
 70
64
 10
0
 20
0
 30
0
  3
AIGNBL0901006F
  0
POLYLINE
  8
LAYER_9
 40
0.1058
 41
0.1058
 66
1
 10
0
 20
0
 30
0
  0
VERTEX
  8
LAYER_9
 10
135.1164
 20
125.2013
  0
VERTEX
  8
LAYER_9
 10
135.1164
 20
125.0013
  0
SEQEND
  0
ENDBLK
  0
BLOCK
  8
LAYER_9
  2
AIGNBL09010070
 70
64
 10
0
 20
0
 30
0
  3
AIGNBL09010070
  0
POLYLINE
  8
LAYER_9
 40
0.1058
 41
0.1058
 66
1
 10
0
 20
0
 30
0
  0
VERTEX
  8
LAYER_9
 10
135.1164
 20
125.0013
  0
VERTEX
  8
LAYER_9
 10
135.1164
 20
124.972
  0
SEQEND
  0
ENDBLK
  0
BLOCK
  8
LAYER_9
  2
AIGNBL09010071
 70
64
 10
0
 20
0
 30
0
  3
AIGNBL09010071
  0
POLYLINE
  8
LAYER_9
 40
0.1058
 41
0.1058
 66
1
 10
0
 20
0
 30
0
  0
VERTEX
  8
LAYER_9
 10
135.1164
 20
124.972
  0
VERTEX
  8
LAYER_9
 10
135.1164
 20
124.9283
  0
SEQEND
  0
ENDBLK
  0
BLOCK
  8
LAYER_9
  2
AIGNBL09010072
 70
64
 10
0
 20
0
 30
0
  3
AIGNBL09010072
  0
POLYLINE
  8
LAYER_9
 40
0.1058
 41
0.1058
 66
1
 10
0
 20
0
 30
0
  0
VERTEX
  8
LAYER_9
 10
135.1164
 20
124.9283
  0
VERTEX
  8
LAYER_9
 10
135.1164
 20
124.9013
  0
SEQEND
  0
ENDBLK
  0
BLOCK
  8
LAYER_9
  2
AIGNBL09010073
 70
64
 10
0
 20
0
 30
0
  3
AIGNBL09010073
  0
POLYLINE
  8
LAYER_9
 40
0.1058
 41
0.1058
 66
1
 10
0
 20
0
 30
0
  0
VERTEX
  8
LAYER_9
 10
135.1164
 20
124.9013
  0
VERTEX
  8
LAYER_9
 10
132.1164
 20
124.9013
  0
SEQEND
  0
ENDBLK
  0
BLOCK
  8
LAYER_9
  2
AIGNBL09010074
 70
64
 10
0
 20
0
 30
0
  3
AIGNBL09010074
  0
POLYLINE
  8
LAYER_9
 40
0.1058
 41
0.1058
 66
1
 10
0
 20
0
 30
0
  0
VERTEX
  8
LAYER_9
 10
120.85
 20
165.0013
  0
VERTEX
  8
LAYER_9
 10
117.85
 20
165.0013
  0
SEQEND
  0
ENDBLK
  0
BLOCK
  8
LAYER_9
  2
AIGNBL09010075
 70
64
 10
0
 20
0
 30
0
  3
AIGNBL09010075
  0
POLYLINE
  8
LAYER_9
 40
0.1058
 41
0.1058
 66
1
 10
0
 20
0
 30
0
  0
VERTEX
  8
LAYER_9
 10
117.85
 20
165.0013
  0
VERTEX
  8
LAYER_9
 10
117.85
 20
165.0283
  0
SEQEND
  0
ENDBLK
  0
BLOCK
  8
LAYER_9
  2
AIGNBL09010076
 70
64
 10
0
 20
0
 30
0
  3
AIGNBL09010076
  0
POLYLINE
  8
LAYER_9
 40
0.1058
 41
0.1058
 66
1
 10
0
 20
0
 30
0
  0
VERTEX
  8
LAYER_9
 10
117.85
 20
165.0283
  0
VERTEX
  8
LAYER_9
 10
117.85
 20
165.072
  0
SEQEND
  0
ENDBLK
  0
BLOCK
  8
LAYER_9
  2
AIGNBL09010077
 70
64
 10
0
 20
0
 30
0
  3
AIGNBL09010077
  0
POLYLINE
  8
LAYER_9
 40
0.1058
 41
0.1058
 66
1
 10
0
 20
0
 30
0
  0
VERTEX
  8
LAYER_9
 10
117.85
 20
165.072
  0
VERTEX
  8
LAYER_9
 10
117.85
 20
165.0922
  0
SEQEND
  0
ENDBLK
  0
BLOCK
  8
LAYER_9
  2
AIGNBL09010078
 70
64
 10
0
 20
0
 30
0
  3
AIGNBL09010078
  0
POLYLINE
  8
LAYER_9
 40
0.1058
 41
0.1058
 66
1
 10
0
 20
0
 30
0
  0
VERTEX
  8
LAYER_9
 10
117.85
 20
165.0922
  0
VERTEX
  8
LAYER_9
 10
117.85
 20
165.0969
  0
SEQEND
  0
ENDBLK
  0
BLOCK
  8
LAYER_9
  2
AIGNBL09010079
 70
64
 10
0
 20
0
 30
0
  3
AIGNBL09010079
  0
POLYLINE
  8
LAYER_9
 40
0.1058
 41
0.1058
 66
1
 10
0
 20
0
 30
0
  0
VERTEX
  8
LAYER_9
 10
117.85
 20
165.0969
  0
VERTEX
  8
LAYER_9
 10
117.85
 20
165.1013
  0
SEQEND
  0
ENDBLK
  0
BLOCK
  8
LAYER_9
  2
AIGNBL0901007A
 70
64
 10
0
 20
0
 30
0
  3
AIGNBL0901007A
  0
POLYLINE
  8
LAYER_9
 40
0.1058
 41
0.1058
 66
1
 10
0
 20
0
 30
0
  0
VERTEX
  8
LAYER_9
 10
117.85
 20
165.1013
  0
VERTEX
  8
LAYER_9
 10
117.85
 20
165.3013
  0
SEQEND
  0
ENDBLK
  0
BLOCK
  8
LAYER_9
  2
AIGNBL0901007B
 70
64
 10
0
 20
0
 30
0
  3
AIGNBL0901007B
  0
POLYLINE
  8
LAYER_9
 40
0.1058
 41
0.1058
 66
1
 10
0
 20
0
 30
0
  0
VERTEX
  8
LAYER_9
 10
117.85
 20
165.3013
  0
VERTEX
  8
LAYER_9
 10
120.85
 20
165.3013
  0
SEQEND
  0
ENDBLK
  0
BLOCK
  8
LAYER_9
  2
AIGNBL0901007C
 70
64
 10
0
 20
0
 30
0
  3
AIGNBL0901007C
  0
POLYLINE
  8
LAYER_9
 40
0.1058
 41
0.1058
 66
1
 10
0
 20
0
 30
0
  0
VERTEX
  8
LAYER_9
 10
120.85
 20
165.3013
  0
VERTEX
  8
LAYER_9
 10
120.85
 20
165.1013
  0
SEQEND
  0
ENDBLK
  0
BLOCK
  8
LAYER_9
  2
AIGNBL0901007D
 70
64
 10
0
 20
0
 30
0
  3
AIGNBL0901007D
  0
POLYLINE
  8
LAYER_9
 40
0.1058
 41
0.1058
 66
1
 10
0
 20
0
 30
0
  0
VERTEX
  8
LAYER_9
 10
120.85
 20
165.1013
  0
VERTEX
  8
LAYER_9
 10
120.85
 20
165.072
  0
SEQEND
  0
ENDBLK
  0
BLOCK
  8
LAYER_9
  2
AIGNBL0901007E
 70
64
 10
0
 20
0
 30
0
  3
AIGNBL0901007E
  0
POLYLINE
  8
LAYER_9
 40
0.1058
 41
0.1058
 66
1
 10
0
 20
0
 30
0
  0
VERTEX
  8
LAYER_9
 10
120.85
 20
165.072
  0
VERTEX
  8
LAYER_9
 10
120.85
 20
165.0283
  0
SEQEND
  0
ENDBLK
  0
BLOCK
  8
LAYER_9
  2
AIGNBL0901007F
 70
64
 10
0
 20
0
 30
0
  3
AIGNBL0901007F
  0
POLYLINE
  8
LAYER_9
 40
0.1058
 41
0.1058
 66
1
 10
0
 20
0
 30
0
  0
VERTEX
  8
LAYER_9
 10
120.85
 20
165.0283
  0
VERTEX
  8
LAYER_9
 10
120.85
 20
165.0013
  0
SEQEND
  0
ENDBLK
  0
BLOCK
  8
LAYER_9
  2
AIGNBL09010080
 70
64
 10
0
 20
0
 30
0
  3
AIGNBL09010080
  0
POLYLINE
  8
LAYER_9
 40
0.1058
 41
0.1058
 66
1
 10
0
 20
0
 30
0
  0
VERTEX
  8
LAYER_9
 10
120.85
 20
165.0013
  0
VERTEX
  8
LAYER_9
 10
120.85
 20
162.0013
 42
-0.4142825801
  0
VERTEX
  8
LAYER_9
 10
120.75
 20
161.9013
  0
VERTEX
  8
LAYER_9
 10
117.95
 20
161.9013
 42
-0.4141767803
  0
VERTEX
  8
LAYER_9
 10
117.85
 20
162.0013
  0
VERTEX
  8
LAYER_9
 10
117.85
 20
165.0013
  0
SEQEND
  0
ENDBLK
  0
BLOCK
  8
LAYER_9
  2
AIGNBL09010081
 70
64
 10
0
 20
0
 30
0
  3
AIGNBL09010081
  0
POLYLINE
  8
LAYER_9
 40
0.1058
 41
0.1058
 66
1
 10
0
 20
0
 30
0
  0
VERTEX
  8
LAYER_9
 10
120.7832
 20
125.0058
  0
VERTEX
  8
LAYER_9
 10
120.7832
 20
125.2058
  0
SEQEND
  0
ENDBLK
  0
BLOCK
  8
LAYER_9
  2
AIGNBL09010082
 70
64
 10
0
 20
0
 30
0
  3
AIGNBL09010082
  0
POLYLINE
  8
LAYER_9
 40
0.1058
 41
0.1058
 66
1
 10
0
 20
0
 30
0
  0
VERTEX
  8
LAYER_9
 10
120.7832
 20
125.2058
  0
VERTEX
  8
LAYER_9
 10
117.7832
 20
125.2058
  0
SEQEND
  0
ENDBLK
  0
BLOCK
  8
LAYER_9
  2
AIGNBL09010083
 70
64
 10
0
 20
0
 30
0
  3
AIGNBL09010083
  0
POLYLINE
  8
LAYER_9
 40
0.1058
 41
0.1058
 66
1
 10
0
 20
0
 30
0
  0
VERTEX
  8
LAYER_9
 10
117.7832
 20
125.2058
  0
VERTEX
  8
LAYER_9
 10
117.7832
 20
125.0058
  0
SEQEND
  0
ENDBLK
  0
BLOCK
  8
LAYER_9
  2
AIGNBL09010084
 70
64
 10
0
 20
0
 30
0
  3
AIGNBL09010084
  0
POLYLINE
  8
LAYER_9
 40
0.1058
 41
0.1058
 66
1
 10
0
 20
0
 30
0
  0
VERTEX
  8
LAYER_9
 10
117.7832
 20
125.0058
  0
VERTEX
  8
LAYER_9
 10
120.7832
 20
125.0058
  0
SEQEND
  0
ENDBLK
  0
BLOCK
  8
LAYER_9
  2
AIGNBL09010085
 70
64
 10
0
 20
0
 30
0
  3
AIGNBL09010085
  0
POLYLINE
  8
LAYER_9
 40
0.1058
 41
0.1058
 66
1
 10
0
 20
0
 30
0
  0
VERTEX
  8
LAYER_9
 10
120.7832
 20
125.0058
  0
VERTEX
  8
LAYER_9
 10
120.7832
 20
124.9765
  0
SEQEND
  0
ENDBLK
  0
BLOCK
  8
LAYER_9
  2
AIGNBL09010086
 70
64
 10
0
 20
0
 30
0
  3
AIGNBL09010086
  0
POLYLINE
  8
LAYER_9
 40
0.1058
 41
0.1058
 66
1
 10
0
 20
0
 30
0
  0
VERTEX
  8
LAYER_9
 10
120.7832
 20
124.9765
  0
VERTEX
  8
LAYER_9
 10
120.7832
 20
124.9327
  0
SEQEND
  0
ENDBLK
  0
BLOCK
  8
LAYER_9
  2
AIGNBL09010087
 70
64
 10
0
 20
0
 30
0
  3
AIGNBL09010087
  0
POLYLINE
  8
LAYER_9
 40
0.1058
 41
0.1058
 66
1
 10
0
 20
0
 30
0
  0
VERTEX
  8
LAYER_9
 10
120.7832
 20
124.9327
  0
VERTEX
  8
LAYER_9
 10
120.7832
 20
124.9058
  0
SEQEND
  0
ENDBLK
  0
BLOCK
  8
LAYER_9
  2
AIGNBL09010088
 70
64
 10
0
 20
0
 30
0
  3
AIGNBL09010088
  0
POLYLINE
  8
LAYER_9
 40
0.1058
 41
0.1058
 66
1
 10
0
 20
0
 30
0
  0
VERTEX
  8
LAYER_9
 10
120.7832
 20
124.9058
  0
VERTEX
  8
LAYER_9
 10
117.7832
 20
124.9058
  0
SEQEND
  0
ENDBLK
  0
BLOCK
  8
LAYER_9
  2
AIGNBL09010089
 70
64
 10
0
 20
0
 30
0
  3
AIGNBL09010089
  0
POLYLINE
  8
LAYER_9
 40
0.1058
 41
0.1058
 66
1
 10
0
 20
0
 30
0
 70
1
  0
VERTEX
  8
LAYER_9
 10
135.6832
 20
125.7013
  0
VERTEX
  8
LAYER_9
 10
135.6832
 20
132.2013
 42
0.22130867
  0
VERTEX
  8
LAYER_9
 10
135.525
 20
132.6056
 42
0.1796738156
  0
VERTEX
  8
LAYER_9
 10
135.1832
 20
132.7013
  0
VERTEX
  8
LAYER_9
 10
132.1832
 20
132.7013
 42
0.22130867
  0
VERTEX
  8
LAYER_9
 10
131.7789
 20
132.5431
 42
0.1796738158
  0
VERTEX
  8
LAYER_9
 10
131.6832
 20
132.2013
  0
VERTEX
  8
LAYER_9
 10
131.6832
 20
125.7013
 42
0.2213086702
  0
VERTEX
  8
LAYER_9
 10
131.8414
 20
125.297
 42
0.1796738156
  0
VERTEX
  8
LAYER_9
 10
132.1832
 20
125.2013
  0
VERTEX
  8
LAYER_9
 10
135.1832
 20
125.2013
 42
0.22130867
  0
VERTEX
  8
LAYER_9
 10
135.5875
 20
125.3595
 42
0.1796738156
  0
SEQEND
  0
ENDBLK
  0
BLOCK
  8
LAYER_9
  2
AIGNBL0901008A
 70
64
 10
0
 20
0
 30
0
  3
AIGNBL0901008A
  0
POLYLINE
  8
LAYER_9
 40
0.1058
 41
0.1058
 66
1
 10
0
 20
0
 30
0
 70
1
  0
VERTEX
  8
LAYER_9
 10
135.6164
 20
158.1013
  0
VERTEX
  8
LAYER_9
 10
135.6164
 20
164.6013
 42
0.22130867
  0
VERTEX
  8
LAYER_9
 10
135.4582
 20
165.0056
 42
0.1796738156
  0
VERTEX
  8
LAYER_9
 10
135.1164
 20
165.1013
  0
VERTEX
  8
LAYER_9
 10
132.1164
 20
165.1013
 42
0.2213269633
  0
VERTEX
  8
LAYER_9
 10
131.7121
 20
164.9431
 42
0.1796543696
  0
VERTEX
  8
LAYER_9
 10
131.6164
 20
164.6013
  0
VERTEX
  8
LAYER_9
 10
131.6164
 20
158.1013
 42
0.2212838058
  0
VERTEX
  8
LAYER_9
 10
131.7746
 20
157.697
 42
0.1796977486
  0
VERTEX
  8
LAYER_9
 10
132.1164
 20
157.6013
  0
VERTEX
  8
LAYER_9
 10
135.1164
 20
157.6013
 42
0.22130867
  0
VERTEX
  8
LAYER_9
 10
135.5207
 20
157.7595
 42
0.1796738156
  0
SEQEND
  0
ENDBLK
  0
BLOCK
  8
LAYER_9
  2
AIGNBL0901008B
 70
64
 10
0
 20
0
 30
0
  3
AIGNBL0901008B
  0
POLYLINE
  8
LAYER_9
 40
0.1058
 41
0.1058
 66
1
 10
0
 20
0
 30
0
 70
1
  0
VERTEX
  8
LAYER_9
 10
121.35
 20
158.1013
  0
VERTEX
  8
LAYER_9
 10
121.35
 20
164.6013
 42
0.2212838056
  0
VERTEX
  8
LAYER_9
 10
121.1918
 20
165.0056
 42
0.1796977486
  0
VERTEX
  8
LAYER_9
 10
120.85
 20
165.1013
  0
VERTEX
  8
LAYER_9
 10
117.85
 20
165.1013
 42
0.22130867
  0
VERTEX
  8
LAYER_9
 10
117.4457
 20
164.9431
 42
0.1796738158
  0
VERTEX
  8
LAYER_9
 10
117.35
 20
164.6013
  0
VERTEX
  8
LAYER_9
 10
117.35
 20
158.1013
 42
0.2213086702
  0
VERTEX
  8
LAYER_9
 10
117.5082
 20
157.697
 42
0.1796738156
  0
VERTEX
  8
LAYER_9
 10
117.85
 20
157.6013
  0
VERTEX
  8
LAYER_9
 10
120.85
 20
157.6013
 42
0.2213269633
  0
VERTEX
  8
LAYER_9
 10
121.2543
 20
157.7595
 42
0.1796543694
  0
SEQEND
  0
ENDBLK
  0
BLOCK
  8
LAYER_9
  2
AIGNBL0901008C
 70
64
 10
0
 20
0
 30
0
  3
AIGNBL0901008C
  0
POLYLINE
  8
LAYER_9
 40
0.1058
 41
0.1058
 66
1
 10
0
 20
0
 30
0
 70
1
  0
VERTEX
  8
LAYER_9
 10
116.9832
 20
118.7013
  0
VERTEX
  8
LAYER_9
 10
138.9832
 20
118.7013
 42
0.06288723683
  0
VERTEX
  8
LAYER_9
 10
140.3795
 20
118.8659
 42
0.07861922107
  0
VERTEX
  8
LAYER_9
 10
141.3443
 20
119.2887
 42
0.1702052563
  0
VERTEX
  8
LAYER_9
 10
142.4373
 20
120.7394
 42
0.06743196868
  0
VERTEX
  8
LAYER_9
 10
142.6649
 20
121.8993
 42
0.01864112751
  0
VERTEX
  8
LAYER_9
 10
142.6832
 20
122.4013
  0
VERTEX
  8
LAYER_9
 10
142.6832
 20
164.4013
 42
0.06288723683
  0
VERTEX
  8
LAYER_9
 10
142.5186
 20
165.7976
 42
0.07861922107
  0
VERTEX
  8
LAYER_9
 10
142.0958
 20
166.7624
 42
0.1702052563
  0
VERTEX
  8
LAYER_9
 10
140.6451
 20
167.8554
 42
0.06743196868
  0
VERTEX
  8
LAYER_9
 10
139.4852
 20
168.083
 42
0.01864112751
  0
VERTEX
  8
LAYER_9
 10
138.9832
 20
168.1013
  0
VERTEX
  8
LAYER_9
 10
116.9832
 20
168.1013
 42
0.06288723683
  0
VERTEX
  8
LAYER_9
 10
115.5869
 20
167.9367
 42
0.07861922107
  0
VERTEX
  8
LAYER_9
 10
114.6221
 20
167.5139
 42
0.1702052563
  0
VERTEX
  8
LAYER_9
 10
113.5291
 20
166.0632
 42
0.06743196868
  0
VERTEX
  8
LAYER_9
 10
113.3015
 20
164.9033
 42
0.01864112772
  0
VERTEX
  8
LAYER_9
 10
113.2832
 20
164.4013
  0
VERTEX
  8
LAYER_9
 10
113.2832
 20
122.4013
 42
0.06288723703
  0
VERTEX
  8
LAYER_9
 10
113.4478
 20
121.005
 42
0.07861922107
  0
VERTEX
  8
LAYER_9
 10
113.8706
 20
120.0402
 42
0.1702052563
  0
VERTEX
  8
LAYER_9
 10
115.3213
 20
118.9472
 42
0.06743196868
  0
VERTEX
  8
LAYER_9
 10
116.4812
 20
118.7196
 42
0.01864112751
  0
SEQEND
  0
ENDBLK
  0
BLOCK
  8
LAYER_9
  2
AIGNBL0901008D
 70
64
 10
0
 20
0
 30
0
  3
AIGNBL0901008D
  0
POLYLINE
  8
LAYER_9
 40
0.1058
 41
0.1058
 66
1
 10
0
 20
0
 30
0
 70
1
  0
VERTEX
  8
LAYER_9
 10
121.2832
 20
125.7013
  0
VERTEX
  8
LAYER_9
 10
121.2832
 20
132.2013
 42
0.22130867
  0
VERTEX
  8
LAYER_9
 10
121.125
 20
132.6056
 42
0.1796738156
  0
VERTEX
  8
LAYER_9
 10
120.7832
 20
132.7013
  0
VERTEX
  8
LAYER_9
 10
117.7832
 20
132.7013
 42
0.22130867
  0
VERTEX
  8
LAYER_9
 10
117.3789
 20
132.5431
 42
0.1796738158
  0
VERTEX
  8
LAYER_9
 10
117.2832
 20
132.2013
  0
VERTEX
  8
LAYER_9
 10
117.2832
 20
125.7013
 42
0.2213086702
  0
VERTEX
  8
LAYER_9
 10
117.4414
 20
125.297
 42
0.1796738156
  0
VERTEX
  8
LAYER_9
 10
117.7832
 20
125.2013
  0
VERTEX
  8
LAYER_9
 10
120.7832
 20
125.2013
 42
0.22130867
  0
VERTEX
  8
LAYER_9
 10
121.1875
 20
125.3595
 42
0.1796738156
  0
SEQEND
  0
ENDBLK
  0
BLOCK
  8
LAYER_9
  2
AIGNBL0901008E
 70
64
 10
0
 20
0
 30
0
  3
AIGNBL0901008E
  0
POLYLINE
  8
LAYER_9
 40
0.1058
 41
0.1058
 66
1
 10
0
 20
0
 30
0
  0
VERTEX
  8
LAYER_9
 10
108.829
 20
118.4013
  0
VERTEX
  8
LAYER_9
 10
108.829
 20
168.4013
  0
SEQEND
  0
POLYLINE
  8
LAYER_9
 40
0.1058
 41
0.1058
 66
1
 10
0
 20
0
 30
0
  0
VERTEX
  8
LAYER_9
 10
110.829
 20
118.4013
  0
VERTEX
  8
LAYER_9
 10
106.829
 20
118.4013
  0
SEQEND
  0
POLYLINE
  8
LAYER_9
 40
0.1058
 41
0.1058
 66
1
 10
0
 20
0
 30
0
  0
VERTEX
  8
LAYER_9
 10
110.829
 20
168.4013
  0
VERTEX
  8
LAYER_9
 10
106.829
 20
168.4013
  0
SEQEND
  0
ENDBLK
  0
BLOCK
  8
LAYER_9
  2
AIGNBL0901008F
 70
64
 10
0
 20
0
 30
0
  3
AIGNBL0901008F
  0
POLYLINE
  8
LAYER_9
 40
0.1058
 41
0.1058
 66
1
 10
0
 20
0
 30
0
  0
VERTEX
  8
LAYER_9
 10
74.4422
 20
172.1271
  0
VERTEX
  8
LAYER_9
 10
77.9422
 20
172.1271
  0
SEQEND
  0
POLYLINE
  8
LAYER_9
 40
0.1058
 41
0.1058
 66
1
 10
0
 20
0
 30
0
  0
VERTEX
  8
LAYER_9
 10
74.4422
 20
170.1271
  0
VERTEX
  8
LAYER_9
 10
74.4422
 20
174.1271
  0
SEQEND
  0
POLYLINE
  8
LAYER_9
 40
0.1058
 41
0.1058
 66
1
 10
0
 20
0
 30
0
  0
VERTEX
  8
LAYER_9
 10
77.9422
 20
170.1271
  0
VERTEX
  8
LAYER_9
 10
77.9422
 20
174.1271
  0
SEQEND
  0
ENDBLK
  0
BLOCK
  8
LAYER_9
  2
AIGNBL09010090
 70
64
 10
0
 20
0
 30
0
  3
AIGNBL09010090
  0
POLYLINE
  8
LAYER_9
 40
0.1058
 41
0.1058
 66
1
 10
0
 20
0
 30
0
  0
VERTEX
  8
LAYER_9
 10
112.9832
 20
172.1271
  0
VERTEX
  8
LAYER_9
 10
142.9832
 20
172.1271
  0
SEQEND
  0
POLYLINE
  8
LAYER_9
 40
0.1058
 41
0.1058
 66
1
 10
0
 20
0
 30
0
  0
VERTEX
  8
LAYER_9
 10
112.9832
 20
170.1271
  0
VERTEX
  8
LAYER_9
 10
112.9832
 20
174.1271
  0
SEQEND
  0
POLYLINE
  8
LAYER_9
 40
0.1058
 41
0.1058
 66
1
 10
0
 20
0
 30
0
  0
VERTEX
  8
LAYER_9
 10
142.9832
 20
170.1271
  0
VERTEX
  8
LAYER_9
 10
142.9832
 20
174.1271
  0
SEQEND
  0
ENDBLK
  0
BLOCK
  8
LAYER_9
  2
AIGNBL09010091
 70
64
 10
0
 20
0
 30
0
  3
AIGNBL09010091
  0
POLYLINE
  8
LAYER_9
 40
0.1058
 41
0.1058
 66
1
 10
0
 20
0
 30
0
  0
VERTEX
  8
LAYER_9
 10
119.1548
 20
96.1658
  0
VERTEX
  8
LAYER_9
 10
134.1548
 20
96.1658
  0
SEQEND
  0
POLYLINE
  8
LAYER_9
 40
0.1058
 41
0.1058
 66
1
 10
0
 20
0
 30
0
  0
VERTEX
  8
LAYER_9
 10
119.1548
 20
94.1658
  0
VERTEX
  8
LAYER_9
 10
119.1548
 20
98.1658
  0
SEQEND
  0
POLYLINE
  8
LAYER_9
 40
0.1058
 41
0.1058
 66
1
 10
0
 20
0
 30
0
  0
VERTEX
  8
LAYER_9
 10
134.1548
 20
94.1658
  0
VERTEX
  8
LAYER_9
 10
134.1548
 20
98.1658
  0
SEQEND
  0
ENDBLK
  0
ENDSEC
  0
SECTION
  2
ENTITIES
  0
TEXT
  8
LAYER_9
 10
18.1791
 20
6.2646
 11
18.1791
 21
6.2646
 40
3.2995
 41
0.5
  1
仕様
  0
POLYLINE
  8
LAYER_9
 40
0.3528
 41
0.3528
 66
1
 10
0
 20
0
 30
0
  0
VERTEX
  8
LAYER_9
 10
205.0762
 20
10.8455
  0
VERTEX
  8
LAYER_9
 10
17.0763
 20
10.8455
  0
SEQEND
  0
INSERT
  8
LAYER_9
  2
AIGNBL09010002
 10
0
 20
0
 30
0
  0
POLYLINE
  8
LAYER_9
 40
0.3528
 41
0.3528
 66
1
 10
0
 20
0
 30
0
  0
VERTEX
  8
LAYER_9
 10
17.0763
 20
268.2234
  0
VERTEX
  8
LAYER_9
 10
17.0763
 20
-6.7769
  0
VERTEX
  8
LAYER_9
 10
205.0762
 20
-6.7769
  0
VERTEX
  8
LAYER_9
 10
205.0762
 20
268.2234
  0
VERTEX
  8
LAYER_9
 10
17.0763
 20
268.2234
  0
SEQEND
  0
POLYLINE
  8
LAYER_9
 40
0.3528
 41
0.3528
 66
1
 10
0
 20
0
 30
0
  0
VERTEX
  8
LAYER_9
 10
205.0762
 20
19.3546
  0
VERTEX
  8
LAYER_9
 10
17.0763
 20
19.3546
  0
SEQEND
  0
POLYLINE
  8
LAYER_9
 40
0.3528
 41
0.3528
 66
1
 10
0
 20
0
 30
0
  0
VERTEX
  8
LAYER_9
 10
205.0762
 20
2.3365
  0
VERTEX
  8
LAYER_9
 10
127.3025
 20
2.3365
  0
SEQEND
  0
TEXT
  8
LAYER_9
 10
157.5084
 20
4.6123
 11
157.5084
 21
4.6123
 40
3.7615
 41
0.5
  1
-
  0
TEXT
  8
LAYER_9
 10
152.2167
 20
8.3692
 11
152.2167
 21
8.3692
 40
2.1997
 41
0.5
  1
縮尺
  0
POLYLINE
  8
LAYER_9
 40
0.3528
 41
0.3528
 66
1
 10
0
 20
0
 30
0
  0
VERTEX
  8
LAYER_9
 10
150.6885
 20
2.3365
  0
VERTEX
  8
LAYER_9
 10
150.6885
 20
10.8455
  0
SEQEND
  0
TEXT
  8
LAYER_9
 10
128.0011
 20
16.8782
 11
128.0011
 21
16.8782
 40
2.1997
 41
0.5
  1
品番
  0
TEXT
  8
LAYER_9
 10
18.2332
 20
16.8782
 11
18.2332
 21
16.8782
 40
2.1997
 41
0.5
  1
品名
  0
TEXT
  8
LAYER_9
 10
128.0011
 20
8.3692
 11
128.0011
 21
8.3692
 40
2.1997
 41
0.5
  1
重量
  0
TEXT
  8
LAYER_9
 10
135.5345
 20
13.0462
 11
135.5345
 21
13.0462
 40
5.9385
 41
0.5
  1
EX-SPNDR
  0
TEXT
  8
LAYER_9
 10
133.3138
 20
4.6123
 11
133.3138
 21
4.6123
 40
3.7615
 41
0.5
  1
-
  0
POLYLINE
  8
LAYER_9
 40
0.3528
 41
0.3528
 66
1
 10
0
 20
0
 30
0
  0
VERTEX
  8
LAYER_9
 10
127.3025
 20
-6.1512
  0
VERTEX
  8
LAYER_9
 10
127.3025
 20
19.3546
  0
SEQEND
  0
TEXT
  8
LAYER_9
 10
24.5084
 20
13.6808
 11
24.5084
 21
13.6808
 40
4.1465
 41
0.5
  1
RECTANGULAR MIRROR
  0
TEXT
  8
LAYER_9
 10
28.7512
 20
5.7361
 11
28.7512
 21
5.7361
 40
3.5541
 41
0.5
  1
●W300mm×H500mm
  0
TEXT
  8
LAYER_9
 10
191.6644
 20
22.153
 11
191.6644
 21
22.153
 40
2.9618
 41
0.5
  1
単位：mm
  0
TEXT
  8
LAYER_9
 10
194.7605
 20
264.7297
 11
194.7605
 21
264.7297
 40
2.0732
 41
0.5
  1
190711RT
  0
TEXT
  8
LAYER_9
 10
154.2662
 20
-1.6816
 11
154.2662
 21
-1.6816
 40
2.8694
 41
0.5
  1
●TEL 0120-65-1232●FAX 06-6532-1580
  0
TEXT
  8
LAYER_9
 10
154.2662
 20
-4.6609
 11
154.2662
 21
-4.6609
 40
2.8694
 41
0.5
  1
hits@hiratatile.co.jp
  0
INSERT
  8
LAYER_9
  2
AIGNBL09010003
 10
0
 20
0
 30
0
  0
INSERT
  8
LAYER_9
  2
AIGNBL09010025
 10
0
 20
0
 30
0
  0
INSERT
  8
LAYER_9
  2
AIGNBL09010026
 10
0
 20
0
 30
0
  0
INSERT
  8
LAYER_9
  2
AIGNBL09010027
 10
0
 20
0
 30
0
  0
INSERT
  8
LAYER_9
  2
AIGNBL09010028
 10
0
 20
0
 30
0
  0
INSERT
  8
LAYER_9
  2
AIGNBL09010029
 10
0
 20
0
 30
0
  0
INSERT
  8
LAYER_9
  2
AIGNBL0901002A
 10
0
 20
0
 30
0
  0
INSERT
  8
LAYER_9
  2
AIGNBL0901002B
 10
0
 20
0
 30
0
  0
INSERT
  8
LAYER_9
  2
AIGNBL0901002C
 10
0
 20
0
 30
0
  0
INSERT
  8
LAYER_9
  2
AIGNBL0901002D
 10
0
 20
0
 30
0
  0
INSERT
  8
LAYER_9
  2
AIGNBL0901002E
 10
0
 20
0
 30
0
  0
INSERT
  8
LAYER_9
  2
AIGNBL0901002F
 10
0
 20
0
 30
0
  0
INSERT
  8
LAYER_9
  2
AIGNBL09010030
 10
0
 20
0
 30
0
  0
INSERT
  8
LAYER_9
  2
AIGNBL09010031
 10
0
 20
0
 30
0
  0
INSERT
  8
LAYER_9
  2
AIGNBL09010032
 10
0
 20
0
 30
0
  0
INSERT
  8
LAYER_9
  2
AIGNBL09010033
 10
0
 20
0
 30
0
  0
INSERT
  8
LAYER_9
  2
AIGNBL09010034
 10
0
 20
0
 30
0
  0
INSERT
  8
LAYER_9
  2
AIGNBL09010035
 10
0
 20
0
 30
0
  0
INSERT
  8
LAYER_9
  2
AIGNBL09010036
 10
0
 20
0
 30
0
  0
INSERT
  8
LAYER_9
  2
AIGNBL09010037
 10
0
 20
0
 30
0
  0
INSERT
  8
LAYER_9
  2
AIGNBL09010038
 10
0
 20
0
 30
0
  0
INSERT
  8
LAYER_9
  2
AIGNBL09010039
 10
0
 20
0
 30
0
  0
INSERT
  8
LAYER_9
  2
AIGNBL0901003A
 10
0
 20
0
 30
0
  0
INSERT
  8
LAYER_9
  2
AIGNBL0901003B
 10
0
 20
0
 30
0
  0
INSERT
  8
LAYER_9
  2
AIGNBL0901003C
 10
0
 20
0
 30
0
  0
INSERT
  8
LAYER_9
  2
AIGNBL0901003D
 10
0
 20
0
 30
0
  0
INSERT
  8
LAYER_9
  2
AIGNBL0901003E
 10
0
 20
0
 30
0
  0
INSERT
  8
LAYER_9
  2
AIGNBL0901003F
 10
0
 20
0
 30
0
  0
INSERT
  8
LAYER_9
  2
AIGNBL09010040
 10
0
 20
0
 30
0
  0
INSERT
  8
LAYER_9
  2
AIGNBL09010041
 10
0
 20
0
 30
0
  0
INSERT
  8
LAYER_9
  2
AIGNBL09010042
 10
0
 20
0
 30
0
  0
INSERT
  8
LAYER_9
  2
AIGNBL09010043
 10
0
 20
0
 30
0
  0
INSERT
  8
LAYER_9
  2
AIGNBL09010044
 10
0
 20
0
 30
0
  0
INSERT
  8
LAYER_9
  2
AIGNBL09010045
 10
0
 20
0
 30
0
  0
INSERT
  8
LAYER_9
  2
AIGNBL09010046
 10
0
 20
0
 30
0
  0
INSERT
  8
LAYER_9
  2
AIGNBL09010047
 10
0
 20
0
 30
0
  0
INSERT
  8
LAYER_9
  2
AIGNBL09010048
 10
0
 20
0
 30
0
  0
INSERT
  8
LAYER_9
  2
AIGNBL09010049
 10
0
 20
0
 30
0
  0
INSERT
  8
LAYER_9
  2
AIGNBL0901004A
 10
0
 20
0
 30
0
  0
INSERT
  8
LAYER_9
  2
AIGNBL0901004B
 10
0
 20
0
 30
0
  0
INSERT
  8
LAYER_9
  2
AIGNBL0901004C
 10
0
 20
0
 30
0
  0
INSERT
  8
LAYER_9
  2
AIGNBL0901004D
 10
0
 20
0
 30
0
  0
INSERT
  8
LAYER_9
  2
AIGNBL0901004E
 10
0
 20
0
 30
0
  0
INSERT
  8
LAYER_9
  2
AIGNBL0901004F
 10
0
 20
0
 30
0
  0
INSERT
  8
LAYER_9
  2
AIGNBL09010050
 10
0
 20
0
 30
0
  0
INSERT
  8
LAYER_9
  2
AIGNBL09010051
 10
0
 20
0
 30
0
  0
INSERT
  8
LAYER_9
  2
AIGNBL09010052
 10
0
 20
0
 30
0
  0
INSERT
  8
LAYER_9
  2
AIGNBL09010053
 10
0
 20
0
 30
0
  0
INSERT
  8
LAYER_9
  2
AIGNBL09010054
 10
0
 20
0
 30
0
  0
INSERT
  8
LAYER_9
  2
AIGNBL09010055
 10
0
 20
0
 30
0
  0
INSERT
  8
LAYER_9
  2
AIGNBL09010056
 10
0
 20
0
 30
0
  0
INSERT
  8
LAYER_9
  2
AIGNBL09010057
 10
0
 20
0
 30
0
  0
INSERT
  8
LAYER_9
  2
AIGNBL09010058
 10
0
 20
0
 30
0
  0
INSERT
  8
LAYER_9
  2
AIGNBL09010059
 10
0
 20
0
 30
0
  0
INSERT
  8
LAYER_9
  2
AIGNBL0901005A
 10
0
 20
0
 30
0
  0
INSERT
  8
LAYER_9
  2
AIGNBL0901005B
 10
0
 20
0
 30
0
  0
INSERT
  8
LAYER_9
  2
AIGNBL0901005C
 10
0
 20
0
 30
0
  0
INSERT
  8
LAYER_9
  2
AIGNBL0901005D
 10
0
 20
0
 30
0
  0
INSERT
  8
LAYER_9
  2
AIGNBL0901005E
 10
0
 20
0
 30
0
  0
INSERT
  8
LAYER_9
  2
AIGNBL0901005F
 10
0
 20
0
 30
0
  0
INSERT
  8
LAYER_9
  2
AIGNBL09010060
 10
0
 20
0
 30
0
  0
INSERT
  8
LAYER_9
  2
AIGNBL09010061
 10
0
 20
0
 30
0
  0
INSERT
  8
LAYER_9
  2
AIGNBL09010062
 10
0
 20
0
 30
0
  0
INSERT
  8
LAYER_9
  2
AIGNBL09010063
 10
0
 20
0
 30
0
  0
INSERT
  8
LAYER_9
  2
AIGNBL09010064
 10
0
 20
0
 30
0
  0
INSERT
  8
LAYER_9
  2
AIGNBL09010065
 10
0
 20
0
 30
0
  0
INSERT
  8
LAYER_9
  2
AIGNBL09010066
 10
0
 20
0
 30
0
  0
INSERT
  8
LAYER_9
  2
AIGNBL09010067
 10
0
 20
0
 30
0
  0
INSERT
  8
LAYER_9
  2
AIGNBL09010068
 10
0
 20
0
 30
0
  0
INSERT
  8
LAYER_9
  2
AIGNBL09010069
 10
0
 20
0
 30
0
  0
INSERT
  8
LAYER_9
  2
AIGNBL0901006A
 10
0
 20
0
 30
0
  0
INSERT
  8
LAYER_9
  2
AIGNBL0901006B
 10
0
 20
0
 30
0
  0
INSERT
  8
LAYER_9
  2
AIGNBL0901006C
 10
0
 20
0
 30
0
  0
INSERT
  8
LAYER_9
  2
AIGNBL0901006D
 10
0
 20
0
 30
0
  0
INSERT
  8
LAYER_9
  2
AIGNBL0901006E
 10
0
 20
0
 30
0
  0
INSERT
  8
LAYER_9
  2
AIGNBL0901006F
 10
0
 20
0
 30
0
  0
INSERT
  8
LAYER_9
  2
AIGNBL09010070
 10
0
 20
0
 30
0
  0
INSERT
  8
LAYER_9
  2
AIGNBL09010071
 10
0
 20
0
 30
0
  0
INSERT
  8
LAYER_9
  2
AIGNBL09010072
 10
0
 20
0
 30
0
  0
INSERT
  8
LAYER_9
  2
AIGNBL09010073
 10
0
 20
0
 30
0
  0
INSERT
  8
LAYER_9
  2
AIGNBL09010074
 10
0
 20
0
 30
0
  0
INSERT
  8
LAYER_9
  2
AIGNBL09010075
 10
0
 20
0
 30
0
  0
INSERT
  8
LAYER_9
  2
AIGNBL09010076
 10
0
 20
0
 30
0
  0
INSERT
  8
LAYER_9
  2
AIGNBL09010077
 10
0
 20
0
 30
0
  0
INSERT
  8
LAYER_9
  2
AIGNBL09010078
 10
0
 20
0
 30
0
  0
INSERT
  8
LAYER_9
  2
AIGNBL09010079
 10
0
 20
0
 30
0
  0
INSERT
  8
LAYER_9
  2
AIGNBL0901007A
 10
0
 20
0
 30
0
  0
INSERT
  8
LAYER_9
  2
AIGNBL0901007B
 10
0
 20
0
 30
0
  0
INSERT
  8
LAYER_9
  2
AIGNBL0901007C
 10
0
 20
0
 30
0
  0
INSERT
  8
LAYER_9
  2
AIGNBL0901007D
 10
0
 20
0
 30
0
  0
INSERT
  8
LAYER_9
  2
AIGNBL0901007E
 10
0
 20
0
 30
0
  0
INSERT
  8
LAYER_9
  2
AIGNBL0901007F
 10
0
 20
0
 30
0
  0
INSERT
  8
LAYER_9
  2
AIGNBL09010080
 10
0
 20
0
 30
0
  0
INSERT
  8
LAYER_9
  2
AIGNBL09010081
 10
0
 20
0
 30
0
  0
INSERT
  8
LAYER_9
  2
AIGNBL09010082
 10
0
 20
0
 30
0
  0
INSERT
  8
LAYER_9
  2
AIGNBL09010083
 10
0
 20
0
 30
0
  0
INSERT
  8
LAYER_9
  2
AIGNBL09010084
 10
0
 20
0
 30
0
  0
INSERT
  8
LAYER_9
  2
AIGNBL09010085
 10
0
 20
0
 30
0
  0
INSERT
  8
LAYER_9
  2
AIGNBL09010086
 10
0
 20
0
 30
0
  0
INSERT
  8
LAYER_9
  2
AIGNBL09010087
 10
0
 20
0
 30
0
  0
INSERT
  8
LAYER_9
  2
AIGNBL09010088
 10
0
 20
0
 30
0
  0
INSERT
  8
LAYER_9
  2
AIGNBL09010089
 10
0
 20
0
 30
0
  0
INSERT
  8
LAYER_9
  2
AIGNBL0901008A
 10
0
 20
0
 30
0
  0
INSERT
  8
LAYER_9
  2
AIGNBL0901008B
 10
0
 20
0
 30
0
  0
INSERT
  8
LAYER_9
  2
AIGNBL0901008C
 10
0
 20
0
 30
0
  0
INSERT
  8
LAYER_9
  2
AIGNBL0901008D
 10
0
 20
0
 30
0
  0
INSERT
  8
LAYER_9
  2
AIGNBL0901008E
 10
0
 20
0
 30
0
  0
TEXT
  8
LAYER_9
 10
99.6277
 20
142.8088
 11
99.6277
 21
142.8088
 40
5.0153
 41
0.5
  1
500
  0
TEXT
  8
LAYER_9
 10
124.1871
 20
173.6036
 11
124.1871
 21
173.6036
 40
5.0153
 41
0.5
  1
300
  0
INSERT
  8
LAYER_9
  2
AIGNBL0901008F
 10
0
 20
0
 30
0
  0
INSERT
  8
LAYER_9
  2
AIGNBL09010090
 10
0
 20
0
 30
0
  0
TEXT
  8
LAYER_9
 10
123.6872
 20
98.6603
 11
123.6872
 21
98.6603
 40
5.0153
 41
0.5
  1
150
  0
TEXT
  8
LAYER_9
 10
142.0113
 20
114.6939
 11
142.0113
 21
114.6939
 40
5.0153
 41
0.5
  1
R40
  0
INSERT
  8
LAYER_9
  2
AIGNBL09010091
 10
0
 20
0
 30
0
  0
TEXT
  8
LAYER_9
 10
73.6039
 20
175.3698
 11
73.6039
 21
175.3698
 40
5.0153
 41
0.5
  1
35
  0
ENDSEC
  0
EOF
