  0
SECTION
  2
HEADER
  9
$ACADVER
  1
AC1009
  9
$LUNITS
 70
2
  9
$LUPREC
 70
4
  9
$LTSCALE
 40
1.0
  9
$EXTMIN
 10
-30.3177
 20
33.3285
 30
0
  9
$EXTMAX
 10
251.6749
 20
230.337
 30
0
  0
ENDSEC
  0
SECTION
  2
TABLES
  0
TABLE
  2
LTYPE
 70
256
  0
LTYPE
  2
AIGENLINE001
 70
64
  3
generate AI->DXF Converter
 72
65
 73
2
 40
0.7067
 49
0.3533
 49
-0.3533
  0
LTYPE
  2
AIGENLINE002
 70
64
  3
generate AI->DXF Converter
 72
65
 73
2
 40
0.7036
 49
0.3518
 49
-0.3518
  0
ENDTAB
  0
TABLE
  2
LAYER
 70
7
  0
LAYER
  2
LAYER_1
 70
64
 62
7
  6
CONTINUOUS
  0
LAYER
  2
LAYER_2
 70
64
 62
7
  6
CONTINUOUS
  0
LAYER
  2
LAYER_3
 70
64
 62
7
  6
CONTINUOUS
  0
LAYER
  2
LAYER_4
 70
64
 62
7
  6
CONTINUOUS
  0
LAYER
  2
LAYER_5
 70
64
 62
7
  6
CONTINUOUS
  0
LAYER
  2
LAYER_6
 70
64
 62
7
  6
CONTINUOUS
  0
LAYER
  2
LAYER_7
 70
64
 62
7
  6
CONTINUOUS
  0
ENDTAB
  0
TABLE
  2
STYLE
 70
6
  0
STYLE
  2
STANDARD
 70
0
 40
0
 50
0
 71
0
 41
0
 42
0
  3
TXT
  4
BIGFONT
  0
ENDTAB
  0
ENDSEC
  0
SECTION
  2
BLOCKS
  0
BLOCK
  8
LAYER_7
  2
AIGNBL07040006
 70
64
 10
0
 20
0
 30
0
  3
AIGNBL07040006
  0
POLYLINE
  8
LAYER_7
 40
0.05
 41
0.05
 66
1
 10
0
 20
0
 30
0
 70
1
  0
VERTEX
  8
LAYER_7
 10
146.338
 20
38.6719
  0
VERTEX
  8
LAYER_7
 10
145.8492
 20
37.4868
  0
VERTEX
  8
LAYER_7
 10
145.2211
 20
37.4868
  0
VERTEX
  8
LAYER_7
 10
146.8207
 20
41.2526
  0
VERTEX
  8
LAYER_7
 10
147.5538
 20
41.2526
  0
VERTEX
  8
LAYER_7
 10
149.1602
 20
37.4868
  0
VERTEX
  8
LAYER_7
 10
148.5101
 20
37.4868
  0
VERTEX
  8
LAYER_7
 10
148.0075
 20
38.6719
  0
SEQEND
  0
POLYLINE
  8
LAYER_7
 40
0.05
 41
0.05
 66
1
 10
0
 20
0
 30
0
 70
1
  0
VERTEX
  8
LAYER_7
 10
147.8818
 20
39.0508
  0
VERTEX
  8
LAYER_7
 10
147.4208
 20
40.1357
 42
-0.02317247198
  0
VERTEX
  8
LAYER_7
 10
147.1762
 20
40.8227
  0
VERTEX
  8
LAYER_7
 10
147.1624
 20
40.8227
 42
-0.02064481114
  0
VERTEX
  8
LAYER_7
 10
146.9247
 20
40.1402
  0
VERTEX
  8
LAYER_7
 10
146.4641
 20
39.0508
  0
SEQEND
  0
ENDBLK
  0
BLOCK
  8
LAYER_7
  2
AIGNBL07040007
 70
64
 10
0
 20
0
 30
0
  3
AIGNBL07040007
  0
POLYLINE
  8
LAYER_7
 40
0.05
 41
0.05
 66
1
 10
0
 20
0
 30
0
 70
1
  0
VERTEX
  8
LAYER_7
 10
153.5255
 20
36.9335
 42
-0.01522741789
  0
VERTEX
  8
LAYER_7
 10
151.7234
 20
37.3696
 42
0.0915894023
  0
VERTEX
  8
LAYER_7
 10
151.4368
 20
37.4251
 42
-0.09256808484
  0
VERTEX
  8
LAYER_7
 10
150.4829
 20
37.6278
 42
-0.09799469934
  0
VERTEX
  8
LAYER_7
 10
149.8456
 20
38.0625
 42
-0.1630918382
  0
VERTEX
  8
LAYER_7
 10
149.3799
 20
39.056
 42
-0.0316951694
  0
VERTEX
  8
LAYER_7
 10
149.3628
 20
39.3299
 42
-0.1055313794
  0
VERTEX
  8
LAYER_7
 10
149.5368
 20
40.1718
 42
-0.1619874109
  0
VERTEX
  8
LAYER_7
 10
150.3253
 20
41.0168
 42
-0.09224146328
  0
VERTEX
  8
LAYER_7
 10
151.1244
 20
41.2825
 42
-0.03717154931
  0
VERTEX
  8
LAYER_7
 10
151.556
 20
41.3139
 42
-0.09530992557
  0
VERTEX
  8
LAYER_7
 10
152.5196
 20
41.1363
 42
-0.1001927534
  0
VERTEX
  8
LAYER_7
 10
153.1567
 20
40.7135
 42
-0.1611141553
  0
VERTEX
  8
LAYER_7
 10
153.6434
 20
39.7125
 42
-0.03590264063
  0
VERTEX
  8
LAYER_7
 10
153.665
 20
39.4084
 42
-0.1066829401
  0
VERTEX
  8
LAYER_7
 10
153.4886
 20
38.5537
 42
-0.2183916831
  0
VERTEX
  8
LAYER_7
 10
152.3788
 20
37.6198
 42
-0.006706650743
  0
VERTEX
  8
LAYER_7
 10
152.3242
 20
37.6039
  0
VERTEX
  8
LAYER_7
 10
152.3242
 20
37.5815
 42
0.01533555045
  0
VERTEX
  8
LAYER_7
 10
153.7005
 20
37.3414
  0
SEQEND
  0
POLYLINE
  8
LAYER_7
 40
0.05
 41
0.05
 66
1
 10
0
 20
0
 30
0
 70
1
  0
VERTEX
  8
LAYER_7
 10
153.0229
 20
39.3871
 42
0.1175610784
  0
VERTEX
  8
LAYER_7
 10
152.8405
 20
40.1555
 42
0.1170135141
  0
VERTEX
  8
LAYER_7
 10
152.415
 20
40.6535
 42
0.1200044572
  0
VERTEX
  8
LAYER_7
 10
151.8021
 20
40.8976
 42
0.03774262044
  0
VERTEX
  8
LAYER_7
 10
151.5346
 20
40.9174
 42
0.1153139376
  0
VERTEX
  8
LAYER_7
 10
150.7924
 20
40.7527
 42
0.1853550912
  0
VERTEX
  8
LAYER_7
 10
150.1342
 20
40.0183
 42
0.09859892291
  0
VERTEX
  8
LAYER_7
 10
150.0122
 20
39.3423
 42
0.1178359247
  0
VERTEX
  8
LAYER_7
 10
150.1799
 20
38.6035
 42
0.2866694251
  0
VERTEX
  8
LAYER_7
 10
151.5067
 20
37.8213
 42
0.1188197759
  0
VERTEX
  8
LAYER_7
 10
152.2557
 20
37.9934
 42
0.1796740134
  0
VERTEX
  8
LAYER_7
 10
152.8961
 20
38.7101
 42
0.09850052237
  0
SEQEND
  0
ENDBLK
  0
BLOCK
  8
LAYER_7
  2
AIGNBL07040008
 70
64
 10
0
 20
0
 30
0
  3
AIGNBL07040008
  0
POLYLINE
  8
LAYER_7
 40
0.05
 41
0.05
 66
1
 10
0
 20
0
 30
0
 70
1
  0
VERTEX
  8
LAYER_7
 10
154.9924
 20
41.2526
  0
VERTEX
  8
LAYER_7
 10
154.9924
 20
39.0233
 42
0.1220213404
  0
VERTEX
  8
LAYER_7
 10
155.1525
 20
38.3076
 42
0.2218709818
  0
VERTEX
  8
LAYER_7
 10
155.7939
 20
37.8507
 42
0.05223876895
  0
VERTEX
  8
LAYER_7
 10
156.089
 20
37.8213
 42
0.1302821267
  0
VERTEX
  8
LAYER_7
 10
156.7583
 20
37.9821
 42
0.1509367336
  0
VERTEX
  8
LAYER_7
 10
157.1095
 20
38.3755
 42
0.1174732039
  0
VERTEX
  8
LAYER_7
 10
157.2345
 20
39.0233
  0
VERTEX
  8
LAYER_7
 10
157.2345
 20
41.2526
  0
VERTEX
  8
LAYER_7
 10
157.8491
 20
41.2526
  0
VERTEX
  8
LAYER_7
 10
157.8491
 20
39.0567
 42
-0.1106293044
  0
VERTEX
  8
LAYER_7
 10
157.6796
 20
38.2381
 42
-0.1822234758
  0
VERTEX
  8
LAYER_7
 10
156.9891
 20
37.5938
 42
-0.09768424965
  0
VERTEX
  8
LAYER_7
 10
156.1863
 20
37.4273
 42
-0.01000830121
  0
VERTEX
  8
LAYER_7
 10
156.068
 20
37.4251
 42
-0.09899827608
  0
VERTEX
  8
LAYER_7
 10
155.1955
 20
37.5855
 42
-0.1209605854
  0
VERTEX
  8
LAYER_7
 10
154.6928
 20
37.9667
 42
-0.1192983303
  0
VERTEX
  8
LAYER_7
 10
154.4242
 20
38.5618
 42
-0.05319533763
  0
VERTEX
  8
LAYER_7
 10
154.3778
 20
39.0347
  0
VERTEX
  8
LAYER_7
 10
154.3778
 20
41.2526
  0
SEQEND
  0
ENDBLK
  0
BLOCK
  8
LAYER_7
  2
AIGNBL07040009
 70
64
 10
0
 20
0
 30
0
  3
AIGNBL07040009
  0
POLYLINE
  8
LAYER_7
 40
0.05
 41
0.05
 66
1
 10
0
 20
0
 30
0
 70
1
  0
VERTEX
  8
LAYER_7
 10
159.5954
 20
38.6719
  0
VERTEX
  8
LAYER_7
 10
159.1062
 20
37.4868
  0
VERTEX
  8
LAYER_7
 10
158.4782
 20
37.4868
  0
VERTEX
  8
LAYER_7
 10
160.0774
 20
41.2526
  0
VERTEX
  8
LAYER_7
 10
160.8105
 20
41.2526
  0
VERTEX
  8
LAYER_7
 10
162.417
 20
37.4868
  0
VERTEX
  8
LAYER_7
 10
161.7676
 20
37.4868
  0
VERTEX
  8
LAYER_7
 10
161.2649
 20
38.6719
  0
SEQEND
  0
POLYLINE
  8
LAYER_7
 40
0.05
 41
0.05
 66
1
 10
0
 20
0
 30
0
 70
1
  0
VERTEX
  8
LAYER_7
 10
161.1388
 20
39.0508
  0
VERTEX
  8
LAYER_7
 10
160.6775
 20
40.1357
 42
-0.02227599701
  0
VERTEX
  8
LAYER_7
 10
160.4329
 20
40.8227
  0
VERTEX
  8
LAYER_7
 10
160.4191
 20
40.8227
 42
-0.02068722773
  0
VERTEX
  8
LAYER_7
 10
160.1818
 20
40.1402
  0
VERTEX
  8
LAYER_7
 10
159.7208
 20
39.0508
  0
SEQEND
  0
ENDBLK
  0
BLOCK
  8
LAYER_7
  2
AIGNBL0704000A
 70
64
 10
0
 20
0
 30
0
  3
AIGNBL0704000A
  0
POLYLINE
  8
LAYER_7
 40
0.05
 41
0.05
 66
1
 10
0
 20
0
 30
0
 70
1
  0
VERTEX
  8
LAYER_7
 10
163.4577
 20
41.2078
 42
-0.03334485223
  0
VERTEX
  8
LAYER_7
 10
164.6246
 20
41.2809
 42
-0.08844478427
  0
VERTEX
  8
LAYER_7
 10
165.6706
 20
41.1159
 42
-0.06037505309
  0
VERTEX
  8
LAYER_7
 10
165.9444
 20
40.968
 42
-0.2472514979
  0
VERTEX
  8
LAYER_7
 10
166.3561
 20
40.1798
 42
-0.1483298328
  0
VERTEX
  8
LAYER_7
 10
166.1864
 20
39.5855
 42
-0.07223194904
  0
VERTEX
  8
LAYER_7
 10
165.993
 20
39.3757
 42
-0.1209372404
  0
VERTEX
  8
LAYER_7
 10
165.3063
 20
39.0471
 42
-0.06224269186
  0
VERTEX
  8
LAYER_7
 10
164.5543
 20
38.962
 42
-0.05738783264
  0
VERTEX
  8
LAYER_7
 10
164.0658
 20
38.9954
  0
VERTEX
  8
LAYER_7
 10
164.0658
 20
37.4868
  0
VERTEX
  8
LAYER_7
 10
163.4577
 20
37.4868
  0
SEQEND
  0
POLYLINE
  8
LAYER_7
 40
0.05
 41
0.05
 66
1
 10
0
 20
0
 30
0
 70
1
  0
VERTEX
  8
LAYER_7
 10
164.0658
 20
39.3923
 42
0.05012782438
  0
VERTEX
  8
LAYER_7
 10
164.5681
 20
39.353
 42
0.1135299982
  0
VERTEX
  8
LAYER_7
 10
165.3532
 20
39.5123
 42
0.1653556145
  0
VERTEX
  8
LAYER_7
 10
165.6909
 20
39.8603
 42
0.1044590446
  0
VERTEX
  8
LAYER_7
 10
165.7491
 20
40.1574
 42
0.2826437488
  0
VERTEX
  8
LAYER_7
 10
165.3982
 20
40.7404
 42
0.0629694601
  0
VERTEX
  8
LAYER_7
 10
165.1325
 20
40.8408
 42
0.06259589917
  0
VERTEX
  8
LAYER_7
 10
164.6387
 20
40.895
 42
0.05214717704
  0
VERTEX
  8
LAYER_7
 10
164.0658
 20
40.8557
  0
SEQEND
  0
ENDBLK
  0
BLOCK
  8
LAYER_7
  2
AIGNBL0704000B
 70
64
 10
0
 20
0
 30
0
  3
AIGNBL0704000B
  0
POLYLINE
  8
LAYER_7
 40
0.05
 41
0.05
 66
1
 10
0
 20
0
 30
0
 70
1
  0
VERTEX
  8
LAYER_7
 10
167.9081
 20
40.9508
 42
-0.3046530705
  0
VERTEX
  8
LAYER_7
 10
167.7416
 20
40.6962
 42
-0.1151252958
  0
VERTEX
  8
LAYER_7
 10
167.5164
 20
40.649
 42
-0.2441784347
  0
VERTEX
  8
LAYER_7
 10
167.1862
 20
40.8095
 42
-0.1395127165
  0
VERTEX
  8
LAYER_7
 10
167.146
 20
40.9508
 42
-0.2874838629
  0
VERTEX
  8
LAYER_7
 10
167.3181
 20
41.2104
 42
-0.1179090007
  0
VERTEX
  8
LAYER_7
 10
167.5302
 20
41.2578
 42
-0.2416274379
  0
VERTEX
  8
LAYER_7
 10
167.8649
 20
41.102
 42
-0.1426378456
  0
SEQEND
  0
POLYLINE
  8
LAYER_7
 40
0.05
 41
0.05
 66
1
 10
0
 20
0
 30
0
 70
1
  0
VERTEX
  8
LAYER_7
 10
167.2225
 20
37.4868
  0
VERTEX
  8
LAYER_7
 10
167.2225
 20
40.1908
  0
VERTEX
  8
LAYER_7
 10
167.8371
 20
40.1908
  0
VERTEX
  8
LAYER_7
 10
167.8371
 20
37.4868
  0
SEQEND
  0
ENDBLK
  0
BLOCK
  8
LAYER_7
  2
AIGNBL0704000C
 70
64
 10
0
 20
0
 30
0
  3
AIGNBL0704000C
  0
POLYLINE
  8
LAYER_7
 40
0.05
 41
0.05
 66
1
 10
0
 20
0
 30
0
 70
1
  0
VERTEX
  8
LAYER_7
 10
169.7088
 20
38.6719
  0
VERTEX
  8
LAYER_7
 10
169.2207
 20
37.4868
  0
VERTEX
  8
LAYER_7
 10
168.5916
 20
37.4868
  0
VERTEX
  8
LAYER_7
 10
170.1912
 20
41.2526
  0
VERTEX
  8
LAYER_7
 10
170.925
 20
41.2526
  0
VERTEX
  8
LAYER_7
 10
172.5314
 20
37.4868
  0
VERTEX
  8
LAYER_7
 10
171.8817
 20
37.4868
  0
VERTEX
  8
LAYER_7
 10
171.379
 20
38.6719
  0
SEQEND
  0
POLYLINE
  8
LAYER_7
 40
0.05
 41
0.05
 66
1
 10
0
 20
0
 30
0
 70
1
  0
VERTEX
  8
LAYER_7
 10
171.2529
 20
39.0508
  0
VERTEX
  8
LAYER_7
 10
170.792
 20
40.1357
 42
-0.02430767271
  0
VERTEX
  8
LAYER_7
 10
170.5481
 20
40.8227
  0
VERTEX
  8
LAYER_7
 10
170.5333
 20
40.8227
 42
-0.02029129434
  0
VERTEX
  8
LAYER_7
 10
170.2962
 20
40.1402
  0
VERTEX
  8
LAYER_7
 10
169.8353
 20
39.0508
  0
SEQEND
  0
ENDBLK
  0
BLOCK
  8
LAYER_7
  2
AIGNBL07030005
 70
64
 10
0
 20
0
 30
0
  3
AIGNBL07030005
  0
INSERT
  8
LAYER_7
  2
AIGNBL07040006
 10
0
 20
0
 30
0
  0
INSERT
  8
LAYER_7
  2
AIGNBL07040007
 10
0
 20
0
 30
0
  0
INSERT
  8
LAYER_7
  2
AIGNBL07040008
 10
0
 20
0
 30
0
  0
INSERT
  8
LAYER_7
  2
AIGNBL07040009
 10
0
 20
0
 30
0
  0
INSERT
  8
LAYER_7
  2
AIGNBL0704000A
 10
0
 20
0
 30
0
  0
INSERT
  8
LAYER_7
  2
AIGNBL0704000B
 10
0
 20
0
 30
0
  0
INSERT
  8
LAYER_7
  2
AIGNBL0704000C
 10
0
 20
0
 30
0
  0
ENDBLK
  0
BLOCK
  8
LAYER_7
  2
AIGNBL0703000E
 70
64
 10
0
 20
0
 30
0
  3
AIGNBL0703000E
  0
POLYLINE
  8
LAYER_7
 40
0.05
 41
0.05
 66
1
 10
0
 20
0
 30
0
 70
1
  0
VERTEX
  8
LAYER_7
 10
145.331
 20
35.5875
  0
VERTEX
  8
LAYER_7
 10
145.8843
 20
35.5875
  0
VERTEX
  8
LAYER_7
 10
145.8843
 20
35.4938
  0
VERTEX
  8
LAYER_7
 10
145.2259
 20
35.4938
  0
VERTEX
  8
LAYER_7
 10
145.2259
 20
36.527
  0
VERTEX
  8
LAYER_7
 10
145.8667
 20
36.527
  0
VERTEX
  8
LAYER_7
 10
145.8667
 20
36.4336
  0
VERTEX
  8
LAYER_7
 10
145.331
 20
36.4336
  0
VERTEX
  8
LAYER_7
 10
145.331
 20
36.0791
  0
VERTEX
  8
LAYER_7
 10
145.8316
 20
36.0791
  0
VERTEX
  8
LAYER_7
 10
145.8316
 20
35.9857
  0
VERTEX
  8
LAYER_7
 10
145.331
 20
35.9857
  0
SEQEND
  0
ENDBLK
  0
BLOCK
  8
LAYER_7
  2
AIGNBL0703000F
 70
64
 10
0
 20
0
 30
0
  3
AIGNBL0703000F
  0
POLYLINE
  8
LAYER_7
 40
0.05
 41
0.05
 66
1
 10
0
 20
0
 30
0
 70
1
  0
VERTEX
  8
LAYER_7
 10
147.0239
 20
35.6471
  0
VERTEX
  8
LAYER_7
 10
147.0267
 20
35.6471
  0
VERTEX
  8
LAYER_7
 10
147.0267
 20
36.527
  0
VERTEX
  8
LAYER_7
 10
147.1318
 20
36.527
  0
VERTEX
  8
LAYER_7
 10
147.1318
 20
35.4938
  0
VERTEX
  8
LAYER_7
 10
147.0008
 20
35.4938
  0
VERTEX
  8
LAYER_7
 10
146.3997
 20
36.3826
  0
VERTEX
  8
LAYER_7
 10
146.3962
 20
36.3826
  0
VERTEX
  8
LAYER_7
 10
146.3962
 20
35.4938
  0
VERTEX
  8
LAYER_7
 10
146.2915
 20
35.4938
  0
VERTEX
  8
LAYER_7
 10
146.2915
 20
36.527
  0
VERTEX
  8
LAYER_7
 10
146.4228
 20
36.527
  0
SEQEND
  0
ENDBLK
  0
BLOCK
  8
LAYER_7
  2
AIGNBL07030010
 70
64
 10
0
 20
0
 30
0
  3
AIGNBL07030010
  0
POLYLINE
  8
LAYER_7
 40
0.05
 41
0.05
 66
1
 10
0
 20
0
 30
0
 70
1
  0
VERTEX
  8
LAYER_7
 10
147.6048
 20
35.7057
 42
0.1563325367
  0
VERTEX
  8
LAYER_7
 10
147.6592
 20
35.6027
 42
0.1923217716
  0
VERTEX
  8
LAYER_7
 10
147.7725
 20
35.561
  0
VERTEX
  8
LAYER_7
 10
147.8618
 20
35.5806
  0
VERTEX
  8
LAYER_7
 10
147.9179
 20
35.634
  0
VERTEX
  8
LAYER_7
 10
147.9469
 20
35.7105
  0
VERTEX
  8
LAYER_7
 10
147.9551
 20
35.8001
  0
VERTEX
  8
LAYER_7
 10
147.9551
 20
36.527
  0
VERTEX
  8
LAYER_7
 10
148.0602
 20
36.527
  0
VERTEX
  8
LAYER_7
 10
148.0602
 20
35.7914
  0
VERTEX
  8
LAYER_7
 10
148.0488
 20
35.6836
 42
-0.0973714204
  0
VERTEX
  8
LAYER_7
 10
148.0075
 20
35.5785
 42
-0.1145812533
  0
VERTEX
  8
LAYER_7
 10
147.9228
 20
35.499
 42
-0.1249341208
  0
VERTEX
  8
LAYER_7
 10
147.7839
 20
35.4676
 42
-0.1793665557
  0
VERTEX
  8
LAYER_7
 10
147.5993
 20
35.5275
 42
-0.1772363953
  0
VERTEX
  8
LAYER_7
 10
147.5069
 20
35.6791
  0
SEQEND
  0
ENDBLK
  0
BLOCK
  8
LAYER_7
  2
AIGNBL07030011
 70
64
 10
0
 20
0
 30
0
  3
AIGNBL07030011
  0
POLYLINE
  8
LAYER_7
 40
0.05
 41
0.05
 66
1
 10
0
 20
0
 30
0
 70
1
  0
VERTEX
  8
LAYER_7
 10
149.5485
 20
36.0105
 42
-0.1018981745
  0
VERTEX
  8
LAYER_7
 10
149.5075
 20
35.7932
 42
-0.09989904409
  0
VERTEX
  8
LAYER_7
 10
149.3948
 20
35.6216
 42
-0.09646612644
  0
VERTEX
  8
LAYER_7
 10
149.224
 20
35.5086
 42
-0.09758594962
  0
VERTEX
  8
LAYER_7
 10
149.01
 20
35.4676
 42
-0.1000844711
  0
VERTEX
  8
LAYER_7
 10
148.7964
 20
35.5086
 42
-0.1001745602
  0
VERTEX
  8
LAYER_7
 10
148.6256
 20
35.6216
 42
-0.09735230618
  0
VERTEX
  8
LAYER_7
 10
148.5122
 20
35.7932
 42
-0.09653818401
  0
VERTEX
  8
LAYER_7
 10
148.4716
 20
36.0105
 42
-0.1004375928
  0
VERTEX
  8
LAYER_7
 10
148.5122
 20
36.2279
 42
-0.1001669327
  0
VERTEX
  8
LAYER_7
 10
148.6256
 20
36.3995
 42
-0.09887793382
  0
VERTEX
  8
LAYER_7
 10
148.7964
 20
36.5125
 42
-0.09768823248
  0
VERTEX
  8
LAYER_7
 10
149.01
 20
36.5535
 42
-0.1000514256
  0
VERTEX
  8
LAYER_7
 10
149.224
 20
36.5125
 42
-0.09863053528
  0
VERTEX
  8
LAYER_7
 10
149.3948
 20
36.3995
 42
-0.09788057185
  0
VERTEX
  8
LAYER_7
 10
149.5075
 20
36.2279
 42
-0.09782801819
  0
SEQEND
  0
POLYLINE
  8
LAYER_7
 40
0.05
 41
0.05
 66
1
 10
0
 20
0
 30
0
 70
1
  0
VERTEX
  8
LAYER_7
 10
149.4376
 20
36.0099
 42
0.08634913196
  0
VERTEX
  8
LAYER_7
 10
149.4086
 20
36.1818
 42
0.09604960092
  0
VERTEX
  8
LAYER_7
 10
149.3239
 20
36.3251
 42
0.1032857511
  0
VERTEX
  8
LAYER_7
 10
149.1888
 20
36.4233
 42
0.1061320656
  0
VERTEX
  8
LAYER_7
 10
149.01
 20
36.4601
 42
0.1113757871
  0
VERTEX
  8
LAYER_7
 10
148.8312
 20
36.4233
 42
0.1056595975
  0
VERTEX
  8
LAYER_7
 10
148.6965
 20
36.3251
 42
0.09779852908
  0
VERTEX
  8
LAYER_7
 10
148.6118
 20
36.1818
 42
0.08491464556
  0
VERTEX
  8
LAYER_7
 10
148.5825
 20
36.0099
 42
0.08693146424
  0
VERTEX
  8
LAYER_7
 10
148.6118
 20
35.838
 42
0.1009797617
  0
VERTEX
  8
LAYER_7
 10
148.6965
 20
35.695
 42
0.09978391674
  0
VERTEX
  8
LAYER_7
 10
148.8312
 20
35.5975
 42
0.1060640085
  0
VERTEX
  8
LAYER_7
 10
149.01
 20
35.561
 42
0.1126980581
  0
VERTEX
  8
LAYER_7
 10
149.1888
 20
35.5975
 42
0.1036982708
  0
VERTEX
  8
LAYER_7
 10
149.3239
 20
35.695
 42
0.09370250368
  0
VERTEX
  8
LAYER_7
 10
149.4086
 20
35.838
 42
0.08466662837
  0
SEQEND
  0
ENDBLK
  0
BLOCK
  8
LAYER_7
  2
AIGNBL07030012
 70
64
 10
0
 20
0
 30
0
  3
AIGNBL07030012
  0
POLYLINE
  8
LAYER_7
 40
0.05
 41
0.05
 66
1
 10
0
 20
0
 30
0
 70
1
  0
VERTEX
  8
LAYER_7
 10
150.3233
 20
35.4938
  0
VERTEX
  8
LAYER_7
 10
150.2186
 20
35.4938
  0
VERTEX
  8
LAYER_7
 10
150.2186
 20
35.9392
  0
VERTEX
  8
LAYER_7
 10
149.8317
 20
36.527
  0
VERTEX
  8
LAYER_7
 10
149.9629
 20
36.527
  0
VERTEX
  8
LAYER_7
 10
150.274
 20
36.0267
  0
VERTEX
  8
LAYER_7
 10
150.5875
 20
36.527
  0
VERTEX
  8
LAYER_7
 10
150.7098
 20
36.527
  0
VERTEX
  8
LAYER_7
 10
150.3233
 20
35.9392
  0
SEQEND
  0
ENDBLK
  0
BLOCK
  8
LAYER_7
  2
AIGNBL07030013
 70
64
 10
0
 20
0
 30
0
  3
AIGNBL07030013
  0
POLYLINE
  8
LAYER_7
 40
0.05
 41
0.05
 66
1
 10
0
 20
0
 30
0
 70
1
  0
VERTEX
  8
LAYER_7
 10
151.6149
 20
36.527
  0
VERTEX
  8
LAYER_7
 10
151.9225
 20
36.527
  0
VERTEX
  8
LAYER_7
 10
152.041
 20
36.5146
  0
VERTEX
  8
LAYER_7
 10
152.1478
 20
36.4722
 42
-0.1162050551
  0
VERTEX
  8
LAYER_7
 10
152.2257
 20
36.3912
 42
-0.1230288266
  0
VERTEX
  8
LAYER_7
 10
152.2553
 20
36.2631
 42
-0.1795449175
  0
VERTEX
  8
LAYER_7
 10
152.2054
 20
36.1208
 42
-0.1698846052
  0
VERTEX
  8
LAYER_7
 10
152.072
 20
36.0412
  0
VERTEX
  8
LAYER_7
 10
152.072
 20
36.0385
 42
-0.1715805568
  0
VERTEX
  8
LAYER_7
 10
152.2388
 20
35.9603
 42
-0.2018462152
  0
VERTEX
  8
LAYER_7
 10
152.3049
 20
35.7797
 42
-0.1251382371
  0
VERTEX
  8
LAYER_7
 10
152.2777
 20
35.6626
 42
-0.1153486961
  0
VERTEX
  8
LAYER_7
 10
152.2016
 20
35.572
 42
-0.08670064478
  0
VERTEX
  8
LAYER_7
 10
152.0806
 20
35.5145
 42
-0.06562325637
  0
VERTEX
  8
LAYER_7
 10
151.9208
 20
35.4938
  0
VERTEX
  8
LAYER_7
 10
151.6149
 20
35.4938
  0
SEQEND
  0
POLYLINE
  8
LAYER_7
 40
0.05
 41
0.05
 66
1
 10
0
 20
0
 30
0
 70
1
  0
VERTEX
  8
LAYER_7
 10
151.7199
 20
36.0746
  0
VERTEX
  8
LAYER_7
 10
151.9315
 20
36.0746
  0
VERTEX
  8
LAYER_7
 10
152.0083
 20
36.0836
  0
VERTEX
  8
LAYER_7
 10
152.0786
 20
36.1132
  0
VERTEX
  8
LAYER_7
 10
152.1306
 20
36.1697
 42
0.1158505205
  0
VERTEX
  8
LAYER_7
 10
152.1502
 20
36.2558
  0
VERTEX
  8
LAYER_7
 10
152.1306
 20
36.3396
  0
VERTEX
  8
LAYER_7
 10
152.0775
 20
36.3957
  0
VERTEX
  8
LAYER_7
 10
151.9986
 20
36.4271
  0
VERTEX
  8
LAYER_7
 10
151.9022
 20
36.4367
  0
VERTEX
  8
LAYER_7
 10
151.7199
 20
36.4367
  0
SEQEND
  0
POLYLINE
  8
LAYER_7
 40
0.05
 41
0.05
 66
1
 10
0
 20
0
 30
0
 70
1
  0
VERTEX
  8
LAYER_7
 10
151.7199
 20
35.5844
  0
VERTEX
  8
LAYER_7
 10
151.9156
 20
35.5844
  0
VERTEX
  8
LAYER_7
 10
152.0241
 20
35.5954
  0
VERTEX
  8
LAYER_7
 10
152.1147
 20
35.6302
 42
0.1176672551
  0
VERTEX
  8
LAYER_7
 10
152.1764
 20
35.6933
 42
0.1285708459
  0
VERTEX
  8
LAYER_7
 10
152.1998
 20
35.7859
 42
0.2499806784
  0
VERTEX
  8
LAYER_7
 10
152.1306
 20
35.9382
 42
0.1538083763
  0
VERTEX
  8
LAYER_7
 10
151.9346
 20
35.9885
  0
VERTEX
  8
LAYER_7
 10
151.7199
 20
35.9885
  0
SEQEND
  0
ENDBLK
  0
BLOCK
  8
LAYER_7
  2
AIGNBL07030014
 70
64
 10
0
 20
0
 30
0
  3
AIGNBL07030014
  0
POLYLINE
  8
LAYER_7
 40
0.05
 41
0.05
 66
1
 10
0
 20
0
 30
0
 70
1
  0
VERTEX
  8
LAYER_7
 10
152.7369
 20
35.4938
  0
VERTEX
  8
LAYER_7
 10
152.6215
 20
35.4938
  0
VERTEX
  8
LAYER_7
 10
153.0683
 20
36.527
  0
VERTEX
  8
LAYER_7
 10
153.1707
 20
36.527
  0
VERTEX
  8
LAYER_7
 10
153.6141
 20
35.4938
  0
VERTEX
  8
LAYER_7
 10
153.4973
 20
35.4938
  0
VERTEX
  8
LAYER_7
 10
153.3832
 20
35.7653
  0
VERTEX
  8
LAYER_7
 10
152.8492
 20
35.7653
  0
SEQEND
  0
POLYLINE
  8
LAYER_7
 40
0.05
 41
0.05
 66
1
 10
0
 20
0
 30
0
 70
1
  0
VERTEX
  8
LAYER_7
 10
152.8885
 20
35.8617
  0
VERTEX
  8
LAYER_7
 10
153.344
 20
35.8617
  0
VERTEX
  8
LAYER_7
 10
153.1162
 20
36.4105
  0
SEQEND
  0
ENDBLK
  0
BLOCK
  8
LAYER_7
  2
AIGNBL07030015
 70
64
 10
0
 20
0
 30
0
  3
AIGNBL07030015
  0
POLYLINE
  8
LAYER_7
 40
0.05
 41
0.05
 66
1
 10
0
 20
0
 30
0
 70
1
  0
VERTEX
  8
LAYER_7
 10
154.2986
 20
35.4938
  0
VERTEX
  8
LAYER_7
 10
154.1935
 20
35.4938
  0
VERTEX
  8
LAYER_7
 10
154.1935
 20
36.4336
  0
VERTEX
  8
LAYER_7
 10
153.8473
 20
36.4336
  0
VERTEX
  8
LAYER_7
 10
153.8473
 20
36.527
  0
VERTEX
  8
LAYER_7
 10
154.6441
 20
36.527
  0
VERTEX
  8
LAYER_7
 10
154.6441
 20
36.4336
  0
VERTEX
  8
LAYER_7
 10
154.2986
 20
36.4336
  0
SEQEND
  0
ENDBLK
  0
BLOCK
  8
LAYER_7
  2
AIGNBL07030016
 70
64
 10
0
 20
0
 30
0
  3
AIGNBL07030016
  0
POLYLINE
  8
LAYER_7
 40
0.05
 41
0.05
 66
1
 10
0
 20
0
 30
0
 70
1
  0
VERTEX
  8
LAYER_7
 10
155.0004
 20
36.527
  0
VERTEX
  8
LAYER_7
 10
155.1051
 20
36.527
  0
VERTEX
  8
LAYER_7
 10
155.1051
 20
36.0791
  0
VERTEX
  8
LAYER_7
 10
155.6687
 20
36.0791
  0
VERTEX
  8
LAYER_7
 10
155.6687
 20
36.527
  0
VERTEX
  8
LAYER_7
 10
155.7738
 20
36.527
  0
VERTEX
  8
LAYER_7
 10
155.7738
 20
35.4938
  0
VERTEX
  8
LAYER_7
 10
155.6687
 20
35.4938
  0
VERTEX
  8
LAYER_7
 10
155.6687
 20
35.983
  0
VERTEX
  8
LAYER_7
 10
155.1051
 20
35.983
  0
VERTEX
  8
LAYER_7
 10
155.1051
 20
35.4938
  0
VERTEX
  8
LAYER_7
 10
155.0004
 20
35.4938
  0
SEQEND
  0
ENDBLK
  0
BLOCK
  8
LAYER_7
  2
AIGNBL07030017
 70
64
 10
0
 20
0
 30
0
  3
AIGNBL07030017
  0
POLYLINE
  8
LAYER_7
 40
0.05
 41
0.05
 66
1
 10
0
 20
0
 30
0
 70
1
  0
VERTEX
  8
LAYER_7
 10
156.3543
 20
35.4938
  0
VERTEX
  8
LAYER_7
 10
156.2492
 20
35.4938
  0
VERTEX
  8
LAYER_7
 10
156.2492
 20
36.527
  0
VERTEX
  8
LAYER_7
 10
156.5531
 20
36.527
  0
VERTEX
  8
LAYER_7
 10
156.6936
 20
36.5125
 42
-0.1032885834
  0
VERTEX
  8
LAYER_7
 10
156.8063
 20
36.465
 42
-0.1281738609
  0
VERTEX
  8
LAYER_7
 10
156.8797
 20
36.3795
 42
-0.1078860225
  0
VERTEX
  8
LAYER_7
 10
156.9058
 20
36.2514
  0
VERTEX
  8
LAYER_7
 10
156.8859
 20
36.1477
  0
VERTEX
  8
LAYER_7
 10
156.8304
 20
36.0667
  0
VERTEX
  8
LAYER_7
 10
156.747
 20
36.0119
  0
VERTEX
  8
LAYER_7
 10
156.6419
 20
35.9857
  0
VERTEX
  8
LAYER_7
 10
156.9441
 20
35.4938
  0
VERTEX
  8
LAYER_7
 10
156.8156
 20
35.4938
  0
VERTEX
  8
LAYER_7
 10
156.5296
 20
35.9768
  0
VERTEX
  8
LAYER_7
 10
156.3543
 20
35.9768
  0
SEQEND
  0
POLYLINE
  8
LAYER_7
 40
0.05
 41
0.05
 66
1
 10
0
 20
0
 30
0
 70
1
  0
VERTEX
  8
LAYER_7
 10
156.3543
 20
36.0674
  0
VERTEX
  8
LAYER_7
 10
156.5369
 20
36.0674
 42
0.153451873
  0
VERTEX
  8
LAYER_7
 10
156.7326
 20
36.1132
 42
0.2582370741
  0
VERTEX
  8
LAYER_7
 10
156.8011
 20
36.2514
  0
VERTEX
  8
LAYER_7
 10
156.7818
 20
36.3371
  0
VERTEX
  8
LAYER_7
 10
156.7295
 20
36.3943
  0
VERTEX
  8
LAYER_7
 10
156.6478
 20
36.4264
  0
VERTEX
  8
LAYER_7
 10
156.5413
 20
36.4367
  0
VERTEX
  8
LAYER_7
 10
156.3543
 20
36.4367
  0
SEQEND
  0
ENDBLK
  0
BLOCK
  8
LAYER_7
  2
AIGNBL07030018
 70
64
 10
0
 20
0
 30
0
  3
AIGNBL07030018
  0
POLYLINE
  8
LAYER_7
 40
0.05
 41
0.05
 66
1
 10
0
 20
0
 30
0
 70
1
  0
VERTEX
  8
LAYER_7
 10
158.3462
 20
36.0105
 42
-0.0990121157
  0
VERTEX
  8
LAYER_7
 10
158.3056
 20
35.7932
 42
-0.1001669327
  0
VERTEX
  8
LAYER_7
 10
158.1922
 20
35.6216
 42
-0.09841590082
  0
VERTEX
  8
LAYER_7
 10
158.0217
 20
35.5086
 42
-0.09758412454
  0
VERTEX
  8
LAYER_7
 10
157.8078
 20
35.4676
 42
-0.1000514256
  0
VERTEX
  8
LAYER_7
 10
157.5938
 20
35.5086
 42
-0.09953435427
  0
VERTEX
  8
LAYER_7
 10
157.4233
 20
35.6216
 42
-0.09864299929
  0
VERTEX
  8
LAYER_7
 10
157.3103
 20
35.7932
 42
-0.09661555595
  0
VERTEX
  8
LAYER_7
 10
157.2696
 20
36.0105
 42
-0.1003474521
  0
VERTEX
  8
LAYER_7
 10
157.3103
 20
36.2279
 42
-0.1008040346
  0
VERTEX
  8
LAYER_7
 10
157.4233
 20
36.3995
 42
-0.09763764092
  0
VERTEX
  8
LAYER_7
 10
157.5938
 20
36.5125
 42
-0.09758594962
  0
VERTEX
  8
LAYER_7
 10
157.8078
 20
36.5535
 42
-0.1000174927
  0
VERTEX
  8
LAYER_7
 10
158.0217
 20
36.5125
 42
-0.1009762109
  0
VERTEX
  8
LAYER_7
 10
158.1922
 20
36.3995
 42
-0.09735230618
  0
VERTEX
  8
LAYER_7
 10
158.3056
 20
36.2279
 42
-0.09580310347
  0
SEQEND
  0
POLYLINE
  8
LAYER_7
 40
0.05
 41
0.05
 66
1
 10
0
 20
0
 30
0
 70
1
  0
VERTEX
  8
LAYER_7
 10
158.2353
 20
36.0099
 42
0.08852014676
  0
VERTEX
  8
LAYER_7
 10
158.206
 20
36.1818
 42
0.09930554302
  0
VERTEX
  8
LAYER_7
 10
158.1213
 20
36.3251
 42
0.1024799068
  0
VERTEX
  8
LAYER_7
 10
157.9866
 20
36.4233
 42
0.1060321998
  0
VERTEX
  8
LAYER_7
 10
157.8078
 20
36.4601
 42
0.1116325688
  0
VERTEX
  8
LAYER_7
 10
157.629
 20
36.4233
 42
0.1060506217
  0
VERTEX
  8
LAYER_7
 10
157.4939
 20
36.3251
 42
0.09518452249
  0
VERTEX
  8
LAYER_7
 10
157.4092
 20
36.1818
 42
0.08440311357
  0
VERTEX
  8
LAYER_7
 10
157.3802
 20
36.0099
 42
0.08751084222
  0
VERTEX
  8
LAYER_7
 10
157.4092
 20
35.838
 42
0.09826867926
  0
VERTEX
  8
LAYER_7
 10
157.4939
 20
35.695
 42
0.09965756504
  0
VERTEX
  8
LAYER_7
 10
157.629
 20
35.5975
 42
0.1061654103
  0
VERTEX
  8
LAYER_7
 10
157.8078
 20
35.561
 42
0.1124388132
  0
VERTEX
  8
LAYER_7
 10
157.9866
 20
35.5975
 42
0.1029122982
  0
VERTEX
  8
LAYER_7
 10
158.1213
 20
35.695
 42
0.09882210045
  0
VERTEX
  8
LAYER_7
 10
158.206
 20
35.838
 42
0.08589740831
  0
SEQEND
  0
ENDBLK
  0
BLOCK
  8
LAYER_7
  2
AIGNBL07030019
 70
64
 10
0
 20
0
 30
0
  3
AIGNBL07030019
  0
POLYLINE
  8
LAYER_7
 40
0.05
 41
0.05
 66
1
 10
0
 20
0
 30
0
 70
1
  0
VERTEX
  8
LAYER_7
 10
159.788
 20
36.0105
 42
-0.1018981745
  0
VERTEX
  8
LAYER_7
 10
159.747
 20
35.7932
 42
-0.09962254273
  0
VERTEX
  8
LAYER_7
 10
159.6344
 20
35.6216
 42
-0.09685913213
  0
VERTEX
  8
LAYER_7
 10
159.4635
 20
35.5086
 42
-0.09758594962
  0
VERTEX
  8
LAYER_7
 10
159.2495
 20
35.4676
 42
-0.1004711726
  0
VERTEX
  8
LAYER_7
 10
159.0359
 20
35.5086
 42
-0.1010734367
  0
VERTEX
  8
LAYER_7
 10
158.8651
 20
35.6216
 42
-0.09735230618
  0
VERTEX
  8
LAYER_7
 10
158.7517
 20
35.7932
 42
-0.09653818401
  0
VERTEX
  8
LAYER_7
 10
158.7111
 20
36.0105
 42
-0.1004375928
  0
VERTEX
  8
LAYER_7
 10
158.7517
 20
36.2279
 42
-0.1001669327
  0
VERTEX
  8
LAYER_7
 10
158.8651
 20
36.3995
 42
-0.09871200056
  0
VERTEX
  8
LAYER_7
 10
159.0359
 20
36.5125
 42
-0.09783271016
  0
VERTEX
  8
LAYER_7
 10
159.2495
 20
36.5535
 42
-0.1000514256
  0
VERTEX
  8
LAYER_7
 10
159.4635
 20
36.5125
 42
-0.0983303992
  0
VERTEX
  8
LAYER_7
 10
159.6344
 20
36.3995
 42
-0.09762598086
  0
VERTEX
  8
LAYER_7
 10
159.747
 20
36.2279
 42
-0.09782801819
  0
SEQEND
  0
POLYLINE
  8
LAYER_7
 40
0.05
 41
0.05
 66
1
 10
0
 20
0
 30
0
 70
1
  0
VERTEX
  8
LAYER_7
 10
159.6771
 20
36.0099
 42
0.08634913196
  0
VERTEX
  8
LAYER_7
 10
159.6481
 20
36.1818
 42
0.09618370267
  0
VERTEX
  8
LAYER_7
 10
159.5634
 20
36.3251
 42
0.1032857511
  0
VERTEX
  8
LAYER_7
 10
159.4283
 20
36.4233
 42
0.1061320656
  0
VERTEX
  8
LAYER_7
 10
159.2495
 20
36.4601
 42
0.1113757871
  0
VERTEX
  8
LAYER_7
 10
159.0707
 20
36.4233
 42
0.1056595975
  0
VERTEX
  8
LAYER_7
 10
158.936
 20
36.3251
 42
0.09779852908
  0
VERTEX
  8
LAYER_7
 10
158.8513
 20
36.1818
 42
0.08491464556
  0
VERTEX
  8
LAYER_7
 10
158.822
 20
36.0099
 42
0.08693146424
  0
VERTEX
  8
LAYER_7
 10
158.8513
 20
35.838
 42
0.1009797617
  0
VERTEX
  8
LAYER_7
 10
158.936
 20
35.695
 42
0.09978391674
  0
VERTEX
  8
LAYER_7
 10
159.0707
 20
35.5975
 42
0.1060640085
  0
VERTEX
  8
LAYER_7
 10
159.2495
 20
35.561
 42
0.1126980581
  0
VERTEX
  8
LAYER_7
 10
159.4283
 20
35.5975
 42
0.1036982708
  0
VERTEX
  8
LAYER_7
 10
159.5634
 20
35.695
 42
0.09432567525
  0
VERTEX
  8
LAYER_7
 10
159.6481
 20
35.838
 42
0.08466662837
  0
SEQEND
  0
ENDBLK
  0
BLOCK
  8
LAYER_7
  2
AIGNBL0703001A
 70
64
 10
0
 20
0
 30
0
  3
AIGNBL0703001A
  0
POLYLINE
  8
LAYER_7
 40
0.05
 41
0.05
 66
1
 10
0
 20
0
 30
0
 70
1
  0
VERTEX
  8
LAYER_7
 10
160.7189
 20
35.6719
  0
VERTEX
  8
LAYER_7
 10
160.7206
 20
35.6719
  0
VERTEX
  8
LAYER_7
 10
161.0661
 20
36.527
  0
VERTEX
  8
LAYER_7
 10
161.227
 20
36.527
  0
VERTEX
  8
LAYER_7
 10
161.227
 20
35.4938
  0
VERTEX
  8
LAYER_7
 10
161.1216
 20
35.4938
  0
VERTEX
  8
LAYER_7
 10
161.1216
 20
36.3912
  0
VERTEX
  8
LAYER_7
 10
161.1188
 20
36.3912
  0
VERTEX
  8
LAYER_7
 10
160.7454
 20
35.4938
  0
VERTEX
  8
LAYER_7
 10
160.6899
 20
35.4938
  0
VERTEX
  8
LAYER_7
 10
160.3161
 20
36.3912
  0
VERTEX
  8
LAYER_7
 10
160.3134
 20
36.3912
  0
VERTEX
  8
LAYER_7
 10
160.3134
 20
35.4938
  0
VERTEX
  8
LAYER_7
 10
160.2083
 20
35.4938
  0
VERTEX
  8
LAYER_7
 10
160.2083
 20
36.527
  0
VERTEX
  8
LAYER_7
 10
160.3689
 20
36.527
  0
SEQEND
  0
ENDBLK
  0
BLOCK
  8
LAYER_7
  2
AIGNBL0703001B
 70
64
 10
0
 20
0
 30
0
  3
AIGNBL0703001B
  0
POLYLINE
  8
LAYER_7
 40
0.05
 41
0.05
 66
1
 10
0
 20
0
 30
0
 70
1
  0
VERTEX
  8
LAYER_7
 10
162.3736
 20
35.5875
  0
VERTEX
  8
LAYER_7
 10
162.9268
 20
35.5875
  0
VERTEX
  8
LAYER_7
 10
162.9268
 20
35.4938
  0
VERTEX
  8
LAYER_7
 10
162.2685
 20
35.4938
  0
VERTEX
  8
LAYER_7
 10
162.2685
 20
36.527
  0
VERTEX
  8
LAYER_7
 10
162.9093
 20
36.527
  0
VERTEX
  8
LAYER_7
 10
162.9093
 20
36.4336
  0
VERTEX
  8
LAYER_7
 10
162.3736
 20
36.4336
  0
VERTEX
  8
LAYER_7
 10
162.3736
 20
36.0791
  0
VERTEX
  8
LAYER_7
 10
162.8741
 20
36.0791
  0
VERTEX
  8
LAYER_7
 10
162.8741
 20
35.9857
  0
VERTEX
  8
LAYER_7
 10
162.3736
 20
35.9857
  0
SEQEND
  0
ENDBLK
  0
BLOCK
  8
LAYER_7
  2
AIGNBL0703001C
 70
64
 10
0
 20
0
 30
0
  3
AIGNBL0703001C
  0
POLYLINE
  8
LAYER_7
 40
0.05
 41
0.05
 66
1
 10
0
 20
0
 30
0
 70
1
  0
VERTEX
  8
LAYER_7
 10
163.672
 20
36.1098
  0
VERTEX
  8
LAYER_7
 10
163.9542
 20
36.527
  0
VERTEX
  8
LAYER_7
 10
164.0792
 20
36.527
  0
VERTEX
  8
LAYER_7
 10
163.7368
 20
36.0354
  0
VERTEX
  8
LAYER_7
 10
164.1161
 20
35.4938
  0
VERTEX
  8
LAYER_7
 10
163.9848
 20
35.4938
  0
VERTEX
  8
LAYER_7
 10
163.6693
 20
35.9596
  0
VERTEX
  8
LAYER_7
 10
163.3557
 20
35.4938
  0
VERTEX
  8
LAYER_7
 10
163.2241
 20
35.4938
  0
VERTEX
  8
LAYER_7
 10
163.6038
 20
36.0367
  0
VERTEX
  8
LAYER_7
 10
163.2579
 20
36.527
  0
VERTEX
  8
LAYER_7
 10
163.3895
 20
36.527
  0
SEQEND
  0
ENDBLK
  0
BLOCK
  8
LAYER_7
  2
AIGNBL0703001D
 70
64
 10
0
 20
0
 30
0
  3
AIGNBL0703001D
  0
POLYLINE
  8
LAYER_7
 40
0.05
 41
0.05
 66
1
 10
0
 20
0
 30
0
 70
1
  0
VERTEX
  8
LAYER_7
 10
164.4823
 20
36.527
  0
VERTEX
  8
LAYER_7
 10
164.7744
 20
36.527
  0
VERTEX
  8
LAYER_7
 10
164.9174
 20
36.5104
 42
-0.1037085018
  0
VERTEX
  8
LAYER_7
 10
165.0273
 20
36.4591
 42
-0.1209616443
  0
VERTEX
  8
LAYER_7
 10
165.0983
 20
36.373
 42
-0.1032545831
  0
VERTEX
  8
LAYER_7
 10
165.1227
 20
36.2514
 42
-0.1239274235
  0
VERTEX
  8
LAYER_7
 10
165.0976
 20
36.1294
 42
-0.1163667494
  0
VERTEX
  8
LAYER_7
 10
165.0259
 20
36.0433
 42
-0.08726249905
  0
VERTEX
  8
LAYER_7
 10
164.915
 20
35.9916
 42
-0.06108707382
  0
VERTEX
  8
LAYER_7
 10
164.7713
 20
35.974
  0
VERTEX
  8
LAYER_7
 10
164.5874
 20
35.974
  0
VERTEX
  8
LAYER_7
 10
164.5874
 20
35.4938
  0
VERTEX
  8
LAYER_7
 10
164.4823
 20
35.4938
  0
SEQEND
  0
POLYLINE
  8
LAYER_7
 40
0.05
 41
0.05
 66
1
 10
0
 20
0
 30
0
 70
1
  0
VERTEX
  8
LAYER_7
 10
164.5874
 20
36.0629
  0
VERTEX
  8
LAYER_7
 10
164.7651
 20
36.0629
 42
0.1694225951
  0
VERTEX
  8
LAYER_7
 10
164.9536
 20
36.1111
 42
0.2440543167
  0
VERTEX
  8
LAYER_7
 10
165.018
 20
36.2514
 42
0.2590967024
  0
VERTEX
  8
LAYER_7
 10
164.9515
 20
36.3923
 42
0.143072224
  0
VERTEX
  8
LAYER_7
 10
164.7651
 20
36.4367
  0
VERTEX
  8
LAYER_7
 10
164.5874
 20
36.4367
  0
SEQEND
  0
ENDBLK
  0
BLOCK
  8
LAYER_7
  2
AIGNBL0703001E
 70
64
 10
0
 20
0
 30
0
  3
AIGNBL0703001E
  0
POLYLINE
  8
LAYER_7
 40
0.05
 41
0.05
 66
1
 10
0
 20
0
 30
0
 70
1
  0
VERTEX
  8
LAYER_7
 10
165.635
 20
35.5875
  0
VERTEX
  8
LAYER_7
 10
166.1883
 20
35.5875
  0
VERTEX
  8
LAYER_7
 10
166.1883
 20
35.4938
  0
VERTEX
  8
LAYER_7
 10
165.5299
 20
35.4938
  0
VERTEX
  8
LAYER_7
 10
165.5299
 20
36.527
  0
VERTEX
  8
LAYER_7
 10
166.1707
 20
36.527
  0
VERTEX
  8
LAYER_7
 10
166.1707
 20
36.4336
  0
VERTEX
  8
LAYER_7
 10
165.635
 20
36.4336
  0
VERTEX
  8
LAYER_7
 10
165.635
 20
36.0791
  0
VERTEX
  8
LAYER_7
 10
166.1356
 20
36.0791
  0
VERTEX
  8
LAYER_7
 10
166.1356
 20
35.9857
  0
VERTEX
  8
LAYER_7
 10
165.635
 20
35.9857
  0
SEQEND
  0
ENDBLK
  0
BLOCK
  8
LAYER_7
  2
AIGNBL0703001F
 70
64
 10
0
 20
0
 30
0
  3
AIGNBL0703001F
  0
POLYLINE
  8
LAYER_7
 40
0.05
 41
0.05
 66
1
 10
0
 20
0
 30
0
 70
1
  0
VERTEX
  8
LAYER_7
 10
166.7002
 20
35.4938
  0
VERTEX
  8
LAYER_7
 10
166.5952
 20
35.4938
  0
VERTEX
  8
LAYER_7
 10
166.5952
 20
36.527
  0
VERTEX
  8
LAYER_7
 10
166.899
 20
36.527
  0
VERTEX
  8
LAYER_7
 10
167.0396
 20
36.5125
 42
-0.1032605235
  0
VERTEX
  8
LAYER_7
 10
167.1522
 20
36.465
 42
-0.1261873385
  0
VERTEX
  8
LAYER_7
 10
167.226
 20
36.3795
 42
-0.1064650891
  0
VERTEX
  8
LAYER_7
 10
167.2518
 20
36.2514
  0
VERTEX
  8
LAYER_7
 10
167.2318
 20
36.1477
  0
VERTEX
  8
LAYER_7
 10
167.1764
 20
36.0667
  0
VERTEX
  8
LAYER_7
 10
167.093
 20
36.0119
  0
VERTEX
  8
LAYER_7
 10
166.9879
 20
35.9857
  0
VERTEX
  8
LAYER_7
 10
167.29
 20
35.4938
  0
VERTEX
  8
LAYER_7
 10
167.1615
 20
35.4938
  0
VERTEX
  8
LAYER_7
 10
166.8756
 20
35.9768
  0
VERTEX
  8
LAYER_7
 10
166.7002
 20
35.9768
  0
SEQEND
  0
POLYLINE
  8
LAYER_7
 40
0.05
 41
0.05
 66
1
 10
0
 20
0
 30
0
 70
1
  0
VERTEX
  8
LAYER_7
 10
166.7002
 20
36.0674
  0
VERTEX
  8
LAYER_7
 10
166.8828
 20
36.0674
 42
0.1542719415
  0
VERTEX
  8
LAYER_7
 10
167.0785
 20
36.1132
 42
0.2585867166
  0
VERTEX
  8
LAYER_7
 10
167.1471
 20
36.2514
  0
VERTEX
  8
LAYER_7
 10
167.1281
 20
36.3371
  0
VERTEX
  8
LAYER_7
 10
167.0754
 20
36.3943
  0
VERTEX
  8
LAYER_7
 10
166.9938
 20
36.4264
  0
VERTEX
  8
LAYER_7
 10
166.8873
 20
36.4367
  0
VERTEX
  8
LAYER_7
 10
166.7002
 20
36.4367
  0
SEQEND
  0
ENDBLK
  0
BLOCK
  8
LAYER_7
  2
AIGNBL07030020
 70
64
 10
0
 20
0
 30
0
  3
AIGNBL07030020
  0
POLYLINE
  8
LAYER_7
 40
0.05
 41
0.05
 66
1
 10
0
 20
0
 30
0
 70
1
  0
VERTEX
  8
LAYER_7
 10
167.7758
 20
35.4938
  0
VERTEX
  8
LAYER_7
 10
167.6711
 20
35.4938
  0
VERTEX
  8
LAYER_7
 10
167.6711
 20
36.527
  0
VERTEX
  8
LAYER_7
 10
167.7758
 20
36.527
  0
SEQEND
  0
ENDBLK
  0
BLOCK
  8
LAYER_7
  2
AIGNBL07030021
 70
64
 10
0
 20
0
 30
0
  3
AIGNBL07030021
  0
POLYLINE
  8
LAYER_7
 40
0.05
 41
0.05
 66
1
 10
0
 20
0
 30
0
 70
1
  0
VERTEX
  8
LAYER_7
 10
168.3566
 20
35.5875
  0
VERTEX
  8
LAYER_7
 10
168.9096
 20
35.5875
  0
VERTEX
  8
LAYER_7
 10
168.9096
 20
35.4938
  0
VERTEX
  8
LAYER_7
 10
168.2516
 20
35.4938
  0
VERTEX
  8
LAYER_7
 10
168.2516
 20
36.527
  0
VERTEX
  8
LAYER_7
 10
168.8924
 20
36.527
  0
VERTEX
  8
LAYER_7
 10
168.8924
 20
36.4336
  0
VERTEX
  8
LAYER_7
 10
168.3566
 20
36.4336
  0
VERTEX
  8
LAYER_7
 10
168.3566
 20
36.0791
  0
VERTEX
  8
LAYER_7
 10
168.8572
 20
36.0791
  0
VERTEX
  8
LAYER_7
 10
168.8572
 20
35.9857
  0
VERTEX
  8
LAYER_7
 10
168.3566
 20
35.9857
  0
SEQEND
  0
ENDBLK
  0
BLOCK
  8
LAYER_7
  2
AIGNBL07030022
 70
64
 10
0
 20
0
 30
0
  3
AIGNBL07030022
  0
POLYLINE
  8
LAYER_7
 40
0.05
 41
0.05
 66
1
 10
0
 20
0
 30
0
 70
1
  0
VERTEX
  8
LAYER_7
 10
170.0496
 20
35.6471
  0
VERTEX
  8
LAYER_7
 10
170.0523
 20
35.6471
  0
VERTEX
  8
LAYER_7
 10
170.0523
 20
36.527
  0
VERTEX
  8
LAYER_7
 10
170.1574
 20
36.527
  0
VERTEX
  8
LAYER_7
 10
170.1574
 20
35.4938
  0
VERTEX
  8
LAYER_7
 10
170.0261
 20
35.4938
  0
VERTEX
  8
LAYER_7
 10
169.425
 20
36.3826
  0
VERTEX
  8
LAYER_7
 10
169.4219
 20
36.3826
  0
VERTEX
  8
LAYER_7
 10
169.4219
 20
35.4938
  0
VERTEX
  8
LAYER_7
 10
169.3168
 20
35.4938
  0
VERTEX
  8
LAYER_7
 10
169.3168
 20
36.527
  0
VERTEX
  8
LAYER_7
 10
169.4484
 20
36.527
  0
SEQEND
  0
ENDBLK
  0
BLOCK
  8
LAYER_7
  2
AIGNBL07030023
 70
64
 10
0
 20
0
 30
0
  3
AIGNBL07030023
  0
POLYLINE
  8
LAYER_7
 40
0.05
 41
0.05
 66
1
 10
0
 20
0
 30
0
 70
1
  0
VERTEX
  8
LAYER_7
 10
171.5031
 20
35.6616
  0
VERTEX
  8
LAYER_7
 10
171.4393
 20
35.5871
  0
VERTEX
  8
LAYER_7
 10
171.3532
 20
35.5255
  0
VERTEX
  8
LAYER_7
 10
171.245
 20
35.4831
  0
VERTEX
  8
LAYER_7
 10
171.1162
 20
35.4676
 42
-0.0997799169
  0
VERTEX
  8
LAYER_7
 10
170.9002
 20
35.5086
 42
-0.102530266
  0
VERTEX
  8
LAYER_7
 10
170.7296
 20
35.6216
 42
-0.1002809693
  0
VERTEX
  8
LAYER_7
 10
170.618
 20
35.7932
 42
-0.09630573255
  0
VERTEX
  8
LAYER_7
 10
170.5777
 20
36.0105
 42
-0.1019307793
  0
VERTEX
  8
LAYER_7
 10
170.6187
 20
36.2279
 42
-0.09989904409
  0
VERTEX
  8
LAYER_7
 10
170.7314
 20
36.3995
 42
-0.09705342834
  0
VERTEX
  8
LAYER_7
 10
170.9022
 20
36.5125
 42
-0.09758594962
  0
VERTEX
  8
LAYER_7
 10
171.1162
 20
36.5535
  0
VERTEX
  8
LAYER_7
 10
171.2278
 20
36.5414
  0
VERTEX
  8
LAYER_7
 10
171.3308
 20
36.508
  0
VERTEX
  8
LAYER_7
 10
171.4183
 20
36.4563
  0
VERTEX
  8
LAYER_7
 10
171.4841
 20
36.3885
  0
VERTEX
  8
LAYER_7
 10
171.3966
 20
36.3241
  0
VERTEX
  8
LAYER_7
 10
171.3532
 20
36.374
  0
VERTEX
  8
LAYER_7
 10
171.2898
 20
36.4178
  0
VERTEX
  8
LAYER_7
 10
171.2102
 20
36.4484
  0
VERTEX
  8
LAYER_7
 10
171.1175
 20
36.4601
 42
0.1105616416
  0
VERTEX
  8
LAYER_7
 10
170.9374
 20
36.4236
 42
0.1040964846
  0
VERTEX
  8
LAYER_7
 10
170.8023
 20
36.3254
 42
0.09526104957
  0
VERTEX
  8
LAYER_7
 10
170.7176
 20
36.1821
 42
0.08463477044
  0
VERTEX
  8
LAYER_7
 10
170.6886
 20
36.0105
 42
0.0901389548
  0
VERTEX
  8
LAYER_7
 10
170.7186
 20
35.839
 42
0.09809985975
  0
VERTEX
  8
LAYER_7
 10
170.804
 20
35.6957
 42
0.1034747097
  0
VERTEX
  8
LAYER_7
 10
170.9391
 20
35.5975
 42
0.106480313
  0
VERTEX
  8
LAYER_7
 10
171.1175
 20
35.561
 42
0.1093022582
  0
VERTEX
  8
LAYER_7
 10
171.2867
 20
35.5975
 42
0.1370031249
  0
VERTEX
  8
LAYER_7
 10
171.4211
 20
35.7143
  0
SEQEND
  0
ENDBLK
  0
BLOCK
  8
LAYER_7
  2
AIGNBL07030024
 70
64
 10
0
 20
0
 30
0
  3
AIGNBL07030024
  0
POLYLINE
  8
LAYER_7
 40
0.05
 41
0.05
 66
1
 10
0
 20
0
 30
0
 70
1
  0
VERTEX
  8
LAYER_7
 10
171.9902
 20
35.5875
  0
VERTEX
  8
LAYER_7
 10
172.5435
 20
35.5875
  0
VERTEX
  8
LAYER_7
 10
172.5435
 20
35.4938
  0
VERTEX
  8
LAYER_7
 10
171.8851
 20
35.4938
  0
VERTEX
  8
LAYER_7
 10
171.8851
 20
36.527
  0
VERTEX
  8
LAYER_7
 10
172.5259
 20
36.527
  0
VERTEX
  8
LAYER_7
 10
172.5259
 20
36.4336
  0
VERTEX
  8
LAYER_7
 10
171.9902
 20
36.4336
  0
VERTEX
  8
LAYER_7
 10
171.9902
 20
36.0791
  0
VERTEX
  8
LAYER_7
 10
172.4908
 20
36.0791
  0
VERTEX
  8
LAYER_7
 10
172.4908
 20
35.9857
  0
VERTEX
  8
LAYER_7
 10
171.9902
 20
35.9857
  0
SEQEND
  0
ENDBLK
  0
BLOCK
  8
LAYER_7
  2
AIGNBL07020004
 70
64
 10
0
 20
0
 30
0
  3
AIGNBL07020004
  0
INSERT
  8
LAYER_7
  2
AIGNBL07030005
 10
0
 20
0
 30
0
  0
ENDBLK
  0
BLOCK
  8
LAYER_7
  2
AIGNBL0702000D
 70
64
 10
0
 20
0
 30
0
  3
AIGNBL0702000D
  0
INSERT
  8
LAYER_7
  2
AIGNBL0703000E
 10
0
 20
0
 30
0
  0
INSERT
  8
LAYER_7
  2
AIGNBL0703000F
 10
0
 20
0
 30
0
  0
INSERT
  8
LAYER_7
  2
AIGNBL07030010
 10
0
 20
0
 30
0
  0
INSERT
  8
LAYER_7
  2
AIGNBL07030011
 10
0
 20
0
 30
0
  0
INSERT
  8
LAYER_7
  2
AIGNBL07030012
 10
0
 20
0
 30
0
  0
INSERT
  8
LAYER_7
  2
AIGNBL07030013
 10
0
 20
0
 30
0
  0
INSERT
  8
LAYER_7
  2
AIGNBL07030014
 10
0
 20
0
 30
0
  0
INSERT
  8
LAYER_7
  2
AIGNBL07030015
 10
0
 20
0
 30
0
  0
INSERT
  8
LAYER_7
  2
AIGNBL07030016
 10
0
 20
0
 30
0
  0
INSERT
  8
LAYER_7
  2
AIGNBL07030017
 10
0
 20
0
 30
0
  0
INSERT
  8
LAYER_7
  2
AIGNBL07030018
 10
0
 20
0
 30
0
  0
INSERT
  8
LAYER_7
  2
AIGNBL07030019
 10
0
 20
0
 30
0
  0
INSERT
  8
LAYER_7
  2
AIGNBL0703001A
 10
0
 20
0
 30
0
  0
INSERT
  8
LAYER_7
  2
AIGNBL0703001B
 10
0
 20
0
 30
0
  0
INSERT
  8
LAYER_7
  2
AIGNBL0703001C
 10
0
 20
0
 30
0
  0
INSERT
  8
LAYER_7
  2
AIGNBL0703001D
 10
0
 20
0
 30
0
  0
INSERT
  8
LAYER_7
  2
AIGNBL0703001E
 10
0
 20
0
 30
0
  0
INSERT
  8
LAYER_7
  2
AIGNBL0703001F
 10
0
 20
0
 30
0
  0
INSERT
  8
LAYER_7
  2
AIGNBL07030020
 10
0
 20
0
 30
0
  0
INSERT
  8
LAYER_7
  2
AIGNBL07030021
 10
0
 20
0
 30
0
  0
INSERT
  8
LAYER_7
  2
AIGNBL07030022
 10
0
 20
0
 30
0
  0
INSERT
  8
LAYER_7
  2
AIGNBL07030023
 10
0
 20
0
 30
0
  0
INSERT
  8
LAYER_7
  2
AIGNBL07030024
 10
0
 20
0
 30
0
  0
ENDBLK
  0
BLOCK
  8
LAYER_7
  2
AIGNBL07020028
 70
64
 10
0
 20
0
 30
0
  3
AIGNBL07020028
  0
POLYLINE
  8
LAYER_7
 40
0.05
 41
0.05
 66
1
 10
0
 20
0
 30
0
 70
1
  0
VERTEX
  8
LAYER_7
 10
-21.7921
 20
223.0007
  0
VERTEX
  8
LAYER_7
 10
-20.6339
 20
223.0007
  0
VERTEX
  8
LAYER_7
 10
-18.3264
 20
217.0007
  0
VERTEX
  8
LAYER_7
 10
-19.5135
 20
217.0007
  0
VERTEX
  8
LAYER_7
 10
-19.9828
 20
218.2365
  0
VERTEX
  8
LAYER_7
 10
-22.4315
 20
218.2365
  0
VERTEX
  8
LAYER_7
 10
-22.9194
 20
217.0007
  0
VERTEX
  8
LAYER_7
 10
-24.1065
 20
217.0007
  0
SEQEND
  0
POLYLINE
  8
LAYER_7
 40
0.05
 41
0.05
 66
1
 10
0
 20
0
 30
0
 70
1
  0
VERTEX
  8
LAYER_7
 10
-21.2065
 20
221.4094
  0
VERTEX
  8
LAYER_7
 10
-22.0112
 20
219.3499
  0
VERTEX
  8
LAYER_7
 10
-20.4058
 20
219.3499
  0
SEQEND
  0
ENDBLK
  0
BLOCK
  8
LAYER_7
  2
AIGNBL07020029
 70
64
 10
0
 20
0
 30
0
  3
AIGNBL07020029
  0
POLYLINE
  8
LAYER_7
 40
0.05
 41
0.05
 66
1
 10
0
 20
0
 30
0
 70
1
  0
VERTEX
  8
LAYER_7
 10
-9.9307
 20
223.0007
  0
VERTEX
  8
LAYER_7
 10
-8.7724
 20
223.0007
  0
VERTEX
  8
LAYER_7
 10
-6.4656
 20
217.0007
  0
VERTEX
  8
LAYER_7
 10
-7.6521
 20
217.0007
  0
VERTEX
  8
LAYER_7
 10
-8.1213
 20
218.2365
  0
VERTEX
  8
LAYER_7
 10
-10.5694
 20
218.2365
  0
VERTEX
  8
LAYER_7
 10
-11.0579
 20
217.0007
  0
VERTEX
  8
LAYER_7
 10
-12.2451
 20
217.0007
  0
SEQEND
  0
POLYLINE
  8
LAYER_7
 40
0.05
 41
0.05
 66
1
 10
0
 20
0
 30
0
 70
1
  0
VERTEX
  8
LAYER_7
 10
-9.3443
 20
221.4094
  0
VERTEX
  8
LAYER_7
 10
-10.1491
 20
219.3499
  0
VERTEX
  8
LAYER_7
 10
-8.5444
 20
219.3499
  0
SEQEND
  0
ENDBLK
  0
BLOCK
  8
LAYER_7
  2
AIGNBL07010002
 70
64
 10
0
 20
0
 30
0
  3
AIGNBL07010002
  0
POLYLINE
  8
LAYER_7
 40
0.7056
 41
0.7056
 66
1
 10
0
 20
0
 30
0
 70
1
  0
VERTEX
  8
LAYER_7
 10
251.6749
 20
230.337
  0
VERTEX
  8
LAYER_7
 10
251.6749
 20
33.3285
  0
VERTEX
  8
LAYER_7
 10
-30.3177
 20
33.3285
  0
VERTEX
  8
LAYER_7
 10
-30.3177
 20
230.337
  0
SEQEND
  0
ENDBLK
  0
BLOCK
  8
LAYER_7
  2
AIGNBL07010003
 70
64
 10
0
 20
0
 30
0
  3
AIGNBL07010003
  0
INSERT
  8
LAYER_7
  2
AIGNBL07020004
 10
0
 20
0
 30
0
  0
INSERT
  8
LAYER_7
  2
AIGNBL0702000D
 10
0
 20
0
 30
0
  0
ENDBLK
  0
BLOCK
  8
LAYER_7
  2
AIGNBL07010025
 70
64
 10
0
 20
0
 30
0
  3
AIGNBL07010025
  0
CIRCLE
  8
LAYER_7
  6
AIGENLINE001
 62
1
 10
116.427
 20
157.0736
 40
18.0013
  0
ENDBLK
  0
BLOCK
  8
LAYER_7
  2
AIGNBL07010026
 70
64
 10
0
 20
0
 30
0
  3
AIGNBL07010026
  0
CIRCLE
  8
LAYER_7
  6
AIGENLINE002
 10
116.427
 20
157.0736
 40
14.0016
  0
ENDBLK
  0
BLOCK
  8
LAYER_7
  2
AIGNBL07010027
 70
64
 10
0
 20
0
 30
0
  3
AIGNBL07010027
  0
INSERT
  8
LAYER_7
  2
AIGNBL07020028
 10
0
 20
0
 30
0
  0
POLYLINE
  8
LAYER_7
 40
0.05
 41
0.05
 66
1
 10
0
 20
0
 30
0
 70
1
  0
VERTEX
  8
LAYER_7
 10
-17.8323
 20
223.0007
  0
VERTEX
  8
LAYER_7
 10
-16.548
 20
223.0007
  0
VERTEX
  8
LAYER_7
 10
-15.2871
 20
221.0742
  0
VERTEX
  8
LAYER_7
 10
-14.0234
 20
223.0007
  0
VERTEX
  8
LAYER_7
 10
-12.7398
 20
223.0007
  0
VERTEX
  8
LAYER_7
 10
-14.6436
 20
220.0913
  0
VERTEX
  8
LAYER_7
 10
-12.6199
 20
217.0007
  0
VERTEX
  8
LAYER_7
 10
-13.9049
 20
217.0007
  0
VERTEX
  8
LAYER_7
 10
-15.2864
 20
219.1105
  0
VERTEX
  8
LAYER_7
 10
-16.6658
 20
217.0007
  0
VERTEX
  8
LAYER_7
 10
-17.9591
 20
217.0007
  0
VERTEX
  8
LAYER_7
 10
-15.9299
 20
220.0937
  0
SEQEND
  0
INSERT
  8
LAYER_7
  2
AIGNBL07020029
 10
0
 20
0
 30
0
  0
ENDBLK
  0
ENDSEC
  0
SECTION
  2
ENTITIES
  0
TEXT
  8
LAYER_7
 10
-26.2556
 20
43.1712
 11
-26.2556
 21
43.1712
 40
3.2995
 41
0.5
  1
仕様
  0
POLYLINE
  8
LAYER_7
 40
0.3528
 41
0.3528
 66
1
 10
0
 20
0
 30
0
  0
VERTEX
  8
LAYER_7
 10
250.6748
 20
51.9507
  0
VERTEX
  8
LAYER_7
 10
-29.3178
 20
51.9507
  0
SEQEND
  0
INSERT
  8
LAYER_7
  2
AIGNBL07010002
 10
0
 20
0
 30
0
  0
POLYLINE
  8
LAYER_7
 40
0.3528
 41
0.3528
 66
1
 10
0
 20
0
 30
0
  0
VERTEX
  8
LAYER_7
 10
-29.3178
 20
229.3369
  0
VERTEX
  8
LAYER_7
 10
-29.3178
 20
34.3283
  0
VERTEX
  8
LAYER_7
 10
250.6748
 20
34.3283
  0
VERTEX
  8
LAYER_7
 10
250.6748
 20
229.3369
  0
VERTEX
  8
LAYER_7
 10
-29.3178
 20
229.3369
  0
SEQEND
  0
POLYLINE
  8
LAYER_7
 40
0.3528
 41
0.3528
 66
1
 10
0
 20
0
 30
0
  0
VERTEX
  8
LAYER_7
 10
250.6748
 20
60.4597
  0
VERTEX
  8
LAYER_7
 10
-29.3178
 20
60.4597
  0
SEQEND
  0
POLYLINE
  8
LAYER_7
 40
0.3528
 41
0.3528
 66
1
 10
0
 20
0
 30
0
  0
VERTEX
  8
LAYER_7
 10
250.6748
 20
43.4416
  0
VERTEX
  8
LAYER_7
 10
143.534
 20
43.4416
  0
SEQEND
  0
TEXT
  8
LAYER_7
 10
188.1725
 20
45.7175
 11
188.1725
 21
45.7175
 40
3.7615
 41
0.5
  1
-
  0
TEXT
  8
LAYER_7
 10
182.8808
 20
49.4743
 11
182.8808
 21
49.4743
 40
2.1997
 41
0.5
  1
縮尺
  0
POLYLINE
  8
LAYER_7
 40
0.3528
 41
0.3528
 66
1
 10
0
 20
0
 30
0
  0
VERTEX
  8
LAYER_7
 10
181.3526
 20
43.4416
  0
VERTEX
  8
LAYER_7
 10
181.3526
 20
51.9507
  0
SEQEND
  0
TEXT
  8
LAYER_7
 10
144.2327
 20
57.9834
 11
144.2327
 21
57.9834
 40
2.1997
 41
0.5
  1
品番
  0
TEXT
  8
LAYER_7
 10
-28.1609
 20
57.9834
 11
-28.1609
 21
57.9834
 40
2.1997
 41
0.5
  1
品名
  0
TEXT
  8
LAYER_7
 10
144.2327
 20
49.4743
 11
144.2327
 21
49.4743
 40
2.1997
 41
0.5
  1
重量
  0
TEXT
  8
LAYER_7
 10
150.2547
 20
54.1514
 11
150.2547
 21
54.1514
 40
5.9385
 41
0.5
  1
KERA-3132/
  0
TEXT
  8
LAYER_7
 10
149.5454
 20
45.7175
 11
149.5454
 21
45.7175
 40
3.7615
 41
0.5
  1
-
  0
POLYLINE
  8
LAYER_7
 40
0.3528
 41
0.3528
 66
1
 10
0
 20
0
 30
0
  0
VERTEX
  8
LAYER_7
 10
143.534
 20
34.9539
  0
VERTEX
  8
LAYER_7
 10
143.534
 20
60.4597
  0
SEQEND
  0
TEXT
  8
LAYER_7
 10
-15.2955
 20
54.8911
 11
-15.2955
 21
54.8911
 40
4.1465
 41
0.5
  1
スカイランド オーバーカウンター型洗面器 480mm
  0
TEXT
  8
LAYER_7
 10
-15.6835
 20
45.3736
 11
-15.6835
 21
45.3736
 40
3.1177
 41
0.5
  1
●設置方法：オーバーカウンター●l4栓取付zt：なし●オーバーフローなし
  0
TEXT
  8
LAYER_7
 10
-15.6835
 20
40.6235
 11
-15.6835
 21
40.6235
 40
3.1177
 41
0.5
  1
●排l4帯具別途●カウンター開口用テンプレート同梱
  0
TEXT
  8
LAYER_7
 10
237.263
 20
63.2582
 11
237.263
 21
63.2582
 40
2.9618
 41
0.5
  1
単位：mm
  0
TEXT
  8
LAYER_7
 10
12.1662
 20
220.7969
 11
12.1662
 21
220.7969
 40
2.5981
 41
0.5
  1
※陶器製品は寸法公差が発生します。施工の際は必ず現物を合わせてご確認ください。
  0
TEXT
  8
LAYER_7
 10
12.1662
 20
216.0469
 11
12.1662
 21
216.0469
 40
2.5981
 41
0.5
  1
※製品と接する部分には必ずコーキング処理を行ってください。
  0
TEXT
  8
LAYER_7
 10
240.3591
 20
225.8432
 11
240.3591
 21
225.8432
 40
2.0732
 41
0.5
  1
170616RT
  0
TEXT
  8
LAYER_7
 10
175.6089
 20
39.066
 11
175.6089
 21
39.066
 40
3.3853
 41
0.5
  1
●TEL 0120-65-1232●FAX 06-6532-1580
  0
TEXT
  8
LAYER_7
 10
175.6089
 20
35.5513
 11
175.6089
 21
35.5513
 40
3.3853
 41
0.5
  1
hits@hiratatile.co.jp
  0
INSERT
  8
LAYER_7
  2
AIGNBL07010003
 10
0
 20
0
 30
0
  0
POLYLINE
  8
LAYER_7
 40
0.1058
 41
0.1058
 66
1
 10
0
 20
0
 30
0
  0
VERTEX
  8
LAYER_7
 10
75.3243
 20
133.073
  0
VERTEX
  8
LAYER_7
 10
75.3243
 20
181.1486
  0
SEQEND
  0
POLYLINE
  8
LAYER_7
 40
0.1058
 41
0.1058
 66
1
 10
0
 20
0
 30
0
  0
VERTEX
  8
LAYER_7
 10
75.3243
 20
133.073
  0
VERTEX
  8
LAYER_7
 10
76.9297
 20
133.073
  0
SEQEND
  0
POLYLINE
  8
LAYER_7
 40
0.1058
 41
0.1058
 66
1
 10
0
 20
0
 30
0
  0
VERTEX
  8
LAYER_7
 10
75.3243
 20
181.1486
  0
VERTEX
  8
LAYER_7
 10
76.9297
 20
181.1486
  0
SEQEND
  0
POLYLINE
  8
LAYER_7
 40
0.1058
 41
0.1058
 66
1
 10
0
 20
0
 30
0
  0
VERTEX
  8
LAYER_7
 10
88.069
 20
157.0736
  0
VERTEX
  8
LAYER_7
 10
86.3906
 20
157.0736
  0
VERTEX
  8
LAYER_7
 10
86.3906
 20
181.1486
  0
SEQEND
  0
POLYLINE
  8
LAYER_7
 40
0.1058
 41
0.1058
 66
1
 10
0
 20
0
 30
0
  0
VERTEX
  8
LAYER_7
 10
131.9451
 20
112.9144
  0
VERTEX
  8
LAYER_7
 10
100.8627
 20
112.9144
  0
SEQEND
  0
POLYLINE
  8
LAYER_7
 40
0.1058
 41
0.1058
 66
1
 10
0
 20
0
 30
0
  0
VERTEX
  8
LAYER_7
 10
100.9124
 20
112.9144
  0
VERTEX
  8
LAYER_7
 10
100.9124
 20
111.309
  0
SEQEND
  0
POLYLINE
  8
LAYER_7
 40
0.1058
 41
0.1058
 66
1
 10
0
 20
0
 30
0
  0
VERTEX
  8
LAYER_7
 10
88.0146
 20
106.9523
  0
VERTEX
  8
LAYER_7
 10
88.0146
 20
88.3336
  0
SEQEND
  0
POLYLINE
  8
LAYER_7
 40
0.1058
 41
0.1058
 66
1
 10
0
 20
0
 30
0
  0
VERTEX
  8
LAYER_7
 10
88.0146
 20
106.9523
  0
VERTEX
  8
LAYER_7
 10
89.6214
 20
106.9523
  0
SEQEND
  0
POLYLINE
  8
LAYER_7
 40
0.1058
 41
0.1058
 66
1
 10
0
 20
0
 30
0
  0
VERTEX
  8
LAYER_7
 10
89.6214
 20
88.3791
  0
VERTEX
  8
LAYER_7
 10
88.0146
 20
88.3791
  0
SEQEND
  0
POLYLINE
  8
LAYER_7
 40
0.1058
 41
0.1058
 66
1
 10
0
 20
0
 30
0
  0
VERTEX
  8
LAYER_7
 10
144.7843
 20
104.2789
  0
VERTEX
  8
LAYER_7
 10
146.4662
 20
104.2789
  0
VERTEX
  8
LAYER_7
 10
146.4662
 20
106.9523
  0
VERTEX
  8
LAYER_7
 10
144.7843
 20
106.9523
  0
SEQEND
  0
POLYLINE
  8
LAYER_7
 40
0.1058
 41
0.1058
 66
1
 10
0
 20
0
 30
0
  0
VERTEX
  8
LAYER_7
 10
103.7387
 20
88.9117
  0
VERTEX
  8
LAYER_7
 10
112.8345
 20
88.9117
  0
SEQEND
  0
POLYLINE
  8
LAYER_7
 40
0.1058
 41
0.1058
 66
1
 10
0
 20
0
 30
0
  0
VERTEX
  8
LAYER_7
 10
92.6586
 20
106.4169
  0
VERTEX
  8
LAYER_7
 10
92.5794
 20
106.4169
  0
VERTEX
  8
LAYER_7
 10
92.5036
 20
106.4169
  0
VERTEX
  8
LAYER_7
 10
92.4257
 20
106.3411
  0
VERTEX
  8
LAYER_7
 10
92.4257
 20
106.266
  0
VERTEX
  8
LAYER_7
 10
92.352
 20
106.1909
  0
VERTEX
  8
LAYER_7
 10
92.4257
 20
106.1131
  0
VERTEX
  8
LAYER_7
 10
92.4257
 20
106.0373
  0
VERTEX
  8
LAYER_7
 10
92.5036
 20
105.9574
  0
VERTEX
  8
LAYER_7
 10
92.5794
 20
105.9574
  0
VERTEX
  8
LAYER_7
 10
93.0376
 20
105.8843
  0
VERTEX
  8
LAYER_7
 10
93.2663
 20
105.8843
  0
VERTEX
  8
LAYER_7
 10
93.6508
 20
105.8085
  0
VERTEX
  8
LAYER_7
 10
93.9533
 20
105.8085
  0
VERTEX
  8
LAYER_7
 10
94.1069
 20
105.8085
  0
VERTEX
  8
LAYER_7
 10
94.1848
 20
105.8085
  0
VERTEX
  8
LAYER_7
 10
94.2626
 20
105.7307
  0
VERTEX
  8
LAYER_7
 10
94.3405
 20
105.6556
  0
VERTEX
  8
LAYER_7
 10
94.4149
 20
105.5777
  0
VERTEX
  8
LAYER_7
 10
94.4914
 20
105.4998
  0
VERTEX
  8
LAYER_7
 10
94.4914
 20
105.4241
  0
VERTEX
  8
LAYER_7
 10
94.4914
 20
105.2711
  0
VERTEX
  8
LAYER_7
 10
94.6423
 20
105.1181
  0
VERTEX
  8
LAYER_7
 10
94.7188
 20
104.8894
  0
VERTEX
  8
LAYER_7
 10
94.7188
 20
104.8136
  0
VERTEX
  8
LAYER_7
 10
94.7966
 20
104.5855
  0
VERTEX
  8
LAYER_7
 10
94.7966
 20
104.5097
  0
VERTEX
  8
LAYER_7
 10
94.7966
 20
104.3568
  0
VERTEX
  8
LAYER_7
 10
94.8745
 20
104.2789
  0
VERTEX
  8
LAYER_7
 10
94.8745
 20
104.2031
  0
VERTEX
  8
LAYER_7
 10
94.8745
 20
104.0502
  0
VERTEX
  8
LAYER_7
 10
94.8745
 20
103.9723
  0
VERTEX
  8
LAYER_7
 10
94.9496
 20
103.8965
  0
VERTEX
  8
LAYER_7
 10
95.0254
 20
103.8965
  0
VERTEX
  8
LAYER_7
 10
95.0254
 20
103.8186
  0
VERTEX
  8
LAYER_7
 10
95.1046
 20
103.8186
  0
VERTEX
  8
LAYER_7
 10
95.3306
 20
103.8186
  0
VERTEX
  8
LAYER_7
 10
95.5614
 20
103.8186
  0
VERTEX
  8
LAYER_7
 10
95.6379
 20
103.8186
  0
VERTEX
  8
LAYER_7
 10
95.7151
 20
103.8186
  0
VERTEX
  8
LAYER_7
 10
95.7151
 20
103.8965
  0
VERTEX
  8
LAYER_7
 10
95.7902
 20
103.8965
  0
VERTEX
  8
LAYER_7
 10
95.7902
 20
103.9723
  0
VERTEX
  8
LAYER_7
 10
95.7902
 20
104.1253
  0
VERTEX
  8
LAYER_7
 10
95.8646
 20
104.5097
  0
VERTEX
  8
LAYER_7
 10
95.8646
 20
104.8894
  0
VERTEX
  8
LAYER_7
 10
95.8646
 20
105.0423
  0
VERTEX
  8
LAYER_7
 10
95.9459
 20
105.1181
  0
VERTEX
  8
LAYER_7
 10
96.0189
 20
105.1932
  0
VERTEX
  8
LAYER_7
 10
96.0954
 20
105.2711
  0
VERTEX
  8
LAYER_7
 10
96.0954
 20
105.349
  0
VERTEX
  8
LAYER_7
 10
96.1733
 20
105.349
  0
VERTEX
  8
LAYER_7
 10
96.2498
 20
105.4241
  0
VERTEX
  8
LAYER_7
 10
96.3269
 20
105.4241
  0
VERTEX
  8
LAYER_7
 10
96.402
 20
105.4241
  0
VERTEX
  8
LAYER_7
 10
96.555
 20
105.4241
  0
VERTEX
  8
LAYER_7
 10
97.1669
 20
105.4241
  0
VERTEX
  8
LAYER_7
 10
97.9296
 20
105.4241
  0
VERTEX
  8
LAYER_7
 10
98.7702
 20
105.4241
  0
VERTEX
  8
LAYER_7
 10
99.3834
 20
105.4241
  0
VERTEX
  8
LAYER_7
 10
99.6887
 20
105.4241
  0
VERTEX
  8
LAYER_7
 10
99.8402
 20
105.4241
  0
VERTEX
  8
LAYER_7
 10
99.9174
 20
105.4241
  0
VERTEX
  8
LAYER_7
 10
100.0718
 20
105.4241
  0
VERTEX
  8
LAYER_7
 10
100.1482
 20
105.349
  0
VERTEX
  8
LAYER_7
 10
100.2227
 20
105.2711
  0
VERTEX
  8
LAYER_7
 10
100.3005
 20
105.1932
  0
VERTEX
  8
LAYER_7
 10
100.3005
 20
105.0423
  0
VERTEX
  8
LAYER_7
 10
100.3005
 20
104.9672
  0
VERTEX
  8
LAYER_7
 10
100.3005
 20
104.8894
  0
VERTEX
  8
LAYER_7
 10
100.3784
 20
104.8136
  0
VERTEX
  8
LAYER_7
 10
100.4549
 20
103.8186
  0
VERTEX
  8
LAYER_7
 10
100.5279
 20
102.2911
  0
VERTEX
  8
LAYER_7
 10
100.6057
 20
101.374
  0
VERTEX
  8
LAYER_7
 10
100.6822
 20
100.6078
  0
VERTEX
  8
LAYER_7
 10
100.9124
 20
98.394
  0
VERTEX
  8
LAYER_7
 10
101.0619
 20
96.5598
  0
VERTEX
  8
LAYER_7
 10
101.1397
 20
94.7236
  0
VERTEX
  8
LAYER_7
 10
101.2941
 20
93.1182
  0
VERTEX
  8
LAYER_7
 10
101.5228
 20
90.9774
  0
VERTEX
  8
LAYER_7
 10
101.6758
 20
89.3713
  0
VERTEX
  8
LAYER_7
 10
101.6758
 20
88.9923
  0
VERTEX
  8
LAYER_7
 10
101.6758
 20
88.6857
  0
VERTEX
  8
LAYER_7
 10
101.6758
 20
88.6106
  0
VERTEX
  8
LAYER_7
 10
101.7537
 20
88.4542
  0
VERTEX
  8
LAYER_7
 10
101.8281
 20
88.4542
  0
VERTEX
  8
LAYER_7
 10
101.9059
 20
88.3791
  0
VERTEX
  8
LAYER_7
 10
101.981
 20
88.3791
  0
VERTEX
  8
LAYER_7
 10
102.1333
 20
88.304
  0
VERTEX
  8
LAYER_7
 10
102.6687
 20
88.304
  0
VERTEX
  8
LAYER_7
 10
102.6687
 20
88.3791
  0
VERTEX
  8
LAYER_7
 10
102.7465
 20
88.3791
  0
VERTEX
  8
LAYER_7
 10
102.8216
 20
88.4542
  0
VERTEX
  8
LAYER_7
 10
102.7465
 20
88.3791
  0
VERTEX
  8
LAYER_7
 10
102.8216
 20
88.4542
  0
VERTEX
  8
LAYER_7
 10
102.8216
 20
88.5321
  0
VERTEX
  8
LAYER_7
 10
102.8216
 20
88.6106
  0
VERTEX
  8
LAYER_7
 10
102.8216
 20
88.6857
  0
VERTEX
  8
LAYER_7
 10
102.8216
 20
88.7636
  0
VERTEX
  8
LAYER_7
 10
102.8216
 20
88.8387
  0
VERTEX
  8
LAYER_7
 10
102.8995
 20
88.9117
  0
VERTEX
  8
LAYER_7
 10
102.9746
 20
88.9117
  0
VERTEX
  8
LAYER_7
 10
103.0525
 20
88.9117
  0
VERTEX
  8
LAYER_7
 10
104.1232
 20
88.9117
  0
VERTEX
  8
LAYER_7
 10
104.1983
 20
88.9117
  0
VERTEX
  8
LAYER_7
 10
104.2762
 20
88.9923
  0
VERTEX
  8
LAYER_7
 10
104.3478
 20
88.9923
  0
VERTEX
  8
LAYER_7
 10
104.3478
 20
89.0674
  0
VERTEX
  8
LAYER_7
 10
104.427
 20
89.0674
  0
VERTEX
  8
LAYER_7
 10
104.427
 20
89.1432
  0
VERTEX
  8
LAYER_7
 10
104.427
 20
89.2183
  0
VERTEX
  8
LAYER_7
 10
104.427
 20
89.3713
  0
VERTEX
  8
LAYER_7
 10
104.5035
 20
89.7558
  0
VERTEX
  8
LAYER_7
 10
104.5035
 20
89.8316
  0
VERTEX
  8
LAYER_7
 10
104.5793
 20
89.9067
  0
VERTEX
  8
LAYER_7
 10
104.5793
 20
89.9845
  0
VERTEX
  8
LAYER_7
 10
104.6572
 20
89.9845
  0
VERTEX
  8
LAYER_7
 10
104.6572
 20
90.0624
  0
VERTEX
  8
LAYER_7
 10
104.7323
 20
90.0624
  0
VERTEX
  8
LAYER_7
 10
104.8101
 20
90.1382
  0
VERTEX
  8
LAYER_7
 10
104.8873
 20
90.1382
  0
VERTEX
  8
LAYER_7
 10
104.9638
 20
90.1382
  0
VERTEX
  8
LAYER_7
 10
105.0375
 20
90.1382
  0
VERTEX
  8
LAYER_7
 10
105.1925
 20
90.1382
  0
VERTEX
  8
LAYER_7
 10
112.0731
 20
89.9067
  0
VERTEX
  8
LAYER_7
 10
112.1447
 20
89.8316
  0
VERTEX
  8
LAYER_7
 10
112.224
 20
89.8316
  0
VERTEX
  8
LAYER_7
 10
112.3005
 20
89.8316
  0
VERTEX
  8
LAYER_7
 10
112.3756
 20
89.7558
  0
VERTEX
  8
LAYER_7
 10
112.4534
 20
89.7558
  0
VERTEX
  8
LAYER_7
 10
112.5292
 20
89.6779
  0
VERTEX
  8
LAYER_7
 10
112.5292
 20
89.6056
  0
VERTEX
  8
LAYER_7
 10
112.6071
 20
89.5249
  0
VERTEX
  8
LAYER_7
 10
112.6071
 20
89.4498
  0
VERTEX
  8
LAYER_7
 10
112.6071
 20
89.3713
  0
VERTEX
  8
LAYER_7
 10
112.6836
 20
89.1432
  0
VERTEX
  8
LAYER_7
 10
112.6836
 20
89.0674
  0
VERTEX
  8
LAYER_7
 10
112.7573
 20
89.0674
  0
VERTEX
  8
LAYER_7
 10
112.7573
 20
88.9923
  0
VERTEX
  8
LAYER_7
 10
112.8345
 20
88.9117
  0
VERTEX
  8
LAYER_7
 10
114.1333
 20
88.9117
  0
VERTEX
  8
LAYER_7
 10
114.1333
 20
89.7558
  0
VERTEX
  8
LAYER_7
 10
114.1333
 20
89.8316
  0
VERTEX
  8
LAYER_7
 10
114.0568
 20
89.9067
  0
VERTEX
  8
LAYER_7
 10
114.0568
 20
89.9845
  0
VERTEX
  8
LAYER_7
 10
113.9059
 20
90.0624
  0
VERTEX
  8
LAYER_7
 10
113.828
 20
90.2133
  0
VERTEX
  8
LAYER_7
 10
113.6757
 20
90.2911
  0
VERTEX
  8
LAYER_7
 10
113.5979
 20
90.3669
  0
VERTEX
  8
LAYER_7
 10
113.4449
 20
90.442
  0
VERTEX
  8
LAYER_7
 10
113.4449
 20
90.5199
  0
VERTEX
  8
LAYER_7
 10
113.3684
 20
90.5977
  0
VERTEX
  8
LAYER_7
 10
113.2176
 20
90.6728
  0
VERTEX
  8
LAYER_7
 10
113.1411
 20
90.7507
  0
VERTEX
  8
LAYER_7
 10
113.0639
 20
90.8265
  0
VERTEX
  8
LAYER_7
 10
112.9874
 20
90.8265
  0
VERTEX
  8
LAYER_7
 10
112.8345
 20
90.9016
  0
VERTEX
  8
LAYER_7
 10
112.7573
 20
90.9774
  0
VERTEX
  8
LAYER_7
 10
112.6071
 20
90.9774
  0
VERTEX
  8
LAYER_7
 10
112.5292
 20
91.0525
  0
VERTEX
  8
LAYER_7
 10
112.3756
 20
91.1304
  0
VERTEX
  8
LAYER_7
 10
112.3005
 20
91.1304
  0
VERTEX
  8
LAYER_7
 10
111.6108
 20
91.1304
  0
VERTEX
  8
LAYER_7
 10
103.8138
 20
91.437
  0
VERTEX
  8
LAYER_7
 10
103.5864
 20
91.437
  0
VERTEX
  8
LAYER_7
 10
103.2805
 20
91.5148
  0
VERTEX
  8
LAYER_7
 10
103.2047
 20
91.5148
  0
VERTEX
  8
LAYER_7
 10
102.9746
 20
91.6657
  0
VERTEX
  8
LAYER_7
 10
102.8995
 20
91.7408
  0
VERTEX
  8
LAYER_7
 10
102.8216
 20
91.8214
  0
VERTEX
  8
LAYER_7
 10
102.7465
 20
91.9744
  0
VERTEX
  8
LAYER_7
 10
102.6687
 20
92.1983
  0
VERTEX
  8
LAYER_7
 10
102.5929
 20
92.3541
  0
VERTEX
  8
LAYER_7
 10
102.5929
 20
92.5828
  0
VERTEX
  8
LAYER_7
 10
101.5228
 20
105.9574
  0
VERTEX
  8
LAYER_7
 10
101.4463
 20
106.1909
  0
VERTEX
  8
LAYER_7
 10
101.4463
 20
106.4169
  0
VERTEX
  8
LAYER_7
 10
101.2941
 20
106.5699
  0
VERTEX
  8
LAYER_7
 10
101.1397
 20
106.7235
  0
VERTEX
  8
LAYER_7
 10
101.0619
 20
106.8014
  0
VERTEX
  8
LAYER_7
 10
100.9888
 20
106.8765
  0
VERTEX
  8
LAYER_7
 10
100.9124
 20
106.8765
  0
VERTEX
  8
LAYER_7
 10
100.8345
 20
106.9523
  0
VERTEX
  8
LAYER_7
 10
100.6822
 20
106.9523
  0
VERTEX
  8
LAYER_7
 10
99.3834
 20
106.9523
  0
VERTEX
  8
LAYER_7
 10
98.7702
 20
106.9523
  0
VERTEX
  8
LAYER_7
 10
98.0832
 20
106.9523
  0
VERTEX
  8
LAYER_7
 10
97.623
 20
106.9523
  0
VERTEX
  8
LAYER_7
 10
96.8602
 20
106.8765
  0
VERTEX
  8
LAYER_7
 10
96.402
 20
106.8765
  0
VERTEX
  8
LAYER_7
 10
95.8646
 20
106.8765
  0
VERTEX
  8
LAYER_7
 10
95.2562
 20
106.8014
  0
VERTEX
  8
LAYER_7
 10
94.7966
 20
106.7235
  0
VERTEX
  8
LAYER_7
 10
94.1848
 20
106.6457
  0
VERTEX
  8
LAYER_7
 10
93.7259
 20
106.5699
  0
VERTEX
  8
LAYER_7
 10
93.3456
 20
106.5699
  0
VERTEX
  8
LAYER_7
 10
92.9625
 20
106.4975
  0
VERTEX
  8
LAYER_7
 10
92.7323
 20
106.4169
  0
VERTEX
  8
LAYER_7
 10
92.6586
 20
106.4169
  0
SEQEND
  0
POLYLINE
  8
LAYER_7
 40
0.1058
 41
0.1058
 66
1
 10
0
 20
0
 30
0
  0
VERTEX
  8
LAYER_7
 10
100.6822
 20
106.9523
  0
VERTEX
  8
LAYER_7
 10
116.4284
 20
106.9523
  0
SEQEND
  0
POLYLINE
  8
LAYER_7
 40
0.1058
 41
0.1058
 66
1
 10
0
 20
0
 30
0
  0
VERTEX
  8
LAYER_7
 10
95.6379
 20
103.8186
  0
VERTEX
  8
LAYER_7
 10
100.4549
 20
103.8186
  0
SEQEND
  0
POLYLINE
  8
LAYER_7
 40
0.1058
 41
0.1058
 66
1
 10
0
 20
0
 30
0
  0
VERTEX
  8
LAYER_7
 10
102.6687
 20
88.3791
  0
VERTEX
  8
LAYER_7
 10
116.427
 20
88.3791
  0
SEQEND
  0
POLYLINE
  8
LAYER_7
 40
0.1058
 41
0.1058
 66
1
 10
0
 20
0
 30
0
  0
VERTEX
  8
LAYER_7
 10
129.1938
 20
88.9117
  0
VERTEX
  8
LAYER_7
 10
120.0202
 20
88.9117
  0
SEQEND
  0
POLYLINE
  8
LAYER_7
 40
0.1058
 41
0.1058
 66
1
 10
0
 20
0
 30
0
  0
VERTEX
  8
LAYER_7
 10
140.1988
 20
106.4169
  0
VERTEX
  8
LAYER_7
 10
140.2767
 20
106.4169
  0
VERTEX
  8
LAYER_7
 10
140.3504
 20
106.4169
  0
VERTEX
  8
LAYER_7
 10
140.4283
 20
106.3411
  0
VERTEX
  8
LAYER_7
 10
140.4283
 20
106.266
  0
VERTEX
  8
LAYER_7
 10
140.5048
 20
106.1909
  0
VERTEX
  8
LAYER_7
 10
140.5048
 20
106.1131
  0
VERTEX
  8
LAYER_7
 10
140.4283
 20
106.0373
  0
VERTEX
  8
LAYER_7
 10
140.3504
 20
105.9574
  0
VERTEX
  8
LAYER_7
 10
140.2767
 20
105.9574
  0
VERTEX
  8
LAYER_7
 10
139.8164
 20
105.8843
  0
VERTEX
  8
LAYER_7
 10
139.5856
 20
105.8843
  0
VERTEX
  8
LAYER_7
 10
139.2012
 20
105.8085
  0
VERTEX
  8
LAYER_7
 10
138.8987
 20
105.8085
  0
VERTEX
  8
LAYER_7
 10
138.745
 20
105.8085
  0
VERTEX
  8
LAYER_7
 10
138.6672
 20
105.8085
  0
VERTEX
  8
LAYER_7
 10
138.5927
 20
105.7307
  0
VERTEX
  8
LAYER_7
 10
138.5176
 20
105.6556
  0
VERTEX
  8
LAYER_7
 10
138.4398
 20
105.5777
  0
VERTEX
  8
LAYER_7
 10
138.4398
 20
105.4998
  0
VERTEX
  8
LAYER_7
 10
138.3633
 20
105.4241
  0
VERTEX
  8
LAYER_7
 10
138.3633
 20
105.2711
  0
VERTEX
  8
LAYER_7
 10
138.211
 20
105.1181
  0
VERTEX
  8
LAYER_7
 10
138.1332
 20
104.8894
  0
VERTEX
  8
LAYER_7
 10
138.1332
 20
104.8136
  0
VERTEX
  8
LAYER_7
 10
138.0581
 20
104.5855
  0
VERTEX
  8
LAYER_7
 10
138.0581
 20
104.5097
  0
VERTEX
  8
LAYER_7
 10
138.0581
 20
104.3568
  0
VERTEX
  8
LAYER_7
 10
137.9802
 20
104.2789
  0
VERTEX
  8
LAYER_7
 10
137.9802
 20
104.2031
  0
VERTEX
  8
LAYER_7
 10
137.9802
 20
104.0502
  0
VERTEX
  8
LAYER_7
 10
137.9802
 20
103.9723
  0
VERTEX
  8
LAYER_7
 10
137.9802
 20
103.8965
  0
VERTEX
  8
LAYER_7
 10
137.9058
 20
103.8965
  0
VERTEX
  8
LAYER_7
 10
137.8293
 20
103.8186
  0
VERTEX
  8
LAYER_7
 10
137.7528
 20
103.8186
  0
VERTEX
  8
LAYER_7
 10
137.5241
 20
103.8186
  0
VERTEX
  8
LAYER_7
 10
137.2919
 20
103.8186
  0
VERTEX
  8
LAYER_7
 10
137.2188
 20
103.8186
  0
VERTEX
  8
LAYER_7
 10
137.1396
 20
103.8186
  0
VERTEX
  8
LAYER_7
 10
137.1396
 20
103.8965
  0
VERTEX
  8
LAYER_7
 10
137.0638
 20
103.8965
  0
VERTEX
  8
LAYER_7
 10
137.0638
 20
103.9723
  0
VERTEX
  8
LAYER_7
 10
137.0638
 20
104.1253
  0
VERTEX
  8
LAYER_7
 10
136.9873
 20
104.5097
  0
VERTEX
  8
LAYER_7
 10
136.9873
 20
104.8894
  0
VERTEX
  8
LAYER_7
 10
136.9873
 20
105.0423
  0
VERTEX
  8
LAYER_7
 10
136.9122
 20
105.1181
  0
VERTEX
  8
LAYER_7
 10
136.9122
 20
105.1932
  0
VERTEX
  8
LAYER_7
 10
136.8344
 20
105.1932
  0
VERTEX
  8
LAYER_7
 10
136.7579
 20
105.2711
  0
VERTEX
  8
LAYER_7
 10
136.7579
 20
105.349
  0
VERTEX
  8
LAYER_7
 10
136.68
 20
105.349
  0
VERTEX
  8
LAYER_7
 10
136.6056
 20
105.4241
  0
VERTEX
  8
LAYER_7
 10
136.5305
 20
105.4241
  0
VERTEX
  8
LAYER_7
 10
136.4527
 20
105.4241
  0
VERTEX
  8
LAYER_7
 10
136.299
 20
105.4241
  0
VERTEX
  8
LAYER_7
 10
135.6899
 20
105.4241
  0
VERTEX
  8
LAYER_7
 10
134.9244
 20
105.4241
  0
VERTEX
  8
LAYER_7
 10
134.0845
 20
105.4241
  0
VERTEX
  8
LAYER_7
 10
133.4699
 20
105.4241
  0
VERTEX
  8
LAYER_7
 10
133.1674
 20
105.4241
  0
VERTEX
  8
LAYER_7
 10
133.0138
 20
105.4241
  0
VERTEX
  8
LAYER_7
 10
132.9359
 20
105.4241
  0
VERTEX
  8
LAYER_7
 10
132.7829
 20
105.4241
  0
VERTEX
  8
LAYER_7
 10
132.7085
 20
105.349
  0
VERTEX
  8
LAYER_7
 10
132.6293
 20
105.2711
  0
VERTEX
  8
LAYER_7
 10
132.5556
 20
105.1932
  0
VERTEX
  8
LAYER_7
 10
132.5556
 20
105.0423
  0
VERTEX
  8
LAYER_7
 10
132.5556
 20
104.9672
  0
VERTEX
  8
LAYER_7
 10
132.5556
 20
104.8894
  0
VERTEX
  8
LAYER_7
 10
132.4784
 20
104.8136
  0
VERTEX
  8
LAYER_7
 10
132.4019
 20
103.8186
  0
VERTEX
  8
LAYER_7
 10
132.3254
 20
102.2911
  0
VERTEX
  8
LAYER_7
 10
132.2489
 20
101.374
  0
VERTEX
  8
LAYER_7
 10
132.1745
 20
100.6078
  0
VERTEX
  8
LAYER_7
 10
131.9451
 20
98.394
  0
VERTEX
  8
LAYER_7
 10
131.7914
 20
96.5598
  0
VERTEX
  8
LAYER_7
 10
131.715
 20
94.7236
  0
VERTEX
  8
LAYER_7
 10
131.5606
 20
93.1182
  0
VERTEX
  8
LAYER_7
 10
131.3305
 20
90.9774
  0
VERTEX
  8
LAYER_7
 10
131.2554
 20
89.3713
  0
VERTEX
  8
LAYER_7
 10
131.1796
 20
88.9923
  0
VERTEX
  8
LAYER_7
 10
131.1796
 20
88.6857
  0
VERTEX
  8
LAYER_7
 10
131.1796
 20
88.6106
  0
VERTEX
  8
LAYER_7
 10
131.1031
 20
88.4542
  0
VERTEX
  8
LAYER_7
 10
131.0266
 20
88.3791
  0
VERTEX
  8
LAYER_7
 10
130.8709
 20
88.3791
  0
VERTEX
  8
LAYER_7
 10
130.7214
 20
88.304
  0
VERTEX
  8
LAYER_7
 10
130.2625
 20
88.304
  0
VERTEX
  8
LAYER_7
 10
130.1833
 20
88.3791
  0
VERTEX
  8
LAYER_7
 10
130.1082
 20
88.3791
  0
VERTEX
  8
LAYER_7
 10
130.0331
 20
88.4542
  0
VERTEX
  8
LAYER_7
 10
130.1082
 20
88.3791
  0
VERTEX
  8
LAYER_7
 10
130.0331
 20
88.4542
  0
VERTEX
  8
LAYER_7
 10
130.0331
 20
88.5321
  0
VERTEX
  8
LAYER_7
 10
130.0331
 20
88.6106
  0
VERTEX
  8
LAYER_7
 10
130.0331
 20
88.6857
  0
VERTEX
  8
LAYER_7
 10
130.0331
 20
88.7636
  0
VERTEX
  8
LAYER_7
 10
130.0331
 20
88.8387
  0
VERTEX
  8
LAYER_7
 10
129.9559
 20
88.9117
  0
VERTEX
  8
LAYER_7
 10
129.8767
 20
88.9117
  0
VERTEX
  8
LAYER_7
 10
128.7336
 20
88.9117
  0
VERTEX
  8
LAYER_7
 10
128.6571
 20
88.9117
  0
VERTEX
  8
LAYER_7
 10
128.582
 20
88.9923
  0
VERTEX
  8
LAYER_7
 10
128.5041
 20
88.9923
  0
VERTEX
  8
LAYER_7
 10
128.5041
 20
89.0674
  0
VERTEX
  8
LAYER_7
 10
128.4283
 20
89.0674
  0
VERTEX
  8
LAYER_7
 10
128.4283
 20
89.1432
  0
VERTEX
  8
LAYER_7
 10
128.4283
 20
89.2183
  0
VERTEX
  8
LAYER_7
 10
128.4283
 20
89.3713
  0
VERTEX
  8
LAYER_7
 10
128.3505
 20
89.7558
  0
VERTEX
  8
LAYER_7
 10
128.3505
 20
89.8316
  0
VERTEX
  8
LAYER_7
 10
128.274
 20
89.9067
  0
VERTEX
  8
LAYER_7
 10
128.274
 20
89.9845
  0
VERTEX
  8
LAYER_7
 10
128.1996
 20
90.0624
  0
VERTEX
  8
LAYER_7
 10
128.1217
 20
90.0624
  0
VERTEX
  8
LAYER_7
 10
128.0466
 20
90.1382
  0
VERTEX
  8
LAYER_7
 10
127.9688
 20
90.1382
  0
VERTEX
  8
LAYER_7
 10
127.8943
 20
90.1382
  0
VERTEX
  8
LAYER_7
 10
127.8165
 20
90.1382
  0
VERTEX
  8
LAYER_7
 10
127.74
 20
90.1382
  0
VERTEX
  8
LAYER_7
 10
120.7837
 20
89.9067
  0
VERTEX
  8
LAYER_7
 10
120.7072
 20
89.8316
  0
VERTEX
  8
LAYER_7
 10
120.6307
 20
89.8316
  0
VERTEX
  8
LAYER_7
 10
120.5563
 20
89.8316
  0
VERTEX
  8
LAYER_7
 10
120.4784
 20
89.7558
  0
VERTEX
  8
LAYER_7
 10
120.4033
 20
89.7558
  0
VERTEX
  8
LAYER_7
 10
120.3255
 20
89.6779
  0
VERTEX
  8
LAYER_7
 10
120.3255
 20
89.6056
  0
VERTEX
  8
LAYER_7
 10
120.2504
 20
89.5249
  0
VERTEX
  8
LAYER_7
 10
120.2504
 20
89.4498
  0
VERTEX
  8
LAYER_7
 10
120.2504
 20
89.3713
  0
VERTEX
  8
LAYER_7
 10
120.1732
 20
89.1432
  0
VERTEX
  8
LAYER_7
 10
120.1732
 20
89.0674
  0
VERTEX
  8
LAYER_7
 10
120.0967
 20
89.0674
  0
VERTEX
  8
LAYER_7
 10
120.0967
 20
88.9923
  0
VERTEX
  8
LAYER_7
 10
120.0202
 20
88.9117
  0
VERTEX
  8
LAYER_7
 10
118.7201
 20
88.9117
  0
VERTEX
  8
LAYER_7
 10
118.7201
 20
89.7558
  0
VERTEX
  8
LAYER_7
 10
118.7201
 20
89.8316
  0
VERTEX
  8
LAYER_7
 10
118.7979
 20
89.9067
  0
VERTEX
  8
LAYER_7
 10
118.7979
 20
89.9845
  0
VERTEX
  8
LAYER_7
 10
118.9488
 20
90.0624
  0
VERTEX
  8
LAYER_7
 10
119.0267
 20
90.2133
  0
VERTEX
  8
LAYER_7
 10
119.1796
 20
90.2911
  0
VERTEX
  8
LAYER_7
 10
119.254
 20
90.3669
  0
VERTEX
  8
LAYER_7
 10
119.407
 20
90.442
  0
VERTEX
  8
LAYER_7
 10
119.4862
 20
90.5199
  0
VERTEX
  8
LAYER_7
 10
119.5607
 20
90.5977
  0
VERTEX
  8
LAYER_7
 10
119.6358
 20
90.6728
  0
VERTEX
  8
LAYER_7
 10
119.7136
 20
90.7507
  0
VERTEX
  8
LAYER_7
 10
119.788
 20
90.8265
  0
VERTEX
  8
LAYER_7
 10
119.8659
 20
90.8265
  0
VERTEX
  8
LAYER_7
 10
120.0202
 20
90.9016
  0
VERTEX
  8
LAYER_7
 10
120.0967
 20
90.9774
  0
VERTEX
  8
LAYER_7
 10
120.2504
 20
90.9774
  0
VERTEX
  8
LAYER_7
 10
120.4033
 20
91.0525
  0
VERTEX
  8
LAYER_7
 10
120.5563
 20
91.1304
  0
VERTEX
  8
LAYER_7
 10
121.2412
 20
91.1304
  0
VERTEX
  8
LAYER_7
 10
129.0374
 20
91.437
  0
VERTEX
  8
LAYER_7
 10
129.2689
 20
91.437
  0
VERTEX
  8
LAYER_7
 10
129.5742
 20
91.5148
  0
VERTEX
  8
LAYER_7
 10
129.6493
 20
91.5148
  0
VERTEX
  8
LAYER_7
 10
129.8767
 20
91.6657
  0
VERTEX
  8
LAYER_7
 10
129.9559
 20
91.7408
  0
VERTEX
  8
LAYER_7
 10
130.0331
 20
91.8214
  0
VERTEX
  8
LAYER_7
 10
130.1082
 20
91.9744
  0
VERTEX
  8
LAYER_7
 10
130.1833
 20
92.1983
  0
VERTEX
  8
LAYER_7
 10
130.2625
 20
92.3541
  0
VERTEX
  8
LAYER_7
 10
130.2625
 20
92.5828
  0
VERTEX
  8
LAYER_7
 10
131.4111
 20
105.9574
  0
VERTEX
  8
LAYER_7
 10
131.4111
 20
106.1909
  0
VERTEX
  8
LAYER_7
 10
131.4111
 20
106.4169
  0
VERTEX
  8
LAYER_7
 10
131.5606
 20
106.5699
  0
VERTEX
  8
LAYER_7
 10
131.715
 20
106.7235
  0
VERTEX
  8
LAYER_7
 10
131.7914
 20
106.8014
  0
VERTEX
  8
LAYER_7
 10
131.8672
 20
106.8765
  0
VERTEX
  8
LAYER_7
 10
131.9451
 20
106.8765
  0
VERTEX
  8
LAYER_7
 10
132.0202
 20
106.9523
  0
VERTEX
  8
LAYER_7
 10
132.1745
 20
106.9523
  0
VERTEX
  8
LAYER_7
 10
133.4699
 20
106.9523
  0
VERTEX
  8
LAYER_7
 10
134.0845
 20
106.9523
  0
VERTEX
  8
LAYER_7
 10
134.7714
 20
106.9523
  0
VERTEX
  8
LAYER_7
 10
135.231
 20
106.9523
  0
VERTEX
  8
LAYER_7
 10
135.9965
 20
106.8765
  0
VERTEX
  8
LAYER_7
 10
136.5305
 20
106.8765
  0
VERTEX
  8
LAYER_7
 10
136.9873
 20
106.8765
  0
VERTEX
  8
LAYER_7
 10
137.5978
 20
106.8014
  0
VERTEX
  8
LAYER_7
 10
138.0581
 20
106.7235
  0
VERTEX
  8
LAYER_7
 10
138.6672
 20
106.6457
  0
VERTEX
  8
LAYER_7
 10
139.1267
 20
106.5699
  0
VERTEX
  8
LAYER_7
 10
139.5856
 20
106.5699
  0
VERTEX
  8
LAYER_7
 10
139.8943
 20
106.4975
  0
VERTEX
  8
LAYER_7
 10
140.1217
 20
106.4169
  0
VERTEX
  8
LAYER_7
 10
140.1988
 20
106.4169
  0
SEQEND
  0
POLYLINE
  8
LAYER_7
 40
0.1058
 41
0.1058
 66
1
 10
0
 20
0
 30
0
  0
VERTEX
  8
LAYER_7
 10
132.1745
 20
106.9523
  0
VERTEX
  8
LAYER_7
 10
116.427
 20
106.9523
  0
SEQEND
  0
POLYLINE
  8
LAYER_7
 40
0.1058
 41
0.1058
 66
1
 10
0
 20
0
 30
0
  0
VERTEX
  8
LAYER_7
 10
137.2188
 20
103.8186
  0
VERTEX
  8
LAYER_7
 10
132.4019
 20
103.8186
  0
SEQEND
  0
POLYLINE
  8
LAYER_7
 40
0.1058
 41
0.1058
 66
1
 10
0
 20
0
 30
0
  0
VERTEX
  8
LAYER_7
 10
130.1874
 20
88.3791
  0
VERTEX
  8
LAYER_7
 10
116.4284
 20
88.3791
  0
SEQEND
  0
POLYLINE
  8
LAYER_7
 40
0.1058
 41
0.1058
 66
1
 10
0
 20
0
 30
0
  0
VERTEX
  8
LAYER_7
 10
131.9451
 20
112.9144
  0
VERTEX
  8
LAYER_7
 10
131.9451
 20
111.309
  0
SEQEND
  0
POLYLINE
  8
LAYER_7
 40
0.1058
 41
0.1058
 66
1
 10
0
 20
0
 30
0
  0
VERTEX
  8
LAYER_7
 10
114.1333
 20
88.9117
  0
VERTEX
  8
LAYER_7
 10
118.7201
 20
88.9117
  0
SEQEND
  0
TEXT
  8
LAYER_7
 10
73.8837
 20
153.8097
 11
73.8837
 21
153.8097
 40
3.5034
 41
0.5
 50
89.99999999
  1
480
  0
TEXT
  8
LAYER_7
 10
113.4208
 20
115.1062
 11
113.4208
 21
115.1062
 40
3.5034
 41
0.5
  1
310
  0
TEXT
  8
LAYER_7
 10
86.2406
 20
96.6184
 11
86.2406
 21
96.6184
 40
3.5034
 41
0.5
 50
89.99999999
  1
190
  0
TEXT
  8
LAYER_7
 10
148.2624
 20
104.0109
 11
148.2624
 21
104.0109
 40
3.5034
 41
0.5
  1
27
  0
TEXT
  8
LAYER_7
 10
84.3029
 20
166.6985
 11
84.3029
 21
166.6985
 40
3.5034
 41
0.5
 50
89.99999999
  1
240
  0
CIRCLE
  8
LAYER_7
 10
116.427
 20
157.0736
 40
24.0009
  0
INSERT
  8
LAYER_7
  2
AIGNBL07010025
 10
0
 20
0
 30
0
  0
CIRCLE
  8
LAYER_7
 10
116.427
 20
157.0736
 40
15.5016
  0
CIRCLE
  8
LAYER_7
 10
116.427
 20
157.0736
 40
2.2517
  0
CIRCLE
  8
LAYER_7
 10
116.427
 20
157.0736
 40
4.0015
  0
INSERT
  8
LAYER_7
  2
AIGNBL07010026
 10
0
 20
0
 30
0
  0
POLYLINE
  8
LAYER_7
 40
0.1058
 41
0.1058
 66
1
 10
0
 20
0
 30
0
  0
VERTEX
  8
LAYER_7
 10
88.069
 20
181.1486
  0
VERTEX
  8
LAYER_7
 10
86.3906
 20
181.1486
  0
SEQEND
  0
TEXT
  8
LAYER_7
 10
144.5169
 20
158.8155
 11
144.5169
 21
158.8155
 40
2.9689
 41
0.5
  1
カウンター開口
  0
TEXT
  8
LAYER_7
 10
144.6547
 20
152.9195
 11
144.6547
 21
152.9195
 40
3.5034
 41
0.5
  1
寸法：360
  0
TEXT
  8
LAYER_7
 10
112.8544
 20
148.1527
 11
112.8544
 21
148.1527
 40
3.5034
 41
0.5
  1
45
  0
INSERT
  8
LAYER_7
  2
AIGNBL07010027
 10
0
 20
0
 30
0
  0
ENDSEC
  0
EOF
