  0
SECTION
  2
HEADER
  9
$ACADVER
  1
AC1009
  9
$LUNITS
 70
2
  9
$LUPREC
 70
4
  9
$LTSCALE
 40
1.0
  9
$EXTMIN
 10
-36.7113
 20
25.0268
 30
0
  9
$EXTMAX
 10
260.2887
 20
235.0268
 30
0
  0
ENDSEC
  0
SECTION
  2
TABLES
  0
TABLE
  2
LTYPE
 70
256
  0
LTYPE
  2
AIGENLINE001
 70
64
  3
generate AI->DXF Converter
 72
65
 73
2
 40
0.7056
 49
0.3528
 49
-0.3528
  0
LTYPE
  2
AIGENLINE002
 70
64
  3
generate AI->DXF Converter
 72
65
 73
2
 40
0.0208
 49
0.0069
 49
-0.0139
  0
LTYPE
  2
AIGENLINE003
 70
64
  3
generate AI->DXF Converter
 72
65
 73
2
 40
0.0417
 49
0.0208
 49
-0.0208
  0
LTYPE
  2
AIGENLINE004
 70
64
  3
generate AI->DXF Converter
 72
65
 73
4
 40
0.25
 49
0.2014
 49
-0.0139
 49
0.0208
 49
-0.0139
  0
LTYPE
  2
AIGENLINE005
 70
64
  3
generate AI->DXF Converter
 72
65
 73
4
 40
0.1042
 49
0.0625
 49
-0.0208
 49
0.0069
 49
-0.0139
  0
ENDTAB
  0
TABLE
  2
LAYER
 70
7
  0
LAYER
  2
LAYER_1
 70
64
 62
7
  6
CONTINUOUS
  0
LAYER
  2
LAYER_2
 70
64
 62
7
  6
CONTINUOUS
  0
LAYER
  2
LAYER_3
 70
64
 62
7
  6
CONTINUOUS
  0
LAYER
  2
LAYER_4
 70
64
 62
7
  6
CONTINUOUS
  0
LAYER
  2
LAYER_5
 70
64
 62
7
  6
CONTINUOUS
  0
LAYER
  2
LAYER_6
 70
64
 62
7
  6
CONTINUOUS
  0
LAYER
  2
LAYER_7
 70
64
 62
7
  6
CONTINUOUS
  0
ENDTAB
  0
TABLE
  2
STYLE
 70
6
  0
STYLE
  2
STANDARD
 70
0
 40
0
 50
0
 71
0
 41
0
 42
0
  3
TXT
  4
BIGFONT
  0
ENDTAB
  0
ENDSEC
  0
SECTION
  2
BLOCKS
  0
BLOCK
  8
LAYER_7
  2
AIGNBL07040006
 70
64
 10
0
 20
0
 30
0
  3
AIGNBL07040006
  0
POLYLINE
  8
LAYER_7
 40
0.05
 41
0.05
 66
1
 10
0
 20
0
 30
0
 70
1
  0
VERTEX
  8
LAYER_7
 10
146.7545
 20
39.1418
  0
VERTEX
  8
LAYER_7
 10
146.2656
 20
37.9567
  0
VERTEX
  8
LAYER_7
 10
145.6376
 20
37.9567
  0
VERTEX
  8
LAYER_7
 10
147.2372
 20
41.7225
  0
VERTEX
  8
LAYER_7
 10
147.9703
 20
41.7225
  0
VERTEX
  8
LAYER_7
 10
149.5768
 20
37.9567
  0
VERTEX
  8
LAYER_7
 10
148.9267
 20
37.9567
  0
VERTEX
  8
LAYER_7
 10
148.424
 20
39.1418
  0
SEQEND
  0
POLYLINE
  8
LAYER_7
 40
0.05
 41
0.05
 66
1
 10
0
 20
0
 30
0
 70
1
  0
VERTEX
  8
LAYER_7
 10
148.2983
 20
39.5207
  0
VERTEX
  8
LAYER_7
 10
147.8373
 20
40.6056
  0
VERTEX
  8
LAYER_7
 10
147.5927
 20
41.2926
  0
VERTEX
  8
LAYER_7
 10
147.5789
 20
41.2926
  0
VERTEX
  8
LAYER_7
 10
147.3412
 20
40.6101
  0
VERTEX
  8
LAYER_7
 10
146.8806
 20
39.5207
  0
SEQEND
  0
ENDBLK
  0
BLOCK
  8
LAYER_7
  2
AIGNBL07040007
 70
64
 10
0
 20
0
 30
0
  3
AIGNBL07040007
  0
POLYLINE
  8
LAYER_7
 40
0.05
 41
0.05
 66
1
 10
0
 20
0
 30
0
 70
1
  0
VERTEX
  8
LAYER_7
 10
153.942
 20
37.4034
 42
-0.01557776889
  0
VERTEX
  8
LAYER_7
 10
152.1399
 20
37.8395
  0
VERTEX
  8
LAYER_7
 10
151.8533
 20
37.895
 42
-0.08356586593
  0
VERTEX
  8
LAYER_7
 10
150.9892
 20
38.0612
 42
-0.09749891868
  0
VERTEX
  8
LAYER_7
 10
150.3281
 20
38.4671
 42
-0.2129139625
  0
VERTEX
  8
LAYER_7
 10
149.7793
 20
39.7998
 42
-0.09685063121
  0
VERTEX
  8
LAYER_7
 10
149.9239
 20
40.5732
 42
-0.2046489378
  0
VERTEX
  8
LAYER_7
 10
150.9715
 20
41.5974
 42
-0.09824326873
  0
VERTEX
  8
LAYER_7
 10
151.9725
 20
41.7838
 42
-0.08554303155
  0
VERTEX
  8
LAYER_7
 10
152.8411
 20
41.6425
 42
-0.100439485
  0
VERTEX
  8
LAYER_7
 10
153.5062
 20
41.2483
 42
-0.2140965971
  0
VERTEX
  8
LAYER_7
 10
154.0815
 20
39.8784
 42
-0.09539620281
  0
VERTEX
  8
LAYER_7
 10
153.9426
 20
39.1106
 42
-0.2143310008
  0
VERTEX
  8
LAYER_7
 10
152.9198
 20
38.1321
 42
-0.02339132607
  0
VERTEX
  8
LAYER_7
 10
152.7407
 20
38.0738
  0
VERTEX
  8
LAYER_7
 10
152.7407
 20
38.0514
 42
0.01711818545
  0
VERTEX
  8
LAYER_7
 10
154.117
 20
37.8113
  0
SEQEND
  0
POLYLINE
  8
LAYER_7
 40
0.05
 41
0.05
 66
1
 10
0
 20
0
 30
0
 70
1
  0
VERTEX
  8
LAYER_7
 10
153.4394
 20
39.857
 42
0.1071643265
  0
VERTEX
  8
LAYER_7
 10
153.2881
 20
40.5618
 42
0.2976270581
  0
VERTEX
  8
LAYER_7
 10
151.9511
 20
41.3873
 42
0.1072356843
  0
VERTEX
  8
LAYER_7
 10
151.2613
 20
41.2478
 42
0.2385874916
  0
VERTEX
  8
LAYER_7
 10
150.4743
 20
40.2422
 42
0.05751786987
  0
VERTEX
  8
LAYER_7
 10
150.4287
 20
39.8122
 42
0.218058121
  0
VERTEX
  8
LAYER_7
 10
150.9593
 20
38.6168
 42
0.1772828752
  0
VERTEX
  8
LAYER_7
 10
151.9232
 20
38.2912
 42
0.1075205619
  0
VERTEX
  8
LAYER_7
 10
152.6045
 20
38.4302
 42
0.2370768657
  0
VERTEX
  8
LAYER_7
 10
153.3917
 20
39.4298
 42
0.05602139055
  0
SEQEND
  0
ENDBLK
  0
BLOCK
  8
LAYER_7
  2
AIGNBL07040008
 70
64
 10
0
 20
0
 30
0
  3
AIGNBL07040008
  0
POLYLINE
  8
LAYER_7
 40
0.05
 41
0.05
 66
1
 10
0
 20
0
 30
0
 70
1
  0
VERTEX
  8
LAYER_7
 10
155.4089
 20
41.7225
  0
VERTEX
  8
LAYER_7
 10
155.4089
 20
39.4932
 42
0.114533087
  0
VERTEX
  8
LAYER_7
 10
155.5428
 20
38.8274
 42
0.1464774934
  0
VERTEX
  8
LAYER_7
 10
155.8932
 20
38.4422
 42
0.1362552487
  0
VERTEX
  8
LAYER_7
 10
156.5055
 20
38.2912
 42
0.1219300979
  0
VERTEX
  8
LAYER_7
 10
157.1286
 20
38.4259
 42
0.1503016186
  0
VERTEX
  8
LAYER_7
 10
157.5004
 20
38.7949
 42
0.1256239276
  0
VERTEX
  8
LAYER_7
 10
157.651
 20
39.4932
  0
VERTEX
  8
LAYER_7
 10
157.651
 20
41.7225
  0
VERTEX
  8
LAYER_7
 10
158.2656
 20
41.7225
  0
VERTEX
  8
LAYER_7
 10
158.2656
 20
39.5266
 42
-0.09996665729
  0
VERTEX
  8
LAYER_7
 10
158.1307
 20
38.7839
 42
-0.1215019567
  0
VERTEX
  8
LAYER_7
 10
157.7575
 20
38.2772
 42
-0.1106305922
  0
VERTEX
  8
LAYER_7
 10
157.132
 20
37.9706
 42
-0.06128719854
  0
VERTEX
  8
LAYER_7
 10
156.4845
 20
37.895
 42
-0.0941826643
  0
VERTEX
  8
LAYER_7
 10
155.6654
 20
38.0331
 42
-0.2431541134
  0
VERTEX
  8
LAYER_7
 10
154.8618
 20
38.9438
 42
-0.06321248355
  0
VERTEX
  8
LAYER_7
 10
154.7943
 20
39.5045
  0
VERTEX
  8
LAYER_7
 10
154.7943
 20
41.7225
  0
SEQEND
  0
ENDBLK
  0
BLOCK
  8
LAYER_7
  2
AIGNBL07040009
 70
64
 10
0
 20
0
 30
0
  3
AIGNBL07040009
  0
POLYLINE
  8
LAYER_7
 40
0.05
 41
0.05
 66
1
 10
0
 20
0
 30
0
 70
1
  0
VERTEX
  8
LAYER_7
 10
160.0119
 20
39.1418
  0
VERTEX
  8
LAYER_7
 10
159.5227
 20
37.9567
  0
VERTEX
  8
LAYER_7
 10
158.8947
 20
37.9567
  0
VERTEX
  8
LAYER_7
 10
160.4939
 20
41.7225
  0
VERTEX
  8
LAYER_7
 10
161.227
 20
41.7225
  0
VERTEX
  8
LAYER_7
 10
162.8335
 20
37.9567
  0
VERTEX
  8
LAYER_7
 10
162.1841
 20
37.9567
  0
VERTEX
  8
LAYER_7
 10
161.6814
 20
39.1418
  0
SEQEND
  0
POLYLINE
  8
LAYER_7
 40
0.05
 41
0.05
 66
1
 10
0
 20
0
 30
0
 70
1
  0
VERTEX
  8
LAYER_7
 10
161.5553
 20
39.5207
  0
VERTEX
  8
LAYER_7
 10
161.094
 20
40.6056
  0
VERTEX
  8
LAYER_7
 10
160.8494
 20
41.2926
  0
VERTEX
  8
LAYER_7
 10
160.8357
 20
41.2926
  0
VERTEX
  8
LAYER_7
 10
160.5983
 20
40.6101
  0
VERTEX
  8
LAYER_7
 10
160.1373
 20
39.5207
  0
SEQEND
  0
ENDBLK
  0
BLOCK
  8
LAYER_7
  2
AIGNBL0704000A
 70
64
 10
0
 20
0
 30
0
  3
AIGNBL0704000A
  0
POLYLINE
  8
LAYER_7
 40
0.05
 41
0.05
 66
1
 10
0
 20
0
 30
0
 70
1
  0
VERTEX
  8
LAYER_7
 10
163.8742
 20
41.6777
 42
-0.03245918394
  0
VERTEX
  8
LAYER_7
 10
165.0411
 20
41.7508
 42
-0.08084226265
  0
VERTEX
  8
LAYER_7
 10
165.9975
 20
41.619
 42
-0.07815635113
  0
VERTEX
  8
LAYER_7
 10
166.3609
 20
41.4379
 42
-0.2484709269
  0
VERTEX
  8
LAYER_7
 10
166.7726
 20
40.6497
 42
-0.226147
  0
VERTEX
  8
LAYER_7
 10
166.4095
 20
39.8456
 42
-0.1096895144
  0
VERTEX
  8
LAYER_7
 10
165.7812
 20
39.5323
 42
-0.06565832551
  0
VERTEX
  8
LAYER_7
 10
164.9708
 20
39.4319
 42
-0.06238309955
  0
VERTEX
  8
LAYER_7
 10
164.4823
 20
39.4653
  0
VERTEX
  8
LAYER_7
 10
164.4823
 20
37.9567
  0
VERTEX
  8
LAYER_7
 10
163.8742
 20
37.9567
  0
SEQEND
  0
POLYLINE
  8
LAYER_7
 40
0.05
 41
0.05
 66
1
 10
0
 20
0
 30
0
 70
1
  0
VERTEX
  8
LAYER_7
 10
164.4823
 20
39.8622
 42
0.04203451964
  0
VERTEX
  8
LAYER_7
 10
164.9846
 20
39.8229
 42
0.1032111168
  0
VERTEX
  8
LAYER_7
 10
165.7038
 20
39.9502
 42
0.1555938032
  0
VERTEX
  8
LAYER_7
 10
166.0686
 20
40.2546
 42
0.1352673748
  0
VERTEX
  8
LAYER_7
 10
166.1656
 20
40.6273
 42
0.1737047371
  0
VERTEX
  8
LAYER_7
 10
166.0308
 20
41.0346
 42
0.1517050813
  0
VERTEX
  8
LAYER_7
 10
165.6097
 20
41.2941
 42
0.06879756253
  0
VERTEX
  8
LAYER_7
 10
165.0552
 20
41.3649
 42
0.0634356619
  0
VERTEX
  8
LAYER_7
 10
164.4823
 20
41.3257
  0
SEQEND
  0
ENDBLK
  0
BLOCK
  8
LAYER_7
  2
AIGNBL0704000B
 70
64
 10
0
 20
0
 30
0
  3
AIGNBL0704000B
  0
POLYLINE
  8
LAYER_7
 40
0.05
 41
0.05
 66
1
 10
0
 20
0
 30
0
 70
1
  0
VERTEX
  8
LAYER_7
 10
168.3246
 20
41.4207
 42
-0.2767461975
  0
VERTEX
  8
LAYER_7
 10
168.1851
 20
41.1806
 42
-0.1265294091
  0
VERTEX
  8
LAYER_7
 10
167.9329
 20
41.1189
 42
-0.2237518698
  0
VERTEX
  8
LAYER_7
 10
167.6226
 20
41.2513
 42
-0.1708341408
  0
VERTEX
  8
LAYER_7
 10
167.5626
 20
41.4207
 42
-0.2643879937
  0
VERTEX
  8
LAYER_7
 10
167.712
 20
41.6678
 42
-0.1290073663
  0
VERTEX
  8
LAYER_7
 10
167.9467
 20
41.7277
 42
-0.225342086
  0
VERTEX
  8
LAYER_7
 10
168.2635
 20
41.597
 42
-0.1691136206
  0
SEQEND
  0
POLYLINE
  8
LAYER_7
 40
0.05
 41
0.05
 66
1
 10
0
 20
0
 30
0
 70
1
  0
VERTEX
  8
LAYER_7
 10
167.639
 20
37.9567
  0
VERTEX
  8
LAYER_7
 10
167.639
 20
40.6607
  0
VERTEX
  8
LAYER_7
 10
168.2537
 20
40.6607
  0
VERTEX
  8
LAYER_7
 10
168.2537
 20
37.9567
  0
SEQEND
  0
ENDBLK
  0
BLOCK
  8
LAYER_7
  2
AIGNBL0704000C
 70
64
 10
0
 20
0
 30
0
  3
AIGNBL0704000C
  0
POLYLINE
  8
LAYER_7
 40
0.05
 41
0.05
 66
1
 10
0
 20
0
 30
0
 70
1
  0
VERTEX
  8
LAYER_7
 10
170.1254
 20
39.1418
  0
VERTEX
  8
LAYER_7
 10
169.6372
 20
37.9567
  0
VERTEX
  8
LAYER_7
 10
169.0081
 20
37.9567
  0
VERTEX
  8
LAYER_7
 10
170.6077
 20
41.7225
  0
VERTEX
  8
LAYER_7
 10
171.3415
 20
41.7225
  0
VERTEX
  8
LAYER_7
 10
172.9479
 20
37.9567
  0
VERTEX
  8
LAYER_7
 10
172.2982
 20
37.9567
  0
VERTEX
  8
LAYER_7
 10
171.7955
 20
39.1418
  0
SEQEND
  0
POLYLINE
  8
LAYER_7
 40
0.05
 41
0.05
 66
1
 10
0
 20
0
 30
0
 70
1
  0
VERTEX
  8
LAYER_7
 10
171.6695
 20
39.5207
  0
VERTEX
  8
LAYER_7
 10
171.2085
 20
40.6056
  0
VERTEX
  8
LAYER_7
 10
170.9646
 20
41.2926
  0
VERTEX
  8
LAYER_7
 10
170.9498
 20
41.2926
  0
VERTEX
  8
LAYER_7
 10
170.7128
 20
40.6101
  0
VERTEX
  8
LAYER_7
 10
170.2518
 20
39.5207
  0
SEQEND
  0
ENDBLK
  0
BLOCK
  8
LAYER_7
  2
AIGNBL07030005
 70
64
 10
0
 20
0
 30
0
  3
AIGNBL07030005
  0
INSERT
  8
LAYER_7
  2
AIGNBL07040006
 10
0
 20
0
 30
0
  0
INSERT
  8
LAYER_7
  2
AIGNBL07040007
 10
0
 20
0
 30
0
  0
INSERT
  8
LAYER_7
  2
AIGNBL07040008
 10
0
 20
0
 30
0
  0
INSERT
  8
LAYER_7
  2
AIGNBL07040009
 10
0
 20
0
 30
0
  0
INSERT
  8
LAYER_7
  2
AIGNBL0704000A
 10
0
 20
0
 30
0
  0
INSERT
  8
LAYER_7
  2
AIGNBL0704000B
 10
0
 20
0
 30
0
  0
INSERT
  8
LAYER_7
  2
AIGNBL0704000C
 10
0
 20
0
 30
0
  0
ENDBLK
  0
BLOCK
  8
LAYER_7
  2
AIGNBL0703000E
 70
64
 10
0
 20
0
 30
0
  3
AIGNBL0703000E
  0
POLYLINE
  8
LAYER_7
 40
0.05
 41
0.05
 66
1
 10
0
 20
0
 30
0
 70
1
  0
VERTEX
  8
LAYER_7
 10
145.7475
 20
36.0574
  0
VERTEX
  8
LAYER_7
 10
146.3008
 20
36.0574
  0
VERTEX
  8
LAYER_7
 10
146.3008
 20
35.9637
  0
VERTEX
  8
LAYER_7
 10
145.6424
 20
35.9637
  0
VERTEX
  8
LAYER_7
 10
145.6424
 20
36.9969
  0
VERTEX
  8
LAYER_7
 10
146.2832
 20
36.9969
  0
VERTEX
  8
LAYER_7
 10
146.2832
 20
36.9035
  0
VERTEX
  8
LAYER_7
 10
145.7475
 20
36.9035
  0
VERTEX
  8
LAYER_7
 10
145.7475
 20
36.549
  0
VERTEX
  8
LAYER_7
 10
146.2481
 20
36.549
  0
VERTEX
  8
LAYER_7
 10
146.2481
 20
36.4557
  0
VERTEX
  8
LAYER_7
 10
145.7475
 20
36.4557
  0
SEQEND
  0
ENDBLK
  0
BLOCK
  8
LAYER_7
  2
AIGNBL0703000F
 70
64
 10
0
 20
0
 30
0
  3
AIGNBL0703000F
  0
POLYLINE
  8
LAYER_7
 40
0.05
 41
0.05
 66
1
 10
0
 20
0
 30
0
 70
1
  0
VERTEX
  8
LAYER_7
 10
147.4404
 20
36.117
  0
VERTEX
  8
LAYER_7
 10
147.4432
 20
36.117
  0
VERTEX
  8
LAYER_7
 10
147.4432
 20
36.9969
  0
VERTEX
  8
LAYER_7
 10
147.5483
 20
36.9969
  0
VERTEX
  8
LAYER_7
 10
147.5483
 20
35.9637
  0
VERTEX
  8
LAYER_7
 10
147.4174
 20
35.9637
  0
VERTEX
  8
LAYER_7
 10
146.8162
 20
36.8525
  0
VERTEX
  8
LAYER_7
 10
146.8127
 20
36.8525
  0
VERTEX
  8
LAYER_7
 10
146.8127
 20
35.9637
  0
VERTEX
  8
LAYER_7
 10
146.708
 20
35.9637
  0
VERTEX
  8
LAYER_7
 10
146.708
 20
36.9969
  0
VERTEX
  8
LAYER_7
 10
146.8393
 20
36.9969
  0
SEQEND
  0
ENDBLK
  0
BLOCK
  8
LAYER_7
  2
AIGNBL07030010
 70
64
 10
0
 20
0
 30
0
  3
AIGNBL07030010
  0
POLYLINE
  8
LAYER_7
 40
0.05
 41
0.05
 66
1
 10
0
 20
0
 30
0
 70
1
  0
VERTEX
  8
LAYER_7
 10
148.0213
 20
36.1756
  0
VERTEX
  8
LAYER_7
 10
148.0757
 20
36.0725
 42
0.1803975231
  0
VERTEX
  8
LAYER_7
 10
148.1891
 20
36.0309
  0
VERTEX
  8
LAYER_7
 10
148.2783
 20
36.0505
  0
VERTEX
  8
LAYER_7
 10
148.3344
 20
36.1039
  0
VERTEX
  8
LAYER_7
 10
148.3634
 20
36.1804
  0
VERTEX
  8
LAYER_7
 10
148.3717
 20
36.27
  0
VERTEX
  8
LAYER_7
 10
148.3717
 20
36.9969
  0
VERTEX
  8
LAYER_7
 10
148.4767
 20
36.9969
  0
VERTEX
  8
LAYER_7
 10
148.4767
 20
36.2614
  0
VERTEX
  8
LAYER_7
 10
148.4654
 20
36.1535
  0
VERTEX
  8
LAYER_7
 10
148.424
 20
36.0485
  0
VERTEX
  8
LAYER_7
 10
148.3393
 20
35.9689
  0
VERTEX
  8
LAYER_7
 10
148.2004
 20
35.9375
 42
-0.1845231376
  0
VERTEX
  8
LAYER_7
 10
148.0158
 20
35.9974
 42
-0.1765285731
  0
VERTEX
  8
LAYER_7
 10
147.9234
 20
36.149
  0
SEQEND
  0
ENDBLK
  0
BLOCK
  8
LAYER_7
  2
AIGNBL07030011
 70
64
 10
0
 20
0
 30
0
  3
AIGNBL07030011
  0
POLYLINE
  8
LAYER_7
 40
0.05
 41
0.05
 66
1
 10
0
 20
0
 30
0
 70
1
  0
VERTEX
  8
LAYER_7
 10
149.965
 20
36.4805
 42
-0.1041417444
  0
VERTEX
  8
LAYER_7
 10
149.924
 20
36.2631
 42
-0.10057123
  0
VERTEX
  8
LAYER_7
 10
149.8113
 20
36.0915
  0
VERTEX
  8
LAYER_7
 10
149.6405
 20
35.9785
 42
-0.0950295922
  0
VERTEX
  8
LAYER_7
 10
149.4265
 20
35.9375
 42
-0.1010765979
  0
VERTEX
  8
LAYER_7
 10
149.2129
 20
35.9785
 42
-0.1000570207
  0
VERTEX
  8
LAYER_7
 10
149.042
 20
36.0915
 42
-0.09442769366
  0
VERTEX
  8
LAYER_7
 10
148.9287
 20
36.2631
 42
-0.09293305267
  0
VERTEX
  8
LAYER_7
 10
148.8881
 20
36.4805
 42
-0.1024980643
  0
VERTEX
  8
LAYER_7
 10
148.9287
 20
36.6978
 42
-0.1008832254
  0
VERTEX
  8
LAYER_7
 10
149.042
 20
36.8694
 42
-0.09625117665
  0
VERTEX
  8
LAYER_7
 10
149.2129
 20
36.9824
 42
-0.0952064105
  0
VERTEX
  8
LAYER_7
 10
149.4265
 20
37.0234
 42
-0.1012184087
  0
VERTEX
  8
LAYER_7
 10
149.6405
 20
36.9824
 42
-0.09890806396
  0
VERTEX
  8
LAYER_7
 10
149.8113
 20
36.8694
 42
-0.09577200427
  0
VERTEX
  8
LAYER_7
 10
149.924
 20
36.6978
 42
-0.09400765476
  0
SEQEND
  0
POLYLINE
  8
LAYER_7
 40
0.05
 41
0.05
 66
1
 10
0
 20
0
 30
0
 70
1
  0
VERTEX
  8
LAYER_7
 10
149.8541
 20
36.4798
  0
VERTEX
  8
LAYER_7
 10
149.8251
 20
36.6517
  0
VERTEX
  8
LAYER_7
 10
149.7404
 20
36.795
  0
VERTEX
  8
LAYER_7
 10
149.6053
 20
36.8932
  0
VERTEX
  8
LAYER_7
 10
149.4265
 20
36.93
  0
VERTEX
  8
LAYER_7
 10
149.2478
 20
36.8932
  0
VERTEX
  8
LAYER_7
 10
149.113
 20
36.795
  0
VERTEX
  8
LAYER_7
 10
149.0283
 20
36.6517
  0
VERTEX
  8
LAYER_7
 10
148.999
 20
36.4798
  0
VERTEX
  8
LAYER_7
 10
149.0283
 20
36.3079
  0
VERTEX
  8
LAYER_7
 10
149.113
 20
36.1649
  0
VERTEX
  8
LAYER_7
 10
149.2478
 20
36.0674
 42
0.1008814383
  0
VERTEX
  8
LAYER_7
 10
149.4265
 20
36.0309
 42
0.1157330551
  0
VERTEX
  8
LAYER_7
 10
149.6053
 20
36.0674
  0
VERTEX
  8
LAYER_7
 10
149.7404
 20
36.1649
  0
VERTEX
  8
LAYER_7
 10
149.8251
 20
36.3079
  0
SEQEND
  0
ENDBLK
  0
BLOCK
  8
LAYER_7
  2
AIGNBL07030012
 70
64
 10
0
 20
0
 30
0
  3
AIGNBL07030012
  0
POLYLINE
  8
LAYER_7
 40
0.05
 41
0.05
 66
1
 10
0
 20
0
 30
0
 70
1
  0
VERTEX
  8
LAYER_7
 10
150.7398
 20
35.9637
  0
VERTEX
  8
LAYER_7
 10
150.6351
 20
35.9637
  0
VERTEX
  8
LAYER_7
 10
150.6351
 20
36.4091
  0
VERTEX
  8
LAYER_7
 10
150.2482
 20
36.9969
  0
VERTEX
  8
LAYER_7
 10
150.3795
 20
36.9969
  0
VERTEX
  8
LAYER_7
 10
150.6905
 20
36.4967
  0
VERTEX
  8
LAYER_7
 10
151.0041
 20
36.9969
  0
VERTEX
  8
LAYER_7
 10
151.1263
 20
36.9969
  0
VERTEX
  8
LAYER_7
 10
150.7398
 20
36.4091
  0
SEQEND
  0
ENDBLK
  0
BLOCK
  8
LAYER_7
  2
AIGNBL07030013
 70
64
 10
0
 20
0
 30
0
  3
AIGNBL07030013
  0
POLYLINE
  8
LAYER_7
 40
0.05
 41
0.05
 66
1
 10
0
 20
0
 30
0
 70
1
  0
VERTEX
  8
LAYER_7
 10
152.0314
 20
36.9969
  0
VERTEX
  8
LAYER_7
 10
152.339
 20
36.9969
  0
VERTEX
  8
LAYER_7
 10
152.4575
 20
36.9845
  0
VERTEX
  8
LAYER_7
 10
152.5643
 20
36.9421
  0
VERTEX
  8
LAYER_7
 10
152.6422
 20
36.8611
  0
VERTEX
  8
LAYER_7
 10
152.6718
 20
36.733
 42
-0.1790346201
  0
VERTEX
  8
LAYER_7
 10
152.6219
 20
36.5907
 42
-0.1642933266
  0
VERTEX
  8
LAYER_7
 10
152.4885
 20
36.5111
  0
VERTEX
  8
LAYER_7
 10
152.4885
 20
36.5084
 42
-0.1735805246
  0
VERTEX
  8
LAYER_7
 10
152.6553
 20
36.4302
 42
-0.1921994171
  0
VERTEX
  8
LAYER_7
 10
152.7214
 20
36.2496
  0
VERTEX
  8
LAYER_7
 10
152.6942
 20
36.1325
  0
VERTEX
  8
LAYER_7
 10
152.6181
 20
36.0419
  0
VERTEX
  8
LAYER_7
 10
152.4972
 20
35.9844
  0
VERTEX
  8
LAYER_7
 10
152.3373
 20
35.9637
  0
VERTEX
  8
LAYER_7
 10
152.0314
 20
35.9637
  0
SEQEND
  0
POLYLINE
  8
LAYER_7
 40
0.05
 41
0.05
 66
1
 10
0
 20
0
 30
0
 70
1
  0
VERTEX
  8
LAYER_7
 10
152.1364
 20
36.5445
  0
VERTEX
  8
LAYER_7
 10
152.348
 20
36.5445
  0
VERTEX
  8
LAYER_7
 10
152.4248
 20
36.5535
  0
VERTEX
  8
LAYER_7
 10
152.4951
 20
36.5831
  0
VERTEX
  8
LAYER_7
 10
152.5471
 20
36.6396
  0
VERTEX
  8
LAYER_7
 10
152.5668
 20
36.7258
  0
VERTEX
  8
LAYER_7
 10
152.5471
 20
36.8095
  0
VERTEX
  8
LAYER_7
 10
152.494
 20
36.8656
  0
VERTEX
  8
LAYER_7
 10
152.4152
 20
36.897
  0
VERTEX
  8
LAYER_7
 10
152.3187
 20
36.9066
  0
VERTEX
  8
LAYER_7
 10
152.1364
 20
36.9066
  0
SEQEND
  0
POLYLINE
  8
LAYER_7
 40
0.05
 41
0.05
 66
1
 10
0
 20
0
 30
0
 70
1
  0
VERTEX
  8
LAYER_7
 10
152.1364
 20
36.0543
  0
VERTEX
  8
LAYER_7
 10
152.3321
 20
36.0543
  0
VERTEX
  8
LAYER_7
 10
152.4406
 20
36.0653
  0
VERTEX
  8
LAYER_7
 10
152.5313
 20
36.1001
  0
VERTEX
  8
LAYER_7
 10
152.5929
 20
36.1632
  0
VERTEX
  8
LAYER_7
 10
152.6164
 20
36.2559
 42
0.2557371221
  0
VERTEX
  8
LAYER_7
 10
152.5471
 20
36.4081
 42
0.1381508151
  0
VERTEX
  8
LAYER_7
 10
152.3511
 20
36.4584
  0
VERTEX
  8
LAYER_7
 10
152.1364
 20
36.4584
  0
SEQEND
  0
ENDBLK
  0
BLOCK
  8
LAYER_7
  2
AIGNBL07030014
 70
64
 10
0
 20
0
 30
0
  3
AIGNBL07030014
  0
POLYLINE
  8
LAYER_7
 40
0.05
 41
0.05
 66
1
 10
0
 20
0
 30
0
 70
1
  0
VERTEX
  8
LAYER_7
 10
153.1534
 20
35.9637
  0
VERTEX
  8
LAYER_7
 10
153.038
 20
35.9637
  0
VERTEX
  8
LAYER_7
 10
153.4849
 20
36.9969
  0
VERTEX
  8
LAYER_7
 10
153.5872
 20
36.9969
  0
VERTEX
  8
LAYER_7
 10
154.0306
 20
35.9637
  0
VERTEX
  8
LAYER_7
 10
153.9138
 20
35.9637
  0
VERTEX
  8
LAYER_7
 10
153.7997
 20
36.2352
  0
VERTEX
  8
LAYER_7
 10
153.2657
 20
36.2352
  0
SEQEND
  0
POLYLINE
  8
LAYER_7
 40
0.05
 41
0.05
 66
1
 10
0
 20
0
 30
0
 70
1
  0
VERTEX
  8
LAYER_7
 10
153.305
 20
36.3316
  0
VERTEX
  8
LAYER_7
 10
153.7604
 20
36.3316
  0
VERTEX
  8
LAYER_7
 10
153.5327
 20
36.8804
  0
SEQEND
  0
ENDBLK
  0
BLOCK
  8
LAYER_7
  2
AIGNBL07030015
 70
64
 10
0
 20
0
 30
0
  3
AIGNBL07030015
  0
POLYLINE
  8
LAYER_7
 40
0.05
 41
0.05
 66
1
 10
0
 20
0
 30
0
 70
1
  0
VERTEX
  8
LAYER_7
 10
154.7151
 20
35.9637
  0
VERTEX
  8
LAYER_7
 10
154.61
 20
35.9637
  0
VERTEX
  8
LAYER_7
 10
154.61
 20
36.9035
  0
VERTEX
  8
LAYER_7
 10
154.2638
 20
36.9035
  0
VERTEX
  8
LAYER_7
 10
154.2638
 20
36.9969
  0
VERTEX
  8
LAYER_7
 10
155.0606
 20
36.9969
  0
VERTEX
  8
LAYER_7
 10
155.0606
 20
36.9035
  0
VERTEX
  8
LAYER_7
 10
154.7151
 20
36.9035
  0
SEQEND
  0
ENDBLK
  0
BLOCK
  8
LAYER_7
  2
AIGNBL07030016
 70
64
 10
0
 20
0
 30
0
  3
AIGNBL07030016
  0
POLYLINE
  8
LAYER_7
 40
0.05
 41
0.05
 66
1
 10
0
 20
0
 30
0
 70
1
  0
VERTEX
  8
LAYER_7
 10
155.4169
 20
36.9969
  0
VERTEX
  8
LAYER_7
 10
155.5216
 20
36.9969
  0
VERTEX
  8
LAYER_7
 10
155.5216
 20
36.549
  0
VERTEX
  8
LAYER_7
 10
156.0852
 20
36.549
  0
VERTEX
  8
LAYER_7
 10
156.0852
 20
36.9969
  0
VERTEX
  8
LAYER_7
 10
156.1903
 20
36.9969
  0
VERTEX
  8
LAYER_7
 10
156.1903
 20
35.9637
  0
VERTEX
  8
LAYER_7
 10
156.0852
 20
35.9637
  0
VERTEX
  8
LAYER_7
 10
156.0852
 20
36.4529
  0
VERTEX
  8
LAYER_7
 10
155.5216
 20
36.4529
  0
VERTEX
  8
LAYER_7
 10
155.5216
 20
35.9637
  0
VERTEX
  8
LAYER_7
 10
155.4169
 20
35.9637
  0
SEQEND
  0
ENDBLK
  0
BLOCK
  8
LAYER_7
  2
AIGNBL07030017
 70
64
 10
0
 20
0
 30
0
  3
AIGNBL07030017
  0
POLYLINE
  8
LAYER_7
 40
0.05
 41
0.05
 66
1
 10
0
 20
0
 30
0
 70
1
  0
VERTEX
  8
LAYER_7
 10
156.7708
 20
35.9637
  0
VERTEX
  8
LAYER_7
 10
156.6657
 20
35.9637
  0
VERTEX
  8
LAYER_7
 10
156.6657
 20
36.9969
  0
VERTEX
  8
LAYER_7
 10
156.9696
 20
36.9969
  0
VERTEX
  8
LAYER_7
 10
157.1101
 20
36.9824
  0
VERTEX
  8
LAYER_7
 10
157.2228
 20
36.9349
  0
VERTEX
  8
LAYER_7
 10
157.2962
 20
36.8494
  0
VERTEX
  8
LAYER_7
 10
157.3223
 20
36.7213
  0
VERTEX
  8
LAYER_7
 10
157.3024
 20
36.6176
  0
VERTEX
  8
LAYER_7
 10
157.2469
 20
36.5366
  0
VERTEX
  8
LAYER_7
 10
157.1635
 20
36.4818
  0
VERTEX
  8
LAYER_7
 10
157.0585
 20
36.4557
  0
VERTEX
  8
LAYER_7
 10
157.3606
 20
35.9637
  0
VERTEX
  8
LAYER_7
 10
157.2321
 20
35.9637
  0
VERTEX
  8
LAYER_7
 10
156.9461
 20
36.4467
  0
VERTEX
  8
LAYER_7
 10
156.7708
 20
36.4467
  0
SEQEND
  0
POLYLINE
  8
LAYER_7
 40
0.05
 41
0.05
 66
1
 10
0
 20
0
 30
0
 70
1
  0
VERTEX
  8
LAYER_7
 10
156.7708
 20
36.5373
  0
VERTEX
  8
LAYER_7
 10
156.9534
 20
36.5373
 42
0.165389034
  0
VERTEX
  8
LAYER_7
 10
157.1491
 20
36.5831
 42
0.2500512188
  0
VERTEX
  8
LAYER_7
 10
157.2176
 20
36.7213
  0
VERTEX
  8
LAYER_7
 10
157.1983
 20
36.8071
  0
VERTEX
  8
LAYER_7
 10
157.146
 20
36.8643
  0
VERTEX
  8
LAYER_7
 10
157.0643
 20
36.8963
  0
VERTEX
  8
LAYER_7
 10
156.9578
 20
36.9066
  0
VERTEX
  8
LAYER_7
 10
156.7708
 20
36.9066
  0
SEQEND
  0
ENDBLK
  0
BLOCK
  8
LAYER_7
  2
AIGNBL07030018
 70
64
 10
0
 20
0
 30
0
  3
AIGNBL07030018
  0
POLYLINE
  8
LAYER_7
 40
0.05
 41
0.05
 66
1
 10
0
 20
0
 30
0
 70
1
  0
VERTEX
  8
LAYER_7
 10
158.7627
 20
36.4805
 42
-0.1007216321
  0
VERTEX
  8
LAYER_7
 10
158.7221
 20
36.2631
 42
-0.1006914115
  0
VERTEX
  8
LAYER_7
 10
158.6087
 20
36.0915
 42
-0.09598545762
  0
VERTEX
  8
LAYER_7
 10
158.4382
 20
35.9785
 42
-0.09506675375
  0
VERTEX
  8
LAYER_7
 10
158.2243
 20
35.9375
 42
-0.1012083438
  0
VERTEX
  8
LAYER_7
 10
158.0103
 20
35.9785
 42
-0.1000476754
  0
VERTEX
  8
LAYER_7
 10
157.8398
 20
36.0915
 42
-0.09637642458
  0
VERTEX
  8
LAYER_7
 10
157.7268
 20
36.2631
 42
-0.09293305267
  0
VERTEX
  8
LAYER_7
 10
157.6862
 20
36.4805
 42
-0.1024980643
  0
VERTEX
  8
LAYER_7
 10
157.7268
 20
36.6978
 42
-0.101511181
  0
VERTEX
  8
LAYER_7
 10
157.8398
 20
36.8694
 42
-0.09563682649
  0
VERTEX
  8
LAYER_7
 10
158.0103
 20
36.9824
 42
-0.09502028874
  0
VERTEX
  8
LAYER_7
 10
158.2243
 20
37.0234
 42
-0.101175466
  0
VERTEX
  8
LAYER_7
 10
158.4382
 20
36.9824
 42
-0.1020868526
  0
VERTEX
  8
LAYER_7
 10
158.6087
 20
36.8694
 42
-0.09463764759
  0
VERTEX
  8
LAYER_7
 10
158.7221
 20
36.6978
 42
-0.09279149058
  0
SEQEND
  0
POLYLINE
  8
LAYER_7
 40
0.05
 41
0.05
 66
1
 10
0
 20
0
 30
0
 70
1
  0
VERTEX
  8
LAYER_7
 10
158.6518
 20
36.4798
  0
VERTEX
  8
LAYER_7
 10
158.6225
 20
36.6517
  0
VERTEX
  8
LAYER_7
 10
158.5378
 20
36.795
  0
VERTEX
  8
LAYER_7
 10
158.4031
 20
36.8932
  0
VERTEX
  8
LAYER_7
 10
158.2243
 20
36.93
  0
VERTEX
  8
LAYER_7
 10
158.0455
 20
36.8932
  0
VERTEX
  8
LAYER_7
 10
157.9104
 20
36.795
  0
VERTEX
  8
LAYER_7
 10
157.8257
 20
36.6517
  0
VERTEX
  8
LAYER_7
 10
157.7968
 20
36.4798
  0
VERTEX
  8
LAYER_7
 10
157.8257
 20
36.3079
  0
VERTEX
  8
LAYER_7
 10
157.9104
 20
36.1649
  0
VERTEX
  8
LAYER_7
 10
158.0455
 20
36.0674
 42
0.1008280473
  0
VERTEX
  8
LAYER_7
 10
158.2243
 20
36.0309
  0
VERTEX
  8
LAYER_7
 10
158.4031
 20
36.0674
  0
VERTEX
  8
LAYER_7
 10
158.5378
 20
36.1649
  0
VERTEX
  8
LAYER_7
 10
158.6225
 20
36.3079
  0
SEQEND
  0
ENDBLK
  0
BLOCK
  8
LAYER_7
  2
AIGNBL07030019
 70
64
 10
0
 20
0
 30
0
  3
AIGNBL07030019
  0
POLYLINE
  8
LAYER_7
 40
0.05
 41
0.05
 66
1
 10
0
 20
0
 30
0
 70
1
  0
VERTEX
  8
LAYER_7
 10
160.2045
 20
36.4805
 42
-0.1041417444
  0
VERTEX
  8
LAYER_7
 10
160.1635
 20
36.2631
 42
-0.09974098701
  0
VERTEX
  8
LAYER_7
 10
160.0509
 20
36.0915
 42
-0.09536265516
  0
VERTEX
  8
LAYER_7
 10
159.88
 20
35.9785
 42
-0.09506675375
  0
VERTEX
  8
LAYER_7
 10
159.6661
 20
35.9375
 42
-0.1018653774
  0
VERTEX
  8
LAYER_7
 10
159.4524
 20
35.9785
 42
-0.1019766254
  0
VERTEX
  8
LAYER_7
 10
159.2816
 20
36.0915
 42
-0.09463339148
  0
VERTEX
  8
LAYER_7
 10
159.1682
 20
36.2631
 42
-0.09293305267
  0
VERTEX
  8
LAYER_7
 10
159.1276
 20
36.4805
 42
-0.1024980643
  0
VERTEX
  8
LAYER_7
 10
159.1682
 20
36.6978
 42
-0.1011981835
  0
VERTEX
  8
LAYER_7
 10
159.2816
 20
36.8694
 42
-0.09612009159
  0
VERTEX
  8
LAYER_7
 10
159.4524
 20
36.9824
 42
-0.09524800311
  0
VERTEX
  8
LAYER_7
 10
159.6661
 20
37.0234
 42
-0.101175466
  0
VERTEX
  8
LAYER_7
 10
159.88
 20
36.9824
 42
-0.09853409661
  0
VERTEX
  8
LAYER_7
 10
160.0509
 20
36.8694
 42
-0.09555545285
  0
VERTEX
  8
LAYER_7
 10
160.1635
 20
36.6978
 42
-0.09400765476
  0
SEQEND
  0
POLYLINE
  8
LAYER_7
 40
0.05
 41
0.05
 66
1
 10
0
 20
0
 30
0
 70
1
  0
VERTEX
  8
LAYER_7
 10
160.0936
 20
36.4798
  0
VERTEX
  8
LAYER_7
 10
160.0647
 20
36.6517
  0
VERTEX
  8
LAYER_7
 10
159.9799
 20
36.795
  0
VERTEX
  8
LAYER_7
 10
159.8448
 20
36.8932
  0
VERTEX
  8
LAYER_7
 10
159.6661
 20
36.93
  0
VERTEX
  8
LAYER_7
 10
159.4872
 20
36.8932
  0
VERTEX
  8
LAYER_7
 10
159.3525
 20
36.795
  0
VERTEX
  8
LAYER_7
 10
159.2678
 20
36.6517
  0
VERTEX
  8
LAYER_7
 10
159.2385
 20
36.4798
  0
VERTEX
  8
LAYER_7
 10
159.2678
 20
36.3079
  0
VERTEX
  8
LAYER_7
 10
159.3525
 20
36.1649
  0
VERTEX
  8
LAYER_7
 10
159.4872
 20
36.0674
  0
VERTEX
  8
LAYER_7
 10
159.6661
 20
36.0309
  0
VERTEX
  8
LAYER_7
 10
159.8448
 20
36.0674
  0
VERTEX
  8
LAYER_7
 10
159.9799
 20
36.1649
  0
VERTEX
  8
LAYER_7
 10
160.0647
 20
36.3079
  0
SEQEND
  0
ENDBLK
  0
BLOCK
  8
LAYER_7
  2
AIGNBL0703001A
 70
64
 10
0
 20
0
 30
0
  3
AIGNBL0703001A
  0
POLYLINE
  8
LAYER_7
 40
0.05
 41
0.05
 66
1
 10
0
 20
0
 30
0
 70
1
  0
VERTEX
  8
LAYER_7
 10
161.1354
 20
36.1418
  0
VERTEX
  8
LAYER_7
 10
161.1371
 20
36.1418
  0
VERTEX
  8
LAYER_7
 10
161.4826
 20
36.9969
  0
VERTEX
  8
LAYER_7
 10
161.6435
 20
36.9969
  0
VERTEX
  8
LAYER_7
 10
161.6435
 20
35.9637
  0
VERTEX
  8
LAYER_7
 10
161.5381
 20
35.9637
  0
VERTEX
  8
LAYER_7
 10
161.5381
 20
36.8611
  0
VERTEX
  8
LAYER_7
 10
161.5354
 20
36.8611
  0
VERTEX
  8
LAYER_7
 10
161.1619
 20
35.9637
  0
VERTEX
  8
LAYER_7
 10
161.1064
 20
35.9637
  0
VERTEX
  8
LAYER_7
 10
160.7326
 20
36.8611
  0
VERTEX
  8
LAYER_7
 10
160.7299
 20
36.8611
  0
VERTEX
  8
LAYER_7
 10
160.7299
 20
35.9637
  0
VERTEX
  8
LAYER_7
 10
160.6248
 20
35.9637
  0
VERTEX
  8
LAYER_7
 10
160.6248
 20
36.9969
  0
VERTEX
  8
LAYER_7
 10
160.7853
 20
36.9969
  0
SEQEND
  0
ENDBLK
  0
BLOCK
  8
LAYER_7
  2
AIGNBL0703001B
 70
64
 10
0
 20
0
 30
0
  3
AIGNBL0703001B
  0
POLYLINE
  8
LAYER_7
 40
0.05
 41
0.05
 66
1
 10
0
 20
0
 30
0
 70
1
  0
VERTEX
  8
LAYER_7
 10
162.79
 20
36.0574
  0
VERTEX
  8
LAYER_7
 10
163.3433
 20
36.0574
  0
VERTEX
  8
LAYER_7
 10
163.3433
 20
35.9637
  0
VERTEX
  8
LAYER_7
 10
162.685
 20
35.9637
  0
VERTEX
  8
LAYER_7
 10
162.685
 20
36.9969
  0
VERTEX
  8
LAYER_7
 10
163.3258
 20
36.9969
  0
VERTEX
  8
LAYER_7
 10
163.3258
 20
36.9035
  0
VERTEX
  8
LAYER_7
 10
162.79
 20
36.9035
  0
VERTEX
  8
LAYER_7
 10
162.79
 20
36.549
  0
VERTEX
  8
LAYER_7
 10
163.2906
 20
36.549
  0
VERTEX
  8
LAYER_7
 10
163.2906
 20
36.4557
  0
VERTEX
  8
LAYER_7
 10
162.79
 20
36.4557
  0
SEQEND
  0
ENDBLK
  0
BLOCK
  8
LAYER_7
  2
AIGNBL0703001C
 70
64
 10
0
 20
0
 30
0
  3
AIGNBL0703001C
  0
POLYLINE
  8
LAYER_7
 40
0.05
 41
0.05
 66
1
 10
0
 20
0
 30
0
 70
1
  0
VERTEX
  8
LAYER_7
 10
164.0885
 20
36.5797
  0
VERTEX
  8
LAYER_7
 10
164.3707
 20
36.9969
  0
VERTEX
  8
LAYER_7
 10
164.4957
 20
36.9969
  0
VERTEX
  8
LAYER_7
 10
164.1533
 20
36.5053
  0
VERTEX
  8
LAYER_7
 10
164.5326
 20
35.9637
  0
VERTEX
  8
LAYER_7
 10
164.4013
 20
35.9637
  0
VERTEX
  8
LAYER_7
 10
164.0858
 20
36.4295
  0
VERTEX
  8
LAYER_7
 10
163.7722
 20
35.9637
  0
VERTEX
  8
LAYER_7
 10
163.6407
 20
35.9637
  0
VERTEX
  8
LAYER_7
 10
164.0203
 20
36.5066
  0
VERTEX
  8
LAYER_7
 10
163.6744
 20
36.9969
  0
VERTEX
  8
LAYER_7
 10
163.806
 20
36.9969
  0
SEQEND
  0
ENDBLK
  0
BLOCK
  8
LAYER_7
  2
AIGNBL0703001D
 70
64
 10
0
 20
0
 30
0
  3
AIGNBL0703001D
  0
POLYLINE
  8
LAYER_7
 40
0.05
 41
0.05
 66
1
 10
0
 20
0
 30
0
 70
1
  0
VERTEX
  8
LAYER_7
 10
164.8988
 20
36.9969
  0
VERTEX
  8
LAYER_7
 10
165.1909
 20
36.9969
  0
VERTEX
  8
LAYER_7
 10
165.3339
 20
36.9804
  0
VERTEX
  8
LAYER_7
 10
165.4438
 20
36.929
  0
VERTEX
  8
LAYER_7
 10
165.5148
 20
36.8429
  0
VERTEX
  8
LAYER_7
 10
165.5392
 20
36.7213
  0
VERTEX
  8
LAYER_7
 10
165.5141
 20
36.5993
  0
VERTEX
  8
LAYER_7
 10
165.4424
 20
36.5132
  0
VERTEX
  8
LAYER_7
 10
165.3315
 20
36.4615
  0
VERTEX
  8
LAYER_7
 10
165.1878
 20
36.444
  0
VERTEX
  8
LAYER_7
 10
165.0039
 20
36.444
  0
VERTEX
  8
LAYER_7
 10
165.0039
 20
35.9637
  0
VERTEX
  8
LAYER_7
 10
164.8988
 20
35.9637
  0
SEQEND
  0
POLYLINE
  8
LAYER_7
 40
0.05
 41
0.05
 66
1
 10
0
 20
0
 30
0
 70
1
  0
VERTEX
  8
LAYER_7
 10
165.0039
 20
36.5328
  0
VERTEX
  8
LAYER_7
 10
165.1816
 20
36.5328
 42
0.1829732243
  0
VERTEX
  8
LAYER_7
 10
165.3701
 20
36.581
 42
0.2345943979
  0
VERTEX
  8
LAYER_7
 10
165.4345
 20
36.7213
 42
0.26486771
  0
VERTEX
  8
LAYER_7
 10
165.368
 20
36.8622
 42
0.126412566
  0
VERTEX
  8
LAYER_7
 10
165.1816
 20
36.9066
  0
VERTEX
  8
LAYER_7
 10
165.0039
 20
36.9066
  0
SEQEND
  0
ENDBLK
  0
BLOCK
  8
LAYER_7
  2
AIGNBL0703001E
 70
64
 10
0
 20
0
 30
0
  3
AIGNBL0703001E
  0
POLYLINE
  8
LAYER_7
 40
0.05
 41
0.05
 66
1
 10
0
 20
0
 30
0
 70
1
  0
VERTEX
  8
LAYER_7
 10
166.0515
 20
36.0574
  0
VERTEX
  8
LAYER_7
 10
166.6048
 20
36.0574
  0
VERTEX
  8
LAYER_7
 10
166.6048
 20
35.9637
  0
VERTEX
  8
LAYER_7
 10
165.9465
 20
35.9637
  0
VERTEX
  8
LAYER_7
 10
165.9465
 20
36.9969
  0
VERTEX
  8
LAYER_7
 10
166.5872
 20
36.9969
  0
VERTEX
  8
LAYER_7
 10
166.5872
 20
36.9035
  0
VERTEX
  8
LAYER_7
 10
166.0515
 20
36.9035
  0
VERTEX
  8
LAYER_7
 10
166.0515
 20
36.549
  0
VERTEX
  8
LAYER_7
 10
166.5521
 20
36.549
  0
VERTEX
  8
LAYER_7
 10
166.5521
 20
36.4557
  0
VERTEX
  8
LAYER_7
 10
166.0515
 20
36.4557
  0
SEQEND
  0
ENDBLK
  0
BLOCK
  8
LAYER_7
  2
AIGNBL0703001F
 70
64
 10
0
 20
0
 30
0
  3
AIGNBL0703001F
  0
POLYLINE
  8
LAYER_7
 40
0.05
 41
0.05
 66
1
 10
0
 20
0
 30
0
 70
1
  0
VERTEX
  8
LAYER_7
 10
167.1168
 20
35.9637
  0
VERTEX
  8
LAYER_7
 10
167.0117
 20
35.9637
  0
VERTEX
  8
LAYER_7
 10
167.0117
 20
36.9969
  0
VERTEX
  8
LAYER_7
 10
167.3155
 20
36.9969
  0
VERTEX
  8
LAYER_7
 10
167.4561
 20
36.9824
  0
VERTEX
  8
LAYER_7
 10
167.5687
 20
36.9349
  0
VERTEX
  8
LAYER_7
 10
167.6425
 20
36.8494
  0
VERTEX
  8
LAYER_7
 10
167.6683
 20
36.7213
  0
VERTEX
  8
LAYER_7
 10
167.6483
 20
36.6176
  0
VERTEX
  8
LAYER_7
 10
167.5929
 20
36.5366
  0
VERTEX
  8
LAYER_7
 10
167.5095
 20
36.4818
  0
VERTEX
  8
LAYER_7
 10
167.4044
 20
36.4557
  0
VERTEX
  8
LAYER_7
 10
167.7066
 20
35.9637
  0
VERTEX
  8
LAYER_7
 10
167.578
 20
35.9637
  0
VERTEX
  8
LAYER_7
 10
167.2921
 20
36.4467
  0
VERTEX
  8
LAYER_7
 10
167.1168
 20
36.4467
  0
SEQEND
  0
POLYLINE
  8
LAYER_7
 40
0.05
 41
0.05
 66
1
 10
0
 20
0
 30
0
 70
1
  0
VERTEX
  8
LAYER_7
 10
167.1168
 20
36.5373
  0
VERTEX
  8
LAYER_7
 10
167.2994
 20
36.5373
 42
0.1667243505
  0
VERTEX
  8
LAYER_7
 10
167.495
 20
36.5831
 42
0.2503949893
  0
VERTEX
  8
LAYER_7
 10
167.5636
 20
36.7213
  0
VERTEX
  8
LAYER_7
 10
167.5446
 20
36.8071
  0
VERTEX
  8
LAYER_7
 10
167.4919
 20
36.8643
  0
VERTEX
  8
LAYER_7
 10
167.4103
 20
36.8963
  0
VERTEX
  8
LAYER_7
 10
167.3038
 20
36.9066
  0
VERTEX
  8
LAYER_7
 10
167.1168
 20
36.9066
  0
SEQEND
  0
ENDBLK
  0
BLOCK
  8
LAYER_7
  2
AIGNBL07030020
 70
64
 10
0
 20
0
 30
0
  3
AIGNBL07030020
  0
POLYLINE
  8
LAYER_7
 40
0.05
 41
0.05
 66
1
 10
0
 20
0
 30
0
 70
1
  0
VERTEX
  8
LAYER_7
 10
168.1923
 20
35.9637
  0
VERTEX
  8
LAYER_7
 10
168.0876
 20
35.9637
  0
VERTEX
  8
LAYER_7
 10
168.0876
 20
36.9969
  0
VERTEX
  8
LAYER_7
 10
168.1923
 20
36.9969
  0
SEQEND
  0
ENDBLK
  0
BLOCK
  8
LAYER_7
  2
AIGNBL07030021
 70
64
 10
0
 20
0
 30
0
  3
AIGNBL07030021
  0
POLYLINE
  8
LAYER_7
 40
0.05
 41
0.05
 66
1
 10
0
 20
0
 30
0
 70
1
  0
VERTEX
  8
LAYER_7
 10
168.7732
 20
36.0574
  0
VERTEX
  8
LAYER_7
 10
169.3261
 20
36.0574
  0
VERTEX
  8
LAYER_7
 10
169.3261
 20
35.9637
  0
VERTEX
  8
LAYER_7
 10
168.6681
 20
35.9637
  0
VERTEX
  8
LAYER_7
 10
168.6681
 20
36.9969
  0
VERTEX
  8
LAYER_7
 10
169.3089
 20
36.9969
  0
VERTEX
  8
LAYER_7
 10
169.3089
 20
36.9035
  0
VERTEX
  8
LAYER_7
 10
168.7732
 20
36.9035
  0
VERTEX
  8
LAYER_7
 10
168.7732
 20
36.549
  0
VERTEX
  8
LAYER_7
 10
169.2737
 20
36.549
  0
VERTEX
  8
LAYER_7
 10
169.2737
 20
36.4557
  0
VERTEX
  8
LAYER_7
 10
168.7732
 20
36.4557
  0
SEQEND
  0
ENDBLK
  0
BLOCK
  8
LAYER_7
  2
AIGNBL07030022
 70
64
 10
0
 20
0
 30
0
  3
AIGNBL07030022
  0
POLYLINE
  8
LAYER_7
 40
0.05
 41
0.05
 66
1
 10
0
 20
0
 30
0
 70
1
  0
VERTEX
  8
LAYER_7
 10
170.4661
 20
36.117
  0
VERTEX
  8
LAYER_7
 10
170.4689
 20
36.117
  0
VERTEX
  8
LAYER_7
 10
170.4689
 20
36.9969
  0
VERTEX
  8
LAYER_7
 10
170.5739
 20
36.9969
  0
VERTEX
  8
LAYER_7
 10
170.5739
 20
35.9637
  0
VERTEX
  8
LAYER_7
 10
170.4426
 20
35.9637
  0
VERTEX
  8
LAYER_7
 10
169.8415
 20
36.8525
  0
VERTEX
  8
LAYER_7
 10
169.8384
 20
36.8525
  0
VERTEX
  8
LAYER_7
 10
169.8384
 20
35.9637
  0
VERTEX
  8
LAYER_7
 10
169.7333
 20
35.9637
  0
VERTEX
  8
LAYER_7
 10
169.7333
 20
36.9969
  0
VERTEX
  8
LAYER_7
 10
169.8649
 20
36.9969
  0
SEQEND
  0
ENDBLK
  0
BLOCK
  8
LAYER_7
  2
AIGNBL07030023
 70
64
 10
0
 20
0
 30
0
  3
AIGNBL07030023
  0
POLYLINE
  8
LAYER_7
 40
0.05
 41
0.05
 66
1
 10
0
 20
0
 30
0
 70
1
  0
VERTEX
  8
LAYER_7
 10
171.9196
 20
36.1315
  0
VERTEX
  8
LAYER_7
 10
171.8558
 20
36.0571
  0
VERTEX
  8
LAYER_7
 10
171.7697
 20
35.9954
  0
VERTEX
  8
LAYER_7
 10
171.6615
 20
35.953
  0
VERTEX
  8
LAYER_7
 10
171.5327
 20
35.9375
 42
-0.1011939289
  0
VERTEX
  8
LAYER_7
 10
171.3167
 20
35.9785
 42
-0.1032846426
  0
VERTEX
  8
LAYER_7
 10
171.1461
 20
36.0915
 42
-0.0974858305
  0
VERTEX
  8
LAYER_7
 10
171.0345
 20
36.2631
 42
-0.09232404316
  0
VERTEX
  8
LAYER_7
 10
170.9942
 20
36.4805
 42
-0.1041003847
  0
VERTEX
  8
LAYER_7
 10
171.0352
 20
36.6978
 42
-0.1005616574
  0
VERTEX
  8
LAYER_7
 10
171.1479
 20
36.8694
 42
-0.09522588778
  0
VERTEX
  8
LAYER_7
 10
171.3187
 20
36.9824
 42
-0.09501991035
  0
VERTEX
  8
LAYER_7
 10
171.5327
 20
37.0234
  0
VERTEX
  8
LAYER_7
 10
171.6443
 20
37.0114
  0
VERTEX
  8
LAYER_7
 10
171.7473
 20
36.9779
  0
VERTEX
  8
LAYER_7
 10
171.8348
 20
36.9263
  0
VERTEX
  8
LAYER_7
 10
171.9006
 20
36.8584
  0
VERTEX
  8
LAYER_7
 10
171.8131
 20
36.794
  0
VERTEX
  8
LAYER_7
 10
171.7697
 20
36.8439
  0
VERTEX
  8
LAYER_7
 10
171.7063
 20
36.8877
  0
VERTEX
  8
LAYER_7
 10
171.6267
 20
36.9183
  0
VERTEX
  8
LAYER_7
 10
171.5341
 20
36.93
  0
VERTEX
  8
LAYER_7
 10
171.3539
 20
36.8935
  0
VERTEX
  8
LAYER_7
 10
171.2188
 20
36.7954
  0
VERTEX
  8
LAYER_7
 10
171.1341
 20
36.652
  0
VERTEX
  8
LAYER_7
 10
171.1052
 20
36.4805
  0
VERTEX
  8
LAYER_7
 10
171.1351
 20
36.3089
  0
VERTEX
  8
LAYER_7
 10
171.2205
 20
36.1656
  0
VERTEX
  8
LAYER_7
 10
171.3556
 20
36.0674
 42
0.100995487
  0
VERTEX
  8
LAYER_7
 10
171.5341
 20
36.0309
  0
VERTEX
  8
LAYER_7
 10
171.7032
 20
36.0674
 42
0.1321059012
  0
VERTEX
  8
LAYER_7
 10
171.8376
 20
36.1842
  0
SEQEND
  0
ENDBLK
  0
BLOCK
  8
LAYER_7
  2
AIGNBL07030024
 70
64
 10
0
 20
0
 30
0
  3
AIGNBL07030024
  0
POLYLINE
  8
LAYER_7
 40
0.05
 41
0.05
 66
1
 10
0
 20
0
 30
0
 70
1
  0
VERTEX
  8
LAYER_7
 10
172.4067
 20
36.0574
  0
VERTEX
  8
LAYER_7
 10
172.96
 20
36.0574
  0
VERTEX
  8
LAYER_7
 10
172.96
 20
35.9637
  0
VERTEX
  8
LAYER_7
 10
172.3016
 20
35.9637
  0
VERTEX
  8
LAYER_7
 10
172.3016
 20
36.9969
  0
VERTEX
  8
LAYER_7
 10
172.9424
 20
36.9969
  0
VERTEX
  8
LAYER_7
 10
172.9424
 20
36.9035
  0
VERTEX
  8
LAYER_7
 10
172.4067
 20
36.9035
  0
VERTEX
  8
LAYER_7
 10
172.4067
 20
36.549
  0
VERTEX
  8
LAYER_7
 10
172.9073
 20
36.549
  0
VERTEX
  8
LAYER_7
 10
172.9073
 20
36.4557
  0
VERTEX
  8
LAYER_7
 10
172.4067
 20
36.4557
  0
SEQEND
  0
ENDBLK
  0
BLOCK
  8
LAYER_7
  2
AIGNBL07020004
 70
64
 10
0
 20
0
 30
0
  3
AIGNBL07020004
  0
INSERT
  8
LAYER_7
  2
AIGNBL07030005
 10
0
 20
0
 30
0
  0
ENDBLK
  0
BLOCK
  8
LAYER_7
  2
AIGNBL0702000D
 70
64
 10
0
 20
0
 30
0
  3
AIGNBL0702000D
  0
INSERT
  8
LAYER_7
  2
AIGNBL0703000E
 10
0
 20
0
 30
0
  0
INSERT
  8
LAYER_7
  2
AIGNBL0703000F
 10
0
 20
0
 30
0
  0
INSERT
  8
LAYER_7
  2
AIGNBL07030010
 10
0
 20
0
 30
0
  0
INSERT
  8
LAYER_7
  2
AIGNBL07030011
 10
0
 20
0
 30
0
  0
INSERT
  8
LAYER_7
  2
AIGNBL07030012
 10
0
 20
0
 30
0
  0
INSERT
  8
LAYER_7
  2
AIGNBL07030013
 10
0
 20
0
 30
0
  0
INSERT
  8
LAYER_7
  2
AIGNBL07030014
 10
0
 20
0
 30
0
  0
INSERT
  8
LAYER_7
  2
AIGNBL07030015
 10
0
 20
0
 30
0
  0
INSERT
  8
LAYER_7
  2
AIGNBL07030016
 10
0
 20
0
 30
0
  0
INSERT
  8
LAYER_7
  2
AIGNBL07030017
 10
0
 20
0
 30
0
  0
INSERT
  8
LAYER_7
  2
AIGNBL07030018
 10
0
 20
0
 30
0
  0
INSERT
  8
LAYER_7
  2
AIGNBL07030019
 10
0
 20
0
 30
0
  0
INSERT
  8
LAYER_7
  2
AIGNBL0703001A
 10
0
 20
0
 30
0
  0
INSERT
  8
LAYER_7
  2
AIGNBL0703001B
 10
0
 20
0
 30
0
  0
INSERT
  8
LAYER_7
  2
AIGNBL0703001C
 10
0
 20
0
 30
0
  0
INSERT
  8
LAYER_7
  2
AIGNBL0703001D
 10
0
 20
0
 30
0
  0
INSERT
  8
LAYER_7
  2
AIGNBL0703001E
 10
0
 20
0
 30
0
  0
INSERT
  8
LAYER_7
  2
AIGNBL0703001F
 10
0
 20
0
 30
0
  0
INSERT
  8
LAYER_7
  2
AIGNBL07030020
 10
0
 20
0
 30
0
  0
INSERT
  8
LAYER_7
  2
AIGNBL07030021
 10
0
 20
0
 30
0
  0
INSERT
  8
LAYER_7
  2
AIGNBL07030022
 10
0
 20
0
 30
0
  0
INSERT
  8
LAYER_7
  2
AIGNBL07030023
 10
0
 20
0
 30
0
  0
INSERT
  8
LAYER_7
  2
AIGNBL07030024
 10
0
 20
0
 30
0
  0
ENDBLK
  0
BLOCK
  8
LAYER_1
  2
AIGNBL01010002
 70
64
 10
0
 20
0
 30
0
  3
AIGNBL01010002
  0
POLYLINE
  8
LAYER_1
  6
AIGENLINE001
 40
0.1058
 41
0.1058
 62
4
 66
1
 10
0
 20
0
 30
0
 70
129
  0
VERTEX
  8
LAYER_1
 10
53.0473
 20
183.1978
  0
VERTEX
  8
LAYER_1
 10
72.5473
 20
183.1978
  0
VERTEX
  8
LAYER_1
 10
72.5473
 20
178.1978
  0
VERTEX
  8
LAYER_1
 10
53.0473
 20
178.1978
  0
SEQEND
  0
POLYLINE
  8
LAYER_1
  6
AIGENLINE001
 40
0.1058
 41
0.1058
 62
4
 66
1
 10
0
 20
0
 30
0
 70
128
  0
VERTEX
  8
LAYER_1
 10
53.0473
 20
183.1978
  0
VERTEX
  8
LAYER_1
 10
72.5473
 20
178.1978
  0
SEQEND
  0
POLYLINE
  8
LAYER_1
  6
AIGENLINE001
 40
0.1058
 41
0.1058
 62
4
 66
1
 10
0
 20
0
 30
0
 70
128
  0
VERTEX
  8
LAYER_1
 10
72.5473
 20
183.1978
  0
VERTEX
  8
LAYER_1
 10
53.0473
 20
178.3865
  0
SEQEND
  0
ENDBLK
  0
BLOCK
  8
LAYER_1
  2
AIGNBL01010003
 70
64
 10
0
 20
0
 30
0
  3
AIGNBL01010003
  0
POLYLINE
  8
LAYER_1
  6
AIGENLINE001
 40
0.1058
 41
0.1058
 62
252
 66
1
 10
0
 20
0
 30
0
 70
128
  0
VERTEX
  8
LAYER_1
 10
63.269
 20
180.7738
 42
0.2715082431
  0
VERTEX
  8
LAYER_1
 10
63.7678
 20
181.6245
 42
0.4142194376
  0
VERTEX
  8
LAYER_1
 10
62.7928
 20
182.5995
 42
0.4142284104
  0
VERTEX
  8
LAYER_1
 10
61.8178
 20
181.6245
 42
0.2714822656
  0
VERTEX
  8
LAYER_1
 10
62.3165
 20
180.7738
  0
SEQEND
  0
CIRCLE
  8
LAYER_1
  6
AIGENLINE001
 62
252
 10
62.7928
 20
181.6245
 40
0.4
  0
POLYLINE
  8
LAYER_1
  6
AIGENLINE001
 40
0.1058
 41
0.1058
 62
252
 66
1
 10
0
 20
0
 30
0
 70
128
  0
VERTEX
  8
LAYER_1
 10
62.8428
 20
182.0532
  0
VERTEX
  8
LAYER_1
 10
62.7428
 20
182.0532
  0
SEQEND
  0
POLYLINE
  8
LAYER_1
  6
AIGENLINE001
 40
0.1058
 41
0.1058
 62
252
 66
1
 10
0
 20
0
 30
0
 70
128
  0
VERTEX
  8
LAYER_1
 10
62.7928
 20
182.7823
  0
VERTEX
  8
LAYER_1
 10
62.7928
 20
180.3598
  0
SEQEND
  0
POLYLINE
  8
LAYER_1
  6
AIGENLINE001
 40
0.1058
 41
0.1058
 62
252
 66
1
 10
0
 20
0
 30
0
 70
128
  0
VERTEX
  8
LAYER_1
 10
64.0445
 20
181.6245
  0
VERTEX
  8
LAYER_1
 10
61.685
 20
181.6245
  0
SEQEND
  0
POLYLINE
  8
LAYER_1
  6
AIGENLINE001
 40
0.1058
 41
0.1058
 62
252
 66
1
 10
0
 20
0
 30
0
 70
128
  0
VERTEX
  8
LAYER_1
 10
62.7428
 20
182.034
  0
VERTEX
  8
LAYER_1
 10
62.7428
 20
182.0745
 42
-0.3931198644
  0
VERTEX
  8
LAYER_1
 10
62.7928
 20
182.1245
 42
-0.3935565527
  0
VERTEX
  8
LAYER_1
 10
62.8428
 20
182.0745
  0
VERTEX
  8
LAYER_1
 10
62.8427
 20
182.0714
  0
VERTEX
  8
LAYER_1
 10
62.8428
 20
182.034
  0
SEQEND
  0
CIRCLE
  8
LAYER_1
  6
AIGENLINE001
 62
252
 10
62.7928
 20
181.6245
 40
0.75
  0
POLYLINE
  8
LAYER_1
  6
AIGENLINE001
 40
0.1058
 41
0.1058
 62
252
 66
1
 10
0
 20
0
 30
0
 70
128
  0
VERTEX
  8
LAYER_1
 10
62.5281
 20
180.9228
 42
-0.3007487113
  0
VERTEX
  8
LAYER_1
 10
62.5928
 20
180.8292
  0
VERTEX
  8
LAYER_1
 10
62.5928
 20
179.6995
  0
VERTEX
  8
LAYER_1
 10
62.6178
 20
179.6745
  0
VERTEX
  8
LAYER_1
 10
62.9678
 20
179.6745
  0
VERTEX
  8
LAYER_1
 10
62.9928
 20
179.6995
  0
VERTEX
  8
LAYER_1
 10
62.9928
 20
180.8292
 42
-0.3006146059
  0
VERTEX
  8
LAYER_1
 10
63.0575
 20
180.9228
  0
SEQEND
  0
POLYLINE
  8
LAYER_1
  6
AIGENLINE001
 40
0.1058
 41
0.1058
 62
252
 66
1
 10
0
 20
0
 30
0
 70
128
  0
VERTEX
  8
LAYER_1
 10
63.4945
 20
181.3598
 42
-0.3007487113
  0
VERTEX
  8
LAYER_1
 10
63.5881
 20
181.4245
  0
VERTEX
  8
LAYER_1
 10
64.7178
 20
181.4245
  0
VERTEX
  8
LAYER_1
 10
64.7428
 20
181.4495
  0
VERTEX
  8
LAYER_1
 10
64.7428
 20
181.7995
  0
VERTEX
  8
LAYER_1
 10
64.7178
 20
181.8245
  0
VERTEX
  8
LAYER_1
 10
63.5881
 20
181.8245
 42
-0.3000537151
  0
VERTEX
  8
LAYER_1
 10
63.4945
 20
181.8892
  0
SEQEND
  0
CIRCLE
  8
LAYER_1
  6
AIGENLINE001
 62
252
 10
62.7928
 20
181.6245
 40
0.4125
  0
POLYLINE
  8
LAYER_1
  6
AIGENLINE001
 40
0.1058
 41
0.1058
 62
252
 66
1
 10
0
 20
0
 30
0
 70
128
  0
VERTEX
  8
LAYER_1
 10
63.269
 20
181.0451
  0
VERTEX
  8
LAYER_1
 10
63.269
 20
176.4842
  0
VERTEX
  8
LAYER_1
 10
63.254
 20
176.3943
 42
-0.1580704628
  0
VERTEX
  8
LAYER_1
 10
63.1045
 20
176.2122
 42
-0.1410791298
  0
VERTEX
  8
LAYER_1
 10
62.7928
 20
176.1245
  0
VERTEX
  8
LAYER_1
 10
62.6456
 20
176.142
 42
-0.1444561433
  0
VERTEX
  8
LAYER_1
 10
62.4077
 20
176.2725
 42
-0.1985393379
  0
VERTEX
  8
LAYER_1
 10
62.3165
 20
176.4842
  0
VERTEX
  8
LAYER_1
 10
62.3165
 20
181.0451
  0
SEQEND
  0
POLYLINE
  8
LAYER_1
  6
AIGENLINE001
 40
0.1058
 41
0.1058
 62
252
 66
1
 10
0
 20
0
 30
0
 70
128
  0
VERTEX
  8
LAYER_1
 10
62.3165
 20
176.9909
 42
0.1985393379
  0
VERTEX
  8
LAYER_1
 10
62.4077
 20
176.7792
 42
0.1443724382
  0
VERTEX
  8
LAYER_1
 10
62.6456
 20
176.6487
  0
VERTEX
  8
LAYER_1
 10
62.7928
 20
176.6312
 42
0.1410791298
  0
VERTEX
  8
LAYER_1
 10
63.1045
 20
176.7189
 42
0.158314289
  0
VERTEX
  8
LAYER_1
 10
63.254
 20
176.901
  0
VERTEX
  8
LAYER_1
 10
63.269
 20
176.9909
  0
SEQEND
  0
POLYLINE
  8
LAYER_1
  6
AIGENLINE001
 40
0.1058
 41
0.1058
 62
252
 66
1
 10
0
 20
0
 30
0
 70
128
  0
VERTEX
  8
LAYER_1
 10
62.3165
 20
177.0559
 42
0.1985393379
  0
VERTEX
  8
LAYER_1
 10
62.4077
 20
176.8442
 42
0.1443724382
  0
VERTEX
  8
LAYER_1
 10
62.6456
 20
176.7137
  0
VERTEX
  8
LAYER_1
 10
62.7928
 20
176.6962
 42
0.1410791298
  0
VERTEX
  8
LAYER_1
 10
63.1045
 20
176.7839
 42
0.158314289
  0
VERTEX
  8
LAYER_1
 10
63.254
 20
176.966
  0
VERTEX
  8
LAYER_1
 10
63.269
 20
177.0559
  0
SEQEND
  0
POLYLINE
  8
LAYER_1
  6
AIGENLINE001
 40
0.1058
 41
0.1058
 62
252
 66
1
 10
0
 20
0
 30
0
 70
128
  0
VERTEX
  8
LAYER_1
 10
57.9226
 20
184.5737
  0
VERTEX
  8
LAYER_1
 10
67.6449
 20
184.5647
  0
SEQEND
  0
POLYLINE
  8
LAYER_1
  6
AIGENLINE001
 40
0.1058
 41
0.1058
 62
252
 66
1
 10
0
 20
0
 30
0
 70
128
  0
VERTEX
  8
LAYER_1
 10
69.9058
 20
182.532
 42
0.2140217226
  0
VERTEX
  8
LAYER_1
 10
69.2273
 20
184.0492
 42
0.2140168983
  0
VERTEX
  8
LAYER_1
 10
67.643
 20
184.5513
  0
SEQEND
  0
POLYLINE
  8
LAYER_1
  6
AIGENLINE001
 40
0.1058
 41
0.1058
 62
252
 66
1
 10
0
 20
0
 30
0
 70
128
  0
VERTEX
  8
LAYER_1
 10
69.9058
 20
182.5389
  0
VERTEX
  8
LAYER_1
 10
69.8968
 20
172.7262
  0
SEQEND
  0
POLYLINE
  8
LAYER_1
  6
AIGENLINE001
 40
0.1058
 41
0.1058
 62
252
 66
1
 10
0
 20
0
 30
0
 70
128
  0
VERTEX
  8
LAYER_1
 10
67.9103
 20
170.6913
 42
0.201294474
  0
VERTEX
  8
LAYER_1
 10
69.3337
 20
171.2874
 42
0.2012934909
  0
VERTEX
  8
LAYER_1
 10
69.9055
 20
172.7207
  0
SEQEND
  0
POLYLINE
  8
LAYER_1
  6
AIGENLINE001
 40
0.1058
 41
0.1058
 62
252
 66
1
 10
0
 20
0
 30
0
 70
128
  0
VERTEX
  8
LAYER_1
 10
67.8981
 20
170.7004
  0
VERTEX
  8
LAYER_1
 10
57.796
 20
170.7004
  0
SEQEND
  0
POLYLINE
  8
LAYER_1
  6
AIGENLINE001
 40
0.1058
 41
0.1058
 62
252
 66
1
 10
0
 20
0
 30
0
 70
128
  0
VERTEX
  8
LAYER_1
 10
55.8878
 20
182.5389
  0
VERTEX
  8
LAYER_1
 10
55.8968
 20
172.69
 42
0.3801463737
  0
VERTEX
  8
LAYER_1
 10
57.7956
 20
170.6936
  0
SEQEND
  0
POLYLINE
  8
LAYER_1
  6
AIGENLINE001
 40
0.1058
 41
0.1058
 62
252
 66
1
 10
0
 20
0
 30
0
 70
128
  0
VERTEX
  8
LAYER_1
 10
57.9226
 20
184.5737
  0
VERTEX
  8
LAYER_1
 10
67.6539
 20
184.5647
  0
SEQEND
  0
POLYLINE
  8
LAYER_1
  6
AIGENLINE001
 40
0.1058
 41
0.1058
 62
252
 66
1
 10
0
 20
0
 30
0
 70
128
  0
VERTEX
  8
LAYER_1
 10
69.7769
 20
182.533
 42
0.4008322201
  0
VERTEX
  8
LAYER_1
 10
67.6576
 20
184.5557
  0
SEQEND
  0
POLYLINE
  8
LAYER_1
  6
AIGENLINE001
 40
0.1058
 41
0.1058
 62
252
 66
1
 10
0
 20
0
 30
0
 70
128
  0
VERTEX
  8
LAYER_1
 10
69.7702
 20
182.5389
  0
VERTEX
  8
LAYER_1
 10
69.7521
 20
172.7262
  0
SEQEND
  0
POLYLINE
  8
LAYER_1
  6
AIGENLINE001
 40
0.1058
 41
0.1058
 62
252
 66
1
 10
0
 20
0
 30
0
 70
128
  0
VERTEX
  8
LAYER_1
 10
67.9104
 20
170.836
 42
0.2012070283
  0
VERTEX
  8
LAYER_1
 10
69.2309
 20
171.3893
 42
0.2013871722
  0
VERTEX
  8
LAYER_1
 10
69.7608
 20
172.7194
  0
SEQEND
  0
POLYLINE
  8
LAYER_1
  6
AIGENLINE001
 40
0.1058
 41
0.1058
 62
252
 66
1
 10
0
 20
0
 30
0
 70
128
  0
VERTEX
  8
LAYER_1
 10
56.0415
 20
172.6857
 42
0.3997876252
  0
VERTEX
  8
LAYER_1
 10
57.7993
 20
170.8383
  0
VERTEX
  8
LAYER_1
 10
67.8981
 20
170.836
  0
SEQEND
  0
POLYLINE
  8
LAYER_1
  6
AIGENLINE001
 40
0.1058
 41
0.1058
 62
252
 66
1
 10
0
 20
0
 30
0
 70
128
  0
VERTEX
  8
LAYER_1
 10
56.0325
 20
172.69
  0
VERTEX
  8
LAYER_1
 10
56.0234
 20
182.5389
  0
SEQEND
  0
POLYLINE
  8
LAYER_1
  6
AIGENLINE001
 40
0.1058
 41
0.1058
 62
252
 66
1
 10
0
 20
0
 30
0
 70
128
  0
VERTEX
  8
LAYER_1
 10
57.9211
 20
184.5671
 42
0.3654820116
  0
VERTEX
  8
LAYER_1
 10
56.026
 20
182.5308
  0
SEQEND
  0
POLYLINE
  8
LAYER_1
  6
AIGENLINE001
 40
0.1058
 41
0.1058
 62
252
 66
1
 10
0
 20
0
 30
0
 70
128
  0
VERTEX
  8
LAYER_1
 10
69.4084
 20
182.5298
  0
VERTEX
  8
LAYER_1
 10
69.3994
 20
172.7262
  0
SEQEND
  0
POLYLINE
  8
LAYER_1
  6
AIGENLINE001
 40
0.1058
 41
0.1058
 62
252
 66
1
 10
0
 20
0
 30
0
 70
128
  0
VERTEX
  8
LAYER_1
 10
67.9106
 20
171.1887
 42
0.2015023937
  0
VERTEX
  8
LAYER_1
 10
68.9805
 20
171.6377
 42
0.2016968267
  0
VERTEX
  8
LAYER_1
 10
69.4081
 20
172.7164
  0
SEQEND
  0
POLYLINE
  8
LAYER_1
  6
AIGENLINE001
 40
0.1058
 41
0.1058
 62
252
 66
1
 10
0
 20
0
 30
0
 70
128
  0
VERTEX
  8
LAYER_1
 10
67.8981
 20
171.1978
  0
VERTEX
  8
LAYER_1
 10
57.8051
 20
171.1978
  0
SEQEND
  0
POLYLINE
  8
LAYER_1
  6
AIGENLINE001
 40
0.1058
 41
0.1058
 62
252
 66
1
 10
0
 20
0
 30
0
 70
128
  0
VERTEX
  8
LAYER_1
 10
56.3761
 20
182.5298
  0
VERTEX
  8
LAYER_1
 10
56.3942
 20
172.69
 42
0.3780220714
  0
VERTEX
  8
LAYER_1
 10
57.8084
 20
171.191
  0
SEQEND
  0
POLYLINE
  8
LAYER_1
  6
AIGENLINE001
 40
0.1058
 41
0.1058
 62
252
 66
1
 10
0
 20
0
 30
0
 70
128
  0
VERTEX
  8
LAYER_1
 10
56.3787
 20
182.5223
 42
-0.3608335072
  0
VERTEX
  8
LAYER_1
 10
57.9427
 20
184.2143
  0
VERTEX
  8
LAYER_1
 10
67.6539
 20
184.2029
 42
-0.3795940556
  0
VERTEX
  8
LAYER_1
 10
69.4242
 20
182.5248
  0
SEQEND
  0
CIRCLE
  8
LAYER_1
  6
AIGENLINE001
 62
252
 10
62.7928
 20
176.4478
 40
1.7771
  0
CIRCLE
  8
LAYER_1
  6
AIGENLINE001
 62
252
 10
62.7928
 20
176.4478
 40
1.1441
  0
POLYLINE
  8
LAYER_1
  6
AIGENLINE001
 40
0.1058
 41
0.1058
 62
252
 66
1
 10
0
 20
0
 30
0
 70
128
  0
VERTEX
  8
LAYER_1
 10
68.911
 20
179.5453
  0
VERTEX
  8
LAYER_1
 10
66.6138
 20
179.5453
  0
SEQEND
  0
POLYLINE
  8
LAYER_1
  6
AIGENLINE001
 40
0.1058
 41
0.1058
 62
252
 66
1
 10
0
 20
0
 30
0
 70
128
  0
VERTEX
  8
LAYER_1
 10
56.3852
 20
179.5453
  0
VERTEX
  8
LAYER_1
 10
69.4084
 20
179.5453
  0
SEQEND
  0
ENDBLK
  0
BLOCK
  8
LAYER_1
  2
AIGNBL01010004
 70
64
 10
0
 20
0
 30
0
  3
AIGNBL01010004
  0
POLYLINE
  8
LAYER_1
  6
AIGENLINE001
 40
0.1058
 41
0.1058
 62
252
 66
1
 10
0
 20
0
 30
0
 70
128
  0
VERTEX
  8
LAYER_1
 10
69.2054
 20
129.2009
 42
0.4143697558
  0
VERTEX
  8
LAYER_1
 10
69.0562
 20
129.0517
  0
VERTEX
  8
LAYER_1
 10
69.0562
 20
128.9478
  0
SEQEND
  0
POLYLINE
  8
LAYER_1
  6
AIGENLINE001
 40
0.1058
 41
0.1058
 62
252
 66
1
 10
0
 20
0
 30
0
 70
128
  0
VERTEX
  8
LAYER_1
 10
55.7973
 20
129.5443
  0
VERTEX
  8
LAYER_1
 10
55.9329
 20
134.5514
  0
SEQEND
  0
POLYLINE
  8
LAYER_1
  6
AIGENLINE001
 40
0.1058
 41
0.1058
 62
252
 66
1
 10
0
 20
0
 30
0
 70
128
  0
VERTEX
  8
LAYER_1
 10
69.6617
 20
134.56
 42
0.3859145775
  0
VERTEX
  8
LAYER_1
 10
69.5129
 20
134.7051
  0
VERTEX
  8
LAYER_1
 10
56.0865
 20
134.7051
 42
0.1875869473
  0
VERTEX
  8
LAYER_1
 10
55.987
 20
134.6628
 42
0.1926812211
  0
VERTEX
  8
LAYER_1
 10
55.9419
 20
134.56
  0
SEQEND
  0
POLYLINE
  8
LAYER_1
  6
AIGENLINE001
 40
0.1058
 41
0.1058
 62
252
 66
1
 10
0
 20
0
 30
0
 70
128
  0
VERTEX
  8
LAYER_1
 10
69.4494
 20
129.2009
 42
0.4141276808
  0
VERTEX
  8
LAYER_1
 10
69.7974
 20
129.5488
  0
VERTEX
  8
LAYER_1
 10
69.6618
 20
134.5514
  0
SEQEND
  0
POLYLINE
  8
LAYER_1
  6
AIGENLINE001
 40
0.1058
 41
0.1058
 62
252
 66
1
 10
0
 20
0
 30
0
 70
128
  0
VERTEX
  8
LAYER_1
 10
56.5384
 20
129.0472
  0
VERTEX
  8
LAYER_1
 10
56.5384
 20
128.9478
  0
VERTEX
  8
LAYER_1
 10
69.0562
 20
128.9478
  0
VERTEX
  8
LAYER_1
 10
56.5384
 20
128.9478
  0
SEQEND
  0
POLYLINE
  8
LAYER_1
  6
AIGENLINE001
 40
0.1058
 41
0.1058
 62
252
 66
1
 10
0
 20
0
 30
0
 70
128
  0
VERTEX
  8
LAYER_1
 10
56.5474
 20
129.0517
 42
0.4143373661
  0
VERTEX
  8
LAYER_1
 10
56.3983
 20
129.2009
  0
SEQEND
  0
POLYLINE
  8
LAYER_1
  6
AIGENLINE001
 40
0.1058
 41
0.1058
 62
252
 66
1
 10
0
 20
0
 30
0
 70
128
  0
VERTEX
  8
LAYER_1
 10
55.8064
 20
129.5583
 42
0.2024348929
  0
VERTEX
  8
LAYER_1
 10
55.9049
 20
129.3062
 42
0.2024850904
  0
VERTEX
  8
LAYER_1
 10
56.1543
 20
129.2009
  0
SEQEND
  0
POLYLINE
  8
LAYER_1
  6
AIGENLINE001
 40
0.1058
 41
0.1058
 62
252
 66
1
 10
0
 20
0
 30
0
 70
128
  0
VERTEX
  8
LAYER_1
 10
69.4449
 20
129.1918
  0
VERTEX
  8
LAYER_1
 10
56.3938
 20
129.1918
  0
VERTEX
  8
LAYER_1
 10
56.1498
 20
129.1918
  0
SEQEND
  0
POLYLINE
  8
LAYER_1
  6
AIGENLINE001
 40
0.1058
 41
0.1058
 62
252
 66
1
 10
0
 20
0
 30
0
 70
128
  0
VERTEX
  8
LAYER_1
 10
63.5473
 20
134.5804
  0
VERTEX
  8
LAYER_1
 10
62.0473
 20
134.5804
  0
SEQEND
  0
CIRCLE
  8
LAYER_1
  6
AIGENLINE001
 62
252
 10
62.7973
 20
140.2654
 40
0.2
  0
POLYLINE
  8
LAYER_1
  6
AIGENLINE001
 40
0.1058
 41
0.1058
 62
252
 66
1
 10
0
 20
0
 30
0
 70
129
  0
VERTEX
  8
LAYER_1
 10
63.7723
 20
134.4654
 42
0.4143291074
  0
VERTEX
  8
LAYER_1
 10
63.6723
 20
134.5654
  0
VERTEX
  8
LAYER_1
 10
61.9223
 20
134.5654
 42
0.4143000754
  0
VERTEX
  8
LAYER_1
 10
61.8223
 20
134.4654
  0
VERTEX
  8
LAYER_1
 10
61.8223
 20
134.4154
  0
VERTEX
  8
LAYER_1
 10
63.7723
 20
134.4154
  0
SEQEND
  0
POLYLINE
  8
LAYER_1
  6
AIGENLINE001
 40
0.1058
 41
0.1058
 62
252
 66
1
 10
0
 20
0
 30
0
 70
128
  0
VERTEX
  8
LAYER_1
 10
62.1848
 20
139.2154
  0
VERTEX
  8
LAYER_1
 10
62.1848
 20
139.2404
  0
SEQEND
  0
POLYLINE
  8
LAYER_1
  6
AIGENLINE001
 40
0.1058
 41
0.1058
 62
252
 66
1
 10
0
 20
0
 30
0
 70
128
  0
VERTEX
  8
LAYER_1
 10
63.5473
 20
139.2004
  0
VERTEX
  8
LAYER_1
 10
63.5473
 20
134.5804
  0
VERTEX
  8
LAYER_1
 10
63.5323
 20
134.5654
  0
SEQEND
  0
POLYLINE
  8
LAYER_1
  6
AIGENLINE001
 40
0.1058
 41
0.1058
 62
252
 66
1
 10
0
 20
0
 30
0
 70
128
  0
VERTEX
  8
LAYER_1
 10
62.7973
 20
141.0154
  0
VERTEX
  8
LAYER_1
 10
62.7973
 20
132.1025
  0
SEQEND
  0
POLYLINE
  8
LAYER_1
  6
AIGENLINE001
 40
0.1058
 41
0.1058
 62
252
 66
1
 10
0
 20
0
 30
0
 70
128
  0
VERTEX
  8
LAYER_1
 10
63.2723
 20
137.4428
  0
VERTEX
  8
LAYER_1
 10
63.2736
 20
138.4154
 42
0.4142378188
  0
VERTEX
  8
LAYER_1
 10
62.7973
 20
138.8917
 42
0.4142317318
  0
VERTEX
  8
LAYER_1
 10
62.3211
 20
138.4154
  0
VERTEX
  8
LAYER_1
 10
62.3224
 20
137.4428
  0
SEQEND
  0
POLYLINE
  8
LAYER_1
  6
AIGENLINE001
 40
0.1058
 41
0.1058
 62
252
 66
1
 10
0
 20
0
 30
0
 70
128
  0
VERTEX
  8
LAYER_1
 10
62.0623
 20
134.5654
  0
VERTEX
  8
LAYER_1
 10
62.0473
 20
134.5804
  0
VERTEX
  8
LAYER_1
 10
62.0473
 20
139.2004
  0
SEQEND
  0
POLYLINE
  8
LAYER_1
  6
AIGENLINE001
 40
0.1058
 41
0.1058
 62
252
 66
1
 10
0
 20
0
 30
0
 70
129
  0
VERTEX
  8
LAYER_1
 10
62.0473
 20
140.7404
  0
VERTEX
  8
LAYER_1
 10
62.0473
 20
139.2654
  0
VERTEX
  8
LAYER_1
 10
62.0723
 20
139.2404
  0
VERTEX
  8
LAYER_1
 10
63.5223
 20
139.2404
  0
VERTEX
  8
LAYER_1
 10
63.5473
 20
139.2654
  0
VERTEX
  8
LAYER_1
 10
63.5473
 20
140.7404
 42
0.414367629
  0
VERTEX
  8
LAYER_1
 10
63.4723
 20
140.8154
  0
VERTEX
  8
LAYER_1
 10
62.1223
 20
140.8154
 42
0.4143289097
  0
SEQEND
  0
POLYLINE
  8
LAYER_1
  6
AIGENLINE001
 40
0.1058
 41
0.1058
 62
252
 66
1
 10
0
 20
0
 30
0
 70
128
  0
VERTEX
  8
LAYER_1
 10
62.3223
 20
137.4899
  0
VERTEX
  8
LAYER_1
 10
62.3223
 20
136.4937
  0
SEQEND
  0
POLYLINE
  8
LAYER_1
  6
AIGENLINE001
 40
0.1058
 41
0.1058
 62
252
 66
1
 10
0
 20
0
 30
0
 70
128
  0
VERTEX
  8
LAYER_1
 10
63.2723
 20
137.4899
  0
VERTEX
  8
LAYER_1
 10
63.2723
 20
136.4937
  0
SEQEND
  0
POLYLINE
  8
LAYER_1
  6
AIGENLINE001
 40
0.1058
 41
0.1058
 62
252
 66
1
 10
0
 20
0
 30
0
 70
129
  0
VERTEX
  8
LAYER_1
 10
63.2098
 20
136.4716
  0
VERTEX
  8
LAYER_1
 10
63.1848
 20
136.5425
  0
VERTEX
  8
LAYER_1
 10
63.1156
 20
136.6028
  0
VERTEX
  8
LAYER_1
 10
62.9939
 20
136.6529
  0
VERTEX
  8
LAYER_1
 10
62.7973
 20
136.6778
 42
0.1308038438
  0
VERTEX
  8
LAYER_1
 10
62.4698
 20
136.597
 42
0.2245167762
  0
VERTEX
  8
LAYER_1
 10
62.3848
 20
136.4716
  0
VERTEX
  8
LAYER_1
 10
62.4099
 20
136.4007
  0
VERTEX
  8
LAYER_1
 10
62.479
 20
136.3404
  0
VERTEX
  8
LAYER_1
 10
62.6007
 20
136.2902
  0
VERTEX
  8
LAYER_1
 10
62.7973
 20
136.2653
 42
0.1308534596
  0
VERTEX
  8
LAYER_1
 10
63.1249
 20
136.3462
 42
0.2242213635
  0
SEQEND
  0
POLYLINE
  8
LAYER_1
  6
AIGENLINE001
 40
0.1058
 41
0.1058
 62
252
 66
1
 10
0
 20
0
 30
0
 70
129
  0
VERTEX
  8
LAYER_1
 10
63.2723
 20
136.4934
  0
VERTEX
  8
LAYER_1
 10
63.2474
 20
136.5706
  0
VERTEX
  8
LAYER_1
 10
63.1779
 20
136.6375
  0
VERTEX
  8
LAYER_1
 10
63.0581
 20
136.6947
 42
0.08088937906
  0
VERTEX
  8
LAYER_1
 10
62.7973
 20
136.7342
 42
0.1216577873
  0
VERTEX
  8
LAYER_1
 10
62.4382
 20
136.651
  0
VERTEX
  8
LAYER_1
 10
62.3532
 20
136.579
  0
VERTEX
  8
LAYER_1
 10
62.3223
 20
136.4934
  0
VERTEX
  8
LAYER_1
 10
62.3473
 20
136.4162
  0
VERTEX
  8
LAYER_1
 10
62.4167
 20
136.3494
  0
VERTEX
  8
LAYER_1
 10
62.5365
 20
136.2922
 42
0.08147757567
  0
VERTEX
  8
LAYER_1
 10
62.7973
 20
136.2527
 42
0.1216681364
  0
VERTEX
  8
LAYER_1
 10
63.1565
 20
136.3359
  0
VERTEX
  8
LAYER_1
 10
63.2415
 20
136.4079
  0
SEQEND
  0
POLYLINE
  8
LAYER_1
  6
AIGENLINE001
 40
0.1058
 41
0.1058
 62
252
 66
1
 10
0
 20
0
 30
0
 70
128
  0
VERTEX
  8
LAYER_1
 10
63.2723
 20
137.4027
  0
VERTEX
  8
LAYER_1
 10
63.2474
 20
137.472
  0
VERTEX
  8
LAYER_1
 10
63.1745
 20
137.534
  0
VERTEX
  8
LAYER_1
 10
63.0436
 20
137.5874
  0
VERTEX
  8
LAYER_1
 10
62.7973
 20
137.6187
 42
0.1158624945
  0
VERTEX
  8
LAYER_1
 10
62.4272
 20
137.5381
  0
VERTEX
  8
LAYER_1
 10
62.3473
 20
137.472
  0
VERTEX
  8
LAYER_1
 10
62.3223
 20
137.4027
  0
SEQEND
  0
POLYLINE
  8
LAYER_1
  6
AIGENLINE001
 40
0.1058
 41
0.1058
 62
252
 66
1
 10
0
 20
0
 30
0
 70
128
  0
VERTEX
  8
LAYER_1
 10
63.2723
 20
137.4503
 42
0.2404581831
  0
VERTEX
  8
LAYER_1
 10
63.1779
 20
137.6184
 42
0.1394581715
  0
VERTEX
  8
LAYER_1
 10
62.9046
 20
137.7241
  0
VERTEX
  8
LAYER_1
 10
62.7973
 20
137.7313
 42
0.1283468543
  0
VERTEX
  8
LAYER_1
 10
62.4574
 20
137.6466
 42
0.1847701872
  0
VERTEX
  8
LAYER_1
 10
62.3261
 20
137.4861
  0
VERTEX
  8
LAYER_1
 10
62.3223
 20
137.4503
  0
SEQEND
  0
POLYLINE
  8
LAYER_1
  6
AIGENLINE001
 40
0.1058
 41
0.1058
 62
252
 66
1
 10
0
 20
0
 30
0
 70
129
  0
VERTEX
  8
LAYER_1
 10
62.0623
 20
139.2154
  0
VERTEX
  8
LAYER_1
 10
62.0473
 20
139.2004
  0
VERTEX
  8
LAYER_1
 10
63.5473
 20
139.2004
  0
VERTEX
  8
LAYER_1
 10
63.5323
 20
139.2154
  0
SEQEND
  0
POLYLINE
  8
LAYER_1
  6
AIGENLINE001
 40
0.1058
 41
0.1058
 62
252
 66
1
 10
0
 20
0
 30
0
 70
129
  0
VERTEX
  8
LAYER_1
 10
61.5686
 20
128.4476
  0
VERTEX
  8
LAYER_1
 10
64.0184
 20
128.4476
  0
VERTEX
  8
LAYER_1
 10
64.0184
 20
127.4974
  0
VERTEX
  8
LAYER_1
 10
61.5686
 20
127.4974
  0
SEQEND
  0
POLYLINE
  8
LAYER_1
  6
AIGENLINE001
 40
0.1058
 41
0.1058
 62
252
 66
1
 10
0
 20
0
 30
0
 70
128
  0
VERTEX
  8
LAYER_1
 10
61.7939
 20
128.7976
  0
VERTEX
  8
LAYER_1
 10
63.9915
 20
128.7976
  0
SEQEND
  0
POLYLINE
  8
LAYER_1
  6
AIGENLINE001
 40
0.1058
 41
0.1058
 62
252
 66
1
 10
0
 20
0
 30
0
 70
128
  0
VERTEX
  8
LAYER_1
 10
61.3943
 20
128.9478
  0
VERTEX
  8
LAYER_1
 10
61.2179
 20
128.9478
  0
VERTEX
  8
LAYER_1
 10
61.2179
 20
128.7976
  0
VERTEX
  8
LAYER_1
 10
61.3943
 20
128.7976
  0
VERTEX
  8
LAYER_1
 10
61.2179
 20
128.7976
  0
VERTEX
  8
LAYER_1
 10
61.2179
 20
128.6477
  0
VERTEX
  8
LAYER_1
 10
61.5963
 20
128.6477
  0
VERTEX
  8
LAYER_1
 10
63.7917
 20
128.6477
  0
SEQEND
  0
POLYLINE
  8
LAYER_1
  6
AIGENLINE001
 40
0.1058
 41
0.1058
 62
252
 66
1
 10
0
 20
0
 30
0
 70
128
  0
VERTEX
  8
LAYER_1
 10
61.7939
 20
128.9478
  0
VERTEX
  8
LAYER_1
 10
63.9915
 20
128.9478
  0
SEQEND
  0
POLYLINE
  8
LAYER_1
  6
AIGENLINE001
 40
0.1058
 41
0.1058
 62
252
 66
1
 10
0
 20
0
 30
0
 70
128
  0
VERTEX
  8
LAYER_1
 10
64.1913
 20
128.9478
  0
VERTEX
  8
LAYER_1
 10
64.3677
 20
128.9478
  0
VERTEX
  8
LAYER_1
 10
64.3677
 20
128.7976
  0
VERTEX
  8
LAYER_1
 10
64.1913
 20
128.7976
  0
VERTEX
  8
LAYER_1
 10
64.3677
 20
128.7976
  0
VERTEX
  8
LAYER_1
 10
64.3677
 20
128.6477
  0
VERTEX
  8
LAYER_1
 10
64.0143
 20
128.6477
  0
SEQEND
  0
POLYLINE
  8
LAYER_1
  6
AIGENLINE001
 40
0.1058
 41
0.1058
 62
252
 66
1
 10
0
 20
0
 30
0
 70
128
  0
VERTEX
  8
LAYER_1
 10
63.7917
 20
128.7976
  0
VERTEX
  8
LAYER_1
 10
61.5941
 20
128.7976
  0
SEQEND
  0
POLYLINE
  8
LAYER_1
  6
AIGENLINE001
 40
0.1058
 41
0.1058
 62
252
 66
1
 10
0
 20
0
 30
0
 70
128
  0
VERTEX
  8
LAYER_1
 10
61.7443
 20
128.4476
  0
VERTEX
  8
LAYER_1
 10
61.5679
 20
128.4476
  0
VERTEX
  8
LAYER_1
 10
61.5679
 20
128.6481
  0
VERTEX
  8
LAYER_1
 10
61.7443
 20
128.6481
  0
SEQEND
  0
POLYLINE
  8
LAYER_1
  6
AIGENLINE001
 40
0.1058
 41
0.1058
 62
252
 66
1
 10
0
 20
0
 30
0
 70
128
  0
VERTEX
  8
LAYER_1
 10
62.0437
 20
128.6481
  0
VERTEX
  8
LAYER_1
 10
63.6918
 20
128.6481
  0
SEQEND
  0
POLYLINE
  8
LAYER_1
  6
AIGENLINE001
 40
0.1058
 41
0.1058
 62
252
 66
1
 10
0
 20
0
 30
0
 70
128
  0
VERTEX
  8
LAYER_1
 10
61.7172
 20
128.4476
  0
VERTEX
  8
LAYER_1
 10
63.8417
 20
128.4476
  0
VERTEX
  8
LAYER_1
 10
64.0177
 20
128.4472
  0
VERTEX
  8
LAYER_1
 10
64.0177
 20
128.6481
  0
VERTEX
  8
LAYER_1
 10
63.8417
 20
128.6481
  0
SEQEND
  0
POLYLINE
  8
LAYER_1
  6
AIGENLINE001
 40
0.1058
 41
0.1058
 62
252
 66
1
 10
0
 20
0
 30
0
 70
129
  0
VERTEX
  8
LAYER_1
 10
63.9429
 20
128.9478
  0
VERTEX
  8
LAYER_1
 10
64.2892
 20
128.9478
  0
SEQEND
  0
POLYLINE
  8
LAYER_1
  6
AIGENLINE001
 40
0.1058
 41
0.1058
 62
252
 66
1
 10
0
 20
0
 30
0
 70
129
  0
VERTEX
  8
LAYER_1
 10
61.2968
 20
128.9478
  0
VERTEX
  8
LAYER_1
 10
61.643
 20
128.9478
  0
VERTEX
  8
LAYER_1
 10
61.8194
 20
128.9478
  0
VERTEX
  8
LAYER_1
 10
61.643
 20
128.9478
  0
SEQEND
  0
POLYLINE
  8
LAYER_1
  6
AIGENLINE001
 40
0.1058
 41
0.1058
 62
252
 66
1
 10
0
 20
0
 30
0
 70
129
  0
VERTEX
  8
LAYER_1
 10
63.5716
 20
128.9478
  0
VERTEX
  8
LAYER_1
 10
62.2087
 20
128.9478
  0
SEQEND
  0
POLYLINE
  8
LAYER_1
  6
AIGENLINE001
 40
0.1058
 41
0.1058
 62
252
 66
1
 10
0
 20
0
 30
0
 70
129
  0
VERTEX
  8
LAYER_1
 10
63.9426
 20
128.9478
  0
VERTEX
  8
LAYER_1
 10
63.7662
 20
128.9478
  0
SEQEND
  0
POLYLINE
  8
LAYER_1
  6
AIGENLINE001
 40
0.1058
 41
0.1058
 62
252
 66
1
 10
0
 20
0
 30
0
 70
128
  0
VERTEX
  8
LAYER_1
 10
61.4973
 20
130.1098
  0
VERTEX
  8
LAYER_1
 10
61.248
 20
130.1904
  0
SEQEND
  0
POLYLINE
  8
LAYER_1
  6
AIGENLINE001
 40
0.1058
 41
0.1058
 62
252
 66
1
 10
0
 20
0
 30
0
 70
128
  0
VERTEX
  8
LAYER_1
 10
64.0895
 20
130.1098
  0
VERTEX
  8
LAYER_1
 10
64.3388
 20
130.1904
  0
SEQEND
  0
POLYLINE
  8
LAYER_1
  6
AIGENLINE001
 40
0.1058
 41
0.1058
 62
252
 66
1
 10
0
 20
0
 30
0
 70
128
  0
VERTEX
  8
LAYER_1
 10
62.9444
 20
128.7659
  0
VERTEX
  8
LAYER_1
 10
62.9444
 20
128.1254
  0
SEQEND
  0
POLYLINE
  8
LAYER_1
  6
AIGENLINE001
 40
0.1058
 41
0.1058
 62
252
 66
1
 10
0
 20
0
 30
0
 70
128
  0
VERTEX
  8
LAYER_1
 10
62.6424
 20
128.1254
  0
VERTEX
  8
LAYER_1
 10
62.6424
 20
128.7659
  0
SEQEND
  0
POLYLINE
  8
LAYER_1
  6
AIGENLINE001
 40
0.1058
 41
0.1058
 62
252
 66
1
 10
0
 20
0
 30
0
 70
128
  0
VERTEX
  8
LAYER_1
 10
63.1835
 20
129.1183
  0
VERTEX
  8
LAYER_1
 10
63.1835
 20
128.9442
  0
SEQEND
  0
POLYLINE
  8
LAYER_1
  6
AIGENLINE001
 40
0.1058
 41
0.1058
 62
252
 66
1
 10
0
 20
0
 30
0
 70
128
  0
VERTEX
  8
LAYER_1
 10
62.4063
 20
129.1183
  0
VERTEX
  8
LAYER_1
 10
62.4063
 20
128.9388
  0
VERTEX
  8
LAYER_1
 10
63.1805
 20
128.9388
  0
VERTEX
  8
LAYER_1
 10
63.02
 20
128.7661
  0
VERTEX
  8
LAYER_1
 10
62.567
 20
128.7659
  0
VERTEX
  8
LAYER_1
 10
62.4064
 20
128.9388
  0
SEQEND
  0
POLYLINE
  8
LAYER_1
  6
AIGENLINE001
 40
0.1058
 41
0.1058
 62
252
 66
1
 10
0
 20
0
 30
0
 70
129
  0
VERTEX
  8
LAYER_1
 10
64.3388
 20
130.1904
  0
VERTEX
  8
LAYER_1
 10
64.3649
 20
130.1995
  0
VERTEX
  8
LAYER_1
 10
64.3739
 20
130.2257
 42
0.3936766475
  0
VERTEX
  8
LAYER_1
 10
64.3388
 20
130.2609
  0
VERTEX
  8
LAYER_1
 10
61.2482
 20
130.2609
  0
VERTEX
  8
LAYER_1
 10
61.2232
 20
130.2507
  0
VERTEX
  8
LAYER_1
 10
61.2156
 20
130.2121
  0
VERTEX
  8
LAYER_1
 10
61.2482
 20
130.1904
  0
SEQEND
  0
POLYLINE
  8
LAYER_1
  6
AIGENLINE001
 40
0.1058
 41
0.1058
 62
252
 66
1
 10
0
 20
0
 30
0
 70
128
  0
VERTEX
  8
LAYER_1
 10
63.8127
 20
129.7576
  0
VERTEX
  8
LAYER_1
 10
63.8127
 20
129.1183
  0
VERTEX
  8
LAYER_1
 10
61.7741
 20
129.1183
  0
VERTEX
  8
LAYER_1
 10
61.7741
 20
129.7576
  0
SEQEND
  0
POLYLINE
  8
LAYER_1
  6
AIGENLINE001
 40
0.1058
 41
0.1058
 62
252
 66
1
 10
0
 20
0
 30
0
 70
128
  0
VERTEX
  8
LAYER_1
 10
61.9327
 20
130.2976
  0
VERTEX
  8
LAYER_1
 10
61.9327
 20
130.5
  0
SEQEND
  0
POLYLINE
  8
LAYER_1
  6
AIGENLINE001
 40
0.1058
 41
0.1058
 62
252
 66
1
 10
0
 20
0
 30
0
 70
128
  0
VERTEX
  8
LAYER_1
 10
63.6542
 20
130.2976
  0
VERTEX
  8
LAYER_1
 10
63.6542
 20
130.5
  0
SEQEND
  0
POLYLINE
  8
LAYER_1
  6
AIGENLINE001
 40
0.1058
 41
0.1058
 62
252
 66
1
 10
0
 20
0
 30
0
 70
128
  0
VERTEX
  8
LAYER_1
 10
61.2709
 20
130.651
  0
VERTEX
  8
LAYER_1
 10
61.4981
 20
130.6265
  0
VERTEX
  8
LAYER_1
 10
61.6249
 20
130.5772
  0
VERTEX
  8
LAYER_1
 10
61.7112
 20
130.5
  0
VERTEX
  8
LAYER_1
 10
63.8758
 20
130.5
  0
VERTEX
  8
LAYER_1
 10
63.9613
 20
130.5768
  0
VERTEX
  8
LAYER_1
 10
64.0869
 20
130.626
  0
VERTEX
  8
LAYER_1
 10
64.3121
 20
130.6509
  0
VERTEX
  8
LAYER_1
 10
64.3074
 20
130.6509
  0
SEQEND
  0
POLYLINE
  8
LAYER_1
  6
AIGENLINE001
 40
0.1058
 41
0.1058
 62
252
 66
1
 10
0
 20
0
 30
0
 70
129
  0
VERTEX
  8
LAYER_1
 10
62.7933
 20
131.255
  0
VERTEX
  8
LAYER_1
 10
62.8159
 20
131.2546
 42
-0.0501400032
  0
VERTEX
  8
LAYER_1
 10
63.7442
 20
131.1527
 42
-0.04852253219
  0
VERTEX
  8
LAYER_1
 10
64.1932
 20
131.0173
  0
VERTEX
  8
LAYER_1
 10
64.3773
 20
130.9223
  0
VERTEX
  8
LAYER_1
 10
64.4943
 20
130.827
  0
VERTEX
  8
LAYER_1
 10
64.5643
 20
130.7194
  0
VERTEX
  8
LAYER_1
 10
64.5589
 20
130.6728
  0
VERTEX
  8
LAYER_1
 10
64.5174
 20
130.6509
  0
VERTEX
  8
LAYER_1
 10
64.5172
 20
130.6509
  0
VERTEX
  8
LAYER_1
 10
61.0696
 20
130.6509
  0
VERTEX
  8
LAYER_1
 10
61.0255
 20
130.6711
  0
VERTEX
  8
LAYER_1
 10
61.0225
 20
130.7194
  0
VERTEX
  8
LAYER_1
 10
61.0925
 20
130.827
  0
VERTEX
  8
LAYER_1
 10
61.2096
 20
130.9223
  0
VERTEX
  8
LAYER_1
 10
61.3937
 20
131.0173
 42
-0.04823322844
  0
VERTEX
  8
LAYER_1
 10
61.8428
 20
131.1527
 42
-0.05013883937
  0
VERTEX
  8
LAYER_1
 10
62.7709
 20
131.2546
  0
SEQEND
  0
POLYLINE
  8
LAYER_1
  6
AIGENLINE001
 40
0.1058
 41
0.1058
 62
252
 66
1
 10
0
 20
0
 30
0
 70
129
  0
VERTEX
  8
LAYER_1
 10
61.7744
 20
129.7576
  0
VERTEX
  8
LAYER_1
 10
63.8127
 20
129.7576
 42
-0.3191804019
  0
VERTEX
  8
LAYER_1
 10
64.0895
 20
130.1098
  0
VERTEX
  8
LAYER_1
 10
61.4973
 20
130.1098
 42
-0.3192360168
  0
SEQEND
  0
POLYLINE
  8
LAYER_1
  6
AIGENLINE001
 40
0.1058
 41
0.1058
 62
252
 66
1
 10
0
 20
0
 30
0
 70
128
  0
VERTEX
  8
LAYER_1
 10
60.9414
 20
130.198
  0
VERTEX
  8
LAYER_1
 10
61.5632
 20
129.6947
  0
VERTEX
  8
LAYER_1
 10
61.5632
 20
128.9478
  0
SEQEND
  0
POLYLINE
  8
LAYER_1
  6
AIGENLINE001
 40
0.1058
 41
0.1058
 62
252
 66
1
 10
0
 20
0
 30
0
 70
128
  0
VERTEX
  8
LAYER_1
 10
56.0857
 20
134.6556
  0
VERTEX
  8
LAYER_1
 10
56.6863
 20
131.2732
  0
VERTEX
  8
LAYER_1
 10
56.7216
 20
131.1265
 42
0.2740302057
  0
VERTEX
  8
LAYER_1
 10
57.4964
 20
130.4423
  0
VERTEX
  8
LAYER_1
 10
60.9414
 20
130.198
  0
VERTEX
  8
LAYER_1
 10
64.4413
 20
130.198
  0
VERTEX
  8
LAYER_1
 10
67.9247
 20
130.4278
 42
0.3144694763
  0
VERTEX
  8
LAYER_1
 10
68.8609
 20
131.1265
  0
VERTEX
  8
LAYER_1
 10
69.4825
 20
134.6064
  0
SEQEND
  0
POLYLINE
  8
LAYER_1
  6
AIGENLINE001
 40
0.1058
 41
0.1058
 62
252
 66
1
 10
0
 20
0
 30
0
 70
128
  0
VERTEX
  8
LAYER_1
 10
64.4409
 20
130.198
  0
VERTEX
  8
LAYER_1
 10
63.8126
 20
129.6947
  0
VERTEX
  8
LAYER_1
 10
63.8126
 20
128.9478
  0
SEQEND
  0
POLYLINE
  8
LAYER_1
  6
AIGENLINE001
 40
0.1058
 41
0.1058
 62
252
 66
1
 10
0
 20
0
 30
0
 70
128
  0
VERTEX
  8
LAYER_1
 10
63.8126
 20
129.6947
  0
VERTEX
  8
LAYER_1
 10
61.5644
 20
129.6947
  0
SEQEND
  0
ENDBLK
  0
BLOCK
  8
LAYER_1
  2
AIGNBL01010005
 70
64
 10
0
 20
0
 30
0
  3
AIGNBL01010005
  0
POLYLINE
  8
LAYER_1
  6
AIGENLINE001
 40
0.1058
 41
0.1058
 62
252
 66
1
 10
0
 20
0
 30
0
 70
128
  0
VERTEX
  8
LAYER_1
 10
173.3127
 20
134.5804
  0
VERTEX
  8
LAYER_1
 10
174.8127
 20
134.5804
  0
SEQEND
  0
POLYLINE
  8
LAYER_1
  6
AIGENLINE001
 40
0.1058
 41
0.1058
 62
252
 66
1
 10
0
 20
0
 30
0
 70
128
  0
VERTEX
  8
LAYER_1
 10
174.0627
 20
140.2654
  0
VERTEX
  8
LAYER_1
 10
171.9767
 20
140.2654
  0
SEQEND
  0
POLYLINE
  8
LAYER_1
  6
AIGENLINE001
 40
0.1058
 41
0.1058
 62
252
 66
1
 10
0
 20
0
 30
0
 70
128
  0
VERTEX
  8
LAYER_1
 10
173.4502
 20
139.2154
  0
VERTEX
  8
LAYER_1
 10
173.4502
 20
139.2404
  0
SEQEND
  0
POLYLINE
  8
LAYER_1
  6
AIGENLINE001
 40
0.1058
 41
0.1058
 62
252
 66
1
 10
0
 20
0
 30
0
 70
128
  0
VERTEX
  8
LAYER_1
 10
174.6752
 20
139.2154
  0
VERTEX
  8
LAYER_1
 10
174.6752
 20
139.2404
  0
SEQEND
  0
POLYLINE
  8
LAYER_1
  6
AIGENLINE001
 40
0.1058
 41
0.1058
 62
252
 66
1
 10
0
 20
0
 30
0
 70
129
  0
VERTEX
  8
LAYER_1
 10
173.2127
 20
140.4654
  0
VERTEX
  8
LAYER_1
 10
172.1377
 20
140.4654
  0
VERTEX
  8
LAYER_1
 10
172.1127
 20
140.4404
  0
VERTEX
  8
LAYER_1
 10
172.1127
 20
140.0904
  0
VERTEX
  8
LAYER_1
 10
172.1377
 20
140.0654
  0
VERTEX
  8
LAYER_1
 10
173.2127
 20
140.0654
 42
-0.4143858456
  0
VERTEX
  8
LAYER_1
 10
173.3127
 20
139.9654
  0
VERTEX
  8
LAYER_1
 10
173.3127
 20
139.2654
  0
VERTEX
  8
LAYER_1
 10
173.3377
 20
139.2404
  0
VERTEX
  8
LAYER_1
 10
174.0627
 20
139.2404
  0
VERTEX
  8
LAYER_1
 10
174.7877
 20
139.2404
  0
VERTEX
  8
LAYER_1
 10
174.8127
 20
139.2654
  0
VERTEX
  8
LAYER_1
 10
174.8127
 20
140.7404
 42
0.4144432998
  0
VERTEX
  8
LAYER_1
 10
174.7377
 20
140.8154
  0
VERTEX
  8
LAYER_1
 10
173.3877
 20
140.8154
 42
0.4141821532
  0
VERTEX
  8
LAYER_1
 10
173.3127
 20
140.7404
  0
VERTEX
  8
LAYER_1
 10
173.3127
 20
140.5654
 42
-0.4142370874
  0
SEQEND
  0
POLYLINE
  8
LAYER_1
  6
AIGENLINE001
 40
0.1058
 41
0.1058
 62
252
 66
1
 10
0
 20
0
 30
0
 70
129
  0
VERTEX
  8
LAYER_1
 10
173.0877
 20
134.4654
 42
-0.4141903032
  0
VERTEX
  8
LAYER_1
 10
173.1877
 20
134.5654
  0
VERTEX
  8
LAYER_1
 10
174.9377
 20
134.5654
 42
-0.4143858456
  0
VERTEX
  8
LAYER_1
 10
175.0377
 20
134.4654
  0
VERTEX
  8
LAYER_1
 10
175.0377
 20
134.4154
  0
VERTEX
  8
LAYER_1
 10
173.0877
 20
134.4154
  0
SEQEND
  0
POLYLINE
  8
LAYER_1
  6
AIGENLINE001
 40
0.1058
 41
0.1058
 62
252
 66
1
 10
0
 20
0
 30
0
 70
128
  0
VERTEX
  8
LAYER_1
 10
174.0627
 20
132.1025
  0
VERTEX
  8
LAYER_1
 10
174.0627
 20
140.9118
  0
SEQEND
  0
POLYLINE
  8
LAYER_1
  6
AIGENLINE001
 40
0.1058
 41
0.1058
 62
252
 66
1
 10
0
 20
0
 30
0
 70
128
  0
VERTEX
  8
LAYER_1
 10
174.7977
 20
134.5654
  0
VERTEX
  8
LAYER_1
 10
174.8127
 20
134.5804
  0
VERTEX
  8
LAYER_1
 10
174.8127
 20
139.2004
  0
SEQEND
  0
POLYLINE
  8
LAYER_1
  6
AIGENLINE001
 40
0.1058
 41
0.1058
 62
252
 66
1
 10
0
 20
0
 30
0
 70
128
  0
VERTEX
  8
LAYER_1
 10
169.9783
 20
137.2903
  0
VERTEX
  8
LAYER_1
 10
170.0574
 20
137.4273
 42
-0.2679564176
  0
VERTEX
  8
LAYER_1
 10
170.944
 20
137.9392
  0
VERTEX
  8
LAYER_1
 10
173.3127
 20
137.9392
  0
VERTEX
  8
LAYER_1
 10
173.3127
 20
134.5804
  0
VERTEX
  8
LAYER_1
 10
173.3277
 20
134.5654
  0
SEQEND
  0
POLYLINE
  8
LAYER_1
  6
AIGENLINE001
 40
0.1058
 41
0.1058
 62
252
 66
1
 10
0
 20
0
 30
0
 70
128
  0
VERTEX
  8
LAYER_1
 10
169.8922
 20
137.1437
  0
VERTEX
  8
LAYER_1
 10
169.3922
 20
136.2777
  0
VERTEX
  8
LAYER_1
 10
169.3489
 20
136.2527
  0
VERTEX
  8
LAYER_1
 10
168.5986
 20
136.6781
  0
VERTEX
  8
LAYER_1
 10
168.5878
 20
136.6844
  0
VERTEX
  8
LAYER_1
 10
168.5628
 20
136.7277
  0
VERTEX
  8
LAYER_1
 10
169.0695
 20
137.6187
  0
SEQEND
  0
POLYLINE
  8
LAYER_1
  6
AIGENLINE001
 40
0.1058
 41
0.1058
 62
252
 66
1
 10
0
 20
0
 30
0
 70
128
  0
VERTEX
  8
LAYER_1
 10
169.8239
 20
137.2755
  0
VERTEX
  8
LAYER_1
 10
169.7964
 20
137.2278
  0
SEQEND
  0
POLYLINE
  8
LAYER_1
  6
AIGENLINE001
 40
0.1058
 41
0.1058
 62
252
 66
1
 10
0
 20
0
 30
0
 70
128
  0
VERTEX
  8
LAYER_1
 10
169.1902
 20
137.5778
  0
VERTEX
  8
LAYER_1
 10
169.2177
 20
137.6255
  0
SEQEND
  0
POLYLINE
  8
LAYER_1
  6
AIGENLINE001
 40
0.1058
 41
0.1058
 62
252
 66
1
 10
0
 20
0
 30
0
 70
128
  0
VERTEX
  8
LAYER_1
 10
169.1345
 20
137.7313
  0
VERTEX
  8
LAYER_1
 10
169.117
 20
137.7009
  0
SEQEND
  0
POLYLINE
  8
LAYER_1
  6
AIGENLINE001
 40
0.1058
 41
0.1058
 62
252
 66
1
 10
0
 20
0
 30
0
 70
128
  0
VERTEX
  8
LAYER_1
 10
169.5208
 20
137.4505
  0
VERTEX
  8
LAYER_1
 10
169.9192
 20
137.2205
  0
VERTEX
  8
LAYER_1
 10
169.9397
 20
137.2259
  0
SEQEND
  0
POLYLINE
  8
LAYER_1
  6
AIGENLINE001
 40
0.1058
 41
0.1058
 62
252
 66
1
 10
0
 20
0
 30
0
 70
128
  0
VERTEX
  8
LAYER_1
 10
169.9578
 20
137.2848
  0
VERTEX
  8
LAYER_1
 10
169.9783
 20
137.2903
  0
VERTEX
  8
LAYER_1
 10
169.9578
 20
137.2848
  0
VERTEX
  8
LAYER_1
 10
169.1589
 20
137.746
  0
VERTEX
  8
LAYER_1
 10
169.1534
 20
137.7665
  0
VERTEX
  8
LAYER_1
 10
169.2325
 20
137.9035
 42
-0.2679584401
  0
VERTEX
  8
LAYER_1
 10
170.944
 20
138.8917
  0
VERTEX
  8
LAYER_1
 10
173.3127
 20
138.8917
  0
VERTEX
  8
LAYER_1
 10
173.3127
 20
139.2004
  0
SEQEND
  0
POLYLINE
  8
LAYER_1
  6
AIGENLINE001
 40
0.1058
 41
0.1058
 62
252
 66
1
 10
0
 20
0
 30
0
 70
128
  0
VERTEX
  8
LAYER_1
 10
173.3714
 20
138.8202
  0
VERTEX
  8
LAYER_1
 10
173.4276
 20
138.7271
  0
VERTEX
  8
LAYER_1
 10
173.4467
 20
138.6363
  0
VERTEX
  8
LAYER_1
 10
173.4644
 20
138.5309
  0
VERTEX
  8
LAYER_1
 10
173.4496
 20
138.262
  0
VERTEX
  8
LAYER_1
 10
173.4315
 20
138.1442
  0
VERTEX
  8
LAYER_1
 10
173.3854
 20
138.0299
  0
SEQEND
  0
POLYLINE
  8
LAYER_1
  6
AIGENLINE001
 40
0.1058
 41
0.1058
 62
252
 66
1
 10
0
 20
0
 30
0
 70
128
  0
VERTEX
  8
LAYER_1
 10
173.3277
 20
140.4404
  0
VERTEX
  8
LAYER_1
 10
173.375
 20
140.3733
  0
VERTEX
  8
LAYER_1
 10
173.3926
 20
140.317
  0
VERTEX
  8
LAYER_1
 10
173.3889
 20
140.2134
  0
VERTEX
  8
LAYER_1
 10
173.3634
 20
140.14
  0
VERTEX
  8
LAYER_1
 10
173.3377
 20
140.0904
  0
SEQEND
  0
POLYLINE
  8
LAYER_1
  6
AIGENLINE001
 40
0.1058
 41
0.1058
 62
252
 66
1
 10
0
 20
0
 30
0
 70
129
  0
VERTEX
  8
LAYER_1
 10
169.9192
 20
137.2205
  0
VERTEX
  8
LAYER_1
 10
169.1224
 20
137.6805
  0
VERTEX
  8
LAYER_1
 10
169.117
 20
137.7009
  0
VERTEX
  8
LAYER_1
 10
169.9397
 20
137.226
  0
VERTEX
  8
LAYER_1
 10
169.9572
 20
137.2563
  0
VERTEX
  8
LAYER_1
 10
169.9397
 20
137.2259
  0
SEQEND
  0
POLYLINE
  8
LAYER_1
  6
AIGENLINE001
 40
0.1058
 41
0.1058
 62
252
 66
1
 10
0
 20
0
 30
0
 70
128
  0
VERTEX
  8
LAYER_1
 10
169.1686
 20
137.7404
  0
VERTEX
  8
LAYER_1
 10
169.1345
 20
137.7313
  0
VERTEX
  8
LAYER_1
 10
169.9572
 20
137.2563
  0
VERTEX
  8
LAYER_1
 10
169.948
 20
137.2904
  0
SEQEND
  0
POLYLINE
  8
LAYER_1
  6
AIGENLINE001
 40
0.1058
 41
0.1058
 62
252
 66
1
 10
0
 20
0
 30
0
 70
129
  0
VERTEX
  8
LAYER_1
 10
169.4933
 20
137.4028
  0
VERTEX
  8
LAYER_1
 10
169.1036
 20
137.6278
  0
VERTEX
  8
LAYER_1
 10
169.0695
 20
137.6187
  0
VERTEX
  8
LAYER_1
 10
169.8922
 20
137.1437
  0
VERTEX
  8
LAYER_1
 10
169.883
 20
137.1778
  0
SEQEND
  0
POLYLINE
  8
LAYER_1
  6
AIGENLINE001
 40
0.1058
 41
0.1058
 62
252
 66
1
 10
0
 20
0
 30
0
 70
129
  0
VERTEX
  8
LAYER_1
 10
174.7977
 20
139.2154
  0
VERTEX
  8
LAYER_1
 10
174.8127
 20
139.2004
  0
VERTEX
  8
LAYER_1
 10
173.3127
 20
139.2004
  0
VERTEX
  8
LAYER_1
 10
173.3277
 20
139.2154
  0
SEQEND
  0
POLYLINE
  8
LAYER_1
  6
AIGENLINE001
 40
0.1058
 41
0.1058
 62
252
 66
1
 10
0
 20
0
 30
0
 70
128
  0
VERTEX
  8
LAYER_1
 10
172.3002
 20
138.0142
  0
VERTEX
  8
LAYER_1
 10
172.3127
 20
137.9392
  0
VERTEX
  8
LAYER_1
 10
172.4127
 20
137.9392
  0
SEQEND
  0
POLYLINE
  8
LAYER_1
  6
AIGENLINE001
 40
0.1058
 41
0.1058
 62
252
 66
1
 10
0
 20
0
 30
0
 70
128
  0
VERTEX
  8
LAYER_1
 10
172.3127
 20
138.0142
  0
VERTEX
  8
LAYER_1
 10
172.3127
 20
137.9392
  0
VERTEX
  8
LAYER_1
 10
172.3252
 20
138.0142
  0
SEQEND
  0
POLYLINE
  8
LAYER_1
  6
AIGENLINE001
 40
0.1058
 41
0.1058
 62
252
 66
1
 10
0
 20
0
 30
0
 70
128
  0
VERTEX
  8
LAYER_1
 10
172.3252
 20
138.8167
  0
VERTEX
  8
LAYER_1
 10
172.3127
 20
138.8917
  0
VERTEX
  8
LAYER_1
 10
172.4127
 20
138.8917
  0
SEQEND
  0
POLYLINE
  8
LAYER_1
  6
AIGENLINE001
 40
0.1058
 41
0.1058
 62
252
 66
1
 10
0
 20
0
 30
0
 70
128
  0
VERTEX
  8
LAYER_1
 10
172.3127
 20
138.8167
  0
VERTEX
  8
LAYER_1
 10
172.3127
 20
138.8917
  0
VERTEX
  8
LAYER_1
 10
172.3002
 20
138.8167
  0
SEQEND
  0
POLYLINE
  8
LAYER_1
  6
AIGENLINE001
 40
0.1058
 41
0.1058
 62
252
 66
1
 10
0
 20
0
 30
0
 70
128
  0
VERTEX
  8
LAYER_1
 10
164.087
 20
128.9478
  0
VERTEX
  8
LAYER_1
 10
176.6209
 20
128.9478
  0
SEQEND
  0
POLYLINE
  8
LAYER_1
  6
AIGENLINE001
 40
0.1058
 41
0.1058
 62
252
 66
1
 10
0
 20
0
 30
0
 70
128
  0
VERTEX
  8
LAYER_1
 10
170.5353
 20
130.3496
  0
VERTEX
  8
LAYER_1
 10
166.981
 20
130.3496
  0
SEQEND
  0
POLYLINE
  8
LAYER_1
  6
AIGENLINE001
 40
0.1058
 41
0.1058
 62
252
 66
1
 10
0
 20
0
 30
0
 70
128
  0
VERTEX
  8
LAYER_1
 10
174.7317
 20
134.3561
  0
VERTEX
  8
LAYER_1
 10
176.3641
 20
134.3561
 42
0.3974067231
  0
VERTEX
  8
LAYER_1
 10
176.5133
 20
134.5008
  0
VERTEX
  8
LAYER_1
 10
176.5133
 20
134.5596
 42
-0.4140822947
  0
VERTEX
  8
LAYER_1
 10
176.6625
 20
134.7088
  0
VERTEX
  8
LAYER_1
 10
176.6942
 20
134.7088
  0
SEQEND
  0
POLYLINE
  8
LAYER_1
  6
AIGENLINE001
 40
0.1058
 41
0.1058
 62
252
 66
1
 10
0
 20
0
 30
0
 70
128
  0
VERTEX
  8
LAYER_1
 10
169.9022
 20
129.7437
  0
VERTEX
  8
LAYER_1
 10
170.5262
 20
130.3496
  0
VERTEX
  8
LAYER_1
 10
171.5663
 20
130.3948
  0
SEQEND
  0
POLYLINE
  8
LAYER_1
  6
AIGENLINE001
 40
0.1058
 41
0.1058
 62
252
 66
1
 10
0
 20
0
 30
0
 70
128
  0
VERTEX
  8
LAYER_1
 10
171.7018
 20
130.5472
 42
-0.3872152152
  0
VERTEX
  8
LAYER_1
 10
171.5607
 20
130.4041
  0
SEQEND
  0
POLYLINE
  8
LAYER_1
  6
AIGENLINE001
 40
0.1058
 41
0.1058
 62
252
 66
1
 10
0
 20
0
 30
0
 70
128
  0
VERTEX
  8
LAYER_1
 10
171.711
 20
130.5395
  0
VERTEX
  8
LAYER_1
 10
171.8557
 20
134.2114
  0
SEQEND
  0
POLYLINE
  8
LAYER_1
  6
AIGENLINE001
 40
0.1058
 41
0.1058
 62
252
 66
1
 10
0
 20
0
 30
0
 70
128
  0
VERTEX
  8
LAYER_1
 10
173.4746
 20
134.3561
  0
VERTEX
  8
LAYER_1
 10
172.0004
 20
134.3561
 42
0.3762294032
  0
VERTEX
  8
LAYER_1
 10
171.8468
 20
134.2127
  0
SEQEND
  0
POLYLINE
  8
LAYER_1
  6
AIGENLINE001
 40
0.1058
 41
0.1058
 62
252
 66
1
 10
0
 20
0
 30
0
 70
128
  0
VERTEX
  8
LAYER_1
 10
174.7317
 20
133.8496
  0
VERTEX
  8
LAYER_1
 10
175.5456
 20
133.8496
  0
SEQEND
  0
POLYLINE
  8
LAYER_1
  6
AIGENLINE001
 40
0.1058
 41
0.1058
 62
252
 66
1
 10
0
 20
0
 30
0
 70
128
  0
VERTEX
  8
LAYER_1
 10
175.5411
 20
133.8586
 42
-0.4059891073
  0
VERTEX
  8
LAYER_1
 10
175.7897
 20
133.6169
  0
SEQEND
  0
POLYLINE
  8
LAYER_1
  6
AIGENLINE001
 40
0.1058
 41
0.1058
 62
252
 66
1
 10
0
 20
0
 30
0
 70
128
  0
VERTEX
  8
LAYER_1
 10
170.4087
 20
129.5356
  0
VERTEX
  8
LAYER_1
 10
170.7433
 20
129.8522
  0
VERTEX
  8
LAYER_1
 10
171.5934
 20
129.8974
  0
SEQEND
  0
POLYLINE
  8
LAYER_1
  6
AIGENLINE001
 40
0.1058
 41
0.1058
 62
252
 66
1
 10
0
 20
0
 30
0
 70
128
  0
VERTEX
  8
LAYER_1
 10
172.1989
 20
130.5277
 42
-0.3880095238
  0
VERTEX
  8
LAYER_1
 10
171.5857
 20
129.9073
  0
SEQEND
  0
POLYLINE
  8
LAYER_1
  6
AIGENLINE001
 40
0.1058
 41
0.1058
 62
252
 66
1
 10
0
 20
0
 30
0
 70
128
  0
VERTEX
  8
LAYER_1
 10
172.2084
 20
130.5214
  0
VERTEX
  8
LAYER_1
 10
172.326
 20
133.6145
  0
SEQEND
  0
POLYLINE
  8
LAYER_1
  6
AIGENLINE001
 40
0.1058
 41
0.1058
 62
252
 66
1
 10
0
 20
0
 30
0
 70
128
  0
VERTEX
  8
LAYER_1
 10
172.3262
 20
133.6197
 42
-0.4027816726
  0
VERTEX
  8
LAYER_1
 10
172.5747
 20
133.8586
  0
SEQEND
  0
POLYLINE
  8
LAYER_1
  6
AIGENLINE001
 40
0.1058
 41
0.1058
 62
252
 66
1
 10
0
 20
0
 30
0
 70
128
  0
VERTEX
  8
LAYER_1
 10
173.4746
 20
133.8496
  0
VERTEX
  8
LAYER_1
 10
174.7317
 20
133.8496
  0
VERTEX
  8
LAYER_1
 10
174.7317
 20
134.3561
  0
VERTEX
  8
LAYER_1
 10
173.4746
 20
134.3561
  0
VERTEX
  8
LAYER_1
 10
173.4746
 20
133.8496
  0
VERTEX
  8
LAYER_1
 10
172.5792
 20
133.8496
  0
SEQEND
  0
POLYLINE
  8
LAYER_1
  6
AIGENLINE001
 40
0.1058
 41
0.1058
 62
252
 66
1
 10
0
 20
0
 30
0
 70
128
  0
VERTEX
  8
LAYER_1
 10
163.5941
 20
129.201
 42
-0.4141326974
  0
VERTEX
  8
LAYER_1
 10
163.7433
 20
129.0518
  0
VERTEX
  8
LAYER_1
 10
163.7433
 20
128.9478
  0
VERTEX
  8
LAYER_1
 10
164.087
 20
128.9478
  0
SEQEND
  0
POLYLINE
  8
LAYER_1
  6
AIGENLINE001
 40
0.1058
 41
0.1058
 62
252
 66
1
 10
0
 20
0
 30
0
 70
128
  0
VERTEX
  8
LAYER_1
 10
163.5986
 20
129.192
  0
VERTEX
  8
LAYER_1
 10
163.3544
 20
129.192
  0
SEQEND
  0
POLYLINE
  8
LAYER_1
  6
AIGENLINE001
 40
0.1058
 41
0.1058
 62
252
 66
1
 10
0
 20
0
 30
0
 70
128
  0
VERTEX
  8
LAYER_1
 10
163.3499
 20
129.201
 42
-0.2024845997
  0
VERTEX
  8
LAYER_1
 10
163.1003
 20
129.3064
 42
-0.2024029625
  0
VERTEX
  8
LAYER_1
 10
163.0018
 20
129.5587
  0
SEQEND
  0
POLYLINE
  8
LAYER_1
  6
AIGENLINE001
 40
0.1058
 41
0.1058
 62
252
 66
1
 10
0
 20
0
 30
0
 70
128
  0
VERTEX
  8
LAYER_1
 10
163.0017
 20
129.5537
  0
VERTEX
  8
LAYER_1
 10
163.1374
 20
134.555
  0
SEQEND
  0
POLYLINE
  8
LAYER_1
  6
AIGENLINE001
 40
0.1058
 41
0.1058
 62
252
 66
1
 10
0
 20
0
 30
0
 70
128
  0
VERTEX
  8
LAYER_1
 10
163.1374
 20
134.5636
 42
-0.4063599535
  0
VERTEX
  8
LAYER_1
 10
163.2866
 20
134.7088
  0
SEQEND
  0
POLYLINE
  8
LAYER_1
  6
AIGENLINE001
 40
0.1058
 41
0.1058
 62
252
 66
1
 10
0
 20
0
 30
0
 70
128
  0
VERTEX
  8
LAYER_1
 10
163.4991
 20
134.555
  0
VERTEX
  8
LAYER_1
 10
163.6438
 20
130.8289
  0
SEQEND
  0
POLYLINE
  8
LAYER_1
  6
AIGENLINE001
 40
0.1058
 41
0.1058
 62
252
 66
1
 10
0
 20
0
 30
0
 70
128
  0
VERTEX
  8
LAYER_1
 10
163.7655
 20
130.6854
 42
-0.3674556226
  0
VERTEX
  8
LAYER_1
 10
163.6349
 20
130.8278
  0
SEQEND
  0
POLYLINE
  8
LAYER_1
  6
AIGENLINE001
 40
0.1058
 41
0.1058
 62
252
 66
1
 10
0
 20
0
 30
0
 70
128
  0
VERTEX
  8
LAYER_1
 10
163.7704
 20
130.6842
  0
VERTEX
  8
LAYER_1
 10
166.1399
 20
130.4039
  0
VERTEX
  8
LAYER_1
 10
166.981
 20
130.3496
  0
VERTEX
  8
LAYER_1
 10
167.6051
 20
129.7437
  0
SEQEND
  0
POLYLINE
  8
LAYER_1
  6
AIGENLINE001
 40
0.1058
 41
0.1058
 62
252
 66
1
 10
0
 20
0
 30
0
 70
128
  0
VERTEX
  8
LAYER_1
 10
169.9022
 20
129.2372
  0
VERTEX
  8
LAYER_1
 10
167.6051
 20
129.2372
  0
SEQEND
  0
POLYLINE
  8
LAYER_1
  6
AIGENLINE001
 40
0.1058
 41
0.1058
 62
252
 66
1
 10
0
 20
0
 30
0
 70
128
  0
VERTEX
  8
LAYER_1
 10
163.4901
 20
134.5596
 42
0.3974067231
  0
VERTEX
  8
LAYER_1
 10
163.3454
 20
134.7088
  0
VERTEX
  8
LAYER_1
 10
163.2911
 20
134.7088
  0
VERTEX
  8
LAYER_1
 10
163.3544
 20
134.7088
  0
VERTEX
  8
LAYER_1
 10
176.6671
 20
134.7088
  0
VERTEX
  8
LAYER_1
 10
176.7213
 20
134.7088
 42
-0.3986529726
  0
VERTEX
  8
LAYER_1
 10
176.866
 20
134.5595
  0
VERTEX
  8
LAYER_1
 10
176.866
 20
128.9478
  0
VERTEX
  8
LAYER_1
 10
175.9255
 20
128.9478
  0
SEQEND
  0
POLYLINE
  8
LAYER_1
  6
AIGENLINE001
 40
0.1058
 41
0.1058
 62
252
 66
1
 10
0
 20
0
 30
0
 70
128
  0
VERTEX
  8
LAYER_1
 10
175.7988
 20
133.6145
  0
VERTEX
  8
LAYER_1
 10
175.9255
 20
128.9478
  0
VERTEX
  8
LAYER_1
 10
164.087
 20
128.9478
  0
VERTEX
  8
LAYER_1
 10
164.1051
 20
129.8522
 42
-0.2054152309
  0
VERTEX
  8
LAYER_1
 10
164.1903
 20
130.0351
 42
-0.2094148299
  0
VERTEX
  8
LAYER_1
 10
164.3807
 20
130.0949
  0
VERTEX
  8
LAYER_1
 10
166.0947
 20
129.9064
  0
VERTEX
  8
LAYER_1
 10
166.764
 20
129.8612
  0
VERTEX
  8
LAYER_1
 10
167.0986
 20
129.5356
  0
VERTEX
  8
LAYER_1
 10
167.0986
 20
129.2372
  0
VERTEX
  8
LAYER_1
 10
167.6051
 20
129.2372
  0
VERTEX
  8
LAYER_1
 10
167.6051
 20
129.7437
  0
VERTEX
  8
LAYER_1
 10
169.9022
 20
129.7437
  0
VERTEX
  8
LAYER_1
 10
169.9022
 20
129.2372
  0
VERTEX
  8
LAYER_1
 10
170.4087
 20
129.2372
  0
VERTEX
  8
LAYER_1
 10
170.4087
 20
129.5266
  0
SEQEND
  0
POLYLINE
  8
LAYER_1
  6
AIGENLINE001
 40
0.1058
 41
0.1058
 62
252
 66
1
 10
0
 20
0
 30
0
 70
128
  0
VERTEX
  8
LAYER_1
 10
169.2601
 20
130.3496
  0
VERTEX
  8
LAYER_1
 10
168.7627
 20
130.3496
  0
SEQEND
  0
POLYLINE
  8
LAYER_1
  6
AIGENLINE001
 40
0.1058
 41
0.1058
 62
252
 66
1
 10
0
 20
0
 30
0
 70
128
  0
VERTEX
  8
LAYER_1
 10
169.2601
 20
134.7088
  0
VERTEX
  8
LAYER_1
 10
168.7627
 20
134.7088
  0
SEQEND
  0
POLYLINE
  8
LAYER_1
  6
AIGENLINE001
 40
0.1058
 41
0.1058
 62
252
 66
1
 10
0
 20
0
 30
0
 70
129
  0
VERTEX
  8
LAYER_1
 10
174.0986
 20
135.4685
  0
VERTEX
  8
LAYER_1
 10
174.0986
 20
134.8535
  0
SEQEND
  0
POLYLINE
  8
LAYER_1
  6
AIGENLINE001
 40
0.1058
 41
0.1058
 62
252
 66
1
 10
0
 20
0
 30
0
 70
129
  0
VERTEX
  8
LAYER_1
 10
167.5407
 20
128.4476
  0
VERTEX
  8
LAYER_1
 10
169.9904
 20
128.4476
  0
VERTEX
  8
LAYER_1
 10
169.9904
 20
127.4974
  0
VERTEX
  8
LAYER_1
 10
167.5407
 20
127.4974
  0
SEQEND
  0
POLYLINE
  8
LAYER_1
  6
AIGENLINE001
 40
0.1058
 41
0.1058
 62
252
 66
1
 10
0
 20
0
 30
0
 70
128
  0
VERTEX
  8
LAYER_1
 10
167.766
 20
128.7976
  0
VERTEX
  8
LAYER_1
 10
169.9636
 20
128.7976
  0
SEQEND
  0
POLYLINE
  8
LAYER_1
  6
AIGENLINE001
 40
0.1058
 41
0.1058
 62
252
 66
1
 10
0
 20
0
 30
0
 70
128
  0
VERTEX
  8
LAYER_1
 10
167.3663
 20
128.9478
  0
VERTEX
  8
LAYER_1
 10
167.1899
 20
128.9478
  0
VERTEX
  8
LAYER_1
 10
167.1899
 20
128.7976
  0
VERTEX
  8
LAYER_1
 10
167.3663
 20
128.7976
  0
VERTEX
  8
LAYER_1
 10
167.1899
 20
128.7976
  0
VERTEX
  8
LAYER_1
 10
167.1899
 20
128.6477
  0
VERTEX
  8
LAYER_1
 10
167.5684
 20
128.6477
  0
VERTEX
  8
LAYER_1
 10
169.7638
 20
128.6477
  0
SEQEND
  0
POLYLINE
  8
LAYER_1
  6
AIGENLINE001
 40
0.1058
 41
0.1058
 62
252
 66
1
 10
0
 20
0
 30
0
 70
128
  0
VERTEX
  8
LAYER_1
 10
167.766
 20
128.9478
  0
VERTEX
  8
LAYER_1
 10
169.9636
 20
128.9478
  0
SEQEND
  0
POLYLINE
  8
LAYER_1
  6
AIGENLINE001
 40
0.1058
 41
0.1058
 62
252
 66
1
 10
0
 20
0
 30
0
 70
128
  0
VERTEX
  8
LAYER_1
 10
170.1634
 20
128.9478
  0
VERTEX
  8
LAYER_1
 10
170.3398
 20
128.9478
  0
VERTEX
  8
LAYER_1
 10
170.3398
 20
128.7976
  0
VERTEX
  8
LAYER_1
 10
170.1634
 20
128.7976
  0
VERTEX
  8
LAYER_1
 10
170.3398
 20
128.7976
  0
VERTEX
  8
LAYER_1
 10
170.3398
 20
128.6477
  0
VERTEX
  8
LAYER_1
 10
169.9863
 20
128.6477
  0
SEQEND
  0
POLYLINE
  8
LAYER_1
  6
AIGENLINE001
 40
0.1058
 41
0.1058
 62
252
 66
1
 10
0
 20
0
 30
0
 70
128
  0
VERTEX
  8
LAYER_1
 10
169.7638
 20
128.7976
  0
VERTEX
  8
LAYER_1
 10
167.5661
 20
128.7976
  0
SEQEND
  0
POLYLINE
  8
LAYER_1
  6
AIGENLINE001
 40
0.1058
 41
0.1058
 62
252
 66
1
 10
0
 20
0
 30
0
 70
128
  0
VERTEX
  8
LAYER_1
 10
167.7163
 20
128.4476
  0
VERTEX
  8
LAYER_1
 10
167.5399
 20
128.4476
  0
VERTEX
  8
LAYER_1
 10
167.5399
 20
128.6481
  0
VERTEX
  8
LAYER_1
 10
167.7163
 20
128.6481
  0
SEQEND
  0
POLYLINE
  8
LAYER_1
  6
AIGENLINE001
 40
0.1058
 41
0.1058
 62
252
 66
1
 10
0
 20
0
 30
0
 70
128
  0
VERTEX
  8
LAYER_1
 10
168.0157
 20
128.6481
  0
VERTEX
  8
LAYER_1
 10
169.6639
 20
128.6481
  0
SEQEND
  0
POLYLINE
  8
LAYER_1
  6
AIGENLINE001
 40
0.1058
 41
0.1058
 62
252
 66
1
 10
0
 20
0
 30
0
 70
128
  0
VERTEX
  8
LAYER_1
 10
167.6893
 20
128.4476
  0
VERTEX
  8
LAYER_1
 10
169.8137
 20
128.4476
  0
VERTEX
  8
LAYER_1
 10
169.9898
 20
128.4472
  0
VERTEX
  8
LAYER_1
 10
169.9898
 20
128.6481
  0
VERTEX
  8
LAYER_1
 10
169.8137
 20
128.6481
  0
SEQEND
  0
POLYLINE
  8
LAYER_1
  6
AIGENLINE001
 40
0.1058
 41
0.1058
 62
252
 66
1
 10
0
 20
0
 30
0
 70
129
  0
VERTEX
  8
LAYER_1
 10
169.915
 20
128.9478
  0
VERTEX
  8
LAYER_1
 10
170.2612
 20
128.9478
  0
SEQEND
  0
POLYLINE
  8
LAYER_1
  6
AIGENLINE001
 40
0.1058
 41
0.1058
 62
252
 66
1
 10
0
 20
0
 30
0
 70
129
  0
VERTEX
  8
LAYER_1
 10
167.2688
 20
128.9478
  0
VERTEX
  8
LAYER_1
 10
167.6151
 20
128.9478
  0
VERTEX
  8
LAYER_1
 10
167.7914
 20
128.9478
  0
VERTEX
  8
LAYER_1
 10
167.6151
 20
128.9478
  0
SEQEND
  0
POLYLINE
  8
LAYER_1
  6
AIGENLINE001
 40
0.1058
 41
0.1058
 62
252
 66
1
 10
0
 20
0
 30
0
 70
129
  0
VERTEX
  8
LAYER_1
 10
169.5436
 20
128.9478
  0
VERTEX
  8
LAYER_1
 10
168.1807
 20
128.9478
  0
SEQEND
  0
POLYLINE
  8
LAYER_1
  6
AIGENLINE001
 40
0.1058
 41
0.1058
 62
252
 66
1
 10
0
 20
0
 30
0
 70
129
  0
VERTEX
  8
LAYER_1
 10
169.9147
 20
128.9478
  0
VERTEX
  8
LAYER_1
 10
169.7383
 20
128.9478
  0
SEQEND
  0
POLYLINE
  8
LAYER_1
  6
AIGENLINE001
 40
0.1058
 41
0.1058
 62
252
 66
1
 10
0
 20
0
 30
0
 70
128
  0
VERTEX
  8
LAYER_1
 10
167.4693
 20
130.1098
  0
VERTEX
  8
LAYER_1
 10
167.2201
 20
130.1904
  0
SEQEND
  0
POLYLINE
  8
LAYER_1
  6
AIGENLINE001
 40
0.1058
 41
0.1058
 62
252
 66
1
 10
0
 20
0
 30
0
 70
128
  0
VERTEX
  8
LAYER_1
 10
170.0616
 20
130.1098
  0
VERTEX
  8
LAYER_1
 10
170.3108
 20
130.1904
  0
SEQEND
  0
POLYLINE
  8
LAYER_1
  6
AIGENLINE001
 40
0.1058
 41
0.1058
 62
252
 66
1
 10
0
 20
0
 30
0
 70
128
  0
VERTEX
  8
LAYER_1
 10
168.9164
 20
128.7659
  0
VERTEX
  8
LAYER_1
 10
168.9164
 20
128.1254
  0
SEQEND
  0
POLYLINE
  8
LAYER_1
  6
AIGENLINE001
 40
0.1058
 41
0.1058
 62
252
 66
1
 10
0
 20
0
 30
0
 70
128
  0
VERTEX
  8
LAYER_1
 10
168.6145
 20
128.1254
  0
VERTEX
  8
LAYER_1
 10
168.6145
 20
128.7659
  0
SEQEND
  0
POLYLINE
  8
LAYER_1
  6
AIGENLINE001
 40
0.1058
 41
0.1058
 62
252
 66
1
 10
0
 20
0
 30
0
 70
128
  0
VERTEX
  8
LAYER_1
 10
169.1555
 20
129.1183
  0
VERTEX
  8
LAYER_1
 10
169.1555
 20
128.9442
  0
SEQEND
  0
POLYLINE
  8
LAYER_1
  6
AIGENLINE001
 40
0.1058
 41
0.1058
 62
252
 66
1
 10
0
 20
0
 30
0
 70
128
  0
VERTEX
  8
LAYER_1
 10
168.3783
 20
129.1183
  0
VERTEX
  8
LAYER_1
 10
168.3783
 20
128.9388
  0
VERTEX
  8
LAYER_1
 10
169.1526
 20
128.9388
  0
VERTEX
  8
LAYER_1
 10
168.9921
 20
128.7661
  0
VERTEX
  8
LAYER_1
 10
168.539
 20
128.7659
  0
VERTEX
  8
LAYER_1
 10
168.3785
 20
128.9388
  0
SEQEND
  0
POLYLINE
  8
LAYER_1
  6
AIGENLINE001
 40
0.1058
 41
0.1058
 62
252
 66
1
 10
0
 20
0
 30
0
 70
129
  0
VERTEX
  8
LAYER_1
 10
170.3108
 20
130.1904
  0
VERTEX
  8
LAYER_1
 10
170.337
 20
130.1995
  0
VERTEX
  8
LAYER_1
 10
170.346
 20
130.2257
 42
0.3929320477
  0
VERTEX
  8
LAYER_1
 10
170.3108
 20
130.2609
  0
VERTEX
  8
LAYER_1
 10
167.2202
 20
130.2609
  0
VERTEX
  8
LAYER_1
 10
167.1953
 20
130.2507
  0
VERTEX
  8
LAYER_1
 10
167.1877
 20
130.2121
  0
VERTEX
  8
LAYER_1
 10
167.2202
 20
130.1904
  0
SEQEND
  0
POLYLINE
  8
LAYER_1
  6
AIGENLINE001
 40
0.1058
 41
0.1058
 62
252
 66
1
 10
0
 20
0
 30
0
 70
128
  0
VERTEX
  8
LAYER_1
 10
169.7848
 20
129.7576
  0
VERTEX
  8
LAYER_1
 10
169.7848
 20
129.1183
  0
VERTEX
  8
LAYER_1
 10
167.7461
 20
129.1183
  0
VERTEX
  8
LAYER_1
 10
167.7461
 20
129.7576
  0
SEQEND
  0
POLYLINE
  8
LAYER_1
  6
AIGENLINE001
 40
0.1058
 41
0.1058
 62
252
 66
1
 10
0
 20
0
 30
0
 70
128
  0
VERTEX
  8
LAYER_1
 10
167.9048
 20
130.2976
  0
VERTEX
  8
LAYER_1
 10
167.9048
 20
130.5
  0
SEQEND
  0
POLYLINE
  8
LAYER_1
  6
AIGENLINE001
 40
0.1058
 41
0.1058
 62
252
 66
1
 10
0
 20
0
 30
0
 70
128
  0
VERTEX
  8
LAYER_1
 10
169.6263
 20
130.2976
  0
VERTEX
  8
LAYER_1
 10
169.6263
 20
130.5
  0
SEQEND
  0
POLYLINE
  8
LAYER_1
  6
AIGENLINE001
 40
0.1058
 41
0.1058
 62
252
 66
1
 10
0
 20
0
 30
0
 70
128
  0
VERTEX
  8
LAYER_1
 10
167.243
 20
130.651
  0
VERTEX
  8
LAYER_1
 10
167.4702
 20
130.6265
  0
VERTEX
  8
LAYER_1
 10
167.5969
 20
130.5772
  0
VERTEX
  8
LAYER_1
 10
167.6833
 20
130.5
  0
VERTEX
  8
LAYER_1
 10
169.8478
 20
130.5
  0
VERTEX
  8
LAYER_1
 10
169.9334
 20
130.5768
  0
VERTEX
  8
LAYER_1
 10
170.0589
 20
130.626
  0
VERTEX
  8
LAYER_1
 10
170.2842
 20
130.6509
  0
VERTEX
  8
LAYER_1
 10
170.2795
 20
130.6509
  0
SEQEND
  0
POLYLINE
  8
LAYER_1
  6
AIGENLINE001
 40
0.1058
 41
0.1058
 62
252
 66
1
 10
0
 20
0
 30
0
 70
129
  0
VERTEX
  8
LAYER_1
 10
168.7654
 20
131.255
  0
VERTEX
  8
LAYER_1
 10
168.788
 20
131.2546
 42
-0.05013471574
  0
VERTEX
  8
LAYER_1
 10
169.7162
 20
131.1527
 42
-0.04844696491
  0
VERTEX
  8
LAYER_1
 10
170.1653
 20
131.0173
  0
VERTEX
  8
LAYER_1
 10
170.3493
 20
130.9223
  0
VERTEX
  8
LAYER_1
 10
170.4663
 20
130.827
  0
VERTEX
  8
LAYER_1
 10
170.5363
 20
130.7194
  0
VERTEX
  8
LAYER_1
 10
170.531
 20
130.6728
  0
VERTEX
  8
LAYER_1
 10
170.4895
 20
130.6509
  0
VERTEX
  8
LAYER_1
 10
170.4893
 20
130.6509
  0
VERTEX
  8
LAYER_1
 10
167.0416
 20
130.6509
  0
VERTEX
  8
LAYER_1
 10
166.9976
 20
130.6711
  0
VERTEX
  8
LAYER_1
 10
166.9946
 20
130.7194
  0
VERTEX
  8
LAYER_1
 10
167.0646
 20
130.827
  0
VERTEX
  8
LAYER_1
 10
167.1816
 20
130.9223
  0
VERTEX
  8
LAYER_1
 10
167.3657
 20
131.0173
 42
-0.04819947762
  0
VERTEX
  8
LAYER_1
 10
167.8149
 20
131.1527
 42
-0.05012547124
  0
VERTEX
  8
LAYER_1
 10
168.7429
 20
131.2546
  0
SEQEND
  0
POLYLINE
  8
LAYER_1
  6
AIGENLINE001
 40
0.1058
 41
0.1058
 62
252
 66
1
 10
0
 20
0
 30
0
 70
129
  0
VERTEX
  8
LAYER_1
 10
167.7465
 20
129.7576
  0
VERTEX
  8
LAYER_1
 10
169.7848
 20
129.7576
 42
-0.319193349
  0
VERTEX
  8
LAYER_1
 10
170.0616
 20
130.1098
  0
VERTEX
  8
LAYER_1
 10
167.4693
 20
130.1098
 42
-0.3192914241
  0
SEQEND
  0
POLYLINE
  8
LAYER_1
  6
AIGENLINE001
 40
0.1058
 41
0.1058
 62
252
 66
1
 10
0
 20
0
 30
0
 70
128
  0
VERTEX
  8
LAYER_1
 10
164.087
 20
128.9478
  0
VERTEX
  8
LAYER_1
 10
176.6209
 20
128.9478
  0
SEQEND
  0
ENDBLK
  0
BLOCK
  8
LAYER_7
  2
AIGNBL07010002
 70
64
 10
0
 20
0
 30
0
  3
AIGNBL07010002
  0
POLYLINE
  8
LAYER_7
 40
0.7056
 41
0.7056
 66
1
 10
0
 20
0
 30
0
 70
1
  0
VERTEX
  8
LAYER_7
 10
251.6749
 20
230.337
  0
VERTEX
  8
LAYER_7
 10
251.6749
 20
33.3285
  0
VERTEX
  8
LAYER_7
 10
-30.3177
 20
33.3285
  0
VERTEX
  8
LAYER_7
 10
-30.3177
 20
230.337
  0
SEQEND
  0
ENDBLK
  0
BLOCK
  8
LAYER_7
  2
AIGNBL07010003
 70
64
 10
0
 20
0
 30
0
  3
AIGNBL07010003
  0
INSERT
  8
LAYER_7
  2
AIGNBL07020004
 10
0
 20
0
 30
0
  0
INSERT
  8
LAYER_7
  2
AIGNBL0702000D
 10
0
 20
0
 30
0
  0
ENDBLK
  0
ENDSEC
  0
SECTION
  2
ENTITIES
  0
POLYLINE
  8
LAYER_1
  6
AIGENLINE002
 40
0.0353
 41
0.0353
 66
1
 10
0
 20
0
 30
0
 70
129
  0
VERTEX
  8
LAYER_1
 10
51.7473
 20
122.6478
  0
VERTEX
  8
LAYER_1
 10
73.8473
 20
122.6478
  0
VERTEX
  8
LAYER_1
 10
73.8473
 20
107.6478
  0
VERTEX
  8
LAYER_1
 10
51.7473
 20
107.6478
  0
SEQEND
  0
POLYLINE
  8
LAYER_1
 40
0.05
 41
0.05
 66
1
 10
0
 20
0
 30
0
 70
1
  0
VERTEX
  8
LAYER_1
 10
54.2474
 20
115.3728
  0
VERTEX
  8
LAYER_1
 10
51.9987
 20
115.2549
  0
VERTEX
  8
LAYER_1
 10
52.241
 20
116.3951
  0
SEQEND
  0
POLYLINE
  8
LAYER_1
  6
AIGENLINE001
 40
0.1058
 41
0.1058
 62
4
 66
1
 10
0
 20
0
 30
0
 70
129
  0
VERTEX
  8
LAYER_1
 10
51.7473
 20
122.6478
  0
VERTEX
  8
LAYER_1
 10
73.8473
 20
122.6478
  0
VERTEX
  8
LAYER_1
 10
73.8473
 20
107.6478
  0
VERTEX
  8
LAYER_1
 10
51.7473
 20
107.6478
  0
SEQEND
  0
POLYLINE
  8
LAYER_1
  6
AIGENLINE001
 40
0.1058
 41
0.1058
 62
4
 66
1
 10
0
 20
0
 30
0
 70
129
  0
VERTEX
  8
LAYER_1
 10
73.8473
 20
107.6478
  0
VERTEX
  8
LAYER_1
 10
51.7473
 20
122.6478
  0
SEQEND
  0
POLYLINE
  8
LAYER_1
  6
AIGENLINE001
 40
0.1058
 41
0.1058
 62
4
 66
1
 10
0
 20
0
 30
0
 70
129
  0
VERTEX
  8
LAYER_1
 10
51.7473
 20
107.6478
  0
VERTEX
  8
LAYER_1
 10
73.8473
 20
122.6478
  0
SEQEND
  0
POLYLINE
  8
LAYER_1
 40
0.0353
 41
0.0353
 66
1
 10
0
 20
0
 30
0
 70
1
  0
VERTEX
  8
LAYER_1
 10
40.7972
 20
118.1227
  0
VERTEX
  8
LAYER_1
 10
54.2474
 20
115.3728
  0
SEQEND
  0
POLYLINE
  8
LAYER_1
 40
0.05
 41
0.05
 66
1
 10
0
 20
0
 30
0
 70
1
  0
VERTEX
  8
LAYER_1
 10
54.2474
 20
115.3728
  0
VERTEX
  8
LAYER_1
 10
51.9987
 20
115.2549
  0
VERTEX
  8
LAYER_1
 10
52.241
 20
116.3951
  0
SEQEND
  0
POLYLINE
  8
LAYER_1
 40
0.0353
 41
0.0353
 66
1
 10
0
 20
0
 30
0
  0
VERTEX
  8
LAYER_1
 10
142.0152
 20
94.6978
  0
VERTEX
  8
LAYER_1
 10
177.0152
 20
94.6978
  0
VERTEX
  8
LAYER_1
 10
177.0152
 20
150.2978
  0
SEQEND
  0
POLYLINE
  8
LAYER_1
 40
0.0353
 41
0.0353
 66
1
 10
0
 20
0
 30
0
 70
1
  0
VERTEX
  8
LAYER_1
 10
164.7654
 20
102.9978
  0
VERTEX
  8
LAYER_1
 10
177.0154
 20
102.9978
  0
VERTEX
  8
LAYER_1
 10
177.0154
 20
102.1978
  0
VERTEX
  8
LAYER_1
 10
164.7654
 20
102.1978
  0
SEQEND
  0
POLYLINE
  8
LAYER_1
 40
0.0353
 41
0.0353
 66
1
 10
0
 20
0
 30
0
 70
1
  0
VERTEX
  8
LAYER_1
 10
162.0154
 20
128.9478
  0
VERTEX
  8
LAYER_1
 10
177.0154
 20
128.9478
  0
VERTEX
  8
LAYER_1
 10
177.0154
 20
128.5478
  0
VERTEX
  8
LAYER_1
 10
162.0154
 20
128.5478
  0
SEQEND
  0
POLYLINE
  8
LAYER_1
 40
0.0353
 41
0.0353
 66
1
 10
0
 20
0
 30
0
  0
VERTEX
  8
LAYER_1
 10
163.4154
 20
128.5478
  0
VERTEX
  8
LAYER_1
 10
163.4154
 20
127.6478
  0
SEQEND
  0
POLYLINE
  8
LAYER_1
 40
0.0353
 41
0.0353
 66
1
 10
0
 20
0
 30
0
 70
1
  0
VERTEX
  8
LAYER_1
 10
163.7654
 20
128.5478
  0
VERTEX
  8
LAYER_1
 10
177.0154
 20
128.5478
  0
VERTEX
  8
LAYER_1
 10
177.0154
 20
127.6478
  0
VERTEX
  8
LAYER_1
 10
163.7654
 20
127.6478
  0
SEQEND
  0
POLYLINE
  8
LAYER_1
 40
0.0353
 41
0.0353
 66
1
 10
0
 20
0
 30
0
 70
1
  0
VERTEX
  8
LAYER_1
 10
163.3654
 20
128.5478
  0
VERTEX
  8
LAYER_1
 10
163.7654
 20
128.5478
  0
VERTEX
  8
LAYER_1
 10
163.7654
 20
127.6478
  0
VERTEX
  8
LAYER_1
 10
163.3654
 20
127.6478
  0
SEQEND
  0
POLYLINE
  8
LAYER_1
 40
0.0353
 41
0.0353
 66
1
 10
0
 20
0
 30
0
 70
1
  0
VERTEX
  8
LAYER_1
 10
163.4154
 20
127.6478
  0
VERTEX
  8
LAYER_1
 10
177.0154
 20
127.6478
  0
VERTEX
  8
LAYER_1
 10
177.0154
 20
102.9978
  0
VERTEX
  8
LAYER_1
 10
163.4154
 20
102.9978
  0
SEQEND
  0
POLYLINE
  8
LAYER_1
 40
0.0353
 41
0.0353
 66
1
 10
0
 20
0
 30
0
 70
1
  0
VERTEX
  8
LAYER_1
 10
163.4154
 20
103.7978
  0
VERTEX
  8
LAYER_1
 10
177.0154
 20
103.7978
  0
VERTEX
  8
LAYER_1
 10
177.0154
 20
102.9978
  0
VERTEX
  8
LAYER_1
 10
163.4154
 20
102.9978
  0
SEQEND
  0
POLYLINE
  8
LAYER_1
 40
0.0353
 41
0.0353
 66
1
 10
0
 20
0
 30
0
 70
1
  0
VERTEX
  8
LAYER_1
 10
176.1154
 20
127.6478
  0
VERTEX
  8
LAYER_1
 10
176.2654
 20
127.6478
  0
VERTEX
  8
LAYER_1
 10
176.2654
 20
103.5478
  0
VERTEX
  8
LAYER_1
 10
176.1154
 20
103.5478
  0
SEQEND
  0
POLYLINE
  8
LAYER_1
 40
0.0353
 41
0.0353
 66
1
 10
0
 20
0
 30
0
 70
1
  0
VERTEX
  8
LAYER_1
 10
176.2654
 20
106.5478
  0
VERTEX
  8
LAYER_1
 10
177.0154
 20
106.5478
  0
VERTEX
  8
LAYER_1
 10
177.0154
 20
103.7978
  0
VERTEX
  8
LAYER_1
 10
176.2654
 20
103.7978
  0
SEQEND
  0
POLYLINE
  8
LAYER_1
 40
0.0353
 41
0.0353
 66
1
 10
0
 20
0
 30
0
  0
VERTEX
  8
LAYER_1
 10
177.0154
 20
106.5478
  0
VERTEX
  8
LAYER_1
 10
176.2654
 20
103.7978
  0
SEQEND
  0
POLYLINE
  8
LAYER_1
 40
0.0353
 41
0.0353
 66
1
 10
0
 20
0
 30
0
 70
1
  0
VERTEX
  8
LAYER_1
 10
176.2654
 20
127.6478
  0
VERTEX
  8
LAYER_1
 10
177.0154
 20
127.6478
  0
VERTEX
  8
LAYER_1
 10
177.0154
 20
124.8978
  0
VERTEX
  8
LAYER_1
 10
176.2654
 20
124.8978
  0
SEQEND
  0
POLYLINE
  8
LAYER_1
 40
0.0353
 41
0.0353
 66
1
 10
0
 20
0
 30
0
  0
VERTEX
  8
LAYER_1
 10
177.0154
 20
127.6478
  0
VERTEX
  8
LAYER_1
 10
176.2654
 20
124.8978
  0
SEQEND
  0
POLYLINE
  8
LAYER_1
 40
0.0353
 41
0.0353
 66
1
 10
0
 20
0
 30
0
 70
1
  0
VERTEX
  8
LAYER_1
 10
163.4154
 20
127.6478
  0
VERTEX
  8
LAYER_1
 10
164.4154
 20
127.6478
  0
VERTEX
  8
LAYER_1
 10
164.4154
 20
124.6478
  0
VERTEX
  8
LAYER_1
 10
163.4154
 20
124.6478
  0
SEQEND
  0
POLYLINE
  8
LAYER_1
 40
0.0353
 41
0.0353
 66
1
 10
0
 20
0
 30
0
  0
VERTEX
  8
LAYER_1
 10
163.2654
 20
125.1478
  0
VERTEX
  8
LAYER_1
 10
163.2654
 20
103.0978
  0
VERTEX
  8
LAYER_1
 10
162.1904
 20
103.0978
  0
VERTEX
  8
LAYER_1
 10
162.1904
 20
125.1478
  0
SEQEND
  0
POLYLINE
  8
LAYER_1
 40
0.0353
 41
0.0353
 66
1
 10
0
 20
0
 30
0
 70
1
  0
VERTEX
  8
LAYER_1
 10
176.2654
 20
122.6478
  0
VERTEX
  8
LAYER_1
 10
177.0154
 20
122.6478
  0
VERTEX
  8
LAYER_1
 10
177.0154
 20
107.6478
  0
VERTEX
  8
LAYER_1
 10
176.2654
 20
107.6478
  0
SEQEND
  0
POLYLINE
  8
LAYER_1
 40
0.0353
 41
0.0353
 66
1
 10
0
 20
0
 30
0
 70
1
  0
VERTEX
  8
LAYER_1
 10
176.1154
 20
122.6478
  0
VERTEX
  8
LAYER_1
 10
176.2654
 20
122.6478
  0
VERTEX
  8
LAYER_1
 10
176.2654
 20
107.6478
  0
VERTEX
  8
LAYER_1
 10
176.1154
 20
107.6478
  0
SEQEND
  0
POLYLINE
  8
LAYER_1
 40
0.0353
 41
0.0353
 66
1
 10
0
 20
0
 30
0
 70
1
  0
VERTEX
  8
LAYER_1
 10
176.2654
 20
124.9978
  0
VERTEX
  8
LAYER_1
 10
177.0154
 20
124.9978
  0
VERTEX
  8
LAYER_1
 10
177.0154
 20
122.6478
  0
VERTEX
  8
LAYER_1
 10
176.2654
 20
122.6478
  0
SEQEND
  0
POLYLINE
  8
LAYER_1
 40
0.0353
 41
0.0353
 66
1
 10
0
 20
0
 30
0
 70
1
  0
VERTEX
  8
LAYER_1
 10
176.2654
 20
107.6478
  0
VERTEX
  8
LAYER_1
 10
177.0154
 20
107.6478
  0
VERTEX
  8
LAYER_1
 10
177.0154
 20
106.3978
  0
VERTEX
  8
LAYER_1
 10
176.2654
 20
106.3978
  0
SEQEND
  0
POLYLINE
  8
LAYER_1
 40
0.0353
 41
0.0353
 66
1
 10
0
 20
0
 30
0
 70
1
  0
VERTEX
  8
LAYER_1
 10
164.7654
 20
102.1978
  0
VERTEX
  8
LAYER_1
 10
169.7654
 20
102.1978
  0
VERTEX
  8
LAYER_1
 10
169.7654
 20
101.9728
  0
VERTEX
  8
LAYER_1
 10
164.7654
 20
101.9728
  0
SEQEND
  0
POLYLINE
  8
LAYER_1
 40
0.0353
 41
0.0353
 66
1
 10
0
 20
0
 30
0
 70
1
  0
VERTEX
  8
LAYER_1
 10
166.7654
 20
94.9978
  0
VERTEX
  8
LAYER_1
 10
167.7654
 20
94.9978
  0
VERTEX
  8
LAYER_1
 10
167.7654
 20
94.6978
  0
VERTEX
  8
LAYER_1
 10
166.7654
 20
94.6978
  0
SEQEND
  0
POLYLINE
  8
LAYER_1
 40
0.0353
 41
0.0353
 66
1
 10
0
 20
0
 30
0
 70
1
  0
VERTEX
  8
LAYER_1
 10
166.7229
 20
101.9728
  0
VERTEX
  8
LAYER_1
 10
167.8079
 20
101.9728
  0
VERTEX
  8
LAYER_1
 10
167.8079
 20
94.9978
  0
VERTEX
  8
LAYER_1
 10
166.7229
 20
94.9978
  0
SEQEND
  0
POLYLINE
  8
LAYER_1
 40
0.0353
 41
0.0353
 66
1
 10
0
 20
0
 30
0
 70
1
  0
VERTEX
  8
LAYER_1
 10
70.0473
 20
102.1978
  0
VERTEX
  8
LAYER_1
 10
75.0473
 20
102.1978
  0
VERTEX
  8
LAYER_1
 10
75.0473
 20
101.9728
  0
VERTEX
  8
LAYER_1
 10
70.0473
 20
101.9728
  0
SEQEND
  0
POLYLINE
  8
LAYER_1
 40
0.0353
 41
0.0353
 66
1
 10
0
 20
0
 30
0
 70
1
  0
VERTEX
  8
LAYER_1
 10
72.0473
 20
94.9978
  0
VERTEX
  8
LAYER_1
 10
73.0473
 20
94.9978
  0
VERTEX
  8
LAYER_1
 10
73.0473
 20
94.6978
  0
VERTEX
  8
LAYER_1
 10
72.0473
 20
94.6978
  0
SEQEND
  0
POLYLINE
  8
LAYER_1
 40
0.0353
 41
0.0353
 66
1
 10
0
 20
0
 30
0
 70
1
  0
VERTEX
  8
LAYER_1
 10
72.0048
 20
101.9728
  0
VERTEX
  8
LAYER_1
 10
73.0898
 20
101.9728
  0
VERTEX
  8
LAYER_1
 10
73.0898
 20
94.9978
  0
VERTEX
  8
LAYER_1
 10
72.0048
 20
94.9978
  0
SEQEND
  0
POLYLINE
  8
LAYER_1
 40
0.0353
 41
0.0353
 66
1
 10
0
 20
0
 30
0
 70
1
  0
VERTEX
  8
LAYER_1
 10
50.5473
 20
102.9978
  0
VERTEX
  8
LAYER_1
 10
75.0473
 20
102.9978
  0
VERTEX
  8
LAYER_1
 10
75.0473
 20
102.1978
  0
VERTEX
  8
LAYER_1
 10
50.5473
 20
102.1978
  0
SEQEND
  0
POLYLINE
  8
LAYER_1
 40
0.0353
 41
0.0353
 66
1
 10
0
 20
0
 30
0
 70
1
  0
VERTEX
  8
LAYER_1
 10
50.5473
 20
102.1978
  0
VERTEX
  8
LAYER_1
 10
55.5473
 20
102.1978
  0
VERTEX
  8
LAYER_1
 10
55.5473
 20
101.9728
  0
VERTEX
  8
LAYER_1
 10
50.5473
 20
101.9728
  0
SEQEND
  0
POLYLINE
  8
LAYER_1
 40
0.0353
 41
0.0353
 66
1
 10
0
 20
0
 30
0
 70
1
  0
VERTEX
  8
LAYER_1
 10
52.5473
 20
94.9978
  0
VERTEX
  8
LAYER_1
 10
53.5473
 20
94.9978
  0
VERTEX
  8
LAYER_1
 10
53.5473
 20
94.6978
  0
VERTEX
  8
LAYER_1
 10
52.5473
 20
94.6978
  0
SEQEND
  0
POLYLINE
  8
LAYER_1
 40
0.0353
 41
0.0353
 66
1
 10
0
 20
0
 30
0
 70
1
  0
VERTEX
  8
LAYER_1
 10
52.5048
 20
101.9728
  0
VERTEX
  8
LAYER_1
 10
53.5898
 20
101.9728
  0
VERTEX
  8
LAYER_1
 10
53.5898
 20
94.9978
  0
VERTEX
  8
LAYER_1
 10
52.5048
 20
94.9978
  0
SEQEND
  0
POLYLINE
  8
LAYER_1
 40
0.0353
 41
0.0353
 66
1
 10
0
 20
0
 30
0
 70
1
  0
VERTEX
  8
LAYER_1
 10
48.9473
 20
127.6478
  0
VERTEX
  8
LAYER_1
 10
76.6473
 20
127.6478
  0
VERTEX
  8
LAYER_1
 10
76.6473
 20
102.9978
  0
VERTEX
  8
LAYER_1
 10
48.9473
 20
102.9978
  0
SEQEND
  0
POLYLINE
  8
LAYER_1
  6
AIGENLINE003
 40
0.0353
 41
0.0353
 66
1
 10
0
 20
0
 30
0
 70
129
  0
VERTEX
  8
LAYER_1
 10
48.9473
 20
127.6478
  0
VERTEX
  8
LAYER_1
 10
49.7473
 20
127.6478
  0
VERTEX
  8
LAYER_1
 10
49.7473
 20
102.9978
  0
VERTEX
  8
LAYER_1
 10
48.9473
 20
102.9978
  0
SEQEND
  0
POLYLINE
  8
LAYER_1
  6
AIGENLINE003
 40
0.0353
 41
0.0353
 66
1
 10
0
 20
0
 30
0
 70
129
  0
VERTEX
  8
LAYER_1
 10
75.8473
 20
127.6478
  0
VERTEX
  8
LAYER_1
 10
76.6473
 20
127.6478
  0
VERTEX
  8
LAYER_1
 10
76.6473
 20
102.9978
  0
VERTEX
  8
LAYER_1
 10
75.8473
 20
102.9978
  0
SEQEND
  0
POLYLINE
  8
LAYER_1
  6
AIGENLINE003
 40
0.0353
 41
0.0353
 66
1
 10
0
 20
0
 30
0
 70
129
  0
VERTEX
  8
LAYER_1
 10
49.7473
 20
103.7978
  0
VERTEX
  8
LAYER_1
 10
75.8473
 20
103.7978
  0
VERTEX
  8
LAYER_1
 10
75.8473
 20
102.9978
  0
VERTEX
  8
LAYER_1
 10
49.7473
 20
102.9978
  0
SEQEND
  0
POLYLINE
  8
LAYER_1
  6
AIGENLINE003
 40
0.0353
 41
0.0353
 66
1
 10
0
 20
0
 30
0
 70
128
  0
VERTEX
  8
LAYER_1
 10
49.7473
 20
124.6478
  0
VERTEX
  8
LAYER_1
 10
75.8473
 20
124.6478
  0
SEQEND
  0
POLYLINE
  8
LAYER_1
 40
0.0353
 41
0.0353
 66
1
 10
0
 20
0
 30
0
 70
1
  0
VERTEX
  8
LAYER_1
 10
49.0473
 20
127.6478
  0
VERTEX
  8
LAYER_1
 10
76.5473
 20
127.6478
  0
VERTEX
  8
LAYER_1
 10
76.5473
 20
103.0978
  0
VERTEX
  8
LAYER_1
 10
49.0473
 20
103.0978
  0
SEQEND
  0
POLYLINE
  8
LAYER_1
 40
0.0353
 41
0.0353
 66
1
 10
0
 20
0
 30
0
  0
VERTEX
  8
LAYER_1
 10
62.7973
 20
127.6478
  0
VERTEX
  8
LAYER_1
 10
62.7973
 20
103.0978
  0
SEQEND
  0
POLYLINE
  8
LAYER_1
  6
AIGENLINE004
 40
0.0353
 41
0.0353
 66
1
 10
0
 20
0
 30
0
 70
129
  0
VERTEX
  8
LAYER_1
 10
62.7973
 20
127.6478
  0
VERTEX
  8
LAYER_1
 10
76.5473
 20
115.3728
  0
VERTEX
  8
LAYER_1
 10
62.7973
 20
103.0978
  0
VERTEX
  8
LAYER_1
 10
49.0473
 20
115.3728
  0
SEQEND
  0
POLYLINE
  8
LAYER_1
 40
0.0353
 41
0.0353
 66
1
 10
0
 20
0
 30
0
 70
1
  0
VERTEX
  8
LAYER_1
 10
48.0223
 20
127.6478
  0
VERTEX
  8
LAYER_1
 10
48.9473
 20
127.6478
  0
VERTEX
  8
LAYER_1
 10
48.9473
 20
102.9978
  0
VERTEX
  8
LAYER_1
 10
48.0223
 20
102.9978
  0
SEQEND
  0
POLYLINE
  8
LAYER_1
 40
0.0353
 41
0.0353
 66
1
 10
0
 20
0
 30
0
 70
1
  0
VERTEX
  8
LAYER_1
 10
76.6473
 20
127.6478
  0
VERTEX
  8
LAYER_1
 10
77.5723
 20
127.6478
  0
VERTEX
  8
LAYER_1
 10
77.5723
 20
102.9978
  0
VERTEX
  8
LAYER_1
 10
76.6473
 20
102.9978
  0
SEQEND
  0
POLYLINE
  8
LAYER_1
 40
0.0353
 41
0.0353
 66
1
 10
0
 20
0
 30
0
 70
1
  0
VERTEX
  8
LAYER_1
 10
48.9473
 20
128.5478
  0
VERTEX
  8
LAYER_1
 10
76.6473
 20
128.5478
  0
VERTEX
  8
LAYER_1
 10
76.6473
 20
127.6478
  0
VERTEX
  8
LAYER_1
 10
48.9473
 20
127.6478
  0
SEQEND
  0
POLYLINE
  8
LAYER_1
 40
0.0353
 41
0.0353
 66
1
 10
0
 20
0
 30
0
  0
VERTEX
  8
LAYER_1
 10
19.0473
 20
94.6978
  0
VERTEX
  8
LAYER_1
 10
106.5473
 20
94.6978
  0
SEQEND
  0
TEXT
  8
LAYER_1
 10
17.504
 20
98.7797
 11
17.504
 21
98.7797
 40
2.3036
 41
0.5
  1
ベースパネル：ウッドブラック
  0
TEXT
  8
LAYER_1
 10
19.3912
 20
95.7611
 11
19.3912
 21
95.7611
 40
2.7182
 41
0.5
  1
(W490 D245)t=16
  0
POLYLINE
  8
LAYER_1
 40
0.05
 41
0.05
 66
1
 10
0
 20
0
 30
0
 70
1
  0
VERTEX
  8
LAYER_1
 10
50.6039
 20
102.1978
  0
VERTEX
  8
LAYER_1
 10
50.0211
 20
100.0227
  0
VERTEX
  8
LAYER_1
 10
49.0116
 20
100.6055
  0
SEQEND
  0
POLYLINE
  8
LAYER_1
 40
0.0353
 41
0.0353
 66
1
 10
0
 20
0
 30
0
  0
VERTEX
  8
LAYER_1
 10
43.2039
 20
98.3978
  0
VERTEX
  8
LAYER_1
 10
48.41
 20
98.3978
  0
VERTEX
  8
LAYER_1
 10
50.6039
 20
102.1978
  0
SEQEND
  0
POLYLINE
  8
LAYER_1
 40
0.1058
 41
0.1058
 66
1
 10
0
 20
0
 30
0
 70
1
  0
VERTEX
  8
LAYER_1
 10
-21.0797
 20
220.8683
  0
VERTEX
  8
LAYER_1
 10
53.5577
 20
220.8683
  0
VERTEX
  8
LAYER_1
 10
53.5577
 20
210.5863
  0
VERTEX
  8
LAYER_1
 10
-21.0797
 20
210.5863
  0
SEQEND
  0
POLYLINE
  8
LAYER_1
  6
AIGENLINE005
 40
0.0353
 41
0.0353
 66
1
 10
0
 20
0
 30
0
 70
128
  0
VERTEX
  8
LAYER_1
 10
43.4923
 20
126.8978
  0
VERTEX
  8
LAYER_1
 10
102.2423
 20
126.8978
  0
SEQEND
  0
POLYLINE
  8
LAYER_1
  6
AIGENLINE005
 40
0.0353
 41
0.0353
 66
1
 10
0
 20
0
 30
0
 70
128
  0
VERTEX
  8
LAYER_1
 10
43.4923
 20
105.2478
  0
VERTEX
  8
LAYER_1
 10
102.2423
 20
105.2478
  0
SEQEND
  0
POLYLINE
  8
LAYER_1
 40
0.05
 41
0.05
 66
1
 10
0
 20
0
 30
0
 70
1
  0
VERTEX
  8
LAYER_1
 10
89.0055
 20
128.9428
  0
VERTEX
  8
LAYER_1
 10
90.0967
 20
127.0528
  0
VERTEX
  8
LAYER_1
 10
91.1879
 20
128.9428
  0
SEQEND
  0
TEXT
  8
LAYER_1
 10
82.5991
 20
129.5475
 11
82.5991
 21
129.5475
 40
2.2853
 41
0.5
  1
取付け下地芯
  0
POLYLINE
  8
LAYER_1
 40
0.05
 41
0.05
 66
1
 10
0
 20
0
 30
0
 70
1
  0
VERTEX
  8
LAYER_1
 10
89.0055
 20
107.6978
  0
VERTEX
  8
LAYER_1
 10
90.0967
 20
105.8078
  0
VERTEX
  8
LAYER_1
 10
91.1879
 20
107.6978
  0
SEQEND
  0
TEXT
  8
LAYER_1
 10
82.5991
 20
108.5476
 11
82.5991
 21
108.5476
 40
2.2853
 41
0.5
  1
取付け下地芯
  0
POLYLINE
  8
LAYER_1
 40
0.0353
 41
0.0353
 66
1
 10
0
 20
0
 30
0
 70
1
  0
VERTEX
  8
LAYER_1
 10
167.0154
 20
128.9478
  0
VERTEX
  8
LAYER_1
 10
172.0154
 20
128.9478
  0
VERTEX
  8
LAYER_1
 10
172.0154
 20
127.6478
  0
VERTEX
  8
LAYER_1
 10
167.0154
 20
127.6478
  0
SEQEND
  0
POLYLINE
  8
LAYER_1
 40
0.0353
 41
0.0353
 66
1
 10
0
 20
0
 30
0
 70
1
  0
VERTEX
  8
LAYER_1
 10
170.5154
 20
103.7978
  0
VERTEX
  8
LAYER_1
 10
175.5154
 20
103.7978
  0
VERTEX
  8
LAYER_1
 10
175.5154
 20
102.1978
  0
VERTEX
  8
LAYER_1
 10
170.5154
 20
102.1978
  0
SEQEND
  0
POLYLINE
  8
LAYER_1
 40
0.0353
 41
0.0353
 66
1
 10
0
 20
0
 30
0
 70
1
  0
VERTEX
  8
LAYER_1
 10
169.2654
 20
103.9978
  0
VERTEX
  8
LAYER_1
 10
169.2654
 20
103.7978
  0
VERTEX
  8
LAYER_1
 10
176.0154
 20
103.7978
  0
VERTEX
  8
LAYER_1
 10
176.0154
 20
103.9978
  0
SEQEND
  0
POLYLINE
  8
LAYER_1
 40
0.0353
 41
0.0353
 66
1
 10
0
 20
0
 30
0
 70
1
  0
VERTEX
  8
LAYER_1
 10
-13.4705
 20
99.6978
  0
VERTEX
  8
LAYER_1
 10
9.0295
 20
99.6978
  0
VERTEX
  8
LAYER_1
 10
9.0295
 20
92.9478
  0
VERTEX
  8
LAYER_1
 10
-13.4705
 20
92.9478
  0
SEQEND
  0
POLYLINE
  8
LAYER_1
 40
0.0353
 41
0.0353
 66
1
 10
0
 20
0
 30
0
 70
1
  0
VERTEX
  8
LAYER_1
 10
-14.7205
 20
143.6318
  0
VERTEX
  8
LAYER_1
 10
10.2795
 20
143.6318
  0
VERTEX
  8
LAYER_1
 10
10.2795
 20
126.1318
  0
VERTEX
  8
LAYER_1
 10
-14.7205
 20
126.1318
  0
SEQEND
  0
POLYLINE
  8
LAYER_1
 40
0.0353
 41
0.0353
 66
1
 10
0
 20
0
 30
0
 70
1
  0
VERTEX
  8
LAYER_1
 10
176.1154
 20
123.8978
  0
VERTEX
  8
LAYER_1
 10
175.9154
 20
123.8978
  0
VERTEX
  8
LAYER_1
 10
175.9154
 20
106.3978
  0
VERTEX
  8
LAYER_1
 10
176.1154
 20
106.3978
  0
SEQEND
  0
POLYLINE
  8
LAYER_1
 40
0.0353
 41
0.0353
 66
1
 10
0
 20
0
 30
0
  0
VERTEX
  8
LAYER_1
 10
162.0154
 20
91.6978
  0
VERTEX
  8
LAYER_1
 10
162.0154
 20
69.6978
  0
SEQEND
  0
CIRCLE
  8
LAYER_1
 10
177.0154
 20
69.6978
 40
0.5
  0
CIRCLE
  8
LAYER_1
 10
177.0154
 20
69.6978
 40
0.5
  0
POLYLINE
  8
LAYER_1
 40
0.0353
 41
0.0353
 66
1
 10
0
 20
0
 30
0
  0
VERTEX
  8
LAYER_1
 10
161.5154
 20
69.6978
  0
VERTEX
  8
LAYER_1
 10
162.0154
 20
69.6978
  0
VERTEX
  8
LAYER_1
 10
177.0154
 20
69.6978
  0
SEQEND
  0
CIRCLE
  8
LAYER_1
 10
162.0154
 20
69.6978
 40
0.5
  0
CIRCLE
  8
LAYER_1
 10
162.0154
 20
69.6978
 40
0.5
  0
TEXT
  8
LAYER_1
 10
167.3564
 20
71.1707
 11
167.3564
 21
71.1707
 40
2.7182
 41
0.5
  1
300
  0
POLYLINE
  8
LAYER_1
 40
0.0353
 41
0.0353
 66
1
 10
0
 20
0
 30
0
  0
VERTEX
  8
LAYER_1
 10
177.0154
 20
77.1978
  0
VERTEX
  8
LAYER_1
 10
177.0154
 20
91.6978
  0
VERTEX
  8
LAYER_1
 10
177.0154
 20
69.6978
  0
VERTEX
  8
LAYER_1
 10
177.5154
 20
69.6978
  0
SEQEND
  0
POLYLINE
  8
LAYER_1
 40
0.0353
 41
0.0353
 66
1
 10
0
 20
0
 30
0
  0
VERTEX
  8
LAYER_1
 10
177.5154
 20
77.1978
  0
VERTEX
  8
LAYER_1
 10
177.0154
 20
77.1978
  0
VERTEX
  8
LAYER_1
 10
162.1904
 20
77.1978
  0
VERTEX
  8
LAYER_1
 10
162.1904
 20
91.6978
  0
SEQEND
  0
CIRCLE
  8
LAYER_1
 10
177.0154
 20
77.1978
 40
0.5
  0
CIRCLE
  8
LAYER_1
 10
177.0154
 20
77.1978
 40
0.5
  0
CIRCLE
  8
LAYER_1
 10
162.1904
 20
77.1978
 40
0.5
  0
CIRCLE
  8
LAYER_1
 10
162.1904
 20
77.1978
 40
0.5
  0
TEXT
  8
LAYER_1
 10
166.0046
 20
78.6707
 11
166.0046
 21
78.6707
 40
2.7182
 41
0.5
  1
296.5
  0
POLYLINE
  8
LAYER_1
 40
0.0353
 41
0.0353
 66
1
 10
0
 20
0
 30
0
  0
VERTEX
  8
LAYER_1
 10
162.0154
 20
88.6978
  0
VERTEX
  8
LAYER_1
 10
162.0154
 20
77.1978
  0
SEQEND
  0
POLYLINE
  8
LAYER_1
 40
0.0353
 41
0.0353
 66
1
 10
0
 20
0
 30
0
  0
VERTEX
  8
LAYER_1
 10
162.1904
 20
88.6978
  0
VERTEX
  8
LAYER_1
 10
162.1904
 20
77.1978
  0
VERTEX
  8
LAYER_1
 10
161.6904
 20
77.1978
  0
SEQEND
  0
CIRCLE
  8
LAYER_1
 10
162.0154
 20
77.1978
 40
0.5
  0
CIRCLE
  8
LAYER_1
 10
162.0154
 20
77.1978
 40
0.5
  0
POLYLINE
  8
LAYER_1
 40
0.0353
 41
0.0353
 66
1
 10
0
 20
0
 30
0
  0
VERTEX
  8
LAYER_1
 10
162.6904
 20
77.1978
  0
VERTEX
  8
LAYER_1
 10
162.1904
 20
77.1978
  0
VERTEX
  8
LAYER_1
 10
162.0154
 20
77.1978
  0
VERTEX
  8
LAYER_1
 10
156.5474
 20
77.1978
  0
SEQEND
  0
CIRCLE
  8
LAYER_1
 10
162.1904
 20
77.1978
 40
0.5
  0
CIRCLE
  8
LAYER_1
 10
162.1904
 20
77.1978
 40
0.5
  0
TEXT
  8
LAYER_1
 10
156.5474
 20
78.6707
 11
156.5474
 21
78.6707
 40
2.7182
 41
0.5
  1
3.5
  0
CIRCLE
  8
LAYER_1
 10
197.0154
 20
94.6978
 40
0.5
  0
CIRCLE
  8
LAYER_1
 10
197.0154
 20
94.6978
 40
0.5
  0
CIRCLE
  8
LAYER_1
 10
197.0154
 20
128.9478
 40
0.5
  0
CIRCLE
  8
LAYER_1
 10
197.0154
 20
128.9478
 40
0.5
  0
TEXT
  8
LAYER_1
 10
195.5425
 20
109.1901
 11
195.5425
 21
109.1901
 40
2.7182
 41
0.5
 50
89.99999999
  1
685
  0
POLYLINE
  8
LAYER_1
 40
0.0353
 41
0.0353
 66
1
 10
0
 20
0
 30
0
  0
VERTEX
  8
LAYER_1
 10
180.0154
 20
134.6978
  0
VERTEX
  8
LAYER_1
 10
197.0154
 20
134.6978
  0
SEQEND
  0
CIRCLE
  8
LAYER_1
 10
197.0154
 20
128.9478
 40
0.5
  0
CIRCLE
  8
LAYER_1
 10
197.0154
 20
128.9478
 40
0.5
  0
POLYLINE
  8
LAYER_1
 40
0.0353
 41
0.0353
 66
1
 10
0
 20
0
 30
0
  0
VERTEX
  8
LAYER_1
 10
197.0154
 20
135.1978
  0
VERTEX
  8
LAYER_1
 10
197.0154
 20
134.6978
  0
VERTEX
  8
LAYER_1
 10
197.0154
 20
128.9478
  0
VERTEX
  8
LAYER_1
 10
180.0154
 20
128.9478
  0
VERTEX
  8
LAYER_1
 10
197.0154
 20
128.9478
  0
SEQEND
  0
CIRCLE
  8
LAYER_1
 10
197.0154
 20
134.6978
 40
0.5
  0
CIRCLE
  8
LAYER_1
 10
197.0154
 20
134.6978
 40
0.5
  0
TEXT
  8
LAYER_1
 10
195.5425
 20
129.6636
 11
195.5425
 21
129.6636
 40
2.7182
 41
0.5
 50
89.99999999
  1
115
  0
POLYLINE
  8
LAYER_1
 40
0.0353
 41
0.0353
 66
1
 10
0
 20
0
 30
0
  0
VERTEX
  8
LAYER_1
 10
160.4671
 20
94.6978
  0
VERTEX
  8
LAYER_1
 10
148.5154
 20
94.6978
  0
VERTEX
  8
LAYER_1
 10
148.5154
 20
134.6978
  0
VERTEX
  8
LAYER_1
 10
160.6654
 20
134.6978
  0
SEQEND
  0
CIRCLE
  8
LAYER_1
 10
148.5154
 20
134.6978
 40
0.5
  0
CIRCLE
  8
LAYER_1
 10
148.5154
 20
134.6978
 40
0.5
  0
CIRCLE
  8
LAYER_1
 10
148.5154
 20
94.6978
 40
0.5
  0
CIRCLE
  8
LAYER_1
 10
148.5154
 20
94.6978
 40
0.5
  0
TEXT
  8
LAYER_1
 10
147.0424
 20
112.5387
 11
147.0424
 21
112.5387
 40
2.7182
 41
0.5
 50
89.99999999
  1
800
  0
POLYLINE
  8
LAYER_1
 40
0.0353
 41
0.0353
 66
1
 10
0
 20
0
 30
0
  0
VERTEX
  8
LAYER_1
 10
189.5154
 20
94.6978
  0
VERTEX
  8
LAYER_1
 10
180.0154
 20
94.6978
  0
VERTEX
  8
LAYER_1
 10
197.0154
 20
94.6978
  0
VERTEX
  8
LAYER_1
 10
197.0154
 20
128.9478
  0
VERTEX
  8
LAYER_1
 10
197.0154
 20
128.4478
  0
SEQEND
  0
CIRCLE
  8
LAYER_1
 10
189.5154
 20
102.1978
 40
0.5
  0
CIRCLE
  8
LAYER_1
 10
189.5154
 20
102.1978
 40
0.5
  0
CIRCLE
  8
LAYER_1
 10
189.5154
 20
94.6978
 40
0.5
  0
CIRCLE
  8
LAYER_1
 10
189.5154
 20
94.6978
 40
0.5
  0
TEXT
  8
LAYER_1
 10
188.0425
 20
96.2886
 11
188.0425
 21
96.2886
 40
2.7182
 41
0.5
 50
89.99999999
  1
150
  0
POLYLINE
  8
LAYER_1
 40
0.0353
 41
0.0353
 66
1
 10
0
 20
0
 30
0
  0
VERTEX
  8
LAYER_1
 10
180.0154
 20
127.6478
  0
VERTEX
  8
LAYER_1
 10
189.5154
 20
127.6478
  0
SEQEND
  0
CIRCLE
  8
LAYER_1
 10
189.5154
 20
102.9978
 40
0.5
  0
CIRCLE
  8
LAYER_1
 10
189.5154
 20
102.9978
 40
0.5
  0
CIRCLE
  8
LAYER_1
 10
189.5154
 20
127.6478
 40
0.5
  0
CIRCLE
  8
LAYER_1
 10
189.5154
 20
127.6478
 40
0.5
  0
TEXT
  8
LAYER_1
 10
188.0425
 20
113.1637
 11
188.0425
 21
113.1637
 40
2.7182
 41
0.5
 50
89.99999999
  1
493
  0
POLYLINE
  8
LAYER_1
 40
0.0353
 41
0.0353
 66
1
 10
0
 20
0
 30
0
  0
VERTEX
  8
LAYER_1
 10
183.0154
 20
128.9478
  0
VERTEX
  8
LAYER_1
 10
189.5154
 20
128.9478
  0
SEQEND
  0
CIRCLE
  8
LAYER_1
 10
189.5154
 20
127.6478
 40
0.5
  0
CIRCLE
  8
LAYER_1
 10
189.5154
 20
127.6478
 40
0.5
  0
POLYLINE
  8
LAYER_1
 40
0.0353
 41
0.0353
 66
1
 10
0
 20
0
 30
0
  0
VERTEX
  8
LAYER_1
 10
189.5154
 20
129.4478
  0
VERTEX
  8
LAYER_1
 10
189.5154
 20
128.9478
  0
VERTEX
  8
LAYER_1
 10
189.5154
 20
127.6478
  0
VERTEX
  8
LAYER_1
 10
183.0154
 20
127.6478
  0
SEQEND
  0
CIRCLE
  8
LAYER_1
 10
189.5154
 20
128.9478
 40
0.5
  0
CIRCLE
  8
LAYER_1
 10
189.5154
 20
128.9478
 40
0.5
  0
TEXT
  8
LAYER_1
 10
187.4666
 20
124.193
 11
187.4666
 21
124.193
 40
2.7182
 41
0.5
 50
89.99999999
  1
26
  0
POLYLINE
  8
LAYER_1
 40
0.0353
 41
0.0353
 66
1
 10
0
 20
0
 30
0
  0
VERTEX
  8
LAYER_1
 10
189.5154
 20
127.1478
  0
VERTEX
  8
LAYER_1
 10
189.5154
 20
127.6478
  0
VERTEX
  8
LAYER_1
 10
189.5154
 20
102.9978
  0
VERTEX
  8
LAYER_1
 10
180.0154
 20
102.9978
  0
VERTEX
  8
LAYER_1
 10
189.5154
 20
102.9978
  0
SEQEND
  0
POLYLINE
  8
LAYER_1
 40
0.0353
 41
0.0353
 66
1
 10
0
 20
0
 30
0
  0
VERTEX
  8
LAYER_1
 10
189.5154
 20
102.6978
  0
VERTEX
  8
LAYER_1
 10
189.5154
 20
102.1978
  0
VERTEX
  8
LAYER_1
 10
180.0154
 20
102.1978
  0
VERTEX
  8
LAYER_1
 10
189.5154
 20
102.1978
  0
VERTEX
  8
LAYER_1
 10
189.5154
 20
94.6978
  0
VERTEX
  8
LAYER_1
 10
189.5154
 20
94.1978
  0
SEQEND
  0
CIRCLE
  8
LAYER_1
 10
189.5154
 20
102.9978
 40
0.5
  0
CIRCLE
  8
LAYER_1
 10
189.5154
 20
102.9978
 40
0.5
  0
POLYLINE
  8
LAYER_1
 40
0.0353
 41
0.0353
 66
1
 10
0
 20
0
 30
0
  0
VERTEX
  8
LAYER_1
 10
189.5154
 20
101.6978
  0
VERTEX
  8
LAYER_1
 10
189.5154
 20
102.1978
  0
VERTEX
  8
LAYER_1
 10
189.5154
 20
102.9978
  0
VERTEX
  8
LAYER_1
 10
189.5154
 20
103.4978
  0
SEQEND
  0
CIRCLE
  8
LAYER_1
 10
189.5154
 20
102.1978
 40
0.5
  0
CIRCLE
  8
LAYER_1
 10
189.5154
 20
102.1978
 40
0.5
  0
TEXT
  8
LAYER_1
 10
188.0425
 20
103.5976
 11
188.0425
 21
103.5976
 40
2.7182
 41
0.5
 50
89.99999999
  1
16
  0
POLYLINE
  8
LAYER_1
 40
0.0353
 41
0.0353
 66
1
 10
0
 20
0
 30
0
  0
VERTEX
  8
LAYER_1
 10
77.7973
 20
91.6978
  0
VERTEX
  8
LAYER_1
 10
77.7973
 20
69.6978
  0
VERTEX
  8
LAYER_1
 10
47.7973
 20
69.6978
  0
VERTEX
  8
LAYER_1
 10
47.7973
 20
91.6978
  0
SEQEND
  0
CIRCLE
  8
LAYER_1
 10
47.7973
 20
69.6978
 40
0.5
  0
CIRCLE
  8
LAYER_1
 10
47.7973
 20
69.6978
 40
0.5
  0
CIRCLE
  8
LAYER_1
 10
77.7973
 20
69.6978
 40
0.5
  0
CIRCLE
  8
LAYER_1
 10
77.7973
 20
69.6978
 40
0.5
  0
TEXT
  8
LAYER_1
 10
60.6383
 20
71.1707
 11
60.6383
 21
71.1707
 40
2.7182
 41
0.5
  1
600
  0
CIRCLE
  8
LAYER_1
 10
48.9473
 20
77.1978
 40
0.5
  0
CIRCLE
  8
LAYER_1
 10
48.9473
 20
77.1978
 40
0.5
  0
CIRCLE
  8
LAYER_1
 10
76.6473
 20
77.1978
 40
0.5
  0
CIRCLE
  8
LAYER_1
 10
76.6473
 20
77.1978
 40
0.5
  0
TEXT
  8
LAYER_1
 10
60.6383
 20
78.6707
 11
60.6383
 21
78.6707
 40
2.7182
 41
0.5
  1
554
  0
POLYLINE
  8
LAYER_1
 40
0.0353
 41
0.0353
 66
1
 10
0
 20
0
 30
0
  0
VERTEX
  8
LAYER_1
 10
48.0223
 20
91.6978
  0
VERTEX
  8
LAYER_1
 10
48.0223
 20
77.1978
  0
VERTEX
  8
LAYER_1
 10
48.9473
 20
77.1978
  0
VERTEX
  8
LAYER_1
 10
48.9473
 20
91.6978
  0
VERTEX
  8
LAYER_1
 10
48.9473
 20
77.1978
  0
SEQEND
  0
CIRCLE
  8
LAYER_1
 10
48.9473
 20
77.1978
 40
0.5
  0
CIRCLE
  8
LAYER_1
 10
48.9473
 20
77.1978
 40
0.5
  0
CIRCLE
  8
LAYER_1
 10
48.0223
 20
77.1978
 40
0.5
  0
CIRCLE
  8
LAYER_1
 10
48.0223
 20
77.1978
 40
0.5
  0
TEXT
  8
LAYER_1
 10
48.9474
 20
78.6707
 11
48.9474
 21
78.6707
 40
2.7182
 41
0.5
  1
18.5
  0
POLYLINE
  8
LAYER_1
 40
0.0353
 41
0.0353
 66
1
 10
0
 20
0
 30
0
  0
VERTEX
  8
LAYER_1
 10
49.4473
 20
77.1978
  0
VERTEX
  8
LAYER_1
 10
48.9473
 20
77.1978
  0
VERTEX
  8
LAYER_1
 10
76.6473
 20
77.1978
  0
VERTEX
  8
LAYER_1
 10
76.6473
 20
91.6978
  0
VERTEX
  8
LAYER_1
 10
76.6473
 20
77.1978
  0
SEQEND
  0
POLYLINE
  8
LAYER_1
 40
0.0353
 41
0.0353
 66
1
 10
0
 20
0
 30
0
  0
VERTEX
  8
LAYER_1
 10
76.1473
 20
77.1978
  0
VERTEX
  8
LAYER_1
 10
76.6473
 20
77.1978
  0
VERTEX
  8
LAYER_1
 10
77.5723
 20
77.1978
  0
VERTEX
  8
LAYER_1
 10
77.5723
 20
91.6978
  0
SEQEND
  0
CIRCLE
  8
LAYER_1
 10
76.6473
 20
77.1978
 40
0.5
  0
CIRCLE
  8
LAYER_1
 10
76.6473
 20
77.1978
 40
0.5
  0
CIRCLE
  8
LAYER_1
 10
77.5723
 20
77.1978
 40
0.5
  0
CIRCLE
  8
LAYER_1
 10
77.5723
 20
77.1978
 40
0.5
  0
TEXT
  8
LAYER_1
 10
70.8899
 20
78.6707
 11
70.8899
 21
78.6707
 40
2.7182
 41
0.5
  1
18.5
  0
POLYLINE
  8
LAYER_1
 40
0.0353
 41
0.0353
 66
1
 10
0
 20
0
 30
0
  0
VERTEX
  8
LAYER_1
 10
77.7973
 20
88.6978
  0
VERTEX
  8
LAYER_1
 10
77.7973
 20
77.1978
  0
SEQEND
  0
POLYLINE
  8
LAYER_1
 40
0.0353
 41
0.0353
 66
1
 10
0
 20
0
 30
0
  0
VERTEX
  8
LAYER_1
 10
77.5723
 20
88.6978
  0
VERTEX
  8
LAYER_1
 10
77.5723
 20
77.1978
  0
VERTEX
  8
LAYER_1
 10
78.0723
 20
77.1978
  0
SEQEND
  0
CIRCLE
  8
LAYER_1
 10
77.7973
 20
77.1978
 40
0.5
  0
CIRCLE
  8
LAYER_1
 10
77.7973
 20
77.1978
 40
0.5
  0
POLYLINE
  8
LAYER_1
 40
0.0353
 41
0.0353
 66
1
 10
0
 20
0
 30
0
  0
VERTEX
  8
LAYER_1
 10
77.0723
 20
77.1978
  0
VERTEX
  8
LAYER_1
 10
77.5723
 20
77.1978
  0
VERTEX
  8
LAYER_1
 10
77.7973
 20
77.1978
  0
VERTEX
  8
LAYER_1
 10
83.3653
 20
77.1978
  0
SEQEND
  0
CIRCLE
  8
LAYER_1
 10
77.5723
 20
77.1978
 40
0.5
  0
CIRCLE
  8
LAYER_1
 10
77.5723
 20
77.1978
 40
0.5
  0
TEXT
  8
LAYER_1
 10
79.0472
 20
78.6707
 11
79.0472
 21
78.6707
 40
2.7182
 41
0.5
  1
4.5
  0
POLYLINE
  8
LAYER_1
 40
0.0353
 41
0.0353
 66
1
 10
0
 20
0
 30
0
  0
VERTEX
  8
LAYER_1
 10
47.7973
 20
88.6978
  0
VERTEX
  8
LAYER_1
 10
47.7973
 20
77.1978
  0
SEQEND
  0
POLYLINE
  8
LAYER_1
 40
0.0353
 41
0.0353
 66
1
 10
0
 20
0
 30
0
  0
VERTEX
  8
LAYER_1
 10
48.0223
 20
88.6978
  0
VERTEX
  8
LAYER_1
 10
48.0223
 20
77.1978
  0
VERTEX
  8
LAYER_1
 10
47.5223
 20
77.1978
  0
SEQEND
  0
CIRCLE
  8
LAYER_1
 10
47.7973
 20
77.1978
 40
0.5
  0
CIRCLE
  8
LAYER_1
 10
47.7973
 20
77.1978
 40
0.5
  0
POLYLINE
  8
LAYER_1
 40
0.0353
 41
0.0353
 66
1
 10
0
 20
0
 30
0
  0
VERTEX
  8
LAYER_1
 10
48.5223
 20
77.1978
  0
VERTEX
  8
LAYER_1
 10
48.0223
 20
77.1978
  0
VERTEX
  8
LAYER_1
 10
47.7973
 20
77.1978
  0
VERTEX
  8
LAYER_1
 10
42.3293
 20
77.1978
  0
SEQEND
  0
CIRCLE
  8
LAYER_1
 10
48.0223
 20
77.1978
 40
0.5
  0
CIRCLE
  8
LAYER_1
 10
48.0223
 20
77.1978
 40
0.5
  0
TEXT
  8
LAYER_1
 10
42.3294
 20
78.6707
 11
42.3294
 21
78.6707
 40
2.7182
 41
0.5
  1
4.5
  0
POLYLINE
  8
LAYER_1
 40
0.0353
 41
0.0353
 66
1
 10
0
 20
0
 30
0
  0
VERTEX
  8
LAYER_1
 10
100.4423
 20
94.6978
  0
VERTEX
  8
LAYER_1
 10
102.2423
 20
94.6978
  0
SEQEND
  0
POLYLINE
  8
LAYER_1
 40
0.0353
 41
0.0353
 66
1
 10
0
 20
0
 30
0
  0
VERTEX
  8
LAYER_1
 10
100.3923
 20
105.2478
  0
VERTEX
  8
LAYER_1
 10
102.2423
 20
105.2478
  0
SEQEND
  0
CIRCLE
  8
LAYER_1
 10
102.2423
 20
94.6978
 40
0.5
  0
CIRCLE
  8
LAYER_1
 10
102.2423
 20
94.6978
 40
0.5
  0
POLYLINE
  8
LAYER_1
 40
0.0353
 41
0.0353
 66
1
 10
0
 20
0
 30
0
  0
VERTEX
  8
LAYER_1
 10
102.2423
 20
105.7478
  0
VERTEX
  8
LAYER_1
 10
102.2423
 20
105.2478
  0
VERTEX
  8
LAYER_1
 10
102.2423
 20
94.6978
  0
VERTEX
  8
LAYER_1
 10
102.2423
 20
94.1978
  0
SEQEND
  0
CIRCLE
  8
LAYER_1
 10
102.2423
 20
105.2478
 40
0.5
  0
CIRCLE
  8
LAYER_1
 10
102.2423
 20
105.2478
 40
0.5
  0
TEXT
  8
LAYER_1
 10
100.7692
 20
98.1069
 11
100.7692
 21
98.1069
 40
2.7182
 41
0.5
 50
89.99999999
  1
211
  0
POLYLINE
  8
LAYER_1
 40
0.0353
 41
0.0353
 66
1
 10
0
 20
0
 30
0
  0
VERTEX
  8
LAYER_1
 10
100.4423
 20
105.2478
  0
VERTEX
  8
LAYER_1
 10
102.2423
 20
105.2478
  0
VERTEX
  8
LAYER_1
 10
102.2423
 20
126.8978
  0
VERTEX
  8
LAYER_1
 10
100.4423
 20
126.8978
  0
SEQEND
  0
CIRCLE
  8
LAYER_1
 10
102.2423
 20
126.8978
 40
0.5
  0
CIRCLE
  8
LAYER_1
 10
102.2423
 20
126.8978
 40
0.5
  0
CIRCLE
  8
LAYER_1
 10
102.2423
 20
105.2478
 40
0.5
  0
CIRCLE
  8
LAYER_1
 10
102.2423
 20
105.2478
 40
0.5
  0
TEXT
  8
LAYER_1
 10
100.7692
 20
113.4403
 11
100.7692
 21
113.4403
 40
2.7182
 41
0.5
 50
89.99999999
  1
433
  0
POLYLINE
  8
LAYER_1
 40
0.0353
 41
0.0353
 66
1
 10
0
 20
0
 30
0
  0
VERTEX
  8
LAYER_1
 10
163.2654
 20
125.1478
  0
VERTEX
  8
LAYER_1
 10
163.2654
 20
127.6228
  0
VERTEX
  8
LAYER_1
 10
163.2398
 20
127.6478
  0
VERTEX
  8
LAYER_1
 10
163.0606
 20
127.6478
  0
VERTEX
  8
LAYER_1
 10
163.0606
 20
127.4338
  0
VERTEX
  8
LAYER_1
 10
163.0609
 20
127.4335
 42
-0.1968113974
  0
VERTEX
  8
LAYER_1
 10
163.0229
 20
127.3271
 42
-0.1965646677
  0
VERTEX
  8
LAYER_1
 10
162.9207
 20
127.2788
  0
VERTEX
  8
LAYER_1
 10
162.907
 20
127.2838
  0
VERTEX
  8
LAYER_1
 10
162.5743
 20
127.2838
  0
VERTEX
  8
LAYER_1
 10
162.5737
 20
127.2833
 42
-0.1966762268
  0
VERTEX
  8
LAYER_1
 10
162.3939
 20
127.3442
 42
-0.1969596052
  0
VERTEX
  8
LAYER_1
 10
162.31
 20
127.5145
  0
VERTEX
  8
LAYER_1
 10
162.3184
 20
127.5338
  0
VERTEX
  8
LAYER_1
 10
162.3184
 20
127.5478
  0
VERTEX
  8
LAYER_1
 10
162.3217
 20
127.5555
  0
VERTEX
  8
LAYER_1
 10
162.2881
 20
127.6237
  0
VERTEX
  8
LAYER_1
 10
162.2162
 20
127.648
  0
VERTEX
  8
LAYER_1
 10
162.216
 20
127.6478
  0
VERTEX
  8
LAYER_1
 10
162.1904
 20
127.6478
  0
VERTEX
  8
LAYER_1
 10
162.1904
 20
125.1478
  0
SEQEND
  0
POLYLINE
  8
LAYER_1
 40
0.0353
 41
0.0353
 62
160
 66
1
 10
0
 20
0
 30
0
  0
VERTEX
  8
LAYER_1
 10
56.524
 20
128.9478
  0
VERTEX
  8
LAYER_1
 10
69.0579
 20
128.9478
  0
SEQEND
  0
TEXT
  8
LAYER_1
 10
29.1939
 20
118.4886
 11
29.1939
 21
118.4886
 40
2.3036
 41
0.5
  1
背板開口
  0
TEXT
  8
LAYER_1
 10
29.1939
 20
115.9781
 11
29.1939
 21
115.9781
 40
2.7182
 41
0.5
  1
442×300
  0
TEXT
  8
LAYER_1
 10
-14.3139
 20
122.7188
 11
-14.3139
 21
122.7188
 40
2.7182
 41
0.5
  1
ポリ合板 t2.5mm
  0
TEXT
  8
LAYER_1
 10
-15.2694
 20
120.2893
 11
-15.2694
 21
120.2893
 40
2.3036
 41
0.5
  1
（木口着色）
  0
TEXT
  8
LAYER_1
 10
-14.2572
 20
117.7789
 11
-14.2572
 21
117.7789
 40
2.7182
 41
0.5
  1
4点ビスキャップ留
  0
TEXT
  8
LAYER_1
 10
-14.2572
 20
115.3497
 11
-14.2572
 21
115.3497
 40
2.7182
 41
0.5
  1
500×350
  0
TEXT
  8
LAYER_1
 10
-14.7316
 20
145.3243
 11
-14.7316
 21
145.3243
 40
2.6148
 41
0.5
  1
背板開口フサギ板 ×1
  0
TEXT
  8
LAYER_1
 10
-13.152
 20
101.2326
 11
-13.152
 21
101.2326
 40
2.6148
 41
0.5
  1
底板開口フサギ板 ×1
  0
TEXT
  8
LAYER_1
 10
-13.7399
 20
89.6332
 11
-13.7399
 21
89.6332
 40
2.7182
 41
0.5
  1
ポリ合板 t2.5mm
  0
TEXT
  8
LAYER_1
 10
-14.6954
 20
87.2037
 11
-14.6954
 21
87.2037
 40
2.3036
 41
0.5
  1
（木口着色）
  0
TEXT
  8
LAYER_1
 10
-13.6832
 20
84.6933
 11
-13.6832
 21
84.6933
 40
2.7182
 41
0.5
  1
4点ビスキャップ留
  0
TEXT
  8
LAYER_1
 10
-13.6832
 20
82.2641
 11
-13.6832
 21
82.2641
 40
2.7182
 41
0.5
  1
450×135
  0
TEXT
  8
LAYER_1
 10
-19.7947
 20
216.8856
 11
-19.7947
 21
216.8856
 40
4.028
 41
0.5
  1
手洗器CIE-LPLAQ28 / 水栓インセット
  0
TEXT
  8
LAYER_1
 10
-19.7947
 20
212.3857
 11
-19.7947
 21
212.3857
 40
4.028
 41
0.5
  1
脚部 H=150
  0
POLYLINE
  8
LAYER_1
 40
0.0353
 41
0.0353
 66
1
 10
0
 20
0
 30
0
 70
1
  0
VERTEX
  8
LAYER_1
 10
162.0154
 20
128.9478
  0
VERTEX
  8
LAYER_1
 10
177.0154
 20
128.9478
  0
VERTEX
  8
LAYER_1
 10
177.0154
 20
128.5478
  0
VERTEX
  8
LAYER_1
 10
162.0154
 20
128.5478
  0
SEQEND
  0
TEXT
  8
LAYER_1
 10
50.055
 20
194.9135
 11
50.055
 21
194.9135
 40
2.3036
 41
0.5
  1
地板開口
  0
TEXT
  8
LAYER_1
 10
50.055
 20
192.4031
 11
50.055
 21
192.4031
 40
2.7182
 41
0.5
  1
390×100
  0
POLYLINE
  8
LAYER_1
 40
0.0353
 41
0.0353
 66
1
 10
0
 20
0
 30
0
  0
VERTEX
  8
LAYER_1
 10
56.1826
 20
182.8934
  0
VERTEX
  8
LAYER_1
 10
53.9013
 20
191.4934
  0
SEQEND
  0
POLYLINE
  8
LAYER_1
 40
0.05
 41
0.05
 66
1
 10
0
 20
0
 30
0
 70
1
  0
VERTEX
  8
LAYER_1
 10
56.1826
 20
182.8934
  0
VERTEX
  8
LAYER_1
 10
55.0909
 20
184.8629
  0
VERTEX
  8
LAYER_1
 10
56.2219
 20
185.1449
  0
SEQEND
  0
INSERT
  8
LAYER_1
  2
AIGNBL01010002
 10
0
 20
0
 30
0
  0
POLYLINE
  8
LAYER_1
  6
AIGENLINE002
 40
0.0353
 41
0.0353
 66
1
 10
0
 20
0
 30
0
 70
129
  0
VERTEX
  8
LAYER_1
 10
48.9473
 20
184.6978
  0
VERTEX
  8
LAYER_1
 10
49.7473
 20
184.6978
  0
VERTEX
  8
LAYER_1
 10
49.7473
 20
171.0978
  0
VERTEX
  8
LAYER_1
 10
48.9473
 20
171.0978
  0
SEQEND
  0
POLYLINE
  8
LAYER_1
  6
AIGENLINE002
 40
0.0353
 41
0.0353
 66
1
 10
0
 20
0
 30
0
 70
129
  0
VERTEX
  8
LAYER_1
 10
75.8473
 20
184.6978
  0
VERTEX
  8
LAYER_1
 10
76.6473
 20
184.6978
  0
VERTEX
  8
LAYER_1
 10
76.6473
 20
171.0978
  0
VERTEX
  8
LAYER_1
 10
75.8473
 20
171.0978
  0
SEQEND
  0
POLYLINE
  8
LAYER_1
  6
AIGENLINE002
 40
0.0353
 41
0.0353
 66
1
 10
0
 20
0
 30
0
 70
129
  0
VERTEX
  8
LAYER_1
 10
49.7473
 20
184.6978
  0
VERTEX
  8
LAYER_1
 10
75.8473
 20
184.6978
  0
VERTEX
  8
LAYER_1
 10
75.8473
 20
183.7978
  0
VERTEX
  8
LAYER_1
 10
49.7473
 20
183.7978
  0
SEQEND
  0
POLYLINE
  8
LAYER_1
  6
AIGENLINE002
 40
0.0353
 41
0.0353
 66
1
 10
0
 20
0
 30
0
 70
128
  0
VERTEX
  8
LAYER_1
 10
49.7473
 20
171.0978
  0
VERTEX
  8
LAYER_1
 10
75.8473
 20
171.0978
  0
SEQEND
  0
POLYLINE
  8
LAYER_1
  6
AIGENLINE002
 40
0.0353
 41
0.0353
 66
1
 10
0
 20
0
 30
0
 70
129
  0
VERTEX
  8
LAYER_1
 10
49.0473
 20
170.9478
  0
VERTEX
  8
LAYER_1
 10
76.5473
 20
170.9478
  0
VERTEX
  8
LAYER_1
 10
76.5473
 20
169.8728
  0
VERTEX
  8
LAYER_1
 10
49.0473
 20
169.8728
  0
SEQEND
  0
POLYLINE
  8
LAYER_1
  6
AIGENLINE002
 40
0.0353
 41
0.0353
 66
1
 10
0
 20
0
 30
0
 70
129
  0
VERTEX
  8
LAYER_1
 10
48.0223
 20
184.6978
  0
VERTEX
  8
LAYER_1
 10
48.9473
 20
184.6978
  0
VERTEX
  8
LAYER_1
 10
48.9473
 20
169.8728
  0
VERTEX
  8
LAYER_1
 10
48.0223
 20
169.8728
  0
SEQEND
  0
POLYLINE
  8
LAYER_1
  6
AIGENLINE002
 40
0.0353
 41
0.0353
 66
1
 10
0
 20
0
 30
0
 70
129
  0
VERTEX
  8
LAYER_1
 10
76.6473
 20
184.6978
  0
VERTEX
  8
LAYER_1
 10
77.5723
 20
184.6978
  0
VERTEX
  8
LAYER_1
 10
77.5723
 20
169.8728
  0
VERTEX
  8
LAYER_1
 10
76.6473
 20
169.8728
  0
SEQEND
  0
POLYLINE
  8
LAYER_1
 40
0.0353
 41
0.0353
 66
1
 10
0
 20
0
 30
0
 70
1
  0
VERTEX
  8
LAYER_1
 10
47.7973
 20
184.6978
  0
VERTEX
  8
LAYER_1
 10
77.7973
 20
184.6978
  0
VERTEX
  8
LAYER_1
 10
77.7973
 20
169.6978
  0
VERTEX
  8
LAYER_1
 10
47.7973
 20
169.6978
  0
SEQEND
  0
POLYLINE
  8
LAYER_1
  6
AIGENLINE001
 40
0.0353
 41
0.0353
 62
6
 66
1
 10
0
 20
0
 30
0
 70
129
  0
VERTEX
  8
LAYER_1
 10
60.2928
 20
183.0978
  0
VERTEX
  8
LAYER_1
 10
65.2928
 20
183.0978
  0
VERTEX
  8
LAYER_1
 10
65.2928
 20
174.0978
  0
VERTEX
  8
LAYER_1
 10
60.2928
 20
174.0978
  0
SEQEND
  0
TEXT
  8
LAYER_1
 10
67.4985
 20
162.3438
 11
67.4985
 21
162.3438
 40
2.3036
 41
0.5
  1
手洗器用天板開口
  0
TEXT
  8
LAYER_1
 10
67.4985
 20
159.8335
 11
67.4985
 21
159.8335
 40
2.7182
 41
0.5
  1
100×180
  0
POLYLINE
  8
LAYER_1
 40
0.0353
 41
0.0353
 66
1
 10
0
 20
0
 30
0
  0
VERTEX
  8
LAYER_1
 10
64.7951
 20
174.7429
  0
VERTEX
  8
LAYER_1
 10
68.8752
 20
165.3929
  0
SEQEND
  0
POLYLINE
  8
LAYER_1
  6
AIGENLINE005
 40
0.0353
 41
0.0353
 66
1
 10
0
 20
0
 30
0
 70
128
  0
VERTEX
  8
LAYER_1
 10
62.7928
 20
194.6978
  0
VERTEX
  8
LAYER_1
 10
62.7928
 20
166.0429
  0
SEQEND
  0
TEXT
  8
LAYER_1
 10
84.9987
 20
174.3195
 11
84.9987
 21
174.3195
 40
1.7277
 41
0.5
 50
89.99999999
  1
天板開口
  0
POLYLINE
  8
LAYER_1
 40
0.0353
 41
0.0353
 66
1
 10
0
 20
0
 30
0
  0
VERTEX
  8
LAYER_1
 10
77.7973
 20
187.6978
  0
VERTEX
  8
LAYER_1
 10
77.7973
 20
199.6978
  0
VERTEX
  8
LAYER_1
 10
47.7973
 20
199.6978
  0
VERTEX
  8
LAYER_1
 10
47.7973
 20
187.6978
  0
SEQEND
  0
CIRCLE
  8
LAYER_1
 10
47.7973
 20
199.6978
 40
0.5
  0
CIRCLE
  8
LAYER_1
 10
47.7973
 20
199.6978
 40
0.5
  0
CIRCLE
  8
LAYER_1
 10
77.7973
 20
199.6978
 40
0.5
  0
CIRCLE
  8
LAYER_1
 10
77.7973
 20
199.6978
 40
0.5
  0
TEXT
  8
LAYER_1
 10
60.6383
 20
201.1707
 11
60.6383
 21
201.1707
 40
2.7182
 41
0.5
  1
600
  0
POLYLINE
  8
LAYER_1
 40
0.0353
 41
0.0353
 66
1
 10
0
 20
0
 30
0
  0
VERTEX
  8
LAYER_1
 10
44.7973
 20
184.6978
  0
VERTEX
  8
LAYER_1
 10
30.2973
 20
184.6978
  0
SEQEND
  0
POLYLINE
  8
LAYER_1
 40
0.0353
 41
0.0353
 66
1
 10
0
 20
0
 30
0
  0
VERTEX
  8
LAYER_1
 10
44.7973
 20
169.6978
  0
VERTEX
  8
LAYER_1
 10
30.2973
 20
169.6978
  0
SEQEND
  0
CIRCLE
  8
LAYER_1
 10
30.2973
 20
184.6978
 40
0.5
  0
CIRCLE
  8
LAYER_1
 10
30.2973
 20
184.6978
 40
0.5
  0
POLYLINE
  8
LAYER_1
 40
0.0353
 41
0.0353
 66
1
 10
0
 20
0
 30
0
  0
VERTEX
  8
LAYER_1
 10
30.2973
 20
169.1978
  0
VERTEX
  8
LAYER_1
 10
30.2973
 20
169.6978
  0
VERTEX
  8
LAYER_1
 10
30.2973
 20
184.6978
  0
VERTEX
  8
LAYER_1
 10
30.2973
 20
185.1978
  0
SEQEND
  0
CIRCLE
  8
LAYER_1
 10
30.2973
 20
169.6978
 40
0.5
  0
CIRCLE
  8
LAYER_1
 10
30.2973
 20
169.6978
 40
0.5
  0
TEXT
  8
LAYER_1
 10
28.8244
 20
175.0388
 11
28.8244
 21
175.0388
 40
2.7182
 41
0.5
 50
89.99999999
  1
300
  0
POLYLINE
  8
LAYER_1
 40
0.0353
 41
0.0353
 66
1
 10
0
 20
0
 30
0
  0
VERTEX
  8
LAYER_1
 10
80.7973
 20
184.6978
  0
VERTEX
  8
LAYER_1
 10
89.4973
 20
184.6978
  0
SEQEND
  0
CIRCLE
  8
LAYER_1
 10
89.4973
 20
184.6978
 40
0.5
  0
CIRCLE
  8
LAYER_1
 10
89.4973
 20
184.6978
 40
0.5
  0
CIRCLE
  8
LAYER_1
 10
89.4973
 20
183.0978
 40
0.5
  0
CIRCLE
  8
LAYER_1
 10
89.4973
 20
183.0978
 40
0.5
  0
TEXT
  8
LAYER_1
 10
88.0245
 20
185.3978
 11
88.0245
 21
185.3978
 40
2.7182
 41
0.5
 50
89.99999999
  1
32
  0
POLYLINE
  8
LAYER_1
 40
0.0353
 41
0.0353
 66
1
 10
0
 20
0
 30
0
  0
VERTEX
  8
LAYER_1
 10
89.4973
 20
182.5978
  0
VERTEX
  8
LAYER_1
 10
89.4973
 20
183.0978
  0
VERTEX
  8
LAYER_1
 10
80.7973
 20
183.0978
  0
VERTEX
  8
LAYER_1
 10
89.4973
 20
183.0978
  0
VERTEX
  8
LAYER_1
 10
89.4973
 20
184.6978
  0
VERTEX
  8
LAYER_1
 10
89.4973
 20
188.22
  0
SEQEND
  0
CIRCLE
  8
LAYER_1
 10
89.4973
 20
174.0978
 40
0.5
  0
CIRCLE
  8
LAYER_1
 10
89.4973
 20
174.0978
 40
0.5
  0
CIRCLE
  8
LAYER_1
 10
89.4973
 20
183.0978
 40
0.5
  0
CIRCLE
  8
LAYER_1
 10
89.4973
 20
183.0978
 40
0.5
  0
TEXT
  8
LAYER_1
 10
88.0245
 20
176.4812
 11
88.0245
 21
176.4812
 40
2.7182
 41
0.5
 50
89.99999999
  1
180
  0
POLYLINE
  8
LAYER_1
 40
0.0353
 41
0.0353
 66
1
 10
0
 20
0
 30
0
  0
VERTEX
  8
LAYER_1
 10
80.7973
 20
169.6978
  0
VERTEX
  8
LAYER_1
 10
89.4973
 20
169.6978
  0
SEQEND
  0
POLYLINE
  8
LAYER_1
 40
0.0353
 41
0.0353
 66
1
 10
0
 20
0
 30
0
  0
VERTEX
  8
LAYER_1
 10
89.4973
 20
173.5978
  0
VERTEX
  8
LAYER_1
 10
89.4973
 20
174.0978
  0
VERTEX
  8
LAYER_1
 10
80.7973
 20
174.0978
  0
VERTEX
  8
LAYER_1
 10
89.4973
 20
174.0978
  0
VERTEX
  8
LAYER_1
 10
89.4973
 20
183.0978
  0
VERTEX
  8
LAYER_1
 10
89.4973
 20
183.5978
  0
SEQEND
  0
CIRCLE
  8
LAYER_1
 10
89.4973
 20
169.6978
 40
0.5
  0
CIRCLE
  8
LAYER_1
 10
89.4973
 20
169.6978
 40
0.5
  0
POLYLINE
  8
LAYER_1
 40
0.0353
 41
0.0353
 66
1
 10
0
 20
0
 30
0
  0
VERTEX
  8
LAYER_1
 10
89.4973
 20
174.5978
  0
VERTEX
  8
LAYER_1
 10
89.4973
 20
174.0978
  0
VERTEX
  8
LAYER_1
 10
89.4973
 20
169.6978
  0
VERTEX
  8
LAYER_1
 10
89.4973
 20
169.1978
  0
SEQEND
  0
CIRCLE
  8
LAYER_1
 10
89.4973
 20
174.0978
 40
0.5
  0
CIRCLE
  8
LAYER_1
 10
89.4973
 20
174.0978
 40
0.5
  0
TEXT
  8
LAYER_1
 10
88.0245
 20
170.4868
 11
88.0245
 21
170.4868
 40
2.7182
 41
0.5
 50
89.99999999
  1
88
  0
POLYLINE
  8
LAYER_1
 40
0.0353
 41
0.0353
 66
1
 10
0
 20
0
 30
0
  0
VERTEX
  8
LAYER_1
 10
57.9272
 20
184.5647
 42
0.1990616983
  0
VERTEX
  8
LAYER_1
 10
56.4907
 20
183.9692
 42
0.199067868
  0
VERTEX
  8
LAYER_1
 10
55.8968
 20
182.532
  0
SEQEND
  0
INSERT
  8
LAYER_1
  2
AIGNBL01010003
 10
0
 20
0
 30
0
  0
POLYLINE
  8
LAYER_1
 40
0.0353
 41
0.0353
 66
1
 10
0
 20
0
 30
0
 70
1
  0
VERTEX
  8
LAYER_1
 10
47.7973
 20
128.9478
  0
VERTEX
  8
LAYER_1
 10
77.7973
 20
128.9478
  0
VERTEX
  8
LAYER_1
 10
77.7973
 20
128.5478
  0
VERTEX
  8
LAYER_1
 10
47.7973
 20
128.5478
  0
SEQEND
  0
INSERT
  8
LAYER_1
  2
AIGNBL01010004
 10
0
 20
0
 30
0
  0
INSERT
  8
LAYER_1
  2
AIGNBL01010005
 10
0
 20
0
 30
0
  0
TEXT
  8
LAYER_7
 10
-26.2556
 20
43.1712
 11
-26.2556
 21
43.1712
 40
3.6126
 41
0.5
  1
仕様
  0
POLYLINE
  8
LAYER_7
 40
0.3528
 41
0.3528
 66
1
 10
0
 20
0
 30
0
  0
VERTEX
  8
LAYER_7
 10
250.6748
 20
51.9507
  0
VERTEX
  8
LAYER_7
 10
-29.3178
 20
51.9507
  0
SEQEND
  0
INSERT
  8
LAYER_7
  2
AIGNBL07010002
 10
0
 20
0
 30
0
  0
POLYLINE
  8
LAYER_7
 40
0.3528
 41
0.3528
 66
1
 10
0
 20
0
 30
0
  0
VERTEX
  8
LAYER_7
 10
-29.3178
 20
229.3369
  0
VERTEX
  8
LAYER_7
 10
-29.3178
 20
34.3283
  0
VERTEX
  8
LAYER_7
 10
250.6748
 20
34.3283
  0
VERTEX
  8
LAYER_7
 10
250.6748
 20
229.3369
  0
VERTEX
  8
LAYER_7
 10
-29.3178
 20
229.3369
  0
SEQEND
  0
POLYLINE
  8
LAYER_7
 40
0.3528
 41
0.3528
 66
1
 10
0
 20
0
 30
0
  0
VERTEX
  8
LAYER_7
 10
250.6748
 20
60.4597
  0
VERTEX
  8
LAYER_7
 10
-29.3178
 20
60.4597
  0
SEQEND
  0
POLYLINE
  8
LAYER_7
 40
0.3528
 41
0.3528
 66
1
 10
0
 20
0
 30
0
  0
VERTEX
  8
LAYER_7
 10
250.6748
 20
43.4416
  0
VERTEX
  8
LAYER_7
 10
143.5341
 20
43.4416
  0
SEQEND
  0
TEXT
  8
LAYER_7
 10
188.1725
 20
45.6854
 11
188.1725
 21
45.6854
 40
4.2629
 41
0.5
  1
-
  0
TEXT
  8
LAYER_7
 10
182.8808
 20
49.4743
 11
182.8808
 21
49.4743
 40
2.4084
 41
0.5
  1
縮尺
  0
POLYLINE
  8
LAYER_7
 40
0.3528
 41
0.3528
 66
1
 10
0
 20
0
 30
0
  0
VERTEX
  8
LAYER_7
 10
181.3526
 20
43.4416
  0
VERTEX
  8
LAYER_7
 10
181.3526
 20
51.9507
  0
SEQEND
  0
TEXT
  8
LAYER_7
 10
144.2327
 20
57.9834
 11
144.2327
 21
57.9834
 40
2.4084
 41
0.5
  1
品番
  0
TEXT
  8
LAYER_7
 10
-28.1609
 20
57.9834
 11
-28.1609
 21
57.9834
 40
2.4084
 41
0.5
  1
品名
  0
TEXT
  8
LAYER_7
 10
144.2327
 20
49.4743
 11
144.2327
 21
49.4743
 40
2.4084
 41
0.5
  1
重量
  0
TEXT
  8
LAYER_7
 10
150.2547
 20
54.1617
 11
150.2547
 21
54.1617
 40
5.2926
 41
0.5
  1
OCA-600/INXXXXXX150XX
  0
POLYLINE
  8
LAYER_7
 40
0.3528
 41
0.3528
 66
1
 10
0
 20
0
 30
0
  0
VERTEX
  8
LAYER_7
 10
143.5341
 20
34.9539
  0
VERTEX
  8
LAYER_7
 10
143.5341
 20
60.4597
  0
SEQEND
  0
TEXT
  8
LAYER_7
 10
-15.3236
 20
54.891
 11
-15.3236
 21
54.891
 40
4.6993
 41
0.5
  1
アサンブラージュミニ手洗キャビネット　間口600mm
  0
TEXT
  8
LAYER_7
 10
-15.6835
 20
45.9736
 11
-15.6835
 21
45.9736
 40
4.028
 41
0.5
  1
●サイズ：W600×D300×H685mm●2本脚●天板：ウルトラセラミック●扉：マットペイント／オレフィンシート
  0
TEXT
  8
LAYER_7
 10
-15.6835
 20
41.2235
 11
-15.6835
 21
41.2235
 40
4.028
 41
0.5
  1
●丁　番：スライド丁番110度開き／ソフトクローズ内蔵タイプ●洗面ボウル・水栓金具・排水目皿・トラップ・止水栓別途
  0
TEXT
  8
LAYER_7
 10
-15.6835
 20
36.4738
 11
-15.6835
 21
36.4738
 40
3.4135
 41
0.5
  1
●受注生産
  0
TEXT
  8
LAYER_7
 10
237.263
 20
63.2582
 11
237.263
 21
63.2582
 40
3.3566
 41
0.5
  1
単位：mm
  0
TEXT
  8
LAYER_7
 10
176.0254
 20
39.5359
 11
176.0254
 21
39.5359
 40
3.8366
 41
0.5
  1
●TEL 0120-65-1232●FAX 06-6532-1580
  0
TEXT
  8
LAYER_7
 10
176.0254
 20
35.9926
 11
176.0254
 21
35.9926
 40
3.8366
 41
0.5
  1
hits@hiratatile.co.jp
  0
INSERT
  8
LAYER_7
  2
AIGNBL07010003
 10
0
 20
0
 30
0
  0
TEXT
  8
LAYER_7
 10
157.2803
 20
46.4612
 11
157.2803
 21
46.4612
 40
4.2629
 41
0.5
  1
-
  0
POLYLINE
  8
LAYER_7
 40
0.05
 41
0.05
 66
1
 10
0
 20
0
 30
0
 70
1
  0
VERTEX
  8
LAYER_7
 10
260.2887
 20
25.0268
  0
VERTEX
  8
LAYER_7
 10
-36.7113
 20
25.0268
  0
VERTEX
  8
LAYER_7
 10
-36.7113
 20
235.0268
  0
VERTEX
  8
LAYER_7
 10
260.2887
 20
235.0268
  0
SEQEND
  0
ENDSEC
  0
EOF
