  0
SECTION
  2
HEADER
  9
$ACADVER
  1
AC1009
  9
$LUNITS
 70
2
  9
$LUPREC
 70
4
  9
$LTSCALE
 40
1.0
  9
$EXTMIN
 10
-30.3177
 20
33.3285
 30
0
  9
$EXTMAX
 10
251.6749
 20
230.337
 30
0
  0
ENDSEC
  0
SECTION
  2
TABLES
  0
TABLE
  2
LTYPE
 70
256
  0
LTYPE
  2
AIGENLINE001
 70
64
  3
generate AI->DXF Converter
 72
65
 73
2
 40
0.7056
 49
0.3528
 49
-0.3528
  0
LTYPE
  2
AIGENLINE002
 70
64
  3
generate AI->DXF Converter
 72
65
 73
2
 40
0.0208
 49
0.0069
 49
-0.0139
  0
LTYPE
  2
AIGENLINE003
 70
64
  3
generate AI->DXF Converter
 72
65
 73
4
 40
0.1042
 49
0.0625
 49
-0.0208
 49
0.0069
 49
-0.0139
  0
LTYPE
  2
AIGENLINE004
 70
64
  3
generate AI->DXF Converter
 72
65
 73
2
 40
0.0417
 49
0.0208
 49
-0.0208
  0
LTYPE
  2
AIGENLINE005
 70
64
  3
generate AI->DXF Converter
 72
65
 73
4
 40
0.25
 49
0.2014
 49
-0.0139
 49
0.0208
 49
-0.0139
  0
ENDTAB
  0
TABLE
  2
LAYER
 70
7
  0
LAYER
  2
LAYER_1
 70
64
 62
7
  6
CONTINUOUS
  0
LAYER
  2
LAYER_2
 70
64
 62
7
  6
CONTINUOUS
  0
LAYER
  2
LAYER_3
 70
64
 62
7
  6
CONTINUOUS
  0
LAYER
  2
LAYER_4
 70
64
 62
7
  6
CONTINUOUS
  0
LAYER
  2
LAYER_5
 70
64
 62
7
  6
CONTINUOUS
  0
LAYER
  2
LAYER_6
 70
64
 62
7
  6
CONTINUOUS
  0
LAYER
  2
LAYER_7
 70
64
 62
7
  6
CONTINUOUS
  0
ENDTAB
  0
TABLE
  2
STYLE
 70
6
  0
STYLE
  2
STANDARD
 70
0
 40
0
 50
0
 71
0
 41
0
 42
0
  3
TXT
  4
BIGFONT
  0
ENDTAB
  0
ENDSEC
  0
SECTION
  2
BLOCKS
  0
BLOCK
  8
LAYER_7
  2
AIGNBL07040006
 70
64
 10
0
 20
0
 30
0
  3
AIGNBL07040006
  0
POLYLINE
  8
LAYER_7
 40
0.05
 41
0.05
 66
1
 10
0
 20
0
 30
0
 70
1
  0
VERTEX
  8
LAYER_7
 10
146.7545
 20
39.1418
  0
VERTEX
  8
LAYER_7
 10
146.2656
 20
37.9567
  0
VERTEX
  8
LAYER_7
 10
145.6376
 20
37.9567
  0
VERTEX
  8
LAYER_7
 10
147.2372
 20
41.7225
  0
VERTEX
  8
LAYER_7
 10
147.9703
 20
41.7225
  0
VERTEX
  8
LAYER_7
 10
149.5768
 20
37.9567
  0
VERTEX
  8
LAYER_7
 10
148.9267
 20
37.9567
  0
VERTEX
  8
LAYER_7
 10
148.424
 20
39.1418
  0
SEQEND
  0
POLYLINE
  8
LAYER_7
 40
0.05
 41
0.05
 66
1
 10
0
 20
0
 30
0
 70
1
  0
VERTEX
  8
LAYER_7
 10
148.2983
 20
39.5207
  0
VERTEX
  8
LAYER_7
 10
147.8373
 20
40.6056
  0
VERTEX
  8
LAYER_7
 10
147.5927
 20
41.2926
  0
VERTEX
  8
LAYER_7
 10
147.5789
 20
41.2926
  0
VERTEX
  8
LAYER_7
 10
147.3412
 20
40.6101
  0
VERTEX
  8
LAYER_7
 10
146.8806
 20
39.5207
  0
SEQEND
  0
ENDBLK
  0
BLOCK
  8
LAYER_7
  2
AIGNBL07040007
 70
64
 10
0
 20
0
 30
0
  3
AIGNBL07040007
  0
POLYLINE
  8
LAYER_7
 40
0.05
 41
0.05
 66
1
 10
0
 20
0
 30
0
 70
1
  0
VERTEX
  8
LAYER_7
 10
153.942
 20
37.4034
 42
-0.01557776889
  0
VERTEX
  8
LAYER_7
 10
152.1399
 20
37.8395
  0
VERTEX
  8
LAYER_7
 10
151.8533
 20
37.895
 42
-0.08356586593
  0
VERTEX
  8
LAYER_7
 10
150.9892
 20
38.0612
 42
-0.09749891868
  0
VERTEX
  8
LAYER_7
 10
150.3281
 20
38.4671
 42
-0.2129139625
  0
VERTEX
  8
LAYER_7
 10
149.7793
 20
39.7998
 42
-0.09685063121
  0
VERTEX
  8
LAYER_7
 10
149.9239
 20
40.5732
 42
-0.2046489378
  0
VERTEX
  8
LAYER_7
 10
150.9715
 20
41.5974
 42
-0.09824326873
  0
VERTEX
  8
LAYER_7
 10
151.9725
 20
41.7838
 42
-0.08554303155
  0
VERTEX
  8
LAYER_7
 10
152.8411
 20
41.6425
 42
-0.100439485
  0
VERTEX
  8
LAYER_7
 10
153.5062
 20
41.2483
 42
-0.2140965971
  0
VERTEX
  8
LAYER_7
 10
154.0815
 20
39.8784
 42
-0.09539620281
  0
VERTEX
  8
LAYER_7
 10
153.9426
 20
39.1106
 42
-0.2143310008
  0
VERTEX
  8
LAYER_7
 10
152.9198
 20
38.1321
 42
-0.02339132607
  0
VERTEX
  8
LAYER_7
 10
152.7407
 20
38.0738
  0
VERTEX
  8
LAYER_7
 10
152.7407
 20
38.0514
 42
0.01711818545
  0
VERTEX
  8
LAYER_7
 10
154.117
 20
37.8113
  0
SEQEND
  0
POLYLINE
  8
LAYER_7
 40
0.05
 41
0.05
 66
1
 10
0
 20
0
 30
0
 70
1
  0
VERTEX
  8
LAYER_7
 10
153.4394
 20
39.857
 42
0.1071643265
  0
VERTEX
  8
LAYER_7
 10
153.2881
 20
40.5618
 42
0.2976270581
  0
VERTEX
  8
LAYER_7
 10
151.9511
 20
41.3873
 42
0.1072356843
  0
VERTEX
  8
LAYER_7
 10
151.2613
 20
41.2478
 42
0.2385874916
  0
VERTEX
  8
LAYER_7
 10
150.4743
 20
40.2422
 42
0.05751786987
  0
VERTEX
  8
LAYER_7
 10
150.4287
 20
39.8122
 42
0.218058121
  0
VERTEX
  8
LAYER_7
 10
150.9593
 20
38.6168
 42
0.1772828752
  0
VERTEX
  8
LAYER_7
 10
151.9232
 20
38.2912
 42
0.1075205619
  0
VERTEX
  8
LAYER_7
 10
152.6045
 20
38.4302
 42
0.2370768657
  0
VERTEX
  8
LAYER_7
 10
153.3917
 20
39.4298
 42
0.05602139055
  0
SEQEND
  0
ENDBLK
  0
BLOCK
  8
LAYER_7
  2
AIGNBL07040008
 70
64
 10
0
 20
0
 30
0
  3
AIGNBL07040008
  0
POLYLINE
  8
LAYER_7
 40
0.05
 41
0.05
 66
1
 10
0
 20
0
 30
0
 70
1
  0
VERTEX
  8
LAYER_7
 10
155.4089
 20
41.7225
  0
VERTEX
  8
LAYER_7
 10
155.4089
 20
39.4932
 42
0.114533087
  0
VERTEX
  8
LAYER_7
 10
155.5428
 20
38.8274
 42
0.1464774934
  0
VERTEX
  8
LAYER_7
 10
155.8932
 20
38.4422
 42
0.1362552487
  0
VERTEX
  8
LAYER_7
 10
156.5055
 20
38.2912
 42
0.1219300979
  0
VERTEX
  8
LAYER_7
 10
157.1286
 20
38.4259
 42
0.1503016186
  0
VERTEX
  8
LAYER_7
 10
157.5004
 20
38.7949
 42
0.1256239276
  0
VERTEX
  8
LAYER_7
 10
157.651
 20
39.4932
  0
VERTEX
  8
LAYER_7
 10
157.651
 20
41.7225
  0
VERTEX
  8
LAYER_7
 10
158.2656
 20
41.7225
  0
VERTEX
  8
LAYER_7
 10
158.2656
 20
39.5266
 42
-0.09996665729
  0
VERTEX
  8
LAYER_7
 10
158.1307
 20
38.7839
 42
-0.1215019567
  0
VERTEX
  8
LAYER_7
 10
157.7575
 20
38.2772
 42
-0.1106305922
  0
VERTEX
  8
LAYER_7
 10
157.132
 20
37.9706
 42
-0.06128719854
  0
VERTEX
  8
LAYER_7
 10
156.4845
 20
37.895
 42
-0.0941826643
  0
VERTEX
  8
LAYER_7
 10
155.6654
 20
38.0331
 42
-0.2431541134
  0
VERTEX
  8
LAYER_7
 10
154.8618
 20
38.9438
 42
-0.06321248355
  0
VERTEX
  8
LAYER_7
 10
154.7943
 20
39.5045
  0
VERTEX
  8
LAYER_7
 10
154.7943
 20
41.7225
  0
SEQEND
  0
ENDBLK
  0
BLOCK
  8
LAYER_7
  2
AIGNBL07040009
 70
64
 10
0
 20
0
 30
0
  3
AIGNBL07040009
  0
POLYLINE
  8
LAYER_7
 40
0.05
 41
0.05
 66
1
 10
0
 20
0
 30
0
 70
1
  0
VERTEX
  8
LAYER_7
 10
160.0119
 20
39.1418
  0
VERTEX
  8
LAYER_7
 10
159.5227
 20
37.9567
  0
VERTEX
  8
LAYER_7
 10
158.8947
 20
37.9567
  0
VERTEX
  8
LAYER_7
 10
160.4939
 20
41.7225
  0
VERTEX
  8
LAYER_7
 10
161.227
 20
41.7225
  0
VERTEX
  8
LAYER_7
 10
162.8335
 20
37.9567
  0
VERTEX
  8
LAYER_7
 10
162.1841
 20
37.9567
  0
VERTEX
  8
LAYER_7
 10
161.6814
 20
39.1418
  0
SEQEND
  0
POLYLINE
  8
LAYER_7
 40
0.05
 41
0.05
 66
1
 10
0
 20
0
 30
0
 70
1
  0
VERTEX
  8
LAYER_7
 10
161.5553
 20
39.5207
  0
VERTEX
  8
LAYER_7
 10
161.094
 20
40.6056
  0
VERTEX
  8
LAYER_7
 10
160.8494
 20
41.2926
  0
VERTEX
  8
LAYER_7
 10
160.8357
 20
41.2926
  0
VERTEX
  8
LAYER_7
 10
160.5983
 20
40.6101
  0
VERTEX
  8
LAYER_7
 10
160.1373
 20
39.5207
  0
SEQEND
  0
ENDBLK
  0
BLOCK
  8
LAYER_7
  2
AIGNBL0704000A
 70
64
 10
0
 20
0
 30
0
  3
AIGNBL0704000A
  0
POLYLINE
  8
LAYER_7
 40
0.05
 41
0.05
 66
1
 10
0
 20
0
 30
0
 70
1
  0
VERTEX
  8
LAYER_7
 10
163.8742
 20
41.6777
 42
-0.03245918394
  0
VERTEX
  8
LAYER_7
 10
165.0411
 20
41.7508
 42
-0.08084226265
  0
VERTEX
  8
LAYER_7
 10
165.9975
 20
41.619
 42
-0.07815635113
  0
VERTEX
  8
LAYER_7
 10
166.3609
 20
41.4379
 42
-0.2484709269
  0
VERTEX
  8
LAYER_7
 10
166.7726
 20
40.6497
 42
-0.226147
  0
VERTEX
  8
LAYER_7
 10
166.4095
 20
39.8456
 42
-0.1096895144
  0
VERTEX
  8
LAYER_7
 10
165.7812
 20
39.5323
 42
-0.06565832551
  0
VERTEX
  8
LAYER_7
 10
164.9708
 20
39.4319
 42
-0.06238309955
  0
VERTEX
  8
LAYER_7
 10
164.4823
 20
39.4653
  0
VERTEX
  8
LAYER_7
 10
164.4823
 20
37.9567
  0
VERTEX
  8
LAYER_7
 10
163.8742
 20
37.9567
  0
SEQEND
  0
POLYLINE
  8
LAYER_7
 40
0.05
 41
0.05
 66
1
 10
0
 20
0
 30
0
 70
1
  0
VERTEX
  8
LAYER_7
 10
164.4823
 20
39.8622
 42
0.04203451964
  0
VERTEX
  8
LAYER_7
 10
164.9846
 20
39.8229
 42
0.1032111168
  0
VERTEX
  8
LAYER_7
 10
165.7038
 20
39.9502
 42
0.1555938032
  0
VERTEX
  8
LAYER_7
 10
166.0686
 20
40.2546
 42
0.1352673748
  0
VERTEX
  8
LAYER_7
 10
166.1656
 20
40.6273
 42
0.1737047371
  0
VERTEX
  8
LAYER_7
 10
166.0308
 20
41.0346
 42
0.1517050813
  0
VERTEX
  8
LAYER_7
 10
165.6097
 20
41.2941
 42
0.06879756253
  0
VERTEX
  8
LAYER_7
 10
165.0552
 20
41.3649
 42
0.0634356619
  0
VERTEX
  8
LAYER_7
 10
164.4823
 20
41.3257
  0
SEQEND
  0
ENDBLK
  0
BLOCK
  8
LAYER_7
  2
AIGNBL0704000B
 70
64
 10
0
 20
0
 30
0
  3
AIGNBL0704000B
  0
POLYLINE
  8
LAYER_7
 40
0.05
 41
0.05
 66
1
 10
0
 20
0
 30
0
 70
1
  0
VERTEX
  8
LAYER_7
 10
168.3246
 20
41.4207
 42
-0.2767461975
  0
VERTEX
  8
LAYER_7
 10
168.1851
 20
41.1806
 42
-0.1265294091
  0
VERTEX
  8
LAYER_7
 10
167.9329
 20
41.1189
 42
-0.2237518698
  0
VERTEX
  8
LAYER_7
 10
167.6226
 20
41.2513
 42
-0.1708341408
  0
VERTEX
  8
LAYER_7
 10
167.5626
 20
41.4207
 42
-0.2643879937
  0
VERTEX
  8
LAYER_7
 10
167.712
 20
41.6678
 42
-0.1290073663
  0
VERTEX
  8
LAYER_7
 10
167.9467
 20
41.7277
 42
-0.225342086
  0
VERTEX
  8
LAYER_7
 10
168.2635
 20
41.597
 42
-0.1691136206
  0
SEQEND
  0
POLYLINE
  8
LAYER_7
 40
0.05
 41
0.05
 66
1
 10
0
 20
0
 30
0
 70
1
  0
VERTEX
  8
LAYER_7
 10
167.639
 20
37.9567
  0
VERTEX
  8
LAYER_7
 10
167.639
 20
40.6607
  0
VERTEX
  8
LAYER_7
 10
168.2537
 20
40.6607
  0
VERTEX
  8
LAYER_7
 10
168.2537
 20
37.9567
  0
SEQEND
  0
ENDBLK
  0
BLOCK
  8
LAYER_7
  2
AIGNBL0704000C
 70
64
 10
0
 20
0
 30
0
  3
AIGNBL0704000C
  0
POLYLINE
  8
LAYER_7
 40
0.05
 41
0.05
 66
1
 10
0
 20
0
 30
0
 70
1
  0
VERTEX
  8
LAYER_7
 10
170.1254
 20
39.1418
  0
VERTEX
  8
LAYER_7
 10
169.6372
 20
37.9567
  0
VERTEX
  8
LAYER_7
 10
169.0081
 20
37.9567
  0
VERTEX
  8
LAYER_7
 10
170.6077
 20
41.7225
  0
VERTEX
  8
LAYER_7
 10
171.3415
 20
41.7225
  0
VERTEX
  8
LAYER_7
 10
172.9479
 20
37.9567
  0
VERTEX
  8
LAYER_7
 10
172.2982
 20
37.9567
  0
VERTEX
  8
LAYER_7
 10
171.7955
 20
39.1418
  0
SEQEND
  0
POLYLINE
  8
LAYER_7
 40
0.05
 41
0.05
 66
1
 10
0
 20
0
 30
0
 70
1
  0
VERTEX
  8
LAYER_7
 10
171.6695
 20
39.5207
  0
VERTEX
  8
LAYER_7
 10
171.2085
 20
40.6056
  0
VERTEX
  8
LAYER_7
 10
170.9646
 20
41.2926
  0
VERTEX
  8
LAYER_7
 10
170.9498
 20
41.2926
  0
VERTEX
  8
LAYER_7
 10
170.7128
 20
40.6101
  0
VERTEX
  8
LAYER_7
 10
170.2518
 20
39.5207
  0
SEQEND
  0
ENDBLK
  0
BLOCK
  8
LAYER_7
  2
AIGNBL07030005
 70
64
 10
0
 20
0
 30
0
  3
AIGNBL07030005
  0
INSERT
  8
LAYER_7
  2
AIGNBL07040006
 10
0
 20
0
 30
0
  0
INSERT
  8
LAYER_7
  2
AIGNBL07040007
 10
0
 20
0
 30
0
  0
INSERT
  8
LAYER_7
  2
AIGNBL07040008
 10
0
 20
0
 30
0
  0
INSERT
  8
LAYER_7
  2
AIGNBL07040009
 10
0
 20
0
 30
0
  0
INSERT
  8
LAYER_7
  2
AIGNBL0704000A
 10
0
 20
0
 30
0
  0
INSERT
  8
LAYER_7
  2
AIGNBL0704000B
 10
0
 20
0
 30
0
  0
INSERT
  8
LAYER_7
  2
AIGNBL0704000C
 10
0
 20
0
 30
0
  0
ENDBLK
  0
BLOCK
  8
LAYER_7
  2
AIGNBL0703000E
 70
64
 10
0
 20
0
 30
0
  3
AIGNBL0703000E
  0
POLYLINE
  8
LAYER_7
 40
0.05
 41
0.05
 66
1
 10
0
 20
0
 30
0
 70
1
  0
VERTEX
  8
LAYER_7
 10
145.7475
 20
36.0574
  0
VERTEX
  8
LAYER_7
 10
146.3008
 20
36.0574
  0
VERTEX
  8
LAYER_7
 10
146.3008
 20
35.9637
  0
VERTEX
  8
LAYER_7
 10
145.6424
 20
35.9637
  0
VERTEX
  8
LAYER_7
 10
145.6424
 20
36.9969
  0
VERTEX
  8
LAYER_7
 10
146.2832
 20
36.9969
  0
VERTEX
  8
LAYER_7
 10
146.2832
 20
36.9035
  0
VERTEX
  8
LAYER_7
 10
145.7475
 20
36.9035
  0
VERTEX
  8
LAYER_7
 10
145.7475
 20
36.549
  0
VERTEX
  8
LAYER_7
 10
146.2481
 20
36.549
  0
VERTEX
  8
LAYER_7
 10
146.2481
 20
36.4557
  0
VERTEX
  8
LAYER_7
 10
145.7475
 20
36.4557
  0
SEQEND
  0
ENDBLK
  0
BLOCK
  8
LAYER_7
  2
AIGNBL0703000F
 70
64
 10
0
 20
0
 30
0
  3
AIGNBL0703000F
  0
POLYLINE
  8
LAYER_7
 40
0.05
 41
0.05
 66
1
 10
0
 20
0
 30
0
 70
1
  0
VERTEX
  8
LAYER_7
 10
147.4404
 20
36.117
  0
VERTEX
  8
LAYER_7
 10
147.4432
 20
36.117
  0
VERTEX
  8
LAYER_7
 10
147.4432
 20
36.9969
  0
VERTEX
  8
LAYER_7
 10
147.5483
 20
36.9969
  0
VERTEX
  8
LAYER_7
 10
147.5483
 20
35.9637
  0
VERTEX
  8
LAYER_7
 10
147.4174
 20
35.9637
  0
VERTEX
  8
LAYER_7
 10
146.8162
 20
36.8525
  0
VERTEX
  8
LAYER_7
 10
146.8127
 20
36.8525
  0
VERTEX
  8
LAYER_7
 10
146.8127
 20
35.9637
  0
VERTEX
  8
LAYER_7
 10
146.708
 20
35.9637
  0
VERTEX
  8
LAYER_7
 10
146.708
 20
36.9969
  0
VERTEX
  8
LAYER_7
 10
146.8393
 20
36.9969
  0
SEQEND
  0
ENDBLK
  0
BLOCK
  8
LAYER_7
  2
AIGNBL07030010
 70
64
 10
0
 20
0
 30
0
  3
AIGNBL07030010
  0
POLYLINE
  8
LAYER_7
 40
0.05
 41
0.05
 66
1
 10
0
 20
0
 30
0
 70
1
  0
VERTEX
  8
LAYER_7
 10
148.0213
 20
36.1756
  0
VERTEX
  8
LAYER_7
 10
148.0757
 20
36.0725
 42
0.1803975231
  0
VERTEX
  8
LAYER_7
 10
148.1891
 20
36.0309
  0
VERTEX
  8
LAYER_7
 10
148.2783
 20
36.0505
  0
VERTEX
  8
LAYER_7
 10
148.3344
 20
36.1039
  0
VERTEX
  8
LAYER_7
 10
148.3634
 20
36.1804
  0
VERTEX
  8
LAYER_7
 10
148.3717
 20
36.27
  0
VERTEX
  8
LAYER_7
 10
148.3717
 20
36.9969
  0
VERTEX
  8
LAYER_7
 10
148.4767
 20
36.9969
  0
VERTEX
  8
LAYER_7
 10
148.4767
 20
36.2614
  0
VERTEX
  8
LAYER_7
 10
148.4654
 20
36.1535
  0
VERTEX
  8
LAYER_7
 10
148.424
 20
36.0485
  0
VERTEX
  8
LAYER_7
 10
148.3393
 20
35.9689
  0
VERTEX
  8
LAYER_7
 10
148.2004
 20
35.9375
 42
-0.1845231376
  0
VERTEX
  8
LAYER_7
 10
148.0158
 20
35.9974
 42
-0.1765285731
  0
VERTEX
  8
LAYER_7
 10
147.9234
 20
36.149
  0
SEQEND
  0
ENDBLK
  0
BLOCK
  8
LAYER_7
  2
AIGNBL07030011
 70
64
 10
0
 20
0
 30
0
  3
AIGNBL07030011
  0
POLYLINE
  8
LAYER_7
 40
0.05
 41
0.05
 66
1
 10
0
 20
0
 30
0
 70
1
  0
VERTEX
  8
LAYER_7
 10
149.965
 20
36.4805
 42
-0.1041417444
  0
VERTEX
  8
LAYER_7
 10
149.924
 20
36.2631
 42
-0.10057123
  0
VERTEX
  8
LAYER_7
 10
149.8113
 20
36.0915
  0
VERTEX
  8
LAYER_7
 10
149.6405
 20
35.9785
 42
-0.0950295922
  0
VERTEX
  8
LAYER_7
 10
149.4265
 20
35.9375
 42
-0.1010765979
  0
VERTEX
  8
LAYER_7
 10
149.2129
 20
35.9785
 42
-0.1000570207
  0
VERTEX
  8
LAYER_7
 10
149.042
 20
36.0915
 42
-0.09442769366
  0
VERTEX
  8
LAYER_7
 10
148.9287
 20
36.2631
 42
-0.09293305267
  0
VERTEX
  8
LAYER_7
 10
148.8881
 20
36.4805
 42
-0.1024980643
  0
VERTEX
  8
LAYER_7
 10
148.9287
 20
36.6978
 42
-0.1008832254
  0
VERTEX
  8
LAYER_7
 10
149.042
 20
36.8694
 42
-0.09625117665
  0
VERTEX
  8
LAYER_7
 10
149.2129
 20
36.9824
 42
-0.0952064105
  0
VERTEX
  8
LAYER_7
 10
149.4265
 20
37.0234
 42
-0.1012184087
  0
VERTEX
  8
LAYER_7
 10
149.6405
 20
36.9824
 42
-0.09890806396
  0
VERTEX
  8
LAYER_7
 10
149.8113
 20
36.8694
 42
-0.09577200427
  0
VERTEX
  8
LAYER_7
 10
149.924
 20
36.6978
 42
-0.09400765476
  0
SEQEND
  0
POLYLINE
  8
LAYER_7
 40
0.05
 41
0.05
 66
1
 10
0
 20
0
 30
0
 70
1
  0
VERTEX
  8
LAYER_7
 10
149.8541
 20
36.4798
  0
VERTEX
  8
LAYER_7
 10
149.8251
 20
36.6517
  0
VERTEX
  8
LAYER_7
 10
149.7404
 20
36.795
  0
VERTEX
  8
LAYER_7
 10
149.6053
 20
36.8932
  0
VERTEX
  8
LAYER_7
 10
149.4265
 20
36.93
  0
VERTEX
  8
LAYER_7
 10
149.2478
 20
36.8932
  0
VERTEX
  8
LAYER_7
 10
149.113
 20
36.795
  0
VERTEX
  8
LAYER_7
 10
149.0283
 20
36.6517
  0
VERTEX
  8
LAYER_7
 10
148.999
 20
36.4798
  0
VERTEX
  8
LAYER_7
 10
149.0283
 20
36.3079
  0
VERTEX
  8
LAYER_7
 10
149.113
 20
36.1649
  0
VERTEX
  8
LAYER_7
 10
149.2478
 20
36.0674
 42
0.1008814383
  0
VERTEX
  8
LAYER_7
 10
149.4265
 20
36.0309
 42
0.1157330551
  0
VERTEX
  8
LAYER_7
 10
149.6053
 20
36.0674
  0
VERTEX
  8
LAYER_7
 10
149.7404
 20
36.1649
  0
VERTEX
  8
LAYER_7
 10
149.8251
 20
36.3079
  0
SEQEND
  0
ENDBLK
  0
BLOCK
  8
LAYER_7
  2
AIGNBL07030012
 70
64
 10
0
 20
0
 30
0
  3
AIGNBL07030012
  0
POLYLINE
  8
LAYER_7
 40
0.05
 41
0.05
 66
1
 10
0
 20
0
 30
0
 70
1
  0
VERTEX
  8
LAYER_7
 10
150.7398
 20
35.9637
  0
VERTEX
  8
LAYER_7
 10
150.6351
 20
35.9637
  0
VERTEX
  8
LAYER_7
 10
150.6351
 20
36.4091
  0
VERTEX
  8
LAYER_7
 10
150.2482
 20
36.9969
  0
VERTEX
  8
LAYER_7
 10
150.3795
 20
36.9969
  0
VERTEX
  8
LAYER_7
 10
150.6905
 20
36.4967
  0
VERTEX
  8
LAYER_7
 10
151.0041
 20
36.9969
  0
VERTEX
  8
LAYER_7
 10
151.1263
 20
36.9969
  0
VERTEX
  8
LAYER_7
 10
150.7398
 20
36.4091
  0
SEQEND
  0
ENDBLK
  0
BLOCK
  8
LAYER_7
  2
AIGNBL07030013
 70
64
 10
0
 20
0
 30
0
  3
AIGNBL07030013
  0
POLYLINE
  8
LAYER_7
 40
0.05
 41
0.05
 66
1
 10
0
 20
0
 30
0
 70
1
  0
VERTEX
  8
LAYER_7
 10
152.0314
 20
36.9969
  0
VERTEX
  8
LAYER_7
 10
152.339
 20
36.9969
  0
VERTEX
  8
LAYER_7
 10
152.4575
 20
36.9845
  0
VERTEX
  8
LAYER_7
 10
152.5643
 20
36.9421
  0
VERTEX
  8
LAYER_7
 10
152.6422
 20
36.8611
  0
VERTEX
  8
LAYER_7
 10
152.6718
 20
36.733
 42
-0.1790346201
  0
VERTEX
  8
LAYER_7
 10
152.6219
 20
36.5907
 42
-0.1642933266
  0
VERTEX
  8
LAYER_7
 10
152.4885
 20
36.5111
  0
VERTEX
  8
LAYER_7
 10
152.4885
 20
36.5084
 42
-0.1735805246
  0
VERTEX
  8
LAYER_7
 10
152.6553
 20
36.4302
 42
-0.1921994171
  0
VERTEX
  8
LAYER_7
 10
152.7214
 20
36.2496
  0
VERTEX
  8
LAYER_7
 10
152.6942
 20
36.1325
  0
VERTEX
  8
LAYER_7
 10
152.6181
 20
36.0419
  0
VERTEX
  8
LAYER_7
 10
152.4972
 20
35.9844
  0
VERTEX
  8
LAYER_7
 10
152.3373
 20
35.9637
  0
VERTEX
  8
LAYER_7
 10
152.0314
 20
35.9637
  0
SEQEND
  0
POLYLINE
  8
LAYER_7
 40
0.05
 41
0.05
 66
1
 10
0
 20
0
 30
0
 70
1
  0
VERTEX
  8
LAYER_7
 10
152.1364
 20
36.5445
  0
VERTEX
  8
LAYER_7
 10
152.348
 20
36.5445
  0
VERTEX
  8
LAYER_7
 10
152.4248
 20
36.5535
  0
VERTEX
  8
LAYER_7
 10
152.4951
 20
36.5831
  0
VERTEX
  8
LAYER_7
 10
152.5471
 20
36.6396
  0
VERTEX
  8
LAYER_7
 10
152.5668
 20
36.7258
  0
VERTEX
  8
LAYER_7
 10
152.5471
 20
36.8095
  0
VERTEX
  8
LAYER_7
 10
152.494
 20
36.8656
  0
VERTEX
  8
LAYER_7
 10
152.4152
 20
36.897
  0
VERTEX
  8
LAYER_7
 10
152.3187
 20
36.9066
  0
VERTEX
  8
LAYER_7
 10
152.1364
 20
36.9066
  0
SEQEND
  0
POLYLINE
  8
LAYER_7
 40
0.05
 41
0.05
 66
1
 10
0
 20
0
 30
0
 70
1
  0
VERTEX
  8
LAYER_7
 10
152.1364
 20
36.0543
  0
VERTEX
  8
LAYER_7
 10
152.3321
 20
36.0543
  0
VERTEX
  8
LAYER_7
 10
152.4406
 20
36.0653
  0
VERTEX
  8
LAYER_7
 10
152.5313
 20
36.1001
  0
VERTEX
  8
LAYER_7
 10
152.5929
 20
36.1632
  0
VERTEX
  8
LAYER_7
 10
152.6164
 20
36.2559
 42
0.2557371221
  0
VERTEX
  8
LAYER_7
 10
152.5471
 20
36.4081
 42
0.1381508151
  0
VERTEX
  8
LAYER_7
 10
152.3511
 20
36.4584
  0
VERTEX
  8
LAYER_7
 10
152.1364
 20
36.4584
  0
SEQEND
  0
ENDBLK
  0
BLOCK
  8
LAYER_7
  2
AIGNBL07030014
 70
64
 10
0
 20
0
 30
0
  3
AIGNBL07030014
  0
POLYLINE
  8
LAYER_7
 40
0.05
 41
0.05
 66
1
 10
0
 20
0
 30
0
 70
1
  0
VERTEX
  8
LAYER_7
 10
153.1534
 20
35.9637
  0
VERTEX
  8
LAYER_7
 10
153.038
 20
35.9637
  0
VERTEX
  8
LAYER_7
 10
153.4849
 20
36.9969
  0
VERTEX
  8
LAYER_7
 10
153.5872
 20
36.9969
  0
VERTEX
  8
LAYER_7
 10
154.0306
 20
35.9637
  0
VERTEX
  8
LAYER_7
 10
153.9138
 20
35.9637
  0
VERTEX
  8
LAYER_7
 10
153.7997
 20
36.2352
  0
VERTEX
  8
LAYER_7
 10
153.2657
 20
36.2352
  0
SEQEND
  0
POLYLINE
  8
LAYER_7
 40
0.05
 41
0.05
 66
1
 10
0
 20
0
 30
0
 70
1
  0
VERTEX
  8
LAYER_7
 10
153.305
 20
36.3316
  0
VERTEX
  8
LAYER_7
 10
153.7604
 20
36.3316
  0
VERTEX
  8
LAYER_7
 10
153.5327
 20
36.8804
  0
SEQEND
  0
ENDBLK
  0
BLOCK
  8
LAYER_7
  2
AIGNBL07030015
 70
64
 10
0
 20
0
 30
0
  3
AIGNBL07030015
  0
POLYLINE
  8
LAYER_7
 40
0.05
 41
0.05
 66
1
 10
0
 20
0
 30
0
 70
1
  0
VERTEX
  8
LAYER_7
 10
154.7151
 20
35.9637
  0
VERTEX
  8
LAYER_7
 10
154.61
 20
35.9637
  0
VERTEX
  8
LAYER_7
 10
154.61
 20
36.9035
  0
VERTEX
  8
LAYER_7
 10
154.2638
 20
36.9035
  0
VERTEX
  8
LAYER_7
 10
154.2638
 20
36.9969
  0
VERTEX
  8
LAYER_7
 10
155.0606
 20
36.9969
  0
VERTEX
  8
LAYER_7
 10
155.0606
 20
36.9035
  0
VERTEX
  8
LAYER_7
 10
154.7151
 20
36.9035
  0
SEQEND
  0
ENDBLK
  0
BLOCK
  8
LAYER_7
  2
AIGNBL07030016
 70
64
 10
0
 20
0
 30
0
  3
AIGNBL07030016
  0
POLYLINE
  8
LAYER_7
 40
0.05
 41
0.05
 66
1
 10
0
 20
0
 30
0
 70
1
  0
VERTEX
  8
LAYER_7
 10
155.4169
 20
36.9969
  0
VERTEX
  8
LAYER_7
 10
155.5216
 20
36.9969
  0
VERTEX
  8
LAYER_7
 10
155.5216
 20
36.549
  0
VERTEX
  8
LAYER_7
 10
156.0852
 20
36.549
  0
VERTEX
  8
LAYER_7
 10
156.0852
 20
36.9969
  0
VERTEX
  8
LAYER_7
 10
156.1903
 20
36.9969
  0
VERTEX
  8
LAYER_7
 10
156.1903
 20
35.9637
  0
VERTEX
  8
LAYER_7
 10
156.0852
 20
35.9637
  0
VERTEX
  8
LAYER_7
 10
156.0852
 20
36.4529
  0
VERTEX
  8
LAYER_7
 10
155.5216
 20
36.4529
  0
VERTEX
  8
LAYER_7
 10
155.5216
 20
35.9637
  0
VERTEX
  8
LAYER_7
 10
155.4169
 20
35.9637
  0
SEQEND
  0
ENDBLK
  0
BLOCK
  8
LAYER_7
  2
AIGNBL07030017
 70
64
 10
0
 20
0
 30
0
  3
AIGNBL07030017
  0
POLYLINE
  8
LAYER_7
 40
0.05
 41
0.05
 66
1
 10
0
 20
0
 30
0
 70
1
  0
VERTEX
  8
LAYER_7
 10
156.7708
 20
35.9637
  0
VERTEX
  8
LAYER_7
 10
156.6657
 20
35.9637
  0
VERTEX
  8
LAYER_7
 10
156.6657
 20
36.9969
  0
VERTEX
  8
LAYER_7
 10
156.9696
 20
36.9969
  0
VERTEX
  8
LAYER_7
 10
157.1101
 20
36.9824
  0
VERTEX
  8
LAYER_7
 10
157.2228
 20
36.9349
  0
VERTEX
  8
LAYER_7
 10
157.2962
 20
36.8494
  0
VERTEX
  8
LAYER_7
 10
157.3223
 20
36.7213
  0
VERTEX
  8
LAYER_7
 10
157.3024
 20
36.6176
  0
VERTEX
  8
LAYER_7
 10
157.2469
 20
36.5366
  0
VERTEX
  8
LAYER_7
 10
157.1635
 20
36.4818
  0
VERTEX
  8
LAYER_7
 10
157.0585
 20
36.4557
  0
VERTEX
  8
LAYER_7
 10
157.3606
 20
35.9637
  0
VERTEX
  8
LAYER_7
 10
157.2321
 20
35.9637
  0
VERTEX
  8
LAYER_7
 10
156.9461
 20
36.4467
  0
VERTEX
  8
LAYER_7
 10
156.7708
 20
36.4467
  0
SEQEND
  0
POLYLINE
  8
LAYER_7
 40
0.05
 41
0.05
 66
1
 10
0
 20
0
 30
0
 70
1
  0
VERTEX
  8
LAYER_7
 10
156.7708
 20
36.5373
  0
VERTEX
  8
LAYER_7
 10
156.9534
 20
36.5373
 42
0.165389034
  0
VERTEX
  8
LAYER_7
 10
157.1491
 20
36.5831
 42
0.2500512188
  0
VERTEX
  8
LAYER_7
 10
157.2176
 20
36.7213
  0
VERTEX
  8
LAYER_7
 10
157.1983
 20
36.8071
  0
VERTEX
  8
LAYER_7
 10
157.146
 20
36.8643
  0
VERTEX
  8
LAYER_7
 10
157.0643
 20
36.8963
  0
VERTEX
  8
LAYER_7
 10
156.9578
 20
36.9066
  0
VERTEX
  8
LAYER_7
 10
156.7708
 20
36.9066
  0
SEQEND
  0
ENDBLK
  0
BLOCK
  8
LAYER_7
  2
AIGNBL07030018
 70
64
 10
0
 20
0
 30
0
  3
AIGNBL07030018
  0
POLYLINE
  8
LAYER_7
 40
0.05
 41
0.05
 66
1
 10
0
 20
0
 30
0
 70
1
  0
VERTEX
  8
LAYER_7
 10
158.7627
 20
36.4805
 42
-0.1007216321
  0
VERTEX
  8
LAYER_7
 10
158.7221
 20
36.2631
 42
-0.1006914115
  0
VERTEX
  8
LAYER_7
 10
158.6087
 20
36.0915
 42
-0.09598545762
  0
VERTEX
  8
LAYER_7
 10
158.4382
 20
35.9785
 42
-0.09506675375
  0
VERTEX
  8
LAYER_7
 10
158.2243
 20
35.9375
 42
-0.1012083438
  0
VERTEX
  8
LAYER_7
 10
158.0103
 20
35.9785
 42
-0.1000476754
  0
VERTEX
  8
LAYER_7
 10
157.8398
 20
36.0915
 42
-0.09637642458
  0
VERTEX
  8
LAYER_7
 10
157.7268
 20
36.2631
 42
-0.09293305267
  0
VERTEX
  8
LAYER_7
 10
157.6862
 20
36.4805
 42
-0.1024980643
  0
VERTEX
  8
LAYER_7
 10
157.7268
 20
36.6978
 42
-0.101511181
  0
VERTEX
  8
LAYER_7
 10
157.8398
 20
36.8694
 42
-0.09563682649
  0
VERTEX
  8
LAYER_7
 10
158.0103
 20
36.9824
 42
-0.09502028874
  0
VERTEX
  8
LAYER_7
 10
158.2243
 20
37.0234
 42
-0.101175466
  0
VERTEX
  8
LAYER_7
 10
158.4382
 20
36.9824
 42
-0.1020868526
  0
VERTEX
  8
LAYER_7
 10
158.6087
 20
36.8694
 42
-0.09463764759
  0
VERTEX
  8
LAYER_7
 10
158.7221
 20
36.6978
 42
-0.09279149058
  0
SEQEND
  0
POLYLINE
  8
LAYER_7
 40
0.05
 41
0.05
 66
1
 10
0
 20
0
 30
0
 70
1
  0
VERTEX
  8
LAYER_7
 10
158.6518
 20
36.4798
  0
VERTEX
  8
LAYER_7
 10
158.6225
 20
36.6517
  0
VERTEX
  8
LAYER_7
 10
158.5378
 20
36.795
  0
VERTEX
  8
LAYER_7
 10
158.4031
 20
36.8932
  0
VERTEX
  8
LAYER_7
 10
158.2243
 20
36.93
  0
VERTEX
  8
LAYER_7
 10
158.0455
 20
36.8932
  0
VERTEX
  8
LAYER_7
 10
157.9104
 20
36.795
  0
VERTEX
  8
LAYER_7
 10
157.8257
 20
36.6517
  0
VERTEX
  8
LAYER_7
 10
157.7968
 20
36.4798
  0
VERTEX
  8
LAYER_7
 10
157.8257
 20
36.3079
  0
VERTEX
  8
LAYER_7
 10
157.9104
 20
36.1649
  0
VERTEX
  8
LAYER_7
 10
158.0455
 20
36.0674
 42
0.1008280473
  0
VERTEX
  8
LAYER_7
 10
158.2243
 20
36.0309
  0
VERTEX
  8
LAYER_7
 10
158.4031
 20
36.0674
  0
VERTEX
  8
LAYER_7
 10
158.5378
 20
36.1649
  0
VERTEX
  8
LAYER_7
 10
158.6225
 20
36.3079
  0
SEQEND
  0
ENDBLK
  0
BLOCK
  8
LAYER_7
  2
AIGNBL07030019
 70
64
 10
0
 20
0
 30
0
  3
AIGNBL07030019
  0
POLYLINE
  8
LAYER_7
 40
0.05
 41
0.05
 66
1
 10
0
 20
0
 30
0
 70
1
  0
VERTEX
  8
LAYER_7
 10
160.2045
 20
36.4805
 42
-0.1041417444
  0
VERTEX
  8
LAYER_7
 10
160.1635
 20
36.2631
 42
-0.09974098701
  0
VERTEX
  8
LAYER_7
 10
160.0509
 20
36.0915
 42
-0.09536265516
  0
VERTEX
  8
LAYER_7
 10
159.88
 20
35.9785
 42
-0.09506675375
  0
VERTEX
  8
LAYER_7
 10
159.6661
 20
35.9375
 42
-0.1018653774
  0
VERTEX
  8
LAYER_7
 10
159.4524
 20
35.9785
 42
-0.1019766254
  0
VERTEX
  8
LAYER_7
 10
159.2816
 20
36.0915
 42
-0.09463339148
  0
VERTEX
  8
LAYER_7
 10
159.1682
 20
36.2631
 42
-0.09293305267
  0
VERTEX
  8
LAYER_7
 10
159.1276
 20
36.4805
 42
-0.1024980643
  0
VERTEX
  8
LAYER_7
 10
159.1682
 20
36.6978
 42
-0.1011981835
  0
VERTEX
  8
LAYER_7
 10
159.2816
 20
36.8694
 42
-0.09612009159
  0
VERTEX
  8
LAYER_7
 10
159.4524
 20
36.9824
 42
-0.09524800311
  0
VERTEX
  8
LAYER_7
 10
159.6661
 20
37.0234
 42
-0.101175466
  0
VERTEX
  8
LAYER_7
 10
159.88
 20
36.9824
 42
-0.09853409661
  0
VERTEX
  8
LAYER_7
 10
160.0509
 20
36.8694
 42
-0.09555545285
  0
VERTEX
  8
LAYER_7
 10
160.1635
 20
36.6978
 42
-0.09400765476
  0
SEQEND
  0
POLYLINE
  8
LAYER_7
 40
0.05
 41
0.05
 66
1
 10
0
 20
0
 30
0
 70
1
  0
VERTEX
  8
LAYER_7
 10
160.0936
 20
36.4798
  0
VERTEX
  8
LAYER_7
 10
160.0647
 20
36.6517
  0
VERTEX
  8
LAYER_7
 10
159.9799
 20
36.795
  0
VERTEX
  8
LAYER_7
 10
159.8448
 20
36.8932
  0
VERTEX
  8
LAYER_7
 10
159.6661
 20
36.93
  0
VERTEX
  8
LAYER_7
 10
159.4872
 20
36.8932
  0
VERTEX
  8
LAYER_7
 10
159.3525
 20
36.795
  0
VERTEX
  8
LAYER_7
 10
159.2678
 20
36.6517
  0
VERTEX
  8
LAYER_7
 10
159.2385
 20
36.4798
  0
VERTEX
  8
LAYER_7
 10
159.2678
 20
36.3079
  0
VERTEX
  8
LAYER_7
 10
159.3525
 20
36.1649
  0
VERTEX
  8
LAYER_7
 10
159.4872
 20
36.0674
  0
VERTEX
  8
LAYER_7
 10
159.6661
 20
36.0309
  0
VERTEX
  8
LAYER_7
 10
159.8448
 20
36.0674
  0
VERTEX
  8
LAYER_7
 10
159.9799
 20
36.1649
  0
VERTEX
  8
LAYER_7
 10
160.0647
 20
36.3079
  0
SEQEND
  0
ENDBLK
  0
BLOCK
  8
LAYER_7
  2
AIGNBL0703001A
 70
64
 10
0
 20
0
 30
0
  3
AIGNBL0703001A
  0
POLYLINE
  8
LAYER_7
 40
0.05
 41
0.05
 66
1
 10
0
 20
0
 30
0
 70
1
  0
VERTEX
  8
LAYER_7
 10
161.1354
 20
36.1418
  0
VERTEX
  8
LAYER_7
 10
161.1371
 20
36.1418
  0
VERTEX
  8
LAYER_7
 10
161.4826
 20
36.9969
  0
VERTEX
  8
LAYER_7
 10
161.6435
 20
36.9969
  0
VERTEX
  8
LAYER_7
 10
161.6435
 20
35.9637
  0
VERTEX
  8
LAYER_7
 10
161.5381
 20
35.9637
  0
VERTEX
  8
LAYER_7
 10
161.5381
 20
36.8611
  0
VERTEX
  8
LAYER_7
 10
161.5354
 20
36.8611
  0
VERTEX
  8
LAYER_7
 10
161.1619
 20
35.9637
  0
VERTEX
  8
LAYER_7
 10
161.1064
 20
35.9637
  0
VERTEX
  8
LAYER_7
 10
160.7326
 20
36.8611
  0
VERTEX
  8
LAYER_7
 10
160.7299
 20
36.8611
  0
VERTEX
  8
LAYER_7
 10
160.7299
 20
35.9637
  0
VERTEX
  8
LAYER_7
 10
160.6248
 20
35.9637
  0
VERTEX
  8
LAYER_7
 10
160.6248
 20
36.9969
  0
VERTEX
  8
LAYER_7
 10
160.7853
 20
36.9969
  0
SEQEND
  0
ENDBLK
  0
BLOCK
  8
LAYER_7
  2
AIGNBL0703001B
 70
64
 10
0
 20
0
 30
0
  3
AIGNBL0703001B
  0
POLYLINE
  8
LAYER_7
 40
0.05
 41
0.05
 66
1
 10
0
 20
0
 30
0
 70
1
  0
VERTEX
  8
LAYER_7
 10
162.79
 20
36.0574
  0
VERTEX
  8
LAYER_7
 10
163.3433
 20
36.0574
  0
VERTEX
  8
LAYER_7
 10
163.3433
 20
35.9637
  0
VERTEX
  8
LAYER_7
 10
162.685
 20
35.9637
  0
VERTEX
  8
LAYER_7
 10
162.685
 20
36.9969
  0
VERTEX
  8
LAYER_7
 10
163.3258
 20
36.9969
  0
VERTEX
  8
LAYER_7
 10
163.3258
 20
36.9035
  0
VERTEX
  8
LAYER_7
 10
162.79
 20
36.9035
  0
VERTEX
  8
LAYER_7
 10
162.79
 20
36.549
  0
VERTEX
  8
LAYER_7
 10
163.2906
 20
36.549
  0
VERTEX
  8
LAYER_7
 10
163.2906
 20
36.4557
  0
VERTEX
  8
LAYER_7
 10
162.79
 20
36.4557
  0
SEQEND
  0
ENDBLK
  0
BLOCK
  8
LAYER_7
  2
AIGNBL0703001C
 70
64
 10
0
 20
0
 30
0
  3
AIGNBL0703001C
  0
POLYLINE
  8
LAYER_7
 40
0.05
 41
0.05
 66
1
 10
0
 20
0
 30
0
 70
1
  0
VERTEX
  8
LAYER_7
 10
164.0885
 20
36.5797
  0
VERTEX
  8
LAYER_7
 10
164.3707
 20
36.9969
  0
VERTEX
  8
LAYER_7
 10
164.4957
 20
36.9969
  0
VERTEX
  8
LAYER_7
 10
164.1533
 20
36.5053
  0
VERTEX
  8
LAYER_7
 10
164.5326
 20
35.9637
  0
VERTEX
  8
LAYER_7
 10
164.4013
 20
35.9637
  0
VERTEX
  8
LAYER_7
 10
164.0858
 20
36.4295
  0
VERTEX
  8
LAYER_7
 10
163.7722
 20
35.9637
  0
VERTEX
  8
LAYER_7
 10
163.6407
 20
35.9637
  0
VERTEX
  8
LAYER_7
 10
164.0203
 20
36.5066
  0
VERTEX
  8
LAYER_7
 10
163.6744
 20
36.9969
  0
VERTEX
  8
LAYER_7
 10
163.806
 20
36.9969
  0
SEQEND
  0
ENDBLK
  0
BLOCK
  8
LAYER_7
  2
AIGNBL0703001D
 70
64
 10
0
 20
0
 30
0
  3
AIGNBL0703001D
  0
POLYLINE
  8
LAYER_7
 40
0.05
 41
0.05
 66
1
 10
0
 20
0
 30
0
 70
1
  0
VERTEX
  8
LAYER_7
 10
164.8988
 20
36.9969
  0
VERTEX
  8
LAYER_7
 10
165.1909
 20
36.9969
  0
VERTEX
  8
LAYER_7
 10
165.3339
 20
36.9804
  0
VERTEX
  8
LAYER_7
 10
165.4438
 20
36.929
  0
VERTEX
  8
LAYER_7
 10
165.5148
 20
36.8429
  0
VERTEX
  8
LAYER_7
 10
165.5392
 20
36.7213
  0
VERTEX
  8
LAYER_7
 10
165.5141
 20
36.5993
  0
VERTEX
  8
LAYER_7
 10
165.4424
 20
36.5132
  0
VERTEX
  8
LAYER_7
 10
165.3315
 20
36.4615
  0
VERTEX
  8
LAYER_7
 10
165.1878
 20
36.444
  0
VERTEX
  8
LAYER_7
 10
165.0039
 20
36.444
  0
VERTEX
  8
LAYER_7
 10
165.0039
 20
35.9637
  0
VERTEX
  8
LAYER_7
 10
164.8988
 20
35.9637
  0
SEQEND
  0
POLYLINE
  8
LAYER_7
 40
0.05
 41
0.05
 66
1
 10
0
 20
0
 30
0
 70
1
  0
VERTEX
  8
LAYER_7
 10
165.0039
 20
36.5328
  0
VERTEX
  8
LAYER_7
 10
165.1816
 20
36.5328
 42
0.1829732243
  0
VERTEX
  8
LAYER_7
 10
165.3701
 20
36.581
 42
0.2345943979
  0
VERTEX
  8
LAYER_7
 10
165.4345
 20
36.7213
 42
0.26486771
  0
VERTEX
  8
LAYER_7
 10
165.368
 20
36.8622
 42
0.126412566
  0
VERTEX
  8
LAYER_7
 10
165.1816
 20
36.9066
  0
VERTEX
  8
LAYER_7
 10
165.0039
 20
36.9066
  0
SEQEND
  0
ENDBLK
  0
BLOCK
  8
LAYER_7
  2
AIGNBL0703001E
 70
64
 10
0
 20
0
 30
0
  3
AIGNBL0703001E
  0
POLYLINE
  8
LAYER_7
 40
0.05
 41
0.05
 66
1
 10
0
 20
0
 30
0
 70
1
  0
VERTEX
  8
LAYER_7
 10
166.0515
 20
36.0574
  0
VERTEX
  8
LAYER_7
 10
166.6048
 20
36.0574
  0
VERTEX
  8
LAYER_7
 10
166.6048
 20
35.9637
  0
VERTEX
  8
LAYER_7
 10
165.9465
 20
35.9637
  0
VERTEX
  8
LAYER_7
 10
165.9465
 20
36.9969
  0
VERTEX
  8
LAYER_7
 10
166.5872
 20
36.9969
  0
VERTEX
  8
LAYER_7
 10
166.5872
 20
36.9035
  0
VERTEX
  8
LAYER_7
 10
166.0515
 20
36.9035
  0
VERTEX
  8
LAYER_7
 10
166.0515
 20
36.549
  0
VERTEX
  8
LAYER_7
 10
166.5521
 20
36.549
  0
VERTEX
  8
LAYER_7
 10
166.5521
 20
36.4557
  0
VERTEX
  8
LAYER_7
 10
166.0515
 20
36.4557
  0
SEQEND
  0
ENDBLK
  0
BLOCK
  8
LAYER_7
  2
AIGNBL0703001F
 70
64
 10
0
 20
0
 30
0
  3
AIGNBL0703001F
  0
POLYLINE
  8
LAYER_7
 40
0.05
 41
0.05
 66
1
 10
0
 20
0
 30
0
 70
1
  0
VERTEX
  8
LAYER_7
 10
167.1168
 20
35.9637
  0
VERTEX
  8
LAYER_7
 10
167.0117
 20
35.9637
  0
VERTEX
  8
LAYER_7
 10
167.0117
 20
36.9969
  0
VERTEX
  8
LAYER_7
 10
167.3155
 20
36.9969
  0
VERTEX
  8
LAYER_7
 10
167.4561
 20
36.9824
  0
VERTEX
  8
LAYER_7
 10
167.5687
 20
36.9349
  0
VERTEX
  8
LAYER_7
 10
167.6425
 20
36.8494
  0
VERTEX
  8
LAYER_7
 10
167.6683
 20
36.7213
  0
VERTEX
  8
LAYER_7
 10
167.6483
 20
36.6176
  0
VERTEX
  8
LAYER_7
 10
167.5929
 20
36.5366
  0
VERTEX
  8
LAYER_7
 10
167.5095
 20
36.4818
  0
VERTEX
  8
LAYER_7
 10
167.4044
 20
36.4557
  0
VERTEX
  8
LAYER_7
 10
167.7066
 20
35.9637
  0
VERTEX
  8
LAYER_7
 10
167.578
 20
35.9637
  0
VERTEX
  8
LAYER_7
 10
167.2921
 20
36.4467
  0
VERTEX
  8
LAYER_7
 10
167.1168
 20
36.4467
  0
SEQEND
  0
POLYLINE
  8
LAYER_7
 40
0.05
 41
0.05
 66
1
 10
0
 20
0
 30
0
 70
1
  0
VERTEX
  8
LAYER_7
 10
167.1168
 20
36.5373
  0
VERTEX
  8
LAYER_7
 10
167.2994
 20
36.5373
 42
0.1667243505
  0
VERTEX
  8
LAYER_7
 10
167.495
 20
36.5831
 42
0.2503949893
  0
VERTEX
  8
LAYER_7
 10
167.5636
 20
36.7213
  0
VERTEX
  8
LAYER_7
 10
167.5446
 20
36.8071
  0
VERTEX
  8
LAYER_7
 10
167.4919
 20
36.8643
  0
VERTEX
  8
LAYER_7
 10
167.4103
 20
36.8963
  0
VERTEX
  8
LAYER_7
 10
167.3038
 20
36.9066
  0
VERTEX
  8
LAYER_7
 10
167.1168
 20
36.9066
  0
SEQEND
  0
ENDBLK
  0
BLOCK
  8
LAYER_7
  2
AIGNBL07030020
 70
64
 10
0
 20
0
 30
0
  3
AIGNBL07030020
  0
POLYLINE
  8
LAYER_7
 40
0.05
 41
0.05
 66
1
 10
0
 20
0
 30
0
 70
1
  0
VERTEX
  8
LAYER_7
 10
168.1923
 20
35.9637
  0
VERTEX
  8
LAYER_7
 10
168.0876
 20
35.9637
  0
VERTEX
  8
LAYER_7
 10
168.0876
 20
36.9969
  0
VERTEX
  8
LAYER_7
 10
168.1923
 20
36.9969
  0
SEQEND
  0
ENDBLK
  0
BLOCK
  8
LAYER_7
  2
AIGNBL07030021
 70
64
 10
0
 20
0
 30
0
  3
AIGNBL07030021
  0
POLYLINE
  8
LAYER_7
 40
0.05
 41
0.05
 66
1
 10
0
 20
0
 30
0
 70
1
  0
VERTEX
  8
LAYER_7
 10
168.7732
 20
36.0574
  0
VERTEX
  8
LAYER_7
 10
169.3261
 20
36.0574
  0
VERTEX
  8
LAYER_7
 10
169.3261
 20
35.9637
  0
VERTEX
  8
LAYER_7
 10
168.6681
 20
35.9637
  0
VERTEX
  8
LAYER_7
 10
168.6681
 20
36.9969
  0
VERTEX
  8
LAYER_7
 10
169.3089
 20
36.9969
  0
VERTEX
  8
LAYER_7
 10
169.3089
 20
36.9035
  0
VERTEX
  8
LAYER_7
 10
168.7732
 20
36.9035
  0
VERTEX
  8
LAYER_7
 10
168.7732
 20
36.549
  0
VERTEX
  8
LAYER_7
 10
169.2737
 20
36.549
  0
VERTEX
  8
LAYER_7
 10
169.2737
 20
36.4557
  0
VERTEX
  8
LAYER_7
 10
168.7732
 20
36.4557
  0
SEQEND
  0
ENDBLK
  0
BLOCK
  8
LAYER_7
  2
AIGNBL07030022
 70
64
 10
0
 20
0
 30
0
  3
AIGNBL07030022
  0
POLYLINE
  8
LAYER_7
 40
0.05
 41
0.05
 66
1
 10
0
 20
0
 30
0
 70
1
  0
VERTEX
  8
LAYER_7
 10
170.4661
 20
36.117
  0
VERTEX
  8
LAYER_7
 10
170.4689
 20
36.117
  0
VERTEX
  8
LAYER_7
 10
170.4689
 20
36.9969
  0
VERTEX
  8
LAYER_7
 10
170.5739
 20
36.9969
  0
VERTEX
  8
LAYER_7
 10
170.5739
 20
35.9637
  0
VERTEX
  8
LAYER_7
 10
170.4426
 20
35.9637
  0
VERTEX
  8
LAYER_7
 10
169.8415
 20
36.8525
  0
VERTEX
  8
LAYER_7
 10
169.8384
 20
36.8525
  0
VERTEX
  8
LAYER_7
 10
169.8384
 20
35.9637
  0
VERTEX
  8
LAYER_7
 10
169.7333
 20
35.9637
  0
VERTEX
  8
LAYER_7
 10
169.7333
 20
36.9969
  0
VERTEX
  8
LAYER_7
 10
169.8649
 20
36.9969
  0
SEQEND
  0
ENDBLK
  0
BLOCK
  8
LAYER_7
  2
AIGNBL07030023
 70
64
 10
0
 20
0
 30
0
  3
AIGNBL07030023
  0
POLYLINE
  8
LAYER_7
 40
0.05
 41
0.05
 66
1
 10
0
 20
0
 30
0
 70
1
  0
VERTEX
  8
LAYER_7
 10
171.9196
 20
36.1315
  0
VERTEX
  8
LAYER_7
 10
171.8558
 20
36.0571
  0
VERTEX
  8
LAYER_7
 10
171.7697
 20
35.9954
  0
VERTEX
  8
LAYER_7
 10
171.6615
 20
35.953
  0
VERTEX
  8
LAYER_7
 10
171.5327
 20
35.9375
 42
-0.1011939289
  0
VERTEX
  8
LAYER_7
 10
171.3167
 20
35.9785
 42
-0.1032846426
  0
VERTEX
  8
LAYER_7
 10
171.1461
 20
36.0915
 42
-0.0974858305
  0
VERTEX
  8
LAYER_7
 10
171.0345
 20
36.2631
 42
-0.09232404316
  0
VERTEX
  8
LAYER_7
 10
170.9942
 20
36.4805
 42
-0.1041003847
  0
VERTEX
  8
LAYER_7
 10
171.0352
 20
36.6978
 42
-0.1005616574
  0
VERTEX
  8
LAYER_7
 10
171.1479
 20
36.8694
 42
-0.09522588778
  0
VERTEX
  8
LAYER_7
 10
171.3187
 20
36.9824
 42
-0.09501991035
  0
VERTEX
  8
LAYER_7
 10
171.5327
 20
37.0234
  0
VERTEX
  8
LAYER_7
 10
171.6443
 20
37.0114
  0
VERTEX
  8
LAYER_7
 10
171.7473
 20
36.9779
  0
VERTEX
  8
LAYER_7
 10
171.8348
 20
36.9263
  0
VERTEX
  8
LAYER_7
 10
171.9006
 20
36.8584
  0
VERTEX
  8
LAYER_7
 10
171.8131
 20
36.794
  0
VERTEX
  8
LAYER_7
 10
171.7697
 20
36.8439
  0
VERTEX
  8
LAYER_7
 10
171.7063
 20
36.8877
  0
VERTEX
  8
LAYER_7
 10
171.6267
 20
36.9183
  0
VERTEX
  8
LAYER_7
 10
171.5341
 20
36.93
  0
VERTEX
  8
LAYER_7
 10
171.3539
 20
36.8935
  0
VERTEX
  8
LAYER_7
 10
171.2188
 20
36.7954
  0
VERTEX
  8
LAYER_7
 10
171.1341
 20
36.652
  0
VERTEX
  8
LAYER_7
 10
171.1052
 20
36.4805
  0
VERTEX
  8
LAYER_7
 10
171.1351
 20
36.3089
  0
VERTEX
  8
LAYER_7
 10
171.2205
 20
36.1656
  0
VERTEX
  8
LAYER_7
 10
171.3556
 20
36.0674
 42
0.100995487
  0
VERTEX
  8
LAYER_7
 10
171.5341
 20
36.0309
  0
VERTEX
  8
LAYER_7
 10
171.7032
 20
36.0674
 42
0.1321059012
  0
VERTEX
  8
LAYER_7
 10
171.8376
 20
36.1842
  0
SEQEND
  0
ENDBLK
  0
BLOCK
  8
LAYER_7
  2
AIGNBL07030024
 70
64
 10
0
 20
0
 30
0
  3
AIGNBL07030024
  0
POLYLINE
  8
LAYER_7
 40
0.05
 41
0.05
 66
1
 10
0
 20
0
 30
0
 70
1
  0
VERTEX
  8
LAYER_7
 10
172.4067
 20
36.0574
  0
VERTEX
  8
LAYER_7
 10
172.96
 20
36.0574
  0
VERTEX
  8
LAYER_7
 10
172.96
 20
35.9637
  0
VERTEX
  8
LAYER_7
 10
172.3016
 20
35.9637
  0
VERTEX
  8
LAYER_7
 10
172.3016
 20
36.9969
  0
VERTEX
  8
LAYER_7
 10
172.9424
 20
36.9969
  0
VERTEX
  8
LAYER_7
 10
172.9424
 20
36.9035
  0
VERTEX
  8
LAYER_7
 10
172.4067
 20
36.9035
  0
VERTEX
  8
LAYER_7
 10
172.4067
 20
36.549
  0
VERTEX
  8
LAYER_7
 10
172.9073
 20
36.549
  0
VERTEX
  8
LAYER_7
 10
172.9073
 20
36.4557
  0
VERTEX
  8
LAYER_7
 10
172.4067
 20
36.4557
  0
SEQEND
  0
ENDBLK
  0
BLOCK
  8
LAYER_7
  2
AIGNBL07020004
 70
64
 10
0
 20
0
 30
0
  3
AIGNBL07020004
  0
INSERT
  8
LAYER_7
  2
AIGNBL07030005
 10
0
 20
0
 30
0
  0
ENDBLK
  0
BLOCK
  8
LAYER_7
  2
AIGNBL0702000D
 70
64
 10
0
 20
0
 30
0
  3
AIGNBL0702000D
  0
INSERT
  8
LAYER_7
  2
AIGNBL0703000E
 10
0
 20
0
 30
0
  0
INSERT
  8
LAYER_7
  2
AIGNBL0703000F
 10
0
 20
0
 30
0
  0
INSERT
  8
LAYER_7
  2
AIGNBL07030010
 10
0
 20
0
 30
0
  0
INSERT
  8
LAYER_7
  2
AIGNBL07030011
 10
0
 20
0
 30
0
  0
INSERT
  8
LAYER_7
  2
AIGNBL07030012
 10
0
 20
0
 30
0
  0
INSERT
  8
LAYER_7
  2
AIGNBL07030013
 10
0
 20
0
 30
0
  0
INSERT
  8
LAYER_7
  2
AIGNBL07030014
 10
0
 20
0
 30
0
  0
INSERT
  8
LAYER_7
  2
AIGNBL07030015
 10
0
 20
0
 30
0
  0
INSERT
  8
LAYER_7
  2
AIGNBL07030016
 10
0
 20
0
 30
0
  0
INSERT
  8
LAYER_7
  2
AIGNBL07030017
 10
0
 20
0
 30
0
  0
INSERT
  8
LAYER_7
  2
AIGNBL07030018
 10
0
 20
0
 30
0
  0
INSERT
  8
LAYER_7
  2
AIGNBL07030019
 10
0
 20
0
 30
0
  0
INSERT
  8
LAYER_7
  2
AIGNBL0703001A
 10
0
 20
0
 30
0
  0
INSERT
  8
LAYER_7
  2
AIGNBL0703001B
 10
0
 20
0
 30
0
  0
INSERT
  8
LAYER_7
  2
AIGNBL0703001C
 10
0
 20
0
 30
0
  0
INSERT
  8
LAYER_7
  2
AIGNBL0703001D
 10
0
 20
0
 30
0
  0
INSERT
  8
LAYER_7
  2
AIGNBL0703001E
 10
0
 20
0
 30
0
  0
INSERT
  8
LAYER_7
  2
AIGNBL0703001F
 10
0
 20
0
 30
0
  0
INSERT
  8
LAYER_7
  2
AIGNBL07030020
 10
0
 20
0
 30
0
  0
INSERT
  8
LAYER_7
  2
AIGNBL07030021
 10
0
 20
0
 30
0
  0
INSERT
  8
LAYER_7
  2
AIGNBL07030022
 10
0
 20
0
 30
0
  0
INSERT
  8
LAYER_7
  2
AIGNBL07030023
 10
0
 20
0
 30
0
  0
INSERT
  8
LAYER_7
  2
AIGNBL07030024
 10
0
 20
0
 30
0
  0
ENDBLK
  0
BLOCK
  8
LAYER_1
  2
AIGNBL01010002
 70
64
 10
0
 20
0
 30
0
  3
AIGNBL01010002
  0
POLYLINE
  8
LAYER_1
  6
AIGENLINE001
 40
0.1058
 41
0.1058
 62
4
 66
1
 10
0
 20
0
 30
0
 70
129
  0
VERTEX
  8
LAYER_1
 10
53.0473
 20
183.1978
  0
VERTEX
  8
LAYER_1
 10
72.5473
 20
183.1978
  0
VERTEX
  8
LAYER_1
 10
72.5473
 20
178.1978
  0
VERTEX
  8
LAYER_1
 10
53.0473
 20
178.1978
  0
SEQEND
  0
POLYLINE
  8
LAYER_1
  6
AIGENLINE001
 40
0.1058
 41
0.1058
 62
4
 66
1
 10
0
 20
0
 30
0
 70
128
  0
VERTEX
  8
LAYER_1
 10
53.0473
 20
183.1978
  0
VERTEX
  8
LAYER_1
 10
72.5473
 20
178.1978
  0
SEQEND
  0
POLYLINE
  8
LAYER_1
  6
AIGENLINE001
 40
0.1058
 41
0.1058
 62
4
 66
1
 10
0
 20
0
 30
0
 70
128
  0
VERTEX
  8
LAYER_1
 10
72.5473
 20
183.1978
  0
VERTEX
  8
LAYER_1
 10
53.0473
 20
178.3865
  0
SEQEND
  0
ENDBLK
  0
BLOCK
  8
LAYER_1
  2
AIGNBL01010003
 70
64
 10
0
 20
0
 30
0
  3
AIGNBL01010003
  0
CIRCLE
  8
LAYER_1
  6
AIGENLINE001
 62
252
 10
62.7928
 20
177.1978
 40
6.8645
  0
CIRCLE
  8
LAYER_1
  6
AIGENLINE001
 62
252
 10
62.7928
 20
177.1978
 40
7
  0
CIRCLE
  8
LAYER_1
  6
AIGENLINE001
 62
252
 10
62.7928
 20
175.953
 40
1.776
  0
CIRCLE
  8
LAYER_1
  6
AIGENLINE001
 62
252
 10
62.7928
 20
175.953
 40
1.1433
  0
CIRCLE
  8
LAYER_1
  6
AIGENLINE001
 62
252
 10
62.7928
 20
177.1978
 40
6.521
  0
POLYLINE
  8
LAYER_1
  6
AIGENLINE001
 40
0.1058
 41
0.1058
 62
252
 66
1
 10
0
 20
0
 30
0
 70
128
  0
VERTEX
  8
LAYER_1
 10
56.5339
 20
179.0551
  0
VERTEX
  8
LAYER_1
 10
69.0336
 20
179.0551
  0
SEQEND
  0
POLYLINE
  8
LAYER_1
  6
AIGENLINE001
 40
0.1058
 41
0.1058
 62
252
 66
1
 10
0
 20
0
 30
0
 70
128
  0
VERTEX
  8
LAYER_1
 10
63.269
 20
180.3978
 42
0.2715287326
  0
VERTEX
  8
LAYER_1
 10
63.7678
 20
181.2486
 42
0.4142044179
  0
VERTEX
  8
LAYER_1
 10
62.7928
 20
182.2236
 42
0.4142133894
  0
VERTEX
  8
LAYER_1
 10
61.8178
 20
181.2486
 42
0.2715027564
  0
VERTEX
  8
LAYER_1
 10
62.3165
 20
180.3978
  0
SEQEND
  0
CIRCLE
  8
LAYER_1
  6
AIGENLINE001
 62
252
 10
62.7928
 20
181.2486
 40
0.4
  0
POLYLINE
  8
LAYER_1
  6
AIGENLINE001
 40
0.1058
 41
0.1058
 62
252
 66
1
 10
0
 20
0
 30
0
 70
128
  0
VERTEX
  8
LAYER_1
 10
62.8428
 20
181.6773
  0
VERTEX
  8
LAYER_1
 10
62.7428
 20
181.6773
  0
SEQEND
  0
POLYLINE
  8
LAYER_1
  6
AIGENLINE001
 40
0.1058
 41
0.1058
 62
252
 66
1
 10
0
 20
0
 30
0
 70
128
  0
VERTEX
  8
LAYER_1
 10
62.7928
 20
182.4064
  0
VERTEX
  8
LAYER_1
 10
62.7928
 20
175.5865
  0
SEQEND
  0
POLYLINE
  8
LAYER_1
  6
AIGENLINE001
 40
0.1058
 41
0.1058
 62
252
 66
1
 10
0
 20
0
 30
0
 70
128
  0
VERTEX
  8
LAYER_1
 10
64.8743
 20
181.2486
  0
VERTEX
  8
LAYER_1
 10
61.685
 20
181.2486
  0
SEQEND
  0
POLYLINE
  8
LAYER_1
  6
AIGENLINE001
 40
0.1058
 41
0.1058
 62
252
 66
1
 10
0
 20
0
 30
0
 70
128
  0
VERTEX
  8
LAYER_1
 10
62.7428
 20
181.658
  0
VERTEX
  8
LAYER_1
 10
62.7428
 20
181.6986
 42
-0.3931198644
  0
VERTEX
  8
LAYER_1
 10
62.7928
 20
181.7486
 42
-0.3931198641
  0
VERTEX
  8
LAYER_1
 10
62.8428
 20
181.6986
  0
VERTEX
  8
LAYER_1
 10
62.8427
 20
181.6955
  0
VERTEX
  8
LAYER_1
 10
62.8428
 20
181.658
  0
SEQEND
  0
CIRCLE
  8
LAYER_1
  6
AIGENLINE001
 62
252
 10
62.7928
 20
181.2486
 40
0.75
  0
POLYLINE
  8
LAYER_1
  6
AIGENLINE001
 40
0.1058
 41
0.1058
 62
252
 66
1
 10
0
 20
0
 30
0
 70
128
  0
VERTEX
  8
LAYER_1
 10
62.5281
 20
180.5468
 42
-0.3008578541
  0
VERTEX
  8
LAYER_1
 10
62.5928
 20
180.4533
  0
VERTEX
  8
LAYER_1
 10
62.5928
 20
179.3236
  0
VERTEX
  8
LAYER_1
 10
62.6178
 20
179.2986
  0
VERTEX
  8
LAYER_1
 10
62.9678
 20
179.2986
  0
VERTEX
  8
LAYER_1
 10
62.9928
 20
179.3236
  0
VERTEX
  8
LAYER_1
 10
62.9928
 20
180.4533
 42
-0.3010900388
  0
VERTEX
  8
LAYER_1
 10
63.0575
 20
180.5468
  0
SEQEND
  0
POLYLINE
  8
LAYER_1
  6
AIGENLINE001
 40
0.1058
 41
0.1058
 62
252
 66
1
 10
0
 20
0
 30
0
 70
128
  0
VERTEX
  8
LAYER_1
 10
63.4945
 20
180.9839
 42
-0.3007487113
  0
VERTEX
  8
LAYER_1
 10
63.5881
 20
181.0486
  0
VERTEX
  8
LAYER_1
 10
64.7178
 20
181.0486
  0
VERTEX
  8
LAYER_1
 10
64.7428
 20
181.0736
  0
VERTEX
  8
LAYER_1
 10
64.7428
 20
181.4236
  0
VERTEX
  8
LAYER_1
 10
64.7178
 20
181.4486
  0
VERTEX
  8
LAYER_1
 10
63.5881
 20
181.4486
 42
-0.3006146059
  0
VERTEX
  8
LAYER_1
 10
63.4945
 20
181.5133
  0
SEQEND
  0
CIRCLE
  8
LAYER_1
  6
AIGENLINE001
 62
252
 10
62.7928
 20
181.2486
 40
0.4125
  0
POLYLINE
  8
LAYER_1
  6
AIGENLINE001
 40
0.1058
 41
0.1058
 62
252
 66
1
 10
0
 20
0
 30
0
 70
128
  0
VERTEX
  8
LAYER_1
 10
63.269
 20
180.6692
  0
VERTEX
  8
LAYER_1
 10
63.269
 20
176.1082
  0
VERTEX
  8
LAYER_1
 10
63.254
 20
176.0184
 42
-0.1580704628
  0
VERTEX
  8
LAYER_1
 10
63.1045
 20
175.8363
 42
-0.1410907336
  0
VERTEX
  8
LAYER_1
 10
62.7928
 20
175.7486
  0
VERTEX
  8
LAYER_1
 10
62.6456
 20
175.7661
 42
-0.1442353298
  0
VERTEX
  8
LAYER_1
 10
62.4077
 20
175.8965
 42
-0.1985263214
  0
VERTEX
  8
LAYER_1
 10
62.3165
 20
176.1082
  0
VERTEX
  8
LAYER_1
 10
62.3165
 20
180.6692
  0
SEQEND
  0
POLYLINE
  8
LAYER_1
  6
AIGENLINE001
 40
0.1058
 41
0.1058
 62
252
 66
1
 10
0
 20
0
 30
0
 70
128
  0
VERTEX
  8
LAYER_1
 10
62.3165
 20
176.6149
 42
0.1985263214
  0
VERTEX
  8
LAYER_1
 10
62.4077
 20
176.4032
 42
0.1441630981
  0
VERTEX
  8
LAYER_1
 10
62.6456
 20
176.2728
  0
VERTEX
  8
LAYER_1
 10
62.7928
 20
176.2553
 42
0.1410907336
  0
VERTEX
  8
LAYER_1
 10
63.1045
 20
176.343
 42
0.158314289
  0
VERTEX
  8
LAYER_1
 10
63.254
 20
176.5251
  0
VERTEX
  8
LAYER_1
 10
63.269
 20
176.6149
  0
SEQEND
  0
POLYLINE
  8
LAYER_1
  6
AIGENLINE001
 40
0.1058
 41
0.1058
 62
252
 66
1
 10
0
 20
0
 30
0
 70
128
  0
VERTEX
  8
LAYER_1
 10
62.3165
 20
176.6799
 42
0.1985263214
  0
VERTEX
  8
LAYER_1
 10
62.4077
 20
176.4682
 42
0.1441630981
  0
VERTEX
  8
LAYER_1
 10
62.6456
 20
176.3378
  0
VERTEX
  8
LAYER_1
 10
62.7928
 20
176.3203
 42
0.1410907336
  0
VERTEX
  8
LAYER_1
 10
63.1045
 20
176.408
 42
0.158314289
  0
VERTEX
  8
LAYER_1
 10
63.254
 20
176.5901
  0
VERTEX
  8
LAYER_1
 10
63.269
 20
176.6799
  0
SEQEND
  0
ENDBLK
  0
BLOCK
  8
LAYER_1
  2
AIGNBL01010004
 70
64
 10
0
 20
0
 30
0
  3
AIGNBL01010004
  0
POLYLINE
  8
LAYER_1
  6
AIGENLINE001
 40
0.1058
 41
0.1058
 62
252
 66
1
 10
0
 20
0
 30
0
 70
128
  0
VERTEX
  8
LAYER_1
 10
56.5384
 20
131.4478
  0
VERTEX
  8
LAYER_1
 10
69.0562
 20
131.4478
  0
SEQEND
  0
POLYLINE
  8
LAYER_1
  6
AIGENLINE001
 40
0.1058
 41
0.1058
 62
252
 66
1
 10
0
 20
0
 30
0
 70
128
  0
VERTEX
  8
LAYER_1
 10
69.4494
 20
131.7009
 42
0.4141276808
  0
VERTEX
  8
LAYER_1
 10
69.7974
 20
132.0488
  0
VERTEX
  8
LAYER_1
 10
69.6618
 20
137.0514
 42
0.360989611
  0
VERTEX
  8
LAYER_1
 10
69.5085
 20
137.1975
  0
VERTEX
  8
LAYER_1
 10
56.0865
 20
137.1978
 42
0.1875869473
  0
VERTEX
  8
LAYER_1
 10
55.987
 20
137.1555
 42
0.1926812211
  0
VERTEX
  8
LAYER_1
 10
55.9419
 20
137.0527
  0
SEQEND
  0
POLYLINE
  8
LAYER_1
  6
AIGENLINE001
 40
0.1058
 41
0.1058
 62
252
 66
1
 10
0
 20
0
 30
0
 70
128
  0
VERTEX
  8
LAYER_1
 10
56.5384
 20
131.5472
  0
VERTEX
  8
LAYER_1
 10
56.5384
 20
131.4478
  0
VERTEX
  8
LAYER_1
 10
69.0562
 20
131.4478
  0
VERTEX
  8
LAYER_1
 10
69.0562
 20
131.5472
 42
-0.3868234497
  0
VERTEX
  8
LAYER_1
 10
69.2054
 20
131.7009
  0
SEQEND
  0
POLYLINE
  8
LAYER_1
  6
AIGENLINE001
 40
0.1058
 41
0.1058
 62
252
 66
1
 10
0
 20
0
 30
0
 70
128
  0
VERTEX
  8
LAYER_1
 10
56.5474
 20
131.5517
 42
0.4143373661
  0
VERTEX
  8
LAYER_1
 10
56.3983
 20
131.7009
  0
SEQEND
  0
POLYLINE
  8
LAYER_1
  6
AIGENLINE001
 40
0.1058
 41
0.1058
 62
252
 66
1
 10
0
 20
0
 30
0
 70
128
  0
VERTEX
  8
LAYER_1
 10
56.1451
 20
131.6869
 42
-0.2024737738
  0
VERTEX
  8
LAYER_1
 10
55.8957
 20
131.7922
 42
-0.2024098282
  0
VERTEX
  8
LAYER_1
 10
55.7973
 20
132.0443
  0
VERTEX
  8
LAYER_1
 10
55.9329
 20
137.0514
  0
SEQEND
  0
POLYLINE
  8
LAYER_1
  6
AIGENLINE001
 40
0.1058
 41
0.1058
 62
252
 66
1
 10
0
 20
0
 30
0
 70
128
  0
VERTEX
  8
LAYER_1
 10
69.4449
 20
131.6918
  0
VERTEX
  8
LAYER_1
 10
56.3938
 20
131.6918
  0
VERTEX
  8
LAYER_1
 10
56.1498
 20
131.6918
  0
SEQEND
  0
POLYLINE
  8
LAYER_1
  6
AIGENLINE001
 40
0.1058
 41
0.1058
 62
252
 66
1
 10
0
 20
0
 30
0
 70
128
  0
VERTEX
  8
LAYER_1
 10
63.5473
 20
137.0804
  0
VERTEX
  8
LAYER_1
 10
62.0473
 20
137.0804
  0
SEQEND
  0
CIRCLE
  8
LAYER_1
  6
AIGENLINE001
 62
252
 10
62.7973
 20
142.7654
 40
0.2
  0
POLYLINE
  8
LAYER_1
  6
AIGENLINE001
 40
0.1058
 41
0.1058
 62
252
 66
1
 10
0
 20
0
 30
0
 70
129
  0
VERTEX
  8
LAYER_1
 10
63.7723
 20
136.9654
 42
0.4143291074
  0
VERTEX
  8
LAYER_1
 10
63.6723
 20
137.0654
  0
VERTEX
  8
LAYER_1
 10
61.9223
 20
137.0654
 42
0.4143000754
  0
VERTEX
  8
LAYER_1
 10
61.8223
 20
136.9654
  0
VERTEX
  8
LAYER_1
 10
61.8223
 20
136.9154
  0
VERTEX
  8
LAYER_1
 10
63.7723
 20
136.9154
  0
SEQEND
  0
POLYLINE
  8
LAYER_1
  6
AIGENLINE001
 40
0.1058
 41
0.1058
 62
252
 66
1
 10
0
 20
0
 30
0
 70
128
  0
VERTEX
  8
LAYER_1
 10
62.1848
 20
141.7154
  0
VERTEX
  8
LAYER_1
 10
62.1848
 20
141.7404
  0
SEQEND
  0
POLYLINE
  8
LAYER_1
  6
AIGENLINE001
 40
0.1058
 41
0.1058
 62
252
 66
1
 10
0
 20
0
 30
0
 70
128
  0
VERTEX
  8
LAYER_1
 10
63.5473
 20
141.7004
  0
VERTEX
  8
LAYER_1
 10
63.5473
 20
137.0804
  0
VERTEX
  8
LAYER_1
 10
63.5323
 20
137.0654
  0
SEQEND
  0
POLYLINE
  8
LAYER_1
  6
AIGENLINE001
 40
0.1058
 41
0.1058
 62
252
 66
1
 10
0
 20
0
 30
0
 70
128
  0
VERTEX
  8
LAYER_1
 10
62.7973
 20
137.7726
  0
VERTEX
  8
LAYER_1
 10
62.7973
 20
136.5726
  0
SEQEND
  0
POLYLINE
  8
LAYER_1
  6
AIGENLINE001
 40
0.1058
 41
0.1058
 62
252
 66
1
 10
0
 20
0
 30
0
 70
128
  0
VERTEX
  8
LAYER_1
 10
63.2723
 20
139.9428
  0
VERTEX
  8
LAYER_1
 10
63.2736
 20
140.9154
 42
0.4142378188
  0
VERTEX
  8
LAYER_1
 10
62.7973
 20
141.3917
 42
0.4142317318
  0
VERTEX
  8
LAYER_1
 10
62.3211
 20
140.9154
  0
VERTEX
  8
LAYER_1
 10
62.3224
 20
139.9428
  0
SEQEND
  0
POLYLINE
  8
LAYER_1
  6
AIGENLINE001
 40
0.1058
 41
0.1058
 62
252
 66
1
 10
0
 20
0
 30
0
 70
128
  0
VERTEX
  8
LAYER_1
 10
62.0623
 20
137.0654
  0
VERTEX
  8
LAYER_1
 10
62.0473
 20
137.0804
  0
VERTEX
  8
LAYER_1
 10
62.0473
 20
141.7004
  0
SEQEND
  0
POLYLINE
  8
LAYER_1
  6
AIGENLINE001
 40
0.1058
 41
0.1058
 62
252
 66
1
 10
0
 20
0
 30
0
 70
129
  0
VERTEX
  8
LAYER_1
 10
62.0473
 20
143.2404
  0
VERTEX
  8
LAYER_1
 10
62.0473
 20
141.7654
  0
VERTEX
  8
LAYER_1
 10
62.0723
 20
141.7404
  0
VERTEX
  8
LAYER_1
 10
63.5223
 20
141.7404
  0
VERTEX
  8
LAYER_1
 10
63.5473
 20
141.7654
  0
VERTEX
  8
LAYER_1
 10
63.5473
 20
143.2404
 42
0.414367629
  0
VERTEX
  8
LAYER_1
 10
63.4723
 20
143.3154
  0
VERTEX
  8
LAYER_1
 10
62.1223
 20
143.3154
 42
0.4143289097
  0
SEQEND
  0
POLYLINE
  8
LAYER_1
  6
AIGENLINE001
 40
0.1058
 41
0.1058
 62
252
 66
1
 10
0
 20
0
 30
0
 70
128
  0
VERTEX
  8
LAYER_1
 10
62.3223
 20
139.9899
  0
VERTEX
  8
LAYER_1
 10
62.3223
 20
138.9937
  0
SEQEND
  0
POLYLINE
  8
LAYER_1
  6
AIGENLINE001
 40
0.1058
 41
0.1058
 62
252
 66
1
 10
0
 20
0
 30
0
 70
128
  0
VERTEX
  8
LAYER_1
 10
63.2723
 20
139.9899
  0
VERTEX
  8
LAYER_1
 10
63.2723
 20
138.9937
  0
SEQEND
  0
POLYLINE
  8
LAYER_1
  6
AIGENLINE001
 40
0.1058
 41
0.1058
 62
252
 66
1
 10
0
 20
0
 30
0
 70
129
  0
VERTEX
  8
LAYER_1
 10
63.2098
 20
138.9716
  0
VERTEX
  8
LAYER_1
 10
63.1848
 20
139.0425
  0
VERTEX
  8
LAYER_1
 10
63.1156
 20
139.1028
  0
VERTEX
  8
LAYER_1
 10
62.9939
 20
139.1529
  0
VERTEX
  8
LAYER_1
 10
62.7973
 20
139.1778
 42
0.1308038438
  0
VERTEX
  8
LAYER_1
 10
62.4698
 20
139.097
 42
0.2245167762
  0
VERTEX
  8
LAYER_1
 10
62.3848
 20
138.9716
  0
VERTEX
  8
LAYER_1
 10
62.4099
 20
138.9007
  0
VERTEX
  8
LAYER_1
 10
62.479
 20
138.8404
  0
VERTEX
  8
LAYER_1
 10
62.6007
 20
138.7902
  0
VERTEX
  8
LAYER_1
 10
62.7973
 20
138.7653
 42
0.1308534596
  0
VERTEX
  8
LAYER_1
 10
63.1249
 20
138.8462
 42
0.2242213635
  0
SEQEND
  0
POLYLINE
  8
LAYER_1
  6
AIGENLINE001
 40
0.1058
 41
0.1058
 62
252
 66
1
 10
0
 20
0
 30
0
 70
129
  0
VERTEX
  8
LAYER_1
 10
63.2723
 20
138.9934
  0
VERTEX
  8
LAYER_1
 10
63.2474
 20
139.0706
  0
VERTEX
  8
LAYER_1
 10
63.1779
 20
139.1375
  0
VERTEX
  8
LAYER_1
 10
63.0581
 20
139.1947
 42
0.08088937906
  0
VERTEX
  8
LAYER_1
 10
62.7973
 20
139.2342
 42
0.1216577873
  0
VERTEX
  8
LAYER_1
 10
62.4382
 20
139.151
  0
VERTEX
  8
LAYER_1
 10
62.3532
 20
139.079
  0
VERTEX
  8
LAYER_1
 10
62.3223
 20
138.9934
  0
VERTEX
  8
LAYER_1
 10
62.3473
 20
138.9162
  0
VERTEX
  8
LAYER_1
 10
62.4167
 20
138.8494
  0
VERTEX
  8
LAYER_1
 10
62.5365
 20
138.7922
 42
0.08147757567
  0
VERTEX
  8
LAYER_1
 10
62.7973
 20
138.7527
 42
0.1216681364
  0
VERTEX
  8
LAYER_1
 10
63.1565
 20
138.8359
  0
VERTEX
  8
LAYER_1
 10
63.2415
 20
138.9079
  0
SEQEND
  0
POLYLINE
  8
LAYER_1
  6
AIGENLINE001
 40
0.1058
 41
0.1058
 62
252
 66
1
 10
0
 20
0
 30
0
 70
128
  0
VERTEX
  8
LAYER_1
 10
63.2723
 20
139.9027
  0
VERTEX
  8
LAYER_1
 10
63.2474
 20
139.972
  0
VERTEX
  8
LAYER_1
 10
63.1745
 20
140.034
  0
VERTEX
  8
LAYER_1
 10
63.0436
 20
140.0874
  0
VERTEX
  8
LAYER_1
 10
62.7973
 20
140.1187
 42
0.1158624944
  0
VERTEX
  8
LAYER_1
 10
62.4272
 20
140.0381
  0
VERTEX
  8
LAYER_1
 10
62.3473
 20
139.972
  0
VERTEX
  8
LAYER_1
 10
62.3223
 20
139.9027
  0
SEQEND
  0
POLYLINE
  8
LAYER_1
  6
AIGENLINE001
 40
0.1058
 41
0.1058
 62
252
 66
1
 10
0
 20
0
 30
0
 70
128
  0
VERTEX
  8
LAYER_1
 10
63.2723
 20
139.9503
 42
0.2404581831
  0
VERTEX
  8
LAYER_1
 10
63.1779
 20
140.1184
 42
0.1394581715
  0
VERTEX
  8
LAYER_1
 10
62.9046
 20
140.2241
  0
VERTEX
  8
LAYER_1
 10
62.7973
 20
140.2313
 42
0.1283468543
  0
VERTEX
  8
LAYER_1
 10
62.4574
 20
140.1466
 42
0.1847701872
  0
VERTEX
  8
LAYER_1
 10
62.3261
 20
139.9861
  0
VERTEX
  8
LAYER_1
 10
62.3223
 20
139.9503
  0
SEQEND
  0
POLYLINE
  8
LAYER_1
  6
AIGENLINE001
 40
0.1058
 41
0.1058
 62
252
 66
1
 10
0
 20
0
 30
0
 70
129
  0
VERTEX
  8
LAYER_1
 10
62.0623
 20
141.7154
  0
VERTEX
  8
LAYER_1
 10
62.0473
 20
141.7004
  0
VERTEX
  8
LAYER_1
 10
63.5473
 20
141.7004
  0
VERTEX
  8
LAYER_1
 10
63.5323
 20
141.7154
  0
SEQEND
  0
POLYLINE
  8
LAYER_1
  6
AIGENLINE001
 40
0.1058
 41
0.1058
 62
252
 66
1
 10
0
 20
0
 30
0
 70
129
  0
VERTEX
  8
LAYER_1
 10
61.5686
 20
130.9476
  0
VERTEX
  8
LAYER_1
 10
64.0184
 20
130.9476
  0
VERTEX
  8
LAYER_1
 10
64.0184
 20
129.9974
  0
VERTEX
  8
LAYER_1
 10
61.5686
 20
129.9974
  0
SEQEND
  0
POLYLINE
  8
LAYER_1
  6
AIGENLINE001
 40
0.1058
 41
0.1058
 62
252
 66
1
 10
0
 20
0
 30
0
 70
128
  0
VERTEX
  8
LAYER_1
 10
61.7939
 20
131.2976
  0
VERTEX
  8
LAYER_1
 10
63.9915
 20
131.2976
  0
SEQEND
  0
POLYLINE
  8
LAYER_1
  6
AIGENLINE001
 40
0.1058
 41
0.1058
 62
252
 66
1
 10
0
 20
0
 30
0
 70
128
  0
VERTEX
  8
LAYER_1
 10
61.3943
 20
131.4478
  0
VERTEX
  8
LAYER_1
 10
61.2179
 20
131.4478
  0
VERTEX
  8
LAYER_1
 10
61.2179
 20
131.2976
  0
VERTEX
  8
LAYER_1
 10
61.3943
 20
131.2976
  0
VERTEX
  8
LAYER_1
 10
61.2179
 20
131.2976
  0
VERTEX
  8
LAYER_1
 10
61.2179
 20
131.1477
  0
VERTEX
  8
LAYER_1
 10
61.5963
 20
131.1477
  0
VERTEX
  8
LAYER_1
 10
63.7917
 20
131.1477
  0
SEQEND
  0
POLYLINE
  8
LAYER_1
  6
AIGENLINE001
 40
0.1058
 41
0.1058
 62
252
 66
1
 10
0
 20
0
 30
0
 70
128
  0
VERTEX
  8
LAYER_1
 10
61.7939
 20
131.4478
  0
VERTEX
  8
LAYER_1
 10
63.9915
 20
131.4478
  0
SEQEND
  0
POLYLINE
  8
LAYER_1
  6
AIGENLINE001
 40
0.1058
 41
0.1058
 62
252
 66
1
 10
0
 20
0
 30
0
 70
128
  0
VERTEX
  8
LAYER_1
 10
64.1913
 20
131.4478
  0
VERTEX
  8
LAYER_1
 10
64.3677
 20
131.4478
  0
VERTEX
  8
LAYER_1
 10
64.3677
 20
131.2976
  0
VERTEX
  8
LAYER_1
 10
64.1913
 20
131.2976
  0
VERTEX
  8
LAYER_1
 10
64.3677
 20
131.2976
  0
VERTEX
  8
LAYER_1
 10
64.3677
 20
131.1477
  0
VERTEX
  8
LAYER_1
 10
64.0143
 20
131.1477
  0
SEQEND
  0
POLYLINE
  8
LAYER_1
  6
AIGENLINE001
 40
0.1058
 41
0.1058
 62
252
 66
1
 10
0
 20
0
 30
0
 70
128
  0
VERTEX
  8
LAYER_1
 10
63.7917
 20
131.2976
  0
VERTEX
  8
LAYER_1
 10
61.5941
 20
131.2976
  0
SEQEND
  0
POLYLINE
  8
LAYER_1
  6
AIGENLINE001
 40
0.1058
 41
0.1058
 62
252
 66
1
 10
0
 20
0
 30
0
 70
128
  0
VERTEX
  8
LAYER_1
 10
61.7443
 20
130.9476
  0
VERTEX
  8
LAYER_1
 10
61.5679
 20
130.9476
  0
VERTEX
  8
LAYER_1
 10
61.5679
 20
131.1481
  0
VERTEX
  8
LAYER_1
 10
61.7443
 20
131.1481
  0
SEQEND
  0
POLYLINE
  8
LAYER_1
  6
AIGENLINE001
 40
0.1058
 41
0.1058
 62
252
 66
1
 10
0
 20
0
 30
0
 70
128
  0
VERTEX
  8
LAYER_1
 10
62.0437
 20
131.1481
  0
VERTEX
  8
LAYER_1
 10
63.6918
 20
131.1481
  0
SEQEND
  0
POLYLINE
  8
LAYER_1
  6
AIGENLINE001
 40
0.1058
 41
0.1058
 62
252
 66
1
 10
0
 20
0
 30
0
 70
128
  0
VERTEX
  8
LAYER_1
 10
61.7172
 20
130.9476
  0
VERTEX
  8
LAYER_1
 10
63.8417
 20
130.9476
  0
VERTEX
  8
LAYER_1
 10
64.0177
 20
130.9472
  0
VERTEX
  8
LAYER_1
 10
64.0177
 20
131.1481
  0
VERTEX
  8
LAYER_1
 10
63.8417
 20
131.1481
  0
SEQEND
  0
POLYLINE
  8
LAYER_1
  6
AIGENLINE001
 40
0.1058
 41
0.1058
 62
252
 66
1
 10
0
 20
0
 30
0
 70
129
  0
VERTEX
  8
LAYER_1
 10
63.9429
 20
131.4478
  0
VERTEX
  8
LAYER_1
 10
64.2892
 20
131.4478
  0
SEQEND
  0
POLYLINE
  8
LAYER_1
  6
AIGENLINE001
 40
0.1058
 41
0.1058
 62
252
 66
1
 10
0
 20
0
 30
0
 70
129
  0
VERTEX
  8
LAYER_1
 10
61.2968
 20
131.4478
  0
VERTEX
  8
LAYER_1
 10
61.643
 20
131.4478
  0
VERTEX
  8
LAYER_1
 10
61.8194
 20
131.4478
  0
VERTEX
  8
LAYER_1
 10
61.643
 20
131.4478
  0
SEQEND
  0
POLYLINE
  8
LAYER_1
  6
AIGENLINE001
 40
0.1058
 41
0.1058
 62
252
 66
1
 10
0
 20
0
 30
0
 70
129
  0
VERTEX
  8
LAYER_1
 10
63.5716
 20
131.4478
  0
VERTEX
  8
LAYER_1
 10
62.2087
 20
131.4478
  0
SEQEND
  0
POLYLINE
  8
LAYER_1
  6
AIGENLINE001
 40
0.1058
 41
0.1058
 62
252
 66
1
 10
0
 20
0
 30
0
 70
129
  0
VERTEX
  8
LAYER_1
 10
63.9426
 20
131.4478
  0
VERTEX
  8
LAYER_1
 10
63.7662
 20
131.4478
  0
SEQEND
  0
POLYLINE
  8
LAYER_1
  6
AIGENLINE001
 40
0.1058
 41
0.1058
 62
252
 66
1
 10
0
 20
0
 30
0
 70
128
  0
VERTEX
  8
LAYER_1
 10
61.4973
 20
132.6098
  0
VERTEX
  8
LAYER_1
 10
61.248
 20
132.6904
  0
SEQEND
  0
POLYLINE
  8
LAYER_1
  6
AIGENLINE001
 40
0.1058
 41
0.1058
 62
252
 66
1
 10
0
 20
0
 30
0
 70
128
  0
VERTEX
  8
LAYER_1
 10
64.0895
 20
132.6098
  0
VERTEX
  8
LAYER_1
 10
64.3388
 20
132.6904
  0
SEQEND
  0
POLYLINE
  8
LAYER_1
  6
AIGENLINE001
 40
0.1058
 41
0.1058
 62
252
 66
1
 10
0
 20
0
 30
0
 70
128
  0
VERTEX
  8
LAYER_1
 10
62.9444
 20
131.2659
  0
VERTEX
  8
LAYER_1
 10
62.9444
 20
130.6254
  0
SEQEND
  0
POLYLINE
  8
LAYER_1
  6
AIGENLINE001
 40
0.1058
 41
0.1058
 62
252
 66
1
 10
0
 20
0
 30
0
 70
128
  0
VERTEX
  8
LAYER_1
 10
62.6424
 20
130.6254
  0
VERTEX
  8
LAYER_1
 10
62.6424
 20
131.2659
  0
SEQEND
  0
POLYLINE
  8
LAYER_1
  6
AIGENLINE001
 40
0.1058
 41
0.1058
 62
252
 66
1
 10
0
 20
0
 30
0
 70
128
  0
VERTEX
  8
LAYER_1
 10
63.1835
 20
131.6183
  0
VERTEX
  8
LAYER_1
 10
63.1835
 20
131.4442
  0
SEQEND
  0
POLYLINE
  8
LAYER_1
  6
AIGENLINE001
 40
0.1058
 41
0.1058
 62
252
 66
1
 10
0
 20
0
 30
0
 70
128
  0
VERTEX
  8
LAYER_1
 10
62.4063
 20
131.6183
  0
VERTEX
  8
LAYER_1
 10
62.4063
 20
131.4388
  0
VERTEX
  8
LAYER_1
 10
63.1805
 20
131.4388
  0
VERTEX
  8
LAYER_1
 10
63.02
 20
131.2661
  0
VERTEX
  8
LAYER_1
 10
62.567
 20
131.2659
  0
VERTEX
  8
LAYER_1
 10
62.4064
 20
131.4388
  0
SEQEND
  0
POLYLINE
  8
LAYER_1
  6
AIGENLINE001
 40
0.1058
 41
0.1058
 62
252
 66
1
 10
0
 20
0
 30
0
 70
129
  0
VERTEX
  8
LAYER_1
 10
64.3388
 20
132.6904
  0
VERTEX
  8
LAYER_1
 10
64.3649
 20
132.6995
  0
VERTEX
  8
LAYER_1
 10
64.3739
 20
132.7257
 42
0.3936766476
  0
VERTEX
  8
LAYER_1
 10
64.3388
 20
132.7609
  0
VERTEX
  8
LAYER_1
 10
61.2482
 20
132.7609
  0
VERTEX
  8
LAYER_1
 10
61.2232
 20
132.7507
  0
VERTEX
  8
LAYER_1
 10
61.2156
 20
132.7121
  0
VERTEX
  8
LAYER_1
 10
61.2482
 20
132.6904
  0
SEQEND
  0
POLYLINE
  8
LAYER_1
  6
AIGENLINE001
 40
0.1058
 41
0.1058
 62
252
 66
1
 10
0
 20
0
 30
0
 70
128
  0
VERTEX
  8
LAYER_1
 10
61.9327
 20
132.7976
  0
VERTEX
  8
LAYER_1
 10
61.9327
 20
133
  0
SEQEND
  0
POLYLINE
  8
LAYER_1
  6
AIGENLINE001
 40
0.1058
 41
0.1058
 62
252
 66
1
 10
0
 20
0
 30
0
 70
128
  0
VERTEX
  8
LAYER_1
 10
63.6542
 20
132.7976
  0
VERTEX
  8
LAYER_1
 10
63.6542
 20
133
  0
SEQEND
  0
POLYLINE
  8
LAYER_1
  6
AIGENLINE001
 40
0.1058
 41
0.1058
 62
252
 66
1
 10
0
 20
0
 30
0
 70
128
  0
VERTEX
  8
LAYER_1
 10
61.2709
 20
133.151
  0
VERTEX
  8
LAYER_1
 10
61.4981
 20
133.1265
  0
VERTEX
  8
LAYER_1
 10
61.6249
 20
133.0772
  0
VERTEX
  8
LAYER_1
 10
61.7112
 20
133
  0
VERTEX
  8
LAYER_1
 10
63.8758
 20
133
  0
VERTEX
  8
LAYER_1
 10
63.9613
 20
133.0768
  0
VERTEX
  8
LAYER_1
 10
64.0869
 20
133.126
  0
VERTEX
  8
LAYER_1
 10
64.3121
 20
133.1509
  0
VERTEX
  8
LAYER_1
 10
64.3074
 20
133.1509
  0
SEQEND
  0
POLYLINE
  8
LAYER_1
  6
AIGENLINE001
 40
0.1058
 41
0.1058
 62
252
 66
1
 10
0
 20
0
 30
0
 70
129
  0
VERTEX
  8
LAYER_1
 10
62.7933
 20
133.755
  0
VERTEX
  8
LAYER_1
 10
62.8159
 20
133.7546
 42
-0.0501400032
  0
VERTEX
  8
LAYER_1
 10
63.7442
 20
133.6527
 42
-0.04852253219
  0
VERTEX
  8
LAYER_1
 10
64.1932
 20
133.5173
  0
VERTEX
  8
LAYER_1
 10
64.3773
 20
133.4223
  0
VERTEX
  8
LAYER_1
 10
64.4943
 20
133.327
  0
VERTEX
  8
LAYER_1
 10
64.5643
 20
133.2194
  0
VERTEX
  8
LAYER_1
 10
64.5589
 20
133.1728
  0
VERTEX
  8
LAYER_1
 10
64.5174
 20
133.1509
  0
VERTEX
  8
LAYER_1
 10
64.5172
 20
133.1509
  0
VERTEX
  8
LAYER_1
 10
61.0696
 20
133.1509
  0
VERTEX
  8
LAYER_1
 10
61.0255
 20
133.1711
  0
VERTEX
  8
LAYER_1
 10
61.0225
 20
133.2194
  0
VERTEX
  8
LAYER_1
 10
61.0925
 20
133.327
  0
VERTEX
  8
LAYER_1
 10
61.2096
 20
133.4223
  0
VERTEX
  8
LAYER_1
 10
61.3937
 20
133.5173
 42
-0.04823322844
  0
VERTEX
  8
LAYER_1
 10
61.8428
 20
133.6527
 42
-0.05013883937
  0
VERTEX
  8
LAYER_1
 10
62.7709
 20
133.7546
  0
SEQEND
  0
POLYLINE
  8
LAYER_1
  6
AIGENLINE001
 40
0.1058
 41
0.1058
 62
252
 66
1
 10
0
 20
0
 30
0
 70
128
  0
VERTEX
  8
LAYER_1
 10
61.7744
 20
132.2576
  0
VERTEX
  8
LAYER_1
 10
63.8127
 20
132.2576
  0
SEQEND
  0
POLYLINE
  8
LAYER_1
  6
AIGENLINE001
 40
0.1058
 41
0.1058
 62
252
 66
1
 10
0
 20
0
 30
0
 70
129
  0
VERTEX
  8
LAYER_1
 10
63.8127
 20
132.2576
 42
-0.3191804019
  0
VERTEX
  8
LAYER_1
 10
64.0895
 20
132.6098
  0
VERTEX
  8
LAYER_1
 10
61.4973
 20
132.6098
 42
-0.3192377128
  0
VERTEX
  8
LAYER_1
 10
61.7741
 20
132.2576
  0
VERTEX
  8
LAYER_1
 10
61.7741
 20
131.6183
  0
VERTEX
  8
LAYER_1
 10
63.8127
 20
131.6183
  0
SEQEND
  0
POLYLINE
  8
LAYER_1
  6
AIGENLINE001
 40
0.1058
 41
0.1058
 62
252
 66
1
 10
0
 20
0
 30
0
 70
128
  0
VERTEX
  8
LAYER_1
 10
60.9414
 20
132.698
  0
VERTEX
  8
LAYER_1
 10
61.5632
 20
132.1947
  0
VERTEX
  8
LAYER_1
 10
61.5632
 20
131.4478
  0
SEQEND
  0
POLYLINE
  8
LAYER_1
  6
AIGENLINE001
 40
0.1058
 41
0.1058
 62
252
 66
1
 10
0
 20
0
 30
0
 70
128
  0
VERTEX
  8
LAYER_1
 10
56.0857
 20
137.1556
  0
VERTEX
  8
LAYER_1
 10
56.6863
 20
133.7732
  0
VERTEX
  8
LAYER_1
 10
56.7216
 20
133.6265
 42
0.2740302057
  0
VERTEX
  8
LAYER_1
 10
57.4964
 20
132.9423
  0
VERTEX
  8
LAYER_1
 10
60.9414
 20
132.698
  0
VERTEX
  8
LAYER_1
 10
64.4413
 20
132.698
  0
VERTEX
  8
LAYER_1
 10
67.9247
 20
132.9278
 42
0.3144694763
  0
VERTEX
  8
LAYER_1
 10
68.8609
 20
133.6265
  0
VERTEX
  8
LAYER_1
 10
69.4825
 20
137.1064
  0
SEQEND
  0
POLYLINE
  8
LAYER_1
  6
AIGENLINE001
 40
0.1058
 41
0.1058
 62
252
 66
1
 10
0
 20
0
 30
0
 70
128
  0
VERTEX
  8
LAYER_1
 10
64.4409
 20
132.698
  0
VERTEX
  8
LAYER_1
 10
63.8126
 20
132.1947
  0
VERTEX
  8
LAYER_1
 10
63.8126
 20
131.4478
  0
SEQEND
  0
POLYLINE
  8
LAYER_1
  6
AIGENLINE001
 40
0.1058
 41
0.1058
 62
252
 66
1
 10
0
 20
0
 30
0
 70
128
  0
VERTEX
  8
LAYER_1
 10
63.8126
 20
132.1947
  0
VERTEX
  8
LAYER_1
 10
61.5644
 20
132.1947
  0
SEQEND
  0
ENDBLK
  0
BLOCK
  8
LAYER_7
  2
AIGNBL07010002
 70
64
 10
0
 20
0
 30
0
  3
AIGNBL07010002
  0
POLYLINE
  8
LAYER_7
 40
0.7056
 41
0.7056
 66
1
 10
0
 20
0
 30
0
 70
1
  0
VERTEX
  8
LAYER_7
 10
251.6749
 20
230.337
  0
VERTEX
  8
LAYER_7
 10
251.6749
 20
33.3285
  0
VERTEX
  8
LAYER_7
 10
-30.3177
 20
33.3285
  0
VERTEX
  8
LAYER_7
 10
-30.3177
 20
230.337
  0
SEQEND
  0
ENDBLK
  0
BLOCK
  8
LAYER_7
  2
AIGNBL07010003
 70
64
 10
0
 20
0
 30
0
  3
AIGNBL07010003
  0
INSERT
  8
LAYER_7
  2
AIGNBL07020004
 10
0
 20
0
 30
0
  0
INSERT
  8
LAYER_7
  2
AIGNBL0702000D
 10
0
 20
0
 30
0
  0
ENDBLK
  0
ENDSEC
  0
SECTION
  2
ENTITIES
  0
TEXT
  8
LAYER_1
 10
13.2439
 20
100.5274
 11
13.2439
 21
100.5274
 40
2.3036
 41
0.5
  1
ベースパネル：ウッドブラック
  0
TEXT
  8
LAYER_1
 10
15.1312
 20
97.5088
 11
15.1312
 21
97.5088
 40
2.7182
 41
0.5
  1
(W490 D245)t=16
  0
POLYLINE
  8
LAYER_1
 40
0.1058
 41
0.1058
 66
1
 10
0
 20
0
 30
0
 70
1
  0
VERTEX
  8
LAYER_1
 10
-21.0797
 20
220.8683
  0
VERTEX
  8
LAYER_1
 10
53.5577
 20
220.8683
  0
VERTEX
  8
LAYER_1
 10
53.5577
 20
210.5863
  0
VERTEX
  8
LAYER_1
 10
-21.0797
 20
210.5863
  0
SEQEND
  0
POLYLINE
  8
LAYER_1
 40
0.0353
 41
0.0353
 66
1
 10
0
 20
0
 30
0
 70
1
  0
VERTEX
  8
LAYER_1
 10
-13.4705
 20
99.6978
  0
VERTEX
  8
LAYER_1
 10
9.0295
 20
99.6978
  0
VERTEX
  8
LAYER_1
 10
9.0295
 20
92.9478
  0
VERTEX
  8
LAYER_1
 10
-13.4705
 20
92.9478
  0
SEQEND
  0
POLYLINE
  8
LAYER_1
 40
0.0353
 41
0.0353
 66
1
 10
0
 20
0
 30
0
 70
1
  0
VERTEX
  8
LAYER_1
 10
-14.7205
 20
143.6318
  0
VERTEX
  8
LAYER_1
 10
10.2795
 20
143.6318
  0
VERTEX
  8
LAYER_1
 10
10.2795
 20
126.1318
  0
VERTEX
  8
LAYER_1
 10
-14.7205
 20
126.1318
  0
SEQEND
  0
CIRCLE
  8
LAYER_1
 10
47.7973
 20
69.6978
 40
0.5
  0
CIRCLE
  8
LAYER_1
 10
47.7973
 20
69.6978
 40
0.5
  0
CIRCLE
  8
LAYER_1
 10
77.7973
 20
69.6978
 40
0.5
  0
CIRCLE
  8
LAYER_1
 10
77.7973
 20
69.6978
 40
0.5
  0
TEXT
  8
LAYER_1
 10
28.6372
 20
120.5893
 11
28.6372
 21
120.5893
 40
2.3036
 41
0.5
  1
背板開口
  0
TEXT
  8
LAYER_1
 10
28.6372
 20
118.0788
 11
28.6372
 21
118.0788
 40
2.7182
 41
0.5
  1
442×300
  0
TEXT
  8
LAYER_1
 10
-14.3139
 20
122.7188
 11
-14.3139
 21
122.7188
 40
2.7182
 41
0.5
  1
ポリ合板 t2.5mm
  0
TEXT
  8
LAYER_1
 10
-15.2694
 20
120.2893
 11
-15.2694
 21
120.2893
 40
2.3036
 41
0.5
  1
（木口着色）
  0
TEXT
  8
LAYER_1
 10
-14.2572
 20
117.7789
 11
-14.2572
 21
117.7789
 40
2.7182
 41
0.5
  1
4点ビスキャップ留
  0
TEXT
  8
LAYER_1
 10
-14.2572
 20
115.3497
 11
-14.2572
 21
115.3497
 40
2.7182
 41
0.5
  1
500×350
  0
TEXT
  8
LAYER_1
 10
-14.7316
 20
145.3243
 11
-14.7316
 21
145.3243
 40
2.6148
 41
0.5
  1
背板開口フサギ板 ×1
  0
TEXT
  8
LAYER_1
 10
-13.152
 20
101.2326
 11
-13.152
 21
101.2326
 40
2.6148
 41
0.5
  1
底板開口フサギ板 ×1
  0
TEXT
  8
LAYER_1
 10
-13.7399
 20
89.6332
 11
-13.7399
 21
89.6332
 40
2.7182
 41
0.5
  1
ポリ合板 t2.5mm
  0
TEXT
  8
LAYER_1
 10
-14.6954
 20
87.2037
 11
-14.6954
 21
87.2037
 40
2.3036
 41
0.5
  1
（木口着色）
  0
TEXT
  8
LAYER_1
 10
-13.6832
 20
84.6933
 11
-13.6832
 21
84.6933
 40
2.7182
 41
0.5
  1
4点ビスキャップ留
  0
TEXT
  8
LAYER_1
 10
-13.6832
 20
82.2641
 11
-13.6832
 21
82.2641
 40
2.7182
 41
0.5
  1
450×135
  0
TEXT
  8
LAYER_1
 10
-19.7947
 20
216.8856
 11
-19.7947
 21
216.8856
 40
4.028
 41
0.5
  1
手洗器CIE-LPLAT28 / 水栓インセット
  0
TEXT
  8
LAYER_1
 10
-19.7947
 20
212.3857
 11
-19.7947
 21
212.3857
 40
4.028
 41
0.5
  1
脚部 H=200
  0
TEXT
  8
LAYER_1
 10
50.7715
 20
195.9141
 11
50.7715
 21
195.9141
 40
2.3036
 41
0.5
  1
地板開口
  0
TEXT
  8
LAYER_1
 10
50.7715
 20
193.4037
 11
50.7715
 21
193.4037
 40
2.7182
 41
0.5
  1
390×100
  0
POLYLINE
  8
LAYER_1
 40
0.0353
 41
0.0353
 66
1
 10
0
 20
0
 30
0
  0
VERTEX
  8
LAYER_1
 10
56.1826
 20
182.8934
  0
VERTEX
  8
LAYER_1
 10
53.9013
 20
191.4934
  0
SEQEND
  0
POLYLINE
  8
LAYER_1
 40
0.05
 41
0.05
 66
1
 10
0
 20
0
 30
0
 70
1
  0
VERTEX
  8
LAYER_1
 10
56.1826
 20
182.8934
  0
VERTEX
  8
LAYER_1
 10
55.0909
 20
184.8629
  0
VERTEX
  8
LAYER_1
 10
56.2219
 20
185.1449
  0
SEQEND
  0
INSERT
  8
LAYER_1
  2
AIGNBL01010002
 10
0
 20
0
 30
0
  0
POLYLINE
  8
LAYER_1
  6
AIGENLINE002
 40
0.0353
 41
0.0353
 66
1
 10
0
 20
0
 30
0
 70
129
  0
VERTEX
  8
LAYER_1
 10
48.9473
 20
184.6978
  0
VERTEX
  8
LAYER_1
 10
49.7473
 20
184.6978
  0
VERTEX
  8
LAYER_1
 10
49.7473
 20
171.0978
  0
VERTEX
  8
LAYER_1
 10
48.9473
 20
171.0978
  0
SEQEND
  0
POLYLINE
  8
LAYER_1
  6
AIGENLINE002
 40
0.0353
 41
0.0353
 66
1
 10
0
 20
0
 30
0
 70
129
  0
VERTEX
  8
LAYER_1
 10
75.8473
 20
184.6978
  0
VERTEX
  8
LAYER_1
 10
76.6473
 20
184.6978
  0
VERTEX
  8
LAYER_1
 10
76.6473
 20
171.0978
  0
VERTEX
  8
LAYER_1
 10
75.8473
 20
171.0978
  0
SEQEND
  0
POLYLINE
  8
LAYER_1
  6
AIGENLINE002
 40
0.0353
 41
0.0353
 66
1
 10
0
 20
0
 30
0
 70
129
  0
VERTEX
  8
LAYER_1
 10
49.7473
 20
184.6978
  0
VERTEX
  8
LAYER_1
 10
75.8473
 20
184.6978
  0
VERTEX
  8
LAYER_1
 10
75.8473
 20
183.7978
  0
VERTEX
  8
LAYER_1
 10
49.7473
 20
183.7978
  0
SEQEND
  0
POLYLINE
  8
LAYER_1
  6
AIGENLINE002
 40
0.0353
 41
0.0353
 66
1
 10
0
 20
0
 30
0
 70
128
  0
VERTEX
  8
LAYER_1
 10
49.7473
 20
171.0978
  0
VERTEX
  8
LAYER_1
 10
75.8473
 20
171.0978
  0
SEQEND
  0
POLYLINE
  8
LAYER_1
  6
AIGENLINE002
 40
0.0353
 41
0.0353
 66
1
 10
0
 20
0
 30
0
 70
129
  0
VERTEX
  8
LAYER_1
 10
49.0473
 20
170.9478
  0
VERTEX
  8
LAYER_1
 10
76.5473
 20
170.9478
  0
VERTEX
  8
LAYER_1
 10
76.5473
 20
169.8728
  0
VERTEX
  8
LAYER_1
 10
49.0473
 20
169.8728
  0
SEQEND
  0
POLYLINE
  8
LAYER_1
  6
AIGENLINE002
 40
0.0353
 41
0.0353
 66
1
 10
0
 20
0
 30
0
 70
129
  0
VERTEX
  8
LAYER_1
 10
48.0223
 20
184.6978
  0
VERTEX
  8
LAYER_1
 10
48.9473
 20
184.6978
  0
VERTEX
  8
LAYER_1
 10
48.9473
 20
169.8728
  0
VERTEX
  8
LAYER_1
 10
48.0223
 20
169.8728
  0
SEQEND
  0
POLYLINE
  8
LAYER_1
  6
AIGENLINE002
 40
0.0353
 41
0.0353
 66
1
 10
0
 20
0
 30
0
 70
129
  0
VERTEX
  8
LAYER_1
 10
76.6473
 20
184.6978
  0
VERTEX
  8
LAYER_1
 10
77.5723
 20
184.6978
  0
VERTEX
  8
LAYER_1
 10
77.5723
 20
169.8728
  0
VERTEX
  8
LAYER_1
 10
76.6473
 20
169.8728
  0
SEQEND
  0
POLYLINE
  8
LAYER_1
 40
0.0353
 41
0.0353
 66
1
 10
0
 20
0
 30
0
 70
1
  0
VERTEX
  8
LAYER_1
 10
47.7973
 20
184.6978
  0
VERTEX
  8
LAYER_1
 10
77.7973
 20
184.6978
  0
VERTEX
  8
LAYER_1
 10
77.7973
 20
169.6978
  0
VERTEX
  8
LAYER_1
 10
47.7973
 20
169.6978
  0
SEQEND
  0
POLYLINE
  8
LAYER_1
  6
AIGENLINE001
 40
0.0353
 41
0.0353
 62
6
 66
1
 10
0
 20
0
 30
0
 70
129
  0
VERTEX
  8
LAYER_1
 10
60.2928
 20
181.5478
 42
-0.414213394
  0
VERTEX
  8
LAYER_1
 10
61.2928
 20
182.5478
  0
VERTEX
  8
LAYER_1
 10
64.2928
 20
182.5478
 42
-0.4142046465
  0
VERTEX
  8
LAYER_1
 10
65.2928
 20
181.5478
  0
VERTEX
  8
LAYER_1
 10
65.2928
 20
174.5478
 42
-0.4142137302
  0
VERTEX
  8
LAYER_1
 10
64.2928
 20
173.5478
  0
VERTEX
  8
LAYER_1
 10
61.2928
 20
173.5478
 42
-0.4142224786
  0
VERTEX
  8
LAYER_1
 10
60.2928
 20
174.5478
  0
SEQEND
  0
TEXT
  8
LAYER_1
 10
67.3161
 20
161.6487
 11
67.3161
 21
161.6487
 40
2.3036
 41
0.5
  1
手洗器用
  0
TEXT
  8
LAYER_1
 10
67.3161
 20
159.1385
 11
67.3161
 21
159.1385
 40
2.7182
 41
0.5
  1
 天板開口100×180
  0
POLYLINE
  8
LAYER_1
 40
0.0353
 41
0.0353
 66
1
 10
0
 20
0
 30
0
  0
VERTEX
  8
LAYER_1
 10
64.6128
 20
174.0477
  0
VERTEX
  8
LAYER_1
 10
68.6929
 20
164.6977
  0
SEQEND
  0
POLYLINE
  8
LAYER_1
  6
AIGENLINE003
 40
0.0353
 41
0.0353
 66
1
 10
0
 20
0
 30
0
 70
128
  0
VERTEX
  8
LAYER_1
 10
62.7928
 20
194.3429
  0
VERTEX
  8
LAYER_1
 10
62.7928
 20
163.9429
  0
SEQEND
  0
TEXT
  8
LAYER_1
 10
84.5204
 20
173.8442
 11
84.5204
 21
173.8442
 40
1.7277
 41
0.5
 50
89.99999999
  1
天板開口
  0
POLYLINE
  8
LAYER_1
 40
0.0353
 41
0.0353
 66
1
 10
0
 20
0
 30
0
  0
VERTEX
  8
LAYER_1
 10
77.7973
 20
187.6978
  0
VERTEX
  8
LAYER_1
 10
77.7973
 20
199.6978
  0
VERTEX
  8
LAYER_1
 10
47.7973
 20
199.6978
  0
VERTEX
  8
LAYER_1
 10
47.7973
 20
187.6978
  0
SEQEND
  0
CIRCLE
  8
LAYER_1
 10
47.7973
 20
199.6978
 40
0.5
  0
CIRCLE
  8
LAYER_1
 10
47.7973
 20
199.6978
 40
0.5
  0
CIRCLE
  8
LAYER_1
 10
77.7973
 20
199.6978
 40
0.5
  0
CIRCLE
  8
LAYER_1
 10
77.7973
 20
199.6978
 40
0.5
  0
TEXT
  8
LAYER_1
 10
60.6383
 20
201.1705
 11
60.6383
 21
201.1705
 40
2.7182
 41
0.5
  1
600
  0
POLYLINE
  8
LAYER_1
 40
0.0353
 41
0.0353
 66
1
 10
0
 20
0
 30
0
  0
VERTEX
  8
LAYER_1
 10
44.7973
 20
184.6978
  0
VERTEX
  8
LAYER_1
 10
30.2973
 20
184.6978
  0
SEQEND
  0
POLYLINE
  8
LAYER_1
 40
0.0353
 41
0.0353
 66
1
 10
0
 20
0
 30
0
  0
VERTEX
  8
LAYER_1
 10
44.7973
 20
169.6978
  0
VERTEX
  8
LAYER_1
 10
30.2973
 20
169.6978
  0
SEQEND
  0
CIRCLE
  8
LAYER_1
 10
30.2973
 20
184.6978
 40
0.5
  0
CIRCLE
  8
LAYER_1
 10
30.2973
 20
184.6978
 40
0.5
  0
POLYLINE
  8
LAYER_1
 40
0.0353
 41
0.0353
 66
1
 10
0
 20
0
 30
0
  0
VERTEX
  8
LAYER_1
 10
30.2973
 20
169.1978
  0
VERTEX
  8
LAYER_1
 10
30.2973
 20
169.6978
  0
VERTEX
  8
LAYER_1
 10
30.2973
 20
184.6978
  0
VERTEX
  8
LAYER_1
 10
30.2973
 20
185.1978
  0
SEQEND
  0
CIRCLE
  8
LAYER_1
 10
30.2973
 20
169.6978
 40
0.5
  0
CIRCLE
  8
LAYER_1
 10
30.2973
 20
169.6978
 40
0.5
  0
TEXT
  8
LAYER_1
 10
28.8245
 20
175.0386
 11
28.8245
 21
175.0386
 40
2.7182
 41
0.5
 50
89.99999999
  1
300
  0
CIRCLE
  8
LAYER_1
 10
88.7973
 20
173.5478
 40
0.5
  0
CIRCLE
  8
LAYER_1
 10
88.7973
 20
173.5478
 40
0.5
  0
POLYLINE
  8
LAYER_1
 40
0.0353
 41
0.0353
 66
1
 10
0
 20
0
 30
0
  0
VERTEX
  8
LAYER_1
 10
88.7973
 20
183.0478
  0
VERTEX
  8
LAYER_1
 10
88.7973
 20
182.5478
  0
VERTEX
  8
LAYER_1
 10
80.5723
 20
182.5478
  0
SEQEND
  0
CIRCLE
  8
LAYER_1
 10
88.7973
 20
182.5478
 40
0.5
  0
CIRCLE
  8
LAYER_1
 10
88.7973
 20
182.5478
 40
0.5
  0
TEXT
  8
LAYER_1
 10
87.3245
 20
175.9309
 11
87.3245
 21
175.9309
 40
2.7182
 41
0.5
 50
89.99999999
  1
180
  0
POLYLINE
  8
LAYER_1
 40
0.0353
 41
0.0353
 66
1
 10
0
 20
0
 30
0
  0
VERTEX
  8
LAYER_1
 10
80.7973
 20
184.6978
  0
VERTEX
  8
LAYER_1
 10
88.7973
 20
184.6978
  0
SEQEND
  0
POLYLINE
  8
LAYER_1
 40
0.0353
 41
0.0353
 66
1
 10
0
 20
0
 30
0
  0
VERTEX
  8
LAYER_1
 10
88.7973
 20
188.195
  0
VERTEX
  8
LAYER_1
 10
88.7973
 20
184.6978
  0
VERTEX
  8
LAYER_1
 10
88.7973
 20
182.5478
  0
VERTEX
  8
LAYER_1
 10
80.7973
 20
182.5478
  0
SEQEND
  0
CIRCLE
  8
LAYER_1
 10
88.7973
 20
184.6978
 40
0.5
  0
CIRCLE
  8
LAYER_1
 10
88.7973
 20
184.6978
 40
0.5
  0
CIRCLE
  8
LAYER_1
 10
88.7973
 20
182.5478
 40
0.5
  0
CIRCLE
  8
LAYER_1
 10
88.7973
 20
182.5478
 40
0.5
  0
TEXT
  8
LAYER_1
 10
87.3245
 20
185.3729
 11
87.3245
 21
185.3729
 40
2.7182
 41
0.5
 50
89.99999999
  1
43
  0
POLYLINE
  8
LAYER_1
 40
0.0353
 41
0.0353
 66
1
 10
0
 20
0
 30
0
  0
VERTEX
  8
LAYER_1
 10
80.7973
 20
169.6978
  0
VERTEX
  8
LAYER_1
 10
88.7973
 20
169.6978
  0
SEQEND
  0
POLYLINE
  8
LAYER_1
 40
0.0353
 41
0.0353
 66
1
 10
0
 20
0
 30
0
  0
VERTEX
  8
LAYER_1
 10
88.7973
 20
173.0478
  0
VERTEX
  8
LAYER_1
 10
88.7973
 20
173.5478
  0
VERTEX
  8
LAYER_1
 10
80.7973
 20
173.5478
  0
VERTEX
  8
LAYER_1
 10
88.7973
 20
173.5478
  0
VERTEX
  8
LAYER_1
 10
88.7973
 20
182.5478
  0
VERTEX
  8
LAYER_1
 10
88.7973
 20
182.0478
  0
SEQEND
  0
CIRCLE
  8
LAYER_1
 10
88.7973
 20
169.6978
 40
0.5
  0
CIRCLE
  8
LAYER_1
 10
88.7973
 20
169.6978
 40
0.5
  0
POLYLINE
  8
LAYER_1
 40
0.0353
 41
0.0353
 66
1
 10
0
 20
0
 30
0
  0
VERTEX
  8
LAYER_1
 10
88.7973
 20
174.0478
  0
VERTEX
  8
LAYER_1
 10
88.7973
 20
173.5478
  0
VERTEX
  8
LAYER_1
 10
88.7973
 20
169.6978
  0
VERTEX
  8
LAYER_1
 10
88.7973
 20
169.1978
  0
SEQEND
  0
CIRCLE
  8
LAYER_1
 10
88.7973
 20
173.5478
 40
0.5
  0
CIRCLE
  8
LAYER_1
 10
88.7973
 20
173.5478
 40
0.5
  0
TEXT
  8
LAYER_1
 10
87.3245
 20
170.2117
 11
87.3245
 21
170.2117
 40
2.7182
 41
0.5
 50
89.99999999
  1
77
  0
INSERT
  8
LAYER_1
  2
AIGNBL01010003
 10
0
 20
0
 30
0
  0
POLYLINE
  8
LAYER_1
 40
0.0353
 41
0.0353
 66
1
 10
0
 20
0
 30
0
 70
1
  0
VERTEX
  8
LAYER_1
 10
47.7973
 20
131.4478
  0
VERTEX
  8
LAYER_1
 10
77.7973
 20
131.4478
  0
VERTEX
  8
LAYER_1
 10
77.7973
 20
131.0478
  0
VERTEX
  8
LAYER_1
 10
47.7973
 20
131.0478
  0
SEQEND
  0
INSERT
  8
LAYER_1
  2
AIGNBL01010004
 10
0
 20
0
 30
0
  0
TEXT
  8
LAYER_7
 10
-26.2556
 20
43.1712
 11
-26.2556
 21
43.1712
 40
3.6126
 41
0.5
  1
仕様
  0
POLYLINE
  8
LAYER_7
 40
0.3528
 41
0.3528
 66
1
 10
0
 20
0
 30
0
  0
VERTEX
  8
LAYER_7
 10
250.6748
 20
51.9507
  0
VERTEX
  8
LAYER_7
 10
-29.3178
 20
51.9507
  0
SEQEND
  0
INSERT
  8
LAYER_7
  2
AIGNBL07010002
 10
0
 20
0
 30
0
  0
POLYLINE
  8
LAYER_7
 40
0.3528
 41
0.3528
 66
1
 10
0
 20
0
 30
0
  0
VERTEX
  8
LAYER_7
 10
-29.3178
 20
229.3369
  0
VERTEX
  8
LAYER_7
 10
-29.3178
 20
34.3283
  0
VERTEX
  8
LAYER_7
 10
250.6748
 20
34.3283
  0
VERTEX
  8
LAYER_7
 10
250.6748
 20
229.3369
  0
VERTEX
  8
LAYER_7
 10
-29.3178
 20
229.3369
  0
SEQEND
  0
POLYLINE
  8
LAYER_7
 40
0.3528
 41
0.3528
 66
1
 10
0
 20
0
 30
0
  0
VERTEX
  8
LAYER_7
 10
250.6748
 20
60.4597
  0
VERTEX
  8
LAYER_7
 10
-29.3178
 20
60.4597
  0
SEQEND
  0
POLYLINE
  8
LAYER_7
 40
0.3528
 41
0.3528
 66
1
 10
0
 20
0
 30
0
  0
VERTEX
  8
LAYER_7
 10
250.6748
 20
43.4416
  0
VERTEX
  8
LAYER_7
 10
143.5341
 20
43.4416
  0
SEQEND
  0
TEXT
  8
LAYER_7
 10
188.1725
 20
45.6854
 11
188.1725
 21
45.6854
 40
4.2629
 41
0.5
  1
-
  0
TEXT
  8
LAYER_7
 10
182.8808
 20
49.4743
 11
182.8808
 21
49.4743
 40
2.4084
 41
0.5
  1
縮尺
  0
POLYLINE
  8
LAYER_7
 40
0.3528
 41
0.3528
 66
1
 10
0
 20
0
 30
0
  0
VERTEX
  8
LAYER_7
 10
181.3526
 20
43.4416
  0
VERTEX
  8
LAYER_7
 10
181.3526
 20
51.9507
  0
SEQEND
  0
TEXT
  8
LAYER_7
 10
144.2327
 20
57.9834
 11
144.2327
 21
57.9834
 40
2.4084
 41
0.5
  1
品番
  0
TEXT
  8
LAYER_7
 10
-28.1609
 20
57.9834
 11
-28.1609
 21
57.9834
 40
2.4084
 41
0.5
  1
品名
  0
TEXT
  8
LAYER_7
 10
144.2327
 20
49.4743
 11
144.2327
 21
49.4743
 40
2.4084
 41
0.5
  1
重量
  0
TEXT
  8
LAYER_7
 10
150.2547
 20
54.1617
 11
150.2547
 21
54.1617
 40
5.2926
 41
0.5
  1
OCA-600/INXXXXXX200XX
  0
POLYLINE
  8
LAYER_7
 40
0.3528
 41
0.3528
 66
1
 10
0
 20
0
 30
0
  0
VERTEX
  8
LAYER_7
 10
143.5341
 20
34.9539
  0
VERTEX
  8
LAYER_7
 10
143.5341
 20
60.4597
  0
SEQEND
  0
TEXT
  8
LAYER_7
 10
-15.3236
 20
54.891
 11
-15.3236
 21
54.891
 40
4.6993
 41
0.5
  1
アサンブラージュミニ手洗キャビネット　間口600mm
  0
TEXT
  8
LAYER_7
 10
-15.6835
 20
45.9736
 11
-15.6835
 21
45.9736
 40
4.028
 41
0.5
  1
●サイズ：W600×D300×H735mm●2本脚●天板：ウルトラセラミック●扉：マットペイント／オレフィンシート
  0
TEXT
  8
LAYER_7
 10
-15.6835
 20
41.2235
 11
-15.6835
 21
41.2235
 40
4.028
 41
0.5
  1
●丁　番：スライド丁番110度開き／ソフトクローズ内蔵タイプ●洗面ボウル・水栓金具・排水目皿・トラップ・止水栓別途
  0
TEXT
  8
LAYER_7
 10
-15.6835
 20
36.4738
 11
-15.6835
 21
36.4738
 40
3.4135
 41
0.5
  1
●受注生産
  0
TEXT
  8
LAYER_7
 10
237.263
 20
63.2582
 11
237.263
 21
63.2582
 40
3.3566
 41
0.5
  1
単位：mm
  0
TEXT
  8
LAYER_7
 10
176.0254
 20
39.5359
 11
176.0254
 21
39.5359
 40
3.8366
 41
0.5
  1
●TEL 0120-65-1232●FAX 06-6532-1580
  0
TEXT
  8
LAYER_7
 10
176.0254
 20
35.9926
 11
176.0254
 21
35.9926
 40
3.8366
 41
0.5
  1
hits@hiratatile.co.jp
  0
INSERT
  8
LAYER_7
  2
AIGNBL07010003
 10
0
 20
0
 30
0
  0
TEXT
  8
LAYER_7
 10
157.2803
 20
46.4612
 11
157.2803
 21
46.4612
 40
4.2629
 41
0.5
  1
-
  0
POLYLINE
  8
LAYER_7
  6
AIGENLINE001
 40
0.1058
 41
0.1058
 62
4
 66
1
 10
0
 20
0
 30
0
 70
129
  0
VERTEX
  8
LAYER_7
 10
51.7473
 20
125.1478
  0
VERTEX
  8
LAYER_7
 10
73.8473
 20
125.1478
  0
VERTEX
  8
LAYER_7
 10
73.8473
 20
110.1478
  0
VERTEX
  8
LAYER_7
 10
51.7473
 20
110.1478
  0
SEQEND
  0
POLYLINE
  8
LAYER_7
  6
AIGENLINE001
 40
0.1058
 41
0.1058
 62
4
 66
1
 10
0
 20
0
 30
0
 70
128
  0
VERTEX
  8
LAYER_7
 10
51.7473
 20
125.1478
  0
VERTEX
  8
LAYER_7
 10
73.8473
 20
110.1478
  0
SEQEND
  0
POLYLINE
  8
LAYER_7
  6
AIGENLINE001
 40
0.1058
 41
0.1058
 62
4
 66
1
 10
0
 20
0
 30
0
 70
128
  0
VERTEX
  8
LAYER_7
 10
73.8473
 20
125.1478
  0
VERTEX
  8
LAYER_7
 10
51.7473
 20
110.1478
  0
SEQEND
  0
POLYLINE
  8
LAYER_7
 40
0.0353
 41
0.0353
 66
1
 10
0
 20
0
 30
0
  0
VERTEX
  8
LAYER_7
 10
54.2474
 20
117.8728
  0
VERTEX
  8
LAYER_7
 10
40.7972
 20
120.6227
  0
SEQEND
  0
POLYLINE
  8
LAYER_7
 40
0.05
 41
0.05
 66
1
 10
0
 20
0
 30
0
 70
1
  0
VERTEX
  8
LAYER_7
 10
54.2474
 20
117.8728
  0
VERTEX
  8
LAYER_7
 10
51.9987
 20
117.7549
  0
VERTEX
  8
LAYER_7
 10
52.241
 20
118.8951
  0
SEQEND
  0
POLYLINE
  8
LAYER_7
 40
0.0353
 41
0.0353
 66
1
 10
0
 20
0
 30
0
  0
VERTEX
  8
LAYER_7
 10
142.0154
 20
94.6978
  0
VERTEX
  8
LAYER_7
 10
177.0154
 20
94.6978
  0
VERTEX
  8
LAYER_7
 10
177.0154
 20
150.2978
  0
SEQEND
  0
POLYLINE
  8
LAYER_7
 40
0.0353
 41
0.0353
 66
1
 10
0
 20
0
 30
0
 70
1
  0
VERTEX
  8
LAYER_7
 10
164.7654
 20
105.4978
  0
VERTEX
  8
LAYER_7
 10
177.0154
 20
105.4978
  0
VERTEX
  8
LAYER_7
 10
177.0154
 20
104.6978
  0
VERTEX
  8
LAYER_7
 10
164.7654
 20
104.6978
  0
SEQEND
  0
POLYLINE
  8
LAYER_7
 40
0.0353
 41
0.0353
 66
1
 10
0
 20
0
 30
0
 70
1
  0
VERTEX
  8
LAYER_7
 10
162.0154
 20
131.4478
  0
VERTEX
  8
LAYER_7
 10
177.0154
 20
131.4478
  0
VERTEX
  8
LAYER_7
 10
177.0154
 20
131.0478
  0
VERTEX
  8
LAYER_7
 10
162.0154
 20
131.0478
  0
SEQEND
  0
POLYLINE
  8
LAYER_7
 40
0.0353
 41
0.0353
 66
1
 10
0
 20
0
 30
0
  0
VERTEX
  8
LAYER_7
 10
163.4154
 20
131.0478
  0
VERTEX
  8
LAYER_7
 10
163.4154
 20
130.1478
  0
SEQEND
  0
POLYLINE
  8
LAYER_7
 40
0.0353
 41
0.0353
 66
1
 10
0
 20
0
 30
0
 70
1
  0
VERTEX
  8
LAYER_7
 10
163.7654
 20
131.0478
  0
VERTEX
  8
LAYER_7
 10
177.0154
 20
131.0478
  0
VERTEX
  8
LAYER_7
 10
177.0154
 20
130.1478
  0
VERTEX
  8
LAYER_7
 10
163.7654
 20
130.1478
  0
SEQEND
  0
POLYLINE
  8
LAYER_7
 40
0.0353
 41
0.0353
 66
1
 10
0
 20
0
 30
0
 70
1
  0
VERTEX
  8
LAYER_7
 10
163.3654
 20
131.0478
  0
VERTEX
  8
LAYER_7
 10
163.7654
 20
131.0478
  0
VERTEX
  8
LAYER_7
 10
163.7654
 20
130.1478
  0
VERTEX
  8
LAYER_7
 10
163.3654
 20
130.1478
  0
SEQEND
  0
POLYLINE
  8
LAYER_7
 40
0.0353
 41
0.0353
 66
1
 10
0
 20
0
 30
0
 70
1
  0
VERTEX
  8
LAYER_7
 10
163.4154
 20
130.1478
  0
VERTEX
  8
LAYER_7
 10
177.0154
 20
130.1478
  0
VERTEX
  8
LAYER_7
 10
177.0154
 20
105.4978
  0
VERTEX
  8
LAYER_7
 10
163.4154
 20
105.4978
  0
SEQEND
  0
POLYLINE
  8
LAYER_7
 40
0.0353
 41
0.0353
 66
1
 10
0
 20
0
 30
0
 70
1
  0
VERTEX
  8
LAYER_7
 10
163.4154
 20
106.2978
  0
VERTEX
  8
LAYER_7
 10
177.0154
 20
106.2978
  0
VERTEX
  8
LAYER_7
 10
177.0154
 20
105.4978
  0
VERTEX
  8
LAYER_7
 10
163.4154
 20
105.4978
  0
SEQEND
  0
POLYLINE
  8
LAYER_7
 40
0.0353
 41
0.0353
 66
1
 10
0
 20
0
 30
0
 70
1
  0
VERTEX
  8
LAYER_7
 10
176.1154
 20
130.1478
  0
VERTEX
  8
LAYER_7
 10
176.2654
 20
130.1478
  0
VERTEX
  8
LAYER_7
 10
176.2654
 20
106.0478
  0
VERTEX
  8
LAYER_7
 10
176.1154
 20
106.0478
  0
SEQEND
  0
POLYLINE
  8
LAYER_7
 40
0.0353
 41
0.0353
 66
1
 10
0
 20
0
 30
0
 70
1
  0
VERTEX
  8
LAYER_7
 10
176.2654
 20
109.0478
  0
VERTEX
  8
LAYER_7
 10
177.0154
 20
109.0478
  0
VERTEX
  8
LAYER_7
 10
177.0154
 20
106.2978
  0
VERTEX
  8
LAYER_7
 10
176.2654
 20
106.2978
  0
SEQEND
  0
POLYLINE
  8
LAYER_7
 40
0.0353
 41
0.0353
 66
1
 10
0
 20
0
 30
0
  0
VERTEX
  8
LAYER_7
 10
177.0154
 20
109.0478
  0
VERTEX
  8
LAYER_7
 10
176.2654
 20
106.2978
  0
SEQEND
  0
POLYLINE
  8
LAYER_7
 40
0.0353
 41
0.0353
 66
1
 10
0
 20
0
 30
0
 70
1
  0
VERTEX
  8
LAYER_7
 10
176.2654
 20
130.1478
  0
VERTEX
  8
LAYER_7
 10
177.0154
 20
130.1478
  0
VERTEX
  8
LAYER_7
 10
177.0154
 20
127.3978
  0
VERTEX
  8
LAYER_7
 10
176.2654
 20
127.3978
  0
SEQEND
  0
POLYLINE
  8
LAYER_7
 40
0.0353
 41
0.0353
 66
1
 10
0
 20
0
 30
0
  0
VERTEX
  8
LAYER_7
 10
177.0154
 20
130.1478
  0
VERTEX
  8
LAYER_7
 10
176.2654
 20
127.3978
  0
SEQEND
  0
POLYLINE
  8
LAYER_7
 40
0.0353
 41
0.0353
 66
1
 10
0
 20
0
 30
0
 70
1
  0
VERTEX
  8
LAYER_7
 10
163.4154
 20
130.1478
  0
VERTEX
  8
LAYER_7
 10
164.4154
 20
130.1478
  0
VERTEX
  8
LAYER_7
 10
164.4154
 20
127.1478
  0
VERTEX
  8
LAYER_7
 10
163.4154
 20
127.1478
  0
SEQEND
  0
POLYLINE
  8
LAYER_7
 40
0.0353
 41
0.0353
 66
1
 10
0
 20
0
 30
0
  0
VERTEX
  8
LAYER_7
 10
163.2654
 20
127.6478
  0
VERTEX
  8
LAYER_7
 10
163.2654
 20
105.5978
  0
VERTEX
  8
LAYER_7
 10
162.1904
 20
105.5978
  0
VERTEX
  8
LAYER_7
 10
162.1904
 20
127.6478
  0
SEQEND
  0
POLYLINE
  8
LAYER_7
 40
0.0353
 41
0.0353
 66
1
 10
0
 20
0
 30
0
 70
1
  0
VERTEX
  8
LAYER_7
 10
176.2654
 20
125.1478
  0
VERTEX
  8
LAYER_7
 10
177.0154
 20
125.1478
  0
VERTEX
  8
LAYER_7
 10
177.0154
 20
110.1478
  0
VERTEX
  8
LAYER_7
 10
176.2654
 20
110.1478
  0
SEQEND
  0
POLYLINE
  8
LAYER_7
 40
0.0353
 41
0.0353
 66
1
 10
0
 20
0
 30
0
 70
1
  0
VERTEX
  8
LAYER_7
 10
176.1154
 20
125.1478
  0
VERTEX
  8
LAYER_7
 10
176.2654
 20
125.1478
  0
VERTEX
  8
LAYER_7
 10
176.2654
 20
110.1478
  0
VERTEX
  8
LAYER_7
 10
176.1154
 20
110.1478
  0
SEQEND
  0
POLYLINE
  8
LAYER_7
 40
0.0353
 41
0.0353
 66
1
 10
0
 20
0
 30
0
 70
1
  0
VERTEX
  8
LAYER_7
 10
176.2654
 20
127.4978
  0
VERTEX
  8
LAYER_7
 10
177.0154
 20
127.4978
  0
VERTEX
  8
LAYER_7
 10
177.0154
 20
125.1478
  0
VERTEX
  8
LAYER_7
 10
176.2654
 20
125.1478
  0
SEQEND
  0
POLYLINE
  8
LAYER_7
 40
0.0353
 41
0.0353
 66
1
 10
0
 20
0
 30
0
 70
1
  0
VERTEX
  8
LAYER_7
 10
176.2654
 20
110.1478
  0
VERTEX
  8
LAYER_7
 10
177.0154
 20
110.1478
  0
VERTEX
  8
LAYER_7
 10
177.0154
 20
108.8978
  0
VERTEX
  8
LAYER_7
 10
176.2654
 20
108.8978
  0
SEQEND
  0
POLYLINE
  8
LAYER_7
 40
0.0353
 41
0.0353
 66
1
 10
0
 20
0
 30
0
 70
1
  0
VERTEX
  8
LAYER_7
 10
167.0154
 20
131.4478
  0
VERTEX
  8
LAYER_7
 10
172.0154
 20
131.4478
  0
VERTEX
  8
LAYER_7
 10
172.0154
 20
130.1478
  0
VERTEX
  8
LAYER_7
 10
167.0154
 20
130.1478
  0
SEQEND
  0
POLYLINE
  8
LAYER_7
 40
0.0353
 41
0.0353
 66
1
 10
0
 20
0
 30
0
 70
1
  0
VERTEX
  8
LAYER_7
 10
164.7654
 20
104.6978
  0
VERTEX
  8
LAYER_7
 10
169.7654
 20
104.6978
  0
VERTEX
  8
LAYER_7
 10
169.7654
 20
104.4728
  0
VERTEX
  8
LAYER_7
 10
164.7654
 20
104.4728
  0
SEQEND
  0
POLYLINE
  8
LAYER_7
 40
0.0353
 41
0.0353
 66
1
 10
0
 20
0
 30
0
 70
1
  0
VERTEX
  8
LAYER_7
 10
166.7654
 20
94.9978
  0
VERTEX
  8
LAYER_7
 10
167.7654
 20
94.9978
  0
VERTEX
  8
LAYER_7
 10
167.7654
 20
94.6978
  0
VERTEX
  8
LAYER_7
 10
166.7654
 20
94.6978
  0
SEQEND
  0
POLYLINE
  8
LAYER_7
 40
0.0353
 41
0.0353
 66
1
 10
0
 20
0
 30
0
 70
1
  0
VERTEX
  8
LAYER_7
 10
166.7229
 20
104.4728
  0
VERTEX
  8
LAYER_7
 10
167.8079
 20
104.4728
  0
VERTEX
  8
LAYER_7
 10
167.8079
 20
94.9978
  0
VERTEX
  8
LAYER_7
 10
166.7229
 20
94.9978
  0
SEQEND
  0
POLYLINE
  8
LAYER_7
 40
0.0353
 41
0.0353
 66
1
 10
0
 20
0
 30
0
 70
1
  0
VERTEX
  8
LAYER_7
 10
70.0473
 20
104.6978
  0
VERTEX
  8
LAYER_7
 10
75.0473
 20
104.6978
  0
VERTEX
  8
LAYER_7
 10
75.0473
 20
104.4728
  0
VERTEX
  8
LAYER_7
 10
70.0473
 20
104.4728
  0
SEQEND
  0
POLYLINE
  8
LAYER_7
 40
0.0353
 41
0.0353
 66
1
 10
0
 20
0
 30
0
 70
1
  0
VERTEX
  8
LAYER_7
 10
72.0473
 20
94.9978
  0
VERTEX
  8
LAYER_7
 10
73.0473
 20
94.9978
  0
VERTEX
  8
LAYER_7
 10
73.0473
 20
94.6978
  0
VERTEX
  8
LAYER_7
 10
72.0473
 20
94.6978
  0
SEQEND
  0
POLYLINE
  8
LAYER_7
 40
0.0353
 41
0.0353
 66
1
 10
0
 20
0
 30
0
 70
1
  0
VERTEX
  8
LAYER_7
 10
72.0048
 20
104.4728
  0
VERTEX
  8
LAYER_7
 10
73.0898
 20
104.4728
  0
VERTEX
  8
LAYER_7
 10
73.0898
 20
94.9978
  0
VERTEX
  8
LAYER_7
 10
72.0048
 20
94.9978
  0
SEQEND
  0
POLYLINE
  8
LAYER_7
 40
0.0353
 41
0.0353
 66
1
 10
0
 20
0
 30
0
 70
1
  0
VERTEX
  8
LAYER_7
 10
50.5473
 20
105.4978
  0
VERTEX
  8
LAYER_7
 10
75.0473
 20
105.4978
  0
VERTEX
  8
LAYER_7
 10
75.0473
 20
104.6978
  0
VERTEX
  8
LAYER_7
 10
50.5473
 20
104.6978
  0
SEQEND
  0
POLYLINE
  8
LAYER_7
 40
0.0353
 41
0.0353
 66
1
 10
0
 20
0
 30
0
 70
1
  0
VERTEX
  8
LAYER_7
 10
50.5473
 20
104.6978
  0
VERTEX
  8
LAYER_7
 10
55.5473
 20
104.6978
  0
VERTEX
  8
LAYER_7
 10
55.5473
 20
104.4728
  0
VERTEX
  8
LAYER_7
 10
50.5473
 20
104.4728
  0
SEQEND
  0
POLYLINE
  8
LAYER_7
 40
0.0353
 41
0.0353
 66
1
 10
0
 20
0
 30
0
 70
1
  0
VERTEX
  8
LAYER_7
 10
52.5473
 20
94.9978
  0
VERTEX
  8
LAYER_7
 10
53.5473
 20
94.9978
  0
VERTEX
  8
LAYER_7
 10
53.5473
 20
94.6978
  0
VERTEX
  8
LAYER_7
 10
52.5473
 20
94.6978
  0
SEQEND
  0
POLYLINE
  8
LAYER_7
 40
0.0353
 41
0.0353
 66
1
 10
0
 20
0
 30
0
 70
1
  0
VERTEX
  8
LAYER_7
 10
52.5048
 20
104.4728
  0
VERTEX
  8
LAYER_7
 10
53.5898
 20
104.4728
  0
VERTEX
  8
LAYER_7
 10
53.5898
 20
94.9978
  0
VERTEX
  8
LAYER_7
 10
52.5048
 20
94.9978
  0
SEQEND
  0
POLYLINE
  8
LAYER_7
 40
0.0353
 41
0.0353
 62
2
 66
1
 10
0
 20
0
 30
0
 70
1
  0
VERTEX
  8
LAYER_7
 10
48.9473
 20
130.1478
  0
VERTEX
  8
LAYER_7
 10
76.6473
 20
130.1478
  0
VERTEX
  8
LAYER_7
 10
76.6473
 20
105.4978
  0
VERTEX
  8
LAYER_7
 10
48.9473
 20
105.4978
  0
SEQEND
  0
POLYLINE
  8
LAYER_7
  6
AIGENLINE004
 40
0.0353
 41
0.0353
 66
1
 10
0
 20
0
 30
0
 70
129
  0
VERTEX
  8
LAYER_7
 10
48.9473
 20
130.1478
  0
VERTEX
  8
LAYER_7
 10
49.7473
 20
130.1478
  0
VERTEX
  8
LAYER_7
 10
49.7473
 20
105.4978
  0
VERTEX
  8
LAYER_7
 10
48.9473
 20
105.4978
  0
SEQEND
  0
POLYLINE
  8
LAYER_7
  6
AIGENLINE004
 40
0.0353
 41
0.0353
 66
1
 10
0
 20
0
 30
0
 70
129
  0
VERTEX
  8
LAYER_7
 10
75.8473
 20
130.1478
  0
VERTEX
  8
LAYER_7
 10
76.6473
 20
130.1478
  0
VERTEX
  8
LAYER_7
 10
76.6473
 20
105.4978
  0
VERTEX
  8
LAYER_7
 10
75.8473
 20
105.4978
  0
SEQEND
  0
POLYLINE
  8
LAYER_7
  6
AIGENLINE004
 40
0.0353
 41
0.0353
 66
1
 10
0
 20
0
 30
0
 70
129
  0
VERTEX
  8
LAYER_7
 10
49.7473
 20
106.2978
  0
VERTEX
  8
LAYER_7
 10
75.8473
 20
106.2978
  0
VERTEX
  8
LAYER_7
 10
75.8473
 20
105.4978
  0
VERTEX
  8
LAYER_7
 10
49.7473
 20
105.4978
  0
SEQEND
  0
POLYLINE
  8
LAYER_7
  6
AIGENLINE004
 40
0.0353
 41
0.0353
 66
1
 10
0
 20
0
 30
0
 70
128
  0
VERTEX
  8
LAYER_7
 10
49.7473
 20
127.1478
  0
VERTEX
  8
LAYER_7
 10
75.8473
 20
127.1478
  0
SEQEND
  0
POLYLINE
  8
LAYER_7
 40
0.0353
 41
0.0353
 66
1
 10
0
 20
0
 30
0
 70
1
  0
VERTEX
  8
LAYER_7
 10
49.0473
 20
130.1478
  0
VERTEX
  8
LAYER_7
 10
76.5473
 20
130.1478
  0
VERTEX
  8
LAYER_7
 10
76.5473
 20
105.5978
  0
VERTEX
  8
LAYER_7
 10
49.0473
 20
105.5978
  0
SEQEND
  0
POLYLINE
  8
LAYER_7
 40
0.0353
 41
0.0353
 66
1
 10
0
 20
0
 30
0
  0
VERTEX
  8
LAYER_7
 10
62.7973
 20
130.1478
  0
VERTEX
  8
LAYER_7
 10
62.7973
 20
105.5978
  0
SEQEND
  0
POLYLINE
  8
LAYER_7
  6
AIGENLINE005
 40
0.0353
 41
0.0353
 66
1
 10
0
 20
0
 30
0
 70
129
  0
VERTEX
  8
LAYER_7
 10
62.7973
 20
130.1478
  0
VERTEX
  8
LAYER_7
 10
76.5473
 20
117.8728
  0
VERTEX
  8
LAYER_7
 10
62.7973
 20
105.5978
  0
VERTEX
  8
LAYER_7
 10
49.0473
 20
117.8728
  0
SEQEND
  0
POLYLINE
  8
LAYER_7
 40
0.0353
 41
0.0353
 66
1
 10
0
 20
0
 30
0
 70
1
  0
VERTEX
  8
LAYER_7
 10
48.0223
 20
130.1478
  0
VERTEX
  8
LAYER_7
 10
48.9473
 20
130.1478
  0
VERTEX
  8
LAYER_7
 10
48.9473
 20
105.4978
  0
VERTEX
  8
LAYER_7
 10
48.0223
 20
105.4978
  0
SEQEND
  0
POLYLINE
  8
LAYER_7
 40
0.0353
 41
0.0353
 66
1
 10
0
 20
0
 30
0
 70
1
  0
VERTEX
  8
LAYER_7
 10
76.6473
 20
130.1478
  0
VERTEX
  8
LAYER_7
 10
77.5723
 20
130.1478
  0
VERTEX
  8
LAYER_7
 10
77.5723
 20
105.4978
  0
VERTEX
  8
LAYER_7
 10
76.6473
 20
105.4978
  0
SEQEND
  0
POLYLINE
  8
LAYER_7
 40
0.0353
 41
0.0353
 66
1
 10
0
 20
0
 30
0
 70
1
  0
VERTEX
  8
LAYER_7
 10
48.9473
 20
131.0478
  0
VERTEX
  8
LAYER_7
 10
76.6473
 20
131.0478
  0
VERTEX
  8
LAYER_7
 10
76.6473
 20
130.1478
  0
VERTEX
  8
LAYER_7
 10
48.9473
 20
130.1478
  0
SEQEND
  0
POLYLINE
  8
LAYER_7
 40
0.0353
 41
0.0353
 66
1
 10
0
 20
0
 30
0
 70
1
  0
VERTEX
  8
LAYER_7
 10
47.7973
 20
131.4478
  0
VERTEX
  8
LAYER_7
 10
77.7973
 20
131.4478
  0
VERTEX
  8
LAYER_7
 10
77.7973
 20
131.0478
  0
VERTEX
  8
LAYER_7
 10
47.7973
 20
131.0478
  0
SEQEND
  0
POLYLINE
  8
LAYER_7
 40
0.0353
 41
0.0353
 66
1
 10
0
 20
0
 30
0
  0
VERTEX
  8
LAYER_7
 10
19.0473
 20
94.6978
  0
VERTEX
  8
LAYER_7
 10
106.5473
 20
94.6978
  0
SEQEND
  0
POLYLINE
  8
LAYER_7
 40
0.05
 41
0.05
 66
1
 10
0
 20
0
 30
0
 70
1
  0
VERTEX
  8
LAYER_7
 10
50.6039
 20
104.6978
  0
VERTEX
  8
LAYER_7
 10
50.0211
 20
102.5227
  0
VERTEX
  8
LAYER_7
 10
49.0116
 20
103.1055
  0
SEQEND
  0
POLYLINE
  8
LAYER_7
 40
0.0353
 41
0.0353
 66
1
 10
0
 20
0
 30
0
  0
VERTEX
  8
LAYER_7
 10
43.2039
 20
100.8978
  0
VERTEX
  8
LAYER_7
 10
48.41
 20
100.8978
  0
VERTEX
  8
LAYER_7
 10
50.6039
 20
104.6978
  0
SEQEND
  0
POLYLINE
  8
LAYER_7
  6
AIGENLINE003
 40
0.0353
 41
0.0353
 66
1
 10
0
 20
0
 30
0
 70
128
  0
VERTEX
  8
LAYER_7
 10
43.4923
 20
129.3978
  0
VERTEX
  8
LAYER_7
 10
102.2423
 20
129.3978
  0
SEQEND
  0
POLYLINE
  8
LAYER_7
  6
AIGENLINE003
 40
0.0353
 41
0.0353
 66
1
 10
0
 20
0
 30
0
 70
128
  0
VERTEX
  8
LAYER_7
 10
43.4923
 20
107.7478
  0
VERTEX
  8
LAYER_7
 10
102.2423
 20
107.7478
  0
SEQEND
  0
POLYLINE
  8
LAYER_7
 40
0.05
 41
0.05
 66
1
 10
0
 20
0
 30
0
 70
1
  0
VERTEX
  8
LAYER_7
 10
89.0055
 20
131.4428
  0
VERTEX
  8
LAYER_7
 10
90.0967
 20
129.5528
  0
VERTEX
  8
LAYER_7
 10
91.1879
 20
131.4428
  0
SEQEND
  0
TEXT
  8
LAYER_7
 10
82.5992
 20
132.0477
 11
82.5992
 21
132.0477
 40
2.2853
 41
0.5
  1
取付け下地芯
  0
POLYLINE
  8
LAYER_7
 40
0.05
 41
0.05
 66
1
 10
0
 20
0
 30
0
 70
1
  0
VERTEX
  8
LAYER_7
 10
89.0055
 20
110.1978
  0
VERTEX
  8
LAYER_7
 10
90.0967
 20
108.3078
  0
VERTEX
  8
LAYER_7
 10
91.1879
 20
110.1978
  0
SEQEND
  0
TEXT
  8
LAYER_7
 10
82.5992
 20
111.0474
 11
82.5992
 21
111.0474
 40
2.2853
 41
0.5
  1
取付け下地芯
  0
POLYLINE
  8
LAYER_7
 40
0.0353
 41
0.0353
 66
1
 10
0
 20
0
 30
0
 70
1
  0
VERTEX
  8
LAYER_7
 10
170.5154
 20
106.2978
  0
VERTEX
  8
LAYER_7
 10
175.5154
 20
106.2978
  0
VERTEX
  8
LAYER_7
 10
175.5154
 20
104.6978
  0
VERTEX
  8
LAYER_7
 10
170.5154
 20
104.6978
  0
SEQEND
  0
POLYLINE
  8
LAYER_7
 40
0.0353
 41
0.0353
 66
1
 10
0
 20
0
 30
0
 70
1
  0
VERTEX
  8
LAYER_7
 10
169.2654
 20
106.4978
  0
VERTEX
  8
LAYER_7
 10
169.2654
 20
106.2978
  0
VERTEX
  8
LAYER_7
 10
176.0154
 20
106.2978
  0
VERTEX
  8
LAYER_7
 10
176.0154
 20
106.4978
  0
SEQEND
  0
POLYLINE
  8
LAYER_7
 40
0.0353
 41
0.0353
 66
1
 10
0
 20
0
 30
0
 70
1
  0
VERTEX
  8
LAYER_7
 10
176.1154
 20
126.3978
  0
VERTEX
  8
LAYER_7
 10
175.9154
 20
126.3978
  0
VERTEX
  8
LAYER_7
 10
175.9154
 20
108.8978
  0
VERTEX
  8
LAYER_7
 10
176.1154
 20
108.8978
  0
SEQEND
  0
POLYLINE
  8
LAYER_7
 40
0.0353
 41
0.0353
 66
1
 10
0
 20
0
 30
0
  0
VERTEX
  8
LAYER_7
 10
162.0154
 20
91.6978
  0
VERTEX
  8
LAYER_7
 10
162.0154
 20
69.6978
  0
SEQEND
  0
CIRCLE
  8
LAYER_7
 10
177.0154
 20
69.6978
 40
0.5
  0
CIRCLE
  8
LAYER_7
 10
177.0154
 20
69.6978
 40
0.5
  0
POLYLINE
  8
LAYER_7
 40
0.0353
 41
0.0353
 66
1
 10
0
 20
0
 30
0
  0
VERTEX
  8
LAYER_7
 10
161.5154
 20
69.6978
  0
VERTEX
  8
LAYER_7
 10
162.0154
 20
69.6978
  0
VERTEX
  8
LAYER_7
 10
177.0154
 20
69.6978
  0
SEQEND
  0
CIRCLE
  8
LAYER_7
 10
162.0154
 20
69.6978
 40
0.5
  0
CIRCLE
  8
LAYER_7
 10
162.0154
 20
69.6978
 40
0.5
  0
TEXT
  8
LAYER_7
 10
167.3565
 20
71.1708
 11
167.3565
 21
71.1708
 40
2.7182
 41
0.5
  1
300
  0
POLYLINE
  8
LAYER_7
 40
0.0353
 41
0.0353
 66
1
 10
0
 20
0
 30
0
  0
VERTEX
  8
LAYER_7
 10
177.0154
 20
77.1978
  0
VERTEX
  8
LAYER_7
 10
177.0154
 20
91.6978
  0
VERTEX
  8
LAYER_7
 10
177.0154
 20
69.6978
  0
VERTEX
  8
LAYER_7
 10
177.5154
 20
69.6978
  0
SEQEND
  0
POLYLINE
  8
LAYER_7
 40
0.0353
 41
0.0353
 66
1
 10
0
 20
0
 30
0
  0
VERTEX
  8
LAYER_7
 10
177.5154
 20
77.1978
  0
VERTEX
  8
LAYER_7
 10
177.0154
 20
77.1978
  0
VERTEX
  8
LAYER_7
 10
162.1904
 20
77.1978
  0
VERTEX
  8
LAYER_7
 10
162.1904
 20
91.6978
  0
SEQEND
  0
CIRCLE
  8
LAYER_7
 10
177.0154
 20
77.1978
 40
0.5
  0
CIRCLE
  8
LAYER_7
 10
177.0154
 20
77.1978
 40
0.5
  0
CIRCLE
  8
LAYER_7
 10
162.1904
 20
77.1978
 40
0.5
  0
CIRCLE
  8
LAYER_7
 10
162.1904
 20
77.1978
 40
0.5
  0
TEXT
  8
LAYER_7
 10
166.0046
 20
78.6707
 11
166.0046
 21
78.6707
 40
2.7182
 41
0.5
  1
296.5
  0
POLYLINE
  8
LAYER_7
 40
0.0353
 41
0.0353
 66
1
 10
0
 20
0
 30
0
  0
VERTEX
  8
LAYER_7
 10
162.0154
 20
88.6978
  0
VERTEX
  8
LAYER_7
 10
162.0154
 20
77.1978
  0
SEQEND
  0
POLYLINE
  8
LAYER_7
 40
0.0353
 41
0.0353
 66
1
 10
0
 20
0
 30
0
  0
VERTEX
  8
LAYER_7
 10
162.1904
 20
88.6978
  0
VERTEX
  8
LAYER_7
 10
162.1904
 20
77.1978
  0
VERTEX
  8
LAYER_7
 10
161.6904
 20
77.1978
  0
SEQEND
  0
CIRCLE
  8
LAYER_7
 10
162.0154
 20
77.1978
 40
0.5
  0
CIRCLE
  8
LAYER_7
 10
162.0154
 20
77.1978
 40
0.5
  0
POLYLINE
  8
LAYER_7
 40
0.0353
 41
0.0353
 66
1
 10
0
 20
0
 30
0
  0
VERTEX
  8
LAYER_7
 10
162.6904
 20
77.1978
  0
VERTEX
  8
LAYER_7
 10
162.1904
 20
77.1978
  0
VERTEX
  8
LAYER_7
 10
162.0154
 20
77.1978
  0
VERTEX
  8
LAYER_7
 10
156.5474
 20
77.1978
  0
SEQEND
  0
CIRCLE
  8
LAYER_7
 10
162.1904
 20
77.1978
 40
0.5
  0
CIRCLE
  8
LAYER_7
 10
162.1904
 20
77.1978
 40
0.5
  0
TEXT
  8
LAYER_7
 10
156.5472
 20
78.6707
 11
156.5472
 21
78.6707
 40
2.7182
 41
0.5
  1
3.5
  0
CIRCLE
  8
LAYER_7
 10
197.0154
 20
94.6978
 40
0.5
  0
CIRCLE
  8
LAYER_7
 10
197.0154
 20
94.6978
 40
0.5
  0
CIRCLE
  8
LAYER_7
 10
197.0154
 20
131.4478
 40
0.5
  0
CIRCLE
  8
LAYER_7
 10
197.0154
 20
131.4478
 40
0.5
  0
TEXT
  8
LAYER_7
 10
195.5422
 20
110.9137
 11
195.5422
 21
110.9137
 40
2.7182
 41
0.5
 50
89.99999999
  1
735
  0
POLYLINE
  8
LAYER_7
 40
0.0353
 41
0.0353
 66
1
 10
0
 20
0
 30
0
  0
VERTEX
  8
LAYER_7
 10
180.0154
 20
137.1978
  0
VERTEX
  8
LAYER_7
 10
197.0154
 20
137.1978
  0
SEQEND
  0
CIRCLE
  8
LAYER_7
 10
197.0154
 20
131.4478
 40
0.5
  0
CIRCLE
  8
LAYER_7
 10
197.0154
 20
131.4478
 40
0.5
  0
POLYLINE
  8
LAYER_7
 40
0.0353
 41
0.0353
 66
1
 10
0
 20
0
 30
0
  0
VERTEX
  8
LAYER_7
 10
197.0154
 20
137.6978
  0
VERTEX
  8
LAYER_7
 10
197.0154
 20
137.1978
  0
VERTEX
  8
LAYER_7
 10
197.0154
 20
131.4478
  0
VERTEX
  8
LAYER_7
 10
180.0154
 20
131.4478
  0
VERTEX
  8
LAYER_7
 10
197.0154
 20
131.4478
  0
SEQEND
  0
CIRCLE
  8
LAYER_7
 10
197.0154
 20
137.1978
 40
0.5
  0
CIRCLE
  8
LAYER_7
 10
197.0154
 20
137.1978
 40
0.5
  0
TEXT
  8
LAYER_7
 10
195.5422
 20
132.1638
 11
195.5422
 21
132.1638
 40
2.7182
 41
0.5
 50
89.99999999
  1
115
  0
POLYLINE
  8
LAYER_7
 40
0.0353
 41
0.0353
 66
1
 10
0
 20
0
 30
0
  0
VERTEX
  8
LAYER_7
 10
160.4671
 20
94.6978
  0
VERTEX
  8
LAYER_7
 10
148.5154
 20
94.6978
  0
VERTEX
  8
LAYER_7
 10
148.5154
 20
137.1978
  0
VERTEX
  8
LAYER_7
 10
160.6654
 20
137.1978
  0
SEQEND
  0
CIRCLE
  8
LAYER_7
 10
148.5154
 20
137.1978
 40
0.5
  0
CIRCLE
  8
LAYER_7
 10
148.5154
 20
137.1978
 40
0.5
  0
CIRCLE
  8
LAYER_7
 10
148.5154
 20
94.6978
 40
0.5
  0
CIRCLE
  8
LAYER_7
 10
148.5154
 20
94.6978
 40
0.5
  0
TEXT
  8
LAYER_7
 10
147.0425
 20
113.7887
 11
147.0425
 21
113.7887
 40
2.7182
 41
0.5
 50
89.99999999
  1
850
  0
POLYLINE
  8
LAYER_7
 40
0.0353
 41
0.0353
 66
1
 10
0
 20
0
 30
0
  0
VERTEX
  8
LAYER_7
 10
189.5154
 20
94.6978
  0
VERTEX
  8
LAYER_7
 10
180.0154
 20
94.6978
  0
VERTEX
  8
LAYER_7
 10
197.0154
 20
94.6978
  0
VERTEX
  8
LAYER_7
 10
197.0154
 20
131.4478
  0
VERTEX
  8
LAYER_7
 10
197.0154
 20
130.9478
  0
SEQEND
  0
CIRCLE
  8
LAYER_7
 10
189.5154
 20
104.6978
 40
0.5
  0
CIRCLE
  8
LAYER_7
 10
189.5154
 20
104.6978
 40
0.5
  0
CIRCLE
  8
LAYER_7
 10
189.5154
 20
94.6978
 40
0.5
  0
CIRCLE
  8
LAYER_7
 10
189.5154
 20
94.6978
 40
0.5
  0
TEXT
  8
LAYER_7
 10
188.0422
 20
97.5388
 11
188.0422
 21
97.5388
 40
2.7182
 41
0.5
 50
89.99999999
  1
200
  0
POLYLINE
  8
LAYER_7
 40
0.0353
 41
0.0353
 66
1
 10
0
 20
0
 30
0
  0
VERTEX
  8
LAYER_7
 10
180.0154
 20
130.1478
  0
VERTEX
  8
LAYER_7
 10
189.5154
 20
130.1478
  0
SEQEND
  0
CIRCLE
  8
LAYER_7
 10
189.5154
 20
105.4978
 40
0.5
  0
CIRCLE
  8
LAYER_7
 10
189.5154
 20
105.4978
 40
0.5
  0
CIRCLE
  8
LAYER_7
 10
189.5154
 20
130.1478
 40
0.5
  0
CIRCLE
  8
LAYER_7
 10
189.5154
 20
130.1478
 40
0.5
  0
TEXT
  8
LAYER_7
 10
188.0422
 20
115.6638
 11
188.0422
 21
115.6638
 40
2.7182
 41
0.5
 50
89.99999999
  1
493
  0
POLYLINE
  8
LAYER_7
 40
0.0353
 41
0.0353
 66
1
 10
0
 20
0
 30
0
  0
VERTEX
  8
LAYER_7
 10
183.0154
 20
131.4478
  0
VERTEX
  8
LAYER_7
 10
189.5154
 20
131.4478
  0
SEQEND
  0
CIRCLE
  8
LAYER_7
 10
189.5154
 20
130.1478
 40
0.5
  0
CIRCLE
  8
LAYER_7
 10
189.5154
 20
130.1478
 40
0.5
  0
POLYLINE
  8
LAYER_7
 40
0.0353
 41
0.0353
 66
1
 10
0
 20
0
 30
0
  0
VERTEX
  8
LAYER_7
 10
189.5154
 20
131.9478
  0
VERTEX
  8
LAYER_7
 10
189.5154
 20
131.4478
  0
VERTEX
  8
LAYER_7
 10
189.5154
 20
130.1478
  0
VERTEX
  8
LAYER_7
 10
183.0154
 20
130.1478
  0
SEQEND
  0
CIRCLE
  8
LAYER_7
 10
189.5154
 20
131.4478
 40
0.5
  0
CIRCLE
  8
LAYER_7
 10
189.5154
 20
131.4478
 40
0.5
  0
TEXT
  8
LAYER_7
 10
188.0422
 20
126.0952
 11
188.0422
 21
126.0952
 40
2.7182
 41
0.5
 50
89.99999999
  1
26
  0
POLYLINE
  8
LAYER_7
 40
0.0353
 41
0.0353
 66
1
 10
0
 20
0
 30
0
  0
VERTEX
  8
LAYER_7
 10
189.5154
 20
129.6478
  0
VERTEX
  8
LAYER_7
 10
189.5154
 20
130.1478
  0
VERTEX
  8
LAYER_7
 10
189.5154
 20
105.4978
  0
VERTEX
  8
LAYER_7
 10
180.0154
 20
105.4978
  0
VERTEX
  8
LAYER_7
 10
189.5154
 20
105.4978
  0
SEQEND
  0
POLYLINE
  8
LAYER_7
 40
0.0353
 41
0.0353
 66
1
 10
0
 20
0
 30
0
  0
VERTEX
  8
LAYER_7
 10
189.5154
 20
105.1978
  0
VERTEX
  8
LAYER_7
 10
189.5154
 20
104.6978
  0
VERTEX
  8
LAYER_7
 10
180.0154
 20
104.6978
  0
VERTEX
  8
LAYER_7
 10
189.5154
 20
104.6978
  0
VERTEX
  8
LAYER_7
 10
189.5154
 20
94.6978
  0
VERTEX
  8
LAYER_7
 10
189.5154
 20
94.1978
  0
SEQEND
  0
CIRCLE
  8
LAYER_7
 10
189.5154
 20
105.4978
 40
0.5
  0
CIRCLE
  8
LAYER_7
 10
189.5154
 20
105.4978
 40
0.5
  0
POLYLINE
  8
LAYER_7
 40
0.0353
 41
0.0353
 66
1
 10
0
 20
0
 30
0
  0
VERTEX
  8
LAYER_7
 10
189.5154
 20
104.1978
  0
VERTEX
  8
LAYER_7
 10
189.5154
 20
104.6978
  0
VERTEX
  8
LAYER_7
 10
189.5154
 20
105.4978
  0
VERTEX
  8
LAYER_7
 10
189.5154
 20
105.9978
  0
SEQEND
  0
CIRCLE
  8
LAYER_7
 10
189.5154
 20
104.6978
 40
0.5
  0
CIRCLE
  8
LAYER_7
 10
189.5154
 20
104.6978
 40
0.5
  0
TEXT
  8
LAYER_7
 10
188.0422
 20
106.416
 11
188.0422
 21
106.416
 40
2.7182
 41
0.5
 50
89.99999999
  1
16
  0
POLYLINE
  8
LAYER_7
 40
0.0353
 41
0.0353
 66
1
 10
0
 20
0
 30
0
  0
VERTEX
  8
LAYER_7
 10
77.7973
 20
91.6978
  0
VERTEX
  8
LAYER_7
 10
77.7973
 20
69.6978
  0
VERTEX
  8
LAYER_7
 10
47.7973
 20
69.6978
  0
VERTEX
  8
LAYER_7
 10
47.7973
 20
91.6978
  0
SEQEND
  0
CIRCLE
  8
LAYER_7
 10
47.7973
 20
69.6978
 40
0.5
  0
CIRCLE
  8
LAYER_7
 10
47.7973
 20
69.6978
 40
0.5
  0
CIRCLE
  8
LAYER_7
 10
77.7973
 20
69.6978
 40
0.5
  0
CIRCLE
  8
LAYER_7
 10
77.7973
 20
69.6978
 40
0.5
  0
TEXT
  8
LAYER_7
 10
60.6384
 20
71.1708
 11
60.6384
 21
71.1708
 40
2.7182
 41
0.5
  1
600
  0
CIRCLE
  8
LAYER_7
 10
48.9473
 20
77.1978
 40
0.5
  0
CIRCLE
  8
LAYER_7
 10
48.9473
 20
77.1978
 40
0.5
  0
CIRCLE
  8
LAYER_7
 10
76.6473
 20
77.1978
 40
0.5
  0
CIRCLE
  8
LAYER_7
 10
76.6473
 20
77.1978
 40
0.5
  0
TEXT
  8
LAYER_7
 10
60.6384
 20
78.6707
 11
60.6384
 21
78.6707
 40
2.7182
 41
0.5
  1
554
  0
POLYLINE
  8
LAYER_7
 40
0.0353
 41
0.0353
 66
1
 10
0
 20
0
 30
0
  0
VERTEX
  8
LAYER_7
 10
48.0223
 20
91.6978
  0
VERTEX
  8
LAYER_7
 10
48.0223
 20
77.1978
  0
VERTEX
  8
LAYER_7
 10
48.9473
 20
77.1978
  0
VERTEX
  8
LAYER_7
 10
48.9473
 20
91.6978
  0
VERTEX
  8
LAYER_7
 10
48.9473
 20
77.1978
  0
SEQEND
  0
CIRCLE
  8
LAYER_7
 10
48.9473
 20
77.1978
 40
0.5
  0
CIRCLE
  8
LAYER_7
 10
48.9473
 20
77.1978
 40
0.5
  0
CIRCLE
  8
LAYER_7
 10
48.0223
 20
77.1978
 40
0.5
  0
CIRCLE
  8
LAYER_7
 10
48.0223
 20
77.1978
 40
0.5
  0
TEXT
  8
LAYER_7
 10
48.9473
 20
78.6707
 11
48.9473
 21
78.6707
 40
2.7182
 41
0.5
  1
18.5
  0
POLYLINE
  8
LAYER_7
 40
0.0353
 41
0.0353
 66
1
 10
0
 20
0
 30
0
  0
VERTEX
  8
LAYER_7
 10
49.4473
 20
77.1978
  0
VERTEX
  8
LAYER_7
 10
48.9473
 20
77.1978
  0
VERTEX
  8
LAYER_7
 10
76.6473
 20
77.1978
  0
VERTEX
  8
LAYER_7
 10
76.6473
 20
91.6978
  0
VERTEX
  8
LAYER_7
 10
76.6473
 20
77.1978
  0
SEQEND
  0
POLYLINE
  8
LAYER_7
 40
0.0353
 41
0.0353
 66
1
 10
0
 20
0
 30
0
  0
VERTEX
  8
LAYER_7
 10
76.1473
 20
77.1978
  0
VERTEX
  8
LAYER_7
 10
76.6473
 20
77.1978
  0
VERTEX
  8
LAYER_7
 10
77.5723
 20
77.1978
  0
VERTEX
  8
LAYER_7
 10
77.5723
 20
91.6978
  0
SEQEND
  0
CIRCLE
  8
LAYER_7
 10
76.6473
 20
77.1978
 40
0.5
  0
CIRCLE
  8
LAYER_7
 10
76.6473
 20
77.1978
 40
0.5
  0
CIRCLE
  8
LAYER_7
 10
77.5723
 20
77.1978
 40
0.5
  0
CIRCLE
  8
LAYER_7
 10
77.5723
 20
77.1978
 40
0.5
  0
TEXT
  8
LAYER_7
 10
70.89
 20
78.6707
 11
70.89
 21
78.6707
 40
2.7182
 41
0.5
  1
18.5
  0
POLYLINE
  8
LAYER_7
 40
0.0353
 41
0.0353
 66
1
 10
0
 20
0
 30
0
  0
VERTEX
  8
LAYER_7
 10
77.7973
 20
88.6978
  0
VERTEX
  8
LAYER_7
 10
77.7973
 20
77.1978
  0
SEQEND
  0
POLYLINE
  8
LAYER_7
 40
0.0353
 41
0.0353
 66
1
 10
0
 20
0
 30
0
  0
VERTEX
  8
LAYER_7
 10
77.5723
 20
88.6978
  0
VERTEX
  8
LAYER_7
 10
77.5723
 20
77.1978
  0
VERTEX
  8
LAYER_7
 10
78.0723
 20
77.1978
  0
SEQEND
  0
CIRCLE
  8
LAYER_7
 10
77.7973
 20
77.1978
 40
0.5
  0
CIRCLE
  8
LAYER_7
 10
77.7973
 20
77.1978
 40
0.5
  0
POLYLINE
  8
LAYER_7
 40
0.0353
 41
0.0353
 66
1
 10
0
 20
0
 30
0
  0
VERTEX
  8
LAYER_7
 10
77.0723
 20
77.1978
  0
VERTEX
  8
LAYER_7
 10
77.5723
 20
77.1978
  0
VERTEX
  8
LAYER_7
 10
77.7973
 20
77.1978
  0
VERTEX
  8
LAYER_7
 10
83.3653
 20
77.1978
  0
SEQEND
  0
CIRCLE
  8
LAYER_7
 10
77.5723
 20
77.1978
 40
0.5
  0
CIRCLE
  8
LAYER_7
 10
77.5723
 20
77.1978
 40
0.5
  0
TEXT
  8
LAYER_7
 10
79.0473
 20
78.6707
 11
79.0473
 21
78.6707
 40
2.7182
 41
0.5
  1
4.5
  0
POLYLINE
  8
LAYER_7
 40
0.0353
 41
0.0353
 66
1
 10
0
 20
0
 30
0
  0
VERTEX
  8
LAYER_7
 10
47.7973
 20
88.6978
  0
VERTEX
  8
LAYER_7
 10
47.7973
 20
77.1978
  0
SEQEND
  0
POLYLINE
  8
LAYER_7
 40
0.0353
 41
0.0353
 66
1
 10
0
 20
0
 30
0
  0
VERTEX
  8
LAYER_7
 10
48.0223
 20
88.6978
  0
VERTEX
  8
LAYER_7
 10
48.0223
 20
77.1978
  0
VERTEX
  8
LAYER_7
 10
47.5223
 20
77.1978
  0
SEQEND
  0
CIRCLE
  8
LAYER_7
 10
47.7973
 20
77.1978
 40
0.5
  0
CIRCLE
  8
LAYER_7
 10
47.7973
 20
77.1978
 40
0.5
  0
POLYLINE
  8
LAYER_7
 40
0.0353
 41
0.0353
 66
1
 10
0
 20
0
 30
0
  0
VERTEX
  8
LAYER_7
 10
48.5223
 20
77.1978
  0
VERTEX
  8
LAYER_7
 10
48.0223
 20
77.1978
  0
VERTEX
  8
LAYER_7
 10
47.7973
 20
77.1978
  0
VERTEX
  8
LAYER_7
 10
42.3293
 20
77.1978
  0
SEQEND
  0
CIRCLE
  8
LAYER_7
 10
48.0223
 20
77.1978
 40
0.5
  0
CIRCLE
  8
LAYER_7
 10
48.0223
 20
77.1978
 40
0.5
  0
TEXT
  8
LAYER_7
 10
42.3293
 20
78.6707
 11
42.3293
 21
78.6707
 40
2.7182
 41
0.5
  1
4.5
  0
POLYLINE
  8
LAYER_7
 40
0.0353
 41
0.0353
 66
1
 10
0
 20
0
 30
0
  0
VERTEX
  8
LAYER_7
 10
100.4423
 20
94.6978
  0
VERTEX
  8
LAYER_7
 10
102.2423
 20
94.6978
  0
SEQEND
  0
POLYLINE
  8
LAYER_7
 40
0.0353
 41
0.0353
 66
1
 10
0
 20
0
 30
0
  0
VERTEX
  8
LAYER_7
 10
100.3923
 20
107.7478
  0
VERTEX
  8
LAYER_7
 10
102.2423
 20
107.7478
  0
SEQEND
  0
CIRCLE
  8
LAYER_7
 10
102.2423
 20
94.6978
 40
0.5
  0
CIRCLE
  8
LAYER_7
 10
102.2423
 20
94.6978
 40
0.5
  0
POLYLINE
  8
LAYER_7
 40
0.0353
 41
0.0353
 66
1
 10
0
 20
0
 30
0
  0
VERTEX
  8
LAYER_7
 10
102.2423
 20
108.2478
  0
VERTEX
  8
LAYER_7
 10
102.2423
 20
107.7478
  0
VERTEX
  8
LAYER_7
 10
102.2423
 20
94.6978
  0
VERTEX
  8
LAYER_7
 10
102.2423
 20
94.1978
  0
SEQEND
  0
CIRCLE
  8
LAYER_7
 10
102.2423
 20
107.7478
 40
0.5
  0
CIRCLE
  8
LAYER_7
 10
102.2423
 20
107.7478
 40
0.5
  0
TEXT
  8
LAYER_7
 10
100.7695
 20
99.4168
 11
100.7695
 21
99.4168
 40
2.7182
 41
0.5
 50
89.99999999
  1
261
  0
POLYLINE
  8
LAYER_7
 40
0.0353
 41
0.0353
 66
1
 10
0
 20
0
 30
0
  0
VERTEX
  8
LAYER_7
 10
100.4423
 20
107.7478
  0
VERTEX
  8
LAYER_7
 10
102.2423
 20
107.7478
  0
VERTEX
  8
LAYER_7
 10
102.2423
 20
129.3978
  0
VERTEX
  8
LAYER_7
 10
100.4423
 20
129.3978
  0
SEQEND
  0
CIRCLE
  8
LAYER_7
 10
102.2423
 20
129.3978
 40
0.5
  0
CIRCLE
  8
LAYER_7
 10
102.2423
 20
129.3978
 40
0.5
  0
CIRCLE
  8
LAYER_7
 10
102.2423
 20
107.7478
 40
0.5
  0
CIRCLE
  8
LAYER_7
 10
102.2423
 20
107.7478
 40
0.5
  0
TEXT
  8
LAYER_7
 10
100.7695
 20
115.9405
 11
100.7695
 21
115.9405
 40
2.7182
 41
0.5
 50
89.99999999
  1
433
  0
POLYLINE
  8
LAYER_7
 40
0.0353
 41
0.0353
 66
1
 10
0
 20
0
 30
0
  0
VERTEX
  8
LAYER_7
 10
163.2654
 20
127.6478
  0
VERTEX
  8
LAYER_7
 10
163.2654
 20
130.1228
  0
VERTEX
  8
LAYER_7
 10
163.2398
 20
130.1478
  0
VERTEX
  8
LAYER_7
 10
163.0606
 20
130.1478
  0
VERTEX
  8
LAYER_7
 10
163.0606
 20
129.9338
  0
VERTEX
  8
LAYER_7
 10
163.0609
 20
129.9335
 42
-0.1968113974
  0
VERTEX
  8
LAYER_7
 10
163.0229
 20
129.8271
 42
-0.1965646677
  0
VERTEX
  8
LAYER_7
 10
162.9207
 20
129.7788
  0
VERTEX
  8
LAYER_7
 10
162.907
 20
129.7838
  0
VERTEX
  8
LAYER_7
 10
162.5743
 20
129.7838
  0
VERTEX
  8
LAYER_7
 10
162.5737
 20
129.7833
 42
-0.1966762268
  0
VERTEX
  8
LAYER_7
 10
162.3939
 20
129.8442
 42
-0.1969596052
  0
VERTEX
  8
LAYER_7
 10
162.31
 20
130.0145
  0
VERTEX
  8
LAYER_7
 10
162.3184
 20
130.0338
  0
VERTEX
  8
LAYER_7
 10
162.3184
 20
130.0478
  0
VERTEX
  8
LAYER_7
 10
162.3217
 20
130.0555
  0
VERTEX
  8
LAYER_7
 10
162.2881
 20
130.1237
  0
VERTEX
  8
LAYER_7
 10
162.2162
 20
130.148
  0
VERTEX
  8
LAYER_7
 10
162.216
 20
130.1478
  0
VERTEX
  8
LAYER_7
 10
162.1904
 20
130.1478
  0
VERTEX
  8
LAYER_7
 10
162.1904
 20
127.6478
  0
SEQEND
  0
POLYLINE
  8
LAYER_7
 40
0.0353
 41
0.0353
 66
1
 10
0
 20
0
 30
0
 70
1
  0
VERTEX
  8
LAYER_7
 10
162.0154
 20
131.4478
  0
VERTEX
  8
LAYER_7
 10
177.0154
 20
131.4478
  0
VERTEX
  8
LAYER_7
 10
177.0154
 20
131.0478
  0
VERTEX
  8
LAYER_7
 10
162.0154
 20
131.0478
  0
SEQEND
  0
POLYLINE
  8
LAYER_7
  6
AIGENLINE001
 40
0.1058
 41
0.1058
 62
252
 66
1
 10
0
 20
0
 30
0
 70
128
  0
VERTEX
  8
LAYER_7
 10
162.8082
 20
137.1978
  0
VERTEX
  8
LAYER_7
 10
176.2299
 20
137.1978
  0
SEQEND
  0
POLYLINE
  8
LAYER_7
  6
AIGENLINE001
 40
0.1058
 41
0.1058
 62
252
 66
1
 10
0
 20
0
 30
0
 70
128
  0
VERTEX
  8
LAYER_7
 10
170.0432
 20
132.8487
  0
VERTEX
  8
LAYER_7
 10
166.4913
 20
132.8487
  0
SEQEND
  0
POLYLINE
  8
LAYER_7
  6
AIGENLINE001
 40
0.1058
 41
0.1058
 62
252
 66
1
 10
0
 20
0
 30
0
 70
128
  0
VERTEX
  8
LAYER_7
 10
176.0175
 20
137.0017
 42
-0.4141935812
  0
VERTEX
  8
LAYER_7
 10
175.8683
 20
136.8526
  0
VERTEX
  8
LAYER_7
 10
174.2369
 20
136.8526
  0
SEQEND
  0
POLYLINE
  8
LAYER_7
  6
AIGENLINE001
 40
0.1058
 41
0.1058
 62
252
 66
1
 10
0
 20
0
 30
0
 70
128
  0
VERTEX
  8
LAYER_7
 10
176.1667
 20
131.6959
 42
0.2024854207
  0
VERTEX
  8
LAYER_7
 10
176.4161
 20
131.8012
 42
0.2024431126
  0
VERTEX
  8
LAYER_7
 10
176.5146
 20
132.0533
  0
VERTEX
  8
LAYER_7
 10
176.379
 20
137.0514
 42
0.3834260745
  0
VERTEX
  8
LAYER_7
 10
176.2299
 20
137.1978
  0
VERTEX
  8
LAYER_7
 10
176.1801
 20
137.1978
 42
0.3866303635
  0
VERTEX
  8
LAYER_7
 10
176.0265
 20
137.0487
  0
VERTEX
  8
LAYER_7
 10
176.0265
 20
136.9899
  0
SEQEND
  0
POLYLINE
  8
LAYER_7
  6
AIGENLINE001
 40
0.1058
 41
0.1058
 62
252
 66
1
 10
0
 20
0
 30
0
 70
128
  0
VERTEX
  8
LAYER_7
 10
176.1621
 20
131.6918
  0
VERTEX
  8
LAYER_7
 10
175.9271
 20
131.6918
  0
SEQEND
  0
POLYLINE
  8
LAYER_7
  6
AIGENLINE001
 40
0.1058
 41
0.1058
 62
252
 66
1
 10
0
 20
0
 30
0
 70
128
  0
VERTEX
  8
LAYER_7
 10
175.439
 20
131.4478
  0
VERTEX
  8
LAYER_7
 10
175.7734
 20
131.4478
  0
VERTEX
  8
LAYER_7
 10
175.7734
 20
131.5472
 42
-0.3868234497
  0
VERTEX
  8
LAYER_7
 10
175.9226
 20
131.7009
  0
SEQEND
  0
POLYLINE
  8
LAYER_7
  6
AIGENLINE001
 40
0.1058
 41
0.1058
 62
252
 66
1
 10
0
 20
0
 30
0
 70
128
  0
VERTEX
  8
LAYER_7
 10
163.5991
 20
131.4478
  0
VERTEX
  8
LAYER_7
 10
163.2646
 20
131.4478
  0
VERTEX
  8
LAYER_7
 10
163.2646
 20
131.5472
  0
SEQEND
  0
POLYLINE
  8
LAYER_7
  6
AIGENLINE001
 40
0.1058
 41
0.1058
 62
252
 66
1
 10
0
 20
0
 30
0
 70
128
  0
VERTEX
  8
LAYER_7
 10
163.1065
 20
131.7009
 42
-0.4142308614
  0
VERTEX
  8
LAYER_7
 10
163.2556
 20
131.5517
  0
SEQEND
  0
POLYLINE
  8
LAYER_7
  6
AIGENLINE001
 40
0.1058
 41
0.1058
 62
252
 66
1
 10
0
 20
0
 30
0
 70
128
  0
VERTEX
  8
LAYER_7
 10
163.111
 20
131.6918
  0
VERTEX
  8
LAYER_7
 10
162.867
 20
131.6918
  0
SEQEND
  0
POLYLINE
  8
LAYER_7
  6
AIGENLINE001
 40
0.1058
 41
0.1058
 62
252
 66
1
 10
0
 20
0
 30
0
 70
128
  0
VERTEX
  8
LAYER_7
 10
167.1149
 20
132.2431
  0
VERTEX
  8
LAYER_7
 10
166.4913
 20
132.8487
  0
VERTEX
  8
LAYER_7
 10
165.6507
 20
132.912
  0
VERTEX
  8
LAYER_7
 10
163.1472
 20
133.1831
 42
-0.3554948082
  0
VERTEX
  8
LAYER_7
 10
163.0116
 20
133.3322
  0
VERTEX
  8
LAYER_7
 10
163.0116
 20
137.0514
 42
0.3963656379
  0
VERTEX
  8
LAYER_7
 10
162.8625
 20
137.1978
  0
VERTEX
  8
LAYER_7
 10
162.8128
 20
137.1978
 42
0.3795154939
  0
VERTEX
  8
LAYER_7
 10
162.6592
 20
137.0527
  0
VERTEX
  8
LAYER_7
 10
162.5146
 20
132.0583
 42
0.2024376809
  0
VERTEX
  8
LAYER_7
 10
162.6131
 20
131.8062
 42
0.2024857618
  0
VERTEX
  8
LAYER_7
 10
162.8625
 20
131.7009
  0
SEQEND
  0
POLYLINE
  8
LAYER_7
  6
AIGENLINE001
 40
0.1058
 41
0.1058
 62
252
 66
1
 10
0
 20
0
 30
0
 70
128
  0
VERTEX
  8
LAYER_7
 10
169.4196
 20
132.2431
  0
VERTEX
  8
LAYER_7
 10
170.0432
 20
132.8487
  0
VERTEX
  8
LAYER_7
 10
171.0826
 20
132.8939
  0
SEQEND
  0
POLYLINE
  8
LAYER_7
  6
AIGENLINE001
 40
0.1058
 41
0.1058
 62
252
 66
1
 10
0
 20
0
 30
0
 70
128
  0
VERTEX
  8
LAYER_7
 10
171.2181
 20
133.0462
 42
-0.3871586037
  0
VERTEX
  8
LAYER_7
 10
171.0771
 20
132.9031
  0
SEQEND
  0
POLYLINE
  8
LAYER_7
  6
AIGENLINE001
 40
0.1058
 41
0.1058
 62
252
 66
1
 10
0
 20
0
 30
0
 70
128
  0
VERTEX
  8
LAYER_7
 10
172.9897
 20
136.8526
  0
VERTEX
  8
LAYER_7
 10
171.5165
 20
136.8526
 42
0.3761349306
  0
VERTEX
  8
LAYER_7
 10
171.3629
 20
136.7093
  0
VERTEX
  8
LAYER_7
 10
171.2182
 20
133.0385
  0
SEQEND
  0
POLYLINE
  8
LAYER_7
  6
AIGENLINE001
 40
0.1058
 41
0.1058
 62
252
 66
1
 10
0
 20
0
 30
0
 70
128
  0
VERTEX
  8
LAYER_7
 10
174.2369
 20
136.3465
  0
VERTEX
  8
LAYER_7
 10
175.0594
 20
136.3465
  0
SEQEND
  0
POLYLINE
  8
LAYER_7
  6
AIGENLINE001
 40
0.1058
 41
0.1058
 62
252
 66
1
 10
0
 20
0
 30
0
 70
128
  0
VERTEX
  8
LAYER_7
 10
175.0549
 20
136.3555
 42
-0.4059034388
  0
VERTEX
  8
LAYER_7
 10
175.3033
 20
136.114
  0
SEQEND
  0
POLYLINE
  8
LAYER_7
  6
AIGENLINE001
 40
0.1058
 41
0.1058
 62
252
 66
1
 10
0
 20
0
 30
0
 70
128
  0
VERTEX
  8
LAYER_7
 10
171.7148
 20
133.0267
 42
-0.3880249774
  0
VERTEX
  8
LAYER_7
 10
171.102
 20
132.4067
  0
SEQEND
  0
POLYLINE
  8
LAYER_7
  6
AIGENLINE001
 40
0.1058
 41
0.1058
 62
252
 66
1
 10
0
 20
0
 30
0
 70
128
  0
VERTEX
  8
LAYER_7
 10
171.7243
 20
133.0204
  0
VERTEX
  8
LAYER_7
 10
171.8418
 20
136.1115
  0
SEQEND
  0
POLYLINE
  8
LAYER_7
  6
AIGENLINE001
 40
0.1058
 41
0.1058
 62
252
 66
1
 10
0
 20
0
 30
0
 70
128
  0
VERTEX
  8
LAYER_7
 10
171.842
 20
136.1167
 42
-0.4027964643
  0
VERTEX
  8
LAYER_7
 10
172.0904
 20
136.3555
  0
SEQEND
  0
POLYLINE
  8
LAYER_7
  6
AIGENLINE001
 40
0.1058
 41
0.1058
 62
252
 66
1
 10
0
 20
0
 30
0
 70
128
  0
VERTEX
  8
LAYER_7
 10
172.0949
 20
136.3465
  0
VERTEX
  8
LAYER_7
 10
172.9897
 20
136.3465
  0
SEQEND
  0
POLYLINE
  8
LAYER_7
  6
AIGENLINE001
 40
0.1058
 41
0.1058
 62
252
 66
1
 10
0
 20
0
 30
0
 70
128
  0
VERTEX
  8
LAYER_7
 10
163.6262
 20
132.3516
  0
VERTEX
  8
LAYER_7
 10
163.5991
 20
131.4478
  0
VERTEX
  8
LAYER_7
 10
175.439
 20
131.4478
  0
VERTEX
  8
LAYER_7
 10
175.3125
 20
136.1115
  0
SEQEND
  0
POLYLINE
  8
LAYER_7
  6
AIGENLINE001
 40
0.1058
 41
0.1058
 62
252
 66
1
 10
0
 20
0
 30
0
 70
128
  0
VERTEX
  8
LAYER_7
 10
171.1007
 20
132.3968
  0
VERTEX
  8
LAYER_7
 10
170.2602
 20
132.3516
  0
VERTEX
  8
LAYER_7
 10
169.9167
 20
132.0353
  0
VERTEX
  8
LAYER_7
 10
169.9167
 20
131.746
  0
VERTEX
  8
LAYER_7
 10
169.4196
 20
131.746
  0
VERTEX
  8
LAYER_7
 10
169.4196
 20
132.2431
  0
VERTEX
  8
LAYER_7
 10
167.1149
 20
132.2431
  0
VERTEX
  8
LAYER_7
 10
167.1149
 20
131.746
  0
VERTEX
  8
LAYER_7
 10
166.6178
 20
131.746
  0
VERTEX
  8
LAYER_7
 10
166.6178
 20
132.0353
  0
VERTEX
  8
LAYER_7
 10
166.2743
 20
132.3606
  0
VERTEX
  8
LAYER_7
 10
165.6055
 20
132.4058
  0
VERTEX
  8
LAYER_7
 10
163.8973
 20
132.5956
 42
0.2093853674
  0
VERTEX
  8
LAYER_7
 10
163.7023
 20
132.5344
 42
0.2093251174
  0
VERTEX
  8
LAYER_7
 10
163.6172
 20
132.3541
  0
SEQEND
  0
POLYLINE
  8
LAYER_7
  6
AIGENLINE001
 40
0.1058
 41
0.1058
 62
252
 66
1
 10
0
 20
0
 30
0
 70
128
  0
VERTEX
  8
LAYER_7
 10
169.4196
 20
131.746
  0
VERTEX
  8
LAYER_7
 10
167.1149
 20
131.746
  0
SEQEND
  0
POLYLINE
  8
LAYER_7
  6
AIGENLINE001
 40
0.1058
 41
0.1058
 62
252
 66
1
 10
0
 20
0
 30
0
 70
129
  0
VERTEX
  8
LAYER_7
 10
172.9897
 20
136.8526
  0
VERTEX
  8
LAYER_7
 10
174.2369
 20
136.8526
  0
VERTEX
  8
LAYER_7
 10
174.2369
 20
136.3465
  0
VERTEX
  8
LAYER_7
 10
172.9897
 20
136.3465
  0
SEQEND
  0
POLYLINE
  8
LAYER_7
  6
AIGENLINE001
 40
0.1058
 41
0.1058
 62
252
 66
1
 10
0
 20
0
 30
0
 70
128
  0
VERTEX
  8
LAYER_7
 10
167.7656
 20
132.8487
  0
VERTEX
  8
LAYER_7
 10
168.2627
 20
132.8487
  0
SEQEND
  0
POLYLINE
  8
LAYER_7
  6
AIGENLINE001
 40
0.1058
 41
0.1058
 62
252
 66
1
 10
0
 20
0
 30
0
 70
128
  0
VERTEX
  8
LAYER_7
 10
172.8615
 20
137.0804
  0
VERTEX
  8
LAYER_7
 10
174.3615
 20
137.0804
  0
SEQEND
  0
POLYLINE
  8
LAYER_7
  6
AIGENLINE001
 40
0.1058
 41
0.1058
 62
252
 66
1
 10
0
 20
0
 30
0
 70
128
  0
VERTEX
  8
LAYER_7
 10
172.999
 20
141.7154
  0
VERTEX
  8
LAYER_7
 10
172.999
 20
141.7404
  0
SEQEND
  0
POLYLINE
  8
LAYER_7
  6
AIGENLINE001
 40
0.1058
 41
0.1058
 62
252
 66
1
 10
0
 20
0
 30
0
 70
128
  0
VERTEX
  8
LAYER_7
 10
174.224
 20
141.7154
  0
VERTEX
  8
LAYER_7
 10
174.224
 20
141.7404
  0
SEQEND
  0
POLYLINE
  8
LAYER_7
  6
AIGENLINE001
 40
0.1058
 41
0.1058
 62
252
 66
1
 10
0
 20
0
 30
0
 70
129
  0
VERTEX
  8
LAYER_7
 10
172.7615
 20
142.9654
  0
VERTEX
  8
LAYER_7
 10
171.6865
 20
142.9654
  0
VERTEX
  8
LAYER_7
 10
171.6615
 20
142.9404
  0
VERTEX
  8
LAYER_7
 10
171.6615
 20
142.5904
  0
VERTEX
  8
LAYER_7
 10
171.6865
 20
142.5654
  0
VERTEX
  8
LAYER_7
 10
172.7615
 20
142.5654
 42
-0.4142392877
  0
VERTEX
  8
LAYER_7
 10
172.8615
 20
142.4654
  0
VERTEX
  8
LAYER_7
 10
172.8615
 20
141.7654
  0
VERTEX
  8
LAYER_7
 10
172.8865
 20
141.7404
  0
VERTEX
  8
LAYER_7
 10
173.6115
 20
141.7404
  0
VERTEX
  8
LAYER_7
 10
174.3365
 20
141.7404
  0
VERTEX
  8
LAYER_7
 10
174.3615
 20
141.7654
  0
VERTEX
  8
LAYER_7
 10
174.3615
 20
143.2404
 42
0.4142478398
  0
VERTEX
  8
LAYER_7
 10
174.2865
 20
143.3154
  0
VERTEX
  8
LAYER_7
 10
172.9365
 20
143.3154
 42
0.4143775093
  0
VERTEX
  8
LAYER_7
 10
172.8615
 20
143.2404
  0
VERTEX
  8
LAYER_7
 10
172.8615
 20
143.0654
 42
-0.4140906935
  0
SEQEND
  0
POLYLINE
  8
LAYER_7
  6
AIGENLINE001
 40
0.1058
 41
0.1058
 62
252
 66
1
 10
0
 20
0
 30
0
 70
129
  0
VERTEX
  8
LAYER_7
 10
172.6365
 20
136.9654
 42
-0.4143368029
  0
VERTEX
  8
LAYER_7
 10
172.7365
 20
137.0654
  0
VERTEX
  8
LAYER_7
 10
174.4865
 20
137.0654
 42
-0.4142392877
  0
VERTEX
  8
LAYER_7
 10
174.5865
 20
136.9654
  0
VERTEX
  8
LAYER_7
 10
174.5865
 20
136.9154
  0
VERTEX
  8
LAYER_7
 10
172.6365
 20
136.9154
  0
SEQEND
  0
POLYLINE
  8
LAYER_7
  6
AIGENLINE001
 40
0.1058
 41
0.1058
 62
252
 66
1
 10
0
 20
0
 30
0
 70
128
  0
VERTEX
  8
LAYER_7
 10
173.6115
 20
135.5338
  0
VERTEX
  8
LAYER_7
 10
173.6115
 20
137.7588
  0
SEQEND
  0
POLYLINE
  8
LAYER_7
  6
AIGENLINE001
 40
0.1058
 41
0.1058
 62
252
 66
1
 10
0
 20
0
 30
0
 70
128
  0
VERTEX
  8
LAYER_7
 10
174.3465
 20
137.0654
  0
VERTEX
  8
LAYER_7
 10
174.3615
 20
137.0804
  0
VERTEX
  8
LAYER_7
 10
174.3615
 20
141.7004
  0
SEQEND
  0
POLYLINE
  8
LAYER_7
  6
AIGENLINE001
 40
0.1058
 41
0.1058
 62
252
 66
1
 10
0
 20
0
 30
0
 70
128
  0
VERTEX
  8
LAYER_7
 10
169.527
 20
139.7903
  0
VERTEX
  8
LAYER_7
 10
169.6061
 20
139.9273
 42
-0.2679498742
  0
VERTEX
  8
LAYER_7
 10
170.4927
 20
140.4392
  0
VERTEX
  8
LAYER_7
 10
172.8615
 20
140.4392
  0
VERTEX
  8
LAYER_7
 10
172.8615
 20
137.0804
  0
VERTEX
  8
LAYER_7
 10
172.8765
 20
137.0654
  0
SEQEND
  0
POLYLINE
  8
LAYER_7
  6
AIGENLINE001
 40
0.1058
 41
0.1058
 62
252
 66
1
 10
0
 20
0
 30
0
 70
128
  0
VERTEX
  8
LAYER_7
 10
169.4409
 20
139.6437
  0
VERTEX
  8
LAYER_7
 10
168.9409
 20
138.7777
  0
VERTEX
  8
LAYER_7
 10
168.8976
 20
138.7527
  0
VERTEX
  8
LAYER_7
 10
168.1473
 20
139.1781
  0
VERTEX
  8
LAYER_7
 10
168.1365
 20
139.1844
  0
VERTEX
  8
LAYER_7
 10
168.1115
 20
139.2277
  0
VERTEX
  8
LAYER_7
 10
168.6182
 20
140.1187
  0
SEQEND
  0
POLYLINE
  8
LAYER_7
  6
AIGENLINE001
 40
0.1058
 41
0.1058
 62
252
 66
1
 10
0
 20
0
 30
0
 70
128
  0
VERTEX
  8
LAYER_7
 10
169.3727
 20
139.7755
  0
VERTEX
  8
LAYER_7
 10
169.3452
 20
139.7278
  0
SEQEND
  0
POLYLINE
  8
LAYER_7
  6
AIGENLINE001
 40
0.1058
 41
0.1058
 62
252
 66
1
 10
0
 20
0
 30
0
 70
128
  0
VERTEX
  8
LAYER_7
 10
168.739
 20
140.0778
  0
VERTEX
  8
LAYER_7
 10
168.7665
 20
140.1255
  0
SEQEND
  0
POLYLINE
  8
LAYER_7
  6
AIGENLINE001
 40
0.1058
 41
0.1058
 62
252
 66
1
 10
0
 20
0
 30
0
 70
128
  0
VERTEX
  8
LAYER_7
 10
168.6832
 20
140.2313
  0
VERTEX
  8
LAYER_7
 10
168.6657
 20
140.2009
  0
SEQEND
  0
POLYLINE
  8
LAYER_7
  6
AIGENLINE001
 40
0.1058
 41
0.1058
 62
252
 66
1
 10
0
 20
0
 30
0
 70
128
  0
VERTEX
  8
LAYER_7
 10
169.0696
 20
139.9505
  0
VERTEX
  8
LAYER_7
 10
169.4679
 20
139.7205
  0
VERTEX
  8
LAYER_7
 10
169.4884
 20
139.7259
  0
SEQEND
  0
POLYLINE
  8
LAYER_7
  6
AIGENLINE001
 40
0.1058
 41
0.1058
 62
252
 66
1
 10
0
 20
0
 30
0
 70
128
  0
VERTEX
  8
LAYER_7
 10
169.5065
 20
139.7848
  0
VERTEX
  8
LAYER_7
 10
169.527
 20
139.7903
  0
VERTEX
  8
LAYER_7
 10
169.5065
 20
139.7848
  0
VERTEX
  8
LAYER_7
 10
168.7076
 20
140.246
  0
VERTEX
  8
LAYER_7
 10
168.7021
 20
140.2665
  0
VERTEX
  8
LAYER_7
 10
168.7812
 20
140.4035
 42
-0.2679550504
  0
VERTEX
  8
LAYER_7
 10
170.4927
 20
141.3917
  0
VERTEX
  8
LAYER_7
 10
172.8615
 20
141.3917
  0
VERTEX
  8
LAYER_7
 10
172.8615
 20
141.7004
  0
SEQEND
  0
POLYLINE
  8
LAYER_7
  6
AIGENLINE001
 40
0.1058
 41
0.1058
 62
252
 66
1
 10
0
 20
0
 30
0
 70
128
  0
VERTEX
  8
LAYER_7
 10
172.9202
 20
141.3202
  0
VERTEX
  8
LAYER_7
 10
172.9763
 20
141.2271
  0
VERTEX
  8
LAYER_7
 10
172.9954
 20
141.1363
  0
VERTEX
  8
LAYER_7
 10
173.0131
 20
141.0309
  0
VERTEX
  8
LAYER_7
 10
172.9984
 20
140.762
  0
VERTEX
  8
LAYER_7
 10
172.9802
 20
140.6442
  0
VERTEX
  8
LAYER_7
 10
172.9342
 20
140.5299
  0
SEQEND
  0
POLYLINE
  8
LAYER_7
  6
AIGENLINE001
 40
0.1058
 41
0.1058
 62
252
 66
1
 10
0
 20
0
 30
0
 70
128
  0
VERTEX
  8
LAYER_7
 10
172.8765
 20
142.9404
  0
VERTEX
  8
LAYER_7
 10
172.9238
 20
142.8733
  0
VERTEX
  8
LAYER_7
 10
172.9414
 20
142.817
  0
VERTEX
  8
LAYER_7
 10
172.9376
 20
142.7134
  0
VERTEX
  8
LAYER_7
 10
172.9122
 20
142.64
  0
VERTEX
  8
LAYER_7
 10
172.8865
 20
142.5904
  0
SEQEND
  0
POLYLINE
  8
LAYER_7
  6
AIGENLINE001
 40
0.1058
 41
0.1058
 62
252
 66
1
 10
0
 20
0
 30
0
 70
129
  0
VERTEX
  8
LAYER_7
 10
169.468
 20
139.7205
  0
VERTEX
  8
LAYER_7
 10
168.6712
 20
140.1805
  0
VERTEX
  8
LAYER_7
 10
168.6657
 20
140.2009
  0
VERTEX
  8
LAYER_7
 10
169.4884
 20
139.726
  0
VERTEX
  8
LAYER_7
 10
169.5059
 20
139.7563
  0
VERTEX
  8
LAYER_7
 10
169.4884
 20
139.7259
  0
SEQEND
  0
POLYLINE
  8
LAYER_7
  6
AIGENLINE001
 40
0.1058
 41
0.1058
 62
252
 66
1
 10
0
 20
0
 30
0
 70
128
  0
VERTEX
  8
LAYER_7
 10
168.7174
 20
140.2404
  0
VERTEX
  8
LAYER_7
 10
168.6832
 20
140.2313
  0
VERTEX
  8
LAYER_7
 10
169.5059
 20
139.7563
  0
VERTEX
  8
LAYER_7
 10
169.4968
 20
139.7904
  0
SEQEND
  0
POLYLINE
  8
LAYER_7
  6
AIGENLINE001
 40
0.1058
 41
0.1058
 62
252
 66
1
 10
0
 20
0
 30
0
 70
129
  0
VERTEX
  8
LAYER_7
 10
169.0421
 20
139.9028
  0
VERTEX
  8
LAYER_7
 10
168.6524
 20
140.1278
  0
VERTEX
  8
LAYER_7
 10
168.6182
 20
140.1187
  0
VERTEX
  8
LAYER_7
 10
169.4409
 20
139.6437
  0
VERTEX
  8
LAYER_7
 10
169.4318
 20
139.6778
  0
SEQEND
  0
POLYLINE
  8
LAYER_7
  6
AIGENLINE001
 40
0.1058
 41
0.1058
 62
252
 66
1
 10
0
 20
0
 30
0
 70
129
  0
VERTEX
  8
LAYER_7
 10
174.3465
 20
141.7154
  0
VERTEX
  8
LAYER_7
 10
174.3615
 20
141.7004
  0
VERTEX
  8
LAYER_7
 10
172.8615
 20
141.7004
  0
VERTEX
  8
LAYER_7
 10
172.8765
 20
141.7154
  0
SEQEND
  0
POLYLINE
  8
LAYER_7
  6
AIGENLINE001
 40
0.1058
 41
0.1058
 62
252
 66
1
 10
0
 20
0
 30
0
 70
129
  0
VERTEX
  8
LAYER_7
 10
167.0394
 20
130.9476
  0
VERTEX
  8
LAYER_7
 10
169.4892
 20
130.9476
  0
VERTEX
  8
LAYER_7
 10
169.4892
 20
129.9974
  0
VERTEX
  8
LAYER_7
 10
167.0394
 20
129.9974
  0
SEQEND
  0
POLYLINE
  8
LAYER_7
  6
AIGENLINE001
 40
0.1058
 41
0.1058
 62
252
 66
1
 10
0
 20
0
 30
0
 70
128
  0
VERTEX
  8
LAYER_7
 10
167.2647
 20
131.2976
  0
VERTEX
  8
LAYER_7
 10
169.4623
 20
131.2976
  0
SEQEND
  0
POLYLINE
  8
LAYER_7
  6
AIGENLINE001
 40
0.1058
 41
0.1058
 62
252
 66
1
 10
0
 20
0
 30
0
 70
128
  0
VERTEX
  8
LAYER_7
 10
166.8651
 20
131.4478
  0
VERTEX
  8
LAYER_7
 10
166.6887
 20
131.4478
  0
VERTEX
  8
LAYER_7
 10
166.6887
 20
131.2976
  0
VERTEX
  8
LAYER_7
 10
166.8651
 20
131.2976
  0
VERTEX
  8
LAYER_7
 10
166.6887
 20
131.2976
  0
VERTEX
  8
LAYER_7
 10
166.6887
 20
131.1477
  0
VERTEX
  8
LAYER_7
 10
167.0671
 20
131.1477
  0
VERTEX
  8
LAYER_7
 10
169.2625
 20
131.1477
  0
SEQEND
  0
POLYLINE
  8
LAYER_7
  6
AIGENLINE001
 40
0.1058
 41
0.1058
 62
252
 66
1
 10
0
 20
0
 30
0
 70
128
  0
VERTEX
  8
LAYER_7
 10
167.2647
 20
131.4478
  0
VERTEX
  8
LAYER_7
 10
169.4623
 20
131.4478
  0
SEQEND
  0
POLYLINE
  8
LAYER_7
  6
AIGENLINE001
 40
0.1058
 41
0.1058
 62
252
 66
1
 10
0
 20
0
 30
0
 70
128
  0
VERTEX
  8
LAYER_7
 10
169.6621
 20
131.4478
  0
VERTEX
  8
LAYER_7
 10
169.8385
 20
131.4478
  0
VERTEX
  8
LAYER_7
 10
169.8385
 20
131.2976
  0
VERTEX
  8
LAYER_7
 10
169.6621
 20
131.2976
  0
VERTEX
  8
LAYER_7
 10
169.8385
 20
131.2976
  0
VERTEX
  8
LAYER_7
 10
169.8385
 20
131.1477
  0
VERTEX
  8
LAYER_7
 10
169.4851
 20
131.1477
  0
SEQEND
  0
POLYLINE
  8
LAYER_7
  6
AIGENLINE001
 40
0.1058
 41
0.1058
 62
252
 66
1
 10
0
 20
0
 30
0
 70
128
  0
VERTEX
  8
LAYER_7
 10
169.2625
 20
131.2976
  0
VERTEX
  8
LAYER_7
 10
167.0649
 20
131.2976
  0
SEQEND
  0
POLYLINE
  8
LAYER_7
  6
AIGENLINE001
 40
0.1058
 41
0.1058
 62
252
 66
1
 10
0
 20
0
 30
0
 70
128
  0
VERTEX
  8
LAYER_7
 10
167.2151
 20
130.9476
  0
VERTEX
  8
LAYER_7
 10
167.0387
 20
130.9476
  0
VERTEX
  8
LAYER_7
 10
167.0387
 20
131.1481
  0
VERTEX
  8
LAYER_7
 10
167.2151
 20
131.1481
  0
SEQEND
  0
POLYLINE
  8
LAYER_7
  6
AIGENLINE001
 40
0.1058
 41
0.1058
 62
252
 66
1
 10
0
 20
0
 30
0
 70
128
  0
VERTEX
  8
LAYER_7
 10
167.5145
 20
131.1481
  0
VERTEX
  8
LAYER_7
 10
169.1626
 20
131.1481
  0
SEQEND
  0
POLYLINE
  8
LAYER_7
  6
AIGENLINE001
 40
0.1058
 41
0.1058
 62
252
 66
1
 10
0
 20
0
 30
0
 70
128
  0
VERTEX
  8
LAYER_7
 10
167.188
 20
130.9476
  0
VERTEX
  8
LAYER_7
 10
169.3125
 20
130.9476
  0
VERTEX
  8
LAYER_7
 10
169.4885
 20
130.9472
  0
VERTEX
  8
LAYER_7
 10
169.4885
 20
131.1481
  0
VERTEX
  8
LAYER_7
 10
169.3125
 20
131.1481
  0
SEQEND
  0
POLYLINE
  8
LAYER_7
  6
AIGENLINE001
 40
0.1058
 41
0.1058
 62
252
 66
1
 10
0
 20
0
 30
0
 70
129
  0
VERTEX
  8
LAYER_7
 10
169.4138
 20
131.4478
  0
VERTEX
  8
LAYER_7
 10
169.76
 20
131.4478
  0
SEQEND
  0
POLYLINE
  8
LAYER_7
  6
AIGENLINE001
 40
0.1058
 41
0.1058
 62
252
 66
1
 10
0
 20
0
 30
0
 70
129
  0
VERTEX
  8
LAYER_7
 10
166.7676
 20
131.4478
  0
VERTEX
  8
LAYER_7
 10
167.1138
 20
131.4478
  0
VERTEX
  8
LAYER_7
 10
167.2902
 20
131.4478
  0
VERTEX
  8
LAYER_7
 10
167.1138
 20
131.4478
  0
SEQEND
  0
POLYLINE
  8
LAYER_7
  6
AIGENLINE001
 40
0.1058
 41
0.1058
 62
252
 66
1
 10
0
 20
0
 30
0
 70
129
  0
VERTEX
  8
LAYER_7
 10
169.0424
 20
131.4478
  0
VERTEX
  8
LAYER_7
 10
167.6795
 20
131.4478
  0
SEQEND
  0
POLYLINE
  8
LAYER_7
  6
AIGENLINE001
 40
0.1058
 41
0.1058
 62
252
 66
1
 10
0
 20
0
 30
0
 70
129
  0
VERTEX
  8
LAYER_7
 10
169.4134
 20
131.4478
  0
VERTEX
  8
LAYER_7
 10
169.237
 20
131.4478
  0
SEQEND
  0
POLYLINE
  8
LAYER_7
  6
AIGENLINE001
 40
0.1058
 41
0.1058
 62
252
 66
1
 10
0
 20
0
 30
0
 70
128
  0
VERTEX
  8
LAYER_7
 10
169.5603
 20
132.6098
  0
VERTEX
  8
LAYER_7
 10
169.8096
 20
132.6904
  0
SEQEND
  0
POLYLINE
  8
LAYER_7
  6
AIGENLINE001
 40
0.1058
 41
0.1058
 62
252
 66
1
 10
0
 20
0
 30
0
 70
128
  0
VERTEX
  8
LAYER_7
 10
168.4152
 20
131.2659
  0
VERTEX
  8
LAYER_7
 10
168.4152
 20
130.6254
  0
SEQEND
  0
POLYLINE
  8
LAYER_7
  6
AIGENLINE001
 40
0.1058
 41
0.1058
 62
252
 66
1
 10
0
 20
0
 30
0
 70
128
  0
VERTEX
  8
LAYER_7
 10
168.1132
 20
130.6254
  0
VERTEX
  8
LAYER_7
 10
168.1132
 20
131.2659
  0
SEQEND
  0
POLYLINE
  8
LAYER_7
  6
AIGENLINE001
 40
0.1058
 41
0.1058
 62
252
 66
1
 10
0
 20
0
 30
0
 70
128
  0
VERTEX
  8
LAYER_7
 10
168.6543
 20
131.6183
  0
VERTEX
  8
LAYER_7
 10
168.6543
 20
131.4442
  0
SEQEND
  0
POLYLINE
  8
LAYER_7
  6
AIGENLINE001
 40
0.1058
 41
0.1058
 62
252
 66
1
 10
0
 20
0
 30
0
 70
128
  0
VERTEX
  8
LAYER_7
 10
167.8771
 20
131.6183
  0
VERTEX
  8
LAYER_7
 10
167.8771
 20
131.4388
  0
VERTEX
  8
LAYER_7
 10
168.6513
 20
131.4388
  0
VERTEX
  8
LAYER_7
 10
168.4908
 20
131.2661
  0
VERTEX
  8
LAYER_7
 10
168.0378
 20
131.2659
  0
VERTEX
  8
LAYER_7
 10
167.8772
 20
131.4388
  0
SEQEND
  0
POLYLINE
  8
LAYER_7
  6
AIGENLINE001
 40
0.1058
 41
0.1058
 62
252
 66
1
 10
0
 20
0
 30
0
 70
128
  0
VERTEX
  8
LAYER_7
 10
169.2835
 20
132.2576
  0
VERTEX
  8
LAYER_7
 10
169.2835
 20
131.6183
  0
VERTEX
  8
LAYER_7
 10
167.2449
 20
131.6183
  0
VERTEX
  8
LAYER_7
 10
167.2449
 20
132.2576
  0
SEQEND
  0
POLYLINE
  8
LAYER_7
  6
AIGENLINE001
 40
0.1058
 41
0.1058
 62
252
 66
1
 10
0
 20
0
 30
0
 70
128
  0
VERTEX
  8
LAYER_7
 10
167.4035
 20
132.7976
  0
VERTEX
  8
LAYER_7
 10
167.4035
 20
133
  0
SEQEND
  0
POLYLINE
  8
LAYER_7
  6
AIGENLINE001
 40
0.1058
 41
0.1058
 62
252
 66
1
 10
0
 20
0
 30
0
 70
128
  0
VERTEX
  8
LAYER_7
 10
169.1251
 20
132.7976
  0
VERTEX
  8
LAYER_7
 10
169.1251
 20
133
  0
SEQEND
  0
POLYLINE
  8
LAYER_7
  6
AIGENLINE001
 40
0.1058
 41
0.1058
 62
252
 66
1
 10
0
 20
0
 30
0
 70
128
  0
VERTEX
  8
LAYER_7
 10
166.7417
 20
133.151
  0
VERTEX
  8
LAYER_7
 10
166.9689
 20
133.1265
  0
VERTEX
  8
LAYER_7
 10
167.0957
 20
133.0772
  0
VERTEX
  8
LAYER_7
 10
167.182
 20
133
  0
VERTEX
  8
LAYER_7
 10
169.3466
 20
133
  0
VERTEX
  8
LAYER_7
 10
169.4321
 20
133.0768
  0
VERTEX
  8
LAYER_7
 10
169.5577
 20
133.126
  0
VERTEX
  8
LAYER_7
 10
169.7829
 20
133.1509
  0
VERTEX
  8
LAYER_7
 10
169.7782
 20
133.1509
  0
SEQEND
  0
POLYLINE
  8
LAYER_7
  6
AIGENLINE001
 40
0.1058
 41
0.1058
 62
252
 66
1
 10
0
 20
0
 30
0
 70
129
  0
VERTEX
  8
LAYER_7
 10
168.2641
 20
133.755
  0
VERTEX
  8
LAYER_7
 10
168.2867
 20
133.7546
 42
-0.05014002591
  0
VERTEX
  8
LAYER_7
 10
169.215
 20
133.6527
 42
-0.04852253219
  0
VERTEX
  8
LAYER_7
 10
169.664
 20
133.5173
  0
VERTEX
  8
LAYER_7
 10
169.8481
 20
133.4223
  0
VERTEX
  8
LAYER_7
 10
169.9651
 20
133.327
  0
VERTEX
  8
LAYER_7
 10
170.0351
 20
133.2194
  0
VERTEX
  8
LAYER_7
 10
170.0297
 20
133.1728
  0
VERTEX
  8
LAYER_7
 10
169.9882
 20
133.1509
  0
VERTEX
  8
LAYER_7
 10
169.9881
 20
133.1509
  0
VERTEX
  8
LAYER_7
 10
166.5404
 20
133.1509
  0
VERTEX
  8
LAYER_7
 10
166.4964
 20
133.1711
  0
VERTEX
  8
LAYER_7
 10
166.4934
 20
133.2194
  0
VERTEX
  8
LAYER_7
 10
166.5634
 20
133.327
  0
VERTEX
  8
LAYER_7
 10
166.6804
 20
133.4223
  0
VERTEX
  8
LAYER_7
 10
166.8645
 20
133.5173
 42
-0.04823322844
  0
VERTEX
  8
LAYER_7
 10
167.3136
 20
133.6527
 42
-0.05013078155
  0
VERTEX
  8
LAYER_7
 10
168.2417
 20
133.7546
  0
SEQEND
  0
POLYLINE
  8
LAYER_7
  6
AIGENLINE001
 40
0.1058
 41
0.1058
 62
252
 66
1
 10
0
 20
0
 30
0
 70
128
  0
VERTEX
  8
LAYER_7
 10
166.719
 20
132.6904
  0
VERTEX
  8
LAYER_7
 10
169.8096
 20
132.6904
  0
VERTEX
  8
LAYER_7
 10
169.8357
 20
132.6995
  0
VERTEX
  8
LAYER_7
 10
169.8447
 20
132.7257
 42
0.3936766476
  0
VERTEX
  8
LAYER_7
 10
169.8096
 20
132.7609
  0
VERTEX
  8
LAYER_7
 10
166.719
 20
132.7609
  0
VERTEX
  8
LAYER_7
 10
166.694
 20
132.7507
  0
VERTEX
  8
LAYER_7
 10
166.6864
 20
132.7121
  0
VERTEX
  8
LAYER_7
 10
166.7188
 20
132.6904
  0
VERTEX
  8
LAYER_7
 10
166.9681
 20
132.6098
  0
VERTEX
  8
LAYER_7
 10
169.5603
 20
132.6098
 42
0.3191608907
  0
VERTEX
  8
LAYER_7
 10
169.2835
 20
132.2576
  0
VERTEX
  8
LAYER_7
 10
167.2452
 20
132.2576
 42
0.3192555354
  0
VERTEX
  8
LAYER_7
 10
166.9681
 20
132.6098
  0
SEQEND
  0
POLYLINE
  8
LAYER_7
 40
0.0353
 41
0.0353
 66
1
 10
0
 20
0
 30
0
  0
VERTEX
  8
LAYER_7
 10
168.2415
 20
134.612
  0
VERTEX
  8
LAYER_7
 10
168.2415
 20
131.5697
  0
SEQEND
  0
ENDSEC
  0
EOF
