  0
SECTION
  2
HEADER
  9
$ACADVER
  1
AC1009
  9
$LUNITS
 70
2
  9
$LUPREC
 70
4
  9
$LTSCALE
 40
1.0
  9
$EXTMIN
 10
-30.3177
 20
33.3285
 30
0
  9
$EXTMAX
 10
251.6749
 20
230.337
 30
0
  0
ENDSEC
  0
SECTION
  2
TABLES
  0
TABLE
  2
LTYPE
 70
256
  0
LTYPE
  2
AIGENLINE001
 70
64
  3
generate AI->DXF Converter
 72
65
 73
2
 40
0.7804
 49
0.3902
 49
-0.3902
  0
LTYPE
  2
AIGENLINE002
 70
64
  3
generate AI->DXF Converter
 72
65
 73
2
 40
0.8192
 49
0.4096
 49
-0.4096
  0
LTYPE
  2
AIGENLINE003
 70
64
  3
generate AI->DXF Converter
 72
65
 73
2
 40
0.7805
 49
0.3902
 49
-0.3902
  0
LTYPE
  2
AIGENLINE004
 70
64
  3
generate AI->DXF Converter
 72
65
 73
2
 40
0.2075
 49
0.1037
 49
-0.1037
  0
LTYPE
  2
AIGENLINE005
 70
64
  3
generate AI->DXF Converter
 72
65
 73
2
 40
0.2177
 49
0.1089
 49
-0.1089
  0
LTYPE
  2
AIGENLINE006
 70
64
  3
generate AI->DXF Converter
 72
65
 73
2
 40
0.9251
 49
0.4626
 49
-0.4626
  0
LTYPE
  2
AIGENLINE007
 70
64
  3
generate AI->DXF Converter
 72
65
 73
2
 40
0.8079
 49
0.404
 49
-0.404
  0
LTYPE
  2
AIGENLINE008
 70
64
  3
generate AI->DXF Converter
 72
65
 73
2
 40
0.8079
 49
0.4039
 49
-0.4039
  0
ENDTAB
  0
TABLE
  2
LAYER
 70
5
  0
LAYER
  2
LAYER_1
 70
64
 62
7
  6
CONTINUOUS
  0
LAYER
  2
LAYER_2
 70
64
 62
7
  6
CONTINUOUS
  0
LAYER
  2
LAYER_3
 70
64
 62
7
  6
CONTINUOUS
  0
LAYER
  2
LAYER_4
 70
64
 62
7
  6
CONTINUOUS
  0
LAYER
  2
LAYER_5
 70
64
 62
7
  6
CONTINUOUS
  0
ENDTAB
  0
TABLE
  2
STYLE
 70
6
  0
STYLE
  2
STANDARD
 70
0
 40
0
 50
0
 71
0
 41
0
 42
0
  3
TXT
  4
BIGFONT
  0
ENDTAB
  0
ENDSEC
  0
SECTION
  2
BLOCKS
  0
BLOCK
  8
LAYER_5
  2
AIGNBL05040006
 70
64
 10
0
 20
0
 30
0
  3
AIGNBL05040006
  0
POLYLINE
  8
LAYER_5
 40
0.05
 41
0.05
 66
1
 10
0
 20
0
 30
0
 70
1
  0
VERTEX
  8
LAYER_5
 10
146.7545
 20
39.1418
  0
VERTEX
  8
LAYER_5
 10
146.2657
 20
37.9567
  0
VERTEX
  8
LAYER_5
 10
145.6376
 20
37.9567
  0
VERTEX
  8
LAYER_5
 10
147.2372
 20
41.7225
  0
VERTEX
  8
LAYER_5
 10
147.9703
 20
41.7225
  0
VERTEX
  8
LAYER_5
 10
149.5767
 20
37.9567
  0
VERTEX
  8
LAYER_5
 10
148.9267
 20
37.9567
  0
VERTEX
  8
LAYER_5
 10
148.424
 20
39.1418
  0
SEQEND
  0
POLYLINE
  8
LAYER_5
 40
0.05
 41
0.05
 66
1
 10
0
 20
0
 30
0
 70
1
  0
VERTEX
  8
LAYER_5
 10
148.2983
 20
39.5208
  0
VERTEX
  8
LAYER_5
 10
147.8373
 20
40.6056
 42
-0.02317247198
  0
VERTEX
  8
LAYER_5
 10
147.5927
 20
41.2926
  0
VERTEX
  8
LAYER_5
 10
147.5789
 20
41.2926
 42
-0.02064481114
  0
VERTEX
  8
LAYER_5
 10
147.3412
 20
40.6101
  0
VERTEX
  8
LAYER_5
 10
146.8806
 20
39.5208
  0
SEQEND
  0
ENDBLK
  0
BLOCK
  8
LAYER_5
  2
AIGNBL05040007
 70
64
 10
0
 20
0
 30
0
  3
AIGNBL05040007
  0
POLYLINE
  8
LAYER_5
 40
0.05
 41
0.05
 66
1
 10
0
 20
0
 30
0
 70
1
  0
VERTEX
  8
LAYER_5
 10
153.942
 20
37.4034
 42
-0.01525137561
  0
VERTEX
  8
LAYER_5
 10
152.1399
 20
37.8396
 42
0.09192818596
  0
VERTEX
  8
LAYER_5
 10
151.8533
 20
37.895
 42
-0.09256808484
  0
VERTEX
  8
LAYER_5
 10
150.8994
 20
38.0977
 42
-0.09799469934
  0
VERTEX
  8
LAYER_5
 10
150.2621
 20
38.5324
 42
-0.1630918382
  0
VERTEX
  8
LAYER_5
 10
149.7964
 20
39.5259
 42
-0.0316951694
  0
VERTEX
  8
LAYER_5
 10
149.7793
 20
39.7998
 42
-0.1055313794
  0
VERTEX
  8
LAYER_5
 10
149.9533
 20
40.6417
 42
-0.1619874109
  0
VERTEX
  8
LAYER_5
 10
150.7418
 20
41.4867
 42
-0.09224146328
  0
VERTEX
  8
LAYER_5
 10
151.5409
 20
41.7524
 42
-0.03717154931
  0
VERTEX
  8
LAYER_5
 10
151.9725
 20
41.7838
 42
-0.09530535683
  0
VERTEX
  8
LAYER_5
 10
152.9361
 20
41.6062
 42
-0.1001834594
  0
VERTEX
  8
LAYER_5
 10
153.5732
 20
41.1834
 42
-0.1611157059
  0
VERTEX
  8
LAYER_5
 10
154.06
 20
40.1825
 42
-0.03590950521
  0
VERTEX
  8
LAYER_5
 10
154.0816
 20
39.8784
 42
-0.1066899695
  0
VERTEX
  8
LAYER_5
 10
153.9052
 20
39.0236
 42
-0.2183856259
  0
VERTEX
  8
LAYER_5
 10
152.7953
 20
38.0897
 42
-0.006706171784
  0
VERTEX
  8
LAYER_5
 10
152.7407
 20
38.0738
  0
VERTEX
  8
LAYER_5
 10
152.7407
 20
38.0514
 42
0.01533555045
  0
VERTEX
  8
LAYER_5
 10
154.117
 20
37.8113
  0
SEQEND
  0
POLYLINE
  8
LAYER_5
 40
0.05
 41
0.05
 66
1
 10
0
 20
0
 30
0
 70
1
  0
VERTEX
  8
LAYER_5
 10
153.4394
 20
39.857
 42
0.1175610784
  0
VERTEX
  8
LAYER_5
 10
153.257
 20
40.6254
 42
0.1170135141
  0
VERTEX
  8
LAYER_5
 10
152.8315
 20
41.1234
 42
0.1200044572
  0
VERTEX
  8
LAYER_5
 10
152.2186
 20
41.3675
 42
0.03774262044
  0
VERTEX
  8
LAYER_5
 10
151.9511
 20
41.3873
 42
0.1153139376
  0
VERTEX
  8
LAYER_5
 10
151.2089
 20
41.2226
 42
0.1853550912
  0
VERTEX
  8
LAYER_5
 10
150.5507
 20
40.4882
 42
0.09859892291
  0
VERTEX
  8
LAYER_5
 10
150.4287
 20
39.8122
 42
0.1178359247
  0
VERTEX
  8
LAYER_5
 10
150.5964
 20
39.0734
 42
0.2866694251
  0
VERTEX
  8
LAYER_5
 10
151.9232
 20
38.2912
 42
0.1188197759
  0
VERTEX
  8
LAYER_5
 10
152.6722
 20
38.4633
 42
0.1796740134
  0
VERTEX
  8
LAYER_5
 10
153.3126
 20
39.18
 42
0.09850052237
  0
SEQEND
  0
ENDBLK
  0
BLOCK
  8
LAYER_5
  2
AIGNBL05040008
 70
64
 10
0
 20
0
 30
0
  3
AIGNBL05040008
  0
POLYLINE
  8
LAYER_5
 40
0.05
 41
0.05
 66
1
 10
0
 20
0
 30
0
 70
1
  0
VERTEX
  8
LAYER_5
 10
155.4089
 20
41.7225
  0
VERTEX
  8
LAYER_5
 10
155.4089
 20
39.4932
 42
0.1220213404
  0
VERTEX
  8
LAYER_5
 10
155.569
 20
38.7775
 42
0.2218709818
  0
VERTEX
  8
LAYER_5
 10
156.2104
 20
38.3206
 42
0.05223876895
  0
VERTEX
  8
LAYER_5
 10
156.5055
 20
38.2912
 42
0.1302821267
  0
VERTEX
  8
LAYER_5
 10
157.1748
 20
38.452
 42
0.1509367336
  0
VERTEX
  8
LAYER_5
 10
157.526
 20
38.8454
 42
0.1174732039
  0
VERTEX
  8
LAYER_5
 10
157.651
 20
39.4932
  0
VERTEX
  8
LAYER_5
 10
157.651
 20
41.7225
  0
VERTEX
  8
LAYER_5
 10
158.2656
 20
41.7225
  0
VERTEX
  8
LAYER_5
 10
158.2656
 20
39.5266
 42
-0.1106199636
  0
VERTEX
  8
LAYER_5
 10
158.0961
 20
38.708
 42
-0.1822316276
  0
VERTEX
  8
LAYER_5
 10
157.4057
 20
38.0637
 42
-0.09768689614
  0
VERTEX
  8
LAYER_5
 10
156.6028
 20
37.8972
 42
-0.01000776787
  0
VERTEX
  8
LAYER_5
 10
156.4845
 20
37.895
 42
-0.09899827608
  0
VERTEX
  8
LAYER_5
 10
155.612
 20
38.0554
 42
-0.1209605854
  0
VERTEX
  8
LAYER_5
 10
155.1093
 20
38.4366
 42
-0.1192983303
  0
VERTEX
  8
LAYER_5
 10
154.8407
 20
39.0317
 42
-0.05319533763
  0
VERTEX
  8
LAYER_5
 10
154.7943
 20
39.5046
  0
VERTEX
  8
LAYER_5
 10
154.7943
 20
41.7225
  0
SEQEND
  0
ENDBLK
  0
BLOCK
  8
LAYER_5
  2
AIGNBL05040009
 70
64
 10
0
 20
0
 30
0
  3
AIGNBL05040009
  0
POLYLINE
  8
LAYER_5
 40
0.05
 41
0.05
 66
1
 10
0
 20
0
 30
0
 70
1
  0
VERTEX
  8
LAYER_5
 10
160.0119
 20
39.1418
  0
VERTEX
  8
LAYER_5
 10
159.5227
 20
37.9567
  0
VERTEX
  8
LAYER_5
 10
158.8947
 20
37.9567
  0
VERTEX
  8
LAYER_5
 10
160.4939
 20
41.7225
  0
VERTEX
  8
LAYER_5
 10
161.227
 20
41.7225
  0
VERTEX
  8
LAYER_5
 10
162.8335
 20
37.9567
  0
VERTEX
  8
LAYER_5
 10
162.1841
 20
37.9567
  0
VERTEX
  8
LAYER_5
 10
161.6814
 20
39.1418
  0
SEQEND
  0
POLYLINE
  8
LAYER_5
 40
0.05
 41
0.05
 66
1
 10
0
 20
0
 30
0
 70
1
  0
VERTEX
  8
LAYER_5
 10
161.5553
 20
39.5208
  0
VERTEX
  8
LAYER_5
 10
161.094
 20
40.6056
 42
-0.02227599701
  0
VERTEX
  8
LAYER_5
 10
160.8494
 20
41.2926
  0
VERTEX
  8
LAYER_5
 10
160.8357
 20
41.2926
 42
-0.0206476565
  0
VERTEX
  8
LAYER_5
 10
160.5983
 20
40.6101
  0
VERTEX
  8
LAYER_5
 10
160.1373
 20
39.5208
  0
SEQEND
  0
ENDBLK
  0
BLOCK
  8
LAYER_5
  2
AIGNBL0504000A
 70
64
 10
0
 20
0
 30
0
  3
AIGNBL0504000A
  0
POLYLINE
  8
LAYER_5
 40
0.05
 41
0.05
 66
1
 10
0
 20
0
 30
0
 70
1
  0
VERTEX
  8
LAYER_5
 10
163.8742
 20
41.6777
 42
-0.03334485223
  0
VERTEX
  8
LAYER_5
 10
165.0411
 20
41.7508
 42
-0.08841555942
  0
VERTEX
  8
LAYER_5
 10
166.0872
 20
41.5858
 42
-0.06038484967
  0
VERTEX
  8
LAYER_5
 10
166.3609
 20
41.438
 42
-0.2471651456
  0
VERTEX
  8
LAYER_5
 10
166.7726
 20
40.6497
 42
-0.1483298328
  0
VERTEX
  8
LAYER_5
 10
166.6029
 20
40.0554
 42
-0.07223194904
  0
VERTEX
  8
LAYER_5
 10
166.4095
 20
39.8456
 42
-0.1209372404
  0
VERTEX
  8
LAYER_5
 10
165.7228
 20
39.517
 42
-0.06224269186
  0
VERTEX
  8
LAYER_5
 10
164.9708
 20
39.4319
 42
-0.05738783264
  0
VERTEX
  8
LAYER_5
 10
164.4823
 20
39.4653
  0
VERTEX
  8
LAYER_5
 10
164.4823
 20
37.9567
  0
VERTEX
  8
LAYER_5
 10
163.8742
 20
37.9567
  0
SEQEND
  0
POLYLINE
  8
LAYER_5
 40
0.05
 41
0.05
 66
1
 10
0
 20
0
 30
0
 70
1
  0
VERTEX
  8
LAYER_5
 10
164.4823
 20
39.8622
 42
0.05012782438
  0
VERTEX
  8
LAYER_5
 10
164.9846
 20
39.8229
 42
0.1135463519
  0
VERTEX
  8
LAYER_5
 10
165.7697
 20
39.9822
 42
0.1653329065
  0
VERTEX
  8
LAYER_5
 10
166.1074
 20
40.3302
 42
0.1044639943
  0
VERTEX
  8
LAYER_5
 10
166.1656
 20
40.6273
 42
0.2826437488
  0
VERTEX
  8
LAYER_5
 10
165.8147
 20
41.2103
 42
0.0629694601
  0
VERTEX
  8
LAYER_5
 10
165.549
 20
41.3107
 42
0.06259589917
  0
VERTEX
  8
LAYER_5
 10
165.0552
 20
41.3649
 42
0.05214717704
  0
VERTEX
  8
LAYER_5
 10
164.4823
 20
41.3256
  0
SEQEND
  0
ENDBLK
  0
BLOCK
  8
LAYER_5
  2
AIGNBL0504000B
 70
64
 10
0
 20
0
 30
0
  3
AIGNBL0504000B
  0
POLYLINE
  8
LAYER_5
 40
0.05
 41
0.05
 66
1
 10
0
 20
0
 30
0
 70
1
  0
VERTEX
  8
LAYER_5
 10
168.3246
 20
41.4207
 42
-0.3048675751
  0
VERTEX
  8
LAYER_5
 10
168.1582
 20
41.1661
 42
-0.1151020929
  0
VERTEX
  8
LAYER_5
 10
167.9329
 20
41.1189
 42
-0.2442513348
  0
VERTEX
  8
LAYER_5
 10
167.6028
 20
41.2794
 42
-0.1394546152
  0
VERTEX
  8
LAYER_5
 10
167.5626
 20
41.4207
 42
-0.287439772
  0
VERTEX
  8
LAYER_5
 10
167.7346
 20
41.6803
 42
-0.1179404017
  0
VERTEX
  8
LAYER_5
 10
167.9467
 20
41.7277
 42
-0.2416274379
  0
VERTEX
  8
LAYER_5
 10
168.2814
 20
41.5719
 42
-0.1426378456
  0
SEQEND
  0
POLYLINE
  8
LAYER_5
 40
0.05
 41
0.05
 66
1
 10
0
 20
0
 30
0
 70
1
  0
VERTEX
  8
LAYER_5
 10
167.639
 20
37.9567
  0
VERTEX
  8
LAYER_5
 10
167.639
 20
40.6607
  0
VERTEX
  8
LAYER_5
 10
168.2536
 20
40.6607
  0
VERTEX
  8
LAYER_5
 10
168.2536
 20
37.9567
  0
SEQEND
  0
ENDBLK
  0
BLOCK
  8
LAYER_5
  2
AIGNBL0504000C
 70
64
 10
0
 20
0
 30
0
  3
AIGNBL0504000C
  0
POLYLINE
  8
LAYER_5
 40
0.05
 41
0.05
 66
1
 10
0
 20
0
 30
0
 70
1
  0
VERTEX
  8
LAYER_5
 10
170.1254
 20
39.1418
  0
VERTEX
  8
LAYER_5
 10
169.6372
 20
37.9567
  0
VERTEX
  8
LAYER_5
 10
169.0081
 20
37.9567
  0
VERTEX
  8
LAYER_5
 10
170.6077
 20
41.7225
  0
VERTEX
  8
LAYER_5
 10
171.3415
 20
41.7225
  0
VERTEX
  8
LAYER_5
 10
172.9479
 20
37.9567
  0
VERTEX
  8
LAYER_5
 10
172.2982
 20
37.9567
  0
VERTEX
  8
LAYER_5
 10
171.7955
 20
39.1418
  0
SEQEND
  0
POLYLINE
  8
LAYER_5
 40
0.05
 41
0.05
 66
1
 10
0
 20
0
 30
0
 70
1
  0
VERTEX
  8
LAYER_5
 10
171.6695
 20
39.5208
  0
VERTEX
  8
LAYER_5
 10
171.2085
 20
40.6056
 42
-0.02430767271
  0
VERTEX
  8
LAYER_5
 10
170.9646
 20
41.2926
  0
VERTEX
  8
LAYER_5
 10
170.9498
 20
41.2926
 42
-0.02046602706
  0
VERTEX
  8
LAYER_5
 10
170.7127
 20
40.6101
  0
VERTEX
  8
LAYER_5
 10
170.2518
 20
39.5208
  0
SEQEND
  0
ENDBLK
  0
BLOCK
  8
LAYER_5
  2
AIGNBL05030005
 70
64
 10
0
 20
0
 30
0
  3
AIGNBL05030005
  0
INSERT
  8
LAYER_5
  2
AIGNBL05040006
 10
0
 20
0
 30
0
  0
INSERT
  8
LAYER_5
  2
AIGNBL05040007
 10
0
 20
0
 30
0
  0
INSERT
  8
LAYER_5
  2
AIGNBL05040008
 10
0
 20
0
 30
0
  0
INSERT
  8
LAYER_5
  2
AIGNBL05040009
 10
0
 20
0
 30
0
  0
INSERT
  8
LAYER_5
  2
AIGNBL0504000A
 10
0
 20
0
 30
0
  0
INSERT
  8
LAYER_5
  2
AIGNBL0504000B
 10
0
 20
0
 30
0
  0
INSERT
  8
LAYER_5
  2
AIGNBL0504000C
 10
0
 20
0
 30
0
  0
ENDBLK
  0
BLOCK
  8
LAYER_5
  2
AIGNBL0503000E
 70
64
 10
0
 20
0
 30
0
  3
AIGNBL0503000E
  0
POLYLINE
  8
LAYER_5
 40
0.05
 41
0.05
 66
1
 10
0
 20
0
 30
0
 70
1
  0
VERTEX
  8
LAYER_5
 10
145.7475
 20
36.0574
  0
VERTEX
  8
LAYER_5
 10
146.3008
 20
36.0574
  0
VERTEX
  8
LAYER_5
 10
146.3008
 20
35.9637
  0
VERTEX
  8
LAYER_5
 10
145.6424
 20
35.9637
  0
VERTEX
  8
LAYER_5
 10
145.6424
 20
36.9969
  0
VERTEX
  8
LAYER_5
 10
146.2832
 20
36.9969
  0
VERTEX
  8
LAYER_5
 10
146.2832
 20
36.9035
  0
VERTEX
  8
LAYER_5
 10
145.7475
 20
36.9035
  0
VERTEX
  8
LAYER_5
 10
145.7475
 20
36.549
  0
VERTEX
  8
LAYER_5
 10
146.2481
 20
36.549
  0
VERTEX
  8
LAYER_5
 10
146.2481
 20
36.4557
  0
VERTEX
  8
LAYER_5
 10
145.7475
 20
36.4557
  0
SEQEND
  0
ENDBLK
  0
BLOCK
  8
LAYER_5
  2
AIGNBL0503000F
 70
64
 10
0
 20
0
 30
0
  3
AIGNBL0503000F
  0
POLYLINE
  8
LAYER_5
 40
0.05
 41
0.05
 66
1
 10
0
 20
0
 30
0
 70
1
  0
VERTEX
  8
LAYER_5
 10
147.4404
 20
36.117
  0
VERTEX
  8
LAYER_5
 10
147.4432
 20
36.117
  0
VERTEX
  8
LAYER_5
 10
147.4432
 20
36.9969
  0
VERTEX
  8
LAYER_5
 10
147.5483
 20
36.9969
  0
VERTEX
  8
LAYER_5
 10
147.5483
 20
35.9637
  0
VERTEX
  8
LAYER_5
 10
147.4174
 20
35.9637
  0
VERTEX
  8
LAYER_5
 10
146.8162
 20
36.8525
  0
VERTEX
  8
LAYER_5
 10
146.8127
 20
36.8525
  0
VERTEX
  8
LAYER_5
 10
146.8127
 20
35.9637
  0
VERTEX
  8
LAYER_5
 10
146.708
 20
35.9637
  0
VERTEX
  8
LAYER_5
 10
146.708
 20
36.9969
  0
VERTEX
  8
LAYER_5
 10
146.8393
 20
36.9969
  0
SEQEND
  0
ENDBLK
  0
BLOCK
  8
LAYER_5
  2
AIGNBL05030010
 70
64
 10
0
 20
0
 30
0
  3
AIGNBL05030010
  0
POLYLINE
  8
LAYER_5
 40
0.05
 41
0.05
 66
1
 10
0
 20
0
 30
0
 70
1
  0
VERTEX
  8
LAYER_5
 10
148.0213
 20
36.1756
 42
0.1563325367
  0
VERTEX
  8
LAYER_5
 10
148.0757
 20
36.0726
 42
0.1919271311
  0
VERTEX
  8
LAYER_5
 10
148.1891
 20
36.0309
  0
VERTEX
  8
LAYER_5
 10
148.2783
 20
36.0505
  0
VERTEX
  8
LAYER_5
 10
148.3344
 20
36.1039
  0
VERTEX
  8
LAYER_5
 10
148.3634
 20
36.1804
  0
VERTEX
  8
LAYER_5
 10
148.3716
 20
36.27
  0
VERTEX
  8
LAYER_5
 10
148.3716
 20
36.9969
  0
VERTEX
  8
LAYER_5
 10
148.4767
 20
36.9969
  0
VERTEX
  8
LAYER_5
 10
148.4767
 20
36.2614
  0
VERTEX
  8
LAYER_5
 10
148.4654
 20
36.1535
 42
-0.09689434064
  0
VERTEX
  8
LAYER_5
 10
148.424
 20
36.0484
 42
-0.1145812533
  0
VERTEX
  8
LAYER_5
 10
148.3393
 20
35.9689
 42
-0.1249341208
  0
VERTEX
  8
LAYER_5
 10
148.2004
 20
35.9375
 42
-0.1797266639
  0
VERTEX
  8
LAYER_5
 10
148.0158
 20
35.9975
 42
-0.1772027805
  0
VERTEX
  8
LAYER_5
 10
147.9234
 20
36.149
  0
SEQEND
  0
ENDBLK
  0
BLOCK
  8
LAYER_5
  2
AIGNBL05030011
 70
64
 10
0
 20
0
 30
0
  3
AIGNBL05030011
  0
POLYLINE
  8
LAYER_5
 40
0.05
 41
0.05
 66
1
 10
0
 20
0
 30
0
 70
1
  0
VERTEX
  8
LAYER_5
 10
149.965
 20
36.4805
 42
-0.1019307791
  0
VERTEX
  8
LAYER_5
 10
149.924
 20
36.2631
 42
-0.09962254273
  0
VERTEX
  8
LAYER_5
 10
149.8114
 20
36.0915
 42
-0.09627361929
  0
VERTEX
  8
LAYER_5
 10
149.6405
 20
35.9785
 42
-0.09758594962
  0
VERTEX
  8
LAYER_5
 10
149.4265
 20
35.9375
 42
-0.1000844711
  0
VERTEX
  8
LAYER_5
 10
149.2129
 20
35.9785
 42
-0.09985105323
  0
VERTEX
  8
LAYER_5
 10
149.0421
 20
36.0915
 42
-0.09735230618
  0
VERTEX
  8
LAYER_5
 10
148.9287
 20
36.2631
 42
-0.09653980076
  0
VERTEX
  8
LAYER_5
 10
148.8881
 20
36.4805
 42
-0.1004594477
  0
VERTEX
  8
LAYER_5
 10
148.9287
 20
36.6978
 42
-0.1001669327
  0
VERTEX
  8
LAYER_5
 10
149.0421
 20
36.8694
 42
-0.09871200056
  0
VERTEX
  8
LAYER_5
 10
149.2129
 20
36.9824
 42
-0.09768823248
  0
VERTEX
  8
LAYER_5
 10
149.4265
 20
37.0234
 42
-0.1000514256
  0
VERTEX
  8
LAYER_5
 10
149.6405
 20
36.9824
 42
-0.0983303992
  0
VERTEX
  8
LAYER_5
 10
149.8114
 20
36.8694
 42
-0.09762598086
  0
VERTEX
  8
LAYER_5
 10
149.924
 20
36.6978
 42
-0.09788199595
  0
SEQEND
  0
POLYLINE
  8
LAYER_5
 40
0.05
 41
0.05
 66
1
 10
0
 20
0
 30
0
 70
1
  0
VERTEX
  8
LAYER_5
 10
149.8541
 20
36.4798
 42
0.08634913196
  0
VERTEX
  8
LAYER_5
 10
149.8251
 20
36.6517
 42
0.09663020944
  0
VERTEX
  8
LAYER_5
 10
149.7404
 20
36.795
 42
0.1032857511
  0
VERTEX
  8
LAYER_5
 10
149.6053
 20
36.8932
 42
0.1061320656
  0
VERTEX
  8
LAYER_5
 10
149.4265
 20
36.93
 42
0.1113757871
  0
VERTEX
  8
LAYER_5
 10
149.2477
 20
36.8932
 42
0.1056595975
  0
VERTEX
  8
LAYER_5
 10
149.113
 20
36.795
 42
0.09787799956
  0
VERTEX
  8
LAYER_5
 10
149.0283
 20
36.6517
 42
0.08491464556
  0
VERTEX
  8
LAYER_5
 10
148.999
 20
36.4798
 42
0.08693146424
  0
VERTEX
  8
LAYER_5
 10
149.0283
 20
36.3079
 42
0.1009797617
  0
VERTEX
  8
LAYER_5
 10
149.113
 20
36.1649
 42
0.09920321622
  0
VERTEX
  8
LAYER_5
 10
149.2477
 20
36.0674
 42
0.1060640085
  0
VERTEX
  8
LAYER_5
 10
149.4265
 20
36.0309
 42
0.1126980581
  0
VERTEX
  8
LAYER_5
 10
149.6053
 20
36.0674
 42
0.1035582302
  0
VERTEX
  8
LAYER_5
 10
149.7404
 20
36.1649
 42
0.09432567525
  0
VERTEX
  8
LAYER_5
 10
149.8251
 20
36.3079
 42
0.08466662837
  0
SEQEND
  0
ENDBLK
  0
BLOCK
  8
LAYER_5
  2
AIGNBL05030012
 70
64
 10
0
 20
0
 30
0
  3
AIGNBL05030012
  0
POLYLINE
  8
LAYER_5
 40
0.05
 41
0.05
 66
1
 10
0
 20
0
 30
0
 70
1
  0
VERTEX
  8
LAYER_5
 10
150.7398
 20
35.9637
  0
VERTEX
  8
LAYER_5
 10
150.6351
 20
35.9637
  0
VERTEX
  8
LAYER_5
 10
150.6351
 20
36.4091
  0
VERTEX
  8
LAYER_5
 10
150.2482
 20
36.9969
  0
VERTEX
  8
LAYER_5
 10
150.3795
 20
36.9969
  0
VERTEX
  8
LAYER_5
 10
150.6905
 20
36.4967
  0
VERTEX
  8
LAYER_5
 10
151.004
 20
36.9969
  0
VERTEX
  8
LAYER_5
 10
151.1263
 20
36.9969
  0
VERTEX
  8
LAYER_5
 10
150.7398
 20
36.4091
  0
SEQEND
  0
ENDBLK
  0
BLOCK
  8
LAYER_5
  2
AIGNBL05030013
 70
64
 10
0
 20
0
 30
0
  3
AIGNBL05030013
  0
POLYLINE
  8
LAYER_5
 40
0.05
 41
0.05
 66
1
 10
0
 20
0
 30
0
 70
1
  0
VERTEX
  8
LAYER_5
 10
152.0314
 20
36.9969
  0
VERTEX
  8
LAYER_5
 10
152.339
 20
36.9969
  0
VERTEX
  8
LAYER_5
 10
152.4575
 20
36.9845
  0
VERTEX
  8
LAYER_5
 10
152.5643
 20
36.9421
 42
-0.1168262011
  0
VERTEX
  8
LAYER_5
 10
152.6422
 20
36.8611
 42
-0.1230288266
  0
VERTEX
  8
LAYER_5
 10
152.6718
 20
36.733
 42
-0.1795449175
  0
VERTEX
  8
LAYER_5
 10
152.6219
 20
36.5907
 42
-0.1695619646
  0
VERTEX
  8
LAYER_5
 10
152.4885
 20
36.5111
  0
VERTEX
  8
LAYER_5
 10
152.4885
 20
36.5084
 42
-0.1719890535
  0
VERTEX
  8
LAYER_5
 10
152.6553
 20
36.4302
 42
-0.2018462152
  0
VERTEX
  8
LAYER_5
 10
152.7214
 20
36.2496
 42
-0.1251382371
  0
VERTEX
  8
LAYER_5
 10
152.6942
 20
36.1325
 42
-0.1153486961
  0
VERTEX
  8
LAYER_5
 10
152.6181
 20
36.0419
 42
-0.08656795839
  0
VERTEX
  8
LAYER_5
 10
152.4972
 20
35.9844
 42
-0.06557363107
  0
VERTEX
  8
LAYER_5
 10
152.3373
 20
35.9637
  0
VERTEX
  8
LAYER_5
 10
152.0314
 20
35.9637
  0
SEQEND
  0
POLYLINE
  8
LAYER_5
 40
0.05
 41
0.05
 66
1
 10
0
 20
0
 30
0
 70
1
  0
VERTEX
  8
LAYER_5
 10
152.1365
 20
36.5445
  0
VERTEX
  8
LAYER_5
 10
152.348
 20
36.5445
  0
VERTEX
  8
LAYER_5
 10
152.4248
 20
36.5535
  0
VERTEX
  8
LAYER_5
 10
152.4951
 20
36.5831
  0
VERTEX
  8
LAYER_5
 10
152.5471
 20
36.6396
 42
0.1157679243
  0
VERTEX
  8
LAYER_5
 10
152.5667
 20
36.7258
  0
VERTEX
  8
LAYER_5
 10
152.5471
 20
36.8095
  0
VERTEX
  8
LAYER_5
 10
152.4941
 20
36.8656
  0
VERTEX
  8
LAYER_5
 10
152.4152
 20
36.897
  0
VERTEX
  8
LAYER_5
 10
152.3187
 20
36.9066
  0
VERTEX
  8
LAYER_5
 10
152.1365
 20
36.9066
  0
SEQEND
  0
POLYLINE
  8
LAYER_5
 40
0.05
 41
0.05
 66
1
 10
0
 20
0
 30
0
 70
1
  0
VERTEX
  8
LAYER_5
 10
152.1365
 20
36.0543
  0
VERTEX
  8
LAYER_5
 10
152.3321
 20
36.0543
  0
VERTEX
  8
LAYER_5
 10
152.4407
 20
36.0653
  0
VERTEX
  8
LAYER_5
 10
152.5313
 20
36.1001
 42
0.1172546835
  0
VERTEX
  8
LAYER_5
 10
152.5929
 20
36.1632
 42
0.1286909246
  0
VERTEX
  8
LAYER_5
 10
152.6164
 20
36.2558
 42
0.2499212344
  0
VERTEX
  8
LAYER_5
 10
152.5471
 20
36.4081
 42
0.1538083763
  0
VERTEX
  8
LAYER_5
 10
152.3511
 20
36.4584
  0
VERTEX
  8
LAYER_5
 10
152.1365
 20
36.4584
  0
SEQEND
  0
ENDBLK
  0
BLOCK
  8
LAYER_5
  2
AIGNBL05030014
 70
64
 10
0
 20
0
 30
0
  3
AIGNBL05030014
  0
POLYLINE
  8
LAYER_5
 40
0.05
 41
0.05
 66
1
 10
0
 20
0
 30
0
 70
1
  0
VERTEX
  8
LAYER_5
 10
153.1534
 20
35.9637
  0
VERTEX
  8
LAYER_5
 10
153.038
 20
35.9637
  0
VERTEX
  8
LAYER_5
 10
153.4849
 20
36.9969
  0
VERTEX
  8
LAYER_5
 10
153.5872
 20
36.9969
  0
VERTEX
  8
LAYER_5
 10
154.0306
 20
35.9637
  0
VERTEX
  8
LAYER_5
 10
153.9138
 20
35.9637
  0
VERTEX
  8
LAYER_5
 10
153.7997
 20
36.2352
  0
VERTEX
  8
LAYER_5
 10
153.2658
 20
36.2352
  0
SEQEND
  0
POLYLINE
  8
LAYER_5
 40
0.05
 41
0.05
 66
1
 10
0
 20
0
 30
0
 70
1
  0
VERTEX
  8
LAYER_5
 10
153.305
 20
36.3316
  0
VERTEX
  8
LAYER_5
 10
153.7605
 20
36.3316
  0
VERTEX
  8
LAYER_5
 10
153.5327
 20
36.8804
  0
SEQEND
  0
ENDBLK
  0
BLOCK
  8
LAYER_5
  2
AIGNBL05030015
 70
64
 10
0
 20
0
 30
0
  3
AIGNBL05030015
  0
POLYLINE
  8
LAYER_5
 40
0.05
 41
0.05
 66
1
 10
0
 20
0
 30
0
 70
1
  0
VERTEX
  8
LAYER_5
 10
154.7151
 20
35.9637
  0
VERTEX
  8
LAYER_5
 10
154.61
 20
35.9637
  0
VERTEX
  8
LAYER_5
 10
154.61
 20
36.9035
  0
VERTEX
  8
LAYER_5
 10
154.2638
 20
36.9035
  0
VERTEX
  8
LAYER_5
 10
154.2638
 20
36.9969
  0
VERTEX
  8
LAYER_5
 10
155.0606
 20
36.9969
  0
VERTEX
  8
LAYER_5
 10
155.0606
 20
36.9035
  0
VERTEX
  8
LAYER_5
 10
154.7151
 20
36.9035
  0
SEQEND
  0
ENDBLK
  0
BLOCK
  8
LAYER_5
  2
AIGNBL05030016
 70
64
 10
0
 20
0
 30
0
  3
AIGNBL05030016
  0
POLYLINE
  8
LAYER_5
 40
0.05
 41
0.05
 66
1
 10
0
 20
0
 30
0
 70
1
  0
VERTEX
  8
LAYER_5
 10
155.4169
 20
36.9969
  0
VERTEX
  8
LAYER_5
 10
155.5216
 20
36.9969
  0
VERTEX
  8
LAYER_5
 10
155.5216
 20
36.549
  0
VERTEX
  8
LAYER_5
 10
156.0852
 20
36.549
  0
VERTEX
  8
LAYER_5
 10
156.0852
 20
36.9969
  0
VERTEX
  8
LAYER_5
 10
156.1903
 20
36.9969
  0
VERTEX
  8
LAYER_5
 10
156.1903
 20
35.9637
  0
VERTEX
  8
LAYER_5
 10
156.0852
 20
35.9637
  0
VERTEX
  8
LAYER_5
 10
156.0852
 20
36.4529
  0
VERTEX
  8
LAYER_5
 10
155.5216
 20
36.4529
  0
VERTEX
  8
LAYER_5
 10
155.5216
 20
35.9637
  0
VERTEX
  8
LAYER_5
 10
155.4169
 20
35.9637
  0
SEQEND
  0
ENDBLK
  0
BLOCK
  8
LAYER_5
  2
AIGNBL05030017
 70
64
 10
0
 20
0
 30
0
  3
AIGNBL05030017
  0
POLYLINE
  8
LAYER_5
 40
0.05
 41
0.05
 66
1
 10
0
 20
0
 30
0
 70
1
  0
VERTEX
  8
LAYER_5
 10
156.7708
 20
35.9637
  0
VERTEX
  8
LAYER_5
 10
156.6657
 20
35.9637
  0
VERTEX
  8
LAYER_5
 10
156.6657
 20
36.9969
  0
VERTEX
  8
LAYER_5
 10
156.9696
 20
36.9969
  0
VERTEX
  8
LAYER_5
 10
157.1101
 20
36.9824
 42
-0.1032885834
  0
VERTEX
  8
LAYER_5
 10
157.2228
 20
36.9349
 42
-0.1281738609
  0
VERTEX
  8
LAYER_5
 10
157.2962
 20
36.8494
 42
-0.1081125707
  0
VERTEX
  8
LAYER_5
 10
157.3224
 20
36.7213
  0
VERTEX
  8
LAYER_5
 10
157.3024
 20
36.6176
  0
VERTEX
  8
LAYER_5
 10
157.2469
 20
36.5366
  0
VERTEX
  8
LAYER_5
 10
157.1635
 20
36.4818
  0
VERTEX
  8
LAYER_5
 10
157.0585
 20
36.4557
  0
VERTEX
  8
LAYER_5
 10
157.3606
 20
35.9637
  0
VERTEX
  8
LAYER_5
 10
157.2321
 20
35.9637
  0
VERTEX
  8
LAYER_5
 10
156.9461
 20
36.4467
  0
VERTEX
  8
LAYER_5
 10
156.7708
 20
36.4467
  0
SEQEND
  0
POLYLINE
  8
LAYER_5
 40
0.05
 41
0.05
 66
1
 10
0
 20
0
 30
0
 70
1
  0
VERTEX
  8
LAYER_5
 10
156.7708
 20
36.5373
  0
VERTEX
  8
LAYER_5
 10
156.9534
 20
36.5373
 42
0.153451873
  0
VERTEX
  8
LAYER_5
 10
157.1491
 20
36.5831
 42
0.2580279849
  0
VERTEX
  8
LAYER_5
 10
157.2176
 20
36.7213
  0
VERTEX
  8
LAYER_5
 10
157.1983
 20
36.8071
  0
VERTEX
  8
LAYER_5
 10
157.146
 20
36.8642
  0
VERTEX
  8
LAYER_5
 10
157.0643
 20
36.8963
  0
VERTEX
  8
LAYER_5
 10
156.9579
 20
36.9066
  0
VERTEX
  8
LAYER_5
 10
156.7708
 20
36.9066
  0
SEQEND
  0
ENDBLK
  0
BLOCK
  8
LAYER_5
  2
AIGNBL05030018
 70
64
 10
0
 20
0
 30
0
  3
AIGNBL05030018
  0
POLYLINE
  8
LAYER_5
 40
0.05
 41
0.05
 66
1
 10
0
 20
0
 30
0
 70
1
  0
VERTEX
  8
LAYER_5
 10
158.7627
 20
36.4805
 42
-0.09904480664
  0
VERTEX
  8
LAYER_5
 10
158.7221
 20
36.2631
 42
-0.0998654539
  0
VERTEX
  8
LAYER_5
 10
158.6088
 20
36.0915
 42
-0.09816046092
  0
VERTEX
  8
LAYER_5
 10
158.4382
 20
35.9785
 42
-0.09758412454
  0
VERTEX
  8
LAYER_5
 10
158.2243
 20
35.9375
 42
-0.09999517154
  0
VERTEX
  8
LAYER_5
 10
158.0103
 20
35.9785
 42
-0.09953435427
  0
VERTEX
  8
LAYER_5
 10
157.8398
 20
36.0915
 42
-0.09864299929
  0
VERTEX
  8
LAYER_5
 10
157.7268
 20
36.2631
 42
-0.09653980076
  0
VERTEX
  8
LAYER_5
 10
157.6862
 20
36.4805
 42
-0.1004594477
  0
VERTEX
  8
LAYER_5
 10
157.7268
 20
36.6978
 42
-0.1008040346
  0
VERTEX
  8
LAYER_5
 10
157.8398
 20
36.8694
 42
-0.09763764092
  0
VERTEX
  8
LAYER_5
 10
158.0103
 20
36.9824
 42
-0.09752919603
  0
VERTEX
  8
LAYER_5
 10
158.2243
 20
37.0234
 42
-0.1000174927
  0
VERTEX
  8
LAYER_5
 10
158.4382
 20
36.9824
 42
-0.1006724022
  0
VERTEX
  8
LAYER_5
 10
158.6088
 20
36.8694
 42
-0.09709867792
  0
VERTEX
  8
LAYER_5
 10
158.7221
 20
36.6978
 42
-0.09585658013
  0
SEQEND
  0
POLYLINE
  8
LAYER_5
 40
0.05
 41
0.05
 66
1
 10
0
 20
0
 30
0
 70
1
  0
VERTEX
  8
LAYER_5
 10
158.6518
 20
36.4798
 42
0.08852014676
  0
VERTEX
  8
LAYER_5
 10
158.6225
 20
36.6517
 42
0.09973444611
  0
VERTEX
  8
LAYER_5
 10
158.5378
 20
36.795
 42
0.1024799068
  0
VERTEX
  8
LAYER_5
 10
158.4031
 20
36.8932
 42
0.1060321998
  0
VERTEX
  8
LAYER_5
 10
158.2243
 20
36.93
 42
0.1116325688
  0
VERTEX
  8
LAYER_5
 10
158.0455
 20
36.8932
 42
0.1060506217
  0
VERTEX
  8
LAYER_5
 10
157.9104
 20
36.795
 42
0.09526104957
  0
VERTEX
  8
LAYER_5
 10
157.8257
 20
36.6517
 42
0.08440311357
  0
VERTEX
  8
LAYER_5
 10
157.7967
 20
36.4798
 42
0.08751084222
  0
VERTEX
  8
LAYER_5
 10
157.8257
 20
36.3079
 42
0.09826867926
  0
VERTEX
  8
LAYER_5
 10
157.9104
 20
36.1649
 42
0.09908422267
  0
VERTEX
  8
LAYER_5
 10
158.0455
 20
36.0674
 42
0.1061654103
  0
VERTEX
  8
LAYER_5
 10
158.2243
 20
36.0309
 42
0.1124388132
  0
VERTEX
  8
LAYER_5
 10
158.4031
 20
36.0674
 42
0.1028204009
  0
VERTEX
  8
LAYER_5
 10
158.5378
 20
36.1649
 42
0.09882210045
  0
VERTEX
  8
LAYER_5
 10
158.6225
 20
36.3079
 42
0.08589740831
  0
SEQEND
  0
ENDBLK
  0
BLOCK
  8
LAYER_5
  2
AIGNBL05030019
 70
64
 10
0
 20
0
 30
0
  3
AIGNBL05030019
  0
POLYLINE
  8
LAYER_5
 40
0.05
 41
0.05
 66
1
 10
0
 20
0
 30
0
 70
1
  0
VERTEX
  8
LAYER_5
 10
160.2045
 20
36.4805
 42
-0.1019307791
  0
VERTEX
  8
LAYER_5
 10
160.1635
 20
36.2631
 42
-0.1000344077
  0
VERTEX
  8
LAYER_5
 10
160.0509
 20
36.0915
 42
-0.09685913213
  0
VERTEX
  8
LAYER_5
 10
159.88
 20
35.9785
 42
-0.09758412454
  0
VERTEX
  8
LAYER_5
 10
159.6661
 20
35.9375
 42
-0.1006569764
  0
VERTEX
  8
LAYER_5
 10
159.4525
 20
35.9785
 42
-0.1011318925
  0
VERTEX
  8
LAYER_5
 10
159.2816
 20
36.0915
 42
-0.09735230618
  0
VERTEX
  8
LAYER_5
 10
159.1682
 20
36.2631
 42
-0.09653980076
  0
VERTEX
  8
LAYER_5
 10
159.1276
 20
36.4805
 42
-0.1004594477
  0
VERTEX
  8
LAYER_5
 10
159.1682
 20
36.6978
 42
-0.1001669327
  0
VERTEX
  8
LAYER_5
 10
159.2816
 20
36.8694
 42
-0.09867928162
  0
VERTEX
  8
LAYER_5
 10
159.4525
 20
36.9824
 42
-0.09791748865
  0
VERTEX
  8
LAYER_5
 10
159.6661
 20
37.0234
 42
-0.1000174927
  0
VERTEX
  8
LAYER_5
 10
159.88
 20
36.9824
 42
-0.0983303992
  0
VERTEX
  8
LAYER_5
 10
160.0509
 20
36.8694
 42
-0.09781653482
  0
VERTEX
  8
LAYER_5
 10
160.1635
 20
36.6978
 42
-0.09788199595
  0
SEQEND
  0
POLYLINE
  8
LAYER_5
 40
0.05
 41
0.05
 66
1
 10
0
 20
0
 30
0
 70
1
  0
VERTEX
  8
LAYER_5
 10
160.0936
 20
36.4798
 42
0.08634913196
  0
VERTEX
  8
LAYER_5
 10
160.0646
 20
36.6517
 42
0.09721101768
  0
VERTEX
  8
LAYER_5
 10
159.9799
 20
36.795
 42
0.1030853098
  0
VERTEX
  8
LAYER_5
 10
159.8449
 20
36.8932
 42
0.1060321998
  0
VERTEX
  8
LAYER_5
 10
159.6661
 20
36.93
 42
0.1116325688
  0
VERTEX
  8
LAYER_5
 10
159.4873
 20
36.8932
 42
0.1058584166
  0
VERTEX
  8
LAYER_5
 10
159.3525
 20
36.795
 42
0.09787799956
  0
VERTEX
  8
LAYER_5
 10
159.2678
 20
36.6517
 42
0.08491464556
  0
VERTEX
  8
LAYER_5
 10
159.2385
 20
36.4798
 42
0.08693146424
  0
VERTEX
  8
LAYER_5
 10
159.2678
 20
36.3079
 42
0.1009797617
  0
VERTEX
  8
LAYER_5
 10
159.3525
 20
36.1649
 42
0.09947922476
  0
VERTEX
  8
LAYER_5
 10
159.4873
 20
36.0674
 42
0.1061654103
  0
VERTEX
  8
LAYER_5
 10
159.6661
 20
36.0309
 42
0.1124388132
  0
VERTEX
  8
LAYER_5
 10
159.8449
 20
36.0674
 42
0.103362111
  0
VERTEX
  8
LAYER_5
 10
159.9799
 20
36.1649
 42
0.09450022685
  0
VERTEX
  8
LAYER_5
 10
160.0646
 20
36.3079
 42
0.08466662837
  0
SEQEND
  0
ENDBLK
  0
BLOCK
  8
LAYER_5
  2
AIGNBL0503001A
 70
64
 10
0
 20
0
 30
0
  3
AIGNBL0503001A
  0
POLYLINE
  8
LAYER_5
 40
0.05
 41
0.05
 66
1
 10
0
 20
0
 30
0
 70
1
  0
VERTEX
  8
LAYER_5
 10
161.1354
 20
36.1418
  0
VERTEX
  8
LAYER_5
 10
161.1371
 20
36.1418
  0
VERTEX
  8
LAYER_5
 10
161.4826
 20
36.9969
  0
VERTEX
  8
LAYER_5
 10
161.6435
 20
36.9969
  0
VERTEX
  8
LAYER_5
 10
161.6435
 20
35.9637
  0
VERTEX
  8
LAYER_5
 10
161.5381
 20
35.9637
  0
VERTEX
  8
LAYER_5
 10
161.5381
 20
36.8611
  0
VERTEX
  8
LAYER_5
 10
161.5354
 20
36.8611
  0
VERTEX
  8
LAYER_5
 10
161.1619
 20
35.9637
  0
VERTEX
  8
LAYER_5
 10
161.1064
 20
35.9637
  0
VERTEX
  8
LAYER_5
 10
160.7327
 20
36.8611
  0
VERTEX
  8
LAYER_5
 10
160.7299
 20
36.8611
  0
VERTEX
  8
LAYER_5
 10
160.7299
 20
35.9637
  0
VERTEX
  8
LAYER_5
 10
160.6248
 20
35.9637
  0
VERTEX
  8
LAYER_5
 10
160.6248
 20
36.9969
  0
VERTEX
  8
LAYER_5
 10
160.7854
 20
36.9969
  0
SEQEND
  0
ENDBLK
  0
BLOCK
  8
LAYER_5
  2
AIGNBL0503001B
 70
64
 10
0
 20
0
 30
0
  3
AIGNBL0503001B
  0
POLYLINE
  8
LAYER_5
 40
0.05
 41
0.05
 66
1
 10
0
 20
0
 30
0
 70
1
  0
VERTEX
  8
LAYER_5
 10
162.7901
 20
36.0574
  0
VERTEX
  8
LAYER_5
 10
163.3433
 20
36.0574
  0
VERTEX
  8
LAYER_5
 10
163.3433
 20
35.9637
  0
VERTEX
  8
LAYER_5
 10
162.685
 20
35.9637
  0
VERTEX
  8
LAYER_5
 10
162.685
 20
36.9969
  0
VERTEX
  8
LAYER_5
 10
163.3258
 20
36.9969
  0
VERTEX
  8
LAYER_5
 10
163.3258
 20
36.9035
  0
VERTEX
  8
LAYER_5
 10
162.7901
 20
36.9035
  0
VERTEX
  8
LAYER_5
 10
162.7901
 20
36.549
  0
VERTEX
  8
LAYER_5
 10
163.2906
 20
36.549
  0
VERTEX
  8
LAYER_5
 10
163.2906
 20
36.4557
  0
VERTEX
  8
LAYER_5
 10
162.7901
 20
36.4557
  0
SEQEND
  0
ENDBLK
  0
BLOCK
  8
LAYER_5
  2
AIGNBL0503001C
 70
64
 10
0
 20
0
 30
0
  3
AIGNBL0503001C
  0
POLYLINE
  8
LAYER_5
 40
0.05
 41
0.05
 66
1
 10
0
 20
0
 30
0
 70
1
  0
VERTEX
  8
LAYER_5
 10
164.0885
 20
36.5797
  0
VERTEX
  8
LAYER_5
 10
164.3707
 20
36.9969
  0
VERTEX
  8
LAYER_5
 10
164.4957
 20
36.9969
  0
VERTEX
  8
LAYER_5
 10
164.1533
 20
36.5053
  0
VERTEX
  8
LAYER_5
 10
164.5326
 20
35.9637
  0
VERTEX
  8
LAYER_5
 10
164.4013
 20
35.9637
  0
VERTEX
  8
LAYER_5
 10
164.0858
 20
36.4295
  0
VERTEX
  8
LAYER_5
 10
163.7723
 20
35.9637
  0
VERTEX
  8
LAYER_5
 10
163.6407
 20
35.9637
  0
VERTEX
  8
LAYER_5
 10
164.0203
 20
36.5066
  0
VERTEX
  8
LAYER_5
 10
163.6744
 20
36.9969
  0
VERTEX
  8
LAYER_5
 10
163.806
 20
36.9969
  0
SEQEND
  0
ENDBLK
  0
BLOCK
  8
LAYER_5
  2
AIGNBL0503001D
 70
64
 10
0
 20
0
 30
0
  3
AIGNBL0503001D
  0
POLYLINE
  8
LAYER_5
 40
0.05
 41
0.05
 66
1
 10
0
 20
0
 30
0
 70
1
  0
VERTEX
  8
LAYER_5
 10
164.8988
 20
36.9969
  0
VERTEX
  8
LAYER_5
 10
165.191
 20
36.9969
  0
VERTEX
  8
LAYER_5
 10
165.3339
 20
36.9803
 42
-0.104442724
  0
VERTEX
  8
LAYER_5
 10
165.4438
 20
36.929
 42
-0.1219459081
  0
VERTEX
  8
LAYER_5
 10
165.5148
 20
36.8429
 42
-0.1032545831
  0
VERTEX
  8
LAYER_5
 10
165.5392
 20
36.7213
 42
-0.1239274235
  0
VERTEX
  8
LAYER_5
 10
165.5141
 20
36.5993
 42
-0.1163667494
  0
VERTEX
  8
LAYER_5
 10
165.4424
 20
36.5132
 42
-0.08715194998
  0
VERTEX
  8
LAYER_5
 10
165.3315
 20
36.4615
 42
-0.06108707382
  0
VERTEX
  8
LAYER_5
 10
165.1878
 20
36.4439
  0
VERTEX
  8
LAYER_5
 10
165.0039
 20
36.4439
  0
VERTEX
  8
LAYER_5
 10
165.0039
 20
35.9637
  0
VERTEX
  8
LAYER_5
 10
164.8988
 20
35.9637
  0
SEQEND
  0
POLYLINE
  8
LAYER_5
 40
0.05
 41
0.05
 66
1
 10
0
 20
0
 30
0
 70
1
  0
VERTEX
  8
LAYER_5
 10
165.0039
 20
36.5328
  0
VERTEX
  8
LAYER_5
 10
165.1816
 20
36.5328
 42
0.1698628217
  0
VERTEX
  8
LAYER_5
 10
165.3701
 20
36.5811
 42
0.2445965084
  0
VERTEX
  8
LAYER_5
 10
165.4345
 20
36.7213
 42
0.2593003012
  0
VERTEX
  8
LAYER_5
 10
165.368
 20
36.8622
 42
0.143072224
  0
VERTEX
  8
LAYER_5
 10
165.1816
 20
36.9066
  0
VERTEX
  8
LAYER_5
 10
165.0039
 20
36.9066
  0
SEQEND
  0
ENDBLK
  0
BLOCK
  8
LAYER_5
  2
AIGNBL0503001E
 70
64
 10
0
 20
0
 30
0
  3
AIGNBL0503001E
  0
POLYLINE
  8
LAYER_5
 40
0.05
 41
0.05
 66
1
 10
0
 20
0
 30
0
 70
1
  0
VERTEX
  8
LAYER_5
 10
166.0515
 20
36.0574
  0
VERTEX
  8
LAYER_5
 10
166.6048
 20
36.0574
  0
VERTEX
  8
LAYER_5
 10
166.6048
 20
35.9637
  0
VERTEX
  8
LAYER_5
 10
165.9465
 20
35.9637
  0
VERTEX
  8
LAYER_5
 10
165.9465
 20
36.9969
  0
VERTEX
  8
LAYER_5
 10
166.5872
 20
36.9969
  0
VERTEX
  8
LAYER_5
 10
166.5872
 20
36.9035
  0
VERTEX
  8
LAYER_5
 10
166.0515
 20
36.9035
  0
VERTEX
  8
LAYER_5
 10
166.0515
 20
36.549
  0
VERTEX
  8
LAYER_5
 10
166.5521
 20
36.549
  0
VERTEX
  8
LAYER_5
 10
166.5521
 20
36.4557
  0
VERTEX
  8
LAYER_5
 10
166.0515
 20
36.4557
  0
SEQEND
  0
ENDBLK
  0
BLOCK
  8
LAYER_5
  2
AIGNBL0503001F
 70
64
 10
0
 20
0
 30
0
  3
AIGNBL0503001F
  0
POLYLINE
  8
LAYER_5
 40
0.05
 41
0.05
 66
1
 10
0
 20
0
 30
0
 70
1
  0
VERTEX
  8
LAYER_5
 10
167.1168
 20
35.9637
  0
VERTEX
  8
LAYER_5
 10
167.0117
 20
35.9637
  0
VERTEX
  8
LAYER_5
 10
167.0117
 20
36.9969
  0
VERTEX
  8
LAYER_5
 10
167.3155
 20
36.9969
  0
VERTEX
  8
LAYER_5
 10
167.4561
 20
36.9824
 42
-0.1033890198
  0
VERTEX
  8
LAYER_5
 10
167.5688
 20
36.9349
 42
-0.1259996581
  0
VERTEX
  8
LAYER_5
 10
167.6425
 20
36.8494
 42
-0.1064650891
  0
VERTEX
  8
LAYER_5
 10
167.6683
 20
36.7213
  0
VERTEX
  8
LAYER_5
 10
167.6483
 20
36.6176
  0
VERTEX
  8
LAYER_5
 10
167.5929
 20
36.5366
  0
VERTEX
  8
LAYER_5
 10
167.5095
 20
36.4818
  0
VERTEX
  8
LAYER_5
 10
167.4044
 20
36.4557
  0
VERTEX
  8
LAYER_5
 10
167.7066
 20
35.9637
  0
VERTEX
  8
LAYER_5
 10
167.5781
 20
35.9637
  0
VERTEX
  8
LAYER_5
 10
167.2921
 20
36.4467
  0
VERTEX
  8
LAYER_5
 10
167.1168
 20
36.4467
  0
SEQEND
  0
POLYLINE
  8
LAYER_5
 40
0.05
 41
0.05
 66
1
 10
0
 20
0
 30
0
 70
1
  0
VERTEX
  8
LAYER_5
 10
167.1168
 20
36.5373
  0
VERTEX
  8
LAYER_5
 10
167.2993
 20
36.5373
 42
0.1542719415
  0
VERTEX
  8
LAYER_5
 10
167.495
 20
36.5831
 42
0.2583775622
  0
VERTEX
  8
LAYER_5
 10
167.5636
 20
36.7213
  0
VERTEX
  8
LAYER_5
 10
167.5446
 20
36.8071
  0
VERTEX
  8
LAYER_5
 10
167.4919
 20
36.8642
  0
VERTEX
  8
LAYER_5
 10
167.4103
 20
36.8963
  0
VERTEX
  8
LAYER_5
 10
167.3038
 20
36.9066
  0
VERTEX
  8
LAYER_5
 10
167.1168
 20
36.9066
  0
SEQEND
  0
ENDBLK
  0
BLOCK
  8
LAYER_5
  2
AIGNBL05030020
 70
64
 10
0
 20
0
 30
0
  3
AIGNBL05030020
  0
POLYLINE
  8
LAYER_5
 40
0.05
 41
0.05
 66
1
 10
0
 20
0
 30
0
 70
1
  0
VERTEX
  8
LAYER_5
 10
168.1923
 20
35.9637
  0
VERTEX
  8
LAYER_5
 10
168.0876
 20
35.9637
  0
VERTEX
  8
LAYER_5
 10
168.0876
 20
36.9969
  0
VERTEX
  8
LAYER_5
 10
168.1923
 20
36.9969
  0
SEQEND
  0
ENDBLK
  0
BLOCK
  8
LAYER_5
  2
AIGNBL05030021
 70
64
 10
0
 20
0
 30
0
  3
AIGNBL05030021
  0
POLYLINE
  8
LAYER_5
 40
0.05
 41
0.05
 66
1
 10
0
 20
0
 30
0
 70
1
  0
VERTEX
  8
LAYER_5
 10
168.7732
 20
36.0574
  0
VERTEX
  8
LAYER_5
 10
169.3261
 20
36.0574
  0
VERTEX
  8
LAYER_5
 10
169.3261
 20
35.9637
  0
VERTEX
  8
LAYER_5
 10
168.6681
 20
35.9637
  0
VERTEX
  8
LAYER_5
 10
168.6681
 20
36.9969
  0
VERTEX
  8
LAYER_5
 10
169.3089
 20
36.9969
  0
VERTEX
  8
LAYER_5
 10
169.3089
 20
36.9035
  0
VERTEX
  8
LAYER_5
 10
168.7732
 20
36.9035
  0
VERTEX
  8
LAYER_5
 10
168.7732
 20
36.549
  0
VERTEX
  8
LAYER_5
 10
169.2737
 20
36.549
  0
VERTEX
  8
LAYER_5
 10
169.2737
 20
36.4557
  0
VERTEX
  8
LAYER_5
 10
168.7732
 20
36.4557
  0
SEQEND
  0
ENDBLK
  0
BLOCK
  8
LAYER_5
  2
AIGNBL05030022
 70
64
 10
0
 20
0
 30
0
  3
AIGNBL05030022
  0
POLYLINE
  8
LAYER_5
 40
0.05
 41
0.05
 66
1
 10
0
 20
0
 30
0
 70
1
  0
VERTEX
  8
LAYER_5
 10
170.4661
 20
36.117
  0
VERTEX
  8
LAYER_5
 10
170.4688
 20
36.117
  0
VERTEX
  8
LAYER_5
 10
170.4688
 20
36.9969
  0
VERTEX
  8
LAYER_5
 10
170.5739
 20
36.9969
  0
VERTEX
  8
LAYER_5
 10
170.5739
 20
35.9637
  0
VERTEX
  8
LAYER_5
 10
170.4427
 20
35.9637
  0
VERTEX
  8
LAYER_5
 10
169.8415
 20
36.8525
  0
VERTEX
  8
LAYER_5
 10
169.8384
 20
36.8525
  0
VERTEX
  8
LAYER_5
 10
169.8384
 20
35.9637
  0
VERTEX
  8
LAYER_5
 10
169.7333
 20
35.9637
  0
VERTEX
  8
LAYER_5
 10
169.7333
 20
36.9969
  0
VERTEX
  8
LAYER_5
 10
169.8649
 20
36.9969
  0
SEQEND
  0
ENDBLK
  0
BLOCK
  8
LAYER_5
  2
AIGNBL05030023
 70
64
 10
0
 20
0
 30
0
  3
AIGNBL05030023
  0
POLYLINE
  8
LAYER_5
 40
0.05
 41
0.05
 66
1
 10
0
 20
0
 30
0
 70
1
  0
VERTEX
  8
LAYER_5
 10
171.9196
 20
36.1315
  0
VERTEX
  8
LAYER_5
 10
171.8558
 20
36.0571
  0
VERTEX
  8
LAYER_5
 10
171.7697
 20
35.9954
  0
VERTEX
  8
LAYER_5
 10
171.6615
 20
35.953
  0
VERTEX
  8
LAYER_5
 10
171.5327
 20
35.9375
 42
-0.0997799169
  0
VERTEX
  8
LAYER_5
 10
171.3167
 20
35.9785
 42
-0.102530266
  0
VERTEX
  8
LAYER_5
 10
171.1461
 20
36.0915
 42
-0.1000387679
  0
VERTEX
  8
LAYER_5
 10
171.0345
 20
36.2631
 42
-0.09630702324
  0
VERTEX
  8
LAYER_5
 10
170.9942
 20
36.4805
 42
-0.1019529564
  0
VERTEX
  8
LAYER_5
 10
171.0352
 20
36.6978
 42
-0.09989904409
  0
VERTEX
  8
LAYER_5
 10
171.1479
 20
36.8694
 42
-0.09705342834
  0
VERTEX
  8
LAYER_5
 10
171.3187
 20
36.9824
 42
-0.09752919603
  0
VERTEX
  8
LAYER_5
 10
171.5327
 20
37.0234
  0
VERTEX
  8
LAYER_5
 10
171.6443
 20
37.0113
  0
VERTEX
  8
LAYER_5
 10
171.7473
 20
36.9779
  0
VERTEX
  8
LAYER_5
 10
171.8348
 20
36.9263
  0
VERTEX
  8
LAYER_5
 10
171.9006
 20
36.8584
  0
VERTEX
  8
LAYER_5
 10
171.8131
 20
36.794
  0
VERTEX
  8
LAYER_5
 10
171.7697
 20
36.8439
  0
VERTEX
  8
LAYER_5
 10
171.7063
 20
36.8877
  0
VERTEX
  8
LAYER_5
 10
171.6267
 20
36.9183
  0
VERTEX
  8
LAYER_5
 10
171.5341
 20
36.93
 42
0.1106055686
  0
VERTEX
  8
LAYER_5
 10
171.3539
 20
36.8935
 42
0.1040964846
  0
VERTEX
  8
LAYER_5
 10
171.2188
 20
36.7953
 42
0.09554708239
  0
VERTEX
  8
LAYER_5
 10
171.1341
 20
36.652
 42
0.08465136707
  0
VERTEX
  8
LAYER_5
 10
171.1051
 20
36.4805
 42
0.09018441759
  0
VERTEX
  8
LAYER_5
 10
171.1351
 20
36.3089
 42
0.09834905538
  0
VERTEX
  8
LAYER_5
 10
171.2206
 20
36.1656
 42
0.1037153981
  0
VERTEX
  8
LAYER_5
 10
171.3556
 20
36.0674
 42
0.1064777274
  0
VERTEX
  8
LAYER_5
 10
171.5341
 20
36.0309
 42
0.1093190709
  0
VERTEX
  8
LAYER_5
 10
171.7032
 20
36.0674
 42
0.1366622766
  0
VERTEX
  8
LAYER_5
 10
171.8376
 20
36.1842
  0
SEQEND
  0
ENDBLK
  0
BLOCK
  8
LAYER_5
  2
AIGNBL05030024
 70
64
 10
0
 20
0
 30
0
  3
AIGNBL05030024
  0
POLYLINE
  8
LAYER_5
 40
0.05
 41
0.05
 66
1
 10
0
 20
0
 30
0
 70
1
  0
VERTEX
  8
LAYER_5
 10
172.4067
 20
36.0574
  0
VERTEX
  8
LAYER_5
 10
172.96
 20
36.0574
  0
VERTEX
  8
LAYER_5
 10
172.96
 20
35.9637
  0
VERTEX
  8
LAYER_5
 10
172.3016
 20
35.9637
  0
VERTEX
  8
LAYER_5
 10
172.3016
 20
36.9969
  0
VERTEX
  8
LAYER_5
 10
172.9424
 20
36.9969
  0
VERTEX
  8
LAYER_5
 10
172.9424
 20
36.9035
  0
VERTEX
  8
LAYER_5
 10
172.4067
 20
36.9035
  0
VERTEX
  8
LAYER_5
 10
172.4067
 20
36.549
  0
VERTEX
  8
LAYER_5
 10
172.9073
 20
36.549
  0
VERTEX
  8
LAYER_5
 10
172.9073
 20
36.4557
  0
VERTEX
  8
LAYER_5
 10
172.4067
 20
36.4557
  0
SEQEND
  0
ENDBLK
  0
BLOCK
  8
LAYER_3
  2
AIGNBL03020003
 70
64
 10
0
 20
0
 30
0
  3
AIGNBL03020003
  0
POLYLINE
  8
LAYER_3
 40
0.1446
 41
0.1446
 66
1
 10
0
 20
0
 30
0
  0
VERTEX
  8
LAYER_3
 10
68.8067
 20
190.6127
  0
VERTEX
  8
LAYER_3
 10
68.8067
 20
190.4025
  0
VERTEX
  8
LAYER_3
 10
68.5965
 20
190.4025
  0
SEQEND
  0
POLYLINE
  8
LAYER_3
  6
AIGENLINE001
 40
0.1446
 41
0.1446
 66
1
 10
0
 20
0
 30
0
 70
128
  0
VERTEX
  8
LAYER_3
 10
68.2062
 20
190.4025
  0
VERTEX
  8
LAYER_3
 10
65.2796
 20
190.4025
  0
SEQEND
  0
POLYLINE
  8
LAYER_3
 40
0.1446
 41
0.1446
 66
1
 10
0
 20
0
 30
0
  0
VERTEX
  8
LAYER_3
 10
65.0846
 20
190.4025
  0
VERTEX
  8
LAYER_3
 10
64.8744
 20
190.4025
  0
VERTEX
  8
LAYER_3
 10
64.8744
 20
190.6127
  0
SEQEND
  0
POLYLINE
  8
LAYER_3
  6
AIGENLINE002
 40
0.1446
 41
0.1446
 66
1
 10
0
 20
0
 30
0
 70
128
  0
VERTEX
  8
LAYER_3
 10
64.8744
 20
191.0223
  0
VERTEX
  8
LAYER_3
 10
64.8744
 20
191.6367
  0
SEQEND
  0
POLYLINE
  8
LAYER_3
 40
0.1446
 41
0.1446
 66
1
 10
0
 20
0
 30
0
  0
VERTEX
  8
LAYER_3
 10
64.8744
 20
191.8415
  0
VERTEX
  8
LAYER_3
 10
64.8744
 20
192.0517
  0
VERTEX
  8
LAYER_3
 10
65.0846
 20
192.0517
  0
SEQEND
  0
POLYLINE
  8
LAYER_3
  6
AIGENLINE001
 40
0.1446
 41
0.1446
 66
1
 10
0
 20
0
 30
0
 70
128
  0
VERTEX
  8
LAYER_3
 10
65.4749
 20
192.0517
  0
VERTEX
  8
LAYER_3
 10
68.4015
 20
192.0517
  0
SEQEND
  0
POLYLINE
  8
LAYER_3
 40
0.1446
 41
0.1446
 66
1
 10
0
 20
0
 30
0
  0
VERTEX
  8
LAYER_3
 10
68.5965
 20
192.0517
  0
VERTEX
  8
LAYER_3
 10
68.8067
 20
192.0517
  0
VERTEX
  8
LAYER_3
 10
68.8067
 20
191.8415
  0
SEQEND
  0
POLYLINE
  8
LAYER_3
  6
AIGENLINE002
 40
0.1446
 41
0.1446
 66
1
 10
0
 20
0
 30
0
 70
128
  0
VERTEX
  8
LAYER_3
 10
68.8067
 20
191.4319
  0
VERTEX
  8
LAYER_3
 10
68.8067
 20
190.8175
  0
SEQEND
  0
ENDBLK
  0
BLOCK
  8
LAYER_3
  2
AIGNBL03020005
 70
64
 10
0
 20
0
 30
0
  3
AIGNBL03020005
  0
POLYLINE
  8
LAYER_3
 40
0.1446
 41
0.1446
 66
1
 10
0
 20
0
 30
0
  0
VERTEX
  8
LAYER_3
 10
40.7364
 20
190.6127
  0
VERTEX
  8
LAYER_3
 10
40.7364
 20
190.4025
  0
VERTEX
  8
LAYER_3
 10
40.5262
 20
190.4025
  0
SEQEND
  0
POLYLINE
  8
LAYER_3
  6
AIGENLINE003
 40
0.1446
 41
0.1446
 66
1
 10
0
 20
0
 30
0
 70
128
  0
VERTEX
  8
LAYER_3
 10
40.1359
 20
190.4025
  0
VERTEX
  8
LAYER_3
 10
37.2089
 20
190.4025
  0
SEQEND
  0
POLYLINE
  8
LAYER_3
 40
0.1446
 41
0.1446
 66
1
 10
0
 20
0
 30
0
  0
VERTEX
  8
LAYER_3
 10
37.0139
 20
190.4025
  0
VERTEX
  8
LAYER_3
 10
36.8038
 20
190.4025
  0
VERTEX
  8
LAYER_3
 10
36.8038
 20
190.6127
  0
SEQEND
  0
POLYLINE
  8
LAYER_3
  6
AIGENLINE002
 40
0.1446
 41
0.1446
 66
1
 10
0
 20
0
 30
0
 70
128
  0
VERTEX
  8
LAYER_3
 10
36.8038
 20
191.0223
  0
VERTEX
  8
LAYER_3
 10
36.8038
 20
191.6367
  0
SEQEND
  0
POLYLINE
  8
LAYER_3
 40
0.1446
 41
0.1446
 66
1
 10
0
 20
0
 30
0
  0
VERTEX
  8
LAYER_3
 10
36.8038
 20
191.8415
  0
VERTEX
  8
LAYER_3
 10
36.8038
 20
192.0517
  0
VERTEX
  8
LAYER_3
 10
37.0139
 20
192.0517
  0
SEQEND
  0
POLYLINE
  8
LAYER_3
  6
AIGENLINE003
 40
0.1446
 41
0.1446
 66
1
 10
0
 20
0
 30
0
 70
128
  0
VERTEX
  8
LAYER_3
 10
37.4043
 20
192.0517
  0
VERTEX
  8
LAYER_3
 10
40.3312
 20
192.0517
  0
SEQEND
  0
POLYLINE
  8
LAYER_3
 40
0.1446
 41
0.1446
 66
1
 10
0
 20
0
 30
0
  0
VERTEX
  8
LAYER_3
 10
40.5262
 20
192.0517
  0
VERTEX
  8
LAYER_3
 10
40.7364
 20
192.0517
  0
VERTEX
  8
LAYER_3
 10
40.7364
 20
191.8415
  0
SEQEND
  0
POLYLINE
  8
LAYER_3
  6
AIGENLINE002
 40
0.1446
 41
0.1446
 66
1
 10
0
 20
0
 30
0
 70
128
  0
VERTEX
  8
LAYER_3
 10
40.7364
 20
191.4319
  0
VERTEX
  8
LAYER_3
 10
40.7364
 20
190.8175
  0
SEQEND
  0
ENDBLK
  0
BLOCK
  8
LAYER_3
  2
AIGNBL03020007
 70
64
 10
0
 20
0
 30
0
  3
AIGNBL03020007
  0
POLYLINE
  8
LAYER_3
 40
0.0529
 41
0.0529
 66
1
 10
0
 20
0
 30
0
  0
VERTEX
  8
LAYER_3
 10
120.4929
 20
110.4256
  0
VERTEX
  8
LAYER_3
 10
120.546
 20
110.4256
  0
SEQEND
  0
POLYLINE
  8
LAYER_3
  6
AIGENLINE004
 40
0.0529
 41
0.0529
 66
1
 10
0
 20
0
 30
0
 70
128
  0
VERTEX
  8
LAYER_3
 10
120.6493
 20
110.4256
  0
VERTEX
  8
LAYER_3
 10
123.7099
 20
110.4256
  0
SEQEND
  0
POLYLINE
  8
LAYER_3
 40
0.0529
 41
0.0529
 66
1
 10
0
 20
0
 30
0
  0
VERTEX
  8
LAYER_3
 10
123.7616
 20
110.4256
  0
VERTEX
  8
LAYER_3
 10
123.8147
 20
110.4256
  0
SEQEND
  0
ENDBLK
  0
BLOCK
  8
LAYER_3
  2
AIGNBL03020009
 70
64
 10
0
 20
0
 30
0
  3
AIGNBL03020009
  0
POLYLINE
  8
LAYER_3
 40
0.0529
 41
0.0529
 66
1
 10
0
 20
0
 30
0
  0
VERTEX
  8
LAYER_3
 10
120.4929
 20
108.4261
  0
VERTEX
  8
LAYER_3
 10
120.546
 20
108.4261
  0
SEQEND
  0
POLYLINE
  8
LAYER_3
  6
AIGENLINE005
 40
0.0529
 41
0.0529
 66
1
 10
0
 20
0
 30
0
 70
128
  0
VERTEX
  8
LAYER_3
 10
120.6548
 20
108.4261
  0
VERTEX
  8
LAYER_3
 10
123.6486
 20
108.4261
  0
SEQEND
  0
POLYLINE
  8
LAYER_3
 40
0.0529
 41
0.0529
 66
1
 10
0
 20
0
 30
0
  0
VERTEX
  8
LAYER_3
 10
123.703
 20
108.4261
  0
VERTEX
  8
LAYER_3
 10
123.7561
 20
108.4261
  0
SEQEND
  0
ENDBLK
  0
BLOCK
  8
LAYER_3
  2
AIGNBL0302000E
 70
64
 10
0
 20
0
 30
0
  3
AIGNBL0302000E
  0
POLYLINE
  8
LAYER_3
 40
0.1199
 41
0.1199
 66
1
 10
0
 20
0
 30
0
  0
VERTEX
  8
LAYER_3
 10
144.4597
 20
118.7707
  0
VERTEX
  8
LAYER_3
 10
144.4597
 20
118.5599
  0
SEQEND
  0
POLYLINE
  8
LAYER_3
  6
AIGENLINE006
 40
0.1199
 41
0.1199
 66
1
 10
0
 20
0
 30
0
 70
128
  0
VERTEX
  8
LAYER_3
 10
144.4597
 20
118.0972
  0
VERTEX
  8
LAYER_3
 10
144.4597
 20
115.5533
  0
SEQEND
  0
POLYLINE
  8
LAYER_3
 40
0.1199
 41
0.1199
 66
1
 10
0
 20
0
 30
0
  0
VERTEX
  8
LAYER_3
 10
144.4597
 20
115.3218
  0
VERTEX
  8
LAYER_3
 10
144.4597
 20
115.111
  0
SEQEND
  0
ENDBLK
  0
BLOCK
  8
LAYER_5
  2
AIGNBL05020004
 70
64
 10
0
 20
0
 30
0
  3
AIGNBL05020004
  0
INSERT
  8
LAYER_5
  2
AIGNBL05030005
 10
0
 20
0
 30
0
  0
ENDBLK
  0
BLOCK
  8
LAYER_5
  2
AIGNBL0502000D
 70
64
 10
0
 20
0
 30
0
  3
AIGNBL0502000D
  0
INSERT
  8
LAYER_5
  2
AIGNBL0503000E
 10
0
 20
0
 30
0
  0
INSERT
  8
LAYER_5
  2
AIGNBL0503000F
 10
0
 20
0
 30
0
  0
INSERT
  8
LAYER_5
  2
AIGNBL05030010
 10
0
 20
0
 30
0
  0
INSERT
  8
LAYER_5
  2
AIGNBL05030011
 10
0
 20
0
 30
0
  0
INSERT
  8
LAYER_5
  2
AIGNBL05030012
 10
0
 20
0
 30
0
  0
INSERT
  8
LAYER_5
  2
AIGNBL05030013
 10
0
 20
0
 30
0
  0
INSERT
  8
LAYER_5
  2
AIGNBL05030014
 10
0
 20
0
 30
0
  0
INSERT
  8
LAYER_5
  2
AIGNBL05030015
 10
0
 20
0
 30
0
  0
INSERT
  8
LAYER_5
  2
AIGNBL05030016
 10
0
 20
0
 30
0
  0
INSERT
  8
LAYER_5
  2
AIGNBL05030017
 10
0
 20
0
 30
0
  0
INSERT
  8
LAYER_5
  2
AIGNBL05030018
 10
0
 20
0
 30
0
  0
INSERT
  8
LAYER_5
  2
AIGNBL05030019
 10
0
 20
0
 30
0
  0
INSERT
  8
LAYER_5
  2
AIGNBL0503001A
 10
0
 20
0
 30
0
  0
INSERT
  8
LAYER_5
  2
AIGNBL0503001B
 10
0
 20
0
 30
0
  0
INSERT
  8
LAYER_5
  2
AIGNBL0503001C
 10
0
 20
0
 30
0
  0
INSERT
  8
LAYER_5
  2
AIGNBL0503001D
 10
0
 20
0
 30
0
  0
INSERT
  8
LAYER_5
  2
AIGNBL0503001E
 10
0
 20
0
 30
0
  0
INSERT
  8
LAYER_5
  2
AIGNBL0503001F
 10
0
 20
0
 30
0
  0
INSERT
  8
LAYER_5
  2
AIGNBL05030020
 10
0
 20
0
 30
0
  0
INSERT
  8
LAYER_5
  2
AIGNBL05030021
 10
0
 20
0
 30
0
  0
INSERT
  8
LAYER_5
  2
AIGNBL05030022
 10
0
 20
0
 30
0
  0
INSERT
  8
LAYER_5
  2
AIGNBL05030023
 10
0
 20
0
 30
0
  0
INSERT
  8
LAYER_5
  2
AIGNBL05030024
 10
0
 20
0
 30
0
  0
ENDBLK
  0
BLOCK
  8
LAYER_5
  2
AIGNBL05020026
 70
64
 10
0
 20
0
 30
0
  3
AIGNBL05020026
  0
POLYLINE
  8
LAYER_5
 40
0.05
 41
0.05
 66
1
 10
0
 20
0
 30
0
  0
VERTEX
  8
LAYER_5
 10
-7.0151
 20
219.4629
 42
0.1036295037
  0
VERTEX
  8
LAYER_5
 10
-7.1824
 20
220.2981
 42
0.2712377295
  0
VERTEX
  8
LAYER_5
 10
-8.5808
 20
221.2683
 42
0.0303823279
  0
VERTEX
  8
LAYER_5
 10
-8.8902
 20
221.2869
 42
0.07622953026
  0
VERTEX
  8
LAYER_5
 10
-10.0755
 20
221.1158
 42
0.09018414719
  0
VERTEX
  8
LAYER_5
 10
-10.8588
 20
220.6991
 42
0.02803610524
  0
VERTEX
  8
LAYER_5
 10
-11.0228
 20
220.5492
  0
VERTEX
  8
LAYER_5
 10
-11.077
 20
220.4928
  0
VERTEX
  8
LAYER_5
 10
-10.5515
 20
219.8736
  0
VERTEX
  8
LAYER_5
 10
-10.486
 20
219.9328
 42
-0.1028844552
  0
VERTEX
  8
LAYER_5
 10
-9.7273
 20
220.3798
 42
-0.08112526944
  0
VERTEX
  8
LAYER_5
 10
-9.0479
 20
220.4863
 42
-0.1265582199
  0
VERTEX
  8
LAYER_5
 10
-8.3271
 20
220.3251
 42
-0.1601174183
  0
VERTEX
  8
LAYER_5
 10
-7.989
 20
219.9367
 42
-0.1111761681
  0
VERTEX
  8
LAYER_5
 10
-7.8786
 20
219.3074
  0
VERTEX
  8
LAYER_5
 10
-7.8786
 20
219.2664
  0
VERTEX
  8
LAYER_5
 10
-8.1378
 20
219.2664
 42
0.06077240879
  0
VERTEX
  8
LAYER_5
 10
-9.7982
 20
219.1093
 42
0.08579906275
  0
VERTEX
  8
LAYER_5
 10
-10.637
 20
218.7454
 42
0.1116389424
  0
VERTEX
  8
LAYER_5
 10
-11.084
 20
218.256
 42
0.1204165628
  0
VERTEX
  8
LAYER_5
 10
-11.2651
 20
217.5693
 42
0.01082812986
  0
VERTEX
  8
LAYER_5
 10
-11.2668
 20
217.4872
 42
0.1262321423
  0
VERTEX
  8
LAYER_5
 10
-11.0913
 20
216.7744
 42
0.1210183113
  0
VERTEX
  8
LAYER_5
 10
-10.6379
 20
216.2915
 42
0.1012990331
  0
VERTEX
  8
LAYER_5
 10
-9.9371
 20
216.0112
 42
0.0482675821
  0
VERTEX
  8
LAYER_5
 10
-9.4954
 20
215.9686
 42
0.09682055791
  0
VERTEX
  8
LAYER_5
 10
-8.5823
 20
216.1314
 42
0.1382755127
  0
VERTEX
  8
LAYER_5
 10
-7.831
 20
216.7347
 42
-0.01012269081
  0
VERTEX
  8
LAYER_5
 10
-7.831
 20
216.0938
  0
VERTEX
  8
LAYER_5
 10
-7.0151
 20
216.0938
  0
SEQEND
  0
POLYLINE
  8
LAYER_5
 40
0.05
 41
0.05
 66
1
 10
0
 20
0
 30
0
 70
1
  0
VERTEX
  8
LAYER_5
 10
-7.8786
 20
218.2604
 42
-0.1095386536
  0
VERTEX
  8
LAYER_5
 10
-8.0512
 20
217.4437
 42
-0.1199361921
  0
VERTEX
  8
LAYER_5
 10
-8.4534
 20
216.9519
 42
-0.1209196473
  0
VERTEX
  8
LAYER_5
 10
-9.0539
 20
216.7055
 42
-0.04108384777
  0
VERTEX
  8
LAYER_5
 10
-9.3645
 20
216.6807
 42
-0.1210384521
  0
VERTEX
  8
LAYER_5
 10
-10.0836
 20
216.8493
 42
-0.1552969123
  0
VERTEX
  8
LAYER_5
 10
-10.4405
 20
217.2222
 42
-0.1101808209
  0
VERTEX
  8
LAYER_5
 10
-10.5141
 20
217.581
 42
-0.2540996651
  0
VERTEX
  8
LAYER_5
 10
-10.1607
 20
218.2336
 42
-0.05633044218
  0
VERTEX
  8
LAYER_5
 10
-9.8761
 20
218.386
 42
-0.04424609476
  0
VERTEX
  8
LAYER_5
 10
-9.4522
 20
218.5131
 42
-0.03214714642
  0
VERTEX
  8
LAYER_5
 10
-8.8857
 20
218.5932
 42
-0.02048243444
  0
VERTEX
  8
LAYER_5
 10
-8.2341
 20
218.6168
  0
VERTEX
  8
LAYER_5
 10
-7.8786
 20
218.6168
  0
SEQEND
  0
ENDBLK
  0
BLOCK
  8
LAYER_5
  2
AIGNBL05020027
 70
64
 10
0
 20
0
 30
0
  3
AIGNBL05020027
  0
POLYLINE
  8
LAYER_5
 40
0.05
 41
0.05
 66
1
 10
0
 20
0
 30
0
  0
VERTEX
  8
LAYER_5
 10
-2.3816
 20
222.5694
 42
-0.3911816587
  0
VERTEX
  8
LAYER_5
 10
-1.7162
 20
221.9134
 42
-0.3962775652
  0
VERTEX
  8
LAYER_5
 10
-2.3816
 20
221.249
 42
-0.3917541856
  0
VERTEX
  8
LAYER_5
 10
-3.0465
 20
221.9058
 42
-0.3962384604
  0
VERTEX
  8
LAYER_5
 10
-2.3816
 20
222.5694
  0
SEQEND
  0
POLYLINE
  8
LAYER_5
 40
0.05
 41
0.05
 66
1
 10
0
 20
0
 30
0
  0
VERTEX
  8
LAYER_5
 10
-2.3816
 20
221.3453
 42
0.4000887886
  0
VERTEX
  8
LAYER_5
 10
-1.8235
 20
221.9134
 42
0.3965824436
  0
VERTEX
  8
LAYER_5
 10
-2.3816
 20
222.4732
 42
0.3991350597
  0
VERTEX
  8
LAYER_5
 10
-2.9423
 20
221.9058
 42
0.3960577263
  0
VERTEX
  8
LAYER_5
 10
-2.3816
 20
221.3453
  0
SEQEND
  0
POLYLINE
  8
LAYER_5
 40
0.05
 41
0.05
 66
1
 10
0
 20
0
 30
0
 70
1
  0
VERTEX
  8
LAYER_5
 10
-2.6271
 20
222.2877
  0
VERTEX
  8
LAYER_5
 10
-2.3465
 20
222.2877
 42
-0.168907298
  0
VERTEX
  8
LAYER_5
 10
-2.1506
 20
222.2398
 42
-0.2574074432
  0
VERTEX
  8
LAYER_5
 10
-2.0783
 20
222.0671
 42
-0.4159475438
  0
VERTEX
  8
LAYER_5
 10
-2.2813
 20
221.8598
  0
VERTEX
  8
LAYER_5
 10
-2.06
 20
221.5215
  0
VERTEX
  8
LAYER_5
 10
-2.1758
 20
221.5215
  0
VERTEX
  8
LAYER_5
 10
-2.3844
 20
221.8504
  0
VERTEX
  8
LAYER_5
 10
-2.5215
 20
221.8504
  0
VERTEX
  8
LAYER_5
 10
-2.5215
 20
221.5215
  0
VERTEX
  8
LAYER_5
 10
-2.6271
 20
221.5215
  0
SEQEND
  0
POLYLINE
  8
LAYER_5
 40
0.05
 41
0.05
 66
1
 10
0
 20
0
 30
0
 70
1
  0
VERTEX
  8
LAYER_5
 10
-2.5215
 20
221.9473
  0
VERTEX
  8
LAYER_5
 10
-2.3906
 20
221.9473
 42
0.2475730306
  0
VERTEX
  8
LAYER_5
 10
-2.2112
 20
221.9902
 42
0.1858650567
  0
VERTEX
  8
LAYER_5
 10
-2.1847
 20
222.0724
 42
0.2728673912
  0
VERTEX
  8
LAYER_5
 10
-2.23
 20
222.1656
 42
0.14179533
  0
VERTEX
  8
LAYER_5
 10
-2.3563
 20
222.1913
  0
VERTEX
  8
LAYER_5
 10
-2.5215
 20
222.1913
  0
SEQEND
  0
ENDBLK
  0
BLOCK
  8
LAYER_5
  2
AIGNBL05020028
 70
64
 10
0
 20
0
 30
0
  3
AIGNBL05020028
  0
POLYLINE
  8
LAYER_5
 40
0.05
 41
0.05
 66
1
 10
0
 20
0
 30
0
  0
VERTEX
  8
LAYER_5
 10
-23.704
 20
214.1029
  0
VERTEX
  8
LAYER_5
 10
-23.4337
 20
214.1029
  0
VERTEX
  8
LAYER_5
 10
-22.6792
 20
212.3512
  0
VERTEX
  8
LAYER_5
 10
-23.0351
 20
212.3512
  0
VERTEX
  8
LAYER_5
 10
-23.1989
 20
212.7514
  0
VERTEX
  8
LAYER_5
 10
-23.9579
 20
212.7514
  0
VERTEX
  8
LAYER_5
 10
-24.116
 20
212.3512
  0
VERTEX
  8
LAYER_5
 10
-24.4648
 20
212.3512
  0
SEQEND
  0
POLYLINE
  8
LAYER_5
 40
0.05
 41
0.05
 66
1
 10
0
 20
0
 30
0
 70
1
  0
VERTEX
  8
LAYER_5
 10
-23.3081
 20
213.0189
  0
VERTEX
  8
LAYER_5
 10
-23.5767
 20
213.7308
  0
VERTEX
  8
LAYER_5
 10
-23.8523
 20
213.0189
  0
SEQEND
  0
ENDBLK
  0
BLOCK
  8
LAYER_5
  2
AIGNBL05020029
 70
64
 10
0
 20
0
 30
0
  3
AIGNBL05020029
  0
POLYLINE
  8
LAYER_5
 40
0.05
 41
0.05
 66
1
 10
0
 20
0
 30
0
  0
VERTEX
  8
LAYER_5
 10
-18.1674
 20
212.3512
  0
VERTEX
  8
LAYER_5
 10
-19.1856
 20
212.3512
 42
-0.1498985077
  0
VERTEX
  8
LAYER_5
 10
-19.7815
 20
212.5257
 42
-0.2523688634
  0
VERTEX
  8
LAYER_5
 10
-20.1395
 20
213.2635
 42
-0.4051360019
  0
VERTEX
  8
LAYER_5
 10
-19.2198
 20
214.1463
 42
-0.224501409
  0
VERTEX
  8
LAYER_5
 10
-18.4791
 20
213.7949
 42
-0.1669496671
  0
VERTEX
  8
LAYER_5
 10
-18.3009
 20
213.2635
 42
-0.175299756
  0
VERTEX
  8
LAYER_5
 10
-18.4675
 20
212.7739
 42
-0.08694350938
  0
VERTEX
  8
LAYER_5
 10
-18.6688
 20
212.6077
  0
VERTEX
  8
LAYER_5
 10
-18.6688
 20
212.603
  0
VERTEX
  8
LAYER_5
 10
-18.1674
 20
212.603
  0
SEQEND
  0
POLYLINE
  8
LAYER_5
 40
0.05
 41
0.05
 66
1
 10
0
 20
0
 30
0
  0
VERTEX
  8
LAYER_5
 10
-19.8145
 20
213.2559
 42
0.1875932054
  0
VERTEX
  8
LAYER_5
 10
-19.6465
 20
212.8098
 42
0.2073404857
  0
VERTEX
  8
LAYER_5
 10
-19.2224
 20
212.633
 42
0.4106100379
  0
VERTEX
  8
LAYER_5
 10
-18.6275
 20
213.2559
 42
0.1910243201
  0
VERTEX
  8
LAYER_5
 10
-18.7947
 20
213.6914
 42
0.2063933446
  0
VERTEX
  8
LAYER_5
 10
-19.2274
 20
213.8648
 42
0.4079661945
  0
VERTEX
  8
LAYER_5
 10
-19.8145
 20
213.2559
  0
SEQEND
  0
ENDBLK
  0
BLOCK
  8
LAYER_5
  2
AIGNBL0502002A
 70
64
 10
0
 20
0
 30
0
  3
AIGNBL0502002A
  0
POLYLINE
  8
LAYER_5
 40
0.05
 41
0.05
 66
1
 10
0
 20
0
 30
0
  0
VERTEX
  8
LAYER_5
 10
-14.8442
 20
214.1029
  0
VERTEX
  8
LAYER_5
 10
-14.5738
 20
214.1029
  0
VERTEX
  8
LAYER_5
 10
-13.8207
 20
212.3512
  0
VERTEX
  8
LAYER_5
 10
-14.1752
 20
212.3512
  0
VERTEX
  8
LAYER_5
 10
-14.3392
 20
212.7514
  0
VERTEX
  8
LAYER_5
 10
-15.0981
 20
212.7514
  0
VERTEX
  8
LAYER_5
 10
-15.2575
 20
212.3512
  0
VERTEX
  8
LAYER_5
 10
-15.6063
 20
212.3512
  0
SEQEND
  0
POLYLINE
  8
LAYER_5
 40
0.05
 41
0.05
 66
1
 10
0
 20
0
 30
0
 70
1
  0
VERTEX
  8
LAYER_5
 10
-14.4479
 20
213.0189
  0
VERTEX
  8
LAYER_5
 10
-14.7168
 20
213.7308
  0
VERTEX
  8
LAYER_5
 10
-14.9917
 20
213.0189
  0
SEQEND
  0
ENDBLK
  0
BLOCK
  8
LAYER_5
  2
AIGNBL0502002B
 70
64
 10
0
 20
0
 30
0
  3
AIGNBL0502002B
  0
POLYLINE
  8
LAYER_5
 40
0.05
 41
0.05
 66
1
 10
0
 20
0
 30
0
  0
VERTEX
  8
LAYER_5
 10
-10.3596
 20
214.1029
  0
VERTEX
  8
LAYER_5
 10
-9.7694
 20
214.1029
 42
-0.08664900819
  0
VERTEX
  8
LAYER_5
 10
-9.4428
 20
214.0546
 42
-0.2128687583
  0
VERTEX
  8
LAYER_5
 10
-9.1601
 20
213.8001
 42
-0.09485863917
  0
VERTEX
  8
LAYER_5
 10
-9.1245
 20
213.5956
 42
-0.224574599
  0
VERTEX
  8
LAYER_5
 10
-9.2838
 20
213.2054
 42
-0.09365423609
  0
VERTEX
  8
LAYER_5
 10
-9.4539
 20
213.1197
 42
-0.07747068826
  0
VERTEX
  8
LAYER_5
 10
-9.8242
 20
213.0761
  0
VERTEX
  8
LAYER_5
 10
-10.0473
 20
213.0761
  0
VERTEX
  8
LAYER_5
 10
-10.0473
 20
212.3512
  0
VERTEX
  8
LAYER_5
 10
-10.3596
 20
212.3512
  0
SEQEND
  0
POLYLINE
  8
LAYER_5
 40
0.05
 41
0.05
 66
1
 10
0
 20
0
 30
0
 70
1
  0
VERTEX
  8
LAYER_5
 10
-9.8588
 20
213.3431
 42
0.1309894322
  0
VERTEX
  8
LAYER_5
 10
-9.5664
 20
213.3874
 42
0.3030880954
  0
VERTEX
  8
LAYER_5
 10
-9.4514
 20
213.5902
 42
0.3460368744
  0
VERTEX
  8
LAYER_5
 10
-9.6132
 20
213.8091
 42
0.07918236105
  0
VERTEX
  8
LAYER_5
 10
-9.8242
 20
213.8357
  0
VERTEX
  8
LAYER_5
 10
-10.0473
 20
213.8357
  0
VERTEX
  8
LAYER_5
 10
-10.0473
 20
213.3431
  0
SEQEND
  0
ENDBLK
  0
BLOCK
  8
LAYER_5
  2
AIGNBL0502002C
 70
64
 10
0
 20
0
 30
0
  3
AIGNBL0502002C
  0
POLYLINE
  8
LAYER_5
 40
0.05
 41
0.05
 66
1
 10
0
 20
0
 30
0
  0
VERTEX
  8
LAYER_5
 10
-8.092
 20
214.1029
  0
VERTEX
  8
LAYER_5
 10
-7.823
 20
214.1029
  0
VERTEX
  8
LAYER_5
 10
-7.0685
 20
212.3512
  0
VERTEX
  8
LAYER_5
 10
-7.4235
 20
212.3512
  0
VERTEX
  8
LAYER_5
 10
-7.5873
 20
212.7514
  0
VERTEX
  8
LAYER_5
 10
-8.3463
 20
212.7514
  0
VERTEX
  8
LAYER_5
 10
-8.5054
 20
212.3512
  0
VERTEX
  8
LAYER_5
 10
-8.8537
 20
212.3512
  0
SEQEND
  0
POLYLINE
  8
LAYER_5
 40
0.05
 41
0.05
 66
1
 10
0
 20
0
 30
0
 70
1
  0
VERTEX
  8
LAYER_5
 10
-7.6957
 20
213.0189
  0
VERTEX
  8
LAYER_5
 10
-7.9656
 20
213.7308
  0
VERTEX
  8
LAYER_5
 10
-8.2403
 20
213.0189
  0
SEQEND
  0
ENDBLK
  0
BLOCK
  8
LAYER_3
  2
AIGNBL03010002
 70
64
 10
0
 20
0
 30
0
  3
AIGNBL03010002
  0
INSERT
  8
LAYER_3
  2
AIGNBL03020003
 10
0
 20
0
 30
0
  0
ENDBLK
  0
BLOCK
  8
LAYER_3
  2
AIGNBL03010004
 70
64
 10
0
 20
0
 30
0
  3
AIGNBL03010004
  0
INSERT
  8
LAYER_3
  2
AIGNBL03020005
 10
0
 20
0
 30
0
  0
ENDBLK
  0
BLOCK
  8
LAYER_3
  2
AIGNBL03010006
 70
64
 10
0
 20
0
 30
0
  3
AIGNBL03010006
  0
INSERT
  8
LAYER_3
  2
AIGNBL03020007
 10
0
 20
0
 30
0
  0
ENDBLK
  0
BLOCK
  8
LAYER_3
  2
AIGNBL03010008
 70
64
 10
0
 20
0
 30
0
  3
AIGNBL03010008
  0
INSERT
  8
LAYER_3
  2
AIGNBL03020009
 10
0
 20
0
 30
0
  0
ENDBLK
  0
BLOCK
  8
LAYER_3
  2
AIGNBL0301000A
 70
64
 10
0
 20
0
 30
0
  3
AIGNBL0301000A
  0
POLYLINE
  8
LAYER_3
  6
AIGENLINE007
 40
0.1376
 41
0.1376
 66
1
 10
0
 20
0
 30
0
 70
129
  0
VERTEX
  8
LAYER_3
 10
36.399
 20
109.1968
 42
-0.2002226739
  0
VERTEX
  8
LAYER_3
 10
36.5848
 20
109.6257
 42
-0.06215122844
  0
VERTEX
  8
LAYER_3
 10
36.8135
 20
109.8093
 42
-0.05213586665
  0
VERTEX
  8
LAYER_3
 10
37.2103
 20
110.0005
 42
-0.08621762337
  0
VERTEX
  8
LAYER_3
 10
38.3029
 20
110.1959
 42
-0.00565579029
  0
VERTEX
  8
LAYER_3
 10
38.3989
 20
110.1969
 42
-0.08255058362
  0
VERTEX
  8
LAYER_3
 10
39.5235
 20
110.0233
 42
-0.005601078537
  0
VERTEX
  8
LAYER_3
 10
39.5874
 20
110.0005
 42
-0.1170064125
  0
VERTEX
  8
LAYER_3
 10
40.2457
 20
109.59
 42
-0.174330927
  0
VERTEX
  8
LAYER_3
 10
40.3994
 20
109.1968
 42
-0.199967972
  0
VERTEX
  8
LAYER_3
 10
40.2136
 20
108.7668
 42
-0.06231257945
  0
VERTEX
  8
LAYER_3
 10
39.9847
 20
108.583
 42
-0.05232953983
  0
VERTEX
  8
LAYER_3
 10
39.5874
 20
108.3917
 42
-0.08623365626
  0
VERTEX
  8
LAYER_3
 10
38.5047
 20
108.1975
 42
-0.006161608424
  0
VERTEX
  8
LAYER_3
 10
38.3989
 20
108.1963
 42
-0.08229387788
  0
VERTEX
  8
LAYER_3
 10
37.2744
 20
108.3689
 42
-0.005606897583
  0
VERTEX
  8
LAYER_3
 10
37.2103
 20
108.3917
 42
-0.1171413466
  0
VERTEX
  8
LAYER_3
 10
36.5527
 20
108.8026
 42
-0.1741487461
  0
SEQEND
  0
ENDBLK
  0
BLOCK
  8
LAYER_3
  2
AIGNBL0301000B
 70
64
 10
0
 20
0
 30
0
  3
AIGNBL0301000B
  0
POLYLINE
  8
LAYER_3
  6
AIGENLINE008
 40
0.1376
 41
0.1376
 66
1
 10
0
 20
0
 30
0
 70
129
  0
VERTEX
  8
LAYER_3
 10
69.0127
 20
109.1968
 42
-0.1998082531
  0
VERTEX
  8
LAYER_3
 10
68.8271
 20
108.7668
 42
-0.06235037219
  0
VERTEX
  8
LAYER_3
 10
68.5984
 20
108.583
 42
-0.05241652104
  0
VERTEX
  8
LAYER_3
 10
68.2013
 20
108.3917
 42
-0.08602165533
  0
VERTEX
  8
LAYER_3
 10
67.1186
 20
108.1975
 42
-0.006168687865
  0
VERTEX
  8
LAYER_3
 10
67.0128
 20
108.1963
 42
-0.08236386979
  0
VERTEX
  8
LAYER_3
 10
65.8882
 20
108.3689
 42
-0.005610875165
  0
VERTEX
  8
LAYER_3
 10
65.8242
 20
108.3917
 42
-0.117384554
  0
VERTEX
  8
LAYER_3
 10
65.1664
 20
108.8026
 42
-0.1740845274
  0
VERTEX
  8
LAYER_3
 10
65.0129
 20
109.1968
 42
-0.2001052987
  0
VERTEX
  8
LAYER_3
 10
65.1985
 20
109.6257
 42
-0.06222314651
  0
VERTEX
  8
LAYER_3
 10
65.4272
 20
109.8093
 42
-0.05229726479
  0
VERTEX
  8
LAYER_3
 10
65.8242
 20
110.0005
 42
-0.08633189698
  0
VERTEX
  8
LAYER_3
 10
66.9166
 20
110.1959
 42
-0.005655018663
  0
VERTEX
  8
LAYER_3
 10
67.0128
 20
110.1969
 42
-0.08253345113
  0
VERTEX
  8
LAYER_3
 10
68.1373
 20
110.0233
 42
-0.005560510159
  0
VERTEX
  8
LAYER_3
 10
68.2013
 20
110.0005
 42
-0.1171431815
  0
VERTEX
  8
LAYER_3
 10
68.8592
 20
109.59
 42
-0.1742266631
  0
SEQEND
  0
ENDBLK
  0
BLOCK
  8
LAYER_3
  2
AIGNBL0301000C
 70
64
 10
0
 20
0
 30
0
  3
AIGNBL0301000C
  0
TEXT
  8
LAYER_3
 10
148.3768
 20
100.86
 11
148.3768
 21
100.86
 40
3.8503
 41
0.5
 72
1
  1
250
  0
ENDBLK
  0
BLOCK
  8
LAYER_3
  2
AIGNBL0301000D
 70
64
 10
0
 20
0
 30
0
  3
AIGNBL0301000D
  0
INSERT
  8
LAYER_3
  2
AIGNBL0302000E
 10
0
 20
0
 30
0
  0
ENDBLK
  0
BLOCK
  8
LAYER_4
  2
AIGNBL04010002
 70
64
 10
0
 20
0
 30
0
  3
AIGNBL04010002
  0
POLYLINE
  8
LAYER_4
 40
0.1058
 41
0.1058
 66
1
 10
0
 20
0
 30
0
  0
VERTEX
  8
LAYER_4
 10
58.4405
 20
164.9408
  0
VERTEX
  8
LAYER_4
 10
57.4411
 20
164.9408
  0
SEQEND
  0
POLYLINE
  8
LAYER_4
 40
0.1058
 41
0.1058
 66
1
 10
0
 20
0
 30
0
  0
VERTEX
  8
LAYER_4
 10
57.4404
 20
164.9408
  0
VERTEX
  8
LAYER_4
 10
55.8515
 20
166.3988
  0
SEQEND
  0
POLYLINE
  8
LAYER_4
 40
0.05
 41
0.05
 66
1
 10
0
 20
0
 30
0
  0
VERTEX
  8
LAYER_4
 10
55.9642
 20
166.5214
  0
VERTEX
  8
LAYER_4
 10
55.7389
 20
166.2755
  0
VERTEX
  8
LAYER_4
 10
55.115
 20
167.0747
  0
SEQEND
  0
ENDBLK
  0
BLOCK
  8
LAYER_5
  2
AIGNBL05010002
 70
64
 10
0
 20
0
 30
0
  3
AIGNBL05010002
  0
POLYLINE
  8
LAYER_5
 40
0.7056
 41
0.7056
 66
1
 10
0
 20
0
 30
0
 70
1
  0
VERTEX
  8
LAYER_5
 10
251.6749
 20
230.337
  0
VERTEX
  8
LAYER_5
 10
251.6749
 20
33.3285
  0
VERTEX
  8
LAYER_5
 10
-30.3177
 20
33.3285
  0
VERTEX
  8
LAYER_5
 10
-30.3177
 20
230.337
  0
SEQEND
  0
ENDBLK
  0
BLOCK
  8
LAYER_5
  2
AIGNBL05010003
 70
64
 10
0
 20
0
 30
0
  3
AIGNBL05010003
  0
INSERT
  8
LAYER_5
  2
AIGNBL05020004
 10
0
 20
0
 30
0
  0
INSERT
  8
LAYER_5
  2
AIGNBL0502000D
 10
0
 20
0
 30
0
  0
ENDBLK
  0
BLOCK
  8
LAYER_5
  2
AIGNBL05010025
 70
64
 10
0
 20
0
 30
0
  3
AIGNBL05010025
  0
POLYLINE
  8
LAYER_5
 40
0.05
 41
0.05
 66
1
 10
0
 20
0
 30
0
  0
VERTEX
  8
LAYER_5
 10
-24.7289
 20
219.7266
 42
0.1341998603
  0
VERTEX
  8
LAYER_5
 10
-24.5592
 20
219.0834
 42
0.1261801142
  0
VERTEX
  8
LAYER_5
 10
-24.0913
 20
218.6274
 42
0.07945580654
  0
VERTEX
  8
LAYER_5
 10
-23.4074
 20
218.3548
  0
VERTEX
  8
LAYER_5
 10
-22.7375
 20
218.1977
 42
-0.06331127127
  0
VERTEX
  8
LAYER_5
 10
-22.2152
 20
218.0208
 42
-0.1808667761
  0
VERTEX
  8
LAYER_5
 10
-21.906
 20
217.7022
 42
-0.08676547354
  0
VERTEX
  8
LAYER_5
 10
-21.8731
 20
217.4973
 42
-0.294092483
  0
VERTEX
  8
LAYER_5
 10
-22.2545
 20
216.9168
 42
-0.1199497409
  0
VERTEX
  8
LAYER_5
 10
-22.9007
 20
216.768
 42
-0.005103624089
  0
VERTEX
  8
LAYER_5
 10
-22.938
 20
216.7676
 42
-0.1318366197
  0
VERTEX
  8
LAYER_5
 10
-23.6289
 20
216.9475
 42
-0.1172016517
  0
VERTEX
  8
LAYER_5
 10
-24.1316
 20
217.4313
 42
-0.004865723742
  0
VERTEX
  8
LAYER_5
 10
-24.1512
 20
217.4611
  0
VERTEX
  8
LAYER_5
 10
-24.2002
 20
217.5356
  0
VERTEX
  8
LAYER_5
 10
-24.9396
 20
217.0283
  0
VERTEX
  8
LAYER_5
 10
-24.8924
 20
216.9575
 42
0.1006692345
  0
VERTEX
  8
LAYER_5
 10
-24.2656
 20
216.3278
 42
0.09822650202
  0
VERTEX
  8
LAYER_5
 10
-23.491
 20
216.02
 42
0.04873469498
  0
VERTEX
  8
LAYER_5
 10
-22.938
 20
215.9689
 42
0.09078870715
  0
VERTEX
  8
LAYER_5
 10
-21.9452
 20
216.1461
 42
0.1030174332
  0
VERTEX
  8
LAYER_5
 10
-21.3352
 20
216.5404
 42
0.1803448142
  0
VERTEX
  8
LAYER_5
 10
-20.9524
 20
217.4258
 42
0.01943778951
  0
VERTEX
  8
LAYER_5
 10
-20.9476
 20
217.56
 42
0.2531765608
  0
VERTEX
  8
LAYER_5
 10
-21.5885
 20
218.7222
 42
0.09194545039
  0
VERTEX
  8
LAYER_5
 10
-22.2057
 20
218.9827
  0
VERTEX
  8
LAYER_5
 10
-22.9068
 20
219.1511
 42
-0.0578189963
  0
VERTEX
  8
LAYER_5
 10
-23.4528
 20
219.3232
 42
-0.1855772451
  0
VERTEX
  8
LAYER_5
 10
-23.7676
 20
219.6264
 42
-0.08926070578
  0
VERTEX
  8
LAYER_5
 10
-23.8011
 20
219.8403
 42
-0.313498231
  0
VERTEX
  8
LAYER_5
 10
-23.4222
 20
220.3762
 42
-0.106300738
  0
VERTEX
  8
LAYER_5
 10
-22.8751
 20
220.4863
 42
-0.1482953379
  0
VERTEX
  8
LAYER_5
 10
-22.2709
 20
220.3127
 42
-0.1294644155
  0
VERTEX
  8
LAYER_5
 10
-21.8948
 20
219.8732
  0
VERTEX
  8
LAYER_5
 10
-21.8503
 20
219.7888
  0
VERTEX
  8
LAYER_5
 10
-21.0886
 20
220.2925
  0
VERTEX
  8
LAYER_5
 10
-21.1229
 20
220.3597
 42
0.2370693896
  0
VERTEX
  8
LAYER_5
 10
-22.2986
 20
221.2338
 42
0.05316238654
  0
VERTEX
  8
LAYER_5
 10
-22.8329
 20
221.2874
 42
0.09532594653
  0
VERTEX
  8
LAYER_5
 10
-23.7699
 20
221.1115
 42
0.1053422287
  0
VERTEX
  8
LAYER_5
 10
-24.364
 20
220.7089
 42
0.1944052329
  0
VERTEX
  8
LAYER_5
 10
-24.7289
 20
219.7266
  0
SEQEND
  0
POLYLINE
  8
LAYER_5
 40
0.05
 41
0.05
 66
1
 10
0
 20
0
 30
0
  0
VERTEX
  8
LAYER_5
 10
-20.6499
 20
222.9568
 42
0.3936055487
  0
VERTEX
  8
LAYER_5
 10
-20.0589
 20
222.3685
 42
0.38612246
  0
VERTEX
  8
LAYER_5
 10
-19.4719
 20
222.9568
 42
0.392145625
  0
VERTEX
  8
LAYER_5
 10
-20.0589
 20
223.5464
 42
0.3856564111
  0
VERTEX
  8
LAYER_5
 10
-20.6499
 20
222.9568
  0
SEQEND
  0
POLYLINE
  8
LAYER_5
 40
0.05
 41
0.05
 66
1
 10
0
 20
0
 30
0
  0
VERTEX
  8
LAYER_5
 10
-19.7159
 20
221.162
  0
VERTEX
  8
LAYER_5
 10
-20.4918
 20
221.162
  0
VERTEX
  8
LAYER_5
 10
-20.4918
 20
216.0938
  0
VERTEX
  8
LAYER_5
 10
-19.6286
 20
216.0938
  0
VERTEX
  8
LAYER_5
 10
-19.6286
 20
221.162
  0
SEQEND
  0
POLYLINE
  8
LAYER_5
 40
0.05
 41
0.05
 66
1
 10
0
 20
0
 30
0
  0
VERTEX
  8
LAYER_5
 10
-15.1212
 20
220.3724
 42
0.1207793697
  0
VERTEX
  8
LAYER_5
 10
-15.6145
 20
220.9712
 42
0.1123792155
  0
VERTEX
  8
LAYER_5
 10
-16.2716
 20
221.2487
 42
0.04782249271
  0
VERTEX
  8
LAYER_5
 10
-16.6841
 20
221.2869
 42
0.1072902452
  0
VERTEX
  8
LAYER_5
 10
-17.5023
 20
221.1052
 42
0.09984805864
  0
VERTEX
  8
LAYER_5
 10
-18.1382
 20
220.6458
 42
0.01292207714
  0
VERTEX
  8
LAYER_5
 10
-18.198
 20
220.5762
  0
VERTEX
  8
LAYER_5
 10
-18.198
 20
221.1615
  0
VERTEX
  8
LAYER_5
 10
-19.0617
 20
221.1615
  0
VERTEX
  8
LAYER_5
 10
-19.0617
 20
216.0936
  0
VERTEX
  8
LAYER_5
 10
-18.198
 20
216.0936
  0
VERTEX
  8
LAYER_5
 10
-18.198
 20
218.6907
 42
-0.09654084086
  0
VERTEX
  8
LAYER_5
 10
-18.0246
 20
219.6722
 42
-0.1188565985
  0
VERTEX
  8
LAYER_5
 10
-17.6298
 20
220.2091
 42
-0.15802177
  0
VERTEX
  8
LAYER_5
 10
-16.9046
 20
220.4863
 42
-0.1299880469
  0
VERTEX
  8
LAYER_5
 10
-16.2243
 20
220.3327
 42
-0.157674645
  0
VERTEX
  8
LAYER_5
 10
-15.902
 20
219.953
 42
-0.05721612476
  0
VERTEX
  8
LAYER_5
 10
-15.8045
 20
219.631
 42
-0.04865503774
  0
VERTEX
  8
LAYER_5
 10
-15.7563
 20
219.0343
  0
VERTEX
  8
LAYER_5
 10
-15.7563
 20
216.0936
  0
VERTEX
  8
LAYER_5
 10
-14.8928
 20
216.0936
  0
VERTEX
  8
LAYER_5
 10
-14.8928
 20
218.7842
 42
-0.09089878682
  0
VERTEX
  8
LAYER_5
 10
-14.73
 20
219.7237
 42
-0.1191956233
  0
VERTEX
  8
LAYER_5
 10
-14.373
 20
220.2329
 42
-0.1344089617
  0
VERTEX
  8
LAYER_5
 10
-13.8547
 20
220.4654
 42
-0.0420961071
  0
VERTEX
  8
LAYER_5
 10
-13.5999
 20
220.4863
 42
-0.1298666677
  0
VERTEX
  8
LAYER_5
 10
-12.9187
 20
220.3327
 42
-0.1577640298
  0
VERTEX
  8
LAYER_5
 10
-12.5963
 20
219.953
 42
-0.05724087092
  0
VERTEX
  8
LAYER_5
 10
-12.4988
 20
219.631
 42
-0.04863371269
  0
VERTEX
  8
LAYER_5
 10
-12.4506
 20
219.0343
  0
VERTEX
  8
LAYER_5
 10
-12.4506
 20
216.0936
  0
VERTEX
  8
LAYER_5
 10
-11.5888
 20
216.0936
  0
VERTEX
  8
LAYER_5
 10
-11.5888
 20
219.2864
 42
0.09153782216
  0
VERTEX
  8
LAYER_5
 10
-11.7541
 20
220.2648
 42
0.1137261355
  0
VERTEX
  8
LAYER_5
 10
-12.1584
 20
220.8533
 42
0.1162496969
  0
VERTEX
  8
LAYER_5
 10
-12.7979
 20
221.1952
 42
0.07225208486
  0
VERTEX
  8
LAYER_5
 10
-13.5156
 20
221.2869
 42
0.2580554516
  0
VERTEX
  8
LAYER_5
 10
-15.1212
 20
220.3724
  0
SEQEND
  0
POLYLINE
  8
LAYER_5
 40
0.05
 41
0.05
 66
1
 10
0
 20
0
 30
0
  0
VERTEX
  8
LAYER_5
 10
-6.5398
 20
219.7266
 42
0.134478161
  0
VERTEX
  8
LAYER_5
 10
-6.3695
 20
219.0834
 42
0.1258963062
  0
VERTEX
  8
LAYER_5
 10
-5.9013
 20
218.6274
 42
0.07937172531
  0
VERTEX
  8
LAYER_5
 10
-5.2179
 20
218.3548
  0
VERTEX
  8
LAYER_5
 10
-4.5484
 20
218.1975
 42
-0.0631755932
  0
VERTEX
  8
LAYER_5
 10
-4.0263
 20
218.0207
 42
-0.1806469744
  0
VERTEX
  8
LAYER_5
 10
-3.7165
 20
217.702
 42
-0.08701309377
  0
VERTEX
  8
LAYER_5
 10
-3.6835
 20
217.4971
 42
-0.2942232517
  0
VERTEX
  8
LAYER_5
 10
-4.0651
 20
216.9167
 42
-0.1198550748
  0
VERTEX
  8
LAYER_5
 10
-4.7111
 20
216.768
 42
-0.00510181154
  0
VERTEX
  8
LAYER_5
 10
-4.7484
 20
216.7676
 42
-0.1318458306
  0
VERTEX
  8
LAYER_5
 10
-5.4397
 20
216.9475
 42
-0.1159139727
  0
VERTEX
  8
LAYER_5
 10
-5.937
 20
217.4238
 42
-0.006091595461
  0
VERTEX
  8
LAYER_5
 10
-5.9617
 20
217.4611
  0
VERTEX
  8
LAYER_5
 10
-6.0112
 20
217.5356
  0
VERTEX
  8
LAYER_5
 10
-6.75
 20
217.0283
  0
VERTEX
  8
LAYER_5
 10
-6.7036
 20
216.9575
 42
0.1007089848
  0
VERTEX
  8
LAYER_5
 10
-6.0762
 20
216.3277
 42
0.09809690095
  0
VERTEX
  8
LAYER_5
 10
-5.3011
 20
216.0197
 42
0.04876238065
  0
VERTEX
  8
LAYER_5
 10
-4.7484
 20
215.9686
 42
0.09078829841
  0
VERTEX
  8
LAYER_5
 10
-3.7557
 20
216.1459
 42
0.1029678866
  0
VERTEX
  8
LAYER_5
 10
-3.1454
 20
216.5402
 42
0.1803654561
  0
VERTEX
  8
LAYER_5
 10
-2.7623
 20
217.4258
 42
0.01945105513
  0
VERTEX
  8
LAYER_5
 10
-2.7575
 20
217.56
 42
0.2535980107
  0
VERTEX
  8
LAYER_5
 10
-3.3999
 20
218.7221
 42
0.09173199894
  0
VERTEX
  8
LAYER_5
 10
-4.018
 20
218.9827
  0
VERTEX
  8
LAYER_5
 10
-4.7177
 20
219.1511
 42
-0.05991192419
  0
VERTEX
  8
LAYER_5
 10
-5.2728
 20
219.3275
 42
-0.1874515711
  0
VERTEX
  8
LAYER_5
 10
-5.5828
 20
219.6332
 42
-0.08582021468
  0
VERTEX
  8
LAYER_5
 10
-5.6143
 20
219.8403
 42
-0.314077401
  0
VERTEX
  8
LAYER_5
 10
-5.2343
 20
220.3762
 42
-0.1060544966
  0
VERTEX
  8
LAYER_5
 10
-4.6848
 20
220.4863
 42
-0.1486063154
  0
VERTEX
  8
LAYER_5
 10
-4.0809
 20
220.3127
 42
-0.1292830572
  0
VERTEX
  8
LAYER_5
 10
-3.7057
 20
219.8732
  0
VERTEX
  8
LAYER_5
 10
-3.6608
 20
219.7888
  0
VERTEX
  8
LAYER_5
 10
-2.8992
 20
220.2925
  0
VERTEX
  8
LAYER_5
 10
-2.933
 20
220.3595
 42
0.237196535
  0
VERTEX
  8
LAYER_5
 10
-4.1097
 20
221.2337
 42
0.05314185225
  0
VERTEX
  8
LAYER_5
 10
-4.6438
 20
221.2873
 42
0.09533727001
  0
VERTEX
  8
LAYER_5
 10
-5.5811
 20
221.1115
 42
0.1053851178
  0
VERTEX
  8
LAYER_5
 10
-6.1751
 20
220.7089
 42
0.1943913526
  0
VERTEX
  8
LAYER_5
 10
-6.5398
 20
219.7266
  0
SEQEND
  0
INSERT
  8
LAYER_5
  2
AIGNBL05020026
 10
0
 20
0
 30
0
  0
INSERT
  8
LAYER_5
  2
AIGNBL05020027
 10
0
 20
0
 30
0
  0
INSERT
  8
LAYER_5
  2
AIGNBL05020028
 10
0
 20
0
 30
0
  0
POLYLINE
  8
LAYER_5
 40
0.05
 41
0.05
 66
1
 10
0
 20
0
 30
0
  0
VERTEX
  8
LAYER_5
 10
-20.9091
 20
213.692
 42
0.2128452805
  0
VERTEX
  8
LAYER_5
 10
-21.2785
 20
213.8653
 42
0.4107545191
  0
VERTEX
  8
LAYER_5
 10
-21.8793
 20
213.2387
 42
0.1832232544
  0
VERTEX
  8
LAYER_5
 10
-21.7095
 20
212.7686
 42
0.2124026091
  0
VERTEX
  8
LAYER_5
 10
-21.2785
 20
212.5886
 42
0.2429399681
  0
VERTEX
  8
LAYER_5
 10
-20.8847
 20
212.8017
  0
VERTEX
  8
LAYER_5
 10
-20.6282
 20
212.6175
 42
-0.2483368577
  0
VERTEX
  8
LAYER_5
 10
-21.2802
 20
212.3057
 42
-0.1519221822
  0
VERTEX
  8
LAYER_5
 10
-21.8463
 20
212.4749
 42
-0.2337791857
  0
VERTEX
  8
LAYER_5
 10
-22.2039
 20
213.1558
 42
-0.01462202831
  0
VERTEX
  8
LAYER_5
 10
-22.2057
 20
213.219
 42
-0.1526640936
  0
VERTEX
  8
LAYER_5
 10
-22.0367
 20
213.7867
 42
-0.2349220238
  0
VERTEX
  8
LAYER_5
 10
-21.3427
 20
214.1454
 42
-0.01403410383
  0
VERTEX
  8
LAYER_5
 10
-21.2802
 20
214.1471
 42
-0.1771442668
  0
VERTEX
  8
LAYER_5
 10
-20.7724
 20
213.9741
 42
-0.0394909762
  0
VERTEX
  8
LAYER_5
 10
-20.6673
 20
213.8707
  0
SEQEND
  0
INSERT
  8
LAYER_5
  2
AIGNBL05020029
 10
0
 20
0
 30
0
  0
POLYLINE
  8
LAYER_5
 40
0.05
 41
0.05
 66
1
 10
0
 20
0
 30
0
  0
VERTEX
  8
LAYER_5
 10
-16.1647
 20
212.9941
 42
-0.182226301
  0
VERTEX
  8
LAYER_5
 10
-16.3329
 20
212.5261
 42
-0.1768067702
  0
VERTEX
  8
LAYER_5
 10
-16.7424
 20
212.3151
 42
-0.03937171115
  0
VERTEX
  8
LAYER_5
 10
-16.8703
 20
212.3057
 42
-0.1767902592
  0
VERTEX
  8
LAYER_5
 10
-17.3545
 20
212.4748
 42
-0.2234110022
  0
VERTEX
  8
LAYER_5
 10
-17.5745
 20
212.9941
  0
VERTEX
  8
LAYER_5
 10
-17.5745
 20
214.1029
  0
VERTEX
  8
LAYER_5
 10
-17.2613
 20
214.1029
  0
VERTEX
  8
LAYER_5
 10
-17.2613
 20
213.0037
 42
0.2349518793
  0
VERTEX
  8
LAYER_5
 10
-17.1016
 20
212.6665
 42
0.1547549989
  0
VERTEX
  8
LAYER_5
 10
-16.8703
 20
212.6029
 42
0.2547042701
  0
VERTEX
  8
LAYER_5
 10
-16.5428
 20
212.765
 42
0.1423144498
  0
VERTEX
  8
LAYER_5
 10
-16.477
 20
213.0037
  0
VERTEX
  8
LAYER_5
 10
-16.477
 20
214.1029
  0
VERTEX
  8
LAYER_5
 10
-16.1647
 20
214.1029
  0
SEQEND
  0
INSERT
  8
LAYER_5
  2
AIGNBL0502002A
 10
0
 20
0
 30
0
  0
POLYLINE
  8
LAYER_5
 40
0.05
 41
0.05
 66
1
 10
0
 20
0
 30
0
  0
VERTEX
  8
LAYER_5
 10
-11.0638
 20
213.9659
 42
0.1866912973
  0
VERTEX
  8
LAYER_5
 10
-11.5272
 20
214.146
 42
0.01070503088
  0
VERTEX
  8
LAYER_5
 10
-11.566
 20
214.1468
 42
0.1725298242
  0
VERTEX
  8
LAYER_5
 10
-12.0539
 20
213.9827
 42
0.2187144791
  0
VERTEX
  8
LAYER_5
 10
-12.212
 20
213.6169
 42
0.3561528276
  0
VERTEX
  8
LAYER_5
 10
-11.8351
 20
213.1453
 42
-0.4171847534
  0
VERTEX
  8
LAYER_5
 10
-11.3804
 20
212.8287
 42
-0.3336174057
  0
VERTEX
  8
LAYER_5
 10
-11.5558
 20
212.6102
 42
-0.08312278128
  0
VERTEX
  8
LAYER_5
 10
-11.6868
 20
212.5881
 42
-0.2454546156
  0
VERTEX
  8
LAYER_5
 10
-12.0342
 20
212.7715
  0
VERTEX
  8
LAYER_5
 10
-12.269
 20
212.5433
 42
0.1909646496
  0
VERTEX
  8
LAYER_5
 10
-11.8308
 20
212.3153
 42
0.03754446626
  0
VERTEX
  8
LAYER_5
 10
-11.6944
 20
212.3061
 42
0.1763129968
  0
VERTEX
  8
LAYER_5
 10
-11.2183
 20
212.4674
 42
0.2195410449
  0
VERTEX
  8
LAYER_5
 10
-11.0534
 20
212.8657
 42
0.3531728127
  0
VERTEX
  8
LAYER_5
 10
-11.4303
 20
213.3408
 42
-0.05600320357
  0
VERTEX
  8
LAYER_5
 10
-11.7961
 20
213.4825
 42
-0.2537327505
  0
VERTEX
  8
LAYER_5
 10
-11.8851
 20
213.6398
 42
-0.3489179098
  0
VERTEX
  8
LAYER_5
 10
-11.7191
 20
213.848
 42
-0.0709767932
  0
VERTEX
  8
LAYER_5
 10
-11.5983
 20
213.8648
 42
-0.2306121412
  0
VERTEX
  8
LAYER_5
 10
-11.2913
 20
213.7261
  0
SEQEND
  0
INSERT
  8
LAYER_5
  2
AIGNBL0502002B
 10
0
 20
0
 30
0
  0
INSERT
  8
LAYER_5
  2
AIGNBL0502002C
 10
0
 20
0
 30
0
  0
POLYLINE
  8
LAYER_5
 40
0.05
 41
0.05
 66
1
 10
0
 20
0
 30
0
  0
VERTEX
  8
LAYER_5
 10
-5.2994
 20
213.692
 42
0.2131564742
  0
VERTEX
  8
LAYER_5
 10
-5.6677
 20
213.8653
 42
0.4105330837
  0
VERTEX
  8
LAYER_5
 10
-6.269
 20
213.2387
 42
0.1833694889
  0
VERTEX
  8
LAYER_5
 10
-6.099
 20
212.7686
 42
0.2122774884
  0
VERTEX
  8
LAYER_5
 10
-5.6677
 20
212.5886
 42
0.2419557088
  0
VERTEX
  8
LAYER_5
 10
-5.2744
 20
212.8017
  0
VERTEX
  8
LAYER_5
 10
-5.0183
 20
212.6175
 42
-0.2484506135
  0
VERTEX
  8
LAYER_5
 10
-5.6705
 20
212.3057
 42
-0.1519221822
  0
VERTEX
  8
LAYER_5
 10
-6.2366
 20
212.4749
 42
-0.2337791857
  0
VERTEX
  8
LAYER_5
 10
-6.5942
 20
213.1558
 42
-0.01462202831
  0
VERTEX
  8
LAYER_5
 10
-6.596
 20
213.219
 42
-0.1526640936
  0
VERTEX
  8
LAYER_5
 10
-6.427
 20
213.7867
 42
-0.2349220238
  0
VERTEX
  8
LAYER_5
 10
-5.733
 20
214.1454
 42
-0.01403410383
  0
VERTEX
  8
LAYER_5
 10
-5.6705
 20
214.1471
 42
-0.1770394846
  0
VERTEX
  8
LAYER_5
 10
-5.1623
 20
213.9741
 42
-0.03940951695
  0
VERTEX
  8
LAYER_5
 10
-5.0571
 20
213.8707
  0
SEQEND
  0
POLYLINE
  8
LAYER_5
 40
0.05
 41
0.05
 66
1
 10
0
 20
0
 30
0
  0
VERTEX
  8
LAYER_5
 10
-4.4354
 20
214.1029
  0
VERTEX
  8
LAYER_5
 10
-3.2751
 20
214.1029
  0
VERTEX
  8
LAYER_5
 10
-3.2751
 20
213.8202
  0
VERTEX
  8
LAYER_5
 10
-4.1231
 20
213.8202
  0
VERTEX
  8
LAYER_5
 10
-4.1231
 20
213.3901
  0
VERTEX
  8
LAYER_5
 10
-3.3195
 20
213.3901
  0
VERTEX
  8
LAYER_5
 10
-3.3195
 20
213.1079
  0
VERTEX
  8
LAYER_5
 10
-4.1231
 20
213.1079
  0
VERTEX
  8
LAYER_5
 10
-4.1231
 20
212.633
  0
VERTEX
  8
LAYER_5
 10
-3.2318
 20
212.633
  0
VERTEX
  8
LAYER_5
 10
-3.2318
 20
212.3512
  0
VERTEX
  8
LAYER_5
 10
-4.4354
 20
212.3512
  0
SEQEND
  0
ENDBLK
  0
BLOCK
  8
LAYER_5
  2
AIGNBL0501002D
 70
64
 10
0
 20
0
 30
0
  3
AIGNBL0501002D
  0
POLYLINE
  8
LAYER_5
 40
0.1129
 41
0.1129
 66
1
 10
0
 20
0
 30
0
  0
VERTEX
  8
LAYER_5
 10
120.4591
 20
120.5553
  0
VERTEX
  8
LAYER_5
 10
144.4597
 20
120.5553
  0
SEQEND
  0
POLYLINE
  8
LAYER_5
 40
0.1129
 41
0.1129
 66
1
 10
0
 20
0
 30
0
  0
VERTEX
  8
LAYER_5
 10
144.4591
 20
122.5551
  0
VERTEX
  8
LAYER_5
 10
144.4591
 20
118.5554
  0
SEQEND
  0
POLYLINE
  8
LAYER_5
 40
0.1129
 41
0.1129
 66
1
 10
0
 20
0
 30
0
  0
VERTEX
  8
LAYER_5
 10
120.4591
 20
118.5557
  0
VERTEX
  8
LAYER_5
 10
120.4591
 20
122.5544
  0
SEQEND
  0
ENDBLK
  0
BLOCK
  8
LAYER_5
  2
AIGNBL0501002E
 70
64
 10
0
 20
0
 30
0
  3
AIGNBL0501002E
  0
POLYLINE
  8
LAYER_5
 40
0.1129
 41
0.1129
 66
1
 10
0
 20
0
 30
0
  0
VERTEX
  8
LAYER_5
 10
163.8529
 20
117.4757
  0
VERTEX
  8
LAYER_5
 10
165.253
 20
117.4757
  0
SEQEND
  0
POLYLINE
  8
LAYER_5
 40
0.1129
 41
0.1129
 66
1
 10
0
 20
0
 30
0
  0
VERTEX
  8
LAYER_5
 10
165.253
 20
119.4756
  0
VERTEX
  8
LAYER_5
 10
165.253
 20
115.4758
  0
SEQEND
  0
POLYLINE
  8
LAYER_5
 40
0.1129
 41
0.1129
 66
1
 10
0
 20
0
 30
0
  0
VERTEX
  8
LAYER_5
 10
163.8529
 20
115.4762
  0
VERTEX
  8
LAYER_5
 10
163.8529
 20
119.4749
  0
SEQEND
  0
ENDBLK
  0
ENDSEC
  0
SECTION
  2
ENTITIES
  0
INSERT
  8
LAYER_3
  2
AIGNBL03010002
 10
0
 20
0
 30
0
  0
INSERT
  8
LAYER_3
  2
AIGNBL03010004
 10
0
 20
0
 30
0
  0
CIRCLE
  8
LAYER_3
 10
52.7899
 20
168.4634
 40
2.2496
  0
POLYLINE
  8
LAYER_3
 40
0.4233
 41
0.4233
 66
1
 10
0
 20
0
 30
0
 70
1
  0
VERTEX
  8
LAYER_3
 10
82.7889
 20
192.4637
 42
-0.02134315314
  0
VERTEX
  8
LAYER_3
 10
78.4219
 20
152.5347
 42
-0.3592246314
  0
VERTEX
  8
LAYER_3
 10
73.2036
 20
147.87
 42
-0.009945954447
  0
VERTEX
  8
LAYER_3
 10
52.789
 20
147.4635
 42
-0.009944428827
  0
VERTEX
  8
LAYER_3
 10
32.3734
 20
147.87
 42
-0.359151179
  0
VERTEX
  8
LAYER_3
 10
27.1554
 20
152.5347
 42
-0.02135602923
  0
VERTEX
  8
LAYER_3
 10
22.7891
 20
192.4637
  0
VERTEX
  8
LAYER_3
 10
52.789
 20
192.4637
  0
SEQEND
  0
POLYLINE
  8
LAYER_3
 40
0.2117
 41
0.2117
 66
1
 10
0
 20
0
 30
0
 70
1
  0
VERTEX
  8
LAYER_3
 10
31.5483
 20
177.852
 42
-0.02881983637
  0
VERTEX
  8
LAYER_3
 10
74.0287
 20
177.852
  0
VERTEX
  8
LAYER_3
 10
74.1934
 20
177.8427
 42
-0.4297852822
  0
VERTEX
  8
LAYER_3
 10
79.3438
 20
171.7432
 42
-0.005986007082
  0
VERTEX
  8
LAYER_3
 10
77.9699
 20
160.6121
 42
-0.003344189699
  0
VERTEX
  8
LAYER_3
 10
77.088
 20
154.4178
 42
-0.04421181076
  0
VERTEX
  8
LAYER_3
 10
76.74
 20
152.35
 42
-0.06943823563
  0
VERTEX
  8
LAYER_3
 10
76.2931
 20
151.2781
 42
-0.07704513563
  0
VERTEX
  8
LAYER_3
 10
75.6086
 20
150.4707
 42
-0.03659651241
  0
VERTEX
  8
LAYER_3
 10
75.1043
 20
150.0921
 42
-0.07823939555
  0
VERTEX
  8
LAYER_3
 10
74.0241
 20
149.6039
 42
-0.05776606492
  0
VERTEX
  8
LAYER_3
 10
73.0768
 20
149.4665
  0
VERTEX
  8
LAYER_3
 10
70.0514
 20
149.3549
 42
-0.002827445497
  0
VERTEX
  8
LAYER_3
 10
63.999
 20
149.1861
 42
-0.005441995852
  0
VERTEX
  8
LAYER_3
 10
52.7959
 20
149.0634
 42
-0.005436969608
  0
VERTEX
  8
LAYER_3
 10
41.5787
 20
149.1861
 42
-0.0028020219
  0
VERTEX
  8
LAYER_3
 10
35.5305
 20
149.3549
  0
VERTEX
  8
LAYER_3
 10
32.5077
 20
149.4665
 42
-0.07497193625
  0
VERTEX
  8
LAYER_3
 10
31.2793
 20
149.6902
 42
-0.05904420653
  0
VERTEX
  8
LAYER_3
 10
30.4786
 20
150.0887
 42
-0.0744940789
  0
VERTEX
  8
LAYER_3
 10
29.575
 20
150.8726
 42
-0.0755774735
  0
VERTEX
  8
LAYER_3
 10
29.0379
 20
151.7607
 42
-0.0318307494
  0
VERTEX
  8
LAYER_3
 10
28.8487
 20
152.3089
 42
-0.02533149037
  0
VERTEX
  8
LAYER_3
 10
28.6903
 20
153.0303
 42
-0.007879446316
  0
VERTEX
  8
LAYER_3
 10
28.4897
 20
154.4126
 42
-0.003334327903
  0
VERTEX
  8
LAYER_3
 10
27.6078
 20
160.6117
 42
-0.005986038964
  0
VERTEX
  8
LAYER_3
 10
26.2342
 20
171.7432
 42
-0.429880499
  0
VERTEX
  8
LAYER_3
 10
31.3836
 20
177.8427
  0
SEQEND
  0
CIRCLE
  8
LAYER_3
 10
52.789
 20
168.4634
 40
3.6201
  0
CIRCLE
  8
LAYER_3
 10
52.789
 20
185.4633
 40
1.7501
  0
POLYLINE
  8
LAYER_3
 40
0.4233
 41
0.4233
 66
1
 10
0
 20
0
 30
0
 70
1
  0
VERTEX
  8
LAYER_3
 10
23.6366
 20
114.4264
  0
VERTEX
  8
LAYER_3
 10
81.9325
 20
114.4264
 42
-0.4318088211
  0
VERTEX
  8
LAYER_3
 10
82.7328
 20
113.58
 42
-0.02820842373
  0
VERTEX
  8
LAYER_3
 10
79.2474
 20
83.4344
  0
VERTEX
  8
LAYER_3
 10
73.2829
 20
83.4344
  0
VERTEX
  8
LAYER_3
 10
73.1616
 20
83.874
  0
VERTEX
  8
LAYER_3
 10
72.3734
 20
86.7382
  0
VERTEX
  8
LAYER_3
 10
72.147
 20
87.5581
  0
VERTEX
  8
LAYER_3
 10
72.0347
 20
87.9681
 42
0.2241014034
  0
VERTEX
  8
LAYER_3
 10
71.9203
 20
88.2437
 42
0.07895615318
  0
VERTEX
  8
LAYER_3
 10
71.6921
 20
88.3691
 42
0.03752623105
  0
VERTEX
  8
LAYER_3
 10
71.231
 20
88.5024
 42
0.0186228621
  0
VERTEX
  8
LAYER_3
 10
70.5933
 20
88.6158
 42
0.03354571716
  0
VERTEX
  8
LAYER_3
 10
67.7209
 20
88.816
 42
0.00489640545
  0
VERTEX
  8
LAYER_3
 10
64.6643
 20
88.8122
 42
0.0008669484109
  0
VERTEX
  8
LAYER_3
 10
52.7845
 20
88.8328
 42
0.0008627617366
  0
VERTEX
  8
LAYER_3
 10
40.9052
 20
88.8122
 42
0.02568856339
  0
VERTEX
  8
LAYER_3
 10
36.3652
 20
88.7587
 42
0.0187393575
  0
VERTEX
  8
LAYER_3
 10
34.9734
 20
88.6158
 42
0.03561016709
  0
VERTEX
  8
LAYER_3
 10
34.0758
 20
88.4356
 42
0.09299275211
  0
VERTEX
  8
LAYER_3
 10
33.6464
 20
88.2423
 42
0.1503738712
  0
VERTEX
  8
LAYER_3
 10
33.564
 20
88.0985
 42
0.03852380906
  0
VERTEX
  8
LAYER_3
 10
33.5344
 20
87.9681
  0
VERTEX
  8
LAYER_3
 10
33.4221
 20
87.5581
  0
VERTEX
  8
LAYER_3
 10
33.1957
 20
86.7368
  0
VERTEX
  8
LAYER_3
 10
32.4078
 20
83.874
  0
VERTEX
  8
LAYER_3
 10
32.2869
 20
83.4344
  0
VERTEX
  8
LAYER_3
 10
26.3221
 20
83.4344
 42
-0.02821680268
  0
VERTEX
  8
LAYER_3
 10
22.8363
 20
113.58
 42
-0.4318109729
  0
SEQEND
  0
POLYLINE
  8
LAYER_3
 40
0.1587
 41
0.1587
 66
1
 10
0
 20
0
 30
0
  0
VERTEX
  8
LAYER_3
 10
26.3221
 20
83.4344
 42
-0.01795559167
  0
VERTEX
  8
LAYER_3
 10
27.8705
 20
85.9281
 42
-0.01759436136
  0
VERTEX
  8
LAYER_3
 10
28.6424
 20
86.9849
 42
-0.05202842421
  0
VERTEX
  8
LAYER_3
 10
29.9349
 20
88.3633
 42
-0.06923138752
  0
VERTEX
  8
LAYER_3
 10
30.8738
 20
88.9443
 42
-0.04960337441
  0
VERTEX
  8
LAYER_3
 10
31.3964
 20
89.106
 42
-0.0187927064
  0
VERTEX
  8
LAYER_3
 10
32.6091
 20
89.2923
 42
-0.02363781372
  0
VERTEX
  8
LAYER_3
 10
35.9483
 20
89.521
 42
-0.002656679695
  0
VERTEX
  8
LAYER_3
 10
36.2801
 20
89.5263
 42
-0.001385554403
  0
VERTEX
  8
LAYER_3
 10
52.7852
 20
89.5263
  0
SEQEND
  0
POLYLINE
  8
LAYER_3
 40
0.1587
 41
0.1587
 66
1
 10
0
 20
0
 30
0
  0
VERTEX
  8
LAYER_3
 10
79.2474
 20
83.4344
 42
0.01807895294
  0
VERTEX
  8
LAYER_3
 10
77.6996
 20
85.9281
 42
0.01757522444
  0
VERTEX
  8
LAYER_3
 10
76.9278
 20
86.9849
 42
0.05204136015
  0
VERTEX
  8
LAYER_3
 10
75.635
 20
88.3633
 42
0.06916503406
  0
VERTEX
  8
LAYER_3
 10
74.6963
 20
88.9443
 42
0.04960282284
  0
VERTEX
  8
LAYER_3
 10
74.1741
 20
89.106
 42
0.01878445704
  0
VERTEX
  8
LAYER_3
 10
72.9611
 20
89.2923
 42
0.02363010254
  0
VERTEX
  8
LAYER_3
 10
69.6218
 20
89.521
 42
0.002656423703
  0
VERTEX
  8
LAYER_3
 10
69.29
 20
89.5263
 42
0.001385495986
  0
VERTEX
  8
LAYER_3
 10
52.7852
 20
89.5263
  0
SEQEND
  0
POLYLINE
  8
LAYER_3
 40
0.4233
 41
0.4233
 66
1
 10
0
 20
0
 30
0
  0
VERTEX
  8
LAYER_3
 10
49.5341
 20
88.0301
  0
VERTEX
  8
LAYER_3
 10
48.8251
 20
88.8314
  0
SEQEND
  0
POLYLINE
  8
LAYER_3
 40
0.4233
 41
0.4233
 66
1
 10
0
 20
0
 30
0
  0
VERTEX
  8
LAYER_3
 10
56.744
 20
88.8314
  0
VERTEX
  8
LAYER_3
 10
56.0343
 20
88.0301
  0
SEQEND
  0
POLYLINE
  8
LAYER_3
 40
0.1587
 41
0.1587
 66
1
 10
0
 20
0
 30
0
  0
VERTEX
  8
LAYER_3
 10
73.1048
 20
83.2976
  0
VERTEX
  8
LAYER_3
 10
67.1695
 20
88.664
  0
SEQEND
  0
POLYLINE
  8
LAYER_3
 40
0.1587
 41
0.1587
 66
1
 10
0
 20
0
 30
0
  0
VERTEX
  8
LAYER_3
 10
38.3151
 20
88.6168
  0
VERTEX
  8
LAYER_3
 10
32.3803
 20
83.2494
  0
SEQEND
  0
POLYLINE
  8
LAYER_3
 40
0.4233
 41
0.4233
 66
1
 10
0
 20
0
 30
0
  0
VERTEX
  8
LAYER_3
 10
56.0343
 20
88.0301
  0
VERTEX
  8
LAYER_3
 10
56.0343
 20
85.0728
  0
VERTEX
  8
LAYER_3
 10
49.5348
 20
85.0728
  0
VERTEX
  8
LAYER_3
 10
49.5341
 20
85.0728
  0
VERTEX
  8
LAYER_3
 10
49.5341
 20
88.0301
  0
SEQEND
  0
POLYLINE
  8
LAYER_3
 40
0.05
 41
0.05
 66
1
 10
0
 20
0
 30
0
  0
VERTEX
  8
LAYER_3
 10
164.4771
 20
114.4264
 42
0.3526388369
  0
VERTEX
  8
LAYER_3
 10
163.6951
 20
113.797
 42
-0.01120580835
  0
VERTEX
  8
LAYER_3
 10
161.3662
 20
103.6994
 42
-0.02267789638
  0
VERTEX
  8
LAYER_3
 10
160.1269
 20
99.5991
 42
-0.02928108145
  0
VERTEX
  8
LAYER_3
 10
159.1004
 20
97.215
 42
-0.03543403656
  0
VERTEX
  8
LAYER_3
 10
157.9935
 20
95.372
 42
-0.02769029874
  0
VERTEX
  8
LAYER_3
 10
157.1563
 20
94.3184
 42
-0.04321599209
  0
VERTEX
  8
LAYER_3
 10
155.647
 20
92.8999
 42
-0.0364835495
  0
VERTEX
  8
LAYER_3
 10
154.0462
 20
91.8128
 42
-0.03708485092
  0
VERTEX
  8
LAYER_3
 10
152.1439
 20
90.8926
 42
-0.0543258579
  0
VERTEX
  8
LAYER_3
 10
149.0921
 20
90.0528
 42
-0.01882453077
  0
VERTEX
  8
LAYER_3
 10
148.0523
 20
89.9259
  0
VERTEX
  8
LAYER_3
 10
146.6825
 20
88.3791
  0
VERTEX
  8
LAYER_3
 10
146.6825
 20
85.0718
  0
VERTEX
  8
LAYER_3
 10
147.6823
 20
85.0718
  0
VERTEX
  8
LAYER_3
 10
147.6823
 20
88.0001
  0
VERTEX
  8
LAYER_3
 10
148.5408
 20
88.9696
 42
0.05722075933
  0
VERTEX
  8
LAYER_3
 10
151.9418
 20
89.7502
 42
0.03404174437
  0
VERTEX
  8
LAYER_3
 10
153.86
 20
90.5736
 42
0.0158159965
  0
VERTEX
  8
LAYER_3
 10
154.6758
 20
91.0229
 42
-0.4044819668
  0
VERTEX
  8
LAYER_3
 10
155.3524
 20
90.862
  0
VERTEX
  8
LAYER_3
 10
156.6485
 20
88.8328
  0
VERTEX
  8
LAYER_3
 10
160.5766
 20
89.4195
 42
0.02044888731
  0
VERTEX
  8
LAYER_3
 10
165.2936
 20
113.5042
 42
0.43147525
  0
VERTEX
  8
LAYER_3
 10
164.5026
 20
114.4264
  0
SEQEND
  0
POLYLINE
  8
LAYER_3
 40
0.05
 41
0.05
 66
1
 10
0
 20
0
 30
0
  0
VERTEX
  8
LAYER_3
 10
142.1839
 20
86.1904
  0
VERTEX
  8
LAYER_3
 10
134.6509
 20
88.5975
 42
-0.1574202895
  0
VERTEX
  8
LAYER_3
 10
134.1305
 20
88.9365
 42
-0.1331524605
  0
VERTEX
  8
LAYER_3
 10
133.9639
 20
89.423
  0
VERTEX
  8
LAYER_3
 10
132.0298
 20
109.214
 42
-0.3367347256
  0
VERTEX
  8
LAYER_3
 10
132.1291
 20
109.4069
  0
VERTEX
  8
LAYER_3
 10
133.7124
 20
110.3175
 42
-0.6131435424
  0
VERTEX
  8
LAYER_3
 10
133.8613
 20
110.2417
  0
VERTEX
  8
LAYER_3
 10
133.8757
 20
110.0994
  0
VERTEX
  8
LAYER_3
 10
134.8707
 20
110.1983
  0
VERTEX
  8
LAYER_3
 10
134.6702
 20
112.1826
  0
VERTEX
  8
LAYER_3
 10
134.5778
 20
113.0804
 42
0.3842993377
  0
VERTEX
  8
LAYER_3
 10
133.0854
 20
114.4264
  0
VERTEX
  8
LAYER_3
 10
129.1835
 20
114.4264
  0
VERTEX
  8
LAYER_3
 10
129.1828
 20
111.4268
  0
VERTEX
  8
LAYER_3
 10
131.6281
 20
111.4268
  0
VERTEX
  8
LAYER_3
 10
133.4906
 20
112.4982
 42
-0.6073770129
  0
VERTEX
  8
LAYER_3
 10
133.6401
 20
112.4224
  0
VERTEX
  8
LAYER_3
 10
133.7296
 20
111.5508
 42
-0.3373547104
  0
VERTEX
  8
LAYER_3
 10
133.68
 20
111.4533
  0
VERTEX
  8
LAYER_3
 10
131.2388
 20
110.0488
 42
0.2416016141
  0
VERTEX
  8
LAYER_3
 10
130.9906
 20
109.7193
 42
0.05320327745
  0
VERTEX
  8
LAYER_3
 10
130.9908
 20
109.5664
  0
VERTEX
  8
LAYER_3
 10
132.9655
 20
89.3554
 42
0.299935356
  0
VERTEX
  8
LAYER_3
 10
134.347
 20
87.6453
  0
VERTEX
  8
LAYER_3
 10
141.1828
 20
85.4601
  0
VERTEX
  8
LAYER_3
 10
141.1828
 20
85.0718
  0
VERTEX
  8
LAYER_3
 10
142.1825
 20
85.0718
  0
VERTEX
  8
LAYER_3
 10
142.1825
 20
86.188
  0
SEQEND
  0
POLYLINE
  8
LAYER_3
 40
0.05
 41
0.05
 66
1
 10
0
 20
0
 30
0
 70
1
  0
VERTEX
  8
LAYER_3
 10
120.4336
 20
89.8743
  0
VERTEX
  8
LAYER_3
 10
120.4336
 20
114.4264
  0
VERTEX
  8
LAYER_3
 10
125.6833
 20
114.4264
  0
VERTEX
  8
LAYER_3
 10
125.6833
 20
111.4268
  0
VERTEX
  8
LAYER_3
 10
123.9332
 20
111.4268
  0
VERTEX
  8
LAYER_3
 10
123.4329
 20
89.8743
  0
SEQEND
  0
POLYLINE
  8
LAYER_3
 40
0.05
 41
0.05
 62
255
 66
1
 10
0
 20
0
 30
0
 70
1
  0
VERTEX
  8
LAYER_3
 10
121.4341
 20
90.8747
  0
VERTEX
  8
LAYER_3
 10
121.4341
 20
113.4263
  0
VERTEX
  8
LAYER_3
 10
124.6835
 20
113.4263
  0
VERTEX
  8
LAYER_3
 10
124.6835
 20
112.4259
  0
VERTEX
  8
LAYER_3
 10
122.9568
 20
112.4259
  0
VERTEX
  8
LAYER_3
 10
122.4566
 20
90.8747
  0
SEQEND
  0
POLYLINE
  8
LAYER_3
 40
0.1058
 41
0.1058
 66
1
 10
0
 20
0
 30
0
  0
VERTEX
  8
LAYER_3
 10
129.2
 20
111.5026
  0
VERTEX
  8
LAYER_3
 10
125.7005
 20
111.5026
  0
SEQEND
  0
POLYLINE
  8
LAYER_3
 40
0.1058
 41
0.1058
 66
1
 10
0
 20
0
 30
0
  0
VERTEX
  8
LAYER_3
 10
125.6833
 20
114.3393
  0
VERTEX
  8
LAYER_3
 10
129.1835
 20
114.3393
  0
SEQEND
  0
INSERT
  8
LAYER_3
  2
AIGNBL03010006
 10
0
 20
0
 30
0
  0
INSERT
  8
LAYER_3
  2
AIGNBL03010008
 10
0
 20
0
 30
0
  0
POLYLINE
  8
LAYER_3
 40
0.05
 41
0.05
 62
255
 66
1
 10
0
 20
0
 30
0
 70
1
  0
VERTEX
  8
LAYER_3
 10
162.7063
 20
104.252
 42
0.558510806
  0
VERTEX
  8
LAYER_3
 10
162.5948
 20
104.3429
 42
0.231415659
  0
VERTEX
  8
LAYER_3
 10
162.5499
 20
104.2865
  0
VERTEX
  8
LAYER_3
 10
162.2984
 20
103.3136
  0
VERTEX
  8
LAYER_3
 10
162.0414
 20
102.3593
 42
-0.02357602607
  0
VERTEX
  8
LAYER_3
 10
160.9473
 20
98.9383
 42
-0.02898450271
  0
VERTEX
  8
LAYER_3
 10
159.9516
 20
96.6852
 42
-0.03374222269
  0
VERTEX
  8
LAYER_3
 10
158.8568
 20
94.8617
 42
-0.01967831663
  0
VERTEX
  8
LAYER_3
 10
158.2091
 20
94.0108
 42
-0.02174458034
  0
VERTEX
  8
LAYER_3
 10
157.4843
 20
93.2071
 42
-0.02310702969
  0
VERTEX
  8
LAYER_3
 10
156.5954
 20
92.3847
 42
0.3754486783
  0
VERTEX
  8
LAYER_3
 10
156.3984
 20
91.0825
  0
VERTEX
  8
LAYER_3
 10
157.1425
 20
89.917
  0
VERTEX
  8
LAYER_3
 10
159.7594
 20
90.3084
 42
0.01193152033
  0
SEQEND
  0
POLYLINE
  8
LAYER_3
 40
0.05
 41
0.05
 62
255
 66
1
 10
0
 20
0
 30
0
  0
VERTEX
  8
LAYER_3
 10
131.3339
 20
112.4259
  0
VERTEX
  8
LAYER_3
 10
131.3835
 20
112.4396
  0
VERTEX
  8
LAYER_3
 10
132.774
 20
113.2389
 42
0.7272489219
  0
VERTEX
  8
LAYER_3
 10
132.7244
 20
113.4263
  0
VERTEX
  8
LAYER_3
 10
130.2832
 20
113.4263
 42
0.4143309155
  0
VERTEX
  8
LAYER_3
 10
130.1833
 20
113.3264
  0
VERTEX
  8
LAYER_3
 10
130.1833
 20
112.5258
 42
0.4143548524
  0
VERTEX
  8
LAYER_3
 10
130.2832
 20
112.4259
  0
VERTEX
  8
LAYER_3
 10
131.3339
 20
112.4259
  0
VERTEX
  8
LAYER_3
 10
131.3835
 20
112.4396
  0
SEQEND
  0
POLYLINE
  8
LAYER_3
 40
0.05
 41
0.05
 66
1
 10
0
 20
0
 30
0
 70
1
  0
VERTEX
  8
LAYER_3
 10
140.8128
 20
89.9259
 42
-0.1530280515
  0
VERTEX
  8
LAYER_3
 10
138.8257
 20
91.0133
 42
-0.06062872872
  0
VERTEX
  8
LAYER_3
 10
138.0205
 20
92.0539
 42
-0.0457219979
  0
VERTEX
  8
LAYER_3
 10
137.3457
 20
93.435
 42
-0.03709400324
  0
VERTEX
  8
LAYER_3
 10
136.727
 20
95.4646
 42
-0.01986957415
  0
VERTEX
  8
LAYER_3
 10
136.2528
 20
97.9599
 42
-0.0088914628
  0
VERTEX
  8
LAYER_3
 10
135.8639
 20
100.6189
 42
-0.006232508785
  0
VERTEX
  8
LAYER_3
 10
135.5135
 20
103.6659
 42
-0.001364419902
  0
VERTEX
  8
LAYER_3
 10
135.1153
 20
107.7109
  0
VERTEX
  8
LAYER_3
 10
134.1203
 20
107.6131
  0
VERTEX
  8
LAYER_3
 10
134.2843
 20
105.9505
  0
VERTEX
  8
LAYER_3
 10
134.4772
 20
104.0453
  0
VERTEX
  8
LAYER_3
 10
134.655
 20
102.3813
  0
VERTEX
  8
LAYER_3
 10
134.85
 20
100.7218
  0
VERTEX
  8
LAYER_3
 10
134.9912
 20
99.6308
 42
0.01299719642
  0
VERTEX
  8
LAYER_3
 10
135.437
 20
96.8313
 42
0.0223127954
  0
VERTEX
  8
LAYER_3
 10
135.9848
 20
94.4473
 42
0.01677082607
  0
VERTEX
  8
LAYER_3
 10
136.3169
 20
93.3941
 42
0.02125107102
  0
VERTEX
  8
LAYER_3
 10
136.7007
 20
92.4329
 42
0.02648993191
  0
VERTEX
  8
LAYER_3
 10
137.1444
 20
91.5693
 42
0.03304577209
  0
VERTEX
  8
LAYER_3
 10
137.6605
 20
90.8069
 42
0.04058684072
  0
VERTEX
  8
LAYER_3
 10
138.2655
 20
90.1444
 42
0.04538076195
  0
VERTEX
  8
LAYER_3
 10
138.9662
 20
89.6011
 42
0.04448751667
  0
VERTEX
  8
LAYER_3
 10
139.6938
 20
89.2231
 42
0.03340126698
  0
VERTEX
  8
LAYER_3
 10
140.274
 20
89.0257
  0
VERTEX
  8
LAYER_3
 10
141.1821
 20
88.0001
  0
VERTEX
  8
LAYER_3
 10
141.1821
 20
87.6718
  0
VERTEX
  8
LAYER_3
 10
142.1825
 20
87.6718
  0
VERTEX
  8
LAYER_3
 10
142.1825
 20
88.3791
  0
SEQEND
  0
POLYLINE
  8
LAYER_3
 40
0.1058
 41
0.1058
 66
1
 10
0
 20
0
 30
0
  0
VERTEX
  8
LAYER_3
 10
134.2127
 20
107.6076
 42
0.000553340657
  0
VERTEX
  8
LAYER_3
 10
133.9681
 20
110.0935
  0
SEQEND
  0
POLYLINE
  8
LAYER_3
 40
0.1058
 41
0.1058
 66
1
 10
0
 20
0
 30
0
  0
VERTEX
  8
LAYER_3
 10
141.2627
 20
86.4626
  0
VERTEX
  8
LAYER_3
 10
141.2627
 20
87.6832
  0
SEQEND
  0
POLYLINE
  8
LAYER_3
 40
0.1058
 41
0.1058
 66
1
 10
0
 20
0
 30
0
  0
VERTEX
  8
LAYER_3
 10
135.0429
 20
107.7109
  0
VERTEX
  8
LAYER_3
 10
134.7983
 20
110.1983
  0
SEQEND
  0
POLYLINE
  8
LAYER_3
 40
0.1058
 41
0.1058
 66
1
 10
0
 20
0
 30
0
  0
VERTEX
  8
LAYER_3
 10
132.311
 20
114.3393
  0
VERTEX
  8
LAYER_3
 10
164.4771
 20
114.3393
  0
SEQEND
  0
POLYLINE
  8
LAYER_3
 40
0.1058
 41
0.1058
 66
1
 10
0
 20
0
 30
0
  0
VERTEX
  8
LAYER_3
 10
156.6726
 20
88.92
  0
VERTEX
  8
LAYER_3
 10
147.7064
 20
87.5812
  0
SEQEND
  0
POLYLINE
  8
LAYER_3
 40
0.1058
 41
0.1058
 66
1
 10
0
 20
0
 30
0
  0
VERTEX
  8
LAYER_3
 10
146.7797
 20
88.3426
  0
VERTEX
  8
LAYER_3
 10
142.1674
 20
88.3426
  0
SEQEND
  0
POLYLINE
  8
LAYER_3
 40
0.1058
 41
0.1058
 66
1
 10
0
 20
0
 30
0
  0
VERTEX
  8
LAYER_3
 10
139.4692
 20
86.2638
  0
VERTEX
  8
LAYER_3
 10
120.5646
 20
83.4264
  0
SEQEND
  0
POLYLINE
  8
LAYER_3
 40
0.1058
 41
0.1058
 66
1
 10
0
 20
0
 30
0
  0
VERTEX
  8
LAYER_3
 10
123.2187
 20
83.8433
  0
VERTEX
  8
LAYER_3
 10
123.3489
 20
89.8743
  0
SEQEND
  0
POLYLINE
  8
LAYER_3
 40
0.1058
 41
0.1058
 66
1
 10
0
 20
0
 30
0
  0
VERTEX
  8
LAYER_3
 10
142.1825
 20
85.1593
  0
VERTEX
  8
LAYER_3
 10
146.6818
 20
85.1593
  0
SEQEND
  0
POLYLINE
  8
LAYER_3
 40
0.1058
 41
0.1058
 66
1
 10
0
 20
0
 30
0
  0
VERTEX
  8
LAYER_3
 10
148.0371
 20
89.8171
  0
VERTEX
  8
LAYER_3
 10
140.799
 20
89.8171
  0
SEQEND
  0
POLYLINE
  8
LAYER_3
 40
0.1058
 41
0.1058
 66
1
 10
0
 20
0
 30
0
  0
VERTEX
  8
LAYER_3
 10
142.1054
 20
87.6832
  0
VERTEX
  8
LAYER_3
 10
142.1054
 20
86.1997
  0
SEQEND
  0
POLYLINE
  8
LAYER_3
 40
0.1058
 41
0.1058
 66
1
 10
0
 20
0
 30
0
  0
VERTEX
  8
LAYER_3
 10
120.5646
 20
89.8743
  0
VERTEX
  8
LAYER_3
 10
120.5646
 20
83.4264
  0
SEQEND
  0
INSERT
  8
LAYER_3
  2
AIGNBL0301000A
 10
0
 20
0
 30
0
  0
INSERT
  8
LAYER_3
  2
AIGNBL0301000B
 10
0
 20
0
 30
0
  0
TEXT
  8
LAYER_3
 10
166.7913
 20
120.9246
 11
166.7913
 21
120.9246
 40
3.8503
 41
0.5
 72
1
  1
14
  0
INSERT
  8
LAYER_3
  2
AIGNBL0301000C
 10
0
 20
0
 30
0
  0
POLYLINE
  8
LAYER_3
 40
0.1199
 41
0.1199
 66
1
 10
0
 20
0
 30
0
  0
VERTEX
  8
LAYER_3
 10
144.4439
 20
99.2312
  0
VERTEX
  8
LAYER_3
 10
144.4439
 20
89.8757
  0
SEQEND
  0
POLYLINE
  8
LAYER_3
 40
0.1199
 41
0.1199
 66
1
 10
0
 20
0
 30
0
  0
VERTEX
  8
LAYER_3
 10
144.4439
 20
114.3758
  0
VERTEX
  8
LAYER_3
 10
144.4439
 20
104.817
  0
SEQEND
  0
INSERT
  8
LAYER_3
  2
AIGNBL0301000D
 10
0
 20
0
 30
0
  0
TEXT
  8
LAYER_4
 10
58.9876
 20
163.7542
 11
58.9876
 21
163.7542
 40
3.8503
 41
0.5
  1
45
  0
INSERT
  8
LAYER_4
  2
AIGNBL04010002
 10
0
 20
0
 30
0
  0
POLYLINE
  8
LAYER_4
 40
0.1058
 41
0.1058
 66
1
 10
0
 20
0
 30
0
  0
VERTEX
  8
LAYER_4
 10
58.5964
 20
181.6761
  0
VERTEX
  8
LAYER_4
 10
57.597
 20
181.6761
  0
SEQEND
  0
POLYLINE
  8
LAYER_4
 40
0.1058
 41
0.1058
 66
1
 10
0
 20
0
 30
0
  0
VERTEX
  8
LAYER_4
 10
57.5963
 20
181.6761
  0
VERTEX
  8
LAYER_4
 10
56.0074
 20
183.1334
  0
SEQEND
  0
TEXT
  8
LAYER_4
 10
58.9084
 20
181.1943
 11
58.9084
 21
181.1943
 40
3.8503
 41
0.5
  1
36
  0
POLYLINE
  8
LAYER_4
 40
0.05
 41
0.05
 66
1
 10
0
 20
0
 30
0
 70
1
  0
VERTEX
  8
LAYER_4
 10
56.1201
 20
183.2567
  0
VERTEX
  8
LAYER_4
 10
55.8948
 20
183.0107
  0
VERTEX
  8
LAYER_4
 10
55.2709
 20
183.8093
  0
SEQEND
  0
TEXT
  8
LAYER_5
 10
-26.2556
 20
43.1712
 11
-26.2556
 21
43.1712
 40
3.2995
 41
0.5
  1
仕様
  0
POLYLINE
  8
LAYER_5
 40
0.3528
 41
0.3528
 66
1
 10
0
 20
0
 30
0
  0
VERTEX
  8
LAYER_5
 10
250.6748
 20
51.9507
  0
VERTEX
  8
LAYER_5
 10
-29.3178
 20
51.9507
  0
SEQEND
  0
INSERT
  8
LAYER_5
  2
AIGNBL05010002
 10
0
 20
0
 30
0
  0
POLYLINE
  8
LAYER_5
 40
0.3528
 41
0.3528
 66
1
 10
0
 20
0
 30
0
  0
VERTEX
  8
LAYER_5
 10
-29.3178
 20
229.3369
  0
VERTEX
  8
LAYER_5
 10
-29.3178
 20
34.3283
  0
VERTEX
  8
LAYER_5
 10
250.6748
 20
34.3283
  0
VERTEX
  8
LAYER_5
 10
250.6748
 20
229.3369
  0
VERTEX
  8
LAYER_5
 10
-29.3178
 20
229.3369
  0
SEQEND
  0
POLYLINE
  8
LAYER_5
 40
0.3528
 41
0.3528
 66
1
 10
0
 20
0
 30
0
  0
VERTEX
  8
LAYER_5
 10
250.6748
 20
60.4597
  0
VERTEX
  8
LAYER_5
 10
-29.3178
 20
60.4597
  0
SEQEND
  0
POLYLINE
  8
LAYER_5
 40
0.3528
 41
0.3528
 66
1
 10
0
 20
0
 30
0
  0
VERTEX
  8
LAYER_5
 10
250.6748
 20
43.4416
  0
VERTEX
  8
LAYER_5
 10
143.534
 20
43.4416
  0
SEQEND
  0
TEXT
  8
LAYER_5
 10
188.1725
 20
45.7175
 11
188.1725
 21
45.7175
 40
3.7615
 41
0.5
  1
-
  0
TEXT
  8
LAYER_5
 10
182.8808
 20
49.4743
 11
182.8808
 21
49.4743
 40
2.1997
 41
0.5
  1
縮尺
  0
POLYLINE
  8
LAYER_5
 40
0.3528
 41
0.3528
 66
1
 10
0
 20
0
 30
0
  0
VERTEX
  8
LAYER_5
 10
181.3526
 20
43.4416
  0
VERTEX
  8
LAYER_5
 10
181.3526
 20
51.9507
  0
SEQEND
  0
TEXT
  8
LAYER_5
 10
144.2327
 20
57.9834
 11
144.2327
 21
57.9834
 40
2.1997
 41
0.5
  1
品番
  0
TEXT
  8
LAYER_5
 10
-28.1609
 20
57.9834
 11
-28.1609
 21
57.9834
 40
2.1997
 41
0.5
  1
品名
  0
TEXT
  8
LAYER_5
 10
144.2327
 20
49.4743
 11
144.2327
 21
49.4743
 40
2.1997
 41
0.5
  1
重量
  0
TEXT
  8
LAYER_5
 10
150.2547
 20
54.1514
 11
150.2547
 21
54.1514
 40
5.9385
 41
0.5
  1
SIM-DE13/
  0
POLYLINE
  8
LAYER_5
 40
0.3528
 41
0.3528
 66
1
 10
0
 20
0
 30
0
  0
VERTEX
  8
LAYER_5
 10
143.534
 20
34.9539
  0
VERTEX
  8
LAYER_5
 10
143.534
 20
60.4597
  0
SEQEND
  0
TEXT
  8
LAYER_5
 10
-15.2849
 20
54.8911
 11
-15.2849
 21
54.8911
 40
4.1465
 41
0.5
  1
デグラデ 壁付け洗傭器600ｍｍ
  0
TEXT
  8
LAYER_5
 10
-15.6835
 20
45.3736
 11
-15.6835
 21
45.3736
 40
3.5541
 41
0.5
  1
●サイズ：W600×D450×H310mm●設置方法：壁付け
  0
TEXT
  8
LAYER_5
 10
-15.6835
 20
40.6235
 11
-15.6835
 21
40.6235
 40
3.1177
 41
0.5
  1
●l4栓取付zt：１zt●オーバーフロー付き●排l4帯具別途●取り付けボルト同梱
  0
TEXT
  8
LAYER_5
 10
237.263
 20
63.2582
 11
237.263
 21
63.2582
 40
2.9618
 41
0.5
  1
単位：mm
  0
TEXT
  8
LAYER_5
 10
6.5217
 20
219.7385
 11
6.5217
 21
219.7385
 40
2.9618
 41
0.5
  1
※壁面には50mm以上の補強材を入れてください。
  0
TEXT
  8
LAYER_5
 10
6.5217
 20
214.9886
 11
6.5217
 21
214.9886
 40
2.5981
 41
0.5
  1
※製品と接する部分には必ずコーキング処理を行ってください。
  0
TEXT
  8
LAYER_5
 10
176.0254
 20
39.5359
 11
176.0254
 21
39.5359
 40
3.3853
 41
0.5
  1
●TEL 0120-65-1232●FAX 06-6532-1580
  0
TEXT
  8
LAYER_5
 10
176.0254
 20
36.0212
 11
176.0254
 21
36.0212
 40
3.3853
 41
0.5
  1
hits@hiratatile.co.jp
  0
TEXT
  8
LAYER_5
 10
240.3591
 20
225.8432
 11
240.3591
 21
225.8432
 40
2.0732
 41
0.5
  1
160926RT
  0
INSERT
  8
LAYER_5
  2
AIGNBL05010003
 10
0
 20
0
 30
0
  0
INSERT
  8
LAYER_5
  2
AIGNBL05010025
 10
0
 20
0
 30
0
  0
POLYLINE
  8
LAYER_5
 40
0.1129
 41
0.1129
 66
1
 10
0
 20
0
 30
0
  0
VERTEX
  8
LAYER_5
 10
22.9734
 20
197.1361
  0
VERTEX
  8
LAYER_5
 10
82.9736
 20
197.1361
  0
SEQEND
  0
POLYLINE
  8
LAYER_5
 40
0.1129
 41
0.1129
 66
1
 10
0
 20
0
 30
0
  0
VERTEX
  8
LAYER_5
 10
82.9729
 20
199.1362
  0
VERTEX
  8
LAYER_5
 10
82.9729
 20
195.1361
  0
SEQEND
  0
POLYLINE
  8
LAYER_5
 40
0.1129
 41
0.1129
 66
1
 10
0
 20
0
 30
0
  0
VERTEX
  8
LAYER_5
 10
22.9741
 20
195.1366
  0
VERTEX
  8
LAYER_5
 10
22.9741
 20
199.1355
  0
SEQEND
  0
TEXT
  8
LAYER_5
 10
48.638
 20
198.5381
 11
48.638
 21
198.5381
 40
3.8503
 41
0.5
  1
600
  0
POLYLINE
  8
LAYER_5
 40
0.1129
 41
0.1129
 66
1
 10
0
 20
0
 30
0
  0
VERTEX
  8
LAYER_5
 10
86.9055
 20
178.4639
  0
VERTEX
  8
LAYER_5
 10
86.9055
 20
192.4639
  0
SEQEND
  0
POLYLINE
  8
LAYER_5
 40
0.1129
 41
0.1129
 66
1
 10
0
 20
0
 30
0
  0
VERTEX
  8
LAYER_5
 10
84.9056
 20
192.4637
  0
VERTEX
  8
LAYER_5
 10
88.9052
 20
192.4637
  0
SEQEND
  0
POLYLINE
  8
LAYER_5
 40
0.1129
 41
0.1129
 66
1
 10
0
 20
0
 30
0
  0
VERTEX
  8
LAYER_5
 10
88.9052
 20
178.464
  0
VERTEX
  8
LAYER_5
 10
84.9063
 20
178.464
  0
SEQEND
  0
POLYLINE
  8
LAYER_5
 40
0.1129
 41
0.1129
 66
1
 10
0
 20
0
 30
0
  0
VERTEX
  8
LAYER_5
 10
86.9055
 20
149.0643
  0
VERTEX
  8
LAYER_5
 10
86.9055
 20
178.4642
  0
SEQEND
  0
POLYLINE
  8
LAYER_5
 40
0.1129
 41
0.1129
 66
1
 10
0
 20
0
 30
0
  0
VERTEX
  8
LAYER_5
 10
88.9052
 20
149.0646
  0
VERTEX
  8
LAYER_5
 10
84.9063
 20
149.0646
  0
SEQEND
  0
TEXT
  8
LAYER_5
 10
89.2449
 20
184.6068
 11
89.2449
 21
184.6068
 40
3.8503
 41
0.5
  1
140
  0
TEXT
  8
LAYER_5
 10
89.2449
 20
162.7346
 11
89.2449
 21
162.7346
 40
3.8503
 41
0.5
  1
294
  0
TEXT
  8
LAYER_5
 10
89.7449
 20
147.6895
 11
89.7449
 21
147.6895
 40
3.8503
 41
0.5
  1
16
  0
POLYLINE
  8
LAYER_5
 40
0.1129
 41
0.1129
 66
1
 10
0
 20
0
 30
0
  0
VERTEX
  8
LAYER_5
 10
88.9048
 20
149.0643
  0
VERTEX
  8
LAYER_5
 10
84.9059
 20
149.0643
  0
SEQEND
  0
POLYLINE
  8
LAYER_5
 40
0.1129
 41
0.1129
 66
1
 10
0
 20
0
 30
0
  0
VERTEX
  8
LAYER_5
 10
86.9051
 20
147.4642
  0
VERTEX
  8
LAYER_5
 10
86.9051
 20
149.0643
  0
SEQEND
  0
POLYLINE
  8
LAYER_5
 40
0.1129
 41
0.1129
 66
1
 10
0
 20
0
 30
0
  0
VERTEX
  8
LAYER_5
 10
88.9048
 20
147.4642
  0
VERTEX
  8
LAYER_5
 10
84.9059
 20
147.4642
  0
SEQEND
  0
POLYLINE
  8
LAYER_5
 40
0.1129
 41
0.1129
 66
1
 10
0
 20
0
 30
0
  0
VERTEX
  8
LAYER_5
 10
28.8735
 20
144.3893
  0
VERTEX
  8
LAYER_5
 10
77.0735
 20
144.3893
  0
SEQEND
  0
POLYLINE
  8
LAYER_5
 40
0.1129
 41
0.1129
 66
1
 10
0
 20
0
 30
0
  0
VERTEX
  8
LAYER_5
 10
77.073
 20
146.3895
  0
VERTEX
  8
LAYER_5
 10
77.073
 20
142.3894
  0
SEQEND
  0
POLYLINE
  8
LAYER_5
 40
0.1129
 41
0.1129
 66
1
 10
0
 20
0
 30
0
  0
VERTEX
  8
LAYER_5
 10
28.874
 20
142.3898
  0
VERTEX
  8
LAYER_5
 10
28.874
 20
146.3888
  0
SEQEND
  0
POLYLINE
  8
LAYER_5
 40
0.1129
 41
0.1129
 66
1
 10
0
 20
0
 30
0
  0
VERTEX
  8
LAYER_5
 10
77.073
 20
144.39
  0
VERTEX
  8
LAYER_5
 10
78.4731
 20
144.39
  0
SEQEND
  0
POLYLINE
  8
LAYER_5
 40
0.1129
 41
0.1129
 66
1
 10
0
 20
0
 30
0
  0
VERTEX
  8
LAYER_5
 10
78.4731
 20
146.3902
  0
VERTEX
  8
LAYER_5
 10
78.4731
 20
142.3901
  0
SEQEND
  0
POLYLINE
  8
LAYER_5
 40
0.1129
 41
0.1129
 66
1
 10
0
 20
0
 30
0
  0
VERTEX
  8
LAYER_5
 10
77.073
 20
142.3904
  0
VERTEX
  8
LAYER_5
 10
77.073
 20
146.3895
  0
SEQEND
  0
POLYLINE
  8
LAYER_5
 40
0.1129
 41
0.1129
 66
1
 10
0
 20
0
 30
0
  0
VERTEX
  8
LAYER_5
 10
27.4739
 20
144.39
  0
VERTEX
  8
LAYER_5
 10
28.874
 20
144.39
  0
SEQEND
  0
POLYLINE
  8
LAYER_5
 40
0.1129
 41
0.1129
 66
1
 10
0
 20
0
 30
0
  0
VERTEX
  8
LAYER_5
 10
28.874
 20
146.3902
  0
VERTEX
  8
LAYER_5
 10
28.874
 20
142.3901
  0
SEQEND
  0
POLYLINE
  8
LAYER_5
 40
0.1129
 41
0.1129
 66
1
 10
0
 20
0
 30
0
  0
VERTEX
  8
LAYER_5
 10
27.4739
 20
142.3904
  0
VERTEX
  8
LAYER_5
 10
27.4739
 20
146.3895
  0
SEQEND
  0
TEXT
  8
LAYER_5
 10
49.3439
 20
138.5597
 11
49.3439
 21
138.5597
 40
3.8503
 41
0.5
  1
482
  0
TEXT
  8
LAYER_5
 10
75.7435
 20
138.5597
 11
75.7435
 21
138.5597
 40
3.8503
 41
0.5
  1
14
  0
TEXT
  8
LAYER_5
 10
25.6491
 20
138.5597
 11
25.6491
 21
138.5597
 40
3.8503
 41
0.5
  1
14
  0
POLYLINE
  8
LAYER_5
 40
0.1129
 41
0.1129
 66
1
 10
0
 20
0
 30
0
  0
VERTEX
  8
LAYER_5
 10
38.5132
 20
119.1362
  0
VERTEX
  8
LAYER_5
 10
67.0131
 20
119.1362
  0
SEQEND
  0
POLYLINE
  8
LAYER_5
 40
0.1129
 41
0.1129
 66
1
 10
0
 20
0
 30
0
  0
VERTEX
  8
LAYER_5
 10
67.0128
 20
122.0353
  0
VERTEX
  8
LAYER_5
 10
67.0128
 20
116.4167
  0
SEQEND
  0
POLYLINE
  8
LAYER_5
 40
0.1129
 41
0.1129
 66
1
 10
0
 20
0
 30
0
  0
VERTEX
  8
LAYER_5
 10
38.5136
 20
116.417
  0
VERTEX
  8
LAYER_5
 10
38.5136
 20
122.0346
  0
SEQEND
  0
TEXT
  8
LAYER_5
 10
48.4277
 20
120.5373
 11
48.4277
 21
120.5373
 40
3.8503
 41
0.5
  1
285
  0
POLYLINE
  8
LAYER_5
 40
0.1129
 41
0.1129
 66
1
 10
0
 20
0
 30
0
  0
VERTEX
  8
LAYER_5
 10
18.9446
 20
89.3858
  0
VERTEX
  8
LAYER_5
 10
18.9446
 20
114.3854
  0
SEQEND
  0
POLYLINE
  8
LAYER_5
 40
0.1129
 41
0.1129
 66
1
 10
0
 20
0
 30
0
  0
VERTEX
  8
LAYER_5
 10
16.9447
 20
114.3851
  0
VERTEX
  8
LAYER_5
 10
20.9445
 20
114.3851
  0
SEQEND
  0
POLYLINE
  8
LAYER_5
 40
0.1129
 41
0.1129
 66
1
 10
0
 20
0
 30
0
  0
VERTEX
  8
LAYER_5
 10
20.9441
 20
89.3858
  0
VERTEX
  8
LAYER_5
 10
16.9454
 20
89.3858
  0
SEQEND
  0
TEXT
  8
LAYER_5
 10
17.695
 20
99.9898
 11
17.695
 21
99.9898
 40
3.8503
 41
0.5
 50
89.99999999
  1
250
  0
POLYLINE
  8
LAYER_5
 40
0.1129
 41
0.1129
 66
1
 10
0
 20
0
 30
0
  0
VERTEX
  8
LAYER_5
 10
47.3416
 20
185.2972
  0
VERTEX
  8
LAYER_5
 10
47.3416
 20
192.2973
  0
SEQEND
  0
POLYLINE
  8
LAYER_5
 40
0.1129
 41
0.1129
 66
1
 10
0
 20
0
 30
0
  0
VERTEX
  8
LAYER_5
 10
45.3418
 20
192.297
  0
VERTEX
  8
LAYER_5
 10
49.3415
 20
192.297
  0
SEQEND
  0
POLYLINE
  8
LAYER_5
 40
0.1129
 41
0.1129
 66
1
 10
0
 20
0
 30
0
  0
VERTEX
  8
LAYER_5
 10
49.3412
 20
185.2972
  0
VERTEX
  8
LAYER_5
 10
45.3425
 20
185.2972
  0
SEQEND
  0
TEXT
  8
LAYER_5
 10
42.7621
 20
187.3812
 11
42.7621
 21
187.3812
 40
3.8503
 41
0.5
  1
70
  0
POLYLINE
  8
LAYER_5
 40
0.1129
 41
0.1129
 66
1
 10
0
 20
0
 30
0
  0
VERTEX
  8
LAYER_5
 10
17.915
 20
147.5798
  0
VERTEX
  8
LAYER_5
 10
17.915
 20
192.5798
  0
SEQEND
  0
POLYLINE
  8
LAYER_5
 40
0.1129
 41
0.1129
 66
1
 10
0
 20
0
 30
0
  0
VERTEX
  8
LAYER_5
 10
15.9151
 20
192.5791
  0
VERTEX
  8
LAYER_5
 10
19.9149
 20
192.5791
  0
SEQEND
  0
POLYLINE
  8
LAYER_5
 40
0.1129
 41
0.1129
 66
1
 10
0
 20
0
 30
0
  0
VERTEX
  8
LAYER_5
 10
27.5168
 20
147.5798
  0
VERTEX
  8
LAYER_5
 10
15.9158
 20
147.5798
  0
SEQEND
  0
TEXT
  8
LAYER_5
 10
10.7769
 20
169.0371
 11
10.7769
 21
169.0371
 40
3.8503
 41
0.5
  1
450
  0
POLYLINE
  8
LAYER_5
 40
0.1129
 41
0.1129
 66
1
 10
0
 20
0
 30
0
  0
VERTEX
  8
LAYER_5
 10
116.4949
 20
83.4268
  0
VERTEX
  8
LAYER_5
 10
116.4949
 20
114.4268
  0
SEQEND
  0
POLYLINE
  8
LAYER_5
 40
0.1129
 41
0.1129
 66
1
 10
0
 20
0
 30
0
  0
VERTEX
  8
LAYER_5
 10
114.495
 20
114.4264
  0
VERTEX
  8
LAYER_5
 10
118.4947
 20
114.4264
  0
SEQEND
  0
POLYLINE
  8
LAYER_5
 40
0.1129
 41
0.1129
 66
1
 10
0
 20
0
 30
0
  0
VERTEX
  8
LAYER_5
 10
118.4944
 20
83.4268
  0
VERTEX
  8
LAYER_5
 10
114.4957
 20
83.4268
  0
SEQEND
  0
TEXT
  8
LAYER_5
 10
115.246
 20
96.5033
 11
115.246
 21
96.5033
 40
3.8503
 41
0.5
 50
89.99999999
  1
310
  0
POLYLINE
  8
LAYER_5
 40
0.1129
 41
0.1129
 66
1
 10
0
 20
0
 30
0
  0
VERTEX
  8
LAYER_5
 10
169.4074
 20
89.2821
  0
VERTEX
  8
LAYER_5
 10
169.4074
 20
114.2821
  0
SEQEND
  0
POLYLINE
  8
LAYER_5
 40
0.1129
 41
0.1129
 66
1
 10
0
 20
0
 30
0
  0
VERTEX
  8
LAYER_5
 10
167.4075
 20
114.2817
  0
VERTEX
  8
LAYER_5
 10
171.4073
 20
114.2817
  0
SEQEND
  0
POLYLINE
  8
LAYER_5
 40
0.1129
 41
0.1129
 66
1
 10
0
 20
0
 30
0
  0
VERTEX
  8
LAYER_5
 10
171.4069
 20
89.2821
  0
VERTEX
  8
LAYER_5
 10
167.4082
 20
89.2821
  0
SEQEND
  0
TEXT
  8
LAYER_5
 10
174.0786
 20
99.4985
 11
174.0786
 21
99.4985
 40
3.8503
 41
0.5
 50
89.99999999
  1
250
  0
TEXT
  8
LAYER_5
 10
45.4742
 20
107.9796
 11
45.4742
 21
107.9796
 40
2.5981
 41
0.5
  1
壁取付ボルト穴
  0
INSERT
  8
LAYER_5
  2
AIGNBL0501002D
 10
0
 20
0
 30
0
  0
TEXT
  8
LAYER_5
 10
129.1966
 20
121.3345
 11
129.1966
 21
121.3345
 40
3.8503
 41
0.5
  1
240
  0
INSERT
  8
LAYER_5
  2
AIGNBL0501002E
 10
0
 20
0
 30
0
  0
TEXT
  8
LAYER_5
 10
157.2803
 20
46.4933
 11
157.2803
 21
46.4933
 40
3.7615
 41
0.5
  1
22kg
  0
ENDSEC
  0
EOF
