  0
SECTION
  2
HEADER
  9
$ACADVER
  1
AC1009
  9
$LUNITS
 70
2
  9
$LUPREC
 70
4
  9
$LTSCALE
 40
1.0
  9
$EXTMIN
 10
-30.3177
 20
33.3285
 30
0
  9
$EXTMAX
 10
251.6749
 20
230.337
 30
0
  0
ENDSEC
  0
SECTION
  2
TABLES
  0
TABLE
  2
LTYPE
 70
256
  0
LTYPE
  2
AIGENLINE001
 70
64
  3
generate AI->DXF Converter
 72
65
 73
2
 40
0.7056
 49
0.3528
 49
-0.3528
  0
ENDTAB
  0
TABLE
  2
LAYER
 70
11
  0
LAYER
  2
LAYER_1
 70
64
 62
7
  6
CONTINUOUS
  0
LAYER
  2
LAYER_2
 70
64
 62
7
  6
CONTINUOUS
  0
LAYER
  2
LAYER_3
 70
64
 62
7
  6
CONTINUOUS
  0
LAYER
  2
LAYER_4
 70
64
 62
7
  6
CONTINUOUS
  0
LAYER
  2
LAYER_5
 70
64
 62
7
  6
CONTINUOUS
  0
LAYER
  2
LAYER_6
 70
64
 62
7
  6
CONTINUOUS
  0
LAYER
  2
LAYER_7
 70
64
 62
7
  6
CONTINUOUS
  0
LAYER
  2
LAYER_8
 70
64
 62
7
  6
CONTINUOUS
  0
LAYER
  2
LAYER_9
 70
64
 62
7
  6
CONTINUOUS
  0
LAYER
  2
LAYER_10
 70
64
 62
7
  6
CONTINUOUS
  0
LAYER
  2
LAYER_11
 70
64
 62
7
  6
CONTINUOUS
  0
ENDTAB
  0
TABLE
  2
STYLE
 70
6
  0
STYLE
  2
STANDARD
 70
0
 40
0
 50
0
 71
0
 41
0
 42
0
  3
TXT
  4
BIGFONT
  0
ENDTAB
  0
ENDSEC
  0
SECTION
  2
BLOCKS
  0
BLOCK
  8
LAYER_11
  2
AIGNBL0B040006
 70
64
 10
0
 20
0
 30
0
  3
AIGNBL0B040006
  0
POLYLINE
  8
LAYER_11
 40
0.05
 41
0.05
 66
1
 10
0
 20
0
 30
0
 70
1
  0
VERTEX
  8
LAYER_11
 10
146.7545
 20
39.1418
  0
VERTEX
  8
LAYER_11
 10
146.2657
 20
37.9567
  0
VERTEX
  8
LAYER_11
 10
145.6376
 20
37.9567
  0
VERTEX
  8
LAYER_11
 10
147.2372
 20
41.7225
  0
VERTEX
  8
LAYER_11
 10
147.9703
 20
41.7225
  0
VERTEX
  8
LAYER_11
 10
149.5767
 20
37.9567
  0
VERTEX
  8
LAYER_11
 10
148.9267
 20
37.9567
  0
VERTEX
  8
LAYER_11
 10
148.424
 20
39.1418
  0
SEQEND
  0
POLYLINE
  8
LAYER_11
 40
0.05
 41
0.05
 66
1
 10
0
 20
0
 30
0
 70
1
  0
VERTEX
  8
LAYER_11
 10
148.2983
 20
39.5208
  0
VERTEX
  8
LAYER_11
 10
147.8373
 20
40.6056
 42
-0.02317247198
  0
VERTEX
  8
LAYER_11
 10
147.5927
 20
41.2926
  0
VERTEX
  8
LAYER_11
 10
147.5789
 20
41.2926
 42
-0.02064481114
  0
VERTEX
  8
LAYER_11
 10
147.3412
 20
40.6101
  0
VERTEX
  8
LAYER_11
 10
146.8806
 20
39.5208
  0
SEQEND
  0
ENDBLK
  0
BLOCK
  8
LAYER_11
  2
AIGNBL0B040007
 70
64
 10
0
 20
0
 30
0
  3
AIGNBL0B040007
  0
POLYLINE
  8
LAYER_11
 40
0.05
 41
0.05
 66
1
 10
0
 20
0
 30
0
 70
1
  0
VERTEX
  8
LAYER_11
 10
153.942
 20
37.4034
 42
-0.01525137561
  0
VERTEX
  8
LAYER_11
 10
152.1399
 20
37.8396
 42
0.09192818596
  0
VERTEX
  8
LAYER_11
 10
151.8533
 20
37.895
 42
-0.09256808484
  0
VERTEX
  8
LAYER_11
 10
150.8994
 20
38.0977
 42
-0.09799469934
  0
VERTEX
  8
LAYER_11
 10
150.2621
 20
38.5324
 42
-0.1630918382
  0
VERTEX
  8
LAYER_11
 10
149.7964
 20
39.5259
 42
-0.0316951694
  0
VERTEX
  8
LAYER_11
 10
149.7793
 20
39.7998
 42
-0.1055313794
  0
VERTEX
  8
LAYER_11
 10
149.9533
 20
40.6417
 42
-0.1619874109
  0
VERTEX
  8
LAYER_11
 10
150.7418
 20
41.4867
 42
-0.09224146328
  0
VERTEX
  8
LAYER_11
 10
151.5409
 20
41.7524
 42
-0.03717154931
  0
VERTEX
  8
LAYER_11
 10
151.9725
 20
41.7838
 42
-0.09530535683
  0
VERTEX
  8
LAYER_11
 10
152.9361
 20
41.6062
 42
-0.1001834594
  0
VERTEX
  8
LAYER_11
 10
153.5732
 20
41.1834
 42
-0.1611157059
  0
VERTEX
  8
LAYER_11
 10
154.06
 20
40.1825
 42
-0.03590950521
  0
VERTEX
  8
LAYER_11
 10
154.0816
 20
39.8784
 42
-0.1066899695
  0
VERTEX
  8
LAYER_11
 10
153.9052
 20
39.0236
 42
-0.2183856259
  0
VERTEX
  8
LAYER_11
 10
152.7953
 20
38.0897
 42
-0.006706171784
  0
VERTEX
  8
LAYER_11
 10
152.7407
 20
38.0738
  0
VERTEX
  8
LAYER_11
 10
152.7407
 20
38.0514
 42
0.01533555045
  0
VERTEX
  8
LAYER_11
 10
154.117
 20
37.8113
  0
SEQEND
  0
POLYLINE
  8
LAYER_11
 40
0.05
 41
0.05
 66
1
 10
0
 20
0
 30
0
 70
1
  0
VERTEX
  8
LAYER_11
 10
153.4394
 20
39.857
 42
0.1175610784
  0
VERTEX
  8
LAYER_11
 10
153.257
 20
40.6254
 42
0.1170135141
  0
VERTEX
  8
LAYER_11
 10
152.8315
 20
41.1234
 42
0.1200044572
  0
VERTEX
  8
LAYER_11
 10
152.2186
 20
41.3675
 42
0.03774262044
  0
VERTEX
  8
LAYER_11
 10
151.9511
 20
41.3873
 42
0.1153139376
  0
VERTEX
  8
LAYER_11
 10
151.2089
 20
41.2226
 42
0.1853550912
  0
VERTEX
  8
LAYER_11
 10
150.5507
 20
40.4882
 42
0.09859892291
  0
VERTEX
  8
LAYER_11
 10
150.4287
 20
39.8122
 42
0.1178359247
  0
VERTEX
  8
LAYER_11
 10
150.5964
 20
39.0734
 42
0.2866694251
  0
VERTEX
  8
LAYER_11
 10
151.9232
 20
38.2912
 42
0.1188197759
  0
VERTEX
  8
LAYER_11
 10
152.6722
 20
38.4633
 42
0.1796740134
  0
VERTEX
  8
LAYER_11
 10
153.3126
 20
39.18
 42
0.09850052237
  0
SEQEND
  0
ENDBLK
  0
BLOCK
  8
LAYER_11
  2
AIGNBL0B040008
 70
64
 10
0
 20
0
 30
0
  3
AIGNBL0B040008
  0
POLYLINE
  8
LAYER_11
 40
0.05
 41
0.05
 66
1
 10
0
 20
0
 30
0
 70
1
  0
VERTEX
  8
LAYER_11
 10
155.4089
 20
41.7225
  0
VERTEX
  8
LAYER_11
 10
155.4089
 20
39.4932
 42
0.1220213404
  0
VERTEX
  8
LAYER_11
 10
155.569
 20
38.7775
 42
0.2218709818
  0
VERTEX
  8
LAYER_11
 10
156.2104
 20
38.3206
 42
0.05223876895
  0
VERTEX
  8
LAYER_11
 10
156.5055
 20
38.2912
 42
0.1302821267
  0
VERTEX
  8
LAYER_11
 10
157.1748
 20
38.452
 42
0.1509367336
  0
VERTEX
  8
LAYER_11
 10
157.526
 20
38.8454
 42
0.1174732039
  0
VERTEX
  8
LAYER_11
 10
157.651
 20
39.4932
  0
VERTEX
  8
LAYER_11
 10
157.651
 20
41.7225
  0
VERTEX
  8
LAYER_11
 10
158.2656
 20
41.7225
  0
VERTEX
  8
LAYER_11
 10
158.2656
 20
39.5266
 42
-0.1106199636
  0
VERTEX
  8
LAYER_11
 10
158.0961
 20
38.708
 42
-0.1822316276
  0
VERTEX
  8
LAYER_11
 10
157.4057
 20
38.0637
 42
-0.09768689614
  0
VERTEX
  8
LAYER_11
 10
156.6028
 20
37.8972
 42
-0.01000776787
  0
VERTEX
  8
LAYER_11
 10
156.4845
 20
37.895
 42
-0.09899827608
  0
VERTEX
  8
LAYER_11
 10
155.612
 20
38.0554
 42
-0.1209605854
  0
VERTEX
  8
LAYER_11
 10
155.1093
 20
38.4366
 42
-0.1192983303
  0
VERTEX
  8
LAYER_11
 10
154.8407
 20
39.0317
 42
-0.05319533763
  0
VERTEX
  8
LAYER_11
 10
154.7943
 20
39.5046
  0
VERTEX
  8
LAYER_11
 10
154.7943
 20
41.7225
  0
SEQEND
  0
ENDBLK
  0
BLOCK
  8
LAYER_11
  2
AIGNBL0B040009
 70
64
 10
0
 20
0
 30
0
  3
AIGNBL0B040009
  0
POLYLINE
  8
LAYER_11
 40
0.05
 41
0.05
 66
1
 10
0
 20
0
 30
0
 70
1
  0
VERTEX
  8
LAYER_11
 10
160.0119
 20
39.1418
  0
VERTEX
  8
LAYER_11
 10
159.5227
 20
37.9567
  0
VERTEX
  8
LAYER_11
 10
158.8947
 20
37.9567
  0
VERTEX
  8
LAYER_11
 10
160.4939
 20
41.7225
  0
VERTEX
  8
LAYER_11
 10
161.227
 20
41.7225
  0
VERTEX
  8
LAYER_11
 10
162.8335
 20
37.9567
  0
VERTEX
  8
LAYER_11
 10
162.1841
 20
37.9567
  0
VERTEX
  8
LAYER_11
 10
161.6814
 20
39.1418
  0
SEQEND
  0
POLYLINE
  8
LAYER_11
 40
0.05
 41
0.05
 66
1
 10
0
 20
0
 30
0
 70
1
  0
VERTEX
  8
LAYER_11
 10
161.5553
 20
39.5208
  0
VERTEX
  8
LAYER_11
 10
161.094
 20
40.6056
 42
-0.02227599701
  0
VERTEX
  8
LAYER_11
 10
160.8494
 20
41.2926
  0
VERTEX
  8
LAYER_11
 10
160.8357
 20
41.2926
 42
-0.0206476565
  0
VERTEX
  8
LAYER_11
 10
160.5983
 20
40.6101
  0
VERTEX
  8
LAYER_11
 10
160.1373
 20
39.5208
  0
SEQEND
  0
ENDBLK
  0
BLOCK
  8
LAYER_11
  2
AIGNBL0B04000A
 70
64
 10
0
 20
0
 30
0
  3
AIGNBL0B04000A
  0
POLYLINE
  8
LAYER_11
 40
0.05
 41
0.05
 66
1
 10
0
 20
0
 30
0
 70
1
  0
VERTEX
  8
LAYER_11
 10
163.8742
 20
41.6777
 42
-0.03334485223
  0
VERTEX
  8
LAYER_11
 10
165.0411
 20
41.7508
 42
-0.08841555942
  0
VERTEX
  8
LAYER_11
 10
166.0872
 20
41.5858
 42
-0.06038484967
  0
VERTEX
  8
LAYER_11
 10
166.3609
 20
41.438
 42
-0.2471651456
  0
VERTEX
  8
LAYER_11
 10
166.7726
 20
40.6497
 42
-0.1483298328
  0
VERTEX
  8
LAYER_11
 10
166.6029
 20
40.0554
 42
-0.07223194904
  0
VERTEX
  8
LAYER_11
 10
166.4095
 20
39.8456
 42
-0.1209372404
  0
VERTEX
  8
LAYER_11
 10
165.7228
 20
39.517
 42
-0.06224269186
  0
VERTEX
  8
LAYER_11
 10
164.9708
 20
39.4319
 42
-0.05738783264
  0
VERTEX
  8
LAYER_11
 10
164.4823
 20
39.4653
  0
VERTEX
  8
LAYER_11
 10
164.4823
 20
37.9567
  0
VERTEX
  8
LAYER_11
 10
163.8742
 20
37.9567
  0
SEQEND
  0
POLYLINE
  8
LAYER_11
 40
0.05
 41
0.05
 66
1
 10
0
 20
0
 30
0
 70
1
  0
VERTEX
  8
LAYER_11
 10
164.4823
 20
39.8622
 42
0.05012782438
  0
VERTEX
  8
LAYER_11
 10
164.9846
 20
39.8229
 42
0.1135463519
  0
VERTEX
  8
LAYER_11
 10
165.7697
 20
39.9822
 42
0.1653329065
  0
VERTEX
  8
LAYER_11
 10
166.1074
 20
40.3302
 42
0.1044639943
  0
VERTEX
  8
LAYER_11
 10
166.1656
 20
40.6273
 42
0.2826437488
  0
VERTEX
  8
LAYER_11
 10
165.8147
 20
41.2103
 42
0.0629694601
  0
VERTEX
  8
LAYER_11
 10
165.549
 20
41.3107
 42
0.06259589917
  0
VERTEX
  8
LAYER_11
 10
165.0552
 20
41.3649
 42
0.05214717704
  0
VERTEX
  8
LAYER_11
 10
164.4823
 20
41.3256
  0
SEQEND
  0
ENDBLK
  0
BLOCK
  8
LAYER_11
  2
AIGNBL0B04000B
 70
64
 10
0
 20
0
 30
0
  3
AIGNBL0B04000B
  0
POLYLINE
  8
LAYER_11
 40
0.05
 41
0.05
 66
1
 10
0
 20
0
 30
0
 70
1
  0
VERTEX
  8
LAYER_11
 10
168.3246
 20
41.4207
 42
-0.3048675751
  0
VERTEX
  8
LAYER_11
 10
168.1582
 20
41.1661
 42
-0.1151020929
  0
VERTEX
  8
LAYER_11
 10
167.9329
 20
41.1189
 42
-0.2442513348
  0
VERTEX
  8
LAYER_11
 10
167.6028
 20
41.2794
 42
-0.1394546152
  0
VERTEX
  8
LAYER_11
 10
167.5626
 20
41.4207
 42
-0.287439772
  0
VERTEX
  8
LAYER_11
 10
167.7346
 20
41.6803
 42
-0.1179404017
  0
VERTEX
  8
LAYER_11
 10
167.9467
 20
41.7277
 42
-0.2416274379
  0
VERTEX
  8
LAYER_11
 10
168.2814
 20
41.5719
 42
-0.1426378456
  0
SEQEND
  0
POLYLINE
  8
LAYER_11
 40
0.05
 41
0.05
 66
1
 10
0
 20
0
 30
0
 70
1
  0
VERTEX
  8
LAYER_11
 10
167.639
 20
37.9567
  0
VERTEX
  8
LAYER_11
 10
167.639
 20
40.6607
  0
VERTEX
  8
LAYER_11
 10
168.2536
 20
40.6607
  0
VERTEX
  8
LAYER_11
 10
168.2536
 20
37.9567
  0
SEQEND
  0
ENDBLK
  0
BLOCK
  8
LAYER_11
  2
AIGNBL0B04000C
 70
64
 10
0
 20
0
 30
0
  3
AIGNBL0B04000C
  0
POLYLINE
  8
LAYER_11
 40
0.05
 41
0.05
 66
1
 10
0
 20
0
 30
0
 70
1
  0
VERTEX
  8
LAYER_11
 10
170.1254
 20
39.1418
  0
VERTEX
  8
LAYER_11
 10
169.6372
 20
37.9567
  0
VERTEX
  8
LAYER_11
 10
169.0081
 20
37.9567
  0
VERTEX
  8
LAYER_11
 10
170.6077
 20
41.7225
  0
VERTEX
  8
LAYER_11
 10
171.3415
 20
41.7225
  0
VERTEX
  8
LAYER_11
 10
172.9479
 20
37.9567
  0
VERTEX
  8
LAYER_11
 10
172.2982
 20
37.9567
  0
VERTEX
  8
LAYER_11
 10
171.7955
 20
39.1418
  0
SEQEND
  0
POLYLINE
  8
LAYER_11
 40
0.05
 41
0.05
 66
1
 10
0
 20
0
 30
0
 70
1
  0
VERTEX
  8
LAYER_11
 10
171.6695
 20
39.5208
  0
VERTEX
  8
LAYER_11
 10
171.2085
 20
40.6056
 42
-0.02430767271
  0
VERTEX
  8
LAYER_11
 10
170.9646
 20
41.2926
  0
VERTEX
  8
LAYER_11
 10
170.9498
 20
41.2926
 42
-0.02046602706
  0
VERTEX
  8
LAYER_11
 10
170.7127
 20
40.6101
  0
VERTEX
  8
LAYER_11
 10
170.2518
 20
39.5208
  0
SEQEND
  0
ENDBLK
  0
BLOCK
  8
LAYER_11
  2
AIGNBL0B030005
 70
64
 10
0
 20
0
 30
0
  3
AIGNBL0B030005
  0
INSERT
  8
LAYER_11
  2
AIGNBL0B040006
 10
0
 20
0
 30
0
  0
INSERT
  8
LAYER_11
  2
AIGNBL0B040007
 10
0
 20
0
 30
0
  0
INSERT
  8
LAYER_11
  2
AIGNBL0B040008
 10
0
 20
0
 30
0
  0
INSERT
  8
LAYER_11
  2
AIGNBL0B040009
 10
0
 20
0
 30
0
  0
INSERT
  8
LAYER_11
  2
AIGNBL0B04000A
 10
0
 20
0
 30
0
  0
INSERT
  8
LAYER_11
  2
AIGNBL0B04000B
 10
0
 20
0
 30
0
  0
INSERT
  8
LAYER_11
  2
AIGNBL0B04000C
 10
0
 20
0
 30
0
  0
ENDBLK
  0
BLOCK
  8
LAYER_11
  2
AIGNBL0B03000E
 70
64
 10
0
 20
0
 30
0
  3
AIGNBL0B03000E
  0
POLYLINE
  8
LAYER_11
 40
0.05
 41
0.05
 66
1
 10
0
 20
0
 30
0
 70
1
  0
VERTEX
  8
LAYER_11
 10
145.7475
 20
36.0574
  0
VERTEX
  8
LAYER_11
 10
146.3008
 20
36.0574
  0
VERTEX
  8
LAYER_11
 10
146.3008
 20
35.9637
  0
VERTEX
  8
LAYER_11
 10
145.6424
 20
35.9637
  0
VERTEX
  8
LAYER_11
 10
145.6424
 20
36.9969
  0
VERTEX
  8
LAYER_11
 10
146.2832
 20
36.9969
  0
VERTEX
  8
LAYER_11
 10
146.2832
 20
36.9035
  0
VERTEX
  8
LAYER_11
 10
145.7475
 20
36.9035
  0
VERTEX
  8
LAYER_11
 10
145.7475
 20
36.549
  0
VERTEX
  8
LAYER_11
 10
146.2481
 20
36.549
  0
VERTEX
  8
LAYER_11
 10
146.2481
 20
36.4557
  0
VERTEX
  8
LAYER_11
 10
145.7475
 20
36.4557
  0
SEQEND
  0
ENDBLK
  0
BLOCK
  8
LAYER_11
  2
AIGNBL0B03000F
 70
64
 10
0
 20
0
 30
0
  3
AIGNBL0B03000F
  0
POLYLINE
  8
LAYER_11
 40
0.05
 41
0.05
 66
1
 10
0
 20
0
 30
0
 70
1
  0
VERTEX
  8
LAYER_11
 10
147.4404
 20
36.117
  0
VERTEX
  8
LAYER_11
 10
147.4432
 20
36.117
  0
VERTEX
  8
LAYER_11
 10
147.4432
 20
36.9969
  0
VERTEX
  8
LAYER_11
 10
147.5483
 20
36.9969
  0
VERTEX
  8
LAYER_11
 10
147.5483
 20
35.9637
  0
VERTEX
  8
LAYER_11
 10
147.4174
 20
35.9637
  0
VERTEX
  8
LAYER_11
 10
146.8162
 20
36.8525
  0
VERTEX
  8
LAYER_11
 10
146.8127
 20
36.8525
  0
VERTEX
  8
LAYER_11
 10
146.8127
 20
35.9637
  0
VERTEX
  8
LAYER_11
 10
146.708
 20
35.9637
  0
VERTEX
  8
LAYER_11
 10
146.708
 20
36.9969
  0
VERTEX
  8
LAYER_11
 10
146.8393
 20
36.9969
  0
SEQEND
  0
ENDBLK
  0
BLOCK
  8
LAYER_11
  2
AIGNBL0B030010
 70
64
 10
0
 20
0
 30
0
  3
AIGNBL0B030010
  0
POLYLINE
  8
LAYER_11
 40
0.05
 41
0.05
 66
1
 10
0
 20
0
 30
0
 70
1
  0
VERTEX
  8
LAYER_11
 10
148.0213
 20
36.1756
 42
0.1563325367
  0
VERTEX
  8
LAYER_11
 10
148.0757
 20
36.0726
 42
0.1919271311
  0
VERTEX
  8
LAYER_11
 10
148.1891
 20
36.0309
  0
VERTEX
  8
LAYER_11
 10
148.2783
 20
36.0505
  0
VERTEX
  8
LAYER_11
 10
148.3344
 20
36.1039
  0
VERTEX
  8
LAYER_11
 10
148.3634
 20
36.1804
  0
VERTEX
  8
LAYER_11
 10
148.3716
 20
36.27
  0
VERTEX
  8
LAYER_11
 10
148.3716
 20
36.9969
  0
VERTEX
  8
LAYER_11
 10
148.4767
 20
36.9969
  0
VERTEX
  8
LAYER_11
 10
148.4767
 20
36.2614
  0
VERTEX
  8
LAYER_11
 10
148.4654
 20
36.1535
 42
-0.09689434064
  0
VERTEX
  8
LAYER_11
 10
148.424
 20
36.0484
 42
-0.1145812533
  0
VERTEX
  8
LAYER_11
 10
148.3393
 20
35.9689
 42
-0.1249341208
  0
VERTEX
  8
LAYER_11
 10
148.2004
 20
35.9375
 42
-0.1797266639
  0
VERTEX
  8
LAYER_11
 10
148.0158
 20
35.9975
 42
-0.1772027805
  0
VERTEX
  8
LAYER_11
 10
147.9234
 20
36.149
  0
SEQEND
  0
ENDBLK
  0
BLOCK
  8
LAYER_11
  2
AIGNBL0B030011
 70
64
 10
0
 20
0
 30
0
  3
AIGNBL0B030011
  0
POLYLINE
  8
LAYER_11
 40
0.05
 41
0.05
 66
1
 10
0
 20
0
 30
0
 70
1
  0
VERTEX
  8
LAYER_11
 10
149.965
 20
36.4805
 42
-0.1019307791
  0
VERTEX
  8
LAYER_11
 10
149.924
 20
36.2631
 42
-0.09962254273
  0
VERTEX
  8
LAYER_11
 10
149.8114
 20
36.0915
 42
-0.09627361929
  0
VERTEX
  8
LAYER_11
 10
149.6405
 20
35.9785
 42
-0.09758594962
  0
VERTEX
  8
LAYER_11
 10
149.4265
 20
35.9375
 42
-0.1000844711
  0
VERTEX
  8
LAYER_11
 10
149.2129
 20
35.9785
 42
-0.09985105323
  0
VERTEX
  8
LAYER_11
 10
149.0421
 20
36.0915
 42
-0.09735230618
  0
VERTEX
  8
LAYER_11
 10
148.9287
 20
36.2631
 42
-0.09653980076
  0
VERTEX
  8
LAYER_11
 10
148.8881
 20
36.4805
 42
-0.1004594477
  0
VERTEX
  8
LAYER_11
 10
148.9287
 20
36.6978
 42
-0.1001669327
  0
VERTEX
  8
LAYER_11
 10
149.0421
 20
36.8694
 42
-0.09871200056
  0
VERTEX
  8
LAYER_11
 10
149.2129
 20
36.9824
 42
-0.09768823248
  0
VERTEX
  8
LAYER_11
 10
149.4265
 20
37.0234
 42
-0.1000514256
  0
VERTEX
  8
LAYER_11
 10
149.6405
 20
36.9824
 42
-0.0983303992
  0
VERTEX
  8
LAYER_11
 10
149.8114
 20
36.8694
 42
-0.09762598086
  0
VERTEX
  8
LAYER_11
 10
149.924
 20
36.6978
 42
-0.09788199595
  0
SEQEND
  0
POLYLINE
  8
LAYER_11
 40
0.05
 41
0.05
 66
1
 10
0
 20
0
 30
0
 70
1
  0
VERTEX
  8
LAYER_11
 10
149.8541
 20
36.4798
 42
0.08634913196
  0
VERTEX
  8
LAYER_11
 10
149.8251
 20
36.6517
 42
0.09663020944
  0
VERTEX
  8
LAYER_11
 10
149.7404
 20
36.795
 42
0.1032857511
  0
VERTEX
  8
LAYER_11
 10
149.6053
 20
36.8932
 42
0.1061320656
  0
VERTEX
  8
LAYER_11
 10
149.4265
 20
36.93
 42
0.1113757871
  0
VERTEX
  8
LAYER_11
 10
149.2477
 20
36.8932
 42
0.1056595975
  0
VERTEX
  8
LAYER_11
 10
149.113
 20
36.795
 42
0.09787799956
  0
VERTEX
  8
LAYER_11
 10
149.0283
 20
36.6517
 42
0.08491464556
  0
VERTEX
  8
LAYER_11
 10
148.999
 20
36.4798
 42
0.08693146424
  0
VERTEX
  8
LAYER_11
 10
149.0283
 20
36.3079
 42
0.1009797617
  0
VERTEX
  8
LAYER_11
 10
149.113
 20
36.1649
 42
0.09920321622
  0
VERTEX
  8
LAYER_11
 10
149.2477
 20
36.0674
 42
0.1060640085
  0
VERTEX
  8
LAYER_11
 10
149.4265
 20
36.0309
 42
0.1126980581
  0
VERTEX
  8
LAYER_11
 10
149.6053
 20
36.0674
 42
0.1035582302
  0
VERTEX
  8
LAYER_11
 10
149.7404
 20
36.1649
 42
0.09432567525
  0
VERTEX
  8
LAYER_11
 10
149.8251
 20
36.3079
 42
0.08466662837
  0
SEQEND
  0
ENDBLK
  0
BLOCK
  8
LAYER_11
  2
AIGNBL0B030012
 70
64
 10
0
 20
0
 30
0
  3
AIGNBL0B030012
  0
POLYLINE
  8
LAYER_11
 40
0.05
 41
0.05
 66
1
 10
0
 20
0
 30
0
 70
1
  0
VERTEX
  8
LAYER_11
 10
150.7398
 20
35.9637
  0
VERTEX
  8
LAYER_11
 10
150.6351
 20
35.9637
  0
VERTEX
  8
LAYER_11
 10
150.6351
 20
36.4091
  0
VERTEX
  8
LAYER_11
 10
150.2482
 20
36.9969
  0
VERTEX
  8
LAYER_11
 10
150.3795
 20
36.9969
  0
VERTEX
  8
LAYER_11
 10
150.6905
 20
36.4967
  0
VERTEX
  8
LAYER_11
 10
151.004
 20
36.9969
  0
VERTEX
  8
LAYER_11
 10
151.1263
 20
36.9969
  0
VERTEX
  8
LAYER_11
 10
150.7398
 20
36.4091
  0
SEQEND
  0
ENDBLK
  0
BLOCK
  8
LAYER_11
  2
AIGNBL0B030013
 70
64
 10
0
 20
0
 30
0
  3
AIGNBL0B030013
  0
POLYLINE
  8
LAYER_11
 40
0.05
 41
0.05
 66
1
 10
0
 20
0
 30
0
 70
1
  0
VERTEX
  8
LAYER_11
 10
152.0314
 20
36.9969
  0
VERTEX
  8
LAYER_11
 10
152.339
 20
36.9969
  0
VERTEX
  8
LAYER_11
 10
152.4575
 20
36.9845
  0
VERTEX
  8
LAYER_11
 10
152.5643
 20
36.9421
 42
-0.1168262011
  0
VERTEX
  8
LAYER_11
 10
152.6422
 20
36.8611
 42
-0.1230288266
  0
VERTEX
  8
LAYER_11
 10
152.6718
 20
36.733
 42
-0.1795449175
  0
VERTEX
  8
LAYER_11
 10
152.6219
 20
36.5907
 42
-0.1695619646
  0
VERTEX
  8
LAYER_11
 10
152.4885
 20
36.5111
  0
VERTEX
  8
LAYER_11
 10
152.4885
 20
36.5084
 42
-0.1719890535
  0
VERTEX
  8
LAYER_11
 10
152.6553
 20
36.4302
 42
-0.2018462152
  0
VERTEX
  8
LAYER_11
 10
152.7214
 20
36.2496
 42
-0.1251382371
  0
VERTEX
  8
LAYER_11
 10
152.6942
 20
36.1325
 42
-0.1153486961
  0
VERTEX
  8
LAYER_11
 10
152.6181
 20
36.0419
 42
-0.08656795839
  0
VERTEX
  8
LAYER_11
 10
152.4972
 20
35.9844
 42
-0.06557363107
  0
VERTEX
  8
LAYER_11
 10
152.3373
 20
35.9637
  0
VERTEX
  8
LAYER_11
 10
152.0314
 20
35.9637
  0
SEQEND
  0
POLYLINE
  8
LAYER_11
 40
0.05
 41
0.05
 66
1
 10
0
 20
0
 30
0
 70
1
  0
VERTEX
  8
LAYER_11
 10
152.1365
 20
36.5445
  0
VERTEX
  8
LAYER_11
 10
152.348
 20
36.5445
  0
VERTEX
  8
LAYER_11
 10
152.4248
 20
36.5535
  0
VERTEX
  8
LAYER_11
 10
152.4951
 20
36.5831
  0
VERTEX
  8
LAYER_11
 10
152.5471
 20
36.6396
 42
0.1157679243
  0
VERTEX
  8
LAYER_11
 10
152.5667
 20
36.7258
  0
VERTEX
  8
LAYER_11
 10
152.5471
 20
36.8095
  0
VERTEX
  8
LAYER_11
 10
152.4941
 20
36.8656
  0
VERTEX
  8
LAYER_11
 10
152.4152
 20
36.897
  0
VERTEX
  8
LAYER_11
 10
152.3187
 20
36.9066
  0
VERTEX
  8
LAYER_11
 10
152.1365
 20
36.9066
  0
SEQEND
  0
POLYLINE
  8
LAYER_11
 40
0.05
 41
0.05
 66
1
 10
0
 20
0
 30
0
 70
1
  0
VERTEX
  8
LAYER_11
 10
152.1365
 20
36.0543
  0
VERTEX
  8
LAYER_11
 10
152.3321
 20
36.0543
  0
VERTEX
  8
LAYER_11
 10
152.4407
 20
36.0653
  0
VERTEX
  8
LAYER_11
 10
152.5313
 20
36.1001
 42
0.1172546835
  0
VERTEX
  8
LAYER_11
 10
152.5929
 20
36.1632
 42
0.1286909246
  0
VERTEX
  8
LAYER_11
 10
152.6164
 20
36.2558
 42
0.2499212344
  0
VERTEX
  8
LAYER_11
 10
152.5471
 20
36.4081
 42
0.1538083763
  0
VERTEX
  8
LAYER_11
 10
152.3511
 20
36.4584
  0
VERTEX
  8
LAYER_11
 10
152.1365
 20
36.4584
  0
SEQEND
  0
ENDBLK
  0
BLOCK
  8
LAYER_11
  2
AIGNBL0B030014
 70
64
 10
0
 20
0
 30
0
  3
AIGNBL0B030014
  0
POLYLINE
  8
LAYER_11
 40
0.05
 41
0.05
 66
1
 10
0
 20
0
 30
0
 70
1
  0
VERTEX
  8
LAYER_11
 10
153.1534
 20
35.9637
  0
VERTEX
  8
LAYER_11
 10
153.038
 20
35.9637
  0
VERTEX
  8
LAYER_11
 10
153.4849
 20
36.9969
  0
VERTEX
  8
LAYER_11
 10
153.5872
 20
36.9969
  0
VERTEX
  8
LAYER_11
 10
154.0306
 20
35.9637
  0
VERTEX
  8
LAYER_11
 10
153.9138
 20
35.9637
  0
VERTEX
  8
LAYER_11
 10
153.7997
 20
36.2352
  0
VERTEX
  8
LAYER_11
 10
153.2658
 20
36.2352
  0
SEQEND
  0
POLYLINE
  8
LAYER_11
 40
0.05
 41
0.05
 66
1
 10
0
 20
0
 30
0
 70
1
  0
VERTEX
  8
LAYER_11
 10
153.305
 20
36.3316
  0
VERTEX
  8
LAYER_11
 10
153.7605
 20
36.3316
  0
VERTEX
  8
LAYER_11
 10
153.5327
 20
36.8804
  0
SEQEND
  0
ENDBLK
  0
BLOCK
  8
LAYER_11
  2
AIGNBL0B030015
 70
64
 10
0
 20
0
 30
0
  3
AIGNBL0B030015
  0
POLYLINE
  8
LAYER_11
 40
0.05
 41
0.05
 66
1
 10
0
 20
0
 30
0
 70
1
  0
VERTEX
  8
LAYER_11
 10
154.7151
 20
35.9637
  0
VERTEX
  8
LAYER_11
 10
154.61
 20
35.9637
  0
VERTEX
  8
LAYER_11
 10
154.61
 20
36.9035
  0
VERTEX
  8
LAYER_11
 10
154.2638
 20
36.9035
  0
VERTEX
  8
LAYER_11
 10
154.2638
 20
36.9969
  0
VERTEX
  8
LAYER_11
 10
155.0606
 20
36.9969
  0
VERTEX
  8
LAYER_11
 10
155.0606
 20
36.9035
  0
VERTEX
  8
LAYER_11
 10
154.7151
 20
36.9035
  0
SEQEND
  0
ENDBLK
  0
BLOCK
  8
LAYER_11
  2
AIGNBL0B030016
 70
64
 10
0
 20
0
 30
0
  3
AIGNBL0B030016
  0
POLYLINE
  8
LAYER_11
 40
0.05
 41
0.05
 66
1
 10
0
 20
0
 30
0
 70
1
  0
VERTEX
  8
LAYER_11
 10
155.4169
 20
36.9969
  0
VERTEX
  8
LAYER_11
 10
155.5216
 20
36.9969
  0
VERTEX
  8
LAYER_11
 10
155.5216
 20
36.549
  0
VERTEX
  8
LAYER_11
 10
156.0852
 20
36.549
  0
VERTEX
  8
LAYER_11
 10
156.0852
 20
36.9969
  0
VERTEX
  8
LAYER_11
 10
156.1903
 20
36.9969
  0
VERTEX
  8
LAYER_11
 10
156.1903
 20
35.9637
  0
VERTEX
  8
LAYER_11
 10
156.0852
 20
35.9637
  0
VERTEX
  8
LAYER_11
 10
156.0852
 20
36.4529
  0
VERTEX
  8
LAYER_11
 10
155.5216
 20
36.4529
  0
VERTEX
  8
LAYER_11
 10
155.5216
 20
35.9637
  0
VERTEX
  8
LAYER_11
 10
155.4169
 20
35.9637
  0
SEQEND
  0
ENDBLK
  0
BLOCK
  8
LAYER_11
  2
AIGNBL0B030017
 70
64
 10
0
 20
0
 30
0
  3
AIGNBL0B030017
  0
POLYLINE
  8
LAYER_11
 40
0.05
 41
0.05
 66
1
 10
0
 20
0
 30
0
 70
1
  0
VERTEX
  8
LAYER_11
 10
156.7708
 20
35.9637
  0
VERTEX
  8
LAYER_11
 10
156.6657
 20
35.9637
  0
VERTEX
  8
LAYER_11
 10
156.6657
 20
36.9969
  0
VERTEX
  8
LAYER_11
 10
156.9696
 20
36.9969
  0
VERTEX
  8
LAYER_11
 10
157.1101
 20
36.9824
 42
-0.1032885834
  0
VERTEX
  8
LAYER_11
 10
157.2228
 20
36.9349
 42
-0.1281738609
  0
VERTEX
  8
LAYER_11
 10
157.2962
 20
36.8494
 42
-0.1081125707
  0
VERTEX
  8
LAYER_11
 10
157.3224
 20
36.7213
  0
VERTEX
  8
LAYER_11
 10
157.3024
 20
36.6176
  0
VERTEX
  8
LAYER_11
 10
157.2469
 20
36.5366
  0
VERTEX
  8
LAYER_11
 10
157.1635
 20
36.4818
  0
VERTEX
  8
LAYER_11
 10
157.0585
 20
36.4557
  0
VERTEX
  8
LAYER_11
 10
157.3606
 20
35.9637
  0
VERTEX
  8
LAYER_11
 10
157.2321
 20
35.9637
  0
VERTEX
  8
LAYER_11
 10
156.9461
 20
36.4467
  0
VERTEX
  8
LAYER_11
 10
156.7708
 20
36.4467
  0
SEQEND
  0
POLYLINE
  8
LAYER_11
 40
0.05
 41
0.05
 66
1
 10
0
 20
0
 30
0
 70
1
  0
VERTEX
  8
LAYER_11
 10
156.7708
 20
36.5373
  0
VERTEX
  8
LAYER_11
 10
156.9534
 20
36.5373
 42
0.153451873
  0
VERTEX
  8
LAYER_11
 10
157.1491
 20
36.5831
 42
0.2580279849
  0
VERTEX
  8
LAYER_11
 10
157.2176
 20
36.7213
  0
VERTEX
  8
LAYER_11
 10
157.1983
 20
36.8071
  0
VERTEX
  8
LAYER_11
 10
157.146
 20
36.8642
  0
VERTEX
  8
LAYER_11
 10
157.0643
 20
36.8963
  0
VERTEX
  8
LAYER_11
 10
156.9579
 20
36.9066
  0
VERTEX
  8
LAYER_11
 10
156.7708
 20
36.9066
  0
SEQEND
  0
ENDBLK
  0
BLOCK
  8
LAYER_11
  2
AIGNBL0B030018
 70
64
 10
0
 20
0
 30
0
  3
AIGNBL0B030018
  0
POLYLINE
  8
LAYER_11
 40
0.05
 41
0.05
 66
1
 10
0
 20
0
 30
0
 70
1
  0
VERTEX
  8
LAYER_11
 10
158.7627
 20
36.4805
 42
-0.09904480664
  0
VERTEX
  8
LAYER_11
 10
158.7221
 20
36.2631
 42
-0.0998654539
  0
VERTEX
  8
LAYER_11
 10
158.6088
 20
36.0915
 42
-0.09816046092
  0
VERTEX
  8
LAYER_11
 10
158.4382
 20
35.9785
 42
-0.09758412454
  0
VERTEX
  8
LAYER_11
 10
158.2243
 20
35.9375
 42
-0.09999517154
  0
VERTEX
  8
LAYER_11
 10
158.0103
 20
35.9785
 42
-0.09953435427
  0
VERTEX
  8
LAYER_11
 10
157.8398
 20
36.0915
 42
-0.09864299929
  0
VERTEX
  8
LAYER_11
 10
157.7268
 20
36.2631
 42
-0.09653980076
  0
VERTEX
  8
LAYER_11
 10
157.6862
 20
36.4805
 42
-0.1004594477
  0
VERTEX
  8
LAYER_11
 10
157.7268
 20
36.6978
 42
-0.1008040346
  0
VERTEX
  8
LAYER_11
 10
157.8398
 20
36.8694
 42
-0.09763764092
  0
VERTEX
  8
LAYER_11
 10
158.0103
 20
36.9824
 42
-0.09752919603
  0
VERTEX
  8
LAYER_11
 10
158.2243
 20
37.0234
 42
-0.1000174927
  0
VERTEX
  8
LAYER_11
 10
158.4382
 20
36.9824
 42
-0.1006724022
  0
VERTEX
  8
LAYER_11
 10
158.6088
 20
36.8694
 42
-0.09709867792
  0
VERTEX
  8
LAYER_11
 10
158.7221
 20
36.6978
 42
-0.09585658013
  0
SEQEND
  0
POLYLINE
  8
LAYER_11
 40
0.05
 41
0.05
 66
1
 10
0
 20
0
 30
0
 70
1
  0
VERTEX
  8
LAYER_11
 10
158.6518
 20
36.4798
 42
0.08852014676
  0
VERTEX
  8
LAYER_11
 10
158.6225
 20
36.6517
 42
0.09973444611
  0
VERTEX
  8
LAYER_11
 10
158.5378
 20
36.795
 42
0.1024799068
  0
VERTEX
  8
LAYER_11
 10
158.4031
 20
36.8932
 42
0.1060321998
  0
VERTEX
  8
LAYER_11
 10
158.2243
 20
36.93
 42
0.1116325688
  0
VERTEX
  8
LAYER_11
 10
158.0455
 20
36.8932
 42
0.1060506217
  0
VERTEX
  8
LAYER_11
 10
157.9104
 20
36.795
 42
0.09526104957
  0
VERTEX
  8
LAYER_11
 10
157.8257
 20
36.6517
 42
0.08440311357
  0
VERTEX
  8
LAYER_11
 10
157.7967
 20
36.4798
 42
0.08751084222
  0
VERTEX
  8
LAYER_11
 10
157.8257
 20
36.3079
 42
0.09826867926
  0
VERTEX
  8
LAYER_11
 10
157.9104
 20
36.1649
 42
0.09908422267
  0
VERTEX
  8
LAYER_11
 10
158.0455
 20
36.0674
 42
0.1061654103
  0
VERTEX
  8
LAYER_11
 10
158.2243
 20
36.0309
 42
0.1124388132
  0
VERTEX
  8
LAYER_11
 10
158.4031
 20
36.0674
 42
0.1028204009
  0
VERTEX
  8
LAYER_11
 10
158.5378
 20
36.1649
 42
0.09882210045
  0
VERTEX
  8
LAYER_11
 10
158.6225
 20
36.3079
 42
0.08589740831
  0
SEQEND
  0
ENDBLK
  0
BLOCK
  8
LAYER_11
  2
AIGNBL0B030019
 70
64
 10
0
 20
0
 30
0
  3
AIGNBL0B030019
  0
POLYLINE
  8
LAYER_11
 40
0.05
 41
0.05
 66
1
 10
0
 20
0
 30
0
 70
1
  0
VERTEX
  8
LAYER_11
 10
160.2045
 20
36.4805
 42
-0.1019307791
  0
VERTEX
  8
LAYER_11
 10
160.1635
 20
36.2631
 42
-0.1000344077
  0
VERTEX
  8
LAYER_11
 10
160.0509
 20
36.0915
 42
-0.09685913213
  0
VERTEX
  8
LAYER_11
 10
159.88
 20
35.9785
 42
-0.09758412454
  0
VERTEX
  8
LAYER_11
 10
159.6661
 20
35.9375
 42
-0.1006569764
  0
VERTEX
  8
LAYER_11
 10
159.4525
 20
35.9785
 42
-0.1011318925
  0
VERTEX
  8
LAYER_11
 10
159.2816
 20
36.0915
 42
-0.09735230618
  0
VERTEX
  8
LAYER_11
 10
159.1682
 20
36.2631
 42
-0.09653980076
  0
VERTEX
  8
LAYER_11
 10
159.1276
 20
36.4805
 42
-0.1004594477
  0
VERTEX
  8
LAYER_11
 10
159.1682
 20
36.6978
 42
-0.1001669327
  0
VERTEX
  8
LAYER_11
 10
159.2816
 20
36.8694
 42
-0.09867928162
  0
VERTEX
  8
LAYER_11
 10
159.4525
 20
36.9824
 42
-0.09791748865
  0
VERTEX
  8
LAYER_11
 10
159.6661
 20
37.0234
 42
-0.1000174927
  0
VERTEX
  8
LAYER_11
 10
159.88
 20
36.9824
 42
-0.0983303992
  0
VERTEX
  8
LAYER_11
 10
160.0509
 20
36.8694
 42
-0.09781653482
  0
VERTEX
  8
LAYER_11
 10
160.1635
 20
36.6978
 42
-0.09788199595
  0
SEQEND
  0
POLYLINE
  8
LAYER_11
 40
0.05
 41
0.05
 66
1
 10
0
 20
0
 30
0
 70
1
  0
VERTEX
  8
LAYER_11
 10
160.0936
 20
36.4798
 42
0.08634913196
  0
VERTEX
  8
LAYER_11
 10
160.0646
 20
36.6517
 42
0.09721101768
  0
VERTEX
  8
LAYER_11
 10
159.9799
 20
36.795
 42
0.1030853098
  0
VERTEX
  8
LAYER_11
 10
159.8449
 20
36.8932
 42
0.1060321998
  0
VERTEX
  8
LAYER_11
 10
159.6661
 20
36.93
 42
0.1116325688
  0
VERTEX
  8
LAYER_11
 10
159.4873
 20
36.8932
 42
0.1058584166
  0
VERTEX
  8
LAYER_11
 10
159.3525
 20
36.795
 42
0.09787799956
  0
VERTEX
  8
LAYER_11
 10
159.2678
 20
36.6517
 42
0.08491464556
  0
VERTEX
  8
LAYER_11
 10
159.2385
 20
36.4798
 42
0.08693146424
  0
VERTEX
  8
LAYER_11
 10
159.2678
 20
36.3079
 42
0.1009797617
  0
VERTEX
  8
LAYER_11
 10
159.3525
 20
36.1649
 42
0.09947922476
  0
VERTEX
  8
LAYER_11
 10
159.4873
 20
36.0674
 42
0.1061654103
  0
VERTEX
  8
LAYER_11
 10
159.6661
 20
36.0309
 42
0.1124388132
  0
VERTEX
  8
LAYER_11
 10
159.8449
 20
36.0674
 42
0.103362111
  0
VERTEX
  8
LAYER_11
 10
159.9799
 20
36.1649
 42
0.09450022685
  0
VERTEX
  8
LAYER_11
 10
160.0646
 20
36.3079
 42
0.08466662837
  0
SEQEND
  0
ENDBLK
  0
BLOCK
  8
LAYER_11
  2
AIGNBL0B03001A
 70
64
 10
0
 20
0
 30
0
  3
AIGNBL0B03001A
  0
POLYLINE
  8
LAYER_11
 40
0.05
 41
0.05
 66
1
 10
0
 20
0
 30
0
 70
1
  0
VERTEX
  8
LAYER_11
 10
161.1354
 20
36.1418
  0
VERTEX
  8
LAYER_11
 10
161.1371
 20
36.1418
  0
VERTEX
  8
LAYER_11
 10
161.4826
 20
36.9969
  0
VERTEX
  8
LAYER_11
 10
161.6435
 20
36.9969
  0
VERTEX
  8
LAYER_11
 10
161.6435
 20
35.9637
  0
VERTEX
  8
LAYER_11
 10
161.5381
 20
35.9637
  0
VERTEX
  8
LAYER_11
 10
161.5381
 20
36.8611
  0
VERTEX
  8
LAYER_11
 10
161.5354
 20
36.8611
  0
VERTEX
  8
LAYER_11
 10
161.1619
 20
35.9637
  0
VERTEX
  8
LAYER_11
 10
161.1064
 20
35.9637
  0
VERTEX
  8
LAYER_11
 10
160.7327
 20
36.8611
  0
VERTEX
  8
LAYER_11
 10
160.7299
 20
36.8611
  0
VERTEX
  8
LAYER_11
 10
160.7299
 20
35.9637
  0
VERTEX
  8
LAYER_11
 10
160.6248
 20
35.9637
  0
VERTEX
  8
LAYER_11
 10
160.6248
 20
36.9969
  0
VERTEX
  8
LAYER_11
 10
160.7854
 20
36.9969
  0
SEQEND
  0
ENDBLK
  0
BLOCK
  8
LAYER_11
  2
AIGNBL0B03001B
 70
64
 10
0
 20
0
 30
0
  3
AIGNBL0B03001B
  0
POLYLINE
  8
LAYER_11
 40
0.05
 41
0.05
 66
1
 10
0
 20
0
 30
0
 70
1
  0
VERTEX
  8
LAYER_11
 10
162.7901
 20
36.0574
  0
VERTEX
  8
LAYER_11
 10
163.3433
 20
36.0574
  0
VERTEX
  8
LAYER_11
 10
163.3433
 20
35.9637
  0
VERTEX
  8
LAYER_11
 10
162.685
 20
35.9637
  0
VERTEX
  8
LAYER_11
 10
162.685
 20
36.9969
  0
VERTEX
  8
LAYER_11
 10
163.3258
 20
36.9969
  0
VERTEX
  8
LAYER_11
 10
163.3258
 20
36.9035
  0
VERTEX
  8
LAYER_11
 10
162.7901
 20
36.9035
  0
VERTEX
  8
LAYER_11
 10
162.7901
 20
36.549
  0
VERTEX
  8
LAYER_11
 10
163.2906
 20
36.549
  0
VERTEX
  8
LAYER_11
 10
163.2906
 20
36.4557
  0
VERTEX
  8
LAYER_11
 10
162.7901
 20
36.4557
  0
SEQEND
  0
ENDBLK
  0
BLOCK
  8
LAYER_11
  2
AIGNBL0B03001C
 70
64
 10
0
 20
0
 30
0
  3
AIGNBL0B03001C
  0
POLYLINE
  8
LAYER_11
 40
0.05
 41
0.05
 66
1
 10
0
 20
0
 30
0
 70
1
  0
VERTEX
  8
LAYER_11
 10
164.0885
 20
36.5797
  0
VERTEX
  8
LAYER_11
 10
164.3707
 20
36.9969
  0
VERTEX
  8
LAYER_11
 10
164.4957
 20
36.9969
  0
VERTEX
  8
LAYER_11
 10
164.1533
 20
36.5053
  0
VERTEX
  8
LAYER_11
 10
164.5326
 20
35.9637
  0
VERTEX
  8
LAYER_11
 10
164.4013
 20
35.9637
  0
VERTEX
  8
LAYER_11
 10
164.0858
 20
36.4295
  0
VERTEX
  8
LAYER_11
 10
163.7723
 20
35.9637
  0
VERTEX
  8
LAYER_11
 10
163.6407
 20
35.9637
  0
VERTEX
  8
LAYER_11
 10
164.0203
 20
36.5066
  0
VERTEX
  8
LAYER_11
 10
163.6744
 20
36.9969
  0
VERTEX
  8
LAYER_11
 10
163.806
 20
36.9969
  0
SEQEND
  0
ENDBLK
  0
BLOCK
  8
LAYER_11
  2
AIGNBL0B03001D
 70
64
 10
0
 20
0
 30
0
  3
AIGNBL0B03001D
  0
POLYLINE
  8
LAYER_11
 40
0.05
 41
0.05
 66
1
 10
0
 20
0
 30
0
 70
1
  0
VERTEX
  8
LAYER_11
 10
164.8988
 20
36.9969
  0
VERTEX
  8
LAYER_11
 10
165.191
 20
36.9969
  0
VERTEX
  8
LAYER_11
 10
165.3339
 20
36.9803
 42
-0.104442724
  0
VERTEX
  8
LAYER_11
 10
165.4438
 20
36.929
 42
-0.1219459081
  0
VERTEX
  8
LAYER_11
 10
165.5148
 20
36.8429
 42
-0.1032545831
  0
VERTEX
  8
LAYER_11
 10
165.5392
 20
36.7213
 42
-0.1239274235
  0
VERTEX
  8
LAYER_11
 10
165.5141
 20
36.5993
 42
-0.1163667494
  0
VERTEX
  8
LAYER_11
 10
165.4424
 20
36.5132
 42
-0.08715194998
  0
VERTEX
  8
LAYER_11
 10
165.3315
 20
36.4615
 42
-0.06108707382
  0
VERTEX
  8
LAYER_11
 10
165.1878
 20
36.4439
  0
VERTEX
  8
LAYER_11
 10
165.0039
 20
36.4439
  0
VERTEX
  8
LAYER_11
 10
165.0039
 20
35.9637
  0
VERTEX
  8
LAYER_11
 10
164.8988
 20
35.9637
  0
SEQEND
  0
POLYLINE
  8
LAYER_11
 40
0.05
 41
0.05
 66
1
 10
0
 20
0
 30
0
 70
1
  0
VERTEX
  8
LAYER_11
 10
165.0039
 20
36.5328
  0
VERTEX
  8
LAYER_11
 10
165.1816
 20
36.5328
 42
0.1698628217
  0
VERTEX
  8
LAYER_11
 10
165.3701
 20
36.5811
 42
0.2445965084
  0
VERTEX
  8
LAYER_11
 10
165.4345
 20
36.7213
 42
0.2593003012
  0
VERTEX
  8
LAYER_11
 10
165.368
 20
36.8622
 42
0.143072224
  0
VERTEX
  8
LAYER_11
 10
165.1816
 20
36.9066
  0
VERTEX
  8
LAYER_11
 10
165.0039
 20
36.9066
  0
SEQEND
  0
ENDBLK
  0
BLOCK
  8
LAYER_11
  2
AIGNBL0B03001E
 70
64
 10
0
 20
0
 30
0
  3
AIGNBL0B03001E
  0
POLYLINE
  8
LAYER_11
 40
0.05
 41
0.05
 66
1
 10
0
 20
0
 30
0
 70
1
  0
VERTEX
  8
LAYER_11
 10
166.0515
 20
36.0574
  0
VERTEX
  8
LAYER_11
 10
166.6048
 20
36.0574
  0
VERTEX
  8
LAYER_11
 10
166.6048
 20
35.9637
  0
VERTEX
  8
LAYER_11
 10
165.9465
 20
35.9637
  0
VERTEX
  8
LAYER_11
 10
165.9465
 20
36.9969
  0
VERTEX
  8
LAYER_11
 10
166.5872
 20
36.9969
  0
VERTEX
  8
LAYER_11
 10
166.5872
 20
36.9035
  0
VERTEX
  8
LAYER_11
 10
166.0515
 20
36.9035
  0
VERTEX
  8
LAYER_11
 10
166.0515
 20
36.549
  0
VERTEX
  8
LAYER_11
 10
166.5521
 20
36.549
  0
VERTEX
  8
LAYER_11
 10
166.5521
 20
36.4557
  0
VERTEX
  8
LAYER_11
 10
166.0515
 20
36.4557
  0
SEQEND
  0
ENDBLK
  0
BLOCK
  8
LAYER_11
  2
AIGNBL0B03001F
 70
64
 10
0
 20
0
 30
0
  3
AIGNBL0B03001F
  0
POLYLINE
  8
LAYER_11
 40
0.05
 41
0.05
 66
1
 10
0
 20
0
 30
0
 70
1
  0
VERTEX
  8
LAYER_11
 10
167.1168
 20
35.9637
  0
VERTEX
  8
LAYER_11
 10
167.0117
 20
35.9637
  0
VERTEX
  8
LAYER_11
 10
167.0117
 20
36.9969
  0
VERTEX
  8
LAYER_11
 10
167.3155
 20
36.9969
  0
VERTEX
  8
LAYER_11
 10
167.4561
 20
36.9824
 42
-0.1033890198
  0
VERTEX
  8
LAYER_11
 10
167.5688
 20
36.9349
 42
-0.1259996581
  0
VERTEX
  8
LAYER_11
 10
167.6425
 20
36.8494
 42
-0.1064650891
  0
VERTEX
  8
LAYER_11
 10
167.6683
 20
36.7213
  0
VERTEX
  8
LAYER_11
 10
167.6483
 20
36.6176
  0
VERTEX
  8
LAYER_11
 10
167.5929
 20
36.5366
  0
VERTEX
  8
LAYER_11
 10
167.5095
 20
36.4818
  0
VERTEX
  8
LAYER_11
 10
167.4044
 20
36.4557
  0
VERTEX
  8
LAYER_11
 10
167.7066
 20
35.9637
  0
VERTEX
  8
LAYER_11
 10
167.5781
 20
35.9637
  0
VERTEX
  8
LAYER_11
 10
167.2921
 20
36.4467
  0
VERTEX
  8
LAYER_11
 10
167.1168
 20
36.4467
  0
SEQEND
  0
POLYLINE
  8
LAYER_11
 40
0.05
 41
0.05
 66
1
 10
0
 20
0
 30
0
 70
1
  0
VERTEX
  8
LAYER_11
 10
167.1168
 20
36.5373
  0
VERTEX
  8
LAYER_11
 10
167.2993
 20
36.5373
 42
0.1542719415
  0
VERTEX
  8
LAYER_11
 10
167.495
 20
36.5831
 42
0.2583775622
  0
VERTEX
  8
LAYER_11
 10
167.5636
 20
36.7213
  0
VERTEX
  8
LAYER_11
 10
167.5446
 20
36.8071
  0
VERTEX
  8
LAYER_11
 10
167.4919
 20
36.8642
  0
VERTEX
  8
LAYER_11
 10
167.4103
 20
36.8963
  0
VERTEX
  8
LAYER_11
 10
167.3038
 20
36.9066
  0
VERTEX
  8
LAYER_11
 10
167.1168
 20
36.9066
  0
SEQEND
  0
ENDBLK
  0
BLOCK
  8
LAYER_11
  2
AIGNBL0B030020
 70
64
 10
0
 20
0
 30
0
  3
AIGNBL0B030020
  0
POLYLINE
  8
LAYER_11
 40
0.05
 41
0.05
 66
1
 10
0
 20
0
 30
0
 70
1
  0
VERTEX
  8
LAYER_11
 10
168.1923
 20
35.9637
  0
VERTEX
  8
LAYER_11
 10
168.0876
 20
35.9637
  0
VERTEX
  8
LAYER_11
 10
168.0876
 20
36.9969
  0
VERTEX
  8
LAYER_11
 10
168.1923
 20
36.9969
  0
SEQEND
  0
ENDBLK
  0
BLOCK
  8
LAYER_11
  2
AIGNBL0B030021
 70
64
 10
0
 20
0
 30
0
  3
AIGNBL0B030021
  0
POLYLINE
  8
LAYER_11
 40
0.05
 41
0.05
 66
1
 10
0
 20
0
 30
0
 70
1
  0
VERTEX
  8
LAYER_11
 10
168.7732
 20
36.0574
  0
VERTEX
  8
LAYER_11
 10
169.3261
 20
36.0574
  0
VERTEX
  8
LAYER_11
 10
169.3261
 20
35.9637
  0
VERTEX
  8
LAYER_11
 10
168.6681
 20
35.9637
  0
VERTEX
  8
LAYER_11
 10
168.6681
 20
36.9969
  0
VERTEX
  8
LAYER_11
 10
169.3089
 20
36.9969
  0
VERTEX
  8
LAYER_11
 10
169.3089
 20
36.9035
  0
VERTEX
  8
LAYER_11
 10
168.7732
 20
36.9035
  0
VERTEX
  8
LAYER_11
 10
168.7732
 20
36.549
  0
VERTEX
  8
LAYER_11
 10
169.2737
 20
36.549
  0
VERTEX
  8
LAYER_11
 10
169.2737
 20
36.4557
  0
VERTEX
  8
LAYER_11
 10
168.7732
 20
36.4557
  0
SEQEND
  0
ENDBLK
  0
BLOCK
  8
LAYER_11
  2
AIGNBL0B030022
 70
64
 10
0
 20
0
 30
0
  3
AIGNBL0B030022
  0
POLYLINE
  8
LAYER_11
 40
0.05
 41
0.05
 66
1
 10
0
 20
0
 30
0
 70
1
  0
VERTEX
  8
LAYER_11
 10
170.4661
 20
36.117
  0
VERTEX
  8
LAYER_11
 10
170.4688
 20
36.117
  0
VERTEX
  8
LAYER_11
 10
170.4688
 20
36.9969
  0
VERTEX
  8
LAYER_11
 10
170.5739
 20
36.9969
  0
VERTEX
  8
LAYER_11
 10
170.5739
 20
35.9637
  0
VERTEX
  8
LAYER_11
 10
170.4427
 20
35.9637
  0
VERTEX
  8
LAYER_11
 10
169.8415
 20
36.8525
  0
VERTEX
  8
LAYER_11
 10
169.8384
 20
36.8525
  0
VERTEX
  8
LAYER_11
 10
169.8384
 20
35.9637
  0
VERTEX
  8
LAYER_11
 10
169.7333
 20
35.9637
  0
VERTEX
  8
LAYER_11
 10
169.7333
 20
36.9969
  0
VERTEX
  8
LAYER_11
 10
169.8649
 20
36.9969
  0
SEQEND
  0
ENDBLK
  0
BLOCK
  8
LAYER_11
  2
AIGNBL0B030023
 70
64
 10
0
 20
0
 30
0
  3
AIGNBL0B030023
  0
POLYLINE
  8
LAYER_11
 40
0.05
 41
0.05
 66
1
 10
0
 20
0
 30
0
 70
1
  0
VERTEX
  8
LAYER_11
 10
171.9196
 20
36.1315
  0
VERTEX
  8
LAYER_11
 10
171.8558
 20
36.0571
  0
VERTEX
  8
LAYER_11
 10
171.7697
 20
35.9954
  0
VERTEX
  8
LAYER_11
 10
171.6615
 20
35.953
  0
VERTEX
  8
LAYER_11
 10
171.5327
 20
35.9375
 42
-0.0997799169
  0
VERTEX
  8
LAYER_11
 10
171.3167
 20
35.9785
 42
-0.102530266
  0
VERTEX
  8
LAYER_11
 10
171.1461
 20
36.0915
 42
-0.1000387679
  0
VERTEX
  8
LAYER_11
 10
171.0345
 20
36.2631
 42
-0.09630702324
  0
VERTEX
  8
LAYER_11
 10
170.9942
 20
36.4805
 42
-0.1019529564
  0
VERTEX
  8
LAYER_11
 10
171.0352
 20
36.6978
 42
-0.09989904409
  0
VERTEX
  8
LAYER_11
 10
171.1479
 20
36.8694
 42
-0.09705342834
  0
VERTEX
  8
LAYER_11
 10
171.3187
 20
36.9824
 42
-0.09752919603
  0
VERTEX
  8
LAYER_11
 10
171.5327
 20
37.0234
  0
VERTEX
  8
LAYER_11
 10
171.6443
 20
37.0113
  0
VERTEX
  8
LAYER_11
 10
171.7473
 20
36.9779
  0
VERTEX
  8
LAYER_11
 10
171.8348
 20
36.9263
  0
VERTEX
  8
LAYER_11
 10
171.9006
 20
36.8584
  0
VERTEX
  8
LAYER_11
 10
171.8131
 20
36.794
  0
VERTEX
  8
LAYER_11
 10
171.7697
 20
36.8439
  0
VERTEX
  8
LAYER_11
 10
171.7063
 20
36.8877
  0
VERTEX
  8
LAYER_11
 10
171.6267
 20
36.9183
  0
VERTEX
  8
LAYER_11
 10
171.5341
 20
36.93
 42
0.1106055686
  0
VERTEX
  8
LAYER_11
 10
171.3539
 20
36.8935
 42
0.1040964846
  0
VERTEX
  8
LAYER_11
 10
171.2188
 20
36.7953
 42
0.09554708239
  0
VERTEX
  8
LAYER_11
 10
171.1341
 20
36.652
 42
0.08465136707
  0
VERTEX
  8
LAYER_11
 10
171.1051
 20
36.4805
 42
0.09018441759
  0
VERTEX
  8
LAYER_11
 10
171.1351
 20
36.3089
 42
0.09834905538
  0
VERTEX
  8
LAYER_11
 10
171.2206
 20
36.1656
 42
0.1037153981
  0
VERTEX
  8
LAYER_11
 10
171.3556
 20
36.0674
 42
0.1064777274
  0
VERTEX
  8
LAYER_11
 10
171.5341
 20
36.0309
 42
0.1093190709
  0
VERTEX
  8
LAYER_11
 10
171.7032
 20
36.0674
 42
0.1366622766
  0
VERTEX
  8
LAYER_11
 10
171.8376
 20
36.1842
  0
SEQEND
  0
ENDBLK
  0
BLOCK
  8
LAYER_11
  2
AIGNBL0B030024
 70
64
 10
0
 20
0
 30
0
  3
AIGNBL0B030024
  0
POLYLINE
  8
LAYER_11
 40
0.05
 41
0.05
 66
1
 10
0
 20
0
 30
0
 70
1
  0
VERTEX
  8
LAYER_11
 10
172.4067
 20
36.0574
  0
VERTEX
  8
LAYER_11
 10
172.96
 20
36.0574
  0
VERTEX
  8
LAYER_11
 10
172.96
 20
35.9637
  0
VERTEX
  8
LAYER_11
 10
172.3016
 20
35.9637
  0
VERTEX
  8
LAYER_11
 10
172.3016
 20
36.9969
  0
VERTEX
  8
LAYER_11
 10
172.9424
 20
36.9969
  0
VERTEX
  8
LAYER_11
 10
172.9424
 20
36.9035
  0
VERTEX
  8
LAYER_11
 10
172.4067
 20
36.9035
  0
VERTEX
  8
LAYER_11
 10
172.4067
 20
36.549
  0
VERTEX
  8
LAYER_11
 10
172.9073
 20
36.549
  0
VERTEX
  8
LAYER_11
 10
172.9073
 20
36.4557
  0
VERTEX
  8
LAYER_11
 10
172.4067
 20
36.4557
  0
SEQEND
  0
ENDBLK
  0
BLOCK
  8
LAYER_10
  2
AIGNBL0A020003
 70
64
 10
0
 20
0
 30
0
  3
AIGNBL0A020003
  0
ENDBLK
  0
BLOCK
  8
LAYER_10
  2
AIGNBL0A020004
 70
64
 10
0
 20
0
 30
0
  3
AIGNBL0A020004
  0
ENDBLK
  0
BLOCK
  8
LAYER_11
  2
AIGNBL0B020004
 70
64
 10
0
 20
0
 30
0
  3
AIGNBL0B020004
  0
INSERT
  8
LAYER_11
  2
AIGNBL0B030005
 10
0
 20
0
 30
0
  0
ENDBLK
  0
BLOCK
  8
LAYER_11
  2
AIGNBL0B02000D
 70
64
 10
0
 20
0
 30
0
  3
AIGNBL0B02000D
  0
INSERT
  8
LAYER_11
  2
AIGNBL0B03000E
 10
0
 20
0
 30
0
  0
INSERT
  8
LAYER_11
  2
AIGNBL0B03000F
 10
0
 20
0
 30
0
  0
INSERT
  8
LAYER_11
  2
AIGNBL0B030010
 10
0
 20
0
 30
0
  0
INSERT
  8
LAYER_11
  2
AIGNBL0B030011
 10
0
 20
0
 30
0
  0
INSERT
  8
LAYER_11
  2
AIGNBL0B030012
 10
0
 20
0
 30
0
  0
INSERT
  8
LAYER_11
  2
AIGNBL0B030013
 10
0
 20
0
 30
0
  0
INSERT
  8
LAYER_11
  2
AIGNBL0B030014
 10
0
 20
0
 30
0
  0
INSERT
  8
LAYER_11
  2
AIGNBL0B030015
 10
0
 20
0
 30
0
  0
INSERT
  8
LAYER_11
  2
AIGNBL0B030016
 10
0
 20
0
 30
0
  0
INSERT
  8
LAYER_11
  2
AIGNBL0B030017
 10
0
 20
0
 30
0
  0
INSERT
  8
LAYER_11
  2
AIGNBL0B030018
 10
0
 20
0
 30
0
  0
INSERT
  8
LAYER_11
  2
AIGNBL0B030019
 10
0
 20
0
 30
0
  0
INSERT
  8
LAYER_11
  2
AIGNBL0B03001A
 10
0
 20
0
 30
0
  0
INSERT
  8
LAYER_11
  2
AIGNBL0B03001B
 10
0
 20
0
 30
0
  0
INSERT
  8
LAYER_11
  2
AIGNBL0B03001C
 10
0
 20
0
 30
0
  0
INSERT
  8
LAYER_11
  2
AIGNBL0B03001D
 10
0
 20
0
 30
0
  0
INSERT
  8
LAYER_11
  2
AIGNBL0B03001E
 10
0
 20
0
 30
0
  0
INSERT
  8
LAYER_11
  2
AIGNBL0B03001F
 10
0
 20
0
 30
0
  0
INSERT
  8
LAYER_11
  2
AIGNBL0B030020
 10
0
 20
0
 30
0
  0
INSERT
  8
LAYER_11
  2
AIGNBL0B030021
 10
0
 20
0
 30
0
  0
INSERT
  8
LAYER_11
  2
AIGNBL0B030022
 10
0
 20
0
 30
0
  0
INSERT
  8
LAYER_11
  2
AIGNBL0B030023
 10
0
 20
0
 30
0
  0
INSERT
  8
LAYER_11
  2
AIGNBL0B030024
 10
0
 20
0
 30
0
  0
ENDBLK
  0
BLOCK
  8
LAYER_11
  2
AIGNBL0B020026
 70
64
 10
0
 20
0
 30
0
  3
AIGNBL0B020026
  0
POLYLINE
  8
LAYER_11
 40
0.05
 41
0.05
 66
1
 10
0
 20
0
 30
0
  0
VERTEX
  8
LAYER_11
 10
-7.0151
 20
219.4629
 42
0.1036295037
  0
VERTEX
  8
LAYER_11
 10
-7.1824
 20
220.2981
 42
0.2712377295
  0
VERTEX
  8
LAYER_11
 10
-8.5808
 20
221.2683
 42
0.0303823279
  0
VERTEX
  8
LAYER_11
 10
-8.8902
 20
221.2869
 42
0.07622953026
  0
VERTEX
  8
LAYER_11
 10
-10.0755
 20
221.1158
 42
0.09018414719
  0
VERTEX
  8
LAYER_11
 10
-10.8588
 20
220.6991
 42
0.02803610524
  0
VERTEX
  8
LAYER_11
 10
-11.0228
 20
220.5492
  0
VERTEX
  8
LAYER_11
 10
-11.077
 20
220.4928
  0
VERTEX
  8
LAYER_11
 10
-10.5515
 20
219.8736
  0
VERTEX
  8
LAYER_11
 10
-10.486
 20
219.9328
 42
-0.1028844552
  0
VERTEX
  8
LAYER_11
 10
-9.7273
 20
220.3798
 42
-0.08112526944
  0
VERTEX
  8
LAYER_11
 10
-9.0479
 20
220.4863
 42
-0.1265582199
  0
VERTEX
  8
LAYER_11
 10
-8.3271
 20
220.3251
 42
-0.1601174183
  0
VERTEX
  8
LAYER_11
 10
-7.989
 20
219.9367
 42
-0.1111761681
  0
VERTEX
  8
LAYER_11
 10
-7.8786
 20
219.3074
  0
VERTEX
  8
LAYER_11
 10
-7.8786
 20
219.2664
  0
VERTEX
  8
LAYER_11
 10
-8.1378
 20
219.2664
 42
0.06077240879
  0
VERTEX
  8
LAYER_11
 10
-9.7982
 20
219.1093
 42
0.08579906275
  0
VERTEX
  8
LAYER_11
 10
-10.637
 20
218.7454
 42
0.1116389424
  0
VERTEX
  8
LAYER_11
 10
-11.084
 20
218.256
 42
0.1204165628
  0
VERTEX
  8
LAYER_11
 10
-11.2651
 20
217.5693
 42
0.01082812986
  0
VERTEX
  8
LAYER_11
 10
-11.2668
 20
217.4872
 42
0.1262321423
  0
VERTEX
  8
LAYER_11
 10
-11.0913
 20
216.7744
 42
0.1210183113
  0
VERTEX
  8
LAYER_11
 10
-10.6379
 20
216.2915
 42
0.1012990331
  0
VERTEX
  8
LAYER_11
 10
-9.9371
 20
216.0112
 42
0.0482675821
  0
VERTEX
  8
LAYER_11
 10
-9.4954
 20
215.9686
 42
0.09682055791
  0
VERTEX
  8
LAYER_11
 10
-8.5823
 20
216.1314
 42
0.1382755127
  0
VERTEX
  8
LAYER_11
 10
-7.831
 20
216.7347
 42
-0.01012269081
  0
VERTEX
  8
LAYER_11
 10
-7.831
 20
216.0938
  0
VERTEX
  8
LAYER_11
 10
-7.0151
 20
216.0938
  0
SEQEND
  0
POLYLINE
  8
LAYER_11
 40
0.05
 41
0.05
 66
1
 10
0
 20
0
 30
0
 70
1
  0
VERTEX
  8
LAYER_11
 10
-7.8786
 20
218.2604
 42
-0.1095386536
  0
VERTEX
  8
LAYER_11
 10
-8.0512
 20
217.4437
 42
-0.1199361921
  0
VERTEX
  8
LAYER_11
 10
-8.4534
 20
216.9519
 42
-0.1209196473
  0
VERTEX
  8
LAYER_11
 10
-9.0539
 20
216.7055
 42
-0.04108384777
  0
VERTEX
  8
LAYER_11
 10
-9.3645
 20
216.6807
 42
-0.1210384521
  0
VERTEX
  8
LAYER_11
 10
-10.0836
 20
216.8493
 42
-0.1552969123
  0
VERTEX
  8
LAYER_11
 10
-10.4405
 20
217.2222
 42
-0.1101808209
  0
VERTEX
  8
LAYER_11
 10
-10.5141
 20
217.581
 42
-0.2540996651
  0
VERTEX
  8
LAYER_11
 10
-10.1607
 20
218.2336
 42
-0.05633044218
  0
VERTEX
  8
LAYER_11
 10
-9.8761
 20
218.386
 42
-0.04424609476
  0
VERTEX
  8
LAYER_11
 10
-9.4522
 20
218.5131
 42
-0.03214714642
  0
VERTEX
  8
LAYER_11
 10
-8.8857
 20
218.5932
 42
-0.02048243444
  0
VERTEX
  8
LAYER_11
 10
-8.2341
 20
218.6168
  0
VERTEX
  8
LAYER_11
 10
-7.8786
 20
218.6168
  0
SEQEND
  0
ENDBLK
  0
BLOCK
  8
LAYER_11
  2
AIGNBL0B020027
 70
64
 10
0
 20
0
 30
0
  3
AIGNBL0B020027
  0
POLYLINE
  8
LAYER_11
 40
0.05
 41
0.05
 66
1
 10
0
 20
0
 30
0
  0
VERTEX
  8
LAYER_11
 10
-2.3816
 20
222.5694
 42
-0.3911816587
  0
VERTEX
  8
LAYER_11
 10
-1.7162
 20
221.9134
 42
-0.3962775652
  0
VERTEX
  8
LAYER_11
 10
-2.3816
 20
221.249
 42
-0.3917541856
  0
VERTEX
  8
LAYER_11
 10
-3.0465
 20
221.9058
 42
-0.3962384604
  0
VERTEX
  8
LAYER_11
 10
-2.3816
 20
222.5694
  0
SEQEND
  0
POLYLINE
  8
LAYER_11
 40
0.05
 41
0.05
 66
1
 10
0
 20
0
 30
0
  0
VERTEX
  8
LAYER_11
 10
-2.3816
 20
221.3453
 42
0.4000887886
  0
VERTEX
  8
LAYER_11
 10
-1.8235
 20
221.9134
 42
0.3965824436
  0
VERTEX
  8
LAYER_11
 10
-2.3816
 20
222.4732
 42
0.3991350597
  0
VERTEX
  8
LAYER_11
 10
-2.9423
 20
221.9058
 42
0.3960577263
  0
VERTEX
  8
LAYER_11
 10
-2.3816
 20
221.3453
  0
SEQEND
  0
POLYLINE
  8
LAYER_11
 40
0.05
 41
0.05
 66
1
 10
0
 20
0
 30
0
 70
1
  0
VERTEX
  8
LAYER_11
 10
-2.6271
 20
222.2877
  0
VERTEX
  8
LAYER_11
 10
-2.3465
 20
222.2877
 42
-0.168907298
  0
VERTEX
  8
LAYER_11
 10
-2.1506
 20
222.2398
 42
-0.2574074432
  0
VERTEX
  8
LAYER_11
 10
-2.0783
 20
222.0671
 42
-0.4159475438
  0
VERTEX
  8
LAYER_11
 10
-2.2813
 20
221.8598
  0
VERTEX
  8
LAYER_11
 10
-2.06
 20
221.5215
  0
VERTEX
  8
LAYER_11
 10
-2.1758
 20
221.5215
  0
VERTEX
  8
LAYER_11
 10
-2.3844
 20
221.8504
  0
VERTEX
  8
LAYER_11
 10
-2.5215
 20
221.8504
  0
VERTEX
  8
LAYER_11
 10
-2.5215
 20
221.5215
  0
VERTEX
  8
LAYER_11
 10
-2.6271
 20
221.5215
  0
SEQEND
  0
POLYLINE
  8
LAYER_11
 40
0.05
 41
0.05
 66
1
 10
0
 20
0
 30
0
 70
1
  0
VERTEX
  8
LAYER_11
 10
-2.5215
 20
221.9473
  0
VERTEX
  8
LAYER_11
 10
-2.3906
 20
221.9473
 42
0.2475730306
  0
VERTEX
  8
LAYER_11
 10
-2.2112
 20
221.9902
 42
0.1858650567
  0
VERTEX
  8
LAYER_11
 10
-2.1847
 20
222.0724
 42
0.2728673912
  0
VERTEX
  8
LAYER_11
 10
-2.23
 20
222.1656
 42
0.14179533
  0
VERTEX
  8
LAYER_11
 10
-2.3563
 20
222.1913
  0
VERTEX
  8
LAYER_11
 10
-2.5215
 20
222.1913
  0
SEQEND
  0
ENDBLK
  0
BLOCK
  8
LAYER_11
  2
AIGNBL0B020028
 70
64
 10
0
 20
0
 30
0
  3
AIGNBL0B020028
  0
POLYLINE
  8
LAYER_11
 40
0.05
 41
0.05
 66
1
 10
0
 20
0
 30
0
  0
VERTEX
  8
LAYER_11
 10
-23.704
 20
214.1029
  0
VERTEX
  8
LAYER_11
 10
-23.4337
 20
214.1029
  0
VERTEX
  8
LAYER_11
 10
-22.6792
 20
212.3512
  0
VERTEX
  8
LAYER_11
 10
-23.0351
 20
212.3512
  0
VERTEX
  8
LAYER_11
 10
-23.1989
 20
212.7514
  0
VERTEX
  8
LAYER_11
 10
-23.9579
 20
212.7514
  0
VERTEX
  8
LAYER_11
 10
-24.116
 20
212.3512
  0
VERTEX
  8
LAYER_11
 10
-24.4648
 20
212.3512
  0
SEQEND
  0
POLYLINE
  8
LAYER_11
 40
0.05
 41
0.05
 66
1
 10
0
 20
0
 30
0
 70
1
  0
VERTEX
  8
LAYER_11
 10
-23.3081
 20
213.0189
  0
VERTEX
  8
LAYER_11
 10
-23.5767
 20
213.7308
  0
VERTEX
  8
LAYER_11
 10
-23.8523
 20
213.0189
  0
SEQEND
  0
ENDBLK
  0
BLOCK
  8
LAYER_11
  2
AIGNBL0B020029
 70
64
 10
0
 20
0
 30
0
  3
AIGNBL0B020029
  0
POLYLINE
  8
LAYER_11
 40
0.05
 41
0.05
 66
1
 10
0
 20
0
 30
0
  0
VERTEX
  8
LAYER_11
 10
-18.1674
 20
212.3512
  0
VERTEX
  8
LAYER_11
 10
-19.1856
 20
212.3512
 42
-0.1498985077
  0
VERTEX
  8
LAYER_11
 10
-19.7815
 20
212.5257
 42
-0.2523688634
  0
VERTEX
  8
LAYER_11
 10
-20.1395
 20
213.2635
 42
-0.4051360019
  0
VERTEX
  8
LAYER_11
 10
-19.2198
 20
214.1463
 42
-0.224501409
  0
VERTEX
  8
LAYER_11
 10
-18.4791
 20
213.7949
 42
-0.1669496671
  0
VERTEX
  8
LAYER_11
 10
-18.3009
 20
213.2635
 42
-0.175299756
  0
VERTEX
  8
LAYER_11
 10
-18.4675
 20
212.7739
 42
-0.08694350938
  0
VERTEX
  8
LAYER_11
 10
-18.6688
 20
212.6077
  0
VERTEX
  8
LAYER_11
 10
-18.6688
 20
212.603
  0
VERTEX
  8
LAYER_11
 10
-18.1674
 20
212.603
  0
SEQEND
  0
POLYLINE
  8
LAYER_11
 40
0.05
 41
0.05
 66
1
 10
0
 20
0
 30
0
  0
VERTEX
  8
LAYER_11
 10
-19.8145
 20
213.2559
 42
0.1875932054
  0
VERTEX
  8
LAYER_11
 10
-19.6465
 20
212.8098
 42
0.2073404857
  0
VERTEX
  8
LAYER_11
 10
-19.2224
 20
212.633
 42
0.4106100379
  0
VERTEX
  8
LAYER_11
 10
-18.6275
 20
213.2559
 42
0.1910243201
  0
VERTEX
  8
LAYER_11
 10
-18.7947
 20
213.6914
 42
0.2063933446
  0
VERTEX
  8
LAYER_11
 10
-19.2274
 20
213.8648
 42
0.4079661945
  0
VERTEX
  8
LAYER_11
 10
-19.8145
 20
213.2559
  0
SEQEND
  0
ENDBLK
  0
BLOCK
  8
LAYER_11
  2
AIGNBL0B02002A
 70
64
 10
0
 20
0
 30
0
  3
AIGNBL0B02002A
  0
POLYLINE
  8
LAYER_11
 40
0.05
 41
0.05
 66
1
 10
0
 20
0
 30
0
  0
VERTEX
  8
LAYER_11
 10
-14.8442
 20
214.1029
  0
VERTEX
  8
LAYER_11
 10
-14.5738
 20
214.1029
  0
VERTEX
  8
LAYER_11
 10
-13.8207
 20
212.3512
  0
VERTEX
  8
LAYER_11
 10
-14.1752
 20
212.3512
  0
VERTEX
  8
LAYER_11
 10
-14.3392
 20
212.7514
  0
VERTEX
  8
LAYER_11
 10
-15.0981
 20
212.7514
  0
VERTEX
  8
LAYER_11
 10
-15.2575
 20
212.3512
  0
VERTEX
  8
LAYER_11
 10
-15.6063
 20
212.3512
  0
SEQEND
  0
POLYLINE
  8
LAYER_11
 40
0.05
 41
0.05
 66
1
 10
0
 20
0
 30
0
 70
1
  0
VERTEX
  8
LAYER_11
 10
-14.4479
 20
213.0189
  0
VERTEX
  8
LAYER_11
 10
-14.7168
 20
213.7308
  0
VERTEX
  8
LAYER_11
 10
-14.9917
 20
213.0189
  0
SEQEND
  0
ENDBLK
  0
BLOCK
  8
LAYER_11
  2
AIGNBL0B02002B
 70
64
 10
0
 20
0
 30
0
  3
AIGNBL0B02002B
  0
POLYLINE
  8
LAYER_11
 40
0.05
 41
0.05
 66
1
 10
0
 20
0
 30
0
  0
VERTEX
  8
LAYER_11
 10
-10.3596
 20
214.1029
  0
VERTEX
  8
LAYER_11
 10
-9.7694
 20
214.1029
 42
-0.08664900819
  0
VERTEX
  8
LAYER_11
 10
-9.4428
 20
214.0546
 42
-0.2128687583
  0
VERTEX
  8
LAYER_11
 10
-9.1601
 20
213.8001
 42
-0.09485863917
  0
VERTEX
  8
LAYER_11
 10
-9.1245
 20
213.5956
 42
-0.224574599
  0
VERTEX
  8
LAYER_11
 10
-9.2838
 20
213.2054
 42
-0.09365423609
  0
VERTEX
  8
LAYER_11
 10
-9.4539
 20
213.1197
 42
-0.07747068826
  0
VERTEX
  8
LAYER_11
 10
-9.8242
 20
213.0761
  0
VERTEX
  8
LAYER_11
 10
-10.0473
 20
213.0761
  0
VERTEX
  8
LAYER_11
 10
-10.0473
 20
212.3512
  0
VERTEX
  8
LAYER_11
 10
-10.3596
 20
212.3512
  0
SEQEND
  0
POLYLINE
  8
LAYER_11
 40
0.05
 41
0.05
 66
1
 10
0
 20
0
 30
0
 70
1
  0
VERTEX
  8
LAYER_11
 10
-9.8588
 20
213.3431
 42
0.1309894322
  0
VERTEX
  8
LAYER_11
 10
-9.5664
 20
213.3874
 42
0.3030880954
  0
VERTEX
  8
LAYER_11
 10
-9.4514
 20
213.5902
 42
0.3460368744
  0
VERTEX
  8
LAYER_11
 10
-9.6132
 20
213.8091
 42
0.07918236105
  0
VERTEX
  8
LAYER_11
 10
-9.8242
 20
213.8357
  0
VERTEX
  8
LAYER_11
 10
-10.0473
 20
213.8357
  0
VERTEX
  8
LAYER_11
 10
-10.0473
 20
213.3431
  0
SEQEND
  0
ENDBLK
  0
BLOCK
  8
LAYER_11
  2
AIGNBL0B02002C
 70
64
 10
0
 20
0
 30
0
  3
AIGNBL0B02002C
  0
POLYLINE
  8
LAYER_11
 40
0.05
 41
0.05
 66
1
 10
0
 20
0
 30
0
  0
VERTEX
  8
LAYER_11
 10
-8.092
 20
214.1029
  0
VERTEX
  8
LAYER_11
 10
-7.823
 20
214.1029
  0
VERTEX
  8
LAYER_11
 10
-7.0685
 20
212.3512
  0
VERTEX
  8
LAYER_11
 10
-7.4235
 20
212.3512
  0
VERTEX
  8
LAYER_11
 10
-7.5873
 20
212.7514
  0
VERTEX
  8
LAYER_11
 10
-8.3463
 20
212.7514
  0
VERTEX
  8
LAYER_11
 10
-8.5054
 20
212.3512
  0
VERTEX
  8
LAYER_11
 10
-8.8537
 20
212.3512
  0
SEQEND
  0
POLYLINE
  8
LAYER_11
 40
0.05
 41
0.05
 66
1
 10
0
 20
0
 30
0
 70
1
  0
VERTEX
  8
LAYER_11
 10
-7.6957
 20
213.0189
  0
VERTEX
  8
LAYER_11
 10
-7.9656
 20
213.7308
  0
VERTEX
  8
LAYER_11
 10
-8.2403
 20
213.0189
  0
SEQEND
  0
ENDBLK
  0
BLOCK
  8
LAYER_7
  2
AIGNBL07010002
 70
64
 10
0
 20
0
 30
0
  3
AIGNBL07010002
  0
POLYLINE
  8
LAYER_7
  6
AIGENLINE001
 40
0.2469
 41
0.2469
 66
1
 10
0
 20
0
 30
0
 70
129
  0
VERTEX
  8
LAYER_7
 10
73.0219
 20
125.0935
 42
0.4142054666
  0
VERTEX
  8
LAYER_7
 10
72.0218
 20
126.0939
 42
0.4142123777
  0
VERTEX
  8
LAYER_7
 10
71.022
 20
125.0935
 42
0.4142216622
  0
VERTEX
  8
LAYER_7
 10
72.0218
 20
124.0937
 42
0.4142147434
  0
SEQEND
  0
ENDBLK
  0
BLOCK
  8
LAYER_7
  2
AIGNBL07010003
 70
64
 10
0
 20
0
 30
0
  3
AIGNBL07010003
  0
POLYLINE
  8
LAYER_7
  6
AIGENLINE001
 40
0.2469
 41
0.2469
 66
1
 10
0
 20
0
 30
0
 70
129
  0
VERTEX
  8
LAYER_7
 10
83.5219
 20
125.0935
 42
0.4141943481
  0
VERTEX
  8
LAYER_7
 10
82.5218
 20
126.0939
 42
0.4142234963
  0
VERTEX
  8
LAYER_7
 10
81.522
 20
125.0935
 42
0.4142327882
  0
VERTEX
  8
LAYER_7
 10
82.5218
 20
124.0937
 42
0.4142036175
  0
SEQEND
  0
ENDBLK
  0
BLOCK
  8
LAYER_7
  2
AIGNBL07010004
 70
64
 10
0
 20
0
 30
0
  3
AIGNBL07010004
  0
POLYLINE
  8
LAYER_7
 40
0.2469
 41
0.2469
 66
1
 10
0
 20
0
 30
0
  0
VERTEX
  8
LAYER_7
 10
128.3491
 20
124.0751
  0
VERTEX
  8
LAYER_7
 10
127.0152
 20
124.0751
  0
SEQEND
  0
ENDBLK
  0
BLOCK
  8
LAYER_7
  2
AIGNBL07010005
 70
64
 10
0
 20
0
 30
0
  3
AIGNBL07010005
  0
POLYLINE
  8
LAYER_7
 40
0.2469
 41
0.2469
 66
1
 10
0
 20
0
 30
0
  0
VERTEX
  8
LAYER_7
 10
128.3491
 20
126.0829
  0
VERTEX
  8
LAYER_7
 10
126.9208
 20
126.0829
  0
SEQEND
  0
ENDBLK
  0
BLOCK
  8
LAYER_8
  2
AIGNBL08010002
 70
64
 10
0
 20
0
 30
0
  3
AIGNBL08010002
  0
POLYLINE
  8
LAYER_8
 40
0.1482
 41
0.1482
 66
1
 10
0
 20
0
 30
0
  0
VERTEX
  8
LAYER_8
 10
167.0568
 20
173.3527
  0
VERTEX
  8
LAYER_8
 10
172.0784
 20
173.3538
  0
SEQEND
  0
ENDBLK
  0
BLOCK
  8
LAYER_8
  2
AIGNBL08010003
 70
64
 10
0
 20
0
 30
0
  3
AIGNBL08010003
  0
POLYLINE
  8
LAYER_8
 40
0.1482
 41
0.1482
 66
1
 10
0
 20
0
 30
0
  0
VERTEX
  8
LAYER_8
 10
183.6126
 20
173.3527
  0
VERTEX
  8
LAYER_8
 10
178.591
 20
173.3538
  0
SEQEND
  0
ENDBLK
  0
BLOCK
  8
LAYER_8
  2
AIGNBL08010004
 70
64
 10
0
 20
0
 30
0
  3
AIGNBL08010004
  0
POLYLINE
  8
LAYER_8
 40
0.1482
 41
0.1482
 66
1
 10
0
 20
0
 30
0
  0
VERTEX
  8
LAYER_8
 10
187.6078
 20
182.9845
  0
VERTEX
  8
LAYER_8
 10
163.0615
 20
182.9845
  0
SEQEND
  0
ENDBLK
  0
BLOCK
  8
LAYER_8
  2
AIGNBL08010005
 70
64
 10
0
 20
0
 30
0
  3
AIGNBL08010005
  0
POLYLINE
  8
LAYER_8
 40
0.1482
 41
0.1482
 66
1
 10
0
 20
0
 30
0
  0
VERTEX
  8
LAYER_8
 10
161.8812
 20
184.3529
  0
VERTEX
  8
LAYER_8
 10
188.7878
 20
184.3529
  0
SEQEND
  0
ENDBLK
  0
BLOCK
  8
LAYER_8
  2
AIGNBL08010006
 70
64
 10
0
 20
0
 30
0
  3
AIGNBL08010006
  0
POLYLINE
  8
LAYER_8
 40
0.1482
 41
0.1482
 66
1
 10
0
 20
0
 30
0
  0
VERTEX
  8
LAYER_8
 10
173.0819
 20
170.4478
  0
VERTEX
  8
LAYER_8
 10
177.5874
 20
170.4478
  0
SEQEND
  0
ENDBLK
  0
BLOCK
  8
LAYER_8
  2
AIGNBL08010007
 70
64
 10
0
 20
0
 30
0
  3
AIGNBL08010007
  0
POLYLINE
  8
LAYER_8
 40
0.1482
 41
0.1482
 66
1
 10
0
 20
0
 30
0
  0
VERTEX
  8
LAYER_8
 10
173.0819
 20
173.7679
  0
VERTEX
  8
LAYER_8
 10
177.5874
 20
173.7679
  0
SEQEND
  0
ENDBLK
  0
BLOCK
  8
LAYER_8
  2
AIGNBL08010008
 70
64
 10
0
 20
0
 30
0
  3
AIGNBL08010008
  0
POLYLINE
  8
LAYER_8
 40
0.1482
 41
0.1482
 66
1
 10
0
 20
0
 30
0
  0
VERTEX
  8
LAYER_8
 10
171.6298
 20
175.3199
  0
VERTEX
  8
LAYER_8
 10
179.0395
 20
175.3199
  0
SEQEND
  0
ENDBLK
  0
BLOCK
  8
LAYER_8
  2
AIGNBL08010009
 70
64
 10
0
 20
0
 30
0
  3
AIGNBL08010009
  0
POLYLINE
  8
LAYER_8
 40
0.1482
 41
0.1482
 66
1
 10
0
 20
0
 30
0
  0
VERTEX
  8
LAYER_8
 10
106.634
 20
118.0944
  0
VERTEX
  8
LAYER_8
 10
109.0889
 20
118.0944
  0
SEQEND
  0
ENDBLK
  0
BLOCK
  8
LAYER_8
  2
AIGNBL0801000A
 70
64
 10
0
 20
0
 30
0
  3
AIGNBL0801000A
  0
POLYLINE
  8
LAYER_8
 40
0.1482
 41
0.1482
 66
1
 10
0
 20
0
 30
0
  0
VERTEX
  8
LAYER_8
 10
119.9596
 20
129.0939
  0
VERTEX
  8
LAYER_8
 10
102.9477
 20
129.0939
  0
SEQEND
  0
ENDBLK
  0
BLOCK
  8
LAYER_8
  2
AIGNBL0801000B
 70
64
 10
0
 20
0
 30
0
  3
AIGNBL0801000B
  0
POLYLINE
  8
LAYER_8
 40
0.1482
 41
0.1482
 66
1
 10
0
 20
0
 30
0
  0
VERTEX
  8
LAYER_8
 10
104.128
 20
127.7248
  0
VERTEX
  8
LAYER_8
 10
118.7793
 20
127.7248
  0
SEQEND
  0
ENDBLK
  0
BLOCK
  8
LAYER_8
  2
AIGNBL0801000C
 70
64
 10
0
 20
0
 30
0
  3
AIGNBL0801000C
  0
POLYLINE
  8
LAYER_8
 40
0.1482
 41
0.1482
 66
1
 10
0
 20
0
 30
0
  0
VERTEX
  8
LAYER_8
 10
127.3452
 20
117.0506
  0
VERTEX
  8
LAYER_8
 10
120.0981
 20
117.0506
  0
SEQEND
  0
ENDBLK
  0
BLOCK
  8
LAYER_8
  2
AIGNBL0801000D
 70
64
 10
0
 20
0
 30
0
  3
AIGNBL0801000D
  0
POLYLINE
  8
LAYER_8
 40
0.1482
 41
0.1482
 66
1
 10
0
 20
0
 30
0
  0
VERTEX
  8
LAYER_8
 10
115.5947
 20
117.8822
  0
VERTEX
  8
LAYER_8
 10
115.5947
 20
116.8556
  0
SEQEND
  0
ENDBLK
  0
BLOCK
  8
LAYER_8
  2
AIGNBL0801000E
 70
64
 10
0
 20
0
 30
0
  3
AIGNBL0801000E
  0
POLYLINE
  8
LAYER_8
 40
0.1482
 41
0.1482
 66
1
 10
0
 20
0
 30
0
  0
VERTEX
  8
LAYER_8
 10
116.0536
 20
120.0678
  0
VERTEX
  8
LAYER_8
 10
108.6445
 20
120.0678
  0
SEQEND
  0
ENDBLK
  0
BLOCK
  8
LAYER_8
  2
AIGNBL0801000F
 70
64
 10
0
 20
0
 30
0
  3
AIGNBL0801000F
  0
POLYLINE
  8
LAYER_8
 40
0.1482
 41
0.1482
 66
1
 10
0
 20
0
 30
0
  0
VERTEX
  8
LAYER_8
 10
114.5949
 20
115.1888
  0
VERTEX
  8
LAYER_8
 10
110.0894
 20
115.1888
  0
SEQEND
  0
ENDBLK
  0
BLOCK
  8
LAYER_8
  2
AIGNBL08010010
 70
64
 10
0
 20
0
 30
0
  3
AIGNBL08010010
  0
POLYLINE
  8
LAYER_8
 40
0.1482
 41
0.1482
 66
1
 10
0
 20
0
 30
0
  0
VERTEX
  8
LAYER_8
 10
114.5949
 20
117.6679
  0
VERTEX
  8
LAYER_8
 10
114.5949
 20
116.6413
  0
SEQEND
  0
ENDBLK
  0
BLOCK
  8
LAYER_8
  2
AIGNBL08010011
 70
64
 10
0
 20
0
 30
0
  3
AIGNBL08010011
  0
POLYLINE
  8
LAYER_8
 40
0.1482
 41
0.1482
 66
1
 10
0
 20
0
 30
0
  0
VERTEX
  8
LAYER_8
 10
114.5949
 20
118.5085
  0
VERTEX
  8
LAYER_8
 10
110.0894
 20
118.5085
  0
SEQEND
  0
ENDBLK
  0
BLOCK
  8
LAYER_8
  2
AIGNBL08010012
 70
64
 10
0
 20
0
 30
0
  3
AIGNBL08010012
  0
POLYLINE
  8
LAYER_8
 40
0.1482
 41
0.1482
 66
1
 10
0
 20
0
 30
0
  0
VERTEX
  8
LAYER_8
 10
122.5427
 20
129.0939
  0
VERTEX
  8
LAYER_8
 10
126.156
 20
129.0939
  0
SEQEND
  0
ENDBLK
  0
BLOCK
  8
LAYER_8
  2
AIGNBL08010013
 70
64
 10
0
 20
0
 30
0
  3
AIGNBL08010013
  0
POLYLINE
  8
LAYER_8
 40
0.1482
 41
0.1482
 66
1
 10
0
 20
0
 30
0
  0
VERTEX
  8
LAYER_8
 10
122.5427
 20
128.09
  0
VERTEX
  8
LAYER_8
 10
126.156
 20
128.09
  0
SEQEND
  0
ENDBLK
  0
BLOCK
  8
LAYER_9
  2
AIGNBL09010002
 70
64
 10
0
 20
0
 30
0
  3
AIGNBL09010002
  0
POLYLINE
  8
LAYER_9
 40
0.2469
 41
0.2469
 66
1
 10
0
 20
0
 30
0
 70
1
  0
VERTEX
  8
LAYER_9
 10
79.0694
 20
180.353
 42
0.4142045597
  0
VERTEX
  8
LAYER_9
 10
77.2632
 20
182.1594
 42
0.414218677
  0
VERTEX
  8
LAYER_9
 10
75.4565
 20
180.353
 42
0.4142225642
  0
VERTEX
  8
LAYER_9
 10
77.2632
 20
178.5464
 42
0.4142084488
  0
SEQEND
  0
ENDBLK
  0
BLOCK
  8
LAYER_9
  2
AIGNBL09010003
 70
64
 10
0
 20
0
 30
0
  3
AIGNBL09010003
  0
POLYLINE
  8
LAYER_9
 40
0.2469
 41
0.2469
 66
1
 10
0
 20
0
 30
0
  0
VERTEX
  8
LAYER_9
 10
66.7163
 20
173.3529
 42
0.4142062932
  0
VERTEX
  8
LAYER_9
 10
65.2163
 20
171.8529
  0
VERTEX
  8
LAYER_9
 10
65.2163
 20
171.847
  0
SEQEND
  0
ENDBLK
  0
BLOCK
  8
LAYER_9
  2
AIGNBL09010004
 70
64
 10
0
 20
0
 30
0
  3
AIGNBL09010004
  0
POLYLINE
  8
LAYER_9
 40
0.2469
 41
0.2469
 66
1
 10
0
 20
0
 30
0
  0
VERTEX
  8
LAYER_9
 10
66.7163
 20
173.3529
  0
VERTEX
  8
LAYER_9
 10
87.8093
 20
173.3529
  0
SEQEND
  0
ENDBLK
  0
BLOCK
  8
LAYER_9
  2
AIGNBL09010005
 70
64
 10
0
 20
0
 30
0
  3
AIGNBL09010005
  0
POLYLINE
  8
LAYER_9
 40
0.2469
 41
0.2469
 66
1
 10
0
 20
0
 30
0
  0
VERTEX
  8
LAYER_9
 10
87.8093
 20
173.3529
  0
VERTEX
  8
LAYER_9
 10
87.8455
 20
173.3526
  0
SEQEND
  0
ENDBLK
  0
BLOCK
  8
LAYER_9
  2
AIGNBL09010006
 70
64
 10
0
 20
0
 30
0
  3
AIGNBL09010006
  0
POLYLINE
  8
LAYER_9
 40
0.2469
 41
0.2469
 66
1
 10
0
 20
0
 30
0
  0
VERTEX
  8
LAYER_9
 10
87.8455
 20
173.3526
  0
VERTEX
  8
LAYER_9
 10
87.8816
 20
173.3512
  0
SEQEND
  0
ENDBLK
  0
BLOCK
  8
LAYER_9
  2
AIGNBL09010007
 70
64
 10
0
 20
0
 30
0
  3
AIGNBL09010007
  0
POLYLINE
  8
LAYER_9
 40
0.2469
 41
0.2469
 66
1
 10
0
 20
0
 30
0
  0
VERTEX
  8
LAYER_9
 10
87.8816
 20
173.3512
  0
VERTEX
  8
LAYER_9
 10
87.9181
 20
173.3489
  0
SEQEND
  0
ENDBLK
  0
BLOCK
  8
LAYER_9
  2
AIGNBL09010008
 70
64
 10
0
 20
0
 30
0
  3
AIGNBL09010008
  0
POLYLINE
  8
LAYER_9
 40
0.2469
 41
0.2469
 66
1
 10
0
 20
0
 30
0
  0
VERTEX
  8
LAYER_9
 10
87.9181
 20
173.3489
  0
VERTEX
  8
LAYER_9
 10
87.9543
 20
173.3458
  0
SEQEND
  0
ENDBLK
  0
BLOCK
  8
LAYER_9
  2
AIGNBL09010009
 70
64
 10
0
 20
0
 30
0
  3
AIGNBL09010009
  0
POLYLINE
  8
LAYER_9
 40
0.2469
 41
0.2469
 66
1
 10
0
 20
0
 30
0
  0
VERTEX
  8
LAYER_9
 10
87.9543
 20
173.3458
  0
VERTEX
  8
LAYER_9
 10
87.9905
 20
173.3419
  0
SEQEND
  0
ENDBLK
  0
BLOCK
  8
LAYER_9
  2
AIGNBL0901000A
 70
64
 10
0
 20
0
 30
0
  3
AIGNBL0901000A
  0
POLYLINE
  8
LAYER_9
 40
0.2469
 41
0.2469
 66
1
 10
0
 20
0
 30
0
  0
VERTEX
  8
LAYER_9
 10
87.9905
 20
173.3419
  0
VERTEX
  8
LAYER_9
 10
88.027
 20
173.3371
  0
SEQEND
  0
ENDBLK
  0
BLOCK
  8
LAYER_9
  2
AIGNBL0901000B
 70
64
 10
0
 20
0
 30
0
  3
AIGNBL0901000B
  0
POLYLINE
  8
LAYER_9
 40
0.2469
 41
0.2469
 66
1
 10
0
 20
0
 30
0
  0
VERTEX
  8
LAYER_9
 10
88.027
 20
173.3371
  0
VERTEX
  8
LAYER_9
 10
88.0635
 20
173.3312
  0
SEQEND
  0
ENDBLK
  0
BLOCK
  8
LAYER_9
  2
AIGNBL0901000C
 70
64
 10
0
 20
0
 30
0
  3
AIGNBL0901000C
  0
POLYLINE
  8
LAYER_9
 40
0.2469
 41
0.2469
 66
1
 10
0
 20
0
 30
0
  0
VERTEX
  8
LAYER_9
 10
88.0635
 20
173.3312
  0
VERTEX
  8
LAYER_9
 10
88.1
 20
173.3245
  0
SEQEND
  0
ENDBLK
  0
BLOCK
  8
LAYER_9
  2
AIGNBL0901000D
 70
64
 10
0
 20
0
 30
0
  3
AIGNBL0901000D
  0
POLYLINE
  8
LAYER_9
 40
0.2469
 41
0.2469
 66
1
 10
0
 20
0
 30
0
  0
VERTEX
  8
LAYER_9
 10
88.1
 20
173.3245
  0
VERTEX
  8
LAYER_9
 10
88.1362
 20
173.3169
  0
SEQEND
  0
ENDBLK
  0
BLOCK
  8
LAYER_9
  2
AIGNBL0901000E
 70
64
 10
0
 20
0
 30
0
  3
AIGNBL0901000E
  0
POLYLINE
  8
LAYER_9
 40
0.2469
 41
0.2469
 66
1
 10
0
 20
0
 30
0
  0
VERTEX
  8
LAYER_9
 10
88.1362
 20
173.3169
  0
VERTEX
  8
LAYER_9
 10
88.1724
 20
173.3083
  0
SEQEND
  0
ENDBLK
  0
BLOCK
  8
LAYER_9
  2
AIGNBL0901000F
 70
64
 10
0
 20
0
 30
0
  3
AIGNBL0901000F
  0
POLYLINE
  8
LAYER_9
 40
0.2469
 41
0.2469
 66
1
 10
0
 20
0
 30
0
  0
VERTEX
  8
LAYER_9
 10
88.1724
 20
173.3083
  0
VERTEX
  8
LAYER_9
 10
88.2082
 20
173.2988
  0
SEQEND
  0
ENDBLK
  0
BLOCK
  8
LAYER_9
  2
AIGNBL09010010
 70
64
 10
0
 20
0
 30
0
  3
AIGNBL09010010
  0
POLYLINE
  8
LAYER_9
 40
0.2469
 41
0.2469
 66
1
 10
0
 20
0
 30
0
  0
VERTEX
  8
LAYER_9
 10
88.2082
 20
173.2988
  0
VERTEX
  8
LAYER_9
 10
88.2441
 20
173.2885
  0
SEQEND
  0
ENDBLK
  0
BLOCK
  8
LAYER_9
  2
AIGNBL09010011
 70
64
 10
0
 20
0
 30
0
  3
AIGNBL09010011
  0
POLYLINE
  8
LAYER_9
 40
0.2469
 41
0.2469
 66
1
 10
0
 20
0
 30
0
  0
VERTEX
  8
LAYER_9
 10
88.2441
 20
173.2885
  0
VERTEX
  8
LAYER_9
 10
88.2799
 20
173.2773
  0
SEQEND
  0
ENDBLK
  0
BLOCK
  8
LAYER_9
  2
AIGNBL09010012
 70
64
 10
0
 20
0
 30
0
  3
AIGNBL09010012
  0
POLYLINE
  8
LAYER_9
 40
0.2469
 41
0.2469
 66
1
 10
0
 20
0
 30
0
  0
VERTEX
  8
LAYER_9
 10
88.2799
 20
173.2773
  0
VERTEX
  8
LAYER_9
 10
88.315
 20
173.265
  0
SEQEND
  0
ENDBLK
  0
BLOCK
  8
LAYER_9
  2
AIGNBL09010013
 70
64
 10
0
 20
0
 30
0
  3
AIGNBL09010013
  0
POLYLINE
  8
LAYER_9
 40
0.2469
 41
0.2469
 66
1
 10
0
 20
0
 30
0
  0
VERTEX
  8
LAYER_9
 10
88.315
 20
173.265
  0
VERTEX
  8
LAYER_9
 10
88.3502
 20
173.2521
  0
SEQEND
  0
ENDBLK
  0
BLOCK
  8
LAYER_9
  2
AIGNBL09010014
 70
64
 10
0
 20
0
 30
0
  3
AIGNBL09010014
  0
POLYLINE
  8
LAYER_9
 40
0.2469
 41
0.2469
 66
1
 10
0
 20
0
 30
0
  0
VERTEX
  8
LAYER_9
 10
88.3502
 20
173.2521
  0
VERTEX
  8
LAYER_9
 10
88.3846
 20
173.2382
  0
SEQEND
  0
ENDBLK
  0
BLOCK
  8
LAYER_9
  2
AIGNBL09010015
 70
64
 10
0
 20
0
 30
0
  3
AIGNBL09010015
  0
POLYLINE
  8
LAYER_9
 40
0.2469
 41
0.2469
 66
1
 10
0
 20
0
 30
0
  0
VERTEX
  8
LAYER_9
 10
88.3846
 20
173.2382
  0
VERTEX
  8
LAYER_9
 10
88.4191
 20
173.2234
  0
SEQEND
  0
ENDBLK
  0
BLOCK
  8
LAYER_9
  2
AIGNBL09010016
 70
64
 10
0
 20
0
 30
0
  3
AIGNBL09010016
  0
POLYLINE
  8
LAYER_9
 40
0.2469
 41
0.2469
 66
1
 10
0
 20
0
 30
0
  0
VERTEX
  8
LAYER_9
 10
88.4191
 20
173.2234
  0
VERTEX
  8
LAYER_9
 10
88.4532
 20
173.2079
  0
SEQEND
  0
ENDBLK
  0
BLOCK
  8
LAYER_9
  2
AIGNBL09010017
 70
64
 10
0
 20
0
 30
0
  3
AIGNBL09010017
  0
POLYLINE
  8
LAYER_9
 40
0.2469
 41
0.2469
 66
1
 10
0
 20
0
 30
0
  0
VERTEX
  8
LAYER_9
 10
88.4532
 20
173.2079
  0
VERTEX
  8
LAYER_9
 10
88.4866
 20
173.1913
  0
SEQEND
  0
ENDBLK
  0
BLOCK
  8
LAYER_9
  2
AIGNBL09010018
 70
64
 10
0
 20
0
 30
0
  3
AIGNBL09010018
  0
POLYLINE
  8
LAYER_9
 40
0.2469
 41
0.2469
 66
1
 10
0
 20
0
 30
0
  0
VERTEX
  8
LAYER_9
 10
88.4866
 20
173.1913
  0
VERTEX
  8
LAYER_9
 10
88.5197
 20
173.1741
  0
SEQEND
  0
ENDBLK
  0
BLOCK
  8
LAYER_9
  2
AIGNBL09010019
 70
64
 10
0
 20
0
 30
0
  3
AIGNBL09010019
  0
POLYLINE
  8
LAYER_9
 40
0.2469
 41
0.2469
 66
1
 10
0
 20
0
 30
0
  0
VERTEX
  8
LAYER_9
 10
88.5197
 20
173.1741
  0
VERTEX
  8
LAYER_9
 10
88.5524
 20
173.156
  0
SEQEND
  0
ENDBLK
  0
BLOCK
  8
LAYER_9
  2
AIGNBL0901001A
 70
64
 10
0
 20
0
 30
0
  3
AIGNBL0901001A
  0
POLYLINE
  8
LAYER_9
 40
0.2469
 41
0.2469
 66
1
 10
0
 20
0
 30
0
  0
VERTEX
  8
LAYER_9
 10
88.5524
 20
173.156
  0
VERTEX
  8
LAYER_9
 10
88.5844
 20
173.1372
  0
SEQEND
  0
ENDBLK
  0
BLOCK
  8
LAYER_9
  2
AIGNBL0901001B
 70
64
 10
0
 20
0
 30
0
  3
AIGNBL0901001B
  0
POLYLINE
  8
LAYER_9
 40
0.2469
 41
0.2469
 66
1
 10
0
 20
0
 30
0
  0
VERTEX
  8
LAYER_9
 10
88.5844
 20
173.1372
  0
VERTEX
  8
LAYER_9
 10
88.6161
 20
173.1176
  0
SEQEND
  0
ENDBLK
  0
BLOCK
  8
LAYER_9
  2
AIGNBL0901001C
 70
64
 10
0
 20
0
 30
0
  3
AIGNBL0901001C
  0
POLYLINE
  8
LAYER_9
 40
0.2469
 41
0.2469
 66
1
 10
0
 20
0
 30
0
  0
VERTEX
  8
LAYER_9
 10
88.6161
 20
173.1176
  0
VERTEX
  8
LAYER_9
 10
88.6471
 20
173.0973
  0
SEQEND
  0
ENDBLK
  0
BLOCK
  8
LAYER_9
  2
AIGNBL0901001D
 70
64
 10
0
 20
0
 30
0
  3
AIGNBL0901001D
  0
POLYLINE
  8
LAYER_9
 40
0.2469
 41
0.2469
 66
1
 10
0
 20
0
 30
0
  0
VERTEX
  8
LAYER_9
 10
88.6471
 20
173.0973
  0
VERTEX
  8
LAYER_9
 10
88.6774
 20
173.0763
  0
SEQEND
  0
ENDBLK
  0
BLOCK
  8
LAYER_9
  2
AIGNBL0901001E
 70
64
 10
0
 20
0
 30
0
  3
AIGNBL0901001E
  0
POLYLINE
  8
LAYER_9
 40
0.2469
 41
0.2469
 66
1
 10
0
 20
0
 30
0
  0
VERTEX
  8
LAYER_9
 10
88.6774
 20
173.0763
  0
VERTEX
  8
LAYER_9
 10
88.7071
 20
173.0546
  0
SEQEND
  0
ENDBLK
  0
BLOCK
  8
LAYER_9
  2
AIGNBL0901001F
 70
64
 10
0
 20
0
 30
0
  3
AIGNBL0901001F
  0
POLYLINE
  8
LAYER_9
 40
0.2469
 41
0.2469
 66
1
 10
0
 20
0
 30
0
  0
VERTEX
  8
LAYER_9
 10
88.7071
 20
173.0546
  0
VERTEX
  8
LAYER_9
 10
88.7364
 20
173.0322
  0
SEQEND
  0
ENDBLK
  0
BLOCK
  8
LAYER_9
  2
AIGNBL09010020
 70
64
 10
0
 20
0
 30
0
  3
AIGNBL09010020
  0
POLYLINE
  8
LAYER_9
 40
0.2469
 41
0.2469
 66
1
 10
0
 20
0
 30
0
  0
VERTEX
  8
LAYER_9
 10
88.7364
 20
173.0322
  0
VERTEX
  8
LAYER_9
 10
88.765
 20
173.0093
  0
SEQEND
  0
ENDBLK
  0
BLOCK
  8
LAYER_9
  2
AIGNBL09010021
 70
64
 10
0
 20
0
 30
0
  3
AIGNBL09010021
  0
POLYLINE
  8
LAYER_9
 40
0.2469
 41
0.2469
 66
1
 10
0
 20
0
 30
0
  0
VERTEX
  8
LAYER_9
 10
88.765
 20
173.0093
  0
VERTEX
  8
LAYER_9
 10
88.7929
 20
172.9857
  0
SEQEND
  0
ENDBLK
  0
BLOCK
  8
LAYER_9
  2
AIGNBL09010022
 70
64
 10
0
 20
0
 30
0
  3
AIGNBL09010022
  0
POLYLINE
  8
LAYER_9
 40
0.2469
 41
0.2469
 66
1
 10
0
 20
0
 30
0
  0
VERTEX
  8
LAYER_9
 10
88.7929
 20
172.9857
  0
VERTEX
  8
LAYER_9
 10
88.8201
 20
172.9614
  0
SEQEND
  0
ENDBLK
  0
BLOCK
  8
LAYER_9
  2
AIGNBL09010023
 70
64
 10
0
 20
0
 30
0
  3
AIGNBL09010023
  0
POLYLINE
  8
LAYER_9
 40
0.2469
 41
0.2469
 66
1
 10
0
 20
0
 30
0
  0
VERTEX
  8
LAYER_9
 10
88.8201
 20
172.9614
  0
VERTEX
  8
LAYER_9
 10
88.8463
 20
172.9367
  0
SEQEND
  0
ENDBLK
  0
BLOCK
  8
LAYER_9
  2
AIGNBL09010024
 70
64
 10
0
 20
0
 30
0
  3
AIGNBL09010024
  0
POLYLINE
  8
LAYER_9
 40
0.2469
 41
0.2469
 66
1
 10
0
 20
0
 30
0
  0
VERTEX
  8
LAYER_9
 10
88.8463
 20
172.9367
  0
VERTEX
  8
LAYER_9
 10
88.8721
 20
172.9114
  0
SEQEND
  0
ENDBLK
  0
BLOCK
  8
LAYER_9
  2
AIGNBL09010025
 70
64
 10
0
 20
0
 30
0
  3
AIGNBL09010025
  0
POLYLINE
  8
LAYER_9
 40
0.2469
 41
0.2469
 66
1
 10
0
 20
0
 30
0
  0
VERTEX
  8
LAYER_9
 10
88.8721
 20
172.9114
  0
VERTEX
  8
LAYER_9
 10
88.8972
 20
172.8856
  0
SEQEND
  0
ENDBLK
  0
BLOCK
  8
LAYER_9
  2
AIGNBL09010026
 70
64
 10
0
 20
0
 30
0
  3
AIGNBL09010026
  0
POLYLINE
  8
LAYER_9
 40
0.2469
 41
0.2469
 66
1
 10
0
 20
0
 30
0
  0
VERTEX
  8
LAYER_9
 10
88.8972
 20
172.8856
  0
VERTEX
  8
LAYER_9
 10
88.922
 20
172.859
  0
SEQEND
  0
ENDBLK
  0
BLOCK
  8
LAYER_9
  2
AIGNBL09010027
 70
64
 10
0
 20
0
 30
0
  3
AIGNBL09010027
  0
POLYLINE
  8
LAYER_9
 40
0.2469
 41
0.2469
 66
1
 10
0
 20
0
 30
0
  0
VERTEX
  8
LAYER_9
 10
88.922
 20
172.859
  0
VERTEX
  8
LAYER_9
 10
88.9462
 20
172.8318
  0
SEQEND
  0
ENDBLK
  0
BLOCK
  8
LAYER_9
  2
AIGNBL09010028
 70
64
 10
0
 20
0
 30
0
  3
AIGNBL09010028
  0
POLYLINE
  8
LAYER_9
 40
0.2469
 41
0.2469
 66
1
 10
0
 20
0
 30
0
  0
VERTEX
  8
LAYER_9
 10
88.9462
 20
172.8318
  0
VERTEX
  8
LAYER_9
 10
88.9696
 20
172.8039
  0
SEQEND
  0
ENDBLK
  0
BLOCK
  8
LAYER_9
  2
AIGNBL09010029
 70
64
 10
0
 20
0
 30
0
  3
AIGNBL09010029
  0
POLYLINE
  8
LAYER_9
 40
0.2469
 41
0.2469
 66
1
 10
0
 20
0
 30
0
  0
VERTEX
  8
LAYER_9
 10
88.9696
 20
172.8039
  0
VERTEX
  8
LAYER_9
 10
88.9923
 20
172.7753
  0
SEQEND
  0
ENDBLK
  0
BLOCK
  8
LAYER_9
  2
AIGNBL0901002A
 70
64
 10
0
 20
0
 30
0
  3
AIGNBL0901002A
  0
POLYLINE
  8
LAYER_9
 40
0.2469
 41
0.2469
 66
1
 10
0
 20
0
 30
0
  0
VERTEX
  8
LAYER_9
 10
88.9923
 20
172.7753
  0
VERTEX
  8
LAYER_9
 10
89.0144
 20
172.746
  0
SEQEND
  0
ENDBLK
  0
BLOCK
  8
LAYER_9
  2
AIGNBL0901002B
 70
64
 10
0
 20
0
 30
0
  3
AIGNBL0901002B
  0
POLYLINE
  8
LAYER_9
 40
0.2469
 41
0.2469
 66
1
 10
0
 20
0
 30
0
  0
VERTEX
  8
LAYER_9
 10
89.0144
 20
172.746
  0
VERTEX
  8
LAYER_9
 10
89.0364
 20
172.7161
  0
SEQEND
  0
ENDBLK
  0
BLOCK
  8
LAYER_9
  2
AIGNBL0901002C
 70
64
 10
0
 20
0
 30
0
  3
AIGNBL0901002C
  0
POLYLINE
  8
LAYER_9
 40
0.2469
 41
0.2469
 66
1
 10
0
 20
0
 30
0
  0
VERTEX
  8
LAYER_9
 10
89.0364
 20
172.7161
  0
VERTEX
  8
LAYER_9
 10
89.0571
 20
172.6856
  0
SEQEND
  0
ENDBLK
  0
BLOCK
  8
LAYER_9
  2
AIGNBL0901002D
 70
64
 10
0
 20
0
 30
0
  3
AIGNBL0901002D
  0
POLYLINE
  8
LAYER_9
 40
0.2469
 41
0.2469
 66
1
 10
0
 20
0
 30
0
  0
VERTEX
  8
LAYER_9
 10
89.0571
 20
172.6856
  0
VERTEX
  8
LAYER_9
 10
89.0771
 20
172.6546
  0
SEQEND
  0
ENDBLK
  0
BLOCK
  8
LAYER_9
  2
AIGNBL0901002E
 70
64
 10
0
 20
0
 30
0
  3
AIGNBL0901002E
  0
POLYLINE
  8
LAYER_9
 40
0.2469
 41
0.2469
 66
1
 10
0
 20
0
 30
0
  0
VERTEX
  8
LAYER_9
 10
89.0771
 20
172.6546
  0
VERTEX
  8
LAYER_9
 10
89.0967
 20
172.6229
  0
SEQEND
  0
ENDBLK
  0
BLOCK
  8
LAYER_9
  2
AIGNBL0901002F
 70
64
 10
0
 20
0
 30
0
  3
AIGNBL0901002F
  0
POLYLINE
  8
LAYER_9
 40
0.2469
 41
0.2469
 66
1
 10
0
 20
0
 30
0
  0
VERTEX
  8
LAYER_9
 10
89.0967
 20
172.6229
  0
VERTEX
  8
LAYER_9
 10
89.1157
 20
172.5907
  0
SEQEND
  0
ENDBLK
  0
BLOCK
  8
LAYER_9
  2
AIGNBL09010030
 70
64
 10
0
 20
0
 30
0
  3
AIGNBL09010030
  0
POLYLINE
  8
LAYER_9
 40
0.2469
 41
0.2469
 66
1
 10
0
 20
0
 30
0
  0
VERTEX
  8
LAYER_9
 10
89.1157
 20
172.5907
  0
VERTEX
  8
LAYER_9
 10
89.1336
 20
172.5579
  0
SEQEND
  0
ENDBLK
  0
BLOCK
  8
LAYER_9
  2
AIGNBL09010031
 70
64
 10
0
 20
0
 30
0
  3
AIGNBL09010031
  0
POLYLINE
  8
LAYER_9
 40
0.2469
 41
0.2469
 66
1
 10
0
 20
0
 30
0
  0
VERTEX
  8
LAYER_9
 10
89.1336
 20
172.5579
  0
VERTEX
  8
LAYER_9
 10
89.1505
 20
172.5249
  0
SEQEND
  0
ENDBLK
  0
BLOCK
  8
LAYER_9
  2
AIGNBL09010032
 70
64
 10
0
 20
0
 30
0
  3
AIGNBL09010032
  0
POLYLINE
  8
LAYER_9
 40
0.2469
 41
0.2469
 66
1
 10
0
 20
0
 30
0
  0
VERTEX
  8
LAYER_9
 10
89.1505
 20
172.5249
  0
VERTEX
  8
LAYER_9
 10
89.1667
 20
172.4913
  0
SEQEND
  0
ENDBLK
  0
BLOCK
  8
LAYER_9
  2
AIGNBL09010033
 70
64
 10
0
 20
0
 30
0
  3
AIGNBL09010033
  0
POLYLINE
  8
LAYER_9
 40
0.2469
 41
0.2469
 66
1
 10
0
 20
0
 30
0
  0
VERTEX
  8
LAYER_9
 10
89.1667
 20
172.4913
  0
VERTEX
  8
LAYER_9
 10
89.1825
 20
172.4572
  0
SEQEND
  0
ENDBLK
  0
BLOCK
  8
LAYER_9
  2
AIGNBL09010034
 70
64
 10
0
 20
0
 30
0
  3
AIGNBL09010034
  0
POLYLINE
  8
LAYER_9
 40
0.2469
 41
0.2469
 66
1
 10
0
 20
0
 30
0
  0
VERTEX
  8
LAYER_9
 10
89.1825
 20
172.4572
  0
VERTEX
  8
LAYER_9
 10
89.197
 20
172.4229
  0
SEQEND
  0
ENDBLK
  0
BLOCK
  8
LAYER_9
  2
AIGNBL09010035
 70
64
 10
0
 20
0
 30
0
  3
AIGNBL09010035
  0
POLYLINE
  8
LAYER_9
 40
0.2469
 41
0.2469
 66
1
 10
0
 20
0
 30
0
  0
VERTEX
  8
LAYER_9
 10
89.197
 20
172.4229
  0
VERTEX
  8
LAYER_9
 10
89.2107
 20
172.3881
  0
SEQEND
  0
ENDBLK
  0
BLOCK
  8
LAYER_9
  2
AIGNBL09010036
 70
64
 10
0
 20
0
 30
0
  3
AIGNBL09010036
  0
POLYLINE
  8
LAYER_9
 40
0.2469
 41
0.2469
 66
1
 10
0
 20
0
 30
0
  0
VERTEX
  8
LAYER_9
 10
89.2107
 20
172.3881
  0
VERTEX
  8
LAYER_9
 10
89.2238
 20
172.353
  0
SEQEND
  0
ENDBLK
  0
BLOCK
  8
LAYER_9
  2
AIGNBL09010037
 70
64
 10
0
 20
0
 30
0
  3
AIGNBL09010037
  0
POLYLINE
  8
LAYER_9
 40
0.2469
 41
0.2469
 66
1
 10
0
 20
0
 30
0
  0
VERTEX
  8
LAYER_9
 10
89.2238
 20
172.353
  0
VERTEX
  8
LAYER_9
 10
89.2356
 20
172.3176
  0
SEQEND
  0
ENDBLK
  0
BLOCK
  8
LAYER_9
  2
AIGNBL09010038
 70
64
 10
0
 20
0
 30
0
  3
AIGNBL09010038
  0
POLYLINE
  8
LAYER_9
 40
0.2469
 41
0.2469
 66
1
 10
0
 20
0
 30
0
  0
VERTEX
  8
LAYER_9
 10
89.2356
 20
172.3176
  0
VERTEX
  8
LAYER_9
 10
89.2466
 20
172.282
  0
SEQEND
  0
ENDBLK
  0
BLOCK
  8
LAYER_9
  2
AIGNBL09010039
 70
64
 10
0
 20
0
 30
0
  3
AIGNBL09010039
  0
POLYLINE
  8
LAYER_9
 40
0.2469
 41
0.2469
 66
1
 10
0
 20
0
 30
0
  0
VERTEX
  8
LAYER_9
 10
89.2466
 20
172.282
  0
VERTEX
  8
LAYER_9
 10
89.2569
 20
172.2462
  0
SEQEND
  0
ENDBLK
  0
BLOCK
  8
LAYER_9
  2
AIGNBL0901003A
 70
64
 10
0
 20
0
 30
0
  3
AIGNBL0901003A
  0
POLYLINE
  8
LAYER_9
 40
0.2469
 41
0.2469
 66
1
 10
0
 20
0
 30
0
  0
VERTEX
  8
LAYER_9
 10
89.2569
 20
172.2462
  0
VERTEX
  8
LAYER_9
 10
89.2662
 20
172.2102
  0
SEQEND
  0
ENDBLK
  0
BLOCK
  8
LAYER_9
  2
AIGNBL0901003B
 70
64
 10
0
 20
0
 30
0
  3
AIGNBL0901003B
  0
POLYLINE
  8
LAYER_9
 40
0.2469
 41
0.2469
 66
1
 10
0
 20
0
 30
0
  0
VERTEX
  8
LAYER_9
 10
89.2662
 20
172.2102
  0
VERTEX
  8
LAYER_9
 10
89.2748
 20
172.174
  0
SEQEND
  0
ENDBLK
  0
BLOCK
  8
LAYER_9
  2
AIGNBL0901003C
 70
64
 10
0
 20
0
 30
0
  3
AIGNBL0901003C
  0
POLYLINE
  8
LAYER_9
 40
0.2469
 41
0.2469
 66
1
 10
0
 20
0
 30
0
  0
VERTEX
  8
LAYER_9
 10
89.2748
 20
172.174
  0
VERTEX
  8
LAYER_9
 10
89.2824
 20
172.1376
  0
SEQEND
  0
ENDBLK
  0
BLOCK
  8
LAYER_9
  2
AIGNBL0901003D
 70
64
 10
0
 20
0
 30
0
  3
AIGNBL0901003D
  0
POLYLINE
  8
LAYER_9
 40
0.2469
 41
0.2469
 66
1
 10
0
 20
0
 30
0
  0
VERTEX
  8
LAYER_9
 10
89.2824
 20
172.1376
  0
VERTEX
  8
LAYER_9
 10
89.2886
 20
172.1013
  0
SEQEND
  0
ENDBLK
  0
BLOCK
  8
LAYER_9
  2
AIGNBL0901003E
 70
64
 10
0
 20
0
 30
0
  3
AIGNBL0901003E
  0
POLYLINE
  8
LAYER_9
 40
0.2469
 41
0.2469
 66
1
 10
0
 20
0
 30
0
  0
VERTEX
  8
LAYER_9
 10
89.2886
 20
172.1013
  0
VERTEX
  8
LAYER_9
 10
89.2945
 20
172.0648
  0
SEQEND
  0
ENDBLK
  0
BLOCK
  8
LAYER_9
  2
AIGNBL0901003F
 70
64
 10
0
 20
0
 30
0
  3
AIGNBL0901003F
  0
POLYLINE
  8
LAYER_9
 40
0.2469
 41
0.2469
 66
1
 10
0
 20
0
 30
0
  0
VERTEX
  8
LAYER_9
 10
89.2945
 20
172.0648
  0
VERTEX
  8
LAYER_9
 10
89.2989
 20
172.0284
  0
SEQEND
  0
ENDBLK
  0
BLOCK
  8
LAYER_9
  2
AIGNBL09010040
 70
64
 10
0
 20
0
 30
0
  3
AIGNBL09010040
  0
POLYLINE
  8
LAYER_9
 40
0.2469
 41
0.2469
 66
1
 10
0
 20
0
 30
0
  0
VERTEX
  8
LAYER_9
 10
89.2989
 20
172.0284
  0
VERTEX
  8
LAYER_9
 10
89.3031
 20
171.9919
  0
SEQEND
  0
ENDBLK
  0
BLOCK
  8
LAYER_9
  2
AIGNBL09010041
 70
64
 10
0
 20
0
 30
0
  3
AIGNBL09010041
  0
POLYLINE
  8
LAYER_9
 40
0.2469
 41
0.2469
 66
1
 10
0
 20
0
 30
0
  0
VERTEX
  8
LAYER_9
 10
89.3031
 20
171.9919
  0
VERTEX
  8
LAYER_9
 10
89.3058
 20
171.9556
  0
SEQEND
  0
ENDBLK
  0
BLOCK
  8
LAYER_9
  2
AIGNBL09010042
 70
64
 10
0
 20
0
 30
0
  3
AIGNBL09010042
  0
POLYLINE
  8
LAYER_9
 40
0.2469
 41
0.2469
 66
1
 10
0
 20
0
 30
0
  0
VERTEX
  8
LAYER_9
 10
89.3058
 20
171.9556
  0
VERTEX
  8
LAYER_9
 10
89.3079
 20
171.9192
  0
SEQEND
  0
ENDBLK
  0
BLOCK
  8
LAYER_9
  2
AIGNBL09010043
 70
64
 10
0
 20
0
 30
0
  3
AIGNBL09010043
  0
POLYLINE
  8
LAYER_9
 40
0.2469
 41
0.2469
 66
1
 10
0
 20
0
 30
0
  0
VERTEX
  8
LAYER_9
 10
89.3079
 20
171.9192
  0
VERTEX
  8
LAYER_9
 10
89.3093
 20
171.883
  0
SEQEND
  0
ENDBLK
  0
BLOCK
  8
LAYER_9
  2
AIGNBL09010044
 70
64
 10
0
 20
0
 30
0
  3
AIGNBL09010044
  0
POLYLINE
  8
LAYER_9
 40
0.2469
 41
0.2469
 66
1
 10
0
 20
0
 30
0
  0
VERTEX
  8
LAYER_9
 10
89.3093
 20
171.883
  0
VERTEX
  8
LAYER_9
 10
89.3093
 20
171.847
  0
SEQEND
  0
ENDBLK
  0
BLOCK
  8
LAYER_9
  2
AIGNBL09010045
 70
64
 10
0
 20
0
 30
0
  3
AIGNBL09010045
  0
POLYLINE
  8
LAYER_9
 40
0.2469
 41
0.2469
 66
1
 10
0
 20
0
 30
0
  0
VERTEX
  8
LAYER_9
 10
89.3093
 20
171.847
  0
VERTEX
  8
LAYER_9
 10
89.2824
 20
169.8833
  0
SEQEND
  0
ENDBLK
  0
BLOCK
  8
LAYER_9
  2
AIGNBL09010046
 70
64
 10
0
 20
0
 30
0
  3
AIGNBL09010046
  0
POLYLINE
  8
LAYER_9
 40
0.2469
 41
0.2469
 66
1
 10
0
 20
0
 30
0
  0
VERTEX
  8
LAYER_9
 10
89.2824
 20
169.8833
  0
VERTEX
  8
LAYER_9
 10
89.2176
 20
167.9203
  0
SEQEND
  0
ENDBLK
  0
BLOCK
  8
LAYER_9
  2
AIGNBL09010047
 70
64
 10
0
 20
0
 30
0
  3
AIGNBL09010047
  0
POLYLINE
  8
LAYER_9
 40
0.2469
 41
0.2469
 66
1
 10
0
 20
0
 30
0
  0
VERTEX
  8
LAYER_9
 10
89.2176
 20
167.9203
  0
VERTEX
  8
LAYER_9
 10
89.115
 20
165.9589
  0
SEQEND
  0
ENDBLK
  0
BLOCK
  8
LAYER_9
  2
AIGNBL09010048
 70
64
 10
0
 20
0
 30
0
  3
AIGNBL09010048
  0
POLYLINE
  8
LAYER_9
 40
0.2469
 41
0.2469
 66
1
 10
0
 20
0
 30
0
  0
VERTEX
  8
LAYER_9
 10
89.115
 20
165.9589
  0
VERTEX
  8
LAYER_9
 10
88.9744
 20
164.0002
  0
SEQEND
  0
ENDBLK
  0
BLOCK
  8
LAYER_9
  2
AIGNBL09010049
 70
64
 10
0
 20
0
 30
0
  3
AIGNBL09010049
  0
POLYLINE
  8
LAYER_9
 40
0.2469
 41
0.2469
 66
1
 10
0
 20
0
 30
0
  0
VERTEX
  8
LAYER_9
 10
88.9744
 20
164.0002
  0
VERTEX
  8
LAYER_9
 10
88.8163
 20
162.0657
  0
SEQEND
  0
ENDBLK
  0
BLOCK
  8
LAYER_9
  2
AIGNBL0901004A
 70
64
 10
0
 20
0
 30
0
  3
AIGNBL0901004A
  0
POLYLINE
  8
LAYER_9
 40
0.2469
 41
0.2469
 66
1
 10
0
 20
0
 30
0
  0
VERTEX
  8
LAYER_9
 10
88.8163
 20
162.0657
  0
VERTEX
  8
LAYER_9
 10
88.8132
 20
162.0352
  0
SEQEND
  0
ENDBLK
  0
BLOCK
  8
LAYER_9
  2
AIGNBL0901004B
 70
64
 10
0
 20
0
 30
0
  3
AIGNBL0901004B
  0
POLYLINE
  8
LAYER_9
 40
0.2469
 41
0.2469
 66
1
 10
0
 20
0
 30
0
  0
VERTEX
  8
LAYER_9
 10
88.8132
 20
162.0352
  0
VERTEX
  8
LAYER_9
 10
88.8097
 20
162.0044
  0
SEQEND
  0
ENDBLK
  0
BLOCK
  8
LAYER_9
  2
AIGNBL0901004C
 70
64
 10
0
 20
0
 30
0
  3
AIGNBL0901004C
  0
POLYLINE
  8
LAYER_9
 40
0.2469
 41
0.2469
 66
1
 10
0
 20
0
 30
0
  0
VERTEX
  8
LAYER_9
 10
88.8097
 20
162.0044
  0
VERTEX
  8
LAYER_9
 10
88.8056
 20
161.9736
  0
SEQEND
  0
ENDBLK
  0
BLOCK
  8
LAYER_9
  2
AIGNBL0901004D
 70
64
 10
0
 20
0
 30
0
  3
AIGNBL0901004D
  0
POLYLINE
  8
LAYER_9
 40
0.2469
 41
0.2469
 66
1
 10
0
 20
0
 30
0
  0
VERTEX
  8
LAYER_9
 10
88.8056
 20
161.9736
  0
VERTEX
  8
LAYER_9
 10
88.8008
 20
161.9426
  0
SEQEND
  0
ENDBLK
  0
BLOCK
  8
LAYER_9
  2
AIGNBL0901004E
 70
64
 10
0
 20
0
 30
0
  3
AIGNBL0901004E
  0
POLYLINE
  8
LAYER_9
 40
0.2469
 41
0.2469
 66
1
 10
0
 20
0
 30
0
  0
VERTEX
  8
LAYER_9
 10
88.8008
 20
161.9426
  0
VERTEX
  8
LAYER_9
 10
88.7953
 20
161.9114
  0
SEQEND
  0
ENDBLK
  0
BLOCK
  8
LAYER_9
  2
AIGNBL0901004F
 70
64
 10
0
 20
0
 30
0
  3
AIGNBL0901004F
  0
POLYLINE
  8
LAYER_9
 40
0.2469
 41
0.2469
 66
1
 10
0
 20
0
 30
0
  0
VERTEX
  8
LAYER_9
 10
88.7953
 20
161.9114
  0
VERTEX
  8
LAYER_9
 10
88.7891
 20
161.8802
  0
SEQEND
  0
ENDBLK
  0
BLOCK
  8
LAYER_9
  2
AIGNBL09010050
 70
64
 10
0
 20
0
 30
0
  3
AIGNBL09010050
  0
POLYLINE
  8
LAYER_9
 40
0.2469
 41
0.2469
 66
1
 10
0
 20
0
 30
0
  0
VERTEX
  8
LAYER_9
 10
88.7891
 20
161.8802
  0
VERTEX
  8
LAYER_9
 10
88.7822
 20
161.8489
  0
SEQEND
  0
ENDBLK
  0
BLOCK
  8
LAYER_9
  2
AIGNBL09010051
 70
64
 10
0
 20
0
 30
0
  3
AIGNBL09010051
  0
POLYLINE
  8
LAYER_9
 40
0.2469
 41
0.2469
 66
1
 10
0
 20
0
 30
0
  0
VERTEX
  8
LAYER_9
 10
88.7822
 20
161.8489
  0
VERTEX
  8
LAYER_9
 10
88.7746
 20
161.8177
  0
SEQEND
  0
ENDBLK
  0
BLOCK
  8
LAYER_9
  2
AIGNBL09010052
 70
64
 10
0
 20
0
 30
0
  3
AIGNBL09010052
  0
POLYLINE
  8
LAYER_9
 40
0.2469
 41
0.2469
 66
1
 10
0
 20
0
 30
0
  0
VERTEX
  8
LAYER_9
 10
88.7746
 20
161.8177
  0
VERTEX
  8
LAYER_9
 10
88.7663
 20
161.7863
  0
SEQEND
  0
ENDBLK
  0
BLOCK
  8
LAYER_9
  2
AIGNBL09010053
 70
64
 10
0
 20
0
 30
0
  3
AIGNBL09010053
  0
POLYLINE
  8
LAYER_9
 40
0.2469
 41
0.2469
 66
1
 10
0
 20
0
 30
0
  0
VERTEX
  8
LAYER_9
 10
88.7663
 20
161.7863
  0
VERTEX
  8
LAYER_9
 10
88.7574
 20
161.755
  0
SEQEND
  0
ENDBLK
  0
BLOCK
  8
LAYER_9
  2
AIGNBL09010054
 70
64
 10
0
 20
0
 30
0
  3
AIGNBL09010054
  0
POLYLINE
  8
LAYER_9
 40
0.2469
 41
0.2469
 66
1
 10
0
 20
0
 30
0
  0
VERTEX
  8
LAYER_9
 10
88.7574
 20
161.755
  0
VERTEX
  8
LAYER_9
 10
88.7477
 20
161.7236
  0
SEQEND
  0
ENDBLK
  0
BLOCK
  8
LAYER_9
  2
AIGNBL09010055
 70
64
 10
0
 20
0
 30
0
  3
AIGNBL09010055
  0
POLYLINE
  8
LAYER_9
 40
0.2469
 41
0.2469
 66
1
 10
0
 20
0
 30
0
  0
VERTEX
  8
LAYER_9
 10
88.7477
 20
161.7236
  0
VERTEX
  8
LAYER_9
 10
88.737
 20
161.6925
  0
SEQEND
  0
ENDBLK
  0
BLOCK
  8
LAYER_9
  2
AIGNBL09010056
 70
64
 10
0
 20
0
 30
0
  3
AIGNBL09010056
  0
POLYLINE
  8
LAYER_9
 40
0.2469
 41
0.2469
 66
1
 10
0
 20
0
 30
0
  0
VERTEX
  8
LAYER_9
 10
88.737
 20
161.6925
  0
VERTEX
  8
LAYER_9
 10
88.7257
 20
161.6613
  0
SEQEND
  0
ENDBLK
  0
BLOCK
  8
LAYER_9
  2
AIGNBL09010057
 70
64
 10
0
 20
0
 30
0
  3
AIGNBL09010057
  0
POLYLINE
  8
LAYER_9
 40
0.2469
 41
0.2469
 66
1
 10
0
 20
0
 30
0
  0
VERTEX
  8
LAYER_9
 10
88.7257
 20
161.6613
  0
VERTEX
  8
LAYER_9
 10
88.714
 20
161.6303
  0
SEQEND
  0
ENDBLK
  0
BLOCK
  8
LAYER_9
  2
AIGNBL09010058
 70
64
 10
0
 20
0
 30
0
  3
AIGNBL09010058
  0
POLYLINE
  8
LAYER_9
 40
0.2469
 41
0.2469
 66
1
 10
0
 20
0
 30
0
  0
VERTEX
  8
LAYER_9
 10
88.714
 20
161.6303
  0
VERTEX
  8
LAYER_9
 10
88.7009
 20
161.5994
  0
SEQEND
  0
ENDBLK
  0
BLOCK
  8
LAYER_9
  2
AIGNBL09010059
 70
64
 10
0
 20
0
 30
0
  3
AIGNBL09010059
  0
POLYLINE
  8
LAYER_9
 40
0.2469
 41
0.2469
 66
1
 10
0
 20
0
 30
0
  0
VERTEX
  8
LAYER_9
 10
88.7009
 20
161.5994
  0
VERTEX
  8
LAYER_9
 10
88.6874
 20
161.5686
  0
SEQEND
  0
ENDBLK
  0
BLOCK
  8
LAYER_9
  2
AIGNBL0901005A
 70
64
 10
0
 20
0
 30
0
  3
AIGNBL0901005A
  0
POLYLINE
  8
LAYER_9
 40
0.2469
 41
0.2469
 66
1
 10
0
 20
0
 30
0
  0
VERTEX
  8
LAYER_9
 10
88.6874
 20
161.5686
  0
VERTEX
  8
LAYER_9
 10
88.6733
 20
161.5381
  0
SEQEND
  0
ENDBLK
  0
BLOCK
  8
LAYER_9
  2
AIGNBL0901005B
 70
64
 10
0
 20
0
 30
0
  3
AIGNBL0901005B
  0
POLYLINE
  8
LAYER_9
 40
0.2469
 41
0.2469
 66
1
 10
0
 20
0
 30
0
  0
VERTEX
  8
LAYER_9
 10
88.6733
 20
161.5381
  0
VERTEX
  8
LAYER_9
 10
88.6582
 20
161.5076
  0
SEQEND
  0
ENDBLK
  0
BLOCK
  8
LAYER_9
  2
AIGNBL0901005C
 70
64
 10
0
 20
0
 30
0
  3
AIGNBL0901005C
  0
POLYLINE
  8
LAYER_9
 40
0.2469
 41
0.2469
 66
1
 10
0
 20
0
 30
0
  0
VERTEX
  8
LAYER_9
 10
88.6582
 20
161.5076
  0
VERTEX
  8
LAYER_9
 10
88.6423
 20
161.4777
  0
SEQEND
  0
ENDBLK
  0
BLOCK
  8
LAYER_9
  2
AIGNBL0901005D
 70
64
 10
0
 20
0
 30
0
  3
AIGNBL0901005D
  0
POLYLINE
  8
LAYER_9
 40
0.2469
 41
0.2469
 66
1
 10
0
 20
0
 30
0
  0
VERTEX
  8
LAYER_9
 10
88.6423
 20
161.4777
  0
VERTEX
  8
LAYER_9
 10
88.6258
 20
161.4477
  0
SEQEND
  0
ENDBLK
  0
BLOCK
  8
LAYER_9
  2
AIGNBL0901005E
 70
64
 10
0
 20
0
 30
0
  3
AIGNBL0901005E
  0
POLYLINE
  8
LAYER_9
 40
0.2469
 41
0.2469
 66
1
 10
0
 20
0
 30
0
  0
VERTEX
  8
LAYER_9
 10
88.6258
 20
161.4477
  0
VERTEX
  8
LAYER_9
 10
88.6085
 20
161.4182
  0
SEQEND
  0
ENDBLK
  0
BLOCK
  8
LAYER_9
  2
AIGNBL0901005F
 70
64
 10
0
 20
0
 30
0
  3
AIGNBL0901005F
  0
POLYLINE
  8
LAYER_9
 40
0.2469
 41
0.2469
 66
1
 10
0
 20
0
 30
0
  0
VERTEX
  8
LAYER_9
 10
88.6085
 20
161.4182
  0
VERTEX
  8
LAYER_9
 10
88.5906
 20
161.3889
  0
SEQEND
  0
ENDBLK
  0
BLOCK
  8
LAYER_9
  2
AIGNBL09010060
 70
64
 10
0
 20
0
 30
0
  3
AIGNBL09010060
  0
POLYLINE
  8
LAYER_9
 40
0.2469
 41
0.2469
 66
1
 10
0
 20
0
 30
0
  0
VERTEX
  8
LAYER_9
 10
88.5906
 20
161.3889
  0
VERTEX
  8
LAYER_9
 10
88.572
 20
161.36
  0
SEQEND
  0
ENDBLK
  0
BLOCK
  8
LAYER_9
  2
AIGNBL09010061
 70
64
 10
0
 20
0
 30
0
  3
AIGNBL09010061
  0
POLYLINE
  8
LAYER_9
 40
0.2469
 41
0.2469
 66
1
 10
0
 20
0
 30
0
  0
VERTEX
  8
LAYER_9
 10
88.572
 20
161.36
  0
VERTEX
  8
LAYER_9
 10
88.5527
 20
161.3314
  0
SEQEND
  0
ENDBLK
  0
BLOCK
  8
LAYER_9
  2
AIGNBL09010062
 70
64
 10
0
 20
0
 30
0
  3
AIGNBL09010062
  0
POLYLINE
  8
LAYER_9
 40
0.2469
 41
0.2469
 66
1
 10
0
 20
0
 30
0
  0
VERTEX
  8
LAYER_9
 10
88.5527
 20
161.3314
  0
VERTEX
  8
LAYER_9
 10
88.5328
 20
161.3033
  0
SEQEND
  0
ENDBLK
  0
BLOCK
  8
LAYER_9
  2
AIGNBL09010063
 70
64
 10
0
 20
0
 30
0
  3
AIGNBL09010063
  0
POLYLINE
  8
LAYER_9
 40
0.2469
 41
0.2469
 66
1
 10
0
 20
0
 30
0
  0
VERTEX
  8
LAYER_9
 10
88.5328
 20
161.3033
  0
VERTEX
  8
LAYER_9
 10
88.5121
 20
161.2756
  0
SEQEND
  0
ENDBLK
  0
BLOCK
  8
LAYER_9
  2
AIGNBL09010064
 70
64
 10
0
 20
0
 30
0
  3
AIGNBL09010064
  0
POLYLINE
  8
LAYER_9
 40
0.2469
 41
0.2469
 66
1
 10
0
 20
0
 30
0
  0
VERTEX
  8
LAYER_9
 10
88.5121
 20
161.2756
  0
VERTEX
  8
LAYER_9
 10
88.4907
 20
161.2482
  0
SEQEND
  0
ENDBLK
  0
BLOCK
  8
LAYER_9
  2
AIGNBL09010065
 70
64
 10
0
 20
0
 30
0
  3
AIGNBL09010065
  0
POLYLINE
  8
LAYER_9
 40
0.2469
 41
0.2469
 66
1
 10
0
 20
0
 30
0
  0
VERTEX
  8
LAYER_9
 10
88.4907
 20
161.2482
  0
VERTEX
  8
LAYER_9
 10
88.4687
 20
161.2215
  0
SEQEND
  0
ENDBLK
  0
BLOCK
  8
LAYER_9
  2
AIGNBL09010066
 70
64
 10
0
 20
0
 30
0
  3
AIGNBL09010066
  0
POLYLINE
  8
LAYER_9
 40
0.2469
 41
0.2469
 66
1
 10
0
 20
0
 30
0
  0
VERTEX
  8
LAYER_9
 10
88.4687
 20
161.2215
  0
VERTEX
  8
LAYER_9
 10
88.4459
 20
161.1952
  0
SEQEND
  0
ENDBLK
  0
BLOCK
  8
LAYER_9
  2
AIGNBL09010067
 70
64
 10
0
 20
0
 30
0
  3
AIGNBL09010067
  0
POLYLINE
  8
LAYER_9
 40
0.2469
 41
0.2469
 66
1
 10
0
 20
0
 30
0
  0
VERTEX
  8
LAYER_9
 10
88.4459
 20
161.1952
  0
VERTEX
  8
LAYER_9
 10
88.4225
 20
161.1693
  0
SEQEND
  0
ENDBLK
  0
BLOCK
  8
LAYER_9
  2
AIGNBL09010068
 70
64
 10
0
 20
0
 30
0
  3
AIGNBL09010068
  0
POLYLINE
  8
LAYER_9
 40
0.2469
 41
0.2469
 66
1
 10
0
 20
0
 30
0
  0
VERTEX
  8
LAYER_9
 10
88.4225
 20
161.1693
  0
VERTEX
  8
LAYER_9
 10
88.3984
 20
161.144
  0
SEQEND
  0
ENDBLK
  0
BLOCK
  8
LAYER_9
  2
AIGNBL09010069
 70
64
 10
0
 20
0
 30
0
  3
AIGNBL09010069
  0
POLYLINE
  8
LAYER_9
 40
0.2469
 41
0.2469
 66
1
 10
0
 20
0
 30
0
  0
VERTEX
  8
LAYER_9
 10
88.3984
 20
161.144
  0
VERTEX
  8
LAYER_9
 10
88.3739
 20
161.1194
  0
SEQEND
  0
ENDBLK
  0
BLOCK
  8
LAYER_9
  2
AIGNBL0901006A
 70
64
 10
0
 20
0
 30
0
  3
AIGNBL0901006A
  0
POLYLINE
  8
LAYER_9
 40
0.2469
 41
0.2469
 66
1
 10
0
 20
0
 30
0
  0
VERTEX
  8
LAYER_9
 10
88.3739
 20
161.1194
  0
VERTEX
  8
LAYER_9
 10
88.3488
 20
161.0951
  0
SEQEND
  0
ENDBLK
  0
BLOCK
  8
LAYER_9
  2
AIGNBL0901006B
 70
64
 10
0
 20
0
 30
0
  3
AIGNBL0901006B
  0
POLYLINE
  8
LAYER_9
 40
0.2469
 41
0.2469
 66
1
 10
0
 20
0
 30
0
  0
VERTEX
  8
LAYER_9
 10
88.3488
 20
161.0951
  0
VERTEX
  8
LAYER_9
 10
88.3233
 20
161.0716
  0
SEQEND
  0
ENDBLK
  0
BLOCK
  8
LAYER_9
  2
AIGNBL0901006C
 70
64
 10
0
 20
0
 30
0
  3
AIGNBL0901006C
  0
POLYLINE
  8
LAYER_9
 40
0.2469
 41
0.2469
 66
1
 10
0
 20
0
 30
0
  0
VERTEX
  8
LAYER_9
 10
88.3233
 20
161.0716
  0
VERTEX
  8
LAYER_9
 10
88.2971
 20
161.0487
  0
SEQEND
  0
ENDBLK
  0
BLOCK
  8
LAYER_9
  2
AIGNBL0901006D
 70
64
 10
0
 20
0
 30
0
  3
AIGNBL0901006D
  0
POLYLINE
  8
LAYER_9
 40
0.2469
 41
0.2469
 66
1
 10
0
 20
0
 30
0
  0
VERTEX
  8
LAYER_9
 10
88.2971
 20
161.0487
  0
VERTEX
  8
LAYER_9
 10
88.2702
 20
161.0263
  0
SEQEND
  0
ENDBLK
  0
BLOCK
  8
LAYER_9
  2
AIGNBL0901006E
 70
64
 10
0
 20
0
 30
0
  3
AIGNBL0901006E
  0
POLYLINE
  8
LAYER_9
 40
0.2469
 41
0.2469
 66
1
 10
0
 20
0
 30
0
  0
VERTEX
  8
LAYER_9
 10
88.2702
 20
161.0263
  0
VERTEX
  8
LAYER_9
 10
88.2434
 20
161.0046
  0
SEQEND
  0
ENDBLK
  0
BLOCK
  8
LAYER_9
  2
AIGNBL0901006F
 70
64
 10
0
 20
0
 30
0
  3
AIGNBL0901006F
  0
POLYLINE
  8
LAYER_9
 40
0.2469
 41
0.2469
 66
1
 10
0
 20
0
 30
0
  0
VERTEX
  8
LAYER_9
 10
88.2434
 20
161.0046
  0
VERTEX
  8
LAYER_9
 10
88.2158
 20
160.9836
  0
SEQEND
  0
ENDBLK
  0
BLOCK
  8
LAYER_9
  2
AIGNBL09010070
 70
64
 10
0
 20
0
 30
0
  3
AIGNBL09010070
  0
POLYLINE
  8
LAYER_9
 40
0.2469
 41
0.2469
 66
1
 10
0
 20
0
 30
0
  0
VERTEX
  8
LAYER_9
 10
88.2158
 20
160.9836
  0
VERTEX
  8
LAYER_9
 10
88.1876
 20
160.9633
  0
SEQEND
  0
ENDBLK
  0
BLOCK
  8
LAYER_9
  2
AIGNBL09010071
 70
64
 10
0
 20
0
 30
0
  3
AIGNBL09010071
  0
POLYLINE
  8
LAYER_9
 40
0.2469
 41
0.2469
 66
1
 10
0
 20
0
 30
0
  0
VERTEX
  8
LAYER_9
 10
88.1876
 20
160.9633
  0
VERTEX
  8
LAYER_9
 10
88.1593
 20
160.9437
  0
SEQEND
  0
ENDBLK
  0
BLOCK
  8
LAYER_9
  2
AIGNBL09010072
 70
64
 10
0
 20
0
 30
0
  3
AIGNBL09010072
  0
POLYLINE
  8
LAYER_9
 40
0.2469
 41
0.2469
 66
1
 10
0
 20
0
 30
0
  0
VERTEX
  8
LAYER_9
 10
88.1593
 20
160.9437
  0
VERTEX
  8
LAYER_9
 10
88.1304
 20
160.9247
  0
SEQEND
  0
ENDBLK
  0
BLOCK
  8
LAYER_9
  2
AIGNBL09010073
 70
64
 10
0
 20
0
 30
0
  3
AIGNBL09010073
  0
POLYLINE
  8
LAYER_9
 40
0.2469
 41
0.2469
 66
1
 10
0
 20
0
 30
0
  0
VERTEX
  8
LAYER_9
 10
88.1304
 20
160.9247
  0
VERTEX
  8
LAYER_9
 10
88.1014
 20
160.9065
  0
SEQEND
  0
ENDBLK
  0
BLOCK
  8
LAYER_9
  2
AIGNBL09010074
 70
64
 10
0
 20
0
 30
0
  3
AIGNBL09010074
  0
POLYLINE
  8
LAYER_9
 40
0.2469
 41
0.2469
 66
1
 10
0
 20
0
 30
0
  0
VERTEX
  8
LAYER_9
 10
88.1014
 20
160.9065
  0
VERTEX
  8
LAYER_9
 10
88.0718
 20
160.8891
  0
SEQEND
  0
ENDBLK
  0
BLOCK
  8
LAYER_9
  2
AIGNBL09010075
 70
64
 10
0
 20
0
 30
0
  3
AIGNBL09010075
  0
POLYLINE
  8
LAYER_9
 40
0.2469
 41
0.2469
 66
1
 10
0
 20
0
 30
0
  0
VERTEX
  8
LAYER_9
 10
88.0718
 20
160.8891
  0
VERTEX
  8
LAYER_9
 10
88.0418
 20
160.8722
  0
SEQEND
  0
ENDBLK
  0
BLOCK
  8
LAYER_9
  2
AIGNBL09010076
 70
64
 10
0
 20
0
 30
0
  3
AIGNBL09010076
  0
POLYLINE
  8
LAYER_9
 40
0.2469
 41
0.2469
 66
1
 10
0
 20
0
 30
0
  0
VERTEX
  8
LAYER_9
 10
88.0418
 20
160.8722
  0
VERTEX
  8
LAYER_9
 10
88.0119
 20
160.8562
  0
SEQEND
  0
ENDBLK
  0
BLOCK
  8
LAYER_9
  2
AIGNBL09010077
 70
64
 10
0
 20
0
 30
0
  3
AIGNBL09010077
  0
POLYLINE
  8
LAYER_9
 40
0.2469
 41
0.2469
 66
1
 10
0
 20
0
 30
0
  0
VERTEX
  8
LAYER_9
 10
88.0119
 20
160.8562
  0
VERTEX
  8
LAYER_9
 10
87.9815
 20
160.8408
  0
SEQEND
  0
ENDBLK
  0
BLOCK
  8
LAYER_9
  2
AIGNBL09010078
 70
64
 10
0
 20
0
 30
0
  3
AIGNBL09010078
  0
POLYLINE
  8
LAYER_9
 40
0.2469
 41
0.2469
 66
1
 10
0
 20
0
 30
0
  0
VERTEX
  8
LAYER_9
 10
87.9815
 20
160.8408
  0
VERTEX
  8
LAYER_9
 10
87.9509
 20
160.8264
  0
SEQEND
  0
ENDBLK
  0
BLOCK
  8
LAYER_9
  2
AIGNBL09010079
 70
64
 10
0
 20
0
 30
0
  3
AIGNBL09010079
  0
POLYLINE
  8
LAYER_9
 40
0.2469
 41
0.2469
 66
1
 10
0
 20
0
 30
0
  0
VERTEX
  8
LAYER_9
 10
87.9509
 20
160.8264
  0
VERTEX
  8
LAYER_9
 10
87.9202
 20
160.8126
  0
SEQEND
  0
ENDBLK
  0
BLOCK
  8
LAYER_9
  2
AIGNBL0901007A
 70
64
 10
0
 20
0
 30
0
  3
AIGNBL0901007A
  0
POLYLINE
  8
LAYER_9
 40
0.2469
 41
0.2469
 66
1
 10
0
 20
0
 30
0
  0
VERTEX
  8
LAYER_9
 10
87.9202
 20
160.8126
  0
VERTEX
  8
LAYER_9
 10
87.8892
 20
160.7995
  0
SEQEND
  0
ENDBLK
  0
BLOCK
  8
LAYER_9
  2
AIGNBL0901007B
 70
64
 10
0
 20
0
 30
0
  3
AIGNBL0901007B
  0
POLYLINE
  8
LAYER_9
 40
0.2469
 41
0.2469
 66
1
 10
0
 20
0
 30
0
  0
VERTEX
  8
LAYER_9
 10
87.8892
 20
160.7995
  0
VERTEX
  8
LAYER_9
 10
87.8582
 20
160.7871
  0
SEQEND
  0
ENDBLK
  0
BLOCK
  8
LAYER_9
  2
AIGNBL0901007C
 70
64
 10
0
 20
0
 30
0
  3
AIGNBL0901007C
  0
POLYLINE
  8
LAYER_9
 40
0.2469
 41
0.2469
 66
1
 10
0
 20
0
 30
0
  0
VERTEX
  8
LAYER_9
 10
87.8582
 20
160.7871
  0
VERTEX
  8
LAYER_9
 10
87.8269
 20
160.7755
  0
SEQEND
  0
ENDBLK
  0
BLOCK
  8
LAYER_9
  2
AIGNBL0901007D
 70
64
 10
0
 20
0
 30
0
  3
AIGNBL0901007D
  0
POLYLINE
  8
LAYER_9
 40
0.2469
 41
0.2469
 66
1
 10
0
 20
0
 30
0
  0
VERTEX
  8
LAYER_9
 10
87.8269
 20
160.7755
  0
VERTEX
  8
LAYER_9
 10
87.7955
 20
160.7647
  0
SEQEND
  0
ENDBLK
  0
BLOCK
  8
LAYER_9
  2
AIGNBL0901007E
 70
64
 10
0
 20
0
 30
0
  3
AIGNBL0901007E
  0
POLYLINE
  8
LAYER_9
 40
0.2469
 41
0.2469
 66
1
 10
0
 20
0
 30
0
  0
VERTEX
  8
LAYER_9
 10
87.7955
 20
160.7647
  0
VERTEX
  8
LAYER_9
 10
87.7642
 20
160.7547
  0
SEQEND
  0
ENDBLK
  0
BLOCK
  8
LAYER_9
  2
AIGNBL0901007F
 70
64
 10
0
 20
0
 30
0
  3
AIGNBL0901007F
  0
POLYLINE
  8
LAYER_9
 40
0.2469
 41
0.2469
 66
1
 10
0
 20
0
 30
0
  0
VERTEX
  8
LAYER_9
 10
87.7642
 20
160.7547
  0
VERTEX
  8
LAYER_9
 10
87.7328
 20
160.7454
  0
SEQEND
  0
ENDBLK
  0
BLOCK
  8
LAYER_9
  2
AIGNBL09010080
 70
64
 10
0
 20
0
 30
0
  3
AIGNBL09010080
  0
POLYLINE
  8
LAYER_9
 40
0.2469
 41
0.2469
 66
1
 10
0
 20
0
 30
0
  0
VERTEX
  8
LAYER_9
 10
87.7328
 20
160.7454
  0
VERTEX
  8
LAYER_9
 10
87.7011
 20
160.7368
  0
SEQEND
  0
ENDBLK
  0
BLOCK
  8
LAYER_9
  2
AIGNBL09010081
 70
64
 10
0
 20
0
 30
0
  3
AIGNBL09010081
  0
POLYLINE
  8
LAYER_9
 40
0.2469
 41
0.2469
 66
1
 10
0
 20
0
 30
0
  0
VERTEX
  8
LAYER_9
 10
87.7011
 20
160.7368
  0
VERTEX
  8
LAYER_9
 10
87.6698
 20
160.7289
  0
SEQEND
  0
ENDBLK
  0
BLOCK
  8
LAYER_9
  2
AIGNBL09010082
 70
64
 10
0
 20
0
 30
0
  3
AIGNBL09010082
  0
POLYLINE
  8
LAYER_9
 40
0.2469
 41
0.2469
 66
1
 10
0
 20
0
 30
0
  0
VERTEX
  8
LAYER_9
 10
87.6698
 20
160.7289
  0
VERTEX
  8
LAYER_9
 10
87.6384
 20
160.7218
  0
SEQEND
  0
ENDBLK
  0
BLOCK
  8
LAYER_9
  2
AIGNBL09010083
 70
64
 10
0
 20
0
 30
0
  3
AIGNBL09010083
  0
POLYLINE
  8
LAYER_9
 40
0.2469
 41
0.2469
 66
1
 10
0
 20
0
 30
0
  0
VERTEX
  8
LAYER_9
 10
87.6384
 20
160.7218
  0
VERTEX
  8
LAYER_9
 10
87.6067
 20
160.7153
  0
SEQEND
  0
ENDBLK
  0
BLOCK
  8
LAYER_9
  2
AIGNBL09010084
 70
64
 10
0
 20
0
 30
0
  3
AIGNBL09010084
  0
POLYLINE
  8
LAYER_9
 40
0.2469
 41
0.2469
 66
1
 10
0
 20
0
 30
0
  0
VERTEX
  8
LAYER_9
 10
87.6067
 20
160.7153
  0
VERTEX
  8
LAYER_9
 10
87.5757
 20
160.7096
  0
SEQEND
  0
ENDBLK
  0
BLOCK
  8
LAYER_9
  2
AIGNBL09010085
 70
64
 10
0
 20
0
 30
0
  3
AIGNBL09010085
  0
POLYLINE
  8
LAYER_9
 40
0.2469
 41
0.2469
 66
1
 10
0
 20
0
 30
0
  0
VERTEX
  8
LAYER_9
 10
87.5757
 20
160.7096
  0
VERTEX
  8
LAYER_9
 10
87.5447
 20
160.7046
  0
SEQEND
  0
ENDBLK
  0
BLOCK
  8
LAYER_9
  2
AIGNBL09010086
 70
64
 10
0
 20
0
 30
0
  3
AIGNBL09010086
  0
POLYLINE
  8
LAYER_9
 40
0.2469
 41
0.2469
 66
1
 10
0
 20
0
 30
0
  0
VERTEX
  8
LAYER_9
 10
87.5447
 20
160.7046
  0
VERTEX
  8
LAYER_9
 10
87.5133
 20
160.7001
  0
SEQEND
  0
ENDBLK
  0
BLOCK
  8
LAYER_9
  2
AIGNBL09010087
 70
64
 10
0
 20
0
 30
0
  3
AIGNBL09010087
  0
POLYLINE
  8
LAYER_9
 40
0.2469
 41
0.2469
 66
1
 10
0
 20
0
 30
0
  0
VERTEX
  8
LAYER_9
 10
87.5133
 20
160.7001
  0
VERTEX
  8
LAYER_9
 10
87.4823
 20
160.6965
  0
SEQEND
  0
ENDBLK
  0
BLOCK
  8
LAYER_9
  2
AIGNBL09010088
 70
64
 10
0
 20
0
 30
0
  3
AIGNBL09010088
  0
POLYLINE
  8
LAYER_9
 40
0.2469
 41
0.2469
 66
1
 10
0
 20
0
 30
0
  0
VERTEX
  8
LAYER_9
 10
87.4823
 20
160.6965
  0
VERTEX
  8
LAYER_9
 10
87.4517
 20
160.6936
  0
SEQEND
  0
ENDBLK
  0
BLOCK
  8
LAYER_9
  2
AIGNBL09010089
 70
64
 10
0
 20
0
 30
0
  3
AIGNBL09010089
  0
POLYLINE
  8
LAYER_9
 40
0.2469
 41
0.2469
 66
1
 10
0
 20
0
 30
0
  0
VERTEX
  8
LAYER_9
 10
87.4517
 20
160.6936
  0
VERTEX
  8
LAYER_9
 10
87.421
 20
160.6911
  0
SEQEND
  0
ENDBLK
  0
BLOCK
  8
LAYER_9
  2
AIGNBL0901008A
 70
64
 10
0
 20
0
 30
0
  3
AIGNBL0901008A
  0
POLYLINE
  8
LAYER_9
 40
0.2469
 41
0.2469
 66
1
 10
0
 20
0
 30
0
  0
VERTEX
  8
LAYER_9
 10
87.421
 20
160.6911
  0
VERTEX
  8
LAYER_9
 10
82.3461
 20
160.4376
  0
SEQEND
  0
ENDBLK
  0
BLOCK
  8
LAYER_9
  2
AIGNBL0901008B
 70
64
 10
0
 20
0
 30
0
  3
AIGNBL0901008B
  0
POLYLINE
  8
LAYER_9
 40
0.2469
 41
0.2469
 66
1
 10
0
 20
0
 30
0
  0
VERTEX
  8
LAYER_9
 10
82.3461
 20
160.4376
  0
VERTEX
  8
LAYER_9
 10
77.2625
 20
160.3528
  0
SEQEND
  0
ENDBLK
  0
BLOCK
  8
LAYER_9
  2
AIGNBL0901008C
 70
64
 10
0
 20
0
 30
0
  3
AIGNBL0901008C
  0
POLYLINE
  8
LAYER_9
 40
0.2469
 41
0.2469
 66
1
 10
0
 20
0
 30
0
  0
VERTEX
  8
LAYER_9
 10
77.2625
 20
160.3528
  0
VERTEX
  8
LAYER_9
 10
72.1792
 20
160.4376
  0
SEQEND
  0
ENDBLK
  0
BLOCK
  8
LAYER_9
  2
AIGNBL0901008D
 70
64
 10
0
 20
0
 30
0
  3
AIGNBL0901008D
  0
POLYLINE
  8
LAYER_9
 40
0.2469
 41
0.2469
 66
1
 10
0
 20
0
 30
0
  0
VERTEX
  8
LAYER_9
 10
72.1792
 20
160.4376
  0
VERTEX
  8
LAYER_9
 10
67.1049
 20
160.6911
  0
SEQEND
  0
ENDBLK
  0
BLOCK
  8
LAYER_9
  2
AIGNBL0901008E
 70
64
 10
0
 20
0
 30
0
  3
AIGNBL0901008E
  0
POLYLINE
  8
LAYER_9
 40
0.2469
 41
0.2469
 66
1
 10
0
 20
0
 30
0
  0
VERTEX
  8
LAYER_9
 10
67.1049
 20
160.6911
  0
VERTEX
  8
LAYER_9
 10
67.0743
 20
160.6936
  0
SEQEND
  0
ENDBLK
  0
BLOCK
  8
LAYER_9
  2
AIGNBL0901008F
 70
64
 10
0
 20
0
 30
0
  3
AIGNBL0901008F
  0
POLYLINE
  8
LAYER_9
 40
0.2469
 41
0.2469
 66
1
 10
0
 20
0
 30
0
  0
VERTEX
  8
LAYER_9
 10
67.0743
 20
160.6936
  0
VERTEX
  8
LAYER_9
 10
67.0436
 20
160.6965
  0
SEQEND
  0
ENDBLK
  0
BLOCK
  8
LAYER_9
  2
AIGNBL09010090
 70
64
 10
0
 20
0
 30
0
  3
AIGNBL09010090
  0
POLYLINE
  8
LAYER_9
 40
0.2469
 41
0.2469
 66
1
 10
0
 20
0
 30
0
  0
VERTEX
  8
LAYER_9
 10
67.0436
 20
160.6965
  0
VERTEX
  8
LAYER_9
 10
67.0126
 20
160.7001
  0
SEQEND
  0
ENDBLK
  0
BLOCK
  8
LAYER_9
  2
AIGNBL09010091
 70
64
 10
0
 20
0
 30
0
  3
AIGNBL09010091
  0
POLYLINE
  8
LAYER_9
 40
0.2469
 41
0.2469
 66
1
 10
0
 20
0
 30
0
  0
VERTEX
  8
LAYER_9
 10
67.0126
 20
160.7001
  0
VERTEX
  8
LAYER_9
 10
66.9816
 20
160.7046
  0
SEQEND
  0
ENDBLK
  0
BLOCK
  8
LAYER_9
  2
AIGNBL09010092
 70
64
 10
0
 20
0
 30
0
  3
AIGNBL09010092
  0
POLYLINE
  8
LAYER_9
 40
0.2469
 41
0.2469
 66
1
 10
0
 20
0
 30
0
  0
VERTEX
  8
LAYER_9
 10
66.9816
 20
160.7046
  0
VERTEX
  8
LAYER_9
 10
66.9503
 20
160.7096
  0
SEQEND
  0
ENDBLK
  0
BLOCK
  8
LAYER_9
  2
AIGNBL09010093
 70
64
 10
0
 20
0
 30
0
  3
AIGNBL09010093
  0
POLYLINE
  8
LAYER_9
 40
0.2469
 41
0.2469
 66
1
 10
0
 20
0
 30
0
  0
VERTEX
  8
LAYER_9
 10
66.9503
 20
160.7096
  0
VERTEX
  8
LAYER_9
 10
66.9189
 20
160.7153
  0
SEQEND
  0
ENDBLK
  0
BLOCK
  8
LAYER_9
  2
AIGNBL09010094
 70
64
 10
0
 20
0
 30
0
  3
AIGNBL09010094
  0
POLYLINE
  8
LAYER_9
 40
0.2469
 41
0.2469
 66
1
 10
0
 20
0
 30
0
  0
VERTEX
  8
LAYER_9
 10
66.9189
 20
160.7153
  0
VERTEX
  8
LAYER_9
 10
66.8876
 20
160.7218
  0
SEQEND
  0
ENDBLK
  0
BLOCK
  8
LAYER_9
  2
AIGNBL09010095
 70
64
 10
0
 20
0
 30
0
  3
AIGNBL09010095
  0
POLYLINE
  8
LAYER_9
 40
0.2469
 41
0.2469
 66
1
 10
0
 20
0
 30
0
  0
VERTEX
  8
LAYER_9
 10
66.8876
 20
160.7218
  0
VERTEX
  8
LAYER_9
 10
66.8562
 20
160.7289
  0
SEQEND
  0
ENDBLK
  0
BLOCK
  8
LAYER_9
  2
AIGNBL09010096
 70
64
 10
0
 20
0
 30
0
  3
AIGNBL09010096
  0
POLYLINE
  8
LAYER_9
 40
0.2469
 41
0.2469
 66
1
 10
0
 20
0
 30
0
  0
VERTEX
  8
LAYER_9
 10
66.8562
 20
160.7289
  0
VERTEX
  8
LAYER_9
 10
66.8245
 20
160.7368
  0
SEQEND
  0
ENDBLK
  0
BLOCK
  8
LAYER_9
  2
AIGNBL09010097
 70
64
 10
0
 20
0
 30
0
  3
AIGNBL09010097
  0
POLYLINE
  8
LAYER_9
 40
0.2469
 41
0.2469
 66
1
 10
0
 20
0
 30
0
  0
VERTEX
  8
LAYER_9
 10
66.8245
 20
160.7368
  0
VERTEX
  8
LAYER_9
 10
66.7932
 20
160.7454
  0
SEQEND
  0
ENDBLK
  0
BLOCK
  8
LAYER_9
  2
AIGNBL09010098
 70
64
 10
0
 20
0
 30
0
  3
AIGNBL09010098
  0
POLYLINE
  8
LAYER_9
 40
0.2469
 41
0.2469
 66
1
 10
0
 20
0
 30
0
  0
VERTEX
  8
LAYER_9
 10
66.7932
 20
160.7454
  0
VERTEX
  8
LAYER_9
 10
66.7618
 20
160.7547
  0
SEQEND
  0
ENDBLK
  0
BLOCK
  8
LAYER_9
  2
AIGNBL09010099
 70
64
 10
0
 20
0
 30
0
  3
AIGNBL09010099
  0
POLYLINE
  8
LAYER_9
 40
0.2469
 41
0.2469
 66
1
 10
0
 20
0
 30
0
  0
VERTEX
  8
LAYER_9
 10
66.7618
 20
160.7547
  0
VERTEX
  8
LAYER_9
 10
66.7305
 20
160.7647
  0
SEQEND
  0
ENDBLK
  0
BLOCK
  8
LAYER_9
  2
AIGNBL0901009A
 70
64
 10
0
 20
0
 30
0
  3
AIGNBL0901009A
  0
POLYLINE
  8
LAYER_9
 40
0.2469
 41
0.2469
 66
1
 10
0
 20
0
 30
0
  0
VERTEX
  8
LAYER_9
 10
66.7305
 20
160.7647
  0
VERTEX
  8
LAYER_9
 10
66.6991
 20
160.7755
  0
SEQEND
  0
ENDBLK
  0
BLOCK
  8
LAYER_9
  2
AIGNBL0901009B
 70
64
 10
0
 20
0
 30
0
  3
AIGNBL0901009B
  0
POLYLINE
  8
LAYER_9
 40
0.2469
 41
0.2469
 66
1
 10
0
 20
0
 30
0
  0
VERTEX
  8
LAYER_9
 10
66.6991
 20
160.7755
  0
VERTEX
  8
LAYER_9
 10
66.6681
 20
160.7871
  0
SEQEND
  0
ENDBLK
  0
BLOCK
  8
LAYER_9
  2
AIGNBL0901009C
 70
64
 10
0
 20
0
 30
0
  3
AIGNBL0901009C
  0
POLYLINE
  8
LAYER_9
 40
0.2469
 41
0.2469
 66
1
 10
0
 20
0
 30
0
  0
VERTEX
  8
LAYER_9
 10
66.6681
 20
160.7871
  0
VERTEX
  8
LAYER_9
 10
66.6368
 20
160.7995
  0
SEQEND
  0
ENDBLK
  0
BLOCK
  8
LAYER_9
  2
AIGNBL0901009D
 70
64
 10
0
 20
0
 30
0
  3
AIGNBL0901009D
  0
POLYLINE
  8
LAYER_9
 40
0.2469
 41
0.2469
 66
1
 10
0
 20
0
 30
0
  0
VERTEX
  8
LAYER_9
 10
66.6368
 20
160.7995
  0
VERTEX
  8
LAYER_9
 10
66.6058
 20
160.8126
  0
SEQEND
  0
ENDBLK
  0
BLOCK
  8
LAYER_9
  2
AIGNBL0901009E
 70
64
 10
0
 20
0
 30
0
  3
AIGNBL0901009E
  0
POLYLINE
  8
LAYER_9
 40
0.2469
 41
0.2469
 66
1
 10
0
 20
0
 30
0
  0
VERTEX
  8
LAYER_9
 10
66.6058
 20
160.8126
  0
VERTEX
  8
LAYER_9
 10
66.5751
 20
160.8264
  0
SEQEND
  0
ENDBLK
  0
BLOCK
  8
LAYER_9
  2
AIGNBL0901009F
 70
64
 10
0
 20
0
 30
0
  3
AIGNBL0901009F
  0
POLYLINE
  8
LAYER_9
 40
0.2469
 41
0.2469
 66
1
 10
0
 20
0
 30
0
  0
VERTEX
  8
LAYER_9
 10
66.5751
 20
160.8264
  0
VERTEX
  8
LAYER_9
 10
66.5444
 20
160.8408
  0
SEQEND
  0
ENDBLK
  0
BLOCK
  8
LAYER_9
  2
AIGNBL090100A0
 70
64
 10
0
 20
0
 30
0
  3
AIGNBL090100A0
  0
POLYLINE
  8
LAYER_9
 40
0.2469
 41
0.2469
 66
1
 10
0
 20
0
 30
0
  0
VERTEX
  8
LAYER_9
 10
66.5444
 20
160.8408
  0
VERTEX
  8
LAYER_9
 10
66.5141
 20
160.8562
  0
SEQEND
  0
ENDBLK
  0
BLOCK
  8
LAYER_9
  2
AIGNBL090100A1
 70
64
 10
0
 20
0
 30
0
  3
AIGNBL090100A1
  0
POLYLINE
  8
LAYER_9
 40
0.2469
 41
0.2469
 66
1
 10
0
 20
0
 30
0
  0
VERTEX
  8
LAYER_9
 10
66.5141
 20
160.8562
  0
VERTEX
  8
LAYER_9
 10
66.4841
 20
160.8722
  0
SEQEND
  0
ENDBLK
  0
BLOCK
  8
LAYER_9
  2
AIGNBL090100A2
 70
64
 10
0
 20
0
 30
0
  3
AIGNBL090100A2
  0
POLYLINE
  8
LAYER_9
 40
0.2469
 41
0.2469
 66
1
 10
0
 20
0
 30
0
  0
VERTEX
  8
LAYER_9
 10
66.4841
 20
160.8722
  0
VERTEX
  8
LAYER_9
 10
66.4542
 20
160.8891
  0
SEQEND
  0
ENDBLK
  0
BLOCK
  8
LAYER_9
  2
AIGNBL090100A3
 70
64
 10
0
 20
0
 30
0
  3
AIGNBL090100A3
  0
POLYLINE
  8
LAYER_9
 40
0.2469
 41
0.2469
 66
1
 10
0
 20
0
 30
0
  0
VERTEX
  8
LAYER_9
 10
66.4542
 20
160.8891
  0
VERTEX
  8
LAYER_9
 10
66.4249
 20
160.9065
  0
SEQEND
  0
ENDBLK
  0
BLOCK
  8
LAYER_9
  2
AIGNBL090100A4
 70
64
 10
0
 20
0
 30
0
  3
AIGNBL090100A4
  0
POLYLINE
  8
LAYER_9
 40
0.2469
 41
0.2469
 66
1
 10
0
 20
0
 30
0
  0
VERTEX
  8
LAYER_9
 10
66.4249
 20
160.9065
  0
VERTEX
  8
LAYER_9
 10
66.3953
 20
160.9247
  0
SEQEND
  0
ENDBLK
  0
BLOCK
  8
LAYER_9
  2
AIGNBL090100A5
 70
64
 10
0
 20
0
 30
0
  3
AIGNBL090100A5
  0
POLYLINE
  8
LAYER_9
 40
0.2469
 41
0.2469
 66
1
 10
0
 20
0
 30
0
  0
VERTEX
  8
LAYER_9
 10
66.3953
 20
160.9247
  0
VERTEX
  8
LAYER_9
 10
66.3667
 20
160.9437
  0
SEQEND
  0
ENDBLK
  0
BLOCK
  8
LAYER_9
  2
AIGNBL090100A6
 70
64
 10
0
 20
0
 30
0
  3
AIGNBL090100A6
  0
POLYLINE
  8
LAYER_9
 40
0.2469
 41
0.2469
 66
1
 10
0
 20
0
 30
0
  0
VERTEX
  8
LAYER_9
 10
66.3667
 20
160.9437
  0
VERTEX
  8
LAYER_9
 10
66.3381
 20
160.9633
  0
SEQEND
  0
ENDBLK
  0
BLOCK
  8
LAYER_9
  2
AIGNBL090100A7
 70
64
 10
0
 20
0
 30
0
  3
AIGNBL090100A7
  0
POLYLINE
  8
LAYER_9
 40
0.2469
 41
0.2469
 66
1
 10
0
 20
0
 30
0
  0
VERTEX
  8
LAYER_9
 10
66.3381
 20
160.9633
  0
VERTEX
  8
LAYER_9
 10
66.3102
 20
160.9836
  0
SEQEND
  0
ENDBLK
  0
BLOCK
  8
LAYER_9
  2
AIGNBL090100A8
 70
64
 10
0
 20
0
 30
0
  3
AIGNBL090100A8
  0
POLYLINE
  8
LAYER_9
 40
0.2469
 41
0.2469
 66
1
 10
0
 20
0
 30
0
  0
VERTEX
  8
LAYER_9
 10
66.3102
 20
160.9836
  0
VERTEX
  8
LAYER_9
 10
66.2826
 20
161.0046
  0
SEQEND
  0
ENDBLK
  0
BLOCK
  8
LAYER_9
  2
AIGNBL090100A9
 70
64
 10
0
 20
0
 30
0
  3
AIGNBL090100A9
  0
POLYLINE
  8
LAYER_9
 40
0.2469
 41
0.2469
 66
1
 10
0
 20
0
 30
0
  0
VERTEX
  8
LAYER_9
 10
66.2826
 20
161.0046
  0
VERTEX
  8
LAYER_9
 10
66.2554
 20
161.0263
  0
SEQEND
  0
ENDBLK
  0
BLOCK
  8
LAYER_9
  2
AIGNBL090100AA
 70
64
 10
0
 20
0
 30
0
  3
AIGNBL090100AA
  0
POLYLINE
  8
LAYER_9
 40
0.2469
 41
0.2469
 66
1
 10
0
 20
0
 30
0
  0
VERTEX
  8
LAYER_9
 10
66.2554
 20
161.0263
  0
VERTEX
  8
LAYER_9
 10
66.2289
 20
161.0486
  0
SEQEND
  0
ENDBLK
  0
BLOCK
  8
LAYER_9
  2
AIGNBL090100AB
 70
64
 10
0
 20
0
 30
0
  3
AIGNBL090100AB
  0
POLYLINE
  8
LAYER_9
 40
0.2469
 41
0.2469
 66
1
 10
0
 20
0
 30
0
  0
VERTEX
  8
LAYER_9
 10
66.2289
 20
161.0486
  0
VERTEX
  8
LAYER_9
 10
66.2027
 20
161.0716
  0
SEQEND
  0
ENDBLK
  0
BLOCK
  8
LAYER_9
  2
AIGNBL090100AC
 70
64
 10
0
 20
0
 30
0
  3
AIGNBL090100AC
  0
POLYLINE
  8
LAYER_9
 40
0.2469
 41
0.2469
 66
1
 10
0
 20
0
 30
0
  0
VERTEX
  8
LAYER_9
 10
66.2027
 20
161.0716
  0
VERTEX
  8
LAYER_9
 10
66.1768
 20
161.0951
  0
SEQEND
  0
ENDBLK
  0
BLOCK
  8
LAYER_9
  2
AIGNBL090100AD
 70
64
 10
0
 20
0
 30
0
  3
AIGNBL090100AD
  0
POLYLINE
  8
LAYER_9
 40
0.2469
 41
0.2469
 66
1
 10
0
 20
0
 30
0
  0
VERTEX
  8
LAYER_9
 10
66.1768
 20
161.0951
  0
VERTEX
  8
LAYER_9
 10
66.152
 20
161.1194
  0
SEQEND
  0
ENDBLK
  0
BLOCK
  8
LAYER_9
  2
AIGNBL090100AE
 70
64
 10
0
 20
0
 30
0
  3
AIGNBL090100AE
  0
POLYLINE
  8
LAYER_9
 40
0.2469
 41
0.2469
 66
1
 10
0
 20
0
 30
0
  0
VERTEX
  8
LAYER_9
 10
66.152
 20
161.1194
  0
VERTEX
  8
LAYER_9
 10
66.1272
 20
161.144
  0
SEQEND
  0
ENDBLK
  0
BLOCK
  8
LAYER_9
  2
AIGNBL090100AF
 70
64
 10
0
 20
0
 30
0
  3
AIGNBL090100AF
  0
POLYLINE
  8
LAYER_9
 40
0.2469
 41
0.2469
 66
1
 10
0
 20
0
 30
0
  0
VERTEX
  8
LAYER_9
 10
66.1272
 20
161.144
  0
VERTEX
  8
LAYER_9
 10
66.1035
 20
161.1693
  0
SEQEND
  0
ENDBLK
  0
BLOCK
  8
LAYER_9
  2
AIGNBL090100B0
 70
64
 10
0
 20
0
 30
0
  3
AIGNBL090100B0
  0
POLYLINE
  8
LAYER_9
 40
0.2469
 41
0.2469
 66
1
 10
0
 20
0
 30
0
  0
VERTEX
  8
LAYER_9
 10
66.1035
 20
161.1693
  0
VERTEX
  8
LAYER_9
 10
66.08
 20
161.1952
  0
SEQEND
  0
ENDBLK
  0
BLOCK
  8
LAYER_9
  2
AIGNBL090100B1
 70
64
 10
0
 20
0
 30
0
  3
AIGNBL090100B1
  0
POLYLINE
  8
LAYER_9
 40
0.2469
 41
0.2469
 66
1
 10
0
 20
0
 30
0
  0
VERTEX
  8
LAYER_9
 10
66.08
 20
161.1952
  0
VERTEX
  8
LAYER_9
 10
66.0576
 20
161.2215
  0
SEQEND
  0
ENDBLK
  0
BLOCK
  8
LAYER_9
  2
AIGNBL090100B2
 70
64
 10
0
 20
0
 30
0
  3
AIGNBL090100B2
  0
POLYLINE
  8
LAYER_9
 40
0.2469
 41
0.2469
 66
1
 10
0
 20
0
 30
0
  0
VERTEX
  8
LAYER_9
 10
66.0576
 20
161.2215
  0
VERTEX
  8
LAYER_9
 10
66.0356
 20
161.2482
  0
SEQEND
  0
ENDBLK
  0
BLOCK
  8
LAYER_9
  2
AIGNBL090100B3
 70
64
 10
0
 20
0
 30
0
  3
AIGNBL090100B3
  0
POLYLINE
  8
LAYER_9
 40
0.2469
 41
0.2469
 66
1
 10
0
 20
0
 30
0
  0
VERTEX
  8
LAYER_9
 10
66.0356
 20
161.2482
  0
VERTEX
  8
LAYER_9
 10
66.0139
 20
161.2756
  0
SEQEND
  0
ENDBLK
  0
BLOCK
  8
LAYER_9
  2
AIGNBL090100B4
 70
64
 10
0
 20
0
 30
0
  3
AIGNBL090100B4
  0
POLYLINE
  8
LAYER_9
 40
0.2469
 41
0.2469
 66
1
 10
0
 20
0
 30
0
  0
VERTEX
  8
LAYER_9
 10
66.0139
 20
161.2756
  0
VERTEX
  8
LAYER_9
 10
65.9932
 20
161.3033
  0
SEQEND
  0
ENDBLK
  0
BLOCK
  8
LAYER_9
  2
AIGNBL090100B5
 70
64
 10
0
 20
0
 30
0
  3
AIGNBL090100B5
  0
POLYLINE
  8
LAYER_9
 40
0.2469
 41
0.2469
 66
1
 10
0
 20
0
 30
0
  0
VERTEX
  8
LAYER_9
 10
65.9932
 20
161.3033
  0
VERTEX
  8
LAYER_9
 10
65.9729
 20
161.3314
  0
SEQEND
  0
ENDBLK
  0
BLOCK
  8
LAYER_9
  2
AIGNBL090100B6
 70
64
 10
0
 20
0
 30
0
  3
AIGNBL090100B6
  0
POLYLINE
  8
LAYER_9
 40
0.2469
 41
0.2469
 66
1
 10
0
 20
0
 30
0
  0
VERTEX
  8
LAYER_9
 10
65.9729
 20
161.3314
  0
VERTEX
  8
LAYER_9
 10
65.9536
 20
161.36
  0
SEQEND
  0
ENDBLK
  0
BLOCK
  8
LAYER_9
  2
AIGNBL090100B7
 70
64
 10
0
 20
0
 30
0
  3
AIGNBL090100B7
  0
POLYLINE
  8
LAYER_9
 40
0.2469
 41
0.2469
 66
1
 10
0
 20
0
 30
0
  0
VERTEX
  8
LAYER_9
 10
65.9536
 20
161.36
  0
VERTEX
  8
LAYER_9
 10
65.935
 20
161.3889
  0
SEQEND
  0
ENDBLK
  0
BLOCK
  8
LAYER_9
  2
AIGNBL090100B8
 70
64
 10
0
 20
0
 30
0
  3
AIGNBL090100B8
  0
POLYLINE
  8
LAYER_9
 40
0.2469
 41
0.2469
 66
1
 10
0
 20
0
 30
0
  0
VERTEX
  8
LAYER_9
 10
65.935
 20
161.3889
  0
VERTEX
  8
LAYER_9
 10
65.9171
 20
161.4181
  0
SEQEND
  0
ENDBLK
  0
BLOCK
  8
LAYER_9
  2
AIGNBL090100B9
 70
64
 10
0
 20
0
 30
0
  3
AIGNBL090100B9
  0
POLYLINE
  8
LAYER_9
 40
0.2469
 41
0.2469
 66
1
 10
0
 20
0
 30
0
  0
VERTEX
  8
LAYER_9
 10
65.9171
 20
161.4181
  0
VERTEX
  8
LAYER_9
 10
65.8999
 20
161.4477
  0
SEQEND
  0
ENDBLK
  0
BLOCK
  8
LAYER_9
  2
AIGNBL090100BA
 70
64
 10
0
 20
0
 30
0
  3
AIGNBL090100BA
  0
POLYLINE
  8
LAYER_9
 40
0.2469
 41
0.2469
 66
1
 10
0
 20
0
 30
0
  0
VERTEX
  8
LAYER_9
 10
65.8999
 20
161.4477
  0
VERTEX
  8
LAYER_9
 10
65.8833
 20
161.4775
  0
SEQEND
  0
ENDBLK
  0
BLOCK
  8
LAYER_9
  2
AIGNBL090100BB
 70
64
 10
0
 20
0
 30
0
  3
AIGNBL090100BB
  0
POLYLINE
  8
LAYER_9
 40
0.2469
 41
0.2469
 66
1
 10
0
 20
0
 30
0
  0
VERTEX
  8
LAYER_9
 10
65.8833
 20
161.4775
  0
VERTEX
  8
LAYER_9
 10
65.8675
 20
161.5076
  0
SEQEND
  0
ENDBLK
  0
BLOCK
  8
LAYER_9
  2
AIGNBL090100BC
 70
64
 10
0
 20
0
 30
0
  3
AIGNBL090100BC
  0
POLYLINE
  8
LAYER_9
 40
0.2469
 41
0.2469
 66
1
 10
0
 20
0
 30
0
  0
VERTEX
  8
LAYER_9
 10
65.8675
 20
161.5076
  0
VERTEX
  8
LAYER_9
 10
65.8527
 20
161.5379
  0
SEQEND
  0
ENDBLK
  0
BLOCK
  8
LAYER_9
  2
AIGNBL090100BD
 70
64
 10
0
 20
0
 30
0
  3
AIGNBL090100BD
  0
POLYLINE
  8
LAYER_9
 40
0.2469
 41
0.2469
 66
1
 10
0
 20
0
 30
0
  0
VERTEX
  8
LAYER_9
 10
65.8527
 20
161.5379
  0
VERTEX
  8
LAYER_9
 10
65.8385
 20
161.5686
  0
SEQEND
  0
ENDBLK
  0
BLOCK
  8
LAYER_9
  2
AIGNBL090100BE
 70
64
 10
0
 20
0
 30
0
  3
AIGNBL090100BE
  0
POLYLINE
  8
LAYER_9
 40
0.2469
 41
0.2469
 66
1
 10
0
 20
0
 30
0
  0
VERTEX
  8
LAYER_9
 10
65.8385
 20
161.5686
  0
VERTEX
  8
LAYER_9
 10
65.8248
 20
161.5993
  0
SEQEND
  0
ENDBLK
  0
BLOCK
  8
LAYER_9
  2
AIGNBL090100BF
 70
64
 10
0
 20
0
 30
0
  3
AIGNBL090100BF
  0
POLYLINE
  8
LAYER_9
 40
0.2469
 41
0.2469
 66
1
 10
0
 20
0
 30
0
  0
VERTEX
  8
LAYER_9
 10
65.8248
 20
161.5993
  0
VERTEX
  8
LAYER_9
 10
65.8123
 20
161.6303
  0
SEQEND
  0
ENDBLK
  0
BLOCK
  8
LAYER_9
  2
AIGNBL090100C0
 70
64
 10
0
 20
0
 30
0
  3
AIGNBL090100C0
  0
POLYLINE
  8
LAYER_9
 40
0.2469
 41
0.2469
 66
1
 10
0
 20
0
 30
0
  0
VERTEX
  8
LAYER_9
 10
65.8123
 20
161.6303
  0
VERTEX
  8
LAYER_9
 10
65.7999
 20
161.6613
  0
SEQEND
  0
ENDBLK
  0
BLOCK
  8
LAYER_9
  2
AIGNBL090100C1
 70
64
 10
0
 20
0
 30
0
  3
AIGNBL090100C1
  0
POLYLINE
  8
LAYER_9
 40
0.2469
 41
0.2469
 66
1
 10
0
 20
0
 30
0
  0
VERTEX
  8
LAYER_9
 10
65.7999
 20
161.6613
  0
VERTEX
  8
LAYER_9
 10
65.7889
 20
161.6925
  0
SEQEND
  0
ENDBLK
  0
BLOCK
  8
LAYER_9
  2
AIGNBL090100C2
 70
64
 10
0
 20
0
 30
0
  3
AIGNBL090100C2
  0
POLYLINE
  8
LAYER_9
 40
0.2469
 41
0.2469
 66
1
 10
0
 20
0
 30
0
  0
VERTEX
  8
LAYER_9
 10
65.7889
 20
161.6925
  0
VERTEX
  8
LAYER_9
 10
65.7782
 20
161.7236
  0
SEQEND
  0
ENDBLK
  0
BLOCK
  8
LAYER_9
  2
AIGNBL090100C3
 70
64
 10
0
 20
0
 30
0
  3
AIGNBL090100C3
  0
POLYLINE
  8
LAYER_9
 40
0.2469
 41
0.2469
 66
1
 10
0
 20
0
 30
0
  0
VERTEX
  8
LAYER_9
 10
65.7782
 20
161.7236
  0
VERTEX
  8
LAYER_9
 10
65.7683
 20
161.755
  0
SEQEND
  0
ENDBLK
  0
BLOCK
  8
LAYER_9
  2
AIGNBL090100C4
 70
64
 10
0
 20
0
 30
0
  3
AIGNBL090100C4
  0
POLYLINE
  8
LAYER_9
 40
0.2469
 41
0.2469
 66
1
 10
0
 20
0
 30
0
  0
VERTEX
  8
LAYER_9
 10
65.7683
 20
161.755
  0
VERTEX
  8
LAYER_9
 10
65.7593
 20
161.7863
  0
SEQEND
  0
ENDBLK
  0
BLOCK
  8
LAYER_9
  2
AIGNBL090100C5
 70
64
 10
0
 20
0
 30
0
  3
AIGNBL090100C5
  0
POLYLINE
  8
LAYER_9
 40
0.2469
 41
0.2469
 66
1
 10
0
 20
0
 30
0
  0
VERTEX
  8
LAYER_9
 10
65.7593
 20
161.7863
  0
VERTEX
  8
LAYER_9
 10
65.751
 20
161.8175
  0
SEQEND
  0
ENDBLK
  0
BLOCK
  8
LAYER_9
  2
AIGNBL090100C6
 70
64
 10
0
 20
0
 30
0
  3
AIGNBL090100C6
  0
POLYLINE
  8
LAYER_9
 40
0.2469
 41
0.2469
 66
1
 10
0
 20
0
 30
0
  0
VERTEX
  8
LAYER_9
 10
65.751
 20
161.8175
  0
VERTEX
  8
LAYER_9
 10
65.7434
 20
161.8489
  0
SEQEND
  0
ENDBLK
  0
BLOCK
  8
LAYER_9
  2
AIGNBL090100C7
 70
64
 10
0
 20
0
 30
0
  3
AIGNBL090100C7
  0
POLYLINE
  8
LAYER_9
 40
0.2469
 41
0.2469
 66
1
 10
0
 20
0
 30
0
  0
VERTEX
  8
LAYER_9
 10
65.7434
 20
161.8489
  0
VERTEX
  8
LAYER_9
 10
65.7366
 20
161.8802
  0
SEQEND
  0
ENDBLK
  0
BLOCK
  8
LAYER_9
  2
AIGNBL090100C8
 70
64
 10
0
 20
0
 30
0
  3
AIGNBL090100C8
  0
POLYLINE
  8
LAYER_9
 40
0.2469
 41
0.2469
 66
1
 10
0
 20
0
 30
0
  0
VERTEX
  8
LAYER_9
 10
65.7366
 20
161.8802
  0
VERTEX
  8
LAYER_9
 10
65.7304
 20
161.9114
  0
SEQEND
  0
ENDBLK
  0
BLOCK
  8
LAYER_9
  2
AIGNBL090100C9
 70
64
 10
0
 20
0
 30
0
  3
AIGNBL090100C9
  0
POLYLINE
  8
LAYER_9
 40
0.2469
 41
0.2469
 66
1
 10
0
 20
0
 30
0
  0
VERTEX
  8
LAYER_9
 10
65.7304
 20
161.9114
  0
VERTEX
  8
LAYER_9
 10
65.7248
 20
161.9426
  0
SEQEND
  0
ENDBLK
  0
BLOCK
  8
LAYER_9
  2
AIGNBL090100CA
 70
64
 10
0
 20
0
 30
0
  3
AIGNBL090100CA
  0
POLYLINE
  8
LAYER_9
 40
0.2469
 41
0.2469
 66
1
 10
0
 20
0
 30
0
  0
VERTEX
  8
LAYER_9
 10
65.7248
 20
161.9426
  0
VERTEX
  8
LAYER_9
 10
65.72
 20
161.9736
  0
SEQEND
  0
ENDBLK
  0
BLOCK
  8
LAYER_9
  2
AIGNBL090100CB
 70
64
 10
0
 20
0
 30
0
  3
AIGNBL090100CB
  0
POLYLINE
  8
LAYER_9
 40
0.2469
 41
0.2469
 66
1
 10
0
 20
0
 30
0
  0
VERTEX
  8
LAYER_9
 10
65.72
 20
161.9736
  0
VERTEX
  8
LAYER_9
 10
65.7159
 20
162.0044
  0
SEQEND
  0
ENDBLK
  0
BLOCK
  8
LAYER_9
  2
AIGNBL090100CC
 70
64
 10
0
 20
0
 30
0
  3
AIGNBL090100CC
  0
POLYLINE
  8
LAYER_9
 40
0.2469
 41
0.2469
 66
1
 10
0
 20
0
 30
0
  0
VERTEX
  8
LAYER_9
 10
65.7159
 20
162.0044
  0
VERTEX
  8
LAYER_9
 10
65.7124
 20
162.0352
  0
SEQEND
  0
ENDBLK
  0
BLOCK
  8
LAYER_9
  2
AIGNBL090100CD
 70
64
 10
0
 20
0
 30
0
  3
AIGNBL090100CD
  0
POLYLINE
  8
LAYER_9
 40
0.2469
 41
0.2469
 66
1
 10
0
 20
0
 30
0
  0
VERTEX
  8
LAYER_9
 10
65.7124
 20
162.0352
  0
VERTEX
  8
LAYER_9
 10
65.7097
 20
162.0657
  0
SEQEND
  0
ENDBLK
  0
BLOCK
  8
LAYER_9
  2
AIGNBL090100CE
 70
64
 10
0
 20
0
 30
0
  3
AIGNBL090100CE
  0
POLYLINE
  8
LAYER_9
 40
0.2469
 41
0.2469
 66
1
 10
0
 20
0
 30
0
  0
VERTEX
  8
LAYER_9
 10
65.7097
 20
162.0657
  0
VERTEX
  8
LAYER_9
 10
65.5519
 20
164.0002
  0
SEQEND
  0
ENDBLK
  0
BLOCK
  8
LAYER_9
  2
AIGNBL090100CF
 70
64
 10
0
 20
0
 30
0
  3
AIGNBL090100CF
  0
POLYLINE
  8
LAYER_9
 40
0.2469
 41
0.2469
 66
1
 10
0
 20
0
 30
0
  0
VERTEX
  8
LAYER_9
 10
65.2163
 20
171.847
 42
0.01942680589
  0
VERTEX
  8
LAYER_9
 10
65.5519
 20
164.0002
  0
SEQEND
  0
ENDBLK
  0
BLOCK
  8
LAYER_9
  2
AIGNBL090100D0
 70
64
 10
0
 20
0
 30
0
  3
AIGNBL090100D0
  0
POLYLINE
  8
LAYER_9
 40
0.2469
 41
0.2469
 66
1
 10
0
 20
0
 30
0
  0
VERTEX
  8
LAYER_9
 10
66.7163
 20
174.3528
 42
0.4142092008
  0
VERTEX
  8
LAYER_9
 10
64.2166
 20
171.8529
  0
VERTEX
  8
LAYER_9
 10
64.2166
 20
171.8431
  0
SEQEND
  0
ENDBLK
  0
BLOCK
  8
LAYER_9
  2
AIGNBL090100D1
 70
64
 10
0
 20
0
 30
0
  3
AIGNBL090100D1
  0
POLYLINE
  8
LAYER_9
 40
0.2469
 41
0.2469
 66
1
 10
0
 20
0
 30
0
  0
VERTEX
  8
LAYER_9
 10
66.7163
 20
174.3528
  0
VERTEX
  8
LAYER_9
 10
87.8093
 20
174.3528
  0
SEQEND
  0
ENDBLK
  0
BLOCK
  8
LAYER_9
  2
AIGNBL090100D2
 70
64
 10
0
 20
0
 30
0
  3
AIGNBL090100D2
  0
POLYLINE
  8
LAYER_9
 40
0.2469
 41
0.2469
 66
1
 10
0
 20
0
 30
0
  0
VERTEX
  8
LAYER_9
 10
90.3094
 20
171.8431
 42
0.4142451309
  0
VERTEX
  8
LAYER_9
 10
87.8193
 20
174.3528
  0
VERTEX
  8
LAYER_9
 10
87.8093
 20
174.3528
  0
SEQEND
  0
ENDBLK
  0
BLOCK
  8
LAYER_9
  2
AIGNBL090100D3
 70
64
 10
0
 20
0
 30
0
  3
AIGNBL090100D3
  0
POLYLINE
  8
LAYER_9
 40
0.2469
 41
0.2469
 66
1
 10
0
 20
0
 30
0
  0
VERTEX
  8
LAYER_9
 10
89.9707
 20
163.9188
 42
0.01940125335
  0
VERTEX
  8
LAYER_9
 10
90.3094
 20
171.8431
  0
SEQEND
  0
ENDBLK
  0
BLOCK
  8
LAYER_9
  2
AIGNBL090100D4
 70
64
 10
0
 20
0
 30
0
  3
AIGNBL090100D4
  0
POLYLINE
  8
LAYER_9
 40
0.2469
 41
0.2469
 66
1
 10
0
 20
0
 30
0
  0
VERTEX
  8
LAYER_9
 10
89.9707
 20
163.9188
  0
VERTEX
  8
LAYER_9
 10
89.813
 20
161.9844
  0
SEQEND
  0
ENDBLK
  0
BLOCK
  8
LAYER_9
  2
AIGNBL090100D5
 70
64
 10
0
 20
0
 30
0
  3
AIGNBL090100D5
  0
POLYLINE
  8
LAYER_9
 40
0.2469
 41
0.2469
 66
1
 10
0
 20
0
 30
0
  0
VERTEX
  8
LAYER_9
 10
87.4875
 20
159.6934
 42
0.3715342516
  0
VERTEX
  8
LAYER_9
 10
89.813
 20
161.9844
  0
SEQEND
  0
ENDBLK
  0
BLOCK
  8
LAYER_9
  2
AIGNBL090100D6
 70
64
 10
0
 20
0
 30
0
  3
AIGNBL090100D6
  0
POLYLINE
  8
LAYER_9
 40
0.2469
 41
0.2469
 66
1
 10
0
 20
0
 30
0
  0
VERTEX
  8
LAYER_9
 10
67.0381
 20
159.6934
 42
0.03330645922
  0
VERTEX
  8
LAYER_9
 10
87.4875
 20
159.6934
  0
SEQEND
  0
ENDBLK
  0
BLOCK
  8
LAYER_9
  2
AIGNBL090100D7
 70
64
 10
0
 20
0
 30
0
  3
AIGNBL090100D7
  0
POLYLINE
  8
LAYER_9
 40
0.2469
 41
0.2469
 66
1
 10
0
 20
0
 30
0
  0
VERTEX
  8
LAYER_9
 10
64.7127
 20
161.9844
 42
0.3714519435
  0
VERTEX
  8
LAYER_9
 10
67.0381
 20
159.6934
  0
SEQEND
  0
ENDBLK
  0
BLOCK
  8
LAYER_9
  2
AIGNBL090100D8
 70
64
 10
0
 20
0
 30
0
  3
AIGNBL090100D8
  0
POLYLINE
  8
LAYER_9
 40
0.2469
 41
0.2469
 66
1
 10
0
 20
0
 30
0
  0
VERTEX
  8
LAYER_9
 10
64.7127
 20
161.9844
  0
VERTEX
  8
LAYER_9
 10
64.5549
 20
163.9188
  0
SEQEND
  0
ENDBLK
  0
BLOCK
  8
LAYER_9
  2
AIGNBL090100D9
 70
64
 10
0
 20
0
 30
0
  3
AIGNBL090100D9
  0
POLYLINE
  8
LAYER_9
 40
0.2469
 41
0.2469
 66
1
 10
0
 20
0
 30
0
  0
VERTEX
  8
LAYER_9
 10
64.2166
 20
171.8431
 42
0.0193687787
  0
VERTEX
  8
LAYER_9
 10
64.5549
 20
163.9188
  0
SEQEND
  0
ENDBLK
  0
BLOCK
  8
LAYER_9
  2
AIGNBL090100DA
 70
64
 10
0
 20
0
 30
0
  3
AIGNBL090100DA
  0
POLYLINE
  8
LAYER_9
 40
0.2469
 41
0.2469
 66
1
 10
0
 20
0
 30
0
 70
1
  0
VERTEX
  8
LAYER_9
 10
80.9673
 20
168.3529
 42
0.4142068912
  0
VERTEX
  8
LAYER_9
 10
77.2632
 20
172.0575
 42
0.4142137753
  0
VERTEX
  8
LAYER_9
 10
73.5583
 20
168.3529
 42
0.4142202333
  0
VERTEX
  8
LAYER_9
 10
77.2632
 20
164.6483
 42
0.41421335
  0
SEQEND
  0
ENDBLK
  0
BLOCK
  8
LAYER_9
  2
AIGNBL090100DB
 70
64
 10
0
 20
0
 30
0
  3
AIGNBL090100DB
  0
POLYLINE
  8
LAYER_9
 40
0.2469
 41
0.2469
 66
1
 10
0
 20
0
 30
0
 70
1
  0
VERTEX
  8
LAYER_9
 10
79.5156
 20
168.3529
 42
0.4142025916
  0
VERTEX
  8
LAYER_9
 10
77.2632
 20
170.6056
 42
0.414213913
  0
VERTEX
  8
LAYER_9
 10
75.0101
 20
168.3529
 42
0.414224532
  0
VERTEX
  8
LAYER_9
 10
77.2632
 20
166.1001
 42
0.4142132132
  0
SEQEND
  0
ENDBLK
  0
BLOCK
  8
LAYER_9
  2
AIGNBL090100DC
 70
64
 10
0
 20
0
 30
0
  3
AIGNBL090100DC
  0
POLYLINE
  8
LAYER_9
 40
0.2469
 41
0.2469
 66
1
 10
0
 20
0
 30
0
  0
VERTEX
  8
LAYER_9
 10
64.2028
 20
184.3529
  0
VERTEX
  8
LAYER_9
 10
90.3228
 20
184.3529
  0
SEQEND
  0
ENDBLK
  0
BLOCK
  8
LAYER_9
  2
AIGNBL090100DD
 70
64
 10
0
 20
0
 30
0
  3
AIGNBL090100DD
  0
POLYLINE
  8
LAYER_9
 40
0.2469
 41
0.2469
 66
1
 10
0
 20
0
 30
0
  0
VERTEX
  8
LAYER_9
 10
64.2028
 20
184.3529
 42
0.2499875169
  0
VERTEX
  8
LAYER_9
 10
62.1468
 20
181.1839
  0
SEQEND
  0
ENDBLK
  0
BLOCK
  8
LAYER_9
  2
AIGNBL090100DE
 70
64
 10
0
 20
0
 30
0
  3
AIGNBL090100DE
  0
POLYLINE
  8
LAYER_9
 40
0.2469
 41
0.2469
 66
1
 10
0
 20
0
 30
0
  0
VERTEX
  8
LAYER_9
 10
62.1468
 20
181.1839
 42
0.04292923134
  0
VERTEX
  8
LAYER_9
 10
62.1468
 20
163.3082
  0
SEQEND
  0
ENDBLK
  0
BLOCK
  8
LAYER_9
  2
AIGNBL090100DF
 70
64
 10
0
 20
0
 30
0
  3
AIGNBL090100DF
  0
POLYLINE
  8
LAYER_9
 40
0.2469
 41
0.2469
 66
1
 10
0
 20
0
 30
0
  0
VERTEX
  8
LAYER_9
 10
62.1468
 20
163.3082
  0
VERTEX
  8
LAYER_9
 10
62.3101
 20
161.4069
  0
SEQEND
  0
ENDBLK
  0
BLOCK
  8
LAYER_9
  2
AIGNBL090100E0
 70
64
 10
0
 20
0
 30
0
  3
AIGNBL090100E0
  0
POLYLINE
  8
LAYER_9
 40
0.2469
 41
0.2469
 66
1
 10
0
 20
0
 30
0
  0
VERTEX
  8
LAYER_9
 10
62.3101
 20
161.4069
 42
0.3691614993
  0
VERTEX
  8
LAYER_9
 10
66.0139
 20
157.7595
  0
SEQEND
  0
ENDBLK
  0
BLOCK
  8
LAYER_9
  2
AIGNBL090100E1
 70
64
 10
0
 20
0
 30
0
  3
AIGNBL090100E1
  0
POLYLINE
  8
LAYER_9
 40
0.2469
 41
0.2469
 66
1
 10
0
 20
0
 30
0
  0
VERTEX
  8
LAYER_9
 10
66.0139
 20
157.7595
  0
VERTEX
  8
LAYER_9
 10
66.3091
 20
157.7387
  0
SEQEND
  0
ENDBLK
  0
BLOCK
  8
LAYER_9
  2
AIGNBL090100E2
 70
64
 10
0
 20
0
 30
0
  3
AIGNBL090100E2
  0
POLYLINE
  8
LAYER_9
 40
0.2469
 41
0.2469
 66
1
 10
0
 20
0
 30
0
  0
VERTEX
  8
LAYER_9
 10
66.3091
 20
157.7387
 42
0.03520672351
  0
VERTEX
  8
LAYER_9
 10
88.2165
 20
157.7387
  0
SEQEND
  0
ENDBLK
  0
BLOCK
  8
LAYER_9
  2
AIGNBL090100E3
 70
64
 10
0
 20
0
 30
0
  3
AIGNBL090100E3
  0
POLYLINE
  8
LAYER_9
 40
0.2469
 41
0.2469
 66
1
 10
0
 20
0
 30
0
  0
VERTEX
  8
LAYER_9
 10
88.2165
 20
157.7387
  0
VERTEX
  8
LAYER_9
 10
88.4935
 20
157.7582
  0
SEQEND
  0
ENDBLK
  0
BLOCK
  8
LAYER_9
  2
AIGNBL090100E4
 70
64
 10
0
 20
0
 30
0
  3
AIGNBL090100E4
  0
POLYLINE
  8
LAYER_9
 40
0.2469
 41
0.2469
 66
1
 10
0
 20
0
 30
0
  0
VERTEX
  8
LAYER_9
 10
88.4935
 20
157.7582
 42
0.3638229497
  0
VERTEX
  8
LAYER_9
 10
92.1901
 20
161.3299
  0
SEQEND
  0
ENDBLK
  0
BLOCK
  8
LAYER_9
  2
AIGNBL090100E5
 70
64
 10
0
 20
0
 30
0
  3
AIGNBL090100E5
  0
POLYLINE
  8
LAYER_9
 40
0.2469
 41
0.2469
 66
1
 10
0
 20
0
 30
0
  0
VERTEX
  8
LAYER_9
 10
92.1901
 20
161.3299
 42
0.04767044773
  0
VERTEX
  8
LAYER_9
 10
92.3795
 20
181.1839
  0
SEQEND
  0
ENDBLK
  0
BLOCK
  8
LAYER_9
  2
AIGNBL090100E6
 70
64
 10
0
 20
0
 30
0
  3
AIGNBL090100E6
  0
POLYLINE
  8
LAYER_9
 40
0.2469
 41
0.2469
 66
1
 10
0
 20
0
 30
0
  0
VERTEX
  8
LAYER_9
 10
92.3795
 20
181.1839
 42
0.2498525476
  0
VERTEX
  8
LAYER_9
 10
90.3228
 20
184.3529
  0
SEQEND
  0
ENDBLK
  0
BLOCK
  8
LAYER_9
  2
AIGNBL090100E7
 70
64
 10
0
 20
0
 30
0
  3
AIGNBL090100E7
  0
POLYLINE
  8
LAYER_9
 40
0.2469
 41
0.2469
 66
1
 10
0
 20
0
 30
0
  0
VERTEX
  8
LAYER_9
 10
166.5669
 20
175.5517
 42
0.3627145017
  0
VERTEX
  8
LAYER_9
 10
166.4264
 20
175.8518
  0
SEQEND
  0
ENDBLK
  0
BLOCK
  8
LAYER_9
  2
AIGNBL090100E8
 70
64
 10
0
 20
0
 30
0
  3
AIGNBL090100E8
  0
POLYLINE
  8
LAYER_9
 40
0.2469
 41
0.2469
 66
1
 10
0
 20
0
 30
0
  0
VERTEX
  8
LAYER_9
 10
166.5669
 20
175.5517
  0
VERTEX
  8
LAYER_9
 10
166.5276
 20
175.3654
  0
SEQEND
  0
ENDBLK
  0
BLOCK
  8
LAYER_9
  2
AIGNBL090100E9
 70
64
 10
0
 20
0
 30
0
  3
AIGNBL090100E9
  0
POLYLINE
  8
LAYER_9
 40
0.2469
 41
0.2469
 66
1
 10
0
 20
0
 30
0
  0
VERTEX
  8
LAYER_9
 10
166.5276
 20
175.3654
  0
VERTEX
  8
LAYER_9
 10
166.3971
 20
174.3528
  0
SEQEND
  0
ENDBLK
  0
BLOCK
  8
LAYER_9
  2
AIGNBL090100EA
 70
64
 10
0
 20
0
 30
0
  3
AIGNBL090100EA
  0
POLYLINE
  8
LAYER_9
 40
0.2469
 41
0.2469
 66
1
 10
0
 20
0
 30
0
  0
VERTEX
  8
LAYER_9
 10
166.3971
 20
174.3528
  0
VERTEX
  8
LAYER_9
 10
165.1269
 20
174.3528
  0
SEQEND
  0
ENDBLK
  0
BLOCK
  8
LAYER_9
  2
AIGNBL090100EB
 70
64
 10
0
 20
0
 30
0
  3
AIGNBL090100EB
  0
POLYLINE
  8
LAYER_9
 40
0.2469
 41
0.2469
 66
1
 10
0
 20
0
 30
0
  0
VERTEX
  8
LAYER_9
 10
163.1618
 20
175.9806
 42
0.3604236796
  0
VERTEX
  8
LAYER_9
 10
165.1269
 20
174.3528
  0
SEQEND
  0
ENDBLK
  0
BLOCK
  8
LAYER_9
  2
AIGNBL090100EC
 70
64
 10
0
 20
0
 30
0
  3
AIGNBL090100EC
  0
POLYLINE
  8
LAYER_9
 40
0.2469
 41
0.2469
 66
1
 10
0
 20
0
 30
0
  0
VERTEX
  8
LAYER_9
 10
163.1618
 20
175.9806
  0
VERTEX
  8
LAYER_9
 10
162.5486
 20
179.2156
  0
SEQEND
  0
ENDBLK
  0
BLOCK
  8
LAYER_9
  2
AIGNBL090100ED
 70
64
 10
0
 20
0
 30
0
  3
AIGNBL090100ED
  0
POLYLINE
  8
LAYER_9
 40
0.2469
 41
0.2469
 66
1
 10
0
 20
0
 30
0
  0
VERTEX
  8
LAYER_9
 10
162.5486
 20
179.2156
 42
0.2828310167
  0
VERTEX
  8
LAYER_9
 10
161.1368
 20
180.7673
  0
SEQEND
  0
ENDBLK
  0
BLOCK
  8
LAYER_9
  2
AIGNBL090100EE
 70
64
 10
0
 20
0
 30
0
  3
AIGNBL090100EE
  0
POLYLINE
  8
LAYER_9
 40
0.2469
 41
0.2469
 66
1
 10
0
 20
0
 30
0
  0
VERTEX
  8
LAYER_9
 10
161.1368
 20
180.7673
  0
VERTEX
  8
LAYER_9
 10
160.8894
 20
183.3531
  0
SEQEND
  0
ENDBLK
  0
BLOCK
  8
LAYER_9
  2
AIGNBL090100EF
 70
64
 10
0
 20
0
 30
0
  3
AIGNBL090100EF
  0
POLYLINE
  8
LAYER_9
 40
0.2469
 41
0.2469
 66
1
 10
0
 20
0
 30
0
  0
VERTEX
  8
LAYER_9
 10
160.8894
 20
183.3531
  0
VERTEX
  8
LAYER_9
 10
161.4782
 20
183.3531
  0
SEQEND
  0
ENDBLK
  0
BLOCK
  8
LAYER_9
  2
AIGNBL090100F0
 70
64
 10
0
 20
0
 30
0
  3
AIGNBL090100F0
  0
POLYLINE
  8
LAYER_9
 40
0.2469
 41
0.2469
 66
1
 10
0
 20
0
 30
0
  0
VERTEX
  8
LAYER_9
 10
161.4782
 20
183.3531
  0
VERTEX
  8
LAYER_9
 10
161.5164
 20
183.173
  0
SEQEND
  0
ENDBLK
  0
BLOCK
  8
LAYER_9
  2
AIGNBL090100F1
 70
64
 10
0
 20
0
 30
0
  3
AIGNBL090100F1
  0
POLYLINE
  8
LAYER_9
 40
0.2469
 41
0.2469
 66
1
 10
0
 20
0
 30
0
  0
VERTEX
  8
LAYER_9
 10
161.5164
 20
183.173
 42
0.2876022247
  0
VERTEX
  8
LAYER_9
 10
162.6278
 20
182.0275
  0
SEQEND
  0
ENDBLK
  0
BLOCK
  8
LAYER_9
  2
AIGNBL090100F2
 70
64
 10
0
 20
0
 30
0
  3
AIGNBL090100F2
  0
POLYLINE
  8
LAYER_9
 40
0.2469
 41
0.2469
 66
1
 10
0
 20
0
 30
0
  0
VERTEX
  8
LAYER_9
 10
162.6278
 20
182.0275
  0
VERTEX
  8
LAYER_9
 10
162.8703
 20
180.4558
  0
SEQEND
  0
ENDBLK
  0
BLOCK
  8
LAYER_9
  2
AIGNBL090100F3
 70
64
 10
0
 20
0
 30
0
  3
AIGNBL090100F3
  0
POLYLINE
  8
LAYER_9
 40
0.2469
 41
0.2469
 66
1
 10
0
 20
0
 30
0
  0
VERTEX
  8
LAYER_9
 10
162.8703
 20
180.4558
 42
0.2576445909
  0
VERTEX
  8
LAYER_9
 10
166.4264
 20
175.8518
  0
SEQEND
  0
ENDBLK
  0
BLOCK
  8
LAYER_9
  2
AIGNBL090100F4
 70
64
 10
0
 20
0
 30
0
  3
AIGNBL090100F4
  0
POLYLINE
  8
LAYER_9
 40
0.2469
 41
0.2469
 66
1
 10
0
 20
0
 30
0
  0
VERTEX
  8
LAYER_9
 10
160.3409
 20
184.3529
  0
VERTEX
  8
LAYER_9
 10
161.8812
 20
184.3529
  0
SEQEND
  0
ENDBLK
  0
BLOCK
  8
LAYER_9
  2
AIGNBL090100F5
 70
64
 10
0
 20
0
 30
0
  3
AIGNBL090100F5
  0
POLYLINE
  8
LAYER_9
 40
0.2469
 41
0.2469
 66
1
 10
0
 20
0
 30
0
  0
VERTEX
  8
LAYER_9
 10
162.3722
 20
183.9557
 42
0.353766718
  0
VERTEX
  8
LAYER_9
 10
161.8812
 20
184.3529
  0
SEQEND
  0
ENDBLK
  0
BLOCK
  8
LAYER_9
  2
AIGNBL090100F6
 70
64
 10
0
 20
0
 30
0
  3
AIGNBL090100F6
  0
POLYLINE
  8
LAYER_9
 40
0.2469
 41
0.2469
 66
1
 10
0
 20
0
 30
0
  0
VERTEX
  8
LAYER_9
 10
162.3722
 20
183.9557
  0
VERTEX
  8
LAYER_9
 10
162.4945
 20
183.3814
  0
SEQEND
  0
ENDBLK
  0
BLOCK
  8
LAYER_9
  2
AIGNBL090100F7
 70
64
 10
0
 20
0
 30
0
  3
AIGNBL090100F7
  0
POLYLINE
  8
LAYER_9
 40
0.2469
 41
0.2469
 66
1
 10
0
 20
0
 30
0
  0
VERTEX
  8
LAYER_9
 10
162.4945
 20
183.3814
 42
0.3408617671
  0
VERTEX
  8
LAYER_9
 10
162.9854
 20
182.9845
  0
SEQEND
  0
ENDBLK
  0
BLOCK
  8
LAYER_9
  2
AIGNBL090100F8
 70
64
 10
0
 20
0
 30
0
  3
AIGNBL090100F8
  0
POLYLINE
  8
LAYER_9
 40
0.2469
 41
0.2469
 66
1
 10
0
 20
0
 30
0
  0
VERTEX
  8
LAYER_9
 10
162.9854
 20
182.9845
  0
VERTEX
  8
LAYER_9
 10
163.0615
 20
182.9845
  0
SEQEND
  0
ENDBLK
  0
BLOCK
  8
LAYER_9
  2
AIGNBL090100F9
 70
64
 10
0
 20
0
 30
0
  3
AIGNBL090100F9
  0
POLYLINE
  8
LAYER_9
 40
0.2469
 41
0.2469
 66
1
 10
0
 20
0
 30
0
  0
VERTEX
  8
LAYER_9
 10
163.5573
 20
182.5594
 42
0.3698993554
  0
VERTEX
  8
LAYER_9
 10
163.0615
 20
182.9845
  0
SEQEND
  0
ENDBLK
  0
BLOCK
  8
LAYER_9
  2
AIGNBL090100FA
 70
64
 10
0
 20
0
 30
0
  3
AIGNBL090100FA
  0
POLYLINE
  8
LAYER_9
 40
0.2469
 41
0.2469
 66
1
 10
0
 20
0
 30
0
  0
VERTEX
  8
LAYER_9
 10
163.5573
 20
182.5594
  0
VERTEX
  8
LAYER_9
 10
163.8587
 20
180.6081
  0
SEQEND
  0
ENDBLK
  0
BLOCK
  8
LAYER_9
  2
AIGNBL090100FB
 70
64
 10
0
 20
0
 30
0
  3
AIGNBL090100FB
  0
POLYLINE
  8
LAYER_9
 40
0.2469
 41
0.2469
 66
1
 10
0
 20
0
 30
0
  0
VERTEX
  8
LAYER_9
 10
163.8587
 20
180.6081
 42
0.2908342894
  0
VERTEX
  8
LAYER_9
 10
167.4058
 20
176.5587
  0
SEQEND
  0
ENDBLK
  0
BLOCK
  8
LAYER_9
  2
AIGNBL090100FC
 70
64
 10
0
 20
0
 30
0
  3
AIGNBL090100FC
  0
POLYLINE
  8
LAYER_9
 40
0.2469
 41
0.2469
 66
1
 10
0
 20
0
 30
0
  0
VERTEX
  8
LAYER_9
 10
167.4058
 20
176.5587
  0
VERTEX
  8
LAYER_9
 10
171.6298
 20
175.3199
  0
SEQEND
  0
ENDBLK
  0
BLOCK
  8
LAYER_9
  2
AIGNBL090100FD
 70
64
 10
0
 20
0
 30
0
  3
AIGNBL090100FD
  0
POLYLINE
  8
LAYER_9
 40
0.2469
 41
0.2469
 66
1
 10
0
 20
0
 30
0
  0
VERTEX
  8
LAYER_9
 10
171.6298
 20
175.3199
  0
VERTEX
  8
LAYER_9
 10
173.0816
 20
173.7679
  0
SEQEND
  0
ENDBLK
  0
BLOCK
  8
LAYER_9
  2
AIGNBL090100FE
 70
64
 10
0
 20
0
 30
0
  3
AIGNBL090100FE
  0
POLYLINE
  8
LAYER_9
 40
0.2469
 41
0.2469
 66
1
 10
0
 20
0
 30
0
  0
VERTEX
  8
LAYER_9
 10
173.0816
 20
173.7679
  0
VERTEX
  8
LAYER_9
 10
173.0816
 20
170.4478
  0
SEQEND
  0
ENDBLK
  0
BLOCK
  8
LAYER_9
  2
AIGNBL090100FF
 70
64
 10
0
 20
0
 30
0
  3
AIGNBL090100FF
  0
POLYLINE
  8
LAYER_9
 40
0.2469
 41
0.2469
 66
1
 10
0
 20
0
 30
0
  0
VERTEX
  8
LAYER_9
 10
173.0816
 20
170.4478
  0
VERTEX
  8
LAYER_9
 10
172.0787
 20
170.4478
  0
SEQEND
  0
ENDBLK
  0
BLOCK
  8
LAYER_9
  2
AIGNBL09010100
 70
64
 10
0
 20
0
 30
0
  3
AIGNBL09010100
  0
POLYLINE
  8
LAYER_9
 40
0.2469
 41
0.2469
 66
1
 10
0
 20
0
 30
0
  0
VERTEX
  8
LAYER_9
 10
172.0787
 20
170.4478
  0
VERTEX
  8
LAYER_9
 10
172.0784
 20
173.3713
  0
SEQEND
  0
ENDBLK
  0
BLOCK
  8
LAYER_9
  2
AIGNBL09010101
 70
64
 10
0
 20
0
 30
0
  3
AIGNBL09010101
  0
POLYLINE
  8
LAYER_9
 40
0.2469
 41
0.2469
 66
1
 10
0
 20
0
 30
0
  0
VERTEX
  8
LAYER_9
 10
172.0784
 20
173.3713
  0
VERTEX
  8
LAYER_9
 10
171.0841
 20
174.4345
  0
SEQEND
  0
ENDBLK
  0
BLOCK
  8
LAYER_9
  2
AIGNBL09010102
 70
64
 10
0
 20
0
 30
0
  3
AIGNBL09010102
  0
POLYLINE
  8
LAYER_9
 40
0.2469
 41
0.2469
 66
1
 10
0
 20
0
 30
0
  0
VERTEX
  8
LAYER_9
 10
171.0841
 20
174.4345
  0
VERTEX
  8
LAYER_9
 10
167.7748
 20
175.4046
  0
SEQEND
  0
ENDBLK
  0
BLOCK
  8
LAYER_9
  2
AIGNBL09010103
 70
64
 10
0
 20
0
 30
0
  3
AIGNBL09010103
  0
POLYLINE
  8
LAYER_9
 40
0.2469
 41
0.2469
 66
1
 10
0
 20
0
 30
0
  0
VERTEX
  8
LAYER_9
 10
167.7748
 20
175.4046
 42
0.3941296627
  0
VERTEX
  8
LAYER_9
 10
167.526
 20
175.2685
  0
VERTEX
  8
LAYER_9
 10
167.5195
 20
175.2379
  0
SEQEND
  0
ENDBLK
  0
BLOCK
  8
LAYER_9
  2
AIGNBL09010104
 70
64
 10
0
 20
0
 30
0
  3
AIGNBL09010104
  0
POLYLINE
  8
LAYER_9
 40
0.2469
 41
0.2469
 66
1
 10
0
 20
0
 30
0
  0
VERTEX
  8
LAYER_9
 10
167.5195
 20
175.2379
  0
VERTEX
  8
LAYER_9
 10
167.3049
 20
173.5711
  0
SEQEND
  0
ENDBLK
  0
BLOCK
  8
LAYER_9
  2
AIGNBL09010105
 70
64
 10
0
 20
0
 30
0
  3
AIGNBL09010105
  0
POLYLINE
  8
LAYER_9
 40
0.2469
 41
0.2469
 66
1
 10
0
 20
0
 30
0
  0
VERTEX
  8
LAYER_9
 10
167.0568
 20
173.3527
 42
0.3601880757
  0
VERTEX
  8
LAYER_9
 10
167.3049
 20
173.5711
  0
SEQEND
  0
ENDBLK
  0
BLOCK
  8
LAYER_9
  2
AIGNBL09010106
 70
64
 10
0
 20
0
 30
0
  3
AIGNBL09010106
  0
POLYLINE
  8
LAYER_9
 40
0.2469
 41
0.2469
 66
1
 10
0
 20
0
 30
0
  0
VERTEX
  8
LAYER_9
 10
167.0568
 20
173.3527
  0
VERTEX
  8
LAYER_9
 10
165.1272
 20
173.3527
  0
SEQEND
  0
ENDBLK
  0
BLOCK
  8
LAYER_9
  2
AIGNBL09010107
 70
64
 10
0
 20
0
 30
0
  3
AIGNBL09010107
  0
POLYLINE
  8
LAYER_9
 40
0.2469
 41
0.2469
 66
1
 10
0
 20
0
 30
0
  0
VERTEX
  8
LAYER_9
 10
162.1792
 20
175.7943
 42
0.3604367918
  0
VERTEX
  8
LAYER_9
 10
165.1272
 20
173.3527
  0
SEQEND
  0
ENDBLK
  0
BLOCK
  8
LAYER_9
  2
AIGNBL09010108
 70
64
 10
0
 20
0
 30
0
  3
AIGNBL09010108
  0
POLYLINE
  8
LAYER_9
 40
0.2469
 41
0.2469
 66
1
 10
0
 20
0
 30
0
  0
VERTEX
  8
LAYER_9
 10
162.1792
 20
175.7943
  0
VERTEX
  8
LAYER_9
 10
161.566
 20
179.0296
  0
SEQEND
  0
ENDBLK
  0
BLOCK
  8
LAYER_9
  2
AIGNBL09010109
 70
64
 10
0
 20
0
 30
0
  3
AIGNBL09010109
  0
POLYLINE
  8
LAYER_9
 40
0.2469
 41
0.2469
 66
1
 10
0
 20
0
 30
0
  0
VERTEX
  8
LAYER_9
 10
161.566
 20
179.0296
 42
0.3422667061
  0
VERTEX
  8
LAYER_9
 10
160.6448
 20
179.8443
  0
SEQEND
  0
ENDBLK
  0
BLOCK
  8
LAYER_9
  2
AIGNBL0901010A
 70
64
 10
0
 20
0
 30
0
  3
AIGNBL0901010A
  0
POLYLINE
  8
LAYER_9
 40
0.2469
 41
0.2469
 66
1
 10
0
 20
0
 30
0
  0
VERTEX
  8
LAYER_9
 10
160.1773
 20
180.2973
 42
0.3681884187
  0
VERTEX
  8
LAYER_9
 10
160.6448
 20
179.8443
  0
SEQEND
  0
ENDBLK
  0
BLOCK
  8
LAYER_9
  2
AIGNBL0901010B
 70
64
 10
0
 20
0
 30
0
  3
AIGNBL0901010B
  0
POLYLINE
  8
LAYER_9
 40
0.2469
 41
0.2469
 66
1
 10
0
 20
0
 30
0
  0
VERTEX
  8
LAYER_9
 10
160.1773
 20
180.2973
  0
VERTEX
  8
LAYER_9
 10
159.8418
 20
183.8031
  0
SEQEND
  0
ENDBLK
  0
BLOCK
  8
LAYER_9
  2
AIGNBL0901010C
 70
64
 10
0
 20
0
 30
0
  3
AIGNBL0901010C
  0
POLYLINE
  8
LAYER_9
 40
0.2469
 41
0.2469
 66
1
 10
0
 20
0
 30
0
  0
VERTEX
  8
LAYER_9
 10
160.3409
 20
184.3529
 42
0.4141672289
  0
VERTEX
  8
LAYER_9
 10
159.8393
 20
183.851
  0
VERTEX
  8
LAYER_9
 10
159.8418
 20
183.8031
  0
SEQEND
  0
ENDBLK
  0
BLOCK
  8
LAYER_9
  2
AIGNBL0901010D
 70
64
 10
0
 20
0
 30
0
  3
AIGNBL0901010D
  0
POLYLINE
  8
LAYER_9
 40
0.2469
 41
0.2469
 66
1
 10
0
 20
0
 30
0
  0
VERTEX
  8
LAYER_9
 10
184.243
 20
175.8518
 42
0.362619193
  0
VERTEX
  8
LAYER_9
 10
184.1025
 20
175.5517
  0
SEQEND
  0
ENDBLK
  0
BLOCK
  8
LAYER_9
  2
AIGNBL0901010E
 70
64
 10
0
 20
0
 30
0
  3
AIGNBL0901010E
  0
POLYLINE
  8
LAYER_9
 40
0.2469
 41
0.2469
 66
1
 10
0
 20
0
 30
0
  0
VERTEX
  8
LAYER_9
 10
184.1025
 20
175.5517
  0
VERTEX
  8
LAYER_9
 10
184.1417
 20
175.3654
  0
SEQEND
  0
ENDBLK
  0
BLOCK
  8
LAYER_9
  2
AIGNBL0901010F
 70
64
 10
0
 20
0
 30
0
  3
AIGNBL0901010F
  0
POLYLINE
  8
LAYER_9
 40
0.2469
 41
0.2469
 66
1
 10
0
 20
0
 30
0
  0
VERTEX
  8
LAYER_9
 10
184.1417
 20
175.3654
  0
VERTEX
  8
LAYER_9
 10
184.272
 20
174.3528
  0
SEQEND
  0
ENDBLK
  0
BLOCK
  8
LAYER_9
  2
AIGNBL09010110
 70
64
 10
0
 20
0
 30
0
  3
AIGNBL09010110
  0
POLYLINE
  8
LAYER_9
 40
0.2469
 41
0.2469
 66
1
 10
0
 20
0
 30
0
  0
VERTEX
  8
LAYER_9
 10
184.272
 20
174.3528
  0
VERTEX
  8
LAYER_9
 10
185.5422
 20
174.3528
  0
SEQEND
  0
ENDBLK
  0
BLOCK
  8
LAYER_9
  2
AIGNBL09010111
 70
64
 10
0
 20
0
 30
0
  3
AIGNBL09010111
  0
POLYLINE
  8
LAYER_9
 40
0.2469
 41
0.2469
 66
1
 10
0
 20
0
 30
0
  0
VERTEX
  8
LAYER_9
 10
185.5422
 20
174.3528
 42
0.3603155765
  0
VERTEX
  8
LAYER_9
 10
187.5076
 20
175.9806
  0
SEQEND
  0
ENDBLK
  0
BLOCK
  8
LAYER_9
  2
AIGNBL09010112
 70
64
 10
0
 20
0
 30
0
  3
AIGNBL09010112
  0
POLYLINE
  8
LAYER_9
 40
0.2469
 41
0.2469
 66
1
 10
0
 20
0
 30
0
  0
VERTEX
  8
LAYER_9
 10
187.5076
 20
175.9806
  0
VERTEX
  8
LAYER_9
 10
188.1208
 20
179.2156
  0
SEQEND
  0
ENDBLK
  0
BLOCK
  8
LAYER_9
  2
AIGNBL09010113
 70
64
 10
0
 20
0
 30
0
  3
AIGNBL09010113
  0
POLYLINE
  8
LAYER_9
 40
0.2469
 41
0.2469
 66
1
 10
0
 20
0
 30
0
  0
VERTEX
  8
LAYER_9
 10
189.5326
 20
180.7673
 42
0.2828331739
  0
VERTEX
  8
LAYER_9
 10
188.1208
 20
179.2156
  0
SEQEND
  0
ENDBLK
  0
BLOCK
  8
LAYER_9
  2
AIGNBL09010114
 70
64
 10
0
 20
0
 30
0
  3
AIGNBL09010114
  0
POLYLINE
  8
LAYER_9
 40
0.2469
 41
0.2469
 66
1
 10
0
 20
0
 30
0
  0
VERTEX
  8
LAYER_9
 10
189.5326
 20
180.7673
  0
VERTEX
  8
LAYER_9
 10
189.78
 20
183.3531
  0
SEQEND
  0
ENDBLK
  0
BLOCK
  8
LAYER_9
  2
AIGNBL09010115
 70
64
 10
0
 20
0
 30
0
  3
AIGNBL09010115
  0
POLYLINE
  8
LAYER_9
 40
0.2469
 41
0.2469
 66
1
 10
0
 20
0
 30
0
  0
VERTEX
  8
LAYER_9
 10
189.78
 20
183.3531
  0
VERTEX
  8
LAYER_9
 10
189.1912
 20
183.3531
  0
SEQEND
  0
ENDBLK
  0
BLOCK
  8
LAYER_9
  2
AIGNBL09010116
 70
64
 10
0
 20
0
 30
0
  3
AIGNBL09010116
  0
POLYLINE
  8
LAYER_9
 40
0.2469
 41
0.2469
 66
1
 10
0
 20
0
 30
0
  0
VERTEX
  8
LAYER_9
 10
189.1912
 20
183.3531
  0
VERTEX
  8
LAYER_9
 10
189.153
 20
183.173
  0
SEQEND
  0
ENDBLK
  0
BLOCK
  8
LAYER_9
  2
AIGNBL09010117
 70
64
 10
0
 20
0
 30
0
  3
AIGNBL09010117
  0
POLYLINE
  8
LAYER_9
 40
0.2469
 41
0.2469
 66
1
 10
0
 20
0
 30
0
  0
VERTEX
  8
LAYER_9
 10
188.0416
 20
182.0275
 42
0.2874410784
  0
VERTEX
  8
LAYER_9
 10
189.153
 20
183.173
  0
SEQEND
  0
ENDBLK
  0
BLOCK
  8
LAYER_9
  2
AIGNBL09010118
 70
64
 10
0
 20
0
 30
0
  3
AIGNBL09010118
  0
POLYLINE
  8
LAYER_9
 40
0.2469
 41
0.2469
 66
1
 10
0
 20
0
 30
0
  0
VERTEX
  8
LAYER_9
 10
188.0416
 20
182.0275
  0
VERTEX
  8
LAYER_9
 10
187.7987
 20
180.4558
  0
SEQEND
  0
ENDBLK
  0
BLOCK
  8
LAYER_9
  2
AIGNBL09010119
 70
64
 10
0
 20
0
 30
0
  3
AIGNBL09010119
  0
POLYLINE
  8
LAYER_9
 40
0.2469
 41
0.2469
 66
1
 10
0
 20
0
 30
0
  0
VERTEX
  8
LAYER_9
 10
184.243
 20
175.8518
 42
0.2576874102
  0
VERTEX
  8
LAYER_9
 10
187.7987
 20
180.4558
  0
SEQEND
  0
ENDBLK
  0
BLOCK
  8
LAYER_9
  2
AIGNBL0901011A
 70
64
 10
0
 20
0
 30
0
  3
AIGNBL0901011A
  0
POLYLINE
  8
LAYER_9
 40
0.2469
 41
0.2469
 66
1
 10
0
 20
0
 30
0
  0
VERTEX
  8
LAYER_9
 10
190.3281
 20
184.3529
  0
VERTEX
  8
LAYER_9
 10
188.7878
 20
184.3529
  0
SEQEND
  0
ENDBLK
  0
BLOCK
  8
LAYER_9
  2
AIGNBL0901011B
 70
64
 10
0
 20
0
 30
0
  3
AIGNBL0901011B
  0
POLYLINE
  8
LAYER_9
 40
0.2469
 41
0.2469
 66
1
 10
0
 20
0
 30
0
  0
VERTEX
  8
LAYER_9
 10
188.7878
 20
184.3529
 42
0.3537447892
  0
VERTEX
  8
LAYER_9
 10
188.2972
 20
183.9557
  0
SEQEND
  0
ENDBLK
  0
BLOCK
  8
LAYER_9
  2
AIGNBL0901011C
 70
64
 10
0
 20
0
 30
0
  3
AIGNBL0901011C
  0
POLYLINE
  8
LAYER_9
 40
0.2469
 41
0.2469
 66
1
 10
0
 20
0
 30
0
  0
VERTEX
  8
LAYER_9
 10
188.2972
 20
183.9557
  0
VERTEX
  8
LAYER_9
 10
188.1746
 20
183.3814
  0
SEQEND
  0
ENDBLK
  0
BLOCK
  8
LAYER_9
  2
AIGNBL0901011D
 70
64
 10
0
 20
0
 30
0
  3
AIGNBL0901011D
  0
POLYLINE
  8
LAYER_9
 40
0.2469
 41
0.2469
 66
1
 10
0
 20
0
 30
0
  0
VERTEX
  8
LAYER_9
 10
187.684
 20
182.9845
 42
0.3540469196
  0
VERTEX
  8
LAYER_9
 10
188.1746
 20
183.3814
  0
SEQEND
  0
ENDBLK
  0
BLOCK
  8
LAYER_9
  2
AIGNBL0901011E
 70
64
 10
0
 20
0
 30
0
  3
AIGNBL0901011E
  0
POLYLINE
  8
LAYER_9
 40
0.2469
 41
0.2469
 66
1
 10
0
 20
0
 30
0
  0
VERTEX
  8
LAYER_9
 10
187.684
 20
182.9845
  0
VERTEX
  8
LAYER_9
 10
187.6078
 20
182.9845
  0
SEQEND
  0
ENDBLK
  0
BLOCK
  8
LAYER_9
  2
AIGNBL0901011F
 70
64
 10
0
 20
0
 30
0
  3
AIGNBL0901011F
  0
POLYLINE
  8
LAYER_9
 40
0.2469
 41
0.2469
 66
1
 10
0
 20
0
 30
0
  0
VERTEX
  8
LAYER_9
 10
187.6078
 20
182.9845
 42
0.3702436377
  0
VERTEX
  8
LAYER_9
 10
187.1121
 20
182.5594
  0
SEQEND
  0
ENDBLK
  0
BLOCK
  8
LAYER_9
  2
AIGNBL09010120
 70
64
 10
0
 20
0
 30
0
  3
AIGNBL09010120
  0
POLYLINE
  8
LAYER_9
 40
0.2469
 41
0.2469
 66
1
 10
0
 20
0
 30
0
  0
VERTEX
  8
LAYER_9
 10
187.1121
 20
182.5594
  0
VERTEX
  8
LAYER_9
 10
186.8103
 20
180.6081
  0
SEQEND
  0
ENDBLK
  0
BLOCK
  8
LAYER_9
  2
AIGNBL09010121
 70
64
 10
0
 20
0
 30
0
  3
AIGNBL09010121
  0
POLYLINE
  8
LAYER_9
 40
0.2469
 41
0.2469
 66
1
 10
0
 20
0
 30
0
  0
VERTEX
  8
LAYER_9
 10
183.2632
 20
176.5587
 42
0.2908967574
  0
VERTEX
  8
LAYER_9
 10
186.8103
 20
180.6081
  0
SEQEND
  0
ENDBLK
  0
BLOCK
  8
LAYER_9
  2
AIGNBL09010122
 70
64
 10
0
 20
0
 30
0
  3
AIGNBL09010122
  0
POLYLINE
  8
LAYER_9
 40
0.2469
 41
0.2469
 66
1
 10
0
 20
0
 30
0
  0
VERTEX
  8
LAYER_9
 10
183.2632
 20
176.5587
  0
VERTEX
  8
LAYER_9
 10
179.0395
 20
175.3199
  0
SEQEND
  0
ENDBLK
  0
BLOCK
  8
LAYER_9
  2
AIGNBL09010123
 70
64
 10
0
 20
0
 30
0
  3
AIGNBL09010123
  0
POLYLINE
  8
LAYER_9
 40
0.2469
 41
0.2469
 66
1
 10
0
 20
0
 30
0
  0
VERTEX
  8
LAYER_9
 10
179.0395
 20
175.3199
  0
VERTEX
  8
LAYER_9
 10
177.5874
 20
173.7679
  0
SEQEND
  0
ENDBLK
  0
BLOCK
  8
LAYER_9
  2
AIGNBL09010124
 70
64
 10
0
 20
0
 30
0
  3
AIGNBL09010124
  0
POLYLINE
  8
LAYER_9
 40
0.2469
 41
0.2469
 66
1
 10
0
 20
0
 30
0
  0
VERTEX
  8
LAYER_9
 10
177.5874
 20
173.7679
  0
VERTEX
  8
LAYER_9
 10
177.5874
 20
170.4478
  0
SEQEND
  0
ENDBLK
  0
BLOCK
  8
LAYER_9
  2
AIGNBL09010125
 70
64
 10
0
 20
0
 30
0
  3
AIGNBL09010125
  0
POLYLINE
  8
LAYER_9
 40
0.2469
 41
0.2469
 66
1
 10
0
 20
0
 30
0
  0
VERTEX
  8
LAYER_9
 10
177.5874
 20
170.4478
  0
VERTEX
  8
LAYER_9
 10
178.5903
 20
170.4478
  0
SEQEND
  0
ENDBLK
  0
BLOCK
  8
LAYER_9
  2
AIGNBL09010126
 70
64
 10
0
 20
0
 30
0
  3
AIGNBL09010126
  0
POLYLINE
  8
LAYER_9
 40
0.2469
 41
0.2469
 66
1
 10
0
 20
0
 30
0
  0
VERTEX
  8
LAYER_9
 10
178.5903
 20
170.4478
  0
VERTEX
  8
LAYER_9
 10
178.591
 20
173.3713
  0
SEQEND
  0
ENDBLK
  0
BLOCK
  8
LAYER_9
  2
AIGNBL09010127
 70
64
 10
0
 20
0
 30
0
  3
AIGNBL09010127
  0
POLYLINE
  8
LAYER_9
 40
0.2469
 41
0.2469
 66
1
 10
0
 20
0
 30
0
  0
VERTEX
  8
LAYER_9
 10
178.591
 20
173.3713
  0
VERTEX
  8
LAYER_9
 10
179.5852
 20
174.4345
  0
SEQEND
  0
ENDBLK
  0
BLOCK
  8
LAYER_9
  2
AIGNBL09010128
 70
64
 10
0
 20
0
 30
0
  3
AIGNBL09010128
  0
POLYLINE
  8
LAYER_9
 40
0.2469
 41
0.2469
 66
1
 10
0
 20
0
 30
0
  0
VERTEX
  8
LAYER_9
 10
179.5852
 20
174.4345
  0
VERTEX
  8
LAYER_9
 10
182.8943
 20
175.4046
  0
SEQEND
  0
ENDBLK
  0
BLOCK
  8
LAYER_9
  2
AIGNBL09010129
 70
64
 10
0
 20
0
 30
0
  3
AIGNBL09010129
  0
POLYLINE
  8
LAYER_9
 40
0.2469
 41
0.2469
 66
1
 10
0
 20
0
 30
0
  0
VERTEX
  8
LAYER_9
 10
183.1499
 20
175.2379
 42
0.3935787804
  0
VERTEX
  8
LAYER_9
 10
182.9249
 20
175.4112
  0
VERTEX
  8
LAYER_9
 10
182.8943
 20
175.4046
  0
SEQEND
  0
ENDBLK
  0
BLOCK
  8
LAYER_9
  2
AIGNBL0901012A
 70
64
 10
0
 20
0
 30
0
  3
AIGNBL0901012A
  0
POLYLINE
  8
LAYER_9
 40
0.2469
 41
0.2469
 66
1
 10
0
 20
0
 30
0
  0
VERTEX
  8
LAYER_9
 10
183.1499
 20
175.2379
  0
VERTEX
  8
LAYER_9
 10
183.3645
 20
173.5711
  0
SEQEND
  0
ENDBLK
  0
BLOCK
  8
LAYER_9
  2
AIGNBL0901012B
 70
64
 10
0
 20
0
 30
0
  3
AIGNBL0901012B
  0
POLYLINE
  8
LAYER_9
 40
0.2469
 41
0.2469
 66
1
 10
0
 20
0
 30
0
  0
VERTEX
  8
LAYER_9
 10
183.3645
 20
173.5711
 42
0.3602586946
  0
VERTEX
  8
LAYER_9
 10
183.6126
 20
173.3527
  0
SEQEND
  0
ENDBLK
  0
BLOCK
  8
LAYER_9
  2
AIGNBL0901012C
 70
64
 10
0
 20
0
 30
0
  3
AIGNBL0901012C
  0
POLYLINE
  8
LAYER_9
 40
0.2469
 41
0.2469
 66
1
 10
0
 20
0
 30
0
  0
VERTEX
  8
LAYER_9
 10
183.6126
 20
173.3527
  0
VERTEX
  8
LAYER_9
 10
185.5422
 20
173.3527
  0
SEQEND
  0
ENDBLK
  0
BLOCK
  8
LAYER_9
  2
AIGNBL0901012D
 70
64
 10
0
 20
0
 30
0
  3
AIGNBL0901012D
  0
POLYLINE
  8
LAYER_9
 40
0.2469
 41
0.2469
 66
1
 10
0
 20
0
 30
0
  0
VERTEX
  8
LAYER_9
 10
185.5422
 20
173.3527
 42
0.3603671246
  0
VERTEX
  8
LAYER_9
 10
188.4901
 20
175.7943
  0
SEQEND
  0
ENDBLK
  0
BLOCK
  8
LAYER_9
  2
AIGNBL0901012E
 70
64
 10
0
 20
0
 30
0
  3
AIGNBL0901012E
  0
POLYLINE
  8
LAYER_9
 40
0.2469
 41
0.2469
 66
1
 10
0
 20
0
 30
0
  0
VERTEX
  8
LAYER_9
 10
188.4901
 20
175.7943
  0
VERTEX
  8
LAYER_9
 10
189.1034
 20
179.0296
  0
SEQEND
  0
ENDBLK
  0
BLOCK
  8
LAYER_9
  2
AIGNBL0901012F
 70
64
 10
0
 20
0
 30
0
  3
AIGNBL0901012F
  0
POLYLINE
  8
LAYER_9
 40
0.2469
 41
0.2469
 66
1
 10
0
 20
0
 30
0
  0
VERTEX
  8
LAYER_9
 10
190.0246
 20
179.8443
 42
0.3424778254
  0
VERTEX
  8
LAYER_9
 10
189.1034
 20
179.0296
  0
SEQEND
  0
ENDBLK
  0
BLOCK
  8
LAYER_9
  2
AIGNBL09010130
 70
64
 10
0
 20
0
 30
0
  3
AIGNBL09010130
  0
POLYLINE
  8
LAYER_9
 40
0.2469
 41
0.2469
 66
1
 10
0
 20
0
 30
0
  0
VERTEX
  8
LAYER_9
 10
190.0246
 20
179.8443
 42
0.3681748593
  0
VERTEX
  8
LAYER_9
 10
190.4917
 20
180.2973
  0
SEQEND
  0
ENDBLK
  0
BLOCK
  8
LAYER_9
  2
AIGNBL09010131
 70
64
 10
0
 20
0
 30
0
  3
AIGNBL09010131
  0
POLYLINE
  8
LAYER_9
 40
0.2469
 41
0.2469
 66
1
 10
0
 20
0
 30
0
  0
VERTEX
  8
LAYER_9
 10
190.4917
 20
180.2973
  0
VERTEX
  8
LAYER_9
 10
190.8273
 20
183.8031
  0
SEQEND
  0
ENDBLK
  0
BLOCK
  8
LAYER_9
  2
AIGNBL09010132
 70
64
 10
0
 20
0
 30
0
  3
AIGNBL09010132
  0
POLYLINE
  8
LAYER_9
 40
0.2469
 41
0.2469
 66
1
 10
0
 20
0
 30
0
  0
VERTEX
  8
LAYER_9
 10
190.8273
 20
183.8031
 42
0.4144762127
  0
VERTEX
  8
LAYER_9
 10
190.376
 20
184.3508
  0
VERTEX
  8
LAYER_9
 10
190.3281
 20
184.3529
  0
SEQEND
  0
ENDBLK
  0
BLOCK
  8
LAYER_9
  2
AIGNBL09010133
 70
64
 10
0
 20
0
 30
0
  3
AIGNBL09010133
  0
POLYLINE
  8
LAYER_9
 40
0.2469
 41
0.2469
 66
1
 10
0
 20
0
 30
0
  0
VERTEX
  8
LAYER_9
 10
92.2738
 20
129.0939
  0
VERTEX
  8
LAYER_9
 10
62.2749
 20
129.0939
  0
SEQEND
  0
ENDBLK
  0
BLOCK
  8
LAYER_9
  2
AIGNBL09010134
 70
64
 10
0
 20
0
 30
0
  3
AIGNBL09010134
  0
POLYLINE
  8
LAYER_9
 40
0.2469
 41
0.2469
 66
1
 10
0
 20
0
 30
0
  0
VERTEX
  8
LAYER_9
 10
62.2749
 20
129.0939
 42
0.3933326859
  0
VERTEX
  8
LAYER_9
 10
61.7733
 20
128.5916
  0
VERTEX
  8
LAYER_9
 10
61.7757
 20
128.5441
  0
SEQEND
  0
ENDBLK
  0
BLOCK
  8
LAYER_9
  2
AIGNBL09010135
 70
64
 10
0
 20
0
 30
0
  3
AIGNBL09010135
  0
POLYLINE
  8
LAYER_9
 40
0.2469
 41
0.2469
 66
1
 10
0
 20
0
 30
0
  0
VERTEX
  8
LAYER_9
 10
61.7757
 20
128.5441
  0
VERTEX
  8
LAYER_9
 10
62.1113
 20
125.0384
  0
SEQEND
  0
ENDBLK
  0
BLOCK
  8
LAYER_9
  2
AIGNBL09010136
 70
64
 10
0
 20
0
 30
0
  3
AIGNBL09010136
  0
POLYLINE
  8
LAYER_9
 40
0.2469
 41
0.2469
 66
1
 10
0
 20
0
 30
0
  0
VERTEX
  8
LAYER_9
 10
62.1113
 20
125.0384
 42
0.3682470394
  0
VERTEX
  8
LAYER_9
 10
62.5788
 20
124.585
  0
SEQEND
  0
ENDBLK
  0
BLOCK
  8
LAYER_9
  2
AIGNBL09010137
 70
64
 10
0
 20
0
 30
0
  3
AIGNBL09010137
  0
POLYLINE
  8
LAYER_9
 40
0.2469
 41
0.2469
 66
1
 10
0
 20
0
 30
0
  0
VERTEX
  8
LAYER_9
 10
63.5
 20
123.7706
 42
0.3420563212
  0
VERTEX
  8
LAYER_9
 10
62.5788
 20
124.585
  0
SEQEND
  0
ENDBLK
  0
BLOCK
  8
LAYER_9
  2
AIGNBL09010138
 70
64
 10
0
 20
0
 30
0
  3
AIGNBL09010138
  0
POLYLINE
  8
LAYER_9
 40
0.2469
 41
0.2469
 66
1
 10
0
 20
0
 30
0
  0
VERTEX
  8
LAYER_9
 10
63.5
 20
123.7706
  0
VERTEX
  8
LAYER_9
 10
64.1132
 20
120.5349
  0
SEQEND
  0
ENDBLK
  0
BLOCK
  8
LAYER_9
  2
AIGNBL09010139
 70
64
 10
0
 20
0
 30
0
  3
AIGNBL09010139
  0
POLYLINE
  8
LAYER_9
 40
0.2469
 41
0.2469
 66
1
 10
0
 20
0
 30
0
  0
VERTEX
  8
LAYER_9
 10
64.1132
 20
120.5349
 42
0.3604237129
  0
VERTEX
  8
LAYER_9
 10
67.0609
 20
118.0937
  0
SEQEND
  0
ENDBLK
  0
BLOCK
  8
LAYER_9
  2
AIGNBL0901013A
 70
64
 10
0
 20
0
 30
0
  3
AIGNBL0901013A
  0
POLYLINE
  8
LAYER_9
 40
0.2469
 41
0.2469
 66
1
 10
0
 20
0
 30
0
  0
VERTEX
  8
LAYER_9
 10
67.0609
 20
118.0937
  0
VERTEX
  8
LAYER_9
 10
87.4882
 20
118.0937
  0
SEQEND
  0
ENDBLK
  0
BLOCK
  8
LAYER_9
  2
AIGNBL0901013B
 70
64
 10
0
 20
0
 30
0
  3
AIGNBL0901013B
  0
POLYLINE
  8
LAYER_9
 40
0.2469
 41
0.2469
 66
1
 10
0
 20
0
 30
0
  0
VERTEX
  8
LAYER_9
 10
87.4882
 20
118.0937
 42
0.3603518242
  0
VERTEX
  8
LAYER_9
 10
90.4358
 20
120.5349
  0
SEQEND
  0
ENDBLK
  0
BLOCK
  8
LAYER_9
  2
AIGNBL0901013C
 70
64
 10
0
 20
0
 30
0
  3
AIGNBL0901013C
  0
POLYLINE
  8
LAYER_9
 40
0.2469
 41
0.2469
 66
1
 10
0
 20
0
 30
0
  0
VERTEX
  8
LAYER_9
 10
90.4358
 20
120.5349
  0
VERTEX
  8
LAYER_9
 10
91.0491
 20
123.7706
  0
SEQEND
  0
ENDBLK
  0
BLOCK
  8
LAYER_9
  2
AIGNBL0901013D
 70
64
 10
0
 20
0
 30
0
  3
AIGNBL0901013D
  0
POLYLINE
  8
LAYER_9
 40
0.2469
 41
0.2469
 66
1
 10
0
 20
0
 30
0
  0
VERTEX
  8
LAYER_9
 10
91.9703
 20
124.585
 42
0.342273915
  0
VERTEX
  8
LAYER_9
 10
91.0491
 20
123.7706
  0
SEQEND
  0
ENDBLK
  0
BLOCK
  8
LAYER_9
  2
AIGNBL0901013E
 70
64
 10
0
 20
0
 30
0
  3
AIGNBL0901013E
  0
POLYLINE
  8
LAYER_9
 40
0.2469
 41
0.2469
 66
1
 10
0
 20
0
 30
0
  0
VERTEX
  8
LAYER_9
 10
91.9703
 20
124.585
 42
0.3682188343
  0
VERTEX
  8
LAYER_9
 10
92.4374
 20
125.0384
  0
SEQEND
  0
ENDBLK
  0
BLOCK
  8
LAYER_9
  2
AIGNBL0901013F
 70
64
 10
0
 20
0
 30
0
  3
AIGNBL0901013F
  0
POLYLINE
  8
LAYER_9
 40
0.2469
 41
0.2469
 66
1
 10
0
 20
0
 30
0
  0
VERTEX
  8
LAYER_9
 10
92.4374
 20
125.0384
  0
VERTEX
  8
LAYER_9
 10
92.7733
 20
128.5441
  0
SEQEND
  0
ENDBLK
  0
BLOCK
  8
LAYER_9
  2
AIGNBL09010140
 70
64
 10
0
 20
0
 30
0
  3
AIGNBL09010140
  0
POLYLINE
  8
LAYER_9
 40
0.2469
 41
0.2469
 66
1
 10
0
 20
0
 30
0
  0
VERTEX
  8
LAYER_9
 10
92.7733
 20
128.5441
 42
0.4145561687
  0
VERTEX
  8
LAYER_9
 10
92.3217
 20
129.0912
  0
VERTEX
  8
LAYER_9
 10
92.2738
 20
129.0939
  0
SEQEND
  0
ENDBLK
  0
BLOCK
  8
LAYER_9
  2
AIGNBL09010141
 70
64
 10
0
 20
0
 30
0
  3
AIGNBL09010141
  0
POLYLINE
  8
LAYER_9
 40
0.2469
 41
0.2469
 66
1
 10
0
 20
0
 30
0
  0
VERTEX
  8
LAYER_9
 10
74.0193
 20
118.0937
  0
VERTEX
  8
LAYER_9
 10
74.0199
 20
115.1888
  0
SEQEND
  0
ENDBLK
  0
BLOCK
  8
LAYER_9
  2
AIGNBL09010142
 70
64
 10
0
 20
0
 30
0
  3
AIGNBL09010142
  0
POLYLINE
  8
LAYER_9
 40
0.2469
 41
0.2469
 66
1
 10
0
 20
0
 30
0
  0
VERTEX
  8
LAYER_9
 10
74.0199
 20
115.1888
  0
VERTEX
  8
LAYER_9
 10
80.5315
 20
115.1888
  0
SEQEND
  0
ENDBLK
  0
BLOCK
  8
LAYER_9
  2
AIGNBL09010143
 70
64
 10
0
 20
0
 30
0
  3
AIGNBL09010143
  0
POLYLINE
  8
LAYER_9
 40
0.2469
 41
0.2469
 66
1
 10
0
 20
0
 30
0
  0
VERTEX
  8
LAYER_9
 10
80.5315
 20
115.1888
  0
VERTEX
  8
LAYER_9
 10
80.5319
 20
118.0937
  0
SEQEND
  0
ENDBLK
  0
BLOCK
  8
LAYER_9
  2
AIGNBL09010144
 70
64
 10
0
 20
0
 30
0
  3
AIGNBL09010144
  0
POLYLINE
  8
LAYER_9
 40
0.2469
 41
0.2469
 66
1
 10
0
 20
0
 30
0
  0
VERTEX
  8
LAYER_9
 10
174.3308
 20
180.2061
  0
VERTEX
  8
LAYER_9
 10
176.3382
 20
180.2061
  0
SEQEND
  0
ENDBLK
  0
BLOCK
  8
LAYER_9
  2
AIGNBL09010145
 70
64
 10
0
 20
0
 30
0
  3
AIGNBL09010145
  0
POLYLINE
  8
LAYER_9
 40
0.2469
 41
0.2469
 66
1
 10
0
 20
0
 30
0
  0
VERTEX
  8
LAYER_9
 10
176.3382
 20
180.2061
 42
0.4142283235
  0
VERTEX
  8
LAYER_9
 10
177.091
 20
180.9588
 42
0.4142345965
  0
VERTEX
  8
LAYER_9
 10
176.3382
 20
181.7112
  0
SEQEND
  0
ENDBLK
  0
BLOCK
  8
LAYER_9
  2
AIGNBL09010146
 70
64
 10
0
 20
0
 30
0
  3
AIGNBL09010146
  0
POLYLINE
  8
LAYER_9
 40
0.2469
 41
0.2469
 66
1
 10
0
 20
0
 30
0
  0
VERTEX
  8
LAYER_9
 10
176.3382
 20
181.7112
  0
VERTEX
  8
LAYER_9
 10
174.3308
 20
181.7112
  0
SEQEND
  0
ENDBLK
  0
BLOCK
  8
LAYER_9
  2
AIGNBL09010147
 70
64
 10
0
 20
0
 30
0
  3
AIGNBL09010147
  0
POLYLINE
  8
LAYER_9
 40
0.2469
 41
0.2469
 66
1
 10
0
 20
0
 30
0
  0
VERTEX
  8
LAYER_9
 10
174.3308
 20
181.7112
 42
0.4142210391
  0
VERTEX
  8
LAYER_9
 10
173.5784
 20
180.9588
 42
0.4142147686
  0
VERTEX
  8
LAYER_9
 10
174.3308
 20
180.2061
  0
SEQEND
  0
ENDBLK
  0
BLOCK
  8
LAYER_9
  2
AIGNBL09010148
 70
64
 10
0
 20
0
 30
0
  3
AIGNBL09010148
  0
POLYLINE
  8
LAYER_9
 40
0.2469
 41
0.2469
 66
1
 10
0
 20
0
 30
0
  0
VERTEX
  8
LAYER_9
 10
63.026
 20
124.585
  0
VERTEX
  8
LAYER_9
 10
91.5252
 20
124.585
  0
SEQEND
  0
ENDBLK
  0
BLOCK
  8
LAYER_9
  2
AIGNBL09010149
 70
64
 10
0
 20
0
 30
0
  3
AIGNBL09010149
  0
POLYLINE
  8
LAYER_9
 40
0.2469
 41
0.2469
 66
1
 10
0
 20
0
 30
0
  0
VERTEX
  8
LAYER_9
 10
104.7461
 20
120.4343
 42
0.2063933414
  0
VERTEX
  8
LAYER_9
 10
105.8168
 20
119.2685
  0
SEQEND
  0
ENDBLK
  0
BLOCK
  8
LAYER_9
  2
AIGNBL0901014A
 70
64
 10
0
 20
0
 30
0
  3
AIGNBL0901014A
  0
POLYLINE
  8
LAYER_9
 40
0.2469
 41
0.2469
 66
1
 10
0
 20
0
 30
0
  0
VERTEX
  8
LAYER_9
 10
105.8168
 20
119.2685
  0
VERTEX
  8
LAYER_9
 10
105.8829
 20
119.6599
  0
SEQEND
  0
ENDBLK
  0
BLOCK
  8
LAYER_9
  2
AIGNBL0901014B
 70
64
 10
0
 20
0
 30
0
  3
AIGNBL0901014B
  0
POLYLINE
  8
LAYER_9
 40
0.2469
 41
0.2469
 66
1
 10
0
 20
0
 30
0
  0
VERTEX
  8
LAYER_9
 10
104.9231
 20
120.5232
 42
0.1213043194
  0
VERTEX
  8
LAYER_9
 10
105.8829
 20
119.6599
  0
SEQEND
  0
ENDBLK
  0
BLOCK
  8
LAYER_9
  2
AIGNBL0901014C
 70
64
 10
0
 20
0
 30
0
  3
AIGNBL0901014C
  0
POLYLINE
  8
LAYER_9
 40
0.2469
 41
0.2469
 66
1
 10
0
 20
0
 30
0
  0
VERTEX
  8
LAYER_9
 10
104.9231
 20
120.5232
  0
VERTEX
  8
LAYER_9
 10
104.7082
 20
120.8395
  0
SEQEND
  0
ENDBLK
  0
BLOCK
  8
LAYER_9
  2
AIGNBL0901014D
 70
64
 10
0
 20
0
 30
0
  3
AIGNBL0901014D
  0
POLYLINE
  8
LAYER_9
 40
0.2469
 41
0.2469
 66
1
 10
0
 20
0
 30
0
  0
VERTEX
  8
LAYER_9
 10
104.7082
 20
120.8395
 42
0.3943429128
  0
VERTEX
  8
LAYER_9
 10
104.6386
 20
120.8526
 42
0.3275230868
  0
VERTEX
  8
LAYER_9
 10
104.62
 20
120.7947
  0
SEQEND
  0
ENDBLK
  0
BLOCK
  8
LAYER_9
  2
AIGNBL0901014E
 70
64
 10
0
 20
0
 30
0
  3
AIGNBL0901014E
  0
POLYLINE
  8
LAYER_9
 40
0.2469
 41
0.2469
 66
1
 10
0
 20
0
 30
0
  0
VERTEX
  8
LAYER_9
 10
104.62
 20
120.7947
  0
VERTEX
  8
LAYER_9
 10
104.7461
 20
120.4343
  0
SEQEND
  0
ENDBLK
  0
BLOCK
  8
LAYER_9
  2
AIGNBL0901014F
 70
64
 10
0
 20
0
 30
0
  3
AIGNBL0901014F
  0
POLYLINE
  8
LAYER_9
 40
0.2469
 41
0.2469
 66
1
 10
0
 20
0
 30
0
  0
VERTEX
  8
LAYER_9
 10
105.4764
 20
121.7807
  0
VERTEX
  8
LAYER_9
 10
104.6241
 20
127.2997
  0
SEQEND
  0
ENDBLK
  0
BLOCK
  8
LAYER_9
  2
AIGNBL09010150
 70
64
 10
0
 20
0
 30
0
  3
AIGNBL09010150
  0
POLYLINE
  8
LAYER_9
 40
0.2469
 41
0.2469
 66
1
 10
0
 20
0
 30
0
  0
VERTEX
  8
LAYER_9
 10
104.6241
 20
127.2997
 42
0.3551173538
  0
VERTEX
  8
LAYER_9
 10
104.128
 20
127.7248
  0
SEQEND
  0
ENDBLK
  0
BLOCK
  8
LAYER_9
  2
AIGNBL09010151
 70
64
 10
0
 20
0
 30
0
  3
AIGNBL09010151
  0
POLYLINE
  8
LAYER_9
 40
0.2469
 41
0.2469
 66
1
 10
0
 20
0
 30
0
  0
VERTEX
  8
LAYER_9
 10
104.128
 20
127.7248
  0
VERTEX
  8
LAYER_9
 10
104.0522
 20
127.7248
  0
SEQEND
  0
ENDBLK
  0
BLOCK
  8
LAYER_9
  2
AIGNBL09010152
 70
64
 10
0
 20
0
 30
0
  3
AIGNBL09010152
  0
POLYLINE
  8
LAYER_9
 40
0.2469
 41
0.2469
 66
1
 10
0
 20
0
 30
0
  0
VERTEX
  8
LAYER_9
 10
103.5609
 20
128.1224
 42
0.3536417721
  0
VERTEX
  8
LAYER_9
 10
104.0522
 20
127.7248
  0
SEQEND
  0
ENDBLK
  0
BLOCK
  8
LAYER_9
  2
AIGNBL09010153
 70
64
 10
0
 20
0
 30
0
  3
AIGNBL09010153
  0
POLYLINE
  8
LAYER_9
 40
0.2469
 41
0.2469
 66
1
 10
0
 20
0
 30
0
  0
VERTEX
  8
LAYER_9
 10
103.5609
 20
128.1224
  0
VERTEX
  8
LAYER_9
 10
103.439
 20
128.6964
  0
SEQEND
  0
ENDBLK
  0
BLOCK
  8
LAYER_9
  2
AIGNBL09010154
 70
64
 10
0
 20
0
 30
0
  3
AIGNBL09010154
  0
POLYLINE
  8
LAYER_9
 40
0.2469
 41
0.2469
 66
1
 10
0
 20
0
 30
0
  0
VERTEX
  8
LAYER_9
 10
103.439
 20
128.6964
 42
0.353647076
  0
VERTEX
  8
LAYER_9
 10
102.9477
 20
129.0939
  0
SEQEND
  0
ENDBLK
  0
BLOCK
  8
LAYER_9
  2
AIGNBL09010155
 70
64
 10
0
 20
0
 30
0
  3
AIGNBL09010155
  0
POLYLINE
  8
LAYER_9
 40
0.2469
 41
0.2469
 66
1
 10
0
 20
0
 30
0
  0
VERTEX
  8
LAYER_9
 10
102.9477
 20
129.0939
  0
VERTEX
  8
LAYER_9
 10
101.8487
 20
129.0939
  0
SEQEND
  0
ENDBLK
  0
BLOCK
  8
LAYER_9
  2
AIGNBL09010156
 70
64
 10
0
 20
0
 30
0
  3
AIGNBL09010156
  0
POLYLINE
  8
LAYER_9
 40
0.2469
 41
0.2469
 66
1
 10
0
 20
0
 30
0
  0
VERTEX
  8
LAYER_9
 10
101.8487
 20
129.0939
 42
0.4142125221
  0
VERTEX
  8
LAYER_9
 10
101.3464
 20
128.5916
  0
VERTEX
  8
LAYER_9
 10
101.3492
 20
128.5441
  0
SEQEND
  0
ENDBLK
  0
BLOCK
  8
LAYER_9
  2
AIGNBL09010157
 70
64
 10
0
 20
0
 30
0
  3
AIGNBL09010157
  0
POLYLINE
  8
LAYER_9
 40
0.2469
 41
0.2469
 66
1
 10
0
 20
0
 30
0
  0
VERTEX
  8
LAYER_9
 10
101.3492
 20
128.5441
  0
VERTEX
  8
LAYER_9
 10
101.6847
 20
125.0384
  0
SEQEND
  0
ENDBLK
  0
BLOCK
  8
LAYER_9
  2
AIGNBL09010158
 70
64
 10
0
 20
0
 30
0
  3
AIGNBL09010158
  0
POLYLINE
  8
LAYER_9
 40
0.2469
 41
0.2469
 66
1
 10
0
 20
0
 30
0
  0
VERTEX
  8
LAYER_9
 10
101.6847
 20
125.0384
 42
0.3682377919
  0
VERTEX
  8
LAYER_9
 10
102.1519
 20
124.585
  0
SEQEND
  0
ENDBLK
  0
BLOCK
  8
LAYER_9
  2
AIGNBL09010159
 70
64
 10
0
 20
0
 30
0
  3
AIGNBL09010159
  0
POLYLINE
  8
LAYER_9
 40
0.2469
 41
0.2469
 66
1
 10
0
 20
0
 30
0
  0
VERTEX
  8
LAYER_9
 10
103.0731
 20
123.7706
 42
0.3304793837
  0
VERTEX
  8
LAYER_9
 10
102.1519
 20
124.585
  0
SEQEND
  0
ENDBLK
  0
BLOCK
  8
LAYER_9
  2
AIGNBL0901015A
 70
64
 10
0
 20
0
 30
0
  3
AIGNBL0901015A
  0
POLYLINE
  8
LAYER_9
 40
0.2469
 41
0.2469
 66
1
 10
0
 20
0
 30
0
  0
VERTEX
  8
LAYER_9
 10
103.0731
 20
123.7706
  0
VERTEX
  8
LAYER_9
 10
103.6863
 20
120.5356
  0
SEQEND
  0
ENDBLK
  0
BLOCK
  8
LAYER_9
  2
AIGNBL0901015B
 70
64
 10
0
 20
0
 30
0
  3
AIGNBL0901015B
  0
POLYLINE
  8
LAYER_9
 40
0.2469
 41
0.2469
 66
1
 10
0
 20
0
 30
0
  0
VERTEX
  8
LAYER_9
 10
103.6863
 20
120.5356
 42
0.2683048276
  0
VERTEX
  8
LAYER_9
 10
105.648
 20
118.2612
  0
SEQEND
  0
ENDBLK
  0
BLOCK
  8
LAYER_9
  2
AIGNBL0901015C
 70
64
 10
0
 20
0
 30
0
  3
AIGNBL0901015C
  0
POLYLINE
  8
LAYER_9
 40
0.2469
 41
0.2469
 66
1
 10
0
 20
0
 30
0
  0
VERTEX
  8
LAYER_9
 10
105.648
 20
118.2612
 42
0.08388211752
  0
VERTEX
  8
LAYER_9
 10
106.634
 20
118.0944
  0
SEQEND
  0
ENDBLK
  0
BLOCK
  8
LAYER_9
  2
AIGNBL0901015D
 70
64
 10
0
 20
0
 30
0
  3
AIGNBL0901015D
  0
POLYLINE
  8
LAYER_9
 40
0.2469
 41
0.2469
 66
1
 10
0
 20
0
 30
0
  0
VERTEX
  8
LAYER_9
 10
106.634
 20
118.0944
  0
VERTEX
  8
LAYER_9
 10
106.8455
 20
119.356
  0
SEQEND
  0
ENDBLK
  0
BLOCK
  8
LAYER_9
  2
AIGNBL0901015E
 70
64
 10
0
 20
0
 30
0
  3
AIGNBL0901015E
  0
POLYLINE
  8
LAYER_9
 40
0.2469
 41
0.2469
 66
1
 10
0
 20
0
 30
0
  0
VERTEX
  8
LAYER_9
 10
106.8455
 20
119.356
  0
VERTEX
  8
LAYER_9
 10
108.1429
 20
119.1383
  0
SEQEND
  0
ENDBLK
  0
BLOCK
  8
LAYER_9
  2
AIGNBL0901015F
 70
64
 10
0
 20
0
 30
0
  3
AIGNBL0901015F
  0
POLYLINE
  8
LAYER_9
 40
0.2469
 41
0.2469
 66
1
 10
0
 20
0
 30
0
  0
VERTEX
  8
LAYER_9
 10
108.1429
 20
119.1383
  0
VERTEX
  8
LAYER_9
 10
109.0889
 20
118.1165
  0
SEQEND
  0
ENDBLK
  0
BLOCK
  8
LAYER_9
  2
AIGNBL09010160
 70
64
 10
0
 20
0
 30
0
  3
AIGNBL09010160
  0
POLYLINE
  8
LAYER_9
 40
0.2469
 41
0.2469
 66
1
 10
0
 20
0
 30
0
  0
VERTEX
  8
LAYER_9
 10
109.0889
 20
118.1165
  0
VERTEX
  8
LAYER_9
 10
109.0889
 20
115.1881
  0
SEQEND
  0
ENDBLK
  0
BLOCK
  8
LAYER_9
  2
AIGNBL09010161
 70
64
 10
0
 20
0
 30
0
  3
AIGNBL09010161
  0
POLYLINE
  8
LAYER_9
 40
0.2469
 41
0.2469
 66
1
 10
0
 20
0
 30
0
  0
VERTEX
  8
LAYER_9
 10
109.0889
 20
115.1881
  0
VERTEX
  8
LAYER_9
 10
110.0894
 20
115.1888
  0
SEQEND
  0
ENDBLK
  0
BLOCK
  8
LAYER_9
  2
AIGNBL09010162
 70
64
 10
0
 20
0
 30
0
  3
AIGNBL09010162
  0
POLYLINE
  8
LAYER_9
 40
0.2469
 41
0.2469
 66
1
 10
0
 20
0
 30
0
  0
VERTEX
  8
LAYER_9
 10
110.0894
 20
115.1888
  0
VERTEX
  8
LAYER_9
 10
110.0894
 20
118.5085
  0
SEQEND
  0
ENDBLK
  0
BLOCK
  8
LAYER_9
  2
AIGNBL09010163
 70
64
 10
0
 20
0
 30
0
  3
AIGNBL09010163
  0
POLYLINE
  8
LAYER_9
 40
0.2469
 41
0.2469
 66
1
 10
0
 20
0
 30
0
  0
VERTEX
  8
LAYER_9
 10
110.0894
 20
118.5085
  0
VERTEX
  8
LAYER_9
 10
108.6445
 20
120.0678
  0
SEQEND
  0
ENDBLK
  0
BLOCK
  8
LAYER_9
  2
AIGNBL09010164
 70
64
 10
0
 20
0
 30
0
  3
AIGNBL09010164
  0
POLYLINE
  8
LAYER_9
 40
0.2469
 41
0.2469
 66
1
 10
0
 20
0
 30
0
  0
VERTEX
  8
LAYER_9
 10
108.6445
 20
120.0678
  0
VERTEX
  8
LAYER_9
 10
106.8049
 20
120.3771
  0
SEQEND
  0
ENDBLK
  0
BLOCK
  8
LAYER_9
  2
AIGNBL09010165
 70
64
 10
0
 20
0
 30
0
  3
AIGNBL09010165
  0
POLYLINE
  8
LAYER_9
 40
0.2469
 41
0.2469
 66
1
 10
0
 20
0
 30
0
  0
VERTEX
  8
LAYER_9
 10
105.4764
 20
121.7807
 42
0.3118397824
  0
VERTEX
  8
LAYER_9
 10
106.8049
 20
120.3771
  0
SEQEND
  0
ENDBLK
  0
BLOCK
  8
LAYER_9
  2
AIGNBL09010166
 70
64
 10
0
 20
0
 30
0
  3
AIGNBL09010166
  0
POLYLINE
  8
LAYER_9
 40
0.2469
 41
0.2469
 66
1
 10
0
 20
0
 30
0
  0
VERTEX
  8
LAYER_9
 10
109.0889
 20
116.1886
  0
VERTEX
  8
LAYER_9
 10
109.0862
 20
116.1886
  0
SEQEND
  0
ENDBLK
  0
BLOCK
  8
LAYER_9
  2
AIGNBL09010167
 70
64
 10
0
 20
0
 30
0
  3
AIGNBL09010167
  0
POLYLINE
  8
LAYER_9
 40
0.2469
 41
0.2469
 66
1
 10
0
 20
0
 30
0
  0
VERTEX
  8
LAYER_9
 10
103.84
 20
124.554
 42
0.3908385493
  0
VERTEX
  8
LAYER_9
 10
103.9764
 20
124.5147
 42
0.3017941709
  0
VERTEX
  8
LAYER_9
 10
104.0267
 20
124.6174
  0
SEQEND
  0
ENDBLK
  0
BLOCK
  8
LAYER_9
  2
AIGNBL09010168
 70
64
 10
0
 20
0
 30
0
  3
AIGNBL09010168
  0
POLYLINE
  8
LAYER_9
 40
0.2469
 41
0.2469
 66
1
 10
0
 20
0
 30
0
  0
VERTEX
  8
LAYER_9
 10
103.84
 20
124.554
 42
0.1986306317
  0
VERTEX
  8
LAYER_9
 10
102.6439
 20
125.5083
  0
SEQEND
  0
ENDBLK
  0
BLOCK
  8
LAYER_9
  2
AIGNBL09010169
 70
64
 10
0
 20
0
 30
0
  3
AIGNBL09010169
  0
POLYLINE
  8
LAYER_9
 40
0.2469
 41
0.2469
 66
1
 10
0
 20
0
 30
0
  0
VERTEX
  8
LAYER_9
 10
102.6439
 20
125.5083
  0
VERTEX
  8
LAYER_9
 10
102.3965
 20
128.0935
  0
SEQEND
  0
ENDBLK
  0
BLOCK
  8
LAYER_9
  2
AIGNBL0901016A
 70
64
 10
0
 20
0
 30
0
  3
AIGNBL0901016A
  0
POLYLINE
  8
LAYER_9
 40
0.2469
 41
0.2469
 66
1
 10
0
 20
0
 30
0
  0
VERTEX
  8
LAYER_9
 10
102.3965
 20
128.0935
  0
VERTEX
  8
LAYER_9
 10
102.5446
 20
128.0935
  0
SEQEND
  0
ENDBLK
  0
BLOCK
  8
LAYER_9
  2
AIGNBL0901016B
 70
64
 10
0
 20
0
 30
0
  3
AIGNBL0901016B
  0
POLYLINE
  8
LAYER_9
 40
0.2469
 41
0.2469
 66
1
 10
0
 20
0
 30
0
  0
VERTEX
  8
LAYER_9
 10
102.5446
 20
128.0935
  0
VERTEX
  8
LAYER_9
 10
102.5832
 20
127.9136
  0
SEQEND
  0
ENDBLK
  0
BLOCK
  8
LAYER_9
  2
AIGNBL0901016C
 70
64
 10
0
 20
0
 30
0
  3
AIGNBL0901016C
  0
POLYLINE
  8
LAYER_9
 40
0.2469
 41
0.2469
 66
1
 10
0
 20
0
 30
0
  0
VERTEX
  8
LAYER_9
 10
102.5832
 20
127.9136
 42
0.2877127958
  0
VERTEX
  8
LAYER_9
 10
103.6946
 20
126.7685
  0
SEQEND
  0
ENDBLK
  0
BLOCK
  8
LAYER_9
  2
AIGNBL0901016D
 70
64
 10
0
 20
0
 30
0
  3
AIGNBL0901016D
  0
POLYLINE
  8
LAYER_9
 40
0.2469
 41
0.2469
 66
1
 10
0
 20
0
 30
0
  0
VERTEX
  8
LAYER_9
 10
103.6946
 20
126.7685
  0
VERTEX
  8
LAYER_9
 10
104.0267
 20
124.6174
  0
SEQEND
  0
ENDBLK
  0
BLOCK
  8
LAYER_9
  2
AIGNBL0901016E
 70
64
 10
0
 20
0
 30
0
  3
AIGNBL0901016E
  0
POLYLINE
  8
LAYER_9
 40
0.2469
 41
0.2469
 66
1
 10
0
 20
0
 30
0
  0
VERTEX
  8
LAYER_9
 10
126.156
 20
128.09
  0
VERTEX
  8
LAYER_9
 10
126.4433
 20
128.09
  0
SEQEND
  0
ENDBLK
  0
BLOCK
  8
LAYER_9
  2
AIGNBL0901016F
 70
64
 10
0
 20
0
 30
0
  3
AIGNBL0901016F
  0
POLYLINE
  8
LAYER_9
 40
0.2469
 41
0.2469
 66
1
 10
0
 20
0
 30
0
  0
VERTEX
  8
LAYER_9
 10
126.8443
 20
127.7076
 42
0.3817735661
  0
VERTEX
  8
LAYER_9
 10
126.4433
 20
128.09
  0
SEQEND
  0
ENDBLK
  0
BLOCK
  8
LAYER_9
  2
AIGNBL09010170
 70
64
 10
0
 20
0
 30
0
  3
AIGNBL09010170
  0
POLYLINE
  8
LAYER_9
 40
0.2469
 41
0.2469
 66
1
 10
0
 20
0
 30
0
  0
VERTEX
  8
LAYER_9
 10
126.8443
 20
127.7076
  0
VERTEX
  8
LAYER_9
 10
127.3452
 20
117.0506
  0
SEQEND
  0
ENDBLK
  0
BLOCK
  8
LAYER_9
  2
AIGNBL09010171
 70
64
 10
0
 20
0
 30
0
  3
AIGNBL09010171
  0
POLYLINE
  8
LAYER_9
 40
0.2469
 41
0.2469
 66
1
 10
0
 20
0
 30
0
  0
VERTEX
  8
LAYER_9
 10
127.3452
 20
117.0506
  0
VERTEX
  8
LAYER_9
 10
128.3491
 20
117.0506
  0
SEQEND
  0
ENDBLK
  0
BLOCK
  8
LAYER_9
  2
AIGNBL09010172
 70
64
 10
0
 20
0
 30
0
  3
AIGNBL09010172
  0
POLYLINE
  8
LAYER_9
 40
0.2469
 41
0.2469
 66
1
 10
0
 20
0
 30
0
  0
VERTEX
  8
LAYER_9
 10
128.3491
 20
117.0506
  0
VERTEX
  8
LAYER_9
 10
128.3491
 20
129.0939
  0
SEQEND
  0
ENDBLK
  0
BLOCK
  8
LAYER_9
  2
AIGNBL09010173
 70
64
 10
0
 20
0
 30
0
  3
AIGNBL09010173
  0
POLYLINE
  8
LAYER_9
 40
0.2469
 41
0.2469
 66
1
 10
0
 20
0
 30
0
  0
VERTEX
  8
LAYER_9
 10
128.3491
 20
129.0939
  0
VERTEX
  8
LAYER_9
 10
126.156
 20
129.0939
  0
SEQEND
  0
ENDBLK
  0
BLOCK
  8
LAYER_9
  2
AIGNBL09010174
 70
64
 10
0
 20
0
 30
0
  3
AIGNBL09010174
  0
POLYLINE
  8
LAYER_9
 40
0.2469
 41
0.2469
 66
1
 10
0
 20
0
 30
0
  0
VERTEX
  8
LAYER_9
 10
126.156
 20
129.0939
  0
VERTEX
  8
LAYER_9
 10
126.156
 20
128.09
  0
SEQEND
  0
ENDBLK
  0
BLOCK
  8
LAYER_9
  2
AIGNBL09010175
 70
64
 10
0
 20
0
 30
0
  3
AIGNBL09010175
  0
POLYLINE
  8
LAYER_9
 40
0.2469
 41
0.2469
 66
1
 10
0
 20
0
 30
0
  0
VERTEX
  8
LAYER_9
 10
115.5947
 20
115.1881
  0
VERTEX
  8
LAYER_9
 10
115.5947
 20
115.8331
  0
SEQEND
  0
ENDBLK
  0
BLOCK
  8
LAYER_9
  2
AIGNBL09010176
 70
64
 10
0
 20
0
 30
0
  3
AIGNBL09010176
  0
POLYLINE
  8
LAYER_9
 40
0.2469
 41
0.2469
 66
1
 10
0
 20
0
 30
0
  0
VERTEX
  8
LAYER_9
 10
115.5947
 20
115.8331
  0
VERTEX
  8
LAYER_9
 10
119.3436
 20
116.6365
  0
SEQEND
  0
ENDBLK
  0
BLOCK
  8
LAYER_9
  2
AIGNBL09010177
 70
64
 10
0
 20
0
 30
0
  3
AIGNBL09010177
  0
POLYLINE
  8
LAYER_9
 40
0.2469
 41
0.2469
 66
1
 10
0
 20
0
 30
0
  0
VERTEX
  8
LAYER_9
 10
119.3436
 20
116.6365
 42
0.3352574696
  0
VERTEX
  8
LAYER_9
 10
120.526
 20
118.0049
  0
SEQEND
  0
ENDBLK
  0
BLOCK
  8
LAYER_9
  2
AIGNBL09010178
 70
64
 10
0
 20
0
 30
0
  3
AIGNBL09010178
  0
POLYLINE
  8
LAYER_9
 40
0.2469
 41
0.2469
 66
1
 10
0
 20
0
 30
0
  0
VERTEX
  8
LAYER_9
 10
120.526
 20
118.0049
  0
VERTEX
  8
LAYER_9
 10
121.1861
 20
128.09
  0
SEQEND
  0
ENDBLK
  0
BLOCK
  8
LAYER_9
  2
AIGNBL09010179
 70
64
 10
0
 20
0
 30
0
  3
AIGNBL09010179
  0
POLYLINE
  8
LAYER_9
 40
0.2469
 41
0.2469
 66
1
 10
0
 20
0
 30
0
  0
VERTEX
  8
LAYER_9
 10
121.1861
 20
128.09
  0
VERTEX
  8
LAYER_9
 10
122.5427
 20
128.09
  0
SEQEND
  0
ENDBLK
  0
BLOCK
  8
LAYER_9
  2
AIGNBL0901017A
 70
64
 10
0
 20
0
 30
0
  3
AIGNBL0901017A
  0
POLYLINE
  8
LAYER_9
 40
0.2469
 41
0.2469
 66
1
 10
0
 20
0
 30
0
  0
VERTEX
  8
LAYER_9
 10
122.5427
 20
128.09
  0
VERTEX
  8
LAYER_9
 10
122.5427
 20
129.0939
  0
SEQEND
  0
ENDBLK
  0
BLOCK
  8
LAYER_9
  2
AIGNBL0901017B
 70
64
 10
0
 20
0
 30
0
  3
AIGNBL0901017B
  0
POLYLINE
  8
LAYER_9
 40
0.2469
 41
0.2469
 66
1
 10
0
 20
0
 30
0
  0
VERTEX
  8
LAYER_9
 10
122.5427
 20
129.0939
  0
VERTEX
  8
LAYER_9
 10
119.9596
 20
129.0939
  0
SEQEND
  0
ENDBLK
  0
BLOCK
  8
LAYER_9
  2
AIGNBL0901017C
 70
64
 10
0
 20
0
 30
0
  3
AIGNBL0901017C
  0
POLYLINE
  8
LAYER_9
 40
0.2469
 41
0.2469
 66
1
 10
0
 20
0
 30
0
  0
VERTEX
  8
LAYER_9
 10
119.9596
 20
129.0939
 42
0.3544360318
  0
VERTEX
  8
LAYER_9
 10
119.469
 20
128.6964
  0
SEQEND
  0
ENDBLK
  0
BLOCK
  8
LAYER_9
  2
AIGNBL0901017D
 70
64
 10
0
 20
0
 30
0
  3
AIGNBL0901017D
  0
POLYLINE
  8
LAYER_9
 40
0.2469
 41
0.2469
 66
1
 10
0
 20
0
 30
0
  0
VERTEX
  8
LAYER_9
 10
119.469
 20
128.6964
  0
VERTEX
  8
LAYER_9
 10
119.3464
 20
128.1224
  0
SEQEND
  0
ENDBLK
  0
BLOCK
  8
LAYER_9
  2
AIGNBL0901017E
 70
64
 10
0
 20
0
 30
0
  3
AIGNBL0901017E
  0
POLYLINE
  8
LAYER_9
 40
0.2469
 41
0.2469
 66
1
 10
0
 20
0
 30
0
  0
VERTEX
  8
LAYER_9
 10
118.8551
 20
127.7248
 42
0.3536524771
  0
VERTEX
  8
LAYER_9
 10
119.3464
 20
128.1224
  0
SEQEND
  0
ENDBLK
  0
BLOCK
  8
LAYER_9
  2
AIGNBL0901017F
 70
64
 10
0
 20
0
 30
0
  3
AIGNBL0901017F
  0
POLYLINE
  8
LAYER_9
 40
0.2469
 41
0.2469
 66
1
 10
0
 20
0
 30
0
  0
VERTEX
  8
LAYER_9
 10
118.8551
 20
127.7248
  0
VERTEX
  8
LAYER_9
 10
118.7793
 20
127.7248
  0
SEQEND
  0
ENDBLK
  0
BLOCK
  8
LAYER_9
  2
AIGNBL09010180
 70
64
 10
0
 20
0
 30
0
  3
AIGNBL09010180
  0
POLYLINE
  8
LAYER_9
 40
0.2469
 41
0.2469
 66
1
 10
0
 20
0
 30
0
  0
VERTEX
  8
LAYER_9
 10
118.7793
 20
127.7248
 42
0.3557836838
  0
VERTEX
  8
LAYER_9
 10
118.2832
 20
127.2997
  0
SEQEND
  0
ENDBLK
  0
BLOCK
  8
LAYER_9
  2
AIGNBL09010181
 70
64
 10
0
 20
0
 30
0
  3
AIGNBL09010181
  0
POLYLINE
  8
LAYER_9
 40
0.2469
 41
0.2469
 66
1
 10
0
 20
0
 30
0
  0
VERTEX
  8
LAYER_9
 10
118.2832
 20
127.2997
  0
VERTEX
  8
LAYER_9
 10
118.1523
 20
126.4522
  0
SEQEND
  0
ENDBLK
  0
BLOCK
  8
LAYER_9
  2
AIGNBL09010182
 70
64
 10
0
 20
0
 30
0
  3
AIGNBL09010182
  0
POLYLINE
  8
LAYER_9
 40
0.2469
 41
0.2469
 66
1
 10
0
 20
0
 30
0
  0
VERTEX
  8
LAYER_9
 10
118.1523
 20
126.4522
  0
VERTEX
  8
LAYER_9
 10
119.1645
 20
126.4522
  0
SEQEND
  0
ENDBLK
  0
BLOCK
  8
LAYER_9
  2
AIGNBL09010183
 70
64
 10
0
 20
0
 30
0
  3
AIGNBL09010183
  0
POLYLINE
  8
LAYER_9
 40
0.2469
 41
0.2469
 66
1
 10
0
 20
0
 30
0
  0
VERTEX
  8
LAYER_9
 10
119.1645
 20
126.4522
  0
VERTEX
  8
LAYER_9
 10
119.2134
 20
126.7685
  0
SEQEND
  0
ENDBLK
  0
BLOCK
  8
LAYER_9
  2
AIGNBL09010184
 70
64
 10
0
 20
0
 30
0
  3
AIGNBL09010184
  0
POLYLINE
  8
LAYER_9
 40
0.2469
 41
0.2469
 66
1
 10
0
 20
0
 30
0
  0
VERTEX
  8
LAYER_9
 10
119.2134
 20
126.7685
 42
0.1448382183
  0
VERTEX
  8
LAYER_9
 10
119.9479
 20
127.1971
  0
SEQEND
  0
ENDBLK
  0
BLOCK
  8
LAYER_9
  2
AIGNBL09010185
 70
64
 10
0
 20
0
 30
0
  3
AIGNBL09010185
  0
POLYLINE
  8
LAYER_9
 40
0.2469
 41
0.2469
 66
1
 10
0
 20
0
 30
0
  0
VERTEX
  8
LAYER_9
 10
120.1208
 20
127.1213
 42
0.3908847221
  0
VERTEX
  8
LAYER_9
 10
120.0271
 20
127.2281
 42
0.214886895
  0
VERTEX
  8
LAYER_9
 10
119.9479
 20
127.1971
  0
SEQEND
  0
ENDBLK
  0
BLOCK
  8
LAYER_9
  2
AIGNBL09010186
 70
64
 10
0
 20
0
 30
0
  3
AIGNBL09010186
  0
POLYLINE
  8
LAYER_9
 40
0.2469
 41
0.2469
 66
1
 10
0
 20
0
 30
0
  0
VERTEX
  8
LAYER_9
 10
120.1208
 20
127.1213
  0
VERTEX
  8
LAYER_9
 10
119.5283
 20
118.0703
  0
SEQEND
  0
ENDBLK
  0
BLOCK
  8
LAYER_9
  2
AIGNBL09010187
 70
64
 10
0
 20
0
 30
0
  3
AIGNBL09010187
  0
POLYLINE
  8
LAYER_9
 40
0.2469
 41
0.2469
 66
1
 10
0
 20
0
 30
0
  0
VERTEX
  8
LAYER_9
 10
119.1342
 20
117.6142
 42
0.3232891839
  0
VERTEX
  8
LAYER_9
 10
119.5283
 20
118.0703
  0
SEQEND
  0
ENDBLK
  0
BLOCK
  8
LAYER_9
  2
AIGNBL09010188
 70
64
 10
0
 20
0
 30
0
  3
AIGNBL09010188
  0
POLYLINE
  8
LAYER_9
 40
0.2469
 41
0.2469
 66
1
 10
0
 20
0
 30
0
  0
VERTEX
  8
LAYER_9
 10
119.1342
 20
117.6142
  0
VERTEX
  8
LAYER_9
 10
114.5949
 20
116.6413
  0
SEQEND
  0
ENDBLK
  0
BLOCK
  8
LAYER_9
  2
AIGNBL09010189
 70
64
 10
0
 20
0
 30
0
  3
AIGNBL09010189
  0
POLYLINE
  8
LAYER_9
 40
0.2469
 41
0.2469
 66
1
 10
0
 20
0
 30
0
  0
VERTEX
  8
LAYER_9
 10
114.5949
 20
116.6413
  0
VERTEX
  8
LAYER_9
 10
114.5949
 20
115.1888
  0
SEQEND
  0
ENDBLK
  0
BLOCK
  8
LAYER_9
  2
AIGNBL0901018A
 70
64
 10
0
 20
0
 30
0
  3
AIGNBL0901018A
  0
POLYLINE
  8
LAYER_9
 40
0.2469
 41
0.2469
 66
1
 10
0
 20
0
 30
0
  0
VERTEX
  8
LAYER_9
 10
114.5949
 20
115.1888
  0
VERTEX
  8
LAYER_9
 10
115.5947
 20
115.1881
  0
SEQEND
  0
ENDBLK
  0
BLOCK
  8
LAYER_9
  2
AIGNBL0901018B
 70
64
 10
0
 20
0
 30
0
  3
AIGNBL0901018B
  0
POLYLINE
  8
LAYER_9
 40
0.2469
 41
0.2469
 66
1
 10
0
 20
0
 30
0
  0
VERTEX
  8
LAYER_9
 10
119.1645
 20
126.4522
  0
VERTEX
  8
LAYER_9
 10
119.1404
 20
126.2993
  0
SEQEND
  0
ENDBLK
  0
BLOCK
  8
LAYER_9
  2
AIGNBL0901018C
 70
64
 10
0
 20
0
 30
0
  3
AIGNBL0901018C
  0
POLYLINE
  8
LAYER_9
 40
0.2469
 41
0.2469
 66
1
 10
0
 20
0
 30
0
  0
VERTEX
  8
LAYER_9
 10
119.1404
 20
126.2993
  0
VERTEX
  8
LAYER_9
 10
118.9082
 20
124.7938
  0
SEQEND
  0
ENDBLK
  0
BLOCK
  8
LAYER_9
  2
AIGNBL0901018D
 70
64
 10
0
 20
0
 30
0
  3
AIGNBL0901018D
  0
POLYLINE
  8
LAYER_9
 40
0.2469
 41
0.2469
 66
1
 10
0
 20
0
 30
0
  0
VERTEX
  8
LAYER_9
 10
118.9316
 20
124.9467
  0
VERTEX
  8
LAYER_9
 10
117.9201
 20
124.9467
  0
SEQEND
  0
ENDBLK
  0
BLOCK
  8
LAYER_9
  2
AIGNBL0901018E
 70
64
 10
0
 20
0
 30
0
  3
AIGNBL0901018E
  0
POLYLINE
  8
LAYER_9
 40
0.2469
 41
0.2469
 66
1
 10
0
 20
0
 30
0
  0
VERTEX
  8
LAYER_9
 10
117.9201
 20
124.9467
  0
VERTEX
  8
LAYER_9
 10
117.3889
 20
121.5085
  0
SEQEND
  0
ENDBLK
  0
BLOCK
  8
LAYER_9
  2
AIGNBL0901018F
 70
64
 10
0
 20
0
 30
0
  3
AIGNBL0901018F
  0
POLYLINE
  8
LAYER_9
 40
0.2469
 41
0.2469
 66
1
 10
0
 20
0
 30
0
  0
VERTEX
  8
LAYER_9
 10
116.0536
 20
120.0678
 42
0.3616379269
  0
VERTEX
  8
LAYER_9
 10
117.3889
 20
121.5085
  0
SEQEND
  0
ENDBLK
  0
BLOCK
  8
LAYER_9
  2
AIGNBL09010190
 70
64
 10
0
 20
0
 30
0
  3
AIGNBL09010190
  0
POLYLINE
  8
LAYER_9
 40
0.2469
 41
0.2469
 66
1
 10
0
 20
0
 30
0
  0
VERTEX
  8
LAYER_9
 10
116.0536
 20
120.0678
  0
VERTEX
  8
LAYER_9
 10
114.5949
 20
118.5085
  0
SEQEND
  0
ENDBLK
  0
BLOCK
  8
LAYER_9
  2
AIGNBL09010191
 70
64
 10
0
 20
0
 30
0
  3
AIGNBL09010191
  0
POLYLINE
  8
LAYER_9
 40
0.2469
 41
0.2469
 66
1
 10
0
 20
0
 30
0
  0
VERTEX
  8
LAYER_9
 10
114.5949
 20
118.5085
  0
VERTEX
  8
LAYER_9
 10
114.5949
 20
117.6679
  0
SEQEND
  0
ENDBLK
  0
BLOCK
  8
LAYER_9
  2
AIGNBL09010192
 70
64
 10
0
 20
0
 30
0
  3
AIGNBL09010192
  0
POLYLINE
  8
LAYER_9
 40
0.2469
 41
0.2469
 66
1
 10
0
 20
0
 30
0
  0
VERTEX
  8
LAYER_9
 10
114.5949
 20
117.6679
  0
VERTEX
  8
LAYER_9
 10
115.5947
 20
117.8822
  0
SEQEND
  0
ENDBLK
  0
BLOCK
  8
LAYER_9
  2
AIGNBL09010193
 70
64
 10
0
 20
0
 30
0
  3
AIGNBL09010193
  0
POLYLINE
  8
LAYER_9
 40
0.2469
 41
0.2469
 66
1
 10
0
 20
0
 30
0
  0
VERTEX
  8
LAYER_9
 10
115.5947
 20
117.8822
  0
VERTEX
  8
LAYER_9
 10
115.5947
 20
118.1137
  0
SEQEND
  0
ENDBLK
  0
BLOCK
  8
LAYER_9
  2
AIGNBL09010194
 70
64
 10
0
 20
0
 30
0
  3
AIGNBL09010194
  0
POLYLINE
  8
LAYER_9
 40
0.2469
 41
0.2469
 66
1
 10
0
 20
0
 30
0
  0
VERTEX
  8
LAYER_9
 10
115.5947
 20
118.1137
  0
VERTEX
  8
LAYER_9
 10
116.5448
 20
119.1286
  0
SEQEND
  0
ENDBLK
  0
BLOCK
  8
LAYER_9
  2
AIGNBL09010195
 70
64
 10
0
 20
0
 30
0
  3
AIGNBL09010195
  0
POLYLINE
  8
LAYER_9
 40
0.2469
 41
0.2469
 66
1
 10
0
 20
0
 30
0
  0
VERTEX
  8
LAYER_9
 10
116.5448
 20
119.1286
 42
0.2981895385
  0
VERTEX
  8
LAYER_9
 10
118.3769
 20
121.3556
  0
SEQEND
  0
ENDBLK
  0
BLOCK
  8
LAYER_9
  2
AIGNBL09010196
 70
64
 10
0
 20
0
 30
0
  3
AIGNBL09010196
  0
POLYLINE
  8
LAYER_9
 40
0.2469
 41
0.2469
 66
1
 10
0
 20
0
 30
0
  0
VERTEX
  8
LAYER_9
 10
118.3769
 20
121.3556
  0
VERTEX
  8
LAYER_9
 10
118.9316
 20
124.9467
  0
SEQEND
  0
ENDBLK
  0
BLOCK
  8
LAYER_9
  2
AIGNBL09010197
 70
64
 10
0
 20
0
 30
0
  3
AIGNBL09010197
  0
POLYLINE
  8
LAYER_9
 40
0.2469
 41
0.2469
 66
1
 10
0
 20
0
 30
0
  0
VERTEX
  8
LAYER_9
 10
118.1523
 20
126.4522
  0
VERTEX
  8
LAYER_9
 10
117.9201
 20
124.9467
  0
SEQEND
  0
ENDBLK
  0
BLOCK
  8
LAYER_10
  2
AIGNBL0A010002
 70
64
 10
0
 20
0
 30
0
  3
AIGNBL0A010002
  0
INSERT
  8
LAYER_10
  2
AIGNBL0A020003
 10
0
 20
0
 30
0
  0
INSERT
  8
LAYER_10
  2
AIGNBL0A020004
 10
0
 20
0
 30
0
  0
ENDBLK
  0
BLOCK
  8
LAYER_11
  2
AIGNBL0B010002
 70
64
 10
0
 20
0
 30
0
  3
AIGNBL0B010002
  0
POLYLINE
  8
LAYER_11
 40
0.7056
 41
0.7056
 66
1
 10
0
 20
0
 30
0
 70
1
  0
VERTEX
  8
LAYER_11
 10
251.6749
 20
230.337
  0
VERTEX
  8
LAYER_11
 10
251.6749
 20
33.3285
  0
VERTEX
  8
LAYER_11
 10
-30.3177
 20
33.3285
  0
VERTEX
  8
LAYER_11
 10
-30.3177
 20
230.337
  0
SEQEND
  0
ENDBLK
  0
BLOCK
  8
LAYER_11
  2
AIGNBL0B010003
 70
64
 10
0
 20
0
 30
0
  3
AIGNBL0B010003
  0
INSERT
  8
LAYER_11
  2
AIGNBL0B020004
 10
0
 20
0
 30
0
  0
INSERT
  8
LAYER_11
  2
AIGNBL0B02000D
 10
0
 20
0
 30
0
  0
ENDBLK
  0
BLOCK
  8
LAYER_11
  2
AIGNBL0B010025
 70
64
 10
0
 20
0
 30
0
  3
AIGNBL0B010025
  0
POLYLINE
  8
LAYER_11
 40
0.05
 41
0.05
 66
1
 10
0
 20
0
 30
0
  0
VERTEX
  8
LAYER_11
 10
-24.7289
 20
219.7266
 42
0.1341998603
  0
VERTEX
  8
LAYER_11
 10
-24.5592
 20
219.0834
 42
0.1261801142
  0
VERTEX
  8
LAYER_11
 10
-24.0913
 20
218.6274
 42
0.07945580654
  0
VERTEX
  8
LAYER_11
 10
-23.4074
 20
218.3548
  0
VERTEX
  8
LAYER_11
 10
-22.7375
 20
218.1977
 42
-0.06331127127
  0
VERTEX
  8
LAYER_11
 10
-22.2152
 20
218.0208
 42
-0.1808667761
  0
VERTEX
  8
LAYER_11
 10
-21.906
 20
217.7022
 42
-0.08676547354
  0
VERTEX
  8
LAYER_11
 10
-21.8731
 20
217.4973
 42
-0.294092483
  0
VERTEX
  8
LAYER_11
 10
-22.2545
 20
216.9168
 42
-0.1199497409
  0
VERTEX
  8
LAYER_11
 10
-22.9007
 20
216.768
 42
-0.005103624089
  0
VERTEX
  8
LAYER_11
 10
-22.938
 20
216.7676
 42
-0.1318366197
  0
VERTEX
  8
LAYER_11
 10
-23.6289
 20
216.9475
 42
-0.1172016517
  0
VERTEX
  8
LAYER_11
 10
-24.1316
 20
217.4313
 42
-0.004865723742
  0
VERTEX
  8
LAYER_11
 10
-24.1512
 20
217.4611
  0
VERTEX
  8
LAYER_11
 10
-24.2002
 20
217.5356
  0
VERTEX
  8
LAYER_11
 10
-24.9396
 20
217.0283
  0
VERTEX
  8
LAYER_11
 10
-24.8924
 20
216.9575
 42
0.1006692345
  0
VERTEX
  8
LAYER_11
 10
-24.2656
 20
216.3278
 42
0.09822650202
  0
VERTEX
  8
LAYER_11
 10
-23.491
 20
216.02
 42
0.04873469498
  0
VERTEX
  8
LAYER_11
 10
-22.938
 20
215.9689
 42
0.09078870715
  0
VERTEX
  8
LAYER_11
 10
-21.9452
 20
216.1461
 42
0.1030174332
  0
VERTEX
  8
LAYER_11
 10
-21.3352
 20
216.5404
 42
0.1803448142
  0
VERTEX
  8
LAYER_11
 10
-20.9524
 20
217.4258
 42
0.01943778951
  0
VERTEX
  8
LAYER_11
 10
-20.9476
 20
217.56
 42
0.2531765608
  0
VERTEX
  8
LAYER_11
 10
-21.5885
 20
218.7222
 42
0.09194545039
  0
VERTEX
  8
LAYER_11
 10
-22.2057
 20
218.9827
  0
VERTEX
  8
LAYER_11
 10
-22.9068
 20
219.1511
 42
-0.0578189963
  0
VERTEX
  8
LAYER_11
 10
-23.4528
 20
219.3232
 42
-0.1855772451
  0
VERTEX
  8
LAYER_11
 10
-23.7676
 20
219.6264
 42
-0.08926070578
  0
VERTEX
  8
LAYER_11
 10
-23.8011
 20
219.8403
 42
-0.313498231
  0
VERTEX
  8
LAYER_11
 10
-23.4222
 20
220.3762
 42
-0.106300738
  0
VERTEX
  8
LAYER_11
 10
-22.8751
 20
220.4863
 42
-0.1482953379
  0
VERTEX
  8
LAYER_11
 10
-22.2709
 20
220.3127
 42
-0.1294644155
  0
VERTEX
  8
LAYER_11
 10
-21.8948
 20
219.8732
  0
VERTEX
  8
LAYER_11
 10
-21.8503
 20
219.7888
  0
VERTEX
  8
LAYER_11
 10
-21.0886
 20
220.2925
  0
VERTEX
  8
LAYER_11
 10
-21.1229
 20
220.3597
 42
0.2370693896
  0
VERTEX
  8
LAYER_11
 10
-22.2986
 20
221.2338
 42
0.05316238654
  0
VERTEX
  8
LAYER_11
 10
-22.8329
 20
221.2874
 42
0.09532594653
  0
VERTEX
  8
LAYER_11
 10
-23.7699
 20
221.1115
 42
0.1053422287
  0
VERTEX
  8
LAYER_11
 10
-24.364
 20
220.7089
 42
0.1944052329
  0
VERTEX
  8
LAYER_11
 10
-24.7289
 20
219.7266
  0
SEQEND
  0
POLYLINE
  8
LAYER_11
 40
0.05
 41
0.05
 66
1
 10
0
 20
0
 30
0
  0
VERTEX
  8
LAYER_11
 10
-20.6499
 20
222.9568
 42
0.3936055487
  0
VERTEX
  8
LAYER_11
 10
-20.0589
 20
222.3685
 42
0.38612246
  0
VERTEX
  8
LAYER_11
 10
-19.4719
 20
222.9568
 42
0.392145625
  0
VERTEX
  8
LAYER_11
 10
-20.0589
 20
223.5464
 42
0.3856564111
  0
VERTEX
  8
LAYER_11
 10
-20.6499
 20
222.9568
  0
SEQEND
  0
POLYLINE
  8
LAYER_11
 40
0.05
 41
0.05
 66
1
 10
0
 20
0
 30
0
  0
VERTEX
  8
LAYER_11
 10
-19.7159
 20
221.162
  0
VERTEX
  8
LAYER_11
 10
-20.4918
 20
221.162
  0
VERTEX
  8
LAYER_11
 10
-20.4918
 20
216.0938
  0
VERTEX
  8
LAYER_11
 10
-19.6286
 20
216.0938
  0
VERTEX
  8
LAYER_11
 10
-19.6286
 20
221.162
  0
SEQEND
  0
POLYLINE
  8
LAYER_11
 40
0.05
 41
0.05
 66
1
 10
0
 20
0
 30
0
  0
VERTEX
  8
LAYER_11
 10
-15.1212
 20
220.3724
 42
0.1207793697
  0
VERTEX
  8
LAYER_11
 10
-15.6145
 20
220.9712
 42
0.1123792155
  0
VERTEX
  8
LAYER_11
 10
-16.2716
 20
221.2487
 42
0.04782249271
  0
VERTEX
  8
LAYER_11
 10
-16.6841
 20
221.2869
 42
0.1072902452
  0
VERTEX
  8
LAYER_11
 10
-17.5023
 20
221.1052
 42
0.09984805864
  0
VERTEX
  8
LAYER_11
 10
-18.1382
 20
220.6458
 42
0.01292207714
  0
VERTEX
  8
LAYER_11
 10
-18.198
 20
220.5762
  0
VERTEX
  8
LAYER_11
 10
-18.198
 20
221.1615
  0
VERTEX
  8
LAYER_11
 10
-19.0617
 20
221.1615
  0
VERTEX
  8
LAYER_11
 10
-19.0617
 20
216.0936
  0
VERTEX
  8
LAYER_11
 10
-18.198
 20
216.0936
  0
VERTEX
  8
LAYER_11
 10
-18.198
 20
218.6907
 42
-0.09654084086
  0
VERTEX
  8
LAYER_11
 10
-18.0246
 20
219.6722
 42
-0.1188565985
  0
VERTEX
  8
LAYER_11
 10
-17.6298
 20
220.2091
 42
-0.15802177
  0
VERTEX
  8
LAYER_11
 10
-16.9046
 20
220.4863
 42
-0.1299880469
  0
VERTEX
  8
LAYER_11
 10
-16.2243
 20
220.3327
 42
-0.157674645
  0
VERTEX
  8
LAYER_11
 10
-15.902
 20
219.953
 42
-0.05721612476
  0
VERTEX
  8
LAYER_11
 10
-15.8045
 20
219.631
 42
-0.04865503774
  0
VERTEX
  8
LAYER_11
 10
-15.7563
 20
219.0343
  0
VERTEX
  8
LAYER_11
 10
-15.7563
 20
216.0936
  0
VERTEX
  8
LAYER_11
 10
-14.8928
 20
216.0936
  0
VERTEX
  8
LAYER_11
 10
-14.8928
 20
218.7842
 42
-0.09089878682
  0
VERTEX
  8
LAYER_11
 10
-14.73
 20
219.7237
 42
-0.1191956233
  0
VERTEX
  8
LAYER_11
 10
-14.373
 20
220.2329
 42
-0.1344089617
  0
VERTEX
  8
LAYER_11
 10
-13.8547
 20
220.4654
 42
-0.0420961071
  0
VERTEX
  8
LAYER_11
 10
-13.5999
 20
220.4863
 42
-0.1298666677
  0
VERTEX
  8
LAYER_11
 10
-12.9187
 20
220.3327
 42
-0.1577640298
  0
VERTEX
  8
LAYER_11
 10
-12.5963
 20
219.953
 42
-0.05724087092
  0
VERTEX
  8
LAYER_11
 10
-12.4988
 20
219.631
 42
-0.04863371269
  0
VERTEX
  8
LAYER_11
 10
-12.4506
 20
219.0343
  0
VERTEX
  8
LAYER_11
 10
-12.4506
 20
216.0936
  0
VERTEX
  8
LAYER_11
 10
-11.5888
 20
216.0936
  0
VERTEX
  8
LAYER_11
 10
-11.5888
 20
219.2864
 42
0.09153782216
  0
VERTEX
  8
LAYER_11
 10
-11.7541
 20
220.2648
 42
0.1137261355
  0
VERTEX
  8
LAYER_11
 10
-12.1584
 20
220.8533
 42
0.1162496969
  0
VERTEX
  8
LAYER_11
 10
-12.7979
 20
221.1952
 42
0.07225208486
  0
VERTEX
  8
LAYER_11
 10
-13.5156
 20
221.2869
 42
0.2580554516
  0
VERTEX
  8
LAYER_11
 10
-15.1212
 20
220.3724
  0
SEQEND
  0
POLYLINE
  8
LAYER_11
 40
0.05
 41
0.05
 66
1
 10
0
 20
0
 30
0
  0
VERTEX
  8
LAYER_11
 10
-6.5398
 20
219.7266
 42
0.134478161
  0
VERTEX
  8
LAYER_11
 10
-6.3695
 20
219.0834
 42
0.1258963062
  0
VERTEX
  8
LAYER_11
 10
-5.9013
 20
218.6274
 42
0.07937172531
  0
VERTEX
  8
LAYER_11
 10
-5.2179
 20
218.3548
  0
VERTEX
  8
LAYER_11
 10
-4.5484
 20
218.1975
 42
-0.0631755932
  0
VERTEX
  8
LAYER_11
 10
-4.0263
 20
218.0207
 42
-0.1806469744
  0
VERTEX
  8
LAYER_11
 10
-3.7165
 20
217.702
 42
-0.08701309377
  0
VERTEX
  8
LAYER_11
 10
-3.6835
 20
217.4971
 42
-0.2942232517
  0
VERTEX
  8
LAYER_11
 10
-4.0651
 20
216.9167
 42
-0.1198550748
  0
VERTEX
  8
LAYER_11
 10
-4.7111
 20
216.768
 42
-0.00510181154
  0
VERTEX
  8
LAYER_11
 10
-4.7484
 20
216.7676
 42
-0.1318458306
  0
VERTEX
  8
LAYER_11
 10
-5.4397
 20
216.9475
 42
-0.1159139727
  0
VERTEX
  8
LAYER_11
 10
-5.937
 20
217.4238
 42
-0.006091595461
  0
VERTEX
  8
LAYER_11
 10
-5.9617
 20
217.4611
  0
VERTEX
  8
LAYER_11
 10
-6.0112
 20
217.5356
  0
VERTEX
  8
LAYER_11
 10
-6.75
 20
217.0283
  0
VERTEX
  8
LAYER_11
 10
-6.7036
 20
216.9575
 42
0.1007089848
  0
VERTEX
  8
LAYER_11
 10
-6.0762
 20
216.3277
 42
0.09809690095
  0
VERTEX
  8
LAYER_11
 10
-5.3011
 20
216.0197
 42
0.04876238065
  0
VERTEX
  8
LAYER_11
 10
-4.7484
 20
215.9686
 42
0.09078829841
  0
VERTEX
  8
LAYER_11
 10
-3.7557
 20
216.1459
 42
0.1029678866
  0
VERTEX
  8
LAYER_11
 10
-3.1454
 20
216.5402
 42
0.1803654561
  0
VERTEX
  8
LAYER_11
 10
-2.7623
 20
217.4258
 42
0.01945105513
  0
VERTEX
  8
LAYER_11
 10
-2.7575
 20
217.56
 42
0.2535980107
  0
VERTEX
  8
LAYER_11
 10
-3.3999
 20
218.7221
 42
0.09173199894
  0
VERTEX
  8
LAYER_11
 10
-4.018
 20
218.9827
  0
VERTEX
  8
LAYER_11
 10
-4.7177
 20
219.1511
 42
-0.05991192419
  0
VERTEX
  8
LAYER_11
 10
-5.2728
 20
219.3275
 42
-0.1874515711
  0
VERTEX
  8
LAYER_11
 10
-5.5828
 20
219.6332
 42
-0.08582021468
  0
VERTEX
  8
LAYER_11
 10
-5.6143
 20
219.8403
 42
-0.314077401
  0
VERTEX
  8
LAYER_11
 10
-5.2343
 20
220.3762
 42
-0.1060544966
  0
VERTEX
  8
LAYER_11
 10
-4.6848
 20
220.4863
 42
-0.1486063154
  0
VERTEX
  8
LAYER_11
 10
-4.0809
 20
220.3127
 42
-0.1292830572
  0
VERTEX
  8
LAYER_11
 10
-3.7057
 20
219.8732
  0
VERTEX
  8
LAYER_11
 10
-3.6608
 20
219.7888
  0
VERTEX
  8
LAYER_11
 10
-2.8992
 20
220.2925
  0
VERTEX
  8
LAYER_11
 10
-2.933
 20
220.3595
 42
0.237196535
  0
VERTEX
  8
LAYER_11
 10
-4.1097
 20
221.2337
 42
0.05314185225
  0
VERTEX
  8
LAYER_11
 10
-4.6438
 20
221.2873
 42
0.09533727001
  0
VERTEX
  8
LAYER_11
 10
-5.5811
 20
221.1115
 42
0.1053851178
  0
VERTEX
  8
LAYER_11
 10
-6.1751
 20
220.7089
 42
0.1943913526
  0
VERTEX
  8
LAYER_11
 10
-6.5398
 20
219.7266
  0
SEQEND
  0
INSERT
  8
LAYER_11
  2
AIGNBL0B020026
 10
0
 20
0
 30
0
  0
INSERT
  8
LAYER_11
  2
AIGNBL0B020027
 10
0
 20
0
 30
0
  0
INSERT
  8
LAYER_11
  2
AIGNBL0B020028
 10
0
 20
0
 30
0
  0
POLYLINE
  8
LAYER_11
 40
0.05
 41
0.05
 66
1
 10
0
 20
0
 30
0
  0
VERTEX
  8
LAYER_11
 10
-20.9091
 20
213.692
 42
0.2128452805
  0
VERTEX
  8
LAYER_11
 10
-21.2785
 20
213.8653
 42
0.4107545191
  0
VERTEX
  8
LAYER_11
 10
-21.8793
 20
213.2387
 42
0.1832232544
  0
VERTEX
  8
LAYER_11
 10
-21.7095
 20
212.7686
 42
0.2124026091
  0
VERTEX
  8
LAYER_11
 10
-21.2785
 20
212.5886
 42
0.2429399681
  0
VERTEX
  8
LAYER_11
 10
-20.8847
 20
212.8017
  0
VERTEX
  8
LAYER_11
 10
-20.6282
 20
212.6175
 42
-0.2483368577
  0
VERTEX
  8
LAYER_11
 10
-21.2802
 20
212.3057
 42
-0.1519221822
  0
VERTEX
  8
LAYER_11
 10
-21.8463
 20
212.4749
 42
-0.2337791857
  0
VERTEX
  8
LAYER_11
 10
-22.2039
 20
213.1558
 42
-0.01462202831
  0
VERTEX
  8
LAYER_11
 10
-22.2057
 20
213.219
 42
-0.1526640936
  0
VERTEX
  8
LAYER_11
 10
-22.0367
 20
213.7867
 42
-0.2349220238
  0
VERTEX
  8
LAYER_11
 10
-21.3427
 20
214.1454
 42
-0.01403410383
  0
VERTEX
  8
LAYER_11
 10
-21.2802
 20
214.1471
 42
-0.1771442668
  0
VERTEX
  8
LAYER_11
 10
-20.7724
 20
213.9741
 42
-0.0394909762
  0
VERTEX
  8
LAYER_11
 10
-20.6673
 20
213.8707
  0
SEQEND
  0
INSERT
  8
LAYER_11
  2
AIGNBL0B020029
 10
0
 20
0
 30
0
  0
POLYLINE
  8
LAYER_11
 40
0.05
 41
0.05
 66
1
 10
0
 20
0
 30
0
  0
VERTEX
  8
LAYER_11
 10
-16.1647
 20
212.9941
 42
-0.182226301
  0
VERTEX
  8
LAYER_11
 10
-16.3329
 20
212.5261
 42
-0.1768067702
  0
VERTEX
  8
LAYER_11
 10
-16.7424
 20
212.3151
 42
-0.03937171115
  0
VERTEX
  8
LAYER_11
 10
-16.8703
 20
212.3057
 42
-0.1767902592
  0
VERTEX
  8
LAYER_11
 10
-17.3545
 20
212.4748
 42
-0.2234110022
  0
VERTEX
  8
LAYER_11
 10
-17.5745
 20
212.9941
  0
VERTEX
  8
LAYER_11
 10
-17.5745
 20
214.1029
  0
VERTEX
  8
LAYER_11
 10
-17.2613
 20
214.1029
  0
VERTEX
  8
LAYER_11
 10
-17.2613
 20
213.0037
 42
0.2349518793
  0
VERTEX
  8
LAYER_11
 10
-17.1016
 20
212.6665
 42
0.1547549989
  0
VERTEX
  8
LAYER_11
 10
-16.8703
 20
212.6029
 42
0.2547042701
  0
VERTEX
  8
LAYER_11
 10
-16.5428
 20
212.765
 42
0.1423144498
  0
VERTEX
  8
LAYER_11
 10
-16.477
 20
213.0037
  0
VERTEX
  8
LAYER_11
 10
-16.477
 20
214.1029
  0
VERTEX
  8
LAYER_11
 10
-16.1647
 20
214.1029
  0
SEQEND
  0
INSERT
  8
LAYER_11
  2
AIGNBL0B02002A
 10
0
 20
0
 30
0
  0
POLYLINE
  8
LAYER_11
 40
0.05
 41
0.05
 66
1
 10
0
 20
0
 30
0
  0
VERTEX
  8
LAYER_11
 10
-11.0638
 20
213.9659
 42
0.1866912973
  0
VERTEX
  8
LAYER_11
 10
-11.5272
 20
214.146
 42
0.01070503088
  0
VERTEX
  8
LAYER_11
 10
-11.566
 20
214.1468
 42
0.1725298242
  0
VERTEX
  8
LAYER_11
 10
-12.0539
 20
213.9827
 42
0.2187144791
  0
VERTEX
  8
LAYER_11
 10
-12.212
 20
213.6169
 42
0.3561528276
  0
VERTEX
  8
LAYER_11
 10
-11.8351
 20
213.1453
 42
-0.4171847534
  0
VERTEX
  8
LAYER_11
 10
-11.3804
 20
212.8287
 42
-0.3336174057
  0
VERTEX
  8
LAYER_11
 10
-11.5558
 20
212.6102
 42
-0.08312278128
  0
VERTEX
  8
LAYER_11
 10
-11.6868
 20
212.5881
 42
-0.2454546156
  0
VERTEX
  8
LAYER_11
 10
-12.0342
 20
212.7715
  0
VERTEX
  8
LAYER_11
 10
-12.269
 20
212.5433
 42
0.1909646496
  0
VERTEX
  8
LAYER_11
 10
-11.8308
 20
212.3153
 42
0.03754446626
  0
VERTEX
  8
LAYER_11
 10
-11.6944
 20
212.3061
 42
0.1763129968
  0
VERTEX
  8
LAYER_11
 10
-11.2183
 20
212.4674
 42
0.2195410449
  0
VERTEX
  8
LAYER_11
 10
-11.0534
 20
212.8657
 42
0.3531728127
  0
VERTEX
  8
LAYER_11
 10
-11.4303
 20
213.3408
 42
-0.05600320357
  0
VERTEX
  8
LAYER_11
 10
-11.7961
 20
213.4825
 42
-0.2537327505
  0
VERTEX
  8
LAYER_11
 10
-11.8851
 20
213.6398
 42
-0.3489179098
  0
VERTEX
  8
LAYER_11
 10
-11.7191
 20
213.848
 42
-0.0709767932
  0
VERTEX
  8
LAYER_11
 10
-11.5983
 20
213.8648
 42
-0.2306121412
  0
VERTEX
  8
LAYER_11
 10
-11.2913
 20
213.7261
  0
SEQEND
  0
INSERT
  8
LAYER_11
  2
AIGNBL0B02002B
 10
0
 20
0
 30
0
  0
INSERT
  8
LAYER_11
  2
AIGNBL0B02002C
 10
0
 20
0
 30
0
  0
POLYLINE
  8
LAYER_11
 40
0.05
 41
0.05
 66
1
 10
0
 20
0
 30
0
  0
VERTEX
  8
LAYER_11
 10
-5.2994
 20
213.692
 42
0.2131564742
  0
VERTEX
  8
LAYER_11
 10
-5.6677
 20
213.8653
 42
0.4105330837
  0
VERTEX
  8
LAYER_11
 10
-6.269
 20
213.2387
 42
0.1833694889
  0
VERTEX
  8
LAYER_11
 10
-6.099
 20
212.7686
 42
0.2122774884
  0
VERTEX
  8
LAYER_11
 10
-5.6677
 20
212.5886
 42
0.2419557088
  0
VERTEX
  8
LAYER_11
 10
-5.2744
 20
212.8017
  0
VERTEX
  8
LAYER_11
 10
-5.0183
 20
212.6175
 42
-0.2484506135
  0
VERTEX
  8
LAYER_11
 10
-5.6705
 20
212.3057
 42
-0.1519221822
  0
VERTEX
  8
LAYER_11
 10
-6.2366
 20
212.4749
 42
-0.2337791857
  0
VERTEX
  8
LAYER_11
 10
-6.5942
 20
213.1558
 42
-0.01462202831
  0
VERTEX
  8
LAYER_11
 10
-6.596
 20
213.219
 42
-0.1526640936
  0
VERTEX
  8
LAYER_11
 10
-6.427
 20
213.7867
 42
-0.2349220238
  0
VERTEX
  8
LAYER_11
 10
-5.733
 20
214.1454
 42
-0.01403410383
  0
VERTEX
  8
LAYER_11
 10
-5.6705
 20
214.1471
 42
-0.1770394846
  0
VERTEX
  8
LAYER_11
 10
-5.1623
 20
213.9741
 42
-0.03940951695
  0
VERTEX
  8
LAYER_11
 10
-5.0571
 20
213.8707
  0
SEQEND
  0
POLYLINE
  8
LAYER_11
 40
0.05
 41
0.05
 66
1
 10
0
 20
0
 30
0
  0
VERTEX
  8
LAYER_11
 10
-4.4354
 20
214.1029
  0
VERTEX
  8
LAYER_11
 10
-3.2751
 20
214.1029
  0
VERTEX
  8
LAYER_11
 10
-3.2751
 20
213.8202
  0
VERTEX
  8
LAYER_11
 10
-4.1231
 20
213.8202
  0
VERTEX
  8
LAYER_11
 10
-4.1231
 20
213.3901
  0
VERTEX
  8
LAYER_11
 10
-3.3195
 20
213.3901
  0
VERTEX
  8
LAYER_11
 10
-3.3195
 20
213.1079
  0
VERTEX
  8
LAYER_11
 10
-4.1231
 20
213.1079
  0
VERTEX
  8
LAYER_11
 10
-4.1231
 20
212.633
  0
VERTEX
  8
LAYER_11
 10
-3.2318
 20
212.633
  0
VERTEX
  8
LAYER_11
 10
-3.2318
 20
212.3512
  0
VERTEX
  8
LAYER_11
 10
-4.4354
 20
212.3512
  0
SEQEND
  0
ENDBLK
  0
BLOCK
  8
LAYER_11
  2
AIGNBL0B01002D
 70
64
 10
0
 20
0
 30
0
  3
AIGNBL0B01002D
  0
POLYLINE
  8
LAYER_11
 40
0.1199
 41
0.1199
 66
1
 10
0
 20
0
 30
0
  0
VERTEX
  8
LAYER_11
 10
112.3494
 20
129.0677
  0
VERTEX
  8
LAYER_11
 10
112.3494
 20
120.0678
  0
SEQEND
  0
ENDBLK
  0
BLOCK
  8
LAYER_11
  2
AIGNBL0B01002E
 70
64
 10
0
 20
0
 30
0
  3
AIGNBL0B01002E
  0
POLYLINE
  8
LAYER_11
 40
0.1129
 41
0.1129
 66
1
 10
0
 20
0
 30
0
  0
VERTEX
  8
LAYER_11
 10
70.537
 20
168.3534
  0
VERTEX
  8
LAYER_11
 10
70.537
 20
184.3533
  0
SEQEND
  0
POLYLINE
  8
LAYER_11
 40
0.1129
 41
0.1129
 66
1
 10
0
 20
0
 30
0
  0
VERTEX
  8
LAYER_11
 10
68.5381
 20
168.3532
  0
VERTEX
  8
LAYER_11
 10
77.6924
 20
168.3532
  0
SEQEND
  0
ENDBLK
  0
ENDSEC
  0
SECTION
  2
ENTITIES
  0
TEXT
  8
LAYER_6
 10
74.3431
 20
175.3192
 11
74.3431
 21
175.3192
 40
2.9618
 41
0.5
  1
36
  0
TEXT
  8
LAYER_6
 10
82.4752
 20
167.3004
 11
82.4752
 21
167.3004
 40
2.9618
 41
0.5
  1
45
  0
INSERT
  8
LAYER_7
  2
AIGNBL07010002
 10
0
 20
0
 30
0
  0
INSERT
  8
LAYER_7
  2
AIGNBL07010003
 10
0
 20
0
 30
0
  0
INSERT
  8
LAYER_7
  2
AIGNBL07010004
 10
0
 20
0
 30
0
  0
INSERT
  8
LAYER_7
  2
AIGNBL07010005
 10
0
 20
0
 30
0
  0
INSERT
  8
LAYER_8
  2
AIGNBL08010002
 10
0
 20
0
 30
0
  0
INSERT
  8
LAYER_8
  2
AIGNBL08010003
 10
0
 20
0
 30
0
  0
INSERT
  8
LAYER_8
  2
AIGNBL08010004
 10
0
 20
0
 30
0
  0
INSERT
  8
LAYER_8
  2
AIGNBL08010005
 10
0
 20
0
 30
0
  0
INSERT
  8
LAYER_8
  2
AIGNBL08010006
 10
0
 20
0
 30
0
  0
INSERT
  8
LAYER_8
  2
AIGNBL08010007
 10
0
 20
0
 30
0
  0
INSERT
  8
LAYER_8
  2
AIGNBL08010008
 10
0
 20
0
 30
0
  0
INSERT
  8
LAYER_8
  2
AIGNBL08010009
 10
0
 20
0
 30
0
  0
INSERT
  8
LAYER_8
  2
AIGNBL0801000A
 10
0
 20
0
 30
0
  0
INSERT
  8
LAYER_8
  2
AIGNBL0801000B
 10
0
 20
0
 30
0
  0
INSERT
  8
LAYER_8
  2
AIGNBL0801000C
 10
0
 20
0
 30
0
  0
INSERT
  8
LAYER_8
  2
AIGNBL0801000D
 10
0
 20
0
 30
0
  0
INSERT
  8
LAYER_8
  2
AIGNBL0801000E
 10
0
 20
0
 30
0
  0
INSERT
  8
LAYER_8
  2
AIGNBL0801000F
 10
0
 20
0
 30
0
  0
INSERT
  8
LAYER_8
  2
AIGNBL08010010
 10
0
 20
0
 30
0
  0
INSERT
  8
LAYER_8
  2
AIGNBL08010011
 10
0
 20
0
 30
0
  0
INSERT
  8
LAYER_8
  2
AIGNBL08010012
 10
0
 20
0
 30
0
  0
INSERT
  8
LAYER_8
  2
AIGNBL08010013
 10
0
 20
0
 30
0
  0
INSERT
  8
LAYER_9
  2
AIGNBL09010002
 10
0
 20
0
 30
0
  0
INSERT
  8
LAYER_9
  2
AIGNBL09010003
 10
0
 20
0
 30
0
  0
INSERT
  8
LAYER_9
  2
AIGNBL09010004
 10
0
 20
0
 30
0
  0
INSERT
  8
LAYER_9
  2
AIGNBL09010005
 10
0
 20
0
 30
0
  0
INSERT
  8
LAYER_9
  2
AIGNBL09010006
 10
0
 20
0
 30
0
  0
INSERT
  8
LAYER_9
  2
AIGNBL09010007
 10
0
 20
0
 30
0
  0
INSERT
  8
LAYER_9
  2
AIGNBL09010008
 10
0
 20
0
 30
0
  0
INSERT
  8
LAYER_9
  2
AIGNBL09010009
 10
0
 20
0
 30
0
  0
INSERT
  8
LAYER_9
  2
AIGNBL0901000A
 10
0
 20
0
 30
0
  0
INSERT
  8
LAYER_9
  2
AIGNBL0901000B
 10
0
 20
0
 30
0
  0
INSERT
  8
LAYER_9
  2
AIGNBL0901000C
 10
0
 20
0
 30
0
  0
INSERT
  8
LAYER_9
  2
AIGNBL0901000D
 10
0
 20
0
 30
0
  0
INSERT
  8
LAYER_9
  2
AIGNBL0901000E
 10
0
 20
0
 30
0
  0
INSERT
  8
LAYER_9
  2
AIGNBL0901000F
 10
0
 20
0
 30
0
  0
INSERT
  8
LAYER_9
  2
AIGNBL09010010
 10
0
 20
0
 30
0
  0
INSERT
  8
LAYER_9
  2
AIGNBL09010011
 10
0
 20
0
 30
0
  0
INSERT
  8
LAYER_9
  2
AIGNBL09010012
 10
0
 20
0
 30
0
  0
INSERT
  8
LAYER_9
  2
AIGNBL09010013
 10
0
 20
0
 30
0
  0
INSERT
  8
LAYER_9
  2
AIGNBL09010014
 10
0
 20
0
 30
0
  0
INSERT
  8
LAYER_9
  2
AIGNBL09010015
 10
0
 20
0
 30
0
  0
INSERT
  8
LAYER_9
  2
AIGNBL09010016
 10
0
 20
0
 30
0
  0
INSERT
  8
LAYER_9
  2
AIGNBL09010017
 10
0
 20
0
 30
0
  0
INSERT
  8
LAYER_9
  2
AIGNBL09010018
 10
0
 20
0
 30
0
  0
INSERT
  8
LAYER_9
  2
AIGNBL09010019
 10
0
 20
0
 30
0
  0
INSERT
  8
LAYER_9
  2
AIGNBL0901001A
 10
0
 20
0
 30
0
  0
INSERT
  8
LAYER_9
  2
AIGNBL0901001B
 10
0
 20
0
 30
0
  0
INSERT
  8
LAYER_9
  2
AIGNBL0901001C
 10
0
 20
0
 30
0
  0
INSERT
  8
LAYER_9
  2
AIGNBL0901001D
 10
0
 20
0
 30
0
  0
INSERT
  8
LAYER_9
  2
AIGNBL0901001E
 10
0
 20
0
 30
0
  0
INSERT
  8
LAYER_9
  2
AIGNBL0901001F
 10
0
 20
0
 30
0
  0
INSERT
  8
LAYER_9
  2
AIGNBL09010020
 10
0
 20
0
 30
0
  0
INSERT
  8
LAYER_9
  2
AIGNBL09010021
 10
0
 20
0
 30
0
  0
INSERT
  8
LAYER_9
  2
AIGNBL09010022
 10
0
 20
0
 30
0
  0
INSERT
  8
LAYER_9
  2
AIGNBL09010023
 10
0
 20
0
 30
0
  0
INSERT
  8
LAYER_9
  2
AIGNBL09010024
 10
0
 20
0
 30
0
  0
INSERT
  8
LAYER_9
  2
AIGNBL09010025
 10
0
 20
0
 30
0
  0
INSERT
  8
LAYER_9
  2
AIGNBL09010026
 10
0
 20
0
 30
0
  0
INSERT
  8
LAYER_9
  2
AIGNBL09010027
 10
0
 20
0
 30
0
  0
INSERT
  8
LAYER_9
  2
AIGNBL09010028
 10
0
 20
0
 30
0
  0
INSERT
  8
LAYER_9
  2
AIGNBL09010029
 10
0
 20
0
 30
0
  0
INSERT
  8
LAYER_9
  2
AIGNBL0901002A
 10
0
 20
0
 30
0
  0
INSERT
  8
LAYER_9
  2
AIGNBL0901002B
 10
0
 20
0
 30
0
  0
INSERT
  8
LAYER_9
  2
AIGNBL0901002C
 10
0
 20
0
 30
0
  0
INSERT
  8
LAYER_9
  2
AIGNBL0901002D
 10
0
 20
0
 30
0
  0
INSERT
  8
LAYER_9
  2
AIGNBL0901002E
 10
0
 20
0
 30
0
  0
INSERT
  8
LAYER_9
  2
AIGNBL0901002F
 10
0
 20
0
 30
0
  0
INSERT
  8
LAYER_9
  2
AIGNBL09010030
 10
0
 20
0
 30
0
  0
INSERT
  8
LAYER_9
  2
AIGNBL09010031
 10
0
 20
0
 30
0
  0
INSERT
  8
LAYER_9
  2
AIGNBL09010032
 10
0
 20
0
 30
0
  0
INSERT
  8
LAYER_9
  2
AIGNBL09010033
 10
0
 20
0
 30
0
  0
INSERT
  8
LAYER_9
  2
AIGNBL09010034
 10
0
 20
0
 30
0
  0
INSERT
  8
LAYER_9
  2
AIGNBL09010035
 10
0
 20
0
 30
0
  0
INSERT
  8
LAYER_9
  2
AIGNBL09010036
 10
0
 20
0
 30
0
  0
INSERT
  8
LAYER_9
  2
AIGNBL09010037
 10
0
 20
0
 30
0
  0
INSERT
  8
LAYER_9
  2
AIGNBL09010038
 10
0
 20
0
 30
0
  0
INSERT
  8
LAYER_9
  2
AIGNBL09010039
 10
0
 20
0
 30
0
  0
INSERT
  8
LAYER_9
  2
AIGNBL0901003A
 10
0
 20
0
 30
0
  0
INSERT
  8
LAYER_9
  2
AIGNBL0901003B
 10
0
 20
0
 30
0
  0
INSERT
  8
LAYER_9
  2
AIGNBL0901003C
 10
0
 20
0
 30
0
  0
INSERT
  8
LAYER_9
  2
AIGNBL0901003D
 10
0
 20
0
 30
0
  0
INSERT
  8
LAYER_9
  2
AIGNBL0901003E
 10
0
 20
0
 30
0
  0
INSERT
  8
LAYER_9
  2
AIGNBL0901003F
 10
0
 20
0
 30
0
  0
INSERT
  8
LAYER_9
  2
AIGNBL09010040
 10
0
 20
0
 30
0
  0
INSERT
  8
LAYER_9
  2
AIGNBL09010041
 10
0
 20
0
 30
0
  0
INSERT
  8
LAYER_9
  2
AIGNBL09010042
 10
0
 20
0
 30
0
  0
INSERT
  8
LAYER_9
  2
AIGNBL09010043
 10
0
 20
0
 30
0
  0
INSERT
  8
LAYER_9
  2
AIGNBL09010044
 10
0
 20
0
 30
0
  0
INSERT
  8
LAYER_9
  2
AIGNBL09010045
 10
0
 20
0
 30
0
  0
INSERT
  8
LAYER_9
  2
AIGNBL09010046
 10
0
 20
0
 30
0
  0
INSERT
  8
LAYER_9
  2
AIGNBL09010047
 10
0
 20
0
 30
0
  0
INSERT
  8
LAYER_9
  2
AIGNBL09010048
 10
0
 20
0
 30
0
  0
INSERT
  8
LAYER_9
  2
AIGNBL09010049
 10
0
 20
0
 30
0
  0
INSERT
  8
LAYER_9
  2
AIGNBL0901004A
 10
0
 20
0
 30
0
  0
INSERT
  8
LAYER_9
  2
AIGNBL0901004B
 10
0
 20
0
 30
0
  0
INSERT
  8
LAYER_9
  2
AIGNBL0901004C
 10
0
 20
0
 30
0
  0
INSERT
  8
LAYER_9
  2
AIGNBL0901004D
 10
0
 20
0
 30
0
  0
INSERT
  8
LAYER_9
  2
AIGNBL0901004E
 10
0
 20
0
 30
0
  0
INSERT
  8
LAYER_9
  2
AIGNBL0901004F
 10
0
 20
0
 30
0
  0
INSERT
  8
LAYER_9
  2
AIGNBL09010050
 10
0
 20
0
 30
0
  0
INSERT
  8
LAYER_9
  2
AIGNBL09010051
 10
0
 20
0
 30
0
  0
INSERT
  8
LAYER_9
  2
AIGNBL09010052
 10
0
 20
0
 30
0
  0
INSERT
  8
LAYER_9
  2
AIGNBL09010053
 10
0
 20
0
 30
0
  0
INSERT
  8
LAYER_9
  2
AIGNBL09010054
 10
0
 20
0
 30
0
  0
INSERT
  8
LAYER_9
  2
AIGNBL09010055
 10
0
 20
0
 30
0
  0
INSERT
  8
LAYER_9
  2
AIGNBL09010056
 10
0
 20
0
 30
0
  0
INSERT
  8
LAYER_9
  2
AIGNBL09010057
 10
0
 20
0
 30
0
  0
INSERT
  8
LAYER_9
  2
AIGNBL09010058
 10
0
 20
0
 30
0
  0
INSERT
  8
LAYER_9
  2
AIGNBL09010059
 10
0
 20
0
 30
0
  0
INSERT
  8
LAYER_9
  2
AIGNBL0901005A
 10
0
 20
0
 30
0
  0
INSERT
  8
LAYER_9
  2
AIGNBL0901005B
 10
0
 20
0
 30
0
  0
INSERT
  8
LAYER_9
  2
AIGNBL0901005C
 10
0
 20
0
 30
0
  0
INSERT
  8
LAYER_9
  2
AIGNBL0901005D
 10
0
 20
0
 30
0
  0
INSERT
  8
LAYER_9
  2
AIGNBL0901005E
 10
0
 20
0
 30
0
  0
INSERT
  8
LAYER_9
  2
AIGNBL0901005F
 10
0
 20
0
 30
0
  0
INSERT
  8
LAYER_9
  2
AIGNBL09010060
 10
0
 20
0
 30
0
  0
INSERT
  8
LAYER_9
  2
AIGNBL09010061
 10
0
 20
0
 30
0
  0
INSERT
  8
LAYER_9
  2
AIGNBL09010062
 10
0
 20
0
 30
0
  0
INSERT
  8
LAYER_9
  2
AIGNBL09010063
 10
0
 20
0
 30
0
  0
INSERT
  8
LAYER_9
  2
AIGNBL09010064
 10
0
 20
0
 30
0
  0
INSERT
  8
LAYER_9
  2
AIGNBL09010065
 10
0
 20
0
 30
0
  0
INSERT
  8
LAYER_9
  2
AIGNBL09010066
 10
0
 20
0
 30
0
  0
INSERT
  8
LAYER_9
  2
AIGNBL09010067
 10
0
 20
0
 30
0
  0
INSERT
  8
LAYER_9
  2
AIGNBL09010068
 10
0
 20
0
 30
0
  0
INSERT
  8
LAYER_9
  2
AIGNBL09010069
 10
0
 20
0
 30
0
  0
INSERT
  8
LAYER_9
  2
AIGNBL0901006A
 10
0
 20
0
 30
0
  0
INSERT
  8
LAYER_9
  2
AIGNBL0901006B
 10
0
 20
0
 30
0
  0
INSERT
  8
LAYER_9
  2
AIGNBL0901006C
 10
0
 20
0
 30
0
  0
INSERT
  8
LAYER_9
  2
AIGNBL0901006D
 10
0
 20
0
 30
0
  0
INSERT
  8
LAYER_9
  2
AIGNBL0901006E
 10
0
 20
0
 30
0
  0
INSERT
  8
LAYER_9
  2
AIGNBL0901006F
 10
0
 20
0
 30
0
  0
INSERT
  8
LAYER_9
  2
AIGNBL09010070
 10
0
 20
0
 30
0
  0
INSERT
  8
LAYER_9
  2
AIGNBL09010071
 10
0
 20
0
 30
0
  0
INSERT
  8
LAYER_9
  2
AIGNBL09010072
 10
0
 20
0
 30
0
  0
INSERT
  8
LAYER_9
  2
AIGNBL09010073
 10
0
 20
0
 30
0
  0
INSERT
  8
LAYER_9
  2
AIGNBL09010074
 10
0
 20
0
 30
0
  0
INSERT
  8
LAYER_9
  2
AIGNBL09010075
 10
0
 20
0
 30
0
  0
INSERT
  8
LAYER_9
  2
AIGNBL09010076
 10
0
 20
0
 30
0
  0
INSERT
  8
LAYER_9
  2
AIGNBL09010077
 10
0
 20
0
 30
0
  0
INSERT
  8
LAYER_9
  2
AIGNBL09010078
 10
0
 20
0
 30
0
  0
INSERT
  8
LAYER_9
  2
AIGNBL09010079
 10
0
 20
0
 30
0
  0
INSERT
  8
LAYER_9
  2
AIGNBL0901007A
 10
0
 20
0
 30
0
  0
INSERT
  8
LAYER_9
  2
AIGNBL0901007B
 10
0
 20
0
 30
0
  0
INSERT
  8
LAYER_9
  2
AIGNBL0901007C
 10
0
 20
0
 30
0
  0
INSERT
  8
LAYER_9
  2
AIGNBL0901007D
 10
0
 20
0
 30
0
  0
INSERT
  8
LAYER_9
  2
AIGNBL0901007E
 10
0
 20
0
 30
0
  0
INSERT
  8
LAYER_9
  2
AIGNBL0901007F
 10
0
 20
0
 30
0
  0
INSERT
  8
LAYER_9
  2
AIGNBL09010080
 10
0
 20
0
 30
0
  0
INSERT
  8
LAYER_9
  2
AIGNBL09010081
 10
0
 20
0
 30
0
  0
INSERT
  8
LAYER_9
  2
AIGNBL09010082
 10
0
 20
0
 30
0
  0
INSERT
  8
LAYER_9
  2
AIGNBL09010083
 10
0
 20
0
 30
0
  0
INSERT
  8
LAYER_9
  2
AIGNBL09010084
 10
0
 20
0
 30
0
  0
INSERT
  8
LAYER_9
  2
AIGNBL09010085
 10
0
 20
0
 30
0
  0
INSERT
  8
LAYER_9
  2
AIGNBL09010086
 10
0
 20
0
 30
0
  0
INSERT
  8
LAYER_9
  2
AIGNBL09010087
 10
0
 20
0
 30
0
  0
INSERT
  8
LAYER_9
  2
AIGNBL09010088
 10
0
 20
0
 30
0
  0
INSERT
  8
LAYER_9
  2
AIGNBL09010089
 10
0
 20
0
 30
0
  0
INSERT
  8
LAYER_9
  2
AIGNBL0901008A
 10
0
 20
0
 30
0
  0
INSERT
  8
LAYER_9
  2
AIGNBL0901008B
 10
0
 20
0
 30
0
  0
INSERT
  8
LAYER_9
  2
AIGNBL0901008C
 10
0
 20
0
 30
0
  0
INSERT
  8
LAYER_9
  2
AIGNBL0901008D
 10
0
 20
0
 30
0
  0
INSERT
  8
LAYER_9
  2
AIGNBL0901008E
 10
0
 20
0
 30
0
  0
INSERT
  8
LAYER_9
  2
AIGNBL0901008F
 10
0
 20
0
 30
0
  0
INSERT
  8
LAYER_9
  2
AIGNBL09010090
 10
0
 20
0
 30
0
  0
INSERT
  8
LAYER_9
  2
AIGNBL09010091
 10
0
 20
0
 30
0
  0
INSERT
  8
LAYER_9
  2
AIGNBL09010092
 10
0
 20
0
 30
0
  0
INSERT
  8
LAYER_9
  2
AIGNBL09010093
 10
0
 20
0
 30
0
  0
INSERT
  8
LAYER_9
  2
AIGNBL09010094
 10
0
 20
0
 30
0
  0
INSERT
  8
LAYER_9
  2
AIGNBL09010095
 10
0
 20
0
 30
0
  0
INSERT
  8
LAYER_9
  2
AIGNBL09010096
 10
0
 20
0
 30
0
  0
INSERT
  8
LAYER_9
  2
AIGNBL09010097
 10
0
 20
0
 30
0
  0
INSERT
  8
LAYER_9
  2
AIGNBL09010098
 10
0
 20
0
 30
0
  0
INSERT
  8
LAYER_9
  2
AIGNBL09010099
 10
0
 20
0
 30
0
  0
INSERT
  8
LAYER_9
  2
AIGNBL0901009A
 10
0
 20
0
 30
0
  0
INSERT
  8
LAYER_9
  2
AIGNBL0901009B
 10
0
 20
0
 30
0
  0
INSERT
  8
LAYER_9
  2
AIGNBL0901009C
 10
0
 20
0
 30
0
  0
INSERT
  8
LAYER_9
  2
AIGNBL0901009D
 10
0
 20
0
 30
0
  0
INSERT
  8
LAYER_9
  2
AIGNBL0901009E
 10
0
 20
0
 30
0
  0
INSERT
  8
LAYER_9
  2
AIGNBL0901009F
 10
0
 20
0
 30
0
  0
INSERT
  8
LAYER_9
  2
AIGNBL090100A0
 10
0
 20
0
 30
0
  0
INSERT
  8
LAYER_9
  2
AIGNBL090100A1
 10
0
 20
0
 30
0
  0
INSERT
  8
LAYER_9
  2
AIGNBL090100A2
 10
0
 20
0
 30
0
  0
INSERT
  8
LAYER_9
  2
AIGNBL090100A3
 10
0
 20
0
 30
0
  0
INSERT
  8
LAYER_9
  2
AIGNBL090100A4
 10
0
 20
0
 30
0
  0
INSERT
  8
LAYER_9
  2
AIGNBL090100A5
 10
0
 20
0
 30
0
  0
INSERT
  8
LAYER_9
  2
AIGNBL090100A6
 10
0
 20
0
 30
0
  0
INSERT
  8
LAYER_9
  2
AIGNBL090100A7
 10
0
 20
0
 30
0
  0
INSERT
  8
LAYER_9
  2
AIGNBL090100A8
 10
0
 20
0
 30
0
  0
INSERT
  8
LAYER_9
  2
AIGNBL090100A9
 10
0
 20
0
 30
0
  0
INSERT
  8
LAYER_9
  2
AIGNBL090100AA
 10
0
 20
0
 30
0
  0
INSERT
  8
LAYER_9
  2
AIGNBL090100AB
 10
0
 20
0
 30
0
  0
INSERT
  8
LAYER_9
  2
AIGNBL090100AC
 10
0
 20
0
 30
0
  0
INSERT
  8
LAYER_9
  2
AIGNBL090100AD
 10
0
 20
0
 30
0
  0
INSERT
  8
LAYER_9
  2
AIGNBL090100AE
 10
0
 20
0
 30
0
  0
INSERT
  8
LAYER_9
  2
AIGNBL090100AF
 10
0
 20
0
 30
0
  0
INSERT
  8
LAYER_9
  2
AIGNBL090100B0
 10
0
 20
0
 30
0
  0
INSERT
  8
LAYER_9
  2
AIGNBL090100B1
 10
0
 20
0
 30
0
  0
INSERT
  8
LAYER_9
  2
AIGNBL090100B2
 10
0
 20
0
 30
0
  0
INSERT
  8
LAYER_9
  2
AIGNBL090100B3
 10
0
 20
0
 30
0
  0
INSERT
  8
LAYER_9
  2
AIGNBL090100B4
 10
0
 20
0
 30
0
  0
INSERT
  8
LAYER_9
  2
AIGNBL090100B5
 10
0
 20
0
 30
0
  0
INSERT
  8
LAYER_9
  2
AIGNBL090100B6
 10
0
 20
0
 30
0
  0
INSERT
  8
LAYER_9
  2
AIGNBL090100B7
 10
0
 20
0
 30
0
  0
INSERT
  8
LAYER_9
  2
AIGNBL090100B8
 10
0
 20
0
 30
0
  0
INSERT
  8
LAYER_9
  2
AIGNBL090100B9
 10
0
 20
0
 30
0
  0
INSERT
  8
LAYER_9
  2
AIGNBL090100BA
 10
0
 20
0
 30
0
  0
INSERT
  8
LAYER_9
  2
AIGNBL090100BB
 10
0
 20
0
 30
0
  0
INSERT
  8
LAYER_9
  2
AIGNBL090100BC
 10
0
 20
0
 30
0
  0
INSERT
  8
LAYER_9
  2
AIGNBL090100BD
 10
0
 20
0
 30
0
  0
INSERT
  8
LAYER_9
  2
AIGNBL090100BE
 10
0
 20
0
 30
0
  0
INSERT
  8
LAYER_9
  2
AIGNBL090100BF
 10
0
 20
0
 30
0
  0
INSERT
  8
LAYER_9
  2
AIGNBL090100C0
 10
0
 20
0
 30
0
  0
INSERT
  8
LAYER_9
  2
AIGNBL090100C1
 10
0
 20
0
 30
0
  0
INSERT
  8
LAYER_9
  2
AIGNBL090100C2
 10
0
 20
0
 30
0
  0
INSERT
  8
LAYER_9
  2
AIGNBL090100C3
 10
0
 20
0
 30
0
  0
INSERT
  8
LAYER_9
  2
AIGNBL090100C4
 10
0
 20
0
 30
0
  0
INSERT
  8
LAYER_9
  2
AIGNBL090100C5
 10
0
 20
0
 30
0
  0
INSERT
  8
LAYER_9
  2
AIGNBL090100C6
 10
0
 20
0
 30
0
  0
INSERT
  8
LAYER_9
  2
AIGNBL090100C7
 10
0
 20
0
 30
0
  0
INSERT
  8
LAYER_9
  2
AIGNBL090100C8
 10
0
 20
0
 30
0
  0
INSERT
  8
LAYER_9
  2
AIGNBL090100C9
 10
0
 20
0
 30
0
  0
INSERT
  8
LAYER_9
  2
AIGNBL090100CA
 10
0
 20
0
 30
0
  0
INSERT
  8
LAYER_9
  2
AIGNBL090100CB
 10
0
 20
0
 30
0
  0
INSERT
  8
LAYER_9
  2
AIGNBL090100CC
 10
0
 20
0
 30
0
  0
INSERT
  8
LAYER_9
  2
AIGNBL090100CD
 10
0
 20
0
 30
0
  0
INSERT
  8
LAYER_9
  2
AIGNBL090100CE
 10
0
 20
0
 30
0
  0
INSERT
  8
LAYER_9
  2
AIGNBL090100CF
 10
0
 20
0
 30
0
  0
INSERT
  8
LAYER_9
  2
AIGNBL090100D0
 10
0
 20
0
 30
0
  0
INSERT
  8
LAYER_9
  2
AIGNBL090100D1
 10
0
 20
0
 30
0
  0
INSERT
  8
LAYER_9
  2
AIGNBL090100D2
 10
0
 20
0
 30
0
  0
INSERT
  8
LAYER_9
  2
AIGNBL090100D3
 10
0
 20
0
 30
0
  0
INSERT
  8
LAYER_9
  2
AIGNBL090100D4
 10
0
 20
0
 30
0
  0
INSERT
  8
LAYER_9
  2
AIGNBL090100D5
 10
0
 20
0
 30
0
  0
INSERT
  8
LAYER_9
  2
AIGNBL090100D6
 10
0
 20
0
 30
0
  0
INSERT
  8
LAYER_9
  2
AIGNBL090100D7
 10
0
 20
0
 30
0
  0
INSERT
  8
LAYER_9
  2
AIGNBL090100D8
 10
0
 20
0
 30
0
  0
INSERT
  8
LAYER_9
  2
AIGNBL090100D9
 10
0
 20
0
 30
0
  0
INSERT
  8
LAYER_9
  2
AIGNBL090100DA
 10
0
 20
0
 30
0
  0
INSERT
  8
LAYER_9
  2
AIGNBL090100DB
 10
0
 20
0
 30
0
  0
INSERT
  8
LAYER_9
  2
AIGNBL090100DC
 10
0
 20
0
 30
0
  0
INSERT
  8
LAYER_9
  2
AIGNBL090100DD
 10
0
 20
0
 30
0
  0
INSERT
  8
LAYER_9
  2
AIGNBL090100DE
 10
0
 20
0
 30
0
  0
INSERT
  8
LAYER_9
  2
AIGNBL090100DF
 10
0
 20
0
 30
0
  0
INSERT
  8
LAYER_9
  2
AIGNBL090100E0
 10
0
 20
0
 30
0
  0
INSERT
  8
LAYER_9
  2
AIGNBL090100E1
 10
0
 20
0
 30
0
  0
INSERT
  8
LAYER_9
  2
AIGNBL090100E2
 10
0
 20
0
 30
0
  0
INSERT
  8
LAYER_9
  2
AIGNBL090100E3
 10
0
 20
0
 30
0
  0
INSERT
  8
LAYER_9
  2
AIGNBL090100E4
 10
0
 20
0
 30
0
  0
INSERT
  8
LAYER_9
  2
AIGNBL090100E5
 10
0
 20
0
 30
0
  0
INSERT
  8
LAYER_9
  2
AIGNBL090100E6
 10
0
 20
0
 30
0
  0
INSERT
  8
LAYER_9
  2
AIGNBL090100E7
 10
0
 20
0
 30
0
  0
INSERT
  8
LAYER_9
  2
AIGNBL090100E8
 10
0
 20
0
 30
0
  0
INSERT
  8
LAYER_9
  2
AIGNBL090100E9
 10
0
 20
0
 30
0
  0
INSERT
  8
LAYER_9
  2
AIGNBL090100EA
 10
0
 20
0
 30
0
  0
INSERT
  8
LAYER_9
  2
AIGNBL090100EB
 10
0
 20
0
 30
0
  0
INSERT
  8
LAYER_9
  2
AIGNBL090100EC
 10
0
 20
0
 30
0
  0
INSERT
  8
LAYER_9
  2
AIGNBL090100ED
 10
0
 20
0
 30
0
  0
INSERT
  8
LAYER_9
  2
AIGNBL090100EE
 10
0
 20
0
 30
0
  0
INSERT
  8
LAYER_9
  2
AIGNBL090100EF
 10
0
 20
0
 30
0
  0
INSERT
  8
LAYER_9
  2
AIGNBL090100F0
 10
0
 20
0
 30
0
  0
INSERT
  8
LAYER_9
  2
AIGNBL090100F1
 10
0
 20
0
 30
0
  0
INSERT
  8
LAYER_9
  2
AIGNBL090100F2
 10
0
 20
0
 30
0
  0
INSERT
  8
LAYER_9
  2
AIGNBL090100F3
 10
0
 20
0
 30
0
  0
INSERT
  8
LAYER_9
  2
AIGNBL090100F4
 10
0
 20
0
 30
0
  0
INSERT
  8
LAYER_9
  2
AIGNBL090100F5
 10
0
 20
0
 30
0
  0
INSERT
  8
LAYER_9
  2
AIGNBL090100F6
 10
0
 20
0
 30
0
  0
INSERT
  8
LAYER_9
  2
AIGNBL090100F7
 10
0
 20
0
 30
0
  0
INSERT
  8
LAYER_9
  2
AIGNBL090100F8
 10
0
 20
0
 30
0
  0
INSERT
  8
LAYER_9
  2
AIGNBL090100F9
 10
0
 20
0
 30
0
  0
INSERT
  8
LAYER_9
  2
AIGNBL090100FA
 10
0
 20
0
 30
0
  0
INSERT
  8
LAYER_9
  2
AIGNBL090100FB
 10
0
 20
0
 30
0
  0
INSERT
  8
LAYER_9
  2
AIGNBL090100FC
 10
0
 20
0
 30
0
  0
INSERT
  8
LAYER_9
  2
AIGNBL090100FD
 10
0
 20
0
 30
0
  0
INSERT
  8
LAYER_9
  2
AIGNBL090100FE
 10
0
 20
0
 30
0
  0
INSERT
  8
LAYER_9
  2
AIGNBL090100FF
 10
0
 20
0
 30
0
  0
INSERT
  8
LAYER_9
  2
AIGNBL09010100
 10
0
 20
0
 30
0
  0
INSERT
  8
LAYER_9
  2
AIGNBL09010101
 10
0
 20
0
 30
0
  0
INSERT
  8
LAYER_9
  2
AIGNBL09010102
 10
0
 20
0
 30
0
  0
INSERT
  8
LAYER_9
  2
AIGNBL09010103
 10
0
 20
0
 30
0
  0
INSERT
  8
LAYER_9
  2
AIGNBL09010104
 10
0
 20
0
 30
0
  0
INSERT
  8
LAYER_9
  2
AIGNBL09010105
 10
0
 20
0
 30
0
  0
INSERT
  8
LAYER_9
  2
AIGNBL09010106
 10
0
 20
0
 30
0
  0
INSERT
  8
LAYER_9
  2
AIGNBL09010107
 10
0
 20
0
 30
0
  0
INSERT
  8
LAYER_9
  2
AIGNBL09010108
 10
0
 20
0
 30
0
  0
INSERT
  8
LAYER_9
  2
AIGNBL09010109
 10
0
 20
0
 30
0
  0
INSERT
  8
LAYER_9
  2
AIGNBL0901010A
 10
0
 20
0
 30
0
  0
INSERT
  8
LAYER_9
  2
AIGNBL0901010B
 10
0
 20
0
 30
0
  0
INSERT
  8
LAYER_9
  2
AIGNBL0901010C
 10
0
 20
0
 30
0
  0
INSERT
  8
LAYER_9
  2
AIGNBL0901010D
 10
0
 20
0
 30
0
  0
INSERT
  8
LAYER_9
  2
AIGNBL0901010E
 10
0
 20
0
 30
0
  0
INSERT
  8
LAYER_9
  2
AIGNBL0901010F
 10
0
 20
0
 30
0
  0
INSERT
  8
LAYER_9
  2
AIGNBL09010110
 10
0
 20
0
 30
0
  0
INSERT
  8
LAYER_9
  2
AIGNBL09010111
 10
0
 20
0
 30
0
  0
INSERT
  8
LAYER_9
  2
AIGNBL09010112
 10
0
 20
0
 30
0
  0
INSERT
  8
LAYER_9
  2
AIGNBL09010113
 10
0
 20
0
 30
0
  0
INSERT
  8
LAYER_9
  2
AIGNBL09010114
 10
0
 20
0
 30
0
  0
INSERT
  8
LAYER_9
  2
AIGNBL09010115
 10
0
 20
0
 30
0
  0
INSERT
  8
LAYER_9
  2
AIGNBL09010116
 10
0
 20
0
 30
0
  0
INSERT
  8
LAYER_9
  2
AIGNBL09010117
 10
0
 20
0
 30
0
  0
INSERT
  8
LAYER_9
  2
AIGNBL09010118
 10
0
 20
0
 30
0
  0
INSERT
  8
LAYER_9
  2
AIGNBL09010119
 10
0
 20
0
 30
0
  0
INSERT
  8
LAYER_9
  2
AIGNBL0901011A
 10
0
 20
0
 30
0
  0
INSERT
  8
LAYER_9
  2
AIGNBL0901011B
 10
0
 20
0
 30
0
  0
INSERT
  8
LAYER_9
  2
AIGNBL0901011C
 10
0
 20
0
 30
0
  0
INSERT
  8
LAYER_9
  2
AIGNBL0901011D
 10
0
 20
0
 30
0
  0
INSERT
  8
LAYER_9
  2
AIGNBL0901011E
 10
0
 20
0
 30
0
  0
INSERT
  8
LAYER_9
  2
AIGNBL0901011F
 10
0
 20
0
 30
0
  0
INSERT
  8
LAYER_9
  2
AIGNBL09010120
 10
0
 20
0
 30
0
  0
INSERT
  8
LAYER_9
  2
AIGNBL09010121
 10
0
 20
0
 30
0
  0
INSERT
  8
LAYER_9
  2
AIGNBL09010122
 10
0
 20
0
 30
0
  0
INSERT
  8
LAYER_9
  2
AIGNBL09010123
 10
0
 20
0
 30
0
  0
INSERT
  8
LAYER_9
  2
AIGNBL09010124
 10
0
 20
0
 30
0
  0
INSERT
  8
LAYER_9
  2
AIGNBL09010125
 10
0
 20
0
 30
0
  0
INSERT
  8
LAYER_9
  2
AIGNBL09010126
 10
0
 20
0
 30
0
  0
INSERT
  8
LAYER_9
  2
AIGNBL09010127
 10
0
 20
0
 30
0
  0
INSERT
  8
LAYER_9
  2
AIGNBL09010128
 10
0
 20
0
 30
0
  0
INSERT
  8
LAYER_9
  2
AIGNBL09010129
 10
0
 20
0
 30
0
  0
INSERT
  8
LAYER_9
  2
AIGNBL0901012A
 10
0
 20
0
 30
0
  0
INSERT
  8
LAYER_9
  2
AIGNBL0901012B
 10
0
 20
0
 30
0
  0
INSERT
  8
LAYER_9
  2
AIGNBL0901012C
 10
0
 20
0
 30
0
  0
INSERT
  8
LAYER_9
  2
AIGNBL0901012D
 10
0
 20
0
 30
0
  0
INSERT
  8
LAYER_9
  2
AIGNBL0901012E
 10
0
 20
0
 30
0
  0
INSERT
  8
LAYER_9
  2
AIGNBL0901012F
 10
0
 20
0
 30
0
  0
INSERT
  8
LAYER_9
  2
AIGNBL09010130
 10
0
 20
0
 30
0
  0
INSERT
  8
LAYER_9
  2
AIGNBL09010131
 10
0
 20
0
 30
0
  0
INSERT
  8
LAYER_9
  2
AIGNBL09010132
 10
0
 20
0
 30
0
  0
INSERT
  8
LAYER_9
  2
AIGNBL09010133
 10
0
 20
0
 30
0
  0
INSERT
  8
LAYER_9
  2
AIGNBL09010134
 10
0
 20
0
 30
0
  0
INSERT
  8
LAYER_9
  2
AIGNBL09010135
 10
0
 20
0
 30
0
  0
INSERT
  8
LAYER_9
  2
AIGNBL09010136
 10
0
 20
0
 30
0
  0
INSERT
  8
LAYER_9
  2
AIGNBL09010137
 10
0
 20
0
 30
0
  0
INSERT
  8
LAYER_9
  2
AIGNBL09010138
 10
0
 20
0
 30
0
  0
INSERT
  8
LAYER_9
  2
AIGNBL09010139
 10
0
 20
0
 30
0
  0
INSERT
  8
LAYER_9
  2
AIGNBL0901013A
 10
0
 20
0
 30
0
  0
INSERT
  8
LAYER_9
  2
AIGNBL0901013B
 10
0
 20
0
 30
0
  0
INSERT
  8
LAYER_9
  2
AIGNBL0901013C
 10
0
 20
0
 30
0
  0
INSERT
  8
LAYER_9
  2
AIGNBL0901013D
 10
0
 20
0
 30
0
  0
INSERT
  8
LAYER_9
  2
AIGNBL0901013E
 10
0
 20
0
 30
0
  0
INSERT
  8
LAYER_9
  2
AIGNBL0901013F
 10
0
 20
0
 30
0
  0
INSERT
  8
LAYER_9
  2
AIGNBL09010140
 10
0
 20
0
 30
0
  0
INSERT
  8
LAYER_9
  2
AIGNBL09010141
 10
0
 20
0
 30
0
  0
INSERT
  8
LAYER_9
  2
AIGNBL09010142
 10
0
 20
0
 30
0
  0
INSERT
  8
LAYER_9
  2
AIGNBL09010143
 10
0
 20
0
 30
0
  0
INSERT
  8
LAYER_9
  2
AIGNBL09010144
 10
0
 20
0
 30
0
  0
INSERT
  8
LAYER_9
  2
AIGNBL09010145
 10
0
 20
0
 30
0
  0
INSERT
  8
LAYER_9
  2
AIGNBL09010146
 10
0
 20
0
 30
0
  0
INSERT
  8
LAYER_9
  2
AIGNBL09010147
 10
0
 20
0
 30
0
  0
INSERT
  8
LAYER_9
  2
AIGNBL09010148
 10
0
 20
0
 30
0
  0
INSERT
  8
LAYER_9
  2
AIGNBL09010149
 10
0
 20
0
 30
0
  0
INSERT
  8
LAYER_9
  2
AIGNBL0901014A
 10
0
 20
0
 30
0
  0
INSERT
  8
LAYER_9
  2
AIGNBL0901014B
 10
0
 20
0
 30
0
  0
INSERT
  8
LAYER_9
  2
AIGNBL0901014C
 10
0
 20
0
 30
0
  0
INSERT
  8
LAYER_9
  2
AIGNBL0901014D
 10
0
 20
0
 30
0
  0
INSERT
  8
LAYER_9
  2
AIGNBL0901014E
 10
0
 20
0
 30
0
  0
INSERT
  8
LAYER_9
  2
AIGNBL0901014F
 10
0
 20
0
 30
0
  0
INSERT
  8
LAYER_9
  2
AIGNBL09010150
 10
0
 20
0
 30
0
  0
INSERT
  8
LAYER_9
  2
AIGNBL09010151
 10
0
 20
0
 30
0
  0
INSERT
  8
LAYER_9
  2
AIGNBL09010152
 10
0
 20
0
 30
0
  0
INSERT
  8
LAYER_9
  2
AIGNBL09010153
 10
0
 20
0
 30
0
  0
INSERT
  8
LAYER_9
  2
AIGNBL09010154
 10
0
 20
0
 30
0
  0
INSERT
  8
LAYER_9
  2
AIGNBL09010155
 10
0
 20
0
 30
0
  0
INSERT
  8
LAYER_9
  2
AIGNBL09010156
 10
0
 20
0
 30
0
  0
INSERT
  8
LAYER_9
  2
AIGNBL09010157
 10
0
 20
0
 30
0
  0
INSERT
  8
LAYER_9
  2
AIGNBL09010158
 10
0
 20
0
 30
0
  0
INSERT
  8
LAYER_9
  2
AIGNBL09010159
 10
0
 20
0
 30
0
  0
INSERT
  8
LAYER_9
  2
AIGNBL0901015A
 10
0
 20
0
 30
0
  0
INSERT
  8
LAYER_9
  2
AIGNBL0901015B
 10
0
 20
0
 30
0
  0
INSERT
  8
LAYER_9
  2
AIGNBL0901015C
 10
0
 20
0
 30
0
  0
INSERT
  8
LAYER_9
  2
AIGNBL0901015D
 10
0
 20
0
 30
0
  0
INSERT
  8
LAYER_9
  2
AIGNBL0901015E
 10
0
 20
0
 30
0
  0
INSERT
  8
LAYER_9
  2
AIGNBL0901015F
 10
0
 20
0
 30
0
  0
INSERT
  8
LAYER_9
  2
AIGNBL09010160
 10
0
 20
0
 30
0
  0
INSERT
  8
LAYER_9
  2
AIGNBL09010161
 10
0
 20
0
 30
0
  0
INSERT
  8
LAYER_9
  2
AIGNBL09010162
 10
0
 20
0
 30
0
  0
INSERT
  8
LAYER_9
  2
AIGNBL09010163
 10
0
 20
0
 30
0
  0
INSERT
  8
LAYER_9
  2
AIGNBL09010164
 10
0
 20
0
 30
0
  0
INSERT
  8
LAYER_9
  2
AIGNBL09010165
 10
0
 20
0
 30
0
  0
INSERT
  8
LAYER_9
  2
AIGNBL09010166
 10
0
 20
0
 30
0
  0
INSERT
  8
LAYER_9
  2
AIGNBL09010167
 10
0
 20
0
 30
0
  0
INSERT
  8
LAYER_9
  2
AIGNBL09010168
 10
0
 20
0
 30
0
  0
INSERT
  8
LAYER_9
  2
AIGNBL09010169
 10
0
 20
0
 30
0
  0
INSERT
  8
LAYER_9
  2
AIGNBL0901016A
 10
0
 20
0
 30
0
  0
INSERT
  8
LAYER_9
  2
AIGNBL0901016B
 10
0
 20
0
 30
0
  0
INSERT
  8
LAYER_9
  2
AIGNBL0901016C
 10
0
 20
0
 30
0
  0
INSERT
  8
LAYER_9
  2
AIGNBL0901016D
 10
0
 20
0
 30
0
  0
INSERT
  8
LAYER_9
  2
AIGNBL0901016E
 10
0
 20
0
 30
0
  0
INSERT
  8
LAYER_9
  2
AIGNBL0901016F
 10
0
 20
0
 30
0
  0
INSERT
  8
LAYER_9
  2
AIGNBL09010170
 10
0
 20
0
 30
0
  0
INSERT
  8
LAYER_9
  2
AIGNBL09010171
 10
0
 20
0
 30
0
  0
INSERT
  8
LAYER_9
  2
AIGNBL09010172
 10
0
 20
0
 30
0
  0
INSERT
  8
LAYER_9
  2
AIGNBL09010173
 10
0
 20
0
 30
0
  0
INSERT
  8
LAYER_9
  2
AIGNBL09010174
 10
0
 20
0
 30
0
  0
INSERT
  8
LAYER_9
  2
AIGNBL09010175
 10
0
 20
0
 30
0
  0
INSERT
  8
LAYER_9
  2
AIGNBL09010176
 10
0
 20
0
 30
0
  0
INSERT
  8
LAYER_9
  2
AIGNBL09010177
 10
0
 20
0
 30
0
  0
INSERT
  8
LAYER_9
  2
AIGNBL09010178
 10
0
 20
0
 30
0
  0
INSERT
  8
LAYER_9
  2
AIGNBL09010179
 10
0
 20
0
 30
0
  0
INSERT
  8
LAYER_9
  2
AIGNBL0901017A
 10
0
 20
0
 30
0
  0
INSERT
  8
LAYER_9
  2
AIGNBL0901017B
 10
0
 20
0
 30
0
  0
INSERT
  8
LAYER_9
  2
AIGNBL0901017C
 10
0
 20
0
 30
0
  0
INSERT
  8
LAYER_9
  2
AIGNBL0901017D
 10
0
 20
0
 30
0
  0
INSERT
  8
LAYER_9
  2
AIGNBL0901017E
 10
0
 20
0
 30
0
  0
INSERT
  8
LAYER_9
  2
AIGNBL0901017F
 10
0
 20
0
 30
0
  0
INSERT
  8
LAYER_9
  2
AIGNBL09010180
 10
0
 20
0
 30
0
  0
INSERT
  8
LAYER_9
  2
AIGNBL09010181
 10
0
 20
0
 30
0
  0
INSERT
  8
LAYER_9
  2
AIGNBL09010182
 10
0
 20
0
 30
0
  0
INSERT
  8
LAYER_9
  2
AIGNBL09010183
 10
0
 20
0
 30
0
  0
INSERT
  8
LAYER_9
  2
AIGNBL09010184
 10
0
 20
0
 30
0
  0
INSERT
  8
LAYER_9
  2
AIGNBL09010185
 10
0
 20
0
 30
0
  0
INSERT
  8
LAYER_9
  2
AIGNBL09010186
 10
0
 20
0
 30
0
  0
INSERT
  8
LAYER_9
  2
AIGNBL09010187
 10
0
 20
0
 30
0
  0
INSERT
  8
LAYER_9
  2
AIGNBL09010188
 10
0
 20
0
 30
0
  0
INSERT
  8
LAYER_9
  2
AIGNBL09010189
 10
0
 20
0
 30
0
  0
INSERT
  8
LAYER_9
  2
AIGNBL0901018A
 10
0
 20
0
 30
0
  0
INSERT
  8
LAYER_9
  2
AIGNBL0901018B
 10
0
 20
0
 30
0
  0
INSERT
  8
LAYER_9
  2
AIGNBL0901018C
 10
0
 20
0
 30
0
  0
INSERT
  8
LAYER_9
  2
AIGNBL0901018D
 10
0
 20
0
 30
0
  0
INSERT
  8
LAYER_9
  2
AIGNBL0901018E
 10
0
 20
0
 30
0
  0
INSERT
  8
LAYER_9
  2
AIGNBL0901018F
 10
0
 20
0
 30
0
  0
INSERT
  8
LAYER_9
  2
AIGNBL09010190
 10
0
 20
0
 30
0
  0
INSERT
  8
LAYER_9
  2
AIGNBL09010191
 10
0
 20
0
 30
0
  0
INSERT
  8
LAYER_9
  2
AIGNBL09010192
 10
0
 20
0
 30
0
  0
INSERT
  8
LAYER_9
  2
AIGNBL09010193
 10
0
 20
0
 30
0
  0
INSERT
  8
LAYER_9
  2
AIGNBL09010194
 10
0
 20
0
 30
0
  0
INSERT
  8
LAYER_9
  2
AIGNBL09010195
 10
0
 20
0
 30
0
  0
INSERT
  8
LAYER_9
  2
AIGNBL09010196
 10
0
 20
0
 30
0
  0
INSERT
  8
LAYER_9
  2
AIGNBL09010197
 10
0
 20
0
 30
0
  0
INSERT
  8
LAYER_10
  2
AIGNBL0A010002
 10
0
 20
0
 30
0
  0
TEXT
  8
LAYER_11
 10
-26.2556
 20
43.1712
 11
-26.2556
 21
43.1712
 40
3.2995
 41
0.5
  1
仕様
  0
POLYLINE
  8
LAYER_11
 40
0.3528
 41
0.3528
 66
1
 10
0
 20
0
 30
0
  0
VERTEX
  8
LAYER_11
 10
250.6748
 20
51.9507
  0
VERTEX
  8
LAYER_11
 10
-29.3178
 20
51.9507
  0
SEQEND
  0
INSERT
  8
LAYER_11
  2
AIGNBL0B010002
 10
0
 20
0
 30
0
  0
POLYLINE
  8
LAYER_11
 40
0.3528
 41
0.3528
 66
1
 10
0
 20
0
 30
0
  0
VERTEX
  8
LAYER_11
 10
-29.3178
 20
229.3369
  0
VERTEX
  8
LAYER_11
 10
-29.3178
 20
34.3283
  0
VERTEX
  8
LAYER_11
 10
250.6748
 20
34.3283
  0
VERTEX
  8
LAYER_11
 10
250.6748
 20
229.3369
  0
VERTEX
  8
LAYER_11
 10
-29.3178
 20
229.3369
  0
SEQEND
  0
POLYLINE
  8
LAYER_11
 40
0.3528
 41
0.3528
 66
1
 10
0
 20
0
 30
0
  0
VERTEX
  8
LAYER_11
 10
250.6748
 20
60.4597
  0
VERTEX
  8
LAYER_11
 10
-29.3178
 20
60.4597
  0
SEQEND
  0
POLYLINE
  8
LAYER_11
 40
0.3528
 41
0.3528
 66
1
 10
0
 20
0
 30
0
  0
VERTEX
  8
LAYER_11
 10
250.6748
 20
43.4416
  0
VERTEX
  8
LAYER_11
 10
143.534
 20
43.4416
  0
SEQEND
  0
TEXT
  8
LAYER_11
 10
188.1725
 20
45.7175
 11
188.1725
 21
45.7175
 40
3.7615
 41
0.5
  1
-
  0
TEXT
  8
LAYER_11
 10
155.3642
 20
45.7175
 11
155.3642
 21
45.7175
 40
3.7615
 41
0.5
  1
6kg
  0
TEXT
  8
LAYER_11
 10
182.8808
 20
49.4743
 11
182.8808
 21
49.4743
 40
2.1997
 41
0.5
  1
縮尺
  0
POLYLINE
  8
LAYER_11
 40
0.3528
 41
0.3528
 66
1
 10
0
 20
0
 30
0
  0
VERTEX
  8
LAYER_11
 10
181.3526
 20
43.4416
  0
VERTEX
  8
LAYER_11
 10
181.3526
 20
51.9507
  0
SEQEND
  0
TEXT
  8
LAYER_11
 10
144.2327
 20
57.9834
 11
144.2327
 21
57.9834
 40
2.1997
 41
0.5
  1
品番
  0
TEXT
  8
LAYER_11
 10
-28.1609
 20
57.9834
 11
-28.1609
 21
57.9834
 40
2.1997
 41
0.5
  1
品名
  0
TEXT
  8
LAYER_11
 10
144.2327
 20
49.4743
 11
144.2327
 21
49.4743
 40
2.1997
 41
0.5
  1
重量
  0
TEXT
  8
LAYER_11
 10
150.2547
 20
54.1514
 11
150.2547
 21
54.1514
 40
5.9385
 41
0.5
  1
SIM-EV013/
  0
POLYLINE
  8
LAYER_11
 40
0.3528
 41
0.3528
 66
1
 10
0
 20
0
 30
0
  0
VERTEX
  8
LAYER_11
 10
143.534
 20
34.9539
  0
VERTEX
  8
LAYER_11
 10
143.534
 20
60.4597
  0
SEQEND
  0
TEXT
  8
LAYER_11
 10
-15.2849
 20
54.8911
 11
-15.2849
 21
54.8911
 40
4.1465
 41
0.5
  1
エボリューション 壁付け手器３１0ｍｍ
  0
TEXT
  8
LAYER_11
 10
-15.6835
 20
45.3736
 11
-15.6835
 21
45.3736
 40
3.5541
 41
0.5
  1
●サイズ：W310×D270×H160mm●設置方法：壁付け
  0
TEXT
  8
LAYER_11
 10
-15.6835
 20
40.6235
 11
-15.6835
 21
40.6235
 40
3.1177
 41
0.5
  1
●l4栓取付zt：１zt●オーバーフロー付き●排l4帯具別途●取り付けボルト同梱
  0
TEXT
  8
LAYER_11
 10
237.263
 20
63.2582
 11
237.263
 21
63.2582
 40
2.9618
 41
0.5
  1
単位：mm
  0
TEXT
  8
LAYER_11
 10
6.5217
 20
219.7385
 11
6.5217
 21
219.7385
 40
2.9618
 41
0.5
  1
※壁面には50mm以上の補強材を入れてください。
  0
TEXT
  8
LAYER_11
 10
6.5217
 20
214.9886
 11
6.5217
 21
214.9886
 40
2.5981
 41
0.5
  1
※製品と接する部分には必ずコーキング処理を行ってください。
  0
TEXT
  8
LAYER_11
 10
176.0254
 20
39.5359
 11
176.0254
 21
39.5359
 40
3.3853
 41
0.5
  1
●TEL 0120-65-1232●FAX 06-6532-1580
  0
TEXT
  8
LAYER_11
 10
176.0254
 20
36.0212
 11
176.0254
 21
36.0212
 40
3.3853
 41
0.5
  1
hits@hiratatile.co.jp
  0
TEXT
  8
LAYER_11
 10
240.3591
 20
225.8432
 11
240.3591
 21
225.8432
 40
2.0732
 41
0.5
  1
160926RT
  0
INSERT
  8
LAYER_11
  2
AIGNBL0B010003
 10
0
 20
0
 30
0
  0
INSERT
  8
LAYER_11
  2
AIGNBL0B010025
 10
0
 20
0
 30
0
  0
TEXT
  8
LAYER_11
 10
50.7173
 20
170.3961
 11
50.7173
 21
170.3961
 40
3.8503
 41
0.5
  1
270
  0
TEXT
  8
LAYER_11
 10
107.3922
 20
123.7127
 11
107.3922
 21
123.7127
 40
3.9633
 41
0.5
  1
90
  0
INSERT
  8
LAYER_11
  2
AIGNBL0B01002D
 10
0
 20
0
 30
0
  0
POLYLINE
  8
LAYER_11
 40
0.1129
 41
0.1129
 66
1
 10
0
 20
0
 30
0
  0
VERTEX
  8
LAYER_11
 10
61.763
 20
186.7383
  0
VERTEX
  8
LAYER_11
 10
92.7626
 20
186.7383
  0
SEQEND
  0
POLYLINE
  8
LAYER_11
 40
0.1129
 41
0.1129
 66
1
 10
0
 20
0
 30
0
  0
VERTEX
  8
LAYER_11
 10
92.7626
 20
188.7384
  0
VERTEX
  8
LAYER_11
 10
92.7626
 20
183.5456
  0
SEQEND
  0
POLYLINE
  8
LAYER_11
 40
0.1129
 41
0.1129
 66
1
 10
0
 20
0
 30
0
  0
VERTEX
  8
LAYER_11
 10
61.763
 20
183.5461
  0
VERTEX
  8
LAYER_11
 10
61.763
 20
188.7377
  0
SEQEND
  0
TEXT
  8
LAYER_11
 10
73.612
 20
188.1405
 11
73.612
 21
188.1405
 40
3.8505
 41
0.5
  1
310
  0
POLYLINE
  8
LAYER_11
 40
0.1129
 41
0.1129
 66
1
 10
0
 20
0
 30
0
  0
VERTEX
  8
LAYER_11
 10
112.349
 20
132.7223
  0
VERTEX
  8
LAYER_11
 10
128.3491
 20
132.7223
  0
SEQEND
  0
POLYLINE
  8
LAYER_11
 40
0.1129
 41
0.1129
 66
1
 10
0
 20
0
 30
0
  0
VERTEX
  8
LAYER_11
 10
128.3491
 20
134.7218
  0
VERTEX
  8
LAYER_11
 10
128.3491
 20
130.7221
  0
SEQEND
  0
POLYLINE
  8
LAYER_11
 40
0.1129
 41
0.1129
 66
1
 10
0
 20
0
 30
0
  0
VERTEX
  8
LAYER_11
 10
112.3494
 20
130.7221
  0
VERTEX
  8
LAYER_11
 10
112.3494
 20
134.7211
  0
SEQEND
  0
TEXT
  8
LAYER_11
 10
117.2373
 20
133.9474
 11
117.2373
 21
133.9474
 40
3.8505
 41
0.5
  1
160
  0
POLYLINE
  8
LAYER_11
 40
0.1129
 41
0.1129
 66
1
 10
0
 20
0
 30
0
  0
VERTEX
  8
LAYER_11
 10
132.3127
 20
115.0917
  0
VERTEX
  8
LAYER_11
 10
132.3127
 20
129.0912
  0
SEQEND
  0
POLYLINE
  8
LAYER_11
 40
0.1129
 41
0.1129
 66
1
 10
0
 20
0
 30
0
  0
VERTEX
  8
LAYER_11
 10
129.9318
 20
129.0912
  0
VERTEX
  8
LAYER_11
 10
133.9322
 20
129.0912
  0
SEQEND
  0
POLYLINE
  8
LAYER_11
 40
0.1129
 41
0.1129
 66
1
 10
0
 20
0
 30
0
  0
VERTEX
  8
LAYER_11
 10
129.9325
 20
125.0914
  0
VERTEX
  8
LAYER_11
 10
133.9329
 20
125.0914
  0
SEQEND
  0
POLYLINE
  8
LAYER_11
 40
0.1129
 41
0.1129
 66
1
 10
0
 20
0
 30
0
  0
VERTEX
  8
LAYER_11
 10
133.9315
 20
115.0917
  0
VERTEX
  8
LAYER_11
 10
117.4388
 20
115.0917
  0
SEQEND
  0
TEXT
  8
LAYER_11
 10
132.9745
 20
119.1152
 11
132.9745
 21
119.1152
 40
3.8505
 41
0.5
  1
100
  0
TEXT
  8
LAYER_11
 10
133.269
 20
125.52
 11
133.269
 21
125.52
 40
3.8505
 41
0.5
  1
40
  0
POLYLINE
  8
LAYER_11
 40
0.1129
 41
0.1129
 66
1
 10
0
 20
0
 30
0
  0
VERTEX
  8
LAYER_11
 10
72.0218
 20
131.9754
  0
VERTEX
  8
LAYER_11
 10
82.5218
 20
131.9754
  0
SEQEND
  0
POLYLINE
  8
LAYER_11
 40
0.1129
 41
0.1129
 66
1
 10
0
 20
0
 30
0
  0
VERTEX
  8
LAYER_11
 10
82.5218
 20
133.9756
  0
VERTEX
  8
LAYER_11
 10
82.5218
 20
127.0779
  0
SEQEND
  0
POLYLINE
  8
LAYER_11
 40
0.1129
 41
0.1129
 66
1
 10
0
 20
0
 30
0
  0
VERTEX
  8
LAYER_11
 10
72.0218
 20
127.0785
  0
VERTEX
  8
LAYER_11
 10
72.0218
 20
133.9749
  0
SEQEND
  0
TEXT
  8
LAYER_11
 10
74.2962
 20
133.3776
 11
74.2962
 21
133.3776
 40
3.8505
 41
0.5
  1
105
  0
POLYLINE
  8
LAYER_11
 40
0.1129
 41
0.1129
 66
1
 10
0
 20
0
 30
0
  0
VERTEX
  8
LAYER_11
 10
57.8335
 20
157.3527
  0
VERTEX
  8
LAYER_11
 10
57.8335
 20
184.3529
  0
SEQEND
  0
POLYLINE
  8
LAYER_11
 40
0.1129
 41
0.1129
 66
1
 10
0
 20
0
 30
0
  0
VERTEX
  8
LAYER_11
 10
55.8333
 20
184.3529
  0
VERTEX
  8
LAYER_11
 10
59.8337
 20
184.3529
  0
SEQEND
  0
POLYLINE
  8
LAYER_11
 40
0.1129
 41
0.1129
 66
1
 10
0
 20
0
 30
0
  0
VERTEX
  8
LAYER_11
 10
59.833
 20
157.3534
  0
VERTEX
  8
LAYER_11
 10
55.834
 20
157.3534
  0
SEQEND
  0
POLYLINE
  8
LAYER_11
 40
0.1129
 41
0.1129
 66
1
 10
0
 20
0
 30
0
  0
VERTEX
  8
LAYER_11
 10
96.7562
 20
174.3532
  0
VERTEX
  8
LAYER_11
 10
96.7562
 20
184.3531
  0
SEQEND
  0
POLYLINE
  8
LAYER_11
 40
0.1129
 41
0.1129
 66
1
 10
0
 20
0
 30
0
  0
VERTEX
  8
LAYER_11
 10
94.7567
 20
184.3529
  0
VERTEX
  8
LAYER_11
 10
98.7557
 20
184.3529
  0
SEQEND
  0
POLYLINE
  8
LAYER_11
 40
0.1129
 41
0.1129
 66
1
 10
0
 20
0
 30
0
  0
VERTEX
  8
LAYER_11
 10
98.7557
 20
174.3532
  0
VERTEX
  8
LAYER_11
 10
94.7574
 20
174.3532
  0
SEQEND
  0
POLYLINE
  8
LAYER_11
 40
0.1129
 41
0.1129
 66
1
 10
0
 20
0
 30
0
  0
VERTEX
  8
LAYER_11
 10
96.7562
 20
173.3531
  0
VERTEX
  8
LAYER_11
 10
96.7562
 20
174.353
  0
SEQEND
  0
POLYLINE
  8
LAYER_11
 40
0.1129
 41
0.1129
 66
1
 10
0
 20
0
 30
0
  0
VERTEX
  8
LAYER_11
 10
94.7567
 20
174.353
  0
VERTEX
  8
LAYER_11
 10
98.7564
 20
174.353
  0
SEQEND
  0
TEXT
  8
LAYER_11
 10
63.8008
 20
177.1416
 11
63.8008
 21
177.1416
 40
3.8505
 41
0.5
  1
160
  0
INSERT
  8
LAYER_11
  2
AIGNBL0B01002E
 10
0
 20
0
 30
0
  0
TEXT
  8
LAYER_11
 10
85.0842
 20
180.7187
 11
85.0842
 21
180.7187
 40
3.8503
 41
0.5
  1
40
  0
POLYLINE
  8
LAYER_11
 40
0.1129
 41
0.1129
 66
1
 10
0
 20
0
 30
0
  0
VERTEX
  8
LAYER_11
 10
82.1803
 20
180.353
  0
VERTEX
  8
LAYER_11
 10
82.1803
 20
184.3529
  0
SEQEND
  0
POLYLINE
  8
LAYER_11
 40
0.1129
 41
0.1129
 66
1
 10
0
 20
0
 30
0
  0
VERTEX
  8
LAYER_11
 10
84.1802
 20
180.353
  0
VERTEX
  8
LAYER_11
 10
80.1815
 20
180.353
  0
SEQEND
  0
POLYLINE
  8
LAYER_11
 40
0.1129
 41
0.1129
 66
1
 10
0
 20
0
 30
0
  0
VERTEX
  8
LAYER_11
 10
80.1812
 20
180.353
  0
VERTEX
  8
LAYER_11
 10
84.1806
 20
180.353
  0
SEQEND
  0
POLYLINE
  8
LAYER_11
 40
0.1129
 41
0.1129
 66
1
 10
0
 20
0
 30
0
  0
VERTEX
  8
LAYER_11
 10
98.7564
 20
173.3531
  0
VERTEX
  8
LAYER_11
 10
94.7574
 20
173.3531
  0
SEQEND
  0
POLYLINE
  8
LAYER_11
 40
0.1129
 41
0.1129
 66
1
 10
0
 20
0
 30
0
  0
VERTEX
  8
LAYER_11
 10
96.7562
 20
160.3539
  0
VERTEX
  8
LAYER_11
 10
96.7562
 20
173.3538
  0
SEQEND
  0
POLYLINE
  8
LAYER_11
 40
0.1129
 41
0.1129
 66
1
 10
0
 20
0
 30
0
  0
VERTEX
  8
LAYER_11
 10
94.7567
 20
173.3538
  0
VERTEX
  8
LAYER_11
 10
98.7564
 20
173.3538
  0
SEQEND
  0
POLYLINE
  8
LAYER_11
 40
0.1129
 41
0.1129
 66
1
 10
0
 20
0
 30
0
  0
VERTEX
  8
LAYER_11
 10
96.7562
 20
159.5692
  0
VERTEX
  8
LAYER_11
 10
96.7562
 20
160.5692
  0
SEQEND
  0
POLYLINE
  8
LAYER_11
 40
0.1129
 41
0.1129
 66
1
 10
0
 20
0
 30
0
  0
VERTEX
  8
LAYER_11
 10
94.7567
 20
159.5699
  0
VERTEX
  8
LAYER_11
 10
98.7564
 20
159.5699
  0
SEQEND
  0
POLYLINE
  8
LAYER_11
 40
0.1129
 41
0.1129
 66
1
 10
0
 20
0
 30
0
  0
VERTEX
  8
LAYER_11
 10
96.7562
 20
157.5697
  0
VERTEX
  8
LAYER_11
 10
96.7562
 20
159.5699
  0
SEQEND
  0
POLYLINE
  8
LAYER_11
 40
0.1129
 41
0.1129
 66
1
 10
0
 20
0
 30
0
  0
VERTEX
  8
LAYER_11
 10
94.7567
 20
157.5711
  0
VERTEX
  8
LAYER_11
 10
98.7564
 20
157.5711
  0
SEQEND
  0
POLYLINE
  8
LAYER_11
 40
0.1129
 41
0.1129
 66
1
 10
0
 20
0
 30
0
  0
VERTEX
  8
LAYER_11
 10
98.7564
 20
160.3539
  0
VERTEX
  8
LAYER_11
 10
94.7574
 20
160.3539
  0
SEQEND
  0
TEXT
  8
LAYER_11
 10
99.92
 20
178.5393
 11
99.92
 21
178.5393
 40
3.8503
 41
0.5
  1
100
  0
TEXT
  8
LAYER_11
 10
100.0964
 20
172.766
 11
100.0964
 21
172.766
 40
3.8503
 41
0.5
  1
10
  0
TEXT
  8
LAYER_11
 10
100.0964
 20
159.0215
 11
100.0964
 21
159.0215
 40
3.8503
 41
0.5
  1
10
  0
POLYLINE
  8
LAYER_11
 40
0.1129
 41
0.1129
 66
1
 10
0
 20
0
 30
0
  0
VERTEX
  8
LAYER_11
 10
65.216
 20
154.3313
  0
VERTEX
  8
LAYER_11
 10
89.2163
 20
154.3313
  0
SEQEND
  0
POLYLINE
  8
LAYER_11
 40
0.1129
 41
0.1129
 66
1
 10
0
 20
0
 30
0
  0
VERTEX
  8
LAYER_11
 10
89.2163
 20
156.3315
  0
VERTEX
  8
LAYER_11
 10
89.2163
 20
152.3311
  0
SEQEND
  0
POLYLINE
  8
LAYER_11
 40
0.1129
 41
0.1129
 66
1
 10
0
 20
0
 30
0
  0
VERTEX
  8
LAYER_11
 10
65.2163
 20
152.3318
  0
VERTEX
  8
LAYER_11
 10
65.2163
 20
156.3309
  0
SEQEND
  0
POLYLINE
  8
LAYER_11
 40
0.1129
 41
0.1129
 66
1
 10
0
 20
0
 30
0
  0
VERTEX
  8
LAYER_11
 10
89.2163
 20
154.3313
  0
VERTEX
  8
LAYER_11
 10
90.216
 20
154.3313
  0
SEQEND
  0
POLYLINE
  8
LAYER_11
 40
0.1129
 41
0.1129
 66
1
 10
0
 20
0
 30
0
  0
VERTEX
  8
LAYER_11
 10
90.391
 20
156.3315
  0
VERTEX
  8
LAYER_11
 10
90.391
 20
152.3311
  0
SEQEND
  0
POLYLINE
  8
LAYER_11
 40
0.1129
 41
0.1129
 66
1
 10
0
 20
0
 30
0
  0
VERTEX
  8
LAYER_11
 10
65.2163
 20
154.3313
  0
VERTEX
  8
LAYER_11
 10
64.2166
 20
154.3313
  0
SEQEND
  0
POLYLINE
  8
LAYER_11
 40
0.1129
 41
0.1129
 66
1
 10
0
 20
0
 30
0
  0
VERTEX
  8
LAYER_11
 10
64.2166
 20
156.3315
  0
VERTEX
  8
LAYER_11
 10
64.2166
 20
152.3311
  0
SEQEND
  0
POLYLINE
  8
LAYER_11
 40
0.1129
 41
0.1129
 66
1
 10
0
 20
0
 30
0
  0
VERTEX
  8
LAYER_11
 10
90.216
 20
154.3313
  0
VERTEX
  8
LAYER_11
 10
92.7626
 20
154.3313
  0
SEQEND
  0
POLYLINE
  8
LAYER_11
 40
0.1129
 41
0.1129
 66
1
 10
0
 20
0
 30
0
  0
VERTEX
  8
LAYER_11
 10
92.7623
 20
156.3315
  0
VERTEX
  8
LAYER_11
 10
92.7623
 20
152.3311
  0
SEQEND
  0
POLYLINE
  8
LAYER_11
 40
0.1129
 41
0.1129
 66
1
 10
0
 20
0
 30
0
  0
VERTEX
  8
LAYER_11
 10
64.2166
 20
154.3313
  0
VERTEX
  8
LAYER_11
 10
61.67
 20
154.3313
  0
SEQEND
  0
POLYLINE
  8
LAYER_11
 40
0.1129
 41
0.1129
 66
1
 10
0
 20
0
 30
0
  0
VERTEX
  8
LAYER_11
 10
61.6707
 20
156.3315
  0
VERTEX
  8
LAYER_11
 10
61.6707
 20
152.3311
  0
SEQEND
  0
POLYLINE
  8
LAYER_11
 40
0.1129
 41
0.1129
 66
1
 10
0
 20
0
 30
0
  0
VERTEX
  8
LAYER_11
 10
89.3162
 20
152.3318
  0
VERTEX
  8
LAYER_11
 10
89.3162
 20
156.3309
  0
SEQEND
  0
TEXT
  8
LAYER_11
 10
73.8894
 20
148.3029
 11
73.8894
 21
148.3029
 40
3.8505
 41
0.5
  1
250
  0
TEXT
  8
LAYER_11
 10
86.7987
 20
148.3031
 11
86.7987
 21
148.3031
 40
3.8503
 41
0.5
  1
10
  0
TEXT
  8
LAYER_11
 10
64.4562
 20
148.3031
 11
64.4562
 21
148.3031
 40
3.8503
 41
0.5
  1
10
  0
TEXT
  8
LAYER_11
 10
91.6542
 20
148.3031
 11
91.6542
 21
148.3031
 40
3.8503
 41
0.5
  1
20
  0
TEXT
  8
LAYER_11
 10
59.6505
 20
148.3031
 11
59.6505
 21
148.3031
 40
3.8503
 41
0.5
  1
20
  0
TEXT
  8
LAYER_11
 10
100.0964
 20
155.0155
 11
100.0964
 21
155.0155
 40
3.8503
 41
0.5
  1
20
  0
TEXT
  8
LAYER_11
 10
100.0964
 20
165.7401
 11
100.0964
 21
165.7401
 40
3.8503
 41
0.5
  1
130
  0
POLYLINE
  8
LAYER_11
 40
0.1129
 41
0.1129
 66
1
 10
0
 20
0
 30
0
  0
VERTEX
  8
LAYER_11
 10
156.6547
 20
180.3528
  0
VERTEX
  8
LAYER_11
 10
156.6547
 20
184.3529
  0
SEQEND
  0
POLYLINE
  8
LAYER_11
 40
0.1129
 41
0.1129
 66
1
 10
0
 20
0
 30
0
  0
VERTEX
  8
LAYER_11
 10
154.6552
 20
184.3529
  0
VERTEX
  8
LAYER_11
 10
158.6546
 20
184.3529
  0
SEQEND
  0
POLYLINE
  8
LAYER_11
 40
0.1129
 41
0.1129
 66
1
 10
0
 20
0
 30
0
  0
VERTEX
  8
LAYER_11
 10
154.6555
 20
180.3528
  0
VERTEX
  8
LAYER_11
 10
158.6549
 20
180.3528
  0
SEQEND
  0
TEXT
  8
LAYER_11
 10
150.1727
 20
181.1397
 11
150.1727
 21
181.1397
 40
3.8503
 41
0.5
  1
40
  0
POLYLINE
  8
LAYER_11
 40
0.1129
 41
0.1129
 66
1
 10
0
 20
0
 30
0
  0
VERTEX
  8
LAYER_11
 10
156.6547
 20
173.5029
  0
VERTEX
  8
LAYER_11
 10
156.6547
 20
180.3528
  0
SEQEND
  0
POLYLINE
  8
LAYER_11
 40
0.1129
 41
0.1129
 66
1
 10
0
 20
0
 30
0
  0
VERTEX
  8
LAYER_11
 10
154.6555
 20
173.5029
  0
VERTEX
  8
LAYER_11
 10
158.6549
 20
173.5029
  0
SEQEND
  0
TEXT
  8
LAYER_11
 10
150.1727
 20
174.9199
 11
150.1727
 21
174.9199
 40
3.8503
 41
0.5
  1
70
  0
POLYLINE
  8
LAYER_11
 40
0.1129
 41
0.1129
 66
1
 10
0
 20
0
 30
0
  0
VERTEX
  8
LAYER_11
 10
58.0519
 20
125.0914
  0
VERTEX
  8
LAYER_11
 10
58.0519
 20
129.0912
  0
SEQEND
  0
POLYLINE
  8
LAYER_11
 40
0.1129
 41
0.1129
 66
1
 10
0
 20
0
 30
0
  0
VERTEX
  8
LAYER_11
 10
56.0524
 20
129.0912
  0
VERTEX
  8
LAYER_11
 10
60.0521
 20
129.0912
  0
SEQEND
  0
POLYLINE
  8
LAYER_11
 40
0.1129
 41
0.1129
 66
1
 10
0
 20
0
 30
0
  0
VERTEX
  8
LAYER_11
 10
56.0531
 20
125.0914
  0
VERTEX
  8
LAYER_11
 10
60.0521
 20
125.0914
  0
SEQEND
  0
TEXT
  8
LAYER_11
 10
51.5693
 20
125.8779
 11
51.5693
 21
125.8779
 40
3.8503
 41
0.5
  1
40
  0
POLYLINE
  8
LAYER_11
 40
0.1129
 41
0.1129
 66
1
 10
0
 20
0
 30
0
  0
VERTEX
  8
LAYER_11
 10
58.0519
 20
118.2412
  0
VERTEX
  8
LAYER_11
 10
58.0519
 20
125.0914
  0
SEQEND
  0
POLYLINE
  8
LAYER_11
 40
0.1129
 41
0.1129
 66
1
 10
0
 20
0
 30
0
  0
VERTEX
  8
LAYER_11
 10
56.0531
 20
118.2412
  0
VERTEX
  8
LAYER_11
 10
60.0521
 20
118.2412
  0
SEQEND
  0
TEXT
  8
LAYER_11
 10
51.5693
 20
119.6585
 11
51.5693
 21
119.6585
 40
3.8503
 41
0.5
  1
70
  0
ENDSEC
  0
EOF
