  0
SECTION
  2
HEADER
  9
$ACADVER
  1
AC1009
  9
$LUNITS
 70
2
  9
$LUPREC
 70
4
  9
$LTSCALE
 40
1.0
  9
$EXTMIN
 10
-30.3177
 20
33.3285
 30
0
  9
$EXTMAX
 10
251.6749
 20
230.337
 30
0
  0
ENDSEC
  0
SECTION
  2
TABLES
  0
TABLE
  2
LTYPE
 70
256
  0
LTYPE
  2
AIGENLINE001
 70
64
  3
generate AI->DXF Converter
 72
65
 73
2
 40
0.6998
 49
0.3499
 49
-0.3499
  0
LTYPE
  2
AIGENLINE002
 70
64
  3
generate AI->DXF Converter
 72
65
 73
2
 40
0.6968
 49
0.3484
 49
-0.3484
  0
ENDTAB
  0
TABLE
  2
LAYER
 70
6
  0
LAYER
  2
LAYER_1
 70
64
 62
7
  6
CONTINUOUS
  0
LAYER
  2
LAYER_2
 70
64
 62
7
  6
CONTINUOUS
  0
LAYER
  2
LAYER_3
 70
64
 62
7
  6
CONTINUOUS
  0
LAYER
  2
LAYER_4
 70
64
 62
7
  6
CONTINUOUS
  0
LAYER
  2
LAYER_5
 70
64
 62
7
  6
CONTINUOUS
  0
LAYER
  2
LAYER_6
 70
64
 62
7
  6
CONTINUOUS
  0
ENDTAB
  0
TABLE
  2
STYLE
 70
6
  0
STYLE
  2
STANDARD
 70
0
 40
0
 50
0
 71
0
 41
0
 42
0
  3
TXT
  4
BIGFONT
  0
ENDTAB
  0
ENDSEC
  0
SECTION
  2
BLOCKS
  0
BLOCK
  8
LAYER_6
  2
AIGNBL06040006
 70
64
 10
0
 20
0
 30
0
  3
AIGNBL06040006
  0
POLYLINE
  8
LAYER_6
 40
0.05
 41
0.05
 66
1
 10
0
 20
0
 30
0
 70
1
  0
VERTEX
  8
LAYER_6
 10
146.7545
 20
39.1418
  0
VERTEX
  8
LAYER_6
 10
146.2656
 20
37.9567
  0
VERTEX
  8
LAYER_6
 10
145.6376
 20
37.9567
  0
VERTEX
  8
LAYER_6
 10
147.2372
 20
41.7225
  0
VERTEX
  8
LAYER_6
 10
147.9703
 20
41.7225
  0
VERTEX
  8
LAYER_6
 10
149.5768
 20
37.9567
  0
VERTEX
  8
LAYER_6
 10
148.9267
 20
37.9567
  0
VERTEX
  8
LAYER_6
 10
148.424
 20
39.1418
  0
SEQEND
  0
POLYLINE
  8
LAYER_6
 40
0.05
 41
0.05
 66
1
 10
0
 20
0
 30
0
 70
1
  0
VERTEX
  8
LAYER_6
 10
148.2983
 20
39.5207
  0
VERTEX
  8
LAYER_6
 10
147.8373
 20
40.6056
 42
-0.02317247198
  0
VERTEX
  8
LAYER_6
 10
147.5927
 20
41.2926
  0
VERTEX
  8
LAYER_6
 10
147.5789
 20
41.2926
 42
-0.02064481114
  0
VERTEX
  8
LAYER_6
 10
147.3412
 20
40.6101
  0
VERTEX
  8
LAYER_6
 10
146.8806
 20
39.5207
  0
SEQEND
  0
ENDBLK
  0
BLOCK
  8
LAYER_6
  2
AIGNBL06040007
 70
64
 10
0
 20
0
 30
0
  3
AIGNBL06040007
  0
POLYLINE
  8
LAYER_6
 40
0.05
 41
0.05
 66
1
 10
0
 20
0
 30
0
 70
1
  0
VERTEX
  8
LAYER_6
 10
153.942
 20
37.4034
 42
-0.01520763512
  0
VERTEX
  8
LAYER_6
 10
152.1399
 20
37.8395
 42
0.09160443264
  0
VERTEX
  8
LAYER_6
 10
151.8533
 20
37.895
 42
-0.09256808484
  0
VERTEX
  8
LAYER_6
 10
150.8994
 20
38.0977
 42
-0.09799469934
  0
VERTEX
  8
LAYER_6
 10
150.2621
 20
38.5324
 42
-0.1630918382
  0
VERTEX
  8
LAYER_6
 10
149.7964
 20
39.5259
 42
-0.0316951694
  0
VERTEX
  8
LAYER_6
 10
149.7793
 20
39.7998
 42
-0.1055313794
  0
VERTEX
  8
LAYER_6
 10
149.9533
 20
40.6417
 42
-0.1619874109
  0
VERTEX
  8
LAYER_6
 10
150.7418
 20
41.4867
 42
-0.09224146328
  0
VERTEX
  8
LAYER_6
 10
151.5409
 20
41.7524
 42
-0.03717154931
  0
VERTEX
  8
LAYER_6
 10
151.9725
 20
41.7838
 42
-0.09530639066
  0
VERTEX
  8
LAYER_6
 10
152.9361
 20
41.6062
 42
-0.1001950085
  0
VERTEX
  8
LAYER_6
 10
153.5732
 20
41.1834
 42
-0.1611155306
  0
VERTEX
  8
LAYER_6
 10
154.0599
 20
40.1825
 42
-0.03590167283
  0
VERTEX
  8
LAYER_6
 10
154.0815
 20
39.8784
 42
-0.1066761192
  0
VERTEX
  8
LAYER_6
 10
153.9051
 20
39.0236
 42
-0.2183970027
  0
VERTEX
  8
LAYER_6
 10
152.7953
 20
38.0897
 42
-0.006706711403
  0
VERTEX
  8
LAYER_6
 10
152.7407
 20
38.0738
  0
VERTEX
  8
LAYER_6
 10
152.7407
 20
38.0514
 42
0.01533555045
  0
VERTEX
  8
LAYER_6
 10
154.117
 20
37.8113
  0
SEQEND
  0
POLYLINE
  8
LAYER_6
 40
0.05
 41
0.05
 66
1
 10
0
 20
0
 30
0
 70
1
  0
VERTEX
  8
LAYER_6
 10
153.4394
 20
39.857
 42
0.1175610784
  0
VERTEX
  8
LAYER_6
 10
153.257
 20
40.6254
 42
0.1170135141
  0
VERTEX
  8
LAYER_6
 10
152.8315
 20
41.1234
 42
0.1200044572
  0
VERTEX
  8
LAYER_6
 10
152.2186
 20
41.3675
 42
0.03774262044
  0
VERTEX
  8
LAYER_6
 10
151.9511
 20
41.3873
 42
0.1153139376
  0
VERTEX
  8
LAYER_6
 10
151.2089
 20
41.2226
 42
0.1853550912
  0
VERTEX
  8
LAYER_6
 10
150.5507
 20
40.4882
 42
0.09859892291
  0
VERTEX
  8
LAYER_6
 10
150.4287
 20
39.8122
 42
0.1178359247
  0
VERTEX
  8
LAYER_6
 10
150.5964
 20
39.0734
 42
0.2866694251
  0
VERTEX
  8
LAYER_6
 10
151.9232
 20
38.2912
 42
0.1188197759
  0
VERTEX
  8
LAYER_6
 10
152.6722
 20
38.4633
 42
0.1796740134
  0
VERTEX
  8
LAYER_6
 10
153.3126
 20
39.18
 42
0.09850052237
  0
SEQEND
  0
ENDBLK
  0
BLOCK
  8
LAYER_6
  2
AIGNBL06040008
 70
64
 10
0
 20
0
 30
0
  3
AIGNBL06040008
  0
POLYLINE
  8
LAYER_6
 40
0.05
 41
0.05
 66
1
 10
0
 20
0
 30
0
 70
1
  0
VERTEX
  8
LAYER_6
 10
155.4089
 20
41.7225
  0
VERTEX
  8
LAYER_6
 10
155.4089
 20
39.4932
 42
0.1220213404
  0
VERTEX
  8
LAYER_6
 10
155.569
 20
38.7775
 42
0.2218709818
  0
VERTEX
  8
LAYER_6
 10
156.2104
 20
38.3206
 42
0.05223876895
  0
VERTEX
  8
LAYER_6
 10
156.5055
 20
38.2912
 42
0.1302821267
  0
VERTEX
  8
LAYER_6
 10
157.1748
 20
38.452
 42
0.1509367336
  0
VERTEX
  8
LAYER_6
 10
157.526
 20
38.8454
 42
0.1174732039
  0
VERTEX
  8
LAYER_6
 10
157.651
 20
39.4932
  0
VERTEX
  8
LAYER_6
 10
157.651
 20
41.7225
  0
VERTEX
  8
LAYER_6
 10
158.2656
 20
41.7225
  0
VERTEX
  8
LAYER_6
 10
158.2656
 20
39.5266
 42
-0.1106199636
  0
VERTEX
  8
LAYER_6
 10
158.0961
 20
38.708
 42
-0.1822316276
  0
VERTEX
  8
LAYER_6
 10
157.4057
 20
38.0637
 42
-0.09768689614
  0
VERTEX
  8
LAYER_6
 10
156.6028
 20
37.8972
 42
-0.01000776787
  0
VERTEX
  8
LAYER_6
 10
156.4845
 20
37.895
 42
-0.09899539667
  0
VERTEX
  8
LAYER_6
 10
155.612
 20
38.0554
 42
-0.120955925
  0
VERTEX
  8
LAYER_6
 10
155.1093
 20
38.4366
 42
-0.1193006487
  0
VERTEX
  8
LAYER_6
 10
154.8407
 20
39.0316
 42
-0.05319923583
  0
VERTEX
  8
LAYER_6
 10
154.7943
 20
39.5045
  0
VERTEX
  8
LAYER_6
 10
154.7943
 20
41.7225
  0
SEQEND
  0
ENDBLK
  0
BLOCK
  8
LAYER_6
  2
AIGNBL06040009
 70
64
 10
0
 20
0
 30
0
  3
AIGNBL06040009
  0
POLYLINE
  8
LAYER_6
 40
0.05
 41
0.05
 66
1
 10
0
 20
0
 30
0
 70
1
  0
VERTEX
  8
LAYER_6
 10
160.0119
 20
39.1418
  0
VERTEX
  8
LAYER_6
 10
159.5227
 20
37.9567
  0
VERTEX
  8
LAYER_6
 10
158.8947
 20
37.9567
  0
VERTEX
  8
LAYER_6
 10
160.4939
 20
41.7225
  0
VERTEX
  8
LAYER_6
 10
161.227
 20
41.7225
  0
VERTEX
  8
LAYER_6
 10
162.8335
 20
37.9567
  0
VERTEX
  8
LAYER_6
 10
162.1841
 20
37.9567
  0
VERTEX
  8
LAYER_6
 10
161.6814
 20
39.1418
  0
SEQEND
  0
POLYLINE
  8
LAYER_6
 40
0.05
 41
0.05
 66
1
 10
0
 20
0
 30
0
 70
1
  0
VERTEX
  8
LAYER_6
 10
161.5553
 20
39.5207
  0
VERTEX
  8
LAYER_6
 10
161.094
 20
40.6056
 42
-0.02227599701
  0
VERTEX
  8
LAYER_6
 10
160.8494
 20
41.2926
  0
VERTEX
  8
LAYER_6
 10
160.8357
 20
41.2926
 42
-0.0208222547
  0
VERTEX
  8
LAYER_6
 10
160.5983
 20
40.6101
  0
VERTEX
  8
LAYER_6
 10
160.1373
 20
39.5207
  0
SEQEND
  0
ENDBLK
  0
BLOCK
  8
LAYER_6
  2
AIGNBL0604000A
 70
64
 10
0
 20
0
 30
0
  3
AIGNBL0604000A
  0
POLYLINE
  8
LAYER_6
 40
0.05
 41
0.05
 66
1
 10
0
 20
0
 30
0
 70
1
  0
VERTEX
  8
LAYER_6
 10
163.8742
 20
41.6777
 42
-0.03334485223
  0
VERTEX
  8
LAYER_6
 10
165.0411
 20
41.7508
 42
-0.08844478427
  0
VERTEX
  8
LAYER_6
 10
166.0871
 20
41.5858
 42
-0.06037505309
  0
VERTEX
  8
LAYER_6
 10
166.3609
 20
41.4379
 42
-0.2472514979
  0
VERTEX
  8
LAYER_6
 10
166.7726
 20
40.6497
 42
-0.1483298328
  0
VERTEX
  8
LAYER_6
 10
166.6029
 20
40.0554
 42
-0.07223194904
  0
VERTEX
  8
LAYER_6
 10
166.4095
 20
39.8456
 42
-0.1209372404
  0
VERTEX
  8
LAYER_6
 10
165.7228
 20
39.517
 42
-0.06224269186
  0
VERTEX
  8
LAYER_6
 10
164.9708
 20
39.4319
 42
-0.05738783264
  0
VERTEX
  8
LAYER_6
 10
164.4823
 20
39.4653
  0
VERTEX
  8
LAYER_6
 10
164.4823
 20
37.9567
  0
VERTEX
  8
LAYER_6
 10
163.8742
 20
37.9567
  0
SEQEND
  0
POLYLINE
  8
LAYER_6
 40
0.05
 41
0.05
 66
1
 10
0
 20
0
 30
0
 70
1
  0
VERTEX
  8
LAYER_6
 10
164.4823
 20
39.8622
 42
0.05012782438
  0
VERTEX
  8
LAYER_6
 10
164.9846
 20
39.8229
 42
0.1135299982
  0
VERTEX
  8
LAYER_6
 10
165.7697
 20
39.9822
 42
0.1653556145
  0
VERTEX
  8
LAYER_6
 10
166.1074
 20
40.3302
 42
0.1044590446
  0
VERTEX
  8
LAYER_6
 10
166.1656
 20
40.6273
 42
0.2826437488
  0
VERTEX
  8
LAYER_6
 10
165.8147
 20
41.2103
 42
0.0629694601
  0
VERTEX
  8
LAYER_6
 10
165.549
 20
41.3107
 42
0.06259589917
  0
VERTEX
  8
LAYER_6
 10
165.0552
 20
41.3649
 42
0.05192366909
  0
VERTEX
  8
LAYER_6
 10
164.4823
 20
41.3257
  0
SEQEND
  0
ENDBLK
  0
BLOCK
  8
LAYER_6
  2
AIGNBL0604000B
 70
64
 10
0
 20
0
 30
0
  3
AIGNBL0604000B
  0
POLYLINE
  8
LAYER_6
 40
0.05
 41
0.05
 66
1
 10
0
 20
0
 30
0
 70
1
  0
VERTEX
  8
LAYER_6
 10
168.3246
 20
41.4207
 42
-0.3048675751
  0
VERTEX
  8
LAYER_6
 10
168.1582
 20
41.1661
 42
-0.1151020929
  0
VERTEX
  8
LAYER_6
 10
167.9329
 20
41.1189
 42
-0.2442513348
  0
VERTEX
  8
LAYER_6
 10
167.6028
 20
41.2794
 42
-0.1394546152
  0
VERTEX
  8
LAYER_6
 10
167.5626
 20
41.4207
 42
-0.287439772
  0
VERTEX
  8
LAYER_6
 10
167.7346
 20
41.6803
 42
-0.1179404017
  0
VERTEX
  8
LAYER_6
 10
167.9467
 20
41.7277
 42
-0.2416274379
  0
VERTEX
  8
LAYER_6
 10
168.2814
 20
41.5719
 42
-0.1426378456
  0
SEQEND
  0
POLYLINE
  8
LAYER_6
 40
0.05
 41
0.05
 66
1
 10
0
 20
0
 30
0
 70
1
  0
VERTEX
  8
LAYER_6
 10
167.639
 20
37.9567
  0
VERTEX
  8
LAYER_6
 10
167.639
 20
40.6607
  0
VERTEX
  8
LAYER_6
 10
168.2537
 20
40.6607
  0
VERTEX
  8
LAYER_6
 10
168.2537
 20
37.9567
  0
SEQEND
  0
ENDBLK
  0
BLOCK
  8
LAYER_6
  2
AIGNBL0604000C
 70
64
 10
0
 20
0
 30
0
  3
AIGNBL0604000C
  0
POLYLINE
  8
LAYER_6
 40
0.05
 41
0.05
 66
1
 10
0
 20
0
 30
0
 70
1
  0
VERTEX
  8
LAYER_6
 10
170.1254
 20
39.1418
  0
VERTEX
  8
LAYER_6
 10
169.6372
 20
37.9567
  0
VERTEX
  8
LAYER_6
 10
169.0081
 20
37.9567
  0
VERTEX
  8
LAYER_6
 10
170.6077
 20
41.7225
  0
VERTEX
  8
LAYER_6
 10
171.3415
 20
41.7225
  0
VERTEX
  8
LAYER_6
 10
172.9479
 20
37.9567
  0
VERTEX
  8
LAYER_6
 10
172.2982
 20
37.9567
  0
VERTEX
  8
LAYER_6
 10
171.7955
 20
39.1418
  0
SEQEND
  0
POLYLINE
  8
LAYER_6
 40
0.05
 41
0.05
 66
1
 10
0
 20
0
 30
0
 70
1
  0
VERTEX
  8
LAYER_6
 10
171.6695
 20
39.5207
  0
VERTEX
  8
LAYER_6
 10
171.2085
 20
40.6056
 42
-0.02430767271
  0
VERTEX
  8
LAYER_6
 10
170.9646
 20
41.2926
  0
VERTEX
  8
LAYER_6
 10
170.9498
 20
41.2926
 42
-0.02034719794
  0
VERTEX
  8
LAYER_6
 10
170.7128
 20
40.6101
  0
VERTEX
  8
LAYER_6
 10
170.2518
 20
39.5207
  0
SEQEND
  0
ENDBLK
  0
BLOCK
  8
LAYER_6
  2
AIGNBL06030005
 70
64
 10
0
 20
0
 30
0
  3
AIGNBL06030005
  0
INSERT
  8
LAYER_6
  2
AIGNBL06040006
 10
0
 20
0
 30
0
  0
INSERT
  8
LAYER_6
  2
AIGNBL06040007
 10
0
 20
0
 30
0
  0
INSERT
  8
LAYER_6
  2
AIGNBL06040008
 10
0
 20
0
 30
0
  0
INSERT
  8
LAYER_6
  2
AIGNBL06040009
 10
0
 20
0
 30
0
  0
INSERT
  8
LAYER_6
  2
AIGNBL0604000A
 10
0
 20
0
 30
0
  0
INSERT
  8
LAYER_6
  2
AIGNBL0604000B
 10
0
 20
0
 30
0
  0
INSERT
  8
LAYER_6
  2
AIGNBL0604000C
 10
0
 20
0
 30
0
  0
ENDBLK
  0
BLOCK
  8
LAYER_6
  2
AIGNBL0603000E
 70
64
 10
0
 20
0
 30
0
  3
AIGNBL0603000E
  0
POLYLINE
  8
LAYER_6
 40
0.05
 41
0.05
 66
1
 10
0
 20
0
 30
0
 70
1
  0
VERTEX
  8
LAYER_6
 10
145.7475
 20
36.0574
  0
VERTEX
  8
LAYER_6
 10
146.3008
 20
36.0574
  0
VERTEX
  8
LAYER_6
 10
146.3008
 20
35.9637
  0
VERTEX
  8
LAYER_6
 10
145.6424
 20
35.9637
  0
VERTEX
  8
LAYER_6
 10
145.6424
 20
36.9969
  0
VERTEX
  8
LAYER_6
 10
146.2832
 20
36.9969
  0
VERTEX
  8
LAYER_6
 10
146.2832
 20
36.9035
  0
VERTEX
  8
LAYER_6
 10
145.7475
 20
36.9035
  0
VERTEX
  8
LAYER_6
 10
145.7475
 20
36.549
  0
VERTEX
  8
LAYER_6
 10
146.2481
 20
36.549
  0
VERTEX
  8
LAYER_6
 10
146.2481
 20
36.4557
  0
VERTEX
  8
LAYER_6
 10
145.7475
 20
36.4557
  0
SEQEND
  0
ENDBLK
  0
BLOCK
  8
LAYER_6
  2
AIGNBL0603000F
 70
64
 10
0
 20
0
 30
0
  3
AIGNBL0603000F
  0
POLYLINE
  8
LAYER_6
 40
0.05
 41
0.05
 66
1
 10
0
 20
0
 30
0
 70
1
  0
VERTEX
  8
LAYER_6
 10
147.4404
 20
36.117
  0
VERTEX
  8
LAYER_6
 10
147.4432
 20
36.117
  0
VERTEX
  8
LAYER_6
 10
147.4432
 20
36.9969
  0
VERTEX
  8
LAYER_6
 10
147.5483
 20
36.9969
  0
VERTEX
  8
LAYER_6
 10
147.5483
 20
35.9637
  0
VERTEX
  8
LAYER_6
 10
147.4174
 20
35.9637
  0
VERTEX
  8
LAYER_6
 10
146.8162
 20
36.8525
  0
VERTEX
  8
LAYER_6
 10
146.8127
 20
36.8525
  0
VERTEX
  8
LAYER_6
 10
146.8127
 20
35.9637
  0
VERTEX
  8
LAYER_6
 10
146.708
 20
35.9637
  0
VERTEX
  8
LAYER_6
 10
146.708
 20
36.9969
  0
VERTEX
  8
LAYER_6
 10
146.8393
 20
36.9969
  0
SEQEND
  0
ENDBLK
  0
BLOCK
  8
LAYER_6
  2
AIGNBL06030010
 70
64
 10
0
 20
0
 30
0
  3
AIGNBL06030010
  0
POLYLINE
  8
LAYER_6
 40
0.05
 41
0.05
 66
1
 10
0
 20
0
 30
0
 70
1
  0
VERTEX
  8
LAYER_6
 10
148.0213
 20
36.1756
 42
0.1557655154
  0
VERTEX
  8
LAYER_6
 10
148.0757
 20
36.0725
 42
0.1918235184
  0
VERTEX
  8
LAYER_6
 10
148.1891
 20
36.0309
  0
VERTEX
  8
LAYER_6
 10
148.2783
 20
36.0505
  0
VERTEX
  8
LAYER_6
 10
148.3344
 20
36.1039
  0
VERTEX
  8
LAYER_6
 10
148.3634
 20
36.1804
  0
VERTEX
  8
LAYER_6
 10
148.3717
 20
36.27
  0
VERTEX
  8
LAYER_6
 10
148.3717
 20
36.9969
  0
VERTEX
  8
LAYER_6
 10
148.4767
 20
36.9969
  0
VERTEX
  8
LAYER_6
 10
148.4767
 20
36.2614
  0
VERTEX
  8
LAYER_6
 10
148.4654
 20
36.1535
 42
-0.0973308998
  0
VERTEX
  8
LAYER_6
 10
148.424
 20
36.0485
 42
-0.1149355521
  0
VERTEX
  8
LAYER_6
 10
148.3393
 20
35.9689
 42
-0.1249341208
  0
VERTEX
  8
LAYER_6
 10
148.2004
 20
35.9375
 42
-0.1793665557
  0
VERTEX
  8
LAYER_6
 10
148.0158
 20
35.9974
 42
-0.1772363953
  0
VERTEX
  8
LAYER_6
 10
147.9234
 20
36.149
  0
SEQEND
  0
ENDBLK
  0
BLOCK
  8
LAYER_6
  2
AIGNBL06030011
 70
64
 10
0
 20
0
 30
0
  3
AIGNBL06030011
  0
POLYLINE
  8
LAYER_6
 40
0.05
 41
0.05
 66
1
 10
0
 20
0
 30
0
 70
1
  0
VERTEX
  8
LAYER_6
 10
149.965
 20
36.4805
 42
-0.1019307791
  0
VERTEX
  8
LAYER_6
 10
149.924
 20
36.2631
 42
-0.1000112985
  0
VERTEX
  8
LAYER_6
 10
149.8113
 20
36.0915
 42
-0.09646612644
  0
VERTEX
  8
LAYER_6
 10
149.6405
 20
35.9785
 42
-0.09758594962
  0
VERTEX
  8
LAYER_6
 10
149.4265
 20
35.9375
 42
-0.1000844711
  0
VERTEX
  8
LAYER_6
 10
149.2129
 20
35.9785
 42
-0.09954994557
  0
VERTEX
  8
LAYER_6
 10
149.042
 20
36.0915
 42
-0.09699237735
  0
VERTEX
  8
LAYER_6
 10
148.9287
 20
36.2631
 42
-0.09653980076
  0
VERTEX
  8
LAYER_6
 10
148.8881
 20
36.4805
 42
-0.1004051845
  0
VERTEX
  8
LAYER_6
 10
148.9287
 20
36.6978
 42
-0.0998654539
  0
VERTEX
  8
LAYER_6
 10
149.042
 20
36.8694
 42
-0.09851519288
  0
VERTEX
  8
LAYER_6
 10
149.2129
 20
36.9824
 42
-0.09768823248
  0
VERTEX
  8
LAYER_6
 10
149.4265
 20
37.0234
 42
-0.1000514256
  0
VERTEX
  8
LAYER_6
 10
149.6405
 20
36.9824
 42
-0.09863053528
  0
VERTEX
  8
LAYER_6
 10
149.8113
 20
36.8694
 42
-0.09807107579
  0
VERTEX
  8
LAYER_6
 10
149.924
 20
36.6978
 42
-0.0978256893
  0
SEQEND
  0
POLYLINE
  8
LAYER_6
 40
0.05
 41
0.05
 66
1
 10
0
 20
0
 30
0
 70
1
  0
VERTEX
  8
LAYER_6
 10
149.8541
 20
36.4798
 42
0.08634913196
  0
VERTEX
  8
LAYER_6
 10
149.8251
 20
36.6517
 42
0.09649608129
  0
VERTEX
  8
LAYER_6
 10
149.7404
 20
36.795
 42
0.1032857511
  0
VERTEX
  8
LAYER_6
 10
149.6053
 20
36.8932
 42
0.1061320656
  0
VERTEX
  8
LAYER_6
 10
149.4265
 20
36.93
 42
0.1115874499
  0
VERTEX
  8
LAYER_6
 10
149.2478
 20
36.8932
 42
0.1058584166
  0
VERTEX
  8
LAYER_6
 10
149.113
 20
36.795
 42
0.09787799956
  0
VERTEX
  8
LAYER_6
 10
149.0283
 20
36.6517
 42
0.08491464556
  0
VERTEX
  8
LAYER_6
 10
148.999
 20
36.4798
 42
0.08693146424
  0
VERTEX
  8
LAYER_6
 10
149.0283
 20
36.3079
 42
0.1009797617
  0
VERTEX
  8
LAYER_6
 10
149.113
 20
36.1649
 42
0.09998489394
  0
VERTEX
  8
LAYER_6
 10
149.2478
 20
36.0674
 42
0.1061678446
  0
VERTEX
  8
LAYER_6
 10
149.4265
 20
36.0309
 42
0.1126980581
  0
VERTEX
  8
LAYER_6
 10
149.6053
 20
36.0674
 42
0.1036982708
  0
VERTEX
  8
LAYER_6
 10
149.7404
 20
36.1649
 42
0.09370250368
  0
VERTEX
  8
LAYER_6
 10
149.8251
 20
36.3079
 42
0.08466662837
  0
SEQEND
  0
ENDBLK
  0
BLOCK
  8
LAYER_6
  2
AIGNBL06030012
 70
64
 10
0
 20
0
 30
0
  3
AIGNBL06030012
  0
POLYLINE
  8
LAYER_6
 40
0.05
 41
0.05
 66
1
 10
0
 20
0
 30
0
 70
1
  0
VERTEX
  8
LAYER_6
 10
150.7398
 20
35.9637
  0
VERTEX
  8
LAYER_6
 10
150.6351
 20
35.9637
  0
VERTEX
  8
LAYER_6
 10
150.6351
 20
36.4091
  0
VERTEX
  8
LAYER_6
 10
150.2482
 20
36.9969
  0
VERTEX
  8
LAYER_6
 10
150.3795
 20
36.9969
  0
VERTEX
  8
LAYER_6
 10
150.6905
 20
36.4967
  0
VERTEX
  8
LAYER_6
 10
151.0041
 20
36.9969
  0
VERTEX
  8
LAYER_6
 10
151.1263
 20
36.9969
  0
VERTEX
  8
LAYER_6
 10
150.7398
 20
36.4091
  0
SEQEND
  0
ENDBLK
  0
BLOCK
  8
LAYER_6
  2
AIGNBL06030013
 70
64
 10
0
 20
0
 30
0
  3
AIGNBL06030013
  0
POLYLINE
  8
LAYER_6
 40
0.05
 41
0.05
 66
1
 10
0
 20
0
 30
0
 70
1
  0
VERTEX
  8
LAYER_6
 10
152.0314
 20
36.9969
  0
VERTEX
  8
LAYER_6
 10
152.339
 20
36.9969
  0
VERTEX
  8
LAYER_6
 10
152.4575
 20
36.9845
  0
VERTEX
  8
LAYER_6
 10
152.5643
 20
36.9421
 42
-0.1168262011
  0
VERTEX
  8
LAYER_6
 10
152.6422
 20
36.8611
 42
-0.1230288266
  0
VERTEX
  8
LAYER_6
 10
152.6718
 20
36.733
 42
-0.1795449175
  0
VERTEX
  8
LAYER_6
 10
152.6219
 20
36.5907
 42
-0.170141964
  0
VERTEX
  8
LAYER_6
 10
152.4885
 20
36.5111
  0
VERTEX
  8
LAYER_6
 10
152.4885
 20
36.5084
 42
-0.1719890535
  0
VERTEX
  8
LAYER_6
 10
152.6553
 20
36.4302
 42
-0.2018462152
  0
VERTEX
  8
LAYER_6
 10
152.7214
 20
36.2496
 42
-0.1247085485
  0
VERTEX
  8
LAYER_6
 10
152.6942
 20
36.1325
 42
-0.1153486961
  0
VERTEX
  8
LAYER_6
 10
152.6181
 20
36.0419
 42
-0.08656795839
  0
VERTEX
  8
LAYER_6
 10
152.4972
 20
35.9844
 42
-0.06557363107
  0
VERTEX
  8
LAYER_6
 10
152.3373
 20
35.9637
  0
VERTEX
  8
LAYER_6
 10
152.0314
 20
35.9637
  0
SEQEND
  0
POLYLINE
  8
LAYER_6
 40
0.05
 41
0.05
 66
1
 10
0
 20
0
 30
0
 70
1
  0
VERTEX
  8
LAYER_6
 10
152.1364
 20
36.5445
  0
VERTEX
  8
LAYER_6
 10
152.348
 20
36.5445
  0
VERTEX
  8
LAYER_6
 10
152.4248
 20
36.5535
  0
VERTEX
  8
LAYER_6
 10
152.4951
 20
36.5831
  0
VERTEX
  8
LAYER_6
 10
152.5471
 20
36.6396
 42
0.1162126025
  0
VERTEX
  8
LAYER_6
 10
152.5668
 20
36.7258
  0
VERTEX
  8
LAYER_6
 10
152.5471
 20
36.8095
  0
VERTEX
  8
LAYER_6
 10
152.494
 20
36.8656
  0
VERTEX
  8
LAYER_6
 10
152.4152
 20
36.897
  0
VERTEX
  8
LAYER_6
 10
152.3187
 20
36.9066
  0
VERTEX
  8
LAYER_6
 10
152.1364
 20
36.9066
  0
SEQEND
  0
POLYLINE
  8
LAYER_6
 40
0.05
 41
0.05
 66
1
 10
0
 20
0
 30
0
 70
1
  0
VERTEX
  8
LAYER_6
 10
152.1364
 20
36.0543
  0
VERTEX
  8
LAYER_6
 10
152.3321
 20
36.0543
  0
VERTEX
  8
LAYER_6
 10
152.4406
 20
36.0653
  0
VERTEX
  8
LAYER_6
 10
152.5313
 20
36.1001
 42
0.1172546835
  0
VERTEX
  8
LAYER_6
 10
152.5929
 20
36.1632
 42
0.1286243504
  0
VERTEX
  8
LAYER_6
 10
152.6164
 20
36.2559
 42
0.2498669706
  0
VERTEX
  8
LAYER_6
 10
152.5471
 20
36.4081
 42
0.1538083763
  0
VERTEX
  8
LAYER_6
 10
152.3511
 20
36.4584
  0
VERTEX
  8
LAYER_6
 10
152.1364
 20
36.4584
  0
SEQEND
  0
ENDBLK
  0
BLOCK
  8
LAYER_6
  2
AIGNBL06030014
 70
64
 10
0
 20
0
 30
0
  3
AIGNBL06030014
  0
POLYLINE
  8
LAYER_6
 40
0.05
 41
0.05
 66
1
 10
0
 20
0
 30
0
 70
1
  0
VERTEX
  8
LAYER_6
 10
153.1534
 20
35.9637
  0
VERTEX
  8
LAYER_6
 10
153.038
 20
35.9637
  0
VERTEX
  8
LAYER_6
 10
153.4849
 20
36.9969
  0
VERTEX
  8
LAYER_6
 10
153.5872
 20
36.9969
  0
VERTEX
  8
LAYER_6
 10
154.0306
 20
35.9637
  0
VERTEX
  8
LAYER_6
 10
153.9138
 20
35.9637
  0
VERTEX
  8
LAYER_6
 10
153.7997
 20
36.2352
  0
VERTEX
  8
LAYER_6
 10
153.2657
 20
36.2352
  0
SEQEND
  0
POLYLINE
  8
LAYER_6
 40
0.05
 41
0.05
 66
1
 10
0
 20
0
 30
0
 70
1
  0
VERTEX
  8
LAYER_6
 10
153.305
 20
36.3316
  0
VERTEX
  8
LAYER_6
 10
153.7604
 20
36.3316
  0
VERTEX
  8
LAYER_6
 10
153.5327
 20
36.8804
  0
SEQEND
  0
ENDBLK
  0
BLOCK
  8
LAYER_6
  2
AIGNBL06030015
 70
64
 10
0
 20
0
 30
0
  3
AIGNBL06030015
  0
POLYLINE
  8
LAYER_6
 40
0.05
 41
0.05
 66
1
 10
0
 20
0
 30
0
 70
1
  0
VERTEX
  8
LAYER_6
 10
154.7151
 20
35.9637
  0
VERTEX
  8
LAYER_6
 10
154.61
 20
35.9637
  0
VERTEX
  8
LAYER_6
 10
154.61
 20
36.9035
  0
VERTEX
  8
LAYER_6
 10
154.2638
 20
36.9035
  0
VERTEX
  8
LAYER_6
 10
154.2638
 20
36.9969
  0
VERTEX
  8
LAYER_6
 10
155.0606
 20
36.9969
  0
VERTEX
  8
LAYER_6
 10
155.0606
 20
36.9035
  0
VERTEX
  8
LAYER_6
 10
154.7151
 20
36.9035
  0
SEQEND
  0
ENDBLK
  0
BLOCK
  8
LAYER_6
  2
AIGNBL06030016
 70
64
 10
0
 20
0
 30
0
  3
AIGNBL06030016
  0
POLYLINE
  8
LAYER_6
 40
0.05
 41
0.05
 66
1
 10
0
 20
0
 30
0
 70
1
  0
VERTEX
  8
LAYER_6
 10
155.4169
 20
36.9969
  0
VERTEX
  8
LAYER_6
 10
155.5216
 20
36.9969
  0
VERTEX
  8
LAYER_6
 10
155.5216
 20
36.549
  0
VERTEX
  8
LAYER_6
 10
156.0852
 20
36.549
  0
VERTEX
  8
LAYER_6
 10
156.0852
 20
36.9969
  0
VERTEX
  8
LAYER_6
 10
156.1903
 20
36.9969
  0
VERTEX
  8
LAYER_6
 10
156.1903
 20
35.9637
  0
VERTEX
  8
LAYER_6
 10
156.0852
 20
35.9637
  0
VERTEX
  8
LAYER_6
 10
156.0852
 20
36.4529
  0
VERTEX
  8
LAYER_6
 10
155.5216
 20
36.4529
  0
VERTEX
  8
LAYER_6
 10
155.5216
 20
35.9637
  0
VERTEX
  8
LAYER_6
 10
155.4169
 20
35.9637
  0
SEQEND
  0
ENDBLK
  0
BLOCK
  8
LAYER_6
  2
AIGNBL06030017
 70
64
 10
0
 20
0
 30
0
  3
AIGNBL06030017
  0
POLYLINE
  8
LAYER_6
 40
0.05
 41
0.05
 66
1
 10
0
 20
0
 30
0
 70
1
  0
VERTEX
  8
LAYER_6
 10
156.7708
 20
35.9637
  0
VERTEX
  8
LAYER_6
 10
156.6657
 20
35.9637
  0
VERTEX
  8
LAYER_6
 10
156.6657
 20
36.9969
  0
VERTEX
  8
LAYER_6
 10
156.9696
 20
36.9969
  0
VERTEX
  8
LAYER_6
 10
157.1101
 20
36.9824
 42
-0.1032885834
  0
VERTEX
  8
LAYER_6
 10
157.2228
 20
36.9349
 42
-0.1280591957
  0
VERTEX
  8
LAYER_6
 10
157.2962
 20
36.8494
 42
-0.1078860225
  0
VERTEX
  8
LAYER_6
 10
157.3223
 20
36.7213
  0
VERTEX
  8
LAYER_6
 10
157.3024
 20
36.6176
  0
VERTEX
  8
LAYER_6
 10
157.2469
 20
36.5366
  0
VERTEX
  8
LAYER_6
 10
157.1635
 20
36.4818
  0
VERTEX
  8
LAYER_6
 10
157.0585
 20
36.4557
  0
VERTEX
  8
LAYER_6
 10
157.3606
 20
35.9637
  0
VERTEX
  8
LAYER_6
 10
157.2321
 20
35.9637
  0
VERTEX
  8
LAYER_6
 10
156.9461
 20
36.4467
  0
VERTEX
  8
LAYER_6
 10
156.7708
 20
36.4467
  0
SEQEND
  0
POLYLINE
  8
LAYER_6
 40
0.05
 41
0.05
 66
1
 10
0
 20
0
 30
0
 70
1
  0
VERTEX
  8
LAYER_6
 10
156.7708
 20
36.5373
  0
VERTEX
  8
LAYER_6
 10
156.9534
 20
36.5373
 42
0.153451873
  0
VERTEX
  8
LAYER_6
 10
157.1491
 20
36.5831
 42
0.2580279849
  0
VERTEX
  8
LAYER_6
 10
157.2176
 20
36.7213
  0
VERTEX
  8
LAYER_6
 10
157.1983
 20
36.8071
  0
VERTEX
  8
LAYER_6
 10
157.146
 20
36.8643
  0
VERTEX
  8
LAYER_6
 10
157.0643
 20
36.8963
  0
VERTEX
  8
LAYER_6
 10
156.9578
 20
36.9066
  0
VERTEX
  8
LAYER_6
 10
156.7708
 20
36.9066
  0
SEQEND
  0
ENDBLK
  0
BLOCK
  8
LAYER_6
  2
AIGNBL06030018
 70
64
 10
0
 20
0
 30
0
  3
AIGNBL06030018
  0
POLYLINE
  8
LAYER_6
 40
0.05
 41
0.05
 66
1
 10
0
 20
0
 30
0
 70
1
  0
VERTEX
  8
LAYER_6
 10
158.7627
 20
36.4805
 42
-0.09904480664
  0
VERTEX
  8
LAYER_6
 10
158.7221
 20
36.2631
 42
-0.09984043552
  0
VERTEX
  8
LAYER_6
 10
158.6087
 20
36.0915
 42
-0.09841590082
  0
VERTEX
  8
LAYER_6
 10
158.4382
 20
35.9785
 42
-0.09758412454
  0
VERTEX
  8
LAYER_6
 10
158.2243
 20
35.9375
 42
-0.09999517154
  0
VERTEX
  8
LAYER_6
 10
158.0103
 20
35.9785
 42
-0.09953435427
  0
VERTEX
  8
LAYER_6
 10
157.8398
 20
36.0915
 42
-0.09853706159
  0
VERTEX
  8
LAYER_6
 10
157.7268
 20
36.2631
 42
-0.09653980076
  0
VERTEX
  8
LAYER_6
 10
157.6862
 20
36.4805
 42
-0.1004051845
  0
VERTEX
  8
LAYER_6
 10
157.7268
 20
36.6978
 42
-0.1008040346
  0
VERTEX
  8
LAYER_6
 10
157.8398
 20
36.8694
 42
-0.09763764092
  0
VERTEX
  8
LAYER_6
 10
158.0103
 20
36.9824
 42
-0.09752919603
  0
VERTEX
  8
LAYER_6
 10
158.2243
 20
37.0234
 42
-0.1000174927
  0
VERTEX
  8
LAYER_6
 10
158.4382
 20
36.9824
 42
-0.1009762109
  0
VERTEX
  8
LAYER_6
 10
158.6087
 20
36.8694
 42
-0.09735230618
  0
VERTEX
  8
LAYER_6
 10
158.7221
 20
36.6978
 42
-0.09580191209
  0
SEQEND
  0
POLYLINE
  8
LAYER_6
 40
0.05
 41
0.05
 66
1
 10
0
 20
0
 30
0
 70
1
  0
VERTEX
  8
LAYER_6
 10
158.6518
 20
36.4798
 42
0.08852014676
  0
VERTEX
  8
LAYER_6
 10
158.6225
 20
36.6517
 42
0.09973444611
  0
VERTEX
  8
LAYER_6
 10
158.5378
 20
36.795
 42
0.1024799068
  0
VERTEX
  8
LAYER_6
 10
158.4031
 20
36.8932
 42
0.1060321998
  0
VERTEX
  8
LAYER_6
 10
158.2243
 20
36.93
 42
0.1116325688
  0
VERTEX
  8
LAYER_6
 10
158.0455
 20
36.8932
 42
0.1060506217
  0
VERTEX
  8
LAYER_6
 10
157.9104
 20
36.795
 42
0.09526104957
  0
VERTEX
  8
LAYER_6
 10
157.8257
 20
36.6517
 42
0.08422602157
  0
VERTEX
  8
LAYER_6
 10
157.7968
 20
36.4798
 42
0.0876992245
  0
VERTEX
  8
LAYER_6
 10
157.8257
 20
36.3079
 42
0.09826867926
  0
VERTEX
  8
LAYER_6
 10
157.9104
 20
36.1649
 42
0.09965756504
  0
VERTEX
  8
LAYER_6
 10
158.0455
 20
36.0674
 42
0.1061654103
  0
VERTEX
  8
LAYER_6
 10
158.2243
 20
36.0309
 42
0.1124388132
  0
VERTEX
  8
LAYER_6
 10
158.4031
 20
36.0674
 42
0.1029122982
  0
VERTEX
  8
LAYER_6
 10
158.5378
 20
36.1649
 42
0.09882210045
  0
VERTEX
  8
LAYER_6
 10
158.6225
 20
36.3079
 42
0.08589740831
  0
SEQEND
  0
ENDBLK
  0
BLOCK
  8
LAYER_6
  2
AIGNBL06030019
 70
64
 10
0
 20
0
 30
0
  3
AIGNBL06030019
  0
POLYLINE
  8
LAYER_6
 40
0.05
 41
0.05
 66
1
 10
0
 20
0
 30
0
 70
1
  0
VERTEX
  8
LAYER_6
 10
160.2045
 20
36.4805
 42
-0.1019307791
  0
VERTEX
  8
LAYER_6
 10
160.1635
 20
36.2631
 42
-0.09929652324
  0
VERTEX
  8
LAYER_6
 10
160.0509
 20
36.0915
 42
-0.09710469009
  0
VERTEX
  8
LAYER_6
 10
159.88
 20
35.9785
 42
-0.09758412454
  0
VERTEX
  8
LAYER_6
 10
159.6661
 20
35.9375
 42
-0.1005051182
  0
VERTEX
  8
LAYER_6
 10
159.4524
 20
35.9785
 42
-0.1009789173
  0
VERTEX
  8
LAYER_6
 10
159.2816
 20
36.0915
 42
-0.09724598852
  0
VERTEX
  8
LAYER_6
 10
159.1682
 20
36.2631
 42
-0.09653980076
  0
VERTEX
  8
LAYER_6
 10
159.1276
 20
36.4805
 42
-0.1004051845
  0
VERTEX
  8
LAYER_6
 10
159.1682
 20
36.6978
 42
-0.1001669327
  0
VERTEX
  8
LAYER_6
 10
159.2816
 20
36.8694
 42
-0.09846843416
  0
VERTEX
  8
LAYER_6
 10
159.4524
 20
36.9824
 42
-0.09783444074
  0
VERTEX
  8
LAYER_6
 10
159.6661
 20
37.0234
 42
-0.1000174927
  0
VERTEX
  8
LAYER_6
 10
159.88
 20
36.9824
 42
-0.098457988
  0
VERTEX
  8
LAYER_6
 10
160.0509
 20
36.8694
 42
-0.09762598086
  0
VERTEX
  8
LAYER_6
 10
160.1635
 20
36.6978
 42
-0.0978256893
  0
SEQEND
  0
POLYLINE
  8
LAYER_6
 40
0.05
 41
0.05
 66
1
 10
0
 20
0
 30
0
 70
1
  0
VERTEX
  8
LAYER_6
 10
160.0936
 20
36.4798
 42
0.08653869446
  0
VERTEX
  8
LAYER_6
 10
160.0647
 20
36.6517
 42
0.09689814906
  0
VERTEX
  8
LAYER_6
 10
159.9799
 20
36.795
 42
0.1032857511
  0
VERTEX
  8
LAYER_6
 10
159.8448
 20
36.8932
 42
0.1061350344
  0
VERTEX
  8
LAYER_6
 10
159.6661
 20
36.93
 42
0.1114208933
  0
VERTEX
  8
LAYER_6
 10
159.4872
 20
36.8932
 42
0.1056595975
  0
VERTEX
  8
LAYER_6
 10
159.3525
 20
36.795
 42
0.09787799956
  0
VERTEX
  8
LAYER_6
 10
159.2678
 20
36.6517
 42
0.08491464556
  0
VERTEX
  8
LAYER_6
 10
159.2385
 20
36.4798
 42
0.08693146424
  0
VERTEX
  8
LAYER_6
 10
159.2678
 20
36.3079
 42
0.1009797617
  0
VERTEX
  8
LAYER_6
 10
159.3525
 20
36.1649
 42
0.09978391674
  0
VERTEX
  8
LAYER_6
 10
159.4872
 20
36.0674
 42
0.1060616244
  0
VERTEX
  8
LAYER_6
 10
159.6661
 20
36.0309
 42
0.1126531325
  0
VERTEX
  8
LAYER_6
 10
159.8448
 20
36.0674
 42
0.1036982708
  0
VERTEX
  8
LAYER_6
 10
159.9799
 20
36.1649
 42
0.09401062747
  0
VERTEX
  8
LAYER_6
 10
160.0647
 20
36.3079
 42
0.0844927763
  0
SEQEND
  0
ENDBLK
  0
BLOCK
  8
LAYER_6
  2
AIGNBL0603001A
 70
64
 10
0
 20
0
 30
0
  3
AIGNBL0603001A
  0
POLYLINE
  8
LAYER_6
 40
0.05
 41
0.05
 66
1
 10
0
 20
0
 30
0
 70
1
  0
VERTEX
  8
LAYER_6
 10
161.1354
 20
36.1418
  0
VERTEX
  8
LAYER_6
 10
161.1371
 20
36.1418
  0
VERTEX
  8
LAYER_6
 10
161.4826
 20
36.9969
  0
VERTEX
  8
LAYER_6
 10
161.6435
 20
36.9969
  0
VERTEX
  8
LAYER_6
 10
161.6435
 20
35.9637
  0
VERTEX
  8
LAYER_6
 10
161.5381
 20
35.9637
  0
VERTEX
  8
LAYER_6
 10
161.5381
 20
36.8611
  0
VERTEX
  8
LAYER_6
 10
161.5354
 20
36.8611
  0
VERTEX
  8
LAYER_6
 10
161.1619
 20
35.9637
  0
VERTEX
  8
LAYER_6
 10
161.1064
 20
35.9637
  0
VERTEX
  8
LAYER_6
 10
160.7326
 20
36.8611
  0
VERTEX
  8
LAYER_6
 10
160.7299
 20
36.8611
  0
VERTEX
  8
LAYER_6
 10
160.7299
 20
35.9637
  0
VERTEX
  8
LAYER_6
 10
160.6248
 20
35.9637
  0
VERTEX
  8
LAYER_6
 10
160.6248
 20
36.9969
  0
VERTEX
  8
LAYER_6
 10
160.7853
 20
36.9969
  0
SEQEND
  0
ENDBLK
  0
BLOCK
  8
LAYER_6
  2
AIGNBL0603001B
 70
64
 10
0
 20
0
 30
0
  3
AIGNBL0603001B
  0
POLYLINE
  8
LAYER_6
 40
0.05
 41
0.05
 66
1
 10
0
 20
0
 30
0
 70
1
  0
VERTEX
  8
LAYER_6
 10
162.79
 20
36.0574
  0
VERTEX
  8
LAYER_6
 10
163.3433
 20
36.0574
  0
VERTEX
  8
LAYER_6
 10
163.3433
 20
35.9637
  0
VERTEX
  8
LAYER_6
 10
162.685
 20
35.9637
  0
VERTEX
  8
LAYER_6
 10
162.685
 20
36.9969
  0
VERTEX
  8
LAYER_6
 10
163.3258
 20
36.9969
  0
VERTEX
  8
LAYER_6
 10
163.3258
 20
36.9035
  0
VERTEX
  8
LAYER_6
 10
162.79
 20
36.9035
  0
VERTEX
  8
LAYER_6
 10
162.79
 20
36.549
  0
VERTEX
  8
LAYER_6
 10
163.2906
 20
36.549
  0
VERTEX
  8
LAYER_6
 10
163.2906
 20
36.4557
  0
VERTEX
  8
LAYER_6
 10
162.79
 20
36.4557
  0
SEQEND
  0
ENDBLK
  0
BLOCK
  8
LAYER_6
  2
AIGNBL0603001C
 70
64
 10
0
 20
0
 30
0
  3
AIGNBL0603001C
  0
POLYLINE
  8
LAYER_6
 40
0.05
 41
0.05
 66
1
 10
0
 20
0
 30
0
 70
1
  0
VERTEX
  8
LAYER_6
 10
164.0885
 20
36.5797
  0
VERTEX
  8
LAYER_6
 10
164.3707
 20
36.9969
  0
VERTEX
  8
LAYER_6
 10
164.4957
 20
36.9969
  0
VERTEX
  8
LAYER_6
 10
164.1533
 20
36.5053
  0
VERTEX
  8
LAYER_6
 10
164.5326
 20
35.9637
  0
VERTEX
  8
LAYER_6
 10
164.4013
 20
35.9637
  0
VERTEX
  8
LAYER_6
 10
164.0858
 20
36.4295
  0
VERTEX
  8
LAYER_6
 10
163.7722
 20
35.9637
  0
VERTEX
  8
LAYER_6
 10
163.6407
 20
35.9637
  0
VERTEX
  8
LAYER_6
 10
164.0203
 20
36.5066
  0
VERTEX
  8
LAYER_6
 10
163.6744
 20
36.9969
  0
VERTEX
  8
LAYER_6
 10
163.806
 20
36.9969
  0
SEQEND
  0
ENDBLK
  0
BLOCK
  8
LAYER_6
  2
AIGNBL0603001D
 70
64
 10
0
 20
0
 30
0
  3
AIGNBL0603001D
  0
POLYLINE
  8
LAYER_6
 40
0.05
 41
0.05
 66
1
 10
0
 20
0
 30
0
 70
1
  0
VERTEX
  8
LAYER_6
 10
164.8988
 20
36.9969
  0
VERTEX
  8
LAYER_6
 10
165.1909
 20
36.9969
  0
VERTEX
  8
LAYER_6
 10
165.3339
 20
36.9804
 42
-0.104160294
  0
VERTEX
  8
LAYER_6
 10
165.4438
 20
36.929
 42
-0.1209616443
  0
VERTEX
  8
LAYER_6
 10
165.5148
 20
36.8429
 42
-0.1032545831
  0
VERTEX
  8
LAYER_6
 10
165.5392
 20
36.7213
 42
-0.1239274235
  0
VERTEX
  8
LAYER_6
 10
165.5141
 20
36.5993
 42
-0.1163667494
  0
VERTEX
  8
LAYER_6
 10
165.4424
 20
36.5132
 42
-0.08715194998
  0
VERTEX
  8
LAYER_6
 10
165.3315
 20
36.4615
 42
-0.06075348808
  0
VERTEX
  8
LAYER_6
 10
165.1878
 20
36.444
  0
VERTEX
  8
LAYER_6
 10
165.0039
 20
36.444
  0
VERTEX
  8
LAYER_6
 10
165.0039
 20
35.9637
  0
VERTEX
  8
LAYER_6
 10
164.8988
 20
35.9637
  0
SEQEND
  0
POLYLINE
  8
LAYER_6
 40
0.05
 41
0.05
 66
1
 10
0
 20
0
 30
0
 70
1
  0
VERTEX
  8
LAYER_6
 10
165.0039
 20
36.5328
  0
VERTEX
  8
LAYER_6
 10
165.1816
 20
36.5328
 42
0.1694225951
  0
VERTEX
  8
LAYER_6
 10
165.3701
 20
36.581
 42
0.2442570363
  0
VERTEX
  8
LAYER_6
 10
165.4345
 20
36.7213
 42
0.2590967024
  0
VERTEX
  8
LAYER_6
 10
165.368
 20
36.8622
 42
0.143072224
  0
VERTEX
  8
LAYER_6
 10
165.1816
 20
36.9066
  0
VERTEX
  8
LAYER_6
 10
165.0039
 20
36.9066
  0
SEQEND
  0
ENDBLK
  0
BLOCK
  8
LAYER_6
  2
AIGNBL0603001E
 70
64
 10
0
 20
0
 30
0
  3
AIGNBL0603001E
  0
POLYLINE
  8
LAYER_6
 40
0.05
 41
0.05
 66
1
 10
0
 20
0
 30
0
 70
1
  0
VERTEX
  8
LAYER_6
 10
166.0515
 20
36.0574
  0
VERTEX
  8
LAYER_6
 10
166.6048
 20
36.0574
  0
VERTEX
  8
LAYER_6
 10
166.6048
 20
35.9637
  0
VERTEX
  8
LAYER_6
 10
165.9465
 20
35.9637
  0
VERTEX
  8
LAYER_6
 10
165.9465
 20
36.9969
  0
VERTEX
  8
LAYER_6
 10
166.5872
 20
36.9969
  0
VERTEX
  8
LAYER_6
 10
166.5872
 20
36.9035
  0
VERTEX
  8
LAYER_6
 10
166.0515
 20
36.9035
  0
VERTEX
  8
LAYER_6
 10
166.0515
 20
36.549
  0
VERTEX
  8
LAYER_6
 10
166.5521
 20
36.549
  0
VERTEX
  8
LAYER_6
 10
166.5521
 20
36.4557
  0
VERTEX
  8
LAYER_6
 10
166.0515
 20
36.4557
  0
SEQEND
  0
ENDBLK
  0
BLOCK
  8
LAYER_6
  2
AIGNBL0603001F
 70
64
 10
0
 20
0
 30
0
  3
AIGNBL0603001F
  0
POLYLINE
  8
LAYER_6
 40
0.05
 41
0.05
 66
1
 10
0
 20
0
 30
0
 70
1
  0
VERTEX
  8
LAYER_6
 10
167.1168
 20
35.9637
  0
VERTEX
  8
LAYER_6
 10
167.0117
 20
35.9637
  0
VERTEX
  8
LAYER_6
 10
167.0117
 20
36.9969
  0
VERTEX
  8
LAYER_6
 10
167.3155
 20
36.9969
  0
VERTEX
  8
LAYER_6
 10
167.4561
 20
36.9824
 42
-0.1039428931
  0
VERTEX
  8
LAYER_6
 10
167.5687
 20
36.9349
 42
-0.1259973384
  0
VERTEX
  8
LAYER_6
 10
167.6425
 20
36.8494
 42
-0.1064650891
  0
VERTEX
  8
LAYER_6
 10
167.6683
 20
36.7213
  0
VERTEX
  8
LAYER_6
 10
167.6483
 20
36.6176
  0
VERTEX
  8
LAYER_6
 10
167.5929
 20
36.5366
  0
VERTEX
  8
LAYER_6
 10
167.5095
 20
36.4818
  0
VERTEX
  8
LAYER_6
 10
167.4044
 20
36.4557
  0
VERTEX
  8
LAYER_6
 10
167.7066
 20
35.9637
  0
VERTEX
  8
LAYER_6
 10
167.578
 20
35.9637
  0
VERTEX
  8
LAYER_6
 10
167.2921
 20
36.4467
  0
VERTEX
  8
LAYER_6
 10
167.1168
 20
36.4467
  0
SEQEND
  0
POLYLINE
  8
LAYER_6
 40
0.05
 41
0.05
 66
1
 10
0
 20
0
 30
0
 70
1
  0
VERTEX
  8
LAYER_6
 10
167.1168
 20
36.5373
  0
VERTEX
  8
LAYER_6
 10
167.2994
 20
36.5373
 42
0.1542400453
  0
VERTEX
  8
LAYER_6
 10
167.495
 20
36.5831
 42
0.2583775622
  0
VERTEX
  8
LAYER_6
 10
167.5636
 20
36.7213
  0
VERTEX
  8
LAYER_6
 10
167.5446
 20
36.8071
  0
VERTEX
  8
LAYER_6
 10
167.4919
 20
36.8643
  0
VERTEX
  8
LAYER_6
 10
167.4103
 20
36.8963
  0
VERTEX
  8
LAYER_6
 10
167.3038
 20
36.9066
  0
VERTEX
  8
LAYER_6
 10
167.1168
 20
36.9066
  0
SEQEND
  0
ENDBLK
  0
BLOCK
  8
LAYER_6
  2
AIGNBL06030020
 70
64
 10
0
 20
0
 30
0
  3
AIGNBL06030020
  0
POLYLINE
  8
LAYER_6
 40
0.05
 41
0.05
 66
1
 10
0
 20
0
 30
0
 70
1
  0
VERTEX
  8
LAYER_6
 10
168.1923
 20
35.9637
  0
VERTEX
  8
LAYER_6
 10
168.0876
 20
35.9637
  0
VERTEX
  8
LAYER_6
 10
168.0876
 20
36.9969
  0
VERTEX
  8
LAYER_6
 10
168.1923
 20
36.9969
  0
SEQEND
  0
ENDBLK
  0
BLOCK
  8
LAYER_6
  2
AIGNBL06030021
 70
64
 10
0
 20
0
 30
0
  3
AIGNBL06030021
  0
POLYLINE
  8
LAYER_6
 40
0.05
 41
0.05
 66
1
 10
0
 20
0
 30
0
 70
1
  0
VERTEX
  8
LAYER_6
 10
168.7732
 20
36.0574
  0
VERTEX
  8
LAYER_6
 10
169.3261
 20
36.0574
  0
VERTEX
  8
LAYER_6
 10
169.3261
 20
35.9637
  0
VERTEX
  8
LAYER_6
 10
168.6681
 20
35.9637
  0
VERTEX
  8
LAYER_6
 10
168.6681
 20
36.9969
  0
VERTEX
  8
LAYER_6
 10
169.3089
 20
36.9969
  0
VERTEX
  8
LAYER_6
 10
169.3089
 20
36.9035
  0
VERTEX
  8
LAYER_6
 10
168.7732
 20
36.9035
  0
VERTEX
  8
LAYER_6
 10
168.7732
 20
36.549
  0
VERTEX
  8
LAYER_6
 10
169.2737
 20
36.549
  0
VERTEX
  8
LAYER_6
 10
169.2737
 20
36.4557
  0
VERTEX
  8
LAYER_6
 10
168.7732
 20
36.4557
  0
SEQEND
  0
ENDBLK
  0
BLOCK
  8
LAYER_6
  2
AIGNBL06030022
 70
64
 10
0
 20
0
 30
0
  3
AIGNBL06030022
  0
POLYLINE
  8
LAYER_6
 40
0.05
 41
0.05
 66
1
 10
0
 20
0
 30
0
 70
1
  0
VERTEX
  8
LAYER_6
 10
170.4661
 20
36.117
  0
VERTEX
  8
LAYER_6
 10
170.4689
 20
36.117
  0
VERTEX
  8
LAYER_6
 10
170.4689
 20
36.9969
  0
VERTEX
  8
LAYER_6
 10
170.5739
 20
36.9969
  0
VERTEX
  8
LAYER_6
 10
170.5739
 20
35.9637
  0
VERTEX
  8
LAYER_6
 10
170.4426
 20
35.9637
  0
VERTEX
  8
LAYER_6
 10
169.8415
 20
36.8525
  0
VERTEX
  8
LAYER_6
 10
169.8384
 20
36.8525
  0
VERTEX
  8
LAYER_6
 10
169.8384
 20
35.9637
  0
VERTEX
  8
LAYER_6
 10
169.7333
 20
35.9637
  0
VERTEX
  8
LAYER_6
 10
169.7333
 20
36.9969
  0
VERTEX
  8
LAYER_6
 10
169.8649
 20
36.9969
  0
SEQEND
  0
ENDBLK
  0
BLOCK
  8
LAYER_6
  2
AIGNBL06030023
 70
64
 10
0
 20
0
 30
0
  3
AIGNBL06030023
  0
POLYLINE
  8
LAYER_6
 40
0.05
 41
0.05
 66
1
 10
0
 20
0
 30
0
 70
1
  0
VERTEX
  8
LAYER_6
 10
171.9196
 20
36.1315
  0
VERTEX
  8
LAYER_6
 10
171.8558
 20
36.0571
  0
VERTEX
  8
LAYER_6
 10
171.7697
 20
35.9954
  0
VERTEX
  8
LAYER_6
 10
171.6615
 20
35.953
  0
VERTEX
  8
LAYER_6
 10
171.5327
 20
35.9375
 42
-0.0997799169
  0
VERTEX
  8
LAYER_6
 10
171.3167
 20
35.9785
 42
-0.102530266
  0
VERTEX
  8
LAYER_6
 10
171.1461
 20
36.0915
 42
-0.09968794278
  0
VERTEX
  8
LAYER_6
 10
171.0345
 20
36.2631
 42
-0.09630702324
  0
VERTEX
  8
LAYER_6
 10
170.9942
 20
36.4805
 42
-0.1018981748
  0
VERTEX
  8
LAYER_6
 10
171.0352
 20
36.6978
 42
-0.09989904409
  0
VERTEX
  8
LAYER_6
 10
171.1479
 20
36.8694
 42
-0.09694965588
  0
VERTEX
  8
LAYER_6
 10
171.3187
 20
36.9824
 42
-0.09744116728
  0
VERTEX
  8
LAYER_6
 10
171.5327
 20
37.0234
  0
VERTEX
  8
LAYER_6
 10
171.6443
 20
37.0114
  0
VERTEX
  8
LAYER_6
 10
171.7473
 20
36.9779
  0
VERTEX
  8
LAYER_6
 10
171.8348
 20
36.9263
  0
VERTEX
  8
LAYER_6
 10
171.9006
 20
36.8584
  0
VERTEX
  8
LAYER_6
 10
171.8131
 20
36.794
  0
VERTEX
  8
LAYER_6
 10
171.7697
 20
36.8439
  0
VERTEX
  8
LAYER_6
 10
171.7063
 20
36.8877
  0
VERTEX
  8
LAYER_6
 10
171.6267
 20
36.9183
  0
VERTEX
  8
LAYER_6
 10
171.5341
 20
36.93
 42
0.1106055686
  0
VERTEX
  8
LAYER_6
 10
171.3539
 20
36.8935
 42
0.1037389517
  0
VERTEX
  8
LAYER_6
 10
171.2188
 20
36.7954
 42
0.09534605581
  0
VERTEX
  8
LAYER_6
 10
171.1341
 20
36.652
 42
0.08447361069
  0
VERTEX
  8
LAYER_6
 10
171.1052
 20
36.4805
 42
0.09038739564
  0
VERTEX
  8
LAYER_6
 10
171.1351
 20
36.3089
 42
0.09795352863
  0
VERTEX
  8
LAYER_6
 10
171.2205
 20
36.1656
 42
0.1034747097
  0
VERTEX
  8
LAYER_6
 10
171.3556
 20
36.0674
 42
0.1064777274
  0
VERTEX
  8
LAYER_6
 10
171.5341
 20
36.0309
 42
0.1092499226
  0
VERTEX
  8
LAYER_6
 10
171.7032
 20
36.0674
 42
0.1370031249
  0
VERTEX
  8
LAYER_6
 10
171.8376
 20
36.1842
  0
SEQEND
  0
ENDBLK
  0
BLOCK
  8
LAYER_6
  2
AIGNBL06030024
 70
64
 10
0
 20
0
 30
0
  3
AIGNBL06030024
  0
POLYLINE
  8
LAYER_6
 40
0.05
 41
0.05
 66
1
 10
0
 20
0
 30
0
 70
1
  0
VERTEX
  8
LAYER_6
 10
172.4067
 20
36.0574
  0
VERTEX
  8
LAYER_6
 10
172.96
 20
36.0574
  0
VERTEX
  8
LAYER_6
 10
172.96
 20
35.9637
  0
VERTEX
  8
LAYER_6
 10
172.3016
 20
35.9637
  0
VERTEX
  8
LAYER_6
 10
172.3016
 20
36.9969
  0
VERTEX
  8
LAYER_6
 10
172.9424
 20
36.9969
  0
VERTEX
  8
LAYER_6
 10
172.9424
 20
36.9035
  0
VERTEX
  8
LAYER_6
 10
172.4067
 20
36.9035
  0
VERTEX
  8
LAYER_6
 10
172.4067
 20
36.549
  0
VERTEX
  8
LAYER_6
 10
172.9073
 20
36.549
  0
VERTEX
  8
LAYER_6
 10
172.9073
 20
36.4557
  0
VERTEX
  8
LAYER_6
 10
172.4067
 20
36.4557
  0
SEQEND
  0
ENDBLK
  0
BLOCK
  8
LAYER_4
  2
AIGNBL04020003
 70
64
 10
0
 20
0
 30
0
  3
AIGNBL04020003
  0
POLYLINE
  8
LAYER_4
 40
0.0882
 41
0.0882
 62
1
 66
1
 10
0
 20
0
 30
0
  0
VERTEX
  8
LAYER_4
 10
46.7131
 20
154.9811
  0
VERTEX
  8
LAYER_4
 10
46.7131
 20
154.8047
  0
VERTEX
  8
LAYER_4
 10
46.5367
 20
154.8047
  0
SEQEND
  0
POLYLINE
  8
LAYER_4
  6
AIGENLINE001
 40
0.0882
 41
0.0882
 62
1
 66
1
 10
0
 20
0
 30
0
 70
128
  0
VERTEX
  8
LAYER_4
 10
46.1868
 20
154.8047
  0
VERTEX
  8
LAYER_4
 10
33.0647
 20
154.8047
  0
SEQEND
  0
POLYLINE
  8
LAYER_4
 40
0.0882
 41
0.0882
 62
1
 66
1
 10
0
 20
0
 30
0
  0
VERTEX
  8
LAYER_4
 10
32.8896
 20
154.8047
  0
VERTEX
  8
LAYER_4
 10
32.7133
 20
154.8047
  0
VERTEX
  8
LAYER_4
 10
32.7133
 20
154.9811
  0
SEQEND
  0
POLYLINE
  8
LAYER_4
  6
AIGENLINE002
 40
0.0882
 41
0.0882
 62
1
 66
1
 10
0
 20
0
 30
0
 70
128
  0
VERTEX
  8
LAYER_4
 10
32.7133
 20
155.3295
  0
VERTEX
  8
LAYER_4
 10
32.7133
 20
177.4543
  0
SEQEND
  0
POLYLINE
  8
LAYER_4
 40
0.0882
 41
0.0882
 62
1
 66
1
 10
0
 20
0
 30
0
  0
VERTEX
  8
LAYER_4
 10
32.7133
 20
177.6284
  0
VERTEX
  8
LAYER_4
 10
32.7133
 20
177.8048
  0
VERTEX
  8
LAYER_4
 10
32.8896
 20
177.8048
  0
SEQEND
  0
POLYLINE
  8
LAYER_4
  6
AIGENLINE001
 40
0.0882
 41
0.0882
 62
1
 66
1
 10
0
 20
0
 30
0
 70
128
  0
VERTEX
  8
LAYER_4
 10
33.2395
 20
177.8048
  0
VERTEX
  8
LAYER_4
 10
46.3617
 20
177.8048
  0
SEQEND
  0
POLYLINE
  8
LAYER_4
 40
0.0882
 41
0.0882
 62
1
 66
1
 10
0
 20
0
 30
0
  0
VERTEX
  8
LAYER_4
 10
46.5367
 20
177.8048
  0
VERTEX
  8
LAYER_4
 10
46.7131
 20
177.8048
  0
VERTEX
  8
LAYER_4
 10
46.7131
 20
177.6284
  0
SEQEND
  0
POLYLINE
  8
LAYER_4
  6
AIGENLINE002
 40
0.0882
 41
0.0882
 62
1
 66
1
 10
0
 20
0
 30
0
 70
128
  0
VERTEX
  8
LAYER_4
 10
46.7131
 20
177.28
  0
VERTEX
  8
LAYER_4
 10
46.7131
 20
155.1552
  0
SEQEND
  0
ENDBLK
  0
BLOCK
  8
LAYER_6
  2
AIGNBL06020004
 70
64
 10
0
 20
0
 30
0
  3
AIGNBL06020004
  0
INSERT
  8
LAYER_6
  2
AIGNBL06030005
 10
0
 20
0
 30
0
  0
ENDBLK
  0
BLOCK
  8
LAYER_6
  2
AIGNBL0602000D
 70
64
 10
0
 20
0
 30
0
  3
AIGNBL0602000D
  0
INSERT
  8
LAYER_6
  2
AIGNBL0603000E
 10
0
 20
0
 30
0
  0
INSERT
  8
LAYER_6
  2
AIGNBL0603000F
 10
0
 20
0
 30
0
  0
INSERT
  8
LAYER_6
  2
AIGNBL06030010
 10
0
 20
0
 30
0
  0
INSERT
  8
LAYER_6
  2
AIGNBL06030011
 10
0
 20
0
 30
0
  0
INSERT
  8
LAYER_6
  2
AIGNBL06030012
 10
0
 20
0
 30
0
  0
INSERT
  8
LAYER_6
  2
AIGNBL06030013
 10
0
 20
0
 30
0
  0
INSERT
  8
LAYER_6
  2
AIGNBL06030014
 10
0
 20
0
 30
0
  0
INSERT
  8
LAYER_6
  2
AIGNBL06030015
 10
0
 20
0
 30
0
  0
INSERT
  8
LAYER_6
  2
AIGNBL06030016
 10
0
 20
0
 30
0
  0
INSERT
  8
LAYER_6
  2
AIGNBL06030017
 10
0
 20
0
 30
0
  0
INSERT
  8
LAYER_6
  2
AIGNBL06030018
 10
0
 20
0
 30
0
  0
INSERT
  8
LAYER_6
  2
AIGNBL06030019
 10
0
 20
0
 30
0
  0
INSERT
  8
LAYER_6
  2
AIGNBL0603001A
 10
0
 20
0
 30
0
  0
INSERT
  8
LAYER_6
  2
AIGNBL0603001B
 10
0
 20
0
 30
0
  0
INSERT
  8
LAYER_6
  2
AIGNBL0603001C
 10
0
 20
0
 30
0
  0
INSERT
  8
LAYER_6
  2
AIGNBL0603001D
 10
0
 20
0
 30
0
  0
INSERT
  8
LAYER_6
  2
AIGNBL0603001E
 10
0
 20
0
 30
0
  0
INSERT
  8
LAYER_6
  2
AIGNBL0603001F
 10
0
 20
0
 30
0
  0
INSERT
  8
LAYER_6
  2
AIGNBL06030020
 10
0
 20
0
 30
0
  0
INSERT
  8
LAYER_6
  2
AIGNBL06030021
 10
0
 20
0
 30
0
  0
INSERT
  8
LAYER_6
  2
AIGNBL06030022
 10
0
 20
0
 30
0
  0
INSERT
  8
LAYER_6
  2
AIGNBL06030023
 10
0
 20
0
 30
0
  0
INSERT
  8
LAYER_6
  2
AIGNBL06030024
 10
0
 20
0
 30
0
  0
ENDBLK
  0
BLOCK
  8
LAYER_6
  2
AIGNBL06020026
 70
64
 10
0
 20
0
 30
0
  3
AIGNBL06020026
  0
POLYLINE
  8
LAYER_6
 40
0.05
 41
0.05
 66
1
 10
0
 20
0
 30
0
  0
VERTEX
  8
LAYER_6
 10
-7.0151
 20
219.4629
 42
0.1036295037
  0
VERTEX
  8
LAYER_6
 10
-7.1824
 20
220.2981
 42
0.2712377295
  0
VERTEX
  8
LAYER_6
 10
-8.5808
 20
221.2683
 42
0.0303823279
  0
VERTEX
  8
LAYER_6
 10
-8.8902
 20
221.2869
 42
0.07624666781
  0
VERTEX
  8
LAYER_6
 10
-10.0755
 20
221.1157
 42
0.09017583051
  0
VERTEX
  8
LAYER_6
 10
-10.8588
 20
220.699
 42
0.02803056833
  0
VERTEX
  8
LAYER_6
 10
-11.0228
 20
220.5491
  0
VERTEX
  8
LAYER_6
 10
-11.077
 20
220.4928
  0
VERTEX
  8
LAYER_6
 10
-10.5515
 20
219.8736
  0
VERTEX
  8
LAYER_6
 10
-10.486
 20
219.9328
 42
-0.1028805994
  0
VERTEX
  8
LAYER_6
 10
-9.7273
 20
220.3798
 42
-0.08113187333
  0
VERTEX
  8
LAYER_6
 10
-9.0479
 20
220.4863
 42
-0.1265582199
  0
VERTEX
  8
LAYER_6
 10
-8.3271
 20
220.3251
 42
-0.1601174183
  0
VERTEX
  8
LAYER_6
 10
-7.989
 20
219.9367
 42
-0.1111761681
  0
VERTEX
  8
LAYER_6
 10
-7.8786
 20
219.3074
  0
VERTEX
  8
LAYER_6
 10
-7.8786
 20
219.2664
  0
VERTEX
  8
LAYER_6
 10
-8.1378
 20
219.2664
 42
0.06077576534
  0
VERTEX
  8
LAYER_6
 10
-9.7982
 20
219.1093
 42
0.08580258361
  0
VERTEX
  8
LAYER_6
 10
-10.637
 20
218.7454
 42
0.1116389774
  0
VERTEX
  8
LAYER_6
 10
-11.084
 20
218.2559
 42
0.1204112073
  0
VERTEX
  8
LAYER_6
 10
-11.2651
 20
217.5692
 42
0.01082752958
  0
VERTEX
  8
LAYER_6
 10
-11.2668
 20
217.4871
 42
0.1262361208
  0
VERTEX
  8
LAYER_6
 10
-11.0913
 20
216.7743
 42
0.1210090978
  0
VERTEX
  8
LAYER_6
 10
-10.6379
 20
216.2914
 42
0.1012970948
  0
VERTEX
  8
LAYER_6
 10
-9.9371
 20
216.0111
 42
0.04827473988
  0
VERTEX
  8
LAYER_6
 10
-9.4954
 20
215.9685
 42
0.09684375777
  0
VERTEX
  8
LAYER_6
 10
-8.5823
 20
216.1314
 42
0.1382606358
  0
VERTEX
  8
LAYER_6
 10
-7.831
 20
216.7347
 42
-0.01012269081
  0
VERTEX
  8
LAYER_6
 10
-7.831
 20
216.0938
  0
VERTEX
  8
LAYER_6
 10
-7.0151
 20
216.0938
  0
SEQEND
  0
POLYLINE
  8
LAYER_6
 40
0.05
 41
0.05
 66
1
 10
0
 20
0
 30
0
 70
1
  0
VERTEX
  8
LAYER_6
 10
-7.8786
 20
218.2604
 42
-0.1095386536
  0
VERTEX
  8
LAYER_6
 10
-8.0512
 20
217.4437
 42
-0.1199361921
  0
VERTEX
  8
LAYER_6
 10
-8.4534
 20
216.9519
 42
-0.1209196473
  0
VERTEX
  8
LAYER_6
 10
-9.0539
 20
216.7055
 42
-0.04108384777
  0
VERTEX
  8
LAYER_6
 10
-9.3645
 20
216.6807
 42
-0.1210384521
  0
VERTEX
  8
LAYER_6
 10
-10.0836
 20
216.8493
 42
-0.1552969123
  0
VERTEX
  8
LAYER_6
 10
-10.4405
 20
217.2222
 42
-0.1101808209
  0
VERTEX
  8
LAYER_6
 10
-10.5141
 20
217.581
 42
-0.2541083385
  0
VERTEX
  8
LAYER_6
 10
-10.1607
 20
218.2336
 42
-0.05632516065
  0
VERTEX
  8
LAYER_6
 10
-9.8761
 20
218.386
 42
-0.04424231247
  0
VERTEX
  8
LAYER_6
 10
-9.4522
 20
218.5131
 42
-0.03214641787
  0
VERTEX
  8
LAYER_6
 10
-8.8857
 20
218.5932
 42
-0.02048965766
  0
VERTEX
  8
LAYER_6
 10
-8.2341
 20
218.6168
  0
VERTEX
  8
LAYER_6
 10
-7.8786
 20
218.6168
  0
SEQEND
  0
ENDBLK
  0
BLOCK
  8
LAYER_6
  2
AIGNBL06020027
 70
64
 10
0
 20
0
 30
0
  3
AIGNBL06020027
  0
POLYLINE
  8
LAYER_6
 40
0.05
 41
0.05
 66
1
 10
0
 20
0
 30
0
  0
VERTEX
  8
LAYER_6
 10
-2.3816
 20
222.5694
 42
-0.3911816587
  0
VERTEX
  8
LAYER_6
 10
-1.7162
 20
221.9134
 42
-0.3962775652
  0
VERTEX
  8
LAYER_6
 10
-2.3816
 20
221.249
 42
-0.3917541856
  0
VERTEX
  8
LAYER_6
 10
-3.0465
 20
221.9058
 42
-0.3962384604
  0
VERTEX
  8
LAYER_6
 10
-2.3816
 20
222.5694
  0
SEQEND
  0
POLYLINE
  8
LAYER_6
 40
0.05
 41
0.05
 66
1
 10
0
 20
0
 30
0
  0
VERTEX
  8
LAYER_6
 10
-2.3816
 20
221.3453
 42
0.4000887886
  0
VERTEX
  8
LAYER_6
 10
-1.8235
 20
221.9134
 42
0.3965824436
  0
VERTEX
  8
LAYER_6
 10
-2.3816
 20
222.4732
 42
0.3991350597
  0
VERTEX
  8
LAYER_6
 10
-2.9423
 20
221.9058
 42
0.3960577263
  0
VERTEX
  8
LAYER_6
 10
-2.3816
 20
221.3453
  0
SEQEND
  0
POLYLINE
  8
LAYER_6
 40
0.05
 41
0.05
 66
1
 10
0
 20
0
 30
0
 70
1
  0
VERTEX
  8
LAYER_6
 10
-2.6271
 20
222.2877
  0
VERTEX
  8
LAYER_6
 10
-2.3465
 20
222.2877
 42
-0.1689544217
  0
VERTEX
  8
LAYER_6
 10
-2.1506
 20
222.2398
 42
-0.2573750898
  0
VERTEX
  8
LAYER_6
 10
-2.0783
 20
222.067
 42
-0.4159594774
  0
VERTEX
  8
LAYER_6
 10
-2.2813
 20
221.8598
  0
VERTEX
  8
LAYER_6
 10
-2.06
 20
221.5215
  0
VERTEX
  8
LAYER_6
 10
-2.1757
 20
221.5215
  0
VERTEX
  8
LAYER_6
 10
-2.3844
 20
221.8504
  0
VERTEX
  8
LAYER_6
 10
-2.5215
 20
221.8504
  0
VERTEX
  8
LAYER_6
 10
-2.5215
 20
221.5215
  0
VERTEX
  8
LAYER_6
 10
-2.6271
 20
221.5215
  0
SEQEND
  0
POLYLINE
  8
LAYER_6
 40
0.05
 41
0.05
 66
1
 10
0
 20
0
 30
0
 70
1
  0
VERTEX
  8
LAYER_6
 10
-2.5215
 20
221.9473
  0
VERTEX
  8
LAYER_6
 10
-2.3906
 20
221.9473
 42
0.2474961449
  0
VERTEX
  8
LAYER_6
 10
-2.2112
 20
221.9902
 42
0.1843421729
  0
VERTEX
  8
LAYER_6
 10
-2.1847
 20
222.0724
 42
0.2728673912
  0
VERTEX
  8
LAYER_6
 10
-2.23
 20
222.1656
 42
0.14179533
  0
VERTEX
  8
LAYER_6
 10
-2.3563
 20
222.1913
  0
VERTEX
  8
LAYER_6
 10
-2.5215
 20
222.1913
  0
SEQEND
  0
ENDBLK
  0
BLOCK
  8
LAYER_6
  2
AIGNBL06020028
 70
64
 10
0
 20
0
 30
0
  3
AIGNBL06020028
  0
POLYLINE
  8
LAYER_6
 40
0.05
 41
0.05
 66
1
 10
0
 20
0
 30
0
  0
VERTEX
  8
LAYER_6
 10
-23.704
 20
214.1029
  0
VERTEX
  8
LAYER_6
 10
-23.4337
 20
214.1029
  0
VERTEX
  8
LAYER_6
 10
-22.6792
 20
212.3512
  0
VERTEX
  8
LAYER_6
 10
-23.0351
 20
212.3512
  0
VERTEX
  8
LAYER_6
 10
-23.1989
 20
212.7513
  0
VERTEX
  8
LAYER_6
 10
-23.9579
 20
212.7513
  0
VERTEX
  8
LAYER_6
 10
-24.116
 20
212.3512
  0
VERTEX
  8
LAYER_6
 10
-24.4648
 20
212.3512
  0
SEQEND
  0
POLYLINE
  8
LAYER_6
 40
0.05
 41
0.05
 66
1
 10
0
 20
0
 30
0
 70
1
  0
VERTEX
  8
LAYER_6
 10
-23.3081
 20
213.0189
  0
VERTEX
  8
LAYER_6
 10
-23.5767
 20
213.7308
  0
VERTEX
  8
LAYER_6
 10
-23.8523
 20
213.0189
  0
SEQEND
  0
ENDBLK
  0
BLOCK
  8
LAYER_6
  2
AIGNBL06020029
 70
64
 10
0
 20
0
 30
0
  3
AIGNBL06020029
  0
POLYLINE
  8
LAYER_6
 40
0.05
 41
0.05
 66
1
 10
0
 20
0
 30
0
  0
VERTEX
  8
LAYER_6
 10
-18.1673
 20
212.3512
  0
VERTEX
  8
LAYER_6
 10
-19.1856
 20
212.3512
 42
-0.1498985077
  0
VERTEX
  8
LAYER_6
 10
-19.7815
 20
212.5257
 42
-0.2523688634
  0
VERTEX
  8
LAYER_6
 10
-20.1395
 20
213.2635
 42
-0.4051360019
  0
VERTEX
  8
LAYER_6
 10
-19.2198
 20
214.1463
 42
-0.224501409
  0
VERTEX
  8
LAYER_6
 10
-18.4791
 20
213.7949
 42
-0.1669496671
  0
VERTEX
  8
LAYER_6
 10
-18.3009
 20
213.2635
 42
-0.175299756
  0
VERTEX
  8
LAYER_6
 10
-18.4675
 20
212.7739
 42
-0.08694350938
  0
VERTEX
  8
LAYER_6
 10
-18.6688
 20
212.6077
  0
VERTEX
  8
LAYER_6
 10
-18.6688
 20
212.603
  0
VERTEX
  8
LAYER_6
 10
-18.1673
 20
212.603
  0
SEQEND
  0
POLYLINE
  8
LAYER_6
 40
0.05
 41
0.05
 66
1
 10
0
 20
0
 30
0
  0
VERTEX
  8
LAYER_6
 10
-19.8145
 20
213.2559
 42
0.1875932054
  0
VERTEX
  8
LAYER_6
 10
-19.6465
 20
212.8098
 42
0.2073404857
  0
VERTEX
  8
LAYER_6
 10
-19.2224
 20
212.633
 42
0.4105620229
  0
VERTEX
  8
LAYER_6
 10
-18.6274
 20
213.2559
 42
0.1910634766
  0
VERTEX
  8
LAYER_6
 10
-18.7946
 20
213.6914
 42
0.2063538266
  0
VERTEX
  8
LAYER_6
 10
-19.2274
 20
213.8648
 42
0.4079661945
  0
VERTEX
  8
LAYER_6
 10
-19.8145
 20
213.2559
  0
SEQEND
  0
ENDBLK
  0
BLOCK
  8
LAYER_6
  2
AIGNBL0602002A
 70
64
 10
0
 20
0
 30
0
  3
AIGNBL0602002A
  0
POLYLINE
  8
LAYER_6
 40
0.05
 41
0.05
 66
1
 10
0
 20
0
 30
0
  0
VERTEX
  8
LAYER_6
 10
-14.8442
 20
214.1029
  0
VERTEX
  8
LAYER_6
 10
-14.5738
 20
214.1029
  0
VERTEX
  8
LAYER_6
 10
-13.8207
 20
212.3512
  0
VERTEX
  8
LAYER_6
 10
-14.1752
 20
212.3512
  0
VERTEX
  8
LAYER_6
 10
-14.3392
 20
212.7513
  0
VERTEX
  8
LAYER_6
 10
-15.0981
 20
212.7513
  0
VERTEX
  8
LAYER_6
 10
-15.2575
 20
212.3512
  0
VERTEX
  8
LAYER_6
 10
-15.6063
 20
212.3512
  0
SEQEND
  0
POLYLINE
  8
LAYER_6
 40
0.05
 41
0.05
 66
1
 10
0
 20
0
 30
0
 70
1
  0
VERTEX
  8
LAYER_6
 10
-14.4479
 20
213.0189
  0
VERTEX
  8
LAYER_6
 10
-14.7168
 20
213.7308
  0
VERTEX
  8
LAYER_6
 10
-14.9917
 20
213.0189
  0
SEQEND
  0
ENDBLK
  0
BLOCK
  8
LAYER_6
  2
AIGNBL0602002B
 70
64
 10
0
 20
0
 30
0
  3
AIGNBL0602002B
  0
POLYLINE
  8
LAYER_6
 40
0.05
 41
0.05
 66
1
 10
0
 20
0
 30
0
  0
VERTEX
  8
LAYER_6
 10
-10.3596
 20
214.1029
  0
VERTEX
  8
LAYER_6
 10
-9.7694
 20
214.1029
 42
-0.08664900819
  0
VERTEX
  8
LAYER_6
 10
-9.4428
 20
214.0546
 42
-0.2128687583
  0
VERTEX
  8
LAYER_6
 10
-9.1601
 20
213.8001
 42
-0.09485863917
  0
VERTEX
  8
LAYER_6
 10
-9.1245
 20
213.5956
 42
-0.2245415231
  0
VERTEX
  8
LAYER_6
 10
-9.2838
 20
213.2053
 42
-0.09365248342
  0
VERTEX
  8
LAYER_6
 10
-9.4539
 20
213.1196
 42
-0.07750467464
  0
VERTEX
  8
LAYER_6
 10
-9.8242
 20
213.076
  0
VERTEX
  8
LAYER_6
 10
-10.0473
 20
213.076
  0
VERTEX
  8
LAYER_6
 10
-10.0473
 20
212.3512
  0
VERTEX
  8
LAYER_6
 10
-10.3596
 20
212.3512
  0
SEQEND
  0
POLYLINE
  8
LAYER_6
 40
0.05
 41
0.05
 66
1
 10
0
 20
0
 30
0
 70
1
  0
VERTEX
  8
LAYER_6
 10
-9.8588
 20
213.3431
 42
0.1309894322
  0
VERTEX
  8
LAYER_6
 10
-9.5664
 20
213.3874
 42
0.3030880954
  0
VERTEX
  8
LAYER_6
 10
-9.4514
 20
213.5902
 42
0.3460368744
  0
VERTEX
  8
LAYER_6
 10
-9.6132
 20
213.8091
 42
0.07918236105
  0
VERTEX
  8
LAYER_6
 10
-9.8242
 20
213.8357
  0
VERTEX
  8
LAYER_6
 10
-10.0473
 20
213.8357
  0
VERTEX
  8
LAYER_6
 10
-10.0473
 20
213.3431
  0
SEQEND
  0
ENDBLK
  0
BLOCK
  8
LAYER_6
  2
AIGNBL0602002C
 70
64
 10
0
 20
0
 30
0
  3
AIGNBL0602002C
  0
POLYLINE
  8
LAYER_6
 40
0.05
 41
0.05
 66
1
 10
0
 20
0
 30
0
  0
VERTEX
  8
LAYER_6
 10
-8.092
 20
214.1029
  0
VERTEX
  8
LAYER_6
 10
-7.823
 20
214.1029
  0
VERTEX
  8
LAYER_6
 10
-7.0685
 20
212.3512
  0
VERTEX
  8
LAYER_6
 10
-7.4235
 20
212.3512
  0
VERTEX
  8
LAYER_6
 10
-7.5873
 20
212.7513
  0
VERTEX
  8
LAYER_6
 10
-8.3463
 20
212.7513
  0
VERTEX
  8
LAYER_6
 10
-8.5054
 20
212.3512
  0
VERTEX
  8
LAYER_6
 10
-8.8537
 20
212.3512
  0
SEQEND
  0
POLYLINE
  8
LAYER_6
 40
0.05
 41
0.05
 66
1
 10
0
 20
0
 30
0
 70
1
  0
VERTEX
  8
LAYER_6
 10
-7.6957
 20
213.0189
  0
VERTEX
  8
LAYER_6
 10
-7.9656
 20
213.7308
  0
VERTEX
  8
LAYER_6
 10
-8.2403
 20
213.0189
  0
SEQEND
  0
ENDBLK
  0
BLOCK
  8
LAYER_4
  2
AIGNBL04010002
 70
64
 10
0
 20
0
 30
0
  3
AIGNBL04010002
  0
INSERT
  8
LAYER_4
  2
AIGNBL04020003
 10
0
 20
0
 30
0
  0
ENDBLK
  0
BLOCK
  8
LAYER_6
  2
AIGNBL06010002
 70
64
 10
0
 20
0
 30
0
  3
AIGNBL06010002
  0
POLYLINE
  8
LAYER_6
 40
0.7056
 41
0.7056
 66
1
 10
0
 20
0
 30
0
 70
1
  0
VERTEX
  8
LAYER_6
 10
251.6749
 20
230.337
  0
VERTEX
  8
LAYER_6
 10
251.6749
 20
33.3285
  0
VERTEX
  8
LAYER_6
 10
-30.3177
 20
33.3285
  0
VERTEX
  8
LAYER_6
 10
-30.3177
 20
230.337
  0
SEQEND
  0
ENDBLK
  0
BLOCK
  8
LAYER_6
  2
AIGNBL06010003
 70
64
 10
0
 20
0
 30
0
  3
AIGNBL06010003
  0
INSERT
  8
LAYER_6
  2
AIGNBL06020004
 10
0
 20
0
 30
0
  0
INSERT
  8
LAYER_6
  2
AIGNBL0602000D
 10
0
 20
0
 30
0
  0
ENDBLK
  0
BLOCK
  8
LAYER_6
  2
AIGNBL06010025
 70
64
 10
0
 20
0
 30
0
  3
AIGNBL06010025
  0
POLYLINE
  8
LAYER_6
 40
0.05
 41
0.05
 66
1
 10
0
 20
0
 30
0
  0
VERTEX
  8
LAYER_6
 10
-24.7289
 20
219.7266
 42
0.1341998603
  0
VERTEX
  8
LAYER_6
 10
-24.5592
 20
219.0834
 42
0.1261801142
  0
VERTEX
  8
LAYER_6
 10
-24.0913
 20
218.6274
 42
0.07945580654
  0
VERTEX
  8
LAYER_6
 10
-23.4074
 20
218.3548
  0
VERTEX
  8
LAYER_6
 10
-22.7374
 20
218.1977
 42
-0.06331165485
  0
VERTEX
  8
LAYER_6
 10
-22.2151
 20
218.0208
 42
-0.1808600581
  0
VERTEX
  8
LAYER_6
 10
-21.906
 20
217.7022
 42
-0.08676304228
  0
VERTEX
  8
LAYER_6
 10
-21.8731
 20
217.4973
 42
-0.2941221031
  0
VERTEX
  8
LAYER_6
 10
-22.2545
 20
216.9168
 42
-0.1199318645
  0
VERTEX
  8
LAYER_6
 10
-22.9007
 20
216.7681
 42
-0.005101656443
  0
VERTEX
  8
LAYER_6
 10
-22.938
 20
216.7677
 42
-0.1318116097
  0
VERTEX
  8
LAYER_6
 10
-23.6289
 20
216.9475
 42
-0.1172183099
  0
VERTEX
  8
LAYER_6
 10
-24.1316
 20
217.4313
 42
-0.004867741498
  0
VERTEX
  8
LAYER_6
 10
-24.1512
 20
217.4611
  0
VERTEX
  8
LAYER_6
 10
-24.2002
 20
217.5355
  0
VERTEX
  8
LAYER_6
 10
-24.9396
 20
217.0282
  0
VERTEX
  8
LAYER_6
 10
-24.8924
 20
216.9575
 42
0.1006692345
  0
VERTEX
  8
LAYER_6
 10
-24.2656
 20
216.3278
 42
0.09822650202
  0
VERTEX
  8
LAYER_6
 10
-23.491
 20
216.02
 42
0.04873469498
  0
VERTEX
  8
LAYER_6
 10
-22.938
 20
215.9689
 42
0.09078870715
  0
VERTEX
  8
LAYER_6
 10
-21.9452
 20
216.1461
 42
0.1030174332
  0
VERTEX
  8
LAYER_6
 10
-21.3352
 20
216.5404
 42
0.1803448142
  0
VERTEX
  8
LAYER_6
 10
-20.9524
 20
217.4258
 42
0.01943778951
  0
VERTEX
  8
LAYER_6
 10
-20.9476
 20
217.56
 42
0.2531765608
  0
VERTEX
  8
LAYER_6
 10
-21.5885
 20
218.7222
 42
0.09194545039
  0
VERTEX
  8
LAYER_6
 10
-22.2057
 20
218.9827
  0
VERTEX
  8
LAYER_6
 10
-22.9068
 20
219.1511
 42
-0.0578189963
  0
VERTEX
  8
LAYER_6
 10
-23.4528
 20
219.3232
 42
-0.1855772451
  0
VERTEX
  8
LAYER_6
 10
-23.7676
 20
219.6264
 42
-0.08926070578
  0
VERTEX
  8
LAYER_6
 10
-23.8011
 20
219.8403
 42
-0.313498231
  0
VERTEX
  8
LAYER_6
 10
-23.4222
 20
220.3762
 42
-0.106300738
  0
VERTEX
  8
LAYER_6
 10
-22.8751
 20
220.4863
 42
-0.1482953379
  0
VERTEX
  8
LAYER_6
 10
-22.2709
 20
220.3127
 42
-0.1294644155
  0
VERTEX
  8
LAYER_6
 10
-21.8948
 20
219.8732
  0
VERTEX
  8
LAYER_6
 10
-21.8504
 20
219.7888
  0
VERTEX
  8
LAYER_6
 10
-21.0886
 20
220.2925
  0
VERTEX
  8
LAYER_6
 10
-21.1229
 20
220.3597
 42
0.2370693896
  0
VERTEX
  8
LAYER_6
 10
-22.2986
 20
221.2338
 42
0.05316238654
  0
VERTEX
  8
LAYER_6
 10
-22.8329
 20
221.2874
 42
0.09532594653
  0
VERTEX
  8
LAYER_6
 10
-23.7699
 20
221.1115
 42
0.1053422287
  0
VERTEX
  8
LAYER_6
 10
-24.364
 20
220.7089
 42
0.1944052329
  0
VERTEX
  8
LAYER_6
 10
-24.7289
 20
219.7266
  0
SEQEND
  0
POLYLINE
  8
LAYER_6
 40
0.05
 41
0.05
 66
1
 10
0
 20
0
 30
0
  0
VERTEX
  8
LAYER_6
 10
-20.6499
 20
222.9567
 42
0.3936231745
  0
VERTEX
  8
LAYER_6
 10
-20.0589
 20
222.3685
 42
0.386081733
  0
VERTEX
  8
LAYER_6
 10
-19.4719
 20
222.9567
 42
0.3921277689
  0
VERTEX
  8
LAYER_6
 10
-20.0589
 20
223.5464
 42
0.3856970876
  0
VERTEX
  8
LAYER_6
 10
-20.6499
 20
222.9567
  0
SEQEND
  0
POLYLINE
  8
LAYER_6
 40
0.05
 41
0.05
 66
1
 10
0
 20
0
 30
0
  0
VERTEX
  8
LAYER_6
 10
-19.7159
 20
221.162
  0
VERTEX
  8
LAYER_6
 10
-20.4918
 20
221.162
  0
VERTEX
  8
LAYER_6
 10
-20.4918
 20
216.0938
  0
VERTEX
  8
LAYER_6
 10
-19.6286
 20
216.0938
  0
VERTEX
  8
LAYER_6
 10
-19.6286
 20
221.162
  0
SEQEND
  0
POLYLINE
  8
LAYER_6
 40
0.05
 41
0.05
 66
1
 10
0
 20
0
 30
0
  0
VERTEX
  8
LAYER_6
 10
-15.1212
 20
220.3724
 42
0.1207793697
  0
VERTEX
  8
LAYER_6
 10
-15.6145
 20
220.9712
 42
0.1123792155
  0
VERTEX
  8
LAYER_6
 10
-16.2716
 20
221.2487
 42
0.04782249271
  0
VERTEX
  8
LAYER_6
 10
-16.6841
 20
221.2869
 42
0.1072902452
  0
VERTEX
  8
LAYER_6
 10
-17.5023
 20
221.1052
 42
0.09984805864
  0
VERTEX
  8
LAYER_6
 10
-18.1382
 20
220.6458
 42
0.01292207714
  0
VERTEX
  8
LAYER_6
 10
-18.198
 20
220.5762
  0
VERTEX
  8
LAYER_6
 10
-18.198
 20
221.1615
  0
VERTEX
  8
LAYER_6
 10
-19.0617
 20
221.1615
  0
VERTEX
  8
LAYER_6
 10
-19.0617
 20
216.0936
  0
VERTEX
  8
LAYER_6
 10
-18.198
 20
216.0936
  0
VERTEX
  8
LAYER_6
 10
-18.198
 20
218.6907
 42
-0.09654084086
  0
VERTEX
  8
LAYER_6
 10
-18.0246
 20
219.6722
 42
-0.1188565985
  0
VERTEX
  8
LAYER_6
 10
-17.6298
 20
220.2091
 42
-0.15802177
  0
VERTEX
  8
LAYER_6
 10
-16.9046
 20
220.4863
 42
-0.1299839892
  0
VERTEX
  8
LAYER_6
 10
-16.2243
 20
220.3327
 42
-0.1576712877
  0
VERTEX
  8
LAYER_6
 10
-15.902
 20
219.953
 42
-0.05721861023
  0
VERTEX
  8
LAYER_6
 10
-15.8045
 20
219.631
 42
-0.04865875875
  0
VERTEX
  8
LAYER_6
 10
-15.7563
 20
219.0344
  0
VERTEX
  8
LAYER_6
 10
-15.7563
 20
216.0936
  0
VERTEX
  8
LAYER_6
 10
-14.8928
 20
216.0936
  0
VERTEX
  8
LAYER_6
 10
-14.8928
 20
218.7842
 42
-0.09089878682
  0
VERTEX
  8
LAYER_6
 10
-14.73
 20
219.7237
 42
-0.1191956233
  0
VERTEX
  8
LAYER_6
 10
-14.373
 20
220.2329
 42
-0.1344089617
  0
VERTEX
  8
LAYER_6
 10
-13.8547
 20
220.4654
 42
-0.0420961071
  0
VERTEX
  8
LAYER_6
 10
-13.5999
 20
220.4863
 42
-0.1298626135
  0
VERTEX
  8
LAYER_6
 10
-12.9187
 20
220.3327
 42
-0.1577606685
  0
VERTEX
  8
LAYER_6
 10
-12.5963
 20
219.953
 42
-0.05724335824
  0
VERTEX
  8
LAYER_6
 10
-12.4988
 20
219.631
 42
-0.04863743227
  0
VERTEX
  8
LAYER_6
 10
-12.4506
 20
219.0344
  0
VERTEX
  8
LAYER_6
 10
-12.4506
 20
216.0936
  0
VERTEX
  8
LAYER_6
 10
-11.5888
 20
216.0936
  0
VERTEX
  8
LAYER_6
 10
-11.5888
 20
219.2863
 42
0.09153279999
  0
VERTEX
  8
LAYER_6
 10
-11.7541
 20
220.2648
 42
0.1137257525
  0
VERTEX
  8
LAYER_6
 10
-12.1584
 20
220.8532
 42
0.1162530232
  0
VERTEX
  8
LAYER_6
 10
-12.7979
 20
221.1952
 42
0.0722532527
  0
VERTEX
  8
LAYER_6
 10
-13.5156
 20
221.2869
 42
0.2580675194
  0
VERTEX
  8
LAYER_6
 10
-15.1212
 20
220.3724
  0
SEQEND
  0
POLYLINE
  8
LAYER_6
 40
0.05
 41
0.05
 66
1
 10
0
 20
0
 30
0
  0
VERTEX
  8
LAYER_6
 10
-6.5398
 20
219.7266
 42
0.134478161
  0
VERTEX
  8
LAYER_6
 10
-6.3695
 20
219.0834
 42
0.1258963062
  0
VERTEX
  8
LAYER_6
 10
-5.9013
 20
218.6274
 42
0.07937172531
  0
VERTEX
  8
LAYER_6
 10
-5.2179
 20
218.3548
  0
VERTEX
  8
LAYER_6
 10
-4.5484
 20
218.1975
 42
-0.0631755932
  0
VERTEX
  8
LAYER_6
 10
-4.0263
 20
218.0207
 42
-0.1806469744
  0
VERTEX
  8
LAYER_6
 10
-3.7165
 20
217.702
 42
-0.08701309377
  0
VERTEX
  8
LAYER_6
 10
-3.6835
 20
217.4971
 42
-0.2942528815
  0
VERTEX
  8
LAYER_6
 10
-4.0651
 20
216.9167
 42
-0.1198372064
  0
VERTEX
  8
LAYER_6
 10
-4.7111
 20
216.7681
 42
-0.005099843066
  0
VERTEX
  8
LAYER_6
 10
-4.7484
 20
216.7677
 42
-0.1318208153
  0
VERTEX
  8
LAYER_6
 10
-5.4397
 20
216.9475
 42
-0.1159302133
  0
VERTEX
  8
LAYER_6
 10
-5.937
 20
217.4238
 42
-0.006094096148
  0
VERTEX
  8
LAYER_6
 10
-5.9617
 20
217.4611
  0
VERTEX
  8
LAYER_6
 10
-6.0112
 20
217.5355
  0
VERTEX
  8
LAYER_6
 10
-6.75
 20
217.0282
  0
VERTEX
  8
LAYER_6
 10
-6.7036
 20
216.9575
 42
0.1006943621
  0
VERTEX
  8
LAYER_6
 10
-6.0762
 20
216.3276
 42
0.09809760808
  0
VERTEX
  8
LAYER_6
 10
-5.3011
 20
216.0196
 42
0.04877336623
  0
VERTEX
  8
LAYER_6
 10
-4.7484
 20
215.9685
 42
0.09080061549
  0
VERTEX
  8
LAYER_6
 10
-3.7557
 20
216.1458
 42
0.1029663831
  0
VERTEX
  8
LAYER_6
 10
-3.1454
 20
216.5402
 42
0.180354229
  0
VERTEX
  8
LAYER_6
 10
-2.7623
 20
217.4258
 42
0.01945068344
  0
VERTEX
  8
LAYER_6
 10
-2.7575
 20
217.56
 42
0.2535980107
  0
VERTEX
  8
LAYER_6
 10
-3.3999
 20
218.7221
 42
0.09173199894
  0
VERTEX
  8
LAYER_6
 10
-4.018
 20
218.9827
  0
VERTEX
  8
LAYER_6
 10
-4.7177
 20
219.1511
 42
-0.05991192419
  0
VERTEX
  8
LAYER_6
 10
-5.2728
 20
219.3275
 42
-0.1874515711
  0
VERTEX
  8
LAYER_6
 10
-5.5828
 20
219.6332
 42
-0.08582021468
  0
VERTEX
  8
LAYER_6
 10
-5.6143
 20
219.8403
 42
-0.314077401
  0
VERTEX
  8
LAYER_6
 10
-5.2343
 20
220.3762
 42
-0.1060544966
  0
VERTEX
  8
LAYER_6
 10
-4.6848
 20
220.4863
 42
-0.1486063154
  0
VERTEX
  8
LAYER_6
 10
-4.0809
 20
220.3127
 42
-0.1292830572
  0
VERTEX
  8
LAYER_6
 10
-3.7057
 20
219.8732
  0
VERTEX
  8
LAYER_6
 10
-3.6608
 20
219.7888
  0
VERTEX
  8
LAYER_6
 10
-2.8992
 20
220.2925
  0
VERTEX
  8
LAYER_6
 10
-2.933
 20
220.3595
 42
0.237196535
  0
VERTEX
  8
LAYER_6
 10
-4.1097
 20
221.2337
 42
0.05314185225
  0
VERTEX
  8
LAYER_6
 10
-4.6438
 20
221.2873
 42
0.09533727001
  0
VERTEX
  8
LAYER_6
 10
-5.5811
 20
221.1115
 42
0.1053851178
  0
VERTEX
  8
LAYER_6
 10
-6.1751
 20
220.7089
 42
0.1943913526
  0
VERTEX
  8
LAYER_6
 10
-6.5398
 20
219.7266
  0
SEQEND
  0
INSERT
  8
LAYER_6
  2
AIGNBL06020026
 10
0
 20
0
 30
0
  0
INSERT
  8
LAYER_6
  2
AIGNBL06020027
 10
0
 20
0
 30
0
  0
INSERT
  8
LAYER_6
  2
AIGNBL06020028
 10
0
 20
0
 30
0
  0
POLYLINE
  8
LAYER_6
 40
0.05
 41
0.05
 66
1
 10
0
 20
0
 30
0
  0
VERTEX
  8
LAYER_6
 10
-20.9091
 20
213.692
 42
0.2126578199
  0
VERTEX
  8
LAYER_6
 10
-21.2785
 20
213.8653
 42
0.4107545191
  0
VERTEX
  8
LAYER_6
 10
-21.8793
 20
213.2387
 42
0.1832232544
  0
VERTEX
  8
LAYER_6
 10
-21.7095
 20
212.7686
 42
0.2124026091
  0
VERTEX
  8
LAYER_6
 10
-21.2785
 20
212.5886
 42
0.2429399681
  0
VERTEX
  8
LAYER_6
 10
-20.8847
 20
212.8017
  0
VERTEX
  8
LAYER_6
 10
-20.6282
 20
212.6175
 42
-0.2483368577
  0
VERTEX
  8
LAYER_6
 10
-21.2802
 20
212.3057
 42
-0.1519221822
  0
VERTEX
  8
LAYER_6
 10
-21.8463
 20
212.4749
 42
-0.2337791857
  0
VERTEX
  8
LAYER_6
 10
-22.2039
 20
213.1558
 42
-0.01462202831
  0
VERTEX
  8
LAYER_6
 10
-22.2057
 20
213.219
 42
-0.1526640936
  0
VERTEX
  8
LAYER_6
 10
-22.0367
 20
213.7867
 42
-0.2349220238
  0
VERTEX
  8
LAYER_6
 10
-21.3427
 20
214.1454
 42
-0.01403410383
  0
VERTEX
  8
LAYER_6
 10
-21.2802
 20
214.1471
 42
-0.1771442668
  0
VERTEX
  8
LAYER_6
 10
-20.7724
 20
213.9741
 42
-0.0394909762
  0
VERTEX
  8
LAYER_6
 10
-20.6673
 20
213.8707
  0
SEQEND
  0
INSERT
  8
LAYER_6
  2
AIGNBL06020029
 10
0
 20
0
 30
0
  0
POLYLINE
  8
LAYER_6
 40
0.05
 41
0.05
 66
1
 10
0
 20
0
 30
0
  0
VERTEX
  8
LAYER_6
 10
-16.1647
 20
212.9941
 42
-0.182226301
  0
VERTEX
  8
LAYER_6
 10
-16.3329
 20
212.5261
 42
-0.1768067702
  0
VERTEX
  8
LAYER_6
 10
-16.7424
 20
212.3151
 42
-0.03937171115
  0
VERTEX
  8
LAYER_6
 10
-16.8703
 20
212.3057
 42
-0.1767902592
  0
VERTEX
  8
LAYER_6
 10
-17.3545
 20
212.4748
 42
-0.2234110022
  0
VERTEX
  8
LAYER_6
 10
-17.5745
 20
212.9941
  0
VERTEX
  8
LAYER_6
 10
-17.5745
 20
214.1029
  0
VERTEX
  8
LAYER_6
 10
-17.2613
 20
214.1029
  0
VERTEX
  8
LAYER_6
 10
-17.2613
 20
213.0037
 42
0.2349518793
  0
VERTEX
  8
LAYER_6
 10
-17.1016
 20
212.6665
 42
0.1547549989
  0
VERTEX
  8
LAYER_6
 10
-16.8703
 20
212.6029
 42
0.2547042701
  0
VERTEX
  8
LAYER_6
 10
-16.5428
 20
212.765
 42
0.1423144498
  0
VERTEX
  8
LAYER_6
 10
-16.477
 20
213.0037
  0
VERTEX
  8
LAYER_6
 10
-16.477
 20
214.1029
  0
VERTEX
  8
LAYER_6
 10
-16.1647
 20
214.1029
  0
SEQEND
  0
INSERT
  8
LAYER_6
  2
AIGNBL0602002A
 10
0
 20
0
 30
0
  0
POLYLINE
  8
LAYER_6
 40
0.05
 41
0.05
 66
1
 10
0
 20
0
 30
0
  0
VERTEX
  8
LAYER_6
 10
-11.0637
 20
213.9659
 42
0.1865846686
  0
VERTEX
  8
LAYER_6
 10
-11.5272
 20
214.146
 42
0.01070457993
  0
VERTEX
  8
LAYER_6
 10
-11.566
 20
214.1468
 42
0.1725298242
  0
VERTEX
  8
LAYER_6
 10
-12.0539
 20
213.9827
 42
0.2187144791
  0
VERTEX
  8
LAYER_6
 10
-12.212
 20
213.6169
 42
0.3561528276
  0
VERTEX
  8
LAYER_6
 10
-11.8351
 20
213.1453
 42
-0.4171847534
  0
VERTEX
  8
LAYER_6
 10
-11.3804
 20
212.8287
 42
-0.3335028506
  0
VERTEX
  8
LAYER_6
 10
-11.5558
 20
212.6101
 42
-0.08319549326
  0
VERTEX
  8
LAYER_6
 10
-11.6868
 20
212.588
 42
-0.2454746759
  0
VERTEX
  8
LAYER_6
 10
-12.0342
 20
212.7715
  0
VERTEX
  8
LAYER_6
 10
-12.269
 20
212.5433
 42
0.1909646496
  0
VERTEX
  8
LAYER_6
 10
-11.8308
 20
212.3153
 42
0.03754446626
  0
VERTEX
  8
LAYER_6
 10
-11.6944
 20
212.3061
 42
0.1762916439
  0
VERTEX
  8
LAYER_6
 10
-11.2183
 20
212.4674
 42
0.2195743063
  0
VERTEX
  8
LAYER_6
 10
-11.0534
 20
212.8657
 42
0.3531185733
  0
VERTEX
  8
LAYER_6
 10
-11.4303
 20
213.3408
 42
-0.05600345769
  0
VERTEX
  8
LAYER_6
 10
-11.796
 20
213.4825
 42
-0.2536946722
  0
VERTEX
  8
LAYER_6
 10
-11.885
 20
213.6399
 42
-0.3489083621
  0
VERTEX
  8
LAYER_6
 10
-11.7191
 20
213.848
 42
-0.07098211707
  0
VERTEX
  8
LAYER_6
 10
-11.5983
 20
213.8648
 42
-0.2306121412
  0
VERTEX
  8
LAYER_6
 10
-11.2913
 20
213.7261
  0
SEQEND
  0
INSERT
  8
LAYER_6
  2
AIGNBL0602002B
 10
0
 20
0
 30
0
  0
INSERT
  8
LAYER_6
  2
AIGNBL0602002C
 10
0
 20
0
 30
0
  0
POLYLINE
  8
LAYER_6
 40
0.05
 41
0.05
 66
1
 10
0
 20
0
 30
0
  0
VERTEX
  8
LAYER_6
 10
-5.2994
 20
213.692
 42
0.2129687332
  0
VERTEX
  8
LAYER_6
 10
-5.6677
 20
213.8653
 42
0.4105330837
  0
VERTEX
  8
LAYER_6
 10
-6.269
 20
213.2387
 42
0.1833694889
  0
VERTEX
  8
LAYER_6
 10
-6.099
 20
212.7686
 42
0.2122774884
  0
VERTEX
  8
LAYER_6
 10
-5.6677
 20
212.5886
 42
0.2420713992
  0
VERTEX
  8
LAYER_6
 10
-5.2745
 20
212.8017
  0
VERTEX
  8
LAYER_6
 10
-5.0183
 20
212.6175
 42
-0.2483961933
  0
VERTEX
  8
LAYER_6
 10
-5.6704
 20
212.3057
 42
-0.1519079839
  0
VERTEX
  8
LAYER_6
 10
-6.2365
 20
212.4749
 42
-0.2337913088
  0
VERTEX
  8
LAYER_6
 10
-6.5942
 20
213.1558
 42
-0.0146222367
  0
VERTEX
  8
LAYER_6
 10
-6.596
 20
213.219
 42
-0.1526708466
  0
VERTEX
  8
LAYER_6
 10
-6.427
 20
213.7867
 42
-0.2349281849
  0
VERTEX
  8
LAYER_6
 10
-5.7329
 20
214.1454
 42
-0.01403209072
  0
VERTEX
  8
LAYER_6
 10
-5.6704
 20
214.1471
 42
-0.177045353
  0
VERTEX
  8
LAYER_6
 10
-5.1623
 20
213.9741
 42
-0.03940754375
  0
VERTEX
  8
LAYER_6
 10
-5.0571
 20
213.8707
  0
SEQEND
  0
POLYLINE
  8
LAYER_6
 40
0.05
 41
0.05
 66
1
 10
0
 20
0
 30
0
  0
VERTEX
  8
LAYER_6
 10
-4.4354
 20
214.1029
  0
VERTEX
  8
LAYER_6
 10
-3.2751
 20
214.1029
  0
VERTEX
  8
LAYER_6
 10
-3.2751
 20
213.8202
  0
VERTEX
  8
LAYER_6
 10
-4.1231
 20
213.8202
  0
VERTEX
  8
LAYER_6
 10
-4.1231
 20
213.3901
  0
VERTEX
  8
LAYER_6
 10
-3.3195
 20
213.3901
  0
VERTEX
  8
LAYER_6
 10
-3.3195
 20
213.1079
  0
VERTEX
  8
LAYER_6
 10
-4.1231
 20
213.1079
  0
VERTEX
  8
LAYER_6
 10
-4.1231
 20
212.633
  0
VERTEX
  8
LAYER_6
 10
-3.2318
 20
212.633
  0
VERTEX
  8
LAYER_6
 10
-3.2318
 20
212.3512
  0
VERTEX
  8
LAYER_6
 10
-4.4354
 20
212.3512
  0
SEQEND
  0
ENDBLK
  0
ENDSEC
  0
SECTION
  2
ENTITIES
  0
TEXT
  8
LAYER_4
 10
40.8872
 20
168.777
 11
40.8872
 21
168.777
 40
3.5541
 41
0.5
 72
1
  1
35
  0
INSERT
  8
LAYER_4
  2
AIGNBL04010002
 10
0
 20
0
 30
0
  0
TEXT
  8
LAYER_4
 10
40.8722
 20
151.0316
 11
40.8722
 21
151.0316
 40
2.5981
 41
0.5
 72
1
  1
カウンター開口寸法：
  0
TEXT
  8
LAYER_4
 10
42.4497
 20
147.4566
 11
42.4497
 21
147.4566
 40
2.9618
 41
0.5
 72
1
  1
140×230
  0
TEXT
  8
LAYER_4
 10
84.7674
 20
159.2065
 11
84.7674
 21
159.2065
 40
3.5541
 41
0.5
 72
1
  1
420
  0
POLYLINE
  8
LAYER_4
 40
0.1199
 41
0.1199
 66
1
 10
0
 20
0
 30
0
  0
VERTEX
  8
LAYER_4
 10
72.3349
 20
140.7032
  0
VERTEX
  8
LAYER_4
 10
81.0741
 20
140.7032
  0
VERTEX
  8
LAYER_4
 10
81.0741
 20
158.8761
  0
SEQEND
  0
TEXT
  8
LAYER_4
 10
79.524
 20
171.2254
 11
79.524
 21
171.2254
 40
3.5541
 41
0.5
 72
1
  1
210
  0
POLYLINE
  8
LAYER_4
 40
0.1199
 41
0.1199
 66
1
 10
0
 20
0
 30
0
  0
VERTEX
  8
LAYER_4
 10
72.3349
 20
182.9291
  0
VERTEX
  8
LAYER_4
 10
81.0741
 20
182.9291
  0
VERTEX
  8
LAYER_4
 10
81.0741
 20
164.0186
  0
SEQEND
  0
POLYLINE
  8
LAYER_4
 40
0.1199
 41
0.1199
 66
1
 10
0
 20
0
 30
0
  0
VERTEX
  8
LAYER_4
 10
75.8307
 20
182.9291
  0
VERTEX
  8
LAYER_4
 10
75.8307
 20
175.8001
  0
SEQEND
  0
POLYLINE
  8
LAYER_4
 40
0.1199
 41
0.1199
 66
1
 10
0
 20
0
 30
0
  0
VERTEX
  8
LAYER_4
 10
75.8307
 20
170.6318
  0
VERTEX
  8
LAYER_4
 10
75.8307
 20
161.7045
  0
VERTEX
  8
LAYER_4
 10
72.3349
 20
161.7045
  0
SEQEND
  0
TEXT
  8
LAYER_4
 10
43.3539
 20
191.5769
 11
43.3539
 21
191.5769
 40
3.5541
 41
0.5
 72
1
  1
600
  0
POLYLINE
  8
LAYER_4
 40
0.1199
 41
0.1199
 66
1
 10
0
 20
0
 30
0
  0
VERTEX
  8
LAYER_4
 10
9.6494
 20
185.2817
  0
VERTEX
  8
LAYER_4
 10
9.6494
 20
193.2171
  0
VERTEX
  8
LAYER_4
 10
34.6845
 20
193.2171
  0
SEQEND
  0
POLYLINE
  8
LAYER_4
 40
0.1199
 41
0.1199
 66
1
 10
0
 20
0
 30
0
  0
VERTEX
  8
LAYER_4
 10
44.3735
 20
193.2171
  0
VERTEX
  8
LAYER_4
 10
69.6436
 20
193.2171
  0
VERTEX
  8
LAYER_4
 10
69.6436
 20
185.2817
  0
SEQEND
  0
CIRCLE
  8
LAYER_4
 10
39.6465
 20
174.2722
 40
1.9001
  0
POLYLINE
  8
LAYER_4
 40
0.3175
 41
0.3175
 66
1
 10
0
 20
0
 30
0
 70
1
  0
VERTEX
  8
LAYER_4
 10
42.0005
 20
161.9301
 42
0.3033277551
  0
VERTEX
  8
LAYER_4
 10
40.5395
 20
164.1174
 42
0.3032790593
  0
VERTEX
  8
LAYER_4
 10
37.9601
 20
163.6045
 42
0.3031424002
  0
VERTEX
  8
LAYER_4
 10
37.4471
 20
161.0248
 42
0.3033153099
  0
VERTEX
  8
LAYER_4
 10
39.6344
 20
159.5634
 42
0.4142129118
  0
SEQEND
  0
CIRCLE
  8
LAYER_4
 10
39.6344
 20
161.9301
 40
3.8442
  0
POLYLINE
  8
LAYER_4
 40
0.4233
 41
0.4233
 66
1
 10
0
 20
0
 30
0
 70
1
  0
VERTEX
  8
LAYER_4
 10
69.6319
 20
161.9301
  0
VERTEX
  8
LAYER_4
 10
69.6319
 20
156.3188
 42
-0.03686802882
  0
VERTEX
  8
LAYER_4
 10
69.5368
 20
153.5179
 42
-0.04945845972
  0
VERTEX
  8
LAYER_4
 10
68.9419
 20
150.7801
 42
-0.1998679752
  0
VERTEX
  8
LAYER_4
 10
61.8374
 20
142.4681
 42
-0.09912118326
  0
VERTEX
  8
LAYER_4
 10
56.4675
 20
140.9716
 42
-0.01853563449
  0
VERTEX
  8
LAYER_4
 10
55.0654
 20
140.9326
  0
VERTEX
  8
LAYER_4
 10
53.6618
 20
140.9326
  0
VERTEX
  8
LAYER_4
 10
50.8562
 20
140.9326
  0
VERTEX
  8
LAYER_4
 10
39.6344
 20
140.9326
  0
VERTEX
  8
LAYER_4
 10
28.4113
 20
140.9326
  0
VERTEX
  8
LAYER_4
 10
25.606
 20
140.9326
  0
VERTEX
  8
LAYER_4
 10
24.2025
 20
140.9326
 42
-0.02114320733
  0
VERTEX
  8
LAYER_4
 10
22.8
 20
140.9716
 42
-0.09894478435
  0
VERTEX
  8
LAYER_4
 10
17.4305
 20
142.4681
 42
-0.199839381
  0
VERTEX
  8
LAYER_4
 10
10.326
 20
150.7801
 42
-0.04943785979
  0
VERTEX
  8
LAYER_4
 10
9.731
 20
153.5179
 42
-0.0218753752
  0
VERTEX
  8
LAYER_4
 10
9.643
 20
154.7324
 42
-0.008143043662
  0
VERTEX
  8
LAYER_4
 10
9.6366
 20
156.3191
  0
VERTEX
  8
LAYER_4
 10
9.6366
 20
161.9301
  0
VERTEX
  8
LAYER_4
 10
9.6366
 20
167.5422
 42
-0.03678449201
  0
VERTEX
  8
LAYER_4
 10
9.731
 20
170.3431
 42
-0.04960353036
  0
VERTEX
  8
LAYER_4
 10
10.3263
 20
173.0806
 42
-0.199880324
  0
VERTEX
  8
LAYER_4
 10
17.4308
 20
181.3932
 42
-0.0988441469
  0
VERTEX
  8
LAYER_4
 10
22.8007
 20
182.8898
 42
-0.01826816631
  0
VERTEX
  8
LAYER_4
 10
24.2025
 20
182.9291
  0
VERTEX
  8
LAYER_4
 10
25.607
 20
182.9291
  0
VERTEX
  8
LAYER_4
 10
28.4113
 20
182.9291
  0
VERTEX
  8
LAYER_4
 10
39.6344
 20
182.9291
  0
VERTEX
  8
LAYER_4
 10
50.8568
 20
182.9291
  0
VERTEX
  8
LAYER_4
 10
53.6622
 20
182.9291
  0
VERTEX
  8
LAYER_4
 10
55.0657
 20
182.9291
 42
-0.02068730093
  0
VERTEX
  8
LAYER_4
 10
56.4682
 20
182.8898
 42
-0.09881816079
  0
VERTEX
  8
LAYER_4
 10
61.8384
 20
181.3932
 42
-0.199819181
  0
VERTEX
  8
LAYER_4
 10
68.9419
 20
173.0806
 42
-0.04950391215
  0
VERTEX
  8
LAYER_4
 10
69.5368
 20
170.3431
 42
-0.02190399257
  0
VERTEX
  8
LAYER_4
 10
69.6252
 20
169.1287
 42
-0.008222229199
  0
VERTEX
  8
LAYER_4
 10
69.6319
 20
167.5415
  0
SEQEND
  0
POLYLINE
  8
LAYER_4
 40
0.1058
 41
0.1058
 66
1
 10
0
 20
0
 30
0
 70
1
  0
VERTEX
  8
LAYER_4
 10
67.2293
 20
161.9301
  0
VERTEX
  8
LAYER_4
 10
67.2293
 20
156.8021
  0
VERTEX
  8
LAYER_4
 10
67.2297
 20
155.5202
 42
-0.02439031459
  0
VERTEX
  8
LAYER_4
 10
67.1783
 20
154.2335
 42
-0.05337289854
  0
VERTEX
  8
LAYER_4
 10
66.6726
 20
151.7247
 42
-0.2169326801
  0
VERTEX
  8
LAYER_4
 10
60.0167
 20
144.3319
 42
-0.05324276226
  0
VERTEX
  8
LAYER_4
 10
57.5741
 20
143.5671
 42
-0.04547885177
  0
VERTEX
  8
LAYER_4
 10
55.498
 20
143.3397
 42
-0.007385396067
  0
VERTEX
  8
LAYER_4
 10
55.0195
 20
143.3342
  0
VERTEX
  8
LAYER_4
 10
49.8909
 20
143.3353
  0
VERTEX
  8
LAYER_4
 10
39.6344
 20
143.3353
  0
VERTEX
  8
LAYER_4
 10
29.3774
 20
143.3353
  0
VERTEX
  8
LAYER_4
 10
24.2486
 20
143.3342
 42
-0.0437122049
  0
VERTEX
  8
LAYER_4
 10
22.025
 20
143.5053
 42
-0.007054337287
  0
VERTEX
  8
LAYER_4
 10
21.6941
 20
143.5671
 42
-0.05332240091
  0
VERTEX
  8
LAYER_4
 10
19.2519
 20
144.3319
 42
-0.216914585
  0
VERTEX
  8
LAYER_4
 10
12.5956
 20
151.7247
 42
-0.05337869124
  0
VERTEX
  8
LAYER_4
 10
12.0899
 20
154.2335
 42
-0.02338295156
  0
VERTEX
  8
LAYER_4
 10
12.0385
 20
155.5202
  0
VERTEX
  8
LAYER_4
 10
12.0385
 20
156.8021
  0
VERTEX
  8
LAYER_4
 10
12.0385
 20
161.9301
  0
VERTEX
  8
LAYER_4
 10
12.0385
 20
167.0589
  0
VERTEX
  8
LAYER_4
 10
12.0385
 20
168.3408
 42
-0.0244772946
  0
VERTEX
  8
LAYER_4
 10
12.0899
 20
169.6272
 42
-0.05338775804
  0
VERTEX
  8
LAYER_4
 10
12.5956
 20
172.1363
 42
-0.2169146498
  0
VERTEX
  8
LAYER_4
 10
19.2519
 20
179.5287
 42
-0.05342168463
  0
VERTEX
  8
LAYER_4
 10
21.6941
 20
180.2942
 42
-0.04532061796
  0
VERTEX
  8
LAYER_4
 10
23.7701
 20
180.5209
 42
-0.00736640468
  0
VERTEX
  8
LAYER_4
 10
24.2486
 20
180.5264
  0
VERTEX
  8
LAYER_4
 10
29.3774
 20
180.5261
  0
VERTEX
  8
LAYER_4
 10
39.6344
 20
180.5261
  0
VERTEX
  8
LAYER_4
 10
49.8909
 20
180.5261
  0
VERTEX
  8
LAYER_4
 10
55.0195
 20
180.5264
 42
-0.04357604715
  0
VERTEX
  8
LAYER_4
 10
57.2432
 20
180.3558
 42
-0.007028151603
  0
VERTEX
  8
LAYER_4
 10
57.5741
 20
180.2942
 42
-0.05334193208
  0
VERTEX
  8
LAYER_4
 10
60.0167
 20
179.5287
 42
-0.2169327442
  0
VERTEX
  8
LAYER_4
 10
66.6726
 20
172.1363
 42
-0.05338192875
  0
VERTEX
  8
LAYER_4
 10
67.1783
 20
169.6272
 42
-0.02326936561
  0
VERTEX
  8
LAYER_4
 10
67.2297
 20
168.3408
  0
VERTEX
  8
LAYER_4
 10
67.2293
 20
167.0589
  0
SEQEND
  0
POLYLINE
  8
LAYER_4
 40
0.1587
 41
0.1587
 66
1
 10
0
 20
0
 30
0
  0
VERTEX
  8
LAYER_4
 10
12.3513
 20
166.0198
 42
-0.3933634728
  0
VERTEX
  8
LAYER_4
 10
14.3499
 20
168.0156
  0
VERTEX
  8
LAYER_4
 10
64.918
 20
168.0156
 42
-0.4140288782
  0
VERTEX
  8
LAYER_4
 10
66.9165
 20
166.0198
  0
VERTEX
  8
LAYER_4
 10
66.9182
 20
160.4391
  0
VERTEX
  8
LAYER_4
 10
66.9165
 20
157.6489
  0
VERTEX
  8
LAYER_4
 10
66.9034
 20
154.8588
 42
-0.2425703434
  0
VERTEX
  8
LAYER_4
 10
61.5766
 20
145.5443
 42
-0.1193259215
  0
VERTEX
  8
LAYER_4
 10
56.3628
 20
143.7173
 42
-0.02490446785
  0
VERTEX
  8
LAYER_4
 10
54.9706
 20
143.6594
  0
VERTEX
  8
LAYER_4
 10
53.5764
 20
143.6577
  0
VERTEX
  8
LAYER_4
 10
50.7879
 20
143.6536
  0
VERTEX
  8
LAYER_4
 10
39.6344
 20
143.6439
  0
VERTEX
  8
LAYER_4
 10
28.4799
 20
143.6536
  0
VERTEX
  8
LAYER_4
 10
25.6915
 20
143.6577
  0
VERTEX
  8
LAYER_4
 10
24.2979
 20
143.6594
 42
-0.02516784169
  0
VERTEX
  8
LAYER_4
 10
22.9054
 20
143.7173
 42
-0.119573128
  0
VERTEX
  8
LAYER_4
 10
17.6923
 20
145.5443
 42
-0.2428027583
  0
VERTEX
  8
LAYER_4
 10
12.3641
 20
154.8663
 42
-0.005364211867
  0
VERTEX
  8
LAYER_4
 10
12.3517
 20
157.6544
  0
VERTEX
  8
LAYER_4
 10
12.3496
 20
160.4426
  0
VERTEX
  8
LAYER_4
 10
12.3513
 20
166.0198
  0
SEQEND
  0
TEXT
  8
LAYER_4
 10
5.6302
 20
172.1566
 11
5.6302
 21
172.1566
 40
3.5541
 41
0.5
 72
1
  1
125
  0
POLYLINE
  8
LAYER_4
 40
0.1199
 41
0.1199
 66
1
 10
0
 20
0
 30
0
  0
VERTEX
  8
LAYER_4
 10
6.7651
 20
180.5264
  0
VERTEX
  8
LAYER_4
 10
1.9372
 20
180.5264
  0
VERTEX
  8
LAYER_4
 10
1.9372
 20
176.5953
  0
SEQEND
  0
POLYLINE
  8
LAYER_4
 40
0.1199
 41
0.1199
 66
1
 10
0
 20
0
 30
0
  0
VERTEX
  8
LAYER_4
 10
1.9372
 20
171.9609
  0
VERTEX
  8
LAYER_4
 10
1.9372
 20
168.0135
  0
VERTEX
  8
LAYER_4
 10
6.7651
 20
168.0135
  0
SEQEND
  0
TEXT
  8
LAYER_4
 10
5.6302
 20
154.8626
 11
5.6302
 21
154.8626
 40
3.5541
 41
0.5
 72
1
  1
244
  0
TEXT
  8
LAYER_4
 10
1.6623
 20
141.2493
 11
1.6623
 21
141.2493
 40
3.5541
 41
0.5
 72
1
  1
3
  0
POLYLINE
  8
LAYER_4
 40
0.1199
 41
0.1199
 66
1
 10
0
 20
0
 30
0
  0
VERTEX
  8
LAYER_4
 10
1.9372
 20
168.0135
  0
VERTEX
  8
LAYER_4
 10
1.9372
 20
159.3005
  0
SEQEND
  0
POLYLINE
  8
LAYER_4
 40
0.1199
 41
0.1199
 66
1
 10
0
 20
0
 30
0
  0
VERTEX
  8
LAYER_4
 10
1.9372
 20
154.6672
  0
VERTEX
  8
LAYER_4
 10
1.9372
 20
143.6429
  0
VERTEX
  8
LAYER_4
 10
6.7651
 20
143.6429
  0
SEQEND
  0
POLYLINE
  8
LAYER_4
 40
0.1199
 41
0.1199
 66
1
 10
0
 20
0
 30
0
  0
VERTEX
  8
LAYER_4
 10
6.7651
 20
143.3476
  0
VERTEX
  8
LAYER_4
 10
1.9372
 20
143.3476
  0
VERTEX
  8
LAYER_4
 10
1.9372
 20
143.6429
  0
SEQEND
  0
TEXT
  8
LAYER_4
 10
132.678
 20
112.6274
 11
132.678
 21
112.6274
 40
3.5541
 41
0.5
 72
1
  1
160
  0
POLYLINE
  8
LAYER_4
 40
0.1199
 41
0.1199
 66
1
 10
0
 20
0
 30
0
  0
VERTEX
  8
LAYER_4
 10
126.9845
 20
106.357
  0
VERTEX
  8
LAYER_4
 10
128.9851
 20
106.357
  0
VERTEX
  8
LAYER_4
 10
128.9851
 20
112.4372
  0
SEQEND
  0
POLYLINE
  8
LAYER_4
 40
0.1199
 41
0.1199
 66
1
 10
0
 20
0
 30
0
  0
VERTEX
  8
LAYER_4
 10
128.9851
 20
117.1856
  0
VERTEX
  8
LAYER_4
 10
128.9851
 20
122.3529
  0
VERTEX
  8
LAYER_4
 10
126.9845
 20
122.3529
  0
SEQEND
  0
TEXT
  8
LAYER_4
 10
107.3338
 20
114.5387
 11
107.3338
 21
114.5387
 40
3.5541
 41
0.5
 72
1
  1
115
  0
POLYLINE
  8
LAYER_4
 40
0.1199
 41
0.1199
 66
1
 10
0
 20
0
 30
0
  0
VERTEX
  8
LAYER_4
 10
103.6436
 20
110.9035
  0
VERTEX
  8
LAYER_4
 10
103.6436
 20
114.3021
  0
SEQEND
  0
POLYLINE
  8
LAYER_4
 40
0.1199
 41
0.1199
 66
1
 10
0
 20
0
 30
0
  0
VERTEX
  8
LAYER_4
 10
103.6436
 20
118.9226
  0
VERTEX
  8
LAYER_4
 10
103.6436
 20
122.3529
  0
SEQEND
  0
POLYLINE
  8
LAYER_4
 40
0.5997
 41
0.5997
 62
251
 66
1
 10
0
 20
0
 30
0
  0
VERTEX
  8
LAYER_4
 10
83.5718
 20
105.9877
  0
VERTEX
  8
LAYER_4
 10
124.2553
 20
105.9877
  0
SEQEND
  0
POLYLINE
  8
LAYER_4
 40
0.05
 41
0.05
 66
1
 10
0
 20
0
 30
0
 70
1
  0
VERTEX
  8
LAYER_4
 10
118.6219
 20
106.8558
  0
VERTEX
  8
LAYER_4
 10
121.1333
 20
106.8558
 42
-0.3585648444
  0
VERTEX
  8
LAYER_4
 10
121.3314
 20
106.6843
  0
VERTEX
  8
LAYER_4
 10
121.3776
 20
106.3563
  0
VERTEX
  8
LAYER_4
 10
122.3777
 20
106.3563
 42
-0.1109617158
  0
VERTEX
  8
LAYER_4
 10
122.5283
 20
106.8614
 42
-0.1525466205
  0
VERTEX
  8
LAYER_4
 10
122.9296
 20
107.2186
 42
-0.009285304638
  0
VERTEX
  8
LAYER_4
 10
123.177
 20
107.2996
  0
VERTEX
  8
LAYER_4
 10
123.423
 20
107.3978
 42
0.06794827529
  0
VERTEX
  8
LAYER_4
 10
123.875
 20
107.6937
 42
0.2744934187
  0
VERTEX
  8
LAYER_4
 10
124.5133
 20
109.6347
 42
0.04860044825
  0
VERTEX
  8
LAYER_4
 10
124.3362
 20
110.1325
  0
VERTEX
  8
LAYER_4
 10
124.1313
 20
110.6258
 42
-0.01469522397
  0
VERTEX
  8
LAYER_4
 10
123.7678
 20
111.6428
 42
-0.02206110412
  0
VERTEX
  8
LAYER_4
 10
123.2021
 20
113.7095
 42
-0.02513654802
  0
VERTEX
  8
LAYER_4
 10
122.5697
 20
117.3327
 42
-0.01871752013
  0
VERTEX
  8
LAYER_4
 10
122.1929
 20
121.5598
 42
-0.002327367138
  0
VERTEX
  8
LAYER_4
 10
122.16
 20
122.2113
 42
0.4003263129
  0
VERTEX
  8
LAYER_4
 10
122.0098
 20
122.3546
  0
VERTEX
  8
LAYER_4
 10
121.9987
 20
122.3546
 42
0.3834564757
  0
VERTEX
  8
LAYER_4
 10
121.8489
 20
122.2106
 42
-0.03630002708
  0
VERTEX
  8
LAYER_4
 10
121.5841
 20
119.6909
 42
-0.03933444723
  0
VERTEX
  8
LAYER_4
 10
121.0916
 20
117.8499
 42
-0.04546848934
  0
VERTEX
  8
LAYER_4
 10
120.3653
 20
116.2877
 42
-0.04746579017
  0
VERTEX
  8
LAYER_4
 10
119.4381
 20
115.0009
 42
-0.04983012357
  0
VERTEX
  8
LAYER_4
 10
118.2222
 20
113.8674
 42
-0.02646656193
  0
VERTEX
  8
LAYER_4
 10
117.4182
 20
113.3185
 42
-0.04523438609
  0
VERTEX
  8
LAYER_4
 10
115.5554
 20
112.4103
 42
-0.03464936676
  0
VERTEX
  8
LAYER_4
 10
113.3382
 20
111.7282
 42
-0.008154039976
  0
VERTEX
  8
LAYER_4
 10
112.5558
 20
111.5536
 42
-0.02543351836
  0
VERTEX
  8
LAYER_4
 10
108.9028
 20
111.002
 42
-0.00445910736
  0
VERTEX
  8
LAYER_4
 10
107.4067
 20
110.8566
  0
VERTEX
  8
LAYER_4
 10
105.9295
 20
109.3563
  0
VERTEX
  8
LAYER_4
 10
105.8292
 20
106.3563
  0
VERTEX
  8
LAYER_4
 10
106.8296
 20
106.3563
  0
VERTEX
  8
LAYER_4
 10
106.8304
 20
106.3563
  0
VERTEX
  8
LAYER_4
 10
106.9154
 20
108.9329
  0
VERTEX
  8
LAYER_4
 10
107.8628
 20
109.8927
 42
0.02165553011
  0
VERTEX
  8
LAYER_4
 10
112.122
 20
110.4511
 42
0.02875386608
  0
VERTEX
  8
LAYER_4
 10
114.8792
 20
111.1194
 42
0.01868649312
  0
VERTEX
  8
LAYER_4
 10
116.0267
 20
111.5243
 42
-0.453519125
  0
VERTEX
  8
LAYER_4
 10
116.7071
 20
111.1301
  0
VERTEX
  8
LAYER_4
 10
117.3775
 20
106.3563
  0
VERTEX
  8
LAYER_4
 10
118.3776
 20
106.3563
  0
VERTEX
  8
LAYER_4
 10
118.4241
 20
106.6843
 42
-0.3599033573
  0
SEQEND
  0
POLYLINE
  8
LAYER_4
 40
0.05
 41
0.05
 66
1
 10
0
 20
0
 30
0
  0
VERTEX
  8
LAYER_4
 10
85.1269
 20
122.3546
  0
VERTEX
  8
LAYER_4
 10
85.1152
 20
122.3546
 42
0.3825779848
  0
VERTEX
  8
LAYER_4
 10
84.9654
 20
122.2113
 42
-0.01916930466
  0
VERTEX
  8
LAYER_4
 10
84.5726
 20
117.4676
 42
-0.0220971947
  0
VERTEX
  8
LAYER_4
 10
83.9805
 20
113.9642
 42
-0.002079721281
  0
VERTEX
  8
LAYER_4
 10
83.9232
 20
113.7095
 42
-0.02217053374
  0
VERTEX
  8
LAYER_4
 10
83.3568
 20
111.6417
 42
-0.01531134544
  0
VERTEX
  8
LAYER_4
 10
83.0041
 20
110.6527
  0
VERTEX
  8
LAYER_4
 10
82.8187
 20
110.2007
 42
0.06020298536
  0
VERTEX
  8
LAYER_4
 10
82.612
 20
109.6357
 42
0.2746374896
  0
VERTEX
  8
LAYER_4
 10
83.2504
 20
107.6937
 42
0.06828458609
  0
VERTEX
  8
LAYER_4
 10
83.7024
 20
107.3978
  0
VERTEX
  8
LAYER_4
 10
83.9484
 20
107.2996
  0
VERTEX
  8
LAYER_4
 10
84.1957
 20
107.2186
 42
-0.1529688983
  0
VERTEX
  8
LAYER_4
 10
84.5967
 20
106.8614
 42
-0.07949435253
  0
VERTEX
  8
LAYER_4
 10
84.7059
 20
106.575
 42
-0.02632802699
  0
VERTEX
  8
LAYER_4
 10
84.7476
 20
106.3563
  0
VERTEX
  8
LAYER_4
 10
85.7478
 20
106.3563
  0
VERTEX
  8
LAYER_4
 10
87.7952
 20
120.9246
 42
-0.3590441161
  0
VERTEX
  8
LAYER_4
 10
88.2899
 20
121.3542
  0
VERTEX
  8
LAYER_4
 10
89.3227
 20
121.3542
  0
VERTEX
  8
LAYER_4
 10
89.3227
 20
122.3546
  0
VERTEX
  8
LAYER_4
 10
85.1152
 20
122.3546
 42
0.3825779848
  0
VERTEX
  8
LAYER_4
 10
84.9654
 20
122.2113
  0
SEQEND
  0
POLYLINE
  8
LAYER_4
 40
0.05
 41
0.05
 66
1
 10
0
 20
0
 30
0
 70
1
  0
VERTEX
  8
LAYER_4
 10
100.2929
 20
107.724
  0
VERTEX
  8
LAYER_4
 10
96.4416
 20
107.9472
 42
-0.3694865211
  0
VERTEX
  8
LAYER_4
 10
95.9714
 20
108.4296
  0
VERTEX
  8
LAYER_4
 10
95.5208
 20
121.0438
 42
-0.4029634785
  0
VERTEX
  8
LAYER_4
 10
95.8205
 20
121.3542
  0
VERTEX
  8
LAYER_4
 10
96.2222
 20
121.3542
 42
-0.403065796
  0
VERTEX
  8
LAYER_4
 10
96.5216
 20
121.0658
  0
VERTEX
  8
LAYER_4
 10
96.8309
 20
112.8121
 42
0.04440372459
  0
VERTEX
  8
LAYER_4
 10
96.8992
 20
112.2774
 42
0.0448697783
  0
VERTEX
  8
LAYER_4
 10
97.0618
 20
111.763
 42
0.04702954292
  0
VERTEX
  8
LAYER_4
 10
97.3243
 20
111.2707
 42
0.0459889254
  0
VERTEX
  8
LAYER_4
 10
97.6599
 20
110.8491
 42
0.04516104548
  0
VERTEX
  8
LAYER_4
 10
98.0667
 20
110.4945
 42
0.04719254935
  0
VERTEX
  8
LAYER_4
 10
98.5463
 20
110.2117
 42
0.04472118805
  0
VERTEX
  8
LAYER_4
 10
99.0523
 20
110.0277
  0
VERTEX
  8
LAYER_4
 10
99.1006
 20
110.016
 42
-0.1376658374
  0
VERTEX
  8
LAYER_4
 10
99.1957
 20
109.9616
  0
VERTEX
  8
LAYER_4
 10
100.2099
 20
108.9329
  0
VERTEX
  8
LAYER_4
 10
100.2161
 20
108.73
  0
VERTEX
  8
LAYER_4
 10
100.3508
 20
108.7224
  0
VERTEX
  8
LAYER_4
 10
100.4149
 20
108.7189
  0
VERTEX
  8
LAYER_4
 10
101.219
 20
108.6721
  0
VERTEX
  8
LAYER_4
 10
101.1955
 20
109.3563
  0
VERTEX
  8
LAYER_4
 10
99.7183
 20
110.8566
  0
VERTEX
  8
LAYER_4
 10
99.6521
 20
110.8621
 42
-0.3775353237
  0
VERTEX
  8
LAYER_4
 10
97.8324
 20
112.7783
  0
VERTEX
  8
LAYER_4
 10
97.4786
 20
122.2106
 42
0.385008446
  0
VERTEX
  8
LAYER_4
 10
97.3284
 20
122.3546
  0
VERTEX
  8
LAYER_4
 10
93.1226
 20
122.3546
  0
VERTEX
  8
LAYER_4
 10
93.1226
 20
121.3542
  0
VERTEX
  8
LAYER_4
 10
94.027
 20
121.3542
 42
-0.3845423801
  0
VERTEX
  8
LAYER_4
 10
94.5262
 20
120.8722
  0
VERTEX
  8
LAYER_4
 10
94.9878
 20
107.939
 42
0.3876735917
  0
VERTEX
  8
LAYER_4
 10
95.929
 20
106.9764
  0
VERTEX
  8
LAYER_4
 10
100.2351
 20
106.7263
  0
VERTEX
  8
LAYER_4
 10
100.2409
 20
106.7256
  0
VERTEX
  8
LAYER_4
 10
100.2471
 20
106.7256
  0
VERTEX
  8
LAYER_4
 10
100.2585
 20
106.7256
  0
VERTEX
  8
LAYER_4
 10
100.2829
 20
106.7235
  0
VERTEX
  8
LAYER_4
 10
100.2954
 20
106.3563
  0
VERTEX
  8
LAYER_4
 10
101.2961
 20
106.3563
  0
VERTEX
  8
LAYER_4
 10
101.2521
 20
107.6689
  0
VERTEX
  8
LAYER_4
 10
100.8579
 20
107.692
  0
VERTEX
  8
LAYER_4
 10
100.5479
 20
107.7092
  0
VERTEX
  8
LAYER_4
 10
100.3573
 20
107.7202
  0
SEQEND
  0
POLYLINE
  8
LAYER_4
 40
0.0529
 41
0.0529
 66
1
 10
0
 20
0
 30
0
 70
1
  0
VERTEX
  8
LAYER_4
 10
118.3504
 20
107.8563
 42
-0.3593816472
  0
VERTEX
  8
LAYER_4
 10
118.153
 20
108.0289
  0
VERTEX
  8
LAYER_4
 10
117.6073
 20
111.9091
 42
-0.3026025821
  0
VERTEX
  8
LAYER_4
 10
117.846
 20
112.409
  0
VERTEX
  8
LAYER_4
 10
117.938
 20
112.4641
  0
VERTEX
  8
LAYER_4
 10
118.2812
 20
112.6818
  0
VERTEX
  8
LAYER_4
 10
118.6715
 20
112.9537
  0
VERTEX
  8
LAYER_4
 10
119.0491
 20
113.2441
  0
VERTEX
  8
LAYER_4
 10
119.4129
 20
113.5534
 42
0.0259169178
  0
VERTEX
  8
LAYER_4
 10
120.0964
 20
114.2315
 42
0.02626591968
  0
VERTEX
  8
LAYER_4
 10
120.7048
 20
114.979
  0
VERTEX
  8
LAYER_4
 10
120.977
 20
115.3731
  0
VERTEX
  8
LAYER_4
 10
121.2288
 20
115.7793
  0
VERTEX
  8
LAYER_4
 10
121.4599
 20
116.1989
  0
VERTEX
  8
LAYER_4
 10
121.5178
 20
116.3119
 42
-0.6369196483
  0
VERTEX
  8
LAYER_4
 10
121.7062
 20
116.2816
  0
VERTEX
  8
LAYER_4
 10
121.8227
 20
115.5396
  0
VERTEX
  8
LAYER_4
 10
122.0039
 20
114.5418
  0
VERTEX
  8
LAYER_4
 10
122.2141
 20
113.5452
  0
VERTEX
  8
LAYER_4
 10
122.3312
 20
113.0491
  0
VERTEX
  8
LAYER_4
 10
122.4566
 20
112.5578
 42
0.01091594214
  0
VERTEX
  8
LAYER_4
 10
122.7419
 20
111.5701
  0
VERTEX
  8
LAYER_4
 10
122.9031
 20
111.074
  0
VERTEX
  8
LAYER_4
 10
123.0784
 20
110.581
  0
VERTEX
  8
LAYER_4
 10
123.2683
 20
110.0911
  0
VERTEX
  8
LAYER_4
 10
123.4736
 20
109.6099
 42
-0.2203241189
  0
VERTEX
  8
LAYER_4
 10
123.4626
 20
108.7703
 42
-0.2197690176
  0
VERTEX
  8
LAYER_4
 10
122.8159
 20
108.2349
 42
0.1096429965
  0
VERTEX
  8
LAYER_4
 10
122.0818
 20
107.8563
  0
SEQEND
  0
POLYLINE
  8
LAYER_4
 40
0.0529
 41
0.0529
 66
1
 10
0
 20
0
 30
0
 70
1
  0
VERTEX
  8
LAYER_4
 10
85.911
 20
121.1671
 42
-0.3950837599
  0
VERTEX
  8
LAYER_4
 10
86.1109
 20
121.3542
  0
VERTEX
  8
LAYER_4
 10
86.6156
 20
121.3542
 42
-0.4273104055
  0
VERTEX
  8
LAYER_4
 10
86.814
 20
121.1275
  0
VERTEX
  8
LAYER_4
 10
84.9981
 20
108.2053
 42
-0.4623959372
  0
VERTEX
  8
LAYER_4
 10
84.7173
 20
108.0509
  0
VERTEX
  8
LAYER_4
 10
84.1588
 20
108.3028
 42
-0.4132205396
  0
VERTEX
  8
LAYER_4
 10
83.6569
 20
109.6219
  0
VERTEX
  8
LAYER_4
 10
83.8746
 20
110.1352
  0
VERTEX
  8
LAYER_4
 10
84.0883
 20
110.693
  0
VERTEX
  8
LAYER_4
 10
84.2922
 20
111.2835
  0
VERTEX
  8
LAYER_4
 10
84.4854
 20
111.9063
  0
VERTEX
  8
LAYER_4
 10
84.6698
 20
112.5633
  0
VERTEX
  8
LAYER_4
 10
84.8438
 20
113.2551
  0
VERTEX
  8
LAYER_4
 10
85.007
 20
113.9817
  0
VERTEX
  8
LAYER_4
 10
85.16
 20
114.7423
  0
VERTEX
  8
LAYER_4
 10
85.3019
 20
115.5396
  0
VERTEX
  8
LAYER_4
 10
85.4329
 20
116.3736
  0
VERTEX
  8
LAYER_4
 10
85.5524
 20
117.2445
  0
VERTEX
  8
LAYER_4
 10
85.6599
 20
118.1519
 42
0.008138449599
  0
VERTEX
  8
LAYER_4
 10
85.838
 20
120.0812
  0
SEQEND
  0
POLYLINE
  8
LAYER_4
 40
0.1058
 41
0.1058
 66
1
 10
0
 20
0
 30
0
  0
VERTEX
  8
LAYER_4
 10
97.3284
 20
122.283
  0
VERTEX
  8
LAYER_4
 10
121.9977
 20
122.283
  0
SEQEND
  0
POLYLINE
  8
LAYER_4
 40
0.1058
 41
0.1058
 66
1
 10
0
 20
0
 30
0
  0
VERTEX
  8
LAYER_4
 10
89.3227
 20
121.4362
  0
VERTEX
  8
LAYER_4
 10
93.1226
 20
121.4362
  0
SEQEND
  0
POLYLINE
  8
LAYER_4
 40
0.1058
 41
0.1058
 66
1
 10
0
 20
0
 30
0
  0
VERTEX
  8
LAYER_4
 10
89.3227
 20
122.283
  0
VERTEX
  8
LAYER_4
 10
93.1226
 20
122.283
  0
SEQEND
  0
POLYLINE
  8
LAYER_4
 40
0.1058
 41
0.1058
 66
1
 10
0
 20
0
 30
0
  0
VERTEX
  8
LAYER_4
 10
101.1838
 20
107.6689
  0
VERTEX
  8
LAYER_4
 10
101.1504
 20
108.73
  0
SEQEND
  0
POLYLINE
  8
LAYER_4
 40
0.1058
 41
0.1058
 66
1
 10
0
 20
0
 30
0
  0
VERTEX
  8
LAYER_4
 10
100.3288
 20
107.6689
  0
VERTEX
  8
LAYER_4
 10
100.2954
 20
108.73
  0
SEQEND
  0
POLYLINE
  8
LAYER_4
 40
0.1058
 41
0.1058
 66
1
 10
0
 20
0
 30
0
  0
VERTEX
  8
LAYER_4
 10
101.1838
 20
109.3149
  0
VERTEX
  8
LAYER_4
 10
105.9174
 20
109.3149
  0
SEQEND
  0
POLYLINE
  8
LAYER_4
 40
0.1058
 41
0.1058
 66
1
 10
0
 20
0
 30
0
  0
VERTEX
  8
LAYER_4
 10
85.7388
 20
106.4224
  0
VERTEX
  8
LAYER_4
 10
122.3105
 20
106.4224
  0
SEQEND
  0
TEXT
  8
LAYER_4
 10
107.3438
 20
98.4505
 11
107.3438
 21
98.4505
 40
3.5541
 41
0.5
 72
1
  1
376
  0
POLYLINE
  8
LAYER_4
 40
0.1199
 41
0.1199
 66
1
 10
0
 20
0
 30
0
  0
VERTEX
  8
LAYER_4
 10
98.9159
 20
100.3567
  0
VERTEX
  8
LAYER_4
 10
84.8393
 20
100.3567
  0
VERTEX
  8
LAYER_4
 10
84.8393
 20
103.2743
  0
SEQEND
  0
POLYLINE
  8
LAYER_4
 40
0.1199
 41
0.1199
 66
1
 10
0
 20
0
 30
0
  0
VERTEX
  8
LAYER_4
 10
108.5081
 20
100.3567
  0
VERTEX
  8
LAYER_4
 10
122.4659
 20
100.3567
  0
VERTEX
  8
LAYER_4
 10
122.4659
 20
103.2743
  0
SEQEND
  0
TEXT
  8
LAYER_4
 10
107.3438
 20
93.3755
 11
107.3438
 21
93.3755
 40
3.5541
 41
0.5
 72
1
  1
420
  0
POLYLINE
  8
LAYER_4
 40
0.1199
 41
0.1199
 66
1
 10
0
 20
0
 30
0
  0
VERTEX
  8
LAYER_4
 10
98.8112
 20
95.5873
  0
VERTEX
  8
LAYER_4
 10
82.6534
 20
95.5873
  0
VERTEX
  8
LAYER_4
 10
82.6534
 20
103.2743
  0
SEQEND
  0
POLYLINE
  8
LAYER_4
 40
0.1199
 41
0.1199
 66
1
 10
0
 20
0
 30
0
  0
VERTEX
  8
LAYER_4
 10
108.5081
 20
95.5873
  0
VERTEX
  8
LAYER_4
 10
124.6401
 20
95.5873
  0
VERTEX
  8
LAYER_4
 10
124.6401
 20
103.2743
  0
SEQEND
  0
POLYLINE
  8
LAYER_4
 40
0.1058
 41
0.1058
 66
1
 10
0
 20
0
 30
0
  0
VERTEX
  8
LAYER_4
 10
99.6425
 20
110.7877
  0
VERTEX
  8
LAYER_4
 10
107.4911
 20
110.7877
  0
SEQEND
  0
TEXT
  8
LAYER_4
 10
90.6284
 20
127.5929
 11
90.6284
 21
127.5929
 40
3.5541
 41
0.5
 72
1
  1
62
  0
POLYLINE
  8
LAYER_4
 40
0.1199
 41
0.1199
 66
1
 10
0
 20
0
 30
0
  0
VERTEX
  8
LAYER_4
 10
91.1531
 20
124.2994
  0
VERTEX
  8
LAYER_4
 10
91.1531
 20
127.1564
  0
VERTEX
  8
LAYER_4
 10
84.9902
 20
127.1564
  0
VERTEX
  8
LAYER_4
 10
84.9902
 20
124.2994
  0
SEQEND
  0
TEXT
  8
LAYER_4
 10
113.1595
 20
125.4428
 11
113.1595
 21
125.4428
 40
3.5541
 41
0.5
 72
1
  1
244
  0
POLYLINE
  8
LAYER_4
 40
0.1199
 41
0.1199
 66
1
 10
0
 20
0
 30
0
  0
VERTEX
  8
LAYER_4
 10
104.7319
 20
127.1564
  0
VERTEX
  8
LAYER_4
 10
97.2595
 20
127.1564
  0
VERTEX
  8
LAYER_4
 10
97.2595
 20
124.2994
  0
SEQEND
  0
POLYLINE
  8
LAYER_4
 40
0.1199
 41
0.1199
 66
1
 10
0
 20
0
 30
0
  0
VERTEX
  8
LAYER_4
 10
121.7166
 20
124.2994
  0
VERTEX
  8
LAYER_4
 10
121.7166
 20
127.1564
  0
VERTEX
  8
LAYER_4
 10
114.3972
 20
127.1564
  0
SEQEND
  0
TEXT
  8
LAYER_4
 10
78.0938
 20
113.1032
 11
78.0938
 21
113.1032
 40
3.5541
 41
0.5
 72
1
  1
160
  0
POLYLINE
  8
LAYER_4
 40
0.1199
 41
0.1199
 66
1
 10
0
 20
0
 30
0
  0
VERTEX
  8
LAYER_4
 10
72.3996
 20
106.6212
  0
VERTEX
  8
LAYER_4
 10
74.4001
 20
106.6212
  0
VERTEX
  8
LAYER_4
 10
74.4001
 20
112.7015
  0
SEQEND
  0
POLYLINE
  8
LAYER_4
 40
0.1199
 41
0.1199
 66
1
 10
0
 20
0
 30
0
  0
VERTEX
  8
LAYER_4
 10
74.4001
 20
117.5921
  0
VERTEX
  8
LAYER_4
 10
74.4001
 20
122.6172
  0
VERTEX
  8
LAYER_4
 10
72.3996
 20
122.6172
  0
SEQEND
  0
TEXT
  8
LAYER_4
 10
43.3514
 20
125.2854
 11
43.3514
 21
125.2854
 40
3.5541
 41
0.5
 72
1
  1
552
  0
POLYLINE
  8
LAYER_4
 40
0.1199
 41
0.1199
 66
1
 10
0
 20
0
 30
0
  0
VERTEX
  8
LAYER_4
 10
11.9925
 20
124.9167
  0
VERTEX
  8
LAYER_4
 10
11.9925
 20
127.2095
  0
VERTEX
  8
LAYER_4
 10
34.7546
 20
127.2101
  0
SEQEND
  0
POLYLINE
  8
LAYER_4
 40
0.1199
 41
0.1199
 66
1
 10
0
 20
0
 30
0
  0
VERTEX
  8
LAYER_4
 10
44.4199
 20
127.2101
  0
VERTEX
  8
LAYER_4
 10
67.2925
 20
127.2095
  0
VERTEX
  8
LAYER_4
 10
67.2925
 20
124.9167
  0
SEQEND
  0
POLYLINE
  8
LAYER_4
 40
0.5997
 41
0.5997
 62
251
 66
1
 10
0
 20
0
 30
0
  0
VERTEX
  8
LAYER_4
 10
9.6575
 20
105.9856
  0
VERTEX
  8
LAYER_4
 10
69.6321
 20
105.9856
  0
SEQEND
  0
POLYLINE
  8
LAYER_4
 40
0.1058
 41
0.1058
 66
1
 10
0
 20
0
 30
0
  0
VERTEX
  8
LAYER_4
 10
10.1136
 20
109.6536
  0
VERTEX
  8
LAYER_4
 10
69.1542
 20
109.6536
  0
SEQEND
  0
POLYLINE
  8
LAYER_4
 40
0.1058
 41
0.1058
 66
1
 10
0
 20
0
 30
0
  0
VERTEX
  8
LAYER_4
 10
11.8203
 20
107.56
  0
VERTEX
  8
LAYER_4
 10
67.4479
 20
107.56
  0
SEQEND
  0
POLYLINE
  8
LAYER_4
 40
0.4233
 41
0.4233
 66
1
 10
0
 20
0
 30
0
 70
1
  0
VERTEX
  8
LAYER_4
 10
11.8203
 20
106.6819
  0
VERTEX
  8
LAYER_4
 10
67.4479
 20
106.6819
 42
-0.1099169086
  0
VERTEX
  8
LAYER_4
 10
67.5991
 20
107.1873
 42
-0.1600874827
  0
VERTEX
  8
LAYER_4
 10
68.0012
 20
107.5445
 42
-0.01000096103
  0
VERTEX
  8
LAYER_4
 10
68.2479
 20
107.6251
  0
VERTEX
  8
LAYER_4
 10
68.4945
 20
107.7237
 42
0.06826722485
  0
VERTEX
  8
LAYER_4
 10
68.9458
 20
108.0192
 42
0.2745433043
  0
VERTEX
  8
LAYER_4
 10
69.5842
 20
109.9605
 42
0.04968242864
  0
VERTEX
  8
LAYER_4
 10
69.3772
 20
110.5262
  0
VERTEX
  8
LAYER_4
 10
69.1915
 20
110.9793
 42
-0.01451909246
  0
VERTEX
  8
LAYER_4
 10
68.8387
 20
111.9683
 42
-0.02186390789
  0
VERTEX
  8
LAYER_4
 10
68.2734
 20
114.0344
 42
-0.02513450677
  0
VERTEX
  8
LAYER_4
 10
67.641
 20
117.658
 42
-0.01865617365
  0
VERTEX
  8
LAYER_4
 10
67.2636
 20
121.8858
 42
-0.002309129119
  0
VERTEX
  8
LAYER_4
 10
67.2305
 20
122.5376
  0
VERTEX
  8
LAYER_4
 10
67.2171
 20
122.5927
  0
VERTEX
  8
LAYER_4
 10
67.185
 20
122.6392
  0
VERTEX
  8
LAYER_4
 10
67.1372
 20
122.6695
  0
VERTEX
  8
LAYER_4
 10
67.1093
 20
122.6778
  0
VERTEX
  8
LAYER_4
 10
67.0955
 20
122.6795
  0
VERTEX
  8
LAYER_4
 10
67.09
 20
122.6806
  0
VERTEX
  8
LAYER_4
 10
67.081
 20
122.6806
  0
VERTEX
  8
LAYER_4
 10
67.0765
 20
122.6806
  0
VERTEX
  8
LAYER_4
 10
67.0738
 20
122.6806
  0
VERTEX
  8
LAYER_4
 10
67.0734
 20
122.6806
  0
VERTEX
  8
LAYER_4
 10
67.0727
 20
122.6806
  0
VERTEX
  8
LAYER_4
 10
67.072
 20
122.6806
  0
VERTEX
  8
LAYER_4
 10
67.0707
 20
122.6806
  0
VERTEX
  8
LAYER_4
 10
67.07
 20
122.6806
  0
VERTEX
  8
LAYER_4
 10
67.0665
 20
122.6806
  0
VERTEX
  8
LAYER_4
 10
67.0652
 20
122.6806
  0
VERTEX
  8
LAYER_4
 10
67.0641
 20
122.6806
  0
VERTEX
  8
LAYER_4
 10
67.0627
 20
122.6806
  0
VERTEX
  8
LAYER_4
 10
67.0617
 20
122.6806
  0
VERTEX
  8
LAYER_4
 10
67.06
 20
122.6806
  0
VERTEX
  8
LAYER_4
 10
67.059
 20
122.6806
  0
VERTEX
  8
LAYER_4
 10
67.0572
 20
122.6806
  0
VERTEX
  8
LAYER_4
 10
67.0559
 20
122.6806
  0
VERTEX
  8
LAYER_4
 10
67.0504
 20
122.6806
  0
VERTEX
  8
LAYER_4
 10
67.05
 20
122.6806
  0
VERTEX
  8
LAYER_4
 10
67.0476
 20
122.6806
  0
VERTEX
  8
LAYER_4
 10
67.0462
 20
122.6806
  0
VERTEX
  8
LAYER_4
 10
67.0434
 20
122.6806
  0
VERTEX
  8
LAYER_4
 10
67.0431
 20
122.6806
  0
VERTEX
  8
LAYER_4
 10
67.0403
 20
122.6806
  0
VERTEX
  8
LAYER_4
 10
67.039
 20
122.6806
  0
VERTEX
  8
LAYER_4
 10
67.0362
 20
122.6806
  0
VERTEX
  8
LAYER_4
 10
67.0348
 20
122.6806
  0
VERTEX
  8
LAYER_4
 10
67.0321
 20
122.6806
  0
VERTEX
  8
LAYER_4
 10
67.0307
 20
122.6806
  0
VERTEX
  8
LAYER_4
 10
67.028
 20
122.6806
  0
VERTEX
  8
LAYER_4
 10
67.0259
 20
122.6806
  0
VERTEX
  8
LAYER_4
 10
67.0238
 20
122.6806
  0
VERTEX
  8
LAYER_4
 10
67.0211
 20
122.6806
  0
VERTEX
  8
LAYER_4
 10
67.0186
 20
122.6806
  0
VERTEX
  8
LAYER_4
 10
67.0173
 20
122.6806
  0
VERTEX
  8
LAYER_4
 10
67.0145
 20
122.6806
  0
VERTEX
  8
LAYER_4
 10
67.0063
 20
122.6806
  0
VERTEX
  8
LAYER_4
 10
67.0045
 20
122.6806
  0
VERTEX
  8
LAYER_4
 10
66.9952
 20
122.6806
  0
VERTEX
  8
LAYER_4
 10
66.9897
 20
122.6806
  0
VERTEX
  8
LAYER_4
 10
12.1876
 20
122.6806
 42
0.3813780413
  0
VERTEX
  8
LAYER_4
 10
12.038
 20
122.5376
 42
-0.01911647902
  0
VERTEX
  8
LAYER_4
 10
11.645
 20
117.7932
 42
-0.02167145654
  0
VERTEX
  8
LAYER_4
 10
11.0666
 20
114.354
 42
-0.002592446636
  0
VERTEX
  8
LAYER_4
 10
10.9952
 20
114.0354
 42
-0.02200470589
  0
VERTEX
  8
LAYER_4
 10
10.4295
 20
111.9677
 42
-0.0154238421
  0
VERTEX
  8
LAYER_4
 10
10.0767
 20
110.9782
  0
VERTEX
  8
LAYER_4
 10
9.8903
 20
110.5252
 42
0.06064307145
  0
VERTEX
  8
LAYER_4
 10
9.685
 20
109.9613
 42
0.2747570447
  0
VERTEX
  8
LAYER_4
 10
10.3231
 20
108.0192
 42
0.06923921543
  0
VERTEX
  8
LAYER_4
 10
10.7744
 20
107.7237
  0
VERTEX
  8
LAYER_4
 10
11.021
 20
107.6251
  0
VERTEX
  8
LAYER_4
 10
11.2677
 20
107.5445
 42
-0.1527332203
  0
VERTEX
  8
LAYER_4
 10
11.669
 20
107.1873
 42
-0.07918115888
  0
VERTEX
  8
LAYER_4
 10
11.7786
 20
106.9007
 42
-0.02670165565
  0
SEQEND
  0
TEXT
  8
LAYER_4
 10
43.6673
 20
99.1788
 11
43.6673
 21
99.1788
 40
3.5541
 41
0.5
 72
1
  1
556
  0
POLYLINE
  8
LAYER_4
 40
0.1199
 41
0.1199
 66
1
 10
0
 20
0
 30
0
  0
VERTEX
  8
LAYER_4
 10
34.8893
 20
101.0849
  0
VERTEX
  8
LAYER_4
 10
11.7421
 20
101.0849
  0
VERTEX
  8
LAYER_4
 10
11.7421
 20
103.6219
  0
SEQEND
  0
POLYLINE
  8
LAYER_4
 40
0.1199
 41
0.1199
 66
1
 10
0
 20
0
 30
0
  0
VERTEX
  8
LAYER_4
 10
44.8309
 20
101.0849
  0
VERTEX
  8
LAYER_4
 10
67.8021
 20
101.0849
  0
VERTEX
  8
LAYER_4
 10
67.8021
 20
103.6219
  0
SEQEND
  0
TEXT
  8
LAYER_4
 10
43.6673
 20
94.2871
 11
43.6673
 21
94.2871
 40
3.5541
 41
0.5
 72
1
  1
600
  0
POLYLINE
  8
LAYER_4
 40
0.1199
 41
0.1199
 66
1
 10
0
 20
0
 30
0
  0
VERTEX
  8
LAYER_4
 10
34.8893
 20
96.217
  0
VERTEX
  8
LAYER_4
 10
9.6368
 20
96.217
  0
VERTEX
  8
LAYER_4
 10
9.6368
 20
103.6219
  0
SEQEND
  0
POLYLINE
  8
LAYER_4
 40
0.1199
 41
0.1199
 66
1
 10
0
 20
0
 30
0
  0
VERTEX
  8
LAYER_4
 10
44.8309
 20
96.217
  0
VERTEX
  8
LAYER_4
 10
69.9828
 20
96.217
  0
VERTEX
  8
LAYER_4
 10
69.9828
 20
103.6219
  0
SEQEND
  0
TEXT
  8
LAYER_6
 10
-26.2556
 20
43.1712
 11
-26.2556
 21
43.1712
 40
3.2995
 41
0.5
  1
仕様
  0
POLYLINE
  8
LAYER_6
 40
0.3528
 41
0.3528
 66
1
 10
0
 20
0
 30
0
  0
VERTEX
  8
LAYER_6
 10
250.6748
 20
51.9507
  0
VERTEX
  8
LAYER_6
 10
-29.3178
 20
51.9507
  0
SEQEND
  0
INSERT
  8
LAYER_6
  2
AIGNBL06010002
 10
0
 20
0
 30
0
  0
POLYLINE
  8
LAYER_6
 40
0.3528
 41
0.3528
 66
1
 10
0
 20
0
 30
0
  0
VERTEX
  8
LAYER_6
 10
-29.3178
 20
229.3369
  0
VERTEX
  8
LAYER_6
 10
-29.3178
 20
34.3283
  0
VERTEX
  8
LAYER_6
 10
250.6748
 20
34.3283
  0
VERTEX
  8
LAYER_6
 10
250.6748
 20
229.3369
  0
VERTEX
  8
LAYER_6
 10
-29.3178
 20
229.3369
  0
SEQEND
  0
POLYLINE
  8
LAYER_6
 40
0.3528
 41
0.3528
 66
1
 10
0
 20
0
 30
0
  0
VERTEX
  8
LAYER_6
 10
250.6748
 20
60.4597
  0
VERTEX
  8
LAYER_6
 10
-29.3178
 20
60.4597
  0
SEQEND
  0
POLYLINE
  8
LAYER_6
 40
0.3528
 41
0.3528
 66
1
 10
0
 20
0
 30
0
  0
VERTEX
  8
LAYER_6
 10
250.6748
 20
43.4416
  0
VERTEX
  8
LAYER_6
 10
143.5341
 20
43.4416
  0
SEQEND
  0
TEXT
  8
LAYER_6
 10
188.1725
 20
45.7175
 11
188.1725
 21
45.7175
 40
3.7615
 41
0.5
  1
-
  0
TEXT
  8
LAYER_6
 10
182.8808
 20
49.4743
 11
182.8808
 21
49.4743
 40
2.1997
 41
0.5
  1
縮尺
  0
POLYLINE
  8
LAYER_6
 40
0.3528
 41
0.3528
 66
1
 10
0
 20
0
 30
0
  0
VERTEX
  8
LAYER_6
 10
181.3526
 20
43.4416
  0
VERTEX
  8
LAYER_6
 10
181.3526
 20
51.9507
  0
SEQEND
  0
TEXT
  8
LAYER_6
 10
144.2327
 20
57.9834
 11
144.2327
 21
57.9834
 40
2.1997
 41
0.5
  1
品番
  0
TEXT
  8
LAYER_6
 10
-28.1609
 20
57.9834
 11
-28.1609
 21
57.9834
 40
2.1997
 41
0.5
  1
品名
  0
TEXT
  8
LAYER_6
 10
144.2327
 20
49.4743
 11
144.2327
 21
49.4743
 40
2.1997
 41
0.5
  1
重量
  0
TEXT
  8
LAYER_6
 10
150.2547
 20
54.1514
 11
150.2547
 21
54.1514
 40
5.9385
 41
0.5
  1
SIM-SH09/
  0
POLYLINE
  8
LAYER_6
 40
0.3528
 41
0.3528
 66
1
 10
0
 20
0
 30
0
  0
VERTEX
  8
LAYER_6
 10
143.5341
 20
34.9539
  0
VERTEX
  8
LAYER_6
 10
143.5341
 20
60.4597
  0
SEQEND
  0
TEXT
  8
LAYER_6
 10
-15.3472
 20
54.891
 11
-15.3472
 21
54.891
 40
4.1465
 41
0.5
  1
シャープ カウンター置き型洗面器600mm
  0
TEXT
  8
LAYER_6
 10
-15.6835
 20
45.3736
 11
-15.6835
 21
45.3736
 40
3.5541
 41
0.5
  1
●サイズ：W600×D420×H160mm●設置方法：カウンター置き
  0
TEXT
  8
LAYER_6
 10
-15.6835
 20
40.6235
 11
-15.6835
 21
40.6235
 40
3.1177
 41
0.5
  1
●l4栓取付zt：１zt●オーバーフロー付き●排l4帯具別途
  0
TEXT
  8
LAYER_6
 10
237.263
 20
63.2582
 11
237.263
 21
63.2582
 40
2.9618
 41
0.5
  1
単位：mm
  0
TEXT
  8
LAYER_6
 10
6.5217
 20
219.7385
 11
6.5217
 21
219.7385
 40
2.5981
 41
0.5
  1
※陶器製品は寸法公差が発生します。施工の際は必ず現物を合わせてご確認ください。
  0
TEXT
  8
LAYER_6
 10
6.5217
 20
214.9886
 11
6.5217
 21
214.9886
 40
2.5981
 41
0.5
  1
※製品と接する部分には必ずコーキング処理を行ってください。
  0
TEXT
  8
LAYER_6
 10
176.0254
 20
39.5359
 11
176.0254
 21
39.5359
 40
3.3853
 41
0.5
  1
●TEL 0120-65-1232●FAX 06-6532-1580
  0
TEXT
  8
LAYER_6
 10
176.0254
 20
36.0212
 11
176.0254
 21
36.0212
 40
3.3853
 41
0.5
  1
hits@hiratatile.co.jp
  0
TEXT
  8
LAYER_6
 10
240.3591
 20
225.8432
 11
240.3591
 21
225.8432
 40
2.0732
 41
0.5
  1
180604RT
  0
INSERT
  8
LAYER_6
  2
AIGNBL06010003
 10
0
 20
0
 30
0
  0
INSERT
  8
LAYER_6
  2
AIGNBL06010025
 10
0
 20
0
 30
0
  0
TEXT
  8
LAYER_6
 10
157.2803
 20
46.4933
 11
157.2803
 21
46.4933
 40
3.7615
 41
0.5
  1
15kg
  0
ENDSEC
  0
EOF
