  0
SECTION
  2
HEADER
  9
$ACADVER
  1
AC1009
  9
$LUNITS
 70
2
  9
$LUPREC
 70
4
  9
$LTSCALE
 40
1.0
  9
$EXTMIN
 10
-182.424
 20
33.3285
 30
0
  9
$EXTMAX
 10
251.6749
 20
246.4387
 30
0
  0
ENDSEC
  0
SECTION
  2
TABLES
  0
TABLE
  2
LTYPE
 70
256
  0
LTYPE
  2
AIGENLINE001
 70
64
  3
generate AI->DXF Converter
 72
65
 73
2
 40
0.6998
 49
0.3499
 49
-0.3499
  0
LTYPE
  2
AIGENLINE002
 70
64
  3
generate AI->DXF Converter
 72
65
 73
2
 40
0.6976
 49
0.3488
 49
-0.3488
  0
LTYPE
  2
AIGENLINE003
 70
64
  3
generate AI->DXF Converter
 72
65
 73
2
 40
1.1429
 49
0.5714
 49
-0.5714
  0
LTYPE
  2
AIGENLINE004
 70
64
  3
generate AI->DXF Converter
 72
65
 73
2
 40
1.1483
 49
0.5741
 49
-0.5741
  0
LTYPE
  2
AIGENLINE005
 70
64
  3
generate AI->DXF Converter
 72
65
 73
2
 40
0.782
 49
0.391
 49
-0.391
  0
LTYPE
  2
AIGENLINE006
 70
64
  3
generate AI->DXF Converter
 72
65
 73
2
 40
0.8371
 49
0.4186
 49
-0.4186
  0
LTYPE
  2
AIGENLINE007
 70
64
  3
generate AI->DXF Converter
 72
65
 73
2
 40
0.7816
 49
0.3908
 49
-0.3908
  0
LTYPE
  2
AIGENLINE008
 70
64
  3
generate AI->DXF Converter
 72
65
 73
2
 40
0.7818
 49
0.3909
 49
-0.3909
  0
LTYPE
  2
AIGENLINE009
 70
64
  3
generate AI->DXF Converter
 72
65
 73
2
 40
0.7815
 49
0.3908
 49
-0.3908
  0
LTYPE
  2
AIGENLINE010
 70
64
  3
generate AI->DXF Converter
 72
65
 73
2
 40
0.7856
 49
0.3928
 49
-0.3928
  0
LTYPE
  2
AIGENLINE011
 70
64
  3
generate AI->DXF Converter
 72
65
 73
2
 40
0.842
 49
0.421
 49
-0.421
  0
LTYPE
  2
AIGENLINE012
 70
64
  3
generate AI->DXF Converter
 72
65
 73
2
 40
0.7853
 49
0.3927
 49
-0.3927
  0
LTYPE
  2
AIGENLINE013
 70
64
  3
generate AI->DXF Converter
 72
65
 73
2
 40
1.1437
 49
0.5719
 49
-0.5719
  0
LTYPE
  2
AIGENLINE014
 70
64
  3
generate AI->DXF Converter
 72
65
 73
2
 40
0.7855
 49
0.3927
 49
-0.3927
  0
LTYPE
  2
AIGENLINE015
 70
64
  3
generate AI->DXF Converter
 72
65
 73
2
 40
0.8183
 49
0.4092
 49
-0.4092
  0
LTYPE
  2
AIGENLINE016
 70
64
  3
generate AI->DXF Converter
 72
65
 73
2
 40
0.7592
 49
0.3796
 49
-0.3796
  0
LTYPE
  2
AIGENLINE017
 70
64
  3
generate AI->DXF Converter
 72
65
 73
2
 40
0.9404
 49
0.4702
 49
-0.4702
  0
LTYPE
  2
AIGENLINE018
 70
64
  3
generate AI->DXF Converter
 72
65
 73
2
 40
0.9405
 49
0.4703
 49
-0.4703
  0
LTYPE
  2
AIGENLINE019
 70
64
  3
generate AI->DXF Converter
 72
65
 73
2
 40
0.9405
 49
0.4702
 49
-0.4702
  0
ENDTAB
  0
TABLE
  2
LAYER
 70
8
  0
LAYER
  2
LAYER_1
 70
64
 62
7
  6
CONTINUOUS
  0
LAYER
  2
LAYER_2
 70
64
 62
7
  6
CONTINUOUS
  0
LAYER
  2
LAYER_3
 70
64
 62
7
  6
CONTINUOUS
  0
LAYER
  2
LAYER_4
 70
64
 62
7
  6
CONTINUOUS
  0
LAYER
  2
LAYER_5
 70
64
 62
7
  6
CONTINUOUS
  0
LAYER
  2
LAYER_6
 70
64
 62
7
  6
CONTINUOUS
  0
LAYER
  2
LAYER_7
 70
64
 62
7
  6
CONTINUOUS
  0
LAYER
  2
LAYER_8
 70
64
 62
7
  6
CONTINUOUS
  0
ENDTAB
  0
TABLE
  2
STYLE
 70
6
  0
STYLE
  2
STANDARD
 70
0
 40
0
 50
0
 71
0
 41
0
 42
0
  3
TXT
  4
BIGFONT
  0
ENDTAB
  0
ENDSEC
  0
SECTION
  2
BLOCKS
  0
BLOCK
  8
LAYER_6
  2
AIGNBL06040029
 70
64
 10
0
 20
0
 30
0
  3
AIGNBL06040029
  0
TEXT
  8
LAYER_6
 10
146.5843
 20
105.3434
 11
146.5843
 21
105.3434
 40
3.5541
 41
0.5
  1
235
  0
ENDBLK
  0
BLOCK
  8
LAYER_6
  2
AIGNBL0604002D
 70
64
 10
0
 20
0
 30
0
  3
AIGNBL0604002D
  0
TEXT
  8
LAYER_6
 10
203.3788
 20
89.691
 11
203.3788
 21
89.691
 40
3.5541
 41
0.5
 72
1
  1
160
  0
ENDBLK
  0
BLOCK
  8
LAYER_8
  2
AIGNBL08040006
 70
64
 10
0
 20
0
 30
0
  3
AIGNBL08040006
  0
POLYLINE
  8
LAYER_8
 40
0.05
 41
0.05
 66
1
 10
0
 20
0
 30
0
 70
1
  0
VERTEX
  8
LAYER_8
 10
146.7545
 20
39.1418
  0
VERTEX
  8
LAYER_8
 10
146.2656
 20
37.9567
  0
VERTEX
  8
LAYER_8
 10
145.6376
 20
37.9567
  0
VERTEX
  8
LAYER_8
 10
147.2372
 20
41.7225
  0
VERTEX
  8
LAYER_8
 10
147.9703
 20
41.7225
  0
VERTEX
  8
LAYER_8
 10
149.5768
 20
37.9567
  0
VERTEX
  8
LAYER_8
 10
148.9267
 20
37.9567
  0
VERTEX
  8
LAYER_8
 10
148.424
 20
39.1418
  0
SEQEND
  0
POLYLINE
  8
LAYER_8
 40
0.05
 41
0.05
 66
1
 10
0
 20
0
 30
0
 70
1
  0
VERTEX
  8
LAYER_8
 10
148.2983
 20
39.5207
  0
VERTEX
  8
LAYER_8
 10
147.8373
 20
40.6056
 42
-0.02317247198
  0
VERTEX
  8
LAYER_8
 10
147.5927
 20
41.2926
  0
VERTEX
  8
LAYER_8
 10
147.5789
 20
41.2926
 42
-0.02064481114
  0
VERTEX
  8
LAYER_8
 10
147.3412
 20
40.6101
  0
VERTEX
  8
LAYER_8
 10
146.8806
 20
39.5207
  0
SEQEND
  0
ENDBLK
  0
BLOCK
  8
LAYER_8
  2
AIGNBL08040007
 70
64
 10
0
 20
0
 30
0
  3
AIGNBL08040007
  0
POLYLINE
  8
LAYER_8
 40
0.05
 41
0.05
 66
1
 10
0
 20
0
 30
0
 70
1
  0
VERTEX
  8
LAYER_8
 10
153.942
 20
37.4034
 42
-0.01520763512
  0
VERTEX
  8
LAYER_8
 10
152.1399
 20
37.8395
 42
0.09160443264
  0
VERTEX
  8
LAYER_8
 10
151.8533
 20
37.895
 42
-0.09256808484
  0
VERTEX
  8
LAYER_8
 10
150.8994
 20
38.0977
 42
-0.09799469934
  0
VERTEX
  8
LAYER_8
 10
150.2621
 20
38.5324
 42
-0.1630918382
  0
VERTEX
  8
LAYER_8
 10
149.7964
 20
39.5259
 42
-0.0316951694
  0
VERTEX
  8
LAYER_8
 10
149.7793
 20
39.7998
 42
-0.1055313794
  0
VERTEX
  8
LAYER_8
 10
149.9533
 20
40.6417
 42
-0.1619874109
  0
VERTEX
  8
LAYER_8
 10
150.7418
 20
41.4867
 42
-0.09224146328
  0
VERTEX
  8
LAYER_8
 10
151.5409
 20
41.7524
 42
-0.03717154931
  0
VERTEX
  8
LAYER_8
 10
151.9725
 20
41.7838
 42
-0.09530639066
  0
VERTEX
  8
LAYER_8
 10
152.9361
 20
41.6062
 42
-0.1001950085
  0
VERTEX
  8
LAYER_8
 10
153.5732
 20
41.1834
 42
-0.1611155306
  0
VERTEX
  8
LAYER_8
 10
154.0599
 20
40.1825
 42
-0.03590167283
  0
VERTEX
  8
LAYER_8
 10
154.0815
 20
39.8784
 42
-0.1066761192
  0
VERTEX
  8
LAYER_8
 10
153.9051
 20
39.0236
 42
-0.2183970027
  0
VERTEX
  8
LAYER_8
 10
152.7953
 20
38.0897
 42
-0.006706711403
  0
VERTEX
  8
LAYER_8
 10
152.7407
 20
38.0738
  0
VERTEX
  8
LAYER_8
 10
152.7407
 20
38.0514
 42
0.01533555045
  0
VERTEX
  8
LAYER_8
 10
154.117
 20
37.8113
  0
SEQEND
  0
POLYLINE
  8
LAYER_8
 40
0.05
 41
0.05
 66
1
 10
0
 20
0
 30
0
 70
1
  0
VERTEX
  8
LAYER_8
 10
153.4394
 20
39.857
 42
0.1175610784
  0
VERTEX
  8
LAYER_8
 10
153.257
 20
40.6254
 42
0.1170135141
  0
VERTEX
  8
LAYER_8
 10
152.8315
 20
41.1234
 42
0.1200044572
  0
VERTEX
  8
LAYER_8
 10
152.2186
 20
41.3675
 42
0.03774262044
  0
VERTEX
  8
LAYER_8
 10
151.9511
 20
41.3873
 42
0.1153139376
  0
VERTEX
  8
LAYER_8
 10
151.2089
 20
41.2226
 42
0.1853550912
  0
VERTEX
  8
LAYER_8
 10
150.5507
 20
40.4882
 42
0.09859892291
  0
VERTEX
  8
LAYER_8
 10
150.4287
 20
39.8122
 42
0.1178359247
  0
VERTEX
  8
LAYER_8
 10
150.5964
 20
39.0734
 42
0.2866694251
  0
VERTEX
  8
LAYER_8
 10
151.9232
 20
38.2912
 42
0.1188197759
  0
VERTEX
  8
LAYER_8
 10
152.6722
 20
38.4633
 42
0.1796740134
  0
VERTEX
  8
LAYER_8
 10
153.3126
 20
39.18
 42
0.09850052237
  0
SEQEND
  0
ENDBLK
  0
BLOCK
  8
LAYER_8
  2
AIGNBL08040008
 70
64
 10
0
 20
0
 30
0
  3
AIGNBL08040008
  0
POLYLINE
  8
LAYER_8
 40
0.05
 41
0.05
 66
1
 10
0
 20
0
 30
0
 70
1
  0
VERTEX
  8
LAYER_8
 10
155.4089
 20
41.7225
  0
VERTEX
  8
LAYER_8
 10
155.4089
 20
39.4932
 42
0.1220213404
  0
VERTEX
  8
LAYER_8
 10
155.569
 20
38.7775
 42
0.2218709818
  0
VERTEX
  8
LAYER_8
 10
156.2104
 20
38.3206
 42
0.05223876895
  0
VERTEX
  8
LAYER_8
 10
156.5055
 20
38.2912
 42
0.1302821267
  0
VERTEX
  8
LAYER_8
 10
157.1748
 20
38.452
 42
0.1509367336
  0
VERTEX
  8
LAYER_8
 10
157.526
 20
38.8454
 42
0.1174732039
  0
VERTEX
  8
LAYER_8
 10
157.651
 20
39.4932
  0
VERTEX
  8
LAYER_8
 10
157.651
 20
41.7225
  0
VERTEX
  8
LAYER_8
 10
158.2656
 20
41.7225
  0
VERTEX
  8
LAYER_8
 10
158.2656
 20
39.5266
 42
-0.1106199636
  0
VERTEX
  8
LAYER_8
 10
158.0961
 20
38.708
 42
-0.1822316276
  0
VERTEX
  8
LAYER_8
 10
157.4057
 20
38.0637
 42
-0.09768689614
  0
VERTEX
  8
LAYER_8
 10
156.6028
 20
37.8972
 42
-0.01000776787
  0
VERTEX
  8
LAYER_8
 10
156.4845
 20
37.895
 42
-0.09899539667
  0
VERTEX
  8
LAYER_8
 10
155.612
 20
38.0554
 42
-0.120955925
  0
VERTEX
  8
LAYER_8
 10
155.1093
 20
38.4366
 42
-0.1193006487
  0
VERTEX
  8
LAYER_8
 10
154.8407
 20
39.0316
 42
-0.05319923583
  0
VERTEX
  8
LAYER_8
 10
154.7943
 20
39.5045
  0
VERTEX
  8
LAYER_8
 10
154.7943
 20
41.7225
  0
SEQEND
  0
ENDBLK
  0
BLOCK
  8
LAYER_8
  2
AIGNBL08040009
 70
64
 10
0
 20
0
 30
0
  3
AIGNBL08040009
  0
POLYLINE
  8
LAYER_8
 40
0.05
 41
0.05
 66
1
 10
0
 20
0
 30
0
 70
1
  0
VERTEX
  8
LAYER_8
 10
160.0119
 20
39.1418
  0
VERTEX
  8
LAYER_8
 10
159.5227
 20
37.9567
  0
VERTEX
  8
LAYER_8
 10
158.8947
 20
37.9567
  0
VERTEX
  8
LAYER_8
 10
160.4939
 20
41.7225
  0
VERTEX
  8
LAYER_8
 10
161.227
 20
41.7225
  0
VERTEX
  8
LAYER_8
 10
162.8335
 20
37.9567
  0
VERTEX
  8
LAYER_8
 10
162.1841
 20
37.9567
  0
VERTEX
  8
LAYER_8
 10
161.6814
 20
39.1418
  0
SEQEND
  0
POLYLINE
  8
LAYER_8
 40
0.05
 41
0.05
 66
1
 10
0
 20
0
 30
0
 70
1
  0
VERTEX
  8
LAYER_8
 10
161.5553
 20
39.5207
  0
VERTEX
  8
LAYER_8
 10
161.094
 20
40.6056
 42
-0.02227599701
  0
VERTEX
  8
LAYER_8
 10
160.8494
 20
41.2926
  0
VERTEX
  8
LAYER_8
 10
160.8357
 20
41.2926
 42
-0.0208222547
  0
VERTEX
  8
LAYER_8
 10
160.5983
 20
40.6101
  0
VERTEX
  8
LAYER_8
 10
160.1373
 20
39.5207
  0
SEQEND
  0
ENDBLK
  0
BLOCK
  8
LAYER_8
  2
AIGNBL0804000A
 70
64
 10
0
 20
0
 30
0
  3
AIGNBL0804000A
  0
POLYLINE
  8
LAYER_8
 40
0.05
 41
0.05
 66
1
 10
0
 20
0
 30
0
 70
1
  0
VERTEX
  8
LAYER_8
 10
163.8742
 20
41.6777
 42
-0.03334485223
  0
VERTEX
  8
LAYER_8
 10
165.0411
 20
41.7508
 42
-0.08844478427
  0
VERTEX
  8
LAYER_8
 10
166.0871
 20
41.5858
 42
-0.06037505309
  0
VERTEX
  8
LAYER_8
 10
166.3609
 20
41.4379
 42
-0.2472514979
  0
VERTEX
  8
LAYER_8
 10
166.7726
 20
40.6497
 42
-0.1483298328
  0
VERTEX
  8
LAYER_8
 10
166.6029
 20
40.0554
 42
-0.07223194904
  0
VERTEX
  8
LAYER_8
 10
166.4095
 20
39.8456
 42
-0.1209372404
  0
VERTEX
  8
LAYER_8
 10
165.7228
 20
39.517
 42
-0.06224269186
  0
VERTEX
  8
LAYER_8
 10
164.9708
 20
39.4319
 42
-0.05738783264
  0
VERTEX
  8
LAYER_8
 10
164.4823
 20
39.4653
  0
VERTEX
  8
LAYER_8
 10
164.4823
 20
37.9567
  0
VERTEX
  8
LAYER_8
 10
163.8742
 20
37.9567
  0
SEQEND
  0
POLYLINE
  8
LAYER_8
 40
0.05
 41
0.05
 66
1
 10
0
 20
0
 30
0
 70
1
  0
VERTEX
  8
LAYER_8
 10
164.4823
 20
39.8622
 42
0.05012782438
  0
VERTEX
  8
LAYER_8
 10
164.9846
 20
39.8229
 42
0.1135299982
  0
VERTEX
  8
LAYER_8
 10
165.7697
 20
39.9822
 42
0.1653556145
  0
VERTEX
  8
LAYER_8
 10
166.1074
 20
40.3302
 42
0.1044590446
  0
VERTEX
  8
LAYER_8
 10
166.1656
 20
40.6273
 42
0.2826437488
  0
VERTEX
  8
LAYER_8
 10
165.8147
 20
41.2103
 42
0.0629694601
  0
VERTEX
  8
LAYER_8
 10
165.549
 20
41.3107
 42
0.06259589917
  0
VERTEX
  8
LAYER_8
 10
165.0552
 20
41.3649
 42
0.05192366909
  0
VERTEX
  8
LAYER_8
 10
164.4823
 20
41.3257
  0
SEQEND
  0
ENDBLK
  0
BLOCK
  8
LAYER_8
  2
AIGNBL0804000B
 70
64
 10
0
 20
0
 30
0
  3
AIGNBL0804000B
  0
POLYLINE
  8
LAYER_8
 40
0.05
 41
0.05
 66
1
 10
0
 20
0
 30
0
 70
1
  0
VERTEX
  8
LAYER_8
 10
168.3246
 20
41.4207
 42
-0.3048675751
  0
VERTEX
  8
LAYER_8
 10
168.1582
 20
41.1661
 42
-0.1151020929
  0
VERTEX
  8
LAYER_8
 10
167.9329
 20
41.1189
 42
-0.2442513348
  0
VERTEX
  8
LAYER_8
 10
167.6028
 20
41.2794
 42
-0.1394546152
  0
VERTEX
  8
LAYER_8
 10
167.5626
 20
41.4207
 42
-0.287439772
  0
VERTEX
  8
LAYER_8
 10
167.7346
 20
41.6803
 42
-0.1179404017
  0
VERTEX
  8
LAYER_8
 10
167.9467
 20
41.7277
 42
-0.2416274379
  0
VERTEX
  8
LAYER_8
 10
168.2814
 20
41.5719
 42
-0.1426378456
  0
SEQEND
  0
POLYLINE
  8
LAYER_8
 40
0.05
 41
0.05
 66
1
 10
0
 20
0
 30
0
 70
1
  0
VERTEX
  8
LAYER_8
 10
167.639
 20
37.9567
  0
VERTEX
  8
LAYER_8
 10
167.639
 20
40.6607
  0
VERTEX
  8
LAYER_8
 10
168.2537
 20
40.6607
  0
VERTEX
  8
LAYER_8
 10
168.2537
 20
37.9567
  0
SEQEND
  0
ENDBLK
  0
BLOCK
  8
LAYER_8
  2
AIGNBL0804000C
 70
64
 10
0
 20
0
 30
0
  3
AIGNBL0804000C
  0
POLYLINE
  8
LAYER_8
 40
0.05
 41
0.05
 66
1
 10
0
 20
0
 30
0
 70
1
  0
VERTEX
  8
LAYER_8
 10
170.1254
 20
39.1418
  0
VERTEX
  8
LAYER_8
 10
169.6372
 20
37.9567
  0
VERTEX
  8
LAYER_8
 10
169.0081
 20
37.9567
  0
VERTEX
  8
LAYER_8
 10
170.6077
 20
41.7225
  0
VERTEX
  8
LAYER_8
 10
171.3415
 20
41.7225
  0
VERTEX
  8
LAYER_8
 10
172.9479
 20
37.9567
  0
VERTEX
  8
LAYER_8
 10
172.2982
 20
37.9567
  0
VERTEX
  8
LAYER_8
 10
171.7955
 20
39.1418
  0
SEQEND
  0
POLYLINE
  8
LAYER_8
 40
0.05
 41
0.05
 66
1
 10
0
 20
0
 30
0
 70
1
  0
VERTEX
  8
LAYER_8
 10
171.6695
 20
39.5207
  0
VERTEX
  8
LAYER_8
 10
171.2085
 20
40.6056
 42
-0.02430767271
  0
VERTEX
  8
LAYER_8
 10
170.9646
 20
41.2926
  0
VERTEX
  8
LAYER_8
 10
170.9498
 20
41.2926
 42
-0.02034719794
  0
VERTEX
  8
LAYER_8
 10
170.7128
 20
40.6101
  0
VERTEX
  8
LAYER_8
 10
170.2518
 20
39.5207
  0
SEQEND
  0
ENDBLK
  0
BLOCK
  8
LAYER_6
  2
AIGNBL06030028
 70
64
 10
0
 20
0
 30
0
  3
AIGNBL06030028
  0
INSERT
  8
LAYER_6
  2
AIGNBL06040029
 10
0
 20
0
 30
0
  0
ENDBLK
  0
BLOCK
  8
LAYER_6
  2
AIGNBL0603002C
 70
64
 10
0
 20
0
 30
0
  3
AIGNBL0603002C
  0
INSERT
  8
LAYER_6
  2
AIGNBL0604002D
 10
0
 20
0
 30
0
  0
ENDBLK
  0
BLOCK
  8
LAYER_8
  2
AIGNBL08030005
 70
64
 10
0
 20
0
 30
0
  3
AIGNBL08030005
  0
INSERT
  8
LAYER_8
  2
AIGNBL08040006
 10
0
 20
0
 30
0
  0
INSERT
  8
LAYER_8
  2
AIGNBL08040007
 10
0
 20
0
 30
0
  0
INSERT
  8
LAYER_8
  2
AIGNBL08040008
 10
0
 20
0
 30
0
  0
INSERT
  8
LAYER_8
  2
AIGNBL08040009
 10
0
 20
0
 30
0
  0
INSERT
  8
LAYER_8
  2
AIGNBL0804000A
 10
0
 20
0
 30
0
  0
INSERT
  8
LAYER_8
  2
AIGNBL0804000B
 10
0
 20
0
 30
0
  0
INSERT
  8
LAYER_8
  2
AIGNBL0804000C
 10
0
 20
0
 30
0
  0
ENDBLK
  0
BLOCK
  8
LAYER_8
  2
AIGNBL0803000E
 70
64
 10
0
 20
0
 30
0
  3
AIGNBL0803000E
  0
POLYLINE
  8
LAYER_8
 40
0.05
 41
0.05
 66
1
 10
0
 20
0
 30
0
 70
1
  0
VERTEX
  8
LAYER_8
 10
145.7475
 20
36.0574
  0
VERTEX
  8
LAYER_8
 10
146.3008
 20
36.0574
  0
VERTEX
  8
LAYER_8
 10
146.3008
 20
35.9637
  0
VERTEX
  8
LAYER_8
 10
145.6424
 20
35.9637
  0
VERTEX
  8
LAYER_8
 10
145.6424
 20
36.9969
  0
VERTEX
  8
LAYER_8
 10
146.2832
 20
36.9969
  0
VERTEX
  8
LAYER_8
 10
146.2832
 20
36.9035
  0
VERTEX
  8
LAYER_8
 10
145.7475
 20
36.9035
  0
VERTEX
  8
LAYER_8
 10
145.7475
 20
36.549
  0
VERTEX
  8
LAYER_8
 10
146.2481
 20
36.549
  0
VERTEX
  8
LAYER_8
 10
146.2481
 20
36.4557
  0
VERTEX
  8
LAYER_8
 10
145.7475
 20
36.4557
  0
SEQEND
  0
ENDBLK
  0
BLOCK
  8
LAYER_8
  2
AIGNBL0803000F
 70
64
 10
0
 20
0
 30
0
  3
AIGNBL0803000F
  0
POLYLINE
  8
LAYER_8
 40
0.05
 41
0.05
 66
1
 10
0
 20
0
 30
0
 70
1
  0
VERTEX
  8
LAYER_8
 10
147.4404
 20
36.117
  0
VERTEX
  8
LAYER_8
 10
147.4432
 20
36.117
  0
VERTEX
  8
LAYER_8
 10
147.4432
 20
36.9969
  0
VERTEX
  8
LAYER_8
 10
147.5483
 20
36.9969
  0
VERTEX
  8
LAYER_8
 10
147.5483
 20
35.9637
  0
VERTEX
  8
LAYER_8
 10
147.4174
 20
35.9637
  0
VERTEX
  8
LAYER_8
 10
146.8162
 20
36.8525
  0
VERTEX
  8
LAYER_8
 10
146.8127
 20
36.8525
  0
VERTEX
  8
LAYER_8
 10
146.8127
 20
35.9637
  0
VERTEX
  8
LAYER_8
 10
146.708
 20
35.9637
  0
VERTEX
  8
LAYER_8
 10
146.708
 20
36.9969
  0
VERTEX
  8
LAYER_8
 10
146.8393
 20
36.9969
  0
SEQEND
  0
ENDBLK
  0
BLOCK
  8
LAYER_8
  2
AIGNBL08030010
 70
64
 10
0
 20
0
 30
0
  3
AIGNBL08030010
  0
POLYLINE
  8
LAYER_8
 40
0.05
 41
0.05
 66
1
 10
0
 20
0
 30
0
 70
1
  0
VERTEX
  8
LAYER_8
 10
148.0213
 20
36.1756
 42
0.1557655154
  0
VERTEX
  8
LAYER_8
 10
148.0757
 20
36.0725
 42
0.1918235184
  0
VERTEX
  8
LAYER_8
 10
148.1891
 20
36.0309
  0
VERTEX
  8
LAYER_8
 10
148.2783
 20
36.0505
  0
VERTEX
  8
LAYER_8
 10
148.3344
 20
36.1039
  0
VERTEX
  8
LAYER_8
 10
148.3634
 20
36.1804
  0
VERTEX
  8
LAYER_8
 10
148.3717
 20
36.27
  0
VERTEX
  8
LAYER_8
 10
148.3717
 20
36.9969
  0
VERTEX
  8
LAYER_8
 10
148.4767
 20
36.9969
  0
VERTEX
  8
LAYER_8
 10
148.4767
 20
36.2614
  0
VERTEX
  8
LAYER_8
 10
148.4654
 20
36.1535
 42
-0.0973308998
  0
VERTEX
  8
LAYER_8
 10
148.424
 20
36.0485
 42
-0.1149355521
  0
VERTEX
  8
LAYER_8
 10
148.3393
 20
35.9689
 42
-0.1249341208
  0
VERTEX
  8
LAYER_8
 10
148.2004
 20
35.9375
 42
-0.1793665557
  0
VERTEX
  8
LAYER_8
 10
148.0158
 20
35.9974
 42
-0.1772363953
  0
VERTEX
  8
LAYER_8
 10
147.9234
 20
36.149
  0
SEQEND
  0
ENDBLK
  0
BLOCK
  8
LAYER_8
  2
AIGNBL08030011
 70
64
 10
0
 20
0
 30
0
  3
AIGNBL08030011
  0
POLYLINE
  8
LAYER_8
 40
0.05
 41
0.05
 66
1
 10
0
 20
0
 30
0
 70
1
  0
VERTEX
  8
LAYER_8
 10
149.965
 20
36.4805
 42
-0.1019307791
  0
VERTEX
  8
LAYER_8
 10
149.924
 20
36.2631
 42
-0.1000112985
  0
VERTEX
  8
LAYER_8
 10
149.8113
 20
36.0915
 42
-0.09646612644
  0
VERTEX
  8
LAYER_8
 10
149.6405
 20
35.9785
 42
-0.09758594962
  0
VERTEX
  8
LAYER_8
 10
149.4265
 20
35.9375
 42
-0.1000844711
  0
VERTEX
  8
LAYER_8
 10
149.2129
 20
35.9785
 42
-0.09954994557
  0
VERTEX
  8
LAYER_8
 10
149.042
 20
36.0915
 42
-0.09699237735
  0
VERTEX
  8
LAYER_8
 10
148.9287
 20
36.2631
 42
-0.09653980076
  0
VERTEX
  8
LAYER_8
 10
148.8881
 20
36.4805
 42
-0.1004051845
  0
VERTEX
  8
LAYER_8
 10
148.9287
 20
36.6978
 42
-0.0998654539
  0
VERTEX
  8
LAYER_8
 10
149.042
 20
36.8694
 42
-0.09851519288
  0
VERTEX
  8
LAYER_8
 10
149.2129
 20
36.9824
 42
-0.09768823248
  0
VERTEX
  8
LAYER_8
 10
149.4265
 20
37.0234
 42
-0.1000514256
  0
VERTEX
  8
LAYER_8
 10
149.6405
 20
36.9824
 42
-0.09863053528
  0
VERTEX
  8
LAYER_8
 10
149.8113
 20
36.8694
 42
-0.09807107579
  0
VERTEX
  8
LAYER_8
 10
149.924
 20
36.6978
 42
-0.0978256893
  0
SEQEND
  0
POLYLINE
  8
LAYER_8
 40
0.05
 41
0.05
 66
1
 10
0
 20
0
 30
0
 70
1
  0
VERTEX
  8
LAYER_8
 10
149.8541
 20
36.4798
 42
0.08634913196
  0
VERTEX
  8
LAYER_8
 10
149.8251
 20
36.6517
 42
0.09649608129
  0
VERTEX
  8
LAYER_8
 10
149.7404
 20
36.795
 42
0.1032857511
  0
VERTEX
  8
LAYER_8
 10
149.6053
 20
36.8932
 42
0.1061320656
  0
VERTEX
  8
LAYER_8
 10
149.4265
 20
36.93
 42
0.1115874499
  0
VERTEX
  8
LAYER_8
 10
149.2478
 20
36.8932
 42
0.1058584166
  0
VERTEX
  8
LAYER_8
 10
149.113
 20
36.795
 42
0.09787799956
  0
VERTEX
  8
LAYER_8
 10
149.0283
 20
36.6517
 42
0.08491464556
  0
VERTEX
  8
LAYER_8
 10
148.999
 20
36.4798
 42
0.08693146424
  0
VERTEX
  8
LAYER_8
 10
149.0283
 20
36.3079
 42
0.1009797617
  0
VERTEX
  8
LAYER_8
 10
149.113
 20
36.1649
 42
0.09998489394
  0
VERTEX
  8
LAYER_8
 10
149.2478
 20
36.0674
 42
0.1061678446
  0
VERTEX
  8
LAYER_8
 10
149.4265
 20
36.0309
 42
0.1126980581
  0
VERTEX
  8
LAYER_8
 10
149.6053
 20
36.0674
 42
0.1036982708
  0
VERTEX
  8
LAYER_8
 10
149.7404
 20
36.1649
 42
0.09370250368
  0
VERTEX
  8
LAYER_8
 10
149.8251
 20
36.3079
 42
0.08466662837
  0
SEQEND
  0
ENDBLK
  0
BLOCK
  8
LAYER_8
  2
AIGNBL08030012
 70
64
 10
0
 20
0
 30
0
  3
AIGNBL08030012
  0
POLYLINE
  8
LAYER_8
 40
0.05
 41
0.05
 66
1
 10
0
 20
0
 30
0
 70
1
  0
VERTEX
  8
LAYER_8
 10
150.7398
 20
35.9637
  0
VERTEX
  8
LAYER_8
 10
150.6351
 20
35.9637
  0
VERTEX
  8
LAYER_8
 10
150.6351
 20
36.4091
  0
VERTEX
  8
LAYER_8
 10
150.2482
 20
36.9969
  0
VERTEX
  8
LAYER_8
 10
150.3795
 20
36.9969
  0
VERTEX
  8
LAYER_8
 10
150.6905
 20
36.4967
  0
VERTEX
  8
LAYER_8
 10
151.0041
 20
36.9969
  0
VERTEX
  8
LAYER_8
 10
151.1263
 20
36.9969
  0
VERTEX
  8
LAYER_8
 10
150.7398
 20
36.4091
  0
SEQEND
  0
ENDBLK
  0
BLOCK
  8
LAYER_8
  2
AIGNBL08030013
 70
64
 10
0
 20
0
 30
0
  3
AIGNBL08030013
  0
POLYLINE
  8
LAYER_8
 40
0.05
 41
0.05
 66
1
 10
0
 20
0
 30
0
 70
1
  0
VERTEX
  8
LAYER_8
 10
152.0314
 20
36.9969
  0
VERTEX
  8
LAYER_8
 10
152.339
 20
36.9969
  0
VERTEX
  8
LAYER_8
 10
152.4575
 20
36.9845
  0
VERTEX
  8
LAYER_8
 10
152.5643
 20
36.9421
 42
-0.1168262011
  0
VERTEX
  8
LAYER_8
 10
152.6422
 20
36.8611
 42
-0.1230288266
  0
VERTEX
  8
LAYER_8
 10
152.6718
 20
36.733
 42
-0.1795449175
  0
VERTEX
  8
LAYER_8
 10
152.6219
 20
36.5907
 42
-0.170141964
  0
VERTEX
  8
LAYER_8
 10
152.4885
 20
36.5111
  0
VERTEX
  8
LAYER_8
 10
152.4885
 20
36.5084
 42
-0.1719890535
  0
VERTEX
  8
LAYER_8
 10
152.6553
 20
36.4302
 42
-0.2018462152
  0
VERTEX
  8
LAYER_8
 10
152.7214
 20
36.2496
 42
-0.1247085485
  0
VERTEX
  8
LAYER_8
 10
152.6942
 20
36.1325
 42
-0.1153486961
  0
VERTEX
  8
LAYER_8
 10
152.6181
 20
36.0419
 42
-0.08656795839
  0
VERTEX
  8
LAYER_8
 10
152.4972
 20
35.9844
 42
-0.06557363107
  0
VERTEX
  8
LAYER_8
 10
152.3373
 20
35.9637
  0
VERTEX
  8
LAYER_8
 10
152.0314
 20
35.9637
  0
SEQEND
  0
POLYLINE
  8
LAYER_8
 40
0.05
 41
0.05
 66
1
 10
0
 20
0
 30
0
 70
1
  0
VERTEX
  8
LAYER_8
 10
152.1364
 20
36.5445
  0
VERTEX
  8
LAYER_8
 10
152.348
 20
36.5445
  0
VERTEX
  8
LAYER_8
 10
152.4248
 20
36.5535
  0
VERTEX
  8
LAYER_8
 10
152.4951
 20
36.5831
  0
VERTEX
  8
LAYER_8
 10
152.5471
 20
36.6396
 42
0.1162126025
  0
VERTEX
  8
LAYER_8
 10
152.5668
 20
36.7258
  0
VERTEX
  8
LAYER_8
 10
152.5471
 20
36.8095
  0
VERTEX
  8
LAYER_8
 10
152.494
 20
36.8656
  0
VERTEX
  8
LAYER_8
 10
152.4152
 20
36.897
  0
VERTEX
  8
LAYER_8
 10
152.3187
 20
36.9066
  0
VERTEX
  8
LAYER_8
 10
152.1364
 20
36.9066
  0
SEQEND
  0
POLYLINE
  8
LAYER_8
 40
0.05
 41
0.05
 66
1
 10
0
 20
0
 30
0
 70
1
  0
VERTEX
  8
LAYER_8
 10
152.1364
 20
36.0543
  0
VERTEX
  8
LAYER_8
 10
152.3321
 20
36.0543
  0
VERTEX
  8
LAYER_8
 10
152.4406
 20
36.0653
  0
VERTEX
  8
LAYER_8
 10
152.5313
 20
36.1001
 42
0.1172546835
  0
VERTEX
  8
LAYER_8
 10
152.5929
 20
36.1632
 42
0.1286243504
  0
VERTEX
  8
LAYER_8
 10
152.6164
 20
36.2559
 42
0.2498669706
  0
VERTEX
  8
LAYER_8
 10
152.5471
 20
36.4081
 42
0.1538083763
  0
VERTEX
  8
LAYER_8
 10
152.3511
 20
36.4584
  0
VERTEX
  8
LAYER_8
 10
152.1364
 20
36.4584
  0
SEQEND
  0
ENDBLK
  0
BLOCK
  8
LAYER_8
  2
AIGNBL08030014
 70
64
 10
0
 20
0
 30
0
  3
AIGNBL08030014
  0
POLYLINE
  8
LAYER_8
 40
0.05
 41
0.05
 66
1
 10
0
 20
0
 30
0
 70
1
  0
VERTEX
  8
LAYER_8
 10
153.1534
 20
35.9637
  0
VERTEX
  8
LAYER_8
 10
153.038
 20
35.9637
  0
VERTEX
  8
LAYER_8
 10
153.4849
 20
36.9969
  0
VERTEX
  8
LAYER_8
 10
153.5872
 20
36.9969
  0
VERTEX
  8
LAYER_8
 10
154.0306
 20
35.9637
  0
VERTEX
  8
LAYER_8
 10
153.9138
 20
35.9637
  0
VERTEX
  8
LAYER_8
 10
153.7997
 20
36.2352
  0
VERTEX
  8
LAYER_8
 10
153.2657
 20
36.2352
  0
SEQEND
  0
POLYLINE
  8
LAYER_8
 40
0.05
 41
0.05
 66
1
 10
0
 20
0
 30
0
 70
1
  0
VERTEX
  8
LAYER_8
 10
153.305
 20
36.3316
  0
VERTEX
  8
LAYER_8
 10
153.7604
 20
36.3316
  0
VERTEX
  8
LAYER_8
 10
153.5327
 20
36.8804
  0
SEQEND
  0
ENDBLK
  0
BLOCK
  8
LAYER_8
  2
AIGNBL08030015
 70
64
 10
0
 20
0
 30
0
  3
AIGNBL08030015
  0
POLYLINE
  8
LAYER_8
 40
0.05
 41
0.05
 66
1
 10
0
 20
0
 30
0
 70
1
  0
VERTEX
  8
LAYER_8
 10
154.7151
 20
35.9637
  0
VERTEX
  8
LAYER_8
 10
154.61
 20
35.9637
  0
VERTEX
  8
LAYER_8
 10
154.61
 20
36.9035
  0
VERTEX
  8
LAYER_8
 10
154.2638
 20
36.9035
  0
VERTEX
  8
LAYER_8
 10
154.2638
 20
36.9969
  0
VERTEX
  8
LAYER_8
 10
155.0606
 20
36.9969
  0
VERTEX
  8
LAYER_8
 10
155.0606
 20
36.9035
  0
VERTEX
  8
LAYER_8
 10
154.7151
 20
36.9035
  0
SEQEND
  0
ENDBLK
  0
BLOCK
  8
LAYER_8
  2
AIGNBL08030016
 70
64
 10
0
 20
0
 30
0
  3
AIGNBL08030016
  0
POLYLINE
  8
LAYER_8
 40
0.05
 41
0.05
 66
1
 10
0
 20
0
 30
0
 70
1
  0
VERTEX
  8
LAYER_8
 10
155.4169
 20
36.9969
  0
VERTEX
  8
LAYER_8
 10
155.5216
 20
36.9969
  0
VERTEX
  8
LAYER_8
 10
155.5216
 20
36.549
  0
VERTEX
  8
LAYER_8
 10
156.0852
 20
36.549
  0
VERTEX
  8
LAYER_8
 10
156.0852
 20
36.9969
  0
VERTEX
  8
LAYER_8
 10
156.1903
 20
36.9969
  0
VERTEX
  8
LAYER_8
 10
156.1903
 20
35.9637
  0
VERTEX
  8
LAYER_8
 10
156.0852
 20
35.9637
  0
VERTEX
  8
LAYER_8
 10
156.0852
 20
36.4529
  0
VERTEX
  8
LAYER_8
 10
155.5216
 20
36.4529
  0
VERTEX
  8
LAYER_8
 10
155.5216
 20
35.9637
  0
VERTEX
  8
LAYER_8
 10
155.4169
 20
35.9637
  0
SEQEND
  0
ENDBLK
  0
BLOCK
  8
LAYER_8
  2
AIGNBL08030017
 70
64
 10
0
 20
0
 30
0
  3
AIGNBL08030017
  0
POLYLINE
  8
LAYER_8
 40
0.05
 41
0.05
 66
1
 10
0
 20
0
 30
0
 70
1
  0
VERTEX
  8
LAYER_8
 10
156.7708
 20
35.9637
  0
VERTEX
  8
LAYER_8
 10
156.6657
 20
35.9637
  0
VERTEX
  8
LAYER_8
 10
156.6657
 20
36.9969
  0
VERTEX
  8
LAYER_8
 10
156.9696
 20
36.9969
  0
VERTEX
  8
LAYER_8
 10
157.1101
 20
36.9824
 42
-0.1032885834
  0
VERTEX
  8
LAYER_8
 10
157.2228
 20
36.9349
 42
-0.1280591957
  0
VERTEX
  8
LAYER_8
 10
157.2962
 20
36.8494
 42
-0.1078860225
  0
VERTEX
  8
LAYER_8
 10
157.3223
 20
36.7213
  0
VERTEX
  8
LAYER_8
 10
157.3024
 20
36.6176
  0
VERTEX
  8
LAYER_8
 10
157.2469
 20
36.5366
  0
VERTEX
  8
LAYER_8
 10
157.1635
 20
36.4818
  0
VERTEX
  8
LAYER_8
 10
157.0585
 20
36.4557
  0
VERTEX
  8
LAYER_8
 10
157.3606
 20
35.9637
  0
VERTEX
  8
LAYER_8
 10
157.2321
 20
35.9637
  0
VERTEX
  8
LAYER_8
 10
156.9461
 20
36.4467
  0
VERTEX
  8
LAYER_8
 10
156.7708
 20
36.4467
  0
SEQEND
  0
POLYLINE
  8
LAYER_8
 40
0.05
 41
0.05
 66
1
 10
0
 20
0
 30
0
 70
1
  0
VERTEX
  8
LAYER_8
 10
156.7708
 20
36.5373
  0
VERTEX
  8
LAYER_8
 10
156.9534
 20
36.5373
 42
0.153451873
  0
VERTEX
  8
LAYER_8
 10
157.1491
 20
36.5831
 42
0.2580279849
  0
VERTEX
  8
LAYER_8
 10
157.2176
 20
36.7213
  0
VERTEX
  8
LAYER_8
 10
157.1983
 20
36.8071
  0
VERTEX
  8
LAYER_8
 10
157.146
 20
36.8643
  0
VERTEX
  8
LAYER_8
 10
157.0643
 20
36.8963
  0
VERTEX
  8
LAYER_8
 10
156.9578
 20
36.9066
  0
VERTEX
  8
LAYER_8
 10
156.7708
 20
36.9066
  0
SEQEND
  0
ENDBLK
  0
BLOCK
  8
LAYER_8
  2
AIGNBL08030018
 70
64
 10
0
 20
0
 30
0
  3
AIGNBL08030018
  0
POLYLINE
  8
LAYER_8
 40
0.05
 41
0.05
 66
1
 10
0
 20
0
 30
0
 70
1
  0
VERTEX
  8
LAYER_8
 10
158.7627
 20
36.4805
 42
-0.09904480664
  0
VERTEX
  8
LAYER_8
 10
158.7221
 20
36.2631
 42
-0.09984043552
  0
VERTEX
  8
LAYER_8
 10
158.6087
 20
36.0915
 42
-0.09841590082
  0
VERTEX
  8
LAYER_8
 10
158.4382
 20
35.9785
 42
-0.09758412454
  0
VERTEX
  8
LAYER_8
 10
158.2243
 20
35.9375
 42
-0.09999517154
  0
VERTEX
  8
LAYER_8
 10
158.0103
 20
35.9785
 42
-0.09953435427
  0
VERTEX
  8
LAYER_8
 10
157.8398
 20
36.0915
 42
-0.09853706159
  0
VERTEX
  8
LAYER_8
 10
157.7268
 20
36.2631
 42
-0.09653980076
  0
VERTEX
  8
LAYER_8
 10
157.6862
 20
36.4805
 42
-0.1004051845
  0
VERTEX
  8
LAYER_8
 10
157.7268
 20
36.6978
 42
-0.1008040346
  0
VERTEX
  8
LAYER_8
 10
157.8398
 20
36.8694
 42
-0.09763764092
  0
VERTEX
  8
LAYER_8
 10
158.0103
 20
36.9824
 42
-0.09752919603
  0
VERTEX
  8
LAYER_8
 10
158.2243
 20
37.0234
 42
-0.1000174927
  0
VERTEX
  8
LAYER_8
 10
158.4382
 20
36.9824
 42
-0.1009762109
  0
VERTEX
  8
LAYER_8
 10
158.6087
 20
36.8694
 42
-0.09735230618
  0
VERTEX
  8
LAYER_8
 10
158.7221
 20
36.6978
 42
-0.09580191209
  0
SEQEND
  0
POLYLINE
  8
LAYER_8
 40
0.05
 41
0.05
 66
1
 10
0
 20
0
 30
0
 70
1
  0
VERTEX
  8
LAYER_8
 10
158.6518
 20
36.4798
 42
0.08852014676
  0
VERTEX
  8
LAYER_8
 10
158.6225
 20
36.6517
 42
0.09973444611
  0
VERTEX
  8
LAYER_8
 10
158.5378
 20
36.795
 42
0.1024799068
  0
VERTEX
  8
LAYER_8
 10
158.4031
 20
36.8932
 42
0.1060321998
  0
VERTEX
  8
LAYER_8
 10
158.2243
 20
36.93
 42
0.1116325688
  0
VERTEX
  8
LAYER_8
 10
158.0455
 20
36.8932
 42
0.1060506217
  0
VERTEX
  8
LAYER_8
 10
157.9104
 20
36.795
 42
0.09526104957
  0
VERTEX
  8
LAYER_8
 10
157.8257
 20
36.6517
 42
0.08422602157
  0
VERTEX
  8
LAYER_8
 10
157.7968
 20
36.4798
 42
0.0876992245
  0
VERTEX
  8
LAYER_8
 10
157.8257
 20
36.3079
 42
0.09826867926
  0
VERTEX
  8
LAYER_8
 10
157.9104
 20
36.1649
 42
0.09965756504
  0
VERTEX
  8
LAYER_8
 10
158.0455
 20
36.0674
 42
0.1061654103
  0
VERTEX
  8
LAYER_8
 10
158.2243
 20
36.0309
 42
0.1124388132
  0
VERTEX
  8
LAYER_8
 10
158.4031
 20
36.0674
 42
0.1029122982
  0
VERTEX
  8
LAYER_8
 10
158.5378
 20
36.1649
 42
0.09882210045
  0
VERTEX
  8
LAYER_8
 10
158.6225
 20
36.3079
 42
0.08589740831
  0
SEQEND
  0
ENDBLK
  0
BLOCK
  8
LAYER_8
  2
AIGNBL08030019
 70
64
 10
0
 20
0
 30
0
  3
AIGNBL08030019
  0
POLYLINE
  8
LAYER_8
 40
0.05
 41
0.05
 66
1
 10
0
 20
0
 30
0
 70
1
  0
VERTEX
  8
LAYER_8
 10
160.2045
 20
36.4805
 42
-0.1019307791
  0
VERTEX
  8
LAYER_8
 10
160.1635
 20
36.2631
 42
-0.09929652324
  0
VERTEX
  8
LAYER_8
 10
160.0509
 20
36.0915
 42
-0.09710469009
  0
VERTEX
  8
LAYER_8
 10
159.88
 20
35.9785
 42
-0.09758412454
  0
VERTEX
  8
LAYER_8
 10
159.6661
 20
35.9375
 42
-0.1005051182
  0
VERTEX
  8
LAYER_8
 10
159.4524
 20
35.9785
 42
-0.1009789173
  0
VERTEX
  8
LAYER_8
 10
159.2816
 20
36.0915
 42
-0.09724598852
  0
VERTEX
  8
LAYER_8
 10
159.1682
 20
36.2631
 42
-0.09653980076
  0
VERTEX
  8
LAYER_8
 10
159.1276
 20
36.4805
 42
-0.1004051845
  0
VERTEX
  8
LAYER_8
 10
159.1682
 20
36.6978
 42
-0.1001669327
  0
VERTEX
  8
LAYER_8
 10
159.2816
 20
36.8694
 42
-0.09846843416
  0
VERTEX
  8
LAYER_8
 10
159.4524
 20
36.9824
 42
-0.09783444074
  0
VERTEX
  8
LAYER_8
 10
159.6661
 20
37.0234
 42
-0.1000174927
  0
VERTEX
  8
LAYER_8
 10
159.88
 20
36.9824
 42
-0.098457988
  0
VERTEX
  8
LAYER_8
 10
160.0509
 20
36.8694
 42
-0.09762598086
  0
VERTEX
  8
LAYER_8
 10
160.1635
 20
36.6978
 42
-0.0978256893
  0
SEQEND
  0
POLYLINE
  8
LAYER_8
 40
0.05
 41
0.05
 66
1
 10
0
 20
0
 30
0
 70
1
  0
VERTEX
  8
LAYER_8
 10
160.0936
 20
36.4798
 42
0.08653869446
  0
VERTEX
  8
LAYER_8
 10
160.0647
 20
36.6517
 42
0.09689814906
  0
VERTEX
  8
LAYER_8
 10
159.9799
 20
36.795
 42
0.1032857511
  0
VERTEX
  8
LAYER_8
 10
159.8448
 20
36.8932
 42
0.1061350344
  0
VERTEX
  8
LAYER_8
 10
159.6661
 20
36.93
 42
0.1114208933
  0
VERTEX
  8
LAYER_8
 10
159.4872
 20
36.8932
 42
0.1056595975
  0
VERTEX
  8
LAYER_8
 10
159.3525
 20
36.795
 42
0.09787799956
  0
VERTEX
  8
LAYER_8
 10
159.2678
 20
36.6517
 42
0.08491464556
  0
VERTEX
  8
LAYER_8
 10
159.2385
 20
36.4798
 42
0.08693146424
  0
VERTEX
  8
LAYER_8
 10
159.2678
 20
36.3079
 42
0.1009797617
  0
VERTEX
  8
LAYER_8
 10
159.3525
 20
36.1649
 42
0.09978391674
  0
VERTEX
  8
LAYER_8
 10
159.4872
 20
36.0674
 42
0.1060616244
  0
VERTEX
  8
LAYER_8
 10
159.6661
 20
36.0309
 42
0.1126531325
  0
VERTEX
  8
LAYER_8
 10
159.8448
 20
36.0674
 42
0.1036982708
  0
VERTEX
  8
LAYER_8
 10
159.9799
 20
36.1649
 42
0.09401062747
  0
VERTEX
  8
LAYER_8
 10
160.0647
 20
36.3079
 42
0.0844927763
  0
SEQEND
  0
ENDBLK
  0
BLOCK
  8
LAYER_8
  2
AIGNBL0803001A
 70
64
 10
0
 20
0
 30
0
  3
AIGNBL0803001A
  0
POLYLINE
  8
LAYER_8
 40
0.05
 41
0.05
 66
1
 10
0
 20
0
 30
0
 70
1
  0
VERTEX
  8
LAYER_8
 10
161.1354
 20
36.1418
  0
VERTEX
  8
LAYER_8
 10
161.1371
 20
36.1418
  0
VERTEX
  8
LAYER_8
 10
161.4826
 20
36.9969
  0
VERTEX
  8
LAYER_8
 10
161.6435
 20
36.9969
  0
VERTEX
  8
LAYER_8
 10
161.6435
 20
35.9637
  0
VERTEX
  8
LAYER_8
 10
161.5381
 20
35.9637
  0
VERTEX
  8
LAYER_8
 10
161.5381
 20
36.8611
  0
VERTEX
  8
LAYER_8
 10
161.5354
 20
36.8611
  0
VERTEX
  8
LAYER_8
 10
161.1619
 20
35.9637
  0
VERTEX
  8
LAYER_8
 10
161.1064
 20
35.9637
  0
VERTEX
  8
LAYER_8
 10
160.7326
 20
36.8611
  0
VERTEX
  8
LAYER_8
 10
160.7299
 20
36.8611
  0
VERTEX
  8
LAYER_8
 10
160.7299
 20
35.9637
  0
VERTEX
  8
LAYER_8
 10
160.6248
 20
35.9637
  0
VERTEX
  8
LAYER_8
 10
160.6248
 20
36.9969
  0
VERTEX
  8
LAYER_8
 10
160.7853
 20
36.9969
  0
SEQEND
  0
ENDBLK
  0
BLOCK
  8
LAYER_8
  2
AIGNBL0803001B
 70
64
 10
0
 20
0
 30
0
  3
AIGNBL0803001B
  0
POLYLINE
  8
LAYER_8
 40
0.05
 41
0.05
 66
1
 10
0
 20
0
 30
0
 70
1
  0
VERTEX
  8
LAYER_8
 10
162.79
 20
36.0574
  0
VERTEX
  8
LAYER_8
 10
163.3433
 20
36.0574
  0
VERTEX
  8
LAYER_8
 10
163.3433
 20
35.9637
  0
VERTEX
  8
LAYER_8
 10
162.685
 20
35.9637
  0
VERTEX
  8
LAYER_8
 10
162.685
 20
36.9969
  0
VERTEX
  8
LAYER_8
 10
163.3258
 20
36.9969
  0
VERTEX
  8
LAYER_8
 10
163.3258
 20
36.9035
  0
VERTEX
  8
LAYER_8
 10
162.79
 20
36.9035
  0
VERTEX
  8
LAYER_8
 10
162.79
 20
36.549
  0
VERTEX
  8
LAYER_8
 10
163.2906
 20
36.549
  0
VERTEX
  8
LAYER_8
 10
163.2906
 20
36.4557
  0
VERTEX
  8
LAYER_8
 10
162.79
 20
36.4557
  0
SEQEND
  0
ENDBLK
  0
BLOCK
  8
LAYER_8
  2
AIGNBL0803001C
 70
64
 10
0
 20
0
 30
0
  3
AIGNBL0803001C
  0
POLYLINE
  8
LAYER_8
 40
0.05
 41
0.05
 66
1
 10
0
 20
0
 30
0
 70
1
  0
VERTEX
  8
LAYER_8
 10
164.0885
 20
36.5797
  0
VERTEX
  8
LAYER_8
 10
164.3707
 20
36.9969
  0
VERTEX
  8
LAYER_8
 10
164.4957
 20
36.9969
  0
VERTEX
  8
LAYER_8
 10
164.1533
 20
36.5053
  0
VERTEX
  8
LAYER_8
 10
164.5326
 20
35.9637
  0
VERTEX
  8
LAYER_8
 10
164.4013
 20
35.9637
  0
VERTEX
  8
LAYER_8
 10
164.0858
 20
36.4295
  0
VERTEX
  8
LAYER_8
 10
163.7722
 20
35.9637
  0
VERTEX
  8
LAYER_8
 10
163.6407
 20
35.9637
  0
VERTEX
  8
LAYER_8
 10
164.0203
 20
36.5066
  0
VERTEX
  8
LAYER_8
 10
163.6744
 20
36.9969
  0
VERTEX
  8
LAYER_8
 10
163.806
 20
36.9969
  0
SEQEND
  0
ENDBLK
  0
BLOCK
  8
LAYER_8
  2
AIGNBL0803001D
 70
64
 10
0
 20
0
 30
0
  3
AIGNBL0803001D
  0
POLYLINE
  8
LAYER_8
 40
0.05
 41
0.05
 66
1
 10
0
 20
0
 30
0
 70
1
  0
VERTEX
  8
LAYER_8
 10
164.8988
 20
36.9969
  0
VERTEX
  8
LAYER_8
 10
165.1909
 20
36.9969
  0
VERTEX
  8
LAYER_8
 10
165.3339
 20
36.9804
 42
-0.104160294
  0
VERTEX
  8
LAYER_8
 10
165.4438
 20
36.929
 42
-0.1209616443
  0
VERTEX
  8
LAYER_8
 10
165.5148
 20
36.8429
 42
-0.1032545831
  0
VERTEX
  8
LAYER_8
 10
165.5392
 20
36.7213
 42
-0.1239274235
  0
VERTEX
  8
LAYER_8
 10
165.5141
 20
36.5993
 42
-0.1163667494
  0
VERTEX
  8
LAYER_8
 10
165.4424
 20
36.5132
 42
-0.08715194998
  0
VERTEX
  8
LAYER_8
 10
165.3315
 20
36.4615
 42
-0.06075348808
  0
VERTEX
  8
LAYER_8
 10
165.1878
 20
36.444
  0
VERTEX
  8
LAYER_8
 10
165.0039
 20
36.444
  0
VERTEX
  8
LAYER_8
 10
165.0039
 20
35.9637
  0
VERTEX
  8
LAYER_8
 10
164.8988
 20
35.9637
  0
SEQEND
  0
POLYLINE
  8
LAYER_8
 40
0.05
 41
0.05
 66
1
 10
0
 20
0
 30
0
 70
1
  0
VERTEX
  8
LAYER_8
 10
165.0039
 20
36.5328
  0
VERTEX
  8
LAYER_8
 10
165.1816
 20
36.5328
 42
0.1694225951
  0
VERTEX
  8
LAYER_8
 10
165.3701
 20
36.581
 42
0.2442570363
  0
VERTEX
  8
LAYER_8
 10
165.4345
 20
36.7213
 42
0.2590967024
  0
VERTEX
  8
LAYER_8
 10
165.368
 20
36.8622
 42
0.143072224
  0
VERTEX
  8
LAYER_8
 10
165.1816
 20
36.9066
  0
VERTEX
  8
LAYER_8
 10
165.0039
 20
36.9066
  0
SEQEND
  0
ENDBLK
  0
BLOCK
  8
LAYER_8
  2
AIGNBL0803001E
 70
64
 10
0
 20
0
 30
0
  3
AIGNBL0803001E
  0
POLYLINE
  8
LAYER_8
 40
0.05
 41
0.05
 66
1
 10
0
 20
0
 30
0
 70
1
  0
VERTEX
  8
LAYER_8
 10
166.0515
 20
36.0574
  0
VERTEX
  8
LAYER_8
 10
166.6048
 20
36.0574
  0
VERTEX
  8
LAYER_8
 10
166.6048
 20
35.9637
  0
VERTEX
  8
LAYER_8
 10
165.9465
 20
35.9637
  0
VERTEX
  8
LAYER_8
 10
165.9465
 20
36.9969
  0
VERTEX
  8
LAYER_8
 10
166.5872
 20
36.9969
  0
VERTEX
  8
LAYER_8
 10
166.5872
 20
36.9035
  0
VERTEX
  8
LAYER_8
 10
166.0515
 20
36.9035
  0
VERTEX
  8
LAYER_8
 10
166.0515
 20
36.549
  0
VERTEX
  8
LAYER_8
 10
166.5521
 20
36.549
  0
VERTEX
  8
LAYER_8
 10
166.5521
 20
36.4557
  0
VERTEX
  8
LAYER_8
 10
166.0515
 20
36.4557
  0
SEQEND
  0
ENDBLK
  0
BLOCK
  8
LAYER_8
  2
AIGNBL0803001F
 70
64
 10
0
 20
0
 30
0
  3
AIGNBL0803001F
  0
POLYLINE
  8
LAYER_8
 40
0.05
 41
0.05
 66
1
 10
0
 20
0
 30
0
 70
1
  0
VERTEX
  8
LAYER_8
 10
167.1168
 20
35.9637
  0
VERTEX
  8
LAYER_8
 10
167.0117
 20
35.9637
  0
VERTEX
  8
LAYER_8
 10
167.0117
 20
36.9969
  0
VERTEX
  8
LAYER_8
 10
167.3155
 20
36.9969
  0
VERTEX
  8
LAYER_8
 10
167.4561
 20
36.9824
 42
-0.1039428931
  0
VERTEX
  8
LAYER_8
 10
167.5687
 20
36.9349
 42
-0.1259973384
  0
VERTEX
  8
LAYER_8
 10
167.6425
 20
36.8494
 42
-0.1064650891
  0
VERTEX
  8
LAYER_8
 10
167.6683
 20
36.7213
  0
VERTEX
  8
LAYER_8
 10
167.6483
 20
36.6176
  0
VERTEX
  8
LAYER_8
 10
167.5929
 20
36.5366
  0
VERTEX
  8
LAYER_8
 10
167.5095
 20
36.4818
  0
VERTEX
  8
LAYER_8
 10
167.4044
 20
36.4557
  0
VERTEX
  8
LAYER_8
 10
167.7066
 20
35.9637
  0
VERTEX
  8
LAYER_8
 10
167.578
 20
35.9637
  0
VERTEX
  8
LAYER_8
 10
167.2921
 20
36.4467
  0
VERTEX
  8
LAYER_8
 10
167.1168
 20
36.4467
  0
SEQEND
  0
POLYLINE
  8
LAYER_8
 40
0.05
 41
0.05
 66
1
 10
0
 20
0
 30
0
 70
1
  0
VERTEX
  8
LAYER_8
 10
167.1168
 20
36.5373
  0
VERTEX
  8
LAYER_8
 10
167.2994
 20
36.5373
 42
0.1542400453
  0
VERTEX
  8
LAYER_8
 10
167.495
 20
36.5831
 42
0.2583775622
  0
VERTEX
  8
LAYER_8
 10
167.5636
 20
36.7213
  0
VERTEX
  8
LAYER_8
 10
167.5446
 20
36.8071
  0
VERTEX
  8
LAYER_8
 10
167.4919
 20
36.8643
  0
VERTEX
  8
LAYER_8
 10
167.4103
 20
36.8963
  0
VERTEX
  8
LAYER_8
 10
167.3038
 20
36.9066
  0
VERTEX
  8
LAYER_8
 10
167.1168
 20
36.9066
  0
SEQEND
  0
ENDBLK
  0
BLOCK
  8
LAYER_8
  2
AIGNBL08030020
 70
64
 10
0
 20
0
 30
0
  3
AIGNBL08030020
  0
POLYLINE
  8
LAYER_8
 40
0.05
 41
0.05
 66
1
 10
0
 20
0
 30
0
 70
1
  0
VERTEX
  8
LAYER_8
 10
168.1923
 20
35.9637
  0
VERTEX
  8
LAYER_8
 10
168.0876
 20
35.9637
  0
VERTEX
  8
LAYER_8
 10
168.0876
 20
36.9969
  0
VERTEX
  8
LAYER_8
 10
168.1923
 20
36.9969
  0
SEQEND
  0
ENDBLK
  0
BLOCK
  8
LAYER_8
  2
AIGNBL08030021
 70
64
 10
0
 20
0
 30
0
  3
AIGNBL08030021
  0
POLYLINE
  8
LAYER_8
 40
0.05
 41
0.05
 66
1
 10
0
 20
0
 30
0
 70
1
  0
VERTEX
  8
LAYER_8
 10
168.7732
 20
36.0574
  0
VERTEX
  8
LAYER_8
 10
169.3261
 20
36.0574
  0
VERTEX
  8
LAYER_8
 10
169.3261
 20
35.9637
  0
VERTEX
  8
LAYER_8
 10
168.6681
 20
35.9637
  0
VERTEX
  8
LAYER_8
 10
168.6681
 20
36.9969
  0
VERTEX
  8
LAYER_8
 10
169.3089
 20
36.9969
  0
VERTEX
  8
LAYER_8
 10
169.3089
 20
36.9035
  0
VERTEX
  8
LAYER_8
 10
168.7732
 20
36.9035
  0
VERTEX
  8
LAYER_8
 10
168.7732
 20
36.549
  0
VERTEX
  8
LAYER_8
 10
169.2737
 20
36.549
  0
VERTEX
  8
LAYER_8
 10
169.2737
 20
36.4557
  0
VERTEX
  8
LAYER_8
 10
168.7732
 20
36.4557
  0
SEQEND
  0
ENDBLK
  0
BLOCK
  8
LAYER_8
  2
AIGNBL08030022
 70
64
 10
0
 20
0
 30
0
  3
AIGNBL08030022
  0
POLYLINE
  8
LAYER_8
 40
0.05
 41
0.05
 66
1
 10
0
 20
0
 30
0
 70
1
  0
VERTEX
  8
LAYER_8
 10
170.4661
 20
36.117
  0
VERTEX
  8
LAYER_8
 10
170.4689
 20
36.117
  0
VERTEX
  8
LAYER_8
 10
170.4689
 20
36.9969
  0
VERTEX
  8
LAYER_8
 10
170.5739
 20
36.9969
  0
VERTEX
  8
LAYER_8
 10
170.5739
 20
35.9637
  0
VERTEX
  8
LAYER_8
 10
170.4426
 20
35.9637
  0
VERTEX
  8
LAYER_8
 10
169.8415
 20
36.8525
  0
VERTEX
  8
LAYER_8
 10
169.8384
 20
36.8525
  0
VERTEX
  8
LAYER_8
 10
169.8384
 20
35.9637
  0
VERTEX
  8
LAYER_8
 10
169.7333
 20
35.9637
  0
VERTEX
  8
LAYER_8
 10
169.7333
 20
36.9969
  0
VERTEX
  8
LAYER_8
 10
169.8649
 20
36.9969
  0
SEQEND
  0
ENDBLK
  0
BLOCK
  8
LAYER_8
  2
AIGNBL08030023
 70
64
 10
0
 20
0
 30
0
  3
AIGNBL08030023
  0
POLYLINE
  8
LAYER_8
 40
0.05
 41
0.05
 66
1
 10
0
 20
0
 30
0
 70
1
  0
VERTEX
  8
LAYER_8
 10
171.9196
 20
36.1315
  0
VERTEX
  8
LAYER_8
 10
171.8558
 20
36.0571
  0
VERTEX
  8
LAYER_8
 10
171.7697
 20
35.9954
  0
VERTEX
  8
LAYER_8
 10
171.6615
 20
35.953
  0
VERTEX
  8
LAYER_8
 10
171.5327
 20
35.9375
 42
-0.0997799169
  0
VERTEX
  8
LAYER_8
 10
171.3167
 20
35.9785
 42
-0.102530266
  0
VERTEX
  8
LAYER_8
 10
171.1461
 20
36.0915
 42
-0.09968794278
  0
VERTEX
  8
LAYER_8
 10
171.0345
 20
36.2631
 42
-0.09630702324
  0
VERTEX
  8
LAYER_8
 10
170.9942
 20
36.4805
 42
-0.1018981748
  0
VERTEX
  8
LAYER_8
 10
171.0352
 20
36.6978
 42
-0.09989904409
  0
VERTEX
  8
LAYER_8
 10
171.1479
 20
36.8694
 42
-0.09694965588
  0
VERTEX
  8
LAYER_8
 10
171.3187
 20
36.9824
 42
-0.09744116728
  0
VERTEX
  8
LAYER_8
 10
171.5327
 20
37.0234
  0
VERTEX
  8
LAYER_8
 10
171.6443
 20
37.0114
  0
VERTEX
  8
LAYER_8
 10
171.7473
 20
36.9779
  0
VERTEX
  8
LAYER_8
 10
171.8348
 20
36.9263
  0
VERTEX
  8
LAYER_8
 10
171.9006
 20
36.8584
  0
VERTEX
  8
LAYER_8
 10
171.8131
 20
36.794
  0
VERTEX
  8
LAYER_8
 10
171.7697
 20
36.8439
  0
VERTEX
  8
LAYER_8
 10
171.7063
 20
36.8877
  0
VERTEX
  8
LAYER_8
 10
171.6267
 20
36.9183
  0
VERTEX
  8
LAYER_8
 10
171.5341
 20
36.93
 42
0.1106055686
  0
VERTEX
  8
LAYER_8
 10
171.3539
 20
36.8935
 42
0.1037389517
  0
VERTEX
  8
LAYER_8
 10
171.2188
 20
36.7954
 42
0.09534605581
  0
VERTEX
  8
LAYER_8
 10
171.1341
 20
36.652
 42
0.08447361069
  0
VERTEX
  8
LAYER_8
 10
171.1052
 20
36.4805
 42
0.09038739564
  0
VERTEX
  8
LAYER_8
 10
171.1351
 20
36.3089
 42
0.09795352863
  0
VERTEX
  8
LAYER_8
 10
171.2205
 20
36.1656
 42
0.1034747097
  0
VERTEX
  8
LAYER_8
 10
171.3556
 20
36.0674
 42
0.1064777274
  0
VERTEX
  8
LAYER_8
 10
171.5341
 20
36.0309
 42
0.1092499226
  0
VERTEX
  8
LAYER_8
 10
171.7032
 20
36.0674
 42
0.1370031249
  0
VERTEX
  8
LAYER_8
 10
171.8376
 20
36.1842
  0
SEQEND
  0
ENDBLK
  0
BLOCK
  8
LAYER_8
  2
AIGNBL08030024
 70
64
 10
0
 20
0
 30
0
  3
AIGNBL08030024
  0
POLYLINE
  8
LAYER_8
 40
0.05
 41
0.05
 66
1
 10
0
 20
0
 30
0
 70
1
  0
VERTEX
  8
LAYER_8
 10
172.4067
 20
36.0574
  0
VERTEX
  8
LAYER_8
 10
172.96
 20
36.0574
  0
VERTEX
  8
LAYER_8
 10
172.96
 20
35.9637
  0
VERTEX
  8
LAYER_8
 10
172.3016
 20
35.9637
  0
VERTEX
  8
LAYER_8
 10
172.3016
 20
36.9969
  0
VERTEX
  8
LAYER_8
 10
172.9424
 20
36.9969
  0
VERTEX
  8
LAYER_8
 10
172.9424
 20
36.9035
  0
VERTEX
  8
LAYER_8
 10
172.4067
 20
36.9035
  0
VERTEX
  8
LAYER_8
 10
172.4067
 20
36.549
  0
VERTEX
  8
LAYER_8
 10
172.9073
 20
36.549
  0
VERTEX
  8
LAYER_8
 10
172.9073
 20
36.4557
  0
VERTEX
  8
LAYER_8
 10
172.4067
 20
36.4557
  0
SEQEND
  0
ENDBLK
  0
BLOCK
  8
LAYER_6
  2
AIGNBL06020003
 70
64
 10
0
 20
0
 30
0
  3
AIGNBL06020003
  0
POLYLINE
  8
LAYER_6
 40
0.0882
 41
0.0882
 62
1
 66
1
 10
0
 20
0
 30
0
  0
VERTEX
  8
LAYER_6
 10
81.2917
 20
149.8384
  0
VERTEX
  8
LAYER_6
 10
81.2917
 20
149.662
  0
VERTEX
  8
LAYER_6
 10
81.1153
 20
149.662
  0
SEQEND
  0
POLYLINE
  8
LAYER_6
  6
AIGENLINE001
 40
0.0882
 41
0.0882
 62
1
 66
1
 10
0
 20
0
 30
0
 70
128
  0
VERTEX
  8
LAYER_6
 10
80.7654
 20
149.662
  0
VERTEX
  8
LAYER_6
 10
67.6432
 20
149.662
  0
SEQEND
  0
POLYLINE
  8
LAYER_6
 40
0.0882
 41
0.0882
 62
1
 66
1
 10
0
 20
0
 30
0
  0
VERTEX
  8
LAYER_6
 10
67.4682
 20
149.662
  0
VERTEX
  8
LAYER_6
 10
67.2918
 20
149.662
  0
VERTEX
  8
LAYER_6
 10
67.2918
 20
149.8384
  0
SEQEND
  0
POLYLINE
  8
LAYER_6
  6
AIGENLINE002
 40
0.0882
 41
0.0882
 62
1
 66
1
 10
0
 20
0
 30
0
 70
128
  0
VERTEX
  8
LAYER_6
 10
67.2918
 20
150.1872
  0
VERTEX
  8
LAYER_6
 10
67.2918
 20
179.3114
  0
SEQEND
  0
POLYLINE
  8
LAYER_6
 40
0.0882
 41
0.0882
 62
1
 66
1
 10
0
 20
0
 30
0
  0
VERTEX
  8
LAYER_6
 10
67.2918
 20
179.4857
  0
VERTEX
  8
LAYER_6
 10
67.2918
 20
179.6621
  0
VERTEX
  8
LAYER_6
 10
67.4682
 20
179.6621
  0
SEQEND
  0
POLYLINE
  8
LAYER_6
  6
AIGENLINE001
 40
0.0882
 41
0.0882
 62
1
 66
1
 10
0
 20
0
 30
0
 70
128
  0
VERTEX
  8
LAYER_6
 10
67.8181
 20
179.6621
  0
VERTEX
  8
LAYER_6
 10
80.9403
 20
179.6621
  0
SEQEND
  0
POLYLINE
  8
LAYER_6
 40
0.0882
 41
0.0882
 62
1
 66
1
 10
0
 20
0
 30
0
  0
VERTEX
  8
LAYER_6
 10
81.1153
 20
179.6621
  0
VERTEX
  8
LAYER_6
 10
81.2917
 20
179.6621
  0
VERTEX
  8
LAYER_6
 10
81.2917
 20
179.4857
  0
SEQEND
  0
POLYLINE
  8
LAYER_6
  6
AIGENLINE002
 40
0.0882
 41
0.0882
 62
1
 66
1
 10
0
 20
0
 30
0
 70
128
  0
VERTEX
  8
LAYER_6
 10
81.2917
 20
179.1369
  0
VERTEX
  8
LAYER_6
 10
81.2917
 20
150.0127
  0
SEQEND
  0
ENDBLK
  0
BLOCK
  8
LAYER_6
  2
AIGNBL06020006
 70
64
 10
0
 20
0
 30
0
  3
AIGNBL06020006
  0
POLYLINE
  8
LAYER_6
 40
0.1693
 41
0.1693
 66
1
 10
0
 20
0
 30
0
  0
VERTEX
  8
LAYER_6
 10
-147.0706
 20
231.2875
  0
VERTEX
  8
LAYER_6
 10
-146.9724
 20
231.5559
  0
VERTEX
  8
LAYER_6
 10
-146.6865
 20
231.5559
  0
SEQEND
  0
POLYLINE
  8
LAYER_6
  6
AIGENLINE003
 40
0.1693
 41
0.1693
 66
1
 10
0
 20
0
 30
0
 70
128
  0
VERTEX
  8
LAYER_6
 10
-146.1153
 20
231.5559
  0
VERTEX
  8
LAYER_6
 10
-102.9713
 20
231.5559
  0
SEQEND
  0
POLYLINE
  8
LAYER_6
 40
0.1693
 41
0.1693
 66
1
 10
0
 20
0
 30
0
  0
VERTEX
  8
LAYER_6
 10
-102.6854
 20
231.5559
  0
VERTEX
  8
LAYER_6
 10
-102.3998
 20
231.5559
  0
VERTEX
  8
LAYER_6
 10
-102.3016
 20
231.2875
  0
SEQEND
  0
POLYLINE
  8
LAYER_6
  6
AIGENLINE004
 40
0.1693
 41
0.1693
 66
1
 10
0
 20
0
 30
0
 70
128
  0
VERTEX
  8
LAYER_6
 10
-102.1073
 20
230.7473
 42
-0.01597581903
  0
VERTEX
  8
LAYER_6
 10
-100.3797
 20
225.3681
 42
-0.01529816463
  0
VERTEX
  8
LAYER_6
 10
-99.1184
 20
220.3834
 42
-0.02325344961
  0
VERTEX
  8
LAYER_6
 10
-97.8149
 20
212.813
 42
-0.01515205593
  0
VERTEX
  8
LAYER_6
 10
-97.3306
 20
207.6654
 42
-0.01091640327
  0
VERTEX
  8
LAYER_6
 10
-97.1657
 20
203.7331
 42
-0.3472591542
  0
VERTEX
  8
LAYER_6
 10
-101.6109
 20
197.8599
 42
-0.1279169254
  0
VERTEX
  8
LAYER_6
 10
-147.7614
 20
197.8599
 42
-0.3471373698
  0
VERTEX
  8
LAYER_6
 10
-152.2066
 20
203.7331
 42
-0.01595341638
  0
VERTEX
  8
LAYER_6
 10
-151.9091
 20
209.4492
 42
-0.01536104124
  0
VERTEX
  8
LAYER_6
 10
-151.3122
 20
214.6164
 42
-0.01565231793
  0
VERTEX
  8
LAYER_6
 10
-150.4001
 20
219.7064
 42
-0.01557445118
  0
VERTEX
  8
LAYER_6
 10
-149.1676
 20
224.7464
 42
-0.01513549849
  0
VERTEX
  8
LAYER_6
 10
-147.6092
 20
229.7635
 42
-0.003686144306
  0
VERTEX
  8
LAYER_6
 10
-147.1681
 20
231.0174
  0
SEQEND
  0
ENDBLK
  0
BLOCK
  8
LAYER_6
  2
AIGNBL06020008
 70
64
 10
0
 20
0
 30
0
  3
AIGNBL06020008
  0
POLYLINE
  8
LAYER_6
 40
0.1305
 41
0.1305
 66
1
 10
0
 20
0
 30
0
  0
VERTEX
  8
LAYER_6
 10
-136.8563
 20
229.6969
  0
VERTEX
  8
LAYER_6
 10
-136.8563
 20
229.5078
  0
VERTEX
  8
LAYER_6
 10
-137.0454
 20
229.5078
  0
SEQEND
  0
POLYLINE
  8
LAYER_6
  6
AIGENLINE005
 40
0.1305
 41
0.1305
 66
1
 10
0
 20
0
 30
0
 70
128
  0
VERTEX
  8
LAYER_6
 10
-137.4364
 20
229.5078
  0
VERTEX
  8
LAYER_6
 10
-140.3689
 20
229.5078
  0
SEQEND
  0
POLYLINE
  8
LAYER_6
 40
0.1305
 41
0.1305
 66
1
 10
0
 20
0
 30
0
  0
VERTEX
  8
LAYER_6
 10
-140.5646
 20
229.5078
  0
VERTEX
  8
LAYER_6
 10
-140.7537
 20
229.5078
  0
VERTEX
  8
LAYER_6
 10
-140.7537
 20
229.6969
  0
SEQEND
  0
POLYLINE
  8
LAYER_6
  6
AIGENLINE006
 40
0.1305
 41
0.1305
 66
1
 10
0
 20
0
 30
0
 70
128
  0
VERTEX
  8
LAYER_6
 10
-140.7537
 20
230.1155
  0
VERTEX
  8
LAYER_6
 10
-140.7537
 20
230.7434
  0
SEQEND
  0
POLYLINE
  8
LAYER_6
 40
0.1305
 41
0.1305
 66
1
 10
0
 20
0
 30
0
  0
VERTEX
  8
LAYER_6
 10
-140.7537
 20
230.9526
  0
VERTEX
  8
LAYER_6
 10
-140.7537
 20
231.1418
  0
VERTEX
  8
LAYER_6
 10
-140.5646
 20
231.1418
  0
SEQEND
  0
POLYLINE
  8
LAYER_6
  6
AIGENLINE005
 40
0.1305
 41
0.1305
 66
1
 10
0
 20
0
 30
0
 70
128
  0
VERTEX
  8
LAYER_6
 10
-140.1735
 20
231.1418
  0
VERTEX
  8
LAYER_6
 10
-137.2407
 20
231.1418
  0
SEQEND
  0
POLYLINE
  8
LAYER_6
 40
0.1305
 41
0.1305
 66
1
 10
0
 20
0
 30
0
  0
VERTEX
  8
LAYER_6
 10
-137.0454
 20
231.1418
  0
VERTEX
  8
LAYER_6
 10
-136.8563
 20
231.1418
  0
VERTEX
  8
LAYER_6
 10
-136.8563
 20
230.9526
  0
SEQEND
  0
POLYLINE
  8
LAYER_6
  6
AIGENLINE006
 40
0.1305
 41
0.1305
 66
1
 10
0
 20
0
 30
0
 70
128
  0
VERTEX
  8
LAYER_6
 10
-136.8563
 20
230.5341
  0
VERTEX
  8
LAYER_6
 10
-136.8563
 20
229.9062
  0
SEQEND
  0
ENDBLK
  0
BLOCK
  8
LAYER_6
  2
AIGNBL0602000A
 70
64
 10
0
 20
0
 30
0
  3
AIGNBL0602000A
  0
POLYLINE
  8
LAYER_6
 40
0.1305
 41
0.1305
 66
1
 10
0
 20
0
 30
0
  0
VERTEX
  8
LAYER_6
 10
-108.6195
 20
229.6969
  0
VERTEX
  8
LAYER_6
 10
-108.6195
 20
229.5078
  0
VERTEX
  8
LAYER_6
 10
-108.8087
 20
229.5078
  0
SEQEND
  0
POLYLINE
  8
LAYER_6
  6
AIGENLINE007
 40
0.1305
 41
0.1305
 66
1
 10
0
 20
0
 30
0
 70
128
  0
VERTEX
  8
LAYER_6
 10
-109.1994
 20
229.5078
  0
VERTEX
  8
LAYER_6
 10
-112.1305
 20
229.5078
  0
SEQEND
  0
POLYLINE
  8
LAYER_6
 40
0.1305
 41
0.1305
 66
1
 10
0
 20
0
 30
0
  0
VERTEX
  8
LAYER_6
 10
-112.3258
 20
229.5078
  0
VERTEX
  8
LAYER_6
 10
-112.5149
 20
229.5078
  0
VERTEX
  8
LAYER_6
 10
-112.5149
 20
229.6969
  0
SEQEND
  0
POLYLINE
  8
LAYER_6
  6
AIGENLINE006
 40
0.1305
 41
0.1305
 66
1
 10
0
 20
0
 30
0
 70
128
  0
VERTEX
  8
LAYER_6
 10
-112.5149
 20
230.1155
  0
VERTEX
  8
LAYER_6
 10
-112.5149
 20
230.7434
  0
SEQEND
  0
POLYLINE
  8
LAYER_6
 40
0.1305
 41
0.1305
 66
1
 10
0
 20
0
 30
0
  0
VERTEX
  8
LAYER_6
 10
-112.5149
 20
230.9526
  0
VERTEX
  8
LAYER_6
 10
-112.5149
 20
231.1418
  0
VERTEX
  8
LAYER_6
 10
-112.3258
 20
231.1418
  0
SEQEND
  0
POLYLINE
  8
LAYER_6
  6
AIGENLINE007
 40
0.1305
 41
0.1305
 66
1
 10
0
 20
0
 30
0
 70
128
  0
VERTEX
  8
LAYER_6
 10
-111.9351
 20
231.1418
  0
VERTEX
  8
LAYER_6
 10
-109.004
 20
231.1418
  0
SEQEND
  0
POLYLINE
  8
LAYER_6
 40
0.1305
 41
0.1305
 66
1
 10
0
 20
0
 30
0
  0
VERTEX
  8
LAYER_6
 10
-108.8087
 20
231.1418
  0
VERTEX
  8
LAYER_6
 10
-108.6195
 20
231.1418
  0
VERTEX
  8
LAYER_6
 10
-108.6195
 20
230.9526
  0
SEQEND
  0
POLYLINE
  8
LAYER_6
  6
AIGENLINE006
 40
0.1305
 41
0.1305
 66
1
 10
0
 20
0
 30
0
 70
128
  0
VERTEX
  8
LAYER_6
 10
-108.6195
 20
230.5341
  0
VERTEX
  8
LAYER_6
 10
-108.6195
 20
229.9062
  0
SEQEND
  0
ENDBLK
  0
BLOCK
  8
LAYER_6
  2
AIGNBL0602000C
 70
64
 10
0
 20
0
 30
0
  3
AIGNBL0602000C
  0
POLYLINE
  8
LAYER_6
 40
0.1305
 41
0.1305
 66
1
 10
0
 20
0
 30
0
  0
VERTEX
  8
LAYER_6
 10
-98.7118
 20
229.6969
  0
VERTEX
  8
LAYER_6
 10
-98.7118
 20
229.5078
  0
VERTEX
  8
LAYER_6
 10
-98.9009
 20
229.5078
  0
SEQEND
  0
POLYLINE
  8
LAYER_6
  6
AIGENLINE007
 40
0.1305
 41
0.1305
 66
1
 10
0
 20
0
 30
0
 70
128
  0
VERTEX
  8
LAYER_6
 10
-99.2916
 20
229.5078
  0
VERTEX
  8
LAYER_6
 10
-102.2227
 20
229.5078
  0
SEQEND
  0
POLYLINE
  8
LAYER_6
 40
0.1305
 41
0.1305
 66
1
 10
0
 20
0
 30
0
  0
VERTEX
  8
LAYER_6
 10
-102.418
 20
229.5078
  0
VERTEX
  8
LAYER_6
 10
-102.6072
 20
229.5078
  0
VERTEX
  8
LAYER_6
 10
-102.6072
 20
229.6969
  0
SEQEND
  0
POLYLINE
  8
LAYER_6
  6
AIGENLINE006
 40
0.1305
 41
0.1305
 66
1
 10
0
 20
0
 30
0
 70
128
  0
VERTEX
  8
LAYER_6
 10
-102.6072
 20
230.1155
  0
VERTEX
  8
LAYER_6
 10
-102.6072
 20
230.7434
  0
SEQEND
  0
POLYLINE
  8
LAYER_6
 40
0.1305
 41
0.1305
 66
1
 10
0
 20
0
 30
0
  0
VERTEX
  8
LAYER_6
 10
-102.6072
 20
230.9526
  0
VERTEX
  8
LAYER_6
 10
-102.6072
 20
231.1418
  0
VERTEX
  8
LAYER_6
 10
-102.418
 20
231.1418
  0
SEQEND
  0
POLYLINE
  8
LAYER_6
  6
AIGENLINE007
 40
0.1305
 41
0.1305
 66
1
 10
0
 20
0
 30
0
 70
128
  0
VERTEX
  8
LAYER_6
 10
-102.0274
 20
231.1418
  0
VERTEX
  8
LAYER_6
 10
-99.0963
 20
231.1418
  0
SEQEND
  0
POLYLINE
  8
LAYER_6
 40
0.1305
 41
0.1305
 66
1
 10
0
 20
0
 30
0
  0
VERTEX
  8
LAYER_6
 10
-98.9009
 20
231.1418
  0
VERTEX
  8
LAYER_6
 10
-98.7118
 20
231.1418
  0
VERTEX
  8
LAYER_6
 10
-98.7118
 20
230.9526
  0
SEQEND
  0
POLYLINE
  8
LAYER_6
  6
AIGENLINE006
 40
0.1305
 41
0.1305
 66
1
 10
0
 20
0
 30
0
 70
128
  0
VERTEX
  8
LAYER_6
 10
-98.7118
 20
230.5341
  0
VERTEX
  8
LAYER_6
 10
-98.7118
 20
229.9062
  0
SEQEND
  0
ENDBLK
  0
BLOCK
  8
LAYER_6
  2
AIGNBL0602000E
 70
64
 10
0
 20
0
 30
0
  3
AIGNBL0602000E
  0
POLYLINE
  8
LAYER_6
 40
0.1305
 41
0.1305
 66
1
 10
0
 20
0
 30
0
  0
VERTEX
  8
LAYER_6
 10
-146.765
 20
229.6969
  0
VERTEX
  8
LAYER_6
 10
-146.765
 20
229.5078
  0
VERTEX
  8
LAYER_6
 10
-146.9542
 20
229.5078
  0
SEQEND
  0
POLYLINE
  8
LAYER_6
  6
AIGENLINE008
 40
0.1305
 41
0.1305
 66
1
 10
0
 20
0
 30
0
 70
128
  0
VERTEX
  8
LAYER_6
 10
-147.3452
 20
229.5078
  0
VERTEX
  8
LAYER_6
 10
-150.2769
 20
229.5078
  0
SEQEND
  0
POLYLINE
  8
LAYER_6
 40
0.1305
 41
0.1305
 66
1
 10
0
 20
0
 30
0
  0
VERTEX
  8
LAYER_6
 10
-150.4723
 20
229.5078
  0
VERTEX
  8
LAYER_6
 10
-150.6614
 20
229.5078
  0
VERTEX
  8
LAYER_6
 10
-150.6614
 20
229.6969
  0
SEQEND
  0
POLYLINE
  8
LAYER_6
  6
AIGENLINE006
 40
0.1305
 41
0.1305
 66
1
 10
0
 20
0
 30
0
 70
128
  0
VERTEX
  8
LAYER_6
 10
-150.6614
 20
230.1155
  0
VERTEX
  8
LAYER_6
 10
-150.6614
 20
230.7434
  0
SEQEND
  0
POLYLINE
  8
LAYER_6
 40
0.1305
 41
0.1305
 66
1
 10
0
 20
0
 30
0
  0
VERTEX
  8
LAYER_6
 10
-150.6614
 20
230.9526
  0
VERTEX
  8
LAYER_6
 10
-150.6614
 20
231.1418
  0
VERTEX
  8
LAYER_6
 10
-150.4723
 20
231.1418
  0
SEQEND
  0
POLYLINE
  8
LAYER_6
  6
AIGENLINE008
 40
0.1305
 41
0.1305
 66
1
 10
0
 20
0
 30
0
 70
128
  0
VERTEX
  8
LAYER_6
 10
-150.0813
 20
231.1418
  0
VERTEX
  8
LAYER_6
 10
-147.1495
 20
231.1418
  0
SEQEND
  0
POLYLINE
  8
LAYER_6
 40
0.1305
 41
0.1305
 66
1
 10
0
 20
0
 30
0
  0
VERTEX
  8
LAYER_6
 10
-146.9542
 20
231.1418
  0
VERTEX
  8
LAYER_6
 10
-146.765
 20
231.1418
  0
VERTEX
  8
LAYER_6
 10
-146.765
 20
230.9526
  0
SEQEND
  0
POLYLINE
  8
LAYER_6
  6
AIGENLINE006
 40
0.1305
 41
0.1305
 66
1
 10
0
 20
0
 30
0
 70
128
  0
VERTEX
  8
LAYER_6
 10
-146.765
 20
230.5341
  0
VERTEX
  8
LAYER_6
 10
-146.765
 20
229.9062
  0
SEQEND
  0
ENDBLK
  0
BLOCK
  8
LAYER_6
  2
AIGNBL06020010
 70
64
 10
0
 20
0
 30
0
  3
AIGNBL06020010
  0
POLYLINE
  8
LAYER_6
 40
0.1305
 41
0.1305
 66
1
 10
0
 20
0
 30
0
  0
VERTEX
  8
LAYER_6
 10
-136.8359
 20
229.6346
  0
VERTEX
  8
LAYER_6
 10
-136.8359
 20
229.4454
  0
VERTEX
  8
LAYER_6
 10
-137.0251
 20
229.4454
  0
SEQEND
  0
POLYLINE
  8
LAYER_6
  6
AIGENLINE009
 40
0.1305
 41
0.1305
 66
1
 10
0
 20
0
 30
0
 70
128
  0
VERTEX
  8
LAYER_6
 10
-137.4157
 20
229.4454
  0
VERTEX
  8
LAYER_6
 10
-140.3465
 20
229.4454
  0
SEQEND
  0
POLYLINE
  8
LAYER_6
 40
0.1305
 41
0.1305
 66
1
 10
0
 20
0
 30
0
  0
VERTEX
  8
LAYER_6
 10
-140.5418
 20
229.4454
  0
VERTEX
  8
LAYER_6
 10
-140.731
 20
229.4454
  0
VERTEX
  8
LAYER_6
 10
-140.731
 20
229.6346
  0
SEQEND
  0
POLYLINE
  8
LAYER_6
  6
AIGENLINE006
 40
0.1305
 41
0.1305
 66
1
 10
0
 20
0
 30
0
 70
128
  0
VERTEX
  8
LAYER_6
 10
-140.731
 20
230.0531
  0
VERTEX
  8
LAYER_6
 10
-140.731
 20
230.681
  0
SEQEND
  0
POLYLINE
  8
LAYER_6
 40
0.1305
 41
0.1305
 66
1
 10
0
 20
0
 30
0
  0
VERTEX
  8
LAYER_6
 10
-140.731
 20
230.8903
  0
VERTEX
  8
LAYER_6
 10
-140.731
 20
231.0794
  0
VERTEX
  8
LAYER_6
 10
-140.5418
 20
231.0794
  0
SEQEND
  0
POLYLINE
  8
LAYER_6
  6
AIGENLINE009
 40
0.1305
 41
0.1305
 66
1
 10
0
 20
0
 30
0
 70
128
  0
VERTEX
  8
LAYER_6
 10
-140.1511
 20
231.0794
  0
VERTEX
  8
LAYER_6
 10
-137.2204
 20
231.0794
  0
SEQEND
  0
POLYLINE
  8
LAYER_6
 40
0.1305
 41
0.1305
 66
1
 10
0
 20
0
 30
0
  0
VERTEX
  8
LAYER_6
 10
-137.0251
 20
231.0794
  0
VERTEX
  8
LAYER_6
 10
-136.8359
 20
231.0794
  0
VERTEX
  8
LAYER_6
 10
-136.8359
 20
230.8903
  0
SEQEND
  0
POLYLINE
  8
LAYER_6
  6
AIGENLINE006
 40
0.1305
 41
0.1305
 66
1
 10
0
 20
0
 30
0
 70
128
  0
VERTEX
  8
LAYER_6
 10
-136.8359
 20
230.4717
  0
VERTEX
  8
LAYER_6
 10
-136.8359
 20
229.8439
  0
SEQEND
  0
ENDBLK
  0
BLOCK
  8
LAYER_6
  2
AIGNBL06020012
 70
64
 10
0
 20
0
 30
0
  3
AIGNBL06020012
  0
POLYLINE
  8
LAYER_6
 40
0.1305
 41
0.1305
 66
1
 10
0
 20
0
 30
0
  0
VERTEX
  8
LAYER_6
 10
-108.5982
 20
229.6346
  0
VERTEX
  8
LAYER_6
 10
-108.5982
 20
229.4454
  0
VERTEX
  8
LAYER_6
 10
-108.7873
 20
229.4454
  0
SEQEND
  0
POLYLINE
  8
LAYER_6
  6
AIGENLINE009
 40
0.1305
 41
0.1305
 66
1
 10
0
 20
0
 30
0
 70
128
  0
VERTEX
  8
LAYER_6
 10
-109.178
 20
229.4454
  0
VERTEX
  8
LAYER_6
 10
-112.1088
 20
229.4454
  0
SEQEND
  0
POLYLINE
  8
LAYER_6
 40
0.1305
 41
0.1305
 66
1
 10
0
 20
0
 30
0
  0
VERTEX
  8
LAYER_6
 10
-112.3041
 20
229.4454
  0
VERTEX
  8
LAYER_6
 10
-112.4932
 20
229.4454
  0
VERTEX
  8
LAYER_6
 10
-112.4932
 20
229.6346
  0
SEQEND
  0
POLYLINE
  8
LAYER_6
  6
AIGENLINE006
 40
0.1305
 41
0.1305
 66
1
 10
0
 20
0
 30
0
 70
128
  0
VERTEX
  8
LAYER_6
 10
-112.4932
 20
230.0531
  0
VERTEX
  8
LAYER_6
 10
-112.4932
 20
230.681
  0
SEQEND
  0
POLYLINE
  8
LAYER_6
 40
0.1305
 41
0.1305
 66
1
 10
0
 20
0
 30
0
  0
VERTEX
  8
LAYER_6
 10
-112.4932
 20
230.8903
  0
VERTEX
  8
LAYER_6
 10
-112.4932
 20
231.0794
  0
VERTEX
  8
LAYER_6
 10
-112.3041
 20
231.0794
  0
SEQEND
  0
POLYLINE
  8
LAYER_6
  6
AIGENLINE009
 40
0.1305
 41
0.1305
 66
1
 10
0
 20
0
 30
0
 70
128
  0
VERTEX
  8
LAYER_6
 10
-111.9134
 20
231.0794
  0
VERTEX
  8
LAYER_6
 10
-108.9827
 20
231.0794
  0
SEQEND
  0
POLYLINE
  8
LAYER_6
 40
0.1305
 41
0.1305
 66
1
 10
0
 20
0
 30
0
  0
VERTEX
  8
LAYER_6
 10
-108.7873
 20
231.0794
  0
VERTEX
  8
LAYER_6
 10
-108.5982
 20
231.0794
  0
VERTEX
  8
LAYER_6
 10
-108.5982
 20
230.8903
  0
SEQEND
  0
POLYLINE
  8
LAYER_6
  6
AIGENLINE006
 40
0.1305
 41
0.1305
 66
1
 10
0
 20
0
 30
0
 70
128
  0
VERTEX
  8
LAYER_6
 10
-108.5982
 20
230.4717
  0
VERTEX
  8
LAYER_6
 10
-108.5982
 20
229.8439
  0
SEQEND
  0
ENDBLK
  0
BLOCK
  8
LAYER_6
  2
AIGNBL06020014
 70
64
 10
0
 20
0
 30
0
  3
AIGNBL06020014
  0
POLYLINE
  8
LAYER_6
 40
0.1305
 41
0.1305
 66
1
 10
0
 20
0
 30
0
  0
VERTEX
  8
LAYER_6
 10
-98.6891
 20
229.6346
  0
VERTEX
  8
LAYER_6
 10
-98.6891
 20
229.4454
  0
VERTEX
  8
LAYER_6
 10
-98.8782
 20
229.4454
  0
SEQEND
  0
POLYLINE
  8
LAYER_6
  6
AIGENLINE008
 40
0.1305
 41
0.1305
 66
1
 10
0
 20
0
 30
0
 70
128
  0
VERTEX
  8
LAYER_6
 10
-99.2692
 20
229.4454
  0
VERTEX
  8
LAYER_6
 10
-102.201
 20
229.4454
  0
SEQEND
  0
POLYLINE
  8
LAYER_6
 40
0.1305
 41
0.1305
 66
1
 10
0
 20
0
 30
0
  0
VERTEX
  8
LAYER_6
 10
-102.3963
 20
229.4454
  0
VERTEX
  8
LAYER_6
 10
-102.5855
 20
229.4454
  0
VERTEX
  8
LAYER_6
 10
-102.5855
 20
229.6346
  0
SEQEND
  0
POLYLINE
  8
LAYER_6
  6
AIGENLINE006
 40
0.1305
 41
0.1305
 66
1
 10
0
 20
0
 30
0
 70
128
  0
VERTEX
  8
LAYER_6
 10
-102.5855
 20
230.0531
  0
VERTEX
  8
LAYER_6
 10
-102.5855
 20
230.681
  0
SEQEND
  0
POLYLINE
  8
LAYER_6
 40
0.1305
 41
0.1305
 66
1
 10
0
 20
0
 30
0
  0
VERTEX
  8
LAYER_6
 10
-102.5855
 20
230.8903
  0
VERTEX
  8
LAYER_6
 10
-102.5855
 20
231.0794
  0
VERTEX
  8
LAYER_6
 10
-102.3963
 20
231.0794
  0
SEQEND
  0
POLYLINE
  8
LAYER_6
  6
AIGENLINE008
 40
0.1305
 41
0.1305
 66
1
 10
0
 20
0
 30
0
 70
128
  0
VERTEX
  8
LAYER_6
 10
-102.0053
 20
231.0794
  0
VERTEX
  8
LAYER_6
 10
-99.0735
 20
231.0794
  0
SEQEND
  0
POLYLINE
  8
LAYER_6
 40
0.1305
 41
0.1305
 66
1
 10
0
 20
0
 30
0
  0
VERTEX
  8
LAYER_6
 10
-98.8782
 20
231.0794
  0
VERTEX
  8
LAYER_6
 10
-98.6891
 20
231.0794
  0
VERTEX
  8
LAYER_6
 10
-98.6891
 20
230.8903
  0
SEQEND
  0
POLYLINE
  8
LAYER_6
  6
AIGENLINE006
 40
0.1305
 41
0.1305
 66
1
 10
0
 20
0
 30
0
 70
128
  0
VERTEX
  8
LAYER_6
 10
-98.6891
 20
230.4717
  0
VERTEX
  8
LAYER_6
 10
-98.6891
 20
229.8439
  0
SEQEND
  0
ENDBLK
  0
BLOCK
  8
LAYER_6
  2
AIGNBL06020016
 70
64
 10
0
 20
0
 30
0
  3
AIGNBL06020016
  0
POLYLINE
  8
LAYER_6
 40
0.1305
 41
0.1305
 66
1
 10
0
 20
0
 30
0
  0
VERTEX
  8
LAYER_6
 10
-146.7437
 20
229.6346
  0
VERTEX
  8
LAYER_6
 10
-146.7437
 20
229.4454
  0
VERTEX
  8
LAYER_6
 10
-146.9328
 20
229.4454
  0
SEQEND
  0
POLYLINE
  8
LAYER_6
  6
AIGENLINE008
 40
0.1305
 41
0.1305
 66
1
 10
0
 20
0
 30
0
 70
128
  0
VERTEX
  8
LAYER_6
 10
-147.3238
 20
229.4454
  0
VERTEX
  8
LAYER_6
 10
-150.2556
 20
229.4454
  0
SEQEND
  0
POLYLINE
  8
LAYER_6
 40
0.1305
 41
0.1305
 66
1
 10
0
 20
0
 30
0
  0
VERTEX
  8
LAYER_6
 10
-150.4509
 20
229.4454
  0
VERTEX
  8
LAYER_6
 10
-150.6401
 20
229.4454
  0
VERTEX
  8
LAYER_6
 10
-150.6401
 20
229.6346
  0
SEQEND
  0
POLYLINE
  8
LAYER_6
  6
AIGENLINE006
 40
0.1305
 41
0.1305
 66
1
 10
0
 20
0
 30
0
 70
128
  0
VERTEX
  8
LAYER_6
 10
-150.6401
 20
230.0531
  0
VERTEX
  8
LAYER_6
 10
-150.6401
 20
230.681
  0
SEQEND
  0
POLYLINE
  8
LAYER_6
 40
0.1305
 41
0.1305
 66
1
 10
0
 20
0
 30
0
  0
VERTEX
  8
LAYER_6
 10
-150.6401
 20
230.8903
  0
VERTEX
  8
LAYER_6
 10
-150.6401
 20
231.0794
  0
VERTEX
  8
LAYER_6
 10
-150.4509
 20
231.0794
  0
SEQEND
  0
POLYLINE
  8
LAYER_6
  6
AIGENLINE008
 40
0.1305
 41
0.1305
 66
1
 10
0
 20
0
 30
0
 70
128
  0
VERTEX
  8
LAYER_6
 10
-150.0599
 20
231.0794
  0
VERTEX
  8
LAYER_6
 10
-147.1282
 20
231.0794
  0
SEQEND
  0
POLYLINE
  8
LAYER_6
 40
0.1305
 41
0.1305
 66
1
 10
0
 20
0
 30
0
  0
VERTEX
  8
LAYER_6
 10
-146.9328
 20
231.0794
  0
VERTEX
  8
LAYER_6
 10
-146.7437
 20
231.0794
  0
VERTEX
  8
LAYER_6
 10
-146.7437
 20
230.8903
  0
SEQEND
  0
POLYLINE
  8
LAYER_6
  6
AIGENLINE006
 40
0.1305
 41
0.1305
 66
1
 10
0
 20
0
 30
0
 70
128
  0
VERTEX
  8
LAYER_6
 10
-146.7437
 20
230.4717
  0
VERTEX
  8
LAYER_6
 10
-146.7437
 20
229.8439
  0
SEQEND
  0
ENDBLK
  0
BLOCK
  8
LAYER_6
  2
AIGNBL06020021
 70
64
 10
0
 20
0
 30
0
  3
AIGNBL06020021
  0
POLYLINE
  8
LAYER_6
 40
0.1305
 41
0.1305
 66
1
 10
0
 20
0
 30
0
  0
VERTEX
  8
LAYER_6
 10
62.0699
 20
177.7166
  0
VERTEX
  8
LAYER_6
 10
62.0699
 20
177.5275
  0
VERTEX
  8
LAYER_6
 10
61.8808
 20
177.5275
  0
SEQEND
  0
POLYLINE
  8
LAYER_6
  6
AIGENLINE010
 40
0.1305
 41
0.1305
 66
1
 10
0
 20
0
 30
0
 70
128
  0
VERTEX
  8
LAYER_6
 10
61.4881
 20
177.5275
  0
VERTEX
  8
LAYER_6
 10
58.5418
 20
177.5275
  0
SEQEND
  0
POLYLINE
  8
LAYER_6
 40
0.1305
 41
0.1305
 66
1
 10
0
 20
0
 30
0
  0
VERTEX
  8
LAYER_6
 10
58.3455
 20
177.5275
  0
VERTEX
  8
LAYER_6
 10
58.1563
 20
177.5275
  0
VERTEX
  8
LAYER_6
 10
58.1563
 20
177.7166
  0
SEQEND
  0
POLYLINE
  8
LAYER_6
  6
AIGENLINE011
 40
0.1305
 41
0.1305
 66
1
 10
0
 20
0
 30
0
 70
128
  0
VERTEX
  8
LAYER_6
 10
58.1563
 20
178.1376
  0
VERTEX
  8
LAYER_6
 10
58.1563
 20
178.7691
  0
SEQEND
  0
POLYLINE
  8
LAYER_6
 40
0.1305
 41
0.1305
 66
1
 10
0
 20
0
 30
0
  0
VERTEX
  8
LAYER_6
 10
58.1563
 20
178.9796
  0
VERTEX
  8
LAYER_6
 10
58.1563
 20
179.1687
  0
VERTEX
  8
LAYER_6
 10
58.3455
 20
179.1687
  0
SEQEND
  0
POLYLINE
  8
LAYER_6
  6
AIGENLINE010
 40
0.1305
 41
0.1305
 66
1
 10
0
 20
0
 30
0
 70
128
  0
VERTEX
  8
LAYER_6
 10
58.7382
 20
179.1687
  0
VERTEX
  8
LAYER_6
 10
61.6844
 20
179.1687
  0
SEQEND
  0
POLYLINE
  8
LAYER_6
 40
0.1305
 41
0.1305
 66
1
 10
0
 20
0
 30
0
  0
VERTEX
  8
LAYER_6
 10
61.8808
 20
179.1687
  0
VERTEX
  8
LAYER_6
 10
62.0699
 20
179.1687
  0
VERTEX
  8
LAYER_6
 10
62.0699
 20
178.9796
  0
SEQEND
  0
POLYLINE
  8
LAYER_6
  6
AIGENLINE011
 40
0.1305
 41
0.1305
 66
1
 10
0
 20
0
 30
0
 70
128
  0
VERTEX
  8
LAYER_6
 10
62.0699
 20
178.5586
  0
VERTEX
  8
LAYER_6
 10
62.0699
 20
177.9271
  0
SEQEND
  0
ENDBLK
  0
BLOCK
  8
LAYER_6
  2
AIGNBL06020023
 70
64
 10
0
 20
0
 30
0
  3
AIGNBL06020023
  0
POLYLINE
  8
LAYER_6
 40
0.1305
 41
0.1305
 66
1
 10
0
 20
0
 30
0
  0
VERTEX
  8
LAYER_6
 10
90.4279
 20
177.7166
  0
VERTEX
  8
LAYER_6
 10
90.4279
 20
177.5275
  0
VERTEX
  8
LAYER_6
 10
90.2388
 20
177.5275
  0
SEQEND
  0
POLYLINE
  8
LAYER_6
  6
AIGENLINE012
 40
0.1305
 41
0.1305
 66
1
 10
0
 20
0
 30
0
 70
128
  0
VERTEX
  8
LAYER_6
 10
89.846
 20
177.5275
  0
VERTEX
  8
LAYER_6
 10
86.9012
 20
177.5275
  0
SEQEND
  0
POLYLINE
  8
LAYER_6
 40
0.1305
 41
0.1305
 66
1
 10
0
 20
0
 30
0
  0
VERTEX
  8
LAYER_6
 10
86.7048
 20
177.5275
  0
VERTEX
  8
LAYER_6
 10
86.5156
 20
177.5275
  0
VERTEX
  8
LAYER_6
 10
86.5156
 20
177.7166
  0
SEQEND
  0
POLYLINE
  8
LAYER_6
  6
AIGENLINE011
 40
0.1305
 41
0.1305
 66
1
 10
0
 20
0
 30
0
 70
128
  0
VERTEX
  8
LAYER_6
 10
86.5156
 20
178.1376
  0
VERTEX
  8
LAYER_6
 10
86.5156
 20
178.7691
  0
SEQEND
  0
POLYLINE
  8
LAYER_6
 40
0.1305
 41
0.1305
 66
1
 10
0
 20
0
 30
0
  0
VERTEX
  8
LAYER_6
 10
86.5156
 20
178.9796
  0
VERTEX
  8
LAYER_6
 10
86.5156
 20
179.1687
  0
VERTEX
  8
LAYER_6
 10
86.7048
 20
179.1687
  0
SEQEND
  0
POLYLINE
  8
LAYER_6
  6
AIGENLINE012
 40
0.1305
 41
0.1305
 66
1
 10
0
 20
0
 30
0
 70
128
  0
VERTEX
  8
LAYER_6
 10
87.0975
 20
179.1687
  0
VERTEX
  8
LAYER_6
 10
90.0424
 20
179.1687
  0
SEQEND
  0
POLYLINE
  8
LAYER_6
 40
0.1305
 41
0.1305
 66
1
 10
0
 20
0
 30
0
  0
VERTEX
  8
LAYER_6
 10
90.2388
 20
179.1687
  0
VERTEX
  8
LAYER_6
 10
90.4279
 20
179.1687
  0
VERTEX
  8
LAYER_6
 10
90.4279
 20
178.9796
  0
SEQEND
  0
POLYLINE
  8
LAYER_6
  6
AIGENLINE011
 40
0.1305
 41
0.1305
 66
1
 10
0
 20
0
 30
0
 70
128
  0
VERTEX
  8
LAYER_6
 10
90.4279
 20
178.5586
  0
VERTEX
  8
LAYER_6
 10
90.4279
 20
177.9271
  0
SEQEND
  0
ENDBLK
  0
BLOCK
  8
LAYER_6
  2
AIGNBL06020027
 70
64
 10
0
 20
0
 30
0
  3
AIGNBL06020027
  0
INSERT
  8
LAYER_6
  2
AIGNBL06030028
 10
0
 20
0
 30
0
  0
ENDBLK
  0
BLOCK
  8
LAYER_6
  2
AIGNBL0602002B
 70
64
 10
0
 20
0
 30
0
  3
AIGNBL0602002B
  0
INSERT
  8
LAYER_6
  2
AIGNBL0603002C
 10
0
 20
0
 30
0
  0
ENDBLK
  0
BLOCK
  8
LAYER_6
  2
AIGNBL0602003C
 70
64
 10
0
 20
0
 30
0
  3
AIGNBL0602003C
  0
POLYLINE
  8
LAYER_6
 40
0.1693
 41
0.1693
 66
1
 10
0
 20
0
 30
0
  0
VERTEX
  8
LAYER_6
 10
106.0559
 20
179.6621
  0
VERTEX
  8
LAYER_6
 10
106.1472
 20
179.3913
  0
SEQEND
  0
POLYLINE
  8
LAYER_6
  6
AIGENLINE013
 40
0.1693
 41
0.1693
 66
1
 10
0
 20
0
 30
0
 70
128
  0
VERTEX
  8
LAYER_6
 10
106.3277
 20
178.8487
 42
-0.01502455395
  0
VERTEX
  8
LAYER_6
 10
108.0095
 20
173.177
 42
-0.01434535657
  0
VERTEX
  8
LAYER_6
 10
109.2348
 20
167.9255
 42
-0.0218020479
  0
VERTEX
  8
LAYER_6
 10
110.4929
 20
159.9637
 42
-0.01426470401
  0
VERTEX
  8
LAYER_6
 10
110.9512
 20
154.5635
 42
-0.01033389394
  0
VERTEX
  8
LAYER_6
 10
111.0981
 20
150.4473
 42
-0.3534567324
  0
VERTEX
  8
LAYER_6
 10
106.4748
 20
144.5397
 42
-0.114076557
  0
VERTEX
  8
LAYER_6
 10
42.1087
 20
144.5397
 42
-0.3533029364
  0
VERTEX
  8
LAYER_6
 10
37.4854
 20
150.4473
 42
-0.01507691779
  0
VERTEX
  8
LAYER_6
 10
37.7567
 20
156.4307
 42
-0.01443752811
  0
VERTEX
  8
LAYER_6
 10
38.3264
 20
161.8531
 42
-0.01466856259
  0
VERTEX
  8
LAYER_6
 10
39.207
 20
167.2048
 42
-0.01459218363
  0
VERTEX
  8
LAYER_6
 10
40.403
 20
172.5114
 42
-0.01421510158
  0
VERTEX
  8
LAYER_6
 10
41.9188
 20
177.7984
 42
-0.00347043363
  0
VERTEX
  8
LAYER_6
 10
42.3482
 20
179.12
  0
SEQEND
  0
POLYLINE
  8
LAYER_6
 40
0.1693
 41
0.1693
 66
1
 10
0
 20
0
 30
0
  0
VERTEX
  8
LAYER_6
 10
42.4387
 20
179.3913
  0
VERTEX
  8
LAYER_6
 10
42.53
 20
179.6621
  0
SEQEND
  0
ENDBLK
  0
BLOCK
  8
LAYER_6
  2
AIGNBL0602003F
 70
64
 10
0
 20
0
 30
0
  3
AIGNBL0602003F
  0
POLYLINE
  8
LAYER_6
 40
0.1305
 41
0.1305
 66
1
 10
0
 20
0
 30
0
  0
VERTEX
  8
LAYER_6
 10
100.378
 20
177.7166
  0
VERTEX
  8
LAYER_6
 10
100.378
 20
177.5275
  0
VERTEX
  8
LAYER_6
 10
100.1889
 20
177.5275
  0
SEQEND
  0
POLYLINE
  8
LAYER_6
  6
AIGENLINE014
 40
0.1305
 41
0.1305
 66
1
 10
0
 20
0
 30
0
 70
128
  0
VERTEX
  8
LAYER_6
 10
99.7961
 20
177.5275
  0
VERTEX
  8
LAYER_6
 10
96.8506
 20
177.5275
  0
SEQEND
  0
POLYLINE
  8
LAYER_6
 40
0.1305
 41
0.1305
 66
1
 10
0
 20
0
 30
0
  0
VERTEX
  8
LAYER_6
 10
96.6542
 20
177.5275
  0
VERTEX
  8
LAYER_6
 10
96.4651
 20
177.5275
  0
VERTEX
  8
LAYER_6
 10
96.4651
 20
177.7166
  0
SEQEND
  0
POLYLINE
  8
LAYER_6
  6
AIGENLINE011
 40
0.1305
 41
0.1305
 66
1
 10
0
 20
0
 30
0
 70
128
  0
VERTEX
  8
LAYER_6
 10
96.4651
 20
178.1376
  0
VERTEX
  8
LAYER_6
 10
96.4651
 20
178.7691
  0
SEQEND
  0
POLYLINE
  8
LAYER_6
 40
0.1305
 41
0.1305
 66
1
 10
0
 20
0
 30
0
  0
VERTEX
  8
LAYER_6
 10
96.4651
 20
178.9796
  0
VERTEX
  8
LAYER_6
 10
96.4651
 20
179.1687
  0
VERTEX
  8
LAYER_6
 10
96.6542
 20
179.1687
  0
SEQEND
  0
POLYLINE
  8
LAYER_6
  6
AIGENLINE014
 40
0.1305
 41
0.1305
 66
1
 10
0
 20
0
 30
0
 70
128
  0
VERTEX
  8
LAYER_6
 10
97.047
 20
179.1687
  0
VERTEX
  8
LAYER_6
 10
99.9925
 20
179.1687
  0
SEQEND
  0
POLYLINE
  8
LAYER_6
 40
0.1305
 41
0.1305
 66
1
 10
0
 20
0
 30
0
  0
VERTEX
  8
LAYER_6
 10
100.1889
 20
179.1687
  0
VERTEX
  8
LAYER_6
 10
100.378
 20
179.1687
  0
VERTEX
  8
LAYER_6
 10
100.378
 20
178.9796
  0
SEQEND
  0
POLYLINE
  8
LAYER_6
  6
AIGENLINE011
 40
0.1305
 41
0.1305
 66
1
 10
0
 20
0
 30
0
 70
128
  0
VERTEX
  8
LAYER_6
 10
100.378
 20
178.5586
  0
VERTEX
  8
LAYER_6
 10
100.378
 20
177.9271
  0
SEQEND
  0
ENDBLK
  0
BLOCK
  8
LAYER_6
  2
AIGNBL06020041
 70
64
 10
0
 20
0
 30
0
  3
AIGNBL06020041
  0
POLYLINE
  8
LAYER_6
 40
0.1305
 41
0.1305
 66
1
 10
0
 20
0
 30
0
  0
VERTEX
  8
LAYER_6
 10
52.1184
 20
177.7166
  0
VERTEX
  8
LAYER_6
 10
52.1184
 20
177.5275
  0
VERTEX
  8
LAYER_6
 10
51.9293
 20
177.5275
  0
SEQEND
  0
POLYLINE
  8
LAYER_6
  6
AIGENLINE014
 40
0.1305
 41
0.1305
 66
1
 10
0
 20
0
 30
0
 70
128
  0
VERTEX
  8
LAYER_6
 10
51.5366
 20
177.5275
  0
VERTEX
  8
LAYER_6
 10
48.591
 20
177.5275
  0
SEQEND
  0
POLYLINE
  8
LAYER_6
 40
0.1305
 41
0.1305
 66
1
 10
0
 20
0
 30
0
  0
VERTEX
  8
LAYER_6
 10
48.3946
 20
177.5275
  0
VERTEX
  8
LAYER_6
 10
48.2055
 20
177.5275
  0
VERTEX
  8
LAYER_6
 10
48.2055
 20
177.7166
  0
SEQEND
  0
POLYLINE
  8
LAYER_6
  6
AIGENLINE011
 40
0.1305
 41
0.1305
 66
1
 10
0
 20
0
 30
0
 70
128
  0
VERTEX
  8
LAYER_6
 10
48.2055
 20
178.1376
  0
VERTEX
  8
LAYER_6
 10
48.2055
 20
178.7691
  0
SEQEND
  0
POLYLINE
  8
LAYER_6
 40
0.1305
 41
0.1305
 66
1
 10
0
 20
0
 30
0
  0
VERTEX
  8
LAYER_6
 10
48.2055
 20
178.9796
  0
VERTEX
  8
LAYER_6
 10
48.2055
 20
179.1687
  0
VERTEX
  8
LAYER_6
 10
48.3946
 20
179.1687
  0
SEQEND
  0
POLYLINE
  8
LAYER_6
  6
AIGENLINE014
 40
0.1305
 41
0.1305
 66
1
 10
0
 20
0
 30
0
 70
128
  0
VERTEX
  8
LAYER_6
 10
48.7874
 20
179.1687
  0
VERTEX
  8
LAYER_6
 10
51.7329
 20
179.1687
  0
SEQEND
  0
POLYLINE
  8
LAYER_6
 40
0.1305
 41
0.1305
 66
1
 10
0
 20
0
 30
0
  0
VERTEX
  8
LAYER_6
 10
51.9293
 20
179.1687
  0
VERTEX
  8
LAYER_6
 10
52.1184
 20
179.1687
  0
VERTEX
  8
LAYER_6
 10
52.1184
 20
178.9796
  0
SEQEND
  0
POLYLINE
  8
LAYER_6
  6
AIGENLINE011
 40
0.1305
 41
0.1305
 66
1
 10
0
 20
0
 30
0
 70
128
  0
VERTEX
  8
LAYER_6
 10
52.1184
 20
178.5586
  0
VERTEX
  8
LAYER_6
 10
52.1184
 20
177.9271
  0
SEQEND
  0
ENDBLK
  0
BLOCK
  8
LAYER_6
  2
AIGNBL0602004E
 70
64
 10
0
 20
0
 30
0
  3
AIGNBL0602004E
  0
POLYLINE
  8
LAYER_6
 40
0.1693
 41
0.1693
 62
252
 66
1
 10
0
 20
0
 30
0
  0
VERTEX
  8
LAYER_6
 10
71.278
 20
83.8546
  0
VERTEX
  8
LAYER_6
 10
71.4926
 20
83.8546
  0
SEQEND
  0
POLYLINE
  8
LAYER_6
  6
AIGENLINE015
 40
0.1693
 41
0.1693
 62
252
 66
1
 10
0
 20
0
 30
0
 70
128
  0
VERTEX
  8
LAYER_6
 10
71.9019
 20
83.8546
  0
VERTEX
  8
LAYER_6
 10
76.6069
 20
83.8546
  0
SEQEND
  0
POLYLINE
  8
LAYER_6
 40
0.1693
 41
0.1693
 62
252
 66
1
 10
0
 20
0
 30
0
  0
VERTEX
  8
LAYER_6
 10
76.8115
 20
83.8546
  0
VERTEX
  8
LAYER_6
 10
77.0261
 20
83.8546
  0
SEQEND
  0
ENDBLK
  0
BLOCK
  8
LAYER_8
  2
AIGNBL08020004
 70
64
 10
0
 20
0
 30
0
  3
AIGNBL08020004
  0
INSERT
  8
LAYER_8
  2
AIGNBL08030005
 10
0
 20
0
 30
0
  0
ENDBLK
  0
BLOCK
  8
LAYER_8
  2
AIGNBL0802000D
 70
64
 10
0
 20
0
 30
0
  3
AIGNBL0802000D
  0
INSERT
  8
LAYER_8
  2
AIGNBL0803000E
 10
0
 20
0
 30
0
  0
INSERT
  8
LAYER_8
  2
AIGNBL0803000F
 10
0
 20
0
 30
0
  0
INSERT
  8
LAYER_8
  2
AIGNBL08030010
 10
0
 20
0
 30
0
  0
INSERT
  8
LAYER_8
  2
AIGNBL08030011
 10
0
 20
0
 30
0
  0
INSERT
  8
LAYER_8
  2
AIGNBL08030012
 10
0
 20
0
 30
0
  0
INSERT
  8
LAYER_8
  2
AIGNBL08030013
 10
0
 20
0
 30
0
  0
INSERT
  8
LAYER_8
  2
AIGNBL08030014
 10
0
 20
0
 30
0
  0
INSERT
  8
LAYER_8
  2
AIGNBL08030015
 10
0
 20
0
 30
0
  0
INSERT
  8
LAYER_8
  2
AIGNBL08030016
 10
0
 20
0
 30
0
  0
INSERT
  8
LAYER_8
  2
AIGNBL08030017
 10
0
 20
0
 30
0
  0
INSERT
  8
LAYER_8
  2
AIGNBL08030018
 10
0
 20
0
 30
0
  0
INSERT
  8
LAYER_8
  2
AIGNBL08030019
 10
0
 20
0
 30
0
  0
INSERT
  8
LAYER_8
  2
AIGNBL0803001A
 10
0
 20
0
 30
0
  0
INSERT
  8
LAYER_8
  2
AIGNBL0803001B
 10
0
 20
0
 30
0
  0
INSERT
  8
LAYER_8
  2
AIGNBL0803001C
 10
0
 20
0
 30
0
  0
INSERT
  8
LAYER_8
  2
AIGNBL0803001D
 10
0
 20
0
 30
0
  0
INSERT
  8
LAYER_8
  2
AIGNBL0803001E
 10
0
 20
0
 30
0
  0
INSERT
  8
LAYER_8
  2
AIGNBL0803001F
 10
0
 20
0
 30
0
  0
INSERT
  8
LAYER_8
  2
AIGNBL08030020
 10
0
 20
0
 30
0
  0
INSERT
  8
LAYER_8
  2
AIGNBL08030021
 10
0
 20
0
 30
0
  0
INSERT
  8
LAYER_8
  2
AIGNBL08030022
 10
0
 20
0
 30
0
  0
INSERT
  8
LAYER_8
  2
AIGNBL08030023
 10
0
 20
0
 30
0
  0
INSERT
  8
LAYER_8
  2
AIGNBL08030024
 10
0
 20
0
 30
0
  0
ENDBLK
  0
BLOCK
  8
LAYER_8
  2
AIGNBL08020026
 70
64
 10
0
 20
0
 30
0
  3
AIGNBL08020026
  0
POLYLINE
  8
LAYER_8
 40
0.05
 41
0.05
 66
1
 10
0
 20
0
 30
0
  0
VERTEX
  8
LAYER_8
 10
-7.0151
 20
219.4629
 42
0.1036295037
  0
VERTEX
  8
LAYER_8
 10
-7.1824
 20
220.2981
 42
0.2712377295
  0
VERTEX
  8
LAYER_8
 10
-8.5808
 20
221.2683
 42
0.0303823279
  0
VERTEX
  8
LAYER_8
 10
-8.8902
 20
221.2869
 42
0.07624666781
  0
VERTEX
  8
LAYER_8
 10
-10.0755
 20
221.1157
 42
0.09017583051
  0
VERTEX
  8
LAYER_8
 10
-10.8588
 20
220.699
 42
0.02803056833
  0
VERTEX
  8
LAYER_8
 10
-11.0228
 20
220.5491
  0
VERTEX
  8
LAYER_8
 10
-11.077
 20
220.4928
  0
VERTEX
  8
LAYER_8
 10
-10.5515
 20
219.8736
  0
VERTEX
  8
LAYER_8
 10
-10.486
 20
219.9328
 42
-0.1028805994
  0
VERTEX
  8
LAYER_8
 10
-9.7273
 20
220.3798
 42
-0.08113187333
  0
VERTEX
  8
LAYER_8
 10
-9.0479
 20
220.4863
 42
-0.1265582199
  0
VERTEX
  8
LAYER_8
 10
-8.3271
 20
220.3251
 42
-0.1601174183
  0
VERTEX
  8
LAYER_8
 10
-7.989
 20
219.9367
 42
-0.1111761681
  0
VERTEX
  8
LAYER_8
 10
-7.8786
 20
219.3074
  0
VERTEX
  8
LAYER_8
 10
-7.8786
 20
219.2664
  0
VERTEX
  8
LAYER_8
 10
-8.1378
 20
219.2664
 42
0.06077576534
  0
VERTEX
  8
LAYER_8
 10
-9.7982
 20
219.1093
 42
0.08580258361
  0
VERTEX
  8
LAYER_8
 10
-10.637
 20
218.7454
 42
0.1116389774
  0
VERTEX
  8
LAYER_8
 10
-11.084
 20
218.2559
 42
0.1204112073
  0
VERTEX
  8
LAYER_8
 10
-11.2651
 20
217.5692
 42
0.01082752958
  0
VERTEX
  8
LAYER_8
 10
-11.2668
 20
217.4871
 42
0.1262361208
  0
VERTEX
  8
LAYER_8
 10
-11.0913
 20
216.7743
 42
0.1210090978
  0
VERTEX
  8
LAYER_8
 10
-10.6379
 20
216.2914
 42
0.1012970948
  0
VERTEX
  8
LAYER_8
 10
-9.9371
 20
216.0111
 42
0.04827473988
  0
VERTEX
  8
LAYER_8
 10
-9.4954
 20
215.9685
 42
0.09684375777
  0
VERTEX
  8
LAYER_8
 10
-8.5823
 20
216.1314
 42
0.1382606358
  0
VERTEX
  8
LAYER_8
 10
-7.831
 20
216.7347
 42
-0.01012269081
  0
VERTEX
  8
LAYER_8
 10
-7.831
 20
216.0938
  0
VERTEX
  8
LAYER_8
 10
-7.0151
 20
216.0938
  0
SEQEND
  0
POLYLINE
  8
LAYER_8
 40
0.05
 41
0.05
 66
1
 10
0
 20
0
 30
0
 70
1
  0
VERTEX
  8
LAYER_8
 10
-7.8786
 20
218.2604
 42
-0.1095386536
  0
VERTEX
  8
LAYER_8
 10
-8.0512
 20
217.4437
 42
-0.1199361921
  0
VERTEX
  8
LAYER_8
 10
-8.4534
 20
216.9519
 42
-0.1209196473
  0
VERTEX
  8
LAYER_8
 10
-9.0539
 20
216.7055
 42
-0.04108384777
  0
VERTEX
  8
LAYER_8
 10
-9.3645
 20
216.6807
 42
-0.1210384521
  0
VERTEX
  8
LAYER_8
 10
-10.0836
 20
216.8493
 42
-0.1552969123
  0
VERTEX
  8
LAYER_8
 10
-10.4405
 20
217.2222
 42
-0.1101808209
  0
VERTEX
  8
LAYER_8
 10
-10.5141
 20
217.581
 42
-0.2541083385
  0
VERTEX
  8
LAYER_8
 10
-10.1607
 20
218.2336
 42
-0.05632516065
  0
VERTEX
  8
LAYER_8
 10
-9.8761
 20
218.386
 42
-0.04424231247
  0
VERTEX
  8
LAYER_8
 10
-9.4522
 20
218.5131
 42
-0.03214641787
  0
VERTEX
  8
LAYER_8
 10
-8.8857
 20
218.5932
 42
-0.02048965766
  0
VERTEX
  8
LAYER_8
 10
-8.2341
 20
218.6168
  0
VERTEX
  8
LAYER_8
 10
-7.8786
 20
218.6168
  0
SEQEND
  0
ENDBLK
  0
BLOCK
  8
LAYER_8
  2
AIGNBL08020027
 70
64
 10
0
 20
0
 30
0
  3
AIGNBL08020027
  0
POLYLINE
  8
LAYER_8
 40
0.05
 41
0.05
 66
1
 10
0
 20
0
 30
0
  0
VERTEX
  8
LAYER_8
 10
-2.3816
 20
222.5694
 42
-0.3911816587
  0
VERTEX
  8
LAYER_8
 10
-1.7162
 20
221.9134
 42
-0.3962775652
  0
VERTEX
  8
LAYER_8
 10
-2.3816
 20
221.249
 42
-0.3917541856
  0
VERTEX
  8
LAYER_8
 10
-3.0465
 20
221.9058
 42
-0.3962384604
  0
VERTEX
  8
LAYER_8
 10
-2.3816
 20
222.5694
  0
SEQEND
  0
POLYLINE
  8
LAYER_8
 40
0.05
 41
0.05
 66
1
 10
0
 20
0
 30
0
  0
VERTEX
  8
LAYER_8
 10
-2.3816
 20
221.3453
 42
0.4000887886
  0
VERTEX
  8
LAYER_8
 10
-1.8235
 20
221.9134
 42
0.3965824436
  0
VERTEX
  8
LAYER_8
 10
-2.3816
 20
222.4732
 42
0.3991350597
  0
VERTEX
  8
LAYER_8
 10
-2.9423
 20
221.9058
 42
0.3960577263
  0
VERTEX
  8
LAYER_8
 10
-2.3816
 20
221.3453
  0
SEQEND
  0
POLYLINE
  8
LAYER_8
 40
0.05
 41
0.05
 66
1
 10
0
 20
0
 30
0
 70
1
  0
VERTEX
  8
LAYER_8
 10
-2.6271
 20
222.2877
  0
VERTEX
  8
LAYER_8
 10
-2.3465
 20
222.2877
 42
-0.1689544217
  0
VERTEX
  8
LAYER_8
 10
-2.1506
 20
222.2398
 42
-0.2573750898
  0
VERTEX
  8
LAYER_8
 10
-2.0783
 20
222.067
 42
-0.4159594774
  0
VERTEX
  8
LAYER_8
 10
-2.2813
 20
221.8598
  0
VERTEX
  8
LAYER_8
 10
-2.06
 20
221.5215
  0
VERTEX
  8
LAYER_8
 10
-2.1757
 20
221.5215
  0
VERTEX
  8
LAYER_8
 10
-2.3844
 20
221.8504
  0
VERTEX
  8
LAYER_8
 10
-2.5215
 20
221.8504
  0
VERTEX
  8
LAYER_8
 10
-2.5215
 20
221.5215
  0
VERTEX
  8
LAYER_8
 10
-2.6271
 20
221.5215
  0
SEQEND
  0
POLYLINE
  8
LAYER_8
 40
0.05
 41
0.05
 66
1
 10
0
 20
0
 30
0
 70
1
  0
VERTEX
  8
LAYER_8
 10
-2.5215
 20
221.9473
  0
VERTEX
  8
LAYER_8
 10
-2.3906
 20
221.9473
 42
0.2474961449
  0
VERTEX
  8
LAYER_8
 10
-2.2112
 20
221.9902
 42
0.1843421729
  0
VERTEX
  8
LAYER_8
 10
-2.1847
 20
222.0724
 42
0.2728673912
  0
VERTEX
  8
LAYER_8
 10
-2.23
 20
222.1656
 42
0.14179533
  0
VERTEX
  8
LAYER_8
 10
-2.3563
 20
222.1913
  0
VERTEX
  8
LAYER_8
 10
-2.5215
 20
222.1913
  0
SEQEND
  0
ENDBLK
  0
BLOCK
  8
LAYER_8
  2
AIGNBL08020028
 70
64
 10
0
 20
0
 30
0
  3
AIGNBL08020028
  0
POLYLINE
  8
LAYER_8
 40
0.05
 41
0.05
 66
1
 10
0
 20
0
 30
0
  0
VERTEX
  8
LAYER_8
 10
-23.704
 20
214.1029
  0
VERTEX
  8
LAYER_8
 10
-23.4337
 20
214.1029
  0
VERTEX
  8
LAYER_8
 10
-22.6792
 20
212.3512
  0
VERTEX
  8
LAYER_8
 10
-23.0351
 20
212.3512
  0
VERTEX
  8
LAYER_8
 10
-23.1989
 20
212.7513
  0
VERTEX
  8
LAYER_8
 10
-23.9579
 20
212.7513
  0
VERTEX
  8
LAYER_8
 10
-24.116
 20
212.3512
  0
VERTEX
  8
LAYER_8
 10
-24.4648
 20
212.3512
  0
SEQEND
  0
POLYLINE
  8
LAYER_8
 40
0.05
 41
0.05
 66
1
 10
0
 20
0
 30
0
 70
1
  0
VERTEX
  8
LAYER_8
 10
-23.3081
 20
213.0189
  0
VERTEX
  8
LAYER_8
 10
-23.5767
 20
213.7308
  0
VERTEX
  8
LAYER_8
 10
-23.8523
 20
213.0189
  0
SEQEND
  0
ENDBLK
  0
BLOCK
  8
LAYER_8
  2
AIGNBL08020029
 70
64
 10
0
 20
0
 30
0
  3
AIGNBL08020029
  0
POLYLINE
  8
LAYER_8
 40
0.05
 41
0.05
 66
1
 10
0
 20
0
 30
0
  0
VERTEX
  8
LAYER_8
 10
-18.1673
 20
212.3512
  0
VERTEX
  8
LAYER_8
 10
-19.1856
 20
212.3512
 42
-0.1498985077
  0
VERTEX
  8
LAYER_8
 10
-19.7815
 20
212.5257
 42
-0.2523688634
  0
VERTEX
  8
LAYER_8
 10
-20.1395
 20
213.2635
 42
-0.4051360019
  0
VERTEX
  8
LAYER_8
 10
-19.2198
 20
214.1463
 42
-0.224501409
  0
VERTEX
  8
LAYER_8
 10
-18.4791
 20
213.7949
 42
-0.1669496671
  0
VERTEX
  8
LAYER_8
 10
-18.3009
 20
213.2635
 42
-0.175299756
  0
VERTEX
  8
LAYER_8
 10
-18.4675
 20
212.7739
 42
-0.08694350938
  0
VERTEX
  8
LAYER_8
 10
-18.6688
 20
212.6077
  0
VERTEX
  8
LAYER_8
 10
-18.6688
 20
212.603
  0
VERTEX
  8
LAYER_8
 10
-18.1673
 20
212.603
  0
SEQEND
  0
POLYLINE
  8
LAYER_8
 40
0.05
 41
0.05
 66
1
 10
0
 20
0
 30
0
  0
VERTEX
  8
LAYER_8
 10
-19.8145
 20
213.2559
 42
0.1875932054
  0
VERTEX
  8
LAYER_8
 10
-19.6465
 20
212.8098
 42
0.2073404857
  0
VERTEX
  8
LAYER_8
 10
-19.2224
 20
212.633
 42
0.4105620229
  0
VERTEX
  8
LAYER_8
 10
-18.6274
 20
213.2559
 42
0.1910634766
  0
VERTEX
  8
LAYER_8
 10
-18.7946
 20
213.6914
 42
0.2063538266
  0
VERTEX
  8
LAYER_8
 10
-19.2274
 20
213.8648
 42
0.4079661945
  0
VERTEX
  8
LAYER_8
 10
-19.8145
 20
213.2559
  0
SEQEND
  0
ENDBLK
  0
BLOCK
  8
LAYER_8
  2
AIGNBL0802002A
 70
64
 10
0
 20
0
 30
0
  3
AIGNBL0802002A
  0
POLYLINE
  8
LAYER_8
 40
0.05
 41
0.05
 66
1
 10
0
 20
0
 30
0
  0
VERTEX
  8
LAYER_8
 10
-14.8442
 20
214.1029
  0
VERTEX
  8
LAYER_8
 10
-14.5738
 20
214.1029
  0
VERTEX
  8
LAYER_8
 10
-13.8207
 20
212.3512
  0
VERTEX
  8
LAYER_8
 10
-14.1752
 20
212.3512
  0
VERTEX
  8
LAYER_8
 10
-14.3392
 20
212.7513
  0
VERTEX
  8
LAYER_8
 10
-15.0981
 20
212.7513
  0
VERTEX
  8
LAYER_8
 10
-15.2575
 20
212.3512
  0
VERTEX
  8
LAYER_8
 10
-15.6063
 20
212.3512
  0
SEQEND
  0
POLYLINE
  8
LAYER_8
 40
0.05
 41
0.05
 66
1
 10
0
 20
0
 30
0
 70
1
  0
VERTEX
  8
LAYER_8
 10
-14.4479
 20
213.0189
  0
VERTEX
  8
LAYER_8
 10
-14.7168
 20
213.7308
  0
VERTEX
  8
LAYER_8
 10
-14.9917
 20
213.0189
  0
SEQEND
  0
ENDBLK
  0
BLOCK
  8
LAYER_8
  2
AIGNBL0802002B
 70
64
 10
0
 20
0
 30
0
  3
AIGNBL0802002B
  0
POLYLINE
  8
LAYER_8
 40
0.05
 41
0.05
 66
1
 10
0
 20
0
 30
0
  0
VERTEX
  8
LAYER_8
 10
-10.3596
 20
214.1029
  0
VERTEX
  8
LAYER_8
 10
-9.7694
 20
214.1029
 42
-0.08664900819
  0
VERTEX
  8
LAYER_8
 10
-9.4428
 20
214.0546
 42
-0.2128687583
  0
VERTEX
  8
LAYER_8
 10
-9.1601
 20
213.8001
 42
-0.09485863917
  0
VERTEX
  8
LAYER_8
 10
-9.1245
 20
213.5956
 42
-0.2245415231
  0
VERTEX
  8
LAYER_8
 10
-9.2838
 20
213.2053
 42
-0.09365248342
  0
VERTEX
  8
LAYER_8
 10
-9.4539
 20
213.1196
 42
-0.07750467464
  0
VERTEX
  8
LAYER_8
 10
-9.8242
 20
213.076
  0
VERTEX
  8
LAYER_8
 10
-10.0473
 20
213.076
  0
VERTEX
  8
LAYER_8
 10
-10.0473
 20
212.3512
  0
VERTEX
  8
LAYER_8
 10
-10.3596
 20
212.3512
  0
SEQEND
  0
POLYLINE
  8
LAYER_8
 40
0.05
 41
0.05
 66
1
 10
0
 20
0
 30
0
 70
1
  0
VERTEX
  8
LAYER_8
 10
-9.8588
 20
213.3431
 42
0.1309894322
  0
VERTEX
  8
LAYER_8
 10
-9.5664
 20
213.3874
 42
0.3030880954
  0
VERTEX
  8
LAYER_8
 10
-9.4514
 20
213.5902
 42
0.3460368744
  0
VERTEX
  8
LAYER_8
 10
-9.6132
 20
213.8091
 42
0.07918236105
  0
VERTEX
  8
LAYER_8
 10
-9.8242
 20
213.8357
  0
VERTEX
  8
LAYER_8
 10
-10.0473
 20
213.8357
  0
VERTEX
  8
LAYER_8
 10
-10.0473
 20
213.3431
  0
SEQEND
  0
ENDBLK
  0
BLOCK
  8
LAYER_8
  2
AIGNBL0802002C
 70
64
 10
0
 20
0
 30
0
  3
AIGNBL0802002C
  0
POLYLINE
  8
LAYER_8
 40
0.05
 41
0.05
 66
1
 10
0
 20
0
 30
0
  0
VERTEX
  8
LAYER_8
 10
-8.092
 20
214.1029
  0
VERTEX
  8
LAYER_8
 10
-7.823
 20
214.1029
  0
VERTEX
  8
LAYER_8
 10
-7.0685
 20
212.3512
  0
VERTEX
  8
LAYER_8
 10
-7.4235
 20
212.3512
  0
VERTEX
  8
LAYER_8
 10
-7.5873
 20
212.7513
  0
VERTEX
  8
LAYER_8
 10
-8.3463
 20
212.7513
  0
VERTEX
  8
LAYER_8
 10
-8.5054
 20
212.3512
  0
VERTEX
  8
LAYER_8
 10
-8.8537
 20
212.3512
  0
SEQEND
  0
POLYLINE
  8
LAYER_8
 40
0.05
 41
0.05
 66
1
 10
0
 20
0
 30
0
 70
1
  0
VERTEX
  8
LAYER_8
 10
-7.6957
 20
213.0189
  0
VERTEX
  8
LAYER_8
 10
-7.9656
 20
213.7308
  0
VERTEX
  8
LAYER_8
 10
-8.2403
 20
213.0189
  0
SEQEND
  0
ENDBLK
  0
BLOCK
  8
LAYER_6
  2
AIGNBL06010002
 70
64
 10
0
 20
0
 30
0
  3
AIGNBL06010002
  0
INSERT
  8
LAYER_6
  2
AIGNBL06020003
 10
0
 20
0
 30
0
  0
ENDBLK
  0
BLOCK
  8
LAYER_6
  2
AIGNBL06010004
 70
64
 10
0
 20
0
 30
0
  3
AIGNBL06010004
  0
POLYLINE
  8
LAYER_6
 40
0.05
 41
0.05
 62
254
 66
1
 10
0
 20
0
 30
0
  0
VERTEX
  8
LAYER_6
 10
-95.9571
 20
186.9019
  0
VERTEX
  8
LAYER_6
 10
-96.4212
 20
187.8108
  0
VERTEX
  8
LAYER_6
 10
-95.9382
 20
187.9217
  0
VERTEX
  8
LAYER_6
 10
-95.9571
 20
186.9019
  0
SEQEND
  0
ENDBLK
  0
BLOCK
  8
LAYER_6
  2
AIGNBL06010005
 70
64
 10
0
 20
0
 30
0
  3
AIGNBL06010005
  0
INSERT
  8
LAYER_6
  2
AIGNBL06020006
 10
0
 20
0
 30
0
  0
ENDBLK
  0
BLOCK
  8
LAYER_6
  2
AIGNBL06010007
 70
64
 10
0
 20
0
 30
0
  3
AIGNBL06010007
  0
INSERT
  8
LAYER_6
  2
AIGNBL06020008
 10
0
 20
0
 30
0
  0
ENDBLK
  0
BLOCK
  8
LAYER_6
  2
AIGNBL06010009
 70
64
 10
0
 20
0
 30
0
  3
AIGNBL06010009
  0
INSERT
  8
LAYER_6
  2
AIGNBL0602000A
 10
0
 20
0
 30
0
  0
ENDBLK
  0
BLOCK
  8
LAYER_6
  2
AIGNBL0601000B
 70
64
 10
0
 20
0
 30
0
  3
AIGNBL0601000B
  0
INSERT
  8
LAYER_6
  2
AIGNBL0602000C
 10
0
 20
0
 30
0
  0
ENDBLK
  0
BLOCK
  8
LAYER_6
  2
AIGNBL0601000D
 70
64
 10
0
 20
0
 30
0
  3
AIGNBL0601000D
  0
INSERT
  8
LAYER_6
  2
AIGNBL0602000E
 10
0
 20
0
 30
0
  0
ENDBLK
  0
BLOCK
  8
LAYER_6
  2
AIGNBL0601000F
 70
64
 10
0
 20
0
 30
0
  3
AIGNBL0601000F
  0
INSERT
  8
LAYER_6
  2
AIGNBL06020010
 10
0
 20
0
 30
0
  0
ENDBLK
  0
BLOCK
  8
LAYER_6
  2
AIGNBL06010011
 70
64
 10
0
 20
0
 30
0
  3
AIGNBL06010011
  0
INSERT
  8
LAYER_6
  2
AIGNBL06020012
 10
0
 20
0
 30
0
  0
ENDBLK
  0
BLOCK
  8
LAYER_6
  2
AIGNBL06010013
 70
64
 10
0
 20
0
 30
0
  3
AIGNBL06010013
  0
INSERT
  8
LAYER_6
  2
AIGNBL06020014
 10
0
 20
0
 30
0
  0
ENDBLK
  0
BLOCK
  8
LAYER_6
  2
AIGNBL06010015
 70
64
 10
0
 20
0
 30
0
  3
AIGNBL06010015
  0
INSERT
  8
LAYER_6
  2
AIGNBL06020016
 10
0
 20
0
 30
0
  0
ENDBLK
  0
BLOCK
  8
LAYER_6
  2
AIGNBL06010017
 70
64
 10
0
 20
0
 30
0
  3
AIGNBL06010017
  0
TEXT
  8
LAYER_6
 10
-80.1632
 20
197.6498
 11
-80.1632
 21
197.6498
 40
4.1465
 41
0.5
  1
345
  0
ENDBLK
  0
BLOCK
  8
LAYER_6
  2
AIGNBL06010018
 70
64
 10
0
 20
0
 30
0
  3
AIGNBL06010018
  0
POLYLINE
  8
LAYER_6
 40
0.1058
 41
0.1058
 66
1
 10
0
 20
0
 30
0
  0
VERTEX
  8
LAYER_6
 10
-75.5449
 20
202.5487
  0
VERTEX
  8
LAYER_6
 10
-75.5449
 20
217.2083
  0
SEQEND
  0
POLYLINE
  8
LAYER_6
 40
0.1058
 41
0.1058
 66
1
 10
0
 20
0
 30
0
  0
VERTEX
  8
LAYER_6
 10
-81.0267
 20
217.2083
  0
VERTEX
  8
LAYER_6
 10
-70.9003
 20
217.2096
  0
VERTEX
  8
LAYER_6
 10
-70.9003
 20
222.7051
  0
SEQEND
  0
POLYLINE
  8
LAYER_6
 40
0.1058
 41
0.1058
 66
1
 10
0
 20
0
 30
0
  0
VERTEX
  8
LAYER_6
 10
-75.5449
 20
183.3528
  0
VERTEX
  8
LAYER_6
 10
-81.0267
 20
183.3528
  0
SEQEND
  0
POLYLINE
  8
LAYER_6
 40
0.1058
 41
0.1058
 66
1
 10
0
 20
0
 30
0
  0
VERTEX
  8
LAYER_6
 10
-75.5539
 20
196.5729
  0
VERTEX
  8
LAYER_6
 10
-75.5449
 20
182.0127
  0
VERTEX
  8
LAYER_6
 10
-81.0267
 20
182.0127
  0
SEQEND
  0
ENDBLK
  0
BLOCK
  8
LAYER_6
  2
AIGNBL06010019
 70
64
 10
0
 20
0
 30
0
  3
AIGNBL06010019
  0
TEXT
  8
LAYER_6
 10
-76.9469
 20
232.6564
 11
-76.9469
 21
232.6564
 40
4.1465
 41
0.5
  1
70
  0
ENDBLK
  0
BLOCK
  8
LAYER_6
  2
AIGNBL0601001A
 70
64
 10
0
 20
0
 30
0
  3
AIGNBL0601001A
  0
TEXT
  8
LAYER_6
 10
-75.5096
 20
223.3526
 11
-75.5096
 21
223.3526
 40
4.1465
 41
0.5
  1
145
  0
ENDBLK
  0
BLOCK
  8
LAYER_6
  2
AIGNBL0601001B
 70
64
 10
0
 20
0
 30
0
  3
AIGNBL0601001B
  0
TEXT
  8
LAYER_6
 10
-74.6235
 20
180.9128
 11
-74.6235
 21
180.9128
 40
4.1465
 41
0.5
  1
10
  0
ENDBLK
  0
BLOCK
  8
LAYER_6
  2
AIGNBL0601001C
 70
64
 10
0
 20
0
 30
0
  3
AIGNBL0601001C
  0
POLYLINE
  8
LAYER_6
 40
0.1058
 41
0.1058
 66
1
 10
0
 20
0
 30
0
  0
VERTEX
  8
LAYER_6
 10
-70.9003
 20
227.9878
  0
VERTEX
  8
LAYER_6
 10
-70.9003
 20
231.7678
  0
VERTEX
  8
LAYER_6
 10
-81.0267
 20
231.7678
  0
SEQEND
  0
ENDBLK
  0
BLOCK
  8
LAYER_6
  2
AIGNBL0601001D
 70
64
 10
0
 20
0
 30
0
  3
AIGNBL0601001D
  0
POLYLINE
  8
LAYER_6
 40
0.1058
 41
0.1058
 66
1
 10
0
 20
0
 30
0
  0
VERTEX
  8
LAYER_6
 10
-159.8574
 20
234.2823
  0
VERTEX
  8
LAYER_6
 10
-159.8574
 20
239.0359
  0
VERTEX
  8
LAYER_6
 10
-129.7993
 20
239.0359
  0
SEQEND
  0
POLYLINE
  8
LAYER_6
 40
0.1058
 41
0.1058
 66
1
 10
0
 20
0
 30
0
  0
VERTEX
  8
LAYER_6
 10
-119.6728
 20
239.0359
  0
VERTEX
  8
LAYER_6
 10
-89.2089
 20
239.0359
  0
VERTEX
  8
LAYER_6
 10
-89.2089
 20
234.2823
  0
SEQEND
  0
TEXT
  8
LAYER_6
 10
-120.3772
 20
237.2711
 11
-120.3772
 21
237.2711
 40
4.1465
 41
0.5
 72
1
  1
700
  0
ENDBLK
  0
BLOCK
  8
LAYER_6
  2
AIGNBL0601001E
 70
64
 10
0
 20
0
 30
0
  3
AIGNBL0601001E
  0
POLYLINE
  8
LAYER_6
 40
0.1058
 41
0.1058
 66
1
 10
0
 20
0
 30
0
  0
VERTEX
  8
LAYER_6
 10
-84.7516
 20
234.2823
  0
VERTEX
  8
LAYER_6
 10
-84.7516
 20
245.1857
  0
VERTEX
  8
LAYER_6
 10
-119.6735
 20
245.1857
  0
SEQEND
  0
POLYLINE
  8
LAYER_6
 40
0.1058
 41
0.1058
 66
1
 10
0
 20
0
 30
0
  0
VERTEX
  8
LAYER_6
 10
-129.8
 20
245.1857
  0
VERTEX
  8
LAYER_6
 10
-164.7519
 20
245.1857
  0
VERTEX
  8
LAYER_6
 10
-164.7519
 20
234.2823
  0
SEQEND
  0
TEXT
  8
LAYER_6
 10
-120.3817
 20
243.2535
 11
-120.3817
 21
243.2535
 40
4.1465
 41
0.5
 72
1
  1
800
  0
ENDBLK
  0
BLOCK
  8
LAYER_6
  2
AIGNBL0601001F
 70
64
 10
0
 20
0
 30
0
  3
AIGNBL0601001F
  0
POLYLINE
  8
LAYER_6
 40
0.1058
 41
0.1058
 66
1
 10
0
 20
0
 30
0
  0
VERTEX
  8
LAYER_6
 10
-163.4024
 20
180.0862
  0
VERTEX
  8
LAYER_6
 10
-163.4024
 20
175.0708
  0
VERTEX
  8
LAYER_6
 10
-129.5465
 20
175.0708
  0
SEQEND
  0
POLYLINE
  8
LAYER_6
 40
0.1058
 41
0.1058
 66
1
 10
0
 20
0
 30
0
  0
VERTEX
  8
LAYER_6
 10
-119.8258
 20
175.0708
  0
VERTEX
  8
LAYER_6
 10
-85.7334
 20
175.0708
  0
VERTEX
  8
LAYER_6
 10
-85.7334
 20
180.0862
  0
SEQEND
  0
TEXT
  8
LAYER_6
 10
-120.2249
 20
173.3078
 11
-120.2249
 21
173.3078
 40
4.1465
 41
0.5
 72
1
  1
780
  0
TEXT
  8
LAYER_6
 10
-161.2311
 20
170.6471
 11
-161.2311
 21
170.6471
 40
4.1465
 41
0.5
 72
1
  1
10
  0
TEXT
  8
LAYER_6
 10
-82.2164
 20
170.6471
 11
-82.2164
 21
170.6471
 40
4.1465
 41
0.5
 72
1
  1
10
  0
ENDBLK
  0
BLOCK
  8
LAYER_6
  2
AIGNBL06010020
 70
64
 10
0
 20
0
 30
0
  3
AIGNBL06010020
  0
INSERT
  8
LAYER_6
  2
AIGNBL06020021
 10
0
 20
0
 30
0
  0
ENDBLK
  0
BLOCK
  8
LAYER_6
  2
AIGNBL06010022
 70
64
 10
0
 20
0
 30
0
  3
AIGNBL06010022
  0
INSERT
  8
LAYER_6
  2
AIGNBL06020023
 10
0
 20
0
 30
0
  0
ENDBLK
  0
BLOCK
  8
LAYER_6
  2
AIGNBL06010024
 70
64
 10
0
 20
0
 30
0
  3
AIGNBL06010024
  0
POLYLINE
  8
LAYER_6
 40
0.1058
 41
0.1058
 66
1
 10
0
 20
0
 30
0
  0
VERTEX
  8
LAYER_6
 10
13.6098
 20
83.5222
  0
VERTEX
  8
LAYER_6
 10
18.6859
 20
83.5222
  0
SEQEND
  0
ENDBLK
  0
BLOCK
  8
LAYER_6
  2
AIGNBL06010025
 70
64
 10
0
 20
0
 30
0
  3
AIGNBL06010025
  0
POLYLINE
  8
LAYER_6
 40
0.1058
 41
0.1058
 66
1
 10
0
 20
0
 30
0
  0
VERTEX
  8
LAYER_6
 10
18.6859
 20
83.5222
  0
VERTEX
  8
LAYER_6
 10
13.6098
 20
83.5222
  0
VERTEX
  8
LAYER_6
 10
13.6098
 20
89.351
  0
SEQEND
  0
POLYLINE
  8
LAYER_6
 40
0.1058
 41
0.1058
 66
1
 10
0
 20
0
 30
0
  0
VERTEX
  8
LAYER_6
 10
13.5843
 20
94.139
  0
VERTEX
  8
LAYER_6
 10
13.5843
 20
99.6718
  0
VERTEX
  8
LAYER_6
 10
18.6859
 20
99.6718
  0
SEQEND
  0
TEXT
  8
LAYER_6
 10
9.299
 20
89.9663
 11
9.299
 21
89.9663
 40
3.5541
 41
0.5
  1
160
  0
ENDBLK
  0
BLOCK
  8
LAYER_6
  2
AIGNBL06010026
 70
64
 10
0
 20
0
 30
0
  3
AIGNBL06010026
  0
INSERT
  8
LAYER_6
  2
AIGNBL06020027
 10
0
 20
0
 30
0
  0
ENDBLK
  0
BLOCK
  8
LAYER_6
  2
AIGNBL0601002A
 70
64
 10
0
 20
0
 30
0
  3
AIGNBL0601002A
  0
INSERT
  8
LAYER_6
  2
AIGNBL0602002B
 10
0
 20
0
 30
0
  0
ENDBLK
  0
BLOCK
  8
LAYER_6
  2
AIGNBL0601002E
 70
64
 10
0
 20
0
 30
0
  3
AIGNBL0601002E
  0
POLYLINE
  8
LAYER_6
  6
AIGENLINE016
 40
0.1058
 41
0.1058
 66
1
 10
0
 20
0
 30
0
 70
128
  0
VERTEX
  8
LAYER_6
 10
163.2555
 20
99.9339
  0
VERTEX
  8
LAYER_6
 10
163.2514
 20
103.7081
  0
SEQEND
  0
ENDBLK
  0
BLOCK
  8
LAYER_6
  2
AIGNBL0601002F
 70
64
 10
0
 20
0
 30
0
  3
AIGNBL0601002F
  0
TEXT
  8
LAYER_6
 10
158.8854
 20
91.7267
 11
158.8854
 21
91.7267
 40
3.5541
 41
0.5
  1
100
  0
ENDBLK
  0
BLOCK
  8
LAYER_6
  2
AIGNBL06010030
 70
64
 10
0
 20
0
 30
0
  3
AIGNBL06010030
  0
POLYLINE
  8
LAYER_6
 40
0.1058
 41
0.1058
 66
1
 10
0
 20
0
 30
0
  0
VERTEX
  8
LAYER_6
 10
199.6853
 20
94.2151
  0
VERTEX
  8
LAYER_6
 10
199.6853
 20
99.3286
  0
VERTEX
  8
LAYER_6
 10
194.2848
 20
99.3286
  0
SEQEND
  0
POLYLINE
  8
LAYER_6
 40
0.1058
 41
0.1058
 66
1
 10
0
 20
0
 30
0
  0
VERTEX
  8
LAYER_6
 10
199.6853
 20
88.5441
  0
VERTEX
  8
LAYER_6
 10
199.6853
 20
83.5298
  0
SEQEND
  0
ENDBLK
  0
BLOCK
  8
LAYER_6
  2
AIGNBL06010031
 70
64
 10
0
 20
0
 30
0
  3
AIGNBL06010031
  0
POLYLINE
  8
LAYER_6
 40
0.1058
 41
0.1058
 66
1
 10
0
 20
0
 30
0
  0
VERTEX
  8
LAYER_6
 10
199.6853
 20
83.5139
  0
VERTEX
  8
LAYER_6
 10
194.2848
 20
83.5139
  0
SEQEND
  0
ENDBLK
  0
BLOCK
  8
LAYER_6
  2
AIGNBL06010032
 70
64
 10
0
 20
0
 30
0
  3
AIGNBL06010032
  0
TEXT
  8
LAYER_6
 10
187.8118
 20
107.219
 11
187.8118
 21
107.219
 40
3.5541
 41
0.5
  1
10
  0
ENDBLK
  0
BLOCK
  8
LAYER_6
  2
AIGNBL06010033
 70
64
 10
0
 20
0
 30
0
  3
AIGNBL06010033
  0
POLYLINE
  8
LAYER_6
 40
0.1058
 41
0.1058
 66
1
 10
0
 20
0
 30
0
  0
VERTEX
  8
LAYER_6
 10
191.5559
 20
102.9908
  0
VERTEX
  8
LAYER_6
 10
191.5559
 20
106.636
  0
VERTEX
  8
LAYER_6
 10
190.4073
 20
106.636
  0
VERTEX
  8
LAYER_6
 10
190.4073
 20
102.9908
  0
SEQEND
  0
ENDBLK
  0
BLOCK
  8
LAYER_6
  2
AIGNBL06010034
 70
64
 10
0
 20
0
 30
0
  3
AIGNBL06010034
  0
POLYLINE
  8
LAYER_6
  6
AIGENLINE017
 40
0.1658
 41
0.1658
 66
1
 10
0
 20
0
 30
0
 70
129
  0
VERTEX
  8
LAYER_6
 10
52.1643
 20
95.4584
 42
-0.120459806
  0
VERTEX
  8
LAYER_6
 10
52.1131
 20
95.259
 42
-0.08650133841
  0
VERTEX
  8
LAYER_6
 10
51.967
 20
95.0755
 42
-0.05988588944
  0
VERTEX
  8
LAYER_6
 10
51.7225
 20
94.9047
 42
-0.04547680918
  0
VERTEX
  8
LAYER_6
 10
51.3604
 20
94.7503
 42
-0.07509733692
  0
VERTEX
  8
LAYER_6
 10
50.2913
 20
94.5762
 42
-0.007153011929
  0
VERTEX
  8
LAYER_6
 10
50.1627
 20
94.5744
 42
-0.0759855135
  0
VERTEX
  8
LAYER_6
 10
48.9644
 20
94.7503
 42
-0.103211681
  0
VERTEX
  8
LAYER_6
 10
48.3268
 20
95.1048
 42
-0.1857622164
  0
VERTEX
  8
LAYER_6
 10
48.1597
 20
95.4584
 42
-0.1204936168
  0
VERTEX
  8
LAYER_6
 10
48.211
 20
95.6581
 42
-0.08654960798
  0
VERTEX
  8
LAYER_6
 10
48.3573
 20
95.8417
 42
-0.05990236092
  0
VERTEX
  8
LAYER_6
 10
48.602
 20
96.0126
 42
-0.04546498996
  0
VERTEX
  8
LAYER_6
 10
48.9644
 20
96.167
 42
-0.07502447431
  0
VERTEX
  8
LAYER_6
 10
50.0341
 20
96.341
 42
-0.007144346849
  0
VERTEX
  8
LAYER_6
 10
50.1627
 20
96.3428
 42
-0.07601149819
  0
VERTEX
  8
LAYER_6
 10
51.3604
 20
96.167
 42
-0.103404526
  0
VERTEX
  8
LAYER_6
 10
51.9974
 20
95.8124
 42
-0.1856586178
  0
SEQEND
  0
ENDBLK
  0
BLOCK
  8
LAYER_6
  2
AIGNBL06010035
 70
64
 10
0
 20
0
 30
0
  3
AIGNBL06010035
  0
POLYLINE
  8
LAYER_6
  6
AIGENLINE018
 40
0.1658
 41
0.1658
 66
1
 10
0
 20
0
 30
0
 70
129
  0
VERTEX
  8
LAYER_6
 10
62.1158
 20
95.4584
 42
-0.1205927839
  0
VERTEX
  8
LAYER_6
 10
62.0645
 20
95.259
 42
-0.08650969629
  0
VERTEX
  8
LAYER_6
 10
61.9182
 20
95.0755
 42
-0.0598443912
  0
VERTEX
  8
LAYER_6
 10
61.6735
 20
94.9047
 42
-0.04542898086
  0
VERTEX
  8
LAYER_6
 10
61.3111
 20
94.7503
 42
-0.07502656119
  0
VERTEX
  8
LAYER_6
 10
60.2414
 20
94.5762
 42
-0.007150136111
  0
VERTEX
  8
LAYER_6
 10
60.1128
 20
94.5744
 42
-0.07601123709
  0
VERTEX
  8
LAYER_6
 10
58.9148
 20
94.7503
 42
-0.1032642706
  0
VERTEX
  8
LAYER_6
 10
58.2775
 20
95.1048
 42
-0.1857090023
  0
VERTEX
  8
LAYER_6
 10
58.1105
 20
95.4584
 42
-0.1204225632
  0
VERTEX
  8
LAYER_6
 10
58.1618
 20
95.6581
 42
-0.08654580249
  0
VERTEX
  8
LAYER_6
 10
58.3079
 20
95.8417
 42
-0.05992515638
  0
VERTEX
  8
LAYER_6
 10
58.5525
 20
96.0126
 42
-0.04549083912
  0
VERTEX
  8
LAYER_6
 10
58.9148
 20
96.167
 42
-0.07506153591
  0
VERTEX
  8
LAYER_6
 10
59.9842
 20
96.341
 42
-0.007145627881
  0
VERTEX
  8
LAYER_6
 10
60.1128
 20
96.3428
 42
-0.0759600716
  0
VERTEX
  8
LAYER_6
 10
61.3111
 20
96.167
 42
-0.1033073253
  0
VERTEX
  8
LAYER_6
 10
61.9487
 20
95.8124
 42
-0.1857599236
  0
SEQEND
  0
ENDBLK
  0
BLOCK
  8
LAYER_6
  2
AIGNBL06010036
 70
64
 10
0
 20
0
 30
0
  3
AIGNBL06010036
  0
POLYLINE
  8
LAYER_6
  6
AIGENLINE019
 40
0.1658
 41
0.1658
 66
1
 10
0
 20
0
 30
0
 70
129
  0
VERTEX
  8
LAYER_6
 10
90.4741
 20
95.4584
 42
-0.1205623241
  0
VERTEX
  8
LAYER_6
 10
90.4228
 20
95.259
 42
-0.08650809208
  0
VERTEX
  8
LAYER_6
 10
90.2766
 20
95.0755
 42
-0.05985415959
  0
VERTEX
  8
LAYER_6
 10
90.0319
 20
94.9047
 42
-0.04544005114
  0
VERTEX
  8
LAYER_6
 10
89.6696
 20
94.7503
 42
-0.07504244359
  0
VERTEX
  8
LAYER_6
 10
88.6
 20
94.5762
 42
-0.007150685535
  0
VERTEX
  8
LAYER_6
 10
88.4714
 20
94.5744
 42
-0.07601122117
  0
VERTEX
  8
LAYER_6
 10
87.2734
 20
94.7503
 42
-0.1032562092
  0
VERTEX
  8
LAYER_6
 10
86.6361
 20
95.1048
 42
-0.1857143549
  0
VERTEX
  8
LAYER_6
 10
86.4691
 20
95.4584
 42
-0.1204317649
  0
VERTEX
  8
LAYER_6
 10
86.5204
 20
95.6581
 42
-0.086544986
  0
VERTEX
  8
LAYER_6
 10
86.6666
 20
95.8417
 42
-0.0599210576
  0
VERTEX
  8
LAYER_6
 10
86.9111
 20
96.0126
 42
-0.0454869709
  0
VERTEX
  8
LAYER_6
 10
87.2734
 20
96.167
 42
-0.07505815076
  0
VERTEX
  8
LAYER_6
 10
88.3428
 20
96.341
 42
-0.007145938793
  0
VERTEX
  8
LAYER_6
 10
88.4714
 20
96.3428
 42
-0.07597108973
  0
VERTEX
  8
LAYER_6
 10
89.6696
 20
96.167
 42
-0.103329869
  0
VERTEX
  8
LAYER_6
 10
90.3071
 20
95.8124
 42
-0.1857370885
  0
SEQEND
  0
ENDBLK
  0
BLOCK
  8
LAYER_6
  2
AIGNBL06010037
 70
64
 10
0
 20
0
 30
0
  3
AIGNBL06010037
  0
POLYLINE
  8
LAYER_6
  6
AIGENLINE017
 40
0.1658
 41
0.1658
 66
1
 10
0
 20
0
 30
0
 70
129
  0
VERTEX
  8
LAYER_6
 10
100.4238
 20
95.4584
 42
-0.1204505977
  0
VERTEX
  8
LAYER_6
 10
100.3726
 20
95.259
 42
-0.08650215831
  0
VERTEX
  8
LAYER_6
 10
100.2265
 20
95.0755
 42
-0.05988999021
  0
VERTEX
  8
LAYER_6
 10
99.9821
 20
94.9047
 42
-0.04548067997
  0
VERTEX
  8
LAYER_6
 10
99.62
 20
94.7503
 42
-0.0751007254
  0
VERTEX
  8
LAYER_6
 10
98.5508
 20
94.5762
 42
-0.007152700635
  0
VERTEX
  8
LAYER_6
 10
98.4222
 20
94.5744
 42
-0.07598917093
  0
VERTEX
  8
LAYER_6
 10
97.224
 20
94.7503
 42
-0.1032111353
  0
VERTEX
  8
LAYER_6
 10
96.5864
 20
95.1048
 42
-0.1857599639
  0
VERTEX
  8
LAYER_6
 10
96.4193
 20
95.4584
 42
-0.1204926666
  0
VERTEX
  8
LAYER_6
 10
96.4706
 20
95.6581
 42
-0.08654824695
  0
VERTEX
  8
LAYER_6
 10
96.6169
 20
95.8417
 42
-0.05990152002
  0
VERTEX
  8
LAYER_6
 10
96.8616
 20
96.0126
 42
-0.04546481584
  0
VERTEX
  8
LAYER_6
 10
97.224
 20
96.167
 42
-0.07502638321
  0
VERTEX
  8
LAYER_6
 10
98.2936
 20
96.341
 42
-0.007144840624
  0
VERTEX
  8
LAYER_6
 10
98.4222
 20
96.3428
 42
-0.07601151278
  0
VERTEX
  8
LAYER_6
 10
99.62
 20
96.167
 42
-0.1034125959
  0
VERTEX
  8
LAYER_6
 10
100.2569
 20
95.8124
 42
-0.1856532444
  0
SEQEND
  0
ENDBLK
  0
BLOCK
  8
LAYER_6
  2
AIGNBL06010038
 70
64
 10
0
 20
0
 30
0
  3
AIGNBL06010038
  0
TEXT
  8
LAYER_6
 10
70.2448
 20
106.2023
 11
70.2448
 21
106.2023
 40
3.5541
 41
0.5
  1
285
  0
ENDBLK
  0
BLOCK
  8
LAYER_6
  2
AIGNBL06010039
 70
64
 10
0
 20
0
 30
0
  3
AIGNBL06010039
  0
TEXT
  8
LAYER_6
 10
50.6133
 20
108.4547
 11
50.6133
 21
108.4547
 40
3.5541
 41
0.5
  1
100
  0
ENDBLK
  0
BLOCK
  8
LAYER_6
  2
AIGNBL0601003A
 70
64
 10
0
 20
0
 30
0
  3
AIGNBL0601003A
  0
TEXT
  8
LAYER_6
 10
88.7291
 20
108.4547
 11
88.7291
 21
108.4547
 40
3.5541
 41
0.5
  1
100
  0
ENDBLK
  0
BLOCK
  8
LAYER_6
  2
AIGNBL0601003B
 70
64
 10
0
 20
0
 30
0
  3
AIGNBL0601003B
  0
INSERT
  8
LAYER_6
  2
AIGNBL0602003C
 10
0
 20
0
 30
0
  0
ENDBLK
  0
BLOCK
  8
LAYER_6
  2
AIGNBL0601003D
 70
64
 10
0
 20
0
 30
0
  3
AIGNBL0601003D
  0
POLYLINE
  8
LAYER_6
 40
0.381
 41
0.381
 66
1
 10
0
 20
0
 30
0
  0
VERTEX
  8
LAYER_6
 10
25.0727
 20
99.4389
 42
0.1098793905
  0
VERTEX
  8
LAYER_6
 10
24.7853
 20
99.3895
 42
0.2510549481
  0
VERTEX
  8
LAYER_6
 10
24.5876
 20
99.1363
 42
0.0736820408
  0
VERTEX
  8
LAYER_6
 10
24.5776
 20
98.9004
 42
0.3296403119
  0
VERTEX
  8
LAYER_6
 10
37.0827
 20
84.5847
 42
-0.1173025636
  0
VERTEX
  8
LAYER_6
 10
37.3268
 20
84.4834
 42
-0.127003015
  0
VERTEX
  8
LAYER_6
 10
37.4308
 20
84.3505
 42
-0.1075665308
  0
VERTEX
  8
LAYER_6
 10
37.474
 20
84.0986
  0
VERTEX
  8
LAYER_6
 10
37.474
 20
83.5222
  0
VERTEX
  8
LAYER_6
 10
111.0936
 20
83.5222
  0
VERTEX
  8
LAYER_6
 10
111.0936
 20
84.0986
 42
-0.1165724575
  0
VERTEX
  8
LAYER_6
 10
111.1405
 20
84.3593
 42
-0.2413290437
  0
VERTEX
  8
LAYER_6
 10
111.4275
 20
84.5707
 42
-0.01823330506
  0
VERTEX
  8
LAYER_6
 10
111.4847
 20
84.5847
 42
0.3296097015
  0
VERTEX
  8
LAYER_6
 10
123.99
 20
98.9004
  0
VERTEX
  8
LAYER_6
 10
123.9855
 20
98.9004
 42
0.1092076562
  0
VERTEX
  8
LAYER_6
 10
123.9595
 20
99.1914
 42
0.250835574
  0
VERTEX
  8
LAYER_6
 10
123.7237
 20
99.4094
 42
0.07361020183
  0
VERTEX
  8
LAYER_6
 10
123.4898
 20
99.4389
  0
VERTEX
  8
LAYER_6
 10
25.0727
 20
99.4389
  0
SEQEND
  0
ENDBLK
  0
BLOCK
  8
LAYER_6
  2
AIGNBL0601003E
 70
64
 10
0
 20
0
 30
0
  3
AIGNBL0601003E
  0
INSERT
  8
LAYER_6
  2
AIGNBL0602003F
 10
0
 20
0
 30
0
  0
ENDBLK
  0
BLOCK
  8
LAYER_6
  2
AIGNBL06010040
 70
64
 10
0
 20
0
 30
0
  3
AIGNBL06010040
  0
INSERT
  8
LAYER_6
  2
AIGNBL06020041
 10
0
 20
0
 30
0
  0
ENDBLK
  0
BLOCK
  8
LAYER_6
  2
AIGNBL06010042
 70
64
 10
0
 20
0
 30
0
  3
AIGNBL06010042
  0
TEXT
  8
LAYER_6
 10
127.76
 20
145.6114
 11
127.76
 21
145.6114
 40
3.5541
 41
0.5
  1
365
  0
ENDBLK
  0
BLOCK
  8
LAYER_6
  2
AIGNBL06010043
 70
64
 10
0
 20
0
 30
0
  3
AIGNBL06010043
  0
POLYLINE
  8
LAYER_6
 40
0.1058
 41
0.1058
 66
1
 10
0
 20
0
 30
0
  0
VERTEX
  8
LAYER_6
 10
132.3971
 20
150.5159
  0
VERTEX
  8
LAYER_6
 10
132.3971
 20
165.2381
  0
SEQEND
  0
POLYLINE
  8
LAYER_6
 40
0.1058
 41
0.1058
 66
1
 10
0
 20
0
 30
0
  0
VERTEX
  8
LAYER_6
 10
126.8918
 20
165.2381
  0
VERTEX
  8
LAYER_6
 10
137.0624
 20
165.2395
  0
VERTEX
  8
LAYER_6
 10
137.0624
 20
170.7596
  0
SEQEND
  0
POLYLINE
  8
LAYER_6
 40
0.1058
 41
0.1058
 66
1
 10
0
 20
0
 30
0
  0
VERTEX
  8
LAYER_6
 10
132.3971
 20
128.9389
  0
VERTEX
  8
LAYER_6
 10
126.8918
 20
128.9389
  0
SEQEND
  0
POLYLINE
  8
LAYER_6
 40
0.1058
 41
0.1058
 66
1
 10
0
 20
0
 30
0
  0
VERTEX
  8
LAYER_6
 10
132.3888
 20
144.5148
  0
VERTEX
  8
LAYER_6
 10
132.3971
 20
127.5932
  0
VERTEX
  8
LAYER_6
 10
126.8918
 20
127.5932
  0
SEQEND
  0
ENDBLK
  0
BLOCK
  8
LAYER_6
  2
AIGNBL06010044
 70
64
 10
0
 20
0
 30
0
  3
AIGNBL06010044
  0
TEXT
  8
LAYER_6
 10
130.9894
 20
180.7683
 11
130.9894
 21
180.7683
 40
3.5541
 41
0.5
  1
70
  0
ENDBLK
  0
BLOCK
  8
LAYER_6
  2
AIGNBL06010045
 70
64
 10
0
 20
0
 30
0
  3
AIGNBL06010045
  0
TEXT
  8
LAYER_6
 10
132.4329
 20
171.4245
 11
132.4329
 21
171.4245
 40
3.5541
 41
0.5
  1
145
  0
ENDBLK
  0
BLOCK
  8
LAYER_6
  2
AIGNBL06010046
 70
64
 10
0
 20
0
 30
0
  3
AIGNBL06010046
  0
TEXT
  8
LAYER_6
 10
133.3224
 20
126.5032
 11
133.3224
 21
126.5032
 40
3.5541
 41
0.5
  1
10
  0
ENDBLK
  0
BLOCK
  8
LAYER_6
  2
AIGNBL06010047
 70
64
 10
0
 20
0
 30
0
  3
AIGNBL06010047
  0
POLYLINE
  8
LAYER_6
 40
0.1058
 41
0.1058
 66
1
 10
0
 20
0
 30
0
  0
VERTEX
  8
LAYER_6
 10
137.0624
 20
176.064
  0
VERTEX
  8
LAYER_6
 10
137.0624
 20
179.8598
  0
VERTEX
  8
LAYER_6
 10
126.8918
 20
179.8598
  0
SEQEND
  0
ENDBLK
  0
BLOCK
  8
LAYER_6
  2
AIGNBL06010048
 70
64
 10
0
 20
0
 30
0
  3
AIGNBL06010048
  0
POLYLINE
  8
LAYER_6
 40
0.1058
 41
0.1058
 66
1
 10
0
 20
0
 30
0
  0
VERTEX
  8
LAYER_6
 10
29.4707
 20
182.3851
  0
VERTEX
  8
LAYER_6
 10
29.4707
 20
187.1593
  0
VERTEX
  8
LAYER_6
 10
69.1362
 20
187.1593
  0
SEQEND
  0
POLYLINE
  8
LAYER_6
 40
0.1058
 41
0.1058
 66
1
 10
0
 20
0
 30
0
  0
VERTEX
  8
LAYER_6
 10
79.3057
 20
187.1593
  0
VERTEX
  8
LAYER_6
 10
119.027
 20
187.1593
  0
VERTEX
  8
LAYER_6
 10
119.027
 20
182.3851
  0
SEQEND
  0
TEXT
  8
LAYER_6
 10
77.9646
 20
185.402
 11
77.9646
 21
185.402
 40
3.5541
 41
0.5
 72
1
  1
900
  0
ENDBLK
  0
BLOCK
  8
LAYER_6
  2
AIGNBL06010049
 70
64
 10
0
 20
0
 30
0
  3
AIGNBL06010049
  0
POLYLINE
  8
LAYER_6
 40
0.1058
 41
0.1058
 66
1
 10
0
 20
0
 30
0
  0
VERTEX
  8
LAYER_6
 10
124.2047
 20
182.3851
  0
VERTEX
  8
LAYER_6
 10
124.2047
 20
193.3363
  0
VERTEX
  8
LAYER_6
 10
80.7093
 20
193.3363
  0
SEQEND
  0
POLYLINE
  8
LAYER_6
 40
0.1058
 41
0.1058
 66
1
 10
0
 20
0
 30
0
  0
VERTEX
  8
LAYER_6
 10
67.7878
 20
193.3363
  0
VERTEX
  8
LAYER_6
 10
24.2042
 20
193.3363
  0
VERTEX
  8
LAYER_6
 10
24.2042
 20
182.3851
  0
SEQEND
  0
TEXT
  8
LAYER_6
 10
79.1903
 20
191.4099
 11
79.1903
 21
191.4099
 40
3.5541
 41
0.5
 72
1
  1
1000
  0
ENDBLK
  0
BLOCK
  8
LAYER_6
  2
AIGNBL0601004A
 70
64
 10
0
 20
0
 30
0
  3
AIGNBL0601004A
  0
POLYLINE
  8
LAYER_6
 40
0.1058
 41
0.1058
 66
1
 10
0
 20
0
 30
0
  0
VERTEX
  8
LAYER_6
 10
25.6112
 20
126.2021
  0
VERTEX
  8
LAYER_6
 10
25.6112
 20
121.1667
  0
VERTEX
  8
LAYER_6
 10
69.3894
 20
121.1667
  0
SEQEND
  0
POLYLINE
  8
LAYER_6
 40
0.1058
 41
0.1058
 66
1
 10
0
 20
0
 30
0
  0
VERTEX
  8
LAYER_6
 10
79.1521
 20
121.1667
  0
VERTEX
  8
LAYER_6
 10
122.9465
 20
121.1667
  0
VERTEX
  8
LAYER_6
 10
122.9465
 20
126.2021
  0
SEQEND
  0
TEXT
  8
LAYER_6
 10
78.1162
 20
119.4091
 11
78.1162
 21
119.4091
 40
3.5541
 41
0.5
 72
1
  1
980
  0
TEXT
  8
LAYER_6
 10
27.3695
 20
116.7384
 11
27.3695
 21
116.7384
 40
3.5541
 41
0.5
 72
1
  1
10
  0
TEXT
  8
LAYER_6
 10
126.0558
 20
116.7384
 11
126.0558
 21
116.7384
 40
3.5541
 41
0.5
 72
1
  1
10
  0
ENDBLK
  0
BLOCK
  8
LAYER_6
  2
AIGNBL0601004B
 70
64
 10
0
 20
0
 30
0
  3
AIGNBL0601004B
  0
POLYLINE
  8
LAYER_6
 40
0.1058
 41
0.1058
 66
1
 10
0
 20
0
 30
0
  0
VERTEX
  8
LAYER_6
 10
37.5026
 20
81.1093
  0
VERTEX
  8
LAYER_6
 10
37.5026
 20
77.1257
  0
VERTEX
  8
LAYER_6
 10
68.5019
 20
77.1257
  0
SEQEND
  0
POLYLINE
  8
LAYER_6
 40
0.1058
 41
0.1058
 66
1
 10
0
 20
0
 30
0
  0
VERTEX
  8
LAYER_6
 10
78.6154
 20
77.1257
  0
VERTEX
  8
LAYER_6
 10
111.319
 20
77.1257
  0
VERTEX
  8
LAYER_6
 10
111.319
 20
81.1093
  0
SEQEND
  0
TEXT
  8
LAYER_6
 10
77.2294
 20
75.3701
 11
77.2294
 21
75.3701
 40
3.5541
 41
0.5
 72
1
  1
740
  0
ENDBLK
  0
BLOCK
  8
LAYER_6
  2
AIGNBL0601004C
 70
64
 10
0
 20
0
 30
0
  3
AIGNBL0601004C
  0
POLYLINE
  8
LAYER_6
 40
0.1058
 41
0.1058
 66
1
 10
0
 20
0
 30
0
  0
VERTEX
  8
LAYER_6
 10
139.8371
 20
101.9535
  0
VERTEX
  8
LAYER_6
 10
139.8371
 20
106.6333
  0
VERTEX
  8
LAYER_6
 10
145.936
 20
106.6333
  0
SEQEND
  0
ENDBLK
  0
BLOCK
  8
LAYER_6
  2
AIGNBL0601004D
 70
64
 10
0
 20
0
 30
0
  3
AIGNBL0601004D
  0
INSERT
  8
LAYER_6
  2
AIGNBL0602004E
 10
0
 20
0
 30
0
  0
ENDBLK
  0
BLOCK
  8
LAYER_8
  2
AIGNBL08010002
 70
64
 10
0
 20
0
 30
0
  3
AIGNBL08010002
  0
POLYLINE
  8
LAYER_8
 40
0.7056
 41
0.7056
 66
1
 10
0
 20
0
 30
0
 70
1
  0
VERTEX
  8
LAYER_8
 10
251.6749
 20
230.337
  0
VERTEX
  8
LAYER_8
 10
251.6749
 20
33.3285
  0
VERTEX
  8
LAYER_8
 10
-30.3177
 20
33.3285
  0
VERTEX
  8
LAYER_8
 10
-30.3177
 20
230.337
  0
SEQEND
  0
ENDBLK
  0
BLOCK
  8
LAYER_8
  2
AIGNBL08010003
 70
64
 10
0
 20
0
 30
0
  3
AIGNBL08010003
  0
INSERT
  8
LAYER_8
  2
AIGNBL08020004
 10
0
 20
0
 30
0
  0
INSERT
  8
LAYER_8
  2
AIGNBL0802000D
 10
0
 20
0
 30
0
  0
ENDBLK
  0
BLOCK
  8
LAYER_8
  2
AIGNBL08010025
 70
64
 10
0
 20
0
 30
0
  3
AIGNBL08010025
  0
POLYLINE
  8
LAYER_8
 40
0.05
 41
0.05
 66
1
 10
0
 20
0
 30
0
  0
VERTEX
  8
LAYER_8
 10
-24.7289
 20
219.7266
 42
0.1341998603
  0
VERTEX
  8
LAYER_8
 10
-24.5592
 20
219.0834
 42
0.1261801142
  0
VERTEX
  8
LAYER_8
 10
-24.0913
 20
218.6274
 42
0.07945580654
  0
VERTEX
  8
LAYER_8
 10
-23.4074
 20
218.3548
  0
VERTEX
  8
LAYER_8
 10
-22.7374
 20
218.1977
 42
-0.06331165485
  0
VERTEX
  8
LAYER_8
 10
-22.2151
 20
218.0208
 42
-0.1808600581
  0
VERTEX
  8
LAYER_8
 10
-21.906
 20
217.7022
 42
-0.08676304228
  0
VERTEX
  8
LAYER_8
 10
-21.8731
 20
217.4973
 42
-0.2941221031
  0
VERTEX
  8
LAYER_8
 10
-22.2545
 20
216.9168
 42
-0.1199318645
  0
VERTEX
  8
LAYER_8
 10
-22.9007
 20
216.7681
 42
-0.005101656443
  0
VERTEX
  8
LAYER_8
 10
-22.938
 20
216.7677
 42
-0.1318116097
  0
VERTEX
  8
LAYER_8
 10
-23.6289
 20
216.9475
 42
-0.1172183099
  0
VERTEX
  8
LAYER_8
 10
-24.1316
 20
217.4313
 42
-0.004867741498
  0
VERTEX
  8
LAYER_8
 10
-24.1512
 20
217.4611
  0
VERTEX
  8
LAYER_8
 10
-24.2002
 20
217.5355
  0
VERTEX
  8
LAYER_8
 10
-24.9396
 20
217.0282
  0
VERTEX
  8
LAYER_8
 10
-24.8924
 20
216.9575
 42
0.1006692345
  0
VERTEX
  8
LAYER_8
 10
-24.2656
 20
216.3278
 42
0.09822650202
  0
VERTEX
  8
LAYER_8
 10
-23.491
 20
216.02
 42
0.04873469498
  0
VERTEX
  8
LAYER_8
 10
-22.938
 20
215.9689
 42
0.09078870715
  0
VERTEX
  8
LAYER_8
 10
-21.9452
 20
216.1461
 42
0.1030174332
  0
VERTEX
  8
LAYER_8
 10
-21.3352
 20
216.5404
 42
0.1803448142
  0
VERTEX
  8
LAYER_8
 10
-20.9524
 20
217.4258
 42
0.01943778951
  0
VERTEX
  8
LAYER_8
 10
-20.9476
 20
217.56
 42
0.2531765608
  0
VERTEX
  8
LAYER_8
 10
-21.5885
 20
218.7222
 42
0.09194545039
  0
VERTEX
  8
LAYER_8
 10
-22.2057
 20
218.9827
  0
VERTEX
  8
LAYER_8
 10
-22.9068
 20
219.1511
 42
-0.0578189963
  0
VERTEX
  8
LAYER_8
 10
-23.4528
 20
219.3232
 42
-0.1855772451
  0
VERTEX
  8
LAYER_8
 10
-23.7676
 20
219.6264
 42
-0.08926070578
  0
VERTEX
  8
LAYER_8
 10
-23.8011
 20
219.8403
 42
-0.313498231
  0
VERTEX
  8
LAYER_8
 10
-23.4222
 20
220.3762
 42
-0.106300738
  0
VERTEX
  8
LAYER_8
 10
-22.8751
 20
220.4863
 42
-0.1482953379
  0
VERTEX
  8
LAYER_8
 10
-22.2709
 20
220.3127
 42
-0.1294644155
  0
VERTEX
  8
LAYER_8
 10
-21.8948
 20
219.8732
  0
VERTEX
  8
LAYER_8
 10
-21.8504
 20
219.7888
  0
VERTEX
  8
LAYER_8
 10
-21.0886
 20
220.2925
  0
VERTEX
  8
LAYER_8
 10
-21.1229
 20
220.3597
 42
0.2370693896
  0
VERTEX
  8
LAYER_8
 10
-22.2986
 20
221.2338
 42
0.05316238654
  0
VERTEX
  8
LAYER_8
 10
-22.8329
 20
221.2874
 42
0.09532594653
  0
VERTEX
  8
LAYER_8
 10
-23.7699
 20
221.1115
 42
0.1053422287
  0
VERTEX
  8
LAYER_8
 10
-24.364
 20
220.7089
 42
0.1944052329
  0
VERTEX
  8
LAYER_8
 10
-24.7289
 20
219.7266
  0
SEQEND
  0
POLYLINE
  8
LAYER_8
 40
0.05
 41
0.05
 66
1
 10
0
 20
0
 30
0
  0
VERTEX
  8
LAYER_8
 10
-20.6499
 20
222.9567
 42
0.3936231745
  0
VERTEX
  8
LAYER_8
 10
-20.0589
 20
222.3685
 42
0.386081733
  0
VERTEX
  8
LAYER_8
 10
-19.4719
 20
222.9567
 42
0.3921277689
  0
VERTEX
  8
LAYER_8
 10
-20.0589
 20
223.5464
 42
0.3856970876
  0
VERTEX
  8
LAYER_8
 10
-20.6499
 20
222.9567
  0
SEQEND
  0
POLYLINE
  8
LAYER_8
 40
0.05
 41
0.05
 66
1
 10
0
 20
0
 30
0
  0
VERTEX
  8
LAYER_8
 10
-19.7159
 20
221.162
  0
VERTEX
  8
LAYER_8
 10
-20.4918
 20
221.162
  0
VERTEX
  8
LAYER_8
 10
-20.4918
 20
216.0938
  0
VERTEX
  8
LAYER_8
 10
-19.6286
 20
216.0938
  0
VERTEX
  8
LAYER_8
 10
-19.6286
 20
221.162
  0
SEQEND
  0
POLYLINE
  8
LAYER_8
 40
0.05
 41
0.05
 66
1
 10
0
 20
0
 30
0
  0
VERTEX
  8
LAYER_8
 10
-15.1212
 20
220.3724
 42
0.1207793697
  0
VERTEX
  8
LAYER_8
 10
-15.6145
 20
220.9712
 42
0.1123792155
  0
VERTEX
  8
LAYER_8
 10
-16.2716
 20
221.2487
 42
0.04782249271
  0
VERTEX
  8
LAYER_8
 10
-16.6841
 20
221.2869
 42
0.1072902452
  0
VERTEX
  8
LAYER_8
 10
-17.5023
 20
221.1052
 42
0.09984805864
  0
VERTEX
  8
LAYER_8
 10
-18.1382
 20
220.6458
 42
0.01292207714
  0
VERTEX
  8
LAYER_8
 10
-18.198
 20
220.5762
  0
VERTEX
  8
LAYER_8
 10
-18.198
 20
221.1615
  0
VERTEX
  8
LAYER_8
 10
-19.0617
 20
221.1615
  0
VERTEX
  8
LAYER_8
 10
-19.0617
 20
216.0936
  0
VERTEX
  8
LAYER_8
 10
-18.198
 20
216.0936
  0
VERTEX
  8
LAYER_8
 10
-18.198
 20
218.6907
 42
-0.09654084086
  0
VERTEX
  8
LAYER_8
 10
-18.0246
 20
219.6722
 42
-0.1188565985
  0
VERTEX
  8
LAYER_8
 10
-17.6298
 20
220.2091
 42
-0.15802177
  0
VERTEX
  8
LAYER_8
 10
-16.9046
 20
220.4863
 42
-0.1299839892
  0
VERTEX
  8
LAYER_8
 10
-16.2243
 20
220.3327
 42
-0.1576712877
  0
VERTEX
  8
LAYER_8
 10
-15.902
 20
219.953
 42
-0.05721861023
  0
VERTEX
  8
LAYER_8
 10
-15.8045
 20
219.631
 42
-0.04865875875
  0
VERTEX
  8
LAYER_8
 10
-15.7563
 20
219.0344
  0
VERTEX
  8
LAYER_8
 10
-15.7563
 20
216.0936
  0
VERTEX
  8
LAYER_8
 10
-14.8928
 20
216.0936
  0
VERTEX
  8
LAYER_8
 10
-14.8928
 20
218.7842
 42
-0.09089878682
  0
VERTEX
  8
LAYER_8
 10
-14.73
 20
219.7237
 42
-0.1191956233
  0
VERTEX
  8
LAYER_8
 10
-14.373
 20
220.2329
 42
-0.1344089617
  0
VERTEX
  8
LAYER_8
 10
-13.8547
 20
220.4654
 42
-0.0420961071
  0
VERTEX
  8
LAYER_8
 10
-13.5999
 20
220.4863
 42
-0.1298626135
  0
VERTEX
  8
LAYER_8
 10
-12.9187
 20
220.3327
 42
-0.1577606685
  0
VERTEX
  8
LAYER_8
 10
-12.5963
 20
219.953
 42
-0.05724335824
  0
VERTEX
  8
LAYER_8
 10
-12.4988
 20
219.631
 42
-0.04863743227
  0
VERTEX
  8
LAYER_8
 10
-12.4506
 20
219.0344
  0
VERTEX
  8
LAYER_8
 10
-12.4506
 20
216.0936
  0
VERTEX
  8
LAYER_8
 10
-11.5888
 20
216.0936
  0
VERTEX
  8
LAYER_8
 10
-11.5888
 20
219.2863
 42
0.09153279999
  0
VERTEX
  8
LAYER_8
 10
-11.7541
 20
220.2648
 42
0.1137257525
  0
VERTEX
  8
LAYER_8
 10
-12.1584
 20
220.8532
 42
0.1162530232
  0
VERTEX
  8
LAYER_8
 10
-12.7979
 20
221.1952
 42
0.0722532527
  0
VERTEX
  8
LAYER_8
 10
-13.5156
 20
221.2869
 42
0.2580675194
  0
VERTEX
  8
LAYER_8
 10
-15.1212
 20
220.3724
  0
SEQEND
  0
POLYLINE
  8
LAYER_8
 40
0.05
 41
0.05
 66
1
 10
0
 20
0
 30
0
  0
VERTEX
  8
LAYER_8
 10
-6.5398
 20
219.7266
 42
0.134478161
  0
VERTEX
  8
LAYER_8
 10
-6.3695
 20
219.0834
 42
0.1258963062
  0
VERTEX
  8
LAYER_8
 10
-5.9013
 20
218.6274
 42
0.07937172531
  0
VERTEX
  8
LAYER_8
 10
-5.2179
 20
218.3548
  0
VERTEX
  8
LAYER_8
 10
-4.5484
 20
218.1975
 42
-0.0631755932
  0
VERTEX
  8
LAYER_8
 10
-4.0263
 20
218.0207
 42
-0.1806469744
  0
VERTEX
  8
LAYER_8
 10
-3.7165
 20
217.702
 42
-0.08701309377
  0
VERTEX
  8
LAYER_8
 10
-3.6835
 20
217.4971
 42
-0.2942528815
  0
VERTEX
  8
LAYER_8
 10
-4.0651
 20
216.9167
 42
-0.1198372064
  0
VERTEX
  8
LAYER_8
 10
-4.7111
 20
216.7681
 42
-0.005099843066
  0
VERTEX
  8
LAYER_8
 10
-4.7484
 20
216.7677
 42
-0.1318208153
  0
VERTEX
  8
LAYER_8
 10
-5.4397
 20
216.9475
 42
-0.1159302133
  0
VERTEX
  8
LAYER_8
 10
-5.937
 20
217.4238
 42
-0.006094096148
  0
VERTEX
  8
LAYER_8
 10
-5.9617
 20
217.4611
  0
VERTEX
  8
LAYER_8
 10
-6.0112
 20
217.5355
  0
VERTEX
  8
LAYER_8
 10
-6.75
 20
217.0282
  0
VERTEX
  8
LAYER_8
 10
-6.7036
 20
216.9575
 42
0.1006943621
  0
VERTEX
  8
LAYER_8
 10
-6.0762
 20
216.3276
 42
0.09809760808
  0
VERTEX
  8
LAYER_8
 10
-5.3011
 20
216.0196
 42
0.04877336623
  0
VERTEX
  8
LAYER_8
 10
-4.7484
 20
215.9685
 42
0.09080061549
  0
VERTEX
  8
LAYER_8
 10
-3.7557
 20
216.1458
 42
0.1029663831
  0
VERTEX
  8
LAYER_8
 10
-3.1454
 20
216.5402
 42
0.180354229
  0
VERTEX
  8
LAYER_8
 10
-2.7623
 20
217.4258
 42
0.01945068344
  0
VERTEX
  8
LAYER_8
 10
-2.7575
 20
217.56
 42
0.2535980107
  0
VERTEX
  8
LAYER_8
 10
-3.3999
 20
218.7221
 42
0.09173199894
  0
VERTEX
  8
LAYER_8
 10
-4.018
 20
218.9827
  0
VERTEX
  8
LAYER_8
 10
-4.7177
 20
219.1511
 42
-0.05991192419
  0
VERTEX
  8
LAYER_8
 10
-5.2728
 20
219.3275
 42
-0.1874515711
  0
VERTEX
  8
LAYER_8
 10
-5.5828
 20
219.6332
 42
-0.08582021468
  0
VERTEX
  8
LAYER_8
 10
-5.6143
 20
219.8403
 42
-0.314077401
  0
VERTEX
  8
LAYER_8
 10
-5.2343
 20
220.3762
 42
-0.1060544966
  0
VERTEX
  8
LAYER_8
 10
-4.6848
 20
220.4863
 42
-0.1486063154
  0
VERTEX
  8
LAYER_8
 10
-4.0809
 20
220.3127
 42
-0.1292830572
  0
VERTEX
  8
LAYER_8
 10
-3.7057
 20
219.8732
  0
VERTEX
  8
LAYER_8
 10
-3.6608
 20
219.7888
  0
VERTEX
  8
LAYER_8
 10
-2.8992
 20
220.2925
  0
VERTEX
  8
LAYER_8
 10
-2.933
 20
220.3595
 42
0.237196535
  0
VERTEX
  8
LAYER_8
 10
-4.1097
 20
221.2337
 42
0.05314185225
  0
VERTEX
  8
LAYER_8
 10
-4.6438
 20
221.2873
 42
0.09533727001
  0
VERTEX
  8
LAYER_8
 10
-5.5811
 20
221.1115
 42
0.1053851178
  0
VERTEX
  8
LAYER_8
 10
-6.1751
 20
220.7089
 42
0.1943913526
  0
VERTEX
  8
LAYER_8
 10
-6.5398
 20
219.7266
  0
SEQEND
  0
INSERT
  8
LAYER_8
  2
AIGNBL08020026
 10
0
 20
0
 30
0
  0
INSERT
  8
LAYER_8
  2
AIGNBL08020027
 10
0
 20
0
 30
0
  0
INSERT
  8
LAYER_8
  2
AIGNBL08020028
 10
0
 20
0
 30
0
  0
POLYLINE
  8
LAYER_8
 40
0.05
 41
0.05
 66
1
 10
0
 20
0
 30
0
  0
VERTEX
  8
LAYER_8
 10
-20.9091
 20
213.692
 42
0.2126578199
  0
VERTEX
  8
LAYER_8
 10
-21.2785
 20
213.8653
 42
0.4107545191
  0
VERTEX
  8
LAYER_8
 10
-21.8793
 20
213.2387
 42
0.1832232544
  0
VERTEX
  8
LAYER_8
 10
-21.7095
 20
212.7686
 42
0.2124026091
  0
VERTEX
  8
LAYER_8
 10
-21.2785
 20
212.5886
 42
0.2429399681
  0
VERTEX
  8
LAYER_8
 10
-20.8847
 20
212.8017
  0
VERTEX
  8
LAYER_8
 10
-20.6282
 20
212.6175
 42
-0.2483368577
  0
VERTEX
  8
LAYER_8
 10
-21.2802
 20
212.3057
 42
-0.1519221822
  0
VERTEX
  8
LAYER_8
 10
-21.8463
 20
212.4749
 42
-0.2337791857
  0
VERTEX
  8
LAYER_8
 10
-22.2039
 20
213.1558
 42
-0.01462202831
  0
VERTEX
  8
LAYER_8
 10
-22.2057
 20
213.219
 42
-0.1526640936
  0
VERTEX
  8
LAYER_8
 10
-22.0367
 20
213.7867
 42
-0.2349220238
  0
VERTEX
  8
LAYER_8
 10
-21.3427
 20
214.1454
 42
-0.01403410383
  0
VERTEX
  8
LAYER_8
 10
-21.2802
 20
214.1471
 42
-0.1771442668
  0
VERTEX
  8
LAYER_8
 10
-20.7724
 20
213.9741
 42
-0.0394909762
  0
VERTEX
  8
LAYER_8
 10
-20.6673
 20
213.8707
  0
SEQEND
  0
INSERT
  8
LAYER_8
  2
AIGNBL08020029
 10
0
 20
0
 30
0
  0
POLYLINE
  8
LAYER_8
 40
0.05
 41
0.05
 66
1
 10
0
 20
0
 30
0
  0
VERTEX
  8
LAYER_8
 10
-16.1647
 20
212.9941
 42
-0.182226301
  0
VERTEX
  8
LAYER_8
 10
-16.3329
 20
212.5261
 42
-0.1768067702
  0
VERTEX
  8
LAYER_8
 10
-16.7424
 20
212.3151
 42
-0.03937171115
  0
VERTEX
  8
LAYER_8
 10
-16.8703
 20
212.3057
 42
-0.1767902592
  0
VERTEX
  8
LAYER_8
 10
-17.3545
 20
212.4748
 42
-0.2234110022
  0
VERTEX
  8
LAYER_8
 10
-17.5745
 20
212.9941
  0
VERTEX
  8
LAYER_8
 10
-17.5745
 20
214.1029
  0
VERTEX
  8
LAYER_8
 10
-17.2613
 20
214.1029
  0
VERTEX
  8
LAYER_8
 10
-17.2613
 20
213.0037
 42
0.2349518793
  0
VERTEX
  8
LAYER_8
 10
-17.1016
 20
212.6665
 42
0.1547549989
  0
VERTEX
  8
LAYER_8
 10
-16.8703
 20
212.6029
 42
0.2547042701
  0
VERTEX
  8
LAYER_8
 10
-16.5428
 20
212.765
 42
0.1423144498
  0
VERTEX
  8
LAYER_8
 10
-16.477
 20
213.0037
  0
VERTEX
  8
LAYER_8
 10
-16.477
 20
214.1029
  0
VERTEX
  8
LAYER_8
 10
-16.1647
 20
214.1029
  0
SEQEND
  0
INSERT
  8
LAYER_8
  2
AIGNBL0802002A
 10
0
 20
0
 30
0
  0
POLYLINE
  8
LAYER_8
 40
0.05
 41
0.05
 66
1
 10
0
 20
0
 30
0
  0
VERTEX
  8
LAYER_8
 10
-11.0637
 20
213.9659
 42
0.1865846686
  0
VERTEX
  8
LAYER_8
 10
-11.5272
 20
214.146
 42
0.01070457993
  0
VERTEX
  8
LAYER_8
 10
-11.566
 20
214.1468
 42
0.1725298242
  0
VERTEX
  8
LAYER_8
 10
-12.0539
 20
213.9827
 42
0.2187144791
  0
VERTEX
  8
LAYER_8
 10
-12.212
 20
213.6169
 42
0.3561528276
  0
VERTEX
  8
LAYER_8
 10
-11.8351
 20
213.1453
 42
-0.4171847534
  0
VERTEX
  8
LAYER_8
 10
-11.3804
 20
212.8287
 42
-0.3335028506
  0
VERTEX
  8
LAYER_8
 10
-11.5558
 20
212.6101
 42
-0.08319549326
  0
VERTEX
  8
LAYER_8
 10
-11.6868
 20
212.588
 42
-0.2454746759
  0
VERTEX
  8
LAYER_8
 10
-12.0342
 20
212.7715
  0
VERTEX
  8
LAYER_8
 10
-12.269
 20
212.5433
 42
0.1909646496
  0
VERTEX
  8
LAYER_8
 10
-11.8308
 20
212.3153
 42
0.03754446626
  0
VERTEX
  8
LAYER_8
 10
-11.6944
 20
212.3061
 42
0.1762916439
  0
VERTEX
  8
LAYER_8
 10
-11.2183
 20
212.4674
 42
0.2195743063
  0
VERTEX
  8
LAYER_8
 10
-11.0534
 20
212.8657
 42
0.3531185733
  0
VERTEX
  8
LAYER_8
 10
-11.4303
 20
213.3408
 42
-0.05600345769
  0
VERTEX
  8
LAYER_8
 10
-11.796
 20
213.4825
 42
-0.2536946722
  0
VERTEX
  8
LAYER_8
 10
-11.885
 20
213.6399
 42
-0.3489083621
  0
VERTEX
  8
LAYER_8
 10
-11.7191
 20
213.848
 42
-0.07098211707
  0
VERTEX
  8
LAYER_8
 10
-11.5983
 20
213.8648
 42
-0.2306121412
  0
VERTEX
  8
LAYER_8
 10
-11.2913
 20
213.7261
  0
SEQEND
  0
INSERT
  8
LAYER_8
  2
AIGNBL0802002B
 10
0
 20
0
 30
0
  0
INSERT
  8
LAYER_8
  2
AIGNBL0802002C
 10
0
 20
0
 30
0
  0
POLYLINE
  8
LAYER_8
 40
0.05
 41
0.05
 66
1
 10
0
 20
0
 30
0
  0
VERTEX
  8
LAYER_8
 10
-5.2994
 20
213.692
 42
0.2129687332
  0
VERTEX
  8
LAYER_8
 10
-5.6677
 20
213.8653
 42
0.4105330837
  0
VERTEX
  8
LAYER_8
 10
-6.269
 20
213.2387
 42
0.1833694889
  0
VERTEX
  8
LAYER_8
 10
-6.099
 20
212.7686
 42
0.2122774884
  0
VERTEX
  8
LAYER_8
 10
-5.6677
 20
212.5886
 42
0.2420713992
  0
VERTEX
  8
LAYER_8
 10
-5.2745
 20
212.8017
  0
VERTEX
  8
LAYER_8
 10
-5.0183
 20
212.6175
 42
-0.2483961933
  0
VERTEX
  8
LAYER_8
 10
-5.6704
 20
212.3057
 42
-0.1519079839
  0
VERTEX
  8
LAYER_8
 10
-6.2365
 20
212.4749
 42
-0.2337913088
  0
VERTEX
  8
LAYER_8
 10
-6.5942
 20
213.1558
 42
-0.0146222367
  0
VERTEX
  8
LAYER_8
 10
-6.596
 20
213.219
 42
-0.1526708466
  0
VERTEX
  8
LAYER_8
 10
-6.427
 20
213.7867
 42
-0.2349281849
  0
VERTEX
  8
LAYER_8
 10
-5.7329
 20
214.1454
 42
-0.01403209072
  0
VERTEX
  8
LAYER_8
 10
-5.6704
 20
214.1471
 42
-0.177045353
  0
VERTEX
  8
LAYER_8
 10
-5.1623
 20
213.9741
 42
-0.03940754375
  0
VERTEX
  8
LAYER_8
 10
-5.0571
 20
213.8707
  0
SEQEND
  0
POLYLINE
  8
LAYER_8
 40
0.05
 41
0.05
 66
1
 10
0
 20
0
 30
0
  0
VERTEX
  8
LAYER_8
 10
-4.4354
 20
214.1029
  0
VERTEX
  8
LAYER_8
 10
-3.2751
 20
214.1029
  0
VERTEX
  8
LAYER_8
 10
-3.2751
 20
213.8202
  0
VERTEX
  8
LAYER_8
 10
-4.1231
 20
213.8202
  0
VERTEX
  8
LAYER_8
 10
-4.1231
 20
213.3901
  0
VERTEX
  8
LAYER_8
 10
-3.3195
 20
213.3901
  0
VERTEX
  8
LAYER_8
 10
-3.3195
 20
213.1079
  0
VERTEX
  8
LAYER_8
 10
-4.1231
 20
213.1079
  0
VERTEX
  8
LAYER_8
 10
-4.1231
 20
212.633
  0
VERTEX
  8
LAYER_8
 10
-3.2318
 20
212.633
  0
VERTEX
  8
LAYER_8
 10
-3.2318
 20
212.3512
  0
VERTEX
  8
LAYER_8
 10
-4.4354
 20
212.3512
  0
SEQEND
  0
ENDBLK
  0
ENDSEC
  0
SECTION
  2
ENTITIES
  0
TEXT
  8
LAYER_6
 10
75.4601
 20
166.282
 11
75.4601
 21
166.282
 40
3.5541
 41
0.5
 72
1
  1
35
  0
INSERT
  8
LAYER_6
  2
AIGNBL06010002
 10
0
 20
0
 30
0
  0
TEXT
  8
LAYER_6
 10
82.292
 20
156.8139
 11
82.292
 21
156.8139
 40
2.5981
 41
0.5
  1
カウンター
  0
TEXT
  8
LAYER_6
 10
82.292
 20
153.314
 11
82.292
 21
153.314
 40
2.5981
 41
0.5
  1
開口寸法：
  0
TEXT
  8
LAYER_6
 10
82.292
 20
149.7387
 11
82.292
 21
149.7387
 40
2.9618
 41
0.5
  1
140×300
  0
INSERT
  8
LAYER_6
  2
AIGNBL06010004
 10
0
 20
0
 30
0
  0
INSERT
  8
LAYER_6
  2
AIGNBL06010005
 10
0
 20
0
 30
0
  0
POLYLINE
  8
LAYER_6
 40
0.381
 41
0.381
 66
1
 10
0
 20
0
 30
0
 70
1
  0
VERTEX
  8
LAYER_6
 10
-94.3176
 20
187.387
 42
-0.1763381166
  0
VERTEX
  8
LAYER_6
 10
-155.0536
 20
187.387
 42
-0.2951406998
  0
VERTEX
  8
LAYER_6
 10
-164.2696
 20
199.5694
 42
-0.01631666675
  0
VERTEX
  8
LAYER_6
 10
-164.4946
 20
205.011
 42
-0.01651128382
  0
VERTEX
  8
LAYER_6
 10
-164.3684
 20
210.0777
 42
-0.01710182631
  0
VERTEX
  8
LAYER_6
 10
-163.9059
 20
215.0623
 42
-0.01723372606
  0
VERTEX
  8
LAYER_6
 10
-163.1027
 20
219.995
 42
-0.01689125125
  0
VERTEX
  8
LAYER_6
 10
-161.9546
 20
224.9063
 42
-0.01611427835
  0
VERTEX
  8
LAYER_6
 10
-160.4573
 20
229.8262
 42
-0.00532313543
  0
VERTEX
  8
LAYER_6
 10
-159.8499
 20
231.5559
  0
VERTEX
  8
LAYER_6
 10
-89.5234
 20
231.5559
 42
-0.01633041902
  0
VERTEX
  8
LAYER_6
 10
-87.8309
 20
226.38
 42
-0.01652163019
  0
VERTEX
  8
LAYER_6
 10
-86.5781
 20
221.4693
 42
-0.01710878531
  0
VERTEX
  8
LAYER_6
 10
-85.6714
 20
216.5462
 42
-0.0172369749
  0
VERTEX
  8
LAYER_6
 10
-85.1068
 20
211.5803
 42
-0.01689085768
  0
VERTEX
  8
LAYER_6
 10
-84.8801
 20
206.5414
 42
-0.01611067607
  0
VERTEX
  8
LAYER_6
 10
-84.9871
 20
201.3992
 42
-0.005321146737
  0
VERTEX
  8
LAYER_6
 10
-85.1026
 20
199.5694
 42
-0.2951448841
  0
SEQEND
  0
POLYLINE
  8
LAYER_6
 40
0.1905
 41
0.1905
 66
1
 10
0
 20
0
 30
0
 70
1
  0
VERTEX
  8
LAYER_6
 10
-153.7727
 20
213.1927
 42
-0.1375999073
  0
VERTEX
  8
LAYER_6
 10
-95.5981
 20
213.1927
 42
-0.3257419666
  0
VERTEX
  8
LAYER_6
 10
-86.0645
 20
201.099
 42
-0.3257630662
  0
VERTEX
  8
LAYER_6
 10
-94.6562
 20
188.3186
 42
-0.1763431767
  0
VERTEX
  8
LAYER_6
 10
-154.7146
 20
188.3186
 42
-0.3256678591
  0
VERTEX
  8
LAYER_6
 10
-163.3087
 20
201.099
 42
-0.3256933634
  0
SEQEND
  0
POLYLINE
  8
LAYER_6
 40
0.1905
 41
0.1905
 66
1
 10
0
 20
0
 30
0
 70
1
  0
VERTEX
  8
LAYER_6
 10
-122.9029
 20
224.6233
 42
0.3934841295
  0
VERTEX
  8
LAYER_6
 10
-124.6868
 20
226.4051
 42
0.414214822
  0
VERTEX
  8
LAYER_6
 10
-126.4679
 20
224.6233
 42
0.3929188294
  0
VERTEX
  8
LAYER_6
 10
-124.6868
 20
222.8402
 42
0.4142123048
  0
SEQEND
  0
CIRCLE
  8
LAYER_6
 10
-124.6868
 20
208.2813
 40
2.3452
  0
CIRCLE
  8
LAYER_6
 10
-124.6868
 20
208.2813
 40
3.8087
  0
INSERT
  8
LAYER_6
  2
AIGNBL06010007
 10
0
 20
0
 30
0
  0
INSERT
  8
LAYER_6
  2
AIGNBL06010009
 10
0
 20
0
 30
0
  0
INSERT
  8
LAYER_6
  2
AIGNBL0601000B
 10
0
 20
0
 30
0
  0
INSERT
  8
LAYER_6
  2
AIGNBL0601000D
 10
0
 20
0
 30
0
  0
POLYLINE
  8
LAYER_6
 40
0.1058
 41
0.1058
 66
1
 10
0
 20
0
 30
0
  0
VERTEX
  8
LAYER_6
 10
-168.2621
 20
182.032
  0
VERTEX
  8
LAYER_6
 10
-179.1775
 20
182.032
  0
VERTEX
  8
LAYER_6
 10
-179.1775
 20
203.0303
  0
SEQEND
  0
POLYLINE
  8
LAYER_6
 40
0.1058
 41
0.1058
 66
1
 10
0
 20
0
 30
0
  0
VERTEX
  8
LAYER_6
 10
-179.1775
 20
208.4481
  0
VERTEX
  8
LAYER_6
 10
-179.1775
 20
231.7529
  0
VERTEX
  8
LAYER_6
 10
-172.9839
 20
231.7529
  0
SEQEND
  0
TEXT
  8
LAYER_6
 10
-174.8714
 20
203.7094
 11
-174.8714
 21
203.7094
 40
4.1465
 41
0.5
 72
1
  1
500
  0
POLYLINE
  8
LAYER_6
 40
0.1058
 41
0.1058
 66
1
 10
0
 20
0
 30
0
  0
VERTEX
  8
LAYER_6
 10
-168.2621
 20
194.9089
  0
VERTEX
  8
LAYER_6
 10
-173.0205
 20
194.9089
  0
VERTEX
  8
LAYER_6
 10
-173.0205
 20
211.4191
  0
SEQEND
  0
POLYLINE
  8
LAYER_6
 40
0.1058
 41
0.1058
 66
1
 10
0
 20
0
 30
0
  0
VERTEX
  8
LAYER_6
 10
-173.0205
 20
216.8362
  0
VERTEX
  8
LAYER_6
 10
-173.0205
 20
231.7529
  0
VERTEX
  8
LAYER_6
 10
-168.2256
 20
231.7529
  0
SEQEND
  0
TEXT
  8
LAYER_6
 10
-168.715
 20
212.0978
 11
-168.715
 21
212.0978
 40
4.1465
 41
0.5
 72
1
  1
370
  0
INSERT
  8
LAYER_6
  2
AIGNBL0601000F
 10
0
 20
0
 30
0
  0
INSERT
  8
LAYER_6
  2
AIGNBL06010011
 10
0
 20
0
 30
0
  0
CIRCLE
  8
LAYER_6
 10
-124.6651
 20
224.6381
 40
1.7821
  0
CIRCLE
  8
LAYER_6
 10
-124.6651
 20
208.2944
 40
2.3442
  0
CIRCLE
  8
LAYER_6
 10
-124.6651
 20
208.2944
 40
3.8082
  0
INSERT
  8
LAYER_6
  2
AIGNBL06010013
 10
0
 20
0
 30
0
  0
INSERT
  8
LAYER_6
  2
AIGNBL06010015
 10
0
 20
0
 30
0
  0
INSERT
  8
LAYER_6
  2
AIGNBL06010017
 10
0
 20
0
 30
0
  0
INSERT
  8
LAYER_6
  2
AIGNBL06010018
 10
0
 20
0
 30
0
  0
INSERT
  8
LAYER_6
  2
AIGNBL06010019
 10
0
 20
0
 30
0
  0
INSERT
  8
LAYER_6
  2
AIGNBL0601001A
 10
0
 20
0
 30
0
  0
INSERT
  8
LAYER_6
  2
AIGNBL0601001B
 10
0
 20
0
 30
0
  0
INSERT
  8
LAYER_6
  2
AIGNBL0601001C
 10
0
 20
0
 30
0
  0
POLYLINE
  8
LAYER_6
 40
0.1058
 41
0.1058
 66
1
 10
0
 20
0
 30
0
  0
VERTEX
  8
LAYER_6
 10
-81.0267
 20
224.6381
  0
VERTEX
  8
LAYER_6
 10
-77.4817
 20
224.6381
  0
VERTEX
  8
LAYER_6
 10
-77.4817
 20
237.0229
  0
SEQEND
  0
INSERT
  8
LAYER_6
  2
AIGNBL0601001D
 10
0
 20
0
 30
0
  0
INSERT
  8
LAYER_6
  2
AIGNBL0601001E
 10
0
 20
0
 30
0
  0
INSERT
  8
LAYER_6
  2
AIGNBL0601001F
 10
0
 20
0
 30
0
  0
POLYLINE
  8
LAYER_6
 40
0.1058
 41
0.1058
 66
1
 10
0
 20
0
 30
0
  0
VERTEX
  8
LAYER_6
 10
-86.3225
 20
175.0708
  0
VERTEX
  8
LAYER_6
 10
-84.4374
 20
175.0708
  0
VERTEX
  8
LAYER_6
 10
-84.4374
 20
180.0862
  0
SEQEND
  0
POLYLINE
  8
LAYER_6
 40
0.1058
 41
0.1058
 66
1
 10
0
 20
0
 30
0
  0
VERTEX
  8
LAYER_6
 10
-162.917
 20
175.0708
  0
VERTEX
  8
LAYER_6
 10
-164.8018
 20
175.0708
  0
VERTEX
  8
LAYER_6
 10
-164.8018
 20
180.0862
  0
SEQEND
  0
INSERT
  8
LAYER_6
  2
AIGNBL06010020
 10
0
 20
0
 30
0
  0
INSERT
  8
LAYER_6
  2
AIGNBL06010022
 10
0
 20
0
 30
0
  0
INSERT
  8
LAYER_6
  2
AIGNBL06010024
 10
0
 20
0
 30
0
  0
INSERT
  8
LAYER_6
  2
AIGNBL06010025
 10
0
 20
0
 30
0
  0
INSERT
  8
LAYER_6
  2
AIGNBL06010026
 10
0
 20
0
 30
0
  0
INSERT
  8
LAYER_6
  2
AIGNBL0601002A
 10
0
 20
0
 30
0
  0
POLYLINE
  8
LAYER_6
 40
0.1058
 41
0.1058
 66
1
 10
0
 20
0
 30
0
  0
VERTEX
  8
LAYER_6
 10
155.9457
 20
106.6333
  0
VERTEX
  8
LAYER_6
 10
163.2514
 20
106.6333
  0
VERTEX
  8
LAYER_6
 10
163.2514
 20
103.7081
  0
SEQEND
  0
INSERT
  8
LAYER_6
  2
AIGNBL0601002E
 10
0
 20
0
 30
0
  0
INSERT
  8
LAYER_6
  2
AIGNBL0601002F
 10
0
 20
0
 30
0
  0
INSERT
  8
LAYER_6
  2
AIGNBL06010030
 10
0
 20
0
 30
0
  0
INSERT
  8
LAYER_6
  2
AIGNBL06010031
 10
0
 20
0
 30
0
  0
INSERT
  8
LAYER_6
  2
AIGNBL06010032
 10
0
 20
0
 30
0
  0
INSERT
  8
LAYER_6
  2
AIGNBL06010033
 10
0
 20
0
 30
0
  0
INSERT
  8
LAYER_6
  2
AIGNBL06010034
 10
0
 20
0
 30
0
  0
INSERT
  8
LAYER_6
  2
AIGNBL06010035
 10
0
 20
0
 30
0
  0
INSERT
  8
LAYER_6
  2
AIGNBL06010036
 10
0
 20
0
 30
0
  0
INSERT
  8
LAYER_6
  2
AIGNBL06010037
 10
0
 20
0
 30
0
  0
INSERT
  8
LAYER_6
  2
AIGNBL06010038
 10
0
 20
0
 30
0
  0
POLYLINE
  8
LAYER_6
 40
0.1058
 41
0.1058
 66
1
 10
0
 20
0
 30
0
  0
VERTEX
  8
LAYER_6
 10
70.2445
 20
108.002
  0
VERTEX
  8
LAYER_6
 10
60.1128
 20
108.002
  0
VERTEX
  8
LAYER_6
 10
60.1128
 20
103.7532
  0
SEQEND
  0
POLYLINE
  8
LAYER_6
 40
0.1058
 41
0.1058
 66
1
 10
0
 20
0
 30
0
  0
VERTEX
  8
LAYER_6
 10
79.5655
 20
108.002
  0
VERTEX
  8
LAYER_6
 10
88.4714
 20
108.002
  0
VERTEX
  8
LAYER_6
 10
88.4714
 20
103.7532
  0
SEQEND
  0
INSERT
  8
LAYER_6
  2
AIGNBL06010039
 10
0
 20
0
 30
0
  0
POLYLINE
  8
LAYER_6
 40
0.1058
 41
0.1058
 66
1
 10
0
 20
0
 30
0
  0
VERTEX
  8
LAYER_6
 10
60.1128
 20
108.002
  0
VERTEX
  8
LAYER_6
 10
50.1627
 20
108.002
  0
VERTEX
  8
LAYER_6
 10
50.1627
 20
103.7532
  0
SEQEND
  0
INSERT
  8
LAYER_6
  2
AIGNBL0601003A
 10
0
 20
0
 30
0
  0
POLYLINE
  8
LAYER_6
 40
0.1058
 41
0.1058
 66
1
 10
0
 20
0
 30
0
  0
VERTEX
  8
LAYER_6
 10
88.4714
 20
108.002
  0
VERTEX
  8
LAYER_6
 10
98.4222
 20
108.002
  0
VERTEX
  8
LAYER_6
 10
98.4222
 20
103.7532
  0
SEQEND
  0
POLYLINE
  8
LAYER_6
 40
0.1058
 41
0.1058
 66
1
 10
0
 20
0
 30
0
  0
VERTEX
  8
LAYER_6
 10
163.2348
 20
91.5214
  0
VERTEX
  8
LAYER_6
 10
163.2348
 20
89.4271
  0
SEQEND
  0
POLYLINE
  8
LAYER_6
 40
0.1058
 41
0.1058
 66
1
 10
0
 20
0
 30
0
  0
VERTEX
  8
LAYER_6
 10
163.2538
 20
99.3183
  0
VERTEX
  8
LAYER_6
 10
163.2476
 20
95.6903
  0
SEQEND
  0
POLYLINE
  8
LAYER_6
 40
0.05
 41
0.05
 66
1
 10
0
 20
0
 30
0
 70
1
  0
VERTEX
  8
LAYER_6
 10
145.0134
 20
98.4429
  0
VERTEX
  8
LAYER_6
 10
143.471
 20
98.4429
  0
VERTEX
  8
LAYER_6
 10
141.826
 20
83.5222
  0
VERTEX
  8
LAYER_6
 10
139.8371
 20
83.5222
  0
VERTEX
  8
LAYER_6
 10
139.8371
 20
99.4372
  0
VERTEX
  8
LAYER_6
 10
145.0134
 20
99.4372
  0
SEQEND
  0
POLYLINE
  8
LAYER_6
 40
0.1305
 41
0.1305
 66
1
 10
0
 20
0
 30
0
  0
VERTEX
  8
LAYER_6
 10
160.7798
 20
87.0803
  0
VERTEX
  8
LAYER_6
 10
160.7798
 20
86.1305
  0
SEQEND
  0
POLYLINE
  8
LAYER_6
 40
0.1305
 41
0.1305
 66
1
 10
0
 20
0
 30
0
  0
VERTEX
  8
LAYER_6
 10
160.0175
 20
86.3275
  0
VERTEX
  8
LAYER_6
 10
160.0175
 20
87.2763
  0
SEQEND
  0
POLYLINE
  8
LAYER_6
 40
0.1305
 41
0.1305
 66
1
 10
0
 20
0
 30
0
  0
VERTEX
  8
LAYER_6
 10
145.0251
 20
98.5831
  0
VERTEX
  8
LAYER_6
 10
148.5969
 20
98.5831
  0
SEQEND
  0
POLYLINE
  8
LAYER_6
 40
0.1305
 41
0.1305
 66
1
 10
0
 20
0
 30
0
  0
VERTEX
  8
LAYER_6
 10
145.0134
 20
99.3183
  0
VERTEX
  8
LAYER_6
 10
148.5863
 20
99.3183
  0
SEQEND
  0
POLYLINE
  8
LAYER_6
 40
0.1305
 41
0.1305
 66
1
 10
0
 20
0
 30
0
  0
VERTEX
  8
LAYER_6
 10
160.8935
 20
87.7786
  0
VERTEX
  8
LAYER_6
 10
165.6026
 20
87.7786
  0
SEQEND
  0
POLYLINE
  8
LAYER_6
 40
0.1305
 41
0.1305
 66
1
 10
0
 20
0
 30
0
  0
VERTEX
  8
LAYER_6
 10
160.899
 20
84.9478
  0
VERTEX
  8
LAYER_6
 10
165.6078
 20
84.9478
  0
SEQEND
  0
POLYLINE
  8
LAYER_6
 40
0.1305
 41
0.1305
 66
1
 10
0
 20
0
 30
0
  0
VERTEX
  8
LAYER_6
 10
159.3884
 20
89.363
  0
VERTEX
  8
LAYER_6
 10
167.1071
 20
89.363
  0
SEQEND
  0
POLYLINE
  8
LAYER_6
 40
0.1305
 41
0.1305
 66
1
 10
0
 20
0
 30
0
  0
VERTEX
  8
LAYER_6
 10
190.982
 20
99.3286
  0
VERTEX
  8
LAYER_6
 10
153.2654
 20
99.3286
  0
SEQEND
  0
POLYLINE
  8
LAYER_6
 40
0.1305
 41
0.1305
 66
1
 10
0
 20
0
 30
0
  0
VERTEX
  8
LAYER_6
 10
140.1679
 20
83.6442
  0
VERTEX
  8
LAYER_6
 10
178.4208
 20
83.6442
  0
SEQEND
  0
INSERT
  8
LAYER_6
  2
AIGNBL0601003B
 10
0
 20
0
 30
0
  0
POLYLINE
  8
LAYER_6
 40
0.05
 41
0.05
 66
1
 10
0
 20
0
 30
0
 70
1
  0
VERTEX
  8
LAYER_6
 10
160.8935
 20
87.0803
  0
VERTEX
  8
LAYER_6
 10
159.8983
 20
87.2763
  0
VERTEX
  8
LAYER_6
 10
159.8983
 20
87.512
  0
VERTEX
  8
LAYER_6
 10
158.8785
 20
88.5817
 42
-0.06887495867
  0
VERTEX
  8
LAYER_6
 10
157.0478
 20
89.2914
 42
-0.05775115312
  0
VERTEX
  8
LAYER_6
 10
155.7337
 20
90.2433
 42
-0.02241627326
  0
VERTEX
  8
LAYER_6
 10
155.2474
 20
90.7287
 42
-0.03627821964
  0
VERTEX
  8
LAYER_6
 10
154.5053
 20
91.675
 42
-0.05106960287
  0
VERTEX
  8
LAYER_6
 10
153.5079
 20
93.5454
 42
-0.04089256411
  0
VERTEX
  8
LAYER_6
 10
152.8047
 20
95.7413
 42
-0.007092433188
  0
VERTEX
  8
LAYER_6
 10
152.6935
 20
96.235
 42
-0.02527634073
  0
VERTEX
  8
LAYER_6
 10
152.3538
 20
98.4429
  0
VERTEX
  8
LAYER_6
 10
150.2413
 20
98.4429
  0
VERTEX
  8
LAYER_6
 10
151.6345
 20
92.1994
 42
0.297194353
  0
VERTEX
  8
LAYER_6
 10
157.0781
 20
86.886
  0
VERTEX
  8
LAYER_6
 10
160.8935
 20
86.1305
  0
VERTEX
  8
LAYER_6
 10
160.8935
 20
84.8165
  0
VERTEX
  8
LAYER_6
 10
159.8983
 20
84.8165
  0
VERTEX
  8
LAYER_6
 10
159.8983
 20
85.3137
  0
VERTEX
  8
LAYER_6
 10
156.8858
 20
85.9103
 42
-0.2973004683
  0
VERTEX
  8
LAYER_6
 10
150.664
 20
91.9837
  0
VERTEX
  8
LAYER_6
 10
149.2215
 20
98.4429
  0
VERTEX
  8
LAYER_6
 10
148.5863
 20
98.4429
  0
VERTEX
  8
LAYER_6
 10
148.5863
 20
99.4372
  0
VERTEX
  8
LAYER_6
 10
153.2654
 20
99.4382
 42
0.03062414879
  0
VERTEX
  8
LAYER_6
 10
153.6297
 20
96.6126
 42
0.03492831532
  0
VERTEX
  8
LAYER_6
 10
154.2008
 20
94.4914
 42
0.04322481383
  0
VERTEX
  8
LAYER_6
 10
154.9728
 20
92.7794
 42
0.04881900027
  0
VERTEX
  8
LAYER_6
 10
155.8645
 20
91.5125
 42
0.05652952277
  0
VERTEX
  8
LAYER_6
 10
156.9314
 20
90.5346
 42
0.08056668917
  0
VERTEX
  8
LAYER_6
 10
158.6452
 20
89.6767
 42
0.02883520893
  0
VERTEX
  8
LAYER_6
 10
159.3884
 20
89.4887
  0
VERTEX
  8
LAYER_6
 10
160.8935
 20
87.9119
  0
SEQEND
  0
POLYLINE
  8
LAYER_6
 40
0.05
 41
0.05
 62
255
 66
1
 10
0
 20
0
 30
0
 70
1
  0
VERTEX
  8
LAYER_6
 10
142.4699
 20
98.4429
  0
VERTEX
  8
LAYER_6
 10
140.934
 20
84.5161
  0
VERTEX
  8
LAYER_6
 10
140.8314
 20
84.5161
  0
VERTEX
  8
LAYER_6
 10
140.8314
 20
98.4429
  0
SEQEND
  0
POLYLINE
  8
LAYER_6
 40
0.1905
 41
0.1905
 66
1
 10
0
 20
0
 30
0
  0
VERTEX
  8
LAYER_6
 10
37.9708
 20
84.5371
  0
VERTEX
  8
LAYER_6
 10
110.4894
 20
84.5333
  0
SEQEND
  0
POLYLINE
  8
LAYER_6
 40
0.1905
 41
0.1905
 66
1
 10
0
 20
0
 30
0
 70
1
  0
VERTEX
  8
LAYER_6
 10
113.5359
 20
134.4676
 42
0.04168793668
  0
VERTEX
  8
LAYER_6
 10
115.7623
 20
135.3117
 42
0.04275149815
  0
VERTEX
  8
LAYER_6
 10
117.6919
 20
136.4491
 42
0.04279788744
  0
VERTEX
  8
LAYER_6
 10
119.3246
 20
137.8379
 42
0.06234568221
  0
VERTEX
  8
LAYER_6
 10
121.2171
 20
140.3006
 42
0.0395645799
  0
VERTEX
  8
LAYER_6
 10
122.1076
 20
142.1345
 42
0.03810278809
  0
VERTEX
  8
LAYER_6
 10
122.7014
 20
144.0731
 42
0.03708160169
  0
VERTEX
  8
LAYER_6
 10
122.9982
 20
146.0745
 42
0.09211176527
  0
VERTEX
  8
LAYER_6
 10
122.4416
 20
151.0781
 42
0.03858450615
  0
VERTEX
  8
LAYER_6
 10
121.6995
 20
152.9696
 42
0.04017147664
  0
VERTEX
  8
LAYER_6
 10
120.6605
 20
154.7354
 42
0.1290896275
  0
VERTEX
  8
LAYER_6
 10
115.7623
 20
158.86
 42
0.04225955981
  0
VERTEX
  8
LAYER_6
 10
113.5359
 20
159.7043
 42
0.1410469308
  0
VERTEX
  8
LAYER_6
 10
35.047
 20
159.7043
 42
0.0416896986
  0
VERTEX
  8
LAYER_6
 10
32.8208
 20
158.86
 42
0.04275176386
  0
VERTEX
  8
LAYER_6
 10
30.8914
 20
157.7226
 42
0.04279645927
  0
VERTEX
  8
LAYER_6
 10
29.2589
 20
156.3337
 42
0.0623411702
  0
VERTEX
  8
LAYER_6
 10
27.3666
 20
153.8709
 42
0.0395604305
  0
VERTEX
  8
LAYER_6
 10
26.4761
 20
152.037
 42
0.03809839318
  0
VERTEX
  8
LAYER_6
 10
25.8825
 20
150.0983
 42
0.03707733984
  0
VERTEX
  8
LAYER_6
 10
25.5857
 20
148.0969
 42
0.09210276564
  0
VERTEX
  8
LAYER_6
 10
26.1422
 20
143.0933
 42
0.03858289071
  0
VERTEX
  8
LAYER_6
 10
26.8843
 20
141.2018
 42
0.04017122627
  0
VERTEX
  8
LAYER_6
 10
27.9232
 20
139.4361
 42
0.1290960746
  0
VERTEX
  8
LAYER_6
 10
32.8208
 20
135.3117
 42
0.04226429679
  0
VERTEX
  8
LAYER_6
 10
35.047
 20
134.4676
 42
0.1410721879
  0
SEQEND
  0
CIRCLE
  8
LAYER_6
 10
74.2921
 20
172.6999
 40
1.7897
  0
POLYLINE
  8
LAYER_6
 40
0.381
 41
0.381
 66
1
 10
0
 20
0
 30
0
 70
1
  0
VERTEX
  8
LAYER_6
 10
29.5972
 20
179.6621
 42
0.01453658818
  0
VERTEX
  8
LAYER_6
 10
27.8566
 20
173.8563
 42
0.01315049387
  0
VERTEX
  8
LAYER_6
 10
26.6448
 20
168.8077
 42
0.01342404812
  0
VERTEX
  8
LAYER_6
 10
25.7107
 20
163.7379
 42
0.01346539947
  0
VERTEX
  8
LAYER_6
 10
25.0512
 20
158.6269
 42
0.01327140473
  0
VERTEX
  8
LAYER_6
 10
24.6631
 20
153.4545
 42
0.01285647715
  0
VERTEX
  8
LAYER_6
 10
24.5436
 20
148.2006
 42
0.003133883926
  0
VERTEX
  8
LAYER_6
 10
24.5553
 20
146.872
 42
0.3300700115
  0
VERTEX
  8
LAYER_6
 10
34.772
 20
133.5109
 42
0.1410379848
  0
VERTEX
  8
LAYER_6
 10
113.8122
 20
133.5109
 42
0.3301103902
  0
VERTEX
  8
LAYER_6
 10
124.0289
 20
146.872
 42
0.01454544652
  0
VERTEX
  8
LAYER_6
 10
123.9451
 20
152.9331
 42
0.01315703704
  0
VERTEX
  8
LAYER_6
 10
123.5841
 20
158.1127
 42
0.01342922153
  0
VERTEX
  8
LAYER_6
 10
122.9519
 20
163.229
 42
0.01346897205
  0
VERTEX
  8
LAYER_6
 10
122.0453
 20
168.302
 42
0.01327321669
  0
VERTEX
  8
LAYER_6
 10
120.8613
 20
173.3518
 42
0.01285645816
  0
VERTEX
  8
LAYER_6
 10
119.3967
 20
178.3986
 42
0.00313360998
  0
VERTEX
  8
LAYER_6
 10
118.9864
 20
179.6621
  0
SEQEND
  0
CIRCLE
  8
LAYER_6
 10
74.2921
 20
156.2878
 40
2.3545
  0
CIRCLE
  8
LAYER_6
 10
74.2921
 20
156.2878
 40
3.8246
  0
INSERT
  8
LAYER_6
  2
AIGNBL0601003D
 10
0
 20
0
 30
0
  0
INSERT
  8
LAYER_6
  2
AIGNBL0601003E
 10
0
 20
0
 30
0
  0
INSERT
  8
LAYER_6
  2
AIGNBL06010040
 10
0
 20
0
 30
0
  0
INSERT
  8
LAYER_6
  2
AIGNBL06010042
 10
0
 20
0
 30
0
  0
INSERT
  8
LAYER_6
  2
AIGNBL06010043
 10
0
 20
0
 30
0
  0
INSERT
  8
LAYER_6
  2
AIGNBL06010044
 10
0
 20
0
 30
0
  0
INSERT
  8
LAYER_6
  2
AIGNBL06010045
 10
0
 20
0
 30
0
  0
INSERT
  8
LAYER_6
  2
AIGNBL06010046
 10
0
 20
0
 30
0
  0
INSERT
  8
LAYER_6
  2
AIGNBL06010047
 10
0
 20
0
 30
0
  0
POLYLINE
  8
LAYER_6
 40
0.1058
 41
0.1058
 66
1
 10
0
 20
0
 30
0
  0
VERTEX
  8
LAYER_6
 10
126.8918
 20
172.6999
  0
VERTEX
  8
LAYER_6
 10
130.4527
 20
172.6999
  0
VERTEX
  8
LAYER_6
 10
130.4527
 20
185.1377
  0
SEQEND
  0
POLYLINE
  8
LAYER_6
 40
0.1058
 41
0.1058
 66
1
 10
0
 20
0
 30
0
  0
VERTEX
  8
LAYER_6
 10
21.0726
 20
127.5932
  0
VERTEX
  8
LAYER_6
 10
10.1121
 20
127.5932
  0
VERTEX
  8
LAYER_6
 10
10.1121
 20
151.2115
  0
SEQEND
  0
POLYLINE
  8
LAYER_6
 40
0.1058
 41
0.1058
 66
1
 10
0
 20
0
 30
0
  0
VERTEX
  8
LAYER_6
 10
10.1121
 20
156.6523
  0
VERTEX
  8
LAYER_6
 10
10.1121
 20
179.8598
  0
VERTEX
  8
LAYER_6
 10
16.2943
 20
179.8598
  0
SEQEND
  0
TEXT
  8
LAYER_6
 10
13.8014
 20
151.9087
 11
13.8014
 21
151.9087
 40
3.5541
 41
0.5
 72
1
  1
520
  0
POLYLINE
  8
LAYER_6
 40
0.1058
 41
0.1058
 66
1
 10
0
 20
0
 30
0
  0
VERTEX
  8
LAYER_6
 10
21.0726
 20
140.8682
  0
VERTEX
  8
LAYER_6
 10
16.2943
 20
140.8682
  0
VERTEX
  8
LAYER_6
 10
16.2943
 20
159.2847
  0
SEQEND
  0
POLYLINE
  8
LAYER_6
 40
0.1058
 41
0.1058
 66
1
 10
0
 20
0
 30
0
  0
VERTEX
  8
LAYER_6
 10
16.2943
 20
164.7265
  0
VERTEX
  8
LAYER_6
 10
16.2943
 20
179.8598
  0
VERTEX
  8
LAYER_6
 10
21.0726
 20
179.8598
  0
SEQEND
  0
TEXT
  8
LAYER_6
 10
19.9847
 20
159.982
 11
19.9847
 21
159.982
 40
3.5541
 41
0.5
 72
1
  1
390
  0
INSERT
  8
LAYER_6
  2
AIGNBL06010048
 10
0
 20
0
 30
0
  0
INSERT
  8
LAYER_6
  2
AIGNBL06010049
 10
0
 20
0
 30
0
  0
INSERT
  8
LAYER_6
  2
AIGNBL0601004A
 10
0
 20
0
 30
0
  0
POLYLINE
  8
LAYER_6
 40
0.1058
 41
0.1058
 66
1
 10
0
 20
0
 30
0
  0
VERTEX
  8
LAYER_6
 10
122.3546
 20
121.1667
  0
VERTEX
  8
LAYER_6
 10
124.2484
 20
121.1667
  0
VERTEX
  8
LAYER_6
 10
124.2484
 20
126.2021
  0
SEQEND
  0
POLYLINE
  8
LAYER_6
 40
0.1058
 41
0.1058
 66
1
 10
0
 20
0
 30
0
  0
VERTEX
  8
LAYER_6
 10
26.0997
 20
121.1667
  0
VERTEX
  8
LAYER_6
 10
24.2056
 20
121.1667
  0
VERTEX
  8
LAYER_6
 10
24.2056
 20
126.2021
  0
SEQEND
  0
INSERT
  8
LAYER_6
  2
AIGNBL0601004B
 10
0
 20
0
 30
0
  0
POLYLINE
  8
LAYER_6
 40
0.05
 41
0.05
 66
1
 10
0
 20
0
 30
0
  0
VERTEX
  8
LAYER_6
 10
190.4111
 20
98.9741
 42
-0.1915735447
  0
VERTEX
  8
LAYER_6
 10
190.6852
 20
99.3604
 42
-0.1372643231
  0
VERTEX
  8
LAYER_6
 10
190.9675
 20
99.4382
 42
-0.4139250489
  0
VERTEX
  8
LAYER_6
 10
191.5132
 20
98.8301
  0
VERTEX
  8
LAYER_6
 10
191.5184
 20
98.8911
 42
-0.05553091226
  0
VERTEX
  8
LAYER_6
 10
190.8434
 20
95.4104
 42
-0.2631644949
  0
VERTEX
  8
LAYER_6
 10
179.0213
 20
84.5836
 42
0.1172385233
  0
VERTEX
  8
LAYER_6
 10
178.778
 20
84.4823
 42
0.1271434375
  0
VERTEX
  8
LAYER_6
 10
178.6745
 20
84.3496
 42
0.1071502704
  0
VERTEX
  8
LAYER_6
 10
178.6316
 20
84.0979
  0
VERTEX
  8
LAYER_6
 10
178.6316
 20
83.5222
  0
VERTEX
  8
LAYER_6
 10
177.6367
 20
83.5222
  0
VERTEX
  8
LAYER_6
 10
177.6367
 20
84.0979
 42
-0.1105460655
  0
VERTEX
  8
LAYER_6
 10
177.7905
 20
84.9048
 42
-0.1409544742
  0
VERTEX
  8
LAYER_6
 10
178.1738
 20
85.3174
 42
-0.09165972631
  0
VERTEX
  8
LAYER_6
 10
178.808
 20
85.5548
 42
0.2610098336
  0
VERTEX
  8
LAYER_6
 10
189.7614
 20
95.2924
 42
-0.01983238597
  0
VERTEX
  8
LAYER_6
 10
189.3125
 20
94.7267
 42
-0.04539595206
  0
VERTEX
  8
LAYER_6
 10
188.2007
 20
93.6621
 42
-0.04175230547
  0
VERTEX
  8
LAYER_6
 10
186.6374
 20
92.6241
 42
-0.02929709671
  0
VERTEX
  8
LAYER_6
 10
184.7615
 20
91.7095
 42
-0.02290582499
  0
VERTEX
  8
LAYER_6
 10
182.5739
 20
90.9126
 42
-0.01787108469
  0
VERTEX
  8
LAYER_6
 10
180.0782
 20
90.2226
 42
-0.01427412805
  0
VERTEX
  8
LAYER_6
 10
177.2794
 20
89.6372
 42
-0.01170590367
  0
VERTEX
  8
LAYER_6
 10
174.1864
 20
89.1556
 42
-0.01735129597
  0
VERTEX
  8
LAYER_6
 10
167.5598
 20
88.5221
  0
VERTEX
  8
LAYER_6
 10
166.5972
 20
87.512
  0
VERTEX
  8
LAYER_6
 10
166.5972
 20
84.8165
  0
VERTEX
  8
LAYER_6
 10
165.6026
 20
84.8165
  0
VERTEX
  8
LAYER_6
 10
165.6026
 20
87.9106
  0
VERTEX
  8
LAYER_6
 10
167.1071
 20
89.4902
 42
0.01519732177
  0
VERTEX
  8
LAYER_6
 10
173.4641
 20
90.0467
 42
0.01771167338
  0
VERTEX
  8
LAYER_6
 10
177.7633
 20
90.7297
 42
0.0148127116
  0
VERTEX
  8
LAYER_6
 10
180.5812
 20
91.3743
 42
0.02710786469
  0
VERTEX
  8
LAYER_6
 10
183.7703
 20
92.3718
 42
0.03423552589
  0
VERTEX
  8
LAYER_6
 10
185.7503
 20
93.2911
 42
0.04080006394
  0
VERTEX
  8
LAYER_6
 10
187.2755
 20
94.3128
 42
0.04385454369
  0
VERTEX
  8
LAYER_6
 10
188.4663
 20
95.4526
 42
0.04424703406
  0
VERTEX
  8
LAYER_6
 10
189.4153
 20
96.7561
 42
0.04324332458
  0
VERTEX
  8
LAYER_6
 10
190.1775
 20
98.3163
 42
0.01487278812
  0
VERTEX
  8
LAYER_6
 10
190.4111
 20
98.9741
  0
SEQEND
  0
INSERT
  8
LAYER_6
  2
AIGNBL0601004C
 10
0
 20
0
 30
0
  0
INSERT
  8
LAYER_6
  2
AIGNBL0601004D
 10
0
 20
0
 30
0
  0
TEXT
  8
LAYER_8
 10
-26.2556
 20
43.1712
 11
-26.2556
 21
43.1712
 40
3.2995
 41
0.5
  1
仕様
  0
POLYLINE
  8
LAYER_8
 40
0.3528
 41
0.3528
 66
1
 10
0
 20
0
 30
0
  0
VERTEX
  8
LAYER_8
 10
250.6748
 20
51.9507
  0
VERTEX
  8
LAYER_8
 10
-29.3178
 20
51.9507
  0
SEQEND
  0
INSERT
  8
LAYER_8
  2
AIGNBL08010002
 10
0
 20
0
 30
0
  0
POLYLINE
  8
LAYER_8
 40
0.3528
 41
0.3528
 66
1
 10
0
 20
0
 30
0
  0
VERTEX
  8
LAYER_8
 10
-29.3178
 20
229.3369
  0
VERTEX
  8
LAYER_8
 10
-29.3178
 20
34.3283
  0
VERTEX
  8
LAYER_8
 10
250.6748
 20
34.3283
  0
VERTEX
  8
LAYER_8
 10
250.6748
 20
229.3369
  0
VERTEX
  8
LAYER_8
 10
-29.3178
 20
229.3369
  0
SEQEND
  0
POLYLINE
  8
LAYER_8
 40
0.3528
 41
0.3528
 66
1
 10
0
 20
0
 30
0
  0
VERTEX
  8
LAYER_8
 10
250.6748
 20
60.4597
  0
VERTEX
  8
LAYER_8
 10
-29.3178
 20
60.4597
  0
SEQEND
  0
POLYLINE
  8
LAYER_8
 40
0.3528
 41
0.3528
 66
1
 10
0
 20
0
 30
0
  0
VERTEX
  8
LAYER_8
 10
250.6748
 20
43.4416
  0
VERTEX
  8
LAYER_8
 10
143.5341
 20
43.4416
  0
SEQEND
  0
TEXT
  8
LAYER_8
 10
188.1725
 20
45.7175
 11
188.1725
 21
45.7175
 40
3.7615
 41
0.5
  1
-
  0
TEXT
  8
LAYER_8
 10
182.8808
 20
49.4743
 11
182.8808
 21
49.4743
 40
2.1997
 41
0.5
  1
縮尺
  0
POLYLINE
  8
LAYER_8
 40
0.3528
 41
0.3528
 66
1
 10
0
 20
0
 30
0
  0
VERTEX
  8
LAYER_8
 10
181.3526
 20
43.4416
  0
VERTEX
  8
LAYER_8
 10
181.3526
 20
51.9507
  0
SEQEND
  0
TEXT
  8
LAYER_8
 10
144.2327
 20
57.9834
 11
144.2327
 21
57.9834
 40
2.1997
 41
0.5
  1
品番
  0
TEXT
  8
LAYER_8
 10
-28.1609
 20
57.9834
 11
-28.1609
 21
57.9834
 40
2.1997
 41
0.5
  1
品名
  0
TEXT
  8
LAYER_8
 10
144.2327
 20
49.4743
 11
144.2327
 21
49.4743
 40
2.1997
 41
0.5
  1
重量
  0
TEXT
  8
LAYER_8
 10
150.2547
 20
54.1514
 11
150.2547
 21
54.1514
 40
5.9385
 41
0.5
  1
SIM-VI12/
  0
POLYLINE
  8
LAYER_8
 40
0.3528
 41
0.3528
 66
1
 10
0
 20
0
 30
0
  0
VERTEX
  8
LAYER_8
 10
143.5341
 20
34.9539
  0
VERTEX
  8
LAYER_8
 10
143.5341
 20
60.4597
  0
SEQEND
  0
TEXT
  8
LAYER_8
 10
-15.3934
 20
54.891
 11
-15.3934
 21
54.891
 40
4.1465
 41
0.5
  1
ヴィニョーニ 壁付け／カウンター置き型洗面器1000mm
  0
TEXT
  8
LAYER_8
 10
-15.6835
 20
45.3736
 11
-15.6835
 21
45.3736
 40
3.5541
 41
0.5
  1
●サイズ：W1000×D520×H160mm●設置方法：壁付け／カウンター置き●背面釉薬なし（カウンター置きの際は壁に
  0
TEXT
  8
LAYER_8
 10
-15.6835
 20
40.6235
 11
-15.6835
 21
40.6235
 40
3.1177
 41
0.5
  1
付けてください）●l4栓取付zt：１zt●オーバーフロー付き●排l4帯具別途
  0
TEXT
  8
LAYER_8
 10
237.263
 20
63.2582
 11
237.263
 21
63.2582
 40
2.9618
 41
0.5
  1
単位：mm
  0
TEXT
  8
LAYER_8
 10
6.5217
 20
219.7385
 11
6.5217
 21
219.7385
 40
2.5981
 41
0.5
  1
※陶器製品は寸法公差が発生します。施工の際は必ず現物を合わせてご確認ください。
  0
TEXT
  8
LAYER_8
 10
6.5217
 20
214.9886
 11
6.5217
 21
214.9886
 40
2.5981
 41
0.5
  1
※製品と接する部分には必ずコーキング処理を行ってください。
  0
TEXT
  8
LAYER_8
 10
176.0254
 20
39.5359
 11
176.0254
 21
39.5359
 40
3.3853
 41
0.5
  1
●TEL 0120-65-1232●FAX 06-6532-1580
  0
TEXT
  8
LAYER_8
 10
176.0254
 20
36.0212
 11
176.0254
 21
36.0212
 40
3.3853
 41
0.5
  1
hits@hiratatile.co.jp
  0
INSERT
  8
LAYER_8
  2
AIGNBL08010003
 10
0
 20
0
 30
0
  0
INSERT
  8
LAYER_8
  2
AIGNBL08010025
 10
0
 20
0
 30
0
  0
TEXT
  8
LAYER_8
 10
157.2803
 20
46.4933
 11
157.2803
 21
46.4933
 40
3.7615
 41
0.5
  1
22kg
  0
TEXT
  8
LAYER_8
 10
240.3591
 20
225.8432
 11
240.3591
 21
225.8432
 40
2.0732
 41
0.5
  1
180612RT
  0
ENDSEC
  0
EOF
