  0
SECTION
  2
HEADER
  9
$ACADVER
  1
AC1009
  9
$LUNITS
 70
2
  9
$LUPREC
 70
4
  9
$LTSCALE
 40
1.0
  9
$EXTMIN
 10
-30.3177
 20
33.3285
 30
0
  9
$EXTMAX
 10
251.6749
 20
230.337
 30
0
  0
ENDSEC
  0
SECTION
  2
TABLES
  0
TABLE
  2
LTYPE
 70
256
  0
LTYPE
  2
AIGENLINE001
 70
64
  3
generate AI->DXF Converter
 72
65
 73
2
 40
0.3725
 49
0.1863
 49
-0.1863
  0
LTYPE
  2
AIGENLINE002
 70
64
  3
generate AI->DXF Converter
 72
65
 73
2
 40
0.3344
 49
0.1672
 49
-0.1672
  0
LTYPE
  2
AIGENLINE003
 70
64
  3
generate AI->DXF Converter
 72
65
 73
2
 40
0.3394
 49
0.1697
 49
-0.1697
  0
LTYPE
  2
AIGENLINE004
 70
64
  3
generate AI->DXF Converter
 72
65
 73
4
 40
1.0185
 49
0.5094
 49
-0.1697
 49
0.1697
 49
-0.1697
  0
LTYPE
  2
AIGENLINE005
 70
64
  3
generate AI->DXF Converter
 72
65
 73
2
 40
0.4992
 49
0.1665
 49
-0.3327
  0
LTYPE
  2
AIGENLINE006
 70
64
  3
generate AI->DXF Converter
 72
65
 73
2
 40
1.2065
 49
0.6033
 49
-0.6033
  0
LTYPE
  2
AIGENLINE007
 70
64
  3
generate AI->DXF Converter
 72
65
 73
2
 40
1.1783
 49
0.5891
 49
-0.5891
  0
LTYPE
  2
AIGENLINE008
 70
64
  3
generate AI->DXF Converter
 72
65
 73
2
 40
0.7049
 49
0.235
 49
-0.4699
  0
LTYPE
  2
AIGENLINE009
 70
64
  3
generate AI->DXF Converter
 72
65
 73
2
 40
0.6911
 49
0.2304
 49
-0.4607
  0
LTYPE
  2
AIGENLINE010
 70
64
  3
generate AI->DXF Converter
 72
65
 73
2
 40
0.4597
 49
0.1531
 49
-0.3066
  0
LTYPE
  2
AIGENLINE011
 70
64
  3
generate AI->DXF Converter
 72
65
 73
2
 40
0.0113
 49
0.0056
 49
-0.0056
  0
LTYPE
  2
AIGENLINE012
 70
64
  3
generate AI->DXF Converter
 72
65
 73
2
 40
0.1235
 49
0.0617
 49
-0.0617
  0
ENDTAB
  0
TABLE
  2
LAYER
 70
2
  0
LAYER
  2
LAYER_1
 70
64
 62
7
  6
CONTINUOUS
  0
LAYER
  2
LAYER_2
 70
64
 62
7
  6
CONTINUOUS
  0
ENDTAB
  0
TABLE
  2
STYLE
 70
6
  0
STYLE
  2
STANDARD
 70
0
 40
0
 50
0
 71
0
 41
0
 42
0
  3
TXT
  4
BIGFONT
  0
ENDTAB
  0
ENDSEC
  0
SECTION
  2
BLOCKS
  0
BLOCK
  8
LAYER_2
  2
AIGNBL02040006
 70
64
 10
0
 20
0
 30
0
  3
AIGNBL02040006
  0
POLYLINE
  8
LAYER_2
 40
0.05
 41
0.05
 66
1
 10
0
 20
0
 30
0
 70
1
  0
VERTEX
  8
LAYER_2
 10
146.7545
 20
39.1418
  0
VERTEX
  8
LAYER_2
 10
146.2656
 20
37.9567
  0
VERTEX
  8
LAYER_2
 10
145.6376
 20
37.9567
  0
VERTEX
  8
LAYER_2
 10
147.2372
 20
41.7225
  0
VERTEX
  8
LAYER_2
 10
147.9703
 20
41.7225
  0
VERTEX
  8
LAYER_2
 10
149.5768
 20
37.9567
  0
VERTEX
  8
LAYER_2
 10
148.9267
 20
37.9567
  0
VERTEX
  8
LAYER_2
 10
148.424
 20
39.1418
  0
SEQEND
  0
POLYLINE
  8
LAYER_2
 40
0.05
 41
0.05
 66
1
 10
0
 20
0
 30
0
 70
1
  0
VERTEX
  8
LAYER_2
 10
148.2983
 20
39.5207
  0
VERTEX
  8
LAYER_2
 10
147.8373
 20
40.6056
  0
VERTEX
  8
LAYER_2
 10
147.5927
 20
41.2926
  0
VERTEX
  8
LAYER_2
 10
147.5789
 20
41.2926
  0
VERTEX
  8
LAYER_2
 10
147.3412
 20
40.6101
  0
VERTEX
  8
LAYER_2
 10
146.8806
 20
39.5207
  0
SEQEND
  0
ENDBLK
  0
BLOCK
  8
LAYER_2
  2
AIGNBL02040007
 70
64
 10
0
 20
0
 30
0
  3
AIGNBL02040007
  0
POLYLINE
  8
LAYER_2
 40
0.05
 41
0.05
 66
1
 10
0
 20
0
 30
0
 70
1
  0
VERTEX
  8
LAYER_2
 10
153.942
 20
37.4034
 42
-0.01557776889
  0
VERTEX
  8
LAYER_2
 10
152.1399
 20
37.8395
  0
VERTEX
  8
LAYER_2
 10
151.8533
 20
37.895
 42
-0.08356586593
  0
VERTEX
  8
LAYER_2
 10
150.9892
 20
38.0612
 42
-0.09749891868
  0
VERTEX
  8
LAYER_2
 10
150.3281
 20
38.4671
 42
-0.2129139625
  0
VERTEX
  8
LAYER_2
 10
149.7793
 20
39.7998
 42
-0.09685063121
  0
VERTEX
  8
LAYER_2
 10
149.9239
 20
40.5732
 42
-0.2046489378
  0
VERTEX
  8
LAYER_2
 10
150.9715
 20
41.5974
 42
-0.09824326873
  0
VERTEX
  8
LAYER_2
 10
151.9725
 20
41.7838
 42
-0.08554303155
  0
VERTEX
  8
LAYER_2
 10
152.8411
 20
41.6425
 42
-0.100439485
  0
VERTEX
  8
LAYER_2
 10
153.5062
 20
41.2483
 42
-0.2140965971
  0
VERTEX
  8
LAYER_2
 10
154.0815
 20
39.8784
 42
-0.09539620281
  0
VERTEX
  8
LAYER_2
 10
153.9426
 20
39.1106
 42
-0.2143310008
  0
VERTEX
  8
LAYER_2
 10
152.9198
 20
38.1321
 42
-0.02339132607
  0
VERTEX
  8
LAYER_2
 10
152.7407
 20
38.0738
  0
VERTEX
  8
LAYER_2
 10
152.7407
 20
38.0514
 42
0.01711818545
  0
VERTEX
  8
LAYER_2
 10
154.117
 20
37.8113
  0
SEQEND
  0
POLYLINE
  8
LAYER_2
 40
0.05
 41
0.05
 66
1
 10
0
 20
0
 30
0
 70
1
  0
VERTEX
  8
LAYER_2
 10
153.4394
 20
39.857
 42
0.1071643265
  0
VERTEX
  8
LAYER_2
 10
153.2881
 20
40.5618
 42
0.2976270581
  0
VERTEX
  8
LAYER_2
 10
151.9511
 20
41.3873
 42
0.1072356843
  0
VERTEX
  8
LAYER_2
 10
151.2613
 20
41.2478
 42
0.2385874916
  0
VERTEX
  8
LAYER_2
 10
150.4743
 20
40.2422
 42
0.05751786987
  0
VERTEX
  8
LAYER_2
 10
150.4287
 20
39.8122
 42
0.218058121
  0
VERTEX
  8
LAYER_2
 10
150.9593
 20
38.6168
 42
0.1772828752
  0
VERTEX
  8
LAYER_2
 10
151.9232
 20
38.2912
 42
0.1075205619
  0
VERTEX
  8
LAYER_2
 10
152.6045
 20
38.4302
 42
0.2370768657
  0
VERTEX
  8
LAYER_2
 10
153.3917
 20
39.4298
 42
0.05602139055
  0
SEQEND
  0
ENDBLK
  0
BLOCK
  8
LAYER_2
  2
AIGNBL02040008
 70
64
 10
0
 20
0
 30
0
  3
AIGNBL02040008
  0
POLYLINE
  8
LAYER_2
 40
0.05
 41
0.05
 66
1
 10
0
 20
0
 30
0
 70
1
  0
VERTEX
  8
LAYER_2
 10
155.4089
 20
41.7225
  0
VERTEX
  8
LAYER_2
 10
155.4089
 20
39.4932
 42
0.114533087
  0
VERTEX
  8
LAYER_2
 10
155.5428
 20
38.8274
 42
0.1464774934
  0
VERTEX
  8
LAYER_2
 10
155.8932
 20
38.4422
 42
0.1362552487
  0
VERTEX
  8
LAYER_2
 10
156.5055
 20
38.2912
 42
0.1219300979
  0
VERTEX
  8
LAYER_2
 10
157.1286
 20
38.4259
 42
0.1503016186
  0
VERTEX
  8
LAYER_2
 10
157.5004
 20
38.7949
 42
0.1256239276
  0
VERTEX
  8
LAYER_2
 10
157.651
 20
39.4932
  0
VERTEX
  8
LAYER_2
 10
157.651
 20
41.7225
  0
VERTEX
  8
LAYER_2
 10
158.2656
 20
41.7225
  0
VERTEX
  8
LAYER_2
 10
158.2656
 20
39.5266
 42
-0.09996665729
  0
VERTEX
  8
LAYER_2
 10
158.1307
 20
38.7839
 42
-0.1215019567
  0
VERTEX
  8
LAYER_2
 10
157.7575
 20
38.2772
 42
-0.1106305922
  0
VERTEX
  8
LAYER_2
 10
157.132
 20
37.9706
 42
-0.06128719854
  0
VERTEX
  8
LAYER_2
 10
156.4845
 20
37.895
 42
-0.0941826643
  0
VERTEX
  8
LAYER_2
 10
155.6654
 20
38.0331
 42
-0.2431541134
  0
VERTEX
  8
LAYER_2
 10
154.8618
 20
38.9438
 42
-0.06321248355
  0
VERTEX
  8
LAYER_2
 10
154.7943
 20
39.5045
  0
VERTEX
  8
LAYER_2
 10
154.7943
 20
41.7225
  0
SEQEND
  0
ENDBLK
  0
BLOCK
  8
LAYER_2
  2
AIGNBL02040009
 70
64
 10
0
 20
0
 30
0
  3
AIGNBL02040009
  0
POLYLINE
  8
LAYER_2
 40
0.05
 41
0.05
 66
1
 10
0
 20
0
 30
0
 70
1
  0
VERTEX
  8
LAYER_2
 10
160.0119
 20
39.1418
  0
VERTEX
  8
LAYER_2
 10
159.5227
 20
37.9567
  0
VERTEX
  8
LAYER_2
 10
158.8947
 20
37.9567
  0
VERTEX
  8
LAYER_2
 10
160.4939
 20
41.7225
  0
VERTEX
  8
LAYER_2
 10
161.227
 20
41.7225
  0
VERTEX
  8
LAYER_2
 10
162.8335
 20
37.9567
  0
VERTEX
  8
LAYER_2
 10
162.1841
 20
37.9567
  0
VERTEX
  8
LAYER_2
 10
161.6814
 20
39.1418
  0
SEQEND
  0
POLYLINE
  8
LAYER_2
 40
0.05
 41
0.05
 66
1
 10
0
 20
0
 30
0
 70
1
  0
VERTEX
  8
LAYER_2
 10
161.5553
 20
39.5207
  0
VERTEX
  8
LAYER_2
 10
161.094
 20
40.6056
  0
VERTEX
  8
LAYER_2
 10
160.8494
 20
41.2926
  0
VERTEX
  8
LAYER_2
 10
160.8357
 20
41.2926
  0
VERTEX
  8
LAYER_2
 10
160.5983
 20
40.6101
  0
VERTEX
  8
LAYER_2
 10
160.1373
 20
39.5207
  0
SEQEND
  0
ENDBLK
  0
BLOCK
  8
LAYER_2
  2
AIGNBL0204000A
 70
64
 10
0
 20
0
 30
0
  3
AIGNBL0204000A
  0
POLYLINE
  8
LAYER_2
 40
0.05
 41
0.05
 66
1
 10
0
 20
0
 30
0
 70
1
  0
VERTEX
  8
LAYER_2
 10
163.8742
 20
41.6777
 42
-0.03245918394
  0
VERTEX
  8
LAYER_2
 10
165.0411
 20
41.7508
 42
-0.08084226265
  0
VERTEX
  8
LAYER_2
 10
165.9975
 20
41.619
 42
-0.07815635113
  0
VERTEX
  8
LAYER_2
 10
166.3609
 20
41.4379
 42
-0.2484709269
  0
VERTEX
  8
LAYER_2
 10
166.7726
 20
40.6497
 42
-0.226147
  0
VERTEX
  8
LAYER_2
 10
166.4095
 20
39.8456
 42
-0.1096895144
  0
VERTEX
  8
LAYER_2
 10
165.7812
 20
39.5323
 42
-0.06565832551
  0
VERTEX
  8
LAYER_2
 10
164.9708
 20
39.4319
 42
-0.06238309955
  0
VERTEX
  8
LAYER_2
 10
164.4823
 20
39.4653
  0
VERTEX
  8
LAYER_2
 10
164.4823
 20
37.9567
  0
VERTEX
  8
LAYER_2
 10
163.8742
 20
37.9567
  0
SEQEND
  0
POLYLINE
  8
LAYER_2
 40
0.05
 41
0.05
 66
1
 10
0
 20
0
 30
0
 70
1
  0
VERTEX
  8
LAYER_2
 10
164.4823
 20
39.8622
 42
0.04203451964
  0
VERTEX
  8
LAYER_2
 10
164.9846
 20
39.8229
 42
0.1032111168
  0
VERTEX
  8
LAYER_2
 10
165.7038
 20
39.9502
 42
0.1555938032
  0
VERTEX
  8
LAYER_2
 10
166.0686
 20
40.2546
 42
0.1352673748
  0
VERTEX
  8
LAYER_2
 10
166.1656
 20
40.6273
 42
0.1737047371
  0
VERTEX
  8
LAYER_2
 10
166.0308
 20
41.0346
 42
0.1517050813
  0
VERTEX
  8
LAYER_2
 10
165.6097
 20
41.2941
 42
0.06879756253
  0
VERTEX
  8
LAYER_2
 10
165.0552
 20
41.3649
 42
0.0634356619
  0
VERTEX
  8
LAYER_2
 10
164.4823
 20
41.3257
  0
SEQEND
  0
ENDBLK
  0
BLOCK
  8
LAYER_2
  2
AIGNBL0204000B
 70
64
 10
0
 20
0
 30
0
  3
AIGNBL0204000B
  0
POLYLINE
  8
LAYER_2
 40
0.05
 41
0.05
 66
1
 10
0
 20
0
 30
0
 70
1
  0
VERTEX
  8
LAYER_2
 10
168.3246
 20
41.4207
 42
-0.2767461975
  0
VERTEX
  8
LAYER_2
 10
168.1851
 20
41.1806
 42
-0.1265294091
  0
VERTEX
  8
LAYER_2
 10
167.9329
 20
41.1189
 42
-0.2237518698
  0
VERTEX
  8
LAYER_2
 10
167.6226
 20
41.2513
 42
-0.1708341408
  0
VERTEX
  8
LAYER_2
 10
167.5626
 20
41.4207
 42
-0.2643879937
  0
VERTEX
  8
LAYER_2
 10
167.712
 20
41.6678
 42
-0.1290073663
  0
VERTEX
  8
LAYER_2
 10
167.9467
 20
41.7277
 42
-0.225342086
  0
VERTEX
  8
LAYER_2
 10
168.2635
 20
41.597
 42
-0.1691136206
  0
SEQEND
  0
POLYLINE
  8
LAYER_2
 40
0.05
 41
0.05
 66
1
 10
0
 20
0
 30
0
 70
1
  0
VERTEX
  8
LAYER_2
 10
167.639
 20
37.9567
  0
VERTEX
  8
LAYER_2
 10
167.639
 20
40.6607
  0
VERTEX
  8
LAYER_2
 10
168.2537
 20
40.6607
  0
VERTEX
  8
LAYER_2
 10
168.2537
 20
37.9567
  0
SEQEND
  0
ENDBLK
  0
BLOCK
  8
LAYER_2
  2
AIGNBL0204000C
 70
64
 10
0
 20
0
 30
0
  3
AIGNBL0204000C
  0
POLYLINE
  8
LAYER_2
 40
0.05
 41
0.05
 66
1
 10
0
 20
0
 30
0
 70
1
  0
VERTEX
  8
LAYER_2
 10
170.1254
 20
39.1418
  0
VERTEX
  8
LAYER_2
 10
169.6372
 20
37.9567
  0
VERTEX
  8
LAYER_2
 10
169.0081
 20
37.9567
  0
VERTEX
  8
LAYER_2
 10
170.6077
 20
41.7225
  0
VERTEX
  8
LAYER_2
 10
171.3415
 20
41.7225
  0
VERTEX
  8
LAYER_2
 10
172.9479
 20
37.9567
  0
VERTEX
  8
LAYER_2
 10
172.2982
 20
37.9567
  0
VERTEX
  8
LAYER_2
 10
171.7955
 20
39.1418
  0
SEQEND
  0
POLYLINE
  8
LAYER_2
 40
0.05
 41
0.05
 66
1
 10
0
 20
0
 30
0
 70
1
  0
VERTEX
  8
LAYER_2
 10
171.6695
 20
39.5207
  0
VERTEX
  8
LAYER_2
 10
171.2085
 20
40.6056
  0
VERTEX
  8
LAYER_2
 10
170.9646
 20
41.2926
  0
VERTEX
  8
LAYER_2
 10
170.9498
 20
41.2926
  0
VERTEX
  8
LAYER_2
 10
170.7128
 20
40.6101
  0
VERTEX
  8
LAYER_2
 10
170.2518
 20
39.5207
  0
SEQEND
  0
ENDBLK
  0
BLOCK
  8
LAYER_2
  2
AIGNBL02030005
 70
64
 10
0
 20
0
 30
0
  3
AIGNBL02030005
  0
INSERT
  8
LAYER_2
  2
AIGNBL02040006
 10
0
 20
0
 30
0
  0
INSERT
  8
LAYER_2
  2
AIGNBL02040007
 10
0
 20
0
 30
0
  0
INSERT
  8
LAYER_2
  2
AIGNBL02040008
 10
0
 20
0
 30
0
  0
INSERT
  8
LAYER_2
  2
AIGNBL02040009
 10
0
 20
0
 30
0
  0
INSERT
  8
LAYER_2
  2
AIGNBL0204000A
 10
0
 20
0
 30
0
  0
INSERT
  8
LAYER_2
  2
AIGNBL0204000B
 10
0
 20
0
 30
0
  0
INSERT
  8
LAYER_2
  2
AIGNBL0204000C
 10
0
 20
0
 30
0
  0
ENDBLK
  0
BLOCK
  8
LAYER_2
  2
AIGNBL0203000E
 70
64
 10
0
 20
0
 30
0
  3
AIGNBL0203000E
  0
POLYLINE
  8
LAYER_2
 40
0.05
 41
0.05
 66
1
 10
0
 20
0
 30
0
 70
1
  0
VERTEX
  8
LAYER_2
 10
145.7475
 20
36.0574
  0
VERTEX
  8
LAYER_2
 10
146.3008
 20
36.0574
  0
VERTEX
  8
LAYER_2
 10
146.3008
 20
35.9637
  0
VERTEX
  8
LAYER_2
 10
145.6424
 20
35.9637
  0
VERTEX
  8
LAYER_2
 10
145.6424
 20
36.9969
  0
VERTEX
  8
LAYER_2
 10
146.2832
 20
36.9969
  0
VERTEX
  8
LAYER_2
 10
146.2832
 20
36.9035
  0
VERTEX
  8
LAYER_2
 10
145.7475
 20
36.9035
  0
VERTEX
  8
LAYER_2
 10
145.7475
 20
36.549
  0
VERTEX
  8
LAYER_2
 10
146.2481
 20
36.549
  0
VERTEX
  8
LAYER_2
 10
146.2481
 20
36.4557
  0
VERTEX
  8
LAYER_2
 10
145.7475
 20
36.4557
  0
SEQEND
  0
ENDBLK
  0
BLOCK
  8
LAYER_2
  2
AIGNBL0203000F
 70
64
 10
0
 20
0
 30
0
  3
AIGNBL0203000F
  0
POLYLINE
  8
LAYER_2
 40
0.05
 41
0.05
 66
1
 10
0
 20
0
 30
0
 70
1
  0
VERTEX
  8
LAYER_2
 10
147.4404
 20
36.117
  0
VERTEX
  8
LAYER_2
 10
147.4432
 20
36.117
  0
VERTEX
  8
LAYER_2
 10
147.4432
 20
36.9969
  0
VERTEX
  8
LAYER_2
 10
147.5483
 20
36.9969
  0
VERTEX
  8
LAYER_2
 10
147.5483
 20
35.9637
  0
VERTEX
  8
LAYER_2
 10
147.4174
 20
35.9637
  0
VERTEX
  8
LAYER_2
 10
146.8162
 20
36.8525
  0
VERTEX
  8
LAYER_2
 10
146.8127
 20
36.8525
  0
VERTEX
  8
LAYER_2
 10
146.8127
 20
35.9637
  0
VERTEX
  8
LAYER_2
 10
146.708
 20
35.9637
  0
VERTEX
  8
LAYER_2
 10
146.708
 20
36.9969
  0
VERTEX
  8
LAYER_2
 10
146.8393
 20
36.9969
  0
SEQEND
  0
ENDBLK
  0
BLOCK
  8
LAYER_2
  2
AIGNBL02030010
 70
64
 10
0
 20
0
 30
0
  3
AIGNBL02030010
  0
POLYLINE
  8
LAYER_2
 40
0.05
 41
0.05
 66
1
 10
0
 20
0
 30
0
 70
1
  0
VERTEX
  8
LAYER_2
 10
148.0213
 20
36.1756
  0
VERTEX
  8
LAYER_2
 10
148.0757
 20
36.0725
 42
0.1803975231
  0
VERTEX
  8
LAYER_2
 10
148.1891
 20
36.0309
  0
VERTEX
  8
LAYER_2
 10
148.2783
 20
36.0505
  0
VERTEX
  8
LAYER_2
 10
148.3344
 20
36.1039
  0
VERTEX
  8
LAYER_2
 10
148.3634
 20
36.1804
  0
VERTEX
  8
LAYER_2
 10
148.3717
 20
36.27
  0
VERTEX
  8
LAYER_2
 10
148.3717
 20
36.9969
  0
VERTEX
  8
LAYER_2
 10
148.4767
 20
36.9969
  0
VERTEX
  8
LAYER_2
 10
148.4767
 20
36.2614
  0
VERTEX
  8
LAYER_2
 10
148.4654
 20
36.1535
  0
VERTEX
  8
LAYER_2
 10
148.424
 20
36.0485
  0
VERTEX
  8
LAYER_2
 10
148.3393
 20
35.9689
  0
VERTEX
  8
LAYER_2
 10
148.2004
 20
35.9375
 42
-0.1845231376
  0
VERTEX
  8
LAYER_2
 10
148.0158
 20
35.9974
 42
-0.1765285731
  0
VERTEX
  8
LAYER_2
 10
147.9234
 20
36.149
  0
SEQEND
  0
ENDBLK
  0
BLOCK
  8
LAYER_2
  2
AIGNBL02030011
 70
64
 10
0
 20
0
 30
0
  3
AIGNBL02030011
  0
POLYLINE
  8
LAYER_2
 40
0.05
 41
0.05
 66
1
 10
0
 20
0
 30
0
 70
1
  0
VERTEX
  8
LAYER_2
 10
149.965
 20
36.4805
 42
-0.1041417444
  0
VERTEX
  8
LAYER_2
 10
149.924
 20
36.2631
 42
-0.10057123
  0
VERTEX
  8
LAYER_2
 10
149.8113
 20
36.0915
  0
VERTEX
  8
LAYER_2
 10
149.6405
 20
35.9785
 42
-0.0950295922
  0
VERTEX
  8
LAYER_2
 10
149.4265
 20
35.9375
 42
-0.1010765979
  0
VERTEX
  8
LAYER_2
 10
149.2129
 20
35.9785
 42
-0.1000570207
  0
VERTEX
  8
LAYER_2
 10
149.042
 20
36.0915
 42
-0.09442769366
  0
VERTEX
  8
LAYER_2
 10
148.9287
 20
36.2631
 42
-0.09293305267
  0
VERTEX
  8
LAYER_2
 10
148.8881
 20
36.4805
 42
-0.1024980643
  0
VERTEX
  8
LAYER_2
 10
148.9287
 20
36.6978
 42
-0.1008832254
  0
VERTEX
  8
LAYER_2
 10
149.042
 20
36.8694
 42
-0.09625117665
  0
VERTEX
  8
LAYER_2
 10
149.2129
 20
36.9824
 42
-0.0952064105
  0
VERTEX
  8
LAYER_2
 10
149.4265
 20
37.0234
 42
-0.1012184087
  0
VERTEX
  8
LAYER_2
 10
149.6405
 20
36.9824
 42
-0.09890806396
  0
VERTEX
  8
LAYER_2
 10
149.8113
 20
36.8694
 42
-0.09577200427
  0
VERTEX
  8
LAYER_2
 10
149.924
 20
36.6978
 42
-0.09400765476
  0
SEQEND
  0
POLYLINE
  8
LAYER_2
 40
0.05
 41
0.05
 66
1
 10
0
 20
0
 30
0
 70
1
  0
VERTEX
  8
LAYER_2
 10
149.8541
 20
36.4798
  0
VERTEX
  8
LAYER_2
 10
149.8251
 20
36.6517
  0
VERTEX
  8
LAYER_2
 10
149.7404
 20
36.795
  0
VERTEX
  8
LAYER_2
 10
149.6053
 20
36.8932
  0
VERTEX
  8
LAYER_2
 10
149.4265
 20
36.93
  0
VERTEX
  8
LAYER_2
 10
149.2478
 20
36.8932
  0
VERTEX
  8
LAYER_2
 10
149.113
 20
36.795
  0
VERTEX
  8
LAYER_2
 10
149.0283
 20
36.6517
  0
VERTEX
  8
LAYER_2
 10
148.999
 20
36.4798
  0
VERTEX
  8
LAYER_2
 10
149.0283
 20
36.3079
  0
VERTEX
  8
LAYER_2
 10
149.113
 20
36.1649
  0
VERTEX
  8
LAYER_2
 10
149.2478
 20
36.0674
 42
0.1008814383
  0
VERTEX
  8
LAYER_2
 10
149.4265
 20
36.0309
 42
0.1157330551
  0
VERTEX
  8
LAYER_2
 10
149.6053
 20
36.0674
  0
VERTEX
  8
LAYER_2
 10
149.7404
 20
36.1649
  0
VERTEX
  8
LAYER_2
 10
149.8251
 20
36.3079
  0
SEQEND
  0
ENDBLK
  0
BLOCK
  8
LAYER_2
  2
AIGNBL02030012
 70
64
 10
0
 20
0
 30
0
  3
AIGNBL02030012
  0
POLYLINE
  8
LAYER_2
 40
0.05
 41
0.05
 66
1
 10
0
 20
0
 30
0
 70
1
  0
VERTEX
  8
LAYER_2
 10
150.7398
 20
35.9637
  0
VERTEX
  8
LAYER_2
 10
150.6351
 20
35.9637
  0
VERTEX
  8
LAYER_2
 10
150.6351
 20
36.4091
  0
VERTEX
  8
LAYER_2
 10
150.2482
 20
36.9969
  0
VERTEX
  8
LAYER_2
 10
150.3795
 20
36.9969
  0
VERTEX
  8
LAYER_2
 10
150.6905
 20
36.4967
  0
VERTEX
  8
LAYER_2
 10
151.0041
 20
36.9969
  0
VERTEX
  8
LAYER_2
 10
151.1263
 20
36.9969
  0
VERTEX
  8
LAYER_2
 10
150.7398
 20
36.4091
  0
SEQEND
  0
ENDBLK
  0
BLOCK
  8
LAYER_2
  2
AIGNBL02030013
 70
64
 10
0
 20
0
 30
0
  3
AIGNBL02030013
  0
POLYLINE
  8
LAYER_2
 40
0.05
 41
0.05
 66
1
 10
0
 20
0
 30
0
 70
1
  0
VERTEX
  8
LAYER_2
 10
152.0314
 20
36.9969
  0
VERTEX
  8
LAYER_2
 10
152.339
 20
36.9969
  0
VERTEX
  8
LAYER_2
 10
152.4575
 20
36.9845
  0
VERTEX
  8
LAYER_2
 10
152.5643
 20
36.9421
  0
VERTEX
  8
LAYER_2
 10
152.6422
 20
36.8611
  0
VERTEX
  8
LAYER_2
 10
152.6718
 20
36.733
 42
-0.1790346201
  0
VERTEX
  8
LAYER_2
 10
152.6219
 20
36.5907
 42
-0.1642933266
  0
VERTEX
  8
LAYER_2
 10
152.4885
 20
36.5111
  0
VERTEX
  8
LAYER_2
 10
152.4885
 20
36.5084
 42
-0.1735805246
  0
VERTEX
  8
LAYER_2
 10
152.6553
 20
36.4302
 42
-0.1921994171
  0
VERTEX
  8
LAYER_2
 10
152.7214
 20
36.2496
  0
VERTEX
  8
LAYER_2
 10
152.6942
 20
36.1325
  0
VERTEX
  8
LAYER_2
 10
152.6181
 20
36.0419
  0
VERTEX
  8
LAYER_2
 10
152.4972
 20
35.9844
  0
VERTEX
  8
LAYER_2
 10
152.3373
 20
35.9637
  0
VERTEX
  8
LAYER_2
 10
152.0314
 20
35.9637
  0
SEQEND
  0
POLYLINE
  8
LAYER_2
 40
0.05
 41
0.05
 66
1
 10
0
 20
0
 30
0
 70
1
  0
VERTEX
  8
LAYER_2
 10
152.1364
 20
36.5445
  0
VERTEX
  8
LAYER_2
 10
152.348
 20
36.5445
  0
VERTEX
  8
LAYER_2
 10
152.4248
 20
36.5535
  0
VERTEX
  8
LAYER_2
 10
152.4951
 20
36.5831
  0
VERTEX
  8
LAYER_2
 10
152.5471
 20
36.6396
  0
VERTEX
  8
LAYER_2
 10
152.5668
 20
36.7258
  0
VERTEX
  8
LAYER_2
 10
152.5471
 20
36.8095
  0
VERTEX
  8
LAYER_2
 10
152.494
 20
36.8656
  0
VERTEX
  8
LAYER_2
 10
152.4152
 20
36.897
  0
VERTEX
  8
LAYER_2
 10
152.3187
 20
36.9066
  0
VERTEX
  8
LAYER_2
 10
152.1364
 20
36.9066
  0
SEQEND
  0
POLYLINE
  8
LAYER_2
 40
0.05
 41
0.05
 66
1
 10
0
 20
0
 30
0
 70
1
  0
VERTEX
  8
LAYER_2
 10
152.1364
 20
36.0543
  0
VERTEX
  8
LAYER_2
 10
152.3321
 20
36.0543
  0
VERTEX
  8
LAYER_2
 10
152.4406
 20
36.0653
  0
VERTEX
  8
LAYER_2
 10
152.5313
 20
36.1001
  0
VERTEX
  8
LAYER_2
 10
152.5929
 20
36.1632
  0
VERTEX
  8
LAYER_2
 10
152.6164
 20
36.2559
 42
0.2557371221
  0
VERTEX
  8
LAYER_2
 10
152.5471
 20
36.4081
 42
0.1381508151
  0
VERTEX
  8
LAYER_2
 10
152.3511
 20
36.4584
  0
VERTEX
  8
LAYER_2
 10
152.1364
 20
36.4584
  0
SEQEND
  0
ENDBLK
  0
BLOCK
  8
LAYER_2
  2
AIGNBL02030014
 70
64
 10
0
 20
0
 30
0
  3
AIGNBL02030014
  0
POLYLINE
  8
LAYER_2
 40
0.05
 41
0.05
 66
1
 10
0
 20
0
 30
0
 70
1
  0
VERTEX
  8
LAYER_2
 10
153.1534
 20
35.9637
  0
VERTEX
  8
LAYER_2
 10
153.038
 20
35.9637
  0
VERTEX
  8
LAYER_2
 10
153.4849
 20
36.9969
  0
VERTEX
  8
LAYER_2
 10
153.5872
 20
36.9969
  0
VERTEX
  8
LAYER_2
 10
154.0306
 20
35.9637
  0
VERTEX
  8
LAYER_2
 10
153.9138
 20
35.9637
  0
VERTEX
  8
LAYER_2
 10
153.7997
 20
36.2352
  0
VERTEX
  8
LAYER_2
 10
153.2657
 20
36.2352
  0
SEQEND
  0
POLYLINE
  8
LAYER_2
 40
0.05
 41
0.05
 66
1
 10
0
 20
0
 30
0
 70
1
  0
VERTEX
  8
LAYER_2
 10
153.305
 20
36.3316
  0
VERTEX
  8
LAYER_2
 10
153.7604
 20
36.3316
  0
VERTEX
  8
LAYER_2
 10
153.5327
 20
36.8804
  0
SEQEND
  0
ENDBLK
  0
BLOCK
  8
LAYER_2
  2
AIGNBL02030015
 70
64
 10
0
 20
0
 30
0
  3
AIGNBL02030015
  0
POLYLINE
  8
LAYER_2
 40
0.05
 41
0.05
 66
1
 10
0
 20
0
 30
0
 70
1
  0
VERTEX
  8
LAYER_2
 10
154.7151
 20
35.9637
  0
VERTEX
  8
LAYER_2
 10
154.61
 20
35.9637
  0
VERTEX
  8
LAYER_2
 10
154.61
 20
36.9035
  0
VERTEX
  8
LAYER_2
 10
154.2638
 20
36.9035
  0
VERTEX
  8
LAYER_2
 10
154.2638
 20
36.9969
  0
VERTEX
  8
LAYER_2
 10
155.0606
 20
36.9969
  0
VERTEX
  8
LAYER_2
 10
155.0606
 20
36.9035
  0
VERTEX
  8
LAYER_2
 10
154.7151
 20
36.9035
  0
SEQEND
  0
ENDBLK
  0
BLOCK
  8
LAYER_2
  2
AIGNBL02030016
 70
64
 10
0
 20
0
 30
0
  3
AIGNBL02030016
  0
POLYLINE
  8
LAYER_2
 40
0.05
 41
0.05
 66
1
 10
0
 20
0
 30
0
 70
1
  0
VERTEX
  8
LAYER_2
 10
155.4169
 20
36.9969
  0
VERTEX
  8
LAYER_2
 10
155.5216
 20
36.9969
  0
VERTEX
  8
LAYER_2
 10
155.5216
 20
36.549
  0
VERTEX
  8
LAYER_2
 10
156.0852
 20
36.549
  0
VERTEX
  8
LAYER_2
 10
156.0852
 20
36.9969
  0
VERTEX
  8
LAYER_2
 10
156.1903
 20
36.9969
  0
VERTEX
  8
LAYER_2
 10
156.1903
 20
35.9637
  0
VERTEX
  8
LAYER_2
 10
156.0852
 20
35.9637
  0
VERTEX
  8
LAYER_2
 10
156.0852
 20
36.4529
  0
VERTEX
  8
LAYER_2
 10
155.5216
 20
36.4529
  0
VERTEX
  8
LAYER_2
 10
155.5216
 20
35.9637
  0
VERTEX
  8
LAYER_2
 10
155.4169
 20
35.9637
  0
SEQEND
  0
ENDBLK
  0
BLOCK
  8
LAYER_2
  2
AIGNBL02030017
 70
64
 10
0
 20
0
 30
0
  3
AIGNBL02030017
  0
POLYLINE
  8
LAYER_2
 40
0.05
 41
0.05
 66
1
 10
0
 20
0
 30
0
 70
1
  0
VERTEX
  8
LAYER_2
 10
156.7708
 20
35.9637
  0
VERTEX
  8
LAYER_2
 10
156.6657
 20
35.9637
  0
VERTEX
  8
LAYER_2
 10
156.6657
 20
36.9969
  0
VERTEX
  8
LAYER_2
 10
156.9696
 20
36.9969
  0
VERTEX
  8
LAYER_2
 10
157.1101
 20
36.9824
  0
VERTEX
  8
LAYER_2
 10
157.2228
 20
36.9349
  0
VERTEX
  8
LAYER_2
 10
157.2962
 20
36.8494
  0
VERTEX
  8
LAYER_2
 10
157.3223
 20
36.7213
  0
VERTEX
  8
LAYER_2
 10
157.3024
 20
36.6176
  0
VERTEX
  8
LAYER_2
 10
157.2469
 20
36.5366
  0
VERTEX
  8
LAYER_2
 10
157.1635
 20
36.4818
  0
VERTEX
  8
LAYER_2
 10
157.0585
 20
36.4557
  0
VERTEX
  8
LAYER_2
 10
157.3606
 20
35.9637
  0
VERTEX
  8
LAYER_2
 10
157.2321
 20
35.9637
  0
VERTEX
  8
LAYER_2
 10
156.9461
 20
36.4467
  0
VERTEX
  8
LAYER_2
 10
156.7708
 20
36.4467
  0
SEQEND
  0
POLYLINE
  8
LAYER_2
 40
0.05
 41
0.05
 66
1
 10
0
 20
0
 30
0
 70
1
  0
VERTEX
  8
LAYER_2
 10
156.7708
 20
36.5373
  0
VERTEX
  8
LAYER_2
 10
156.9534
 20
36.5373
 42
0.165389034
  0
VERTEX
  8
LAYER_2
 10
157.1491
 20
36.5831
 42
0.2500512188
  0
VERTEX
  8
LAYER_2
 10
157.2176
 20
36.7213
  0
VERTEX
  8
LAYER_2
 10
157.1983
 20
36.8071
  0
VERTEX
  8
LAYER_2
 10
157.146
 20
36.8643
  0
VERTEX
  8
LAYER_2
 10
157.0643
 20
36.8963
  0
VERTEX
  8
LAYER_2
 10
156.9578
 20
36.9066
  0
VERTEX
  8
LAYER_2
 10
156.7708
 20
36.9066
  0
SEQEND
  0
ENDBLK
  0
BLOCK
  8
LAYER_2
  2
AIGNBL02030018
 70
64
 10
0
 20
0
 30
0
  3
AIGNBL02030018
  0
POLYLINE
  8
LAYER_2
 40
0.05
 41
0.05
 66
1
 10
0
 20
0
 30
0
 70
1
  0
VERTEX
  8
LAYER_2
 10
158.7627
 20
36.4805
 42
-0.1007216321
  0
VERTEX
  8
LAYER_2
 10
158.7221
 20
36.2631
 42
-0.1006914115
  0
VERTEX
  8
LAYER_2
 10
158.6087
 20
36.0915
 42
-0.09598545762
  0
VERTEX
  8
LAYER_2
 10
158.4382
 20
35.9785
 42
-0.09506675375
  0
VERTEX
  8
LAYER_2
 10
158.2243
 20
35.9375
 42
-0.1012083438
  0
VERTEX
  8
LAYER_2
 10
158.0103
 20
35.9785
 42
-0.1000476754
  0
VERTEX
  8
LAYER_2
 10
157.8398
 20
36.0915
 42
-0.09637642458
  0
VERTEX
  8
LAYER_2
 10
157.7268
 20
36.2631
 42
-0.09293305267
  0
VERTEX
  8
LAYER_2
 10
157.6862
 20
36.4805
 42
-0.1024980643
  0
VERTEX
  8
LAYER_2
 10
157.7268
 20
36.6978
 42
-0.101511181
  0
VERTEX
  8
LAYER_2
 10
157.8398
 20
36.8694
 42
-0.09563682649
  0
VERTEX
  8
LAYER_2
 10
158.0103
 20
36.9824
 42
-0.09502028874
  0
VERTEX
  8
LAYER_2
 10
158.2243
 20
37.0234
 42
-0.101175466
  0
VERTEX
  8
LAYER_2
 10
158.4382
 20
36.9824
 42
-0.1020868526
  0
VERTEX
  8
LAYER_2
 10
158.6087
 20
36.8694
 42
-0.09463764759
  0
VERTEX
  8
LAYER_2
 10
158.7221
 20
36.6978
 42
-0.09279149058
  0
SEQEND
  0
POLYLINE
  8
LAYER_2
 40
0.05
 41
0.05
 66
1
 10
0
 20
0
 30
0
 70
1
  0
VERTEX
  8
LAYER_2
 10
158.6518
 20
36.4798
  0
VERTEX
  8
LAYER_2
 10
158.6225
 20
36.6517
  0
VERTEX
  8
LAYER_2
 10
158.5378
 20
36.795
  0
VERTEX
  8
LAYER_2
 10
158.4031
 20
36.8932
  0
VERTEX
  8
LAYER_2
 10
158.2243
 20
36.93
  0
VERTEX
  8
LAYER_2
 10
158.0455
 20
36.8932
  0
VERTEX
  8
LAYER_2
 10
157.9104
 20
36.795
  0
VERTEX
  8
LAYER_2
 10
157.8257
 20
36.6517
  0
VERTEX
  8
LAYER_2
 10
157.7968
 20
36.4798
  0
VERTEX
  8
LAYER_2
 10
157.8257
 20
36.3079
  0
VERTEX
  8
LAYER_2
 10
157.9104
 20
36.1649
  0
VERTEX
  8
LAYER_2
 10
158.0455
 20
36.0674
 42
0.1008280473
  0
VERTEX
  8
LAYER_2
 10
158.2243
 20
36.0309
  0
VERTEX
  8
LAYER_2
 10
158.4031
 20
36.0674
  0
VERTEX
  8
LAYER_2
 10
158.5378
 20
36.1649
  0
VERTEX
  8
LAYER_2
 10
158.6225
 20
36.3079
  0
SEQEND
  0
ENDBLK
  0
BLOCK
  8
LAYER_2
  2
AIGNBL02030019
 70
64
 10
0
 20
0
 30
0
  3
AIGNBL02030019
  0
POLYLINE
  8
LAYER_2
 40
0.05
 41
0.05
 66
1
 10
0
 20
0
 30
0
 70
1
  0
VERTEX
  8
LAYER_2
 10
160.2045
 20
36.4805
 42
-0.1041417444
  0
VERTEX
  8
LAYER_2
 10
160.1635
 20
36.2631
 42
-0.09974098701
  0
VERTEX
  8
LAYER_2
 10
160.0509
 20
36.0915
 42
-0.09536265516
  0
VERTEX
  8
LAYER_2
 10
159.88
 20
35.9785
 42
-0.09506675375
  0
VERTEX
  8
LAYER_2
 10
159.6661
 20
35.9375
 42
-0.1018653774
  0
VERTEX
  8
LAYER_2
 10
159.4524
 20
35.9785
 42
-0.1019766254
  0
VERTEX
  8
LAYER_2
 10
159.2816
 20
36.0915
 42
-0.09463339148
  0
VERTEX
  8
LAYER_2
 10
159.1682
 20
36.2631
 42
-0.09293305267
  0
VERTEX
  8
LAYER_2
 10
159.1276
 20
36.4805
 42
-0.1024980643
  0
VERTEX
  8
LAYER_2
 10
159.1682
 20
36.6978
 42
-0.1011981835
  0
VERTEX
  8
LAYER_2
 10
159.2816
 20
36.8694
 42
-0.09612009159
  0
VERTEX
  8
LAYER_2
 10
159.4524
 20
36.9824
 42
-0.09524800311
  0
VERTEX
  8
LAYER_2
 10
159.6661
 20
37.0234
 42
-0.101175466
  0
VERTEX
  8
LAYER_2
 10
159.88
 20
36.9824
 42
-0.09853409661
  0
VERTEX
  8
LAYER_2
 10
160.0509
 20
36.8694
 42
-0.09555545285
  0
VERTEX
  8
LAYER_2
 10
160.1635
 20
36.6978
 42
-0.09400765476
  0
SEQEND
  0
POLYLINE
  8
LAYER_2
 40
0.05
 41
0.05
 66
1
 10
0
 20
0
 30
0
 70
1
  0
VERTEX
  8
LAYER_2
 10
160.0936
 20
36.4798
  0
VERTEX
  8
LAYER_2
 10
160.0647
 20
36.6517
  0
VERTEX
  8
LAYER_2
 10
159.9799
 20
36.795
  0
VERTEX
  8
LAYER_2
 10
159.8448
 20
36.8932
  0
VERTEX
  8
LAYER_2
 10
159.6661
 20
36.93
  0
VERTEX
  8
LAYER_2
 10
159.4872
 20
36.8932
  0
VERTEX
  8
LAYER_2
 10
159.3525
 20
36.795
  0
VERTEX
  8
LAYER_2
 10
159.2678
 20
36.6517
  0
VERTEX
  8
LAYER_2
 10
159.2385
 20
36.4798
  0
VERTEX
  8
LAYER_2
 10
159.2678
 20
36.3079
  0
VERTEX
  8
LAYER_2
 10
159.3525
 20
36.1649
  0
VERTEX
  8
LAYER_2
 10
159.4872
 20
36.0674
  0
VERTEX
  8
LAYER_2
 10
159.6661
 20
36.0309
  0
VERTEX
  8
LAYER_2
 10
159.8448
 20
36.0674
  0
VERTEX
  8
LAYER_2
 10
159.9799
 20
36.1649
  0
VERTEX
  8
LAYER_2
 10
160.0647
 20
36.3079
  0
SEQEND
  0
ENDBLK
  0
BLOCK
  8
LAYER_2
  2
AIGNBL0203001A
 70
64
 10
0
 20
0
 30
0
  3
AIGNBL0203001A
  0
POLYLINE
  8
LAYER_2
 40
0.05
 41
0.05
 66
1
 10
0
 20
0
 30
0
 70
1
  0
VERTEX
  8
LAYER_2
 10
161.1354
 20
36.1418
  0
VERTEX
  8
LAYER_2
 10
161.1371
 20
36.1418
  0
VERTEX
  8
LAYER_2
 10
161.4826
 20
36.9969
  0
VERTEX
  8
LAYER_2
 10
161.6435
 20
36.9969
  0
VERTEX
  8
LAYER_2
 10
161.6435
 20
35.9637
  0
VERTEX
  8
LAYER_2
 10
161.5381
 20
35.9637
  0
VERTEX
  8
LAYER_2
 10
161.5381
 20
36.8611
  0
VERTEX
  8
LAYER_2
 10
161.5354
 20
36.8611
  0
VERTEX
  8
LAYER_2
 10
161.1619
 20
35.9637
  0
VERTEX
  8
LAYER_2
 10
161.1064
 20
35.9637
  0
VERTEX
  8
LAYER_2
 10
160.7326
 20
36.8611
  0
VERTEX
  8
LAYER_2
 10
160.7299
 20
36.8611
  0
VERTEX
  8
LAYER_2
 10
160.7299
 20
35.9637
  0
VERTEX
  8
LAYER_2
 10
160.6248
 20
35.9637
  0
VERTEX
  8
LAYER_2
 10
160.6248
 20
36.9969
  0
VERTEX
  8
LAYER_2
 10
160.7853
 20
36.9969
  0
SEQEND
  0
ENDBLK
  0
BLOCK
  8
LAYER_2
  2
AIGNBL0203001B
 70
64
 10
0
 20
0
 30
0
  3
AIGNBL0203001B
  0
POLYLINE
  8
LAYER_2
 40
0.05
 41
0.05
 66
1
 10
0
 20
0
 30
0
 70
1
  0
VERTEX
  8
LAYER_2
 10
162.79
 20
36.0574
  0
VERTEX
  8
LAYER_2
 10
163.3433
 20
36.0574
  0
VERTEX
  8
LAYER_2
 10
163.3433
 20
35.9637
  0
VERTEX
  8
LAYER_2
 10
162.685
 20
35.9637
  0
VERTEX
  8
LAYER_2
 10
162.685
 20
36.9969
  0
VERTEX
  8
LAYER_2
 10
163.3258
 20
36.9969
  0
VERTEX
  8
LAYER_2
 10
163.3258
 20
36.9035
  0
VERTEX
  8
LAYER_2
 10
162.79
 20
36.9035
  0
VERTEX
  8
LAYER_2
 10
162.79
 20
36.549
  0
VERTEX
  8
LAYER_2
 10
163.2906
 20
36.549
  0
VERTEX
  8
LAYER_2
 10
163.2906
 20
36.4557
  0
VERTEX
  8
LAYER_2
 10
162.79
 20
36.4557
  0
SEQEND
  0
ENDBLK
  0
BLOCK
  8
LAYER_2
  2
AIGNBL0203001C
 70
64
 10
0
 20
0
 30
0
  3
AIGNBL0203001C
  0
POLYLINE
  8
LAYER_2
 40
0.05
 41
0.05
 66
1
 10
0
 20
0
 30
0
 70
1
  0
VERTEX
  8
LAYER_2
 10
164.0885
 20
36.5797
  0
VERTEX
  8
LAYER_2
 10
164.3707
 20
36.9969
  0
VERTEX
  8
LAYER_2
 10
164.4957
 20
36.9969
  0
VERTEX
  8
LAYER_2
 10
164.1533
 20
36.5053
  0
VERTEX
  8
LAYER_2
 10
164.5326
 20
35.9637
  0
VERTEX
  8
LAYER_2
 10
164.4013
 20
35.9637
  0
VERTEX
  8
LAYER_2
 10
164.0858
 20
36.4295
  0
VERTEX
  8
LAYER_2
 10
163.7722
 20
35.9637
  0
VERTEX
  8
LAYER_2
 10
163.6407
 20
35.9637
  0
VERTEX
  8
LAYER_2
 10
164.0203
 20
36.5066
  0
VERTEX
  8
LAYER_2
 10
163.6744
 20
36.9969
  0
VERTEX
  8
LAYER_2
 10
163.806
 20
36.9969
  0
SEQEND
  0
ENDBLK
  0
BLOCK
  8
LAYER_2
  2
AIGNBL0203001D
 70
64
 10
0
 20
0
 30
0
  3
AIGNBL0203001D
  0
POLYLINE
  8
LAYER_2
 40
0.05
 41
0.05
 66
1
 10
0
 20
0
 30
0
 70
1
  0
VERTEX
  8
LAYER_2
 10
164.8988
 20
36.9969
  0
VERTEX
  8
LAYER_2
 10
165.1909
 20
36.9969
  0
VERTEX
  8
LAYER_2
 10
165.3339
 20
36.9804
  0
VERTEX
  8
LAYER_2
 10
165.4438
 20
36.929
  0
VERTEX
  8
LAYER_2
 10
165.5148
 20
36.8429
  0
VERTEX
  8
LAYER_2
 10
165.5392
 20
36.7213
  0
VERTEX
  8
LAYER_2
 10
165.5141
 20
36.5993
  0
VERTEX
  8
LAYER_2
 10
165.4424
 20
36.5132
  0
VERTEX
  8
LAYER_2
 10
165.3315
 20
36.4615
  0
VERTEX
  8
LAYER_2
 10
165.1878
 20
36.444
  0
VERTEX
  8
LAYER_2
 10
165.0039
 20
36.444
  0
VERTEX
  8
LAYER_2
 10
165.0039
 20
35.9637
  0
VERTEX
  8
LAYER_2
 10
164.8988
 20
35.9637
  0
SEQEND
  0
POLYLINE
  8
LAYER_2
 40
0.05
 41
0.05
 66
1
 10
0
 20
0
 30
0
 70
1
  0
VERTEX
  8
LAYER_2
 10
165.0039
 20
36.5328
  0
VERTEX
  8
LAYER_2
 10
165.1816
 20
36.5328
 42
0.1829732243
  0
VERTEX
  8
LAYER_2
 10
165.3701
 20
36.581
 42
0.2345943979
  0
VERTEX
  8
LAYER_2
 10
165.4345
 20
36.7213
 42
0.26486771
  0
VERTEX
  8
LAYER_2
 10
165.368
 20
36.8622
 42
0.126412566
  0
VERTEX
  8
LAYER_2
 10
165.1816
 20
36.9066
  0
VERTEX
  8
LAYER_2
 10
165.0039
 20
36.9066
  0
SEQEND
  0
ENDBLK
  0
BLOCK
  8
LAYER_2
  2
AIGNBL0203001E
 70
64
 10
0
 20
0
 30
0
  3
AIGNBL0203001E
  0
POLYLINE
  8
LAYER_2
 40
0.05
 41
0.05
 66
1
 10
0
 20
0
 30
0
 70
1
  0
VERTEX
  8
LAYER_2
 10
166.0515
 20
36.0574
  0
VERTEX
  8
LAYER_2
 10
166.6048
 20
36.0574
  0
VERTEX
  8
LAYER_2
 10
166.6048
 20
35.9637
  0
VERTEX
  8
LAYER_2
 10
165.9465
 20
35.9637
  0
VERTEX
  8
LAYER_2
 10
165.9465
 20
36.9969
  0
VERTEX
  8
LAYER_2
 10
166.5872
 20
36.9969
  0
VERTEX
  8
LAYER_2
 10
166.5872
 20
36.9035
  0
VERTEX
  8
LAYER_2
 10
166.0515
 20
36.9035
  0
VERTEX
  8
LAYER_2
 10
166.0515
 20
36.549
  0
VERTEX
  8
LAYER_2
 10
166.5521
 20
36.549
  0
VERTEX
  8
LAYER_2
 10
166.5521
 20
36.4557
  0
VERTEX
  8
LAYER_2
 10
166.0515
 20
36.4557
  0
SEQEND
  0
ENDBLK
  0
BLOCK
  8
LAYER_2
  2
AIGNBL0203001F
 70
64
 10
0
 20
0
 30
0
  3
AIGNBL0203001F
  0
POLYLINE
  8
LAYER_2
 40
0.05
 41
0.05
 66
1
 10
0
 20
0
 30
0
 70
1
  0
VERTEX
  8
LAYER_2
 10
167.1168
 20
35.9637
  0
VERTEX
  8
LAYER_2
 10
167.0117
 20
35.9637
  0
VERTEX
  8
LAYER_2
 10
167.0117
 20
36.9969
  0
VERTEX
  8
LAYER_2
 10
167.3155
 20
36.9969
  0
VERTEX
  8
LAYER_2
 10
167.4561
 20
36.9824
  0
VERTEX
  8
LAYER_2
 10
167.5687
 20
36.9349
  0
VERTEX
  8
LAYER_2
 10
167.6425
 20
36.8494
  0
VERTEX
  8
LAYER_2
 10
167.6683
 20
36.7213
  0
VERTEX
  8
LAYER_2
 10
167.6483
 20
36.6176
  0
VERTEX
  8
LAYER_2
 10
167.5929
 20
36.5366
  0
VERTEX
  8
LAYER_2
 10
167.5095
 20
36.4818
  0
VERTEX
  8
LAYER_2
 10
167.4044
 20
36.4557
  0
VERTEX
  8
LAYER_2
 10
167.7066
 20
35.9637
  0
VERTEX
  8
LAYER_2
 10
167.578
 20
35.9637
  0
VERTEX
  8
LAYER_2
 10
167.2921
 20
36.4467
  0
VERTEX
  8
LAYER_2
 10
167.1168
 20
36.4467
  0
SEQEND
  0
POLYLINE
  8
LAYER_2
 40
0.05
 41
0.05
 66
1
 10
0
 20
0
 30
0
 70
1
  0
VERTEX
  8
LAYER_2
 10
167.1168
 20
36.5373
  0
VERTEX
  8
LAYER_2
 10
167.2994
 20
36.5373
 42
0.1667243505
  0
VERTEX
  8
LAYER_2
 10
167.495
 20
36.5831
 42
0.2503949893
  0
VERTEX
  8
LAYER_2
 10
167.5636
 20
36.7213
  0
VERTEX
  8
LAYER_2
 10
167.5446
 20
36.8071
  0
VERTEX
  8
LAYER_2
 10
167.4919
 20
36.8643
  0
VERTEX
  8
LAYER_2
 10
167.4103
 20
36.8963
  0
VERTEX
  8
LAYER_2
 10
167.3038
 20
36.9066
  0
VERTEX
  8
LAYER_2
 10
167.1168
 20
36.9066
  0
SEQEND
  0
ENDBLK
  0
BLOCK
  8
LAYER_2
  2
AIGNBL02030020
 70
64
 10
0
 20
0
 30
0
  3
AIGNBL02030020
  0
POLYLINE
  8
LAYER_2
 40
0.05
 41
0.05
 66
1
 10
0
 20
0
 30
0
 70
1
  0
VERTEX
  8
LAYER_2
 10
168.1923
 20
35.9637
  0
VERTEX
  8
LAYER_2
 10
168.0876
 20
35.9637
  0
VERTEX
  8
LAYER_2
 10
168.0876
 20
36.9969
  0
VERTEX
  8
LAYER_2
 10
168.1923
 20
36.9969
  0
SEQEND
  0
ENDBLK
  0
BLOCK
  8
LAYER_2
  2
AIGNBL02030021
 70
64
 10
0
 20
0
 30
0
  3
AIGNBL02030021
  0
POLYLINE
  8
LAYER_2
 40
0.05
 41
0.05
 66
1
 10
0
 20
0
 30
0
 70
1
  0
VERTEX
  8
LAYER_2
 10
168.7732
 20
36.0574
  0
VERTEX
  8
LAYER_2
 10
169.3261
 20
36.0574
  0
VERTEX
  8
LAYER_2
 10
169.3261
 20
35.9637
  0
VERTEX
  8
LAYER_2
 10
168.6681
 20
35.9637
  0
VERTEX
  8
LAYER_2
 10
168.6681
 20
36.9969
  0
VERTEX
  8
LAYER_2
 10
169.3089
 20
36.9969
  0
VERTEX
  8
LAYER_2
 10
169.3089
 20
36.9035
  0
VERTEX
  8
LAYER_2
 10
168.7732
 20
36.9035
  0
VERTEX
  8
LAYER_2
 10
168.7732
 20
36.549
  0
VERTEX
  8
LAYER_2
 10
169.2737
 20
36.549
  0
VERTEX
  8
LAYER_2
 10
169.2737
 20
36.4557
  0
VERTEX
  8
LAYER_2
 10
168.7732
 20
36.4557
  0
SEQEND
  0
ENDBLK
  0
BLOCK
  8
LAYER_2
  2
AIGNBL02030022
 70
64
 10
0
 20
0
 30
0
  3
AIGNBL02030022
  0
POLYLINE
  8
LAYER_2
 40
0.05
 41
0.05
 66
1
 10
0
 20
0
 30
0
 70
1
  0
VERTEX
  8
LAYER_2
 10
170.4661
 20
36.117
  0
VERTEX
  8
LAYER_2
 10
170.4689
 20
36.117
  0
VERTEX
  8
LAYER_2
 10
170.4689
 20
36.9969
  0
VERTEX
  8
LAYER_2
 10
170.5739
 20
36.9969
  0
VERTEX
  8
LAYER_2
 10
170.5739
 20
35.9637
  0
VERTEX
  8
LAYER_2
 10
170.4426
 20
35.9637
  0
VERTEX
  8
LAYER_2
 10
169.8415
 20
36.8525
  0
VERTEX
  8
LAYER_2
 10
169.8384
 20
36.8525
  0
VERTEX
  8
LAYER_2
 10
169.8384
 20
35.9637
  0
VERTEX
  8
LAYER_2
 10
169.7333
 20
35.9637
  0
VERTEX
  8
LAYER_2
 10
169.7333
 20
36.9969
  0
VERTEX
  8
LAYER_2
 10
169.8649
 20
36.9969
  0
SEQEND
  0
ENDBLK
  0
BLOCK
  8
LAYER_2
  2
AIGNBL02030023
 70
64
 10
0
 20
0
 30
0
  3
AIGNBL02030023
  0
POLYLINE
  8
LAYER_2
 40
0.05
 41
0.05
 66
1
 10
0
 20
0
 30
0
 70
1
  0
VERTEX
  8
LAYER_2
 10
171.9196
 20
36.1315
  0
VERTEX
  8
LAYER_2
 10
171.8558
 20
36.0571
  0
VERTEX
  8
LAYER_2
 10
171.7697
 20
35.9954
  0
VERTEX
  8
LAYER_2
 10
171.6615
 20
35.953
  0
VERTEX
  8
LAYER_2
 10
171.5327
 20
35.9375
 42
-0.1011939289
  0
VERTEX
  8
LAYER_2
 10
171.3167
 20
35.9785
 42
-0.1032846426
  0
VERTEX
  8
LAYER_2
 10
171.1461
 20
36.0915
 42
-0.0974858305
  0
VERTEX
  8
LAYER_2
 10
171.0345
 20
36.2631
 42
-0.09232404316
  0
VERTEX
  8
LAYER_2
 10
170.9942
 20
36.4805
 42
-0.1041003847
  0
VERTEX
  8
LAYER_2
 10
171.0352
 20
36.6978
 42
-0.1005616574
  0
VERTEX
  8
LAYER_2
 10
171.1479
 20
36.8694
 42
-0.09522588778
  0
VERTEX
  8
LAYER_2
 10
171.3187
 20
36.9824
 42
-0.09501991035
  0
VERTEX
  8
LAYER_2
 10
171.5327
 20
37.0234
  0
VERTEX
  8
LAYER_2
 10
171.6443
 20
37.0114
  0
VERTEX
  8
LAYER_2
 10
171.7473
 20
36.9779
  0
VERTEX
  8
LAYER_2
 10
171.8348
 20
36.9263
  0
VERTEX
  8
LAYER_2
 10
171.9006
 20
36.8584
  0
VERTEX
  8
LAYER_2
 10
171.8131
 20
36.794
  0
VERTEX
  8
LAYER_2
 10
171.7697
 20
36.8439
  0
VERTEX
  8
LAYER_2
 10
171.7063
 20
36.8877
  0
VERTEX
  8
LAYER_2
 10
171.6267
 20
36.9183
  0
VERTEX
  8
LAYER_2
 10
171.5341
 20
36.93
  0
VERTEX
  8
LAYER_2
 10
171.3539
 20
36.8935
  0
VERTEX
  8
LAYER_2
 10
171.2188
 20
36.7954
  0
VERTEX
  8
LAYER_2
 10
171.1341
 20
36.652
  0
VERTEX
  8
LAYER_2
 10
171.1052
 20
36.4805
  0
VERTEX
  8
LAYER_2
 10
171.1351
 20
36.3089
  0
VERTEX
  8
LAYER_2
 10
171.2205
 20
36.1656
  0
VERTEX
  8
LAYER_2
 10
171.3556
 20
36.0674
 42
0.100995487
  0
VERTEX
  8
LAYER_2
 10
171.5341
 20
36.0309
  0
VERTEX
  8
LAYER_2
 10
171.7032
 20
36.0674
 42
0.1321059012
  0
VERTEX
  8
LAYER_2
 10
171.8376
 20
36.1842
  0
SEQEND
  0
ENDBLK
  0
BLOCK
  8
LAYER_2
  2
AIGNBL02030024
 70
64
 10
0
 20
0
 30
0
  3
AIGNBL02030024
  0
POLYLINE
  8
LAYER_2
 40
0.05
 41
0.05
 66
1
 10
0
 20
0
 30
0
 70
1
  0
VERTEX
  8
LAYER_2
 10
172.4067
 20
36.0574
  0
VERTEX
  8
LAYER_2
 10
172.96
 20
36.0574
  0
VERTEX
  8
LAYER_2
 10
172.96
 20
35.9637
  0
VERTEX
  8
LAYER_2
 10
172.3016
 20
35.9637
  0
VERTEX
  8
LAYER_2
 10
172.3016
 20
36.9969
  0
VERTEX
  8
LAYER_2
 10
172.9424
 20
36.9969
  0
VERTEX
  8
LAYER_2
 10
172.9424
 20
36.9035
  0
VERTEX
  8
LAYER_2
 10
172.4067
 20
36.9035
  0
VERTEX
  8
LAYER_2
 10
172.4067
 20
36.549
  0
VERTEX
  8
LAYER_2
 10
172.9073
 20
36.549
  0
VERTEX
  8
LAYER_2
 10
172.9073
 20
36.4557
  0
VERTEX
  8
LAYER_2
 10
172.4067
 20
36.4557
  0
SEQEND
  0
ENDBLK
  0
BLOCK
  8
LAYER_2
  2
AIGNBL02020004
 70
64
 10
0
 20
0
 30
0
  3
AIGNBL02020004
  0
INSERT
  8
LAYER_2
  2
AIGNBL02030005
 10
0
 20
0
 30
0
  0
ENDBLK
  0
BLOCK
  8
LAYER_2
  2
AIGNBL0202000D
 70
64
 10
0
 20
0
 30
0
  3
AIGNBL0202000D
  0
INSERT
  8
LAYER_2
  2
AIGNBL0203000E
 10
0
 20
0
 30
0
  0
INSERT
  8
LAYER_2
  2
AIGNBL0203000F
 10
0
 20
0
 30
0
  0
INSERT
  8
LAYER_2
  2
AIGNBL02030010
 10
0
 20
0
 30
0
  0
INSERT
  8
LAYER_2
  2
AIGNBL02030011
 10
0
 20
0
 30
0
  0
INSERT
  8
LAYER_2
  2
AIGNBL02030012
 10
0
 20
0
 30
0
  0
INSERT
  8
LAYER_2
  2
AIGNBL02030013
 10
0
 20
0
 30
0
  0
INSERT
  8
LAYER_2
  2
AIGNBL02030014
 10
0
 20
0
 30
0
  0
INSERT
  8
LAYER_2
  2
AIGNBL02030015
 10
0
 20
0
 30
0
  0
INSERT
  8
LAYER_2
  2
AIGNBL02030016
 10
0
 20
0
 30
0
  0
INSERT
  8
LAYER_2
  2
AIGNBL02030017
 10
0
 20
0
 30
0
  0
INSERT
  8
LAYER_2
  2
AIGNBL02030018
 10
0
 20
0
 30
0
  0
INSERT
  8
LAYER_2
  2
AIGNBL02030019
 10
0
 20
0
 30
0
  0
INSERT
  8
LAYER_2
  2
AIGNBL0203001A
 10
0
 20
0
 30
0
  0
INSERT
  8
LAYER_2
  2
AIGNBL0203001B
 10
0
 20
0
 30
0
  0
INSERT
  8
LAYER_2
  2
AIGNBL0203001C
 10
0
 20
0
 30
0
  0
INSERT
  8
LAYER_2
  2
AIGNBL0203001D
 10
0
 20
0
 30
0
  0
INSERT
  8
LAYER_2
  2
AIGNBL0203001E
 10
0
 20
0
 30
0
  0
INSERT
  8
LAYER_2
  2
AIGNBL0203001F
 10
0
 20
0
 30
0
  0
INSERT
  8
LAYER_2
  2
AIGNBL02030020
 10
0
 20
0
 30
0
  0
INSERT
  8
LAYER_2
  2
AIGNBL02030021
 10
0
 20
0
 30
0
  0
INSERT
  8
LAYER_2
  2
AIGNBL02030022
 10
0
 20
0
 30
0
  0
INSERT
  8
LAYER_2
  2
AIGNBL02030023
 10
0
 20
0
 30
0
  0
INSERT
  8
LAYER_2
  2
AIGNBL02030024
 10
0
 20
0
 30
0
  0
ENDBLK
  0
BLOCK
  8
LAYER_1
  2
AIGNBL01010002
 70
64
 10
0
 20
0
 30
0
  3
AIGNBL01010002
  0
POLYLINE
  8
LAYER_1
 40
0.1482
 41
0.1482
 66
1
 10
0
 20
0
 30
0
  0
VERTEX
  8
LAYER_1
 10
121.9117
 20
86.1402
  0
VERTEX
  8
LAYER_1
 10
121.9618
 20
86.1402
  0
SEQEND
  0
POLYLINE
  8
LAYER_1
 40
0.1482
 41
0.1482
 66
1
 10
0
 20
0
 30
0
  0
VERTEX
  8
LAYER_1
 10
180.5971
 20
86.1402
  0
VERTEX
  8
LAYER_1
 10
180.6472
 20
86.1402
  0
SEQEND
  0
POLYLINE
  8
LAYER_1
 40
0.05
 41
0.05
 66
1
 10
0
 20
0
 30
0
 70
1
  0
VERTEX
  8
LAYER_1
 10
106.7505
 20
85.9061
  0
VERTEX
  8
LAYER_1
 10
182.4424
 20
85.9061
  0
VERTEX
  8
LAYER_1
 10
182.4424
 20
160.445
  0
VERTEX
  8
LAYER_1
 10
106.7505
 20
160.445
  0
SEQEND
  0
ENDBLK
  0
BLOCK
  8
LAYER_1
  2
AIGNBL01010003
 70
64
 10
0
 20
0
 30
0
  3
AIGNBL01010003
  0
POLYLINE
  8
LAYER_1
 40
0.1482
 41
0.1482
 66
1
 10
0
 20
0
 30
0
  0
VERTEX
  8
LAYER_1
 10
121.9616
 20
86.0402
  0
VERTEX
  8
LAYER_1
 10
180.5969
 20
86.0402
  0
SEQEND
  0
POLYLINE
  8
LAYER_1
 40
0.05
 41
0.05
 66
1
 10
0
 20
0
 30
0
 70
1
  0
VERTEX
  8
LAYER_1
 10
106.7505
 20
85.9061
  0
VERTEX
  8
LAYER_1
 10
182.4424
 20
85.9061
  0
VERTEX
  8
LAYER_1
 10
182.4424
 20
160.445
  0
VERTEX
  8
LAYER_1
 10
106.7505
 20
160.445
  0
SEQEND
  0
ENDBLK
  0
BLOCK
  8
LAYER_1
  2
AIGNBL01010004
 70
64
 10
0
 20
0
 30
0
  3
AIGNBL01010004
  0
POLYLINE
  8
LAYER_1
 40
0.1482
 41
0.1482
 66
1
 10
0
 20
0
 30
0
  0
VERTEX
  8
LAYER_1
 10
180.5971
 20
86.0402
  0
VERTEX
  8
LAYER_1
 10
180.5971
 20
86.432
  0
SEQEND
  0
POLYLINE
  8
LAYER_1
 40
0.1482
 41
0.1482
 66
1
 10
0
 20
0
 30
0
  0
VERTEX
  8
LAYER_1
 10
121.9616
 20
86.0402
  0
VERTEX
  8
LAYER_1
 10
121.9616
 20
86.432
  0
SEQEND
  0
POLYLINE
  8
LAYER_1
 40
0.05
 41
0.05
 66
1
 10
0
 20
0
 30
0
 70
1
  0
VERTEX
  8
LAYER_1
 10
106.7505
 20
85.9061
  0
VERTEX
  8
LAYER_1
 10
182.4424
 20
85.9061
  0
VERTEX
  8
LAYER_1
 10
182.4424
 20
160.445
  0
VERTEX
  8
LAYER_1
 10
106.7505
 20
160.445
  0
SEQEND
  0
ENDBLK
  0
BLOCK
  8
LAYER_1
  2
AIGNBL01010005
 70
64
 10
0
 20
0
 30
0
  3
AIGNBL01010005
  0
POLYLINE
  8
LAYER_1
 40
0.1482
 41
0.1482
 66
1
 10
0
 20
0
 30
0
  0
VERTEX
  8
LAYER_1
 10
180.5971
 20
86.0402
  0
VERTEX
  8
LAYER_1
 10
180.5971
 20
149.7053
  0
SEQEND
  0
POLYLINE
  8
LAYER_1
 40
0.05
 41
0.05
 66
1
 10
0
 20
0
 30
0
 70
1
  0
VERTEX
  8
LAYER_1
 10
106.7505
 20
85.9061
  0
VERTEX
  8
LAYER_1
 10
182.4424
 20
85.9061
  0
VERTEX
  8
LAYER_1
 10
182.4424
 20
160.445
  0
VERTEX
  8
LAYER_1
 10
106.7505
 20
160.445
  0
SEQEND
  0
ENDBLK
  0
BLOCK
  8
LAYER_1
  2
AIGNBL01010006
 70
64
 10
0
 20
0
 30
0
  3
AIGNBL01010006
  0
POLYLINE
  8
LAYER_1
 40
0.1482
 41
0.1482
 66
1
 10
0
 20
0
 30
0
  0
VERTEX
  8
LAYER_1
 10
121.9616
 20
86.0402
  0
VERTEX
  8
LAYER_1
 10
121.9616
 20
149.7053
  0
SEQEND
  0
POLYLINE
  8
LAYER_1
 40
0.05
 41
0.05
 66
1
 10
0
 20
0
 30
0
 70
1
  0
VERTEX
  8
LAYER_1
 10
106.7505
 20
85.9061
  0
VERTEX
  8
LAYER_1
 10
182.4424
 20
85.9061
  0
VERTEX
  8
LAYER_1
 10
182.4424
 20
160.445
  0
VERTEX
  8
LAYER_1
 10
106.7505
 20
160.445
  0
SEQEND
  0
ENDBLK
  0
BLOCK
  8
LAYER_1
  2
AIGNBL01010007
 70
64
 10
0
 20
0
 30
0
  3
AIGNBL01010007
  0
POLYLINE
  8
LAYER_1
 40
0.1482
 41
0.1482
 66
1
 10
0
 20
0
 30
0
  0
VERTEX
  8
LAYER_1
 10
121.9117
 20
86.1402
  0
VERTEX
  8
LAYER_1
 10
121.9117
 20
150.006
  0
SEQEND
  0
POLYLINE
  8
LAYER_1
 40
0.1482
 41
0.1482
 66
1
 10
0
 20
0
 30
0
  0
VERTEX
  8
LAYER_1
 10
180.6471
 20
86.1402
  0
VERTEX
  8
LAYER_1
 10
180.6471
 20
150.006
  0
SEQEND
  0
POLYLINE
  8
LAYER_1
 40
0.05
 41
0.05
 66
1
 10
0
 20
0
 30
0
 70
1
  0
VERTEX
  8
LAYER_1
 10
106.7505
 20
85.9061
  0
VERTEX
  8
LAYER_1
 10
182.4424
 20
85.9061
  0
VERTEX
  8
LAYER_1
 10
182.4424
 20
160.445
  0
VERTEX
  8
LAYER_1
 10
106.7505
 20
160.445
  0
SEQEND
  0
ENDBLK
  0
BLOCK
  8
LAYER_1
  2
AIGNBL01010008
 70
64
 10
0
 20
0
 30
0
  3
AIGNBL01010008
  0
POLYLINE
  8
LAYER_1
 40
0.1482
 41
0.1482
 66
1
 10
0
 20
0
 30
0
  0
VERTEX
  8
LAYER_1
 10
127.7525
 20
141.2377
 42
0.392758673
  0
VERTEX
  8
LAYER_1
 10
128.1214
 20
140.8681
 42
0.3931128545
  0
VERTEX
  8
LAYER_1
 10
128.4916
 20
141.2377
 42
0.3935992368
  0
VERTEX
  8
LAYER_1
 10
128.1214
 20
141.6072
 42
0.3930646651
  0
VERTEX
  8
LAYER_1
 10
127.7525
 20
141.2377
  0
SEQEND
  0
POLYLINE
  8
LAYER_1
 40
0.1482
 41
0.1482
 66
1
 10
0
 20
0
 30
0
  0
VERTEX
  8
LAYER_1
 10
174.0749
 20
141.2377
 42
0.3931395008
  0
VERTEX
  8
LAYER_1
 10
174.4438
 20
140.8681
 42
0.3931128545
  0
VERTEX
  8
LAYER_1
 10
174.814
 20
141.2377
 42
0.3935992368
  0
VERTEX
  8
LAYER_1
 10
174.4438
 20
141.6072
 42
0.3935296771
  0
VERTEX
  8
LAYER_1
 10
174.0749
 20
141.2377
  0
SEQEND
  0
POLYLINE
  8
LAYER_1
 40
0.1482
 41
0.1482
 66
1
 10
0
 20
0
 30
0
  0
VERTEX
  8
LAYER_1
 10
127.7525
 20
94.9153
 42
0.392758673
  0
VERTEX
  8
LAYER_1
 10
128.1214
 20
94.5457
 42
0.3931128545
  0
VERTEX
  8
LAYER_1
 10
128.4916
 20
94.9153
 42
0.3935992368
  0
VERTEX
  8
LAYER_1
 10
128.1214
 20
95.2848
 42
0.3930646651
  0
VERTEX
  8
LAYER_1
 10
127.7525
 20
94.9153
  0
SEQEND
  0
POLYLINE
  8
LAYER_1
 40
0.1482
 41
0.1482
 66
1
 10
0
 20
0
 30
0
  0
VERTEX
  8
LAYER_1
 10
174.0749
 20
94.9153
 42
0.3931395008
  0
VERTEX
  8
LAYER_1
 10
174.4438
 20
94.5457
 42
0.3931128545
  0
VERTEX
  8
LAYER_1
 10
174.814
 20
94.9153
 42
0.3935992368
  0
VERTEX
  8
LAYER_1
 10
174.4438
 20
95.2848
 42
0.3935296771
  0
VERTEX
  8
LAYER_1
 10
174.0749
 20
94.9153
  0
SEQEND
  0
POLYLINE
  8
LAYER_1
 40
0.05
 41
0.05
 66
1
 10
0
 20
0
 30
0
 70
1
  0
VERTEX
  8
LAYER_1
 10
106.7505
 20
85.9061
  0
VERTEX
  8
LAYER_1
 10
182.4424
 20
85.9061
  0
VERTEX
  8
LAYER_1
 10
182.4424
 20
160.445
  0
VERTEX
  8
LAYER_1
 10
106.7505
 20
160.445
  0
SEQEND
  0
ENDBLK
  0
BLOCK
  8
LAYER_1
  2
AIGNBL01010009
 70
64
 10
0
 20
0
 30
0
  3
AIGNBL01010009
  0
POLYLINE
  8
LAYER_1
 40
0.0882
 41
0.0882
 66
1
 10
0
 20
0
 30
0
  0
VERTEX
  8
LAYER_1
 10
181.5623
 20
141.2302
  0
VERTEX
  8
LAYER_1
 10
182.3625
 20
141.2302
  0
SEQEND
  0
POLYLINE
  8
LAYER_1
 40
0.05
 41
0.05
 66
1
 10
0
 20
0
 30
0
 70
1
  0
VERTEX
  8
LAYER_1
 10
106.7505
 20
85.9061
  0
VERTEX
  8
LAYER_1
 10
182.4424
 20
85.9061
  0
VERTEX
  8
LAYER_1
 10
182.4424
 20
160.445
  0
VERTEX
  8
LAYER_1
 10
106.7505
 20
160.445
  0
SEQEND
  0
ENDBLK
  0
BLOCK
  8
LAYER_1
  2
AIGNBL0101000A
 70
64
 10
0
 20
0
 30
0
  3
AIGNBL0101000A
  0
POLYLINE
  8
LAYER_1
 40
0.0882
 41
0.0882
 66
1
 10
0
 20
0
 30
0
  0
VERTEX
  8
LAYER_1
 10
181.5623
 20
94.9075
  0
VERTEX
  8
LAYER_1
 10
182.3625
 20
94.9075
  0
SEQEND
  0
POLYLINE
  8
LAYER_1
 40
0.05
 41
0.05
 66
1
 10
0
 20
0
 30
0
 70
1
  0
VERTEX
  8
LAYER_1
 10
106.7505
 20
85.9061
  0
VERTEX
  8
LAYER_1
 10
182.4424
 20
85.9061
  0
VERTEX
  8
LAYER_1
 10
182.4424
 20
160.445
  0
VERTEX
  8
LAYER_1
 10
106.7505
 20
160.445
  0
SEQEND
  0
ENDBLK
  0
BLOCK
  8
LAYER_1
  2
AIGNBL0101000B
 70
64
 10
0
 20
0
 30
0
  3
AIGNBL0101000B
  0
POLYLINE
  8
LAYER_1
 40
0.1482
 41
0.1482
 66
1
 10
0
 20
0
 30
0
  0
VERTEX
  8
LAYER_1
 10
151.0379
 20
195.3708
 42
0.4141550286
  0
VERTEX
  8
LAYER_1
 10
151.2842
 20
195.1244
 42
0.4142295484
  0
VERTEX
  8
LAYER_1
 10
151.5306
 20
195.3708
 42
0.4142721007
  0
VERTEX
  8
LAYER_1
 10
151.2842
 20
195.6172
 42
0.4141975745
  0
VERTEX
  8
LAYER_1
 10
151.0379
 20
195.3708
  0
SEQEND
  0
POLYLINE
  8
LAYER_1
 40
0.1482
 41
0.1482
 66
1
 10
0
 20
0
 30
0
  0
VERTEX
  8
LAYER_1
 10
123.3284
 20
196.1103
 42
0.2630976097
  0
VERTEX
  8
LAYER_1
 10
123.1557
 20
196.355
 42
0.1288583219
  0
VERTEX
  8
LAYER_1
 10
122.703
 20
196.4652
 42
0.1480897342
  0
VERTEX
  8
LAYER_1
 10
122.215
 20
196.3325
 42
0.2486202599
  0
VERTEX
  8
LAYER_1
 10
122.0768
 20
196.1103
  0
SEQEND
  0
POLYLINE
  8
LAYER_1
 40
0.05
 41
0.05
 66
1
 10
0
 20
0
 30
0
 70
1
  0
VERTEX
  8
LAYER_1
 10
110.5681
 20
138.7032
  0
VERTEX
  8
LAYER_1
 10
204.6027
 20
138.7032
  0
VERTEX
  8
LAYER_1
 10
204.6027
 20
219.2536
  0
VERTEX
  8
LAYER_1
 10
110.5681
 20
219.2536
  0
SEQEND
  0
ENDBLK
  0
BLOCK
  8
LAYER_1
  2
AIGNBL0101000C
 70
64
 10
0
 20
0
 30
0
  3
AIGNBL0101000C
  0
POLYLINE
  8
LAYER_1
 40
0.1482
 41
0.1482
 66
1
 10
0
 20
0
 30
0
  0
VERTEX
  8
LAYER_1
 10
124.6244
 20
195.3708
 42
0.4141367854
  0
VERTEX
  8
LAYER_1
 10
124.8707
 20
195.1244
 42
0.4142477929
  0
VERTEX
  8
LAYER_1
 10
125.1171
 20
195.3708
 42
0.4142903511
  0
VERTEX
  8
LAYER_1
 10
124.8707
 20
195.6172
 42
0.4141793254
  0
VERTEX
  8
LAYER_1
 10
124.6244
 20
195.3708
  0
SEQEND
  0
POLYLINE
  8
LAYER_1
 40
0.05
 41
0.05
 66
1
 10
0
 20
0
 30
0
 70
1
  0
VERTEX
  8
LAYER_1
 10
110.5681
 20
138.7032
  0
VERTEX
  8
LAYER_1
 10
204.6027
 20
138.7032
  0
VERTEX
  8
LAYER_1
 10
204.6027
 20
219.2536
  0
VERTEX
  8
LAYER_1
 10
110.5681
 20
219.2536
  0
SEQEND
  0
ENDBLK
  0
BLOCK
  8
LAYER_1
  2
AIGNBL0101000D
 70
64
 10
0
 20
0
 30
0
  3
AIGNBL0101000D
  0
POLYLINE
  8
LAYER_1
 40
0.1482
 41
0.1482
 66
1
 10
0
 20
0
 30
0
  0
VERTEX
  8
LAYER_1
 10
177.4515
 20
195.3708
 42
0.414249761
  0
VERTEX
  8
LAYER_1
 10
177.6979
 20
195.1244
 42
0.4141348174
  0
VERTEX
  8
LAYER_1
 10
177.9442
 20
195.3708
 42
0.4141773566
  0
VERTEX
  8
LAYER_1
 10
177.6979
 20
195.6172
 42
0.41429232
  0
VERTEX
  8
LAYER_1
 10
177.4515
 20
195.3708
  0
SEQEND
  0
POLYLINE
  8
LAYER_1
 40
0.05
 41
0.05
 66
1
 10
0
 20
0
 30
0
 70
1
  0
VERTEX
  8
LAYER_1
 10
110.5681
 20
138.7032
  0
VERTEX
  8
LAYER_1
 10
204.6027
 20
138.7032
  0
VERTEX
  8
LAYER_1
 10
204.6027
 20
219.2536
  0
VERTEX
  8
LAYER_1
 10
110.5681
 20
219.2536
  0
SEQEND
  0
ENDBLK
  0
BLOCK
  8
LAYER_1
  2
AIGNBL0101000E
 70
64
 10
0
 20
0
 30
0
  3
AIGNBL0101000E
  0
POLYLINE
  8
LAYER_1
 40
0.0882
 41
0.0882
 66
1
 10
0
 20
0
 30
0
  0
VERTEX
  8
LAYER_1
 10
193.0775
 20
141.8399
 42
0.2712475627
  0
VERTEX
  8
LAYER_1
 10
193.2083
 20
141.6221
  0
SEQEND
  0
POLYLINE
  8
LAYER_1
  6
AIGENLINE001
 40
0.0882
 41
0.0882
 66
1
 10
0
 20
0
 30
0
 70
128
  0
VERTEX
  8
LAYER_1
 10
193.514
 20
141.6826
 42
0.1710261587
  0
VERTEX
  8
LAYER_1
 10
193.5699
 20
141.8401
 42
0.3396485488
  0
VERTEX
  8
LAYER_1
 10
193.3755
 20
142.0807
  0
SEQEND
  0
POLYLINE
  8
LAYER_1
 40
0.0882
 41
0.0882
 66
1
 10
0
 20
0
 30
0
  0
VERTEX
  8
LAYER_1
 10
193.2081
 20
142.0577
 42
0.2718405527
  0
VERTEX
  8
LAYER_1
 10
193.0773
 20
141.8399
  0
SEQEND
  0
POLYLINE
  8
LAYER_1
 40
0.0882
 41
0.0882
 66
1
 10
0
 20
0
 30
0
  0
VERTEX
  8
LAYER_1
 10
179.3878
 20
192.8393
 42
0.2705429755
  0
VERTEX
  8
LAYER_1
 10
179.5186
 20
192.6215
  0
SEQEND
  0
POLYLINE
  8
LAYER_1
  6
AIGENLINE001
 40
0.0882
 41
0.0882
 66
1
 10
0
 20
0
 30
0
 70
128
  0
VERTEX
  8
LAYER_1
 10
179.8238
 20
192.6824
 42
0.1728249447
  0
VERTEX
  8
LAYER_1
 10
179.8803
 20
192.8393
 42
0.3395544323
  0
VERTEX
  8
LAYER_1
 10
179.6853
 20
193.0806
  0
SEQEND
  0
POLYLINE
  8
LAYER_1
 40
0.0882
 41
0.0882
 66
1
 10
0
 20
0
 30
0
  0
VERTEX
  8
LAYER_1
 10
179.5184
 20
193.057
 42
0.2718405527
  0
VERTEX
  8
LAYER_1
 10
179.3876
 20
192.8392
  0
SEQEND
  0
POLYLINE
  8
LAYER_1
 40
0.0882
 41
0.0882
 66
1
 10
0
 20
0
 30
0
  0
VERTEX
  8
LAYER_1
 10
186.2563
 20
167.3796
 42
0.2703041124
  0
VERTEX
  8
LAYER_1
 10
186.3871
 20
167.1618
  0
SEQEND
  0
POLYLINE
  8
LAYER_1
  6
AIGENLINE001
 40
0.0882
 41
0.0882
 66
1
 10
0
 20
0
 30
0
 70
128
  0
VERTEX
  8
LAYER_1
 10
186.6923
 20
167.2225
 42
0.17232244
  0
VERTEX
  8
LAYER_1
 10
186.7488
 20
167.3794
 42
0.339438752
  0
VERTEX
  8
LAYER_1
 10
186.5539
 20
167.6207
  0
SEQEND
  0
POLYLINE
  8
LAYER_1
 40
0.0882
 41
0.0882
 66
1
 10
0
 20
0
 30
0
  0
VERTEX
  8
LAYER_1
 10
186.387
 20
167.5973
 42
0.2710823331
  0
VERTEX
  8
LAYER_1
 10
186.2562
 20
167.3795
  0
SEQEND
  0
POLYLINE
  8
LAYER_1
 40
0.05
 41
0.05
 66
1
 10
0
 20
0
 30
0
 70
1
  0
VERTEX
  8
LAYER_1
 10
110.5681
 20
138.7032
  0
VERTEX
  8
LAYER_1
 10
204.6027
 20
138.7032
  0
VERTEX
  8
LAYER_1
 10
204.6027
 20
219.2536
  0
VERTEX
  8
LAYER_1
 10
110.5681
 20
219.2536
  0
SEQEND
  0
ENDBLK
  0
BLOCK
  8
LAYER_1
  2
AIGNBL0101000F
 70
64
 10
0
 20
0
 30
0
  3
AIGNBL0101000F
  0
POLYLINE
  8
LAYER_1
 40
0.0882
 41
0.0882
 66
1
 10
0
 20
0
 30
0
  0
VERTEX
  8
LAYER_1
 10
192.9291
 20
139.1937
 42
0.2859708981
  0
VERTEX
  8
LAYER_1
 10
193.3704
 20
138.9499
  0
VERTEX
  8
LAYER_1
 10
193.404
 20
138.8248
  0
VERTEX
  8
LAYER_1
 10
193.9197
 20
138.9607
  0
SEQEND
  0
POLYLINE
  8
LAYER_1
 40
0.05
 41
0.05
 66
1
 10
0
 20
0
 30
0
 70
1
  0
VERTEX
  8
LAYER_1
 10
110.5681
 20
138.7032
  0
VERTEX
  8
LAYER_1
 10
204.6027
 20
138.7032
  0
VERTEX
  8
LAYER_1
 10
204.6027
 20
219.2536
  0
VERTEX
  8
LAYER_1
 10
110.5681
 20
219.2536
  0
SEQEND
  0
ENDBLK
  0
BLOCK
  8
LAYER_1
  2
AIGNBL01010010
 70
64
 10
0
 20
0
 30
0
  3
AIGNBL01010010
  0
POLYLINE
  8
LAYER_1
 40
0.0882
 41
0.0882
 66
1
 10
0
 20
0
 30
0
  0
VERTEX
  8
LAYER_1
 10
192.9082
 20
140.6762
  0
VERTEX
  8
LAYER_1
 10
193.0466
 20
140.1612
 42
0.2446150578
  0
VERTEX
  8
LAYER_1
 10
192.8248
 20
139.9342
 42
0.1101170402
  0
VERTEX
  8
LAYER_1
 10
192.7977
 20
139.732
  0
SEQEND
  0
POLYLINE
  8
LAYER_1
 40
0.05
 41
0.05
 66
1
 10
0
 20
0
 30
0
 70
1
  0
VERTEX
  8
LAYER_1
 10
110.5681
 20
138.7032
  0
VERTEX
  8
LAYER_1
 10
204.6027
 20
138.7032
  0
VERTEX
  8
LAYER_1
 10
204.6027
 20
219.2536
  0
VERTEX
  8
LAYER_1
 10
110.5681
 20
219.2536
  0
SEQEND
  0
ENDBLK
  0
BLOCK
  8
LAYER_1
  2
AIGNBL01010011
 70
64
 10
0
 20
0
 30
0
  3
AIGNBL01010011
  0
POLYLINE
  8
LAYER_1
 40
0.0882
 41
0.0882
 66
1
 10
0
 20
0
 30
0
  0
VERTEX
  8
LAYER_1
 10
191.3841
 20
210.398
  0
VERTEX
  8
LAYER_1
 10
204.5228
 20
210.398
  0
SEQEND
  0
POLYLINE
  8
LAYER_1
 40
0.0882
 41
0.0882
 66
1
 10
0
 20
0
 30
0
  0
VERTEX
  8
LAYER_1
 10
193.3697
 20
138.7827
  0
VERTEX
  8
LAYER_1
 10
204.5229
 20
138.7827
  0
SEQEND
  0
POLYLINE
  8
LAYER_1
 40
0.05
 41
0.05
 66
1
 10
0
 20
0
 30
0
 70
1
  0
VERTEX
  8
LAYER_1
 10
110.5681
 20
138.7032
  0
VERTEX
  8
LAYER_1
 10
204.6027
 20
138.7032
  0
VERTEX
  8
LAYER_1
 10
204.6027
 20
219.2536
  0
VERTEX
  8
LAYER_1
 10
110.5681
 20
219.2536
  0
SEQEND
  0
ENDBLK
  0
BLOCK
  8
LAYER_1
  2
AIGNBL01010012
 70
64
 10
0
 20
0
 30
0
  3
AIGNBL01010012
  0
POLYLINE
  8
LAYER_1
 40
0.0882
 41
0.0882
 66
1
 10
0
 20
0
 30
0
  0
VERTEX
  8
LAYER_1
 10
147.3165
 20
192.4791
 42
0.04239233925
  0
VERTEX
  8
LAYER_1
 10
148.6095
 20
185.8848
 42
0.0434619945
  0
VERTEX
  8
LAYER_1
 10
150.8214
 20
180.1208
 42
0.04865101382
  0
VERTEX
  8
LAYER_1
 10
154.0612
 20
174.865
 42
0.04644083453
  0
VERTEX
  8
LAYER_1
 10
157.8066
 20
170.8005
 42
0.0282318599
  0
VERTEX
  8
LAYER_1
 10
160.4407
 20
168.6863
 42
0.0527287143
  0
VERTEX
  8
LAYER_1
 10
165.5881
 20
165.7832
 42
0.05029275104
  0
VERTEX
  8
LAYER_1
 10
171.5304
 20
163.8816
 42
0.04473578141
  0
VERTEX
  8
LAYER_1
 10
177.4543
 20
163.1603
 42
0.04303377348
  0
VERTEX
  8
LAYER_1
 10
183.5323
 20
163.4858
 42
0.01076258855
  0
VERTEX
  8
LAYER_1
 10
185.0927
 20
163.7371
  0
SEQEND
  0
POLYLINE
  8
LAYER_1
 40
0.05
 41
0.05
 66
1
 10
0
 20
0
 30
0
 70
1
  0
VERTEX
  8
LAYER_1
 10
110.5681
 20
138.7032
  0
VERTEX
  8
LAYER_1
 10
204.6027
 20
138.7032
  0
VERTEX
  8
LAYER_1
 10
204.6027
 20
219.2536
  0
VERTEX
  8
LAYER_1
 10
110.5681
 20
219.2536
  0
SEQEND
  0
ENDBLK
  0
BLOCK
  8
LAYER_1
  2
AIGNBL01010013
 70
64
 10
0
 20
0
 30
0
  3
AIGNBL01010013
  0
POLYLINE
  8
LAYER_1
 40
0.1482
 41
0.1482
 66
1
 10
0
 20
0
 30
0
  0
VERTEX
  8
LAYER_1
 10
45.5727
 20
145.9321
 42
0.2631099027
  0
VERTEX
  8
LAYER_1
 10
45.8175
 20
146.1048
 42
0.1288544025
  0
VERTEX
  8
LAYER_1
 10
45.9277
 20
146.5576
 42
0.1481488445
  0
VERTEX
  8
LAYER_1
 10
45.795
 20
147.0456
 42
0.2485686474
  0
VERTEX
  8
LAYER_1
 10
45.5727
 20
147.1837
  0
SEQEND
  0
POLYLINE
  8
LAYER_1
 40
0.1482
 41
0.1482
 66
1
 10
0
 20
0
 30
0
  0
VERTEX
  8
LAYER_1
 10
45.5727
 20
88.9654
 42
0.2631969297
  0
VERTEX
  8
LAYER_1
 10
45.8175
 20
89.1382
 42
0.1287913779
  0
VERTEX
  8
LAYER_1
 10
45.9277
 20
89.5915
 42
0.1481887914
  0
VERTEX
  8
LAYER_1
 10
45.795
 20
90.0789
 42
0.2485024664
  0
VERTEX
  8
LAYER_1
 10
45.5727
 20
90.217
  0
SEQEND
  0
POLYLINE
  8
LAYER_1
 40
0.05
 41
0.05
 66
1
 10
0
 20
0
 30
0
 70
1
  0
VERTEX
  8
LAYER_1
 10
33.8988
 20
78.5255
  0
VERTEX
  8
LAYER_1
 10
71.2342
 20
78.5255
  0
VERTEX
  8
LAYER_1
 10
71.2342
 20
163.3292
  0
VERTEX
  8
LAYER_1
 10
33.8988
 20
163.3292
  0
SEQEND
  0
ENDBLK
  0
BLOCK
  8
LAYER_1
  2
AIGNBL01010014
 70
64
 10
0
 20
0
 30
0
  3
AIGNBL01010014
  0
POLYLINE
  8
LAYER_1
 40
0.1482
 41
0.1482
 66
1
 10
0
 20
0
 30
0
  0
VERTEX
  8
LAYER_1
 10
47.4058
 20
141.2359
 42
0.4141832847
  0
VERTEX
  8
LAYER_1
 10
47.8985
 20
140.7431
 42
0.4142376896
  0
VERTEX
  8
LAYER_1
 10
48.3913
 20
141.2359
 42
0.4142438412
  0
VERTEX
  8
LAYER_1
 10
47.8985
 20
141.7287
 42
0.4141894353
  0
VERTEX
  8
LAYER_1
 10
47.4058
 20
141.2359
  0
SEQEND
  0
POLYLINE
  8
LAYER_1
 40
0.1482
 41
0.1482
 66
1
 10
0
 20
0
 30
0
  0
VERTEX
  8
LAYER_1
 10
55.2904
 20
141.2359
 42
0.4142391871
  0
VERTEX
  8
LAYER_1
 10
55.7832
 20
140.7431
 42
0.4141817873
  0
VERTEX
  8
LAYER_1
 10
56.2759
 20
141.2359
 42
0.4141879376
  0
VERTEX
  8
LAYER_1
 10
55.7832
 20
141.7287
 42
0.414245339
  0
VERTEX
  8
LAYER_1
 10
55.2904
 20
141.2359
  0
SEQEND
  0
POLYLINE
  8
LAYER_1
 40
0.1482
 41
0.1482
 66
1
 10
0
 20
0
 30
0
  0
VERTEX
  8
LAYER_1
 10
47.4058
 20
94.9135
 42
0.4141863101
  0
VERTEX
  8
LAYER_1
 10
47.8985
 20
94.4207
 42
0.4142407156
  0
VERTEX
  8
LAYER_1
 10
48.3913
 20
94.9135
 42
0.4142408152
  0
VERTEX
  8
LAYER_1
 10
47.8985
 20
95.4063
 42
0.4141864099
  0
VERTEX
  8
LAYER_1
 10
47.4058
 20
94.9135
  0
SEQEND
  0
POLYLINE
  8
LAYER_1
 40
0.1482
 41
0.1482
 66
1
 10
0
 20
0
 30
0
  0
VERTEX
  8
LAYER_1
 10
55.2904
 20
94.9135
 42
0.4142422131
  0
VERTEX
  8
LAYER_1
 10
55.7832
 20
94.4207
 42
0.4141848126
  0
VERTEX
  8
LAYER_1
 10
56.2759
 20
94.9135
 42
0.4141849122
  0
VERTEX
  8
LAYER_1
 10
55.7832
 20
95.4063
 42
0.4142423129
  0
VERTEX
  8
LAYER_1
 10
55.2904
 20
94.9135
  0
SEQEND
  0
POLYLINE
  8
LAYER_1
 40
0.05
 41
0.05
 66
1
 10
0
 20
0
 30
0
 70
1
  0
VERTEX
  8
LAYER_1
 10
33.8988
 20
78.5255
  0
VERTEX
  8
LAYER_1
 10
71.2342
 20
78.5255
  0
VERTEX
  8
LAYER_1
 10
71.2342
 20
163.3292
  0
VERTEX
  8
LAYER_1
 10
33.8988
 20
163.3292
  0
SEQEND
  0
ENDBLK
  0
BLOCK
  8
LAYER_1
  2
AIGNBL01010015
 70
64
 10
0
 20
0
 30
0
  3
AIGNBL01010015
  0
POLYLINE
  8
LAYER_1
 40
0.0882
 41
0.0882
 66
1
 10
0
 20
0
 30
0
  0
VERTEX
  8
LAYER_1
 10
51.8347
 20
152.5381
  0
VERTEX
  8
LAYER_1
 10
51.8347
 20
156.9609
  0
VERTEX
  8
LAYER_1
 10
71.1362
 20
156.9609
  0
SEQEND
  0
POLYLINE
  8
LAYER_1
 40
0.05
 41
0.05
 66
1
 10
0
 20
0
 30
0
 70
1
  0
VERTEX
  8
LAYER_1
 10
33.8988
 20
78.5255
  0
VERTEX
  8
LAYER_1
 10
71.2342
 20
78.5255
  0
VERTEX
  8
LAYER_1
 10
71.2342
 20
163.3292
  0
VERTEX
  8
LAYER_1
 10
33.8988
 20
163.3292
  0
SEQEND
  0
ENDBLK
  0
BLOCK
  8
LAYER_2
  2
AIGNBL02010002
 70
64
 10
0
 20
0
 30
0
  3
AIGNBL02010002
  0
POLYLINE
  8
LAYER_2
 40
0.7056
 41
0.7056
 66
1
 10
0
 20
0
 30
0
 70
1
  0
VERTEX
  8
LAYER_2
 10
251.6749
 20
230.337
  0
VERTEX
  8
LAYER_2
 10
251.6749
 20
33.3285
  0
VERTEX
  8
LAYER_2
 10
-30.3177
 20
33.3285
  0
VERTEX
  8
LAYER_2
 10
-30.3177
 20
230.337
  0
SEQEND
  0
ENDBLK
  0
BLOCK
  8
LAYER_2
  2
AIGNBL02010003
 70
64
 10
0
 20
0
 30
0
  3
AIGNBL02010003
  0
INSERT
  8
LAYER_2
  2
AIGNBL02020004
 10
0
 20
0
 30
0
  0
INSERT
  8
LAYER_2
  2
AIGNBL0202000D
 10
0
 20
0
 30
0
  0
ENDBLK
  0
ENDSEC
  0
SECTION
  2
ENTITIES
  0
TEXT
  8
LAYER_1
 10
19.7754
 20
69.5221
 11
19.7754
 21
69.5221
 40
5.3706
 41
0.5
  1
上記の + 表記はビス固定位置を示す。キャビネットの連結はダボ穴以外の位置で4点固定をしてください。
  0
TEXT
  8
LAYER_1
 10
20.8837
 20
202.9334
 11
20.8837
 21
202.9334
 40
4.5514
 41
0.5
  1
鏡＋アルミ＋パーチクルボード
  0
TEXT
  8
LAYER_1
 10
20.1956
 20
196.9334
 11
20.1956
 21
196.9334
 40
4.5514
 41
0.5
  1
Ｆ☆☆☆☆対応
  0
TEXT
  8
LAYER_1
 10
20.8837
 20
190.9334
 11
20.8837
 21
190.9334
 40
5.3706
 41
0.5
  1
耐荷重 
  0
TEXT
  8
LAYER_1
 10
20.7795
 20
184.9335
 11
20.7795
 21
184.9335
 40
5.3706
 41
0.5
  1
ボックス本体：10kg
  0
TEXT
  8
LAYER_1
 10
20.8837
 20
178.9333
 11
20.8837
 21
178.9333
 40
5.3706
 41
0.5
  1
棚（1枚につき）：3kg　
  0
POLYLINE
  8
LAYER_1
 40
0.1482
 41
0.1482
 66
1
 10
0
 20
0
 30
0
  0
VERTEX
  8
LAYER_1
 10
121.7116
 20
88.5009
  0
VERTEX
  8
LAYER_1
 10
121.7116
 20
147.6366
  0
SEQEND
  0
POLYLINE
  8
LAYER_1
 40
0.1482
 41
0.1482
 66
1
 10
0
 20
0
 30
0
  0
VERTEX
  8
LAYER_1
 10
180.8471
 20
88.5009
  0
VERTEX
  8
LAYER_1
 10
180.8471
 20
147.6366
  0
SEQEND
  0
INSERT
  8
LAYER_1
  2
AIGNBL01010002
 10
0
 20
0
 30
0
  0
POLYLINE
  8
LAYER_1
 40
0.1482
 41
0.1482
 66
1
 10
0
 20
0
 30
0
  0
VERTEX
  8
LAYER_1
 10
121.9117
 20
150.0057
  0
VERTEX
  8
LAYER_1
 10
121.9618
 20
150.0057
  0
SEQEND
  0
POLYLINE
  8
LAYER_1
 40
0.1482
 41
0.1482
 66
1
 10
0
 20
0
 30
0
  0
VERTEX
  8
LAYER_1
 10
180.5971
 20
150.0057
  0
VERTEX
  8
LAYER_1
 10
180.6472
 20
150.0057
  0
SEQEND
  0
POLYLINE
  8
LAYER_1
 40
0.1482
 41
0.1482
 66
1
 10
0
 20
0
 30
0
  0
VERTEX
  8
LAYER_1
 10
121.9616
 20
150.1058
  0
VERTEX
  8
LAYER_1
 10
180.5969
 20
150.1058
  0
SEQEND
  0
INSERT
  8
LAYER_1
  2
AIGNBL01010003
 10
0
 20
0
 30
0
  0
POLYLINE
  8
LAYER_1
 40
0.1482
 41
0.1482
 66
1
 10
0
 20
0
 30
0
  0
VERTEX
  8
LAYER_1
 10
180.5971
 20
150.1058
  0
VERTEX
  8
LAYER_1
 10
180.5971
 20
149.7057
  0
SEQEND
  0
POLYLINE
  8
LAYER_1
 40
0.1482
 41
0.1482
 66
1
 10
0
 20
0
 30
0
  0
VERTEX
  8
LAYER_1
 10
121.9616
 20
150.1058
  0
VERTEX
  8
LAYER_1
 10
121.9616
 20
149.7057
  0
SEQEND
  0
POLYLINE
  8
LAYER_1
 40
0.1482
 41
0.1482
 66
1
 10
0
 20
0
 30
0
  0
VERTEX
  8
LAYER_1
 10
122.0533
 20
149.6137
  0
VERTEX
  8
LAYER_1
 10
180.5057
 20
149.6137
  0
VERTEX
  8
LAYER_1
 10
180.5469
 20
149.622
  0
VERTEX
  8
LAYER_1
 10
180.5888
 20
149.6639
  0
VERTEX
  8
LAYER_1
 10
180.5971
 20
149.7052
  0
SEQEND
  0
POLYLINE
  8
LAYER_1
 40
0.1482
 41
0.1482
 66
1
 10
0
 20
0
 30
0
  0
VERTEX
  8
LAYER_1
 10
121.9616
 20
149.7054
  0
VERTEX
  8
LAYER_1
 10
121.9699
 20
149.6635
  0
VERTEX
  8
LAYER_1
 10
122.0035
 20
149.6223
  0
VERTEX
  8
LAYER_1
 10
122.0531
 20
149.614
  0
SEQEND
  0
INSERT
  8
LAYER_1
  2
AIGNBL01010004
 10
0
 20
0
 30
0
  0
POLYLINE
  8
LAYER_1
 40
0.1482
 41
0.1482
 66
1
 10
0
 20
0
 30
0
  0
VERTEX
  8
LAYER_1
 10
122.0533
 20
86.5324
  0
VERTEX
  8
LAYER_1
 10
180.5057
 20
86.5324
  0
SEQEND
  0
POLYLINE
  8
LAYER_1
 40
0.1482
 41
0.1482
 66
1
 10
0
 20
0
 30
0
  0
VERTEX
  8
LAYER_1
 10
180.5971
 20
86.4319
  0
VERTEX
  8
LAYER_1
 10
180.5888
 20
86.4827
  0
VERTEX
  8
LAYER_1
 10
180.5469
 20
86.524
  0
VERTEX
  8
LAYER_1
 10
180.5057
 20
86.5323
  0
SEQEND
  0
POLYLINE
  8
LAYER_1
 40
0.1482
 41
0.1482
 66
1
 10
0
 20
0
 30
0
  0
VERTEX
  8
LAYER_1
 10
122.0533
 20
86.5324
  0
VERTEX
  8
LAYER_1
 10
122.0031
 20
86.5241
  0
VERTEX
  8
LAYER_1
 10
121.9701
 20
86.4822
  0
VERTEX
  8
LAYER_1
 10
121.9618
 20
86.432
  0
SEQEND
  0
INSERT
  8
LAYER_1
  2
AIGNBL01010005
 10
0
 20
0
 30
0
  0
POLYLINE
  8
LAYER_1
 40
0.1482
 41
0.1482
 66
1
 10
0
 20
0
 30
0
  0
VERTEX
  8
LAYER_1
 10
180.5471
 20
86.5241
  0
VERTEX
  8
LAYER_1
 10
180.5471
 20
149.6222
  0
SEQEND
  0
INSERT
  8
LAYER_1
  2
AIGNBL01010006
 10
0
 20
0
 30
0
  0
POLYLINE
  8
LAYER_1
 40
0.1482
 41
0.1482
 66
1
 10
0
 20
0
 30
0
  0
VERTEX
  8
LAYER_1
 10
122.0033
 20
86.5241
  0
VERTEX
  8
LAYER_1
 10
122.0033
 20
149.6222
  0
SEQEND
  0
INSERT
  8
LAYER_1
  2
AIGNBL01010007
 10
0
 20
0
 30
0
  0
POLYLINE
  8
LAYER_1
 40
0.1482
 41
0.1482
 66
1
 10
0
 20
0
 30
0
  0
VERTEX
  8
LAYER_1
 10
180.8471
 20
147.6367
  0
VERTEX
  8
LAYER_1
 10
180.6471
 20
147.6367
  0
SEQEND
  0
POLYLINE
  8
LAYER_1
 40
0.1482
 41
0.1482
 66
1
 10
0
 20
0
 30
0
  0
VERTEX
  8
LAYER_1
 10
121.9117
 20
147.6367
  0
VERTEX
  8
LAYER_1
 10
121.7116
 20
147.6367
  0
SEQEND
  0
POLYLINE
  8
LAYER_1
 40
0.1482
 41
0.1482
 66
1
 10
0
 20
0
 30
0
  0
VERTEX
  8
LAYER_1
 10
180.8471
 20
88.5009
  0
VERTEX
  8
LAYER_1
 10
180.6471
 20
88.5009
  0
SEQEND
  0
POLYLINE
  8
LAYER_1
 40
0.1482
 41
0.1482
 66
1
 10
0
 20
0
 30
0
  0
VERTEX
  8
LAYER_1
 10
121.9117
 20
88.5009
  0
VERTEX
  8
LAYER_1
 10
121.7116
 20
88.5009
  0
SEQEND
  0
INSERT
  8
LAYER_1
  2
AIGNBL01010008
 10
0
 20
0
 30
0
  0
POLYLINE
  8
LAYER_1
 40
0.0882
 41
0.0882
 66
1
 10
0
 20
0
 30
0
  0
VERTEX
  8
LAYER_1
 10
126.8669
 20
141.2302
  0
VERTEX
  8
LAYER_1
 10
127.667
 20
141.2302
  0
SEQEND
  0
POLYLINE
  8
LAYER_1
  6
AIGENLINE002
 40
0.0882
 41
0.0882
 66
1
 10
0
 20
0
 30
0
 70
128
  0
VERTEX
  8
LAYER_1
 10
127.9675
 20
141.2302
  0
VERTEX
  8
LAYER_1
 10
128.419
 20
141.2302
  0
SEQEND
  0
POLYLINE
  8
LAYER_1
 40
0.0882
 41
0.0882
 66
1
 10
0
 20
0
 30
0
  0
VERTEX
  8
LAYER_1
 10
128.5692
 20
141.2302
  0
VERTEX
  8
LAYER_1
 10
129.3693
 20
141.2302
  0
SEQEND
  0
POLYLINE
  8
LAYER_1
 40
0.0882
 41
0.0882
 66
1
 10
0
 20
0
 30
0
  0
VERTEX
  8
LAYER_1
 10
128.1181
 20
139.9787
  0
VERTEX
  8
LAYER_1
 10
128.1181
 20
140.7788
  0
SEQEND
  0
POLYLINE
  8
LAYER_1
  6
AIGENLINE002
 40
0.0882
 41
0.0882
 66
1
 10
0
 20
0
 30
0
 70
128
  0
VERTEX
  8
LAYER_1
 10
128.1181
 20
141.0796
  0
VERTEX
  8
LAYER_1
 10
128.1181
 20
141.5311
  0
SEQEND
  0
POLYLINE
  8
LAYER_1
 40
0.0882
 41
0.0882
 66
1
 10
0
 20
0
 30
0
  0
VERTEX
  8
LAYER_1
 10
128.1181
 20
141.6813
  0
VERTEX
  8
LAYER_1
 10
128.1181
 20
142.4814
  0
SEQEND
  0
POLYLINE
  8
LAYER_1
 40
0.0882
 41
0.0882
 66
1
 10
0
 20
0
 30
0
  0
VERTEX
  8
LAYER_1
 10
173.1893
 20
141.2302
  0
VERTEX
  8
LAYER_1
 10
173.9894
 20
141.2302
  0
SEQEND
  0
POLYLINE
  8
LAYER_1
  6
AIGENLINE002
 40
0.0882
 41
0.0882
 66
1
 10
0
 20
0
 30
0
 70
128
  0
VERTEX
  8
LAYER_1
 10
174.29
 20
141.2302
  0
VERTEX
  8
LAYER_1
 10
174.7415
 20
141.2302
  0
SEQEND
  0
POLYLINE
  8
LAYER_1
 40
0.0882
 41
0.0882
 66
1
 10
0
 20
0
 30
0
  0
VERTEX
  8
LAYER_1
 10
174.8917
 20
141.2302
  0
VERTEX
  8
LAYER_1
 10
175.6918
 20
141.2302
  0
SEQEND
  0
POLYLINE
  8
LAYER_1
 40
0.0882
 41
0.0882
 66
1
 10
0
 20
0
 30
0
  0
VERTEX
  8
LAYER_1
 10
174.4405
 20
139.9787
  0
VERTEX
  8
LAYER_1
 10
174.4405
 20
140.7788
  0
SEQEND
  0
POLYLINE
  8
LAYER_1
  6
AIGENLINE002
 40
0.0882
 41
0.0882
 66
1
 10
0
 20
0
 30
0
 70
128
  0
VERTEX
  8
LAYER_1
 10
174.4405
 20
141.0796
  0
VERTEX
  8
LAYER_1
 10
174.4405
 20
141.5311
  0
SEQEND
  0
POLYLINE
  8
LAYER_1
 40
0.0882
 41
0.0882
 66
1
 10
0
 20
0
 30
0
  0
VERTEX
  8
LAYER_1
 10
174.4405
 20
141.6813
  0
VERTEX
  8
LAYER_1
 10
174.4405
 20
142.4814
  0
SEQEND
  0
POLYLINE
  8
LAYER_1
 40
0.0882
 41
0.0882
 66
1
 10
0
 20
0
 30
0
  0
VERTEX
  8
LAYER_1
 10
178.0108
 20
141.2302
  0
VERTEX
  8
LAYER_1
 10
178.8109
 20
141.2302
  0
SEQEND
  0
POLYLINE
  8
LAYER_1
  6
AIGENLINE003
 40
0.0882
 41
0.0882
 66
1
 10
0
 20
0
 30
0
 70
128
  0
VERTEX
  8
LAYER_1
 10
179.1167
 20
141.2302
  0
VERTEX
  8
LAYER_1
 10
179.5752
 20
141.2302
  0
SEQEND
  0
POLYLINE
  8
LAYER_1
  6
AIGENLINE004
 40
0.0882
 41
0.0882
 66
1
 10
0
 20
0
 30
0
 70
128
  0
VERTEX
  8
LAYER_1
 10
179.7283
 20
141.2302
  0
VERTEX
  8
LAYER_1
 10
181.4091
 20
141.2302
  0
SEQEND
  0
INSERT
  8
LAYER_1
  2
AIGNBL01010009
 10
0
 20
0
 30
0
  0
POLYLINE
  8
LAYER_1
 40
0.0882
 41
0.0882
 66
1
 10
0
 20
0
 30
0
  0
VERTEX
  8
LAYER_1
 10
124.5479
 20
141.2302
  0
VERTEX
  8
LAYER_1
 10
120.9526
 20
141.2302
  0
SEQEND
  0
POLYLINE
  8
LAYER_1
 40
0.0882
 41
0.0882
 66
1
 10
0
 20
0
 30
0
  0
VERTEX
  8
LAYER_1
 10
173.1893
 20
94.9075
  0
VERTEX
  8
LAYER_1
 10
173.9894
 20
94.9075
  0
SEQEND
  0
POLYLINE
  8
LAYER_1
  6
AIGENLINE002
 40
0.0882
 41
0.0882
 66
1
 10
0
 20
0
 30
0
 70
128
  0
VERTEX
  8
LAYER_1
 10
174.29
 20
94.9075
  0
VERTEX
  8
LAYER_1
 10
174.7415
 20
94.9075
  0
SEQEND
  0
POLYLINE
  8
LAYER_1
 40
0.0882
 41
0.0882
 66
1
 10
0
 20
0
 30
0
  0
VERTEX
  8
LAYER_1
 10
174.8917
 20
94.9075
  0
VERTEX
  8
LAYER_1
 10
175.6918
 20
94.9075
  0
SEQEND
  0
POLYLINE
  8
LAYER_1
 40
0.0882
 41
0.0882
 66
1
 10
0
 20
0
 30
0
  0
VERTEX
  8
LAYER_1
 10
174.4405
 20
93.6563
  0
VERTEX
  8
LAYER_1
 10
174.4405
 20
94.4564
  0
SEQEND
  0
POLYLINE
  8
LAYER_1
  6
AIGENLINE002
 40
0.0882
 41
0.0882
 66
1
 10
0
 20
0
 30
0
 70
128
  0
VERTEX
  8
LAYER_1
 10
174.4405
 20
94.7572
  0
VERTEX
  8
LAYER_1
 10
174.4405
 20
95.2086
  0
SEQEND
  0
POLYLINE
  8
LAYER_1
 40
0.0882
 41
0.0882
 66
1
 10
0
 20
0
 30
0
  0
VERTEX
  8
LAYER_1
 10
174.4405
 20
95.3588
  0
VERTEX
  8
LAYER_1
 10
174.4405
 20
96.1589
  0
SEQEND
  0
POLYLINE
  8
LAYER_1
 40
0.0882
 41
0.0882
 66
1
 10
0
 20
0
 30
0
  0
VERTEX
  8
LAYER_1
 10
178.0108
 20
94.9075
  0
VERTEX
  8
LAYER_1
 10
178.8109
 20
94.9075
  0
SEQEND
  0
POLYLINE
  8
LAYER_1
  6
AIGENLINE003
 40
0.0882
 41
0.0882
 66
1
 10
0
 20
0
 30
0
 70
128
  0
VERTEX
  8
LAYER_1
 10
179.1167
 20
94.9075
  0
VERTEX
  8
LAYER_1
 10
179.5752
 20
94.9075
  0
SEQEND
  0
POLYLINE
  8
LAYER_1
  6
AIGENLINE004
 40
0.0882
 41
0.0882
 66
1
 10
0
 20
0
 30
0
 70
128
  0
VERTEX
  8
LAYER_1
 10
179.7283
 20
94.9075
  0
VERTEX
  8
LAYER_1
 10
181.4091
 20
94.9075
  0
SEQEND
  0
INSERT
  8
LAYER_1
  2
AIGNBL0101000A
 10
0
 20
0
 30
0
  0
POLYLINE
  8
LAYER_1
 40
0.0882
 41
0.0882
 66
1
 10
0
 20
0
 30
0
  0
VERTEX
  8
LAYER_1
 10
126.8669
 20
94.9075
  0
VERTEX
  8
LAYER_1
 10
127.667
 20
94.9075
  0
SEQEND
  0
POLYLINE
  8
LAYER_1
  6
AIGENLINE002
 40
0.0882
 41
0.0882
 66
1
 10
0
 20
0
 30
0
 70
128
  0
VERTEX
  8
LAYER_1
 10
127.9675
 20
94.9075
  0
VERTEX
  8
LAYER_1
 10
128.419
 20
94.9075
  0
SEQEND
  0
POLYLINE
  8
LAYER_1
 40
0.0882
 41
0.0882
 66
1
 10
0
 20
0
 30
0
  0
VERTEX
  8
LAYER_1
 10
128.5692
 20
94.9075
  0
VERTEX
  8
LAYER_1
 10
129.3693
 20
94.9075
  0
SEQEND
  0
POLYLINE
  8
LAYER_1
 40
0.0882
 41
0.0882
 66
1
 10
0
 20
0
 30
0
  0
VERTEX
  8
LAYER_1
 10
128.1181
 20
93.6563
  0
VERTEX
  8
LAYER_1
 10
128.1181
 20
94.4564
  0
SEQEND
  0
POLYLINE
  8
LAYER_1
  6
AIGENLINE002
 40
0.0882
 41
0.0882
 66
1
 10
0
 20
0
 30
0
 70
128
  0
VERTEX
  8
LAYER_1
 10
128.1181
 20
94.7572
  0
VERTEX
  8
LAYER_1
 10
128.1181
 20
95.2086
  0
SEQEND
  0
POLYLINE
  8
LAYER_1
 40
0.0882
 41
0.0882
 66
1
 10
0
 20
0
 30
0
  0
VERTEX
  8
LAYER_1
 10
128.1181
 20
95.3588
  0
VERTEX
  8
LAYER_1
 10
128.1181
 20
96.1589
  0
SEQEND
  0
POLYLINE
  8
LAYER_1
 40
0.0882
 41
0.0882
 66
1
 10
0
 20
0
 30
0
  0
VERTEX
  8
LAYER_1
 10
124.5479
 20
94.9075
  0
VERTEX
  8
LAYER_1
 10
120.9526
 20
94.9075
  0
SEQEND
  0
POLYLINE
  8
LAYER_1
 40
0.0882
 41
0.0882
 66
1
 10
0
 20
0
 30
0
  0
VERTEX
  8
LAYER_1
 10
121.9616
 20
150.1058
  0
VERTEX
  8
LAYER_1
 10
107.3636
 20
150.1058
  0
SEQEND
  0
POLYLINE
  8
LAYER_1
 40
0.0882
 41
0.0882
 66
1
 10
0
 20
0
 30
0
  0
VERTEX
  8
LAYER_1
 10
121.9616
 20
86.0402
  0
VERTEX
  8
LAYER_1
 10
107.3636
 20
86.0402
  0
SEQEND
  0
POLYLINE
  8
LAYER_1
 40
0.0882
 41
0.0882
 66
1
 10
0
 20
0
 30
0
  0
VERTEX
  8
LAYER_1
 10
108.3477
 20
148.5389
  0
VERTEX
  8
LAYER_1
 10
108.3477
 20
87.5732
  0
SEQEND
  0
POLYLINE
  8
LAYER_1
 40
0.05
 41
0.05
 66
1
 10
0
 20
0
 30
0
 70
1
  0
VERTEX
  8
LAYER_1
 10
107.8828
 20
148.2217
  0
VERTEX
  8
LAYER_1
 10
108.3476
 20
149.9565
  0
VERTEX
  8
LAYER_1
 10
108.8124
 20
148.2217
  0
SEQEND
  0
POLYLINE
  8
LAYER_1
 40
0.05
 41
0.05
 66
1
 10
0
 20
0
 30
0
 70
1
  0
VERTEX
  8
LAYER_1
 10
107.8825
 20
87.8901
  0
VERTEX
  8
LAYER_1
 10
108.348
 20
86.1553
  0
VERTEX
  8
LAYER_1
 10
108.8122
 20
87.8901
  0
SEQEND
  0
POLYLINE
  8
LAYER_1
 40
0.0882
 41
0.0882
 66
1
 10
0
 20
0
 30
0
  0
VERTEX
  8
LAYER_1
 10
126.4132
 20
141.2302
  0
VERTEX
  8
LAYER_1
 10
113.7951
 20
141.2302
  0
SEQEND
  0
POLYLINE
  8
LAYER_1
 40
0.0882
 41
0.0882
 66
1
 10
0
 20
0
 30
0
  0
VERTEX
  8
LAYER_1
 10
126.2621
 20
94.9075
  0
VERTEX
  8
LAYER_1
 10
113.7951
 20
94.9075
  0
SEQEND
  0
POLYLINE
  8
LAYER_1
 40
0.0882
 41
0.0882
 66
1
 10
0
 20
0
 30
0
  0
VERTEX
  8
LAYER_1
 10
114.7878
 20
139.6713
  0
VERTEX
  8
LAYER_1
 10
114.7878
 20
96.4482
  0
SEQEND
  0
POLYLINE
  8
LAYER_1
 40
0.05
 41
0.05
 66
1
 10
0
 20
0
 30
0
 70
1
  0
VERTEX
  8
LAYER_1
 10
114.323
 20
139.3545
  0
VERTEX
  8
LAYER_1
 10
114.7878
 20
141.0894
  0
VERTEX
  8
LAYER_1
 10
115.2526
 20
139.3545
  0
SEQEND
  0
POLYLINE
  8
LAYER_1
 40
0.05
 41
0.05
 66
1
 10
0
 20
0
 30
0
 70
1
  0
VERTEX
  8
LAYER_1
 10
114.323
 20
96.7658
  0
VERTEX
  8
LAYER_1
 10
114.7878
 20
95.031
  0
VERTEX
  8
LAYER_1
 10
115.2526
 20
96.7658
  0
SEQEND
  0
POLYLINE
  8
LAYER_1
 40
0.0882
 41
0.0882
 66
1
 10
0
 20
0
 30
0
  0
VERTEX
  8
LAYER_1
 10
121.9616
 20
86.0402
  0
VERTEX
  8
LAYER_1
 10
113.7949
 20
86.0402
  0
SEQEND
  0
POLYLINE
  8
LAYER_1
 40
0.0882
 41
0.0882
 66
1
 10
0
 20
0
 30
0
  0
VERTEX
  8
LAYER_1
 10
126.2621
 20
94.9075
  0
VERTEX
  8
LAYER_1
 10
113.7951
 20
94.9075
  0
SEQEND
  0
POLYLINE
  8
LAYER_1
 40
0.0882
 41
0.0882
 66
1
 10
0
 20
0
 30
0
  0
VERTEX
  8
LAYER_1
 10
114.7878
 20
87.5726
  0
VERTEX
  8
LAYER_1
 10
114.7878
 20
93.4184
  0
SEQEND
  0
POLYLINE
  8
LAYER_1
 40
0.05
 41
0.05
 66
1
 10
0
 20
0
 30
0
 70
1
  0
VERTEX
  8
LAYER_1
 10
114.3228
 20
87.8901
  0
VERTEX
  8
LAYER_1
 10
114.7876
 20
86.1553
  0
VERTEX
  8
LAYER_1
 10
115.2524
 20
87.8901
  0
SEQEND
  0
POLYLINE
  8
LAYER_1
 40
0.05
 41
0.05
 66
1
 10
0
 20
0
 30
0
 70
1
  0
VERTEX
  8
LAYER_1
 10
115.2527
 20
93.1015
  0
VERTEX
  8
LAYER_1
 10
114.7879
 20
94.8363
  0
VERTEX
  8
LAYER_1
 10
114.3231
 20
93.1015
  0
SEQEND
  0
POLYLINE
  8
LAYER_1
 40
0.0882
 41
0.0882
 66
1
 10
0
 20
0
 30
0
  0
VERTEX
  8
LAYER_1
 10
180.8471
 20
147.6367
  0
VERTEX
  8
LAYER_1
 10
180.8471
 20
159.8325
  0
SEQEND
  0
POLYLINE
  8
LAYER_1
 40
0.0882
 41
0.0882
 66
1
 10
0
 20
0
 30
0
  0
VERTEX
  8
LAYER_1
 10
121.7116
 20
147.6367
  0
VERTEX
  8
LAYER_1
 10
121.7116
 20
159.8325
  0
SEQEND
  0
POLYLINE
  8
LAYER_1
 40
0.0882
 41
0.0882
 66
1
 10
0
 20
0
 30
0
  0
VERTEX
  8
LAYER_1
 10
179.2782
 20
158.8482
  0
VERTEX
  8
LAYER_1
 10
123.2775
 20
158.8482
  0
SEQEND
  0
POLYLINE
  8
LAYER_1
 40
0.05
 41
0.05
 66
1
 10
0
 20
0
 30
0
 70
1
  0
VERTEX
  8
LAYER_1
 10
178.961
 20
159.3132
  0
VERTEX
  8
LAYER_1
 10
180.6964
 20
158.8484
  0
VERTEX
  8
LAYER_1
 10
178.961
 20
158.3835
  0
SEQEND
  0
POLYLINE
  8
LAYER_1
 40
0.05
 41
0.05
 66
1
 10
0
 20
0
 30
0
 70
1
  0
VERTEX
  8
LAYER_1
 10
123.5947
 20
159.3132
  0
VERTEX
  8
LAYER_1
 10
121.8598
 20
158.8484
  0
VERTEX
  8
LAYER_1
 10
123.5947
 20
158.3835
  0
SEQEND
  0
POLYLINE
  8
LAYER_1
 40
0.0882
 41
0.0882
 66
1
 10
0
 20
0
 30
0
  0
VERTEX
  8
LAYER_1
 10
128.1181
 20
142.9351
  0
VERTEX
  8
LAYER_1
 10
128.1181
 20
154.3016
  0
SEQEND
  0
POLYLINE
  8
LAYER_1
 40
0.0882
 41
0.0882
 66
1
 10
0
 20
0
 30
0
  0
VERTEX
  8
LAYER_1
 10
174.4405
 20
142.9351
  0
VERTEX
  8
LAYER_1
 10
174.4405
 20
154.3016
  0
SEQEND
  0
POLYLINE
  8
LAYER_1
 40
0.0882
 41
0.0882
 66
1
 10
0
 20
0
 30
0
  0
VERTEX
  8
LAYER_1
 10
129.6845
 20
153.3174
  0
VERTEX
  8
LAYER_1
 10
172.8715
 20
153.3174
  0
SEQEND
  0
POLYLINE
  8
LAYER_1
 40
0.05
 41
0.05
 66
1
 10
0
 20
0
 30
0
 70
1
  0
VERTEX
  8
LAYER_1
 10
130.0012
 20
152.8527
  0
VERTEX
  8
LAYER_1
 10
128.2664
 20
153.3175
  0
VERTEX
  8
LAYER_1
 10
130.0012
 20
153.7823
  0
SEQEND
  0
POLYLINE
  8
LAYER_1
 40
0.05
 41
0.05
 66
1
 10
0
 20
0
 30
0
 70
1
  0
VERTEX
  8
LAYER_1
 10
172.5544
 20
152.8527
  0
VERTEX
  8
LAYER_1
 10
174.2899
 20
153.3175
  0
VERTEX
  8
LAYER_1
 10
172.5544
 20
153.7823
  0
SEQEND
  0
POLYLINE
  8
LAYER_1
 40
0.0882
 41
0.0882
 66
1
 10
0
 20
0
 30
0
  0
VERTEX
  8
LAYER_1
 10
123.2086
 20
153.3174
  0
VERTEX
  8
LAYER_1
 10
126.6141
 20
153.3174
  0
SEQEND
  0
POLYLINE
  8
LAYER_1
 40
0.05
 41
0.05
 66
1
 10
0
 20
0
 30
0
 70
1
  0
VERTEX
  8
LAYER_1
 10
123.5254
 20
152.8527
  0
VERTEX
  8
LAYER_1
 10
121.7906
 20
153.3175
  0
VERTEX
  8
LAYER_1
 10
123.5254
 20
153.7823
  0
SEQEND
  0
POLYLINE
  8
LAYER_1
 40
0.05
 41
0.05
 66
1
 10
0
 20
0
 30
0
 70
1
  0
VERTEX
  8
LAYER_1
 10
126.2971
 20
152.8527
  0
VERTEX
  8
LAYER_1
 10
128.0325
 20
153.3175
  0
VERTEX
  8
LAYER_1
 10
126.2971
 20
153.7823
  0
SEQEND
  0
TEXT
  8
LAYER_1
 10
107.9288
 20
113.753
 11
107.9288
 21
113.753
 40
4.3636
 41
0.5
 50
89.99999999
  1
600
  0
TEXT
  8
LAYER_1
 10
114.3679
 20
112.3009
 11
114.3679
 21
112.3009
 40
4.3636
 41
0.5
 50
89.99999999
  1
P450
  0
TEXT
  8
LAYER_1
 10
114.3675
 20
87.6079
 11
114.3675
 21
87.6079
 40
4.3636
 41
0.5
 50
89.99999999
  1
75
  0
TEXT
  8
LAYER_1
 10
146.9287
 20
159.5267
 11
146.9287
 21
159.5267
 40
4.3636
 41
0.5
  1
600
  0
TEXT
  8
LAYER_1
 10
145.4769
 20
153.751
 11
145.4769
 21
153.751
 40
4.3636
 41
0.5
  1
P490
  0
TEXT
  8
LAYER_1
 10
122.0227
 20
153.751
 11
122.0227
 21
153.751
 40
4.3636
 41
0.5
  1
55
  0
POLYLINE
  8
LAYER_1
 40
0.1482
 41
0.1482
 66
1
 10
0
 20
0
 30
0
  0
VERTEX
  8
LAYER_1
 10
121.7128
 20
196.4587
  0
VERTEX
  8
LAYER_1
 10
180.8485
 20
196.4587
  0
SEQEND
  0
POLYLINE
  8
LAYER_1
 40
0.1482
 41
0.1482
 66
1
 10
0
 20
0
 30
0
  0
VERTEX
  8
LAYER_1
 10
110.7016
 20
210.398
  0
VERTEX
  8
LAYER_1
 10
191.3841
 20
210.398
  0
SEQEND
  0
POLYLINE
  8
LAYER_1
 40
0.1482
 41
0.1482
 66
1
 10
0
 20
0
 30
0
  0
VERTEX
  8
LAYER_1
 10
110.7016
 20
211.6328
  0
VERTEX
  8
LAYER_1
 10
191.3841
 20
211.6328
  0
SEQEND
  0
POLYLINE
  8
LAYER_1
 40
0.1482
 41
0.1482
 66
1
 10
0
 20
0
 30
0
  0
VERTEX
  8
LAYER_1
 10
110.7016
 20
212.5169
  0
VERTEX
  8
LAYER_1
 10
191.3841
 20
212.5169
  0
SEQEND
  0
INSERT
  8
LAYER_1
  2
AIGNBL0101000B
 10
0
 20
0
 30
0
  0
POLYLINE
  8
LAYER_1
 40
0.0882
 41
0.0882
 66
1
 10
0
 20
0
 30
0
  0
VERTEX
  8
LAYER_1
 10
151.4515
 20
195.3158
  0
VERTEX
  8
LAYER_1
 10
151.3264
 20
195.3158
  0
SEQEND
  0
POLYLINE
  8
LAYER_1
 40
0.0882
 41
0.0882
 66
1
 10
0
 20
0
 30
0
  0
VERTEX
  8
LAYER_1
 10
151.3264
 20
195.1992
  0
VERTEX
  8
LAYER_1
 10
151.2344
 20
195.1992
  0
SEQEND
  0
POLYLINE
  8
LAYER_1
 40
0.0882
 41
0.0882
 66
1
 10
0
 20
0
 30
0
  0
VERTEX
  8
LAYER_1
 10
151.3264
 20
195.1992
  0
VERTEX
  8
LAYER_1
 10
151.3264
 20
195.316
  0
SEQEND
  0
POLYLINE
  8
LAYER_1
 40
0.0882
 41
0.0882
 66
1
 10
0
 20
0
 30
0
  0
VERTEX
  8
LAYER_1
 10
151.4515
 20
195.4161
  0
VERTEX
  8
LAYER_1
 10
151.4515
 20
195.3157
  0
SEQEND
  0
POLYLINE
  8
LAYER_1
 40
0.0882
 41
0.0882
 66
1
 10
0
 20
0
 30
0
  0
VERTEX
  8
LAYER_1
 10
151.4515
 20
195.4161
  0
VERTEX
  8
LAYER_1
 10
151.3264
 20
195.4161
  0
VERTEX
  8
LAYER_1
 10
151.3264
 20
195.5329
  0
SEQEND
  0
POLYLINE
  8
LAYER_1
 40
0.0882
 41
0.0882
 66
1
 10
0
 20
0
 30
0
  0
VERTEX
  8
LAYER_1
 10
151.2347
 20
195.4161
  0
VERTEX
  8
LAYER_1
 10
151.1096
 20
195.4161
  0
SEQEND
  0
POLYLINE
  8
LAYER_1
 40
0.0882
 41
0.0882
 66
1
 10
0
 20
0
 30
0
  0
VERTEX
  8
LAYER_1
 10
151.2347
 20
195.4161
  0
VERTEX
  8
LAYER_1
 10
151.2347
 20
195.5329
  0
VERTEX
  8
LAYER_1
 10
151.3262
 20
195.5329
  0
SEQEND
  0
POLYLINE
  8
LAYER_1
 40
0.0882
 41
0.0882
 66
1
 10
0
 20
0
 30
0
  0
VERTEX
  8
LAYER_1
 10
151.2347
 20
195.3158
  0
VERTEX
  8
LAYER_1
 10
151.1096
 20
195.3158
  0
VERTEX
  8
LAYER_1
 10
151.1096
 20
195.4162
  0
SEQEND
  0
POLYLINE
  8
LAYER_1
 40
0.0882
 41
0.0882
 66
1
 10
0
 20
0
 30
0
  0
VERTEX
  8
LAYER_1
 10
151.2347
 20
195.1992
  0
VERTEX
  8
LAYER_1
 10
151.2347
 20
195.316
  0
SEQEND
  0
POLYLINE
  8
LAYER_1
 40
0.1482
 41
0.1482
 66
1
 10
0
 20
0
 30
0
  0
VERTEX
  8
LAYER_1
 10
180.8483
 20
196.4587
  0
VERTEX
  8
LAYER_1
 10
180.8483
 20
210.3982
  0
SEQEND
  0
POLYLINE
  8
LAYER_1
 40
0.1482
 41
0.1482
 66
1
 10
0
 20
0
 30
0
  0
VERTEX
  8
LAYER_1
 10
179.3721
 20
196.4587
  0
VERTEX
  8
LAYER_1
 10
179.3721
 20
210.3982
  0
SEQEND
  0
POLYLINE
  8
LAYER_1
 40
0.1482
 41
0.1482
 66
1
 10
0
 20
0
 30
0
  0
VERTEX
  8
LAYER_1
 10
121.7128
 20
196.4587
  0
VERTEX
  8
LAYER_1
 10
121.7128
 20
210.3982
  0
SEQEND
  0
POLYLINE
  8
LAYER_1
 40
0.1482
 41
0.1482
 66
1
 10
0
 20
0
 30
0
  0
VERTEX
  8
LAYER_1
 10
123.1893
 20
196.4587
  0
VERTEX
  8
LAYER_1
 10
123.1893
 20
210.3982
  0
SEQEND
  0
POLYLINE
  8
LAYER_1
 40
0.1482
 41
0.1482
 66
1
 10
0
 20
0
 30
0
  0
VERTEX
  8
LAYER_1
 10
121.9129
 20
194.6236
  0
VERTEX
  8
LAYER_1
 10
121.963
 20
194.6236
  0
SEQEND
  0
POLYLINE
  8
LAYER_1
 40
0.1482
 41
0.1482
 66
1
 10
0
 20
0
 30
0
  0
VERTEX
  8
LAYER_1
 10
180.5982
 20
194.6236
  0
VERTEX
  8
LAYER_1
 10
180.6484
 20
194.6236
  0
VERTEX
  8
LAYER_1
 10
180.6484
 20
196.1089
  0
SEQEND
  0
POLYLINE
  8
LAYER_1
 40
0.1482
 41
0.1482
 66
1
 10
0
 20
0
 30
0
  0
VERTEX
  8
LAYER_1
 10
121.9129
 20
196.1084
  0
VERTEX
  8
LAYER_1
 10
180.6484
 20
196.1084
  0
SEQEND
  0
POLYLINE
  8
LAYER_1
 40
0.1482
 41
0.1482
 66
1
 10
0
 20
0
 30
0
  0
VERTEX
  8
LAYER_1
 10
121.9632
 20
194.1313
  0
VERTEX
  8
LAYER_1
 10
180.5984
 20
194.1313
  0
SEQEND
  0
POLYLINE
  8
LAYER_1
 40
0.1482
 41
0.1482
 66
1
 10
0
 20
0
 30
0
  0
VERTEX
  8
LAYER_1
 10
121.9632
 20
194.1313
  0
VERTEX
  8
LAYER_1
 10
121.9632
 20
196.1087
  0
SEQEND
  0
POLYLINE
  8
LAYER_1
 40
0.1482
 41
0.1482
 66
1
 10
0
 20
0
 30
0
  0
VERTEX
  8
LAYER_1
 10
180.5982
 20
194.1313
  0
VERTEX
  8
LAYER_1
 10
180.5982
 20
196.1087
  0
SEQEND
  0
POLYLINE
  8
LAYER_1
 40
0.1482
 41
0.1482
 66
1
 10
0
 20
0
 30
0
  0
VERTEX
  8
LAYER_1
 10
121.9129
 20
196.1084
  0
VERTEX
  8
LAYER_1
 10
121.9129
 20
194.6232
  0
SEQEND
  0
INSERT
  8
LAYER_1
  2
AIGNBL0101000C
 10
0
 20
0
 30
0
  0
POLYLINE
  8
LAYER_1
 40
0.0882
 41
0.0882
 66
1
 10
0
 20
0
 30
0
  0
VERTEX
  8
LAYER_1
 10
125.0328
 20
195.3158
  0
VERTEX
  8
LAYER_1
 10
124.916
 20
195.3158
  0
SEQEND
  0
POLYLINE
  8
LAYER_1
 40
0.0882
 41
0.0882
 66
1
 10
0
 20
0
 30
0
  0
VERTEX
  8
LAYER_1
 10
124.9161
 20
195.1992
  0
VERTEX
  8
LAYER_1
 10
124.8158
 20
195.1992
  0
SEQEND
  0
POLYLINE
  8
LAYER_1
 40
0.0882
 41
0.0882
 66
1
 10
0
 20
0
 30
0
  0
VERTEX
  8
LAYER_1
 10
124.9161
 20
195.1992
  0
VERTEX
  8
LAYER_1
 10
124.9161
 20
195.316
  0
SEQEND
  0
POLYLINE
  8
LAYER_1
 40
0.0882
 41
0.0882
 66
1
 10
0
 20
0
 30
0
  0
VERTEX
  8
LAYER_1
 10
125.0328
 20
195.4161
  0
VERTEX
  8
LAYER_1
 10
125.0328
 20
195.3157
  0
SEQEND
  0
POLYLINE
  8
LAYER_1
 40
0.0882
 41
0.0882
 66
1
 10
0
 20
0
 30
0
  0
VERTEX
  8
LAYER_1
 10
125.0328
 20
195.4161
  0
VERTEX
  8
LAYER_1
 10
124.916
 20
195.4161
  0
VERTEX
  8
LAYER_1
 10
124.916
 20
195.5329
  0
SEQEND
  0
POLYLINE
  8
LAYER_1
 40
0.0882
 41
0.0882
 66
1
 10
0
 20
0
 30
0
  0
VERTEX
  8
LAYER_1
 10
124.8158
 20
195.4161
  0
VERTEX
  8
LAYER_1
 10
124.699
 20
195.4161
  0
SEQEND
  0
POLYLINE
  8
LAYER_1
 40
0.0882
 41
0.0882
 66
1
 10
0
 20
0
 30
0
  0
VERTEX
  8
LAYER_1
 10
124.8158
 20
195.4161
  0
VERTEX
  8
LAYER_1
 10
124.8158
 20
195.5329
  0
VERTEX
  8
LAYER_1
 10
124.9162
 20
195.5329
  0
SEQEND
  0
POLYLINE
  8
LAYER_1
 40
0.0882
 41
0.0882
 66
1
 10
0
 20
0
 30
0
  0
VERTEX
  8
LAYER_1
 10
124.8158
 20
195.3158
  0
VERTEX
  8
LAYER_1
 10
124.699
 20
195.3158
  0
VERTEX
  8
LAYER_1
 10
124.699
 20
195.4162
  0
SEQEND
  0
POLYLINE
  8
LAYER_1
 40
0.0882
 41
0.0882
 66
1
 10
0
 20
0
 30
0
  0
VERTEX
  8
LAYER_1
 10
124.8158
 20
195.1992
  0
VERTEX
  8
LAYER_1
 10
124.8158
 20
195.316
  0
SEQEND
  0
INSERT
  8
LAYER_1
  2
AIGNBL0101000D
 10
0
 20
0
 30
0
  0
POLYLINE
  8
LAYER_1
 40
0.0882
 41
0.0882
 66
1
 10
0
 20
0
 30
0
  0
VERTEX
  8
LAYER_1
 10
177.8621
 20
195.3158
  0
VERTEX
  8
LAYER_1
 10
177.7452
 20
195.3158
  0
SEQEND
  0
POLYLINE
  8
LAYER_1
 40
0.0882
 41
0.0882
 66
1
 10
0
 20
0
 30
0
  0
VERTEX
  8
LAYER_1
 10
177.7453
 20
195.1992
  0
VERTEX
  8
LAYER_1
 10
177.6456
 20
195.1992
  0
SEQEND
  0
POLYLINE
  8
LAYER_1
 40
0.0882
 41
0.0882
 66
1
 10
0
 20
0
 30
0
  0
VERTEX
  8
LAYER_1
 10
177.7453
 20
195.1992
  0
VERTEX
  8
LAYER_1
 10
177.7453
 20
195.316
  0
SEQEND
  0
POLYLINE
  8
LAYER_1
 40
0.0882
 41
0.0882
 66
1
 10
0
 20
0
 30
0
  0
VERTEX
  8
LAYER_1
 10
177.8621
 20
195.4161
  0
VERTEX
  8
LAYER_1
 10
177.8621
 20
195.3157
  0
SEQEND
  0
POLYLINE
  8
LAYER_1
 40
0.0882
 41
0.0882
 66
1
 10
0
 20
0
 30
0
  0
VERTEX
  8
LAYER_1
 10
177.8621
 20
195.4161
  0
VERTEX
  8
LAYER_1
 10
177.7452
 20
195.4161
  0
VERTEX
  8
LAYER_1
 10
177.7452
 20
195.5329
  0
SEQEND
  0
POLYLINE
  8
LAYER_1
 40
0.0882
 41
0.0882
 66
1
 10
0
 20
0
 30
0
  0
VERTEX
  8
LAYER_1
 10
177.6453
 20
195.4161
  0
VERTEX
  8
LAYER_1
 10
177.5279
 20
195.4161
  0
SEQEND
  0
POLYLINE
  8
LAYER_1
 40
0.0882
 41
0.0882
 66
1
 10
0
 20
0
 30
0
  0
VERTEX
  8
LAYER_1
 10
177.6453
 20
195.4161
  0
VERTEX
  8
LAYER_1
 10
177.6453
 20
195.5329
  0
VERTEX
  8
LAYER_1
 10
177.745
 20
195.5329
  0
SEQEND
  0
POLYLINE
  8
LAYER_1
 40
0.0882
 41
0.0882
 66
1
 10
0
 20
0
 30
0
  0
VERTEX
  8
LAYER_1
 10
177.6453
 20
195.3158
  0
VERTEX
  8
LAYER_1
 10
177.5279
 20
195.3158
  0
VERTEX
  8
LAYER_1
 10
177.5279
 20
195.4162
  0
SEQEND
  0
POLYLINE
  8
LAYER_1
 40
0.0882
 41
0.0882
 66
1
 10
0
 20
0
 30
0
  0
VERTEX
  8
LAYER_1
 10
177.6453
 20
195.1992
  0
VERTEX
  8
LAYER_1
 10
177.6453
 20
195.316
  0
SEQEND
  0
POLYLINE
  8
LAYER_1
 40
0.0882
 41
0.0882
 66
1
 10
0
 20
0
 30
0
  0
VERTEX
  8
LAYER_1
 10
178.0121
 20
198.4359
  0
VERTEX
  8
LAYER_1
 10
179.3455
 20
198.4359
  0
SEQEND
  0
POLYLINE
  8
LAYER_1
  6
AIGENLINE005
 40
0.0882
 41
0.0882
 66
1
 10
0
 20
0
 30
0
 70
128
  0
VERTEX
  8
LAYER_1
 10
179.9451
 20
198.4359
  0
VERTEX
  8
LAYER_1
 10
180.5439
 20
198.4359
  0
SEQEND
  0
POLYLINE
  8
LAYER_1
 40
0.0882
 41
0.0882
 66
1
 10
0
 20
0
 30
0
  0
VERTEX
  8
LAYER_1
 10
180.8437
 20
198.4359
  0
VERTEX
  8
LAYER_1
 10
182.1772
 20
198.4359
  0
SEQEND
  0
INSERT
  8
LAYER_1
  2
AIGNBL0101000E
 10
0
 20
0
 30
0
  0
POLYLINE
  8
LAYER_1
 40
0.0882
 41
0.0882
 66
1
 10
0
 20
0
 30
0
  0
VERTEX
  8
LAYER_1
 10
193.0463
 20
140.1611
  0
VERTEX
  8
LAYER_1
 10
193.1847
 20
139.6462
  0
SEQEND
  0
POLYLINE
  8
LAYER_1
 40
0.0882
 41
0.0882
 66
1
 10
0
 20
0
 30
0
  0
VERTEX
  8
LAYER_1
 10
193.2327
 20
139.4652
  0
VERTEX
  8
LAYER_1
 10
193.3711
 20
138.9502
  0
SEQEND
  0
INSERT
  8
LAYER_1
  2
AIGNBL0101000F
 10
0
 20
0
 30
0
  0
POLYLINE
  8
LAYER_1
 40
0.0882
 41
0.0882
 66
1
 10
0
 20
0
 30
0
  0
VERTEX
  8
LAYER_1
 10
194.737
 20
139.1765
  0
VERTEX
  8
LAYER_1
 10
195.2526
 20
139.3131
  0
VERTEX
  8
LAYER_1
 10
195.1148
 20
139.828
  0
SEQEND
  0
POLYLINE
  8
LAYER_1
  6
AIGENLINE006
 40
0.0882
 41
0.0882
 66
1
 10
0
 20
0
 30
0
 70
128
  0
VERTEX
  8
LAYER_1
 10
194.8334
 20
140.8773
  0
VERTEX
  8
LAYER_1
 10
180.3376
 20
194.9088
  0
SEQEND
  0
POLYLINE
  8
LAYER_1
 40
0.0882
 41
0.0882
 66
1
 10
0
 20
0
 30
0
  0
VERTEX
  8
LAYER_1
 10
180.1972
 20
195.4333
  0
VERTEX
  8
LAYER_1
 10
180.0588
 20
195.9483
  0
VERTEX
  8
LAYER_1
 10
179.5425
 20
195.8118
  0
SEQEND
  0
POLYLINE
  8
LAYER_1
 40
0.0882
 41
0.0882
 66
1
 10
0
 20
0
 30
0
  0
VERTEX
  8
LAYER_1
 10
178.7257
 20
195.5961
  0
VERTEX
  8
LAYER_1
 10
178.2101
 20
195.4602
  0
VERTEX
  8
LAYER_1
 10
178.3485
 20
194.9446
  0
SEQEND
  0
POLYLINE
  8
LAYER_1
  6
AIGENLINE007
 40
0.0882
 41
0.0882
 66
1
 10
0
 20
0
 30
0
 70
128
  0
VERTEX
  8
LAYER_1
 10
178.623
 20
193.9206
  0
VERTEX
  8
LAYER_1
 10
192.7701
 20
141.1883
  0
SEQEND
  0
INSERT
  8
LAYER_1
  2
AIGNBL01010010
 10
0
 20
0
 30
0
  0
POLYLINE
  8
LAYER_1
 40
0.0882
 41
0.0882
 66
1
 10
0
 20
0
 30
0
  0
VERTEX
  8
LAYER_1
 10
174.4418
 20
208.0792
  0
VERTEX
  8
LAYER_1
 10
174.4418
 20
210.2128
  0
SEQEND
  0
POLYLINE
  8
LAYER_1
  6
AIGENLINE008
 40
0.0882
 41
0.0882
 66
1
 10
0
 20
0
 30
0
 70
128
  0
VERTEX
  8
LAYER_1
 10
174.4418
 20
211.0584
  0
VERTEX
  8
LAYER_1
 10
174.4418
 20
211.9042
  0
SEQEND
  0
POLYLINE
  8
LAYER_1
 40
0.0882
 41
0.0882
 66
1
 10
0
 20
0
 30
0
  0
VERTEX
  8
LAYER_1
 10
174.4418
 20
212.3273
  0
VERTEX
  8
LAYER_1
 10
174.4418
 20
214.4609
  0
SEQEND
  0
POLYLINE
  8
LAYER_1
 40
0.0882
 41
0.0882
 66
1
 10
0
 20
0
 30
0
  0
VERTEX
  8
LAYER_1
 10
128.1194
 20
208.0539
  0
VERTEX
  8
LAYER_1
 10
128.1194
 20
210.1875
  0
SEQEND
  0
POLYLINE
  8
LAYER_1
  6
AIGENLINE009
 40
0.0882
 41
0.0882
 66
1
 10
0
 20
0
 30
0
 70
128
  0
VERTEX
  8
LAYER_1
 10
128.1194
 20
211.0168
  0
VERTEX
  8
LAYER_1
 10
128.1194
 20
211.8462
  0
SEQEND
  0
POLYLINE
  8
LAYER_1
 40
0.0882
 41
0.0882
 66
1
 10
0
 20
0
 30
0
  0
VERTEX
  8
LAYER_1
 10
128.1194
 20
212.2607
  0
VERTEX
  8
LAYER_1
 10
128.1194
 20
214.3943
  0
SEQEND
  0
POLYLINE
  8
LAYER_1
 40
0.0882
 41
0.0882
 66
1
 10
0
 20
0
 30
0
  0
VERTEX
  8
LAYER_1
 10
124.5491
 20
198.4359
  0
VERTEX
  8
LAYER_1
 10
123.2156
 20
198.4359
  0
SEQEND
  0
POLYLINE
  8
LAYER_1
  6
AIGENLINE010
 40
0.0882
 41
0.0882
 66
1
 10
0
 20
0
 30
0
 70
128
  0
VERTEX
  8
LAYER_1
 10
122.664
 20
198.4359
  0
VERTEX
  8
LAYER_1
 10
122.1122
 20
198.4359
  0
SEQEND
  0
POLYLINE
  8
LAYER_1
 40
0.0882
 41
0.0882
 66
1
 10
0
 20
0
 30
0
  0
VERTEX
  8
LAYER_1
 10
121.8366
 20
198.4359
  0
VERTEX
  8
LAYER_1
 10
120.5031
 20
198.4359
  0
SEQEND
  0
POLYLINE
  8
LAYER_1
 40
0.0882
 41
0.0882
 66
1
 10
0
 20
0
 30
0
  0
VERTEX
  8
LAYER_1
 10
124.5491
 20
206.3188
  0
VERTEX
  8
LAYER_1
 10
123.2156
 20
206.3188
  0
SEQEND
  0
POLYLINE
  8
LAYER_1
  6
AIGENLINE010
 40
0.0882
 41
0.0882
 66
1
 10
0
 20
0
 30
0
 70
128
  0
VERTEX
  8
LAYER_1
 10
122.664
 20
206.3188
  0
VERTEX
  8
LAYER_1
 10
122.1122
 20
206.3188
  0
SEQEND
  0
POLYLINE
  8
LAYER_1
 40
0.0882
 41
0.0882
 66
1
 10
0
 20
0
 30
0
  0
VERTEX
  8
LAYER_1
 10
121.8366
 20
206.3188
  0
VERTEX
  8
LAYER_1
 10
120.5031
 20
206.3188
  0
SEQEND
  0
POLYLINE
  8
LAYER_1
 40
0.0882
 41
0.0882
 66
1
 10
0
 20
0
 30
0
  0
VERTEX
  8
LAYER_1
 10
178.0121
 20
206.3188
  0
VERTEX
  8
LAYER_1
 10
179.3455
 20
206.3188
  0
SEQEND
  0
POLYLINE
  8
LAYER_1
  6
AIGENLINE005
 40
0.0882
 41
0.0882
 66
1
 10
0
 20
0
 30
0
 70
128
  0
VERTEX
  8
LAYER_1
 10
179.9451
 20
206.3188
  0
VERTEX
  8
LAYER_1
 10
180.5439
 20
206.3188
  0
SEQEND
  0
POLYLINE
  8
LAYER_1
 40
0.0882
 41
0.0882
 66
1
 10
0
 20
0
 30
0
  0
VERTEX
  8
LAYER_1
 10
180.8437
 20
206.3188
  0
VERTEX
  8
LAYER_1
 10
182.1772
 20
206.3188
  0
SEQEND
  0
INSERT
  8
LAYER_1
  2
AIGNBL01010011
 10
0
 20
0
 30
0
  0
POLYLINE
  8
LAYER_1
 40
0.0882
 41
0.0882
 66
1
 10
0
 20
0
 30
0
  0
VERTEX
  8
LAYER_1
 10
203.5387
 20
208.9472
  0
VERTEX
  8
LAYER_1
 10
203.5387
 20
140.1869
  0
SEQEND
  0
POLYLINE
  8
LAYER_1
 40
0.05
 41
0.05
 66
1
 10
0
 20
0
 30
0
 70
1
  0
VERTEX
  8
LAYER_1
 10
203.0735
 20
208.63
  0
VERTEX
  8
LAYER_1
 10
203.5383
 20
210.3649
  0
VERTEX
  8
LAYER_1
 10
204.0031
 20
208.63
  0
SEQEND
  0
POLYLINE
  8
LAYER_1
 40
0.05
 41
0.05
 66
1
 10
0
 20
0
 30
0
 70
1
  0
VERTEX
  8
LAYER_1
 10
203.0733
 20
140.5035
  0
VERTEX
  8
LAYER_1
 10
203.5381
 20
138.7687
  0
VERTEX
  8
LAYER_1
 10
204.0029
 20
140.5035
  0
SEQEND
  0
POLYLINE
  8
LAYER_1
 40
0.0882
 41
0.0882
 66
1
 10
0
 20
0
 30
0
  0
VERTEX
  8
LAYER_1
 10
180.8483
 20
210.398
  0
VERTEX
  8
LAYER_1
 10
180.8483
 20
218.6403
  0
SEQEND
  0
POLYLINE
  8
LAYER_1
 40
0.0882
 41
0.0882
 66
1
 10
0
 20
0
 30
0
  0
VERTEX
  8
LAYER_1
 10
195.2631
 20
139.3417
  0
VERTEX
  8
LAYER_1
 10
195.2631
 20
218.6399
  0
SEQEND
  0
POLYLINE
  8
LAYER_1
 40
0.0882
 41
0.0882
 66
1
 10
0
 20
0
 30
0
  0
VERTEX
  8
LAYER_1
 10
182.3949
 20
217.6557
  0
VERTEX
  8
LAYER_1
 10
193.795
 20
217.6557
  0
SEQEND
  0
POLYLINE
  8
LAYER_1
 40
0.05
 41
0.05
 66
1
 10
0
 20
0
 30
0
 70
1
  0
VERTEX
  8
LAYER_1
 10
182.7122
 20
217.1907
  0
VERTEX
  8
LAYER_1
 10
180.9767
 20
217.6555
  0
VERTEX
  8
LAYER_1
 10
182.7122
 20
218.1204
  0
SEQEND
  0
POLYLINE
  8
LAYER_1
 40
0.05
 41
0.05
 66
1
 10
0
 20
0
 30
0
 70
1
  0
VERTEX
  8
LAYER_1
 10
193.4775
 20
217.1907
  0
VERTEX
  8
LAYER_1
 10
195.2124
 20
217.6555
  0
VERTEX
  8
LAYER_1
 10
193.4775
 20
218.1204
  0
SEQEND
  0
INSERT
  8
LAYER_1
  2
AIGNBL01010012
 10
0
 20
0
 30
0
  0
POLYLINE
  8
LAYER_1
 40
0.05
 41
0.05
 66
1
 10
0
 20
0
 30
0
 70
1
  0
VERTEX
  8
LAYER_1
 10
146.9248
 20
192.1126
  0
VERTEX
  8
LAYER_1
 10
147.1864
 20
193.8894
  0
VERTEX
  8
LAYER_1
 10
147.8481
 20
192.2206
  0
SEQEND
  0
POLYLINE
  8
LAYER_1
 40
0.05
 41
0.05
 66
1
 10
0
 20
0
 30
0
 70
1
  0
VERTEX
  8
LAYER_1
 10
184.8711
 20
163.2299
  0
VERTEX
  8
LAYER_1
 10
186.484
 20
164.0186
  0
VERTEX
  8
LAYER_1
 10
184.6927
 20
164.1418
  0
SEQEND
  0
TEXT
  8
LAYER_1
 10
179.9044
 20
219.4286
 11
179.9044
 21
219.4286
 40
4.3636
 41
0.5
  1
（155）
  0
TEXT
  8
LAYER_1
 10
202.7513
 20
166.452
 11
202.7513
 21
166.452
 40
4.3636
 41
0.5
 50
89.99999999
  1
（730）
  0
TEXT
  8
LAYER_1
 10
157.3944
 20
173.0047
 11
157.3944
 21
173.0047
 40
4.3636
 41
0.5
 50
322.697742
  1
105%%d
  0
POLYLINE
  8
LAYER_1
 40
0.1482
 41
0.1482
 66
1
 10
0
 20
0
 30
0
  0
VERTEX
  8
LAYER_1
 10
45.5717
 20
150.0055
  0
VERTEX
  8
LAYER_1
 10
45.5717
 20
86.1398
  0
SEQEND
  0
POLYLINE
  8
LAYER_1
 40
0.1482
 41
0.1482
 66
1
 10
0
 20
0
 30
0
  0
VERTEX
  8
LAYER_1
 10
44.0869
 20
86.14
  0
VERTEX
  8
LAYER_1
 10
44.0869
 20
150.0058
  0
VERTEX
  8
LAYER_1
 10
45.5722
 20
150.0058
  0
SEQEND
  0
POLYLINE
  8
LAYER_1
 40
0.1482
 41
0.1482
 66
1
 10
0
 20
0
 30
0
  0
VERTEX
  8
LAYER_1
 10
44.0869
 20
86.14
  0
VERTEX
  8
LAYER_1
 10
45.5722
 20
86.14
  0
SEQEND
  0
POLYLINE
  8
LAYER_1
 40
0.1482
 41
0.1482
 66
1
 10
0
 20
0
 30
0
  0
VERTEX
  8
LAYER_1
 10
43.5946
 20
150.1055
  0
VERTEX
  8
LAYER_1
 10
45.572
 20
150.1055
  0
VERTEX
  8
LAYER_1
 10
45.572
 20
150.0058
  0
VERTEX
  8
LAYER_1
 10
43.6943
 20
150.0058
  0
SEQEND
  0
POLYLINE
  8
LAYER_1
 40
0.1482
 41
0.1482
 66
1
 10
0
 20
0
 30
0
  0
VERTEX
  8
LAYER_1
 10
43.5946
 20
150.1055
  0
VERTEX
  8
LAYER_1
 10
43.5946
 20
149.6051
  0
VERTEX
  8
LAYER_1
 10
43.6943
 20
149.6051
  0
VERTEX
  8
LAYER_1
 10
43.6943
 20
150.0058
  0
SEQEND
  0
POLYLINE
  8
LAYER_1
 40
0.1482
 41
0.1482
 66
1
 10
0
 20
0
 30
0
  0
VERTEX
  8
LAYER_1
 10
43.5946
 20
86.04
  0
VERTEX
  8
LAYER_1
 10
45.572
 20
86.04
  0
VERTEX
  8
LAYER_1
 10
45.572
 20
86.1397
  0
VERTEX
  8
LAYER_1
 10
43.6943
 20
86.1397
  0
SEQEND
  0
POLYLINE
  8
LAYER_1
 40
0.1482
 41
0.1482
 66
1
 10
0
 20
0
 30
0
  0
VERTEX
  8
LAYER_1
 10
43.5946
 20
86.04
  0
VERTEX
  8
LAYER_1
 10
43.5946
 20
86.5322
  0
VERTEX
  8
LAYER_1
 10
43.6943
 20
86.5322
  0
VERTEX
  8
LAYER_1
 10
43.6943
 20
86.1397
  0
SEQEND
  0
POLYLINE
  8
LAYER_1
 40
0.1482
 41
0.1482
 66
1
 10
0
 20
0
 30
0
  0
VERTEX
  8
LAYER_1
 10
43.6946
 20
86.2816
  0
VERTEX
  8
LAYER_1
 10
43.6946
 20
149.8553
  0
SEQEND
  0
POLYLINE
  8
LAYER_1
 40
0.1482
 41
0.1482
 66
1
 10
0
 20
0
 30
0
  0
VERTEX
  8
LAYER_1
 10
43.7446
 20
149.9055
  0
VERTEX
  8
LAYER_1
 10
43.6945
 20
149.8553
  0
SEQEND
  0
POLYLINE
  8
LAYER_1
 40
0.1482
 41
0.1482
 66
1
 10
0
 20
0
 30
0
  0
VERTEX
  8
LAYER_1
 10
43.7446
 20
86.24
  0
VERTEX
  8
LAYER_1
 10
43.6945
 20
86.2813
  0
SEQEND
  0
POLYLINE
  8
LAYER_1
 40
0.1482
 41
0.1482
 66
1
 10
0
 20
0
 30
0
  0
VERTEX
  8
LAYER_1
 10
43.7446
 20
149.9055
  0
VERTEX
  8
LAYER_1
 10
43.9446
 20
149.9055
  0
SEQEND
  0
POLYLINE
  8
LAYER_1
 40
0.1482
 41
0.1482
 66
1
 10
0
 20
0
 30
0
  0
VERTEX
  8
LAYER_1
 10
43.7446
 20
86.24
  0
VERTEX
  8
LAYER_1
 10
43.9446
 20
86.24
  0
SEQEND
  0
POLYLINE
  8
LAYER_1
 40
0.1482
 41
0.1482
 66
1
 10
0
 20
0
 30
0
  0
VERTEX
  8
LAYER_1
 10
43.9949
 20
86.2816
  0
VERTEX
  8
LAYER_1
 10
43.9949
 20
149.8553
  0
SEQEND
  0
POLYLINE
  8
LAYER_1
 40
0.1482
 41
0.1482
 66
1
 10
0
 20
0
 30
0
  0
VERTEX
  8
LAYER_1
 10
43.945
 20
149.9055
  0
VERTEX
  8
LAYER_1
 10
43.9951
 20
149.8553
  0
SEQEND
  0
POLYLINE
  8
LAYER_1
 40
0.1482
 41
0.1482
 66
1
 10
0
 20
0
 30
0
  0
VERTEX
  8
LAYER_1
 10
43.945
 20
86.24
  0
VERTEX
  8
LAYER_1
 10
43.9951
 20
86.2813
  0
SEQEND
  0
INSERT
  8
LAYER_1
  2
AIGNBL01010013
 10
0
 20
0
 30
0
  0
POLYLINE
  8
LAYER_1
 40
0.1482
 41
0.1482
 66
1
 10
0
 20
0
 30
0
  0
VERTEX
  8
LAYER_1
 10
45.922
 20
147.6364
  0
VERTEX
  8
LAYER_1
 10
45.922
 20
88.5008
  0
SEQEND
  0
POLYLINE
  8
LAYER_1
 40
0.1482
 41
0.1482
 66
1
 10
0
 20
0
 30
0
  0
VERTEX
  8
LAYER_1
 10
59.8612
 20
147.6364
  0
VERTEX
  8
LAYER_1
 10
45.9217
 20
147.6364
  0
SEQEND
  0
POLYLINE
  8
LAYER_1
 40
0.1482
 41
0.1482
 66
1
 10
0
 20
0
 30
0
  0
VERTEX
  8
LAYER_1
 10
59.8612
 20
88.5007
  0
VERTEX
  8
LAYER_1
 10
45.9217
 20
88.5007
  0
SEQEND
  0
POLYLINE
  8
LAYER_1
 40
0.1482
 41
0.1482
 66
1
 10
0
 20
0
 30
0
  0
VERTEX
  8
LAYER_1
 10
59.8612
 20
163.1965
  0
VERTEX
  8
LAYER_1
 10
59.8612
 20
81.9863
  0
SEQEND
  0
POLYLINE
  8
LAYER_1
 40
0.1482
 41
0.1482
 66
1
 10
0
 20
0
 30
0
  0
VERTEX
  8
LAYER_1
 10
61.0874
 20
163.1965
  0
VERTEX
  8
LAYER_1
 10
61.0874
 20
81.9863
  0
SEQEND
  0
POLYLINE
  8
LAYER_1
 40
0.1482
 41
0.1482
 66
1
 10
0
 20
0
 30
0
  0
VERTEX
  8
LAYER_1
 10
61.9802
 20
163.1965
  0
VERTEX
  8
LAYER_1
 10
61.9802
 20
81.9863
  0
SEQEND
  0
INSERT
  8
LAYER_1
  2
AIGNBL01010014
 10
0
 20
0
 30
0
  0
POLYLINE
  8
LAYER_1
 40
0.1482
 41
0.1482
 66
1
 10
0
 20
0
 30
0
  0
VERTEX
  8
LAYER_1
 10
59.8612
 20
147.6364
  0
VERTEX
  8
LAYER_1
 10
59.8612
 20
159.8323
  0
SEQEND
  0
POLYLINE
  8
LAYER_1
 40
0.0882
 41
0.0882
 66
1
 10
0
 20
0
 30
0
  0
VERTEX
  8
LAYER_1
 10
54.9627
 20
94.9072
  0
VERTEX
  8
LAYER_1
 10
55.7628
 20
94.9072
  0
SEQEND
  0
POLYLINE
  8
LAYER_1
  6
AIGENLINE011
 40
0.0882
 41
0.0882
 66
1
 10
0
 20
0
 30
0
 70
128
  0
VERTEX
  8
LAYER_1
 10
55.7727
 20
94.9072
  0
VERTEX
  8
LAYER_1
 10
55.788
 20
94.9072
  0
SEQEND
  0
POLYLINE
  8
LAYER_1
 40
0.0882
 41
0.0882
 66
1
 10
0
 20
0
 30
0
  0
VERTEX
  8
LAYER_1
 10
55.7931
 20
94.9072
  0
VERTEX
  8
LAYER_1
 10
56.5932
 20
94.9072
  0
SEQEND
  0
POLYLINE
  8
LAYER_1
 40
0.0882
 41
0.0882
 66
1
 10
0
 20
0
 30
0
  0
VERTEX
  8
LAYER_1
 10
55.7821
 20
94.0962
  0
VERTEX
  8
LAYER_1
 10
55.7821
 20
94.8963
  0
SEQEND
  0
POLYLINE
  8
LAYER_1
  6
AIGENLINE011
 40
0.0882
 41
0.0882
 66
1
 10
0
 20
0
 30
0
 70
128
  0
VERTEX
  8
LAYER_1
 10
55.7821
 20
94.9062
  0
VERTEX
  8
LAYER_1
 10
55.7821
 20
94.9214
  0
SEQEND
  0
POLYLINE
  8
LAYER_1
 40
0.0882
 41
0.0882
 66
1
 10
0
 20
0
 30
0
  0
VERTEX
  8
LAYER_1
 10
55.7821
 20
94.927
  0
VERTEX
  8
LAYER_1
 10
55.7821
 20
95.7271
  0
SEQEND
  0
POLYLINE
  8
LAYER_1
 40
0.0882
 41
0.0882
 66
1
 10
0
 20
0
 30
0
  0
VERTEX
  8
LAYER_1
 10
47.0794
 20
94.9072
  0
VERTEX
  8
LAYER_1
 10
47.8795
 20
94.9072
  0
SEQEND
  0
POLYLINE
  8
LAYER_1
  6
AIGENLINE011
 40
0.0882
 41
0.0882
 66
1
 10
0
 20
0
 30
0
 70
128
  0
VERTEX
  8
LAYER_1
 10
47.8897
 20
94.9072
  0
VERTEX
  8
LAYER_1
 10
47.905
 20
94.9072
  0
SEQEND
  0
POLYLINE
  8
LAYER_1
 40
0.0882
 41
0.0882
 66
1
 10
0
 20
0
 30
0
  0
VERTEX
  8
LAYER_1
 10
47.9103
 20
94.9072
  0
VERTEX
  8
LAYER_1
 10
48.7104
 20
94.9072
  0
SEQEND
  0
POLYLINE
  8
LAYER_1
 40
0.0882
 41
0.0882
 66
1
 10
0
 20
0
 30
0
  0
VERTEX
  8
LAYER_1
 10
47.8907
 20
94.0962
  0
VERTEX
  8
LAYER_1
 10
47.8907
 20
94.8963
  0
SEQEND
  0
POLYLINE
  8
LAYER_1
  6
AIGENLINE011
 40
0.0882
 41
0.0882
 66
1
 10
0
 20
0
 30
0
 70
128
  0
VERTEX
  8
LAYER_1
 10
47.8907
 20
94.9062
  0
VERTEX
  8
LAYER_1
 10
47.8907
 20
94.9214
  0
SEQEND
  0
POLYLINE
  8
LAYER_1
 40
0.0882
 41
0.0882
 66
1
 10
0
 20
0
 30
0
  0
VERTEX
  8
LAYER_1
 10
47.8907
 20
94.927
  0
VERTEX
  8
LAYER_1
 10
47.8907
 20
95.7271
  0
SEQEND
  0
POLYLINE
  8
LAYER_1
 40
0.0882
 41
0.0882
 66
1
 10
0
 20
0
 30
0
  0
VERTEX
  8
LAYER_1
 10
54.8112
 20
141.2299
  0
VERTEX
  8
LAYER_1
 10
55.6113
 20
141.2299
  0
SEQEND
  0
POLYLINE
  8
LAYER_1
  6
AIGENLINE012
 40
0.0882
 41
0.0882
 66
1
 10
0
 20
0
 30
0
 70
128
  0
VERTEX
  8
LAYER_1
 10
55.7227
 20
141.2299
  0
VERTEX
  8
LAYER_1
 10
55.8891
 20
141.2299
  0
SEQEND
  0
POLYLINE
  8
LAYER_1
 40
0.0882
 41
0.0882
 66
1
 10
0
 20
0
 30
0
  0
VERTEX
  8
LAYER_1
 10
55.9446
 20
141.2299
  0
VERTEX
  8
LAYER_1
 10
56.7447
 20
141.2299
  0
SEQEND
  0
POLYLINE
  8
LAYER_1
 40
0.0882
 41
0.0882
 66
1
 10
0
 20
0
 30
0
  0
VERTEX
  8
LAYER_1
 10
55.7821
 20
140.2674
  0
VERTEX
  8
LAYER_1
 10
55.7821
 20
141.0675
  0
SEQEND
  0
POLYLINE
  8
LAYER_1
  6
AIGENLINE012
 40
0.0882
 41
0.0882
 66
1
 10
0
 20
0
 30
0
 70
128
  0
VERTEX
  8
LAYER_1
 10
55.7821
 20
141.1784
  0
VERTEX
  8
LAYER_1
 10
55.7821
 20
141.3448
  0
SEQEND
  0
POLYLINE
  8
LAYER_1
 40
0.0882
 41
0.0882
 66
1
 10
0
 20
0
 30
0
  0
VERTEX
  8
LAYER_1
 10
55.7821
 20
141.4006
  0
VERTEX
  8
LAYER_1
 10
55.7821
 20
142.2007
  0
SEQEND
  0
POLYLINE
  8
LAYER_1
 40
0.0882
 41
0.0882
 66
1
 10
0
 20
0
 30
0
  0
VERTEX
  8
LAYER_1
 10
46.9281
 20
141.2299
  0
VERTEX
  8
LAYER_1
 10
47.7282
 20
141.2299
  0
SEQEND
  0
POLYLINE
  8
LAYER_1
  6
AIGENLINE012
 40
0.0882
 41
0.0882
 66
1
 10
0
 20
0
 30
0
 70
128
  0
VERTEX
  8
LAYER_1
 10
47.8394
 20
141.2299
  0
VERTEX
  8
LAYER_1
 10
48.0058
 20
141.2299
  0
SEQEND
  0
POLYLINE
  8
LAYER_1
 40
0.0882
 41
0.0882
 66
1
 10
0
 20
0
 30
0
  0
VERTEX
  8
LAYER_1
 10
48.0614
 20
141.2299
  0
VERTEX
  8
LAYER_1
 10
48.8615
 20
141.2299
  0
SEQEND
  0
POLYLINE
  8
LAYER_1
 40
0.0882
 41
0.0882
 66
1
 10
0
 20
0
 30
0
  0
VERTEX
  8
LAYER_1
 10
47.8907
 20
140.2674
  0
VERTEX
  8
LAYER_1
 10
47.8907
 20
141.0675
  0
SEQEND
  0
POLYLINE
  8
LAYER_1
  6
AIGENLINE012
 40
0.0882
 41
0.0882
 66
1
 10
0
 20
0
 30
0
 70
128
  0
VERTEX
  8
LAYER_1
 10
47.8907
 20
141.1784
  0
VERTEX
  8
LAYER_1
 10
47.8907
 20
141.3448
  0
SEQEND
  0
POLYLINE
  8
LAYER_1
 40
0.0882
 41
0.0882
 66
1
 10
0
 20
0
 30
0
  0
VERTEX
  8
LAYER_1
 10
47.8907
 20
141.4006
  0
VERTEX
  8
LAYER_1
 10
47.8907
 20
142.2007
  0
SEQEND
  0
POLYLINE
  8
LAYER_1
 40
0.0882
 41
0.0882
 66
1
 10
0
 20
0
 30
0
  0
VERTEX
  8
LAYER_1
 10
37.7746
 20
84.071
  0
VERTEX
  8
LAYER_1
 10
37.7746
 20
78.6259
  0
SEQEND
  0
POLYLINE
  8
LAYER_1
 40
0.0882
 41
0.0882
 66
1
 10
0
 20
0
 30
0
  0
VERTEX
  8
LAYER_1
 10
42.0285
 20
153.3172
  0
VERTEX
  8
LAYER_1
 10
34.512
 20
153.3172
  0
SEQEND
  0
POLYLINE
  8
LAYER_1
 40
0.05
 41
0.05
 66
1
 10
0
 20
0
 30
0
 70
1
  0
VERTEX
  8
LAYER_1
 10
41.7114
 20
153.782
  0
VERTEX
  8
LAYER_1
 10
43.4462
 20
153.3172
  0
VERTEX
  8
LAYER_1
 10
41.7114
 20
152.8524
  0
SEQEND
  0
POLYLINE
  8
LAYER_1
 40
0.0882
 41
0.0882
 66
1
 10
0
 20
0
 30
0
  0
VERTEX
  8
LAYER_1
 10
45.922
 20
88.5007
  0
VERTEX
  8
LAYER_1
 10
36.79
 20
88.5007
  0
SEQEND
  0
POLYLINE
  8
LAYER_1
 40
0.0882
 41
0.0882
 66
1
 10
0
 20
0
 30
0
  0
VERTEX
  8
LAYER_1
 10
43.5946
 20
86.04
  0
VERTEX
  8
LAYER_1
 10
36.7906
 20
86.04
  0
SEQEND
  0
POLYLINE
  8
LAYER_1
 40
0.0882
 41
0.0882
 66
1
 10
0
 20
0
 30
0
  0
VERTEX
  8
LAYER_1
 10
37.7746
 20
88.5544
  0
VERTEX
  8
LAYER_1
 10
37.7746
 20
90.5228
  0
SEQEND
  0
POLYLINE
  8
LAYER_1
 40
0.0882
 41
0.0882
 66
1
 10
0
 20
0
 30
0
  0
VERTEX
  8
LAYER_1
 10
37.7746
 20
88.5007
  0
VERTEX
  8
LAYER_1
 10
37.7746
 20
86.04
  0
SEQEND
  0
POLYLINE
  8
LAYER_1
 40
0.0882
 41
0.0882
 66
1
 10
0
 20
0
 30
0
  0
VERTEX
  8
LAYER_1
 10
37.7746
 20
84.6221
  0
VERTEX
  8
LAYER_1
 10
37.7746
 20
84.0709
  0
SEQEND
  0
POLYLINE
  8
LAYER_1
 40
0.05
 41
0.05
 66
1
 10
0
 20
0
 30
0
 70
1
  0
VERTEX
  8
LAYER_1
 10
37.3097
 20
84.3049
  0
VERTEX
  8
LAYER_1
 10
37.7745
 20
86.0403
  0
VERTEX
  8
LAYER_1
 10
38.2394
 20
84.3049
  0
SEQEND
  0
POLYLINE
  8
LAYER_1
 40
0.0882
 41
0.0882
 66
1
 10
0
 20
0
 30
0
  0
VERTEX
  8
LAYER_1
 10
45.922
 20
88.5007
  0
VERTEX
  8
LAYER_1
 10
36.79
 20
88.5007
  0
SEQEND
  0
POLYLINE
  8
LAYER_1
 40
0.0882
 41
0.0882
 66
1
 10
0
 20
0
 30
0
  0
VERTEX
  8
LAYER_1
 10
45.922
 20
147.6364
  0
VERTEX
  8
LAYER_1
 10
36.79
 20
147.6364
  0
SEQEND
  0
POLYLINE
  8
LAYER_1
 40
0.0882
 41
0.0882
 66
1
 10
0
 20
0
 30
0
  0
VERTEX
  8
LAYER_1
 10
68.8842
 20
147.6364
  0
VERTEX
  8
LAYER_1
 10
59.8615
 20
147.6364
  0
SEQEND
  0
POLYLINE
  8
LAYER_1
 40
0.0882
 41
0.0882
 66
1
 10
0
 20
0
 30
0
  0
VERTEX
  8
LAYER_1
 10
37.7746
 20
89.9723
  0
VERTEX
  8
LAYER_1
 10
37.7746
 20
146.173
  0
SEQEND
  0
POLYLINE
  8
LAYER_1
 40
0.05
 41
0.05
 66
1
 10
0
 20
0
 30
0
 70
1
  0
VERTEX
  8
LAYER_1
 10
38.2396
 20
90.2896
  0
VERTEX
  8
LAYER_1
 10
37.7747
 20
88.5547
  0
VERTEX
  8
LAYER_1
 10
37.3099
 20
90.2896
  0
SEQEND
  0
POLYLINE
  8
LAYER_1
 40
0.05
 41
0.05
 66
1
 10
0
 20
0
 30
0
 70
1
  0
VERTEX
  8
LAYER_1
 10
38.2396
 20
145.856
  0
VERTEX
  8
LAYER_1
 10
37.7747
 20
147.5909
  0
VERTEX
  8
LAYER_1
 10
37.3099
 20
145.856
  0
SEQEND
  0
POLYLINE
  8
LAYER_1
 40
0.0882
 41
0.0882
 66
1
 10
0
 20
0
 30
0
  0
VERTEX
  8
LAYER_1
 10
43.5946
 20
150.1055
  0
VERTEX
  8
LAYER_1
 10
43.5946
 20
159.8318
  0
SEQEND
  0
POLYLINE
  8
LAYER_1
 40
0.0882
 41
0.0882
 66
1
 10
0
 20
0
 30
0
  0
VERTEX
  8
LAYER_1
 10
58.3897
 20
158.8478
  0
VERTEX
  8
LAYER_1
 10
45.0661
 20
158.8478
  0
SEQEND
  0
POLYLINE
  8
LAYER_1
 40
0.05
 41
0.05
 66
1
 10
0
 20
0
 30
0
 70
1
  0
VERTEX
  8
LAYER_1
 10
58.0724
 20
159.3127
  0
VERTEX
  8
LAYER_1
 10
59.8079
 20
158.8479
  0
VERTEX
  8
LAYER_1
 10
58.0724
 20
158.383
  0
SEQEND
  0
POLYLINE
  8
LAYER_1
 40
0.05
 41
0.05
 66
1
 10
0
 20
0
 30
0
 70
1
  0
VERTEX
  8
LAYER_1
 10
45.3834
 20
159.3127
  0
VERTEX
  8
LAYER_1
 10
43.6486
 20
158.8479
  0
VERTEX
  8
LAYER_1
 10
45.3834
 20
158.383
  0
SEQEND
  0
POLYLINE
  8
LAYER_1
 40
0.0882
 41
0.0882
 66
1
 10
0
 20
0
 30
0
  0
VERTEX
  8
LAYER_1
 10
54.2725
 20
150.5501
  0
VERTEX
  8
LAYER_1
 10
49.397
 20
150.5501
  0
SEQEND
  0
POLYLINE
  8
LAYER_1
 40
0.05
 41
0.05
 66
1
 10
0
 20
0
 30
0
 70
1
  0
VERTEX
  8
LAYER_1
 10
53.9558
 20
151.015
  0
VERTEX
  8
LAYER_1
 10
55.6906
 20
150.5502
  0
VERTEX
  8
LAYER_1
 10
53.9558
 20
150.0854
  0
SEQEND
  0
POLYLINE
  8
LAYER_1
 40
0.05
 41
0.05
 66
1
 10
0
 20
0
 30
0
 70
1
  0
VERTEX
  8
LAYER_1
 10
49.7141
 20
151.015
  0
VERTEX
  8
LAYER_1
 10
47.9793
 20
150.5502
  0
VERTEX
  8
LAYER_1
 10
49.7141
 20
150.0854
  0
SEQEND
  0
POLYLINE
  8
LAYER_1
 40
0.0882
 41
0.0882
 66
1
 10
0
 20
0
 30
0
  0
VERTEX
  8
LAYER_1
 10
58.3084
 20
150.5501
  0
VERTEX
  8
LAYER_1
 10
57.2702
 20
150.5501
  0
SEQEND
  0
POLYLINE
  8
LAYER_1
 40
0.05
 41
0.05
 66
1
 10
0
 20
0
 30
0
 70
1
  0
VERTEX
  8
LAYER_1
 10
57.9912
 20
151.015
  0
VERTEX
  8
LAYER_1
 10
59.7261
 20
150.5502
  0
VERTEX
  8
LAYER_1
 10
57.9912
 20
150.0854
  0
SEQEND
  0
POLYLINE
  8
LAYER_1
 40
0.05
 41
0.05
 66
1
 10
0
 20
0
 30
0
 70
1
  0
VERTEX
  8
LAYER_1
 10
57.5875
 20
151.015
  0
VERTEX
  8
LAYER_1
 10
55.8527
 20
150.5502
  0
VERTEX
  8
LAYER_1
 10
57.5875
 20
150.0854
  0
SEQEND
  0
POLYLINE
  8
LAYER_1
 40
0.0882
 41
0.0882
 66
1
 10
0
 20
0
 30
0
  0
VERTEX
  8
LAYER_1
 10
45.5717
 20
150.1055
  0
VERTEX
  8
LAYER_1
 10
45.5717
 20
154.3016
  0
SEQEND
  0
POLYLINE
  8
LAYER_1
 40
0.0882
 41
0.0882
 66
1
 10
0
 20
0
 30
0
  0
VERTEX
  8
LAYER_1
 10
47.8985
 20
142.9401
  0
VERTEX
  8
LAYER_1
 10
47.8985
 20
151.5342
  0
SEQEND
  0
POLYLINE
  8
LAYER_1
 40
0.0882
 41
0.0882
 66
1
 10
0
 20
0
 30
0
  0
VERTEX
  8
LAYER_1
 10
55.7779
 20
142.9401
  0
VERTEX
  8
LAYER_1
 10
55.7779
 20
151.5342
  0
SEQEND
  0
POLYLINE
  8
LAYER_1
 40
0.0882
 41
0.0882
 66
1
 10
0
 20
0
 30
0
  0
VERTEX
  8
LAYER_1
 10
43.5946
 20
150.1055
  0
VERTEX
  8
LAYER_1
 10
43.5946
 20
154.3016
  0
SEQEND
  0
POLYLINE
  8
LAYER_1
 40
0.0882
 41
0.0882
 66
1
 10
0
 20
0
 30
0
  0
VERTEX
  8
LAYER_1
 10
47.0901
 20
153.3172
  0
VERTEX
  8
LAYER_1
 10
49.5088
 20
153.3172
  0
SEQEND
  0
POLYLINE
  8
LAYER_1
 40
0.05
 41
0.05
 66
1
 10
0
 20
0
 30
0
 70
1
  0
VERTEX
  8
LAYER_1
 10
47.4071
 20
152.8522
  0
VERTEX
  8
LAYER_1
 10
45.6722
 20
153.317
  0
VERTEX
  8
LAYER_1
 10
47.4071
 20
153.7818
  0
SEQEND
  0
POLYLINE
  8
LAYER_1
 40
0.0882
 41
0.0882
 66
1
 10
0
 20
0
 30
0
  0
VERTEX
  8
LAYER_1
 10
45.5717
 20
153.3172
  0
VERTEX
  8
LAYER_1
 10
43.5943
 20
153.3172
  0
SEQEND
  0
POLYLINE
  8
LAYER_1
 40
0.0882
 41
0.0882
 66
1
 10
0
 20
0
 30
0
  0
VERTEX
  8
LAYER_1
 10
57.7896
 20
152.5381
  0
VERTEX
  8
LAYER_1
 10
57.7896
 20
153.469
  0
VERTEX
  8
LAYER_1
 10
63.6132
 20
153.469
  0
SEQEND
  0
POLYLINE
  8
LAYER_1
 40
0.05
 41
0.05
 66
1
 10
0
 20
0
 30
0
 70
1
  0
VERTEX
  8
LAYER_1
 10
58.2543
 20
152.8554
  0
VERTEX
  8
LAYER_1
 10
57.7894
 20
151.1206
  0
VERTEX
  8
LAYER_1
 10
57.3246
 20
152.8554
  0
SEQEND
  0
INSERT
  8
LAYER_1
  2
AIGNBL01010015
 10
0
 20
0
 30
0
  0
POLYLINE
  8
LAYER_1
 40
0.05
 41
0.05
 66
1
 10
0
 20
0
 30
0
 70
1
  0
VERTEX
  8
LAYER_1
 10
52.2999
 20
152.8554
  0
VERTEX
  8
LAYER_1
 10
51.8351
 20
151.1206
  0
VERTEX
  8
LAYER_1
 10
51.3703
 20
152.8554
  0
SEQEND
  0
POLYLINE
  8
LAYER_1
 40
0.0882
 41
0.0882
 66
1
 10
0
 20
0
 30
0
  0
VERTEX
  8
LAYER_1
 10
68.8842
 20
94.9072
  0
VERTEX
  8
LAYER_1
 10
57.1583
 20
94.9072
  0
SEQEND
  0
POLYLINE
  8
LAYER_1
 40
0.0882
 41
0.0882
 66
1
 10
0
 20
0
 30
0
  0
VERTEX
  8
LAYER_1
 10
68.8842
 20
141.2297
  0
VERTEX
  8
LAYER_1
 10
57.1583
 20
141.2297
  0
SEQEND
  0
POLYLINE
  8
LAYER_1
 40
0.0882
 41
0.0882
 66
1
 10
0
 20
0
 30
0
  0
VERTEX
  8
LAYER_1
 10
67.9003
 20
146.1337
  0
VERTEX
  8
LAYER_1
 10
67.9003
 20
142.7333
  0
SEQEND
  0
POLYLINE
  8
LAYER_1
 40
0.05
 41
0.05
 66
1
 10
0
 20
0
 30
0
 70
1
  0
VERTEX
  8
LAYER_1
 10
67.4351
 20
145.8167
  0
VERTEX
  8
LAYER_1
 10
67.9
 20
147.5516
  0
VERTEX
  8
LAYER_1
 10
68.3648
 20
145.8167
  0
SEQEND
  0
POLYLINE
  8
LAYER_1
 40
0.05
 41
0.05
 66
1
 10
0
 20
0
 30
0
 70
1
  0
VERTEX
  8
LAYER_1
 10
67.4351
 20
143.0505
  0
VERTEX
  8
LAYER_1
 10
67.9
 20
141.3157
  0
VERTEX
  8
LAYER_1
 10
68.3648
 20
143.0505
  0
SEQEND
  0
POLYLINE
  8
LAYER_1
 40
0.0882
 41
0.0882
 66
1
 10
0
 20
0
 30
0
  0
VERTEX
  8
LAYER_1
 10
67.9003
 20
139.7261
  0
VERTEX
  8
LAYER_1
 10
67.9003
 20
96.4146
  0
SEQEND
  0
POLYLINE
  8
LAYER_1
 40
0.05
 41
0.05
 66
1
 10
0
 20
0
 30
0
 70
1
  0
VERTEX
  8
LAYER_1
 10
67.4351
 20
139.4092
  0
VERTEX
  8
LAYER_1
 10
67.9
 20
141.144
  0
VERTEX
  8
LAYER_1
 10
68.3648
 20
139.4092
  0
SEQEND
  0
POLYLINE
  8
LAYER_1
 40
0.05
 41
0.05
 66
1
 10
0
 20
0
 30
0
 70
1
  0
VERTEX
  8
LAYER_1
 10
67.4351
 20
96.732
  0
VERTEX
  8
LAYER_1
 10
67.9
 20
94.9965
  0
VERTEX
  8
LAYER_1
 10
68.3648
 20
96.732
  0
SEQEND
  0
TEXT
  8
LAYER_1
 10
37.2053
 20
113.7534
 11
37.2053
 21
113.7534
 40
4.3636
 41
0.5
 50
89.99999999
  1
560
  0
TEXT
  8
LAYER_1
 10
72.4784
 20
112.3016
 11
72.4784
 21
112.3016
 40
4.3636
 41
0.5
 50
89.99999999
  1
P350
  0
TEXT
  8
LAYER_1
 10
72.4779
 20
140.2062
 11
72.4779
 21
140.2062
 40
4.3636
 41
0.5
 50
89.99999999
  1
105
  0
TEXT
  8
LAYER_1
 10
37.2053
 20
79.002
 11
37.2053
 21
79.002
 40
4.3636
 41
0.5
 50
89.99999999
  1
20
  0
TEXT
  8
LAYER_1
 10
35.2221
 20
153.5611
 11
35.2221
 21
153.5611
 40
4.3636
 41
0.5
  1
20
  0
TEXT
  8
LAYER_1
 10
47.3685
 20
159.0933
 11
47.3685
 21
159.0933
 40
4.3636
 41
0.5
  1
173
  0
TEXT
  8
LAYER_1
 10
71.5848
 20
155.3291
 11
71.5848
 21
155.3291
 40
4.3636
 41
0.5
  1
P70
  0
TEXT
  8
LAYER_1
 10
64.1513
 20
151.8276
 11
64.1513
 21
151.8276
 40
4.3636
 41
0.5
  1
55
  0
TEXT
  8
LAYER_2
 10
-26.2556
 20
43.1712
 11
-26.2556
 21
43.1712
 40
3.2995
 41
0.5
  1
仕様
  0
POLYLINE
  8
LAYER_2
 40
0.3528
 41
0.3528
 66
1
 10
0
 20
0
 30
0
  0
VERTEX
  8
LAYER_2
 10
250.6748
 20
51.9507
  0
VERTEX
  8
LAYER_2
 10
-29.3178
 20
51.9507
  0
SEQEND
  0
INSERT
  8
LAYER_2
  2
AIGNBL02010002
 10
0
 20
0
 30
0
  0
POLYLINE
  8
LAYER_2
 40
0.3528
 41
0.3528
 66
1
 10
0
 20
0
 30
0
  0
VERTEX
  8
LAYER_2
 10
-29.3178
 20
229.3369
  0
VERTEX
  8
LAYER_2
 10
-29.3178
 20
34.3283
  0
VERTEX
  8
LAYER_2
 10
250.6748
 20
34.3283
  0
VERTEX
  8
LAYER_2
 10
250.6748
 20
229.3369
  0
VERTEX
  8
LAYER_2
 10
-29.3178
 20
229.3369
  0
SEQEND
  0
POLYLINE
  8
LAYER_2
 40
0.3528
 41
0.3528
 66
1
 10
0
 20
0
 30
0
  0
VERTEX
  8
LAYER_2
 10
250.6748
 20
60.4597
  0
VERTEX
  8
LAYER_2
 10
-29.3178
 20
60.4597
  0
SEQEND
  0
POLYLINE
  8
LAYER_2
 40
0.3528
 41
0.3528
 66
1
 10
0
 20
0
 30
0
  0
VERTEX
  8
LAYER_2
 10
250.6748
 20
43.4416
  0
VERTEX
  8
LAYER_2
 10
143.5341
 20
43.4416
  0
SEQEND
  0
TEXT
  8
LAYER_2
 10
182.8808
 20
49.4743
 11
182.8808
 21
49.4743
 40
2.1997
 41
0.5
  1
縮尺
  0
POLYLINE
  8
LAYER_2
 40
0.3528
 41
0.3528
 66
1
 10
0
 20
0
 30
0
  0
VERTEX
  8
LAYER_2
 10
181.3526
 20
43.4416
  0
VERTEX
  8
LAYER_2
 10
181.3526
 20
51.9507
  0
SEQEND
  0
TEXT
  8
LAYER_2
 10
144.2327
 20
57.9834
 11
144.2327
 21
57.9834
 40
2.1997
 41
0.5
  1
品番
  0
TEXT
  8
LAYER_2
 10
-28.1609
 20
57.9834
 11
-28.1609
 21
57.9834
 40
2.1997
 41
0.5
  1
品名
  0
TEXT
  8
LAYER_2
 10
144.2327
 20
49.4743
 11
144.2327
 21
49.4743
 40
2.1997
 41
0.5
  1
重量
  0
TEXT
  8
LAYER_2
 10
150.2547
 20
54.1514
 11
150.2547
 21
54.1514
 40
5.9385
 41
0.5
  1
TYU-6060/
  0
TEXT
  8
LAYER_2
 10
149.5454
 20
45.7175
 11
149.5454
 21
45.7175
 40
3.7615
 41
0.5
  1
-
  0
POLYLINE
  8
LAYER_2
 40
0.3528
 41
0.3528
 66
1
 10
0
 20
0
 30
0
  0
VERTEX
  8
LAYER_2
 10
143.5341
 20
34.9539
  0
VERTEX
  8
LAYER_2
 10
143.5341
 20
60.4597
  0
SEQEND
  0
TEXT
  8
LAYER_2
 10
-15.3674
 20
54.891
 11
-15.3674
 21
54.891
 40
3.6373
 41
0.5
  1
ミラーキャビネット
  0
TEXT
  8
LAYER_2
 10
-15.8845
 20
47.0531
 11
-15.8845
 21
47.0531
 40
3.5541
 41
0.5
  1
●サイズ：W600×H600×D173mm　●重量：15kg　●ミラー：3mm厚（防湿加工）・上下アルミフレーム　
  0
TEXT
  8
LAYER_2
 10
-15.8845
 20
42.303
 11
-15.8845
 21
42.303
 40
3.1177
 41
0.5
  1
●キャビネット／扉／棚板：メラミン化粧板　●設置方法：壁付け（取付用・連結用ビス同梱）　
  0
TEXT
  8
LAYER_2
 10
-15.8845
 20
37.5533
 11
-15.8845
 21
37.5533
 40
3.5541
 41
0.5
  1
●可動棚2段　●左右開き兼用　●Ｆ☆☆☆☆対応　
  0
TEXT
  8
LAYER_2
 10
237.263
 20
63.2582
 11
237.263
 21
63.2582
 40
2.9618
 41
0.5
  1
単位：mm
  0
TEXT
  8
LAYER_2
 10
176.0254
 20
39.5359
 11
176.0254
 21
39.5359
 40
3.3853
 41
0.5
  1
●TEL 0120-65-1232●FAX 06-6532-1580
  0
TEXT
  8
LAYER_2
 10
176.0254
 20
36.0212
 11
176.0254
 21
36.0212
 40
3.3853
 41
0.5
  1
hits@hiratatile.co.jp
  0
TEXT
  8
LAYER_2
 10
240.3591
 20
225.8432
 11
240.3591
 21
225.8432
 40
2.0732
 41
0.5
  1
200409RT
  0
INSERT
  8
LAYER_2
  2
AIGNBL02010003
 10
0
 20
0
 30
0
  0
ENDSEC
  0
EOF
