  0
SECTION
  2
HEADER
  9
$ACADVER
  1
AC1009
  9
$LUNITS
 70
2
  9
$LUPREC
 70
4
  9
$LTSCALE
 40
1.0
  9
$EXTMIN
 10
-30.3177
 20
33.3285
 30
0
  9
$EXTMAX
 10
251.6749
 20
230.337
 30
0
  0
ENDSEC
  0
SECTION
  2
TABLES
  0
TABLE
  2
LTYPE
 70
256
  0
LTYPE
  2
AIGENLINE001
 70
64
  3
generate AI->DXF Converter
 72
65
 73
2
 40
1.4118
 49
0.7059
 49
-0.7059
  0
ENDTAB
  0
TABLE
  2
LAYER
 70
1
  0
LAYER
  2
LAYER_1
 70
64
 62
7
  6
CONTINUOUS
  0
ENDTAB
  0
TABLE
  2
STYLE
 70
6
  0
STYLE
  2
STANDARD
 70
0
 40
0
 50
0
 71
0
 41
0
 42
0
  3
TXT
  4
BIGFONT
  0
ENDTAB
  0
ENDSEC
  0
SECTION
  2
BLOCKS
  0
BLOCK
  8
LAYER_1
  2
AIGNBL01040009
 70
64
 10
0
 20
0
 30
0
  3
AIGNBL01040009
  0
POLYLINE
  8
LAYER_1
 40
0.05
 41
0.05
 66
1
 10
0
 20
0
 30
0
 70
1
  0
VERTEX
  8
LAYER_1
 10
146.7545
 20
39.1418
  0
VERTEX
  8
LAYER_1
 10
146.2656
 20
37.9567
  0
VERTEX
  8
LAYER_1
 10
145.6376
 20
37.9567
  0
VERTEX
  8
LAYER_1
 10
147.2372
 20
41.7225
  0
VERTEX
  8
LAYER_1
 10
147.9703
 20
41.7225
  0
VERTEX
  8
LAYER_1
 10
149.5768
 20
37.9567
  0
VERTEX
  8
LAYER_1
 10
148.9267
 20
37.9567
  0
VERTEX
  8
LAYER_1
 10
148.424
 20
39.1418
  0
SEQEND
  0
POLYLINE
  8
LAYER_1
 40
0.05
 41
0.05
 66
1
 10
0
 20
0
 30
0
 70
1
  0
VERTEX
  8
LAYER_1
 10
148.2983
 20
39.5207
  0
VERTEX
  8
LAYER_1
 10
147.8373
 20
40.6056
  0
VERTEX
  8
LAYER_1
 10
147.5927
 20
41.2926
  0
VERTEX
  8
LAYER_1
 10
147.5789
 20
41.2926
  0
VERTEX
  8
LAYER_1
 10
147.3412
 20
40.6101
  0
VERTEX
  8
LAYER_1
 10
146.8806
 20
39.5207
  0
SEQEND
  0
ENDBLK
  0
BLOCK
  8
LAYER_1
  2
AIGNBL0104000A
 70
64
 10
0
 20
0
 30
0
  3
AIGNBL0104000A
  0
POLYLINE
  8
LAYER_1
 40
0.05
 41
0.05
 66
1
 10
0
 20
0
 30
0
 70
1
  0
VERTEX
  8
LAYER_1
 10
153.942
 20
37.4034
 42
-0.01557776889
  0
VERTEX
  8
LAYER_1
 10
152.1399
 20
37.8395
  0
VERTEX
  8
LAYER_1
 10
151.8533
 20
37.895
 42
-0.08356586593
  0
VERTEX
  8
LAYER_1
 10
150.9892
 20
38.0612
 42
-0.09749891868
  0
VERTEX
  8
LAYER_1
 10
150.3281
 20
38.4671
 42
-0.2129139625
  0
VERTEX
  8
LAYER_1
 10
149.7793
 20
39.7998
 42
-0.09685063121
  0
VERTEX
  8
LAYER_1
 10
149.9239
 20
40.5732
 42
-0.2046489378
  0
VERTEX
  8
LAYER_1
 10
150.9715
 20
41.5974
 42
-0.09824326873
  0
VERTEX
  8
LAYER_1
 10
151.9725
 20
41.7838
 42
-0.08554303155
  0
VERTEX
  8
LAYER_1
 10
152.8411
 20
41.6425
 42
-0.100439485
  0
VERTEX
  8
LAYER_1
 10
153.5062
 20
41.2483
 42
-0.2140965971
  0
VERTEX
  8
LAYER_1
 10
154.0815
 20
39.8784
 42
-0.09539620281
  0
VERTEX
  8
LAYER_1
 10
153.9426
 20
39.1106
 42
-0.2143310008
  0
VERTEX
  8
LAYER_1
 10
152.9198
 20
38.1321
 42
-0.02339132607
  0
VERTEX
  8
LAYER_1
 10
152.7407
 20
38.0738
  0
VERTEX
  8
LAYER_1
 10
152.7407
 20
38.0514
 42
0.01711818545
  0
VERTEX
  8
LAYER_1
 10
154.117
 20
37.8113
  0
SEQEND
  0
POLYLINE
  8
LAYER_1
 40
0.05
 41
0.05
 66
1
 10
0
 20
0
 30
0
 70
1
  0
VERTEX
  8
LAYER_1
 10
153.4394
 20
39.857
 42
0.1071643265
  0
VERTEX
  8
LAYER_1
 10
153.2881
 20
40.5618
 42
0.2976270581
  0
VERTEX
  8
LAYER_1
 10
151.9511
 20
41.3873
 42
0.1072356843
  0
VERTEX
  8
LAYER_1
 10
151.2613
 20
41.2478
 42
0.2385874916
  0
VERTEX
  8
LAYER_1
 10
150.4743
 20
40.2422
 42
0.05751786987
  0
VERTEX
  8
LAYER_1
 10
150.4287
 20
39.8122
 42
0.218058121
  0
VERTEX
  8
LAYER_1
 10
150.9593
 20
38.6168
 42
0.1772828752
  0
VERTEX
  8
LAYER_1
 10
151.9232
 20
38.2912
 42
0.1075205619
  0
VERTEX
  8
LAYER_1
 10
152.6045
 20
38.4302
 42
0.2370768657
  0
VERTEX
  8
LAYER_1
 10
153.3917
 20
39.4298
 42
0.05602139055
  0
SEQEND
  0
ENDBLK
  0
BLOCK
  8
LAYER_1
  2
AIGNBL0104000B
 70
64
 10
0
 20
0
 30
0
  3
AIGNBL0104000B
  0
POLYLINE
  8
LAYER_1
 40
0.05
 41
0.05
 66
1
 10
0
 20
0
 30
0
 70
1
  0
VERTEX
  8
LAYER_1
 10
155.4089
 20
41.7225
  0
VERTEX
  8
LAYER_1
 10
155.4089
 20
39.4932
 42
0.114533087
  0
VERTEX
  8
LAYER_1
 10
155.5428
 20
38.8274
 42
0.1464774934
  0
VERTEX
  8
LAYER_1
 10
155.8932
 20
38.4422
 42
0.1362552487
  0
VERTEX
  8
LAYER_1
 10
156.5055
 20
38.2912
 42
0.1219300979
  0
VERTEX
  8
LAYER_1
 10
157.1286
 20
38.4259
 42
0.1503016186
  0
VERTEX
  8
LAYER_1
 10
157.5004
 20
38.7949
 42
0.1256239276
  0
VERTEX
  8
LAYER_1
 10
157.651
 20
39.4932
  0
VERTEX
  8
LAYER_1
 10
157.651
 20
41.7225
  0
VERTEX
  8
LAYER_1
 10
158.2656
 20
41.7225
  0
VERTEX
  8
LAYER_1
 10
158.2656
 20
39.5266
 42
-0.09996665729
  0
VERTEX
  8
LAYER_1
 10
158.1307
 20
38.7839
 42
-0.1215019567
  0
VERTEX
  8
LAYER_1
 10
157.7575
 20
38.2772
 42
-0.1106305922
  0
VERTEX
  8
LAYER_1
 10
157.132
 20
37.9706
 42
-0.06128719854
  0
VERTEX
  8
LAYER_1
 10
156.4845
 20
37.895
 42
-0.0941826643
  0
VERTEX
  8
LAYER_1
 10
155.6654
 20
38.0331
 42
-0.2431541134
  0
VERTEX
  8
LAYER_1
 10
154.8618
 20
38.9438
 42
-0.06321248355
  0
VERTEX
  8
LAYER_1
 10
154.7943
 20
39.5045
  0
VERTEX
  8
LAYER_1
 10
154.7943
 20
41.7225
  0
SEQEND
  0
ENDBLK
  0
BLOCK
  8
LAYER_1
  2
AIGNBL0104000C
 70
64
 10
0
 20
0
 30
0
  3
AIGNBL0104000C
  0
POLYLINE
  8
LAYER_1
 40
0.05
 41
0.05
 66
1
 10
0
 20
0
 30
0
 70
1
  0
VERTEX
  8
LAYER_1
 10
160.0119
 20
39.1418
  0
VERTEX
  8
LAYER_1
 10
159.5227
 20
37.9567
  0
VERTEX
  8
LAYER_1
 10
158.8947
 20
37.9567
  0
VERTEX
  8
LAYER_1
 10
160.4939
 20
41.7225
  0
VERTEX
  8
LAYER_1
 10
161.227
 20
41.7225
  0
VERTEX
  8
LAYER_1
 10
162.8335
 20
37.9567
  0
VERTEX
  8
LAYER_1
 10
162.1841
 20
37.9567
  0
VERTEX
  8
LAYER_1
 10
161.6814
 20
39.1418
  0
SEQEND
  0
POLYLINE
  8
LAYER_1
 40
0.05
 41
0.05
 66
1
 10
0
 20
0
 30
0
 70
1
  0
VERTEX
  8
LAYER_1
 10
161.5553
 20
39.5207
  0
VERTEX
  8
LAYER_1
 10
161.094
 20
40.6056
  0
VERTEX
  8
LAYER_1
 10
160.8494
 20
41.2926
  0
VERTEX
  8
LAYER_1
 10
160.8357
 20
41.2926
  0
VERTEX
  8
LAYER_1
 10
160.5983
 20
40.6101
  0
VERTEX
  8
LAYER_1
 10
160.1373
 20
39.5207
  0
SEQEND
  0
ENDBLK
  0
BLOCK
  8
LAYER_1
  2
AIGNBL0104000D
 70
64
 10
0
 20
0
 30
0
  3
AIGNBL0104000D
  0
POLYLINE
  8
LAYER_1
 40
0.05
 41
0.05
 66
1
 10
0
 20
0
 30
0
 70
1
  0
VERTEX
  8
LAYER_1
 10
163.8742
 20
41.6777
 42
-0.03245918394
  0
VERTEX
  8
LAYER_1
 10
165.0411
 20
41.7508
 42
-0.08084226265
  0
VERTEX
  8
LAYER_1
 10
165.9975
 20
41.619
 42
-0.07815635113
  0
VERTEX
  8
LAYER_1
 10
166.3609
 20
41.4379
 42
-0.2484709269
  0
VERTEX
  8
LAYER_1
 10
166.7726
 20
40.6497
 42
-0.226147
  0
VERTEX
  8
LAYER_1
 10
166.4095
 20
39.8456
 42
-0.1096895144
  0
VERTEX
  8
LAYER_1
 10
165.7812
 20
39.5323
 42
-0.06565832551
  0
VERTEX
  8
LAYER_1
 10
164.9708
 20
39.4319
 42
-0.06238309955
  0
VERTEX
  8
LAYER_1
 10
164.4823
 20
39.4653
  0
VERTEX
  8
LAYER_1
 10
164.4823
 20
37.9567
  0
VERTEX
  8
LAYER_1
 10
163.8742
 20
37.9567
  0
SEQEND
  0
POLYLINE
  8
LAYER_1
 40
0.05
 41
0.05
 66
1
 10
0
 20
0
 30
0
 70
1
  0
VERTEX
  8
LAYER_1
 10
164.4823
 20
39.8622
 42
0.04203451964
  0
VERTEX
  8
LAYER_1
 10
164.9846
 20
39.8229
 42
0.1032111168
  0
VERTEX
  8
LAYER_1
 10
165.7038
 20
39.9502
 42
0.1555938032
  0
VERTEX
  8
LAYER_1
 10
166.0686
 20
40.2546
 42
0.1352673748
  0
VERTEX
  8
LAYER_1
 10
166.1656
 20
40.6273
 42
0.1737047371
  0
VERTEX
  8
LAYER_1
 10
166.0308
 20
41.0346
 42
0.1517050813
  0
VERTEX
  8
LAYER_1
 10
165.6097
 20
41.2941
 42
0.06879756253
  0
VERTEX
  8
LAYER_1
 10
165.0552
 20
41.3649
 42
0.0634356619
  0
VERTEX
  8
LAYER_1
 10
164.4823
 20
41.3257
  0
SEQEND
  0
ENDBLK
  0
BLOCK
  8
LAYER_1
  2
AIGNBL0104000E
 70
64
 10
0
 20
0
 30
0
  3
AIGNBL0104000E
  0
POLYLINE
  8
LAYER_1
 40
0.05
 41
0.05
 66
1
 10
0
 20
0
 30
0
 70
1
  0
VERTEX
  8
LAYER_1
 10
168.3246
 20
41.4207
 42
-0.2767461975
  0
VERTEX
  8
LAYER_1
 10
168.1851
 20
41.1806
 42
-0.1265294091
  0
VERTEX
  8
LAYER_1
 10
167.9329
 20
41.1189
 42
-0.2237518698
  0
VERTEX
  8
LAYER_1
 10
167.6226
 20
41.2513
 42
-0.1708341408
  0
VERTEX
  8
LAYER_1
 10
167.5626
 20
41.4207
 42
-0.2643879937
  0
VERTEX
  8
LAYER_1
 10
167.712
 20
41.6678
 42
-0.1290073663
  0
VERTEX
  8
LAYER_1
 10
167.9467
 20
41.7277
 42
-0.225342086
  0
VERTEX
  8
LAYER_1
 10
168.2635
 20
41.597
 42
-0.1691136206
  0
SEQEND
  0
POLYLINE
  8
LAYER_1
 40
0.05
 41
0.05
 66
1
 10
0
 20
0
 30
0
 70
1
  0
VERTEX
  8
LAYER_1
 10
167.639
 20
37.9567
  0
VERTEX
  8
LAYER_1
 10
167.639
 20
40.6607
  0
VERTEX
  8
LAYER_1
 10
168.2537
 20
40.6607
  0
VERTEX
  8
LAYER_1
 10
168.2537
 20
37.9567
  0
SEQEND
  0
ENDBLK
  0
BLOCK
  8
LAYER_1
  2
AIGNBL0104000F
 70
64
 10
0
 20
0
 30
0
  3
AIGNBL0104000F
  0
POLYLINE
  8
LAYER_1
 40
0.05
 41
0.05
 66
1
 10
0
 20
0
 30
0
 70
1
  0
VERTEX
  8
LAYER_1
 10
170.1254
 20
39.1418
  0
VERTEX
  8
LAYER_1
 10
169.6372
 20
37.9567
  0
VERTEX
  8
LAYER_1
 10
169.0081
 20
37.9567
  0
VERTEX
  8
LAYER_1
 10
170.6077
 20
41.7225
  0
VERTEX
  8
LAYER_1
 10
171.3415
 20
41.7225
  0
VERTEX
  8
LAYER_1
 10
172.9479
 20
37.9567
  0
VERTEX
  8
LAYER_1
 10
172.2982
 20
37.9567
  0
VERTEX
  8
LAYER_1
 10
171.7955
 20
39.1418
  0
SEQEND
  0
POLYLINE
  8
LAYER_1
 40
0.05
 41
0.05
 66
1
 10
0
 20
0
 30
0
 70
1
  0
VERTEX
  8
LAYER_1
 10
171.6695
 20
39.5207
  0
VERTEX
  8
LAYER_1
 10
171.2085
 20
40.6056
  0
VERTEX
  8
LAYER_1
 10
170.9646
 20
41.2926
  0
VERTEX
  8
LAYER_1
 10
170.9498
 20
41.2926
  0
VERTEX
  8
LAYER_1
 10
170.7128
 20
40.6101
  0
VERTEX
  8
LAYER_1
 10
170.2518
 20
39.5207
  0
SEQEND
  0
ENDBLK
  0
BLOCK
  8
LAYER_1
  2
AIGNBL01030008
 70
64
 10
0
 20
0
 30
0
  3
AIGNBL01030008
  0
INSERT
  8
LAYER_1
  2
AIGNBL01040009
 10
0
 20
0
 30
0
  0
INSERT
  8
LAYER_1
  2
AIGNBL0104000A
 10
0
 20
0
 30
0
  0
INSERT
  8
LAYER_1
  2
AIGNBL0104000B
 10
0
 20
0
 30
0
  0
INSERT
  8
LAYER_1
  2
AIGNBL0104000C
 10
0
 20
0
 30
0
  0
INSERT
  8
LAYER_1
  2
AIGNBL0104000D
 10
0
 20
0
 30
0
  0
INSERT
  8
LAYER_1
  2
AIGNBL0104000E
 10
0
 20
0
 30
0
  0
INSERT
  8
LAYER_1
  2
AIGNBL0104000F
 10
0
 20
0
 30
0
  0
ENDBLK
  0
BLOCK
  8
LAYER_1
  2
AIGNBL01030011
 70
64
 10
0
 20
0
 30
0
  3
AIGNBL01030011
  0
POLYLINE
  8
LAYER_1
 40
0.05
 41
0.05
 66
1
 10
0
 20
0
 30
0
 70
1
  0
VERTEX
  8
LAYER_1
 10
145.7475
 20
36.0574
  0
VERTEX
  8
LAYER_1
 10
146.3008
 20
36.0574
  0
VERTEX
  8
LAYER_1
 10
146.3008
 20
35.9637
  0
VERTEX
  8
LAYER_1
 10
145.6424
 20
35.9637
  0
VERTEX
  8
LAYER_1
 10
145.6424
 20
36.9969
  0
VERTEX
  8
LAYER_1
 10
146.2832
 20
36.9969
  0
VERTEX
  8
LAYER_1
 10
146.2832
 20
36.9035
  0
VERTEX
  8
LAYER_1
 10
145.7475
 20
36.9035
  0
VERTEX
  8
LAYER_1
 10
145.7475
 20
36.549
  0
VERTEX
  8
LAYER_1
 10
146.2481
 20
36.549
  0
VERTEX
  8
LAYER_1
 10
146.2481
 20
36.4557
  0
VERTEX
  8
LAYER_1
 10
145.7475
 20
36.4557
  0
SEQEND
  0
ENDBLK
  0
BLOCK
  8
LAYER_1
  2
AIGNBL01030012
 70
64
 10
0
 20
0
 30
0
  3
AIGNBL01030012
  0
POLYLINE
  8
LAYER_1
 40
0.05
 41
0.05
 66
1
 10
0
 20
0
 30
0
 70
1
  0
VERTEX
  8
LAYER_1
 10
147.4404
 20
36.117
  0
VERTEX
  8
LAYER_1
 10
147.4432
 20
36.117
  0
VERTEX
  8
LAYER_1
 10
147.4432
 20
36.9969
  0
VERTEX
  8
LAYER_1
 10
147.5483
 20
36.9969
  0
VERTEX
  8
LAYER_1
 10
147.5483
 20
35.9637
  0
VERTEX
  8
LAYER_1
 10
147.4174
 20
35.9637
  0
VERTEX
  8
LAYER_1
 10
146.8162
 20
36.8525
  0
VERTEX
  8
LAYER_1
 10
146.8127
 20
36.8525
  0
VERTEX
  8
LAYER_1
 10
146.8127
 20
35.9637
  0
VERTEX
  8
LAYER_1
 10
146.708
 20
35.9637
  0
VERTEX
  8
LAYER_1
 10
146.708
 20
36.9969
  0
VERTEX
  8
LAYER_1
 10
146.8393
 20
36.9969
  0
SEQEND
  0
ENDBLK
  0
BLOCK
  8
LAYER_1
  2
AIGNBL01030013
 70
64
 10
0
 20
0
 30
0
  3
AIGNBL01030013
  0
POLYLINE
  8
LAYER_1
 40
0.05
 41
0.05
 66
1
 10
0
 20
0
 30
0
 70
1
  0
VERTEX
  8
LAYER_1
 10
148.0213
 20
36.1756
  0
VERTEX
  8
LAYER_1
 10
148.0757
 20
36.0725
 42
0.1803975231
  0
VERTEX
  8
LAYER_1
 10
148.1891
 20
36.0309
  0
VERTEX
  8
LAYER_1
 10
148.2783
 20
36.0505
  0
VERTEX
  8
LAYER_1
 10
148.3344
 20
36.1039
  0
VERTEX
  8
LAYER_1
 10
148.3634
 20
36.1804
  0
VERTEX
  8
LAYER_1
 10
148.3717
 20
36.27
  0
VERTEX
  8
LAYER_1
 10
148.3717
 20
36.9969
  0
VERTEX
  8
LAYER_1
 10
148.4767
 20
36.9969
  0
VERTEX
  8
LAYER_1
 10
148.4767
 20
36.2614
  0
VERTEX
  8
LAYER_1
 10
148.4654
 20
36.1535
  0
VERTEX
  8
LAYER_1
 10
148.424
 20
36.0485
  0
VERTEX
  8
LAYER_1
 10
148.3393
 20
35.9689
  0
VERTEX
  8
LAYER_1
 10
148.2004
 20
35.9375
 42
-0.1845231376
  0
VERTEX
  8
LAYER_1
 10
148.0158
 20
35.9974
 42
-0.1765285731
  0
VERTEX
  8
LAYER_1
 10
147.9234
 20
36.149
  0
SEQEND
  0
ENDBLK
  0
BLOCK
  8
LAYER_1
  2
AIGNBL01030014
 70
64
 10
0
 20
0
 30
0
  3
AIGNBL01030014
  0
POLYLINE
  8
LAYER_1
 40
0.05
 41
0.05
 66
1
 10
0
 20
0
 30
0
 70
1
  0
VERTEX
  8
LAYER_1
 10
149.965
 20
36.4805
 42
-0.1041417444
  0
VERTEX
  8
LAYER_1
 10
149.924
 20
36.2631
 42
-0.10057123
  0
VERTEX
  8
LAYER_1
 10
149.8113
 20
36.0915
  0
VERTEX
  8
LAYER_1
 10
149.6405
 20
35.9785
 42
-0.0950295922
  0
VERTEX
  8
LAYER_1
 10
149.4265
 20
35.9375
 42
-0.1010765979
  0
VERTEX
  8
LAYER_1
 10
149.2129
 20
35.9785
 42
-0.1000570207
  0
VERTEX
  8
LAYER_1
 10
149.042
 20
36.0915
 42
-0.09442769366
  0
VERTEX
  8
LAYER_1
 10
148.9287
 20
36.2631
 42
-0.09293305267
  0
VERTEX
  8
LAYER_1
 10
148.8881
 20
36.4805
 42
-0.1024980643
  0
VERTEX
  8
LAYER_1
 10
148.9287
 20
36.6978
 42
-0.1008832254
  0
VERTEX
  8
LAYER_1
 10
149.042
 20
36.8694
 42
-0.09625117665
  0
VERTEX
  8
LAYER_1
 10
149.2129
 20
36.9824
 42
-0.0952064105
  0
VERTEX
  8
LAYER_1
 10
149.4265
 20
37.0234
 42
-0.1012184087
  0
VERTEX
  8
LAYER_1
 10
149.6405
 20
36.9824
 42
-0.09890806396
  0
VERTEX
  8
LAYER_1
 10
149.8113
 20
36.8694
 42
-0.09577200427
  0
VERTEX
  8
LAYER_1
 10
149.924
 20
36.6978
 42
-0.09400765476
  0
SEQEND
  0
POLYLINE
  8
LAYER_1
 40
0.05
 41
0.05
 66
1
 10
0
 20
0
 30
0
 70
1
  0
VERTEX
  8
LAYER_1
 10
149.8541
 20
36.4798
  0
VERTEX
  8
LAYER_1
 10
149.8251
 20
36.6517
  0
VERTEX
  8
LAYER_1
 10
149.7404
 20
36.795
  0
VERTEX
  8
LAYER_1
 10
149.6053
 20
36.8932
  0
VERTEX
  8
LAYER_1
 10
149.4265
 20
36.93
  0
VERTEX
  8
LAYER_1
 10
149.2478
 20
36.8932
  0
VERTEX
  8
LAYER_1
 10
149.113
 20
36.795
  0
VERTEX
  8
LAYER_1
 10
149.0283
 20
36.6517
  0
VERTEX
  8
LAYER_1
 10
148.999
 20
36.4798
  0
VERTEX
  8
LAYER_1
 10
149.0283
 20
36.3079
  0
VERTEX
  8
LAYER_1
 10
149.113
 20
36.1649
  0
VERTEX
  8
LAYER_1
 10
149.2478
 20
36.0674
 42
0.1008814383
  0
VERTEX
  8
LAYER_1
 10
149.4265
 20
36.0309
 42
0.1157330551
  0
VERTEX
  8
LAYER_1
 10
149.6053
 20
36.0674
  0
VERTEX
  8
LAYER_1
 10
149.7404
 20
36.1649
  0
VERTEX
  8
LAYER_1
 10
149.8251
 20
36.3079
  0
SEQEND
  0
ENDBLK
  0
BLOCK
  8
LAYER_1
  2
AIGNBL01030015
 70
64
 10
0
 20
0
 30
0
  3
AIGNBL01030015
  0
POLYLINE
  8
LAYER_1
 40
0.05
 41
0.05
 66
1
 10
0
 20
0
 30
0
 70
1
  0
VERTEX
  8
LAYER_1
 10
150.7398
 20
35.9637
  0
VERTEX
  8
LAYER_1
 10
150.6351
 20
35.9637
  0
VERTEX
  8
LAYER_1
 10
150.6351
 20
36.4091
  0
VERTEX
  8
LAYER_1
 10
150.2482
 20
36.9969
  0
VERTEX
  8
LAYER_1
 10
150.3795
 20
36.9969
  0
VERTEX
  8
LAYER_1
 10
150.6905
 20
36.4967
  0
VERTEX
  8
LAYER_1
 10
151.0041
 20
36.9969
  0
VERTEX
  8
LAYER_1
 10
151.1263
 20
36.9969
  0
VERTEX
  8
LAYER_1
 10
150.7398
 20
36.4091
  0
SEQEND
  0
ENDBLK
  0
BLOCK
  8
LAYER_1
  2
AIGNBL01030016
 70
64
 10
0
 20
0
 30
0
  3
AIGNBL01030016
  0
POLYLINE
  8
LAYER_1
 40
0.05
 41
0.05
 66
1
 10
0
 20
0
 30
0
 70
1
  0
VERTEX
  8
LAYER_1
 10
152.0314
 20
36.9969
  0
VERTEX
  8
LAYER_1
 10
152.339
 20
36.9969
  0
VERTEX
  8
LAYER_1
 10
152.4575
 20
36.9845
  0
VERTEX
  8
LAYER_1
 10
152.5643
 20
36.9421
  0
VERTEX
  8
LAYER_1
 10
152.6422
 20
36.8611
  0
VERTEX
  8
LAYER_1
 10
152.6718
 20
36.733
 42
-0.1790346201
  0
VERTEX
  8
LAYER_1
 10
152.6219
 20
36.5907
 42
-0.1642933266
  0
VERTEX
  8
LAYER_1
 10
152.4885
 20
36.5111
  0
VERTEX
  8
LAYER_1
 10
152.4885
 20
36.5084
 42
-0.1735805246
  0
VERTEX
  8
LAYER_1
 10
152.6553
 20
36.4302
 42
-0.1921994171
  0
VERTEX
  8
LAYER_1
 10
152.7214
 20
36.2496
  0
VERTEX
  8
LAYER_1
 10
152.6942
 20
36.1325
  0
VERTEX
  8
LAYER_1
 10
152.6181
 20
36.0419
  0
VERTEX
  8
LAYER_1
 10
152.4972
 20
35.9844
  0
VERTEX
  8
LAYER_1
 10
152.3373
 20
35.9637
  0
VERTEX
  8
LAYER_1
 10
152.0314
 20
35.9637
  0
SEQEND
  0
POLYLINE
  8
LAYER_1
 40
0.05
 41
0.05
 66
1
 10
0
 20
0
 30
0
 70
1
  0
VERTEX
  8
LAYER_1
 10
152.1364
 20
36.5445
  0
VERTEX
  8
LAYER_1
 10
152.348
 20
36.5445
  0
VERTEX
  8
LAYER_1
 10
152.4248
 20
36.5535
  0
VERTEX
  8
LAYER_1
 10
152.4951
 20
36.5831
  0
VERTEX
  8
LAYER_1
 10
152.5471
 20
36.6396
  0
VERTEX
  8
LAYER_1
 10
152.5668
 20
36.7258
  0
VERTEX
  8
LAYER_1
 10
152.5471
 20
36.8095
  0
VERTEX
  8
LAYER_1
 10
152.494
 20
36.8656
  0
VERTEX
  8
LAYER_1
 10
152.4152
 20
36.897
  0
VERTEX
  8
LAYER_1
 10
152.3187
 20
36.9066
  0
VERTEX
  8
LAYER_1
 10
152.1364
 20
36.9066
  0
SEQEND
  0
POLYLINE
  8
LAYER_1
 40
0.05
 41
0.05
 66
1
 10
0
 20
0
 30
0
 70
1
  0
VERTEX
  8
LAYER_1
 10
152.1364
 20
36.0543
  0
VERTEX
  8
LAYER_1
 10
152.3321
 20
36.0543
  0
VERTEX
  8
LAYER_1
 10
152.4406
 20
36.0653
  0
VERTEX
  8
LAYER_1
 10
152.5313
 20
36.1001
  0
VERTEX
  8
LAYER_1
 10
152.5929
 20
36.1632
  0
VERTEX
  8
LAYER_1
 10
152.6164
 20
36.2559
 42
0.2557371221
  0
VERTEX
  8
LAYER_1
 10
152.5471
 20
36.4081
 42
0.1381508151
  0
VERTEX
  8
LAYER_1
 10
152.3511
 20
36.4584
  0
VERTEX
  8
LAYER_1
 10
152.1364
 20
36.4584
  0
SEQEND
  0
ENDBLK
  0
BLOCK
  8
LAYER_1
  2
AIGNBL01030017
 70
64
 10
0
 20
0
 30
0
  3
AIGNBL01030017
  0
POLYLINE
  8
LAYER_1
 40
0.05
 41
0.05
 66
1
 10
0
 20
0
 30
0
 70
1
  0
VERTEX
  8
LAYER_1
 10
153.1534
 20
35.9637
  0
VERTEX
  8
LAYER_1
 10
153.038
 20
35.9637
  0
VERTEX
  8
LAYER_1
 10
153.4849
 20
36.9969
  0
VERTEX
  8
LAYER_1
 10
153.5872
 20
36.9969
  0
VERTEX
  8
LAYER_1
 10
154.0306
 20
35.9637
  0
VERTEX
  8
LAYER_1
 10
153.9138
 20
35.9637
  0
VERTEX
  8
LAYER_1
 10
153.7997
 20
36.2352
  0
VERTEX
  8
LAYER_1
 10
153.2657
 20
36.2352
  0
SEQEND
  0
POLYLINE
  8
LAYER_1
 40
0.05
 41
0.05
 66
1
 10
0
 20
0
 30
0
 70
1
  0
VERTEX
  8
LAYER_1
 10
153.305
 20
36.3316
  0
VERTEX
  8
LAYER_1
 10
153.7604
 20
36.3316
  0
VERTEX
  8
LAYER_1
 10
153.5327
 20
36.8804
  0
SEQEND
  0
ENDBLK
  0
BLOCK
  8
LAYER_1
  2
AIGNBL01030018
 70
64
 10
0
 20
0
 30
0
  3
AIGNBL01030018
  0
POLYLINE
  8
LAYER_1
 40
0.05
 41
0.05
 66
1
 10
0
 20
0
 30
0
 70
1
  0
VERTEX
  8
LAYER_1
 10
154.7151
 20
35.9637
  0
VERTEX
  8
LAYER_1
 10
154.61
 20
35.9637
  0
VERTEX
  8
LAYER_1
 10
154.61
 20
36.9035
  0
VERTEX
  8
LAYER_1
 10
154.2638
 20
36.9035
  0
VERTEX
  8
LAYER_1
 10
154.2638
 20
36.9969
  0
VERTEX
  8
LAYER_1
 10
155.0606
 20
36.9969
  0
VERTEX
  8
LAYER_1
 10
155.0606
 20
36.9035
  0
VERTEX
  8
LAYER_1
 10
154.7151
 20
36.9035
  0
SEQEND
  0
ENDBLK
  0
BLOCK
  8
LAYER_1
  2
AIGNBL01030019
 70
64
 10
0
 20
0
 30
0
  3
AIGNBL01030019
  0
POLYLINE
  8
LAYER_1
 40
0.05
 41
0.05
 66
1
 10
0
 20
0
 30
0
 70
1
  0
VERTEX
  8
LAYER_1
 10
155.4169
 20
36.9969
  0
VERTEX
  8
LAYER_1
 10
155.5216
 20
36.9969
  0
VERTEX
  8
LAYER_1
 10
155.5216
 20
36.549
  0
VERTEX
  8
LAYER_1
 10
156.0852
 20
36.549
  0
VERTEX
  8
LAYER_1
 10
156.0852
 20
36.9969
  0
VERTEX
  8
LAYER_1
 10
156.1903
 20
36.9969
  0
VERTEX
  8
LAYER_1
 10
156.1903
 20
35.9637
  0
VERTEX
  8
LAYER_1
 10
156.0852
 20
35.9637
  0
VERTEX
  8
LAYER_1
 10
156.0852
 20
36.4529
  0
VERTEX
  8
LAYER_1
 10
155.5216
 20
36.4529
  0
VERTEX
  8
LAYER_1
 10
155.5216
 20
35.9637
  0
VERTEX
  8
LAYER_1
 10
155.4169
 20
35.9637
  0
SEQEND
  0
ENDBLK
  0
BLOCK
  8
LAYER_1
  2
AIGNBL0103001A
 70
64
 10
0
 20
0
 30
0
  3
AIGNBL0103001A
  0
POLYLINE
  8
LAYER_1
 40
0.05
 41
0.05
 66
1
 10
0
 20
0
 30
0
 70
1
  0
VERTEX
  8
LAYER_1
 10
156.7708
 20
35.9637
  0
VERTEX
  8
LAYER_1
 10
156.6657
 20
35.9637
  0
VERTEX
  8
LAYER_1
 10
156.6657
 20
36.9969
  0
VERTEX
  8
LAYER_1
 10
156.9696
 20
36.9969
  0
VERTEX
  8
LAYER_1
 10
157.1101
 20
36.9824
  0
VERTEX
  8
LAYER_1
 10
157.2228
 20
36.9349
  0
VERTEX
  8
LAYER_1
 10
157.2962
 20
36.8494
  0
VERTEX
  8
LAYER_1
 10
157.3223
 20
36.7213
  0
VERTEX
  8
LAYER_1
 10
157.3024
 20
36.6176
  0
VERTEX
  8
LAYER_1
 10
157.2469
 20
36.5366
  0
VERTEX
  8
LAYER_1
 10
157.1635
 20
36.4818
  0
VERTEX
  8
LAYER_1
 10
157.0585
 20
36.4557
  0
VERTEX
  8
LAYER_1
 10
157.3606
 20
35.9637
  0
VERTEX
  8
LAYER_1
 10
157.2321
 20
35.9637
  0
VERTEX
  8
LAYER_1
 10
156.9461
 20
36.4467
  0
VERTEX
  8
LAYER_1
 10
156.7708
 20
36.4467
  0
SEQEND
  0
POLYLINE
  8
LAYER_1
 40
0.05
 41
0.05
 66
1
 10
0
 20
0
 30
0
 70
1
  0
VERTEX
  8
LAYER_1
 10
156.7708
 20
36.5373
  0
VERTEX
  8
LAYER_1
 10
156.9534
 20
36.5373
 42
0.165389034
  0
VERTEX
  8
LAYER_1
 10
157.1491
 20
36.5831
 42
0.2500512188
  0
VERTEX
  8
LAYER_1
 10
157.2176
 20
36.7213
  0
VERTEX
  8
LAYER_1
 10
157.1983
 20
36.8071
  0
VERTEX
  8
LAYER_1
 10
157.146
 20
36.8643
  0
VERTEX
  8
LAYER_1
 10
157.0643
 20
36.8963
  0
VERTEX
  8
LAYER_1
 10
156.9578
 20
36.9066
  0
VERTEX
  8
LAYER_1
 10
156.7708
 20
36.9066
  0
SEQEND
  0
ENDBLK
  0
BLOCK
  8
LAYER_1
  2
AIGNBL0103001B
 70
64
 10
0
 20
0
 30
0
  3
AIGNBL0103001B
  0
POLYLINE
  8
LAYER_1
 40
0.05
 41
0.05
 66
1
 10
0
 20
0
 30
0
 70
1
  0
VERTEX
  8
LAYER_1
 10
158.7627
 20
36.4805
 42
-0.1007216321
  0
VERTEX
  8
LAYER_1
 10
158.7221
 20
36.2631
 42
-0.1006914115
  0
VERTEX
  8
LAYER_1
 10
158.6087
 20
36.0915
 42
-0.09598545762
  0
VERTEX
  8
LAYER_1
 10
158.4382
 20
35.9785
 42
-0.09506675375
  0
VERTEX
  8
LAYER_1
 10
158.2243
 20
35.9375
 42
-0.1012083438
  0
VERTEX
  8
LAYER_1
 10
158.0103
 20
35.9785
 42
-0.1000476754
  0
VERTEX
  8
LAYER_1
 10
157.8398
 20
36.0915
 42
-0.09637642458
  0
VERTEX
  8
LAYER_1
 10
157.7268
 20
36.2631
 42
-0.09293305267
  0
VERTEX
  8
LAYER_1
 10
157.6862
 20
36.4805
 42
-0.1024980643
  0
VERTEX
  8
LAYER_1
 10
157.7268
 20
36.6978
 42
-0.101511181
  0
VERTEX
  8
LAYER_1
 10
157.8398
 20
36.8694
 42
-0.09563682649
  0
VERTEX
  8
LAYER_1
 10
158.0103
 20
36.9824
 42
-0.09502028874
  0
VERTEX
  8
LAYER_1
 10
158.2243
 20
37.0234
 42
-0.101175466
  0
VERTEX
  8
LAYER_1
 10
158.4382
 20
36.9824
 42
-0.1020868526
  0
VERTEX
  8
LAYER_1
 10
158.6087
 20
36.8694
 42
-0.09463764759
  0
VERTEX
  8
LAYER_1
 10
158.7221
 20
36.6978
 42
-0.09279149058
  0
SEQEND
  0
POLYLINE
  8
LAYER_1
 40
0.05
 41
0.05
 66
1
 10
0
 20
0
 30
0
 70
1
  0
VERTEX
  8
LAYER_1
 10
158.6518
 20
36.4798
  0
VERTEX
  8
LAYER_1
 10
158.6225
 20
36.6517
  0
VERTEX
  8
LAYER_1
 10
158.5378
 20
36.795
  0
VERTEX
  8
LAYER_1
 10
158.4031
 20
36.8932
  0
VERTEX
  8
LAYER_1
 10
158.2243
 20
36.93
  0
VERTEX
  8
LAYER_1
 10
158.0455
 20
36.8932
  0
VERTEX
  8
LAYER_1
 10
157.9104
 20
36.795
  0
VERTEX
  8
LAYER_1
 10
157.8257
 20
36.6517
  0
VERTEX
  8
LAYER_1
 10
157.7968
 20
36.4798
  0
VERTEX
  8
LAYER_1
 10
157.8257
 20
36.3079
  0
VERTEX
  8
LAYER_1
 10
157.9104
 20
36.1649
  0
VERTEX
  8
LAYER_1
 10
158.0455
 20
36.0674
 42
0.1008280473
  0
VERTEX
  8
LAYER_1
 10
158.2243
 20
36.0309
  0
VERTEX
  8
LAYER_1
 10
158.4031
 20
36.0674
  0
VERTEX
  8
LAYER_1
 10
158.5378
 20
36.1649
  0
VERTEX
  8
LAYER_1
 10
158.6225
 20
36.3079
  0
SEQEND
  0
ENDBLK
  0
BLOCK
  8
LAYER_1
  2
AIGNBL0103001C
 70
64
 10
0
 20
0
 30
0
  3
AIGNBL0103001C
  0
POLYLINE
  8
LAYER_1
 40
0.05
 41
0.05
 66
1
 10
0
 20
0
 30
0
 70
1
  0
VERTEX
  8
LAYER_1
 10
160.2045
 20
36.4805
 42
-0.1041417444
  0
VERTEX
  8
LAYER_1
 10
160.1635
 20
36.2631
 42
-0.09974098701
  0
VERTEX
  8
LAYER_1
 10
160.0509
 20
36.0915
 42
-0.09536265516
  0
VERTEX
  8
LAYER_1
 10
159.88
 20
35.9785
 42
-0.09506675375
  0
VERTEX
  8
LAYER_1
 10
159.6661
 20
35.9375
 42
-0.1018653774
  0
VERTEX
  8
LAYER_1
 10
159.4524
 20
35.9785
 42
-0.1019766254
  0
VERTEX
  8
LAYER_1
 10
159.2816
 20
36.0915
 42
-0.09463339148
  0
VERTEX
  8
LAYER_1
 10
159.1682
 20
36.2631
 42
-0.09293305267
  0
VERTEX
  8
LAYER_1
 10
159.1276
 20
36.4805
 42
-0.1024980643
  0
VERTEX
  8
LAYER_1
 10
159.1682
 20
36.6978
 42
-0.1011981835
  0
VERTEX
  8
LAYER_1
 10
159.2816
 20
36.8694
 42
-0.09612009159
  0
VERTEX
  8
LAYER_1
 10
159.4524
 20
36.9824
 42
-0.09524800311
  0
VERTEX
  8
LAYER_1
 10
159.6661
 20
37.0234
 42
-0.101175466
  0
VERTEX
  8
LAYER_1
 10
159.88
 20
36.9824
 42
-0.09853409661
  0
VERTEX
  8
LAYER_1
 10
160.0509
 20
36.8694
 42
-0.09555545285
  0
VERTEX
  8
LAYER_1
 10
160.1635
 20
36.6978
 42
-0.09400765476
  0
SEQEND
  0
POLYLINE
  8
LAYER_1
 40
0.05
 41
0.05
 66
1
 10
0
 20
0
 30
0
 70
1
  0
VERTEX
  8
LAYER_1
 10
160.0936
 20
36.4798
  0
VERTEX
  8
LAYER_1
 10
160.0647
 20
36.6517
  0
VERTEX
  8
LAYER_1
 10
159.9799
 20
36.795
  0
VERTEX
  8
LAYER_1
 10
159.8448
 20
36.8932
  0
VERTEX
  8
LAYER_1
 10
159.6661
 20
36.93
  0
VERTEX
  8
LAYER_1
 10
159.4872
 20
36.8932
  0
VERTEX
  8
LAYER_1
 10
159.3525
 20
36.795
  0
VERTEX
  8
LAYER_1
 10
159.2678
 20
36.6517
  0
VERTEX
  8
LAYER_1
 10
159.2385
 20
36.4798
  0
VERTEX
  8
LAYER_1
 10
159.2678
 20
36.3079
  0
VERTEX
  8
LAYER_1
 10
159.3525
 20
36.1649
  0
VERTEX
  8
LAYER_1
 10
159.4872
 20
36.0674
  0
VERTEX
  8
LAYER_1
 10
159.6661
 20
36.0309
  0
VERTEX
  8
LAYER_1
 10
159.8448
 20
36.0674
  0
VERTEX
  8
LAYER_1
 10
159.9799
 20
36.1649
  0
VERTEX
  8
LAYER_1
 10
160.0647
 20
36.3079
  0
SEQEND
  0
ENDBLK
  0
BLOCK
  8
LAYER_1
  2
AIGNBL0103001D
 70
64
 10
0
 20
0
 30
0
  3
AIGNBL0103001D
  0
POLYLINE
  8
LAYER_1
 40
0.05
 41
0.05
 66
1
 10
0
 20
0
 30
0
 70
1
  0
VERTEX
  8
LAYER_1
 10
161.1354
 20
36.1418
  0
VERTEX
  8
LAYER_1
 10
161.1371
 20
36.1418
  0
VERTEX
  8
LAYER_1
 10
161.4826
 20
36.9969
  0
VERTEX
  8
LAYER_1
 10
161.6435
 20
36.9969
  0
VERTEX
  8
LAYER_1
 10
161.6435
 20
35.9637
  0
VERTEX
  8
LAYER_1
 10
161.5381
 20
35.9637
  0
VERTEX
  8
LAYER_1
 10
161.5381
 20
36.8611
  0
VERTEX
  8
LAYER_1
 10
161.5354
 20
36.8611
  0
VERTEX
  8
LAYER_1
 10
161.1619
 20
35.9637
  0
VERTEX
  8
LAYER_1
 10
161.1064
 20
35.9637
  0
VERTEX
  8
LAYER_1
 10
160.7326
 20
36.8611
  0
VERTEX
  8
LAYER_1
 10
160.7299
 20
36.8611
  0
VERTEX
  8
LAYER_1
 10
160.7299
 20
35.9637
  0
VERTEX
  8
LAYER_1
 10
160.6248
 20
35.9637
  0
VERTEX
  8
LAYER_1
 10
160.6248
 20
36.9969
  0
VERTEX
  8
LAYER_1
 10
160.7853
 20
36.9969
  0
SEQEND
  0
ENDBLK
  0
BLOCK
  8
LAYER_1
  2
AIGNBL0103001E
 70
64
 10
0
 20
0
 30
0
  3
AIGNBL0103001E
  0
POLYLINE
  8
LAYER_1
 40
0.05
 41
0.05
 66
1
 10
0
 20
0
 30
0
 70
1
  0
VERTEX
  8
LAYER_1
 10
162.79
 20
36.0574
  0
VERTEX
  8
LAYER_1
 10
163.3433
 20
36.0574
  0
VERTEX
  8
LAYER_1
 10
163.3433
 20
35.9637
  0
VERTEX
  8
LAYER_1
 10
162.685
 20
35.9637
  0
VERTEX
  8
LAYER_1
 10
162.685
 20
36.9969
  0
VERTEX
  8
LAYER_1
 10
163.3258
 20
36.9969
  0
VERTEX
  8
LAYER_1
 10
163.3258
 20
36.9035
  0
VERTEX
  8
LAYER_1
 10
162.79
 20
36.9035
  0
VERTEX
  8
LAYER_1
 10
162.79
 20
36.549
  0
VERTEX
  8
LAYER_1
 10
163.2906
 20
36.549
  0
VERTEX
  8
LAYER_1
 10
163.2906
 20
36.4557
  0
VERTEX
  8
LAYER_1
 10
162.79
 20
36.4557
  0
SEQEND
  0
ENDBLK
  0
BLOCK
  8
LAYER_1
  2
AIGNBL0103001F
 70
64
 10
0
 20
0
 30
0
  3
AIGNBL0103001F
  0
POLYLINE
  8
LAYER_1
 40
0.05
 41
0.05
 66
1
 10
0
 20
0
 30
0
 70
1
  0
VERTEX
  8
LAYER_1
 10
164.0885
 20
36.5797
  0
VERTEX
  8
LAYER_1
 10
164.3707
 20
36.9969
  0
VERTEX
  8
LAYER_1
 10
164.4957
 20
36.9969
  0
VERTEX
  8
LAYER_1
 10
164.1533
 20
36.5053
  0
VERTEX
  8
LAYER_1
 10
164.5326
 20
35.9637
  0
VERTEX
  8
LAYER_1
 10
164.4013
 20
35.9637
  0
VERTEX
  8
LAYER_1
 10
164.0858
 20
36.4295
  0
VERTEX
  8
LAYER_1
 10
163.7722
 20
35.9637
  0
VERTEX
  8
LAYER_1
 10
163.6407
 20
35.9637
  0
VERTEX
  8
LAYER_1
 10
164.0203
 20
36.5066
  0
VERTEX
  8
LAYER_1
 10
163.6744
 20
36.9969
  0
VERTEX
  8
LAYER_1
 10
163.806
 20
36.9969
  0
SEQEND
  0
ENDBLK
  0
BLOCK
  8
LAYER_1
  2
AIGNBL01030020
 70
64
 10
0
 20
0
 30
0
  3
AIGNBL01030020
  0
POLYLINE
  8
LAYER_1
 40
0.05
 41
0.05
 66
1
 10
0
 20
0
 30
0
 70
1
  0
VERTEX
  8
LAYER_1
 10
164.8988
 20
36.9969
  0
VERTEX
  8
LAYER_1
 10
165.1909
 20
36.9969
  0
VERTEX
  8
LAYER_1
 10
165.3339
 20
36.9804
  0
VERTEX
  8
LAYER_1
 10
165.4438
 20
36.929
  0
VERTEX
  8
LAYER_1
 10
165.5148
 20
36.8429
  0
VERTEX
  8
LAYER_1
 10
165.5392
 20
36.7213
  0
VERTEX
  8
LAYER_1
 10
165.5141
 20
36.5993
  0
VERTEX
  8
LAYER_1
 10
165.4424
 20
36.5132
  0
VERTEX
  8
LAYER_1
 10
165.3315
 20
36.4615
  0
VERTEX
  8
LAYER_1
 10
165.1878
 20
36.444
  0
VERTEX
  8
LAYER_1
 10
165.0039
 20
36.444
  0
VERTEX
  8
LAYER_1
 10
165.0039
 20
35.9637
  0
VERTEX
  8
LAYER_1
 10
164.8988
 20
35.9637
  0
SEQEND
  0
POLYLINE
  8
LAYER_1
 40
0.05
 41
0.05
 66
1
 10
0
 20
0
 30
0
 70
1
  0
VERTEX
  8
LAYER_1
 10
165.0039
 20
36.5328
  0
VERTEX
  8
LAYER_1
 10
165.1816
 20
36.5328
 42
0.1829732243
  0
VERTEX
  8
LAYER_1
 10
165.3701
 20
36.581
 42
0.2345943979
  0
VERTEX
  8
LAYER_1
 10
165.4345
 20
36.7213
 42
0.26486771
  0
VERTEX
  8
LAYER_1
 10
165.368
 20
36.8622
 42
0.126412566
  0
VERTEX
  8
LAYER_1
 10
165.1816
 20
36.9066
  0
VERTEX
  8
LAYER_1
 10
165.0039
 20
36.9066
  0
SEQEND
  0
ENDBLK
  0
BLOCK
  8
LAYER_1
  2
AIGNBL01030021
 70
64
 10
0
 20
0
 30
0
  3
AIGNBL01030021
  0
POLYLINE
  8
LAYER_1
 40
0.05
 41
0.05
 66
1
 10
0
 20
0
 30
0
 70
1
  0
VERTEX
  8
LAYER_1
 10
166.0515
 20
36.0574
  0
VERTEX
  8
LAYER_1
 10
166.6048
 20
36.0574
  0
VERTEX
  8
LAYER_1
 10
166.6048
 20
35.9637
  0
VERTEX
  8
LAYER_1
 10
165.9465
 20
35.9637
  0
VERTEX
  8
LAYER_1
 10
165.9465
 20
36.9969
  0
VERTEX
  8
LAYER_1
 10
166.5872
 20
36.9969
  0
VERTEX
  8
LAYER_1
 10
166.5872
 20
36.9035
  0
VERTEX
  8
LAYER_1
 10
166.0515
 20
36.9035
  0
VERTEX
  8
LAYER_1
 10
166.0515
 20
36.549
  0
VERTEX
  8
LAYER_1
 10
166.5521
 20
36.549
  0
VERTEX
  8
LAYER_1
 10
166.5521
 20
36.4557
  0
VERTEX
  8
LAYER_1
 10
166.0515
 20
36.4557
  0
SEQEND
  0
ENDBLK
  0
BLOCK
  8
LAYER_1
  2
AIGNBL01030022
 70
64
 10
0
 20
0
 30
0
  3
AIGNBL01030022
  0
POLYLINE
  8
LAYER_1
 40
0.05
 41
0.05
 66
1
 10
0
 20
0
 30
0
 70
1
  0
VERTEX
  8
LAYER_1
 10
167.1168
 20
35.9637
  0
VERTEX
  8
LAYER_1
 10
167.0117
 20
35.9637
  0
VERTEX
  8
LAYER_1
 10
167.0117
 20
36.9969
  0
VERTEX
  8
LAYER_1
 10
167.3155
 20
36.9969
  0
VERTEX
  8
LAYER_1
 10
167.4561
 20
36.9824
  0
VERTEX
  8
LAYER_1
 10
167.5687
 20
36.9349
  0
VERTEX
  8
LAYER_1
 10
167.6425
 20
36.8494
  0
VERTEX
  8
LAYER_1
 10
167.6683
 20
36.7213
  0
VERTEX
  8
LAYER_1
 10
167.6483
 20
36.6176
  0
VERTEX
  8
LAYER_1
 10
167.5929
 20
36.5366
  0
VERTEX
  8
LAYER_1
 10
167.5095
 20
36.4818
  0
VERTEX
  8
LAYER_1
 10
167.4044
 20
36.4557
  0
VERTEX
  8
LAYER_1
 10
167.7066
 20
35.9637
  0
VERTEX
  8
LAYER_1
 10
167.578
 20
35.9637
  0
VERTEX
  8
LAYER_1
 10
167.2921
 20
36.4467
  0
VERTEX
  8
LAYER_1
 10
167.1168
 20
36.4467
  0
SEQEND
  0
POLYLINE
  8
LAYER_1
 40
0.05
 41
0.05
 66
1
 10
0
 20
0
 30
0
 70
1
  0
VERTEX
  8
LAYER_1
 10
167.1168
 20
36.5373
  0
VERTEX
  8
LAYER_1
 10
167.2994
 20
36.5373
 42
0.1667243505
  0
VERTEX
  8
LAYER_1
 10
167.495
 20
36.5831
 42
0.2503949893
  0
VERTEX
  8
LAYER_1
 10
167.5636
 20
36.7213
  0
VERTEX
  8
LAYER_1
 10
167.5446
 20
36.8071
  0
VERTEX
  8
LAYER_1
 10
167.4919
 20
36.8643
  0
VERTEX
  8
LAYER_1
 10
167.4103
 20
36.8963
  0
VERTEX
  8
LAYER_1
 10
167.3038
 20
36.9066
  0
VERTEX
  8
LAYER_1
 10
167.1168
 20
36.9066
  0
SEQEND
  0
ENDBLK
  0
BLOCK
  8
LAYER_1
  2
AIGNBL01030023
 70
64
 10
0
 20
0
 30
0
  3
AIGNBL01030023
  0
POLYLINE
  8
LAYER_1
 40
0.05
 41
0.05
 66
1
 10
0
 20
0
 30
0
 70
1
  0
VERTEX
  8
LAYER_1
 10
168.1923
 20
35.9637
  0
VERTEX
  8
LAYER_1
 10
168.0876
 20
35.9637
  0
VERTEX
  8
LAYER_1
 10
168.0876
 20
36.9969
  0
VERTEX
  8
LAYER_1
 10
168.1923
 20
36.9969
  0
SEQEND
  0
ENDBLK
  0
BLOCK
  8
LAYER_1
  2
AIGNBL01030024
 70
64
 10
0
 20
0
 30
0
  3
AIGNBL01030024
  0
POLYLINE
  8
LAYER_1
 40
0.05
 41
0.05
 66
1
 10
0
 20
0
 30
0
 70
1
  0
VERTEX
  8
LAYER_1
 10
168.7732
 20
36.0574
  0
VERTEX
  8
LAYER_1
 10
169.3261
 20
36.0574
  0
VERTEX
  8
LAYER_1
 10
169.3261
 20
35.9637
  0
VERTEX
  8
LAYER_1
 10
168.6681
 20
35.9637
  0
VERTEX
  8
LAYER_1
 10
168.6681
 20
36.9969
  0
VERTEX
  8
LAYER_1
 10
169.3089
 20
36.9969
  0
VERTEX
  8
LAYER_1
 10
169.3089
 20
36.9035
  0
VERTEX
  8
LAYER_1
 10
168.7732
 20
36.9035
  0
VERTEX
  8
LAYER_1
 10
168.7732
 20
36.549
  0
VERTEX
  8
LAYER_1
 10
169.2737
 20
36.549
  0
VERTEX
  8
LAYER_1
 10
169.2737
 20
36.4557
  0
VERTEX
  8
LAYER_1
 10
168.7732
 20
36.4557
  0
SEQEND
  0
ENDBLK
  0
BLOCK
  8
LAYER_1
  2
AIGNBL01030025
 70
64
 10
0
 20
0
 30
0
  3
AIGNBL01030025
  0
POLYLINE
  8
LAYER_1
 40
0.05
 41
0.05
 66
1
 10
0
 20
0
 30
0
 70
1
  0
VERTEX
  8
LAYER_1
 10
170.4661
 20
36.117
  0
VERTEX
  8
LAYER_1
 10
170.4689
 20
36.117
  0
VERTEX
  8
LAYER_1
 10
170.4689
 20
36.9969
  0
VERTEX
  8
LAYER_1
 10
170.5739
 20
36.9969
  0
VERTEX
  8
LAYER_1
 10
170.5739
 20
35.9637
  0
VERTEX
  8
LAYER_1
 10
170.4426
 20
35.9637
  0
VERTEX
  8
LAYER_1
 10
169.8415
 20
36.8525
  0
VERTEX
  8
LAYER_1
 10
169.8384
 20
36.8525
  0
VERTEX
  8
LAYER_1
 10
169.8384
 20
35.9637
  0
VERTEX
  8
LAYER_1
 10
169.7333
 20
35.9637
  0
VERTEX
  8
LAYER_1
 10
169.7333
 20
36.9969
  0
VERTEX
  8
LAYER_1
 10
169.8649
 20
36.9969
  0
SEQEND
  0
ENDBLK
  0
BLOCK
  8
LAYER_1
  2
AIGNBL01030026
 70
64
 10
0
 20
0
 30
0
  3
AIGNBL01030026
  0
POLYLINE
  8
LAYER_1
 40
0.05
 41
0.05
 66
1
 10
0
 20
0
 30
0
 70
1
  0
VERTEX
  8
LAYER_1
 10
171.9196
 20
36.1315
  0
VERTEX
  8
LAYER_1
 10
171.8558
 20
36.0571
  0
VERTEX
  8
LAYER_1
 10
171.7697
 20
35.9954
  0
VERTEX
  8
LAYER_1
 10
171.6615
 20
35.953
  0
VERTEX
  8
LAYER_1
 10
171.5327
 20
35.9375
 42
-0.1011939289
  0
VERTEX
  8
LAYER_1
 10
171.3167
 20
35.9785
 42
-0.1032846426
  0
VERTEX
  8
LAYER_1
 10
171.1461
 20
36.0915
 42
-0.0974858305
  0
VERTEX
  8
LAYER_1
 10
171.0345
 20
36.2631
 42
-0.09232404316
  0
VERTEX
  8
LAYER_1
 10
170.9942
 20
36.4805
 42
-0.1041003847
  0
VERTEX
  8
LAYER_1
 10
171.0352
 20
36.6978
 42
-0.1005616574
  0
VERTEX
  8
LAYER_1
 10
171.1479
 20
36.8694
 42
-0.09522588778
  0
VERTEX
  8
LAYER_1
 10
171.3187
 20
36.9824
 42
-0.09501991035
  0
VERTEX
  8
LAYER_1
 10
171.5327
 20
37.0234
  0
VERTEX
  8
LAYER_1
 10
171.6443
 20
37.0114
  0
VERTEX
  8
LAYER_1
 10
171.7473
 20
36.9779
  0
VERTEX
  8
LAYER_1
 10
171.8348
 20
36.9263
  0
VERTEX
  8
LAYER_1
 10
171.9006
 20
36.8584
  0
VERTEX
  8
LAYER_1
 10
171.8131
 20
36.794
  0
VERTEX
  8
LAYER_1
 10
171.7697
 20
36.8439
  0
VERTEX
  8
LAYER_1
 10
171.7063
 20
36.8877
  0
VERTEX
  8
LAYER_1
 10
171.6267
 20
36.9183
  0
VERTEX
  8
LAYER_1
 10
171.5341
 20
36.93
  0
VERTEX
  8
LAYER_1
 10
171.3539
 20
36.8935
  0
VERTEX
  8
LAYER_1
 10
171.2188
 20
36.7954
  0
VERTEX
  8
LAYER_1
 10
171.1341
 20
36.652
  0
VERTEX
  8
LAYER_1
 10
171.1052
 20
36.4805
  0
VERTEX
  8
LAYER_1
 10
171.1351
 20
36.3089
  0
VERTEX
  8
LAYER_1
 10
171.2205
 20
36.1656
  0
VERTEX
  8
LAYER_1
 10
171.3556
 20
36.0674
 42
0.100995487
  0
VERTEX
  8
LAYER_1
 10
171.5341
 20
36.0309
  0
VERTEX
  8
LAYER_1
 10
171.7032
 20
36.0674
 42
0.1321059012
  0
VERTEX
  8
LAYER_1
 10
171.8376
 20
36.1842
  0
SEQEND
  0
ENDBLK
  0
BLOCK
  8
LAYER_1
  2
AIGNBL01030027
 70
64
 10
0
 20
0
 30
0
  3
AIGNBL01030027
  0
POLYLINE
  8
LAYER_1
 40
0.05
 41
0.05
 66
1
 10
0
 20
0
 30
0
 70
1
  0
VERTEX
  8
LAYER_1
 10
172.4067
 20
36.0574
  0
VERTEX
  8
LAYER_1
 10
172.96
 20
36.0574
  0
VERTEX
  8
LAYER_1
 10
172.96
 20
35.9637
  0
VERTEX
  8
LAYER_1
 10
172.3016
 20
35.9637
  0
VERTEX
  8
LAYER_1
 10
172.3016
 20
36.9969
  0
VERTEX
  8
LAYER_1
 10
172.9424
 20
36.9969
  0
VERTEX
  8
LAYER_1
 10
172.9424
 20
36.9035
  0
VERTEX
  8
LAYER_1
 10
172.4067
 20
36.9035
  0
VERTEX
  8
LAYER_1
 10
172.4067
 20
36.549
  0
VERTEX
  8
LAYER_1
 10
172.9073
 20
36.549
  0
VERTEX
  8
LAYER_1
 10
172.9073
 20
36.4557
  0
VERTEX
  8
LAYER_1
 10
172.4067
 20
36.4557
  0
SEQEND
  0
ENDBLK
  0
BLOCK
  8
LAYER_1
  2
AIGNBL01020004
 70
64
 10
0
 20
0
 30
0
  3
AIGNBL01020004
  0
POLYLINE
  8
LAYER_1
 40
0.05
 41
0.05
 66
1
 10
0
 20
0
 30
0
  0
VERTEX
  8
LAYER_1
 10
-1.196
 20
217.6012
 42
-0.07434374488
  0
VERTEX
  8
LAYER_1
 10
-1.3046
 20
216.4751
 42
-0.1312981164
  0
VERTEX
  8
LAYER_1
 10
-1.5732
 20
216.0054
 42
-0.208619006
  0
VERTEX
  8
LAYER_1
 10
-2.3408
 20
215.7164
 42
-0.1980855618
  0
VERTEX
  8
LAYER_1
 10
-3.0956
 20
216.0054
 42
-0.1359059684
  0
VERTEX
  8
LAYER_1
 10
-3.3746
 20
216.5106
 42
-0.06699191066
  0
VERTEX
  8
LAYER_1
 10
-3.4732
 20
217.6012
 42
-0.07470238595
  0
VERTEX
  8
LAYER_1
 10
-3.3644
 20
218.7157
 42
-0.1310826725
  0
VERTEX
  8
LAYER_1
 10
-3.0956
 20
219.1845
 42
-0.2061520596
  0
VERTEX
  8
LAYER_1
 10
-2.3408
 20
219.4732
 42
-0.1977437771
  0
VERTEX
  8
LAYER_1
 10
-1.5732
 20
219.1845
 42
-0.1358673357
  0
VERTEX
  8
LAYER_1
 10
-1.2943
 20
218.6804
 42
-0.06720044206
  0
VERTEX
  8
LAYER_1
 10
-1.196
 20
217.6012
  0
SEQEND
  0
POLYLINE
  8
LAYER_1
 40
0.05
 41
0.05
 66
1
 10
0
 20
0
 30
0
  0
VERTEX
  8
LAYER_1
 10
0.4394
 20
217.6012
 42
0.0577585355
  0
VERTEX
  8
LAYER_1
 10
0.3194
 20
218.9609
 42
0.1358747382
  0
VERTEX
  8
LAYER_1
 10
-0.303
 20
220.1395
 42
0.1777268905
  0
VERTEX
  8
LAYER_1
 10
-1.8892
 20
220.9154
 42
0.03495822391
  0
VERTEX
  8
LAYER_1
 10
-2.3408
 20
220.9436
 42
0.07961804251
  0
VERTEX
  8
LAYER_1
 10
-3.315
 20
220.7962
 42
0.1217450219
  0
VERTEX
  8
LAYER_1
 10
-4.3662
 20
220.1395
 42
0.09150776818
  0
VERTEX
  8
LAYER_1
 10
-4.8465
 20
219.4067
 42
0.07735978812
  0
VERTEX
  8
LAYER_1
 10
-5.0776
 20
218.3847
 42
0.03281807239
  0
VERTEX
  8
LAYER_1
 10
-5.1082
 20
217.6012
 42
0.05725233541
  0
VERTEX
  8
LAYER_1
 10
-4.9885
 20
216.2362
 42
0.1359864428
  0
VERTEX
  8
LAYER_1
 10
-4.3662
 20
215.0504
 42
0.175204158
  0
VERTEX
  8
LAYER_1
 10
-2.7508
 20
214.2702
 42
0.03231924249
  0
VERTEX
  8
LAYER_1
 10
-2.3408
 20
214.2463
 42
0.07899302184
  0
VERTEX
  8
LAYER_1
 10
-1.3625
 20
214.3937
 42
0.1216861451
  0
VERTEX
  8
LAYER_1
 10
-0.303
 20
215.0504
 42
0.09340304456
  0
VERTEX
  8
LAYER_1
 10
0.1681
 20
215.7463
 42
0.0774645698
  0
VERTEX
  8
LAYER_1
 10
0.4017
 20
216.7223
 42
0.02212089617
  0
VERTEX
  8
LAYER_1
 10
0.4394
 20
217.6012
  0
SEQEND
  0
POLYLINE
  8
LAYER_1
 40
0.05
 41
0.05
 66
1
 10
0
 20
0
 30
0
  0
VERTEX
  8
LAYER_1
 10
-11.3166
 20
218.2044
  0
VERTEX
  8
LAYER_1
 10
-13.8074
 20
218.2044
 42
-0.1153546446
  0
VERTEX
  8
LAYER_1
 10
-13.6562
 20
218.9079
 42
-0.3007040875
  0
VERTEX
  8
LAYER_1
 10
-12.562
 20
219.5866
 42
-0.1235431447
  0
VERTEX
  8
LAYER_1
 10
-11.9621
 20
219.4464
 42
-0.1667603161
  0
VERTEX
  8
LAYER_1
 10
-11.4672
 20
218.9079
 42
-0.1143399212
  0
VERTEX
  8
LAYER_1
 10
-11.3166
 20
218.2044
  0
SEQEND
  0
POLYLINE
  8
LAYER_1
 40
0.05
 41
0.05
 66
1
 10
0
 20
0
 30
0
 70
1
  0
VERTEX
  8
LAYER_1
 10
-9.7064
 20
217.0861
  0
VERTEX
  8
LAYER_1
 10
-9.7064
 20
217.7772
 42
0.0677042249
  0
VERTEX
  8
LAYER_1
 10
-9.852
 20
218.9102
 42
0.07767771487
  0
VERTEX
  8
LAYER_1
 10
-10.2392
 20
219.7789
 42
0.1724975422
  0
VERTEX
  8
LAYER_1
 10
-11.5857
 20
220.7996
 42
0.07776532921
  0
VERTEX
  8
LAYER_1
 10
-12.562
 20
220.9436
 42
0.0796960513
  0
VERTEX
  8
LAYER_1
 10
-13.5247
 20
220.7966
 42
0.168887661
  0
VERTEX
  8
LAYER_1
 10
-14.846
 20
219.7874
 42
0.07658055294
  0
VERTEX
  8
LAYER_1
 10
-15.2466
 20
218.9066
 42
0.07097127065
  0
VERTEX
  8
LAYER_1
 10
-15.4177
 20
217.6012
 42
0.05685454964
  0
VERTEX
  8
LAYER_1
 10
-15.2934
 20
216.4004
 42
0.07540481703
  0
VERTEX
  8
LAYER_1
 10
-14.9492
 20
215.5069
 42
0.1774924504
  0
VERTEX
  8
LAYER_1
 10
-13.6777
 20
214.4527
 42
0.08958127581
  0
VERTEX
  8
LAYER_1
 10
-12.386
 20
214.2463
 42
0.07080596686
  0
VERTEX
  8
LAYER_1
 10
-11.2943
 20
214.3814
 42
0.08369033087
  0
VERTEX
  8
LAYER_1
 10
-10.4805
 20
214.7708
 42
0.04417423811
  0
VERTEX
  8
LAYER_1
 10
-9.8948
 20
215.2768
  0
VERTEX
  8
LAYER_1
 10
-10.8887
 20
216.2442
 42
-0.09875545259
  0
VERTEX
  8
LAYER_1
 10
-11.5612
 20
215.7667
 42
-0.1006814841
  0
VERTEX
  8
LAYER_1
 10
-12.3732
 20
215.6285
 42
-0.1070981108
  0
VERTEX
  8
LAYER_1
 10
-13.0555
 20
215.7638
 42
-0.2542521374
  0
VERTEX
  8
LAYER_1
 10
-13.7778
 20
216.7415
 42
-0.04997815034
  0
VERTEX
  8
LAYER_1
 10
-13.8074
 20
217.0861
  0
SEQEND
  0
POLYLINE
  8
LAYER_1
 40
0.05
 41
0.05
 66
1
 10
0
 20
0
 30
0
 70
1
  0
VERTEX
  8
LAYER_1
 10
-16.9018
 20
223.2773
  0
VERTEX
  8
LAYER_1
 10
-18.5517
 20
223.2773
  0
VERTEX
  8
LAYER_1
 10
-18.5517
 20
221.9454
  0
VERTEX
  8
LAYER_1
 10
-16.9018
 20
221.9454
  0
SEQEND
  0
POLYLINE
  8
LAYER_1
 40
0.05
 41
0.05
 66
1
 10
0
 20
0
 30
0
 70
1
  0
VERTEX
  8
LAYER_1
 10
-16.9146
 20
220.79
  0
VERTEX
  8
LAYER_1
 10
-18.5499
 20
220.79
  0
VERTEX
  8
LAYER_1
 10
-18.5499
 20
214.3218
  0
VERTEX
  8
LAYER_1
 10
-16.9146
 20
214.3218
  0
SEQEND
  0
POLYLINE
  8
LAYER_1
 40
0.05
 41
0.05
 66
1
 10
0
 20
0
 30
0
  0
VERTEX
  8
LAYER_1
 10
-19.8205
 20
215.1386
  0
VERTEX
  8
LAYER_1
 10
-20.9274
 20
216.2317
 42
-0.1123773458
  0
VERTEX
  8
LAYER_1
 10
-21.5025
 20
215.8017
 42
-0.09517045223
  0
VERTEX
  8
LAYER_1
 10
-21.984
 20
215.7164
 42
-0.2295666259
  0
VERTEX
  8
LAYER_1
 10
-22.9149
 20
216.1436
 42
-0.1146247369
  0
VERTEX
  8
LAYER_1
 10
-23.2025
 20
216.7765
 42
-0.05302023055
  0
VERTEX
  8
LAYER_1
 10
-23.2797
 20
217.6012
 42
-0.07909887362
  0
VERTEX
  8
LAYER_1
 10
-23.1547
 20
218.5928
 42
-0.092262399
  0
VERTEX
  8
LAYER_1
 10
-22.9149
 20
219.0461
 42
-0.2338488836
  0
VERTEX
  8
LAYER_1
 10
-21.984
 20
219.4732
 42
-0.128883052
  0
VERTEX
  8
LAYER_1
 10
-21.3835
 20
219.3322
 42
-0.07812769659
  0
VERTEX
  8
LAYER_1
 10
-20.9274
 20
218.9585
  0
VERTEX
  8
LAYER_1
 10
-19.8205
 20
220.0637
 42
0.170273791
  0
VERTEX
  8
LAYER_1
 10
-21.4399
 20
220.9062
 42
0.04126809408
  0
VERTEX
  8
LAYER_1
 10
-21.984
 20
220.9436
 42
0.07342899762
  0
VERTEX
  8
LAYER_1
 10
-22.9625
 20
220.804
 42
0.1715306153
  0
VERTEX
  8
LAYER_1
 10
-24.3547
 20
219.7917
 42
0.07792315428
  0
VERTEX
  8
LAYER_1
 10
-24.7438
 20
218.9398
 42
0.07121572719
  0
VERTEX
  8
LAYER_1
 10
-24.9151
 20
217.6012
 42
0.06071119945
  0
VERTEX
  8
LAYER_1
 10
-24.7811
 20
216.4004
 42
0.07599045696
  0
VERTEX
  8
LAYER_1
 10
-24.4186
 20
215.5069
 42
0.1707838222
  0
VERTEX
  8
LAYER_1
 10
-23.1195
 20
214.4409
 42
0.08917342928
  0
VERTEX
  8
LAYER_1
 10
-21.984
 20
214.2463
 42
0.07667723183
  0
VERTEX
  8
LAYER_1
 10
-21.0013
 20
214.3855
 42
0.1303789466
  0
VERTEX
  8
LAYER_1
 10
-19.8205
 20
215.1386
  0
SEQEND
  0
ENDBLK
  0
BLOCK
  8
LAYER_1
  2
AIGNBL01020005
 70
64
 10
0
 20
0
 30
0
  3
AIGNBL01020005
  0
POLYLINE
  8
LAYER_1
 40
0.05
 41
0.05
 66
1
 10
0
 20
0
 30
0
 70
1
  0
VERTEX
  8
LAYER_1
 10
0.3288
 20
212.6805
  0
VERTEX
  8
LAYER_1
 10
0.0009
 20
212.6805
  0
VERTEX
  8
LAYER_1
 10
-0.2479
 20
211.9109
  0
VERTEX
  8
LAYER_1
 10
-0.5066
 20
212.6805
  0
VERTEX
  8
LAYER_1
 10
-0.8342
 20
212.6805
  0
VERTEX
  8
LAYER_1
 10
-0.4084
 20
211.5234
  0
VERTEX
  8
LAYER_1
 10
-0.4611
 20
211.3704
 42
-0.396721792
  0
VERTEX
  8
LAYER_1
 10
-0.6165
 20
211.2581
  0
VERTEX
  8
LAYER_1
 10
-0.6882
 20
211.2581
  0
VERTEX
  8
LAYER_1
 10
-0.6882
 20
210.9783
  0
VERTEX
  8
LAYER_1
 10
-0.5662
 20
210.9783
 42
0.2067482179
  0
VERTEX
  8
LAYER_1
 10
-0.2985
 20
211.0741
  0
VERTEX
  8
LAYER_1
 10
-0.2048
 20
211.2343
  0
SEQEND
  0
POLYLINE
  8
LAYER_1
 40
0.05
 41
0.05
 66
1
 10
0
 20
0
 30
0
 70
1
  0
VERTEX
  8
LAYER_1
 10
-0.8704
 20
211.4352
  0
VERTEX
  8
LAYER_1
 10
-0.8704
 20
211.6977
  0
VERTEX
  8
LAYER_1
 10
-0.9899
 20
211.6977
 42
-0.4758158184
  0
VERTEX
  8
LAYER_1
 10
-1.0998
 20
211.8103
  0
VERTEX
  8
LAYER_1
 10
-1.0998
 20
213.137
  0
VERTEX
  8
LAYER_1
 10
-1.4109
 20
213.137
  0
VERTEX
  8
LAYER_1
 10
-1.4109
 20
211.7914
 42
0.4199153803
  0
VERTEX
  8
LAYER_1
 10
-1.0475
 20
211.4352
  0
SEQEND
  0
POLYLINE
  8
LAYER_1
 40
0.05
 41
0.05
 66
1
 10
0
 20
0
 30
0
 70
1
  0
VERTEX
  8
LAYER_1
 10
-1.9739
 20
211.894
 42
-0.2612643935
  0
VERTEX
  8
LAYER_1
 10
-2.0214
 20
211.7363
 42
-0.1972145384
  0
VERTEX
  8
LAYER_1
 10
-2.2057
 20
211.6763
 42
-0.4351815088
  0
VERTEX
  8
LAYER_1
 10
-2.3949
 20
211.8175
 42
-0.4650020324
  0
VERTEX
  8
LAYER_1
 10
-2.2105
 20
211.9609
  0
VERTEX
  8
LAYER_1
 10
-1.9739
 20
211.9609
  0
SEQEND
  0
POLYLINE
  8
LAYER_1
 40
0.05
 41
0.05
 66
1
 10
0
 20
0
 30
0
 70
1
  0
VERTEX
  8
LAYER_1
 10
-1.6624
 20
211.4352
  0
VERTEX
  8
LAYER_1
 10
-1.6624
 20
212.2551
 42
0.2205564812
  0
VERTEX
  8
LAYER_1
 10
-1.7881
 20
212.5772
 42
0.1806009816
  0
VERTEX
  8
LAYER_1
 10
-2.194
 20
212.6947
 42
0.2375604919
  0
VERTEX
  8
LAYER_1
 10
-2.6412
 20
212.5179
  0
VERTEX
  8
LAYER_1
 10
-2.4452
 20
212.3243
 42
-0.2464065653
  0
VERTEX
  8
LAYER_1
 10
-2.2057
 20
212.4322
 42
-0.4684872669
  0
VERTEX
  8
LAYER_1
 10
-1.9739
 20
212.2358
  0
VERTEX
  8
LAYER_1
 10
-1.9739
 20
212.1738
  0
VERTEX
  8
LAYER_1
 10
-2.2633
 20
212.1738
 42
0.2103132122
  0
VERTEX
  8
LAYER_1
 10
-2.6081
 20
212.0486
 42
0.18506809
  0
VERTEX
  8
LAYER_1
 10
-2.6942
 20
211.8127
 42
0.1945609364
  0
VERTEX
  8
LAYER_1
 10
-2.5912
 20
211.533
 42
0.1980708175
  0
VERTEX
  8
LAYER_1
 10
-2.2729
 20
211.4228
 42
0.2246292991
  0
VERTEX
  8
LAYER_1
 10
-1.9663
 20
211.5426
  0
VERTEX
  8
LAYER_1
 10
-1.9663
 20
211.4352
  0
SEQEND
  0
POLYLINE
  8
LAYER_1
 40
0.05
 41
0.05
 66
1
 10
0
 20
0
 30
0
 70
1
  0
VERTEX
  8
LAYER_1
 10
-2.8758
 20
211.4352
  0
VERTEX
  8
LAYER_1
 10
-2.8758
 20
211.6977
  0
VERTEX
  8
LAYER_1
 10
-2.9884
 20
211.6977
 42
-0.496954413
  0
VERTEX
  8
LAYER_1
 10
-3.0963
 20
211.8103
  0
VERTEX
  8
LAYER_1
 10
-3.0963
 20
212.4081
  0
VERTEX
  8
LAYER_1
 10
-2.8758
 20
212.4081
  0
VERTEX
  8
LAYER_1
 10
-2.8758
 20
212.6444
  0
VERTEX
  8
LAYER_1
 10
-3.0963
 20
212.6444
  0
VERTEX
  8
LAYER_1
 10
-3.0963
 20
213.0126
  0
VERTEX
  8
LAYER_1
 10
-3.407
 20
213.0126
  0
VERTEX
  8
LAYER_1
 10
-3.407
 20
212.6444
  0
VERTEX
  8
LAYER_1
 10
-3.539
 20
212.6444
  0
VERTEX
  8
LAYER_1
 10
-3.539
 20
212.4081
  0
VERTEX
  8
LAYER_1
 10
-3.407
 20
212.4081
  0
VERTEX
  8
LAYER_1
 10
-3.407
 20
211.7914
 42
0.4187763975
  0
VERTEX
  8
LAYER_1
 10
-3.0456
 20
211.4352
  0
SEQEND
  0
POLYLINE
  8
LAYER_1
 40
0.05
 41
0.05
 66
1
 10
0
 20
0
 30
0
 70
1
  0
VERTEX
  8
LAYER_1
 10
-3.8091
 20
213.137
  0
VERTEX
  8
LAYER_1
 10
-4.1419
 20
213.137
  0
VERTEX
  8
LAYER_1
 10
-4.1419
 20
211.4352
  0
VERTEX
  8
LAYER_1
 10
-3.8091
 20
211.4352
  0
SEQEND
  0
POLYLINE
  8
LAYER_1
 40
0.05
 41
0.05
 66
1
 10
0
 20
0
 30
0
 70
1
  0
VERTEX
  8
LAYER_1
 10
-5.0562
 20
211.4352
  0
VERTEX
  8
LAYER_1
 10
-5.0562
 20
212.231
 42
0.2135728393
  0
VERTEX
  8
LAYER_1
 10
-5.183
 20
212.5844
 42
0.1976836271
  0
VERTEX
  8
LAYER_1
 10
-5.4775
 20
212.6947
 42
0.2038428178
  0
VERTEX
  8
LAYER_1
 10
-5.7886
 20
212.5658
  0
VERTEX
  8
LAYER_1
 10
-5.7886
 20
212.6805
  0
VERTEX
  8
LAYER_1
 10
-6.0925
 20
212.6805
  0
VERTEX
  8
LAYER_1
 10
-6.0925
 20
211.4352
  0
VERTEX
  8
LAYER_1
 10
-5.7814
 20
211.4352
  0
VERTEX
  8
LAYER_1
 10
-5.7814
 20
212.1882
 42
-0.4265123439
  0
VERTEX
  8
LAYER_1
 10
-5.573
 20
212.4149
 42
-0.4361688158
  0
VERTEX
  8
LAYER_1
 10
-5.3673
 20
212.1882
  0
VERTEX
  8
LAYER_1
 10
-5.3673
 20
211.4352
  0
SEQEND
  0
POLYLINE
  8
LAYER_1
 40
0.05
 41
0.05
 66
1
 10
0
 20
0
 30
0
 70
1
  0
VERTEX
  8
LAYER_1
 10
-6.437
 20
213.1467
  0
VERTEX
  8
LAYER_1
 10
-6.7553
 20
213.1467
  0
VERTEX
  8
LAYER_1
 10
-6.7553
 20
212.8931
  0
VERTEX
  8
LAYER_1
 10
-6.437
 20
212.8931
  0
SEQEND
  0
POLYLINE
  8
LAYER_1
 40
0.05
 41
0.05
 66
1
 10
0
 20
0
 30
0
 70
1
  0
VERTEX
  8
LAYER_1
 10
-6.4394
 20
212.6444
  0
VERTEX
  8
LAYER_1
 10
-6.7508
 20
212.6444
  0
VERTEX
  8
LAYER_1
 10
-6.7508
 20
211.4352
  0
VERTEX
  8
LAYER_1
 10
-6.4394
 20
211.4352
  0
SEQEND
  0
POLYLINE
  8
LAYER_1
 40
0.05
 41
0.05
 66
1
 10
0
 20
0
 30
0
  0
VERTEX
  8
LAYER_1
 10
-7.8994
 20
212.1738
  0
VERTEX
  8
LAYER_1
 10
-8.3735
 20
212.1738
  0
VERTEX
  8
LAYER_1
 10
-8.3445
 20
212.3074
 42
-0.3006254692
  0
VERTEX
  8
LAYER_1
 10
-8.1365
 20
212.4363
 42
-0.3004502708
  0
VERTEX
  8
LAYER_1
 10
-7.9284
 20
212.3074
  0
VERTEX
  8
LAYER_1
 10
-7.8994
 20
212.1738
  0
SEQEND
  0
POLYLINE
  8
LAYER_1
 40
0.05
 41
0.05
 66
1
 10
0
 20
0
 30
0
 70
1
  0
VERTEX
  8
LAYER_1
 10
-7.5932
 20
211.9609
  0
VERTEX
  8
LAYER_1
 10
-7.5932
 20
212.0925
 42
0.1727949422
  0
VERTEX
  8
LAYER_1
 10
-7.7261
 20
212.5161
 42
0.2293242446
  0
VERTEX
  8
LAYER_1
 10
-8.1365
 20
212.6947
 42
0.4082688927
  0
VERTEX
  8
LAYER_1
 10
-8.6757
 20
212.151
 42
0.02665393029
  0
VERTEX
  8
LAYER_1
 10
-8.6797
 20
212.0591
 42
0.1685110564
  0
VERTEX
  8
LAYER_1
 10
-8.5537
 20
211.6061
 42
0.2404561047
  0
VERTEX
  8
LAYER_1
 10
-8.103
 20
211.4207
 42
0.2250390665
  0
VERTEX
  8
LAYER_1
 10
-7.629
 20
211.6167
  0
VERTEX
  8
LAYER_1
 10
-7.8181
 20
211.801
 42
-0.2242451699
  0
VERTEX
  8
LAYER_1
 10
-8.1003
 20
211.6839
 42
-0.4312737558
  0
VERTEX
  8
LAYER_1
 10
-8.3735
 20
211.9609
  0
SEQEND
  0
POLYLINE
  8
LAYER_1
 40
0.05
 41
0.05
 66
1
 10
0
 20
0
 30
0
  0
VERTEX
  8
LAYER_1
 10
-9.2778
 20
212.0591
 42
-0.253040373
  0
VERTEX
  8
LAYER_1
 10
-9.3737
 20
211.7317
 42
-0.1751487426
  0
VERTEX
  8
LAYER_1
 10
-9.4911
 20
211.7004
 42
-0.3550784466
  0
VERTEX
  8
LAYER_1
 10
-9.6774
 20
211.8331
 42
-0.1590539016
  0
VERTEX
  8
LAYER_1
 10
-9.7016
 20
212.0591
 42
-0.2613372193
  0
VERTEX
  8
LAYER_1
 10
-9.6054
 20
212.3859
 42
-0.1728730088
  0
VERTEX
  8
LAYER_1
 10
-9.4911
 20
212.4149
 42
-0.3508351005
  0
VERTEX
  8
LAYER_1
 10
-9.3031
 20
212.2839
 42
-0.1617280931
  0
VERTEX
  8
LAYER_1
 10
-9.2778
 20
212.0591
  0
SEQEND
  0
POLYLINE
  8
LAYER_1
 40
0.05
 41
0.05
 66
1
 10
0
 20
0
 30
0
 70
1
  0
VERTEX
  8
LAYER_1
 10
-8.9667
 20
211.4352
  0
VERTEX
  8
LAYER_1
 10
-8.9667
 20
213.137
  0
VERTEX
  8
LAYER_1
 10
-9.2778
 20
213.137
  0
VERTEX
  8
LAYER_1
 10
-9.2778
 20
212.5707
 42
0.2263222596
  0
VERTEX
  8
LAYER_1
 10
-9.582
 20
212.6947
 42
0.2021447193
  0
VERTEX
  8
LAYER_1
 10
-9.8835
 20
212.5824
 42
0.1955994833
  0
VERTEX
  8
LAYER_1
 10
-10.0116
 20
212.1647
 42
0.01858076917
  0
VERTEX
  8
LAYER_1
 10
-10.013
 20
212.0591
 42
0.1992737425
  0
VERTEX
  8
LAYER_1
 10
-9.8835
 20
211.533
 42
0.1967798833
  0
VERTEX
  8
LAYER_1
 10
-9.5796
 20
211.4207
 42
0.2368398509
  0
VERTEX
  8
LAYER_1
 10
-9.2709
 20
211.5523
  0
VERTEX
  8
LAYER_1
 10
-9.2709
 20
211.4352
  0
SEQEND
  0
POLYLINE
  8
LAYER_1
 40
0.05
 41
0.05
 66
1
 10
0
 20
0
 30
0
 70
1
  0
VERTEX
  8
LAYER_1
 10
-10.6062
 20
211.894
 42
-0.2606176184
  0
VERTEX
  8
LAYER_1
 10
-10.6541
 20
211.7363
 42
-0.1975146001
  0
VERTEX
  8
LAYER_1
 10
-10.8384
 20
211.6763
 42
-0.4358674545
  0
VERTEX
  8
LAYER_1
 10
-11.0272
 20
211.8175
 42
-0.4654392595
  0
VERTEX
  8
LAYER_1
 10
-10.8433
 20
211.9609
  0
VERTEX
  8
LAYER_1
 10
-10.6062
 20
211.9609
  0
SEQEND
  0
POLYLINE
  8
LAYER_1
 40
0.05
 41
0.05
 66
1
 10
0
 20
0
 30
0
 70
1
  0
VERTEX
  8
LAYER_1
 10
-10.2951
 20
211.4352
  0
VERTEX
  8
LAYER_1
 10
-10.2951
 20
212.2551
 42
0.2204713638
  0
VERTEX
  8
LAYER_1
 10
-10.4207
 20
212.5772
 42
0.1806796456
  0
VERTEX
  8
LAYER_1
 10
-10.8267
 20
212.6947
 42
0.2375604919
  0
VERTEX
  8
LAYER_1
 10
-11.2739
 20
212.5179
  0
VERTEX
  8
LAYER_1
 10
-11.0779
 20
212.3243
 42
-0.2460763492
  0
VERTEX
  8
LAYER_1
 10
-10.8384
 20
212.4322
 42
-0.4683426501
  0
VERTEX
  8
LAYER_1
 10
-10.6062
 20
212.2358
  0
VERTEX
  8
LAYER_1
 10
-10.6062
 20
212.1738
  0
VERTEX
  8
LAYER_1
 10
-10.896
 20
212.1738
 42
0.2105830771
  0
VERTEX
  8
LAYER_1
 10
-11.2407
 20
212.0486
 42
0.1847749138
  0
VERTEX
  8
LAYER_1
 10
-11.3266
 20
211.8127
 42
0.1946881207
  0
VERTEX
  8
LAYER_1
 10
-11.2239
 20
211.533
 42
0.1984095291
  0
VERTEX
  8
LAYER_1
 10
-10.9053
 20
211.4228
 42
0.2251045156
  0
VERTEX
  8
LAYER_1
 10
-10.599
 20
211.5426
  0
VERTEX
  8
LAYER_1
 10
-10.599
 20
211.4352
  0
SEQEND
  0
POLYLINE
  8
LAYER_1
 40
0.05
 41
0.05
 66
1
 10
0
 20
0
 30
0
 70
1
  0
VERTEX
  8
LAYER_1
 10
-11.5733
 20
211.4352
  0
VERTEX
  8
LAYER_1
 10
-11.5733
 20
212.231
 42
0.2096424971
  0
VERTEX
  8
LAYER_1
 10
-11.7097
 20
212.5844
 42
0.1904514856
  0
VERTEX
  8
LAYER_1
 10
-12.016
 20
212.6947
 42
0.2238328308
  0
VERTEX
  8
LAYER_1
 10
-12.3894
 20
212.5369
 42
0.2475119635
  0
VERTEX
  8
LAYER_1
 10
-12.7198
 20
212.6947
 42
0.1995172237
  0
VERTEX
  8
LAYER_1
 10
-13.0309
 20
212.5658
  0
VERTEX
  8
LAYER_1
 10
-13.0309
 20
212.6805
  0
VERTEX
  8
LAYER_1
 10
-13.3348
 20
212.6805
  0
VERTEX
  8
LAYER_1
 10
-13.3348
 20
211.4352
  0
VERTEX
  8
LAYER_1
 10
-13.0233
 20
211.4352
  0
VERTEX
  8
LAYER_1
 10
-13.0233
 20
212.1882
 42
-0.4265481482
  0
VERTEX
  8
LAYER_1
 10
-12.8153
 20
212.4149
 42
-0.4361688158
  0
VERTEX
  8
LAYER_1
 10
-12.6096
 20
212.1882
  0
VERTEX
  8
LAYER_1
 10
-12.6096
 20
211.4352
  0
VERTEX
  8
LAYER_1
 10
-12.2985
 20
211.4352
  0
VERTEX
  8
LAYER_1
 10
-12.2985
 20
212.1951
 42
-0.4236814191
  0
VERTEX
  8
LAYER_1
 10
-12.0904
 20
212.4149
 42
-0.4367319455
  0
VERTEX
  8
LAYER_1
 10
-11.8844
 20
212.1882
  0
VERTEX
  8
LAYER_1
 10
-11.8844
 20
211.4352
  0
SEQEND
  0
POLYLINE
  8
LAYER_1
 40
0.05
 41
0.05
 66
1
 10
0
 20
0
 30
0
  0
VERTEX
  8
LAYER_1
 10
-13.8973
 20
212.0229
 42
-0.2061577285
  0
VERTEX
  8
LAYER_1
 10
-14.0003
 20
211.6401
 42
-0.1860547104
  0
VERTEX
  8
LAYER_1
 10
-14.1915
 20
211.5736
 42
-0.2912351062
  0
VERTEX
  8
LAYER_1
 10
-14.4327
 20
211.7044
 42
-0.1074256356
  0
VERTEX
  8
LAYER_1
 10
-14.4882
 20
212.0229
 42
-0.2074793493
  0
VERTEX
  8
LAYER_1
 10
-14.3843
 20
212.406
 42
-0.1847812498
  0
VERTEX
  8
LAYER_1
 10
-14.1915
 20
212.4725
 42
-0.2924886932
  0
VERTEX
  8
LAYER_1
 10
-13.9523
 20
212.3416
 42
-0.1065173685
  0
VERTEX
  8
LAYER_1
 10
-13.8973
 20
212.0229
  0
SEQEND
  0
POLYLINE
  8
LAYER_1
 40
0.05
 41
0.05
 66
1
 10
0
 20
0
 30
0
 70
1
  0
VERTEX
  8
LAYER_1
 10
-13.7247
 20
211.4352
  0
VERTEX
  8
LAYER_1
 10
-13.7247
 20
213.137
  0
VERTEX
  8
LAYER_1
 10
-13.8973
 20
213.137
  0
VERTEX
  8
LAYER_1
 10
-13.8973
 20
212.4749
 42
0.2526586678
  0
VERTEX
  8
LAYER_1
 10
-14.2298
 20
212.6258
 42
0.19617536
  0
VERTEX
  8
LAYER_1
 10
-14.5171
 20
212.5224
 42
0.2062736322
  0
VERTEX
  8
LAYER_1
 10
-14.6608
 20
212.0229
 42
0.1925049638
  0
VERTEX
  8
LAYER_1
 10
-14.5171
 20
211.5234
 42
0.1893263809
  0
VERTEX
  8
LAYER_1
 10
-14.2298
 20
211.4207
 42
0.2549957718
  0
VERTEX
  8
LAYER_1
 10
-13.8949
 20
211.5761
  0
VERTEX
  8
LAYER_1
 10
-13.8949
 20
211.4352
  0
SEQEND
  0
POLYLINE
  8
LAYER_1
 40
0.05
 41
0.05
 66
1
 10
0
 20
0
 30
0
 70
1
  0
VERTEX
  8
LAYER_1
 10
-15.0173
 20
211.4352
  0
VERTEX
  8
LAYER_1
 10
-15.0173
 20
212.1882
 42
0.2089360908
  0
VERTEX
  8
LAYER_1
 10
-15.1393
 20
212.5156
 42
0.1977212202
  0
VERTEX
  8
LAYER_1
 10
-15.4411
 20
212.6258
 42
0.2189458741
  0
VERTEX
  8
LAYER_1
 10
-15.7711
 20
212.4818
  0
VERTEX
  8
LAYER_1
 10
-15.7711
 20
212.6113
  0
VERTEX
  8
LAYER_1
 10
-15.9434
 20
212.6113
  0
VERTEX
  8
LAYER_1
 10
-15.9434
 20
211.4352
  0
VERTEX
  8
LAYER_1
 10
-15.7711
 20
211.4352
  0
VERTEX
  8
LAYER_1
 10
-15.7711
 20
212.1593
 42
-0.4284576329
  0
VERTEX
  8
LAYER_1
 10
-15.479
 20
212.4725
 42
-0.4466039224
  0
VERTEX
  8
LAYER_1
 10
-15.1896
 20
212.1593
  0
VERTEX
  8
LAYER_1
 10
-15.1896
 20
211.4352
  0
SEQEND
  0
POLYLINE
  8
LAYER_1
 40
0.05
 41
0.05
 66
1
 10
0
 20
0
 30
0
 70
1
  0
VERTEX
  8
LAYER_1
 10
-16.5346
 20
211.8506
 42
-0.2283736068
  0
VERTEX
  8
LAYER_1
 10
-16.5945
 20
211.6477
 42
-0.1936527339
  0
VERTEX
  8
LAYER_1
 10
-16.8553
 20
211.5688
 42
-0.4421173513
  0
VERTEX
  8
LAYER_1
 10
-17.1281
 20
211.77
 42
-0.3470924647
  0
VERTEX
  8
LAYER_1
 10
-16.9968
 20
211.9592
 42
-0.1261120874
  0
VERTEX
  8
LAYER_1
 10
-16.8625
 20
211.9774
  0
VERTEX
  8
LAYER_1
 10
-16.5346
 20
211.9774
  0
SEQEND
  0
POLYLINE
  8
LAYER_1
 40
0.05
 41
0.05
 66
1
 10
0
 20
0
 30
0
 70
1
  0
VERTEX
  8
LAYER_1
 10
-16.362
 20
211.4352
  0
VERTEX
  8
LAYER_1
 10
-16.362
 20
212.233
 42
0.2383829599
  0
VERTEX
  8
LAYER_1
 10
-16.4898
 20
212.5337
 42
0.1599209503
  0
VERTEX
  8
LAYER_1
 10
-16.8336
 20
212.6258
 42
0.2578644009
  0
VERTEX
  8
LAYER_1
 10
-17.2501
 20
212.4487
  0
VERTEX
  8
LAYER_1
 10
-17.133
 20
212.3409
 42
-0.2730960706
  0
VERTEX
  8
LAYER_1
 10
-16.8364
 20
212.4776
 42
-0.4521672334
  0
VERTEX
  8
LAYER_1
 10
-16.5346
 20
212.2193
  0
VERTEX
  8
LAYER_1
 10
-16.5346
 20
212.1066
  0
VERTEX
  8
LAYER_1
 10
-16.8863
 20
212.1066
 42
0.2189203862
  0
VERTEX
  8
LAYER_1
 10
-17.2226
 20
211.9822
 42
0.17494127
  0
VERTEX
  8
LAYER_1
 10
-17.2956
 20
211.7673
 42
0.2075768001
  0
VERTEX
  8
LAYER_1
 10
-17.2071
 20
211.5282
 42
0.2128603639
  0
VERTEX
  8
LAYER_1
 10
-16.8742
 20
211.4207
 42
0.2247839487
  0
VERTEX
  8
LAYER_1
 10
-16.5346
 20
211.5471
  0
VERTEX
  8
LAYER_1
 10
-16.5346
 20
211.4352
  0
SEQEND
  0
POLYLINE
  8
LAYER_1
 40
0.05
 41
0.05
 66
1
 10
0
 20
0
 30
0
 70
1
  0
VERTEX
  8
LAYER_1
 10
-17.6211
 20
211.4352
  0
VERTEX
  8
LAYER_1
 10
-17.6211
 20
212.1903
 42
0.4657729105
  0
VERTEX
  8
LAYER_1
 10
-18.0449
 20
212.6258
 42
0.2190712165
  0
VERTEX
  8
LAYER_1
 10
-18.3749
 20
212.4818
  0
VERTEX
  8
LAYER_1
 10
-18.3749
 20
213.137
  0
VERTEX
  8
LAYER_1
 10
-18.5475
 20
213.137
  0
VERTEX
  8
LAYER_1
 10
-18.5475
 20
211.4352
  0
VERTEX
  8
LAYER_1
 10
-18.3749
 20
211.4352
  0
VERTEX
  8
LAYER_1
 10
-18.3749
 20
212.1617
 42
-0.4350388577
  0
VERTEX
  8
LAYER_1
 10
-18.0807
 20
212.4725
 42
-0.4517618327
  0
VERTEX
  8
LAYER_1
 10
-17.7934
 20
212.1617
  0
VERTEX
  8
LAYER_1
 10
-17.7934
 20
211.4352
  0
SEQEND
  0
ENDBLK
  0
BLOCK
  8
LAYER_1
  2
AIGNBL01020007
 70
64
 10
0
 20
0
 30
0
  3
AIGNBL01020007
  0
INSERT
  8
LAYER_1
  2
AIGNBL01030008
 10
0
 20
0
 30
0
  0
ENDBLK
  0
BLOCK
  8
LAYER_1
  2
AIGNBL01020010
 70
64
 10
0
 20
0
 30
0
  3
AIGNBL01020010
  0
INSERT
  8
LAYER_1
  2
AIGNBL01030011
 10
0
 20
0
 30
0
  0
INSERT
  8
LAYER_1
  2
AIGNBL01030012
 10
0
 20
0
 30
0
  0
INSERT
  8
LAYER_1
  2
AIGNBL01030013
 10
0
 20
0
 30
0
  0
INSERT
  8
LAYER_1
  2
AIGNBL01030014
 10
0
 20
0
 30
0
  0
INSERT
  8
LAYER_1
  2
AIGNBL01030015
 10
0
 20
0
 30
0
  0
INSERT
  8
LAYER_1
  2
AIGNBL01030016
 10
0
 20
0
 30
0
  0
INSERT
  8
LAYER_1
  2
AIGNBL01030017
 10
0
 20
0
 30
0
  0
INSERT
  8
LAYER_1
  2
AIGNBL01030018
 10
0
 20
0
 30
0
  0
INSERT
  8
LAYER_1
  2
AIGNBL01030019
 10
0
 20
0
 30
0
  0
INSERT
  8
LAYER_1
  2
AIGNBL0103001A
 10
0
 20
0
 30
0
  0
INSERT
  8
LAYER_1
  2
AIGNBL0103001B
 10
0
 20
0
 30
0
  0
INSERT
  8
LAYER_1
  2
AIGNBL0103001C
 10
0
 20
0
 30
0
  0
INSERT
  8
LAYER_1
  2
AIGNBL0103001D
 10
0
 20
0
 30
0
  0
INSERT
  8
LAYER_1
  2
AIGNBL0103001E
 10
0
 20
0
 30
0
  0
INSERT
  8
LAYER_1
  2
AIGNBL0103001F
 10
0
 20
0
 30
0
  0
INSERT
  8
LAYER_1
  2
AIGNBL01030020
 10
0
 20
0
 30
0
  0
INSERT
  8
LAYER_1
  2
AIGNBL01030021
 10
0
 20
0
 30
0
  0
INSERT
  8
LAYER_1
  2
AIGNBL01030022
 10
0
 20
0
 30
0
  0
INSERT
  8
LAYER_1
  2
AIGNBL01030023
 10
0
 20
0
 30
0
  0
INSERT
  8
LAYER_1
  2
AIGNBL01030024
 10
0
 20
0
 30
0
  0
INSERT
  8
LAYER_1
  2
AIGNBL01030025
 10
0
 20
0
 30
0
  0
INSERT
  8
LAYER_1
  2
AIGNBL01030026
 10
0
 20
0
 30
0
  0
INSERT
  8
LAYER_1
  2
AIGNBL01030027
 10
0
 20
0
 30
0
  0
ENDBLK
  0
BLOCK
  8
LAYER_1
  2
AIGNBL01010002
 70
64
 10
0
 20
0
 30
0
  3
AIGNBL01010002
  0
POLYLINE
  8
LAYER_1
 40
0.7056
 41
0.7056
 66
1
 10
0
 20
0
 30
0
 70
1
  0
VERTEX
  8
LAYER_1
 10
251.6749
 20
230.337
  0
VERTEX
  8
LAYER_1
 10
251.6749
 20
33.3285
  0
VERTEX
  8
LAYER_1
 10
-30.3177
 20
33.3285
  0
VERTEX
  8
LAYER_1
 10
-30.3177
 20
230.337
  0
SEQEND
  0
ENDBLK
  0
BLOCK
  8
LAYER_1
  2
AIGNBL01010003
 70
64
 10
0
 20
0
 30
0
  3
AIGNBL01010003
  0
INSERT
  8
LAYER_1
  2
AIGNBL01020004
 10
0
 20
0
 30
0
  0
POLYLINE
  8
LAYER_1
 40
0.05
 41
0.05
 66
1
 10
0
 20
0
 30
0
  0
VERTEX
  8
LAYER_1
 10
-6.457
 20
223.2684
  0
VERTEX
  8
LAYER_1
 10
-8.0924
 20
223.2684
  0
VERTEX
  8
LAYER_1
 10
-8.0924
 20
216.1939
 42
0.09304299953
  0
VERTEX
  8
LAYER_1
 10
-7.9518
 20
215.4241
 42
0.2872011141
  0
VERTEX
  8
LAYER_1
 10
-6.4597
 20
214.3359
  0
VERTEX
  8
LAYER_1
 10
-6.457
 20
223.2684
  0
SEQEND
  0
INSERT
  8
LAYER_1
  2
AIGNBL01020005
 10
0
 20
0
 30
0
  0
ENDBLK
  0
BLOCK
  8
LAYER_1
  2
AIGNBL01010006
 70
64
 10
0
 20
0
 30
0
  3
AIGNBL01010006
  0
INSERT
  8
LAYER_1
  2
AIGNBL01020007
 10
0
 20
0
 30
0
  0
INSERT
  8
LAYER_1
  2
AIGNBL01020010
 10
0
 20
0
 30
0
  0
ENDBLK
  0
ENDSEC
  0
SECTION
  2
ENTITIES
  0
TEXT
  8
LAYER_1
 10
-26.2556
 20
43.1712
 11
-26.2556
 21
43.1712
 40
3.2991
 41
0.5
  1
仕様
  0
POLYLINE
  8
LAYER_1
 40
0.3528
 41
0.3528
 66
1
 10
0
 20
0
 30
0
  0
VERTEX
  8
LAYER_1
 10
250.6748
 20
51.9507
  0
VERTEX
  8
LAYER_1
 10
-29.3178
 20
51.9507
  0
SEQEND
  0
INSERT
  8
LAYER_1
  2
AIGNBL01010002
 10
0
 20
0
 30
0
  0
POLYLINE
  8
LAYER_1
 40
0.3528
 41
0.3528
 66
1
 10
0
 20
0
 30
0
  0
VERTEX
  8
LAYER_1
 10
-29.3178
 20
229.3369
  0
VERTEX
  8
LAYER_1
 10
-29.3178
 20
34.3283
  0
VERTEX
  8
LAYER_1
 10
250.6748
 20
34.3283
  0
VERTEX
  8
LAYER_1
 10
250.6748
 20
229.3369
  0
VERTEX
  8
LAYER_1
 10
-29.3178
 20
229.3369
  0
SEQEND
  0
POLYLINE
  8
LAYER_1
 40
0.3528
 41
0.3528
 66
1
 10
0
 20
0
 30
0
  0
VERTEX
  8
LAYER_1
 10
250.6748
 20
60.4597
  0
VERTEX
  8
LAYER_1
 10
-29.3178
 20
60.4597
  0
SEQEND
  0
POLYLINE
  8
LAYER_1
 40
0.3528
 41
0.3528
 66
1
 10
0
 20
0
 30
0
  0
VERTEX
  8
LAYER_1
 10
250.6748
 20
43.4416
  0
VERTEX
  8
LAYER_1
 10
143.5341
 20
43.4416
  0
SEQEND
  0
TEXT
  8
LAYER_1
 10
188.1725
 20
45.7175
 11
188.1725
 21
45.7175
 40
3.7609
 41
0.5
  1
-
  0
TEXT
  8
LAYER_1
 10
182.8808
 20
49.4743
 11
182.8808
 21
49.4743
 40
2.1994
 41
0.5
  1
縮尺
  0
POLYLINE
  8
LAYER_1
 40
0.3528
 41
0.3528
 66
1
 10
0
 20
0
 30
0
  0
VERTEX
  8
LAYER_1
 10
181.3526
 20
43.4416
  0
VERTEX
  8
LAYER_1
 10
181.3526
 20
51.9507
  0
SEQEND
  0
TEXT
  8
LAYER_1
 10
144.2327
 20
57.9834
 11
144.2327
 21
57.9834
 40
2.1994
 41
0.5
  1
品番
  0
TEXT
  8
LAYER_1
 10
-28.1609
 20
57.9834
 11
-28.1609
 21
57.9834
 40
2.1994
 41
0.5
  1
品名
  0
TEXT
  8
LAYER_1
 10
144.2327
 20
49.4743
 11
144.2327
 21
49.4743
 40
2.1994
 41
0.5
  1
重量
  0
TEXT
  8
LAYER_1
 10
150.2547
 20
54.1514
 11
150.2547
 21
54.1514
 40
5.9385
 41
0.5
  1
CIE-BATO30/
  0
TEXT
  8
LAYER_1
 10
149.5454
 20
45.7175
 11
149.5454
 21
45.7175
 40
3.7609
 41
0.5
  1
4.5kg
  0
POLYLINE
  8
LAYER_1
 40
0.3528
 41
0.3528
 66
1
 10
0
 20
0
 30
0
  0
VERTEX
  8
LAYER_1
 10
143.5341
 20
34.9539
  0
VERTEX
  8
LAYER_1
 10
143.5341
 20
60.4597
  0
SEQEND
  0
TEXT
  8
LAYER_1
 10
-15.3178
 20
54.891
 11
-15.3178
 21
54.891
 40
4.1459
 41
0.5
  1
ティノミニカウンター置き型手洗器320ｍｍ
  0
INSERT
  8
LAYER_1
  2
AIGNBL01010003
 10
0
 20
0
 30
0
  0
TEXT
  8
LAYER_1
 10
-15.6835
 20
43.9625
 11
-15.6835
 21
43.9625
 40
3.1172
 41
0.5
  1
●設置方法：カウンター置き●水栓取付穴：なし●オーバーフローなし
  0
TEXT
  8
LAYER_1
 10
-15.6835
 20
39.2124
 11
-15.6835
 21
39.2124
 40
3.1172
 41
0.5
  1
●排水金具別途
  0
TEXT
  8
LAYER_1
 10
237.263
 20
63.2582
 11
237.263
 21
63.2582
 40
2.9614
 41
0.5
  1
単位：mm
  0
TEXT
  8
LAYER_1
 10
6.5217
 20
219.7385
 11
6.5217
 21
219.7385
 40
2.5977
 41
0.5
  1
※陶器製品は寸法公差が発生します。
  0
TEXT
  8
LAYER_1
 10
6.4068
 20
214.9886
 11
6.4068
 21
214.9886
 40
2.5977
 41
0.5
  1
カウンター切り込みの際は必ず現物を合わせてご確認ください。
  0
TEXT
  8
LAYER_1
 10
6.5217
 20
210.2385
 11
6.5217
 21
210.2385
 40
2.5977
 41
0.5
  1
※固定には、シリコンコーキング材等を手洗器と
  0
TEXT
  8
LAYER_1
 10
6.4068
 20
205.4886
 11
6.4068
 21
205.4886
 40
2.5977
 41
0.5
  1
カウンターの接地面に塗布ください。
  0
TEXT
  8
LAYER_1
 10
176.0254
 20
39.5359
 11
176.0254
 21
39.5359
 40
3.3848
 41
0.5
  1
●TEL 0120-65-1232●FAX 06-6532-1580
  0
TEXT
  8
LAYER_1
 10
176.0254
 20
36.0212
 11
176.0254
 21
36.0212
 40
3.3848
 41
0.5
  1
hits@hiratatile.co.jp
  0
TEXT
  8
LAYER_1
 10
240.3591
 20
225.8432
 11
240.3591
 21
225.8432
 40
2.073
 41
0.5
  1
160804RT
  0
INSERT
  8
LAYER_1
  2
AIGNBL01010006
 10
0
 20
0
 30
0
  0
TEXT
  8
LAYER_1
 10
76.0406
 20
169.6605
 11
76.0406
 21
169.6605
 40
2.871
 41
0.5
  1
ｯ45
  0
TEXT
  8
LAYER_1
 10
76.3482
 20
131.1996
 11
76.3482
 21
131.1996
 40
2.871
 41
0.5
  1
284
  0
TEXT
  8
LAYER_1
 10
76.1729
 20
74.7601
 11
76.1729
 21
74.7601
 40
2.871
 41
0.5
  1
184
  0
TEXT
  8
LAYER_1
 10
76.3482
 20
127.2015
 11
76.3482
 21
127.2015
 40
2.871
 41
0.5
  1
300
  0
TEXT
  8
LAYER_1
 10
185.9799
 20
112.826
 11
185.9799
 21
112.826
 40
2.871
 41
0.5
  1
284
  0
TEXT
  8
LAYER_1
 10
185.9652
 20
116.3143
 11
185.9652
 21
116.3143
 40
2.871
 41
0.5
  1
300
  0
TEXT
  8
LAYER_1
 10
76.3482
 20
112.8556
 11
76.3482
 21
112.8556
 40
2.871
 41
0.5
  1
300
  0
TEXT
  8
LAYER_1
 10
113.7288
 20
92.4846
 11
113.7288
 21
92.4846
 40
2.871
 41
0.5
  1
145
  0
TEXT
  8
LAYER_1
 10
223.1872
 20
93.9535
 11
223.1872
 21
93.9535
 40
2.871
 41
0.5
  1
145
  0
TEXT
  8
LAYER_1
 10
185.9025
 20
96.0297
 11
185.9025
 21
96.0297
 40
2.871
 41
0.5
  1
120
  0
TEXT
  8
LAYER_1
 10
76.3482
 20
123.5367
 11
76.3482
 21
123.5367
 40
2.871
 41
0.5
  1
320
  0
TEXT
  8
LAYER_1
 10
76.5029
 20
71.2125
 11
76.5029
 21
71.2125
 40
2.871
 41
0.5
  1
320
  0
TEXT
  8
LAYER_1
 10
186.0721
 20
71.4395
 11
186.0721
 21
71.4395
 40
2.871
 41
0.5
  1
320
  0
TEXT
  8
LAYER_1
 10
116.2265
 20
173.781
 11
116.2265
 21
173.781
 40
4.0305
 41
0.5
  1
カウンター開口寸法：100
  0
POLYLINE
  8
LAYER_1
 40
0.1764
 41
0.1764
 66
1
 10
0
 20
0
 30
0
  0
VERTEX
  8
LAYER_1
 10
150.5622
 20
170.7243
  0
VERTEX
  8
LAYER_1
 10
89.1984
 20
170.7243
  0
SEQEND
  0
CIRCLE
  8
LAYER_1
  6
AIGENLINE001
 62
1
 10
78.6892
 20
170.4941
 40
10
  0
POLYLINE
  8
LAYER_1
 40
0.1764
 41
0.1764
 66
1
 10
0
 20
0
 30
0
  0
VERTEX
  8
LAYER_1
 10
218.4301
 20
108.2541
  0
VERTEX
  8
LAYER_1
 10
218.391
 20
108.3453
  0
VERTEX
  8
LAYER_1
 10
218.3259
 20
108.4366
  0
VERTEX
  8
LAYER_1
 10
218.2347
 20
108.4887
  0
VERTEX
  8
LAYER_1
 10
218.1304
 20
108.5017
  0
SEQEND
  0
POLYLINE
  8
LAYER_1
 40
0.1764
 41
0.1764
 66
1
 10
0
 20
0
 30
0
  0
VERTEX
  8
LAYER_1
 10
158.34
 20
108.5017
  0
VERTEX
  8
LAYER_1
 10
158.3791
 20
108.5017
  0
SEQEND
  0
POLYLINE
  8
LAYER_1
 40
0.1764
 41
0.1764
 66
1
 10
0
 20
0
 30
0
  0
VERTEX
  8
LAYER_1
 10
159.7344
 20
108.215
  0
VERTEX
  8
LAYER_1
 10
159.7084
 20
108.3193
  0
VERTEX
  8
LAYER_1
 10
159.6562
 20
108.3975
  0
VERTEX
  8
LAYER_1
 10
159.578
 20
108.4626
  0
VERTEX
  8
LAYER_1
 10
159.4738
 20
108.5017
  0
SEQEND
  0
POLYLINE
  8
LAYER_1
 40
0.1764
 41
0.1764
 66
1
 10
0
 20
0
 30
0
  0
VERTEX
  8
LAYER_1
 10
217.0748
 20
108.5017
  0
VERTEX
  8
LAYER_1
 10
216.9575
 20
108.4757
  0
VERTEX
  8
LAYER_1
 10
216.8663
 20
108.4105
  0
VERTEX
  8
LAYER_1
 10
216.8011
 20
108.3193
  0
VERTEX
  8
LAYER_1
 10
216.7751
 20
108.202
  0
SEQEND
  0
POLYLINE
  8
LAYER_1
 40
0.1764
 41
0.1764
 66
1
 10
0
 20
0
 30
0
  0
VERTEX
  8
LAYER_1
 10
180.82
 20
84.4188
  0
VERTEX
  8
LAYER_1
 10
180.2988
 20
84.4448
 42
-0.05086172524
  0
VERTEX
  8
LAYER_1
 10
176.0733
 20
85.2367
 42
-0.06217508277
  0
VERTEX
  8
LAYER_1
 10
171.3334
 20
87.3105
 42
-0.05844960933
  0
VERTEX
  8
LAYER_1
 10
167.2801
 20
90.4137
 42
-0.05443995616
  0
VERTEX
  8
LAYER_1
 10
164.004
 20
94.3588
 42
-0.05164725734
  0
VERTEX
  8
LAYER_1
 10
161.5957
 20
98.9585
 42
-0.0506696157
  0
VERTEX
  8
LAYER_1
 10
160.1458
 20
104.0253
 42
-0.03069990841
  0
VERTEX
  8
LAYER_1
 10
159.7735
 20
107.2116
  0
VERTEX
  8
LAYER_1
 10
159.7344
 20
108.215
  0
SEQEND
  0
POLYLINE
  8
LAYER_1
 40
0.1764
 41
0.1764
 66
1
 10
0
 20
0
 30
0
  0
VERTEX
  8
LAYER_1
 10
216.7751
 20
108.215
  0
VERTEX
  8
LAYER_1
 10
216.723
 20
107.1334
 42
-0.05168786925
  0
VERTEX
  8
LAYER_1
 10
215.8949
 20
101.9178
 42
-0.05072261924
  0
VERTEX
  8
LAYER_1
 10
214.0477
 20
97.036
 42
-0.05179467129
  0
VERTEX
  8
LAYER_1
 10
211.277
 20
92.6828
 42
-0.05493284614
  0
VERTEX
  8
LAYER_1
 10
207.6786
 20
89.0529
 42
-0.05945784231
  0
VERTEX
  8
LAYER_1
 10
203.3479
 20
86.3411
 42
-0.05718706244
  0
VERTEX
  8
LAYER_1
 10
198.9032
 20
84.8465
 42
-0.03246527345
  0
VERTEX
  8
LAYER_1
 10
196.2368
 20
84.4579
  0
VERTEX
  8
LAYER_1
 10
195.6764
 20
84.4188
  0
SEQEND
  0
POLYLINE
  8
LAYER_1
 40
0.1764
 41
0.1764
 66
1
 10
0
 20
0
 30
0
  0
VERTEX
  8
LAYER_1
 10
181.3283
 20
84.1842
  0
VERTEX
  8
LAYER_1
 10
181.1589
 20
84.3145
  0
VERTEX
  8
LAYER_1
 10
180.9634
 20
84.3797
  0
VERTEX
  8
LAYER_1
 10
180.82
 20
84.4057
  0
SEQEND
  0
POLYLINE
  8
LAYER_1
 40
0.1764
 41
0.1764
 66
1
 10
0
 20
0
 30
0
  0
VERTEX
  8
LAYER_1
 10
183.6349
 20
81.8384
  0
VERTEX
  8
LAYER_1
 10
183.5958
 20
81.9688
  0
VERTEX
  8
LAYER_1
 10
183.5176
 20
82.086
  0
SEQEND
  0
POLYLINE
  8
LAYER_1
 40
0.1764
 41
0.1764
 66
1
 10
0
 20
0
 30
0
  0
VERTEX
  8
LAYER_1
 10
207.34
 20
80.1443
  0
VERTEX
  8
LAYER_1
 10
206.7275
 20
79.5318
  0
SEQEND
  0
POLYLINE
  8
LAYER_1
 40
0.1764
 41
0.1764
 66
1
 10
0
 20
0
 30
0
  0
VERTEX
  8
LAYER_1
 10
169.769
 20
79.5318
  0
VERTEX
  8
LAYER_1
 10
169.1695
 20
80.1443
  0
VERTEX
  8
LAYER_1
 10
169.0522
 20
80.1443
 42
-0.05152045838
  0
VERTEX
  8
LAYER_1
 10
167.5815
 20
80.4367
 42
-0.04251334122
  0
VERTEX
  8
LAYER_1
 10
166.0238
 20
81.0664
 42
-0.0359504569
  0
VERTEX
  8
LAYER_1
 10
164.314
 20
82.0927
 42
-0.04289914488
  0
VERTEX
  8
LAYER_1
 10
161.7153
 20
84.2754
  0
VERTEX
  8
LAYER_1
 10
161.1419
 20
84.8618
  0
VERTEX
  8
LAYER_1
 10
160.5685
 20
85.4874
 42
-0.227558892
  0
VERTEX
  8
LAYER_1
 10
156.4243
 20
98.819
  0
VERTEX
  8
LAYER_1
 10
156.5025
 20
99.236
  0
VERTEX
  8
LAYER_1
 10
158.0794
 20
108.2541
  0
SEQEND
  0
POLYLINE
  8
LAYER_1
 40
0.1764
 41
0.1764
 66
1
 10
0
 20
0
 30
0
  0
VERTEX
  8
LAYER_1
 10
218.4301
 20
108.2541
  0
VERTEX
  8
LAYER_1
 10
220.007
 20
99.236
  0
VERTEX
  8
LAYER_1
 10
220.0852
 20
98.806
 42
-0.2071528267
  0
VERTEX
  8
LAYER_1
 10
216.762
 20
86.4648
  0
VERTEX
  8
LAYER_1
 10
216.4884
 20
86.1259
  0
VERTEX
  8
LAYER_1
 10
216.0583
 20
85.6177
 42
-0.02734680128
  0
VERTEX
  8
LAYER_1
 10
214.1117
 20
83.6372
 42
-0.0305014214
  0
VERTEX
  8
LAYER_1
 10
212.2519
 20
82.1347
 42
-0.03691538151
  0
VERTEX
  8
LAYER_1
 10
210.5015
 20
81.072
 42
-0.04247178083
  0
VERTEX
  8
LAYER_1
 10
208.9626
 20
80.4449
 42
-0.04443961664
  0
VERTEX
  8
LAYER_1
 10
207.6918
 20
80.1704
  0
VERTEX
  8
LAYER_1
 10
207.5224
 20
80.1573
  0
VERTEX
  8
LAYER_1
 10
207.34
 20
80.1443
  0
SEQEND
  0
POLYLINE
  8
LAYER_1
 40
0.1764
 41
0.1764
 66
1
 10
0
 20
0
 30
0
  0
VERTEX
  8
LAYER_1
 10
181.8105
 20
80.1443
  0
VERTEX
  8
LAYER_1
 10
181.7584
 20
80.6916
  0
SEQEND
  0
POLYLINE
  8
LAYER_1
 40
0.1764
 41
0.1764
 66
1
 10
0
 20
0
 30
0
  0
VERTEX
  8
LAYER_1
 10
181.7583
 20
80.6786
  0
VERTEX
  8
LAYER_1
 10
181.7062
 20
80.9132
  0
VERTEX
  8
LAYER_1
 10
181.602
 20
81.1217
  0
VERTEX
  8
LAYER_1
 10
181.4456
 20
81.3041
  0
SEQEND
  0
POLYLINE
  8
LAYER_1
 40
0.1764
 41
0.1764
 66
1
 10
0
 20
0
 30
0
  0
VERTEX
  8
LAYER_1
 10
179.9078
 20
82.464
  0
VERTEX
  8
LAYER_1
 10
179.7645
 20
82.477
  0
SEQEND
  0
POLYLINE
  8
LAYER_1
 40
0.1764
 41
0.1764
 66
1
 10
0
 20
0
 30
0
  0
VERTEX
  8
LAYER_1
 10
179.6602
 20
82.49
  0
VERTEX
  8
LAYER_1
 10
179.6602
 20
82.5031
  0
SEQEND
  0
POLYLINE
  8
LAYER_1
 40
0.1764
 41
0.1764
 66
1
 10
0
 20
0
 30
0
  0
VERTEX
  8
LAYER_1
 10
179.6341
 20
82.477
  0
SEQEND
  0
POLYLINE
  8
LAYER_1
 40
0.1764
 41
0.1764
 66
1
 10
0
 20
0
 30
0
  0
VERTEX
  8
LAYER_1
 10
183.8304
 20
80.1443
  0
VERTEX
  8
LAYER_1
 10
183.648
 20
81.8515
  0
SEQEND
  0
POLYLINE
  8
LAYER_1
 40
0.1764
 41
0.1764
 66
1
 10
0
 20
0
 30
0
  0
VERTEX
  8
LAYER_1
 10
183.5307
 20
82.0991
  0
VERTEX
  8
LAYER_1
 10
181.3413
 20
84.1972
  0
SEQEND
  0
POLYLINE
  8
LAYER_1
 40
0.1764
 41
0.1764
 66
1
 10
0
 20
0
 30
0
  0
VERTEX
  8
LAYER_1
 10
173.7959
 20
81.1347
  0
VERTEX
  8
LAYER_1
 10
173.5613
 20
81.1217
 42
0.3234352297
  0
VERTEX
  8
LAYER_1
 10
172.206
 20
79.7664
  0
VERTEX
  8
LAYER_1
 10
172.1929
 20
79.5318
  0
SEQEND
  0
POLYLINE
  8
LAYER_1
 40
0.1764
 41
0.1764
 66
1
 10
0
 20
0
 30
0
  0
VERTEX
  8
LAYER_1
 10
175.3988
 20
79.5318
  0
VERTEX
  8
LAYER_1
 10
175.3857
 20
79.7664
 42
0.3234345973
  0
VERTEX
  8
LAYER_1
 10
174.0304
 20
81.1217
  0
VERTEX
  8
LAYER_1
 10
173.7959
 20
81.1347
  0
SEQEND
  0
POLYLINE
  8
LAYER_1
 40
0.1764
 41
0.1764
 66
1
 10
0
 20
0
 30
0
  0
VERTEX
  8
LAYER_1
 10
177.8097
 20
79.5318
  0
VERTEX
  8
LAYER_1
 10
178.5004
 20
81.656
  0
SEQEND
  0
POLYLINE
  8
LAYER_1
 40
0.1764
 41
0.1764
 66
1
 10
0
 20
0
 30
0
  0
VERTEX
  8
LAYER_1
 10
179.6602
 20
82.49
  0
VERTEX
  8
LAYER_1
 10
179.6341
 20
82.49
  0
SEQEND
  0
POLYLINE
  8
LAYER_1
 40
0.1764
 41
0.1764
 66
1
 10
0
 20
0
 30
0
  0
VERTEX
  8
LAYER_1
 10
179.7645
 20
82.477
  0
VERTEX
  8
LAYER_1
 10
179.6472
 20
82.477
  0
SEQEND
  0
POLYLINE
  8
LAYER_1
 40
0.1764
 41
0.1764
 66
1
 10
0
 20
0
 30
0
  0
VERTEX
  8
LAYER_1
 10
179.6341
 20
82.477
  0
VERTEX
  8
LAYER_1
 10
179.4256
 20
82.4509
 42
0.1371517273
  0
VERTEX
  8
LAYER_1
 10
178.9013
 20
82.221
 42
0.07728769777
  0
VERTEX
  8
LAYER_1
 10
178.5916
 20
81.8515
  0
VERTEX
  8
LAYER_1
 10
178.5134
 20
81.656
  0
SEQEND
  0
POLYLINE
  8
LAYER_1
 40
0.1764
 41
0.1764
 66
1
 10
0
 20
0
 30
0
  0
VERTEX
  8
LAYER_1
 10
158.34
 20
108.5017
  0
VERTEX
  8
LAYER_1
 10
158.2227
 20
108.4626
  0
VERTEX
  8
LAYER_1
 10
158.1315
 20
108.3714
  0
VERTEX
  8
LAYER_1
 10
158.0794
 20
108.2541
  0
SEQEND
  0
POLYLINE
  8
LAYER_1
 40
0.1764
 41
0.1764
 66
1
 10
0
 20
0
 30
0
  0
VERTEX
  8
LAYER_1
 10
159.4738
 20
108.5017
  0
VERTEX
  8
LAYER_1
 10
159.4347
 20
108.5017
  0
SEQEND
  0
POLYLINE
  8
LAYER_1
 40
0.1764
 41
0.1764
 66
1
 10
0
 20
0
 30
0
  0
VERTEX
  8
LAYER_1
 10
181.4456
 20
81.3041
  0
VERTEX
  8
LAYER_1
 10
180.5203
 20
82.1903
  0
SEQEND
  0
POLYLINE
  8
LAYER_1
 40
0.1764
 41
0.1764
 66
1
 10
0
 20
0
 30
0
  0
VERTEX
  8
LAYER_1
 10
180.5203
 20
82.2033
  0
VERTEX
  8
LAYER_1
 10
180.3379
 20
82.3337
  0
VERTEX
  8
LAYER_1
 10
180.1294
 20
82.4249
  0
VERTEX
  8
LAYER_1
 10
179.9078
 20
82.477
  0
SEQEND
  0
POLYLINE
  8
LAYER_1
 40
0.1058
 41
0.1058
 66
1
 10
0
 20
0
 30
0
  0
VERTEX
  8
LAYER_1
 10
159.4347
 20
108.5017
  0
VERTEX
  8
LAYER_1
 10
217.0748
 20
108.5017
  0
SEQEND
  0
POLYLINE
  8
LAYER_1
 40
0.1058
 41
0.1058
 66
1
 10
0
 20
0
 30
0
  0
VERTEX
  8
LAYER_1
 10
86.2084
 20
170.4945
  0
VERTEX
  8
LAYER_1
 10
86.1954
 20
170.9897
  0
VERTEX
  8
LAYER_1
 10
86.1432
 20
171.4719
 42
0.09654609102
  0
VERTEX
  8
LAYER_1
 10
85.205
 20
174.2477
 42
0.1913459159
  0
VERTEX
  8
LAYER_1
 10
80.8125
 20
177.7048
 42
0.05327339824
  0
VERTEX
  8
LAYER_1
 10
79.1842
 20
178.0009
  0
VERTEX
  8
LAYER_1
 10
78.689
 20
178.0139
  0
VERTEX
  8
LAYER_1
 10
78.1938
 20
178.0009
 42
0.09535415582
  0
VERTEX
  8
LAYER_1
 10
75.365
 20
177.2369
 42
0.2463382787
  0
VERTEX
  8
LAYER_1
 10
71.2347
 20
171.4719
  0
VERTEX
  8
LAYER_1
 10
71.1826
 20
170.9897
  0
VERTEX
  8
LAYER_1
 10
71.1696
 20
170.4945
  0
VERTEX
  8
LAYER_1
 10
71.1826
 20
169.9993
  0
VERTEX
  8
LAYER_1
 10
71.2347
 20
169.5171
 42
0.09652946165
  0
VERTEX
  8
LAYER_1
 10
72.1731
 20
166.7413
 42
0.1913328591
  0
VERTEX
  8
LAYER_1
 10
76.5655
 20
163.2842
 42
0.05327603562
  0
VERTEX
  8
LAYER_1
 10
78.1938
 20
162.9881
  0
VERTEX
  8
LAYER_1
 10
78.689
 20
162.9751
  0
VERTEX
  8
LAYER_1
 10
79.1842
 20
162.9881
 42
0.09535482805
  0
VERTEX
  8
LAYER_1
 10
82.013
 20
163.7521
 42
0.2463463491
  0
VERTEX
  8
LAYER_1
 10
86.1432
 20
169.5171
  0
VERTEX
  8
LAYER_1
 10
86.1954
 20
169.9993
  0
VERTEX
  8
LAYER_1
 10
86.2084
 20
170.4945
  0
SEQEND
  0
POLYLINE
  8
LAYER_1
 40
0.1058
 41
0.1058
 66
1
 10
0
 20
0
 30
0
 70
1
  0
VERTEX
  8
LAYER_1
 10
110.6823
 20
170.4945
  0
VERTEX
  8
LAYER_1
 10
110.6693
 20
171.511
  0
VERTEX
  8
LAYER_1
 10
110.6172
 20
172.5275
  0
VERTEX
  8
LAYER_1
 10
110.539
 20
173.5309
 42
0.04635667332
  0
VERTEX
  8
LAYER_1
 10
109.4084
 20
179.4306
 42
0.2028850038
  0
VERTEX
  8
LAYER_1
 10
93.3834
 20
198.9131
 42
0.09168711778
  0
VERTEX
  8
LAYER_1
 10
82.2226
 20
202.2917
 42
0.0232289925
  0
VERTEX
  8
LAYER_1
 10
79.1972
 20
202.4878
  0
VERTEX
  8
LAYER_1
 10
78.1807
 20
202.4878
  0
VERTEX
  8
LAYER_1
 10
77.1643
 20
202.4487
 42
0.3820133015
  0
VERTEX
  8
LAYER_1
 10
46.7608
 20
172.5275
  0
VERTEX
  8
LAYER_1
 10
46.7087
 20
171.511
  0
VERTEX
  8
LAYER_1
 10
46.6957
 20
170.4945
  0
VERTEX
  8
LAYER_1
 10
46.7087
 20
169.478
  0
VERTEX
  8
LAYER_1
 10
46.7608
 20
168.4615
 42
0.3820131831
  0
VERTEX
  8
LAYER_1
 10
77.1643
 20
138.5403
  0
VERTEX
  8
LAYER_1
 10
78.1807
 20
138.5012
  0
VERTEX
  8
LAYER_1
 10
79.1972
 20
138.5012
 42
0.3819136216
  0
VERTEX
  8
LAYER_1
 10
110.539
 20
167.4581
  0
VERTEX
  8
LAYER_1
 10
110.6172
 20
168.4615
  0
VERTEX
  8
LAYER_1
 10
110.6693
 20
169.478
  0
SEQEND
  0
POLYLINE
  8
LAYER_1
 40
0.1058
 41
0.1058
 66
1
 10
0
 20
0
 30
0
 70
1
  0
VERTEX
  8
LAYER_1
 10
108.8579
 20
170.4945
  0
VERTEX
  8
LAYER_1
 10
108.8448
 20
171.4849
  0
VERTEX
  8
LAYER_1
 10
108.7927
 20
172.4623
  0
VERTEX
  8
LAYER_1
 10
108.7145
 20
173.4527
 42
0.376257223
  0
VERTEX
  8
LAYER_1
 10
79.6794
 20
200.6503
  0
VERTEX
  8
LAYER_1
 10
78.689
 20
200.6634
  0
VERTEX
  8
LAYER_1
 10
77.6986
 20
200.6503
 42
0.3857167892
  0
VERTEX
  8
LAYER_1
 10
48.5853
 20
172.4623
  0
VERTEX
  8
LAYER_1
 10
48.5331
 20
171.4849
  0
VERTEX
  8
LAYER_1
 10
48.5201
 20
170.4945
  0
VERTEX
  8
LAYER_1
 10
48.5331
 20
169.5041
  0
VERTEX
  8
LAYER_1
 10
48.5853
 20
168.5267
 42
0.3765343605
  0
VERTEX
  8
LAYER_1
 10
76.7212
 20
140.3908
  0
VERTEX
  8
LAYER_1
 10
77.6986
 20
140.3387
  0
VERTEX
  8
LAYER_1
 10
78.689
 20
140.3256
 42
0.3857175735
  0
VERTEX
  8
LAYER_1
 10
108.7145
 20
167.5363
  0
VERTEX
  8
LAYER_1
 10
108.7927
 20
168.5267
  0
VERTEX
  8
LAYER_1
 10
108.8448
 20
169.5041
  0
SEQEND
  0
POLYLINE
  8
LAYER_1
 40
0.1058
 41
0.1058
 66
1
 10
0
 20
0
 30
0
  0
VERTEX
  8
LAYER_1
 10
108.8579
 20
108.2541
  0
VERTEX
  8
LAYER_1
 10
108.8188
 20
108.3453
  0
VERTEX
  8
LAYER_1
 10
108.7536
 20
108.4366
  0
VERTEX
  8
LAYER_1
 10
108.6624
 20
108.4887
  0
VERTEX
  8
LAYER_1
 10
108.5581
 20
108.5017
  0
SEQEND
  0
POLYLINE
  8
LAYER_1
 40
0.1058
 41
0.1058
 66
1
 10
0
 20
0
 30
0
  0
VERTEX
  8
LAYER_1
 10
48.7808
 20
108.5017
  0
VERTEX
  8
LAYER_1
 10
48.8068
 20
108.5017
  0
SEQEND
  0
POLYLINE
  8
LAYER_1
 40
0.1058
 41
0.1058
 66
1
 10
0
 20
0
 30
0
  0
VERTEX
  8
LAYER_1
 10
97.7677
 20
80.1443
  0
VERTEX
  8
LAYER_1
 10
97.1682
 20
79.5318
  0
SEQEND
  0
POLYLINE
  8
LAYER_1
 40
0.1058
 41
0.1058
 66
1
 10
0
 20
0
 30
0
  0
VERTEX
  8
LAYER_1
 10
60.2098
 20
79.5318
  0
VERTEX
  8
LAYER_1
 10
59.6103
 20
80.1443
  0
VERTEX
  8
LAYER_1
 10
59.48
 20
80.1443
 42
-0.0515714861
  0
VERTEX
  8
LAYER_1
 10
58.0107
 20
80.4369
 42
-0.04259278864
  0
VERTEX
  8
LAYER_1
 10
56.4555
 20
81.0666
 42
-0.03601434396
  0
VERTEX
  8
LAYER_1
 10
54.7492
 20
82.0929
 42
-0.04288048713
  0
VERTEX
  8
LAYER_1
 10
52.156
 20
84.2754
  0
VERTEX
  8
LAYER_1
 10
51.5696
 20
84.8618
  0
VERTEX
  8
LAYER_1
 10
51.0092
 20
85.4874
 42
-0.06749560806
  0
VERTEX
  8
LAYER_1
 10
48.5297
 20
88.9839
 42
-0.1042801713
  0
VERTEX
  8
LAYER_1
 10
46.7163
 20
95.4311
 42
-0.0542467856
  0
VERTEX
  8
LAYER_1
 10
46.8651
 20
98.819
  0
VERTEX
  8
LAYER_1
 10
46.9302
 20
99.236
  0
VERTEX
  8
LAYER_1
 10
48.5202
 20
108.2541
  0
SEQEND
  0
POLYLINE
  8
LAYER_1
 40
0.1058
 41
0.1058
 66
1
 10
0
 20
0
 30
0
  0
VERTEX
  8
LAYER_1
 10
108.8579
 20
108.2541
  0
VERTEX
  8
LAYER_1
 10
110.4478
 20
99.236
  0
VERTEX
  8
LAYER_1
 10
110.5129
 20
98.806
 42
-0.2071967333
  0
VERTEX
  8
LAYER_1
 10
107.2028
 20
86.4648
  0
VERTEX
  8
LAYER_1
 10
106.4861
 20
85.6177
 42
-0.02812646341
  0
VERTEX
  8
LAYER_1
 10
104.5458
 20
83.6384
 42
-0.03061125566
  0
VERTEX
  8
LAYER_1
 10
102.6815
 20
82.133
 42
-0.0368966123
  0
VERTEX
  8
LAYER_1
 10
100.9264
 20
81.0683
 42
-0.04262654973
  0
VERTEX
  8
LAYER_1
 10
99.3869
 20
80.4418
 42
-0.04495833239
  0
VERTEX
  8
LAYER_1
 10
98.1196
 20
80.1704
  0
VERTEX
  8
LAYER_1
 10
97.9502
 20
80.1573
  0
VERTEX
  8
LAYER_1
 10
97.7677
 20
80.1443
  0
SEQEND
  0
POLYLINE
  8
LAYER_1
 40
0.1058
 41
0.1058
 66
1
 10
0
 20
0
 30
0
  0
VERTEX
  8
LAYER_1
 10
48.7677
 20
108.5017
  0
VERTEX
  8
LAYER_1
 10
48.6504
 20
108.4626
  0
VERTEX
  8
LAYER_1
 10
48.5592
 20
108.3714
  0
VERTEX
  8
LAYER_1
 10
48.5071
 20
108.2541
  0
SEQEND
  0
POLYLINE
  8
LAYER_1
 40
0.1058
 41
0.1058
 66
1
 10
0
 20
0
 30
0
  0
VERTEX
  8
LAYER_1
 10
59.6103
 20
80.1443
  0
VERTEX
  8
LAYER_1
 10
97.7677
 20
80.1443
  0
SEQEND
  0
POLYLINE
  8
LAYER_1
 40
0.1058
 41
0.1058
 66
1
 10
0
 20
0
 30
0
  0
VERTEX
  8
LAYER_1
 10
48.8068
 20
108.5017
  0
VERTEX
  8
LAYER_1
 10
108.5581
 20
108.5017
  0
SEQEND
  0
POLYLINE
  8
LAYER_1
 40
0.1058
 41
0.1058
 66
1
 10
0
 20
0
 30
0
  0
VERTEX
  8
LAYER_1
 10
60.2098
 20
79.5318
  0
VERTEX
  8
LAYER_1
 10
97.1683
 20
79.5318
  0
SEQEND
  0
POLYLINE
  8
LAYER_1
 40
0.1764
 41
0.1764
 66
1
 10
0
 20
0
 30
0
  0
VERTEX
  8
LAYER_1
 10
181.8105
 20
80.1443
  0
VERTEX
  8
LAYER_1
 10
183.8304
 20
80.1443
  0
SEQEND
  0
POLYLINE
  8
LAYER_1
 40
0.1764
 41
0.1764
 66
1
 10
0
 20
0
 30
0
  0
VERTEX
  8
LAYER_1
 10
169.769
 20
79.5318
  0
VERTEX
  8
LAYER_1
 10
172.1799
 20
79.5318
  0
SEQEND
  0
POLYLINE
  8
LAYER_1
 40
0.1764
 41
0.1764
 66
1
 10
0
 20
0
 30
0
  0
VERTEX
  8
LAYER_1
 10
175.3988
 20
79.5318
  0
VERTEX
  8
LAYER_1
 10
177.8097
 20
79.5318
  0
SEQEND
  0
POLYLINE
  8
LAYER_1
 40
0.1764
 41
0.1764
 66
1
 10
0
 20
0
 30
0
  0
VERTEX
  8
LAYER_1
 10
195.5331
 20
84.3797
  0
VERTEX
  8
LAYER_1
 10
195.3376
 20
84.3145
  0
VERTEX
  8
LAYER_1
 10
195.1682
 20
84.1842
  0
SEQEND
  0
POLYLINE
  8
LAYER_1
 40
0.1764
 41
0.1764
 66
1
 10
0
 20
0
 30
0
  0
VERTEX
  8
LAYER_1
 10
195.6764
 20
84.4057
  0
VERTEX
  8
LAYER_1
 10
195.5331
 20
84.3797
  0
SEQEND
  0
POLYLINE
  8
LAYER_1
 40
0.1764
 41
0.1764
 66
1
 10
0
 20
0
 30
0
  0
VERTEX
  8
LAYER_1
 10
192.9788
 20
82.086
  0
VERTEX
  8
LAYER_1
 10
192.9006
 20
81.9688
  0
VERTEX
  8
LAYER_1
 10
192.8615
 20
81.8384
  0
SEQEND
  0
POLYLINE
  8
LAYER_1
 40
0.1764
 41
0.1764
 66
1
 10
0
 20
0
 30
0
  0
VERTEX
  8
LAYER_1
 10
206.7275
 20
79.5318
  0
VERTEX
  8
LAYER_1
 10
207.34
 20
80.1443
  0
SEQEND
  0
POLYLINE
  8
LAYER_1
 40
0.1764
 41
0.1764
 66
1
 10
0
 20
0
 30
0
  0
VERTEX
  8
LAYER_1
 10
194.686
 20
80.1443
  0
VERTEX
  8
LAYER_1
 10
194.7512
 20
80.6916
  0
SEQEND
  0
POLYLINE
  8
LAYER_1
 40
0.1764
 41
0.1764
 66
1
 10
0
 20
0
 30
0
  0
VERTEX
  8
LAYER_1
 10
195.0639
 20
81.3041
  0
VERTEX
  8
LAYER_1
 10
194.9075
 20
81.1217
  0
VERTEX
  8
LAYER_1
 10
194.8033
 20
80.9132
  0
VERTEX
  8
LAYER_1
 10
194.7512
 20
80.6786
  0
SEQEND
  0
POLYLINE
  8
LAYER_1
 40
0.1764
 41
0.1764
 66
1
 10
0
 20
0
 30
0
  0
VERTEX
  8
LAYER_1
 10
196.6017
 20
82.464
  0
VERTEX
  8
LAYER_1
 10
196.745
 20
82.477
  0
SEQEND
  0
POLYLINE
  8
LAYER_1
 40
0.1764
 41
0.1764
 66
1
 10
0
 20
0
 30
0
  0
VERTEX
  8
LAYER_1
 10
196.8493
 20
82.49
  0
VERTEX
  8
LAYER_1
 10
196.8363
 20
82.49
  0
SEQEND
  0
POLYLINE
  8
LAYER_1
 40
0.1764
 41
0.1764
 66
1
 10
0
 20
0
 30
0
  0
VERTEX
  8
LAYER_1
 10
196.8623
 20
82.477
  0
SEQEND
  0
POLYLINE
  8
LAYER_1
 40
0.1764
 41
0.1764
 66
1
 10
0
 20
0
 30
0
  0
VERTEX
  8
LAYER_1
 10
192.6661
 20
80.1443
  0
VERTEX
  8
LAYER_1
 10
192.8615
 20
81.8515
  0
SEQEND
  0
POLYLINE
  8
LAYER_1
 40
0.1764
 41
0.1764
 66
1
 10
0
 20
0
 30
0
  0
VERTEX
  8
LAYER_1
 10
192.9788
 20
82.0991
  0
VERTEX
  8
LAYER_1
 10
195.1682
 20
84.1972
  0
SEQEND
  0
POLYLINE
  8
LAYER_1
 40
0.1764
 41
0.1764
 66
1
 10
0
 20
0
 30
0
  0
VERTEX
  8
LAYER_1
 10
204.3166
 20
79.5318
  0
VERTEX
  8
LAYER_1
 10
204.3035
 20
79.7664
 42
0.3234346102
  0
VERTEX
  8
LAYER_1
 10
202.9482
 20
81.1217
  0
VERTEX
  8
LAYER_1
 10
202.7136
 20
81.1347
  0
VERTEX
  8
LAYER_1
 10
202.4791
 20
81.1217
 42
0.3234333922
  0
VERTEX
  8
LAYER_1
 10
201.1238
 20
79.7664
  0
VERTEX
  8
LAYER_1
 10
201.1107
 20
79.5318
  0
SEQEND
  0
POLYLINE
  8
LAYER_1
 40
0.1764
 41
0.1764
 66
1
 10
0
 20
0
 30
0
  0
VERTEX
  8
LAYER_1
 10
198.6998
 20
79.5318
  0
VERTEX
  8
LAYER_1
 10
197.9961
 20
81.656
  0
SEQEND
  0
POLYLINE
  8
LAYER_1
 40
0.1764
 41
0.1764
 66
1
 10
0
 20
0
 30
0
  0
VERTEX
  8
LAYER_1
 10
196.8493
 20
82.49
  0
VERTEX
  8
LAYER_1
 10
196.8623
 20
82.49
  0
SEQEND
  0
POLYLINE
  8
LAYER_1
 40
0.1764
 41
0.1764
 66
1
 10
0
 20
0
 30
0
  0
VERTEX
  8
LAYER_1
 10
196.8493
 20
82.477
  0
VERTEX
  8
LAYER_1
 10
196.732
 20
82.477
  0
SEQEND
  0
POLYLINE
  8
LAYER_1
 40
0.1764
 41
0.1764
 66
1
 10
0
 20
0
 30
0
  0
VERTEX
  8
LAYER_1
 10
197.9831
 20
81.656
  0
VERTEX
  8
LAYER_1
 10
197.9049
 20
81.8515
 42
0.1240561975
  0
VERTEX
  8
LAYER_1
 10
197.4596
 20
82.3161
 42
0.09184578028
  0
VERTEX
  8
LAYER_1
 10
197.0708
 20
82.4509
  0
VERTEX
  8
LAYER_1
 10
196.8623
 20
82.477
  0
SEQEND
  0
POLYLINE
  8
LAYER_1
 40
0.1764
 41
0.1764
 66
1
 10
0
 20
0
 30
0
  0
VERTEX
  8
LAYER_1
 10
195.0509
 20
81.3041
  0
VERTEX
  8
LAYER_1
 10
195.9762
 20
82.1903
  0
SEQEND
  0
POLYLINE
  8
LAYER_1
 40
0.1764
 41
0.1764
 66
1
 10
0
 20
0
 30
0
  0
VERTEX
  8
LAYER_1
 10
196.6017
 20
82.477
  0
VERTEX
  8
LAYER_1
 10
196.3801
 20
82.4249
  0
VERTEX
  8
LAYER_1
 10
196.1716
 20
82.3337
  0
VERTEX
  8
LAYER_1
 10
195.9892
 20
82.2033
  0
SEQEND
  0
POLYLINE
  8
LAYER_1
 40
0.1764
 41
0.1764
 66
1
 10
0
 20
0
 30
0
  0
VERTEX
  8
LAYER_1
 10
194.686
 20
80.1443
  0
VERTEX
  8
LAYER_1
 10
192.6661
 20
80.1443
  0
SEQEND
  0
POLYLINE
  8
LAYER_1
 40
0.1764
 41
0.1764
 66
1
 10
0
 20
0
 30
0
  0
VERTEX
  8
LAYER_1
 10
206.7275
 20
79.5318
  0
VERTEX
  8
LAYER_1
 10
204.3166
 20
79.5318
  0
SEQEND
  0
POLYLINE
  8
LAYER_1
 40
0.1764
 41
0.1764
 66
1
 10
0
 20
0
 30
0
  0
VERTEX
  8
LAYER_1
 10
201.1107
 20
79.5318
  0
VERTEX
  8
LAYER_1
 10
198.6998
 20
79.5318
  0
SEQEND
  0
POLYLINE
  8
LAYER_1
 40
0.1058
 41
0.1058
 66
1
 10
0
 20
0
 30
0
  0
VERTEX
  8
LAYER_1
 10
180.82
 20
84.4188
  0
VERTEX
  8
LAYER_1
 10
195.7676
 20
84.4188
  0
SEQEND
  0
POLYLINE
  8
LAYER_1
 40
0.1058
 41
0.1058
 66
1
 10
0
 20
0
 30
0
  0
VERTEX
  8
LAYER_1
 10
183.8304
 20
80.1443
  0
VERTEX
  8
LAYER_1
 10
192.666
 20
80.1443
  0
SEQEND
  0
POLYLINE
  8
LAYER_1
 40
0.1058
 41
0.1058
 66
1
 10
0
 20
0
 30
0
  0
VERTEX
  8
LAYER_1
 10
183.6089
 20
81.9818
  0
VERTEX
  8
LAYER_1
 10
192.9006
 20
81.9818
  0
SEQEND
  0
POLYLINE
  8
LAYER_1
 40
0.1058
 41
0.1058
 66
1
 10
0
 20
0
 30
0
  0
VERTEX
  8
LAYER_1
 10
172.1799
 20
79.5318
  0
VERTEX
  8
LAYER_1
 10
175.3988
 20
79.5318
  0
SEQEND
  0
POLYLINE
  8
LAYER_1
 40
0.1058
 41
0.1058
 66
1
 10
0
 20
0
 30
0
  0
VERTEX
  8
LAYER_1
 10
177.8097
 20
79.5318
  0
VERTEX
  8
LAYER_1
 10
198.6998
 20
79.5318
  0
SEQEND
  0
POLYLINE
  8
LAYER_1
 40
0.1058
 41
0.1058
 66
1
 10
0
 20
0
 30
0
  0
VERTEX
  8
LAYER_1
 10
201.1107
 20
79.5318
  0
VERTEX
  8
LAYER_1
 10
204.3166
 20
79.5318
  0
SEQEND
  0
POLYLINE
  8
LAYER_1
 40
0.1058
 41
0.1058
 66
1
 10
0
 20
0
 30
0
 70
1
  0
VERTEX
  8
LAYER_1
 10
86.2084
 20
170.4945
  0
VERTEX
  8
LAYER_1
 10
86.1954
 20
170.9897
  0
VERTEX
  8
LAYER_1
 10
86.1432
 20
171.4719
 42
0.08941854914
  0
VERTEX
  8
LAYER_1
 10
85.1054
 20
174.3989
 42
0.09496586461
  0
VERTEX
  8
LAYER_1
 10
83.3007
 20
176.4556
 42
0.08987487834
  0
VERTEX
  8
LAYER_1
 10
80.9937
 20
177.6504
 42
0.09374051052
  0
VERTEX
  8
LAYER_1
 10
78.1272
 20
177.9747
 42
0.08872187909
  0
VERTEX
  8
LAYER_1
 10
75.4832
 20
177.3
 42
0.09041919223
  0
VERTEX
  8
LAYER_1
 10
73.3405
 20
175.8035
 42
0.09637141205
  0
VERTEX
  8
LAYER_1
 10
71.8032
 20
173.4803
 42
0.07474054115
  0
VERTEX
  8
LAYER_1
 10
71.1826
 20
170.9897
  0
VERTEX
  8
LAYER_1
 10
71.1696
 20
170.4945
  0
VERTEX
  8
LAYER_1
 10
71.1826
 20
169.9993
 42
0.08929116231
  0
VERTEX
  8
LAYER_1
 10
72.034
 20
167.0105
 42
0.09483711873
  0
VERTEX
  8
LAYER_1
 10
73.705
 20
164.8416
 42
0.08980893215
  0
VERTEX
  8
LAYER_1
 10
75.9314
 20
163.5009
 42
0.09373934769
  0
VERTEX
  8
LAYER_1
 10
78.7708
 20
162.9933
 42
0.08876254917
  0
VERTEX
  8
LAYER_1
 10
81.4515
 20
163.4971
 42
0.09046556311
  0
VERTEX
  8
LAYER_1
 10
83.6842
 20
164.8529
 42
0.09639994331
  0
VERTEX
  8
LAYER_1
 10
85.3655
 20
167.0722
 42
0.07473971229
  0
VERTEX
  8
LAYER_1
 10
86.1432
 20
169.5171
  0
VERTEX
  8
LAYER_1
 10
86.1954
 20
169.9993
  0
SEQEND
  0
POLYLINE
  8
LAYER_1
 40
0.1058
 41
0.1058
 66
1
 10
0
 20
0
 30
0
 70
1
  0
VERTEX
  8
LAYER_1
 10
110.6823
 20
170.4945
  0
VERTEX
  8
LAYER_1
 10
110.6693
 20
171.511
  0
VERTEX
  8
LAYER_1
 10
110.6172
 20
172.5275
  0
VERTEX
  8
LAYER_1
 10
110.539
 20
173.5309
 42
0.04635667332
  0
VERTEX
  8
LAYER_1
 10
109.4084
 20
179.4306
 42
0.2028850038
  0
VERTEX
  8
LAYER_1
 10
93.3834
 20
198.9131
 42
0.09168711778
  0
VERTEX
  8
LAYER_1
 10
82.2226
 20
202.2917
 42
0.0232289925
  0
VERTEX
  8
LAYER_1
 10
79.1972
 20
202.4878
  0
VERTEX
  8
LAYER_1
 10
78.1807
 20
202.4878
  0
VERTEX
  8
LAYER_1
 10
77.1643
 20
202.4487
 42
0.3820133015
  0
VERTEX
  8
LAYER_1
 10
46.7608
 20
172.5275
  0
VERTEX
  8
LAYER_1
 10
46.7087
 20
171.511
  0
VERTEX
  8
LAYER_1
 10
46.6957
 20
170.4945
  0
VERTEX
  8
LAYER_1
 10
46.7087
 20
169.478
  0
VERTEX
  8
LAYER_1
 10
46.7608
 20
168.4615
 42
0.3820131831
  0
VERTEX
  8
LAYER_1
 10
77.1643
 20
138.5403
  0
VERTEX
  8
LAYER_1
 10
78.1807
 20
138.5012
  0
VERTEX
  8
LAYER_1
 10
79.1972
 20
138.5012
 42
0.3819136216
  0
VERTEX
  8
LAYER_1
 10
110.539
 20
167.4581
  0
VERTEX
  8
LAYER_1
 10
110.6172
 20
168.4615
  0
VERTEX
  8
LAYER_1
 10
110.6693
 20
169.478
  0
SEQEND
  0
POLYLINE
  8
LAYER_1
 40
0.1058
 41
0.1058
 66
1
 10
0
 20
0
 30
0
 70
1
  0
VERTEX
  8
LAYER_1
 10
108.8711
 20
170.4942
  0
VERTEX
  8
LAYER_1
 10
108.858
 20
171.4846
  0
VERTEX
  8
LAYER_1
 10
108.8059
 20
172.462
  0
VERTEX
  8
LAYER_1
 10
108.7277
 20
173.4524
 42
0.3762297225
  0
VERTEX
  8
LAYER_1
 10
79.6796
 20
200.6631
  0
VERTEX
  8
LAYER_1
 10
78.6892
 20
200.6761
  0
VERTEX
  8
LAYER_1
 10
77.6987
 20
200.6631
 42
0.385730238
  0
VERTEX
  8
LAYER_1
 10
48.5724
 20
172.462
  0
VERTEX
  8
LAYER_1
 10
48.5203
 20
171.4846
  0
VERTEX
  8
LAYER_1
 10
48.5073
 20
170.4942
  0
VERTEX
  8
LAYER_1
 10
48.5203
 20
169.5038
  0
VERTEX
  8
LAYER_1
 10
48.5724
 20
168.5264
 42
0.3765428277
  0
VERTEX
  8
LAYER_1
 10
76.7214
 20
140.3775
  0
VERTEX
  8
LAYER_1
 10
77.6987
 20
140.3253
  0
VERTEX
  8
LAYER_1
 10
78.6892
 20
140.3123
 42
0.3856912614
  0
VERTEX
  8
LAYER_1
 10
108.7277
 20
167.5359
  0
VERTEX
  8
LAYER_1
 10
108.8059
 20
168.5264
  0
VERTEX
  8
LAYER_1
 10
108.858
 20
169.5038
  0
SEQEND
  0
POLYLINE
  8
LAYER_1
 40
0.1058
 41
0.1058
 66
1
 10
0
 20
0
 30
0
 70
1
  0
VERTEX
  8
LAYER_1
 10
107.2028
 20
170.4945
  0
VERTEX
  8
LAYER_1
 10
107.1898
 20
171.4589
  0
VERTEX
  8
LAYER_1
 10
107.1376
 20
172.4102
  0
VERTEX
  8
LAYER_1
 10
107.0595
 20
173.3615
 42
0.04599277398
  0
VERTEX
  8
LAYER_1
 10
106.0408
 20
178.5537
 42
0.1564851387
  0
VERTEX
  8
LAYER_1
 10
96.1506
 20
193.0366
 42
0.06680334673
  0
VERTEX
  8
LAYER_1
 10
89.5853
 20
196.8472
 42
0.06861757538
  0
VERTEX
  8
LAYER_1
 10
82.0691
 20
198.8045
 42
0.02314890171
  0
VERTEX
  8
LAYER_1
 10
79.4057
 20
198.9953
  0
VERTEX
  8
LAYER_1
 10
78.4544
 20
199.0083
  0
VERTEX
  8
LAYER_1
 10
77.4901
 20
198.9823
 42
0.3778441189
  0
VERTEX
  8
LAYER_1
 10
50.2794
 20
172.8924
  0
VERTEX
  8
LAYER_1
 10
50.2143
 20
171.928
  0
VERTEX
  8
LAYER_1
 10
50.1752
 20
170.9767
  0
VERTEX
  8
LAYER_1
 10
50.1752
 20
170.0123
  0
VERTEX
  8
LAYER_1
 10
50.2143
 20
169.061
 42
0.3778943137
  0
VERTEX
  8
LAYER_1
 10
76.5387
 20
142.0589
  0
VERTEX
  8
LAYER_1
 10
77.4901
 20
142.0068
  0
VERTEX
  8
LAYER_1
 10
78.4544
 20
141.9807
 42
0.04699671469
  0
VERTEX
  8
LAYER_1
 10
83.858
 20
142.4531
 42
0.1826938533
  0
VERTEX
  8
LAYER_1
 10
101.2359
 20
153.0385
 42
0.1396516434
  0
VERTEX
  8
LAYER_1
 10
107.0595
 20
167.6275
  0
VERTEX
  8
LAYER_1
 10
107.1376
 20
168.5788
  0
VERTEX
  8
LAYER_1
 10
107.1898
 20
169.5301
  0
SEQEND
  0
POLYLINE
  8
LAYER_1
 40
0.1058
 41
0.1058
 66
1
 10
0
 20
0
 30
0
  0
VERTEX
  8
LAYER_1
 10
50.1752
 20
170.4815
  0
VERTEX
  8
LAYER_1
 10
50.1752
 20
132.1286
  0
SEQEND
  0
POLYLINE
  8
LAYER_1
 40
0.1058
 41
0.1058
 66
1
 10
0
 20
0
 30
0
  0
VERTEX
  8
LAYER_1
 10
107.2028
 20
170.4815
  0
VERTEX
  8
LAYER_1
 10
107.2028
 20
132.1286
  0
SEQEND
  0
POLYLINE
  8
LAYER_1
 40
0.1058
 41
0.1058
 66
1
 10
0
 20
0
 30
0
  0
VERTEX
  8
LAYER_1
 10
52.1821
 20
132.1677
  0
VERTEX
  8
LAYER_1
 10
75.4571
 20
132.1677
  0
SEQEND
  0
POLYLINE
  8
LAYER_1
 40
0.1058
 41
0.1058
 66
1
 10
0
 20
0
 30
0
  0
VERTEX
  8
LAYER_1
 10
105.1959
 20
132.1677
  0
VERTEX
  8
LAYER_1
 10
81.9209
 20
132.1677
  0
SEQEND
  0
POLYLINE
  8
LAYER_1
 40
0.05
 41
0.05
 66
1
 10
0
 20
0
 30
0
  0
VERTEX
  8
LAYER_1
 10
52.1821
 20
132.4935
  0
VERTEX
  8
LAYER_1
 10
52.1821
 20
131.8288
  0
VERTEX
  8
LAYER_1
 10
50.1752
 20
132.1677
  0
SEQEND
  0
POLYLINE
  8
LAYER_1
 40
0.05
 41
0.05
 66
1
 10
0
 20
0
 30
0
  0
VERTEX
  8
LAYER_1
 10
105.1959
 20
132.4935
  0
VERTEX
  8
LAYER_1
 10
105.1959
 20
131.8288
  0
VERTEX
  8
LAYER_1
 10
107.2028
 20
132.1677
  0
SEQEND
  0
POLYLINE
  8
LAYER_1
 40
0.1058
 41
0.1058
 66
1
 10
0
 20
0
 30
0
  0
VERTEX
  8
LAYER_1
 10
48.4941
 20
170.4815
  0
VERTEX
  8
LAYER_1
 10
48.4941
 20
128.0626
  0
SEQEND
  0
POLYLINE
  8
LAYER_1
 40
0.1058
 41
0.1058
 66
1
 10
0
 20
0
 30
0
  0
VERTEX
  8
LAYER_1
 10
108.8709
 20
170.4815
  0
VERTEX
  8
LAYER_1
 10
108.8709
 20
128.0626
  0
SEQEND
  0
POLYLINE
  8
LAYER_1
 40
0.1058
 41
0.1058
 66
1
 10
0
 20
0
 30
0
  0
VERTEX
  8
LAYER_1
 10
50.501
 20
128.0887
  0
VERTEX
  8
LAYER_1
 10
75.8611
 20
128.0887
  0
SEQEND
  0
POLYLINE
  8
LAYER_1
 40
0.1058
 41
0.1058
 66
1
 10
0
 20
0
 30
0
  0
VERTEX
  8
LAYER_1
 10
106.864
 20
128.0887
  0
VERTEX
  8
LAYER_1
 10
81.5169
 20
128.0887
  0
SEQEND
  0
POLYLINE
  8
LAYER_1
 40
0.05
 41
0.05
 66
1
 10
0
 20
0
 30
0
  0
VERTEX
  8
LAYER_1
 10
50.501
 20
128.4275
  0
VERTEX
  8
LAYER_1
 10
50.501
 20
127.7629
  0
VERTEX
  8
LAYER_1
 10
48.4941
 20
128.0887
  0
SEQEND
  0
POLYLINE
  8
LAYER_1
 40
0.05
 41
0.05
 66
1
 10
0
 20
0
 30
0
  0
VERTEX
  8
LAYER_1
 10
106.864
 20
128.4275
  0
VERTEX
  8
LAYER_1
 10
106.864
 20
127.7629
  0
VERTEX
  8
LAYER_1
 10
108.8709
 20
128.0887
  0
SEQEND
  0
POLYLINE
  8
LAYER_1
 40
0.1058
 41
0.1058
 66
1
 10
0
 20
0
 30
0
  0
VERTEX
  8
LAYER_1
 10
46.6826
 20
170.4815
  0
VERTEX
  8
LAYER_1
 10
46.6826
 20
124.6613
  0
SEQEND
  0
POLYLINE
  8
LAYER_1
 40
0.1058
 41
0.1058
 66
1
 10
0
 20
0
 30
0
  0
VERTEX
  8
LAYER_1
 10
110.6823
 20
170.4815
  0
VERTEX
  8
LAYER_1
 10
110.6823
 20
124.6613
  0
SEQEND
  0
POLYLINE
  8
LAYER_1
 40
0.1058
 41
0.1058
 66
1
 10
0
 20
0
 30
0
  0
VERTEX
  8
LAYER_1
 10
48.6895
 20
124.7004
  0
VERTEX
  8
LAYER_1
 10
75.6526
 20
124.7004
  0
SEQEND
  0
POLYLINE
  8
LAYER_1
 40
0.1058
 41
0.1058
 66
1
 10
0
 20
0
 30
0
  0
VERTEX
  8
LAYER_1
 10
108.6754
 20
124.7004
  0
VERTEX
  8
LAYER_1
 10
81.7124
 20
124.7004
  0
SEQEND
  0
POLYLINE
  8
LAYER_1
 40
0.05
 41
0.05
 66
1
 10
0
 20
0
 30
0
  0
VERTEX
  8
LAYER_1
 10
48.6895
 20
125.0392
  0
VERTEX
  8
LAYER_1
 10
48.6895
 20
124.3616
  0
VERTEX
  8
LAYER_1
 10
46.6826
 20
124.7004
  0
SEQEND
  0
POLYLINE
  8
LAYER_1
 40
0.05
 41
0.05
 66
1
 10
0
 20
0
 30
0
  0
VERTEX
  8
LAYER_1
 10
108.6754
 20
125.0392
  0
VERTEX
  8
LAYER_1
 10
108.6754
 20
124.3616
  0
VERTEX
  8
LAYER_1
 10
110.6823
 20
124.7004
  0
SEQEND
  0
POLYLINE
  8
LAYER_1
 40
0.1058
 41
0.1058
 66
1
 10
0
 20
0
 30
0
  0
VERTEX
  8
LAYER_1
 10
46.6827
 20
96.2126
  0
VERTEX
  8
LAYER_1
 10
46.6827
 20
72.1557
  0
SEQEND
  0
POLYLINE
  8
LAYER_1
 40
0.1058
 41
0.1058
 66
1
 10
0
 20
0
 30
0
  0
VERTEX
  8
LAYER_1
 10
110.6824
 20
96.1735
  0
VERTEX
  8
LAYER_1
 10
110.6824
 20
72.1557
  0
SEQEND
  0
POLYLINE
  8
LAYER_1
 40
0.1058
 41
0.1058
 66
1
 10
0
 20
0
 30
0
  0
VERTEX
  8
LAYER_1
 10
48.7026
 20
72.1948
  0
VERTEX
  8
LAYER_1
 10
75.6526
 20
72.1948
  0
SEQEND
  0
POLYLINE
  8
LAYER_1
 40
0.1058
 41
0.1058
 66
1
 10
0
 20
0
 30
0
  0
VERTEX
  8
LAYER_1
 10
108.6755
 20
72.1948
  0
VERTEX
  8
LAYER_1
 10
81.7124
 20
72.1948
  0
SEQEND
  0
POLYLINE
  8
LAYER_1
 40
0.05
 41
0.05
 66
1
 10
0
 20
0
 30
0
  0
VERTEX
  8
LAYER_1
 10
48.7026
 20
72.5337
  0
VERTEX
  8
LAYER_1
 10
48.7026
 20
71.856
  0
VERTEX
  8
LAYER_1
 10
46.6826
 20
72.1948
  0
SEQEND
  0
POLYLINE
  8
LAYER_1
 40
0.05
 41
0.05
 66
1
 10
0
 20
0
 30
0
  0
VERTEX
  8
LAYER_1
 10
108.6754
 20
72.5337
  0
VERTEX
  8
LAYER_1
 10
108.6754
 20
71.856
  0
VERTEX
  8
LAYER_1
 10
110.6823
 20
72.1948
  0
SEQEND
  0
POLYLINE
  8
LAYER_1
 40
0.1058
 41
0.1058
 66
1
 10
0
 20
0
 30
0
  0
VERTEX
  8
LAYER_1
 10
159.7344
 20
108.215
  0
VERTEX
  8
LAYER_1
 10
159.7344
 20
113.8578
  0
SEQEND
  0
POLYLINE
  8
LAYER_1
 40
0.1058
 41
0.1058
 66
1
 10
0
 20
0
 30
0
  0
VERTEX
  8
LAYER_1
 10
216.7751
 20
108.215
  0
VERTEX
  8
LAYER_1
 10
216.7751
 20
113.8578
  0
SEQEND
  0
POLYLINE
  8
LAYER_1
 40
0.1058
 41
0.1058
 66
1
 10
0
 20
0
 30
0
  0
VERTEX
  8
LAYER_1
 10
161.7414
 20
113.8318
  0
VERTEX
  8
LAYER_1
 10
185.0163
 20
113.8318
  0
SEQEND
  0
POLYLINE
  8
LAYER_1
 40
0.1058
 41
0.1058
 66
1
 10
0
 20
0
 30
0
  0
VERTEX
  8
LAYER_1
 10
214.7682
 20
113.8318
  0
VERTEX
  8
LAYER_1
 10
191.4802
 20
113.8318
  0
SEQEND
  0
POLYLINE
  8
LAYER_1
 40
0.05
 41
0.05
 66
1
 10
0
 20
0
 30
0
  0
VERTEX
  8
LAYER_1
 10
161.7413
 20
114.1576
  0
VERTEX
  8
LAYER_1
 10
161.7413
 20
113.4929
  0
VERTEX
  8
LAYER_1
 10
159.7344
 20
113.8318
  0
SEQEND
  0
POLYLINE
  8
LAYER_1
 40
0.05
 41
0.05
 66
1
 10
0
 20
0
 30
0
  0
VERTEX
  8
LAYER_1
 10
214.7682
 20
114.1576
  0
VERTEX
  8
LAYER_1
 10
214.7682
 20
113.4929
  0
VERTEX
  8
LAYER_1
 10
216.7751
 20
113.8318
  0
SEQEND
  0
POLYLINE
  8
LAYER_1
 40
0.1058
 41
0.1058
 66
1
 10
0
 20
0
 30
0
  0
VERTEX
  8
LAYER_1
 10
158.0794
 20
108.2671
  0
VERTEX
  8
LAYER_1
 10
158.0794
 20
117.2201
  0
SEQEND
  0
POLYLINE
  8
LAYER_1
 40
0.1058
 41
0.1058
 66
1
 10
0
 20
0
 30
0
  0
VERTEX
  8
LAYER_1
 10
218.4301
 20
108.2671
  0
VERTEX
  8
LAYER_1
 10
218.4301
 20
117.2201
  0
SEQEND
  0
POLYLINE
  8
LAYER_1
 40
0.1058
 41
0.1058
 66
1
 10
0
 20
0
 30
0
  0
VERTEX
  8
LAYER_1
 10
160.0863
 20
117.181
  0
VERTEX
  8
LAYER_1
 10
185.4203
 20
117.181
  0
SEQEND
  0
POLYLINE
  8
LAYER_1
 40
0.1058
 41
0.1058
 66
1
 10
0
 20
0
 30
0
  0
VERTEX
  8
LAYER_1
 10
216.4232
 20
117.181
  0
VERTEX
  8
LAYER_1
 10
191.0892
 20
117.181
  0
SEQEND
  0
POLYLINE
  8
LAYER_1
 40
0.05
 41
0.05
 66
1
 10
0
 20
0
 30
0
  0
VERTEX
  8
LAYER_1
 10
160.0863
 20
117.5198
  0
VERTEX
  8
LAYER_1
 10
160.0863
 20
116.8552
  0
VERTEX
  8
LAYER_1
 10
158.0794
 20
117.181
  0
SEQEND
  0
POLYLINE
  8
LAYER_1
 40
0.05
 41
0.05
 66
1
 10
0
 20
0
 30
0
  0
VERTEX
  8
LAYER_1
 10
216.4232
 20
117.5198
  0
VERTEX
  8
LAYER_1
 10
216.4232
 20
116.8552
  0
VERTEX
  8
LAYER_1
 10
218.4301
 20
117.181
  0
SEQEND
  0
POLYLINE
  8
LAYER_1
 40
0.1058
 41
0.1058
 66
1
 10
0
 20
0
 30
0
  0
VERTEX
  8
LAYER_1
 10
60.2098
 20
79.5188
  0
VERTEX
  8
LAYER_1
 10
60.2098
 20
75.4267
  0
SEQEND
  0
POLYLINE
  8
LAYER_1
 40
0.1058
 41
0.1058
 66
1
 10
0
 20
0
 30
0
  0
VERTEX
  8
LAYER_1
 10
97.1682
 20
79.5188
  0
VERTEX
  8
LAYER_1
 10
97.1682
 20
75.4267
  0
SEQEND
  0
POLYLINE
  8
LAYER_1
 40
0.1058
 41
0.1058
 66
1
 10
0
 20
0
 30
0
  0
VERTEX
  8
LAYER_1
 10
62.2167
 20
75.4658
  0
VERTEX
  8
LAYER_1
 10
75.8611
 20
75.4658
  0
SEQEND
  0
POLYLINE
  8
LAYER_1
 40
0.1058
 41
0.1058
 66
1
 10
0
 20
0
 30
0
  0
VERTEX
  8
LAYER_1
 10
95.1613
 20
75.4658
  0
VERTEX
  8
LAYER_1
 10
81.5169
 20
75.4658
  0
SEQEND
  0
POLYLINE
  8
LAYER_1
 40
0.05
 41
0.05
 66
1
 10
0
 20
0
 30
0
  0
VERTEX
  8
LAYER_1
 10
62.2167
 20
75.8047
  0
VERTEX
  8
LAYER_1
 10
62.2167
 20
75.127
  0
VERTEX
  8
LAYER_1
 10
60.2098
 20
75.4658
  0
SEQEND
  0
POLYLINE
  8
LAYER_1
 40
0.05
 41
0.05
 66
1
 10
0
 20
0
 30
0
  0
VERTEX
  8
LAYER_1
 10
95.1613
 20
75.8047
  0
VERTEX
  8
LAYER_1
 10
95.1613
 20
75.127
  0
VERTEX
  8
LAYER_1
 10
97.1682
 20
75.4658
  0
SEQEND
  0
POLYLINE
  8
LAYER_1
 40
0.1058
 41
0.1058
 66
1
 10
0
 20
0
 30
0
  0
VERTEX
  8
LAYER_1
 10
188.2743
 20
84.4188
  0
VERTEX
  8
LAYER_1
 10
188.2222
 20
84.4188
  0
SEQEND
  0
POLYLINE
  8
LAYER_1
 40
0.1058
 41
0.1058
 66
1
 10
0
 20
0
 30
0
  0
VERTEX
  8
LAYER_1
 10
188.2743
 20
108.5017
  0
VERTEX
  8
LAYER_1
 10
188.2222
 20
108.5017
  0
SEQEND
  0
POLYLINE
  8
LAYER_1
 40
0.1058
 41
0.1058
 66
1
 10
0
 20
0
 30
0
  0
VERTEX
  8
LAYER_1
 10
188.2482
 20
86.4257
  0
VERTEX
  8
LAYER_1
 10
188.2482
 20
95.2352
  0
SEQEND
  0
POLYLINE
  8
LAYER_1
 40
0.1058
 41
0.1058
 66
1
 10
0
 20
0
 30
0
  0
VERTEX
  8
LAYER_1
 10
188.2482
 20
106.4948
  0
VERTEX
  8
LAYER_1
 10
188.2482
 20
98.5096
  0
SEQEND
  0
POLYLINE
  8
LAYER_1
 40
0.05
 41
0.05
 66
1
 10
0
 20
0
 30
0
  0
VERTEX
  8
LAYER_1
 10
187.9224
 20
86.4257
  0
VERTEX
  8
LAYER_1
 10
188.5871
 20
86.4257
  0
VERTEX
  8
LAYER_1
 10
188.2482
 20
84.4188
  0
SEQEND
  0
POLYLINE
  8
LAYER_1
 40
0.05
 41
0.05
 66
1
 10
0
 20
0
 30
0
  0
VERTEX
  8
LAYER_1
 10
187.9224
 20
106.4948
  0
VERTEX
  8
LAYER_1
 10
188.5871
 20
106.4948
  0
VERTEX
  8
LAYER_1
 10
188.2482
 20
108.5017
  0
SEQEND
  0
POLYLINE
  8
LAYER_1
 40
0.1764
 41
0.1764
 66
1
 10
0
 20
0
 30
0
  0
VERTEX
  8
LAYER_1
 10
217.0748
 20
108.5017
  0
VERTEX
  8
LAYER_1
 10
218.1304
 20
108.5017
  0
SEQEND
  0
POLYLINE
  8
LAYER_1
 40
0.1764
 41
0.1764
 66
1
 10
0
 20
0
 30
0
  0
VERTEX
  8
LAYER_1
 10
158.3791
 20
108.5017
  0
VERTEX
  8
LAYER_1
 10
159.4347
 20
108.5017
  0
SEQEND
  0
POLYLINE
  8
LAYER_1
 40
0.1058
 41
0.1058
 66
1
 10
0
 20
0
 30
0
  0
VERTEX
  8
LAYER_1
 10
156.294
 20
95.3135
  0
VERTEX
  8
LAYER_1
 10
156.294
 20
72.3251
  0
SEQEND
  0
POLYLINE
  8
LAYER_1
 40
0.1058
 41
0.1058
 66
1
 10
0
 20
0
 30
0
  0
VERTEX
  8
LAYER_1
 10
220.294
 20
94.8834
  0
VERTEX
  8
LAYER_1
 10
220.294
 20
72.3251
  0
SEQEND
  0
POLYLINE
  8
LAYER_1
 40
0.1058
 41
0.1058
 66
1
 10
0
 20
0
 30
0
  0
VERTEX
  8
LAYER_1
 10
158.3009
 20
72.3642
  0
VERTEX
  8
LAYER_1
 10
185.2639
 20
72.3642
  0
SEQEND
  0
POLYLINE
  8
LAYER_1
 40
0.1058
 41
0.1058
 66
1
 10
0
 20
0
 30
0
  0
VERTEX
  8
LAYER_1
 10
218.2868
 20
72.3642
  0
VERTEX
  8
LAYER_1
 10
191.3238
 20
72.3642
  0
SEQEND
  0
POLYLINE
  8
LAYER_1
 40
0.05
 41
0.05
 66
1
 10
0
 20
0
 30
0
  0
VERTEX
  8
LAYER_1
 10
158.3009
 20
72.7031
  0
VERTEX
  8
LAYER_1
 10
158.3009
 20
72.0254
  0
VERTEX
  8
LAYER_1
 10
156.294
 20
72.3642
  0
SEQEND
  0
POLYLINE
  8
LAYER_1
 40
0.05
 41
0.05
 66
1
 10
0
 20
0
 30
0
  0
VERTEX
  8
LAYER_1
 10
218.2868
 20
72.7031
  0
VERTEX
  8
LAYER_1
 10
218.2868
 20
72.0254
  0
VERTEX
  8
LAYER_1
 10
220.2937
 20
72.3642
  0
SEQEND
  0
POLYLINE
  8
LAYER_1
 40
0.1058
 41
0.1058
 66
1
 10
0
 20
0
 30
0
  0
VERTEX
  8
LAYER_1
 10
78.702
 20
79.5318
  0
VERTEX
  8
LAYER_1
 10
116.1687
 20
79.5318
  0
SEQEND
  0
POLYLINE
  8
LAYER_1
 40
0.1058
 41
0.1058
 66
1
 10
0
 20
0
 30
0
  0
VERTEX
  8
LAYER_1
 10
108.5711
 20
108.5017
  0
VERTEX
  8
LAYER_1
 10
116.1687
 20
108.5017
  0
SEQEND
  0
POLYLINE
  8
LAYER_1
 40
0.1058
 41
0.1058
 66
1
 10
0
 20
0
 30
0
  0
VERTEX
  8
LAYER_1
 10
116.1297
 20
81.5387
  0
VERTEX
  8
LAYER_1
 10
116.1297
 20
91.6731
  0
SEQEND
  0
POLYLINE
  8
LAYER_1
 40
0.1058
 41
0.1058
 66
1
 10
0
 20
0
 30
0
  0
VERTEX
  8
LAYER_1
 10
116.1297
 20
106.4948
  0
VERTEX
  8
LAYER_1
 10
116.1297
 20
95.2483
  0
SEQEND
  0
POLYLINE
  8
LAYER_1
 40
0.05
 41
0.05
 66
1
 10
0
 20
0
 30
0
  0
VERTEX
  8
LAYER_1
 10
115.7908
 20
81.5387
  0
VERTEX
  8
LAYER_1
 10
116.4685
 20
81.5387
  0
VERTEX
  8
LAYER_1
 10
116.1297
 20
79.5318
  0
SEQEND
  0
POLYLINE
  8
LAYER_1
 40
0.05
 41
0.05
 66
1
 10
0
 20
0
 30
0
  0
VERTEX
  8
LAYER_1
 10
115.7908
 20
106.4948
  0
VERTEX
  8
LAYER_1
 10
116.4685
 20
106.4948
  0
VERTEX
  8
LAYER_1
 10
116.1297
 20
108.5017
  0
SEQEND
  0
POLYLINE
  8
LAYER_1
 40
0.1058
 41
0.1058
 66
1
 10
0
 20
0
 30
0
  0
VERTEX
  8
LAYER_1
 10
188.2482
 20
79.5318
  0
VERTEX
  8
LAYER_1
 10
225.715
 20
79.5318
  0
SEQEND
  0
POLYLINE
  8
LAYER_1
 40
0.1058
 41
0.1058
 66
1
 10
0
 20
0
 30
0
  0
VERTEX
  8
LAYER_1
 10
218.1304
 20
108.5017
  0
VERTEX
  8
LAYER_1
 10
225.715
 20
108.5017
  0
SEQEND
  0
POLYLINE
  8
LAYER_1
 40
0.1058
 41
0.1058
 66
1
 10
0
 20
0
 30
0
  0
VERTEX
  8
LAYER_1
 10
225.6889
 20
81.5387
  0
VERTEX
  8
LAYER_1
 10
225.6889
 20
92.7983
  0
SEQEND
  0
POLYLINE
  8
LAYER_1
 40
0.1058
 41
0.1058
 66
1
 10
0
 20
0
 30
0
  0
VERTEX
  8
LAYER_1
 10
225.6889
 20
106.4948
  0
VERTEX
  8
LAYER_1
 10
225.6889
 20
96.8353
  0
SEQEND
  0
POLYLINE
  8
LAYER_1
 40
0.05
 41
0.05
 66
1
 10
0
 20
0
 30
0
  0
VERTEX
  8
LAYER_1
 10
225.3501
 20
81.5387
  0
VERTEX
  8
LAYER_1
 10
226.0147
 20
81.5387
  0
VERTEX
  8
LAYER_1
 10
225.6889
 20
79.5318
  0
SEQEND
  0
POLYLINE
  8
LAYER_1
 40
0.05
 41
0.05
 66
1
 10
0
 20
0
 30
0
  0
VERTEX
  8
LAYER_1
 10
225.3501
 20
106.4948
  0
VERTEX
  8
LAYER_1
 10
226.0147
 20
106.4948
  0
VERTEX
  8
LAYER_1
 10
225.6889
 20
108.5017
  0
SEQEND
  0
POLYLINE
  8
LAYER_1
 40
0.1058
 41
0.1058
 66
1
 10
0
 20
0
 30
0
  0
VERTEX
  8
LAYER_1
 10
48.4941
 20
108.4757
  0
VERTEX
  8
LAYER_1
 10
48.4941
 20
113.936
  0
SEQEND
  0
POLYLINE
  8
LAYER_1
 40
0.1058
 41
0.1058
 66
1
 10
0
 20
0
 30
0
  0
VERTEX
  8
LAYER_1
 10
108.8709
 20
108.215
  0
VERTEX
  8
LAYER_1
 10
108.8709
 20
113.936
  0
SEQEND
  0
POLYLINE
  8
LAYER_1
 40
0.1058
 41
0.1058
 66
1
 10
0
 20
0
 30
0
  0
VERTEX
  8
LAYER_1
 10
50.501
 20
113.8969
  0
VERTEX
  8
LAYER_1
 10
75.8611
 20
113.8969
  0
SEQEND
  0
POLYLINE
  8
LAYER_1
 40
0.1058
 41
0.1058
 66
1
 10
0
 20
0
 30
0
  0
VERTEX
  8
LAYER_1
 10
106.864
 20
113.8969
  0
VERTEX
  8
LAYER_1
 10
81.5169
 20
113.8969
  0
SEQEND
  0
POLYLINE
  8
LAYER_1
 40
0.05
 41
0.05
 66
1
 10
0
 20
0
 30
0
  0
VERTEX
  8
LAYER_1
 10
50.501
 20
114.2358
  0
VERTEX
  8
LAYER_1
 10
50.501
 20
113.5581
  0
VERTEX
  8
LAYER_1
 10
48.4941
 20
113.8969
  0
SEQEND
  0
POLYLINE
  8
LAYER_1
 40
0.05
 41
0.05
 66
1
 10
0
 20
0
 30
0
  0
VERTEX
  8
LAYER_1
 10
106.864
 20
114.2358
  0
VERTEX
  8
LAYER_1
 10
106.864
 20
113.5581
  0
VERTEX
  8
LAYER_1
 10
108.8709
 20
113.8969
  0
SEQEND
  0
POLYLINE
  8
LAYER_1
 40
0.1058
 41
0.1058
 66
1
 10
0
 20
0
 30
0
  0
VERTEX
  8
LAYER_1
 10
97.1682
 20
170.4945
  0
VERTEX
  8
LAYER_1
 10
97.1552
 20
170.69
  0
SEQEND
  0
POLYLINE
  8
LAYER_1
 40
0.1058
 41
0.1058
 66
1
 10
0
 20
0
 30
0
  0
VERTEX
  8
LAYER_1
 10
97.1552
 20
170.7942
  0
VERTEX
  8
LAYER_1
 10
97.1552
 20
170.9897
  0
SEQEND
  0
POLYLINE
  8
LAYER_1
 40
0.1058
 41
0.1058
 66
1
 10
0
 20
0
 30
0
  0
VERTEX
  8
LAYER_1
 10
97.1552
 20
171.094
  0
VERTEX
  8
LAYER_1
 10
97.1552
 20
171.107
  0
SEQEND
  0
POLYLINE
  8
LAYER_1
 40
0.1058
 41
0.1058
 66
1
 10
0
 20
0
 30
0
  0
VERTEX
  8
LAYER_1
 10
97.1422
 20
171.1852
  0
VERTEX
  8
LAYER_1
 10
97.1422
 20
171.3937
  0
SEQEND
  0
POLYLINE
  8
LAYER_1
 40
0.1058
 41
0.1058
 66
1
 10
0
 20
0
 30
0
  0
VERTEX
  8
LAYER_1
 10
97.1422
 20
171.498
  0
VERTEX
  8
LAYER_1
 10
97.1161
 20
171.6934
  0
SEQEND
  0
POLYLINE
  8
LAYER_1
 40
0.1058
 41
0.1058
 66
1
 10
0
 20
0
 30
0
  0
VERTEX
  8
LAYER_1
 10
97.1161
 20
171.7977
  0
VERTEX
  8
LAYER_1
 10
97.1161
 20
171.8107
  0
SEQEND
  0
POLYLINE
  8
LAYER_1
 40
0.1058
 41
0.1058
 66
1
 10
0
 20
0
 30
0
  0
VERTEX
  8
LAYER_1
 10
97.1031
 20
171.8889
  0
VERTEX
  8
LAYER_1
 10
97.0901
 20
172.0974
  0
SEQEND
  0
POLYLINE
  8
LAYER_1
 40
0.1058
 41
0.1058
 66
1
 10
0
 20
0
 30
0
  0
VERTEX
  8
LAYER_1
 10
97.077
 20
172.1887
  0
VERTEX
  8
LAYER_1
 10
97.064
 20
172.3972
  0
SEQEND
  0
POLYLINE
  8
LAYER_1
 40
0.1058
 41
0.1058
 66
1
 10
0
 20
0
 30
0
  0
VERTEX
  8
LAYER_1
 10
97.051
 20
172.4884
  0
VERTEX
  8
LAYER_1
 10
97.051
 20
172.5014
  0
SEQEND
  0
POLYLINE
  8
LAYER_1
 40
0.1058
 41
0.1058
 66
1
 10
0
 20
0
 30
0
  0
VERTEX
  8
LAYER_1
 10
97.0379
 20
172.5926
  0
VERTEX
  8
LAYER_1
 10
97.0119
 20
172.7881
  0
SEQEND
  0
POLYLINE
  8
LAYER_1
 40
0.1058
 41
0.1058
 66
1
 10
0
 20
0
 30
0
  0
VERTEX
  8
LAYER_1
 10
96.9988
 20
172.8924
  0
VERTEX
  8
LAYER_1
 10
96.9728
 20
173.0879
  0
SEQEND
  0
POLYLINE
  8
LAYER_1
 40
0.1058
 41
0.1058
 66
1
 10
0
 20
0
 30
0
  0
VERTEX
  8
LAYER_1
 10
96.9597
 20
173.1921
  0
VERTEX
  8
LAYER_1
 10
96.9597
 20
173.2051
  0
SEQEND
  0
POLYLINE
  8
LAYER_1
 40
0.1058
 41
0.1058
 66
1
 10
0
 20
0
 30
0
  0
VERTEX
  8
LAYER_1
 10
96.9467
 20
173.2964
  0
VERTEX
  8
LAYER_1
 10
96.9337
 20
173.4006
  0
VERTEX
  8
LAYER_1
 10
96.9206
 20
173.4918
  0
SEQEND
  0
POLYLINE
  8
LAYER_1
 40
0.1058
 41
0.1058
 66
1
 10
0
 20
0
 30
0
  0
VERTEX
  8
LAYER_1
 10
96.8946
 20
173.5831
  0
VERTEX
  8
LAYER_1
 10
96.8555
 20
173.7916
  0
SEQEND
  0
POLYLINE
  8
LAYER_1
 40
0.1058
 41
0.1058
 66
1
 10
0
 20
0
 30
0
  0
VERTEX
  8
LAYER_1
 10
96.8425
 20
173.8828
  0
VERTEX
  8
LAYER_1
 10
96.8425
 20
173.8958
  0
SEQEND
  0
POLYLINE
  8
LAYER_1
 40
0.1058
 41
0.1058
 66
1
 10
0
 20
0
 30
0
  0
VERTEX
  8
LAYER_1
 10
96.8294
 20
173.987
  0
VERTEX
  8
LAYER_1
 10
96.7903
 20
174.1825
  0
SEQEND
  0
POLYLINE
  8
LAYER_1
 40
0.1058
 41
0.1058
 66
1
 10
0
 20
0
 30
0
  0
VERTEX
  8
LAYER_1
 10
96.7643
 20
174.2868
  0
VERTEX
  8
LAYER_1
 10
96.7512
 20
174.365
  0
VERTEX
  8
LAYER_1
 10
96.7252
 20
174.4823
  0
SEQEND
  0
POLYLINE
  8
LAYER_1
 40
0.1058
 41
0.1058
 66
1
 10
0
 20
0
 30
0
  0
VERTEX
  8
LAYER_1
 10
96.6991
 20
174.5735
  0
VERTEX
  8
LAYER_1
 10
96.6991
 20
174.5865
  0
SEQEND
  0
POLYLINE
  8
LAYER_1
 40
0.1058
 41
0.1058
 66
1
 10
0
 20
0
 30
0
  0
VERTEX
  8
LAYER_1
 10
96.6731
 20
174.6777
  0
VERTEX
  8
LAYER_1
 10
96.634
 20
174.8732
  0
SEQEND
  0
POLYLINE
  8
LAYER_1
 40
0.1058
 41
0.1058
 66
1
 10
0
 20
0
 30
0
  0
VERTEX
  8
LAYER_1
 10
96.6079
 20
174.9644
  0
VERTEX
  8
LAYER_1
 10
96.5558
 20
175.1599
  0
SEQEND
  0
POLYLINE
  8
LAYER_1
 40
0.1058
 41
0.1058
 66
1
 10
0
 20
0
 30
0
  0
VERTEX
  8
LAYER_1
 10
96.5427
 20
175.2642
  0
VERTEX
  8
LAYER_1
 10
96.5427
 20
175.2772
  0
SEQEND
  0
POLYLINE
  8
LAYER_1
 40
0.1058
 41
0.1058
 66
1
 10
0
 20
0
 30
0
  0
VERTEX
  8
LAYER_1
 10
96.5167
 20
175.3554
  0
VERTEX
  8
LAYER_1
 10
96.4515
 20
175.5509
  0
SEQEND
  0
POLYLINE
  8
LAYER_1
 40
0.1058
 41
0.1058
 66
1
 10
0
 20
0
 30
0
  0
VERTEX
  8
LAYER_1
 10
96.4255
 20
175.6421
  0
VERTEX
  8
LAYER_1
 10
96.3733
 20
175.8376
  0
SEQEND
  0
POLYLINE
  8
LAYER_1
 40
0.1058
 41
0.1058
 66
1
 10
0
 20
0
 30
0
  0
VERTEX
  8
LAYER_1
 10
96.3342
 20
175.9288
  0
VERTEX
  8
LAYER_1
 10
96.3342
 20
175.9418
  0
SEQEND
  0
POLYLINE
  8
LAYER_1
 40
0.1058
 41
0.1058
 66
1
 10
0
 20
0
 30
0
  0
VERTEX
  8
LAYER_1
 10
96.3082
 20
176.0331
  0
VERTEX
  8
LAYER_1
 10
96.256
 20
176.2285
  0
SEQEND
  0
POLYLINE
  8
LAYER_1
 40
0.1058
 41
0.1058
 66
1
 10
0
 20
0
 30
0
  0
VERTEX
  8
LAYER_1
 10
96.217
 20
176.3198
  0
VERTEX
  8
LAYER_1
 10
96.1518
 20
176.5022
  0
SEQEND
  0
POLYLINE
  8
LAYER_1
 40
0.1058
 41
0.1058
 66
1
 10
0
 20
0
 30
0
  0
VERTEX
  8
LAYER_1
 10
96.1127
 20
176.6065
  0
VERTEX
  8
LAYER_1
 10
96.1127
 20
176.6195
  0
SEQEND
  0
POLYLINE
  8
LAYER_1
 40
0.1058
 41
0.1058
 66
1
 10
0
 20
0
 30
0
  0
VERTEX
  8
LAYER_1
 10
96.0866
 20
176.6977
  0
VERTEX
  8
LAYER_1
 10
96.0215
 20
176.8801
  0
SEQEND
  0
POLYLINE
  8
LAYER_1
 40
0.1058
 41
0.1058
 66
1
 10
0
 20
0
 30
0
  0
VERTEX
  8
LAYER_1
 10
95.9824
 20
176.9844
  0
VERTEX
  8
LAYER_1
 10
95.9172
 20
177.1668
  0
SEQEND
  0
POLYLINE
  8
LAYER_1
 40
0.1058
 41
0.1058
 66
1
 10
0
 20
0
 30
0
  0
VERTEX
  8
LAYER_1
 10
95.8781
 20
177.2581
  0
VERTEX
  8
LAYER_1
 10
95.8781
 20
177.2711
  0
SEQEND
  0
POLYLINE
  8
LAYER_1
 40
0.1058
 41
0.1058
 66
1
 10
0
 20
0
 30
0
  0
VERTEX
  8
LAYER_1
 10
95.839
 20
177.3493
  0
VERTEX
  8
LAYER_1
 10
95.7609
 20
177.5448
  0
SEQEND
  0
POLYLINE
  8
LAYER_1
 40
0.1058
 41
0.1058
 66
1
 10
0
 20
0
 30
0
  0
VERTEX
  8
LAYER_1
 10
95.7218
 20
177.636
  0
VERTEX
  8
LAYER_1
 10
95.6436
 20
177.8184
  0
SEQEND
  0
POLYLINE
  8
LAYER_1
 40
0.1058
 41
0.1058
 66
1
 10
0
 20
0
 30
0
  0
VERTEX
  8
LAYER_1
 10
95.6045
 20
177.9097
  0
VERTEX
  8
LAYER_1
 10
95.6045
 20
177.9227
  0
SEQEND
  0
POLYLINE
  8
LAYER_1
 40
0.1058
 41
0.1058
 66
1
 10
0
 20
0
 30
0
  0
VERTEX
  8
LAYER_1
 10
95.5654
 20
178.0009
  0
VERTEX
  8
LAYER_1
 10
95.5393
 20
178.066
  0
VERTEX
  8
LAYER_1
 10
95.4872
 20
178.1833
  0
SEQEND
  0
POLYLINE
  8
LAYER_1
 40
0.1058
 41
0.1058
 66
1
 10
0
 20
0
 30
0
  0
VERTEX
  8
LAYER_1
 10
95.4351
 20
178.2745
  0
VERTEX
  8
LAYER_1
 10
95.3569
 20
178.457
  0
SEQEND
  0
POLYLINE
  8
LAYER_1
 40
0.1058
 41
0.1058
 66
1
 10
0
 20
0
 30
0
  0
VERTEX
  8
LAYER_1
 10
95.3048
 20
178.5482
  0
VERTEX
  8
LAYER_1
 10
95.3048
 20
178.5612
  0
SEQEND
  0
POLYLINE
  8
LAYER_1
 40
0.1058
 41
0.1058
 66
1
 10
0
 20
0
 30
0
  0
VERTEX
  8
LAYER_1
 10
95.2657
 20
178.6394
  0
VERTEX
  8
LAYER_1
 10
95.1744
 20
178.8219
  0
SEQEND
  0
POLYLINE
  8
LAYER_1
 40
0.1058
 41
0.1058
 66
1
 10
0
 20
0
 30
0
  0
VERTEX
  8
LAYER_1
 10
95.1353
 20
178.9131
  0
VERTEX
  8
LAYER_1
 10
95.1223
 20
178.9392
  0
VERTEX
  8
LAYER_1
 10
95.0311
 20
179.0825
  0
SEQEND
  0
POLYLINE
  8
LAYER_1
 40
0.1058
 41
0.1058
 66
1
 10
0
 20
0
 30
0
  0
VERTEX
  8
LAYER_1
 10
94.992
 20
179.1737
  0
VERTEX
  8
LAYER_1
 10
94.992
 20
179.1868
  0
SEQEND
  0
POLYLINE
  8
LAYER_1
 40
0.1058
 41
0.1058
 66
1
 10
0
 20
0
 30
0
  0
VERTEX
  8
LAYER_1
 10
94.9399
 20
179.265
  0
VERTEX
  8
LAYER_1
 10
94.8487
 20
179.4474
  0
SEQEND
  0
POLYLINE
  8
LAYER_1
 40
0.1058
 41
0.1058
 66
1
 10
0
 20
0
 30
0
  0
VERTEX
  8
LAYER_1
 10
94.7965
 20
179.5256
  0
VERTEX
  8
LAYER_1
 10
94.7053
 20
179.7081
  0
SEQEND
  0
POLYLINE
  8
LAYER_1
 40
0.1058
 41
0.1058
 66
1
 10
0
 20
0
 30
0
  0
VERTEX
  8
LAYER_1
 10
94.6532
 20
179.7993
  0
VERTEX
  8
LAYER_1
 10
94.6532
 20
179.8123
  0
SEQEND
  0
POLYLINE
  8
LAYER_1
 40
0.1058
 41
0.1058
 66
1
 10
0
 20
0
 30
0
  0
VERTEX
  8
LAYER_1
 10
94.6011
 20
179.8775
  0
VERTEX
  8
LAYER_1
 10
94.4968
 20
180.0469
  0
SEQEND
  0
POLYLINE
  8
LAYER_1
 40
0.1058
 41
0.1058
 66
1
 10
0
 20
0
 30
0
  0
VERTEX
  8
LAYER_1
 10
94.4447
 20
180.1381
  0
VERTEX
  8
LAYER_1
 10
94.3274
 20
180.3075
  0
SEQEND
  0
POLYLINE
  8
LAYER_1
 40
0.1058
 41
0.1058
 66
1
 10
0
 20
0
 30
0
  0
VERTEX
  8
LAYER_1
 10
94.2753
 20
180.3988
  0
VERTEX
  8
LAYER_1
 10
94.2753
 20
180.4118
  0
SEQEND
  0
POLYLINE
  8
LAYER_1
 40
0.1058
 41
0.1058
 66
1
 10
0
 20
0
 30
0
  0
VERTEX
  8
LAYER_1
 10
94.2231
 20
180.4769
  0
VERTEX
  8
LAYER_1
 10
94.1319
 20
180.6333
  0
VERTEX
  8
LAYER_1
 10
94.1189
 20
180.6464
  0
SEQEND
  0
POLYLINE
  8
LAYER_1
 40
0.1058
 41
0.1058
 66
1
 10
0
 20
0
 30
0
  0
VERTEX
  8
LAYER_1
 10
94.0668
 20
180.7245
  0
VERTEX
  8
LAYER_1
 10
93.9495
 20
180.894
  0
SEQEND
  0
POLYLINE
  8
LAYER_1
 40
0.1058
 41
0.1058
 66
1
 10
0
 20
0
 30
0
  0
VERTEX
  8
LAYER_1
 10
93.8973
 20
180.9722
  0
VERTEX
  8
LAYER_1
 10
93.8973
 20
180.9852
  0
SEQEND
  0
POLYLINE
  8
LAYER_1
 40
0.1058
 41
0.1058
 66
1
 10
0
 20
0
 30
0
  0
VERTEX
  8
LAYER_1
 10
93.8322
 20
181.0634
  0
VERTEX
  8
LAYER_1
 10
93.7149
 20
181.2198
  0
SEQEND
  0
POLYLINE
  8
LAYER_1
 40
0.1058
 41
0.1058
 66
1
 10
0
 20
0
 30
0
  0
VERTEX
  8
LAYER_1
 10
93.6628
 20
181.311
  0
VERTEX
  8
LAYER_1
 10
93.5846
 20
181.4283
  0
VERTEX
  8
LAYER_1
 10
93.5455
 20
181.4674
  0
SEQEND
  0
POLYLINE
  8
LAYER_1
 40
0.1058
 41
0.1058
 66
1
 10
0
 20
0
 30
0
  0
VERTEX
  8
LAYER_1
 10
93.4803
 20
181.5456
  0
VERTEX
  8
LAYER_1
 10
93.4803
 20
181.5586
  0
SEQEND
  0
POLYLINE
  8
LAYER_1
 40
0.1058
 41
0.1058
 66
1
 10
0
 20
0
 30
0
  0
VERTEX
  8
LAYER_1
 10
93.4152
 20
181.6368
  0
VERTEX
  8
LAYER_1
 10
93.2979
 20
181.7932
  0
SEQEND
  0
POLYLINE
  8
LAYER_1
 40
0.1058
 41
0.1058
 66
1
 10
0
 20
0
 30
0
  0
VERTEX
  8
LAYER_1
 10
93.2327
 20
181.8714
  0
VERTEX
  8
LAYER_1
 10
93.1154
 20
182.0277
  0
SEQEND
  0
POLYLINE
  8
LAYER_1
 40
0.1058
 41
0.1058
 66
1
 10
0
 20
0
 30
0
  0
VERTEX
  8
LAYER_1
 10
93.0502
 20
182.1059
  0
VERTEX
  8
LAYER_1
 10
93.0502
 20
182.119
  0
SEQEND
  0
POLYLINE
  8
LAYER_1
 40
0.1058
 41
0.1058
 66
1
 10
0
 20
0
 30
0
  0
VERTEX
  8
LAYER_1
 10
92.9851
 20
182.1841
  0
VERTEX
  8
LAYER_1
 10
92.9851
 20
182.1972
  0
VERTEX
  8
LAYER_1
 10
92.8548
 20
182.3405
  0
SEQEND
  0
POLYLINE
  8
LAYER_1
 40
0.1058
 41
0.1058
 66
1
 10
0
 20
0
 30
0
  0
VERTEX
  8
LAYER_1
 10
92.7896
 20
182.4187
  0
VERTEX
  8
LAYER_1
 10
92.6593
 20
182.5621
  0
SEQEND
  0
POLYLINE
  8
LAYER_1
 40
0.1058
 41
0.1058
 66
1
 10
0
 20
0
 30
0
  0
VERTEX
  8
LAYER_1
 10
92.5941
 20
182.6403
  0
VERTEX
  8
LAYER_1
 10
92.5941
 20
182.6533
  0
SEQEND
  0
POLYLINE
  8
LAYER_1
 40
0.1058
 41
0.1058
 66
1
 10
0
 20
0
 30
0
  0
VERTEX
  8
LAYER_1
 10
92.529
 20
182.7184
  0
VERTEX
  8
LAYER_1
 10
92.3987
 20
182.8748
  0
SEQEND
  0
POLYLINE
  8
LAYER_1
 40
0.1058
 41
0.1058
 66
1
 10
0
 20
0
 30
0
  0
VERTEX
  8
LAYER_1
 10
92.3335
 20
182.953
  0
VERTEX
  8
LAYER_1
 10
92.1901
 20
183.0964
  0
SEQEND
  0
POLYLINE
  8
LAYER_1
 40
0.1058
 41
0.1058
 66
1
 10
0
 20
0
 30
0
  0
VERTEX
  8
LAYER_1
 10
92.125
 20
183.1615
  0
VERTEX
  8
LAYER_1
 10
92.125
 20
183.1746
  0
SEQEND
  0
POLYLINE
  8
LAYER_1
 40
0.1058
 41
0.1058
 66
1
 10
0
 20
0
 30
0
  0
VERTEX
  8
LAYER_1
 10
92.0598
 20
183.2397
  0
VERTEX
  8
LAYER_1
 10
91.9165
 20
183.3831
  0
SEQEND
  0
POLYLINE
  8
LAYER_1
 40
0.1058
 41
0.1058
 66
1
 10
0
 20
0
 30
0
  0
VERTEX
  8
LAYER_1
 10
91.8513
 20
183.4482
  0
VERTEX
  8
LAYER_1
 10
91.708
 20
183.6046
  0
SEQEND
  0
POLYLINE
  8
LAYER_1
 40
0.1058
 41
0.1058
 66
1
 10
0
 20
0
 30
0
  0
VERTEX
  8
LAYER_1
 10
91.6298
 20
183.6698
  0
VERTEX
  8
LAYER_1
 10
91.6298
 20
183.6828
  0
SEQEND
  0
POLYLINE
  8
LAYER_1
 40
0.1058
 41
0.1058
 66
1
 10
0
 20
0
 30
0
  0
VERTEX
  8
LAYER_1
 10
91.5646
 20
183.7349
  0
VERTEX
  8
LAYER_1
 10
91.4082
 20
183.8783
  0
SEQEND
  0
POLYLINE
  8
LAYER_1
 40
0.1058
 41
0.1058
 66
1
 10
0
 20
0
 30
0
  0
VERTEX
  8
LAYER_1
 10
91.343
 20
183.9435
  0
VERTEX
  8
LAYER_1
 10
91.1997
 20
184.0868
  0
SEQEND
  0
POLYLINE
  8
LAYER_1
 40
0.1058
 41
0.1058
 66
1
 10
0
 20
0
 30
0
  0
VERTEX
  8
LAYER_1
 10
91.1215
 20
184.152
  0
VERTEX
  8
LAYER_1
 10
91.1215
 20
184.165
  0
SEQEND
  0
POLYLINE
  8
LAYER_1
 40
0.1058
 41
0.1058
 66
1
 10
0
 20
0
 30
0
  0
VERTEX
  8
LAYER_1
 10
91.0433
 20
184.2171
  0
VERTEX
  8
LAYER_1
 10
90.9
 20
184.3605
  0
SEQEND
  0
POLYLINE
  8
LAYER_1
 40
0.1058
 41
0.1058
 66
1
 10
0
 20
0
 30
0
  0
VERTEX
  8
LAYER_1
 10
90.8218
 20
184.4256
  0
VERTEX
  8
LAYER_1
 10
90.6654
 20
184.5429
  0
SEQEND
  0
POLYLINE
  8
LAYER_1
 40
0.1058
 41
0.1058
 66
1
 10
0
 20
0
 30
0
  0
VERTEX
  8
LAYER_1
 10
90.5872
 20
184.6081
  0
VERTEX
  8
LAYER_1
 10
90.5872
 20
184.6211
  0
SEQEND
  0
POLYLINE
  8
LAYER_1
 40
0.1058
 41
0.1058
 66
1
 10
0
 20
0
 30
0
  0
VERTEX
  8
LAYER_1
 10
90.509
 20
184.6733
  0
VERTEX
  8
LAYER_1
 10
90.3657
 20
184.8036
  0
SEQEND
  0
POLYLINE
  8
LAYER_1
 40
0.1058
 41
0.1058
 66
1
 10
0
 20
0
 30
0
  0
VERTEX
  8
LAYER_1
 10
90.2875
 20
184.8687
  0
VERTEX
  8
LAYER_1
 10
90.1311
 20
184.9991
  0
SEQEND
  0
POLYLINE
  8
LAYER_1
 40
0.1058
 41
0.1058
 66
1
 10
0
 20
0
 30
0
  0
VERTEX
  8
LAYER_1
 10
90.0398
 20
185.0642
  0
VERTEX
  8
LAYER_1
 10
90.0398
 20
185.0773
  0
SEQEND
  0
POLYLINE
  8
LAYER_1
 40
0.1058
 41
0.1058
 66
1
 10
0
 20
0
 30
0
  0
VERTEX
  8
LAYER_1
 10
89.9617
 20
185.1163
  0
VERTEX
  8
LAYER_1
 10
89.8053
 20
185.2336
  0
SEQEND
  0
POLYLINE
  8
LAYER_1
 40
0.1058
 41
0.1058
 66
1
 10
0
 20
0
 30
0
  0
VERTEX
  8
LAYER_1
 10
89.7271
 20
185.2988
  0
VERTEX
  8
LAYER_1
 10
89.5577
 20
185.4161
  0
SEQEND
  0
POLYLINE
  8
LAYER_1
 40
0.1058
 41
0.1058
 66
1
 10
0
 20
0
 30
0
  0
VERTEX
  8
LAYER_1
 10
89.4795
 20
185.4813
  0
VERTEX
  8
LAYER_1
 10
89.4795
 20
185.4943
  0
SEQEND
  0
POLYLINE
  8
LAYER_1
 40
0.1058
 41
0.1058
 66
1
 10
0
 20
0
 30
0
  0
VERTEX
  8
LAYER_1
 10
89.4013
 20
185.5464
  0
VERTEX
  8
LAYER_1
 10
89.2319
 20
185.6507
  0
SEQEND
  0
POLYLINE
  8
LAYER_1
 40
0.1058
 41
0.1058
 66
1
 10
0
 20
0
 30
0
  0
VERTEX
  8
LAYER_1
 10
89.1537
 20
185.7158
  0
VERTEX
  8
LAYER_1
 10
88.9842
 20
185.8201
  0
SEQEND
  0
POLYLINE
  8
LAYER_1
 40
0.1058
 41
0.1058
 66
1
 10
0
 20
0
 30
0
  0
VERTEX
  8
LAYER_1
 10
88.9061
 20
185.8853
  0
VERTEX
  8
LAYER_1
 10
88.9061
 20
185.8983
  0
SEQEND
  0
POLYLINE
  8
LAYER_1
 40
0.1058
 41
0.1058
 66
1
 10
0
 20
0
 30
0
  0
VERTEX
  8
LAYER_1
 10
88.8148
 20
185.9374
  0
VERTEX
  8
LAYER_1
 10
88.6585
 20
186.0416
  0
SEQEND
  0
POLYLINE
  8
LAYER_1
 40
0.1058
 41
0.1058
 66
1
 10
0
 20
0
 30
0
  0
VERTEX
  8
LAYER_1
 10
88.5672
 20
186.1068
  0
VERTEX
  8
LAYER_1
 10
88.3978
 20
186.211
  0
SEQEND
  0
POLYLINE
  8
LAYER_1
 40
0.1058
 41
0.1058
 66
1
 10
0
 20
0
 30
0
  0
VERTEX
  8
LAYER_1
 10
88.3066
 20
186.2632
  0
VERTEX
  8
LAYER_1
 10
88.3066
 20
186.2762
  0
SEQEND
  0
POLYLINE
  8
LAYER_1
 40
0.1058
 41
0.1058
 66
1
 10
0
 20
0
 30
0
  0
VERTEX
  8
LAYER_1
 10
88.2284
 20
186.3023
  0
VERTEX
  8
LAYER_1
 10
88.0459
 20
186.4065
  0
SEQEND
  0
POLYLINE
  8
LAYER_1
 40
0.1058
 41
0.1058
 66
1
 10
0
 20
0
 30
0
  0
VERTEX
  8
LAYER_1
 10
87.9678
 20
186.4586
  0
VERTEX
  8
LAYER_1
 10
87.7983
 20
186.5629
  0
SEQEND
  0
POLYLINE
  8
LAYER_1
 40
0.1058
 41
0.1058
 66
1
 10
0
 20
0
 30
0
  0
VERTEX
  8
LAYER_1
 10
87.7071
 20
186.615
  0
VERTEX
  8
LAYER_1
 10
87.7071
 20
186.6281
  0
SEQEND
  0
POLYLINE
  8
LAYER_1
 40
0.1058
 41
0.1058
 66
1
 10
0
 20
0
 30
0
  0
VERTEX
  8
LAYER_1
 10
87.6159
 20
186.6671
  0
VERTEX
  8
LAYER_1
 10
87.4334
 20
186.7584
  0
SEQEND
  0
POLYLINE
  8
LAYER_1
 40
0.1058
 41
0.1058
 66
1
 10
0
 20
0
 30
0
  0
VERTEX
  8
LAYER_1
 10
87.3553
 20
186.7975
  0
VERTEX
  8
LAYER_1
 10
87.1728
 20
186.9017
  0
SEQEND
  0
POLYLINE
  8
LAYER_1
 40
0.1058
 41
0.1058
 66
1
 10
0
 20
0
 30
0
  0
VERTEX
  8
LAYER_1
 10
87.0816
 20
186.9408
  0
VERTEX
  8
LAYER_1
 10
87.0816
 20
186.9538
  0
SEQEND
  0
POLYLINE
  8
LAYER_1
 40
0.1058
 41
0.1058
 66
1
 10
0
 20
0
 30
0
  0
VERTEX
  8
LAYER_1
 10
86.9904
 20
186.9929
  0
VERTEX
  8
LAYER_1
 10
86.9252
 20
187.032
  0
VERTEX
  8
LAYER_1
 10
86.8079
 20
187.0842
  0
SEQEND
  0
POLYLINE
  8
LAYER_1
 40
0.1058
 41
0.1058
 66
1
 10
0
 20
0
 30
0
  0
VERTEX
  8
LAYER_1
 10
86.7167
 20
187.1232
  0
VERTEX
  8
LAYER_1
 10
86.5342
 20
187.2145
  0
SEQEND
  0
POLYLINE
  8
LAYER_1
 40
0.1058
 41
0.1058
 66
1
 10
0
 20
0
 30
0
  0
VERTEX
  8
LAYER_1
 10
86.443
 20
187.2536
  0
VERTEX
  8
LAYER_1
 10
86.443
 20
187.2666
  0
SEQEND
  0
POLYLINE
  8
LAYER_1
 40
0.1058
 41
0.1058
 66
1
 10
0
 20
0
 30
0
  0
VERTEX
  8
LAYER_1
 10
86.3518
 20
187.2927
  0
VERTEX
  8
LAYER_1
 10
86.1694
 20
187.3839
  0
SEQEND
  0
POLYLINE
  8
LAYER_1
 40
0.1058
 41
0.1058
 66
1
 10
0
 20
0
 30
0
  0
VERTEX
  8
LAYER_1
 10
86.0781
 20
187.423
  0
VERTEX
  8
LAYER_1
 10
86.039
 20
187.436
  0
VERTEX
  8
LAYER_1
 10
85.8957
 20
187.5012
  0
SEQEND
  0
POLYLINE
  8
LAYER_1
 40
0.1058
 41
0.1058
 66
1
 10
0
 20
0
 30
0
  0
VERTEX
  8
LAYER_1
 10
85.8045
 20
187.5402
  0
VERTEX
  8
LAYER_1
 10
85.8045
 20
187.5533
  0
SEQEND
  0
POLYLINE
  8
LAYER_1
 40
0.1058
 41
0.1058
 66
1
 10
0
 20
0
 30
0
  0
VERTEX
  8
LAYER_1
 10
85.7132
 20
187.5793
  0
VERTEX
  8
LAYER_1
 10
85.5308
 20
187.6445
  0
SEQEND
  0
POLYLINE
  8
LAYER_1
 40
0.1058
 41
0.1058
 66
1
 10
0
 20
0
 30
0
  0
VERTEX
  8
LAYER_1
 10
85.4265
 20
187.6836
  0
VERTEX
  8
LAYER_1
 10
85.2441
 20
187.7618
  0
SEQEND
  0
POLYLINE
  8
LAYER_1
 40
0.1058
 41
0.1058
 66
1
 10
0
 20
0
 30
0
  0
VERTEX
  8
LAYER_1
 10
85.1529
 20
187.8009
  0
VERTEX
  8
LAYER_1
 10
85.1529
 20
187.8139
  0
SEQEND
  0
POLYLINE
  8
LAYER_1
 40
0.1058
 41
0.1058
 66
1
 10
0
 20
0
 30
0
  0
VERTEX
  8
LAYER_1
 10
85.0616
 20
187.8269
  0
VERTEX
  8
LAYER_1
 10
84.8662
 20
187.8921
  0
SEQEND
  0
POLYLINE
  8
LAYER_1
 40
0.1058
 41
0.1058
 66
1
 10
0
 20
0
 30
0
  0
VERTEX
  8
LAYER_1
 10
84.7749
 20
187.9312
  0
VERTEX
  8
LAYER_1
 10
84.5795
 20
187.9963
  0
SEQEND
  0
POLYLINE
  8
LAYER_1
 40
0.1058
 41
0.1058
 66
1
 10
0
 20
0
 30
0
  0
VERTEX
  8
LAYER_1
 10
84.4882
 20
188.0224
  0
VERTEX
  8
LAYER_1
 10
84.4882
 20
188.0354
  0
SEQEND
  0
POLYLINE
  8
LAYER_1
 40
0.1058
 41
0.1058
 66
1
 10
0
 20
0
 30
0
  0
VERTEX
  8
LAYER_1
 10
84.397
 20
188.0615
  0
VERTEX
  8
LAYER_1
 10
84.2146
 20
188.1267
  0
VERTEX
  8
LAYER_1
 10
84.2015
 20
188.1267
  0
SEQEND
  0
POLYLINE
  8
LAYER_1
 40
0.1058
 41
0.1058
 66
1
 10
0
 20
0
 30
0
  0
VERTEX
  8
LAYER_1
 10
84.1103
 20
188.1527
  0
VERTEX
  8
LAYER_1
 10
83.9148
 20
188.2048
  0
SEQEND
  0
POLYLINE
  8
LAYER_1
 40
0.1058
 41
0.1058
 66
1
 10
0
 20
0
 30
0
  0
VERTEX
  8
LAYER_1
 10
83.8106
 20
188.2309
  0
VERTEX
  8
LAYER_1
 10
83.8106
 20
188.2439
  0
SEQEND
  0
POLYLINE
  8
LAYER_1
 40
0.1058
 41
0.1058
 66
1
 10
0
 20
0
 30
0
  0
VERTEX
  8
LAYER_1
 10
83.7194
 20
188.257
  0
VERTEX
  8
LAYER_1
 10
83.5239
 20
188.3221
  0
SEQEND
  0
POLYLINE
  8
LAYER_1
 40
0.1058
 41
0.1058
 66
1
 10
0
 20
0
 30
0
  0
VERTEX
  8
LAYER_1
 10
83.4327
 20
188.3482
  0
VERTEX
  8
LAYER_1
 10
83.2763
 20
188.3873
  0
VERTEX
  8
LAYER_1
 10
83.2372
 20
188.4003
  0
SEQEND
  0
POLYLINE
  8
LAYER_1
 40
0.1058
 41
0.1058
 66
1
 10
0
 20
0
 30
0
  0
VERTEX
  8
LAYER_1
 10
83.1329
 20
188.4264
  0
VERTEX
  8
LAYER_1
 10
83.1329
 20
188.4394
  0
SEQEND
  0
POLYLINE
  8
LAYER_1
 40
0.1058
 41
0.1058
 66
1
 10
0
 20
0
 30
0
  0
VERTEX
  8
LAYER_1
 10
83.0417
 20
188.4394
  0
VERTEX
  8
LAYER_1
 10
82.8462
 20
188.4915
  0
SEQEND
  0
POLYLINE
  8
LAYER_1
 40
0.1058
 41
0.1058
 66
1
 10
0
 20
0
 30
0
  0
VERTEX
  8
LAYER_1
 10
82.742
 20
188.5046
  0
VERTEX
  8
LAYER_1
 10
82.5465
 20
188.5567
  0
SEQEND
  0
POLYLINE
  8
LAYER_1
 40
0.1058
 41
0.1058
 66
1
 10
0
 20
0
 30
0
  0
VERTEX
  8
LAYER_1
 10
82.4553
 20
188.5828
  0
VERTEX
  8
LAYER_1
 10
82.4553
 20
188.5958
  0
SEQEND
  0
POLYLINE
  8
LAYER_1
 40
0.1058
 41
0.1058
 66
1
 10
0
 20
0
 30
0
  0
VERTEX
  8
LAYER_1
 10
82.351
 20
188.5958
  0
VERTEX
  8
LAYER_1
 10
82.3249
 20
188.6088
  0
VERTEX
  8
LAYER_1
 10
82.1555
 20
188.6349
  0
SEQEND
  0
POLYLINE
  8
LAYER_1
 40
0.1058
 41
0.1058
 66
1
 10
0
 20
0
 30
0
  0
VERTEX
  8
LAYER_1
 10
82.0513
 20
188.6479
  0
VERTEX
  8
LAYER_1
 10
81.8558
 20
188.687
  0
SEQEND
  0
POLYLINE
  8
LAYER_1
 40
0.1058
 41
0.1058
 66
1
 10
0
 20
0
 30
0
  0
VERTEX
  8
LAYER_1
 10
81.7646
 20
188.7
  0
VERTEX
  8
LAYER_1
 10
81.7646
 20
188.7131
  0
SEQEND
  0
POLYLINE
  8
LAYER_1
 40
0.1058
 41
0.1058
 66
1
 10
0
 20
0
 30
0
  0
VERTEX
  8
LAYER_1
 10
81.6603
 20
188.7261
  0
VERTEX
  8
LAYER_1
 10
81.4648
 20
188.7522
  0
SEQEND
  0
POLYLINE
  8
LAYER_1
 40
0.1058
 41
0.1058
 66
1
 10
0
 20
0
 30
0
  0
VERTEX
  8
LAYER_1
 10
81.3606
 20
188.7782
  0
VERTEX
  8
LAYER_1
 10
81.1651
 20
188.7913
  0
SEQEND
  0
POLYLINE
  8
LAYER_1
 40
0.1058
 41
0.1058
 66
1
 10
0
 20
0
 30
0
  0
VERTEX
  8
LAYER_1
 10
81.0609
 20
188.8043
  0
VERTEX
  8
LAYER_1
 10
81.0609
 20
188.8173
  0
SEQEND
  0
POLYLINE
  8
LAYER_1
 40
0.1058
 41
0.1058
 66
1
 10
0
 20
0
 30
0
  0
VERTEX
  8
LAYER_1
 10
80.9696
 20
188.8173
  0
VERTEX
  8
LAYER_1
 10
80.7611
 20
188.8434
  0
SEQEND
  0
POLYLINE
  8
LAYER_1
 40
0.1058
 41
0.1058
 66
1
 10
0
 20
0
 30
0
  0
VERTEX
  8
LAYER_1
 10
80.6699
 20
188.8564
  0
VERTEX
  8
LAYER_1
 10
80.4614
 20
188.8825
  0
SEQEND
  0
POLYLINE
  8
LAYER_1
 40
0.1058
 41
0.1058
 66
1
 10
0
 20
0
 30
0
  0
VERTEX
  8
LAYER_1
 10
80.3702
 20
188.8955
  0
VERTEX
  8
LAYER_1
 10
80.3702
 20
188.9085
  0
SEQEND
  0
POLYLINE
  8
LAYER_1
 40
0.1058
 41
0.1058
 66
1
 10
0
 20
0
 30
0
  0
VERTEX
  8
LAYER_1
 10
80.2659
 20
188.8955
  0
VERTEX
  8
LAYER_1
 10
80.0574
 20
188.9085
  0
SEQEND
  0
POLYLINE
  8
LAYER_1
 40
0.1058
 41
0.1058
 66
1
 10
0
 20
0
 30
0
  0
VERTEX
  8
LAYER_1
 10
79.9662
 20
188.9216
  0
VERTEX
  8
LAYER_1
 10
79.7577
 20
188.9346
  0
SEQEND
  0
POLYLINE
  8
LAYER_1
 40
0.1058
 41
0.1058
 66
1
 10
0
 20
0
 30
0
  0
VERTEX
  8
LAYER_1
 10
79.6664
 20
188.9346
  0
VERTEX
  8
LAYER_1
 10
79.6664
 20
188.9476
  0
SEQEND
  0
POLYLINE
  8
LAYER_1
 40
0.1058
 41
0.1058
 66
1
 10
0
 20
0
 30
0
  0
VERTEX
  8
LAYER_1
 10
79.5622
 20
188.9476
  0
VERTEX
  8
LAYER_1
 10
79.3667
 20
188.9476
  0
SEQEND
  0
POLYLINE
  8
LAYER_1
 40
0.1058
 41
0.1058
 66
1
 10
0
 20
0
 30
0
  0
VERTEX
  8
LAYER_1
 10
79.2625
 20
188.9607
  0
VERTEX
  8
LAYER_1
 10
79.0539
 20
188.9607
  0
SEQEND
  0
POLYLINE
  8
LAYER_1
 40
0.1058
 41
0.1058
 66
1
 10
0
 20
0
 30
0
  0
VERTEX
  8
LAYER_1
 10
78.9627
 20
188.9607
  0
VERTEX
  8
LAYER_1
 10
78.9627
 20
188.9737
  0
SEQEND
  0
POLYLINE
  8
LAYER_1
 40
0.1058
 41
0.1058
 66
1
 10
0
 20
0
 30
0
  0
VERTEX
  8
LAYER_1
 10
78.8585
 20
188.9607
  0
VERTEX
  8
LAYER_1
 10
78.663
 20
188.9607
  0
SEQEND
  0
POLYLINE
  8
LAYER_1
 40
0.1058
 41
0.1058
 66
1
 10
0
 20
0
 30
0
  0
VERTEX
  8
LAYER_1
 10
78.5587
 20
188.9607
  0
VERTEX
  8
LAYER_1
 10
78.3502
 20
188.9607
  0
SEQEND
  0
POLYLINE
  8
LAYER_1
 40
0.1058
 41
0.1058
 66
1
 10
0
 20
0
 30
0
  0
VERTEX
  8
LAYER_1
 10
78.259
 20
188.9607
  0
VERTEX
  8
LAYER_1
 10
78.259
 20
188.9737
  0
SEQEND
  0
POLYLINE
  8
LAYER_1
 40
0.1058
 41
0.1058
 66
1
 10
0
 20
0
 30
0
  0
VERTEX
  8
LAYER_1
 10
78.1548
 20
188.9607
  0
VERTEX
  8
LAYER_1
 10
77.9593
 20
188.9476
  0
SEQEND
  0
POLYLINE
  8
LAYER_1
 40
0.1058
 41
0.1058
 66
1
 10
0
 20
0
 30
0
  0
VERTEX
  8
LAYER_1
 10
77.855
 20
188.9476
  0
VERTEX
  8
LAYER_1
 10
77.6465
 20
188.9346
  0
SEQEND
  0
POLYLINE
  8
LAYER_1
 40
0.1058
 41
0.1058
 66
1
 10
0
 20
0
 30
0
  0
VERTEX
  8
LAYER_1
 10
77.5553
 20
188.9346
  0
VERTEX
  8
LAYER_1
 10
77.5553
 20
188.9476
  0
SEQEND
  0
POLYLINE
  8
LAYER_1
 40
0.1058
 41
0.1058
 66
1
 10
0
 20
0
 30
0
  0
VERTEX
  8
LAYER_1
 10
77.451
 20
188.9216
  0
VERTEX
  8
LAYER_1
 10
77.2555
 20
188.9085
  0
SEQEND
  0
POLYLINE
  8
LAYER_1
 40
0.1058
 41
0.1058
 66
1
 10
0
 20
0
 30
0
  0
VERTEX
  8
LAYER_1
 10
77.1513
 20
188.8955
  0
VERTEX
  8
LAYER_1
 10
76.9558
 20
188.8825
  0
SEQEND
  0
POLYLINE
  8
LAYER_1
 40
0.1058
 41
0.1058
 66
1
 10
0
 20
0
 30
0
  0
VERTEX
  8
LAYER_1
 10
76.8516
 20
188.8694
  0
VERTEX
  8
LAYER_1
 10
76.8516
 20
188.8825
  0
SEQEND
  0
POLYLINE
  8
LAYER_1
 40
0.1058
 41
0.1058
 66
1
 10
0
 20
0
 30
0
  0
VERTEX
  8
LAYER_1
 10
76.7473
 20
188.8564
  0
VERTEX
  8
LAYER_1
 10
76.5518
 20
188.8434
  0
SEQEND
  0
POLYLINE
  8
LAYER_1
 40
0.1058
 41
0.1058
 66
1
 10
0
 20
0
 30
0
  0
VERTEX
  8
LAYER_1
 10
76.4476
 20
188.8304
  0
VERTEX
  8
LAYER_1
 10
76.2521
 20
188.8043
  0
SEQEND
  0
POLYLINE
  8
LAYER_1
 40
0.1058
 41
0.1058
 66
1
 10
0
 20
0
 30
0
  0
VERTEX
  8
LAYER_1
 10
76.1478
 20
188.7913
  0
VERTEX
  8
LAYER_1
 10
76.1478
 20
188.8043
  0
SEQEND
  0
POLYLINE
  8
LAYER_1
 40
0.1058
 41
0.1058
 66
1
 10
0
 20
0
 30
0
  0
VERTEX
  8
LAYER_1
 10
76.0566
 20
188.7782
  0
VERTEX
  8
LAYER_1
 10
75.8481
 20
188.7391
  0
SEQEND
  0
POLYLINE
  8
LAYER_1
 40
0.1058
 41
0.1058
 66
1
 10
0
 20
0
 30
0
  0
VERTEX
  8
LAYER_1
 10
75.7569
 20
188.7261
  0
VERTEX
  8
LAYER_1
 10
75.5614
 20
188.7
  0
SEQEND
  0
POLYLINE
  8
LAYER_1
 40
0.1058
 41
0.1058
 66
1
 10
0
 20
0
 30
0
  0
VERTEX
  8
LAYER_1
 10
75.4571
 20
188.687
  0
VERTEX
  8
LAYER_1
 10
75.4571
 20
188.7
  0
SEQEND
  0
POLYLINE
  8
LAYER_1
 40
0.1058
 41
0.1058
 66
1
 10
0
 20
0
 30
0
  0
VERTEX
  8
LAYER_1
 10
75.3529
 20
188.6609
  0
VERTEX
  8
LAYER_1
 10
75.1574
 20
188.6219
  0
SEQEND
  0
POLYLINE
  8
LAYER_1
 40
0.1058
 41
0.1058
 66
1
 10
0
 20
0
 30
0
  0
VERTEX
  8
LAYER_1
 10
75.0662
 20
188.5958
  0
VERTEX
  8
LAYER_1
 10
74.8707
 20
188.5567
  0
SEQEND
  0
POLYLINE
  8
LAYER_1
 40
0.1058
 41
0.1058
 66
1
 10
0
 20
0
 30
0
  0
VERTEX
  8
LAYER_1
 10
74.7665
 20
188.5437
  0
VERTEX
  8
LAYER_1
 10
74.7665
 20
188.5567
  0
SEQEND
  0
POLYLINE
  8
LAYER_1
 40
0.1058
 41
0.1058
 66
1
 10
0
 20
0
 30
0
  0
VERTEX
  8
LAYER_1
 10
74.6752
 20
188.5176
  0
VERTEX
  8
LAYER_1
 10
74.571
 20
188.5046
  0
VERTEX
  8
LAYER_1
 10
74.4667
 20
188.4785
  0
SEQEND
  0
POLYLINE
  8
LAYER_1
 40
0.1058
 41
0.1058
 66
1
 10
0
 20
0
 30
0
  0
VERTEX
  8
LAYER_1
 10
74.3755
 20
188.4524
  0
VERTEX
  8
LAYER_1
 10
74.18
 20
188.4003
  0
SEQEND
  0
POLYLINE
  8
LAYER_1
 40
0.1058
 41
0.1058
 66
1
 10
0
 20
0
 30
0
  0
VERTEX
  8
LAYER_1
 10
74.0888
 20
188.3743
  0
VERTEX
  8
LAYER_1
 10
74.0888
 20
188.3873
  0
SEQEND
  0
POLYLINE
  8
LAYER_1
 40
0.1058
 41
0.1058
 66
1
 10
0
 20
0
 30
0
  0
VERTEX
  8
LAYER_1
 10
73.9846
 20
188.3482
  0
VERTEX
  8
LAYER_1
 10
73.7891
 20
188.3091
  0
SEQEND
  0
POLYLINE
  8
LAYER_1
 40
0.1058
 41
0.1058
 66
1
 10
0
 20
0
 30
0
  0
VERTEX
  8
LAYER_1
 10
73.6978
 20
188.283
  0
VERTEX
  8
LAYER_1
 10
73.6327
 20
188.257
  0
VERTEX
  8
LAYER_1
 10
73.5024
 20
188.2179
  0
SEQEND
  0
POLYLINE
  8
LAYER_1
 40
0.1058
 41
0.1058
 66
1
 10
0
 20
0
 30
0
  0
VERTEX
  8
LAYER_1
 10
73.4111
 20
188.1918
  0
VERTEX
  8
LAYER_1
 10
73.4111
 20
188.2048
  0
SEQEND
  0
POLYLINE
  8
LAYER_1
 40
0.1058
 41
0.1058
 66
1
 10
0
 20
0
 30
0
  0
VERTEX
  8
LAYER_1
 10
73.3069
 20
188.1658
  0
VERTEX
  8
LAYER_1
 10
73.1114
 20
188.1006
  0
SEQEND
  0
POLYLINE
  8
LAYER_1
 40
0.1058
 41
0.1058
 66
1
 10
0
 20
0
 30
0
  0
VERTEX
  8
LAYER_1
 10
73.0202
 20
188.0745
  0
VERTEX
  8
LAYER_1
 10
72.8247
 20
188.0094
  0
SEQEND
  0
POLYLINE
  8
LAYER_1
 40
0.1058
 41
0.1058
 66
1
 10
0
 20
0
 30
0
  0
VERTEX
  8
LAYER_1
 10
72.7335
 20
187.9833
  0
VERTEX
  8
LAYER_1
 10
72.7335
 20
187.9963
  0
SEQEND
  0
POLYLINE
  8
LAYER_1
 40
0.1058
 41
0.1058
 66
1
 10
0
 20
0
 30
0
  0
VERTEX
  8
LAYER_1
 10
72.6423
 20
187.9442
  0
VERTEX
  8
LAYER_1
 10
72.4468
 20
187.8791
  0
SEQEND
  0
POLYLINE
  8
LAYER_1
 40
0.1058
 41
0.1058
 66
1
 10
0
 20
0
 30
0
  0
VERTEX
  8
LAYER_1
 10
72.3556
 20
187.84
  0
VERTEX
  8
LAYER_1
 10
72.1731
 20
187.7748
  0
SEQEND
  0
POLYLINE
  8
LAYER_1
 40
0.1058
 41
0.1058
 66
1
 10
0
 20
0
 30
0
  0
VERTEX
  8
LAYER_1
 10
72.0689
 20
187.7357
  0
VERTEX
  8
LAYER_1
 10
72.0689
 20
187.7488
  0
SEQEND
  0
POLYLINE
  8
LAYER_1
 40
0.1058
 41
0.1058
 66
1
 10
0
 20
0
 30
0
  0
VERTEX
  8
LAYER_1
 10
71.9776
 20
187.6966
  0
VERTEX
  8
LAYER_1
 10
71.7952
 20
187.6315
  0
SEQEND
  0
POLYLINE
  8
LAYER_1
 40
0.1058
 41
0.1058
 66
1
 10
0
 20
0
 30
0
  0
VERTEX
  8
LAYER_1
 10
71.704
 20
187.5924
  0
VERTEX
  8
LAYER_1
 10
71.5085
 20
187.5142
  0
SEQEND
  0
POLYLINE
  8
LAYER_1
 40
0.1058
 41
0.1058
 66
1
 10
0
 20
0
 30
0
  0
VERTEX
  8
LAYER_1
 10
71.4173
 20
187.4751
  0
VERTEX
  8
LAYER_1
 10
71.4173
 20
187.4881
  0
SEQEND
  0
POLYLINE
  8
LAYER_1
 40
0.1058
 41
0.1058
 66
1
 10
0
 20
0
 30
0
  0
VERTEX
  8
LAYER_1
 10
71.326
 20
187.436
  0
VERTEX
  8
LAYER_1
 10
71.1436
 20
187.3578
  0
SEQEND
  0
POLYLINE
  8
LAYER_1
 40
0.1058
 41
0.1058
 66
1
 10
0
 20
0
 30
0
  0
VERTEX
  8
LAYER_1
 10
71.0524
 20
187.3187
  0
VERTEX
  8
LAYER_1
 10
70.883
 20
187.2405
  0
VERTEX
  8
LAYER_1
 10
70.8699
 20
187.2275
  0
SEQEND
  0
POLYLINE
  8
LAYER_1
 40
0.1058
 41
0.1058
 66
1
 10
0
 20
0
 30
0
  0
VERTEX
  8
LAYER_1
 10
70.7787
 20
187.1884
  0
VERTEX
  8
LAYER_1
 10
70.7787
 20
187.2014
  0
SEQEND
  0
POLYLINE
  8
LAYER_1
 40
0.1058
 41
0.1058
 66
1
 10
0
 20
0
 30
0
  0
VERTEX
  8
LAYER_1
 10
70.6875
 20
187.1363
  0
VERTEX
  8
LAYER_1
 10
70.505
 20
187.0581
  0
SEQEND
  0
POLYLINE
  8
LAYER_1
 40
0.1058
 41
0.1058
 66
1
 10
0
 20
0
 30
0
  0
VERTEX
  8
LAYER_1
 10
70.4138
 20
187.006
  0
VERTEX
  8
LAYER_1
 10
70.2444
 20
186.9147
  0
SEQEND
  0
POLYLINE
  8
LAYER_1
 40
0.1058
 41
0.1058
 66
1
 10
0
 20
0
 30
0
  0
VERTEX
  8
LAYER_1
 10
70.1532
 20
186.8756
  0
VERTEX
  8
LAYER_1
 10
70.1532
 20
186.8887
  0
SEQEND
  0
POLYLINE
  8
LAYER_1
 40
0.1058
 41
0.1058
 66
1
 10
0
 20
0
 30
0
  0
VERTEX
  8
LAYER_1
 10
70.0619
 20
186.8235
  0
VERTEX
  8
LAYER_1
 10
70.0098
 20
186.8105
  0
VERTEX
  8
LAYER_1
 10
69.8795
 20
186.7323
  0
SEQEND
  0
POLYLINE
  8
LAYER_1
 40
0.1058
 41
0.1058
 66
1
 10
0
 20
0
 30
0
  0
VERTEX
  8
LAYER_1
 10
69.8013
 20
186.6802
  0
VERTEX
  8
LAYER_1
 10
69.6189
 20
186.589
  0
SEQEND
  0
POLYLINE
  8
LAYER_1
 40
0.1058
 41
0.1058
 66
1
 10
0
 20
0
 30
0
  0
VERTEX
  8
LAYER_1
 10
69.5276
 20
186.5368
  0
VERTEX
  8
LAYER_1
 10
69.5276
 20
186.5499
  0
SEQEND
  0
POLYLINE
  8
LAYER_1
 40
0.1058
 41
0.1058
 66
1
 10
0
 20
0
 30
0
  0
VERTEX
  8
LAYER_1
 10
69.4494
 20
186.4847
  0
VERTEX
  8
LAYER_1
 10
69.267
 20
186.3805
  0
SEQEND
  0
POLYLINE
  8
LAYER_1
 40
0.1058
 41
0.1058
 66
1
 10
0
 20
0
 30
0
  0
VERTEX
  8
LAYER_1
 10
69.1888
 20
186.3414
  0
VERTEX
  8
LAYER_1
 10
69.1627
 20
186.3283
  0
VERTEX
  8
LAYER_1
 10
69.0194
 20
186.2241
  0
SEQEND
  0
POLYLINE
  8
LAYER_1
 40
0.1058
 41
0.1058
 66
1
 10
0
 20
0
 30
0
  0
VERTEX
  8
LAYER_1
 10
68.9282
 20
186.1719
  0
VERTEX
  8
LAYER_1
 10
68.9282
 20
186.185
  0
SEQEND
  0
POLYLINE
  8
LAYER_1
 40
0.1058
 41
0.1058
 66
1
 10
0
 20
0
 30
0
  0
VERTEX
  8
LAYER_1
 10
68.8369
 20
186.1198
  0
VERTEX
  8
LAYER_1
 10
68.6675
 20
186.0156
  0
SEQEND
  0
POLYLINE
  8
LAYER_1
 40
0.1058
 41
0.1058
 66
1
 10
0
 20
0
 30
0
  0
VERTEX
  8
LAYER_1
 10
68.5893
 20
185.9634
  0
VERTEX
  8
LAYER_1
 10
68.4199
 20
185.8462
  0
SEQEND
  0
POLYLINE
  8
LAYER_1
 40
0.1058
 41
0.1058
 66
1
 10
0
 20
0
 30
0
  0
VERTEX
  8
LAYER_1
 10
68.3287
 20
185.794
  0
VERTEX
  8
LAYER_1
 10
68.3287
 20
185.807
  0
SEQEND
  0
POLYLINE
  8
LAYER_1
 40
0.1058
 41
0.1058
 66
1
 10
0
 20
0
 30
0
  0
VERTEX
  8
LAYER_1
 10
68.2505
 20
185.7419
  0
VERTEX
  8
LAYER_1
 10
68.0941
 20
185.6246
  0
SEQEND
  0
POLYLINE
  8
LAYER_1
 40
0.1058
 41
0.1058
 66
1
 10
0
 20
0
 30
0
  0
VERTEX
  8
LAYER_1
 10
68.0029
 20
185.5594
  0
VERTEX
  8
LAYER_1
 10
67.8465
 20
185.4422
  0
SEQEND
  0
POLYLINE
  8
LAYER_1
 40
0.1058
 41
0.1058
 66
1
 10
0
 20
0
 30
0
  0
VERTEX
  8
LAYER_1
 10
67.7683
 20
185.39
  0
VERTEX
  8
LAYER_1
 10
67.7683
 20
185.4031
  0
SEQEND
  0
POLYLINE
  8
LAYER_1
 40
0.1058
 41
0.1058
 66
1
 10
0
 20
0
 30
0
  0
VERTEX
  8
LAYER_1
 10
67.6771
 20
185.3249
  0
VERTEX
  8
LAYER_1
 10
67.5468
 20
185.2336
  0
VERTEX
  8
LAYER_1
 10
67.5207
 20
185.2076
  0
SEQEND
  0
POLYLINE
  8
LAYER_1
 40
0.1058
 41
0.1058
 66
1
 10
0
 20
0
 30
0
  0
VERTEX
  8
LAYER_1
 10
67.4425
 20
185.1424
  0
VERTEX
  8
LAYER_1
 10
67.2861
 20
185.0251
  0
SEQEND
  0
POLYLINE
  8
LAYER_1
 40
0.1058
 41
0.1058
 66
1
 10
0
 20
0
 30
0
  0
VERTEX
  8
LAYER_1
 10
67.2079
 20
184.96
  0
VERTEX
  8
LAYER_1
 10
67.2079
 20
184.973
  0
SEQEND
  0
POLYLINE
  8
LAYER_1
 40
0.1058
 41
0.1058
 66
1
 10
0
 20
0
 30
0
  0
VERTEX
  8
LAYER_1
 10
67.1298
 20
184.8948
  0
VERTEX
  8
LAYER_1
 10
66.9734
 20
184.7775
  0
SEQEND
  0
POLYLINE
  8
LAYER_1
 40
0.1058
 41
0.1058
 66
1
 10
0
 20
0
 30
0
  0
VERTEX
  8
LAYER_1
 10
66.8952
 20
184.7123
  0
VERTEX
  8
LAYER_1
 10
66.7909
 20
184.6211
  0
VERTEX
  8
LAYER_1
 10
66.7388
 20
184.582
  0
SEQEND
  0
POLYLINE
  8
LAYER_1
 40
0.1058
 41
0.1058
 66
1
 10
0
 20
0
 30
0
  0
VERTEX
  8
LAYER_1
 10
66.6606
 20
184.5169
  0
VERTEX
  8
LAYER_1
 10
66.6606
 20
184.5299
  0
SEQEND
  0
POLYLINE
  8
LAYER_1
 40
0.1058
 41
0.1058
 66
1
 10
0
 20
0
 30
0
  0
VERTEX
  8
LAYER_1
 10
66.5824
 20
184.4517
  0
VERTEX
  8
LAYER_1
 10
66.4391
 20
184.3084
  0
SEQEND
  0
POLYLINE
  8
LAYER_1
 40
0.1058
 41
0.1058
 66
1
 10
0
 20
0
 30
0
  0
VERTEX
  8
LAYER_1
 10
66.3609
 20
184.2432
  0
VERTEX
  8
LAYER_1
 10
66.2045
 20
184.1129
  0
SEQEND
  0
POLYLINE
  8
LAYER_1
 40
0.1058
 41
0.1058
 66
1
 10
0
 20
0
 30
0
  0
VERTEX
  8
LAYER_1
 10
66.1393
 20
184.0477
  0
VERTEX
  8
LAYER_1
 10
66.1393
 20
184.0607
  0
SEQEND
  0
POLYLINE
  8
LAYER_1
 40
0.1058
 41
0.1058
 66
1
 10
0
 20
0
 30
0
  0
VERTEX
  8
LAYER_1
 10
66.0611
 20
183.9826
  0
VERTEX
  8
LAYER_1
 10
65.9178
 20
183.8392
  0
SEQEND
  0
POLYLINE
  8
LAYER_1
 40
0.1058
 41
0.1058
 66
1
 10
0
 20
0
 30
0
  0
VERTEX
  8
LAYER_1
 10
65.8396
 20
183.774
  0
VERTEX
  8
LAYER_1
 10
65.6962
 20
183.6307
  0
SEQEND
  0
POLYLINE
  8
LAYER_1
 40
0.1058
 41
0.1058
 66
1
 10
0
 20
0
 30
0
  0
VERTEX
  8
LAYER_1
 10
65.6311
 20
183.5525
  0
VERTEX
  8
LAYER_1
 10
65.6311
 20
183.5655
  0
SEQEND
  0
POLYLINE
  8
LAYER_1
 40
0.1058
 41
0.1058
 66
1
 10
0
 20
0
 30
0
  0
VERTEX
  8
LAYER_1
 10
65.5529
 20
183.4873
  0
VERTEX
  8
LAYER_1
 10
65.4095
 20
183.344
  0
SEQEND
  0
POLYLINE
  8
LAYER_1
 40
0.1058
 41
0.1058
 66
1
 10
0
 20
0
 30
0
  0
VERTEX
  8
LAYER_1
 10
65.3444
 20
183.2788
  0
VERTEX
  8
LAYER_1
 10
65.2141
 20
183.1224
  0
SEQEND
  0
POLYLINE
  8
LAYER_1
 40
0.1058
 41
0.1058
 66
1
 10
0
 20
0
 30
0
  0
VERTEX
  8
LAYER_1
 10
65.1358
 20
183.0442
  0
VERTEX
  8
LAYER_1
 10
65.1358
 20
183.0573
  0
SEQEND
  0
POLYLINE
  8
LAYER_1
 40
0.1058
 41
0.1058
 66
1
 10
0
 20
0
 30
0
  0
VERTEX
  8
LAYER_1
 10
65.0707
 20
182.9791
  0
VERTEX
  8
LAYER_1
 10
64.9404
 20
182.8227
  0
SEQEND
  0
POLYLINE
  8
LAYER_1
 40
0.1058
 41
0.1058
 66
1
 10
0
 20
0
 30
0
  0
VERTEX
  8
LAYER_1
 10
64.8752
 20
182.7575
  0
VERTEX
  8
LAYER_1
 10
64.7319
 20
182.6012
  0
SEQEND
  0
POLYLINE
  8
LAYER_1
 40
0.1058
 41
0.1058
 66
1
 10
0
 20
0
 30
0
  0
VERTEX
  8
LAYER_1
 10
64.6667
 20
182.523
  0
VERTEX
  8
LAYER_1
 10
64.6667
 20
182.536
  0
SEQEND
  0
POLYLINE
  8
LAYER_1
 40
0.1058
 41
0.1058
 66
1
 10
0
 20
0
 30
0
  0
VERTEX
  8
LAYER_1
 10
64.6015
 20
182.4448
  0
VERTEX
  8
LAYER_1
 10
64.4843
 20
182.2884
  0
SEQEND
  0
POLYLINE
  8
LAYER_1
 40
0.1058
 41
0.1058
 66
1
 10
0
 20
0
 30
0
  0
VERTEX
  8
LAYER_1
 10
64.4191
 20
182.2102
  0
VERTEX
  8
LAYER_1
 10
64.2888
 20
182.0668
  0
SEQEND
  0
POLYLINE
  8
LAYER_1
 40
0.1058
 41
0.1058
 66
1
 10
0
 20
0
 30
0
  0
VERTEX
  8
LAYER_1
 10
64.2236
 20
181.9886
  0
VERTEX
  8
LAYER_1
 10
64.2236
 20
182.0017
  0
SEQEND
  0
POLYLINE
  8
LAYER_1
 40
0.1058
 41
0.1058
 66
1
 10
0
 20
0
 30
0
  0
VERTEX
  8
LAYER_1
 10
64.1584
 20
181.9105
  0
VERTEX
  8
LAYER_1
 10
64.0933
 20
181.8192
  0
VERTEX
  8
LAYER_1
 10
64.0412
 20
181.741
  0
SEQEND
  0
POLYLINE
  8
LAYER_1
 40
0.1058
 41
0.1058
 66
1
 10
0
 20
0
 30
0
  0
VERTEX
  8
LAYER_1
 10
63.976
 20
181.6628
  0
VERTEX
  8
LAYER_1
 10
63.8587
 20
181.5065
  0
SEQEND
  0
POLYLINE
  8
LAYER_1
 40
0.1058
 41
0.1058
 66
1
 10
0
 20
0
 30
0
  0
VERTEX
  8
LAYER_1
 10
63.7935
 20
181.4283
  0
VERTEX
  8
LAYER_1
 10
63.7935
 20
181.4413
  0
SEQEND
  0
POLYLINE
  8
LAYER_1
 40
0.1058
 41
0.1058
 66
1
 10
0
 20
0
 30
0
  0
VERTEX
  8
LAYER_1
 10
63.7414
 20
181.337
  0
VERTEX
  8
LAYER_1
 10
63.6241
 20
181.1807
  0
SEQEND
  0
POLYLINE
  8
LAYER_1
 40
0.1058
 41
0.1058
 66
1
 10
0
 20
0
 30
0
  0
VERTEX
  8
LAYER_1
 10
63.559
 20
181.1025
  0
VERTEX
  8
LAYER_1
 10
63.5068
 20
181.0373
  0
VERTEX
  8
LAYER_1
 10
63.4417
 20
180.9331
  0
SEQEND
  0
POLYLINE
  8
LAYER_1
 40
0.1058
 41
0.1058
 66
1
 10
0
 20
0
 30
0
  0
VERTEX
  8
LAYER_1
 10
63.3895
 20
180.8549
  0
VERTEX
  8
LAYER_1
 10
63.3895
 20
180.8679
  0
SEQEND
  0
POLYLINE
  8
LAYER_1
 40
0.1058
 41
0.1058
 66
1
 10
0
 20
0
 30
0
  0
VERTEX
  8
LAYER_1
 10
63.3374
 20
180.7636
  0
VERTEX
  8
LAYER_1
 10
63.2201
 20
180.5942
  0
SEQEND
  0
POLYLINE
  8
LAYER_1
 40
0.1058
 41
0.1058
 66
1
 10
0
 20
0
 30
0
  0
VERTEX
  8
LAYER_1
 10
63.168
 20
180.516
  0
VERTEX
  8
LAYER_1
 10
63.0637
 20
180.3466
  0
SEQEND
  0
POLYLINE
  8
LAYER_1
 40
0.1058
 41
0.1058
 66
1
 10
0
 20
0
 30
0
  0
VERTEX
  8
LAYER_1
 10
62.9986
 20
180.2554
  0
VERTEX
  8
LAYER_1
 10
62.9986
 20
180.2684
  0
SEQEND
  0
POLYLINE
  8
LAYER_1
 40
0.1058
 41
0.1058
 66
1
 10
0
 20
0
 30
0
  0
VERTEX
  8
LAYER_1
 10
62.9464
 20
180.1772
  0
VERTEX
  8
LAYER_1
 10
62.8552
 20
180.0078
  0
SEQEND
  0
POLYLINE
  8
LAYER_1
 40
0.1058
 41
0.1058
 66
1
 10
0
 20
0
 30
0
  0
VERTEX
  8
LAYER_1
 10
62.8031
 20
179.9166
  0
VERTEX
  8
LAYER_1
 10
62.6988
 20
179.7471
  0
SEQEND
  0
POLYLINE
  8
LAYER_1
 40
0.1058
 41
0.1058
 66
1
 10
0
 20
0
 30
0
  0
VERTEX
  8
LAYER_1
 10
62.6467
 20
179.6559
  0
VERTEX
  8
LAYER_1
 10
62.6467
 20
179.669
  0
SEQEND
  0
POLYLINE
  8
LAYER_1
 40
0.1058
 41
0.1058
 66
1
 10
0
 20
0
 30
0
  0
VERTEX
  8
LAYER_1
 10
62.5946
 20
179.5647
  0
VERTEX
  8
LAYER_1
 10
62.4903
 20
179.3953
  0
SEQEND
  0
POLYLINE
  8
LAYER_1
 40
0.1058
 41
0.1058
 66
1
 10
0
 20
0
 30
0
  0
VERTEX
  8
LAYER_1
 10
62.4513
 20
179.3041
  0
VERTEX
  8
LAYER_1
 10
62.36
 20
179.1216
  0
SEQEND
  0
POLYLINE
  8
LAYER_1
 40
0.1058
 41
0.1058
 66
1
 10
0
 20
0
 30
0
  0
VERTEX
  8
LAYER_1
 10
62.3079
 20
179.0434
  0
VERTEX
  8
LAYER_1
 10
62.3079
 20
179.0565
  0
SEQEND
  0
POLYLINE
  8
LAYER_1
 40
0.1058
 41
0.1058
 66
1
 10
0
 20
0
 30
0
  0
VERTEX
  8
LAYER_1
 10
62.2688
 20
178.9522
  0
VERTEX
  8
LAYER_1
 10
62.1776
 20
178.7697
  0
SEQEND
  0
POLYLINE
  8
LAYER_1
 40
0.1058
 41
0.1058
 66
1
 10
0
 20
0
 30
0
  0
VERTEX
  8
LAYER_1
 10
62.1255
 20
178.6785
  0
VERTEX
  8
LAYER_1
 10
62.0342
 20
178.5091
  0
VERTEX
  8
LAYER_1
 10
62.0342
 20
178.4961
  0
SEQEND
  0
POLYLINE
  8
LAYER_1
 40
0.1058
 41
0.1058
 66
1
 10
0
 20
0
 30
0
  0
VERTEX
  8
LAYER_1
 10
61.9952
 20
178.4049
  0
VERTEX
  8
LAYER_1
 10
61.9952
 20
178.4179
  0
SEQEND
  0
POLYLINE
  8
LAYER_1
 40
0.1058
 41
0.1058
 66
1
 10
0
 20
0
 30
0
  0
VERTEX
  8
LAYER_1
 10
61.9561
 20
178.3136
  0
VERTEX
  8
LAYER_1
 10
61.8648
 20
178.1312
  0
SEQEND
  0
POLYLINE
  8
LAYER_1
 40
0.1058
 41
0.1058
 66
1
 10
0
 20
0
 30
0
  0
VERTEX
  8
LAYER_1
 10
61.8257
 20
178.04
  0
VERTEX
  8
LAYER_1
 10
61.7476
 20
177.8575
  0
SEQEND
  0
POLYLINE
  8
LAYER_1
 40
0.1058
 41
0.1058
 66
1
 10
0
 20
0
 30
0
  0
VERTEX
  8
LAYER_1
 10
61.7085
 20
177.7663
  0
VERTEX
  8
LAYER_1
 10
61.7085
 20
177.7793
  0
SEQEND
  0
POLYLINE
  8
LAYER_1
 40
0.1058
 41
0.1058
 66
1
 10
0
 20
0
 30
0
  0
VERTEX
  8
LAYER_1
 10
61.6694
 20
177.6751
  0
VERTEX
  8
LAYER_1
 10
61.6433
 20
177.6099
  0
VERTEX
  8
LAYER_1
 10
61.5912
 20
177.4926
  0
SEQEND
  0
POLYLINE
  8
LAYER_1
 40
0.1058
 41
0.1058
 66
1
 10
0
 20
0
 30
0
  0
VERTEX
  8
LAYER_1
 10
61.5521
 20
177.4014
  0
VERTEX
  8
LAYER_1
 10
61.4739
 20
177.2059
  0
SEQEND
  0
POLYLINE
  8
LAYER_1
 40
0.1058
 41
0.1058
 66
1
 10
0
 20
0
 30
0
  0
VERTEX
  8
LAYER_1
 10
61.4478
 20
177.1147
  0
VERTEX
  8
LAYER_1
 10
61.4478
 20
177.1277
  0
SEQEND
  0
POLYLINE
  8
LAYER_1
 40
0.1058
 41
0.1058
 66
1
 10
0
 20
0
 30
0
  0
VERTEX
  8
LAYER_1
 10
61.4087
 20
177.0235
  0
VERTEX
  8
LAYER_1
 10
61.3306
 20
176.828
  0
SEQEND
  0
POLYLINE
  8
LAYER_1
 40
0.1058
 41
0.1058
 66
1
 10
0
 20
0
 30
0
  0
VERTEX
  8
LAYER_1
 10
61.2915
 20
176.7368
  0
VERTEX
  8
LAYER_1
 10
61.2784
 20
176.7107
  0
VERTEX
  8
LAYER_1
 10
61.2393
 20
176.5543
  0
SEQEND
  0
POLYLINE
  8
LAYER_1
 40
0.1058
 41
0.1058
 66
1
 10
0
 20
0
 30
0
  0
VERTEX
  8
LAYER_1
 10
61.2002
 20
176.4501
  0
VERTEX
  8
LAYER_1
 10
61.2002
 20
176.4631
  0
SEQEND
  0
POLYLINE
  8
LAYER_1
 40
0.1058
 41
0.1058
 66
1
 10
0
 20
0
 30
0
  0
VERTEX
  8
LAYER_1
 10
61.1742
 20
176.3589
  0
VERTEX
  8
LAYER_1
 10
61.109
 20
176.1634
  0
SEQEND
  0
POLYLINE
  8
LAYER_1
 40
0.1058
 41
0.1058
 66
1
 10
0
 20
0
 30
0
  0
VERTEX
  8
LAYER_1
 10
61.083
 20
176.0721
  0
VERTEX
  8
LAYER_1
 10
61.0178
 20
175.8767
  0
SEQEND
  0
POLYLINE
  8
LAYER_1
 40
0.1058
 41
0.1058
 66
1
 10
0
 20
0
 30
0
  0
VERTEX
  8
LAYER_1
 10
60.9787
 20
175.7854
  0
VERTEX
  8
LAYER_1
 10
60.9787
 20
175.7985
  0
SEQEND
  0
POLYLINE
  8
LAYER_1
 40
0.1058
 41
0.1058
 66
1
 10
0
 20
0
 30
0
  0
VERTEX
  8
LAYER_1
 10
60.9526
 20
175.6942
  0
VERTEX
  8
LAYER_1
 10
60.9005
 20
175.4987
  0
SEQEND
  0
POLYLINE
  8
LAYER_1
 40
0.1058
 41
0.1058
 66
1
 10
0
 20
0
 30
0
  0
VERTEX
  8
LAYER_1
 10
60.8745
 20
175.3945
  0
VERTEX
  8
LAYER_1
 10
60.8223
 20
175.199
  0
SEQEND
  0
POLYLINE
  8
LAYER_1
 40
0.1058
 41
0.1058
 66
1
 10
0
 20
0
 30
0
  0
VERTEX
  8
LAYER_1
 10
60.7963
 20
175.1078
  0
VERTEX
  8
LAYER_1
 10
60.7963
 20
175.1208
  0
SEQEND
  0
POLYLINE
  8
LAYER_1
 40
0.1058
 41
0.1058
 66
1
 10
0
 20
0
 30
0
  0
VERTEX
  8
LAYER_1
 10
60.7702
 20
175.0035
  0
VERTEX
  8
LAYER_1
 10
60.7311
 20
174.8341
  0
VERTEX
  8
LAYER_1
 10
60.7181
 20
174.8081
  0
SEQEND
  0
POLYLINE
  8
LAYER_1
 40
0.1058
 41
0.1058
 66
1
 10
0
 20
0
 30
0
  0
VERTEX
  8
LAYER_1
 10
60.705
 20
174.7168
  0
VERTEX
  8
LAYER_1
 10
60.6529
 20
174.5213
  0
SEQEND
  0
POLYLINE
  8
LAYER_1
 40
0.1058
 41
0.1058
 66
1
 10
0
 20
0
 30
0
  0
VERTEX
  8
LAYER_1
 10
60.6399
 20
174.4171
  0
VERTEX
  8
LAYER_1
 10
60.6399
 20
174.4301
  0
SEQEND
  0
POLYLINE
  8
LAYER_1
 40
0.1058
 41
0.1058
 66
1
 10
0
 20
0
 30
0
  0
VERTEX
  8
LAYER_1
 10
60.6138
 20
174.3259
  0
VERTEX
  8
LAYER_1
 10
60.5747
 20
174.1304
  0
SEQEND
  0
POLYLINE
  8
LAYER_1
 40
0.1058
 41
0.1058
 66
1
 10
0
 20
0
 30
0
  0
VERTEX
  8
LAYER_1
 10
60.5487
 20
174.0261
  0
VERTEX
  8
LAYER_1
 10
60.5226
 20
173.8828
  0
VERTEX
  8
LAYER_1
 10
60.5096
 20
173.8307
  0
SEQEND
  0
POLYLINE
  8
LAYER_1
 40
0.1058
 41
0.1058
 66
1
 10
0
 20
0
 30
0
  0
VERTEX
  8
LAYER_1
 10
60.4965
 20
173.7264
  0
VERTEX
  8
LAYER_1
 10
60.4965
 20
173.7394
  0
SEQEND
  0
POLYLINE
  8
LAYER_1
 40
0.1058
 41
0.1058
 66
1
 10
0
 20
0
 30
0
  0
VERTEX
  8
LAYER_1
 10
60.4835
 20
173.6352
  0
VERTEX
  8
LAYER_1
 10
60.4444
 20
173.4397
  0
SEQEND
  0
POLYLINE
  8
LAYER_1
 40
0.1058
 41
0.1058
 66
1
 10
0
 20
0
 30
0
  0
VERTEX
  8
LAYER_1
 10
60.4314
 20
173.3355
  0
VERTEX
  8
LAYER_1
 10
60.4053
 20
173.14
  0
SEQEND
  0
POLYLINE
  8
LAYER_1
 40
0.1058
 41
0.1058
 66
1
 10
0
 20
0
 30
0
  0
VERTEX
  8
LAYER_1
 10
60.3923
 20
173.0357
  0
VERTEX
  8
LAYER_1
 10
60.3923
 20
173.0487
  0
SEQEND
  0
POLYLINE
  8
LAYER_1
 40
0.1058
 41
0.1058
 66
1
 10
0
 20
0
 30
0
  0
VERTEX
  8
LAYER_1
 10
60.3662
 20
172.9315
  0
VERTEX
  8
LAYER_1
 10
60.3662
 20
172.9184
  0
VERTEX
  8
LAYER_1
 10
60.3532
 20
172.736
  0
SEQEND
  0
POLYLINE
  8
LAYER_1
 40
0.1058
 41
0.1058
 66
1
 10
0
 20
0
 30
0
  0
VERTEX
  8
LAYER_1
 10
60.3402
 20
172.6317
  0
VERTEX
  8
LAYER_1
 10
60.3141
 20
172.4362
  0
SEQEND
  0
POLYLINE
  8
LAYER_1
 40
0.1058
 41
0.1058
 66
1
 10
0
 20
0
 30
0
  0
VERTEX
  8
LAYER_1
 10
60.3011
 20
172.332
  0
VERTEX
  8
LAYER_1
 10
60.3011
 20
172.345
  0
SEQEND
  0
POLYLINE
  8
LAYER_1
 40
0.1058
 41
0.1058
 66
1
 10
0
 20
0
 30
0
  0
VERTEX
  8
LAYER_1
 10
60.3011
 20
172.2408
  0
VERTEX
  8
LAYER_1
 10
60.275
 20
172.0323
  0
SEQEND
  0
POLYLINE
  8
LAYER_1
 40
0.1058
 41
0.1058
 66
1
 10
0
 20
0
 30
0
  0
VERTEX
  8
LAYER_1
 10
60.262
 20
171.941
  0
VERTEX
  8
LAYER_1
 10
60.249
 20
171.7325
  0
SEQEND
  0
POLYLINE
  8
LAYER_1
 40
0.1058
 41
0.1058
 66
1
 10
0
 20
0
 30
0
  0
VERTEX
  8
LAYER_1
 10
60.249
 20
171.6413
  0
VERTEX
  8
LAYER_1
 10
60.249
 20
171.6543
  0
SEQEND
  0
POLYLINE
  8
LAYER_1
 40
0.1058
 41
0.1058
 66
1
 10
0
 20
0
 30
0
  0
VERTEX
  8
LAYER_1
 10
60.249
 20
171.5371
  0
VERTEX
  8
LAYER_1
 10
60.2359
 20
171.3416
  0
SEQEND
  0
POLYLINE
  8
LAYER_1
 40
0.1058
 41
0.1058
 66
1
 10
0
 20
0
 30
0
  0
VERTEX
  8
LAYER_1
 10
60.2229
 20
171.2373
  0
VERTEX
  8
LAYER_1
 10
60.2229
 20
171.0288
  0
SEQEND
  0
POLYLINE
  8
LAYER_1
 40
0.1058
 41
0.1058
 66
1
 10
0
 20
0
 30
0
  0
VERTEX
  8
LAYER_1
 10
60.2099
 20
170.9376
  0
VERTEX
  8
LAYER_1
 10
60.2099
 20
170.9506
  0
SEQEND
  0
POLYLINE
  8
LAYER_1
 40
0.1058
 41
0.1058
 66
1
 10
0
 20
0
 30
0
  0
VERTEX
  8
LAYER_1
 10
60.2099
 20
170.8333
  0
VERTEX
  8
LAYER_1
 10
60.2099
 20
170.6379
  0
SEQEND
  0
POLYLINE
  8
LAYER_1
 40
0.1058
 41
0.1058
 66
1
 10
0
 20
0
 30
0
  0
VERTEX
  8
LAYER_1
 10
60.2099
 20
170.5336
  0
VERTEX
  8
LAYER_1
 10
60.2099
 20
170.3251
  0
SEQEND
  0
POLYLINE
  8
LAYER_1
 40
0.1058
 41
0.1058
 66
1
 10
0
 20
0
 30
0
  0
VERTEX
  8
LAYER_1
 10
60.2099
 20
170.2339
  0
VERTEX
  8
LAYER_1
 10
60.2099
 20
170.2469
  0
SEQEND
  0
POLYLINE
  8
LAYER_1
 40
0.1058
 41
0.1058
 66
1
 10
0
 20
0
 30
0
  0
VERTEX
  8
LAYER_1
 10
60.2099
 20
170.1296
  0
VERTEX
  8
LAYER_1
 10
60.2099
 20
169.9993
  0
VERTEX
  8
LAYER_1
 10
60.2229
 20
169.9341
  0
SEQEND
  0
POLYLINE
  8
LAYER_1
 40
0.1058
 41
0.1058
 66
1
 10
0
 20
0
 30
0
  0
VERTEX
  8
LAYER_1
 10
60.2229
 20
169.8299
  0
VERTEX
  8
LAYER_1
 10
60.2359
 20
169.6214
  0
SEQEND
  0
POLYLINE
  8
LAYER_1
 40
0.1058
 41
0.1058
 66
1
 10
0
 20
0
 30
0
  0
VERTEX
  8
LAYER_1
 10
60.2359
 20
169.5301
  0
VERTEX
  8
LAYER_1
 10
60.2359
 20
169.5432
  0
SEQEND
  0
POLYLINE
  8
LAYER_1
 40
0.1058
 41
0.1058
 66
1
 10
0
 20
0
 30
0
  0
VERTEX
  8
LAYER_1
 10
60.249
 20
169.4259
  0
VERTEX
  8
LAYER_1
 10
60.249
 20
169.2304
  0
SEQEND
  0
POLYLINE
  8
LAYER_1
 40
0.1058
 41
0.1058
 66
1
 10
0
 20
0
 30
0
  0
VERTEX
  8
LAYER_1
 10
60.262
 20
169.1262
  0
VERTEX
  8
LAYER_1
 10
60.262
 20
169.0219
  0
VERTEX
  8
LAYER_1
 10
60.275
 20
168.9307
  0
SEQEND
  0
POLYLINE
  8
LAYER_1
 40
0.1058
 41
0.1058
 66
1
 10
0
 20
0
 30
0
  0
VERTEX
  8
LAYER_1
 10
60.288
 20
168.8264
  0
VERTEX
  8
LAYER_1
 10
60.288
 20
168.8395
  0
SEQEND
  0
POLYLINE
  8
LAYER_1
 40
0.1058
 41
0.1058
 66
1
 10
0
 20
0
 30
0
  0
VERTEX
  8
LAYER_1
 10
60.3011
 20
168.7222
  0
VERTEX
  8
LAYER_1
 10
60.3141
 20
168.5267
  0
SEQEND
  0
POLYLINE
  8
LAYER_1
 40
0.1058
 41
0.1058
 66
1
 10
0
 20
0
 30
0
  0
VERTEX
  8
LAYER_1
 10
60.3271
 20
168.4224
  0
VERTEX
  8
LAYER_1
 10
60.3532
 20
168.227
  0
SEQEND
  0
POLYLINE
  8
LAYER_1
 40
0.1058
 41
0.1058
 66
1
 10
0
 20
0
 30
0
  0
VERTEX
  8
LAYER_1
 10
60.3662
 20
168.1227
  0
VERTEX
  8
LAYER_1
 10
60.3662
 20
168.1357
  0
SEQEND
  0
POLYLINE
  8
LAYER_1
 40
0.1058
 41
0.1058
 66
1
 10
0
 20
0
 30
0
  0
VERTEX
  8
LAYER_1
 10
60.3793
 20
168.0315
  0
VERTEX
  8
LAYER_1
 10
60.4053
 20
167.823
  0
SEQEND
  0
POLYLINE
  8
LAYER_1
 40
0.1058
 41
0.1058
 66
1
 10
0
 20
0
 30
0
  0
VERTEX
  8
LAYER_1
 10
60.4184
 20
167.7317
  0
VERTEX
  8
LAYER_1
 10
60.4575
 20
167.5232
  0
SEQEND
  0
POLYLINE
  8
LAYER_1
 40
0.1058
 41
0.1058
 66
1
 10
0
 20
0
 30
0
  0
VERTEX
  8
LAYER_1
 10
60.4705
 20
167.432
  0
VERTEX
  8
LAYER_1
 10
60.4705
 20
167.445
  0
SEQEND
  0
POLYLINE
  8
LAYER_1
 40
0.1058
 41
0.1058
 66
1
 10
0
 20
0
 30
0
  0
VERTEX
  8
LAYER_1
 10
60.4835
 20
167.3278
  0
VERTEX
  8
LAYER_1
 10
60.5096
 20
167.1323
  0
SEQEND
  0
POLYLINE
  8
LAYER_1
 40
0.1058
 41
0.1058
 66
1
 10
0
 20
0
 30
0
  0
VERTEX
  8
LAYER_1
 10
60.5356
 20
167.028
  0
VERTEX
  8
LAYER_1
 10
60.5747
 20
166.8325
  0
SEQEND
  0
POLYLINE
  8
LAYER_1
 40
0.1058
 41
0.1058
 66
1
 10
0
 20
0
 30
0
  0
VERTEX
  8
LAYER_1
 10
60.6008
 20
166.7413
  0
VERTEX
  8
LAYER_1
 10
60.6008
 20
166.7544
  0
SEQEND
  0
POLYLINE
  8
LAYER_1
 40
0.1058
 41
0.1058
 66
1
 10
0
 20
0
 30
0
  0
VERTEX
  8
LAYER_1
 10
60.6138
 20
166.6371
  0
VERTEX
  8
LAYER_1
 10
60.666
 20
166.4416
  0
SEQEND
  0
POLYLINE
  8
LAYER_1
 40
0.1058
 41
0.1058
 66
1
 10
0
 20
0
 30
0
  0
VERTEX
  8
LAYER_1
 10
60.679
 20
166.3504
  0
VERTEX
  8
LAYER_1
 10
60.7181
 20
166.1549
  0
SEQEND
  0
POLYLINE
  8
LAYER_1
 40
0.1058
 41
0.1058
 66
1
 10
0
 20
0
 30
0
  0
VERTEX
  8
LAYER_1
 10
60.7441
 20
166.0506
  0
VERTEX
  8
LAYER_1
 10
60.7441
 20
166.0637
  0
SEQEND
  0
POLYLINE
  8
LAYER_1
 40
0.1058
 41
0.1058
 66
1
 10
0
 20
0
 30
0
  0
VERTEX
  8
LAYER_1
 10
60.7702
 20
165.9594
  0
VERTEX
  8
LAYER_1
 10
60.8223
 20
165.7639
  0
SEQEND
  0
POLYLINE
  8
LAYER_1
 40
0.1058
 41
0.1058
 66
1
 10
0
 20
0
 30
0
  0
VERTEX
  8
LAYER_1
 10
60.8484
 20
165.6597
  0
VERTEX
  8
LAYER_1
 10
60.9136
 20
165.4642
  0
SEQEND
  0
POLYLINE
  8
LAYER_1
 40
0.1058
 41
0.1058
 66
1
 10
0
 20
0
 30
0
  0
VERTEX
  8
LAYER_1
 10
60.9396
 20
165.373
  0
VERTEX
  8
LAYER_1
 10
60.9396
 20
165.386
  0
SEQEND
  0
POLYLINE
  8
LAYER_1
 40
0.1058
 41
0.1058
 66
1
 10
0
 20
0
 30
0
  0
VERTEX
  8
LAYER_1
 10
60.9657
 20
165.2818
  0
VERTEX
  8
LAYER_1
 10
60.9787
 20
165.1905
  0
VERTEX
  8
LAYER_1
 10
61.0178
 20
165.0863
  0
SEQEND
  0
POLYLINE
  8
LAYER_1
 40
0.1058
 41
0.1058
 66
1
 10
0
 20
0
 30
0
  0
VERTEX
  8
LAYER_1
 10
61.0439
 20
164.982
  0
VERTEX
  8
LAYER_1
 10
61.109
 20
164.7996
  0
SEQEND
  0
POLYLINE
  8
LAYER_1
 40
0.1058
 41
0.1058
 66
1
 10
0
 20
0
 30
0
  0
VERTEX
  8
LAYER_1
 10
61.1481
 20
164.6953
  0
VERTEX
  8
LAYER_1
 10
61.1481
 20
164.7084
  0
SEQEND
  0
POLYLINE
  8
LAYER_1
 40
0.1058
 41
0.1058
 66
1
 10
0
 20
0
 30
0
  0
VERTEX
  8
LAYER_1
 10
61.1742
 20
164.6041
  0
VERTEX
  8
LAYER_1
 10
61.2393
 20
164.4086
  0
SEQEND
  0
POLYLINE
  8
LAYER_1
 40
0.1058
 41
0.1058
 66
1
 10
0
 20
0
 30
0
  0
VERTEX
  8
LAYER_1
 10
61.2654
 20
164.3174
  0
VERTEX
  8
LAYER_1
 10
61.2784
 20
164.2653
  0
VERTEX
  8
LAYER_1
 10
61.3436
 20
164.1349
  0
SEQEND
  0
POLYLINE
  8
LAYER_1
 40
0.1058
 41
0.1058
 66
1
 10
0
 20
0
 30
0
  0
VERTEX
  8
LAYER_1
 10
61.3696
 20
164.0307
  0
VERTEX
  8
LAYER_1
 10
61.3696
 20
164.0437
  0
SEQEND
  0
POLYLINE
  8
LAYER_1
 40
0.1058
 41
0.1058
 66
1
 10
0
 20
0
 30
0
  0
VERTEX
  8
LAYER_1
 10
61.4087
 20
163.9395
  0
VERTEX
  8
LAYER_1
 10
61.4869
 20
163.757
  0
SEQEND
  0
POLYLINE
  8
LAYER_1
 40
0.1058
 41
0.1058
 66
1
 10
0
 20
0
 30
0
  0
VERTEX
  8
LAYER_1
 10
61.526
 20
163.6658
  0
VERTEX
  8
LAYER_1
 10
61.5912
 20
163.4703
  0
SEQEND
  0
POLYLINE
  8
LAYER_1
 40
0.1058
 41
0.1058
 66
1
 10
0
 20
0
 30
0
  0
VERTEX
  8
LAYER_1
 10
61.6303
 20
163.3791
  0
VERTEX
  8
LAYER_1
 10
61.6303
 20
163.3921
  0
SEQEND
  0
POLYLINE
  8
LAYER_1
 40
0.1058
 41
0.1058
 66
1
 10
0
 20
0
 30
0
  0
VERTEX
  8
LAYER_1
 10
61.6694
 20
163.2879
  0
VERTEX
  8
LAYER_1
 10
61.7476
 20
163.1054
  0
SEQEND
  0
POLYLINE
  8
LAYER_1
 40
0.1058
 41
0.1058
 66
1
 10
0
 20
0
 30
0
  0
VERTEX
  8
LAYER_1
 10
61.7867
 20
163.0142
  0
VERTEX
  8
LAYER_1
 10
61.8779
 20
162.8318
  0
SEQEND
  0
POLYLINE
  8
LAYER_1
 40
0.1058
 41
0.1058
 66
1
 10
0
 20
0
 30
0
  0
VERTEX
  8
LAYER_1
 10
61.917
 20
162.7405
  0
VERTEX
  8
LAYER_1
 10
61.917
 20
162.7536
  0
SEQEND
  0
POLYLINE
  8
LAYER_1
 40
0.1058
 41
0.1058
 66
1
 10
0
 20
0
 30
0
  0
VERTEX
  8
LAYER_1
 10
61.9561
 20
162.6493
  0
VERTEX
  8
LAYER_1
 10
62.0342
 20
162.4669
  0
SEQEND
  0
POLYLINE
  8
LAYER_1
 40
0.1058
 41
0.1058
 66
1
 10
0
 20
0
 30
0
  0
VERTEX
  8
LAYER_1
 10
62.0864
 20
162.3756
  0
VERTEX
  8
LAYER_1
 10
62.1776
 20
162.1932
  0
SEQEND
  0
POLYLINE
  8
LAYER_1
 40
0.1058
 41
0.1058
 66
1
 10
0
 20
0
 30
0
  0
VERTEX
  8
LAYER_1
 10
62.2297
 20
162.102
  0
VERTEX
  8
LAYER_1
 10
62.2297
 20
162.115
  0
SEQEND
  0
POLYLINE
  8
LAYER_1
 40
0.1058
 41
0.1058
 66
1
 10
0
 20
0
 30
0
  0
VERTEX
  8
LAYER_1
 10
62.2688
 20
162.0107
  0
VERTEX
  8
LAYER_1
 10
62.36
 20
161.8413
  0
SEQEND
  0
POLYLINE
  8
LAYER_1
 40
0.1058
 41
0.1058
 66
1
 10
0
 20
0
 30
0
  0
VERTEX
  8
LAYER_1
 10
62.4122
 20
161.7501
  0
VERTEX
  8
LAYER_1
 10
62.4773
 20
161.6068
  0
VERTEX
  8
LAYER_1
 10
62.5034
 20
161.5677
  0
SEQEND
  0
POLYLINE
  8
LAYER_1
 40
0.1058
 41
0.1058
 66
1
 10
0
 20
0
 30
0
  0
VERTEX
  8
LAYER_1
 10
62.5555
 20
161.4895
  0
VERTEX
  8
LAYER_1
 10
62.5555
 20
161.5025
  0
SEQEND
  0
POLYLINE
  8
LAYER_1
 40
0.1058
 41
0.1058
 66
1
 10
0
 20
0
 30
0
  0
VERTEX
  8
LAYER_1
 10
62.6076
 20
161.3982
  0
VERTEX
  8
LAYER_1
 10
62.6988
 20
161.2288
  0
SEQEND
  0
POLYLINE
  8
LAYER_1
 40
0.1058
 41
0.1058
 66
1
 10
0
 20
0
 30
0
  0
VERTEX
  8
LAYER_1
 10
62.751
 20
161.1376
  0
VERTEX
  8
LAYER_1
 10
62.8552
 20
160.9682
  0
SEQEND
  0
POLYLINE
  8
LAYER_1
 40
0.1058
 41
0.1058
 66
1
 10
0
 20
0
 30
0
  0
VERTEX
  8
LAYER_1
 10
62.9074
 20
160.877
  0
VERTEX
  8
LAYER_1
 10
62.9074
 20
160.89
  0
SEQEND
  0
POLYLINE
  8
LAYER_1
 40
0.1058
 41
0.1058
 66
1
 10
0
 20
0
 30
0
  0
VERTEX
  8
LAYER_1
 10
62.9595
 20
160.7857
  0
VERTEX
  8
LAYER_1
 10
62.9725
 20
160.7597
  0
VERTEX
  8
LAYER_1
 10
63.0637
 20
160.6163
  0
SEQEND
  0
POLYLINE
  8
LAYER_1
 40
0.1058
 41
0.1058
 66
1
 10
0
 20
0
 30
0
  0
VERTEX
  8
LAYER_1
 10
63.1159
 20
160.5381
  0
VERTEX
  8
LAYER_1
 10
63.2331
 20
160.3687
  0
SEQEND
  0
POLYLINE
  8
LAYER_1
 40
0.1058
 41
0.1058
 66
1
 10
0
 20
0
 30
0
  0
VERTEX
  8
LAYER_1
 10
63.2853
 20
160.2775
  0
VERTEX
  8
LAYER_1
 10
63.2853
 20
160.2905
  0
SEQEND
  0
POLYLINE
  8
LAYER_1
 40
0.1058
 41
0.1058
 66
1
 10
0
 20
0
 30
0
  0
VERTEX
  8
LAYER_1
 10
63.3374
 20
160.1993
  0
VERTEX
  8
LAYER_1
 10
63.4547
 20
160.0299
  0
SEQEND
  0
POLYLINE
  8
LAYER_1
 40
0.1058
 41
0.1058
 66
1
 10
0
 20
0
 30
0
  0
VERTEX
  8
LAYER_1
 10
63.5068
 20
159.9517
  0
VERTEX
  8
LAYER_1
 10
63.5068
 20
159.9387
  0
VERTEX
  8
LAYER_1
 10
63.6241
 20
159.7823
  0
SEQEND
  0
POLYLINE
  8
LAYER_1
 40
0.1058
 41
0.1058
 66
1
 10
0
 20
0
 30
0
  0
VERTEX
  8
LAYER_1
 10
63.6893
 20
159.7041
  0
VERTEX
  8
LAYER_1
 10
63.6893
 20
159.7171
  0
SEQEND
  0
POLYLINE
  8
LAYER_1
 40
0.1058
 41
0.1058
 66
1
 10
0
 20
0
 30
0
  0
VERTEX
  8
LAYER_1
 10
63.7414
 20
159.6259
  0
VERTEX
  8
LAYER_1
 10
63.8587
 20
159.4565
  0
SEQEND
  0
POLYLINE
  8
LAYER_1
 40
0.1058
 41
0.1058
 66
1
 10
0
 20
0
 30
0
  0
VERTEX
  8
LAYER_1
 10
63.9239
 20
159.3783
  0
VERTEX
  8
LAYER_1
 10
64.0411
 20
159.2219
  0
SEQEND
  0
POLYLINE
  8
LAYER_1
 40
0.1058
 41
0.1058
 66
1
 10
0
 20
0
 30
0
  0
VERTEX
  8
LAYER_1
 10
64.1063
 20
159.1437
  0
VERTEX
  8
LAYER_1
 10
64.1063
 20
159.1567
  0
SEQEND
  0
POLYLINE
  8
LAYER_1
 40
0.1058
 41
0.1058
 66
1
 10
0
 20
0
 30
0
  0
VERTEX
  8
LAYER_1
 10
64.1715
 20
159.0655
  0
VERTEX
  8
LAYER_1
 10
64.3018
 20
158.9091
  0
SEQEND
  0
POLYLINE
  8
LAYER_1
 40
0.1058
 41
0.1058
 66
1
 10
0
 20
0
 30
0
  0
VERTEX
  8
LAYER_1
 10
64.3539
 20
158.8309
  0
VERTEX
  8
LAYER_1
 10
64.4842
 20
158.6746
  0
SEQEND
  0
POLYLINE
  8
LAYER_1
 40
0.1058
 41
0.1058
 66
1
 10
0
 20
0
 30
0
  0
VERTEX
  8
LAYER_1
 10
64.5494
 20
158.5964
  0
VERTEX
  8
LAYER_1
 10
64.5494
 20
158.6094
  0
SEQEND
  0
POLYLINE
  8
LAYER_1
 40
0.1058
 41
0.1058
 66
1
 10
0
 20
0
 30
0
  0
VERTEX
  8
LAYER_1
 10
64.6146
 20
158.5182
  0
VERTEX
  8
LAYER_1
 10
64.7058
 20
158.4009
  0
VERTEX
  8
LAYER_1
 10
64.7449
 20
158.3618
  0
SEQEND
  0
POLYLINE
  8
LAYER_1
 40
0.1058
 41
0.1058
 66
1
 10
0
 20
0
 30
0
  0
VERTEX
  8
LAYER_1
 10
64.81
 20
158.2836
  0
VERTEX
  8
LAYER_1
 10
64.9404
 20
158.1403
  0
SEQEND
  0
POLYLINE
  8
LAYER_1
 40
0.1058
 41
0.1058
 66
1
 10
0
 20
0
 30
0
  0
VERTEX
  8
LAYER_1
 10
65.0186
 20
158.0621
  0
VERTEX
  8
LAYER_1
 10
65.0186
 20
158.0751
  0
SEQEND
  0
POLYLINE
  8
LAYER_1
 40
0.1058
 41
0.1058
 66
1
 10
0
 20
0
 30
0
  0
VERTEX
  8
LAYER_1
 10
65.0837
 20
157.9969
  0
VERTEX
  8
LAYER_1
 10
65.214
 20
157.8405
  0
SEQEND
  0
POLYLINE
  8
LAYER_1
 40
0.1058
 41
0.1058
 66
1
 10
0
 20
0
 30
0
  0
VERTEX
  8
LAYER_1
 10
65.2792
 20
157.7623
  0
VERTEX
  8
LAYER_1
 10
65.4225
 20
157.619
  0
SEQEND
  0
POLYLINE
  8
LAYER_1
 40
0.1058
 41
0.1058
 66
1
 10
0
 20
0
 30
0
  0
VERTEX
  8
LAYER_1
 10
65.5007
 20
157.5538
  0
VERTEX
  8
LAYER_1
 10
65.5007
 20
157.5668
  0
SEQEND
  0
POLYLINE
  8
LAYER_1
 40
0.1058
 41
0.1058
 66
1
 10
0
 20
0
 30
0
  0
VERTEX
  8
LAYER_1
 10
65.5659
 20
157.4756
  0
VERTEX
  8
LAYER_1
 10
65.7092
 20
157.3453
  0
SEQEND
  0
POLYLINE
  8
LAYER_1
 40
0.1058
 41
0.1058
 66
1
 10
0
 20
0
 30
0
  0
VERTEX
  8
LAYER_1
 10
65.7874
 20
157.2671
  0
VERTEX
  8
LAYER_1
 10
65.9308
 20
157.1238
  0
SEQEND
  0
POLYLINE
  8
LAYER_1
 40
0.1058
 41
0.1058
 66
1
 10
0
 20
0
 30
0
  0
VERTEX
  8
LAYER_1
 10
65.996
 20
157.0586
  0
VERTEX
  8
LAYER_1
 10
65.996
 20
157.0716
  0
SEQEND
  0
POLYLINE
  8
LAYER_1
 40
0.1058
 41
0.1058
 66
1
 10
0
 20
0
 30
0
  0
VERTEX
  8
LAYER_1
 10
66.0741
 20
156.9934
  0
VERTEX
  8
LAYER_1
 10
66.2175
 20
156.8501
  0
SEQEND
  0
POLYLINE
  8
LAYER_1
 40
0.1058
 41
0.1058
 66
1
 10
0
 20
0
 30
0
  0
VERTEX
  8
LAYER_1
 10
66.2957
 20
156.7849
  0
VERTEX
  8
LAYER_1
 10
66.439
 20
156.6546
  0
SEQEND
  0
POLYLINE
  8
LAYER_1
 40
0.1058
 41
0.1058
 66
1
 10
0
 20
0
 30
0
  0
VERTEX
  8
LAYER_1
 10
66.5172
 20
156.5894
  0
VERTEX
  8
LAYER_1
 10
66.5172
 20
156.6025
  0
SEQEND
  0
POLYLINE
  8
LAYER_1
 40
0.1058
 41
0.1058
 66
1
 10
0
 20
0
 30
0
  0
VERTEX
  8
LAYER_1
 10
66.5954
 20
156.5243
  0
VERTEX
  8
LAYER_1
 10
66.7388
 20
156.3809
  0
SEQEND
  0
POLYLINE
  8
LAYER_1
 40
0.1058
 41
0.1058
 66
1
 10
0
 20
0
 30
0
  0
VERTEX
  8
LAYER_1
 10
66.817
 20
156.3158
  0
VERTEX
  8
LAYER_1
 10
66.9734
 20
156.1985
  0
SEQEND
  0
POLYLINE
  8
LAYER_1
 40
0.1058
 41
0.1058
 66
1
 10
0
 20
0
 30
0
  0
VERTEX
  8
LAYER_1
 10
67.0516
 20
156.1333
  0
VERTEX
  8
LAYER_1
 10
67.0516
 20
156.1463
  0
SEQEND
  0
POLYLINE
  8
LAYER_1
 40
0.1058
 41
0.1058
 66
1
 10
0
 20
0
 30
0
  0
VERTEX
  8
LAYER_1
 10
67.1297
 20
156.0682
  0
VERTEX
  8
LAYER_1
 10
67.2992
 20
155.9509
  0
SEQEND
  0
POLYLINE
  8
LAYER_1
 40
0.1058
 41
0.1058
 66
1
 10
0
 20
0
 30
0
  0
VERTEX
  8
LAYER_1
 10
67.3774
 20
155.8857
  0
VERTEX
  8
LAYER_1
 10
67.5337
 20
155.7554
  0
SEQEND
  0
POLYLINE
  8
LAYER_1
 40
0.1058
 41
0.1058
 66
1
 10
0
 20
0
 30
0
  0
VERTEX
  8
LAYER_1
 10
67.6119
 20
155.7032
  0
VERTEX
  8
LAYER_1
 10
67.6119
 20
155.7163
  0
SEQEND
  0
POLYLINE
  8
LAYER_1
 40
0.1058
 41
0.1058
 66
1
 10
0
 20
0
 30
0
  0
VERTEX
  8
LAYER_1
 10
67.6901
 20
155.6381
  0
VERTEX
  8
LAYER_1
 10
67.8595
 20
155.5208
  0
SEQEND
  0
POLYLINE
  8
LAYER_1
 40
0.1058
 41
0.1058
 66
1
 10
0
 20
0
 30
0
  0
VERTEX
  8
LAYER_1
 10
67.9377
 20
155.4687
  0
VERTEX
  8
LAYER_1
 10
68.1071
 20
155.3514
  0
SEQEND
  0
POLYLINE
  8
LAYER_1
 40
0.1058
 41
0.1058
 66
1
 10
0
 20
0
 30
0
  0
VERTEX
  8
LAYER_1
 10
68.1853
 20
155.2862
  0
VERTEX
  8
LAYER_1
 10
68.1853
 20
155.2992
  0
SEQEND
  0
POLYLINE
  8
LAYER_1
 40
0.1058
 41
0.1058
 66
1
 10
0
 20
0
 30
0
  0
VERTEX
  8
LAYER_1
 10
68.2635
 20
155.2341
  0
VERTEX
  8
LAYER_1
 10
68.3417
 20
155.1689
  0
VERTEX
  8
LAYER_1
 10
68.4329
 20
155.1168
  0
SEQEND
  0
POLYLINE
  8
LAYER_1
 40
0.1058
 41
0.1058
 66
1
 10
0
 20
0
 30
0
  0
VERTEX
  8
LAYER_1
 10
68.5111
 20
155.0647
  0
VERTEX
  8
LAYER_1
 10
68.6806
 20
154.9604
  0
SEQEND
  0
POLYLINE
  8
LAYER_1
 40
0.1058
 41
0.1058
 66
1
 10
0
 20
0
 30
0
  0
VERTEX
  8
LAYER_1
 10
68.7718
 20
154.9083
  0
VERTEX
  8
LAYER_1
 10
68.7718
 20
154.9213
  0
SEQEND
  0
POLYLINE
  8
LAYER_1
 40
0.1058
 41
0.1058
 66
1
 10
0
 20
0
 30
0
  0
VERTEX
  8
LAYER_1
 10
68.85
 20
154.8431
  0
VERTEX
  8
LAYER_1
 10
69.0194
 20
154.7389
  0
SEQEND
  0
POLYLINE
  8
LAYER_1
 40
0.1058
 41
0.1058
 66
1
 10
0
 20
0
 30
0
  0
VERTEX
  8
LAYER_1
 10
69.1106
 20
154.6868
  0
VERTEX
  8
LAYER_1
 10
69.1627
 20
154.6477
  0
VERTEX
  8
LAYER_1
 10
69.28
 20
154.5825
  0
SEQEND
  0
POLYLINE
  8
LAYER_1
 40
0.1058
 41
0.1058
 66
1
 10
0
 20
0
 30
0
  0
VERTEX
  8
LAYER_1
 10
69.3712
 20
154.5304
  0
VERTEX
  8
LAYER_1
 10
69.3712
 20
154.5434
  0
SEQEND
  0
POLYLINE
  8
LAYER_1
 40
0.1058
 41
0.1058
 66
1
 10
0
 20
0
 30
0
  0
VERTEX
  8
LAYER_1
 10
69.4625
 20
154.4913
  0
VERTEX
  8
LAYER_1
 10
69.6319
 20
154.387
  0
SEQEND
  0
POLYLINE
  8
LAYER_1
 40
0.1058
 41
0.1058
 66
1
 10
0
 20
0
 30
0
  0
VERTEX
  8
LAYER_1
 10
69.7231
 20
154.3349
  0
VERTEX
  8
LAYER_1
 10
69.8925
 20
154.2437
  0
SEQEND
  0
POLYLINE
  8
LAYER_1
 40
0.1058
 41
0.1058
 66
1
 10
0
 20
0
 30
0
  0
VERTEX
  8
LAYER_1
 10
69.9837
 20
154.1916
  0
VERTEX
  8
LAYER_1
 10
69.9837
 20
154.2046
  0
SEQEND
  0
POLYLINE
  8
LAYER_1
 40
0.1058
 41
0.1058
 66
1
 10
0
 20
0
 30
0
  0
VERTEX
  8
LAYER_1
 10
70.075
 20
154.1394
  0
VERTEX
  8
LAYER_1
 10
70.2574
 20
154.0482
  0
SEQEND
  0
POLYLINE
  8
LAYER_1
 40
0.1058
 41
0.1058
 66
1
 10
0
 20
0
 30
0
  0
VERTEX
  8
LAYER_1
 10
70.3356
 20
154.0091
  0
VERTEX
  8
LAYER_1
 10
70.5181
 20
153.9179
  0
SEQEND
  0
POLYLINE
  8
LAYER_1
 40
0.1058
 41
0.1058
 66
1
 10
0
 20
0
 30
0
  0
VERTEX
  8
LAYER_1
 10
70.6093
 20
153.8788
  0
VERTEX
  8
LAYER_1
 10
70.6093
 20
153.8918
  0
SEQEND
  0
POLYLINE
  8
LAYER_1
 40
0.1058
 41
0.1058
 66
1
 10
0
 20
0
 30
0
  0
VERTEX
  8
LAYER_1
 10
70.7005
 20
153.8267
  0
VERTEX
  8
LAYER_1
 10
70.883
 20
153.7355
  0
SEQEND
  0
POLYLINE
  8
LAYER_1
 40
0.1058
 41
0.1058
 66
1
 10
0
 20
0
 30
0
  0
VERTEX
  8
LAYER_1
 10
70.9742
 20
153.6964
  0
VERTEX
  8
LAYER_1
 10
71.1566
 20
153.6182
  0
SEQEND
  0
POLYLINE
  8
LAYER_1
 40
0.1058
 41
0.1058
 66
1
 10
0
 20
0
 30
0
  0
VERTEX
  8
LAYER_1
 10
71.2478
 20
153.5791
  0
VERTEX
  8
LAYER_1
 10
71.2478
 20
153.5921
  0
SEQEND
  0
POLYLINE
  8
LAYER_1
 40
0.1058
 41
0.1058
 66
1
 10
0
 20
0
 30
0
  0
VERTEX
  8
LAYER_1
 10
71.3391
 20
153.54
  0
VERTEX
  8
LAYER_1
 10
71.5215
 20
153.4618
  0
SEQEND
  0
POLYLINE
  8
LAYER_1
 40
0.1058
 41
0.1058
 66
1
 10
0
 20
0
 30
0
  0
VERTEX
  8
LAYER_1
 10
71.6127
 20
153.4227
  0
VERTEX
  8
LAYER_1
 10
71.7822
 20
153.3445
  0
VERTEX
  8
LAYER_1
 10
71.8082
 20
153.3445
  0
SEQEND
  0
POLYLINE
  8
LAYER_1
 40
0.1058
 41
0.1058
 66
1
 10
0
 20
0
 30
0
  0
VERTEX
  8
LAYER_1
 10
71.8994
 20
153.3054
  0
VERTEX
  8
LAYER_1
 10
71.8994
 20
153.3185
  0
SEQEND
  0
POLYLINE
  8
LAYER_1
 40
0.1058
 41
0.1058
 66
1
 10
0
 20
0
 30
0
  0
VERTEX
  8
LAYER_1
 10
71.9907
 20
153.2663
  0
VERTEX
  8
LAYER_1
 10
72.1861
 20
153.2012
  0
SEQEND
  0
POLYLINE
  8
LAYER_1
 40
0.1058
 41
0.1058
 66
1
 10
0
 20
0
 30
0
  0
VERTEX
  8
LAYER_1
 10
72.2774
 20
153.1621
  0
VERTEX
  8
LAYER_1
 10
72.4598
 20
153.0969
  0
SEQEND
  0
POLYLINE
  8
LAYER_1
 40
0.1058
 41
0.1058
 66
1
 10
0
 20
0
 30
0
  0
VERTEX
  8
LAYER_1
 10
72.551
 20
153.0578
  0
VERTEX
  8
LAYER_1
 10
72.551
 20
153.0709
  0
SEQEND
  0
POLYLINE
  8
LAYER_1
 40
0.1058
 41
0.1058
 66
1
 10
0
 20
0
 30
0
  0
VERTEX
  8
LAYER_1
 10
72.6553
 20
153.0187
  0
VERTEX
  8
LAYER_1
 10
72.6944
 20
153.0057
  0
VERTEX
  8
LAYER_1
 10
72.8377
 20
152.9666
  0
SEQEND
  0
POLYLINE
  8
LAYER_1
 40
0.1058
 41
0.1058
 66
1
 10
0
 20
0
 30
0
  0
VERTEX
  8
LAYER_1
 10
72.942
 20
152.9275
  0
VERTEX
  8
LAYER_1
 10
73.1244
 20
152.8754
  0
SEQEND
  0
POLYLINE
  8
LAYER_1
 40
0.1058
 41
0.1058
 66
1
 10
0
 20
0
 30
0
  0
VERTEX
  8
LAYER_1
 10
73.2287
 20
152.8363
  0
VERTEX
  8
LAYER_1
 10
73.2287
 20
152.8493
  0
SEQEND
  0
POLYLINE
  8
LAYER_1
 40
0.1058
 41
0.1058
 66
1
 10
0
 20
0
 30
0
  0
VERTEX
  8
LAYER_1
 10
73.3199
 20
152.8102
  0
VERTEX
  8
LAYER_1
 10
73.5154
 20
152.7451
  0
SEQEND
  0
POLYLINE
  8
LAYER_1
 40
0.1058
 41
0.1058
 66
1
 10
0
 20
0
 30
0
  0
VERTEX
  8
LAYER_1
 10
73.6066
 20
152.719
  0
VERTEX
  8
LAYER_1
 10
73.6327
 20
152.719
  0
VERTEX
  8
LAYER_1
 10
73.8021
 20
152.6669
  0
SEQEND
  0
POLYLINE
  8
LAYER_1
 40
0.1058
 41
0.1058
 66
1
 10
0
 20
0
 30
0
  0
VERTEX
  8
LAYER_1
 10
73.9063
 20
152.6408
  0
VERTEX
  8
LAYER_1
 10
73.9063
 20
152.6539
  0
SEQEND
  0
POLYLINE
  8
LAYER_1
 40
0.1058
 41
0.1058
 66
1
 10
0
 20
0
 30
0
  0
VERTEX
  8
LAYER_1
 10
73.9976
 20
152.6148
  0
VERTEX
  8
LAYER_1
 10
74.1931
 20
152.5757
  0
SEQEND
  0
POLYLINE
  8
LAYER_1
 40
0.1058
 41
0.1058
 66
1
 10
0
 20
0
 30
0
  0
VERTEX
  8
LAYER_1
 10
74.2973
 20
152.5496
  0
VERTEX
  8
LAYER_1
 10
74.4798
 20
152.4975
  0
SEQEND
  0
POLYLINE
  8
LAYER_1
 40
0.1058
 41
0.1058
 66
1
 10
0
 20
0
 30
0
  0
VERTEX
  8
LAYER_1
 10
74.584
 20
152.4714
  0
VERTEX
  8
LAYER_1
 10
74.584
 20
152.4845
  0
SEQEND
  0
POLYLINE
  8
LAYER_1
 40
0.1058
 41
0.1058
 66
1
 10
0
 20
0
 30
0
  0
VERTEX
  8
LAYER_1
 10
74.6883
 20
152.4454
  0
VERTEX
  8
LAYER_1
 10
74.8837
 20
152.4063
  0
SEQEND
  0
POLYLINE
  8
LAYER_1
 40
0.1058
 41
0.1058
 66
1
 10
0
 20
0
 30
0
  0
VERTEX
  8
LAYER_1
 10
74.975
 20
152.3932
  0
VERTEX
  8
LAYER_1
 10
75.1704
 20
152.3541
  0
SEQEND
  0
POLYLINE
  8
LAYER_1
 40
0.1058
 41
0.1058
 66
1
 10
0
 20
0
 30
0
  0
VERTEX
  8
LAYER_1
 10
75.2747
 20
152.3281
  0
VERTEX
  8
LAYER_1
 10
75.2747
 20
152.3411
  0
SEQEND
  0
POLYLINE
  8
LAYER_1
 40
0.1058
 41
0.1058
 66
1
 10
0
 20
0
 30
0
  0
VERTEX
  8
LAYER_1
 10
75.3659
 20
152.315
  0
VERTEX
  8
LAYER_1
 10
75.5353
 20
152.276
  0
VERTEX
  8
LAYER_1
 10
75.5744
 20
152.276
  0
SEQEND
  0
POLYLINE
  8
LAYER_1
 40
0.1058
 41
0.1058
 66
1
 10
0
 20
0
 30
0
  0
VERTEX
  8
LAYER_1
 10
75.6657
 20
152.2629
  0
VERTEX
  8
LAYER_1
 10
75.8742
 20
152.2369
  0
SEQEND
  0
POLYLINE
  8
LAYER_1
 40
0.1058
 41
0.1058
 66
1
 10
0
 20
0
 30
0
  0
VERTEX
  8
LAYER_1
 10
75.9654
 20
152.2108
  0
VERTEX
  8
LAYER_1
 10
75.9654
 20
152.2238
  0
SEQEND
  0
POLYLINE
  8
LAYER_1
 40
0.1058
 41
0.1058
 66
1
 10
0
 20
0
 30
0
  0
VERTEX
  8
LAYER_1
 10
76.0696
 20
152.1978
  0
VERTEX
  8
LAYER_1
 10
76.2651
 20
152.1717
  0
SEQEND
  0
POLYLINE
  8
LAYER_1
 40
0.1058
 41
0.1058
 66
1
 10
0
 20
0
 30
0
  0
VERTEX
  8
LAYER_1
 10
76.3694
 20
152.1587
  0
VERTEX
  8
LAYER_1
 10
76.4997
 20
152.1456
  0
VERTEX
  8
LAYER_1
 10
76.5649
 20
152.1326
  0
SEQEND
  0
POLYLINE
  8
LAYER_1
 40
0.1058
 41
0.1058
 66
1
 10
0
 20
0
 30
0
  0
VERTEX
  8
LAYER_1
 10
76.6691
 20
152.1196
  0
VERTEX
  8
LAYER_1
 10
76.6691
 20
152.1326
  0
SEQEND
  0
POLYLINE
  8
LAYER_1
 40
0.1058
 41
0.1058
 66
1
 10
0
 20
0
 30
0
  0
VERTEX
  8
LAYER_1
 10
76.7603
 20
152.1196
  0
VERTEX
  8
LAYER_1
 10
76.9688
 20
152.0935
  0
SEQEND
  0
POLYLINE
  8
LAYER_1
 40
0.1058
 41
0.1058
 66
1
 10
0
 20
0
 30
0
  0
VERTEX
  8
LAYER_1
 10
77.0601
 20
152.0805
  0
VERTEX
  8
LAYER_1
 10
77.2686
 20
152.0675
  0
SEQEND
  0
POLYLINE
  8
LAYER_1
 40
0.1058
 41
0.1058
 66
1
 10
0
 20
0
 30
0
  0
VERTEX
  8
LAYER_1
 10
77.3598
 20
152.0544
  0
VERTEX
  8
LAYER_1
 10
77.3598
 20
152.0675
  0
SEQEND
  0
POLYLINE
  8
LAYER_1
 40
0.1058
 41
0.1058
 66
1
 10
0
 20
0
 30
0
  0
VERTEX
  8
LAYER_1
 10
77.464
 20
152.0544
  0
VERTEX
  8
LAYER_1
 10
77.6726
 20
152.0414
  0
SEQEND
  0
POLYLINE
  8
LAYER_1
 40
0.1058
 41
0.1058
 66
1
 10
0
 20
0
 30
0
  0
VERTEX
  8
LAYER_1
 10
77.7638
 20
152.0414
  0
VERTEX
  8
LAYER_1
 10
77.9723
 20
152.0284
  0
SEQEND
  0
POLYLINE
  8
LAYER_1
 40
0.1058
 41
0.1058
 66
1
 10
0
 20
0
 30
0
  0
VERTEX
  8
LAYER_1
 10
78.0635
 20
152.0284
  0
VERTEX
  8
LAYER_1
 10
78.0635
 20
152.0414
  0
SEQEND
  0
POLYLINE
  8
LAYER_1
 40
0.1058
 41
0.1058
 66
1
 10
0
 20
0
 30
0
  0
VERTEX
  8
LAYER_1
 10
78.1678
 20
152.0153
  0
VERTEX
  8
LAYER_1
 10
78.3633
 20
152.0153
  0
SEQEND
  0
POLYLINE
  8
LAYER_1
 40
0.1058
 41
0.1058
 66
1
 10
0
 20
0
 30
0
  0
VERTEX
  8
LAYER_1
 10
78.4675
 20
152.0153
  0
VERTEX
  8
LAYER_1
 10
78.676
 20
152.0153
  0
SEQEND
  0
POLYLINE
  8
LAYER_1
 40
0.1058
 41
0.1058
 66
1
 10
0
 20
0
 30
0
  0
VERTEX
  8
LAYER_1
 10
78.7672
 20
152.0153
  0
VERTEX
  8
LAYER_1
 10
78.7672
 20
152.0284
  0
SEQEND
  0
POLYLINE
  8
LAYER_1
 40
0.1058
 41
0.1058
 66
1
 10
0
 20
0
 30
0
  0
VERTEX
  8
LAYER_1
 10
78.8715
 20
152.0153
  0
VERTEX
  8
LAYER_1
 10
79.067
 20
152.0153
  0
SEQEND
  0
POLYLINE
  8
LAYER_1
 40
0.1058
 41
0.1058
 66
1
 10
0
 20
0
 30
0
  0
VERTEX
  8
LAYER_1
 10
79.1712
 20
152.0153
  0
VERTEX
  8
LAYER_1
 10
79.3797
 20
152.0284
  0
SEQEND
  0
POLYLINE
  8
LAYER_1
 40
0.1058
 41
0.1058
 66
1
 10
0
 20
0
 30
0
  0
VERTEX
  8
LAYER_1
 10
79.471
 20
152.0284
  0
VERTEX
  8
LAYER_1
 10
79.471
 20
152.0414
  0
SEQEND
  0
POLYLINE
  8
LAYER_1
 40
0.1058
 41
0.1058
 66
1
 10
0
 20
0
 30
0
  0
VERTEX
  8
LAYER_1
 10
79.5752
 20
152.0284
  0
VERTEX
  8
LAYER_1
 10
79.7707
 20
152.0414
  0
SEQEND
  0
POLYLINE
  8
LAYER_1
 40
0.1058
 41
0.1058
 66
1
 10
0
 20
0
 30
0
  0
VERTEX
  8
LAYER_1
 10
79.8749
 20
152.0544
  0
VERTEX
  8
LAYER_1
 10
80.0704
 20
152.0675
  0
SEQEND
  0
POLYLINE
  8
LAYER_1
 40
0.1058
 41
0.1058
 66
1
 10
0
 20
0
 30
0
  0
VERTEX
  8
LAYER_1
 10
80.1747
 20
152.0675
  0
VERTEX
  8
LAYER_1
 10
80.1747
 20
152.0805
  0
SEQEND
  0
POLYLINE
  8
LAYER_1
 40
0.1058
 41
0.1058
 66
1
 10
0
 20
0
 30
0
  0
VERTEX
  8
LAYER_1
 10
80.2789
 20
152.0805
  0
VERTEX
  8
LAYER_1
 10
80.3962
 20
152.0935
  0
VERTEX
  8
LAYER_1
 10
80.4744
 20
152.0935
  0
SEQEND
  0
POLYLINE
  8
LAYER_1
 40
0.1058
 41
0.1058
 66
1
 10
0
 20
0
 30
0
  0
VERTEX
  8
LAYER_1
 10
80.5787
 20
152.1065
  0
VERTEX
  8
LAYER_1
 10
80.7741
 20
152.1326
  0
SEQEND
  0
POLYLINE
  8
LAYER_1
 40
0.1058
 41
0.1058
 66
1
 10
0
 20
0
 30
0
  0
VERTEX
  8
LAYER_1
 10
80.8784
 20
152.1456
  0
VERTEX
  8
LAYER_1
 10
80.8784
 20
152.1587
  0
SEQEND
  0
POLYLINE
  8
LAYER_1
 40
0.1058
 41
0.1058
 66
1
 10
0
 20
0
 30
0
  0
VERTEX
  8
LAYER_1
 10
80.9827
 20
152.1587
  0
VERTEX
  8
LAYER_1
 10
81.1781
 20
152.1847
  0
SEQEND
  0
POLYLINE
  8
LAYER_1
 40
0.1058
 41
0.1058
 66
1
 10
0
 20
0
 30
0
  0
VERTEX
  8
LAYER_1
 10
81.2824
 20
152.1978
  0
VERTEX
  8
LAYER_1
 10
81.3606
 20
152.1978
  0
VERTEX
  8
LAYER_1
 10
81.4779
 20
152.2238
  0
SEQEND
  0
POLYLINE
  8
LAYER_1
 40
0.1058
 41
0.1058
 66
1
 10
0
 20
0
 30
0
  0
VERTEX
  8
LAYER_1
 10
81.5691
 20
152.2369
  0
VERTEX
  8
LAYER_1
 10
81.5691
 20
152.2499
  0
SEQEND
  0
POLYLINE
  8
LAYER_1
 40
0.1058
 41
0.1058
 66
1
 10
0
 20
0
 30
0
  0
VERTEX
  8
LAYER_1
 10
81.6733
 20
152.2629
  0
VERTEX
  8
LAYER_1
 10
81.8688
 20
152.289
  0
SEQEND
  0
POLYLINE
  8
LAYER_1
 40
0.1058
 41
0.1058
 66
1
 10
0
 20
0
 30
0
  0
VERTEX
  8
LAYER_1
 10
81.9731
 20
152.315
  0
VERTEX
  8
LAYER_1
 10
82.1686
 20
152.3411
  0
SEQEND
  0
POLYLINE
  8
LAYER_1
 40
0.1058
 41
0.1058
 66
1
 10
0
 20
0
 30
0
  0
VERTEX
  8
LAYER_1
 10
82.2728
 20
152.3672
  0
VERTEX
  8
LAYER_1
 10
82.2728
 20
152.3802
  0
SEQEND
  0
POLYLINE
  8
LAYER_1
 40
0.1058
 41
0.1058
 66
1
 10
0
 20
0
 30
0
  0
VERTEX
  8
LAYER_1
 10
82.364
 20
152.3802
  0
VERTEX
  8
LAYER_1
 10
82.5595
 20
152.4193
  0
SEQEND
  0
POLYLINE
  8
LAYER_1
 40
0.1058
 41
0.1058
 66
1
 10
0
 20
0
 30
0
  0
VERTEX
  8
LAYER_1
 10
82.6638
 20
152.4454
  0
VERTEX
  8
LAYER_1
 10
82.8592
 20
152.4975
  0
SEQEND
  0
POLYLINE
  8
LAYER_1
 40
0.1058
 41
0.1058
 66
1
 10
0
 20
0
 30
0
  0
VERTEX
  8
LAYER_1
 10
82.9505
 20
152.5105
  0
VERTEX
  8
LAYER_1
 10
82.9505
 20
152.5235
  0
SEQEND
  0
POLYLINE
  8
LAYER_1
 40
0.1058
 41
0.1058
 66
1
 10
0
 20
0
 30
0
  0
VERTEX
  8
LAYER_1
 10
83.0547
 20
152.5366
  0
VERTEX
  8
LAYER_1
 10
83.2502
 20
152.5757
  0
SEQEND
  0
POLYLINE
  8
LAYER_1
 40
0.1058
 41
0.1058
 66
1
 10
0
 20
0
 30
0
  0
VERTEX
  8
LAYER_1
 10
83.3414
 20
152.6017
  0
VERTEX
  8
LAYER_1
 10
83.5369
 20
152.6669
  0
SEQEND
  0
POLYLINE
  8
LAYER_1
 40
0.1058
 41
0.1058
 66
1
 10
0
 20
0
 30
0
  0
VERTEX
  8
LAYER_1
 10
83.6412
 20
152.693
  0
VERTEX
  8
LAYER_1
 10
83.6412
 20
152.706
  0
SEQEND
  0
POLYLINE
  8
LAYER_1
 40
0.1058
 41
0.1058
 66
1
 10
0
 20
0
 30
0
  0
VERTEX
  8
LAYER_1
 10
83.7324
 20
152.719
  0
VERTEX
  8
LAYER_1
 10
83.9279
 20
152.7711
  0
SEQEND
  0
POLYLINE
  8
LAYER_1
 40
0.1058
 41
0.1058
 66
1
 10
0
 20
0
 30
0
  0
VERTEX
  8
LAYER_1
 10
84.0191
 20
152.7972
  0
VERTEX
  8
LAYER_1
 10
84.2146
 20
152.8493
  0
SEQEND
  0
POLYLINE
  8
LAYER_1
 40
0.1058
 41
0.1058
 66
1
 10
0
 20
0
 30
0
  0
VERTEX
  8
LAYER_1
 10
84.3058
 20
152.8884
  0
VERTEX
  8
LAYER_1
 10
84.3058
 20
152.9015
  0
SEQEND
  0
POLYLINE
  8
LAYER_1
 40
0.1058
 41
0.1058
 66
1
 10
0
 20
0
 30
0
  0
VERTEX
  8
LAYER_1
 10
84.41
 20
152.9145
  0
VERTEX
  8
LAYER_1
 10
84.5925
 20
152.9796
  0
SEQEND
  0
POLYLINE
  8
LAYER_1
 40
0.1058
 41
0.1058
 66
1
 10
0
 20
0
 30
0
  0
VERTEX
  8
LAYER_1
 10
84.6967
 20
153.0187
  0
VERTEX
  8
LAYER_1
 10
84.8792
 20
153.0839
  0
SEQEND
  0
POLYLINE
  8
LAYER_1
 40
0.1058
 41
0.1058
 66
1
 10
0
 20
0
 30
0
  0
VERTEX
  8
LAYER_1
 10
84.9704
 20
153.11
  0
VERTEX
  8
LAYER_1
 10
84.9704
 20
153.123
  0
SEQEND
  0
POLYLINE
  8
LAYER_1
 40
0.1058
 41
0.1058
 66
1
 10
0
 20
0
 30
0
  0
VERTEX
  8
LAYER_1
 10
85.0747
 20
153.1491
  0
VERTEX
  8
LAYER_1
 10
85.1268
 20
153.1751
  0
VERTEX
  8
LAYER_1
 10
85.2571
 20
153.2272
  0
SEQEND
  0
POLYLINE
  8
LAYER_1
 40
0.1058
 41
0.1058
 66
1
 10
0
 20
0
 30
0
  0
VERTEX
  8
LAYER_1
 10
85.3483
 20
153.2533
  0
VERTEX
  8
LAYER_1
 10
85.5438
 20
153.3315
  0
SEQEND
  0
POLYLINE
  8
LAYER_1
 40
0.1058
 41
0.1058
 66
1
 10
0
 20
0
 30
0
  0
VERTEX
  8
LAYER_1
 10
85.635
 20
153.3706
  0
VERTEX
  8
LAYER_1
 10
85.635
 20
153.3836
  0
SEQEND
  0
POLYLINE
  8
LAYER_1
 40
0.1058
 41
0.1058
 66
1
 10
0
 20
0
 30
0
  0
VERTEX
  8
LAYER_1
 10
85.7263
 20
153.4097
  0
VERTEX
  8
LAYER_1
 10
85.9087
 20
153.4879
  0
SEQEND
  0
POLYLINE
  8
LAYER_1
 40
0.1058
 41
0.1058
 66
1
 10
0
 20
0
 30
0
  0
VERTEX
  8
LAYER_1
 10
85.9999
 20
153.527
  0
VERTEX
  8
LAYER_1
 10
86.039
 20
153.54
  0
VERTEX
  8
LAYER_1
 10
86.1824
 20
153.6052
  0
SEQEND
  0
POLYLINE
  8
LAYER_1
 40
0.1058
 41
0.1058
 66
1
 10
0
 20
0
 30
0
  0
VERTEX
  8
LAYER_1
 10
86.2736
 20
153.6442
  0
VERTEX
  8
LAYER_1
 10
86.2736
 20
153.6573
  0
SEQEND
  0
POLYLINE
  8
LAYER_1
 40
0.1058
 41
0.1058
 66
1
 10
0
 20
0
 30
0
  0
VERTEX
  8
LAYER_1
 10
86.3648
 20
153.6833
  0
VERTEX
  8
LAYER_1
 10
86.5473
 20
153.7746
  0
SEQEND
  0
POLYLINE
  8
LAYER_1
 40
0.1058
 41
0.1058
 66
1
 10
0
 20
0
 30
0
  0
VERTEX
  8
LAYER_1
 10
86.6385
 20
153.8137
  0
VERTEX
  8
LAYER_1
 10
86.8209
 20
153.9049
  0
SEQEND
  0
POLYLINE
  8
LAYER_1
 40
0.1058
 41
0.1058
 66
1
 10
0
 20
0
 30
0
  0
VERTEX
  8
LAYER_1
 10
86.9122
 20
153.944
  0
VERTEX
  8
LAYER_1
 10
86.9122
 20
153.957
  0
SEQEND
  0
POLYLINE
  8
LAYER_1
 40
0.1058
 41
0.1058
 66
1
 10
0
 20
0
 30
0
  0
VERTEX
  8
LAYER_1
 10
87.0034
 20
153.9961
  0
VERTEX
  8
LAYER_1
 10
87.1858
 20
154.0873
  0
SEQEND
  0
POLYLINE
  8
LAYER_1
 40
0.1058
 41
0.1058
 66
1
 10
0
 20
0
 30
0
  0
VERTEX
  8
LAYER_1
 10
87.2771
 20
154.1264
  0
VERTEX
  8
LAYER_1
 10
87.4465
 20
154.2307
  0
SEQEND
  0
POLYLINE
  8
LAYER_1
 40
0.1058
 41
0.1058
 66
1
 10
0
 20
0
 30
0
  0
VERTEX
  8
LAYER_1
 10
87.5377
 20
154.2698
  0
VERTEX
  8
LAYER_1
 10
87.5377
 20
154.2828
  0
SEQEND
  0
POLYLINE
  8
LAYER_1
 40
0.1058
 41
0.1058
 66
1
 10
0
 20
0
 30
0
  0
VERTEX
  8
LAYER_1
 10
87.6289
 20
154.3219
  0
VERTEX
  8
LAYER_1
 10
87.7853
 20
154.4001
  0
VERTEX
  8
LAYER_1
 10
87.7983
 20
154.4131
  0
SEQEND
  0
POLYLINE
  8
LAYER_1
 40
0.1058
 41
0.1058
 66
1
 10
0
 20
0
 30
0
  0
VERTEX
  8
LAYER_1
 10
87.8896
 20
154.4652
  0
VERTEX
  8
LAYER_1
 10
88.059
 20
154.5695
  0
SEQEND
  0
POLYLINE
  8
LAYER_1
 40
0.1058
 41
0.1058
 66
1
 10
0
 20
0
 30
0
  0
VERTEX
  8
LAYER_1
 10
88.1502
 20
154.6216
  0
VERTEX
  8
LAYER_1
 10
88.1502
 20
154.6346
  0
SEQEND
  0
POLYLINE
  8
LAYER_1
 40
0.1058
 41
0.1058
 66
1
 10
0
 20
0
 30
0
  0
VERTEX
  8
LAYER_1
 10
88.2284
 20
154.6737
  0
VERTEX
  8
LAYER_1
 10
88.4108
 20
154.778
  0
SEQEND
  0
POLYLINE
  8
LAYER_1
 40
0.1058
 41
0.1058
 66
1
 10
0
 20
0
 30
0
  0
VERTEX
  8
LAYER_1
 10
88.489
 20
154.8301
  0
VERTEX
  8
LAYER_1
 10
88.6193
 20
154.9083
  0
VERTEX
  8
LAYER_1
 10
88.6585
 20
154.9344
  0
SEQEND
  0
POLYLINE
  8
LAYER_1
 40
0.1058
 41
0.1058
 66
1
 10
0
 20
0
 30
0
  0
VERTEX
  8
LAYER_1
 10
88.7497
 20
154.9865
  0
VERTEX
  8
LAYER_1
 10
88.7497
 20
154.9995
  0
SEQEND
  0
POLYLINE
  8
LAYER_1
 40
0.1058
 41
0.1058
 66
1
 10
0
 20
0
 30
0
  0
VERTEX
  8
LAYER_1
 10
88.8279
 20
155.0516
  0
VERTEX
  8
LAYER_1
 10
88.9973
 20
155.1559
  0
SEQEND
  0
POLYLINE
  8
LAYER_1
 40
0.1058
 41
0.1058
 66
1
 10
0
 20
0
 30
0
  0
VERTEX
  8
LAYER_1
 10
89.0755
 20
155.2211
  0
VERTEX
  8
LAYER_1
 10
89.2449
 20
155.3253
  0
SEQEND
  0
POLYLINE
  8
LAYER_1
 40
0.1058
 41
0.1058
 66
1
 10
0
 20
0
 30
0
  0
VERTEX
  8
LAYER_1
 10
89.3361
 20
155.3905
  0
VERTEX
  8
LAYER_1
 10
89.3361
 20
155.4035
  0
SEQEND
  0
POLYLINE
  8
LAYER_1
 40
0.1058
 41
0.1058
 66
1
 10
0
 20
0
 30
0
  0
VERTEX
  8
LAYER_1
 10
89.4143
 20
155.4426
  0
VERTEX
  8
LAYER_1
 10
89.4273
 20
155.4556
  0
VERTEX
  8
LAYER_1
 10
89.5707
 20
155.5599
  0
SEQEND
  0
POLYLINE
  8
LAYER_1
 40
0.1058
 41
0.1058
 66
1
 10
0
 20
0
 30
0
  0
VERTEX
  8
LAYER_1
 10
89.6489
 20
155.6251
  0
VERTEX
  8
LAYER_1
 10
89.8183
 20
155.7423
  0
SEQEND
  0
POLYLINE
  8
LAYER_1
 40
0.1058
 41
0.1058
 66
1
 10
0
 20
0
 30
0
  0
VERTEX
  8
LAYER_1
 10
89.8965
 20
155.8075
  0
VERTEX
  8
LAYER_1
 10
89.8965
 20
155.8205
  0
SEQEND
  0
POLYLINE
  8
LAYER_1
 40
0.1058
 41
0.1058
 66
1
 10
0
 20
0
 30
0
  0
VERTEX
  8
LAYER_1
 10
89.9747
 20
155.8596
  0
VERTEX
  8
LAYER_1
 10
90.131
 20
155.9899
  0
SEQEND
  0
POLYLINE
  8
LAYER_1
 40
0.1058
 41
0.1058
 66
1
 10
0
 20
0
 30
0
  0
VERTEX
  8
LAYER_1
 10
90.2223
 20
156.0421
  0
VERTEX
  8
LAYER_1
 10
90.3656
 20
156.1724
  0
SEQEND
  0
POLYLINE
  8
LAYER_1
 40
0.1058
 41
0.1058
 66
1
 10
0
 20
0
 30
0
  0
VERTEX
  8
LAYER_1
 10
90.4438
 20
156.2376
  0
VERTEX
  8
LAYER_1
 10
90.4438
 20
156.2506
  0
SEQEND
  0
POLYLINE
  8
LAYER_1
 40
0.1058
 41
0.1058
 66
1
 10
0
 20
0
 30
0
  0
VERTEX
  8
LAYER_1
 10
90.522
 20
156.3027
  0
VERTEX
  8
LAYER_1
 10
90.6784
 20
156.433
  0
SEQEND
  0
POLYLINE
  8
LAYER_1
 40
0.1058
 41
0.1058
 66
1
 10
0
 20
0
 30
0
  0
VERTEX
  8
LAYER_1
 10
90.7566
 20
156.4982
  0
VERTEX
  8
LAYER_1
 10
90.913
 20
156.6285
  0
SEQEND
  0
POLYLINE
  8
LAYER_1
 40
0.1058
 41
0.1058
 66
1
 10
0
 20
0
 30
0
  0
VERTEX
  8
LAYER_1
 10
90.9781
 20
156.6937
  0
VERTEX
  8
LAYER_1
 10
90.9781
 20
156.7067
  0
SEQEND
  0
POLYLINE
  8
LAYER_1
 40
0.1058
 41
0.1058
 66
1
 10
0
 20
0
 30
0
  0
VERTEX
  8
LAYER_1
 10
91.0563
 20
156.7719
  0
VERTEX
  8
LAYER_1
 10
91.1997
 20
156.9022
  0
SEQEND
  0
POLYLINE
  8
LAYER_1
 40
0.1058
 41
0.1058
 66
1
 10
0
 20
0
 30
0
  0
VERTEX
  8
LAYER_1
 10
91.2779
 20
156.9674
  0
VERTEX
  8
LAYER_1
 10
91.4212
 20
157.1107
  0
SEQEND
  0
POLYLINE
  8
LAYER_1
 40
0.1058
 41
0.1058
 66
1
 10
0
 20
0
 30
0
  0
VERTEX
  8
LAYER_1
 10
91.4994
 20
157.1759
  0
VERTEX
  8
LAYER_1
 10
91.4994
 20
157.1889
  0
SEQEND
  0
POLYLINE
  8
LAYER_1
 40
0.1058
 41
0.1058
 66
1
 10
0
 20
0
 30
0
  0
VERTEX
  8
LAYER_1
 10
91.5646
 20
157.241
  0
VERTEX
  8
LAYER_1
 10
91.6688
 20
157.3323
  0
VERTEX
  8
LAYER_1
 10
91.721
 20
157.3844
  0
SEQEND
  0
POLYLINE
  8
LAYER_1
 40
0.1058
 41
0.1058
 66
1
 10
0
 20
0
 30
0
  0
VERTEX
  8
LAYER_1
 10
91.7861
 20
157.4626
  0
VERTEX
  8
LAYER_1
 10
91.9295
 20
157.6059
  0
SEQEND
  0
POLYLINE
  8
LAYER_1
 40
0.1058
 41
0.1058
 66
1
 10
0
 20
0
 30
0
  0
VERTEX
  8
LAYER_1
 10
91.9946
 20
157.6711
  0
VERTEX
  8
LAYER_1
 10
91.9946
 20
157.6841
  0
SEQEND
  0
POLYLINE
  8
LAYER_1
 40
0.1058
 41
0.1058
 66
1
 10
0
 20
0
 30
0
  0
VERTEX
  8
LAYER_1
 10
92.0598
 20
157.7493
  0
VERTEX
  8
LAYER_1
 10
92.2031
 20
157.8926
  0
SEQEND
  0
POLYLINE
  8
LAYER_1
 40
0.1058
 41
0.1058
 66
1
 10
0
 20
0
 30
0
  0
VERTEX
  8
LAYER_1
 10
92.2683
 20
157.9708
  0
VERTEX
  8
LAYER_1
 10
92.3465
 20
158.036
  0
VERTEX
  8
LAYER_1
 10
92.4117
 20
158.1142
  0
SEQEND
  0
POLYLINE
  8
LAYER_1
 40
0.1058
 41
0.1058
 66
1
 10
0
 20
0
 30
0
  0
VERTEX
  8
LAYER_1
 10
92.4768
 20
158.1924
  0
VERTEX
  8
LAYER_1
 10
92.4768
 20
158.2054
  0
SEQEND
  0
POLYLINE
  8
LAYER_1
 40
0.1058
 41
0.1058
 66
1
 10
0
 20
0
 30
0
  0
VERTEX
  8
LAYER_1
 10
92.542
 20
158.2706
  0
VERTEX
  8
LAYER_1
 10
92.6723
 20
158.4139
  0
SEQEND
  0
POLYLINE
  8
LAYER_1
 40
0.1058
 41
0.1058
 66
1
 10
0
 20
0
 30
0
  0
VERTEX
  8
LAYER_1
 10
92.7375
 20
158.4921
  0
VERTEX
  8
LAYER_1
 10
92.8678
 20
158.6485
  0
SEQEND
  0
POLYLINE
  8
LAYER_1
 40
0.1058
 41
0.1058
 66
1
 10
0
 20
0
 30
0
  0
VERTEX
  8
LAYER_1
 10
92.933
 20
158.7267
  0
VERTEX
  8
LAYER_1
 10
92.933
 20
158.7397
  0
SEQEND
  0
POLYLINE
  8
LAYER_1
 40
0.1058
 41
0.1058
 66
1
 10
0
 20
0
 30
0
  0
VERTEX
  8
LAYER_1
 10
92.9981
 20
158.8049
  0
VERTEX
  8
LAYER_1
 10
93.1154
 20
158.9613
  0
SEQEND
  0
POLYLINE
  8
LAYER_1
 40
0.1058
 41
0.1058
 66
1
 10
0
 20
0
 30
0
  0
VERTEX
  8
LAYER_1
 10
93.1806
 20
159.0395
  0
VERTEX
  8
LAYER_1
 10
93.3109
 20
159.1958
  0
SEQEND
  0
POLYLINE
  8
LAYER_1
 40
0.1058
 41
0.1058
 66
1
 10
0
 20
0
 30
0
  0
VERTEX
  8
LAYER_1
 10
93.363
 20
159.274
  0
VERTEX
  8
LAYER_1
 10
93.363
 20
159.2871
  0
SEQEND
  0
POLYLINE
  8
LAYER_1
 40
0.1058
 41
0.1058
 66
1
 10
0
 20
0
 30
0
  0
VERTEX
  8
LAYER_1
 10
93.4282
 20
159.3522
  0
VERTEX
  8
LAYER_1
 10
93.5585
 20
159.5217
  0
SEQEND
  0
POLYLINE
  8
LAYER_1
 40
0.1058
 41
0.1058
 66
1
 10
0
 20
0
 30
0
  0
VERTEX
  8
LAYER_1
 10
93.6106
 20
159.5998
  0
VERTEX
  8
LAYER_1
 10
93.7279
 20
159.7562
  0
SEQEND
  0
POLYLINE
  8
LAYER_1
 40
0.1058
 41
0.1058
 66
1
 10
0
 20
0
 30
0
  0
VERTEX
  8
LAYER_1
 10
93.78
 20
159.8474
  0
VERTEX
  8
LAYER_1
 10
93.78
 20
159.8605
  0
SEQEND
  0
POLYLINE
  8
LAYER_1
 40
0.1058
 41
0.1058
 66
1
 10
0
 20
0
 30
0
  0
VERTEX
  8
LAYER_1
 10
93.8452
 20
159.9256
  0
VERTEX
  8
LAYER_1
 10
93.9625
 20
160.0951
  0
SEQEND
  0
POLYLINE
  8
LAYER_1
 40
0.1058
 41
0.1058
 66
1
 10
0
 20
0
 30
0
  0
VERTEX
  8
LAYER_1
 10
94.0146
 20
160.1732
  0
VERTEX
  8
LAYER_1
 10
94.1319
 20
160.3427
  0
SEQEND
  0
POLYLINE
  8
LAYER_1
 40
0.1058
 41
0.1058
 66
1
 10
0
 20
0
 30
0
  0
VERTEX
  8
LAYER_1
 10
94.184
 20
160.4209
  0
VERTEX
  8
LAYER_1
 10
94.184
 20
160.4339
  0
SEQEND
  0
POLYLINE
  8
LAYER_1
 40
0.1058
 41
0.1058
 66
1
 10
0
 20
0
 30
0
  0
VERTEX
  8
LAYER_1
 10
94.2362
 20
160.5121
  0
VERTEX
  8
LAYER_1
 10
94.3404
 20
160.6815
  0
SEQEND
  0
POLYLINE
  8
LAYER_1
 40
0.1058
 41
0.1058
 66
1
 10
0
 20
0
 30
0
  0
VERTEX
  8
LAYER_1
 10
94.3925
 20
160.7727
  0
VERTEX
  8
LAYER_1
 10
94.4968
 20
160.9421
  0
SEQEND
  0
POLYLINE
  8
LAYER_1
 40
0.1058
 41
0.1058
 66
1
 10
0
 20
0
 30
0
  0
VERTEX
  8
LAYER_1
 10
94.5489
 20
161.0203
  0
VERTEX
  8
LAYER_1
 10
94.5489
 20
161.0334
  0
SEQEND
  0
POLYLINE
  8
LAYER_1
 40
0.1058
 41
0.1058
 66
1
 10
0
 20
0
 30
0
  0
VERTEX
  8
LAYER_1
 10
94.601
 20
161.1115
  0
VERTEX
  8
LAYER_1
 10
94.6532
 20
161.1767
  0
VERTEX
  8
LAYER_1
 10
94.7053
 20
161.281
  0
SEQEND
  0
POLYLINE
  8
LAYER_1
 40
0.1058
 41
0.1058
 66
1
 10
0
 20
0
 30
0
  0
VERTEX
  8
LAYER_1
 10
94.7574
 20
161.3722
  0
VERTEX
  8
LAYER_1
 10
94.8486
 20
161.5416
  0
SEQEND
  0
POLYLINE
  8
LAYER_1
 40
0.1058
 41
0.1058
 66
1
 10
0
 20
0
 30
0
  0
VERTEX
  8
LAYER_1
 10
94.9008
 20
161.6328
  0
VERTEX
  8
LAYER_1
 10
94.9008
 20
161.6459
  0
SEQEND
  0
POLYLINE
  8
LAYER_1
 40
0.1058
 41
0.1058
 66
1
 10
0
 20
0
 30
0
  0
VERTEX
  8
LAYER_1
 10
94.9529
 20
161.724
  0
VERTEX
  8
LAYER_1
 10
95.0441
 20
161.8935
  0
SEQEND
  0
POLYLINE
  8
LAYER_1
 40
0.1058
 41
0.1058
 66
1
 10
0
 20
0
 30
0
  0
VERTEX
  8
LAYER_1
 10
95.0962
 20
161.9847
  0
VERTEX
  8
LAYER_1
 10
95.1875
 20
162.1671
  0
SEQEND
  0
POLYLINE
  8
LAYER_1
 40
0.1058
 41
0.1058
 66
1
 10
0
 20
0
 30
0
  0
VERTEX
  8
LAYER_1
 10
95.2266
 20
162.2584
  0
VERTEX
  8
LAYER_1
 10
95.2266
 20
162.2714
  0
SEQEND
  0
POLYLINE
  8
LAYER_1
 40
0.1058
 41
0.1058
 66
1
 10
0
 20
0
 30
0
  0
VERTEX
  8
LAYER_1
 10
95.2656
 20
162.3496
  0
VERTEX
  8
LAYER_1
 10
95.3569
 20
162.532
  0
SEQEND
  0
POLYLINE
  8
LAYER_1
 40
0.1058
 41
0.1058
 66
1
 10
0
 20
0
 30
0
  0
VERTEX
  8
LAYER_1
 10
95.396
 20
162.6233
  0
VERTEX
  8
LAYER_1
 10
95.4872
 20
162.8057
  0
SEQEND
  0
POLYLINE
  8
LAYER_1
 40
0.1058
 41
0.1058
 66
1
 10
0
 20
0
 30
0
  0
VERTEX
  8
LAYER_1
 10
95.5263
 20
162.8969
  0
VERTEX
  8
LAYER_1
 10
95.5263
 20
162.91
  0
SEQEND
  0
POLYLINE
  8
LAYER_1
 40
0.1058
 41
0.1058
 66
1
 10
0
 20
0
 30
0
  0
VERTEX
  8
LAYER_1
 10
95.5654
 20
162.9881
  0
VERTEX
  8
LAYER_1
 10
95.6436
 20
163.1706
  0
SEQEND
  0
POLYLINE
  8
LAYER_1
 40
0.1058
 41
0.1058
 66
1
 10
0
 20
0
 30
0
  0
VERTEX
  8
LAYER_1
 10
95.6827
 20
163.2618
  0
VERTEX
  8
LAYER_1
 10
95.7608
 20
163.4443
  0
SEQEND
  0
POLYLINE
  8
LAYER_1
 40
0.1058
 41
0.1058
 66
1
 10
0
 20
0
 30
0
  0
VERTEX
  8
LAYER_1
 10
95.7999
 20
163.5355
  0
VERTEX
  8
LAYER_1
 10
95.7999
 20
163.5485
  0
SEQEND
  0
POLYLINE
  8
LAYER_1
 40
0.1058
 41
0.1058
 66
1
 10
0
 20
0
 30
0
  0
VERTEX
  8
LAYER_1
 10
95.839
 20
163.6397
  0
VERTEX
  8
LAYER_1
 10
95.9172
 20
163.8092
  0
VERTEX
  8
LAYER_1
 10
95.9172
 20
163.8222
  0
SEQEND
  0
POLYLINE
  8
LAYER_1
 40
0.1058
 41
0.1058
 66
1
 10
0
 20
0
 30
0
  0
VERTEX
  8
LAYER_1
 10
95.9563
 20
163.9134
  0
VERTEX
  8
LAYER_1
 10
96.0215
 20
164.1089
  0
SEQEND
  0
POLYLINE
  8
LAYER_1
 40
0.1058
 41
0.1058
 66
1
 10
0
 20
0
 30
0
  0
VERTEX
  8
LAYER_1
 10
96.0606
 20
164.2001
  0
VERTEX
  8
LAYER_1
 10
96.0606
 20
164.2131
  0
SEQEND
  0
POLYLINE
  8
LAYER_1
 40
0.1058
 41
0.1058
 66
1
 10
0
 20
0
 30
0
  0
VERTEX
  8
LAYER_1
 10
96.0866
 20
164.2913
  0
VERTEX
  8
LAYER_1
 10
96.1518
 20
164.4868
  0
SEQEND
  0
POLYLINE
  8
LAYER_1
 40
0.1058
 41
0.1058
 66
1
 10
0
 20
0
 30
0
  0
VERTEX
  8
LAYER_1
 10
96.1909
 20
164.578
  0
VERTEX
  8
LAYER_1
 10
96.243
 20
164.7344
  0
VERTEX
  8
LAYER_1
 10
96.256
 20
164.7605
  0
SEQEND
  0
POLYLINE
  8
LAYER_1
 40
0.1058
 41
0.1058
 66
1
 10
0
 20
0
 30
0
  0
VERTEX
  8
LAYER_1
 10
96.2821
 20
164.8647
  0
VERTEX
  8
LAYER_1
 10
96.2821
 20
164.8778
  0
SEQEND
  0
POLYLINE
  8
LAYER_1
 40
0.1058
 41
0.1058
 66
1
 10
0
 20
0
 30
0
  0
VERTEX
  8
LAYER_1
 10
96.3082
 20
164.956
  0
VERTEX
  8
LAYER_1
 10
96.3733
 20
165.1514
  0
SEQEND
  0
POLYLINE
  8
LAYER_1
 40
0.1058
 41
0.1058
 66
1
 10
0
 20
0
 30
0
  0
VERTEX
  8
LAYER_1
 10
96.3994
 20
165.2427
  0
VERTEX
  8
LAYER_1
 10
96.4515
 20
165.4381
  0
SEQEND
  0
POLYLINE
  8
LAYER_1
 40
0.1058
 41
0.1058
 66
1
 10
0
 20
0
 30
0
  0
VERTEX
  8
LAYER_1
 10
96.4906
 20
165.5424
  0
VERTEX
  8
LAYER_1
 10
96.4906
 20
165.5554
  0
SEQEND
  0
POLYLINE
  8
LAYER_1
 40
0.1058
 41
0.1058
 66
1
 10
0
 20
0
 30
0
  0
VERTEX
  8
LAYER_1
 10
96.5167
 20
165.6336
  0
VERTEX
  8
LAYER_1
 10
96.5297
 20
165.6727
  0
VERTEX
  8
LAYER_1
 10
96.5688
 20
165.8291
  0
SEQEND
  0
POLYLINE
  8
LAYER_1
 40
0.1058
 41
0.1058
 66
1
 10
0
 20
0
 30
0
  0
VERTEX
  8
LAYER_1
 10
96.5818
 20
165.9203
  0
VERTEX
  8
LAYER_1
 10
96.6339
 20
166.1158
  0
SEQEND
  0
POLYLINE
  8
LAYER_1
 40
0.1058
 41
0.1058
 66
1
 10
0
 20
0
 30
0
  0
VERTEX
  8
LAYER_1
 10
96.66
 20
166.2201
  0
VERTEX
  8
LAYER_1
 10
96.66
 20
166.2331
  0
SEQEND
  0
POLYLINE
  8
LAYER_1
 40
0.1058
 41
0.1058
 66
1
 10
0
 20
0
 30
0
  0
VERTEX
  8
LAYER_1
 10
96.6861
 20
166.3113
  0
VERTEX
  8
LAYER_1
 10
96.7252
 20
166.5068
  0
SEQEND
  0
POLYLINE
  8
LAYER_1
 40
0.1058
 41
0.1058
 66
1
 10
0
 20
0
 30
0
  0
VERTEX
  8
LAYER_1
 10
96.7512
 20
166.611
  0
VERTEX
  8
LAYER_1
 10
96.7903
 20
166.8065
  0
SEQEND
  0
POLYLINE
  8
LAYER_1
 40
0.1058
 41
0.1058
 66
1
 10
0
 20
0
 30
0
  0
VERTEX
  8
LAYER_1
 10
96.8034
 20
166.9107
  0
VERTEX
  8
LAYER_1
 10
96.8034
 20
166.9238
  0
SEQEND
  0
POLYLINE
  8
LAYER_1
 40
0.1058
 41
0.1058
 66
1
 10
0
 20
0
 30
0
  0
VERTEX
  8
LAYER_1
 10
96.8294
 20
167.002
  0
VERTEX
  8
LAYER_1
 10
96.8685
 20
167.1974
  0
SEQEND
  0
POLYLINE
  8
LAYER_1
 40
0.1058
 41
0.1058
 66
1
 10
0
 20
0
 30
0
  0
VERTEX
  8
LAYER_1
 10
96.8815
 20
167.3017
  0
VERTEX
  8
LAYER_1
 10
96.9206
 20
167.4972
  0
SEQEND
  0
POLYLINE
  8
LAYER_1
 40
0.1058
 41
0.1058
 66
1
 10
0
 20
0
 30
0
  0
VERTEX
  8
LAYER_1
 10
96.9337
 20
167.6014
  0
VERTEX
  8
LAYER_1
 10
96.9337
 20
167.6145
  0
SEQEND
  0
POLYLINE
  8
LAYER_1
 40
0.1058
 41
0.1058
 66
1
 10
0
 20
0
 30
0
  0
VERTEX
  8
LAYER_1
 10
96.9467
 20
167.6927
  0
VERTEX
  8
LAYER_1
 10
96.9728
 20
167.9012
  0
SEQEND
  0
POLYLINE
  8
LAYER_1
 40
0.1058
 41
0.1058
 66
1
 10
0
 20
0
 30
0
  0
VERTEX
  8
LAYER_1
 10
96.9858
 20
167.9924
  0
VERTEX
  8
LAYER_1
 10
97.0119
 20
168.2009
  0
SEQEND
  0
POLYLINE
  8
LAYER_1
 40
0.1058
 41
0.1058
 66
1
 10
0
 20
0
 30
0
  0
VERTEX
  8
LAYER_1
 10
97.0249
 20
168.2921
  0
VERTEX
  8
LAYER_1
 10
97.0249
 20
168.3052
  0
SEQEND
  0
POLYLINE
  8
LAYER_1
 40
0.1058
 41
0.1058
 66
1
 10
0
 20
0
 30
0
  0
VERTEX
  8
LAYER_1
 10
97.0379
 20
168.3964
  0
VERTEX
  8
LAYER_1
 10
97.064
 20
168.5397
  0
VERTEX
  8
LAYER_1
 10
97.064
 20
168.5919
  0
SEQEND
  0
POLYLINE
  8
LAYER_1
 40
0.1058
 41
0.1058
 66
1
 10
0
 20
0
 30
0
  0
VERTEX
  8
LAYER_1
 10
97.077
 20
168.6961
  0
VERTEX
  8
LAYER_1
 10
97.09
 20
168.8916
  0
SEQEND
  0
POLYLINE
  8
LAYER_1
 40
0.1058
 41
0.1058
 66
1
 10
0
 20
0
 30
0
  0
VERTEX
  8
LAYER_1
 10
97.1031
 20
168.9958
  0
VERTEX
  8
LAYER_1
 10
97.1031
 20
169.0089
  0
SEQEND
  0
POLYLINE
  8
LAYER_1
 40
0.1058
 41
0.1058
 66
1
 10
0
 20
0
 30
0
  0
VERTEX
  8
LAYER_1
 10
97.1031
 20
169.1001
  0
VERTEX
  8
LAYER_1
 10
97.1161
 20
169.2956
  0
SEQEND
  0
POLYLINE
  8
LAYER_1
 40
0.1058
 41
0.1058
 66
1
 10
0
 20
0
 30
0
  0
VERTEX
  8
LAYER_1
 10
97.1291
 20
169.3998
  0
VERTEX
  8
LAYER_1
 10
97.1422
 20
169.5171
  0
VERTEX
  8
LAYER_1
 10
97.1422
 20
169.5953
  0
SEQEND
  0
POLYLINE
  8
LAYER_1
 40
0.1058
 41
0.1058
 66
1
 10
0
 20
0
 30
0
  0
VERTEX
  8
LAYER_1
 10
97.1422
 20
169.6996
  0
VERTEX
  8
LAYER_1
 10
97.1422
 20
169.7126
  0
SEQEND
  0
POLYLINE
  8
LAYER_1
 40
0.1058
 41
0.1058
 66
1
 10
0
 20
0
 30
0
  0
VERTEX
  8
LAYER_1
 10
97.1422
 20
169.8038
  0
VERTEX
  8
LAYER_1
 10
97.1552
 20
169.9993
  0
SEQEND
  0
POLYLINE
  8
LAYER_1
 40
0.1058
 41
0.1058
 66
1
 10
0
 20
0
 30
0
  0
VERTEX
  8
LAYER_1
 10
97.1552
 20
170.1036
  0
VERTEX
  8
LAYER_1
 10
97.1552
 20
170.299
  0
SEQEND
  0
POLYLINE
  8
LAYER_1
 40
0.1058
 41
0.1058
 66
1
 10
0
 20
0
 30
0
  0
VERTEX
  8
LAYER_1
 10
97.1682
 20
170.4033
  0
VERTEX
  8
LAYER_1
 10
97.1682
 20
170.4163
  0
SEQEND
  0
POLYLINE
  8
LAYER_1
 40
0.1058
 41
0.1058
 66
1
 10
0
 20
0
 30
0
 70
1
  0
VERTEX
  8
LAYER_1
 10
83.198
 20
170.4945
  0
VERTEX
  8
LAYER_1
 10
83.185
 20
170.8724
  0
VERTEX
  8
LAYER_1
 10
83.1329
 20
171.2504
 42
0.8791540557
  0
VERTEX
  8
LAYER_1
 10
74.193
 20
170.8724
  0
VERTEX
  8
LAYER_1
 10
74.18
 20
170.4945
  0
VERTEX
  8
LAYER_1
 10
74.193
 20
170.1166
 42
0.8791610299
  0
VERTEX
  8
LAYER_1
 10
83.1329
 20
169.7387
  0
VERTEX
  8
LAYER_1
 10
83.185
 20
170.1166
  0
SEQEND
  0
POLYLINE
  8
LAYER_1
 40
0.1058
 41
0.1058
 66
1
 10
0
 20
0
 30
0
  0
VERTEX
  8
LAYER_1
 10
77.3988
 20
168.3312
  0
VERTEX
  8
LAYER_1
 10
78.2199
 20
169.7126
  0
SEQEND
  0
POLYLINE
  8
LAYER_1
 40
0.1058
 41
0.1058
 66
1
 10
0
 20
0
 30
0
  0
VERTEX
  8
LAYER_1
 10
79.9792
 20
172.6448
  0
VERTEX
  8
LAYER_1
 10
79.6794
 20
172.1495
  0
SEQEND
  0
POLYLINE
  8
LAYER_1
 40
0.05
 41
0.05
 66
1
 10
0
 20
0
 30
0
  0
VERTEX
  8
LAYER_1
 10
77.1121
 20
168.5006
  0
VERTEX
  8
LAYER_1
 10
77.6855
 20
168.1618
  0
VERTEX
  8
LAYER_1
 10
76.3693
 20
166.611
  0
SEQEND
  0
POLYLINE
  8
LAYER_1
 40
0.05
 41
0.05
 66
1
 10
0
 20
0
 30
0
  0
VERTEX
  8
LAYER_1
 10
79.6925
 20
172.8142
  0
VERTEX
  8
LAYER_1
 10
80.2659
 20
172.4754
  0
VERTEX
  8
LAYER_1
 10
81.0087
 20
174.365
  0
SEQEND
  0
ENDSEC
  0
EOF
