  0
SECTION
  2
HEADER
  9
$ACADVER
  1
AC1009
  9
$LUNITS
 70
2
  9
$LUPREC
 70
4
  9
$LTSCALE
 40
1.0
  9
$EXTMIN
 10
73.4882
 20
-279.0724
 30
0
  9
$EXTMAX
 10
257.494
 20
-11.6279
 30
0
  0
ENDSEC
  0
SECTION
  2
TABLES
  0
TABLE
  2
LTYPE
 70
256
  0
LTYPE
  2
AIGENLINE001
 70
64
  3
generate AI->DXF Converter
 72
65
 73
2
 40
1.6801
 49
1.1201
 49
-0.56
  0
LTYPE
  2
AIGENLINE002
 70
64
  3
generate AI->DXF Converter
 72
65
 73
4
 40
10.0806
 49
6.7204
 49
-1.1201
 49
1.1201
 49
-1.1201
  0
LTYPE
  2
AIGENLINE003
 70
64
  3
generate AI->DXF Converter
 72
65
 73
4
 40
1.4299
 49
0.7149
 49
-0.7149
 49
0
 49
0
  0
LTYPE
  2
AIGENLINE004
 70
64
  3
generate AI->DXF Converter
 72
65
 73
4
 40
14
 49
11
 49
-1
 49
1
 49
-1
  0
LTYPE
  2
AIGENLINE005
 70
64
  3
generate AI->DXF Converter
 72
65
 73
4
 40
0.717
 49
0.3585
 49
-0.3585
 49
0
 49
0
  0
LTYPE
  2
AIGENLINE006
 70
64
  3
generate AI->DXF Converter
 72
65
 73
2
 40
9.525
 49
6.35
 49
-3.175
  0
LTYPE
  2
AIGENLINE007
 70
64
  3
generate AI->DXF Converter
 72
65
 73
4
 40
0.7056
 49
0.3528
 49
-0.3528
 49
0
 49
0
  0
ENDTAB
  0
TABLE
  2
LAYER
 70
36
  0
LAYER
  2
LAYER_1
 70
64
 62
7
  6
CONTINUOUS
  0
LAYER
  2
LAYER_2
 70
64
 62
7
  6
CONTINUOUS
  0
LAYER
  2
LAYER_3
 70
64
 62
7
  6
CONTINUOUS
  0
LAYER
  2
LAYER_4
 70
64
 62
7
  6
CONTINUOUS
  0
LAYER
  2
LAYER_5
 70
64
 62
7
  6
CONTINUOUS
  0
LAYER
  2
LAYER_6
 70
64
 62
7
  6
CONTINUOUS
  0
LAYER
  2
LAYER_7
 70
64
 62
7
  6
CONTINUOUS
  0
LAYER
  2
LAYER_8
 70
64
 62
7
  6
CONTINUOUS
  0
LAYER
  2
LAYER_9
 70
64
 62
7
  6
CONTINUOUS
  0
LAYER
  2
LAYER_10
 70
64
 62
7
  6
CONTINUOUS
  0
LAYER
  2
LAYER_11
 70
64
 62
7
  6
CONTINUOUS
  0
LAYER
  2
LAYER_12
 70
64
 62
7
  6
CONTINUOUS
  0
LAYER
  2
LAYER_13
 70
64
 62
7
  6
CONTINUOUS
  0
LAYER
  2
LAYER_14
 70
64
 62
7
  6
CONTINUOUS
  0
LAYER
  2
LAYER_15
 70
64
 62
7
  6
CONTINUOUS
  0
LAYER
  2
LAYER_16
 70
64
 62
7
  6
CONTINUOUS
  0
LAYER
  2
LAYER_17
 70
64
 62
7
  6
CONTINUOUS
  0
LAYER
  2
LAYER_18
 70
64
 62
7
  6
CONTINUOUS
  0
LAYER
  2
LAYER_19
 70
64
 62
7
  6
CONTINUOUS
  0
LAYER
  2
LAYER_20
 70
64
 62
7
  6
CONTINUOUS
  0
LAYER
  2
LAYER_21
 70
64
 62
7
  6
CONTINUOUS
  0
LAYER
  2
LAYER_22
 70
64
 62
7
  6
CONTINUOUS
  0
LAYER
  2
LAYER_23
 70
64
 62
7
  6
CONTINUOUS
  0
LAYER
  2
LAYER_24
 70
64
 62
7
  6
CONTINUOUS
  0
LAYER
  2
LAYER_25
 70
64
 62
7
  6
CONTINUOUS
  0
LAYER
  2
LAYER_26
 70
64
 62
7
  6
CONTINUOUS
  0
LAYER
  2
LAYER_27
 70
64
 62
7
  6
CONTINUOUS
  0
LAYER
  2
LAYER_28
 70
64
 62
7
  6
CONTINUOUS
  0
LAYER
  2
LAYER_29
 70
64
 62
7
  6
CONTINUOUS
  0
LAYER
  2
LAYER_30
 70
64
 62
7
  6
CONTINUOUS
  0
LAYER
  2
LAYER_31
 70
64
 62
7
  6
CONTINUOUS
  0
LAYER
  2
LAYER_32
 70
64
 62
7
  6
CONTINUOUS
  0
LAYER
  2
LAYER_33
 70
64
 62
7
  6
CONTINUOUS
  0
LAYER
  2
LAYER_34
 70
64
 62
7
  6
CONTINUOUS
  0
LAYER
  2
LAYER_35
 70
64
 62
7
  6
CONTINUOUS
  0
LAYER
  2
LAYER_36
 70
64
 62
7
  6
CONTINUOUS
  0
ENDTAB
  0
TABLE
  2
STYLE
 70
6
  0
STYLE
  2
STANDARD
 70
0
 40
0
 50
0
 71
0
 41
0
 42
0
  3
TXT
  4
BIGFONT
  0
ENDTAB
  0
ENDSEC
  0
SECTION
  2
BLOCKS
  0
BLOCK
  8
LAYER_22
  2
AIGNBL16040016
 70
64
 10
0
 20
0
 30
0
  3
AIGNBL16040016
  0
POLYLINE
  8
LAYER_22
 40
0.1058
 41
0.1058
 66
1
 10
0
 20
0
 30
0
  0
VERTEX
  8
LAYER_22
 10
210.465
 20
-199.2793
  0
VERTEX
  8
LAYER_22
 10
210.465
 20
-199.2201
  0
SEQEND
  0
ENDBLK
  0
BLOCK
  8
LAYER_22
  2
AIGNBL16040017
 70
64
 10
0
 20
0
 30
0
  3
AIGNBL16040017
  0
POLYLINE
  8
LAYER_22
 40
0.1058
 41
0.1058
 66
1
 10
0
 20
0
 30
0
  0
VERTEX
  8
LAYER_22
 10
210.465
 20
-199.2793
  0
VERTEX
  8
LAYER_22
 10
210.3837
 20
-199.2793
  0
SEQEND
  0
ENDBLK
  0
BLOCK
  8
LAYER_22
  2
AIGNBL16040018
 70
64
 10
0
 20
0
 30
0
  3
AIGNBL16040018
  0
POLYLINE
  8
LAYER_22
 40
0.1058
 41
0.1058
 66
1
 10
0
 20
0
 30
0
  0
VERTEX
  8
LAYER_22
 10
210.3837
 20
-199.4202
  0
VERTEX
  8
LAYER_22
 10
210.465
 20
-199.2793
  0
SEQEND
  0
ENDBLK
  0
BLOCK
  8
LAYER_22
  2
AIGNBL16040019
 70
64
 10
0
 20
0
 30
0
  3
AIGNBL16040019
  0
POLYLINE
  8
LAYER_22
 40
0.1058
 41
0.1058
 66
1
 10
0
 20
0
 30
0
  0
VERTEX
  8
LAYER_22
 10
210.3837
 20
-199.4202
  0
VERTEX
  8
LAYER_22
 10
210.3837
 20
-199.2201
  0
SEQEND
  0
ENDBLK
  0
BLOCK
  8
LAYER_22
  2
AIGNBL1604001A
 70
64
 10
0
 20
0
 30
0
  3
AIGNBL1604001A
  0
POLYLINE
  8
LAYER_22
 40
0.1058
 41
0.1058
 66
1
 10
0
 20
0
 30
0
  0
VERTEX
  8
LAYER_22
 10
214.1024
 20
-199.2793
  0
VERTEX
  8
LAYER_22
 10
210.465
 20
-199.2793
  0
SEQEND
  0
ENDBLK
  0
BLOCK
  8
LAYER_22
  2
AIGNBL1604001B
 70
64
 10
0
 20
0
 30
0
  3
AIGNBL1604001B
  0
POLYLINE
  8
LAYER_22
 40
0.1058
 41
0.1058
 66
1
 10
0
 20
0
 30
0
  0
VERTEX
  8
LAYER_22
 10
214.1836
 20
-199.2201
  0
VERTEX
  8
LAYER_22
 10
214.1836
 20
-199.4202
  0
SEQEND
  0
ENDBLK
  0
BLOCK
  8
LAYER_22
  2
AIGNBL1604001C
 70
64
 10
0
 20
0
 30
0
  3
AIGNBL1604001C
  0
POLYLINE
  8
LAYER_22
 40
0.1058
 41
0.1058
 66
1
 10
0
 20
0
 30
0
  0
VERTEX
  8
LAYER_22
 10
210.3837
 20
-199.4202
  0
VERTEX
  8
LAYER_22
 10
214.1836
 20
-199.4202
  0
SEQEND
  0
ENDBLK
  0
BLOCK
  8
LAYER_22
  2
AIGNBL1604001D
 70
64
 10
0
 20
0
 30
0
  3
AIGNBL1604001D
  0
POLYLINE
  8
LAYER_22
 40
0.1058
 41
0.1058
 66
1
 10
0
 20
0
 30
0
  0
VERTEX
  8
LAYER_22
 10
214.1024
 20
-199.2793
  0
VERTEX
  8
LAYER_22
 10
214.1836
 20
-199.4202
  0
SEQEND
  0
ENDBLK
  0
BLOCK
  8
LAYER_22
  2
AIGNBL1604001E
 70
64
 10
0
 20
0
 30
0
  3
AIGNBL1604001E
  0
POLYLINE
  8
LAYER_22
 40
0.1058
 41
0.1058
 66
1
 10
0
 20
0
 30
0
  0
VERTEX
  8
LAYER_22
 10
214.1836
 20
-199.2793
  0
VERTEX
  8
LAYER_22
 10
214.1024
 20
-199.2793
  0
SEQEND
  0
ENDBLK
  0
BLOCK
  8
LAYER_22
  2
AIGNBL1604001F
 70
64
 10
0
 20
0
 30
0
  3
AIGNBL1604001F
  0
POLYLINE
  8
LAYER_22
 40
0.1058
 41
0.1058
 66
1
 10
0
 20
0
 30
0
  0
VERTEX
  8
LAYER_22
 10
214.1024
 20
-199.2201
  0
VERTEX
  8
LAYER_22
 10
214.1024
 20
-199.2793
  0
SEQEND
  0
ENDBLK
  0
BLOCK
  8
LAYER_22
  2
AIGNBL1604007C
 70
64
 10
0
 20
0
 30
0
  3
AIGNBL1604007C
  0
POLYLINE
  8
LAYER_22
 40
0.1058
 41
0.1058
 66
1
 10
0
 20
0
 30
0
  0
VERTEX
  8
LAYER_22
 10
133.6628
 20
-199.2446
  0
VERTEX
  8
LAYER_22
 10
133.6628
 20
-199.1853
  0
SEQEND
  0
ENDBLK
  0
BLOCK
  8
LAYER_22
  2
AIGNBL1604007D
 70
64
 10
0
 20
0
 30
0
  3
AIGNBL1604007D
  0
POLYLINE
  8
LAYER_22
 40
0.1058
 41
0.1058
 66
1
 10
0
 20
0
 30
0
  0
VERTEX
  8
LAYER_22
 10
133.6628
 20
-199.2446
  0
VERTEX
  8
LAYER_22
 10
133.5815
 20
-199.2446
  0
SEQEND
  0
ENDBLK
  0
BLOCK
  8
LAYER_22
  2
AIGNBL1604007E
 70
64
 10
0
 20
0
 30
0
  3
AIGNBL1604007E
  0
POLYLINE
  8
LAYER_22
 40
0.1058
 41
0.1058
 66
1
 10
0
 20
0
 30
0
  0
VERTEX
  8
LAYER_22
 10
133.5815
 20
-199.3855
  0
VERTEX
  8
LAYER_22
 10
133.6628
 20
-199.2446
  0
SEQEND
  0
ENDBLK
  0
BLOCK
  8
LAYER_22
  2
AIGNBL1604007F
 70
64
 10
0
 20
0
 30
0
  3
AIGNBL1604007F
  0
POLYLINE
  8
LAYER_22
 40
0.1058
 41
0.1058
 66
1
 10
0
 20
0
 30
0
  0
VERTEX
  8
LAYER_22
 10
133.5815
 20
-199.3855
  0
VERTEX
  8
LAYER_22
 10
133.5815
 20
-199.1853
  0
SEQEND
  0
ENDBLK
  0
BLOCK
  8
LAYER_22
  2
AIGNBL16040080
 70
64
 10
0
 20
0
 30
0
  3
AIGNBL16040080
  0
POLYLINE
  8
LAYER_22
 40
0.1058
 41
0.1058
 66
1
 10
0
 20
0
 30
0
  0
VERTEX
  8
LAYER_22
 10
137.3002
 20
-199.2446
  0
VERTEX
  8
LAYER_22
 10
133.6628
 20
-199.2446
  0
SEQEND
  0
ENDBLK
  0
BLOCK
  8
LAYER_22
  2
AIGNBL16040081
 70
64
 10
0
 20
0
 30
0
  3
AIGNBL16040081
  0
POLYLINE
  8
LAYER_22
 40
0.1058
 41
0.1058
 66
1
 10
0
 20
0
 30
0
  0
VERTEX
  8
LAYER_22
 10
137.3814
 20
-199.1853
  0
VERTEX
  8
LAYER_22
 10
137.3814
 20
-199.3855
  0
SEQEND
  0
ENDBLK
  0
BLOCK
  8
LAYER_22
  2
AIGNBL16040082
 70
64
 10
0
 20
0
 30
0
  3
AIGNBL16040082
  0
POLYLINE
  8
LAYER_22
 40
0.1058
 41
0.1058
 66
1
 10
0
 20
0
 30
0
  0
VERTEX
  8
LAYER_22
 10
133.5815
 20
-199.3855
  0
VERTEX
  8
LAYER_22
 10
137.3814
 20
-199.3855
  0
SEQEND
  0
ENDBLK
  0
BLOCK
  8
LAYER_22
  2
AIGNBL16040083
 70
64
 10
0
 20
0
 30
0
  3
AIGNBL16040083
  0
POLYLINE
  8
LAYER_22
 40
0.1058
 41
0.1058
 66
1
 10
0
 20
0
 30
0
  0
VERTEX
  8
LAYER_22
 10
137.3002
 20
-199.2446
  0
VERTEX
  8
LAYER_22
 10
137.3814
 20
-199.3855
  0
SEQEND
  0
ENDBLK
  0
BLOCK
  8
LAYER_22
  2
AIGNBL16040084
 70
64
 10
0
 20
0
 30
0
  3
AIGNBL16040084
  0
POLYLINE
  8
LAYER_22
 40
0.1058
 41
0.1058
 66
1
 10
0
 20
0
 30
0
  0
VERTEX
  8
LAYER_22
 10
137.3814
 20
-199.2446
  0
VERTEX
  8
LAYER_22
 10
137.3002
 20
-199.2446
  0
SEQEND
  0
ENDBLK
  0
BLOCK
  8
LAYER_22
  2
AIGNBL16040085
 70
64
 10
0
 20
0
 30
0
  3
AIGNBL16040085
  0
POLYLINE
  8
LAYER_22
 40
0.1058
 41
0.1058
 66
1
 10
0
 20
0
 30
0
  0
VERTEX
  8
LAYER_22
 10
137.3002
 20
-199.1853
  0
VERTEX
  8
LAYER_22
 10
137.3002
 20
-199.2446
  0
SEQEND
  0
ENDBLK
  0
BLOCK
  8
LAYER_22
  2
AIGNBL1604009E
 70
64
 10
0
 20
0
 30
0
  3
AIGNBL1604009E
  0
POLYLINE
  8
LAYER_22
 40
0.1058
 41
0.1058
 66
1
 10
0
 20
0
 30
0
  0
VERTEX
  8
LAYER_22
 10
130.4816
 20
-203.9199
  0
VERTEX
  8
LAYER_22
 10
130.8344
 20
-203.9199
  0
SEQEND
  0
POLYLINE
  8
LAYER_22
  6
AIGENLINE003
 40
0.1058
 41
0.1058
 66
1
 10
0
 20
0
 30
0
 70
128
  0
VERTEX
  8
LAYER_22
 10
131.5489
 20
-203.9199
  0
VERTEX
  8
LAYER_22
 10
140.1286
 20
-203.9199
  0
SEQEND
  0
POLYLINE
  8
LAYER_22
 40
0.1058
 41
0.1058
 66
1
 10
0
 20
0
 30
0
  0
VERTEX
  8
LAYER_22
 10
140.1286
 20
-203.9199
  0
VERTEX
  8
LAYER_22
 10
140.4813
 20
-203.9199
  0
SEQEND
  0
ENDBLK
  0
BLOCK
  8
LAYER_33
  2
AIGNBL21040032
 70
64
 10
0
 20
0
 30
0
  3
AIGNBL21040032
  0
POLYLINE
  8
LAYER_33
 40
0.0882
 41
0.0882
 66
1
 10
0
 20
0
 30
0
  0
VERTEX
  8
LAYER_33
 10
125.8311
 20
-201.7904
  0
VERTEX
  8
LAYER_33
 10
125.8311
 20
-203.5129
  0
SEQEND
  0
ENDBLK
  0
BLOCK
  8
LAYER_33
  2
AIGNBL21040033
 70
64
 10
0
 20
0
 30
0
  3
AIGNBL21040033
  0
POLYLINE
  8
LAYER_33
 40
0.0882
 41
0.0882
 66
1
 10
0
 20
0
 30
0
  0
VERTEX
  8
LAYER_33
 10
125.8111
 20
-201.7704
  0
VERTEX
  8
LAYER_33
 10
125.8311
 20
-201.7904
  0
SEQEND
  0
ENDBLK
  0
BLOCK
  8
LAYER_33
  2
AIGNBL21040034
 70
64
 10
0
 20
0
 30
0
  3
AIGNBL21040034
  0
POLYLINE
  8
LAYER_33
 40
0.0882
 41
0.0882
 66
1
 10
0
 20
0
 30
0
  0
VERTEX
  8
LAYER_33
 10
125.4811
 20
-204.5699
  0
VERTEX
  8
LAYER_33
 10
125.4811
 20
-201.47
  0
SEQEND
  0
ENDBLK
  0
BLOCK
  8
LAYER_33
  2
AIGNBL21040035
 70
64
 10
0
 20
0
 30
0
  3
AIGNBL21040035
  0
POLYLINE
  8
LAYER_33
 40
0.0882
 41
0.0882
 66
1
 10
0
 20
0
 30
0
  0
VERTEX
  8
LAYER_33
 10
125.131
 20
-201.7904
  0
VERTEX
  8
LAYER_33
 10
125.151
 20
-201.7704
  0
SEQEND
  0
ENDBLK
  0
BLOCK
  8
LAYER_33
  2
AIGNBL21040036
 70
64
 10
0
 20
0
 30
0
  3
AIGNBL21040036
  0
POLYLINE
  8
LAYER_33
 40
0.0882
 41
0.0882
 66
1
 10
0
 20
0
 30
0
  0
VERTEX
  8
LAYER_33
 10
125.8111
 20
-201.7704
  0
VERTEX
  8
LAYER_33
 10
125.151
 20
-201.7704
  0
SEQEND
  0
ENDBLK
  0
BLOCK
  8
LAYER_33
  2
AIGNBL21040037
 70
64
 10
0
 20
0
 30
0
  3
AIGNBL21040037
  0
POLYLINE
  8
LAYER_33
 40
0.0882
 41
0.0882
 66
1
 10
0
 20
0
 30
0
  0
VERTEX
  8
LAYER_33
 10
125.131
 20
-203.5129
  0
VERTEX
  8
LAYER_33
 10
125.131
 20
-201.7904
  0
SEQEND
  0
ENDBLK
  0
BLOCK
  8
LAYER_33
  2
AIGNBL2104006C
 70
64
 10
0
 20
0
 30
0
  3
AIGNBL2104006C
  0
POLYLINE
  8
LAYER_33
 40
0.0882
 41
0.0882
 66
1
 10
0
 20
0
 30
0
  0
VERTEX
  8
LAYER_33
 10
145.8312
 20
-201.7904
  0
VERTEX
  8
LAYER_33
 10
145.8312
 20
-203.5129
  0
SEQEND
  0
ENDBLK
  0
BLOCK
  8
LAYER_33
  2
AIGNBL2104006D
 70
64
 10
0
 20
0
 30
0
  3
AIGNBL2104006D
  0
POLYLINE
  8
LAYER_33
 40
0.0882
 41
0.0882
 66
1
 10
0
 20
0
 30
0
  0
VERTEX
  8
LAYER_33
 10
145.8112
 20
-201.7704
  0
VERTEX
  8
LAYER_33
 10
145.8312
 20
-201.7904
  0
SEQEND
  0
ENDBLK
  0
BLOCK
  8
LAYER_33
  2
AIGNBL2104006E
 70
64
 10
0
 20
0
 30
0
  3
AIGNBL2104006E
  0
POLYLINE
  8
LAYER_33
 40
0.0882
 41
0.0882
 66
1
 10
0
 20
0
 30
0
  0
VERTEX
  8
LAYER_33
 10
145.4812
 20
-204.5699
  0
VERTEX
  8
LAYER_33
 10
145.4812
 20
-201.47
  0
SEQEND
  0
ENDBLK
  0
BLOCK
  8
LAYER_33
  2
AIGNBL2104006F
 70
64
 10
0
 20
0
 30
0
  3
AIGNBL2104006F
  0
POLYLINE
  8
LAYER_33
 40
0.0882
 41
0.0882
 66
1
 10
0
 20
0
 30
0
  0
VERTEX
  8
LAYER_33
 10
145.1312
 20
-201.7904
  0
VERTEX
  8
LAYER_33
 10
145.1512
 20
-201.7704
  0
SEQEND
  0
ENDBLK
  0
BLOCK
  8
LAYER_33
  2
AIGNBL21040070
 70
64
 10
0
 20
0
 30
0
  3
AIGNBL21040070
  0
POLYLINE
  8
LAYER_33
 40
0.0882
 41
0.0882
 66
1
 10
0
 20
0
 30
0
  0
VERTEX
  8
LAYER_33
 10
145.8112
 20
-201.7704
  0
VERTEX
  8
LAYER_33
 10
145.1512
 20
-201.7704
  0
SEQEND
  0
ENDBLK
  0
BLOCK
  8
LAYER_33
  2
AIGNBL21040071
 70
64
 10
0
 20
0
 30
0
  3
AIGNBL21040071
  0
POLYLINE
  8
LAYER_33
 40
0.0882
 41
0.0882
 66
1
 10
0
 20
0
 30
0
  0
VERTEX
  8
LAYER_33
 10
145.1312
 20
-203.5129
  0
VERTEX
  8
LAYER_33
 10
145.1312
 20
-201.7904
  0
SEQEND
  0
ENDBLK
  0
BLOCK
  8
LAYER_22
  2
AIGNBL16030004
 70
64
 10
0
 20
0
 30
0
  3
AIGNBL16030004
  0
POLYLINE
  8
LAYER_22
 40
0.1058
 41
0.1058
 66
1
 10
0
 20
0
 30
0
  0
VERTEX
  8
LAYER_22
 10
214.3814
 20
-195.9218
  0
VERTEX
  8
LAYER_22
 10
214.5337
 20
-195.9218
  0
SEQEND
  0
ENDBLK
  0
BLOCK
  8
LAYER_22
  2
AIGNBL16030005
 70
64
 10
0
 20
0
 30
0
  3
AIGNBL16030005
  0
POLYLINE
  8
LAYER_22
 40
0.1058
 41
0.1058
 66
1
 10
0
 20
0
 30
0
  0
VERTEX
  8
LAYER_22
 10
210.0337
 20
-196.8717
  0
VERTEX
  8
LAYER_22
 10
210.0337
 20
-195.9218
  0
SEQEND
  0
ENDBLK
  0
BLOCK
  8
LAYER_22
  2
AIGNBL16030006
 70
64
 10
0
 20
0
 30
0
  3
AIGNBL16030006
  0
POLYLINE
  8
LAYER_22
 40
0.1058
 41
0.1058
 66
1
 10
0
 20
0
 30
0
  0
VERTEX
  8
LAYER_22
 10
212.284
 20
-196.5216
  0
VERTEX
  8
LAYER_22
 10
212.9241
 20
-197.1218
  0
SEQEND
  0
ENDBLK
  0
BLOCK
  8
LAYER_22
  2
AIGNBL16030007
 70
64
 10
0
 20
0
 30
0
  3
AIGNBL16030007
  0
POLYLINE
  8
LAYER_22
 40
0.1058
 41
0.1058
 66
1
 10
0
 20
0
 30
0
  0
VERTEX
  8
LAYER_22
 10
212.284
 20
-196.5216
  0
VERTEX
  8
LAYER_22
 10
212.9241
 20
-195.9218
  0
SEQEND
  0
ENDBLK
  0
BLOCK
  8
LAYER_22
  2
AIGNBL16030008
 70
64
 10
0
 20
0
 30
0
  3
AIGNBL16030008
  0
POLYLINE
  8
LAYER_22
 40
0.1058
 41
0.1058
 66
1
 10
0
 20
0
 30
0
  0
VERTEX
  8
LAYER_22
 10
212.9241
 20
-197.1218
  0
VERTEX
  8
LAYER_22
 10
211.6432
 20
-197.1218
  0
SEQEND
  0
ENDBLK
  0
BLOCK
  8
LAYER_22
  2
AIGNBL16030009
 70
64
 10
0
 20
0
 30
0
  3
AIGNBL16030009
  0
POLYLINE
  8
LAYER_22
 40
0.1058
 41
0.1058
 66
1
 10
0
 20
0
 30
0
  0
VERTEX
  8
LAYER_22
 10
214.5337
 20
-197.1218
  0
VERTEX
  8
LAYER_22
 10
212.9241
 20
-197.1218
  0
SEQEND
  0
ENDBLK
  0
BLOCK
  8
LAYER_22
  2
AIGNBL1603000A
 70
64
 10
0
 20
0
 30
0
  3
AIGNBL1603000A
  0
POLYLINE
  8
LAYER_22
 40
0.1058
 41
0.1058
 66
1
 10
0
 20
0
 30
0
  0
VERTEX
  8
LAYER_22
 10
211.6432
 20
-195.9218
  0
VERTEX
  8
LAYER_22
 10
212.9241
 20
-195.9218
  0
SEQEND
  0
ENDBLK
  0
BLOCK
  8
LAYER_22
  2
AIGNBL1603000B
 70
64
 10
0
 20
0
 30
0
  3
AIGNBL1603000B
  0
POLYLINE
  8
LAYER_22
 40
0.1058
 41
0.1058
 66
1
 10
0
 20
0
 30
0
  0
VERTEX
  8
LAYER_22
 10
212.9241
 20
-195.9218
  0
VERTEX
  8
LAYER_22
 10
212.9241
 20
-197.1218
  0
SEQEND
  0
ENDBLK
  0
BLOCK
  8
LAYER_22
  2
AIGNBL1603000C
 70
64
 10
0
 20
0
 30
0
  3
AIGNBL1603000C
  0
POLYLINE
  8
LAYER_22
 40
0.1058
 41
0.1058
 66
1
 10
0
 20
0
 30
0
  0
VERTEX
  8
LAYER_22
 10
212.9241
 20
-195.9218
  0
VERTEX
  8
LAYER_22
 10
214.3814
 20
-195.9218
  0
SEQEND
  0
ENDBLK
  0
BLOCK
  8
LAYER_22
  2
AIGNBL1603000D
 70
64
 10
0
 20
0
 30
0
  3
AIGNBL1603000D
  0
POLYLINE
  8
LAYER_22
 40
0.1058
 41
0.1058
 66
1
 10
0
 20
0
 30
0
  0
VERTEX
  8
LAYER_22
 10
214.5337
 20
-195.9218
  0
VERTEX
  8
LAYER_22
 10
214.5337
 20
-197.1218
  0
SEQEND
  0
ENDBLK
  0
BLOCK
  8
LAYER_22
  2
AIGNBL1603000E
 70
64
 10
0
 20
0
 30
0
  3
AIGNBL1603000E
  0
POLYLINE
  8
LAYER_22
 40
0.1058
 41
0.1058
 66
1
 10
0
 20
0
 30
0
  0
VERTEX
  8
LAYER_22
 10
210.0337
 20
-197.1218
  0
VERTEX
  8
LAYER_22
 10
210.0337
 20
-196.8717
  0
SEQEND
  0
ENDBLK
  0
BLOCK
  8
LAYER_22
  2
AIGNBL1603000F
 70
64
 10
0
 20
0
 30
0
  3
AIGNBL1603000F
  0
POLYLINE
  8
LAYER_22
 40
0.1058
 41
0.1058
 66
1
 10
0
 20
0
 30
0
  0
VERTEX
  8
LAYER_22
 10
210.0337
 20
-195.9218
  0
VERTEX
  8
LAYER_22
 10
211.6432
 20
-195.9218
  0
SEQEND
  0
ENDBLK
  0
BLOCK
  8
LAYER_22
  2
AIGNBL16030010
 70
64
 10
0
 20
0
 30
0
  3
AIGNBL16030010
  0
POLYLINE
  8
LAYER_22
 40
0.1058
 41
0.1058
 66
1
 10
0
 20
0
 30
0
  0
VERTEX
  8
LAYER_22
 10
211.6432
 20
-197.1218
  0
VERTEX
  8
LAYER_22
 10
211.6432
 20
-195.9218
  0
SEQEND
  0
ENDBLK
  0
BLOCK
  8
LAYER_22
  2
AIGNBL16030011
 70
64
 10
0
 20
0
 30
0
  3
AIGNBL16030011
  0
POLYLINE
  8
LAYER_22
 40
0.1058
 41
0.1058
 66
1
 10
0
 20
0
 30
0
  0
VERTEX
  8
LAYER_22
 10
211.6432
 20
-197.1218
  0
VERTEX
  8
LAYER_22
 10
210.0337
 20
-197.1218
  0
SEQEND
  0
ENDBLK
  0
BLOCK
  8
LAYER_22
  2
AIGNBL16030012
 70
64
 10
0
 20
0
 30
0
  3
AIGNBL16030012
  0
POLYLINE
  8
LAYER_22
 40
0.1058
 41
0.1058
 66
1
 10
0
 20
0
 30
0
  0
VERTEX
  8
LAYER_22
 10
211.6432
 20
-195.9218
  0
VERTEX
  8
LAYER_22
 10
212.284
 20
-196.5216
  0
SEQEND
  0
ENDBLK
  0
BLOCK
  8
LAYER_22
  2
AIGNBL16030013
 70
64
 10
0
 20
0
 30
0
  3
AIGNBL16030013
  0
POLYLINE
  8
LAYER_22
 40
0.1058
 41
0.1058
 66
1
 10
0
 20
0
 30
0
  0
VERTEX
  8
LAYER_22
 10
211.6432
 20
-197.1218
  0
VERTEX
  8
LAYER_22
 10
212.284
 20
-196.5216
  0
SEQEND
  0
ENDBLK
  0
BLOCK
  8
LAYER_22
  2
AIGNBL16030015
 70
64
 10
0
 20
0
 30
0
  3
AIGNBL16030015
  0
INSERT
  8
LAYER_22
  2
AIGNBL16040016
 10
0
 20
0
 30
0
  0
INSERT
  8
LAYER_22
  2
AIGNBL16040017
 10
0
 20
0
 30
0
  0
INSERT
  8
LAYER_22
  2
AIGNBL16040018
 10
0
 20
0
 30
0
  0
INSERT
  8
LAYER_22
  2
AIGNBL16040019
 10
0
 20
0
 30
0
  0
INSERT
  8
LAYER_22
  2
AIGNBL1604001A
 10
0
 20
0
 30
0
  0
INSERT
  8
LAYER_22
  2
AIGNBL1604001B
 10
0
 20
0
 30
0
  0
INSERT
  8
LAYER_22
  2
AIGNBL1604001C
 10
0
 20
0
 30
0
  0
INSERT
  8
LAYER_22
  2
AIGNBL1604001D
 10
0
 20
0
 30
0
  0
INSERT
  8
LAYER_22
  2
AIGNBL1604001E
 10
0
 20
0
 30
0
  0
INSERT
  8
LAYER_22
  2
AIGNBL1604001F
 10
0
 20
0
 30
0
  0
ENDBLK
  0
BLOCK
  8
LAYER_22
  2
AIGNBL16030020
 70
64
 10
0
 20
0
 30
0
  3
AIGNBL16030020
  0
POLYLINE
  8
LAYER_22
 40
0.1058
 41
0.1058
 66
1
 10
0
 20
0
 30
0
  0
VERTEX
  8
LAYER_22
 10
215.7835
 20
-202.0199
  0
VERTEX
  8
LAYER_22
 10
217.874
 20
-202.0199
  0
SEQEND
  0
ENDBLK
  0
BLOCK
  8
LAYER_22
  2
AIGNBL16030021
 70
64
 10
0
 20
0
 30
0
  3
AIGNBL16030021
  0
POLYLINE
  8
LAYER_22
 40
0.1058
 41
0.1058
 66
1
 10
0
 20
0
 30
0
  0
VERTEX
  8
LAYER_22
 10
209.7436
 20
-199.4202
  0
VERTEX
  8
LAYER_22
 10
210.3837
 20
-199.4202
  0
SEQEND
  0
ENDBLK
  0
BLOCK
  8
LAYER_22
  2
AIGNBL16030022
 70
64
 10
0
 20
0
 30
0
  3
AIGNBL16030022
  0
POLYLINE
  8
LAYER_22
 40
0.1058
 41
0.1058
 66
1
 10
0
 20
0
 30
0
  0
VERTEX
  8
LAYER_22
 10
214.1836
 20
-199.4202
  0
VERTEX
  8
LAYER_22
 10
214.8244
 20
-199.4202
  0
SEQEND
  0
ENDBLK
  0
BLOCK
  8
LAYER_22
  2
AIGNBL16030023
 70
64
 10
0
 20
0
 30
0
  3
AIGNBL16030023
  0
POLYLINE
  8
LAYER_22
 40
0.1058
 41
0.1058
 66
1
 10
0
 20
0
 30
0
  0
VERTEX
  8
LAYER_22
 10
214.8237
 20
-205.8202
  0
VERTEX
  8
LAYER_22
 10
214.8237
 20
-212.9698
  0
SEQEND
  0
ENDBLK
  0
BLOCK
  8
LAYER_22
  2
AIGNBL16030024
 70
64
 10
0
 20
0
 30
0
  3
AIGNBL16030024
  0
POLYLINE
  8
LAYER_22
 40
0.1058
 41
0.1058
 66
1
 10
0
 20
0
 30
0
  0
VERTEX
  8
LAYER_22
 10
218.0146
 20
-205.7389
  0
VERTEX
  8
LAYER_22
 10
218.0146
 20
-202.0199
  0
SEQEND
  0
ENDBLK
  0
BLOCK
  8
LAYER_22
  2
AIGNBL16030025
 70
64
 10
0
 20
0
 30
0
  3
AIGNBL16030025
  0
POLYLINE
  8
LAYER_22
 40
0.1058
 41
0.1058
 66
1
 10
0
 20
0
 30
0
  0
VERTEX
  8
LAYER_22
 10
218.0738
 20
-205.8202
  0
VERTEX
  8
LAYER_22
 10
217.874
 20
-205.8202
  0
SEQEND
  0
ENDBLK
  0
BLOCK
  8
LAYER_22
  2
AIGNBL16030026
 70
64
 10
0
 20
0
 30
0
  3
AIGNBL16030026
  0
POLYLINE
  8
LAYER_22
 40
0.1058
 41
0.1058
 66
1
 10
0
 20
0
 30
0
  0
VERTEX
  8
LAYER_22
 10
217.874
 20
-202.0199
  0
VERTEX
  8
LAYER_22
 10
217.874
 20
-205.8202
  0
SEQEND
  0
ENDBLK
  0
BLOCK
  8
LAYER_22
  2
AIGNBL16030027
 70
64
 10
0
 20
0
 30
0
  3
AIGNBL16030027
  0
POLYLINE
  8
LAYER_22
 40
0.1058
 41
0.1058
 66
1
 10
0
 20
0
 30
0
  0
VERTEX
  8
LAYER_22
 10
217.874
 20
-202.0199
  0
VERTEX
  8
LAYER_22
 10
218.0146
 20
-202.0199
  0
SEQEND
  0
ENDBLK
  0
BLOCK
  8
LAYER_22
  2
AIGNBL16030028
 70
64
 10
0
 20
0
 30
0
  3
AIGNBL16030028
  0
POLYLINE
  8
LAYER_22
 40
0.1058
 41
0.1058
 66
1
 10
0
 20
0
 30
0
  0
VERTEX
  8
LAYER_22
 10
218.0146
 20
-202.1016
  0
VERTEX
  8
LAYER_22
 10
217.874
 20
-202.0199
  0
SEQEND
  0
ENDBLK
  0
BLOCK
  8
LAYER_22
  2
AIGNBL16030029
 70
64
 10
0
 20
0
 30
0
  3
AIGNBL16030029
  0
POLYLINE
  8
LAYER_22
 40
0.1058
 41
0.1058
 66
1
 10
0
 20
0
 30
0
  0
VERTEX
  8
LAYER_22
 10
218.0738
 20
-202.1016
  0
VERTEX
  8
LAYER_22
 10
218.0146
 20
-202.1016
  0
SEQEND
  0
ENDBLK
  0
BLOCK
  8
LAYER_22
  2
AIGNBL1603002A
 70
64
 10
0
 20
0
 30
0
  3
AIGNBL1603002A
  0
POLYLINE
  8
LAYER_22
 40
0.1058
 41
0.1058
 66
1
 10
0
 20
0
 30
0
  0
VERTEX
  8
LAYER_22
 10
218.0146
 20
-205.7389
  0
VERTEX
  8
LAYER_22
 10
217.874
 20
-205.8202
  0
SEQEND
  0
ENDBLK
  0
BLOCK
  8
LAYER_22
  2
AIGNBL1603002B
 70
64
 10
0
 20
0
 30
0
  3
AIGNBL1603002B
  0
POLYLINE
  8
LAYER_22
 40
0.1058
 41
0.1058
 66
1
 10
0
 20
0
 30
0
  0
VERTEX
  8
LAYER_22
 10
218.0146
 20
-205.8202
  0
VERTEX
  8
LAYER_22
 10
218.0146
 20
-205.7389
  0
SEQEND
  0
ENDBLK
  0
BLOCK
  8
LAYER_22
  2
AIGNBL1603002C
 70
64
 10
0
 20
0
 30
0
  3
AIGNBL1603002C
  0
POLYLINE
  8
LAYER_22
 40
0.1058
 41
0.1058
 66
1
 10
0
 20
0
 30
0
  0
VERTEX
  8
LAYER_22
 10
218.0738
 20
-205.7389
  0
VERTEX
  8
LAYER_22
 10
218.0146
 20
-205.7389
  0
SEQEND
  0
ENDBLK
  0
BLOCK
  8
LAYER_22
  2
AIGNBL1603002D
 70
64
 10
0
 20
0
 30
0
  3
AIGNBL1603002D
  0
POLYLINE
  8
LAYER_22
 40
0.1058
 41
0.1058
 66
1
 10
0
 20
0
 30
0
  0
VERTEX
  8
LAYER_22
 10
217.874
 20
-202.0199
  0
VERTEX
  8
LAYER_22
 10
218.0738
 20
-202.0199
  0
SEQEND
  0
ENDBLK
  0
BLOCK
  8
LAYER_22
  2
AIGNBL1603002E
 70
64
 10
0
 20
0
 30
0
  3
AIGNBL1603002E
  0
POLYLINE
  8
LAYER_22
 40
0.1058
 41
0.1058
 66
1
 10
0
 20
0
 30
0
  0
VERTEX
  8
LAYER_22
 10
217.874
 20
-205.8202
  0
VERTEX
  8
LAYER_22
 10
214.8237
 20
-205.8202
  0
SEQEND
  0
ENDBLK
  0
BLOCK
  8
LAYER_22
  2
AIGNBL1603002F
 70
64
 10
0
 20
0
 30
0
  3
AIGNBL1603002F
  0
POLYLINE
  8
LAYER_22
 40
0.1058
 41
0.1058
 66
1
 10
0
 20
0
 30
0
  0
VERTEX
  8
LAYER_22
 10
214.8237
 20
-202.0199
  0
VERTEX
  8
LAYER_22
 10
215.7835
 20
-202.0199
  0
SEQEND
  0
ENDBLK
  0
BLOCK
  8
LAYER_22
  2
AIGNBL16030030
 70
64
 10
0
 20
0
 30
0
  3
AIGNBL16030030
  0
POLYLINE
  8
LAYER_22
 40
0.1058
 41
0.1058
 66
1
 10
0
 20
0
 30
0
  0
VERTEX
  8
LAYER_22
 10
214.8237
 20
-199.4202
  0
VERTEX
  8
LAYER_22
 10
214.8237
 20
-202.0199
  0
SEQEND
  0
ENDBLK
  0
BLOCK
  8
LAYER_22
  2
AIGNBL16030031
 70
64
 10
0
 20
0
 30
0
  3
AIGNBL16030031
  0
POLYLINE
  8
LAYER_22
 40
0.1058
 41
0.1058
 66
1
 10
0
 20
0
 30
0
  0
VERTEX
  8
LAYER_22
 10
209.7436
 20
-212.9698
  0
VERTEX
  8
LAYER_22
 10
209.7436
 20
-199.4202
  0
SEQEND
  0
ENDBLK
  0
BLOCK
  8
LAYER_22
  2
AIGNBL16030032
 70
64
 10
0
 20
0
 30
0
  3
AIGNBL16030032
  0
POLYLINE
  8
LAYER_22
 40
0.1058
 41
0.1058
 66
1
 10
0
 20
0
 30
0
  0
VERTEX
  8
LAYER_22
 10
209.7436
 20
-212.9698
  0
VERTEX
  8
LAYER_22
 10
214.8237
 20
-212.9698
  0
SEQEND
  0
ENDBLK
  0
BLOCK
  8
LAYER_22
  2
AIGNBL16030033
 70
64
 10
0
 20
0
 30
0
  3
AIGNBL16030033
  0
POLYLINE
  8
LAYER_22
 40
0.1058
 41
0.1058
 66
1
 10
0
 20
0
 30
0
  0
VERTEX
  8
LAYER_22
 10
214.8237
 20
-202.0199
 42
0.4142175519
  0
VERTEX
  8
LAYER_22
 10
214.6095
 20
-205.6056
  0
VERTEX
  8
LAYER_22
 10
214.8237
 20
-205.8202
  0
SEQEND
  0
ENDBLK
  0
BLOCK
  8
LAYER_22
  2
AIGNBL16030035
 70
64
 10
0
 20
0
 30
0
  3
AIGNBL16030035
  0
POLYLINE
  8
LAYER_22
 40
0.1058
 41
0.1058
 66
1
 10
0
 20
0
 30
0
  0
VERTEX
  8
LAYER_22
 10
211.6432
 20
-199.2201
  0
VERTEX
  8
LAYER_22
 10
212.284
 20
-198.62
  0
SEQEND
  0
ENDBLK
  0
BLOCK
  8
LAYER_22
  2
AIGNBL16030036
 70
64
 10
0
 20
0
 30
0
  3
AIGNBL16030036
  0
POLYLINE
  8
LAYER_22
 40
0.1058
 41
0.1058
 66
1
 10
0
 20
0
 30
0
  0
VERTEX
  8
LAYER_22
 10
211.6432
 20
-198.0202
  0
VERTEX
  8
LAYER_22
 10
212.284
 20
-198.62
  0
SEQEND
  0
ENDBLK
  0
BLOCK
  8
LAYER_22
  2
AIGNBL16030037
 70
64
 10
0
 20
0
 30
0
  3
AIGNBL16030037
  0
POLYLINE
  8
LAYER_22
 40
0.1058
 41
0.1058
 66
1
 10
0
 20
0
 30
0
  0
VERTEX
  8
LAYER_22
 10
211.6432
 20
-199.2201
  0
VERTEX
  8
LAYER_22
 10
210.1839
 20
-199.2201
  0
SEQEND
  0
ENDBLK
  0
BLOCK
  8
LAYER_22
  2
AIGNBL16030038
 70
64
 10
0
 20
0
 30
0
  3
AIGNBL16030038
  0
POLYLINE
  8
LAYER_22
 40
0.1058
 41
0.1058
 66
1
 10
0
 20
0
 30
0
  0
VERTEX
  8
LAYER_22
 10
211.6432
 20
-199.2201
  0
VERTEX
  8
LAYER_22
 10
211.6432
 20
-198.0202
  0
SEQEND
  0
ENDBLK
  0
BLOCK
  8
LAYER_22
  2
AIGNBL16030039
 70
64
 10
0
 20
0
 30
0
  3
AIGNBL16030039
  0
POLYLINE
  8
LAYER_22
 40
0.1058
 41
0.1058
 66
1
 10
0
 20
0
 30
0
  0
VERTEX
  8
LAYER_22
 10
210.1839
 20
-198.0202
  0
VERTEX
  8
LAYER_22
 10
211.6432
 20
-198.0202
  0
SEQEND
  0
ENDBLK
  0
BLOCK
  8
LAYER_22
  2
AIGNBL1603003A
 70
64
 10
0
 20
0
 30
0
  3
AIGNBL1603003A
  0
POLYLINE
  8
LAYER_22
 40
0.1058
 41
0.1058
 66
1
 10
0
 20
0
 30
0
  0
VERTEX
  8
LAYER_22
 10
210.1839
 20
-199.2201
  0
VERTEX
  8
LAYER_22
 10
210.1839
 20
-198.0202
  0
SEQEND
  0
ENDBLK
  0
BLOCK
  8
LAYER_22
  2
AIGNBL1603003B
 70
64
 10
0
 20
0
 30
0
  3
AIGNBL1603003B
  0
POLYLINE
  8
LAYER_22
 40
0.1058
 41
0.1058
 66
1
 10
0
 20
0
 30
0
  0
VERTEX
  8
LAYER_22
 10
214.3841
 20
-198.0202
  0
VERTEX
  8
LAYER_22
 10
214.3841
 20
-199.2201
  0
SEQEND
  0
ENDBLK
  0
BLOCK
  8
LAYER_22
  2
AIGNBL1603003C
 70
64
 10
0
 20
0
 30
0
  3
AIGNBL1603003C
  0
POLYLINE
  8
LAYER_22
 40
0.1058
 41
0.1058
 66
1
 10
0
 20
0
 30
0
  0
VERTEX
  8
LAYER_22
 10
212.9241
 20
-198.0202
  0
VERTEX
  8
LAYER_22
 10
214.3841
 20
-198.0202
  0
SEQEND
  0
ENDBLK
  0
BLOCK
  8
LAYER_22
  2
AIGNBL1603003D
 70
64
 10
0
 20
0
 30
0
  3
AIGNBL1603003D
  0
POLYLINE
  8
LAYER_22
 40
0.1058
 41
0.1058
 66
1
 10
0
 20
0
 30
0
  0
VERTEX
  8
LAYER_22
 10
212.9241
 20
-198.0202
  0
VERTEX
  8
LAYER_22
 10
212.9241
 20
-199.2201
  0
SEQEND
  0
ENDBLK
  0
BLOCK
  8
LAYER_22
  2
AIGNBL1603003E
 70
64
 10
0
 20
0
 30
0
  3
AIGNBL1603003E
  0
POLYLINE
  8
LAYER_22
 40
0.1058
 41
0.1058
 66
1
 10
0
 20
0
 30
0
  0
VERTEX
  8
LAYER_22
 10
211.6432
 20
-198.0202
  0
VERTEX
  8
LAYER_22
 10
212.9241
 20
-198.0202
  0
SEQEND
  0
ENDBLK
  0
BLOCK
  8
LAYER_22
  2
AIGNBL1603003F
 70
64
 10
0
 20
0
 30
0
  3
AIGNBL1603003F
  0
POLYLINE
  8
LAYER_22
 40
0.1058
 41
0.1058
 66
1
 10
0
 20
0
 30
0
  0
VERTEX
  8
LAYER_22
 10
214.3841
 20
-199.2201
  0
VERTEX
  8
LAYER_22
 10
212.9241
 20
-199.2201
  0
SEQEND
  0
ENDBLK
  0
BLOCK
  8
LAYER_22
  2
AIGNBL16030040
 70
64
 10
0
 20
0
 30
0
  3
AIGNBL16030040
  0
POLYLINE
  8
LAYER_22
 40
0.1058
 41
0.1058
 66
1
 10
0
 20
0
 30
0
  0
VERTEX
  8
LAYER_22
 10
212.9241
 20
-199.2201
  0
VERTEX
  8
LAYER_22
 10
211.6432
 20
-199.2201
  0
SEQEND
  0
ENDBLK
  0
BLOCK
  8
LAYER_22
  2
AIGNBL16030041
 70
64
 10
0
 20
0
 30
0
  3
AIGNBL16030041
  0
POLYLINE
  8
LAYER_22
 40
0.1058
 41
0.1058
 66
1
 10
0
 20
0
 30
0
  0
VERTEX
  8
LAYER_22
 10
212.284
 20
-198.62
  0
VERTEX
  8
LAYER_22
 10
212.9241
 20
-198.0202
  0
SEQEND
  0
ENDBLK
  0
BLOCK
  8
LAYER_22
  2
AIGNBL16030042
 70
64
 10
0
 20
0
 30
0
  3
AIGNBL16030042
  0
POLYLINE
  8
LAYER_22
 40
0.1058
 41
0.1058
 66
1
 10
0
 20
0
 30
0
  0
VERTEX
  8
LAYER_22
 10
212.284
 20
-198.62
  0
VERTEX
  8
LAYER_22
 10
212.9241
 20
-199.2201
  0
SEQEND
  0
ENDBLK
  0
BLOCK
  8
LAYER_22
  2
AIGNBL16030044
 70
64
 10
0
 20
0
 30
0
  3
AIGNBL16030044
  0
POLYLINE
  8
LAYER_22
 40
0.1058
 41
0.1058
 66
1
 10
0
 20
0
 30
0
  0
VERTEX
  8
LAYER_22
 10
234.8887
 20
-202.4027
  0
VERTEX
  8
LAYER_22
 10
234.8887
 20
-205.5074
  0
SEQEND
  0
ENDBLK
  0
BLOCK
  8
LAYER_22
  2
AIGNBL16030045
 70
64
 10
0
 20
0
 30
0
  3
AIGNBL16030045
  0
POLYLINE
  8
LAYER_22
 40
0.1058
 41
0.1058
 66
1
 10
0
 20
0
 30
0
  0
VERTEX
  8
LAYER_22
 10
234.8887
 20
-202.3324
  0
VERTEX
  8
LAYER_22
 10
234.8887
 20
-202.4027
  0
SEQEND
  0
ENDBLK
  0
BLOCK
  8
LAYER_22
  2
AIGNBL16030046
 70
64
 10
0
 20
0
 30
0
  3
AIGNBL16030046
  0
POLYLINE
  8
LAYER_22
 40
0.1058
 41
0.1058
 66
1
 10
0
 20
0
 30
0
  0
VERTEX
  8
LAYER_22
 10
234.8887
 20
-205.5074
  0
VERTEX
  8
LAYER_22
 10
233.3894
 20
-205.5074
  0
SEQEND
  0
ENDBLK
  0
BLOCK
  8
LAYER_22
  2
AIGNBL16030047
 70
64
 10
0
 20
0
 30
0
  3
AIGNBL16030047
  0
POLYLINE
  8
LAYER_22
 40
0.1058
 41
0.1058
 66
1
 10
0
 20
0
 30
0
  0
VERTEX
  8
LAYER_22
 10
219.2741
 20
-202.3324
  0
VERTEX
  8
LAYER_22
 10
231.8894
 20
-202.3324
  0
SEQEND
  0
ENDBLK
  0
BLOCK
  8
LAYER_22
  2
AIGNBL16030048
 70
64
 10
0
 20
0
 30
0
  3
AIGNBL16030048
  0
POLYLINE
  8
LAYER_22
 40
0.1058
 41
0.1058
 66
1
 10
0
 20
0
 30
0
  0
VERTEX
  8
LAYER_22
 10
231.8894
 20
-205.5074
  0
VERTEX
  8
LAYER_22
 10
219.2741
 20
-205.5074
  0
SEQEND
  0
ENDBLK
  0
BLOCK
  8
LAYER_22
  2
AIGNBL16030049
 70
64
 10
0
 20
0
 30
0
  3
AIGNBL16030049
  0
POLYLINE
  8
LAYER_22
 40
0.1058
 41
0.1058
 66
1
 10
0
 20
0
 30
0
  0
VERTEX
  8
LAYER_22
 10
233.3894
 20
-202.3324
  0
VERTEX
  8
LAYER_22
 10
234.8887
 20
-202.3324
  0
SEQEND
  0
ENDBLK
  0
BLOCK
  8
LAYER_22
  2
AIGNBL1603004B
 70
64
 10
0
 20
0
 30
0
  3
AIGNBL1603004B
  0
POLYLINE
  8
LAYER_22
 40
0.1058
 41
0.1058
 66
1
 10
0
 20
0
 30
0
  0
VERTEX
  8
LAYER_22
 10
218.0738
 20
-201.9989
  0
VERTEX
  8
LAYER_22
 10
218.0738
 20
-201.8201
  0
SEQEND
  0
ENDBLK
  0
BLOCK
  8
LAYER_22
  2
AIGNBL1603004C
 70
64
 10
0
 20
0
 30
0
  3
AIGNBL1603004C
  0
POLYLINE
  8
LAYER_22
 40
0.1058
 41
0.1058
 66
1
 10
0
 20
0
 30
0
  0
VERTEX
  8
LAYER_22
 10
219.2741
 20
-201.9989
  0
VERTEX
  8
LAYER_22
 10
219.2741
 20
-203.2798
  0
SEQEND
  0
ENDBLK
  0
BLOCK
  8
LAYER_22
  2
AIGNBL1603004D
 70
64
 10
0
 20
0
 30
0
  3
AIGNBL1603004D
  0
POLYLINE
  8
LAYER_22
 40
0.1058
 41
0.1058
 66
1
 10
0
 20
0
 30
0
  0
VERTEX
  8
LAYER_22
 10
219.2741
 20
-206.02
  0
VERTEX
  8
LAYER_22
 10
218.0738
 20
-206.02
  0
SEQEND
  0
ENDBLK
  0
BLOCK
  8
LAYER_22
  2
AIGNBL1603004E
 70
64
 10
0
 20
0
 30
0
  3
AIGNBL1603004E
  0
POLYLINE
  8
LAYER_22
 40
0.1058
 41
0.1058
 66
1
 10
0
 20
0
 30
0
  0
VERTEX
  8
LAYER_22
 10
219.2741
 20
-204.5603
  0
VERTEX
  8
LAYER_22
 10
219.2741
 20
-206.02
  0
SEQEND
  0
ENDBLK
  0
BLOCK
  8
LAYER_22
  2
AIGNBL1603004F
 70
64
 10
0
 20
0
 30
0
  3
AIGNBL1603004F
  0
POLYLINE
  8
LAYER_22
 40
0.1058
 41
0.1058
 66
1
 10
0
 20
0
 30
0
  0
VERTEX
  8
LAYER_22
 10
219.2741
 20
-204.5603
  0
VERTEX
  8
LAYER_22
 10
218.0738
 20
-204.5603
  0
SEQEND
  0
ENDBLK
  0
BLOCK
  8
LAYER_22
  2
AIGNBL16030050
 70
64
 10
0
 20
0
 30
0
  3
AIGNBL16030050
  0
POLYLINE
  8
LAYER_22
 40
0.1058
 41
0.1058
 66
1
 10
0
 20
0
 30
0
  0
VERTEX
  8
LAYER_22
 10
218.0738
 20
-206.02
  0
VERTEX
  8
LAYER_22
 10
218.0738
 20
-204.5603
  0
SEQEND
  0
ENDBLK
  0
BLOCK
  8
LAYER_22
  2
AIGNBL16030051
 70
64
 10
0
 20
0
 30
0
  3
AIGNBL16030051
  0
POLYLINE
  8
LAYER_22
 40
0.1058
 41
0.1058
 66
1
 10
0
 20
0
 30
0
  0
VERTEX
  8
LAYER_22
 10
218.0738
 20
-203.2798
  0
VERTEX
  8
LAYER_22
 10
219.2741
 20
-204.5603
  0
SEQEND
  0
ENDBLK
  0
BLOCK
  8
LAYER_22
  2
AIGNBL16030052
 70
64
 10
0
 20
0
 30
0
  3
AIGNBL16030052
  0
POLYLINE
  8
LAYER_22
 40
0.1058
 41
0.1058
 66
1
 10
0
 20
0
 30
0
  0
VERTEX
  8
LAYER_22
 10
219.2741
 20
-203.2798
  0
VERTEX
  8
LAYER_22
 10
218.0738
 20
-204.5603
  0
SEQEND
  0
ENDBLK
  0
BLOCK
  8
LAYER_22
  2
AIGNBL16030053
 70
64
 10
0
 20
0
 30
0
  3
AIGNBL16030053
  0
POLYLINE
  8
LAYER_22
 40
0.1058
 41
0.1058
 66
1
 10
0
 20
0
 30
0
  0
VERTEX
  8
LAYER_22
 10
218.0738
 20
-204.5603
  0
VERTEX
  8
LAYER_22
 10
218.0738
 20
-203.2798
  0
SEQEND
  0
ENDBLK
  0
BLOCK
  8
LAYER_22
  2
AIGNBL16030054
 70
64
 10
0
 20
0
 30
0
  3
AIGNBL16030054
  0
POLYLINE
  8
LAYER_22
 40
0.1058
 41
0.1058
 66
1
 10
0
 20
0
 30
0
  0
VERTEX
  8
LAYER_22
 10
218.0738
 20
-203.2798
  0
VERTEX
  8
LAYER_22
 10
218.0738
 20
-201.9989
  0
SEQEND
  0
ENDBLK
  0
BLOCK
  8
LAYER_22
  2
AIGNBL16030055
 70
64
 10
0
 20
0
 30
0
  3
AIGNBL16030055
  0
POLYLINE
  8
LAYER_22
 40
0.1058
 41
0.1058
 66
1
 10
0
 20
0
 30
0
  0
VERTEX
  8
LAYER_22
 10
219.2741
 20
-203.2798
  0
VERTEX
  8
LAYER_22
 10
219.2741
 20
-204.5603
  0
SEQEND
  0
ENDBLK
  0
BLOCK
  8
LAYER_22
  2
AIGNBL16030056
 70
64
 10
0
 20
0
 30
0
  3
AIGNBL16030056
  0
POLYLINE
  8
LAYER_22
 40
0.1058
 41
0.1058
 66
1
 10
0
 20
0
 30
0
  0
VERTEX
  8
LAYER_22
 10
218.0738
 20
-203.2798
  0
VERTEX
  8
LAYER_22
 10
219.2741
 20
-203.2798
  0
SEQEND
  0
ENDBLK
  0
BLOCK
  8
LAYER_22
  2
AIGNBL16030057
 70
64
 10
0
 20
0
 30
0
  3
AIGNBL16030057
  0
POLYLINE
  8
LAYER_22
 40
0.1058
 41
0.1058
 66
1
 10
0
 20
0
 30
0
  0
VERTEX
  8
LAYER_22
 10
219.2741
 20
-201.8201
  0
VERTEX
  8
LAYER_22
 10
219.2741
 20
-201.9989
  0
SEQEND
  0
ENDBLK
  0
BLOCK
  8
LAYER_22
  2
AIGNBL16030058
 70
64
 10
0
 20
0
 30
0
  3
AIGNBL16030058
  0
POLYLINE
  8
LAYER_22
 40
0.1058
 41
0.1058
 66
1
 10
0
 20
0
 30
0
  0
VERTEX
  8
LAYER_22
 10
218.0738
 20
-201.8201
  0
VERTEX
  8
LAYER_22
 10
219.2741
 20
-201.8201
  0
SEQEND
  0
ENDBLK
  0
BLOCK
  8
LAYER_22
  2
AIGNBL1603005D
 70
64
 10
0
 20
0
 30
0
  3
AIGNBL1603005D
  0
POLYLINE
  8
LAYER_22
 40
0.1058
 41
0.1058
 66
1
 10
0
 20
0
 30
0
  0
VERTEX
  8
LAYER_22
 10
210.6841
 20
-197.1218
  0
VERTEX
  8
LAYER_22
 10
210.6841
 20
-198.0202
  0
SEQEND
  0
ENDBLK
  0
BLOCK
  8
LAYER_22
  2
AIGNBL1603005E
 70
64
 10
0
 20
0
 30
0
  3
AIGNBL1603005E
  0
POLYLINE
  8
LAYER_22
 40
0.1058
 41
0.1058
 66
1
 10
0
 20
0
 30
0
  0
VERTEX
  8
LAYER_22
 10
213.8839
 20
-198.0202
  0
VERTEX
  8
LAYER_22
 10
213.8839
 20
-197.1218
  0
SEQEND
  0
ENDBLK
  0
BLOCK
  8
LAYER_22
  2
AIGNBL16030060
 70
64
 10
0
 20
0
 30
0
  3
AIGNBL16030060
  0
POLYLINE
  8
LAYER_22
 40
0.1058
 41
0.1058
 66
1
 10
0
 20
0
 30
0
  0
VERTEX
  8
LAYER_22
 10
232.9891
 20
-200.3201
  0
VERTEX
  8
LAYER_22
 10
233.3894
 20
-200.3201
  0
SEQEND
  0
ENDBLK
  0
BLOCK
  8
LAYER_22
  2
AIGNBL16030061
 70
64
 10
0
 20
0
 30
0
  3
AIGNBL16030061
  0
POLYLINE
  8
LAYER_22
 40
0.1058
 41
0.1058
 66
1
 10
0
 20
0
 30
0
  0
VERTEX
  8
LAYER_22
 10
233.3894
 20
-200.3201
  0
VERTEX
  8
LAYER_22
 10
233.3894
 20
-207.52
  0
SEQEND
  0
ENDBLK
  0
BLOCK
  8
LAYER_22
  2
AIGNBL16030062
 70
64
 10
0
 20
0
 30
0
  3
AIGNBL16030062
  0
POLYLINE
  8
LAYER_22
 40
0.1058
 41
0.1058
 66
1
 10
0
 20
0
 30
0
  0
VERTEX
  8
LAYER_22
 10
231.8894
 20
-206.2212
  0
VERTEX
  8
LAYER_22
 10
231.8894
 20
-201.6189
  0
SEQEND
  0
ENDBLK
  0
BLOCK
  8
LAYER_22
  2
AIGNBL16030063
 70
64
 10
0
 20
0
 30
0
  3
AIGNBL16030063
  0
POLYLINE
  8
LAYER_22
 40
0.1058
 41
0.1058
 66
1
 10
0
 20
0
 30
0
  0
VERTEX
  8
LAYER_22
 10
233.3894
 20
-207.52
  0
VERTEX
  8
LAYER_22
 10
232.9891
 20
-207.52
  0
SEQEND
  0
ENDBLK
  0
BLOCK
  8
LAYER_22
  2
AIGNBL16030064
 70
64
 10
0
 20
0
 30
0
  3
AIGNBL16030064
  0
POLYLINE
  8
LAYER_22
 40
0.1058
 41
0.1058
 66
1
 10
0
 20
0
 30
0
  0
VERTEX
  8
LAYER_22
 10
232.1877
 20
-207.1183
 42
0.2371231332
  0
VERTEX
  8
LAYER_22
 10
232.9891
 20
-207.52
  0
SEQEND
  0
ENDBLK
  0
BLOCK
  8
LAYER_22
  2
AIGNBL16030065
 70
64
 10
0
 20
0
 30
0
  3
AIGNBL16030065
  0
POLYLINE
  8
LAYER_22
 40
0.1058
 41
0.1058
 66
1
 10
0
 20
0
 30
0
  0
VERTEX
  8
LAYER_22
 10
231.8894
 20
-206.2212
 42
0.1618233937
  0
VERTEX
  8
LAYER_22
 10
232.1877
 20
-207.1183
  0
SEQEND
  0
ENDBLK
  0
BLOCK
  8
LAYER_22
  2
AIGNBL16030066
 70
64
 10
0
 20
0
 30
0
  3
AIGNBL16030066
  0
POLYLINE
  8
LAYER_22
 40
0.1058
 41
0.1058
 66
1
 10
0
 20
0
 30
0
  0
VERTEX
  8
LAYER_22
 10
232.9891
 20
-200.3201
 42
0.2371174761
  0
VERTEX
  8
LAYER_22
 10
232.1877
 20
-200.7218
  0
SEQEND
  0
ENDBLK
  0
BLOCK
  8
LAYER_22
  2
AIGNBL16030067
 70
64
 10
0
 20
0
 30
0
  3
AIGNBL16030067
  0
POLYLINE
  8
LAYER_22
 40
0.1058
 41
0.1058
 66
1
 10
0
 20
0
 30
0
  0
VERTEX
  8
LAYER_22
 10
232.1877
 20
-200.7218
 42
0.1618452759
  0
VERTEX
  8
LAYER_22
 10
231.8894
 20
-201.6189
  0
SEQEND
  0
ENDBLK
  0
BLOCK
  8
LAYER_22
  2
AIGNBL1603006A
 70
64
 10
0
 20
0
 30
0
  3
AIGNBL1603006A
  0
POLYLINE
  8
LAYER_22
 40
0.1058
 41
0.1058
 66
1
 10
0
 20
0
 30
0
  0
VERTEX
  8
LAYER_22
 10
137.5792
 20
-195.9093
  0
VERTEX
  8
LAYER_22
 10
137.7315
 20
-195.9093
  0
SEQEND
  0
ENDBLK
  0
BLOCK
  8
LAYER_22
  2
AIGNBL1603006B
 70
64
 10
0
 20
0
 30
0
  3
AIGNBL1603006B
  0
POLYLINE
  8
LAYER_22
 40
0.1058
 41
0.1058
 66
1
 10
0
 20
0
 30
0
  0
VERTEX
  8
LAYER_22
 10
133.2315
 20
-196.8591
  0
VERTEX
  8
LAYER_22
 10
133.2315
 20
-195.9093
  0
SEQEND
  0
ENDBLK
  0
BLOCK
  8
LAYER_22
  2
AIGNBL1603006C
 70
64
 10
0
 20
0
 30
0
  3
AIGNBL1603006C
  0
POLYLINE
  8
LAYER_22
 40
0.1058
 41
0.1058
 66
1
 10
0
 20
0
 30
0
  0
VERTEX
  8
LAYER_22
 10
135.4811
 20
-196.5091
  0
VERTEX
  8
LAYER_22
 10
136.1219
 20
-197.1092
  0
SEQEND
  0
ENDBLK
  0
BLOCK
  8
LAYER_22
  2
AIGNBL1603006D
 70
64
 10
0
 20
0
 30
0
  3
AIGNBL1603006D
  0
POLYLINE
  8
LAYER_22
 40
0.1058
 41
0.1058
 66
1
 10
0
 20
0
 30
0
  0
VERTEX
  8
LAYER_22
 10
135.4811
 20
-196.5091
  0
VERTEX
  8
LAYER_22
 10
136.1219
 20
-195.9093
  0
SEQEND
  0
ENDBLK
  0
BLOCK
  8
LAYER_22
  2
AIGNBL1603006E
 70
64
 10
0
 20
0
 30
0
  3
AIGNBL1603006E
  0
POLYLINE
  8
LAYER_22
 40
0.1058
 41
0.1058
 66
1
 10
0
 20
0
 30
0
  0
VERTEX
  8
LAYER_22
 10
136.1219
 20
-197.1092
  0
VERTEX
  8
LAYER_22
 10
134.8411
 20
-197.1092
  0
SEQEND
  0
ENDBLK
  0
BLOCK
  8
LAYER_22
  2
AIGNBL1603006F
 70
64
 10
0
 20
0
 30
0
  3
AIGNBL1603006F
  0
POLYLINE
  8
LAYER_22
 40
0.1058
 41
0.1058
 66
1
 10
0
 20
0
 30
0
  0
VERTEX
  8
LAYER_22
 10
137.7315
 20
-197.1092
  0
VERTEX
  8
LAYER_22
 10
136.1219
 20
-197.1092
  0
SEQEND
  0
ENDBLK
  0
BLOCK
  8
LAYER_22
  2
AIGNBL16030070
 70
64
 10
0
 20
0
 30
0
  3
AIGNBL16030070
  0
POLYLINE
  8
LAYER_22
 40
0.1058
 41
0.1058
 66
1
 10
0
 20
0
 30
0
  0
VERTEX
  8
LAYER_22
 10
134.8411
 20
-195.9093
  0
VERTEX
  8
LAYER_22
 10
136.1219
 20
-195.9093
  0
SEQEND
  0
ENDBLK
  0
BLOCK
  8
LAYER_22
  2
AIGNBL16030071
 70
64
 10
0
 20
0
 30
0
  3
AIGNBL16030071
  0
POLYLINE
  8
LAYER_22
 40
0.1058
 41
0.1058
 66
1
 10
0
 20
0
 30
0
  0
VERTEX
  8
LAYER_22
 10
136.1219
 20
-195.9093
  0
VERTEX
  8
LAYER_22
 10
136.1219
 20
-197.1092
  0
SEQEND
  0
ENDBLK
  0
BLOCK
  8
LAYER_22
  2
AIGNBL16030072
 70
64
 10
0
 20
0
 30
0
  3
AIGNBL16030072
  0
POLYLINE
  8
LAYER_22
 40
0.1058
 41
0.1058
 66
1
 10
0
 20
0
 30
0
  0
VERTEX
  8
LAYER_22
 10
136.1219
 20
-195.9093
  0
VERTEX
  8
LAYER_22
 10
137.5792
 20
-195.9093
  0
SEQEND
  0
ENDBLK
  0
BLOCK
  8
LAYER_22
  2
AIGNBL16030073
 70
64
 10
0
 20
0
 30
0
  3
AIGNBL16030073
  0
POLYLINE
  8
LAYER_22
 40
0.1058
 41
0.1058
 66
1
 10
0
 20
0
 30
0
  0
VERTEX
  8
LAYER_22
 10
137.7315
 20
-195.9093
  0
VERTEX
  8
LAYER_22
 10
137.7315
 20
-197.1092
  0
SEQEND
  0
ENDBLK
  0
BLOCK
  8
LAYER_22
  2
AIGNBL16030074
 70
64
 10
0
 20
0
 30
0
  3
AIGNBL16030074
  0
POLYLINE
  8
LAYER_22
 40
0.1058
 41
0.1058
 66
1
 10
0
 20
0
 30
0
  0
VERTEX
  8
LAYER_22
 10
133.2315
 20
-197.1092
  0
VERTEX
  8
LAYER_22
 10
133.2315
 20
-196.8591
  0
SEQEND
  0
ENDBLK
  0
BLOCK
  8
LAYER_22
  2
AIGNBL16030075
 70
64
 10
0
 20
0
 30
0
  3
AIGNBL16030075
  0
POLYLINE
  8
LAYER_22
 40
0.1058
 41
0.1058
 66
1
 10
0
 20
0
 30
0
  0
VERTEX
  8
LAYER_22
 10
133.2315
 20
-195.9093
  0
VERTEX
  8
LAYER_22
 10
134.8411
 20
-195.9093
  0
SEQEND
  0
ENDBLK
  0
BLOCK
  8
LAYER_22
  2
AIGNBL16030076
 70
64
 10
0
 20
0
 30
0
  3
AIGNBL16030076
  0
POLYLINE
  8
LAYER_22
 40
0.1058
 41
0.1058
 66
1
 10
0
 20
0
 30
0
  0
VERTEX
  8
LAYER_22
 10
134.8411
 20
-197.1092
  0
VERTEX
  8
LAYER_22
 10
134.8411
 20
-195.9093
  0
SEQEND
  0
ENDBLK
  0
BLOCK
  8
LAYER_22
  2
AIGNBL16030077
 70
64
 10
0
 20
0
 30
0
  3
AIGNBL16030077
  0
POLYLINE
  8
LAYER_22
 40
0.1058
 41
0.1058
 66
1
 10
0
 20
0
 30
0
  0
VERTEX
  8
LAYER_22
 10
134.8411
 20
-197.1092
  0
VERTEX
  8
LAYER_22
 10
133.2315
 20
-197.1092
  0
SEQEND
  0
ENDBLK
  0
BLOCK
  8
LAYER_22
  2
AIGNBL16030078
 70
64
 10
0
 20
0
 30
0
  3
AIGNBL16030078
  0
POLYLINE
  8
LAYER_22
 40
0.1058
 41
0.1058
 66
1
 10
0
 20
0
 30
0
  0
VERTEX
  8
LAYER_22
 10
134.8411
 20
-195.9093
  0
VERTEX
  8
LAYER_22
 10
135.4811
 20
-196.5091
  0
SEQEND
  0
ENDBLK
  0
BLOCK
  8
LAYER_22
  2
AIGNBL16030079
 70
64
 10
0
 20
0
 30
0
  3
AIGNBL16030079
  0
POLYLINE
  8
LAYER_22
 40
0.1058
 41
0.1058
 66
1
 10
0
 20
0
 30
0
  0
VERTEX
  8
LAYER_22
 10
134.8411
 20
-197.1092
  0
VERTEX
  8
LAYER_22
 10
135.4811
 20
-196.5091
  0
SEQEND
  0
ENDBLK
  0
BLOCK
  8
LAYER_22
  2
AIGNBL1603007B
 70
64
 10
0
 20
0
 30
0
  3
AIGNBL1603007B
  0
INSERT
  8
LAYER_22
  2
AIGNBL1604007C
 10
0
 20
0
 30
0
  0
INSERT
  8
LAYER_22
  2
AIGNBL1604007D
 10
0
 20
0
 30
0
  0
INSERT
  8
LAYER_22
  2
AIGNBL1604007E
 10
0
 20
0
 30
0
  0
INSERT
  8
LAYER_22
  2
AIGNBL1604007F
 10
0
 20
0
 30
0
  0
INSERT
  8
LAYER_22
  2
AIGNBL16040080
 10
0
 20
0
 30
0
  0
INSERT
  8
LAYER_22
  2
AIGNBL16040081
 10
0
 20
0
 30
0
  0
INSERT
  8
LAYER_22
  2
AIGNBL16040082
 10
0
 20
0
 30
0
  0
INSERT
  8
LAYER_22
  2
AIGNBL16040083
 10
0
 20
0
 30
0
  0
INSERT
  8
LAYER_22
  2
AIGNBL16040084
 10
0
 20
0
 30
0
  0
INSERT
  8
LAYER_22
  2
AIGNBL16040085
 10
0
 20
0
 30
0
  0
ENDBLK
  0
BLOCK
  8
LAYER_22
  2
AIGNBL16030086
 70
64
 10
0
 20
0
 30
0
  3
AIGNBL16030086
  0
POLYLINE
  8
LAYER_22
 40
0.1058
 41
0.1058
 66
1
 10
0
 20
0
 30
0
  0
VERTEX
  8
LAYER_22
 10
132.9414
 20
-199.3855
  0
VERTEX
  8
LAYER_22
 10
133.5815
 20
-199.3855
  0
SEQEND
  0
ENDBLK
  0
BLOCK
  8
LAYER_22
  2
AIGNBL16030087
 70
64
 10
0
 20
0
 30
0
  3
AIGNBL16030087
  0
POLYLINE
  8
LAYER_22
 40
0.1058
 41
0.1058
 66
1
 10
0
 20
0
 30
0
  0
VERTEX
  8
LAYER_22
 10
137.3814
 20
-199.3855
  0
VERTEX
  8
LAYER_22
 10
138.0222
 20
-199.3855
  0
SEQEND
  0
ENDBLK
  0
BLOCK
  8
LAYER_22
  2
AIGNBL16030088
 70
64
 10
0
 20
0
 30
0
  3
AIGNBL16030088
  0
POLYLINE
  8
LAYER_22
 40
0.1058
 41
0.1058
 66
1
 10
0
 20
0
 30
0
  0
VERTEX
  8
LAYER_22
 10
138.0216
 20
-203.8851
  0
VERTEX
  8
LAYER_22
 10
138.0216
 20
-212.935
  0
SEQEND
  0
ENDBLK
  0
BLOCK
  8
LAYER_22
  2
AIGNBL16030089
 70
64
 10
0
 20
0
 30
0
  3
AIGNBL16030089
  0
POLYLINE
  8
LAYER_22
 40
0.1058
 41
0.1058
 66
1
 10
0
 20
0
 30
0
  0
VERTEX
  8
LAYER_22
 10
138.0216
 20
-199.3855
  0
VERTEX
  8
LAYER_22
 10
138.0216
 20
-203.8851
  0
SEQEND
  0
ENDBLK
  0
BLOCK
  8
LAYER_22
  2
AIGNBL1603008A
 70
64
 10
0
 20
0
 30
0
  3
AIGNBL1603008A
  0
POLYLINE
  8
LAYER_22
 40
0.1058
 41
0.1058
 66
1
 10
0
 20
0
 30
0
  0
VERTEX
  8
LAYER_22
 10
132.9414
 20
-212.935
  0
VERTEX
  8
LAYER_22
 10
132.9414
 20
-199.3855
  0
SEQEND
  0
ENDBLK
  0
BLOCK
  8
LAYER_22
  2
AIGNBL1603008B
 70
64
 10
0
 20
0
 30
0
  3
AIGNBL1603008B
  0
POLYLINE
  8
LAYER_22
 40
0.1058
 41
0.1058
 66
1
 10
0
 20
0
 30
0
  0
VERTEX
  8
LAYER_22
 10
132.9414
 20
-212.935
  0
VERTEX
  8
LAYER_22
 10
138.0216
 20
-212.935
  0
SEQEND
  0
ENDBLK
  0
BLOCK
  8
LAYER_22
  2
AIGNBL1603008D
 70
64
 10
0
 20
0
 30
0
  3
AIGNBL1603008D
  0
POLYLINE
  8
LAYER_22
 40
0.1058
 41
0.1058
 66
1
 10
0
 20
0
 30
0
  0
VERTEX
  8
LAYER_22
 10
134.8411
 20
-199.1853
  0
VERTEX
  8
LAYER_22
 10
135.4811
 20
-198.5851
  0
SEQEND
  0
ENDBLK
  0
BLOCK
  8
LAYER_22
  2
AIGNBL1603008E
 70
64
 10
0
 20
0
 30
0
  3
AIGNBL1603008E
  0
POLYLINE
  8
LAYER_22
 40
0.1058
 41
0.1058
 66
1
 10
0
 20
0
 30
0
  0
VERTEX
  8
LAYER_22
 10
134.8411
 20
-197.9854
  0
VERTEX
  8
LAYER_22
 10
135.4811
 20
-198.5851
  0
SEQEND
  0
ENDBLK
  0
BLOCK
  8
LAYER_22
  2
AIGNBL1603008F
 70
64
 10
0
 20
0
 30
0
  3
AIGNBL1603008F
  0
POLYLINE
  8
LAYER_22
 40
0.1058
 41
0.1058
 66
1
 10
0
 20
0
 30
0
  0
VERTEX
  8
LAYER_22
 10
134.8411
 20
-199.1853
  0
VERTEX
  8
LAYER_22
 10
133.3817
 20
-199.1853
  0
SEQEND
  0
ENDBLK
  0
BLOCK
  8
LAYER_22
  2
AIGNBL16030090
 70
64
 10
0
 20
0
 30
0
  3
AIGNBL16030090
  0
POLYLINE
  8
LAYER_22
 40
0.1058
 41
0.1058
 66
1
 10
0
 20
0
 30
0
  0
VERTEX
  8
LAYER_22
 10
134.8411
 20
-199.1853
  0
VERTEX
  8
LAYER_22
 10
134.8411
 20
-197.9854
  0
SEQEND
  0
ENDBLK
  0
BLOCK
  8
LAYER_22
  2
AIGNBL16030091
 70
64
 10
0
 20
0
 30
0
  3
AIGNBL16030091
  0
POLYLINE
  8
LAYER_22
 40
0.1058
 41
0.1058
 66
1
 10
0
 20
0
 30
0
  0
VERTEX
  8
LAYER_22
 10
133.3817
 20
-197.9854
  0
VERTEX
  8
LAYER_22
 10
134.8411
 20
-197.9854
  0
SEQEND
  0
ENDBLK
  0
BLOCK
  8
LAYER_22
  2
AIGNBL16030092
 70
64
 10
0
 20
0
 30
0
  3
AIGNBL16030092
  0
POLYLINE
  8
LAYER_22
 40
0.1058
 41
0.1058
 66
1
 10
0
 20
0
 30
0
  0
VERTEX
  8
LAYER_22
 10
133.3817
 20
-199.1853
  0
VERTEX
  8
LAYER_22
 10
133.3817
 20
-197.9854
  0
SEQEND
  0
ENDBLK
  0
BLOCK
  8
LAYER_22
  2
AIGNBL16030093
 70
64
 10
0
 20
0
 30
0
  3
AIGNBL16030093
  0
POLYLINE
  8
LAYER_22
 40
0.1058
 41
0.1058
 66
1
 10
0
 20
0
 30
0
  0
VERTEX
  8
LAYER_22
 10
137.5813
 20
-197.9854
  0
VERTEX
  8
LAYER_22
 10
137.5813
 20
-199.1853
  0
SEQEND
  0
ENDBLK
  0
BLOCK
  8
LAYER_22
  2
AIGNBL16030094
 70
64
 10
0
 20
0
 30
0
  3
AIGNBL16030094
  0
POLYLINE
  8
LAYER_22
 40
0.1058
 41
0.1058
 66
1
 10
0
 20
0
 30
0
  0
VERTEX
  8
LAYER_22
 10
136.1219
 20
-197.9854
  0
VERTEX
  8
LAYER_22
 10
137.5813
 20
-197.9854
  0
SEQEND
  0
ENDBLK
  0
BLOCK
  8
LAYER_22
  2
AIGNBL16030095
 70
64
 10
0
 20
0
 30
0
  3
AIGNBL16030095
  0
POLYLINE
  8
LAYER_22
 40
0.1058
 41
0.1058
 66
1
 10
0
 20
0
 30
0
  0
VERTEX
  8
LAYER_22
 10
136.1219
 20
-197.9854
  0
VERTEX
  8
LAYER_22
 10
136.1219
 20
-199.1853
  0
SEQEND
  0
ENDBLK
  0
BLOCK
  8
LAYER_22
  2
AIGNBL16030096
 70
64
 10
0
 20
0
 30
0
  3
AIGNBL16030096
  0
POLYLINE
  8
LAYER_22
 40
0.1058
 41
0.1058
 66
1
 10
0
 20
0
 30
0
  0
VERTEX
  8
LAYER_22
 10
134.8411
 20
-197.9854
  0
VERTEX
  8
LAYER_22
 10
136.1219
 20
-197.9854
  0
SEQEND
  0
ENDBLK
  0
BLOCK
  8
LAYER_22
  2
AIGNBL16030097
 70
64
 10
0
 20
0
 30
0
  3
AIGNBL16030097
  0
POLYLINE
  8
LAYER_22
 40
0.1058
 41
0.1058
 66
1
 10
0
 20
0
 30
0
  0
VERTEX
  8
LAYER_22
 10
137.5813
 20
-199.1853
  0
VERTEX
  8
LAYER_22
 10
136.1219
 20
-199.1853
  0
SEQEND
  0
ENDBLK
  0
BLOCK
  8
LAYER_22
  2
AIGNBL16030098
 70
64
 10
0
 20
0
 30
0
  3
AIGNBL16030098
  0
POLYLINE
  8
LAYER_22
 40
0.1058
 41
0.1058
 66
1
 10
0
 20
0
 30
0
  0
VERTEX
  8
LAYER_22
 10
136.1219
 20
-199.1853
  0
VERTEX
  8
LAYER_22
 10
134.8411
 20
-199.1853
  0
SEQEND
  0
ENDBLK
  0
BLOCK
  8
LAYER_22
  2
AIGNBL16030099
 70
64
 10
0
 20
0
 30
0
  3
AIGNBL16030099
  0
POLYLINE
  8
LAYER_22
 40
0.1058
 41
0.1058
 66
1
 10
0
 20
0
 30
0
  0
VERTEX
  8
LAYER_22
 10
135.4811
 20
-198.5851
  0
VERTEX
  8
LAYER_22
 10
136.1219
 20
-197.9854
  0
SEQEND
  0
ENDBLK
  0
BLOCK
  8
LAYER_22
  2
AIGNBL1603009A
 70
64
 10
0
 20
0
 30
0
  3
AIGNBL1603009A
  0
POLYLINE
  8
LAYER_22
 40
0.1058
 41
0.1058
 66
1
 10
0
 20
0
 30
0
  0
VERTEX
  8
LAYER_22
 10
135.4811
 20
-198.5851
  0
VERTEX
  8
LAYER_22
 10
136.1219
 20
-199.1853
  0
SEQEND
  0
ENDBLK
  0
BLOCK
  8
LAYER_22
  2
AIGNBL1603009D
 70
64
 10
0
 20
0
 30
0
  3
AIGNBL1603009D
  0
INSERT
  8
LAYER_22
  2
AIGNBL1604009E
 10
0
 20
0
 30
0
  0
ENDBLK
  0
BLOCK
  8
LAYER_22
  2
AIGNBL160300A1
 70
64
 10
0
 20
0
 30
0
  3
AIGNBL160300A1
  0
POLYLINE
  8
LAYER_22
 40
0.1058
 41
0.1058
 66
1
 10
0
 20
0
 30
0
  0
VERTEX
  8
LAYER_22
 10
133.8813
 20
-197.1092
  0
VERTEX
  8
LAYER_22
 10
133.8813
 20
-197.9854
  0
SEQEND
  0
ENDBLK
  0
BLOCK
  8
LAYER_22
  2
AIGNBL160300A2
 70
64
 10
0
 20
0
 30
0
  3
AIGNBL160300A2
  0
POLYLINE
  8
LAYER_22
 40
0.1058
 41
0.1058
 66
1
 10
0
 20
0
 30
0
  0
VERTEX
  8
LAYER_22
 10
137.0817
 20
-197.9854
  0
VERTEX
  8
LAYER_22
 10
137.0817
 20
-197.1092
  0
SEQEND
  0
ENDBLK
  0
BLOCK
  8
LAYER_33
  2
AIGNBL21030004
 70
64
 10
0
 20
0
 30
0
  3
AIGNBL21030004
  0
POLYLINE
  8
LAYER_33
 40
0.0882
 41
0.0882
 66
1
 10
0
 20
0
 30
0
  0
VERTEX
  8
LAYER_33
 10
125.4618
 20
-202.3202
  0
VERTEX
  8
LAYER_33
 10
125.4811
 20
-202.3202
  0
SEQEND
  0
ENDBLK
  0
BLOCK
  8
LAYER_33
  2
AIGNBL21030005
 70
64
 10
0
 20
0
 30
0
  3
AIGNBL21030005
  0
POLYLINE
  8
LAYER_33
 40
0.0882
 41
0.0882
 66
1
 10
0
 20
0
 30
0
  0
VERTEX
  8
LAYER_33
 10
124.4531
 20
-202.3202
  0
VERTEX
  8
LAYER_33
 10
125.4618
 20
-202.3202
  0
SEQEND
  0
ENDBLK
  0
BLOCK
  8
LAYER_33
  2
AIGNBL21030006
 70
64
 10
0
 20
0
 30
0
  3
AIGNBL21030006
  0
POLYLINE
  8
LAYER_33
 40
0.0882
 41
0.0882
 66
1
 10
0
 20
0
 30
0
  0
VERTEX
  8
LAYER_33
 10
125.5003
 20
-202.3202
  0
VERTEX
  8
LAYER_33
 10
126.5091
 20
-202.3202
  0
SEQEND
  0
ENDBLK
  0
BLOCK
  8
LAYER_33
  2
AIGNBL21030007
 70
64
 10
0
 20
0
 30
0
  3
AIGNBL21030007
  0
POLYLINE
  8
LAYER_33
 40
0.0882
 41
0.0882
 66
1
 10
0
 20
0
 30
0
  0
VERTEX
  8
LAYER_33
 10
126.806
 20
-202.2196
  0
VERTEX
  8
LAYER_33
 10
126.7509
 20
-202.261
  0
SEQEND
  0
ENDBLK
  0
BLOCK
  8
LAYER_33
  2
AIGNBL21030008
 70
64
 10
0
 20
0
 30
0
  3
AIGNBL21030008
  0
POLYLINE
  8
LAYER_33
 40
0.0882
 41
0.0882
 66
1
 10
0
 20
0
 30
0
  0
VERTEX
  8
LAYER_33
 10
126.5277
 20
-202.3202
  0
VERTEX
  8
LAYER_33
 10
126.5187
 20
-202.3202
  0
SEQEND
  0
ENDBLK
  0
BLOCK
  8
LAYER_33
  2
AIGNBL21030009
 70
64
 10
0
 20
0
 30
0
  3
AIGNBL21030009
  0
POLYLINE
  8
LAYER_33
 40
0.0882
 41
0.0882
 66
1
 10
0
 20
0
 30
0
  0
VERTEX
  8
LAYER_33
 10
124.4531
 20
-202.3202
  0
VERTEX
  8
LAYER_33
 10
124.4441
 20
-202.3202
  0
SEQEND
  0
ENDBLK
  0
BLOCK
  8
LAYER_33
  2
AIGNBL2103000A
 70
64
 10
0
 20
0
 30
0
  3
AIGNBL2103000A
  0
POLYLINE
  8
LAYER_33
 40
0.0882
 41
0.0882
 66
1
 10
0
 20
0
 30
0
  0
VERTEX
  8
LAYER_33
 10
126.5187
 20
-202.3202
  0
VERTEX
  8
LAYER_33
 10
126.5091
 20
-202.3202
  0
SEQEND
  0
ENDBLK
  0
BLOCK
  8
LAYER_33
  2
AIGNBL2103000C
 70
64
 10
0
 20
0
 30
0
  3
AIGNBL2103000C
  0
POLYLINE
  8
LAYER_33
 40
0.0882
 41
0.0882
 66
1
 10
0
 20
0
 30
0
  0
VERTEX
  8
LAYER_33
 10
125.8111
 20
-201.7704
  0
VERTEX
  8
LAYER_33
 10
125.151
 20
-201.7704
  0
SEQEND
  0
ENDBLK
  0
BLOCK
  8
LAYER_33
  2
AIGNBL2103000D
 70
64
 10
0
 20
0
 30
0
  3
AIGNBL2103000D
  0
POLYLINE
  8
LAYER_33
 40
0.0882
 41
0.0882
 66
1
 10
0
 20
0
 30
0
  0
VERTEX
  8
LAYER_33
 10
125.7815
 20
-201.5699
  0
VERTEX
  8
LAYER_33
 10
125.1813
 20
-201.5699
  0
SEQEND
  0
ENDBLK
  0
BLOCK
  8
LAYER_33
  2
AIGNBL2103000E
 70
64
 10
0
 20
0
 30
0
  3
AIGNBL2103000E
  0
POLYLINE
  8
LAYER_33
 40
0.0882
 41
0.0882
 66
1
 10
0
 20
0
 30
0
  0
VERTEX
  8
LAYER_33
 10
125.8311
 20
-201.7504
  0
VERTEX
  8
LAYER_33
 10
125.8311
 20
-201.6202
  0
SEQEND
  0
ENDBLK
  0
BLOCK
  8
LAYER_33
  2
AIGNBL2103000F
 70
64
 10
0
 20
0
 30
0
  3
AIGNBL2103000F
  0
POLYLINE
  8
LAYER_33
 40
0.0882
 41
0.0882
 66
1
 10
0
 20
0
 30
0
  0
VERTEX
  8
LAYER_33
 10
125.131
 20
-201.7504
  0
VERTEX
  8
LAYER_33
 10
125.131
 20
-201.6202
  0
SEQEND
  0
ENDBLK
  0
BLOCK
  8
LAYER_33
  2
AIGNBL21030010
 70
64
 10
0
 20
0
 30
0
  3
AIGNBL21030010
  0
POLYLINE
  8
LAYER_33
 40
0.0882
 41
0.0882
 66
1
 10
0
 20
0
 30
0
  0
VERTEX
  8
LAYER_33
 10
125.8311
 20
-201.7504
  0
VERTEX
  8
LAYER_33
 10
125.8111
 20
-201.7704
  0
SEQEND
  0
ENDBLK
  0
BLOCK
  8
LAYER_33
  2
AIGNBL21030011
 70
64
 10
0
 20
0
 30
0
  3
AIGNBL21030011
  0
POLYLINE
  8
LAYER_33
 40
0.0882
 41
0.0882
 66
1
 10
0
 20
0
 30
0
  0
VERTEX
  8
LAYER_33
 10
125.131
 20
-201.7504
  0
VERTEX
  8
LAYER_33
 10
125.151
 20
-201.7704
  0
SEQEND
  0
ENDBLK
  0
BLOCK
  8
LAYER_33
  2
AIGNBL21030012
 70
64
 10
0
 20
0
 30
0
  3
AIGNBL21030012
  0
POLYLINE
  8
LAYER_33
 40
0.0882
 41
0.0882
 66
1
 10
0
 20
0
 30
0
  0
VERTEX
  8
LAYER_33
 10
125.4811
 20
-202.4298
  0
VERTEX
  8
LAYER_33
 10
125.4811
 20
-201.1702
  0
SEQEND
  0
ENDBLK
  0
BLOCK
  8
LAYER_33
  2
AIGNBL21030013
 70
64
 10
0
 20
0
 30
0
  3
AIGNBL21030013
  0
POLYLINE
  8
LAYER_33
 40
0.0882
 41
0.0882
 66
1
 10
0
 20
0
 30
0
  0
VERTEX
  8
LAYER_33
 10
125.131
 20
-201.6202
 42
-0.3898748544
  0
VERTEX
  8
LAYER_33
 10
125.1813
 20
-201.5699
  0
SEQEND
  0
ENDBLK
  0
BLOCK
  8
LAYER_33
  2
AIGNBL21030014
 70
64
 10
0
 20
0
 30
0
  3
AIGNBL21030014
  0
POLYLINE
  8
LAYER_33
 40
0.0882
 41
0.0882
 66
1
 10
0
 20
0
 30
0
  0
VERTEX
  8
LAYER_33
 10
125.7815
 20
-201.5699
 42
-0.3916199382
  0
VERTEX
  8
LAYER_33
 10
125.8311
 20
-201.6202
  0
SEQEND
  0
ENDBLK
  0
BLOCK
  8
LAYER_33
  2
AIGNBL21030015
 70
64
 10
0
 20
0
 30
0
  3
AIGNBL21030015
  0
POLYLINE
  8
LAYER_33
 40
0.0882
 41
0.0882
 66
1
 10
0
 20
0
 30
0
 70
1
  0
VERTEX
  8
LAYER_33
 10
124.0314
 20
-204.9199
 42
-0.4142262883
  0
VERTEX
  8
LAYER_33
 10
125.4811
 20
-203.4702
 42
-0.4142061109
  0
VERTEX
  8
LAYER_33
 10
126.9315
 20
-204.9199
 42
-0.4142008433
  0
VERTEX
  8
LAYER_33
 10
125.4811
 20
-206.3703
 42
-0.4142210074
  0
SEQEND
  0
ENDBLK
  0
BLOCK
  8
LAYER_33
  2
AIGNBL21030016
 70
64
 10
0
 20
0
 30
0
  3
AIGNBL21030016
  0
POLYLINE
  8
LAYER_33
 40
0.0882
 41
0.0882
 66
1
 10
0
 20
0
 30
0
  0
VERTEX
  8
LAYER_33
 10
125.131
 20
-202.62
  0
VERTEX
  8
LAYER_33
 10
124.0314
 20
-202.62
  0
SEQEND
  0
ENDBLK
  0
BLOCK
  8
LAYER_33
  2
AIGNBL21030017
 70
64
 10
0
 20
0
 30
0
  3
AIGNBL21030017
  0
POLYLINE
  8
LAYER_33
 40
0.0882
 41
0.0882
 66
1
 10
0
 20
0
 30
0
  0
VERTEX
  8
LAYER_33
 10
124.431
 20
-202.5214
  0
VERTEX
  8
LAYER_33
 10
124.431
 20
-202.62
  0
SEQEND
  0
ENDBLK
  0
BLOCK
  8
LAYER_33
  2
AIGNBL21030018
 70
64
 10
0
 20
0
 30
0
  3
AIGNBL21030018
  0
POLYLINE
  8
LAYER_33
 40
0.0882
 41
0.0882
 66
1
 10
0
 20
0
 30
0
  0
VERTEX
  8
LAYER_33
 10
124.431
 20
-202.3202
  0
VERTEX
  8
LAYER_33
 10
124.431
 20
-202.5214
  0
SEQEND
  0
ENDBLK
  0
BLOCK
  8
LAYER_33
  2
AIGNBL21030019
 70
64
 10
0
 20
0
 30
0
  3
AIGNBL21030019
  0
POLYLINE
  8
LAYER_33
 40
0.0882
 41
0.0882
 66
1
 10
0
 20
0
 30
0
  0
VERTEX
  8
LAYER_33
 10
126.5311
 20
-202.5214
  0
VERTEX
  8
LAYER_33
 10
126.5311
 20
-202.62
  0
SEQEND
  0
ENDBLK
  0
BLOCK
  8
LAYER_33
  2
AIGNBL2103001A
 70
64
 10
0
 20
0
 30
0
  3
AIGNBL2103001A
  0
POLYLINE
  8
LAYER_33
 40
0.0882
 41
0.0882
 66
1
 10
0
 20
0
 30
0
  0
VERTEX
  8
LAYER_33
 10
126.5311
 20
-202.3202
  0
VERTEX
  8
LAYER_33
 10
126.4154
 20
-202.3202
  0
SEQEND
  0
ENDBLK
  0
BLOCK
  8
LAYER_33
  2
AIGNBL2103001B
 70
64
 10
0
 20
0
 30
0
  3
AIGNBL2103001B
  0
POLYLINE
  8
LAYER_33
 40
0.0882
 41
0.0882
 66
1
 10
0
 20
0
 30
0
  0
VERTEX
  8
LAYER_33
 10
126.5311
 20
-202.3202
  0
VERTEX
  8
LAYER_33
 10
126.5311
 20
-202.5214
  0
SEQEND
  0
ENDBLK
  0
BLOCK
  8
LAYER_33
  2
AIGNBL2103001C
 70
64
 10
0
 20
0
 30
0
  3
AIGNBL2103001C
  0
POLYLINE
  8
LAYER_33
 40
0.0882
 41
0.0882
 66
1
 10
0
 20
0
 30
0
  0
VERTEX
  8
LAYER_33
 10
126.5311
 20
-202.5214
  0
VERTEX
  8
LAYER_33
 10
126.4154
 20
-202.3202
  0
SEQEND
  0
ENDBLK
  0
BLOCK
  8
LAYER_33
  2
AIGNBL2103001D
 70
64
 10
0
 20
0
 30
0
  3
AIGNBL2103001D
  0
POLYLINE
  8
LAYER_33
 40
0.0882
 41
0.0882
 66
1
 10
0
 20
0
 30
0
  0
VERTEX
  8
LAYER_33
 10
126.5311
 20
-201.5361
  0
VERTEX
  8
LAYER_33
 10
126.5311
 20
-202.3202
  0
SEQEND
  0
ENDBLK
  0
BLOCK
  8
LAYER_33
  2
AIGNBL2103001E
 70
64
 10
0
 20
0
 30
0
  3
AIGNBL2103001E
  0
POLYLINE
  8
LAYER_33
 40
0.0882
 41
0.0882
 66
1
 10
0
 20
0
 30
0
  0
VERTEX
  8
LAYER_33
 10
124.5474
 20
-202.3202
  0
VERTEX
  8
LAYER_33
 10
124.431
 20
-202.3202
  0
SEQEND
  0
ENDBLK
  0
BLOCK
  8
LAYER_33
  2
AIGNBL2103001F
 70
64
 10
0
 20
0
 30
0
  3
AIGNBL2103001F
  0
POLYLINE
  8
LAYER_33
 40
0.0882
 41
0.0882
 66
1
 10
0
 20
0
 30
0
  0
VERTEX
  8
LAYER_33
 10
124.5474
 20
-201.4204
  0
VERTEX
  8
LAYER_33
 10
124.431
 20
-201.5361
  0
SEQEND
  0
ENDBLK
  0
BLOCK
  8
LAYER_33
  2
AIGNBL21030020
 70
64
 10
0
 20
0
 30
0
  3
AIGNBL21030020
  0
POLYLINE
  8
LAYER_33
 40
0.0882
 41
0.0882
 66
1
 10
0
 20
0
 30
0
  0
VERTEX
  8
LAYER_33
 10
124.431
 20
-201.5361
  0
VERTEX
  8
LAYER_33
 10
124.431
 20
-202.3202
  0
SEQEND
  0
ENDBLK
  0
BLOCK
  8
LAYER_33
  2
AIGNBL21030021
 70
64
 10
0
 20
0
 30
0
  3
AIGNBL21030021
  0
POLYLINE
  8
LAYER_33
 40
0.0882
 41
0.0882
 66
1
 10
0
 20
0
 30
0
  0
VERTEX
  8
LAYER_33
 10
124.431
 20
-201.5361
  0
VERTEX
  8
LAYER_33
 10
124.5474
 20
-201.5361
  0
SEQEND
  0
ENDBLK
  0
BLOCK
  8
LAYER_33
  2
AIGNBL21030022
 70
64
 10
0
 20
0
 30
0
  3
AIGNBL21030022
  0
POLYLINE
  8
LAYER_33
 40
0.0882
 41
0.0882
 66
1
 10
0
 20
0
 30
0
  0
VERTEX
  8
LAYER_33
 10
124.5474
 20
-202.3202
  0
VERTEX
  8
LAYER_33
 10
124.431
 20
-202.5214
  0
SEQEND
  0
ENDBLK
  0
BLOCK
  8
LAYER_33
  2
AIGNBL21030023
 70
64
 10
0
 20
0
 30
0
  3
AIGNBL21030023
  0
POLYLINE
  8
LAYER_33
 40
0.0882
 41
0.0882
 66
1
 10
0
 20
0
 30
0
  0
VERTEX
  8
LAYER_33
 10
124.5474
 20
-201.5361
  0
VERTEX
  8
LAYER_33
 10
124.5474
 20
-202.3202
  0
SEQEND
  0
ENDBLK
  0
BLOCK
  8
LAYER_33
  2
AIGNBL21030024
 70
64
 10
0
 20
0
 30
0
  3
AIGNBL21030024
  0
POLYLINE
  8
LAYER_33
 40
0.0882
 41
0.0882
 66
1
 10
0
 20
0
 30
0
  0
VERTEX
  8
LAYER_33
 10
124.5474
 20
-201.4204
  0
VERTEX
  8
LAYER_33
 10
124.5474
 20
-201.5361
  0
SEQEND
  0
ENDBLK
  0
BLOCK
  8
LAYER_33
  2
AIGNBL21030025
 70
64
 10
0
 20
0
 30
0
  3
AIGNBL21030025
  0
POLYLINE
  8
LAYER_33
 40
0.0882
 41
0.0882
 66
1
 10
0
 20
0
 30
0
  0
VERTEX
  8
LAYER_33
 10
126.4154
 20
-201.4204
  0
VERTEX
  8
LAYER_33
 10
126.5311
 20
-201.5361
  0
SEQEND
  0
ENDBLK
  0
BLOCK
  8
LAYER_33
  2
AIGNBL21030026
 70
64
 10
0
 20
0
 30
0
  3
AIGNBL21030026
  0
POLYLINE
  8
LAYER_33
 40
0.0882
 41
0.0882
 66
1
 10
0
 20
0
 30
0
  0
VERTEX
  8
LAYER_33
 10
126.5311
 20
-201.5361
  0
VERTEX
  8
LAYER_33
 10
126.4154
 20
-201.5361
  0
SEQEND
  0
ENDBLK
  0
BLOCK
  8
LAYER_33
  2
AIGNBL21030027
 70
64
 10
0
 20
0
 30
0
  3
AIGNBL21030027
  0
POLYLINE
  8
LAYER_33
 40
0.0882
 41
0.0882
 66
1
 10
0
 20
0
 30
0
  0
VERTEX
  8
LAYER_33
 10
126.4154
 20
-201.5361
  0
VERTEX
  8
LAYER_33
 10
126.4154
 20
-201.4204
  0
SEQEND
  0
ENDBLK
  0
BLOCK
  8
LAYER_33
  2
AIGNBL21030028
 70
64
 10
0
 20
0
 30
0
  3
AIGNBL21030028
  0
POLYLINE
  8
LAYER_33
 40
0.0882
 41
0.0882
 66
1
 10
0
 20
0
 30
0
  0
VERTEX
  8
LAYER_33
 10
126.4154
 20
-201.5361
  0
VERTEX
  8
LAYER_33
 10
126.4154
 20
-201.4204
  0
SEQEND
  0
ENDBLK
  0
BLOCK
  8
LAYER_33
  2
AIGNBL21030029
 70
64
 10
0
 20
0
 30
0
  3
AIGNBL21030029
  0
POLYLINE
  8
LAYER_33
 40
0.0882
 41
0.0882
 66
1
 10
0
 20
0
 30
0
  0
VERTEX
  8
LAYER_33
 10
126.4154
 20
-202.3202
  0
VERTEX
  8
LAYER_33
 10
126.4154
 20
-201.5361
  0
SEQEND
  0
ENDBLK
  0
BLOCK
  8
LAYER_33
  2
AIGNBL2103002A
 70
64
 10
0
 20
0
 30
0
  3
AIGNBL2103002A
  0
POLYLINE
  8
LAYER_33
 40
0.0882
 41
0.0882
 66
1
 10
0
 20
0
 30
0
  0
VERTEX
  8
LAYER_33
 10
126.4154
 20
-201.4204
  0
VERTEX
  8
LAYER_33
 10
124.5474
 20
-201.4204
  0
SEQEND
  0
ENDBLK
  0
BLOCK
  8
LAYER_33
  2
AIGNBL2103002B
 70
64
 10
0
 20
0
 30
0
  3
AIGNBL2103002B
  0
POLYLINE
  8
LAYER_33
 40
0.0882
 41
0.0882
 66
1
 10
0
 20
0
 30
0
  0
VERTEX
  8
LAYER_33
 10
126.4154
 20
-202.3202
  0
VERTEX
  8
LAYER_33
 10
125.8311
 20
-202.3202
  0
SEQEND
  0
ENDBLK
  0
BLOCK
  8
LAYER_33
  2
AIGNBL2103002C
 70
64
 10
0
 20
0
 30
0
  3
AIGNBL2103002C
  0
POLYLINE
  8
LAYER_33
 40
0.0882
 41
0.0882
 66
1
 10
0
 20
0
 30
0
  0
VERTEX
  8
LAYER_33
 10
124.5474
 20
-201.5361
  0
VERTEX
  8
LAYER_33
 10
126.4154
 20
-201.5361
  0
SEQEND
  0
ENDBLK
  0
BLOCK
  8
LAYER_33
  2
AIGNBL2103002D
 70
64
 10
0
 20
0
 30
0
  3
AIGNBL2103002D
  0
POLYLINE
  8
LAYER_33
 40
0.0882
 41
0.0882
 66
1
 10
0
 20
0
 30
0
  0
VERTEX
  8
LAYER_33
 10
124.0314
 20
-202.62
  0
VERTEX
  8
LAYER_33
 10
124.0314
 20
-204.9199
  0
SEQEND
  0
ENDBLK
  0
BLOCK
  8
LAYER_33
  2
AIGNBL2103002E
 70
64
 10
0
 20
0
 30
0
  3
AIGNBL2103002E
  0
POLYLINE
  8
LAYER_33
 40
0.0882
 41
0.0882
 66
1
 10
0
 20
0
 30
0
  0
VERTEX
  8
LAYER_33
 10
126.9315
 20
-202.62
  0
VERTEX
  8
LAYER_33
 10
125.8311
 20
-202.62
  0
SEQEND
  0
ENDBLK
  0
BLOCK
  8
LAYER_33
  2
AIGNBL2103002F
 70
64
 10
0
 20
0
 30
0
  3
AIGNBL2103002F
  0
POLYLINE
  8
LAYER_33
 40
0.0882
 41
0.0882
 66
1
 10
0
 20
0
 30
0
  0
VERTEX
  8
LAYER_33
 10
126.9315
 20
-204.9199
  0
VERTEX
  8
LAYER_33
 10
126.9315
 20
-202.62
  0
SEQEND
  0
ENDBLK
  0
BLOCK
  8
LAYER_33
  2
AIGNBL21030030
 70
64
 10
0
 20
0
 30
0
  3
AIGNBL21030030
  0
POLYLINE
  8
LAYER_33
 40
0.0882
 41
0.0882
 66
1
 10
0
 20
0
 30
0
  0
VERTEX
  8
LAYER_33
 10
125.4811
 20
-206.67
  0
VERTEX
  8
LAYER_33
 10
125.4811
 20
-201.1199
  0
SEQEND
  0
ENDBLK
  0
BLOCK
  8
LAYER_33
  2
AIGNBL21030031
 70
64
 10
0
 20
0
 30
0
  3
AIGNBL21030031
  0
INSERT
  8
LAYER_33
  2
AIGNBL21040032
 10
0
 20
0
 30
0
  0
INSERT
  8
LAYER_33
  2
AIGNBL21040033
 10
0
 20
0
 30
0
  0
INSERT
  8
LAYER_33
  2
AIGNBL21040034
 10
0
 20
0
 30
0
  0
INSERT
  8
LAYER_33
  2
AIGNBL21040035
 10
0
 20
0
 30
0
  0
INSERT
  8
LAYER_33
  2
AIGNBL21040036
 10
0
 20
0
 30
0
  0
INSERT
  8
LAYER_33
  2
AIGNBL21040037
 10
0
 20
0
 30
0
  0
ENDBLK
  0
BLOCK
  8
LAYER_33
  2
AIGNBL21030038
 70
64
 10
0
 20
0
 30
0
  3
AIGNBL21030038
  0
POLYLINE
  8
LAYER_33
 40
0.0882
 41
0.0882
 66
1
 10
0
 20
0
 30
0
  0
VERTEX
  8
LAYER_33
 10
122.4811
 20
-204.9199
 42
-0.3129602276
  0
VERTEX
  8
LAYER_33
 10
124.431
 20
-202.1101
  0
SEQEND
  0
ENDBLK
  0
BLOCK
  8
LAYER_33
  2
AIGNBL21030039
 70
64
 10
0
 20
0
 30
0
  3
AIGNBL21030039
  0
POLYLINE
  8
LAYER_33
 40
0.0882
 41
0.0882
 66
1
 10
0
 20
0
 30
0
  0
VERTEX
  8
LAYER_33
 10
126.5311
 20
-202.1101
 42
-0.4142646679
  0
VERTEX
  8
LAYER_33
 10
128.2916
 20
-205.97
 42
-0.4142122886
  0
VERTEX
  8
LAYER_33
 10
124.431
 20
-207.7304
 42
-0.3129512515
  0
VERTEX
  8
LAYER_33
 10
122.4811
 20
-204.9199
  0
SEQEND
  0
ENDBLK
  0
BLOCK
  8
LAYER_33
  2
AIGNBL2103003A
 70
64
 10
0
 20
0
 30
0
  3
AIGNBL2103003A
  0
POLYLINE
  8
LAYER_33
 40
0.0882
 41
0.0882
 66
1
 10
0
 20
0
 30
0
  0
VERTEX
  8
LAYER_33
 10
125.4811
 20
-208.2203
  0
VERTEX
  8
LAYER_33
 10
125.4811
 20
-201.1199
  0
SEQEND
  0
ENDBLK
  0
BLOCK
  8
LAYER_33
  2
AIGNBL2103003B
 70
64
 10
0
 20
0
 30
0
  3
AIGNBL2103003B
  0
POLYLINE
  8
LAYER_33
 40
0.0882
 41
0.0882
 66
1
 10
0
 20
0
 30
0
  0
VERTEX
  8
LAYER_33
 10
128.7815
 20
-204.9199
  0
VERTEX
  8
LAYER_33
 10
122.1813
 20
-204.9199
  0
SEQEND
  0
ENDBLK
  0
BLOCK
  8
LAYER_33
  2
AIGNBL2103003E
 70
64
 10
0
 20
0
 30
0
  3
AIGNBL2103003E
  0
POLYLINE
  8
LAYER_33
 40
0.0882
 41
0.0882
 66
1
 10
0
 20
0
 30
0
  0
VERTEX
  8
LAYER_33
 10
145.4619
 20
-202.3202
  0
VERTEX
  8
LAYER_33
 10
145.4812
 20
-202.3202
  0
SEQEND
  0
ENDBLK
  0
BLOCK
  8
LAYER_33
  2
AIGNBL2103003F
 70
64
 10
0
 20
0
 30
0
  3
AIGNBL2103003F
  0
POLYLINE
  8
LAYER_33
 40
0.0882
 41
0.0882
 66
1
 10
0
 20
0
 30
0
  0
VERTEX
  8
LAYER_33
 10
144.4532
 20
-202.3202
  0
VERTEX
  8
LAYER_33
 10
145.4619
 20
-202.3202
  0
SEQEND
  0
ENDBLK
  0
BLOCK
  8
LAYER_33
  2
AIGNBL21030040
 70
64
 10
0
 20
0
 30
0
  3
AIGNBL21030040
  0
POLYLINE
  8
LAYER_33
 40
0.0882
 41
0.0882
 66
1
 10
0
 20
0
 30
0
  0
VERTEX
  8
LAYER_33
 10
145.5005
 20
-202.3202
  0
VERTEX
  8
LAYER_33
 10
146.5092
 20
-202.3202
  0
SEQEND
  0
ENDBLK
  0
BLOCK
  8
LAYER_33
  2
AIGNBL21030041
 70
64
 10
0
 20
0
 30
0
  3
AIGNBL21030041
  0
POLYLINE
  8
LAYER_33
 40
0.0882
 41
0.0882
 66
1
 10
0
 20
0
 30
0
  0
VERTEX
  8
LAYER_33
 10
146.8062
 20
-202.2196
  0
VERTEX
  8
LAYER_33
 10
146.7511
 20
-202.261
  0
SEQEND
  0
ENDBLK
  0
BLOCK
  8
LAYER_33
  2
AIGNBL21030042
 70
64
 10
0
 20
0
 30
0
  3
AIGNBL21030042
  0
POLYLINE
  8
LAYER_33
 40
0.0882
 41
0.0882
 66
1
 10
0
 20
0
 30
0
  0
VERTEX
  8
LAYER_33
 10
146.5278
 20
-202.3202
  0
VERTEX
  8
LAYER_33
 10
146.5189
 20
-202.3202
  0
SEQEND
  0
ENDBLK
  0
BLOCK
  8
LAYER_33
  2
AIGNBL21030043
 70
64
 10
0
 20
0
 30
0
  3
AIGNBL21030043
  0
POLYLINE
  8
LAYER_33
 40
0.0882
 41
0.0882
 66
1
 10
0
 20
0
 30
0
  0
VERTEX
  8
LAYER_33
 10
144.4532
 20
-202.3202
  0
VERTEX
  8
LAYER_33
 10
144.4442
 20
-202.3202
  0
SEQEND
  0
ENDBLK
  0
BLOCK
  8
LAYER_33
  2
AIGNBL21030044
 70
64
 10
0
 20
0
 30
0
  3
AIGNBL21030044
  0
POLYLINE
  8
LAYER_33
 40
0.0882
 41
0.0882
 66
1
 10
0
 20
0
 30
0
  0
VERTEX
  8
LAYER_33
 10
146.5189
 20
-202.3202
  0
VERTEX
  8
LAYER_33
 10
146.5092
 20
-202.3202
  0
SEQEND
  0
ENDBLK
  0
BLOCK
  8
LAYER_33
  2
AIGNBL21030046
 70
64
 10
0
 20
0
 30
0
  3
AIGNBL21030046
  0
POLYLINE
  8
LAYER_33
 40
0.0882
 41
0.0882
 66
1
 10
0
 20
0
 30
0
  0
VERTEX
  8
LAYER_33
 10
145.8112
 20
-201.7704
  0
VERTEX
  8
LAYER_33
 10
145.1512
 20
-201.7704
  0
SEQEND
  0
ENDBLK
  0
BLOCK
  8
LAYER_33
  2
AIGNBL21030047
 70
64
 10
0
 20
0
 30
0
  3
AIGNBL21030047
  0
POLYLINE
  8
LAYER_33
 40
0.0882
 41
0.0882
 66
1
 10
0
 20
0
 30
0
  0
VERTEX
  8
LAYER_33
 10
145.7816
 20
-201.5699
  0
VERTEX
  8
LAYER_33
 10
145.1815
 20
-201.5699
  0
SEQEND
  0
ENDBLK
  0
BLOCK
  8
LAYER_33
  2
AIGNBL21030048
 70
64
 10
0
 20
0
 30
0
  3
AIGNBL21030048
  0
POLYLINE
  8
LAYER_33
 40
0.0882
 41
0.0882
 66
1
 10
0
 20
0
 30
0
  0
VERTEX
  8
LAYER_33
 10
145.8312
 20
-201.7504
  0
VERTEX
  8
LAYER_33
 10
145.8312
 20
-201.6202
  0
SEQEND
  0
ENDBLK
  0
BLOCK
  8
LAYER_33
  2
AIGNBL21030049
 70
64
 10
0
 20
0
 30
0
  3
AIGNBL21030049
  0
POLYLINE
  8
LAYER_33
 40
0.0882
 41
0.0882
 66
1
 10
0
 20
0
 30
0
  0
VERTEX
  8
LAYER_33
 10
145.1312
 20
-201.7504
  0
VERTEX
  8
LAYER_33
 10
145.1312
 20
-201.6202
  0
SEQEND
  0
ENDBLK
  0
BLOCK
  8
LAYER_33
  2
AIGNBL2103004A
 70
64
 10
0
 20
0
 30
0
  3
AIGNBL2103004A
  0
POLYLINE
  8
LAYER_33
 40
0.0882
 41
0.0882
 66
1
 10
0
 20
0
 30
0
  0
VERTEX
  8
LAYER_33
 10
145.8312
 20
-201.7504
  0
VERTEX
  8
LAYER_33
 10
145.8112
 20
-201.7704
  0
SEQEND
  0
ENDBLK
  0
BLOCK
  8
LAYER_33
  2
AIGNBL2103004B
 70
64
 10
0
 20
0
 30
0
  3
AIGNBL2103004B
  0
POLYLINE
  8
LAYER_33
 40
0.0882
 41
0.0882
 66
1
 10
0
 20
0
 30
0
  0
VERTEX
  8
LAYER_33
 10
145.1312
 20
-201.7504
  0
VERTEX
  8
LAYER_33
 10
145.1512
 20
-201.7704
  0
SEQEND
  0
ENDBLK
  0
BLOCK
  8
LAYER_33
  2
AIGNBL2103004C
 70
64
 10
0
 20
0
 30
0
  3
AIGNBL2103004C
  0
POLYLINE
  8
LAYER_33
 40
0.0882
 41
0.0882
 66
1
 10
0
 20
0
 30
0
  0
VERTEX
  8
LAYER_33
 10
145.4812
 20
-202.4298
  0
VERTEX
  8
LAYER_33
 10
145.4812
 20
-201.1702
  0
SEQEND
  0
ENDBLK
  0
BLOCK
  8
LAYER_33
  2
AIGNBL2103004D
 70
64
 10
0
 20
0
 30
0
  3
AIGNBL2103004D
  0
POLYLINE
  8
LAYER_33
 40
0.0882
 41
0.0882
 66
1
 10
0
 20
0
 30
0
  0
VERTEX
  8
LAYER_33
 10
145.1312
 20
-201.6202
 42
-0.390518874
  0
VERTEX
  8
LAYER_33
 10
145.1815
 20
-201.5699
  0
SEQEND
  0
ENDBLK
  0
BLOCK
  8
LAYER_33
  2
AIGNBL2103004E
 70
64
 10
0
 20
0
 30
0
  3
AIGNBL2103004E
  0
POLYLINE
  8
LAYER_33
 40
0.0882
 41
0.0882
 66
1
 10
0
 20
0
 30
0
  0
VERTEX
  8
LAYER_33
 10
145.7816
 20
-201.5699
 42
-0.3922235239
  0
VERTEX
  8
LAYER_33
 10
145.8312
 20
-201.6202
  0
SEQEND
  0
ENDBLK
  0
BLOCK
  8
LAYER_33
  2
AIGNBL2103004F
 70
64
 10
0
 20
0
 30
0
  3
AIGNBL2103004F
  0
POLYLINE
  8
LAYER_33
 40
0.0882
 41
0.0882
 66
1
 10
0
 20
0
 30
0
 70
1
  0
VERTEX
  8
LAYER_33
 10
144.0315
 20
-204.9199
 42
-0.4142118087
  0
VERTEX
  8
LAYER_33
 10
145.4812
 20
-203.4702
 42
-0.4142205905
  0
VERTEX
  8
LAYER_33
 10
146.9316
 20
-204.9199
 42
-0.4142153153
  0
VERTEX
  8
LAYER_33
 10
145.4812
 20
-206.3703
 42
-0.4142065353
  0
SEQEND
  0
ENDBLK
  0
BLOCK
  8
LAYER_33
  2
AIGNBL21030050
 70
64
 10
0
 20
0
 30
0
  3
AIGNBL21030050
  0
POLYLINE
  8
LAYER_33
 40
0.0882
 41
0.0882
 66
1
 10
0
 20
0
 30
0
  0
VERTEX
  8
LAYER_33
 10
145.1312
 20
-202.62
  0
VERTEX
  8
LAYER_33
 10
144.0315
 20
-202.62
  0
SEQEND
  0
ENDBLK
  0
BLOCK
  8
LAYER_33
  2
AIGNBL21030051
 70
64
 10
0
 20
0
 30
0
  3
AIGNBL21030051
  0
POLYLINE
  8
LAYER_33
 40
0.0882
 41
0.0882
 66
1
 10
0
 20
0
 30
0
  0
VERTEX
  8
LAYER_33
 10
144.4311
 20
-202.5214
  0
VERTEX
  8
LAYER_33
 10
144.4311
 20
-202.62
  0
SEQEND
  0
ENDBLK
  0
BLOCK
  8
LAYER_33
  2
AIGNBL21030052
 70
64
 10
0
 20
0
 30
0
  3
AIGNBL21030052
  0
POLYLINE
  8
LAYER_33
 40
0.0882
 41
0.0882
 66
1
 10
0
 20
0
 30
0
  0
VERTEX
  8
LAYER_33
 10
144.4311
 20
-202.3202
  0
VERTEX
  8
LAYER_33
 10
144.4311
 20
-202.5214
  0
SEQEND
  0
ENDBLK
  0
BLOCK
  8
LAYER_33
  2
AIGNBL21030053
 70
64
 10
0
 20
0
 30
0
  3
AIGNBL21030053
  0
POLYLINE
  8
LAYER_33
 40
0.0882
 41
0.0882
 66
1
 10
0
 20
0
 30
0
  0
VERTEX
  8
LAYER_33
 10
146.5313
 20
-202.5214
  0
VERTEX
  8
LAYER_33
 10
146.5313
 20
-202.62
  0
SEQEND
  0
ENDBLK
  0
BLOCK
  8
LAYER_33
  2
AIGNBL21030054
 70
64
 10
0
 20
0
 30
0
  3
AIGNBL21030054
  0
POLYLINE
  8
LAYER_33
 40
0.0882
 41
0.0882
 66
1
 10
0
 20
0
 30
0
  0
VERTEX
  8
LAYER_33
 10
146.5313
 20
-202.3202
  0
VERTEX
  8
LAYER_33
 10
146.4155
 20
-202.3202
  0
SEQEND
  0
ENDBLK
  0
BLOCK
  8
LAYER_33
  2
AIGNBL21030055
 70
64
 10
0
 20
0
 30
0
  3
AIGNBL21030055
  0
POLYLINE
  8
LAYER_33
 40
0.0882
 41
0.0882
 66
1
 10
0
 20
0
 30
0
  0
VERTEX
  8
LAYER_33
 10
146.5313
 20
-202.3202
  0
VERTEX
  8
LAYER_33
 10
146.5313
 20
-202.5214
  0
SEQEND
  0
ENDBLK
  0
BLOCK
  8
LAYER_33
  2
AIGNBL21030056
 70
64
 10
0
 20
0
 30
0
  3
AIGNBL21030056
  0
POLYLINE
  8
LAYER_33
 40
0.0882
 41
0.0882
 66
1
 10
0
 20
0
 30
0
  0
VERTEX
  8
LAYER_33
 10
146.5313
 20
-202.5214
  0
VERTEX
  8
LAYER_33
 10
146.4155
 20
-202.3202
  0
SEQEND
  0
ENDBLK
  0
BLOCK
  8
LAYER_33
  2
AIGNBL21030057
 70
64
 10
0
 20
0
 30
0
  3
AIGNBL21030057
  0
POLYLINE
  8
LAYER_33
 40
0.0882
 41
0.0882
 66
1
 10
0
 20
0
 30
0
  0
VERTEX
  8
LAYER_33
 10
146.5313
 20
-201.5361
  0
VERTEX
  8
LAYER_33
 10
146.5313
 20
-202.3202
  0
SEQEND
  0
ENDBLK
  0
BLOCK
  8
LAYER_33
  2
AIGNBL21030058
 70
64
 10
0
 20
0
 30
0
  3
AIGNBL21030058
  0
POLYLINE
  8
LAYER_33
 40
0.0882
 41
0.0882
 66
1
 10
0
 20
0
 30
0
  0
VERTEX
  8
LAYER_33
 10
144.5476
 20
-202.3202
  0
VERTEX
  8
LAYER_33
 10
144.4311
 20
-202.3202
  0
SEQEND
  0
ENDBLK
  0
BLOCK
  8
LAYER_33
  2
AIGNBL21030059
 70
64
 10
0
 20
0
 30
0
  3
AIGNBL21030059
  0
POLYLINE
  8
LAYER_33
 40
0.0882
 41
0.0882
 66
1
 10
0
 20
0
 30
0
  0
VERTEX
  8
LAYER_33
 10
144.5476
 20
-201.4204
  0
VERTEX
  8
LAYER_33
 10
144.4311
 20
-201.5361
  0
SEQEND
  0
ENDBLK
  0
BLOCK
  8
LAYER_33
  2
AIGNBL2103005A
 70
64
 10
0
 20
0
 30
0
  3
AIGNBL2103005A
  0
POLYLINE
  8
LAYER_33
 40
0.0882
 41
0.0882
 66
1
 10
0
 20
0
 30
0
  0
VERTEX
  8
LAYER_33
 10
144.4311
 20
-201.5361
  0
VERTEX
  8
LAYER_33
 10
144.4311
 20
-202.3202
  0
SEQEND
  0
ENDBLK
  0
BLOCK
  8
LAYER_33
  2
AIGNBL2103005B
 70
64
 10
0
 20
0
 30
0
  3
AIGNBL2103005B
  0
POLYLINE
  8
LAYER_33
 40
0.0882
 41
0.0882
 66
1
 10
0
 20
0
 30
0
  0
VERTEX
  8
LAYER_33
 10
144.4311
 20
-201.5361
  0
VERTEX
  8
LAYER_33
 10
144.5476
 20
-201.5361
  0
SEQEND
  0
ENDBLK
  0
BLOCK
  8
LAYER_33
  2
AIGNBL2103005C
 70
64
 10
0
 20
0
 30
0
  3
AIGNBL2103005C
  0
POLYLINE
  8
LAYER_33
 40
0.0882
 41
0.0882
 66
1
 10
0
 20
0
 30
0
  0
VERTEX
  8
LAYER_33
 10
144.5476
 20
-202.3202
  0
VERTEX
  8
LAYER_33
 10
144.4311
 20
-202.5214
  0
SEQEND
  0
ENDBLK
  0
BLOCK
  8
LAYER_33
  2
AIGNBL2103005D
 70
64
 10
0
 20
0
 30
0
  3
AIGNBL2103005D
  0
POLYLINE
  8
LAYER_33
 40
0.0882
 41
0.0882
 66
1
 10
0
 20
0
 30
0
  0
VERTEX
  8
LAYER_33
 10
144.5476
 20
-201.5361
  0
VERTEX
  8
LAYER_33
 10
144.5476
 20
-202.3202
  0
SEQEND
  0
ENDBLK
  0
BLOCK
  8
LAYER_33
  2
AIGNBL2103005E
 70
64
 10
0
 20
0
 30
0
  3
AIGNBL2103005E
  0
POLYLINE
  8
LAYER_33
 40
0.0882
 41
0.0882
 66
1
 10
0
 20
0
 30
0
  0
VERTEX
  8
LAYER_33
 10
144.5476
 20
-201.4204
  0
VERTEX
  8
LAYER_33
 10
144.5476
 20
-201.5361
  0
SEQEND
  0
ENDBLK
  0
BLOCK
  8
LAYER_33
  2
AIGNBL2103005F
 70
64
 10
0
 20
0
 30
0
  3
AIGNBL2103005F
  0
POLYLINE
  8
LAYER_33
 40
0.0882
 41
0.0882
 66
1
 10
0
 20
0
 30
0
  0
VERTEX
  8
LAYER_33
 10
146.4155
 20
-201.4204
  0
VERTEX
  8
LAYER_33
 10
146.5313
 20
-201.5361
  0
SEQEND
  0
ENDBLK
  0
BLOCK
  8
LAYER_33
  2
AIGNBL21030060
 70
64
 10
0
 20
0
 30
0
  3
AIGNBL21030060
  0
POLYLINE
  8
LAYER_33
 40
0.0882
 41
0.0882
 66
1
 10
0
 20
0
 30
0
  0
VERTEX
  8
LAYER_33
 10
146.5313
 20
-201.5361
  0
VERTEX
  8
LAYER_33
 10
146.4155
 20
-201.5361
  0
SEQEND
  0
ENDBLK
  0
BLOCK
  8
LAYER_33
  2
AIGNBL21030061
 70
64
 10
0
 20
0
 30
0
  3
AIGNBL21030061
  0
POLYLINE
  8
LAYER_33
 40
0.0882
 41
0.0882
 66
1
 10
0
 20
0
 30
0
  0
VERTEX
  8
LAYER_33
 10
146.4155
 20
-201.5361
  0
VERTEX
  8
LAYER_33
 10
146.4155
 20
-201.4204
  0
SEQEND
  0
ENDBLK
  0
BLOCK
  8
LAYER_33
  2
AIGNBL21030062
 70
64
 10
0
 20
0
 30
0
  3
AIGNBL21030062
  0
POLYLINE
  8
LAYER_33
 40
0.0882
 41
0.0882
 66
1
 10
0
 20
0
 30
0
  0
VERTEX
  8
LAYER_33
 10
146.4155
 20
-201.5361
  0
VERTEX
  8
LAYER_33
 10
146.4155
 20
-201.4204
  0
SEQEND
  0
ENDBLK
  0
BLOCK
  8
LAYER_33
  2
AIGNBL21030063
 70
64
 10
0
 20
0
 30
0
  3
AIGNBL21030063
  0
POLYLINE
  8
LAYER_33
 40
0.0882
 41
0.0882
 66
1
 10
0
 20
0
 30
0
  0
VERTEX
  8
LAYER_33
 10
146.4155
 20
-202.3202
  0
VERTEX
  8
LAYER_33
 10
146.4155
 20
-201.5361
  0
SEQEND
  0
ENDBLK
  0
BLOCK
  8
LAYER_33
  2
AIGNBL21030064
 70
64
 10
0
 20
0
 30
0
  3
AIGNBL21030064
  0
POLYLINE
  8
LAYER_33
 40
0.0882
 41
0.0882
 66
1
 10
0
 20
0
 30
0
  0
VERTEX
  8
LAYER_33
 10
146.4155
 20
-201.4204
  0
VERTEX
  8
LAYER_33
 10
144.5476
 20
-201.4204
  0
SEQEND
  0
ENDBLK
  0
BLOCK
  8
LAYER_33
  2
AIGNBL21030065
 70
64
 10
0
 20
0
 30
0
  3
AIGNBL21030065
  0
POLYLINE
  8
LAYER_33
 40
0.0882
 41
0.0882
 66
1
 10
0
 20
0
 30
0
  0
VERTEX
  8
LAYER_33
 10
146.4155
 20
-202.3202
  0
VERTEX
  8
LAYER_33
 10
145.8312
 20
-202.3202
  0
SEQEND
  0
ENDBLK
  0
BLOCK
  8
LAYER_33
  2
AIGNBL21030066
 70
64
 10
0
 20
0
 30
0
  3
AIGNBL21030066
  0
POLYLINE
  8
LAYER_33
 40
0.0882
 41
0.0882
 66
1
 10
0
 20
0
 30
0
  0
VERTEX
  8
LAYER_33
 10
144.5476
 20
-201.5361
  0
VERTEX
  8
LAYER_33
 10
146.4155
 20
-201.5361
  0
SEQEND
  0
ENDBLK
  0
BLOCK
  8
LAYER_33
  2
AIGNBL21030067
 70
64
 10
0
 20
0
 30
0
  3
AIGNBL21030067
  0
POLYLINE
  8
LAYER_33
 40
0.0882
 41
0.0882
 66
1
 10
0
 20
0
 30
0
  0
VERTEX
  8
LAYER_33
 10
144.0315
 20
-202.62
  0
VERTEX
  8
LAYER_33
 10
144.0315
 20
-204.9199
  0
SEQEND
  0
ENDBLK
  0
BLOCK
  8
LAYER_33
  2
AIGNBL21030068
 70
64
 10
0
 20
0
 30
0
  3
AIGNBL21030068
  0
POLYLINE
  8
LAYER_33
 40
0.0882
 41
0.0882
 66
1
 10
0
 20
0
 30
0
  0
VERTEX
  8
LAYER_33
 10
146.9316
 20
-202.62
  0
VERTEX
  8
LAYER_33
 10
145.8312
 20
-202.62
  0
SEQEND
  0
ENDBLK
  0
BLOCK
  8
LAYER_33
  2
AIGNBL21030069
 70
64
 10
0
 20
0
 30
0
  3
AIGNBL21030069
  0
POLYLINE
  8
LAYER_33
 40
0.0882
 41
0.0882
 66
1
 10
0
 20
0
 30
0
  0
VERTEX
  8
LAYER_33
 10
146.9316
 20
-204.9199
  0
VERTEX
  8
LAYER_33
 10
146.9316
 20
-202.62
  0
SEQEND
  0
ENDBLK
  0
BLOCK
  8
LAYER_33
  2
AIGNBL2103006A
 70
64
 10
0
 20
0
 30
0
  3
AIGNBL2103006A
  0
POLYLINE
  8
LAYER_33
 40
0.0882
 41
0.0882
 66
1
 10
0
 20
0
 30
0
  0
VERTEX
  8
LAYER_33
 10
145.4812
 20
-206.67
  0
VERTEX
  8
LAYER_33
 10
145.4812
 20
-201.1199
  0
SEQEND
  0
ENDBLK
  0
BLOCK
  8
LAYER_33
  2
AIGNBL2103006B
 70
64
 10
0
 20
0
 30
0
  3
AIGNBL2103006B
  0
INSERT
  8
LAYER_33
  2
AIGNBL2104006C
 10
0
 20
0
 30
0
  0
INSERT
  8
LAYER_33
  2
AIGNBL2104006D
 10
0
 20
0
 30
0
  0
INSERT
  8
LAYER_33
  2
AIGNBL2104006E
 10
0
 20
0
 30
0
  0
INSERT
  8
LAYER_33
  2
AIGNBL2104006F
 10
0
 20
0
 30
0
  0
INSERT
  8
LAYER_33
  2
AIGNBL21040070
 10
0
 20
0
 30
0
  0
INSERT
  8
LAYER_33
  2
AIGNBL21040071
 10
0
 20
0
 30
0
  0
ENDBLK
  0
BLOCK
  8
LAYER_33
  2
AIGNBL21030072
 70
64
 10
0
 20
0
 30
0
  3
AIGNBL21030072
  0
POLYLINE
  8
LAYER_33
 40
0.0882
 41
0.0882
 66
1
 10
0
 20
0
 30
0
  0
VERTEX
  8
LAYER_33
 10
142.4812
 20
-204.9199
 42
-0.3129544011
  0
VERTEX
  8
LAYER_33
 10
144.4311
 20
-202.1101
  0
SEQEND
  0
ENDBLK
  0
BLOCK
  8
LAYER_33
  2
AIGNBL21030073
 70
64
 10
0
 20
0
 30
0
  3
AIGNBL21030073
  0
POLYLINE
  8
LAYER_33
 40
0.0882
 41
0.0882
 66
1
 10
0
 20
0
 30
0
  0
VERTEX
  8
LAYER_33
 10
146.5313
 20
-202.1101
 42
-0.4142612982
  0
VERTEX
  8
LAYER_33
 10
148.2917
 20
-205.97
 42
-0.4142131665
  0
VERTEX
  8
LAYER_33
 10
144.4311
 20
-207.7304
 42
-0.3129454257
  0
VERTEX
  8
LAYER_33
 10
142.4812
 20
-204.9199
  0
SEQEND
  0
ENDBLK
  0
BLOCK
  8
LAYER_33
  2
AIGNBL21030074
 70
64
 10
0
 20
0
 30
0
  3
AIGNBL21030074
  0
POLYLINE
  8
LAYER_33
 40
0.0882
 41
0.0882
 66
1
 10
0
 20
0
 30
0
  0
VERTEX
  8
LAYER_33
 10
145.4812
 20
-208.2203
  0
VERTEX
  8
LAYER_33
 10
145.4812
 20
-201.1199
  0
SEQEND
  0
ENDBLK
  0
BLOCK
  8
LAYER_33
  2
AIGNBL21030075
 70
64
 10
0
 20
0
 30
0
  3
AIGNBL21030075
  0
POLYLINE
  8
LAYER_33
 40
0.0882
 41
0.0882
 66
1
 10
0
 20
0
 30
0
  0
VERTEX
  8
LAYER_33
 10
148.7816
 20
-204.9199
  0
VERTEX
  8
LAYER_33
 10
142.1815
 20
-204.9199
  0
SEQEND
  0
ENDBLK
  0
BLOCK
  8
LAYER_33
  2
AIGNBL21030078
 70
64
 10
0
 20
0
 30
0
  3
AIGNBL21030078
  0
POLYLINE
  8
LAYER_33
 40
0.0882
 41
0.0882
 66
1
 10
0
 20
0
 30
0
  0
VERTEX
  8
LAYER_33
 10
222.2393
 20
-203.4698
  0
VERTEX
  8
LAYER_33
 10
222.2393
 20
-201.79
  0
SEQEND
  0
ENDBLK
  0
BLOCK
  8
LAYER_33
  2
AIGNBL21030079
 70
64
 10
0
 20
0
 30
0
  3
AIGNBL21030079
  0
POLYLINE
  8
LAYER_33
 40
0.0882
 41
0.0882
 66
1
 10
0
 20
0
 30
0
  0
VERTEX
  8
LAYER_33
 10
222.2393
 20
-201.79
  0
VERTEX
  8
LAYER_33
 10
222.2194
 20
-201.77
  0
SEQEND
  0
ENDBLK
  0
BLOCK
  8
LAYER_33
  2
AIGNBL2103007A
 70
64
 10
0
 20
0
 30
0
  3
AIGNBL2103007A
  0
POLYLINE
  8
LAYER_33
 40
0.0882
 41
0.0882
 66
1
 10
0
 20
0
 30
0
  0
VERTEX
  8
LAYER_33
 10
221.5593
 20
-201.77
  0
VERTEX
  8
LAYER_33
 10
222.2194
 20
-201.77
  0
SEQEND
  0
ENDBLK
  0
BLOCK
  8
LAYER_33
  2
AIGNBL2103007B
 70
64
 10
0
 20
0
 30
0
  3
AIGNBL2103007B
  0
POLYLINE
  8
LAYER_33
 40
0.0882
 41
0.0882
 66
1
 10
0
 20
0
 30
0
  0
VERTEX
  8
LAYER_33
 10
221.5393
 20
-201.79
  0
VERTEX
  8
LAYER_33
 10
221.5393
 20
-203.4698
  0
SEQEND
  0
ENDBLK
  0
BLOCK
  8
LAYER_33
  2
AIGNBL2103007C
 70
64
 10
0
 20
0
 30
0
  3
AIGNBL2103007C
  0
POLYLINE
  8
LAYER_33
 40
0.0882
 41
0.0882
 66
1
 10
0
 20
0
 30
0
  0
VERTEX
  8
LAYER_33
 10
221.5593
 20
-201.77
  0
VERTEX
  8
LAYER_33
 10
221.5393
 20
-201.79
  0
SEQEND
  0
ENDBLK
  0
BLOCK
  8
LAYER_33
  2
AIGNBL2103007D
 70
64
 10
0
 20
0
 30
0
  3
AIGNBL2103007D
  0
POLYLINE
  8
LAYER_33
 40
0.0882
 41
0.0882
 66
1
 10
0
 20
0
 30
0
  0
VERTEX
  8
LAYER_33
 10
221.8893
 20
-204.5699
  0
VERTEX
  8
LAYER_33
 10
221.8893
 20
-201.47
  0
SEQEND
  0
ENDBLK
  0
BLOCK
  8
LAYER_2
  2
AIGNBL02020003
 70
64
 10
0
 20
0
 30
0
  3
AIGNBL02020003
  0
POLYLINE
  8
LAYER_2
 40
0.1764
 41
0.1764
 66
1
 10
0
 20
0
 30
0
  0
VERTEX
  8
LAYER_2
 10
139.6152
 20
-108.7456
 42
0.4142082688
  0
VERTEX
  8
LAYER_2
 10
135.4997
 20
-104.6301
 42
0.4142150875
  0
VERTEX
  8
LAYER_2
 10
131.3837
 20
-108.7456
 42
0.414218856
  0
VERTEX
  8
LAYER_2
 10
135.4997
 20
-112.8612
 42
0.4142120375
  0
VERTEX
  8
LAYER_2
 10
139.6152
 20
-108.7456
  0
SEQEND
  0
ENDBLK
  0
BLOCK
  8
LAYER_2
  2
AIGNBL02020004
 70
64
 10
0
 20
0
 30
0
  3
AIGNBL02020004
  0
POLYLINE
  8
LAYER_2
 40
0.1764
 41
0.1764
 66
1
 10
0
 20
0
 30
0
  0
VERTEX
  8
LAYER_2
 10
137.7426
 20
-108.7456
 42
0.4142061702
  0
VERTEX
  8
LAYER_2
 10
135.4996
 20
-106.5026
 42
0.4142140398
  0
VERTEX
  8
LAYER_2
 10
133.2565
 20
-108.7456
 42
0.4142209547
  0
VERTEX
  8
LAYER_2
 10
135.4996
 20
-110.9887
 42
0.4142130851
  0
VERTEX
  8
LAYER_2
 10
137.7426
 20
-108.7456
  0
SEQEND
  0
ENDBLK
  0
BLOCK
  8
LAYER_2
  2
AIGNBL0202000B
 70
64
 10
0
 20
0
 30
0
  3
AIGNBL0202000B
  0
POLYLINE
  8
LAYER_2
 40
0.1764
 41
0.1764
 66
1
 10
0
 20
0
 30
0
  0
VERTEX
  8
LAYER_2
 10
137.8507
 20
-175.0004
  0
VERTEX
  8
LAYER_2
 10
133.1116
 20
-175.0004
  0
SEQEND
  0
ENDBLK
  0
BLOCK
  8
LAYER_2
  2
AIGNBL0202000C
 70
64
 10
0
 20
0
 30
0
  3
AIGNBL0202000C
  0
POLYLINE
  8
LAYER_2
 40
0.1764
 41
0.1764
 66
1
 10
0
 20
0
 30
0
  0
VERTEX
  8
LAYER_2
 10
135.4811
 20
-161.4256
 42
0.4142105833
  0
VERTEX
  8
LAYER_2
 10
134.2563
 20
-162.6505
  0
SEQEND
  0
ENDBLK
  0
BLOCK
  8
LAYER_2
  2
AIGNBL0202000D
 70
64
 10
0
 20
0
 30
0
  3
AIGNBL0202000D
  0
POLYLINE
  8
LAYER_2
 40
0.1764
 41
0.1764
 66
1
 10
0
 20
0
 30
0
  0
VERTEX
  8
LAYER_2
 10
136.706
 20
-162.6509
 42
0.4143110224
  0
VERTEX
  8
LAYER_2
 10
135.4815
 20
-161.4256
  0
SEQEND
  0
ENDBLK
  0
BLOCK
  8
LAYER_2
  2
AIGNBL0202000E
 70
64
 10
0
 20
0
 30
0
  3
AIGNBL0202000E
  0
POLYLINE
  8
LAYER_2
 40
0.1764
 41
0.1764
 66
1
 10
0
 20
0
 30
0
  0
VERTEX
  8
LAYER_2
 10
133.3613
 20
-160.3356
  0
VERTEX
  8
LAYER_2
 10
137.601
 20
-160.3356
  0
SEQEND
  0
ENDBLK
  0
BLOCK
  8
LAYER_2
  2
AIGNBL0202000F
 70
64
 10
0
 20
0
 30
0
  3
AIGNBL0202000F
  0
POLYLINE
  8
LAYER_2
 40
0.1764
 41
0.1764
 66
1
 10
0
 20
0
 30
0
  0
VERTEX
  8
LAYER_2
 10
136.6976
 20
-164.7625
  0
VERTEX
  8
LAYER_2
 10
136.706
 20
-164.8319
  0
VERTEX
  8
LAYER_2
 10
136.6978
 20
-164.9017
  0
SEQEND
  0
ENDBLK
  0
BLOCK
  8
LAYER_2
  2
AIGNBL02020010
 70
64
 10
0
 20
0
 30
0
  3
AIGNBL02020010
  0
POLYLINE
  8
LAYER_2
 40
0.1764
 41
0.1764
 66
1
 10
0
 20
0
 30
0
  0
VERTEX
  8
LAYER_2
 10
134.2645
 20
-164.902
  0
VERTEX
  8
LAYER_2
 10
134.2562
 20
-164.8331
  0
VERTEX
  8
LAYER_2
 10
134.2645
 20
-164.7628
  0
SEQEND
  0
ENDBLK
  0
BLOCK
  8
LAYER_2
  2
AIGNBL02020011
 70
64
 10
0
 20
0
 30
0
  3
AIGNBL02020011
  0
ENDBLK
  0
BLOCK
  8
LAYER_2
  2
AIGNBL02020012
 70
64
 10
0
 20
0
 30
0
  3
AIGNBL02020012
  0
POLYLINE
  8
LAYER_2
 40
0.1764
 41
0.1764
 66
1
 10
0
 20
0
 30
0
  0
VERTEX
  8
LAYER_2
 10
134.2562
 20
-162.6509
  0
VERTEX
  8
LAYER_2
 10
134.2562
 20
-164.2004
  0
SEQEND
  0
ENDBLK
  0
BLOCK
  8
LAYER_2
  2
AIGNBL02020013
 70
64
 10
0
 20
0
 30
0
  3
AIGNBL02020013
  0
POLYLINE
  8
LAYER_2
 40
0.1764
 41
0.1764
 66
1
 10
0
 20
0
 30
0
  0
VERTEX
  8
LAYER_2
 10
133.3313
 20
-160.3656
  0
VERTEX
  8
LAYER_2
 10
133.3313
 20
-174.4005
  0
SEQEND
  0
ENDBLK
  0
BLOCK
  8
LAYER_2
  2
AIGNBL02020014
 70
64
 10
0
 20
0
 30
0
  3
AIGNBL02020014
  0
POLYLINE
  8
LAYER_2
 40
0.1764
 41
0.1764
 66
1
 10
0
 20
0
 30
0
  0
VERTEX
  8
LAYER_2
 10
137.631
 20
-174.4005
  0
VERTEX
  8
LAYER_2
 10
137.631
 20
-160.3656
  0
SEQEND
  0
ENDBLK
  0
BLOCK
  8
LAYER_2
  2
AIGNBL02020015
 70
64
 10
0
 20
0
 30
0
  3
AIGNBL02020015
  0
POLYLINE
  8
LAYER_2
 40
0.1764
 41
0.1764
 66
1
 10
0
 20
0
 30
0
  0
VERTEX
  8
LAYER_2
 10
136.706
 20
-164.2004
  0
VERTEX
  8
LAYER_2
 10
136.706
 20
-162.6509
  0
SEQEND
  0
ENDBLK
  0
BLOCK
  8
LAYER_2
  2
AIGNBL02020016
 70
64
 10
0
 20
0
 30
0
  3
AIGNBL02020016
  0
POLYLINE
  8
LAYER_2
 40
0.1764
 41
0.1764
 66
1
 10
0
 20
0
 30
0
  0
VERTEX
  8
LAYER_2
 10
134.2562
 20
-164.2004
  0
VERTEX
  8
LAYER_2
 10
134.2562
 20
-164.8325
  0
SEQEND
  0
ENDBLK
  0
BLOCK
  8
LAYER_2
  2
AIGNBL02020017
 70
64
 10
0
 20
0
 30
0
  3
AIGNBL02020017
  0
POLYLINE
  8
LAYER_2
 40
0.1764
 41
0.1764
 66
1
 10
0
 20
0
 30
0
  0
VERTEX
  8
LAYER_2
 10
136.706
 20
-164.8325
  0
VERTEX
  8
LAYER_2
 10
136.706
 20
-164.2004
  0
SEQEND
  0
ENDBLK
  0
BLOCK
  8
LAYER_2
  2
AIGNBL02020018
 70
64
 10
0
 20
0
 30
0
  3
AIGNBL02020018
  0
POLYLINE
  8
LAYER_2
 40
0.1764
 41
0.1764
 66
1
 10
0
 20
0
 30
0
  0
VERTEX
  8
LAYER_2
 10
133.3613
 20
-160.3356
 42
0.3936226658
  0
VERTEX
  8
LAYER_2
 10
133.3313
 20
-160.3656
  0
SEQEND
  0
ENDBLK
  0
BLOCK
  8
LAYER_2
  2
AIGNBL02020019
 70
64
 10
0
 20
0
 30
0
  3
AIGNBL02020019
  0
POLYLINE
  8
LAYER_2
 40
0.1764
 41
0.1764
 66
1
 10
0
 20
0
 30
0
  0
VERTEX
  8
LAYER_2
 10
137.631
 20
-160.3656
 42
0.3927763308
  0
VERTEX
  8
LAYER_2
 10
137.601
 20
-160.3356
  0
SEQEND
  0
ENDBLK
  0
BLOCK
  8
LAYER_2
  2
AIGNBL0202001A
 70
64
 10
0
 20
0
 30
0
  3
AIGNBL0202001A
  0
POLYLINE
  8
LAYER_2
 40
0.1764
 41
0.1764
 66
1
 10
0
 20
0
 30
0
  0
VERTEX
  8
LAYER_2
 10
134.2653
 20
-164.9054
  0
VERTEX
  8
LAYER_2
 10
134.2716
 20
-164.9294
  0
VERTEX
  8
LAYER_2
 10
134.2839
 20
-164.9625
  0
VERTEX
  8
LAYER_2
 10
134.2997
 20
-164.9956
  0
VERTEX
  8
LAYER_2
 10
134.3192
 20
-165.0284
  0
VERTEX
  8
LAYER_2
 10
134.3422
 20
-165.0608
  0
VERTEX
  8
LAYER_2
 10
134.3687
 20
-165.0926
  0
VERTEX
  8
LAYER_2
 10
134.3986
 20
-165.1236
  0
VERTEX
  8
LAYER_2
 10
134.4316
 20
-165.1537
  0
VERTEX
  8
LAYER_2
 10
134.4676
 20
-165.1827
  0
VERTEX
  8
LAYER_2
 10
134.5063
 20
-165.2103
  0
VERTEX
  8
LAYER_2
 10
134.5477
 20
-165.2366
  0
VERTEX
  8
LAYER_2
 10
134.5914
 20
-165.2615
  0
VERTEX
  8
LAYER_2
 10
134.637
 20
-165.2845
  0
VERTEX
  8
LAYER_2
 10
134.6853
 20
-165.3064
  0
VERTEX
  8
LAYER_2
 10
134.7364
 20
-165.3271
  0
VERTEX
  8
LAYER_2
 10
134.7902
 20
-165.3466
  0
VERTEX
  8
LAYER_2
 10
134.8464
 20
-165.3647
  0
VERTEX
  8
LAYER_2
 10
134.9049
 20
-165.3814
  0
VERTEX
  8
LAYER_2
 10
134.9653
 20
-165.3966
  0
VERTEX
  8
LAYER_2
 10
135.0273
 20
-165.4101
  0
VERTEX
  8
LAYER_2
 10
135.0907
 20
-165.4219
  0
VERTEX
  8
LAYER_2
 10
135.155
 20
-165.432
  0
VERTEX
  8
LAYER_2
 10
135.2201
 20
-165.4403
  0
VERTEX
  8
LAYER_2
 10
135.2854
 20
-165.4467
  0
VERTEX
  8
LAYER_2
 10
135.343
 20
-165.4509
  0
VERTEX
  8
LAYER_2
 10
135.4051
 20
-165.4535
  0
VERTEX
  8
LAYER_2
 10
135.4666
 20
-165.4546
  0
VERTEX
  8
LAYER_2
 10
135.4811
 20
-165.4547
  0
SEQEND
  0
ENDBLK
  0
BLOCK
  8
LAYER_2
  2
AIGNBL0202001B
 70
64
 10
0
 20
0
 30
0
  3
AIGNBL0202001B
  0
POLYLINE
  8
LAYER_2
 40
0.1764
 41
0.1764
 66
1
 10
0
 20
0
 30
0
  0
VERTEX
  8
LAYER_2
 10
135.4811
 20
-165.4553
  0
VERTEX
  8
LAYER_2
 10
135.5128
 20
-165.4549
  0
VERTEX
  8
LAYER_2
 10
135.5791
 20
-165.4529
  0
VERTEX
  8
LAYER_2
 10
135.6414
 20
-165.4495
  0
VERTEX
  8
LAYER_2
 10
135.7064
 20
-165.4441
  0
VERTEX
  8
LAYER_2
 10
135.7709
 20
-165.437
  0
VERTEX
  8
LAYER_2
 10
135.8348
 20
-165.4281
  0
VERTEX
  8
LAYER_2
 10
135.8982
 20
-165.4174
  0
VERTEX
  8
LAYER_2
 10
135.9609
 20
-165.4049
  0
VERTEX
  8
LAYER_2
 10
136.0215
 20
-165.3908
  0
VERTEX
  8
LAYER_2
 10
136.0802
 20
-165.3752
  0
VERTEX
  8
LAYER_2
 10
136.1376
 20
-165.3579
  0
VERTEX
  8
LAYER_2
 10
136.1931
 20
-165.339
  0
VERTEX
  8
LAYER_2
 10
136.2467
 20
-165.3186
  0
VERTEX
  8
LAYER_2
 10
136.2979
 20
-165.2968
  0
VERTEX
  8
LAYER_2
 10
136.3466
 20
-165.2736
  0
VERTEX
  8
LAYER_2
 10
136.3925
 20
-165.2492
  0
VERTEX
  8
LAYER_2
 10
136.4353
 20
-165.2237
  0
VERTEX
  8
LAYER_2
 10
136.475
 20
-165.1972
  0
VERTEX
  8
LAYER_2
 10
136.5114
 20
-165.1697
  0
VERTEX
  8
LAYER_2
 10
136.545
 20
-165.1413
  0
VERTEX
  8
LAYER_2
 10
136.5764
 20
-165.1111
  0
VERTEX
  8
LAYER_2
 10
136.6048
 20
-165.0798
  0
VERTEX
  8
LAYER_2
 10
136.63
 20
-165.0475
  0
VERTEX
  8
LAYER_2
 10
136.6518
 20
-165.0145
  0
VERTEX
  8
LAYER_2
 10
136.67
 20
-164.9809
  0
VERTEX
  8
LAYER_2
 10
136.6846
 20
-164.947
  0
VERTEX
  8
LAYER_2
 10
136.6954
 20
-164.913
  0
VERTEX
  8
LAYER_2
 10
136.6971
 20
-164.9051
  0
SEQEND
  0
ENDBLK
  0
BLOCK
  8
LAYER_2
  2
AIGNBL0202001C
 70
64
 10
0
 20
0
 30
0
  3
AIGNBL0202001C
  0
POLYLINE
  8
LAYER_2
 40
0.1764
 41
0.1764
 66
1
 10
0
 20
0
 30
0
  0
VERTEX
  8
LAYER_2
 10
134.3938
 20
-164.8077
  0
VERTEX
  8
LAYER_2
 10
134.3953
 20
-164.7793
  0
VERTEX
  8
LAYER_2
 10
134.4005
 20
-164.7502
  0
VERTEX
  8
LAYER_2
 10
134.4093
 20
-164.7213
  0
VERTEX
  8
LAYER_2
 10
134.4215
 20
-164.6927
  0
VERTEX
  8
LAYER_2
 10
134.4372
 20
-164.6646
  0
VERTEX
  8
LAYER_2
 10
134.4561
 20
-164.6369
  0
VERTEX
  8
LAYER_2
 10
134.4782
 20
-164.6098
  0
VERTEX
  8
LAYER_2
 10
134.5036
 20
-164.5832
  0
VERTEX
  8
LAYER_2
 10
134.5321
 20
-164.5572
  0
VERTEX
  8
LAYER_2
 10
134.5637
 20
-164.5318
  0
VERTEX
  8
LAYER_2
 10
134.5984
 20
-164.5073
  0
VERTEX
  8
LAYER_2
 10
134.6359
 20
-164.4836
  0
VERTEX
  8
LAYER_2
 10
134.6763
 20
-164.4609
  0
VERTEX
  8
LAYER_2
 10
134.7194
 20
-164.4393
  0
VERTEX
  8
LAYER_2
 10
134.7651
 20
-164.4188
  0
VERTEX
  8
LAYER_2
 10
134.8132
 20
-164.3995
  0
VERTEX
  8
LAYER_2
 10
134.8636
 20
-164.3816
  0
VERTEX
  8
LAYER_2
 10
134.916
 20
-164.365
  0
VERTEX
  8
LAYER_2
 10
134.9704
 20
-164.35
  0
VERTEX
  8
LAYER_2
 10
135.0266
 20
-164.3364
  0
VERTEX
  8
LAYER_2
 10
135.0843
 20
-164.3244
  0
VERTEX
  8
LAYER_2
 10
135.1433
 20
-164.3141
  0
VERTEX
  8
LAYER_2
 10
135.2035
 20
-164.3054
  0
VERTEX
  8
LAYER_2
 10
135.2646
 20
-164.2985
  0
VERTEX
  8
LAYER_2
 10
135.3265
 20
-164.2932
  0
VERTEX
  8
LAYER_2
 10
135.3889
 20
-164.2897
  0
VERTEX
  8
LAYER_2
 10
135.4517
 20
-164.288
  0
VERTEX
  8
LAYER_2
 10
135.5145
 20
-164.2881
  0
VERTEX
  8
LAYER_2
 10
135.5772
 20
-164.2899
  0
VERTEX
  8
LAYER_2
 10
135.6396
 20
-164.2935
  0
VERTEX
  8
LAYER_2
 10
135.7015
 20
-164.2988
  0
VERTEX
  8
LAYER_2
 10
135.7626
 20
-164.3059
  0
VERTEX
  8
LAYER_2
 10
135.8228
 20
-164.3147
  0
VERTEX
  8
LAYER_2
 10
135.8818
 20
-164.3252
  0
VERTEX
  8
LAYER_2
 10
135.9394
 20
-164.3373
  0
VERTEX
  8
LAYER_2
 10
135.9955
 20
-164.3509
  0
VERTEX
  8
LAYER_2
 10
136.0498
 20
-164.3661
  0
VERTEX
  8
LAYER_2
 10
136.1022
 20
-164.3828
  0
VERTEX
  8
LAYER_2
 10
136.1525
 20
-164.4008
  0
VERTEX
  8
LAYER_2
 10
136.2005
 20
-164.4202
  0
VERTEX
  8
LAYER_2
 10
136.246
 20
-164.4408
  0
VERTEX
  8
LAYER_2
 10
136.2889
 20
-164.4625
  0
VERTEX
  8
LAYER_2
 10
136.3291
 20
-164.4853
  0
VERTEX
  8
LAYER_2
 10
136.3665
 20
-164.509
  0
VERTEX
  8
LAYER_2
 10
136.4008
 20
-164.5335
  0
VERTEX
  8
LAYER_2
 10
136.4321
 20
-164.5588
  0
VERTEX
  8
LAYER_2
 10
136.4603
 20
-164.5847
  0
VERTEX
  8
LAYER_2
 10
136.4852
 20
-164.6111
  0
VERTEX
  8
LAYER_2
 10
136.5069
 20
-164.6379
  0
VERTEX
  8
LAYER_2
 10
136.5254
 20
-164.665
  0
VERTEX
  8
LAYER_2
 10
136.5406
 20
-164.6923
  0
VERTEX
  8
LAYER_2
 10
136.5525
 20
-164.72
  0
VERTEX
  8
LAYER_2
 10
136.5612
 20
-164.7479
  0
VERTEX
  8
LAYER_2
 10
136.5666
 20
-164.7762
  0
VERTEX
  8
LAYER_2
 10
136.5685
 20
-164.8049
  0
SEQEND
  0
ENDBLK
  0
BLOCK
  8
LAYER_2
  2
AIGNBL0202001D
 70
64
 10
0
 20
0
 30
0
  3
AIGNBL0202001D
  0
POLYLINE
  8
LAYER_2
 40
0.1764
 41
0.1764
 66
1
 10
0
 20
0
 30
0
  0
VERTEX
  8
LAYER_2
 10
137.8507
 20
-175.0004
  0
VERTEX
  8
LAYER_2
 10
133.1116
 20
-175.0004
  0
SEQEND
  0
ENDBLK
  0
BLOCK
  8
LAYER_2
  2
AIGNBL0202001E
 70
64
 10
0
 20
0
 30
0
  3
AIGNBL0202001E
  0
POLYLINE
  8
LAYER_2
 40
0.1764
 41
0.1764
 66
1
 10
0
 20
0
 30
0
  0
VERTEX
  8
LAYER_2
 10
133.1361
 20
-174.4005
  0
VERTEX
  8
LAYER_2
 10
137.8262
 20
-174.4005
  0
SEQEND
  0
ENDBLK
  0
BLOCK
  8
LAYER_2
  2
AIGNBL0202001F
 70
64
 10
0
 20
0
 30
0
  3
AIGNBL0202001F
  0
POLYLINE
  8
LAYER_2
 40
0.1764
 41
0.1764
 66
1
 10
0
 20
0
 30
0
  0
VERTEX
  8
LAYER_2
 10
137.8807
 20
-174.9702
  0
VERTEX
  8
LAYER_2
 10
137.8762
 20
-174.45
  0
SEQEND
  0
ENDBLK
  0
BLOCK
  8
LAYER_2
  2
AIGNBL02020020
 70
64
 10
0
 20
0
 30
0
  3
AIGNBL02020020
  0
POLYLINE
  8
LAYER_2
 40
0.1764
 41
0.1764
 66
1
 10
0
 20
0
 30
0
  0
VERTEX
  8
LAYER_2
 10
133.0861
 20
-174.45
  0
VERTEX
  8
LAYER_2
 10
133.0816
 20
-174.9702
  0
SEQEND
  0
ENDBLK
  0
BLOCK
  8
LAYER_2
  2
AIGNBL02020021
 70
64
 10
0
 20
0
 30
0
  3
AIGNBL02020021
  0
POLYLINE
  8
LAYER_2
 40
0.1764
 41
0.1764
 66
1
 10
0
 20
0
 30
0
  0
VERTEX
  8
LAYER_2
 10
133.0816
 20
-174.9702
 42
0.3935082429
  0
VERTEX
  8
LAYER_2
 10
133.1113
 20
-175.0004
  0
SEQEND
  0
ENDBLK
  0
BLOCK
  8
LAYER_2
  2
AIGNBL02020022
 70
64
 10
0
 20
0
 30
0
  3
AIGNBL02020022
  0
POLYLINE
  8
LAYER_2
 40
0.1764
 41
0.1764
 66
1
 10
0
 20
0
 30
0
  0
VERTEX
  8
LAYER_2
 10
137.8507
 20
-175.0004
 42
0.3936226655
  0
VERTEX
  8
LAYER_2
 10
137.8807
 20
-174.9704
  0
SEQEND
  0
ENDBLK
  0
BLOCK
  8
LAYER_2
  2
AIGNBL02020023
 70
64
 10
0
 20
0
 30
0
  3
AIGNBL02020023
  0
POLYLINE
  8
LAYER_2
 40
0.1764
 41
0.1764
 66
1
 10
0
 20
0
 30
0
  0
VERTEX
  8
LAYER_2
 10
137.8762
 20
-174.45
 42
0.3899006681
  0
VERTEX
  8
LAYER_2
 10
137.8262
 20
-174.4005
  0
SEQEND
  0
ENDBLK
  0
BLOCK
  8
LAYER_2
  2
AIGNBL02020024
 70
64
 10
0
 20
0
 30
0
  3
AIGNBL02020024
  0
POLYLINE
  8
LAYER_2
 40
0.1764
 41
0.1764
 66
1
 10
0
 20
0
 30
0
  0
VERTEX
  8
LAYER_2
 10
133.1361
 20
-174.4005
 42
0.3898057758
  0
VERTEX
  8
LAYER_2
 10
133.0861
 20
-174.45
  0
SEQEND
  0
ENDBLK
  0
BLOCK
  8
LAYER_2
  2
AIGNBL02020025
 70
64
 10
0
 20
0
 30
0
  3
AIGNBL02020025
  0
POLYLINE
  8
LAYER_2
 40
0.1764
 41
0.1764
 66
1
 10
0
 20
0
 30
0
  0
VERTEX
  8
LAYER_2
 10
133.4632
 20
-160.1256
  0
VERTEX
  8
LAYER_2
 10
133.3484
 20
-160.3056
  0
SEQEND
  0
ENDBLK
  0
BLOCK
  8
LAYER_2
  2
AIGNBL02020026
 70
64
 10
0
 20
0
 30
0
  3
AIGNBL02020026
  0
POLYLINE
  8
LAYER_2
 40
0.1764
 41
0.1764
 66
1
 10
0
 20
0
 30
0
  0
VERTEX
  8
LAYER_2
 10
137.6139
 20
-160.3056
  0
VERTEX
  8
LAYER_2
 10
137.499
 20
-160.1256
  0
SEQEND
  0
ENDBLK
  0
BLOCK
  8
LAYER_2
  2
AIGNBL02020027
 70
64
 10
0
 20
0
 30
0
  3
AIGNBL02020027
  0
POLYLINE
  8
LAYER_2
 40
0.1764
 41
0.1764
 66
1
 10
0
 20
0
 30
0
  0
VERTEX
  8
LAYER_2
 10
137.5966
 20
-160.3356
 42
0.3930525236
  0
VERTEX
  8
LAYER_2
 10
137.6166
 20
-160.3156
  0
VERTEX
  8
LAYER_2
 10
137.6139
 20
-160.3056
  0
SEQEND
  0
ENDBLK
  0
BLOCK
  8
LAYER_2
  2
AIGNBL02020028
 70
64
 10
0
 20
0
 30
0
  3
AIGNBL02020028
  0
POLYLINE
  8
LAYER_2
 40
0.1764
 41
0.1764
 66
1
 10
0
 20
0
 30
0
  0
VERTEX
  8
LAYER_2
 10
133.3484
 20
-160.3056
 42
0.3949500357
  0
VERTEX
  8
LAYER_2
 10
133.3557
 20
-160.3329
  0
VERTEX
  8
LAYER_2
 10
133.3657
 20
-160.3356
  0
SEQEND
  0
ENDBLK
  0
BLOCK
  8
LAYER_2
  2
AIGNBL02020029
 70
64
 10
0
 20
0
 30
0
  3
AIGNBL02020029
  0
POLYLINE
  8
LAYER_2
 40
0.1764
 41
0.1764
 66
1
 10
0
 20
0
 30
0
  0
VERTEX
  8
LAYER_2
 10
136.2185
 20
-164.8347
  0
VERTEX
  8
LAYER_2
 10
136.2189
 20
-164.83
  0
SEQEND
  0
ENDBLK
  0
BLOCK
  8
LAYER_2
  2
AIGNBL0202002A
 70
64
 10
0
 20
0
 30
0
  3
AIGNBL0202002A
  0
POLYLINE
  8
LAYER_2
 40
0.1764
 41
0.1764
 66
1
 10
0
 20
0
 30
0
  0
VERTEX
  8
LAYER_2
 10
136.2296
 20
-164.7243
 42
0.1752652879
  0
VERTEX
  8
LAYER_2
 10
136.1703
 20
-164.5783
  0
SEQEND
  0
ENDBLK
  0
BLOCK
  8
LAYER_2
  2
AIGNBL0202002B
 70
64
 10
0
 20
0
 30
0
  3
AIGNBL0202002B
  0
POLYLINE
  8
LAYER_2
 40
0.1764
 41
0.1764
 66
1
 10
0
 20
0
 30
0
  0
VERTEX
  8
LAYER_2
 10
135.9844
 20
-164.4473
 42
0.07472898879
  0
VERTEX
  8
LAYER_2
 10
135.6538
 20
-164.3601
  0
SEQEND
  0
ENDBLK
  0
BLOCK
  8
LAYER_2
  2
AIGNBL0202002C
 70
64
 10
0
 20
0
 30
0
  3
AIGNBL0202002C
  0
POLYLINE
  8
LAYER_2
 40
0.1764
 41
0.1764
 66
1
 10
0
 20
0
 30
0
  0
VERTEX
  8
LAYER_2
 10
135.3084
 20
-164.3601
 42
0.07806544278
  0
VERTEX
  8
LAYER_2
 10
134.9779
 20
-164.4473
  0
SEQEND
  0
ENDBLK
  0
BLOCK
  8
LAYER_2
  2
AIGNBL0202002D
 70
64
 10
0
 20
0
 30
0
  3
AIGNBL0202002D
  0
POLYLINE
  8
LAYER_2
 40
0.1764
 41
0.1764
 66
1
 10
0
 20
0
 30
0
  0
VERTEX
  8
LAYER_2
 10
134.792
 20
-164.5783
 42
0.2100488809
  0
VERTEX
  8
LAYER_2
 10
134.7338
 20
-164.7451
  0
SEQEND
  0
ENDBLK
  0
BLOCK
  8
LAYER_2
  2
AIGNBL0202002E
 70
64
 10
0
 20
0
 30
0
  3
AIGNBL0202002E
  0
POLYLINE
  8
LAYER_2
 40
0.1764
 41
0.1764
 66
1
 10
0
 20
0
 30
0
  0
VERTEX
  8
LAYER_2
 10
136.2284
 20
-164.7451
  0
VERTEX
  8
LAYER_2
 10
136.2296
 20
-164.7243
  0
SEQEND
  0
ENDBLK
  0
BLOCK
  8
LAYER_2
  2
AIGNBL0202002F
 70
64
 10
0
 20
0
 30
0
  3
AIGNBL0202002F
  0
POLYLINE
  8
LAYER_2
 40
0.1764
 41
0.1764
 66
1
 10
0
 20
0
 30
0
  0
VERTEX
  8
LAYER_2
 10
136.0733
 20
-165.0474
 42
0.2005715311
  0
VERTEX
  8
LAYER_2
 10
136.3491
 20
-164.7855
  0
SEQEND
  0
ENDBLK
  0
BLOCK
  8
LAYER_2
  2
AIGNBL02020030
 70
64
 10
0
 20
0
 30
0
  3
AIGNBL02020030
  0
POLYLINE
  8
LAYER_2
 40
0.1764
 41
0.1764
 66
1
 10
0
 20
0
 30
0
  0
VERTEX
  8
LAYER_2
 10
134.6132
 20
-164.7855
 42
0.133744313
  0
VERTEX
  8
LAYER_2
 10
134.7099
 20
-164.9325
 42
0.078038986
  0
VERTEX
  8
LAYER_2
 10
134.8888
 20
-165.0473
  0
SEQEND
  0
ENDBLK
  0
BLOCK
  8
LAYER_2
  2
AIGNBL02020031
 70
64
 10
0
 20
0
 30
0
  3
AIGNBL02020031
  0
POLYLINE
  8
LAYER_2
 40
0.1764
 41
0.1764
 66
1
 10
0
 20
0
 30
0
  0
VERTEX
  8
LAYER_2
 10
134.6121
 20
-164.7892
 42
0.1335826647
  0
VERTEX
  8
LAYER_2
 10
134.708
 20
-164.9361
 42
0.08710866009
  0
VERTEX
  8
LAYER_2
 10
134.915
 20
-165.0638
  0
SEQEND
  0
ENDBLK
  0
BLOCK
  8
LAYER_2
  2
AIGNBL02020032
 70
64
 10
0
 20
0
 30
0
  3
AIGNBL02020032
  0
POLYLINE
  8
LAYER_2
 40
0.1764
 41
0.1764
 66
1
 10
0
 20
0
 30
0
  0
VERTEX
  8
LAYER_2
 10
136.0527
 20
-165.0615
 42
0.2037780041
  0
VERTEX
  8
LAYER_2
 10
136.3502
 20
-164.7892
  0
SEQEND
  0
ENDBLK
  0
BLOCK
  8
LAYER_2
  2
AIGNBL02020033
 70
64
 10
0
 20
0
 30
0
  3
AIGNBL02020033
  0
POLYLINE
  8
LAYER_2
 40
0.1764
 41
0.1764
 66
1
 10
0
 20
0
 30
0
  0
VERTEX
  8
LAYER_2
 10
135.3288
 20
-165.2819
 42
0.04391302321
  0
VERTEX
  8
LAYER_2
 10
135.6335
 20
-165.2819
  0
SEQEND
  0
ENDBLK
  0
BLOCK
  8
LAYER_2
  2
AIGNBL02020034
 70
64
 10
0
 20
0
 30
0
  3
AIGNBL02020034
  0
POLYLINE
  8
LAYER_2
 40
0.1764
 41
0.1764
 66
1
 10
0
 20
0
 30
0
  0
VERTEX
  8
LAYER_2
 10
135.6335
 20
-165.1953
  0
VERTEX
  8
LAYER_2
 10
135.6335
 20
-165.2819
  0
SEQEND
  0
ENDBLK
  0
BLOCK
  8
LAYER_2
  2
AIGNBL02020035
 70
64
 10
0
 20
0
 30
0
  3
AIGNBL02020035
  0
POLYLINE
  8
LAYER_2
 40
0.1764
 41
0.1764
 66
1
 10
0
 20
0
 30
0
  0
VERTEX
  8
LAYER_2
 10
135.6335
 20
-165.1953
 42
0.06333543836
  0
VERTEX
  8
LAYER_2
 10
135.9844
 20
-165.1226
  0
SEQEND
  0
ENDBLK
  0
BLOCK
  8
LAYER_2
  2
AIGNBL02020036
 70
64
 10
0
 20
0
 30
0
  3
AIGNBL02020036
  0
POLYLINE
  8
LAYER_2
 40
0.1764
 41
0.1764
 66
1
 10
0
 20
0
 30
0
  0
VERTEX
  8
LAYER_2
 10
135.9844
 20
-165.2092
  0
VERTEX
  8
LAYER_2
 10
135.9844
 20
-165.1226
  0
SEQEND
  0
ENDBLK
  0
BLOCK
  8
LAYER_2
  2
AIGNBL02020037
 70
64
 10
0
 20
0
 30
0
  3
AIGNBL02020037
  0
POLYLINE
  8
LAYER_2
 40
0.1764
 41
0.1764
 66
1
 10
0
 20
0
 30
0
  0
VERTEX
  8
LAYER_2
 10
135.9844
 20
-165.2092
 42
0.07491166711
  0
VERTEX
  8
LAYER_2
 10
136.1999
 20
-165.1015
  0
SEQEND
  0
ENDBLK
  0
BLOCK
  8
LAYER_2
  2
AIGNBL02020038
 70
64
 10
0
 20
0
 30
0
  3
AIGNBL02020038
  0
POLYLINE
  8
LAYER_2
 40
0.1764
 41
0.1764
 66
1
 10
0
 20
0
 30
0
  0
VERTEX
  8
LAYER_2
 10
136.1999
 20
-165.0149
  0
VERTEX
  8
LAYER_2
 10
136.1999
 20
-165.1015
  0
SEQEND
  0
ENDBLK
  0
BLOCK
  8
LAYER_2
  2
AIGNBL02020039
 70
64
 10
0
 20
0
 30
0
  3
AIGNBL02020039
  0
POLYLINE
  8
LAYER_2
 40
0.1764
 41
0.1764
 66
1
 10
0
 20
0
 30
0
  0
VERTEX
  8
LAYER_2
 10
136.1999
 20
-165.0149
 42
0.1558868515
  0
VERTEX
  8
LAYER_2
 10
136.3452
 20
-164.8394
  0
SEQEND
  0
ENDBLK
  0
BLOCK
  8
LAYER_2
  2
AIGNBL0202003A
 70
64
 10
0
 20
0
 30
0
  3
AIGNBL0202003A
  0
POLYLINE
  8
LAYER_2
 40
0.1764
 41
0.1764
 66
1
 10
0
 20
0
 30
0
  0
VERTEX
  8
LAYER_2
 10
136.3452
 20
-164.926
  0
VERTEX
  8
LAYER_2
 10
136.3452
 20
-164.8394
  0
SEQEND
  0
ENDBLK
  0
BLOCK
  8
LAYER_2
  2
AIGNBL0202003B
 70
64
 10
0
 20
0
 30
0
  3
AIGNBL0202003B
  0
POLYLINE
  8
LAYER_2
 40
0.1764
 41
0.1764
 66
1
 10
0
 20
0
 30
0
  0
VERTEX
  8
LAYER_2
 10
136.3452
 20
-164.926
 42
0.1732019033
  0
VERTEX
  8
LAYER_2
 10
136.3452
 20
-164.7736
  0
SEQEND
  0
ENDBLK
  0
BLOCK
  8
LAYER_2
  2
AIGNBL0202003C
 70
64
 10
0
 20
0
 30
0
  3
AIGNBL0202003C
  0
POLYLINE
  8
LAYER_2
 40
0.1764
 41
0.1764
 66
1
 10
0
 20
0
 30
0
  0
VERTEX
  8
LAYER_2
 10
136.3452
 20
-164.6871
  0
VERTEX
  8
LAYER_2
 10
136.3452
 20
-164.7736
  0
SEQEND
  0
ENDBLK
  0
BLOCK
  8
LAYER_2
  2
AIGNBL0202003D
 70
64
 10
0
 20
0
 30
0
  3
AIGNBL0202003D
  0
POLYLINE
  8
LAYER_2
 40
0.1764
 41
0.1764
 66
1
 10
0
 20
0
 30
0
  0
VERTEX
  8
LAYER_2
 10
136.3452
 20
-164.6871
 42
0.1011196395
  0
VERTEX
  8
LAYER_2
 10
136.2718
 20
-164.573
  0
SEQEND
  0
ENDBLK
  0
BLOCK
  8
LAYER_2
  2
AIGNBL0202003E
 70
64
 10
0
 20
0
 30
0
  3
AIGNBL0202003E
  0
POLYLINE
  8
LAYER_2
 40
0.1764
 41
0.1764
 66
1
 10
0
 20
0
 30
0
  0
VERTEX
  8
LAYER_2
 10
136.1999
 20
-164.5982
 42
0.06712526466
  0
VERTEX
  8
LAYER_2
 10
135.9844
 20
-164.4905
  0
SEQEND
  0
ENDBLK
  0
BLOCK
  8
LAYER_2
  2
AIGNBL0202003F
 70
64
 10
0
 20
0
 30
0
  3
AIGNBL0202003F
  0
POLYLINE
  8
LAYER_2
 40
0.1764
 41
0.1764
 66
1
 10
0
 20
0
 30
0
  0
VERTEX
  8
LAYER_2
 10
135.9844
 20
-164.4039
  0
VERTEX
  8
LAYER_2
 10
135.9844
 20
-164.4905
  0
SEQEND
  0
ENDBLK
  0
BLOCK
  8
LAYER_2
  2
AIGNBL02020040
 70
64
 10
0
 20
0
 30
0
  3
AIGNBL02020040
  0
POLYLINE
  8
LAYER_2
 40
0.1764
 41
0.1764
 66
1
 10
0
 20
0
 30
0
  0
VERTEX
  8
LAYER_2
 10
135.9844
 20
-164.4039
 42
0.0558347362
  0
VERTEX
  8
LAYER_2
 10
135.663
 20
-164.334
  0
SEQEND
  0
ENDBLK
  0
BLOCK
  8
LAYER_2
  2
AIGNBL02020041
 70
64
 10
0
 20
0
 30
0
  3
AIGNBL02020041
  0
POLYLINE
  8
LAYER_2
 40
0.1764
 41
0.1764
 66
1
 10
0
 20
0
 30
0
  0
VERTEX
  8
LAYER_2
 10
135.6335
 20
-164.4178
 42
0.04391302321
  0
VERTEX
  8
LAYER_2
 10
135.3288
 20
-164.4178
  0
SEQEND
  0
ENDBLK
  0
BLOCK
  8
LAYER_2
  2
AIGNBL02020042
 70
64
 10
0
 20
0
 30
0
  3
AIGNBL02020042
  0
POLYLINE
  8
LAYER_2
 40
0.1764
 41
0.1764
 66
1
 10
0
 20
0
 30
0
  0
VERTEX
  8
LAYER_2
 10
135.6635
 20
-164.3328
  0
VERTEX
  8
LAYER_2
 10
135.6669
 20
-164.3057
  0
SEQEND
  0
ENDBLK
  0
BLOCK
  8
LAYER_2
  2
AIGNBL02020043
 70
64
 10
0
 20
0
 30
0
  3
AIGNBL02020043
  0
POLYLINE
  8
LAYER_2
 40
0.1764
 41
0.1764
 66
1
 10
0
 20
0
 30
0
  0
VERTEX
  8
LAYER_2
 10
136.5511
 20
-164.7243
  0
VERTEX
  8
LAYER_2
 10
136.5508
 20
-164.7122
  0
SEQEND
  0
ENDBLK
  0
BLOCK
  8
LAYER_2
  2
AIGNBL02020044
 70
64
 10
0
 20
0
 30
0
  3
AIGNBL02020044
  0
POLYLINE
  8
LAYER_2
 40
0.1764
 41
0.1764
 66
1
 10
0
 20
0
 30
0
  0
VERTEX
  8
LAYER_2
 10
134.4115
 20
-164.7118
  0
VERTEX
  8
LAYER_2
 10
134.4112
 20
-164.7243
  0
SEQEND
  0
ENDBLK
  0
BLOCK
  8
LAYER_2
  2
AIGNBL02020045
 70
64
 10
0
 20
0
 30
0
  3
AIGNBL02020045
  0
POLYLINE
  8
LAYER_2
 40
0.1764
 41
0.1764
 66
1
 10
0
 20
0
 30
0
  0
VERTEX
  8
LAYER_2
 10
135.2953
 20
-165.2901
  0
VERTEX
  8
LAYER_2
 10
135.2953
 20
-165.3593
  0
SEQEND
  0
ENDBLK
  0
BLOCK
  8
LAYER_2
  2
AIGNBL02020046
 70
64
 10
0
 20
0
 30
0
  3
AIGNBL02020046
  0
POLYLINE
  8
LAYER_2
 40
0.1764
 41
0.1764
 66
1
 10
0
 20
0
 30
0
  0
VERTEX
  8
LAYER_2
 10
134.9515
 20
-165.228
 42
0.04599449569
  0
VERTEX
  8
LAYER_2
 10
135.2953
 20
-165.2901
  0
SEQEND
  0
ENDBLK
  0
BLOCK
  8
LAYER_2
  2
AIGNBL02020047
 70
64
 10
0
 20
0
 30
0
  3
AIGNBL02020047
  0
POLYLINE
  8
LAYER_2
 40
0.1764
 41
0.1764
 66
1
 10
0
 20
0
 30
0
  0
VERTEX
  8
LAYER_2
 10
134.6047
 20
-165.0701
  0
VERTEX
  8
LAYER_2
 10
134.6047
 20
-165.1393
  0
SEQEND
  0
ENDBLK
  0
BLOCK
  8
LAYER_2
  2
AIGNBL02020048
 70
64
 10
0
 20
0
 30
0
  3
AIGNBL02020048
  0
POLYLINE
  8
LAYER_2
 40
0.1764
 41
0.1764
 66
1
 10
0
 20
0
 30
0
  0
VERTEX
  8
LAYER_2
 10
134.4706
 20
-164.9389
 42
0.08122013372
  0
VERTEX
  8
LAYER_2
 10
134.6047
 20
-165.0701
  0
SEQEND
  0
ENDBLK
  0
BLOCK
  8
LAYER_2
  2
AIGNBL02020049
 70
64
 10
0
 20
0
 30
0
  3
AIGNBL02020049
  0
POLYLINE
  8
LAYER_2
 40
0.1764
 41
0.1764
 66
1
 10
0
 20
0
 30
0
  0
VERTEX
  8
LAYER_2
 10
134.4186
 20
-164.7699
 42
0.1145527024
  0
VERTEX
  8
LAYER_2
 10
134.4181
 20
-164.8929
  0
SEQEND
  0
ENDBLK
  0
BLOCK
  8
LAYER_2
  2
AIGNBL0202004A
 70
64
 10
0
 20
0
 30
0
  3
AIGNBL0202004A
  0
POLYLINE
  8
LAYER_2
 40
0.1764
 41
0.1764
 66
1
 10
0
 20
0
 30
0
  0
VERTEX
  8
LAYER_2
 10
134.4275
 20
-164.682
  0
VERTEX
  8
LAYER_2
 10
134.4275
 20
-164.7396
  0
SEQEND
  0
ENDBLK
  0
BLOCK
  8
LAYER_2
  2
AIGNBL0202004B
 70
64
 10
0
 20
0
 30
0
  3
AIGNBL0202004B
  0
POLYLINE
  8
LAYER_2
 40
0.1764
 41
0.1764
 66
1
 10
0
 20
0
 30
0
  0
VERTEX
  8
LAYER_2
 10
134.6047
 20
-164.5033
  0
VERTEX
  8
LAYER_2
 10
134.6047
 20
-164.5257
  0
SEQEND
  0
ENDBLK
  0
BLOCK
  8
LAYER_2
  2
AIGNBL0202004C
 70
64
 10
0
 20
0
 30
0
  3
AIGNBL0202004C
  0
POLYLINE
  8
LAYER_2
 40
0.1764
 41
0.1764
 66
1
 10
0
 20
0
 30
0
  0
VERTEX
  8
LAYER_2
 10
134.8675
 20
-164.3804
  0
VERTEX
  8
LAYER_2
 10
134.8675
 20
-164.3943
  0
SEQEND
  0
ENDBLK
  0
BLOCK
  8
LAYER_2
  2
AIGNBL0202004D
 70
64
 10
0
 20
0
 30
0
  3
AIGNBL0202004D
  0
POLYLINE
  8
LAYER_2
 40
0.1764
 41
0.1764
 66
1
 10
0
 20
0
 30
0
  0
VERTEX
  8
LAYER_2
 10
135.2953
 20
-164.2959
  0
VERTEX
  8
LAYER_2
 10
135.2953
 20
-164.3057
  0
SEQEND
  0
ENDBLK
  0
BLOCK
  8
LAYER_2
  2
AIGNBL0202004E
 70
64
 10
0
 20
0
 30
0
  3
AIGNBL0202004E
  0
POLYLINE
  8
LAYER_2
 40
0.1764
 41
0.1764
 66
1
 10
0
 20
0
 30
0
  0
VERTEX
  8
LAYER_2
 10
134.9779
 20
-165.1226
 42
0.0605495656
  0
VERTEX
  8
LAYER_2
 10
135.3288
 20
-165.1953
  0
SEQEND
  0
ENDBLK
  0
BLOCK
  8
LAYER_2
  2
AIGNBL0202004F
 70
64
 10
0
 20
0
 30
0
  3
AIGNBL0202004F
  0
POLYLINE
  8
LAYER_2
 40
0.1764
 41
0.1764
 66
1
 10
0
 20
0
 30
0
  0
VERTEX
  8
LAYER_2
 10
135.2953
 20
-165.2901
  0
VERTEX
  8
LAYER_2
 10
135.3288
 20
-165.1953
  0
SEQEND
  0
ENDBLK
  0
BLOCK
  8
LAYER_2
  2
AIGNBL02020050
 70
64
 10
0
 20
0
 30
0
  3
AIGNBL02020050
  0
POLYLINE
  8
LAYER_2
 40
0.1764
 41
0.1764
 66
1
 10
0
 20
0
 30
0
  0
VERTEX
  8
LAYER_2
 10
134.617
 20
-164.7736
 42
0.1722514844
  0
VERTEX
  8
LAYER_2
 10
134.617
 20
-164.926
  0
SEQEND
  0
ENDBLK
  0
BLOCK
  8
LAYER_2
  2
AIGNBL02020051
 70
64
 10
0
 20
0
 30
0
  3
AIGNBL02020051
  0
POLYLINE
  8
LAYER_2
 40
0.1764
 41
0.1764
 66
1
 10
0
 20
0
 30
0
  0
VERTEX
  8
LAYER_2
 10
134.4472
 20
-164.7587
  0
VERTEX
  8
LAYER_2
 10
134.617
 20
-164.7736
  0
SEQEND
  0
ENDBLK
  0
BLOCK
  8
LAYER_2
  2
AIGNBL02020052
 70
64
 10
0
 20
0
 30
0
  3
AIGNBL02020052
  0
POLYLINE
  8
LAYER_2
 40
0.1764
 41
0.1764
 66
1
 10
0
 20
0
 30
0
  0
VERTEX
  8
LAYER_2
 10
134.617
 20
-164.926
  0
VERTEX
  8
LAYER_2
 10
134.4472
 20
-164.941
  0
SEQEND
  0
ENDBLK
  0
BLOCK
  8
LAYER_2
  2
AIGNBL02020053
 70
64
 10
0
 20
0
 30
0
  3
AIGNBL02020053
  0
POLYLINE
  8
LAYER_2
 40
0.1764
 41
0.1764
 66
1
 10
0
 20
0
 30
0
  0
VERTEX
  8
LAYER_2
 10
134.9779
 20
-164.4905
 42
0.07491166711
  0
VERTEX
  8
LAYER_2
 10
134.7624
 20
-164.5982
  0
SEQEND
  0
ENDBLK
  0
BLOCK
  8
LAYER_2
  2
AIGNBL02020054
 70
64
 10
0
 20
0
 30
0
  3
AIGNBL02020054
  0
POLYLINE
  8
LAYER_2
 40
0.1764
 41
0.1764
 66
1
 10
0
 20
0
 30
0
  0
VERTEX
  8
LAYER_2
 10
134.8789
 20
-164.4198
  0
VERTEX
  8
LAYER_2
 10
134.9779
 20
-164.4905
  0
SEQEND
  0
ENDBLK
  0
BLOCK
  8
LAYER_2
  2
AIGNBL02020055
 70
64
 10
0
 20
0
 30
0
  3
AIGNBL02020055
  0
POLYLINE
  8
LAYER_2
 40
0.1764
 41
0.1764
 66
1
 10
0
 20
0
 30
0
  0
VERTEX
  8
LAYER_2
 10
134.7624
 20
-164.5982
  0
VERTEX
  8
LAYER_2
 10
134.6211
 20
-164.5487
  0
SEQEND
  0
ENDBLK
  0
BLOCK
  8
LAYER_2
  2
AIGNBL02020056
 70
64
 10
0
 20
0
 30
0
  3
AIGNBL02020056
  0
POLYLINE
  8
LAYER_2
 40
0.1764
 41
0.1764
 66
1
 10
0
 20
0
 30
0
  0
VERTEX
  8
LAYER_2
 10
135.6635
 20
-164.3328
  0
VERTEX
  8
LAYER_2
 10
135.6335
 20
-164.4178
  0
SEQEND
  0
ENDBLK
  0
BLOCK
  8
LAYER_2
  2
AIGNBL02020057
 70
64
 10
0
 20
0
 30
0
  3
AIGNBL02020057
  0
POLYLINE
  8
LAYER_2
 40
0.1764
 41
0.1764
 66
1
 10
0
 20
0
 30
0
  0
VERTEX
  8
LAYER_2
 10
135.3288
 20
-164.4178
  0
VERTEX
  8
LAYER_2
 10
135.2988
 20
-164.3328
  0
SEQEND
  0
ENDBLK
  0
BLOCK
  8
LAYER_2
  2
AIGNBL02020058
 70
64
 10
0
 20
0
 30
0
  3
AIGNBL02020058
  0
POLYLINE
  8
LAYER_2
 40
0.1764
 41
0.1764
 66
1
 10
0
 20
0
 30
0
  0
VERTEX
  8
LAYER_2
 10
136.3412
 20
-164.5487
  0
VERTEX
  8
LAYER_2
 10
136.1999
 20
-164.5982
  0
SEQEND
  0
ENDBLK
  0
BLOCK
  8
LAYER_2
  2
AIGNBL02020059
 70
64
 10
0
 20
0
 30
0
  3
AIGNBL02020059
  0
POLYLINE
  8
LAYER_2
 40
0.1764
 41
0.1764
 66
1
 10
0
 20
0
 30
0
  0
VERTEX
  8
LAYER_2
 10
135.9844
 20
-164.4905
  0
VERTEX
  8
LAYER_2
 10
136.0833
 20
-164.4198
  0
SEQEND
  0
ENDBLK
  0
BLOCK
  8
LAYER_2
  2
AIGNBL0202005A
 70
64
 10
0
 20
0
 30
0
  3
AIGNBL0202005A
  0
POLYLINE
  8
LAYER_2
 40
0.1764
 41
0.1764
 66
1
 10
0
 20
0
 30
0
  0
VERTEX
  8
LAYER_2
 10
136.5151
 20
-164.941
  0
VERTEX
  8
LAYER_2
 10
136.3452
 20
-164.926
  0
SEQEND
  0
ENDBLK
  0
BLOCK
  8
LAYER_2
  2
AIGNBL0202005B
 70
64
 10
0
 20
0
 30
0
  3
AIGNBL0202005B
  0
POLYLINE
  8
LAYER_2
 40
0.1764
 41
0.1764
 66
1
 10
0
 20
0
 30
0
  0
VERTEX
  8
LAYER_2
 10
136.3452
 20
-164.7736
  0
VERTEX
  8
LAYER_2
 10
136.5151
 20
-164.7587
  0
SEQEND
  0
ENDBLK
  0
BLOCK
  8
LAYER_2
  2
AIGNBL0202005C
 70
64
 10
0
 20
0
 30
0
  3
AIGNBL0202005C
  0
POLYLINE
  8
LAYER_2
 40
0.1764
 41
0.1764
 66
1
 10
0
 20
0
 30
0
  0
VERTEX
  8
LAYER_2
 10
136.0833
 20
-165.2799
  0
VERTEX
  8
LAYER_2
 10
135.9844
 20
-165.2092
  0
SEQEND
  0
ENDBLK
  0
BLOCK
  8
LAYER_2
  2
AIGNBL0202005D
 70
64
 10
0
 20
0
 30
0
  3
AIGNBL0202005D
  0
POLYLINE
  8
LAYER_2
 40
0.1764
 41
0.1764
 66
1
 10
0
 20
0
 30
0
  0
VERTEX
  8
LAYER_2
 10
136.1999
 20
-165.1015
  0
VERTEX
  8
LAYER_2
 10
136.3412
 20
-165.1509
  0
SEQEND
  0
ENDBLK
  0
BLOCK
  8
LAYER_2
  2
AIGNBL0202005E
 70
64
 10
0
 20
0
 30
0
  3
AIGNBL0202005E
  0
POLYLINE
  8
LAYER_2
 40
0.1764
 41
0.1764
 66
1
 10
0
 20
0
 30
0
  0
VERTEX
  8
LAYER_2
 10
135.2988
 20
-165.3668
  0
VERTEX
  8
LAYER_2
 10
135.3288
 20
-165.2819
  0
SEQEND
  0
ENDBLK
  0
BLOCK
  8
LAYER_2
  2
AIGNBL0202005F
 70
64
 10
0
 20
0
 30
0
  3
AIGNBL0202005F
  0
POLYLINE
  8
LAYER_2
 40
0.1764
 41
0.1764
 66
1
 10
0
 20
0
 30
0
  0
VERTEX
  8
LAYER_2
 10
135.6335
 20
-165.2819
  0
VERTEX
  8
LAYER_2
 10
135.6635
 20
-165.3668
  0
SEQEND
  0
ENDBLK
  0
BLOCK
  8
LAYER_2
  2
AIGNBL02020060
 70
64
 10
0
 20
0
 30
0
  3
AIGNBL02020060
  0
POLYLINE
  8
LAYER_2
 40
0.1764
 41
0.1764
 66
1
 10
0
 20
0
 30
0
  0
VERTEX
  8
LAYER_2
 10
135.6669
 20
-164.2959
  0
VERTEX
  8
LAYER_2
 10
135.6669
 20
-164.3057
  0
SEQEND
  0
ENDBLK
  0
BLOCK
  8
LAYER_2
  2
AIGNBL02020061
 70
64
 10
0
 20
0
 30
0
  3
AIGNBL02020061
  0
POLYLINE
  8
LAYER_2
 40
0.1764
 41
0.1764
 66
1
 10
0
 20
0
 30
0
  0
VERTEX
  8
LAYER_2
 10
136.0948
 20
-164.3804
  0
VERTEX
  8
LAYER_2
 10
136.0948
 20
-164.3943
  0
SEQEND
  0
ENDBLK
  0
BLOCK
  8
LAYER_2
  2
AIGNBL02020062
 70
64
 10
0
 20
0
 30
0
  3
AIGNBL02020062
  0
POLYLINE
  8
LAYER_2
 40
0.1764
 41
0.1764
 66
1
 10
0
 20
0
 30
0
  0
VERTEX
  8
LAYER_2
 10
136.3576
 20
-164.5033
  0
VERTEX
  8
LAYER_2
 10
136.3576
 20
-164.5257
  0
SEQEND
  0
ENDBLK
  0
BLOCK
  8
LAYER_2
  2
AIGNBL02020063
 70
64
 10
0
 20
0
 30
0
  3
AIGNBL02020063
  0
POLYLINE
  8
LAYER_2
 40
0.1764
 41
0.1764
 66
1
 10
0
 20
0
 30
0
  0
VERTEX
  8
LAYER_2
 10
136.5348
 20
-164.682
  0
VERTEX
  8
LAYER_2
 10
136.5348
 20
-164.7396
  0
SEQEND
  0
ENDBLK
  0
BLOCK
  8
LAYER_2
  2
AIGNBL02020064
 70
64
 10
0
 20
0
 30
0
  3
AIGNBL02020064
  0
POLYLINE
  8
LAYER_2
 40
0.1764
 41
0.1764
 66
1
 10
0
 20
0
 30
0
  0
VERTEX
  8
LAYER_2
 10
136.5437
 20
-164.8951
 42
0.1143459763
  0
VERTEX
  8
LAYER_2
 10
136.5442
 20
-164.7721
  0
SEQEND
  0
ENDBLK
  0
BLOCK
  8
LAYER_2
  2
AIGNBL02020065
 70
64
 10
0
 20
0
 30
0
  3
AIGNBL02020065
  0
POLYLINE
  8
LAYER_2
 40
0.1764
 41
0.1764
 66
1
 10
0
 20
0
 30
0
  0
VERTEX
  8
LAYER_2
 10
136.3576
 20
-165.0701
 42
0.0912062029
  0
VERTEX
  8
LAYER_2
 10
136.4917
 20
-164.9389
  0
SEQEND
  0
ENDBLK
  0
BLOCK
  8
LAYER_2
  2
AIGNBL02020066
 70
64
 10
0
 20
0
 30
0
  3
AIGNBL02020066
  0
POLYLINE
  8
LAYER_2
 40
0.1764
 41
0.1764
 66
1
 10
0
 20
0
 30
0
  0
VERTEX
  8
LAYER_2
 10
136.3576
 20
-165.0701
  0
VERTEX
  8
LAYER_2
 10
136.3576
 20
-165.1393
  0
SEQEND
  0
ENDBLK
  0
BLOCK
  8
LAYER_2
  2
AIGNBL02020067
 70
64
 10
0
 20
0
 30
0
  3
AIGNBL02020067
  0
POLYLINE
  8
LAYER_2
 40
0.1764
 41
0.1764
 66
1
 10
0
 20
0
 30
0
  0
VERTEX
  8
LAYER_2
 10
135.6669
 20
-165.2901
 42
0.04837987832
  0
VERTEX
  8
LAYER_2
 10
136.0108
 20
-165.228
  0
SEQEND
  0
ENDBLK
  0
BLOCK
  8
LAYER_2
  2
AIGNBL02020068
 70
64
 10
0
 20
0
 30
0
  3
AIGNBL02020068
  0
POLYLINE
  8
LAYER_2
 40
0.1764
 41
0.1764
 66
1
 10
0
 20
0
 30
0
  0
VERTEX
  8
LAYER_2
 10
135.6669
 20
-165.2901
  0
VERTEX
  8
LAYER_2
 10
135.6669
 20
-165.3593
  0
SEQEND
  0
ENDBLK
  0
BLOCK
  8
LAYER_2
  2
AIGNBL02020069
 70
64
 10
0
 20
0
 30
0
  3
AIGNBL02020069
  0
POLYLINE
  8
LAYER_2
 40
0.1764
 41
0.1764
 66
1
 10
0
 20
0
 30
0
  0
VERTEX
  8
LAYER_2
 10
134.7624
 20
-165.1015
 42
0.06712526466
  0
VERTEX
  8
LAYER_2
 10
134.9779
 20
-165.2092
  0
SEQEND
  0
ENDBLK
  0
BLOCK
  8
LAYER_2
  2
AIGNBL0202006A
 70
64
 10
0
 20
0
 30
0
  3
AIGNBL0202006A
  0
POLYLINE
  8
LAYER_2
 40
0.1764
 41
0.1764
 66
1
 10
0
 20
0
 30
0
  0
VERTEX
  8
LAYER_2
 10
134.6211
 20
-165.1509
  0
VERTEX
  8
LAYER_2
 10
134.7624
 20
-165.1015
  0
SEQEND
  0
ENDBLK
  0
BLOCK
  8
LAYER_2
  2
AIGNBL0202006B
 70
64
 10
0
 20
0
 30
0
  3
AIGNBL0202006B
  0
POLYLINE
  8
LAYER_2
 40
0.1764
 41
0.1764
 66
1
 10
0
 20
0
 30
0
  0
VERTEX
  8
LAYER_2
 10
134.9779
 20
-165.2092
  0
VERTEX
  8
LAYER_2
 10
134.8789
 20
-165.2799
  0
SEQEND
  0
ENDBLK
  0
BLOCK
  8
LAYER_2
  2
AIGNBL0202006C
 70
64
 10
0
 20
0
 30
0
  3
AIGNBL0202006C
  0
POLYLINE
  8
LAYER_2
 40
0.1764
 41
0.1764
 66
1
 10
0
 20
0
 30
0
  0
VERTEX
  8
LAYER_2
 10
134.7624
 20
-165.1015
  0
VERTEX
  8
LAYER_2
 10
134.7624
 20
-165.0149
  0
SEQEND
  0
ENDBLK
  0
BLOCK
  8
LAYER_2
  2
AIGNBL0202006D
 70
64
 10
0
 20
0
 30
0
  3
AIGNBL0202006D
  0
POLYLINE
  8
LAYER_2
 40
0.1764
 41
0.1764
 66
1
 10
0
 20
0
 30
0
  0
VERTEX
  8
LAYER_2
 10
134.6047
 20
-165.0701
  0
VERTEX
  8
LAYER_2
 10
134.7624
 20
-165.0149
  0
SEQEND
  0
ENDBLK
  0
BLOCK
  8
LAYER_2
  2
AIGNBL0202006E
 70
64
 10
0
 20
0
 30
0
  3
AIGNBL0202006E
  0
POLYLINE
  8
LAYER_2
 40
0.1764
 41
0.1764
 66
1
 10
0
 20
0
 30
0
  0
VERTEX
  8
LAYER_2
 10
134.6047
 20
-165.1393
  0
VERTEX
  8
LAYER_2
 10
134.6211
 20
-165.1509
  0
SEQEND
  0
ENDBLK
  0
BLOCK
  8
LAYER_2
  2
AIGNBL0202006F
 70
64
 10
0
 20
0
 30
0
  3
AIGNBL0202006F
  0
POLYLINE
  8
LAYER_2
 40
0.1764
 41
0.1764
 66
1
 10
0
 20
0
 30
0
  0
VERTEX
  8
LAYER_2
 10
134.617
 20
-164.8394
  0
VERTEX
  8
LAYER_2
 10
134.617
 20
-164.926
  0
SEQEND
  0
ENDBLK
  0
BLOCK
  8
LAYER_2
  2
AIGNBL02020070
 70
64
 10
0
 20
0
 30
0
  3
AIGNBL02020070
  0
POLYLINE
  8
LAYER_2
 40
0.1764
 41
0.1764
 66
1
 10
0
 20
0
 30
0
  0
VERTEX
  8
LAYER_2
 10
134.4283
 20
-164.9303
  0
VERTEX
  8
LAYER_2
 10
134.4472
 20
-164.941
  0
SEQEND
  0
ENDBLK
  0
BLOCK
  8
LAYER_2
  2
AIGNBL02020071
 70
64
 10
0
 20
0
 30
0
  3
AIGNBL02020071
  0
POLYLINE
  8
LAYER_2
 40
0.1764
 41
0.1764
 66
1
 10
0
 20
0
 30
0
  0
VERTEX
  8
LAYER_2
 10
134.617
 20
-164.8394
 42
0.151795899
  0
VERTEX
  8
LAYER_2
 10
134.7624
 20
-165.0149
  0
SEQEND
  0
ENDBLK
  0
BLOCK
  8
LAYER_2
  2
AIGNBL02020072
 70
64
 10
0
 20
0
 30
0
  3
AIGNBL02020072
  0
POLYLINE
  8
LAYER_2
 40
0.1764
 41
0.1764
 66
1
 10
0
 20
0
 30
0
  0
VERTEX
  8
LAYER_2
 10
135.3288
 20
-165.2819
  0
VERTEX
  8
LAYER_2
 10
135.3288
 20
-165.1953
  0
SEQEND
  0
ENDBLK
  0
BLOCK
  8
LAYER_2
  2
AIGNBL02020073
 70
64
 10
0
 20
0
 30
0
  3
AIGNBL02020073
  0
POLYLINE
  8
LAYER_2
 40
0.1764
 41
0.1764
 66
1
 10
0
 20
0
 30
0
  0
VERTEX
  8
LAYER_2
 10
135.2953
 20
-165.3593
  0
VERTEX
  8
LAYER_2
 10
135.2988
 20
-165.3668
  0
SEQEND
  0
ENDBLK
  0
BLOCK
  8
LAYER_2
  2
AIGNBL02020074
 70
64
 10
0
 20
0
 30
0
  3
AIGNBL02020074
  0
POLYLINE
  8
LAYER_2
 40
0.1764
 41
0.1764
 66
1
 10
0
 20
0
 30
0
  0
VERTEX
  8
LAYER_2
 10
134.9779
 20
-165.1226
  0
VERTEX
  8
LAYER_2
 10
134.9779
 20
-165.2092
  0
SEQEND
  0
ENDBLK
  0
BLOCK
  8
LAYER_2
  2
AIGNBL02020075
 70
64
 10
0
 20
0
 30
0
  3
AIGNBL02020075
  0
POLYLINE
  8
LAYER_2
 40
0.1764
 41
0.1764
 66
1
 10
0
 20
0
 30
0
  0
VERTEX
  8
LAYER_2
 10
134.8723
 20
-165.2814
  0
VERTEX
  8
LAYER_2
 10
134.8789
 20
-165.2799
  0
SEQEND
  0
ENDBLK
  0
BLOCK
  8
LAYER_2
  2
AIGNBL02020076
 70
64
 10
0
 20
0
 30
0
  3
AIGNBL02020076
  0
POLYLINE
  8
LAYER_2
 40
0.1764
 41
0.1764
 66
1
 10
0
 20
0
 30
0
  0
VERTEX
  8
LAYER_2
 10
136.0833
 20
-165.2799
  0
VERTEX
  8
LAYER_2
 10
136.09
 20
-165.2814
  0
SEQEND
  0
ENDBLK
  0
BLOCK
  8
LAYER_2
  2
AIGNBL02020077
 70
64
 10
0
 20
0
 30
0
  3
AIGNBL02020077
  0
POLYLINE
  8
LAYER_2
 40
0.1764
 41
0.1764
 66
1
 10
0
 20
0
 30
0
  0
VERTEX
  8
LAYER_2
 10
135.6335
 20
-165.1953
  0
VERTEX
  8
LAYER_2
 10
135.6669
 20
-165.2901
  0
SEQEND
  0
ENDBLK
  0
BLOCK
  8
LAYER_2
  2
AIGNBL02020078
 70
64
 10
0
 20
0
 30
0
  3
AIGNBL02020078
  0
POLYLINE
  8
LAYER_2
 40
0.1764
 41
0.1764
 66
1
 10
0
 20
0
 30
0
  0
VERTEX
  8
LAYER_2
 10
135.6635
 20
-165.3668
  0
VERTEX
  8
LAYER_2
 10
135.6669
 20
-165.3593
  0
SEQEND
  0
ENDBLK
  0
BLOCK
  8
LAYER_2
  2
AIGNBL02020079
 70
64
 10
0
 20
0
 30
0
  3
AIGNBL02020079
  0
POLYLINE
  8
LAYER_2
 40
0.1764
 41
0.1764
 66
1
 10
0
 20
0
 30
0
  0
VERTEX
  8
LAYER_2
 10
136.5151
 20
-164.941
  0
VERTEX
  8
LAYER_2
 10
136.534
 20
-164.9303
  0
SEQEND
  0
ENDBLK
  0
BLOCK
  8
LAYER_2
  2
AIGNBL0202007A
 70
64
 10
0
 20
0
 30
0
  3
AIGNBL0202007A
  0
POLYLINE
  8
LAYER_2
 40
0.1764
 41
0.1764
 66
1
 10
0
 20
0
 30
0
  0
VERTEX
  8
LAYER_2
 10
136.1999
 20
-165.0149
  0
VERTEX
  8
LAYER_2
 10
136.3576
 20
-165.0701
  0
SEQEND
  0
ENDBLK
  0
BLOCK
  8
LAYER_2
  2
AIGNBL0202007B
 70
64
 10
0
 20
0
 30
0
  3
AIGNBL0202007B
  0
POLYLINE
  8
LAYER_2
 40
0.1764
 41
0.1764
 66
1
 10
0
 20
0
 30
0
  0
VERTEX
  8
LAYER_2
 10
136.3412
 20
-165.1509
  0
VERTEX
  8
LAYER_2
 10
136.3576
 20
-165.1393
  0
SEQEND
  0
ENDBLK
  0
BLOCK
  8
LAYER_2
  2
AIGNBL0202007C
 70
64
 10
0
 20
0
 30
0
  3
AIGNBL0202007C
  0
POLYLINE
  8
LAYER_2
 40
0.1764
 41
0.1764
 66
1
 10
0
 20
0
 30
0
  0
VERTEX
  8
LAYER_2
 10
136.3412
 20
-164.5487
  0
VERTEX
  8
LAYER_2
 10
136.3576
 20
-164.5257
  0
SEQEND
  0
ENDBLK
  0
BLOCK
  8
LAYER_2
  2
AIGNBL0202007D
 70
64
 10
0
 20
0
 30
0
  3
AIGNBL0202007D
  0
POLYLINE
  8
LAYER_2
 40
0.1764
 41
0.1764
 66
1
 10
0
 20
0
 30
0
  0
VERTEX
  8
LAYER_2
 10
136.3452
 20
-164.6871
  0
VERTEX
  8
LAYER_2
 10
136.5286
 20
-164.6709
  0
SEQEND
  0
ENDBLK
  0
BLOCK
  8
LAYER_2
  2
AIGNBL0202007E
 70
64
 10
0
 20
0
 30
0
  3
AIGNBL0202007E
  0
POLYLINE
  8
LAYER_2
 40
0.1764
 41
0.1764
 66
1
 10
0
 20
0
 30
0
  0
VERTEX
  8
LAYER_2
 10
136.5151
 20
-164.7587
  0
VERTEX
  8
LAYER_2
 10
136.5348
 20
-164.7396
  0
SEQEND
  0
ENDBLK
  0
BLOCK
  8
LAYER_2
  2
AIGNBL0202007F
 70
64
 10
0
 20
0
 30
0
  3
AIGNBL0202007F
  0
POLYLINE
  8
LAYER_2
 40
0.1764
 41
0.1764
 66
1
 10
0
 20
0
 30
0
  0
VERTEX
  8
LAYER_2
 10
135.9844
 20
-164.4039
  0
VERTEX
  8
LAYER_2
 10
136.0408
 20
-164.3636
  0
SEQEND
  0
ENDBLK
  0
BLOCK
  8
LAYER_2
  2
AIGNBL02020080
 70
64
 10
0
 20
0
 30
0
  3
AIGNBL02020080
  0
POLYLINE
  8
LAYER_2
 40
0.1764
 41
0.1764
 66
1
 10
0
 20
0
 30
0
  0
VERTEX
  8
LAYER_2
 10
136.0833
 20
-164.4198
  0
VERTEX
  8
LAYER_2
 10
136.0948
 20
-164.3943
  0
SEQEND
  0
ENDBLK
  0
BLOCK
  8
LAYER_2
  2
AIGNBL02020081
 70
64
 10
0
 20
0
 30
0
  3
AIGNBL02020081
  0
POLYLINE
  8
LAYER_2
 40
0.1764
 41
0.1764
 66
1
 10
0
 20
0
 30
0
  0
VERTEX
  8
LAYER_2
 10
134.9779
 20
-164.4905
  0
VERTEX
  8
LAYER_2
 10
134.9779
 20
-164.4039
  0
SEQEND
  0
ENDBLK
  0
BLOCK
  8
LAYER_2
  2
AIGNBL02020082
 70
64
 10
0
 20
0
 30
0
  3
AIGNBL02020082
  0
POLYLINE
  8
LAYER_2
 40
0.1764
 41
0.1764
 66
1
 10
0
 20
0
 30
0
  0
VERTEX
  8
LAYER_2
 10
134.9214
 20
-164.3636
  0
VERTEX
  8
LAYER_2
 10
134.9779
 20
-164.4039
  0
SEQEND
  0
ENDBLK
  0
BLOCK
  8
LAYER_2
  2
AIGNBL02020083
 70
64
 10
0
 20
0
 30
0
  3
AIGNBL02020083
  0
POLYLINE
  8
LAYER_2
 40
0.1764
 41
0.1764
 66
1
 10
0
 20
0
 30
0
  0
VERTEX
  8
LAYER_2
 10
134.8675
 20
-164.3943
  0
VERTEX
  8
LAYER_2
 10
134.8789
 20
-164.4198
  0
SEQEND
  0
ENDBLK
  0
BLOCK
  8
LAYER_2
  2
AIGNBL02020084
 70
64
 10
0
 20
0
 30
0
  3
AIGNBL02020084
  0
POLYLINE
  8
LAYER_2
 40
0.1764
 41
0.1764
 66
1
 10
0
 20
0
 30
0
  0
VERTEX
  8
LAYER_2
 10
135.2953
 20
-164.3057
  0
VERTEX
  8
LAYER_2
 10
135.2988
 20
-164.3328
  0
SEQEND
  0
ENDBLK
  0
BLOCK
  8
LAYER_2
  2
AIGNBL02020085
 70
64
 10
0
 20
0
 30
0
  3
AIGNBL02020085
  0
POLYLINE
  8
LAYER_2
 40
0.1764
 41
0.1764
 66
1
 10
0
 20
0
 30
0
  0
VERTEX
  8
LAYER_2
 10
135.2992
 20
-164.334
 42
0.05928790966
  0
VERTEX
  8
LAYER_2
 10
134.9779
 20
-164.4039
  0
SEQEND
  0
ENDBLK
  0
BLOCK
  8
LAYER_2
  2
AIGNBL02020086
 70
64
 10
0
 20
0
 30
0
  3
AIGNBL02020086
  0
POLYLINE
  8
LAYER_2
 40
0.1764
 41
0.1764
 66
1
 10
0
 20
0
 30
0
  0
VERTEX
  8
LAYER_2
 10
134.617
 20
-164.7736
  0
VERTEX
  8
LAYER_2
 10
134.617
 20
-164.6871
  0
SEQEND
  0
ENDBLK
  0
BLOCK
  8
LAYER_2
  2
AIGNBL02020087
 70
64
 10
0
 20
0
 30
0
  3
AIGNBL02020087
  0
POLYLINE
  8
LAYER_2
 40
0.1764
 41
0.1764
 66
1
 10
0
 20
0
 30
0
  0
VERTEX
  8
LAYER_2
 10
134.4337
 20
-164.6709
  0
VERTEX
  8
LAYER_2
 10
134.617
 20
-164.6871
  0
SEQEND
  0
ENDBLK
  0
BLOCK
  8
LAYER_2
  2
AIGNBL02020088
 70
64
 10
0
 20
0
 30
0
  3
AIGNBL02020088
  0
POLYLINE
  8
LAYER_2
 40
0.1764
 41
0.1764
 66
1
 10
0
 20
0
 30
0
  0
VERTEX
  8
LAYER_2
 10
134.4275
 20
-164.7396
 42
0.3402547588
  0
VERTEX
  8
LAYER_2
 10
134.4472
 20
-164.7587
  0
SEQEND
  0
ENDBLK
  0
BLOCK
  8
LAYER_2
  2
AIGNBL02020089
 70
64
 10
0
 20
0
 30
0
  3
AIGNBL02020089
  0
POLYLINE
  8
LAYER_2
 40
0.1764
 41
0.1764
 66
1
 10
0
 20
0
 30
0
  0
VERTEX
  8
LAYER_2
 10
134.6047
 20
-164.5257
  0
VERTEX
  8
LAYER_2
 10
134.6211
 20
-164.5487
  0
SEQEND
  0
ENDBLK
  0
BLOCK
  8
LAYER_2
  2
AIGNBL0202008A
 70
64
 10
0
 20
0
 30
0
  3
AIGNBL0202008A
  0
POLYLINE
  8
LAYER_2
 40
0.1764
 41
0.1764
 66
1
 10
0
 20
0
 30
0
  0
VERTEX
  8
LAYER_2
 10
134.6905
 20
-164.573
 42
0.1138982922
  0
VERTEX
  8
LAYER_2
 10
134.617
 20
-164.6871
  0
SEQEND
  0
ENDBLK
  0
BLOCK
  8
LAYER_2
  2
AIGNBL0202008B
 70
64
 10
0
 20
0
 30
0
  3
AIGNBL0202008B
  0
POLYLINE
  8
LAYER_2
 40
0.1764
 41
0.1764
 66
1
 10
0
 20
0
 30
0
  0
VERTEX
  8
LAYER_2
 10
134.7439
 20
-164.8343
  0
VERTEX
  8
LAYER_2
 10
134.7441
 20
-164.8373
  0
VERTEX
  8
LAYER_2
 10
134.7493
 20
-164.8649
  0
VERTEX
  8
LAYER_2
 10
134.758
 20
-164.892
  0
VERTEX
  8
LAYER_2
 10
134.7702
 20
-164.9187
  0
VERTEX
  8
LAYER_2
 10
134.786
 20
-164.9449
  0
VERTEX
  8
LAYER_2
 10
134.8052
 20
-164.9704
  0
VERTEX
  8
LAYER_2
 10
134.8278
 20
-164.9952
  0
VERTEX
  8
LAYER_2
 10
134.8538
 20
-165.0191
  0
VERTEX
  8
LAYER_2
 10
134.883
 20
-165.0419
  0
VERTEX
  8
LAYER_2
 10
134.9151
 20
-165.0635
  0
VERTEX
  8
LAYER_2
 10
134.9501
 20
-165.0837
  0
VERTEX
  8
LAYER_2
 10
134.9876
 20
-165.1025
  0
VERTEX
  8
LAYER_2
 10
135.0275
 20
-165.1198
  0
VERTEX
  8
LAYER_2
 10
135.0695
 20
-165.1356
  0
VERTEX
  8
LAYER_2
 10
135.1135
 20
-165.1497
  0
VERTEX
  8
LAYER_2
 10
135.1592
 20
-165.1622
  0
VERTEX
  8
LAYER_2
 10
135.2064
 20
-165.1729
  0
VERTEX
  8
LAYER_2
 10
135.2549
 20
-165.1819
  0
VERTEX
  8
LAYER_2
 10
135.3045
 20
-165.1892
  0
VERTEX
  8
LAYER_2
 10
135.355
 20
-165.1946
  0
VERTEX
  8
LAYER_2
 10
135.406
 20
-165.1982
  0
VERTEX
  8
LAYER_2
 10
135.4573
 20
-165.2
  0
VERTEX
  8
LAYER_2
 10
135.5088
 20
-165.1999
  0
VERTEX
  8
LAYER_2
 10
135.5601
 20
-165.198
  0
VERTEX
  8
LAYER_2
 10
135.6111
 20
-165.1943
  0
VERTEX
  8
LAYER_2
 10
135.6614
 20
-165.1887
  0
VERTEX
  8
LAYER_2
 10
135.7109
 20
-165.1813
  0
VERTEX
  8
LAYER_2
 10
135.7593
 20
-165.1722
  0
VERTEX
  8
LAYER_2
 10
135.8064
 20
-165.1613
  0
VERTEX
  8
LAYER_2
 10
135.8519
 20
-165.1488
  0
VERTEX
  8
LAYER_2
 10
135.8957
 20
-165.1345
  0
VERTEX
  8
LAYER_2
 10
135.9376
 20
-165.1187
  0
VERTEX
  8
LAYER_2
 10
135.9773
 20
-165.1013
  0
VERTEX
  8
LAYER_2
 10
136.0147
 20
-165.0824
  0
VERTEX
  8
LAYER_2
 10
136.0495
 20
-165.062
  0
VERTEX
  8
LAYER_2
 10
136.0816
 20
-165.0402
  0
VERTEX
  8
LAYER_2
 10
136.1108
 20
-165.0171
  0
VERTEX
  8
LAYER_2
 10
136.1369
 20
-164.9927
  0
VERTEX
  8
LAYER_2
 10
136.1597
 20
-164.9673
  0
VERTEX
  8
LAYER_2
 10
136.179
 20
-164.9408
  0
VERTEX
  8
LAYER_2
 10
136.1946
 20
-164.9136
  0
VERTEX
  8
LAYER_2
 10
136.2065
 20
-164.8859
  0
VERTEX
  8
LAYER_2
 10
136.2146
 20
-164.8579
  0
VERTEX
  8
LAYER_2
 10
136.2189
 20
-164.8299
  0
SEQEND
  0
ENDBLK
  0
BLOCK
  8
LAYER_2
  2
AIGNBL0202008C
 70
64
 10
0
 20
0
 30
0
  3
AIGNBL0202008C
  0
POLYLINE
  8
LAYER_2
 40
0.1764
 41
0.1764
 66
1
 10
0
 20
0
 30
0
  0
VERTEX
  8
LAYER_2
 10
134.7338
 20
-164.7451
  0
VERTEX
  8
LAYER_2
 10
134.7438
 20
-164.8347
  0
SEQEND
  0
ENDBLK
  0
BLOCK
  8
LAYER_2
  2
AIGNBL0202008D
 70
64
 10
0
 20
0
 30
0
  3
AIGNBL0202008D
  0
POLYLINE
  8
LAYER_2
 40
0.1764
 41
0.1764
 66
1
 10
0
 20
0
 30
0
  0
VERTEX
  8
LAYER_2
 10
136.2185
 20
-164.8347
  0
VERTEX
  8
LAYER_2
 10
136.2284
 20
-164.7451
  0
SEQEND
  0
ENDBLK
  0
BLOCK
  8
LAYER_2
  2
AIGNBL0202008E
 70
64
 10
0
 20
0
 30
0
  3
AIGNBL0202008E
  0
POLYLINE
  8
LAYER_2
 40
0.1764
 41
0.1764
 66
1
 10
0
 20
0
 30
0
  0
VERTEX
  8
LAYER_2
 10
136.5511
 20
-164.8325
  0
VERTEX
  8
LAYER_2
 10
136.5511
 20
-164.7243
  0
SEQEND
  0
ENDBLK
  0
BLOCK
  8
LAYER_2
  2
AIGNBL0202008F
 70
64
 10
0
 20
0
 30
0
  3
AIGNBL0202008F
  0
POLYLINE
  8
LAYER_2
 40
0.1764
 41
0.1764
 66
1
 10
0
 20
0
 30
0
  0
VERTEX
  8
LAYER_2
 10
134.4112
 20
-164.7243
  0
VERTEX
  8
LAYER_2
 10
134.4112
 20
-164.8325
  0
SEQEND
  0
ENDBLK
  0
BLOCK
  8
LAYER_2
  2
AIGNBL02020090
 70
64
 10
0
 20
0
 30
0
  3
AIGNBL02020090
  0
POLYLINE
  8
LAYER_2
 40
0.1764
 41
0.1764
 66
1
 10
0
 20
0
 30
0
  0
VERTEX
  8
LAYER_2
 10
136.534
 20
-164.9303
  0
VERTEX
  8
LAYER_2
 10
136.5429
 20
-164.8985
  0
SEQEND
  0
ENDBLK
  0
BLOCK
  8
LAYER_2
  2
AIGNBL02020091
 70
64
 10
0
 20
0
 30
0
  3
AIGNBL02020091
  0
POLYLINE
  8
LAYER_2
 40
0.1764
 41
0.1764
 66
1
 10
0
 20
0
 30
0
  0
VERTEX
  8
LAYER_2
 10
134.4189
 20
-164.8961
  0
VERTEX
  8
LAYER_2
 10
134.4283
 20
-164.9303
  0
SEQEND
  0
ENDBLK
  0
BLOCK
  8
LAYER_2
  2
AIGNBL02020092
 70
64
 10
0
 20
0
 30
0
  3
AIGNBL02020092
  0
POLYLINE
  8
LAYER_2
 40
0.1764
 41
0.1764
 66
1
 10
0
 20
0
 30
0
  0
VERTEX
  8
LAYER_2
 10
134.6095
 20
-165.1499
 42
0.0700981423
  0
VERTEX
  8
LAYER_2
 10
134.8723
 20
-165.2814
  0
SEQEND
  0
ENDBLK
  0
BLOCK
  8
LAYER_2
  2
AIGNBL02020093
 70
64
 10
0
 20
0
 30
0
  3
AIGNBL02020093
  0
POLYLINE
  8
LAYER_2
 40
0.1764
 41
0.1764
 66
1
 10
0
 20
0
 30
0
  0
VERTEX
  8
LAYER_2
 10
135.2971
 20
-165.3694
 42
0.04397255191
  0
VERTEX
  8
LAYER_2
 10
135.6652
 20
-165.3694
  0
SEQEND
  0
ENDBLK
  0
BLOCK
  8
LAYER_2
  2
AIGNBL02020094
 70
64
 10
0
 20
0
 30
0
  3
AIGNBL02020094
  0
POLYLINE
  8
LAYER_2
 40
0.1764
 41
0.1764
 66
1
 10
0
 20
0
 30
0
  0
VERTEX
  8
LAYER_2
 10
136.09
 20
-165.2814
 42
0.07006689341
  0
VERTEX
  8
LAYER_2
 10
136.3528
 20
-165.1499
  0
SEQEND
  0
ENDBLK
  0
BLOCK
  8
LAYER_2
  2
AIGNBL02020095
 70
64
 10
0
 20
0
 30
0
  3
AIGNBL02020095
  0
POLYLINE
  8
LAYER_2
 40
0.1764
 41
0.1764
 66
1
 10
0
 20
0
 30
0
  0
VERTEX
  8
LAYER_2
 10
133.2439
 20
-157.7316
  0
VERTEX
  8
LAYER_2
 10
134.0673
 20
-157.731
  0
VERTEX
  8
LAYER_2
 10
135.7189
 20
-157.7294
  0
VERTEX
  8
LAYER_2
 10
136.5569
 20
-157.7307
  0
VERTEX
  8
LAYER_2
 10
136.9217
 20
-157.731
  0
VERTEX
  8
LAYER_2
 10
137.0842
 20
-157.7311
  0
VERTEX
  8
LAYER_2
 10
137.2312
 20
-157.7312
  0
VERTEX
  8
LAYER_2
 10
137.731
 20
-157.7316
  0
SEQEND
  0
ENDBLK
  0
BLOCK
  8
LAYER_2
  2
AIGNBL02020096
 70
64
 10
0
 20
0
 30
0
  3
AIGNBL02020096
  0
POLYLINE
  8
LAYER_2
 40
0.1764
 41
0.1764
 66
1
 10
0
 20
0
 30
0
  0
VERTEX
  8
LAYER_2
 10
137.711
 20
-160.1256
  0
VERTEX
  8
LAYER_2
 10
133.2513
 20
-160.1256
  0
SEQEND
  0
ENDBLK
  0
BLOCK
  8
LAYER_2
  2
AIGNBL02020097
 70
64
 10
0
 20
0
 30
0
  3
AIGNBL02020097
  0
POLYLINE
  8
LAYER_2
 40
0.1764
 41
0.1764
 66
1
 10
0
 20
0
 30
0
  0
VERTEX
  8
LAYER_2
 10
133.2775
 20
-157.6818
 42
0.3753671464
  0
VERTEX
  8
LAYER_2
 10
133.2313
 20
-157.7321
  0
SEQEND
  0
ENDBLK
  0
BLOCK
  8
LAYER_2
  2
AIGNBL02020098
 70
64
 10
0
 20
0
 30
0
  3
AIGNBL02020098
  0
POLYLINE
  8
LAYER_2
 40
0.1764
 41
0.1764
 66
1
 10
0
 20
0
 30
0
  0
VERTEX
  8
LAYER_2
 10
137.731
 20
-157.7321
 42
0.3755040905
  0
VERTEX
  8
LAYER_2
 10
137.6848
 20
-157.6818
  0
SEQEND
  0
ENDBLK
  0
BLOCK
  8
LAYER_2
  2
AIGNBL02020099
 70
64
 10
0
 20
0
 30
0
  3
AIGNBL02020099
  0
POLYLINE
  8
LAYER_2
 40
0.1764
 41
0.1764
 66
1
 10
0
 20
0
 30
0
  0
VERTEX
  8
LAYER_2
 10
137.711
 20
-160.1256
 42
0.3930525236
  0
VERTEX
  8
LAYER_2
 10
137.731
 20
-160.1056
  0
SEQEND
  0
ENDBLK
  0
BLOCK
  8
LAYER_2
  2
AIGNBL0202009A
 70
64
 10
0
 20
0
 30
0
  3
AIGNBL0202009A
  0
POLYLINE
  8
LAYER_2
 40
0.1764
 41
0.1764
 66
1
 10
0
 20
0
 30
0
  0
VERTEX
  8
LAYER_2
 10
133.2313
 20
-160.1056
 42
0.3929519787
  0
VERTEX
  8
LAYER_2
 10
133.2513
 20
-160.1256
  0
SEQEND
  0
ENDBLK
  0
BLOCK
  8
LAYER_2
  2
AIGNBL0202009B
 70
64
 10
0
 20
0
 30
0
  3
AIGNBL0202009B
  0
POLYLINE
  8
LAYER_2
 40
0.1764
 41
0.1764
 66
1
 10
0
 20
0
 30
0
  0
VERTEX
  8
LAYER_2
 10
137.731
 20
-160.1056
  0
VERTEX
  8
LAYER_2
 10
137.731
 20
-157.7316
  0
SEQEND
  0
ENDBLK
  0
BLOCK
  8
LAYER_2
  2
AIGNBL0202009C
 70
64
 10
0
 20
0
 30
0
  3
AIGNBL0202009C
  0
POLYLINE
  8
LAYER_2
 40
0.1764
 41
0.1764
 66
1
 10
0
 20
0
 30
0
  0
VERTEX
  8
LAYER_2
 10
133.2313
 20
-157.7316
  0
VERTEX
  8
LAYER_2
 10
133.2313
 20
-160.1056
  0
SEQEND
  0
ENDBLK
  0
BLOCK
  8
LAYER_2
  2
AIGNBL0202009D
 70
64
 10
0
 20
0
 30
0
  3
AIGNBL0202009D
  0
POLYLINE
  8
LAYER_2
 40
0.1764
 41
0.1764
 66
1
 10
0
 20
0
 30
0
  0
VERTEX
  8
LAYER_2
 10
137.681
 20
-157.6818
  0
VERTEX
  8
LAYER_2
 10
137.1553
 20
-157.6464
  0
VERTEX
  8
LAYER_2
 10
136.5978
 20
-157.6197
  0
VERTEX
  8
LAYER_2
 10
136.0397
 20
-157.6036
  0
VERTEX
  8
LAYER_2
 10
135.4814
 20
-157.5983
  0
VERTEX
  8
LAYER_2
 10
134.9231
 20
-157.6036
  0
VERTEX
  8
LAYER_2
 10
134.365
 20
-157.6197
  0
VERTEX
  8
LAYER_2
 10
133.8075
 20
-157.6464
  0
VERTEX
  8
LAYER_2
 10
133.2788
 20
-157.6819
  0
SEQEND
  0
ENDBLK
  0
BLOCK
  8
LAYER_2
  2
AIGNBL0202009E
 70
64
 10
0
 20
0
 30
0
  3
AIGNBL0202009E
  0
POLYLINE
  8
LAYER_2
 40
0.1764
 41
0.1764
 66
1
 10
0
 20
0
 30
0
  0
VERTEX
  8
LAYER_2
 10
135.6683
 20
-158.5659
 42
0.2740105256
  0
VERTEX
  8
LAYER_2
 10
135.8708
 20
-158.2241
  0
SEQEND
  0
ENDBLK
  0
BLOCK
  8
LAYER_2
  2
AIGNBL0202009F
 70
64
 10
0
 20
0
 30
0
  3
AIGNBL0202009F
  0
POLYLINE
  8
LAYER_2
 40
0.1764
 41
0.1764
 66
1
 10
0
 20
0
 30
0
  0
VERTEX
  8
LAYER_2
 10
135.8708
 20
-158.2241
 42
0.4142322131
  0
VERTEX
  8
LAYER_2
 10
135.4811
 20
-157.8345
  0
SEQEND
  0
ENDBLK
  0
BLOCK
  8
LAYER_2
  2
AIGNBL020200A0
 70
64
 10
0
 20
0
 30
0
  3
AIGNBL020200A0
  0
POLYLINE
  8
LAYER_2
 40
0.1764
 41
0.1764
 66
1
 10
0
 20
0
 30
0
  0
VERTEX
  8
LAYER_2
 10
135.0915
 20
-158.2241
 42
0.4142989788
  0
VERTEX
  8
LAYER_2
 10
135.4808
 20
-158.6137
  0
SEQEND
  0
ENDBLK
  0
BLOCK
  8
LAYER_2
  2
AIGNBL020200A1
 70
64
 10
0
 20
0
 30
0
  3
AIGNBL020200A1
  0
POLYLINE
  8
LAYER_2
 40
0.1764
 41
0.1764
 66
1
 10
0
 20
0
 30
0
  0
VERTEX
  8
LAYER_2
 10
135.294
 20
-157.8823
 42
0.274172598
  0
VERTEX
  8
LAYER_2
 10
135.0915
 20
-158.2241
  0
SEQEND
  0
ENDBLK
  0
BLOCK
  8
LAYER_2
  2
AIGNBL020200A2
 70
64
 10
0
 20
0
 30
0
  3
AIGNBL020200A2
  0
POLYLINE
  8
LAYER_2
 40
0.1764
 41
0.1764
 66
1
 10
0
 20
0
 30
0
  0
VERTEX
  8
LAYER_2
 10
135.4811
 20
-158.6137
 42
0.1289291863
  0
VERTEX
  8
LAYER_2
 10
135.6733
 20
-158.5631
  0
SEQEND
  0
ENDBLK
  0
BLOCK
  8
LAYER_2
  2
AIGNBL020200A3
 70
64
 10
0
 20
0
 30
0
  3
AIGNBL020200A3
  0
POLYLINE
  8
LAYER_2
 40
0.1764
 41
0.1764
 66
1
 10
0
 20
0
 30
0
  0
VERTEX
  8
LAYER_2
 10
135.6587
 20
-158.5696
  0
VERTEX
  8
LAYER_2
 10
135.6779
 20
-158.5591
  0
SEQEND
  0
ENDBLK
  0
BLOCK
  8
LAYER_2
  2
AIGNBL020200A4
 70
64
 10
0
 20
0
 30
0
  3
AIGNBL020200A4
  0
POLYLINE
  8
LAYER_2
 40
0.1764
 41
0.1764
 66
1
 10
0
 20
0
 30
0
  0
VERTEX
  8
LAYER_2
 10
135.4441
 20
-157.8374
 42
0.1085772236
  0
VERTEX
  8
LAYER_2
 10
135.2844
 20
-157.8891
  0
SEQEND
  0
ENDBLK
  0
BLOCK
  8
LAYER_2
  2
AIGNBL020200A5
 70
64
 10
0
 20
0
 30
0
  3
AIGNBL020200A5
  0
POLYLINE
  8
LAYER_2
 40
0.1764
 41
0.1764
 66
1
 10
0
 20
0
 30
0
  0
VERTEX
  8
LAYER_2
 10
135.294
 20
-157.8823
  0
SEQEND
  0
ENDBLK
  0
BLOCK
  8
LAYER_2
  2
AIGNBL020200A6
 70
64
 10
0
 20
0
 30
0
  3
AIGNBL020200A6
  0
POLYLINE
  8
LAYER_2
 40
0.1764
 41
0.1764
 66
1
 10
0
 20
0
 30
0
  0
VERTEX
  8
LAYER_2
 10
135.6682
 20
-158.5659
  0
SEQEND
  0
ENDBLK
  0
BLOCK
  8
LAYER_2
  2
AIGNBL020200A8
 70
64
 10
0
 20
0
 30
0
  3
AIGNBL020200A8
  0
POLYLINE
  8
LAYER_2
 40
0.1764
 41
0.1764
 62
252
 66
1
 10
0
 20
0
 30
0
  0
VERTEX
  8
LAYER_2
 10
209.4384
 20
-192.9201
  0
VERTEX
  8
LAYER_2
 10
210.64
 20
-192.9241
  0
SEQEND
  0
POLYLINE
  8
LAYER_2
 40
0.1764
 41
0.1764
 62
252
 66
1
 10
0
 20
0
 30
0
  0
VERTEX
  8
LAYER_2
 10
233.3894
 20
-189.84
  0
VERTEX
  8
LAYER_2
 10
233.3894
 20
-174.9199
  0
VERTEX
  8
LAYER_2
 10
187.6856
 20
-174.9199
  0
VERTEX
  8
LAYER_2
 10
187.5381
 20
-174.9609
  0
VERTEX
  8
LAYER_2
 10
187.4273
 20
-175.0717
  0
VERTEX
  8
LAYER_2
 10
187.3864
 20
-175.2193
  0
VERTEX
  8
LAYER_2
 10
187.3864
 20
-176.1215
  0
VERTEX
  8
LAYER_2
 10
187.4273
 20
-176.2693
  0
VERTEX
  8
LAYER_2
 10
187.5381
 20
-176.3799
  0
VERTEX
  8
LAYER_2
 10
187.6856
 20
-176.421
  0
VERTEX
  8
LAYER_2
 10
233.3894
 20
-176.421
  0
SEQEND
  0
POLYLINE
  8
LAYER_2
 40
0.1764
 41
0.1764
 62
252
 66
1
 10
0
 20
0
 30
0
  0
VERTEX
  8
LAYER_2
 10
233.3894
 20
-189.84
  0
VERTEX
  8
LAYER_2
 10
217.7679
 20
-189.84
  0
VERTEX
  8
LAYER_2
 10
206.994
 20
-189.8482
  0
VERTEX
  8
LAYER_2
 10
193.94
 20
-189.2904
  0
VERTEX
  8
LAYER_2
 10
193.7554
 20
-189.2167
  0
VERTEX
  8
LAYER_2
 10
193.6571
 20
-189.0402
  0
VERTEX
  8
LAYER_2
 10
191.4793
 20
-176.6671
  0
SEQEND
  0
POLYLINE
  8
LAYER_2
 40
0.1764
 41
0.1764
 62
252
 66
1
 10
0
 20
0
 30
0
  0
VERTEX
  8
LAYER_2
 10
206.994
 20
-189.8482
  0
VERTEX
  8
LAYER_2
 10
207.1993
 20
-189.9302
  0
VERTEX
  8
LAYER_2
 10
207.3139
 20
-190.1188
  0
VERTEX
  8
LAYER_2
 10
207.4739
 20
-191.8906
  0
VERTEX
  8
LAYER_2
 10
207.5764
 20
-192.0753
  0
VERTEX
  8
LAYER_2
 10
207.7691
 20
-192.145
  0
VERTEX
  8
LAYER_2
 10
212.3872
 20
-192.145
  0
SEQEND
  0
POLYLINE
  8
LAYER_2
 40
0.1764
 41
0.1764
 62
252
 66
1
 10
0
 20
0
 30
0
  0
VERTEX
  8
LAYER_2
 10
217.7391
 20
-189.8442
  0
VERTEX
  8
LAYER_2
 10
217.5546
 20
-189.9302
  0
VERTEX
  8
LAYER_2
 10
217.4644
 20
-190.1188
  0
VERTEX
  8
LAYER_2
 10
217.3044
 20
-191.8906
  0
VERTEX
  8
LAYER_2
 10
217.202
 20
-192.0753
  0
VERTEX
  8
LAYER_2
 10
217.0092
 20
-192.145
  0
VERTEX
  8
LAYER_2
 10
212.3872
 20
-192.145
  0
SEQEND
  0
POLYLINE
  8
LAYER_2
 40
0.1764
 41
0.1764
 62
252
 66
1
 10
0
 20
0
 30
0
  0
VERTEX
  8
LAYER_2
 10
215.3399
 20
-192.9201
  0
VERTEX
  8
LAYER_2
 10
209.4384
 20
-192.9201
  0
VERTEX
  8
LAYER_2
 10
209.4384
 20
-192.145
  0
VERTEX
  8
LAYER_2
 10
215.3399
 20
-192.145
  0
VERTEX
  8
LAYER_2
 10
215.3399
 20
-192.9201
  0
SEQEND
  0
ENDBLK
  0
BLOCK
  8
LAYER_2
  2
AIGNBL020200A9
 70
64
 10
0
 20
0
 30
0
  3
AIGNBL020200A9
  0
POLYLINE
  8
LAYER_2
 40
0.1764
 41
0.1764
 66
1
 10
0
 20
0
 30
0
  0
VERTEX
  8
LAYER_2
 10
222.3899
 20
-174.9199
  0
VERTEX
  8
LAYER_2
 10
222.2752
 20
-175.6827
  0
SEQEND
  0
POLYLINE
  8
LAYER_2
 40
0.1764
 41
0.1764
 66
1
 10
0
 20
0
 30
0
  0
VERTEX
  8
LAYER_2
 10
222.23
 20
-175.9945
  0
VERTEX
  8
LAYER_2
 10
222.1357
 20
-176.622
  0
SEQEND
  0
POLYLINE
  8
LAYER_2
 40
0.1764
 41
0.1764
 66
1
 10
0
 20
0
 30
0
  0
VERTEX
  8
LAYER_2
 10
222.0905
 20
-176.9377
  0
VERTEX
  8
LAYER_2
 10
221.9964
 20
-177.5652
  0
SEQEND
  0
POLYLINE
  8
LAYER_2
 40
0.1764
 41
0.1764
 66
1
 10
0
 20
0
 30
0
  0
VERTEX
  8
LAYER_2
 10
221.9469
 20
-177.8809
  0
VERTEX
  8
LAYER_2
 10
221.8567
 20
-178.5084
  0
SEQEND
  0
POLYLINE
  8
LAYER_2
 40
0.1764
 41
0.1764
 66
1
 10
0
 20
0
 30
0
  0
VERTEX
  8
LAYER_2
 10
221.8075
 20
-178.8202
  0
VERTEX
  8
LAYER_2
 10
221.7134
 20
-179.4519
  0
SEQEND
  0
POLYLINE
  8
LAYER_2
 40
0.1764
 41
0.1764
 66
1
 10
0
 20
0
 30
0
  0
VERTEX
  8
LAYER_2
 10
221.6681
 20
-179.7635
  0
VERTEX
  8
LAYER_2
 10
221.5737
 20
-180.391
  0
SEQEND
  0
POLYLINE
  8
LAYER_2
 40
0.1764
 41
0.1764
 66
1
 10
0
 20
0
 30
0
  0
VERTEX
  8
LAYER_2
 10
221.5286
 20
-180.7068
  0
VERTEX
  8
LAYER_2
 10
221.4344
 20
-181.3342
  0
SEQEND
  0
POLYLINE
  8
LAYER_2
 40
0.1764
 41
0.1764
 66
1
 10
0
 20
0
 30
0
  0
VERTEX
  8
LAYER_2
 10
221.3851
 20
-181.65
  0
VERTEX
  8
LAYER_2
 10
221.2948
 20
-182.2776
  0
SEQEND
  0
POLYLINE
  8
LAYER_2
 40
0.1764
 41
0.1764
 66
1
 10
0
 20
0
 30
0
  0
VERTEX
  8
LAYER_2
 10
221.2457
 20
-182.5891
  0
VERTEX
  8
LAYER_2
 10
221.1513
 20
-183.2207
  0
SEQEND
  0
POLYLINE
  8
LAYER_2
 40
0.1764
 41
0.1764
 66
1
 10
0
 20
0
 30
0
  0
VERTEX
  8
LAYER_2
 10
221.1062
 20
-183.5325
  0
VERTEX
  8
LAYER_2
 10
221.0119
 20
-184.1598
  0
SEQEND
  0
POLYLINE
  8
LAYER_2
 40
0.1764
 41
0.1764
 66
1
 10
0
 20
0
 30
0
  0
VERTEX
  8
LAYER_2
 10
220.9668
 20
-184.4757
  0
VERTEX
  8
LAYER_2
 10
220.8726
 20
-185.1031
  0
SEQEND
  0
POLYLINE
  8
LAYER_2
 40
0.1764
 41
0.1764
 66
1
 10
0
 20
0
 30
0
  0
VERTEX
  8
LAYER_2
 10
220.8232
 20
-185.419
  0
VERTEX
  8
LAYER_2
 10
220.733
 20
-186.0464
  0
SEQEND
  0
POLYLINE
  8
LAYER_2
 40
0.1764
 41
0.1764
 66
1
 10
0
 20
0
 30
0
  0
VERTEX
  8
LAYER_2
 10
220.6838
 20
-186.3581
  0
VERTEX
  8
LAYER_2
 10
220.5731
 20
-187.1209
  0
VERTEX
  8
LAYER_2
 10
220.4747
 20
-187.2933
  0
VERTEX
  8
LAYER_2
 10
220.2902
 20
-187.3671
  0
VERTEX
  8
LAYER_2
 10
219.556
 20
-187.6582
  0
SEQEND
  0
POLYLINE
  8
LAYER_2
 40
0.1764
 41
0.1764
 66
1
 10
0
 20
0
 30
0
  0
VERTEX
  8
LAYER_2
 10
219.2607
 20
-187.7773
  0
VERTEX
  8
LAYER_2
 10
218.6702
 20
-188.0108
  0
SEQEND
  0
POLYLINE
  8
LAYER_2
 40
0.1764
 41
0.1764
 66
1
 10
0
 20
0
 30
0
  0
VERTEX
  8
LAYER_2
 10
218.3748
 20
-188.1298
  0
VERTEX
  8
LAYER_2
 10
217.6409
 20
-188.4209
  0
SEQEND
  0
POLYLINE
  8
LAYER_2
 40
0.1764
 41
0.1764
 66
1
 10
0
 20
0
 30
0
  0
VERTEX
  8
LAYER_2
 10
192.3857
 20
-174.9199
  0
VERTEX
  8
LAYER_2
 10
192.5005
 20
-175.6827
  0
SEQEND
  0
POLYLINE
  8
LAYER_2
 40
0.1764
 41
0.1764
 66
1
 10
0
 20
0
 30
0
  0
VERTEX
  8
LAYER_2
 10
192.5498
 20
-175.9945
  0
VERTEX
  8
LAYER_2
 10
192.64
 20
-176.622
  0
SEQEND
  0
POLYLINE
  8
LAYER_2
 40
0.1764
 41
0.1764
 66
1
 10
0
 20
0
 30
0
  0
VERTEX
  8
LAYER_2
 10
192.6891
 20
-176.9377
  0
VERTEX
  8
LAYER_2
 10
192.7834
 20
-177.5652
  0
SEQEND
  0
POLYLINE
  8
LAYER_2
 40
0.1764
 41
0.1764
 66
1
 10
0
 20
0
 30
0
  0
VERTEX
  8
LAYER_2
 10
192.8286
 20
-177.8809
  0
VERTEX
  8
LAYER_2
 10
192.9229
 20
-178.5084
  0
SEQEND
  0
POLYLINE
  8
LAYER_2
 40
0.1764
 41
0.1764
 66
1
 10
0
 20
0
 30
0
  0
VERTEX
  8
LAYER_2
 10
192.9681
 20
-178.8202
  0
VERTEX
  8
LAYER_2
 10
193.0623
 20
-179.4519
  0
SEQEND
  0
POLYLINE
  8
LAYER_2
 40
0.1764
 41
0.1764
 66
1
 10
0
 20
0
 30
0
  0
VERTEX
  8
LAYER_2
 10
193.1116
 20
-179.7635
  0
VERTEX
  8
LAYER_2
 10
193.2017
 20
-180.391
  0
SEQEND
  0
POLYLINE
  8
LAYER_2
 40
0.1764
 41
0.1764
 66
1
 10
0
 20
0
 30
0
  0
VERTEX
  8
LAYER_2
 10
193.251
 20
-180.7068
  0
VERTEX
  8
LAYER_2
 10
193.3453
 20
-181.3342
  0
SEQEND
  0
POLYLINE
  8
LAYER_2
 40
0.1764
 41
0.1764
 66
1
 10
0
 20
0
 30
0
  0
VERTEX
  8
LAYER_2
 10
193.3906
 20
-181.65
  0
VERTEX
  8
LAYER_2
 10
193.4847
 20
-182.2776
  0
SEQEND
  0
POLYLINE
  8
LAYER_2
 40
0.1764
 41
0.1764
 66
1
 10
0
 20
0
 30
0
  0
VERTEX
  8
LAYER_2
 10
193.5299
 20
-182.5891
  0
VERTEX
  8
LAYER_2
 10
193.6243
 20
-183.2207
  0
SEQEND
  0
POLYLINE
  8
LAYER_2
 40
0.1764
 41
0.1764
 66
1
 10
0
 20
0
 30
0
  0
VERTEX
  8
LAYER_2
 10
193.6693
 20
-183.5325
  0
VERTEX
  8
LAYER_2
 10
193.7637
 20
-184.1598
  0
SEQEND
  0
POLYLINE
  8
LAYER_2
 40
0.1764
 41
0.1764
 66
1
 10
0
 20
0
 30
0
  0
VERTEX
  8
LAYER_2
 10
193.8129
 20
-184.4757
  0
VERTEX
  8
LAYER_2
 10
193.9074
 20
-185.1031
  0
SEQEND
  0
POLYLINE
  8
LAYER_2
 40
0.1764
 41
0.1764
 66
1
 10
0
 20
0
 30
0
  0
VERTEX
  8
LAYER_2
 10
193.9524
 20
-185.419
  0
VERTEX
  8
LAYER_2
 10
194.0467
 20
-186.0464
  0
SEQEND
  0
POLYLINE
  8
LAYER_2
 40
0.1764
 41
0.1764
 66
1
 10
0
 20
0
 30
0
  0
VERTEX
  8
LAYER_2
 10
194.0917
 20
-186.3581
  0
VERTEX
  8
LAYER_2
 10
194.2066
 20
-187.1209
  0
VERTEX
  8
LAYER_2
 10
194.305
 20
-187.2933
  0
VERTEX
  8
LAYER_2
 10
194.4896
 20
-187.3671
  0
VERTEX
  8
LAYER_2
 10
195.0556
 20
-187.4122
  0
SEQEND
  0
POLYLINE
  8
LAYER_2
 40
0.1764
 41
0.1764
 66
1
 10
0
 20
0
 30
0
  0
VERTEX
  8
LAYER_2
 10
195.3753
 20
-187.4367
  0
VERTEX
  8
LAYER_2
 10
196.0071
 20
-187.486
  0
SEQEND
  0
POLYLINE
  8
LAYER_2
 40
0.1764
 41
0.1764
 66
1
 10
0
 20
0
 30
0
  0
VERTEX
  8
LAYER_2
 10
196.3229
 20
-187.5065
  0
VERTEX
  8
LAYER_2
 10
196.9585
 20
-187.5556
  0
SEQEND
  0
POLYLINE
  8
LAYER_2
 40
0.1764
 41
0.1764
 66
1
 10
0
 20
0
 30
0
  0
VERTEX
  8
LAYER_2
 10
197.2742
 20
-187.5804
  0
VERTEX
  8
LAYER_2
 10
197.9059
 20
-187.6294
  0
SEQEND
  0
POLYLINE
  8
LAYER_2
 40
0.1764
 41
0.1764
 66
1
 10
0
 20
0
 30
0
  0
VERTEX
  8
LAYER_2
 10
198.2216
 20
-187.6542
  0
VERTEX
  8
LAYER_2
 10
198.8572
 20
-187.7033
  0
SEQEND
  0
POLYLINE
  8
LAYER_2
 40
0.1764
 41
0.1764
 66
1
 10
0
 20
0
 30
0
  0
VERTEX
  8
LAYER_2
 10
199.1733
 20
-187.7238
  0
VERTEX
  8
LAYER_2
 10
199.8047
 20
-187.773
  0
SEQEND
  0
POLYLINE
  8
LAYER_2
 40
0.1764
 41
0.1764
 66
1
 10
0
 20
0
 30
0
  0
VERTEX
  8
LAYER_2
 10
200.1246
 20
-187.7977
  0
VERTEX
  8
LAYER_2
 10
200.7563
 20
-187.847
  0
SEQEND
  0
POLYLINE
  8
LAYER_2
 40
0.1764
 41
0.1764
 66
1
 10
0
 20
0
 30
0
  0
VERTEX
  8
LAYER_2
 10
201.0719
 20
-187.8715
  0
VERTEX
  8
LAYER_2
 10
201.7035
 20
-187.9207
  0
SEQEND
  0
POLYLINE
  8
LAYER_2
 40
0.1764
 41
0.1764
 66
1
 10
0
 20
0
 30
0
  0
VERTEX
  8
LAYER_2
 10
202.0235
 20
-187.9411
  0
VERTEX
  8
LAYER_2
 10
202.655
 20
-187.9905
  0
SEQEND
  0
POLYLINE
  8
LAYER_2
 40
0.1764
 41
0.1764
 66
1
 10
0
 20
0
 30
0
  0
VERTEX
  8
LAYER_2
 10
202.9708
 20
-188.0151
  0
VERTEX
  8
LAYER_2
 10
203.6066
 20
-188.0641
  0
SEQEND
  0
POLYLINE
  8
LAYER_2
 40
0.1764
 41
0.1764
 66
1
 10
0
 20
0
 30
0
  0
VERTEX
  8
LAYER_2
 10
203.9223
 20
-188.0888
  0
VERTEX
  8
LAYER_2
 10
204.5538
 20
-188.1381
  0
SEQEND
  0
POLYLINE
  8
LAYER_2
 40
0.1764
 41
0.1764
 66
1
 10
0
 20
0
 30
0
  0
VERTEX
  8
LAYER_2
 10
204.8696
 20
-188.1586
  0
VERTEX
  8
LAYER_2
 10
205.5053
 20
-188.2077
  0
SEQEND
  0
POLYLINE
  8
LAYER_2
 40
0.1764
 41
0.1764
 66
1
 10
0
 20
0
 30
0
  0
VERTEX
  8
LAYER_2
 10
205.8212
 20
-188.2323
  0
VERTEX
  8
LAYER_2
 10
206.4527
 20
-188.2816
  0
SEQEND
  0
POLYLINE
  8
LAYER_2
 40
0.1764
 41
0.1764
 66
1
 10
0
 20
0
 30
0
  0
VERTEX
  8
LAYER_2
 10
206.7727
 20
-188.3063
  0
VERTEX
  8
LAYER_2
 10
207.4042
 20
-188.3554
  0
SEQEND
  0
POLYLINE
  8
LAYER_2
 40
0.1764
 41
0.1764
 66
1
 10
0
 20
0
 30
0
  0
VERTEX
  8
LAYER_2
 10
207.7199
 20
-188.3759
  0
VERTEX
  8
LAYER_2
 10
208.29
 20
-188.4209
  0
VERTEX
  8
LAYER_2
 10
208.9956
 20
-188.4209
  0
SEQEND
  0
POLYLINE
  8
LAYER_2
 40
0.1764
 41
0.1764
 66
1
 10
0
 20
0
 30
0
  0
VERTEX
  8
LAYER_2
 10
209.3113
 20
-188.4209
  0
VERTEX
  8
LAYER_2
 10
209.9469
 20
-188.4209
  0
SEQEND
  0
POLYLINE
  8
LAYER_2
 40
0.1764
 41
0.1764
 66
1
 10
0
 20
0
 30
0
  0
VERTEX
  8
LAYER_2
 10
210.2668
 20
-188.4209
  0
VERTEX
  8
LAYER_2
 10
210.9025
 20
-188.4209
  0
SEQEND
  0
POLYLINE
  8
LAYER_2
 40
0.1764
 41
0.1764
 66
1
 10
0
 20
0
 30
0
  0
VERTEX
  8
LAYER_2
 10
211.2184
 20
-188.4209
  0
VERTEX
  8
LAYER_2
 10
211.8539
 20
-188.4209
  0
SEQEND
  0
POLYLINE
  8
LAYER_2
 40
0.1764
 41
0.1764
 66
1
 10
0
 20
0
 30
0
  0
VERTEX
  8
LAYER_2
 10
212.1697
 20
-188.4209
  0
VERTEX
  8
LAYER_2
 10
212.8054
 20
-188.4209
  0
SEQEND
  0
POLYLINE
  8
LAYER_2
 40
0.1764
 41
0.1764
 66
1
 10
0
 20
0
 30
0
  0
VERTEX
  8
LAYER_2
 10
213.1253
 20
-188.4209
  0
VERTEX
  8
LAYER_2
 10
213.7569
 20
-188.4209
  0
SEQEND
  0
POLYLINE
  8
LAYER_2
 40
0.1764
 41
0.1764
 66
1
 10
0
 20
0
 30
0
  0
VERTEX
  8
LAYER_2
 10
214.0769
 20
-188.4209
  0
VERTEX
  8
LAYER_2
 10
214.7125
 20
-188.4209
  0
SEQEND
  0
POLYLINE
  8
LAYER_2
 40
0.1764
 41
0.1764
 66
1
 10
0
 20
0
 30
0
  0
VERTEX
  8
LAYER_2
 10
215.0283
 20
-188.4209
  0
VERTEX
  8
LAYER_2
 10
215.6641
 20
-188.4209
  0
SEQEND
  0
POLYLINE
  8
LAYER_2
 40
0.1764
 41
0.1764
 66
1
 10
0
 20
0
 30
0
  0
VERTEX
  8
LAYER_2
 10
215.9798
 20
-188.4209
  0
VERTEX
  8
LAYER_2
 10
216.6154
 20
-188.4209
  0
SEQEND
  0
POLYLINE
  8
LAYER_2
 40
0.1764
 41
0.1764
 66
1
 10
0
 20
0
 30
0
  0
VERTEX
  8
LAYER_2
 10
216.9353
 20
-188.4209
  0
VERTEX
  8
LAYER_2
 10
217.6409
 20
-188.4209
  0
SEQEND
  0
ENDBLK
  0
BLOCK
  8
LAYER_2
  2
AIGNBL020200AA
 70
64
 10
0
 20
0
 30
0
  3
AIGNBL020200AA
  0
POLYLINE
  8
LAYER_2
 40
0.1764
 41
0.1764
 66
1
 10
0
 20
0
 30
0
  0
VERTEX
  8
LAYER_2
 10
228.6403
 20
-174.9199
  0
VERTEX
  8
LAYER_2
 10
228.6403
 20
-175.5106
  0
SEQEND
  0
POLYLINE
  8
LAYER_2
 40
0.1764
 41
0.1764
 66
1
 10
0
 20
0
 30
0
  0
VERTEX
  8
LAYER_2
 10
228.6403
 20
-175.8303
  0
VERTEX
  8
LAYER_2
 10
228.6403
 20
-176.421
  0
SEQEND
  0
POLYLINE
  8
LAYER_2
 40
0.1764
 41
0.1764
 66
1
 10
0
 20
0
 30
0
  0
VERTEX
  8
LAYER_2
 10
225.1378
 20
-174.9199
  0
VERTEX
  8
LAYER_2
 10
225.1378
 20
-175.5106
  0
SEQEND
  0
POLYLINE
  8
LAYER_2
 40
0.1764
 41
0.1764
 66
1
 10
0
 20
0
 30
0
  0
VERTEX
  8
LAYER_2
 10
225.1378
 20
-175.8303
  0
VERTEX
  8
LAYER_2
 10
225.1378
 20
-176.421
  0
VERTEX
  8
LAYER_2
 10
225.1378
 20
-175.8303
  0
SEQEND
  0
POLYLINE
  8
LAYER_2
 40
0.1764
 41
0.1764
 66
1
 10
0
 20
0
 30
0
  0
VERTEX
  8
LAYER_2
 10
225.1378
 20
-175.5106
  0
VERTEX
  8
LAYER_2
 10
225.1378
 20
-174.9199
  0
SEQEND
  0
POLYLINE
  8
LAYER_2
 40
0.1764
 41
0.1764
 66
1
 10
0
 20
0
 30
0
  0
VERTEX
  8
LAYER_2
 10
228.6403
 20
-176.421
  0
VERTEX
  8
LAYER_2
 10
228.6403
 20
-175.8303
  0
SEQEND
  0
POLYLINE
  8
LAYER_2
 40
0.1764
 41
0.1764
 66
1
 10
0
 20
0
 30
0
  0
VERTEX
  8
LAYER_2
 10
228.6403
 20
-175.5106
  0
VERTEX
  8
LAYER_2
 10
228.6403
 20
-174.9199
  0
SEQEND
  0
ENDBLK
  0
BLOCK
  8
LAYER_2
  2
AIGNBL020200AB
 70
64
 10
0
 20
0
 30
0
  3
AIGNBL020200AB
  0
POLYLINE
  8
LAYER_2
 40
0.1764
 41
0.1764
 66
1
 10
0
 20
0
 30
0
 70
1
  0
VERTEX
  8
LAYER_2
 10
231.3894
 20
-178.421
  0
VERTEX
  8
LAYER_2
 10
189.8894
 20
-178.421
  0
VERTEX
  8
LAYER_2
 10
189.8894
 20
-214.421
  0
VERTEX
  8
LAYER_2
 10
231.3894
 20
-214.421
  0
SEQEND
  0
POLYLINE
  8
LAYER_2
 40
0.1764
 41
0.1764
 66
1
 10
0
 20
0
 30
0
  0
VERTEX
  8
LAYER_2
 10
191.3836
 20
-176.421
  0
VERTEX
  8
LAYER_2
 10
233.3894
 20
-176.421
  0
VERTEX
  8
LAYER_2
 10
233.3894
 20
-178.421
  0
SEQEND
  0
POLYLINE
  8
LAYER_2
 40
0.1764
 41
0.1764
 66
1
 10
0
 20
0
 30
0
  0
VERTEX
  8
LAYER_2
 10
187.8894
 20
-178.421
  0
VERTEX
  8
LAYER_2
 10
187.8894
 20
-177.3266
  0
VERTEX
  8
LAYER_2
 10
187.8894
 20
-176.421
  0
VERTEX
  8
LAYER_2
 10
233.3894
 20
-176.421
  0
VERTEX
  8
LAYER_2
 10
233.3894
 20
-216.421
  0
VERTEX
  8
LAYER_2
 10
187.8894
 20
-216.421
  0
VERTEX
  8
LAYER_2
 10
187.8893
 20
-176.421
  0
SEQEND
  0
ENDBLK
  0
BLOCK
  8
LAYER_2
  2
AIGNBL020200AD
 70
64
 10
0
 20
0
 30
0
  3
AIGNBL020200AD
  0
POLYLINE
  8
LAYER_2
 40
0.1764
 41
0.1764
 66
1
 10
0
 20
0
 30
0
  0
VERTEX
  8
LAYER_2
 10
229.0372
 20
-174.3786
  0
VERTEX
  8
LAYER_2
 10
229.0372
 20
-172.7478
  0
SEQEND
  0
ENDBLK
  0
BLOCK
  8
LAYER_2
  2
AIGNBL020200AE
 70
64
 10
0
 20
0
 30
0
  3
AIGNBL020200AE
  0
POLYLINE
  8
LAYER_2
 40
0.1764
 41
0.1764
 66
1
 10
0
 20
0
 30
0
  0
VERTEX
  8
LAYER_2
 10
229.0372
 20
-170.2284
  0
VERTEX
  8
LAYER_2
 10
229.0372
 20
-160.3437
  0
SEQEND
  0
ENDBLK
  0
BLOCK
  8
LAYER_2
  2
AIGNBL020200AF
 70
64
 10
0
 20
0
 30
0
  3
AIGNBL020200AF
  0
POLYLINE
  8
LAYER_2
 40
0.1764
 41
0.1764
 66
1
 10
0
 20
0
 30
0
  0
VERTEX
  8
LAYER_2
 10
229.0372
 20
-170.9358
  0
VERTEX
  8
LAYER_2
 10
229.0372
 20
-170.2284
  0
SEQEND
  0
ENDBLK
  0
BLOCK
  8
LAYER_2
  2
AIGNBL020200B0
 70
64
 10
0
 20
0
 30
0
  3
AIGNBL020200B0
  0
POLYLINE
  8
LAYER_2
 40
0.1764
 41
0.1764
 66
1
 10
0
 20
0
 30
0
  0
VERTEX
  8
LAYER_2
 10
229.0372
 20
-172.7478
 42
-0.02160259956
  0
VERTEX
  8
LAYER_2
 10
229.0372
 20
-170.9358
  0
SEQEND
  0
ENDBLK
  0
BLOCK
  8
LAYER_2
  2
AIGNBL020200B1
 70
64
 10
0
 20
0
 30
0
  3
AIGNBL020200B1
  0
POLYLINE
  8
LAYER_2
 40
0.1764
 41
0.1764
 66
1
 10
0
 20
0
 30
0
  0
VERTEX
  8
LAYER_2
 10
224.7375
 20
-164.0535
  0
VERTEX
  8
LAYER_2
 10
224.7375
 20
-174.3786
  0
SEQEND
  0
ENDBLK
  0
BLOCK
  8
LAYER_2
  2
AIGNBL020200B2
 70
64
 10
0
 20
0
 30
0
  3
AIGNBL020200B2
  0
POLYLINE
  8
LAYER_2
 40
0.1764
 41
0.1764
 66
1
 10
0
 20
0
 30
0
  0
VERTEX
  8
LAYER_2
 10
224.7375
 20
-161.2037
  0
VERTEX
  8
LAYER_2
 10
224.7375
 20
-160.3437
  0
SEQEND
  0
ENDBLK
  0
BLOCK
  8
LAYER_2
  2
AIGNBL020200B3
 70
64
 10
0
 20
0
 30
0
  3
AIGNBL020200B3
  0
POLYLINE
  8
LAYER_2
 40
0.1764
 41
0.1764
 66
1
 10
0
 20
0
 30
0
  0
VERTEX
  8
LAYER_2
 10
229.0072
 20
-160.3137
  0
VERTEX
  8
LAYER_2
 10
224.7675
 20
-160.3137
  0
SEQEND
  0
ENDBLK
  0
BLOCK
  8
LAYER_2
  2
AIGNBL020200B4
 70
64
 10
0
 20
0
 30
0
  3
AIGNBL020200B4
  0
POLYLINE
  8
LAYER_2
 40
0.1764
 41
0.1764
 66
1
 10
0
 20
0
 30
0
  0
VERTEX
  8
LAYER_2
 10
224.7675
 20
-160.3137
  0
VERTEX
  8
LAYER_2
 10
224.7463
 20
-160.3225
  0
VERTEX
  8
LAYER_2
 10
224.7375
 20
-160.3437
  0
SEQEND
  0
ENDBLK
  0
BLOCK
  8
LAYER_2
  2
AIGNBL020200B5
 70
64
 10
0
 20
0
 30
0
  3
AIGNBL020200B5
  0
POLYLINE
  8
LAYER_2
 40
0.1764
 41
0.1764
 66
1
 10
0
 20
0
 30
0
  0
VERTEX
  8
LAYER_2
 10
229.0372
 20
-160.3437
  0
VERTEX
  8
LAYER_2
 10
229.0284
 20
-160.3225
  0
VERTEX
  8
LAYER_2
 10
229.0072
 20
-160.3137
  0
SEQEND
  0
ENDBLK
  0
BLOCK
  8
LAYER_2
  2
AIGNBL020200B6
 70
64
 10
0
 20
0
 30
0
  3
AIGNBL020200B6
  0
POLYLINE
  8
LAYER_2
 40
0.1764
 41
0.1764
 66
1
 10
0
 20
0
 30
0
  0
VERTEX
  8
LAYER_2
 10
229.1372
 20
-158.7584
  0
VERTEX
  8
LAYER_2
 10
229.1372
 20
-158.0884
  0
SEQEND
  0
ENDBLK
  0
BLOCK
  8
LAYER_2
  2
AIGNBL020200B7
 70
64
 10
0
 20
0
 30
0
  3
AIGNBL020200B7
  0
POLYLINE
  8
LAYER_2
 40
0.1764
 41
0.1764
 66
1
 10
0
 20
0
 30
0
  0
VERTEX
  8
LAYER_2
 10
217.8381
 20
-157.8351
  0
VERTEX
  8
LAYER_2
 10
217.8381
 20
-158.2039
  0
SEQEND
  0
ENDBLK
  0
BLOCK
  8
LAYER_2
  2
AIGNBL020200B8
 70
64
 10
0
 20
0
 30
0
  3
AIGNBL020200B8
  0
POLYLINE
  8
LAYER_2
 40
0.1764
 41
0.1764
 66
1
 10
0
 20
0
 30
0
  0
VERTEX
  8
LAYER_2
 10
217.8381
 20
-158.2039
  0
VERTEX
  8
LAYER_2
 10
217.8381
 20
-158.5735
  0
SEQEND
  0
ENDBLK
  0
BLOCK
  8
LAYER_2
  2
AIGNBL020200B9
 70
64
 10
0
 20
0
 30
0
  3
AIGNBL020200B9
  0
POLYLINE
  8
LAYER_2
 40
0.1764
 41
0.1764
 66
1
 10
0
 20
0
 30
0
  0
VERTEX
  8
LAYER_2
 10
217.8381
 20
-157.8343
  0
VERTEX
  8
LAYER_2
 10
217.8381
 20
-157.8351
  0
SEQEND
  0
ENDBLK
  0
BLOCK
  8
LAYER_2
  2
AIGNBL020200BA
 70
64
 10
0
 20
0
 30
0
  3
AIGNBL020200BA
  0
POLYLINE
  8
LAYER_2
 40
0.1764
 41
0.1764
 66
1
 10
0
 20
0
 30
0
  0
VERTEX
  8
LAYER_2
 10
217.8581
 20
-158.5935
 42
-0.3932283097
  0
VERTEX
  8
LAYER_2
 10
217.8381
 20
-158.5735
  0
SEQEND
  0
ENDBLK
  0
BLOCK
  8
LAYER_2
  2
AIGNBL020200BB
 70
64
 10
0
 20
0
 30
0
  3
AIGNBL020200BB
  0
POLYLINE
  8
LAYER_2
 40
0.1764
 41
0.1764
 66
1
 10
0
 20
0
 30
0
  0
VERTEX
  8
LAYER_2
 10
217.8581
 20
-157.8143
 42
0.3932283097
  0
VERTEX
  8
LAYER_2
 10
217.8381
 20
-157.8343
  0
SEQEND
  0
ENDBLK
  0
BLOCK
  8
LAYER_2
  2
AIGNBL020200BC
 70
64
 10
0
 20
0
 30
0
  3
AIGNBL020200BC
  0
POLYLINE
  8
LAYER_2
 40
0.1764
 41
0.1764
 66
1
 10
0
 20
0
 30
0
  0
VERTEX
  8
LAYER_2
 10
219.6851
 20
-158.5214
  0
VERTEX
  8
LAYER_2
 10
219.5595
 20
-158.5239
  0
VERTEX
  8
LAYER_2
 10
219.4147
 20
-158.5365
  0
VERTEX
  8
LAYER_2
 10
219.2548
 20
-158.5574
  0
VERTEX
  8
LAYER_2
 10
219.0873
 20
-158.5784
  0
VERTEX
  8
LAYER_2
 10
218.9241
 20
-158.591
  0
VERTEX
  8
LAYER_2
 10
218.7814
 20
-158.5935
  0
SEQEND
  0
ENDBLK
  0
BLOCK
  8
LAYER_2
  2
AIGNBL020200BD
 70
64
 10
0
 20
0
 30
0
  3
AIGNBL020200BD
  0
POLYLINE
  8
LAYER_2
 40
0.1764
 41
0.1764
 66
1
 10
0
 20
0
 30
0
  0
VERTEX
  8
LAYER_2
 10
218.7814
 20
-157.8143
  0
VERTEX
  8
LAYER_2
 10
218.9241
 20
-157.8168
  0
VERTEX
  8
LAYER_2
 10
219.0873
 20
-157.8294
  0
VERTEX
  8
LAYER_2
 10
219.2548
 20
-157.8503
  0
VERTEX
  8
LAYER_2
 10
219.4147
 20
-157.8713
  0
VERTEX
  8
LAYER_2
 10
219.5595
 20
-157.8838
  0
VERTEX
  8
LAYER_2
 10
219.6851
 20
-157.8864
  0
SEQEND
  0
ENDBLK
  0
BLOCK
  8
LAYER_2
  2
AIGNBL020200BE
 70
64
 10
0
 20
0
 30
0
  3
AIGNBL020200BE
  0
POLYLINE
  8
LAYER_2
 40
0.1764
 41
0.1764
 66
1
 10
0
 20
0
 30
0
  0
VERTEX
  8
LAYER_2
 10
218.7817
 20
-158.5935
  0
VERTEX
  8
LAYER_2
 10
217.8567
 20
-158.5935
  0
SEQEND
  0
ENDBLK
  0
BLOCK
  8
LAYER_2
  2
AIGNBL020200BF
 70
64
 10
0
 20
0
 30
0
  3
AIGNBL020200BF
  0
POLYLINE
  8
LAYER_2
 40
0.1764
 41
0.1764
 66
1
 10
0
 20
0
 30
0
  0
VERTEX
  8
LAYER_2
 10
217.8567
 20
-157.8143
  0
VERTEX
  8
LAYER_2
 10
218.7817
 20
-157.8143
  0
SEQEND
  0
ENDBLK
  0
BLOCK
  8
LAYER_2
  2
AIGNBL020200C0
 70
64
 10
0
 20
0
 30
0
  3
AIGNBL020200C0
  0
POLYLINE
  8
LAYER_2
 40
0.1764
 41
0.1764
 66
1
 10
0
 20
0
 30
0
  0
VERTEX
  8
LAYER_2
 10
224.6382
 20
-158.5214
  0
VERTEX
  8
LAYER_2
 10
219.6849
 20
-158.5214
  0
SEQEND
  0
ENDBLK
  0
BLOCK
  8
LAYER_2
  2
AIGNBL020200C1
 70
64
 10
0
 20
0
 30
0
  3
AIGNBL020200C1
  0
POLYLINE
  8
LAYER_2
 40
0.1764
 41
0.1764
 66
1
 10
0
 20
0
 30
0
  0
VERTEX
  8
LAYER_2
 10
219.6849
 20
-157.8864
  0
VERTEX
  8
LAYER_2
 10
224.6382
 20
-157.8864
  0
SEQEND
  0
ENDBLK
  0
BLOCK
  8
LAYER_2
  2
AIGNBL020200C2
 70
64
 10
0
 20
0
 30
0
  3
AIGNBL020200C2
  0
POLYLINE
  8
LAYER_2
 40
0.1764
 41
0.1764
 66
1
 10
0
 20
0
 30
0
  0
VERTEX
  8
LAYER_2
 10
226.6496
 20
-157.7114
  0
VERTEX
  8
LAYER_2
 10
224.6375
 20
-157.7091
  0
SEQEND
  0
ENDBLK
  0
BLOCK
  8
LAYER_2
  2
AIGNBL020200C3
 70
64
 10
0
 20
0
 30
0
  3
AIGNBL020200C3
  0
POLYLINE
  8
LAYER_2
 40
0.1764
 41
0.1764
 66
1
 10
0
 20
0
 30
0
  0
VERTEX
  8
LAYER_2
 10
229.1372
 20
-157.709
  0
VERTEX
  8
LAYER_2
 10
229.134
 20
-157.7091
  0
VERTEX
  8
LAYER_2
 10
228.9301
 20
-157.7103
  0
VERTEX
  8
LAYER_2
 10
228.4356
 20
-157.7109
  0
VERTEX
  8
LAYER_2
 10
226.8874
 20
-157.7114
  0
SEQEND
  0
ENDBLK
  0
BLOCK
  8
LAYER_2
  2
AIGNBL020200C4
 70
64
 10
0
 20
0
 30
0
  3
AIGNBL020200C4
  0
POLYLINE
  8
LAYER_2
 40
0.1764
 41
0.1764
 66
1
 10
0
 20
0
 30
0
  0
VERTEX
  8
LAYER_2
 10
226.8874
 20
-157.7114
  0
VERTEX
  8
LAYER_2
 10
226.6496
 20
-157.7114
  0
SEQEND
  0
ENDBLK
  0
BLOCK
  8
LAYER_2
  2
AIGNBL020200C5
 70
64
 10
0
 20
0
 30
0
  3
AIGNBL020200C5
  0
POLYLINE
  8
LAYER_2
 40
0.1764
 41
0.1764
 66
1
 10
0
 20
0
 30
0
  0
VERTEX
  8
LAYER_2
 10
224.6575
 20
-160.1054
  0
VERTEX
  8
LAYER_2
 10
229.1172
 20
-160.1054
  0
SEQEND
  0
ENDBLK
  0
BLOCK
  8
LAYER_2
  2
AIGNBL020200C6
 70
64
 10
0
 20
0
 30
0
  3
AIGNBL020200C6
  0
POLYLINE
  8
LAYER_2
 40
0.1764
 41
0.1764
 66
1
 10
0
 20
0
 30
0
  0
VERTEX
  8
LAYER_2
 10
229.1372
 20
-158.7784
 42
-0.08134233622
  0
VERTEX
  8
LAYER_2
 10
229.1369
 20
-158.07
  0
SEQEND
  0
ENDBLK
  0
BLOCK
  8
LAYER_2
  2
AIGNBL020200C7
 70
64
 10
0
 20
0
 30
0
  3
AIGNBL020200C7
  0
POLYLINE
  8
LAYER_2
 40
0.1764
 41
0.1764
 66
1
 10
0
 20
0
 30
0
  0
VERTEX
  8
LAYER_2
 10
224.6375
 20
-157.8814
 42
-0.07201784586
  0
VERTEX
  8
LAYER_2
 10
224.6375
 20
-158.5264
  0
SEQEND
  0
ENDBLK
  0
BLOCK
  8
LAYER_2
  2
AIGNBL020200C8
 70
64
 10
0
 20
0
 30
0
  3
AIGNBL020200C8
  0
POLYLINE
  8
LAYER_2
 40
0.1764
 41
0.1764
 66
1
 10
0
 20
0
 30
0
  0
VERTEX
  8
LAYER_2
 10
229.0931
 20
-157.6594
 42
-0.3650185293
  0
VERTEX
  8
LAYER_2
 10
229.1372
 20
-157.7095
  0
SEQEND
  0
ENDBLK
  0
BLOCK
  8
LAYER_2
  2
AIGNBL020200C9
 70
64
 10
0
 20
0
 30
0
  3
AIGNBL020200C9
  0
POLYLINE
  8
LAYER_2
 40
0.1764
 41
0.1764
 66
1
 10
0
 20
0
 30
0
  0
VERTEX
  8
LAYER_2
 10
224.6375
 20
-157.7095
 42
-0.3274093687
  0
VERTEX
  8
LAYER_2
 10
224.6742
 20
-157.6609
  0
SEQEND
  0
ENDBLK
  0
BLOCK
  8
LAYER_2
  2
AIGNBL020200CA
 70
64
 10
0
 20
0
 30
0
  3
AIGNBL020200CA
  0
POLYLINE
  8
LAYER_2
 40
0.1764
 41
0.1764
 66
1
 10
0
 20
0
 30
0
  0
VERTEX
  8
LAYER_2
 10
224.6575
 20
-160.1054
 42
-0.3930525238
  0
VERTEX
  8
LAYER_2
 10
224.6375
 20
-160.0854
  0
SEQEND
  0
ENDBLK
  0
BLOCK
  8
LAYER_2
  2
AIGNBL020200CB
 70
64
 10
0
 20
0
 30
0
  3
AIGNBL020200CB
  0
POLYLINE
  8
LAYER_2
 40
0.1764
 41
0.1764
 66
1
 10
0
 20
0
 30
0
  0
VERTEX
  8
LAYER_2
 10
229.1372
 20
-160.0854
 42
-0.3929519785
  0
VERTEX
  8
LAYER_2
 10
229.1172
 20
-160.1054
  0
SEQEND
  0
ENDBLK
  0
BLOCK
  8
LAYER_2
  2
AIGNBL020200CC
 70
64
 10
0
 20
0
 30
0
  3
AIGNBL020200CC
  0
POLYLINE
  8
LAYER_2
 40
0.1764
 41
0.1764
 66
1
 10
0
 20
0
 30
0
  0
VERTEX
  8
LAYER_2
 10
224.6375
 20
-157.8814
  0
VERTEX
  8
LAYER_2
 10
224.6375
 20
-157.7086
  0
SEQEND
  0
ENDBLK
  0
BLOCK
  8
LAYER_2
  2
AIGNBL020200CD
 70
64
 10
0
 20
0
 30
0
  3
AIGNBL020200CD
  0
POLYLINE
  8
LAYER_2
 40
0.1764
 41
0.1764
 66
1
 10
0
 20
0
 30
0
  0
VERTEX
  8
LAYER_2
 10
224.6375
 20
-160.0854
  0
VERTEX
  8
LAYER_2
 10
224.6375
 20
-158.5223
  0
SEQEND
  0
ENDBLK
  0
BLOCK
  8
LAYER_2
  2
AIGNBL020200CE
 70
64
 10
0
 20
0
 30
0
  3
AIGNBL020200CE
  0
POLYLINE
  8
LAYER_2
 40
0.1764
 41
0.1764
 66
1
 10
0
 20
0
 30
0
  0
VERTEX
  8
LAYER_2
 10
229.1372
 20
-158.7737
  0
VERTEX
  8
LAYER_2
 10
229.1372
 20
-160.0854
  0
SEQEND
  0
ENDBLK
  0
BLOCK
  8
LAYER_2
  2
AIGNBL020200CF
 70
64
 10
0
 20
0
 30
0
  3
AIGNBL020200CF
  0
POLYLINE
  8
LAYER_2
 40
0.1764
 41
0.1764
 66
1
 10
0
 20
0
 30
0
  0
VERTEX
  8
LAYER_2
 10
229.1372
 20
-157.7086
  0
VERTEX
  8
LAYER_2
 10
229.1372
 20
-158.0684
  0
SEQEND
  0
ENDBLK
  0
BLOCK
  8
LAYER_2
  2
AIGNBL020200D0
 70
64
 10
0
 20
0
 30
0
  3
AIGNBL020200D0
  0
POLYLINE
  8
LAYER_2
 40
0.1764
 41
0.1764
 66
1
 10
0
 20
0
 30
0
  0
VERTEX
  8
LAYER_2
 10
224.6742
 20
-157.6609
 42
-0.03703130501
  0
VERTEX
  8
LAYER_2
 10
229.0898
 20
-157.6603
  0
SEQEND
  0
ENDBLK
  0
BLOCK
  8
LAYER_2
  2
AIGNBL020200D1
 70
64
 10
0
 20
0
 30
0
  3
AIGNBL020200D1
  0
POLYLINE
  8
LAYER_2
 40
0.1764
 41
0.1764
 66
1
 10
0
 20
0
 30
0
  0
VERTEX
  8
LAYER_2
 10
229.1353
 20
-158.0827
  0
VERTEX
  8
LAYER_2
 10
229.1368
 20
-158.0734
  0
SEQEND
  0
ENDBLK
  0
BLOCK
  8
LAYER_2
  2
AIGNBL020200D2
 70
64
 10
0
 20
0
 30
0
  3
AIGNBL020200D2
  0
POLYLINE
  8
LAYER_2
 40
0.1764
 41
0.1764
 66
1
 10
0
 20
0
 30
0
  0
VERTEX
  8
LAYER_2
 10
229.1367
 20
-158.074
  0
VERTEX
  8
LAYER_2
 10
229.1295
 20
-158.0884
  0
SEQEND
  0
ENDBLK
  0
BLOCK
  8
LAYER_2
  2
AIGNBL020200D3
 70
64
 10
0
 20
0
 30
0
  3
AIGNBL020200D3
  0
POLYLINE
  8
LAYER_2
 40
0.1764
 41
0.1764
 66
1
 10
0
 20
0
 30
0
  0
VERTEX
  8
LAYER_2
 10
224.7719
 20
-160.3137
  0
VERTEX
  8
LAYER_2
 10
229.0028
 20
-160.3137
  0
SEQEND
  0
ENDBLK
  0
BLOCK
  8
LAYER_2
  2
AIGNBL020200D4
 70
64
 10
0
 20
0
 30
0
  3
AIGNBL020200D4
  0
POLYLINE
  8
LAYER_2
 40
0.1764
 41
0.1764
 66
1
 10
0
 20
0
 30
0
  0
VERTEX
  8
LAYER_2
 10
228.9064
 20
-160.1054
  0
VERTEX
  8
LAYER_2
 10
229.0201
 20
-160.2837
  0
SEQEND
  0
ENDBLK
  0
BLOCK
  8
LAYER_2
  2
AIGNBL020200D5
 70
64
 10
0
 20
0
 30
0
  3
AIGNBL020200D5
  0
POLYLINE
  8
LAYER_2
 40
0.1764
 41
0.1764
 66
1
 10
0
 20
0
 30
0
  0
VERTEX
  8
LAYER_2
 10
224.7546
 20
-160.2837
  0
VERTEX
  8
LAYER_2
 10
224.8683
 20
-160.1054
  0
SEQEND
  0
ENDBLK
  0
BLOCK
  8
LAYER_2
  2
AIGNBL020200D6
 70
64
 10
0
 20
0
 30
0
  3
AIGNBL020200D6
  0
POLYLINE
  8
LAYER_2
 40
0.1764
 41
0.1764
 66
1
 10
0
 20
0
 30
0
  0
VERTEX
  8
LAYER_2
 10
224.7719
 20
-160.3137
 42
-0.3930525238
  0
VERTEX
  8
LAYER_2
 10
224.7519
 20
-160.2937
  0
VERTEX
  8
LAYER_2
 10
224.7546
 20
-160.2837
  0
SEQEND
  0
ENDBLK
  0
BLOCK
  8
LAYER_2
  2
AIGNBL020200D7
 70
64
 10
0
 20
0
 30
0
  3
AIGNBL020200D7
  0
POLYLINE
  8
LAYER_2
 40
0.1764
 41
0.1764
 66
1
 10
0
 20
0
 30
0
  0
VERTEX
  8
LAYER_2
 10
229.0201
 20
-160.2837
 42
-0.3949500355
  0
VERTEX
  8
LAYER_2
 10
229.0128
 20
-160.311
  0
VERTEX
  8
LAYER_2
 10
229.0028
 20
-160.3137
  0
SEQEND
  0
ENDBLK
  0
BLOCK
  8
LAYER_2
  2
AIGNBL020200D8
 70
64
 10
0
 20
0
 30
0
  3
AIGNBL020200D8
  0
POLYLINE
  8
LAYER_2
 40
0.1764
 41
0.1764
 66
1
 10
0
 20
0
 30
0
  0
VERTEX
  8
LAYER_2
 10
224.5178
 20
-174.9785
  0
VERTEX
  8
LAYER_2
 10
229.2569
 20
-174.9785
  0
SEQEND
  0
ENDBLK
  0
BLOCK
  8
LAYER_2
  2
AIGNBL020200D9
 70
64
 10
0
 20
0
 30
0
  3
AIGNBL020200D9
  0
POLYLINE
  8
LAYER_2
 40
0.1764
 41
0.1764
 66
1
 10
0
 20
0
 30
0
  0
VERTEX
  8
LAYER_2
 10
224.5423
 20
-174.3786
  0
VERTEX
  8
LAYER_2
 10
229.2324
 20
-174.3786
  0
SEQEND
  0
ENDBLK
  0
BLOCK
  8
LAYER_2
  2
AIGNBL020200DA
 70
64
 10
0
 20
0
 30
0
  3
AIGNBL020200DA
  0
POLYLINE
  8
LAYER_2
 40
0.1764
 41
0.1764
 66
1
 10
0
 20
0
 30
0
  0
VERTEX
  8
LAYER_2
 10
224.4878
 20
-174.9483
  0
VERTEX
  8
LAYER_2
 10
224.4924
 20
-174.4281
  0
SEQEND
  0
ENDBLK
  0
BLOCK
  8
LAYER_2
  2
AIGNBL020200DB
 70
64
 10
0
 20
0
 30
0
  3
AIGNBL020200DB
  0
POLYLINE
  8
LAYER_2
 40
0.1764
 41
0.1764
 66
1
 10
0
 20
0
 30
0
  0
VERTEX
  8
LAYER_2
 10
229.2824
 20
-174.4281
  0
VERTEX
  8
LAYER_2
 10
229.2869
 20
-174.9483
  0
SEQEND
  0
ENDBLK
  0
BLOCK
  8
LAYER_2
  2
AIGNBL020200DC
 70
64
 10
0
 20
0
 30
0
  3
AIGNBL020200DC
  0
POLYLINE
  8
LAYER_2
 40
0.1764
 41
0.1764
 66
1
 10
0
 20
0
 30
0
  0
VERTEX
  8
LAYER_2
 10
229.2869
 20
-174.9483
 42
-0.3943720198
  0
VERTEX
  8
LAYER_2
 10
229.2572
 20
-174.9785
  0
SEQEND
  0
ENDBLK
  0
BLOCK
  8
LAYER_2
  2
AIGNBL020200DD
 70
64
 10
0
 20
0
 30
0
  3
AIGNBL020200DD
  0
POLYLINE
  8
LAYER_2
 40
0.1764
 41
0.1764
 66
1
 10
0
 20
0
 30
0
  0
VERTEX
  8
LAYER_2
 10
224.5178
 20
-174.9785
 42
-0.3936226658
  0
VERTEX
  8
LAYER_2
 10
224.4878
 20
-174.9485
  0
SEQEND
  0
ENDBLK
  0
BLOCK
  8
LAYER_2
  2
AIGNBL020200DE
 70
64
 10
0
 20
0
 30
0
  3
AIGNBL020200DE
  0
POLYLINE
  8
LAYER_2
 40
0.1764
 41
0.1764
 66
1
 10
0
 20
0
 30
0
  0
VERTEX
  8
LAYER_2
 10
224.4924
 20
-174.4281
 42
-0.3908085742
  0
VERTEX
  8
LAYER_2
 10
224.5423
 20
-174.3786
  0
SEQEND
  0
ENDBLK
  0
BLOCK
  8
LAYER_2
  2
AIGNBL020200DF
 70
64
 10
0
 20
0
 30
0
  3
AIGNBL020200DF
  0
POLYLINE
  8
LAYER_2
 40
0.1764
 41
0.1764
 66
1
 10
0
 20
0
 30
0
  0
VERTEX
  8
LAYER_2
 10
229.2324
 20
-174.3786
 42
-0.3898057758
  0
VERTEX
  8
LAYER_2
 10
229.2824
 20
-174.4281
  0
SEQEND
  0
ENDBLK
  0
BLOCK
  8
LAYER_2
  2
AIGNBL020200E0
 70
64
 10
0
 20
0
 30
0
  3
AIGNBL020200E0
  0
POLYLINE
  8
LAYER_2
  6
AIGENLINE001
 40
0.1764
 41
0.1764
 66
1
 10
0
 20
0
 30
0
 70
128
  0
VERTEX
  8
LAYER_2
 10
230.1193
 20
-160.0244
  0
VERTEX
  8
LAYER_2
 10
230.413
 20
-159.4222
  0
SEQEND
  0
ENDBLK
  0
BLOCK
  8
LAYER_2
  2
AIGNBL020200E1
 70
64
 10
0
 20
0
 30
0
  3
AIGNBL020200E1
  0
POLYLINE
  8
LAYER_2
  6
AIGENLINE001
 40
0.1764
 41
0.1764
 66
1
 10
0
 20
0
 30
0
 70
128
  0
VERTEX
  8
LAYER_2
 10
220.3685
 20
-154.2413
  0
VERTEX
  8
LAYER_2
 10
220.2068
 20
-154.5728
  0
SEQEND
  0
ENDBLK
  0
BLOCK
  8
LAYER_2
  2
AIGNBL020200E2
 70
64
 10
0
 20
0
 30
0
  3
AIGNBL020200E2
  0
POLYLINE
  8
LAYER_2
  6
AIGENLINE001
 40
0.1764
 41
0.1764
 66
1
 10
0
 20
0
 30
0
 70
128
  0
VERTEX
  8
LAYER_2
 10
220.2068
 20
-154.5728
  0
VERTEX
  8
LAYER_2
 10
220.0448
 20
-154.905
  0
SEQEND
  0
ENDBLK
  0
BLOCK
  8
LAYER_2
  2
AIGNBL020200E3
 70
64
 10
0
 20
0
 30
0
  3
AIGNBL020200E3
  0
POLYLINE
  8
LAYER_2
  6
AIGENLINE001
 40
0.1764
 41
0.1764
 66
1
 10
0
 20
0
 30
0
 70
128
  0
VERTEX
  8
LAYER_2
 10
220.3688
 20
-154.2406
  0
VERTEX
  8
LAYER_2
 10
220.3685
 20
-154.2413
  0
SEQEND
  0
ENDBLK
  0
BLOCK
  8
LAYER_2
  2
AIGNBL020200E4
 70
64
 10
0
 20
0
 30
0
  3
AIGNBL020200E4
  0
POLYLINE
  8
LAYER_2
  6
AIGENLINE001
 40
0.1764
 41
0.1764
 66
1
 10
0
 20
0
 30
0
 70
128
  0
VERTEX
  8
LAYER_2
 10
220.054
 20
-154.9318
 42
-0.3953931791
  0
VERTEX
  8
LAYER_2
 10
220.0448
 20
-154.905
  0
SEQEND
  0
ENDBLK
  0
BLOCK
  8
LAYER_2
  2
AIGNBL020200E5
 70
64
 10
0
 20
0
 30
0
  3
AIGNBL020200E5
  0
POLYLINE
  8
LAYER_2
  6
AIGENLINE001
 40
0.1764
 41
0.1764
 66
1
 10
0
 20
0
 30
0
 70
128
  0
VERTEX
  8
LAYER_2
 10
220.3956
 20
-154.2314
 42
0.3929793569
  0
VERTEX
  8
LAYER_2
 10
220.3688
 20
-154.2406
  0
SEQEND
  0
ENDBLK
  0
BLOCK
  8
LAYER_2
  2
AIGNBL020200E6
 70
64
 10
0
 20
0
 30
0
  3
AIGNBL020200E6
  0
POLYLINE
  8
LAYER_2
  6
AIGENLINE001
 40
0.1764
 41
0.1764
 66
1
 10
0
 20
0
 30
0
 70
128
  0
VERTEX
  8
LAYER_2
 10
221.7278
 20
-155.6678
  0
VERTEX
  8
LAYER_2
 10
221.6137
 20
-155.6151
  0
VERTEX
  8
LAYER_2
 10
221.4781
 20
-155.5629
  0
VERTEX
  8
LAYER_2
 10
221.3252
 20
-155.5116
  0
VERTEX
  8
LAYER_2
 10
221.1655
 20
-155.457
  0
VERTEX
  8
LAYER_2
 10
221.0132
 20
-155.3968
  0
VERTEX
  8
LAYER_2
 10
220.8839
 20
-155.3365
  0
SEQEND
  0
ENDBLK
  0
BLOCK
  8
LAYER_2
  2
AIGNBL020200E7
 70
64
 10
0
 20
0
 30
0
  3
AIGNBL020200E7
  0
POLYLINE
  8
LAYER_2
  6
AIGENLINE001
 40
0.1764
 41
0.1764
 66
1
 10
0
 20
0
 30
0
 70
128
  0
VERTEX
  8
LAYER_2
 10
221.2255
 20
-154.6361
  0
VERTEX
  8
LAYER_2
 10
221.3526
 20
-154.701
  0
VERTEX
  8
LAYER_2
 10
221.4938
 20
-154.7838
  0
VERTEX
  8
LAYER_2
 10
221.6351
 20
-154.8761
  0
VERTEX
  8
LAYER_2
 10
221.7697
 20
-154.965
  0
VERTEX
  8
LAYER_2
 10
221.8943
 20
-155.0398
  0
VERTEX
  8
LAYER_2
 10
222.0061
 20
-155.0971
  0
SEQEND
  0
ENDBLK
  0
BLOCK
  8
LAYER_2
  2
AIGNBL020200E8
 70
64
 10
0
 20
0
 30
0
  3
AIGNBL020200E8
  0
POLYLINE
  8
LAYER_2
  6
AIGENLINE001
 40
0.1764
 41
0.1764
 66
1
 10
0
 20
0
 30
0
 70
128
  0
VERTEX
  8
LAYER_2
 10
220.8841
 20
-155.3366
  0
VERTEX
  8
LAYER_2
 10
220.0528
 20
-154.9312
  0
SEQEND
  0
ENDBLK
  0
BLOCK
  8
LAYER_2
  2
AIGNBL020200E9
 70
64
 10
0
 20
0
 30
0
  3
AIGNBL020200E9
  0
POLYLINE
  8
LAYER_2
  6
AIGENLINE001
 40
0.1764
 41
0.1764
 66
1
 10
0
 20
0
 30
0
 70
128
  0
VERTEX
  8
LAYER_2
 10
220.3944
 20
-154.2308
  0
VERTEX
  8
LAYER_2
 10
221.2257
 20
-154.6362
  0
SEQEND
  0
ENDBLK
  0
BLOCK
  8
LAYER_2
  2
AIGNBL020200EA
 70
64
 10
0
 20
0
 30
0
  3
AIGNBL020200EA
  0
POLYLINE
  8
LAYER_2
  6
AIGENLINE001
 40
0.1764
 41
0.1764
 66
1
 10
0
 20
0
 30
0
 70
128
  0
VERTEX
  8
LAYER_2
 10
226.1796
 20
-157.8391
  0
VERTEX
  8
LAYER_2
 10
221.7275
 20
-155.6677
  0
SEQEND
  0
ENDBLK
  0
BLOCK
  8
LAYER_2
  2
AIGNBL020200EB
 70
64
 10
0
 20
0
 30
0
  3
AIGNBL020200EB
  0
POLYLINE
  8
LAYER_2
  6
AIGENLINE001
 40
0.1764
 41
0.1764
 66
1
 10
0
 20
0
 30
0
 70
128
  0
VERTEX
  8
LAYER_2
 10
222.0059
 20
-155.097
  0
VERTEX
  8
LAYER_2
 10
226.4579
 20
-157.2684
  0
SEQEND
  0
ENDBLK
  0
BLOCK
  8
LAYER_2
  2
AIGNBL020200EC
 70
64
 10
0
 20
0
 30
0
  3
AIGNBL020200EC
  0
POLYLINE
  8
LAYER_2
  6
AIGENLINE001
 40
0.1764
 41
0.1764
 66
1
 10
0
 20
0
 30
0
 70
128
  0
VERTEX
  8
LAYER_2
 10
225.5025
 20
-159.2713
  0
VERTEX
  8
LAYER_2
 10
229.5109
 20
-161.2263
  0
SEQEND
  0
ENDBLK
  0
BLOCK
  8
LAYER_2
  2
AIGNBL020200ED
 70
64
 10
0
 20
0
 30
0
  3
AIGNBL020200ED
  0
POLYLINE
  8
LAYER_2
  6
AIGENLINE001
 40
0.1764
 41
0.1764
 66
1
 10
0
 20
0
 30
0
 70
128
  0
VERTEX
  8
LAYER_2
 10
226.4595
 20
-157.2636
 42
-0.07201192594
  0
VERTEX
  8
LAYER_2
 10
226.1768
 20
-157.8433
  0
SEQEND
  0
ENDBLK
  0
BLOCK
  8
LAYER_2
  2
AIGNBL020200EE
 70
64
 10
0
 20
0
 30
0
  3
AIGNBL020200EE
  0
POLYLINE
  8
LAYER_2
  6
AIGENLINE001
 40
0.1764
 41
0.1764
 66
1
 10
0
 20
0
 30
0
 70
128
  0
VERTEX
  8
LAYER_2
 10
230.5615
 20
-159.0173
 42
-0.3655520013
  0
VERTEX
  8
LAYER_2
 10
230.5791
 20
-159.0816
  0
SEQEND
  0
ENDBLK
  0
BLOCK
  8
LAYER_2
  2
AIGNBL020200EF
 70
64
 10
0
 20
0
 30
0
  3
AIGNBL020200EF
  0
POLYLINE
  8
LAYER_2
  6
AIGENLINE001
 40
0.1764
 41
0.1764
 66
1
 10
0
 20
0
 30
0
 70
128
  0
VERTEX
  8
LAYER_2
 10
226.5349
 20
-157.1091
 42
-0.3269008572
  0
VERTEX
  8
LAYER_2
 10
226.5891
 20
-157.0815
  0
SEQEND
  0
ENDBLK
  0
BLOCK
  8
LAYER_2
  2
AIGNBL020200F0
 70
64
 10
0
 20
0
 30
0
  3
AIGNBL020200F0
  0
POLYLINE
  8
LAYER_2
  6
AIGENLINE001
 40
0.1764
 41
0.1764
 66
1
 10
0
 20
0
 30
0
 70
128
  0
VERTEX
  8
LAYER_2
 10
225.5025
 20
-159.2713
 42
-0.3918501711
  0
VERTEX
  8
LAYER_2
 10
225.4933
 20
-159.2446
  0
SEQEND
  0
ENDBLK
  0
BLOCK
  8
LAYER_2
  2
AIGNBL020200F1
 70
64
 10
0
 20
0
 30
0
  3
AIGNBL020200F1
  0
POLYLINE
  8
LAYER_2
  6
AIGENLINE001
 40
0.1764
 41
0.1764
 66
1
 10
0
 20
0
 30
0
 70
128
  0
VERTEX
  8
LAYER_2
 10
229.5376
 20
-161.2171
 42
-0.3958804861
  0
VERTEX
  8
LAYER_2
 10
229.5109
 20
-161.2263
  0
SEQEND
  0
ENDBLK
  0
BLOCK
  8
LAYER_2
  2
AIGNBL020200F2
 70
64
 10
0
 20
0
 30
0
  3
AIGNBL020200F2
  0
POLYLINE
  8
LAYER_2
  6
AIGENLINE001
 40
0.1764
 41
0.1764
 66
1
 10
0
 20
0
 30
0
 70
128
  0
VERTEX
  8
LAYER_2
 10
226.4595
 20
-157.2636
  0
VERTEX
  8
LAYER_2
 10
226.5352
 20
-157.1083
  0
SEQEND
  0
ENDBLK
  0
BLOCK
  8
LAYER_2
  2
AIGNBL020200F3
 70
64
 10
0
 20
0
 30
0
  3
AIGNBL020200F3
  0
POLYLINE
  8
LAYER_2
  6
AIGENLINE001
 40
0.1764
 41
0.1764
 66
1
 10
0
 20
0
 30
0
 70
128
  0
VERTEX
  8
LAYER_2
 10
225.4933
 20
-159.2446
  0
VERTEX
  8
LAYER_2
 10
226.1786
 20
-157.8396
  0
SEQEND
  0
ENDBLK
  0
BLOCK
  8
LAYER_2
  2
AIGNBL020200F4
 70
64
 10
0
 20
0
 30
0
  3
AIGNBL020200F4
  0
POLYLINE
  8
LAYER_2
  6
AIGENLINE001
 40
0.1764
 41
0.1764
 66
1
 10
0
 20
0
 30
0
 70
128
  0
VERTEX
  8
LAYER_2
 10
230.1126
 20
-160.0382
  0
VERTEX
  8
LAYER_2
 10
229.5376
 20
-161.2171
  0
SEQEND
  0
ENDBLK
  0
BLOCK
  8
LAYER_2
  2
AIGNBL020200F5
 70
64
 10
0
 20
0
 30
0
  3
AIGNBL020200F5
  0
POLYLINE
  8
LAYER_2
  6
AIGENLINE001
 40
0.1764
 41
0.1764
 66
1
 10
0
 20
0
 30
0
 70
128
  0
VERTEX
  8
LAYER_2
 10
230.5795
 20
-159.0809
  0
VERTEX
  8
LAYER_2
 10
230.4218
 20
-159.4042
  0
SEQEND
  0
ENDBLK
  0
BLOCK
  8
LAYER_2
  2
AIGNBL020200F6
 70
64
 10
0
 20
0
 30
0
  3
AIGNBL020200F6
  0
POLYLINE
  8
LAYER_2
  6
AIGENLINE001
 40
0.1764
 41
0.1764
 66
1
 10
0
 20
0
 30
0
 70
128
  0
VERTEX
  8
LAYER_2
 10
226.5891
 20
-157.0815
 42
-0.03703130746
  0
VERTEX
  8
LAYER_2
 10
230.5581
 20
-159.0166
  0
SEQEND
  0
ENDBLK
  0
BLOCK
  8
LAYER_2
  2
AIGNBL020200F7
 70
64
 10
0
 20
0
 30
0
  3
AIGNBL020200F7
  0
POLYLINE
  8
LAYER_2
  6
AIGENLINE002
 40
0.1764
 41
0.1764
 66
1
 10
0
 20
0
 30
0
 70
128
  0
VERTEX
  8
LAYER_2
 10
226.8874
 20
-181.2225
  0
VERTEX
  8
LAYER_2
 10
226.8874
 20
-173.4415
  0
SEQEND
  0
ENDBLK
  0
BLOCK
  8
LAYER_2
  2
AIGNBL020200F8
 70
64
 10
0
 20
0
 30
0
  3
AIGNBL020200F8
  0
POLYLINE
  8
LAYER_2
 40
0.1764
 41
0.1764
 66
1
 10
0
 20
0
 30
0
  0
VERTEX
  8
LAYER_2
 10
218.3142
 20
-161.4037
  0
VERTEX
  8
LAYER_2
 10
224.5375
 20
-161.4037
  0
SEQEND
  0
ENDBLK
  0
BLOCK
  8
LAYER_2
  2
AIGNBL020200F9
 70
64
 10
0
 20
0
 30
0
  3
AIGNBL020200F9
  0
POLYLINE
  8
LAYER_2
 40
0.1764
 41
0.1764
 66
1
 10
0
 20
0
 30
0
  0
VERTEX
  8
LAYER_2
 10
214.5689
 20
-163.566
 42
-0.131653829
  0
VERTEX
  8
LAYER_2
 10
216.1519
 20
-161.9831
 42
-0.06554353336
  0
VERTEX
  8
LAYER_2
 10
217.1949
 20
-161.551
 42
-0.03272659192
  0
VERTEX
  8
LAYER_2
 10
217.7497
 20
-161.4407
  0
VERTEX
  8
LAYER_2
 10
218.0314
 20
-161.4129
  0
VERTEX
  8
LAYER_2
 10
218.3142
 20
-161.4037
  0
SEQEND
  0
ENDBLK
  0
BLOCK
  8
LAYER_2
  2
AIGNBL020200FA
 70
64
 10
0
 20
0
 30
0
  3
AIGNBL020200FA
  0
POLYLINE
  8
LAYER_2
 40
0.1764
 41
0.1764
 66
1
 10
0
 20
0
 30
0
  0
VERTEX
  8
LAYER_2
 10
218.3142
 20
-163.8535
  0
VERTEX
  8
LAYER_2
 10
218.1916
 20
-163.8575
  0
VERTEX
  8
LAYER_2
 10
218.0695
 20
-163.8695
  0
VERTEX
  8
LAYER_2
 10
217.829
 20
-163.9174
 42
0.06543251101
  0
VERTEX
  8
LAYER_2
 10
217.3768
 20
-164.1047
 42
0.1316540487
  0
VERTEX
  8
LAYER_2
 10
216.6905
 20
-164.7909
  0
SEQEND
  0
ENDBLK
  0
BLOCK
  8
LAYER_2
  2
AIGNBL020200FB
 70
64
 10
0
 20
0
 30
0
  3
AIGNBL020200FB
  0
POLYLINE
  8
LAYER_2
 40
0.1764
 41
0.1764
 66
1
 10
0
 20
0
 30
0
  0
VERTEX
  8
LAYER_2
 10
216.6905
 20
-164.7909
  0
VERTEX
  8
LAYER_2
 10
216.3255
 20
-165.4231
  0
SEQEND
  0
ENDBLK
  0
BLOCK
  8
LAYER_2
  2
AIGNBL020200FC
 70
64
 10
0
 20
0
 30
0
  3
AIGNBL020200FC
  0
POLYLINE
  8
LAYER_2
 40
0.1764
 41
0.1764
 66
1
 10
0
 20
0
 30
0
  0
VERTEX
  8
LAYER_2
 10
214.2039
 20
-164.1982
  0
VERTEX
  8
LAYER_2
 10
214.5689
 20
-163.566
  0
SEQEND
  0
ENDBLK
  0
BLOCK
  8
LAYER_2
  2
AIGNBL020200FD
 70
64
 10
0
 20
0
 30
0
  3
AIGNBL020200FD
  0
POLYLINE
  8
LAYER_2
 40
0.1764
 41
0.1764
 66
1
 10
0
 20
0
 30
0
  0
VERTEX
  8
LAYER_2
 10
214.2113
 20
-164.2255
  0
VERTEX
  8
LAYER_2
 10
216.2982
 20
-165.4304
  0
SEQEND
  0
ENDBLK
  0
BLOCK
  8
LAYER_2
  2
AIGNBL020200FE
 70
64
 10
0
 20
0
 30
0
  3
AIGNBL020200FE
  0
POLYLINE
  8
LAYER_2
 40
0.1764
 41
0.1764
 66
1
 10
0
 20
0
 30
0
  0
VERTEX
  8
LAYER_2
 10
214.2039
 20
-164.1982
  0
VERTEX
  8
LAYER_2
 10
214.202
 20
-164.2133
  0
VERTEX
  8
LAYER_2
 10
214.2113
 20
-164.2255
  0
SEQEND
  0
ENDBLK
  0
BLOCK
  8
LAYER_2
  2
AIGNBL020200FF
 70
64
 10
0
 20
0
 30
0
  3
AIGNBL020200FF
  0
POLYLINE
  8
LAYER_2
 40
0.1764
 41
0.1764
 66
1
 10
0
 20
0
 30
0
  0
VERTEX
  8
LAYER_2
 10
216.2982
 20
-165.4304
  0
VERTEX
  8
LAYER_2
 10
216.3134
 20
-165.4324
  0
VERTEX
  8
LAYER_2
 10
216.3255
 20
-165.4231
  0
SEQEND
  0
ENDBLK
  0
BLOCK
  8
LAYER_2
  2
AIGNBL02020100
 70
64
 10
0
 20
0
 30
0
  3
AIGNBL02020100
  0
POLYLINE
  8
LAYER_2
 40
0.1764
 41
0.1764
 66
1
 10
0
 20
0
 30
0
  0
VERTEX
  8
LAYER_2
 10
224.5375
 20
-163.8535
  0
VERTEX
  8
LAYER_2
 10
218.3142
 20
-163.8535
  0
SEQEND
  0
ENDBLK
  0
BLOCK
  8
LAYER_2
  2
AIGNBL02020101
 70
64
 10
0
 20
0
 30
0
  3
AIGNBL02020101
  0
POLYLINE
  8
LAYER_2
 40
0.1764
 41
0.1764
 66
1
 10
0
 20
0
 30
0
  0
VERTEX
  8
LAYER_2
 10
224.7537
 20
-164.0324
  0
VERTEX
  8
LAYER_2
 10
224.7375
 20
-164.0535
  0
SEQEND
  0
ENDBLK
  0
BLOCK
  8
LAYER_2
  2
AIGNBL02020102
 70
64
 10
0
 20
0
 30
0
  3
AIGNBL02020102
  0
POLYLINE
  8
LAYER_2
 40
0.1764
 41
0.1764
 66
1
 10
0
 20
0
 30
0
  0
VERTEX
  8
LAYER_2
 10
224.7432
 20
-161.211
 42
-0.3374175128
  0
VERTEX
  8
LAYER_2
 10
224.7537
 20
-164.0324
  0
SEQEND
  0
ENDBLK
  0
BLOCK
  8
LAYER_2
  2
AIGNBL02020103
 70
64
 10
0
 20
0
 30
0
  3
AIGNBL02020103
  0
POLYLINE
  8
LAYER_2
 40
0.1764
 41
0.1764
 66
1
 10
0
 20
0
 30
0
  0
VERTEX
  8
LAYER_2
 10
224.7375
 20
-161.2037
  0
VERTEX
  8
LAYER_2
 10
224.7432
 20
-161.211
  0
SEQEND
  0
ENDBLK
  0
BLOCK
  8
LAYER_2
  2
AIGNBL02020104
 70
64
 10
0
 20
0
 30
0
  3
AIGNBL02020104
  0
POLYLINE
  8
LAYER_2
 40
0.1764
 41
0.1764
 66
1
 10
0
 20
0
 30
0
  0
VERTEX
  8
LAYER_2
 10
224.5375
 20
-163.8535
  0
VERTEX
  8
LAYER_2
 10
224.5747
 20
-163.857
  0
SEQEND
  0
ENDBLK
  0
BLOCK
  8
LAYER_2
  2
AIGNBL02020105
 70
64
 10
0
 20
0
 30
0
  3
AIGNBL02020105
  0
POLYLINE
  8
LAYER_2
 40
0.1764
 41
0.1764
 66
1
 10
0
 20
0
 30
0
  0
VERTEX
  8
LAYER_2
 10
224.7341
 20
-161.2404
 42
-0.3611719501
  0
VERTEX
  8
LAYER_2
 10
224.5375
 20
-161.4037
  0
SEQEND
  0
ENDBLK
  0
BLOCK
  8
LAYER_2
  2
AIGNBL02020106
 70
64
 10
0
 20
0
 30
0
  3
AIGNBL02020106
  0
POLYLINE
  8
LAYER_2
 40
0.1764
 41
0.1764
 66
1
 10
0
 20
0
 30
0
  0
VERTEX
  8
LAYER_2
 10
224.574
 20
-163.8568
 42
-0.3128359589
  0
VERTEX
  8
LAYER_2
 10
224.7512
 20
-164.0311
  0
SEQEND
  0
ENDBLK
  0
BLOCK
  8
LAYER_2
  2
AIGNBL02020107
 70
64
 10
0
 20
0
 30
0
  3
AIGNBL02020107
  0
POLYLINE
  8
LAYER_2
 40
0.1764
 41
0.1764
 66
1
 10
0
 20
0
 30
0
  0
VERTEX
  8
LAYER_2
 10
224.734
 20
-161.2411
  0
VERTEX
  8
LAYER_2
 10
224.7424
 20
-161.2116
  0
SEQEND
  0
ENDBLK
  0
BLOCK
  8
LAYER_2
  2
AIGNBL02020109
 70
64
 10
0
 20
0
 30
0
  3
AIGNBL02020109
  0
POLYLINE
  8
LAYER_2
 40
0.1764
 41
0.1764
 66
1
 10
0
 20
0
 30
0
  0
VERTEX
  8
LAYER_2
 10
134.3001
 20
-96.3251
 42
-0.4142108003
  0
VERTEX
  8
LAYER_2
 10
133.4615
 20
-93.0369
 42
-0.264710451
  0
VERTEX
  8
LAYER_2
 10
135.5249
 20
-91.8622
  0
SEQEND
  0
ENDBLK
  0
BLOCK
  8
LAYER_2
  2
AIGNBL0202010A
 70
64
 10
0
 20
0
 30
0
  3
AIGNBL0202010A
  0
POLYLINE
  8
LAYER_2
 40
0.1764
 41
0.1764
 66
1
 10
0
 20
0
 30
0
  0
VERTEX
  8
LAYER_2
 10
135.5249
 20
-91.8622
 42
-0.4142146351
  0
VERTEX
  8
LAYER_2
 10
137.9245
 20
-94.2617
 42
-0.2647053061
  0
VERTEX
  8
LAYER_2
 10
136.7498
 20
-96.3251
  0
SEQEND
  0
ENDBLK
  0
BLOCK
  8
LAYER_2
  2
AIGNBL0202010B
 70
64
 10
0
 20
0
 30
0
  3
AIGNBL0202010B
  0
POLYLINE
  8
LAYER_2
 40
0.1764
 41
0.1764
 66
1
 10
0
 20
0
 30
0
  0
VERTEX
  8
LAYER_2
 10
137.7622
 20
-94.4995
 42
-0.1989060231
  0
VERTEX
  8
LAYER_2
 10
136.9388
 20
-96.0118
 42
-0.1989118327
  0
VERTEX
  8
LAYER_2
 10
135.2872
 20
-96.4989
 42
-0.09849361626
  0
VERTEX
  8
LAYER_2
 10
134.4491
 20
-96.2377
 42
-0.04919018919
  0
VERTEX
  8
LAYER_2
 10
134.0843
 20
-95.9898
  0
VERTEX
  8
LAYER_2
 10
133.9219
 20
-95.8403
  0
VERTEX
  8
LAYER_2
 10
133.7749
 20
-95.6756
 42
-0.1715553073
  0
VERTEX
  8
LAYER_2
 10
133.2751
 20
-94.2616
  0
SEQEND
  0
ENDBLK
  0
BLOCK
  8
LAYER_2
  2
AIGNBL0202010C
 70
64
 10
0
 20
0
 30
0
  3
AIGNBL0202010C
  0
POLYLINE
  8
LAYER_2
 40
0.1764
 41
0.1764
 66
1
 10
0
 20
0
 30
0
  0
VERTEX
  8
LAYER_2
 10
133.2751
 20
-94.2616
  0
VERTEX
  8
LAYER_2
 10
133.2877
 20
-94.024
  0
SEQEND
  0
ENDBLK
  0
BLOCK
  8
LAYER_2
  2
AIGNBL0202010D
 70
64
 10
0
 20
0
 30
0
  3
AIGNBL0202010D
  0
POLYLINE
  8
LAYER_2
 40
0.1764
 41
0.1764
 66
1
 10
0
 20
0
 30
0
  0
VERTEX
  8
LAYER_2
 10
133.2877
 20
-94.024
 42
-0.4142098719
  0
VERTEX
  8
LAYER_2
 10
135.7626
 20
-92.0245
 42
-0.3835406229
  0
VERTEX
  8
LAYER_2
 10
137.7747
 20
-94.2617
  0
SEQEND
  0
ENDBLK
  0
BLOCK
  8
LAYER_2
  2
AIGNBL0202010E
 70
64
 10
0
 20
0
 30
0
  3
AIGNBL0202010E
  0
POLYLINE
  8
LAYER_2
 40
0.1764
 41
0.1764
 66
1
 10
0
 20
0
 30
0
  0
VERTEX
  8
LAYER_2
 10
137.7747
 20
-94.2617
  0
VERTEX
  8
LAYER_2
 10
137.7622
 20
-94.4995
  0
SEQEND
  0
ENDBLK
  0
BLOCK
  8
LAYER_2
  2
AIGNBL0202010F
 70
64
 10
0
 20
0
 30
0
  3
AIGNBL0202010F
  0
POLYLINE
  8
LAYER_2
 40
0.1764
 41
0.1764
 66
1
 10
0
 20
0
 30
0
  0
VERTEX
  8
LAYER_2
 10
135.8424
 20
-101.4639
  0
VERTEX
  8
LAYER_2
 10
135.8426
 20
-101.5087
  0
VERTEX
  8
LAYER_2
 10
135.8436
 20
-101.5563
  0
VERTEX
  8
LAYER_2
 10
135.8459
 20
-101.6067
  0
VERTEX
  8
LAYER_2
 10
135.8499
 20
-101.6598
  0
VERTEX
  8
LAYER_2
 10
135.8554
 20
-101.7153
  0
VERTEX
  8
LAYER_2
 10
135.8623
 20
-101.7732
  0
VERTEX
  8
LAYER_2
 10
135.8785
 20
-101.8943
  0
VERTEX
  8
LAYER_2
 10
135.8947
 20
-102.0198
  0
VERTEX
  8
LAYER_2
 10
135.9071
 20
-102.1448
  0
VERTEX
  8
LAYER_2
 10
135.911
 20
-102.2053
  0
VERTEX
  8
LAYER_2
 10
135.9134
 20
-102.2633
  0
VERTEX
  8
LAYER_2
 10
135.9144
 20
-102.3178
  0
VERTEX
  8
LAYER_2
 10
135.9146
 20
-102.3677
  0
SEQEND
  0
ENDBLK
  0
BLOCK
  8
LAYER_2
  2
AIGNBL02020110
 70
64
 10
0
 20
0
 30
0
  3
AIGNBL02020110
  0
POLYLINE
  8
LAYER_2
 40
0.1764
 41
0.1764
 66
1
 10
0
 20
0
 30
0
  0
VERTEX
  8
LAYER_2
 10
135.1353
 20
-102.3677
  0
VERTEX
  8
LAYER_2
 10
135.1354
 20
-102.3178
  0
VERTEX
  8
LAYER_2
 10
135.1364
 20
-102.2633
  0
VERTEX
  8
LAYER_2
 10
135.1388
 20
-102.2053
  0
VERTEX
  8
LAYER_2
 10
135.1428
 20
-102.1448
  0
VERTEX
  8
LAYER_2
 10
135.1551
 20
-102.0198
  0
VERTEX
  8
LAYER_2
 10
135.1714
 20
-101.8943
  0
VERTEX
  8
LAYER_2
 10
135.1876
 20
-101.7732
  0
VERTEX
  8
LAYER_2
 10
135.1945
 20
-101.7153
  0
VERTEX
  8
LAYER_2
 10
135.2
 20
-101.6598
  0
VERTEX
  8
LAYER_2
 10
135.2039
 20
-101.6067
  0
VERTEX
  8
LAYER_2
 10
135.2063
 20
-101.5563
  0
VERTEX
  8
LAYER_2
 10
135.2073
 20
-101.5087
  0
VERTEX
  8
LAYER_2
 10
135.2074
 20
-101.4639
  0
SEQEND
  0
ENDBLK
  0
BLOCK
  8
LAYER_2
  2
AIGNBL02020111
 70
64
 10
0
 20
0
 30
0
  3
AIGNBL02020111
  0
POLYLINE
  8
LAYER_2
 40
0.1764
 41
0.1764
 66
1
 10
0
 20
0
 30
0
  0
VERTEX
  8
LAYER_2
 10
135.5493
 20
-103.311
  0
VERTEX
  8
LAYER_2
 10
135.8946
 20
-103.311
  0
SEQEND
  0
ENDBLK
  0
BLOCK
  8
LAYER_2
  2
AIGNBL02020112
 70
64
 10
0
 20
0
 30
0
  3
AIGNBL02020112
  0
POLYLINE
  8
LAYER_2
 40
0.1764
 41
0.1764
 66
1
 10
0
 20
0
 30
0
  0
VERTEX
  8
LAYER_2
 10
135.8946
 20
-103.311
  0
VERTEX
  8
LAYER_2
 10
135.5249
 20
-103.311
  0
SEQEND
  0
ENDBLK
  0
BLOCK
  8
LAYER_2
  2
AIGNBL02020113
 70
64
 10
0
 20
0
 30
0
  3
AIGNBL02020113
  0
POLYLINE
  8
LAYER_2
 40
0.1764
 41
0.1764
 66
1
 10
0
 20
0
 30
0
  0
VERTEX
  8
LAYER_2
 10
135.5249
 20
-103.311
  0
VERTEX
  8
LAYER_2
 10
135.1553
 20
-103.311
  0
SEQEND
  0
ENDBLK
  0
BLOCK
  8
LAYER_2
  2
AIGNBL02020114
 70
64
 10
0
 20
0
 30
0
  3
AIGNBL02020114
  0
POLYLINE
  8
LAYER_2
 40
0.1764
 41
0.1764
 66
1
 10
0
 20
0
 30
0
  0
VERTEX
  8
LAYER_2
 10
135.5249
 20
-103.311
  0
VERTEX
  8
LAYER_2
 10
135.5493
 20
-103.311
  0
SEQEND
  0
ENDBLK
  0
BLOCK
  8
LAYER_2
  2
AIGNBL02020115
 70
64
 10
0
 20
0
 30
0
  3
AIGNBL02020115
  0
POLYLINE
  8
LAYER_2
 40
0.1764
 41
0.1764
 66
1
 10
0
 20
0
 30
0
  0
VERTEX
  8
LAYER_2
 10
135.8946
 20
-103.311
 42
0.3930525236
  0
VERTEX
  8
LAYER_2
 10
135.9146
 20
-103.291
  0
SEQEND
  0
ENDBLK
  0
BLOCK
  8
LAYER_2
  2
AIGNBL02020116
 70
64
 10
0
 20
0
 30
0
  3
AIGNBL02020116
  0
POLYLINE
  8
LAYER_2
 40
0.1764
 41
0.1764
 66
1
 10
0
 20
0
 30
0
  0
VERTEX
  8
LAYER_2
 10
135.9145
 20
-102.3674
  0
VERTEX
  8
LAYER_2
 10
135.9146
 20
-103.2923
  0
SEQEND
  0
ENDBLK
  0
BLOCK
  8
LAYER_2
  2
AIGNBL02020117
 70
64
 10
0
 20
0
 30
0
  3
AIGNBL02020117
  0
POLYLINE
  8
LAYER_2
 40
0.1764
 41
0.1764
 66
1
 10
0
 20
0
 30
0
  0
VERTEX
  8
LAYER_2
 10
135.1353
 20
-103.2923
  0
VERTEX
  8
LAYER_2
 10
135.1353
 20
-102.3674
  0
SEQEND
  0
ENDBLK
  0
BLOCK
  8
LAYER_2
  2
AIGNBL02020118
 70
64
 10
0
 20
0
 30
0
  3
AIGNBL02020118
  0
POLYLINE
  8
LAYER_2
 40
0.1764
 41
0.1764
 66
1
 10
0
 20
0
 30
0
  0
VERTEX
  8
LAYER_2
 10
135.8424
 20
-96.4887
  0
VERTEX
  8
LAYER_2
 10
135.8424
 20
-101.4642
  0
SEQEND
  0
ENDBLK
  0
BLOCK
  8
LAYER_2
  2
AIGNBL02020119
 70
64
 10
0
 20
0
 30
0
  3
AIGNBL02020119
  0
POLYLINE
  8
LAYER_2
 40
0.1764
 41
0.1764
 66
1
 10
0
 20
0
 30
0
  0
VERTEX
  8
LAYER_2
 10
135.2074
 20
-101.4642
  0
VERTEX
  8
LAYER_2
 10
135.2074
 20
-96.4879
  0
SEQEND
  0
ENDBLK
  0
BLOCK
  8
LAYER_2
  2
AIGNBL0202011A
 70
64
 10
0
 20
0
 30
0
  3
AIGNBL0202011A
  0
POLYLINE
  8
LAYER_2
 40
0.1764
 41
0.1764
 66
1
 10
0
 20
0
 30
0
  0
VERTEX
  8
LAYER_2
 10
135.1536
 20
-103.3107
  0
VERTEX
  8
LAYER_2
 10
135.1353
 20
-103.291
  0
SEQEND
  0
ENDBLK
  0
BLOCK
  8
LAYER_2
  2
AIGNBL0202011B
 70
64
 10
0
 20
0
 30
0
  3
AIGNBL0202011B
  0
POLYLINE
  8
LAYER_2
 40
0.1764
 41
0.1764
 66
1
 10
0
 20
0
 30
0
 70
1
  0
VERTEX
  8
LAYER_2
 10
134.7643
 20
-95.7983
 42
0.4144353444
  0
VERTEX
  8
LAYER_2
 10
134.6643
 20
-95.8983
 42
0.4142760389
  0
VERTEX
  8
LAYER_2
 10
134.7643
 20
-95.9983
 42
0.4139918901
  0
VERTEX
  8
LAYER_2
 10
134.8642
 20
-95.8983
 42
0.4141510138
  0
SEQEND
  0
ENDBLK
  0
BLOCK
  8
LAYER_2
  2
AIGNBL0202011C
 70
64
 10
0
 20
0
 30
0
  3
AIGNBL0202011C
  0
POLYLINE
  8
LAYER_2
 40
0.1764
 41
0.1764
 66
1
 10
0
 20
0
 30
0
 70
1
  0
VERTEX
  8
LAYER_2
 10
136.2856
 20
-95.7983
 42
0.4144057863
  0
VERTEX
  8
LAYER_2
 10
136.1856
 20
-95.8983
 42
0.414246517
  0
VERTEX
  8
LAYER_2
 10
136.2856
 20
-95.9983
 42
0.4140214871
  0
VERTEX
  8
LAYER_2
 10
136.3856
 20
-95.8983
 42
0.4141804862
  0
SEQEND
  0
ENDBLK
  0
BLOCK
  8
LAYER_2
  2
AIGNBL0202011D
 70
64
 10
0
 20
0
 30
0
  3
AIGNBL0202011D
  0
POLYLINE
  8
LAYER_2
  6
AIGENLINE001
 40
0.1764
 41
0.1764
 66
1
 10
0
 20
0
 30
0
 70
128
  0
VERTEX
  8
LAYER_2
 10
130.2118
 20
-99.1344
  0
VERTEX
  8
LAYER_2
 10
130.1776
 20
-99.1633
  0
VERTEX
  8
LAYER_2
 10
130.1418
 20
-99.1947
  0
VERTEX
  8
LAYER_2
 10
130.1047
 20
-99.2289
  0
VERTEX
  8
LAYER_2
 10
130.0666
 20
-99.266
  0
VERTEX
  8
LAYER_2
 10
130.0275
 20
-99.306
  0
VERTEX
  8
LAYER_2
 10
129.9877
 20
-99.3484
  0
VERTEX
  8
LAYER_2
 10
129.9469
 20
-99.3928
  0
VERTEX
  8
LAYER_2
 10
129.9053
 20
-99.4387
  0
VERTEX
  8
LAYER_2
 10
129.8196
 20
-99.5318
  0
VERTEX
  8
LAYER_2
 10
129.7758
 20
-99.5775
  0
VERTEX
  8
LAYER_2
 10
129.7318
 20
-99.6216
  0
VERTEX
  8
LAYER_2
 10
129.6879
 20
-99.6636
  0
VERTEX
  8
LAYER_2
 10
129.645
 20
-99.7027
  0
VERTEX
  8
LAYER_2
 10
129.6039
 20
-99.7384
  0
VERTEX
  8
LAYER_2
 10
129.5844
 20
-99.755
  0
VERTEX
  8
LAYER_2
 10
129.5659
 20
-99.7706
  0
SEQEND
  0
ENDBLK
  0
BLOCK
  8
LAYER_2
  2
AIGNBL0202011E
 70
64
 10
0
 20
0
 30
0
  3
AIGNBL0202011E
  0
POLYLINE
  8
LAYER_2
  6
AIGENLINE001
 40
0.1764
 41
0.1764
 66
1
 10
0
 20
0
 30
0
 70
128
  0
VERTEX
  8
LAYER_2
 10
129.065
 20
-99.1736
  0
VERTEX
  8
LAYER_2
 10
129.1032
 20
-99.1417
  0
VERTEX
  8
LAYER_2
 10
129.1456
 20
-99.1075
  0
VERTEX
  8
LAYER_2
 10
129.1916
 20
-99.072
  0
VERTEX
  8
LAYER_2
 10
129.2405
 20
-99.0361
  0
VERTEX
  8
LAYER_2
 10
129.2916
 20
-99.0004
  0
VERTEX
  8
LAYER_2
 10
129.3442
 20
-98.9652
  0
VERTEX
  8
LAYER_2
 10
129.4508
 20
-98.897
  0
VERTEX
  8
LAYER_2
 10
129.5031
 20
-98.864
  0
VERTEX
  8
LAYER_2
 10
129.554
 20
-98.8316
  0
VERTEX
  8
LAYER_2
 10
129.6027
 20
-98.7996
  0
VERTEX
  8
LAYER_2
 10
129.6488
 20
-98.7682
  0
VERTEX
  8
LAYER_2
 10
129.692
 20
-98.7371
  0
VERTEX
  8
LAYER_2
 10
129.7321
 20
-98.7065
  0
VERTEX
  8
LAYER_2
 10
129.7692
 20
-98.6767
  0
VERTEX
  8
LAYER_2
 10
129.8036
 20
-98.648
  0
SEQEND
  0
ENDBLK
  0
BLOCK
  8
LAYER_2
  2
AIGNBL0202011F
 70
64
 10
0
 20
0
 30
0
  3
AIGNBL0202011F
  0
POLYLINE
  8
LAYER_2
  6
AIGENLINE001
 40
0.1764
 41
0.1764
 66
1
 10
0
 20
0
 30
0
 70
128
  0
VERTEX
  8
LAYER_2
 10
128.6084
 20
-100.0972
  0
VERTEX
  8
LAYER_2
 10
128.8303
 20
-100.3617
  0
SEQEND
  0
ENDBLK
  0
BLOCK
  8
LAYER_2
  2
AIGNBL02020120
 70
64
 10
0
 20
0
 30
0
  3
AIGNBL02020120
  0
POLYLINE
  8
LAYER_2
  6
AIGENLINE001
 40
0.1764
 41
0.1764
 66
1
 10
0
 20
0
 30
0
 70
128
  0
VERTEX
  8
LAYER_2
 10
128.8303
 20
-100.3617
  0
VERTEX
  8
LAYER_2
 10
128.5927
 20
-100.0785
  0
SEQEND
  0
ENDBLK
  0
BLOCK
  8
LAYER_2
  2
AIGNBL02020121
 70
64
 10
0
 20
0
 30
0
  3
AIGNBL02020121
  0
POLYLINE
  8
LAYER_2
  6
AIGENLINE001
 40
0.1764
 41
0.1764
 66
1
 10
0
 20
0
 30
0
 70
128
  0
VERTEX
  8
LAYER_2
 10
128.5927
 20
-100.0785
  0
VERTEX
  8
LAYER_2
 10
128.3552
 20
-99.7954
  0
SEQEND
  0
ENDBLK
  0
BLOCK
  8
LAYER_2
  2
AIGNBL02020122
 70
64
 10
0
 20
0
 30
0
  3
AIGNBL02020122
  0
POLYLINE
  8
LAYER_2
  6
AIGENLINE001
 40
0.1764
 41
0.1764
 66
1
 10
0
 20
0
 30
0
 70
128
  0
VERTEX
  8
LAYER_2
 10
128.5927
 20
-100.0785
  0
VERTEX
  8
LAYER_2
 10
128.6084
 20
-100.0972
  0
SEQEND
  0
ENDBLK
  0
BLOCK
  8
LAYER_2
  2
AIGNBL02020123
 70
64
 10
0
 20
0
 30
0
  3
AIGNBL02020123
  0
POLYLINE
  8
LAYER_2
  6
AIGENLINE001
 40
0.1764
 41
0.1764
 66
1
 10
0
 20
0
 30
0
 70
128
  0
VERTEX
  8
LAYER_2
 10
128.8303
 20
-100.3617
 42
0.3933238878
  0
VERTEX
  8
LAYER_2
 10
128.8585
 20
-100.3641
  0
SEQEND
  0
ENDBLK
  0
BLOCK
  8
LAYER_2
  2
AIGNBL02020124
 70
64
 10
0
 20
0
 30
0
  3
AIGNBL02020124
  0
POLYLINE
  8
LAYER_2
  6
AIGENLINE001
 40
0.1764
 41
0.1764
 66
1
 10
0
 20
0
 30
0
 70
128
  0
VERTEX
  8
LAYER_2
 10
129.566
 20
-99.7704
  0
VERTEX
  8
LAYER_2
 10
128.8575
 20
-100.365
  0
SEQEND
  0
ENDBLK
  0
BLOCK
  8
LAYER_2
  2
AIGNBL02020125
 70
64
 10
0
 20
0
 30
0
  3
AIGNBL02020125
  0
POLYLINE
  8
LAYER_2
  6
AIGENLINE001
 40
0.1764
 41
0.1764
 66
1
 10
0
 20
0
 30
0
 70
128
  0
VERTEX
  8
LAYER_2
 10
128.3566
 20
-99.768
  0
VERTEX
  8
LAYER_2
 10
129.0651
 20
-99.1735
  0
SEQEND
  0
ENDBLK
  0
BLOCK
  8
LAYER_2
  2
AIGNBL02020126
 70
64
 10
0
 20
0
 30
0
  3
AIGNBL02020126
  0
POLYLINE
  8
LAYER_2
  6
AIGENLINE001
 40
0.1764
 41
0.1764
 66
1
 10
0
 20
0
 30
0
 70
128
  0
VERTEX
  8
LAYER_2
 10
134.023
 20
-95.9364
  0
VERTEX
  8
LAYER_2
 10
130.2116
 20
-99.1346
  0
SEQEND
  0
ENDBLK
  0
BLOCK
  8
LAYER_2
  2
AIGNBL02020127
 70
64
 10
0
 20
0
 30
0
  3
AIGNBL02020127
  0
POLYLINE
  8
LAYER_2
  6
AIGENLINE001
 40
0.1764
 41
0.1764
 66
1
 10
0
 20
0
 30
0
 70
128
  0
VERTEX
  8
LAYER_2
 10
129.8034
 20
-98.6482
  0
VERTEX
  8
LAYER_2
 10
133.6155
 20
-95.4495
  0
SEQEND
  0
ENDBLK
  0
BLOCK
  8
LAYER_2
  2
AIGNBL02020128
 70
64
 10
0
 20
0
 30
0
  3
AIGNBL02020128
  0
POLYLINE
  8
LAYER_2
  6
AIGENLINE001
 40
0.1764
 41
0.1764
 66
1
 10
0
 20
0
 30
0
 70
128
  0
VERTEX
  8
LAYER_2
 10
128.3543
 20
-99.7939
  0
VERTEX
  8
LAYER_2
 10
128.3576
 20
-99.7672
  0
SEQEND
  0
ENDBLK
  0
BLOCK
  8
LAYER_2
  2
AIGNBL02020129
 70
64
 10
0
 20
0
 30
0
  3
AIGNBL02020129
  0
POLYLINE
  8
LAYER_2
  6
AIGENLINE001
 40
0.1764
 41
0.1764
 66
1
 10
0
 20
0
 30
0
 70
128
  0
VERTEX
  8
LAYER_2
 10
141.2462
 20
-98.648
  0
VERTEX
  8
LAYER_2
 10
141.2806
 20
-98.6767
  0
VERTEX
  8
LAYER_2
 10
141.3177
 20
-98.7065
  0
VERTEX
  8
LAYER_2
 10
141.3578
 20
-98.7371
  0
VERTEX
  8
LAYER_2
 10
141.401
 20
-98.7682
  0
VERTEX
  8
LAYER_2
 10
141.4471
 20
-98.7996
  0
VERTEX
  8
LAYER_2
 10
141.4959
 20
-98.8316
  0
VERTEX
  8
LAYER_2
 10
141.5467
 20
-98.864
  0
VERTEX
  8
LAYER_2
 10
141.5991
 20
-98.897
  0
VERTEX
  8
LAYER_2
 10
141.7056
 20
-98.9652
  0
VERTEX
  8
LAYER_2
 10
141.7582
 20
-99.0004
  0
VERTEX
  8
LAYER_2
 10
141.8094
 20
-99.0361
  0
VERTEX
  8
LAYER_2
 10
141.8583
 20
-99.072
  0
VERTEX
  8
LAYER_2
 10
141.9042
 20
-99.1075
  0
VERTEX
  8
LAYER_2
 10
141.9466
 20
-99.1417
  0
VERTEX
  8
LAYER_2
 10
141.9849
 20
-99.1736
  0
SEQEND
  0
ENDBLK
  0
BLOCK
  8
LAYER_2
  2
AIGNBL0202012A
 70
64
 10
0
 20
0
 30
0
  3
AIGNBL0202012A
  0
POLYLINE
  8
LAYER_2
  6
AIGENLINE001
 40
0.1764
 41
0.1764
 66
1
 10
0
 20
0
 30
0
 70
128
  0
VERTEX
  8
LAYER_2
 10
141.484
 20
-99.7706
  0
VERTEX
  8
LAYER_2
 10
141.4654
 20
-99.755
  0
VERTEX
  8
LAYER_2
 10
141.4459
 20
-99.7384
  0
VERTEX
  8
LAYER_2
 10
141.4048
 20
-99.7027
  0
VERTEX
  8
LAYER_2
 10
141.3619
 20
-99.6636
  0
VERTEX
  8
LAYER_2
 10
141.3181
 20
-99.6216
  0
VERTEX
  8
LAYER_2
 10
141.274
 20
-99.5775
  0
VERTEX
  8
LAYER_2
 10
141.2302
 20
-99.5317
  0
VERTEX
  8
LAYER_2
 10
141.1446
 20
-99.4387
  0
VERTEX
  8
LAYER_2
 10
141.1029
 20
-99.3928
  0
VERTEX
  8
LAYER_2
 10
141.0622
 20
-99.3484
  0
VERTEX
  8
LAYER_2
 10
141.0223
 20
-99.306
  0
VERTEX
  8
LAYER_2
 10
140.9833
 20
-99.266
  0
VERTEX
  8
LAYER_2
 10
140.9452
 20
-99.2289
  0
VERTEX
  8
LAYER_2
 10
140.9081
 20
-99.1947
  0
VERTEX
  8
LAYER_2
 10
140.8723
 20
-99.1633
  0
VERTEX
  8
LAYER_2
 10
140.8381
 20
-99.1344
  0
SEQEND
  0
ENDBLK
  0
BLOCK
  8
LAYER_2
  2
AIGNBL0202012B
 70
64
 10
0
 20
0
 30
0
  3
AIGNBL0202012B
  0
POLYLINE
  8
LAYER_2
  6
AIGENLINE001
 40
0.1764
 41
0.1764
 66
1
 10
0
 20
0
 30
0
 70
128
  0
VERTEX
  8
LAYER_2
 10
142.4728
 20
-100.0598
  0
VERTEX
  8
LAYER_2
 10
142.6947
 20
-99.7953
  0
SEQEND
  0
ENDBLK
  0
BLOCK
  8
LAYER_2
  2
AIGNBL0202012C
 70
64
 10
0
 20
0
 30
0
  3
AIGNBL0202012C
  0
POLYLINE
  8
LAYER_2
  6
AIGENLINE001
 40
0.1764
 41
0.1764
 66
1
 10
0
 20
0
 30
0
 70
128
  0
VERTEX
  8
LAYER_2
 10
142.6947
 20
-99.7953
  0
VERTEX
  8
LAYER_2
 10
142.4571
 20
-100.0785
  0
SEQEND
  0
ENDBLK
  0
BLOCK
  8
LAYER_2
  2
AIGNBL0202012D
 70
64
 10
0
 20
0
 30
0
  3
AIGNBL0202012D
  0
POLYLINE
  8
LAYER_2
  6
AIGENLINE001
 40
0.1764
 41
0.1764
 66
1
 10
0
 20
0
 30
0
 70
128
  0
VERTEX
  8
LAYER_2
 10
142.4571
 20
-100.0785
  0
VERTEX
  8
LAYER_2
 10
142.2195
 20
-100.3616
  0
SEQEND
  0
ENDBLK
  0
BLOCK
  8
LAYER_2
  2
AIGNBL0202012E
 70
64
 10
0
 20
0
 30
0
  3
AIGNBL0202012E
  0
POLYLINE
  8
LAYER_2
  6
AIGENLINE001
 40
0.1764
 41
0.1764
 66
1
 10
0
 20
0
 30
0
 70
128
  0
VERTEX
  8
LAYER_2
 10
142.4571
 20
-100.0785
  0
VERTEX
  8
LAYER_2
 10
142.4728
 20
-100.0598
  0
SEQEND
  0
ENDBLK
  0
BLOCK
  8
LAYER_2
  2
AIGNBL0202012F
 70
64
 10
0
 20
0
 30
0
  3
AIGNBL0202012F
  0
POLYLINE
  8
LAYER_2
  6
AIGENLINE001
 40
0.1764
 41
0.1764
 66
1
 10
0
 20
0
 30
0
 70
128
  0
VERTEX
  8
LAYER_2
 10
142.6947
 20
-99.7953
 42
0.3935526535
  0
VERTEX
  8
LAYER_2
 10
142.6922
 20
-99.7672
  0
SEQEND
  0
ENDBLK
  0
BLOCK
  8
LAYER_2
  2
AIGNBL02020130
 70
64
 10
0
 20
0
 30
0
  3
AIGNBL02020130
  0
POLYLINE
  8
LAYER_2
  6
AIGENLINE001
 40
0.1764
 41
0.1764
 66
1
 10
0
 20
0
 30
0
 70
128
  0
VERTEX
  8
LAYER_2
 10
141.9847
 20
-99.1735
  0
VERTEX
  8
LAYER_2
 10
142.6932
 20
-99.768
  0
SEQEND
  0
ENDBLK
  0
BLOCK
  8
LAYER_2
  2
AIGNBL02020131
 70
64
 10
0
 20
0
 30
0
  3
AIGNBL02020131
  0
POLYLINE
  8
LAYER_2
  6
AIGENLINE001
 40
0.1764
 41
0.1764
 66
1
 10
0
 20
0
 30
0
 70
128
  0
VERTEX
  8
LAYER_2
 10
142.1923
 20
-100.365
  0
VERTEX
  8
LAYER_2
 10
141.4838
 20
-99.7704
  0
SEQEND
  0
ENDBLK
  0
BLOCK
  8
LAYER_2
  2
AIGNBL02020132
 70
64
 10
0
 20
0
 30
0
  3
AIGNBL02020132
  0
POLYLINE
  8
LAYER_2
  6
AIGENLINE001
 40
0.1764
 41
0.1764
 66
1
 10
0
 20
0
 30
0
 70
128
  0
VERTEX
  8
LAYER_2
 10
137.4349
 20
-95.45
  0
VERTEX
  8
LAYER_2
 10
141.2464
 20
-98.6482
  0
SEQEND
  0
ENDBLK
  0
BLOCK
  8
LAYER_2
  2
AIGNBL02020133
 70
64
 10
0
 20
0
 30
0
  3
AIGNBL02020133
  0
POLYLINE
  8
LAYER_2
  6
AIGENLINE001
 40
0.1764
 41
0.1764
 66
1
 10
0
 20
0
 30
0
 70
128
  0
VERTEX
  8
LAYER_2
 10
140.8383
 20
-99.1346
  0
VERTEX
  8
LAYER_2
 10
137.0262
 20
-95.9359
  0
SEQEND
  0
ENDBLK
  0
BLOCK
  8
LAYER_2
  2
AIGNBL02020134
 70
64
 10
0
 20
0
 30
0
  3
AIGNBL02020134
  0
POLYLINE
  8
LAYER_2
  6
AIGENLINE001
 40
0.1764
 41
0.1764
 66
1
 10
0
 20
0
 30
0
 70
128
  0
VERTEX
  8
LAYER_2
 10
142.2182
 20
-100.3627
 42
-0.3814037692
  0
VERTEX
  8
LAYER_2
 10
142.1913
 20
-100.3641
  0
SEQEND
  0
ENDBLK
  0
BLOCK
  8
LAYER_2
  2
AIGNBL02020135
 70
64
 10
0
 20
0
 30
0
  3
AIGNBL02020135
  0
POLYLINE
  8
LAYER_2
 40
0.1764
 41
0.1764
 66
1
 10
0
 20
0
 30
0
  0
VERTEX
  8
LAYER_2
 10
135.5249
 20
-103.311
  0
VERTEX
  8
LAYER_2
 10
135.5249
 20
-107.9122
  0
SEQEND
  0
ENDBLK
  0
BLOCK
  8
LAYER_2
  2
AIGNBL02020136
 70
64
 10
0
 20
0
 30
0
  3
AIGNBL02020136
  0
POLYLINE
  8
LAYER_2
 40
0.1764
 41
0.1764
 66
1
 10
0
 20
0
 30
0
  0
VERTEX
  8
LAYER_2
 10
142.4571
 20
-100.0785
  0
VERTEX
  8
LAYER_2
 10
143.4257
 20
-100.8913
  0
SEQEND
  0
ENDBLK
  0
BLOCK
  8
LAYER_2
  2
AIGNBL02020137
 70
64
 10
0
 20
0
 30
0
  3
AIGNBL02020137
  0
POLYLINE
  8
LAYER_2
 40
0.1764
 41
0.1764
 66
1
 10
0
 20
0
 30
0
  0
VERTEX
  8
LAYER_2
 10
135.5249
 20
-106.9451
 42
-0.1719000613
  0
VERTEX
  8
LAYER_2
 10
134.6587
 20
-106.6344
 42
-0.1260519543
  0
VERTEX
  8
LAYER_2
 10
134.3567
 20
-106.1993
  0
SEQEND
  0
ENDBLK
  0
BLOCK
  8
LAYER_2
  2
AIGNBL02020138
 70
64
 10
0
 20
0
 30
0
  3
AIGNBL02020138
  0
POLYLINE
  8
LAYER_2
 40
0.1764
 41
0.1764
 66
1
 10
0
 20
0
 30
0
  0
VERTEX
  8
LAYER_2
 10
134.3567
 20
-106.1993
 42
-0.08719582464
  0
VERTEX
  8
LAYER_2
 10
134.3
 20
-105.8854
  0
SEQEND
  0
ENDBLK
  0
BLOCK
  8
LAYER_2
  2
AIGNBL02020139
 70
64
 10
0
 20
0
 30
0
  3
AIGNBL02020139
  0
POLYLINE
  8
LAYER_2
 40
0.1764
 41
0.1764
 66
1
 10
0
 20
0
 30
0
  0
VERTEX
  8
LAYER_2
 10
136.7498
 20
-105.8843
 42
-0.08697684449
  0
VERTEX
  8
LAYER_2
 10
136.6924
 20
-106.2019
  0
SEQEND
  0
ENDBLK
  0
BLOCK
  8
LAYER_2
  2
AIGNBL0202013A
 70
64
 10
0
 20
0
 30
0
  3
AIGNBL0202013A
  0
POLYLINE
  8
LAYER_2
 40
0.1764
 41
0.1764
 66
1
 10
0
 20
0
 30
0
  0
VERTEX
  8
LAYER_2
 10
136.6924
 20
-106.2019
  0
VERTEX
  8
LAYER_2
 10
136.6559
 20
-106.2888
 42
-0.1028731786
  0
VERTEX
  8
LAYER_2
 10
136.392
 20
-106.6336
 42
-0.09266028809
  0
VERTEX
  8
LAYER_2
 10
135.994
 20
-106.863
 42
-0.08623860737
  0
VERTEX
  8
LAYER_2
 10
135.5249
 20
-106.9451
  0
SEQEND
  0
ENDBLK
  0
BLOCK
  8
LAYER_2
  2
AIGNBL0202013B
 70
64
 10
0
 20
0
 30
0
  3
AIGNBL0202013B
  0
POLYLINE
  8
LAYER_2
 40
0.1764
 41
0.1764
 66
1
 10
0
 20
0
 30
0
  0
VERTEX
  8
LAYER_2
 10
135.5249
 20
-106.9478
  0
VERTEX
  8
LAYER_2
 10
135.5249
 20
-106.9451
  0
SEQEND
  0
ENDBLK
  0
BLOCK
  8
LAYER_2
  2
AIGNBL0202013C
 70
64
 10
0
 20
0
 30
0
  3
AIGNBL0202013C
  0
POLYLINE
  8
LAYER_2
 40
0.1764
 41
0.1764
 66
1
 10
0
 20
0
 30
0
  0
VERTEX
  8
LAYER_2
 10
136.7498
 20
-102.8349
  0
VERTEX
  8
LAYER_2
 10
136.7498
 20
-105.5194
  0
SEQEND
  0
ENDBLK
  0
BLOCK
  8
LAYER_2
  2
AIGNBL0202013D
 70
64
 10
0
 20
0
 30
0
  3
AIGNBL0202013D
  0
POLYLINE
  8
LAYER_2
 40
0.1764
 41
0.1764
 66
1
 10
0
 20
0
 30
0
  0
VERTEX
  8
LAYER_2
 10
134.3
 20
-105.5194
  0
VERTEX
  8
LAYER_2
 10
134.3
 20
-102.8349
  0
SEQEND
  0
ENDBLK
  0
BLOCK
  8
LAYER_2
  2
AIGNBL0202013E
 70
64
 10
0
 20
0
 30
0
  3
AIGNBL0202013E
  0
POLYLINE
  8
LAYER_2
 40
0.1764
 41
0.1764
 66
1
 10
0
 20
0
 30
0
  0
VERTEX
  8
LAYER_2
 10
136.7498
 20
-105.5194
  0
VERTEX
  8
LAYER_2
 10
136.7498
 20
-105.8843
  0
SEQEND
  0
ENDBLK
  0
BLOCK
  8
LAYER_2
  2
AIGNBL0202013F
 70
64
 10
0
 20
0
 30
0
  3
AIGNBL0202013F
  0
POLYLINE
  8
LAYER_2
 40
0.1764
 41
0.1764
 66
1
 10
0
 20
0
 30
0
  0
VERTEX
  8
LAYER_2
 10
134.3
 20
-105.8843
  0
VERTEX
  8
LAYER_2
 10
134.3
 20
-105.5194
  0
SEQEND
  0
ENDBLK
  0
BLOCK
  8
LAYER_2
  2
AIGNBL02020140
 70
64
 10
0
 20
0
 30
0
  3
AIGNBL02020140
  0
POLYLINE
  8
LAYER_2
 40
0.1764
 41
0.1764
 66
1
 10
0
 20
0
 30
0
  0
VERTEX
  8
LAYER_2
 10
136.6919
 20
-106.2035
 42
-0.3125083277
  0
VERTEX
  8
LAYER_2
 10
135.5249
 20
-106.9474
  0
SEQEND
  0
ENDBLK
  0
BLOCK
  8
LAYER_2
  2
AIGNBL02020141
 70
64
 10
0
 20
0
 30
0
  3
AIGNBL02020141
  0
POLYLINE
  8
LAYER_2
 40
0.1764
 41
0.1764
 66
1
 10
0
 20
0
 30
0
  0
VERTEX
  8
LAYER_2
 10
135.5249
 20
-106.9476
 42
-0.3114696901
  0
VERTEX
  8
LAYER_2
 10
134.3588
 20
-106.2049
  0
SEQEND
  0
ENDBLK
  0
BLOCK
  8
LAYER_2
  2
AIGNBL02020142
 70
64
 10
0
 20
0
 30
0
  3
AIGNBL02020142
  0
POLYLINE
  8
LAYER_2
 40
0.1764
 41
0.1764
 66
1
 10
0
 20
0
 30
0
  0
VERTEX
  8
LAYER_2
 10
136.7498
 20
-96.2286
  0
VERTEX
  8
LAYER_2
 10
136.7498
 20
-102.8349
  0
SEQEND
  0
ENDBLK
  0
BLOCK
  8
LAYER_2
  2
AIGNBL02020143
 70
64
 10
0
 20
0
 30
0
  3
AIGNBL02020143
  0
POLYLINE
  8
LAYER_2
 40
0.1764
 41
0.1764
 66
1
 10
0
 20
0
 30
0
  0
VERTEX
  8
LAYER_2
 10
134.3001
 20
-102.8349
  0
VERTEX
  8
LAYER_2
 10
134.3001
 20
-96.2286
  0
SEQEND
  0
ENDBLK
  0
BLOCK
  8
LAYER_2
  2
AIGNBL02020144
 70
64
 10
0
 20
0
 30
0
  3
AIGNBL02020144
  0
POLYLINE
  8
LAYER_2
 40
0.1764
 41
0.1764
 66
1
 10
0
 20
0
 30
0
  0
VERTEX
  8
LAYER_2
 10
136.7498
 20
-96.2285
  0
VERTEX
  8
LAYER_2
 10
136.7589
 20
-96.1429
  0
SEQEND
  0
ENDBLK
  0
BLOCK
  8
LAYER_2
  2
AIGNBL02020145
 70
64
 10
0
 20
0
 30
0
  3
AIGNBL02020145
  0
POLYLINE
  8
LAYER_2
 40
0.1764
 41
0.1764
 66
1
 10
0
 20
0
 30
0
  0
VERTEX
  8
LAYER_2
 10
134.2909
 20
-96.1429
  0
VERTEX
  8
LAYER_2
 10
134.3001
 20
-96.2285
  0
SEQEND
  0
ENDBLK
  0
BLOCK
  8
LAYER_2
  2
AIGNBL02020146
 70
64
 10
0
 20
0
 30
0
  3
AIGNBL02020146
  0
POLYLINE
  8
LAYER_2
 40
0.1764
 41
0.1764
 66
1
 10
0
 20
0
 30
0
  0
VERTEX
  8
LAYER_2
 10
135.7276
 20
-94.4321
  0
VERTEX
  8
LAYER_2
 10
135.7286
 20
-94.4321
  0
SEQEND
  0
ENDBLK
  0
BLOCK
  8
LAYER_2
  2
AIGNBL02020147
 70
64
 10
0
 20
0
 30
0
  3
AIGNBL02020147
  0
POLYLINE
  8
LAYER_2
 40
0.1764
 41
0.1764
 66
1
 10
0
 20
0
 30
0
  0
VERTEX
  8
LAYER_2
 10
135.4597
 20
-94.4844
  0
VERTEX
  8
LAYER_2
 10
135.4593
 20
-94.4844
  0
SEQEND
  0
ENDBLK
  0
BLOCK
  8
LAYER_2
  2
AIGNBL02020148
 70
64
 10
0
 20
0
 30
0
  3
AIGNBL02020148
  0
POLYLINE
  8
LAYER_2
 40
0.1764
 41
0.1764
 66
1
 10
0
 20
0
 30
0
  0
VERTEX
  8
LAYER_2
 10
135.8167
 20
-94.0263
  0
VERTEX
  8
LAYER_2
 10
135.8167
 20
-94.0269
  0
SEQEND
  0
ENDBLK
  0
BLOCK
  8
LAYER_2
  2
AIGNBL02020149
 70
64
 10
0
 20
0
 30
0
  3
AIGNBL02020149
  0
POLYLINE
  8
LAYER_2
 40
0.1764
 41
0.1764
 66
1
 10
0
 20
0
 30
0
  0
VERTEX
  8
LAYER_2
 10
134.928
 20
-94.4545
  0
VERTEX
  8
LAYER_2
 10
134.928
 20
-94.4537
  0
SEQEND
  0
ENDBLK
  0
BLOCK
  8
LAYER_2
  2
AIGNBL0202014A
 70
64
 10
0
 20
0
 30
0
  3
AIGNBL0202014A
  0
POLYLINE
  8
LAYER_2
 40
0.1764
 41
0.1764
 66
1
 10
0
 20
0
 30
0
  0
VERTEX
  8
LAYER_2
 10
134.9071
 20
-93.9769
  0
VERTEX
  8
LAYER_2
 10
134.9071
 20
-93.9775
  0
SEQEND
  0
ENDBLK
  0
BLOCK
  8
LAYER_2
  2
AIGNBL0202014B
 70
64
 10
0
 20
0
 30
0
  3
AIGNBL0202014B
  0
ENDBLK
  0
BLOCK
  8
LAYER_2
  2
AIGNBL0202014C
 70
64
 10
0
 20
0
 30
0
  3
AIGNBL0202014C
  0
POLYLINE
  8
LAYER_2
 40
0.1764
 41
0.1764
 66
1
 10
0
 20
0
 30
0
  0
VERTEX
  8
LAYER_2
 10
136.2451
 20
-94.1082
  0
VERTEX
  8
LAYER_2
 10
136.2425
 20
-94.079
  0
VERTEX
  8
LAYER_2
 10
136.2341
 20
-94.0509
  0
VERTEX
  8
LAYER_2
 10
136.2196
 20
-94.0257
  0
VERTEX
  8
LAYER_2
 10
136.1993
 20
-94.0044
  0
VERTEX
  8
LAYER_2
 10
136.1746
 20
-93.9885
  0
VERTEX
  8
LAYER_2
 10
136.1474
 20
-93.9778
  0
VERTEX
  8
LAYER_2
 10
136.0892
 20
-93.9701
  0
SEQEND
  0
ENDBLK
  0
BLOCK
  8
LAYER_2
  2
AIGNBL0202014D
 70
64
 10
0
 20
0
 30
0
  3
AIGNBL0202014D
  0
POLYLINE
  8
LAYER_2
 40
0.1764
 41
0.1764
 66
1
 10
0
 20
0
 30
0
  0
VERTEX
  8
LAYER_2
 10
136.045
 20
-94.1054
  0
VERTEX
  8
LAYER_2
 10
135.9769
 20
-94.1054
  0
SEQEND
  0
ENDBLK
  0
BLOCK
  8
LAYER_2
  2
AIGNBL0202014E
 70
64
 10
0
 20
0
 30
0
  3
AIGNBL0202014E
  0
POLYLINE
  8
LAYER_2
 40
0.1764
 41
0.1764
 66
1
 10
0
 20
0
 30
0
  0
VERTEX
  8
LAYER_2
 10
136.045
 20
-94.1824
  0
VERTEX
  8
LAYER_2
 10
136.045
 20
-94.1054
  0
SEQEND
  0
ENDBLK
  0
BLOCK
  8
LAYER_2
  2
AIGNBL0202014F
 70
64
 10
0
 20
0
 30
0
  3
AIGNBL0202014F
  0
POLYLINE
  8
LAYER_2
 40
0.1764
 41
0.1764
 66
1
 10
0
 20
0
 30
0
  0
VERTEX
  8
LAYER_2
 10
136.0975
 20
-94.1934
  0
VERTEX
  8
LAYER_2
 10
136.045
 20
-94.1824
  0
SEQEND
  0
ENDBLK
  0
BLOCK
  8
LAYER_2
  2
AIGNBL02020150
 70
64
 10
0
 20
0
 30
0
  3
AIGNBL02020150
  0
POLYLINE
  8
LAYER_2
 40
0.1764
 41
0.1764
 66
1
 10
0
 20
0
 30
0
  0
VERTEX
  8
LAYER_2
 10
136.1742
 20
-94.1089
  0
VERTEX
  8
LAYER_2
 10
136.1695
 20
-94.1402
  0
VERTEX
  8
LAYER_2
 10
136.1542
 20
-94.1681
  0
VERTEX
  8
LAYER_2
 10
136.1287
 20
-94.1871
  0
VERTEX
  8
LAYER_2
 10
136.0975
 20
-94.1934
  0
SEQEND
  0
ENDBLK
  0
BLOCK
  8
LAYER_2
  2
AIGNBL02020151
 70
64
 10
0
 20
0
 30
0
  3
AIGNBL02020151
  0
POLYLINE
  8
LAYER_2
 40
0.1764
 41
0.1764
 66
1
 10
0
 20
0
 30
0
  0
VERTEX
  8
LAYER_2
 10
136.0822
 20
-94.0182
 42
-0.4140553564
  0
VERTEX
  8
LAYER_2
 10
136.1741
 20
-94.1018
  0
VERTEX
  8
LAYER_2
 10
136.1742
 20
-94.1089
  0
SEQEND
  0
ENDBLK
  0
BLOCK
  8
LAYER_2
  2
AIGNBL02020152
 70
64
 10
0
 20
0
 30
0
  3
AIGNBL02020152
  0
POLYLINE
  8
LAYER_2
 40
0.1764
 41
0.1764
 66
1
 10
0
 20
0
 30
0
  0
VERTEX
  8
LAYER_2
 10
135.9854
 20
-94.0458
 42
-0.121446792
  0
VERTEX
  8
LAYER_2
 10
136.0822
 20
-94.0182
  0
SEQEND
  0
ENDBLK
  0
BLOCK
  8
LAYER_2
  2
AIGNBL02020153
 70
64
 10
0
 20
0
 30
0
  3
AIGNBL02020153
  0
POLYLINE
  8
LAYER_2
 40
0.1764
 41
0.1764
 66
1
 10
0
 20
0
 30
0
  0
VERTEX
  8
LAYER_2
 10
135.9854
 20
-93.9945
  0
VERTEX
  8
LAYER_2
 10
135.9854
 20
-94.0458
  0
SEQEND
  0
ENDBLK
  0
BLOCK
  8
LAYER_2
  2
AIGNBL02020154
 70
64
 10
0
 20
0
 30
0
  3
AIGNBL02020154
  0
POLYLINE
  8
LAYER_2
 40
0.1764
 41
0.1764
 66
1
 10
0
 20
0
 30
0
  0
VERTEX
  8
LAYER_2
 10
135.9854
 20
-93.9945
 42
-0.1113253908
  0
VERTEX
  8
LAYER_2
 10
136.0892
 20
-93.9701
  0
SEQEND
  0
ENDBLK
  0
BLOCK
  8
LAYER_2
  2
AIGNBL02020155
 70
64
 10
0
 20
0
 30
0
  3
AIGNBL02020155
  0
POLYLINE
  8
LAYER_2
 40
0.1764
 41
0.1764
 66
1
 10
0
 20
0
 30
0
  0
VERTEX
  8
LAYER_2
 10
136.0975
 20
-94.2415
  0
VERTEX
  8
LAYER_2
 10
136.1525
 20
-94.2337
  0
VERTEX
  8
LAYER_2
 10
136.2015
 20
-94.2075
  0
VERTEX
  8
LAYER_2
 10
136.2206
 20
-94.1872
  0
VERTEX
  8
LAYER_2
 10
136.2345
 20
-94.1629
  0
VERTEX
  8
LAYER_2
 10
136.2451
 20
-94.1082
  0
SEQEND
  0
ENDBLK
  0
BLOCK
  8
LAYER_2
  2
AIGNBL02020156
 70
64
 10
0
 20
0
 30
0
  3
AIGNBL02020156
  0
POLYLINE
  8
LAYER_2
 40
0.1764
 41
0.1764
 66
1
 10
0
 20
0
 30
0
  0
VERTEX
  8
LAYER_2
 10
136.0975
 20
-94.2415
 42
-0.1251377788
  0
VERTEX
  8
LAYER_2
 10
135.9769
 20
-94.2089
  0
SEQEND
  0
ENDBLK
  0
BLOCK
  8
LAYER_2
  2
AIGNBL02020157
 70
64
 10
0
 20
0
 30
0
  3
AIGNBL02020157
  0
POLYLINE
  8
LAYER_2
 40
0.1764
 41
0.1764
 66
1
 10
0
 20
0
 30
0
  0
VERTEX
  8
LAYER_2
 10
135.9769
 20
-94.1054
  0
VERTEX
  8
LAYER_2
 10
135.9769
 20
-94.2089
  0
SEQEND
  0
ENDBLK
  0
BLOCK
  8
LAYER_2
  2
AIGNBL02020158
 70
64
 10
0
 20
0
 30
0
  3
AIGNBL02020158
  0
POLYLINE
  8
LAYER_2
 40
0.1764
 41
0.1764
 66
1
 10
0
 20
0
 30
0
  0
VERTEX
  8
LAYER_2
 10
135.8248
 20
-94.0261
  0
VERTEX
  8
LAYER_2
 10
135.8536
 20
-94.0261
  0
SEQEND
  0
ENDBLK
  0
BLOCK
  8
LAYER_2
  2
AIGNBL02020159
 70
64
 10
0
 20
0
 30
0
  3
AIGNBL02020159
  0
POLYLINE
  8
LAYER_2
 40
0.1764
 41
0.1764
 66
1
 10
0
 20
0
 30
0
  0
VERTEX
  8
LAYER_2
 10
135.77
 20
-94.0648
  0
VERTEX
  8
LAYER_2
 10
135.7738
 20
-94.0462
  0
VERTEX
  8
LAYER_2
 10
135.7873
 20
-94.0329
  0
VERTEX
  8
LAYER_2
 10
135.8056
 20
-94.0274
  0
VERTEX
  8
LAYER_2
 10
135.8248
 20
-94.0261
  0
SEQEND
  0
ENDBLK
  0
BLOCK
  8
LAYER_2
  2
AIGNBL0202015A
 70
64
 10
0
 20
0
 30
0
  3
AIGNBL0202015A
  0
POLYLINE
  8
LAYER_2
 40
0.1764
 41
0.1764
 66
1
 10
0
 20
0
 30
0
  0
VERTEX
  8
LAYER_2
 10
135.8222
 20
-94.1082
  0
VERTEX
  8
LAYER_2
 10
135.8033
 20
-94.1062
  0
VERTEX
  8
LAYER_2
 10
135.7858
 20
-94.0985
  0
VERTEX
  8
LAYER_2
 10
135.7737
 20
-94.0837
  0
VERTEX
  8
LAYER_2
 10
135.77
 20
-94.0648
  0
SEQEND
  0
ENDBLK
  0
BLOCK
  8
LAYER_2
  2
AIGNBL0202015B
 70
64
 10
0
 20
0
 30
0
  3
AIGNBL0202015B
  0
POLYLINE
  8
LAYER_2
 40
0.1764
 41
0.1764
 66
1
 10
0
 20
0
 30
0
  0
VERTEX
  8
LAYER_2
 10
135.8368
 20
-94.1078
  0
VERTEX
  8
LAYER_2
 10
135.8222
 20
-94.1082
  0
SEQEND
  0
ENDBLK
  0
BLOCK
  8
LAYER_2
  2
AIGNBL0202015C
 70
64
 10
0
 20
0
 30
0
  3
AIGNBL0202015C
  0
POLYLINE
  8
LAYER_2
 40
0.1764
 41
0.1764
 66
1
 10
0
 20
0
 30
0
  0
VERTEX
  8
LAYER_2
 10
135.8444
 20
-94.1078
  0
VERTEX
  8
LAYER_2
 10
135.8368
 20
-94.1078
  0
SEQEND
  0
ENDBLK
  0
BLOCK
  8
LAYER_2
  2
AIGNBL0202015D
 70
64
 10
0
 20
0
 30
0
  3
AIGNBL0202015D
  0
POLYLINE
  8
LAYER_2
 40
0.1764
 41
0.1764
 66
1
 10
0
 20
0
 30
0
  0
VERTEX
  8
LAYER_2
 10
135.7513
 20
-94.131
 42
-0.3034758157
  0
VERTEX
  8
LAYER_2
 10
135.7027
 20
-94.0581
  0
SEQEND
  0
ENDBLK
  0
BLOCK
  8
LAYER_2
  2
AIGNBL0202015E
 70
64
 10
0
 20
0
 30
0
  3
AIGNBL0202015E
  0
POLYLINE
  8
LAYER_2
 40
0.1764
 41
0.1764
 66
1
 10
0
 20
0
 30
0
  0
VERTEX
  8
LAYER_2
 10
135.9205
 20
-94.234
  0
VERTEX
  8
LAYER_2
 10
135.9205
 20
-93.9775
  0
SEQEND
  0
ENDBLK
  0
BLOCK
  8
LAYER_2
  2
AIGNBL0202015F
 70
64
 10
0
 20
0
 30
0
  3
AIGNBL0202015F
  0
POLYLINE
  8
LAYER_2
 40
0.1764
 41
0.1764
 66
1
 10
0
 20
0
 30
0
  0
VERTEX
  8
LAYER_2
 10
135.9205
 20
-93.9775
  0
VERTEX
  8
LAYER_2
 10
135.8112
 20
-93.9775
  0
SEQEND
  0
ENDBLK
  0
BLOCK
  8
LAYER_2
  2
AIGNBL02020160
 70
64
 10
0
 20
0
 30
0
  3
AIGNBL02020160
  0
POLYLINE
  8
LAYER_2
 40
0.1764
 41
0.1764
 66
1
 10
0
 20
0
 30
0
  0
VERTEX
  8
LAYER_2
 10
135.8112
 20
-93.9775
  0
VERTEX
  8
LAYER_2
 10
135.7729
 20
-93.9805
  0
VERTEX
  8
LAYER_2
 10
135.7364
 20
-93.9928
  0
VERTEX
  8
LAYER_2
 10
135.7212
 20
-94.0045
  0
VERTEX
  8
LAYER_2
 10
135.7103
 20
-94.0204
  0
VERTEX
  8
LAYER_2
 10
135.7044
 20
-94.0388
  0
VERTEX
  8
LAYER_2
 10
135.7027
 20
-94.0581
  0
SEQEND
  0
ENDBLK
  0
BLOCK
  8
LAYER_2
  2
AIGNBL02020161
 70
64
 10
0
 20
0
 30
0
  3
AIGNBL02020161
  0
POLYLINE
  8
LAYER_2
 40
0.1764
 41
0.1764
 66
1
 10
0
 20
0
 30
0
  0
VERTEX
  8
LAYER_2
 10
135.8536
 20
-94.234
  0
VERTEX
  8
LAYER_2
 10
135.9205
 20
-94.234
  0
SEQEND
  0
ENDBLK
  0
BLOCK
  8
LAYER_2
  2
AIGNBL02020162
 70
64
 10
0
 20
0
 30
0
  3
AIGNBL02020162
  0
POLYLINE
  8
LAYER_2
 40
0.1764
 41
0.1764
 66
1
 10
0
 20
0
 30
0
  0
VERTEX
  8
LAYER_2
 10
135.8536
 20
-94.0261
  0
VERTEX
  8
LAYER_2
 10
135.8536
 20
-94.234
  0
SEQEND
  0
ENDBLK
  0
BLOCK
  8
LAYER_2
  2
AIGNBL02020163
 70
64
 10
0
 20
0
 30
0
  3
AIGNBL02020163
  0
POLYLINE
  8
LAYER_2
 40
0.1764
 41
0.1764
 66
1
 10
0
 20
0
 30
0
  0
VERTEX
  8
LAYER_2
 10
135.7514
 20
-94.234
  0
VERTEX
  8
LAYER_2
 10
135.8444
 20
-94.1078
  0
SEQEND
  0
ENDBLK
  0
BLOCK
  8
LAYER_2
  2
AIGNBL02020164
 70
64
 10
0
 20
0
 30
0
  3
AIGNBL02020164
  0
POLYLINE
  8
LAYER_2
 40
0.1764
 41
0.1764
 66
1
 10
0
 20
0
 30
0
  0
VERTEX
  8
LAYER_2
 10
135.6659
 20
-94.234
  0
VERTEX
  8
LAYER_2
 10
135.7514
 20
-94.234
  0
SEQEND
  0
ENDBLK
  0
BLOCK
  8
LAYER_2
  2
AIGNBL02020165
 70
64
 10
0
 20
0
 30
0
  3
AIGNBL02020165
  0
POLYLINE
  8
LAYER_2
 40
0.1764
 41
0.1764
 66
1
 10
0
 20
0
 30
0
  0
VERTEX
  8
LAYER_2
 10
135.7513
 20
-94.131
  0
VERTEX
  8
LAYER_2
 10
135.6659
 20
-94.234
  0
SEQEND
  0
ENDBLK
  0
BLOCK
  8
LAYER_2
  2
AIGNBL02020166
 70
64
 10
0
 20
0
 30
0
  3
AIGNBL02020166
  0
POLYLINE
  8
LAYER_2
 40
0.1764
 41
0.1764
 66
1
 10
0
 20
0
 30
0
  0
VERTEX
  8
LAYER_2
 10
135.4158
 20
-94.1059
 42
-0.4143972303
  0
VERTEX
  8
LAYER_2
 10
135.4962
 20
-94.016
  0
VERTEX
  8
LAYER_2
 10
135.5031
 20
-94.0159
  0
SEQEND
  0
ENDBLK
  0
BLOCK
  8
LAYER_2
  2
AIGNBL02020167
 70
64
 10
0
 20
0
 30
0
  3
AIGNBL02020167
  0
POLYLINE
  8
LAYER_2
 40
0.1764
 41
0.1764
 66
1
 10
0
 20
0
 30
0
  0
VERTEX
  8
LAYER_2
 10
135.5031
 20
-94.0159
 42
-0.4140189234
  0
VERTEX
  8
LAYER_2
 10
135.5903
 20
-94.0988
  0
VERTEX
  8
LAYER_2
 10
135.5902
 20
-94.1059
  0
SEQEND
  0
ENDBLK
  0
BLOCK
  8
LAYER_2
  2
AIGNBL02020168
 70
64
 10
0
 20
0
 30
0
  3
AIGNBL02020168
  0
POLYLINE
  8
LAYER_2
 40
0.1764
 41
0.1764
 66
1
 10
0
 20
0
 30
0
  0
VERTEX
  8
LAYER_2
 10
135.6608
 20
-94.1059
  0
VERTEX
  8
LAYER_2
 10
135.6577
 20
-94.0768
  0
VERTEX
  8
LAYER_2
 10
135.6483
 20
-94.0491
  0
VERTEX
  8
LAYER_2
 10
135.6122
 20
-94.0036
  0
VERTEX
  8
LAYER_2
 10
135.5877
 20
-93.9875
  0
VERTEX
  8
LAYER_2
 10
135.5608
 20
-93.9763
  0
VERTEX
  8
LAYER_2
 10
135.5031
 20
-93.9677
  0
SEQEND
  0
ENDBLK
  0
BLOCK
  8
LAYER_2
  2
AIGNBL02020169
 70
64
 10
0
 20
0
 30
0
  3
AIGNBL02020169
  0
POLYLINE
  8
LAYER_2
 40
0.1764
 41
0.1764
 66
1
 10
0
 20
0
 30
0
  0
VERTEX
  8
LAYER_2
 10
135.5031
 20
-93.9677
  0
VERTEX
  8
LAYER_2
 10
135.4457
 20
-93.9762
  0
VERTEX
  8
LAYER_2
 10
135.4186
 20
-93.9874
  0
VERTEX
  8
LAYER_2
 10
135.3941
 20
-94.0034
  0
VERTEX
  8
LAYER_2
 10
135.3579
 20
-94.0489
  0
VERTEX
  8
LAYER_2
 10
135.3452
 20
-94.1059
  0
SEQEND
  0
ENDBLK
  0
BLOCK
  8
LAYER_2
  2
AIGNBL0202016A
 70
64
 10
0
 20
0
 30
0
  3
AIGNBL0202016A
  0
POLYLINE
  8
LAYER_2
 40
0.1764
 41
0.1764
 66
1
 10
0
 20
0
 30
0
  0
VERTEX
  8
LAYER_2
 10
135.5031
 20
-94.2439
  0
VERTEX
  8
LAYER_2
 10
135.5604
 20
-94.2354
  0
VERTEX
  8
LAYER_2
 10
135.5875
 20
-94.2242
  0
VERTEX
  8
LAYER_2
 10
135.612
 20
-94.2082
  0
VERTEX
  8
LAYER_2
 10
135.6482
 20
-94.1628
  0
VERTEX
  8
LAYER_2
 10
135.6608
 20
-94.1059
  0
SEQEND
  0
ENDBLK
  0
BLOCK
  8
LAYER_2
  2
AIGNBL0202016B
 70
64
 10
0
 20
0
 30
0
  3
AIGNBL0202016B
  0
POLYLINE
  8
LAYER_2
 40
0.1764
 41
0.1764
 66
1
 10
0
 20
0
 30
0
  0
VERTEX
  8
LAYER_2
 10
135.3452
 20
-94.1059
  0
VERTEX
  8
LAYER_2
 10
135.3483
 20
-94.1349
  0
VERTEX
  8
LAYER_2
 10
135.3578
 20
-94.1626
  0
VERTEX
  8
LAYER_2
 10
135.3939
 20
-94.208
  0
VERTEX
  8
LAYER_2
 10
135.4184
 20
-94.2241
  0
VERTEX
  8
LAYER_2
 10
135.4454
 20
-94.2353
  0
VERTEX
  8
LAYER_2
 10
135.5031
 20
-94.2439
  0
SEQEND
  0
ENDBLK
  0
BLOCK
  8
LAYER_2
  2
AIGNBL0202016C
 70
64
 10
0
 20
0
 30
0
  3
AIGNBL0202016C
  0
POLYLINE
  8
LAYER_2
 40
0.1764
 41
0.1764
 66
1
 10
0
 20
0
 30
0
  0
VERTEX
  8
LAYER_2
 10
135.5031
 20
-94.1958
 42
-0.4144295299
  0
VERTEX
  8
LAYER_2
 10
135.4157
 20
-94.1127
  0
VERTEX
  8
LAYER_2
 10
135.4158
 20
-94.1059
  0
SEQEND
  0
ENDBLK
  0
BLOCK
  8
LAYER_2
  2
AIGNBL0202016D
 70
64
 10
0
 20
0
 30
0
  3
AIGNBL0202016D
  0
POLYLINE
  8
LAYER_2
 40
0.1764
 41
0.1764
 66
1
 10
0
 20
0
 30
0
  0
VERTEX
  8
LAYER_2
 10
135.5902
 20
-94.1059
 42
-0.4140810792
  0
VERTEX
  8
LAYER_2
 10
135.5099
 20
-94.1957
  0
VERTEX
  8
LAYER_2
 10
135.5031
 20
-94.1958
  0
SEQEND
  0
ENDBLK
  0
BLOCK
  8
LAYER_2
  2
AIGNBL0202016E
 70
64
 10
0
 20
0
 30
0
  3
AIGNBL0202016E
  0
POLYLINE
  8
LAYER_2
 40
0.1764
 41
0.1764
 66
1
 10
0
 20
0
 30
0
  0
VERTEX
  8
LAYER_2
 10
135.1113
 20
-94.1242
  0
VERTEX
  8
LAYER_2
 10
135.2307
 20
-94.1242
  0
SEQEND
  0
ENDBLK
  0
BLOCK
  8
LAYER_2
  2
AIGNBL0202016F
 70
64
 10
0
 20
0
 30
0
  3
AIGNBL0202016F
  0
POLYLINE
  8
LAYER_2
 40
0.1764
 41
0.1764
 66
1
 10
0
 20
0
 30
0
  0
VERTEX
  8
LAYER_2
 10
135.2312
 20
-94.0722
  0
VERTEX
  8
LAYER_2
 10
135.1113
 20
-94.0724
  0
SEQEND
  0
ENDBLK
  0
BLOCK
  8
LAYER_2
  2
AIGNBL02020170
 70
64
 10
0
 20
0
 30
0
  3
AIGNBL02020170
  0
POLYLINE
  8
LAYER_2
 40
0.1764
 41
0.1764
 66
1
 10
0
 20
0
 30
0
  0
VERTEX
  8
LAYER_2
 10
135.2971
 20
-93.9775
  0
VERTEX
  8
LAYER_2
 10
135.2307
 20
-93.9775
  0
SEQEND
  0
ENDBLK
  0
BLOCK
  8
LAYER_2
  2
AIGNBL02020171
 70
64
 10
0
 20
0
 30
0
  3
AIGNBL02020171
  0
POLYLINE
  8
LAYER_2
 40
0.1764
 41
0.1764
 66
1
 10
0
 20
0
 30
0
  0
VERTEX
  8
LAYER_2
 10
135.1113
 20
-94.0724
  0
VERTEX
  8
LAYER_2
 10
135.1113
 20
-93.9775
  0
SEQEND
  0
ENDBLK
  0
BLOCK
  8
LAYER_2
  2
AIGNBL02020172
 70
64
 10
0
 20
0
 30
0
  3
AIGNBL02020172
  0
POLYLINE
  8
LAYER_2
 40
0.1764
 41
0.1764
 66
1
 10
0
 20
0
 30
0
  0
VERTEX
  8
LAYER_2
 10
135.2307
 20
-93.9775
  0
VERTEX
  8
LAYER_2
 10
135.2312
 20
-94.0722
  0
SEQEND
  0
ENDBLK
  0
BLOCK
  8
LAYER_2
  2
AIGNBL02020173
 70
64
 10
0
 20
0
 30
0
  3
AIGNBL02020173
  0
POLYLINE
  8
LAYER_2
 40
0.1764
 41
0.1764
 66
1
 10
0
 20
0
 30
0
  0
VERTEX
  8
LAYER_2
 10
135.2971
 20
-94.2337
  0
VERTEX
  8
LAYER_2
 10
135.2971
 20
-93.9775
  0
SEQEND
  0
ENDBLK
  0
BLOCK
  8
LAYER_2
  2
AIGNBL02020174
 70
64
 10
0
 20
0
 30
0
  3
AIGNBL02020174
  0
POLYLINE
  8
LAYER_2
 40
0.1764
 41
0.1764
 66
1
 10
0
 20
0
 30
0
  0
VERTEX
  8
LAYER_2
 10
135.2307
 20
-94.2337
  0
VERTEX
  8
LAYER_2
 10
135.2971
 20
-94.2337
  0
SEQEND
  0
ENDBLK
  0
BLOCK
  8
LAYER_2
  2
AIGNBL02020175
 70
64
 10
0
 20
0
 30
0
  3
AIGNBL02020175
  0
POLYLINE
  8
LAYER_2
 40
0.1764
 41
0.1764
 66
1
 10
0
 20
0
 30
0
  0
VERTEX
  8
LAYER_2
 10
135.2307
 20
-94.1242
  0
VERTEX
  8
LAYER_2
 10
135.2307
 20
-94.2337
  0
SEQEND
  0
ENDBLK
  0
BLOCK
  8
LAYER_2
  2
AIGNBL02020176
 70
64
 10
0
 20
0
 30
0
  3
AIGNBL02020176
  0
POLYLINE
  8
LAYER_2
 40
0.1764
 41
0.1764
 66
1
 10
0
 20
0
 30
0
  0
VERTEX
  8
LAYER_2
 10
135.1113
 20
-94.2337
  0
VERTEX
  8
LAYER_2
 10
135.1113
 20
-94.1242
  0
SEQEND
  0
ENDBLK
  0
BLOCK
  8
LAYER_2
  2
AIGNBL02020177
 70
64
 10
0
 20
0
 30
0
  3
AIGNBL02020177
  0
POLYLINE
  8
LAYER_2
 40
0.1764
 41
0.1764
 66
1
 10
0
 20
0
 30
0
  0
VERTEX
  8
LAYER_2
 10
135.1113
 20
-93.9775
  0
VERTEX
  8
LAYER_2
 10
135.0439
 20
-93.9775
  0
SEQEND
  0
ENDBLK
  0
BLOCK
  8
LAYER_2
  2
AIGNBL02020178
 70
64
 10
0
 20
0
 30
0
  3
AIGNBL02020178
  0
POLYLINE
  8
LAYER_2
 40
0.1764
 41
0.1764
 66
1
 10
0
 20
0
 30
0
  0
VERTEX
  8
LAYER_2
 10
135.0439
 20
-94.2337
  0
VERTEX
  8
LAYER_2
 10
135.1113
 20
-94.2337
  0
SEQEND
  0
ENDBLK
  0
BLOCK
  8
LAYER_2
  2
AIGNBL02020179
 70
64
 10
0
 20
0
 30
0
  3
AIGNBL02020179
  0
POLYLINE
  8
LAYER_2
 40
0.1764
 41
0.1764
 66
1
 10
0
 20
0
 30
0
  0
VERTEX
  8
LAYER_2
 10
135.0439
 20
-93.9775
  0
VERTEX
  8
LAYER_2
 10
135.0439
 20
-94.2337
  0
SEQEND
  0
ENDBLK
  0
BLOCK
  8
LAYER_2
  2
AIGNBL0202017A
 70
64
 10
0
 20
0
 30
0
  3
AIGNBL0202017A
  0
POLYLINE
  8
LAYER_2
 40
0.1764
 41
0.1764
 66
1
 10
0
 20
0
 30
0
  0
VERTEX
  8
LAYER_2
 10
134.9743
 20
-93.9775
  0
VERTEX
  8
LAYER_2
 10
134.7958
 20
-93.9775
  0
SEQEND
  0
ENDBLK
  0
BLOCK
  8
LAYER_2
  2
AIGNBL0202017B
 70
64
 10
0
 20
0
 30
0
  3
AIGNBL0202017B
  0
POLYLINE
  8
LAYER_2
 40
0.1764
 41
0.1764
 66
1
 10
0
 20
0
 30
0
  0
VERTEX
  8
LAYER_2
 10
134.7958
 20
-93.9775
  0
VERTEX
  8
LAYER_2
 10
134.7958
 20
-94.0277
  0
SEQEND
  0
ENDBLK
  0
BLOCK
  8
LAYER_2
  2
AIGNBL0202017C
 70
64
 10
0
 20
0
 30
0
  3
AIGNBL0202017C
  0
POLYLINE
  8
LAYER_2
 40
0.1764
 41
0.1764
 66
1
 10
0
 20
0
 30
0
  0
VERTEX
  8
LAYER_2
 10
134.7958
 20
-94.0277
  0
VERTEX
  8
LAYER_2
 10
134.9073
 20
-94.0277
  0
SEQEND
  0
ENDBLK
  0
BLOCK
  8
LAYER_2
  2
AIGNBL0202017D
 70
64
 10
0
 20
0
 30
0
  3
AIGNBL0202017D
  0
POLYLINE
  8
LAYER_2
 40
0.1764
 41
0.1764
 66
1
 10
0
 20
0
 30
0
  0
VERTEX
  8
LAYER_2
 10
134.7803
 20
-94.1838
  0
VERTEX
  8
LAYER_2
 10
134.7803
 20
-94.2337
  0
SEQEND
  0
ENDBLK
  0
BLOCK
  8
LAYER_2
  2
AIGNBL0202017E
 70
64
 10
0
 20
0
 30
0
  3
AIGNBL0202017E
  0
POLYLINE
  8
LAYER_2
 40
0.1764
 41
0.1764
 66
1
 10
0
 20
0
 30
0
  0
VERTEX
  8
LAYER_2
 10
134.9073
 20
-94.1838
  0
VERTEX
  8
LAYER_2
 10
134.7803
 20
-94.1838
  0
SEQEND
  0
ENDBLK
  0
BLOCK
  8
LAYER_2
  2
AIGNBL0202017F
 70
64
 10
0
 20
0
 30
0
  3
AIGNBL0202017F
  0
POLYLINE
  8
LAYER_2
 40
0.1764
 41
0.1764
 66
1
 10
0
 20
0
 30
0
  0
VERTEX
  8
LAYER_2
 10
134.9073
 20
-94.1225
  0
VERTEX
  8
LAYER_2
 10
134.9073
 20
-94.1838
  0
SEQEND
  0
ENDBLK
  0
BLOCK
  8
LAYER_2
  2
AIGNBL02020180
 70
64
 10
0
 20
0
 30
0
  3
AIGNBL02020180
  0
POLYLINE
  8
LAYER_2
 40
0.1764
 41
0.1764
 66
1
 10
0
 20
0
 30
0
  0
VERTEX
  8
LAYER_2
 10
134.8142
 20
-94.1225
  0
VERTEX
  8
LAYER_2
 10
134.9073
 20
-94.1225
  0
SEQEND
  0
ENDBLK
  0
BLOCK
  8
LAYER_2
  2
AIGNBL02020181
 70
64
 10
0
 20
0
 30
0
  3
AIGNBL02020181
  0
POLYLINE
  8
LAYER_2
 40
0.1764
 41
0.1764
 66
1
 10
0
 20
0
 30
0
  0
VERTEX
  8
LAYER_2
 10
134.8142
 20
-94.0749
  0
VERTEX
  8
LAYER_2
 10
134.8142
 20
-94.1225
  0
SEQEND
  0
ENDBLK
  0
BLOCK
  8
LAYER_2
  2
AIGNBL02020182
 70
64
 10
0
 20
0
 30
0
  3
AIGNBL02020182
  0
POLYLINE
  8
LAYER_2
 40
0.1764
 41
0.1764
 66
1
 10
0
 20
0
 30
0
  0
VERTEX
  8
LAYER_2
 10
134.9073
 20
-94.0749
  0
VERTEX
  8
LAYER_2
 10
134.8142
 20
-94.0749
  0
SEQEND
  0
ENDBLK
  0
BLOCK
  8
LAYER_2
  2
AIGNBL02020183
 70
64
 10
0
 20
0
 30
0
  3
AIGNBL02020183
  0
POLYLINE
  8
LAYER_2
 40
0.1764
 41
0.1764
 66
1
 10
0
 20
0
 30
0
  0
VERTEX
  8
LAYER_2
 10
134.9073
 20
-94.0277
  0
VERTEX
  8
LAYER_2
 10
134.9073
 20
-94.0749
  0
SEQEND
  0
ENDBLK
  0
BLOCK
  8
LAYER_2
  2
AIGNBL02020184
 70
64
 10
0
 20
0
 30
0
  3
AIGNBL02020184
  0
POLYLINE
  8
LAYER_2
 40
0.1764
 41
0.1764
 66
1
 10
0
 20
0
 30
0
  0
VERTEX
  8
LAYER_2
 10
134.9743
 20
-94.2337
  0
VERTEX
  8
LAYER_2
 10
134.9743
 20
-93.9775
  0
SEQEND
  0
ENDBLK
  0
BLOCK
  8
LAYER_2
  2
AIGNBL02020185
 70
64
 10
0
 20
0
 30
0
  3
AIGNBL02020185
  0
POLYLINE
  8
LAYER_2
 40
0.1764
 41
0.1764
 66
1
 10
0
 20
0
 30
0
  0
VERTEX
  8
LAYER_2
 10
134.7803
 20
-94.2337
  0
VERTEX
  8
LAYER_2
 10
134.9743
 20
-94.2337
  0
SEQEND
  0
ENDBLK
  0
BLOCK
  8
LAYER_2
  2
AIGNBL02020186
 70
64
 10
0
 20
0
 30
0
  3
AIGNBL02020186
  0
POLYLINE
  8
LAYER_2
 40
0.1764
 41
0.1764
 66
1
 10
0
 20
0
 30
0
  0
VERTEX
  8
LAYER_2
 10
134.8253
 20
-94.3599
  0
VERTEX
  8
LAYER_2
 10
134.8446
 20
-94.3864
  0
SEQEND
  0
ENDBLK
  0
BLOCK
  8
LAYER_2
  2
AIGNBL02020187
 70
64
 10
0
 20
0
 30
0
  3
AIGNBL02020187
  0
POLYLINE
  8
LAYER_2
 40
0.1764
 41
0.1764
 66
1
 10
0
 20
0
 30
0
  0
VERTEX
  8
LAYER_2
 10
134.8224
 20
-94.3548
  0
VERTEX
  8
LAYER_2
 10
134.8253
 20
-94.3599
  0
SEQEND
  0
ENDBLK
  0
BLOCK
  8
LAYER_2
  2
AIGNBL02020188
 70
64
 10
0
 20
0
 30
0
  3
AIGNBL02020188
  0
POLYLINE
  8
LAYER_2
 40
0.1764
 41
0.1764
 66
1
 10
0
 20
0
 30
0
  0
VERTEX
  8
LAYER_2
 10
134.8725
 20
-94.3604
  0
VERTEX
  8
LAYER_2
 10
134.8224
 20
-94.3548
  0
SEQEND
  0
ENDBLK
  0
BLOCK
  8
LAYER_2
  2
AIGNBL02020189
 70
64
 10
0
 20
0
 30
0
  3
AIGNBL02020189
  0
POLYLINE
  8
LAYER_2
 40
0.1764
 41
0.1764
 66
1
 10
0
 20
0
 30
0
  0
VERTEX
  8
LAYER_2
 10
135.0658
 20
-94.341
  0
VERTEX
  8
LAYER_2
 10
135.1885
 20
-94.3162
  0
SEQEND
  0
ENDBLK
  0
BLOCK
  8
LAYER_2
  2
AIGNBL0202018A
 70
64
 10
0
 20
0
 30
0
  3
AIGNBL0202018A
  0
POLYLINE
  8
LAYER_2
 40
0.1764
 41
0.1764
 66
1
 10
0
 20
0
 30
0
  0
VERTEX
  8
LAYER_2
 10
135.0658
 20
-94.3114
  0
VERTEX
  8
LAYER_2
 10
135.1888
 20
-94.2886
  0
SEQEND
  0
ENDBLK
  0
BLOCK
  8
LAYER_2
  2
AIGNBL0202018B
 70
64
 10
0
 20
0
 30
0
  3
AIGNBL0202018B
  0
POLYLINE
  8
LAYER_2
 40
0.1764
 41
0.1764
 66
1
 10
0
 20
0
 30
0
  0
VERTEX
  8
LAYER_2
 10
135.8205
 20
-94.2886
  0
VERTEX
  8
LAYER_2
 10
135.9429
 20
-94.3112
  0
SEQEND
  0
ENDBLK
  0
BLOCK
  8
LAYER_2
  2
AIGNBL0202018C
 70
64
 10
0
 20
0
 30
0
  3
AIGNBL0202018C
  0
POLYLINE
  8
LAYER_2
 40
0.1764
 41
0.1764
 66
1
 10
0
 20
0
 30
0
  0
VERTEX
  8
LAYER_2
 10
135.8205
 20
-94.3162
  0
VERTEX
  8
LAYER_2
 10
135.9435
 20
-94.341
  0
SEQEND
  0
ENDBLK
  0
BLOCK
  8
LAYER_2
  2
AIGNBL0202018D
 70
64
 10
0
 20
0
 30
0
  3
AIGNBL0202018D
  0
POLYLINE
  8
LAYER_2
 40
0.1764
 41
0.1764
 66
1
 10
0
 20
0
 30
0
  0
VERTEX
  8
LAYER_2
 10
135.1885
 20
-94.3162
  0
VERTEX
  8
LAYER_2
 10
135.2939
 20
-94.3356
  0
SEQEND
  0
ENDBLK
  0
BLOCK
  8
LAYER_2
  2
AIGNBL0202018E
 70
64
 10
0
 20
0
 30
0
  3
AIGNBL0202018E
  0
POLYLINE
  8
LAYER_2
 40
0.1764
 41
0.1764
 66
1
 10
0
 20
0
 30
0
  0
VERTEX
  8
LAYER_2
 10
135.1888
 20
-94.2886
  0
VERTEX
  8
LAYER_2
 10
135.3112
 20
-94.3114
  0
SEQEND
  0
ENDBLK
  0
BLOCK
  8
LAYER_2
  2
AIGNBL0202018F
 70
64
 10
0
 20
0
 30
0
  3
AIGNBL0202018F
  0
POLYLINE
  8
LAYER_2
 40
0.1764
 41
0.1764
 66
1
 10
0
 20
0
 30
0
  0
VERTEX
  8
LAYER_2
 10
135.3816
 20
-94.3351
  0
VERTEX
  8
LAYER_2
 10
135.3112
 20
-94.3114
  0
SEQEND
  0
ENDBLK
  0
BLOCK
  8
LAYER_2
  2
AIGNBL02020190
 70
64
 10
0
 20
0
 30
0
  3
AIGNBL02020190
  0
POLYLINE
  8
LAYER_2
 40
0.1764
 41
0.1764
 66
1
 10
0
 20
0
 30
0
  0
VERTEX
  8
LAYER_2
 10
135.5047
 20
-94.3604
  0
VERTEX
  8
LAYER_2
 10
135.3816
 20
-94.3351
  0
SEQEND
  0
ENDBLK
  0
BLOCK
  8
LAYER_2
  2
AIGNBL02020191
 70
64
 10
0
 20
0
 30
0
  3
AIGNBL02020191
  0
POLYLINE
  8
LAYER_2
 40
0.1764
 41
0.1764
 66
1
 10
0
 20
0
 30
0
  0
VERTEX
  8
LAYER_2
 10
135.6273
 20
-94.3351
  0
VERTEX
  8
LAYER_2
 10
135.5047
 20
-94.3604
  0
SEQEND
  0
ENDBLK
  0
BLOCK
  8
LAYER_2
  2
AIGNBL02020192
 70
64
 10
0
 20
0
 30
0
  3
AIGNBL02020192
  0
POLYLINE
  8
LAYER_2
 40
0.1764
 41
0.1764
 66
1
 10
0
 20
0
 30
0
  0
VERTEX
  8
LAYER_2
 10
135.6977
 20
-94.3114
  0
VERTEX
  8
LAYER_2
 10
135.6273
 20
-94.3351
  0
SEQEND
  0
ENDBLK
  0
BLOCK
  8
LAYER_2
  2
AIGNBL02020193
 70
64
 10
0
 20
0
 30
0
  3
AIGNBL02020193
  0
POLYLINE
  8
LAYER_2
 40
0.1764
 41
0.1764
 66
1
 10
0
 20
0
 30
0
  0
VERTEX
  8
LAYER_2
 10
135.6977
 20
-94.3114
  0
VERTEX
  8
LAYER_2
 10
135.8205
 20
-94.2886
  0
SEQEND
  0
ENDBLK
  0
BLOCK
  8
LAYER_2
  2
AIGNBL02020194
 70
64
 10
0
 20
0
 30
0
  3
AIGNBL02020194
  0
POLYLINE
  8
LAYER_2
 40
0.1764
 41
0.1764
 66
1
 10
0
 20
0
 30
0
  0
VERTEX
  8
LAYER_2
 10
135.7157
 20
-94.3354
  0
VERTEX
  8
LAYER_2
 10
135.8205
 20
-94.3162
  0
SEQEND
  0
ENDBLK
  0
BLOCK
  8
LAYER_2
  2
AIGNBL02020195
 70
64
 10
0
 20
0
 30
0
  3
AIGNBL02020195
  0
POLYLINE
  8
LAYER_2
 40
0.1764
 41
0.1764
 66
1
 10
0
 20
0
 30
0
  0
VERTEX
  8
LAYER_2
 10
135.6273
 20
-94.3647
  0
VERTEX
  8
LAYER_2
 10
135.7157
 20
-94.3354
  0
SEQEND
  0
ENDBLK
  0
BLOCK
  8
LAYER_2
  2
AIGNBL02020196
 70
64
 10
0
 20
0
 30
0
  3
AIGNBL02020196
  0
POLYLINE
  8
LAYER_2
 40
0.1764
 41
0.1764
 66
1
 10
0
 20
0
 30
0
  0
VERTEX
  8
LAYER_2
 10
135.6273
 20
-94.3647
  0
VERTEX
  8
LAYER_2
 10
135.5044
 20
-94.3884
  0
SEQEND
  0
ENDBLK
  0
BLOCK
  8
LAYER_2
  2
AIGNBL02020197
 70
64
 10
0
 20
0
 30
0
  3
AIGNBL02020197
  0
POLYLINE
  8
LAYER_2
 40
0.1764
 41
0.1764
 66
1
 10
0
 20
0
 30
0
  0
VERTEX
  8
LAYER_2
 10
135.5044
 20
-94.3884
  0
VERTEX
  8
LAYER_2
 10
135.3816
 20
-94.3647
  0
SEQEND
  0
ENDBLK
  0
BLOCK
  8
LAYER_2
  2
AIGNBL02020198
 70
64
 10
0
 20
0
 30
0
  3
AIGNBL02020198
  0
POLYLINE
  8
LAYER_2
 40
0.1764
 41
0.1764
 66
1
 10
0
 20
0
 30
0
  0
VERTEX
  8
LAYER_2
 10
135.2939
 20
-94.3356
  0
VERTEX
  8
LAYER_2
 10
135.3816
 20
-94.3647
  0
SEQEND
  0
ENDBLK
  0
BLOCK
  8
LAYER_2
  2
AIGNBL02020199
 70
64
 10
0
 20
0
 30
0
  3
AIGNBL02020199
  0
POLYLINE
  8
LAYER_2
 40
0.1764
 41
0.1764
 66
1
 10
0
 20
0
 30
0
  0
VERTEX
  8
LAYER_2
 10
134.9953
 20
-94.3647
  0
VERTEX
  8
LAYER_2
 10
135.0658
 20
-94.341
  0
SEQEND
  0
ENDBLK
  0
BLOCK
  8
LAYER_2
  2
AIGNBL0202019A
 70
64
 10
0
 20
0
 30
0
  3
AIGNBL0202019A
  0
POLYLINE
  8
LAYER_2
 40
0.1764
 41
0.1764
 66
1
 10
0
 20
0
 30
0
  0
VERTEX
  8
LAYER_2
 10
135.0658
 20
-94.3114
  0
VERTEX
  8
LAYER_2
 10
134.9953
 20
-94.3351
  0
SEQEND
  0
ENDBLK
  0
BLOCK
  8
LAYER_2
  2
AIGNBL0202019B
 70
64
 10
0
 20
0
 30
0
  3
AIGNBL0202019B
  0
POLYLINE
  8
LAYER_2
 40
0.1764
 41
0.1764
 66
1
 10
0
 20
0
 30
0
  0
VERTEX
  8
LAYER_2
 10
136.1865
 20
-94.3548
  0
VERTEX
  8
LAYER_2
 10
136.1364
 20
-94.3604
  0
SEQEND
  0
ENDBLK
  0
BLOCK
  8
LAYER_2
  2
AIGNBL0202019C
 70
64
 10
0
 20
0
 30
0
  3
AIGNBL0202019C
  0
POLYLINE
  8
LAYER_2
 40
0.1764
 41
0.1764
 66
1
 10
0
 20
0
 30
0
  0
VERTEX
  8
LAYER_2
 10
136.1837
 20
-94.3599
  0
VERTEX
  8
LAYER_2
 10
136.1865
 20
-94.3548
  0
SEQEND
  0
ENDBLK
  0
BLOCK
  8
LAYER_2
  2
AIGNBL0202019D
 70
64
 10
0
 20
0
 30
0
  3
AIGNBL0202019D
  0
POLYLINE
  8
LAYER_2
 40
0.1764
 41
0.1764
 66
1
 10
0
 20
0
 30
0
  0
VERTEX
  8
LAYER_2
 10
136.1642
 20
-94.3864
  0
VERTEX
  8
LAYER_2
 10
136.1837
 20
-94.3599
  0
SEQEND
  0
ENDBLK
  0
BLOCK
  8
LAYER_2
  2
AIGNBL0202019E
 70
64
 10
0
 20
0
 30
0
  3
AIGNBL0202019E
  0
POLYLINE
  8
LAYER_2
 40
0.1764
 41
0.1764
 66
1
 10
0
 20
0
 30
0
  0
VERTEX
  8
LAYER_2
 10
136.0137
 20
-94.3351
  0
VERTEX
  8
LAYER_2
 10
135.9429
 20
-94.3112
  0
SEQEND
  0
ENDBLK
  0
BLOCK
  8
LAYER_2
  2
AIGNBL0202019F
 70
64
 10
0
 20
0
 30
0
  3
AIGNBL0202019F
  0
POLYLINE
  8
LAYER_2
 40
0.1764
 41
0.1764
 66
1
 10
0
 20
0
 30
0
  0
VERTEX
  8
LAYER_2
 10
135.9435
 20
-94.341
  0
VERTEX
  8
LAYER_2
 10
136.0145
 20
-94.3649
  0
SEQEND
  0
ENDBLK
  0
BLOCK
  8
LAYER_2
  2
AIGNBL020201A0
 70
64
 10
0
 20
0
 30
0
  3
AIGNBL020201A0
  0
POLYLINE
  8
LAYER_2
 40
0.1764
 41
0.1764
 66
1
 10
0
 20
0
 30
0
  0
VERTEX
  8
LAYER_2
 10
134.9953
 20
-94.3351
  0
VERTEX
  8
LAYER_2
 10
134.8725
 20
-94.3604
  0
SEQEND
  0
ENDBLK
  0
BLOCK
  8
LAYER_2
  2
AIGNBL020201A1
 70
64
 10
0
 20
0
 30
0
  3
AIGNBL020201A1
  0
ENDBLK
  0
BLOCK
  8
LAYER_2
  2
AIGNBL020201A2
 70
64
 10
0
 20
0
 30
0
  3
AIGNBL020201A2
  0
POLYLINE
  8
LAYER_2
 40
0.1764
 41
0.1764
 66
1
 10
0
 20
0
 30
0
  0
VERTEX
  8
LAYER_2
 10
134.9953
 20
-94.3647
  0
VERTEX
  8
LAYER_2
 10
134.8721
 20
-94.3884
  0
SEQEND
  0
ENDBLK
  0
BLOCK
  8
LAYER_2
  2
AIGNBL020201A3
 70
64
 10
0
 20
0
 30
0
  3
AIGNBL020201A3
  0
POLYLINE
  8
LAYER_2
 40
0.1764
 41
0.1764
 66
1
 10
0
 20
0
 30
0
  0
VERTEX
  8
LAYER_2
 10
134.8446
 20
-94.3864
  0
VERTEX
  8
LAYER_2
 10
134.8721
 20
-94.3884
  0
SEQEND
  0
ENDBLK
  0
BLOCK
  8
LAYER_2
  2
AIGNBL020201A4
 70
64
 10
0
 20
0
 30
0
  3
AIGNBL020201A4
  0
POLYLINE
  8
LAYER_2
 40
0.1764
 41
0.1764
 66
1
 10
0
 20
0
 30
0
  0
VERTEX
  8
LAYER_2
 10
136.1364
 20
-94.3604
  0
VERTEX
  8
LAYER_2
 10
136.0137
 20
-94.3351
  0
SEQEND
  0
ENDBLK
  0
BLOCK
  8
LAYER_2
  2
AIGNBL020201A5
 70
64
 10
0
 20
0
 30
0
  3
AIGNBL020201A5
  0
POLYLINE
  8
LAYER_2
 40
0.1764
 41
0.1764
 66
1
 10
0
 20
0
 30
0
  0
VERTEX
  8
LAYER_2
 10
136.1372
 20
-94.3884
  0
VERTEX
  8
LAYER_2
 10
136.1642
 20
-94.3864
  0
SEQEND
  0
ENDBLK
  0
BLOCK
  8
LAYER_2
  2
AIGNBL020201A6
 70
64
 10
0
 20
0
 30
0
  3
AIGNBL020201A6
  0
POLYLINE
  8
LAYER_2
 40
0.1764
 41
0.1764
 66
1
 10
0
 20
0
 30
0
  0
VERTEX
  8
LAYER_2
 10
136.1372
 20
-94.3884
  0
VERTEX
  8
LAYER_2
 10
136.0145
 20
-94.3649
  0
SEQEND
  0
ENDBLK
  0
BLOCK
  8
LAYER_2
  2
AIGNBL020201A7
 70
64
 10
0
 20
0
 30
0
  3
AIGNBL020201A7
  0
POLYLINE
  8
LAYER_2
 40
0.1764
 41
0.1764
 66
1
 10
0
 20
0
 30
0
  0
VERTEX
  8
LAYER_2
 10
134.9273
 20
-94.4539
  0
VERTEX
  8
LAYER_2
 10
134.9533
 20
-94.4744
  0
SEQEND
  0
ENDBLK
  0
BLOCK
  8
LAYER_2
  2
AIGNBL020201A8
 70
64
 10
0
 20
0
 30
0
  3
AIGNBL020201A8
  0
POLYLINE
  8
LAYER_2
 40
0.1764
 41
0.1764
 66
1
 10
0
 20
0
 30
0
  0
VERTEX
  8
LAYER_2
 10
136.0565
 20
-94.4744
  0
VERTEX
  8
LAYER_2
 10
136.0825
 20
-94.4539
  0
SEQEND
  0
ENDBLK
  0
BLOCK
  8
LAYER_2
  2
AIGNBL020201A9
 70
64
 10
0
 20
0
 30
0
  3
AIGNBL020201A9
  0
POLYLINE
  8
LAYER_2
 40
0.1764
 41
0.1764
 66
1
 10
0
 20
0
 30
0
  0
VERTEX
  8
LAYER_2
 10
135.1179
 20
-94.3978
  0
VERTEX
  8
LAYER_2
 10
135.1885
 20
-94.3888
  0
SEQEND
  0
ENDBLK
  0
BLOCK
  8
LAYER_2
  2
AIGNBL020201AA
 70
64
 10
0
 20
0
 30
0
  3
AIGNBL020201AA
  0
POLYLINE
  8
LAYER_2
 40
0.1764
 41
0.1764
 66
1
 10
0
 20
0
 30
0
  0
VERTEX
  8
LAYER_2
 10
135.8213
 20
-94.3888
  0
VERTEX
  8
LAYER_2
 10
135.8919
 20
-94.3978
  0
SEQEND
  0
ENDBLK
  0
BLOCK
  8
LAYER_2
  2
AIGNBL020201AB
 70
64
 10
0
 20
0
 30
0
  3
AIGNBL020201AB
  0
POLYLINE
  8
LAYER_2
 40
0.1764
 41
0.1764
 66
1
 10
0
 20
0
 30
0
  0
VERTEX
  8
LAYER_2
 10
135.8213
 20
-94.4164
  0
VERTEX
  8
LAYER_2
 10
135.934
 20
-94.4377
  0
SEQEND
  0
ENDBLK
  0
BLOCK
  8
LAYER_2
  2
AIGNBL020201AC
 70
64
 10
0
 20
0
 30
0
  3
AIGNBL020201AC
  0
POLYLINE
  8
LAYER_2
 40
0.1764
 41
0.1764
 66
1
 10
0
 20
0
 30
0
  0
VERTEX
  8
LAYER_2
 10
135.076
 20
-94.4377
  0
VERTEX
  8
LAYER_2
 10
135.1885
 20
-94.4164
  0
SEQEND
  0
ENDBLK
  0
BLOCK
  8
LAYER_2
  2
AIGNBL020201AD
 70
64
 10
0
 20
0
 30
0
  3
AIGNBL020201AD
  0
POLYLINE
  8
LAYER_2
 40
0.1764
 41
0.1764
 66
1
 10
0
 20
0
 30
0
  0
VERTEX
  8
LAYER_2
 10
135.1885
 20
-94.3888
  0
VERTEX
  8
LAYER_2
 10
135.3112
 20
-94.4117
  0
SEQEND
  0
ENDBLK
  0
BLOCK
  8
LAYER_2
  2
AIGNBL020201AE
 70
64
 10
0
 20
0
 30
0
  3
AIGNBL020201AE
  0
POLYLINE
  8
LAYER_2
 40
0.1764
 41
0.1764
 66
1
 10
0
 20
0
 30
0
  0
VERTEX
  8
LAYER_2
 10
135.3816
 20
-94.4357
  0
VERTEX
  8
LAYER_2
 10
135.3112
 20
-94.4117
  0
SEQEND
  0
ENDBLK
  0
BLOCK
  8
LAYER_2
  2
AIGNBL020201AF
 70
64
 10
0
 20
0
 30
0
  3
AIGNBL020201AF
  0
POLYLINE
  8
LAYER_2
 40
0.1764
 41
0.1764
 66
1
 10
0
 20
0
 30
0
  0
VERTEX
  8
LAYER_2
 10
135.5049
 20
-94.4606
  0
VERTEX
  8
LAYER_2
 10
135.3816
 20
-94.4357
  0
SEQEND
  0
ENDBLK
  0
BLOCK
  8
LAYER_2
  2
AIGNBL020201B0
 70
64
 10
0
 20
0
 30
0
  3
AIGNBL020201B0
  0
POLYLINE
  8
LAYER_2
 40
0.1764
 41
0.1764
 66
1
 10
0
 20
0
 30
0
  0
VERTEX
  8
LAYER_2
 10
135.628
 20
-94.4357
  0
VERTEX
  8
LAYER_2
 10
135.5049
 20
-94.4606
  0
SEQEND
  0
ENDBLK
  0
BLOCK
  8
LAYER_2
  2
AIGNBL020201B1
 70
64
 10
0
 20
0
 30
0
  3
AIGNBL020201B1
  0
POLYLINE
  8
LAYER_2
 40
0.1764
 41
0.1764
 66
1
 10
0
 20
0
 30
0
  0
VERTEX
  8
LAYER_2
 10
135.6983
 20
-94.4117
  0
VERTEX
  8
LAYER_2
 10
135.628
 20
-94.4357
  0
SEQEND
  0
ENDBLK
  0
BLOCK
  8
LAYER_2
  2
AIGNBL020201B2
 70
64
 10
0
 20
0
 30
0
  3
AIGNBL020201B2
  0
POLYLINE
  8
LAYER_2
 40
0.1764
 41
0.1764
 66
1
 10
0
 20
0
 30
0
  0
VERTEX
  8
LAYER_2
 10
135.6983
 20
-94.4117
  0
VERTEX
  8
LAYER_2
 10
135.8213
 20
-94.3888
  0
SEQEND
  0
ENDBLK
  0
BLOCK
  8
LAYER_2
  2
AIGNBL020201B3
 70
64
 10
0
 20
0
 30
0
  3
AIGNBL020201B3
  0
POLYLINE
  8
LAYER_2
 40
0.1764
 41
0.1764
 66
1
 10
0
 20
0
 30
0
  0
VERTEX
  8
LAYER_2
 10
135.7162
 20
-94.4356
  0
VERTEX
  8
LAYER_2
 10
135.8213
 20
-94.4164
  0
SEQEND
  0
ENDBLK
  0
BLOCK
  8
LAYER_2
  2
AIGNBL020201B4
 70
64
 10
0
 20
0
 30
0
  3
AIGNBL020201B4
  0
POLYLINE
  8
LAYER_2
 40
0.1764
 41
0.1764
 66
1
 10
0
 20
0
 30
0
  0
VERTEX
  8
LAYER_2
 10
135.6276
 20
-94.4655
  0
VERTEX
  8
LAYER_2
 10
135.7162
 20
-94.4356
  0
SEQEND
  0
ENDBLK
  0
BLOCK
  8
LAYER_2
  2
AIGNBL020201B5
 70
64
 10
0
 20
0
 30
0
  3
AIGNBL020201B5
  0
POLYLINE
  8
LAYER_2
 40
0.1764
 41
0.1764
 66
1
 10
0
 20
0
 30
0
  0
VERTEX
  8
LAYER_2
 10
135.6276
 20
-94.4655
  0
VERTEX
  8
LAYER_2
 10
135.5049
 20
-94.4889
  0
SEQEND
  0
ENDBLK
  0
BLOCK
  8
LAYER_2
  2
AIGNBL020201B6
 70
64
 10
0
 20
0
 30
0
  3
AIGNBL020201B6
  0
POLYLINE
  8
LAYER_2
 40
0.1764
 41
0.1764
 66
1
 10
0
 20
0
 30
0
  0
VERTEX
  8
LAYER_2
 10
135.5049
 20
-94.4889
  0
VERTEX
  8
LAYER_2
 10
135.3817
 20
-94.4653
  0
SEQEND
  0
ENDBLK
  0
BLOCK
  8
LAYER_2
  2
AIGNBL020201B7
 70
64
 10
0
 20
0
 30
0
  3
AIGNBL020201B7
  0
POLYLINE
  8
LAYER_2
 40
0.1764
 41
0.1764
 66
1
 10
0
 20
0
 30
0
  0
VERTEX
  8
LAYER_2
 10
135.2939
 20
-94.4357
  0
VERTEX
  8
LAYER_2
 10
135.3817
 20
-94.4653
  0
SEQEND
  0
ENDBLK
  0
BLOCK
  8
LAYER_2
  2
AIGNBL020201B8
 70
64
 10
0
 20
0
 30
0
  3
AIGNBL020201B8
  0
POLYLINE
  8
LAYER_2
 40
0.1764
 41
0.1764
 66
1
 10
0
 20
0
 30
0
  0
VERTEX
  8
LAYER_2
 10
135.1885
 20
-94.4164
  0
VERTEX
  8
LAYER_2
 10
135.2939
 20
-94.4357
  0
SEQEND
  0
ENDBLK
  0
BLOCK
  8
LAYER_2
  2
AIGNBL020201B9
 70
64
 10
0
 20
0
 30
0
  3
AIGNBL020201B9
  0
POLYLINE
  8
LAYER_2
 40
0.1764
 41
0.1764
 66
1
 10
0
 20
0
 30
0
  0
VERTEX
  8
LAYER_2
 10
135.9803
 20
-94.4224
  0
VERTEX
  8
LAYER_2
 10
135.8919
 20
-94.3978
  0
SEQEND
  0
ENDBLK
  0
BLOCK
  8
LAYER_2
  2
AIGNBL020201BA
 70
64
 10
0
 20
0
 30
0
  3
AIGNBL020201BA
  0
POLYLINE
  8
LAYER_2
 40
0.1764
 41
0.1764
 66
1
 10
0
 20
0
 30
0
  0
VERTEX
  8
LAYER_2
 10
135.934
 20
-94.4377
  0
VERTEX
  8
LAYER_2
 10
135.9997
 20
-94.457
  0
SEQEND
  0
ENDBLK
  0
BLOCK
  8
LAYER_2
  2
AIGNBL020201BB
 70
64
 10
0
 20
0
 30
0
  3
AIGNBL020201BB
  0
POLYLINE
  8
LAYER_2
 40
0.1764
 41
0.1764
 66
1
 10
0
 20
0
 30
0
  0
VERTEX
  8
LAYER_2
 10
135.0102
 20
-94.457
  0
VERTEX
  8
LAYER_2
 10
135.076
 20
-94.4377
  0
SEQEND
  0
ENDBLK
  0
BLOCK
  8
LAYER_2
  2
AIGNBL020201BC
 70
64
 10
0
 20
0
 30
0
  3
AIGNBL020201BC
  0
POLYLINE
  8
LAYER_2
 40
0.1764
 41
0.1764
 66
1
 10
0
 20
0
 30
0
  0
VERTEX
  8
LAYER_2
 10
135.0295
 20
-94.4224
  0
VERTEX
  8
LAYER_2
 10
135.1179
 20
-94.3978
  0
SEQEND
  0
ENDBLK
  0
BLOCK
  8
LAYER_2
  2
AIGNBL020201BD
 70
64
 10
0
 20
0
 30
0
  3
AIGNBL020201BD
  0
POLYLINE
  8
LAYER_2
 40
0.1764
 41
0.1764
 66
1
 10
0
 20
0
 30
0
  0
VERTEX
  8
LAYER_2
 10
136.0825
 20
-94.4539
  0
VERTEX
  8
LAYER_2
 10
135.9803
 20
-94.4224
  0
SEQEND
  0
ENDBLK
  0
BLOCK
  8
LAYER_2
  2
AIGNBL020201BE
 70
64
 10
0
 20
0
 30
0
  3
AIGNBL020201BE
  0
POLYLINE
  8
LAYER_2
 40
0.1764
 41
0.1764
 66
1
 10
0
 20
0
 30
0
  0
VERTEX
  8
LAYER_2
 10
135.9997
 20
-94.457
  0
VERTEX
  8
LAYER_2
 10
136.0565
 20
-94.4744
  0
SEQEND
  0
ENDBLK
  0
BLOCK
  8
LAYER_2
  2
AIGNBL020201BF
 70
64
 10
0
 20
0
 30
0
  3
AIGNBL020201BF
  0
POLYLINE
  8
LAYER_2
 40
0.1764
 41
0.1764
 66
1
 10
0
 20
0
 30
0
  0
VERTEX
  8
LAYER_2
 10
134.9533
 20
-94.4744
  0
VERTEX
  8
LAYER_2
 10
135.0102
 20
-94.457
  0
SEQEND
  0
ENDBLK
  0
BLOCK
  8
LAYER_2
  2
AIGNBL020201C0
 70
64
 10
0
 20
0
 30
0
  3
AIGNBL020201C0
  0
POLYLINE
  8
LAYER_2
 40
0.1764
 41
0.1764
 66
1
 10
0
 20
0
 30
0
  0
VERTEX
  8
LAYER_2
 10
135.0295
 20
-94.4224
  0
VERTEX
  8
LAYER_2
 10
134.9273
 20
-94.4539
  0
SEQEND
  0
ENDBLK
  0
BLOCK
  8
LAYER_2
  2
AIGNBL020201C1
 70
64
 10
0
 20
0
 30
0
  3
AIGNBL020201C1
  0
POLYLINE
  8
LAYER_2
 40
0.1764
 41
0.1764
 66
1
 10
0
 20
0
 30
0
  0
VERTEX
  8
LAYER_2
 10
135.3112
 20
-94.5122
  0
VERTEX
  8
LAYER_2
 10
135.2939
 20
-94.5071
  0
SEQEND
  0
ENDBLK
  0
BLOCK
  8
LAYER_2
  2
AIGNBL020201C2
 70
64
 10
0
 20
0
 30
0
  3
AIGNBL020201C2
  0
POLYLINE
  8
LAYER_2
 40
0.1764
 41
0.1764
 66
1
 10
0
 20
0
 30
0
  0
VERTEX
  8
LAYER_2
 10
135.329
 20
-94.5181
  0
VERTEX
  8
LAYER_2
 10
135.3112
 20
-94.5122
  0
SEQEND
  0
ENDBLK
  0
BLOCK
  8
LAYER_2
  2
AIGNBL020201C3
 70
64
 10
0
 20
0
 30
0
  3
AIGNBL020201C3
  0
POLYLINE
  8
LAYER_2
 40
0.1764
 41
0.1764
 66
1
 10
0
 20
0
 30
0
  0
VERTEX
  8
LAYER_2
 10
135.3465
 20
-94.524
  0
VERTEX
  8
LAYER_2
 10
135.329
 20
-94.5181
  0
SEQEND
  0
ENDBLK
  0
BLOCK
  8
LAYER_2
  2
AIGNBL020201C4
 70
64
 10
0
 20
0
 30
0
  3
AIGNBL020201C4
  0
POLYLINE
  8
LAYER_2
 40
0.1764
 41
0.1764
 66
1
 10
0
 20
0
 30
0
  0
VERTEX
  8
LAYER_2
 10
135.3642
 20
-94.5301
  0
VERTEX
  8
LAYER_2
 10
135.3465
 20
-94.524
  0
SEQEND
  0
ENDBLK
  0
BLOCK
  8
LAYER_2
  2
AIGNBL020201C5
 70
64
 10
0
 20
0
 30
0
  3
AIGNBL020201C5
  0
POLYLINE
  8
LAYER_2
 40
0.1764
 41
0.1764
 66
1
 10
0
 20
0
 30
0
  0
VERTEX
  8
LAYER_2
 10
135.3816
 20
-94.536
  0
VERTEX
  8
LAYER_2
 10
135.3642
 20
-94.5301
  0
SEQEND
  0
ENDBLK
  0
BLOCK
  8
LAYER_2
  2
AIGNBL020201C6
 70
64
 10
0
 20
0
 30
0
  3
AIGNBL020201C6
  0
POLYLINE
  8
LAYER_2
 40
0.1764
 41
0.1764
 66
1
 10
0
 20
0
 30
0
  0
VERTEX
  8
LAYER_2
 10
135.6273
 20
-94.536
  0
VERTEX
  8
LAYER_2
 10
135.6098
 20
-94.5415
  0
SEQEND
  0
ENDBLK
  0
BLOCK
  8
LAYER_2
  2
AIGNBL020201C7
 70
64
 10
0
 20
0
 30
0
  3
AIGNBL020201C7
  0
POLYLINE
  8
LAYER_2
 40
0.1764
 41
0.1764
 66
1
 10
0
 20
0
 30
0
  0
VERTEX
  8
LAYER_2
 10
135.6449
 20
-94.5301
  0
VERTEX
  8
LAYER_2
 10
135.6273
 20
-94.536
  0
SEQEND
  0
ENDBLK
  0
BLOCK
  8
LAYER_2
  2
AIGNBL020201C8
 70
64
 10
0
 20
0
 30
0
  3
AIGNBL020201C8
  0
POLYLINE
  8
LAYER_2
 40
0.1764
 41
0.1764
 66
1
 10
0
 20
0
 30
0
  0
VERTEX
  8
LAYER_2
 10
135.6624
 20
-94.524
  0
VERTEX
  8
LAYER_2
 10
135.6449
 20
-94.5301
  0
SEQEND
  0
ENDBLK
  0
BLOCK
  8
LAYER_2
  2
AIGNBL020201C9
 70
64
 10
0
 20
0
 30
0
  3
AIGNBL020201C9
  0
POLYLINE
  8
LAYER_2
 40
0.1764
 41
0.1764
 66
1
 10
0
 20
0
 30
0
  0
VERTEX
  8
LAYER_2
 10
135.6801
 20
-94.5181
  0
VERTEX
  8
LAYER_2
 10
135.6624
 20
-94.524
  0
SEQEND
  0
ENDBLK
  0
BLOCK
  8
LAYER_2
  2
AIGNBL020201CA
 70
64
 10
0
 20
0
 30
0
  3
AIGNBL020201CA
  0
POLYLINE
  8
LAYER_2
 40
0.1764
 41
0.1764
 66
1
 10
0
 20
0
 30
0
  0
VERTEX
  8
LAYER_2
 10
135.6977
 20
-94.5122
  0
VERTEX
  8
LAYER_2
 10
135.6801
 20
-94.5181
  0
SEQEND
  0
ENDBLK
  0
BLOCK
  8
LAYER_2
  2
AIGNBL020201CB
 70
64
 10
0
 20
0
 30
0
  3
AIGNBL020201CB
  0
POLYLINE
  8
LAYER_2
 40
0.1764
 41
0.1764
 66
1
 10
0
 20
0
 30
0
  0
VERTEX
  8
LAYER_2
 10
135.6977
 20
-94.5122
  0
VERTEX
  8
LAYER_2
 10
135.8205
 20
-94.4889
  0
SEQEND
  0
ENDBLK
  0
BLOCK
  8
LAYER_2
  2
AIGNBL020201CC
 70
64
 10
0
 20
0
 30
0
  3
AIGNBL020201CC
  0
POLYLINE
  8
LAYER_2
 40
0.1764
 41
0.1764
 66
1
 10
0
 20
0
 30
0
  0
VERTEX
  8
LAYER_2
 10
135.8205
 20
-94.4889
  0
VERTEX
  8
LAYER_2
 10
135.9259
 20
-94.5071
  0
SEQEND
  0
ENDBLK
  0
BLOCK
  8
LAYER_2
  2
AIGNBL020201CD
 70
64
 10
0
 20
0
 30
0
  3
AIGNBL020201CD
  0
POLYLINE
  8
LAYER_2
 40
0.1764
 41
0.1764
 66
1
 10
0
 20
0
 30
0
  0
VERTEX
  8
LAYER_2
 10
135.9434
 20
-94.5122
  0
VERTEX
  8
LAYER_2
 10
135.9259
 20
-94.5071
  0
SEQEND
  0
ENDBLK
  0
BLOCK
  8
LAYER_2
  2
AIGNBL020201CE
 70
64
 10
0
 20
0
 30
0
  3
AIGNBL020201CE
  0
POLYLINE
  8
LAYER_2
 40
0.1764
 41
0.1764
 66
1
 10
0
 20
0
 30
0
  0
VERTEX
  8
LAYER_2
 10
135.9241
 20
-94.5364
  0
VERTEX
  8
LAYER_2
 10
135.9321
 20
-94.5387
  0
SEQEND
  0
ENDBLK
  0
BLOCK
  8
LAYER_2
  2
AIGNBL020201CF
 70
64
 10
0
 20
0
 30
0
  3
AIGNBL020201CF
  0
POLYLINE
  8
LAYER_2
 40
0.1764
 41
0.1764
 66
1
 10
0
 20
0
 30
0
  0
VERTEX
  8
LAYER_2
 10
135.8202
 20
-94.517
  0
VERTEX
  8
LAYER_2
 10
135.9241
 20
-94.5364
  0
SEQEND
  0
ENDBLK
  0
BLOCK
  8
LAYER_2
  2
AIGNBL020201D0
 70
64
 10
0
 20
0
 30
0
  3
AIGNBL020201D0
  0
POLYLINE
  8
LAYER_2
 40
0.1764
 41
0.1764
 66
1
 10
0
 20
0
 30
0
  0
VERTEX
  8
LAYER_2
 10
135.7327
 20
-94.5313
  0
VERTEX
  8
LAYER_2
 10
135.8202
 20
-94.517
  0
SEQEND
  0
ENDBLK
  0
BLOCK
  8
LAYER_2
  2
AIGNBL020201D1
 70
64
 10
0
 20
0
 30
0
  3
AIGNBL020201D1
  0
POLYLINE
  8
LAYER_2
 40
0.1764
 41
0.1764
 66
1
 10
0
 20
0
 30
0
  0
VERTEX
  8
LAYER_2
 10
135.7151
 20
-94.5364
  0
VERTEX
  8
LAYER_2
 10
135.7327
 20
-94.5313
  0
SEQEND
  0
ENDBLK
  0
BLOCK
  8
LAYER_2
  2
AIGNBL020201D2
 70
64
 10
0
 20
0
 30
0
  3
AIGNBL020201D2
  0
POLYLINE
  8
LAYER_2
 40
0.1764
 41
0.1764
 66
1
 10
0
 20
0
 30
0
  0
VERTEX
  8
LAYER_2
 10
135.6977
 20
-94.5419
  0
VERTEX
  8
LAYER_2
 10
135.7151
 20
-94.5364
  0
SEQEND
  0
ENDBLK
  0
BLOCK
  8
LAYER_2
  2
AIGNBL020201D3
 70
64
 10
0
 20
0
 30
0
  3
AIGNBL020201D3
  0
POLYLINE
  8
LAYER_2
 40
0.1764
 41
0.1764
 66
1
 10
0
 20
0
 30
0
  0
VERTEX
  8
LAYER_2
 10
135.6801
 20
-94.5478
  0
VERTEX
  8
LAYER_2
 10
135.6977
 20
-94.5419
  0
SEQEND
  0
ENDBLK
  0
BLOCK
  8
LAYER_2
  2
AIGNBL020201D4
 70
64
 10
0
 20
0
 30
0
  3
AIGNBL020201D4
  0
POLYLINE
  8
LAYER_2
 40
0.1764
 41
0.1764
 66
1
 10
0
 20
0
 30
0
  0
VERTEX
  8
LAYER_2
 10
135.3112
 20
-94.5419
  0
VERTEX
  8
LAYER_2
 10
135.329
 20
-94.5478
  0
SEQEND
  0
ENDBLK
  0
BLOCK
  8
LAYER_2
  2
AIGNBL020201D5
 70
64
 10
0
 20
0
 30
0
  3
AIGNBL020201D5
  0
POLYLINE
  8
LAYER_2
 40
0.1764
 41
0.1764
 66
1
 10
0
 20
0
 30
0
  0
VERTEX
  8
LAYER_2
 10
135.2939
 20
-94.5364
  0
VERTEX
  8
LAYER_2
 10
135.3112
 20
-94.5419
  0
SEQEND
  0
ENDBLK
  0
BLOCK
  8
LAYER_2
  2
AIGNBL020201D6
 70
64
 10
0
 20
0
 30
0
  3
AIGNBL020201D6
  0
POLYLINE
  8
LAYER_2
 40
0.1764
 41
0.1764
 66
1
 10
0
 20
0
 30
0
  0
VERTEX
  8
LAYER_2
 10
135.1885
 20
-94.517
  0
VERTEX
  8
LAYER_2
 10
135.2939
 20
-94.5364
  0
SEQEND
  0
ENDBLK
  0
BLOCK
  8
LAYER_2
  2
AIGNBL020201D7
 70
64
 10
0
 20
0
 30
0
  3
AIGNBL020201D7
  0
POLYLINE
  8
LAYER_2
 40
0.1764
 41
0.1764
 66
1
 10
0
 20
0
 30
0
  0
VERTEX
  8
LAYER_2
 10
135.085
 20
-94.5364
  0
VERTEX
  8
LAYER_2
 10
135.1885
 20
-94.517
  0
SEQEND
  0
ENDBLK
  0
BLOCK
  8
LAYER_2
  2
AIGNBL020201D8
 70
64
 10
0
 20
0
 30
0
  3
AIGNBL020201D8
  0
POLYLINE
  8
LAYER_2
 40
0.1764
 41
0.1764
 66
1
 10
0
 20
0
 30
0
  0
VERTEX
  8
LAYER_2
 10
135.077
 20
-94.5387
  0
VERTEX
  8
LAYER_2
 10
135.085
 20
-94.5364
  0
SEQEND
  0
ENDBLK
  0
BLOCK
  8
LAYER_2
  2
AIGNBL020201D9
 70
64
 10
0
 20
0
 30
0
  3
AIGNBL020201D9
  0
POLYLINE
  8
LAYER_2
 40
0.1764
 41
0.1764
 66
1
 10
0
 20
0
 30
0
  0
VERTEX
  8
LAYER_2
 10
135.0658
 20
-94.5122
  0
VERTEX
  8
LAYER_2
 10
135.1887
 20
-94.4889
  0
SEQEND
  0
ENDBLK
  0
BLOCK
  8
LAYER_2
  2
AIGNBL020201DA
 70
64
 10
0
 20
0
 30
0
  3
AIGNBL020201DA
  0
POLYLINE
  8
LAYER_2
 40
0.1764
 41
0.1764
 66
1
 10
0
 20
0
 30
0
  0
VERTEX
  8
LAYER_2
 10
135.1887
 20
-94.4889
  0
VERTEX
  8
LAYER_2
 10
135.2939
 20
-94.5071
  0
SEQEND
  0
ENDBLK
  0
BLOCK
  8
LAYER_2
  2
AIGNBL020201DB
 70
64
 10
0
 20
0
 30
0
  3
AIGNBL020201DB
  0
POLYLINE
  8
LAYER_2
 40
0.1764
 41
0.1764
 66
1
 10
0
 20
0
 30
0
  0
VERTEX
  8
LAYER_2
 10
135.9673
 20
-94.5202
  0
VERTEX
  8
LAYER_2
 10
135.9434
 20
-94.5122
  0
SEQEND
  0
ENDBLK
  0
BLOCK
  8
LAYER_2
  2
AIGNBL020201DC
 70
64
 10
0
 20
0
 30
0
  3
AIGNBL020201DC
  0
POLYLINE
  8
LAYER_2
 40
0.1764
 41
0.1764
 66
1
 10
0
 20
0
 30
0
  0
VERTEX
  8
LAYER_2
 10
135.9321
 20
-94.5387
  0
VERTEX
  8
LAYER_2
 10
135.9673
 20
-94.5202
  0
SEQEND
  0
ENDBLK
  0
BLOCK
  8
LAYER_2
  2
AIGNBL020201DD
 70
64
 10
0
 20
0
 30
0
  3
AIGNBL020201DD
  0
POLYLINE
  8
LAYER_2
 40
0.1764
 41
0.1764
 66
1
 10
0
 20
0
 30
0
  0
VERTEX
  8
LAYER_2
 10
135.0417
 20
-94.5202
  0
VERTEX
  8
LAYER_2
 10
135.077
 20
-94.5387
  0
SEQEND
  0
ENDBLK
  0
BLOCK
  8
LAYER_2
  2
AIGNBL020201DE
 70
64
 10
0
 20
0
 30
0
  3
AIGNBL020201DE
  0
POLYLINE
  8
LAYER_2
 40
0.1764
 41
0.1764
 66
1
 10
0
 20
0
 30
0
  0
VERTEX
  8
LAYER_2
 10
135.048
 20
-94.5181
  0
VERTEX
  8
LAYER_2
 10
135.0417
 20
-94.5202
  0
SEQEND
  0
ENDBLK
  0
BLOCK
  8
LAYER_2
  2
AIGNBL020201DF
 70
64
 10
0
 20
0
 30
0
  3
AIGNBL020201DF
  0
POLYLINE
  8
LAYER_2
 40
0.1764
 41
0.1764
 66
1
 10
0
 20
0
 30
0
  0
VERTEX
  8
LAYER_2
 10
135.0658
 20
-94.5122
  0
VERTEX
  8
LAYER_2
 10
135.048
 20
-94.5181
  0
SEQEND
  0
ENDBLK
  0
BLOCK
  8
LAYER_2
  2
AIGNBL020201E0
 70
64
 10
0
 20
0
 30
0
  3
AIGNBL020201E0
  0
POLYLINE
  8
LAYER_2
 40
0.1764
 41
0.1764
 66
1
 10
0
 20
0
 30
0
  0
VERTEX
  8
LAYER_2
 10
135.5047
 20
-94.5609
  0
VERTEX
  8
LAYER_2
 10
135.3816
 20
-94.536
  0
SEQEND
  0
ENDBLK
  0
BLOCK
  8
LAYER_2
  2
AIGNBL020201E1
 70
64
 10
0
 20
0
 30
0
  3
AIGNBL020201E1
  0
POLYLINE
  8
LAYER_2
 40
0.1764
 41
0.1764
 66
1
 10
0
 20
0
 30
0
  0
VERTEX
  8
LAYER_2
 10
135.6098
 20
-94.5415
  0
VERTEX
  8
LAYER_2
 10
135.5047
 20
-94.5609
  0
SEQEND
  0
ENDBLK
  0
BLOCK
  8
LAYER_2
  2
AIGNBL020201E2
 70
64
 10
0
 20
0
 30
0
  3
AIGNBL020201E2
  0
POLYLINE
  8
LAYER_2
 40
0.1764
 41
0.1764
 66
1
 10
0
 20
0
 30
0
  0
VERTEX
  8
LAYER_2
 10
135.6624
 20
-94.5537
  0
VERTEX
  8
LAYER_2
 10
135.6801
 20
-94.5478
  0
SEQEND
  0
ENDBLK
  0
BLOCK
  8
LAYER_2
  2
AIGNBL020201E3
 70
64
 10
0
 20
0
 30
0
  3
AIGNBL020201E3
  0
POLYLINE
  8
LAYER_2
 40
0.1764
 41
0.1764
 66
1
 10
0
 20
0
 30
0
  0
VERTEX
  8
LAYER_2
 10
135.6273
 20
-94.5655
  0
VERTEX
  8
LAYER_2
 10
135.6624
 20
-94.5537
  0
SEQEND
  0
ENDBLK
  0
BLOCK
  8
LAYER_2
  2
AIGNBL020201E4
 70
64
 10
0
 20
0
 30
0
  3
AIGNBL020201E4
  0
POLYLINE
  8
LAYER_2
 40
0.1764
 41
0.1764
 66
1
 10
0
 20
0
 30
0
  0
VERTEX
  8
LAYER_2
 10
135.6273
 20
-94.5655
  0
VERTEX
  8
LAYER_2
 10
135.5044
 20
-94.5893
  0
SEQEND
  0
ENDBLK
  0
BLOCK
  8
LAYER_2
  2
AIGNBL020201E5
 70
64
 10
0
 20
0
 30
0
  3
AIGNBL020201E5
  0
POLYLINE
  8
LAYER_2
 40
0.1764
 41
0.1764
 66
1
 10
0
 20
0
 30
0
  0
VERTEX
  8
LAYER_2
 10
135.5044
 20
-94.5893
  0
VERTEX
  8
LAYER_2
 10
135.3993
 20
-94.5707
  0
SEQEND
  0
ENDBLK
  0
BLOCK
  8
LAYER_2
  2
AIGNBL020201E6
 70
64
 10
0
 20
0
 30
0
  3
AIGNBL020201E6
  0
POLYLINE
  8
LAYER_2
 40
0.1764
 41
0.1764
 66
1
 10
0
 20
0
 30
0
  0
VERTEX
  8
LAYER_2
 10
135.3816
 20
-94.5655
  0
VERTEX
  8
LAYER_2
 10
135.3993
 20
-94.5707
  0
SEQEND
  0
ENDBLK
  0
BLOCK
  8
LAYER_2
  2
AIGNBL020201E7
 70
64
 10
0
 20
0
 30
0
  3
AIGNBL020201E7
  0
POLYLINE
  8
LAYER_2
 40
0.1764
 41
0.1764
 66
1
 10
0
 20
0
 30
0
  0
VERTEX
  8
LAYER_2
 10
135.3642
 20
-94.5596
  0
VERTEX
  8
LAYER_2
 10
135.3816
 20
-94.5655
  0
SEQEND
  0
ENDBLK
  0
BLOCK
  8
LAYER_2
  2
AIGNBL020201E8
 70
64
 10
0
 20
0
 30
0
  3
AIGNBL020201E8
  0
POLYLINE
  8
LAYER_2
 40
0.1764
 41
0.1764
 66
1
 10
0
 20
0
 30
0
  0
VERTEX
  8
LAYER_2
 10
135.3465
 20
-94.5537
  0
VERTEX
  8
LAYER_2
 10
135.3642
 20
-94.5596
  0
SEQEND
  0
ENDBLK
  0
BLOCK
  8
LAYER_2
  2
AIGNBL020201E9
 70
64
 10
0
 20
0
 30
0
  3
AIGNBL020201E9
  0
POLYLINE
  8
LAYER_2
 40
0.1764
 41
0.1764
 66
1
 10
0
 20
0
 30
0
  0
VERTEX
  8
LAYER_2
 10
135.329
 20
-94.5478
  0
VERTEX
  8
LAYER_2
 10
135.3465
 20
-94.5537
  0
SEQEND
  0
ENDBLK
  0
BLOCK
  8
LAYER_2
  2
AIGNBL020201EA
 70
64
 10
0
 20
0
 30
0
  3
AIGNBL020201EA
  0
POLYLINE
  8
LAYER_2
 40
0.1764
 41
0.1764
 66
1
 10
0
 20
0
 30
0
  0
VERTEX
  8
LAYER_2
 10
136.099
 20
-93.9703
  0
VERTEX
  8
LAYER_2
 10
136.099
 20
-93.9702
  0
SEQEND
  0
ENDBLK
  0
BLOCK
  8
LAYER_2
  2
AIGNBL020201EB
 70
64
 10
0
 20
0
 30
0
  3
AIGNBL020201EB
  0
ENDBLK
  0
BLOCK
  8
LAYER_14
  2
AIGNBL0E020003
 70
64
 10
0
 20
0
 30
0
  3
AIGNBL0E020003
  0
POLYLINE
  8
LAYER_14
 40
0.1411
 41
0.1411
 66
1
 10
0
 20
0
 30
0
  0
VERTEX
  8
LAYER_14
 10
138.4725
 20
-193.0873
  0
VERTEX
  8
LAYER_14
 10
137.78
 20
-193.0873
  0
SEQEND
  0
POLYLINE
  8
LAYER_14
 40
0.1411
 41
0.1411
 66
1
 10
0
 20
0
 30
0
  0
VERTEX
  8
LAYER_14
 10
133.1802
 20
-193.0873
  0
VERTEX
  8
LAYER_14
 10
132.4877
 20
-193.0873
  0
SEQEND
  0
ENDBLK
  0
BLOCK
  8
LAYER_14
  2
AIGNBL0E020005
 70
64
 10
0
 20
0
 30
0
  3
AIGNBL0E020005
  0
POLYLINE
  8
LAYER_14
 40
0.1411
 41
0.1411
 66
1
 10
0
 20
0
 30
0
  0
VERTEX
  8
LAYER_14
 10
215.2754
 20
-192.9201
  0
VERTEX
  8
LAYER_14
 10
214.5829
 20
-192.9201
  0
SEQEND
  0
POLYLINE
  8
LAYER_14
 40
0.1411
 41
0.1411
 66
1
 10
0
 20
0
 30
0
  0
VERTEX
  8
LAYER_14
 10
209.983
 20
-192.9201
  0
VERTEX
  8
LAYER_14
 10
209.2906
 20
-192.9201
  0
SEQEND
  0
ENDBLK
  0
BLOCK
  8
LAYER_22
  2
AIGNBL16020003
 70
64
 10
0
 20
0
 30
0
  3
AIGNBL16020003
  0
INSERT
  8
LAYER_22
  2
AIGNBL16030004
 10
0
 20
0
 30
0
  0
INSERT
  8
LAYER_22
  2
AIGNBL16030005
 10
0
 20
0
 30
0
  0
INSERT
  8
LAYER_22
  2
AIGNBL16030006
 10
0
 20
0
 30
0
  0
INSERT
  8
LAYER_22
  2
AIGNBL16030007
 10
0
 20
0
 30
0
  0
INSERT
  8
LAYER_22
  2
AIGNBL16030008
 10
0
 20
0
 30
0
  0
INSERT
  8
LAYER_22
  2
AIGNBL16030009
 10
0
 20
0
 30
0
  0
INSERT
  8
LAYER_22
  2
AIGNBL1603000A
 10
0
 20
0
 30
0
  0
INSERT
  8
LAYER_22
  2
AIGNBL1603000B
 10
0
 20
0
 30
0
  0
INSERT
  8
LAYER_22
  2
AIGNBL1603000C
 10
0
 20
0
 30
0
  0
INSERT
  8
LAYER_22
  2
AIGNBL1603000D
 10
0
 20
0
 30
0
  0
INSERT
  8
LAYER_22
  2
AIGNBL1603000E
 10
0
 20
0
 30
0
  0
INSERT
  8
LAYER_22
  2
AIGNBL1603000F
 10
0
 20
0
 30
0
  0
INSERT
  8
LAYER_22
  2
AIGNBL16030010
 10
0
 20
0
 30
0
  0
INSERT
  8
LAYER_22
  2
AIGNBL16030011
 10
0
 20
0
 30
0
  0
INSERT
  8
LAYER_22
  2
AIGNBL16030012
 10
0
 20
0
 30
0
  0
INSERT
  8
LAYER_22
  2
AIGNBL16030013
 10
0
 20
0
 30
0
  0
ENDBLK
  0
BLOCK
  8
LAYER_22
  2
AIGNBL16020014
 70
64
 10
0
 20
0
 30
0
  3
AIGNBL16020014
  0
INSERT
  8
LAYER_22
  2
AIGNBL16030015
 10
0
 20
0
 30
0
  0
INSERT
  8
LAYER_22
  2
AIGNBL16030020
 10
0
 20
0
 30
0
  0
INSERT
  8
LAYER_22
  2
AIGNBL16030021
 10
0
 20
0
 30
0
  0
INSERT
  8
LAYER_22
  2
AIGNBL16030022
 10
0
 20
0
 30
0
  0
INSERT
  8
LAYER_22
  2
AIGNBL16030023
 10
0
 20
0
 30
0
  0
INSERT
  8
LAYER_22
  2
AIGNBL16030024
 10
0
 20
0
 30
0
  0
INSERT
  8
LAYER_22
  2
AIGNBL16030025
 10
0
 20
0
 30
0
  0
INSERT
  8
LAYER_22
  2
AIGNBL16030026
 10
0
 20
0
 30
0
  0
INSERT
  8
LAYER_22
  2
AIGNBL16030027
 10
0
 20
0
 30
0
  0
INSERT
  8
LAYER_22
  2
AIGNBL16030028
 10
0
 20
0
 30
0
  0
INSERT
  8
LAYER_22
  2
AIGNBL16030029
 10
0
 20
0
 30
0
  0
INSERT
  8
LAYER_22
  2
AIGNBL1603002A
 10
0
 20
0
 30
0
  0
INSERT
  8
LAYER_22
  2
AIGNBL1603002B
 10
0
 20
0
 30
0
  0
INSERT
  8
LAYER_22
  2
AIGNBL1603002C
 10
0
 20
0
 30
0
  0
INSERT
  8
LAYER_22
  2
AIGNBL1603002D
 10
0
 20
0
 30
0
  0
INSERT
  8
LAYER_22
  2
AIGNBL1603002E
 10
0
 20
0
 30
0
  0
INSERT
  8
LAYER_22
  2
AIGNBL1603002F
 10
0
 20
0
 30
0
  0
INSERT
  8
LAYER_22
  2
AIGNBL16030030
 10
0
 20
0
 30
0
  0
INSERT
  8
LAYER_22
  2
AIGNBL16030031
 10
0
 20
0
 30
0
  0
INSERT
  8
LAYER_22
  2
AIGNBL16030032
 10
0
 20
0
 30
0
  0
INSERT
  8
LAYER_22
  2
AIGNBL16030033
 10
0
 20
0
 30
0
  0
ENDBLK
  0
BLOCK
  8
LAYER_22
  2
AIGNBL16020034
 70
64
 10
0
 20
0
 30
0
  3
AIGNBL16020034
  0
INSERT
  8
LAYER_22
  2
AIGNBL16030035
 10
0
 20
0
 30
0
  0
INSERT
  8
LAYER_22
  2
AIGNBL16030036
 10
0
 20
0
 30
0
  0
INSERT
  8
LAYER_22
  2
AIGNBL16030037
 10
0
 20
0
 30
0
  0
INSERT
  8
LAYER_22
  2
AIGNBL16030038
 10
0
 20
0
 30
0
  0
INSERT
  8
LAYER_22
  2
AIGNBL16030039
 10
0
 20
0
 30
0
  0
INSERT
  8
LAYER_22
  2
AIGNBL1603003A
 10
0
 20
0
 30
0
  0
INSERT
  8
LAYER_22
  2
AIGNBL1603003B
 10
0
 20
0
 30
0
  0
INSERT
  8
LAYER_22
  2
AIGNBL1603003C
 10
0
 20
0
 30
0
  0
INSERT
  8
LAYER_22
  2
AIGNBL1603003D
 10
0
 20
0
 30
0
  0
INSERT
  8
LAYER_22
  2
AIGNBL1603003E
 10
0
 20
0
 30
0
  0
INSERT
  8
LAYER_22
  2
AIGNBL1603003F
 10
0
 20
0
 30
0
  0
INSERT
  8
LAYER_22
  2
AIGNBL16030040
 10
0
 20
0
 30
0
  0
INSERT
  8
LAYER_22
  2
AIGNBL16030041
 10
0
 20
0
 30
0
  0
INSERT
  8
LAYER_22
  2
AIGNBL16030042
 10
0
 20
0
 30
0
  0
ENDBLK
  0
BLOCK
  8
LAYER_22
  2
AIGNBL16020043
 70
64
 10
0
 20
0
 30
0
  3
AIGNBL16020043
  0
INSERT
  8
LAYER_22
  2
AIGNBL16030044
 10
0
 20
0
 30
0
  0
INSERT
  8
LAYER_22
  2
AIGNBL16030045
 10
0
 20
0
 30
0
  0
INSERT
  8
LAYER_22
  2
AIGNBL16030046
 10
0
 20
0
 30
0
  0
INSERT
  8
LAYER_22
  2
AIGNBL16030047
 10
0
 20
0
 30
0
  0
INSERT
  8
LAYER_22
  2
AIGNBL16030048
 10
0
 20
0
 30
0
  0
INSERT
  8
LAYER_22
  2
AIGNBL16030049
 10
0
 20
0
 30
0
  0
ENDBLK
  0
BLOCK
  8
LAYER_22
  2
AIGNBL1602004A
 70
64
 10
0
 20
0
 30
0
  3
AIGNBL1602004A
  0
INSERT
  8
LAYER_22
  2
AIGNBL1603004B
 10
0
 20
0
 30
0
  0
INSERT
  8
LAYER_22
  2
AIGNBL1603004C
 10
0
 20
0
 30
0
  0
INSERT
  8
LAYER_22
  2
AIGNBL1603004D
 10
0
 20
0
 30
0
  0
INSERT
  8
LAYER_22
  2
AIGNBL1603004E
 10
0
 20
0
 30
0
  0
INSERT
  8
LAYER_22
  2
AIGNBL1603004F
 10
0
 20
0
 30
0
  0
INSERT
  8
LAYER_22
  2
AIGNBL16030050
 10
0
 20
0
 30
0
  0
INSERT
  8
LAYER_22
  2
AIGNBL16030051
 10
0
 20
0
 30
0
  0
INSERT
  8
LAYER_22
  2
AIGNBL16030052
 10
0
 20
0
 30
0
  0
INSERT
  8
LAYER_22
  2
AIGNBL16030053
 10
0
 20
0
 30
0
  0
INSERT
  8
LAYER_22
  2
AIGNBL16030054
 10
0
 20
0
 30
0
  0
INSERT
  8
LAYER_22
  2
AIGNBL16030055
 10
0
 20
0
 30
0
  0
INSERT
  8
LAYER_22
  2
AIGNBL16030056
 10
0
 20
0
 30
0
  0
INSERT
  8
LAYER_22
  2
AIGNBL16030057
 10
0
 20
0
 30
0
  0
INSERT
  8
LAYER_22
  2
AIGNBL16030058
 10
0
 20
0
 30
0
  0
ENDBLK
  0
BLOCK
  8
LAYER_22
  2
AIGNBL16020059
 70
64
 10
0
 20
0
 30
0
  3
AIGNBL16020059
  0
POLYLINE
  8
LAYER_22
  6
AIGENLINE004
 40
0.1058
 41
0.1058
 66
1
 10
0
 20
0
 30
0
 70
128
  0
VERTEX
  8
LAYER_22
 10
212.284
 20
-194.7219
  0
VERTEX
  8
LAYER_22
 10
212.284
 20
-198.0202
  0
SEQEND
  0
ENDBLK
  0
BLOCK
  8
LAYER_22
  2
AIGNBL1602005A
 70
64
 10
0
 20
0
 30
0
  3
AIGNBL1602005A
  0
POLYLINE
  8
LAYER_22
  6
AIGENLINE004
 40
0.1058
 41
0.1058
 66
1
 10
0
 20
0
 30
0
 70
128
  0
VERTEX
  8
LAYER_22
 10
208.544
 20
-203.9199
  0
VERTEX
  8
LAYER_22
 10
236.089
 20
-203.9199
  0
SEQEND
  0
ENDBLK
  0
BLOCK
  8
LAYER_22
  2
AIGNBL1602005B
 70
64
 10
0
 20
0
 30
0
  3
AIGNBL1602005B
  0
POLYLINE
  8
LAYER_22
  6
AIGENLINE004
 40
0.1058
 41
0.1058
 66
1
 10
0
 20
0
 30
0
 70
128
  0
VERTEX
  8
LAYER_22
 10
212.284
 20
-198.0202
  0
VERTEX
  8
LAYER_22
 10
212.284
 20
-214.1701
  0
SEQEND
  0
ENDBLK
  0
BLOCK
  8
LAYER_22
  2
AIGNBL1602005C
 70
64
 10
0
 20
0
 30
0
  3
AIGNBL1602005C
  0
INSERT
  8
LAYER_22
  2
AIGNBL1603005D
 10
0
 20
0
 30
0
  0
INSERT
  8
LAYER_22
  2
AIGNBL1603005E
 10
0
 20
0
 30
0
  0
ENDBLK
  0
BLOCK
  8
LAYER_22
  2
AIGNBL1602005F
 70
64
 10
0
 20
0
 30
0
  3
AIGNBL1602005F
  0
INSERT
  8
LAYER_22
  2
AIGNBL16030060
 10
0
 20
0
 30
0
  0
INSERT
  8
LAYER_22
  2
AIGNBL16030061
 10
0
 20
0
 30
0
  0
INSERT
  8
LAYER_22
  2
AIGNBL16030062
 10
0
 20
0
 30
0
  0
INSERT
  8
LAYER_22
  2
AIGNBL16030063
 10
0
 20
0
 30
0
  0
INSERT
  8
LAYER_22
  2
AIGNBL16030064
 10
0
 20
0
 30
0
  0
INSERT
  8
LAYER_22
  2
AIGNBL16030065
 10
0
 20
0
 30
0
  0
INSERT
  8
LAYER_22
  2
AIGNBL16030066
 10
0
 20
0
 30
0
  0
INSERT
  8
LAYER_22
  2
AIGNBL16030067
 10
0
 20
0
 30
0
  0
ENDBLK
  0
BLOCK
  8
LAYER_22
  2
AIGNBL16020069
 70
64
 10
0
 20
0
 30
0
  3
AIGNBL16020069
  0
INSERT
  8
LAYER_22
  2
AIGNBL1603006A
 10
0
 20
0
 30
0
  0
INSERT
  8
LAYER_22
  2
AIGNBL1603006B
 10
0
 20
0
 30
0
  0
INSERT
  8
LAYER_22
  2
AIGNBL1603006C
 10
0
 20
0
 30
0
  0
INSERT
  8
LAYER_22
  2
AIGNBL1603006D
 10
0
 20
0
 30
0
  0
INSERT
  8
LAYER_22
  2
AIGNBL1603006E
 10
0
 20
0
 30
0
  0
INSERT
  8
LAYER_22
  2
AIGNBL1603006F
 10
0
 20
0
 30
0
  0
INSERT
  8
LAYER_22
  2
AIGNBL16030070
 10
0
 20
0
 30
0
  0
INSERT
  8
LAYER_22
  2
AIGNBL16030071
 10
0
 20
0
 30
0
  0
INSERT
  8
LAYER_22
  2
AIGNBL16030072
 10
0
 20
0
 30
0
  0
INSERT
  8
LAYER_22
  2
AIGNBL16030073
 10
0
 20
0
 30
0
  0
INSERT
  8
LAYER_22
  2
AIGNBL16030074
 10
0
 20
0
 30
0
  0
INSERT
  8
LAYER_22
  2
AIGNBL16030075
 10
0
 20
0
 30
0
  0
INSERT
  8
LAYER_22
  2
AIGNBL16030076
 10
0
 20
0
 30
0
  0
INSERT
  8
LAYER_22
  2
AIGNBL16030077
 10
0
 20
0
 30
0
  0
INSERT
  8
LAYER_22
  2
AIGNBL16030078
 10
0
 20
0
 30
0
  0
INSERT
  8
LAYER_22
  2
AIGNBL16030079
 10
0
 20
0
 30
0
  0
ENDBLK
  0
BLOCK
  8
LAYER_22
  2
AIGNBL1602007A
 70
64
 10
0
 20
0
 30
0
  3
AIGNBL1602007A
  0
INSERT
  8
LAYER_22
  2
AIGNBL1603007B
 10
0
 20
0
 30
0
  0
INSERT
  8
LAYER_22
  2
AIGNBL16030086
 10
0
 20
0
 30
0
  0
INSERT
  8
LAYER_22
  2
AIGNBL16030087
 10
0
 20
0
 30
0
  0
INSERT
  8
LAYER_22
  2
AIGNBL16030088
 10
0
 20
0
 30
0
  0
INSERT
  8
LAYER_22
  2
AIGNBL16030089
 10
0
 20
0
 30
0
  0
INSERT
  8
LAYER_22
  2
AIGNBL1603008A
 10
0
 20
0
 30
0
  0
INSERT
  8
LAYER_22
  2
AIGNBL1603008B
 10
0
 20
0
 30
0
  0
ENDBLK
  0
BLOCK
  8
LAYER_22
  2
AIGNBL1602008C
 70
64
 10
0
 20
0
 30
0
  3
AIGNBL1602008C
  0
INSERT
  8
LAYER_22
  2
AIGNBL1603008D
 10
0
 20
0
 30
0
  0
INSERT
  8
LAYER_22
  2
AIGNBL1603008E
 10
0
 20
0
 30
0
  0
INSERT
  8
LAYER_22
  2
AIGNBL1603008F
 10
0
 20
0
 30
0
  0
INSERT
  8
LAYER_22
  2
AIGNBL16030090
 10
0
 20
0
 30
0
  0
INSERT
  8
LAYER_22
  2
AIGNBL16030091
 10
0
 20
0
 30
0
  0
INSERT
  8
LAYER_22
  2
AIGNBL16030092
 10
0
 20
0
 30
0
  0
INSERT
  8
LAYER_22
  2
AIGNBL16030093
 10
0
 20
0
 30
0
  0
INSERT
  8
LAYER_22
  2
AIGNBL16030094
 10
0
 20
0
 30
0
  0
INSERT
  8
LAYER_22
  2
AIGNBL16030095
 10
0
 20
0
 30
0
  0
INSERT
  8
LAYER_22
  2
AIGNBL16030096
 10
0
 20
0
 30
0
  0
INSERT
  8
LAYER_22
  2
AIGNBL16030097
 10
0
 20
0
 30
0
  0
INSERT
  8
LAYER_22
  2
AIGNBL16030098
 10
0
 20
0
 30
0
  0
INSERT
  8
LAYER_22
  2
AIGNBL16030099
 10
0
 20
0
 30
0
  0
INSERT
  8
LAYER_22
  2
AIGNBL1603009A
 10
0
 20
0
 30
0
  0
ENDBLK
  0
BLOCK
  8
LAYER_22
  2
AIGNBL1602009B
 70
64
 10
0
 20
0
 30
0
  3
AIGNBL1602009B
  0
POLYLINE
  8
LAYER_22
  6
AIGENLINE004
 40
0.1058
 41
0.1058
 66
1
 10
0
 20
0
 30
0
 70
128
  0
VERTEX
  8
LAYER_22
 10
135.4811
 20
-194.7094
  0
VERTEX
  8
LAYER_22
 10
135.4811
 20
-197.9854
  0
SEQEND
  0
ENDBLK
  0
BLOCK
  8
LAYER_22
  2
AIGNBL1602009C
 70
64
 10
0
 20
0
 30
0
  3
AIGNBL1602009C
  0
INSERT
  8
LAYER_22
  2
AIGNBL1603009D
 10
0
 20
0
 30
0
  0
ENDBLK
  0
BLOCK
  8
LAYER_22
  2
AIGNBL1602009F
 70
64
 10
0
 20
0
 30
0
  3
AIGNBL1602009F
  0
POLYLINE
  8
LAYER_22
  6
AIGENLINE004
 40
0.1058
 41
0.1058
 66
1
 10
0
 20
0
 30
0
 70
128
  0
VERTEX
  8
LAYER_22
 10
135.4811
 20
-197.9854
  0
VERTEX
  8
LAYER_22
 10
135.4811
 20
-215.4076
  0
SEQEND
  0
ENDBLK
  0
BLOCK
  8
LAYER_22
  2
AIGNBL160200A0
 70
64
 10
0
 20
0
 30
0
  3
AIGNBL160200A0
  0
INSERT
  8
LAYER_22
  2
AIGNBL160300A1
 10
0
 20
0
 30
0
  0
INSERT
  8
LAYER_22
  2
AIGNBL160300A2
 10
0
 20
0
 30
0
  0
ENDBLK
  0
BLOCK
  8
LAYER_22
  2
AIGNBL160200A3
 70
64
 10
0
 20
0
 30
0
  3
AIGNBL160200A3
  0
CIRCLE
  8
LAYER_22
  6
AIGENLINE005
 10
135.4811
 20
-203.9202
 40
1.5999
  0
ENDBLK
  0
BLOCK
  8
LAYER_33
  2
AIGNBL21020003
 70
64
 10
0
 20
0
 30
0
  3
AIGNBL21020003
  0
INSERT
  8
LAYER_33
  2
AIGNBL21030004
 10
0
 20
0
 30
0
  0
INSERT
  8
LAYER_33
  2
AIGNBL21030005
 10
0
 20
0
 30
0
  0
INSERT
  8
LAYER_33
  2
AIGNBL21030006
 10
0
 20
0
 30
0
  0
INSERT
  8
LAYER_33
  2
AIGNBL21030007
 10
0
 20
0
 30
0
  0
INSERT
  8
LAYER_33
  2
AIGNBL21030008
 10
0
 20
0
 30
0
  0
INSERT
  8
LAYER_33
  2
AIGNBL21030009
 10
0
 20
0
 30
0
  0
INSERT
  8
LAYER_33
  2
AIGNBL2103000A
 10
0
 20
0
 30
0
  0
ENDBLK
  0
BLOCK
  8
LAYER_33
  2
AIGNBL2102000B
 70
64
 10
0
 20
0
 30
0
  3
AIGNBL2102000B
  0
INSERT
  8
LAYER_33
  2
AIGNBL2103000C
 10
0
 20
0
 30
0
  0
INSERT
  8
LAYER_33
  2
AIGNBL2103000D
 10
0
 20
0
 30
0
  0
INSERT
  8
LAYER_33
  2
AIGNBL2103000E
 10
0
 20
0
 30
0
  0
INSERT
  8
LAYER_33
  2
AIGNBL2103000F
 10
0
 20
0
 30
0
  0
INSERT
  8
LAYER_33
  2
AIGNBL21030010
 10
0
 20
0
 30
0
  0
INSERT
  8
LAYER_33
  2
AIGNBL21030011
 10
0
 20
0
 30
0
  0
INSERT
  8
LAYER_33
  2
AIGNBL21030012
 10
0
 20
0
 30
0
  0
INSERT
  8
LAYER_33
  2
AIGNBL21030013
 10
0
 20
0
 30
0
  0
INSERT
  8
LAYER_33
  2
AIGNBL21030014
 10
0
 20
0
 30
0
  0
INSERT
  8
LAYER_33
  2
AIGNBL21030015
 10
0
 20
0
 30
0
  0
INSERT
  8
LAYER_33
  2
AIGNBL21030016
 10
0
 20
0
 30
0
  0
INSERT
  8
LAYER_33
  2
AIGNBL21030017
 10
0
 20
0
 30
0
  0
INSERT
  8
LAYER_33
  2
AIGNBL21030018
 10
0
 20
0
 30
0
  0
INSERT
  8
LAYER_33
  2
AIGNBL21030019
 10
0
 20
0
 30
0
  0
INSERT
  8
LAYER_33
  2
AIGNBL2103001A
 10
0
 20
0
 30
0
  0
INSERT
  8
LAYER_33
  2
AIGNBL2103001B
 10
0
 20
0
 30
0
  0
INSERT
  8
LAYER_33
  2
AIGNBL2103001C
 10
0
 20
0
 30
0
  0
INSERT
  8
LAYER_33
  2
AIGNBL2103001D
 10
0
 20
0
 30
0
  0
INSERT
  8
LAYER_33
  2
AIGNBL2103001E
 10
0
 20
0
 30
0
  0
INSERT
  8
LAYER_33
  2
AIGNBL2103001F
 10
0
 20
0
 30
0
  0
INSERT
  8
LAYER_33
  2
AIGNBL21030020
 10
0
 20
0
 30
0
  0
INSERT
  8
LAYER_33
  2
AIGNBL21030021
 10
0
 20
0
 30
0
  0
INSERT
  8
LAYER_33
  2
AIGNBL21030022
 10
0
 20
0
 30
0
  0
INSERT
  8
LAYER_33
  2
AIGNBL21030023
 10
0
 20
0
 30
0
  0
INSERT
  8
LAYER_33
  2
AIGNBL21030024
 10
0
 20
0
 30
0
  0
INSERT
  8
LAYER_33
  2
AIGNBL21030025
 10
0
 20
0
 30
0
  0
INSERT
  8
LAYER_33
  2
AIGNBL21030026
 10
0
 20
0
 30
0
  0
INSERT
  8
LAYER_33
  2
AIGNBL21030027
 10
0
 20
0
 30
0
  0
INSERT
  8
LAYER_33
  2
AIGNBL21030028
 10
0
 20
0
 30
0
  0
INSERT
  8
LAYER_33
  2
AIGNBL21030029
 10
0
 20
0
 30
0
  0
INSERT
  8
LAYER_33
  2
AIGNBL2103002A
 10
0
 20
0
 30
0
  0
INSERT
  8
LAYER_33
  2
AIGNBL2103002B
 10
0
 20
0
 30
0
  0
INSERT
  8
LAYER_33
  2
AIGNBL2103002C
 10
0
 20
0
 30
0
  0
INSERT
  8
LAYER_33
  2
AIGNBL2103002D
 10
0
 20
0
 30
0
  0
INSERT
  8
LAYER_33
  2
AIGNBL2103002E
 10
0
 20
0
 30
0
  0
INSERT
  8
LAYER_33
  2
AIGNBL2103002F
 10
0
 20
0
 30
0
  0
INSERT
  8
LAYER_33
  2
AIGNBL21030030
 10
0
 20
0
 30
0
  0
INSERT
  8
LAYER_33
  2
AIGNBL21030031
 10
0
 20
0
 30
0
  0
INSERT
  8
LAYER_33
  2
AIGNBL21030038
 10
0
 20
0
 30
0
  0
INSERT
  8
LAYER_33
  2
AIGNBL21030039
 10
0
 20
0
 30
0
  0
INSERT
  8
LAYER_33
  2
AIGNBL2103003A
 10
0
 20
0
 30
0
  0
INSERT
  8
LAYER_33
  2
AIGNBL2103003B
 10
0
 20
0
 30
0
  0
ENDBLK
  0
BLOCK
  8
LAYER_33
  2
AIGNBL2102003D
 70
64
 10
0
 20
0
 30
0
  3
AIGNBL2102003D
  0
INSERT
  8
LAYER_33
  2
AIGNBL2103003E
 10
0
 20
0
 30
0
  0
INSERT
  8
LAYER_33
  2
AIGNBL2103003F
 10
0
 20
0
 30
0
  0
INSERT
  8
LAYER_33
  2
AIGNBL21030040
 10
0
 20
0
 30
0
  0
INSERT
  8
LAYER_33
  2
AIGNBL21030041
 10
0
 20
0
 30
0
  0
INSERT
  8
LAYER_33
  2
AIGNBL21030042
 10
0
 20
0
 30
0
  0
INSERT
  8
LAYER_33
  2
AIGNBL21030043
 10
0
 20
0
 30
0
  0
INSERT
  8
LAYER_33
  2
AIGNBL21030044
 10
0
 20
0
 30
0
  0
ENDBLK
  0
BLOCK
  8
LAYER_33
  2
AIGNBL21020045
 70
64
 10
0
 20
0
 30
0
  3
AIGNBL21020045
  0
INSERT
  8
LAYER_33
  2
AIGNBL21030046
 10
0
 20
0
 30
0
  0
INSERT
  8
LAYER_33
  2
AIGNBL21030047
 10
0
 20
0
 30
0
  0
INSERT
  8
LAYER_33
  2
AIGNBL21030048
 10
0
 20
0
 30
0
  0
INSERT
  8
LAYER_33
  2
AIGNBL21030049
 10
0
 20
0
 30
0
  0
INSERT
  8
LAYER_33
  2
AIGNBL2103004A
 10
0
 20
0
 30
0
  0
INSERT
  8
LAYER_33
  2
AIGNBL2103004B
 10
0
 20
0
 30
0
  0
INSERT
  8
LAYER_33
  2
AIGNBL2103004C
 10
0
 20
0
 30
0
  0
INSERT
  8
LAYER_33
  2
AIGNBL2103004D
 10
0
 20
0
 30
0
  0
INSERT
  8
LAYER_33
  2
AIGNBL2103004E
 10
0
 20
0
 30
0
  0
INSERT
  8
LAYER_33
  2
AIGNBL2103004F
 10
0
 20
0
 30
0
  0
INSERT
  8
LAYER_33
  2
AIGNBL21030050
 10
0
 20
0
 30
0
  0
INSERT
  8
LAYER_33
  2
AIGNBL21030051
 10
0
 20
0
 30
0
  0
INSERT
  8
LAYER_33
  2
AIGNBL21030052
 10
0
 20
0
 30
0
  0
INSERT
  8
LAYER_33
  2
AIGNBL21030053
 10
0
 20
0
 30
0
  0
INSERT
  8
LAYER_33
  2
AIGNBL21030054
 10
0
 20
0
 30
0
  0
INSERT
  8
LAYER_33
  2
AIGNBL21030055
 10
0
 20
0
 30
0
  0
INSERT
  8
LAYER_33
  2
AIGNBL21030056
 10
0
 20
0
 30
0
  0
INSERT
  8
LAYER_33
  2
AIGNBL21030057
 10
0
 20
0
 30
0
  0
INSERT
  8
LAYER_33
  2
AIGNBL21030058
 10
0
 20
0
 30
0
  0
INSERT
  8
LAYER_33
  2
AIGNBL21030059
 10
0
 20
0
 30
0
  0
INSERT
  8
LAYER_33
  2
AIGNBL2103005A
 10
0
 20
0
 30
0
  0
INSERT
  8
LAYER_33
  2
AIGNBL2103005B
 10
0
 20
0
 30
0
  0
INSERT
  8
LAYER_33
  2
AIGNBL2103005C
 10
0
 20
0
 30
0
  0
INSERT
  8
LAYER_33
  2
AIGNBL2103005D
 10
0
 20
0
 30
0
  0
INSERT
  8
LAYER_33
  2
AIGNBL2103005E
 10
0
 20
0
 30
0
  0
INSERT
  8
LAYER_33
  2
AIGNBL2103005F
 10
0
 20
0
 30
0
  0
INSERT
  8
LAYER_33
  2
AIGNBL21030060
 10
0
 20
0
 30
0
  0
INSERT
  8
LAYER_33
  2
AIGNBL21030061
 10
0
 20
0
 30
0
  0
INSERT
  8
LAYER_33
  2
AIGNBL21030062
 10
0
 20
0
 30
0
  0
INSERT
  8
LAYER_33
  2
AIGNBL21030063
 10
0
 20
0
 30
0
  0
INSERT
  8
LAYER_33
  2
AIGNBL21030064
 10
0
 20
0
 30
0
  0
INSERT
  8
LAYER_33
  2
AIGNBL21030065
 10
0
 20
0
 30
0
  0
INSERT
  8
LAYER_33
  2
AIGNBL21030066
 10
0
 20
0
 30
0
  0
INSERT
  8
LAYER_33
  2
AIGNBL21030067
 10
0
 20
0
 30
0
  0
INSERT
  8
LAYER_33
  2
AIGNBL21030068
 10
0
 20
0
 30
0
  0
INSERT
  8
LAYER_33
  2
AIGNBL21030069
 10
0
 20
0
 30
0
  0
INSERT
  8
LAYER_33
  2
AIGNBL2103006A
 10
0
 20
0
 30
0
  0
INSERT
  8
LAYER_33
  2
AIGNBL2103006B
 10
0
 20
0
 30
0
  0
INSERT
  8
LAYER_33
  2
AIGNBL21030072
 10
0
 20
0
 30
0
  0
INSERT
  8
LAYER_33
  2
AIGNBL21030073
 10
0
 20
0
 30
0
  0
INSERT
  8
LAYER_33
  2
AIGNBL21030074
 10
0
 20
0
 30
0
  0
INSERT
  8
LAYER_33
  2
AIGNBL21030075
 10
0
 20
0
 30
0
  0
ENDBLK
  0
BLOCK
  8
LAYER_33
  2
AIGNBL21020077
 70
64
 10
0
 20
0
 30
0
  3
AIGNBL21020077
  0
INSERT
  8
LAYER_33
  2
AIGNBL21030078
 10
0
 20
0
 30
0
  0
INSERT
  8
LAYER_33
  2
AIGNBL21030079
 10
0
 20
0
 30
0
  0
INSERT
  8
LAYER_33
  2
AIGNBL2103007A
 10
0
 20
0
 30
0
  0
INSERT
  8
LAYER_33
  2
AIGNBL2103007B
 10
0
 20
0
 30
0
  0
INSERT
  8
LAYER_33
  2
AIGNBL2103007C
 10
0
 20
0
 30
0
  0
INSERT
  8
LAYER_33
  2
AIGNBL2103007D
 10
0
 20
0
 30
0
  0
ENDBLK
  0
BLOCK
  8
LAYER_33
  2
AIGNBL2102007E
 70
64
 10
0
 20
0
 30
0
  3
AIGNBL2102007E
  0
POLYLINE
  8
LAYER_33
 40
0.0882
 41
0.0882
 66
1
 10
0
 20
0
 30
0
  0
VERTEX
  8
LAYER_33
 10
221.8893
 20
-202.4301
  0
VERTEX
  8
LAYER_33
 10
221.8893
 20
-201.2698
  0
SEQEND
  0
ENDBLK
  0
BLOCK
  8
LAYER_33
  2
AIGNBL2102007F
 70
64
 10
0
 20
0
 30
0
  3
AIGNBL2102007F
  0
POLYLINE
  8
LAYER_33
 40
0.0882
 41
0.0882
 66
1
 10
0
 20
0
 30
0
  0
VERTEX
  8
LAYER_33
 10
222.2393
 20
-201.75
  0
VERTEX
  8
LAYER_33
 10
222.2194
 20
-201.77
  0
SEQEND
  0
ENDBLK
  0
BLOCK
  8
LAYER_33
  2
AIGNBL21020080
 70
64
 10
0
 20
0
 30
0
  3
AIGNBL21020080
  0
POLYLINE
  8
LAYER_33
 40
0.0882
 41
0.0882
 66
1
 10
0
 20
0
 30
0
  0
VERTEX
  8
LAYER_33
 10
221.5393
 20
-201.75
  0
VERTEX
  8
LAYER_33
 10
221.5593
 20
-201.77
  0
SEQEND
  0
ENDBLK
  0
BLOCK
  8
LAYER_33
  2
AIGNBL21020081
 70
64
 10
0
 20
0
 30
0
  3
AIGNBL21020081
  0
POLYLINE
  8
LAYER_33
 40
0.0882
 41
0.0882
 66
1
 10
0
 20
0
 30
0
  0
VERTEX
  8
LAYER_33
 10
222.2393
 20
-201.75
  0
VERTEX
  8
LAYER_33
 10
222.2393
 20
-201.6198
  0
SEQEND
  0
ENDBLK
  0
BLOCK
  8
LAYER_33
  2
AIGNBL21020082
 70
64
 10
0
 20
0
 30
0
  3
AIGNBL21020082
  0
POLYLINE
  8
LAYER_33
 40
0.0882
 41
0.0882
 66
1
 10
0
 20
0
 30
0
  0
VERTEX
  8
LAYER_33
 10
221.5393
 20
-201.75
  0
VERTEX
  8
LAYER_33
 10
221.5393
 20
-201.6198
  0
SEQEND
  0
ENDBLK
  0
BLOCK
  8
LAYER_33
  2
AIGNBL21020083
 70
64
 10
0
 20
0
 30
0
  3
AIGNBL21020083
  0
POLYLINE
  8
LAYER_33
 40
0.0882
 41
0.0882
 66
1
 10
0
 20
0
 30
0
  0
VERTEX
  8
LAYER_33
 10
221.5892
 20
-201.5699
  0
VERTEX
  8
LAYER_33
 10
222.1894
 20
-201.5699
  0
SEQEND
  0
ENDBLK
  0
BLOCK
  8
LAYER_33
  2
AIGNBL21020084
 70
64
 10
0
 20
0
 30
0
  3
AIGNBL21020084
  0
POLYLINE
  8
LAYER_33
 40
0.0882
 41
0.0882
 66
1
 10
0
 20
0
 30
0
  0
VERTEX
  8
LAYER_33
 10
221.5593
 20
-201.77
  0
VERTEX
  8
LAYER_33
 10
221.6244
 20
-201.77
  0
SEQEND
  0
ENDBLK
  0
BLOCK
  8
LAYER_33
  2
AIGNBL21020085
 70
64
 10
0
 20
0
 30
0
  3
AIGNBL21020085
  0
POLYLINE
  8
LAYER_33
 40
0.0882
 41
0.0882
 66
1
 10
0
 20
0
 30
0
  0
VERTEX
  8
LAYER_33
 10
222.1543
 20
-201.77
  0
VERTEX
  8
LAYER_33
 10
222.2194
 20
-201.77
  0
SEQEND
  0
ENDBLK
  0
BLOCK
  8
LAYER_33
  2
AIGNBL21020086
 70
64
 10
0
 20
0
 30
0
  3
AIGNBL21020086
  0
POLYLINE
  8
LAYER_33
 40
0.0882
 41
0.0882
 66
1
 10
0
 20
0
 30
0
  0
VERTEX
  8
LAYER_33
 10
221.5892
 20
-201.5699
 42
0.3920291059
  0
VERTEX
  8
LAYER_33
 10
221.5393
 20
-201.6198
  0
SEQEND
  0
ENDBLK
  0
BLOCK
  8
LAYER_33
  2
AIGNBL21020087
 70
64
 10
0
 20
0
 30
0
  3
AIGNBL21020087
  0
POLYLINE
  8
LAYER_33
 40
0.0882
 41
0.0882
 66
1
 10
0
 20
0
 30
0
  0
VERTEX
  8
LAYER_33
 10
222.2393
 20
-201.6198
 42
0.3920291059
  0
VERTEX
  8
LAYER_33
 10
222.1894
 20
-201.5699
  0
SEQEND
  0
ENDBLK
  0
BLOCK
  8
LAYER_33
  2
AIGNBL21020088
 70
64
 10
0
 20
0
 30
0
  3
AIGNBL21020088
  0
POLYLINE
  8
LAYER_33
 40
0.0882
 41
0.0882
 66
1
 10
0
 20
0
 30
0
  0
VERTEX
  8
LAYER_33
 10
221.8893
 20
-204.2298
  0
VERTEX
  8
LAYER_33
 10
221.8893
 20
-203.32
  0
SEQEND
  0
ENDBLK
  0
BLOCK
  8
LAYER_33
  2
AIGNBL21020089
 70
64
 10
0
 20
0
 30
0
  3
AIGNBL21020089
  0
POLYLINE
  8
LAYER_33
 40
0.0882
 41
0.0882
 66
1
 10
0
 20
0
 30
0
  0
VERTEX
  8
LAYER_33
 10
223.6894
 20
-206.3699
  0
VERTEX
  8
LAYER_33
 10
221.9393
 20
-206.3699
  0
SEQEND
  0
ENDBLK
  0
BLOCK
  8
LAYER_33
  2
AIGNBL2102008A
 70
64
 10
0
 20
0
 30
0
  3
AIGNBL2102008A
  0
POLYLINE
  8
LAYER_33
 40
0.0882
 41
0.0882
 66
1
 10
0
 20
0
 30
0
  0
VERTEX
  8
LAYER_33
 10
220.9295
 20
-203.4698
  0
VERTEX
  8
LAYER_33
 10
223.6894
 20
-203.4698
  0
SEQEND
  0
ENDBLK
  0
BLOCK
  8
LAYER_33
  2
AIGNBL2102008B
 70
64
 10
0
 20
0
 30
0
  3
AIGNBL2102008B
  0
POLYLINE
  8
LAYER_33
 40
0.0882
 41
0.0882
 66
1
 10
0
 20
0
 30
0
  0
VERTEX
  8
LAYER_33
 10
223.6894
 20
-203.4698
  0
VERTEX
  8
LAYER_33
 10
223.6894
 20
-206.3699
  0
SEQEND
  0
ENDBLK
  0
BLOCK
  8
LAYER_33
  2
AIGNBL2102008C
 70
64
 10
0
 20
0
 30
0
  3
AIGNBL2102008C
  0
POLYLINE
  8
LAYER_33
 40
0.0882
 41
0.0882
 66
1
 10
0
 20
0
 30
0
  0
VERTEX
  8
LAYER_33
 10
221.9393
 20
-206.3699
  0
VERTEX
  8
LAYER_33
 10
221.3994
 20
-206.3699
  0
SEQEND
  0
ENDBLK
  0
BLOCK
  8
LAYER_33
  2
AIGNBL2102008D
 70
64
 10
0
 20
0
 30
0
  3
AIGNBL2102008D
  0
POLYLINE
  8
LAYER_33
 40
0.0882
 41
0.0882
 66
1
 10
0
 20
0
 30
0
  0
VERTEX
  8
LAYER_33
 10
221.3994
 20
-206.3699
  0
VERTEX
  8
LAYER_33
 10
220.9295
 20
-206.3699
  0
SEQEND
  0
ENDBLK
  0
BLOCK
  8
LAYER_33
  2
AIGNBL2102008E
 70
64
 10
0
 20
0
 30
0
  3
AIGNBL2102008E
  0
POLYLINE
  8
LAYER_33
 40
0.0882
 41
0.0882
 66
1
 10
0
 20
0
 30
0
  0
VERTEX
  8
LAYER_33
 10
220.8392
 20
-206.28
  0
VERTEX
  8
LAYER_33
 10
220.8392
 20
-203.5601
  0
SEQEND
  0
ENDBLK
  0
BLOCK
  8
LAYER_33
  2
AIGNBL2102008F
 70
64
 10
0
 20
0
 30
0
  3
AIGNBL2102008F
  0
POLYLINE
  8
LAYER_33
 40
0.0882
 41
0.0882
 66
1
 10
0
 20
0
 30
0
  0
VERTEX
  8
LAYER_33
 10
220.8392
 20
-206.28
 42
0.3928241728
  0
VERTEX
  8
LAYER_33
 10
220.9295
 20
-206.3699
  0
SEQEND
  0
ENDBLK
  0
BLOCK
  8
LAYER_33
  2
AIGNBL21020090
 70
64
 10
0
 20
0
 30
0
  3
AIGNBL21020090
  0
POLYLINE
  8
LAYER_33
 40
0.0882
 41
0.0882
 66
1
 10
0
 20
0
 30
0
  0
VERTEX
  8
LAYER_33
 10
220.9295
 20
-203.4698
 42
0.4141597113
  0
VERTEX
  8
LAYER_33
 10
220.8392
 20
-203.5601
  0
SEQEND
  0
ENDBLK
  0
BLOCK
  8
LAYER_33
  2
AIGNBL21020091
 70
64
 10
0
 20
0
 30
0
  3
AIGNBL21020091
  0
POLYLINE
  8
LAYER_33
 40
0.0882
 41
0.0882
 66
1
 10
0
 20
0
 30
0
  0
VERTEX
  8
LAYER_33
 10
224.6395
 20
-201.5361
  0
VERTEX
  8
LAYER_33
 10
226.7393
 20
-201.5361
  0
SEQEND
  0
ENDBLK
  0
BLOCK
  8
LAYER_33
  2
AIGNBL21020092
 70
64
 10
0
 20
0
 30
0
  3
AIGNBL21020092
  0
POLYLINE
  8
LAYER_33
 40
0.0882
 41
0.0882
 66
1
 10
0
 20
0
 30
0
  0
VERTEX
  8
LAYER_33
 10
224.7556
 20
-202.3199
  0
VERTEX
  8
LAYER_33
 10
226.6232
 20
-202.3199
  0
SEQEND
  0
ENDBLK
  0
BLOCK
  8
LAYER_33
  2
AIGNBL21020093
 70
64
 10
0
 20
0
 30
0
  3
AIGNBL21020093
  0
POLYLINE
  8
LAYER_33
 40
0.0882
 41
0.0882
 66
1
 10
0
 20
0
 30
0
  0
VERTEX
  8
LAYER_33
 10
223.6894
 20
-203.62
  0
VERTEX
  8
LAYER_33
 10
223.7394
 20
-203.62
  0
SEQEND
  0
ENDBLK
  0
BLOCK
  8
LAYER_33
  2
AIGNBL21020094
 70
64
 10
0
 20
0
 30
0
  3
AIGNBL21020094
  0
POLYLINE
  8
LAYER_33
 40
0.0882
 41
0.0882
 66
1
 10
0
 20
0
 30
0
  0
VERTEX
  8
LAYER_33
 10
226.7393
 20
-202.5211
  0
VERTEX
  8
LAYER_33
 10
226.7393
 20
-202.6199
  0
SEQEND
  0
ENDBLK
  0
BLOCK
  8
LAYER_33
  2
AIGNBL21020095
 70
64
 10
0
 20
0
 30
0
  3
AIGNBL21020095
  0
POLYLINE
  8
LAYER_33
 40
0.0882
 41
0.0882
 66
1
 10
0
 20
0
 30
0
  0
VERTEX
  8
LAYER_33
 10
226.7393
 20
-202.3199
  0
VERTEX
  8
LAYER_33
 10
226.7393
 20
-202.5211
  0
SEQEND
  0
ENDBLK
  0
BLOCK
  8
LAYER_33
  2
AIGNBL21020096
 70
64
 10
0
 20
0
 30
0
  3
AIGNBL21020096
  0
POLYLINE
  8
LAYER_33
 40
0.0882
 41
0.0882
 66
1
 10
0
 20
0
 30
0
  0
VERTEX
  8
LAYER_33
 10
224.6395
 20
-202.5211
  0
VERTEX
  8
LAYER_33
 10
224.6395
 20
-202.6199
  0
SEQEND
  0
ENDBLK
  0
BLOCK
  8
LAYER_33
  2
AIGNBL21020097
 70
64
 10
0
 20
0
 30
0
  3
AIGNBL21020097
  0
POLYLINE
  8
LAYER_33
 40
0.0882
 41
0.0882
 66
1
 10
0
 20
0
 30
0
  0
VERTEX
  8
LAYER_33
 10
224.6395
 20
-202.3199
  0
VERTEX
  8
LAYER_33
 10
224.7556
 20
-202.3199
  0
SEQEND
  0
ENDBLK
  0
BLOCK
  8
LAYER_33
  2
AIGNBL21020098
 70
64
 10
0
 20
0
 30
0
  3
AIGNBL21020098
  0
POLYLINE
  8
LAYER_33
 40
0.0882
 41
0.0882
 66
1
 10
0
 20
0
 30
0
  0
VERTEX
  8
LAYER_33
 10
224.6395
 20
-202.3199
  0
VERTEX
  8
LAYER_33
 10
224.6395
 20
-202.5211
  0
SEQEND
  0
ENDBLK
  0
BLOCK
  8
LAYER_33
  2
AIGNBL21020099
 70
64
 10
0
 20
0
 30
0
  3
AIGNBL21020099
  0
POLYLINE
  8
LAYER_33
 40
0.0882
 41
0.0882
 66
1
 10
0
 20
0
 30
0
  0
VERTEX
  8
LAYER_33
 10
224.6395
 20
-202.5211
  0
VERTEX
  8
LAYER_33
 10
224.7556
 20
-202.3199
  0
SEQEND
  0
ENDBLK
  0
BLOCK
  8
LAYER_33
  2
AIGNBL2102009A
 70
64
 10
0
 20
0
 30
0
  3
AIGNBL2102009A
  0
POLYLINE
  8
LAYER_33
 40
0.0882
 41
0.0882
 66
1
 10
0
 20
0
 30
0
  0
VERTEX
  8
LAYER_33
 10
224.6395
 20
-201.5361
  0
VERTEX
  8
LAYER_33
 10
224.6395
 20
-202.3199
  0
SEQEND
  0
ENDBLK
  0
BLOCK
  8
LAYER_33
  2
AIGNBL2102009B
 70
64
 10
0
 20
0
 30
0
  3
AIGNBL2102009B
  0
POLYLINE
  8
LAYER_33
 40
0.0882
 41
0.0882
 66
1
 10
0
 20
0
 30
0
  0
VERTEX
  8
LAYER_33
 10
223.7394
 20
-206.3699
  0
VERTEX
  8
LAYER_33
 10
229.1884
 20
-206.3699
  0
SEQEND
  0
ENDBLK
  0
BLOCK
  8
LAYER_33
  2
AIGNBL2102009C
 70
64
 10
0
 20
0
 30
0
  3
AIGNBL2102009C
  0
POLYLINE
  8
LAYER_33
 40
0.0882
 41
0.0882
 66
1
 10
0
 20
0
 30
0
  0
VERTEX
  8
LAYER_33
 10
229.2894
 20
-206.1949
  0
VERTEX
  8
LAYER_33
 10
229.2894
 20
-203.6448
  0
SEQEND
  0
ENDBLK
  0
BLOCK
  8
LAYER_33
  2
AIGNBL2102009D
 70
64
 10
0
 20
0
 30
0
  3
AIGNBL2102009D
  0
POLYLINE
  8
LAYER_33
 40
0.0882
 41
0.0882
 66
1
 10
0
 20
0
 30
0
  0
VERTEX
  8
LAYER_33
 10
223.7394
 20
-206.22
  0
VERTEX
  8
LAYER_33
 10
223.6894
 20
-206.22
  0
SEQEND
  0
ENDBLK
  0
BLOCK
  8
LAYER_33
  2
AIGNBL2102009E
 70
64
 10
0
 20
0
 30
0
  3
AIGNBL2102009E
  0
POLYLINE
  8
LAYER_33
 40
0.0882
 41
0.0882
 66
1
 10
0
 20
0
 30
0
  0
VERTEX
  8
LAYER_33
 10
226.6232
 20
-202.3199
  0
VERTEX
  8
LAYER_33
 10
226.7393
 20
-202.3199
  0
SEQEND
  0
ENDBLK
  0
BLOCK
  8
LAYER_33
  2
AIGNBL2102009F
 70
64
 10
0
 20
0
 30
0
  3
AIGNBL2102009F
  0
POLYLINE
  8
LAYER_33
 40
0.0882
 41
0.0882
 66
1
 10
0
 20
0
 30
0
  0
VERTEX
  8
LAYER_33
 10
226.6232
 20
-201.42
  0
VERTEX
  8
LAYER_33
 10
226.7393
 20
-201.5361
  0
SEQEND
  0
ENDBLK
  0
BLOCK
  8
LAYER_33
  2
AIGNBL210200A0
 70
64
 10
0
 20
0
 30
0
  3
AIGNBL210200A0
  0
POLYLINE
  8
LAYER_33
 40
0.0882
 41
0.0882
 66
1
 10
0
 20
0
 30
0
  0
VERTEX
  8
LAYER_33
 10
226.7393
 20
-201.5361
  0
VERTEX
  8
LAYER_33
 10
226.7393
 20
-202.3199
  0
SEQEND
  0
ENDBLK
  0
BLOCK
  8
LAYER_33
  2
AIGNBL210200A1
 70
64
 10
0
 20
0
 30
0
  3
AIGNBL210200A1
  0
POLYLINE
  8
LAYER_33
 40
0.0882
 41
0.0882
 66
1
 10
0
 20
0
 30
0
  0
VERTEX
  8
LAYER_33
 10
226.6232
 20
-202.3199
  0
VERTEX
  8
LAYER_33
 10
226.7393
 20
-202.5211
  0
SEQEND
  0
ENDBLK
  0
BLOCK
  8
LAYER_33
  2
AIGNBL210200A2
 70
64
 10
0
 20
0
 30
0
  3
AIGNBL210200A2
  0
POLYLINE
  8
LAYER_33
 40
0.0882
 41
0.0882
 66
1
 10
0
 20
0
 30
0
  0
VERTEX
  8
LAYER_33
 10
226.6232
 20
-201.42
  0
VERTEX
  8
LAYER_33
 10
226.6232
 20
-202.3199
  0
SEQEND
  0
ENDBLK
  0
BLOCK
  8
LAYER_33
  2
AIGNBL210200A3
 70
64
 10
0
 20
0
 30
0
  3
AIGNBL210200A3
  0
POLYLINE
  8
LAYER_33
 40
0.0882
 41
0.0882
 66
1
 10
0
 20
0
 30
0
  0
VERTEX
  8
LAYER_33
 10
224.7556
 20
-201.42
  0
VERTEX
  8
LAYER_33
 10
224.6395
 20
-201.5361
  0
SEQEND
  0
ENDBLK
  0
BLOCK
  8
LAYER_33
  2
AIGNBL210200A4
 70
64
 10
0
 20
0
 30
0
  3
AIGNBL210200A4
  0
POLYLINE
  8
LAYER_33
 40
0.0882
 41
0.0882
 66
1
 10
0
 20
0
 30
0
  0
VERTEX
  8
LAYER_33
 10
224.7556
 20
-201.5361
  0
VERTEX
  8
LAYER_33
 10
224.7556
 20
-201.42
  0
SEQEND
  0
ENDBLK
  0
BLOCK
  8
LAYER_33
  2
AIGNBL210200A5
 70
64
 10
0
 20
0
 30
0
  3
AIGNBL210200A5
  0
POLYLINE
  8
LAYER_33
 40
0.0882
 41
0.0882
 66
1
 10
0
 20
0
 30
0
  0
VERTEX
  8
LAYER_33
 10
224.7556
 20
-201.5361
  0
VERTEX
  8
LAYER_33
 10
224.7556
 20
-201.42
  0
SEQEND
  0
ENDBLK
  0
BLOCK
  8
LAYER_33
  2
AIGNBL210200A6
 70
64
 10
0
 20
0
 30
0
  3
AIGNBL210200A6
  0
POLYLINE
  8
LAYER_33
 40
0.0882
 41
0.0882
 66
1
 10
0
 20
0
 30
0
  0
VERTEX
  8
LAYER_33
 10
224.7556
 20
-202.3199
  0
VERTEX
  8
LAYER_33
 10
224.7556
 20
-201.5361
  0
SEQEND
  0
ENDBLK
  0
BLOCK
  8
LAYER_33
  2
AIGNBL210200A7
 70
64
 10
0
 20
0
 30
0
  3
AIGNBL210200A7
  0
POLYLINE
  8
LAYER_33
 40
0.0882
 41
0.0882
 66
1
 10
0
 20
0
 30
0
  0
VERTEX
  8
LAYER_33
 10
224.7556
 20
-201.42
  0
VERTEX
  8
LAYER_33
 10
226.6232
 20
-201.42
  0
SEQEND
  0
ENDBLK
  0
BLOCK
  8
LAYER_33
  2
AIGNBL210200A8
 70
64
 10
0
 20
0
 30
0
  3
AIGNBL210200A8
  0
POLYLINE
  8
LAYER_33
 40
0.0882
 41
0.0882
 66
1
 10
0
 20
0
 30
0
  0
VERTEX
  8
LAYER_33
 10
224.2396
 20
-203.27
  0
VERTEX
  8
LAYER_33
 10
224.2396
 20
-202.6199
  0
SEQEND
  0
ENDBLK
  0
BLOCK
  8
LAYER_33
  2
AIGNBL210200A9
 70
64
 10
0
 20
0
 30
0
  3
AIGNBL210200A9
  0
POLYLINE
  8
LAYER_33
 40
0.0882
 41
0.0882
 66
1
 10
0
 20
0
 30
0
  0
VERTEX
  8
LAYER_33
 10
223.7394
 20
-203.4698
  0
VERTEX
  8
LAYER_33
 10
224.0394
 20
-203.4698
  0
SEQEND
  0
ENDBLK
  0
BLOCK
  8
LAYER_33
  2
AIGNBL210200AA
 70
64
 10
0
 20
0
 30
0
  3
AIGNBL210200AA
  0
POLYLINE
  8
LAYER_33
 40
0.0882
 41
0.0882
 66
1
 10
0
 20
0
 30
0
  0
VERTEX
  8
LAYER_33
 10
223.7394
 20
-204.9199
  0
VERTEX
  8
LAYER_33
 10
223.7394
 20
-203.4698
  0
SEQEND
  0
ENDBLK
  0
BLOCK
  8
LAYER_33
  2
AIGNBL210200AB
 70
64
 10
0
 20
0
 30
0
  3
AIGNBL210200AB
  0
POLYLINE
  8
LAYER_33
 40
0.0882
 41
0.0882
 66
1
 10
0
 20
0
 30
0
  0
VERTEX
  8
LAYER_33
 10
223.7394
 20
-206.3699
  0
VERTEX
  8
LAYER_33
 10
223.7394
 20
-204.9199
  0
SEQEND
  0
ENDBLK
  0
BLOCK
  8
LAYER_33
  2
AIGNBL210200AC
 70
64
 10
0
 20
0
 30
0
  3
AIGNBL210200AC
  0
POLYLINE
  8
LAYER_33
 40
0.0882
 41
0.0882
 66
1
 10
0
 20
0
 30
0
  0
VERTEX
  8
LAYER_33
 10
229.1884
 20
-206.3699
  0
VERTEX
  8
LAYER_33
 10
229.2894
 20
-206.1949
  0
SEQEND
  0
ENDBLK
  0
BLOCK
  8
LAYER_33
  2
AIGNBL210200AD
 70
64
 10
0
 20
0
 30
0
  3
AIGNBL210200AD
  0
POLYLINE
  8
LAYER_33
 40
0.0882
 41
0.0882
 66
1
 10
0
 20
0
 30
0
  0
VERTEX
  8
LAYER_33
 10
229.1884
 20
-203.4698
  0
VERTEX
  8
LAYER_33
 10
229.2894
 20
-203.6448
  0
SEQEND
  0
ENDBLK
  0
BLOCK
  8
LAYER_33
  2
AIGNBL210200AE
 70
64
 10
0
 20
0
 30
0
  3
AIGNBL210200AE
  0
POLYLINE
  8
LAYER_33
 40
0.0882
 41
0.0882
 66
1
 10
0
 20
0
 30
0
  0
VERTEX
  8
LAYER_33
 10
227.3394
 20
-203.4698
  0
VERTEX
  8
LAYER_33
 10
229.1884
 20
-203.4698
  0
SEQEND
  0
ENDBLK
  0
BLOCK
  8
LAYER_33
  2
AIGNBL210200AF
 70
64
 10
0
 20
0
 30
0
  3
AIGNBL210200AF
  0
POLYLINE
  8
LAYER_33
 40
0.0882
 41
0.0882
 66
1
 10
0
 20
0
 30
0
  0
VERTEX
  8
LAYER_33
 10
227.1393
 20
-202.6199
  0
VERTEX
  8
LAYER_33
 10
227.1393
 20
-203.27
  0
SEQEND
  0
ENDBLK
  0
BLOCK
  8
LAYER_33
  2
AIGNBL210200B0
 70
64
 10
0
 20
0
 30
0
  3
AIGNBL210200B0
  0
POLYLINE
  8
LAYER_33
 40
0.0882
 41
0.0882
 66
1
 10
0
 20
0
 30
0
  0
VERTEX
  8
LAYER_33
 10
224.2396
 20
-202.6199
  0
VERTEX
  8
LAYER_33
 10
227.1393
 20
-202.6199
  0
SEQEND
  0
ENDBLK
  0
BLOCK
  8
LAYER_33
  2
AIGNBL210200B1
 70
64
 10
0
 20
0
 30
0
  3
AIGNBL210200B1
  0
POLYLINE
  8
LAYER_33
 40
0.0882
 41
0.0882
 66
1
 10
0
 20
0
 30
0
  0
VERTEX
  8
LAYER_33
 10
228.2893
 20
-204.278
  0
VERTEX
  8
LAYER_33
 10
229.1884
 20
-204.278
  0
SEQEND
  0
ENDBLK
  0
BLOCK
  8
LAYER_33
  2
AIGNBL210200B2
 70
64
 10
0
 20
0
 30
0
  3
AIGNBL210200B2
  0
POLYLINE
  8
LAYER_33
 40
0.0882
 41
0.0882
 66
1
 10
0
 20
0
 30
0
  0
VERTEX
  8
LAYER_33
 10
229.1884
 20
-204.1151
  0
VERTEX
  8
LAYER_33
 10
228.2893
 20
-204.1151
  0
SEQEND
  0
ENDBLK
  0
BLOCK
  8
LAYER_33
  2
AIGNBL210200B3
 70
64
 10
0
 20
0
 30
0
  3
AIGNBL210200B3
  0
POLYLINE
  8
LAYER_33
 40
0.0882
 41
0.0882
 66
1
 10
0
 20
0
 30
0
  0
VERTEX
  8
LAYER_33
 10
228.2893
 20
-205.725
  0
VERTEX
  8
LAYER_33
 10
229.1884
 20
-205.725
  0
SEQEND
  0
ENDBLK
  0
BLOCK
  8
LAYER_33
  2
AIGNBL210200B4
 70
64
 10
0
 20
0
 30
0
  3
AIGNBL210200B4
  0
POLYLINE
  8
LAYER_33
 40
0.0882
 41
0.0882
 66
1
 10
0
 20
0
 30
0
  0
VERTEX
  8
LAYER_33
 10
229.1884
 20
-205.562
  0
VERTEX
  8
LAYER_33
 10
228.2893
 20
-205.562
  0
SEQEND
  0
ENDBLK
  0
BLOCK
  8
LAYER_33
  2
AIGNBL210200B5
 70
64
 10
0
 20
0
 30
0
  3
AIGNBL210200B5
  0
POLYLINE
  8
LAYER_33
 40
0.0882
 41
0.0882
 66
1
 10
0
 20
0
 30
0
  0
VERTEX
  8
LAYER_33
 10
228.2893
 20
-204.3779
  0
VERTEX
  8
LAYER_33
 10
228.2893
 20
-204.9199
  0
SEQEND
  0
ENDBLK
  0
BLOCK
  8
LAYER_33
  2
AIGNBL210200B6
 70
64
 10
0
 20
0
 30
0
  3
AIGNBL210200B6
  0
POLYLINE
  8
LAYER_33
 40
0.0882
 41
0.0882
 66
1
 10
0
 20
0
 30
0
  0
VERTEX
  8
LAYER_33
 10
228.2893
 20
-203.4729
  0
VERTEX
  8
LAYER_33
 10
228.2893
 20
-204.0148
  0
SEQEND
  0
ENDBLK
  0
BLOCK
  8
LAYER_33
  2
AIGNBL210200B7
 70
64
 10
0
 20
0
 30
0
  3
AIGNBL210200B7
  0
POLYLINE
  8
LAYER_33
 40
0.0882
 41
0.0882
 66
1
 10
0
 20
0
 30
0
  0
VERTEX
  8
LAYER_33
 10
228.2893
 20
-204.9199
  0
VERTEX
  8
LAYER_33
 10
228.2893
 20
-205.4618
  0
SEQEND
  0
ENDBLK
  0
BLOCK
  8
LAYER_33
  2
AIGNBL210200B8
 70
64
 10
0
 20
0
 30
0
  3
AIGNBL210200B8
  0
POLYLINE
  8
LAYER_33
 40
0.0882
 41
0.0882
 66
1
 10
0
 20
0
 30
0
  0
VERTEX
  8
LAYER_33
 10
228.2893
 20
-205.8249
  0
VERTEX
  8
LAYER_33
 10
228.2893
 20
-206.3668
  0
SEQEND
  0
ENDBLK
  0
BLOCK
  8
LAYER_33
  2
AIGNBL210200B9
 70
64
 10
0
 20
0
 30
0
  3
AIGNBL210200B9
  0
POLYLINE
  8
LAYER_33
 40
0.0882
 41
0.0882
 66
1
 10
0
 20
0
 30
0
  0
VERTEX
  8
LAYER_33
 10
229.1884
 20
-205.562
  0
VERTEX
  8
LAYER_33
 10
229.1884
 20
-205.725
  0
SEQEND
  0
ENDBLK
  0
BLOCK
  8
LAYER_33
  2
AIGNBL210200BA
 70
64
 10
0
 20
0
 30
0
  3
AIGNBL210200BA
  0
POLYLINE
  8
LAYER_33
 40
0.0882
 41
0.0882
 66
1
 10
0
 20
0
 30
0
  0
VERTEX
  8
LAYER_33
 10
229.1884
 20
-204.1151
  0
VERTEX
  8
LAYER_33
 10
229.1884
 20
-204.278
  0
SEQEND
  0
ENDBLK
  0
BLOCK
  8
LAYER_33
  2
AIGNBL210200BB
 70
64
 10
0
 20
0
 30
0
  3
AIGNBL210200BB
  0
POLYLINE
  8
LAYER_33
 40
0.0882
 41
0.0882
 66
1
 10
0
 20
0
 30
0
  0
VERTEX
  8
LAYER_33
 10
228.2893
 20
-204.278
 42
0.1947072295
  0
VERTEX
  8
LAYER_33
 10
228.0295
 20
-204.9199
  0
SEQEND
  0
ENDBLK
  0
BLOCK
  8
LAYER_33
  2
AIGNBL210200BC
 70
64
 10
0
 20
0
 30
0
  3
AIGNBL210200BC
  0
POLYLINE
  8
LAYER_33
 40
0.0882
 41
0.0882
 66
1
 10
0
 20
0
 30
0
  0
VERTEX
  8
LAYER_33
 10
228.0295
 20
-203.4729
 42
0.1944394825
  0
VERTEX
  8
LAYER_33
 10
228.2893
 20
-204.1151
  0
SEQEND
  0
ENDBLK
  0
BLOCK
  8
LAYER_33
  2
AIGNBL210200BD
 70
64
 10
0
 20
0
 30
0
  3
AIGNBL210200BD
  0
POLYLINE
  8
LAYER_33
 40
0.0882
 41
0.0882
 66
1
 10
0
 20
0
 30
0
  0
VERTEX
  8
LAYER_33
 10
228.2893
 20
-205.725
 42
0.1944269108
  0
VERTEX
  8
LAYER_33
 10
228.0295
 20
-206.3668
  0
SEQEND
  0
ENDBLK
  0
BLOCK
  8
LAYER_33
  2
AIGNBL210200BE
 70
64
 10
0
 20
0
 30
0
  3
AIGNBL210200BE
  0
POLYLINE
  8
LAYER_33
 40
0.0882
 41
0.0882
 66
1
 10
0
 20
0
 30
0
  0
VERTEX
  8
LAYER_33
 10
228.0295
 20
-204.9199
 42
0.1944156182
  0
VERTEX
  8
LAYER_33
 10
228.2893
 20
-205.562
  0
SEQEND
  0
ENDBLK
  0
BLOCK
  8
LAYER_33
  2
AIGNBL210200BF
 70
64
 10
0
 20
0
 30
0
  3
AIGNBL210200BF
  0
POLYLINE
  8
LAYER_33
 40
0.0882
 41
0.0882
 66
1
 10
0
 20
0
 30
0
  0
VERTEX
  8
LAYER_33
 10
229.1884
 20
-205.562
 42
0.07767317707
  0
VERTEX
  8
LAYER_33
 10
229.1884
 20
-204.278
  0
SEQEND
  0
ENDBLK
  0
BLOCK
  8
LAYER_33
  2
AIGNBL210200C0
 70
64
 10
0
 20
0
 30
0
  3
AIGNBL210200C0
  0
POLYLINE
  8
LAYER_33
 40
0.0882
 41
0.0882
 66
1
 10
0
 20
0
 30
0
  0
VERTEX
  8
LAYER_33
 10
229.2384
 20
-206.2834
 42
0.04438284258
  0
VERTEX
  8
LAYER_33
 10
229.1884
 20
-205.725
  0
SEQEND
  0
ENDBLK
  0
BLOCK
  8
LAYER_33
  2
AIGNBL210200C1
 70
64
 10
0
 20
0
 30
0
  3
AIGNBL210200C1
  0
POLYLINE
  8
LAYER_33
 40
0.0882
 41
0.0882
 66
1
 10
0
 20
0
 30
0
  0
VERTEX
  8
LAYER_33
 10
229.1884
 20
-204.1151
 42
0.05366727002
  0
VERTEX
  8
LAYER_33
 10
229.2384
 20
-203.5566
  0
SEQEND
  0
ENDBLK
  0
BLOCK
  8
LAYER_33
  2
AIGNBL210200C2
 70
64
 10
0
 20
0
 30
0
  3
AIGNBL210200C2
  0
POLYLINE
  8
LAYER_33
 40
0.0882
 41
0.0882
 66
1
 10
0
 20
0
 30
0
  0
VERTEX
  8
LAYER_33
 10
224.0394
 20
-203.4698
 42
0.3928009517
  0
VERTEX
  8
LAYER_33
 10
224.2396
 20
-203.27
  0
SEQEND
  0
ENDBLK
  0
BLOCK
  8
LAYER_33
  2
AIGNBL210200C3
 70
64
 10
0
 20
0
 30
0
  3
AIGNBL210200C3
  0
POLYLINE
  8
LAYER_33
 40
0.0882
 41
0.0882
 66
1
 10
0
 20
0
 30
0
  0
VERTEX
  8
LAYER_33
 10
227.1393
 20
-203.27
 42
0.3931389133
  0
VERTEX
  8
LAYER_33
 10
227.3394
 20
-203.4698
  0
SEQEND
  0
ENDBLK
  0
BLOCK
  8
LAYER_33
  2
AIGNBL210200C4
 70
64
 10
0
 20
0
 30
0
  3
AIGNBL210200C4
  0
POLYLINE
  8
LAYER_33
 40
0.0882
 41
0.0882
 66
1
 10
0
 20
0
 30
0
  0
VERTEX
  8
LAYER_33
 10
229.5002
 20
-203.8898
  0
VERTEX
  8
LAYER_33
 10
231.8894
 20
-203.8898
  0
SEQEND
  0
ENDBLK
  0
BLOCK
  8
LAYER_33
  2
AIGNBL210200C5
 70
64
 10
0
 20
0
 30
0
  3
AIGNBL210200C5
  0
POLYLINE
  8
LAYER_33
 40
0.0882
 41
0.0882
 66
1
 10
0
 20
0
 30
0
  0
VERTEX
  8
LAYER_33
 10
229.2894
 20
-203.8953
  0
VERTEX
  8
LAYER_33
 10
229.5002
 20
-203.8898
  0
SEQEND
  0
ENDBLK
  0
BLOCK
  8
LAYER_33
  2
AIGNBL210200C6
 70
64
 10
0
 20
0
 30
0
  3
AIGNBL210200C6
  0
POLYLINE
  8
LAYER_33
 40
0.0882
 41
0.0882
 66
1
 10
0
 20
0
 30
0
  0
VERTEX
  8
LAYER_33
 10
229.5002
 20
-203.8898
  0
VERTEX
  8
LAYER_33
 10
229.2894
 20
-204.0118
  0
SEQEND
  0
ENDBLK
  0
BLOCK
  8
LAYER_33
  2
AIGNBL210200C7
 70
64
 10
0
 20
0
 30
0
  3
AIGNBL210200C7
  0
POLYLINE
  8
LAYER_33
 40
0.0882
 41
0.0882
 66
1
 10
0
 20
0
 30
0
  0
VERTEX
  8
LAYER_33
 10
229.5002
 20
-205.95
  0
VERTEX
  8
LAYER_33
 10
229.2894
 20
-205.9445
  0
SEQEND
  0
ENDBLK
  0
BLOCK
  8
LAYER_33
  2
AIGNBL210200C8
 70
64
 10
0
 20
0
 30
0
  3
AIGNBL210200C8
  0
POLYLINE
  8
LAYER_33
 40
0.0882
 41
0.0882
 66
1
 10
0
 20
0
 30
0
  0
VERTEX
  8
LAYER_33
 10
229.2894
 20
-205.8284
  0
VERTEX
  8
LAYER_33
 10
229.5002
 20
-205.95
  0
SEQEND
  0
ENDBLK
  0
BLOCK
  8
LAYER_33
  2
AIGNBL210200C9
 70
64
 10
0
 20
0
 30
0
  3
AIGNBL210200C9
  0
POLYLINE
  8
LAYER_33
 40
0.0882
 41
0.0882
 66
1
 10
0
 20
0
 30
0
  0
VERTEX
  8
LAYER_33
 10
233.7783
 20
-205.95
  0
VERTEX
  8
LAYER_33
 10
233.3894
 20
-205.95
  0
SEQEND
  0
ENDBLK
  0
BLOCK
  8
LAYER_33
  2
AIGNBL210200CA
 70
64
 10
0
 20
0
 30
0
  3
AIGNBL210200CA
  0
POLYLINE
  8
LAYER_33
 40
0.0882
 41
0.0882
 66
1
 10
0
 20
0
 30
0
  0
VERTEX
  8
LAYER_33
 10
235.2735
 20
-205.9169
  0
VERTEX
  8
LAYER_33
 10
233.9895
 20
-205.9445
  0
SEQEND
  0
ENDBLK
  0
BLOCK
  8
LAYER_33
  2
AIGNBL210200CB
 70
64
 10
0
 20
0
 30
0
  3
AIGNBL210200CB
  0
POLYLINE
  8
LAYER_33
 40
0.0882
 41
0.0882
 66
1
 10
0
 20
0
 30
0
  0
VERTEX
  8
LAYER_33
 10
233.9895
 20
-205.9445
  0
VERTEX
  8
LAYER_33
 10
233.7783
 20
-205.95
  0
SEQEND
  0
ENDBLK
  0
BLOCK
  8
LAYER_33
  2
AIGNBL210200CC
 70
64
 10
0
 20
0
 30
0
  3
AIGNBL210200CC
  0
POLYLINE
  8
LAYER_33
 40
0.0882
 41
0.0882
 66
1
 10
0
 20
0
 30
0
  0
VERTEX
  8
LAYER_33
 10
233.9895
 20
-205.9445
  0
VERTEX
  8
LAYER_33
 10
233.9895
 20
-203.8953
  0
SEQEND
  0
ENDBLK
  0
BLOCK
  8
LAYER_33
  2
AIGNBL210200CD
 70
64
 10
0
 20
0
 30
0
  3
AIGNBL210200CD
  0
POLYLINE
  8
LAYER_33
 40
0.0882
 41
0.0882
 66
1
 10
0
 20
0
 30
0
  0
VERTEX
  8
LAYER_33
 10
235.3893
 20
-205.7942
  0
VERTEX
  8
LAYER_33
 10
235.2735
 20
-205.9169
  0
SEQEND
  0
ENDBLK
  0
BLOCK
  8
LAYER_33
  2
AIGNBL210200CE
 70
64
 10
0
 20
0
 30
0
  3
AIGNBL210200CE
  0
POLYLINE
  8
LAYER_33
 40
0.0882
 41
0.0882
 66
1
 10
0
 20
0
 30
0
  0
VERTEX
  8
LAYER_33
 10
235.3893
 20
-205.7942
  0
VERTEX
  8
LAYER_33
 10
233.9895
 20
-205.8284
  0
SEQEND
  0
ENDBLK
  0
BLOCK
  8
LAYER_33
  2
AIGNBL210200CF
 70
64
 10
0
 20
0
 30
0
  3
AIGNBL210200CF
  0
POLYLINE
  8
LAYER_33
 40
0.0882
 41
0.0882
 66
1
 10
0
 20
0
 30
0
  0
VERTEX
  8
LAYER_33
 10
233.7783
 20
-205.95
  0
VERTEX
  8
LAYER_33
 10
233.9895
 20
-205.8284
  0
SEQEND
  0
ENDBLK
  0
BLOCK
  8
LAYER_33
  2
AIGNBL210200D0
 70
64
 10
0
 20
0
 30
0
  3
AIGNBL210200D0
  0
POLYLINE
  8
LAYER_33
 40
0.0882
 41
0.0882
 66
1
 10
0
 20
0
 30
0
  0
VERTEX
  8
LAYER_33
 10
235.3893
 20
-205.7942
  0
VERTEX
  8
LAYER_33
 10
235.3893
 20
-204.0455
  0
SEQEND
  0
ENDBLK
  0
BLOCK
  8
LAYER_33
  2
AIGNBL210200D1
 70
64
 10
0
 20
0
 30
0
  3
AIGNBL210200D1
  0
POLYLINE
  8
LAYER_33
 40
0.0882
 41
0.0882
 66
1
 10
0
 20
0
 30
0
  0
VERTEX
  8
LAYER_33
 10
233.9895
 20
-204.0118
  0
VERTEX
  8
LAYER_33
 10
235.3893
 20
-204.0455
  0
SEQEND
  0
ENDBLK
  0
BLOCK
  8
LAYER_33
  2
AIGNBL210200D2
 70
64
 10
0
 20
0
 30
0
  3
AIGNBL210200D2
  0
POLYLINE
  8
LAYER_33
 40
0.0882
 41
0.0882
 66
1
 10
0
 20
0
 30
0
  0
VERTEX
  8
LAYER_33
 10
233.9895
 20
-203.8953
  0
VERTEX
  8
LAYER_33
 10
235.2735
 20
-203.9229
  0
SEQEND
  0
ENDBLK
  0
BLOCK
  8
LAYER_33
  2
AIGNBL210200D3
 70
64
 10
0
 20
0
 30
0
  3
AIGNBL210200D3
  0
POLYLINE
  8
LAYER_33
 40
0.0882
 41
0.0882
 66
1
 10
0
 20
0
 30
0
  0
VERTEX
  8
LAYER_33
 10
235.2735
 20
-203.9229
  0
VERTEX
  8
LAYER_33
 10
235.3893
 20
-204.0455
  0
SEQEND
  0
ENDBLK
  0
BLOCK
  8
LAYER_33
  2
AIGNBL210200D4
 70
64
 10
0
 20
0
 30
0
  3
AIGNBL210200D4
  0
POLYLINE
  8
LAYER_33
 40
0.0882
 41
0.0882
 66
1
 10
0
 20
0
 30
0
  0
VERTEX
  8
LAYER_33
 10
233.9895
 20
-204.0118
  0
VERTEX
  8
LAYER_33
 10
233.7783
 20
-203.8898
  0
SEQEND
  0
ENDBLK
  0
BLOCK
  8
LAYER_33
  2
AIGNBL210200D5
 70
64
 10
0
 20
0
 30
0
  3
AIGNBL210200D5
  0
POLYLINE
  8
LAYER_33
 40
0.0882
 41
0.0882
 66
1
 10
0
 20
0
 30
0
  0
VERTEX
  8
LAYER_33
 10
233.7783
 20
-203.8898
  0
VERTEX
  8
LAYER_33
 10
233.9895
 20
-203.8953
  0
SEQEND
  0
ENDBLK
  0
BLOCK
  8
LAYER_33
  2
AIGNBL210200D6
 70
64
 10
0
 20
0
 30
0
  3
AIGNBL210200D6
  0
POLYLINE
  8
LAYER_33
 40
0.0882
 41
0.0882
 66
1
 10
0
 20
0
 30
0
  0
VERTEX
  8
LAYER_33
 10
235.2735
 20
-203.9229
  0
VERTEX
  8
LAYER_33
 10
235.2735
 20
-205.9169
  0
SEQEND
  0
ENDBLK
  0
BLOCK
  8
LAYER_33
  2
AIGNBL210200D7
 70
64
 10
0
 20
0
 30
0
  3
AIGNBL210200D7
  0
POLYLINE
  8
LAYER_33
 40
0.0882
 41
0.0882
 66
1
 10
0
 20
0
 30
0
  0
VERTEX
  8
LAYER_33
 10
231.8894
 20
-205.95
  0
VERTEX
  8
LAYER_33
 10
229.5002
 20
-205.95
  0
SEQEND
  0
ENDBLK
  0
BLOCK
  8
LAYER_33
  2
AIGNBL210200D8
 70
64
 10
0
 20
0
 30
0
  3
AIGNBL210200D8
  0
POLYLINE
  8
LAYER_33
 40
0.0882
 41
0.0882
 66
1
 10
0
 20
0
 30
0
  0
VERTEX
  8
LAYER_33
 10
233.3894
 20
-203.8898
  0
VERTEX
  8
LAYER_33
 10
233.7783
 20
-203.8898
  0
SEQEND
  0
ENDBLK
  0
BLOCK
  8
LAYER_33
  2
AIGNBL210200D9
 70
64
 10
0
 20
0
 30
0
  3
AIGNBL210200D9
  0
POLYLINE
  8
LAYER_33
 40
0.0882
 41
0.0882
 66
1
 10
0
 20
0
 30
0
  0
VERTEX
  8
LAYER_33
 10
233.3894
 20
-201.9199
  0
VERTEX
  8
LAYER_33
 10
233.3894
 20
-204.9199
  0
SEQEND
  0
ENDBLK
  0
BLOCK
  8
LAYER_33
  2
AIGNBL210200DA
 70
64
 10
0
 20
0
 30
0
  3
AIGNBL210200DA
  0
POLYLINE
  8
LAYER_33
 40
0.0882
 41
0.0882
 66
1
 10
0
 20
0
 30
0
  0
VERTEX
  8
LAYER_33
 10
232.0896
 20
-201.9199
  0
VERTEX
  8
LAYER_33
 10
233.3894
 20
-201.9199
  0
SEQEND
  0
ENDBLK
  0
BLOCK
  8
LAYER_33
  2
AIGNBL210200DB
 70
64
 10
0
 20
0
 30
0
  3
AIGNBL210200DB
  0
POLYLINE
  8
LAYER_33
 40
0.0882
 41
0.0882
 66
1
 10
0
 20
0
 30
0
  0
VERTEX
  8
LAYER_33
 10
231.8894
 20
-202.1201
  0
VERTEX
  8
LAYER_33
 10
231.8894
 20
-204.9199
  0
SEQEND
  0
ENDBLK
  0
BLOCK
  8
LAYER_33
  2
AIGNBL210200DC
 70
64
 10
0
 20
0
 30
0
  3
AIGNBL210200DC
  0
POLYLINE
  8
LAYER_33
 40
0.0882
 41
0.0882
 66
1
 10
0
 20
0
 30
0
  0
VERTEX
  8
LAYER_33
 10
231.8894
 20
-204.9199
  0
VERTEX
  8
LAYER_33
 10
231.8894
 20
-207.7201
  0
SEQEND
  0
ENDBLK
  0
BLOCK
  8
LAYER_33
  2
AIGNBL210200DD
 70
64
 10
0
 20
0
 30
0
  3
AIGNBL210200DD
  0
POLYLINE
  8
LAYER_33
 40
0.0882
 41
0.0882
 66
1
 10
0
 20
0
 30
0
  0
VERTEX
  8
LAYER_33
 10
233.3894
 20
-207.9199
  0
VERTEX
  8
LAYER_33
 10
232.0896
 20
-207.9199
  0
SEQEND
  0
ENDBLK
  0
BLOCK
  8
LAYER_33
  2
AIGNBL210200DE
 70
64
 10
0
 20
0
 30
0
  3
AIGNBL210200DE
  0
POLYLINE
  8
LAYER_33
 40
0.0882
 41
0.0882
 66
1
 10
0
 20
0
 30
0
  0
VERTEX
  8
LAYER_33
 10
233.3894
 20
-204.9199
  0
VERTEX
  8
LAYER_33
 10
233.3894
 20
-207.9199
  0
SEQEND
  0
ENDBLK
  0
BLOCK
  8
LAYER_33
  2
AIGNBL210200DF
 70
64
 10
0
 20
0
 30
0
  3
AIGNBL210200DF
  0
POLYLINE
  8
LAYER_33
 40
0.0882
 41
0.0882
 66
1
 10
0
 20
0
 30
0
  0
VERTEX
  8
LAYER_33
 10
232.0896
 20
-201.9199
 42
0.4143128336
  0
VERTEX
  8
LAYER_33
 10
231.8894
 20
-202.1201
  0
SEQEND
  0
ENDBLK
  0
BLOCK
  8
LAYER_33
  2
AIGNBL210200E0
 70
64
 10
0
 20
0
 30
0
  3
AIGNBL210200E0
  0
POLYLINE
  8
LAYER_33
 40
0.0882
 41
0.0882
 66
1
 10
0
 20
0
 30
0
  0
VERTEX
  8
LAYER_33
 10
231.8894
 20
-207.7201
 42
0.3931074902
  0
VERTEX
  8
LAYER_33
 10
232.0896
 20
-207.9199
  0
SEQEND
  0
ENDBLK
  0
BLOCK
  8
LAYER_33
  2
AIGNBL210200E1
 70
64
 10
0
 20
0
 30
0
  3
AIGNBL210200E1
  0
POLYLINE
  8
LAYER_33
 40
0.0882
 41
0.0882
 66
1
 10
0
 20
0
 30
0
  0
VERTEX
  8
LAYER_33
 10
235.8396
 20
-204.9199
  0
VERTEX
  8
LAYER_33
 10
220.5395
 20
-204.9199
  0
SEQEND
  0
ENDBLK
  0
BLOCK
  8
LAYER_33
  2
AIGNBL210200E2
 70
64
 10
0
 20
0
 30
0
  3
AIGNBL210200E2
  0
POLYLINE
  8
LAYER_33
 40
0.0882
 41
0.0882
 66
1
 10
0
 20
0
 30
0
  0
VERTEX
  8
LAYER_33
 10
225.6893
 20
-201.1199
  0
VERTEX
  8
LAYER_33
 10
225.6893
 20
-206.67
  0
SEQEND
  0
ENDBLK
  0
BLOCK
  8
LAYER_33
  2
AIGNBL210200E3
 70
64
 10
0
 20
0
 30
0
  3
AIGNBL210200E3
  0
POLYLINE
  8
LAYER_33
 40
0.0882
 41
0.0882
 66
1
 10
0
 20
0
 30
0
  0
VERTEX
  8
LAYER_33
 10
221.8893
 20
-206.67
  0
VERTEX
  8
LAYER_33
 10
221.8893
 20
-201.2698
  0
SEQEND
  0
ENDBLK
  0
BLOCK
  8
LAYER_2
  2
AIGNBL02010002
 70
64
 10
0
 20
0
 30
0
  3
AIGNBL02010002
  0
INSERT
  8
LAYER_2
  2
AIGNBL02020003
 10
0
 20
0
 30
0
  0
INSERT
  8
LAYER_2
  2
AIGNBL02020004
 10
0
 20
0
 30
0
  0
POLYLINE
  8
LAYER_2
 40
0.1764
 41
0.1764
 62
252
 66
1
 10
0
 20
0
 30
0
  0
VERTEX
  8
LAYER_2
 10
152.4722
 20
-128.7415
  0
VERTEX
  8
LAYER_2
 10
118.4694
 20
-128.7415
  0
VERTEX
  8
LAYER_2
 10
118.1167
 20
-128.5939
  0
VERTEX
  8
LAYER_2
 10
117.9691
 20
-128.2413
  0
VERTEX
  8
LAYER_2
 10
117.9691
 20
-99.2418
  0
VERTEX
  8
LAYER_2
 10
118.1167
 20
-98.8851
  0
VERTEX
  8
LAYER_2
 10
118.4694
 20
-98.7415
  0
VERTEX
  8
LAYER_2
 10
152.4722
 20
-98.7415
  0
VERTEX
  8
LAYER_2
 10
152.825
 20
-98.8851
  0
VERTEX
  8
LAYER_2
 10
152.9685
 20
-99.2418
  0
VERTEX
  8
LAYER_2
 10
152.9685
 20
-128.2413
  0
VERTEX
  8
LAYER_2
 10
152.825
 20
-128.5939
  0
VERTEX
  8
LAYER_2
 10
152.4722
 20
-128.7415
  0
SEQEND
  0
POLYLINE
  8
LAYER_2
 40
0.1764
 41
0.1764
 66
1
 10
0
 20
0
 30
0
  0
VERTEX
  8
LAYER_2
 10
149.9091
 20
-126.6787
  0
VERTEX
  8
LAYER_2
 10
121.0285
 20
-126.6787
  0
VERTEX
  8
LAYER_2
 10
120.3231
 20
-126.3876
  0
VERTEX
  8
LAYER_2
 10
120.0318
 20
-125.6822
  0
VERTEX
  8
LAYER_2
 10
120.0318
 20
-101.8009
  0
VERTEX
  8
LAYER_2
 10
120.3231
 20
-101.0956
  0
VERTEX
  8
LAYER_2
 10
121.0285
 20
-100.8001
  0
VERTEX
  8
LAYER_2
 10
149.9091
 20
-100.8001
  0
VERTEX
  8
LAYER_2
 10
150.6145
 20
-101.0956
  0
VERTEX
  8
LAYER_2
 10
150.9096
 20
-101.8009
  0
VERTEX
  8
LAYER_2
 10
150.9096
 20
-125.6822
  0
VERTEX
  8
LAYER_2
 10
150.6145
 20
-126.3876
  0
VERTEX
  8
LAYER_2
 10
149.9091
 20
-126.6787
  0
SEQEND
  0
POLYLINE
  8
LAYER_2
 40
0.1764
 41
0.1764
 62
252
 66
1
 10
0
 20
0
 30
0
  0
VERTEX
  8
LAYER_2
 10
112.9697
 20
-87.738
  0
VERTEX
  8
LAYER_2
 10
172.97
 20
-87.738
  0
VERTEX
  8
LAYER_2
 10
172.97
 20
-133.2405
  0
VERTEX
  8
LAYER_2
 10
172.8264
 20
-133.5974
  0
VERTEX
  8
LAYER_2
 10
172.4696
 20
-133.741
  0
VERTEX
  8
LAYER_2
 10
113.4701
 20
-133.741
  0
VERTEX
  8
LAYER_2
 10
113.1132
 20
-133.5974
  0
VERTEX
  8
LAYER_2
 10
112.9697
 20
-133.2405
  0
VERTEX
  8
LAYER_2
 10
112.9697
 20
-87.738
  0
SEQEND
  0
ENDBLK
  0
BLOCK
  8
LAYER_2
  2
AIGNBL02010005
 70
64
 10
0
 20
0
 30
0
  3
AIGNBL02010005
  0
POLYLINE
  8
LAYER_2
 40
0.1764
 41
0.1764
 62
252
 66
1
 10
0
 20
0
 30
0
  0
VERTEX
  8
LAYER_2
 10
130.1906
 20
-189.9857
  0
VERTEX
  8
LAYER_2
 10
119.3184
 20
-189.4319
  0
SEQEND
  0
POLYLINE
  8
LAYER_2
 40
0.1764
 41
0.1764
 62
252
 66
1
 10
0
 20
0
 30
0
  0
VERTEX
  8
LAYER_2
 10
119.0271
 20
-189.1817
  0
VERTEX
  8
LAYER_2
 10
119.1256
 20
-189.3582
  0
VERTEX
  8
LAYER_2
 10
119.3184
 20
-189.4319
  0
SEQEND
  0
POLYLINE
  8
LAYER_2
 40
0.1764
 41
0.1764
 62
252
 66
1
 10
0
 20
0
 30
0
  0
VERTEX
  8
LAYER_2
 10
119.0271
 20
-189.1817
  0
VERTEX
  8
LAYER_2
 10
117.2964
 20
-177.3047
  0
VERTEX
  8
LAYER_2
 10
117.0995
 20
-176.8619
  0
VERTEX
  8
LAYER_2
 10
116.7099
 20
-176.5625
  0
SEQEND
  0
POLYLINE
  8
LAYER_2
 40
0.1764
 41
0.1764
 62
252
 66
1
 10
0
 20
0
 30
0
  0
VERTEX
  8
LAYER_2
 10
172.6705
 20
-175.0613
  0
VERTEX
  8
LAYER_2
 10
113.269
 20
-175.0613
  0
SEQEND
  0
POLYLINE
  8
LAYER_2
 40
0.1764
 41
0.1764
 62
252
 66
1
 10
0
 20
0
 30
0
  0
VERTEX
  8
LAYER_2
 10
138.5323
 20
-193.0616
  0
VERTEX
  8
LAYER_2
 10
132.6308
 20
-193.0616
  0
VERTEX
  8
LAYER_2
 10
132.6308
 20
-192.7253
  0
VERTEX
  8
LAYER_2
 10
132.5529
 20
-192.5242
  0
VERTEX
  8
LAYER_2
 10
132.3602
 20
-192.4258
  0
VERTEX
  8
LAYER_2
 10
130.9041
 20
-192.2865
  0
VERTEX
  8
LAYER_2
 10
130.7196
 20
-192.2002
  0
VERTEX
  8
LAYER_2
 10
130.6335
 20
-192.0158
  0
VERTEX
  8
LAYER_2
 10
130.4775
 20
-190.2603
  0
VERTEX
  8
LAYER_2
 10
130.3833
 20
-190.0675
  0
VERTEX
  8
LAYER_2
 10
130.1906
 20
-189.9857
  0
SEQEND
  0
POLYLINE
  8
LAYER_2
 40
0.1764
 41
0.1764
 62
252
 66
1
 10
0
 20
0
 30
0
  0
VERTEX
  8
LAYER_2
 10
113.269
 20
-176.5625
  0
VERTEX
  8
LAYER_2
 10
113.0558
 20
-176.4721
  0
VERTEX
  8
LAYER_2
 10
112.9697
 20
-176.263
  0
VERTEX
  8
LAYER_2
 10
112.9697
 20
-175.3607
  0
VERTEX
  8
LAYER_2
 10
113.0558
 20
-175.1516
  0
VERTEX
  8
LAYER_2
 10
113.269
 20
-175.0613
  0
SEQEND
  0
POLYLINE
  8
LAYER_2
 40
0.1764
 41
0.1764
 62
252
 66
1
 10
0
 20
0
 30
0
  0
VERTEX
  8
LAYER_2
 10
138.8029
 20
-192.4258
  0
VERTEX
  8
LAYER_2
 10
132.3602
 20
-192.4258
  0
SEQEND
  0
POLYLINE
  8
LAYER_2
 40
0.1764
 41
0.1764
 62
252
 66
1
 10
0
 20
0
 30
0
  0
VERTEX
  8
LAYER_2
 10
140.9725
 20
-189.9857
  0
VERTEX
  8
LAYER_2
 10
130.1906
 20
-189.9857
  0
SEQEND
  0
POLYLINE
  8
LAYER_2
 40
0.1764
 41
0.1764
 62
252
 66
1
 10
0
 20
0
 30
0
  0
VERTEX
  8
LAYER_2
 10
169.1763
 20
-176.5625
  0
VERTEX
  8
LAYER_2
 10
113.269
 20
-176.5625
  0
SEQEND
  0
POLYLINE
  8
LAYER_2
 40
0.1764
 41
0.1764
 62
252
 66
1
 10
0
 20
0
 30
0
  0
VERTEX
  8
LAYER_2
 10
138.5323
 20
-193.0616
  0
VERTEX
  8
LAYER_2
 10
138.5323
 20
-192.7253
  0
SEQEND
  0
POLYLINE
  8
LAYER_2
 40
0.1764
 41
0.1764
 62
252
 66
1
 10
0
 20
0
 30
0
  0
VERTEX
  8
LAYER_2
 10
138.8029
 20
-192.4258
  0
VERTEX
  8
LAYER_2
 10
138.6102
 20
-192.5242
  0
VERTEX
  8
LAYER_2
 10
138.5323
 20
-192.7253
  0
SEQEND
  0
POLYLINE
  8
LAYER_2
 40
0.1764
 41
0.1764
 62
252
 66
1
 10
0
 20
0
 30
0
  0
VERTEX
  8
LAYER_2
 10
138.8029
 20
-192.4258
  0
VERTEX
  8
LAYER_2
 10
140.2589
 20
-192.2865
  0
VERTEX
  8
LAYER_2
 10
140.4394
 20
-192.2002
  0
VERTEX
  8
LAYER_2
 10
140.5255
 20
-192.0238
  0
VERTEX
  8
LAYER_2
 10
140.6854
 20
-190.2603
  0
SEQEND
  0
POLYLINE
  8
LAYER_2
 40
0.1764
 41
0.1764
 62
252
 66
1
 10
0
 20
0
 30
0
  0
VERTEX
  8
LAYER_2
 10
140.9725
 20
-189.9857
  0
VERTEX
  8
LAYER_2
 10
140.7757
 20
-190.0675
  0
VERTEX
  8
LAYER_2
 10
140.6854
 20
-190.2603
  0
SEQEND
  0
POLYLINE
  8
LAYER_2
 40
0.1764
 41
0.1764
 62
252
 66
1
 10
0
 20
0
 30
0
  0
VERTEX
  8
LAYER_2
 10
140.9725
 20
-189.9857
  0
VERTEX
  8
LAYER_2
 10
166.6089
 20
-189.4319
  0
SEQEND
  0
POLYLINE
  8
LAYER_2
 40
0.1764
 41
0.1764
 62
252
 66
1
 10
0
 20
0
 30
0
  0
VERTEX
  8
LAYER_2
 10
164.1197
 20
-176.5625
  0
VERTEX
  8
LAYER_2
 10
172.6705
 20
-176.5625
  0
VERTEX
  8
LAYER_2
 10
172.8837
 20
-176.4721
  0
VERTEX
  8
LAYER_2
 10
172.97
 20
-176.263
  0
VERTEX
  8
LAYER_2
 10
172.97
 20
-175.3607
  0
VERTEX
  8
LAYER_2
 10
172.8837
 20
-175.1516
  0
VERTEX
  8
LAYER_2
 10
172.6705
 20
-175.0613
  0
SEQEND
  0
POLYLINE
  8
LAYER_2
 40
0.1764
 41
0.1764
 62
252
 66
1
 10
0
 20
0
 30
0
  0
VERTEX
  8
LAYER_2
 10
166.6089
 20
-189.4319
  0
VERTEX
  8
LAYER_2
 10
166.7977
 20
-189.3582
  0
VERTEX
  8
LAYER_2
 10
166.9002
 20
-189.1817
  0
VERTEX
  8
LAYER_2
 10
168.6433
 20
-177.3047
  0
SEQEND
  0
POLYLINE
  8
LAYER_2
 40
0.1764
 41
0.1764
 62
252
 66
1
 10
0
 20
0
 30
0
  0
VERTEX
  8
LAYER_2
 10
169.2296
 20
-176.5625
  0
VERTEX
  8
LAYER_2
 10
168.84
 20
-176.8619
  0
VERTEX
  8
LAYER_2
 10
168.6433
 20
-177.3047
  0
SEQEND
  0
ENDBLK
  0
BLOCK
  8
LAYER_2
  2
AIGNBL02010006
 70
64
 10
0
 20
0
 30
0
  3
AIGNBL02010006
  0
POLYLINE
  8
LAYER_2
 40
0.1764
 41
0.1764
 66
1
 10
0
 20
0
 30
0
  0
VERTEX
  8
LAYER_2
 10
117.9691
 20
-175.0613
  0
VERTEX
  8
LAYER_2
 10
118.0798
 20
-175.8242
  0
SEQEND
  0
POLYLINE
  8
LAYER_2
 40
0.1764
 41
0.1764
 66
1
 10
0
 20
0
 30
0
  0
VERTEX
  8
LAYER_2
 10
118.1289
 20
-176.1359
  0
VERTEX
  8
LAYER_2
 10
118.2232
 20
-176.7635
  0
SEQEND
  0
POLYLINE
  8
LAYER_2
 40
0.1764
 41
0.1764
 66
1
 10
0
 20
0
 30
0
  0
VERTEX
  8
LAYER_2
 10
118.2684
 20
-177.0791
  0
VERTEX
  8
LAYER_2
 10
118.3627
 20
-177.7067
  0
SEQEND
  0
POLYLINE
  8
LAYER_2
 40
0.1764
 41
0.1764
 66
1
 10
0
 20
0
 30
0
  0
VERTEX
  8
LAYER_2
 10
118.4078
 20
-178.0223
  0
VERTEX
  8
LAYER_2
 10
118.5022
 20
-178.6499
  0
SEQEND
  0
POLYLINE
  8
LAYER_2
 40
0.1764
 41
0.1764
 66
1
 10
0
 20
0
 30
0
  0
VERTEX
  8
LAYER_2
 10
118.5513
 20
-178.9616
  0
VERTEX
  8
LAYER_2
 10
118.6416
 20
-179.5933
  0
SEQEND
  0
POLYLINE
  8
LAYER_2
 40
0.1764
 41
0.1764
 66
1
 10
0
 20
0
 30
0
  0
VERTEX
  8
LAYER_2
 10
118.6908
 20
-179.905
  0
VERTEX
  8
LAYER_2
 10
118.7851
 20
-180.5325
  0
SEQEND
  0
POLYLINE
  8
LAYER_2
 40
0.1764
 41
0.1764
 66
1
 10
0
 20
0
 30
0
  0
VERTEX
  8
LAYER_2
 10
118.8302
 20
-180.8483
  0
VERTEX
  8
LAYER_2
 10
118.9247
 20
-181.4757
  0
SEQEND
  0
POLYLINE
  8
LAYER_2
 40
0.1764
 41
0.1764
 66
1
 10
0
 20
0
 30
0
  0
VERTEX
  8
LAYER_2
 10
118.9697
 20
-181.7915
  0
VERTEX
  8
LAYER_2
 10
119.064
 20
-182.419
  0
SEQEND
  0
POLYLINE
  8
LAYER_2
 40
0.1764
 41
0.1764
 66
1
 10
0
 20
0
 30
0
  0
VERTEX
  8
LAYER_2
 10
119.1132
 20
-182.7305
  0
VERTEX
  8
LAYER_2
 10
119.2035
 20
-183.3622
  0
SEQEND
  0
POLYLINE
  8
LAYER_2
 40
0.1764
 41
0.1764
 66
1
 10
0
 20
0
 30
0
  0
VERTEX
  8
LAYER_2
 10
119.2526
 20
-183.674
  0
VERTEX
  8
LAYER_2
 10
119.347
 20
-184.3013
  0
SEQEND
  0
POLYLINE
  8
LAYER_2
 40
0.1764
 41
0.1764
 66
1
 10
0
 20
0
 30
0
  0
VERTEX
  8
LAYER_2
 10
119.392
 20
-184.6172
  0
VERTEX
  8
LAYER_2
 10
119.4864
 20
-185.2446
  0
SEQEND
  0
POLYLINE
  8
LAYER_2
 40
0.1764
 41
0.1764
 66
1
 10
0
 20
0
 30
0
  0
VERTEX
  8
LAYER_2
 10
119.5315
 20
-185.5605
  0
VERTEX
  8
LAYER_2
 10
119.6258
 20
-186.1879
  0
SEQEND
  0
POLYLINE
  8
LAYER_2
 40
0.1764
 41
0.1764
 66
1
 10
0
 20
0
 30
0
  0
VERTEX
  8
LAYER_2
 10
119.6751
 20
-186.4995
  0
VERTEX
  8
LAYER_2
 10
119.7858
 20
-187.2624
  0
VERTEX
  8
LAYER_2
 10
119.8843
 20
-187.4347
  0
VERTEX
  8
LAYER_2
 10
120.0689
 20
-187.5086
  0
VERTEX
  8
LAYER_2
 10
120.4256
 20
-187.5414
  0
SEQEND
  0
POLYLINE
  8
LAYER_2
 40
0.1764
 41
0.1764
 66
1
 10
0
 20
0
 30
0
  0
VERTEX
  8
LAYER_2
 10
120.7455
 20
-187.57
  0
VERTEX
  8
LAYER_2
 10
121.377
 20
-187.6315
  0
SEQEND
  0
POLYLINE
  8
LAYER_2
 40
0.1764
 41
0.1764
 66
1
 10
0
 20
0
 30
0
  0
VERTEX
  8
LAYER_2
 10
121.6928
 20
-187.6603
  0
VERTEX
  8
LAYER_2
 10
122.3245
 20
-187.7177
  0
SEQEND
  0
POLYLINE
  8
LAYER_2
 40
0.1764
 41
0.1764
 66
1
 10
0
 20
0
 30
0
  0
VERTEX
  8
LAYER_2
 10
122.6404
 20
-187.7462
  0
VERTEX
  8
LAYER_2
 10
123.2718
 20
-187.8037
  0
SEQEND
  0
POLYLINE
  8
LAYER_2
 40
0.1764
 41
0.1764
 66
1
 10
0
 20
0
 30
0
  0
VERTEX
  8
LAYER_2
 10
123.5876
 20
-187.8325
  0
VERTEX
  8
LAYER_2
 10
124.2234
 20
-187.8898
  0
SEQEND
  0
POLYLINE
  8
LAYER_2
 40
0.1764
 41
0.1764
 66
1
 10
0
 20
0
 30
0
  0
VERTEX
  8
LAYER_2
 10
124.539
 20
-187.9187
  0
VERTEX
  8
LAYER_2
 10
125.1706
 20
-187.9802
  0
SEQEND
  0
POLYLINE
  8
LAYER_2
 40
0.1764
 41
0.1764
 66
1
 10
0
 20
0
 30
0
  0
VERTEX
  8
LAYER_2
 10
125.4865
 20
-188.0089
  0
VERTEX
  8
LAYER_2
 10
126.118
 20
-188.0663
  0
SEQEND
  0
POLYLINE
  8
LAYER_2
 40
0.1764
 41
0.1764
 66
1
 10
0
 20
0
 30
0
  0
VERTEX
  8
LAYER_2
 10
126.4339
 20
-188.0949
  0
VERTEX
  8
LAYER_2
 10
127.0654
 20
-188.1523
  0
SEQEND
  0
POLYLINE
  8
LAYER_2
 40
0.1764
 41
0.1764
 66
1
 10
0
 20
0
 30
0
  0
VERTEX
  8
LAYER_2
 10
127.3853
 20
-188.1812
  0
VERTEX
  8
LAYER_2
 10
128.0169
 20
-188.2385
  0
SEQEND
  0
POLYLINE
  8
LAYER_2
 40
0.1764
 41
0.1764
 66
1
 10
0
 20
0
 30
0
  0
VERTEX
  8
LAYER_2
 10
128.3327
 20
-188.2673
  0
VERTEX
  8
LAYER_2
 10
128.9643
 20
-188.3247
  0
SEQEND
  0
POLYLINE
  8
LAYER_2
 40
0.1764
 41
0.1764
 66
1
 10
0
 20
0
 30
0
  0
VERTEX
  8
LAYER_2
 10
129.28
 20
-188.3575
  0
VERTEX
  8
LAYER_2
 10
129.9116
 20
-188.415
  0
SEQEND
  0
POLYLINE
  8
LAYER_2
 40
0.1764
 41
0.1764
 66
1
 10
0
 20
0
 30
0
  0
VERTEX
  8
LAYER_2
 10
130.2275
 20
-188.4435
  0
VERTEX
  8
LAYER_2
 10
130.863
 20
-188.5011
  0
SEQEND
  0
POLYLINE
  8
LAYER_2
 40
0.1764
 41
0.1764
 66
1
 10
0
 20
0
 30
0
  0
VERTEX
  8
LAYER_2
 10
131.1789
 20
-188.5296
  0
VERTEX
  8
LAYER_2
 10
131.5356
 20
-188.5624
  0
SEQEND
  0
POLYLINE
  8
LAYER_2
 40
0.1764
 41
0.1764
 66
1
 10
0
 20
0
 30
0
  0
VERTEX
  8
LAYER_2
 10
152.9685
 20
-175.0613
  0
VERTEX
  8
LAYER_2
 10
152.8905
 20
-175.5863
  0
SEQEND
  0
POLYLINE
  8
LAYER_2
 40
0.1764
 41
0.1764
 66
1
 10
0
 20
0
 30
0
  0
VERTEX
  8
LAYER_2
 10
152.8454
 20
-175.902
  0
VERTEX
  8
LAYER_2
 10
152.7511
 20
-176.5297
  0
SEQEND
  0
POLYLINE
  8
LAYER_2
 40
0.1764
 41
0.1764
 66
1
 10
0
 20
0
 30
0
  0
VERTEX
  8
LAYER_2
 10
152.706
 20
-176.8453
  0
VERTEX
  8
LAYER_2
 10
152.6118
 20
-177.4729
  0
SEQEND
  0
POLYLINE
  8
LAYER_2
 40
0.1764
 41
0.1764
 66
1
 10
0
 20
0
 30
0
  0
VERTEX
  8
LAYER_2
 10
152.5624
 20
-177.7845
  0
VERTEX
  8
LAYER_2
 10
152.4722
 20
-178.4121
  0
SEQEND
  0
POLYLINE
  8
LAYER_2
 40
0.1764
 41
0.1764
 66
1
 10
0
 20
0
 30
0
  0
VERTEX
  8
LAYER_2
 10
152.423
 20
-178.728
  0
VERTEX
  8
LAYER_2
 10
152.3286
 20
-179.3554
  0
SEQEND
  0
POLYLINE
  8
LAYER_2
 40
0.1764
 41
0.1764
 66
1
 10
0
 20
0
 30
0
  0
VERTEX
  8
LAYER_2
 10
152.2836
 20
-179.6712
  0
VERTEX
  8
LAYER_2
 10
152.1892
 20
-180.2987
  0
SEQEND
  0
POLYLINE
  8
LAYER_2
 40
0.1764
 41
0.1764
 66
1
 10
0
 20
0
 30
0
  0
VERTEX
  8
LAYER_2
 10
152.1442
 20
-180.6104
  0
VERTEX
  8
LAYER_2
 10
152.0498
 20
-181.2419
  0
SEQEND
  0
POLYLINE
  8
LAYER_2
 40
0.1764
 41
0.1764
 66
1
 10
0
 20
0
 30
0
  0
VERTEX
  8
LAYER_2
 10
152.0047
 20
-181.5537
  0
VERTEX
  8
LAYER_2
 10
151.9104
 20
-182.1811
  0
SEQEND
  0
POLYLINE
  8
LAYER_2
 40
0.1764
 41
0.1764
 66
1
 10
0
 20
0
 30
0
  0
VERTEX
  8
LAYER_2
 10
151.8613
 20
-182.4969
  0
VERTEX
  8
LAYER_2
 10
151.7668
 20
-183.1244
  0
SEQEND
  0
POLYLINE
  8
LAYER_2
 40
0.1764
 41
0.1764
 66
1
 10
0
 20
0
 30
0
  0
VERTEX
  8
LAYER_2
 10
151.7218
 20
-183.4402
  0
VERTEX
  8
LAYER_2
 10
151.6274
 20
-184.0677
  0
SEQEND
  0
POLYLINE
  8
LAYER_2
 40
0.1764
 41
0.1764
 66
1
 10
0
 20
0
 30
0
  0
VERTEX
  8
LAYER_2
 10
151.5822
 20
-184.3792
  0
VERTEX
  8
LAYER_2
 10
151.488
 20
-185.0109
  0
SEQEND
  0
POLYLINE
  8
LAYER_2
 40
0.1764
 41
0.1764
 66
1
 10
0
 20
0
 30
0
  0
VERTEX
  8
LAYER_2
 10
151.4428
 20
-185.3226
  0
VERTEX
  8
LAYER_2
 10
151.3485
 20
-185.95
  0
SEQEND
  0
POLYLINE
  8
LAYER_2
 40
0.1764
 41
0.1764
 66
1
 10
0
 20
0
 30
0
  0
VERTEX
  8
LAYER_2
 10
151.2993
 20
-186.2657
  0
VERTEX
  8
LAYER_2
 10
151.205
 20
-186.8933
  0
SEQEND
  0
POLYLINE
  8
LAYER_2
 40
0.1764
 41
0.1764
 66
1
 10
0
 20
0
 30
0
  0
VERTEX
  8
LAYER_2
 10
151.1598
 20
-187.2091
  0
VERTEX
  8
LAYER_2
 10
151.0819
 20
-187.734
  0
VERTEX
  8
LAYER_2
 10
150.9876
 20
-187.9022
  0
VERTEX
  8
LAYER_2
 10
150.8072
 20
-187.9802
  0
VERTEX
  8
LAYER_2
 10
150.3519
 20
-188.0007
  0
SEQEND
  0
POLYLINE
  8
LAYER_2
 40
0.1764
 41
0.1764
 66
1
 10
0
 20
0
 30
0
  0
VERTEX
  8
LAYER_2
 10
150.0361
 20
-188.017
  0
VERTEX
  8
LAYER_2
 10
149.4004
 20
-188.0498
  0
SEQEND
  0
POLYLINE
  8
LAYER_2
 40
0.1764
 41
0.1764
 66
1
 10
0
 20
0
 30
0
  0
VERTEX
  8
LAYER_2
 10
149.0847
 20
-188.0663
  0
VERTEX
  8
LAYER_2
 10
148.449
 20
-188.0991
  0
SEQEND
  0
POLYLINE
  8
LAYER_2
 40
0.1764
 41
0.1764
 66
1
 10
0
 20
0
 30
0
  0
VERTEX
  8
LAYER_2
 10
148.1333
 20
-188.1115
  0
VERTEX
  8
LAYER_2
 10
147.4974
 20
-188.1442
  0
SEQEND
  0
POLYLINE
  8
LAYER_2
 40
0.1764
 41
0.1764
 66
1
 10
0
 20
0
 30
0
  0
VERTEX
  8
LAYER_2
 10
147.1816
 20
-188.1605
  0
VERTEX
  8
LAYER_2
 10
146.546
 20
-188.1934
  0
SEQEND
  0
POLYLINE
  8
LAYER_2
 40
0.1764
 41
0.1764
 66
1
 10
0
 20
0
 30
0
  0
VERTEX
  8
LAYER_2
 10
146.2302
 20
-188.2098
  0
VERTEX
  8
LAYER_2
 10
145.5945
 20
-188.2385
  0
SEQEND
  0
POLYLINE
  8
LAYER_2
 40
0.1764
 41
0.1764
 66
1
 10
0
 20
0
 30
0
  0
VERTEX
  8
LAYER_2
 10
145.2787
 20
-188.255
  0
VERTEX
  8
LAYER_2
 10
144.6432
 20
-188.2878
  0
SEQEND
  0
POLYLINE
  8
LAYER_2
 40
0.1764
 41
0.1764
 66
1
 10
0
 20
0
 30
0
  0
VERTEX
  8
LAYER_2
 10
144.3274
 20
-188.3041
  0
VERTEX
  8
LAYER_2
 10
143.6916
 20
-188.3329
  0
SEQEND
  0
POLYLINE
  8
LAYER_2
 40
0.1764
 41
0.1764
 66
1
 10
0
 20
0
 30
0
  0
VERTEX
  8
LAYER_2
 10
143.3758
 20
-188.3491
  0
VERTEX
  8
LAYER_2
 10
142.7402
 20
-188.3819
  0
SEQEND
  0
POLYLINE
  8
LAYER_2
 40
0.1764
 41
0.1764
 66
1
 10
0
 20
0
 30
0
  0
VERTEX
  8
LAYER_2
 10
142.4243
 20
-188.3984
  0
VERTEX
  8
LAYER_2
 10
141.7886
 20
-188.4312
  0
SEQEND
  0
POLYLINE
  8
LAYER_2
 40
0.1764
 41
0.1764
 66
1
 10
0
 20
0
 30
0
  0
VERTEX
  8
LAYER_2
 10
141.4728
 20
-188.4435
  0
VERTEX
  8
LAYER_2
 10
140.8371
 20
-188.4763
  0
SEQEND
  0
POLYLINE
  8
LAYER_2
 40
0.1764
 41
0.1764
 66
1
 10
0
 20
0
 30
0
  0
VERTEX
  8
LAYER_2
 10
140.5215
 20
-188.4928
  0
VERTEX
  8
LAYER_2
 10
139.8857
 20
-188.5256
  0
SEQEND
  0
POLYLINE
  8
LAYER_2
 40
0.1764
 41
0.1764
 66
1
 10
0
 20
0
 30
0
  0
VERTEX
  8
LAYER_2
 10
139.57
 20
-188.5419
  0
VERTEX
  8
LAYER_2
 10
139.1147
 20
-188.5624
  0
SEQEND
  0
POLYLINE
  8
LAYER_2
 40
0.1764
 41
0.1764
 66
1
 10
0
 20
0
 30
0
  0
VERTEX
  8
LAYER_2
 10
139.57
 20
-188.5624
  0
VERTEX
  8
LAYER_2
 10
139.045
 20
-188.5624
  0
SEQEND
  0
POLYLINE
  8
LAYER_2
 40
0.1764
 41
0.1764
 66
1
 10
0
 20
0
 30
0
  0
VERTEX
  8
LAYER_2
 10
138.7291
 20
-188.5624
  0
VERTEX
  8
LAYER_2
 10
138.0934
 20
-188.5624
  0
SEQEND
  0
POLYLINE
  8
LAYER_2
 40
0.1764
 41
0.1764
 66
1
 10
0
 20
0
 30
0
  0
VERTEX
  8
LAYER_2
 10
137.7776
 20
-188.5624
  0
VERTEX
  8
LAYER_2
 10
137.142
 20
-188.5624
  0
SEQEND
  0
POLYLINE
  8
LAYER_2
 40
0.1764
 41
0.1764
 66
1
 10
0
 20
0
 30
0
  0
VERTEX
  8
LAYER_2
 10
136.8221
 20
-188.5624
  0
VERTEX
  8
LAYER_2
 10
136.1905
 20
-188.5624
  0
SEQEND
  0
POLYLINE
  8
LAYER_2
 40
0.1764
 41
0.1764
 66
1
 10
0
 20
0
 30
0
  0
VERTEX
  8
LAYER_2
 10
135.8706
 20
-188.5624
  0
VERTEX
  8
LAYER_2
 10
135.235
 20
-188.5624
  0
SEQEND
  0
POLYLINE
  8
LAYER_2
 40
0.1764
 41
0.1764
 66
1
 10
0
 20
0
 30
0
  0
VERTEX
  8
LAYER_2
 10
134.9192
 20
-188.5624
  0
VERTEX
  8
LAYER_2
 10
134.2835
 20
-188.5624
  0
SEQEND
  0
POLYLINE
  8
LAYER_2
 40
0.1764
 41
0.1764
 66
1
 10
0
 20
0
 30
0
  0
VERTEX
  8
LAYER_2
 10
133.9677
 20
-188.5624
  0
VERTEX
  8
LAYER_2
 10
133.332
 20
-188.5624
  0
SEQEND
  0
POLYLINE
  8
LAYER_2
 40
0.1764
 41
0.1764
 66
1
 10
0
 20
0
 30
0
  0
VERTEX
  8
LAYER_2
 10
133.0122
 20
-188.5624
  0
VERTEX
  8
LAYER_2
 10
132.3806
 20
-188.5624
  0
SEQEND
  0
POLYLINE
  8
LAYER_2
 40
0.1764
 41
0.1764
 66
1
 10
0
 20
0
 30
0
  0
VERTEX
  8
LAYER_2
 10
132.0607
 20
-188.5624
  0
VERTEX
  8
LAYER_2
 10
131.5356
 20
-188.5624
  0
SEQEND
  0
ENDBLK
  0
BLOCK
  8
LAYER_2
  2
AIGNBL02010007
 70
64
 10
0
 20
0
 30
0
  3
AIGNBL02010007
  0
POLYLINE
  8
LAYER_2
 40
0.1764
 41
0.1764
 62
252
 66
1
 10
0
 20
0
 30
0
  0
VERTEX
  8
LAYER_2
 10
132.6312
 20
-193.0616
  0
VERTEX
  8
LAYER_2
 10
138.5323
 20
-193.0616
  0
VERTEX
  8
LAYER_2
 10
138.5323
 20
-192.7211
  0
VERTEX
  8
LAYER_2
 10
138.6104
 20
-192.5202
  0
VERTEX
  8
LAYER_2
 10
138.803
 20
-192.4218
  0
VERTEX
  8
LAYER_2
 10
140.259
 20
-192.2823
  0
VERTEX
  8
LAYER_2
 10
140.4393
 20
-192.1963
  0
VERTEX
  8
LAYER_2
 10
140.5255
 20
-192.0116
  0
VERTEX
  8
LAYER_2
 10
140.6854
 20
-190.2565
  0
VERTEX
  8
LAYER_2
 10
140.7756
 20
-190.0678
  0
VERTEX
  8
LAYER_2
 10
140.9724
 20
-189.9817
  0
SEQEND
  0
POLYLINE
  8
LAYER_2
 40
0.1764
 41
0.1764
 62
252
 66
1
 10
0
 20
0
 30
0
  0
VERTEX
  8
LAYER_2
 10
132.3605
 20
-192.4218
  0
VERTEX
  8
LAYER_2
 10
138.803
 20
-192.4218
  0
SEQEND
  0
POLYLINE
  8
LAYER_2
 40
0.1764
 41
0.1764
 62
252
 66
1
 10
0
 20
0
 30
0
  0
VERTEX
  8
LAYER_2
 10
130.1912
 20
-189.9817
  0
VERTEX
  8
LAYER_2
 10
140.9724
 20
-189.9817
  0
SEQEND
  0
POLYLINE
  8
LAYER_2
 40
0.1764
 41
0.1764
 62
252
 66
1
 10
0
 20
0
 30
0
  0
VERTEX
  8
LAYER_2
 10
132.6312
 20
-193.0616
  0
VERTEX
  8
LAYER_2
 10
132.6312
 20
-192.7211
  0
VERTEX
  8
LAYER_2
 10
132.5534
 20
-192.5202
  0
VERTEX
  8
LAYER_2
 10
132.3605
 20
-192.4218
  0
VERTEX
  8
LAYER_2
 10
130.9048
 20
-192.2823
  0
SEQEND
  0
POLYLINE
  8
LAYER_2
 40
0.1764
 41
0.1764
 62
252
 66
1
 10
0
 20
0
 30
0
  0
VERTEX
  8
LAYER_2
 10
130.6341
 20
-192.0198
  0
VERTEX
  8
LAYER_2
 10
130.7243
 20
-192.2003
  0
VERTEX
  8
LAYER_2
 10
130.9048
 20
-192.2823
  0
SEQEND
  0
POLYLINE
  8
LAYER_2
 40
0.1764
 41
0.1764
 62
252
 66
1
 10
0
 20
0
 30
0
  0
VERTEX
  8
LAYER_2
 10
130.6341
 20
-192.0198
  0
VERTEX
  8
LAYER_2
 10
130.4742
 20
-190.2565
  0
VERTEX
  8
LAYER_2
 10
130.3839
 20
-190.0678
  0
VERTEX
  8
LAYER_2
 10
130.1912
 20
-189.9817
  0
SEQEND
  0
ENDBLK
  0
BLOCK
  8
LAYER_2
  2
AIGNBL02010008
 70
64
 10
0
 20
0
 30
0
  3
AIGNBL02010008
  0
POLYLINE
  8
LAYER_2
 40
0.1764
 41
0.1764
 66
1
 10
0
 20
0
 30
0
  0
VERTEX
  8
LAYER_2
 10
130.4988
 20
-188.5422
  0
VERTEX
  8
LAYER_2
 10
130.876
 20
-188.5588
  0
VERTEX
  8
LAYER_2
 10
131.2002
 20
-188.6982
  0
VERTEX
  8
LAYER_2
 10
131.3517
 20
-189.0139
  0
VERTEX
  8
LAYER_2
 10
131.4092
 20
-189.6373
  0
SEQEND
  0
POLYLINE
  8
LAYER_2
 40
0.1764
 41
0.1764
 66
1
 10
0
 20
0
 30
0
  0
VERTEX
  8
LAYER_2
 10
131.4379
 20
-189.9532
  0
VERTEX
  8
LAYER_2
 10
131.4953
 20
-190.5724
  0
VERTEX
  8
LAYER_2
 10
131.5815
 20
-190.7567
  0
VERTEX
  8
LAYER_2
 10
131.7619
 20
-190.843
  0
VERTEX
  8
LAYER_2
 10
132.3811
 20
-190.9045
  0
SEQEND
  0
POLYLINE
  8
LAYER_2
 40
0.1764
 41
0.1764
 66
1
 10
0
 20
0
 30
0
  0
VERTEX
  8
LAYER_2
 10
132.6968
 20
-190.9331
  0
VERTEX
  8
LAYER_2
 10
133.3122
 20
-190.9948
  0
VERTEX
  8
LAYER_2
 10
133.5048
 20
-191.089
  0
VERTEX
  8
LAYER_2
 10
133.5826
 20
-191.29
  0
VERTEX
  8
LAYER_2
 10
133.5826
 20
-192.0158
  0
SEQEND
  0
POLYLINE
  8
LAYER_2
 40
0.1764
 41
0.1764
 66
1
 10
0
 20
0
 30
0
  0
VERTEX
  8
LAYER_2
 10
133.5826
 20
-192.3357
  0
VERTEX
  8
LAYER_2
 10
133.5826
 20
-193.0616
  0
SEQEND
  0
POLYLINE
  8
LAYER_2
 40
0.1764
 41
0.1764
 66
1
 10
0
 20
0
 30
0
  0
VERTEX
  8
LAYER_2
 10
130.876
 20
-188.5588
  0
VERTEX
  8
LAYER_2
 10
131.6101
 20
-188.5588
  0
SEQEND
  0
POLYLINE
  8
LAYER_2
 40
0.1764
 41
0.1764
 66
1
 10
0
 20
0
 30
0
  0
VERTEX
  8
LAYER_2
 10
131.9301
 20
-188.5588
  0
VERTEX
  8
LAYER_2
 10
132.5656
 20
-188.5588
  0
SEQEND
  0
POLYLINE
  8
LAYER_2
 40
0.1764
 41
0.1764
 66
1
 10
0
 20
0
 30
0
  0
VERTEX
  8
LAYER_2
 10
132.8814
 20
-188.5588
  0
VERTEX
  8
LAYER_2
 10
133.517
 20
-188.5588
  0
SEQEND
  0
POLYLINE
  8
LAYER_2
 40
0.1764
 41
0.1764
 66
1
 10
0
 20
0
 30
0
  0
VERTEX
  8
LAYER_2
 10
133.8328
 20
-188.5588
  0
VERTEX
  8
LAYER_2
 10
134.4685
 20
-188.5588
  0
SEQEND
  0
POLYLINE
  8
LAYER_2
 40
0.1764
 41
0.1764
 66
1
 10
0
 20
0
 30
0
  0
VERTEX
  8
LAYER_2
 10
134.7883
 20
-188.5588
  0
VERTEX
  8
LAYER_2
 10
135.4239
 20
-188.5588
  0
SEQEND
  0
POLYLINE
  8
LAYER_2
 40
0.1764
 41
0.1764
 66
1
 10
0
 20
0
 30
0
  0
VERTEX
  8
LAYER_2
 10
135.7397
 20
-188.5588
  0
VERTEX
  8
LAYER_2
 10
136.3754
 20
-188.5588
  0
SEQEND
  0
POLYLINE
  8
LAYER_2
 40
0.1764
 41
0.1764
 66
1
 10
0
 20
0
 30
0
  0
VERTEX
  8
LAYER_2
 10
136.6912
 20
-188.5588
  0
VERTEX
  8
LAYER_2
 10
137.3267
 20
-188.5588
  0
SEQEND
  0
POLYLINE
  8
LAYER_2
 40
0.1764
 41
0.1764
 66
1
 10
0
 20
0
 30
0
  0
VERTEX
  8
LAYER_2
 10
137.6465
 20
-188.5588
  0
VERTEX
  8
LAYER_2
 10
138.2782
 20
-188.5588
  0
SEQEND
  0
POLYLINE
  8
LAYER_2
 40
0.1764
 41
0.1764
 66
1
 10
0
 20
0
 30
0
  0
VERTEX
  8
LAYER_2
 10
138.5982
 20
-188.5588
  0
VERTEX
  8
LAYER_2
 10
139.2337
 20
-188.5588
  0
SEQEND
  0
POLYLINE
  8
LAYER_2
 40
0.1764
 41
0.1764
 66
1
 10
0
 20
0
 30
0
  0
VERTEX
  8
LAYER_2
 10
139.5494
 20
-188.5588
  0
VERTEX
  8
LAYER_2
 10
140.2875
 20
-188.5588
  0
SEQEND
  0
POLYLINE
  8
LAYER_2
 40
0.1764
 41
0.1764
 66
1
 10
0
 20
0
 30
0
  0
VERTEX
  8
LAYER_2
 10
133.3122
 20
-190.9948
  0
VERTEX
  8
LAYER_2
 10
133.9927
 20
-190.9948
  0
SEQEND
  0
POLYLINE
  8
LAYER_2
 40
0.1764
 41
0.1764
 66
1
 10
0
 20
0
 30
0
  0
VERTEX
  8
LAYER_2
 10
134.3126
 20
-190.9948
  0
VERTEX
  8
LAYER_2
 10
134.9441
 20
-190.9948
  0
SEQEND
  0
POLYLINE
  8
LAYER_2
 40
0.1764
 41
0.1764
 66
1
 10
0
 20
0
 30
0
  0
VERTEX
  8
LAYER_2
 10
135.2641
 20
-190.9948
  0
VERTEX
  8
LAYER_2
 10
135.8996
 20
-190.9948
  0
SEQEND
  0
POLYLINE
  8
LAYER_2
 40
0.1764
 41
0.1764
 66
1
 10
0
 20
0
 30
0
  0
VERTEX
  8
LAYER_2
 10
136.2153
 20
-190.9948
  0
VERTEX
  8
LAYER_2
 10
136.851
 20
-190.9948
  0
SEQEND
  0
POLYLINE
  8
LAYER_2
 40
0.1764
 41
0.1764
 66
1
 10
0
 20
0
 30
0
  0
VERTEX
  8
LAYER_2
 10
137.1668
 20
-190.9948
  0
VERTEX
  8
LAYER_2
 10
137.8475
 20
-190.9948
  0
SEQEND
  0
POLYLINE
  8
LAYER_2
 40
0.1764
 41
0.1764
 66
1
 10
0
 20
0
 30
0
  0
VERTEX
  8
LAYER_2
 10
140.6649
 20
-188.5422
  0
VERTEX
  8
LAYER_2
 10
140.2918
 20
-188.5588
  0
VERTEX
  8
LAYER_2
 10
139.9678
 20
-188.6982
  0
VERTEX
  8
LAYER_2
 10
139.8119
 20
-189.0139
  0
VERTEX
  8
LAYER_2
 10
139.7585
 20
-189.6373
  0
SEQEND
  0
POLYLINE
  8
LAYER_2
 40
0.1764
 41
0.1764
 66
1
 10
0
 20
0
 30
0
  0
VERTEX
  8
LAYER_2
 10
139.7299
 20
-189.9532
  0
VERTEX
  8
LAYER_2
 10
139.6724
 20
-190.5724
  0
VERTEX
  8
LAYER_2
 10
139.5863
 20
-190.7567
  0
VERTEX
  8
LAYER_2
 10
139.4017
 20
-190.843
  0
VERTEX
  8
LAYER_2
 10
138.7866
 20
-190.9045
  0
SEQEND
  0
POLYLINE
  8
LAYER_2
 40
0.1764
 41
0.1764
 66
1
 10
0
 20
0
 30
0
  0
VERTEX
  8
LAYER_2
 10
138.4709
 20
-190.9331
  0
VERTEX
  8
LAYER_2
 10
137.8559
 20
-190.9948
  0
VERTEX
  8
LAYER_2
 10
137.6589
 20
-191.089
  0
VERTEX
  8
LAYER_2
 10
137.581
 20
-191.29
  0
VERTEX
  8
LAYER_2
 10
137.581
 20
-192.0158
  0
SEQEND
  0
POLYLINE
  8
LAYER_2
 40
0.1764
 41
0.1764
 66
1
 10
0
 20
0
 30
0
  0
VERTEX
  8
LAYER_2
 10
137.581
 20
-192.3357
  0
VERTEX
  8
LAYER_2
 10
137.581
 20
-193.0616
  0
SEQEND
  0
ENDBLK
  0
BLOCK
  8
LAYER_2
  2
AIGNBL02010009
 70
64
 10
0
 20
0
 30
0
  3
AIGNBL02010009
  0
POLYLINE
  8
LAYER_2
 40
0.1764
 41
0.1764
 66
1
 10
0
 20
0
 30
0
 70
1
  0
VERTEX
  8
LAYER_2
 10
113.2705
 20
-176.5625
  0
VERTEX
  8
LAYER_2
 10
113.2705
 20
-216.5625
  0
VERTEX
  8
LAYER_2
 10
172.6705
 20
-216.5625
  0
VERTEX
  8
LAYER_2
 10
172.6705
 20
-176.5625
  0
SEQEND
  0
POLYLINE
  8
LAYER_2
 40
0.1764
 41
0.1764
 66
1
 10
0
 20
0
 30
0
 70
1
  0
VERTEX
  8
LAYER_2
 10
115.2705
 20
-178.5625
  0
VERTEX
  8
LAYER_2
 10
115.2705
 20
-214.5625
  0
VERTEX
  8
LAYER_2
 10
170.6705
 20
-214.5625
  0
VERTEX
  8
LAYER_2
 10
170.6705
 20
-178.5625
  0
SEQEND
  0
POLYLINE
  8
LAYER_2
 40
0.1764
 41
0.1764
 66
1
 10
0
 20
0
 30
0
  0
VERTEX
  8
LAYER_2
 10
172.6705
 20
-178.5625
  0
VERTEX
  8
LAYER_2
 10
172.6705
 20
-176.5625
  0
VERTEX
  8
LAYER_2
 10
116.7647
 20
-176.5625
  0
SEQEND
  0
POLYLINE
  8
LAYER_2
 40
0.1764
 41
0.1764
 66
1
 10
0
 20
0
 30
0
  0
VERTEX
  8
LAYER_2
 10
113.2705
 20
-178.5625
  0
VERTEX
  8
LAYER_2
 10
113.2705
 20
-176.5625
  0
VERTEX
  8
LAYER_2
 10
121.8236
 20
-176.5625
  0
SEQEND
  0
POLYLINE
  8
LAYER_2
 40
0.1764
 41
0.1764
 66
1
 10
0
 20
0
 30
0
  0
VERTEX
  8
LAYER_2
 10
170.6705
 20
-186.8125
  0
VERTEX
  8
LAYER_2
 10
168.9469
 20
-185.9507
 42
-0.2840742178
  0
VERTEX
  8
LAYER_2
 10
168.6705
 20
-185.5035
  0
VERTEX
  8
LAYER_2
 10
168.6705
 20
-182.3125
 42
-0.4142262011
  0
VERTEX
  8
LAYER_2
 10
169.1705
 20
-181.8125
  0
VERTEX
  8
LAYER_2
 10
170.6705
 20
-181.8125
  0
SEQEND
  0
POLYLINE
  8
LAYER_2
 40
0.1764
 41
0.1764
 66
1
 10
0
 20
0
 30
0
  0
VERTEX
  8
LAYER_2
 10
115.2705
 20
-186.8125
  0
VERTEX
  8
LAYER_2
 10
116.9941
 20
-185.9507
 42
0.284065943
  0
VERTEX
  8
LAYER_2
 10
117.2705
 20
-185.5035
  0
VERTEX
  8
LAYER_2
 10
117.2705
 20
-182.3125
 42
0.4142161705
  0
VERTEX
  8
LAYER_2
 10
116.7705
 20
-181.8125
  0
VERTEX
  8
LAYER_2
 10
115.2705
 20
-181.8125
  0
SEQEND
  0
POLYLINE
  8
LAYER_2
 40
0.1764
 41
0.1764
 66
1
 10
0
 20
0
 30
0
 70
1
  0
VERTEX
  8
LAYER_2
 10
115.9705
 20
-182.5625
  0
VERTEX
  8
LAYER_2
 10
115.9705
 20
-185.0625
 42
0.4142109535
  0
VERTEX
  8
LAYER_2
 10
116.4705
 20
-185.5625
 42
0.4142009248
  0
VERTEX
  8
LAYER_2
 10
116.9705
 20
-185.0625
  0
VERTEX
  8
LAYER_2
 10
116.9705
 20
-182.5625
 42
0.4142161705
  0
VERTEX
  8
LAYER_2
 10
116.4705
 20
-182.0625
 42
0.4142262011
  0
SEQEND
  0
POLYLINE
  8
LAYER_2
 40
0.1764
 41
0.1764
 66
1
 10
0
 20
0
 30
0
 70
1
  0
VERTEX
  8
LAYER_2
 10
168.9705
 20
-185.0625
 42
0.4142109536
  0
VERTEX
  8
LAYER_2
 10
169.4705
 20
-185.5625
 42
0.4142009248
  0
VERTEX
  8
LAYER_2
 10
169.9705
 20
-185.0625
  0
VERTEX
  8
LAYER_2
 10
169.9705
 20
-182.5625
 42
0.4142161705
  0
VERTEX
  8
LAYER_2
 10
169.4705
 20
-182.0625
 42
0.414226201
  0
VERTEX
  8
LAYER_2
 10
168.9705
 20
-182.5625
  0
SEQEND
  0
ENDBLK
  0
BLOCK
  8
LAYER_2
  2
AIGNBL0201000A
 70
64
 10
0
 20
0
 30
0
  3
AIGNBL0201000A
  0
INSERT
  8
LAYER_2
  2
AIGNBL0202000B
 10
0
 20
0
 30
0
  0
INSERT
  8
LAYER_2
  2
AIGNBL0202000C
 10
0
 20
0
 30
0
  0
INSERT
  8
LAYER_2
  2
AIGNBL0202000D
 10
0
 20
0
 30
0
  0
INSERT
  8
LAYER_2
  2
AIGNBL0202000E
 10
0
 20
0
 30
0
  0
INSERT
  8
LAYER_2
  2
AIGNBL0202000F
 10
0
 20
0
 30
0
  0
INSERT
  8
LAYER_2
  2
AIGNBL02020010
 10
0
 20
0
 30
0
  0
INSERT
  8
LAYER_2
  2
AIGNBL02020011
 10
0
 20
0
 30
0
  0
INSERT
  8
LAYER_2
  2
AIGNBL02020012
 10
0
 20
0
 30
0
  0
INSERT
  8
LAYER_2
  2
AIGNBL02020013
 10
0
 20
0
 30
0
  0
INSERT
  8
LAYER_2
  2
AIGNBL02020014
 10
0
 20
0
 30
0
  0
INSERT
  8
LAYER_2
  2
AIGNBL02020015
 10
0
 20
0
 30
0
  0
INSERT
  8
LAYER_2
  2
AIGNBL02020016
 10
0
 20
0
 30
0
  0
INSERT
  8
LAYER_2
  2
AIGNBL02020017
 10
0
 20
0
 30
0
  0
INSERT
  8
LAYER_2
  2
AIGNBL02020018
 10
0
 20
0
 30
0
  0
INSERT
  8
LAYER_2
  2
AIGNBL02020019
 10
0
 20
0
 30
0
  0
INSERT
  8
LAYER_2
  2
AIGNBL0202001A
 10
0
 20
0
 30
0
  0
INSERT
  8
LAYER_2
  2
AIGNBL0202001B
 10
0
 20
0
 30
0
  0
INSERT
  8
LAYER_2
  2
AIGNBL0202001C
 10
0
 20
0
 30
0
  0
INSERT
  8
LAYER_2
  2
AIGNBL0202001D
 10
0
 20
0
 30
0
  0
INSERT
  8
LAYER_2
  2
AIGNBL0202001E
 10
0
 20
0
 30
0
  0
INSERT
  8
LAYER_2
  2
AIGNBL0202001F
 10
0
 20
0
 30
0
  0
INSERT
  8
LAYER_2
  2
AIGNBL02020020
 10
0
 20
0
 30
0
  0
INSERT
  8
LAYER_2
  2
AIGNBL02020021
 10
0
 20
0
 30
0
  0
INSERT
  8
LAYER_2
  2
AIGNBL02020022
 10
0
 20
0
 30
0
  0
INSERT
  8
LAYER_2
  2
AIGNBL02020023
 10
0
 20
0
 30
0
  0
INSERT
  8
LAYER_2
  2
AIGNBL02020024
 10
0
 20
0
 30
0
  0
INSERT
  8
LAYER_2
  2
AIGNBL02020025
 10
0
 20
0
 30
0
  0
INSERT
  8
LAYER_2
  2
AIGNBL02020026
 10
0
 20
0
 30
0
  0
INSERT
  8
LAYER_2
  2
AIGNBL02020027
 10
0
 20
0
 30
0
  0
INSERT
  8
LAYER_2
  2
AIGNBL02020028
 10
0
 20
0
 30
0
  0
INSERT
  8
LAYER_2
  2
AIGNBL02020029
 10
0
 20
0
 30
0
  0
INSERT
  8
LAYER_2
  2
AIGNBL0202002A
 10
0
 20
0
 30
0
  0
INSERT
  8
LAYER_2
  2
AIGNBL0202002B
 10
0
 20
0
 30
0
  0
INSERT
  8
LAYER_2
  2
AIGNBL0202002C
 10
0
 20
0
 30
0
  0
INSERT
  8
LAYER_2
  2
AIGNBL0202002D
 10
0
 20
0
 30
0
  0
INSERT
  8
LAYER_2
  2
AIGNBL0202002E
 10
0
 20
0
 30
0
  0
INSERT
  8
LAYER_2
  2
AIGNBL0202002F
 10
0
 20
0
 30
0
  0
INSERT
  8
LAYER_2
  2
AIGNBL02020030
 10
0
 20
0
 30
0
  0
INSERT
  8
LAYER_2
  2
AIGNBL02020031
 10
0
 20
0
 30
0
  0
INSERT
  8
LAYER_2
  2
AIGNBL02020032
 10
0
 20
0
 30
0
  0
INSERT
  8
LAYER_2
  2
AIGNBL02020033
 10
0
 20
0
 30
0
  0
INSERT
  8
LAYER_2
  2
AIGNBL02020034
 10
0
 20
0
 30
0
  0
INSERT
  8
LAYER_2
  2
AIGNBL02020035
 10
0
 20
0
 30
0
  0
INSERT
  8
LAYER_2
  2
AIGNBL02020036
 10
0
 20
0
 30
0
  0
INSERT
  8
LAYER_2
  2
AIGNBL02020037
 10
0
 20
0
 30
0
  0
INSERT
  8
LAYER_2
  2
AIGNBL02020038
 10
0
 20
0
 30
0
  0
INSERT
  8
LAYER_2
  2
AIGNBL02020039
 10
0
 20
0
 30
0
  0
INSERT
  8
LAYER_2
  2
AIGNBL0202003A
 10
0
 20
0
 30
0
  0
INSERT
  8
LAYER_2
  2
AIGNBL0202003B
 10
0
 20
0
 30
0
  0
INSERT
  8
LAYER_2
  2
AIGNBL0202003C
 10
0
 20
0
 30
0
  0
INSERT
  8
LAYER_2
  2
AIGNBL0202003D
 10
0
 20
0
 30
0
  0
INSERT
  8
LAYER_2
  2
AIGNBL0202003E
 10
0
 20
0
 30
0
  0
INSERT
  8
LAYER_2
  2
AIGNBL0202003F
 10
0
 20
0
 30
0
  0
INSERT
  8
LAYER_2
  2
AIGNBL02020040
 10
0
 20
0
 30
0
  0
INSERT
  8
LAYER_2
  2
AIGNBL02020041
 10
0
 20
0
 30
0
  0
INSERT
  8
LAYER_2
  2
AIGNBL02020042
 10
0
 20
0
 30
0
  0
INSERT
  8
LAYER_2
  2
AIGNBL02020043
 10
0
 20
0
 30
0
  0
INSERT
  8
LAYER_2
  2
AIGNBL02020044
 10
0
 20
0
 30
0
  0
INSERT
  8
LAYER_2
  2
AIGNBL02020045
 10
0
 20
0
 30
0
  0
INSERT
  8
LAYER_2
  2
AIGNBL02020046
 10
0
 20
0
 30
0
  0
INSERT
  8
LAYER_2
  2
AIGNBL02020047
 10
0
 20
0
 30
0
  0
INSERT
  8
LAYER_2
  2
AIGNBL02020048
 10
0
 20
0
 30
0
  0
INSERT
  8
LAYER_2
  2
AIGNBL02020049
 10
0
 20
0
 30
0
  0
INSERT
  8
LAYER_2
  2
AIGNBL0202004A
 10
0
 20
0
 30
0
  0
INSERT
  8
LAYER_2
  2
AIGNBL0202004B
 10
0
 20
0
 30
0
  0
INSERT
  8
LAYER_2
  2
AIGNBL0202004C
 10
0
 20
0
 30
0
  0
INSERT
  8
LAYER_2
  2
AIGNBL0202004D
 10
0
 20
0
 30
0
  0
INSERT
  8
LAYER_2
  2
AIGNBL0202004E
 10
0
 20
0
 30
0
  0
INSERT
  8
LAYER_2
  2
AIGNBL0202004F
 10
0
 20
0
 30
0
  0
INSERT
  8
LAYER_2
  2
AIGNBL02020050
 10
0
 20
0
 30
0
  0
INSERT
  8
LAYER_2
  2
AIGNBL02020051
 10
0
 20
0
 30
0
  0
INSERT
  8
LAYER_2
  2
AIGNBL02020052
 10
0
 20
0
 30
0
  0
INSERT
  8
LAYER_2
  2
AIGNBL02020053
 10
0
 20
0
 30
0
  0
INSERT
  8
LAYER_2
  2
AIGNBL02020054
 10
0
 20
0
 30
0
  0
INSERT
  8
LAYER_2
  2
AIGNBL02020055
 10
0
 20
0
 30
0
  0
INSERT
  8
LAYER_2
  2
AIGNBL02020056
 10
0
 20
0
 30
0
  0
INSERT
  8
LAYER_2
  2
AIGNBL02020057
 10
0
 20
0
 30
0
  0
INSERT
  8
LAYER_2
  2
AIGNBL02020058
 10
0
 20
0
 30
0
  0
INSERT
  8
LAYER_2
  2
AIGNBL02020059
 10
0
 20
0
 30
0
  0
INSERT
  8
LAYER_2
  2
AIGNBL0202005A
 10
0
 20
0
 30
0
  0
INSERT
  8
LAYER_2
  2
AIGNBL0202005B
 10
0
 20
0
 30
0
  0
INSERT
  8
LAYER_2
  2
AIGNBL0202005C
 10
0
 20
0
 30
0
  0
INSERT
  8
LAYER_2
  2
AIGNBL0202005D
 10
0
 20
0
 30
0
  0
INSERT
  8
LAYER_2
  2
AIGNBL0202005E
 10
0
 20
0
 30
0
  0
INSERT
  8
LAYER_2
  2
AIGNBL0202005F
 10
0
 20
0
 30
0
  0
INSERT
  8
LAYER_2
  2
AIGNBL02020060
 10
0
 20
0
 30
0
  0
INSERT
  8
LAYER_2
  2
AIGNBL02020061
 10
0
 20
0
 30
0
  0
INSERT
  8
LAYER_2
  2
AIGNBL02020062
 10
0
 20
0
 30
0
  0
INSERT
  8
LAYER_2
  2
AIGNBL02020063
 10
0
 20
0
 30
0
  0
INSERT
  8
LAYER_2
  2
AIGNBL02020064
 10
0
 20
0
 30
0
  0
INSERT
  8
LAYER_2
  2
AIGNBL02020065
 10
0
 20
0
 30
0
  0
INSERT
  8
LAYER_2
  2
AIGNBL02020066
 10
0
 20
0
 30
0
  0
INSERT
  8
LAYER_2
  2
AIGNBL02020067
 10
0
 20
0
 30
0
  0
INSERT
  8
LAYER_2
  2
AIGNBL02020068
 10
0
 20
0
 30
0
  0
INSERT
  8
LAYER_2
  2
AIGNBL02020069
 10
0
 20
0
 30
0
  0
INSERT
  8
LAYER_2
  2
AIGNBL0202006A
 10
0
 20
0
 30
0
  0
INSERT
  8
LAYER_2
  2
AIGNBL0202006B
 10
0
 20
0
 30
0
  0
INSERT
  8
LAYER_2
  2
AIGNBL0202006C
 10
0
 20
0
 30
0
  0
INSERT
  8
LAYER_2
  2
AIGNBL0202006D
 10
0
 20
0
 30
0
  0
INSERT
  8
LAYER_2
  2
AIGNBL0202006E
 10
0
 20
0
 30
0
  0
INSERT
  8
LAYER_2
  2
AIGNBL0202006F
 10
0
 20
0
 30
0
  0
INSERT
  8
LAYER_2
  2
AIGNBL02020070
 10
0
 20
0
 30
0
  0
INSERT
  8
LAYER_2
  2
AIGNBL02020071
 10
0
 20
0
 30
0
  0
INSERT
  8
LAYER_2
  2
AIGNBL02020072
 10
0
 20
0
 30
0
  0
INSERT
  8
LAYER_2
  2
AIGNBL02020073
 10
0
 20
0
 30
0
  0
INSERT
  8
LAYER_2
  2
AIGNBL02020074
 10
0
 20
0
 30
0
  0
INSERT
  8
LAYER_2
  2
AIGNBL02020075
 10
0
 20
0
 30
0
  0
INSERT
  8
LAYER_2
  2
AIGNBL02020076
 10
0
 20
0
 30
0
  0
INSERT
  8
LAYER_2
  2
AIGNBL02020077
 10
0
 20
0
 30
0
  0
INSERT
  8
LAYER_2
  2
AIGNBL02020078
 10
0
 20
0
 30
0
  0
INSERT
  8
LAYER_2
  2
AIGNBL02020079
 10
0
 20
0
 30
0
  0
INSERT
  8
LAYER_2
  2
AIGNBL0202007A
 10
0
 20
0
 30
0
  0
INSERT
  8
LAYER_2
  2
AIGNBL0202007B
 10
0
 20
0
 30
0
  0
INSERT
  8
LAYER_2
  2
AIGNBL0202007C
 10
0
 20
0
 30
0
  0
INSERT
  8
LAYER_2
  2
AIGNBL0202007D
 10
0
 20
0
 30
0
  0
INSERT
  8
LAYER_2
  2
AIGNBL0202007E
 10
0
 20
0
 30
0
  0
INSERT
  8
LAYER_2
  2
AIGNBL0202007F
 10
0
 20
0
 30
0
  0
INSERT
  8
LAYER_2
  2
AIGNBL02020080
 10
0
 20
0
 30
0
  0
INSERT
  8
LAYER_2
  2
AIGNBL02020081
 10
0
 20
0
 30
0
  0
INSERT
  8
LAYER_2
  2
AIGNBL02020082
 10
0
 20
0
 30
0
  0
INSERT
  8
LAYER_2
  2
AIGNBL02020083
 10
0
 20
0
 30
0
  0
INSERT
  8
LAYER_2
  2
AIGNBL02020084
 10
0
 20
0
 30
0
  0
INSERT
  8
LAYER_2
  2
AIGNBL02020085
 10
0
 20
0
 30
0
  0
INSERT
  8
LAYER_2
  2
AIGNBL02020086
 10
0
 20
0
 30
0
  0
INSERT
  8
LAYER_2
  2
AIGNBL02020087
 10
0
 20
0
 30
0
  0
INSERT
  8
LAYER_2
  2
AIGNBL02020088
 10
0
 20
0
 30
0
  0
INSERT
  8
LAYER_2
  2
AIGNBL02020089
 10
0
 20
0
 30
0
  0
INSERT
  8
LAYER_2
  2
AIGNBL0202008A
 10
0
 20
0
 30
0
  0
INSERT
  8
LAYER_2
  2
AIGNBL0202008B
 10
0
 20
0
 30
0
  0
INSERT
  8
LAYER_2
  2
AIGNBL0202008C
 10
0
 20
0
 30
0
  0
INSERT
  8
LAYER_2
  2
AIGNBL0202008D
 10
0
 20
0
 30
0
  0
INSERT
  8
LAYER_2
  2
AIGNBL0202008E
 10
0
 20
0
 30
0
  0
INSERT
  8
LAYER_2
  2
AIGNBL0202008F
 10
0
 20
0
 30
0
  0
INSERT
  8
LAYER_2
  2
AIGNBL02020090
 10
0
 20
0
 30
0
  0
INSERT
  8
LAYER_2
  2
AIGNBL02020091
 10
0
 20
0
 30
0
  0
INSERT
  8
LAYER_2
  2
AIGNBL02020092
 10
0
 20
0
 30
0
  0
INSERT
  8
LAYER_2
  2
AIGNBL02020093
 10
0
 20
0
 30
0
  0
INSERT
  8
LAYER_2
  2
AIGNBL02020094
 10
0
 20
0
 30
0
  0
INSERT
  8
LAYER_2
  2
AIGNBL02020095
 10
0
 20
0
 30
0
  0
INSERT
  8
LAYER_2
  2
AIGNBL02020096
 10
0
 20
0
 30
0
  0
INSERT
  8
LAYER_2
  2
AIGNBL02020097
 10
0
 20
0
 30
0
  0
INSERT
  8
LAYER_2
  2
AIGNBL02020098
 10
0
 20
0
 30
0
  0
INSERT
  8
LAYER_2
  2
AIGNBL02020099
 10
0
 20
0
 30
0
  0
INSERT
  8
LAYER_2
  2
AIGNBL0202009A
 10
0
 20
0
 30
0
  0
INSERT
  8
LAYER_2
  2
AIGNBL0202009B
 10
0
 20
0
 30
0
  0
INSERT
  8
LAYER_2
  2
AIGNBL0202009C
 10
0
 20
0
 30
0
  0
INSERT
  8
LAYER_2
  2
AIGNBL0202009D
 10
0
 20
0
 30
0
  0
INSERT
  8
LAYER_2
  2
AIGNBL0202009E
 10
0
 20
0
 30
0
  0
INSERT
  8
LAYER_2
  2
AIGNBL0202009F
 10
0
 20
0
 30
0
  0
INSERT
  8
LAYER_2
  2
AIGNBL020200A0
 10
0
 20
0
 30
0
  0
INSERT
  8
LAYER_2
  2
AIGNBL020200A1
 10
0
 20
0
 30
0
  0
INSERT
  8
LAYER_2
  2
AIGNBL020200A2
 10
0
 20
0
 30
0
  0
INSERT
  8
LAYER_2
  2
AIGNBL020200A3
 10
0
 20
0
 30
0
  0
INSERT
  8
LAYER_2
  2
AIGNBL020200A4
 10
0
 20
0
 30
0
  0
INSERT
  8
LAYER_2
  2
AIGNBL020200A5
 10
0
 20
0
 30
0
  0
INSERT
  8
LAYER_2
  2
AIGNBL020200A6
 10
0
 20
0
 30
0
  0
ENDBLK
  0
BLOCK
  8
LAYER_2
  2
AIGNBL020100A7
 70
64
 10
0
 20
0
 30
0
  3
AIGNBL020100A7
  0
POLYLINE
  8
LAYER_2
 40
0.1764
 41
0.1764
 66
1
 10
0
 20
0
 30
0
  0
VERTEX
  8
LAYER_2
 10
209.4493
 20
-192.9252
  0
VERTEX
  8
LAYER_2
 10
210.6195
 20
-192.9252
  0
SEQEND
  0
POLYLINE
  8
LAYER_2
 40
0.1764
 41
0.1764
 66
1
 10
0
 20
0
 30
0
  0
VERTEX
  8
LAYER_2
 10
226.8874
 20
-175.6041
  0
VERTEX
  8
LAYER_2
 10
226.8874
 20
-172.9126
  0
SEQEND
  0
POLYLINE
  8
LAYER_2
 40
0.1764
 41
0.1764
 66
1
 10
0
 20
0
 30
0
  0
VERTEX
  8
LAYER_2
 10
226.8874
 20
-175.6431
  0
VERTEX
  8
LAYER_2
 10
226.8874
 20
-173.0295
  0
SEQEND
  0
INSERT
  8
LAYER_2
  2
AIGNBL020200A8
 10
0
 20
0
 30
0
  0
INSERT
  8
LAYER_2
  2
AIGNBL020200A9
 10
0
 20
0
 30
0
  0
INSERT
  8
LAYER_2
  2
AIGNBL020200AA
 10
0
 20
0
 30
0
  0
INSERT
  8
LAYER_2
  2
AIGNBL020200AB
 10
0
 20
0
 30
0
  0
ENDBLK
  0
BLOCK
  8
LAYER_2
  2
AIGNBL020100AC
 70
64
 10
0
 20
0
 30
0
  3
AIGNBL020100AC
  0
INSERT
  8
LAYER_2
  2
AIGNBL020200AD
 10
0
 20
0
 30
0
  0
INSERT
  8
LAYER_2
  2
AIGNBL020200AE
 10
0
 20
0
 30
0
  0
INSERT
  8
LAYER_2
  2
AIGNBL020200AF
 10
0
 20
0
 30
0
  0
INSERT
  8
LAYER_2
  2
AIGNBL020200B0
 10
0
 20
0
 30
0
  0
INSERT
  8
LAYER_2
  2
AIGNBL020200B1
 10
0
 20
0
 30
0
  0
INSERT
  8
LAYER_2
  2
AIGNBL020200B2
 10
0
 20
0
 30
0
  0
INSERT
  8
LAYER_2
  2
AIGNBL020200B3
 10
0
 20
0
 30
0
  0
INSERT
  8
LAYER_2
  2
AIGNBL020200B4
 10
0
 20
0
 30
0
  0
INSERT
  8
LAYER_2
  2
AIGNBL020200B5
 10
0
 20
0
 30
0
  0
INSERT
  8
LAYER_2
  2
AIGNBL020200B6
 10
0
 20
0
 30
0
  0
INSERT
  8
LAYER_2
  2
AIGNBL020200B7
 10
0
 20
0
 30
0
  0
INSERT
  8
LAYER_2
  2
AIGNBL020200B8
 10
0
 20
0
 30
0
  0
INSERT
  8
LAYER_2
  2
AIGNBL020200B9
 10
0
 20
0
 30
0
  0
INSERT
  8
LAYER_2
  2
AIGNBL020200BA
 10
0
 20
0
 30
0
  0
INSERT
  8
LAYER_2
  2
AIGNBL020200BB
 10
0
 20
0
 30
0
  0
INSERT
  8
LAYER_2
  2
AIGNBL020200BC
 10
0
 20
0
 30
0
  0
INSERT
  8
LAYER_2
  2
AIGNBL020200BD
 10
0
 20
0
 30
0
  0
INSERT
  8
LAYER_2
  2
AIGNBL020200BE
 10
0
 20
0
 30
0
  0
INSERT
  8
LAYER_2
  2
AIGNBL020200BF
 10
0
 20
0
 30
0
  0
INSERT
  8
LAYER_2
  2
AIGNBL020200C0
 10
0
 20
0
 30
0
  0
INSERT
  8
LAYER_2
  2
AIGNBL020200C1
 10
0
 20
0
 30
0
  0
INSERT
  8
LAYER_2
  2
AIGNBL020200C2
 10
0
 20
0
 30
0
  0
INSERT
  8
LAYER_2
  2
AIGNBL020200C3
 10
0
 20
0
 30
0
  0
INSERT
  8
LAYER_2
  2
AIGNBL020200C4
 10
0
 20
0
 30
0
  0
INSERT
  8
LAYER_2
  2
AIGNBL020200C5
 10
0
 20
0
 30
0
  0
INSERT
  8
LAYER_2
  2
AIGNBL020200C6
 10
0
 20
0
 30
0
  0
INSERT
  8
LAYER_2
  2
AIGNBL020200C7
 10
0
 20
0
 30
0
  0
INSERT
  8
LAYER_2
  2
AIGNBL020200C8
 10
0
 20
0
 30
0
  0
INSERT
  8
LAYER_2
  2
AIGNBL020200C9
 10
0
 20
0
 30
0
  0
INSERT
  8
LAYER_2
  2
AIGNBL020200CA
 10
0
 20
0
 30
0
  0
INSERT
  8
LAYER_2
  2
AIGNBL020200CB
 10
0
 20
0
 30
0
  0
INSERT
  8
LAYER_2
  2
AIGNBL020200CC
 10
0
 20
0
 30
0
  0
INSERT
  8
LAYER_2
  2
AIGNBL020200CD
 10
0
 20
0
 30
0
  0
INSERT
  8
LAYER_2
  2
AIGNBL020200CE
 10
0
 20
0
 30
0
  0
INSERT
  8
LAYER_2
  2
AIGNBL020200CF
 10
0
 20
0
 30
0
  0
INSERT
  8
LAYER_2
  2
AIGNBL020200D0
 10
0
 20
0
 30
0
  0
INSERT
  8
LAYER_2
  2
AIGNBL020200D1
 10
0
 20
0
 30
0
  0
INSERT
  8
LAYER_2
  2
AIGNBL020200D2
 10
0
 20
0
 30
0
  0
INSERT
  8
LAYER_2
  2
AIGNBL020200D3
 10
0
 20
0
 30
0
  0
INSERT
  8
LAYER_2
  2
AIGNBL020200D4
 10
0
 20
0
 30
0
  0
INSERT
  8
LAYER_2
  2
AIGNBL020200D5
 10
0
 20
0
 30
0
  0
INSERT
  8
LAYER_2
  2
AIGNBL020200D6
 10
0
 20
0
 30
0
  0
INSERT
  8
LAYER_2
  2
AIGNBL020200D7
 10
0
 20
0
 30
0
  0
INSERT
  8
LAYER_2
  2
AIGNBL020200D8
 10
0
 20
0
 30
0
  0
INSERT
  8
LAYER_2
  2
AIGNBL020200D9
 10
0
 20
0
 30
0
  0
INSERT
  8
LAYER_2
  2
AIGNBL020200DA
 10
0
 20
0
 30
0
  0
INSERT
  8
LAYER_2
  2
AIGNBL020200DB
 10
0
 20
0
 30
0
  0
INSERT
  8
LAYER_2
  2
AIGNBL020200DC
 10
0
 20
0
 30
0
  0
INSERT
  8
LAYER_2
  2
AIGNBL020200DD
 10
0
 20
0
 30
0
  0
INSERT
  8
LAYER_2
  2
AIGNBL020200DE
 10
0
 20
0
 30
0
  0
INSERT
  8
LAYER_2
  2
AIGNBL020200DF
 10
0
 20
0
 30
0
  0
INSERT
  8
LAYER_2
  2
AIGNBL020200E0
 10
0
 20
0
 30
0
  0
INSERT
  8
LAYER_2
  2
AIGNBL020200E1
 10
0
 20
0
 30
0
  0
INSERT
  8
LAYER_2
  2
AIGNBL020200E2
 10
0
 20
0
 30
0
  0
INSERT
  8
LAYER_2
  2
AIGNBL020200E3
 10
0
 20
0
 30
0
  0
INSERT
  8
LAYER_2
  2
AIGNBL020200E4
 10
0
 20
0
 30
0
  0
INSERT
  8
LAYER_2
  2
AIGNBL020200E5
 10
0
 20
0
 30
0
  0
INSERT
  8
LAYER_2
  2
AIGNBL020200E6
 10
0
 20
0
 30
0
  0
INSERT
  8
LAYER_2
  2
AIGNBL020200E7
 10
0
 20
0
 30
0
  0
INSERT
  8
LAYER_2
  2
AIGNBL020200E8
 10
0
 20
0
 30
0
  0
INSERT
  8
LAYER_2
  2
AIGNBL020200E9
 10
0
 20
0
 30
0
  0
INSERT
  8
LAYER_2
  2
AIGNBL020200EA
 10
0
 20
0
 30
0
  0
INSERT
  8
LAYER_2
  2
AIGNBL020200EB
 10
0
 20
0
 30
0
  0
INSERT
  8
LAYER_2
  2
AIGNBL020200EC
 10
0
 20
0
 30
0
  0
INSERT
  8
LAYER_2
  2
AIGNBL020200ED
 10
0
 20
0
 30
0
  0
INSERT
  8
LAYER_2
  2
AIGNBL020200EE
 10
0
 20
0
 30
0
  0
INSERT
  8
LAYER_2
  2
AIGNBL020200EF
 10
0
 20
0
 30
0
  0
INSERT
  8
LAYER_2
  2
AIGNBL020200F0
 10
0
 20
0
 30
0
  0
INSERT
  8
LAYER_2
  2
AIGNBL020200F1
 10
0
 20
0
 30
0
  0
INSERT
  8
LAYER_2
  2
AIGNBL020200F2
 10
0
 20
0
 30
0
  0
INSERT
  8
LAYER_2
  2
AIGNBL020200F3
 10
0
 20
0
 30
0
  0
INSERT
  8
LAYER_2
  2
AIGNBL020200F4
 10
0
 20
0
 30
0
  0
INSERT
  8
LAYER_2
  2
AIGNBL020200F5
 10
0
 20
0
 30
0
  0
INSERT
  8
LAYER_2
  2
AIGNBL020200F6
 10
0
 20
0
 30
0
  0
INSERT
  8
LAYER_2
  2
AIGNBL020200F7
 10
0
 20
0
 30
0
  0
INSERT
  8
LAYER_2
  2
AIGNBL020200F8
 10
0
 20
0
 30
0
  0
INSERT
  8
LAYER_2
  2
AIGNBL020200F9
 10
0
 20
0
 30
0
  0
INSERT
  8
LAYER_2
  2
AIGNBL020200FA
 10
0
 20
0
 30
0
  0
INSERT
  8
LAYER_2
  2
AIGNBL020200FB
 10
0
 20
0
 30
0
  0
INSERT
  8
LAYER_2
  2
AIGNBL020200FC
 10
0
 20
0
 30
0
  0
INSERT
  8
LAYER_2
  2
AIGNBL020200FD
 10
0
 20
0
 30
0
  0
INSERT
  8
LAYER_2
  2
AIGNBL020200FE
 10
0
 20
0
 30
0
  0
INSERT
  8
LAYER_2
  2
AIGNBL020200FF
 10
0
 20
0
 30
0
  0
INSERT
  8
LAYER_2
  2
AIGNBL02020100
 10
0
 20
0
 30
0
  0
INSERT
  8
LAYER_2
  2
AIGNBL02020101
 10
0
 20
0
 30
0
  0
INSERT
  8
LAYER_2
  2
AIGNBL02020102
 10
0
 20
0
 30
0
  0
INSERT
  8
LAYER_2
  2
AIGNBL02020103
 10
0
 20
0
 30
0
  0
INSERT
  8
LAYER_2
  2
AIGNBL02020104
 10
0
 20
0
 30
0
  0
INSERT
  8
LAYER_2
  2
AIGNBL02020105
 10
0
 20
0
 30
0
  0
INSERT
  8
LAYER_2
  2
AIGNBL02020106
 10
0
 20
0
 30
0
  0
INSERT
  8
LAYER_2
  2
AIGNBL02020107
 10
0
 20
0
 30
0
  0
ENDBLK
  0
BLOCK
  8
LAYER_2
  2
AIGNBL02010108
 70
64
 10
0
 20
0
 30
0
  3
AIGNBL02010108
  0
INSERT
  8
LAYER_2
  2
AIGNBL02020109
 10
0
 20
0
 30
0
  0
INSERT
  8
LAYER_2
  2
AIGNBL0202010A
 10
0
 20
0
 30
0
  0
INSERT
  8
LAYER_2
  2
AIGNBL0202010B
 10
0
 20
0
 30
0
  0
INSERT
  8
LAYER_2
  2
AIGNBL0202010C
 10
0
 20
0
 30
0
  0
INSERT
  8
LAYER_2
  2
AIGNBL0202010D
 10
0
 20
0
 30
0
  0
INSERT
  8
LAYER_2
  2
AIGNBL0202010E
 10
0
 20
0
 30
0
  0
INSERT
  8
LAYER_2
  2
AIGNBL0202010F
 10
0
 20
0
 30
0
  0
INSERT
  8
LAYER_2
  2
AIGNBL02020110
 10
0
 20
0
 30
0
  0
INSERT
  8
LAYER_2
  2
AIGNBL02020111
 10
0
 20
0
 30
0
  0
INSERT
  8
LAYER_2
  2
AIGNBL02020112
 10
0
 20
0
 30
0
  0
INSERT
  8
LAYER_2
  2
AIGNBL02020113
 10
0
 20
0
 30
0
  0
INSERT
  8
LAYER_2
  2
AIGNBL02020114
 10
0
 20
0
 30
0
  0
INSERT
  8
LAYER_2
  2
AIGNBL02020115
 10
0
 20
0
 30
0
  0
INSERT
  8
LAYER_2
  2
AIGNBL02020116
 10
0
 20
0
 30
0
  0
INSERT
  8
LAYER_2
  2
AIGNBL02020117
 10
0
 20
0
 30
0
  0
INSERT
  8
LAYER_2
  2
AIGNBL02020118
 10
0
 20
0
 30
0
  0
INSERT
  8
LAYER_2
  2
AIGNBL02020119
 10
0
 20
0
 30
0
  0
INSERT
  8
LAYER_2
  2
AIGNBL0202011A
 10
0
 20
0
 30
0
  0
INSERT
  8
LAYER_2
  2
AIGNBL0202011B
 10
0
 20
0
 30
0
  0
INSERT
  8
LAYER_2
  2
AIGNBL0202011C
 10
0
 20
0
 30
0
  0
INSERT
  8
LAYER_2
  2
AIGNBL0202011D
 10
0
 20
0
 30
0
  0
INSERT
  8
LAYER_2
  2
AIGNBL0202011E
 10
0
 20
0
 30
0
  0
INSERT
  8
LAYER_2
  2
AIGNBL0202011F
 10
0
 20
0
 30
0
  0
INSERT
  8
LAYER_2
  2
AIGNBL02020120
 10
0
 20
0
 30
0
  0
INSERT
  8
LAYER_2
  2
AIGNBL02020121
 10
0
 20
0
 30
0
  0
INSERT
  8
LAYER_2
  2
AIGNBL02020122
 10
0
 20
0
 30
0
  0
INSERT
  8
LAYER_2
  2
AIGNBL02020123
 10
0
 20
0
 30
0
  0
INSERT
  8
LAYER_2
  2
AIGNBL02020124
 10
0
 20
0
 30
0
  0
INSERT
  8
LAYER_2
  2
AIGNBL02020125
 10
0
 20
0
 30
0
  0
INSERT
  8
LAYER_2
  2
AIGNBL02020126
 10
0
 20
0
 30
0
  0
INSERT
  8
LAYER_2
  2
AIGNBL02020127
 10
0
 20
0
 30
0
  0
INSERT
  8
LAYER_2
  2
AIGNBL02020128
 10
0
 20
0
 30
0
  0
INSERT
  8
LAYER_2
  2
AIGNBL02020129
 10
0
 20
0
 30
0
  0
INSERT
  8
LAYER_2
  2
AIGNBL0202012A
 10
0
 20
0
 30
0
  0
INSERT
  8
LAYER_2
  2
AIGNBL0202012B
 10
0
 20
0
 30
0
  0
INSERT
  8
LAYER_2
  2
AIGNBL0202012C
 10
0
 20
0
 30
0
  0
INSERT
  8
LAYER_2
  2
AIGNBL0202012D
 10
0
 20
0
 30
0
  0
INSERT
  8
LAYER_2
  2
AIGNBL0202012E
 10
0
 20
0
 30
0
  0
INSERT
  8
LAYER_2
  2
AIGNBL0202012F
 10
0
 20
0
 30
0
  0
INSERT
  8
LAYER_2
  2
AIGNBL02020130
 10
0
 20
0
 30
0
  0
INSERT
  8
LAYER_2
  2
AIGNBL02020131
 10
0
 20
0
 30
0
  0
INSERT
  8
LAYER_2
  2
AIGNBL02020132
 10
0
 20
0
 30
0
  0
INSERT
  8
LAYER_2
  2
AIGNBL02020133
 10
0
 20
0
 30
0
  0
INSERT
  8
LAYER_2
  2
AIGNBL02020134
 10
0
 20
0
 30
0
  0
INSERT
  8
LAYER_2
  2
AIGNBL02020135
 10
0
 20
0
 30
0
  0
INSERT
  8
LAYER_2
  2
AIGNBL02020136
 10
0
 20
0
 30
0
  0
INSERT
  8
LAYER_2
  2
AIGNBL02020137
 10
0
 20
0
 30
0
  0
INSERT
  8
LAYER_2
  2
AIGNBL02020138
 10
0
 20
0
 30
0
  0
INSERT
  8
LAYER_2
  2
AIGNBL02020139
 10
0
 20
0
 30
0
  0
INSERT
  8
LAYER_2
  2
AIGNBL0202013A
 10
0
 20
0
 30
0
  0
INSERT
  8
LAYER_2
  2
AIGNBL0202013B
 10
0
 20
0
 30
0
  0
INSERT
  8
LAYER_2
  2
AIGNBL0202013C
 10
0
 20
0
 30
0
  0
INSERT
  8
LAYER_2
  2
AIGNBL0202013D
 10
0
 20
0
 30
0
  0
INSERT
  8
LAYER_2
  2
AIGNBL0202013E
 10
0
 20
0
 30
0
  0
INSERT
  8
LAYER_2
  2
AIGNBL0202013F
 10
0
 20
0
 30
0
  0
INSERT
  8
LAYER_2
  2
AIGNBL02020140
 10
0
 20
0
 30
0
  0
INSERT
  8
LAYER_2
  2
AIGNBL02020141
 10
0
 20
0
 30
0
  0
INSERT
  8
LAYER_2
  2
AIGNBL02020142
 10
0
 20
0
 30
0
  0
INSERT
  8
LAYER_2
  2
AIGNBL02020143
 10
0
 20
0
 30
0
  0
INSERT
  8
LAYER_2
  2
AIGNBL02020144
 10
0
 20
0
 30
0
  0
INSERT
  8
LAYER_2
  2
AIGNBL02020145
 10
0
 20
0
 30
0
  0
INSERT
  8
LAYER_2
  2
AIGNBL02020146
 10
0
 20
0
 30
0
  0
INSERT
  8
LAYER_2
  2
AIGNBL02020147
 10
0
 20
0
 30
0
  0
INSERT
  8
LAYER_2
  2
AIGNBL02020148
 10
0
 20
0
 30
0
  0
INSERT
  8
LAYER_2
  2
AIGNBL02020149
 10
0
 20
0
 30
0
  0
INSERT
  8
LAYER_2
  2
AIGNBL0202014A
 10
0
 20
0
 30
0
  0
INSERT
  8
LAYER_2
  2
AIGNBL0202014B
 10
0
 20
0
 30
0
  0
INSERT
  8
LAYER_2
  2
AIGNBL0202014C
 10
0
 20
0
 30
0
  0
INSERT
  8
LAYER_2
  2
AIGNBL0202014D
 10
0
 20
0
 30
0
  0
INSERT
  8
LAYER_2
  2
AIGNBL0202014E
 10
0
 20
0
 30
0
  0
INSERT
  8
LAYER_2
  2
AIGNBL0202014F
 10
0
 20
0
 30
0
  0
INSERT
  8
LAYER_2
  2
AIGNBL02020150
 10
0
 20
0
 30
0
  0
INSERT
  8
LAYER_2
  2
AIGNBL02020151
 10
0
 20
0
 30
0
  0
INSERT
  8
LAYER_2
  2
AIGNBL02020152
 10
0
 20
0
 30
0
  0
INSERT
  8
LAYER_2
  2
AIGNBL02020153
 10
0
 20
0
 30
0
  0
INSERT
  8
LAYER_2
  2
AIGNBL02020154
 10
0
 20
0
 30
0
  0
INSERT
  8
LAYER_2
  2
AIGNBL02020155
 10
0
 20
0
 30
0
  0
INSERT
  8
LAYER_2
  2
AIGNBL02020156
 10
0
 20
0
 30
0
  0
INSERT
  8
LAYER_2
  2
AIGNBL02020157
 10
0
 20
0
 30
0
  0
INSERT
  8
LAYER_2
  2
AIGNBL02020158
 10
0
 20
0
 30
0
  0
INSERT
  8
LAYER_2
  2
AIGNBL02020159
 10
0
 20
0
 30
0
  0
INSERT
  8
LAYER_2
  2
AIGNBL0202015A
 10
0
 20
0
 30
0
  0
INSERT
  8
LAYER_2
  2
AIGNBL0202015B
 10
0
 20
0
 30
0
  0
INSERT
  8
LAYER_2
  2
AIGNBL0202015C
 10
0
 20
0
 30
0
  0
INSERT
  8
LAYER_2
  2
AIGNBL0202015D
 10
0
 20
0
 30
0
  0
INSERT
  8
LAYER_2
  2
AIGNBL0202015E
 10
0
 20
0
 30
0
  0
INSERT
  8
LAYER_2
  2
AIGNBL0202015F
 10
0
 20
0
 30
0
  0
INSERT
  8
LAYER_2
  2
AIGNBL02020160
 10
0
 20
0
 30
0
  0
INSERT
  8
LAYER_2
  2
AIGNBL02020161
 10
0
 20
0
 30
0
  0
INSERT
  8
LAYER_2
  2
AIGNBL02020162
 10
0
 20
0
 30
0
  0
INSERT
  8
LAYER_2
  2
AIGNBL02020163
 10
0
 20
0
 30
0
  0
INSERT
  8
LAYER_2
  2
AIGNBL02020164
 10
0
 20
0
 30
0
  0
INSERT
  8
LAYER_2
  2
AIGNBL02020165
 10
0
 20
0
 30
0
  0
INSERT
  8
LAYER_2
  2
AIGNBL02020166
 10
0
 20
0
 30
0
  0
INSERT
  8
LAYER_2
  2
AIGNBL02020167
 10
0
 20
0
 30
0
  0
INSERT
  8
LAYER_2
  2
AIGNBL02020168
 10
0
 20
0
 30
0
  0
INSERT
  8
LAYER_2
  2
AIGNBL02020169
 10
0
 20
0
 30
0
  0
INSERT
  8
LAYER_2
  2
AIGNBL0202016A
 10
0
 20
0
 30
0
  0
INSERT
  8
LAYER_2
  2
AIGNBL0202016B
 10
0
 20
0
 30
0
  0
INSERT
  8
LAYER_2
  2
AIGNBL0202016C
 10
0
 20
0
 30
0
  0
INSERT
  8
LAYER_2
  2
AIGNBL0202016D
 10
0
 20
0
 30
0
  0
INSERT
  8
LAYER_2
  2
AIGNBL0202016E
 10
0
 20
0
 30
0
  0
INSERT
  8
LAYER_2
  2
AIGNBL0202016F
 10
0
 20
0
 30
0
  0
INSERT
  8
LAYER_2
  2
AIGNBL02020170
 10
0
 20
0
 30
0
  0
INSERT
  8
LAYER_2
  2
AIGNBL02020171
 10
0
 20
0
 30
0
  0
INSERT
  8
LAYER_2
  2
AIGNBL02020172
 10
0
 20
0
 30
0
  0
INSERT
  8
LAYER_2
  2
AIGNBL02020173
 10
0
 20
0
 30
0
  0
INSERT
  8
LAYER_2
  2
AIGNBL02020174
 10
0
 20
0
 30
0
  0
INSERT
  8
LAYER_2
  2
AIGNBL02020175
 10
0
 20
0
 30
0
  0
INSERT
  8
LAYER_2
  2
AIGNBL02020176
 10
0
 20
0
 30
0
  0
INSERT
  8
LAYER_2
  2
AIGNBL02020177
 10
0
 20
0
 30
0
  0
INSERT
  8
LAYER_2
  2
AIGNBL02020178
 10
0
 20
0
 30
0
  0
INSERT
  8
LAYER_2
  2
AIGNBL02020179
 10
0
 20
0
 30
0
  0
INSERT
  8
LAYER_2
  2
AIGNBL0202017A
 10
0
 20
0
 30
0
  0
INSERT
  8
LAYER_2
  2
AIGNBL0202017B
 10
0
 20
0
 30
0
  0
INSERT
  8
LAYER_2
  2
AIGNBL0202017C
 10
0
 20
0
 30
0
  0
INSERT
  8
LAYER_2
  2
AIGNBL0202017D
 10
0
 20
0
 30
0
  0
INSERT
  8
LAYER_2
  2
AIGNBL0202017E
 10
0
 20
0
 30
0
  0
INSERT
  8
LAYER_2
  2
AIGNBL0202017F
 10
0
 20
0
 30
0
  0
INSERT
  8
LAYER_2
  2
AIGNBL02020180
 10
0
 20
0
 30
0
  0
INSERT
  8
LAYER_2
  2
AIGNBL02020181
 10
0
 20
0
 30
0
  0
INSERT
  8
LAYER_2
  2
AIGNBL02020182
 10
0
 20
0
 30
0
  0
INSERT
  8
LAYER_2
  2
AIGNBL02020183
 10
0
 20
0
 30
0
  0
INSERT
  8
LAYER_2
  2
AIGNBL02020184
 10
0
 20
0
 30
0
  0
INSERT
  8
LAYER_2
  2
AIGNBL02020185
 10
0
 20
0
 30
0
  0
INSERT
  8
LAYER_2
  2
AIGNBL02020186
 10
0
 20
0
 30
0
  0
INSERT
  8
LAYER_2
  2
AIGNBL02020187
 10
0
 20
0
 30
0
  0
INSERT
  8
LAYER_2
  2
AIGNBL02020188
 10
0
 20
0
 30
0
  0
INSERT
  8
LAYER_2
  2
AIGNBL02020189
 10
0
 20
0
 30
0
  0
INSERT
  8
LAYER_2
  2
AIGNBL0202018A
 10
0
 20
0
 30
0
  0
INSERT
  8
LAYER_2
  2
AIGNBL0202018B
 10
0
 20
0
 30
0
  0
INSERT
  8
LAYER_2
  2
AIGNBL0202018C
 10
0
 20
0
 30
0
  0
INSERT
  8
LAYER_2
  2
AIGNBL0202018D
 10
0
 20
0
 30
0
  0
INSERT
  8
LAYER_2
  2
AIGNBL0202018E
 10
0
 20
0
 30
0
  0
INSERT
  8
LAYER_2
  2
AIGNBL0202018F
 10
0
 20
0
 30
0
  0
INSERT
  8
LAYER_2
  2
AIGNBL02020190
 10
0
 20
0
 30
0
  0
INSERT
  8
LAYER_2
  2
AIGNBL02020191
 10
0
 20
0
 30
0
  0
INSERT
  8
LAYER_2
  2
AIGNBL02020192
 10
0
 20
0
 30
0
  0
INSERT
  8
LAYER_2
  2
AIGNBL02020193
 10
0
 20
0
 30
0
  0
INSERT
  8
LAYER_2
  2
AIGNBL02020194
 10
0
 20
0
 30
0
  0
INSERT
  8
LAYER_2
  2
AIGNBL02020195
 10
0
 20
0
 30
0
  0
INSERT
  8
LAYER_2
  2
AIGNBL02020196
 10
0
 20
0
 30
0
  0
INSERT
  8
LAYER_2
  2
AIGNBL02020197
 10
0
 20
0
 30
0
  0
INSERT
  8
LAYER_2
  2
AIGNBL02020198
 10
0
 20
0
 30
0
  0
INSERT
  8
LAYER_2
  2
AIGNBL02020199
 10
0
 20
0
 30
0
  0
INSERT
  8
LAYER_2
  2
AIGNBL0202019A
 10
0
 20
0
 30
0
  0
INSERT
  8
LAYER_2
  2
AIGNBL0202019B
 10
0
 20
0
 30
0
  0
INSERT
  8
LAYER_2
  2
AIGNBL0202019C
 10
0
 20
0
 30
0
  0
INSERT
  8
LAYER_2
  2
AIGNBL0202019D
 10
0
 20
0
 30
0
  0
INSERT
  8
LAYER_2
  2
AIGNBL0202019E
 10
0
 20
0
 30
0
  0
INSERT
  8
LAYER_2
  2
AIGNBL0202019F
 10
0
 20
0
 30
0
  0
INSERT
  8
LAYER_2
  2
AIGNBL020201A0
 10
0
 20
0
 30
0
  0
INSERT
  8
LAYER_2
  2
AIGNBL020201A1
 10
0
 20
0
 30
0
  0
INSERT
  8
LAYER_2
  2
AIGNBL020201A2
 10
0
 20
0
 30
0
  0
INSERT
  8
LAYER_2
  2
AIGNBL020201A3
 10
0
 20
0
 30
0
  0
INSERT
  8
LAYER_2
  2
AIGNBL020201A4
 10
0
 20
0
 30
0
  0
INSERT
  8
LAYER_2
  2
AIGNBL020201A5
 10
0
 20
0
 30
0
  0
INSERT
  8
LAYER_2
  2
AIGNBL020201A6
 10
0
 20
0
 30
0
  0
INSERT
  8
LAYER_2
  2
AIGNBL020201A7
 10
0
 20
0
 30
0
  0
INSERT
  8
LAYER_2
  2
AIGNBL020201A8
 10
0
 20
0
 30
0
  0
INSERT
  8
LAYER_2
  2
AIGNBL020201A9
 10
0
 20
0
 30
0
  0
INSERT
  8
LAYER_2
  2
AIGNBL020201AA
 10
0
 20
0
 30
0
  0
INSERT
  8
LAYER_2
  2
AIGNBL020201AB
 10
0
 20
0
 30
0
  0
INSERT
  8
LAYER_2
  2
AIGNBL020201AC
 10
0
 20
0
 30
0
  0
INSERT
  8
LAYER_2
  2
AIGNBL020201AD
 10
0
 20
0
 30
0
  0
INSERT
  8
LAYER_2
  2
AIGNBL020201AE
 10
0
 20
0
 30
0
  0
INSERT
  8
LAYER_2
  2
AIGNBL020201AF
 10
0
 20
0
 30
0
  0
INSERT
  8
LAYER_2
  2
AIGNBL020201B0
 10
0
 20
0
 30
0
  0
INSERT
  8
LAYER_2
  2
AIGNBL020201B1
 10
0
 20
0
 30
0
  0
INSERT
  8
LAYER_2
  2
AIGNBL020201B2
 10
0
 20
0
 30
0
  0
INSERT
  8
LAYER_2
  2
AIGNBL020201B3
 10
0
 20
0
 30
0
  0
INSERT
  8
LAYER_2
  2
AIGNBL020201B4
 10
0
 20
0
 30
0
  0
INSERT
  8
LAYER_2
  2
AIGNBL020201B5
 10
0
 20
0
 30
0
  0
INSERT
  8
LAYER_2
  2
AIGNBL020201B6
 10
0
 20
0
 30
0
  0
INSERT
  8
LAYER_2
  2
AIGNBL020201B7
 10
0
 20
0
 30
0
  0
INSERT
  8
LAYER_2
  2
AIGNBL020201B8
 10
0
 20
0
 30
0
  0
INSERT
  8
LAYER_2
  2
AIGNBL020201B9
 10
0
 20
0
 30
0
  0
INSERT
  8
LAYER_2
  2
AIGNBL020201BA
 10
0
 20
0
 30
0
  0
INSERT
  8
LAYER_2
  2
AIGNBL020201BB
 10
0
 20
0
 30
0
  0
INSERT
  8
LAYER_2
  2
AIGNBL020201BC
 10
0
 20
0
 30
0
  0
INSERT
  8
LAYER_2
  2
AIGNBL020201BD
 10
0
 20
0
 30
0
  0
INSERT
  8
LAYER_2
  2
AIGNBL020201BE
 10
0
 20
0
 30
0
  0
INSERT
  8
LAYER_2
  2
AIGNBL020201BF
 10
0
 20
0
 30
0
  0
INSERT
  8
LAYER_2
  2
AIGNBL020201C0
 10
0
 20
0
 30
0
  0
INSERT
  8
LAYER_2
  2
AIGNBL020201C1
 10
0
 20
0
 30
0
  0
INSERT
  8
LAYER_2
  2
AIGNBL020201C2
 10
0
 20
0
 30
0
  0
INSERT
  8
LAYER_2
  2
AIGNBL020201C3
 10
0
 20
0
 30
0
  0
INSERT
  8
LAYER_2
  2
AIGNBL020201C4
 10
0
 20
0
 30
0
  0
INSERT
  8
LAYER_2
  2
AIGNBL020201C5
 10
0
 20
0
 30
0
  0
INSERT
  8
LAYER_2
  2
AIGNBL020201C6
 10
0
 20
0
 30
0
  0
INSERT
  8
LAYER_2
  2
AIGNBL020201C7
 10
0
 20
0
 30
0
  0
INSERT
  8
LAYER_2
  2
AIGNBL020201C8
 10
0
 20
0
 30
0
  0
INSERT
  8
LAYER_2
  2
AIGNBL020201C9
 10
0
 20
0
 30
0
  0
INSERT
  8
LAYER_2
  2
AIGNBL020201CA
 10
0
 20
0
 30
0
  0
INSERT
  8
LAYER_2
  2
AIGNBL020201CB
 10
0
 20
0
 30
0
  0
INSERT
  8
LAYER_2
  2
AIGNBL020201CC
 10
0
 20
0
 30
0
  0
INSERT
  8
LAYER_2
  2
AIGNBL020201CD
 10
0
 20
0
 30
0
  0
INSERT
  8
LAYER_2
  2
AIGNBL020201CE
 10
0
 20
0
 30
0
  0
INSERT
  8
LAYER_2
  2
AIGNBL020201CF
 10
0
 20
0
 30
0
  0
INSERT
  8
LAYER_2
  2
AIGNBL020201D0
 10
0
 20
0
 30
0
  0
INSERT
  8
LAYER_2
  2
AIGNBL020201D1
 10
0
 20
0
 30
0
  0
INSERT
  8
LAYER_2
  2
AIGNBL020201D2
 10
0
 20
0
 30
0
  0
INSERT
  8
LAYER_2
  2
AIGNBL020201D3
 10
0
 20
0
 30
0
  0
INSERT
  8
LAYER_2
  2
AIGNBL020201D4
 10
0
 20
0
 30
0
  0
INSERT
  8
LAYER_2
  2
AIGNBL020201D5
 10
0
 20
0
 30
0
  0
INSERT
  8
LAYER_2
  2
AIGNBL020201D6
 10
0
 20
0
 30
0
  0
INSERT
  8
LAYER_2
  2
AIGNBL020201D7
 10
0
 20
0
 30
0
  0
INSERT
  8
LAYER_2
  2
AIGNBL020201D8
 10
0
 20
0
 30
0
  0
INSERT
  8
LAYER_2
  2
AIGNBL020201D9
 10
0
 20
0
 30
0
  0
INSERT
  8
LAYER_2
  2
AIGNBL020201DA
 10
0
 20
0
 30
0
  0
INSERT
  8
LAYER_2
  2
AIGNBL020201DB
 10
0
 20
0
 30
0
  0
INSERT
  8
LAYER_2
  2
AIGNBL020201DC
 10
0
 20
0
 30
0
  0
INSERT
  8
LAYER_2
  2
AIGNBL020201DD
 10
0
 20
0
 30
0
  0
INSERT
  8
LAYER_2
  2
AIGNBL020201DE
 10
0
 20
0
 30
0
  0
INSERT
  8
LAYER_2
  2
AIGNBL020201DF
 10
0
 20
0
 30
0
  0
INSERT
  8
LAYER_2
  2
AIGNBL020201E0
 10
0
 20
0
 30
0
  0
INSERT
  8
LAYER_2
  2
AIGNBL020201E1
 10
0
 20
0
 30
0
  0
INSERT
  8
LAYER_2
  2
AIGNBL020201E2
 10
0
 20
0
 30
0
  0
INSERT
  8
LAYER_2
  2
AIGNBL020201E3
 10
0
 20
0
 30
0
  0
INSERT
  8
LAYER_2
  2
AIGNBL020201E4
 10
0
 20
0
 30
0
  0
INSERT
  8
LAYER_2
  2
AIGNBL020201E5
 10
0
 20
0
 30
0
  0
INSERT
  8
LAYER_2
  2
AIGNBL020201E6
 10
0
 20
0
 30
0
  0
INSERT
  8
LAYER_2
  2
AIGNBL020201E7
 10
0
 20
0
 30
0
  0
INSERT
  8
LAYER_2
  2
AIGNBL020201E8
 10
0
 20
0
 30
0
  0
INSERT
  8
LAYER_2
  2
AIGNBL020201E9
 10
0
 20
0
 30
0
  0
INSERT
  8
LAYER_2
  2
AIGNBL020201EA
 10
0
 20
0
 30
0
  0
INSERT
  8
LAYER_2
  2
AIGNBL020201EB
 10
0
 20
0
 30
0
  0
ENDBLK
  0
BLOCK
  8
LAYER_2
  2
AIGNBL020101EC
 70
64
 10
0
 20
0
 30
0
  3
AIGNBL020101EC
  0
POLYLINE
  8
LAYER_2
 40
0.1764
 41
0.1764
 66
1
 10
0
 20
0
 30
0
 70
1
  0
VERTEX
  8
LAYER_2
 10
187.8894
 20
-176.5625
  0
VERTEX
  8
LAYER_2
 10
187.8894
 20
-178.5625
  0
VERTEX
  8
LAYER_2
 10
233.3894
 20
-178.5425
  0
VERTEX
  8
LAYER_2
 10
233.3894
 20
-176.5425
  0
SEQEND
  0
ENDBLK
  0
BLOCK
  8
LAYER_14
  2
AIGNBL0E010002
 70
64
 10
0
 20
0
 30
0
  3
AIGNBL0E010002
  0
POLYLINE
  8
LAYER_14
 40
0.1058
 41
0.1058
 66
1
 10
0
 20
0
 30
0
 70
1
  0
VERTEX
  8
LAYER_14
 10
133.0313
 20
-194.0878
  0
VERTEX
  8
LAYER_14
 10
137.9309
 20
-194.0878
  0
VERTEX
  8
LAYER_14
 10
137.9309
 20
-195.9881
  0
VERTEX
  8
LAYER_14
 10
133.0313
 20
-195.9881
  0
SEQEND
  0
POLYLINE
  8
LAYER_14
 40
0.1411
 41
0.1411
 66
1
 10
0
 20
0
 30
0
  0
VERTEX
  8
LAYER_14
 10
133.1802
 20
-193.0873
  0
VERTEX
  8
LAYER_14
 10
132.4877
 20
-193.0873
  0
SEQEND
  0
POLYLINE
  8
LAYER_14
 40
0.1411
 41
0.1411
 66
1
 10
0
 20
0
 30
0
  0
VERTEX
  8
LAYER_14
 10
138.4725
 20
-193.0873
  0
VERTEX
  8
LAYER_14
 10
137.78
 20
-193.0873
  0
SEQEND
  0
POLYLINE
  8
LAYER_14
 40
0.1411
 41
0.1411
 66
1
 10
0
 20
0
 30
0
  0
VERTEX
  8
LAYER_14
 10
133.1802
 20
-193.0873
  0
VERTEX
  8
LAYER_14
 10
133.5329
 20
-193.0873
  0
SEQEND
  0
POLYLINE
  8
LAYER_14
 40
0.1411
 41
0.1411
 66
1
 10
0
 20
0
 30
0
  0
VERTEX
  8
LAYER_14
 10
134.3115
 20
-193.0873
  0
VERTEX
  8
LAYER_14
 10
137.0373
 20
-193.0873
  0
SEQEND
  0
POLYLINE
  8
LAYER_14
 40
0.1411
 41
0.1411
 66
1
 10
0
 20
0
 30
0
  0
VERTEX
  8
LAYER_14
 10
137.4266
 20
-193.0873
  0
VERTEX
  8
LAYER_14
 10
137.7794
 20
-193.0873
  0
SEQEND
  0
POLYLINE
  8
LAYER_14
 40
0.1411
 41
0.1411
 66
1
 10
0
 20
0
 30
0
  0
VERTEX
  8
LAYER_14
 10
133.0868
 20
-193.6874
  0
VERTEX
  8
LAYER_14
 10
132.3299
 20
-193.6874
  0
VERTEX
  8
LAYER_14
 10
132.3299
 20
-193.3877
  0
VERTEX
  8
LAYER_14
 10
132.6827
 20
-193.3877
  0
SEQEND
  0
POLYLINE
  8
LAYER_14
 40
0.1411
 41
0.1411
 66
1
 10
0
 20
0
 30
0
  0
VERTEX
  8
LAYER_14
 10
133.4819
 20
-193.3877
  0
VERTEX
  8
LAYER_14
 10
137.8772
 20
-193.3877
  0
SEQEND
  0
POLYLINE
  8
LAYER_14
 40
0.1411
 41
0.1411
 66
1
 10
0
 20
0
 30
0
  0
VERTEX
  8
LAYER_14
 10
138.2768
 20
-193.3877
  0
VERTEX
  8
LAYER_14
 10
138.6296
 20
-193.3877
  0
VERTEX
  8
LAYER_14
 10
138.6296
 20
-193.6874
  0
VERTEX
  8
LAYER_14
 10
137.9227
 20
-193.6874
  0
SEQEND
  0
POLYLINE
  8
LAYER_14
 40
0.1411
 41
0.1411
 66
1
 10
0
 20
0
 30
0
  0
VERTEX
  8
LAYER_14
 10
137.4776
 20
-193.6874
  0
VERTEX
  8
LAYER_14
 10
133.0823
 20
-193.6874
  0
SEQEND
  0
POLYLINE
  8
LAYER_14
 40
0.1411
 41
0.1411
 66
1
 10
0
 20
0
 30
0
  0
VERTEX
  8
LAYER_14
 10
132.6827
 20
-193.3877
  0
VERTEX
  8
LAYER_14
 10
132.3299
 20
-193.3877
  0
VERTEX
  8
LAYER_14
 10
132.3299
 20
-193.0873
  0
VERTEX
  8
LAYER_14
 10
132.6827
 20
-193.0873
  0
SEQEND
  0
POLYLINE
  8
LAYER_14
 40
0.1411
 41
0.1411
 66
1
 10
0
 20
0
 30
0
  0
VERTEX
  8
LAYER_14
 10
133.4819
 20
-193.0873
  0
VERTEX
  8
LAYER_14
 10
137.8772
 20
-193.0873
  0
SEQEND
  0
POLYLINE
  8
LAYER_14
 40
0.1411
 41
0.1411
 66
1
 10
0
 20
0
 30
0
  0
VERTEX
  8
LAYER_14
 10
138.2768
 20
-193.0873
  0
VERTEX
  8
LAYER_14
 10
138.6296
 20
-193.0873
  0
VERTEX
  8
LAYER_14
 10
138.6296
 20
-193.3877
  0
VERTEX
  8
LAYER_14
 10
138.2768
 20
-193.3877
  0
SEQEND
  0
POLYLINE
  8
LAYER_14
 40
0.1411
 41
0.1411
 66
1
 10
0
 20
0
 30
0
  0
VERTEX
  8
LAYER_14
 10
137.4776
 20
-193.3877
  0
VERTEX
  8
LAYER_14
 10
133.0823
 20
-193.3877
  0
SEQEND
  0
POLYLINE
  8
LAYER_14
 40
0.1411
 41
0.1411
 66
1
 10
0
 20
0
 30
0
  0
VERTEX
  8
LAYER_14
 10
133.3827
 20
-194.0878
  0
VERTEX
  8
LAYER_14
 10
133.0299
 20
-194.0878
  0
VERTEX
  8
LAYER_14
 10
133.0299
 20
-193.6867
  0
VERTEX
  8
LAYER_14
 10
133.3827
 20
-193.6867
  0
SEQEND
  0
POLYLINE
  8
LAYER_14
 40
0.1411
 41
0.1411
 66
1
 10
0
 20
0
 30
0
  0
VERTEX
  8
LAYER_14
 10
133.9815
 20
-193.6867
  0
VERTEX
  8
LAYER_14
 10
137.2777
 20
-193.6867
  0
SEQEND
  0
POLYLINE
  8
LAYER_14
 40
0.1411
 41
0.1411
 66
1
 10
0
 20
0
 30
0
  0
VERTEX
  8
LAYER_14
 10
137.5775
 20
-193.6867
  0
VERTEX
  8
LAYER_14
 10
137.9296
 20
-193.6867
  0
VERTEX
  8
LAYER_14
 10
137.9296
 20
-194.0884
  0
VERTEX
  8
LAYER_14
 10
137.5775
 20
-194.0884
  0
SEQEND
  0
POLYLINE
  8
LAYER_14
 40
0.1411
 41
0.1411
 66
1
 10
0
 20
0
 30
0
  0
VERTEX
  8
LAYER_14
 10
137.5775
 20
-194.0878
  0
VERTEX
  8
LAYER_14
 10
133.3286
 20
-194.0878
  0
SEQEND
  0
INSERT
  8
LAYER_14
  2
AIGNBL0E020003
 10
0
 20
0
 30
0
  0
POLYLINE
  8
LAYER_14
 40
0.1411
 41
0.1411
 66
1
 10
0
 20
0
 30
0
  0
VERTEX
  8
LAYER_14
 10
133.1802
 20
-193.0873
  0
VERTEX
  8
LAYER_14
 10
133.5329
 20
-193.0873
  0
SEQEND
  0
POLYLINE
  8
LAYER_14
 40
0.1411
 41
0.1411
 66
1
 10
0
 20
0
 30
0
  0
VERTEX
  8
LAYER_14
 10
134.3115
 20
-193.0873
  0
VERTEX
  8
LAYER_14
 10
137.0373
 20
-193.0873
  0
SEQEND
  0
POLYLINE
  8
LAYER_14
 40
0.1411
 41
0.1411
 66
1
 10
0
 20
0
 30
0
  0
VERTEX
  8
LAYER_14
 10
137.4266
 20
-193.0873
  0
VERTEX
  8
LAYER_14
 10
137.7794
 20
-193.0873
  0
SEQEND
  0
ENDBLK
  0
BLOCK
  8
LAYER_14
  2
AIGNBL0E010004
 70
64
 10
0
 20
0
 30
0
  3
AIGNBL0E010004
  0
POLYLINE
  8
LAYER_14
 40
0.1058
 41
0.1058
 66
1
 10
0
 20
0
 30
0
 70
1
  0
VERTEX
  8
LAYER_14
 10
209.8342
 20
-193.9206
  0
VERTEX
  8
LAYER_14
 10
214.7338
 20
-193.9206
  0
VERTEX
  8
LAYER_14
 10
214.7338
 20
-195.8209
  0
VERTEX
  8
LAYER_14
 10
209.8342
 20
-195.8209
  0
SEQEND
  0
POLYLINE
  8
LAYER_14
 40
0.1411
 41
0.1411
 66
1
 10
0
 20
0
 30
0
  0
VERTEX
  8
LAYER_14
 10
209.983
 20
-192.9201
  0
VERTEX
  8
LAYER_14
 10
209.2906
 20
-192.9201
  0
SEQEND
  0
POLYLINE
  8
LAYER_14
 40
0.1411
 41
0.1411
 66
1
 10
0
 20
0
 30
0
  0
VERTEX
  8
LAYER_14
 10
215.2754
 20
-192.9201
  0
VERTEX
  8
LAYER_14
 10
214.5829
 20
-192.9201
  0
SEQEND
  0
POLYLINE
  8
LAYER_14
 40
0.1411
 41
0.1411
 66
1
 10
0
 20
0
 30
0
  0
VERTEX
  8
LAYER_14
 10
209.983
 20
-192.9201
  0
VERTEX
  8
LAYER_14
 10
210.3358
 20
-192.9201
  0
SEQEND
  0
POLYLINE
  8
LAYER_14
 40
0.1411
 41
0.1411
 66
1
 10
0
 20
0
 30
0
  0
VERTEX
  8
LAYER_14
 10
211.1144
 20
-192.9201
  0
VERTEX
  8
LAYER_14
 10
213.8402
 20
-192.9201
  0
SEQEND
  0
POLYLINE
  8
LAYER_14
 40
0.1411
 41
0.1411
 66
1
 10
0
 20
0
 30
0
  0
VERTEX
  8
LAYER_14
 10
214.2295
 20
-192.9201
  0
VERTEX
  8
LAYER_14
 10
214.5822
 20
-192.9201
  0
SEQEND
  0
POLYLINE
  8
LAYER_14
 40
0.1411
 41
0.1411
 66
1
 10
0
 20
0
 30
0
  0
VERTEX
  8
LAYER_14
 10
209.8897
 20
-193.5203
  0
VERTEX
  8
LAYER_14
 10
209.1328
 20
-193.5203
  0
VERTEX
  8
LAYER_14
 10
209.1328
 20
-193.2206
  0
VERTEX
  8
LAYER_14
 10
209.4856
 20
-193.2206
  0
SEQEND
  0
POLYLINE
  8
LAYER_14
 40
0.1411
 41
0.1411
 66
1
 10
0
 20
0
 30
0
  0
VERTEX
  8
LAYER_14
 10
210.2848
 20
-193.2206
  0
VERTEX
  8
LAYER_14
 10
214.6801
 20
-193.2206
  0
SEQEND
  0
POLYLINE
  8
LAYER_14
 40
0.1411
 41
0.1411
 66
1
 10
0
 20
0
 30
0
  0
VERTEX
  8
LAYER_14
 10
215.0797
 20
-193.2206
  0
VERTEX
  8
LAYER_14
 10
215.4325
 20
-193.2206
  0
VERTEX
  8
LAYER_14
 10
215.4325
 20
-193.5203
  0
VERTEX
  8
LAYER_14
 10
214.7256
 20
-193.5203
  0
SEQEND
  0
POLYLINE
  8
LAYER_14
 40
0.1411
 41
0.1411
 66
1
 10
0
 20
0
 30
0
  0
VERTEX
  8
LAYER_14
 10
214.2805
 20
-193.5203
  0
VERTEX
  8
LAYER_14
 10
209.8852
 20
-193.5203
  0
SEQEND
  0
POLYLINE
  8
LAYER_14
 40
0.1411
 41
0.1411
 66
1
 10
0
 20
0
 30
0
  0
VERTEX
  8
LAYER_14
 10
209.4856
 20
-193.2206
  0
VERTEX
  8
LAYER_14
 10
209.1328
 20
-193.2206
  0
VERTEX
  8
LAYER_14
 10
209.1328
 20
-192.9201
  0
VERTEX
  8
LAYER_14
 10
209.4856
 20
-192.9201
  0
SEQEND
  0
POLYLINE
  8
LAYER_14
 40
0.1411
 41
0.1411
 66
1
 10
0
 20
0
 30
0
  0
VERTEX
  8
LAYER_14
 10
210.2848
 20
-192.9201
  0
VERTEX
  8
LAYER_14
 10
214.6801
 20
-192.9201
  0
SEQEND
  0
POLYLINE
  8
LAYER_14
 40
0.1411
 41
0.1411
 66
1
 10
0
 20
0
 30
0
  0
VERTEX
  8
LAYER_14
 10
215.0797
 20
-192.9201
  0
VERTEX
  8
LAYER_14
 10
215.4325
 20
-192.9201
  0
VERTEX
  8
LAYER_14
 10
215.4325
 20
-193.2206
  0
VERTEX
  8
LAYER_14
 10
215.0797
 20
-193.2206
  0
SEQEND
  0
POLYLINE
  8
LAYER_14
 40
0.1411
 41
0.1411
 66
1
 10
0
 20
0
 30
0
  0
VERTEX
  8
LAYER_14
 10
214.2805
 20
-193.2206
  0
VERTEX
  8
LAYER_14
 10
209.8852
 20
-193.2206
  0
SEQEND
  0
POLYLINE
  8
LAYER_14
 40
0.1411
 41
0.1411
 66
1
 10
0
 20
0
 30
0
  0
VERTEX
  8
LAYER_14
 10
210.1856
 20
-193.9206
  0
VERTEX
  8
LAYER_14
 10
209.8328
 20
-193.9206
  0
VERTEX
  8
LAYER_14
 10
209.8328
 20
-193.5196
  0
VERTEX
  8
LAYER_14
 10
210.1856
 20
-193.5196
  0
SEQEND
  0
POLYLINE
  8
LAYER_14
 40
0.1411
 41
0.1411
 66
1
 10
0
 20
0
 30
0
  0
VERTEX
  8
LAYER_14
 10
210.7844
 20
-193.5196
  0
VERTEX
  8
LAYER_14
 10
214.0807
 20
-193.5196
  0
SEQEND
  0
POLYLINE
  8
LAYER_14
 40
0.1411
 41
0.1411
 66
1
 10
0
 20
0
 30
0
  0
VERTEX
  8
LAYER_14
 10
214.3804
 20
-193.5196
  0
VERTEX
  8
LAYER_14
 10
214.7324
 20
-193.5196
  0
VERTEX
  8
LAYER_14
 10
214.7324
 20
-193.9213
  0
VERTEX
  8
LAYER_14
 10
214.3804
 20
-193.9213
  0
SEQEND
  0
POLYLINE
  8
LAYER_14
 40
0.1411
 41
0.1411
 66
1
 10
0
 20
0
 30
0
  0
VERTEX
  8
LAYER_14
 10
214.3804
 20
-193.9206
  0
VERTEX
  8
LAYER_14
 10
210.1315
 20
-193.9206
  0
SEQEND
  0
INSERT
  8
LAYER_14
  2
AIGNBL0E020005
 10
0
 20
0
 30
0
  0
POLYLINE
  8
LAYER_14
 40
0.1411
 41
0.1411
 66
1
 10
0
 20
0
 30
0
  0
VERTEX
  8
LAYER_14
 10
209.983
 20
-192.9201
  0
VERTEX
  8
LAYER_14
 10
210.3358
 20
-192.9201
  0
SEQEND
  0
POLYLINE
  8
LAYER_14
 40
0.1411
 41
0.1411
 66
1
 10
0
 20
0
 30
0
  0
VERTEX
  8
LAYER_14
 10
211.1144
 20
-192.9201
  0
VERTEX
  8
LAYER_14
 10
213.8402
 20
-192.9201
  0
SEQEND
  0
POLYLINE
  8
LAYER_14
 40
0.1411
 41
0.1411
 66
1
 10
0
 20
0
 30
0
  0
VERTEX
  8
LAYER_14
 10
214.2295
 20
-192.9201
  0
VERTEX
  8
LAYER_14
 10
214.5822
 20
-192.9201
  0
SEQEND
  0
ENDBLK
  0
BLOCK
  8
LAYER_22
  2
AIGNBL16010002
 70
64
 10
0
 20
0
 30
0
  3
AIGNBL16010002
  0
INSERT
  8
LAYER_22
  2
AIGNBL16020003
 10
0
 20
0
 30
0
  0
INSERT
  8
LAYER_22
  2
AIGNBL16020014
 10
0
 20
0
 30
0
  0
INSERT
  8
LAYER_22
  2
AIGNBL16020034
 10
0
 20
0
 30
0
  0
INSERT
  8
LAYER_22
  2
AIGNBL16020043
 10
0
 20
0
 30
0
  0
INSERT
  8
LAYER_22
  2
AIGNBL1602004A
 10
0
 20
0
 30
0
  0
INSERT
  8
LAYER_22
  2
AIGNBL16020059
 10
0
 20
0
 30
0
  0
INSERT
  8
LAYER_22
  2
AIGNBL1602005A
 10
0
 20
0
 30
0
  0
INSERT
  8
LAYER_22
  2
AIGNBL1602005B
 10
0
 20
0
 30
0
  0
INSERT
  8
LAYER_22
  2
AIGNBL1602005C
 10
0
 20
0
 30
0
  0
INSERT
  8
LAYER_22
  2
AIGNBL1602005F
 10
0
 20
0
 30
0
  0
ENDBLK
  0
BLOCK
  8
LAYER_22
  2
AIGNBL16010068
 70
64
 10
0
 20
0
 30
0
  3
AIGNBL16010068
  0
INSERT
  8
LAYER_22
  2
AIGNBL16020069
 10
0
 20
0
 30
0
  0
INSERT
  8
LAYER_22
  2
AIGNBL1602007A
 10
0
 20
0
 30
0
  0
INSERT
  8
LAYER_22
  2
AIGNBL1602008C
 10
0
 20
0
 30
0
  0
INSERT
  8
LAYER_22
  2
AIGNBL1602009B
 10
0
 20
0
 30
0
  0
INSERT
  8
LAYER_22
  2
AIGNBL1602009C
 10
0
 20
0
 30
0
  0
INSERT
  8
LAYER_22
  2
AIGNBL1602009F
 10
0
 20
0
 30
0
  0
INSERT
  8
LAYER_22
  2
AIGNBL160200A0
 10
0
 20
0
 30
0
  0
CIRCLE
  8
LAYER_22
 10
135.4811
 20
-203.9202
 40
3.6
  0
INSERT
  8
LAYER_22
  2
AIGNBL160200A3
 10
0
 20
0
 30
0
  0
ENDBLK
  0
BLOCK
  8
LAYER_23
  2
AIGNBL17010002
 70
64
 10
0
 20
0
 30
0
  3
AIGNBL17010002
  0
POLYLINE
  8
LAYER_23
 40
0.1764
 41
0.1764
 66
1
 10
0
 20
0
 30
0
  0
VERTEX
  8
LAYER_23
 10
172.6705
 20
-133.1147
  0
VERTEX
  8
LAYER_23
 10
172.6705
 20
-87.6147
  0
VERTEX
  8
LAYER_23
 10
179.6688
 20
-87.6147
  0
VERTEX
  8
LAYER_23
 10
179.6888
 20
-133.1147
  0
VERTEX
  8
LAYER_23
 10
172.6905
 20
-133.1147
  0
SEQEND
  0
POLYLINE
  8
LAYER_23
 40
0.1764
 41
0.1764
 66
1
 10
0
 20
0
 30
0
  0
VERTEX
  8
LAYER_23
 10
172.9705
 20
-131.1147
  0
VERTEX
  8
LAYER_23
 10
172.9705
 20
-89.6147
  0
VERTEX
  8
LAYER_23
 10
177.6688
 20
-89.6147
  0
VERTEX
  8
LAYER_23
 10
177.6888
 20
-131.1147
  0
VERTEX
  8
LAYER_23
 10
172.9905
 20
-131.1147
  0
SEQEND
  0
ENDBLK
  0
BLOCK
  8
LAYER_23
  2
AIGNBL17010003
 70
64
 10
0
 20
0
 30
0
  3
AIGNBL17010003
  0
POLYLINE
  8
LAYER_23
 40
0.1764
 41
0.1764
 66
1
 10
0
 20
0
 30
0
 70
1
  0
VERTEX
  8
LAYER_23
 10
172.6705
 20
-176.5625
  0
VERTEX
  8
LAYER_23
 10
179.6705
 20
-176.5625
  0
VERTEX
  8
LAYER_23
 10
179.6705
 20
-178.5625
  0
VERTEX
  8
LAYER_23
 10
172.6705
 20
-178.5625
  0
SEQEND
  0
POLYLINE
  8
LAYER_23
 40
0.1764
 41
0.1764
 66
1
 10
0
 20
0
 30
0
  0
VERTEX
  8
LAYER_23
 10
177.7205
 20
-176.5625
  0
VERTEX
  8
LAYER_23
 10
177.7205
 20
-178.5625
  0
SEQEND
  0
POLYLINE
  8
LAYER_23
  6
AIGENLINE006
 40
0.1764
 41
0.1764
 62
160
 66
1
 10
0
 20
0
 30
0
 70
128
  0
VERTEX
  8
LAYER_23
 10
177.7205
 20
-178.5625
  0
VERTEX
  8
LAYER_23
 10
179.6705
 20
-178.5625
  0
SEQEND
  0
POLYLINE
  8
LAYER_23
  6
AIGENLINE006
 40
0.1764
 41
0.1764
 62
160
 66
1
 10
0
 20
0
 30
0
 70
128
  0
VERTEX
  8
LAYER_23
 10
179.6705
 20
-176.5625
  0
VERTEX
  8
LAYER_23
 10
177.7205
 20
-176.5625
  0
SEQEND
  0
ENDBLK
  0
BLOCK
  8
LAYER_33
  2
AIGNBL21010002
 70
64
 10
0
 20
0
 30
0
  3
AIGNBL21010002
  0
INSERT
  8
LAYER_33
  2
AIGNBL21020003
 10
0
 20
0
 30
0
  0
INSERT
  8
LAYER_33
  2
AIGNBL2102000B
 10
0
 20
0
 30
0
  0
ENDBLK
  0
BLOCK
  8
LAYER_33
  2
AIGNBL2101003C
 70
64
 10
0
 20
0
 30
0
  3
AIGNBL2101003C
  0
INSERT
  8
LAYER_33
  2
AIGNBL2102003D
 10
0
 20
0
 30
0
  0
INSERT
  8
LAYER_33
  2
AIGNBL21020045
 10
0
 20
0
 30
0
  0
ENDBLK
  0
BLOCK
  8
LAYER_33
  2
AIGNBL21010076
 70
64
 10
0
 20
0
 30
0
  3
AIGNBL21010076
  0
INSERT
  8
LAYER_33
  2
AIGNBL21020077
 10
0
 20
0
 30
0
  0
INSERT
  8
LAYER_33
  2
AIGNBL2102007E
 10
0
 20
0
 30
0
  0
INSERT
  8
LAYER_33
  2
AIGNBL2102007F
 10
0
 20
0
 30
0
  0
INSERT
  8
LAYER_33
  2
AIGNBL21020080
 10
0
 20
0
 30
0
  0
INSERT
  8
LAYER_33
  2
AIGNBL21020081
 10
0
 20
0
 30
0
  0
INSERT
  8
LAYER_33
  2
AIGNBL21020082
 10
0
 20
0
 30
0
  0
INSERT
  8
LAYER_33
  2
AIGNBL21020083
 10
0
 20
0
 30
0
  0
INSERT
  8
LAYER_33
  2
AIGNBL21020084
 10
0
 20
0
 30
0
  0
INSERT
  8
LAYER_33
  2
AIGNBL21020085
 10
0
 20
0
 30
0
  0
INSERT
  8
LAYER_33
  2
AIGNBL21020086
 10
0
 20
0
 30
0
  0
INSERT
  8
LAYER_33
  2
AIGNBL21020087
 10
0
 20
0
 30
0
  0
INSERT
  8
LAYER_33
  2
AIGNBL21020088
 10
0
 20
0
 30
0
  0
INSERT
  8
LAYER_33
  2
AIGNBL21020089
 10
0
 20
0
 30
0
  0
INSERT
  8
LAYER_33
  2
AIGNBL2102008A
 10
0
 20
0
 30
0
  0
INSERT
  8
LAYER_33
  2
AIGNBL2102008B
 10
0
 20
0
 30
0
  0
INSERT
  8
LAYER_33
  2
AIGNBL2102008C
 10
0
 20
0
 30
0
  0
INSERT
  8
LAYER_33
  2
AIGNBL2102008D
 10
0
 20
0
 30
0
  0
INSERT
  8
LAYER_33
  2
AIGNBL2102008E
 10
0
 20
0
 30
0
  0
INSERT
  8
LAYER_33
  2
AIGNBL2102008F
 10
0
 20
0
 30
0
  0
INSERT
  8
LAYER_33
  2
AIGNBL21020090
 10
0
 20
0
 30
0
  0
INSERT
  8
LAYER_33
  2
AIGNBL21020091
 10
0
 20
0
 30
0
  0
INSERT
  8
LAYER_33
  2
AIGNBL21020092
 10
0
 20
0
 30
0
  0
INSERT
  8
LAYER_33
  2
AIGNBL21020093
 10
0
 20
0
 30
0
  0
INSERT
  8
LAYER_33
  2
AIGNBL21020094
 10
0
 20
0
 30
0
  0
INSERT
  8
LAYER_33
  2
AIGNBL21020095
 10
0
 20
0
 30
0
  0
INSERT
  8
LAYER_33
  2
AIGNBL21020096
 10
0
 20
0
 30
0
  0
INSERT
  8
LAYER_33
  2
AIGNBL21020097
 10
0
 20
0
 30
0
  0
INSERT
  8
LAYER_33
  2
AIGNBL21020098
 10
0
 20
0
 30
0
  0
INSERT
  8
LAYER_33
  2
AIGNBL21020099
 10
0
 20
0
 30
0
  0
INSERT
  8
LAYER_33
  2
AIGNBL2102009A
 10
0
 20
0
 30
0
  0
INSERT
  8
LAYER_33
  2
AIGNBL2102009B
 10
0
 20
0
 30
0
  0
INSERT
  8
LAYER_33
  2
AIGNBL2102009C
 10
0
 20
0
 30
0
  0
INSERT
  8
LAYER_33
  2
AIGNBL2102009D
 10
0
 20
0
 30
0
  0
INSERT
  8
LAYER_33
  2
AIGNBL2102009E
 10
0
 20
0
 30
0
  0
INSERT
  8
LAYER_33
  2
AIGNBL2102009F
 10
0
 20
0
 30
0
  0
INSERT
  8
LAYER_33
  2
AIGNBL210200A0
 10
0
 20
0
 30
0
  0
INSERT
  8
LAYER_33
  2
AIGNBL210200A1
 10
0
 20
0
 30
0
  0
INSERT
  8
LAYER_33
  2
AIGNBL210200A2
 10
0
 20
0
 30
0
  0
INSERT
  8
LAYER_33
  2
AIGNBL210200A3
 10
0
 20
0
 30
0
  0
INSERT
  8
LAYER_33
  2
AIGNBL210200A4
 10
0
 20
0
 30
0
  0
INSERT
  8
LAYER_33
  2
AIGNBL210200A5
 10
0
 20
0
 30
0
  0
INSERT
  8
LAYER_33
  2
AIGNBL210200A6
 10
0
 20
0
 30
0
  0
INSERT
  8
LAYER_33
  2
AIGNBL210200A7
 10
0
 20
0
 30
0
  0
INSERT
  8
LAYER_33
  2
AIGNBL210200A8
 10
0
 20
0
 30
0
  0
INSERT
  8
LAYER_33
  2
AIGNBL210200A9
 10
0
 20
0
 30
0
  0
INSERT
  8
LAYER_33
  2
AIGNBL210200AA
 10
0
 20
0
 30
0
  0
INSERT
  8
LAYER_33
  2
AIGNBL210200AB
 10
0
 20
0
 30
0
  0
INSERT
  8
LAYER_33
  2
AIGNBL210200AC
 10
0
 20
0
 30
0
  0
INSERT
  8
LAYER_33
  2
AIGNBL210200AD
 10
0
 20
0
 30
0
  0
INSERT
  8
LAYER_33
  2
AIGNBL210200AE
 10
0
 20
0
 30
0
  0
INSERT
  8
LAYER_33
  2
AIGNBL210200AF
 10
0
 20
0
 30
0
  0
INSERT
  8
LAYER_33
  2
AIGNBL210200B0
 10
0
 20
0
 30
0
  0
INSERT
  8
LAYER_33
  2
AIGNBL210200B1
 10
0
 20
0
 30
0
  0
INSERT
  8
LAYER_33
  2
AIGNBL210200B2
 10
0
 20
0
 30
0
  0
INSERT
  8
LAYER_33
  2
AIGNBL210200B3
 10
0
 20
0
 30
0
  0
INSERT
  8
LAYER_33
  2
AIGNBL210200B4
 10
0
 20
0
 30
0
  0
INSERT
  8
LAYER_33
  2
AIGNBL210200B5
 10
0
 20
0
 30
0
  0
INSERT
  8
LAYER_33
  2
AIGNBL210200B6
 10
0
 20
0
 30
0
  0
INSERT
  8
LAYER_33
  2
AIGNBL210200B7
 10
0
 20
0
 30
0
  0
INSERT
  8
LAYER_33
  2
AIGNBL210200B8
 10
0
 20
0
 30
0
  0
INSERT
  8
LAYER_33
  2
AIGNBL210200B9
 10
0
 20
0
 30
0
  0
INSERT
  8
LAYER_33
  2
AIGNBL210200BA
 10
0
 20
0
 30
0
  0
INSERT
  8
LAYER_33
  2
AIGNBL210200BB
 10
0
 20
0
 30
0
  0
INSERT
  8
LAYER_33
  2
AIGNBL210200BC
 10
0
 20
0
 30
0
  0
INSERT
  8
LAYER_33
  2
AIGNBL210200BD
 10
0
 20
0
 30
0
  0
INSERT
  8
LAYER_33
  2
AIGNBL210200BE
 10
0
 20
0
 30
0
  0
INSERT
  8
LAYER_33
  2
AIGNBL210200BF
 10
0
 20
0
 30
0
  0
INSERT
  8
LAYER_33
  2
AIGNBL210200C0
 10
0
 20
0
 30
0
  0
INSERT
  8
LAYER_33
  2
AIGNBL210200C1
 10
0
 20
0
 30
0
  0
INSERT
  8
LAYER_33
  2
AIGNBL210200C2
 10
0
 20
0
 30
0
  0
INSERT
  8
LAYER_33
  2
AIGNBL210200C3
 10
0
 20
0
 30
0
  0
INSERT
  8
LAYER_33
  2
AIGNBL210200C4
 10
0
 20
0
 30
0
  0
INSERT
  8
LAYER_33
  2
AIGNBL210200C5
 10
0
 20
0
 30
0
  0
INSERT
  8
LAYER_33
  2
AIGNBL210200C6
 10
0
 20
0
 30
0
  0
INSERT
  8
LAYER_33
  2
AIGNBL210200C7
 10
0
 20
0
 30
0
  0
INSERT
  8
LAYER_33
  2
AIGNBL210200C8
 10
0
 20
0
 30
0
  0
INSERT
  8
LAYER_33
  2
AIGNBL210200C9
 10
0
 20
0
 30
0
  0
INSERT
  8
LAYER_33
  2
AIGNBL210200CA
 10
0
 20
0
 30
0
  0
INSERT
  8
LAYER_33
  2
AIGNBL210200CB
 10
0
 20
0
 30
0
  0
INSERT
  8
LAYER_33
  2
AIGNBL210200CC
 10
0
 20
0
 30
0
  0
INSERT
  8
LAYER_33
  2
AIGNBL210200CD
 10
0
 20
0
 30
0
  0
INSERT
  8
LAYER_33
  2
AIGNBL210200CE
 10
0
 20
0
 30
0
  0
INSERT
  8
LAYER_33
  2
AIGNBL210200CF
 10
0
 20
0
 30
0
  0
INSERT
  8
LAYER_33
  2
AIGNBL210200D0
 10
0
 20
0
 30
0
  0
INSERT
  8
LAYER_33
  2
AIGNBL210200D1
 10
0
 20
0
 30
0
  0
INSERT
  8
LAYER_33
  2
AIGNBL210200D2
 10
0
 20
0
 30
0
  0
INSERT
  8
LAYER_33
  2
AIGNBL210200D3
 10
0
 20
0
 30
0
  0
INSERT
  8
LAYER_33
  2
AIGNBL210200D4
 10
0
 20
0
 30
0
  0
INSERT
  8
LAYER_33
  2
AIGNBL210200D5
 10
0
 20
0
 30
0
  0
INSERT
  8
LAYER_33
  2
AIGNBL210200D6
 10
0
 20
0
 30
0
  0
INSERT
  8
LAYER_33
  2
AIGNBL210200D7
 10
0
 20
0
 30
0
  0
INSERT
  8
LAYER_33
  2
AIGNBL210200D8
 10
0
 20
0
 30
0
  0
INSERT
  8
LAYER_33
  2
AIGNBL210200D9
 10
0
 20
0
 30
0
  0
INSERT
  8
LAYER_33
  2
AIGNBL210200DA
 10
0
 20
0
 30
0
  0
INSERT
  8
LAYER_33
  2
AIGNBL210200DB
 10
0
 20
0
 30
0
  0
INSERT
  8
LAYER_33
  2
AIGNBL210200DC
 10
0
 20
0
 30
0
  0
INSERT
  8
LAYER_33
  2
AIGNBL210200DD
 10
0
 20
0
 30
0
  0
INSERT
  8
LAYER_33
  2
AIGNBL210200DE
 10
0
 20
0
 30
0
  0
INSERT
  8
LAYER_33
  2
AIGNBL210200DF
 10
0
 20
0
 30
0
  0
INSERT
  8
LAYER_33
  2
AIGNBL210200E0
 10
0
 20
0
 30
0
  0
INSERT
  8
LAYER_33
  2
AIGNBL210200E1
 10
0
 20
0
 30
0
  0
INSERT
  8
LAYER_33
  2
AIGNBL210200E2
 10
0
 20
0
 30
0
  0
INSERT
  8
LAYER_33
  2
AIGNBL210200E3
 10
0
 20
0
 30
0
  0
ENDBLK
  0
BLOCK
  8
LAYER_36
  2
AIGNBL24010002
 70
64
 10
0
 20
0
 30
0
  3
AIGNBL24010002
  0
POLYLINE
  8
LAYER_36
 40
0.0882
 41
0.0882
 62
254
 66
1
 10
0
 20
0
 30
0
  0
VERTEX
  8
LAYER_36
 10
109.8173
 20
-254.9198
  0
SEQEND
  0
ENDBLK
  0
BLOCK
  8
LAYER_36
  2
AIGNBL24010003
 70
64
 10
0
 20
0
 30
0
  3
AIGNBL24010003
  0
POLYLINE
  8
LAYER_36
 40
0.0882
 41
0.0882
 62
254
 66
1
 10
0
 20
0
 30
0
  0
VERTEX
  8
LAYER_36
 10
103.4169
 20
-254.9198
  0
SEQEND
  0
ENDBLK
  0
BLOCK
  8
LAYER_36
  2
AIGNBL24010004
 70
64
 10
0
 20
0
 30
0
  3
AIGNBL24010004
  0
POLYLINE
  8
LAYER_36
 40
0.0882
 41
0.0882
 62
254
 66
1
 10
0
 20
0
 30
0
  0
VERTEX
  8
LAYER_36
 10
109.8173
 20
-254.9198
  0
SEQEND
  0
ENDBLK
  0
BLOCK
  8
LAYER_36
  2
AIGNBL24010005
 70
64
 10
0
 20
0
 30
0
  3
AIGNBL24010005
  0
POLYLINE
  8
LAYER_36
 40
0.0882
 41
0.0882
 66
1
 10
0
 20
0
 30
0
  0
VERTEX
  8
LAYER_36
 10
103.4169
 20
-254.9198
  0
VERTEX
  8
LAYER_36
 10
109.8173
 20
-254.9198
  0
SEQEND
  0
ENDBLK
  0
ENDSEC
  0
SECTION
  2
ENTITIES
  0
POLYLINE
  8
LAYER_2
 40
0.1764
 41
0.1764
 66
1
 10
0
 20
0
 30
0
  0
VERTEX
  8
LAYER_2
 10
112.9715
 20
-176.275
  0
VERTEX
  8
LAYER_2
 10
112.9715
 20
-175.3775
  0
SEQEND
  0
POLYLINE
  8
LAYER_2
 40
0.1764
 41
0.1764
 62
252
 66
1
 10
0
 20
0
 30
0
  0
VERTEX
  8
LAYER_2
 10
152.9973
 20
-175.0657
  0
VERTEX
  8
LAYER_2
 10
152.9193
 20
-175.6121
  0
SEQEND
  0
POLYLINE
  8
LAYER_2
 40
0.1764
 41
0.1764
 62
252
 66
1
 10
0
 20
0
 30
0
  0
VERTEX
  8
LAYER_2
 10
152.8412
 20
-175.9239
  0
VERTEX
  8
LAYER_2
 10
152.7633
 20
-176.5482
  0
SEQEND
  0
POLYLINE
  8
LAYER_2
 40
0.1764
 41
0.1764
 62
252
 66
1
 10
0
 20
0
 30
0
  0
VERTEX
  8
LAYER_2
 10
152.7242
 20
-176.8602
  0
VERTEX
  8
LAYER_2
 10
152.6073
 20
-177.4845
  0
SEQEND
  0
POLYLINE
  8
LAYER_2
 40
0.1764
 41
0.1764
 62
252
 66
1
 10
0
 20
0
 30
0
  0
VERTEX
  8
LAYER_2
 10
152.5681
 20
-177.7965
  0
VERTEX
  8
LAYER_2
 10
152.4902
 20
-178.4208
  0
SEQEND
  0
POLYLINE
  8
LAYER_2
 40
0.1764
 41
0.1764
 62
252
 66
1
 10
0
 20
0
 30
0
  0
VERTEX
  8
LAYER_2
 10
152.4511
 20
-178.7328
  0
VERTEX
  8
LAYER_2
 10
152.3342
 20
-179.3571
  0
SEQEND
  0
POLYLINE
  8
LAYER_2
 40
0.1764
 41
0.1764
 62
252
 66
1
 10
0
 20
0
 30
0
  0
VERTEX
  8
LAYER_2
 10
152.2951
 20
-179.669
  0
VERTEX
  8
LAYER_2
 10
152.2171
 20
-180.2933
  0
SEQEND
  0
POLYLINE
  8
LAYER_2
 40
0.1764
 41
0.1764
 62
252
 66
1
 10
0
 20
0
 30
0
  0
VERTEX
  8
LAYER_2
 10
152.1391
 20
-180.6443
  0
VERTEX
  8
LAYER_2
 10
152.0611
 20
-181.2686
  0
SEQEND
  0
POLYLINE
  8
LAYER_2
 40
0.1764
 41
0.1764
 66
1
 10
0
 20
0
 30
0
  0
VERTEX
  8
LAYER_2
 10
125.2601
 20
-175.0657
  0
VERTEX
  8
LAYER_2
 10
126.6646
 20
-175.0657
  0
SEQEND
  0
INSERT
  8
LAYER_2
  2
AIGNBL02010002
 10
0
 20
0
 30
0
  0
INSERT
  8
LAYER_2
  2
AIGNBL02010005
 10
0
 20
0
 30
0
  0
INSERT
  8
LAYER_2
  2
AIGNBL02010006
 10
0
 20
0
 30
0
  0
INSERT
  8
LAYER_2
  2
AIGNBL02010007
 10
0
 20
0
 30
0
  0
INSERT
  8
LAYER_2
  2
AIGNBL02010008
 10
0
 20
0
 30
0
  0
INSERT
  8
LAYER_2
  2
AIGNBL02010009
 10
0
 20
0
 30
0
  0
INSERT
  8
LAYER_2
  2
AIGNBL0201000A
 10
0
 20
0
 30
0
  0
INSERT
  8
LAYER_2
  2
AIGNBL020100A7
 10
0
 20
0
 30
0
  0
INSERT
  8
LAYER_2
  2
AIGNBL020100AC
 10
0
 20
0
 30
0
  0
INSERT
  8
LAYER_2
  2
AIGNBL02010108
 10
0
 20
0
 30
0
  0
INSERT
  8
LAYER_2
  2
AIGNBL020101EC
 10
0
 20
0
 30
0
  0
POLYLINE
  8
LAYER_5
 40
0.1129
 41
0.1129
 66
1
 10
0
 20
0
 30
0
  0
VERTEX
  8
LAYER_5
 10
109.1368
 20
-87.8045
  0
VERTEX
  8
LAYER_5
 10
109.1368
 20
-133.8044
  0
SEQEND
  0
POLYLINE
  8
LAYER_5
 40
0.1129
 41
0.1129
 66
1
 10
0
 20
0
 30
0
  0
VERTEX
  8
LAYER_5
 10
111.8443
 20
-133.8957
  0
VERTEX
  8
LAYER_5
 10
106.5523
 20
-133.8957
  0
SEQEND
  0
POLYLINE
  8
LAYER_5
 40
0.1129
 41
0.1129
 66
1
 10
0
 20
0
 30
0
  0
VERTEX
  8
LAYER_5
 10
106.5523
 20
-87.7142
  0
VERTEX
  8
LAYER_5
 10
111.8443
 20
-87.7142
  0
SEQEND
  0
TEXT
  8
LAYER_5
 10
107.3557
 20
-113.2014
 11
107.3557
 21
-113.2014
 40
4.4427
 41
0.5
 50
89.99999999
  1
460
  0
POLYLINE
  8
LAYER_5
 40
0.1129
 41
0.1129
 66
1
 10
0
 20
0
 30
0
  0
VERTEX
  8
LAYER_5
 10
113.3071
 20
-83.4626
  0
VERTEX
  8
LAYER_5
 10
173.3069
 20
-83.4626
  0
SEQEND
  0
POLYLINE
  8
LAYER_5
 40
0.1129
 41
0.1129
 66
1
 10
0
 20
0
 30
0
  0
VERTEX
  8
LAYER_5
 10
173.3072
 20
-80.8552
  0
VERTEX
  8
LAYER_5
 10
173.3072
 20
-86.1464
  0
SEQEND
  0
POLYLINE
  8
LAYER_5
 40
0.1129
 41
0.1129
 66
1
 10
0
 20
0
 30
0
  0
VERTEX
  8
LAYER_5
 10
113.3082
 20
-86.1464
  0
VERTEX
  8
LAYER_5
 10
113.3082
 20
-80.8552
  0
SEQEND
  0
TEXT
  8
LAYER_5
 10
139.7906
 20
-82.1142
 11
139.7906
 21
-82.1142
 40
4.4427
 41
0.5
  1
600
  0
POLYLINE
  8
LAYER_6
 40
0.3528
 41
0.3528
 66
1
 10
0
 20
0
 30
0
  0
VERTEX
  8
LAYER_6
 10
103.8203
 20
-87.6147
  0
VERTEX
  8
LAYER_6
 10
182.8205
 20
-87.6147
  0
SEQEND
  0
INSERT
  8
LAYER_14
  2
AIGNBL0E010002
 10
0
 20
0
 30
0
  0
INSERT
  8
LAYER_14
  2
AIGNBL0E010004
 10
0
 20
0
 30
0
  0
INSERT
  8
LAYER_22
  2
AIGNBL16010002
 10
0
 20
0
 30
0
  0
INSERT
  8
LAYER_22
  2
AIGNBL16010068
 10
0
 20
0
 30
0
  0
POLYLINE
  8
LAYER_23
 40
0.1764
 41
0.1764
 66
1
 10
0
 20
0
 30
0
 70
1
  0
VERTEX
  8
LAYER_23
 10
188.5036
 20
-17.6279
  0
VERTEX
  8
LAYER_23
 10
145.9243
 20
-17.6279
  0
VERTEX
  8
LAYER_23
 10
145.9243
 20
-11.6279
  0
VERTEX
  8
LAYER_23
 10
188.5036
 20
-11.6279
  0
SEQEND
  0
POLYLINE
  8
LAYER_23
 40
0.1764
 41
0.1764
 66
1
 10
0
 20
0
 30
0
 70
1
  0
VERTEX
  8
LAYER_23
 10
188.5036
 20
-23.6279
  0
VERTEX
  8
LAYER_23
 10
145.9243
 20
-23.6279
  0
VERTEX
  8
LAYER_23
 10
145.9243
 20
-17.6279
  0
VERTEX
  8
LAYER_23
 10
188.5036
 20
-17.6279
  0
SEQEND
  0
POLYLINE
  8
LAYER_23
 40
0.1764
 41
0.1764
 66
1
 10
0
 20
0
 30
0
 70
1
  0
VERTEX
  8
LAYER_23
 10
188.5036
 20
-29.6278
  0
VERTEX
  8
LAYER_23
 10
145.9243
 20
-29.6278
  0
VERTEX
  8
LAYER_23
 10
145.9243
 20
-23.6279
  0
VERTEX
  8
LAYER_23
 10
188.5036
 20
-23.6279
  0
SEQEND
  0
POLYLINE
  8
LAYER_23
 40
0.1764
 41
0.1764
 66
1
 10
0
 20
0
 30
0
 70
1
  0
VERTEX
  8
LAYER_23
 10
188.5036
 20
-35.6278
  0
VERTEX
  8
LAYER_23
 10
145.9243
 20
-35.6278
  0
VERTEX
  8
LAYER_23
 10
145.9243
 20
-29.6278
  0
VERTEX
  8
LAYER_23
 10
188.5036
 20
-29.6278
  0
SEQEND
  0
POLYLINE
  8
LAYER_23
 40
0.1764
 41
0.1764
 66
1
 10
0
 20
0
 30
0
 70
1
  0
VERTEX
  8
LAYER_23
 10
188.5036
 20
-41.6278
  0
VERTEX
  8
LAYER_23
 10
145.9243
 20
-41.6278
  0
VERTEX
  8
LAYER_23
 10
145.9243
 20
-35.6278
  0
VERTEX
  8
LAYER_23
 10
188.5036
 20
-35.6278
  0
SEQEND
  0
POLYLINE
  8
LAYER_23
 40
0.1764
 41
0.1764
 66
1
 10
0
 20
0
 30
0
 70
1
  0
VERTEX
  8
LAYER_23
 10
251.7069
 20
-17.6279
  0
VERTEX
  8
LAYER_23
 10
188.3172
 20
-17.6279
  0
VERTEX
  8
LAYER_23
 10
188.3172
 20
-11.6279
  0
VERTEX
  8
LAYER_23
 10
251.7069
 20
-11.6279
  0
SEQEND
  0
POLYLINE
  8
LAYER_23
 40
0.1764
 41
0.1764
 66
1
 10
0
 20
0
 30
0
 70
1
  0
VERTEX
  8
LAYER_23
 10
251.7069
 20
-23.6279
  0
VERTEX
  8
LAYER_23
 10
188.3172
 20
-23.6279
  0
VERTEX
  8
LAYER_23
 10
188.3172
 20
-17.6279
  0
VERTEX
  8
LAYER_23
 10
251.7069
 20
-17.6279
  0
SEQEND
  0
POLYLINE
  8
LAYER_23
 40
0.1764
 41
0.1764
 66
1
 10
0
 20
0
 30
0
 70
1
  0
VERTEX
  8
LAYER_23
 10
251.7069
 20
-29.6278
  0
VERTEX
  8
LAYER_23
 10
188.3172
 20
-29.6278
  0
VERTEX
  8
LAYER_23
 10
188.3172
 20
-23.6279
  0
VERTEX
  8
LAYER_23
 10
251.7069
 20
-23.6279
  0
SEQEND
  0
POLYLINE
  8
LAYER_23
 40
0.1764
 41
0.1764
 66
1
 10
0
 20
0
 30
0
 70
1
  0
VERTEX
  8
LAYER_23
 10
251.7069
 20
-41.6278
  0
VERTEX
  8
LAYER_23
 10
188.3172
 20
-41.6278
  0
VERTEX
  8
LAYER_23
 10
188.3172
 20
-35.6278
  0
VERTEX
  8
LAYER_23
 10
251.7069
 20
-35.6278
  0
SEQEND
  0
POLYLINE
  8
LAYER_23
 40
0.1764
 41
0.1764
 66
1
 10
0
 20
0
 30
0
 70
1
  0
VERTEX
  8
LAYER_23
 10
188.5036
 20
-47.6278
  0
VERTEX
  8
LAYER_23
 10
145.9243
 20
-47.6278
  0
VERTEX
  8
LAYER_23
 10
145.9243
 20
-41.6278
  0
VERTEX
  8
LAYER_23
 10
188.5036
 20
-41.6278
  0
SEQEND
  0
POLYLINE
  8
LAYER_23
 40
0.1764
 41
0.1764
 66
1
 10
0
 20
0
 30
0
 70
1
  0
VERTEX
  8
LAYER_23
 10
251.7069
 20
-47.6278
  0
VERTEX
  8
LAYER_23
 10
188.3172
 20
-47.6278
  0
VERTEX
  8
LAYER_23
 10
188.3172
 20
-41.6278
  0
VERTEX
  8
LAYER_23
 10
251.7069
 20
-41.6278
  0
SEQEND
  0
POLYLINE
  8
LAYER_23
 40
0.1764
 41
0.1764
 66
1
 10
0
 20
0
 30
0
 70
1
  0
VERTEX
  8
LAYER_23
 10
188.5036
 20
-53.6277
  0
VERTEX
  8
LAYER_23
 10
145.9243
 20
-53.6277
  0
VERTEX
  8
LAYER_23
 10
145.9243
 20
-47.6278
  0
VERTEX
  8
LAYER_23
 10
188.5036
 20
-47.6278
  0
SEQEND
  0
POLYLINE
  8
LAYER_23
 40
0.1764
 41
0.1764
 66
1
 10
0
 20
0
 30
0
 70
1
  0
VERTEX
  8
LAYER_23
 10
251.7069
 20
-53.6277
  0
VERTEX
  8
LAYER_23
 10
188.3172
 20
-53.6277
  0
VERTEX
  8
LAYER_23
 10
188.3172
 20
-47.6278
  0
VERTEX
  8
LAYER_23
 10
251.7069
 20
-47.6278
  0
SEQEND
  0
POLYLINE
  8
LAYER_23
 40
0.1764
 41
0.1764
 66
1
 10
0
 20
0
 30
0
 70
1
  0
VERTEX
  8
LAYER_23
 10
251.7069
 20
-35.6278
  0
VERTEX
  8
LAYER_23
 10
188.3172
 20
-35.6278
  0
VERTEX
  8
LAYER_23
 10
188.3172
 20
-29.6278
  0
VERTEX
  8
LAYER_23
 10
251.7069
 20
-29.6278
  0
SEQEND
  0
TEXT
  8
LAYER_23
 10
147.2513
 20
-16.1001
 11
147.2513
 21
-16.1001
 40
3.7519
 41
0.5
  1
洗面器
  0
TEXT
  8
LAYER_23
 10
147.2513
 20
-22.1001
 11
147.2513
 21
-22.1001
 40
3.7519
 41
0.5
  1
排水目皿
  0
TEXT
  8
LAYER_23
 10
147.2513
 20
-28.1001
 11
147.2513
 21
-28.1001
 40
3.7519
 41
0.5
  1
水栓金具
  0
TEXT
  8
LAYER_23
 10
147.2513
 20
-34.1001
 11
147.2513
 21
-34.1001
 40
3.7519
 41
0.5
  1
トラップ
  0
TEXT
  8
LAYER_23
 10
147.2513
 20
-40.1001
 11
147.2513
 21
-40.1001
 40
4.5023
 41
0.5
  1
止水栓1/2
  0
TEXT
  8
LAYER_23
 10
147.2513
 20
-46.1002
 11
147.2513
 21
-46.1002
 40
3.7519
 41
0.5
  1
バスケット
  0
TEXT
  8
LAYER_23
 10
147.2513
 20
-52.1002
 11
147.2513
 21
-52.1002
 40
3.7519
 41
0.5
  1
タオルレール
  0
TEXT
  8
LAYER_23
 10
191.9101
 20
-16.2402
 11
191.9101
 21
-16.2402
 40
4.5023
 41
0.5
  1
CIE-ERLA60SX/
  0
TEXT
  8
LAYER_23
 10
191.9101
 20
-22.2402
 11
191.9101
 21
-22.2402
 40
4.5023
 41
0.5
  1
PIL01N/色
  0
TEXT
  8
LAYER_23
 10
191.9101
 20
-28.2401
 11
191.9101
 21
-28.2401
 40
4.5023
 41
0.5
  1
JP303801/23590AL1/23590DL1
  0
TEXT
  8
LAYER_23
 10
191.9101
 20
-34.2401
 11
191.9101
 21
-34.2401
 40
4.5023
 41
0.5
  1
AQ-BTN 
  0
TEXT
  8
LAYER_23
 10
191.9101
 20
-40.2401
 11
191.9101
 21
-40.2401
 40
4.5023
 41
0.5
  1
AQ-2261F×2
  0
TEXT
  8
LAYER_23
 10
191.9101
 20
-46.2402
 11
191.9101
 21
-46.2402
 40
4.5023
 41
0.5
  1
CIE-ERST60/
  0
TEXT
  8
LAYER_23
 10
191.9101
 20
-52.2402
 11
191.9101
 21
-52.2402
 40
4.5023
 41
0.5
  1
CIE-ERPLST/
  0
INSERT
  8
LAYER_23
  2
AIGNBL17010002
 10
0
 20
0
 30
0
  0
INSERT
  8
LAYER_23
  2
AIGNBL17010003
 10
0
 20
0
 30
0
  0
INSERT
  8
LAYER_33
  2
AIGNBL21010002
 10
0
 20
0
 30
0
  0
INSERT
  8
LAYER_33
  2
AIGNBL2101003C
 10
0
 20
0
 30
0
  0
INSERT
  8
LAYER_33
  2
AIGNBL21010076
 10
0
 20
0
 30
0
  0
POLYLINE
  8
LAYER_35
 40
0.3528
 41
0.3528
 66
1
 10
0
 20
0
 30
0
  0
VERTEX
  8
LAYER_35
 10
79.1724
 20
-254.9198
  0
VERTEX
  8
LAYER_35
 10
233.3894
 20
-254.9198
  0
SEQEND
  0
POLYLINE
  8
LAYER_35
 40
0.3528
 41
0.3528
 66
1
 10
0
 20
0
 30
0
  0
VERTEX
  8
LAYER_35
 10
233.3894
 20
-130.8763
  0
VERTEX
  8
LAYER_35
 10
233.3894
 20
-254.9198
  0
SEQEND
  0
POLYLINE
  8
LAYER_36
 40
0.0882
 41
0.0882
 66
1
 10
0
 20
0
 30
0
  0
VERTEX
  8
LAYER_36
 10
135.3953
 20
-221.0835
  0
VERTEX
  8
LAYER_36
 10
145.3954
 20
-221.0835
  0
SEQEND
  0
POLYLINE
  8
LAYER_36
 40
0.0882
 41
0.0882
 66
1
 10
0
 20
0
 30
0
  0
VERTEX
  8
LAYER_36
 10
145.4812
 20
-215.0404
  0
VERTEX
  8
LAYER_36
 10
145.4812
 20
-221.5431
  0
SEQEND
  0
POLYLINE
  8
LAYER_36
 40
0.0882
 41
0.0882
 66
1
 10
0
 20
0
 30
0
  0
VERTEX
  8
LAYER_36
 10
135.4812
 20
-215.0404
  0
VERTEX
  8
LAYER_36
 10
135.4812
 20
-221.5431
  0
SEQEND
  0
TEXT
  8
LAYER_36
 10
138.5917
 20
-225.1738
 11
138.5917
 21
-225.1738
 40
3.258
 41
0.5
  1
100
  0
POLYLINE
  8
LAYER_36
 40
0.0882
 41
0.0882
 66
1
 10
0
 20
0
 30
0
  0
VERTEX
  8
LAYER_36
 10
125.3953
 20
-221.0835
  0
VERTEX
  8
LAYER_36
 10
135.3953
 20
-221.0835
  0
SEQEND
  0
POLYLINE
  8
LAYER_36
 40
0.0882
 41
0.0882
 66
1
 10
0
 20
0
 30
0
  0
VERTEX
  8
LAYER_36
 10
135.4811
 20
-206.7644
  0
VERTEX
  8
LAYER_36
 10
135.4811
 20
-208.9561
  0
SEQEND
  0
POLYLINE
  8
LAYER_36
 40
0.0882
 41
0.0882
 66
1
 10
0
 20
0
 30
0
  0
VERTEX
  8
LAYER_36
 10
125.4811
 20
-215.0404
  0
VERTEX
  8
LAYER_36
 10
125.4811
 20
-221.5431
  0
SEQEND
  0
POLYLINE
  8
LAYER_36
  6
AIGENLINE007
 40
0.1058
 41
0.1058
 66
1
 10
0
 20
0
 30
0
 70
128
  0
VERTEX
  8
LAYER_36
 10
145.4812
 20
-207.8085
  0
VERTEX
  8
LAYER_36
 10
145.4812
 20
-214.3111
  0
SEQEND
  0
POLYLINE
  8
LAYER_36
  6
AIGENLINE007
 40
0.1058
 41
0.1058
 66
1
 10
0
 20
0
 30
0
 70
128
  0
VERTEX
  8
LAYER_36
 10
125.4811
 20
-207.8085
  0
VERTEX
  8
LAYER_36
 10
125.4811
 20
-214.3111
  0
SEQEND
  0
TEXT
  8
LAYER_36
 10
124.5399
 20
-225.1739
 11
124.5399
 21
-225.1739
 40
3.258
 41
0.5
  1
100
  0
POLYLINE
  8
LAYER_36
 40
0.0882
 41
0.0882
 66
1
 10
0
 20
0
 30
0
  0
VERTEX
  8
LAYER_36
 10
151.6943
 20
-254.9198
  0
VERTEX
  8
LAYER_36
 10
151.6943
 20
-204.9688
  0
SEQEND
  0
POLYLINE
  8
LAYER_36
 40
0.0882
 41
0.0882
 66
1
 10
0
 20
0
 30
0
  0
VERTEX
  8
LAYER_36
 10
149.5755
 20
-204.9198
  0
VERTEX
  8
LAYER_36
 10
153.8134
 20
-204.9198
  0
SEQEND
  0
TEXT
  8
LAYER_36
 10
161.6081
 20
-206.0382
 11
161.6081
 21
-206.0382
 40
2.5981
 41
0.5
 72
1
  1
給水・給湯
  0
TEXT
  8
LAYER_36
 10
162.8084
 20
-209.3634
 11
162.8084
 21
-209.3634
 40
2.9618
 41
0.5
 72
1
  1
500
  0
POLYLINE
  8
LAYER_36
 40
0.0882
 41
0.0882
 66
1
 10
0
 20
0
 30
0
  0
VERTEX
  8
LAYER_36
 10
105.8332
 20
-254.9198
  0
VERTEX
  8
LAYER_36
 10
105.8332
 20
-203.973
  0
SEQEND
  0
POLYLINE
  8
LAYER_36
 40
0.0882
 41
0.0882
 66
1
 10
0
 20
0
 30
0
  0
VERTEX
  8
LAYER_36
 10
103.7144
 20
-203.9198
  0
VERTEX
  8
LAYER_36
 10
107.9522
 20
-203.9198
  0
SEQEND
  0
POLYLINE
  8
LAYER_36
 40
0.0882
 41
0.0882
 66
1
 10
0
 20
0
 30
0
  0
VERTEX
  8
LAYER_36
 10
105.8332
 20
-203.973
  0
VERTEX
  8
LAYER_36
 10
105.8332
 20
-175.0032
  0
SEQEND
  0
POLYLINE
  8
LAYER_36
  6
AIGENLINE007
 40
0.1058
 41
0.1058
 66
1
 10
0
 20
0
 30
0
 70
128
  0
VERTEX
  8
LAYER_36
 10
108.6575
 20
-203.9198
  0
VERTEX
  8
LAYER_36
 10
132.6357
 20
-203.9198
  0
SEQEND
  0
TEXT
  8
LAYER_36
 10
103.4467
 20
-208.0188
 11
103.4467
 21
-208.0188
 40
2.5981
 41
0.5
 72
1
  1
排水
  0
TEXT
  8
LAYER_36
 10
105.2719
 20
-211.344
 11
105.2719
 21
-211.344
 40
2.9618
 41
0.5
 72
1
  1
510
  0
TEXT
  8
LAYER_36
 10
105.2719
 20
-188.2721
 11
105.2719
 21
-188.2721
 40
2.9618
 41
0.5
 72
1
  1
290
  0
POLYLINE
  8
LAYER_36
 40
0.0882
 41
0.0882
 66
1
 10
0
 20
0
 30
0
  0
VERTEX
  8
LAYER_36
 10
239.1832
 20
-254.9198
  0
VERTEX
  8
LAYER_36
 10
239.1832
 20
-203.973
  0
SEQEND
  0
POLYLINE
  8
LAYER_36
 40
0.0882
 41
0.0882
 66
1
 10
0
 20
0
 30
0
  0
VERTEX
  8
LAYER_36
 10
237.0644
 20
-203.9198
  0
VERTEX
  8
LAYER_36
 10
241.3022
 20
-203.9198
  0
SEQEND
  0
TEXT
  8
LAYER_36
 10
240.5159
 20
-199.4113
 11
240.5159
 21
-199.4113
 40
2.5981
 41
0.5
 72
1
  1
排水
  0
TEXT
  8
LAYER_36
 10
242.3412
 20
-202.7365
 11
242.3412
 21
-202.7365
 40
2.9618
 41
0.5
 72
1
  1
510
  0
POLYLINE
  8
LAYER_36
 40
0.0882
 41
0.0882
 66
1
 10
0
 20
0
 30
0
  0
VERTEX
  8
LAYER_36
 10
244.7451
 20
-254.9198
  0
VERTEX
  8
LAYER_36
 10
244.7451
 20
-204.9688
  0
SEQEND
  0
POLYLINE
  8
LAYER_36
 40
0.0882
 41
0.0882
 66
1
 10
0
 20
0
 30
0
  0
VERTEX
  8
LAYER_36
 10
242.6263
 20
-204.9198
  0
VERTEX
  8
LAYER_36
 10
246.8642
 20
-204.9198
  0
SEQEND
  0
POLYLINE
  8
LAYER_36
  6
AIGENLINE007
 40
0.1058
 41
0.1058
 66
1
 10
0
 20
0
 30
0
 70
128
  0
VERTEX
  8
LAYER_36
 10
236.101
 20
-204.9198
  0
VERTEX
  8
LAYER_36
 10
242.401
 20
-204.9198
  0
SEQEND
  0
TEXT
  8
LAYER_36
 10
253.7433
 20
-222.4826
 11
253.7433
 21
-222.4826
 40
2.5981
 41
0.5
 72
1
  1
給水・給湯
  0
TEXT
  8
LAYER_36
 10
254.9436
 20
-225.8078
 11
254.9436
 21
-225.8078
 40
2.9618
 41
0.5
 72
1
  1
500
  0
INSERT
  8
LAYER_36
  2
AIGNBL24010002
 10
0
 20
0
 30
0
  0
INSERT
  8
LAYER_36
  2
AIGNBL24010003
 10
0
 20
0
 30
0
  0
INSERT
  8
LAYER_36
  2
AIGNBL24010004
 10
0
 20
0
 30
0
  0
INSERT
  8
LAYER_36
  2
AIGNBL24010005
 10
0
 20
0
 30
0
  0
POLYLINE
  8
LAYER_36
 40
0.0882
 41
0.0882
 66
1
 10
0
 20
0
 30
0
  0
VERTEX
  8
LAYER_36
 10
90.5385
 20
-254.9198
  0
VERTEX
  8
LAYER_36
 10
90.5385
 20
-175.0198
  0
SEQEND
  0
POLYLINE
  8
LAYER_36
 40
0.0882
 41
0.0882
 66
1
 10
0
 20
0
 30
0
  0
VERTEX
  8
LAYER_36
 10
87.9361
 20
-174.9199
  0
VERTEX
  8
LAYER_36
 10
109.2435
 20
-174.9199
  0
SEQEND
  0
TEXT
  8
LAYER_36
 10
85.0701
 20
-178.9048
 11
85.0701
 21
-178.9048
 40
2.9618
 41
0.5
  1
800
  0
TEXT
  8
LAYER_36
 10
73.4882
 20
-256.1437
 11
73.4882
 21
-256.1437
 40
3.258
 41
0.5
  1
F.L
  0
ENDSEC
  0
EOF
