  0
SECTION
  2
HEADER
  9
$ACADVER
  1
AC1009
  9
$LUNITS
 70
2
  9
$LUPREC
 70
4
  9
$LTSCALE
 40
1.0
  9
$EXTMIN
 10
-30.3177
 20
-7.5889
 30
0
  9
$EXTMAX
 10
482.7798
 20
230.337
 30
0
  0
ENDSEC
  0
SECTION
  2
TABLES
  0
TABLE
  2
LTYPE
 70
256
  0
LTYPE
  2
AIGENLINE001
 70
64
  3
generate AI->DXF Converter
 72
65
 73
6
 40
1.4111
 49
0.7056
 49
-0.7056
 49
0
 49
0
 49
0
 49
0
  0
ENDTAB
  0
TABLE
  2
LAYER
 70
2
  0
LAYER
  2
LAYER_1
 70
64
 62
7
  6
CONTINUOUS
  0
LAYER
  2
LAYER_2
 70
64
 62
7
  6
CONTINUOUS
  0
ENDTAB
  0
TABLE
  2
STYLE
 70
6
  0
STYLE
  2
STANDARD
 70
0
 40
0
 50
0
 71
0
 41
0
 42
0
  3
TXT
  4
BIGFONT
  0
ENDTAB
  0
ENDSEC
  0
SECTION
  2
BLOCKS
  0
BLOCK
  8
LAYER_2
  2
AIGNBL02040009
 70
64
 10
0
 20
0
 30
0
  3
AIGNBL02040009
  0
POLYLINE
  8
LAYER_2
 40
0.05
 41
0.05
 66
1
 10
0
 20
0
 30
0
 70
1
  0
VERTEX
  8
LAYER_2
 10
146.7545
 20
39.1418
  0
VERTEX
  8
LAYER_2
 10
146.2656
 20
37.9567
  0
VERTEX
  8
LAYER_2
 10
145.6376
 20
37.9567
  0
VERTEX
  8
LAYER_2
 10
147.2372
 20
41.7225
  0
VERTEX
  8
LAYER_2
 10
147.9703
 20
41.7225
  0
VERTEX
  8
LAYER_2
 10
149.5768
 20
37.9567
  0
VERTEX
  8
LAYER_2
 10
148.9267
 20
37.9567
  0
VERTEX
  8
LAYER_2
 10
148.424
 20
39.1418
  0
SEQEND
  0
POLYLINE
  8
LAYER_2
 40
0.05
 41
0.05
 66
1
 10
0
 20
0
 30
0
 70
1
  0
VERTEX
  8
LAYER_2
 10
148.2983
 20
39.5207
  0
VERTEX
  8
LAYER_2
 10
147.8373
 20
40.6056
  0
VERTEX
  8
LAYER_2
 10
147.5927
 20
41.2926
  0
VERTEX
  8
LAYER_2
 10
147.5789
 20
41.2926
  0
VERTEX
  8
LAYER_2
 10
147.3412
 20
40.6101
  0
VERTEX
  8
LAYER_2
 10
146.8806
 20
39.5207
  0
SEQEND
  0
ENDBLK
  0
BLOCK
  8
LAYER_2
  2
AIGNBL0204000A
 70
64
 10
0
 20
0
 30
0
  3
AIGNBL0204000A
  0
POLYLINE
  8
LAYER_2
 40
0.05
 41
0.05
 66
1
 10
0
 20
0
 30
0
 70
1
  0
VERTEX
  8
LAYER_2
 10
153.942
 20
37.4034
 42
-0.01557776889
  0
VERTEX
  8
LAYER_2
 10
152.1399
 20
37.8395
  0
VERTEX
  8
LAYER_2
 10
151.8533
 20
37.895
 42
-0.08356586593
  0
VERTEX
  8
LAYER_2
 10
150.9892
 20
38.0612
 42
-0.09749891868
  0
VERTEX
  8
LAYER_2
 10
150.3281
 20
38.4671
 42
-0.2129139625
  0
VERTEX
  8
LAYER_2
 10
149.7793
 20
39.7998
 42
-0.09685063121
  0
VERTEX
  8
LAYER_2
 10
149.9239
 20
40.5732
 42
-0.2046489378
  0
VERTEX
  8
LAYER_2
 10
150.9715
 20
41.5974
 42
-0.09824326873
  0
VERTEX
  8
LAYER_2
 10
151.9725
 20
41.7838
 42
-0.08554303155
  0
VERTEX
  8
LAYER_2
 10
152.8411
 20
41.6425
 42
-0.100439485
  0
VERTEX
  8
LAYER_2
 10
153.5062
 20
41.2483
 42
-0.2140965971
  0
VERTEX
  8
LAYER_2
 10
154.0815
 20
39.8784
 42
-0.09539620281
  0
VERTEX
  8
LAYER_2
 10
153.9426
 20
39.1106
 42
-0.2143310008
  0
VERTEX
  8
LAYER_2
 10
152.9198
 20
38.1321
 42
-0.02339132607
  0
VERTEX
  8
LAYER_2
 10
152.7407
 20
38.0738
  0
VERTEX
  8
LAYER_2
 10
152.7407
 20
38.0514
 42
0.01711818545
  0
VERTEX
  8
LAYER_2
 10
154.117
 20
37.8113
  0
SEQEND
  0
POLYLINE
  8
LAYER_2
 40
0.05
 41
0.05
 66
1
 10
0
 20
0
 30
0
 70
1
  0
VERTEX
  8
LAYER_2
 10
153.4394
 20
39.857
 42
0.1071643265
  0
VERTEX
  8
LAYER_2
 10
153.2881
 20
40.5618
 42
0.2976270581
  0
VERTEX
  8
LAYER_2
 10
151.9511
 20
41.3873
 42
0.1072356843
  0
VERTEX
  8
LAYER_2
 10
151.2613
 20
41.2478
 42
0.2385874916
  0
VERTEX
  8
LAYER_2
 10
150.4743
 20
40.2422
 42
0.05751786987
  0
VERTEX
  8
LAYER_2
 10
150.4287
 20
39.8122
 42
0.218058121
  0
VERTEX
  8
LAYER_2
 10
150.9593
 20
38.6168
 42
0.1772828752
  0
VERTEX
  8
LAYER_2
 10
151.9232
 20
38.2912
 42
0.1075205619
  0
VERTEX
  8
LAYER_2
 10
152.6045
 20
38.4302
 42
0.2370768657
  0
VERTEX
  8
LAYER_2
 10
153.3917
 20
39.4298
 42
0.05602139055
  0
SEQEND
  0
ENDBLK
  0
BLOCK
  8
LAYER_2
  2
AIGNBL0204000B
 70
64
 10
0
 20
0
 30
0
  3
AIGNBL0204000B
  0
POLYLINE
  8
LAYER_2
 40
0.05
 41
0.05
 66
1
 10
0
 20
0
 30
0
 70
1
  0
VERTEX
  8
LAYER_2
 10
155.4089
 20
41.7225
  0
VERTEX
  8
LAYER_2
 10
155.4089
 20
39.4932
 42
0.114533087
  0
VERTEX
  8
LAYER_2
 10
155.5428
 20
38.8274
 42
0.1464774934
  0
VERTEX
  8
LAYER_2
 10
155.8932
 20
38.4422
 42
0.1362552487
  0
VERTEX
  8
LAYER_2
 10
156.5055
 20
38.2912
 42
0.1219300979
  0
VERTEX
  8
LAYER_2
 10
157.1286
 20
38.4259
 42
0.1503016186
  0
VERTEX
  8
LAYER_2
 10
157.5004
 20
38.7949
 42
0.1256239276
  0
VERTEX
  8
LAYER_2
 10
157.651
 20
39.4932
  0
VERTEX
  8
LAYER_2
 10
157.651
 20
41.7225
  0
VERTEX
  8
LAYER_2
 10
158.2656
 20
41.7225
  0
VERTEX
  8
LAYER_2
 10
158.2656
 20
39.5266
 42
-0.09996665729
  0
VERTEX
  8
LAYER_2
 10
158.1307
 20
38.7839
 42
-0.1215019567
  0
VERTEX
  8
LAYER_2
 10
157.7575
 20
38.2772
 42
-0.1106305922
  0
VERTEX
  8
LAYER_2
 10
157.132
 20
37.9706
 42
-0.06128719854
  0
VERTEX
  8
LAYER_2
 10
156.4845
 20
37.895
 42
-0.0941826643
  0
VERTEX
  8
LAYER_2
 10
155.6654
 20
38.0331
 42
-0.2431541134
  0
VERTEX
  8
LAYER_2
 10
154.8618
 20
38.9438
 42
-0.06321248355
  0
VERTEX
  8
LAYER_2
 10
154.7943
 20
39.5045
  0
VERTEX
  8
LAYER_2
 10
154.7943
 20
41.7225
  0
SEQEND
  0
ENDBLK
  0
BLOCK
  8
LAYER_2
  2
AIGNBL0204000C
 70
64
 10
0
 20
0
 30
0
  3
AIGNBL0204000C
  0
POLYLINE
  8
LAYER_2
 40
0.05
 41
0.05
 66
1
 10
0
 20
0
 30
0
 70
1
  0
VERTEX
  8
LAYER_2
 10
160.0119
 20
39.1418
  0
VERTEX
  8
LAYER_2
 10
159.5227
 20
37.9567
  0
VERTEX
  8
LAYER_2
 10
158.8947
 20
37.9567
  0
VERTEX
  8
LAYER_2
 10
160.4939
 20
41.7225
  0
VERTEX
  8
LAYER_2
 10
161.227
 20
41.7225
  0
VERTEX
  8
LAYER_2
 10
162.8335
 20
37.9567
  0
VERTEX
  8
LAYER_2
 10
162.1841
 20
37.9567
  0
VERTEX
  8
LAYER_2
 10
161.6814
 20
39.1418
  0
SEQEND
  0
POLYLINE
  8
LAYER_2
 40
0.05
 41
0.05
 66
1
 10
0
 20
0
 30
0
 70
1
  0
VERTEX
  8
LAYER_2
 10
161.5553
 20
39.5207
  0
VERTEX
  8
LAYER_2
 10
161.094
 20
40.6056
  0
VERTEX
  8
LAYER_2
 10
160.8494
 20
41.2926
  0
VERTEX
  8
LAYER_2
 10
160.8357
 20
41.2926
  0
VERTEX
  8
LAYER_2
 10
160.5983
 20
40.6101
  0
VERTEX
  8
LAYER_2
 10
160.1373
 20
39.5207
  0
SEQEND
  0
ENDBLK
  0
BLOCK
  8
LAYER_2
  2
AIGNBL0204000D
 70
64
 10
0
 20
0
 30
0
  3
AIGNBL0204000D
  0
POLYLINE
  8
LAYER_2
 40
0.05
 41
0.05
 66
1
 10
0
 20
0
 30
0
 70
1
  0
VERTEX
  8
LAYER_2
 10
163.8742
 20
41.6777
 42
-0.03245918394
  0
VERTEX
  8
LAYER_2
 10
165.0411
 20
41.7508
 42
-0.08084226265
  0
VERTEX
  8
LAYER_2
 10
165.9975
 20
41.619
 42
-0.07815635113
  0
VERTEX
  8
LAYER_2
 10
166.3609
 20
41.4379
 42
-0.2484709269
  0
VERTEX
  8
LAYER_2
 10
166.7726
 20
40.6497
 42
-0.226147
  0
VERTEX
  8
LAYER_2
 10
166.4095
 20
39.8456
 42
-0.1096895144
  0
VERTEX
  8
LAYER_2
 10
165.7812
 20
39.5323
 42
-0.06565832551
  0
VERTEX
  8
LAYER_2
 10
164.9708
 20
39.4319
 42
-0.06238309955
  0
VERTEX
  8
LAYER_2
 10
164.4823
 20
39.4653
  0
VERTEX
  8
LAYER_2
 10
164.4823
 20
37.9567
  0
VERTEX
  8
LAYER_2
 10
163.8742
 20
37.9567
  0
SEQEND
  0
POLYLINE
  8
LAYER_2
 40
0.05
 41
0.05
 66
1
 10
0
 20
0
 30
0
 70
1
  0
VERTEX
  8
LAYER_2
 10
164.4823
 20
39.8622
 42
0.04203451964
  0
VERTEX
  8
LAYER_2
 10
164.9846
 20
39.8229
 42
0.1032111168
  0
VERTEX
  8
LAYER_2
 10
165.7038
 20
39.9502
 42
0.1555938032
  0
VERTEX
  8
LAYER_2
 10
166.0686
 20
40.2546
 42
0.1352673748
  0
VERTEX
  8
LAYER_2
 10
166.1656
 20
40.6273
 42
0.1737047371
  0
VERTEX
  8
LAYER_2
 10
166.0308
 20
41.0346
 42
0.1517050813
  0
VERTEX
  8
LAYER_2
 10
165.6097
 20
41.2941
 42
0.06879756253
  0
VERTEX
  8
LAYER_2
 10
165.0552
 20
41.3649
 42
0.0634356619
  0
VERTEX
  8
LAYER_2
 10
164.4823
 20
41.3257
  0
SEQEND
  0
ENDBLK
  0
BLOCK
  8
LAYER_2
  2
AIGNBL0204000E
 70
64
 10
0
 20
0
 30
0
  3
AIGNBL0204000E
  0
POLYLINE
  8
LAYER_2
 40
0.05
 41
0.05
 66
1
 10
0
 20
0
 30
0
 70
1
  0
VERTEX
  8
LAYER_2
 10
168.3246
 20
41.4207
 42
-0.2767461975
  0
VERTEX
  8
LAYER_2
 10
168.1851
 20
41.1806
 42
-0.1265294091
  0
VERTEX
  8
LAYER_2
 10
167.9329
 20
41.1189
 42
-0.2237518698
  0
VERTEX
  8
LAYER_2
 10
167.6226
 20
41.2513
 42
-0.1708341408
  0
VERTEX
  8
LAYER_2
 10
167.5626
 20
41.4207
 42
-0.2643879937
  0
VERTEX
  8
LAYER_2
 10
167.712
 20
41.6678
 42
-0.1290073663
  0
VERTEX
  8
LAYER_2
 10
167.9467
 20
41.7277
 42
-0.225342086
  0
VERTEX
  8
LAYER_2
 10
168.2635
 20
41.597
 42
-0.1691136206
  0
SEQEND
  0
POLYLINE
  8
LAYER_2
 40
0.05
 41
0.05
 66
1
 10
0
 20
0
 30
0
 70
1
  0
VERTEX
  8
LAYER_2
 10
167.639
 20
37.9567
  0
VERTEX
  8
LAYER_2
 10
167.639
 20
40.6607
  0
VERTEX
  8
LAYER_2
 10
168.2537
 20
40.6607
  0
VERTEX
  8
LAYER_2
 10
168.2537
 20
37.9567
  0
SEQEND
  0
ENDBLK
  0
BLOCK
  8
LAYER_2
  2
AIGNBL0204000F
 70
64
 10
0
 20
0
 30
0
  3
AIGNBL0204000F
  0
POLYLINE
  8
LAYER_2
 40
0.05
 41
0.05
 66
1
 10
0
 20
0
 30
0
 70
1
  0
VERTEX
  8
LAYER_2
 10
170.1254
 20
39.1418
  0
VERTEX
  8
LAYER_2
 10
169.6372
 20
37.9567
  0
VERTEX
  8
LAYER_2
 10
169.0081
 20
37.9567
  0
VERTEX
  8
LAYER_2
 10
170.6077
 20
41.7225
  0
VERTEX
  8
LAYER_2
 10
171.3415
 20
41.7225
  0
VERTEX
  8
LAYER_2
 10
172.9479
 20
37.9567
  0
VERTEX
  8
LAYER_2
 10
172.2982
 20
37.9567
  0
VERTEX
  8
LAYER_2
 10
171.7955
 20
39.1418
  0
SEQEND
  0
POLYLINE
  8
LAYER_2
 40
0.05
 41
0.05
 66
1
 10
0
 20
0
 30
0
 70
1
  0
VERTEX
  8
LAYER_2
 10
171.6695
 20
39.5207
  0
VERTEX
  8
LAYER_2
 10
171.2085
 20
40.6056
  0
VERTEX
  8
LAYER_2
 10
170.9646
 20
41.2926
  0
VERTEX
  8
LAYER_2
 10
170.9498
 20
41.2926
  0
VERTEX
  8
LAYER_2
 10
170.7128
 20
40.6101
  0
VERTEX
  8
LAYER_2
 10
170.2518
 20
39.5207
  0
SEQEND
  0
ENDBLK
  0
BLOCK
  8
LAYER_2
  2
AIGNBL02030008
 70
64
 10
0
 20
0
 30
0
  3
AIGNBL02030008
  0
INSERT
  8
LAYER_2
  2
AIGNBL02040009
 10
0
 20
0
 30
0
  0
INSERT
  8
LAYER_2
  2
AIGNBL0204000A
 10
0
 20
0
 30
0
  0
INSERT
  8
LAYER_2
  2
AIGNBL0204000B
 10
0
 20
0
 30
0
  0
INSERT
  8
LAYER_2
  2
AIGNBL0204000C
 10
0
 20
0
 30
0
  0
INSERT
  8
LAYER_2
  2
AIGNBL0204000D
 10
0
 20
0
 30
0
  0
INSERT
  8
LAYER_2
  2
AIGNBL0204000E
 10
0
 20
0
 30
0
  0
INSERT
  8
LAYER_2
  2
AIGNBL0204000F
 10
0
 20
0
 30
0
  0
ENDBLK
  0
BLOCK
  8
LAYER_2
  2
AIGNBL02030011
 70
64
 10
0
 20
0
 30
0
  3
AIGNBL02030011
  0
POLYLINE
  8
LAYER_2
 40
0.05
 41
0.05
 66
1
 10
0
 20
0
 30
0
 70
1
  0
VERTEX
  8
LAYER_2
 10
145.7475
 20
36.0574
  0
VERTEX
  8
LAYER_2
 10
146.3008
 20
36.0574
  0
VERTEX
  8
LAYER_2
 10
146.3008
 20
35.9637
  0
VERTEX
  8
LAYER_2
 10
145.6424
 20
35.9637
  0
VERTEX
  8
LAYER_2
 10
145.6424
 20
36.9969
  0
VERTEX
  8
LAYER_2
 10
146.2832
 20
36.9969
  0
VERTEX
  8
LAYER_2
 10
146.2832
 20
36.9035
  0
VERTEX
  8
LAYER_2
 10
145.7475
 20
36.9035
  0
VERTEX
  8
LAYER_2
 10
145.7475
 20
36.549
  0
VERTEX
  8
LAYER_2
 10
146.2481
 20
36.549
  0
VERTEX
  8
LAYER_2
 10
146.2481
 20
36.4557
  0
VERTEX
  8
LAYER_2
 10
145.7475
 20
36.4557
  0
SEQEND
  0
ENDBLK
  0
BLOCK
  8
LAYER_2
  2
AIGNBL02030012
 70
64
 10
0
 20
0
 30
0
  3
AIGNBL02030012
  0
POLYLINE
  8
LAYER_2
 40
0.05
 41
0.05
 66
1
 10
0
 20
0
 30
0
 70
1
  0
VERTEX
  8
LAYER_2
 10
147.4404
 20
36.117
  0
VERTEX
  8
LAYER_2
 10
147.4432
 20
36.117
  0
VERTEX
  8
LAYER_2
 10
147.4432
 20
36.9969
  0
VERTEX
  8
LAYER_2
 10
147.5483
 20
36.9969
  0
VERTEX
  8
LAYER_2
 10
147.5483
 20
35.9637
  0
VERTEX
  8
LAYER_2
 10
147.4174
 20
35.9637
  0
VERTEX
  8
LAYER_2
 10
146.8162
 20
36.8525
  0
VERTEX
  8
LAYER_2
 10
146.8127
 20
36.8525
  0
VERTEX
  8
LAYER_2
 10
146.8127
 20
35.9637
  0
VERTEX
  8
LAYER_2
 10
146.708
 20
35.9637
  0
VERTEX
  8
LAYER_2
 10
146.708
 20
36.9969
  0
VERTEX
  8
LAYER_2
 10
146.8393
 20
36.9969
  0
SEQEND
  0
ENDBLK
  0
BLOCK
  8
LAYER_2
  2
AIGNBL02030013
 70
64
 10
0
 20
0
 30
0
  3
AIGNBL02030013
  0
POLYLINE
  8
LAYER_2
 40
0.05
 41
0.05
 66
1
 10
0
 20
0
 30
0
 70
1
  0
VERTEX
  8
LAYER_2
 10
148.0213
 20
36.1756
  0
VERTEX
  8
LAYER_2
 10
148.0757
 20
36.0725
 42
0.1803975231
  0
VERTEX
  8
LAYER_2
 10
148.1891
 20
36.0309
  0
VERTEX
  8
LAYER_2
 10
148.2783
 20
36.0505
  0
VERTEX
  8
LAYER_2
 10
148.3344
 20
36.1039
  0
VERTEX
  8
LAYER_2
 10
148.3634
 20
36.1804
  0
VERTEX
  8
LAYER_2
 10
148.3717
 20
36.27
  0
VERTEX
  8
LAYER_2
 10
148.3717
 20
36.9969
  0
VERTEX
  8
LAYER_2
 10
148.4767
 20
36.9969
  0
VERTEX
  8
LAYER_2
 10
148.4767
 20
36.2614
  0
VERTEX
  8
LAYER_2
 10
148.4654
 20
36.1535
  0
VERTEX
  8
LAYER_2
 10
148.424
 20
36.0485
  0
VERTEX
  8
LAYER_2
 10
148.3393
 20
35.9689
  0
VERTEX
  8
LAYER_2
 10
148.2004
 20
35.9375
 42
-0.1845231376
  0
VERTEX
  8
LAYER_2
 10
148.0158
 20
35.9974
 42
-0.1765285731
  0
VERTEX
  8
LAYER_2
 10
147.9234
 20
36.149
  0
SEQEND
  0
ENDBLK
  0
BLOCK
  8
LAYER_2
  2
AIGNBL02030014
 70
64
 10
0
 20
0
 30
0
  3
AIGNBL02030014
  0
POLYLINE
  8
LAYER_2
 40
0.05
 41
0.05
 66
1
 10
0
 20
0
 30
0
 70
1
  0
VERTEX
  8
LAYER_2
 10
149.965
 20
36.4805
 42
-0.1041417444
  0
VERTEX
  8
LAYER_2
 10
149.924
 20
36.2631
 42
-0.10057123
  0
VERTEX
  8
LAYER_2
 10
149.8113
 20
36.0915
  0
VERTEX
  8
LAYER_2
 10
149.6405
 20
35.9785
 42
-0.0950295922
  0
VERTEX
  8
LAYER_2
 10
149.4265
 20
35.9375
 42
-0.1010765979
  0
VERTEX
  8
LAYER_2
 10
149.2129
 20
35.9785
 42
-0.1000570207
  0
VERTEX
  8
LAYER_2
 10
149.042
 20
36.0915
 42
-0.09442769366
  0
VERTEX
  8
LAYER_2
 10
148.9287
 20
36.2631
 42
-0.09293305267
  0
VERTEX
  8
LAYER_2
 10
148.8881
 20
36.4805
 42
-0.1024980643
  0
VERTEX
  8
LAYER_2
 10
148.9287
 20
36.6978
 42
-0.1008832254
  0
VERTEX
  8
LAYER_2
 10
149.042
 20
36.8694
 42
-0.09625117665
  0
VERTEX
  8
LAYER_2
 10
149.2129
 20
36.9824
 42
-0.0952064105
  0
VERTEX
  8
LAYER_2
 10
149.4265
 20
37.0234
 42
-0.1012184087
  0
VERTEX
  8
LAYER_2
 10
149.6405
 20
36.9824
 42
-0.09890806396
  0
VERTEX
  8
LAYER_2
 10
149.8113
 20
36.8694
 42
-0.09577200427
  0
VERTEX
  8
LAYER_2
 10
149.924
 20
36.6978
 42
-0.09400765476
  0
SEQEND
  0
POLYLINE
  8
LAYER_2
 40
0.05
 41
0.05
 66
1
 10
0
 20
0
 30
0
 70
1
  0
VERTEX
  8
LAYER_2
 10
149.8541
 20
36.4798
  0
VERTEX
  8
LAYER_2
 10
149.8251
 20
36.6517
  0
VERTEX
  8
LAYER_2
 10
149.7404
 20
36.795
  0
VERTEX
  8
LAYER_2
 10
149.6053
 20
36.8932
  0
VERTEX
  8
LAYER_2
 10
149.4265
 20
36.93
  0
VERTEX
  8
LAYER_2
 10
149.2478
 20
36.8932
  0
VERTEX
  8
LAYER_2
 10
149.113
 20
36.795
  0
VERTEX
  8
LAYER_2
 10
149.0283
 20
36.6517
  0
VERTEX
  8
LAYER_2
 10
148.999
 20
36.4798
  0
VERTEX
  8
LAYER_2
 10
149.0283
 20
36.3079
  0
VERTEX
  8
LAYER_2
 10
149.113
 20
36.1649
  0
VERTEX
  8
LAYER_2
 10
149.2478
 20
36.0674
 42
0.1008814383
  0
VERTEX
  8
LAYER_2
 10
149.4265
 20
36.0309
 42
0.1157330551
  0
VERTEX
  8
LAYER_2
 10
149.6053
 20
36.0674
  0
VERTEX
  8
LAYER_2
 10
149.7404
 20
36.1649
  0
VERTEX
  8
LAYER_2
 10
149.8251
 20
36.3079
  0
SEQEND
  0
ENDBLK
  0
BLOCK
  8
LAYER_2
  2
AIGNBL02030015
 70
64
 10
0
 20
0
 30
0
  3
AIGNBL02030015
  0
POLYLINE
  8
LAYER_2
 40
0.05
 41
0.05
 66
1
 10
0
 20
0
 30
0
 70
1
  0
VERTEX
  8
LAYER_2
 10
150.7398
 20
35.9637
  0
VERTEX
  8
LAYER_2
 10
150.6351
 20
35.9637
  0
VERTEX
  8
LAYER_2
 10
150.6351
 20
36.4091
  0
VERTEX
  8
LAYER_2
 10
150.2482
 20
36.9969
  0
VERTEX
  8
LAYER_2
 10
150.3795
 20
36.9969
  0
VERTEX
  8
LAYER_2
 10
150.6905
 20
36.4967
  0
VERTEX
  8
LAYER_2
 10
151.0041
 20
36.9969
  0
VERTEX
  8
LAYER_2
 10
151.1263
 20
36.9969
  0
VERTEX
  8
LAYER_2
 10
150.7398
 20
36.4091
  0
SEQEND
  0
ENDBLK
  0
BLOCK
  8
LAYER_2
  2
AIGNBL02030016
 70
64
 10
0
 20
0
 30
0
  3
AIGNBL02030016
  0
POLYLINE
  8
LAYER_2
 40
0.05
 41
0.05
 66
1
 10
0
 20
0
 30
0
 70
1
  0
VERTEX
  8
LAYER_2
 10
152.0314
 20
36.9969
  0
VERTEX
  8
LAYER_2
 10
152.339
 20
36.9969
  0
VERTEX
  8
LAYER_2
 10
152.4575
 20
36.9845
  0
VERTEX
  8
LAYER_2
 10
152.5643
 20
36.9421
  0
VERTEX
  8
LAYER_2
 10
152.6422
 20
36.8611
  0
VERTEX
  8
LAYER_2
 10
152.6718
 20
36.733
 42
-0.1790346201
  0
VERTEX
  8
LAYER_2
 10
152.6219
 20
36.5907
 42
-0.1642933266
  0
VERTEX
  8
LAYER_2
 10
152.4885
 20
36.5111
  0
VERTEX
  8
LAYER_2
 10
152.4885
 20
36.5084
 42
-0.1735805246
  0
VERTEX
  8
LAYER_2
 10
152.6553
 20
36.4302
 42
-0.1921994171
  0
VERTEX
  8
LAYER_2
 10
152.7214
 20
36.2496
  0
VERTEX
  8
LAYER_2
 10
152.6942
 20
36.1325
  0
VERTEX
  8
LAYER_2
 10
152.6181
 20
36.0419
  0
VERTEX
  8
LAYER_2
 10
152.4972
 20
35.9844
  0
VERTEX
  8
LAYER_2
 10
152.3373
 20
35.9637
  0
VERTEX
  8
LAYER_2
 10
152.0314
 20
35.9637
  0
SEQEND
  0
POLYLINE
  8
LAYER_2
 40
0.05
 41
0.05
 66
1
 10
0
 20
0
 30
0
 70
1
  0
VERTEX
  8
LAYER_2
 10
152.1364
 20
36.5445
  0
VERTEX
  8
LAYER_2
 10
152.348
 20
36.5445
  0
VERTEX
  8
LAYER_2
 10
152.4248
 20
36.5535
  0
VERTEX
  8
LAYER_2
 10
152.4951
 20
36.5831
  0
VERTEX
  8
LAYER_2
 10
152.5471
 20
36.6396
  0
VERTEX
  8
LAYER_2
 10
152.5668
 20
36.7258
  0
VERTEX
  8
LAYER_2
 10
152.5471
 20
36.8095
  0
VERTEX
  8
LAYER_2
 10
152.494
 20
36.8656
  0
VERTEX
  8
LAYER_2
 10
152.4152
 20
36.897
  0
VERTEX
  8
LAYER_2
 10
152.3187
 20
36.9066
  0
VERTEX
  8
LAYER_2
 10
152.1364
 20
36.9066
  0
SEQEND
  0
POLYLINE
  8
LAYER_2
 40
0.05
 41
0.05
 66
1
 10
0
 20
0
 30
0
 70
1
  0
VERTEX
  8
LAYER_2
 10
152.1364
 20
36.0543
  0
VERTEX
  8
LAYER_2
 10
152.3321
 20
36.0543
  0
VERTEX
  8
LAYER_2
 10
152.4406
 20
36.0653
  0
VERTEX
  8
LAYER_2
 10
152.5313
 20
36.1001
  0
VERTEX
  8
LAYER_2
 10
152.5929
 20
36.1632
  0
VERTEX
  8
LAYER_2
 10
152.6164
 20
36.2559
 42
0.2557371221
  0
VERTEX
  8
LAYER_2
 10
152.5471
 20
36.4081
 42
0.1381508151
  0
VERTEX
  8
LAYER_2
 10
152.3511
 20
36.4584
  0
VERTEX
  8
LAYER_2
 10
152.1364
 20
36.4584
  0
SEQEND
  0
ENDBLK
  0
BLOCK
  8
LAYER_2
  2
AIGNBL02030017
 70
64
 10
0
 20
0
 30
0
  3
AIGNBL02030017
  0
POLYLINE
  8
LAYER_2
 40
0.05
 41
0.05
 66
1
 10
0
 20
0
 30
0
 70
1
  0
VERTEX
  8
LAYER_2
 10
153.1534
 20
35.9637
  0
VERTEX
  8
LAYER_2
 10
153.038
 20
35.9637
  0
VERTEX
  8
LAYER_2
 10
153.4849
 20
36.9969
  0
VERTEX
  8
LAYER_2
 10
153.5872
 20
36.9969
  0
VERTEX
  8
LAYER_2
 10
154.0306
 20
35.9637
  0
VERTEX
  8
LAYER_2
 10
153.9138
 20
35.9637
  0
VERTEX
  8
LAYER_2
 10
153.7997
 20
36.2352
  0
VERTEX
  8
LAYER_2
 10
153.2657
 20
36.2352
  0
SEQEND
  0
POLYLINE
  8
LAYER_2
 40
0.05
 41
0.05
 66
1
 10
0
 20
0
 30
0
 70
1
  0
VERTEX
  8
LAYER_2
 10
153.305
 20
36.3316
  0
VERTEX
  8
LAYER_2
 10
153.7604
 20
36.3316
  0
VERTEX
  8
LAYER_2
 10
153.5327
 20
36.8804
  0
SEQEND
  0
ENDBLK
  0
BLOCK
  8
LAYER_2
  2
AIGNBL02030018
 70
64
 10
0
 20
0
 30
0
  3
AIGNBL02030018
  0
POLYLINE
  8
LAYER_2
 40
0.05
 41
0.05
 66
1
 10
0
 20
0
 30
0
 70
1
  0
VERTEX
  8
LAYER_2
 10
154.7151
 20
35.9637
  0
VERTEX
  8
LAYER_2
 10
154.61
 20
35.9637
  0
VERTEX
  8
LAYER_2
 10
154.61
 20
36.9035
  0
VERTEX
  8
LAYER_2
 10
154.2638
 20
36.9035
  0
VERTEX
  8
LAYER_2
 10
154.2638
 20
36.9969
  0
VERTEX
  8
LAYER_2
 10
155.0606
 20
36.9969
  0
VERTEX
  8
LAYER_2
 10
155.0606
 20
36.9035
  0
VERTEX
  8
LAYER_2
 10
154.7151
 20
36.9035
  0
SEQEND
  0
ENDBLK
  0
BLOCK
  8
LAYER_2
  2
AIGNBL02030019
 70
64
 10
0
 20
0
 30
0
  3
AIGNBL02030019
  0
POLYLINE
  8
LAYER_2
 40
0.05
 41
0.05
 66
1
 10
0
 20
0
 30
0
 70
1
  0
VERTEX
  8
LAYER_2
 10
155.4169
 20
36.9969
  0
VERTEX
  8
LAYER_2
 10
155.5216
 20
36.9969
  0
VERTEX
  8
LAYER_2
 10
155.5216
 20
36.549
  0
VERTEX
  8
LAYER_2
 10
156.0852
 20
36.549
  0
VERTEX
  8
LAYER_2
 10
156.0852
 20
36.9969
  0
VERTEX
  8
LAYER_2
 10
156.1903
 20
36.9969
  0
VERTEX
  8
LAYER_2
 10
156.1903
 20
35.9637
  0
VERTEX
  8
LAYER_2
 10
156.0852
 20
35.9637
  0
VERTEX
  8
LAYER_2
 10
156.0852
 20
36.4529
  0
VERTEX
  8
LAYER_2
 10
155.5216
 20
36.4529
  0
VERTEX
  8
LAYER_2
 10
155.5216
 20
35.9637
  0
VERTEX
  8
LAYER_2
 10
155.4169
 20
35.9637
  0
SEQEND
  0
ENDBLK
  0
BLOCK
  8
LAYER_2
  2
AIGNBL0203001A
 70
64
 10
0
 20
0
 30
0
  3
AIGNBL0203001A
  0
POLYLINE
  8
LAYER_2
 40
0.05
 41
0.05
 66
1
 10
0
 20
0
 30
0
 70
1
  0
VERTEX
  8
LAYER_2
 10
156.7708
 20
35.9637
  0
VERTEX
  8
LAYER_2
 10
156.6657
 20
35.9637
  0
VERTEX
  8
LAYER_2
 10
156.6657
 20
36.9969
  0
VERTEX
  8
LAYER_2
 10
156.9696
 20
36.9969
  0
VERTEX
  8
LAYER_2
 10
157.1101
 20
36.9824
  0
VERTEX
  8
LAYER_2
 10
157.2228
 20
36.9349
  0
VERTEX
  8
LAYER_2
 10
157.2962
 20
36.8494
  0
VERTEX
  8
LAYER_2
 10
157.3223
 20
36.7213
  0
VERTEX
  8
LAYER_2
 10
157.3024
 20
36.6176
  0
VERTEX
  8
LAYER_2
 10
157.2469
 20
36.5366
  0
VERTEX
  8
LAYER_2
 10
157.1635
 20
36.4818
  0
VERTEX
  8
LAYER_2
 10
157.0585
 20
36.4557
  0
VERTEX
  8
LAYER_2
 10
157.3606
 20
35.9637
  0
VERTEX
  8
LAYER_2
 10
157.2321
 20
35.9637
  0
VERTEX
  8
LAYER_2
 10
156.9461
 20
36.4467
  0
VERTEX
  8
LAYER_2
 10
156.7708
 20
36.4467
  0
SEQEND
  0
POLYLINE
  8
LAYER_2
 40
0.05
 41
0.05
 66
1
 10
0
 20
0
 30
0
 70
1
  0
VERTEX
  8
LAYER_2
 10
156.7708
 20
36.5373
  0
VERTEX
  8
LAYER_2
 10
156.9534
 20
36.5373
 42
0.165389034
  0
VERTEX
  8
LAYER_2
 10
157.1491
 20
36.5831
 42
0.2500512188
  0
VERTEX
  8
LAYER_2
 10
157.2176
 20
36.7213
  0
VERTEX
  8
LAYER_2
 10
157.1983
 20
36.8071
  0
VERTEX
  8
LAYER_2
 10
157.146
 20
36.8643
  0
VERTEX
  8
LAYER_2
 10
157.0643
 20
36.8963
  0
VERTEX
  8
LAYER_2
 10
156.9578
 20
36.9066
  0
VERTEX
  8
LAYER_2
 10
156.7708
 20
36.9066
  0
SEQEND
  0
ENDBLK
  0
BLOCK
  8
LAYER_2
  2
AIGNBL0203001B
 70
64
 10
0
 20
0
 30
0
  3
AIGNBL0203001B
  0
POLYLINE
  8
LAYER_2
 40
0.05
 41
0.05
 66
1
 10
0
 20
0
 30
0
 70
1
  0
VERTEX
  8
LAYER_2
 10
158.7627
 20
36.4805
 42
-0.1007216321
  0
VERTEX
  8
LAYER_2
 10
158.7221
 20
36.2631
 42
-0.1006914115
  0
VERTEX
  8
LAYER_2
 10
158.6087
 20
36.0915
 42
-0.09598545762
  0
VERTEX
  8
LAYER_2
 10
158.4382
 20
35.9785
 42
-0.09506675375
  0
VERTEX
  8
LAYER_2
 10
158.2243
 20
35.9375
 42
-0.1012083438
  0
VERTEX
  8
LAYER_2
 10
158.0103
 20
35.9785
 42
-0.1000476754
  0
VERTEX
  8
LAYER_2
 10
157.8398
 20
36.0915
 42
-0.09637642458
  0
VERTEX
  8
LAYER_2
 10
157.7268
 20
36.2631
 42
-0.09293305267
  0
VERTEX
  8
LAYER_2
 10
157.6862
 20
36.4805
 42
-0.1024980643
  0
VERTEX
  8
LAYER_2
 10
157.7268
 20
36.6978
 42
-0.101511181
  0
VERTEX
  8
LAYER_2
 10
157.8398
 20
36.8694
 42
-0.09563682649
  0
VERTEX
  8
LAYER_2
 10
158.0103
 20
36.9824
 42
-0.09502028874
  0
VERTEX
  8
LAYER_2
 10
158.2243
 20
37.0234
 42
-0.101175466
  0
VERTEX
  8
LAYER_2
 10
158.4382
 20
36.9824
 42
-0.1020868526
  0
VERTEX
  8
LAYER_2
 10
158.6087
 20
36.8694
 42
-0.09463764759
  0
VERTEX
  8
LAYER_2
 10
158.7221
 20
36.6978
 42
-0.09279149058
  0
SEQEND
  0
POLYLINE
  8
LAYER_2
 40
0.05
 41
0.05
 66
1
 10
0
 20
0
 30
0
 70
1
  0
VERTEX
  8
LAYER_2
 10
158.6518
 20
36.4798
  0
VERTEX
  8
LAYER_2
 10
158.6225
 20
36.6517
  0
VERTEX
  8
LAYER_2
 10
158.5378
 20
36.795
  0
VERTEX
  8
LAYER_2
 10
158.4031
 20
36.8932
  0
VERTEX
  8
LAYER_2
 10
158.2243
 20
36.93
  0
VERTEX
  8
LAYER_2
 10
158.0455
 20
36.8932
  0
VERTEX
  8
LAYER_2
 10
157.9104
 20
36.795
  0
VERTEX
  8
LAYER_2
 10
157.8257
 20
36.6517
  0
VERTEX
  8
LAYER_2
 10
157.7968
 20
36.4798
  0
VERTEX
  8
LAYER_2
 10
157.8257
 20
36.3079
  0
VERTEX
  8
LAYER_2
 10
157.9104
 20
36.1649
  0
VERTEX
  8
LAYER_2
 10
158.0455
 20
36.0674
 42
0.1008280473
  0
VERTEX
  8
LAYER_2
 10
158.2243
 20
36.0309
  0
VERTEX
  8
LAYER_2
 10
158.4031
 20
36.0674
  0
VERTEX
  8
LAYER_2
 10
158.5378
 20
36.1649
  0
VERTEX
  8
LAYER_2
 10
158.6225
 20
36.3079
  0
SEQEND
  0
ENDBLK
  0
BLOCK
  8
LAYER_2
  2
AIGNBL0203001C
 70
64
 10
0
 20
0
 30
0
  3
AIGNBL0203001C
  0
POLYLINE
  8
LAYER_2
 40
0.05
 41
0.05
 66
1
 10
0
 20
0
 30
0
 70
1
  0
VERTEX
  8
LAYER_2
 10
160.2045
 20
36.4805
 42
-0.1041417444
  0
VERTEX
  8
LAYER_2
 10
160.1635
 20
36.2631
 42
-0.09974098701
  0
VERTEX
  8
LAYER_2
 10
160.0509
 20
36.0915
 42
-0.09536265516
  0
VERTEX
  8
LAYER_2
 10
159.88
 20
35.9785
 42
-0.09506675375
  0
VERTEX
  8
LAYER_2
 10
159.6661
 20
35.9375
 42
-0.1018653774
  0
VERTEX
  8
LAYER_2
 10
159.4524
 20
35.9785
 42
-0.1019766254
  0
VERTEX
  8
LAYER_2
 10
159.2816
 20
36.0915
 42
-0.09463339148
  0
VERTEX
  8
LAYER_2
 10
159.1682
 20
36.2631
 42
-0.09293305267
  0
VERTEX
  8
LAYER_2
 10
159.1276
 20
36.4805
 42
-0.1024980643
  0
VERTEX
  8
LAYER_2
 10
159.1682
 20
36.6978
 42
-0.1011981835
  0
VERTEX
  8
LAYER_2
 10
159.2816
 20
36.8694
 42
-0.09612009159
  0
VERTEX
  8
LAYER_2
 10
159.4524
 20
36.9824
 42
-0.09524800311
  0
VERTEX
  8
LAYER_2
 10
159.6661
 20
37.0234
 42
-0.101175466
  0
VERTEX
  8
LAYER_2
 10
159.88
 20
36.9824
 42
-0.09853409661
  0
VERTEX
  8
LAYER_2
 10
160.0509
 20
36.8694
 42
-0.09555545285
  0
VERTEX
  8
LAYER_2
 10
160.1635
 20
36.6978
 42
-0.09400765476
  0
SEQEND
  0
POLYLINE
  8
LAYER_2
 40
0.05
 41
0.05
 66
1
 10
0
 20
0
 30
0
 70
1
  0
VERTEX
  8
LAYER_2
 10
160.0936
 20
36.4798
  0
VERTEX
  8
LAYER_2
 10
160.0647
 20
36.6517
  0
VERTEX
  8
LAYER_2
 10
159.9799
 20
36.795
  0
VERTEX
  8
LAYER_2
 10
159.8448
 20
36.8932
  0
VERTEX
  8
LAYER_2
 10
159.6661
 20
36.93
  0
VERTEX
  8
LAYER_2
 10
159.4872
 20
36.8932
  0
VERTEX
  8
LAYER_2
 10
159.3525
 20
36.795
  0
VERTEX
  8
LAYER_2
 10
159.2678
 20
36.6517
  0
VERTEX
  8
LAYER_2
 10
159.2385
 20
36.4798
  0
VERTEX
  8
LAYER_2
 10
159.2678
 20
36.3079
  0
VERTEX
  8
LAYER_2
 10
159.3525
 20
36.1649
  0
VERTEX
  8
LAYER_2
 10
159.4872
 20
36.0674
  0
VERTEX
  8
LAYER_2
 10
159.6661
 20
36.0309
  0
VERTEX
  8
LAYER_2
 10
159.8448
 20
36.0674
  0
VERTEX
  8
LAYER_2
 10
159.9799
 20
36.1649
  0
VERTEX
  8
LAYER_2
 10
160.0647
 20
36.3079
  0
SEQEND
  0
ENDBLK
  0
BLOCK
  8
LAYER_2
  2
AIGNBL0203001D
 70
64
 10
0
 20
0
 30
0
  3
AIGNBL0203001D
  0
POLYLINE
  8
LAYER_2
 40
0.05
 41
0.05
 66
1
 10
0
 20
0
 30
0
 70
1
  0
VERTEX
  8
LAYER_2
 10
161.1354
 20
36.1418
  0
VERTEX
  8
LAYER_2
 10
161.1371
 20
36.1418
  0
VERTEX
  8
LAYER_2
 10
161.4826
 20
36.9969
  0
VERTEX
  8
LAYER_2
 10
161.6435
 20
36.9969
  0
VERTEX
  8
LAYER_2
 10
161.6435
 20
35.9637
  0
VERTEX
  8
LAYER_2
 10
161.5381
 20
35.9637
  0
VERTEX
  8
LAYER_2
 10
161.5381
 20
36.8611
  0
VERTEX
  8
LAYER_2
 10
161.5354
 20
36.8611
  0
VERTEX
  8
LAYER_2
 10
161.1619
 20
35.9637
  0
VERTEX
  8
LAYER_2
 10
161.1064
 20
35.9637
  0
VERTEX
  8
LAYER_2
 10
160.7326
 20
36.8611
  0
VERTEX
  8
LAYER_2
 10
160.7299
 20
36.8611
  0
VERTEX
  8
LAYER_2
 10
160.7299
 20
35.9637
  0
VERTEX
  8
LAYER_2
 10
160.6248
 20
35.9637
  0
VERTEX
  8
LAYER_2
 10
160.6248
 20
36.9969
  0
VERTEX
  8
LAYER_2
 10
160.7853
 20
36.9969
  0
SEQEND
  0
ENDBLK
  0
BLOCK
  8
LAYER_2
  2
AIGNBL0203001E
 70
64
 10
0
 20
0
 30
0
  3
AIGNBL0203001E
  0
POLYLINE
  8
LAYER_2
 40
0.05
 41
0.05
 66
1
 10
0
 20
0
 30
0
 70
1
  0
VERTEX
  8
LAYER_2
 10
162.79
 20
36.0574
  0
VERTEX
  8
LAYER_2
 10
163.3433
 20
36.0574
  0
VERTEX
  8
LAYER_2
 10
163.3433
 20
35.9637
  0
VERTEX
  8
LAYER_2
 10
162.685
 20
35.9637
  0
VERTEX
  8
LAYER_2
 10
162.685
 20
36.9969
  0
VERTEX
  8
LAYER_2
 10
163.3258
 20
36.9969
  0
VERTEX
  8
LAYER_2
 10
163.3258
 20
36.9035
  0
VERTEX
  8
LAYER_2
 10
162.79
 20
36.9035
  0
VERTEX
  8
LAYER_2
 10
162.79
 20
36.549
  0
VERTEX
  8
LAYER_2
 10
163.2906
 20
36.549
  0
VERTEX
  8
LAYER_2
 10
163.2906
 20
36.4557
  0
VERTEX
  8
LAYER_2
 10
162.79
 20
36.4557
  0
SEQEND
  0
ENDBLK
  0
BLOCK
  8
LAYER_2
  2
AIGNBL0203001F
 70
64
 10
0
 20
0
 30
0
  3
AIGNBL0203001F
  0
POLYLINE
  8
LAYER_2
 40
0.05
 41
0.05
 66
1
 10
0
 20
0
 30
0
 70
1
  0
VERTEX
  8
LAYER_2
 10
164.0885
 20
36.5797
  0
VERTEX
  8
LAYER_2
 10
164.3707
 20
36.9969
  0
VERTEX
  8
LAYER_2
 10
164.4957
 20
36.9969
  0
VERTEX
  8
LAYER_2
 10
164.1533
 20
36.5053
  0
VERTEX
  8
LAYER_2
 10
164.5326
 20
35.9637
  0
VERTEX
  8
LAYER_2
 10
164.4013
 20
35.9637
  0
VERTEX
  8
LAYER_2
 10
164.0858
 20
36.4295
  0
VERTEX
  8
LAYER_2
 10
163.7722
 20
35.9637
  0
VERTEX
  8
LAYER_2
 10
163.6407
 20
35.9637
  0
VERTEX
  8
LAYER_2
 10
164.0203
 20
36.5066
  0
VERTEX
  8
LAYER_2
 10
163.6744
 20
36.9969
  0
VERTEX
  8
LAYER_2
 10
163.806
 20
36.9969
  0
SEQEND
  0
ENDBLK
  0
BLOCK
  8
LAYER_2
  2
AIGNBL02030020
 70
64
 10
0
 20
0
 30
0
  3
AIGNBL02030020
  0
POLYLINE
  8
LAYER_2
 40
0.05
 41
0.05
 66
1
 10
0
 20
0
 30
0
 70
1
  0
VERTEX
  8
LAYER_2
 10
164.8988
 20
36.9969
  0
VERTEX
  8
LAYER_2
 10
165.1909
 20
36.9969
  0
VERTEX
  8
LAYER_2
 10
165.3339
 20
36.9804
  0
VERTEX
  8
LAYER_2
 10
165.4438
 20
36.929
  0
VERTEX
  8
LAYER_2
 10
165.5148
 20
36.8429
  0
VERTEX
  8
LAYER_2
 10
165.5392
 20
36.7213
  0
VERTEX
  8
LAYER_2
 10
165.5141
 20
36.5993
  0
VERTEX
  8
LAYER_2
 10
165.4424
 20
36.5132
  0
VERTEX
  8
LAYER_2
 10
165.3315
 20
36.4615
  0
VERTEX
  8
LAYER_2
 10
165.1878
 20
36.444
  0
VERTEX
  8
LAYER_2
 10
165.0039
 20
36.444
  0
VERTEX
  8
LAYER_2
 10
165.0039
 20
35.9637
  0
VERTEX
  8
LAYER_2
 10
164.8988
 20
35.9637
  0
SEQEND
  0
POLYLINE
  8
LAYER_2
 40
0.05
 41
0.05
 66
1
 10
0
 20
0
 30
0
 70
1
  0
VERTEX
  8
LAYER_2
 10
165.0039
 20
36.5328
  0
VERTEX
  8
LAYER_2
 10
165.1816
 20
36.5328
 42
0.1829732243
  0
VERTEX
  8
LAYER_2
 10
165.3701
 20
36.581
 42
0.2345943979
  0
VERTEX
  8
LAYER_2
 10
165.4345
 20
36.7213
 42
0.26486771
  0
VERTEX
  8
LAYER_2
 10
165.368
 20
36.8622
 42
0.126412566
  0
VERTEX
  8
LAYER_2
 10
165.1816
 20
36.9066
  0
VERTEX
  8
LAYER_2
 10
165.0039
 20
36.9066
  0
SEQEND
  0
ENDBLK
  0
BLOCK
  8
LAYER_2
  2
AIGNBL02030021
 70
64
 10
0
 20
0
 30
0
  3
AIGNBL02030021
  0
POLYLINE
  8
LAYER_2
 40
0.05
 41
0.05
 66
1
 10
0
 20
0
 30
0
 70
1
  0
VERTEX
  8
LAYER_2
 10
166.0515
 20
36.0574
  0
VERTEX
  8
LAYER_2
 10
166.6048
 20
36.0574
  0
VERTEX
  8
LAYER_2
 10
166.6048
 20
35.9637
  0
VERTEX
  8
LAYER_2
 10
165.9465
 20
35.9637
  0
VERTEX
  8
LAYER_2
 10
165.9465
 20
36.9969
  0
VERTEX
  8
LAYER_2
 10
166.5872
 20
36.9969
  0
VERTEX
  8
LAYER_2
 10
166.5872
 20
36.9035
  0
VERTEX
  8
LAYER_2
 10
166.0515
 20
36.9035
  0
VERTEX
  8
LAYER_2
 10
166.0515
 20
36.549
  0
VERTEX
  8
LAYER_2
 10
166.5521
 20
36.549
  0
VERTEX
  8
LAYER_2
 10
166.5521
 20
36.4557
  0
VERTEX
  8
LAYER_2
 10
166.0515
 20
36.4557
  0
SEQEND
  0
ENDBLK
  0
BLOCK
  8
LAYER_2
  2
AIGNBL02030022
 70
64
 10
0
 20
0
 30
0
  3
AIGNBL02030022
  0
POLYLINE
  8
LAYER_2
 40
0.05
 41
0.05
 66
1
 10
0
 20
0
 30
0
 70
1
  0
VERTEX
  8
LAYER_2
 10
167.1168
 20
35.9637
  0
VERTEX
  8
LAYER_2
 10
167.0117
 20
35.9637
  0
VERTEX
  8
LAYER_2
 10
167.0117
 20
36.9969
  0
VERTEX
  8
LAYER_2
 10
167.3155
 20
36.9969
  0
VERTEX
  8
LAYER_2
 10
167.4561
 20
36.9824
  0
VERTEX
  8
LAYER_2
 10
167.5687
 20
36.9349
  0
VERTEX
  8
LAYER_2
 10
167.6425
 20
36.8494
  0
VERTEX
  8
LAYER_2
 10
167.6683
 20
36.7213
  0
VERTEX
  8
LAYER_2
 10
167.6483
 20
36.6176
  0
VERTEX
  8
LAYER_2
 10
167.5929
 20
36.5366
  0
VERTEX
  8
LAYER_2
 10
167.5095
 20
36.4818
  0
VERTEX
  8
LAYER_2
 10
167.4044
 20
36.4557
  0
VERTEX
  8
LAYER_2
 10
167.7066
 20
35.9637
  0
VERTEX
  8
LAYER_2
 10
167.578
 20
35.9637
  0
VERTEX
  8
LAYER_2
 10
167.2921
 20
36.4467
  0
VERTEX
  8
LAYER_2
 10
167.1168
 20
36.4467
  0
SEQEND
  0
POLYLINE
  8
LAYER_2
 40
0.05
 41
0.05
 66
1
 10
0
 20
0
 30
0
 70
1
  0
VERTEX
  8
LAYER_2
 10
167.1168
 20
36.5373
  0
VERTEX
  8
LAYER_2
 10
167.2994
 20
36.5373
 42
0.1667243505
  0
VERTEX
  8
LAYER_2
 10
167.495
 20
36.5831
 42
0.2503949893
  0
VERTEX
  8
LAYER_2
 10
167.5636
 20
36.7213
  0
VERTEX
  8
LAYER_2
 10
167.5446
 20
36.8071
  0
VERTEX
  8
LAYER_2
 10
167.4919
 20
36.8643
  0
VERTEX
  8
LAYER_2
 10
167.4103
 20
36.8963
  0
VERTEX
  8
LAYER_2
 10
167.3038
 20
36.9066
  0
VERTEX
  8
LAYER_2
 10
167.1168
 20
36.9066
  0
SEQEND
  0
ENDBLK
  0
BLOCK
  8
LAYER_2
  2
AIGNBL02030023
 70
64
 10
0
 20
0
 30
0
  3
AIGNBL02030023
  0
POLYLINE
  8
LAYER_2
 40
0.05
 41
0.05
 66
1
 10
0
 20
0
 30
0
 70
1
  0
VERTEX
  8
LAYER_2
 10
168.1923
 20
35.9637
  0
VERTEX
  8
LAYER_2
 10
168.0876
 20
35.9637
  0
VERTEX
  8
LAYER_2
 10
168.0876
 20
36.9969
  0
VERTEX
  8
LAYER_2
 10
168.1923
 20
36.9969
  0
SEQEND
  0
ENDBLK
  0
BLOCK
  8
LAYER_2
  2
AIGNBL02030024
 70
64
 10
0
 20
0
 30
0
  3
AIGNBL02030024
  0
POLYLINE
  8
LAYER_2
 40
0.05
 41
0.05
 66
1
 10
0
 20
0
 30
0
 70
1
  0
VERTEX
  8
LAYER_2
 10
168.7732
 20
36.0574
  0
VERTEX
  8
LAYER_2
 10
169.3261
 20
36.0574
  0
VERTEX
  8
LAYER_2
 10
169.3261
 20
35.9637
  0
VERTEX
  8
LAYER_2
 10
168.6681
 20
35.9637
  0
VERTEX
  8
LAYER_2
 10
168.6681
 20
36.9969
  0
VERTEX
  8
LAYER_2
 10
169.3089
 20
36.9969
  0
VERTEX
  8
LAYER_2
 10
169.3089
 20
36.9035
  0
VERTEX
  8
LAYER_2
 10
168.7732
 20
36.9035
  0
VERTEX
  8
LAYER_2
 10
168.7732
 20
36.549
  0
VERTEX
  8
LAYER_2
 10
169.2737
 20
36.549
  0
VERTEX
  8
LAYER_2
 10
169.2737
 20
36.4557
  0
VERTEX
  8
LAYER_2
 10
168.7732
 20
36.4557
  0
SEQEND
  0
ENDBLK
  0
BLOCK
  8
LAYER_2
  2
AIGNBL02030025
 70
64
 10
0
 20
0
 30
0
  3
AIGNBL02030025
  0
POLYLINE
  8
LAYER_2
 40
0.05
 41
0.05
 66
1
 10
0
 20
0
 30
0
 70
1
  0
VERTEX
  8
LAYER_2
 10
170.4661
 20
36.117
  0
VERTEX
  8
LAYER_2
 10
170.4689
 20
36.117
  0
VERTEX
  8
LAYER_2
 10
170.4689
 20
36.9969
  0
VERTEX
  8
LAYER_2
 10
170.5739
 20
36.9969
  0
VERTEX
  8
LAYER_2
 10
170.5739
 20
35.9637
  0
VERTEX
  8
LAYER_2
 10
170.4426
 20
35.9637
  0
VERTEX
  8
LAYER_2
 10
169.8415
 20
36.8525
  0
VERTEX
  8
LAYER_2
 10
169.8384
 20
36.8525
  0
VERTEX
  8
LAYER_2
 10
169.8384
 20
35.9637
  0
VERTEX
  8
LAYER_2
 10
169.7333
 20
35.9637
  0
VERTEX
  8
LAYER_2
 10
169.7333
 20
36.9969
  0
VERTEX
  8
LAYER_2
 10
169.8649
 20
36.9969
  0
SEQEND
  0
ENDBLK
  0
BLOCK
  8
LAYER_2
  2
AIGNBL02030026
 70
64
 10
0
 20
0
 30
0
  3
AIGNBL02030026
  0
POLYLINE
  8
LAYER_2
 40
0.05
 41
0.05
 66
1
 10
0
 20
0
 30
0
 70
1
  0
VERTEX
  8
LAYER_2
 10
171.9196
 20
36.1315
  0
VERTEX
  8
LAYER_2
 10
171.8558
 20
36.0571
  0
VERTEX
  8
LAYER_2
 10
171.7697
 20
35.9954
  0
VERTEX
  8
LAYER_2
 10
171.6615
 20
35.953
  0
VERTEX
  8
LAYER_2
 10
171.5327
 20
35.9375
 42
-0.1011939289
  0
VERTEX
  8
LAYER_2
 10
171.3167
 20
35.9785
 42
-0.1032846426
  0
VERTEX
  8
LAYER_2
 10
171.1461
 20
36.0915
 42
-0.0974858305
  0
VERTEX
  8
LAYER_2
 10
171.0345
 20
36.2631
 42
-0.09232404316
  0
VERTEX
  8
LAYER_2
 10
170.9942
 20
36.4805
 42
-0.1041003847
  0
VERTEX
  8
LAYER_2
 10
171.0352
 20
36.6978
 42
-0.1005616574
  0
VERTEX
  8
LAYER_2
 10
171.1479
 20
36.8694
 42
-0.09522588778
  0
VERTEX
  8
LAYER_2
 10
171.3187
 20
36.9824
 42
-0.09501991035
  0
VERTEX
  8
LAYER_2
 10
171.5327
 20
37.0234
  0
VERTEX
  8
LAYER_2
 10
171.6443
 20
37.0114
  0
VERTEX
  8
LAYER_2
 10
171.7473
 20
36.9779
  0
VERTEX
  8
LAYER_2
 10
171.8348
 20
36.9263
  0
VERTEX
  8
LAYER_2
 10
171.9006
 20
36.8584
  0
VERTEX
  8
LAYER_2
 10
171.8131
 20
36.794
  0
VERTEX
  8
LAYER_2
 10
171.7697
 20
36.8439
  0
VERTEX
  8
LAYER_2
 10
171.7063
 20
36.8877
  0
VERTEX
  8
LAYER_2
 10
171.6267
 20
36.9183
  0
VERTEX
  8
LAYER_2
 10
171.5341
 20
36.93
  0
VERTEX
  8
LAYER_2
 10
171.3539
 20
36.8935
  0
VERTEX
  8
LAYER_2
 10
171.2188
 20
36.7954
  0
VERTEX
  8
LAYER_2
 10
171.1341
 20
36.652
  0
VERTEX
  8
LAYER_2
 10
171.1052
 20
36.4805
  0
VERTEX
  8
LAYER_2
 10
171.1351
 20
36.3089
  0
VERTEX
  8
LAYER_2
 10
171.2205
 20
36.1656
  0
VERTEX
  8
LAYER_2
 10
171.3556
 20
36.0674
 42
0.100995487
  0
VERTEX
  8
LAYER_2
 10
171.5341
 20
36.0309
  0
VERTEX
  8
LAYER_2
 10
171.7032
 20
36.0674
 42
0.1321059012
  0
VERTEX
  8
LAYER_2
 10
171.8376
 20
36.1842
  0
SEQEND
  0
ENDBLK
  0
BLOCK
  8
LAYER_2
  2
AIGNBL02030027
 70
64
 10
0
 20
0
 30
0
  3
AIGNBL02030027
  0
POLYLINE
  8
LAYER_2
 40
0.05
 41
0.05
 66
1
 10
0
 20
0
 30
0
 70
1
  0
VERTEX
  8
LAYER_2
 10
172.4067
 20
36.0574
  0
VERTEX
  8
LAYER_2
 10
172.96
 20
36.0574
  0
VERTEX
  8
LAYER_2
 10
172.96
 20
35.9637
  0
VERTEX
  8
LAYER_2
 10
172.3016
 20
35.9637
  0
VERTEX
  8
LAYER_2
 10
172.3016
 20
36.9969
  0
VERTEX
  8
LAYER_2
 10
172.9424
 20
36.9969
  0
VERTEX
  8
LAYER_2
 10
172.9424
 20
36.9035
  0
VERTEX
  8
LAYER_2
 10
172.4067
 20
36.9035
  0
VERTEX
  8
LAYER_2
 10
172.4067
 20
36.549
  0
VERTEX
  8
LAYER_2
 10
172.9073
 20
36.549
  0
VERTEX
  8
LAYER_2
 10
172.9073
 20
36.4557
  0
VERTEX
  8
LAYER_2
 10
172.4067
 20
36.4557
  0
SEQEND
  0
ENDBLK
  0
BLOCK
  8
LAYER_1
  2
AIGNBL01020003
 70
64
 10
0
 20
0
 30
0
  3
AIGNBL01020003
  0
POLYLINE
  8
LAYER_1
 40
0.1764
 41
0.1764
 66
1
 10
0
 20
0
 30
0
  0
VERTEX
  8
LAYER_1
 10
361.9302
 20
58.7697
 42
0.4142023029
  0
VERTEX
  8
LAYER_1
 10
357.8147
 20
62.8852
 42
0.4142230275
  0
VERTEX
  8
LAYER_1
 10
353.6987
 20
58.7697
 42
0.4142280408
  0
VERTEX
  8
LAYER_1
 10
357.8147
 20
54.6541
 42
0.4142073164
  0
VERTEX
  8
LAYER_1
 10
361.9302
 20
58.7697
  0
SEQEND
  0
POLYLINE
  8
LAYER_1
 40
0.1764
 41
0.1764
 66
1
 10
0
 20
0
 30
0
  0
VERTEX
  8
LAYER_1
 10
359.5505
 20
73.2819
 42
0.4142294997
  0
VERTEX
  8
LAYER_1
 10
357.8144
 20
75.018
 42
0.4142208848
  0
VERTEX
  8
LAYER_1
 10
356.0783
 20
73.2819
 42
0.4142094636
  0
VERTEX
  8
LAYER_1
 10
357.8144
 20
71.5458
 42
0.4142180781
  0
VERTEX
  8
LAYER_1
 10
359.5505
 20
73.2819
  0
SEQEND
  0
ENDBLK
  0
BLOCK
  8
LAYER_1
  2
AIGNBL01020004
 70
64
 10
0
 20
0
 30
0
  3
AIGNBL01020004
  0
POLYLINE
  8
LAYER_1
 40
0.1764
 41
0.1764
 66
1
 10
0
 20
0
 30
0
  0
VERTEX
  8
LAYER_1
 10
360.0577
 20
58.7697
 42
0.4142198552
  0
VERTEX
  8
LAYER_1
 10
357.8146
 20
61.0127
 42
0.4142917879
  0
VERTEX
  8
LAYER_1
 10
355.5715
 20
58.7697
 42
0.4143009875
  0
VERTEX
  8
LAYER_1
 10
357.8146
 20
56.5266
 42
0.4142290538
  0
VERTEX
  8
LAYER_1
 10
360.0577
 20
58.7697
  0
SEQEND
  0
ENDBLK
  0
BLOCK
  8
LAYER_1
  2
AIGNBL0102000F
 70
64
 10
0
 20
0
 30
0
  3
AIGNBL0102000F
  0
POLYLINE
  8
LAYER_1
 40
0.1764
 41
0.1764
 66
1
 10
0
 20
0
 30
0
  0
VERTEX
  8
LAYER_1
 10
82.6285
 20
159.2249
 42
0.4142147078
  0
VERTEX
  8
LAYER_1
 10
78.5108
 20
163.3427
 42
0.4142045405
  0
VERTEX
  8
LAYER_1
 10
74.3934
 20
159.2249
 42
0.4142034856
  0
VERTEX
  8
LAYER_1
 10
78.5108
 20
155.1071
 42
0.4142136528
  0
VERTEX
  8
LAYER_1
 10
82.6285
 20
159.2249
  0
SEQEND
  0
POLYLINE
  8
LAYER_1
 40
0.1764
 41
0.1764
 66
1
 10
0
 20
0
 30
0
  0
VERTEX
  8
LAYER_1
 10
80.2756
 20
173.7077
 42
0.4141884825
  0
VERTEX
  8
LAYER_1
 10
78.5108
 20
175.4725
 42
0.4141500552
  0
VERTEX
  8
LAYER_1
 10
76.7464
 20
173.7077
 42
0.4141556398
  0
VERTEX
  8
LAYER_1
 10
78.5108
 20
171.9429
 42
0.414194068
  0
VERTEX
  8
LAYER_1
 10
80.2756
 20
173.7077
  0
SEQEND
  0
ENDBLK
  0
BLOCK
  8
LAYER_1
  2
AIGNBL01020010
 70
64
 10
0
 20
0
 30
0
  3
AIGNBL01020010
  0
POLYLINE
  8
LAYER_1
 40
0.1764
 41
0.1764
 66
1
 10
0
 20
0
 30
0
  0
VERTEX
  8
LAYER_1
 10
61.0058
 20
139.7117
 42
0.4142797475
  0
VERTEX
  8
LAYER_1
 10
61.5127
 20
139.2048
  0
SEQEND
  0
ENDBLK
  0
BLOCK
  8
LAYER_1
  2
AIGNBL01020011
 70
64
 10
0
 20
0
 30
0
  3
AIGNBL01020011
  0
POLYLINE
  8
LAYER_1
 40
0.1764
 41
0.1764
 66
1
 10
0
 20
0
 30
0
  0
VERTEX
  8
LAYER_1
 10
61.5129
 20
169.2249
 42
0.4142601347
  0
VERTEX
  8
LAYER_1
 10
61.006
 20
168.718
  0
SEQEND
  0
ENDBLK
  0
BLOCK
  8
LAYER_1
  2
AIGNBL01020012
 70
64
 10
0
 20
0
 30
0
  3
AIGNBL01020012
  0
POLYLINE
  8
LAYER_1
 40
0.1764
 41
0.1764
 66
1
 10
0
 20
0
 30
0
  0
VERTEX
  8
LAYER_1
 10
96.0566
 20
168.7178
 42
0.4142285271
  0
VERTEX
  8
LAYER_1
 10
95.5497
 20
169.2247
  0
SEQEND
  0
ENDBLK
  0
BLOCK
  8
LAYER_1
  2
AIGNBL01020013
 70
64
 10
0
 20
0
 30
0
  3
AIGNBL01020013
  0
POLYLINE
  8
LAYER_1
 40
0.1764
 41
0.1764
 66
1
 10
0
 20
0
 30
0
  0
VERTEX
  8
LAYER_1
 10
95.5494
 20
139.2046
 42
0.4142782909
  0
VERTEX
  8
LAYER_1
 10
96.0564
 20
139.7115
  0
SEQEND
  0
ENDBLK
  0
BLOCK
  8
LAYER_1
  2
AIGNBL01020014
 70
64
 10
0
 20
0
 30
0
  3
AIGNBL01020014
  0
POLYLINE
  8
LAYER_1
 40
0.1764
 41
0.1764
 66
1
 10
0
 20
0
 30
0
  0
VERTEX
  8
LAYER_1
 10
63.0747
 20
142.2675
 42
0.4140941773
  0
VERTEX
  8
LAYER_1
 10
64.0686
 20
141.2735
  0
SEQEND
  0
ENDBLK
  0
BLOCK
  8
LAYER_1
  2
AIGNBL01020015
 70
64
 10
0
 20
0
 30
0
  3
AIGNBL01020015
  0
POLYLINE
  8
LAYER_1
 40
0.1764
 41
0.1764
 66
1
 10
0
 20
0
 30
0
  0
VERTEX
  8
LAYER_1
 10
64.0687
 20
167.156
 42
0.4140852215
  0
VERTEX
  8
LAYER_1
 10
63.0748
 20
166.1621
  0
SEQEND
  0
ENDBLK
  0
BLOCK
  8
LAYER_1
  2
AIGNBL01020016
 70
64
 10
0
 20
0
 30
0
  3
AIGNBL01020016
  0
POLYLINE
  8
LAYER_1
 40
0.1764
 41
0.1764
 66
1
 10
0
 20
0
 30
0
  0
VERTEX
  8
LAYER_1
 10
93.947
 20
166.1621
 42
0.4140823031
  0
VERTEX
  8
LAYER_1
 10
92.9531
 20
167.156
  0
SEQEND
  0
ENDBLK
  0
BLOCK
  8
LAYER_1
  2
AIGNBL01020017
 70
64
 10
0
 20
0
 30
0
  3
AIGNBL01020017
  0
POLYLINE
  8
LAYER_1
 40
0.1764
 41
0.1764
 66
1
 10
0
 20
0
 30
0
  0
VERTEX
  8
LAYER_1
 10
92.9531
 20
141.2735
 42
0.414112446
  0
VERTEX
  8
LAYER_1
 10
93.947
 20
142.2675
  0
SEQEND
  0
ENDBLK
  0
BLOCK
  8
LAYER_1
  2
AIGNBL01020018
 70
64
 10
0
 20
0
 30
0
  3
AIGNBL01020018
  0
POLYLINE
  8
LAYER_1
 40
0.1764
 41
0.1764
 66
1
 10
0
 20
0
 30
0
  0
VERTEX
  8
LAYER_1
 10
115.5495
 20
134.2147
 42
0.4142345435
  0
VERTEX
  8
LAYER_1
 10
116.0564
 20
134.7216
  0
SEQEND
  0
ENDBLK
  0
BLOCK
  8
LAYER_1
  2
AIGNBL01020019
 70
64
 10
0
 20
0
 30
0
  3
AIGNBL01020019
  0
POLYLINE
  8
LAYER_1
 40
0.1764
 41
0.1764
 66
1
 10
0
 20
0
 30
0
  0
VERTEX
  8
LAYER_1
 10
56.0159
 20
134.7218
 42
0.4142185689
  0
VERTEX
  8
LAYER_1
 10
56.5228
 20
134.2149
  0
SEQEND
  0
ENDBLK
  0
BLOCK
  8
LAYER_1
  2
AIGNBL0102001A
 70
64
 10
0
 20
0
 30
0
  3
AIGNBL0102001A
  0
POLYLINE
  8
LAYER_1
 40
0.1764
 41
0.1764
 66
1
 10
0
 20
0
 30
0
  0
VERTEX
  8
LAYER_1
 10
152.6286
 20
110.8881
 42
0.4137670202
  0
VERTEX
  8
LAYER_1
 10
152.3244
 20
110.5839
  0
SEQEND
  0
ENDBLK
  0
BLOCK
  8
LAYER_1
  2
AIGNBL0102001B
 70
64
 10
0
 20
0
 30
0
  3
AIGNBL0102001B
  0
POLYLINE
  8
LAYER_1
 40
0.1764
 41
0.1764
 66
1
 10
0
 20
0
 30
0
  0
VERTEX
  8
LAYER_1
 10
152.3244
 20
109.6507
 42
0.4137636968
  0
VERTEX
  8
LAYER_1
 10
152.6286
 20
109.3465
  0
SEQEND
  0
ENDBLK
  0
BLOCK
  8
LAYER_1
  2
AIGNBL0102001C
 70
64
 10
0
 20
0
 30
0
  3
AIGNBL0102001C
  0
POLYLINE
  8
LAYER_1
 40
0.1764
 41
0.1764
 66
1
 10
0
 20
0
 30
0
  0
VERTEX
  8
LAYER_1
 10
172.2737
 20
95.657
 42
0.3200531461
  0
VERTEX
  8
LAYER_1
 10
171.9686
 20
95.9173
  0
SEQEND
  0
ENDBLK
  0
BLOCK
  8
LAYER_1
  2
AIGNBL0102001D
 70
64
 10
0
 20
0
 30
0
  3
AIGNBL0102001D
  0
POLYLINE
  8
LAYER_1
 40
0.1764
 41
0.1764
 66
1
 10
0
 20
0
 30
0
  0
VERTEX
  8
LAYER_1
 10
172.4092
 20
93.9045
 42
0.3703369019
  0
VERTEX
  8
LAYER_1
 10
172.7097
 20
93.6467
  0
SEQEND
  0
ENDBLK
  0
BLOCK
  8
LAYER_1
  2
AIGNBL0102001E
 70
64
 10
0
 20
0
 30
0
  3
AIGNBL0102001E
  0
POLYLINE
  8
LAYER_1
 40
0.1764
 41
0.1764
 66
1
 10
0
 20
0
 30
0
  0
VERTEX
  8
LAYER_1
 10
182.7006
 20
95.9576
 42
0.3582428954
  0
VERTEX
  8
LAYER_1
 10
182.4274
 20
95.6849
  0
SEQEND
  0
ENDBLK
  0
BLOCK
  8
LAYER_1
  2
AIGNBL0102001F
 70
64
 10
0
 20
0
 30
0
  3
AIGNBL0102001F
  0
POLYLINE
  8
LAYER_1
 40
0.1764
 41
0.1764
 66
1
 10
0
 20
0
 30
0
  0
VERTEX
  8
LAYER_1
 10
181.9593
 20
93.6467
 42
0.3703006918
  0
VERTEX
  8
LAYER_1
 10
182.2598
 20
93.9045
  0
SEQEND
  0
ENDBLK
  0
BLOCK
  8
LAYER_1
  2
AIGNBL01020020
 70
64
 10
0
 20
0
 30
0
  3
AIGNBL01020020
  0
POLYLINE
  8
LAYER_1
 40
0.1764
 41
0.1764
 66
1
 10
0
 20
0
 30
0
  0
VERTEX
  8
LAYER_1
 10
162.1419
 20
107.6629
 42
0.4141161612
  0
VERTEX
  8
LAYER_1
 10
161.3506
 20
108.4542
 42
0.4142053343
  0
VERTEX
  8
LAYER_1
 10
160.5598
 20
107.6629
 42
0.4141715134
  0
VERTEX
  8
LAYER_1
 10
161.3506
 20
106.8717
 42
0.414082359
  0
VERTEX
  8
LAYER_1
 10
162.1419
 20
107.6629
  0
SEQEND
  0
POLYLINE
  8
LAYER_1
 40
0.1764
 41
0.1764
 66
1
 10
0
 20
0
 30
0
  0
VERTEX
  8
LAYER_1
 10
195.1237
 20
107.6629
 42
0.4141201421
  0
VERTEX
  8
LAYER_1
 10
194.3324
 20
108.4542
 42
0.4142013494
  0
VERTEX
  8
LAYER_1
 10
193.5416
 20
107.6629
 42
0.4141675291
  0
VERTEX
  8
LAYER_1
 10
194.3324
 20
106.8717
 42
0.4140863394
  0
VERTEX
  8
LAYER_1
 10
195.1237
 20
107.6629
  0
SEQEND
  0
ENDBLK
  0
BLOCK
  8
LAYER_1
  2
AIGNBL01020021
 70
64
 10
0
 20
0
 30
0
  3
AIGNBL01020021
  0
POLYLINE
  8
LAYER_1
 40
0.1764
 41
0.1764
 66
1
 10
0
 20
0
 30
0
  0
VERTEX
  8
LAYER_1
 10
62.0652
 20
96.7379
 42
0.359892891
  0
VERTEX
  8
LAYER_1
 10
62.3611
 20
96.4863
  0
SEQEND
  0
ENDBLK
  0
BLOCK
  8
LAYER_1
  2
AIGNBL01020022
 70
64
 10
0
 20
0
 30
0
  3
AIGNBL01020022
  0
POLYLINE
  8
LAYER_1
 40
0.1764
 41
0.1764
 66
1
 10
0
 20
0
 30
0
  0
VERTEX
  8
LAYER_1
 10
60.3416
 20
108.6063
 42
0.2517430371
  0
VERTEX
  8
LAYER_1
 10
59.7584
 20
109.3457
  0
SEQEND
  0
ENDBLK
  0
BLOCK
  8
LAYER_1
  2
AIGNBL01020023
 70
64
 10
0
 20
0
 30
0
  3
AIGNBL01020023
  0
POLYLINE
  8
LAYER_1
 40
0.1764
 41
0.1764
 66
1
 10
0
 20
0
 30
0
  0
VERTEX
  8
LAYER_1
 10
75.6914
 20
93.2207
 42
0.3858108367
  0
VERTEX
  8
LAYER_1
 10
75.4166
 20
93.5237
  0
SEQEND
  0
ENDBLK
  0
BLOCK
  8
LAYER_1
  2
AIGNBL01020024
 70
64
 10
0
 20
0
 30
0
  3
AIGNBL01020024
  0
POLYLINE
  8
LAYER_1
 40
0.1764
 41
0.1764
 66
1
 10
0
 20
0
 30
0
  0
VERTEX
  8
LAYER_1
 10
73.7048
 20
93.9236
 42
0.3606045047
  0
VERTEX
  8
LAYER_1
 10
73.9784
 20
93.6479
  0
SEQEND
  0
ENDBLK
  0
BLOCK
  8
LAYER_1
  2
AIGNBL01020025
 70
64
 10
0
 20
0
 30
0
  3
AIGNBL01020025
  0
POLYLINE
  8
LAYER_1
 40
0.1764
 41
0.1764
 66
1
 10
0
 20
0
 30
0
  0
VERTEX
  8
LAYER_1
 10
73.5401
 20
95.6822
 42
0.3763957923
  0
VERTEX
  8
LAYER_1
 10
73.2499
 20
95.9586
  0
SEQEND
  0
ENDBLK
  0
BLOCK
  8
LAYER_1
  2
AIGNBL01020026
 70
64
 10
0
 20
0
 30
0
  3
AIGNBL01020026
  0
POLYLINE
  8
LAYER_1
 40
0.1764
 41
0.1764
 66
1
 10
0
 20
0
 30
0
  0
VERTEX
  8
LAYER_1
 10
56.0159
 20
109.6507
 42
0.4137486734
  0
VERTEX
  8
LAYER_1
 10
56.3201
 20
109.3465
  0
SEQEND
  0
ENDBLK
  0
BLOCK
  8
LAYER_1
  2
AIGNBL01020027
 70
64
 10
0
 20
0
 30
0
  3
AIGNBL01020027
  0
POLYLINE
  8
LAYER_1
 40
0.1764
 41
0.1764
 66
1
 10
0
 20
0
 30
0
  0
VERTEX
  8
LAYER_1
 10
56.3202
 20
110.8881
 42
0.4138420355
  0
VERTEX
  8
LAYER_1
 10
56.016
 20
110.5839
  0
SEQEND
  0
ENDBLK
  0
BLOCK
  8
LAYER_1
  2
AIGNBL01020028
 70
64
 10
0
 20
0
 30
0
  3
AIGNBL01020028
  0
POLYLINE
  8
LAYER_1
 40
0.1764
 41
0.1764
 66
1
 10
0
 20
0
 30
0
  0
VERTEX
  8
LAYER_1
 10
81.8487
 20
93.5236
 42
0.3862251469
  0
VERTEX
  8
LAYER_1
 10
81.574
 20
93.2206
  0
SEQEND
  0
ENDBLK
  0
BLOCK
  8
LAYER_1
  2
AIGNBL01020029
 70
64
 10
0
 20
0
 30
0
  3
AIGNBL01020029
  0
POLYLINE
  8
LAYER_1
 40
0.1764
 41
0.1764
 66
1
 10
0
 20
0
 30
0
  0
VERTEX
  8
LAYER_1
 10
83.3272
 20
93.6481
 42
0.3534564946
  0
VERTEX
  8
LAYER_1
 10
83.5999
 20
93.9155
  0
SEQEND
  0
ENDBLK
  0
BLOCK
  8
LAYER_1
  2
AIGNBL0102002A
 70
64
 10
0
 20
0
 30
0
  3
AIGNBL0102002A
  0
POLYLINE
  8
LAYER_1
 40
0.1764
 41
0.1764
 66
1
 10
0
 20
0
 30
0
  0
VERTEX
  8
LAYER_1
 10
84.0153
 20
95.9588
 42
0.3758405717
  0
VERTEX
  8
LAYER_1
 10
83.7252
 20
95.6823
  0
SEQEND
  0
ENDBLK
  0
BLOCK
  8
LAYER_1
  2
AIGNBL0102002B
 70
64
 10
0
 20
0
 30
0
  3
AIGNBL0102002B
  0
POLYLINE
  8
LAYER_1
 40
0.1764
 41
0.1764
 66
1
 10
0
 20
0
 30
0
  0
VERTEX
  8
LAYER_1
 10
115.7118
 20
109.3465
 42
0.4137600917
  0
VERTEX
  8
LAYER_1
 10
116.016
 20
109.6507
  0
SEQEND
  0
ENDBLK
  0
BLOCK
  8
LAYER_1
  2
AIGNBL0102002C
 70
64
 10
0
 20
0
 30
0
  3
AIGNBL0102002C
  0
POLYLINE
  8
LAYER_1
 40
0.1764
 41
0.1764
 66
1
 10
0
 20
0
 30
0
  0
VERTEX
  8
LAYER_1
 10
116.016
 20
110.5839
 42
0.4137755697
  0
VERTEX
  8
LAYER_1
 10
115.7118
 20
110.8881
  0
SEQEND
  0
POLYLINE
  8
LAYER_1
 40
0.1764
 41
0.1764
 66
1
 10
0
 20
0
 30
0
  0
VERTEX
  8
LAYER_1
 10
109.671
 20
96.4865
 42
0.3599936144
  0
VERTEX
  8
LAYER_1
 10
109.967
 20
96.738
  0
SEQEND
  0
ENDBLK
  0
BLOCK
  8
LAYER_1
  2
AIGNBL0102002D
 70
64
 10
0
 20
0
 30
0
  3
AIGNBL0102002D
  0
POLYLINE
  8
LAYER_1
 40
0.1764
 41
0.1764
 66
1
 10
0
 20
0
 30
0
  0
VERTEX
  8
LAYER_1
 10
112.2736
 20
109.3455
 42
0.2521358631
  0
VERTEX
  8
LAYER_1
 10
111.6905
 20
108.6061
  0
SEQEND
  0
ENDBLK
  0
BLOCK
  8
LAYER_1
  2
AIGNBL0102002E
 70
64
 10
0
 20
0
 30
0
  3
AIGNBL0102002E
  0
POLYLINE
  8
LAYER_1
 40
0.4127
 41
0.4127
 66
1
 10
0
 20
0
 30
0
  0
VERTEX
  8
LAYER_1
 10
70.0602
 20
105.4115
 42
0.2701532594
  0
VERTEX
  8
LAYER_1
 10
70.9314
 20
105.9047
 42
0.2700825762
  0
VERTEX
  8
LAYER_1
 10
70.9314
 20
106.9061
 42
0.2701591405
  0
VERTEX
  8
LAYER_1
 10
70.0602
 20
107.3993
  0
SEQEND
  0
POLYLINE
  8
LAYER_1
 40
0.4127
 41
0.4127
 66
1
 10
0
 20
0
 30
0
  0
VERTEX
  8
LAYER_1
 10
69.1017
 20
107.3993
 42
0.269830303
  0
VERTEX
  8
LAYER_1
 10
68.2363
 20
106.8986
 42
0.2695864515
  0
VERTEX
  8
LAYER_1
 10
68.2437
 20
105.8989
 42
0.2694900294
  0
VERTEX
  8
LAYER_1
 10
69.1166
 20
105.4115
  0
SEQEND
  0
ENDBLK
  0
BLOCK
  8
LAYER_1
  2
AIGNBL0102002F
 70
64
 10
0
 20
0
 30
0
  3
AIGNBL0102002F
  0
POLYLINE
  8
LAYER_1
 40
0.4127
 41
0.4127
 66
1
 10
0
 20
0
 30
0
  0
VERTEX
  8
LAYER_1
 10
98.0927
 20
105.4115
 42
0.2701553156
  0
VERTEX
  8
LAYER_1
 10
98.9639
 20
105.9047
 42
0.2700867465
  0
VERTEX
  8
LAYER_1
 10
98.9639
 20
106.9061
 42
0.2701611968
  0
VERTEX
  8
LAYER_1
 10
98.0927
 20
107.3993
  0
SEQEND
  0
POLYLINE
  8
LAYER_1
 40
0.4127
 41
0.4127
 66
1
 10
0
 20
0
 30
0
  0
VERTEX
  8
LAYER_1
 10
97.0936
 20
107.3993
 42
0.2698250829
  0
VERTEX
  8
LAYER_1
 10
96.2282
 20
106.8986
 42
0.2695897713
  0
VERTEX
  8
LAYER_1
 10
96.2357
 20
105.8989
 42
0.2694981669
  0
VERTEX
  8
LAYER_1
 10
97.1086
 20
105.4115
  0
SEQEND
  0
ENDBLK
  0
BLOCK
  8
LAYER_1
  2
AIGNBL01020030
 70
64
 10
0
 20
0
 30
0
  3
AIGNBL01020030
  0
POLYLINE
  8
LAYER_1
 40
0.4127
 41
0.4127
 66
1
 10
0
 20
0
 30
0
  0
VERTEX
  8
LAYER_1
 10
161.6753
 20
107.2775
 42
0.4145679352
  0
VERTEX
  8
LAYER_1
 10
162.0608
 20
107.663
 42
0.4141369914
  0
VERTEX
  8
LAYER_1
 10
161.6753
 20
108.0484
  0
SEQEND
  0
ENDBLK
  0
BLOCK
  8
LAYER_1
  2
AIGNBL01020031
 70
64
 10
0
 20
0
 30
0
  3
AIGNBL01020031
  0
POLYLINE
  8
LAYER_1
 40
0.4127
 41
0.4127
 66
1
 10
0
 20
0
 30
0
  0
VERTEX
  8
LAYER_1
 10
160.9857
 20
108.0483
 42
0.4145059335
  0
VERTEX
  8
LAYER_1
 10
160.6002
 20
107.6629
 42
0.41414585
  0
VERTEX
  8
LAYER_1
 10
160.9857
 20
107.2774
  0
SEQEND
  0
ENDBLK
  0
BLOCK
  8
LAYER_1
  2
AIGNBL01020032
 70
64
 10
0
 20
0
 30
0
  3
AIGNBL01020032
  0
POLYLINE
  8
LAYER_1
 40
0.4127
 41
0.4127
 66
1
 10
0
 20
0
 30
0
  0
VERTEX
  8
LAYER_1
 10
194.6977
 20
107.2775
 42
0.4145489706
  0
VERTEX
  8
LAYER_1
 10
195.0832
 20
107.663
 42
0.4141180571
  0
VERTEX
  8
LAYER_1
 10
194.6977
 20
108.0484
  0
SEQEND
  0
ENDBLK
  0
BLOCK
  8
LAYER_1
  2
AIGNBL01020033
 70
64
 10
0
 20
0
 30
0
  3
AIGNBL01020033
  0
POLYLINE
  8
LAYER_1
 40
0.4127
 41
0.4127
 66
1
 10
0
 20
0
 30
0
  0
VERTEX
  8
LAYER_1
 10
194.008
 20
108.0483
 42
0.4144680976
  0
VERTEX
  8
LAYER_1
 10
193.6226
 20
107.6629
 42
0.4141080333
  0
VERTEX
  8
LAYER_1
 10
194.008
 20
107.2774
  0
SEQEND
  0
ENDBLK
  0
BLOCK
  8
LAYER_1
  2
AIGNBL01020034
 70
64
 10
0
 20
0
 30
0
  3
AIGNBL01020034
  0
POLYLINE
  8
LAYER_1
 40
0.1764
 41
0.1764
 66
1
 10
0
 20
0
 30
0
  0
VERTEX
  8
LAYER_1
 10
80.7624
 20
159.2249
 42
0.4142125572
  0
VERTEX
  8
LAYER_1
 10
78.511
 20
161.4763
 42
0.4141746677
  0
VERTEX
  8
LAYER_1
 10
76.2592
 20
159.2249
 42
0.4141727385
  0
VERTEX
  8
LAYER_1
 10
78.511
 20
156.9735
 42
0.4142106277
  0
VERTEX
  8
LAYER_1
 10
80.7624
 20
159.2249
  0
SEQEND
  0
ENDBLK
  0
BLOCK
  8
LAYER_2
  2
AIGNBL02020004
 70
64
 10
0
 20
0
 30
0
  3
AIGNBL02020004
  0
POLYLINE
  8
LAYER_2
 40
0.05
 41
0.05
 66
1
 10
0
 20
0
 30
0
  0
VERTEX
  8
LAYER_2
 10
-1.196
 20
217.6012
 42
-0.07434374488
  0
VERTEX
  8
LAYER_2
 10
-1.3046
 20
216.4751
 42
-0.1312981164
  0
VERTEX
  8
LAYER_2
 10
-1.5732
 20
216.0054
 42
-0.208619006
  0
VERTEX
  8
LAYER_2
 10
-2.3408
 20
215.7164
 42
-0.1980855618
  0
VERTEX
  8
LAYER_2
 10
-3.0956
 20
216.0054
 42
-0.1359059684
  0
VERTEX
  8
LAYER_2
 10
-3.3746
 20
216.5106
 42
-0.06699191066
  0
VERTEX
  8
LAYER_2
 10
-3.4732
 20
217.6012
 42
-0.07470238595
  0
VERTEX
  8
LAYER_2
 10
-3.3644
 20
218.7157
 42
-0.1310826725
  0
VERTEX
  8
LAYER_2
 10
-3.0956
 20
219.1845
 42
-0.2061520596
  0
VERTEX
  8
LAYER_2
 10
-2.3408
 20
219.4732
 42
-0.1977437771
  0
VERTEX
  8
LAYER_2
 10
-1.5732
 20
219.1845
 42
-0.1358673357
  0
VERTEX
  8
LAYER_2
 10
-1.2943
 20
218.6804
 42
-0.06720044206
  0
VERTEX
  8
LAYER_2
 10
-1.196
 20
217.6012
  0
SEQEND
  0
POLYLINE
  8
LAYER_2
 40
0.05
 41
0.05
 66
1
 10
0
 20
0
 30
0
  0
VERTEX
  8
LAYER_2
 10
0.4394
 20
217.6012
 42
0.0577585355
  0
VERTEX
  8
LAYER_2
 10
0.3194
 20
218.9609
 42
0.1358747382
  0
VERTEX
  8
LAYER_2
 10
-0.303
 20
220.1395
 42
0.1777268905
  0
VERTEX
  8
LAYER_2
 10
-1.8892
 20
220.9154
 42
0.03495822391
  0
VERTEX
  8
LAYER_2
 10
-2.3408
 20
220.9436
 42
0.07961804251
  0
VERTEX
  8
LAYER_2
 10
-3.315
 20
220.7962
 42
0.1217450219
  0
VERTEX
  8
LAYER_2
 10
-4.3662
 20
220.1395
 42
0.09150776818
  0
VERTEX
  8
LAYER_2
 10
-4.8465
 20
219.4067
 42
0.07735978812
  0
VERTEX
  8
LAYER_2
 10
-5.0776
 20
218.3847
 42
0.03281807239
  0
VERTEX
  8
LAYER_2
 10
-5.1082
 20
217.6012
 42
0.05725233541
  0
VERTEX
  8
LAYER_2
 10
-4.9885
 20
216.2362
 42
0.1359864428
  0
VERTEX
  8
LAYER_2
 10
-4.3662
 20
215.0504
 42
0.175204158
  0
VERTEX
  8
LAYER_2
 10
-2.7508
 20
214.2702
 42
0.03231924249
  0
VERTEX
  8
LAYER_2
 10
-2.3408
 20
214.2463
 42
0.07899302184
  0
VERTEX
  8
LAYER_2
 10
-1.3625
 20
214.3937
 42
0.1216861451
  0
VERTEX
  8
LAYER_2
 10
-0.303
 20
215.0504
 42
0.09340304456
  0
VERTEX
  8
LAYER_2
 10
0.1681
 20
215.7463
 42
0.0774645698
  0
VERTEX
  8
LAYER_2
 10
0.4017
 20
216.7223
 42
0.02212089617
  0
VERTEX
  8
LAYER_2
 10
0.4394
 20
217.6012
  0
SEQEND
  0
POLYLINE
  8
LAYER_2
 40
0.05
 41
0.05
 66
1
 10
0
 20
0
 30
0
  0
VERTEX
  8
LAYER_2
 10
-11.3166
 20
218.2044
  0
VERTEX
  8
LAYER_2
 10
-13.8074
 20
218.2044
 42
-0.1153546446
  0
VERTEX
  8
LAYER_2
 10
-13.6562
 20
218.9079
 42
-0.3007040875
  0
VERTEX
  8
LAYER_2
 10
-12.562
 20
219.5866
 42
-0.1235431447
  0
VERTEX
  8
LAYER_2
 10
-11.9621
 20
219.4464
 42
-0.1667603161
  0
VERTEX
  8
LAYER_2
 10
-11.4672
 20
218.9079
 42
-0.1143399212
  0
VERTEX
  8
LAYER_2
 10
-11.3166
 20
218.2044
  0
SEQEND
  0
POLYLINE
  8
LAYER_2
 40
0.05
 41
0.05
 66
1
 10
0
 20
0
 30
0
 70
1
  0
VERTEX
  8
LAYER_2
 10
-9.7064
 20
217.0861
  0
VERTEX
  8
LAYER_2
 10
-9.7064
 20
217.7772
 42
0.0677042249
  0
VERTEX
  8
LAYER_2
 10
-9.852
 20
218.9102
 42
0.07767771487
  0
VERTEX
  8
LAYER_2
 10
-10.2392
 20
219.7789
 42
0.1724975422
  0
VERTEX
  8
LAYER_2
 10
-11.5857
 20
220.7996
 42
0.07776532921
  0
VERTEX
  8
LAYER_2
 10
-12.562
 20
220.9436
 42
0.0796960513
  0
VERTEX
  8
LAYER_2
 10
-13.5247
 20
220.7966
 42
0.168887661
  0
VERTEX
  8
LAYER_2
 10
-14.846
 20
219.7874
 42
0.07658055294
  0
VERTEX
  8
LAYER_2
 10
-15.2466
 20
218.9066
 42
0.07097127065
  0
VERTEX
  8
LAYER_2
 10
-15.4177
 20
217.6012
 42
0.05685454964
  0
VERTEX
  8
LAYER_2
 10
-15.2934
 20
216.4004
 42
0.07540481703
  0
VERTEX
  8
LAYER_2
 10
-14.9492
 20
215.5069
 42
0.1774924504
  0
VERTEX
  8
LAYER_2
 10
-13.6777
 20
214.4527
 42
0.08958127581
  0
VERTEX
  8
LAYER_2
 10
-12.386
 20
214.2463
 42
0.07080596686
  0
VERTEX
  8
LAYER_2
 10
-11.2943
 20
214.3814
 42
0.08369033087
  0
VERTEX
  8
LAYER_2
 10
-10.4805
 20
214.7708
 42
0.04417423811
  0
VERTEX
  8
LAYER_2
 10
-9.8948
 20
215.2768
  0
VERTEX
  8
LAYER_2
 10
-10.8887
 20
216.2442
 42
-0.09875545259
  0
VERTEX
  8
LAYER_2
 10
-11.5612
 20
215.7667
 42
-0.1006814841
  0
VERTEX
  8
LAYER_2
 10
-12.3732
 20
215.6285
 42
-0.1070981108
  0
VERTEX
  8
LAYER_2
 10
-13.0555
 20
215.7638
 42
-0.2542521374
  0
VERTEX
  8
LAYER_2
 10
-13.7778
 20
216.7415
 42
-0.04997815034
  0
VERTEX
  8
LAYER_2
 10
-13.8074
 20
217.0861
  0
SEQEND
  0
POLYLINE
  8
LAYER_2
 40
0.05
 41
0.05
 66
1
 10
0
 20
0
 30
0
 70
1
  0
VERTEX
  8
LAYER_2
 10
-16.9018
 20
223.2773
  0
VERTEX
  8
LAYER_2
 10
-18.5517
 20
223.2773
  0
VERTEX
  8
LAYER_2
 10
-18.5517
 20
221.9454
  0
VERTEX
  8
LAYER_2
 10
-16.9018
 20
221.9454
  0
SEQEND
  0
POLYLINE
  8
LAYER_2
 40
0.05
 41
0.05
 66
1
 10
0
 20
0
 30
0
 70
1
  0
VERTEX
  8
LAYER_2
 10
-16.9146
 20
220.79
  0
VERTEX
  8
LAYER_2
 10
-18.5499
 20
220.79
  0
VERTEX
  8
LAYER_2
 10
-18.5499
 20
214.3218
  0
VERTEX
  8
LAYER_2
 10
-16.9146
 20
214.3218
  0
SEQEND
  0
POLYLINE
  8
LAYER_2
 40
0.05
 41
0.05
 66
1
 10
0
 20
0
 30
0
  0
VERTEX
  8
LAYER_2
 10
-19.8205
 20
215.1386
  0
VERTEX
  8
LAYER_2
 10
-20.9274
 20
216.2317
 42
-0.1123773458
  0
VERTEX
  8
LAYER_2
 10
-21.5025
 20
215.8017
 42
-0.09517045223
  0
VERTEX
  8
LAYER_2
 10
-21.984
 20
215.7164
 42
-0.2295666259
  0
VERTEX
  8
LAYER_2
 10
-22.9149
 20
216.1436
 42
-0.1146247369
  0
VERTEX
  8
LAYER_2
 10
-23.2025
 20
216.7765
 42
-0.05302023055
  0
VERTEX
  8
LAYER_2
 10
-23.2797
 20
217.6012
 42
-0.07909887362
  0
VERTEX
  8
LAYER_2
 10
-23.1547
 20
218.5928
 42
-0.092262399
  0
VERTEX
  8
LAYER_2
 10
-22.9149
 20
219.0461
 42
-0.2338488836
  0
VERTEX
  8
LAYER_2
 10
-21.984
 20
219.4732
 42
-0.128883052
  0
VERTEX
  8
LAYER_2
 10
-21.3835
 20
219.3322
 42
-0.07812769659
  0
VERTEX
  8
LAYER_2
 10
-20.9274
 20
218.9585
  0
VERTEX
  8
LAYER_2
 10
-19.8205
 20
220.0637
 42
0.170273791
  0
VERTEX
  8
LAYER_2
 10
-21.4399
 20
220.9062
 42
0.04126809408
  0
VERTEX
  8
LAYER_2
 10
-21.984
 20
220.9436
 42
0.07342899762
  0
VERTEX
  8
LAYER_2
 10
-22.9625
 20
220.804
 42
0.1715306153
  0
VERTEX
  8
LAYER_2
 10
-24.3547
 20
219.7917
 42
0.07792315428
  0
VERTEX
  8
LAYER_2
 10
-24.7438
 20
218.9398
 42
0.07121572719
  0
VERTEX
  8
LAYER_2
 10
-24.9151
 20
217.6012
 42
0.06071119945
  0
VERTEX
  8
LAYER_2
 10
-24.7811
 20
216.4004
 42
0.07599045696
  0
VERTEX
  8
LAYER_2
 10
-24.4186
 20
215.5069
 42
0.1707838222
  0
VERTEX
  8
LAYER_2
 10
-23.1195
 20
214.4409
 42
0.08917342928
  0
VERTEX
  8
LAYER_2
 10
-21.984
 20
214.2463
 42
0.07667723183
  0
VERTEX
  8
LAYER_2
 10
-21.0013
 20
214.3855
 42
0.1303789466
  0
VERTEX
  8
LAYER_2
 10
-19.8205
 20
215.1386
  0
SEQEND
  0
ENDBLK
  0
BLOCK
  8
LAYER_2
  2
AIGNBL02020005
 70
64
 10
0
 20
0
 30
0
  3
AIGNBL02020005
  0
POLYLINE
  8
LAYER_2
 40
0.05
 41
0.05
 66
1
 10
0
 20
0
 30
0
 70
1
  0
VERTEX
  8
LAYER_2
 10
0.3288
 20
212.6805
  0
VERTEX
  8
LAYER_2
 10
0.0009
 20
212.6805
  0
VERTEX
  8
LAYER_2
 10
-0.2479
 20
211.9109
  0
VERTEX
  8
LAYER_2
 10
-0.5066
 20
212.6805
  0
VERTEX
  8
LAYER_2
 10
-0.8342
 20
212.6805
  0
VERTEX
  8
LAYER_2
 10
-0.4084
 20
211.5234
  0
VERTEX
  8
LAYER_2
 10
-0.4611
 20
211.3704
 42
-0.396721792
  0
VERTEX
  8
LAYER_2
 10
-0.6165
 20
211.2581
  0
VERTEX
  8
LAYER_2
 10
-0.6882
 20
211.2581
  0
VERTEX
  8
LAYER_2
 10
-0.6882
 20
210.9783
  0
VERTEX
  8
LAYER_2
 10
-0.5662
 20
210.9783
 42
0.2067482179
  0
VERTEX
  8
LAYER_2
 10
-0.2985
 20
211.0741
  0
VERTEX
  8
LAYER_2
 10
-0.2048
 20
211.2343
  0
SEQEND
  0
POLYLINE
  8
LAYER_2
 40
0.05
 41
0.05
 66
1
 10
0
 20
0
 30
0
 70
1
  0
VERTEX
  8
LAYER_2
 10
-0.8704
 20
211.4352
  0
VERTEX
  8
LAYER_2
 10
-0.8704
 20
211.6977
  0
VERTEX
  8
LAYER_2
 10
-0.9899
 20
211.6977
 42
-0.4758158184
  0
VERTEX
  8
LAYER_2
 10
-1.0998
 20
211.8103
  0
VERTEX
  8
LAYER_2
 10
-1.0998
 20
213.137
  0
VERTEX
  8
LAYER_2
 10
-1.4109
 20
213.137
  0
VERTEX
  8
LAYER_2
 10
-1.4109
 20
211.7914
 42
0.4199153803
  0
VERTEX
  8
LAYER_2
 10
-1.0475
 20
211.4352
  0
SEQEND
  0
POLYLINE
  8
LAYER_2
 40
0.05
 41
0.05
 66
1
 10
0
 20
0
 30
0
 70
1
  0
VERTEX
  8
LAYER_2
 10
-1.9739
 20
211.894
 42
-0.2612643935
  0
VERTEX
  8
LAYER_2
 10
-2.0214
 20
211.7363
 42
-0.1972145384
  0
VERTEX
  8
LAYER_2
 10
-2.2057
 20
211.6763
 42
-0.4351815088
  0
VERTEX
  8
LAYER_2
 10
-2.3949
 20
211.8175
 42
-0.4650020324
  0
VERTEX
  8
LAYER_2
 10
-2.2105
 20
211.9609
  0
VERTEX
  8
LAYER_2
 10
-1.9739
 20
211.9609
  0
SEQEND
  0
POLYLINE
  8
LAYER_2
 40
0.05
 41
0.05
 66
1
 10
0
 20
0
 30
0
 70
1
  0
VERTEX
  8
LAYER_2
 10
-1.6624
 20
211.4352
  0
VERTEX
  8
LAYER_2
 10
-1.6624
 20
212.2551
 42
0.2205564812
  0
VERTEX
  8
LAYER_2
 10
-1.7881
 20
212.5772
 42
0.1806009816
  0
VERTEX
  8
LAYER_2
 10
-2.194
 20
212.6947
 42
0.2375604919
  0
VERTEX
  8
LAYER_2
 10
-2.6412
 20
212.5179
  0
VERTEX
  8
LAYER_2
 10
-2.4452
 20
212.3243
 42
-0.2464065653
  0
VERTEX
  8
LAYER_2
 10
-2.2057
 20
212.4322
 42
-0.4684872669
  0
VERTEX
  8
LAYER_2
 10
-1.9739
 20
212.2358
  0
VERTEX
  8
LAYER_2
 10
-1.9739
 20
212.1738
  0
VERTEX
  8
LAYER_2
 10
-2.2633
 20
212.1738
 42
0.2103132122
  0
VERTEX
  8
LAYER_2
 10
-2.6081
 20
212.0486
 42
0.18506809
  0
VERTEX
  8
LAYER_2
 10
-2.6942
 20
211.8127
 42
0.1945609364
  0
VERTEX
  8
LAYER_2
 10
-2.5912
 20
211.533
 42
0.1980708175
  0
VERTEX
  8
LAYER_2
 10
-2.2729
 20
211.4228
 42
0.2246292991
  0
VERTEX
  8
LAYER_2
 10
-1.9663
 20
211.5426
  0
VERTEX
  8
LAYER_2
 10
-1.9663
 20
211.4352
  0
SEQEND
  0
POLYLINE
  8
LAYER_2
 40
0.05
 41
0.05
 66
1
 10
0
 20
0
 30
0
 70
1
  0
VERTEX
  8
LAYER_2
 10
-2.8758
 20
211.4352
  0
VERTEX
  8
LAYER_2
 10
-2.8758
 20
211.6977
  0
VERTEX
  8
LAYER_2
 10
-2.9884
 20
211.6977
 42
-0.496954413
  0
VERTEX
  8
LAYER_2
 10
-3.0963
 20
211.8103
  0
VERTEX
  8
LAYER_2
 10
-3.0963
 20
212.4081
  0
VERTEX
  8
LAYER_2
 10
-2.8758
 20
212.4081
  0
VERTEX
  8
LAYER_2
 10
-2.8758
 20
212.6444
  0
VERTEX
  8
LAYER_2
 10
-3.0963
 20
212.6444
  0
VERTEX
  8
LAYER_2
 10
-3.0963
 20
213.0126
  0
VERTEX
  8
LAYER_2
 10
-3.407
 20
213.0126
  0
VERTEX
  8
LAYER_2
 10
-3.407
 20
212.6444
  0
VERTEX
  8
LAYER_2
 10
-3.539
 20
212.6444
  0
VERTEX
  8
LAYER_2
 10
-3.539
 20
212.4081
  0
VERTEX
  8
LAYER_2
 10
-3.407
 20
212.4081
  0
VERTEX
  8
LAYER_2
 10
-3.407
 20
211.7914
 42
0.4187763975
  0
VERTEX
  8
LAYER_2
 10
-3.0456
 20
211.4352
  0
SEQEND
  0
POLYLINE
  8
LAYER_2
 40
0.05
 41
0.05
 66
1
 10
0
 20
0
 30
0
 70
1
  0
VERTEX
  8
LAYER_2
 10
-3.8091
 20
213.137
  0
VERTEX
  8
LAYER_2
 10
-4.1419
 20
213.137
  0
VERTEX
  8
LAYER_2
 10
-4.1419
 20
211.4352
  0
VERTEX
  8
LAYER_2
 10
-3.8091
 20
211.4352
  0
SEQEND
  0
POLYLINE
  8
LAYER_2
 40
0.05
 41
0.05
 66
1
 10
0
 20
0
 30
0
 70
1
  0
VERTEX
  8
LAYER_2
 10
-5.0562
 20
211.4352
  0
VERTEX
  8
LAYER_2
 10
-5.0562
 20
212.231
 42
0.2135728393
  0
VERTEX
  8
LAYER_2
 10
-5.183
 20
212.5844
 42
0.1976836271
  0
VERTEX
  8
LAYER_2
 10
-5.4775
 20
212.6947
 42
0.2038428178
  0
VERTEX
  8
LAYER_2
 10
-5.7886
 20
212.5658
  0
VERTEX
  8
LAYER_2
 10
-5.7886
 20
212.6805
  0
VERTEX
  8
LAYER_2
 10
-6.0925
 20
212.6805
  0
VERTEX
  8
LAYER_2
 10
-6.0925
 20
211.4352
  0
VERTEX
  8
LAYER_2
 10
-5.7814
 20
211.4352
  0
VERTEX
  8
LAYER_2
 10
-5.7814
 20
212.1882
 42
-0.4265123439
  0
VERTEX
  8
LAYER_2
 10
-5.573
 20
212.4149
 42
-0.4361688158
  0
VERTEX
  8
LAYER_2
 10
-5.3673
 20
212.1882
  0
VERTEX
  8
LAYER_2
 10
-5.3673
 20
211.4352
  0
SEQEND
  0
POLYLINE
  8
LAYER_2
 40
0.05
 41
0.05
 66
1
 10
0
 20
0
 30
0
 70
1
  0
VERTEX
  8
LAYER_2
 10
-6.437
 20
213.1467
  0
VERTEX
  8
LAYER_2
 10
-6.7553
 20
213.1467
  0
VERTEX
  8
LAYER_2
 10
-6.7553
 20
212.8931
  0
VERTEX
  8
LAYER_2
 10
-6.437
 20
212.8931
  0
SEQEND
  0
POLYLINE
  8
LAYER_2
 40
0.05
 41
0.05
 66
1
 10
0
 20
0
 30
0
 70
1
  0
VERTEX
  8
LAYER_2
 10
-6.4394
 20
212.6444
  0
VERTEX
  8
LAYER_2
 10
-6.7508
 20
212.6444
  0
VERTEX
  8
LAYER_2
 10
-6.7508
 20
211.4352
  0
VERTEX
  8
LAYER_2
 10
-6.4394
 20
211.4352
  0
SEQEND
  0
POLYLINE
  8
LAYER_2
 40
0.05
 41
0.05
 66
1
 10
0
 20
0
 30
0
  0
VERTEX
  8
LAYER_2
 10
-7.8994
 20
212.1738
  0
VERTEX
  8
LAYER_2
 10
-8.3735
 20
212.1738
  0
VERTEX
  8
LAYER_2
 10
-8.3445
 20
212.3074
 42
-0.3006254692
  0
VERTEX
  8
LAYER_2
 10
-8.1365
 20
212.4363
 42
-0.3004502708
  0
VERTEX
  8
LAYER_2
 10
-7.9284
 20
212.3074
  0
VERTEX
  8
LAYER_2
 10
-7.8994
 20
212.1738
  0
SEQEND
  0
POLYLINE
  8
LAYER_2
 40
0.05
 41
0.05
 66
1
 10
0
 20
0
 30
0
 70
1
  0
VERTEX
  8
LAYER_2
 10
-7.5932
 20
211.9609
  0
VERTEX
  8
LAYER_2
 10
-7.5932
 20
212.0925
 42
0.1727949422
  0
VERTEX
  8
LAYER_2
 10
-7.7261
 20
212.5161
 42
0.2293242446
  0
VERTEX
  8
LAYER_2
 10
-8.1365
 20
212.6947
 42
0.4082688927
  0
VERTEX
  8
LAYER_2
 10
-8.6757
 20
212.151
 42
0.02665393029
  0
VERTEX
  8
LAYER_2
 10
-8.6797
 20
212.0591
 42
0.1685110564
  0
VERTEX
  8
LAYER_2
 10
-8.5537
 20
211.6061
 42
0.2404561047
  0
VERTEX
  8
LAYER_2
 10
-8.103
 20
211.4207
 42
0.2250390665
  0
VERTEX
  8
LAYER_2
 10
-7.629
 20
211.6167
  0
VERTEX
  8
LAYER_2
 10
-7.8181
 20
211.801
 42
-0.2242451699
  0
VERTEX
  8
LAYER_2
 10
-8.1003
 20
211.6839
 42
-0.4312737558
  0
VERTEX
  8
LAYER_2
 10
-8.3735
 20
211.9609
  0
SEQEND
  0
POLYLINE
  8
LAYER_2
 40
0.05
 41
0.05
 66
1
 10
0
 20
0
 30
0
  0
VERTEX
  8
LAYER_2
 10
-9.2778
 20
212.0591
 42
-0.253040373
  0
VERTEX
  8
LAYER_2
 10
-9.3737
 20
211.7317
 42
-0.1751487426
  0
VERTEX
  8
LAYER_2
 10
-9.4911
 20
211.7004
 42
-0.3550784466
  0
VERTEX
  8
LAYER_2
 10
-9.6774
 20
211.8331
 42
-0.1590539016
  0
VERTEX
  8
LAYER_2
 10
-9.7016
 20
212.0591
 42
-0.2613372193
  0
VERTEX
  8
LAYER_2
 10
-9.6054
 20
212.3859
 42
-0.1728730088
  0
VERTEX
  8
LAYER_2
 10
-9.4911
 20
212.4149
 42
-0.3508351005
  0
VERTEX
  8
LAYER_2
 10
-9.3031
 20
212.2839
 42
-0.1617280931
  0
VERTEX
  8
LAYER_2
 10
-9.2778
 20
212.0591
  0
SEQEND
  0
POLYLINE
  8
LAYER_2
 40
0.05
 41
0.05
 66
1
 10
0
 20
0
 30
0
 70
1
  0
VERTEX
  8
LAYER_2
 10
-8.9667
 20
211.4352
  0
VERTEX
  8
LAYER_2
 10
-8.9667
 20
213.137
  0
VERTEX
  8
LAYER_2
 10
-9.2778
 20
213.137
  0
VERTEX
  8
LAYER_2
 10
-9.2778
 20
212.5707
 42
0.2263222596
  0
VERTEX
  8
LAYER_2
 10
-9.582
 20
212.6947
 42
0.2021447193
  0
VERTEX
  8
LAYER_2
 10
-9.8835
 20
212.5824
 42
0.1955994833
  0
VERTEX
  8
LAYER_2
 10
-10.0116
 20
212.1647
 42
0.01858076917
  0
VERTEX
  8
LAYER_2
 10
-10.013
 20
212.0591
 42
0.1992737425
  0
VERTEX
  8
LAYER_2
 10
-9.8835
 20
211.533
 42
0.1967798833
  0
VERTEX
  8
LAYER_2
 10
-9.5796
 20
211.4207
 42
0.2368398509
  0
VERTEX
  8
LAYER_2
 10
-9.2709
 20
211.5523
  0
VERTEX
  8
LAYER_2
 10
-9.2709
 20
211.4352
  0
SEQEND
  0
POLYLINE
  8
LAYER_2
 40
0.05
 41
0.05
 66
1
 10
0
 20
0
 30
0
 70
1
  0
VERTEX
  8
LAYER_2
 10
-10.6062
 20
211.894
 42
-0.2606176184
  0
VERTEX
  8
LAYER_2
 10
-10.6541
 20
211.7363
 42
-0.1975146001
  0
VERTEX
  8
LAYER_2
 10
-10.8384
 20
211.6763
 42
-0.4358674545
  0
VERTEX
  8
LAYER_2
 10
-11.0272
 20
211.8175
 42
-0.4654392595
  0
VERTEX
  8
LAYER_2
 10
-10.8433
 20
211.9609
  0
VERTEX
  8
LAYER_2
 10
-10.6062
 20
211.9609
  0
SEQEND
  0
POLYLINE
  8
LAYER_2
 40
0.05
 41
0.05
 66
1
 10
0
 20
0
 30
0
 70
1
  0
VERTEX
  8
LAYER_2
 10
-10.2951
 20
211.4352
  0
VERTEX
  8
LAYER_2
 10
-10.2951
 20
212.2551
 42
0.2204713638
  0
VERTEX
  8
LAYER_2
 10
-10.4207
 20
212.5772
 42
0.1806796456
  0
VERTEX
  8
LAYER_2
 10
-10.8267
 20
212.6947
 42
0.2375604919
  0
VERTEX
  8
LAYER_2
 10
-11.2739
 20
212.5179
  0
VERTEX
  8
LAYER_2
 10
-11.0779
 20
212.3243
 42
-0.2460763492
  0
VERTEX
  8
LAYER_2
 10
-10.8384
 20
212.4322
 42
-0.4683426501
  0
VERTEX
  8
LAYER_2
 10
-10.6062
 20
212.2358
  0
VERTEX
  8
LAYER_2
 10
-10.6062
 20
212.1738
  0
VERTEX
  8
LAYER_2
 10
-10.896
 20
212.1738
 42
0.2105830771
  0
VERTEX
  8
LAYER_2
 10
-11.2407
 20
212.0486
 42
0.1847749138
  0
VERTEX
  8
LAYER_2
 10
-11.3266
 20
211.8127
 42
0.1946881207
  0
VERTEX
  8
LAYER_2
 10
-11.2239
 20
211.533
 42
0.1984095291
  0
VERTEX
  8
LAYER_2
 10
-10.9053
 20
211.4228
 42
0.2251045156
  0
VERTEX
  8
LAYER_2
 10
-10.599
 20
211.5426
  0
VERTEX
  8
LAYER_2
 10
-10.599
 20
211.4352
  0
SEQEND
  0
POLYLINE
  8
LAYER_2
 40
0.05
 41
0.05
 66
1
 10
0
 20
0
 30
0
 70
1
  0
VERTEX
  8
LAYER_2
 10
-11.5733
 20
211.4352
  0
VERTEX
  8
LAYER_2
 10
-11.5733
 20
212.231
 42
0.2096424971
  0
VERTEX
  8
LAYER_2
 10
-11.7097
 20
212.5844
 42
0.1904514856
  0
VERTEX
  8
LAYER_2
 10
-12.016
 20
212.6947
 42
0.2238328308
  0
VERTEX
  8
LAYER_2
 10
-12.3894
 20
212.5369
 42
0.2475119635
  0
VERTEX
  8
LAYER_2
 10
-12.7198
 20
212.6947
 42
0.1995172237
  0
VERTEX
  8
LAYER_2
 10
-13.0309
 20
212.5658
  0
VERTEX
  8
LAYER_2
 10
-13.0309
 20
212.6805
  0
VERTEX
  8
LAYER_2
 10
-13.3348
 20
212.6805
  0
VERTEX
  8
LAYER_2
 10
-13.3348
 20
211.4352
  0
VERTEX
  8
LAYER_2
 10
-13.0233
 20
211.4352
  0
VERTEX
  8
LAYER_2
 10
-13.0233
 20
212.1882
 42
-0.4265481482
  0
VERTEX
  8
LAYER_2
 10
-12.8153
 20
212.4149
 42
-0.4361688158
  0
VERTEX
  8
LAYER_2
 10
-12.6096
 20
212.1882
  0
VERTEX
  8
LAYER_2
 10
-12.6096
 20
211.4352
  0
VERTEX
  8
LAYER_2
 10
-12.2985
 20
211.4352
  0
VERTEX
  8
LAYER_2
 10
-12.2985
 20
212.1951
 42
-0.4236814191
  0
VERTEX
  8
LAYER_2
 10
-12.0904
 20
212.4149
 42
-0.4367319455
  0
VERTEX
  8
LAYER_2
 10
-11.8844
 20
212.1882
  0
VERTEX
  8
LAYER_2
 10
-11.8844
 20
211.4352
  0
SEQEND
  0
POLYLINE
  8
LAYER_2
 40
0.05
 41
0.05
 66
1
 10
0
 20
0
 30
0
  0
VERTEX
  8
LAYER_2
 10
-13.8973
 20
212.0229
 42
-0.2061577285
  0
VERTEX
  8
LAYER_2
 10
-14.0003
 20
211.6401
 42
-0.1860547104
  0
VERTEX
  8
LAYER_2
 10
-14.1915
 20
211.5736
 42
-0.2912351062
  0
VERTEX
  8
LAYER_2
 10
-14.4327
 20
211.7044
 42
-0.1074256356
  0
VERTEX
  8
LAYER_2
 10
-14.4882
 20
212.0229
 42
-0.2074793493
  0
VERTEX
  8
LAYER_2
 10
-14.3843
 20
212.406
 42
-0.1847812498
  0
VERTEX
  8
LAYER_2
 10
-14.1915
 20
212.4725
 42
-0.2924886932
  0
VERTEX
  8
LAYER_2
 10
-13.9523
 20
212.3416
 42
-0.1065173685
  0
VERTEX
  8
LAYER_2
 10
-13.8973
 20
212.0229
  0
SEQEND
  0
POLYLINE
  8
LAYER_2
 40
0.05
 41
0.05
 66
1
 10
0
 20
0
 30
0
 70
1
  0
VERTEX
  8
LAYER_2
 10
-13.7247
 20
211.4352
  0
VERTEX
  8
LAYER_2
 10
-13.7247
 20
213.137
  0
VERTEX
  8
LAYER_2
 10
-13.8973
 20
213.137
  0
VERTEX
  8
LAYER_2
 10
-13.8973
 20
212.4749
 42
0.2526586678
  0
VERTEX
  8
LAYER_2
 10
-14.2298
 20
212.6258
 42
0.19617536
  0
VERTEX
  8
LAYER_2
 10
-14.5171
 20
212.5224
 42
0.2062736322
  0
VERTEX
  8
LAYER_2
 10
-14.6608
 20
212.0229
 42
0.1925049638
  0
VERTEX
  8
LAYER_2
 10
-14.5171
 20
211.5234
 42
0.1893263809
  0
VERTEX
  8
LAYER_2
 10
-14.2298
 20
211.4207
 42
0.2549957718
  0
VERTEX
  8
LAYER_2
 10
-13.8949
 20
211.5761
  0
VERTEX
  8
LAYER_2
 10
-13.8949
 20
211.4352
  0
SEQEND
  0
POLYLINE
  8
LAYER_2
 40
0.05
 41
0.05
 66
1
 10
0
 20
0
 30
0
 70
1
  0
VERTEX
  8
LAYER_2
 10
-15.0173
 20
211.4352
  0
VERTEX
  8
LAYER_2
 10
-15.0173
 20
212.1882
 42
0.2089360908
  0
VERTEX
  8
LAYER_2
 10
-15.1393
 20
212.5156
 42
0.1977212202
  0
VERTEX
  8
LAYER_2
 10
-15.4411
 20
212.6258
 42
0.2189458741
  0
VERTEX
  8
LAYER_2
 10
-15.7711
 20
212.4818
  0
VERTEX
  8
LAYER_2
 10
-15.7711
 20
212.6113
  0
VERTEX
  8
LAYER_2
 10
-15.9434
 20
212.6113
  0
VERTEX
  8
LAYER_2
 10
-15.9434
 20
211.4352
  0
VERTEX
  8
LAYER_2
 10
-15.7711
 20
211.4352
  0
VERTEX
  8
LAYER_2
 10
-15.7711
 20
212.1593
 42
-0.4284576329
  0
VERTEX
  8
LAYER_2
 10
-15.479
 20
212.4725
 42
-0.4466039224
  0
VERTEX
  8
LAYER_2
 10
-15.1896
 20
212.1593
  0
VERTEX
  8
LAYER_2
 10
-15.1896
 20
211.4352
  0
SEQEND
  0
POLYLINE
  8
LAYER_2
 40
0.05
 41
0.05
 66
1
 10
0
 20
0
 30
0
 70
1
  0
VERTEX
  8
LAYER_2
 10
-16.5346
 20
211.8506
 42
-0.2283736068
  0
VERTEX
  8
LAYER_2
 10
-16.5945
 20
211.6477
 42
-0.1936527339
  0
VERTEX
  8
LAYER_2
 10
-16.8553
 20
211.5688
 42
-0.4421173513
  0
VERTEX
  8
LAYER_2
 10
-17.1281
 20
211.77
 42
-0.3470924647
  0
VERTEX
  8
LAYER_2
 10
-16.9968
 20
211.9592
 42
-0.1261120874
  0
VERTEX
  8
LAYER_2
 10
-16.8625
 20
211.9774
  0
VERTEX
  8
LAYER_2
 10
-16.5346
 20
211.9774
  0
SEQEND
  0
POLYLINE
  8
LAYER_2
 40
0.05
 41
0.05
 66
1
 10
0
 20
0
 30
0
 70
1
  0
VERTEX
  8
LAYER_2
 10
-16.362
 20
211.4352
  0
VERTEX
  8
LAYER_2
 10
-16.362
 20
212.233
 42
0.2383829599
  0
VERTEX
  8
LAYER_2
 10
-16.4898
 20
212.5337
 42
0.1599209503
  0
VERTEX
  8
LAYER_2
 10
-16.8336
 20
212.6258
 42
0.2578644009
  0
VERTEX
  8
LAYER_2
 10
-17.2501
 20
212.4487
  0
VERTEX
  8
LAYER_2
 10
-17.133
 20
212.3409
 42
-0.2730960706
  0
VERTEX
  8
LAYER_2
 10
-16.8364
 20
212.4776
 42
-0.4521672334
  0
VERTEX
  8
LAYER_2
 10
-16.5346
 20
212.2193
  0
VERTEX
  8
LAYER_2
 10
-16.5346
 20
212.1066
  0
VERTEX
  8
LAYER_2
 10
-16.8863
 20
212.1066
 42
0.2189203862
  0
VERTEX
  8
LAYER_2
 10
-17.2226
 20
211.9822
 42
0.17494127
  0
VERTEX
  8
LAYER_2
 10
-17.2956
 20
211.7673
 42
0.2075768001
  0
VERTEX
  8
LAYER_2
 10
-17.2071
 20
211.5282
 42
0.2128603639
  0
VERTEX
  8
LAYER_2
 10
-16.8742
 20
211.4207
 42
0.2247839487
  0
VERTEX
  8
LAYER_2
 10
-16.5346
 20
211.5471
  0
VERTEX
  8
LAYER_2
 10
-16.5346
 20
211.4352
  0
SEQEND
  0
POLYLINE
  8
LAYER_2
 40
0.05
 41
0.05
 66
1
 10
0
 20
0
 30
0
 70
1
  0
VERTEX
  8
LAYER_2
 10
-17.6211
 20
211.4352
  0
VERTEX
  8
LAYER_2
 10
-17.6211
 20
212.1903
 42
0.4657729105
  0
VERTEX
  8
LAYER_2
 10
-18.0449
 20
212.6258
 42
0.2190712165
  0
VERTEX
  8
LAYER_2
 10
-18.3749
 20
212.4818
  0
VERTEX
  8
LAYER_2
 10
-18.3749
 20
213.137
  0
VERTEX
  8
LAYER_2
 10
-18.5475
 20
213.137
  0
VERTEX
  8
LAYER_2
 10
-18.5475
 20
211.4352
  0
VERTEX
  8
LAYER_2
 10
-18.3749
 20
211.4352
  0
VERTEX
  8
LAYER_2
 10
-18.3749
 20
212.1617
 42
-0.4350388577
  0
VERTEX
  8
LAYER_2
 10
-18.0807
 20
212.4725
 42
-0.4517618327
  0
VERTEX
  8
LAYER_2
 10
-17.7934
 20
212.1617
  0
VERTEX
  8
LAYER_2
 10
-17.7934
 20
211.4352
  0
SEQEND
  0
ENDBLK
  0
BLOCK
  8
LAYER_2
  2
AIGNBL02020007
 70
64
 10
0
 20
0
 30
0
  3
AIGNBL02020007
  0
INSERT
  8
LAYER_2
  2
AIGNBL02030008
 10
0
 20
0
 30
0
  0
ENDBLK
  0
BLOCK
  8
LAYER_2
  2
AIGNBL02020010
 70
64
 10
0
 20
0
 30
0
  3
AIGNBL02020010
  0
INSERT
  8
LAYER_2
  2
AIGNBL02030011
 10
0
 20
0
 30
0
  0
INSERT
  8
LAYER_2
  2
AIGNBL02030012
 10
0
 20
0
 30
0
  0
INSERT
  8
LAYER_2
  2
AIGNBL02030013
 10
0
 20
0
 30
0
  0
INSERT
  8
LAYER_2
  2
AIGNBL02030014
 10
0
 20
0
 30
0
  0
INSERT
  8
LAYER_2
  2
AIGNBL02030015
 10
0
 20
0
 30
0
  0
INSERT
  8
LAYER_2
  2
AIGNBL02030016
 10
0
 20
0
 30
0
  0
INSERT
  8
LAYER_2
  2
AIGNBL02030017
 10
0
 20
0
 30
0
  0
INSERT
  8
LAYER_2
  2
AIGNBL02030018
 10
0
 20
0
 30
0
  0
INSERT
  8
LAYER_2
  2
AIGNBL02030019
 10
0
 20
0
 30
0
  0
INSERT
  8
LAYER_2
  2
AIGNBL0203001A
 10
0
 20
0
 30
0
  0
INSERT
  8
LAYER_2
  2
AIGNBL0203001B
 10
0
 20
0
 30
0
  0
INSERT
  8
LAYER_2
  2
AIGNBL0203001C
 10
0
 20
0
 30
0
  0
INSERT
  8
LAYER_2
  2
AIGNBL0203001D
 10
0
 20
0
 30
0
  0
INSERT
  8
LAYER_2
  2
AIGNBL0203001E
 10
0
 20
0
 30
0
  0
INSERT
  8
LAYER_2
  2
AIGNBL0203001F
 10
0
 20
0
 30
0
  0
INSERT
  8
LAYER_2
  2
AIGNBL02030020
 10
0
 20
0
 30
0
  0
INSERT
  8
LAYER_2
  2
AIGNBL02030021
 10
0
 20
0
 30
0
  0
INSERT
  8
LAYER_2
  2
AIGNBL02030022
 10
0
 20
0
 30
0
  0
INSERT
  8
LAYER_2
  2
AIGNBL02030023
 10
0
 20
0
 30
0
  0
INSERT
  8
LAYER_2
  2
AIGNBL02030024
 10
0
 20
0
 30
0
  0
INSERT
  8
LAYER_2
  2
AIGNBL02030025
 10
0
 20
0
 30
0
  0
INSERT
  8
LAYER_2
  2
AIGNBL02030026
 10
0
 20
0
 30
0
  0
INSERT
  8
LAYER_2
  2
AIGNBL02030027
 10
0
 20
0
 30
0
  0
ENDBLK
  0
BLOCK
  8
LAYER_1
  2
AIGNBL01010002
 70
64
 10
0
 20
0
 30
0
  3
AIGNBL01010002
  0
INSERT
  8
LAYER_1
  2
AIGNBL01020003
 10
0
 20
0
 30
0
  0
INSERT
  8
LAYER_1
  2
AIGNBL01020004
 10
0
 20
0
 30
0
  0
POLYLINE
  8
LAYER_1
 40
0.1764
 41
0.1764
 62
252
 66
1
 10
0
 20
0
 30
0
  0
VERTEX
  8
LAYER_1
 10
374.7872
 20
38.7738
  0
VERTEX
  8
LAYER_1
 10
340.7844
 20
38.7738
  0
VERTEX
  8
LAYER_1
 10
340.4317
 20
38.9214
  0
VERTEX
  8
LAYER_1
 10
340.2841
 20
39.274
  0
VERTEX
  8
LAYER_1
 10
340.2841
 20
68.2735
  0
VERTEX
  8
LAYER_1
 10
340.4317
 20
68.6302
  0
VERTEX
  8
LAYER_1
 10
340.7844
 20
68.7738
  0
VERTEX
  8
LAYER_1
 10
374.7872
 20
68.7738
  0
VERTEX
  8
LAYER_1
 10
375.14
 20
68.6302
  0
VERTEX
  8
LAYER_1
 10
375.2835
 20
68.2735
  0
VERTEX
  8
LAYER_1
 10
375.2835
 20
39.274
  0
VERTEX
  8
LAYER_1
 10
375.14
 20
38.9214
  0
VERTEX
  8
LAYER_1
 10
374.7872
 20
38.7738
  0
SEQEND
  0
POLYLINE
  8
LAYER_1
 40
0.1764
 41
0.1764
 66
1
 10
0
 20
0
 30
0
  0
VERTEX
  8
LAYER_1
 10
372.2241
 20
40.8366
  0
VERTEX
  8
LAYER_1
 10
343.3435
 20
40.8366
  0
VERTEX
  8
LAYER_1
 10
342.6381
 20
41.1277
  0
VERTEX
  8
LAYER_1
 10
342.3469
 20
41.8331
  0
VERTEX
  8
LAYER_1
 10
342.3469
 20
65.7144
  0
VERTEX
  8
LAYER_1
 10
342.6381
 20
66.4197
  0
VERTEX
  8
LAYER_1
 10
343.3435
 20
66.7152
  0
VERTEX
  8
LAYER_1
 10
372.2241
 20
66.7152
  0
VERTEX
  8
LAYER_1
 10
372.9295
 20
66.4197
  0
VERTEX
  8
LAYER_1
 10
373.2246
 20
65.7144
  0
VERTEX
  8
LAYER_1
 10
373.2246
 20
41.8331
  0
VERTEX
  8
LAYER_1
 10
372.9295
 20
41.1277
  0
VERTEX
  8
LAYER_1
 10
372.2241
 20
40.8366
  0
SEQEND
  0
POLYLINE
  8
LAYER_1
 40
0.1764
 41
0.1764
 62
252
 66
1
 10
0
 20
0
 30
0
  0
VERTEX
  8
LAYER_1
 10
335.2847
 20
79.7773
  0
VERTEX
  8
LAYER_1
 10
395.285
 20
79.7773
  0
VERTEX
  8
LAYER_1
 10
395.285
 20
34.2748
  0
VERTEX
  8
LAYER_1
 10
395.1414
 20
33.9179
  0
VERTEX
  8
LAYER_1
 10
394.7846
 20
33.7743
  0
VERTEX
  8
LAYER_1
 10
335.7851
 20
33.7743
  0
VERTEX
  8
LAYER_1
 10
335.4282
 20
33.9179
  0
VERTEX
  8
LAYER_1
 10
335.2847
 20
34.2748
  0
VERTEX
  8
LAYER_1
 10
335.2847
 20
79.7773
  0
SEQEND
  0
ENDBLK
  0
BLOCK
  8
LAYER_1
  2
AIGNBL01010005
 70
64
 10
0
 20
0
 30
0
  3
AIGNBL01010005
  0
POLYLINE
  8
LAYER_1
 40
0.1764
 41
0.1764
 62
252
 66
1
 10
0
 20
0
 30
0
  0
VERTEX
  8
LAYER_1
 10
453.6489
 20
-7.5615
  0
VERTEX
  8
LAYER_1
 10
454.8505
 20
-7.5655
  0
SEQEND
  0
POLYLINE
  8
LAYER_1
 40
0.1764
 41
0.1764
 62
252
 66
1
 10
0
 20
0
 30
0
  0
VERTEX
  8
LAYER_1
 10
477.5999
 20
-4.4814
  0
VERTEX
  8
LAYER_1
 10
477.5999
 20
10.4387
  0
VERTEX
  8
LAYER_1
 10
431.8961
 20
10.4387
  0
VERTEX
  8
LAYER_1
 10
431.7486
 20
10.3977
  0
VERTEX
  8
LAYER_1
 10
431.6378
 20
10.2869
  0
VERTEX
  8
LAYER_1
 10
431.5969
 20
10.1393
  0
VERTEX
  8
LAYER_1
 10
431.5969
 20
9.2371
  0
VERTEX
  8
LAYER_1
 10
431.6378
 20
9.0892
  0
VERTEX
  8
LAYER_1
 10
431.7486
 20
8.9787
  0
VERTEX
  8
LAYER_1
 10
431.8961
 20
8.9376
  0
VERTEX
  8
LAYER_1
 10
477.5999
 20
8.9376
  0
SEQEND
  0
POLYLINE
  8
LAYER_1
 40
0.1764
 41
0.1764
 62
252
 66
1
 10
0
 20
0
 30
0
  0
VERTEX
  8
LAYER_1
 10
477.5999
 20
-4.4814
  0
VERTEX
  8
LAYER_1
 10
461.9784
 20
-4.4814
  0
VERTEX
  8
LAYER_1
 10
451.2045
 20
-4.4897
  0
VERTEX
  8
LAYER_1
 10
438.1505
 20
-3.9318
  0
VERTEX
  8
LAYER_1
 10
437.9659
 20
-3.8581
  0
VERTEX
  8
LAYER_1
 10
437.8675
 20
-3.6816
  0
VERTEX
  8
LAYER_1
 10
435.6898
 20
8.6915
  0
SEQEND
  0
POLYLINE
  8
LAYER_1
 40
0.1764
 41
0.1764
 62
252
 66
1
 10
0
 20
0
 30
0
  0
VERTEX
  8
LAYER_1
 10
451.2045
 20
-4.4897
  0
VERTEX
  8
LAYER_1
 10
451.4098
 20
-4.5716
  0
VERTEX
  8
LAYER_1
 10
451.5244
 20
-4.7602
  0
VERTEX
  8
LAYER_1
 10
451.6844
 20
-6.532
  0
VERTEX
  8
LAYER_1
 10
451.7869
 20
-6.7167
  0
VERTEX
  8
LAYER_1
 10
451.9796
 20
-6.7864
  0
VERTEX
  8
LAYER_1
 10
456.5977
 20
-6.7864
  0
SEQEND
  0
POLYLINE
  8
LAYER_1
 40
0.1764
 41
0.1764
 62
252
 66
1
 10
0
 20
0
 30
0
  0
VERTEX
  8
LAYER_1
 10
461.9496
 20
-4.4857
  0
VERTEX
  8
LAYER_1
 10
461.7651
 20
-4.5716
  0
VERTEX
  8
LAYER_1
 10
461.6749
 20
-4.7602
  0
VERTEX
  8
LAYER_1
 10
461.5149
 20
-6.532
  0
VERTEX
  8
LAYER_1
 10
461.4125
 20
-6.7167
  0
VERTEX
  8
LAYER_1
 10
461.2197
 20
-6.7864
  0
VERTEX
  8
LAYER_1
 10
456.5977
 20
-6.7864
  0
SEQEND
  0
POLYLINE
  8
LAYER_1
 40
0.1764
 41
0.1764
 62
252
 66
1
 10
0
 20
0
 30
0
  0
VERTEX
  8
LAYER_1
 10
459.5504
 20
-7.5615
  0
VERTEX
  8
LAYER_1
 10
453.6489
 20
-7.5615
  0
VERTEX
  8
LAYER_1
 10
453.6489
 20
-6.7864
  0
VERTEX
  8
LAYER_1
 10
459.5504
 20
-6.7864
  0
VERTEX
  8
LAYER_1
 10
459.5504
 20
-7.5615
  0
SEQEND
  0
ENDBLK
  0
BLOCK
  8
LAYER_1
  2
AIGNBL01010006
 70
64
 10
0
 20
0
 30
0
  3
AIGNBL01010006
  0
POLYLINE
  8
LAYER_1
 40
0.1764
 41
0.1764
 66
1
 10
0
 20
0
 30
0
  0
VERTEX
  8
LAYER_1
 10
466.6003
 20
10.4387
  0
VERTEX
  8
LAYER_1
 10
466.4857
 20
9.6759
  0
SEQEND
  0
POLYLINE
  8
LAYER_1
 40
0.1764
 41
0.1764
 66
1
 10
0
 20
0
 30
0
  0
VERTEX
  8
LAYER_1
 10
466.4405
 20
9.3641
  0
VERTEX
  8
LAYER_1
 10
466.3461
 20
8.7366
  0
SEQEND
  0
POLYLINE
  8
LAYER_1
 40
0.1764
 41
0.1764
 66
1
 10
0
 20
0
 30
0
  0
VERTEX
  8
LAYER_1
 10
466.301
 20
8.4209
  0
VERTEX
  8
LAYER_1
 10
466.2068
 20
7.7934
  0
SEQEND
  0
POLYLINE
  8
LAYER_1
 40
0.1764
 41
0.1764
 66
1
 10
0
 20
0
 30
0
  0
VERTEX
  8
LAYER_1
 10
466.1574
 20
7.4777
  0
VERTEX
  8
LAYER_1
 10
466.0672
 20
6.8502
  0
SEQEND
  0
POLYLINE
  8
LAYER_1
 40
0.1764
 41
0.1764
 66
1
 10
0
 20
0
 30
0
  0
VERTEX
  8
LAYER_1
 10
466.018
 20
6.5384
  0
VERTEX
  8
LAYER_1
 10
465.9239
 20
5.9067
  0
SEQEND
  0
POLYLINE
  8
LAYER_1
 40
0.1764
 41
0.1764
 66
1
 10
0
 20
0
 30
0
  0
VERTEX
  8
LAYER_1
 10
465.8786
 20
5.5951
  0
VERTEX
  8
LAYER_1
 10
465.7842
 20
4.9675
  0
SEQEND
  0
POLYLINE
  8
LAYER_1
 40
0.1764
 41
0.1764
 66
1
 10
0
 20
0
 30
0
  0
VERTEX
  8
LAYER_1
 10
465.7391
 20
4.6518
  0
VERTEX
  8
LAYER_1
 10
465.6449
 20
4.0243
  0
SEQEND
  0
POLYLINE
  8
LAYER_1
 40
0.1764
 41
0.1764
 66
1
 10
0
 20
0
 30
0
  0
VERTEX
  8
LAYER_1
 10
465.5956
 20
3.7086
  0
VERTEX
  8
LAYER_1
 10
465.5053
 20
3.081
  0
SEQEND
  0
POLYLINE
  8
LAYER_1
 40
0.1764
 41
0.1764
 66
1
 10
0
 20
0
 30
0
  0
VERTEX
  8
LAYER_1
 10
465.4561
 20
2.7695
  0
VERTEX
  8
LAYER_1
 10
465.3618
 20
2.1378
  0
SEQEND
  0
POLYLINE
  8
LAYER_1
 40
0.1764
 41
0.1764
 66
1
 10
0
 20
0
 30
0
  0
VERTEX
  8
LAYER_1
 10
465.3167
 20
1.8261
  0
VERTEX
  8
LAYER_1
 10
465.2224
 20
1.1988
  0
SEQEND
  0
POLYLINE
  8
LAYER_1
 40
0.1764
 41
0.1764
 66
1
 10
0
 20
0
 30
0
  0
VERTEX
  8
LAYER_1
 10
465.1773
 20
0.8829
  0
VERTEX
  8
LAYER_1
 10
465.0831
 20
0.2555
  0
SEQEND
  0
POLYLINE
  8
LAYER_1
 40
0.1764
 41
0.1764
 66
1
 10
0
 20
0
 30
0
  0
VERTEX
  8
LAYER_1
 10
465.0337
 20
-0.0604
  0
VERTEX
  8
LAYER_1
 10
464.9435
 20
-0.6879
  0
SEQEND
  0
POLYLINE
  8
LAYER_1
 40
0.1764
 41
0.1764
 66
1
 10
0
 20
0
 30
0
  0
VERTEX
  8
LAYER_1
 10
464.8943
 20
-0.9995
  0
VERTEX
  8
LAYER_1
 10
464.7835
 20
-1.7623
  0
VERTEX
  8
LAYER_1
 10
464.6852
 20
-1.9347
  0
VERTEX
  8
LAYER_1
 10
464.5007
 20
-2.0085
  0
VERTEX
  8
LAYER_1
 10
463.7665
 20
-2.2996
  0
SEQEND
  0
POLYLINE
  8
LAYER_1
 40
0.1764
 41
0.1764
 66
1
 10
0
 20
0
 30
0
  0
VERTEX
  8
LAYER_1
 10
463.4711
 20
-2.4187
  0
VERTEX
  8
LAYER_1
 10
462.8806
 20
-2.6522
  0
SEQEND
  0
POLYLINE
  8
LAYER_1
 40
0.1764
 41
0.1764
 66
1
 10
0
 20
0
 30
0
  0
VERTEX
  8
LAYER_1
 10
462.5853
 20
-2.7712
  0
VERTEX
  8
LAYER_1
 10
461.8513
 20
-3.0624
  0
SEQEND
  0
POLYLINE
  8
LAYER_1
 40
0.1764
 41
0.1764
 66
1
 10
0
 20
0
 30
0
  0
VERTEX
  8
LAYER_1
 10
436.5962
 20
10.4387
  0
VERTEX
  8
LAYER_1
 10
436.711
 20
9.6759
  0
SEQEND
  0
POLYLINE
  8
LAYER_1
 40
0.1764
 41
0.1764
 66
1
 10
0
 20
0
 30
0
  0
VERTEX
  8
LAYER_1
 10
436.7603
 20
9.3641
  0
VERTEX
  8
LAYER_1
 10
436.8505
 20
8.7366
  0
SEQEND
  0
POLYLINE
  8
LAYER_1
 40
0.1764
 41
0.1764
 66
1
 10
0
 20
0
 30
0
  0
VERTEX
  8
LAYER_1
 10
436.8996
 20
8.4209
  0
VERTEX
  8
LAYER_1
 10
436.9939
 20
7.7934
  0
SEQEND
  0
POLYLINE
  8
LAYER_1
 40
0.1764
 41
0.1764
 66
1
 10
0
 20
0
 30
0
  0
VERTEX
  8
LAYER_1
 10
437.0391
 20
7.4777
  0
VERTEX
  8
LAYER_1
 10
437.1334
 20
6.8502
  0
SEQEND
  0
POLYLINE
  8
LAYER_1
 40
0.1764
 41
0.1764
 66
1
 10
0
 20
0
 30
0
  0
VERTEX
  8
LAYER_1
 10
437.1785
 20
6.5384
  0
VERTEX
  8
LAYER_1
 10
437.2728
 20
5.9067
  0
SEQEND
  0
POLYLINE
  8
LAYER_1
 40
0.1764
 41
0.1764
 66
1
 10
0
 20
0
 30
0
  0
VERTEX
  8
LAYER_1
 10
437.3221
 20
5.5951
  0
VERTEX
  8
LAYER_1
 10
437.4122
 20
4.9675
  0
SEQEND
  0
POLYLINE
  8
LAYER_1
 40
0.1764
 41
0.1764
 66
1
 10
0
 20
0
 30
0
  0
VERTEX
  8
LAYER_1
 10
437.4615
 20
4.6518
  0
VERTEX
  8
LAYER_1
 10
437.5558
 20
4.0243
  0
SEQEND
  0
POLYLINE
  8
LAYER_1
 40
0.1764
 41
0.1764
 66
1
 10
0
 20
0
 30
0
  0
VERTEX
  8
LAYER_1
 10
437.6011
 20
3.7086
  0
VERTEX
  8
LAYER_1
 10
437.6952
 20
3.081
  0
SEQEND
  0
POLYLINE
  8
LAYER_1
 40
0.1764
 41
0.1764
 66
1
 10
0
 20
0
 30
0
  0
VERTEX
  8
LAYER_1
 10
437.7404
 20
2.7695
  0
VERTEX
  8
LAYER_1
 10
437.8348
 20
2.1378
  0
SEQEND
  0
POLYLINE
  8
LAYER_1
 40
0.1764
 41
0.1764
 66
1
 10
0
 20
0
 30
0
  0
VERTEX
  8
LAYER_1
 10
437.8798
 20
1.8261
  0
VERTEX
  8
LAYER_1
 10
437.9742
 20
1.1988
  0
SEQEND
  0
POLYLINE
  8
LAYER_1
 40
0.1764
 41
0.1764
 66
1
 10
0
 20
0
 30
0
  0
VERTEX
  8
LAYER_1
 10
438.0234
 20
0.8829
  0
VERTEX
  8
LAYER_1
 10
438.1179
 20
0.2555
  0
SEQEND
  0
POLYLINE
  8
LAYER_1
 40
0.1764
 41
0.1764
 66
1
 10
0
 20
0
 30
0
  0
VERTEX
  8
LAYER_1
 10
438.1629
 20
-0.0604
  0
VERTEX
  8
LAYER_1
 10
438.2572
 20
-0.6879
  0
SEQEND
  0
POLYLINE
  8
LAYER_1
 40
0.1764
 41
0.1764
 66
1
 10
0
 20
0
 30
0
  0
VERTEX
  8
LAYER_1
 10
438.3022
 20
-0.9995
  0
VERTEX
  8
LAYER_1
 10
438.4171
 20
-1.7623
  0
VERTEX
  8
LAYER_1
 10
438.5155
 20
-1.9347
  0
VERTEX
  8
LAYER_1
 10
438.7001
 20
-2.0085
  0
VERTEX
  8
LAYER_1
 10
439.2661
 20
-2.0536
  0
SEQEND
  0
POLYLINE
  8
LAYER_1
 40
0.1764
 41
0.1764
 66
1
 10
0
 20
0
 30
0
  0
VERTEX
  8
LAYER_1
 10
439.5858
 20
-2.0781
  0
VERTEX
  8
LAYER_1
 10
440.2176
 20
-2.1274
  0
SEQEND
  0
POLYLINE
  8
LAYER_1
 40
0.1764
 41
0.1764
 66
1
 10
0
 20
0
 30
0
  0
VERTEX
  8
LAYER_1
 10
440.5334
 20
-2.1479
  0
VERTEX
  8
LAYER_1
 10
441.169
 20
-2.197
  0
SEQEND
  0
POLYLINE
  8
LAYER_1
 40
0.1764
 41
0.1764
 66
1
 10
0
 20
0
 30
0
  0
VERTEX
  8
LAYER_1
 10
441.4847
 20
-2.2218
  0
VERTEX
  8
LAYER_1
 10
442.1164
 20
-2.2709
  0
SEQEND
  0
POLYLINE
  8
LAYER_1
 40
0.1764
 41
0.1764
 66
1
 10
0
 20
0
 30
0
  0
VERTEX
  8
LAYER_1
 10
442.4321
 20
-2.2956
  0
VERTEX
  8
LAYER_1
 10
443.0677
 20
-2.3447
  0
SEQEND
  0
POLYLINE
  8
LAYER_1
 40
0.1764
 41
0.1764
 66
1
 10
0
 20
0
 30
0
  0
VERTEX
  8
LAYER_1
 10
443.3838
 20
-2.3652
  0
VERTEX
  8
LAYER_1
 10
444.0152
 20
-2.4144
  0
SEQEND
  0
POLYLINE
  8
LAYER_1
 40
0.1764
 41
0.1764
 66
1
 10
0
 20
0
 30
0
  0
VERTEX
  8
LAYER_1
 10
444.3351
 20
-2.4391
  0
VERTEX
  8
LAYER_1
 10
444.9668
 20
-2.4884
  0
SEQEND
  0
POLYLINE
  8
LAYER_1
 40
0.1764
 41
0.1764
 66
1
 10
0
 20
0
 30
0
  0
VERTEX
  8
LAYER_1
 10
445.2824
 20
-2.5129
  0
VERTEX
  8
LAYER_1
 10
445.914
 20
-2.5621
  0
SEQEND
  0
POLYLINE
  8
LAYER_1
 40
0.1764
 41
0.1764
 66
1
 10
0
 20
0
 30
0
  0
VERTEX
  8
LAYER_1
 10
446.234
 20
-2.5825
  0
VERTEX
  8
LAYER_1
 10
446.8655
 20
-2.6319
  0
SEQEND
  0
POLYLINE
  8
LAYER_1
 40
0.1764
 41
0.1764
 66
1
 10
0
 20
0
 30
0
  0
VERTEX
  8
LAYER_1
 10
447.1813
 20
-2.6565
  0
VERTEX
  8
LAYER_1
 10
447.8171
 20
-2.7055
  0
SEQEND
  0
POLYLINE
  8
LAYER_1
 40
0.1764
 41
0.1764
 66
1
 10
0
 20
0
 30
0
  0
VERTEX
  8
LAYER_1
 10
448.1328
 20
-2.7302
  0
VERTEX
  8
LAYER_1
 10
448.7643
 20
-2.7795
  0
SEQEND
  0
POLYLINE
  8
LAYER_1
 40
0.1764
 41
0.1764
 66
1
 10
0
 20
0
 30
0
  0
VERTEX
  8
LAYER_1
 10
449.0801
 20
-2.8
  0
VERTEX
  8
LAYER_1
 10
449.7158
 20
-2.8491
  0
SEQEND
  0
POLYLINE
  8
LAYER_1
 40
0.1764
 41
0.1764
 66
1
 10
0
 20
0
 30
0
  0
VERTEX
  8
LAYER_1
 10
450.0317
 20
-2.8737
  0
VERTEX
  8
LAYER_1
 10
450.6632
 20
-2.9231
  0
SEQEND
  0
POLYLINE
  8
LAYER_1
 40
0.1764
 41
0.1764
 66
1
 10
0
 20
0
 30
0
  0
VERTEX
  8
LAYER_1
 10
450.9832
 20
-2.9477
  0
VERTEX
  8
LAYER_1
 10
451.6147
 20
-2.9968
  0
SEQEND
  0
POLYLINE
  8
LAYER_1
 40
0.1764
 41
0.1764
 66
1
 10
0
 20
0
 30
0
  0
VERTEX
  8
LAYER_1
 10
451.9304
 20
-3.0173
  0
VERTEX
  8
LAYER_1
 10
452.5005
 20
-3.0624
  0
VERTEX
  8
LAYER_1
 10
453.206
 20
-3.0624
  0
SEQEND
  0
POLYLINE
  8
LAYER_1
 40
0.1764
 41
0.1764
 66
1
 10
0
 20
0
 30
0
  0
VERTEX
  8
LAYER_1
 10
453.5218
 20
-3.0624
  0
VERTEX
  8
LAYER_1
 10
454.1574
 20
-3.0624
  0
SEQEND
  0
POLYLINE
  8
LAYER_1
 40
0.1764
 41
0.1764
 66
1
 10
0
 20
0
 30
0
  0
VERTEX
  8
LAYER_1
 10
454.4773
 20
-3.0624
  0
VERTEX
  8
LAYER_1
 10
455.113
 20
-3.0624
  0
SEQEND
  0
POLYLINE
  8
LAYER_1
 40
0.1764
 41
0.1764
 66
1
 10
0
 20
0
 30
0
  0
VERTEX
  8
LAYER_1
 10
455.4289
 20
-3.0624
  0
VERTEX
  8
LAYER_1
 10
456.0644
 20
-3.0624
  0
SEQEND
  0
POLYLINE
  8
LAYER_1
 40
0.1764
 41
0.1764
 66
1
 10
0
 20
0
 30
0
  0
VERTEX
  8
LAYER_1
 10
456.3802
 20
-3.0624
  0
VERTEX
  8
LAYER_1
 10
457.0159
 20
-3.0624
  0
SEQEND
  0
POLYLINE
  8
LAYER_1
 40
0.1764
 41
0.1764
 66
1
 10
0
 20
0
 30
0
  0
VERTEX
  8
LAYER_1
 10
457.3358
 20
-3.0624
  0
VERTEX
  8
LAYER_1
 10
457.9674
 20
-3.0624
  0
SEQEND
  0
POLYLINE
  8
LAYER_1
 40
0.1764
 41
0.1764
 66
1
 10
0
 20
0
 30
0
  0
VERTEX
  8
LAYER_1
 10
458.2873
 20
-3.0624
  0
VERTEX
  8
LAYER_1
 10
458.923
 20
-3.0624
  0
SEQEND
  0
POLYLINE
  8
LAYER_1
 40
0.1764
 41
0.1764
 66
1
 10
0
 20
0
 30
0
  0
VERTEX
  8
LAYER_1
 10
459.2388
 20
-3.0624
  0
VERTEX
  8
LAYER_1
 10
459.8746
 20
-3.0624
  0
SEQEND
  0
POLYLINE
  8
LAYER_1
 40
0.1764
 41
0.1764
 66
1
 10
0
 20
0
 30
0
  0
VERTEX
  8
LAYER_1
 10
460.1902
 20
-3.0624
  0
VERTEX
  8
LAYER_1
 10
460.8259
 20
-3.0624
  0
SEQEND
  0
POLYLINE
  8
LAYER_1
 40
0.1764
 41
0.1764
 66
1
 10
0
 20
0
 30
0
  0
VERTEX
  8
LAYER_1
 10
461.1458
 20
-3.0624
  0
VERTEX
  8
LAYER_1
 10
461.8513
 20
-3.0624
  0
SEQEND
  0
ENDBLK
  0
BLOCK
  8
LAYER_1
  2
AIGNBL01010007
 70
64
 10
0
 20
0
 30
0
  3
AIGNBL01010007
  0
POLYLINE
  8
LAYER_1
 40
0.1764
 41
0.1764
 66
1
 10
0
 20
0
 30
0
  0
VERTEX
  8
LAYER_1
 10
472.8507
 20
10.4387
  0
VERTEX
  8
LAYER_1
 10
472.8507
 20
9.848
  0
SEQEND
  0
POLYLINE
  8
LAYER_1
 40
0.1764
 41
0.1764
 66
1
 10
0
 20
0
 30
0
  0
VERTEX
  8
LAYER_1
 10
472.8507
 20
9.5283
  0
VERTEX
  8
LAYER_1
 10
472.8507
 20
8.9376
  0
SEQEND
  0
POLYLINE
  8
LAYER_1
 40
0.1764
 41
0.1764
 66
1
 10
0
 20
0
 30
0
  0
VERTEX
  8
LAYER_1
 10
469.3483
 20
10.4387
  0
VERTEX
  8
LAYER_1
 10
469.3483
 20
9.848
  0
SEQEND
  0
POLYLINE
  8
LAYER_1
 40
0.1764
 41
0.1764
 66
1
 10
0
 20
0
 30
0
  0
VERTEX
  8
LAYER_1
 10
469.3483
 20
9.5283
  0
VERTEX
  8
LAYER_1
 10
469.3483
 20
8.9376
  0
VERTEX
  8
LAYER_1
 10
469.3483
 20
9.5283
  0
SEQEND
  0
POLYLINE
  8
LAYER_1
 40
0.1764
 41
0.1764
 66
1
 10
0
 20
0
 30
0
  0
VERTEX
  8
LAYER_1
 10
469.3483
 20
9.848
  0
VERTEX
  8
LAYER_1
 10
469.3483
 20
10.4387
  0
SEQEND
  0
POLYLINE
  8
LAYER_1
 40
0.1764
 41
0.1764
 66
1
 10
0
 20
0
 30
0
  0
VERTEX
  8
LAYER_1
 10
472.8507
 20
8.9376
  0
VERTEX
  8
LAYER_1
 10
472.8507
 20
9.5283
  0
SEQEND
  0
POLYLINE
  8
LAYER_1
 40
0.1764
 41
0.1764
 66
1
 10
0
 20
0
 30
0
  0
VERTEX
  8
LAYER_1
 10
472.8507
 20
9.848
  0
VERTEX
  8
LAYER_1
 10
472.8507
 20
10.4387
  0
SEQEND
  0
ENDBLK
  0
BLOCK
  8
LAYER_1
  2
AIGNBL01010008
 70
64
 10
0
 20
0
 30
0
  3
AIGNBL01010008
  0
POLYLINE
  8
LAYER_1
 40
0.1764
 41
0.1764
 62
252
 66
1
 10
0
 20
0
 30
0
  0
VERTEX
  8
LAYER_1
 10
352.5056
 20
-4.4857
  0
VERTEX
  8
LAYER_1
 10
341.6335
 20
-3.9318
  0
SEQEND
  0
POLYLINE
  8
LAYER_1
 40
0.1764
 41
0.1764
 62
252
 66
1
 10
0
 20
0
 30
0
  0
VERTEX
  8
LAYER_1
 10
341.3421
 20
-3.6816
  0
VERTEX
  8
LAYER_1
 10
341.4406
 20
-3.8581
  0
VERTEX
  8
LAYER_1
 10
341.6335
 20
-3.9318
  0
SEQEND
  0
POLYLINE
  8
LAYER_1
 40
0.1764
 41
0.1764
 62
252
 66
1
 10
0
 20
0
 30
0
  0
VERTEX
  8
LAYER_1
 10
341.3421
 20
-3.6816
  0
VERTEX
  8
LAYER_1
 10
339.6114
 20
8.1954
  0
VERTEX
  8
LAYER_1
 10
339.4145
 20
8.6382
  0
VERTEX
  8
LAYER_1
 10
339.0249
 20
8.9376
  0
SEQEND
  0
POLYLINE
  8
LAYER_1
 40
0.1764
 41
0.1764
 62
252
 66
1
 10
0
 20
0
 30
0
  0
VERTEX
  8
LAYER_1
 10
394.9855
 20
10.4387
  0
VERTEX
  8
LAYER_1
 10
335.5841
 20
10.4387
  0
SEQEND
  0
POLYLINE
  8
LAYER_1
 40
0.1764
 41
0.1764
 62
252
 66
1
 10
0
 20
0
 30
0
  0
VERTEX
  8
LAYER_1
 10
360.8474
 20
-7.5615
  0
VERTEX
  8
LAYER_1
 10
354.9458
 20
-7.5615
  0
VERTEX
  8
LAYER_1
 10
354.9458
 20
-7.2252
  0
VERTEX
  8
LAYER_1
 10
354.8679
 20
-7.0241
  0
VERTEX
  8
LAYER_1
 10
354.6752
 20
-6.9257
  0
VERTEX
  8
LAYER_1
 10
353.2191
 20
-6.7864
  0
VERTEX
  8
LAYER_1
 10
353.0346
 20
-6.7002
  0
VERTEX
  8
LAYER_1
 10
352.9485
 20
-6.5157
  0
VERTEX
  8
LAYER_1
 10
352.7926
 20
-4.7602
  0
VERTEX
  8
LAYER_1
 10
352.6983
 20
-4.5675
  0
VERTEX
  8
LAYER_1
 10
352.5056
 20
-4.4857
  0
SEQEND
  0
POLYLINE
  8
LAYER_1
 40
0.1764
 41
0.1764
 62
252
 66
1
 10
0
 20
0
 30
0
  0
VERTEX
  8
LAYER_1
 10
335.5841
 20
8.9376
  0
VERTEX
  8
LAYER_1
 10
335.3708
 20
9.0279
  0
VERTEX
  8
LAYER_1
 10
335.2847
 20
9.2371
  0
VERTEX
  8
LAYER_1
 10
335.2847
 20
10.1393
  0
VERTEX
  8
LAYER_1
 10
335.3708
 20
10.3485
  0
VERTEX
  8
LAYER_1
 10
335.5841
 20
10.4387
  0
SEQEND
  0
POLYLINE
  8
LAYER_1
 40
0.1764
 41
0.1764
 62
252
 66
1
 10
0
 20
0
 30
0
  0
VERTEX
  8
LAYER_1
 10
361.118
 20
-6.9257
  0
VERTEX
  8
LAYER_1
 10
354.6752
 20
-6.9257
  0
SEQEND
  0
POLYLINE
  8
LAYER_1
 40
0.1764
 41
0.1764
 62
252
 66
1
 10
0
 20
0
 30
0
  0
VERTEX
  8
LAYER_1
 10
363.2876
 20
-4.4857
  0
VERTEX
  8
LAYER_1
 10
352.5056
 20
-4.4857
  0
SEQEND
  0
POLYLINE
  8
LAYER_1
 40
0.1764
 41
0.1764
 62
252
 66
1
 10
0
 20
0
 30
0
  0
VERTEX
  8
LAYER_1
 10
391.4913
 20
8.9376
  0
VERTEX
  8
LAYER_1
 10
335.5841
 20
8.9376
  0
SEQEND
  0
POLYLINE
  8
LAYER_1
 40
0.1764
 41
0.1764
 62
252
 66
1
 10
0
 20
0
 30
0
  0
VERTEX
  8
LAYER_1
 10
360.8474
 20
-7.5615
  0
VERTEX
  8
LAYER_1
 10
360.8474
 20
-7.2252
  0
SEQEND
  0
POLYLINE
  8
LAYER_1
 40
0.1764
 41
0.1764
 62
252
 66
1
 10
0
 20
0
 30
0
  0
VERTEX
  8
LAYER_1
 10
361.118
 20
-6.9257
  0
VERTEX
  8
LAYER_1
 10
360.9252
 20
-7.0241
  0
VERTEX
  8
LAYER_1
 10
360.8474
 20
-7.2252
  0
SEQEND
  0
POLYLINE
  8
LAYER_1
 40
0.1764
 41
0.1764
 62
252
 66
1
 10
0
 20
0
 30
0
  0
VERTEX
  8
LAYER_1
 10
361.118
 20
-6.9257
  0
VERTEX
  8
LAYER_1
 10
362.5739
 20
-6.7864
  0
VERTEX
  8
LAYER_1
 10
362.7544
 20
-6.7002
  0
VERTEX
  8
LAYER_1
 10
362.8405
 20
-6.5237
  0
VERTEX
  8
LAYER_1
 10
363.0005
 20
-4.7602
  0
SEQEND
  0
POLYLINE
  8
LAYER_1
 40
0.1764
 41
0.1764
 62
252
 66
1
 10
0
 20
0
 30
0
  0
VERTEX
  8
LAYER_1
 10
363.2876
 20
-4.4857
  0
VERTEX
  8
LAYER_1
 10
363.0907
 20
-4.5675
  0
VERTEX
  8
LAYER_1
 10
363.0005
 20
-4.7602
  0
SEQEND
  0
POLYLINE
  8
LAYER_1
 40
0.1764
 41
0.1764
 62
252
 66
1
 10
0
 20
0
 30
0
  0
VERTEX
  8
LAYER_1
 10
363.2876
 20
-4.4857
  0
VERTEX
  8
LAYER_1
 10
388.924
 20
-3.9318
  0
SEQEND
  0
POLYLINE
  8
LAYER_1
 40
0.1764
 41
0.1764
 62
252
 66
1
 10
0
 20
0
 30
0
  0
VERTEX
  8
LAYER_1
 10
386.4347
 20
8.9376
  0
VERTEX
  8
LAYER_1
 10
394.9855
 20
8.9376
  0
VERTEX
  8
LAYER_1
 10
395.1988
 20
9.0279
  0
VERTEX
  8
LAYER_1
 10
395.285
 20
9.2371
  0
VERTEX
  8
LAYER_1
 10
395.285
 20
10.1393
  0
VERTEX
  8
LAYER_1
 10
395.1988
 20
10.3485
  0
VERTEX
  8
LAYER_1
 10
394.9855
 20
10.4387
  0
SEQEND
  0
POLYLINE
  8
LAYER_1
 40
0.1764
 41
0.1764
 62
252
 66
1
 10
0
 20
0
 30
0
  0
VERTEX
  8
LAYER_1
 10
388.924
 20
-3.9318
  0
VERTEX
  8
LAYER_1
 10
389.1127
 20
-3.8581
  0
VERTEX
  8
LAYER_1
 10
389.2152
 20
-3.6816
  0
VERTEX
  8
LAYER_1
 10
390.9583
 20
8.1954
  0
SEQEND
  0
POLYLINE
  8
LAYER_1
 40
0.1764
 41
0.1764
 62
252
 66
1
 10
0
 20
0
 30
0
  0
VERTEX
  8
LAYER_1
 10
391.5446
 20
8.9376
  0
VERTEX
  8
LAYER_1
 10
391.155
 20
8.6382
  0
VERTEX
  8
LAYER_1
 10
390.9583
 20
8.1954
  0
SEQEND
  0
ENDBLK
  0
BLOCK
  8
LAYER_1
  2
AIGNBL01010009
 70
64
 10
0
 20
0
 30
0
  3
AIGNBL01010009
  0
POLYLINE
  8
LAYER_1
 40
0.1764
 41
0.1764
 66
1
 10
0
 20
0
 30
0
  0
VERTEX
  8
LAYER_1
 10
350.3442
 20
5.993
  0
VERTEX
  8
LAYER_1
 10
350.3442
 20
5.9764
  0
SEQEND
  0
POLYLINE
  8
LAYER_1
 40
0.1764
 41
0.1764
 66
1
 10
0
 20
0
 30
0
  0
VERTEX
  8
LAYER_1
 10
349.3312
 20
4.9842
  0
VERTEX
  8
LAYER_1
 10
348.3633
 20
4.9842
  0
SEQEND
  0
POLYLINE
  8
LAYER_1
 40
0.1764
 41
0.1764
 66
1
 10
0
 20
0
 30
0
  0
VERTEX
  8
LAYER_1
 10
347.3422
 20
5.9726
  0
VERTEX
  8
LAYER_1
 10
347.3422
 20
5.993
  0
SEQEND
  0
POLYLINE
  8
LAYER_1
 40
0.1764
 41
0.1764
 66
1
 10
0
 20
0
 30
0
  0
VERTEX
  8
LAYER_1
 10
348.3469
 20
6.9853
  0
VERTEX
  8
LAYER_1
 10
349.3312
 20
6.9853
  0
SEQEND
  0
POLYLINE
  8
LAYER_1
 40
0.1764
 41
0.1764
 66
1
 10
0
 20
0
 30
0
  0
VERTEX
  8
LAYER_1
 10
349.3312
 20
4.9842
  0
VERTEX
  8
LAYER_1
 10
349.9258
 20
5.1728
  0
VERTEX
  8
LAYER_1
 10
350.295
 20
5.6731
  0
VERTEX
  8
LAYER_1
 10
350.295
 20
6.2965
  0
VERTEX
  8
LAYER_1
 10
349.9258
 20
6.7967
  0
VERTEX
  8
LAYER_1
 10
349.3312
 20
6.9853
  0
SEQEND
  0
POLYLINE
  8
LAYER_1
 40
0.1764
 41
0.1764
 66
1
 10
0
 20
0
 30
0
  0
VERTEX
  8
LAYER_1
 10
348.3469
 20
6.9853
  0
VERTEX
  8
LAYER_1
 10
347.7563
 20
6.7926
  0
VERTEX
  8
LAYER_1
 10
347.3915
 20
6.2882
  0
VERTEX
  8
LAYER_1
 10
347.3955
 20
5.6648
  0
VERTEX
  8
LAYER_1
 10
347.7686
 20
5.1685
  0
VERTEX
  8
LAYER_1
 10
348.3633
 20
4.9842
  0
SEQEND
  0
ENDBLK
  0
BLOCK
  8
LAYER_1
  2
AIGNBL0101000A
 70
64
 10
0
 20
0
 30
0
  3
AIGNBL0101000A
  0
POLYLINE
  8
LAYER_1
 40
0.1764
 41
0.1764
 66
1
 10
0
 20
0
 30
0
  0
VERTEX
  8
LAYER_1
 10
340.2841
 20
10.4387
  0
VERTEX
  8
LAYER_1
 10
340.3948
 20
9.6759
  0
SEQEND
  0
POLYLINE
  8
LAYER_1
 40
0.1764
 41
0.1764
 66
1
 10
0
 20
0
 30
0
  0
VERTEX
  8
LAYER_1
 10
340.444
 20
9.3641
  0
VERTEX
  8
LAYER_1
 10
340.5382
 20
8.7366
  0
SEQEND
  0
POLYLINE
  8
LAYER_1
 40
0.1764
 41
0.1764
 66
1
 10
0
 20
0
 30
0
  0
VERTEX
  8
LAYER_1
 10
340.5834
 20
8.4209
  0
VERTEX
  8
LAYER_1
 10
340.6778
 20
7.7934
  0
SEQEND
  0
POLYLINE
  8
LAYER_1
 40
0.1764
 41
0.1764
 66
1
 10
0
 20
0
 30
0
  0
VERTEX
  8
LAYER_1
 10
340.7228
 20
7.4777
  0
VERTEX
  8
LAYER_1
 10
340.8172
 20
6.8502
  0
SEQEND
  0
POLYLINE
  8
LAYER_1
 40
0.1764
 41
0.1764
 66
1
 10
0
 20
0
 30
0
  0
VERTEX
  8
LAYER_1
 10
340.8664
 20
6.5384
  0
VERTEX
  8
LAYER_1
 10
340.9566
 20
5.9067
  0
SEQEND
  0
POLYLINE
  8
LAYER_1
 40
0.1764
 41
0.1764
 66
1
 10
0
 20
0
 30
0
  0
VERTEX
  8
LAYER_1
 10
341.0058
 20
5.5951
  0
VERTEX
  8
LAYER_1
 10
341.1002
 20
4.9675
  0
SEQEND
  0
POLYLINE
  8
LAYER_1
 40
0.1764
 41
0.1764
 66
1
 10
0
 20
0
 30
0
  0
VERTEX
  8
LAYER_1
 10
341.1452
 20
4.6518
  0
VERTEX
  8
LAYER_1
 10
341.2397
 20
4.0243
  0
SEQEND
  0
POLYLINE
  8
LAYER_1
 40
0.1764
 41
0.1764
 66
1
 10
0
 20
0
 30
0
  0
VERTEX
  8
LAYER_1
 10
341.2848
 20
3.7086
  0
VERTEX
  8
LAYER_1
 10
341.379
 20
3.081
  0
SEQEND
  0
POLYLINE
  8
LAYER_1
 40
0.1764
 41
0.1764
 66
1
 10
0
 20
0
 30
0
  0
VERTEX
  8
LAYER_1
 10
341.4282
 20
2.7695
  0
VERTEX
  8
LAYER_1
 10
341.5186
 20
2.1378
  0
SEQEND
  0
POLYLINE
  8
LAYER_1
 40
0.1764
 41
0.1764
 66
1
 10
0
 20
0
 30
0
  0
VERTEX
  8
LAYER_1
 10
341.5676
 20
1.8261
  0
VERTEX
  8
LAYER_1
 10
341.662
 20
1.1988
  0
SEQEND
  0
POLYLINE
  8
LAYER_1
 40
0.1764
 41
0.1764
 66
1
 10
0
 20
0
 30
0
  0
VERTEX
  8
LAYER_1
 10
341.7071
 20
0.8829
  0
VERTEX
  8
LAYER_1
 10
341.8014
 20
0.2555
  0
SEQEND
  0
POLYLINE
  8
LAYER_1
 40
0.1764
 41
0.1764
 66
1
 10
0
 20
0
 30
0
  0
VERTEX
  8
LAYER_1
 10
341.8465
 20
-0.0604
  0
VERTEX
  8
LAYER_1
 10
341.9408
 20
-0.6879
  0
SEQEND
  0
POLYLINE
  8
LAYER_1
 40
0.1764
 41
0.1764
 66
1
 10
0
 20
0
 30
0
  0
VERTEX
  8
LAYER_1
 10
341.9902
 20
-0.9995
  0
VERTEX
  8
LAYER_1
 10
342.1008
 20
-1.7623
  0
VERTEX
  8
LAYER_1
 10
342.1993
 20
-1.9347
  0
VERTEX
  8
LAYER_1
 10
342.3839
 20
-2.0085
  0
VERTEX
  8
LAYER_1
 10
342.7406
 20
-2.0413
  0
SEQEND
  0
POLYLINE
  8
LAYER_1
 40
0.1764
 41
0.1764
 66
1
 10
0
 20
0
 30
0
  0
VERTEX
  8
LAYER_1
 10
343.0605
 20
-2.07
  0
VERTEX
  8
LAYER_1
 10
343.6921
 20
-2.1314
  0
SEQEND
  0
POLYLINE
  8
LAYER_1
 40
0.1764
 41
0.1764
 66
1
 10
0
 20
0
 30
0
  0
VERTEX
  8
LAYER_1
 10
344.0078
 20
-2.1602
  0
VERTEX
  8
LAYER_1
 10
344.6395
 20
-2.2177
  0
SEQEND
  0
POLYLINE
  8
LAYER_1
 40
0.1764
 41
0.1764
 66
1
 10
0
 20
0
 30
0
  0
VERTEX
  8
LAYER_1
 10
344.9554
 20
-2.2462
  0
VERTEX
  8
LAYER_1
 10
345.5868
 20
-2.3036
  0
SEQEND
  0
POLYLINE
  8
LAYER_1
 40
0.1764
 41
0.1764
 66
1
 10
0
 20
0
 30
0
  0
VERTEX
  8
LAYER_1
 10
345.9026
 20
-2.3324
  0
VERTEX
  8
LAYER_1
 10
346.5384
 20
-2.3898
  0
SEQEND
  0
POLYLINE
  8
LAYER_1
 40
0.1764
 41
0.1764
 66
1
 10
0
 20
0
 30
0
  0
VERTEX
  8
LAYER_1
 10
346.8541
 20
-2.4187
  0
VERTEX
  8
LAYER_1
 10
347.4856
 20
-2.4801
  0
SEQEND
  0
POLYLINE
  8
LAYER_1
 40
0.1764
 41
0.1764
 66
1
 10
0
 20
0
 30
0
  0
VERTEX
  8
LAYER_1
 10
347.8015
 20
-2.5089
  0
VERTEX
  8
LAYER_1
 10
348.4331
 20
-2.5662
  0
SEQEND
  0
POLYLINE
  8
LAYER_1
 40
0.1764
 41
0.1764
 66
1
 10
0
 20
0
 30
0
  0
VERTEX
  8
LAYER_1
 10
348.749
 20
-2.5949
  0
VERTEX
  8
LAYER_1
 10
349.3804
 20
-2.6522
  0
SEQEND
  0
POLYLINE
  8
LAYER_1
 40
0.1764
 41
0.1764
 66
1
 10
0
 20
0
 30
0
  0
VERTEX
  8
LAYER_1
 10
349.7003
 20
-2.6811
  0
VERTEX
  8
LAYER_1
 10
350.332
 20
-2.7384
  0
SEQEND
  0
POLYLINE
  8
LAYER_1
 40
0.1764
 41
0.1764
 66
1
 10
0
 20
0
 30
0
  0
VERTEX
  8
LAYER_1
 10
350.6477
 20
-2.7672
  0
VERTEX
  8
LAYER_1
 10
351.2793
 20
-2.8247
  0
SEQEND
  0
POLYLINE
  8
LAYER_1
 40
0.1764
 41
0.1764
 66
1
 10
0
 20
0
 30
0
  0
VERTEX
  8
LAYER_1
 10
351.595
 20
-2.8575
  0
VERTEX
  8
LAYER_1
 10
352.2266
 20
-2.9149
  0
SEQEND
  0
POLYLINE
  8
LAYER_1
 40
0.1764
 41
0.1764
 66
1
 10
0
 20
0
 30
0
  0
VERTEX
  8
LAYER_1
 10
352.5425
 20
-2.9435
  0
VERTEX
  8
LAYER_1
 10
353.178
 20
-3.001
  0
SEQEND
  0
POLYLINE
  8
LAYER_1
 40
0.1764
 41
0.1764
 66
1
 10
0
 20
0
 30
0
  0
VERTEX
  8
LAYER_1
 10
353.4939
 20
-3.0296
  0
VERTEX
  8
LAYER_1
 10
353.8506
 20
-3.0624
  0
SEQEND
  0
POLYLINE
  8
LAYER_1
 40
0.1764
 41
0.1764
 66
1
 10
0
 20
0
 30
0
  0
VERTEX
  8
LAYER_1
 10
375.2835
 20
10.4387
  0
VERTEX
  8
LAYER_1
 10
375.2055
 20
9.9138
  0
SEQEND
  0
POLYLINE
  8
LAYER_1
 40
0.1764
 41
0.1764
 66
1
 10
0
 20
0
 30
0
  0
VERTEX
  8
LAYER_1
 10
375.1604
 20
9.598
  0
VERTEX
  8
LAYER_1
 10
375.0661
 20
8.9703
  0
SEQEND
  0
POLYLINE
  8
LAYER_1
 40
0.1764
 41
0.1764
 66
1
 10
0
 20
0
 30
0
  0
VERTEX
  8
LAYER_1
 10
375.021
 20
8.6547
  0
VERTEX
  8
LAYER_1
 10
374.9268
 20
8.0272
  0
SEQEND
  0
POLYLINE
  8
LAYER_1
 40
0.1764
 41
0.1764
 66
1
 10
0
 20
0
 30
0
  0
VERTEX
  8
LAYER_1
 10
374.8775
 20
7.7155
  0
VERTEX
  8
LAYER_1
 10
374.7872
 20
7.088
  0
SEQEND
  0
POLYLINE
  8
LAYER_1
 40
0.1764
 41
0.1764
 66
1
 10
0
 20
0
 30
0
  0
VERTEX
  8
LAYER_1
 10
374.738
 20
6.7721
  0
VERTEX
  8
LAYER_1
 10
374.6437
 20
6.1447
  0
SEQEND
  0
POLYLINE
  8
LAYER_1
 40
0.1764
 41
0.1764
 66
1
 10
0
 20
0
 30
0
  0
VERTEX
  8
LAYER_1
 10
374.5986
 20
5.8289
  0
VERTEX
  8
LAYER_1
 10
374.5042
 20
5.2013
  0
SEQEND
  0
POLYLINE
  8
LAYER_1
 40
0.1764
 41
0.1764
 66
1
 10
0
 20
0
 30
0
  0
VERTEX
  8
LAYER_1
 10
374.4592
 20
4.8897
  0
VERTEX
  8
LAYER_1
 10
374.3648
 20
4.2581
  0
SEQEND
  0
POLYLINE
  8
LAYER_1
 40
0.1764
 41
0.1764
 66
1
 10
0
 20
0
 30
0
  0
VERTEX
  8
LAYER_1
 10
374.3198
 20
3.9464
  0
VERTEX
  8
LAYER_1
 10
374.2254
 20
3.319
  0
SEQEND
  0
POLYLINE
  8
LAYER_1
 40
0.1764
 41
0.1764
 66
1
 10
0
 20
0
 30
0
  0
VERTEX
  8
LAYER_1
 10
374.1763
 20
3.0032
  0
VERTEX
  8
LAYER_1
 10
374.0818
 20
2.3756
  0
SEQEND
  0
POLYLINE
  8
LAYER_1
 40
0.1764
 41
0.1764
 66
1
 10
0
 20
0
 30
0
  0
VERTEX
  8
LAYER_1
 10
374.0368
 20
2.0599
  0
VERTEX
  8
LAYER_1
 10
373.9424
 20
1.4323
  0
SEQEND
  0
POLYLINE
  8
LAYER_1
 40
0.1764
 41
0.1764
 66
1
 10
0
 20
0
 30
0
  0
VERTEX
  8
LAYER_1
 10
373.8972
 20
1.1208
  0
VERTEX
  8
LAYER_1
 10
373.803
 20
0.4891
  0
SEQEND
  0
POLYLINE
  8
LAYER_1
 40
0.1764
 41
0.1764
 66
1
 10
0
 20
0
 30
0
  0
VERTEX
  8
LAYER_1
 10
373.7578
 20
0.1775
  0
VERTEX
  8
LAYER_1
 10
373.6636
 20
-0.4499
  0
SEQEND
  0
POLYLINE
  8
LAYER_1
 40
0.1764
 41
0.1764
 66
1
 10
0
 20
0
 30
0
  0
VERTEX
  8
LAYER_1
 10
373.6144
 20
-0.7657
  0
VERTEX
  8
LAYER_1
 10
373.52
 20
-1.3932
  0
SEQEND
  0
POLYLINE
  8
LAYER_1
 40
0.1764
 41
0.1764
 66
1
 10
0
 20
0
 30
0
  0
VERTEX
  8
LAYER_1
 10
373.4748
 20
-1.709
  0
VERTEX
  8
LAYER_1
 10
373.397
 20
-2.2339
  0
VERTEX
  8
LAYER_1
 10
373.3026
 20
-2.4021
  0
VERTEX
  8
LAYER_1
 10
373.1222
 20
-2.4801
  0
VERTEX
  8
LAYER_1
 10
372.6669
 20
-2.5006
  0
SEQEND
  0
POLYLINE
  8
LAYER_1
 40
0.1764
 41
0.1764
 66
1
 10
0
 20
0
 30
0
  0
VERTEX
  8
LAYER_1
 10
372.3511
 20
-2.5169
  0
VERTEX
  8
LAYER_1
 10
371.7155
 20
-2.5497
  0
SEQEND
  0
POLYLINE
  8
LAYER_1
 40
0.1764
 41
0.1764
 66
1
 10
0
 20
0
 30
0
  0
VERTEX
  8
LAYER_1
 10
371.3997
 20
-2.5662
  0
VERTEX
  8
LAYER_1
 10
370.764
 20
-2.599
  0
SEQEND
  0
POLYLINE
  8
LAYER_1
 40
0.1764
 41
0.1764
 66
1
 10
0
 20
0
 30
0
  0
VERTEX
  8
LAYER_1
 10
370.4484
 20
-2.6114
  0
VERTEX
  8
LAYER_1
 10
369.8124
 20
-2.6442
  0
SEQEND
  0
POLYLINE
  8
LAYER_1
 40
0.1764
 41
0.1764
 66
1
 10
0
 20
0
 30
0
  0
VERTEX
  8
LAYER_1
 10
369.4967
 20
-2.6605
  0
VERTEX
  8
LAYER_1
 10
368.861
 20
-2.6934
  0
SEQEND
  0
POLYLINE
  8
LAYER_1
 40
0.1764
 41
0.1764
 66
1
 10
0
 20
0
 30
0
  0
VERTEX
  8
LAYER_1
 10
368.5452
 20
-2.7098
  0
VERTEX
  8
LAYER_1
 10
367.9095
 20
-2.7384
  0
SEQEND
  0
POLYLINE
  8
LAYER_1
 40
0.1764
 41
0.1764
 66
1
 10
0
 20
0
 30
0
  0
VERTEX
  8
LAYER_1
 10
367.5938
 20
-2.755
  0
VERTEX
  8
LAYER_1
 10
366.9582
 20
-2.7878
  0
SEQEND
  0
POLYLINE
  8
LAYER_1
 40
0.1764
 41
0.1764
 66
1
 10
0
 20
0
 30
0
  0
VERTEX
  8
LAYER_1
 10
366.6424
 20
-2.804
  0
VERTEX
  8
LAYER_1
 10
366.0066
 20
-2.8328
  0
SEQEND
  0
POLYLINE
  8
LAYER_1
 40
0.1764
 41
0.1764
 66
1
 10
0
 20
0
 30
0
  0
VERTEX
  8
LAYER_1
 10
365.6909
 20
-2.8491
  0
VERTEX
  8
LAYER_1
 10
365.0552
 20
-2.8819
  0
SEQEND
  0
POLYLINE
  8
LAYER_1
 40
0.1764
 41
0.1764
 66
1
 10
0
 20
0
 30
0
  0
VERTEX
  8
LAYER_1
 10
364.7393
 20
-2.8984
  0
VERTEX
  8
LAYER_1
 10
364.1036
 20
-2.9312
  0
SEQEND
  0
POLYLINE
  8
LAYER_1
 40
0.1764
 41
0.1764
 66
1
 10
0
 20
0
 30
0
  0
VERTEX
  8
LAYER_1
 10
363.7878
 20
-2.9435
  0
VERTEX
  8
LAYER_1
 10
363.1521
 20
-2.9762
  0
SEQEND
  0
POLYLINE
  8
LAYER_1
 40
0.1764
 41
0.1764
 66
1
 10
0
 20
0
 30
0
  0
VERTEX
  8
LAYER_1
 10
362.8365
 20
-2.9928
  0
VERTEX
  8
LAYER_1
 10
362.2007
 20
-3.0256
  0
SEQEND
  0
POLYLINE
  8
LAYER_1
 40
0.1764
 41
0.1764
 66
1
 10
0
 20
0
 30
0
  0
VERTEX
  8
LAYER_1
 10
361.885
 20
-3.0418
  0
VERTEX
  8
LAYER_1
 10
361.4297
 20
-3.0624
  0
SEQEND
  0
POLYLINE
  8
LAYER_1
 40
0.1764
 41
0.1764
 66
1
 10
0
 20
0
 30
0
  0
VERTEX
  8
LAYER_1
 10
361.885
 20
-3.0624
  0
VERTEX
  8
LAYER_1
 10
361.36
 20
-3.0624
  0
SEQEND
  0
POLYLINE
  8
LAYER_1
 40
0.1764
 41
0.1764
 66
1
 10
0
 20
0
 30
0
  0
VERTEX
  8
LAYER_1
 10
361.0441
 20
-3.0624
  0
VERTEX
  8
LAYER_1
 10
360.4084
 20
-3.0624
  0
SEQEND
  0
POLYLINE
  8
LAYER_1
 40
0.1764
 41
0.1764
 66
1
 10
0
 20
0
 30
0
  0
VERTEX
  8
LAYER_1
 10
360.0927
 20
-3.0624
  0
VERTEX
  8
LAYER_1
 10
359.457
 20
-3.0624
  0
SEQEND
  0
POLYLINE
  8
LAYER_1
 40
0.1764
 41
0.1764
 66
1
 10
0
 20
0
 30
0
  0
VERTEX
  8
LAYER_1
 10
359.1371
 20
-3.0624
  0
VERTEX
  8
LAYER_1
 10
358.5055
 20
-3.0624
  0
SEQEND
  0
POLYLINE
  8
LAYER_1
 40
0.1764
 41
0.1764
 66
1
 10
0
 20
0
 30
0
  0
VERTEX
  8
LAYER_1
 10
358.1856
 20
-3.0624
  0
VERTEX
  8
LAYER_1
 10
357.5501
 20
-3.0624
  0
SEQEND
  0
POLYLINE
  8
LAYER_1
 40
0.1764
 41
0.1764
 66
1
 10
0
 20
0
 30
0
  0
VERTEX
  8
LAYER_1
 10
357.2342
 20
-3.0624
  0
VERTEX
  8
LAYER_1
 10
356.5985
 20
-3.0624
  0
SEQEND
  0
POLYLINE
  8
LAYER_1
 40
0.1764
 41
0.1764
 66
1
 10
0
 20
0
 30
0
  0
VERTEX
  8
LAYER_1
 10
356.2827
 20
-3.0624
  0
VERTEX
  8
LAYER_1
 10
355.647
 20
-3.0624
  0
SEQEND
  0
POLYLINE
  8
LAYER_1
 40
0.1764
 41
0.1764
 66
1
 10
0
 20
0
 30
0
  0
VERTEX
  8
LAYER_1
 10
355.3273
 20
-3.0624
  0
VERTEX
  8
LAYER_1
 10
354.6956
 20
-3.0624
  0
SEQEND
  0
POLYLINE
  8
LAYER_1
 40
0.1764
 41
0.1764
 66
1
 10
0
 20
0
 30
0
  0
VERTEX
  8
LAYER_1
 10
354.3757
 20
-3.0624
  0
VERTEX
  8
LAYER_1
 10
353.8506
 20
-3.0624
  0
SEQEND
  0
ENDBLK
  0
BLOCK
  8
LAYER_1
  2
AIGNBL0101000B
 70
64
 10
0
 20
0
 30
0
  3
AIGNBL0101000B
  0
POLYLINE
  8
LAYER_1
 40
0.1764
 41
0.1764
 66
1
 10
0
 20
0
 30
0
  0
VERTEX
  8
LAYER_1
 10
378.3471
 20
5.993
  0
VERTEX
  8
LAYER_1
 10
378.3471
 20
5.9764
  0
SEQEND
  0
POLYLINE
  8
LAYER_1
 40
0.1764
 41
0.1764
 66
1
 10
0
 20
0
 30
0
  0
VERTEX
  8
LAYER_1
 10
377.3341
 20
4.9842
  0
VERTEX
  8
LAYER_1
 10
376.3621
 20
4.9842
  0
SEQEND
  0
POLYLINE
  8
LAYER_1
 40
0.1764
 41
0.1764
 66
1
 10
0
 20
0
 30
0
  0
VERTEX
  8
LAYER_1
 10
375.3451
 20
5.9726
  0
VERTEX
  8
LAYER_1
 10
375.3451
 20
5.9971
  0
SEQEND
  0
POLYLINE
  8
LAYER_1
 40
0.1764
 41
0.1764
 66
1
 10
0
 20
0
 30
0
  0
VERTEX
  8
LAYER_1
 10
376.3498
 20
6.9853
  0
VERTEX
  8
LAYER_1
 10
377.3341
 20
6.9853
  0
SEQEND
  0
POLYLINE
  8
LAYER_1
 40
0.1764
 41
0.1764
 66
1
 10
0
 20
0
 30
0
  0
VERTEX
  8
LAYER_1
 10
377.3341
 20
4.9842
  0
VERTEX
  8
LAYER_1
 10
377.9287
 20
5.1728
  0
VERTEX
  8
LAYER_1
 10
378.2978
 20
5.6731
  0
VERTEX
  8
LAYER_1
 10
378.2978
 20
6.2965
  0
VERTEX
  8
LAYER_1
 10
377.9287
 20
6.7967
  0
VERTEX
  8
LAYER_1
 10
377.3341
 20
6.9853
  0
SEQEND
  0
POLYLINE
  8
LAYER_1
 40
0.1764
 41
0.1764
 66
1
 10
0
 20
0
 30
0
  0
VERTEX
  8
LAYER_1
 10
376.3498
 20
6.9853
  0
VERTEX
  8
LAYER_1
 10
375.7551
 20
6.7926
  0
VERTEX
  8
LAYER_1
 10
375.3942
 20
6.2882
  0
VERTEX
  8
LAYER_1
 10
375.3984
 20
5.6648
  0
VERTEX
  8
LAYER_1
 10
375.7675
 20
5.1685
  0
VERTEX
  8
LAYER_1
 10
376.3621
 20
4.9842
  0
SEQEND
  0
ENDBLK
  0
BLOCK
  8
LAYER_1
  2
AIGNBL0101000C
 70
64
 10
0
 20
0
 30
0
  3
AIGNBL0101000C
  0
POLYLINE
  8
LAYER_1
 40
0.1764
 41
0.1764
 62
252
 66
1
 10
0
 20
0
 30
0
  0
VERTEX
  8
LAYER_1
 10
354.9462
 20
-7.5615
  0
VERTEX
  8
LAYER_1
 10
360.8474
 20
-7.5615
  0
VERTEX
  8
LAYER_1
 10
360.8474
 20
-7.221
  0
VERTEX
  8
LAYER_1
 10
360.9255
 20
-7.0201
  0
VERTEX
  8
LAYER_1
 10
361.1181
 20
-6.9218
  0
VERTEX
  8
LAYER_1
 10
362.574
 20
-6.7822
  0
VERTEX
  8
LAYER_1
 10
362.7544
 20
-6.6963
  0
VERTEX
  8
LAYER_1
 10
362.8405
 20
-6.5115
  0
VERTEX
  8
LAYER_1
 10
363.0004
 20
-4.7565
  0
VERTEX
  8
LAYER_1
 10
363.0906
 20
-4.5677
  0
VERTEX
  8
LAYER_1
 10
363.2874
 20
-4.4816
  0
SEQEND
  0
POLYLINE
  8
LAYER_1
 40
0.1764
 41
0.1764
 62
252
 66
1
 10
0
 20
0
 30
0
  0
VERTEX
  8
LAYER_1
 10
354.6756
 20
-6.9218
  0
VERTEX
  8
LAYER_1
 10
361.1181
 20
-6.9218
  0
SEQEND
  0
POLYLINE
  8
LAYER_1
 40
0.1764
 41
0.1764
 62
252
 66
1
 10
0
 20
0
 30
0
  0
VERTEX
  8
LAYER_1
 10
352.5062
 20
-4.4816
  0
VERTEX
  8
LAYER_1
 10
363.2874
 20
-4.4816
  0
SEQEND
  0
POLYLINE
  8
LAYER_1
 40
0.1764
 41
0.1764
 62
252
 66
1
 10
0
 20
0
 30
0
  0
VERTEX
  8
LAYER_1
 10
354.9462
 20
-7.5615
  0
VERTEX
  8
LAYER_1
 10
354.9462
 20
-7.221
  0
VERTEX
  8
LAYER_1
 10
354.8684
 20
-7.0201
  0
VERTEX
  8
LAYER_1
 10
354.6756
 20
-6.9218
  0
VERTEX
  8
LAYER_1
 10
353.2198
 20
-6.7822
  0
SEQEND
  0
POLYLINE
  8
LAYER_1
 40
0.1764
 41
0.1764
 62
252
 66
1
 10
0
 20
0
 30
0
  0
VERTEX
  8
LAYER_1
 10
352.9491
 20
-6.5198
  0
VERTEX
  8
LAYER_1
 10
353.0394
 20
-6.7003
  0
VERTEX
  8
LAYER_1
 10
353.2198
 20
-6.7822
  0
SEQEND
  0
POLYLINE
  8
LAYER_1
 40
0.1764
 41
0.1764
 62
252
 66
1
 10
0
 20
0
 30
0
  0
VERTEX
  8
LAYER_1
 10
352.9491
 20
-6.5198
  0
VERTEX
  8
LAYER_1
 10
352.7892
 20
-4.7565
  0
VERTEX
  8
LAYER_1
 10
352.699
 20
-4.5677
  0
VERTEX
  8
LAYER_1
 10
352.5062
 20
-4.4816
  0
SEQEND
  0
ENDBLK
  0
BLOCK
  8
LAYER_1
  2
AIGNBL0101000D
 70
64
 10
0
 20
0
 30
0
  3
AIGNBL0101000D
  0
POLYLINE
  8
LAYER_1
 40
0.1764
 41
0.1764
 66
1
 10
0
 20
0
 30
0
  0
VERTEX
  8
LAYER_1
 10
352.8138
 20
-3.0422
  0
VERTEX
  8
LAYER_1
 10
353.191
 20
-3.0587
  0
VERTEX
  8
LAYER_1
 10
353.5152
 20
-3.1981
  0
VERTEX
  8
LAYER_1
 10
353.6667
 20
-3.5139
  0
VERTEX
  8
LAYER_1
 10
353.7242
 20
-4.1372
  0
SEQEND
  0
POLYLINE
  8
LAYER_1
 40
0.1764
 41
0.1764
 66
1
 10
0
 20
0
 30
0
  0
VERTEX
  8
LAYER_1
 10
353.753
 20
-4.4531
  0
VERTEX
  8
LAYER_1
 10
353.8103
 20
-5.0723
  0
VERTEX
  8
LAYER_1
 10
353.8965
 20
-5.2567
  0
VERTEX
  8
LAYER_1
 10
354.077
 20
-5.3429
  0
VERTEX
  8
LAYER_1
 10
354.6961
 20
-5.4045
  0
SEQEND
  0
POLYLINE
  8
LAYER_1
 40
0.1764
 41
0.1764
 66
1
 10
0
 20
0
 30
0
  0
VERTEX
  8
LAYER_1
 10
355.0118
 20
-5.433
  0
VERTEX
  8
LAYER_1
 10
355.6272
 20
-5.4947
  0
VERTEX
  8
LAYER_1
 10
355.8198
 20
-5.589
  0
VERTEX
  8
LAYER_1
 10
355.8976
 20
-5.7899
  0
VERTEX
  8
LAYER_1
 10
355.8976
 20
-6.5158
  0
SEQEND
  0
POLYLINE
  8
LAYER_1
 40
0.1764
 41
0.1764
 66
1
 10
0
 20
0
 30
0
  0
VERTEX
  8
LAYER_1
 10
355.8976
 20
-6.8357
  0
VERTEX
  8
LAYER_1
 10
355.8976
 20
-7.5615
  0
SEQEND
  0
POLYLINE
  8
LAYER_1
 40
0.1764
 41
0.1764
 66
1
 10
0
 20
0
 30
0
  0
VERTEX
  8
LAYER_1
 10
353.191
 20
-3.0587
  0
VERTEX
  8
LAYER_1
 10
353.9252
 20
-3.0587
  0
SEQEND
  0
POLYLINE
  8
LAYER_1
 40
0.1764
 41
0.1764
 66
1
 10
0
 20
0
 30
0
  0
VERTEX
  8
LAYER_1
 10
354.2452
 20
-3.0587
  0
VERTEX
  8
LAYER_1
 10
354.8807
 20
-3.0587
  0
SEQEND
  0
POLYLINE
  8
LAYER_1
 40
0.1764
 41
0.1764
 66
1
 10
0
 20
0
 30
0
  0
VERTEX
  8
LAYER_1
 10
355.1964
 20
-3.0587
  0
VERTEX
  8
LAYER_1
 10
355.832
 20
-3.0587
  0
SEQEND
  0
POLYLINE
  8
LAYER_1
 40
0.1764
 41
0.1764
 66
1
 10
0
 20
0
 30
0
  0
VERTEX
  8
LAYER_1
 10
356.1478
 20
-3.0587
  0
VERTEX
  8
LAYER_1
 10
356.7835
 20
-3.0587
  0
SEQEND
  0
POLYLINE
  8
LAYER_1
 40
0.1764
 41
0.1764
 66
1
 10
0
 20
0
 30
0
  0
VERTEX
  8
LAYER_1
 10
357.1033
 20
-3.0587
  0
VERTEX
  8
LAYER_1
 10
357.7389
 20
-3.0587
  0
SEQEND
  0
POLYLINE
  8
LAYER_1
 40
0.1764
 41
0.1764
 66
1
 10
0
 20
0
 30
0
  0
VERTEX
  8
LAYER_1
 10
358.0547
 20
-3.0587
  0
VERTEX
  8
LAYER_1
 10
358.6904
 20
-3.0587
  0
SEQEND
  0
POLYLINE
  8
LAYER_1
 40
0.1764
 41
0.1764
 66
1
 10
0
 20
0
 30
0
  0
VERTEX
  8
LAYER_1
 10
359.0062
 20
-3.0587
  0
VERTEX
  8
LAYER_1
 10
359.6417
 20
-3.0587
  0
SEQEND
  0
POLYLINE
  8
LAYER_1
 40
0.1764
 41
0.1764
 66
1
 10
0
 20
0
 30
0
  0
VERTEX
  8
LAYER_1
 10
359.9616
 20
-3.0587
  0
VERTEX
  8
LAYER_1
 10
360.5932
 20
-3.0587
  0
SEQEND
  0
POLYLINE
  8
LAYER_1
 40
0.1764
 41
0.1764
 66
1
 10
0
 20
0
 30
0
  0
VERTEX
  8
LAYER_1
 10
360.9132
 20
-3.0587
  0
VERTEX
  8
LAYER_1
 10
361.5487
 20
-3.0587
  0
SEQEND
  0
POLYLINE
  8
LAYER_1
 40
0.1764
 41
0.1764
 66
1
 10
0
 20
0
 30
0
  0
VERTEX
  8
LAYER_1
 10
361.8644
 20
-3.0587
  0
VERTEX
  8
LAYER_1
 10
362.6026
 20
-3.0587
  0
SEQEND
  0
POLYLINE
  8
LAYER_1
 40
0.1764
 41
0.1764
 66
1
 10
0
 20
0
 30
0
  0
VERTEX
  8
LAYER_1
 10
355.6272
 20
-5.4947
  0
VERTEX
  8
LAYER_1
 10
356.3077
 20
-5.4947
  0
SEQEND
  0
POLYLINE
  8
LAYER_1
 40
0.1764
 41
0.1764
 66
1
 10
0
 20
0
 30
0
  0
VERTEX
  8
LAYER_1
 10
356.6276
 20
-5.4947
  0
VERTEX
  8
LAYER_1
 10
357.2591
 20
-5.4947
  0
SEQEND
  0
POLYLINE
  8
LAYER_1
 40
0.1764
 41
0.1764
 66
1
 10
0
 20
0
 30
0
  0
VERTEX
  8
LAYER_1
 10
357.5791
 20
-5.4947
  0
VERTEX
  8
LAYER_1
 10
358.2146
 20
-5.4947
  0
SEQEND
  0
POLYLINE
  8
LAYER_1
 40
0.1764
 41
0.1764
 66
1
 10
0
 20
0
 30
0
  0
VERTEX
  8
LAYER_1
 10
358.5304
 20
-5.4947
  0
VERTEX
  8
LAYER_1
 10
359.166
 20
-5.4947
  0
SEQEND
  0
POLYLINE
  8
LAYER_1
 40
0.1764
 41
0.1764
 66
1
 10
0
 20
0
 30
0
  0
VERTEX
  8
LAYER_1
 10
359.4819
 20
-5.4947
  0
VERTEX
  8
LAYER_1
 10
360.1625
 20
-5.4947
  0
SEQEND
  0
POLYLINE
  8
LAYER_1
 40
0.1764
 41
0.1764
 66
1
 10
0
 20
0
 30
0
  0
VERTEX
  8
LAYER_1
 10
362.9799
 20
-3.0422
  0
VERTEX
  8
LAYER_1
 10
362.6068
 20
-3.0587
  0
VERTEX
  8
LAYER_1
 10
362.2828
 20
-3.1981
  0
VERTEX
  8
LAYER_1
 10
362.1269
 20
-3.5139
  0
VERTEX
  8
LAYER_1
 10
362.0736
 20
-4.1372
  0
SEQEND
  0
POLYLINE
  8
LAYER_1
 40
0.1764
 41
0.1764
 66
1
 10
0
 20
0
 30
0
  0
VERTEX
  8
LAYER_1
 10
362.0449
 20
-4.4531
  0
VERTEX
  8
LAYER_1
 10
361.9875
 20
-5.0723
  0
VERTEX
  8
LAYER_1
 10
361.9014
 20
-5.2567
  0
VERTEX
  8
LAYER_1
 10
361.7168
 20
-5.3429
  0
VERTEX
  8
LAYER_1
 10
361.1017
 20
-5.4045
  0
SEQEND
  0
POLYLINE
  8
LAYER_1
 40
0.1764
 41
0.1764
 66
1
 10
0
 20
0
 30
0
  0
VERTEX
  8
LAYER_1
 10
360.7859
 20
-5.433
  0
VERTEX
  8
LAYER_1
 10
360.1709
 20
-5.4947
  0
VERTEX
  8
LAYER_1
 10
359.974
 20
-5.589
  0
VERTEX
  8
LAYER_1
 10
359.896
 20
-5.7899
  0
VERTEX
  8
LAYER_1
 10
359.896
 20
-6.5158
  0
SEQEND
  0
POLYLINE
  8
LAYER_1
 40
0.1764
 41
0.1764
 66
1
 10
0
 20
0
 30
0
  0
VERTEX
  8
LAYER_1
 10
359.896
 20
-6.8357
  0
VERTEX
  8
LAYER_1
 10
359.896
 20
-7.5615
  0
SEQEND
  0
ENDBLK
  0
BLOCK
  8
LAYER_1
  2
AIGNBL0101000E
 70
64
 10
0
 20
0
 30
0
  3
AIGNBL0101000E
  0
INSERT
  8
LAYER_1
  2
AIGNBL0102000F
 10
0
 20
0
 30
0
  0
INSERT
  8
LAYER_1
  2
AIGNBL01020010
 10
0
 20
0
 30
0
  0
POLYLINE
  8
LAYER_1
 40
0.1764
 41
0.1764
 66
1
 10
0
 20
0
 30
0
  0
VERTEX
  8
LAYER_1
 10
61.0058
 20
139.6914
  0
VERTEX
  8
LAYER_1
 10
61.0058
 20
168.6974
  0
SEQEND
  0
INSERT
  8
LAYER_1
  2
AIGNBL01020011
 10
0
 20
0
 30
0
  0
POLYLINE
  8
LAYER_1
 40
0.1764
 41
0.1764
 66
1
 10
0
 20
0
 30
0
  0
VERTEX
  8
LAYER_1
 10
61.4926
 20
169.1843
  0
VERTEX
  8
LAYER_1
 10
95.5291
 20
169.1843
  0
SEQEND
  0
INSERT
  8
LAYER_1
  2
AIGNBL01020012
 10
0
 20
0
 30
0
  0
POLYLINE
  8
LAYER_1
 40
0.1764
 41
0.1764
 66
1
 10
0
 20
0
 30
0
  0
VERTEX
  8
LAYER_1
 10
96.016
 20
168.6975
  0
VERTEX
  8
LAYER_1
 10
96.016
 20
139.6916
  0
SEQEND
  0
INSERT
  8
LAYER_1
  2
AIGNBL01020013
 10
0
 20
0
 30
0
  0
POLYLINE
  8
LAYER_1
 40
0.1764
 41
0.1764
 66
1
 10
0
 20
0
 30
0
  0
VERTEX
  8
LAYER_1
 10
95.5292
 20
139.2046
  0
VERTEX
  8
LAYER_1
 10
61.4927
 20
139.2046
  0
SEQEND
  0
INSERT
  8
LAYER_1
  2
AIGNBL01020014
 10
0
 20
0
 30
0
  0
POLYLINE
  8
LAYER_1
 40
0.1764
 41
0.1764
 66
1
 10
0
 20
0
 30
0
  0
VERTEX
  8
LAYER_1
 10
63.0747
 20
142.2472
  0
VERTEX
  8
LAYER_1
 10
63.0747
 20
166.1419
  0
SEQEND
  0
INSERT
  8
LAYER_1
  2
AIGNBL01020015
 10
0
 20
0
 30
0
  0
POLYLINE
  8
LAYER_1
 40
0.1764
 41
0.1764
 66
1
 10
0
 20
0
 30
0
  0
VERTEX
  8
LAYER_1
 10
64.0484
 20
167.1154
  0
VERTEX
  8
LAYER_1
 10
92.9329
 20
167.1154
  0
SEQEND
  0
INSERT
  8
LAYER_1
  2
AIGNBL01020016
 10
0
 20
0
 30
0
  0
POLYLINE
  8
LAYER_1
 40
0.1764
 41
0.1764
 66
1
 10
0
 20
0
 30
0
  0
VERTEX
  8
LAYER_1
 10
93.947
 20
166.1417
  0
VERTEX
  8
LAYER_1
 10
93.947
 20
142.247
  0
SEQEND
  0
INSERT
  8
LAYER_1
  2
AIGNBL01020017
 10
0
 20
0
 30
0
  0
POLYLINE
  8
LAYER_1
 40
0.1764
 41
0.1764
 66
1
 10
0
 20
0
 30
0
  0
VERTEX
  8
LAYER_1
 10
92.9328
 20
141.233
  0
VERTEX
  8
LAYER_1
 10
64.0483
 20
141.233
  0
SEQEND
  0
POLYLINE
  8
LAYER_1
 40
0.1764
 41
0.1764
 66
1
 10
0
 20
0
 30
0
  0
VERTEX
  8
LAYER_1
 10
116.016
 20
180.1783
  0
VERTEX
  8
LAYER_1
 10
116.016
 20
134.7016
  0
SEQEND
  0
INSERT
  8
LAYER_1
  2
AIGNBL01020018
 10
0
 20
0
 30
0
  0
POLYLINE
  8
LAYER_1
 40
0.1764
 41
0.1764
 66
1
 10
0
 20
0
 30
0
  0
VERTEX
  8
LAYER_1
 10
115.5292
 20
134.1741
  0
VERTEX
  8
LAYER_1
 10
56.5026
 20
134.1741
  0
SEQEND
  0
INSERT
  8
LAYER_1
  2
AIGNBL01020019
 10
0
 20
0
 30
0
  0
POLYLINE
  8
LAYER_1
 40
0.1764
 41
0.1764
 66
1
 10
0
 20
0
 30
0
  0
VERTEX
  8
LAYER_1
 10
56.0159
 20
134.7015
  0
VERTEX
  8
LAYER_1
 10
56.0159
 20
180.1782
  0
VERTEX
  8
LAYER_1
 10
116.0161
 20
180.1782
  0
SEQEND
  0
POLYLINE
  8
LAYER_1
 40
0.1764
 41
0.1764
 66
1
 10
0
 20
0
 30
0
  0
VERTEX
  8
LAYER_1
 10
174.3934
 20
92.8353
  0
VERTEX
  8
LAYER_1
 10
175.5701
 20
92.8353
  0
SEQEND
  0
POLYLINE
  8
LAYER_1
 40
0.1764
 41
0.1764
 66
1
 10
0
 20
0
 30
0
  0
VERTEX
  8
LAYER_1
 10
198.3285
 20
95.9185
  0
VERTEX
  8
LAYER_1
 10
198.3285
 20
110.8474
  0
VERTEX
  8
LAYER_1
 10
152.6086
 20
110.8474
  0
SEQEND
  0
INSERT
  8
LAYER_1
  2
AIGNBL0102001A
 10
0
 20
0
 30
0
  0
POLYLINE
  8
LAYER_1
 40
0.1764
 41
0.1764
 66
1
 10
0
 20
0
 30
0
  0
VERTEX
  8
LAYER_1
 10
152.3244
 20
110.5635
  0
VERTEX
  8
LAYER_1
 10
152.3244
 20
109.6306
  0
SEQEND
  0
INSERT
  8
LAYER_1
  2
AIGNBL0102001B
 10
0
 20
0
 30
0
  0
POLYLINE
  8
LAYER_1
 40
0.1764
 41
0.1764
 66
1
 10
0
 20
0
 30
0
  0
VERTEX
  8
LAYER_1
 10
152.6084
 20
109.3465
  0
VERTEX
  8
LAYER_1
 10
198.3284
 20
109.3465
  0
SEQEND
  0
POLYLINE
  8
LAYER_1
 40
0.1764
 41
0.1764
 66
1
 10
0
 20
0
 30
0
  0
VERTEX
  8
LAYER_1
 10
198.3285
 20
95.9185
  0
VERTEX
  8
LAYER_1
 10
182.71
 20
95.9185
  0
VERTEX
  8
LAYER_1
 10
171.9188
 20
95.9185
  0
VERTEX
  8
LAYER_1
 10
158.8965
 20
96.4863
  0
VERTEX
  8
LAYER_1
 10
158.6934
 20
96.5676
  0
VERTEX
  8
LAYER_1
 10
158.6126
 20
96.73
  0
VERTEX
  8
LAYER_1
 10
156.4217
 20
109.1033
  0
SEQEND
  0
INSERT
  8
LAYER_1
  2
AIGNBL0102001C
 10
0
 20
0
 30
0
  0
POLYLINE
  8
LAYER_1
 40
0.1764
 41
0.1764
 66
1
 10
0
 20
0
 30
0
  0
VERTEX
  8
LAYER_1
 10
172.2433
 20
95.6345
  0
VERTEX
  8
LAYER_1
 10
172.4058
 20
93.89
  0
SEQEND
  0
INSERT
  8
LAYER_1
  2
AIGNBL0102001D
 10
0
 20
0
 30
0
  0
POLYLINE
  8
LAYER_1
 40
0.1764
 41
0.1764
 66
1
 10
0
 20
0
 30
0
  0
VERTEX
  8
LAYER_1
 10
172.6896
 20
93.6061
  0
VERTEX
  8
LAYER_1
 10
177.3142
 20
93.6061
  0
SEQEND
  0
INSERT
  8
LAYER_1
  2
AIGNBL0102001E
 10
0
 20
0
 30
0
  0
POLYLINE
  8
LAYER_1
 40
0.1764
 41
0.1764
 66
1
 10
0
 20
0
 30
0
  0
VERTEX
  8
LAYER_1
 10
182.3853
 20
95.6345
  0
VERTEX
  8
LAYER_1
 10
182.2228
 20
93.89
  0
SEQEND
  0
INSERT
  8
LAYER_1
  2
AIGNBL0102001F
 10
0
 20
0
 30
0
  0
POLYLINE
  8
LAYER_1
 40
0.1764
 41
0.1764
 66
1
 10
0
 20
0
 30
0
  0
VERTEX
  8
LAYER_1
 10
181.9391
 20
93.6061
  0
VERTEX
  8
LAYER_1
 10
177.3144
 20
93.6061
  0
SEQEND
  0
POLYLINE
  8
LAYER_1
 40
0.1764
 41
0.1764
 66
1
 10
0
 20
0
 30
0
 70
1
  0
VERTEX
  8
LAYER_1
 10
180.2757
 20
92.8351
  0
VERTEX
  8
LAYER_1
 10
174.3935
 20
92.8351
  0
VERTEX
  8
LAYER_1
 10
174.3935
 20
93.606
  0
VERTEX
  8
LAYER_1
 10
180.2757
 20
93.606
  0
SEQEND
  0
POLYLINE
  8
LAYER_1
 40
0.0882
 41
0.0882
 66
1
 10
0
 20
0
 30
0
  0
VERTEX
  8
LAYER_1
 10
152.3244
 20
110.1579
  0
VERTEX
  8
LAYER_1
 10
152.3244
 20
115.1071
  0
SEQEND
  0
POLYLINE
  8
LAYER_1
 40
0.0882
 41
0.0882
 66
1
 10
0
 20
0
 30
0
  0
VERTEX
  8
LAYER_1
 10
198.3285
 20
110.1579
  0
VERTEX
  8
LAYER_1
 10
198.3285
 20
115.1071
  0
SEQEND
  0
POLYLINE
  8
LAYER_1
 40
0.0882
 41
0.0882
 66
1
 10
0
 20
0
 30
0
  0
VERTEX
  8
LAYER_1
 10
153.8254
 20
114.9855
  0
VERTEX
  8
LAYER_1
 10
172.446
 20
114.9855
  0
SEQEND
  0
POLYLINE
  8
LAYER_1
 40
0.0882
 41
0.0882
 66
1
 10
0
 20
0
 30
0
  0
VERTEX
  8
LAYER_1
 10
196.8275
 20
114.9855
  0
VERTEX
  8
LAYER_1
 10
179.5691
 20
114.9855
  0
SEQEND
  0
POLYLINE
  8
LAYER_1
 40
0.05
 41
0.05
 66
1
 10
0
 20
0
 30
0
 70
1
  0
VERTEX
  8
LAYER_1
 10
153.8254
 20
115.2289
  0
VERTEX
  8
LAYER_1
 10
153.8254
 20
114.7017
  0
VERTEX
  8
LAYER_1
 10
152.3246
 20
114.9856
  0
SEQEND
  0
POLYLINE
  8
LAYER_1
 40
0.0882
 41
0.0882
 66
1
 10
0
 20
0
 30
0
 70
1
  0
VERTEX
  8
LAYER_1
 10
153.8254
 20
115.2289
  0
VERTEX
  8
LAYER_1
 10
153.8254
 20
114.7017
  0
VERTEX
  8
LAYER_1
 10
152.3246
 20
114.9856
  0
SEQEND
  0
POLYLINE
  8
LAYER_1
 40
0.05
 41
0.05
 66
1
 10
0
 20
0
 30
0
 70
1
  0
VERTEX
  8
LAYER_1
 10
196.8275
 20
115.2289
  0
VERTEX
  8
LAYER_1
 10
196.8275
 20
114.7017
  0
VERTEX
  8
LAYER_1
 10
198.3287
 20
114.9856
  0
SEQEND
  0
POLYLINE
  8
LAYER_1
 40
0.0882
 41
0.0882
 66
1
 10
0
 20
0
 30
0
 70
1
  0
VERTEX
  8
LAYER_1
 10
196.8275
 20
115.2289
  0
VERTEX
  8
LAYER_1
 10
196.8275
 20
114.7017
  0
VERTEX
  8
LAYER_1
 10
198.3287
 20
114.9856
  0
SEQEND
  0
TEXT
  8
LAYER_1
 10
172.9137
 20
113.7597
 11
172.9137
 21
113.7597
 40
3.3492
 41
0.5
  1
460
  0
POLYLINE
  8
LAYER_1
 40
0.0882
 41
0.0882
 66
1
 10
0
 20
0
 30
0
  0
VERTEX
  8
LAYER_1
 10
187.3346
 20
110.8475
  0
VERTEX
  8
LAYER_1
 10
187.2128
 20
110.0766
  0
SEQEND
  0
POLYLINE
  8
LAYER_1
 40
0.0882
 41
0.0882
 66
1
 10
0
 20
0
 30
0
  0
VERTEX
  8
LAYER_1
 10
187.1723
 20
109.7928
  0
VERTEX
  8
LAYER_1
 10
187.0911
 20
109.1437
  0
SEQEND
  0
POLYLINE
  8
LAYER_1
 40
0.0882
 41
0.0882
 66
1
 10
0
 20
0
 30
0
  0
VERTEX
  8
LAYER_1
 10
187.01
 20
108.8191
  0
VERTEX
  8
LAYER_1
 10
186.9288
 20
108.2107
  0
SEQEND
  0
POLYLINE
  8
LAYER_1
 40
0.0882
 41
0.0882
 66
1
 10
0
 20
0
 30
0
  0
VERTEX
  8
LAYER_1
 10
186.8884
 20
107.8861
  0
VERTEX
  8
LAYER_1
 10
186.8071
 20
107.2776
  0
SEQEND
  0
POLYLINE
  8
LAYER_1
 40
0.0882
 41
0.0882
 66
1
 10
0
 20
0
 30
0
  0
VERTEX
  8
LAYER_1
 10
186.7261
 20
106.953
  0
VERTEX
  8
LAYER_1
 10
186.6449
 20
106.3039
  0
SEQEND
  0
POLYLINE
  8
LAYER_1
 40
0.0882
 41
0.0882
 66
1
 10
0
 20
0
 30
0
  0
VERTEX
  8
LAYER_1
 10
186.6044
 20
106.0199
  0
VERTEX
  8
LAYER_1
 10
186.5231
 20
105.3709
  0
SEQEND
  0
POLYLINE
  8
LAYER_1
 40
0.0882
 41
0.0882
 66
1
 10
0
 20
0
 30
0
  0
VERTEX
  8
LAYER_1
 10
186.4827
 20
105.0463
  0
VERTEX
  8
LAYER_1
 10
186.3608
 20
104.4379
  0
SEQEND
  0
POLYLINE
  8
LAYER_1
 40
0.0882
 41
0.0882
 66
1
 10
0
 20
0
 30
0
  0
VERTEX
  8
LAYER_1
 10
186.3204
 20
104.1132
  0
VERTEX
  8
LAYER_1
 10
186.2392
 20
103.5048
  0
SEQEND
  0
POLYLINE
  8
LAYER_1
 40
0.0882
 41
0.0882
 66
1
 10
0
 20
0
 30
0
  0
VERTEX
  8
LAYER_1
 10
186.1987
 20
103.1802
  0
VERTEX
  8
LAYER_1
 10
186.0768
 20
102.5718
  0
SEQEND
  0
POLYLINE
  8
LAYER_1
 40
0.0882
 41
0.0882
 66
1
 10
0
 20
0
 30
0
  0
VERTEX
  8
LAYER_1
 10
186.0364
 20
102.2471
  0
VERTEX
  8
LAYER_1
 10
185.9552
 20
101.5981
  0
SEQEND
  0
POLYLINE
  8
LAYER_1
 40
0.0882
 41
0.0882
 66
1
 10
0
 20
0
 30
0
  0
VERTEX
  8
LAYER_1
 10
185.9147
 20
101.314
  0
VERTEX
  8
LAYER_1
 10
185.7929
 20
100.665
  0
SEQEND
  0
POLYLINE
  8
LAYER_1
 40
0.0882
 41
0.0882
 66
1
 10
0
 20
0
 30
0
  0
VERTEX
  8
LAYER_1
 10
185.7525
 20
100.3404
  0
VERTEX
  8
LAYER_1
 10
185.6712
 20
99.732
  0
SEQEND
  0
POLYLINE
  8
LAYER_1
 40
0.0882
 41
0.0882
 66
1
 10
0
 20
0
 30
0
  0
VERTEX
  8
LAYER_1
 10
185.6307
 20
99.4074
  0
VERTEX
  8
LAYER_1
 10
185.5089
 20
98.6365
  0
SEQEND
  0
POLYLINE
  8
LAYER_1
 40
0.0882
 41
0.0882
 66
1
 10
0
 20
0
 30
0
  0
VERTEX
  8
LAYER_1
 10
185.225
 20
98.3932
  0
VERTEX
  8
LAYER_1
 10
185.2657
 20
98.3932
  0
VERTEX
  8
LAYER_1
 10
185.3469
 20
98.4338
  0
VERTEX
  8
LAYER_1
 10
185.3875
 20
98.4744
  0
VERTEX
  8
LAYER_1
 10
185.4277
 20
98.515
  0
VERTEX
  8
LAYER_1
 10
185.4683
 20
98.5556
  0
VERTEX
  8
LAYER_1
 10
185.509
 20
98.5958
  0
VERTEX
  8
LAYER_1
 10
185.509
 20
98.6365
  0
SEQEND
  0
POLYLINE
  8
LAYER_1
 40
0.0882
 41
0.0882
 66
1
 10
0
 20
0
 30
0
  0
VERTEX
  8
LAYER_1
 10
185.225
 20
98.3932
  0
VERTEX
  8
LAYER_1
 10
184.4947
 20
98.1092
  0
SEQEND
  0
POLYLINE
  8
LAYER_1
 40
0.0882
 41
0.0882
 66
1
 10
0
 20
0
 30
0
  0
VERTEX
  8
LAYER_1
 10
184.2109
 20
97.9875
  0
VERTEX
  8
LAYER_1
 10
183.6024
 20
97.7442
  0
SEQEND
  0
POLYLINE
  8
LAYER_1
 40
0.0882
 41
0.0882
 66
1
 10
0
 20
0
 30
0
  0
VERTEX
  8
LAYER_1
 10
183.3184
 20
97.6224
  0
VERTEX
  8
LAYER_1
 10
182.5881
 20
97.3384
  0
SEQEND
  0
POLYLINE
  8
LAYER_1
 40
0.0882
 41
0.0882
 66
1
 10
0
 20
0
 30
0
  0
VERTEX
  8
LAYER_1
 10
157.3143
 20
110.8475
  0
VERTEX
  8
LAYER_1
 10
157.4361
 20
110.0766
  0
SEQEND
  0
POLYLINE
  8
LAYER_1
 40
0.0882
 41
0.0882
 66
1
 10
0
 20
0
 30
0
  0
VERTEX
  8
LAYER_1
 10
157.4766
 20
109.7928
  0
VERTEX
  8
LAYER_1
 10
157.5984
 20
109.1437
  0
SEQEND
  0
POLYLINE
  8
LAYER_1
 40
0.0882
 41
0.0882
 66
1
 10
0
 20
0
 30
0
  0
VERTEX
  8
LAYER_1
 10
157.6388
 20
108.8191
  0
VERTEX
  8
LAYER_1
 10
157.7201
 20
108.2107
  0
SEQEND
  0
POLYLINE
  8
LAYER_1
 40
0.0882
 41
0.0882
 66
1
 10
0
 20
0
 30
0
  0
VERTEX
  8
LAYER_1
 10
157.7605
 20
107.8861
  0
VERTEX
  8
LAYER_1
 10
157.8418
 20
107.2776
  0
SEQEND
  0
POLYLINE
  8
LAYER_1
 40
0.0882
 41
0.0882
 66
1
 10
0
 20
0
 30
0
  0
VERTEX
  8
LAYER_1
 10
157.9228
 20
106.953
  0
VERTEX
  8
LAYER_1
 10
158.004
 20
106.3039
  0
SEQEND
  0
POLYLINE
  8
LAYER_1
 40
0.0882
 41
0.0882
 66
1
 10
0
 20
0
 30
0
  0
VERTEX
  8
LAYER_1
 10
158.0445
 20
106.0199
  0
VERTEX
  8
LAYER_1
 10
158.1258
 20
105.3709
  0
SEQEND
  0
POLYLINE
  8
LAYER_1
 40
0.0882
 41
0.0882
 66
1
 10
0
 20
0
 30
0
  0
VERTEX
  8
LAYER_1
 10
158.2068
 20
105.0463
  0
VERTEX
  8
LAYER_1
 10
158.288
 20
104.4379
  0
SEQEND
  0
POLYLINE
  8
LAYER_1
 40
0.0882
 41
0.0882
 66
1
 10
0
 20
0
 30
0
  0
VERTEX
  8
LAYER_1
 10
158.3285
 20
104.1132
  0
VERTEX
  8
LAYER_1
 10
158.4097
 20
103.5048
  0
SEQEND
  0
POLYLINE
  8
LAYER_1
 40
0.0882
 41
0.0882
 66
1
 10
0
 20
0
 30
0
  0
VERTEX
  8
LAYER_1
 10
158.4502
 20
103.1802
  0
VERTEX
  8
LAYER_1
 10
158.572
 20
102.5718
  0
SEQEND
  0
POLYLINE
  8
LAYER_1
 40
0.0882
 41
0.0882
 66
1
 10
0
 20
0
 30
0
  0
VERTEX
  8
LAYER_1
 10
158.6125
 20
102.2471
  0
VERTEX
  8
LAYER_1
 10
158.6937
 20
101.5981
  0
SEQEND
  0
POLYLINE
  8
LAYER_1
 40
0.0882
 41
0.0882
 66
1
 10
0
 20
0
 30
0
  0
VERTEX
  8
LAYER_1
 10
158.7342
 20
101.314
  0
VERTEX
  8
LAYER_1
 10
158.856
 20
100.665
  0
SEQEND
  0
POLYLINE
  8
LAYER_1
 40
0.0882
 41
0.0882
 66
1
 10
0
 20
0
 30
0
  0
VERTEX
  8
LAYER_1
 10
158.8964
 20
100.3404
  0
VERTEX
  8
LAYER_1
 10
158.9777
 20
99.732
  0
SEQEND
  0
POLYLINE
  8
LAYER_1
 40
0.0882
 41
0.0882
 66
1
 10
0
 20
0
 30
0
  0
VERTEX
  8
LAYER_1
 10
159.0181
 20
99.4074
  0
VERTEX
  8
LAYER_1
 10
159.14
 20
98.6365
  0
VERTEX
  8
LAYER_1
 10
159.14
 20
98.5958
  0
VERTEX
  8
LAYER_1
 10
159.1806
 20
98.5556
  0
VERTEX
  8
LAYER_1
 10
159.2208
 20
98.515
  0
VERTEX
  8
LAYER_1
 10
159.2614
 20
98.4744
  0
VERTEX
  8
LAYER_1
 10
159.302
 20
98.4338
  0
VERTEX
  8
LAYER_1
 10
159.3833
 20
98.3932
  0
VERTEX
  8
LAYER_1
 10
159.4239
 20
98.3932
  0
VERTEX
  8
LAYER_1
 10
159.9917
 20
98.3525
  0
SEQEND
  0
POLYLINE
  8
LAYER_1
 40
0.0882
 41
0.0882
 66
1
 10
0
 20
0
 30
0
  0
VERTEX
  8
LAYER_1
 10
160.3163
 20
98.3526
  0
VERTEX
  8
LAYER_1
 10
160.9248
 20
98.2713
  0
SEQEND
  0
POLYLINE
  8
LAYER_1
 40
0.0882
 41
0.0882
 66
1
 10
0
 20
0
 30
0
  0
VERTEX
  8
LAYER_1
 10
161.2494
 20
98.2714
  0
VERTEX
  8
LAYER_1
 10
161.8984
 20
98.2308
  0
SEQEND
  0
POLYLINE
  8
LAYER_1
 40
0.0882
 41
0.0882
 66
1
 10
0
 20
0
 30
0
  0
VERTEX
  8
LAYER_1
 10
162.223
 20
98.1903
  0
VERTEX
  8
LAYER_1
 10
162.8315
 20
98.1497
  0
SEQEND
  0
POLYLINE
  8
LAYER_1
 40
0.0882
 41
0.0882
 66
1
 10
0
 20
0
 30
0
  0
VERTEX
  8
LAYER_1
 10
163.1561
 20
98.1092
  0
VERTEX
  8
LAYER_1
 10
163.8051
 20
98.0685
  0
SEQEND
  0
POLYLINE
  8
LAYER_1
 40
0.0882
 41
0.0882
 66
1
 10
0
 20
0
 30
0
  0
VERTEX
  8
LAYER_1
 10
164.1297
 20
98.0281
  0
VERTEX
  8
LAYER_1
 10
164.7382
 20
97.9874
  0
SEQEND
  0
POLYLINE
  8
LAYER_1
 40
0.0882
 41
0.0882
 66
1
 10
0
 20
0
 30
0
  0
VERTEX
  8
LAYER_1
 10
165.0628
 20
97.9875
  0
VERTEX
  8
LAYER_1
 10
165.7118
 20
97.9062
  0
SEQEND
  0
POLYLINE
  8
LAYER_1
 40
0.0882
 41
0.0882
 66
1
 10
0
 20
0
 30
0
  0
VERTEX
  8
LAYER_1
 10
165.9958
 20
97.9063
  0
VERTEX
  8
LAYER_1
 10
166.6449
 20
97.8657
  0
SEQEND
  0
POLYLINE
  8
LAYER_1
 40
0.0882
 41
0.0882
 66
1
 10
0
 20
0
 30
0
  0
VERTEX
  8
LAYER_1
 10
166.9695
 20
97.8252
  0
VERTEX
  8
LAYER_1
 10
167.5779
 20
97.7846
  0
SEQEND
  0
POLYLINE
  8
LAYER_1
 40
0.0882
 41
0.0882
 66
1
 10
0
 20
0
 30
0
  0
VERTEX
  8
LAYER_1
 10
167.9025
 20
97.7441
  0
VERTEX
  8
LAYER_1
 10
168.5516
 20
97.7034
  0
SEQEND
  0
POLYLINE
  8
LAYER_1
 40
0.0882
 41
0.0882
 66
1
 10
0
 20
0
 30
0
  0
VERTEX
  8
LAYER_1
 10
168.8762
 20
97.6629
  0
VERTEX
  8
LAYER_1
 10
169.4846
 20
97.6223
  0
SEQEND
  0
POLYLINE
  8
LAYER_1
 40
0.0882
 41
0.0882
 66
1
 10
0
 20
0
 30
0
  0
VERTEX
  8
LAYER_1
 10
169.8092
 20
97.6224
  0
VERTEX
  8
LAYER_1
 10
170.4583
 20
97.5817
  0
SEQEND
  0
POLYLINE
  8
LAYER_1
 40
0.0882
 41
0.0882
 66
1
 10
0
 20
0
 30
0
  0
VERTEX
  8
LAYER_1
 10
170.7423
 20
97.5412
  0
VERTEX
  8
LAYER_1
 10
171.3913
 20
97.5006
  0
SEQEND
  0
POLYLINE
  8
LAYER_1
 40
0.0882
 41
0.0882
 66
1
 10
0
 20
0
 30
0
  0
VERTEX
  8
LAYER_1
 10
171.7159
 20
97.4601
  0
VERTEX
  8
LAYER_1
 10
172.3244
 20
97.4195
  0
SEQEND
  0
POLYLINE
  8
LAYER_1
 40
0.0882
 41
0.0882
 66
1
 10
0
 20
0
 30
0
  0
VERTEX
  8
LAYER_1
 10
172.649
 20
97.3789
  0
VERTEX
  8
LAYER_1
 10
173.2168
 20
97.3383
  0
SEQEND
  0
POLYLINE
  8
LAYER_1
 40
0.0882
 41
0.0882
 66
1
 10
0
 20
0
 30
0
  0
VERTEX
  8
LAYER_1
 10
173.2169
 20
97.3384
  0
VERTEX
  8
LAYER_1
 10
173.9472
 20
97.3384
  0
SEQEND
  0
POLYLINE
  8
LAYER_1
 40
0.0882
 41
0.0882
 66
1
 10
0
 20
0
 30
0
  0
VERTEX
  8
LAYER_1
 10
174.2311
 20
97.3384
  0
VERTEX
  8
LAYER_1
 10
174.8802
 20
97.3384
  0
SEQEND
  0
POLYLINE
  8
LAYER_1
 40
0.0882
 41
0.0882
 66
1
 10
0
 20
0
 30
0
  0
VERTEX
  8
LAYER_1
 10
175.2048
 20
97.3384
  0
VERTEX
  8
LAYER_1
 10
175.8538
 20
97.3384
  0
SEQEND
  0
POLYLINE
  8
LAYER_1
 40
0.0882
 41
0.0882
 66
1
 10
0
 20
0
 30
0
  0
VERTEX
  8
LAYER_1
 10
176.1378
 20
97.3384
  0
VERTEX
  8
LAYER_1
 10
176.7869
 20
97.3384
  0
SEQEND
  0
POLYLINE
  8
LAYER_1
 40
0.0882
 41
0.0882
 66
1
 10
0
 20
0
 30
0
  0
VERTEX
  8
LAYER_1
 10
177.1115
 20
97.3384
  0
VERTEX
  8
LAYER_1
 10
177.7605
 20
97.3384
  0
SEQEND
  0
POLYLINE
  8
LAYER_1
 40
0.0882
 41
0.0882
 66
1
 10
0
 20
0
 30
0
  0
VERTEX
  8
LAYER_1
 10
178.0445
 20
97.3384
  0
VERTEX
  8
LAYER_1
 10
178.6936
 20
97.3384
  0
SEQEND
  0
POLYLINE
  8
LAYER_1
 40
0.0882
 41
0.0882
 66
1
 10
0
 20
0
 30
0
  0
VERTEX
  8
LAYER_1
 10
179.0182
 20
97.3384
  0
VERTEX
  8
LAYER_1
 10
179.6672
 20
97.3384
  0
SEQEND
  0
POLYLINE
  8
LAYER_1
 40
0.0882
 41
0.0882
 66
1
 10
0
 20
0
 30
0
  0
VERTEX
  8
LAYER_1
 10
179.9512
 20
97.3384
  0
VERTEX
  8
LAYER_1
 10
180.6003
 20
97.3384
  0
SEQEND
  0
POLYLINE
  8
LAYER_1
 40
0.0882
 41
0.0882
 66
1
 10
0
 20
0
 30
0
  0
VERTEX
  8
LAYER_1
 10
180.9249
 20
97.3384
  0
VERTEX
  8
LAYER_1
 10
181.5333
 20
97.3384
  0
SEQEND
  0
POLYLINE
  8
LAYER_1
 40
0.0882
 41
0.0882
 66
1
 10
0
 20
0
 30
0
  0
VERTEX
  8
LAYER_1
 10
181.8579
 20
97.3384
  0
VERTEX
  8
LAYER_1
 10
182.5882
 20
97.3384
  0
SEQEND
  0
POLYLINE
  8
LAYER_1
 40
0.0882
 41
0.0882
 66
1
 10
0
 20
0
 30
0
  0
VERTEX
  8
LAYER_1
 10
177.8417
 20
97.3384
  0
VERTEX
  8
LAYER_1
 10
173.4197
 20
97.3384
  0
SEQEND
  0
POLYLINE
  8
LAYER_1
 40
0.0882
 41
0.0882
 66
1
 10
0
 20
0
 30
0
  0
VERTEX
  8
LAYER_1
 10
177.8417
 20
110.8475
  0
VERTEX
  8
LAYER_1
 10
173.4197
 20
110.8475
  0
SEQEND
  0
POLYLINE
  8
LAYER_1
 40
0.0882
 41
0.0882
 66
1
 10
0
 20
0
 30
0
  0
VERTEX
  8
LAYER_1
 10
173.5415
 20
98.8394
  0
VERTEX
  8
LAYER_1
 10
173.5415
 20
99.937
  0
SEQEND
  0
POLYLINE
  8
LAYER_1
 40
0.0882
 41
0.0882
 66
1
 10
0
 20
0
 30
0
  0
VERTEX
  8
LAYER_1
 10
173.5415
 20
109.3465
  0
VERTEX
  8
LAYER_1
 10
173.5415
 20
105.6256
  0
SEQEND
  0
POLYLINE
  8
LAYER_1
 40
0.05
 41
0.05
 66
1
 10
0
 20
0
 30
0
 70
1
  0
VERTEX
  8
LAYER_1
 10
173.2981
 20
98.8394
  0
VERTEX
  8
LAYER_1
 10
173.8253
 20
98.8394
  0
VERTEX
  8
LAYER_1
 10
173.5414
 20
97.3386
  0
SEQEND
  0
POLYLINE
  8
LAYER_1
 40
0.0882
 41
0.0882
 66
1
 10
0
 20
0
 30
0
 70
1
  0
VERTEX
  8
LAYER_1
 10
173.2981
 20
98.8394
  0
VERTEX
  8
LAYER_1
 10
173.8253
 20
98.8394
  0
VERTEX
  8
LAYER_1
 10
173.5414
 20
97.3386
  0
SEQEND
  0
POLYLINE
  8
LAYER_1
 40
0.05
 41
0.05
 66
1
 10
0
 20
0
 30
0
 70
1
  0
VERTEX
  8
LAYER_1
 10
173.2981
 20
109.3465
  0
VERTEX
  8
LAYER_1
 10
173.8253
 20
109.3465
  0
VERTEX
  8
LAYER_1
 10
173.5414
 20
110.8477
  0
SEQEND
  0
POLYLINE
  8
LAYER_1
 40
0.0882
 41
0.0882
 66
1
 10
0
 20
0
 30
0
 70
1
  0
VERTEX
  8
LAYER_1
 10
173.2981
 20
109.3465
  0
VERTEX
  8
LAYER_1
 10
173.8253
 20
109.3465
  0
VERTEX
  8
LAYER_1
 10
173.5414
 20
110.8477
  0
SEQEND
  0
TEXT
  8
LAYER_1
 10
174.9093
 20
100.248
 11
174.9093
 21
100.248
 40
3.3492
 41
0.5
 50
89.99999999
  1
135
  0
POLYLINE
  8
LAYER_1
 40
0.0882
 41
0.0882
 66
1
 10
0
 20
0
 30
0
  0
VERTEX
  8
LAYER_1
 10
193.5821
 20
110.8475
  0
VERTEX
  8
LAYER_1
 10
193.5821
 20
110.2391
  0
SEQEND
  0
POLYLINE
  8
LAYER_1
 40
0.0882
 41
0.0882
 66
1
 10
0
 20
0
 30
0
  0
VERTEX
  8
LAYER_1
 10
193.5821
 20
109.955
  0
VERTEX
  8
LAYER_1
 10
193.5821
 20
109.3466
  0
SEQEND
  0
POLYLINE
  8
LAYER_1
 40
0.0882
 41
0.0882
 66
1
 10
0
 20
0
 30
0
  0
VERTEX
  8
LAYER_1
 10
190.0932
 20
110.8475
  0
VERTEX
  8
LAYER_1
 10
190.0932
 20
110.2391
  0
SEQEND
  0
POLYLINE
  8
LAYER_1
 40
0.0882
 41
0.0882
 66
1
 10
0
 20
0
 30
0
  0
VERTEX
  8
LAYER_1
 10
190.0932
 20
109.955
  0
VERTEX
  8
LAYER_1
 10
190.0932
 20
109.3466
  0
SEQEND
  0
POLYLINE
  8
LAYER_1
 40
0.0882
 41
0.0882
 66
1
 10
0
 20
0
 30
0
  0
VERTEX
  8
LAYER_1
 10
190.0932
 20
109.3465
  0
VERTEX
  8
LAYER_1
 10
190.0932
 20
109.9549
  0
SEQEND
  0
POLYLINE
  8
LAYER_1
 40
0.0882
 41
0.0882
 66
1
 10
0
 20
0
 30
0
  0
VERTEX
  8
LAYER_1
 10
190.0932
 20
110.239
  0
VERTEX
  8
LAYER_1
 10
190.0932
 20
110.8475
  0
SEQEND
  0
POLYLINE
  8
LAYER_1
 40
0.0882
 41
0.0882
 66
1
 10
0
 20
0
 30
0
  0
VERTEX
  8
LAYER_1
 10
193.5821
 20
109.3465
  0
VERTEX
  8
LAYER_1
 10
193.5821
 20
109.9549
  0
SEQEND
  0
POLYLINE
  8
LAYER_1
 40
0.0882
 41
0.0882
 66
1
 10
0
 20
0
 30
0
  0
VERTEX
  8
LAYER_1
 10
193.5821
 20
110.239
  0
VERTEX
  8
LAYER_1
 10
193.5821
 20
110.8475
  0
SEQEND
  0
POLYLINE
  8
LAYER_1
 40
0.0882
 41
0.0882
 66
1
 10
0
 20
0
 30
0
  0
VERTEX
  8
LAYER_1
 10
191.8377
 20
110.1579
  0
VERTEX
  8
LAYER_1
 10
191.8377
 20
112.8353
  0
SEQEND
  0
POLYLINE
  8
LAYER_1
 40
0.0882
 41
0.0882
 66
1
 10
0
 20
0
 30
0
  0
VERTEX
  8
LAYER_1
 10
198.3285
 20
110.1579
  0
VERTEX
  8
LAYER_1
 10
198.3285
 20
112.8353
  0
SEQEND
  0
POLYLINE
  8
LAYER_1
 40
0.0882
 41
0.0882
 66
1
 10
0
 20
0
 30
0
  0
VERTEX
  8
LAYER_1
 10
190.3367
 20
112.7137
  0
VERTEX
  8
LAYER_1
 10
188.8354
 20
112.7137
  0
SEQEND
  0
POLYLINE
  8
LAYER_1
 40
0.0882
 41
0.0882
 66
1
 10
0
 20
0
 30
0
  0
VERTEX
  8
LAYER_1
 10
199.8295
 20
112.7137
  0
VERTEX
  8
LAYER_1
 10
201.3308
 20
112.7137
  0
SEQEND
  0
POLYLINE
  8
LAYER_1
 40
0.0882
 41
0.0882
 66
1
 10
0
 20
0
 30
0
  0
VERTEX
  8
LAYER_1
 10
191.8377
 20
112.7137
  0
VERTEX
  8
LAYER_1
 10
192.5106
 20
112.7137
  0
SEQEND
  0
POLYLINE
  8
LAYER_1
 40
0.0882
 41
0.0882
 66
1
 10
0
 20
0
 30
0
  0
VERTEX
  8
LAYER_1
 10
198.3285
 20
112.7137
  0
VERTEX
  8
LAYER_1
 10
196.9492
 20
112.7137
  0
SEQEND
  0
POLYLINE
  8
LAYER_1
 40
0.05
 41
0.05
 66
1
 10
0
 20
0
 30
0
 70
1
  0
VERTEX
  8
LAYER_1
 10
190.3367
 20
112.9571
  0
VERTEX
  8
LAYER_1
 10
190.3367
 20
112.4701
  0
VERTEX
  8
LAYER_1
 10
191.8379
 20
112.7138
  0
SEQEND
  0
POLYLINE
  8
LAYER_1
 40
0.0882
 41
0.0882
 66
1
 10
0
 20
0
 30
0
 70
1
  0
VERTEX
  8
LAYER_1
 10
190.3367
 20
112.9571
  0
VERTEX
  8
LAYER_1
 10
190.3367
 20
112.4701
  0
VERTEX
  8
LAYER_1
 10
191.8379
 20
112.7138
  0
SEQEND
  0
POLYLINE
  8
LAYER_1
 40
0.05
 41
0.05
 66
1
 10
0
 20
0
 30
0
 70
1
  0
VERTEX
  8
LAYER_1
 10
199.8295
 20
112.9571
  0
VERTEX
  8
LAYER_1
 10
199.8295
 20
112.4701
  0
VERTEX
  8
LAYER_1
 10
198.3283
 20
112.7138
  0
SEQEND
  0
POLYLINE
  8
LAYER_1
 40
0.0882
 41
0.0882
 66
1
 10
0
 20
0
 30
0
 70
1
  0
VERTEX
  8
LAYER_1
 10
199.8295
 20
112.9571
  0
VERTEX
  8
LAYER_1
 10
199.8295
 20
112.4701
  0
VERTEX
  8
LAYER_1
 10
198.3283
 20
112.7138
  0
SEQEND
  0
TEXT
  8
LAYER_1
 10
192.7142
 20
111.6295
 11
192.7142
 21
111.6295
 40
3.3492
 41
0.5
  1
65
  0
POLYLINE
  8
LAYER_1
 40
0.0882
 41
0.0882
 66
1
 10
0
 20
0
 30
0
  0
VERTEX
  8
LAYER_1
 10
191.8377
 20
110.1173
  0
VERTEX
  8
LAYER_1
 10
191.8377
 20
112.7136
  0
SEQEND
  0
INSERT
  8
LAYER_1
  2
AIGNBL01020020
 10
0
 20
0
 30
0
  0
POLYLINE
  8
LAYER_1
  6
AIGENLINE001
 40
0.0882
 41
0.0882
 66
1
 10
0
 20
0
 30
0
 70
128
  0
VERTEX
  8
LAYER_1
 10
61.0058
 20
138.7534
  0
VERTEX
  8
LAYER_1
 10
61.0058
 20
129.1882
  0
SEQEND
  0
POLYLINE
  8
LAYER_1
 40
0.0882
 41
0.0882
 66
1
 10
0
 20
0
 30
0
  0
VERTEX
  8
LAYER_1
 10
56.016
 20
133.3287
  0
VERTEX
  8
LAYER_1
 10
56.016
 20
129.7927
  0
SEQEND
  0
POLYLINE
  8
LAYER_1
 40
0.0882
 41
0.0882
 66
1
 10
0
 20
0
 30
0
  0
VERTEX
  8
LAYER_1
 10
62.5068
 20
129.9145
  0
VERTEX
  8
LAYER_1
 10
64.008
 20
129.9145
  0
SEQEND
  0
POLYLINE
  8
LAYER_1
 40
0.0882
 41
0.0882
 66
1
 10
0
 20
0
 30
0
  0
VERTEX
  8
LAYER_1
 10
54.5149
 20
129.9145
  0
VERTEX
  8
LAYER_1
 10
53.0137
 20
129.9145
  0
SEQEND
  0
POLYLINE
  8
LAYER_1
 40
0.0882
 41
0.0882
 66
1
 10
0
 20
0
 30
0
  0
VERTEX
  8
LAYER_1
 10
61.0058
 20
129.9145
  0
VERTEX
  8
LAYER_1
 10
60.3567
 20
129.9145
  0
SEQEND
  0
POLYLINE
  8
LAYER_1
 40
0.0882
 41
0.0882
 66
1
 10
0
 20
0
 30
0
  0
VERTEX
  8
LAYER_1
 10
56.0159
 20
129.9145
  0
VERTEX
  8
LAYER_1
 10
56.665
 20
129.9145
  0
SEQEND
  0
POLYLINE
  8
LAYER_1
 40
0.05
 41
0.05
 66
1
 10
0
 20
0
 30
0
 70
1
  0
VERTEX
  8
LAYER_1
 10
62.5068
 20
130.1579
  0
VERTEX
  8
LAYER_1
 10
62.5068
 20
129.6709
  0
VERTEX
  8
LAYER_1
 10
61.0056
 20
129.9146
  0
SEQEND
  0
POLYLINE
  8
LAYER_1
 40
0.0882
 41
0.0882
 66
1
 10
0
 20
0
 30
0
 70
1
  0
VERTEX
  8
LAYER_1
 10
62.5068
 20
130.1579
  0
VERTEX
  8
LAYER_1
 10
62.5068
 20
129.6709
  0
VERTEX
  8
LAYER_1
 10
61.0056
 20
129.9146
  0
SEQEND
  0
POLYLINE
  8
LAYER_1
 40
0.05
 41
0.05
 66
1
 10
0
 20
0
 30
0
 70
1
  0
VERTEX
  8
LAYER_1
 10
54.5149
 20
130.1579
  0
VERTEX
  8
LAYER_1
 10
54.5149
 20
129.6709
  0
VERTEX
  8
LAYER_1
 10
56.0161
 20
129.9146
  0
SEQEND
  0
POLYLINE
  8
LAYER_1
 40
0.0882
 41
0.0882
 66
1
 10
0
 20
0
 30
0
 70
1
  0
VERTEX
  8
LAYER_1
 10
54.5149
 20
130.1579
  0
VERTEX
  8
LAYER_1
 10
54.5149
 20
129.6709
  0
VERTEX
  8
LAYER_1
 10
56.0161
 20
129.9146
  0
SEQEND
  0
TEXT
  8
LAYER_1
 10
56.584
 20
128.5466
 11
56.584
 21
128.5466
 40
3.3492
 41
0.5
  1
50
  0
POLYLINE
  8
LAYER_1
 40
0.0882
 41
0.0882
 66
1
 10
0
 20
0
 30
0
  0
VERTEX
  8
LAYER_1
 10
61.0058
 20
134.1336
  0
VERTEX
  8
LAYER_1
 10
61.0058
 20
129.7522
  0
SEQEND
  0
POLYLINE
  8
LAYER_1
 40
0.0882
 41
0.0882
 66
1
 10
0
 20
0
 30
0
  0
VERTEX
  8
LAYER_1
 10
62.5068
 20
129.8739
  0
VERTEX
  8
LAYER_1
 10
74.6433
 20
129.8739
  0
SEQEND
  0
POLYLINE
  8
LAYER_1
 40
0.0882
 41
0.0882
 66
1
 10
0
 20
0
 30
0
  0
VERTEX
  8
LAYER_1
 10
94.515
 20
129.8739
  0
VERTEX
  8
LAYER_1
 10
82.1988
 20
129.8739
  0
SEQEND
  0
POLYLINE
  8
LAYER_1
 40
0.05
 41
0.05
 66
1
 10
0
 20
0
 30
0
 70
1
  0
VERTEX
  8
LAYER_1
 10
62.5068
 20
130.1579
  0
VERTEX
  8
LAYER_1
 10
62.5068
 20
129.6307
  0
VERTEX
  8
LAYER_1
 10
61.0056
 20
129.874
  0
SEQEND
  0
POLYLINE
  8
LAYER_1
 40
0.0882
 41
0.0882
 66
1
 10
0
 20
0
 30
0
 70
1
  0
VERTEX
  8
LAYER_1
 10
62.5068
 20
130.1579
  0
VERTEX
  8
LAYER_1
 10
62.5068
 20
129.6307
  0
VERTEX
  8
LAYER_1
 10
61.0056
 20
129.874
  0
SEQEND
  0
POLYLINE
  8
LAYER_1
 40
0.05
 41
0.05
 66
1
 10
0
 20
0
 30
0
 70
1
  0
VERTEX
  8
LAYER_1
 10
94.515
 20
130.1579
  0
VERTEX
  8
LAYER_1
 10
94.515
 20
129.6307
  0
VERTEX
  8
LAYER_1
 10
96.0162
 20
129.874
  0
SEQEND
  0
POLYLINE
  8
LAYER_1
 40
0.0882
 41
0.0882
 66
1
 10
0
 20
0
 30
0
 70
1
  0
VERTEX
  8
LAYER_1
 10
94.515
 20
130.1579
  0
VERTEX
  8
LAYER_1
 10
94.515
 20
129.6307
  0
VERTEX
  8
LAYER_1
 10
96.0162
 20
129.874
  0
SEQEND
  0
TEXT
  8
LAYER_1
 10
75.4863
 20
128.5384
 11
75.4863
 21
128.5384
 40
3.3492
 41
0.5
  1
350
  0
POLYLINE
  8
LAYER_1
  6
AIGENLINE001
 40
0.0882
 41
0.0882
 66
1
 10
0
 20
0
 30
0
 70
128
  0
VERTEX
  8
LAYER_1
 10
96.016
 20
138.2186
  0
VERTEX
  8
LAYER_1
 10
96.016
 20
129.7521
  0
SEQEND
  0
POLYLINE
  8
LAYER_1
 40
0.0882
 41
0.0882
 66
1
 10
0
 20
0
 30
0
  0
VERTEX
  8
LAYER_1
 10
116.016
 20
139.6103
  0
VERTEX
  8
LAYER_1
 10
116.016
 20
129.7521
  0
SEQEND
  0
POLYLINE
  8
LAYER_1
 40
0.0882
 41
0.0882
 66
1
 10
0
 20
0
 30
0
  0
VERTEX
  8
LAYER_1
 10
97.517
 20
129.8739
  0
VERTEX
  8
LAYER_1
 10
103.1559
 20
129.8739
  0
SEQEND
  0
POLYLINE
  8
LAYER_1
 40
0.0882
 41
0.0882
 66
1
 10
0
 20
0
 30
0
  0
VERTEX
  8
LAYER_1
 10
114.515
 20
129.8739
  0
VERTEX
  8
LAYER_1
 10
109.9279
 20
129.8739
  0
SEQEND
  0
POLYLINE
  8
LAYER_1
 40
0.05
 41
0.05
 66
1
 10
0
 20
0
 30
0
 70
1
  0
VERTEX
  8
LAYER_1
 10
97.517
 20
130.1579
  0
VERTEX
  8
LAYER_1
 10
97.517
 20
129.6307
  0
VERTEX
  8
LAYER_1
 10
96.0158
 20
129.874
  0
SEQEND
  0
POLYLINE
  8
LAYER_1
 40
0.0882
 41
0.0882
 66
1
 10
0
 20
0
 30
0
 70
1
  0
VERTEX
  8
LAYER_1
 10
97.517
 20
130.1579
  0
VERTEX
  8
LAYER_1
 10
97.517
 20
129.6307
  0
VERTEX
  8
LAYER_1
 10
96.0158
 20
129.874
  0
SEQEND
  0
POLYLINE
  8
LAYER_1
 40
0.05
 41
0.05
 66
1
 10
0
 20
0
 30
0
 70
1
  0
VERTEX
  8
LAYER_1
 10
114.515
 20
130.1579
  0
VERTEX
  8
LAYER_1
 10
114.515
 20
129.6307
  0
VERTEX
  8
LAYER_1
 10
116.0158
 20
129.874
  0
SEQEND
  0
POLYLINE
  8
LAYER_1
 40
0.0882
 41
0.0882
 66
1
 10
0
 20
0
 30
0
 70
1
  0
VERTEX
  8
LAYER_1
 10
114.515
 20
130.1579
  0
VERTEX
  8
LAYER_1
 10
114.515
 20
129.6307
  0
VERTEX
  8
LAYER_1
 10
116.0158
 20
129.874
  0
SEQEND
  0
TEXT
  8
LAYER_1
 10
103.1155
 20
128.5466
 11
103.1155
 21
128.5466
 40
3.3492
 41
0.5
  1
200
  0
POLYLINE
  8
LAYER_1
 40
0.0882
 41
0.0882
 66
1
 10
0
 20
0
 30
0
  0
VERTEX
  8
LAYER_1
 10
51.8656
 20
170.6854
  0
VERTEX
  8
LAYER_1
 10
51.8656
 20
171.9835
  0
SEQEND
  0
POLYLINE
  8
LAYER_1
 40
0.0882
 41
0.0882
 66
1
 10
0
 20
0
 30
0
  0
VERTEX
  8
LAYER_1
 10
51.8656
 20
178.6773
  0
VERTEX
  8
LAYER_1
 10
51.8656
 20
177.3792
  0
SEQEND
  0
POLYLINE
  8
LAYER_1
 40
0.05
 41
0.05
 66
1
 10
0
 20
0
 30
0
 70
1
  0
VERTEX
  8
LAYER_1
 10
51.6222
 20
170.6854
  0
VERTEX
  8
LAYER_1
 10
52.1092
 20
170.6854
  0
VERTEX
  8
LAYER_1
 10
51.8655
 20
169.1841
  0
SEQEND
  0
POLYLINE
  8
LAYER_1
 40
0.0882
 41
0.0882
 66
1
 10
0
 20
0
 30
0
 70
1
  0
VERTEX
  8
LAYER_1
 10
51.6222
 20
170.6854
  0
VERTEX
  8
LAYER_1
 10
52.1092
 20
170.6854
  0
VERTEX
  8
LAYER_1
 10
51.8655
 20
169.1841
  0
SEQEND
  0
POLYLINE
  8
LAYER_1
 40
0.05
 41
0.05
 66
1
 10
0
 20
0
 30
0
 70
1
  0
VERTEX
  8
LAYER_1
 10
51.6222
 20
178.6773
  0
VERTEX
  8
LAYER_1
 10
52.1092
 20
178.6773
  0
VERTEX
  8
LAYER_1
 10
51.8655
 20
180.1781
  0
SEQEND
  0
POLYLINE
  8
LAYER_1
 40
0.0882
 41
0.0882
 66
1
 10
0
 20
0
 30
0
 70
1
  0
VERTEX
  8
LAYER_1
 10
51.6222
 20
178.6773
  0
VERTEX
  8
LAYER_1
 10
52.1092
 20
178.6773
  0
VERTEX
  8
LAYER_1
 10
51.8655
 20
180.1781
  0
SEQEND
  0
TEXT
  8
LAYER_1
 10
53.2334
 20
171.6594
 11
53.2334
 21
171.6594
 40
3.3492
 41
0.5
 50
89.99999999
  1
110
  0
POLYLINE
  8
LAYER_1
 40
0.1764
 41
0.1764
 66
1
 10
0
 20
0
 30
0
  0
VERTEX
  8
LAYER_1
 10
73.2167
 20
95.9185
  0
VERTEX
  8
LAYER_1
 10
62.3443
 20
96.4863
  0
SEQEND
  0
INSERT
  8
LAYER_1
  2
AIGNBL01020021
 10
0
 20
0
 30
0
  0
POLYLINE
  8
LAYER_1
 40
0.1764
 41
0.1764
 66
1
 10
0
 20
0
 30
0
  0
VERTEX
  8
LAYER_1
 10
62.0606
 20
96.7298
  0
VERTEX
  8
LAYER_1
 10
60.3567
 20
108.6161
  0
SEQEND
  0
INSERT
  8
LAYER_1
  2
AIGNBL01020022
 10
0
 20
0
 30
0
  0
POLYLINE
  8
LAYER_1
 40
0.1764
 41
0.1764
 66
1
 10
0
 20
0
 30
0
  0
VERTEX
  8
LAYER_1
 10
115.6915
 20
110.8475
  0
VERTEX
  8
LAYER_1
 10
56.2997
 20
110.8475
  0
SEQEND
  0
POLYLINE
  8
LAYER_1
 40
0.1764
 41
0.1764
 66
1
 10
0
 20
0
 30
0
  0
VERTEX
  8
LAYER_1
 10
81.5738
 20
92.8353
  0
VERTEX
  8
LAYER_1
 10
75.651
 20
92.8353
  0
VERTEX
  8
LAYER_1
 10
75.651
 20
93.2005
  0
SEQEND
  0
INSERT
  8
LAYER_1
  2
AIGNBL01020023
 10
0
 20
0
 30
0
  0
POLYLINE
  8
LAYER_1
 40
0.1764
 41
0.1764
 66
1
 10
0
 20
0
 30
0
  0
VERTEX
  8
LAYER_1
 10
75.4074
 20
93.4844
  0
VERTEX
  8
LAYER_1
 10
73.9468
 20
93.6469
  0
SEQEND
  0
INSERT
  8
LAYER_1
  2
AIGNBL01020024
 10
0
 20
0
 30
0
  0
POLYLINE
  8
LAYER_1
 40
0.1764
 41
0.1764
 66
1
 10
0
 20
0
 30
0
  0
VERTEX
  8
LAYER_1
 10
73.663
 20
93.8901
  0
VERTEX
  8
LAYER_1
 10
73.5005
 20
95.6346
  0
SEQEND
  0
INSERT
  8
LAYER_1
  2
AIGNBL01020025
 10
0
 20
0
 30
0
  0
POLYLINE
  8
LAYER_1
 40
0.1764
 41
0.1764
 66
1
 10
0
 20
0
 30
0
  0
VERTEX
  8
LAYER_1
 10
56.2999
 20
109.3465
  0
SEQEND
  0
INSERT
  8
LAYER_1
  2
AIGNBL01020026
 10
0
 20
0
 30
0
  0
POLYLINE
  8
LAYER_1
 40
0.1764
 41
0.1764
 66
1
 10
0
 20
0
 30
0
  0
VERTEX
  8
LAYER_1
 10
56.0159
 20
109.6305
  0
VERTEX
  8
LAYER_1
 10
56.0159
 20
110.5635
  0
SEQEND
  0
INSERT
  8
LAYER_1
  2
AIGNBL01020027
 10
0
 20
0
 30
0
  0
POLYLINE
  8
LAYER_1
 40
0.1764
 41
0.1764
 66
1
 10
0
 20
0
 30
0
  0
VERTEX
  8
LAYER_1
 10
81.8577
 20
93.4844
  0
VERTEX
  8
LAYER_1
 10
75.4073
 20
93.4844
  0
SEQEND
  0
POLYLINE
  8
LAYER_1
 40
0.1764
 41
0.1764
 66
1
 10
0
 20
0
 30
0
  0
VERTEX
  8
LAYER_1
 10
84.0079
 20
95.9185
  0
VERTEX
  8
LAYER_1
 10
73.2167
 20
95.9185
  0
SEQEND
  0
POLYLINE
  8
LAYER_1
 40
0.1764
 41
0.1764
 66
1
 10
0
 20
0
 30
0
  0
VERTEX
  8
LAYER_1
 10
112.2026
 20
109.3465
  0
VERTEX
  8
LAYER_1
 10
56.2999
 20
109.3465
  0
SEQEND
  0
POLYLINE
  8
LAYER_1
 40
0.1764
 41
0.1764
 66
1
 10
0
 20
0
 30
0
  0
VERTEX
  8
LAYER_1
 10
81.5738
 20
92.8353
  0
VERTEX
  8
LAYER_1
 10
81.5738
 20
93.2005
  0
SEQEND
  0
INSERT
  8
LAYER_1
  2
AIGNBL01020028
 10
0
 20
0
 30
0
  0
POLYLINE
  8
LAYER_1
 40
0.1764
 41
0.1764
 66
1
 10
0
 20
0
 30
0
  0
VERTEX
  8
LAYER_1
 10
81.8577
 20
93.4844
  0
VERTEX
  8
LAYER_1
 10
83.2777
 20
93.6469
  0
SEQEND
  0
INSERT
  8
LAYER_1
  2
AIGNBL01020029
 10
0
 20
0
 30
0
  0
POLYLINE
  8
LAYER_1
 40
0.1764
 41
0.1764
 66
1
 10
0
 20
0
 30
0
  0
VERTEX
  8
LAYER_1
 10
83.5616
 20
93.8901
  0
VERTEX
  8
LAYER_1
 10
83.7241
 20
95.6346
  0
SEQEND
  0
INSERT
  8
LAYER_1
  2
AIGNBL0102002A
 10
0
 20
0
 30
0
  0
POLYLINE
  8
LAYER_1
 40
0.1764
 41
0.1764
 66
1
 10
0
 20
0
 30
0
  0
VERTEX
  8
LAYER_1
 10
84.0079
 20
95.9185
  0
VERTEX
  8
LAYER_1
 10
109.6467
 20
96.4863
  0
SEQEND
  0
POLYLINE
  8
LAYER_1
 40
0.1764
 41
0.1764
 66
1
 10
0
 20
0
 30
0
  0
VERTEX
  8
LAYER_1
 10
107.1722
 20
109.3465
  0
VERTEX
  8
LAYER_1
 10
115.6917
 20
109.3465
  0
SEQEND
  0
INSERT
  8
LAYER_1
  2
AIGNBL0102002B
 10
0
 20
0
 30
0
  0
POLYLINE
  8
LAYER_1
 40
0.1764
 41
0.1764
 66
1
 10
0
 20
0
 30
0
  0
VERTEX
  8
LAYER_1
 10
116.016
 20
109.6305
  0
VERTEX
  8
LAYER_1
 10
116.016
 20
110.5635
  0
SEQEND
  0
INSERT
  8
LAYER_1
  2
AIGNBL0102002C
 10
0
 20
0
 30
0
  0
POLYLINE
  8
LAYER_1
 40
0.1764
 41
0.1764
 66
1
 10
0
 20
0
 30
0
  0
VERTEX
  8
LAYER_1
 10
109.9308
 20
96.7298
  0
VERTEX
  8
LAYER_1
 10
111.6754
 20
108.6161
  0
SEQEND
  0
INSERT
  8
LAYER_1
  2
AIGNBL0102002D
 10
0
 20
0
 30
0
  0
POLYLINE
  8
LAYER_1
 40
0.4127
 41
0.4127
 66
1
 10
0
 20
0
 30
0
  0
VERTEX
  8
LAYER_1
 10
71.0667
 20
106.4256
  0
VERTEX
  8
LAYER_1
 10
71.0667
 20
106.385
  0
SEQEND
  0
POLYLINE
  8
LAYER_1
 40
0.4127
 41
0.4127
 66
1
 10
0
 20
0
 30
0
  0
VERTEX
  8
LAYER_1
 10
70.0525
 20
105.4114
  0
VERTEX
  8
LAYER_1
 10
69.0789
 20
105.4114
  0
SEQEND
  0
POLYLINE
  8
LAYER_1
 40
0.4127
 41
0.4127
 66
1
 10
0
 20
0
 30
0
  0
VERTEX
  8
LAYER_1
 10
68.0646
 20
106.385
  0
VERTEX
  8
LAYER_1
 10
68.0646
 20
106.4257
  0
SEQEND
  0
POLYLINE
  8
LAYER_1
 40
0.4127
 41
0.4127
 66
1
 10
0
 20
0
 30
0
  0
VERTEX
  8
LAYER_1
 10
69.0788
 20
107.3993
  0
VERTEX
  8
LAYER_1
 10
70.0524
 20
107.3993
  0
SEQEND
  0
INSERT
  8
LAYER_1
  2
AIGNBL0102002E
 10
0
 20
0
 30
0
  0
POLYLINE
  8
LAYER_1
 40
0.4127
 41
0.4127
 66
1
 10
0
 20
0
 30
0
  0
VERTEX
  8
LAYER_1
 10
69.4439
 20
106.385
  0
VERTEX
  8
LAYER_1
 10
69.6466
 20
106.385
  0
SEQEND
  0
POLYLINE
  8
LAYER_1
 40
0.4127
 41
0.4127
 66
1
 10
0
 20
0
 30
0
  0
VERTEX
  8
LAYER_1
 10
69.5657
 20
106.5067
  0
VERTEX
  8
LAYER_1
 10
69.5657
 20
106.3041
  0
SEQEND
  0
POLYLINE
  8
LAYER_1
 40
0.0882
 41
0.0882
 66
1
 10
0
 20
0
 30
0
  0
VERTEX
  8
LAYER_1
 10
115.7726
 20
110.8475
  0
VERTEX
  8
LAYER_1
 10
118.8965
 20
110.8475
  0
SEQEND
  0
POLYLINE
  8
LAYER_1
 40
0.0882
 41
0.0882
 66
1
 10
0
 20
0
 30
0
  0
VERTEX
  8
LAYER_1
 10
88.5515
 20
92.8353
  0
VERTEX
  8
LAYER_1
 10
118.8962
 20
92.8353
  0
SEQEND
  0
POLYLINE
  8
LAYER_1
 40
0.0882
 41
0.0882
 66
1
 10
0
 20
0
 30
0
  0
VERTEX
  8
LAYER_1
 10
118.7746
 20
109.3465
  0
VERTEX
  8
LAYER_1
 10
118.7746
 20
105.4753
  0
SEQEND
  0
POLYLINE
  8
LAYER_1
 40
0.0882
 41
0.0882
 66
1
 10
0
 20
0
 30
0
  0
VERTEX
  8
LAYER_1
 10
118.7746
 20
94.3363
  0
VERTEX
  8
LAYER_1
 10
118.7746
 20
99.1641
  0
SEQEND
  0
POLYLINE
  8
LAYER_1
 40
0.05
 41
0.05
 66
1
 10
0
 20
0
 30
0
 70
1
  0
VERTEX
  8
LAYER_1
 10
118.5313
 20
109.3465
  0
VERTEX
  8
LAYER_1
 10
119.0183
 20
109.3465
  0
VERTEX
  8
LAYER_1
 10
118.7745
 20
110.8477
  0
SEQEND
  0
POLYLINE
  8
LAYER_1
 40
0.0882
 41
0.0882
 66
1
 10
0
 20
0
 30
0
 70
1
  0
VERTEX
  8
LAYER_1
 10
118.5313
 20
109.3465
  0
VERTEX
  8
LAYER_1
 10
119.0183
 20
109.3465
  0
VERTEX
  8
LAYER_1
 10
118.7745
 20
110.8477
  0
SEQEND
  0
POLYLINE
  8
LAYER_1
 40
0.05
 41
0.05
 66
1
 10
0
 20
0
 30
0
 70
1
  0
VERTEX
  8
LAYER_1
 10
118.5313
 20
94.3363
  0
VERTEX
  8
LAYER_1
 10
119.0183
 20
94.3363
  0
VERTEX
  8
LAYER_1
 10
118.7745
 20
92.8351
  0
SEQEND
  0
POLYLINE
  8
LAYER_1
 40
0.0882
 41
0.0882
 66
1
 10
0
 20
0
 30
0
 70
1
  0
VERTEX
  8
LAYER_1
 10
118.5313
 20
94.3363
  0
VERTEX
  8
LAYER_1
 10
119.0183
 20
94.3363
  0
VERTEX
  8
LAYER_1
 10
118.7745
 20
92.8351
  0
SEQEND
  0
TEXT
  8
LAYER_1
 10
120.1016
 20
99.5411
 11
120.1016
 21
99.5411
 40
3.3492
 41
0.5
 50
89.99999999
  1
180
  0
POLYLINE
  8
LAYER_1
 40
0.0882
 41
0.0882
 66
1
 10
0
 20
0
 30
0
  0
VERTEX
  8
LAYER_1
 10
61.0058
 20
110.8475
  0
VERTEX
  8
LAYER_1
 10
61.1276
 20
110.0766
  0
SEQEND
  0
POLYLINE
  8
LAYER_1
 40
0.0882
 41
0.0882
 66
1
 10
0
 20
0
 30
0
  0
VERTEX
  8
LAYER_1
 10
61.168
 20
109.7928
  0
VERTEX
  8
LAYER_1
 10
61.2493
 20
109.1437
  0
SEQEND
  0
POLYLINE
  8
LAYER_1
 40
0.0882
 41
0.0882
 66
1
 10
0
 20
0
 30
0
  0
VERTEX
  8
LAYER_1
 10
61.2898
 20
108.8191
  0
VERTEX
  8
LAYER_1
 10
61.4116
 20
108.2107
  0
SEQEND
  0
POLYLINE
  8
LAYER_1
 40
0.0882
 41
0.0882
 66
1
 10
0
 20
0
 30
0
  0
VERTEX
  8
LAYER_1
 10
61.452
 20
107.8861
  0
VERTEX
  8
LAYER_1
 10
61.5333
 20
107.2776
  0
SEQEND
  0
POLYLINE
  8
LAYER_1
 40
0.0882
 41
0.0882
 66
1
 10
0
 20
0
 30
0
  0
VERTEX
  8
LAYER_1
 10
61.5737
 20
106.953
  0
VERTEX
  8
LAYER_1
 10
61.6956
 20
106.3039
  0
SEQEND
  0
POLYLINE
  8
LAYER_1
 40
0.0882
 41
0.0882
 66
1
 10
0
 20
0
 30
0
  0
VERTEX
  8
LAYER_1
 10
61.736
 20
106.0199
  0
VERTEX
  8
LAYER_1
 10
61.8172
 20
105.3709
  0
SEQEND
  0
POLYLINE
  8
LAYER_1
 40
0.0882
 41
0.0882
 66
1
 10
0
 20
0
 30
0
  0
VERTEX
  8
LAYER_1
 10
61.8577
 20
105.0463
  0
VERTEX
  8
LAYER_1
 10
61.9796
 20
104.4379
  0
SEQEND
  0
POLYLINE
  8
LAYER_1
 40
0.0882
 41
0.0882
 66
1
 10
0
 20
0
 30
0
  0
VERTEX
  8
LAYER_1
 10
62.02
 20
104.1132
  0
VERTEX
  8
LAYER_1
 10
62.1012
 20
103.5048
  0
SEQEND
  0
POLYLINE
  8
LAYER_1
 40
0.0882
 41
0.0882
 66
1
 10
0
 20
0
 30
0
  0
VERTEX
  8
LAYER_1
 10
62.1417
 20
103.1802
  0
VERTEX
  8
LAYER_1
 10
62.2635
 20
102.5718
  0
SEQEND
  0
POLYLINE
  8
LAYER_1
 40
0.0882
 41
0.0882
 66
1
 10
0
 20
0
 30
0
  0
VERTEX
  8
LAYER_1
 10
62.304
 20
102.2471
  0
VERTEX
  8
LAYER_1
 10
62.3852
 20
101.5981
  0
SEQEND
  0
POLYLINE
  8
LAYER_1
 40
0.0882
 41
0.0882
 66
1
 10
0
 20
0
 30
0
  0
VERTEX
  8
LAYER_1
 10
62.4257
 20
101.314
  0
VERTEX
  8
LAYER_1
 10
62.5069
 20
100.665
  0
SEQEND
  0
POLYLINE
  8
LAYER_1
 40
0.0882
 41
0.0882
 66
1
 10
0
 20
0
 30
0
  0
VERTEX
  8
LAYER_1
 10
62.5879
 20
100.3404
  0
VERTEX
  8
LAYER_1
 10
62.6692
 20
99.732
  0
SEQEND
  0
POLYLINE
  8
LAYER_1
 40
0.0882
 41
0.0882
 66
1
 10
0
 20
0
 30
0
  0
VERTEX
  8
LAYER_1
 10
62.7096
 20
99.4074
  0
VERTEX
  8
LAYER_1
 10
62.8315
 20
98.6365
  0
VERTEX
  8
LAYER_1
 10
62.8315
 20
98.5958
  0
VERTEX
  8
LAYER_1
 10
62.8721
 20
98.5556
  0
VERTEX
  8
LAYER_1
 10
62.9123
 20
98.515
  0
VERTEX
  8
LAYER_1
 10
62.9529
 20
98.4744
  0
VERTEX
  8
LAYER_1
 10
62.9935
 20
98.4338
  0
VERTEX
  8
LAYER_1
 10
63.0342
 20
98.3932
  0
VERTEX
  8
LAYER_1
 10
63.1154
 20
98.3932
  0
VERTEX
  8
LAYER_1
 10
63.4805
 20
98.3525
  0
SEQEND
  0
POLYLINE
  8
LAYER_1
 40
0.0882
 41
0.0882
 66
1
 10
0
 20
0
 30
0
  0
VERTEX
  8
LAYER_1
 10
63.7644
 20
98.3526
  0
VERTEX
  8
LAYER_1
 10
64.4135
 20
98.2713
  0
SEQEND
  0
POLYLINE
  8
LAYER_1
 40
0.0882
 41
0.0882
 66
1
 10
0
 20
0
 30
0
  0
VERTEX
  8
LAYER_1
 10
64.7381
 20
98.2714
  0
VERTEX
  8
LAYER_1
 10
65.3465
 20
98.1902
  0
SEQEND
  0
POLYLINE
  8
LAYER_1
 40
0.0882
 41
0.0882
 66
1
 10
0
 20
0
 30
0
  0
VERTEX
  8
LAYER_1
 10
65.6711
 20
98.1497
  0
VERTEX
  8
LAYER_1
 10
66.3202
 20
98.1091
  0
SEQEND
  0
POLYLINE
  8
LAYER_1
 40
0.0882
 41
0.0882
 66
1
 10
0
 20
0
 30
0
  0
VERTEX
  8
LAYER_1
 10
66.6448
 20
98.0686
  0
VERTEX
  8
LAYER_1
 10
67.2532
 20
98.028
  0
SEQEND
  0
POLYLINE
  8
LAYER_1
 40
0.0882
 41
0.0882
 66
1
 10
0
 20
0
 30
0
  0
VERTEX
  8
LAYER_1
 10
67.5778
 20
97.9875
  0
VERTEX
  8
LAYER_1
 10
68.2269
 20
97.9469
  0
SEQEND
  0
POLYLINE
  8
LAYER_1
 40
0.0882
 41
0.0882
 66
1
 10
0
 20
0
 30
0
  0
VERTEX
  8
LAYER_1
 10
68.5109
 20
97.9063
  0
VERTEX
  8
LAYER_1
 10
69.1599
 20
97.8657
  0
SEQEND
  0
POLYLINE
  8
LAYER_1
 40
0.0882
 41
0.0882
 66
1
 10
0
 20
0
 30
0
  0
VERTEX
  8
LAYER_1
 10
69.4845
 20
97.8252
  0
VERTEX
  8
LAYER_1
 10
70.093
 20
97.744
  0
SEQEND
  0
POLYLINE
  8
LAYER_1
 40
0.0882
 41
0.0882
 66
1
 10
0
 20
0
 30
0
  0
VERTEX
  8
LAYER_1
 10
70.4176
 20
97.7441
  0
VERTEX
  8
LAYER_1
 10
71.0666
 20
97.6628
  0
SEQEND
  0
POLYLINE
  8
LAYER_1
 40
0.0882
 41
0.0882
 66
1
 10
0
 20
0
 30
0
  0
VERTEX
  8
LAYER_1
 10
71.3506
 20
97.6629
  0
VERTEX
  8
LAYER_1
 10
71.9997
 20
97.5817
  0
SEQEND
  0
POLYLINE
  8
LAYER_1
 40
0.0882
 41
0.0882
 66
1
 10
0
 20
0
 30
0
  0
VERTEX
  8
LAYER_1
 10
72.3243
 20
97.5412
  0
VERTEX
  8
LAYER_1
 10
72.9327
 20
97.5006
  0
SEQEND
  0
POLYLINE
  8
LAYER_1
 40
0.0882
 41
0.0882
 66
1
 10
0
 20
0
 30
0
  0
VERTEX
  8
LAYER_1
 10
73.2573
 20
97.4601
  0
VERTEX
  8
LAYER_1
 10
73.9064
 20
97.4195
  0
SEQEND
  0
POLYLINE
  8
LAYER_1
 40
0.0882
 41
0.0882
 66
1
 10
0
 20
0
 30
0
  0
VERTEX
  8
LAYER_1
 10
74.231
 20
97.3789
  0
VERTEX
  8
LAYER_1
 10
74.5555
 20
97.3383
  0
SEQEND
  0
POLYLINE
  8
LAYER_1
 40
0.0882
 41
0.0882
 66
1
 10
0
 20
0
 30
0
  0
VERTEX
  8
LAYER_1
 10
96.016
 20
110.8475
  0
VERTEX
  8
LAYER_1
 10
95.9347
 20
110.3203
  0
SEQEND
  0
POLYLINE
  8
LAYER_1
 40
0.0882
 41
0.0882
 66
1
 10
0
 20
0
 30
0
  0
VERTEX
  8
LAYER_1
 10
95.8943
 20
109.9956
  0
VERTEX
  8
LAYER_1
 10
95.7724
 20
109.3872
  0
SEQEND
  0
POLYLINE
  8
LAYER_1
 40
0.0882
 41
0.0882
 66
1
 10
0
 20
0
 30
0
  0
VERTEX
  8
LAYER_1
 10
95.732
 20
109.0625
  0
VERTEX
  8
LAYER_1
 10
95.6508
 20
108.4541
  0
SEQEND
  0
POLYLINE
  8
LAYER_1
 40
0.0882
 41
0.0882
 66
1
 10
0
 20
0
 30
0
  0
VERTEX
  8
LAYER_1
 10
95.6103
 20
108.1295
  0
VERTEX
  8
LAYER_1
 10
95.5291
 20
107.4804
  0
SEQEND
  0
POLYLINE
  8
LAYER_1
 40
0.0882
 41
0.0882
 66
1
 10
0
 20
0
 30
0
  0
VERTEX
  8
LAYER_1
 10
95.448
 20
107.1964
  0
VERTEX
  8
LAYER_1
 10
95.3668
 20
106.5474
  0
SEQEND
  0
POLYLINE
  8
LAYER_1
 40
0.0882
 41
0.0882
 66
1
 10
0
 20
0
 30
0
  0
VERTEX
  8
LAYER_1
 10
95.3263
 20
106.2228
  0
VERTEX
  8
LAYER_1
 10
95.2451
 20
105.6143
  0
SEQEND
  0
POLYLINE
  8
LAYER_1
 40
0.0882
 41
0.0882
 66
1
 10
0
 20
0
 30
0
  0
VERTEX
  8
LAYER_1
 10
95.1641
 20
105.2897
  0
VERTEX
  8
LAYER_1
 10
95.0828
 20
104.6813
  0
SEQEND
  0
POLYLINE
  8
LAYER_1
 40
0.0882
 41
0.0882
 66
1
 10
0
 20
0
 30
0
  0
VERTEX
  8
LAYER_1
 10
95.0424
 20
104.3567
  0
VERTEX
  8
LAYER_1
 10
94.9611
 20
103.7482
  0
SEQEND
  0
POLYLINE
  8
LAYER_1
 40
0.0882
 41
0.0882
 66
1
 10
0
 20
0
 30
0
  0
VERTEX
  8
LAYER_1
 10
94.9207
 20
103.4236
  0
VERTEX
  8
LAYER_1
 10
94.7988
 20
102.7745
  0
SEQEND
  0
POLYLINE
  8
LAYER_1
 40
0.0882
 41
0.0882
 66
1
 10
0
 20
0
 30
0
  0
VERTEX
  8
LAYER_1
 10
94.7584
 20
102.4905
  0
VERTEX
  8
LAYER_1
 10
94.6772
 20
101.8414
  0
SEQEND
  0
POLYLINE
  8
LAYER_1
 40
0.0882
 41
0.0882
 66
1
 10
0
 20
0
 30
0
  0
VERTEX
  8
LAYER_1
 10
94.6367
 20
101.5169
  0
VERTEX
  8
LAYER_1
 10
94.5148
 20
100.9085
  0
SEQEND
  0
POLYLINE
  8
LAYER_1
 40
0.0882
 41
0.0882
 66
1
 10
0
 20
0
 30
0
  0
VERTEX
  8
LAYER_1
 10
94.4744
 20
100.5838
  0
VERTEX
  8
LAYER_1
 10
94.3932
 20
99.9754
  0
SEQEND
  0
POLYLINE
  8
LAYER_1
 40
0.0882
 41
0.0882
 66
1
 10
0
 20
0
 30
0
  0
VERTEX
  8
LAYER_1
 10
94.3527
 20
99.6508
  0
VERTEX
  8
LAYER_1
 10
94.2308
 20
99.0017
  0
SEQEND
  0
POLYLINE
  8
LAYER_1
 40
0.0882
 41
0.0882
 66
1
 10
0
 20
0
 30
0
  0
VERTEX
  8
LAYER_1
 10
94.1904
 20
98.7177
  0
VERTEX
  8
LAYER_1
 10
94.1092
 20
98.1905
  0
SEQEND
  0
POLYLINE
  8
LAYER_1
 40
0.0882
 41
0.0882
 66
1
 10
0
 20
0
 30
0
  0
VERTEX
  8
LAYER_1
 10
93.8659
 20
97.9469
  0
VERTEX
  8
LAYER_1
 10
93.9065
 20
97.9469
  0
VERTEX
  8
LAYER_1
 10
93.9471
 20
97.9469
  0
VERTEX
  8
LAYER_1
 10
93.9878
 20
97.9875
  0
VERTEX
  8
LAYER_1
 10
94.0284
 20
98.0281
  0
VERTEX
  8
LAYER_1
 10
94.0686
 20
98.0688
  0
VERTEX
  8
LAYER_1
 10
94.1092
 20
98.1094
  0
VERTEX
  8
LAYER_1
 10
94.1092
 20
98.1902
  0
SEQEND
  0
POLYLINE
  8
LAYER_1
 40
0.0882
 41
0.0882
 66
1
 10
0
 20
0
 30
0
  0
VERTEX
  8
LAYER_1
 10
93.8659
 20
97.9469
  0
VERTEX
  8
LAYER_1
 10
93.3789
 20
97.9063
  0
SEQEND
  0
POLYLINE
  8
LAYER_1
 40
0.0882
 41
0.0882
 66
1
 10
0
 20
0
 30
0
  0
VERTEX
  8
LAYER_1
 10
93.0545
 20
97.9063
  0
VERTEX
  8
LAYER_1
 10
92.4461
 20
97.8657
  0
SEQEND
  0
POLYLINE
  8
LAYER_1
 40
0.0882
 41
0.0882
 66
1
 10
0
 20
0
 30
0
  0
VERTEX
  8
LAYER_1
 10
92.1215
 20
97.8657
  0
VERTEX
  8
LAYER_1
 10
91.4724
 20
97.8251
  0
SEQEND
  0
POLYLINE
  8
LAYER_1
 40
0.0882
 41
0.0882
 66
1
 10
0
 20
0
 30
0
  0
VERTEX
  8
LAYER_1
 10
91.1884
 20
97.7846
  0
VERTEX
  8
LAYER_1
 10
90.5394
 20
97.7846
  0
SEQEND
  0
POLYLINE
  8
LAYER_1
 40
0.0882
 41
0.0882
 66
1
 10
0
 20
0
 30
0
  0
VERTEX
  8
LAYER_1
 10
90.2148
 20
97.7441
  0
VERTEX
  8
LAYER_1
 10
89.5657
 20
97.7034
  0
SEQEND
  0
POLYLINE
  8
LAYER_1
 40
0.0882
 41
0.0882
 66
1
 10
0
 20
0
 30
0
  0
VERTEX
  8
LAYER_1
 10
89.2817
 20
97.7035
  0
VERTEX
  8
LAYER_1
 10
88.6327
 20
97.6629
  0
SEQEND
  0
POLYLINE
  8
LAYER_1
 40
0.0882
 41
0.0882
 66
1
 10
0
 20
0
 30
0
  0
VERTEX
  8
LAYER_1
 10
88.3081
 20
97.6629
  0
VERTEX
  8
LAYER_1
 10
87.6996
 20
97.6223
  0
SEQEND
  0
POLYLINE
  8
LAYER_1
 40
0.0882
 41
0.0882
 66
1
 10
0
 20
0
 30
0
  0
VERTEX
  8
LAYER_1
 10
87.375
 20
97.6224
  0
VERTEX
  8
LAYER_1
 10
86.7259
 20
97.5817
  0
SEQEND
  0
POLYLINE
  8
LAYER_1
 40
0.0882
 41
0.0882
 66
1
 10
0
 20
0
 30
0
  0
VERTEX
  8
LAYER_1
 10
86.4013
 20
97.5818
  0
VERTEX
  8
LAYER_1
 10
85.7929
 20
97.5412
  0
SEQEND
  0
POLYLINE
  8
LAYER_1
 40
0.0882
 41
0.0882
 66
1
 10
0
 20
0
 30
0
  0
VERTEX
  8
LAYER_1
 10
85.4683
 20
97.5006
  0
VERTEX
  8
LAYER_1
 10
84.8193
 20
97.5006
  0
SEQEND
  0
POLYLINE
  8
LAYER_1
 40
0.0882
 41
0.0882
 66
1
 10
0
 20
0
 30
0
  0
VERTEX
  8
LAYER_1
 10
84.4947
 20
97.4601
  0
VERTEX
  8
LAYER_1
 10
83.8862
 20
97.4195
  0
SEQEND
  0
POLYLINE
  8
LAYER_1
 40
0.0882
 41
0.0882
 66
1
 10
0
 20
0
 30
0
  0
VERTEX
  8
LAYER_1
 10
83.5616
 20
97.4195
  0
VERTEX
  8
LAYER_1
 10
82.9125
 20
97.3789
  0
SEQEND
  0
POLYLINE
  8
LAYER_1
 40
0.0882
 41
0.0882
 66
1
 10
0
 20
0
 30
0
  0
VERTEX
  8
LAYER_1
 10
82.588
 20
97.3789
  0
VERTEX
  8
LAYER_1
 10
82.1416
 20
97.3383
  0
SEQEND
  0
POLYLINE
  8
LAYER_1
 40
0.0882
 41
0.0882
 66
1
 10
0
 20
0
 30
0
  0
VERTEX
  8
LAYER_1
 10
82.6285
 20
97.3384
  0
VERTEX
  8
LAYER_1
 10
82.1013
 20
97.3384
  0
SEQEND
  0
POLYLINE
  8
LAYER_1
 40
0.0882
 41
0.0882
 66
1
 10
0
 20
0
 30
0
  0
VERTEX
  8
LAYER_1
 10
81.7766
 20
97.3384
  0
VERTEX
  8
LAYER_1
 10
81.1276
 20
97.3384
  0
SEQEND
  0
POLYLINE
  8
LAYER_1
 40
0.0882
 41
0.0882
 66
1
 10
0
 20
0
 30
0
  0
VERTEX
  8
LAYER_1
 10
80.803
 20
97.3384
  0
VERTEX
  8
LAYER_1
 10
80.1945
 20
97.3384
  0
SEQEND
  0
POLYLINE
  8
LAYER_1
 40
0.0882
 41
0.0882
 66
1
 10
0
 20
0
 30
0
  0
VERTEX
  8
LAYER_1
 10
79.8699
 20
97.3384
  0
VERTEX
  8
LAYER_1
 10
79.2209
 20
97.3384
  0
SEQEND
  0
POLYLINE
  8
LAYER_1
 40
0.0882
 41
0.0882
 66
1
 10
0
 20
0
 30
0
  0
VERTEX
  8
LAYER_1
 10
78.8963
 20
97.3384
  0
VERTEX
  8
LAYER_1
 10
78.2879
 20
97.3384
  0
SEQEND
  0
POLYLINE
  8
LAYER_1
 40
0.0882
 41
0.0882
 66
1
 10
0
 20
0
 30
0
  0
VERTEX
  8
LAYER_1
 10
77.9632
 20
97.3384
  0
VERTEX
  8
LAYER_1
 10
77.3142
 20
97.3384
  0
SEQEND
  0
POLYLINE
  8
LAYER_1
 40
0.0882
 41
0.0882
 66
1
 10
0
 20
0
 30
0
  0
VERTEX
  8
LAYER_1
 10
76.9896
 20
97.3384
  0
VERTEX
  8
LAYER_1
 10
76.3812
 20
97.3384
  0
SEQEND
  0
POLYLINE
  8
LAYER_1
 40
0.0882
 41
0.0882
 66
1
 10
0
 20
0
 30
0
  0
VERTEX
  8
LAYER_1
 10
76.0565
 20
97.3384
  0
VERTEX
  8
LAYER_1
 10
75.4075
 20
97.3384
  0
SEQEND
  0
POLYLINE
  8
LAYER_1
 40
0.0882
 41
0.0882
 66
1
 10
0
 20
0
 30
0
  0
VERTEX
  8
LAYER_1
 10
75.0829
 20
97.3384
  0
VERTEX
  8
LAYER_1
 10
74.5557
 20
97.3384
  0
SEQEND
  0
POLYLINE
  8
LAYER_1
 40
0.0882
 41
0.0882
 66
1
 10
0
 20
0
 30
0
  0
VERTEX
  8
LAYER_1
 10
84.5352
 20
97.3384
  0
VERTEX
  8
LAYER_1
 10
89.5835
 20
97.3384
  0
SEQEND
  0
POLYLINE
  8
LAYER_1
 40
0.0882
 41
0.0882
 66
1
 10
0
 20
0
 30
0
  0
VERTEX
  8
LAYER_1
 10
84.5352
 20
110.8475
  0
VERTEX
  8
LAYER_1
 10
92.2838
 20
110.8475
  0
SEQEND
  0
POLYLINE
  8
LAYER_1
 40
0.0882
 41
0.0882
 66
1
 10
0
 20
0
 30
0
  0
VERTEX
  8
LAYER_1
 10
89.0038
 20
98.8394
  0
VERTEX
  8
LAYER_1
 10
89.0038
 20
103.5047
  0
SEQEND
  0
POLYLINE
  8
LAYER_1
 40
0.0882
 41
0.0882
 66
1
 10
0
 20
0
 30
0
  0
VERTEX
  8
LAYER_1
 10
89.0038
 20
109.3465
  0
VERTEX
  8
LAYER_1
 10
89.0038
 20
108.9407
  0
SEQEND
  0
POLYLINE
  8
LAYER_1
 40
0.05
 41
0.05
 66
1
 10
0
 20
0
 30
0
 70
1
  0
VERTEX
  8
LAYER_1
 10
88.7603
 20
98.8394
  0
VERTEX
  8
LAYER_1
 10
89.2474
 20
98.8394
  0
VERTEX
  8
LAYER_1
 10
89.0036
 20
97.3386
  0
SEQEND
  0
POLYLINE
  8
LAYER_1
 40
0.0882
 41
0.0882
 66
1
 10
0
 20
0
 30
0
 70
1
  0
VERTEX
  8
LAYER_1
 10
88.7603
 20
98.8394
  0
VERTEX
  8
LAYER_1
 10
89.2474
 20
98.8394
  0
VERTEX
  8
LAYER_1
 10
89.0036
 20
97.3386
  0
SEQEND
  0
POLYLINE
  8
LAYER_1
 40
0.05
 41
0.05
 66
1
 10
0
 20
0
 30
0
 70
1
  0
VERTEX
  8
LAYER_1
 10
88.7603
 20
109.3465
  0
VERTEX
  8
LAYER_1
 10
89.2474
 20
109.3465
  0
VERTEX
  8
LAYER_1
 10
89.0036
 20
110.8477
  0
SEQEND
  0
POLYLINE
  8
LAYER_1
 40
0.0882
 41
0.0882
 66
1
 10
0
 20
0
 30
0
 70
1
  0
VERTEX
  8
LAYER_1
 10
88.7603
 20
109.3465
  0
VERTEX
  8
LAYER_1
 10
89.2474
 20
109.3465
  0
VERTEX
  8
LAYER_1
 10
89.0036
 20
110.8477
  0
SEQEND
  0
TEXT
  8
LAYER_1
 10
90.331
 20
103.4546
 11
90.331
 21
103.4546
 40
3.3492
 41
0.5
 50
89.99999999
  1
135
  0
POLYLINE
  8
LAYER_1
 40
0.0882
 41
0.0882
 66
1
 10
0
 20
0
 30
0
  0
VERTEX
  8
LAYER_1
 10
56.0159
 20
110.1579
  0
VERTEX
  8
LAYER_1
 10
56.0159
 20
115.1071
  0
SEQEND
  0
POLYLINE
  8
LAYER_1
 40
0.0882
 41
0.0882
 66
1
 10
0
 20
0
 30
0
  0
VERTEX
  8
LAYER_1
 10
116.016
 20
110.1579
  0
VERTEX
  8
LAYER_1
 10
116.016
 20
115.1071
  0
SEQEND
  0
POLYLINE
  8
LAYER_1
 40
0.0882
 41
0.0882
 66
1
 10
0
 20
0
 30
0
  0
VERTEX
  8
LAYER_1
 10
57.5169
 20
114.9855
  0
VERTEX
  8
LAYER_1
 10
81.9651
 20
114.9855
  0
SEQEND
  0
POLYLINE
  8
LAYER_1
 40
0.0882
 41
0.0882
 66
1
 10
0
 20
0
 30
0
  0
VERTEX
  8
LAYER_1
 10
114.515
 20
114.9855
  0
VERTEX
  8
LAYER_1
 10
90.2994
 20
114.9855
  0
SEQEND
  0
POLYLINE
  8
LAYER_1
 40
0.05
 41
0.05
 66
1
 10
0
 20
0
 30
0
 70
1
  0
VERTEX
  8
LAYER_1
 10
57.5169
 20
115.2289
  0
VERTEX
  8
LAYER_1
 10
57.5169
 20
114.7419
  0
VERTEX
  8
LAYER_1
 10
56.0157
 20
114.9856
  0
SEQEND
  0
POLYLINE
  8
LAYER_1
 40
0.0882
 41
0.0882
 66
1
 10
0
 20
0
 30
0
 70
1
  0
VERTEX
  8
LAYER_1
 10
57.5169
 20
115.2289
  0
VERTEX
  8
LAYER_1
 10
57.5169
 20
114.7419
  0
VERTEX
  8
LAYER_1
 10
56.0157
 20
114.9856
  0
SEQEND
  0
POLYLINE
  8
LAYER_1
 40
0.05
 41
0.05
 66
1
 10
0
 20
0
 30
0
 70
1
  0
VERTEX
  8
LAYER_1
 10
114.515
 20
115.2289
  0
VERTEX
  8
LAYER_1
 10
114.515
 20
114.7419
  0
VERTEX
  8
LAYER_1
 10
116.0158
 20
114.9856
  0
SEQEND
  0
POLYLINE
  8
LAYER_1
 40
0.0882
 41
0.0882
 66
1
 10
0
 20
0
 30
0
 70
1
  0
VERTEX
  8
LAYER_1
 10
114.515
 20
115.2289
  0
VERTEX
  8
LAYER_1
 10
114.515
 20
114.7419
  0
VERTEX
  8
LAYER_1
 10
116.0158
 20
114.9856
  0
SEQEND
  0
TEXT
  8
LAYER_1
 10
83.1157
 20
113.6585
 11
83.1157
 21
113.6585
 40
3.3492
 41
0.5
  1
600
  0
POLYLINE
  8
LAYER_1
 40
0.0882
 41
0.0882
 66
1
 10
0
 20
0
 30
0
  0
VERTEX
  8
LAYER_1
 10
116.016
 20
110.1579
  0
VERTEX
  8
LAYER_1
 10
116.016
 20
115.1071
  0
SEQEND
  0
POLYLINE
  8
LAYER_1
 40
0.0882
 41
0.0882
 66
1
 10
0
 20
0
 30
0
  0
VERTEX
  8
LAYER_1
 10
114.515
 20
114.9855
  0
VERTEX
  8
LAYER_1
 10
113.0138
 20
114.9855
  0
SEQEND
  0
POLYLINE
  8
LAYER_1
 40
0.0882
 41
0.0882
 66
1
 10
0
 20
0
 30
0
  0
VERTEX
  8
LAYER_1
 10
116.016
 20
114.9855
  0
VERTEX
  8
LAYER_1
 10
116.2593
 20
114.9855
  0
SEQEND
  0
POLYLINE
  8
LAYER_1
 40
0.05
 41
0.05
 66
1
 10
0
 20
0
 30
0
 70
1
  0
VERTEX
  8
LAYER_1
 10
114.515
 20
115.2289
  0
VERTEX
  8
LAYER_1
 10
114.515
 20
114.7419
  0
VERTEX
  8
LAYER_1
 10
116.0158
 20
114.9856
  0
SEQEND
  0
POLYLINE
  8
LAYER_1
 40
0.0882
 41
0.0882
 66
1
 10
0
 20
0
 30
0
 70
1
  0
VERTEX
  8
LAYER_1
 10
114.515
 20
115.2289
  0
VERTEX
  8
LAYER_1
 10
114.515
 20
114.7419
  0
VERTEX
  8
LAYER_1
 10
116.0158
 20
114.9856
  0
SEQEND
  0
POLYLINE
  8
LAYER_1
 40
0.4127
 41
0.4127
 66
1
 10
0
 20
0
 30
0
  0
VERTEX
  8
LAYER_1
 10
99.0586
 20
106.4256
  0
VERTEX
  8
LAYER_1
 10
99.0586
 20
106.385
  0
SEQEND
  0
POLYLINE
  8
LAYER_1
 40
0.4127
 41
0.4127
 66
1
 10
0
 20
0
 30
0
  0
VERTEX
  8
LAYER_1
 10
98.0444
 20
105.4114
  0
VERTEX
  8
LAYER_1
 10
97.0708
 20
105.4114
  0
SEQEND
  0
POLYLINE
  8
LAYER_1
 40
0.4127
 41
0.4127
 66
1
 10
0
 20
0
 30
0
  0
VERTEX
  8
LAYER_1
 10
96.0566
 20
106.385
  0
VERTEX
  8
LAYER_1
 10
96.0566
 20
106.4257
  0
SEQEND
  0
POLYLINE
  8
LAYER_1
 40
0.4127
 41
0.4127
 66
1
 10
0
 20
0
 30
0
  0
VERTEX
  8
LAYER_1
 10
97.0708
 20
107.3993
  0
VERTEX
  8
LAYER_1
 10
98.0444
 20
107.3993
  0
SEQEND
  0
INSERT
  8
LAYER_1
  2
AIGNBL0102002F
 10
0
 20
0
 30
0
  0
POLYLINE
  8
LAYER_1
 40
0.4127
 41
0.4127
 66
1
 10
0
 20
0
 30
0
  0
VERTEX
  8
LAYER_1
 10
97.4764
 20
106.385
  0
VERTEX
  8
LAYER_1
 10
97.6791
 20
106.385
  0
SEQEND
  0
POLYLINE
  8
LAYER_1
 40
0.4127
 41
0.4127
 66
1
 10
0
 20
0
 30
0
  0
VERTEX
  8
LAYER_1
 10
97.5576
 20
106.5067
  0
VERTEX
  8
LAYER_1
 10
97.5576
 20
106.3041
  0
SEQEND
  0
POLYLINE
  8
LAYER_1
 40
0.0882
 41
0.0882
 66
1
 10
0
 20
0
 30
0
  0
VERTEX
  8
LAYER_1
 10
69.5657
 20
109.3465
  0
VERTEX
  8
LAYER_1
 10
97.5574
 20
109.3465
  0
SEQEND
  0
POLYLINE
  8
LAYER_1
 40
0.0882
 41
0.0882
 66
1
 10
0
 20
0
 30
0
  0
VERTEX
  8
LAYER_1
 10
69.5657
 20
105.452
  0
VERTEX
  8
LAYER_1
 10
69.5657
 20
106.5474
  0
SEQEND
  0
POLYLINE
  8
LAYER_1
 40
0.0882
 41
0.0882
 66
1
 10
0
 20
0
 30
0
  0
VERTEX
  8
LAYER_1
 10
97.5576
 20
105.452
  0
VERTEX
  8
LAYER_1
 10
97.5576
 20
106.5474
  0
SEQEND
  0
POLYLINE
  8
LAYER_1
 40
0.0882
 41
0.0882
 66
1
 10
0
 20
0
 30
0
  0
VERTEX
  8
LAYER_1
 10
71.0667
 20
106.4256
  0
VERTEX
  8
LAYER_1
 10
80.0727
 20
106.4256
  0
SEQEND
  0
POLYLINE
  8
LAYER_1
 40
0.0882
 41
0.0882
 66
1
 10
0
 20
0
 30
0
  0
VERTEX
  8
LAYER_1
 10
96.0566
 20
106.4256
  0
VERTEX
  8
LAYER_1
 10
91.2927
 20
106.4256
  0
SEQEND
  0
POLYLINE
  8
LAYER_1
 40
0.05
 41
0.05
 66
1
 10
0
 20
0
 30
0
 70
1
  0
VERTEX
  8
LAYER_1
 10
71.0667
 20
106.669
  0
VERTEX
  8
LAYER_1
 10
71.0667
 20
106.1418
  0
VERTEX
  8
LAYER_1
 10
69.5655
 20
106.4257
  0
SEQEND
  0
POLYLINE
  8
LAYER_1
 40
0.0882
 41
0.0882
 66
1
 10
0
 20
0
 30
0
 70
1
  0
VERTEX
  8
LAYER_1
 10
71.0667
 20
106.669
  0
VERTEX
  8
LAYER_1
 10
71.0667
 20
106.1418
  0
VERTEX
  8
LAYER_1
 10
69.5655
 20
106.4257
  0
SEQEND
  0
POLYLINE
  8
LAYER_1
 40
0.05
 41
0.05
 66
1
 10
0
 20
0
 30
0
 70
1
  0
VERTEX
  8
LAYER_1
 10
96.0566
 20
106.669
  0
VERTEX
  8
LAYER_1
 10
96.0566
 20
106.1418
  0
VERTEX
  8
LAYER_1
 10
97.5578
 20
106.4257
  0
SEQEND
  0
POLYLINE
  8
LAYER_1
 40
0.0882
 41
0.0882
 66
1
 10
0
 20
0
 30
0
 70
1
  0
VERTEX
  8
LAYER_1
 10
96.0566
 20
106.669
  0
VERTEX
  8
LAYER_1
 10
96.0566
 20
106.1418
  0
VERTEX
  8
LAYER_1
 10
97.5578
 20
106.4257
  0
SEQEND
  0
TEXT
  8
LAYER_1
 10
80.7497
 20
105.0578
 11
80.7497
 21
105.0578
 40
3.3492
 41
0.5
  1
280
  0
POLYLINE
  8
LAYER_1
 40
0.0882
 41
0.0882
 66
1
 10
0
 20
0
 30
0
  0
VERTEX
  8
LAYER_1
 10
88.5515
 20
180.1783
  0
VERTEX
  8
LAYER_1
 10
88.6327
 20
180.1783
  0
SEQEND
  0
POLYLINE
  8
LAYER_1
 40
0.0882
 41
0.0882
 66
1
 10
0
 20
0
 30
0
  0
VERTEX
  8
LAYER_1
 10
88.2323
 20
172.1864
  0
VERTEX
  8
LAYER_1
 10
88.2323
 20
170.6852
  0
SEQEND
  0
POLYLINE
  8
LAYER_1
 40
0.0882
 41
0.0882
 66
1
 10
0
 20
0
 30
0
  0
VERTEX
  8
LAYER_1
 10
88.1964
 20
181.6793
  0
VERTEX
  8
LAYER_1
 10
88.1964
 20
183.1805
  0
SEQEND
  0
POLYLINE
  8
LAYER_1
 40
0.0882
 41
0.0882
 66
1
 10
0
 20
0
 30
0
  0
VERTEX
  8
LAYER_1
 10
88.2323
 20
173.6874
  0
VERTEX
  8
LAYER_1
 10
88.2323
 20
175.0668
  0
SEQEND
  0
POLYLINE
  8
LAYER_1
 40
0.0882
 41
0.0882
 66
1
 10
0
 20
0
 30
0
  0
VERTEX
  8
LAYER_1
 10
88.2323
 20
180.1783
  0
VERTEX
  8
LAYER_1
 10
88.2323
 20
178.7989
  0
SEQEND
  0
POLYLINE
  8
LAYER_1
 40
0.05
 41
0.05
 66
1
 10
0
 20
0
 30
0
 70
1
  0
VERTEX
  8
LAYER_1
 10
87.9888
 20
172.1864
  0
VERTEX
  8
LAYER_1
 10
88.4759
 20
172.1864
  0
VERTEX
  8
LAYER_1
 10
88.2321
 20
173.6872
  0
SEQEND
  0
POLYLINE
  8
LAYER_1
 40
0.0882
 41
0.0882
 66
1
 10
0
 20
0
 30
0
 70
1
  0
VERTEX
  8
LAYER_1
 10
87.9888
 20
172.1864
  0
VERTEX
  8
LAYER_1
 10
88.4759
 20
172.1864
  0
VERTEX
  8
LAYER_1
 10
88.2321
 20
173.6872
  0
SEQEND
  0
POLYLINE
  8
LAYER_1
 40
0.05
 41
0.05
 66
1
 10
0
 20
0
 30
0
 70
1
  0
VERTEX
  8
LAYER_1
 10
87.9888
 20
181.6793
  0
VERTEX
  8
LAYER_1
 10
88.4759
 20
181.6793
  0
VERTEX
  8
LAYER_1
 10
88.2321
 20
180.1781
  0
SEQEND
  0
POLYLINE
  8
LAYER_1
 40
0.0882
 41
0.0882
 66
1
 10
0
 20
0
 30
0
 70
1
  0
VERTEX
  8
LAYER_1
 10
87.9888
 20
181.6793
  0
VERTEX
  8
LAYER_1
 10
88.4759
 20
181.6793
  0
VERTEX
  8
LAYER_1
 10
88.2321
 20
180.1781
  0
SEQEND
  0
TEXT
  8
LAYER_1
 10
89.5595
 20
174.9857
 11
89.5595
 21
174.9857
 40
3.3492
 41
0.5
 50
89.99999999
  1
65
  0
POLYLINE
  8
LAYER_1
 40
0.0882
 41
0.0882
 66
1
 10
0
 20
0
 30
0
  0
VERTEX
  8
LAYER_1
 10
78.5718
 20
159.2046
  0
VERTEX
  8
LAYER_1
 10
78.653
 20
159.2046
  0
SEQEND
  0
POLYLINE
  8
LAYER_1
 40
0.0882
 41
0.0882
 66
1
 10
0
 20
0
 30
0
  0
VERTEX
  8
LAYER_1
 10
78.5718
 20
180.1783
  0
VERTEX
  8
LAYER_1
 10
78.653
 20
180.1783
  0
SEQEND
  0
POLYLINE
  8
LAYER_1
 40
0.0882
 41
0.0882
 66
1
 10
0
 20
0
 30
0
  0
VERTEX
  8
LAYER_1
 10
73.81
 20
160.6651
  0
VERTEX
  8
LAYER_1
 10
73.81
 20
169.0706
  0
SEQEND
  0
POLYLINE
  8
LAYER_1
 40
0.0882
 41
0.0882
 66
1
 10
0
 20
0
 30
0
  0
VERTEX
  8
LAYER_1
 10
73.81
 20
178.6773
  0
VERTEX
  8
LAYER_1
 10
73.81
 20
175.6235
  0
SEQEND
  0
POLYLINE
  8
LAYER_1
 40
0.05
 41
0.05
 66
1
 10
0
 20
0
 30
0
 70
1
  0
VERTEX
  8
LAYER_1
 10
73.5666
 20
160.6651
  0
VERTEX
  8
LAYER_1
 10
74.0938
 20
160.6651
  0
VERTEX
  8
LAYER_1
 10
73.8099
 20
159.2045
  0
SEQEND
  0
POLYLINE
  8
LAYER_1
 40
0.0882
 41
0.0882
 66
1
 10
0
 20
0
 30
0
 70
1
  0
VERTEX
  8
LAYER_1
 10
73.5666
 20
160.6651
  0
VERTEX
  8
LAYER_1
 10
74.0938
 20
160.6651
  0
VERTEX
  8
LAYER_1
 10
73.8099
 20
159.2045
  0
SEQEND
  0
POLYLINE
  8
LAYER_1
 40
0.05
 41
0.05
 66
1
 10
0
 20
0
 30
0
 70
1
  0
VERTEX
  8
LAYER_1
 10
73.5666
 20
178.6773
  0
VERTEX
  8
LAYER_1
 10
74.0938
 20
178.6773
  0
VERTEX
  8
LAYER_1
 10
73.8099
 20
180.1781
  0
SEQEND
  0
POLYLINE
  8
LAYER_1
 40
0.0882
 41
0.0882
 66
1
 10
0
 20
0
 30
0
 70
1
  0
VERTEX
  8
LAYER_1
 10
73.5666
 20
178.6773
  0
VERTEX
  8
LAYER_1
 10
74.0938
 20
178.6773
  0
VERTEX
  8
LAYER_1
 10
73.8099
 20
180.1781
  0
SEQEND
  0
TEXT
  8
LAYER_1
 10
75.0606
 20
170.0018
 11
75.0606
 21
170.0018
 40
3.3492
 41
0.5
 50
89.99999999
  1
210
  0
POLYLINE
  8
LAYER_1
  6
AIGENLINE001
 40
0.0882
 41
0.0882
 66
1
 10
0
 20
0
 30
0
 70
128
  0
VERTEX
  8
LAYER_1
 10
59.6821
 20
169.1843
  0
VERTEX
  8
LAYER_1
 10
51.7438
 20
169.1843
  0
SEQEND
  0
POLYLINE
  8
LAYER_1
 40
0.0882
 41
0.0882
 66
1
 10
0
 20
0
 30
0
  0
VERTEX
  8
LAYER_1
 10
51.8656
 20
169.365
  0
VERTEX
  8
LAYER_1
 10
51.8656
 20
158.6957
  0
SEQEND
  0
POLYLINE
  8
LAYER_1
 40
0.0882
 41
0.0882
 66
1
 10
0
 20
0
 30
0
  0
VERTEX
  8
LAYER_1
 10
51.8656
 20
140.665
  0
VERTEX
  8
LAYER_1
 10
51.8656
 20
151.375
  0
SEQEND
  0
POLYLINE
  8
LAYER_1
 40
0.05
 41
0.05
 66
1
 10
0
 20
0
 30
0
 70
1
  0
VERTEX
  8
LAYER_1
 10
51.5816
 20
167.6833
  0
VERTEX
  8
LAYER_1
 10
52.1088
 20
167.6833
  0
VERTEX
  8
LAYER_1
 10
51.8655
 20
169.1846
  0
SEQEND
  0
POLYLINE
  8
LAYER_1
 40
0.0882
 41
0.0882
 66
1
 10
0
 20
0
 30
0
 70
1
  0
VERTEX
  8
LAYER_1
 10
51.5816
 20
167.6833
  0
VERTEX
  8
LAYER_1
 10
52.1088
 20
167.6833
  0
VERTEX
  8
LAYER_1
 10
51.8655
 20
169.1846
  0
SEQEND
  0
POLYLINE
  8
LAYER_1
 40
0.05
 41
0.05
 66
1
 10
0
 20
0
 30
0
 70
1
  0
VERTEX
  8
LAYER_1
 10
51.5816
 20
140.665
  0
VERTEX
  8
LAYER_1
 10
52.1088
 20
140.665
  0
VERTEX
  8
LAYER_1
 10
51.8655
 20
139.2044
  0
SEQEND
  0
POLYLINE
  8
LAYER_1
 40
0.0882
 41
0.0882
 66
1
 10
0
 20
0
 30
0
 70
1
  0
VERTEX
  8
LAYER_1
 10
51.5816
 20
140.665
  0
VERTEX
  8
LAYER_1
 10
52.1088
 20
140.665
  0
VERTEX
  8
LAYER_1
 10
51.8655
 20
139.2044
  0
SEQEND
  0
TEXT
  8
LAYER_1
 10
53.3486
 20
151.9165
 11
53.3486
 21
151.9165
 40
3.3492
 41
0.5
 50
89.99999999
  1
300
  0
POLYLINE
  8
LAYER_1
  6
AIGENLINE001
 40
0.0882
 41
0.0882
 66
1
 10
0
 20
0
 30
0
 70
128
  0
VERTEX
  8
LAYER_1
 10
59.582
 20
139.2046
  0
VERTEX
  8
LAYER_1
 10
51.7438
 20
139.2046
  0
SEQEND
  0
POLYLINE
  8
LAYER_1
 40
0.0882
 41
0.0882
 66
1
 10
0
 20
0
 30
0
  0
VERTEX
  8
LAYER_1
 10
51.8656
 20
140.665
  0
VERTEX
  8
LAYER_1
 10
51.8656
 20
142.1663
  0
SEQEND
  0
POLYLINE
  8
LAYER_1
 40
0.0882
 41
0.0882
 66
1
 10
0
 20
0
 30
0
  0
VERTEX
  8
LAYER_1
 10
51.8656
 20
132.6731
  0
VERTEX
  8
LAYER_1
 10
51.8656
 20
131.1719
  0
SEQEND
  0
POLYLINE
  8
LAYER_1
 40
0.0882
 41
0.0882
 66
1
 10
0
 20
0
 30
0
  0
VERTEX
  8
LAYER_1
 10
51.8656
 20
139.2046
  0
VERTEX
  8
LAYER_1
 10
51.8656
 20
138.5149
  0
SEQEND
  0
POLYLINE
  8
LAYER_1
 40
0.0882
 41
0.0882
 66
1
 10
0
 20
0
 30
0
  0
VERTEX
  8
LAYER_1
 10
51.8656
 20
134.1741
  0
VERTEX
  8
LAYER_1
 10
51.8656
 20
134.8232
  0
SEQEND
  0
POLYLINE
  8
LAYER_1
 40
0.05
 41
0.05
 66
1
 10
0
 20
0
 30
0
 70
1
  0
VERTEX
  8
LAYER_1
 10
51.5816
 20
140.665
  0
VERTEX
  8
LAYER_1
 10
52.1088
 20
140.665
  0
VERTEX
  8
LAYER_1
 10
51.8655
 20
139.2044
  0
SEQEND
  0
POLYLINE
  8
LAYER_1
 40
0.0882
 41
0.0882
 66
1
 10
0
 20
0
 30
0
 70
1
  0
VERTEX
  8
LAYER_1
 10
51.5816
 20
140.665
  0
VERTEX
  8
LAYER_1
 10
52.1088
 20
140.665
  0
VERTEX
  8
LAYER_1
 10
51.8655
 20
139.2044
  0
SEQEND
  0
POLYLINE
  8
LAYER_1
 40
0.05
 41
0.05
 66
1
 10
0
 20
0
 30
0
 70
1
  0
VERTEX
  8
LAYER_1
 10
51.5816
 20
132.6731
  0
VERTEX
  8
LAYER_1
 10
52.1088
 20
132.6731
  0
VERTEX
  8
LAYER_1
 10
51.8655
 20
134.1744
  0
SEQEND
  0
POLYLINE
  8
LAYER_1
 40
0.0882
 41
0.0882
 66
1
 10
0
 20
0
 30
0
 70
1
  0
VERTEX
  8
LAYER_1
 10
51.5816
 20
132.6731
  0
VERTEX
  8
LAYER_1
 10
52.1088
 20
132.6731
  0
VERTEX
  8
LAYER_1
 10
51.8655
 20
134.1744
  0
SEQEND
  0
TEXT
  8
LAYER_1
 10
53.1931
 20
134.7425
 11
53.1931
 21
134.7425
 40
3.3492
 41
0.5
 50
89.99999999
  1
50
  0
POLYLINE
  8
LAYER_1
 40
0.0882
 41
0.0882
 66
1
 10
0
 20
0
 30
0
  0
VERTEX
  8
LAYER_1
 10
55.0785
 20
180.1783
  0
VERTEX
  8
LAYER_1
 10
49.0665
 20
180.1783
  0
SEQEND
  0
POLYLINE
  8
LAYER_1
 40
0.0882
 41
0.0882
 66
1
 10
0
 20
0
 30
0
  0
VERTEX
  8
LAYER_1
 10
49.1881
 20
135.6752
  0
VERTEX
  8
LAYER_1
 10
49.1881
 20
154.2957
  0
SEQEND
  0
POLYLINE
  8
LAYER_1
 40
0.0882
 41
0.0882
 66
1
 10
0
 20
0
 30
0
  0
VERTEX
  8
LAYER_1
 10
49.1881
 20
178.6773
  0
VERTEX
  8
LAYER_1
 10
49.1881
 20
162.4135
  0
SEQEND
  0
POLYLINE
  8
LAYER_1
 40
0.05
 41
0.05
 66
1
 10
0
 20
0
 30
0
 70
1
  0
VERTEX
  8
LAYER_1
 10
48.9447
 20
135.6752
  0
VERTEX
  8
LAYER_1
 10
49.4317
 20
135.6752
  0
VERTEX
  8
LAYER_1
 10
49.188
 20
134.1739
  0
SEQEND
  0
POLYLINE
  8
LAYER_1
 40
0.0882
 41
0.0882
 66
1
 10
0
 20
0
 30
0
 70
1
  0
VERTEX
  8
LAYER_1
 10
48.9447
 20
135.6752
  0
VERTEX
  8
LAYER_1
 10
49.4317
 20
135.6752
  0
VERTEX
  8
LAYER_1
 10
49.188
 20
134.1739
  0
SEQEND
  0
POLYLINE
  8
LAYER_1
 40
0.05
 41
0.05
 66
1
 10
0
 20
0
 30
0
 70
1
  0
VERTEX
  8
LAYER_1
 10
48.9447
 20
178.6773
  0
VERTEX
  8
LAYER_1
 10
49.4317
 20
178.6773
  0
VERTEX
  8
LAYER_1
 10
49.188
 20
180.1781
  0
SEQEND
  0
POLYLINE
  8
LAYER_1
 40
0.0882
 41
0.0882
 66
1
 10
0
 20
0
 30
0
 70
1
  0
VERTEX
  8
LAYER_1
 10
48.9447
 20
178.6773
  0
VERTEX
  8
LAYER_1
 10
49.4317
 20
178.6773
  0
VERTEX
  8
LAYER_1
 10
49.188
 20
180.1781
  0
SEQEND
  0
TEXT
  8
LAYER_1
 10
50.3815
 20
155.2589
 11
50.3815
 21
155.2589
 40
3.3492
 41
0.5
 50
89.99999999
  1
460
  0
POLYLINE
  8
LAYER_1
 40
0.0882
 41
0.0882
 66
1
 10
0
 20
0
 30
0
  0
VERTEX
  8
LAYER_1
 10
177.3955
 20
110.8475
  0
VERTEX
  8
LAYER_1
 10
201.5741
 20
110.8475
  0
SEQEND
  0
POLYLINE
  8
LAYER_1
 40
0.0882
 41
0.0882
 66
1
 10
0
 20
0
 30
0
  0
VERTEX
  8
LAYER_1
 10
201.4523
 20
94.3363
  0
VERTEX
  8
LAYER_1
 10
201.4523
 20
99.1641
  0
SEQEND
  0
POLYLINE
  8
LAYER_1
 40
0.0882
 41
0.0882
 66
1
 10
0
 20
0
 30
0
  0
VERTEX
  8
LAYER_1
 10
201.4523
 20
109.3465
  0
VERTEX
  8
LAYER_1
 10
201.4523
 20
106.1945
  0
SEQEND
  0
POLYLINE
  8
LAYER_1
 40
0.05
 41
0.05
 66
1
 10
0
 20
0
 30
0
 70
1
  0
VERTEX
  8
LAYER_1
 10
201.2089
 20
94.3363
  0
VERTEX
  8
LAYER_1
 10
201.6959
 20
94.3363
  0
VERTEX
  8
LAYER_1
 10
201.4522
 20
92.8351
  0
SEQEND
  0
POLYLINE
  8
LAYER_1
 40
0.0882
 41
0.0882
 66
1
 10
0
 20
0
 30
0
 70
1
  0
VERTEX
  8
LAYER_1
 10
201.2089
 20
94.3363
  0
VERTEX
  8
LAYER_1
 10
201.6959
 20
94.3363
  0
VERTEX
  8
LAYER_1
 10
201.4522
 20
92.8351
  0
SEQEND
  0
POLYLINE
  8
LAYER_1
 40
0.05
 41
0.05
 66
1
 10
0
 20
0
 30
0
 70
1
  0
VERTEX
  8
LAYER_1
 10
201.2089
 20
109.3465
  0
VERTEX
  8
LAYER_1
 10
201.6959
 20
109.3465
  0
VERTEX
  8
LAYER_1
 10
201.4522
 20
110.8477
  0
SEQEND
  0
POLYLINE
  8
LAYER_1
 40
0.0882
 41
0.0882
 66
1
 10
0
 20
0
 30
0
 70
1
  0
VERTEX
  8
LAYER_1
 10
201.2089
 20
109.3465
  0
VERTEX
  8
LAYER_1
 10
201.6959
 20
109.3465
  0
VERTEX
  8
LAYER_1
 10
201.4522
 20
110.8477
  0
SEQEND
  0
TEXT
  8
LAYER_1
 10
202.8197
 20
100.4512
 11
202.8197
 21
100.4512
 40
3.3492
 41
0.5
 50
89.99999999
  1
180
  0
POLYLINE
  8
LAYER_1
 40
0.0882
 41
0.0882
 66
1
 10
0
 20
0
 30
0
  0
VERTEX
  8
LAYER_1
 10
56.0159
 20
181.6631
  0
VERTEX
  8
LAYER_1
 10
56.0159
 20
185.0059
  0
SEQEND
  0
POLYLINE
  8
LAYER_1
 40
0.0882
 41
0.0882
 66
1
 10
0
 20
0
 30
0
  0
VERTEX
  8
LAYER_1
 10
57.5169
 20
184.8842
  0
VERTEX
  8
LAYER_1
 10
82.1793
 20
184.8842
  0
SEQEND
  0
POLYLINE
  8
LAYER_1
 40
0.0882
 41
0.0882
 66
1
 10
0
 20
0
 30
0
  0
VERTEX
  8
LAYER_1
 10
114.515
 20
184.8842
  0
VERTEX
  8
LAYER_1
 10
90.1242
 20
184.8842
  0
SEQEND
  0
POLYLINE
  8
LAYER_1
 40
0.05
 41
0.05
 66
1
 10
0
 20
0
 30
0
 70
1
  0
VERTEX
  8
LAYER_1
 10
57.5169
 20
185.1276
  0
VERTEX
  8
LAYER_1
 10
57.5169
 20
184.6406
  0
VERTEX
  8
LAYER_1
 10
56.0157
 20
184.8843
  0
SEQEND
  0
POLYLINE
  8
LAYER_1
 40
0.0882
 41
0.0882
 66
1
 10
0
 20
0
 30
0
 70
1
  0
VERTEX
  8
LAYER_1
 10
57.5169
 20
185.1276
  0
VERTEX
  8
LAYER_1
 10
57.5169
 20
184.6406
  0
VERTEX
  8
LAYER_1
 10
56.0157
 20
184.8843
  0
SEQEND
  0
POLYLINE
  8
LAYER_1
 40
0.05
 41
0.05
 66
1
 10
0
 20
0
 30
0
 70
1
  0
VERTEX
  8
LAYER_1
 10
114.515
 20
185.1276
  0
VERTEX
  8
LAYER_1
 10
114.515
 20
184.6406
  0
VERTEX
  8
LAYER_1
 10
116.0158
 20
184.8843
  0
SEQEND
  0
POLYLINE
  8
LAYER_1
 40
0.0882
 41
0.0882
 66
1
 10
0
 20
0
 30
0
 70
1
  0
VERTEX
  8
LAYER_1
 10
114.515
 20
185.1276
  0
VERTEX
  8
LAYER_1
 10
114.515
 20
184.6406
  0
VERTEX
  8
LAYER_1
 10
116.0158
 20
184.8843
  0
SEQEND
  0
TEXT
  8
LAYER_1
 10
83.1157
 20
183.5569
 11
83.1157
 21
183.5569
 40
3.3492
 41
0.5
  1
600
  0
POLYLINE
  8
LAYER_1
 40
0.0882
 41
0.0882
 66
1
 10
0
 20
0
 30
0
  0
VERTEX
  8
LAYER_1
 10
114.515
 20
184.8842
  0
VERTEX
  8
LAYER_1
 10
113.0138
 20
184.8842
  0
SEQEND
  0
POLYLINE
  8
LAYER_1
 40
0.0882
 41
0.0882
 66
1
 10
0
 20
0
 30
0
  0
VERTEX
  8
LAYER_1
 10
116.016
 20
184.8842
  0
VERTEX
  8
LAYER_1
 10
116.2593
 20
184.8842
  0
SEQEND
  0
POLYLINE
  8
LAYER_1
 40
0.05
 41
0.05
 66
1
 10
0
 20
0
 30
0
 70
1
  0
VERTEX
  8
LAYER_1
 10
114.515
 20
185.1276
  0
VERTEX
  8
LAYER_1
 10
114.515
 20
184.6406
  0
VERTEX
  8
LAYER_1
 10
116.0158
 20
184.8843
  0
SEQEND
  0
POLYLINE
  8
LAYER_1
 40
0.0882
 41
0.0882
 66
1
 10
0
 20
0
 30
0
 70
1
  0
VERTEX
  8
LAYER_1
 10
114.515
 20
185.1276
  0
VERTEX
  8
LAYER_1
 10
114.515
 20
184.6406
  0
VERTEX
  8
LAYER_1
 10
116.0158
 20
184.8843
  0
SEQEND
  0
INSERT
  8
LAYER_1
  2
AIGNBL01020030
 10
0
 20
0
 30
0
  0
POLYLINE
  8
LAYER_1
 40
0.4127
 41
0.4127
 66
1
 10
0
 20
0
 30
0
  0
VERTEX
  8
LAYER_1
 10
161.6551
 20
107.237
  0
VERTEX
  8
LAYER_1
 10
160.9654
 20
107.237
  0
SEQEND
  0
INSERT
  8
LAYER_1
  2
AIGNBL01020031
 10
0
 20
0
 30
0
  0
POLYLINE
  8
LAYER_1
 40
0.4127
 41
0.4127
 66
1
 10
0
 20
0
 30
0
  0
VERTEX
  8
LAYER_1
 10
160.9654
 20
108.0483
  0
VERTEX
  8
LAYER_1
 10
161.6551
 20
108.0483
  0
SEQEND
  0
INSERT
  8
LAYER_1
  2
AIGNBL01020032
 10
0
 20
0
 30
0
  0
POLYLINE
  8
LAYER_1
 40
0.4127
 41
0.4127
 66
1
 10
0
 20
0
 30
0
  0
VERTEX
  8
LAYER_1
 10
194.6774
 20
107.237
  0
VERTEX
  8
LAYER_1
 10
193.9877
 20
107.237
  0
SEQEND
  0
INSERT
  8
LAYER_1
  2
AIGNBL01020033
 10
0
 20
0
 30
0
  0
POLYLINE
  8
LAYER_1
 40
0.4127
 41
0.4127
 66
1
 10
0
 20
0
 30
0
  0
VERTEX
  8
LAYER_1
 10
193.9878
 20
108.0483
  0
VERTEX
  8
LAYER_1
 10
194.6775
 20
108.0483
  0
SEQEND
  0
POLYLINE
  8
LAYER_1
 40
0.0882
 41
0.0882
 66
1
 10
0
 20
0
 30
0
  0
VERTEX
  8
LAYER_1
 10
78.4906
 20
95.9996
  0
VERTEX
  8
LAYER_1
 10
78.4906
 20
112.9569
  0
SEQEND
  0
POLYLINE
  8
LAYER_1
 40
0.0882
 41
0.0882
 66
1
 10
0
 20
0
 30
0
  0
VERTEX
  8
LAYER_1
 10
56.0159
 20
109.7116
  0
VERTEX
  8
LAYER_1
 10
56.0159
 20
112.9569
  0
SEQEND
  0
POLYLINE
  8
LAYER_1
 40
0.0882
 41
0.0882
 66
1
 10
0
 20
0
 30
0
  0
VERTEX
  8
LAYER_1
 10
76.9896
 20
112.8353
  0
VERTEX
  8
LAYER_1
 10
70.0932
 20
112.8353
  0
SEQEND
  0
POLYLINE
  8
LAYER_1
 40
0.0882
 41
0.0882
 66
1
 10
0
 20
0
 30
0
  0
VERTEX
  8
LAYER_1
 10
57.5169
 20
112.8353
  0
VERTEX
  8
LAYER_1
 10
64.4133
 20
112.8353
  0
SEQEND
  0
POLYLINE
  8
LAYER_1
 40
0.05
 41
0.05
 66
1
 10
0
 20
0
 30
0
 70
1
  0
VERTEX
  8
LAYER_1
 10
76.9896
 20
113.0788
  0
VERTEX
  8
LAYER_1
 10
76.9896
 20
112.5918
  0
VERTEX
  8
LAYER_1
 10
78.4908
 20
112.8355
  0
SEQEND
  0
POLYLINE
  8
LAYER_1
 40
0.0882
 41
0.0882
 66
1
 10
0
 20
0
 30
0
 70
1
  0
VERTEX
  8
LAYER_1
 10
76.9896
 20
113.0788
  0
VERTEX
  8
LAYER_1
 10
76.9896
 20
112.5918
  0
VERTEX
  8
LAYER_1
 10
78.4908
 20
112.8355
  0
SEQEND
  0
POLYLINE
  8
LAYER_1
 40
0.05
 41
0.05
 66
1
 10
0
 20
0
 30
0
 70
1
  0
VERTEX
  8
LAYER_1
 10
57.5169
 20
113.0788
  0
VERTEX
  8
LAYER_1
 10
57.5169
 20
112.5918
  0
VERTEX
  8
LAYER_1
 10
56.0157
 20
112.8355
  0
SEQEND
  0
POLYLINE
  8
LAYER_1
 40
0.0882
 41
0.0882
 66
1
 10
0
 20
0
 30
0
 70
1
  0
VERTEX
  8
LAYER_1
 10
57.5169
 20
113.0788
  0
VERTEX
  8
LAYER_1
 10
57.5169
 20
112.5918
  0
VERTEX
  8
LAYER_1
 10
56.0157
 20
112.8355
  0
SEQEND
  0
TEXT
  8
LAYER_1
 10
64.3734
 20
111.5084
 11
64.3734
 21
111.5084
 40
3.3492
 41
0.5
  1
225
  0
POLYLINE
  8
LAYER_1
 40
0.0882
 41
0.0882
 66
1
 10
0
 20
0
 30
0
  0
VERTEX
  8
LAYER_1
 10
78.4906
 20
112.9165
  0
VERTEX
  8
LAYER_1
 10
78.4906
 20
112.9571
  0
SEQEND
  0
POLYLINE
  8
LAYER_1
 40
0.0882
 41
0.0882
 66
1
 10
0
 20
0
 30
0
  0
VERTEX
  8
LAYER_1
 10
116.016
 20
110.6041
  0
VERTEX
  8
LAYER_1
 10
116.016
 20
112.9571
  0
SEQEND
  0
POLYLINE
  8
LAYER_1
 40
0.0882
 41
0.0882
 66
1
 10
0
 20
0
 30
0
  0
VERTEX
  8
LAYER_1
 10
79.9916
 20
112.8353
  0
VERTEX
  8
LAYER_1
 10
94.4339
 20
112.8353
  0
SEQEND
  0
POLYLINE
  8
LAYER_1
 40
0.0882
 41
0.0882
 66
1
 10
0
 20
0
 30
0
  0
VERTEX
  8
LAYER_1
 10
114.515
 20
112.8353
  0
VERTEX
  8
LAYER_1
 10
100.9705
 20
112.8353
  0
SEQEND
  0
POLYLINE
  8
LAYER_1
 40
0.05
 41
0.05
 66
1
 10
0
 20
0
 30
0
 70
1
  0
VERTEX
  8
LAYER_1
 10
79.9916
 20
113.0788
  0
VERTEX
  8
LAYER_1
 10
79.9916
 20
112.5918
  0
VERTEX
  8
LAYER_1
 10
78.4904
 20
112.8355
  0
SEQEND
  0
POLYLINE
  8
LAYER_1
 40
0.0882
 41
0.0882
 66
1
 10
0
 20
0
 30
0
 70
1
  0
VERTEX
  8
LAYER_1
 10
79.9916
 20
113.0788
  0
VERTEX
  8
LAYER_1
 10
79.9916
 20
112.5918
  0
VERTEX
  8
LAYER_1
 10
78.4904
 20
112.8355
  0
SEQEND
  0
POLYLINE
  8
LAYER_1
 40
0.05
 41
0.05
 66
1
 10
0
 20
0
 30
0
 70
1
  0
VERTEX
  8
LAYER_1
 10
114.515
 20
113.0788
  0
VERTEX
  8
LAYER_1
 10
114.515
 20
112.5918
  0
VERTEX
  8
LAYER_1
 10
116.0158
 20
112.8355
  0
SEQEND
  0
POLYLINE
  8
LAYER_1
 40
0.0882
 41
0.0882
 66
1
 10
0
 20
0
 30
0
 70
1
  0
VERTEX
  8
LAYER_1
 10
114.515
 20
113.0788
  0
VERTEX
  8
LAYER_1
 10
114.515
 20
112.5918
  0
VERTEX
  8
LAYER_1
 10
116.0158
 20
112.8355
  0
SEQEND
  0
TEXT
  8
LAYER_1
 10
95.2097
 20
111.5084
 11
95.2097
 21
111.5084
 40
3.3492
 41
0.5
  1
375
  0
POLYLINE
  8
LAYER_1
 40
0.0882
 41
0.0882
 66
1
 10
0
 20
0
 30
0
  0
VERTEX
  8
LAYER_1
 10
78.4906
 20
159.2452
  0
VERTEX
  8
LAYER_1
 10
78.4906
 20
159.3264
  0
SEQEND
  0
POLYLINE
  8
LAYER_1
 40
0.0882
 41
0.0882
 66
1
 10
0
 20
0
 30
0
  0
VERTEX
  8
LAYER_1
 10
56.0159
 20
155.1478
  0
VERTEX
  8
LAYER_1
 10
56.0159
 20
159.3265
  0
SEQEND
  0
POLYLINE
  8
LAYER_1
 40
0.0882
 41
0.0882
 66
1
 10
0
 20
0
 30
0
  0
VERTEX
  8
LAYER_1
 10
76.9896
 20
159.2046
  0
VERTEX
  8
LAYER_1
 10
70.0932
 20
159.2046
  0
SEQEND
  0
POLYLINE
  8
LAYER_1
 40
0.0882
 41
0.0882
 66
1
 10
0
 20
0
 30
0
  0
VERTEX
  8
LAYER_1
 10
57.5169
 20
159.2046
  0
VERTEX
  8
LAYER_1
 10
64.4133
 20
159.2046
  0
SEQEND
  0
POLYLINE
  8
LAYER_1
 40
0.05
 41
0.05
 66
1
 10
0
 20
0
 30
0
 70
1
  0
VERTEX
  8
LAYER_1
 10
76.9896
 20
159.448
  0
VERTEX
  8
LAYER_1
 10
76.9896
 20
158.9208
  0
VERTEX
  8
LAYER_1
 10
78.4908
 20
159.2047
  0
SEQEND
  0
POLYLINE
  8
LAYER_1
 40
0.0882
 41
0.0882
 66
1
 10
0
 20
0
 30
0
 70
1
  0
VERTEX
  8
LAYER_1
 10
76.9896
 20
159.448
  0
VERTEX
  8
LAYER_1
 10
76.9896
 20
158.9208
  0
VERTEX
  8
LAYER_1
 10
78.4908
 20
159.2047
  0
SEQEND
  0
POLYLINE
  8
LAYER_1
 40
0.05
 41
0.05
 66
1
 10
0
 20
0
 30
0
 70
1
  0
VERTEX
  8
LAYER_1
 10
57.5169
 20
159.448
  0
VERTEX
  8
LAYER_1
 10
57.5169
 20
158.9208
  0
VERTEX
  8
LAYER_1
 10
56.0157
 20
159.2047
  0
SEQEND
  0
POLYLINE
  8
LAYER_1
 40
0.0882
 41
0.0882
 66
1
 10
0
 20
0
 30
0
 70
1
  0
VERTEX
  8
LAYER_1
 10
57.5169
 20
159.448
  0
VERTEX
  8
LAYER_1
 10
57.5169
 20
158.9208
  0
VERTEX
  8
LAYER_1
 10
56.0157
 20
159.2047
  0
SEQEND
  0
TEXT
  8
LAYER_1
 10
64.3734
 20
157.8368
 11
64.3734
 21
157.8368
 40
3.3492
 41
0.5
  1
225
  0
POLYLINE
  8
LAYER_1
 40
0.0882
 41
0.0882
 66
1
 10
0
 20
0
 30
0
  0
VERTEX
  8
LAYER_1
 10
78.4906
 20
159.2452
  0
VERTEX
  8
LAYER_1
 10
78.4906
 20
159.3264
  0
SEQEND
  0
POLYLINE
  8
LAYER_1
 40
0.0882
 41
0.0882
 66
1
 10
0
 20
0
 30
0
  0
VERTEX
  8
LAYER_1
 10
116.016
 20
159.2452
  0
VERTEX
  8
LAYER_1
 10
116.016
 20
159.3264
  0
SEQEND
  0
POLYLINE
  8
LAYER_1
 40
0.0882
 41
0.0882
 66
1
 10
0
 20
0
 30
0
  0
VERTEX
  8
LAYER_1
 10
79.9916
 20
159.2046
  0
VERTEX
  8
LAYER_1
 10
96.8106
 20
159.2046
  0
SEQEND
  0
POLYLINE
  8
LAYER_1
 40
0.0882
 41
0.0882
 66
1
 10
0
 20
0
 30
0
  0
VERTEX
  8
LAYER_1
 10
114.515
 20
159.2046
  0
VERTEX
  8
LAYER_1
 10
104.4165
 20
159.2046
  0
SEQEND
  0
POLYLINE
  8
LAYER_1
 40
0.05
 41
0.05
 66
1
 10
0
 20
0
 30
0
 70
1
  0
VERTEX
  8
LAYER_1
 10
79.9916
 20
159.448
  0
VERTEX
  8
LAYER_1
 10
79.9916
 20
158.9208
  0
VERTEX
  8
LAYER_1
 10
78.4904
 20
159.2047
  0
SEQEND
  0
POLYLINE
  8
LAYER_1
 40
0.0882
 41
0.0882
 66
1
 10
0
 20
0
 30
0
 70
1
  0
VERTEX
  8
LAYER_1
 10
79.9916
 20
159.448
  0
VERTEX
  8
LAYER_1
 10
79.9916
 20
158.9208
  0
VERTEX
  8
LAYER_1
 10
78.4904
 20
159.2047
  0
SEQEND
  0
POLYLINE
  8
LAYER_1
 40
0.05
 41
0.05
 66
1
 10
0
 20
0
 30
0
 70
1
  0
VERTEX
  8
LAYER_1
 10
114.515
 20
159.448
  0
VERTEX
  8
LAYER_1
 10
114.515
 20
158.9208
  0
VERTEX
  8
LAYER_1
 10
116.0158
 20
159.2047
  0
SEQEND
  0
POLYLINE
  8
LAYER_1
 40
0.0882
 41
0.0882
 66
1
 10
0
 20
0
 30
0
 70
1
  0
VERTEX
  8
LAYER_1
 10
114.515
 20
159.448
  0
VERTEX
  8
LAYER_1
 10
114.515
 20
158.9208
  0
VERTEX
  8
LAYER_1
 10
116.0158
 20
159.2047
  0
SEQEND
  0
TEXT
  8
LAYER_1
 10
97.6136
 20
157.8368
 11
97.6136
 21
157.8368
 40
3.3492
 41
0.5
  1
375
  0
POLYLINE
  8
LAYER_1
 40
0.0882
 41
0.0882
 66
1
 10
0
 20
0
 30
0
  0
VERTEX
  8
LAYER_1
 10
56.0159
 20
114.9855
  0
VERTEX
  8
LAYER_1
 10
56.0159
 20
110.5635
  0
SEQEND
  0
POLYLINE
  8
LAYER_1
 40
0.0882
 41
0.0882
 66
1
 10
0
 20
0
 30
0
  0
VERTEX
  8
LAYER_1
 10
78.4906
 20
112.8353
  0
VERTEX
  8
LAYER_1
 10
78.4906
 20
93.2814
  0
SEQEND
  0
POLYLINE
  8
LAYER_1
 40
0.0882
 41
0.0882
 66
1
 10
0
 20
0
 30
0
  0
VERTEX
  8
LAYER_1
 10
116.016
 20
112.8353
  0
VERTEX
  8
LAYER_1
 10
116.016
 20
110.5636
  0
SEQEND
  0
POLYLINE
  8
LAYER_1
 40
0.0882
 41
0.0882
 66
1
 10
0
 20
0
 30
0
  0
VERTEX
  8
LAYER_1
 10
118.7746
 20
92.8353
  0
VERTEX
  8
LAYER_1
 10
82.9387
 20
92.8353
  0
SEQEND
  0
POLYLINE
  8
LAYER_1
 40
0.0882
 41
0.0882
 66
1
 10
0
 20
0
 30
0
  0
VERTEX
  8
LAYER_1
 10
152.3244
 20
114.9855
  0
VERTEX
  8
LAYER_1
 10
152.3244
 20
110.5635
  0
SEQEND
  0
POLYLINE
  8
LAYER_1
 40
0.0882
 41
0.0882
 66
1
 10
0
 20
0
 30
0
  0
VERTEX
  8
LAYER_1
 10
201.4523
 20
110.8475
  0
VERTEX
  8
LAYER_1
 10
198.3284
 20
110.8475
  0
SEQEND
  0
POLYLINE
  8
LAYER_1
 40
0.0882
 41
0.0882
 66
1
 10
0
 20
0
 30
0
  0
VERTEX
  8
LAYER_1
 10
201.4523
 20
92.8353
  0
VERTEX
  8
LAYER_1
 10
184.5393
 20
92.8353
  0
SEQEND
  0
POLYLINE
  8
LAYER_1
 40
0.0882
 41
0.0882
 66
1
 10
0
 20
0
 30
0
  0
VERTEX
  8
LAYER_1
 10
116.016
 20
184.8842
  0
VERTEX
  8
LAYER_1
 10
116.016
 20
181.6631
  0
SEQEND
  0
POLYLINE
  8
LAYER_1
 40
0.0882
 41
0.0882
 66
1
 10
0
 20
0
 30
0
  0
VERTEX
  8
LAYER_1
 10
49.1881
 20
134.1741
  0
VERTEX
  8
LAYER_1
 10
54.5028
 20
134.1741
  0
SEQEND
  0
POLYLINE
  8
LAYER_1
 40
0.0882
 41
0.0882
 66
1
 10
0
 20
0
 30
0
  0
VERTEX
  8
LAYER_1
 10
116.016
 20
114.9855
  0
VERTEX
  8
LAYER_1
 10
116.016
 20
112.8352
  0
SEQEND
  0
POLYLINE
  8
LAYER_1
 40
0.0882
 41
0.0882
 66
1
 10
0
 20
0
 30
0
  0
VERTEX
  8
LAYER_1
 10
97.5576
 20
106.3445
  0
VERTEX
  8
LAYER_1
 10
97.5576
 20
106.2632
  0
SEQEND
  0
POLYLINE
  8
LAYER_1
 40
0.0882
 41
0.0882
 66
1
 10
0
 20
0
 30
0
  0
VERTEX
  8
LAYER_1
 10
116.016
 20
110.0362
  0
VERTEX
  8
LAYER_1
 10
116.016
 20
106.2632
  0
SEQEND
  0
POLYLINE
  8
LAYER_1
 40
0.0882
 41
0.0882
 66
1
 10
0
 20
0
 30
0
  0
VERTEX
  8
LAYER_1
 10
99.0586
 20
106.385
  0
VERTEX
  8
LAYER_1
 10
103.2775
 20
106.385
  0
SEQEND
  0
POLYLINE
  8
LAYER_1
 40
0.0882
 41
0.0882
 66
1
 10
0
 20
0
 30
0
  0
VERTEX
  8
LAYER_1
 10
114.515
 20
106.385
  0
VERTEX
  8
LAYER_1
 10
110.2961
 20
106.385
  0
SEQEND
  0
POLYLINE
  8
LAYER_1
 40
0.05
 41
0.05
 66
1
 10
0
 20
0
 30
0
 70
1
  0
VERTEX
  8
LAYER_1
 10
99.0586
 20
106.6285
  0
VERTEX
  8
LAYER_1
 10
99.0586
 20
106.1415
  0
VERTEX
  8
LAYER_1
 10
97.5574
 20
106.3852
  0
SEQEND
  0
POLYLINE
  8
LAYER_1
 40
0.0882
 41
0.0882
 66
1
 10
0
 20
0
 30
0
 70
1
  0
VERTEX
  8
LAYER_1
 10
99.0586
 20
106.6285
  0
VERTEX
  8
LAYER_1
 10
99.0586
 20
106.1415
  0
VERTEX
  8
LAYER_1
 10
97.5574
 20
106.3852
  0
SEQEND
  0
POLYLINE
  8
LAYER_1
 40
0.05
 41
0.05
 66
1
 10
0
 20
0
 30
0
 70
1
  0
VERTEX
  8
LAYER_1
 10
114.515
 20
106.6285
  0
VERTEX
  8
LAYER_1
 10
114.515
 20
106.1415
  0
VERTEX
  8
LAYER_1
 10
116.0158
 20
106.3852
  0
SEQEND
  0
POLYLINE
  8
LAYER_1
 40
0.0882
 41
0.0882
 66
1
 10
0
 20
0
 30
0
 70
1
  0
VERTEX
  8
LAYER_1
 10
114.515
 20
106.6285
  0
VERTEX
  8
LAYER_1
 10
114.515
 20
106.1415
  0
VERTEX
  8
LAYER_1
 10
116.0158
 20
106.3852
  0
SEQEND
  0
TEXT
  8
LAYER_1
 10
104.3146
 20
105.0578
 11
104.3146
 21
105.0578
 40
3.3492
 41
0.5
  1
145
  0
POLYLINE
  8
LAYER_1
 40
0.0882
 41
0.0882
 66
1
 10
0
 20
0
 30
0
  0
VERTEX
  8
LAYER_1
 10
68.308
 20
106.385
  0
VERTEX
  8
LAYER_1
 10
69.6874
 20
106.385
  0
SEQEND
  0
POLYLINE
  8
LAYER_1
 40
0.0882
 41
0.0882
 66
1
 10
0
 20
0
 30
0
  0
VERTEX
  8
LAYER_1
 10
68.308
 20
110.8475
  0
VERTEX
  8
LAYER_1
 10
69.6874
 20
110.8475
  0
SEQEND
  0
POLYLINE
  8
LAYER_1
 40
0.0882
 41
0.0882
 66
1
 10
0
 20
0
 30
0
  0
VERTEX
  8
LAYER_1
 10
69.5657
 20
107.8861
  0
VERTEX
  8
LAYER_1
 10
69.5657
 20
109.3466
  0
SEQEND
  0
TEXT
  8
LAYER_1
 10
66.8292
 20
105.2697
 11
66.8292
 21
105.2697
 40
3.3492
 41
0.5
 50
89.99999999
  1
45
  0
POLYLINE
  8
LAYER_1
 40
0.05
 41
0.05
 66
1
 10
0
 20
0
 30
0
 70
1
  0
VERTEX
  8
LAYER_1
 10
69.3222
 20
107.8861
  0
VERTEX
  8
LAYER_1
 10
69.8092
 20
107.8861
  0
VERTEX
  8
LAYER_1
 10
69.5655
 20
106.3848
  0
SEQEND
  0
POLYLINE
  8
LAYER_1
 40
0.0882
 41
0.0882
 66
1
 10
0
 20
0
 30
0
 70
1
  0
VERTEX
  8
LAYER_1
 10
69.3222
 20
107.8861
  0
VERTEX
  8
LAYER_1
 10
69.8092
 20
107.8861
  0
VERTEX
  8
LAYER_1
 10
69.5655
 20
106.3848
  0
SEQEND
  0
POLYLINE
  8
LAYER_1
 40
0.05
 41
0.05
 66
1
 10
0
 20
0
 30
0
 70
1
  0
VERTEX
  8
LAYER_1
 10
69.3222
 20
109.3465
  0
VERTEX
  8
LAYER_1
 10
69.8092
 20
109.3465
  0
VERTEX
  8
LAYER_1
 10
69.5655
 20
110.8477
  0
SEQEND
  0
POLYLINE
  8
LAYER_1
 40
0.0882
 41
0.0882
 66
1
 10
0
 20
0
 30
0
 70
1
  0
VERTEX
  8
LAYER_1
 10
69.3222
 20
109.3465
  0
VERTEX
  8
LAYER_1
 10
69.8092
 20
109.3465
  0
VERTEX
  8
LAYER_1
 10
69.5655
 20
110.8477
  0
SEQEND
  0
INSERT
  8
LAYER_1
  2
AIGNBL01020034
 10
0
 20
0
 30
0
  0
ENDBLK
  0
BLOCK
  8
LAYER_2
  2
AIGNBL02010002
 70
64
 10
0
 20
0
 30
0
  3
AIGNBL02010002
  0
POLYLINE
  8
LAYER_2
 40
0.7056
 41
0.7056
 66
1
 10
0
 20
0
 30
0
 70
1
  0
VERTEX
  8
LAYER_2
 10
251.6749
 20
230.337
  0
VERTEX
  8
LAYER_2
 10
251.6749
 20
33.3285
  0
VERTEX
  8
LAYER_2
 10
-30.3177
 20
33.3285
  0
VERTEX
  8
LAYER_2
 10
-30.3177
 20
230.337
  0
SEQEND
  0
ENDBLK
  0
BLOCK
  8
LAYER_2
  2
AIGNBL02010003
 70
64
 10
0
 20
0
 30
0
  3
AIGNBL02010003
  0
INSERT
  8
LAYER_2
  2
AIGNBL02020004
 10
0
 20
0
 30
0
  0
POLYLINE
  8
LAYER_2
 40
0.05
 41
0.05
 66
1
 10
0
 20
0
 30
0
  0
VERTEX
  8
LAYER_2
 10
-6.457
 20
223.2684
  0
VERTEX
  8
LAYER_2
 10
-8.0924
 20
223.2684
  0
VERTEX
  8
LAYER_2
 10
-8.0924
 20
216.1939
 42
0.09304299953
  0
VERTEX
  8
LAYER_2
 10
-7.9518
 20
215.4241
 42
0.2872011141
  0
VERTEX
  8
LAYER_2
 10
-6.4597
 20
214.3359
  0
VERTEX
  8
LAYER_2
 10
-6.457
 20
223.2684
  0
SEQEND
  0
INSERT
  8
LAYER_2
  2
AIGNBL02020005
 10
0
 20
0
 30
0
  0
ENDBLK
  0
BLOCK
  8
LAYER_2
  2
AIGNBL02010006
 70
64
 10
0
 20
0
 30
0
  3
AIGNBL02010006
  0
INSERT
  8
LAYER_2
  2
AIGNBL02020007
 10
0
 20
0
 30
0
  0
INSERT
  8
LAYER_2
  2
AIGNBL02020010
 10
0
 20
0
 30
0
  0
ENDBLK
  0
ENDSEC
  0
SECTION
  2
ENTITIES
  0
INSERT
  8
LAYER_1
  2
AIGNBL01010002
 10
0
 20
0
 30
0
  0
INSERT
  8
LAYER_1
  2
AIGNBL01010005
 10
0
 20
0
 30
0
  0
INSERT
  8
LAYER_1
  2
AIGNBL01010006
 10
0
 20
0
 30
0
  0
INSERT
  8
LAYER_1
  2
AIGNBL01010007
 10
0
 20
0
 30
0
  0
INSERT
  8
LAYER_1
  2
AIGNBL01010008
 10
0
 20
0
 30
0
  0
INSERT
  8
LAYER_1
  2
AIGNBL01010009
 10
0
 20
0
 30
0
  0
INSERT
  8
LAYER_1
  2
AIGNBL0101000A
 10
0
 20
0
 30
0
  0
INSERT
  8
LAYER_1
  2
AIGNBL0101000B
 10
0
 20
0
 30
0
  0
TEXT
  8
LAYER_1
 10
472.7334
 20
11.1336
 11
472.7334
 21
11.1336
 40
3.3492
 41
0.5
  1
65
  0
INSERT
  8
LAYER_1
  2
AIGNBL0101000C
 10
0
 20
0
 30
0
  0
INSERT
  8
LAYER_1
  2
AIGNBL0101000D
 10
0
 20
0
 30
0
  0
POLYLINE
  8
LAYER_1
 40
0.1058
 41
0.1058
 66
1
 10
0
 20
0
 30
0
  0
VERTEX
  8
LAYER_1
 10
452.8405
 20
-1.557
  0
VERTEX
  8
LAYER_1
 10
452.8405
 20
0.9783
  0
SEQEND
  0
POLYLINE
  8
LAYER_1
 40
0.1058
 41
0.1058
 66
1
 10
0
 20
0
 30
0
  0
VERTEX
  8
LAYER_1
 10
452.8405
 20
8.9355
  0
VERTEX
  8
LAYER_1
 10
452.8405
 20
6.4001
  0
SEQEND
  0
POLYLINE
  8
LAYER_1
 40
0.05
 41
0.05
 66
1
 10
0
 20
0
 30
0
 70
1
  0
VERTEX
  8
LAYER_1
 10
452.6065
 20
-1.557
  0
VERTEX
  8
LAYER_1
 10
453.0744
 20
-1.557
  0
VERTEX
  8
LAYER_1
 10
452.8406
 20
-3.0392
  0
SEQEND
  0
POLYLINE
  8
LAYER_1
 40
0.0882
 41
0.0882
 66
1
 10
0
 20
0
 30
0
 70
1
  0
VERTEX
  8
LAYER_1
 10
452.6065
 20
-1.557
  0
VERTEX
  8
LAYER_1
 10
453.0744
 20
-1.557
  0
VERTEX
  8
LAYER_1
 10
452.8406
 20
-3.0392
  0
SEQEND
  0
POLYLINE
  8
LAYER_1
 40
0.05
 41
0.05
 66
1
 10
0
 20
0
 30
0
 70
1
  0
VERTEX
  8
LAYER_1
 10
452.6065
 20
8.9355
  0
VERTEX
  8
LAYER_1
 10
453.0744
 20
8.9355
  0
VERTEX
  8
LAYER_1
 10
452.8406
 20
10.4566
  0
SEQEND
  0
POLYLINE
  8
LAYER_1
 40
0.0882
 41
0.0882
 66
1
 10
0
 20
0
 30
0
 70
1
  0
VERTEX
  8
LAYER_1
 10
452.6065
 20
8.9355
  0
VERTEX
  8
LAYER_1
 10
453.0744
 20
8.9355
  0
VERTEX
  8
LAYER_1
 10
452.8406
 20
10.4566
  0
SEQEND
  0
TEXT
  8
LAYER_1
 10
454.1991
 20
1.378
 11
454.1991
 21
1.378
 40
3.3492
 41
0.5
 50
89.99999999
  1
135
  0
TEXT
  8
LAYER_1
 10
360.1388
 20
71.2705
 11
360.1388
 21
71.2705
 40
3.3492
 41
0.5
  1
35
  0
POLYLINE
  8
LAYER_1
 40
0.1058
 41
0.1058
 66
1
 10
0
 20
0
 30
0
  0
VERTEX
  8
LAYER_1
 10
365.853
 20
70.8731
  0
VERTEX
  8
LAYER_1
 10
359.8823
 20
70.8731
  0
VERTEX
  8
LAYER_1
 10
359.0356
 20
72.5664
  0
SEQEND
  0
INSERT
  8
LAYER_1
  2
AIGNBL0101000E
 10
0
 20
0
 30
0
  0
TEXT
  8
LAYER_1
 10
79.6141
 20
169.7906
 11
79.6141
 21
169.7906
 40
3.3492
 41
0.5
  1
35
  0
POLYLINE
  8
LAYER_1
 40
0.1058
 41
0.1058
 66
1
 10
0
 20
0
 30
0
  0
VERTEX
  8
LAYER_1
 10
85.3282
 20
169.3932
  0
VERTEX
  8
LAYER_1
 10
79.3575
 20
169.3932
  0
VERTEX
  8
LAYER_1
 10
78.5108
 20
171.0865
  0
SEQEND
  0
POLYLINE
  8
LAYER_1
 40
0.0882
 41
0.0882
 66
1
 10
0
 20
0
 30
0
  0
VERTEX
  8
LAYER_1
 10
78.5108
 20
176.439
  0
VERTEX
  8
LAYER_1
 10
78.5108
 20
171.0865
  0
SEQEND
  0
POLYLINE
  8
LAYER_1
 40
0.0882
 41
0.0882
 66
1
 10
0
 20
0
 30
0
  0
VERTEX
  8
LAYER_1
 10
75.8346
 20
173.7627
  0
VERTEX
  8
LAYER_1
 10
88.7337
 20
173.7627
  0
SEQEND
  0
TEXT
  8
LAYER_2
 10
-26.2556
 20
43.1712
 11
-26.2556
 21
43.1712
 40
3.277
 41
0.5
  1
仕様
  0
POLYLINE
  8
LAYER_2
 40
0.3528
 41
0.3528
 66
1
 10
0
 20
0
 30
0
  0
VERTEX
  8
LAYER_2
 10
250.6748
 20
51.9507
  0
VERTEX
  8
LAYER_2
 10
-29.3178
 20
51.9507
  0
SEQEND
  0
INSERT
  8
LAYER_2
  2
AIGNBL02010002
 10
0
 20
0
 30
0
  0
POLYLINE
  8
LAYER_2
 40
0.3528
 41
0.3528
 66
1
 10
0
 20
0
 30
0
  0
VERTEX
  8
LAYER_2
 10
-29.3178
 20
229.3369
  0
VERTEX
  8
LAYER_2
 10
-29.3178
 20
34.3283
  0
VERTEX
  8
LAYER_2
 10
250.6748
 20
34.3283
  0
VERTEX
  8
LAYER_2
 10
250.6748
 20
229.3369
  0
VERTEX
  8
LAYER_2
 10
-29.3178
 20
229.3369
  0
SEQEND
  0
POLYLINE
  8
LAYER_2
 40
0.3528
 41
0.3528
 66
1
 10
0
 20
0
 30
0
  0
VERTEX
  8
LAYER_2
 10
250.6748
 20
60.4597
  0
VERTEX
  8
LAYER_2
 10
-29.3178
 20
60.4597
  0
SEQEND
  0
POLYLINE
  8
LAYER_2
 40
0.3528
 41
0.3528
 66
1
 10
0
 20
0
 30
0
  0
VERTEX
  8
LAYER_2
 10
250.6748
 20
43.4416
  0
VERTEX
  8
LAYER_2
 10
143.5341
 20
43.4416
  0
SEQEND
  0
TEXT
  8
LAYER_2
 10
188.1725
 20
45.6854
 11
188.1725
 21
45.6854
 40
3.8668
 41
0.5
  1
-
  0
TEXT
  8
LAYER_2
 10
182.8808
 20
49.4743
 11
182.8808
 21
49.4743
 40
2.1846
 41
0.5
  1
縮尺
  0
POLYLINE
  8
LAYER_2
 40
0.3528
 41
0.3528
 66
1
 10
0
 20
0
 30
0
  0
VERTEX
  8
LAYER_2
 10
181.3526
 20
43.4416
  0
VERTEX
  8
LAYER_2
 10
181.3526
 20
51.9507
  0
SEQEND
  0
TEXT
  8
LAYER_2
 10
144.2327
 20
57.9834
 11
144.2327
 21
57.9834
 40
2.1846
 41
0.5
  1
品番
  0
TEXT
  8
LAYER_2
 10
-28.1609
 20
57.9834
 11
-28.1609
 21
57.9834
 40
2.1846
 41
0.5
  1
品名
  0
TEXT
  8
LAYER_2
 10
144.2327
 20
49.4743
 11
144.2327
 21
49.4743
 40
2.1846
 41
0.5
  1
重量
  0
TEXT
  8
LAYER_2
 10
150.2547
 20
54.1514
 11
150.2547
 21
54.1514
 40
5.9385
 41
0.5
  1
CIE-ERLA60SX/TA（BR）
  0
TEXT
  8
LAYER_2
 10
149.5454
 20
45.6854
 11
149.5454
 21
45.6854
 40
3.8668
 41
0.5
  1
16kg
  0
POLYLINE
  8
LAYER_2
 40
0.3528
 41
0.3528
 66
1
 10
0
 20
0
 30
0
  0
VERTEX
  8
LAYER_2
 10
143.5341
 20
34.9539
  0
VERTEX
  8
LAYER_2
 10
143.5341
 20
60.4597
  0
SEQEND
  0
TEXT
  8
LAYER_2
 10
-15.2849
 20
54.891
 11
-15.2849
 21
54.891
 40
4.2626
 41
0.5
  1
エラ 壁付け洗面器600ｍｍ
  0
INSERT
  8
LAYER_2
  2
AIGNBL02010003
 10
0
 20
0
 30
0
  0
TEXT
  8
LAYER_2
 10
-15.6835
 20
45.3736
 11
-15.6835
 21
45.3736
 40
3.0964
 41
0.5
  1
●設置方法：壁付け●l4栓取付zt：１zt●オーバーフローなし
  0
TEXT
  8
LAYER_2
 10
-15.6835
 20
40.6235
 11
-15.6835
 21
40.6235
 40
3.0964
 41
0.5
  1
●排l4帯具別途●取り付けボルト同梱●背面釉薬なし
  0
TEXT
  8
LAYER_2
 10
237.263
 20
63.2582
 11
237.263
 21
63.2582
 40
3.0447
 41
0.5
  1
単位：mm
  0
TEXT
  8
LAYER_2
 10
6.5217
 20
219.7385
 11
6.5217
 21
219.7385
 40
2.5803
 41
0.5
  1
※陶器製品は寸法公差が発生します。必ず現物を合わせてご確認ください。
  0
TEXT
  8
LAYER_2
 10
6.5217
 20
214.9886
 11
6.5217
 21
214.9886
 40
3.0447
 41
0.5
  1
※壁面には50mm以上の補強材を入れてください。
  0
TEXT
  8
LAYER_2
 10
6.5217
 20
210.2385
 11
6.5217
 21
210.2385
 40
2.5803
 41
0.5
  1
※製品と接する部分には必ずコーキング処理を行ってください。
  0
TEXT
  8
LAYER_2
 10
176.0254
 20
39.5359
 11
176.0254
 21
39.5359
 40
3.4801
 41
0.5
  1
●TEL 0120-65-1232●FAX 06-6532-1580
  0
TEXT
  8
LAYER_2
 10
176.0254
 20
35.9926
 11
176.0254
 21
35.9926
 40
3.4801
 41
0.5
  1
hits@hiratatile.co.jp
  0
INSERT
  8
LAYER_2
  2
AIGNBL02010006
 10
0
 20
0
 30
0
  0
POLYLINE
  8
LAYER_2
 40
0.1764
 41
0.1764
 66
1
 10
0
 20
0
 30
0
  0
VERTEX
  8
LAYER_2
 10
453.6597
 20
-7.5666
  0
VERTEX
  8
LAYER_2
 10
454.83
 20
-7.5666
  0
SEQEND
  0
POLYLINE
  8
LAYER_2
 40
0.1058
 41
0.1058
 66
1
 10
0
 20
0
 30
0
  0
VERTEX
  8
LAYER_2
 10
431.5793
 20
9.7545
  0
VERTEX
  8
LAYER_2
 10
431.5793
 20
14.709
  0
SEQEND
  0
POLYLINE
  8
LAYER_2
 40
0.1058
 41
0.1058
 66
1
 10
0
 20
0
 30
0
  0
VERTEX
  8
LAYER_2
 10
477.6128
 20
9.7545
  0
VERTEX
  8
LAYER_2
 10
477.6128
 20
14.709
  0
SEQEND
  0
POLYLINE
  8
LAYER_2
 40
0.1058
 41
0.1058
 66
1
 10
0
 20
0
 30
0
  0
VERTEX
  8
LAYER_2
 10
433.1007
 20
14.5528
  0
VERTEX
  8
LAYER_2
 10
451.7093
 20
14.5528
  0
SEQEND
  0
POLYLINE
  8
LAYER_2
 40
0.1058
 41
0.1058
 66
1
 10
0
 20
0
 30
0
  0
VERTEX
  8
LAYER_2
 10
476.0913
 20
14.5528
  0
VERTEX
  8
LAYER_2
 10
457.4828
 20
14.5528
  0
SEQEND
  0
POLYLINE
  8
LAYER_2
 40
0.05
 41
0.05
 66
1
 10
0
 20
0
 30
0
 70
1
  0
VERTEX
  8
LAYER_2
 10
433.1007
 20
14.8259
  0
VERTEX
  8
LAYER_2
 10
433.1007
 20
14.319
  0
VERTEX
  8
LAYER_2
 10
431.5793
 20
14.5528
  0
SEQEND
  0
POLYLINE
  8
LAYER_2
 40
0.0882
 41
0.0882
 66
1
 10
0
 20
0
 30
0
 70
1
  0
VERTEX
  8
LAYER_2
 10
433.1007
 20
14.8259
  0
VERTEX
  8
LAYER_2
 10
433.1007
 20
14.319
  0
VERTEX
  8
LAYER_2
 10
431.5793
 20
14.5528
  0
SEQEND
  0
POLYLINE
  8
LAYER_2
 40
0.05
 41
0.05
 66
1
 10
0
 20
0
 30
0
 70
1
  0
VERTEX
  8
LAYER_2
 10
476.0913
 20
14.8259
  0
VERTEX
  8
LAYER_2
 10
476.0913
 20
14.319
  0
VERTEX
  8
LAYER_2
 10
477.6127
 20
14.5528
  0
SEQEND
  0
POLYLINE
  8
LAYER_2
 40
0.0882
 41
0.0882
 66
1
 10
0
 20
0
 30
0
 70
1
  0
VERTEX
  8
LAYER_2
 10
476.0913
 20
14.8259
  0
VERTEX
  8
LAYER_2
 10
476.0913
 20
14.319
  0
VERTEX
  8
LAYER_2
 10
477.6127
 20
14.5528
  0
SEQEND
  0
TEXT
  8
LAYER_2
 10
451.7484
 20
13.2336
 11
451.7484
 21
13.2336
 40
3.3492
 41
0.5
  1
460
  0
POLYLINE
  8
LAYER_2
 40
0.1058
 41
0.1058
 66
1
 10
0
 20
0
 30
0
  0
VERTEX
  8
LAYER_2
 10
471.0979
 20
9.7545
  0
VERTEX
  8
LAYER_2
 10
471.0979
 20
12.446
  0
SEQEND
  0
POLYLINE
  8
LAYER_2
 40
0.1058
 41
0.1058
 66
1
 10
0
 20
0
 30
0
  0
VERTEX
  8
LAYER_2
 10
477.6128
 20
9.7545
  0
VERTEX
  8
LAYER_2
 10
477.6128
 20
12.446
  0
SEQEND
  0
POLYLINE
  8
LAYER_2
 40
0.1058
 41
0.1058
 66
1
 10
0
 20
0
 30
0
  0
VERTEX
  8
LAYER_2
 10
469.6154
 20
12.3292
  0
VERTEX
  8
LAYER_2
 10
468.0941
 20
12.3292
  0
SEQEND
  0
POLYLINE
  8
LAYER_2
 40
0.1058
 41
0.1058
 66
1
 10
0
 20
0
 30
0
  0
VERTEX
  8
LAYER_2
 10
479.0952
 20
12.3292
  0
VERTEX
  8
LAYER_2
 10
480.6165
 20
12.3292
  0
SEQEND
  0
POLYLINE
  8
LAYER_2
 40
0.1058
 41
0.1058
 66
1
 10
0
 20
0
 30
0
  0
VERTEX
  8
LAYER_2
 10
471.0979
 20
12.3292
  0
VERTEX
  8
LAYER_2
 10
472.4633
 20
12.3292
  0
SEQEND
  0
POLYLINE
  8
LAYER_2
 40
0.1058
 41
0.1058
 66
1
 10
0
 20
0
 30
0
  0
VERTEX
  8
LAYER_2
 10
477.6128
 20
12.3292
  0
VERTEX
  8
LAYER_2
 10
476.2083
 20
12.3292
  0
SEQEND
  0
POLYLINE
  8
LAYER_2
 40
0.05
 41
0.05
 66
1
 10
0
 20
0
 30
0
 70
1
  0
VERTEX
  8
LAYER_2
 10
469.6154
 20
12.5633
  0
VERTEX
  8
LAYER_2
 10
469.6154
 20
12.0563
  0
VERTEX
  8
LAYER_2
 10
471.0978
 20
12.3291
  0
SEQEND
  0
POLYLINE
  8
LAYER_2
 40
0.0882
 41
0.0882
 66
1
 10
0
 20
0
 30
0
 70
1
  0
VERTEX
  8
LAYER_2
 10
469.6154
 20
12.5633
  0
VERTEX
  8
LAYER_2
 10
469.6154
 20
12.0563
  0
VERTEX
  8
LAYER_2
 10
471.0978
 20
12.3291
  0
SEQEND
  0
POLYLINE
  8
LAYER_2
 40
0.05
 41
0.05
 66
1
 10
0
 20
0
 30
0
 70
1
  0
VERTEX
  8
LAYER_2
 10
479.0952
 20
12.5633
  0
VERTEX
  8
LAYER_2
 10
479.0952
 20
12.0563
  0
VERTEX
  8
LAYER_2
 10
477.6128
 20
12.3291
  0
SEQEND
  0
POLYLINE
  8
LAYER_2
 40
0.0882
 41
0.0882
 66
1
 10
0
 20
0
 30
0
 70
1
  0
VERTEX
  8
LAYER_2
 10
479.0952
 20
12.5633
  0
VERTEX
  8
LAYER_2
 10
479.0952
 20
12.0563
  0
VERTEX
  8
LAYER_2
 10
477.6128
 20
12.3291
  0
SEQEND
  0
POLYLINE
  8
LAYER_2
 40
0.1058
 41
0.1058
 66
1
 10
0
 20
0
 30
0
  0
VERTEX
  8
LAYER_2
 10
471.0979
 20
9.7155
  0
VERTEX
  8
LAYER_2
 10
471.0979
 20
12.3291
  0
SEQEND
  0
POLYLINE
  8
LAYER_2
 40
0.1764
 41
0.1764
 66
1
 10
0
 20
0
 30
0
  0
VERTEX
  8
LAYER_2
 10
335.2866
 20
9.225
  0
VERTEX
  8
LAYER_2
 10
335.2866
 20
10.1225
  0
SEQEND
  0
POLYLINE
  8
LAYER_2
 40
0.2646
 41
0.2646
 66
1
 10
0
 20
0
 30
0
  0
VERTEX
  8
LAYER_2
 10
350.345
 20
5.987
  0
VERTEX
  8
LAYER_2
 10
350.345
 20
5.9481
  0
SEQEND
  0
POLYLINE
  8
LAYER_2
 40
0.2646
 41
0.2646
 66
1
 10
0
 20
0
 30
0
  0
VERTEX
  8
LAYER_2
 10
347.3411
 20
5.9481
  0
VERTEX
  8
LAYER_2
 10
347.3411
 20
5.987
  0
SEQEND
  0
POLYLINE
  8
LAYER_2
 40
0.2646
 41
0.2646
 66
1
 10
0
 20
0
 30
0
  0
VERTEX
  8
LAYER_2
 10
348.7455
 20
5.987
  0
VERTEX
  8
LAYER_2
 10
348.9408
 20
5.987
  0
SEQEND
  0
POLYLINE
  8
LAYER_2
 40
0.2646
 41
0.2646
 66
1
 10
0
 20
0
 30
0
  0
VERTEX
  8
LAYER_2
 10
348.8235
 20
6.0651
  0
VERTEX
  8
LAYER_2
 10
348.8235
 20
5.8699
  0
SEQEND
  0
POLYLINE
  8
LAYER_2
 40
0.1058
 41
0.1058
 66
1
 10
0
 20
0
 30
0
  0
VERTEX
  8
LAYER_2
 10
395.0521
 20
10.4344
  0
VERTEX
  8
LAYER_2
 10
398.1731
 20
10.4344
  0
SEQEND
  0
POLYLINE
  8
LAYER_2
 40
0.1058
 41
0.1058
 66
1
 10
0
 20
0
 30
0
  0
VERTEX
  8
LAYER_2
 10
367.8611
 20
-7.5889
  0
VERTEX
  8
LAYER_2
 10
398.1729
 20
-7.5889
  0
SEQEND
  0
POLYLINE
  8
LAYER_2
 40
0.1058
 41
0.1058
 66
1
 10
0
 20
0
 30
0
  0
VERTEX
  8
LAYER_2
 10
398.056
 20
8.9129
  0
VERTEX
  8
LAYER_2
 10
398.056
 20
5.0453
  0
SEQEND
  0
POLYLINE
  8
LAYER_2
 40
0.1058
 41
0.1058
 66
1
 10
0
 20
0
 30
0
  0
VERTEX
  8
LAYER_2
 10
398.056
 20
-6.0675
  0
VERTEX
  8
LAYER_2
 10
398.056
 20
-1.2692
  0
SEQEND
  0
POLYLINE
  8
LAYER_2
 40
0.05
 41
0.05
 66
1
 10
0
 20
0
 30
0
 70
1
  0
VERTEX
  8
LAYER_2
 10
397.8219
 20
8.9129
  0
VERTEX
  8
LAYER_2
 10
398.3289
 20
8.9129
  0
VERTEX
  8
LAYER_2
 10
398.0561
 20
10.4343
  0
SEQEND
  0
POLYLINE
  8
LAYER_2
 40
0.0882
 41
0.0882
 66
1
 10
0
 20
0
 30
0
 70
1
  0
VERTEX
  8
LAYER_2
 10
397.8219
 20
8.9129
  0
VERTEX
  8
LAYER_2
 10
398.3289
 20
8.9129
  0
VERTEX
  8
LAYER_2
 10
398.0561
 20
10.4343
  0
SEQEND
  0
POLYLINE
  8
LAYER_2
 40
0.05
 41
0.05
 66
1
 10
0
 20
0
 30
0
 70
1
  0
VERTEX
  8
LAYER_2
 10
397.8219
 20
-6.0675
  0
VERTEX
  8
LAYER_2
 10
398.3289
 20
-6.0675
  0
VERTEX
  8
LAYER_2
 10
398.0561
 20
-7.5888
  0
SEQEND
  0
POLYLINE
  8
LAYER_2
 40
0.0882
 41
0.0882
 66
1
 10
0
 20
0
 30
0
 70
1
  0
VERTEX
  8
LAYER_2
 10
397.8219
 20
-6.0675
  0
VERTEX
  8
LAYER_2
 10
398.3289
 20
-6.0675
  0
VERTEX
  8
LAYER_2
 10
398.0561
 20
-7.5888
  0
SEQEND
  0
TEXT
  8
LAYER_2
 10
399.4143
 20
-0.8696
 11
399.4143
 21
-0.8696
 40
3.3492
 41
0.5
 50
89.99999999
  1
180
  0
POLYLINE
  8
LAYER_2
 40
0.1058
 41
0.1058
 62
252
 66
1
 10
0
 20
0
 30
0
  0
VERTEX
  8
LAYER_2
 10
375.3123
 20
10.4344
  0
VERTEX
  8
LAYER_2
 10
375.2344
 20
9.888
  0
SEQEND
  0
POLYLINE
  8
LAYER_2
 40
0.1058
 41
0.1058
 62
252
 66
1
 10
0
 20
0
 30
0
  0
VERTEX
  8
LAYER_2
 10
375.1563
 20
9.5761
  0
VERTEX
  8
LAYER_2
 10
375.0783
 20
8.9518
  0
SEQEND
  0
POLYLINE
  8
LAYER_2
 40
0.1058
 41
0.1058
 62
252
 66
1
 10
0
 20
0
 30
0
  0
VERTEX
  8
LAYER_2
 10
375.0392
 20
8.6398
  0
VERTEX
  8
LAYER_2
 10
374.9223
 20
8.0155
  0
SEQEND
  0
POLYLINE
  8
LAYER_2
 40
0.1058
 41
0.1058
 62
252
 66
1
 10
0
 20
0
 30
0
  0
VERTEX
  8
LAYER_2
 10
374.8832
 20
7.7036
  0
VERTEX
  8
LAYER_2
 10
374.8052
 20
7.0793
  0
SEQEND
  0
POLYLINE
  8
LAYER_2
 40
0.1058
 41
0.1058
 62
252
 66
1
 10
0
 20
0
 30
0
  0
VERTEX
  8
LAYER_2
 10
374.7661
 20
6.7673
  0
VERTEX
  8
LAYER_2
 10
374.6492
 20
6.143
  0
SEQEND
  0
POLYLINE
  8
LAYER_2
 40
0.1058
 41
0.1058
 62
252
 66
1
 10
0
 20
0
 30
0
  0
VERTEX
  8
LAYER_2
 10
374.6101
 20
5.831
  0
VERTEX
  8
LAYER_2
 10
374.5322
 20
5.2067
  0
SEQEND
  0
POLYLINE
  8
LAYER_2
 40
0.1058
 41
0.1058
 62
252
 66
1
 10
0
 20
0
 30
0
  0
VERTEX
  8
LAYER_2
 10
374.4541
 20
4.8557
  0
VERTEX
  8
LAYER_2
 10
374.3761
 20
4.2314
  0
SEQEND
  0
POLYLINE
  8
LAYER_2
 40
0.1058
 41
0.1058
 66
1
 10
0
 20
0
 30
0
  0
VERTEX
  8
LAYER_2
 10
363.8039
 20
-3.0636
  0
VERTEX
  8
LAYER_2
 10
371.5674
 20
-3.0636
  0
SEQEND
  0
POLYLINE
  8
LAYER_2
 40
0.1058
 41
0.1058
 66
1
 10
0
 20
0
 30
0
  0
VERTEX
  8
LAYER_2
 10
371.4502
 20
-1.5812
  0
VERTEX
  8
LAYER_2
 10
371.4502
 20
3.1002
  0
SEQEND
  0
POLYLINE
  8
LAYER_2
 40
0.1058
 41
0.1058
 66
1
 10
0
 20
0
 30
0
  0
VERTEX
  8
LAYER_2
 10
371.4502
 20
8.9129
  0
VERTEX
  8
LAYER_2
 10
371.4502
 20
8.5228
  0
SEQEND
  0
POLYLINE
  8
LAYER_2
 40
0.05
 41
0.05
 66
1
 10
0
 20
0
 30
0
 70
1
  0
VERTEX
  8
LAYER_2
 10
371.1771
 20
-1.5812
  0
VERTEX
  8
LAYER_2
 10
371.684
 20
-1.5812
  0
VERTEX
  8
LAYER_2
 10
371.4502
 20
-3.0636
  0
SEQEND
  0
POLYLINE
  8
LAYER_2
 40
0.0882
 41
0.0882
 66
1
 10
0
 20
0
 30
0
 70
1
  0
VERTEX
  8
LAYER_2
 10
371.1771
 20
-1.5812
  0
VERTEX
  8
LAYER_2
 10
371.684
 20
-1.5812
  0
VERTEX
  8
LAYER_2
 10
371.4502
 20
-3.0636
  0
SEQEND
  0
POLYLINE
  8
LAYER_2
 40
0.05
 41
0.05
 66
1
 10
0
 20
0
 30
0
 70
1
  0
VERTEX
  8
LAYER_2
 10
371.1771
 20
8.9129
  0
VERTEX
  8
LAYER_2
 10
371.684
 20
8.9129
  0
VERTEX
  8
LAYER_2
 10
371.4502
 20
10.4343
  0
SEQEND
  0
POLYLINE
  8
LAYER_2
 40
0.0882
 41
0.0882
 66
1
 10
0
 20
0
 30
0
 70
1
  0
VERTEX
  8
LAYER_2
 10
371.1771
 20
8.9129
  0
VERTEX
  8
LAYER_2
 10
371.684
 20
8.9129
  0
VERTEX
  8
LAYER_2
 10
371.4502
 20
10.4343
  0
SEQEND
  0
TEXT
  8
LAYER_2
 10
372.7698
 20
2.7881
 11
372.7698
 21
2.7881
 40
3.3492
 41
0.5
 50
89.99999999
  1
135
  0
POLYLINE
  8
LAYER_2
 40
0.1058
 41
0.1058
 66
1
 10
0
 20
0
 30
0
  0
VERTEX
  8
LAYER_2
 10
335.2866
 20
9.7322
  0
VERTEX
  8
LAYER_2
 10
335.2866
 20
14.6867
  0
SEQEND
  0
POLYLINE
  8
LAYER_2
 40
0.1058
 41
0.1058
 66
1
 10
0
 20
0
 30
0
  0
VERTEX
  8
LAYER_2
 10
395.2862
 20
9.7322
  0
VERTEX
  8
LAYER_2
 10
395.2862
 20
14.6867
  0
SEQEND
  0
POLYLINE
  8
LAYER_2
 40
0.1058
 41
0.1058
 66
1
 10
0
 20
0
 30
0
  0
VERTEX
  8
LAYER_2
 10
336.769
 20
14.5696
  0
VERTEX
  8
LAYER_2
 10
362.4773
 20
14.5696
  0
SEQEND
  0
POLYLINE
  8
LAYER_2
 40
0.1058
 41
0.1058
 66
1
 10
0
 20
0
 30
0
  0
VERTEX
  8
LAYER_2
 10
393.8037
 20
14.5696
  0
VERTEX
  8
LAYER_2
 10
368.1344
 20
14.5696
  0
SEQEND
  0
POLYLINE
  8
LAYER_2
 40
0.05
 41
0.05
 66
1
 10
0
 20
0
 30
0
 70
1
  0
VERTEX
  8
LAYER_2
 10
336.769
 20
14.8037
  0
VERTEX
  8
LAYER_2
 10
336.769
 20
14.2967
  0
VERTEX
  8
LAYER_2
 10
335.2866
 20
14.5694
  0
SEQEND
  0
POLYLINE
  8
LAYER_2
 40
0.0882
 41
0.0882
 66
1
 10
0
 20
0
 30
0
 70
1
  0
VERTEX
  8
LAYER_2
 10
336.769
 20
14.8037
  0
VERTEX
  8
LAYER_2
 10
336.769
 20
14.2967
  0
VERTEX
  8
LAYER_2
 10
335.2866
 20
14.5694
  0
SEQEND
  0
POLYLINE
  8
LAYER_2
 40
0.05
 41
0.05
 66
1
 10
0
 20
0
 30
0
 70
1
  0
VERTEX
  8
LAYER_2
 10
393.8037
 20
14.8037
  0
VERTEX
  8
LAYER_2
 10
393.8037
 20
14.2967
  0
VERTEX
  8
LAYER_2
 10
395.2861
 20
14.5694
  0
SEQEND
  0
POLYLINE
  8
LAYER_2
 40
0.0882
 41
0.0882
 66
1
 10
0
 20
0
 30
0
 70
1
  0
VERTEX
  8
LAYER_2
 10
393.8037
 20
14.8037
  0
VERTEX
  8
LAYER_2
 10
393.8037
 20
14.2967
  0
VERTEX
  8
LAYER_2
 10
395.2861
 20
14.5694
  0
SEQEND
  0
TEXT
  8
LAYER_2
 10
362.3995
 20
13.2113
 11
362.3995
 21
13.2113
 40
3.3492
 41
0.5
  1
600
  0
POLYLINE
  8
LAYER_2
 40
0.1058
 41
0.1058
 66
1
 10
0
 20
0
 30
0
  0
VERTEX
  8
LAYER_2
 10
395.2862
 20
9.7322
  0
VERTEX
  8
LAYER_2
 10
395.2862
 20
14.6867
  0
SEQEND
  0
POLYLINE
  8
LAYER_2
 40
0.1058
 41
0.1058
 66
1
 10
0
 20
0
 30
0
  0
VERTEX
  8
LAYER_2
 10
393.8037
 20
14.5696
  0
VERTEX
  8
LAYER_2
 10
392.2824
 20
14.5696
  0
SEQEND
  0
POLYLINE
  8
LAYER_2
 40
0.1058
 41
0.1058
 66
1
 10
0
 20
0
 30
0
  0
VERTEX
  8
LAYER_2
 10
395.2862
 20
14.5696
  0
VERTEX
  8
LAYER_2
 10
395.5204
 20
14.5696
  0
SEQEND
  0
POLYLINE
  8
LAYER_2
 40
0.05
 41
0.05
 66
1
 10
0
 20
0
 30
0
 70
1
  0
VERTEX
  8
LAYER_2
 10
393.8037
 20
14.8037
  0
VERTEX
  8
LAYER_2
 10
393.8037
 20
14.2967
  0
VERTEX
  8
LAYER_2
 10
395.2861
 20
14.5694
  0
SEQEND
  0
POLYLINE
  8
LAYER_2
 40
0.0882
 41
0.0882
 66
1
 10
0
 20
0
 30
0
 70
1
  0
VERTEX
  8
LAYER_2
 10
393.8037
 20
14.8037
  0
VERTEX
  8
LAYER_2
 10
393.8037
 20
14.2967
  0
VERTEX
  8
LAYER_2
 10
395.2861
 20
14.5694
  0
SEQEND
  0
POLYLINE
  8
LAYER_2
 40
0.2646
 41
0.2646
 66
1
 10
0
 20
0
 30
0
  0
VERTEX
  8
LAYER_2
 10
378.3552
 20
5.987
  0
VERTEX
  8
LAYER_2
 10
378.3552
 20
5.9481
  0
SEQEND
  0
POLYLINE
  8
LAYER_2
 40
0.2646
 41
0.2646
 66
1
 10
0
 20
0
 30
0
  0
VERTEX
  8
LAYER_2
 10
375.3513
 20
5.9481
  0
VERTEX
  8
LAYER_2
 10
375.3513
 20
5.987
  0
SEQEND
  0
POLYLINE
  8
LAYER_2
 40
0.2646
 41
0.2646
 66
1
 10
0
 20
0
 30
0
  0
VERTEX
  8
LAYER_2
 10
376.7557
 20
5.987
  0
VERTEX
  8
LAYER_2
 10
376.951
 20
5.987
  0
SEQEND
  0
POLYLINE
  8
LAYER_2
 40
0.2646
 41
0.2646
 66
1
 10
0
 20
0
 30
0
  0
VERTEX
  8
LAYER_2
 10
376.8338
 20
6.0651
  0
VERTEX
  8
LAYER_2
 10
376.8338
 20
5.8699
  0
SEQEND
  0
POLYLINE
  8
LAYER_2
 40
0.1764
 41
0.1764
 66
1
 10
0
 20
0
 30
0
  0
VERTEX
  8
LAYER_2
 10
350.345
 20
5.987
  0
VERTEX
  8
LAYER_2
 10
361.6835
 20
5.987
  0
SEQEND
  0
POLYLINE
  8
LAYER_2
 40
0.1764
 41
0.1764
 66
1
 10
0
 20
0
 30
0
  0
VERTEX
  8
LAYER_2
 10
375.3513
 20
5.987
  0
VERTEX
  8
LAYER_2
 10
373.6035
 20
5.987
  0
SEQEND
  0
POLYLINE
  8
LAYER_2
 40
0.05
 41
0.05
 66
1
 10
0
 20
0
 30
0
 70
1
  0
VERTEX
  8
LAYER_2
 10
350.345
 20
6.2211
  0
VERTEX
  8
LAYER_2
 10
350.345
 20
5.7141
  0
VERTEX
  8
LAYER_2
 10
348.8626
 20
5.9869
  0
SEQEND
  0
POLYLINE
  8
LAYER_2
 40
0.0882
 41
0.0882
 66
1
 10
0
 20
0
 30
0
 70
1
  0
VERTEX
  8
LAYER_2
 10
350.345
 20
6.2211
  0
VERTEX
  8
LAYER_2
 10
350.345
 20
5.7141
  0
VERTEX
  8
LAYER_2
 10
348.8626
 20
5.9869
  0
SEQEND
  0
POLYLINE
  8
LAYER_2
 40
0.05
 41
0.05
 66
1
 10
0
 20
0
 30
0
 70
1
  0
VERTEX
  8
LAYER_2
 10
375.3513
 20
6.2211
  0
VERTEX
  8
LAYER_2
 10
375.3513
 20
5.7141
  0
VERTEX
  8
LAYER_2
 10
376.8727
 20
5.9869
  0
SEQEND
  0
POLYLINE
  8
LAYER_2
 40
0.0882
 41
0.0882
 66
1
 10
0
 20
0
 30
0
 70
1
  0
VERTEX
  8
LAYER_2
 10
375.3513
 20
6.2211
  0
VERTEX
  8
LAYER_2
 10
375.3513
 20
5.7141
  0
VERTEX
  8
LAYER_2
 10
376.8727
 20
5.9869
  0
SEQEND
  0
TEXT
  8
LAYER_2
 10
363.1026
 20
4.7464
 11
363.1026
 21
4.7464
 40
3.3492
 41
0.5
  1
280
  0
POLYLINE
  8
LAYER_2
 40
0.1058
 41
0.1058
 66
1
 10
0
 20
0
 30
0
  0
VERTEX
  8
LAYER_2
 10
456.6636
 20
-7.5666
  0
VERTEX
  8
LAYER_2
 10
480.8506
 20
-7.5666
  0
SEQEND
  0
POLYLINE
  8
LAYER_2
 40
0.1058
 41
0.1058
 66
1
 10
0
 20
0
 30
0
  0
VERTEX
  8
LAYER_2
 10
480.7337
 20
-6.0452
  0
VERTEX
  8
LAYER_2
 10
480.7337
 20
-1.247
  0
SEQEND
  0
POLYLINE
  8
LAYER_2
 40
0.1058
 41
0.1058
 66
1
 10
0
 20
0
 30
0
  0
VERTEX
  8
LAYER_2
 10
480.7337
 20
8.9352
  0
VERTEX
  8
LAYER_2
 10
480.7337
 20
4.1369
  0
SEQEND
  0
POLYLINE
  8
LAYER_2
 40
0.05
 41
0.05
 66
1
 10
0
 20
0
 30
0
 70
1
  0
VERTEX
  8
LAYER_2
 10
480.4996
 20
-6.0452
  0
VERTEX
  8
LAYER_2
 10
480.9676
 20
-6.0452
  0
VERTEX
  8
LAYER_2
 10
480.7338
 20
-7.5666
  0
SEQEND
  0
POLYLINE
  8
LAYER_2
 40
0.0882
 41
0.0882
 66
1
 10
0
 20
0
 30
0
 70
1
  0
VERTEX
  8
LAYER_2
 10
480.4996
 20
-6.0452
  0
VERTEX
  8
LAYER_2
 10
480.9676
 20
-6.0452
  0
VERTEX
  8
LAYER_2
 10
480.7338
 20
-7.5666
  0
SEQEND
  0
POLYLINE
  8
LAYER_2
 40
0.05
 41
0.05
 66
1
 10
0
 20
0
 30
0
 70
1
  0
VERTEX
  8
LAYER_2
 10
480.4996
 20
8.9352
  0
VERTEX
  8
LAYER_2
 10
480.9676
 20
8.9352
  0
VERTEX
  8
LAYER_2
 10
480.7338
 20
10.4566
  0
SEQEND
  0
POLYLINE
  8
LAYER_2
 40
0.0882
 41
0.0882
 66
1
 10
0
 20
0
 30
0
 70
1
  0
VERTEX
  8
LAYER_2
 10
480.4996
 20
8.9352
  0
VERTEX
  8
LAYER_2
 10
480.9676
 20
8.9352
  0
VERTEX
  8
LAYER_2
 10
480.7338
 20
10.4566
  0
SEQEND
  0
TEXT
  8
LAYER_2
 10
482.0918
 20
-1.5587
 11
482.0918
 21
-1.5587
 40
3.3492
 41
0.5
 50
89.99999999
  1
180
  0
POLYLINE
  8
LAYER_2
 40
0.1058
 41
0.1058
 66
1
 10
0
 20
0
 30
0
  0
VERTEX
  8
LAYER_2
 10
357.7962
 20
-4.429
  0
VERTEX
  8
LAYER_2
 10
357.7962
 20
12.5409
  0
SEQEND
  0
POLYLINE
  8
LAYER_2
 40
0.1058
 41
0.1058
 66
1
 10
0
 20
0
 30
0
  0
VERTEX
  8
LAYER_2
 10
335.2866
 20
9.3031
  0
VERTEX
  8
LAYER_2
 10
335.2866
 20
12.541
  0
SEQEND
  0
POLYLINE
  8
LAYER_2
 40
0.1058
 41
0.1058
 66
1
 10
0
 20
0
 30
0
  0
VERTEX
  8
LAYER_2
 10
356.2747
 20
12.424
  0
VERTEX
  8
LAYER_2
 10
349.4087
 20
12.424
  0
SEQEND
  0
POLYLINE
  8
LAYER_2
 40
0.1058
 41
0.1058
 66
1
 10
0
 20
0
 30
0
  0
VERTEX
  8
LAYER_2
 10
336.769
 20
12.424
  0
VERTEX
  8
LAYER_2
 10
343.6739
 20
12.424
  0
SEQEND
  0
POLYLINE
  8
LAYER_2
 40
0.05
 41
0.05
 66
1
 10
0
 20
0
 30
0
 70
1
  0
VERTEX
  8
LAYER_2
 10
356.2747
 20
12.658
  0
VERTEX
  8
LAYER_2
 10
356.2747
 20
12.151
  0
VERTEX
  8
LAYER_2
 10
357.7961
 20
12.4238
  0
SEQEND
  0
POLYLINE
  8
LAYER_2
 40
0.0882
 41
0.0882
 66
1
 10
0
 20
0
 30
0
 70
1
  0
VERTEX
  8
LAYER_2
 10
356.2747
 20
12.658
  0
VERTEX
  8
LAYER_2
 10
356.2747
 20
12.151
  0
VERTEX
  8
LAYER_2
 10
357.7961
 20
12.4238
  0
SEQEND
  0
POLYLINE
  8
LAYER_2
 40
0.05
 41
0.05
 66
1
 10
0
 20
0
 30
0
 70
1
  0
VERTEX
  8
LAYER_2
 10
336.769
 20
12.658
  0
VERTEX
  8
LAYER_2
 10
336.769
 20
12.151
  0
VERTEX
  8
LAYER_2
 10
335.2866
 20
12.4238
  0
SEQEND
  0
POLYLINE
  8
LAYER_2
 40
0.0882
 41
0.0882
 66
1
 10
0
 20
0
 30
0
 70
1
  0
VERTEX
  8
LAYER_2
 10
336.769
 20
12.658
  0
VERTEX
  8
LAYER_2
 10
336.769
 20
12.151
  0
VERTEX
  8
LAYER_2
 10
335.2866
 20
12.4238
  0
SEQEND
  0
TEXT
  8
LAYER_2
 10
343.6351
 20
11.0657
 11
343.6351
 21
11.0657
 40
3.3492
 41
0.5
  1
225
  0
POLYLINE
  8
LAYER_2
 40
0.1058
 41
0.1058
 66
1
 10
0
 20
0
 30
0
  0
VERTEX
  8
LAYER_2
 10
357.7962
 20
12.463
  0
VERTEX
  8
LAYER_2
 10
357.7962
 20
12.5409
  0
SEQEND
  0
POLYLINE
  8
LAYER_2
 40
0.1058
 41
0.1058
 66
1
 10
0
 20
0
 30
0
  0
VERTEX
  8
LAYER_2
 10
395.2862
 20
10.2003
  0
VERTEX
  8
LAYER_2
 10
395.2862
 20
12.5412
  0
SEQEND
  0
POLYLINE
  8
LAYER_2
 40
0.1058
 41
0.1058
 66
1
 10
0
 20
0
 30
0
  0
VERTEX
  8
LAYER_2
 10
359.2786
 20
12.424
  0
VERTEX
  8
LAYER_2
 10
373.7127
 20
12.424
  0
SEQEND
  0
POLYLINE
  8
LAYER_2
 40
0.1058
 41
0.1058
 66
1
 10
0
 20
0
 30
0
  0
VERTEX
  8
LAYER_2
 10
393.8037
 20
12.424
  0
VERTEX
  8
LAYER_2
 10
379.3696
 20
12.424
  0
SEQEND
  0
POLYLINE
  8
LAYER_2
 40
0.05
 41
0.05
 66
1
 10
0
 20
0
 30
0
 70
1
  0
VERTEX
  8
LAYER_2
 10
359.2786
 20
12.658
  0
VERTEX
  8
LAYER_2
 10
359.2786
 20
12.151
  0
VERTEX
  8
LAYER_2
 10
357.7962
 20
12.4238
  0
SEQEND
  0
POLYLINE
  8
LAYER_2
 40
0.0882
 41
0.0882
 66
1
 10
0
 20
0
 30
0
 70
1
  0
VERTEX
  8
LAYER_2
 10
359.2786
 20
12.658
  0
VERTEX
  8
LAYER_2
 10
359.2786
 20
12.151
  0
VERTEX
  8
LAYER_2
 10
357.7962
 20
12.4238
  0
SEQEND
  0
POLYLINE
  8
LAYER_2
 40
0.05
 41
0.05
 66
1
 10
0
 20
0
 30
0
 70
1
  0
VERTEX
  8
LAYER_2
 10
393.8037
 20
12.658
  0
VERTEX
  8
LAYER_2
 10
393.8037
 20
12.151
  0
VERTEX
  8
LAYER_2
 10
395.2861
 20
12.4238
  0
SEQEND
  0
POLYLINE
  8
LAYER_2
 40
0.0882
 41
0.0882
 66
1
 10
0
 20
0
 30
0
 70
1
  0
VERTEX
  8
LAYER_2
 10
393.8037
 20
12.658
  0
VERTEX
  8
LAYER_2
 10
393.8037
 20
12.151
  0
VERTEX
  8
LAYER_2
 10
395.2861
 20
12.4238
  0
SEQEND
  0
TEXT
  8
LAYER_2
 10
373.635
 20
11.0657
 11
373.635
 21
11.0657
 40
3.3492
 41
0.5
  1
375
  0
POLYLINE
  8
LAYER_2
 40
0.1058
 41
0.1058
 66
1
 10
0
 20
0
 30
0
  0
VERTEX
  8
LAYER_2
 10
335.2866
 20
14.5696
  0
VERTEX
  8
LAYER_2
 10
335.2866
 20
10.1224
  0
SEQEND
  0
POLYLINE
  8
LAYER_2
 40
0.1058
 41
0.1058
 66
1
 10
0
 20
0
 30
0
  0
VERTEX
  8
LAYER_2
 10
357.7962
 20
12.424
  0
VERTEX
  8
LAYER_2
 10
357.7962
 20
-7.1596
  0
SEQEND
  0
POLYLINE
  8
LAYER_2
 40
0.1058
 41
0.1058
 66
1
 10
0
 20
0
 30
0
  0
VERTEX
  8
LAYER_2
 10
395.2862
 20
12.424
  0
VERTEX
  8
LAYER_2
 10
395.2862
 20
10.1225
  0
SEQEND
  0
POLYLINE
  8
LAYER_2
 40
0.1058
 41
0.1058
 66
1
 10
0
 20
0
 30
0
  0
VERTEX
  8
LAYER_2
 10
398.056
 20
-7.5889
  0
VERTEX
  8
LAYER_2
 10
360.8389
 20
-7.5889
  0
SEQEND
  0
POLYLINE
  8
LAYER_2
 40
0.1058
 41
0.1058
 66
1
 10
0
 20
0
 30
0
  0
VERTEX
  8
LAYER_2
 10
431.5793
 20
14.5528
  0
VERTEX
  8
LAYER_2
 10
431.5793
 20
10.1447
  0
SEQEND
  0
POLYLINE
  8
LAYER_2
 40
0.1058
 41
0.1058
 66
1
 10
0
 20
0
 30
0
  0
VERTEX
  8
LAYER_2
 10
480.7337
 20
10.4566
  0
VERTEX
  8
LAYER_2
 10
477.6126
 20
10.4566
  0
SEQEND
  0
POLYLINE
  8
LAYER_2
 40
0.1058
 41
0.1058
 66
1
 10
0
 20
0
 30
0
  0
VERTEX
  8
LAYER_2
 10
480.7337
 20
-7.5666
  0
VERTEX
  8
LAYER_2
 10
459.5504
 20
-7.5666
  0
SEQEND
  0
POLYLINE
  8
LAYER_2
 40
0.1058
 41
0.1058
 66
1
 10
0
 20
0
 30
0
  0
VERTEX
  8
LAYER_2
 10
395.2862
 20
14.5696
  0
VERTEX
  8
LAYER_2
 10
395.2862
 20
12.4239
  0
SEQEND
  0
POLYLINE
  8
LAYER_2
 40
0.1764
 41
0.1764
 66
1
 10
0
 20
0
 30
0
  0
VERTEX
  8
LAYER_2
 10
376.8338
 20
5.909
  0
VERTEX
  8
LAYER_2
 10
376.8338
 20
5.8311
  0
SEQEND
  0
POLYLINE
  8
LAYER_2
 40
0.1764
 41
0.1764
 66
1
 10
0
 20
0
 30
0
  0
VERTEX
  8
LAYER_2
 10
395.2862
 20
9.6152
  0
VERTEX
  8
LAYER_2
 10
395.2862
 20
5.8308
  0
SEQEND
  0
POLYLINE
  8
LAYER_2
 40
0.1764
 41
0.1764
 66
1
 10
0
 20
0
 30
0
  0
VERTEX
  8
LAYER_2
 10
378.3552
 20
5.9481
  0
VERTEX
  8
LAYER_2
 10
382.5685
 20
5.9481
  0
SEQEND
  0
POLYLINE
  8
LAYER_2
 40
0.1764
 41
0.1764
 66
1
 10
0
 20
0
 30
0
  0
VERTEX
  8
LAYER_2
 10
393.8037
 20
5.9481
  0
VERTEX
  8
LAYER_2
 10
389.5514
 20
5.9481
  0
SEQEND
  0
POLYLINE
  8
LAYER_2
 40
0.05
 41
0.05
 66
1
 10
0
 20
0
 30
0
 70
1
  0
VERTEX
  8
LAYER_2
 10
378.3552
 20
6.2211
  0
VERTEX
  8
LAYER_2
 10
378.3552
 20
5.7141
  0
VERTEX
  8
LAYER_2
 10
376.8338
 20
5.9479
  0
SEQEND
  0
POLYLINE
  8
LAYER_2
 40
0.0882
 41
0.0882
 66
1
 10
0
 20
0
 30
0
 70
1
  0
VERTEX
  8
LAYER_2
 10
378.3552
 20
6.2211
  0
VERTEX
  8
LAYER_2
 10
378.3552
 20
5.7141
  0
VERTEX
  8
LAYER_2
 10
376.8338
 20
5.9479
  0
SEQEND
  0
POLYLINE
  8
LAYER_2
 40
0.05
 41
0.05
 66
1
 10
0
 20
0
 30
0
 70
1
  0
VERTEX
  8
LAYER_2
 10
393.8037
 20
6.2211
  0
VERTEX
  8
LAYER_2
 10
393.8037
 20
5.7141
  0
VERTEX
  8
LAYER_2
 10
395.2861
 20
5.9479
  0
SEQEND
  0
POLYLINE
  8
LAYER_2
 40
0.0882
 41
0.0882
 66
1
 10
0
 20
0
 30
0
 70
1
  0
VERTEX
  8
LAYER_2
 10
393.8037
 20
6.2211
  0
VERTEX
  8
LAYER_2
 10
393.8037
 20
5.7141
  0
VERTEX
  8
LAYER_2
 10
395.2861
 20
5.9479
  0
SEQEND
  0
TEXT
  8
LAYER_2
 10
382.4128
 20
4.6289
 11
382.4128
 21
4.6289
 40
3.3492
 41
0.5
  1
185
  0
POLYLINE
  8
LAYER_2
 40
0.1764
 41
0.1764
 66
1
 10
0
 20
0
 30
0
  0
VERTEX
  8
LAYER_2
 10
347.5752
 20
5.9481
  0
VERTEX
  8
LAYER_2
 10
348.9796
 20
5.9481
  0
SEQEND
  0
POLYLINE
  8
LAYER_2
 40
0.1764
 41
0.1764
 66
1
 10
0
 20
0
 30
0
  0
VERTEX
  8
LAYER_2
 10
347.5752
 20
10.4344
  0
VERTEX
  8
LAYER_2
 10
348.9796
 20
10.4344
  0
SEQEND
  0
POLYLINE
  8
LAYER_2
 40
0.1764
 41
0.1764
 66
1
 10
0
 20
0
 30
0
  0
VERTEX
  8
LAYER_2
 10
348.8626
 20
7.4695
  0
VERTEX
  8
LAYER_2
 10
348.8626
 20
8.9129
  0
SEQEND
  0
TEXT
  8
LAYER_2
 10
346.6392
 20
5.0743
 11
346.6392
 21
5.0743
 40
3.3492
 41
0.5
 50
89.99999999
  1
45
  0
POLYLINE
  8
LAYER_2
 40
0.05
 41
0.05
 66
1
 10
0
 20
0
 30
0
 70
1
  0
VERTEX
  8
LAYER_2
 10
348.5895
 20
7.4695
  0
VERTEX
  8
LAYER_2
 10
349.0964
 20
7.4695
  0
VERTEX
  8
LAYER_2
 10
348.8626
 20
5.9481
  0
SEQEND
  0
POLYLINE
  8
LAYER_2
 40
0.0882
 41
0.0882
 66
1
 10
0
 20
0
 30
0
 70
1
  0
VERTEX
  8
LAYER_2
 10
348.5895
 20
7.4695
  0
VERTEX
  8
LAYER_2
 10
349.0964
 20
7.4695
  0
VERTEX
  8
LAYER_2
 10
348.8626
 20
5.9481
  0
SEQEND
  0
POLYLINE
  8
LAYER_2
 40
0.05
 41
0.05
 66
1
 10
0
 20
0
 30
0
 70
1
  0
VERTEX
  8
LAYER_2
 10
348.5895
 20
8.9129
  0
VERTEX
  8
LAYER_2
 10
349.0964
 20
8.9129
  0
VERTEX
  8
LAYER_2
 10
348.8626
 20
10.4343
  0
SEQEND
  0
POLYLINE
  8
LAYER_2
 40
0.0882
 41
0.0882
 66
1
 10
0
 20
0
 30
0
 70
1
  0
VERTEX
  8
LAYER_2
 10
348.5895
 20
8.9129
  0
VERTEX
  8
LAYER_2
 10
349.0964
 20
8.9129
  0
VERTEX
  8
LAYER_2
 10
348.8626
 20
10.4343
  0
SEQEND
  0
POLYLINE
  8
LAYER_2
 40
0.1058
 41
0.1058
 66
1
 10
0
 20
0
 30
0
  0
VERTEX
  8
LAYER_2
 10
340.2789
 20
39.1664
  0
VERTEX
  8
LAYER_2
 10
340.2789
 20
29.3357
  0
SEQEND
  0
POLYLINE
  8
LAYER_2
 40
0.1058
 41
0.1058
 66
1
 10
0
 20
0
 30
0
  0
VERTEX
  8
LAYER_2
 10
335.2854
 20
39.1664
  0
VERTEX
  8
LAYER_2
 10
335.2854
 20
29.3357
  0
SEQEND
  0
POLYLINE
  8
LAYER_2
 40
0.1058
 41
0.1058
 66
1
 10
0
 20
0
 30
0
  0
VERTEX
  8
LAYER_2
 10
341.8003
 20
29.4526
  0
VERTEX
  8
LAYER_2
 10
343.2827
 20
29.4526
  0
SEQEND
  0
POLYLINE
  8
LAYER_2
 40
0.1058
 41
0.1058
 66
1
 10
0
 20
0
 30
0
  0
VERTEX
  8
LAYER_2
 10
333.764
 20
29.4526
  0
VERTEX
  8
LAYER_2
 10
332.2816
 20
29.4526
  0
SEQEND
  0
POLYLINE
  8
LAYER_2
 40
0.1058
 41
0.1058
 66
1
 10
0
 20
0
 30
0
  0
VERTEX
  8
LAYER_2
 10
340.2789
 20
29.4526
  0
VERTEX
  8
LAYER_2
 10
339.6156
 20
29.4526
  0
SEQEND
  0
POLYLINE
  8
LAYER_2
 40
0.1058
 41
0.1058
 66
1
 10
0
 20
0
 30
0
  0
VERTEX
  8
LAYER_2
 10
335.2854
 20
29.4526
  0
VERTEX
  8
LAYER_2
 10
335.9486
 20
29.4526
  0
SEQEND
  0
POLYLINE
  8
LAYER_2
 40
0.05
 41
0.05
 66
1
 10
0
 20
0
 30
0
 70
1
  0
VERTEX
  8
LAYER_2
 10
341.8003
 20
29.7256
  0
VERTEX
  8
LAYER_2
 10
341.8003
 20
29.2186
  0
VERTEX
  8
LAYER_2
 10
340.2789
 20
29.4524
  0
SEQEND
  0
POLYLINE
  8
LAYER_2
 40
0.0882
 41
0.0882
 66
1
 10
0
 20
0
 30
0
 70
1
  0
VERTEX
  8
LAYER_2
 10
341.8003
 20
29.7256
  0
VERTEX
  8
LAYER_2
 10
341.8003
 20
29.2186
  0
VERTEX
  8
LAYER_2
 10
340.2789
 20
29.4524
  0
SEQEND
  0
POLYLINE
  8
LAYER_2
 40
0.05
 41
0.05
 66
1
 10
0
 20
0
 30
0
 70
1
  0
VERTEX
  8
LAYER_2
 10
333.764
 20
29.7256
  0
VERTEX
  8
LAYER_2
 10
333.764
 20
29.2186
  0
VERTEX
  8
LAYER_2
 10
335.2853
 20
29.4524
  0
SEQEND
  0
POLYLINE
  8
LAYER_2
 40
0.0882
 41
0.0882
 66
1
 10
0
 20
0
 30
0
 70
1
  0
VERTEX
  8
LAYER_2
 10
333.764
 20
29.7256
  0
VERTEX
  8
LAYER_2
 10
333.764
 20
29.2186
  0
VERTEX
  8
LAYER_2
 10
335.2853
 20
29.4524
  0
SEQEND
  0
TEXT
  8
LAYER_2
 10
335.8708
 20
28.1333
 11
335.8708
 21
28.1333
 40
3.3492
 41
0.5
  1
50
  0
POLYLINE
  8
LAYER_2
 40
0.1058
 41
0.1058
 66
1
 10
0
 20
0
 30
0
  0
VERTEX
  8
LAYER_2
 10
340.2789
 20
33.6658
  0
VERTEX
  8
LAYER_2
 10
340.2789
 20
29.3356
  0
SEQEND
  0
POLYLINE
  8
LAYER_2
 40
0.1058
 41
0.1058
 66
1
 10
0
 20
0
 30
0
  0
VERTEX
  8
LAYER_2
 10
375.3111
 20
39.1664
  0
VERTEX
  8
LAYER_2
 10
375.3111
 20
29.3357
  0
SEQEND
  0
POLYLINE
  8
LAYER_2
 40
0.1058
 41
0.1058
 66
1
 10
0
 20
0
 30
0
  0
VERTEX
  8
LAYER_2
 10
341.8003
 20
29.4526
  0
VERTEX
  8
LAYER_2
 10
354.9863
 20
29.4526
  0
SEQEND
  0
POLYLINE
  8
LAYER_2
 40
0.1058
 41
0.1058
 66
1
 10
0
 20
0
 30
0
  0
VERTEX
  8
LAYER_2
 10
373.7897
 20
29.4526
  0
VERTEX
  8
LAYER_2
 10
360.6037
 20
29.4526
  0
SEQEND
  0
POLYLINE
  8
LAYER_2
 40
0.05
 41
0.05
 66
1
 10
0
 20
0
 30
0
 70
1
  0
VERTEX
  8
LAYER_2
 10
341.8003
 20
29.6866
  0
VERTEX
  8
LAYER_2
 10
341.8003
 20
29.2186
  0
VERTEX
  8
LAYER_2
 10
340.2789
 20
29.4524
  0
SEQEND
  0
POLYLINE
  8
LAYER_2
 40
0.0882
 41
0.0882
 66
1
 10
0
 20
0
 30
0
 70
1
  0
VERTEX
  8
LAYER_2
 10
341.8003
 20
29.6866
  0
VERTEX
  8
LAYER_2
 10
341.8003
 20
29.2186
  0
VERTEX
  8
LAYER_2
 10
340.2789
 20
29.4524
  0
SEQEND
  0
POLYLINE
  8
LAYER_2
 40
0.05
 41
0.05
 66
1
 10
0
 20
0
 30
0
 70
1
  0
VERTEX
  8
LAYER_2
 10
373.7897
 20
29.6866
  0
VERTEX
  8
LAYER_2
 10
373.7897
 20
29.2186
  0
VERTEX
  8
LAYER_2
 10
375.311
 20
29.4524
  0
SEQEND
  0
POLYLINE
  8
LAYER_2
 40
0.0882
 41
0.0882
 66
1
 10
0
 20
0
 30
0
 70
1
  0
VERTEX
  8
LAYER_2
 10
373.7897
 20
29.6866
  0
VERTEX
  8
LAYER_2
 10
373.7897
 20
29.2186
  0
VERTEX
  8
LAYER_2
 10
375.311
 20
29.4524
  0
SEQEND
  0
TEXT
  8
LAYER_2
 10
354.8694
 20
28.0943
 11
354.8694
 21
28.0943
 40
3.3492
 41
0.5
  1
350
  0
POLYLINE
  8
LAYER_2
 40
0.1058
 41
0.1058
 66
1
 10
0
 20
0
 30
0
  0
VERTEX
  8
LAYER_2
 10
375.3111
 20
39.1664
  0
VERTEX
  8
LAYER_2
 10
375.3111
 20
29.3357
  0
SEQEND
  0
POLYLINE
  8
LAYER_2
 40
0.1058
 41
0.1058
 66
1
 10
0
 20
0
 30
0
  0
VERTEX
  8
LAYER_2
 10
395.285
 20
39.1664
  0
VERTEX
  8
LAYER_2
 10
395.285
 20
29.3357
  0
SEQEND
  0
POLYLINE
  8
LAYER_2
 40
0.1058
 41
0.1058
 66
1
 10
0
 20
0
 30
0
  0
VERTEX
  8
LAYER_2
 10
376.7936
 20
29.4526
  0
VERTEX
  8
LAYER_2
 10
382.4504
 20
29.4526
  0
SEQEND
  0
POLYLINE
  8
LAYER_2
 40
0.1058
 41
0.1058
 66
1
 10
0
 20
0
 30
0
  0
VERTEX
  8
LAYER_2
 10
393.8026
 20
29.4526
  0
VERTEX
  8
LAYER_2
 10
388.1458
 20
29.4526
  0
SEQEND
  0
POLYLINE
  8
LAYER_2
 40
0.05
 41
0.05
 66
1
 10
0
 20
0
 30
0
 70
1
  0
VERTEX
  8
LAYER_2
 10
376.7936
 20
29.6866
  0
VERTEX
  8
LAYER_2
 10
376.7936
 20
29.2186
  0
VERTEX
  8
LAYER_2
 10
375.3112
 20
29.4524
  0
SEQEND
  0
POLYLINE
  8
LAYER_2
 40
0.0882
 41
0.0882
 66
1
 10
0
 20
0
 30
0
 70
1
  0
VERTEX
  8
LAYER_2
 10
376.7936
 20
29.6866
  0
VERTEX
  8
LAYER_2
 10
376.7936
 20
29.2186
  0
VERTEX
  8
LAYER_2
 10
375.3112
 20
29.4524
  0
SEQEND
  0
POLYLINE
  8
LAYER_2
 40
0.05
 41
0.05
 66
1
 10
0
 20
0
 30
0
 70
1
  0
VERTEX
  8
LAYER_2
 10
393.8026
 20
29.6866
  0
VERTEX
  8
LAYER_2
 10
393.8026
 20
29.2186
  0
VERTEX
  8
LAYER_2
 10
395.2849
 20
29.4524
  0
SEQEND
  0
POLYLINE
  8
LAYER_2
 40
0.0882
 41
0.0882
 66
1
 10
0
 20
0
 30
0
 70
1
  0
VERTEX
  8
LAYER_2
 10
393.8026
 20
29.6866
  0
VERTEX
  8
LAYER_2
 10
393.8026
 20
29.2186
  0
VERTEX
  8
LAYER_2
 10
395.2849
 20
29.4524
  0
SEQEND
  0
TEXT
  8
LAYER_2
 10
382.4116
 20
28.0943
 11
382.4116
 21
28.0943
 40
3.3492
 41
0.5
  1
200
  0
POLYLINE
  8
LAYER_2
 40
0.1058
 41
0.1058
 66
1
 10
0
 20
0
 30
0
  0
VERTEX
  8
LAYER_2
 10
340.708
 20
68.7761
  0
VERTEX
  8
LAYER_2
 10
332.2817
 20
68.7761
  0
SEQEND
  0
POLYLINE
  8
LAYER_2
 40
0.1058
 41
0.1058
 66
1
 10
0
 20
0
 30
0
  0
VERTEX
  8
LAYER_2
 10
332.3986
 20
70.2586
  0
VERTEX
  8
LAYER_2
 10
332.3986
 20
71.5461
  0
SEQEND
  0
POLYLINE
  8
LAYER_2
 40
0.1058
 41
0.1058
 66
1
 10
0
 20
0
 30
0
  0
VERTEX
  8
LAYER_2
 10
332.3986
 20
78.2559
  0
VERTEX
  8
LAYER_2
 10
332.3986
 20
76.9683
  0
SEQEND
  0
POLYLINE
  8
LAYER_2
 40
0.05
 41
0.05
 66
1
 10
0
 20
0
 30
0
 70
1
  0
VERTEX
  8
LAYER_2
 10
332.1645
 20
70.2586
  0
VERTEX
  8
LAYER_2
 10
332.6715
 20
70.2586
  0
VERTEX
  8
LAYER_2
 10
332.3987
 20
68.7762
  0
SEQEND
  0
POLYLINE
  8
LAYER_2
 40
0.0882
 41
0.0882
 66
1
 10
0
 20
0
 30
0
 70
1
  0
VERTEX
  8
LAYER_2
 10
332.1645
 20
70.2586
  0
VERTEX
  8
LAYER_2
 10
332.6715
 20
70.2586
  0
VERTEX
  8
LAYER_2
 10
332.3987
 20
68.7762
  0
SEQEND
  0
POLYLINE
  8
LAYER_2
 40
0.05
 41
0.05
 66
1
 10
0
 20
0
 30
0
 70
1
  0
VERTEX
  8
LAYER_2
 10
332.1645
 20
78.2559
  0
VERTEX
  8
LAYER_2
 10
332.6715
 20
78.2559
  0
VERTEX
  8
LAYER_2
 10
332.3987
 20
79.7772
  0
SEQEND
  0
POLYLINE
  8
LAYER_2
 40
0.0882
 41
0.0882
 66
1
 10
0
 20
0
 30
0
 70
1
  0
VERTEX
  8
LAYER_2
 10
332.1645
 20
78.2559
  0
VERTEX
  8
LAYER_2
 10
332.6715
 20
78.2559
  0
VERTEX
  8
LAYER_2
 10
332.3987
 20
79.7772
  0
SEQEND
  0
TEXT
  8
LAYER_2
 10
333.757
 20
71.2338
 11
333.757
 21
71.2338
 40
3.3492
 41
0.5
 50
89.99999999
  1
110
  0
POLYLINE
  8
LAYER_2
 40
0.1058
 41
0.1058
 66
1
 10
0
 20
0
 30
0
  0
VERTEX
  8
LAYER_2
 10
357.7948
 20
73.3014
  0
VERTEX
  8
LAYER_2
 10
357.7948
 20
73.3793
  0
SEQEND
  0
POLYLINE
  8
LAYER_2
 40
0.1058
 41
0.1058
 66
1
 10
0
 20
0
 30
0
  0
VERTEX
  8
LAYER_2
 10
357.795
 20
73.3014
  0
VERTEX
  8
LAYER_2
 10
357.795
 20
73.3793
  0
SEQEND
  0
POLYLINE
  8
LAYER_2
 40
0.1058
 41
0.1058
 66
1
 10
0
 20
0
 30
0
  0
VERTEX
  8
LAYER_2
 10
357.795
 20
73.3014
  0
VERTEX
  8
LAYER_2
 10
357.795
 20
73.3793
  0
SEQEND
  0
POLYLINE
  8
LAYER_2
 40
0.1058
 41
0.1058
 66
1
 10
0
 20
0
 30
0
  0
VERTEX
  8
LAYER_2
 10
367.8599
 20
79.7773
  0
VERTEX
  8
LAYER_2
 10
367.8989
 20
79.7773
  0
SEQEND
  0
POLYLINE
  8
LAYER_2
 40
0.1058
 41
0.1058
 66
1
 10
0
 20
0
 30
0
  0
VERTEX
  8
LAYER_2
 10
357.7948
 20
71.741
  0
VERTEX
  8
LAYER_2
 10
357.7948
 20
70.2586
  0
SEQEND
  0
POLYLINE
  8
LAYER_2
 40
0.1058
 41
0.1058
 66
1
 10
0
 20
0
 30
0
  0
VERTEX
  8
LAYER_2
 10
357.7948
 20
81.2597
  0
VERTEX
  8
LAYER_2
 10
357.7948
 20
82.7421
  0
SEQEND
  0
POLYLINE
  8
LAYER_2
 40
0.1058
 41
0.1058
 66
1
 10
0
 20
0
 30
0
  0
VERTEX
  8
LAYER_2
 10
357.7948
 20
73.2624
  0
VERTEX
  8
LAYER_2
 10
357.7948
 20
74.6279
  0
SEQEND
  0
POLYLINE
  8
LAYER_2
 40
0.05
 41
0.05
 66
1
 10
0
 20
0
 30
0
 70
1
  0
VERTEX
  8
LAYER_2
 10
357.5608
 20
71.741
  0
VERTEX
  8
LAYER_2
 10
358.0678
 20
71.741
  0
VERTEX
  8
LAYER_2
 10
357.795
 20
73.2623
  0
SEQEND
  0
POLYLINE
  8
LAYER_2
 40
0.0882
 41
0.0882
 66
1
 10
0
 20
0
 30
0
 70
1
  0
VERTEX
  8
LAYER_2
 10
357.5608
 20
71.741
  0
VERTEX
  8
LAYER_2
 10
358.0678
 20
71.741
  0
VERTEX
  8
LAYER_2
 10
357.795
 20
73.2623
  0
SEQEND
  0
POLYLINE
  8
LAYER_2
 40
0.05
 41
0.05
 66
1
 10
0
 20
0
 30
0
 70
1
  0
VERTEX
  8
LAYER_2
 10
357.5608
 20
81.2597
  0
VERTEX
  8
LAYER_2
 10
358.0678
 20
81.2597
  0
VERTEX
  8
LAYER_2
 10
357.795
 20
79.7774
  0
SEQEND
  0
POLYLINE
  8
LAYER_2
 40
0.0882
 41
0.0882
 66
1
 10
0
 20
0
 30
0
 70
1
  0
VERTEX
  8
LAYER_2
 10
357.5608
 20
81.2597
  0
VERTEX
  8
LAYER_2
 10
358.0678
 20
81.2597
  0
VERTEX
  8
LAYER_2
 10
357.795
 20
79.7774
  0
SEQEND
  0
TEXT
  8
LAYER_2
 10
359.1535
 20
75.6565
 11
359.1535
 21
75.6565
 40
3.3492
 41
0.5
 50
89.99999999
  1
65
  0
POLYLINE
  8
LAYER_2
 40
0.1058
 41
0.1058
 66
1
 10
0
 20
0
 30
0
  0
VERTEX
  8
LAYER_2
 10
357.834
 20
58.7501
  0
VERTEX
  8
LAYER_2
 10
357.9119
 20
58.7501
  0
SEQEND
  0
POLYLINE
  8
LAYER_2
 40
0.1058
 41
0.1058
 66
1
 10
0
 20
0
 30
0
  0
VERTEX
  8
LAYER_2
 10
357.834
 20
79.7773
  0
VERTEX
  8
LAYER_2
 10
357.9119
 20
79.7773
  0
SEQEND
  0
POLYLINE
  8
LAYER_2
 40
0.1058
 41
0.1058
 66
1
 10
0
 20
0
 30
0
  0
VERTEX
  8
LAYER_2
 10
351.7673
 20
60.2716
  0
VERTEX
  8
LAYER_2
 10
351.7673
 20
70.1264
  0
SEQEND
  0
POLYLINE
  8
LAYER_2
 40
0.1058
 41
0.1058
 66
1
 10
0
 20
0
 30
0
  0
VERTEX
  8
LAYER_2
 10
351.7673
 20
78.2559
  0
VERTEX
  8
LAYER_2
 10
351.7673
 20
76.8292
  0
SEQEND
  0
POLYLINE
  8
LAYER_2
 40
0.05
 41
0.05
 66
1
 10
0
 20
0
 30
0
 70
1
  0
VERTEX
  8
LAYER_2
 10
351.4943
 20
60.2716
  0
VERTEX
  8
LAYER_2
 10
352.0013
 20
60.2716
  0
VERTEX
  8
LAYER_2
 10
351.7675
 20
58.7503
  0
SEQEND
  0
POLYLINE
  8
LAYER_2
 40
0.0882
 41
0.0882
 66
1
 10
0
 20
0
 30
0
 70
1
  0
VERTEX
  8
LAYER_2
 10
351.4943
 20
60.2716
  0
VERTEX
  8
LAYER_2
 10
352.0013
 20
60.2716
  0
VERTEX
  8
LAYER_2
 10
351.7675
 20
58.7503
  0
SEQEND
  0
POLYLINE
  8
LAYER_2
 40
0.05
 41
0.05
 66
1
 10
0
 20
0
 30
0
 70
1
  0
VERTEX
  8
LAYER_2
 10
351.4943
 20
78.2559
  0
VERTEX
  8
LAYER_2
 10
352.0013
 20
78.2559
  0
VERTEX
  8
LAYER_2
 10
351.7675
 20
79.7772
  0
SEQEND
  0
POLYLINE
  8
LAYER_2
 40
0.0882
 41
0.0882
 66
1
 10
0
 20
0
 30
0
 70
1
  0
VERTEX
  8
LAYER_2
 10
351.4943
 20
78.2559
  0
VERTEX
  8
LAYER_2
 10
352.0013
 20
78.2559
  0
VERTEX
  8
LAYER_2
 10
351.7675
 20
79.7772
  0
SEQEND
  0
TEXT
  8
LAYER_2
 10
353.087
 20
70.5906
 11
353.087
 21
70.5906
 40
3.3492
 41
0.5
 50
89.99999999
  1
210
  0
POLYLINE
  8
LAYER_2
 40
0.1058
 41
0.1058
 66
1
 10
0
 20
0
 30
0
  0
VERTEX
  8
LAYER_2
 10
340.708
 20
68.7761
  0
VERTEX
  8
LAYER_2
 10
332.2817
 20
68.7761
  0
SEQEND
  0
POLYLINE
  8
LAYER_2
 40
0.1058
 41
0.1058
 66
1
 10
0
 20
0
 30
0
  0
VERTEX
  8
LAYER_2
 10
340.708
 20
38.7373
  0
VERTEX
  8
LAYER_2
 10
332.2817
 20
38.7373
  0
SEQEND
  0
POLYLINE
  8
LAYER_2
 40
0.1058
 41
0.1058
 66
1
 10
0
 20
0
 30
0
  0
VERTEX
  8
LAYER_2
 10
332.3986
 20
67.2547
  0
VERTEX
  8
LAYER_2
 10
332.3986
 20
56.5654
  0
SEQEND
  0
POLYLINE
  8
LAYER_2
 40
0.1058
 41
0.1058
 66
1
 10
0
 20
0
 30
0
  0
VERTEX
  8
LAYER_2
 10
332.3986
 20
40.2587
  0
VERTEX
  8
LAYER_2
 10
332.3986
 20
50.948
  0
SEQEND
  0
POLYLINE
  8
LAYER_2
 40
0.05
 41
0.05
 66
1
 10
0
 20
0
 30
0
 70
1
  0
VERTEX
  8
LAYER_2
 10
332.1645
 20
67.2547
  0
VERTEX
  8
LAYER_2
 10
332.6325
 20
67.2547
  0
VERTEX
  8
LAYER_2
 10
332.3987
 20
68.776
  0
SEQEND
  0
POLYLINE
  8
LAYER_2
 40
0.0882
 41
0.0882
 66
1
 10
0
 20
0
 30
0
 70
1
  0
VERTEX
  8
LAYER_2
 10
332.1645
 20
67.2547
  0
VERTEX
  8
LAYER_2
 10
332.6325
 20
67.2547
  0
VERTEX
  8
LAYER_2
 10
332.3987
 20
68.776
  0
SEQEND
  0
POLYLINE
  8
LAYER_2
 40
0.05
 41
0.05
 66
1
 10
0
 20
0
 30
0
 70
1
  0
VERTEX
  8
LAYER_2
 10
332.1645
 20
40.2587
  0
VERTEX
  8
LAYER_2
 10
332.6325
 20
40.2587
  0
VERTEX
  8
LAYER_2
 10
332.3987
 20
38.7374
  0
SEQEND
  0
POLYLINE
  8
LAYER_2
 40
0.0882
 41
0.0882
 66
1
 10
0
 20
0
 30
0
 70
1
  0
VERTEX
  8
LAYER_2
 10
332.1645
 20
40.2587
  0
VERTEX
  8
LAYER_2
 10
332.6325
 20
40.2587
  0
VERTEX
  8
LAYER_2
 10
332.3987
 20
38.7374
  0
SEQEND
  0
TEXT
  8
LAYER_2
 10
333.757
 20
50.8306
 11
333.757
 21
50.8306
 40
3.3492
 41
0.5
 50
89.99999999
  1
300
  0
POLYLINE
  8
LAYER_2
 40
0.1058
 41
0.1058
 66
1
 10
0
 20
0
 30
0
  0
VERTEX
  8
LAYER_2
 10
340.708
 20
33.7438
  0
VERTEX
  8
LAYER_2
 10
332.2817
 20
33.7438
  0
SEQEND
  0
POLYLINE
  8
LAYER_2
 40
0.1058
 41
0.1058
 66
1
 10
0
 20
0
 30
0
  0
VERTEX
  8
LAYER_2
 10
332.3986
 20
40.2587
  0
VERTEX
  8
LAYER_2
 10
332.3986
 20
41.7411
  0
SEQEND
  0
POLYLINE
  8
LAYER_2
 40
0.1058
 41
0.1058
 66
1
 10
0
 20
0
 30
0
  0
VERTEX
  8
LAYER_2
 10
332.3986
 20
32.2614
  0
VERTEX
  8
LAYER_2
 10
332.3986
 20
30.7401
  0
SEQEND
  0
POLYLINE
  8
LAYER_2
 40
0.1058
 41
0.1058
 66
1
 10
0
 20
0
 30
0
  0
VERTEX
  8
LAYER_2
 10
332.3986
 20
38.7373
  0
VERTEX
  8
LAYER_2
 10
332.3986
 20
38.113
  0
SEQEND
  0
POLYLINE
  8
LAYER_2
 40
0.1058
 41
0.1058
 66
1
 10
0
 20
0
 30
0
  0
VERTEX
  8
LAYER_2
 10
332.3986
 20
33.7438
  0
VERTEX
  8
LAYER_2
 10
332.3986
 20
34.4071
  0
SEQEND
  0
POLYLINE
  8
LAYER_2
 40
0.05
 41
0.05
 66
1
 10
0
 20
0
 30
0
 70
1
  0
VERTEX
  8
LAYER_2
 10
332.1645
 20
40.2587
  0
VERTEX
  8
LAYER_2
 10
332.6325
 20
40.2587
  0
VERTEX
  8
LAYER_2
 10
332.3987
 20
38.7374
  0
SEQEND
  0
POLYLINE
  8
LAYER_2
 40
0.0882
 41
0.0882
 66
1
 10
0
 20
0
 30
0
 70
1
  0
VERTEX
  8
LAYER_2
 10
332.1645
 20
40.2587
  0
VERTEX
  8
LAYER_2
 10
332.6325
 20
40.2587
  0
VERTEX
  8
LAYER_2
 10
332.3987
 20
38.7374
  0
SEQEND
  0
POLYLINE
  8
LAYER_2
 40
0.05
 41
0.05
 66
1
 10
0
 20
0
 30
0
 70
1
  0
VERTEX
  8
LAYER_2
 10
332.1645
 20
32.2614
  0
VERTEX
  8
LAYER_2
 10
332.6325
 20
32.2614
  0
VERTEX
  8
LAYER_2
 10
332.3987
 20
33.7438
  0
SEQEND
  0
POLYLINE
  8
LAYER_2
 40
0.0882
 41
0.0882
 66
1
 10
0
 20
0
 30
0
 70
1
  0
VERTEX
  8
LAYER_2
 10
332.1645
 20
32.2614
  0
VERTEX
  8
LAYER_2
 10
332.6325
 20
32.2614
  0
VERTEX
  8
LAYER_2
 10
332.3987
 20
33.7438
  0
SEQEND
  0
TEXT
  8
LAYER_2
 10
333.7569
 20
34.3293
 11
333.7569
 21
34.3293
 40
3.3492
 41
0.5
 50
89.99999999
  1
50
  0
POLYLINE
  8
LAYER_2
 40
0.1058
 41
0.1058
 66
1
 10
0
 20
0
 30
0
  0
VERTEX
  8
LAYER_2
 10
335.2074
 20
33.7438
  0
VERTEX
  8
LAYER_2
 10
329.5896
 20
33.7438
  0
SEQEND
  0
POLYLINE
  8
LAYER_2
 40
0.1058
 41
0.1058
 66
1
 10
0
 20
0
 30
0
  0
VERTEX
  8
LAYER_2
 10
335.2074
 20
79.7773
  0
VERTEX
  8
LAYER_2
 10
329.5896
 20
79.7773
  0
SEQEND
  0
POLYLINE
  8
LAYER_2
 40
0.1058
 41
0.1058
 66
1
 10
0
 20
0
 30
0
  0
VERTEX
  8
LAYER_2
 10
329.7458
 20
35.2653
  0
VERTEX
  8
LAYER_2
 10
329.7458
 20
53.8738
  0
SEQEND
  0
POLYLINE
  8
LAYER_2
 40
0.1058
 41
0.1058
 66
1
 10
0
 20
0
 30
0
  0
VERTEX
  8
LAYER_2
 10
329.7458
 20
78.2559
  0
VERTEX
  8
LAYER_2
 10
329.7458
 20
59.6084
  0
SEQEND
  0
POLYLINE
  8
LAYER_2
 40
0.05
 41
0.05
 66
1
 10
0
 20
0
 30
0
 70
1
  0
VERTEX
  8
LAYER_2
 10
329.4727
 20
35.2653
  0
VERTEX
  8
LAYER_2
 10
329.9797
 20
35.2653
  0
VERTEX
  8
LAYER_2
 10
329.7459
 20
33.7439
  0
SEQEND
  0
POLYLINE
  8
LAYER_2
 40
0.0882
 41
0.0882
 66
1
 10
0
 20
0
 30
0
 70
1
  0
VERTEX
  8
LAYER_2
 10
329.4727
 20
35.2653
  0
VERTEX
  8
LAYER_2
 10
329.9797
 20
35.2653
  0
VERTEX
  8
LAYER_2
 10
329.7459
 20
33.7439
  0
SEQEND
  0
POLYLINE
  8
LAYER_2
 40
0.05
 41
0.05
 66
1
 10
0
 20
0
 30
0
 70
1
  0
VERTEX
  8
LAYER_2
 10
329.4727
 20
78.2559
  0
VERTEX
  8
LAYER_2
 10
329.9797
 20
78.2559
  0
VERTEX
  8
LAYER_2
 10
329.7459
 20
79.7772
  0
SEQEND
  0
POLYLINE
  8
LAYER_2
 40
0.0882
 41
0.0882
 66
1
 10
0
 20
0
 30
0
 70
1
  0
VERTEX
  8
LAYER_2
 10
329.4727
 20
78.2559
  0
VERTEX
  8
LAYER_2
 10
329.9797
 20
78.2559
  0
VERTEX
  8
LAYER_2
 10
329.7459
 20
79.7772
  0
SEQEND
  0
TEXT
  8
LAYER_2
 10
331.0652
 20
53.9129
 11
331.0652
 21
53.9129
 40
3.3492
 41
0.5
 50
89.99999999
  1
460
  0
POLYLINE
  8
LAYER_2
 40
0.1058
 41
0.1058
 66
1
 10
0
 20
0
 30
0
  0
VERTEX
  8
LAYER_2
 10
335.2854
 20
79.8163
  0
VERTEX
  8
LAYER_2
 10
335.2854
 20
84.5756
  0
SEQEND
  0
POLYLINE
  8
LAYER_2
 40
0.1058
 41
0.1058
 66
1
 10
0
 20
0
 30
0
  0
VERTEX
  8
LAYER_2
 10
395.285
 20
79.8163
  0
VERTEX
  8
LAYER_2
 10
395.285
 20
84.5756
  0
SEQEND
  0
POLYLINE
  8
LAYER_2
 40
0.1058
 41
0.1058
 66
1
 10
0
 20
0
 30
0
  0
VERTEX
  8
LAYER_2
 10
336.7678
 20
84.4587
  0
VERTEX
  8
LAYER_2
 10
362.4761
 20
84.4587
  0
SEQEND
  0
POLYLINE
  8
LAYER_2
 40
0.1058
 41
0.1058
 66
1
 10
0
 20
0
 30
0
  0
VERTEX
  8
LAYER_2
 10
393.8026
 20
84.4587
  0
VERTEX
  8
LAYER_2
 10
368.1332
 20
84.4587
  0
SEQEND
  0
POLYLINE
  8
LAYER_2
 40
0.05
 41
0.05
 66
1
 10
0
 20
0
 30
0
 70
1
  0
VERTEX
  8
LAYER_2
 10
336.7678
 20
84.6928
  0
VERTEX
  8
LAYER_2
 10
336.7678
 20
84.2247
  0
VERTEX
  8
LAYER_2
 10
335.2854
 20
84.4586
  0
SEQEND
  0
POLYLINE
  8
LAYER_2
 40
0.0882
 41
0.0882
 66
1
 10
0
 20
0
 30
0
 70
1
  0
VERTEX
  8
LAYER_2
 10
336.7678
 20
84.6928
  0
VERTEX
  8
LAYER_2
 10
336.7678
 20
84.2247
  0
VERTEX
  8
LAYER_2
 10
335.2854
 20
84.4586
  0
SEQEND
  0
POLYLINE
  8
LAYER_2
 40
0.05
 41
0.05
 66
1
 10
0
 20
0
 30
0
 70
1
  0
VERTEX
  8
LAYER_2
 10
393.8026
 20
84.6928
  0
VERTEX
  8
LAYER_2
 10
393.8026
 20
84.2247
  0
VERTEX
  8
LAYER_2
 10
395.2849
 20
84.4586
  0
SEQEND
  0
POLYLINE
  8
LAYER_2
 40
0.0882
 41
0.0882
 66
1
 10
0
 20
0
 30
0
 70
1
  0
VERTEX
  8
LAYER_2
 10
393.8026
 20
84.6928
  0
VERTEX
  8
LAYER_2
 10
393.8026
 20
84.2247
  0
VERTEX
  8
LAYER_2
 10
395.2849
 20
84.4586
  0
SEQEND
  0
TEXT
  8
LAYER_2
 10
362.3984
 20
83.1003
 11
362.3984
 21
83.1003
 40
3.3492
 41
0.5
  1
600
  0
POLYLINE
  8
LAYER_2
 40
0.1058
 41
0.1058
 66
1
 10
0
 20
0
 30
0
  0
VERTEX
  8
LAYER_2
 10
395.285
 20
79.8163
  0
VERTEX
  8
LAYER_2
 10
395.285
 20
84.5756
  0
SEQEND
  0
POLYLINE
  8
LAYER_2
 40
0.1058
 41
0.1058
 66
1
 10
0
 20
0
 30
0
  0
VERTEX
  8
LAYER_2
 10
393.8026
 20
84.4587
  0
VERTEX
  8
LAYER_2
 10
392.2812
 20
84.4587
  0
SEQEND
  0
POLYLINE
  8
LAYER_2
 40
0.1058
 41
0.1058
 66
1
 10
0
 20
0
 30
0
  0
VERTEX
  8
LAYER_2
 10
395.285
 20
84.4587
  0
VERTEX
  8
LAYER_2
 10
395.5192
 20
84.4587
  0
SEQEND
  0
POLYLINE
  8
LAYER_2
 40
0.05
 41
0.05
 66
1
 10
0
 20
0
 30
0
 70
1
  0
VERTEX
  8
LAYER_2
 10
393.8026
 20
84.6928
  0
VERTEX
  8
LAYER_2
 10
393.8026
 20
84.2247
  0
VERTEX
  8
LAYER_2
 10
395.2849
 20
84.4586
  0
SEQEND
  0
POLYLINE
  8
LAYER_2
 40
0.0882
 41
0.0882
 66
1
 10
0
 20
0
 30
0
 70
1
  0
VERTEX
  8
LAYER_2
 10
393.8026
 20
84.6928
  0
VERTEX
  8
LAYER_2
 10
393.8026
 20
84.2247
  0
VERTEX
  8
LAYER_2
 10
395.2849
 20
84.4586
  0
SEQEND
  0
POLYLINE
  8
LAYER_2
 40
0.1058
 41
0.1058
 66
1
 10
0
 20
0
 30
0
  0
VERTEX
  8
LAYER_2
 10
357.795
 20
58.8282
  0
VERTEX
  8
LAYER_2
 10
357.795
 20
58.8672
  0
SEQEND
  0
POLYLINE
  8
LAYER_2
 40
0.1058
 41
0.1058
 66
1
 10
0
 20
0
 30
0
  0
VERTEX
  8
LAYER_2
 10
335.2854
 20
54.732
  0
VERTEX
  8
LAYER_2
 10
335.2854
 20
58.867
  0
SEQEND
  0
POLYLINE
  8
LAYER_2
 40
0.1058
 41
0.1058
 66
1
 10
0
 20
0
 30
0
  0
VERTEX
  8
LAYER_2
 10
356.2735
 20
58.7501
  0
VERTEX
  8
LAYER_2
 10
349.4076
 20
58.7501
  0
SEQEND
  0
POLYLINE
  8
LAYER_2
 40
0.1058
 41
0.1058
 66
1
 10
0
 20
0
 30
0
  0
VERTEX
  8
LAYER_2
 10
336.7678
 20
58.7501
  0
VERTEX
  8
LAYER_2
 10
343.6728
 20
58.7501
  0
SEQEND
  0
POLYLINE
  8
LAYER_2
 40
0.05
 41
0.05
 66
1
 10
0
 20
0
 30
0
 70
1
  0
VERTEX
  8
LAYER_2
 10
356.2735
 20
59.0232
  0
VERTEX
  8
LAYER_2
 10
356.2735
 20
58.5163
  0
VERTEX
  8
LAYER_2
 10
357.7949
 20
58.75
  0
SEQEND
  0
POLYLINE
  8
LAYER_2
 40
0.0882
 41
0.0882
 66
1
 10
0
 20
0
 30
0
 70
1
  0
VERTEX
  8
LAYER_2
 10
356.2735
 20
59.0232
  0
VERTEX
  8
LAYER_2
 10
356.2735
 20
58.5163
  0
VERTEX
  8
LAYER_2
 10
357.7949
 20
58.75
  0
SEQEND
  0
POLYLINE
  8
LAYER_2
 40
0.05
 41
0.05
 66
1
 10
0
 20
0
 30
0
 70
1
  0
VERTEX
  8
LAYER_2
 10
336.7678
 20
59.0232
  0
VERTEX
  8
LAYER_2
 10
336.7678
 20
58.5163
  0
VERTEX
  8
LAYER_2
 10
335.2854
 20
58.75
  0
SEQEND
  0
POLYLINE
  8
LAYER_2
 40
0.0882
 41
0.0882
 66
1
 10
0
 20
0
 30
0
 70
1
  0
VERTEX
  8
LAYER_2
 10
336.7678
 20
59.0232
  0
VERTEX
  8
LAYER_2
 10
336.7678
 20
58.5163
  0
VERTEX
  8
LAYER_2
 10
335.2854
 20
58.75
  0
SEQEND
  0
TEXT
  8
LAYER_2
 10
343.634
 20
57.3916
 11
343.634
 21
57.3916
 40
3.3492
 41
0.5
  1
225
  0
POLYLINE
  8
LAYER_2
 40
0.1058
 41
0.1058
 66
1
 10
0
 20
0
 30
0
  0
VERTEX
  8
LAYER_2
 10
357.795
 20
58.8282
  0
VERTEX
  8
LAYER_2
 10
357.795
 20
58.8672
  0
SEQEND
  0
POLYLINE
  8
LAYER_2
 40
0.1058
 41
0.1058
 66
1
 10
0
 20
0
 30
0
  0
VERTEX
  8
LAYER_2
 10
395.285
 20
58.8282
  0
VERTEX
  8
LAYER_2
 10
395.285
 20
58.8672
  0
SEQEND
  0
POLYLINE
  8
LAYER_2
 40
0.1058
 41
0.1058
 66
1
 10
0
 20
0
 30
0
  0
VERTEX
  8
LAYER_2
 10
359.2774
 20
58.7501
  0
VERTEX
  8
LAYER_2
 10
377.0998
 20
58.7501
  0
SEQEND
  0
POLYLINE
  8
LAYER_2
 40
0.1058
 41
0.1058
 66
1
 10
0
 20
0
 30
0
  0
VERTEX
  8
LAYER_2
 10
393.8026
 20
58.7501
  0
VERTEX
  8
LAYER_2
 10
384.1553
 20
58.7501
  0
SEQEND
  0
POLYLINE
  8
LAYER_2
 40
0.05
 41
0.05
 66
1
 10
0
 20
0
 30
0
 70
1
  0
VERTEX
  8
LAYER_2
 10
359.2774
 20
59.0232
  0
VERTEX
  8
LAYER_2
 10
359.2774
 20
58.5163
  0
VERTEX
  8
LAYER_2
 10
357.795
 20
58.75
  0
SEQEND
  0
POLYLINE
  8
LAYER_2
 40
0.0882
 41
0.0882
 66
1
 10
0
 20
0
 30
0
 70
1
  0
VERTEX
  8
LAYER_2
 10
359.2774
 20
59.0232
  0
VERTEX
  8
LAYER_2
 10
359.2774
 20
58.5163
  0
VERTEX
  8
LAYER_2
 10
357.795
 20
58.75
  0
SEQEND
  0
POLYLINE
  8
LAYER_2
 40
0.05
 41
0.05
 66
1
 10
0
 20
0
 30
0
 70
1
  0
VERTEX
  8
LAYER_2
 10
393.8026
 20
59.0232
  0
VERTEX
  8
LAYER_2
 10
393.8026
 20
58.5163
  0
VERTEX
  8
LAYER_2
 10
395.2849
 20
58.75
  0
SEQEND
  0
POLYLINE
  8
LAYER_2
 40
0.0882
 41
0.0882
 66
1
 10
0
 20
0
 30
0
 70
1
  0
VERTEX
  8
LAYER_2
 10
393.8026
 20
59.0232
  0
VERTEX
  8
LAYER_2
 10
393.8026
 20
58.5163
  0
VERTEX
  8
LAYER_2
 10
395.2849
 20
58.75
  0
SEQEND
  0
TEXT
  8
LAYER_2
 10
378.3375
 20
57.3916
 11
378.3375
 21
57.3916
 40
3.3492
 41
0.5
  1
375
  0
POLYLINE
  8
LAYER_2
 40
0.1058
 41
0.1058
 66
1
 10
0
 20
0
 30
0
  0
VERTEX
  8
LAYER_2
 10
335.2854
 20
84.4587
  0
VERTEX
  8
LAYER_2
 10
335.2854
 20
79.7773
  0
VERTEX
  8
LAYER_2
 10
329.7459
 20
79.7773
  0
SEQEND
  0
POLYLINE
  8
LAYER_2
 40
0.1058
 41
0.1058
 66
1
 10
0
 20
0
 30
0
  0
VERTEX
  8
LAYER_2
 10
395.285
 20
84.4587
  0
VERTEX
  8
LAYER_2
 10
395.285
 20
79.7773
  0
SEQEND
  0
POLYLINE
  8
LAYER_2
 40
0.1058
 41
0.1058
 66
1
 10
0
 20
0
 30
0
  0
VERTEX
  8
LAYER_2
 10
329.7458
 20
33.7438
  0
VERTEX
  8
LAYER_2
 10
335.7926
 20
33.7438
  0
SEQEND
  0
ENDSEC
  0
EOF
