  0
SECTION
  2
HEADER
  9
$ACADVER
  1
AC1009
  9
$LUNITS
 70
2
  9
$LUPREC
 70
4
  9
$LTSCALE
 40
1.0
  9
$EXTMIN
 10
-30.3177
 20
33.3285
 30
0
  9
$EXTMAX
 10
251.6749
 20
230.337
 30
0
  0
ENDSEC
  0
SECTION
  2
TABLES
  0
TABLE
  2
LTYPE
 70
256
  0
LTYPE
  2
AIGENLINE001
 70
64
  3
generate AI->DXF Converter
 72
65
 73
2
 40
1.3998
 49
0.6999
 49
-0.6999
  0
LTYPE
  2
AIGENLINE002
 70
64
  3
generate AI->DXF Converter
 72
65
 73
2
 40
1.4292
 49
0.7146
 49
-0.7146
  0
LTYPE
  2
AIGENLINE003
 70
64
  3
generate AI->DXF Converter
 72
65
 73
2
 40
1.3313
 49
0.6657
 49
-0.6657
  0
LTYPE
  2
AIGENLINE004
 70
64
  3
generate AI->DXF Converter
 72
65
 73
2
 40
1.4405
 49
0.7203
 49
-0.7203
  0
LTYPE
  2
AIGENLINE005
 70
64
  3
generate AI->DXF Converter
 72
65
 73
2
 40
1.3971
 49
0.6985
 49
-0.6985
  0
LTYPE
  2
AIGENLINE006
 70
64
  3
generate AI->DXF Converter
 72
65
 73
2
 40
1.3881
 49
0.6941
 49
-0.6941
  0
LTYPE
  2
AIGENLINE007
 70
64
  3
generate AI->DXF Converter
 72
65
 73
2
 40
1.4135
 49
0.7067
 49
-0.7067
  0
LTYPE
  2
AIGENLINE008
 70
64
  3
generate AI->DXF Converter
 72
65
 73
2
 40
1.3914
 49
0.6957
 49
-0.6957
  0
LTYPE
  2
AIGENLINE009
 70
64
  3
generate AI->DXF Converter
 72
65
 73
2
 40
1.431
 49
0.7155
 49
-0.7155
  0
LTYPE
  2
AIGENLINE010
 70
64
  3
generate AI->DXF Converter
 72
65
 73
2
 40
1.3267
 49
0.6634
 49
-0.6634
  0
ENDTAB
  0
TABLE
  2
LAYER
 70
3
  0
LAYER
  2
LAYER_1
 70
64
 62
7
  6
CONTINUOUS
  0
LAYER
  2
LAYER_2
 70
64
 62
7
  6
CONTINUOUS
  0
LAYER
  2
LAYER_3
 70
64
 62
7
  6
CONTINUOUS
  0
ENDTAB
  0
TABLE
  2
STYLE
 70
6
  0
STYLE
  2
STANDARD
 70
0
 40
0
 50
0
 71
0
 41
0
 42
0
  3
TXT
  4
BIGFONT
  0
ENDTAB
  0
ENDSEC
  0
SECTION
  2
BLOCKS
  0
BLOCK
  8
LAYER_3
  2
AIGNBL03040009
 70
64
 10
0
 20
0
 30
0
  3
AIGNBL03040009
  0
POLYLINE
  8
LAYER_3
 40
0.05
 41
0.05
 66
1
 10
0
 20
0
 30
0
 70
1
  0
VERTEX
  8
LAYER_3
 10
146.7545
 20
39.1418
  0
VERTEX
  8
LAYER_3
 10
146.2656
 20
37.9567
  0
VERTEX
  8
LAYER_3
 10
145.6376
 20
37.9567
  0
VERTEX
  8
LAYER_3
 10
147.2372
 20
41.7225
  0
VERTEX
  8
LAYER_3
 10
147.9703
 20
41.7225
  0
VERTEX
  8
LAYER_3
 10
149.5768
 20
37.9567
  0
VERTEX
  8
LAYER_3
 10
148.9267
 20
37.9567
  0
VERTEX
  8
LAYER_3
 10
148.424
 20
39.1418
  0
SEQEND
  0
POLYLINE
  8
LAYER_3
 40
0.05
 41
0.05
 66
1
 10
0
 20
0
 30
0
 70
1
  0
VERTEX
  8
LAYER_3
 10
148.2983
 20
39.5207
  0
VERTEX
  8
LAYER_3
 10
147.8373
 20
40.6056
  0
VERTEX
  8
LAYER_3
 10
147.5927
 20
41.2926
  0
VERTEX
  8
LAYER_3
 10
147.5789
 20
41.2926
  0
VERTEX
  8
LAYER_3
 10
147.3412
 20
40.6101
  0
VERTEX
  8
LAYER_3
 10
146.8806
 20
39.5207
  0
SEQEND
  0
ENDBLK
  0
BLOCK
  8
LAYER_3
  2
AIGNBL0304000A
 70
64
 10
0
 20
0
 30
0
  3
AIGNBL0304000A
  0
POLYLINE
  8
LAYER_3
 40
0.05
 41
0.05
 66
1
 10
0
 20
0
 30
0
 70
1
  0
VERTEX
  8
LAYER_3
 10
153.942
 20
37.4034
 42
-0.01557776889
  0
VERTEX
  8
LAYER_3
 10
152.1399
 20
37.8395
  0
VERTEX
  8
LAYER_3
 10
151.8533
 20
37.895
 42
-0.08356586593
  0
VERTEX
  8
LAYER_3
 10
150.9892
 20
38.0612
 42
-0.09749891868
  0
VERTEX
  8
LAYER_3
 10
150.3281
 20
38.4671
 42
-0.2129139625
  0
VERTEX
  8
LAYER_3
 10
149.7793
 20
39.7998
 42
-0.09685063121
  0
VERTEX
  8
LAYER_3
 10
149.9239
 20
40.5732
 42
-0.2046489378
  0
VERTEX
  8
LAYER_3
 10
150.9715
 20
41.5974
 42
-0.09824326873
  0
VERTEX
  8
LAYER_3
 10
151.9725
 20
41.7838
 42
-0.08554303155
  0
VERTEX
  8
LAYER_3
 10
152.8411
 20
41.6425
 42
-0.100439485
  0
VERTEX
  8
LAYER_3
 10
153.5062
 20
41.2483
 42
-0.2140965971
  0
VERTEX
  8
LAYER_3
 10
154.0815
 20
39.8784
 42
-0.09539620281
  0
VERTEX
  8
LAYER_3
 10
153.9426
 20
39.1106
 42
-0.2143310008
  0
VERTEX
  8
LAYER_3
 10
152.9198
 20
38.1321
 42
-0.02339132607
  0
VERTEX
  8
LAYER_3
 10
152.7407
 20
38.0738
  0
VERTEX
  8
LAYER_3
 10
152.7407
 20
38.0514
 42
0.01711818545
  0
VERTEX
  8
LAYER_3
 10
154.117
 20
37.8113
  0
SEQEND
  0
POLYLINE
  8
LAYER_3
 40
0.05
 41
0.05
 66
1
 10
0
 20
0
 30
0
 70
1
  0
VERTEX
  8
LAYER_3
 10
153.4394
 20
39.857
 42
0.1071643265
  0
VERTEX
  8
LAYER_3
 10
153.2881
 20
40.5618
 42
0.2976270581
  0
VERTEX
  8
LAYER_3
 10
151.9511
 20
41.3873
 42
0.1072356843
  0
VERTEX
  8
LAYER_3
 10
151.2613
 20
41.2478
 42
0.2385874916
  0
VERTEX
  8
LAYER_3
 10
150.4743
 20
40.2422
 42
0.05751786987
  0
VERTEX
  8
LAYER_3
 10
150.4287
 20
39.8122
 42
0.218058121
  0
VERTEX
  8
LAYER_3
 10
150.9593
 20
38.6168
 42
0.1772828752
  0
VERTEX
  8
LAYER_3
 10
151.9232
 20
38.2912
 42
0.1075205619
  0
VERTEX
  8
LAYER_3
 10
152.6045
 20
38.4302
 42
0.2370768657
  0
VERTEX
  8
LAYER_3
 10
153.3917
 20
39.4298
 42
0.05602139055
  0
SEQEND
  0
ENDBLK
  0
BLOCK
  8
LAYER_3
  2
AIGNBL0304000B
 70
64
 10
0
 20
0
 30
0
  3
AIGNBL0304000B
  0
POLYLINE
  8
LAYER_3
 40
0.05
 41
0.05
 66
1
 10
0
 20
0
 30
0
 70
1
  0
VERTEX
  8
LAYER_3
 10
155.4089
 20
41.7225
  0
VERTEX
  8
LAYER_3
 10
155.4089
 20
39.4932
 42
0.114533087
  0
VERTEX
  8
LAYER_3
 10
155.5428
 20
38.8274
 42
0.1464774934
  0
VERTEX
  8
LAYER_3
 10
155.8932
 20
38.4422
 42
0.1362552487
  0
VERTEX
  8
LAYER_3
 10
156.5055
 20
38.2912
 42
0.1219300979
  0
VERTEX
  8
LAYER_3
 10
157.1286
 20
38.4259
 42
0.1503016186
  0
VERTEX
  8
LAYER_3
 10
157.5004
 20
38.7949
 42
0.1256239276
  0
VERTEX
  8
LAYER_3
 10
157.651
 20
39.4932
  0
VERTEX
  8
LAYER_3
 10
157.651
 20
41.7225
  0
VERTEX
  8
LAYER_3
 10
158.2656
 20
41.7225
  0
VERTEX
  8
LAYER_3
 10
158.2656
 20
39.5266
 42
-0.09996665729
  0
VERTEX
  8
LAYER_3
 10
158.1307
 20
38.7839
 42
-0.1215019567
  0
VERTEX
  8
LAYER_3
 10
157.7575
 20
38.2772
 42
-0.1106305922
  0
VERTEX
  8
LAYER_3
 10
157.132
 20
37.9706
 42
-0.06128719854
  0
VERTEX
  8
LAYER_3
 10
156.4845
 20
37.895
 42
-0.0941826643
  0
VERTEX
  8
LAYER_3
 10
155.6654
 20
38.0331
 42
-0.2431541134
  0
VERTEX
  8
LAYER_3
 10
154.8618
 20
38.9438
 42
-0.06321248355
  0
VERTEX
  8
LAYER_3
 10
154.7943
 20
39.5045
  0
VERTEX
  8
LAYER_3
 10
154.7943
 20
41.7225
  0
SEQEND
  0
ENDBLK
  0
BLOCK
  8
LAYER_3
  2
AIGNBL0304000C
 70
64
 10
0
 20
0
 30
0
  3
AIGNBL0304000C
  0
POLYLINE
  8
LAYER_3
 40
0.05
 41
0.05
 66
1
 10
0
 20
0
 30
0
 70
1
  0
VERTEX
  8
LAYER_3
 10
160.0119
 20
39.1418
  0
VERTEX
  8
LAYER_3
 10
159.5227
 20
37.9567
  0
VERTEX
  8
LAYER_3
 10
158.8947
 20
37.9567
  0
VERTEX
  8
LAYER_3
 10
160.4939
 20
41.7225
  0
VERTEX
  8
LAYER_3
 10
161.227
 20
41.7225
  0
VERTEX
  8
LAYER_3
 10
162.8335
 20
37.9567
  0
VERTEX
  8
LAYER_3
 10
162.1841
 20
37.9567
  0
VERTEX
  8
LAYER_3
 10
161.6814
 20
39.1418
  0
SEQEND
  0
POLYLINE
  8
LAYER_3
 40
0.05
 41
0.05
 66
1
 10
0
 20
0
 30
0
 70
1
  0
VERTEX
  8
LAYER_3
 10
161.5553
 20
39.5207
  0
VERTEX
  8
LAYER_3
 10
161.094
 20
40.6056
  0
VERTEX
  8
LAYER_3
 10
160.8494
 20
41.2926
  0
VERTEX
  8
LAYER_3
 10
160.8357
 20
41.2926
  0
VERTEX
  8
LAYER_3
 10
160.5983
 20
40.6101
  0
VERTEX
  8
LAYER_3
 10
160.1373
 20
39.5207
  0
SEQEND
  0
ENDBLK
  0
BLOCK
  8
LAYER_3
  2
AIGNBL0304000D
 70
64
 10
0
 20
0
 30
0
  3
AIGNBL0304000D
  0
POLYLINE
  8
LAYER_3
 40
0.05
 41
0.05
 66
1
 10
0
 20
0
 30
0
 70
1
  0
VERTEX
  8
LAYER_3
 10
163.8742
 20
41.6777
 42
-0.03245918394
  0
VERTEX
  8
LAYER_3
 10
165.0411
 20
41.7508
 42
-0.08084226265
  0
VERTEX
  8
LAYER_3
 10
165.9975
 20
41.619
 42
-0.07815635113
  0
VERTEX
  8
LAYER_3
 10
166.3609
 20
41.4379
 42
-0.2484709269
  0
VERTEX
  8
LAYER_3
 10
166.7726
 20
40.6497
 42
-0.226147
  0
VERTEX
  8
LAYER_3
 10
166.4095
 20
39.8456
 42
-0.1096895144
  0
VERTEX
  8
LAYER_3
 10
165.7812
 20
39.5323
 42
-0.06565832551
  0
VERTEX
  8
LAYER_3
 10
164.9708
 20
39.4319
 42
-0.06238309955
  0
VERTEX
  8
LAYER_3
 10
164.4823
 20
39.4653
  0
VERTEX
  8
LAYER_3
 10
164.4823
 20
37.9567
  0
VERTEX
  8
LAYER_3
 10
163.8742
 20
37.9567
  0
SEQEND
  0
POLYLINE
  8
LAYER_3
 40
0.05
 41
0.05
 66
1
 10
0
 20
0
 30
0
 70
1
  0
VERTEX
  8
LAYER_3
 10
164.4823
 20
39.8622
 42
0.04203451964
  0
VERTEX
  8
LAYER_3
 10
164.9846
 20
39.8229
 42
0.1032111168
  0
VERTEX
  8
LAYER_3
 10
165.7038
 20
39.9502
 42
0.1555938032
  0
VERTEX
  8
LAYER_3
 10
166.0686
 20
40.2546
 42
0.1352673748
  0
VERTEX
  8
LAYER_3
 10
166.1656
 20
40.6273
 42
0.1737047371
  0
VERTEX
  8
LAYER_3
 10
166.0308
 20
41.0346
 42
0.1517050813
  0
VERTEX
  8
LAYER_3
 10
165.6097
 20
41.2941
 42
0.06879756253
  0
VERTEX
  8
LAYER_3
 10
165.0552
 20
41.3649
 42
0.0634356619
  0
VERTEX
  8
LAYER_3
 10
164.4823
 20
41.3257
  0
SEQEND
  0
ENDBLK
  0
BLOCK
  8
LAYER_3
  2
AIGNBL0304000E
 70
64
 10
0
 20
0
 30
0
  3
AIGNBL0304000E
  0
POLYLINE
  8
LAYER_3
 40
0.05
 41
0.05
 66
1
 10
0
 20
0
 30
0
 70
1
  0
VERTEX
  8
LAYER_3
 10
168.3246
 20
41.4207
 42
-0.2767461975
  0
VERTEX
  8
LAYER_3
 10
168.1851
 20
41.1806
 42
-0.1265294091
  0
VERTEX
  8
LAYER_3
 10
167.9329
 20
41.1189
 42
-0.2237518698
  0
VERTEX
  8
LAYER_3
 10
167.6226
 20
41.2513
 42
-0.1708341408
  0
VERTEX
  8
LAYER_3
 10
167.5626
 20
41.4207
 42
-0.2643879937
  0
VERTEX
  8
LAYER_3
 10
167.712
 20
41.6678
 42
-0.1290073663
  0
VERTEX
  8
LAYER_3
 10
167.9467
 20
41.7277
 42
-0.225342086
  0
VERTEX
  8
LAYER_3
 10
168.2635
 20
41.597
 42
-0.1691136206
  0
SEQEND
  0
POLYLINE
  8
LAYER_3
 40
0.05
 41
0.05
 66
1
 10
0
 20
0
 30
0
 70
1
  0
VERTEX
  8
LAYER_3
 10
167.639
 20
37.9567
  0
VERTEX
  8
LAYER_3
 10
167.639
 20
40.6607
  0
VERTEX
  8
LAYER_3
 10
168.2537
 20
40.6607
  0
VERTEX
  8
LAYER_3
 10
168.2537
 20
37.9567
  0
SEQEND
  0
ENDBLK
  0
BLOCK
  8
LAYER_3
  2
AIGNBL0304000F
 70
64
 10
0
 20
0
 30
0
  3
AIGNBL0304000F
  0
POLYLINE
  8
LAYER_3
 40
0.05
 41
0.05
 66
1
 10
0
 20
0
 30
0
 70
1
  0
VERTEX
  8
LAYER_3
 10
170.1254
 20
39.1418
  0
VERTEX
  8
LAYER_3
 10
169.6372
 20
37.9567
  0
VERTEX
  8
LAYER_3
 10
169.0081
 20
37.9567
  0
VERTEX
  8
LAYER_3
 10
170.6077
 20
41.7225
  0
VERTEX
  8
LAYER_3
 10
171.3415
 20
41.7225
  0
VERTEX
  8
LAYER_3
 10
172.9479
 20
37.9567
  0
VERTEX
  8
LAYER_3
 10
172.2982
 20
37.9567
  0
VERTEX
  8
LAYER_3
 10
171.7955
 20
39.1418
  0
SEQEND
  0
POLYLINE
  8
LAYER_3
 40
0.05
 41
0.05
 66
1
 10
0
 20
0
 30
0
 70
1
  0
VERTEX
  8
LAYER_3
 10
171.6695
 20
39.5207
  0
VERTEX
  8
LAYER_3
 10
171.2085
 20
40.6056
  0
VERTEX
  8
LAYER_3
 10
170.9646
 20
41.2926
  0
VERTEX
  8
LAYER_3
 10
170.9498
 20
41.2926
  0
VERTEX
  8
LAYER_3
 10
170.7128
 20
40.6101
  0
VERTEX
  8
LAYER_3
 10
170.2518
 20
39.5207
  0
SEQEND
  0
ENDBLK
  0
BLOCK
  8
LAYER_3
  2
AIGNBL03030008
 70
64
 10
0
 20
0
 30
0
  3
AIGNBL03030008
  0
INSERT
  8
LAYER_3
  2
AIGNBL03040009
 10
0
 20
0
 30
0
  0
INSERT
  8
LAYER_3
  2
AIGNBL0304000A
 10
0
 20
0
 30
0
  0
INSERT
  8
LAYER_3
  2
AIGNBL0304000B
 10
0
 20
0
 30
0
  0
INSERT
  8
LAYER_3
  2
AIGNBL0304000C
 10
0
 20
0
 30
0
  0
INSERT
  8
LAYER_3
  2
AIGNBL0304000D
 10
0
 20
0
 30
0
  0
INSERT
  8
LAYER_3
  2
AIGNBL0304000E
 10
0
 20
0
 30
0
  0
INSERT
  8
LAYER_3
  2
AIGNBL0304000F
 10
0
 20
0
 30
0
  0
ENDBLK
  0
BLOCK
  8
LAYER_3
  2
AIGNBL03030011
 70
64
 10
0
 20
0
 30
0
  3
AIGNBL03030011
  0
POLYLINE
  8
LAYER_3
 40
0.05
 41
0.05
 66
1
 10
0
 20
0
 30
0
 70
1
  0
VERTEX
  8
LAYER_3
 10
145.7475
 20
36.0574
  0
VERTEX
  8
LAYER_3
 10
146.3008
 20
36.0574
  0
VERTEX
  8
LAYER_3
 10
146.3008
 20
35.9637
  0
VERTEX
  8
LAYER_3
 10
145.6424
 20
35.9637
  0
VERTEX
  8
LAYER_3
 10
145.6424
 20
36.9969
  0
VERTEX
  8
LAYER_3
 10
146.2832
 20
36.9969
  0
VERTEX
  8
LAYER_3
 10
146.2832
 20
36.9035
  0
VERTEX
  8
LAYER_3
 10
145.7475
 20
36.9035
  0
VERTEX
  8
LAYER_3
 10
145.7475
 20
36.549
  0
VERTEX
  8
LAYER_3
 10
146.2481
 20
36.549
  0
VERTEX
  8
LAYER_3
 10
146.2481
 20
36.4557
  0
VERTEX
  8
LAYER_3
 10
145.7475
 20
36.4557
  0
SEQEND
  0
ENDBLK
  0
BLOCK
  8
LAYER_3
  2
AIGNBL03030012
 70
64
 10
0
 20
0
 30
0
  3
AIGNBL03030012
  0
POLYLINE
  8
LAYER_3
 40
0.05
 41
0.05
 66
1
 10
0
 20
0
 30
0
 70
1
  0
VERTEX
  8
LAYER_3
 10
147.4404
 20
36.117
  0
VERTEX
  8
LAYER_3
 10
147.4432
 20
36.117
  0
VERTEX
  8
LAYER_3
 10
147.4432
 20
36.9969
  0
VERTEX
  8
LAYER_3
 10
147.5483
 20
36.9969
  0
VERTEX
  8
LAYER_3
 10
147.5483
 20
35.9637
  0
VERTEX
  8
LAYER_3
 10
147.4174
 20
35.9637
  0
VERTEX
  8
LAYER_3
 10
146.8162
 20
36.8525
  0
VERTEX
  8
LAYER_3
 10
146.8127
 20
36.8525
  0
VERTEX
  8
LAYER_3
 10
146.8127
 20
35.9637
  0
VERTEX
  8
LAYER_3
 10
146.708
 20
35.9637
  0
VERTEX
  8
LAYER_3
 10
146.708
 20
36.9969
  0
VERTEX
  8
LAYER_3
 10
146.8393
 20
36.9969
  0
SEQEND
  0
ENDBLK
  0
BLOCK
  8
LAYER_3
  2
AIGNBL03030013
 70
64
 10
0
 20
0
 30
0
  3
AIGNBL03030013
  0
POLYLINE
  8
LAYER_3
 40
0.05
 41
0.05
 66
1
 10
0
 20
0
 30
0
 70
1
  0
VERTEX
  8
LAYER_3
 10
148.0213
 20
36.1756
  0
VERTEX
  8
LAYER_3
 10
148.0757
 20
36.0725
 42
0.1803975231
  0
VERTEX
  8
LAYER_3
 10
148.1891
 20
36.0309
  0
VERTEX
  8
LAYER_3
 10
148.2783
 20
36.0505
  0
VERTEX
  8
LAYER_3
 10
148.3344
 20
36.1039
  0
VERTEX
  8
LAYER_3
 10
148.3634
 20
36.1804
  0
VERTEX
  8
LAYER_3
 10
148.3717
 20
36.27
  0
VERTEX
  8
LAYER_3
 10
148.3717
 20
36.9969
  0
VERTEX
  8
LAYER_3
 10
148.4767
 20
36.9969
  0
VERTEX
  8
LAYER_3
 10
148.4767
 20
36.2614
  0
VERTEX
  8
LAYER_3
 10
148.4654
 20
36.1535
  0
VERTEX
  8
LAYER_3
 10
148.424
 20
36.0485
  0
VERTEX
  8
LAYER_3
 10
148.3393
 20
35.9689
  0
VERTEX
  8
LAYER_3
 10
148.2004
 20
35.9375
 42
-0.1845231376
  0
VERTEX
  8
LAYER_3
 10
148.0158
 20
35.9974
 42
-0.1765285731
  0
VERTEX
  8
LAYER_3
 10
147.9234
 20
36.149
  0
SEQEND
  0
ENDBLK
  0
BLOCK
  8
LAYER_3
  2
AIGNBL03030014
 70
64
 10
0
 20
0
 30
0
  3
AIGNBL03030014
  0
POLYLINE
  8
LAYER_3
 40
0.05
 41
0.05
 66
1
 10
0
 20
0
 30
0
 70
1
  0
VERTEX
  8
LAYER_3
 10
149.965
 20
36.4805
 42
-0.1041417444
  0
VERTEX
  8
LAYER_3
 10
149.924
 20
36.2631
 42
-0.10057123
  0
VERTEX
  8
LAYER_3
 10
149.8113
 20
36.0915
  0
VERTEX
  8
LAYER_3
 10
149.6405
 20
35.9785
 42
-0.0950295922
  0
VERTEX
  8
LAYER_3
 10
149.4265
 20
35.9375
 42
-0.1010765979
  0
VERTEX
  8
LAYER_3
 10
149.2129
 20
35.9785
 42
-0.1000570207
  0
VERTEX
  8
LAYER_3
 10
149.042
 20
36.0915
 42
-0.09442769366
  0
VERTEX
  8
LAYER_3
 10
148.9287
 20
36.2631
 42
-0.09293305267
  0
VERTEX
  8
LAYER_3
 10
148.8881
 20
36.4805
 42
-0.1024980643
  0
VERTEX
  8
LAYER_3
 10
148.9287
 20
36.6978
 42
-0.1008832254
  0
VERTEX
  8
LAYER_3
 10
149.042
 20
36.8694
 42
-0.09625117665
  0
VERTEX
  8
LAYER_3
 10
149.2129
 20
36.9824
 42
-0.0952064105
  0
VERTEX
  8
LAYER_3
 10
149.4265
 20
37.0234
 42
-0.1012184087
  0
VERTEX
  8
LAYER_3
 10
149.6405
 20
36.9824
 42
-0.09890806396
  0
VERTEX
  8
LAYER_3
 10
149.8113
 20
36.8694
 42
-0.09577200427
  0
VERTEX
  8
LAYER_3
 10
149.924
 20
36.6978
 42
-0.09400765476
  0
SEQEND
  0
POLYLINE
  8
LAYER_3
 40
0.05
 41
0.05
 66
1
 10
0
 20
0
 30
0
 70
1
  0
VERTEX
  8
LAYER_3
 10
149.8541
 20
36.4798
  0
VERTEX
  8
LAYER_3
 10
149.8251
 20
36.6517
  0
VERTEX
  8
LAYER_3
 10
149.7404
 20
36.795
  0
VERTEX
  8
LAYER_3
 10
149.6053
 20
36.8932
  0
VERTEX
  8
LAYER_3
 10
149.4265
 20
36.93
  0
VERTEX
  8
LAYER_3
 10
149.2478
 20
36.8932
  0
VERTEX
  8
LAYER_3
 10
149.113
 20
36.795
  0
VERTEX
  8
LAYER_3
 10
149.0283
 20
36.6517
  0
VERTEX
  8
LAYER_3
 10
148.999
 20
36.4798
  0
VERTEX
  8
LAYER_3
 10
149.0283
 20
36.3079
  0
VERTEX
  8
LAYER_3
 10
149.113
 20
36.1649
  0
VERTEX
  8
LAYER_3
 10
149.2478
 20
36.0674
 42
0.1008814383
  0
VERTEX
  8
LAYER_3
 10
149.4265
 20
36.0309
 42
0.1157330551
  0
VERTEX
  8
LAYER_3
 10
149.6053
 20
36.0674
  0
VERTEX
  8
LAYER_3
 10
149.7404
 20
36.1649
  0
VERTEX
  8
LAYER_3
 10
149.8251
 20
36.3079
  0
SEQEND
  0
ENDBLK
  0
BLOCK
  8
LAYER_3
  2
AIGNBL03030015
 70
64
 10
0
 20
0
 30
0
  3
AIGNBL03030015
  0
POLYLINE
  8
LAYER_3
 40
0.05
 41
0.05
 66
1
 10
0
 20
0
 30
0
 70
1
  0
VERTEX
  8
LAYER_3
 10
150.7398
 20
35.9637
  0
VERTEX
  8
LAYER_3
 10
150.6351
 20
35.9637
  0
VERTEX
  8
LAYER_3
 10
150.6351
 20
36.4091
  0
VERTEX
  8
LAYER_3
 10
150.2482
 20
36.9969
  0
VERTEX
  8
LAYER_3
 10
150.3795
 20
36.9969
  0
VERTEX
  8
LAYER_3
 10
150.6905
 20
36.4967
  0
VERTEX
  8
LAYER_3
 10
151.0041
 20
36.9969
  0
VERTEX
  8
LAYER_3
 10
151.1263
 20
36.9969
  0
VERTEX
  8
LAYER_3
 10
150.7398
 20
36.4091
  0
SEQEND
  0
ENDBLK
  0
BLOCK
  8
LAYER_3
  2
AIGNBL03030016
 70
64
 10
0
 20
0
 30
0
  3
AIGNBL03030016
  0
POLYLINE
  8
LAYER_3
 40
0.05
 41
0.05
 66
1
 10
0
 20
0
 30
0
 70
1
  0
VERTEX
  8
LAYER_3
 10
152.0314
 20
36.9969
  0
VERTEX
  8
LAYER_3
 10
152.339
 20
36.9969
  0
VERTEX
  8
LAYER_3
 10
152.4575
 20
36.9845
  0
VERTEX
  8
LAYER_3
 10
152.5643
 20
36.9421
  0
VERTEX
  8
LAYER_3
 10
152.6422
 20
36.8611
  0
VERTEX
  8
LAYER_3
 10
152.6718
 20
36.733
 42
-0.1790346201
  0
VERTEX
  8
LAYER_3
 10
152.6219
 20
36.5907
 42
-0.1642933266
  0
VERTEX
  8
LAYER_3
 10
152.4885
 20
36.5111
  0
VERTEX
  8
LAYER_3
 10
152.4885
 20
36.5084
 42
-0.1735805246
  0
VERTEX
  8
LAYER_3
 10
152.6553
 20
36.4302
 42
-0.1921994171
  0
VERTEX
  8
LAYER_3
 10
152.7214
 20
36.2496
  0
VERTEX
  8
LAYER_3
 10
152.6942
 20
36.1325
  0
VERTEX
  8
LAYER_3
 10
152.6181
 20
36.0419
  0
VERTEX
  8
LAYER_3
 10
152.4972
 20
35.9844
  0
VERTEX
  8
LAYER_3
 10
152.3373
 20
35.9637
  0
VERTEX
  8
LAYER_3
 10
152.0314
 20
35.9637
  0
SEQEND
  0
POLYLINE
  8
LAYER_3
 40
0.05
 41
0.05
 66
1
 10
0
 20
0
 30
0
 70
1
  0
VERTEX
  8
LAYER_3
 10
152.1364
 20
36.5445
  0
VERTEX
  8
LAYER_3
 10
152.348
 20
36.5445
  0
VERTEX
  8
LAYER_3
 10
152.4248
 20
36.5535
  0
VERTEX
  8
LAYER_3
 10
152.4951
 20
36.5831
  0
VERTEX
  8
LAYER_3
 10
152.5471
 20
36.6396
  0
VERTEX
  8
LAYER_3
 10
152.5668
 20
36.7258
  0
VERTEX
  8
LAYER_3
 10
152.5471
 20
36.8095
  0
VERTEX
  8
LAYER_3
 10
152.494
 20
36.8656
  0
VERTEX
  8
LAYER_3
 10
152.4152
 20
36.897
  0
VERTEX
  8
LAYER_3
 10
152.3187
 20
36.9066
  0
VERTEX
  8
LAYER_3
 10
152.1364
 20
36.9066
  0
SEQEND
  0
POLYLINE
  8
LAYER_3
 40
0.05
 41
0.05
 66
1
 10
0
 20
0
 30
0
 70
1
  0
VERTEX
  8
LAYER_3
 10
152.1364
 20
36.0543
  0
VERTEX
  8
LAYER_3
 10
152.3321
 20
36.0543
  0
VERTEX
  8
LAYER_3
 10
152.4406
 20
36.0653
  0
VERTEX
  8
LAYER_3
 10
152.5313
 20
36.1001
  0
VERTEX
  8
LAYER_3
 10
152.5929
 20
36.1632
  0
VERTEX
  8
LAYER_3
 10
152.6164
 20
36.2559
 42
0.2557371221
  0
VERTEX
  8
LAYER_3
 10
152.5471
 20
36.4081
 42
0.1381508151
  0
VERTEX
  8
LAYER_3
 10
152.3511
 20
36.4584
  0
VERTEX
  8
LAYER_3
 10
152.1364
 20
36.4584
  0
SEQEND
  0
ENDBLK
  0
BLOCK
  8
LAYER_3
  2
AIGNBL03030017
 70
64
 10
0
 20
0
 30
0
  3
AIGNBL03030017
  0
POLYLINE
  8
LAYER_3
 40
0.05
 41
0.05
 66
1
 10
0
 20
0
 30
0
 70
1
  0
VERTEX
  8
LAYER_3
 10
153.1534
 20
35.9637
  0
VERTEX
  8
LAYER_3
 10
153.038
 20
35.9637
  0
VERTEX
  8
LAYER_3
 10
153.4849
 20
36.9969
  0
VERTEX
  8
LAYER_3
 10
153.5872
 20
36.9969
  0
VERTEX
  8
LAYER_3
 10
154.0306
 20
35.9637
  0
VERTEX
  8
LAYER_3
 10
153.9138
 20
35.9637
  0
VERTEX
  8
LAYER_3
 10
153.7997
 20
36.2352
  0
VERTEX
  8
LAYER_3
 10
153.2657
 20
36.2352
  0
SEQEND
  0
POLYLINE
  8
LAYER_3
 40
0.05
 41
0.05
 66
1
 10
0
 20
0
 30
0
 70
1
  0
VERTEX
  8
LAYER_3
 10
153.305
 20
36.3316
  0
VERTEX
  8
LAYER_3
 10
153.7604
 20
36.3316
  0
VERTEX
  8
LAYER_3
 10
153.5327
 20
36.8804
  0
SEQEND
  0
ENDBLK
  0
BLOCK
  8
LAYER_3
  2
AIGNBL03030018
 70
64
 10
0
 20
0
 30
0
  3
AIGNBL03030018
  0
POLYLINE
  8
LAYER_3
 40
0.05
 41
0.05
 66
1
 10
0
 20
0
 30
0
 70
1
  0
VERTEX
  8
LAYER_3
 10
154.7151
 20
35.9637
  0
VERTEX
  8
LAYER_3
 10
154.61
 20
35.9637
  0
VERTEX
  8
LAYER_3
 10
154.61
 20
36.9035
  0
VERTEX
  8
LAYER_3
 10
154.2638
 20
36.9035
  0
VERTEX
  8
LAYER_3
 10
154.2638
 20
36.9969
  0
VERTEX
  8
LAYER_3
 10
155.0606
 20
36.9969
  0
VERTEX
  8
LAYER_3
 10
155.0606
 20
36.9035
  0
VERTEX
  8
LAYER_3
 10
154.7151
 20
36.9035
  0
SEQEND
  0
ENDBLK
  0
BLOCK
  8
LAYER_3
  2
AIGNBL03030019
 70
64
 10
0
 20
0
 30
0
  3
AIGNBL03030019
  0
POLYLINE
  8
LAYER_3
 40
0.05
 41
0.05
 66
1
 10
0
 20
0
 30
0
 70
1
  0
VERTEX
  8
LAYER_3
 10
155.4169
 20
36.9969
  0
VERTEX
  8
LAYER_3
 10
155.5216
 20
36.9969
  0
VERTEX
  8
LAYER_3
 10
155.5216
 20
36.549
  0
VERTEX
  8
LAYER_3
 10
156.0852
 20
36.549
  0
VERTEX
  8
LAYER_3
 10
156.0852
 20
36.9969
  0
VERTEX
  8
LAYER_3
 10
156.1903
 20
36.9969
  0
VERTEX
  8
LAYER_3
 10
156.1903
 20
35.9637
  0
VERTEX
  8
LAYER_3
 10
156.0852
 20
35.9637
  0
VERTEX
  8
LAYER_3
 10
156.0852
 20
36.4529
  0
VERTEX
  8
LAYER_3
 10
155.5216
 20
36.4529
  0
VERTEX
  8
LAYER_3
 10
155.5216
 20
35.9637
  0
VERTEX
  8
LAYER_3
 10
155.4169
 20
35.9637
  0
SEQEND
  0
ENDBLK
  0
BLOCK
  8
LAYER_3
  2
AIGNBL0303001A
 70
64
 10
0
 20
0
 30
0
  3
AIGNBL0303001A
  0
POLYLINE
  8
LAYER_3
 40
0.05
 41
0.05
 66
1
 10
0
 20
0
 30
0
 70
1
  0
VERTEX
  8
LAYER_3
 10
156.7708
 20
35.9637
  0
VERTEX
  8
LAYER_3
 10
156.6657
 20
35.9637
  0
VERTEX
  8
LAYER_3
 10
156.6657
 20
36.9969
  0
VERTEX
  8
LAYER_3
 10
156.9696
 20
36.9969
  0
VERTEX
  8
LAYER_3
 10
157.1101
 20
36.9824
  0
VERTEX
  8
LAYER_3
 10
157.2228
 20
36.9349
  0
VERTEX
  8
LAYER_3
 10
157.2962
 20
36.8494
  0
VERTEX
  8
LAYER_3
 10
157.3223
 20
36.7213
  0
VERTEX
  8
LAYER_3
 10
157.3024
 20
36.6176
  0
VERTEX
  8
LAYER_3
 10
157.2469
 20
36.5366
  0
VERTEX
  8
LAYER_3
 10
157.1635
 20
36.4818
  0
VERTEX
  8
LAYER_3
 10
157.0585
 20
36.4557
  0
VERTEX
  8
LAYER_3
 10
157.3606
 20
35.9637
  0
VERTEX
  8
LAYER_3
 10
157.2321
 20
35.9637
  0
VERTEX
  8
LAYER_3
 10
156.9461
 20
36.4467
  0
VERTEX
  8
LAYER_3
 10
156.7708
 20
36.4467
  0
SEQEND
  0
POLYLINE
  8
LAYER_3
 40
0.05
 41
0.05
 66
1
 10
0
 20
0
 30
0
 70
1
  0
VERTEX
  8
LAYER_3
 10
156.7708
 20
36.5373
  0
VERTEX
  8
LAYER_3
 10
156.9534
 20
36.5373
 42
0.165389034
  0
VERTEX
  8
LAYER_3
 10
157.1491
 20
36.5831
 42
0.2500512188
  0
VERTEX
  8
LAYER_3
 10
157.2176
 20
36.7213
  0
VERTEX
  8
LAYER_3
 10
157.1983
 20
36.8071
  0
VERTEX
  8
LAYER_3
 10
157.146
 20
36.8643
  0
VERTEX
  8
LAYER_3
 10
157.0643
 20
36.8963
  0
VERTEX
  8
LAYER_3
 10
156.9578
 20
36.9066
  0
VERTEX
  8
LAYER_3
 10
156.7708
 20
36.9066
  0
SEQEND
  0
ENDBLK
  0
BLOCK
  8
LAYER_3
  2
AIGNBL0303001B
 70
64
 10
0
 20
0
 30
0
  3
AIGNBL0303001B
  0
POLYLINE
  8
LAYER_3
 40
0.05
 41
0.05
 66
1
 10
0
 20
0
 30
0
 70
1
  0
VERTEX
  8
LAYER_3
 10
158.7627
 20
36.4805
 42
-0.1007216321
  0
VERTEX
  8
LAYER_3
 10
158.7221
 20
36.2631
 42
-0.1006914115
  0
VERTEX
  8
LAYER_3
 10
158.6087
 20
36.0915
 42
-0.09598545762
  0
VERTEX
  8
LAYER_3
 10
158.4382
 20
35.9785
 42
-0.09506675375
  0
VERTEX
  8
LAYER_3
 10
158.2243
 20
35.9375
 42
-0.1012083438
  0
VERTEX
  8
LAYER_3
 10
158.0103
 20
35.9785
 42
-0.1000476754
  0
VERTEX
  8
LAYER_3
 10
157.8398
 20
36.0915
 42
-0.09637642458
  0
VERTEX
  8
LAYER_3
 10
157.7268
 20
36.2631
 42
-0.09293305267
  0
VERTEX
  8
LAYER_3
 10
157.6862
 20
36.4805
 42
-0.1024980643
  0
VERTEX
  8
LAYER_3
 10
157.7268
 20
36.6978
 42
-0.101511181
  0
VERTEX
  8
LAYER_3
 10
157.8398
 20
36.8694
 42
-0.09563682649
  0
VERTEX
  8
LAYER_3
 10
158.0103
 20
36.9824
 42
-0.09502028874
  0
VERTEX
  8
LAYER_3
 10
158.2243
 20
37.0234
 42
-0.101175466
  0
VERTEX
  8
LAYER_3
 10
158.4382
 20
36.9824
 42
-0.1020868526
  0
VERTEX
  8
LAYER_3
 10
158.6087
 20
36.8694
 42
-0.09463764759
  0
VERTEX
  8
LAYER_3
 10
158.7221
 20
36.6978
 42
-0.09279149058
  0
SEQEND
  0
POLYLINE
  8
LAYER_3
 40
0.05
 41
0.05
 66
1
 10
0
 20
0
 30
0
 70
1
  0
VERTEX
  8
LAYER_3
 10
158.6518
 20
36.4798
  0
VERTEX
  8
LAYER_3
 10
158.6225
 20
36.6517
  0
VERTEX
  8
LAYER_3
 10
158.5378
 20
36.795
  0
VERTEX
  8
LAYER_3
 10
158.4031
 20
36.8932
  0
VERTEX
  8
LAYER_3
 10
158.2243
 20
36.93
  0
VERTEX
  8
LAYER_3
 10
158.0455
 20
36.8932
  0
VERTEX
  8
LAYER_3
 10
157.9104
 20
36.795
  0
VERTEX
  8
LAYER_3
 10
157.8257
 20
36.6517
  0
VERTEX
  8
LAYER_3
 10
157.7968
 20
36.4798
  0
VERTEX
  8
LAYER_3
 10
157.8257
 20
36.3079
  0
VERTEX
  8
LAYER_3
 10
157.9104
 20
36.1649
  0
VERTEX
  8
LAYER_3
 10
158.0455
 20
36.0674
 42
0.1008280473
  0
VERTEX
  8
LAYER_3
 10
158.2243
 20
36.0309
  0
VERTEX
  8
LAYER_3
 10
158.4031
 20
36.0674
  0
VERTEX
  8
LAYER_3
 10
158.5378
 20
36.1649
  0
VERTEX
  8
LAYER_3
 10
158.6225
 20
36.3079
  0
SEQEND
  0
ENDBLK
  0
BLOCK
  8
LAYER_3
  2
AIGNBL0303001C
 70
64
 10
0
 20
0
 30
0
  3
AIGNBL0303001C
  0
POLYLINE
  8
LAYER_3
 40
0.05
 41
0.05
 66
1
 10
0
 20
0
 30
0
 70
1
  0
VERTEX
  8
LAYER_3
 10
160.2045
 20
36.4805
 42
-0.1041417444
  0
VERTEX
  8
LAYER_3
 10
160.1635
 20
36.2631
 42
-0.09974098701
  0
VERTEX
  8
LAYER_3
 10
160.0509
 20
36.0915
 42
-0.09536265516
  0
VERTEX
  8
LAYER_3
 10
159.88
 20
35.9785
 42
-0.09506675375
  0
VERTEX
  8
LAYER_3
 10
159.6661
 20
35.9375
 42
-0.1018653774
  0
VERTEX
  8
LAYER_3
 10
159.4524
 20
35.9785
 42
-0.1019766254
  0
VERTEX
  8
LAYER_3
 10
159.2816
 20
36.0915
 42
-0.09463339148
  0
VERTEX
  8
LAYER_3
 10
159.1682
 20
36.2631
 42
-0.09293305267
  0
VERTEX
  8
LAYER_3
 10
159.1276
 20
36.4805
 42
-0.1024980643
  0
VERTEX
  8
LAYER_3
 10
159.1682
 20
36.6978
 42
-0.1011981835
  0
VERTEX
  8
LAYER_3
 10
159.2816
 20
36.8694
 42
-0.09612009159
  0
VERTEX
  8
LAYER_3
 10
159.4524
 20
36.9824
 42
-0.09524800311
  0
VERTEX
  8
LAYER_3
 10
159.6661
 20
37.0234
 42
-0.101175466
  0
VERTEX
  8
LAYER_3
 10
159.88
 20
36.9824
 42
-0.09853409661
  0
VERTEX
  8
LAYER_3
 10
160.0509
 20
36.8694
 42
-0.09555545285
  0
VERTEX
  8
LAYER_3
 10
160.1635
 20
36.6978
 42
-0.09400765476
  0
SEQEND
  0
POLYLINE
  8
LAYER_3
 40
0.05
 41
0.05
 66
1
 10
0
 20
0
 30
0
 70
1
  0
VERTEX
  8
LAYER_3
 10
160.0936
 20
36.4798
  0
VERTEX
  8
LAYER_3
 10
160.0647
 20
36.6517
  0
VERTEX
  8
LAYER_3
 10
159.9799
 20
36.795
  0
VERTEX
  8
LAYER_3
 10
159.8448
 20
36.8932
  0
VERTEX
  8
LAYER_3
 10
159.6661
 20
36.93
  0
VERTEX
  8
LAYER_3
 10
159.4872
 20
36.8932
  0
VERTEX
  8
LAYER_3
 10
159.3525
 20
36.795
  0
VERTEX
  8
LAYER_3
 10
159.2678
 20
36.6517
  0
VERTEX
  8
LAYER_3
 10
159.2385
 20
36.4798
  0
VERTEX
  8
LAYER_3
 10
159.2678
 20
36.3079
  0
VERTEX
  8
LAYER_3
 10
159.3525
 20
36.1649
  0
VERTEX
  8
LAYER_3
 10
159.4872
 20
36.0674
  0
VERTEX
  8
LAYER_3
 10
159.6661
 20
36.0309
  0
VERTEX
  8
LAYER_3
 10
159.8448
 20
36.0674
  0
VERTEX
  8
LAYER_3
 10
159.9799
 20
36.1649
  0
VERTEX
  8
LAYER_3
 10
160.0647
 20
36.3079
  0
SEQEND
  0
ENDBLK
  0
BLOCK
  8
LAYER_3
  2
AIGNBL0303001D
 70
64
 10
0
 20
0
 30
0
  3
AIGNBL0303001D
  0
POLYLINE
  8
LAYER_3
 40
0.05
 41
0.05
 66
1
 10
0
 20
0
 30
0
 70
1
  0
VERTEX
  8
LAYER_3
 10
161.1354
 20
36.1418
  0
VERTEX
  8
LAYER_3
 10
161.1371
 20
36.1418
  0
VERTEX
  8
LAYER_3
 10
161.4826
 20
36.9969
  0
VERTEX
  8
LAYER_3
 10
161.6435
 20
36.9969
  0
VERTEX
  8
LAYER_3
 10
161.6435
 20
35.9637
  0
VERTEX
  8
LAYER_3
 10
161.5381
 20
35.9637
  0
VERTEX
  8
LAYER_3
 10
161.5381
 20
36.8611
  0
VERTEX
  8
LAYER_3
 10
161.5354
 20
36.8611
  0
VERTEX
  8
LAYER_3
 10
161.1619
 20
35.9637
  0
VERTEX
  8
LAYER_3
 10
161.1064
 20
35.9637
  0
VERTEX
  8
LAYER_3
 10
160.7326
 20
36.8611
  0
VERTEX
  8
LAYER_3
 10
160.7299
 20
36.8611
  0
VERTEX
  8
LAYER_3
 10
160.7299
 20
35.9637
  0
VERTEX
  8
LAYER_3
 10
160.6248
 20
35.9637
  0
VERTEX
  8
LAYER_3
 10
160.6248
 20
36.9969
  0
VERTEX
  8
LAYER_3
 10
160.7853
 20
36.9969
  0
SEQEND
  0
ENDBLK
  0
BLOCK
  8
LAYER_3
  2
AIGNBL0303001E
 70
64
 10
0
 20
0
 30
0
  3
AIGNBL0303001E
  0
POLYLINE
  8
LAYER_3
 40
0.05
 41
0.05
 66
1
 10
0
 20
0
 30
0
 70
1
  0
VERTEX
  8
LAYER_3
 10
162.79
 20
36.0574
  0
VERTEX
  8
LAYER_3
 10
163.3433
 20
36.0574
  0
VERTEX
  8
LAYER_3
 10
163.3433
 20
35.9637
  0
VERTEX
  8
LAYER_3
 10
162.685
 20
35.9637
  0
VERTEX
  8
LAYER_3
 10
162.685
 20
36.9969
  0
VERTEX
  8
LAYER_3
 10
163.3258
 20
36.9969
  0
VERTEX
  8
LAYER_3
 10
163.3258
 20
36.9035
  0
VERTEX
  8
LAYER_3
 10
162.79
 20
36.9035
  0
VERTEX
  8
LAYER_3
 10
162.79
 20
36.549
  0
VERTEX
  8
LAYER_3
 10
163.2906
 20
36.549
  0
VERTEX
  8
LAYER_3
 10
163.2906
 20
36.4557
  0
VERTEX
  8
LAYER_3
 10
162.79
 20
36.4557
  0
SEQEND
  0
ENDBLK
  0
BLOCK
  8
LAYER_3
  2
AIGNBL0303001F
 70
64
 10
0
 20
0
 30
0
  3
AIGNBL0303001F
  0
POLYLINE
  8
LAYER_3
 40
0.05
 41
0.05
 66
1
 10
0
 20
0
 30
0
 70
1
  0
VERTEX
  8
LAYER_3
 10
164.0885
 20
36.5797
  0
VERTEX
  8
LAYER_3
 10
164.3707
 20
36.9969
  0
VERTEX
  8
LAYER_3
 10
164.4957
 20
36.9969
  0
VERTEX
  8
LAYER_3
 10
164.1533
 20
36.5053
  0
VERTEX
  8
LAYER_3
 10
164.5326
 20
35.9637
  0
VERTEX
  8
LAYER_3
 10
164.4013
 20
35.9637
  0
VERTEX
  8
LAYER_3
 10
164.0858
 20
36.4295
  0
VERTEX
  8
LAYER_3
 10
163.7722
 20
35.9637
  0
VERTEX
  8
LAYER_3
 10
163.6407
 20
35.9637
  0
VERTEX
  8
LAYER_3
 10
164.0203
 20
36.5066
  0
VERTEX
  8
LAYER_3
 10
163.6744
 20
36.9969
  0
VERTEX
  8
LAYER_3
 10
163.806
 20
36.9969
  0
SEQEND
  0
ENDBLK
  0
BLOCK
  8
LAYER_3
  2
AIGNBL03030020
 70
64
 10
0
 20
0
 30
0
  3
AIGNBL03030020
  0
POLYLINE
  8
LAYER_3
 40
0.05
 41
0.05
 66
1
 10
0
 20
0
 30
0
 70
1
  0
VERTEX
  8
LAYER_3
 10
164.8988
 20
36.9969
  0
VERTEX
  8
LAYER_3
 10
165.1909
 20
36.9969
  0
VERTEX
  8
LAYER_3
 10
165.3339
 20
36.9804
  0
VERTEX
  8
LAYER_3
 10
165.4438
 20
36.929
  0
VERTEX
  8
LAYER_3
 10
165.5148
 20
36.8429
  0
VERTEX
  8
LAYER_3
 10
165.5392
 20
36.7213
  0
VERTEX
  8
LAYER_3
 10
165.5141
 20
36.5993
  0
VERTEX
  8
LAYER_3
 10
165.4424
 20
36.5132
  0
VERTEX
  8
LAYER_3
 10
165.3315
 20
36.4615
  0
VERTEX
  8
LAYER_3
 10
165.1878
 20
36.444
  0
VERTEX
  8
LAYER_3
 10
165.0039
 20
36.444
  0
VERTEX
  8
LAYER_3
 10
165.0039
 20
35.9637
  0
VERTEX
  8
LAYER_3
 10
164.8988
 20
35.9637
  0
SEQEND
  0
POLYLINE
  8
LAYER_3
 40
0.05
 41
0.05
 66
1
 10
0
 20
0
 30
0
 70
1
  0
VERTEX
  8
LAYER_3
 10
165.0039
 20
36.5328
  0
VERTEX
  8
LAYER_3
 10
165.1816
 20
36.5328
 42
0.1829732243
  0
VERTEX
  8
LAYER_3
 10
165.3701
 20
36.581
 42
0.2345943979
  0
VERTEX
  8
LAYER_3
 10
165.4345
 20
36.7213
 42
0.26486771
  0
VERTEX
  8
LAYER_3
 10
165.368
 20
36.8622
 42
0.126412566
  0
VERTEX
  8
LAYER_3
 10
165.1816
 20
36.9066
  0
VERTEX
  8
LAYER_3
 10
165.0039
 20
36.9066
  0
SEQEND
  0
ENDBLK
  0
BLOCK
  8
LAYER_3
  2
AIGNBL03030021
 70
64
 10
0
 20
0
 30
0
  3
AIGNBL03030021
  0
POLYLINE
  8
LAYER_3
 40
0.05
 41
0.05
 66
1
 10
0
 20
0
 30
0
 70
1
  0
VERTEX
  8
LAYER_3
 10
166.0515
 20
36.0574
  0
VERTEX
  8
LAYER_3
 10
166.6048
 20
36.0574
  0
VERTEX
  8
LAYER_3
 10
166.6048
 20
35.9637
  0
VERTEX
  8
LAYER_3
 10
165.9465
 20
35.9637
  0
VERTEX
  8
LAYER_3
 10
165.9465
 20
36.9969
  0
VERTEX
  8
LAYER_3
 10
166.5872
 20
36.9969
  0
VERTEX
  8
LAYER_3
 10
166.5872
 20
36.9035
  0
VERTEX
  8
LAYER_3
 10
166.0515
 20
36.9035
  0
VERTEX
  8
LAYER_3
 10
166.0515
 20
36.549
  0
VERTEX
  8
LAYER_3
 10
166.5521
 20
36.549
  0
VERTEX
  8
LAYER_3
 10
166.5521
 20
36.4557
  0
VERTEX
  8
LAYER_3
 10
166.0515
 20
36.4557
  0
SEQEND
  0
ENDBLK
  0
BLOCK
  8
LAYER_3
  2
AIGNBL03030022
 70
64
 10
0
 20
0
 30
0
  3
AIGNBL03030022
  0
POLYLINE
  8
LAYER_3
 40
0.05
 41
0.05
 66
1
 10
0
 20
0
 30
0
 70
1
  0
VERTEX
  8
LAYER_3
 10
167.1168
 20
35.9637
  0
VERTEX
  8
LAYER_3
 10
167.0117
 20
35.9637
  0
VERTEX
  8
LAYER_3
 10
167.0117
 20
36.9969
  0
VERTEX
  8
LAYER_3
 10
167.3155
 20
36.9969
  0
VERTEX
  8
LAYER_3
 10
167.4561
 20
36.9824
  0
VERTEX
  8
LAYER_3
 10
167.5687
 20
36.9349
  0
VERTEX
  8
LAYER_3
 10
167.6425
 20
36.8494
  0
VERTEX
  8
LAYER_3
 10
167.6683
 20
36.7213
  0
VERTEX
  8
LAYER_3
 10
167.6483
 20
36.6176
  0
VERTEX
  8
LAYER_3
 10
167.5929
 20
36.5366
  0
VERTEX
  8
LAYER_3
 10
167.5095
 20
36.4818
  0
VERTEX
  8
LAYER_3
 10
167.4044
 20
36.4557
  0
VERTEX
  8
LAYER_3
 10
167.7066
 20
35.9637
  0
VERTEX
  8
LAYER_3
 10
167.578
 20
35.9637
  0
VERTEX
  8
LAYER_3
 10
167.2921
 20
36.4467
  0
VERTEX
  8
LAYER_3
 10
167.1168
 20
36.4467
  0
SEQEND
  0
POLYLINE
  8
LAYER_3
 40
0.05
 41
0.05
 66
1
 10
0
 20
0
 30
0
 70
1
  0
VERTEX
  8
LAYER_3
 10
167.1168
 20
36.5373
  0
VERTEX
  8
LAYER_3
 10
167.2994
 20
36.5373
 42
0.1667243505
  0
VERTEX
  8
LAYER_3
 10
167.495
 20
36.5831
 42
0.2503949893
  0
VERTEX
  8
LAYER_3
 10
167.5636
 20
36.7213
  0
VERTEX
  8
LAYER_3
 10
167.5446
 20
36.8071
  0
VERTEX
  8
LAYER_3
 10
167.4919
 20
36.8643
  0
VERTEX
  8
LAYER_3
 10
167.4103
 20
36.8963
  0
VERTEX
  8
LAYER_3
 10
167.3038
 20
36.9066
  0
VERTEX
  8
LAYER_3
 10
167.1168
 20
36.9066
  0
SEQEND
  0
ENDBLK
  0
BLOCK
  8
LAYER_3
  2
AIGNBL03030023
 70
64
 10
0
 20
0
 30
0
  3
AIGNBL03030023
  0
POLYLINE
  8
LAYER_3
 40
0.05
 41
0.05
 66
1
 10
0
 20
0
 30
0
 70
1
  0
VERTEX
  8
LAYER_3
 10
168.1923
 20
35.9637
  0
VERTEX
  8
LAYER_3
 10
168.0876
 20
35.9637
  0
VERTEX
  8
LAYER_3
 10
168.0876
 20
36.9969
  0
VERTEX
  8
LAYER_3
 10
168.1923
 20
36.9969
  0
SEQEND
  0
ENDBLK
  0
BLOCK
  8
LAYER_3
  2
AIGNBL03030024
 70
64
 10
0
 20
0
 30
0
  3
AIGNBL03030024
  0
POLYLINE
  8
LAYER_3
 40
0.05
 41
0.05
 66
1
 10
0
 20
0
 30
0
 70
1
  0
VERTEX
  8
LAYER_3
 10
168.7732
 20
36.0574
  0
VERTEX
  8
LAYER_3
 10
169.3261
 20
36.0574
  0
VERTEX
  8
LAYER_3
 10
169.3261
 20
35.9637
  0
VERTEX
  8
LAYER_3
 10
168.6681
 20
35.9637
  0
VERTEX
  8
LAYER_3
 10
168.6681
 20
36.9969
  0
VERTEX
  8
LAYER_3
 10
169.3089
 20
36.9969
  0
VERTEX
  8
LAYER_3
 10
169.3089
 20
36.9035
  0
VERTEX
  8
LAYER_3
 10
168.7732
 20
36.9035
  0
VERTEX
  8
LAYER_3
 10
168.7732
 20
36.549
  0
VERTEX
  8
LAYER_3
 10
169.2737
 20
36.549
  0
VERTEX
  8
LAYER_3
 10
169.2737
 20
36.4557
  0
VERTEX
  8
LAYER_3
 10
168.7732
 20
36.4557
  0
SEQEND
  0
ENDBLK
  0
BLOCK
  8
LAYER_3
  2
AIGNBL03030025
 70
64
 10
0
 20
0
 30
0
  3
AIGNBL03030025
  0
POLYLINE
  8
LAYER_3
 40
0.05
 41
0.05
 66
1
 10
0
 20
0
 30
0
 70
1
  0
VERTEX
  8
LAYER_3
 10
170.4661
 20
36.117
  0
VERTEX
  8
LAYER_3
 10
170.4689
 20
36.117
  0
VERTEX
  8
LAYER_3
 10
170.4689
 20
36.9969
  0
VERTEX
  8
LAYER_3
 10
170.5739
 20
36.9969
  0
VERTEX
  8
LAYER_3
 10
170.5739
 20
35.9637
  0
VERTEX
  8
LAYER_3
 10
170.4426
 20
35.9637
  0
VERTEX
  8
LAYER_3
 10
169.8415
 20
36.8525
  0
VERTEX
  8
LAYER_3
 10
169.8384
 20
36.8525
  0
VERTEX
  8
LAYER_3
 10
169.8384
 20
35.9637
  0
VERTEX
  8
LAYER_3
 10
169.7333
 20
35.9637
  0
VERTEX
  8
LAYER_3
 10
169.7333
 20
36.9969
  0
VERTEX
  8
LAYER_3
 10
169.8649
 20
36.9969
  0
SEQEND
  0
ENDBLK
  0
BLOCK
  8
LAYER_3
  2
AIGNBL03030026
 70
64
 10
0
 20
0
 30
0
  3
AIGNBL03030026
  0
POLYLINE
  8
LAYER_3
 40
0.05
 41
0.05
 66
1
 10
0
 20
0
 30
0
 70
1
  0
VERTEX
  8
LAYER_3
 10
171.9196
 20
36.1315
  0
VERTEX
  8
LAYER_3
 10
171.8558
 20
36.0571
  0
VERTEX
  8
LAYER_3
 10
171.7697
 20
35.9954
  0
VERTEX
  8
LAYER_3
 10
171.6615
 20
35.953
  0
VERTEX
  8
LAYER_3
 10
171.5327
 20
35.9375
 42
-0.1011939289
  0
VERTEX
  8
LAYER_3
 10
171.3167
 20
35.9785
 42
-0.1032846426
  0
VERTEX
  8
LAYER_3
 10
171.1461
 20
36.0915
 42
-0.0974858305
  0
VERTEX
  8
LAYER_3
 10
171.0345
 20
36.2631
 42
-0.09232404316
  0
VERTEX
  8
LAYER_3
 10
170.9942
 20
36.4805
 42
-0.1041003847
  0
VERTEX
  8
LAYER_3
 10
171.0352
 20
36.6978
 42
-0.1005616574
  0
VERTEX
  8
LAYER_3
 10
171.1479
 20
36.8694
 42
-0.09522588778
  0
VERTEX
  8
LAYER_3
 10
171.3187
 20
36.9824
 42
-0.09501991035
  0
VERTEX
  8
LAYER_3
 10
171.5327
 20
37.0234
  0
VERTEX
  8
LAYER_3
 10
171.6443
 20
37.0114
  0
VERTEX
  8
LAYER_3
 10
171.7473
 20
36.9779
  0
VERTEX
  8
LAYER_3
 10
171.8348
 20
36.9263
  0
VERTEX
  8
LAYER_3
 10
171.9006
 20
36.8584
  0
VERTEX
  8
LAYER_3
 10
171.8131
 20
36.794
  0
VERTEX
  8
LAYER_3
 10
171.7697
 20
36.8439
  0
VERTEX
  8
LAYER_3
 10
171.7063
 20
36.8877
  0
VERTEX
  8
LAYER_3
 10
171.6267
 20
36.9183
  0
VERTEX
  8
LAYER_3
 10
171.5341
 20
36.93
  0
VERTEX
  8
LAYER_3
 10
171.3539
 20
36.8935
  0
VERTEX
  8
LAYER_3
 10
171.2188
 20
36.7954
  0
VERTEX
  8
LAYER_3
 10
171.1341
 20
36.652
  0
VERTEX
  8
LAYER_3
 10
171.1052
 20
36.4805
  0
VERTEX
  8
LAYER_3
 10
171.1351
 20
36.3089
  0
VERTEX
  8
LAYER_3
 10
171.2205
 20
36.1656
  0
VERTEX
  8
LAYER_3
 10
171.3556
 20
36.0674
 42
0.100995487
  0
VERTEX
  8
LAYER_3
 10
171.5341
 20
36.0309
  0
VERTEX
  8
LAYER_3
 10
171.7032
 20
36.0674
 42
0.1321059012
  0
VERTEX
  8
LAYER_3
 10
171.8376
 20
36.1842
  0
SEQEND
  0
ENDBLK
  0
BLOCK
  8
LAYER_3
  2
AIGNBL03030027
 70
64
 10
0
 20
0
 30
0
  3
AIGNBL03030027
  0
POLYLINE
  8
LAYER_3
 40
0.05
 41
0.05
 66
1
 10
0
 20
0
 30
0
 70
1
  0
VERTEX
  8
LAYER_3
 10
172.4067
 20
36.0574
  0
VERTEX
  8
LAYER_3
 10
172.96
 20
36.0574
  0
VERTEX
  8
LAYER_3
 10
172.96
 20
35.9637
  0
VERTEX
  8
LAYER_3
 10
172.3016
 20
35.9637
  0
VERTEX
  8
LAYER_3
 10
172.3016
 20
36.9969
  0
VERTEX
  8
LAYER_3
 10
172.9424
 20
36.9969
  0
VERTEX
  8
LAYER_3
 10
172.9424
 20
36.9035
  0
VERTEX
  8
LAYER_3
 10
172.4067
 20
36.9035
  0
VERTEX
  8
LAYER_3
 10
172.4067
 20
36.549
  0
VERTEX
  8
LAYER_3
 10
172.9073
 20
36.549
  0
VERTEX
  8
LAYER_3
 10
172.9073
 20
36.4557
  0
VERTEX
  8
LAYER_3
 10
172.4067
 20
36.4557
  0
SEQEND
  0
ENDBLK
  0
BLOCK
  8
LAYER_3
  2
AIGNBL03020004
 70
64
 10
0
 20
0
 30
0
  3
AIGNBL03020004
  0
POLYLINE
  8
LAYER_3
 40
0.05
 41
0.05
 66
1
 10
0
 20
0
 30
0
  0
VERTEX
  8
LAYER_3
 10
-1.196
 20
217.6012
 42
-0.07434374488
  0
VERTEX
  8
LAYER_3
 10
-1.3046
 20
216.4751
 42
-0.1312981164
  0
VERTEX
  8
LAYER_3
 10
-1.5732
 20
216.0054
 42
-0.208619006
  0
VERTEX
  8
LAYER_3
 10
-2.3408
 20
215.7164
 42
-0.1980855618
  0
VERTEX
  8
LAYER_3
 10
-3.0956
 20
216.0054
 42
-0.1359059684
  0
VERTEX
  8
LAYER_3
 10
-3.3746
 20
216.5106
 42
-0.06699191066
  0
VERTEX
  8
LAYER_3
 10
-3.4732
 20
217.6012
 42
-0.07470238595
  0
VERTEX
  8
LAYER_3
 10
-3.3644
 20
218.7157
 42
-0.1310826725
  0
VERTEX
  8
LAYER_3
 10
-3.0956
 20
219.1845
 42
-0.2061520596
  0
VERTEX
  8
LAYER_3
 10
-2.3408
 20
219.4732
 42
-0.1977437771
  0
VERTEX
  8
LAYER_3
 10
-1.5732
 20
219.1845
 42
-0.1358673357
  0
VERTEX
  8
LAYER_3
 10
-1.2943
 20
218.6804
 42
-0.06720044206
  0
VERTEX
  8
LAYER_3
 10
-1.196
 20
217.6012
  0
SEQEND
  0
POLYLINE
  8
LAYER_3
 40
0.05
 41
0.05
 66
1
 10
0
 20
0
 30
0
  0
VERTEX
  8
LAYER_3
 10
0.4394
 20
217.6012
 42
0.0577585355
  0
VERTEX
  8
LAYER_3
 10
0.3194
 20
218.9609
 42
0.1358747382
  0
VERTEX
  8
LAYER_3
 10
-0.303
 20
220.1395
 42
0.1777268905
  0
VERTEX
  8
LAYER_3
 10
-1.8892
 20
220.9154
 42
0.03495822391
  0
VERTEX
  8
LAYER_3
 10
-2.3408
 20
220.9436
 42
0.07961804251
  0
VERTEX
  8
LAYER_3
 10
-3.315
 20
220.7962
 42
0.1217450219
  0
VERTEX
  8
LAYER_3
 10
-4.3662
 20
220.1395
 42
0.09150776818
  0
VERTEX
  8
LAYER_3
 10
-4.8465
 20
219.4067
 42
0.07735978812
  0
VERTEX
  8
LAYER_3
 10
-5.0776
 20
218.3847
 42
0.03281807239
  0
VERTEX
  8
LAYER_3
 10
-5.1082
 20
217.6012
 42
0.05725233541
  0
VERTEX
  8
LAYER_3
 10
-4.9885
 20
216.2362
 42
0.1359864428
  0
VERTEX
  8
LAYER_3
 10
-4.3662
 20
215.0504
 42
0.175204158
  0
VERTEX
  8
LAYER_3
 10
-2.7508
 20
214.2702
 42
0.03231924249
  0
VERTEX
  8
LAYER_3
 10
-2.3408
 20
214.2463
 42
0.07899302184
  0
VERTEX
  8
LAYER_3
 10
-1.3625
 20
214.3937
 42
0.1216861451
  0
VERTEX
  8
LAYER_3
 10
-0.303
 20
215.0504
 42
0.09340304456
  0
VERTEX
  8
LAYER_3
 10
0.1681
 20
215.7463
 42
0.0774645698
  0
VERTEX
  8
LAYER_3
 10
0.4017
 20
216.7223
 42
0.02212089617
  0
VERTEX
  8
LAYER_3
 10
0.4394
 20
217.6012
  0
SEQEND
  0
POLYLINE
  8
LAYER_3
 40
0.05
 41
0.05
 66
1
 10
0
 20
0
 30
0
  0
VERTEX
  8
LAYER_3
 10
-11.3166
 20
218.2044
  0
VERTEX
  8
LAYER_3
 10
-13.8074
 20
218.2044
 42
-0.1153546446
  0
VERTEX
  8
LAYER_3
 10
-13.6562
 20
218.9079
 42
-0.3007040875
  0
VERTEX
  8
LAYER_3
 10
-12.562
 20
219.5866
 42
-0.1235431447
  0
VERTEX
  8
LAYER_3
 10
-11.9621
 20
219.4464
 42
-0.1667603161
  0
VERTEX
  8
LAYER_3
 10
-11.4672
 20
218.9079
 42
-0.1143399212
  0
VERTEX
  8
LAYER_3
 10
-11.3166
 20
218.2044
  0
SEQEND
  0
POLYLINE
  8
LAYER_3
 40
0.05
 41
0.05
 66
1
 10
0
 20
0
 30
0
 70
1
  0
VERTEX
  8
LAYER_3
 10
-9.7064
 20
217.0861
  0
VERTEX
  8
LAYER_3
 10
-9.7064
 20
217.7772
 42
0.0677042249
  0
VERTEX
  8
LAYER_3
 10
-9.852
 20
218.9102
 42
0.07767771487
  0
VERTEX
  8
LAYER_3
 10
-10.2392
 20
219.7789
 42
0.1724975422
  0
VERTEX
  8
LAYER_3
 10
-11.5857
 20
220.7996
 42
0.07776532921
  0
VERTEX
  8
LAYER_3
 10
-12.562
 20
220.9436
 42
0.0796960513
  0
VERTEX
  8
LAYER_3
 10
-13.5247
 20
220.7966
 42
0.168887661
  0
VERTEX
  8
LAYER_3
 10
-14.846
 20
219.7874
 42
0.07658055294
  0
VERTEX
  8
LAYER_3
 10
-15.2466
 20
218.9066
 42
0.07097127065
  0
VERTEX
  8
LAYER_3
 10
-15.4177
 20
217.6012
 42
0.05685454964
  0
VERTEX
  8
LAYER_3
 10
-15.2934
 20
216.4004
 42
0.07540481703
  0
VERTEX
  8
LAYER_3
 10
-14.9492
 20
215.5069
 42
0.1774924504
  0
VERTEX
  8
LAYER_3
 10
-13.6777
 20
214.4527
 42
0.08958127581
  0
VERTEX
  8
LAYER_3
 10
-12.386
 20
214.2463
 42
0.07080596686
  0
VERTEX
  8
LAYER_3
 10
-11.2943
 20
214.3814
 42
0.08369033087
  0
VERTEX
  8
LAYER_3
 10
-10.4805
 20
214.7708
 42
0.04417423811
  0
VERTEX
  8
LAYER_3
 10
-9.8948
 20
215.2768
  0
VERTEX
  8
LAYER_3
 10
-10.8887
 20
216.2442
 42
-0.09875545259
  0
VERTEX
  8
LAYER_3
 10
-11.5612
 20
215.7667
 42
-0.1006814841
  0
VERTEX
  8
LAYER_3
 10
-12.3732
 20
215.6285
 42
-0.1070981108
  0
VERTEX
  8
LAYER_3
 10
-13.0555
 20
215.7638
 42
-0.2542521374
  0
VERTEX
  8
LAYER_3
 10
-13.7778
 20
216.7415
 42
-0.04997815034
  0
VERTEX
  8
LAYER_3
 10
-13.8074
 20
217.0861
  0
SEQEND
  0
POLYLINE
  8
LAYER_3
 40
0.05
 41
0.05
 66
1
 10
0
 20
0
 30
0
 70
1
  0
VERTEX
  8
LAYER_3
 10
-16.9018
 20
223.2773
  0
VERTEX
  8
LAYER_3
 10
-18.5517
 20
223.2773
  0
VERTEX
  8
LAYER_3
 10
-18.5517
 20
221.9454
  0
VERTEX
  8
LAYER_3
 10
-16.9018
 20
221.9454
  0
SEQEND
  0
POLYLINE
  8
LAYER_3
 40
0.05
 41
0.05
 66
1
 10
0
 20
0
 30
0
 70
1
  0
VERTEX
  8
LAYER_3
 10
-16.9146
 20
220.79
  0
VERTEX
  8
LAYER_3
 10
-18.5499
 20
220.79
  0
VERTEX
  8
LAYER_3
 10
-18.5499
 20
214.3218
  0
VERTEX
  8
LAYER_3
 10
-16.9146
 20
214.3218
  0
SEQEND
  0
POLYLINE
  8
LAYER_3
 40
0.05
 41
0.05
 66
1
 10
0
 20
0
 30
0
  0
VERTEX
  8
LAYER_3
 10
-19.8205
 20
215.1386
  0
VERTEX
  8
LAYER_3
 10
-20.9274
 20
216.2317
 42
-0.1123773458
  0
VERTEX
  8
LAYER_3
 10
-21.5025
 20
215.8017
 42
-0.09517045223
  0
VERTEX
  8
LAYER_3
 10
-21.984
 20
215.7164
 42
-0.2295666259
  0
VERTEX
  8
LAYER_3
 10
-22.9149
 20
216.1436
 42
-0.1146247369
  0
VERTEX
  8
LAYER_3
 10
-23.2025
 20
216.7765
 42
-0.05302023055
  0
VERTEX
  8
LAYER_3
 10
-23.2797
 20
217.6012
 42
-0.07909887362
  0
VERTEX
  8
LAYER_3
 10
-23.1547
 20
218.5928
 42
-0.092262399
  0
VERTEX
  8
LAYER_3
 10
-22.9149
 20
219.0461
 42
-0.2338488836
  0
VERTEX
  8
LAYER_3
 10
-21.984
 20
219.4732
 42
-0.128883052
  0
VERTEX
  8
LAYER_3
 10
-21.3835
 20
219.3322
 42
-0.07812769659
  0
VERTEX
  8
LAYER_3
 10
-20.9274
 20
218.9585
  0
VERTEX
  8
LAYER_3
 10
-19.8205
 20
220.0637
 42
0.170273791
  0
VERTEX
  8
LAYER_3
 10
-21.4399
 20
220.9062
 42
0.04126809408
  0
VERTEX
  8
LAYER_3
 10
-21.984
 20
220.9436
 42
0.07342899762
  0
VERTEX
  8
LAYER_3
 10
-22.9625
 20
220.804
 42
0.1715306153
  0
VERTEX
  8
LAYER_3
 10
-24.3547
 20
219.7917
 42
0.07792315428
  0
VERTEX
  8
LAYER_3
 10
-24.7438
 20
218.9398
 42
0.07121572719
  0
VERTEX
  8
LAYER_3
 10
-24.9151
 20
217.6012
 42
0.06071119945
  0
VERTEX
  8
LAYER_3
 10
-24.7811
 20
216.4004
 42
0.07599045696
  0
VERTEX
  8
LAYER_3
 10
-24.4186
 20
215.5069
 42
0.1707838222
  0
VERTEX
  8
LAYER_3
 10
-23.1195
 20
214.4409
 42
0.08917342928
  0
VERTEX
  8
LAYER_3
 10
-21.984
 20
214.2463
 42
0.07667723183
  0
VERTEX
  8
LAYER_3
 10
-21.0013
 20
214.3855
 42
0.1303789466
  0
VERTEX
  8
LAYER_3
 10
-19.8205
 20
215.1386
  0
SEQEND
  0
ENDBLK
  0
BLOCK
  8
LAYER_3
  2
AIGNBL03020005
 70
64
 10
0
 20
0
 30
0
  3
AIGNBL03020005
  0
POLYLINE
  8
LAYER_3
 40
0.05
 41
0.05
 66
1
 10
0
 20
0
 30
0
 70
1
  0
VERTEX
  8
LAYER_3
 10
0.3288
 20
212.6805
  0
VERTEX
  8
LAYER_3
 10
0.0009
 20
212.6805
  0
VERTEX
  8
LAYER_3
 10
-0.2479
 20
211.9109
  0
VERTEX
  8
LAYER_3
 10
-0.5066
 20
212.6805
  0
VERTEX
  8
LAYER_3
 10
-0.8342
 20
212.6805
  0
VERTEX
  8
LAYER_3
 10
-0.4084
 20
211.5234
  0
VERTEX
  8
LAYER_3
 10
-0.4611
 20
211.3704
 42
-0.396721792
  0
VERTEX
  8
LAYER_3
 10
-0.6165
 20
211.2581
  0
VERTEX
  8
LAYER_3
 10
-0.6882
 20
211.2581
  0
VERTEX
  8
LAYER_3
 10
-0.6882
 20
210.9783
  0
VERTEX
  8
LAYER_3
 10
-0.5662
 20
210.9783
 42
0.2067482179
  0
VERTEX
  8
LAYER_3
 10
-0.2985
 20
211.0741
  0
VERTEX
  8
LAYER_3
 10
-0.2048
 20
211.2343
  0
SEQEND
  0
POLYLINE
  8
LAYER_3
 40
0.05
 41
0.05
 66
1
 10
0
 20
0
 30
0
 70
1
  0
VERTEX
  8
LAYER_3
 10
-0.8704
 20
211.4352
  0
VERTEX
  8
LAYER_3
 10
-0.8704
 20
211.6977
  0
VERTEX
  8
LAYER_3
 10
-0.9899
 20
211.6977
 42
-0.4758158184
  0
VERTEX
  8
LAYER_3
 10
-1.0998
 20
211.8103
  0
VERTEX
  8
LAYER_3
 10
-1.0998
 20
213.137
  0
VERTEX
  8
LAYER_3
 10
-1.4109
 20
213.137
  0
VERTEX
  8
LAYER_3
 10
-1.4109
 20
211.7914
 42
0.4199153803
  0
VERTEX
  8
LAYER_3
 10
-1.0475
 20
211.4352
  0
SEQEND
  0
POLYLINE
  8
LAYER_3
 40
0.05
 41
0.05
 66
1
 10
0
 20
0
 30
0
 70
1
  0
VERTEX
  8
LAYER_3
 10
-1.9739
 20
211.894
 42
-0.2612643935
  0
VERTEX
  8
LAYER_3
 10
-2.0214
 20
211.7363
 42
-0.1972145384
  0
VERTEX
  8
LAYER_3
 10
-2.2057
 20
211.6763
 42
-0.4351815088
  0
VERTEX
  8
LAYER_3
 10
-2.3949
 20
211.8175
 42
-0.4650020324
  0
VERTEX
  8
LAYER_3
 10
-2.2105
 20
211.9609
  0
VERTEX
  8
LAYER_3
 10
-1.9739
 20
211.9609
  0
SEQEND
  0
POLYLINE
  8
LAYER_3
 40
0.05
 41
0.05
 66
1
 10
0
 20
0
 30
0
 70
1
  0
VERTEX
  8
LAYER_3
 10
-1.6624
 20
211.4352
  0
VERTEX
  8
LAYER_3
 10
-1.6624
 20
212.2551
 42
0.2205564812
  0
VERTEX
  8
LAYER_3
 10
-1.7881
 20
212.5772
 42
0.1806009816
  0
VERTEX
  8
LAYER_3
 10
-2.194
 20
212.6947
 42
0.2375604919
  0
VERTEX
  8
LAYER_3
 10
-2.6412
 20
212.5179
  0
VERTEX
  8
LAYER_3
 10
-2.4452
 20
212.3243
 42
-0.2464065653
  0
VERTEX
  8
LAYER_3
 10
-2.2057
 20
212.4322
 42
-0.4684872669
  0
VERTEX
  8
LAYER_3
 10
-1.9739
 20
212.2358
  0
VERTEX
  8
LAYER_3
 10
-1.9739
 20
212.1738
  0
VERTEX
  8
LAYER_3
 10
-2.2633
 20
212.1738
 42
0.2103132122
  0
VERTEX
  8
LAYER_3
 10
-2.6081
 20
212.0486
 42
0.18506809
  0
VERTEX
  8
LAYER_3
 10
-2.6942
 20
211.8127
 42
0.1945609364
  0
VERTEX
  8
LAYER_3
 10
-2.5912
 20
211.533
 42
0.1980708175
  0
VERTEX
  8
LAYER_3
 10
-2.2729
 20
211.4228
 42
0.2246292991
  0
VERTEX
  8
LAYER_3
 10
-1.9663
 20
211.5426
  0
VERTEX
  8
LAYER_3
 10
-1.9663
 20
211.4352
  0
SEQEND
  0
POLYLINE
  8
LAYER_3
 40
0.05
 41
0.05
 66
1
 10
0
 20
0
 30
0
 70
1
  0
VERTEX
  8
LAYER_3
 10
-2.8758
 20
211.4352
  0
VERTEX
  8
LAYER_3
 10
-2.8758
 20
211.6977
  0
VERTEX
  8
LAYER_3
 10
-2.9884
 20
211.6977
 42
-0.496954413
  0
VERTEX
  8
LAYER_3
 10
-3.0963
 20
211.8103
  0
VERTEX
  8
LAYER_3
 10
-3.0963
 20
212.4081
  0
VERTEX
  8
LAYER_3
 10
-2.8758
 20
212.4081
  0
VERTEX
  8
LAYER_3
 10
-2.8758
 20
212.6444
  0
VERTEX
  8
LAYER_3
 10
-3.0963
 20
212.6444
  0
VERTEX
  8
LAYER_3
 10
-3.0963
 20
213.0126
  0
VERTEX
  8
LAYER_3
 10
-3.407
 20
213.0126
  0
VERTEX
  8
LAYER_3
 10
-3.407
 20
212.6444
  0
VERTEX
  8
LAYER_3
 10
-3.539
 20
212.6444
  0
VERTEX
  8
LAYER_3
 10
-3.539
 20
212.4081
  0
VERTEX
  8
LAYER_3
 10
-3.407
 20
212.4081
  0
VERTEX
  8
LAYER_3
 10
-3.407
 20
211.7914
 42
0.4187763975
  0
VERTEX
  8
LAYER_3
 10
-3.0456
 20
211.4352
  0
SEQEND
  0
POLYLINE
  8
LAYER_3
 40
0.05
 41
0.05
 66
1
 10
0
 20
0
 30
0
 70
1
  0
VERTEX
  8
LAYER_3
 10
-3.8091
 20
213.137
  0
VERTEX
  8
LAYER_3
 10
-4.1419
 20
213.137
  0
VERTEX
  8
LAYER_3
 10
-4.1419
 20
211.4352
  0
VERTEX
  8
LAYER_3
 10
-3.8091
 20
211.4352
  0
SEQEND
  0
POLYLINE
  8
LAYER_3
 40
0.05
 41
0.05
 66
1
 10
0
 20
0
 30
0
 70
1
  0
VERTEX
  8
LAYER_3
 10
-5.0562
 20
211.4352
  0
VERTEX
  8
LAYER_3
 10
-5.0562
 20
212.231
 42
0.2135728393
  0
VERTEX
  8
LAYER_3
 10
-5.183
 20
212.5844
 42
0.1976836271
  0
VERTEX
  8
LAYER_3
 10
-5.4775
 20
212.6947
 42
0.2038428178
  0
VERTEX
  8
LAYER_3
 10
-5.7886
 20
212.5658
  0
VERTEX
  8
LAYER_3
 10
-5.7886
 20
212.6805
  0
VERTEX
  8
LAYER_3
 10
-6.0925
 20
212.6805
  0
VERTEX
  8
LAYER_3
 10
-6.0925
 20
211.4352
  0
VERTEX
  8
LAYER_3
 10
-5.7814
 20
211.4352
  0
VERTEX
  8
LAYER_3
 10
-5.7814
 20
212.1882
 42
-0.4265123439
  0
VERTEX
  8
LAYER_3
 10
-5.573
 20
212.4149
 42
-0.4361688158
  0
VERTEX
  8
LAYER_3
 10
-5.3673
 20
212.1882
  0
VERTEX
  8
LAYER_3
 10
-5.3673
 20
211.4352
  0
SEQEND
  0
POLYLINE
  8
LAYER_3
 40
0.05
 41
0.05
 66
1
 10
0
 20
0
 30
0
 70
1
  0
VERTEX
  8
LAYER_3
 10
-6.437
 20
213.1467
  0
VERTEX
  8
LAYER_3
 10
-6.7553
 20
213.1467
  0
VERTEX
  8
LAYER_3
 10
-6.7553
 20
212.8931
  0
VERTEX
  8
LAYER_3
 10
-6.437
 20
212.8931
  0
SEQEND
  0
POLYLINE
  8
LAYER_3
 40
0.05
 41
0.05
 66
1
 10
0
 20
0
 30
0
 70
1
  0
VERTEX
  8
LAYER_3
 10
-6.4394
 20
212.6444
  0
VERTEX
  8
LAYER_3
 10
-6.7508
 20
212.6444
  0
VERTEX
  8
LAYER_3
 10
-6.7508
 20
211.4352
  0
VERTEX
  8
LAYER_3
 10
-6.4394
 20
211.4352
  0
SEQEND
  0
POLYLINE
  8
LAYER_3
 40
0.05
 41
0.05
 66
1
 10
0
 20
0
 30
0
  0
VERTEX
  8
LAYER_3
 10
-7.8994
 20
212.1738
  0
VERTEX
  8
LAYER_3
 10
-8.3735
 20
212.1738
  0
VERTEX
  8
LAYER_3
 10
-8.3445
 20
212.3074
 42
-0.3006254692
  0
VERTEX
  8
LAYER_3
 10
-8.1365
 20
212.4363
 42
-0.3004502708
  0
VERTEX
  8
LAYER_3
 10
-7.9284
 20
212.3074
  0
VERTEX
  8
LAYER_3
 10
-7.8994
 20
212.1738
  0
SEQEND
  0
POLYLINE
  8
LAYER_3
 40
0.05
 41
0.05
 66
1
 10
0
 20
0
 30
0
 70
1
  0
VERTEX
  8
LAYER_3
 10
-7.5932
 20
211.9609
  0
VERTEX
  8
LAYER_3
 10
-7.5932
 20
212.0925
 42
0.1727949422
  0
VERTEX
  8
LAYER_3
 10
-7.7261
 20
212.5161
 42
0.2293242446
  0
VERTEX
  8
LAYER_3
 10
-8.1365
 20
212.6947
 42
0.4082688927
  0
VERTEX
  8
LAYER_3
 10
-8.6757
 20
212.151
 42
0.02665393029
  0
VERTEX
  8
LAYER_3
 10
-8.6797
 20
212.0591
 42
0.1685110564
  0
VERTEX
  8
LAYER_3
 10
-8.5537
 20
211.6061
 42
0.2404561047
  0
VERTEX
  8
LAYER_3
 10
-8.103
 20
211.4207
 42
0.2250390665
  0
VERTEX
  8
LAYER_3
 10
-7.629
 20
211.6167
  0
VERTEX
  8
LAYER_3
 10
-7.8181
 20
211.801
 42
-0.2242451699
  0
VERTEX
  8
LAYER_3
 10
-8.1003
 20
211.6839
 42
-0.4312737558
  0
VERTEX
  8
LAYER_3
 10
-8.3735
 20
211.9609
  0
SEQEND
  0
POLYLINE
  8
LAYER_3
 40
0.05
 41
0.05
 66
1
 10
0
 20
0
 30
0
  0
VERTEX
  8
LAYER_3
 10
-9.2778
 20
212.0591
 42
-0.253040373
  0
VERTEX
  8
LAYER_3
 10
-9.3737
 20
211.7317
 42
-0.1751487426
  0
VERTEX
  8
LAYER_3
 10
-9.4911
 20
211.7004
 42
-0.3550784466
  0
VERTEX
  8
LAYER_3
 10
-9.6774
 20
211.8331
 42
-0.1590539016
  0
VERTEX
  8
LAYER_3
 10
-9.7016
 20
212.0591
 42
-0.2613372193
  0
VERTEX
  8
LAYER_3
 10
-9.6054
 20
212.3859
 42
-0.1728730088
  0
VERTEX
  8
LAYER_3
 10
-9.4911
 20
212.4149
 42
-0.3508351005
  0
VERTEX
  8
LAYER_3
 10
-9.3031
 20
212.2839
 42
-0.1617280931
  0
VERTEX
  8
LAYER_3
 10
-9.2778
 20
212.0591
  0
SEQEND
  0
POLYLINE
  8
LAYER_3
 40
0.05
 41
0.05
 66
1
 10
0
 20
0
 30
0
 70
1
  0
VERTEX
  8
LAYER_3
 10
-8.9667
 20
211.4352
  0
VERTEX
  8
LAYER_3
 10
-8.9667
 20
213.137
  0
VERTEX
  8
LAYER_3
 10
-9.2778
 20
213.137
  0
VERTEX
  8
LAYER_3
 10
-9.2778
 20
212.5707
 42
0.2263222596
  0
VERTEX
  8
LAYER_3
 10
-9.582
 20
212.6947
 42
0.2021447193
  0
VERTEX
  8
LAYER_3
 10
-9.8835
 20
212.5824
 42
0.1955994833
  0
VERTEX
  8
LAYER_3
 10
-10.0116
 20
212.1647
 42
0.01858076917
  0
VERTEX
  8
LAYER_3
 10
-10.013
 20
212.0591
 42
0.1992737425
  0
VERTEX
  8
LAYER_3
 10
-9.8835
 20
211.533
 42
0.1967798833
  0
VERTEX
  8
LAYER_3
 10
-9.5796
 20
211.4207
 42
0.2368398509
  0
VERTEX
  8
LAYER_3
 10
-9.2709
 20
211.5523
  0
VERTEX
  8
LAYER_3
 10
-9.2709
 20
211.4352
  0
SEQEND
  0
POLYLINE
  8
LAYER_3
 40
0.05
 41
0.05
 66
1
 10
0
 20
0
 30
0
 70
1
  0
VERTEX
  8
LAYER_3
 10
-10.6062
 20
211.894
 42
-0.2606176184
  0
VERTEX
  8
LAYER_3
 10
-10.6541
 20
211.7363
 42
-0.1975146001
  0
VERTEX
  8
LAYER_3
 10
-10.8384
 20
211.6763
 42
-0.4358674545
  0
VERTEX
  8
LAYER_3
 10
-11.0272
 20
211.8175
 42
-0.4654392595
  0
VERTEX
  8
LAYER_3
 10
-10.8433
 20
211.9609
  0
VERTEX
  8
LAYER_3
 10
-10.6062
 20
211.9609
  0
SEQEND
  0
POLYLINE
  8
LAYER_3
 40
0.05
 41
0.05
 66
1
 10
0
 20
0
 30
0
 70
1
  0
VERTEX
  8
LAYER_3
 10
-10.2951
 20
211.4352
  0
VERTEX
  8
LAYER_3
 10
-10.2951
 20
212.2551
 42
0.2204713638
  0
VERTEX
  8
LAYER_3
 10
-10.4207
 20
212.5772
 42
0.1806796456
  0
VERTEX
  8
LAYER_3
 10
-10.8267
 20
212.6947
 42
0.2375604919
  0
VERTEX
  8
LAYER_3
 10
-11.2739
 20
212.5179
  0
VERTEX
  8
LAYER_3
 10
-11.0779
 20
212.3243
 42
-0.2460763492
  0
VERTEX
  8
LAYER_3
 10
-10.8384
 20
212.4322
 42
-0.4683426501
  0
VERTEX
  8
LAYER_3
 10
-10.6062
 20
212.2358
  0
VERTEX
  8
LAYER_3
 10
-10.6062
 20
212.1738
  0
VERTEX
  8
LAYER_3
 10
-10.896
 20
212.1738
 42
0.2105830771
  0
VERTEX
  8
LAYER_3
 10
-11.2407
 20
212.0486
 42
0.1847749138
  0
VERTEX
  8
LAYER_3
 10
-11.3266
 20
211.8127
 42
0.1946881207
  0
VERTEX
  8
LAYER_3
 10
-11.2239
 20
211.533
 42
0.1984095291
  0
VERTEX
  8
LAYER_3
 10
-10.9053
 20
211.4228
 42
0.2251045156
  0
VERTEX
  8
LAYER_3
 10
-10.599
 20
211.5426
  0
VERTEX
  8
LAYER_3
 10
-10.599
 20
211.4352
  0
SEQEND
  0
POLYLINE
  8
LAYER_3
 40
0.05
 41
0.05
 66
1
 10
0
 20
0
 30
0
 70
1
  0
VERTEX
  8
LAYER_3
 10
-11.5733
 20
211.4352
  0
VERTEX
  8
LAYER_3
 10
-11.5733
 20
212.231
 42
0.2096424971
  0
VERTEX
  8
LAYER_3
 10
-11.7097
 20
212.5844
 42
0.1904514856
  0
VERTEX
  8
LAYER_3
 10
-12.016
 20
212.6947
 42
0.2238328308
  0
VERTEX
  8
LAYER_3
 10
-12.3894
 20
212.5369
 42
0.2475119635
  0
VERTEX
  8
LAYER_3
 10
-12.7198
 20
212.6947
 42
0.1995172237
  0
VERTEX
  8
LAYER_3
 10
-13.0309
 20
212.5658
  0
VERTEX
  8
LAYER_3
 10
-13.0309
 20
212.6805
  0
VERTEX
  8
LAYER_3
 10
-13.3348
 20
212.6805
  0
VERTEX
  8
LAYER_3
 10
-13.3348
 20
211.4352
  0
VERTEX
  8
LAYER_3
 10
-13.0233
 20
211.4352
  0
VERTEX
  8
LAYER_3
 10
-13.0233
 20
212.1882
 42
-0.4265481482
  0
VERTEX
  8
LAYER_3
 10
-12.8153
 20
212.4149
 42
-0.4361688158
  0
VERTEX
  8
LAYER_3
 10
-12.6096
 20
212.1882
  0
VERTEX
  8
LAYER_3
 10
-12.6096
 20
211.4352
  0
VERTEX
  8
LAYER_3
 10
-12.2985
 20
211.4352
  0
VERTEX
  8
LAYER_3
 10
-12.2985
 20
212.1951
 42
-0.4236814191
  0
VERTEX
  8
LAYER_3
 10
-12.0904
 20
212.4149
 42
-0.4367319455
  0
VERTEX
  8
LAYER_3
 10
-11.8844
 20
212.1882
  0
VERTEX
  8
LAYER_3
 10
-11.8844
 20
211.4352
  0
SEQEND
  0
POLYLINE
  8
LAYER_3
 40
0.05
 41
0.05
 66
1
 10
0
 20
0
 30
0
  0
VERTEX
  8
LAYER_3
 10
-13.8973
 20
212.0229
 42
-0.2061577285
  0
VERTEX
  8
LAYER_3
 10
-14.0003
 20
211.6401
 42
-0.1860547104
  0
VERTEX
  8
LAYER_3
 10
-14.1915
 20
211.5736
 42
-0.2912351062
  0
VERTEX
  8
LAYER_3
 10
-14.4327
 20
211.7044
 42
-0.1074256356
  0
VERTEX
  8
LAYER_3
 10
-14.4882
 20
212.0229
 42
-0.2074793493
  0
VERTEX
  8
LAYER_3
 10
-14.3843
 20
212.406
 42
-0.1847812498
  0
VERTEX
  8
LAYER_3
 10
-14.1915
 20
212.4725
 42
-0.2924886932
  0
VERTEX
  8
LAYER_3
 10
-13.9523
 20
212.3416
 42
-0.1065173685
  0
VERTEX
  8
LAYER_3
 10
-13.8973
 20
212.0229
  0
SEQEND
  0
POLYLINE
  8
LAYER_3
 40
0.05
 41
0.05
 66
1
 10
0
 20
0
 30
0
 70
1
  0
VERTEX
  8
LAYER_3
 10
-13.7247
 20
211.4352
  0
VERTEX
  8
LAYER_3
 10
-13.7247
 20
213.137
  0
VERTEX
  8
LAYER_3
 10
-13.8973
 20
213.137
  0
VERTEX
  8
LAYER_3
 10
-13.8973
 20
212.4749
 42
0.2526586678
  0
VERTEX
  8
LAYER_3
 10
-14.2298
 20
212.6258
 42
0.19617536
  0
VERTEX
  8
LAYER_3
 10
-14.5171
 20
212.5224
 42
0.2062736322
  0
VERTEX
  8
LAYER_3
 10
-14.6608
 20
212.0229
 42
0.1925049638
  0
VERTEX
  8
LAYER_3
 10
-14.5171
 20
211.5234
 42
0.1893263809
  0
VERTEX
  8
LAYER_3
 10
-14.2298
 20
211.4207
 42
0.2549957718
  0
VERTEX
  8
LAYER_3
 10
-13.8949
 20
211.5761
  0
VERTEX
  8
LAYER_3
 10
-13.8949
 20
211.4352
  0
SEQEND
  0
POLYLINE
  8
LAYER_3
 40
0.05
 41
0.05
 66
1
 10
0
 20
0
 30
0
 70
1
  0
VERTEX
  8
LAYER_3
 10
-15.0173
 20
211.4352
  0
VERTEX
  8
LAYER_3
 10
-15.0173
 20
212.1882
 42
0.2089360908
  0
VERTEX
  8
LAYER_3
 10
-15.1393
 20
212.5156
 42
0.1977212202
  0
VERTEX
  8
LAYER_3
 10
-15.4411
 20
212.6258
 42
0.2189458741
  0
VERTEX
  8
LAYER_3
 10
-15.7711
 20
212.4818
  0
VERTEX
  8
LAYER_3
 10
-15.7711
 20
212.6113
  0
VERTEX
  8
LAYER_3
 10
-15.9434
 20
212.6113
  0
VERTEX
  8
LAYER_3
 10
-15.9434
 20
211.4352
  0
VERTEX
  8
LAYER_3
 10
-15.7711
 20
211.4352
  0
VERTEX
  8
LAYER_3
 10
-15.7711
 20
212.1593
 42
-0.4284576329
  0
VERTEX
  8
LAYER_3
 10
-15.479
 20
212.4725
 42
-0.4466039224
  0
VERTEX
  8
LAYER_3
 10
-15.1896
 20
212.1593
  0
VERTEX
  8
LAYER_3
 10
-15.1896
 20
211.4352
  0
SEQEND
  0
POLYLINE
  8
LAYER_3
 40
0.05
 41
0.05
 66
1
 10
0
 20
0
 30
0
 70
1
  0
VERTEX
  8
LAYER_3
 10
-16.5346
 20
211.8506
 42
-0.2283736068
  0
VERTEX
  8
LAYER_3
 10
-16.5945
 20
211.6477
 42
-0.1936527339
  0
VERTEX
  8
LAYER_3
 10
-16.8553
 20
211.5688
 42
-0.4421173513
  0
VERTEX
  8
LAYER_3
 10
-17.1281
 20
211.77
 42
-0.3470924647
  0
VERTEX
  8
LAYER_3
 10
-16.9968
 20
211.9592
 42
-0.1261120874
  0
VERTEX
  8
LAYER_3
 10
-16.8625
 20
211.9774
  0
VERTEX
  8
LAYER_3
 10
-16.5346
 20
211.9774
  0
SEQEND
  0
POLYLINE
  8
LAYER_3
 40
0.05
 41
0.05
 66
1
 10
0
 20
0
 30
0
 70
1
  0
VERTEX
  8
LAYER_3
 10
-16.362
 20
211.4352
  0
VERTEX
  8
LAYER_3
 10
-16.362
 20
212.233
 42
0.2383829599
  0
VERTEX
  8
LAYER_3
 10
-16.4898
 20
212.5337
 42
0.1599209503
  0
VERTEX
  8
LAYER_3
 10
-16.8336
 20
212.6258
 42
0.2578644009
  0
VERTEX
  8
LAYER_3
 10
-17.2501
 20
212.4487
  0
VERTEX
  8
LAYER_3
 10
-17.133
 20
212.3409
 42
-0.2730960706
  0
VERTEX
  8
LAYER_3
 10
-16.8364
 20
212.4776
 42
-0.4521672334
  0
VERTEX
  8
LAYER_3
 10
-16.5346
 20
212.2193
  0
VERTEX
  8
LAYER_3
 10
-16.5346
 20
212.1066
  0
VERTEX
  8
LAYER_3
 10
-16.8863
 20
212.1066
 42
0.2189203862
  0
VERTEX
  8
LAYER_3
 10
-17.2226
 20
211.9822
 42
0.17494127
  0
VERTEX
  8
LAYER_3
 10
-17.2956
 20
211.7673
 42
0.2075768001
  0
VERTEX
  8
LAYER_3
 10
-17.2071
 20
211.5282
 42
0.2128603639
  0
VERTEX
  8
LAYER_3
 10
-16.8742
 20
211.4207
 42
0.2247839487
  0
VERTEX
  8
LAYER_3
 10
-16.5346
 20
211.5471
  0
VERTEX
  8
LAYER_3
 10
-16.5346
 20
211.4352
  0
SEQEND
  0
POLYLINE
  8
LAYER_3
 40
0.05
 41
0.05
 66
1
 10
0
 20
0
 30
0
 70
1
  0
VERTEX
  8
LAYER_3
 10
-17.6211
 20
211.4352
  0
VERTEX
  8
LAYER_3
 10
-17.6211
 20
212.1903
 42
0.4657729105
  0
VERTEX
  8
LAYER_3
 10
-18.0449
 20
212.6258
 42
0.2190712165
  0
VERTEX
  8
LAYER_3
 10
-18.3749
 20
212.4818
  0
VERTEX
  8
LAYER_3
 10
-18.3749
 20
213.137
  0
VERTEX
  8
LAYER_3
 10
-18.5475
 20
213.137
  0
VERTEX
  8
LAYER_3
 10
-18.5475
 20
211.4352
  0
VERTEX
  8
LAYER_3
 10
-18.3749
 20
211.4352
  0
VERTEX
  8
LAYER_3
 10
-18.3749
 20
212.1617
 42
-0.4350388577
  0
VERTEX
  8
LAYER_3
 10
-18.0807
 20
212.4725
 42
-0.4517618327
  0
VERTEX
  8
LAYER_3
 10
-17.7934
 20
212.1617
  0
VERTEX
  8
LAYER_3
 10
-17.7934
 20
211.4352
  0
SEQEND
  0
ENDBLK
  0
BLOCK
  8
LAYER_3
  2
AIGNBL03020007
 70
64
 10
0
 20
0
 30
0
  3
AIGNBL03020007
  0
INSERT
  8
LAYER_3
  2
AIGNBL03030008
 10
0
 20
0
 30
0
  0
ENDBLK
  0
BLOCK
  8
LAYER_3
  2
AIGNBL03020010
 70
64
 10
0
 20
0
 30
0
  3
AIGNBL03020010
  0
INSERT
  8
LAYER_3
  2
AIGNBL03030011
 10
0
 20
0
 30
0
  0
INSERT
  8
LAYER_3
  2
AIGNBL03030012
 10
0
 20
0
 30
0
  0
INSERT
  8
LAYER_3
  2
AIGNBL03030013
 10
0
 20
0
 30
0
  0
INSERT
  8
LAYER_3
  2
AIGNBL03030014
 10
0
 20
0
 30
0
  0
INSERT
  8
LAYER_3
  2
AIGNBL03030015
 10
0
 20
0
 30
0
  0
INSERT
  8
LAYER_3
  2
AIGNBL03030016
 10
0
 20
0
 30
0
  0
INSERT
  8
LAYER_3
  2
AIGNBL03030017
 10
0
 20
0
 30
0
  0
INSERT
  8
LAYER_3
  2
AIGNBL03030018
 10
0
 20
0
 30
0
  0
INSERT
  8
LAYER_3
  2
AIGNBL03030019
 10
0
 20
0
 30
0
  0
INSERT
  8
LAYER_3
  2
AIGNBL0303001A
 10
0
 20
0
 30
0
  0
INSERT
  8
LAYER_3
  2
AIGNBL0303001B
 10
0
 20
0
 30
0
  0
INSERT
  8
LAYER_3
  2
AIGNBL0303001C
 10
0
 20
0
 30
0
  0
INSERT
  8
LAYER_3
  2
AIGNBL0303001D
 10
0
 20
0
 30
0
  0
INSERT
  8
LAYER_3
  2
AIGNBL0303001E
 10
0
 20
0
 30
0
  0
INSERT
  8
LAYER_3
  2
AIGNBL0303001F
 10
0
 20
0
 30
0
  0
INSERT
  8
LAYER_3
  2
AIGNBL03030020
 10
0
 20
0
 30
0
  0
INSERT
  8
LAYER_3
  2
AIGNBL03030021
 10
0
 20
0
 30
0
  0
INSERT
  8
LAYER_3
  2
AIGNBL03030022
 10
0
 20
0
 30
0
  0
INSERT
  8
LAYER_3
  2
AIGNBL03030023
 10
0
 20
0
 30
0
  0
INSERT
  8
LAYER_3
  2
AIGNBL03030024
 10
0
 20
0
 30
0
  0
INSERT
  8
LAYER_3
  2
AIGNBL03030025
 10
0
 20
0
 30
0
  0
INSERT
  8
LAYER_3
  2
AIGNBL03030026
 10
0
 20
0
 30
0
  0
INSERT
  8
LAYER_3
  2
AIGNBL03030027
 10
0
 20
0
 30
0
  0
ENDBLK
  0
BLOCK
  8
LAYER_3
  2
AIGNBL03020029
 70
64
 10
0
 20
0
 30
0
  3
AIGNBL03020029
  0
POLYLINE
  8
LAYER_3
 40
0.3528
 41
0.3528
 62
1
 66
1
 10
0
 20
0
 30
0
  0
VERTEX
  8
LAYER_3
 10
125.293
 20
181.9725
  0
VERTEX
  8
LAYER_3
 10
125.293
 20
181.6197
  0
VERTEX
  8
LAYER_3
 10
124.9403
 20
181.6197
  0
SEQEND
  0
POLYLINE
  8
LAYER_3
  6
AIGENLINE001
 40
0.3528
 41
0.3528
 62
1
 66
1
 10
0
 20
0
 30
0
 70
128
  0
VERTEX
  8
LAYER_3
 10
124.2404
 20
181.6197
  0
VERTEX
  8
LAYER_3
 10
90.9958
 20
181.6197
  0
SEQEND
  0
POLYLINE
  8
LAYER_3
 40
0.3528
 41
0.3528
 62
1
 66
1
 10
0
 20
0
 30
0
  0
VERTEX
  8
LAYER_3
 10
90.6458
 20
181.6197
  0
VERTEX
  8
LAYER_3
 10
90.293
 20
181.6197
  0
VERTEX
  8
LAYER_3
 10
90.293
 20
181.9725
  0
SEQEND
  0
POLYLINE
  8
LAYER_3
  6
AIGENLINE002
 40
0.3528
 41
0.3528
 62
1
 66
1
 10
0
 20
0
 30
0
 70
128
  0
VERTEX
  8
LAYER_3
 10
90.293
 20
182.6871
  0
VERTEX
  8
LAYER_3
 10
90.293
 20
200.9096
  0
SEQEND
  0
POLYLINE
  8
LAYER_3
 40
0.3528
 41
0.3528
 62
1
 66
1
 10
0
 20
0
 30
0
  0
VERTEX
  8
LAYER_3
 10
90.293
 20
201.2669
  0
VERTEX
  8
LAYER_3
 10
90.293
 20
201.6197
  0
VERTEX
  8
LAYER_3
 10
90.6458
 20
201.6197
  0
SEQEND
  0
POLYLINE
  8
LAYER_3
  6
AIGENLINE001
 40
0.3528
 41
0.3528
 62
1
 66
1
 10
0
 20
0
 30
0
 70
128
  0
VERTEX
  8
LAYER_3
 10
91.3457
 20
201.6197
  0
VERTEX
  8
LAYER_3
 10
124.5903
 20
201.6197
  0
SEQEND
  0
POLYLINE
  8
LAYER_3
 40
0.3528
 41
0.3528
 62
1
 66
1
 10
0
 20
0
 30
0
  0
VERTEX
  8
LAYER_3
 10
124.9403
 20
201.6197
  0
VERTEX
  8
LAYER_3
 10
125.293
 20
201.6197
  0
VERTEX
  8
LAYER_3
 10
125.293
 20
201.2669
  0
SEQEND
  0
POLYLINE
  8
LAYER_3
  6
AIGENLINE002
 40
0.3528
 41
0.3528
 62
1
 66
1
 10
0
 20
0
 30
0
 70
128
  0
VERTEX
  8
LAYER_3
 10
125.293
 20
200.5523
  0
VERTEX
  8
LAYER_3
 10
125.293
 20
182.3298
  0
SEQEND
  0
ENDBLK
  0
BLOCK
  8
LAYER_3
  2
AIGNBL0302002B
 70
64
 10
0
 20
0
 30
0
  3
AIGNBL0302002B
  0
POLYLINE
  8
LAYER_3
 40
0.1058
 41
0.1058
 66
1
 10
0
 20
0
 30
0
  0
VERTEX
  8
LAYER_3
 10
125.293
 20
214.4561
  0
VERTEX
  8
LAYER_3
 10
125.293
 20
214.1034
  0
SEQEND
  0
POLYLINE
  8
LAYER_3
  6
AIGENLINE003
 40
0.1058
 41
0.1058
 66
1
 10
0
 20
0
 30
0
 70
128
  0
VERTEX
  8
LAYER_3
 10
125.293
 20
213.4377
  0
VERTEX
  8
LAYER_3
 10
125.293
 20
203.1201
  0
SEQEND
  0
POLYLINE
  8
LAYER_3
 40
0.1058
 41
0.1058
 66
1
 10
0
 20
0
 30
0
  0
VERTEX
  8
LAYER_3
 10
125.293
 20
202.7873
  0
VERTEX
  8
LAYER_3
 10
125.293
 20
202.4345
  0
SEQEND
  0
ENDBLK
  0
BLOCK
  8
LAYER_3
  2
AIGNBL0302002D
 70
64
 10
0
 20
0
 30
0
  3
AIGNBL0302002D
  0
POLYLINE
  8
LAYER_3
 40
0.1058
 41
0.1058
 66
1
 10
0
 20
0
 30
0
  0
VERTEX
  8
LAYER_3
 10
148.8928
 20
214.4561
  0
VERTEX
  8
LAYER_3
 10
148.8928
 20
214.1034
  0
SEQEND
  0
POLYLINE
  8
LAYER_3
  6
AIGENLINE004
 40
0.1058
 41
0.1058
 66
1
 10
0
 20
0
 30
0
 70
128
  0
VERTEX
  8
LAYER_3
 10
148.8928
 20
213.3831
  0
VERTEX
  8
LAYER_3
 10
148.8928
 20
195.0167
  0
SEQEND
  0
POLYLINE
  8
LAYER_3
 40
0.1058
 41
0.1058
 66
1
 10
0
 20
0
 30
0
  0
VERTEX
  8
LAYER_3
 10
148.8928
 20
194.6566
  0
VERTEX
  8
LAYER_3
 10
148.8928
 20
194.3038
  0
SEQEND
  0
ENDBLK
  0
BLOCK
  8
LAYER_3
  2
AIGNBL0302002F
 70
64
 10
0
 20
0
 30
0
  3
AIGNBL0302002F
  0
POLYLINE
  8
LAYER_3
 40
0.1058
 41
0.1058
 66
1
 10
0
 20
0
 30
0
  0
VERTEX
  8
LAYER_3
 10
162.0419
 20
210.22
  0
VERTEX
  8
LAYER_3
 10
161.6892
 20
210.22
  0
SEQEND
  0
POLYLINE
  8
LAYER_3
  6
AIGENLINE005
 40
0.1058
 41
0.1058
 66
1
 10
0
 20
0
 30
0
 70
128
  0
VERTEX
  8
LAYER_3
 10
160.9906
 20
210.22
  0
VERTEX
  8
LAYER_3
 10
133.3989
 20
210.22
  0
SEQEND
  0
POLYLINE
  8
LAYER_3
 40
0.1058
 41
0.1058
 66
1
 10
0
 20
0
 30
0
  0
VERTEX
  8
LAYER_3
 10
133.0496
 20
210.22
  0
VERTEX
  8
LAYER_3
 10
132.6968
 20
210.22
  0
SEQEND
  0
ENDBLK
  0
BLOCK
  8
LAYER_3
  2
AIGNBL03020031
 70
64
 10
0
 20
0
 30
0
  3
AIGNBL03020031
  0
POLYLINE
  8
LAYER_3
 40
0.1058
 41
0.1058
 66
1
 10
0
 20
0
 30
0
  0
VERTEX
  8
LAYER_3
 10
162.0419
 20
201.6197
  0
VERTEX
  8
LAYER_3
 10
161.6892
 20
201.6197
  0
SEQEND
  0
POLYLINE
  8
LAYER_3
  6
AIGENLINE006
 40
0.1058
 41
0.1058
 66
1
 10
0
 20
0
 30
0
 70
128
  0
VERTEX
  8
LAYER_3
 10
160.9951
 20
201.6197
  0
VERTEX
  8
LAYER_3
 10
126.6389
 20
201.6197
  0
SEQEND
  0
POLYLINE
  8
LAYER_3
 40
0.1058
 41
0.1058
 66
1
 10
0
 20
0
 30
0
  0
VERTEX
  8
LAYER_3
 10
126.2918
 20
201.6197
  0
VERTEX
  8
LAYER_3
 10
125.939
 20
201.6197
  0
SEQEND
  0
ENDBLK
  0
BLOCK
  8
LAYER_3
  2
AIGNBL03020033
 70
64
 10
0
 20
0
 30
0
  3
AIGNBL03020033
  0
POLYLINE
  8
LAYER_3
 40
0.1058
 41
0.1058
 66
1
 10
0
 20
0
 30
0
  0
VERTEX
  8
LAYER_3
 10
162.0419
 20
181.6197
  0
VERTEX
  8
LAYER_3
 10
161.6892
 20
181.6197
  0
SEQEND
  0
POLYLINE
  8
LAYER_3
  6
AIGENLINE007
 40
0.1058
 41
0.1058
 66
1
 10
0
 20
0
 30
0
 70
128
  0
VERTEX
  8
LAYER_3
 10
160.9824
 20
181.6197
  0
VERTEX
  8
LAYER_3
 10
125.9992
 20
181.6197
  0
SEQEND
  0
POLYLINE
  8
LAYER_3
 40
0.1058
 41
0.1058
 66
1
 10
0
 20
0
 30
0
  0
VERTEX
  8
LAYER_3
 10
125.6458
 20
181.6197
  0
VERTEX
  8
LAYER_3
 10
125.293
 20
181.6197
  0
SEQEND
  0
ENDBLK
  0
BLOCK
  8
LAYER_3
  2
AIGNBL03020035
 70
64
 10
0
 20
0
 30
0
  3
AIGNBL03020035
  0
POLYLINE
  8
LAYER_3
 40
0.1058
 41
0.1058
 66
1
 10
0
 20
0
 30
0
  0
VERTEX
  8
LAYER_3
 10
162.0419
 20
173.0194
  0
VERTEX
  8
LAYER_3
 10
161.6892
 20
173.0194
  0
SEQEND
  0
POLYLINE
  8
LAYER_3
  6
AIGENLINE008
 40
0.1058
 41
0.1058
 66
1
 10
0
 20
0
 30
0
 70
128
  0
VERTEX
  8
LAYER_3
 10
160.9935
 20
173.0194
  0
VERTEX
  8
LAYER_3
 10
133.514
 20
173.0194
  0
SEQEND
  0
POLYLINE
  8
LAYER_3
 40
0.1058
 41
0.1058
 66
1
 10
0
 20
0
 30
0
  0
VERTEX
  8
LAYER_3
 10
133.1661
 20
173.0194
  0
VERTEX
  8
LAYER_3
 10
132.8133
 20
173.0194
  0
SEQEND
  0
ENDBLK
  0
BLOCK
  8
LAYER_3
  2
AIGNBL03020037
 70
64
 10
0
 20
0
 30
0
  3
AIGNBL03020037
  0
POLYLINE
  8
LAYER_3
 40
0.1058
 41
0.1058
 66
1
 10
0
 20
0
 30
0
  0
VERTEX
  8
LAYER_3
 10
81.693
 20
214.417
  0
VERTEX
  8
LAYER_3
 10
81.693
 20
214.0643
  0
SEQEND
  0
POLYLINE
  8
LAYER_3
  6
AIGENLINE009
 40
0.1058
 41
0.1058
 66
1
 10
0
 20
0
 30
0
 70
128
  0
VERTEX
  8
LAYER_3
 10
81.693
 20
213.3487
  0
VERTEX
  8
LAYER_3
 10
81.693
 20
195.1031
  0
SEQEND
  0
POLYLINE
  8
LAYER_3
 40
0.1058
 41
0.1058
 66
1
 10
0
 20
0
 30
0
  0
VERTEX
  8
LAYER_3
 10
81.693
 20
194.7453
  0
VERTEX
  8
LAYER_3
 10
81.693
 20
194.3925
  0
SEQEND
  0
ENDBLK
  0
BLOCK
  8
LAYER_3
  2
AIGNBL03020039
 70
64
 10
0
 20
0
 30
0
  3
AIGNBL03020039
  0
POLYLINE
  8
LAYER_3
 40
0.1058
 41
0.1058
 66
1
 10
0
 20
0
 30
0
  0
VERTEX
  8
LAYER_3
 10
90.293
 20
214.417
  0
VERTEX
  8
LAYER_3
 10
90.293
 20
214.0643
  0
SEQEND
  0
POLYLINE
  8
LAYER_3
  6
AIGENLINE010
 40
0.1058
 41
0.1058
 66
1
 10
0
 20
0
 30
0
 70
128
  0
VERTEX
  8
LAYER_3
 10
90.293
 20
213.4009
  0
VERTEX
  8
LAYER_3
 10
90.293
 20
203.119
  0
SEQEND
  0
POLYLINE
  8
LAYER_3
 40
0.1058
 41
0.1058
 66
1
 10
0
 20
0
 30
0
  0
VERTEX
  8
LAYER_3
 10
90.293
 20
202.7873
  0
VERTEX
  8
LAYER_3
 10
90.293
 20
202.4345
  0
SEQEND
  0
ENDBLK
  0
BLOCK
  8
LAYER_3
  2
AIGNBL03010002
 70
64
 10
0
 20
0
 30
0
  3
AIGNBL03010002
  0
POLYLINE
  8
LAYER_3
 40
0.7056
 41
0.7056
 66
1
 10
0
 20
0
 30
0
 70
1
  0
VERTEX
  8
LAYER_3
 10
251.6749
 20
230.337
  0
VERTEX
  8
LAYER_3
 10
251.6749
 20
33.3285
  0
VERTEX
  8
LAYER_3
 10
-30.3177
 20
33.3285
  0
VERTEX
  8
LAYER_3
 10
-30.3177
 20
230.337
  0
SEQEND
  0
ENDBLK
  0
BLOCK
  8
LAYER_3
  2
AIGNBL03010003
 70
64
 10
0
 20
0
 30
0
  3
AIGNBL03010003
  0
INSERT
  8
LAYER_3
  2
AIGNBL03020004
 10
0
 20
0
 30
0
  0
POLYLINE
  8
LAYER_3
 40
0.05
 41
0.05
 66
1
 10
0
 20
0
 30
0
  0
VERTEX
  8
LAYER_3
 10
-6.457
 20
223.2684
  0
VERTEX
  8
LAYER_3
 10
-8.0924
 20
223.2684
  0
VERTEX
  8
LAYER_3
 10
-8.0924
 20
216.1939
 42
0.09304299953
  0
VERTEX
  8
LAYER_3
 10
-7.9518
 20
215.4241
 42
0.2872011141
  0
VERTEX
  8
LAYER_3
 10
-6.4597
 20
214.3359
  0
VERTEX
  8
LAYER_3
 10
-6.457
 20
223.2684
  0
SEQEND
  0
INSERT
  8
LAYER_3
  2
AIGNBL03020005
 10
0
 20
0
 30
0
  0
ENDBLK
  0
BLOCK
  8
LAYER_3
  2
AIGNBL03010006
 70
64
 10
0
 20
0
 30
0
  3
AIGNBL03010006
  0
INSERT
  8
LAYER_3
  2
AIGNBL03020007
 10
0
 20
0
 30
0
  0
INSERT
  8
LAYER_3
  2
AIGNBL03020010
 10
0
 20
0
 30
0
  0
ENDBLK
  0
BLOCK
  8
LAYER_3
  2
AIGNBL03010028
 70
64
 10
0
 20
0
 30
0
  3
AIGNBL03010028
  0
INSERT
  8
LAYER_3
  2
AIGNBL03020029
 10
0
 20
0
 30
0
  0
ENDBLK
  0
BLOCK
  8
LAYER_3
  2
AIGNBL0301002A
 70
64
 10
0
 20
0
 30
0
  3
AIGNBL0301002A
  0
INSERT
  8
LAYER_3
  2
AIGNBL0302002B
 10
0
 20
0
 30
0
  0
ENDBLK
  0
BLOCK
  8
LAYER_3
  2
AIGNBL0301002C
 70
64
 10
0
 20
0
 30
0
  3
AIGNBL0301002C
  0
INSERT
  8
LAYER_3
  2
AIGNBL0302002D
 10
0
 20
0
 30
0
  0
ENDBLK
  0
BLOCK
  8
LAYER_3
  2
AIGNBL0301002E
 70
64
 10
0
 20
0
 30
0
  3
AIGNBL0301002E
  0
INSERT
  8
LAYER_3
  2
AIGNBL0302002F
 10
0
 20
0
 30
0
  0
ENDBLK
  0
BLOCK
  8
LAYER_3
  2
AIGNBL03010030
 70
64
 10
0
 20
0
 30
0
  3
AIGNBL03010030
  0
INSERT
  8
LAYER_3
  2
AIGNBL03020031
 10
0
 20
0
 30
0
  0
ENDBLK
  0
BLOCK
  8
LAYER_3
  2
AIGNBL03010032
 70
64
 10
0
 20
0
 30
0
  3
AIGNBL03010032
  0
INSERT
  8
LAYER_3
  2
AIGNBL03020033
 10
0
 20
0
 30
0
  0
ENDBLK
  0
BLOCK
  8
LAYER_3
  2
AIGNBL03010034
 70
64
 10
0
 20
0
 30
0
  3
AIGNBL03010034
  0
INSERT
  8
LAYER_3
  2
AIGNBL03020035
 10
0
 20
0
 30
0
  0
ENDBLK
  0
BLOCK
  8
LAYER_3
  2
AIGNBL03010036
 70
64
 10
0
 20
0
 30
0
  3
AIGNBL03010036
  0
INSERT
  8
LAYER_3
  2
AIGNBL03020037
 10
0
 20
0
 30
0
  0
ENDBLK
  0
BLOCK
  8
LAYER_3
  2
AIGNBL03010038
 70
64
 10
0
 20
0
 30
0
  3
AIGNBL03010038
  0
INSERT
  8
LAYER_3
  2
AIGNBL03020039
 10
0
 20
0
 30
0
  0
ENDBLK
  0
ENDSEC
  0
SECTION
  2
ENTITIES
  0
TEXT
  8
LAYER_3
 10
-26.2556
 20
43.1712
 11
-26.2556
 21
43.1712
 40
3.2991
 41
0.5
  1
仕様
  0
POLYLINE
  8
LAYER_3
 40
0.3528
 41
0.3528
 66
1
 10
0
 20
0
 30
0
  0
VERTEX
  8
LAYER_3
 10
250.6748
 20
51.9507
  0
VERTEX
  8
LAYER_3
 10
-29.3178
 20
51.9507
  0
SEQEND
  0
INSERT
  8
LAYER_3
  2
AIGNBL03010002
 10
0
 20
0
 30
0
  0
POLYLINE
  8
LAYER_3
 40
0.3528
 41
0.3528
 66
1
 10
0
 20
0
 30
0
  0
VERTEX
  8
LAYER_3
 10
-29.3178
 20
229.3369
  0
VERTEX
  8
LAYER_3
 10
-29.3178
 20
34.3283
  0
VERTEX
  8
LAYER_3
 10
250.6748
 20
34.3283
  0
VERTEX
  8
LAYER_3
 10
250.6748
 20
229.3369
  0
VERTEX
  8
LAYER_3
 10
-29.3178
 20
229.3369
  0
SEQEND
  0
POLYLINE
  8
LAYER_3
 40
0.3528
 41
0.3528
 66
1
 10
0
 20
0
 30
0
  0
VERTEX
  8
LAYER_3
 10
250.6748
 20
60.4597
  0
VERTEX
  8
LAYER_3
 10
-29.3178
 20
60.4597
  0
SEQEND
  0
POLYLINE
  8
LAYER_3
 40
0.3528
 41
0.3528
 66
1
 10
0
 20
0
 30
0
  0
VERTEX
  8
LAYER_3
 10
250.6748
 20
43.4416
  0
VERTEX
  8
LAYER_3
 10
143.5341
 20
43.4416
  0
SEQEND
  0
TEXT
  8
LAYER_3
 10
188.1725
 20
45.7175
 11
188.1725
 21
45.7175
 40
3.7609
 41
0.5
  1
1/5
  0
TEXT
  8
LAYER_3
 10
182.8808
 20
49.4743
 11
182.8808
 21
49.4743
 40
2.1994
 41
0.5
  1
縮尺
  0
POLYLINE
  8
LAYER_3
 40
0.3528
 41
0.3528
 66
1
 10
0
 20
0
 30
0
  0
VERTEX
  8
LAYER_3
 10
181.3526
 20
43.4416
  0
VERTEX
  8
LAYER_3
 10
181.3526
 20
51.9507
  0
SEQEND
  0
TEXT
  8
LAYER_3
 10
144.2327
 20
57.9834
 11
144.2327
 21
57.9834
 40
2.1994
 41
0.5
  1
品番
  0
TEXT
  8
LAYER_3
 10
-28.1609
 20
57.9834
 11
-28.1609
 21
57.9834
 40
2.1994
 41
0.5
  1
品名
  0
TEXT
  8
LAYER_3
 10
144.2327
 20
49.4743
 11
144.2327
 21
49.4743
 40
2.1994
 41
0.5
  1
重量
  0
TEXT
  8
LAYER_3
 10
150.2547
 20
54.1514
 11
150.2547
 21
54.1514
 40
5.9385
 41
0.5
  1
CIE-LPLAO33/
  0
TEXT
  8
LAYER_3
 10
149.5454
 20
45.7175
 11
149.5454
 21
45.7175
 40
3.7609
 41
0.5
  1
4Kg
  0
POLYLINE
  8
LAYER_3
 40
0.3528
 41
0.3528
 66
1
 10
0
 20
0
 30
0
  0
VERTEX
  8
LAYER_3
 10
143.5341
 20
34.9539
  0
VERTEX
  8
LAYER_3
 10
143.5341
 20
60.4597
  0
SEQEND
  0
TEXT
  8
LAYER_3
 10
-15.479
 20
54.891
 11
-15.479
 21
54.891
 40
4.1459
 41
0.5
  1
レ・プティート カウンター置き型手洗器336ｍｍ  1穴タイプ
  0
INSERT
  8
LAYER_3
  2
AIGNBL03010003
 10
0
 20
0
 30
0
  0
TEXT
  8
LAYER_3
 10
-15.6835
 20
45.3736
 11
-15.6835
 21
45.3736
 40
3.1172
 41
0.5
  1
●設置方法：カウンター置き●水栓取付穴：１穴●オーバーフローなし
  0
TEXT
  8
LAYER_3
 10
-15.6835
 20
40.6235
 11
-15.6835
 21
40.6235
 40
3.1172
 41
0.5
  1
●排水金具別途●背面釉薬あり
  0
TEXT
  8
LAYER_3
 10
237.263
 20
63.2582
 11
237.263
 21
63.2582
 40
2.9614
 41
0.5
  1
単位：mm
  0
TEXT
  8
LAYER_3
 10
-23.1101
 20
202.806
 11
-23.1101
 21
202.806
 40
2.5977
 41
0.5
  1
※陶器製品は寸法公差が発生します。カウンター切り込みの際は
  0
TEXT
  8
LAYER_3
 10
-23.1101
 20
198.0561
 11
-23.1101
 21
198.0561
 40
2.5977
 41
0.5
  1
必ず現物を合わせてご確認ください。
  0
TEXT
  8
LAYER_3
 10
-23.1101
 20
193.306
 11
-23.1101
 21
193.306
 40
2.5977
 41
0.5
  1
※製品と接する部分には必ずコーキング処理を行ってください。
  0
TEXT
  8
LAYER_3
 10
176.0254
 20
39.5359
 11
176.0254
 21
39.5359
 40
3.3848
 41
0.5
  1
●TEL 0120-65-1232●FAX 06-6532-1580
  0
TEXT
  8
LAYER_3
 10
176.0254
 20
36.0212
 11
176.0254
 21
36.0212
 40
3.3848
 41
0.5
  1
hits@hiratatile.co.jp
  0
TEXT
  8
LAYER_3
 10
240.3591
 20
225.8432
 11
240.3591
 21
225.8432
 40
2.073
 41
0.5
  1
200409RT
  0
INSERT
  8
LAYER_3
  2
AIGNBL03010006
 10
0
 20
0
 30
0
  0
POLYLINE
  8
LAYER_3
 40
0.1058
 41
0.1058
 66
1
 10
0
 20
0
 30
0
  0
VERTEX
  8
LAYER_3
 10
83.1405
 20
104.6497
  0
VERTEX
  8
LAYER_3
 10
147.6263
 20
104.6497
  0
SEQEND
  0
POLYLINE
  8
LAYER_3
 40
0.1058
 41
0.1058
 66
1
 10
0
 20
0
 30
0
  0
VERTEX
  8
LAYER_3
 10
179.7639
 20
130.0865
  0
VERTEX
  8
LAYER_3
 10
179.6554
 20
130.6293
  0
SEQEND
  0
POLYLINE
  8
LAYER_3
 40
0.1058
 41
0.1058
 66
1
 10
0
 20
0
 30
0
  0
VERTEX
  8
LAYER_3
 10
179.6438
 20
130.6559
 42
0.3574987717
  0
VERTEX
  8
LAYER_3
 10
179.0583
 20
131.1359
  0
SEQEND
  0
POLYLINE
  8
LAYER_3
 40
0.1058
 41
0.1058
 66
1
 10
0
 20
0
 30
0
  0
VERTEX
  8
LAYER_3
 10
211.5364
 20
130.6293
  0
VERTEX
  8
LAYER_3
 10
211.4279
 20
130.0865
  0
SEQEND
  0
POLYLINE
  8
LAYER_3
 40
0.1058
 41
0.1058
 66
1
 10
0
 20
0
 30
0
  0
VERTEX
  8
LAYER_3
 10
212.1335
 20
131.1359
 42
0.3575278398
  0
VERTEX
  8
LAYER_3
 10
211.548
 20
130.6559
  0
SEQEND
  0
POLYLINE
  8
LAYER_3
 40
0.1058
 41
0.1058
 66
1
 10
0
 20
0
 30
0
  0
VERTEX
  8
LAYER_3
 10
179.7639
 20
130.0865
  0
VERTEX
  8
LAYER_3
 10
211.4279
 20
130.0865
  0
VERTEX
  8
LAYER_3
 10
179.7639
 20
130.0865
  0
SEQEND
  0
POLYLINE
  8
LAYER_3
 40
0.1058
 41
0.1058
 66
1
 10
0
 20
0
 30
0
  0
VERTEX
  8
LAYER_3
 10
177.5203
 20
152.5588
  0
VERTEX
  8
LAYER_3
 10
176.9775
 20
132.5472
  0
VERTEX
  8
LAYER_3
 10
177.5203
 20
152.5588
  0
SEQEND
  0
POLYLINE
  8
LAYER_3
 40
0.1058
 41
0.1058
 66
1
 10
0
 20
0
 30
0
  0
VERTEX
  8
LAYER_3
 10
178.1536
 20
153.174
 42
0.4062833927
  0
VERTEX
  8
LAYER_3
 10
177.5567
 20
152.5931
  0
SEQEND
  0
POLYLINE
  8
LAYER_3
 40
0.1058
 41
0.1058
 66
1
 10
0
 20
0
 30
0
  0
VERTEX
  8
LAYER_3
 10
178.1536
 20
153.174
 42
0.4062833927
  0
VERTEX
  8
LAYER_3
 10
177.5567
 20
152.5931
  0
SEQEND
  0
POLYLINE
  8
LAYER_3
 40
0.1058
 41
0.1058
 66
1
 10
0
 20
0
 30
0
  0
VERTEX
  8
LAYER_3
 10
213.635
 20
152.5931
 42
0.4062554761
  0
VERTEX
  8
LAYER_3
 10
213.0382
 20
153.174
  0
SEQEND
  0
POLYLINE
  8
LAYER_3
 40
0.1058
 41
0.1058
 66
1
 10
0
 20
0
 30
0
  0
VERTEX
  8
LAYER_3
 10
213.635
 20
152.5931
 42
0.4062554761
  0
VERTEX
  8
LAYER_3
 10
213.0382
 20
153.174
  0
SEQEND
  0
POLYLINE
  8
LAYER_3
 40
0.1058
 41
0.1058
 66
1
 10
0
 20
0
 30
0
  0
VERTEX
  8
LAYER_3
 10
178.3888
 20
131.0997
  0
VERTEX
  8
LAYER_3
 10
179.0402
 20
131.0997
  0
SEQEND
  0
POLYLINE
  8
LAYER_3
 40
0.0423
 41
0.0423
 66
1
 10
0
 20
0
 30
0
  0
VERTEX
  8
LAYER_3
 10
212.7849
 20
131.1359
 42
0.2024538197
  0
VERTEX
  8
LAYER_3
 10
213.7833
 20
131.5575
 42
0.2024487927
  0
VERTEX
  8
LAYER_3
 10
214.1776
 20
132.567
  0
SEQEND
  0
POLYLINE
  8
LAYER_3
 40
0.0423
 41
0.0423
 66
1
 10
0
 20
0
 30
0
  0
VERTEX
  8
LAYER_3
 10
212.7849
 20
131.1359
 42
0.2024538197
  0
VERTEX
  8
LAYER_3
 10
213.7833
 20
131.5575
 42
0.2024487927
  0
VERTEX
  8
LAYER_3
 10
214.1776
 20
132.567
  0
SEQEND
  0
POLYLINE
  8
LAYER_3
 40
0.1058
 41
0.1058
 66
1
 10
0
 20
0
 30
0
  0
VERTEX
  8
LAYER_3
 10
212.1154
 20
131.0997
  0
VERTEX
  8
LAYER_3
 10
212.7668
 20
131.0997
  0
SEQEND
  0
POLYLINE
  8
LAYER_3
 40
0.1058
 41
0.1058
 66
1
 10
0
 20
0
 30
0
  0
VERTEX
  8
LAYER_3
 10
179.5468
 20
131.0997
  0
SEQEND
  0
POLYLINE
  8
LAYER_3
 40
0.1058
 41
0.1058
 66
1
 10
0
 20
0
 30
0
  0
VERTEX
  8
LAYER_3
 10
213.0201
 20
153.1378
  0
VERTEX
  8
LAYER_3
 10
178.1355
 20
153.1378
  0
VERTEX
  8
LAYER_3
 10
213.0201
 20
153.1378
  0
SEQEND
  0
POLYLINE
  8
LAYER_3
 40
0.1058
 41
0.1058
 66
1
 10
0
 20
0
 30
0
  0
VERTEX
  8
LAYER_3
 10
213.6353
 20
152.5588
  0
VERTEX
  8
LAYER_3
 10
214.1781
 20
132.5472
  0
VERTEX
  8
LAYER_3
 10
213.6353
 20
152.5588
  0
SEQEND
  0
POLYLINE
  8
LAYER_3
 40
0.1058
 41
0.1058
 66
1
 10
0
 20
0
 30
0
  0
VERTEX
  8
LAYER_3
 10
177.0142
 20
132.567
 42
0.2024282222
  0
VERTEX
  8
LAYER_3
 10
177.4084
 20
131.5574
 42
0.2024452288
  0
VERTEX
  8
LAYER_3
 10
178.4069
 20
131.1359
  0
SEQEND
  0
POLYLINE
  8
LAYER_3
 40
0.1058
 41
0.1058
 66
1
 10
0
 20
0
 30
0
  0
VERTEX
  8
LAYER_3
 10
177.0142
 20
132.567
 42
0.2024282222
  0
VERTEX
  8
LAYER_3
 10
177.4084
 20
131.5574
 42
0.2024452288
  0
VERTEX
  8
LAYER_3
 10
178.4069
 20
131.1359
  0
SEQEND
  0
POLYLINE
  8
LAYER_3
 40
0.1058
 41
0.1058
 66
1
 10
0
 20
0
 30
0
  0
VERTEX
  8
LAYER_3
 10
84.2985
 20
128.5796
  0
VERTEX
  8
LAYER_3
 10
84.5157
 20
127.5663
  0
VERTEX
  8
LAYER_3
 10
84.2985
 20
128.5796
  0
SEQEND
  0
POLYLINE
  8
LAYER_3
 40
0.1058
 41
0.1058
 66
1
 10
0
 20
0
 30
0
  0
VERTEX
  8
LAYER_3
 10
146.215
 20
127.5663
  0
VERTEX
  8
LAYER_3
 10
146.4322
 20
128.5796
  0
VERTEX
  8
LAYER_3
 10
146.215
 20
127.5663
  0
SEQEND
  0
POLYLINE
  8
LAYER_3
 40
0.1058
 41
0.1058
 66
1
 10
0
 20
0
 30
0
  0
VERTEX
  8
LAYER_3
 10
82.272
 20
150.0386
  0
VERTEX
  8
LAYER_3
 10
81.7292
 20
130.0271
  0
VERTEX
  8
LAYER_3
 10
82.272
 20
150.0386
  0
SEQEND
  0
POLYLINE
  8
LAYER_3
 40
0.1058
 41
0.1058
 66
1
 10
0
 20
0
 30
0
  0
VERTEX
  8
LAYER_3
 10
149.0015
 20
130.0271
  0
VERTEX
  8
LAYER_3
 10
148.4587
 20
150.0386
  0
VERTEX
  8
LAYER_3
 10
149.0015
 20
130.0271
  0
SEQEND
  0
POLYLINE
  8
LAYER_3
 40
0.0423
 41
0.0423
 66
1
 10
0
 20
0
 30
0
  0
VERTEX
  8
LAYER_3
 10
82.9053
 20
150.6538
 42
0.4062610381
  0
VERTEX
  8
LAYER_3
 10
82.3084
 20
150.073
  0
SEQEND
  0
POLYLINE
  8
LAYER_3
 40
0.0423
 41
0.0423
 66
1
 10
0
 20
0
 30
0
  0
VERTEX
  8
LAYER_3
 10
82.9053
 20
150.6538
 42
0.4062610381
  0
VERTEX
  8
LAYER_3
 10
82.3084
 20
150.073
  0
SEQEND
  0
POLYLINE
  8
LAYER_3
 40
0.1058
 41
0.1058
 66
1
 10
0
 20
0
 30
0
  0
VERTEX
  8
LAYER_3
 10
148.4584
 20
150.073
 42
0.4062282013
  0
VERTEX
  8
LAYER_3
 10
147.8616
 20
150.6538
  0
SEQEND
  0
POLYLINE
  8
LAYER_3
 40
0.1058
 41
0.1058
 66
1
 10
0
 20
0
 30
0
  0
VERTEX
  8
LAYER_3
 10
148.4584
 20
150.073
 42
0.4062282013
  0
VERTEX
  8
LAYER_3
 10
147.8616
 20
150.6538
  0
SEQEND
  0
POLYLINE
  8
LAYER_3
 40
0.0423
 41
0.0423
 66
1
 10
0
 20
0
 30
0
  0
VERTEX
  8
LAYER_3
 10
147.6082
 20
128.6158
 42
0.2024588759
  0
VERTEX
  8
LAYER_3
 10
148.6067
 20
129.0373
 42
0.2024685602
  0
VERTEX
  8
LAYER_3
 10
149.0009
 20
130.0469
  0
SEQEND
  0
POLYLINE
  8
LAYER_3
 40
0.0423
 41
0.0423
 66
1
 10
0
 20
0
 30
0
  0
VERTEX
  8
LAYER_3
 10
147.6082
 20
128.6158
 42
0.2024588759
  0
VERTEX
  8
LAYER_3
 10
148.6067
 20
129.0373
 42
0.2024685602
  0
VERTEX
  8
LAYER_3
 10
149.0009
 20
130.0469
  0
SEQEND
  0
POLYLINE
  8
LAYER_3
 40
0.1058
 41
0.1058
 66
1
 10
0
 20
0
 30
0
  0
VERTEX
  8
LAYER_3
 10
81.7659
 20
130.0469
 42
0.2024634373
  0
VERTEX
  8
LAYER_3
 10
82.1602
 20
129.0373
 42
0.2024498032
  0
VERTEX
  8
LAYER_3
 10
83.1586
 20
128.6158
  0
SEQEND
  0
POLYLINE
  8
LAYER_3
 40
0.1058
 41
0.1058
 66
1
 10
0
 20
0
 30
0
  0
VERTEX
  8
LAYER_3
 10
81.7659
 20
130.0469
 42
0.2024634373
  0
VERTEX
  8
LAYER_3
 10
82.1602
 20
129.0373
 42
0.2024498032
  0
VERTEX
  8
LAYER_3
 10
83.1586
 20
128.6158
  0
SEQEND
  0
POLYLINE
  8
LAYER_3
 40
0.1058
 41
0.1058
 66
1
 10
0
 20
0
 30
0
  0
VERTEX
  8
LAYER_3
 10
84.2985
 20
128.5796
  0
VERTEX
  8
LAYER_3
 10
83.1405
 20
128.5796
  0
VERTEX
  8
LAYER_3
 10
84.2985
 20
128.5796
  0
SEQEND
  0
POLYLINE
  8
LAYER_3
 40
0.1058
 41
0.1058
 66
1
 10
0
 20
0
 30
0
  0
VERTEX
  8
LAYER_3
 10
147.5902
 20
128.5796
  0
VERTEX
  8
LAYER_3
 10
146.4322
 20
128.5796
  0
VERTEX
  8
LAYER_3
 10
147.5902
 20
128.5796
  0
SEQEND
  0
POLYLINE
  8
LAYER_3
 40
0.1058
 41
0.1058
 66
1
 10
0
 20
0
 30
0
  0
VERTEX
  8
LAYER_3
 10
84.2985
 20
128.5796
  0
VERTEX
  8
LAYER_3
 10
100.3295
 20
128.5796
  0
SEQEND
  0
POLYLINE
  8
LAYER_3
 40
0.1058
 41
0.1058
 66
1
 10
0
 20
0
 30
0
  0
VERTEX
  8
LAYER_3
 10
84.5157
 20
127.5663
  0
VERTEX
  8
LAYER_3
 10
146.215
 20
127.5663
  0
VERTEX
  8
LAYER_3
 10
84.5157
 20
127.5663
  0
SEQEND
  0
POLYLINE
  8
LAYER_3
 40
0.1058
 41
0.1058
 66
1
 10
0
 20
0
 30
0
  0
VERTEX
  8
LAYER_3
 10
147.8435
 20
150.6176
  0
VERTEX
  8
LAYER_3
 10
100.3295
 20
150.6176
  0
VERTEX
  8
LAYER_3
 10
147.8435
 20
150.6176
  0
SEQEND
  0
POLYLINE
  8
LAYER_3
 40
0.1058
 41
0.1058
 66
1
 10
0
 20
0
 30
0
  0
VERTEX
  8
LAYER_3
 10
100.3295
 20
150.6176
  0
VERTEX
  8
LAYER_3
 10
82.8872
 20
150.6176
  0
VERTEX
  8
LAYER_3
 10
100.3295
 20
150.6176
  0
SEQEND
  0
POLYLINE
  8
LAYER_3
 40
0.1058
 41
0.1058
 66
1
 10
0
 20
0
 30
0
  0
VERTEX
  8
LAYER_3
 10
100.3295
 20
128.5796
  0
VERTEX
  8
LAYER_3
 10
146.4322
 20
128.5796
  0
SEQEND
  0
POLYLINE
  8
LAYER_3
 40
0.1058
 41
0.1058
 66
1
 10
0
 20
0
 30
0
  0
VERTEX
  8
LAYER_3
 10
109.6658
 20
87.2074
  0
VERTEX
  8
LAYER_3
 10
121.68
 20
87.2436
  0
SEQEND
  0
POLYLINE
  8
LAYER_3
 40
0.1058
 41
0.1058
 66
1
 10
0
 20
0
 30
0
  0
VERTEX
  8
LAYER_3
 10
91.8617
 20
103.2746
  0
VERTEX
  8
LAYER_3
 10
84.2985
 20
103.2746
  0
SEQEND
  0
POLYLINE
  8
LAYER_3
 40
0.1058
 41
0.1058
 66
1
 10
0
 20
0
 30
0
  0
VERTEX
  8
LAYER_3
 10
83.7195
 20
103.8717
 42
0.4142013102
  0
VERTEX
  8
LAYER_3
 10
84.3166
 20
103.2746
  0
SEQEND
  0
POLYLINE
  8
LAYER_3
 40
0.1058
 41
0.1058
 66
1
 10
0
 20
0
 30
0
  0
VERTEX
  8
LAYER_3
 10
83.7195
 20
103.8536
  0
VERTEX
  8
LAYER_3
 10
83.7195
 20
104.0707
  0
SEQEND
  0
POLYLINE
  8
LAYER_3
 40
0.1058
 41
0.1058
 66
1
 10
0
 20
0
 30
0
  0
VERTEX
  8
LAYER_3
 10
83.7195
 20
104.0889
 42
0.4141928918
  0
VERTEX
  8
LAYER_3
 10
83.1224
 20
104.6859
  0
SEQEND
  0
POLYLINE
  8
LAYER_3
 40
0.1058
 41
0.1058
 66
1
 10
0
 20
0
 30
0
  0
VERTEX
  8
LAYER_3
 10
83.1043
 20
104.6497
  0
VERTEX
  8
LAYER_3
 10
82.8872
 20
104.6497
  0
SEQEND
  0
POLYLINE
  8
LAYER_3
 40
0.1058
 41
0.1058
 66
1
 10
0
 20
0
 30
0
  0
VERTEX
  8
LAYER_3
 10
82.9053
 20
104.6859
 42
0.4062464002
  0
VERTEX
  8
LAYER_3
 10
82.3084
 20
104.1051
  0
SEQEND
  0
POLYLINE
  8
LAYER_3
 40
0.1058
 41
0.1058
 66
1
 10
0
 20
0
 30
0
  0
VERTEX
  8
LAYER_3
 10
82.272
 20
104.0707
  0
VERTEX
  8
LAYER_3
 10
81.7292
 20
84.0591
  0
SEQEND
  0
POLYLINE
  8
LAYER_3
 40
0.1058
 41
0.1058
 66
1
 10
0
 20
0
 30
0
  0
VERTEX
  8
LAYER_3
 10
81.7659
 20
84.0791
 42
0.2024551841
  0
VERTEX
  8
LAYER_3
 10
82.1601
 20
83.0695
 42
0.2024728789
  0
VERTEX
  8
LAYER_3
 10
83.1586
 20
82.6478
  0
SEQEND
  0
POLYLINE
  8
LAYER_3
 40
0.1058
 41
0.1058
 66
1
 10
0
 20
0
 30
0
  0
VERTEX
  8
LAYER_3
 10
83.1405
 20
82.6117
  0
VERTEX
  8
LAYER_3
 10
83.8281
 20
82.6117
  0
SEQEND
  0
POLYLINE
  8
LAYER_3
 40
0.1058
 41
0.1058
 66
1
 10
0
 20
0
 30
0
  0
VERTEX
  8
LAYER_3
 10
84.4329
 20
82.1616
 42
0.3635484449
  0
VERTEX
  8
LAYER_3
 10
83.8398
 20
82.6478
  0
SEQEND
  0
POLYLINE
  8
LAYER_3
 40
0.1058
 41
0.1058
 66
1
 10
0
 20
0
 30
0
  0
VERTEX
  8
LAYER_3
 10
84.4071
 20
82.1412
  0
VERTEX
  8
LAYER_3
 10
84.5157
 20
81.6346
  0
VERTEX
  8
LAYER_3
 10
86.0355
 20
81.6346
  0
SEQEND
  0
POLYLINE
  8
LAYER_3
 40
0.1058
 41
0.1058
 66
1
 10
0
 20
0
 30
0
  0
VERTEX
  8
LAYER_3
 10
91.8617
 20
101.2481
  0
VERTEX
  8
LAYER_3
 10
87.5916
 20
101.2481
  0
SEQEND
  0
POLYLINE
  8
LAYER_3
 40
0.1058
 41
0.1058
 66
1
 10
0
 20
0
 30
0
  0
VERTEX
  8
LAYER_3
 10
87.6097
 20
101.2843
 42
0.4059935006
  0
VERTEX
  8
LAYER_3
 10
86.6149
 20
100.3172
  0
SEQEND
  0
POLYLINE
  8
LAYER_3
 40
0.1058
 41
0.1058
 66
1
 10
0
 20
0
 30
0
  0
VERTEX
  8
LAYER_3
 10
86.5783
 20
100.2711
  0
VERTEX
  8
LAYER_3
 10
86.0355
 20
81.6346
  0
SEQEND
  0
POLYLINE
  8
LAYER_3
 40
0.1058
 41
0.1058
 66
1
 10
0
 20
0
 30
0
  0
VERTEX
  8
LAYER_3
 10
96.8555
 20
101.2481
  0
VERTEX
  8
LAYER_3
 10
96.8555
 20
103.2746
  0
SEQEND
  0
POLYLINE
  8
LAYER_3
 40
0.1058
 41
0.1058
 66
1
 10
0
 20
0
 30
0
  0
VERTEX
  8
LAYER_3
 10
91.8617
 20
101.2481
  0
VERTEX
  8
LAYER_3
 10
91.8617
 20
103.2746
  0
SEQEND
  0
POLYLINE
  8
LAYER_3
 40
0.1058
 41
0.1058
 66
1
 10
0
 20
0
 30
0
  0
VERTEX
  8
LAYER_3
 10
119.1831
 20
84.8191
  0
VERTEX
  8
LAYER_3
 10
119.1831
 20
82.8288
  0
VERTEX
  8
LAYER_3
 10
121.1734
 20
82.8288
  0
VERTEX
  8
LAYER_3
 10
121.1734
 20
83.9868
  0
SEQEND
  0
POLYLINE
  8
LAYER_3
 40
0.1058
 41
0.1058
 66
1
 10
0
 20
0
 30
0
  0
VERTEX
  8
LAYER_3
 10
112.1628
 20
84.8191
  0
VERTEX
  8
LAYER_3
 10
119.1831
 20
84.8191
  0
SEQEND
  0
POLYLINE
  8
LAYER_3
 40
0.1058
 41
0.1058
 66
1
 10
0
 20
0
 30
0
  0
VERTEX
  8
LAYER_3
 10
112.1628
 20
82.8288
  0
VERTEX
  8
LAYER_3
 10
119.1831
 20
82.8288
  0
SEQEND
  0
POLYLINE
  8
LAYER_3
 40
0.1058
 41
0.1058
 66
1
 10
0
 20
0
 30
0
  0
VERTEX
  8
LAYER_3
 10
91.8617
 20
103.2746
  0
VERTEX
  8
LAYER_3
 10
96.8555
 20
103.2746
  0
SEQEND
  0
POLYLINE
  8
LAYER_3
 40
0.1058
 41
0.1058
 66
1
 10
0
 20
0
 30
0
  0
VERTEX
  8
LAYER_3
 10
91.8617
 20
101.2481
  0
VERTEX
  8
LAYER_3
 10
96.8555
 20
101.2481
  0
SEQEND
  0
POLYLINE
  8
LAYER_3
 40
0.1058
 41
0.1058
 66
1
 10
0
 20
0
 30
0
  0
VERTEX
  8
LAYER_3
 10
112.1628
 20
84.8191
  0
VERTEX
  8
LAYER_3
 10
109.8468
 20
87.0265
  0
VERTEX
  8
LAYER_3
 10
109.6658
 20
87.2074
  0
VERTEX
  8
LAYER_3
 10
105.5043
 20
87.4246
  0
SEQEND
  0
POLYLINE
  8
LAYER_3
 40
0.1058
 41
0.1058
 66
1
 10
0
 20
0
 30
0
  0
VERTEX
  8
LAYER_3
 10
104.9619
 20
88.0344
 42
0.3872164709
  0
VERTEX
  8
LAYER_3
 10
105.5265
 20
87.4616
  0
SEQEND
  0
POLYLINE
  8
LAYER_3
 40
0.1058
 41
0.1058
 66
1
 10
0
 20
0
 30
0
  0
VERTEX
  8
LAYER_3
 10
104.9253
 20
88.0036
  0
VERTEX
  8
LAYER_3
 10
104.3463
 20
102.6956
  0
SEQEND
  0
POLYLINE
  8
LAYER_3
 40
0.1058
 41
0.1058
 66
1
 10
0
 20
0
 30
0
  0
VERTEX
  8
LAYER_3
 10
104.382
 20
102.7009
 42
0.4027869432
  0
VERTEX
  8
LAYER_3
 10
103.7854
 20
103.2746
  0
SEQEND
  0
POLYLINE
  8
LAYER_3
 40
0.1058
 41
0.1058
 66
1
 10
0
 20
0
 30
0
  0
VERTEX
  8
LAYER_3
 10
103.7673
 20
103.2384
  0
VERTEX
  8
LAYER_3
 10
96.8555
 20
103.2384
  0
SEQEND
  0
POLYLINE
  8
LAYER_3
 40
0.1058
 41
0.1058
 66
1
 10
0
 20
0
 30
0
  0
VERTEX
  8
LAYER_3
 10
110.1363
 20
83.9506
  0
VERTEX
  8
LAYER_3
 10
108.7973
 20
85.2533
  0
VERTEX
  8
LAYER_3
 10
105.3957
 20
85.4343
  0
SEQEND
  0
POLYLINE
  8
LAYER_3
 40
0.1058
 41
0.1058
 66
1
 10
0
 20
0
 30
0
  0
VERTEX
  8
LAYER_3
 10
102.9732
 20
87.9562
 42
0.3880097671
  0
VERTEX
  8
LAYER_3
 10
105.4267
 20
85.4738
  0
SEQEND
  0
POLYLINE
  8
LAYER_3
 40
0.1058
 41
0.1058
 66
1
 10
0
 20
0
 30
0
  0
VERTEX
  8
LAYER_3
 10
102.935
 20
87.9312
  0
VERTEX
  8
LAYER_3
 10
102.4646
 20
100.3073
  0
SEQEND
  0
POLYLINE
  8
LAYER_3
 40
0.1058
 41
0.1058
 66
1
 10
0
 20
0
 30
0
  0
VERTEX
  8
LAYER_3
 10
102.4638
 20
100.292
 42
0.4027740638
  0
VERTEX
  8
LAYER_3
 10
101.4694
 20
101.2481
  0
SEQEND
  0
POLYLINE
  8
LAYER_3
 40
0.1058
 41
0.1058
 66
1
 10
0
 20
0
 30
0
  0
VERTEX
  8
LAYER_3
 10
101.4513
 20
101.2481
  0
VERTEX
  8
LAYER_3
 10
96.8555
 20
101.2481
  0
SEQEND
  0
POLYLINE
  8
LAYER_3
 40
0.1058
 41
0.1058
 66
1
 10
0
 20
0
 30
0
  0
VERTEX
  8
LAYER_3
 10
110.1363
 20
83.9506
  0
VERTEX
  8
LAYER_3
 10
110.1363
 20
82.8288
  0
VERTEX
  8
LAYER_3
 10
112.1628
 20
82.8288
  0
VERTEX
  8
LAYER_3
 10
112.1628
 20
84.8191
  0
SEQEND
  0
POLYLINE
  8
LAYER_3
 40
0.1058
 41
0.1058
 66
1
 10
0
 20
0
 30
0
  0
VERTEX
  8
LAYER_3
 10
86.0355
 20
81.6346
  0
VERTEX
  8
LAYER_3
 10
144.6952
 20
81.6346
  0
SEQEND
  0
POLYLINE
  8
LAYER_3
 40
0.1058
 41
0.1058
 66
1
 10
0
 20
0
 30
0
  0
VERTEX
  8
LAYER_3
 10
144.6952
 20
81.6346
  0
VERTEX
  8
LAYER_3
 10
146.0341
 20
81.6346
  0
VERTEX
  8
LAYER_3
 10
146.0341
 20
82.0327
  0
SEQEND
  0
POLYLINE
  8
LAYER_3
 40
0.1058
 41
0.1058
 66
1
 10
0
 20
0
 30
0
  0
VERTEX
  8
LAYER_3
 10
146.6674
 20
82.6478
 42
0.4142486501
  0
VERTEX
  8
LAYER_3
 10
146.0703
 20
82.0507
  0
SEQEND
  0
POLYLINE
  8
LAYER_3
 40
0.1058
 41
0.1058
 66
1
 10
0
 20
0
 30
0
  0
VERTEX
  8
LAYER_3
 10
146.6493
 20
82.6117
  0
VERTEX
  8
LAYER_3
 10
147.5902
 20
82.6117
  0
SEQEND
  0
POLYLINE
  8
LAYER_3
 40
0.1058
 41
0.1058
 66
1
 10
0
 20
0
 30
0
  0
VERTEX
  8
LAYER_3
 10
147.6082
 20
82.6478
 42
0.2024927706
  0
VERTEX
  8
LAYER_3
 10
148.6068
 20
83.0695
 42
0.202451097
  0
VERTEX
  8
LAYER_3
 10
149.0009
 20
84.0791
  0
SEQEND
  0
POLYLINE
  8
LAYER_3
 40
0.1058
 41
0.1058
 66
1
 10
0
 20
0
 30
0
  0
VERTEX
  8
LAYER_3
 10
149.0015
 20
84.0591
  0
VERTEX
  8
LAYER_3
 10
148.4587
 20
104.0707
  0
SEQEND
  0
POLYLINE
  8
LAYER_3
 40
0.1058
 41
0.1058
 66
1
 10
0
 20
0
 30
0
  0
VERTEX
  8
LAYER_3
 10
148.4584
 20
104.1051
 42
0.4062293133
  0
VERTEX
  8
LAYER_3
 10
147.8616
 20
104.6859
  0
SEQEND
  0
POLYLINE
  8
LAYER_3
 40
0.1058
 41
0.1058
 66
1
 10
0
 20
0
 30
0
  0
VERTEX
  8
LAYER_3
 10
147.8435
 20
104.6497
  0
VERTEX
  8
LAYER_3
 10
147.6263
 20
104.6497
  0
SEQEND
  0
POLYLINE
  8
LAYER_3
 40
0.1058
 41
0.1058
 66
1
 10
0
 20
0
 30
0
  0
VERTEX
  8
LAYER_3
 10
147.6444
 20
104.6859
 42
0.4141644881
  0
VERTEX
  8
LAYER_3
 10
147.0473
 20
104.0889
  0
SEQEND
  0
POLYLINE
  8
LAYER_3
 40
0.1058
 41
0.1058
 66
1
 10
0
 20
0
 30
0
  0
VERTEX
  8
LAYER_3
 10
147.0473
 20
104.0707
  0
VERTEX
  8
LAYER_3
 10
147.0473
 20
89.1616
  0
SEQEND
  0
POLYLINE
  8
LAYER_3
 40
0.1058
 41
0.1058
 66
1
 10
0
 20
0
 30
0
  0
VERTEX
  8
LAYER_3
 10
146.5205
 20
88.5867
 42
0.3800924928
  0
VERTEX
  8
LAYER_3
 10
147.0473
 20
89.1797
  0
SEQEND
  0
POLYLINE
  8
LAYER_3
 40
0.1058
 41
0.1058
 66
1
 10
0
 20
0
 30
0
  0
VERTEX
  8
LAYER_3
 10
146.5045
 20
88.5826
  0
VERTEX
  8
LAYER_3
 10
121.68
 20
87.2436
  0
VERTEX
  8
LAYER_3
 10
119.1831
 20
84.8191
  0
SEQEND
  0
POLYLINE
  8
LAYER_3
 40
0.1058
 41
0.1058
 66
1
 10
0
 20
0
 30
0
  0
VERTEX
  8
LAYER_3
 10
144.6952
 20
81.6346
  0
VERTEX
  8
LAYER_3
 10
144.5866
 20
85.2533
  0
SEQEND
  0
POLYLINE
  8
LAYER_3
 40
0.1058
 41
0.1058
 66
1
 10
0
 20
0
 30
0
  0
VERTEX
  8
LAYER_3
 10
144.5862
 20
85.2633
 42
0.2093516693
  0
VERTEX
  8
LAYER_3
 10
144.2455
 20
85.9853
 42
0.209376765
  0
VERTEX
  8
LAYER_3
 10
143.4838
 20
86.2245
  0
SEQEND
  0
POLYLINE
  8
LAYER_3
 40
0.1058
 41
0.1058
 66
1
 10
0
 20
0
 30
0
  0
VERTEX
  8
LAYER_3
 10
143.4648
 20
86.2304
  0
VERTEX
  8
LAYER_3
 10
136.6616
 20
85.8323
  0
VERTEX
  8
LAYER_3
 10
122.5485
 20
85.2895
  0
VERTEX
  8
LAYER_3
 10
121.1734
 20
83.9868
  0
SEQEND
  0
POLYLINE
  8
LAYER_3
 40
0.1058
 41
0.1058
 66
1
 10
0
 20
0
 30
0
  0
VERTEX
  8
LAYER_3
 10
81.7292
 20
82.0688
  0
VERTEX
  8
LAYER_3
 10
81.7292
 20
78.0521
  0
SEQEND
  0
POLYLINE
  8
LAYER_3
 40
0.1058
 41
0.1058
 66
1
 10
0
 20
0
 30
0
  0
VERTEX
  8
LAYER_3
 10
115.6729
 20
80.8023
  0
VERTEX
  8
LAYER_3
 10
115.6729
 20
78.0521
  0
SEQEND
  0
POLYLINE
  8
LAYER_3
 40
0.1058
 41
0.1058
 66
1
 10
0
 20
0
 30
0
  0
VERTEX
  8
LAYER_3
 10
83.7557
 20
78.0882
  0
VERTEX
  8
LAYER_3
 10
96.4213
 20
78.0882
  0
SEQEND
  0
POLYLINE
  8
LAYER_3
 40
0.1058
 41
0.1058
 66
1
 10
0
 20
0
 30
0
  0
VERTEX
  8
LAYER_3
 10
113.6464
 20
78.0882
  0
VERTEX
  8
LAYER_3
 10
101.0171
 20
78.0882
  0
SEQEND
  0
POLYLINE
  8
LAYER_3
 40
0.05
 41
0.05
 66
1
 10
0
 20
0
 30
0
 70
1
  0
VERTEX
  8
LAYER_3
 10
83.7557
 20
78.4139
  0
VERTEX
  8
LAYER_3
 10
83.7557
 20
77.7625
  0
VERTEX
  8
LAYER_3
 10
81.7292
 20
78.0882
  0
SEQEND
  0
POLYLINE
  8
LAYER_3
 66
1
 10
0
 20
0
 30
0
 70
1
  0
VERTEX
  8
LAYER_3
 10
83.7557
 20
78.4139
  0
VERTEX
  8
LAYER_3
 10
83.7557
 20
77.7625
  0
VERTEX
  8
LAYER_3
 10
81.7292
 20
78.0882
  0
SEQEND
  0
POLYLINE
  8
LAYER_3
 40
0.05
 41
0.05
 66
1
 10
0
 20
0
 30
0
 70
1
  0
VERTEX
  8
LAYER_3
 10
113.6464
 20
78.4139
  0
VERTEX
  8
LAYER_3
 10
113.6464
 20
77.7625
  0
VERTEX
  8
LAYER_3
 10
115.6729
 20
78.0882
  0
SEQEND
  0
POLYLINE
  8
LAYER_3
 66
1
 10
0
 20
0
 30
0
 70
1
  0
VERTEX
  8
LAYER_3
 10
113.6464
 20
78.4139
  0
VERTEX
  8
LAYER_3
 10
113.6464
 20
77.7625
  0
VERTEX
  8
LAYER_3
 10
115.6729
 20
78.0882
  0
SEQEND
  0
POLYLINE
  8
LAYER_3
 40
0.1058
 41
0.1058
 66
1
 10
0
 20
0
 30
0
  0
VERTEX
  8
LAYER_3
 10
115.6729
 20
80.8023
  0
VERTEX
  8
LAYER_3
 10
115.6729
 20
78.0521
  0
SEQEND
  0
POLYLINE
  8
LAYER_3
 40
0.1058
 41
0.1058
 66
1
 10
0
 20
0
 30
0
  0
VERTEX
  8
LAYER_3
 10
149.0015
 20
82.0327
  0
VERTEX
  8
LAYER_3
 10
149.0015
 20
78.0521
  0
SEQEND
  0
POLYLINE
  8
LAYER_3
 40
0.1058
 41
0.1058
 66
1
 10
0
 20
0
 30
0
  0
VERTEX
  8
LAYER_3
 10
117.6632
 20
78.0882
  0
VERTEX
  8
LAYER_3
 10
128.8364
 20
78.0882
  0
SEQEND
  0
POLYLINE
  8
LAYER_3
 40
0.1058
 41
0.1058
 66
1
 10
0
 20
0
 30
0
  0
VERTEX
  8
LAYER_3
 10
147.0112
 20
78.0882
  0
VERTEX
  8
LAYER_3
 10
134.6351
 20
78.0882
  0
SEQEND
  0
POLYLINE
  8
LAYER_3
 40
0.05
 41
0.05
 66
1
 10
0
 20
0
 30
0
 70
1
  0
VERTEX
  8
LAYER_3
 10
117.6632
 20
78.4139
  0
VERTEX
  8
LAYER_3
 10
117.6632
 20
77.7625
  0
VERTEX
  8
LAYER_3
 10
115.6729
 20
78.0882
  0
SEQEND
  0
POLYLINE
  8
LAYER_3
 66
1
 10
0
 20
0
 30
0
 70
1
  0
VERTEX
  8
LAYER_3
 10
117.6632
 20
78.4139
  0
VERTEX
  8
LAYER_3
 10
117.6632
 20
77.7625
  0
VERTEX
  8
LAYER_3
 10
115.6729
 20
78.0882
  0
SEQEND
  0
POLYLINE
  8
LAYER_3
 40
0.05
 41
0.05
 66
1
 10
0
 20
0
 30
0
 70
1
  0
VERTEX
  8
LAYER_3
 10
147.0112
 20
78.4139
  0
VERTEX
  8
LAYER_3
 10
147.0112
 20
77.7625
  0
VERTEX
  8
LAYER_3
 10
149.0015
 20
78.0882
  0
SEQEND
  0
POLYLINE
  8
LAYER_3
 66
1
 10
0
 20
0
 30
0
 70
1
  0
VERTEX
  8
LAYER_3
 10
147.0112
 20
78.4139
  0
VERTEX
  8
LAYER_3
 10
147.0112
 20
77.7625
  0
VERTEX
  8
LAYER_3
 10
149.0015
 20
78.0882
  0
SEQEND
  0
POLYLINE
  8
LAYER_3
 40
0.1058
 41
0.1058
 66
1
 10
0
 20
0
 30
0
  0
VERTEX
  8
LAYER_3
 10
81.7292
 20
82.0688
  0
VERTEX
  8
LAYER_3
 10
81.7292
 20
74.4333
  0
SEQEND
  0
POLYLINE
  8
LAYER_3
 40
0.1058
 41
0.1058
 66
1
 10
0
 20
0
 30
0
  0
VERTEX
  8
LAYER_3
 10
149.0015
 20
82.0327
  0
VERTEX
  8
LAYER_3
 10
149.0015
 20
74.4333
  0
SEQEND
  0
POLYLINE
  8
LAYER_3
 40
0.1058
 41
0.1058
 66
1
 10
0
 20
0
 30
0
  0
VERTEX
  8
LAYER_3
 10
83.7557
 20
74.4695
  0
VERTEX
  8
LAYER_3
 10
112.0198
 20
74.4695
  0
SEQEND
  0
POLYLINE
  8
LAYER_3
 40
0.1058
 41
0.1058
 66
1
 10
0
 20
0
 30
0
  0
VERTEX
  8
LAYER_3
 10
147.0112
 20
74.4695
  0
VERTEX
  8
LAYER_3
 10
117.7356
 20
74.4695
  0
SEQEND
  0
POLYLINE
  8
LAYER_3
 40
0.05
 41
0.05
 66
1
 10
0
 20
0
 30
0
 70
1
  0
VERTEX
  8
LAYER_3
 10
83.7557
 20
74.7952
  0
VERTEX
  8
LAYER_3
 10
83.7557
 20
74.1076
  0
VERTEX
  8
LAYER_3
 10
81.7292
 20
74.4695
  0
SEQEND
  0
POLYLINE
  8
LAYER_3
 66
1
 10
0
 20
0
 30
0
 70
1
  0
VERTEX
  8
LAYER_3
 10
83.7557
 20
74.7952
  0
VERTEX
  8
LAYER_3
 10
83.7557
 20
74.1076
  0
VERTEX
  8
LAYER_3
 10
81.7292
 20
74.4695
  0
SEQEND
  0
POLYLINE
  8
LAYER_3
 40
0.05
 41
0.05
 66
1
 10
0
 20
0
 30
0
 70
1
  0
VERTEX
  8
LAYER_3
 10
147.0112
 20
74.7952
  0
VERTEX
  8
LAYER_3
 10
147.0112
 20
74.1076
  0
VERTEX
  8
LAYER_3
 10
149.0015
 20
74.4695
  0
SEQEND
  0
POLYLINE
  8
LAYER_3
 66
1
 10
0
 20
0
 30
0
 70
1
  0
VERTEX
  8
LAYER_3
 10
147.0112
 20
74.7952
  0
VERTEX
  8
LAYER_3
 10
147.0112
 20
74.1076
  0
VERTEX
  8
LAYER_3
 10
149.0015
 20
74.4695
  0
SEQEND
  0
POLYLINE
  8
LAYER_3
 40
0.1058
 41
0.1058
 66
1
 10
0
 20
0
 30
0
  0
VERTEX
  8
LAYER_3
 10
117.6632
 20
87.2436
  0
VERTEX
  8
LAYER_3
 10
115.7091
 20
87.2436
  0
SEQEND
  0
POLYLINE
  8
LAYER_3
 40
0.1058
 41
0.1058
 66
1
 10
0
 20
0
 30
0
  0
VERTEX
  8
LAYER_3
 10
113.6464
 20
104.6497
  0
VERTEX
  8
LAYER_3
 10
115.6367
 20
104.6497
  0
SEQEND
  0
POLYLINE
  8
LAYER_3
 40
0.1058
 41
0.1058
 66
1
 10
0
 20
0
 30
0
  0
VERTEX
  8
LAYER_3
 10
115.6729
 20
89.2339
  0
VERTEX
  8
LAYER_3
 10
115.6729
 20
94.1916
  0
SEQEND
  0
POLYLINE
  8
LAYER_3
 40
0.1058
 41
0.1058
 66
1
 10
0
 20
0
 30
0
  0
VERTEX
  8
LAYER_3
 10
115.6729
 20
102.6594
  0
VERTEX
  8
LAYER_3
 10
115.6729
 20
97.7018
  0
SEQEND
  0
POLYLINE
  8
LAYER_3
 40
0.05
 41
0.05
 66
1
 10
0
 20
0
 30
0
 70
1
  0
VERTEX
  8
LAYER_3
 10
115.3473
 20
89.2339
  0
VERTEX
  8
LAYER_3
 10
115.9986
 20
89.2339
  0
VERTEX
  8
LAYER_3
 10
115.6729
 20
87.2436
  0
SEQEND
  0
POLYLINE
  8
LAYER_3
 66
1
 10
0
 20
0
 30
0
 70
1
  0
VERTEX
  8
LAYER_3
 10
115.3473
 20
89.2339
  0
VERTEX
  8
LAYER_3
 10
115.9986
 20
89.2339
  0
VERTEX
  8
LAYER_3
 10
115.6729
 20
87.2436
  0
SEQEND
  0
POLYLINE
  8
LAYER_3
 40
0.05
 41
0.05
 66
1
 10
0
 20
0
 30
0
 70
1
  0
VERTEX
  8
LAYER_3
 10
115.3473
 20
102.6594
  0
VERTEX
  8
LAYER_3
 10
115.9986
 20
102.6594
  0
VERTEX
  8
LAYER_3
 10
115.6729
 20
104.6497
  0
SEQEND
  0
POLYLINE
  8
LAYER_3
 66
1
 10
0
 20
0
 30
0
 70
1
  0
VERTEX
  8
LAYER_3
 10
115.3473
 20
102.6594
  0
VERTEX
  8
LAYER_3
 10
115.9986
 20
102.6594
  0
VERTEX
  8
LAYER_3
 10
115.6729
 20
104.6497
  0
SEQEND
  0
POLYLINE
  8
LAYER_3
 40
0.1058
 41
0.1058
 66
1
 10
0
 20
0
 30
0
  0
VERTEX
  8
LAYER_3
 10
94.3586
 20
105.2649
  0
VERTEX
  8
LAYER_3
 10
94.3586
 20
107.5809
  0
SEQEND
  0
POLYLINE
  8
LAYER_3
 40
0.1058
 41
0.1058
 66
1
 10
0
 20
0
 30
0
  0
VERTEX
  8
LAYER_3
 10
82.272
 20
106.0972
  0
VERTEX
  8
LAYER_3
 10
82.272
 20
107.5809
  0
SEQEND
  0
POLYLINE
  8
LAYER_3
 40
0.1058
 41
0.1058
 66
1
 10
0
 20
0
 30
0
  0
VERTEX
  8
LAYER_3
 10
92.3683
 20
107.5447
  0
VERTEX
  8
LAYER_3
 10
90.2332
 20
107.5447
  0
SEQEND
  0
POLYLINE
  8
LAYER_3
 40
0.1058
 41
0.1058
 66
1
 10
0
 20
0
 30
0
  0
VERTEX
  8
LAYER_3
 10
84.2985
 20
107.5447
  0
VERTEX
  8
LAYER_3
 10
86.4336
 20
107.5447
  0
SEQEND
  0
POLYLINE
  8
LAYER_3
 40
0.05
 41
0.05
 66
1
 10
0
 20
0
 30
0
 70
1
  0
VERTEX
  8
LAYER_3
 10
92.3683
 20
107.8704
  0
VERTEX
  8
LAYER_3
 10
92.3683
 20
107.219
  0
VERTEX
  8
LAYER_3
 10
94.3586
 20
107.5447
  0
SEQEND
  0
POLYLINE
  8
LAYER_3
 66
1
 10
0
 20
0
 30
0
 70
1
  0
VERTEX
  8
LAYER_3
 10
92.3683
 20
107.8704
  0
VERTEX
  8
LAYER_3
 10
92.3683
 20
107.219
  0
VERTEX
  8
LAYER_3
 10
94.3586
 20
107.5447
  0
SEQEND
  0
POLYLINE
  8
LAYER_3
 40
0.05
 41
0.05
 66
1
 10
0
 20
0
 30
0
 70
1
  0
VERTEX
  8
LAYER_3
 10
84.2985
 20
107.8704
  0
VERTEX
  8
LAYER_3
 10
84.2985
 20
107.219
  0
VERTEX
  8
LAYER_3
 10
82.272
 20
107.5447
  0
SEQEND
  0
POLYLINE
  8
LAYER_3
 66
1
 10
0
 20
0
 30
0
 70
1
  0
VERTEX
  8
LAYER_3
 10
84.2985
 20
107.8704
  0
VERTEX
  8
LAYER_3
 10
84.2985
 20
107.219
  0
VERTEX
  8
LAYER_3
 10
82.272
 20
107.5447
  0
SEQEND
  0
POLYLINE
  8
LAYER_3
 40
0.1058
 41
0.1058
 66
1
 10
0
 20
0
 30
0
  0
VERTEX
  8
LAYER_3
 10
94.3586
 20
105.2649
  0
VERTEX
  8
LAYER_3
 10
94.3586
 20
107.5809
  0
SEQEND
  0
POLYLINE
  8
LAYER_3
 40
0.1058
 41
0.1058
 66
1
 10
0
 20
0
 30
0
  0
VERTEX
  8
LAYER_3
 10
104.3463
 20
104.6859
  0
VERTEX
  8
LAYER_3
 10
104.3463
 20
107.5809
  0
SEQEND
  0
POLYLINE
  8
LAYER_3
 40
0.1058
 41
0.1058
 66
1
 10
0
 20
0
 30
0
  0
VERTEX
  8
LAYER_3
 10
96.3851
 20
107.5447
  0
VERTEX
  8
LAYER_3
 10
97.4707
 20
107.5447
  0
SEQEND
  0
POLYLINE
  8
LAYER_3
 40
0.1058
 41
0.1058
 66
1
 10
0
 20
0
 30
0
  0
VERTEX
  8
LAYER_3
 10
102.356
 20
107.5447
  0
VERTEX
  8
LAYER_3
 10
101.2704
 20
107.5447
  0
SEQEND
  0
POLYLINE
  8
LAYER_3
 40
0.05
 41
0.05
 66
1
 10
0
 20
0
 30
0
 70
1
  0
VERTEX
  8
LAYER_3
 10
96.3851
 20
107.8704
  0
VERTEX
  8
LAYER_3
 10
96.3851
 20
107.219
  0
VERTEX
  8
LAYER_3
 10
94.3586
 20
107.5447
  0
SEQEND
  0
POLYLINE
  8
LAYER_3
 66
1
 10
0
 20
0
 30
0
 70
1
  0
VERTEX
  8
LAYER_3
 10
96.3851
 20
107.8704
  0
VERTEX
  8
LAYER_3
 10
96.3851
 20
107.219
  0
VERTEX
  8
LAYER_3
 10
94.3586
 20
107.5447
  0
SEQEND
  0
POLYLINE
  8
LAYER_3
 40
0.05
 41
0.05
 66
1
 10
0
 20
0
 30
0
 70
1
  0
VERTEX
  8
LAYER_3
 10
102.356
 20
107.8704
  0
VERTEX
  8
LAYER_3
 10
102.356
 20
107.219
  0
VERTEX
  8
LAYER_3
 10
104.3463
 20
107.5447
  0
SEQEND
  0
POLYLINE
  8
LAYER_3
 66
1
 10
0
 20
0
 30
0
 70
1
  0
VERTEX
  8
LAYER_3
 10
102.356
 20
107.8704
  0
VERTEX
  8
LAYER_3
 10
102.356
 20
107.219
  0
VERTEX
  8
LAYER_3
 10
104.3463
 20
107.5447
  0
SEQEND
  0
POLYLINE
  8
LAYER_3
 40
0.1058
 41
0.1058
 66
1
 10
0
 20
0
 30
0
  0
VERTEX
  8
LAYER_3
 10
104.3463
 20
104.6859
  0
VERTEX
  8
LAYER_3
 10
104.3463
 20
107.5809
  0
SEQEND
  0
POLYLINE
  8
LAYER_3
 40
0.1058
 41
0.1058
 66
1
 10
0
 20
0
 30
0
  0
VERTEX
  8
LAYER_3
 10
147.0473
 20
106.061
  0
VERTEX
  8
LAYER_3
 10
147.0473
 20
107.5809
  0
SEQEND
  0
POLYLINE
  8
LAYER_3
 40
0.1058
 41
0.1058
 66
1
 10
0
 20
0
 30
0
  0
VERTEX
  8
LAYER_3
 10
106.3728
 20
107.5447
  0
VERTEX
  8
LAYER_3
 10
122.3835
 20
107.5447
  0
SEQEND
  0
POLYLINE
  8
LAYER_3
 40
0.1058
 41
0.1058
 66
1
 10
0
 20
0
 30
0
  0
VERTEX
  8
LAYER_3
 10
145.0209
 20
107.5447
  0
VERTEX
  8
LAYER_3
 10
128.0852
 20
107.5447
  0
SEQEND
  0
POLYLINE
  8
LAYER_3
 40
0.05
 41
0.05
 66
1
 10
0
 20
0
 30
0
 70
1
  0
VERTEX
  8
LAYER_3
 10
106.3728
 20
107.8704
  0
VERTEX
  8
LAYER_3
 10
106.3728
 20
107.219
  0
VERTEX
  8
LAYER_3
 10
104.3463
 20
107.5447
  0
SEQEND
  0
POLYLINE
  8
LAYER_3
 66
1
 10
0
 20
0
 30
0
 70
1
  0
VERTEX
  8
LAYER_3
 10
106.3728
 20
107.8704
  0
VERTEX
  8
LAYER_3
 10
106.3728
 20
107.219
  0
VERTEX
  8
LAYER_3
 10
104.3463
 20
107.5447
  0
SEQEND
  0
POLYLINE
  8
LAYER_3
 40
0.05
 41
0.05
 66
1
 10
0
 20
0
 30
0
 70
1
  0
VERTEX
  8
LAYER_3
 10
145.0209
 20
107.8704
  0
VERTEX
  8
LAYER_3
 10
145.0209
 20
107.219
  0
VERTEX
  8
LAYER_3
 10
147.0473
 20
107.5447
  0
SEQEND
  0
POLYLINE
  8
LAYER_3
 66
1
 10
0
 20
0
 30
0
 70
1
  0
VERTEX
  8
LAYER_3
 10
145.0209
 20
107.8704
  0
VERTEX
  8
LAYER_3
 10
145.0209
 20
107.219
  0
VERTEX
  8
LAYER_3
 10
147.0473
 20
107.5447
  0
SEQEND
  0
POLYLINE
  8
LAYER_3
 40
0.1058
 41
0.1058
 66
1
 10
0
 20
0
 30
0
  0
VERTEX
  8
LAYER_3
 10
82.272
 20
106.0972
  0
VERTEX
  8
LAYER_3
 10
82.272
 20
110.9101
  0
SEQEND
  0
POLYLINE
  8
LAYER_3
 40
0.1058
 41
0.1058
 66
1
 10
0
 20
0
 30
0
  0
VERTEX
  8
LAYER_3
 10
148.4587
 20
106.1334
  0
VERTEX
  8
LAYER_3
 10
148.4587
 20
110.9101
  0
SEQEND
  0
POLYLINE
  8
LAYER_3
 40
0.1058
 41
0.1058
 66
1
 10
0
 20
0
 30
0
  0
VERTEX
  8
LAYER_3
 10
84.2985
 20
110.874
  0
VERTEX
  8
LAYER_3
 10
112.9951
 20
110.874
  0
SEQEND
  0
POLYLINE
  8
LAYER_3
 40
0.1058
 41
0.1058
 66
1
 10
0
 20
0
 30
0
  0
VERTEX
  8
LAYER_3
 10
146.4322
 20
110.874
  0
VERTEX
  8
LAYER_3
 10
118.9615
 20
110.874
  0
SEQEND
  0
POLYLINE
  8
LAYER_3
 40
0.05
 41
0.05
 66
1
 10
0
 20
0
 30
0
 70
1
  0
VERTEX
  8
LAYER_3
 10
84.2985
 20
111.1996
  0
VERTEX
  8
LAYER_3
 10
84.2985
 20
110.5483
  0
VERTEX
  8
LAYER_3
 10
82.272
 20
110.874
  0
SEQEND
  0
POLYLINE
  8
LAYER_3
 66
1
 10
0
 20
0
 30
0
 70
1
  0
VERTEX
  8
LAYER_3
 10
84.2985
 20
111.1996
  0
VERTEX
  8
LAYER_3
 10
84.2985
 20
110.5483
  0
VERTEX
  8
LAYER_3
 10
82.272
 20
110.874
  0
SEQEND
  0
POLYLINE
  8
LAYER_3
 40
0.05
 41
0.05
 66
1
 10
0
 20
0
 30
0
 70
1
  0
VERTEX
  8
LAYER_3
 10
146.4322
 20
111.1996
  0
VERTEX
  8
LAYER_3
 10
146.4322
 20
110.5483
  0
VERTEX
  8
LAYER_3
 10
148.4587
 20
110.874
  0
SEQEND
  0
POLYLINE
  8
LAYER_3
 66
1
 10
0
 20
0
 30
0
 70
1
  0
VERTEX
  8
LAYER_3
 10
146.4322
 20
111.1996
  0
VERTEX
  8
LAYER_3
 10
146.4322
 20
110.5483
  0
VERTEX
  8
LAYER_3
 10
148.4587
 20
110.874
  0
SEQEND
  0
POLYLINE
  8
LAYER_3
 40
0.1058
 41
0.1058
 66
1
 10
0
 20
0
 30
0
  0
VERTEX
  8
LAYER_3
 10
179.0402
 20
131.0997
  0
VERTEX
  8
LAYER_3
 10
212.1154
 20
131.0997
  0
SEQEND
  0
POLYLINE
  8
LAYER_3
 40
0.1058
 41
0.1058
 66
1
 10
0
 20
0
 30
0
  0
VERTEX
  8
LAYER_3
 10
81.7292
 20
128.0006
  0
VERTEX
  8
LAYER_3
 10
81.7292
 20
124.1647
  0
SEQEND
  0
POLYLINE
  8
LAYER_3
 40
0.1058
 41
0.1058
 66
1
 10
0
 20
0
 30
0
  0
VERTEX
  8
LAYER_3
 10
149.0015
 20
128.0006
  0
VERTEX
  8
LAYER_3
 10
149.0015
 20
124.1647
  0
SEQEND
  0
POLYLINE
  8
LAYER_3
 40
0.1058
 41
0.1058
 66
1
 10
0
 20
0
 30
0
  0
VERTEX
  8
LAYER_3
 10
83.7557
 20
124.2009
  0
VERTEX
  8
LAYER_3
 10
111.8306
 20
124.2009
  0
SEQEND
  0
POLYLINE
  8
LAYER_3
 40
0.1058
 41
0.1058
 66
1
 10
0
 20
0
 30
0
  0
VERTEX
  8
LAYER_3
 10
147.0112
 20
124.2009
  0
VERTEX
  8
LAYER_3
 10
118.2688
 20
124.2009
  0
SEQEND
  0
POLYLINE
  8
LAYER_3
 40
0.05
 41
0.05
 66
1
 10
0
 20
0
 30
0
 70
1
  0
VERTEX
  8
LAYER_3
 10
83.7557
 20
124.5628
  0
VERTEX
  8
LAYER_3
 10
83.7557
 20
123.8752
  0
VERTEX
  8
LAYER_3
 10
81.7292
 20
124.2009
  0
SEQEND
  0
POLYLINE
  8
LAYER_3
 66
1
 10
0
 20
0
 30
0
 70
1
  0
VERTEX
  8
LAYER_3
 10
83.7557
 20
124.5628
  0
VERTEX
  8
LAYER_3
 10
83.7557
 20
123.8752
  0
VERTEX
  8
LAYER_3
 10
81.7292
 20
124.2009
  0
SEQEND
  0
POLYLINE
  8
LAYER_3
 40
0.05
 41
0.05
 66
1
 10
0
 20
0
 30
0
 70
1
  0
VERTEX
  8
LAYER_3
 10
147.0112
 20
124.5628
  0
VERTEX
  8
LAYER_3
 10
147.0112
 20
123.8752
  0
VERTEX
  8
LAYER_3
 10
149.0015
 20
124.2009
  0
SEQEND
  0
POLYLINE
  8
LAYER_3
 66
1
 10
0
 20
0
 30
0
 70
1
  0
VERTEX
  8
LAYER_3
 10
147.0112
 20
124.5628
  0
VERTEX
  8
LAYER_3
 10
147.0112
 20
123.8752
  0
VERTEX
  8
LAYER_3
 10
149.0015
 20
124.2009
  0
SEQEND
  0
POLYLINE
  8
LAYER_3
 40
0.1058
 41
0.1058
 66
1
 10
0
 20
0
 30
0
  0
VERTEX
  8
LAYER_3
 10
113.3569
 20
127.5663
  0
VERTEX
  8
LAYER_3
 10
77.7124
 20
127.5663
  0
SEQEND
  0
POLYLINE
  8
LAYER_3
 40
0.1058
 41
0.1058
 66
1
 10
0
 20
0
 30
0
  0
VERTEX
  8
LAYER_3
 10
113.3569
 20
150.6176
  0
VERTEX
  8
LAYER_3
 10
77.7124
 20
150.6176
  0
SEQEND
  0
POLYLINE
  8
LAYER_3
 40
0.1058
 41
0.1058
 66
1
 10
0
 20
0
 30
0
  0
VERTEX
  8
LAYER_3
 10
77.7486
 20
129.5928
  0
VERTEX
  8
LAYER_3
 10
77.7486
 20
135.9399
  0
SEQEND
  0
POLYLINE
  8
LAYER_3
 40
0.1058
 41
0.1058
 66
1
 10
0
 20
0
 30
0
  0
VERTEX
  8
LAYER_3
 10
77.7486
 20
148.6273
  0
VERTEX
  8
LAYER_3
 10
77.7486
 20
142.2899
  0
SEQEND
  0
POLYLINE
  8
LAYER_3
 40
0.05
 41
0.05
 66
1
 10
0
 20
0
 30
0
 70
1
  0
VERTEX
  8
LAYER_3
 10
77.4229
 20
129.5928
  0
VERTEX
  8
LAYER_3
 10
78.1105
 20
129.5928
  0
VERTEX
  8
LAYER_3
 10
77.7486
 20
127.5663
  0
SEQEND
  0
POLYLINE
  8
LAYER_3
 66
1
 10
0
 20
0
 30
0
 70
1
  0
VERTEX
  8
LAYER_3
 10
77.4229
 20
129.5928
  0
VERTEX
  8
LAYER_3
 10
78.1105
 20
129.5928
  0
VERTEX
  8
LAYER_3
 10
77.7486
 20
127.5663
  0
SEQEND
  0
POLYLINE
  8
LAYER_3
 40
0.05
 41
0.05
 66
1
 10
0
 20
0
 30
0
 70
1
  0
VERTEX
  8
LAYER_3
 10
77.4229
 20
148.6273
  0
VERTEX
  8
LAYER_3
 10
78.1105
 20
148.6273
  0
VERTEX
  8
LAYER_3
 10
77.7486
 20
150.6176
  0
SEQEND
  0
POLYLINE
  8
LAYER_3
 66
1
 10
0
 20
0
 30
0
 70
1
  0
VERTEX
  8
LAYER_3
 10
77.4229
 20
148.6273
  0
VERTEX
  8
LAYER_3
 10
78.1105
 20
148.6273
  0
VERTEX
  8
LAYER_3
 10
77.7486
 20
150.6176
  0
SEQEND
  0
POLYLINE
  8
LAYER_3
 40
0.1058
 41
0.1058
 66
1
 10
0
 20
0
 30
0
  0
VERTEX
  8
LAYER_3
 10
82.272
 20
152.0651
  0
VERTEX
  8
LAYER_3
 10
82.272
 20
153.5488
  0
SEQEND
  0
POLYLINE
  8
LAYER_3
 40
0.1058
 41
0.1058
 66
1
 10
0
 20
0
 30
0
  0
VERTEX
  8
LAYER_3
 10
148.4587
 20
152.0651
  0
VERTEX
  8
LAYER_3
 10
148.4587
 20
153.5488
  0
SEQEND
  0
POLYLINE
  8
LAYER_3
 40
0.1058
 41
0.1058
 66
1
 10
0
 20
0
 30
0
  0
VERTEX
  8
LAYER_3
 10
84.2985
 20
153.5126
  0
VERTEX
  8
LAYER_3
 10
111.9815
 20
153.5126
  0
SEQEND
  0
POLYLINE
  8
LAYER_3
 40
0.1058
 41
0.1058
 66
1
 10
0
 20
0
 30
0
  0
VERTEX
  8
LAYER_3
 10
146.4322
 20
153.5126
  0
VERTEX
  8
LAYER_3
 10
119.3743
 20
153.5126
  0
SEQEND
  0
POLYLINE
  8
LAYER_3
 40
0.05
 41
0.05
 66
1
 10
0
 20
0
 30
0
 70
1
  0
VERTEX
  8
LAYER_3
 10
84.2985
 20
153.8383
  0
VERTEX
  8
LAYER_3
 10
84.2985
 20
153.1508
  0
VERTEX
  8
LAYER_3
 10
82.272
 20
153.5126
  0
SEQEND
  0
POLYLINE
  8
LAYER_3
 66
1
 10
0
 20
0
 30
0
 70
1
  0
VERTEX
  8
LAYER_3
 10
84.2985
 20
153.8383
  0
VERTEX
  8
LAYER_3
 10
84.2985
 20
153.1508
  0
VERTEX
  8
LAYER_3
 10
82.272
 20
153.5126
  0
SEQEND
  0
POLYLINE
  8
LAYER_3
 40
0.05
 41
0.05
 66
1
 10
0
 20
0
 30
0
 70
1
  0
VERTEX
  8
LAYER_3
 10
146.4322
 20
153.8383
  0
VERTEX
  8
LAYER_3
 10
146.4322
 20
153.1508
  0
VERTEX
  8
LAYER_3
 10
148.4587
 20
153.5126
  0
SEQEND
  0
POLYLINE
  8
LAYER_3
 66
1
 10
0
 20
0
 30
0
 70
1
  0
VERTEX
  8
LAYER_3
 10
146.4322
 20
153.8383
  0
VERTEX
  8
LAYER_3
 10
146.4322
 20
153.1508
  0
VERTEX
  8
LAYER_3
 10
148.4587
 20
153.5126
  0
SEQEND
  0
POLYLINE
  8
LAYER_3
 40
0.1058
 41
0.1058
 66
1
 10
0
 20
0
 30
0
  0
VERTEX
  8
LAYER_3
 10
177.5203
 20
154.5853
  0
VERTEX
  8
LAYER_3
 10
177.5203
 20
156.069
  0
SEQEND
  0
POLYLINE
  8
LAYER_3
 40
0.1058
 41
0.1058
 66
1
 10
0
 20
0
 30
0
  0
VERTEX
  8
LAYER_3
 10
213.6353
 20
154.5853
  0
VERTEX
  8
LAYER_3
 10
213.6353
 20
156.069
  0
SEQEND
  0
POLYLINE
  8
LAYER_3
 40
0.1058
 41
0.1058
 66
1
 10
0
 20
0
 30
0
  0
VERTEX
  8
LAYER_3
 10
179.5468
 20
156.0328
  0
VERTEX
  8
LAYER_3
 10
193.298
 20
156.0328
  0
SEQEND
  0
POLYLINE
  8
LAYER_3
 40
0.1058
 41
0.1058
 66
1
 10
0
 20
0
 30
0
  0
VERTEX
  8
LAYER_3
 10
211.645
 20
156.0328
  0
VERTEX
  8
LAYER_3
 10
197.8938
 20
156.0328
  0
SEQEND
  0
POLYLINE
  8
LAYER_3
 40
0.05
 41
0.05
 66
1
 10
0
 20
0
 30
0
 70
1
  0
VERTEX
  8
LAYER_3
 10
179.5468
 20
156.3584
  0
VERTEX
  8
LAYER_3
 10
179.5468
 20
155.6709
  0
VERTEX
  8
LAYER_3
 10
177.5203
 20
156.0328
  0
SEQEND
  0
POLYLINE
  8
LAYER_3
 66
1
 10
0
 20
0
 30
0
 70
1
  0
VERTEX
  8
LAYER_3
 10
179.5468
 20
156.3584
  0
VERTEX
  8
LAYER_3
 10
179.5468
 20
155.6709
  0
VERTEX
  8
LAYER_3
 10
177.5203
 20
156.0328
  0
SEQEND
  0
POLYLINE
  8
LAYER_3
 40
0.05
 41
0.05
 66
1
 10
0
 20
0
 30
0
 70
1
  0
VERTEX
  8
LAYER_3
 10
211.645
 20
156.3584
  0
VERTEX
  8
LAYER_3
 10
211.645
 20
155.6709
  0
VERTEX
  8
LAYER_3
 10
213.6353
 20
156.0328
  0
SEQEND
  0
POLYLINE
  8
LAYER_3
 66
1
 10
0
 20
0
 30
0
 70
1
  0
VERTEX
  8
LAYER_3
 10
211.645
 20
156.3584
  0
VERTEX
  8
LAYER_3
 10
211.645
 20
155.6709
  0
VERTEX
  8
LAYER_3
 10
213.6353
 20
156.0328
  0
SEQEND
  0
POLYLINE
  8
LAYER_3
 40
0.1058
 41
0.1058
 66
1
 10
0
 20
0
 30
0
  0
VERTEX
  8
LAYER_3
 10
197.6043
 20
153.1378
  0
VERTEX
  8
LAYER_3
 10
217.4349
 20
153.1378
  0
SEQEND
  0
POLYLINE
  8
LAYER_3
 40
0.1058
 41
0.1058
 66
1
 10
0
 20
0
 30
0
  0
VERTEX
  8
LAYER_3
 10
197.6043
 20
130.0865
  0
VERTEX
  8
LAYER_3
 10
217.4349
 20
130.0865
  0
SEQEND
  0
POLYLINE
  8
LAYER_3
 40
0.1058
 41
0.1058
 66
1
 10
0
 20
0
 30
0
  0
VERTEX
  8
LAYER_3
 10
217.3988
 20
151.1475
  0
VERTEX
  8
LAYER_3
 10
217.3988
 20
143.91
  0
SEQEND
  0
POLYLINE
  8
LAYER_3
 40
0.1058
 41
0.1058
 66
1
 10
0
 20
0
 30
0
  0
VERTEX
  8
LAYER_3
 10
217.3988
 20
132.113
  0
VERTEX
  8
LAYER_3
 10
217.3988
 20
139.3142
  0
SEQEND
  0
POLYLINE
  8
LAYER_3
 40
0.05
 41
0.05
 66
1
 10
0
 20
0
 30
0
 70
1
  0
VERTEX
  8
LAYER_3
 10
217.0731
 20
151.1475
  0
VERTEX
  8
LAYER_3
 10
217.7244
 20
151.1475
  0
VERTEX
  8
LAYER_3
 10
217.3988
 20
153.1378
  0
SEQEND
  0
POLYLINE
  8
LAYER_3
 66
1
 10
0
 20
0
 30
0
 70
1
  0
VERTEX
  8
LAYER_3
 10
217.0731
 20
151.1475
  0
VERTEX
  8
LAYER_3
 10
217.7244
 20
151.1475
  0
VERTEX
  8
LAYER_3
 10
217.3988
 20
153.1378
  0
SEQEND
  0
POLYLINE
  8
LAYER_3
 40
0.05
 41
0.05
 66
1
 10
0
 20
0
 30
0
 70
1
  0
VERTEX
  8
LAYER_3
 10
217.0731
 20
132.113
  0
VERTEX
  8
LAYER_3
 10
217.7244
 20
132.113
  0
VERTEX
  8
LAYER_3
 10
217.3988
 20
130.0865
  0
SEQEND
  0
POLYLINE
  8
LAYER_3
 66
1
 10
0
 20
0
 30
0
 70
1
  0
VERTEX
  8
LAYER_3
 10
217.0731
 20
132.113
  0
VERTEX
  8
LAYER_3
 10
217.7244
 20
132.113
  0
VERTEX
  8
LAYER_3
 10
217.3988
 20
130.0865
  0
SEQEND
  0
POLYLINE
  8
LAYER_3
 40
0.1058
 41
0.1058
 66
1
 10
0
 20
0
 30
0
  0
VERTEX
  8
LAYER_3
 10
176.9775
 20
130.5569
  0
VERTEX
  8
LAYER_3
 10
176.9775
 20
126.6849
  0
SEQEND
  0
POLYLINE
  8
LAYER_3
 40
0.1058
 41
0.1058
 66
1
 10
0
 20
0
 30
0
  0
VERTEX
  8
LAYER_3
 10
214.1781
 20
130.5569
  0
VERTEX
  8
LAYER_3
 10
214.1781
 20
126.6849
  0
SEQEND
  0
POLYLINE
  8
LAYER_3
 40
0.1058
 41
0.1058
 66
1
 10
0
 20
0
 30
0
  0
VERTEX
  8
LAYER_3
 10
179.004
 20
126.721
  0
VERTEX
  8
LAYER_3
 10
193.298
 20
126.721
  0
SEQEND
  0
POLYLINE
  8
LAYER_3
 40
0.1058
 41
0.1058
 66
1
 10
0
 20
0
 30
0
  0
VERTEX
  8
LAYER_3
 10
212.1878
 20
126.721
  0
VERTEX
  8
LAYER_3
 10
197.8938
 20
126.721
  0
SEQEND
  0
POLYLINE
  8
LAYER_3
 40
0.05
 41
0.05
 66
1
 10
0
 20
0
 30
0
 70
1
  0
VERTEX
  8
LAYER_3
 10
179.004
 20
127.0829
  0
VERTEX
  8
LAYER_3
 10
179.004
 20
126.3953
  0
VERTEX
  8
LAYER_3
 10
176.9775
 20
126.721
  0
SEQEND
  0
POLYLINE
  8
LAYER_3
 66
1
 10
0
 20
0
 30
0
 70
1
  0
VERTEX
  8
LAYER_3
 10
179.004
 20
127.0829
  0
VERTEX
  8
LAYER_3
 10
179.004
 20
126.3953
  0
VERTEX
  8
LAYER_3
 10
176.9775
 20
126.721
  0
SEQEND
  0
POLYLINE
  8
LAYER_3
 40
0.05
 41
0.05
 66
1
 10
0
 20
0
 30
0
 70
1
  0
VERTEX
  8
LAYER_3
 10
212.1878
 20
127.0829
  0
VERTEX
  8
LAYER_3
 10
212.1878
 20
126.3953
  0
VERTEX
  8
LAYER_3
 10
214.1781
 20
126.721
  0
SEQEND
  0
POLYLINE
  8
LAYER_3
 66
1
 10
0
 20
0
 30
0
 70
1
  0
VERTEX
  8
LAYER_3
 10
212.1878
 20
127.0829
  0
VERTEX
  8
LAYER_3
 10
212.1878
 20
126.3953
  0
VERTEX
  8
LAYER_3
 10
214.1781
 20
126.721
  0
SEQEND
  0
TEXT
  8
LAYER_3
 10
113.0684
 20
123.265
 11
113.0684
 21
123.265
 40
2.9614
 41
0.5
  1
336
  0
TEXT
  8
LAYER_3
 10
112.6687
 20
73.4215
 11
112.6687
 21
73.4215
 40
2.9614
 41
0.5
  1
336
  0
TEXT
  8
LAYER_3
 10
113.8291
 20
152.4876
 11
113.8291
 21
152.4876
 40
2.9614
 41
0.5
  1
330
  0
TEXT
  8
LAYER_3
 10
113.7712
 20
109.9581
 11
113.7712
 21
109.9581
 40
2.9614
 41
0.5
  1
330
  0
TEXT
  8
LAYER_3
 10
193.2606
 20
154.8058
 11
193.2606
 21
154.8058
 40
2.9614
 41
0.5
  1
180
  0
TEXT
  8
LAYER_3
 10
193.4714
 20
125.4808
 11
193.4714
 21
125.4808
 40
2.9614
 41
0.5
  1
186
  0
TEXT
  8
LAYER_3
 10
123.2521
 20
106.5358
 11
123.2521
 21
106.5358
 40
2.9614
 41
0.5
  1
213
  0
TEXT
  8
LAYER_3
 10
96.2784
 20
77.3592
 11
96.2784
 21
77.3592
 40
2.9614
 41
0.5
  1
168
  0
TEXT
  8
LAYER_3
 10
129.0915
 20
77.2614
 11
129.0915
 21
77.2614
 40
2.9614
 41
0.5
  1
168
  0
TEXT
  8
LAYER_3
 10
114.1047
 20
95.2427
 11
114.1047
 21
95.2427
 40
2.9614
 41
0.5
  1
87
  0
TEXT
  8
LAYER_3
 10
87.1413
 20
106.5702
 11
87.1413
 21
106.5702
 40
2.9614
 41
0.5
  1
60
  0
TEXT
  8
LAYER_3
 10
97.994
 20
106.5702
 11
97.994
 21
106.5702
 40
2.9614
 41
0.5
  1
50
  0
TEXT
  8
LAYER_3
 10
78.6724
 20
136.8822
 11
78.6724
 21
136.8822
 40
2.9614
 41
0.5
 50
89.99999999
  1
115
  0
TEXT
  8
LAYER_3
 10
218.7253
 20
139.4399
 11
218.7253
 21
139.4399
 40
2.9614
 41
0.5
 50
89.99999999
  1
115
  0
POLYLINE
  8
LAYER_3
 40
0.1058
 41
0.1058
 66
1
 10
0
 20
0
 30
0
  0
VERTEX
  8
LAYER_3
 10
100.3114
 20
210.22
 42
0.4142131619
  0
VERTEX
  8
LAYER_3
 10
81.7292
 20
191.6378
 42
0.4142133673
  0
VERTEX
  8
LAYER_3
 10
100.3114
 20
173.0556
  0
SEQEND
  0
POLYLINE
  8
LAYER_3
 40
0.1058
 41
0.1058
 66
1
 10
0
 20
0
 30
0
  0
VERTEX
  8
LAYER_3
 10
100.3114
 20
209.6772
 42
0.4142133401
  0
VERTEX
  8
LAYER_3
 10
82.272
 20
191.6378
 42
0.4142135517
  0
VERTEX
  8
LAYER_3
 10
100.3114
 20
173.5984
  0
SEQEND
  0
POLYLINE
  8
LAYER_3
 40
0.1058
 41
0.1058
 66
1
 10
0
 20
0
 30
0
  0
VERTEX
  8
LAYER_3
 10
100.3114
 20
208.2297
 42
0.4142130284
  0
VERTEX
  8
LAYER_3
 10
83.7195
 20
191.6378
 42
0.4142139041
  0
VERTEX
  8
LAYER_3
 10
100.3114
 20
175.0459
  0
SEQEND
  0
POLYLINE
  8
LAYER_3
 40
0.1058
 41
0.1058
 66
1
 10
0
 20
0
 30
0
  0
VERTEX
  8
LAYER_3
 10
130.3831
 20
173.0556
 42
0.4142131797
  0
VERTEX
  8
LAYER_3
 10
148.9653
 20
191.6378
 42
0.4142129745
  0
VERTEX
  8
LAYER_3
 10
130.3831
 20
210.22
  0
SEQEND
  0
POLYLINE
  8
LAYER_3
 40
0.1058
 41
0.1058
 66
1
 10
0
 20
0
 30
0
  0
VERTEX
  8
LAYER_3
 10
130.3831
 20
173.5984
 42
0.4142134969
  0
VERTEX
  8
LAYER_3
 10
148.4225
 20
191.6378
 42
0.4142132856
  0
VERTEX
  8
LAYER_3
 10
130.3831
 20
209.6772
  0
SEQEND
  0
POLYLINE
  8
LAYER_3
 40
0.1058
 41
0.1058
 66
1
 10
0
 20
0
 30
0
  0
VERTEX
  8
LAYER_3
 10
130.3831
 20
175.0459
 42
0.414213902
  0
VERTEX
  8
LAYER_3
 10
146.975
 20
191.6378
 42
0.4142130265
  0
VERTEX
  8
LAYER_3
 10
130.3831
 20
208.2297
  0
SEQEND
  0
POLYLINE
  8
LAYER_3
 40
0.1058
 41
0.1058
 66
1
 10
0
 20
0
 30
0
  0
VERTEX
  8
LAYER_3
 10
100.2933
 20
210.22
  0
VERTEX
  8
LAYER_3
 10
130.365
 20
210.22
  0
SEQEND
  0
POLYLINE
  8
LAYER_3
 40
0.1058
 41
0.1058
 66
1
 10
0
 20
0
 30
0
  0
VERTEX
  8
LAYER_3
 10
100.2933
 20
173.0194
  0
VERTEX
  8
LAYER_3
 10
130.365
 20
173.0194
  0
SEQEND
  0
POLYLINE
  8
LAYER_3
 40
0.1058
 41
0.1058
 66
1
 10
0
 20
0
 30
0
  0
VERTEX
  8
LAYER_3
 10
100.2933
 20
208.2297
  0
VERTEX
  8
LAYER_3
 10
130.365
 20
208.2297
  0
SEQEND
  0
POLYLINE
  8
LAYER_3
 40
0.1058
 41
0.1058
 66
1
 10
0
 20
0
 30
0
  0
VERTEX
  8
LAYER_3
 10
100.2933
 20
175.0097
  0
VERTEX
  8
LAYER_3
 10
130.365
 20
175.0097
  0
SEQEND
  0
POLYLINE
  8
LAYER_3
 40
0.1058
 41
0.1058
 66
1
 10
0
 20
0
 30
0
  0
VERTEX
  8
LAYER_3
 10
100.2933
 20
173.5984
  0
VERTEX
  8
LAYER_3
 10
130.365
 20
173.5984
  0
SEQEND
  0
POLYLINE
  8
LAYER_3
 40
0.1058
 41
0.1058
 66
1
 10
0
 20
0
 30
0
  0
VERTEX
  8
LAYER_3
 10
100.2933
 20
209.6772
  0
VERTEX
  8
LAYER_3
 10
130.365
 20
209.6772
  0
SEQEND
  0
POLYLINE
  8
LAYER_3
 40
0.1058
 41
0.1058
 66
1
 10
0
 20
0
 30
0
  0
VERTEX
  8
LAYER_3
 10
104.3101
 20
175.0097
  0
VERTEX
  8
LAYER_3
 10
104.3101
 20
208.2297
  0
SEQEND
  0
POLYLINE
  8
LAYER_3
 40
0.1058
 41
0.1058
 66
1
 10
0
 20
0
 30
0
  0
VERTEX
  8
LAYER_3
 10
122.4761
 20
191.6378
 42
0.414214564
  0
VERTEX
  8
LAYER_3
 10
115.3653
 20
198.7486
 42
0.414211381
  0
VERTEX
  8
LAYER_3
 10
108.2545
 20
191.6378
 42
0.4142124535
  0
VERTEX
  8
LAYER_3
 10
115.3653
 20
184.527
 42
0.4142156362
  0
VERTEX
  8
LAYER_3
 10
122.4761
 20
191.6378
  0
SEQEND
  0
POLYLINE
  8
LAYER_3
 40
0.1058
 41
0.1058
 66
1
 10
0
 20
0
 30
0
  0
VERTEX
  8
LAYER_3
 10
119.943
 20
191.6378
 42
0.4142161825
  0
VERTEX
  8
LAYER_3
 10
115.3653
 20
196.2155
 42
0.4142112382
  0
VERTEX
  8
LAYER_3
 10
110.7877
 20
191.6378
 42
0.4142120712
  0
VERTEX
  8
LAYER_3
 10
115.3653
 20
187.0601
 42
0.4142170153
  0
VERTEX
  8
LAYER_3
 10
119.943
 20
191.6378
  0
SEQEND
  0
POLYLINE
  8
LAYER_3
 40
0.1058
 41
0.1058
 66
1
 10
0
 20
0
 30
0
  0
VERTEX
  8
LAYER_3
 10
96.8555
 20
191.674
 42
0.4142110061
  0
VERTEX
  8
LAYER_3
 10
94.3405
 20
194.189
 42
0.4142093426
  0
VERTEX
  8
LAYER_3
 10
91.8255
 20
191.674
 42
0.4142156693
  0
VERTEX
  8
LAYER_3
 10
94.3405
 20
189.159
 42
0.4142173327
  0
VERTEX
  8
LAYER_3
 10
96.8555
 20
191.674
  0
SEQEND
  0
POLYLINE
  8
LAYER_3
 40
0.1058
 41
0.1058
 66
1
 10
0
 20
0
 30
0
  0
VERTEX
  8
LAYER_3
 10
98.5925
 20
185.5402
  0
VERTEX
  8
LAYER_3
 10
96.566
 20
185.5402
  0
VERTEX
  8
LAYER_3
 10
95.8785
 20
187.422
  0
SEQEND
  0
POLYLINE
  8
LAYER_3
 40
0.05
 41
0.05
 66
1
 10
0
 20
0
 30
0
 70
1
  0
VERTEX
  8
LAYER_3
 10
96.2042
 20
187.5305
  0
VERTEX
  8
LAYER_3
 10
95.589
 20
187.3134
  0
VERTEX
  8
LAYER_3
 10
95.1909
 20
189.3037
  0
SEQEND
  0
POLYLINE
  8
LAYER_3
 66
1
 10
0
 20
0
 30
0
 70
1
  0
VERTEX
  8
LAYER_3
 10
96.2042
 20
187.5305
  0
VERTEX
  8
LAYER_3
 10
95.589
 20
187.3134
  0
VERTEX
  8
LAYER_3
 10
95.1909
 20
189.3037
  0
SEQEND
  0
POLYLINE
  8
LAYER_3
 40
0.1058
 41
0.1058
 66
1
 10
0
 20
0
 30
0
  0
VERTEX
  8
LAYER_3
 10
94.3586
 20
191.6559
  0
VERTEX
  8
LAYER_3
 10
94.3224
 20
191.6559
  0
VERTEX
  8
LAYER_3
 10
94.3224
 20
191.6197
  0
SEQEND
  0
POLYLINE
  8
LAYER_3
 40
0.1058
 41
0.1058
 66
1
 10
0
 20
0
 30
0
  0
VERTEX
  8
LAYER_3
 10
104.3101
 20
189.6656
  0
VERTEX
  8
LAYER_3
 10
104.3101
 20
191.5835
  0
SEQEND
  0
POLYLINE
  8
LAYER_3
 40
0.1058
 41
0.1058
 66
1
 10
0
 20
0
 30
0
  0
VERTEX
  8
LAYER_3
 10
115.3473
 20
189.6656
  0
VERTEX
  8
LAYER_3
 10
115.3473
 20
191.5835
  0
SEQEND
  0
POLYLINE
  8
LAYER_3
 40
0.1058
 41
0.1058
 66
1
 10
0
 20
0
 30
0
  0
VERTEX
  8
LAYER_3
 10
106.3366
 20
191.6197
  0
VERTEX
  8
LAYER_3
 10
108.0736
 20
191.6197
  0
SEQEND
  0
POLYLINE
  8
LAYER_3
 40
0.1058
 41
0.1058
 66
1
 10
0
 20
0
 30
0
  0
VERTEX
  8
LAYER_3
 10
113.3208
 20
191.6197
  0
VERTEX
  8
LAYER_3
 10
111.5838
 20
191.6197
  0
SEQEND
  0
POLYLINE
  8
LAYER_3
 40
0.05
 41
0.05
 66
1
 10
0
 20
0
 30
0
 70
1
  0
VERTEX
  8
LAYER_3
 10
106.3366
 20
191.9816
  0
VERTEX
  8
LAYER_3
 10
106.3366
 20
191.294
  0
VERTEX
  8
LAYER_3
 10
104.3101
 20
191.6197
  0
SEQEND
  0
POLYLINE
  8
LAYER_3
 66
1
 10
0
 20
0
 30
0
 70
1
  0
VERTEX
  8
LAYER_3
 10
106.3366
 20
191.9816
  0
VERTEX
  8
LAYER_3
 10
106.3366
 20
191.294
  0
VERTEX
  8
LAYER_3
 10
104.3101
 20
191.6197
  0
SEQEND
  0
POLYLINE
  8
LAYER_3
 40
0.05
 41
0.05
 66
1
 10
0
 20
0
 30
0
 70
1
  0
VERTEX
  8
LAYER_3
 10
113.3208
 20
191.9816
  0
VERTEX
  8
LAYER_3
 10
113.3208
 20
191.294
  0
VERTEX
  8
LAYER_3
 10
115.3473
 20
191.6197
  0
SEQEND
  0
POLYLINE
  8
LAYER_3
 66
1
 10
0
 20
0
 30
0
 70
1
  0
VERTEX
  8
LAYER_3
 10
113.3208
 20
191.9816
  0
VERTEX
  8
LAYER_3
 10
113.3208
 20
191.294
  0
VERTEX
  8
LAYER_3
 10
115.3473
 20
191.6197
  0
SEQEND
  0
POLYLINE
  8
LAYER_3
 40
0.1058
 41
0.1058
 66
1
 10
0
 20
0
 30
0
  0
VERTEX
  8
LAYER_3
 10
115.3473
 20
193.6462
  0
VERTEX
  8
LAYER_3
 10
115.3473
 20
191.6559
  0
SEQEND
  0
POLYLINE
  8
LAYER_3
 40
0.1058
 41
0.1058
 66
1
 10
0
 20
0
 30
0
  0
VERTEX
  8
LAYER_3
 10
146.975
 20
193.6462
  0
VERTEX
  8
LAYER_3
 10
146.975
 20
191.6559
  0
SEQEND
  0
POLYLINE
  8
LAYER_3
 40
0.1058
 41
0.1058
 66
1
 10
0
 20
0
 30
0
  0
VERTEX
  8
LAYER_3
 10
117.3375
 20
191.6197
  0
VERTEX
  8
LAYER_3
 10
128.8451
 20
191.6197
  0
SEQEND
  0
POLYLINE
  8
LAYER_3
 40
0.1058
 41
0.1058
 66
1
 10
0
 20
0
 30
0
  0
VERTEX
  8
LAYER_3
 10
144.9847
 20
191.6197
  0
VERTEX
  8
LAYER_3
 10
134.5485
 20
191.6197
  0
SEQEND
  0
POLYLINE
  8
LAYER_3
 40
0.05
 41
0.05
 66
1
 10
0
 20
0
 30
0
 70
1
  0
VERTEX
  8
LAYER_3
 10
117.3375
 20
191.9816
  0
VERTEX
  8
LAYER_3
 10
117.3375
 20
191.294
  0
VERTEX
  8
LAYER_3
 10
115.3473
 20
191.6197
  0
SEQEND
  0
POLYLINE
  8
LAYER_3
 66
1
 10
0
 20
0
 30
0
 70
1
  0
VERTEX
  8
LAYER_3
 10
117.3375
 20
191.9816
  0
VERTEX
  8
LAYER_3
 10
117.3375
 20
191.294
  0
VERTEX
  8
LAYER_3
 10
115.3473
 20
191.6197
  0
SEQEND
  0
POLYLINE
  8
LAYER_3
 40
0.05
 41
0.05
 66
1
 10
0
 20
0
 30
0
 70
1
  0
VERTEX
  8
LAYER_3
 10
144.9847
 20
191.9816
  0
VERTEX
  8
LAYER_3
 10
144.9847
 20
191.294
  0
VERTEX
  8
LAYER_3
 10
146.975
 20
191.6197
  0
SEQEND
  0
POLYLINE
  8
LAYER_3
 66
1
 10
0
 20
0
 30
0
 70
1
  0
VERTEX
  8
LAYER_3
 10
144.9847
 20
191.9816
  0
VERTEX
  8
LAYER_3
 10
144.9847
 20
191.294
  0
VERTEX
  8
LAYER_3
 10
146.975
 20
191.6197
  0
SEQEND
  0
POLYLINE
  8
LAYER_3
 40
0.1058
 41
0.1058
 66
1
 10
0
 20
0
 30
0
  0
VERTEX
  8
LAYER_3
 10
104.3101
 20
206.2394
  0
VERTEX
  8
LAYER_3
 10
104.3101
 20
197.3735
  0
SEQEND
  0
POLYLINE
  8
LAYER_3
 40
0.1058
 41
0.1058
 66
1
 10
0
 20
0
 30
0
  0
VERTEX
  8
LAYER_3
 10
83.6833
 20
193.6824
  0
VERTEX
  8
LAYER_3
 10
83.6833
 20
197.4459
  0
SEQEND
  0
POLYLINE
  8
LAYER_3
 40
0.1058
 41
0.1058
 66
1
 10
0
 20
0
 30
0
  0
VERTEX
  8
LAYER_3
 10
102.3198
 20
197.4097
  0
VERTEX
  8
LAYER_3
 10
96.3127
 20
197.4097
  0
SEQEND
  0
POLYLINE
  8
LAYER_3
 40
0.1058
 41
0.1058
 66
1
 10
0
 20
0
 30
0
  0
VERTEX
  8
LAYER_3
 10
85.7098
 20
197.4097
  0
VERTEX
  8
LAYER_3
 10
91.7169
 20
197.4097
  0
SEQEND
  0
POLYLINE
  8
LAYER_3
 40
0.05
 41
0.05
 66
1
 10
0
 20
0
 30
0
 70
1
  0
VERTEX
  8
LAYER_3
 10
102.3198
 20
197.7354
  0
VERTEX
  8
LAYER_3
 10
102.3198
 20
197.0478
  0
VERTEX
  8
LAYER_3
 10
104.3101
 20
197.4097
  0
SEQEND
  0
POLYLINE
  8
LAYER_3
 66
1
 10
0
 20
0
 30
0
 70
1
  0
VERTEX
  8
LAYER_3
 10
102.3198
 20
197.7354
  0
VERTEX
  8
LAYER_3
 10
102.3198
 20
197.0478
  0
VERTEX
  8
LAYER_3
 10
104.3101
 20
197.4097
  0
SEQEND
  0
POLYLINE
  8
LAYER_3
 40
0.05
 41
0.05
 66
1
 10
0
 20
0
 30
0
 70
1
  0
VERTEX
  8
LAYER_3
 10
85.7098
 20
197.7354
  0
VERTEX
  8
LAYER_3
 10
85.7098
 20
197.0478
  0
VERTEX
  8
LAYER_3
 10
83.6833
 20
197.4097
  0
SEQEND
  0
POLYLINE
  8
LAYER_3
 66
1
 10
0
 20
0
 30
0
 70
1
  0
VERTEX
  8
LAYER_3
 10
85.7098
 20
197.7354
  0
VERTEX
  8
LAYER_3
 10
85.7098
 20
197.0478
  0
VERTEX
  8
LAYER_3
 10
83.6833
 20
197.4097
  0
SEQEND
  0
POLYLINE
  8
LAYER_3
 40
0.1058
 41
0.1058
 66
1
 10
0
 20
0
 30
0
  0
VERTEX
  8
LAYER_3
 10
104.3101
 20
195.3832
  0
VERTEX
  8
LAYER_3
 10
104.3101
 20
197.3373
  0
SEQEND
  0
POLYLINE
  8
LAYER_3
 40
0.1058
 41
0.1058
 66
1
 10
0
 20
0
 30
0
  0
VERTEX
  8
LAYER_3
 10
146.975
 20
193.6824
  0
VERTEX
  8
LAYER_3
 10
146.975
 20
197.4097
  0
SEQEND
  0
POLYLINE
  8
LAYER_3
 40
0.1058
 41
0.1058
 66
1
 10
0
 20
0
 30
0
  0
VERTEX
  8
LAYER_3
 10
106.3366
 20
197.3735
  0
VERTEX
  8
LAYER_3
 10
123.2723
 20
197.3735
  0
SEQEND
  0
POLYLINE
  8
LAYER_3
 40
0.1058
 41
0.1058
 66
1
 10
0
 20
0
 30
0
  0
VERTEX
  8
LAYER_3
 10
144.9847
 20
197.3735
  0
VERTEX
  8
LAYER_3
 10
131.4323
 20
197.3735
  0
SEQEND
  0
POLYLINE
  8
LAYER_3
 40
0.05
 41
0.05
 66
1
 10
0
 20
0
 30
0
 70
1
  0
VERTEX
  8
LAYER_3
 10
106.3366
 20
197.6992
  0
VERTEX
  8
LAYER_3
 10
106.3366
 20
197.0116
  0
VERTEX
  8
LAYER_3
 10
104.3101
 20
197.3735
  0
SEQEND
  0
POLYLINE
  8
LAYER_3
 66
1
 10
0
 20
0
 30
0
 70
1
  0
VERTEX
  8
LAYER_3
 10
106.3366
 20
197.6992
  0
VERTEX
  8
LAYER_3
 10
106.3366
 20
197.0116
  0
VERTEX
  8
LAYER_3
 10
104.3101
 20
197.3735
  0
SEQEND
  0
POLYLINE
  8
LAYER_3
 40
0.05
 41
0.05
 66
1
 10
0
 20
0
 30
0
 70
1
  0
VERTEX
  8
LAYER_3
 10
144.9847
 20
197.6992
  0
VERTEX
  8
LAYER_3
 10
144.9847
 20
197.0116
  0
VERTEX
  8
LAYER_3
 10
146.975
 20
197.3735
  0
SEQEND
  0
POLYLINE
  8
LAYER_3
 66
1
 10
0
 20
0
 30
0
 70
1
  0
VERTEX
  8
LAYER_3
 10
144.9847
 20
197.6992
  0
VERTEX
  8
LAYER_3
 10
144.9847
 20
197.0116
  0
VERTEX
  8
LAYER_3
 10
146.975
 20
197.3735
  0
SEQEND
  0
POLYLINE
  8
LAYER_3
 40
0.1058
 41
0.1058
 66
1
 10
0
 20
0
 30
0
  0
VERTEX
  8
LAYER_3
 10
148.9653
 20
189.6294
  0
VERTEX
  8
LAYER_3
 10
148.9653
 20
168.3512
  0
SEQEND
  0
POLYLINE
  8
LAYER_3
 40
0.1058
 41
0.1058
 66
1
 10
0
 20
0
 30
0
  0
VERTEX
  8
LAYER_3
 10
81.693
 20
189.6294
  0
VERTEX
  8
LAYER_3
 10
81.693
 20
168.3512
  0
SEQEND
  0
POLYLINE
  8
LAYER_3
 40
0.1058
 41
0.1058
 66
1
 10
0
 20
0
 30
0
  0
VERTEX
  8
LAYER_3
 10
146.975
 20
168.3874
  0
VERTEX
  8
LAYER_3
 10
117.6994
 20
168.3874
  0
SEQEND
  0
POLYLINE
  8
LAYER_3
 40
0.1058
 41
0.1058
 66
1
 10
0
 20
0
 30
0
  0
VERTEX
  8
LAYER_3
 10
83.7195
 20
168.3874
  0
VERTEX
  8
LAYER_3
 10
110.0305
 20
168.3874
  0
SEQEND
  0
POLYLINE
  8
LAYER_3
 40
0.05
 41
0.05
 66
1
 10
0
 20
0
 30
0
 70
1
  0
VERTEX
  8
LAYER_3
 10
146.975
 20
168.7493
  0
VERTEX
  8
LAYER_3
 10
146.975
 20
168.0617
  0
VERTEX
  8
LAYER_3
 10
148.9653
 20
168.3874
  0
SEQEND
  0
POLYLINE
  8
LAYER_3
 66
1
 10
0
 20
0
 30
0
 70
1
  0
VERTEX
  8
LAYER_3
 10
146.975
 20
168.7493
  0
VERTEX
  8
LAYER_3
 10
146.975
 20
168.0617
  0
VERTEX
  8
LAYER_3
 10
148.9653
 20
168.3874
  0
SEQEND
  0
POLYLINE
  8
LAYER_3
 40
0.05
 41
0.05
 66
1
 10
0
 20
0
 30
0
 70
1
  0
VERTEX
  8
LAYER_3
 10
83.7195
 20
168.7493
  0
VERTEX
  8
LAYER_3
 10
83.7195
 20
168.0617
  0
VERTEX
  8
LAYER_3
 10
81.693
 20
168.3874
  0
SEQEND
  0
POLYLINE
  8
LAYER_3
 66
1
 10
0
 20
0
 30
0
 70
1
  0
VERTEX
  8
LAYER_3
 10
83.7195
 20
168.7493
  0
VERTEX
  8
LAYER_3
 10
83.7195
 20
168.0617
  0
VERTEX
  8
LAYER_3
 10
81.693
 20
168.3874
  0
SEQEND
  0
POLYLINE
  8
LAYER_3
 40
0.1058
 41
0.1058
 66
1
 10
0
 20
0
 30
0
  0
VERTEX
  8
LAYER_3
 10
113.3208
 20
173.0194
  0
VERTEX
  8
LAYER_3
 10
67.1819
 20
173.0194
  0
SEQEND
  0
POLYLINE
  8
LAYER_3
 40
0.1058
 41
0.1058
 66
1
 10
0
 20
0
 30
0
  0
VERTEX
  8
LAYER_3
 10
113.3208
 20
210.22
  0
VERTEX
  8
LAYER_3
 10
67.1819
 20
210.22
  0
SEQEND
  0
POLYLINE
  8
LAYER_3
 40
0.1058
 41
0.1058
 66
1
 10
0
 20
0
 30
0
  0
VERTEX
  8
LAYER_3
 10
67.2181
 20
175.0459
  0
VERTEX
  8
LAYER_3
 10
67.2181
 20
189.3399
  0
SEQEND
  0
POLYLINE
  8
LAYER_3
 40
0.1058
 41
0.1058
 66
1
 10
0
 20
0
 30
0
  0
VERTEX
  8
LAYER_3
 10
67.2181
 20
208.2297
  0
VERTEX
  8
LAYER_3
 10
67.2181
 20
196.5294
  0
SEQEND
  0
POLYLINE
  8
LAYER_3
 40
0.05
 41
0.05
 66
1
 10
0
 20
0
 30
0
 70
1
  0
VERTEX
  8
LAYER_3
 10
66.8924
 20
175.0459
  0
VERTEX
  8
LAYER_3
 10
67.5438
 20
175.0459
  0
VERTEX
  8
LAYER_3
 10
67.2181
 20
173.0194
  0
SEQEND
  0
POLYLINE
  8
LAYER_3
 66
1
 10
0
 20
0
 30
0
 70
1
  0
VERTEX
  8
LAYER_3
 10
66.8924
 20
175.0459
  0
VERTEX
  8
LAYER_3
 10
67.5438
 20
175.0459
  0
VERTEX
  8
LAYER_3
 10
67.2181
 20
173.0194
  0
SEQEND
  0
POLYLINE
  8
LAYER_3
 40
0.05
 41
0.05
 66
1
 10
0
 20
0
 30
0
 70
1
  0
VERTEX
  8
LAYER_3
 10
66.8924
 20
208.2297
  0
VERTEX
  8
LAYER_3
 10
67.5438
 20
208.2297
  0
VERTEX
  8
LAYER_3
 10
67.2181
 20
210.22
  0
SEQEND
  0
POLYLINE
  8
LAYER_3
 66
1
 10
0
 20
0
 30
0
 70
1
  0
VERTEX
  8
LAYER_3
 10
66.8924
 20
208.2297
  0
VERTEX
  8
LAYER_3
 10
67.5438
 20
208.2297
  0
VERTEX
  8
LAYER_3
 10
67.2181
 20
210.22
  0
SEQEND
  0
POLYLINE
  8
LAYER_3
 40
0.1058
 41
0.1058
 66
1
 10
0
 20
0
 30
0
  0
VERTEX
  8
LAYER_3
 10
83.6833
 20
191.5835
  0
SEQEND
  0
POLYLINE
  8
LAYER_3
 40
0.1058
 41
0.1058
 66
1
 10
0
 20
0
 30
0
  0
VERTEX
  8
LAYER_3
 10
141.7278
 20
191.5835
  0
VERTEX
  8
LAYER_3
 10
146.396
 20
191.5835
  0
SEQEND
  0
POLYLINE
  8
LAYER_3
 40
0.1058
 41
0.1058
 66
1
 10
0
 20
0
 30
0
  0
VERTEX
  8
LAYER_3
 10
146.975
 20
191.5835
  0
SEQEND
  0
POLYLINE
  8
LAYER_3
 40
0.1058
 41
0.1058
 66
1
 10
0
 20
0
 30
0
  0
VERTEX
  8
LAYER_3
 10
94.3224
 20
194.1528
  0
VERTEX
  8
LAYER_3
 10
94.3224
 20
188.001
  0
SEQEND
  0
POLYLINE
  8
LAYER_3
 40
0.1058
 41
0.1058
 66
1
 10
0
 20
0
 30
0
  0
VERTEX
  8
LAYER_3
 10
94.3224
 20
189.6294
  0
VERTEX
  8
LAYER_3
 10
94.3224
 20
191.6197
  0
SEQEND
  0
POLYLINE
  8
LAYER_3
 40
0.1058
 41
0.1058
 66
1
 10
0
 20
0
 30
0
  0
VERTEX
  8
LAYER_3
 10
104.3101
 20
189.6294
  0
VERTEX
  8
LAYER_3
 10
104.3101
 20
191.6197
  0
SEQEND
  0
POLYLINE
  8
LAYER_3
 40
0.1058
 41
0.1058
 66
1
 10
0
 20
0
 30
0
  0
VERTEX
  8
LAYER_3
 10
96.3489
 20
191.6559
  0
VERTEX
  8
LAYER_3
 10
97.4345
 20
191.6559
  0
SEQEND
  0
POLYLINE
  8
LAYER_3
 40
0.1058
 41
0.1058
 66
1
 10
0
 20
0
 30
0
  0
VERTEX
  8
LAYER_3
 10
102.3198
 20
191.6559
  0
VERTEX
  8
LAYER_3
 10
101.2342
 20
191.6559
  0
SEQEND
  0
POLYLINE
  8
LAYER_3
 40
0.05
 41
0.05
 66
1
 10
0
 20
0
 30
0
 70
1
  0
VERTEX
  8
LAYER_3
 10
96.3489
 20
191.9816
  0
VERTEX
  8
LAYER_3
 10
96.3489
 20
191.294
  0
VERTEX
  8
LAYER_3
 10
94.3224
 20
191.6559
  0
SEQEND
  0
POLYLINE
  8
LAYER_3
 66
1
 10
0
 20
0
 30
0
 70
1
  0
VERTEX
  8
LAYER_3
 10
96.3489
 20
191.9816
  0
VERTEX
  8
LAYER_3
 10
96.3489
 20
191.294
  0
VERTEX
  8
LAYER_3
 10
94.3224
 20
191.6559
  0
SEQEND
  0
POLYLINE
  8
LAYER_3
 40
0.05
 41
0.05
 66
1
 10
0
 20
0
 30
0
 70
1
  0
VERTEX
  8
LAYER_3
 10
102.3198
 20
191.9816
  0
VERTEX
  8
LAYER_3
 10
102.3198
 20
191.294
  0
VERTEX
  8
LAYER_3
 10
104.3101
 20
191.6559
  0
SEQEND
  0
POLYLINE
  8
LAYER_3
 66
1
 10
0
 20
0
 30
0
 70
1
  0
VERTEX
  8
LAYER_3
 10
102.3198
 20
191.9816
  0
VERTEX
  8
LAYER_3
 10
102.3198
 20
191.294
  0
VERTEX
  8
LAYER_3
 10
104.3101
 20
191.6559
  0
SEQEND
  0
POLYLINE
  8
LAYER_3
 40
0.1058
 41
0.1058
 66
1
 10
0
 20
0
 30
0
  0
VERTEX
  8
LAYER_3
 10
94.3224
 20
191.1493
  0
VERTEX
  8
LAYER_3
 10
94.3224
 20
191.6921
  0
SEQEND
  0
POLYLINE
  8
LAYER_3
 40
0.1058
 41
0.1058
 66
1
 10
0
 20
0
 30
0
  0
VERTEX
  8
LAYER_3
 10
82.2358
 20
193.5738
  0
VERTEX
  8
LAYER_3
 10
82.2358
 20
191.6921
  0
SEQEND
  0
POLYLINE
  8
LAYER_3
 40
0.1058
 41
0.1058
 66
1
 10
0
 20
0
 30
0
  0
VERTEX
  8
LAYER_3
 10
92.3321
 20
191.6559
  0
VERTEX
  8
LAYER_3
 10
90.1971
 20
191.6559
  0
SEQEND
  0
POLYLINE
  8
LAYER_3
 40
0.1058
 41
0.1058
 66
1
 10
0
 20
0
 30
0
  0
VERTEX
  8
LAYER_3
 10
84.2623
 20
191.6559
  0
VERTEX
  8
LAYER_3
 10
86.3974
 20
191.6559
  0
SEQEND
  0
POLYLINE
  8
LAYER_3
 40
0.05
 41
0.05
 66
1
 10
0
 20
0
 30
0
 70
1
  0
VERTEX
  8
LAYER_3
 10
92.3321
 20
191.9816
  0
VERTEX
  8
LAYER_3
 10
92.3321
 20
191.294
  0
VERTEX
  8
LAYER_3
 10
94.3224
 20
191.6559
  0
SEQEND
  0
POLYLINE
  8
LAYER_3
 66
1
 10
0
 20
0
 30
0
 70
1
  0
VERTEX
  8
LAYER_3
 10
92.3321
 20
191.9816
  0
VERTEX
  8
LAYER_3
 10
92.3321
 20
191.294
  0
VERTEX
  8
LAYER_3
 10
94.3224
 20
191.6559
  0
SEQEND
  0
POLYLINE
  8
LAYER_3
 40
0.05
 41
0.05
 66
1
 10
0
 20
0
 30
0
 70
1
  0
VERTEX
  8
LAYER_3
 10
84.2623
 20
191.9816
  0
VERTEX
  8
LAYER_3
 10
84.2623
 20
191.294
  0
VERTEX
  8
LAYER_3
 10
82.2358
 20
191.6559
  0
SEQEND
  0
POLYLINE
  8
LAYER_3
 66
1
 10
0
 20
0
 30
0
 70
1
  0
VERTEX
  8
LAYER_3
 10
84.2623
 20
191.9816
  0
VERTEX
  8
LAYER_3
 10
84.2623
 20
191.294
  0
VERTEX
  8
LAYER_3
 10
82.2358
 20
191.6559
  0
SEQEND
  0
TEXT
  8
LAYER_3
 10
68.2926
 20
190.2674
 11
68.2926
 21
190.2674
 40
2.9614
 41
0.5
 50
89.99999999
  1
186
  0
TEXT
  8
LAYER_3
 10
91.3243
 20
196.4543
 11
91.3243
 21
196.4543
 40
2.9614
 41
0.5
  1
103
  0
TEXT
  8
LAYER_3
 10
126.3251
 20
196.4543
 11
126.3251
 21
196.4543
 40
2.9614
 41
0.5
  1
213
  0
TEXT
  8
LAYER_3
 10
129.5173
 20
190.4495
 11
129.5173
 21
190.4495
 40
2.9614
 41
0.5
  1
158
  0
TEXT
  8
LAYER_3
 10
112.2112
 20
167.1148
 11
112.2112
 21
167.1148
 40
2.9614
 41
0.5
  1
336
  0
TEXT
  8
LAYER_3
 10
97.7081
 20
190.5928
 11
97.7081
 21
190.5928
 40
2.9614
 41
0.5
  1
50
  0
TEXT
  8
LAYER_3
 10
86.7534
 20
190.8064
 11
86.7534
 21
190.8064
 40
2.9614
 41
0.5
  1
60
  0
TEXT
  8
LAYER_3
 10
108.3314
 20
190.6092
 11
108.3314
 21
190.6092
 40
2.6652
 41
0.5
  1
55
  0
TEXT
  8
LAYER_3
 10
99.3879
 20
184.3973
 11
99.3879
 21
184.3973
 40
2.6652
 41
0.5
  1
25
  0
INSERT
  8
LAYER_3
  2
AIGNBL03010028
 10
0
 20
0
 30
0
  0
TEXT
  8
LAYER_3
 10
128.1889
 20
186.34
 11
128.1889
 21
186.34
 40
2.9614
 41
0.5
 50
89.99999999
 62
1
  1
100
  0
TEXT
  8
LAYER_3
 10
108.1825
 20
178.504
 11
108.1825
 21
178.504
 40
2.9614
 41
0.5
 62
1
  1
175
  0
POLYLINE
  8
LAYER_3
 40
0.1058
 41
0.1058
 66
1
 10
0
 20
0
 30
0
  0
VERTEX
  8
LAYER_3
 10
125.293
 20
220.5309
  0
VERTEX
  8
LAYER_3
 10
125.293
 20
216.1926
  0
SEQEND
  0
POLYLINE
  8
LAYER_3
 40
0.1058
 41
0.1058
 66
1
 10
0
 20
0
 30
0
  0
VERTEX
  8
LAYER_3
 10
148.8927
 20
220.5309
  0
VERTEX
  8
LAYER_3
 10
148.8927
 20
216.1926
  0
SEQEND
  0
POLYLINE
  8
LAYER_3
 40
0.1058
 41
0.1058
 66
1
 10
0
 20
0
 30
0
  0
VERTEX
  8
LAYER_3
 10
127.3176
 20
218.3228
  0
VERTEX
  8
LAYER_3
 10
133.7684
 20
218.3228
  0
SEQEND
  0
POLYLINE
  8
LAYER_3
 40
0.1058
 41
0.1058
 66
1
 10
0
 20
0
 30
0
  0
VERTEX
  8
LAYER_3
 10
146.8682
 20
218.3228
  0
VERTEX
  8
LAYER_3
 10
141.2252
 20
218.3228
  0
SEQEND
  0
POLYLINE
  8
LAYER_3
 40
0.05
 41
0.05
 66
1
 10
0
 20
0
 30
0
 70
1
  0
VERTEX
  8
LAYER_3
 10
127.3176
 20
218.6482
  0
VERTEX
  8
LAYER_3
 10
127.3176
 20
217.9975
  0
VERTEX
  8
LAYER_3
 10
125.293
 20
218.3228
  0
SEQEND
  0
POLYLINE
  8
LAYER_3
 66
1
 10
0
 20
0
 30
0
 70
1
  0
VERTEX
  8
LAYER_3
 10
127.3176
 20
218.6482
  0
VERTEX
  8
LAYER_3
 10
127.3176
 20
217.9975
  0
VERTEX
  8
LAYER_3
 10
125.293
 20
218.3228
  0
SEQEND
  0
POLYLINE
  8
LAYER_3
 40
0.05
 41
0.05
 66
1
 10
0
 20
0
 30
0
 70
1
  0
VERTEX
  8
LAYER_3
 10
146.8682
 20
218.6482
  0
VERTEX
  8
LAYER_3
 10
146.8682
 20
217.9975
  0
VERTEX
  8
LAYER_3
 10
148.8927
 20
218.3228
  0
SEQEND
  0
POLYLINE
  8
LAYER_3
 66
1
 10
0
 20
0
 30
0
 70
1
  0
VERTEX
  8
LAYER_3
 10
146.8682
 20
218.6482
  0
VERTEX
  8
LAYER_3
 10
146.8682
 20
217.9975
  0
VERTEX
  8
LAYER_3
 10
148.8927
 20
218.3228
  0
SEQEND
  0
TEXT
  8
LAYER_3
 10
135.3282
 20
217.2093
 11
135.3282
 21
217.2093
 40
2.9614
 41
0.5
  1
118
  0
POLYLINE
  8
LAYER_3
 40
0.1058
 41
0.1058
 66
1
 10
0
 20
0
 30
0
  0
VERTEX
  8
LAYER_3
 10
81.693
 20
220.4918
  0
VERTEX
  8
LAYER_3
 10
81.693
 20
216.1534
  0
SEQEND
  0
POLYLINE
  8
LAYER_3
 40
0.1058
 41
0.1058
 66
1
 10
0
 20
0
 30
0
  0
VERTEX
  8
LAYER_3
 10
90.293
 20
220.4918
  0
VERTEX
  8
LAYER_3
 10
90.293
 20
216.1534
  0
SEQEND
  0
INSERT
  8
LAYER_3
  2
AIGNBL0301002A
 10
0
 20
0
 30
0
  0
INSERT
  8
LAYER_3
  2
AIGNBL0301002C
 10
0
 20
0
 30
0
  0
POLYLINE
  8
LAYER_3
 40
0.1058
 41
0.1058
 66
1
 10
0
 20
0
 30
0
  0
VERTEX
  8
LAYER_3
 10
167.4167
 20
210.22
  0
VERTEX
  8
LAYER_3
 10
163.0784
 20
210.22
  0
SEQEND
  0
POLYLINE
  8
LAYER_3
 40
0.1058
 41
0.1058
 66
1
 10
0
 20
0
 30
0
  0
VERTEX
  8
LAYER_3
 10
167.4167
 20
201.6197
  0
VERTEX
  8
LAYER_3
 10
163.0784
 20
201.6197
  0
SEQEND
  0
POLYLINE
  8
LAYER_3
 40
0.1058
 41
0.1058
 66
1
 10
0
 20
0
 30
0
  0
VERTEX
  8
LAYER_3
 10
165.2086
 20
208.1954
  0
VERTEX
  8
LAYER_3
 10
165.2086
 20
207.3484
  0
SEQEND
  0
POLYLINE
  8
LAYER_3
 40
0.1058
 41
0.1058
 66
1
 10
0
 20
0
 30
0
  0
VERTEX
  8
LAYER_3
 10
165.2086
 20
203.6442
  0
VERTEX
  8
LAYER_3
 10
165.2086
 20
204.6686
  0
SEQEND
  0
POLYLINE
  8
LAYER_3
 40
0.05
 41
0.05
 66
1
 10
0
 20
0
 30
0
 70
1
  0
VERTEX
  8
LAYER_3
 10
165.534
 20
208.1954
  0
VERTEX
  8
LAYER_3
 10
164.8833
 20
208.1954
  0
VERTEX
  8
LAYER_3
 10
165.2086
 20
210.22
  0
SEQEND
  0
POLYLINE
  8
LAYER_3
 66
1
 10
0
 20
0
 30
0
 70
1
  0
VERTEX
  8
LAYER_3
 10
165.534
 20
208.1954
  0
VERTEX
  8
LAYER_3
 10
164.8833
 20
208.1954
  0
VERTEX
  8
LAYER_3
 10
165.2086
 20
210.22
  0
SEQEND
  0
POLYLINE
  8
LAYER_3
 40
0.05
 41
0.05
 66
1
 10
0
 20
0
 30
0
 70
1
  0
VERTEX
  8
LAYER_3
 10
165.534
 20
203.6442
  0
VERTEX
  8
LAYER_3
 10
164.8833
 20
203.6442
  0
VERTEX
  8
LAYER_3
 10
165.2086
 20
201.6197
  0
SEQEND
  0
POLYLINE
  8
LAYER_3
 66
1
 10
0
 20
0
 30
0
 70
1
  0
VERTEX
  8
LAYER_3
 10
165.534
 20
203.6442
  0
VERTEX
  8
LAYER_3
 10
164.8833
 20
203.6442
  0
VERTEX
  8
LAYER_3
 10
165.2086
 20
201.6197
  0
SEQEND
  0
TEXT
  8
LAYER_3
 10
163.714
 20
204.9142
 11
163.714
 21
204.9142
 40
2.9614
 41
0.5
  1
43
  0
INSERT
  8
LAYER_3
  2
AIGNBL0301002E
 10
0
 20
0
 30
0
  0
INSERT
  8
LAYER_3
  2
AIGNBL03010030
 10
0
 20
0
 30
0
  0
POLYLINE
  8
LAYER_3
 40
0.1058
 41
0.1058
 66
1
 10
0
 20
0
 30
0
  0
VERTEX
  8
LAYER_3
 10
167.4167
 20
181.6197
  0
VERTEX
  8
LAYER_3
 10
163.0784
 20
181.6197
  0
SEQEND
  0
POLYLINE
  8
LAYER_3
 40
0.1058
 41
0.1058
 66
1
 10
0
 20
0
 30
0
  0
VERTEX
  8
LAYER_3
 10
167.4167
 20
173.0194
  0
VERTEX
  8
LAYER_3
 10
163.0784
 20
173.0194
  0
SEQEND
  0
POLYLINE
  8
LAYER_3
 40
0.1058
 41
0.1058
 66
1
 10
0
 20
0
 30
0
  0
VERTEX
  8
LAYER_3
 10
165.2086
 20
179.5951
  0
VERTEX
  8
LAYER_3
 10
165.2086
 20
178.7481
  0
SEQEND
  0
POLYLINE
  8
LAYER_3
 40
0.1058
 41
0.1058
 66
1
 10
0
 20
0
 30
0
  0
VERTEX
  8
LAYER_3
 10
165.2086
 20
175.0439
  0
VERTEX
  8
LAYER_3
 10
165.2086
 20
176.0683
  0
SEQEND
  0
POLYLINE
  8
LAYER_3
 40
0.05
 41
0.05
 66
1
 10
0
 20
0
 30
0
 70
1
  0
VERTEX
  8
LAYER_3
 10
165.534
 20
179.5951
  0
VERTEX
  8
LAYER_3
 10
164.8833
 20
179.5951
  0
VERTEX
  8
LAYER_3
 10
165.2086
 20
181.6197
  0
SEQEND
  0
POLYLINE
  8
LAYER_3
 66
1
 10
0
 20
0
 30
0
 70
1
  0
VERTEX
  8
LAYER_3
 10
165.534
 20
179.5951
  0
VERTEX
  8
LAYER_3
 10
164.8833
 20
179.5951
  0
VERTEX
  8
LAYER_3
 10
165.2086
 20
181.6197
  0
SEQEND
  0
POLYLINE
  8
LAYER_3
 40
0.05
 41
0.05
 66
1
 10
0
 20
0
 30
0
 70
1
  0
VERTEX
  8
LAYER_3
 10
165.534
 20
175.0439
  0
VERTEX
  8
LAYER_3
 10
164.8833
 20
175.0439
  0
VERTEX
  8
LAYER_3
 10
165.2086
 20
173.0194
  0
SEQEND
  0
POLYLINE
  8
LAYER_3
 66
1
 10
0
 20
0
 30
0
 70
1
  0
VERTEX
  8
LAYER_3
 10
165.534
 20
175.0439
  0
VERTEX
  8
LAYER_3
 10
164.8833
 20
175.0439
  0
VERTEX
  8
LAYER_3
 10
165.2086
 20
173.0194
  0
SEQEND
  0
TEXT
  8
LAYER_3
 10
163.714
 20
176.3139
 11
163.714
 21
176.3139
 40
2.9614
 41
0.5
  1
43
  0
INSERT
  8
LAYER_3
  2
AIGNBL03010032
 10
0
 20
0
 30
0
  0
INSERT
  8
LAYER_3
  2
AIGNBL03010034
 10
0
 20
0
 30
0
  0
INSERT
  8
LAYER_3
  2
AIGNBL03010036
 10
0
 20
0
 30
0
  0
INSERT
  8
LAYER_3
  2
AIGNBL03010038
 10
0
 20
0
 30
0
  0
POLYLINE
  8
LAYER_3
 40
0.1058
 41
0.1058
 66
1
 10
0
 20
0
 30
0
  0
VERTEX
  8
LAYER_3
 10
83.7176
 20
218.2837
  0
VERTEX
  8
LAYER_3
 10
85.5413
 20
218.2837
  0
SEQEND
  0
POLYLINE
  8
LAYER_3
 40
0.1058
 41
0.1058
 66
1
 10
0
 20
0
 30
0
  0
VERTEX
  8
LAYER_3
 10
88.2685
 20
218.2837
  0
VERTEX
  8
LAYER_3
 10
84.939
 20
218.2837
  0
SEQEND
  0
POLYLINE
  8
LAYER_3
 40
0.05
 41
0.05
 66
1
 10
0
 20
0
 30
0
 70
1
  0
VERTEX
  8
LAYER_3
 10
83.7176
 20
218.6091
  0
VERTEX
  8
LAYER_3
 10
83.7176
 20
217.9584
  0
VERTEX
  8
LAYER_3
 10
81.693
 20
218.2837
  0
SEQEND
  0
POLYLINE
  8
LAYER_3
 66
1
 10
0
 20
0
 30
0
 70
1
  0
VERTEX
  8
LAYER_3
 10
83.7176
 20
218.6091
  0
VERTEX
  8
LAYER_3
 10
83.7176
 20
217.9584
  0
VERTEX
  8
LAYER_3
 10
81.693
 20
218.2837
  0
SEQEND
  0
POLYLINE
  8
LAYER_3
 40
0.05
 41
0.05
 66
1
 10
0
 20
0
 30
0
 70
1
  0
VERTEX
  8
LAYER_3
 10
88.2685
 20
218.6091
  0
VERTEX
  8
LAYER_3
 10
88.2685
 20
217.9584
  0
VERTEX
  8
LAYER_3
 10
90.293
 20
218.2837
  0
SEQEND
  0
POLYLINE
  8
LAYER_3
 66
1
 10
0
 20
0
 30
0
 70
1
  0
VERTEX
  8
LAYER_3
 10
88.2685
 20
218.6091
  0
VERTEX
  8
LAYER_3
 10
88.2685
 20
217.9584
  0
VERTEX
  8
LAYER_3
 10
90.293
 20
218.2837
  0
SEQEND
  0
TEXT
  8
LAYER_3
 10
84.1664
 20
219.2612
 11
84.1664
 21
219.2612
 40
2.9614
 41
0.5
  1
43
  0
ENDSEC
  0
EOF
