  0
SECTION
  2
HEADER
  9
$ACADVER
  1
AC1009
  9
$LUNITS
 70
2
  9
$LUPREC
 70
4
  9
$LTSCALE
 40
1.0
  9
$EXTMIN
 10
0
 20
0
 30
0
  9
$EXTMAX
 10
297.3531
 20
210.3525
 30
0
  0
ENDSEC
  0
SECTION
  2
TABLES
  0
TABLE
  2
LTYPE
 70
256
  0
LTYPE
  2
AIGENLINE001
 70
64
  3
generate AI->DXF Converter
 72
65
 73
2
 40
2.4694
 49
1.4111
 49
-1.0583
  0
LTYPE
  2
AIGENLINE002
 70
64
  3
generate AI->DXF Converter
 72
65
 73
2
 40
1.4111
 49
0.7056
 49
-0.7056
  0
LTYPE
  2
AIGENLINE003
 70
64
  3
generate AI->DXF Converter
 72
65
 73
2
 40
0.7056
 49
0.3528
 49
-0.3528
  0
LTYPE
  2
AIGENLINE004
 70
64
  3
generate AI->DXF Converter
 72
65
 73
2
 40
0.7063
 49
0.3531
 49
-0.3531
  0
ENDTAB
  0
TABLE
  2
LAYER
 70
1
  0
LAYER
  2
LAYER_1
 70
64
 62
7
  6
CONTINUOUS
  0
ENDTAB
  0
TABLE
  2
STYLE
 70
6
  0
STYLE
  2
STANDARD
 70
0
 40
0
 50
0
 71
0
 41
0
 42
0
  3
TXT
  4
BIGFONT
  0
ENDTAB
  0
ENDSEC
  0
SECTION
  2
BLOCKS
  0
BLOCK
  8
LAYER_1
  2
AIGNBL01020003
 70
64
 10
0
 20
0
 30
0
  3
AIGNBL01020003
  0
POLYLINE
  8
LAYER_1
 40
0.05
 41
0.05
 66
1
 10
0
 20
0
 30
0
  0
VERTEX
  8
LAYER_1
 10
200.4022
 20
190.6104
 42
-0.04245689033
  0
VERTEX
  8
LAYER_1
 10
200.3545
 20
189.759
 42
-0.1145627357
  0
VERTEX
  8
LAYER_1
 10
200.1128
 20
189.1136
 42
-0.03658208592
  0
VERTEX
  8
LAYER_1
 10
200.025
 20
189.0148
 42
-0.1577844027
  0
VERTEX
  8
LAYER_1
 10
199.4957
 20
188.7456
 42
-0.04286355862
  0
VERTEX
  8
LAYER_1
 10
199.2574
 20
188.7258
 42
-0.1461347274
  0
VERTEX
  8
LAYER_1
 10
198.6457
 20
188.8968
 42
-0.04825720136
  0
VERTEX
  8
LAYER_1
 10
198.5026
 20
189.0148
 42
-0.1514404058
  0
VERTEX
  8
LAYER_1
 10
198.2079
 20
189.5806
 42
-0.04032981652
  0
VERTEX
  8
LAYER_1
 10
198.1419
 20
190.0343
 42
-0.01782051687
  0
VERTEX
  8
LAYER_1
 10
198.125
 20
190.6104
 42
-0.04129611874
  0
VERTEX
  8
LAYER_1
 10
198.1709
 20
191.439
 42
-0.115117363
  0
VERTEX
  8
LAYER_1
 10
198.4148
 20
192.0953
 42
-0.03654239339
  0
VERTEX
  8
LAYER_1
 10
198.5026
 20
192.194
 42
-0.2075936136
  0
VERTEX
  8
LAYER_1
 10
199.2574
 20
192.4827
 42
-0.1450929454
  0
VERTEX
  8
LAYER_1
 10
199.8817
 20
192.3117
 42
-0.04835174358
  0
VERTEX
  8
LAYER_1
 10
200.025
 20
192.194
 42
-0.1513511736
  0
VERTEX
  8
LAYER_1
 10
200.3195
 20
191.6295
 42
-0.0403919513
  0
VERTEX
  8
LAYER_1
 10
200.3854
 20
191.179
 42
-0.01793890778
  0
VERTEX
  8
LAYER_1
 10
200.4022
 20
190.6104
  0
SEQEND
  0
POLYLINE
  8
LAYER_1
 40
0.05
 41
0.05
 66
1
 10
0
 20
0
 30
0
  0
VERTEX
  8
LAYER_1
 10
202.0376
 20
190.6104
 42
0.03174499688
  0
VERTEX
  8
LAYER_1
 10
201.9901
 20
191.5521
 42
0.07858420778
  0
VERTEX
  8
LAYER_1
 10
201.7212
 20
192.5367
 42
0.07790043788
  0
VERTEX
  8
LAYER_1
 10
201.2952
 20
193.1489
 42
0.1422741765
  0
VERTEX
  8
LAYER_1
 10
200.0938
 20
193.8503
 42
0.06575783118
  0
VERTEX
  8
LAYER_1
 10
199.2574
 20
193.953
 42
0.08626276489
  0
VERTEX
  8
LAYER_1
 10
198.1987
 20
193.7763
 42
0.1130938839
  0
VERTEX
  8
LAYER_1
 10
197.2321
 20
193.1489
 42
0.09879950124
  0
VERTEX
  8
LAYER_1
 10
196.7234
 20
192.3456
 42
0.0404679434
  0
VERTEX
  8
LAYER_1
 10
196.5922
 20
191.8903
 42
0.03220823348
  0
VERTEX
  8
LAYER_1
 10
196.5128
 20
191.3008
 42
0.0185744819
  0
VERTEX
  8
LAYER_1
 10
196.49
 20
190.6104
 42
0.03149717766
  0
VERTEX
  8
LAYER_1
 10
196.5374
 20
189.6664
 42
0.07798103733
  0
VERTEX
  8
LAYER_1
 10
196.806
 20
188.6749
 42
0.07855911256
  0
VERTEX
  8
LAYER_1
 10
197.2321
 20
188.0598
 42
0.1827570447
  0
VERTEX
  8
LAYER_1
 10
198.9302
 20
187.2708
 42
0.02310613048
  0
VERTEX
  8
LAYER_1
 10
199.2574
 20
187.2558
 42
0.08562149542
  0
VERTEX
  8
LAYER_1
 10
200.321
 20
187.4325
 42
0.11295963
  0
VERTEX
  8
LAYER_1
 10
201.2952
 20
188.0598
 42
0.1497119428
  0
VERTEX
  8
LAYER_1
 10
201.9307
 20
189.2816
 42
0.03273954869
  0
VERTEX
  8
LAYER_1
 10
202.0125
 20
189.8702
 42
0.01956092103
  0
VERTEX
  8
LAYER_1
 10
202.0376
 20
190.6104
  0
SEQEND
  0
POLYLINE
  8
LAYER_1
 40
0.05
 41
0.05
 66
1
 10
0
 20
0
 30
0
  0
VERTEX
  8
LAYER_1
 10
190.2816
 20
191.2137
  0
VERTEX
  8
LAYER_1
 10
187.7908
 20
191.2137
 42
-0.1125576405
  0
VERTEX
  8
LAYER_1
 10
187.942
 20
191.9175
 42
-0.1395188946
  0
VERTEX
  8
LAYER_1
 10
188.3475
 20
192.4027
 42
-0.1317032456
  0
VERTEX
  8
LAYER_1
 10
188.9222
 20
192.5916
 42
-0.0199515076
  0
VERTEX
  8
LAYER_1
 10
189.0362
 20
192.5958
 42
-0.1373900966
  0
VERTEX
  8
LAYER_1
 10
189.6991
 20
192.4194
 42
-0.1507026899
  0
VERTEX
  8
LAYER_1
 10
190.131
 20
191.9175
 42
-0.117350815
  0
VERTEX
  8
LAYER_1
 10
190.2816
 20
191.2137
  0
SEQEND
  0
POLYLINE
  8
LAYER_1
 40
0.05
 41
0.05
 66
1
 10
0
 20
0
 30
0
 70
1
  0
VERTEX
  8
LAYER_1
 10
191.8918
 20
190.0957
  0
VERTEX
  8
LAYER_1
 10
191.8918
 20
190.7865
 42
0.07162555111
  0
VERTEX
  8
LAYER_1
 10
191.7249
 20
191.9932
 42
0.08028320763
  0
VERTEX
  8
LAYER_1
 10
191.2993
 20
192.8753
 42
0.08656359812
  0
VERTEX
  8
LAYER_1
 10
190.6847
 20
193.4816
 42
0.08456095154
  0
VERTEX
  8
LAYER_1
 10
189.9053
 20
193.841
 42
0.06903150043
  0
VERTEX
  8
LAYER_1
 10
189.0362
 20
193.953
 42
0.08516489122
  0
VERTEX
  8
LAYER_1
 10
188.0059
 20
193.7827
 42
0.2152107103
  0
VERTEX
  8
LAYER_1
 10
186.4854
 20
192.2962
 42
0.07249820842
  0
VERTEX
  8
LAYER_1
 10
186.2157
 20
191.2322
 42
0.02934488658
  0
VERTEX
  8
LAYER_1
 10
186.1805
 20
190.6104
 42
0.06682496853
  0
VERTEX
  8
LAYER_1
 10
186.3523
 20
189.2255
 42
0.08313246304
  0
VERTEX
  8
LAYER_1
 10
186.7752
 20
188.321
 42
0.1843076067
  0
VERTEX
  8
LAYER_1
 10
188.2206
 20
187.3698
 42
0.0641229829
  0
VERTEX
  8
LAYER_1
 10
189.2122
 20
187.2558
 42
0.0768316663
  0
VERTEX
  8
LAYER_1
 10
190.404
 20
187.4218
 42
0.08472242778
  0
VERTEX
  8
LAYER_1
 10
191.2152
 20
187.8511
 42
0.03765792592
  0
VERTEX
  8
LAYER_1
 10
191.7034
 20
188.2864
  0
VERTEX
  8
LAYER_1
 10
190.7095
 20
189.2536
 42
-0.1072947618
  0
VERTEX
  8
LAYER_1
 10
189.9585
 20
188.7461
 42
-0.0913393117
  0
VERTEX
  8
LAYER_1
 10
189.225
 20
188.6381
 42
-0.1206713536
  0
VERTEX
  8
LAYER_1
 10
188.4646
 20
188.8122
 42
-0.1907051017
  0
VERTEX
  8
LAYER_1
 10
187.884
 20
189.5075
 42
-0.08636520349
  0
VERTEX
  8
LAYER_1
 10
187.7908
 20
190.0957
  0
SEQEND
  0
POLYLINE
  8
LAYER_1
 40
0.05
 41
0.05
 66
1
 10
0
 20
0
 30
0
 70
1
  0
VERTEX
  8
LAYER_1
 10
184.6964
 20
196.2866
  0
VERTEX
  8
LAYER_1
 10
183.0462
 20
196.2866
  0
VERTEX
  8
LAYER_1
 10
183.0462
 20
194.9549
  0
VERTEX
  8
LAYER_1
 10
184.6964
 20
194.9549
  0
SEQEND
  0
POLYLINE
  8
LAYER_1
 40
0.05
 41
0.05
 66
1
 10
0
 20
0
 30
0
 70
1
  0
VERTEX
  8
LAYER_1
 10
184.6836
 20
193.7995
  0
VERTEX
  8
LAYER_1
 10
183.0479
 20
193.7995
  0
VERTEX
  8
LAYER_1
 10
183.0479
 20
187.3314
  0
VERTEX
  8
LAYER_1
 10
184.6836
 20
187.3314
  0
SEQEND
  0
POLYLINE
  8
LAYER_1
 40
0.05
 41
0.05
 66
1
 10
0
 20
0
 30
0
  0
VERTEX
  8
LAYER_1
 10
181.7777
 20
188.148
  0
VERTEX
  8
LAYER_1
 10
180.6708
 20
189.2413
 42
-0.1242266829
  0
VERTEX
  8
LAYER_1
 10
180.0221
 20
188.7844
 42
-0.08029380745
  0
VERTEX
  8
LAYER_1
 10
179.6142
 20
188.7258
 42
-0.138705938
  0
VERTEX
  8
LAYER_1
 10
178.9732
 20
188.895
 42
-0.08225870606
  0
VERTEX
  8
LAYER_1
 10
178.6833
 20
189.1531
 42
-0.1253710098
  0
VERTEX
  8
LAYER_1
 10
178.3832
 20
189.844
 42
-0.05213180721
  0
VERTEX
  8
LAYER_1
 10
178.3185
 20
190.6104
 42
-0.04353000954
  0
VERTEX
  8
LAYER_1
 10
178.3676
 20
191.2886
 42
-0.1072916255
  0
VERTEX
  8
LAYER_1
 10
178.6378
 20
191.9952
 42
-0.01441442536
  0
VERTEX
  8
LAYER_1
 10
178.6833
 20
192.0555
 42
-0.1431938929
  0
VERTEX
  8
LAYER_1
 10
179.2112
 20
192.4238
 42
-0.07945414576
  0
VERTEX
  8
LAYER_1
 10
179.6142
 20
192.4827
 42
-0.1421370366
  0
VERTEX
  8
LAYER_1
 10
180.2768
 20
192.3056
 42
-0.06967294191
  0
VERTEX
  8
LAYER_1
 10
180.6708
 20
191.968
  0
VERTEX
  8
LAYER_1
 10
181.7777
 20
193.0731
 42
0.08882909472
  0
VERTEX
  8
LAYER_1
 10
180.9662
 20
193.6739
 42
0.08605806956
  0
VERTEX
  8
LAYER_1
 10
180.0618
 20
193.9283
 42
0.02865290108
  0
VERTEX
  8
LAYER_1
 10
179.6142
 20
193.953
 42
0.08067356127
  0
VERTEX
  8
LAYER_1
 10
178.5413
 20
193.7829
 42
0.08358142146
  0
VERTEX
  8
LAYER_1
 10
177.7665
 20
193.3667
 42
0.09024336888
  0
VERTEX
  8
LAYER_1
 10
177.1796
 20
192.7014
 42
0.07835750606
  0
VERTEX
  8
LAYER_1
 10
176.8171
 20
191.8103
 42
0.06322503507
  0
VERTEX
  8
LAYER_1
 10
176.6831
 20
190.6104
 42
0.06782974798
  0
VERTEX
  8
LAYER_1
 10
176.8544
 20
189.2706
 42
0.08256094485
  0
VERTEX
  8
LAYER_1
 10
177.2878
 20
188.3522
 42
0.1768012992
  0
VERTEX
  8
LAYER_1
 10
178.7307
 20
187.3698
 42
0.06691549737
  0
VERTEX
  8
LAYER_1
 10
179.6142
 20
187.2558
 42
0.08460493823
  0
VERTEX
  8
LAYER_1
 10
180.7006
 20
187.4299
 42
0.08609823032
  0
VERTEX
  8
LAYER_1
 10
181.4843
 20
187.8763
 42
0.0305516797
  0
VERTEX
  8
LAYER_1
 10
181.7777
 20
188.148
  0
SEQEND
  0
ENDBLK
  0
BLOCK
  8
LAYER_1
  2
AIGNBL01020004
 70
64
 10
0
 20
0
 30
0
  3
AIGNBL01020004
  0
POLYLINE
  8
LAYER_1
 40
0.05
 41
0.05
 66
1
 10
0
 20
0
 30
0
 70
1
  0
VERTEX
  8
LAYER_1
 10
201.927
 20
185.69
  0
VERTEX
  8
LAYER_1
 10
201.5991
 20
185.69
  0
VERTEX
  8
LAYER_1
 10
201.3503
 20
184.9205
  0
VERTEX
  8
LAYER_1
 10
201.0916
 20
185.69
  0
VERTEX
  8
LAYER_1
 10
200.764
 20
185.69
  0
VERTEX
  8
LAYER_1
 10
201.1898
 20
184.5328
  0
VERTEX
  8
LAYER_1
 10
201.1371
 20
184.3796
 42
-0.3952787842
  0
VERTEX
  8
LAYER_1
 10
200.9817
 20
184.2675
  0
VERTEX
  8
LAYER_1
 10
200.91
 20
184.2675
  0
VERTEX
  8
LAYER_1
 10
200.91
 20
183.9877
  0
VERTEX
  8
LAYER_1
 10
201.032
 20
183.9877
 42
0.2043484106
  0
VERTEX
  8
LAYER_1
 10
201.2997
 20
184.0837
 42
0.1020517092
  0
VERTEX
  8
LAYER_1
 10
201.3934
 20
184.2439
  0
SEQEND
  0
POLYLINE
  8
LAYER_1
 40
0.05
 41
0.05
 66
1
 10
0
 20
0
 30
0
 70
1
  0
VERTEX
  8
LAYER_1
 10
200.7278
 20
184.4446
  0
VERTEX
  8
LAYER_1
 10
200.7278
 20
184.7071
  0
VERTEX
  8
LAYER_1
 10
200.6086
 20
184.7071
 42
-0.4748996069
  0
VERTEX
  8
LAYER_1
 10
200.4984
 20
184.8196
  0
VERTEX
  8
LAYER_1
 10
200.4984
 20
186.1464
  0
VERTEX
  8
LAYER_1
 10
200.1873
 20
186.1464
  0
VERTEX
  8
LAYER_1
 10
200.1873
 20
184.8008
 42
0.2572728193
  0
VERTEX
  8
LAYER_1
 10
200.3491
 20
184.4938
 42
0.1351535326
  0
VERTEX
  8
LAYER_1
 10
200.5507
 20
184.4446
  0
SEQEND
  0
POLYLINE
  8
LAYER_1
 40
0.05
 41
0.05
 66
1
 10
0
 20
0
 30
0
 70
1
  0
VERTEX
  8
LAYER_1
 10
199.624
 20
184.9034
 42
-0.2494093716
  0
VERTEX
  8
LAYER_1
 10
199.5768
 20
184.7458
 42
-0.213353179
  0
VERTEX
  8
LAYER_1
 10
199.3925
 20
184.6859
 42
-0.2051421431
  0
VERTEX
  8
LAYER_1
 10
199.2398
 20
184.7325
 42
-0.2062867635
  0
VERTEX
  8
LAYER_1
 10
199.2033
 20
184.827
 42
-0.4729279894
  0
VERTEX
  8
LAYER_1
 10
199.3877
 20
184.9703
  0
VERTEX
  8
LAYER_1
 10
199.624
 20
184.9703
  0
SEQEND
  0
POLYLINE
  8
LAYER_1
 40
0.05
 41
0.05
 66
1
 10
0
 20
0
 30
0
 70
1
  0
VERTEX
  8
LAYER_1
 10
199.9358
 20
184.4446
  0
VERTEX
  8
LAYER_1
 10
199.9358
 20
185.2645
 42
0.2451049617
  0
VERTEX
  8
LAYER_1
 10
199.7759
 20
185.6131
 42
0.1630571112
  0
VERTEX
  8
LAYER_1
 10
199.4042
 20
185.7039
 42
0.2230637614
  0
VERTEX
  8
LAYER_1
 10
198.9684
 20
185.5395
 42
0.006283416224
  0
VERTEX
  8
LAYER_1
 10
198.957
 20
185.5272
  0
VERTEX
  8
LAYER_1
 10
199.1534
 20
185.3339
 42
-0.2478297165
  0
VERTEX
  8
LAYER_1
 10
199.3925
 20
185.4416
 42
-0.187701067
  0
VERTEX
  8
LAYER_1
 10
199.5684
 20
185.396
 42
-0.2383933404
  0
VERTEX
  8
LAYER_1
 10
199.624
 20
185.2454
  0
VERTEX
  8
LAYER_1
 10
199.624
 20
185.1834
  0
VERTEX
  8
LAYER_1
 10
199.3349
 20
185.1834
 42
0.2346851872
  0
VERTEX
  8
LAYER_1
 10
198.963
 20
185.0236
 42
0.1531681726
  0
VERTEX
  8
LAYER_1
 10
198.9043
 20
184.822
 42
0.1882266913
  0
VERTEX
  8
LAYER_1
 10
199.0066
 20
184.5422
 42
0.2063195465
  0
VERTEX
  8
LAYER_1
 10
199.3253
 20
184.4322
 42
0.2219713073
  0
VERTEX
  8
LAYER_1
 10
199.6319
 20
184.5522
  0
VERTEX
  8
LAYER_1
 10
199.6319
 20
184.4446
  0
SEQEND
  0
POLYLINE
  8
LAYER_1
 40
0.05
 41
0.05
 66
1
 10
0
 20
0
 30
0
 70
1
  0
VERTEX
  8
LAYER_1
 10
198.7224
 20
184.4446
  0
VERTEX
  8
LAYER_1
 10
198.7224
 20
184.7071
  0
VERTEX
  8
LAYER_1
 10
198.6098
 20
184.7071
 42
-0.4619736642
  0
VERTEX
  8
LAYER_1
 10
198.5019
 20
184.8196
  0
VERTEX
  8
LAYER_1
 10
198.5019
 20
185.4175
  0
VERTEX
  8
LAYER_1
 10
198.7224
 20
185.4175
  0
VERTEX
  8
LAYER_1
 10
198.7224
 20
185.654
  0
VERTEX
  8
LAYER_1
 10
198.5019
 20
185.654
  0
VERTEX
  8
LAYER_1
 10
198.5019
 20
186.0222
  0
VERTEX
  8
LAYER_1
 10
198.1912
 20
186.0222
  0
VERTEX
  8
LAYER_1
 10
198.1912
 20
185.654
  0
VERTEX
  8
LAYER_1
 10
198.0592
 20
185.654
  0
VERTEX
  8
LAYER_1
 10
198.0592
 20
185.4175
  0
VERTEX
  8
LAYER_1
 10
198.1912
 20
185.4175
  0
VERTEX
  8
LAYER_1
 10
198.1912
 20
184.8008
 42
0.2563568817
  0
VERTEX
  8
LAYER_1
 10
198.3524
 20
184.4938
 42
0.1357760723
  0
VERTEX
  8
LAYER_1
 10
198.5526
 20
184.4446
  0
SEQEND
  0
POLYLINE
  8
LAYER_1
 40
0.05
 41
0.05
 66
1
 10
0
 20
0
 30
0
 70
1
  0
VERTEX
  8
LAYER_1
 10
197.7891
 20
186.1464
  0
VERTEX
  8
LAYER_1
 10
197.4563
 20
186.1464
  0
VERTEX
  8
LAYER_1
 10
197.4563
 20
184.4446
  0
VERTEX
  8
LAYER_1
 10
197.7891
 20
184.4446
  0
SEQEND
  0
POLYLINE
  8
LAYER_1
 40
0.05
 41
0.05
 66
1
 10
0
 20
0
 30
0
 70
1
  0
VERTEX
  8
LAYER_1
 10
196.542
 20
184.4446
  0
VERTEX
  8
LAYER_1
 10
196.542
 20
185.2404
 42
0.2075256194
  0
VERTEX
  8
LAYER_1
 10
196.4152
 20
185.5938
 42
0.2034384062
  0
VERTEX
  8
LAYER_1
 10
196.1207
 20
185.7039
 42
0.201404021
  0
VERTEX
  8
LAYER_1
 10
195.8096
 20
185.5752
  0
VERTEX
  8
LAYER_1
 10
195.8096
 20
185.69
  0
VERTEX
  8
LAYER_1
 10
195.5057
 20
185.69
  0
VERTEX
  8
LAYER_1
 10
195.5057
 20
184.4446
  0
VERTEX
  8
LAYER_1
 10
195.8172
 20
184.4446
  0
VERTEX
  8
LAYER_1
 10
195.8172
 20
185.1977
 42
-0.4180033366
  0
VERTEX
  8
LAYER_1
 10
196.0252
 20
185.4242
 42
-0.4343307174
  0
VERTEX
  8
LAYER_1
 10
196.2309
 20
185.1977
  0
VERTEX
  8
LAYER_1
 10
196.2309
 20
184.4446
  0
SEQEND
  0
POLYLINE
  8
LAYER_1
 40
0.05
 41
0.05
 66
1
 10
0
 20
0
 30
0
 70
1
  0
VERTEX
  8
LAYER_1
 10
195.1612
 20
186.1563
  0
VERTEX
  8
LAYER_1
 10
194.8429
 20
186.1563
  0
VERTEX
  8
LAYER_1
 10
194.8429
 20
185.9025
  0
VERTEX
  8
LAYER_1
 10
195.1612
 20
185.9025
  0
SEQEND
  0
POLYLINE
  8
LAYER_1
 40
0.05
 41
0.05
 66
1
 10
0
 20
0
 30
0
 70
1
  0
VERTEX
  8
LAYER_1
 10
195.1588
 20
185.654
  0
VERTEX
  8
LAYER_1
 10
194.8474
 20
185.654
  0
VERTEX
  8
LAYER_1
 10
194.8474
 20
184.4446
  0
VERTEX
  8
LAYER_1
 10
195.1588
 20
184.4446
  0
SEQEND
  0
POLYLINE
  8
LAYER_1
 40
0.05
 41
0.05
 66
1
 10
0
 20
0
 30
0
  0
VERTEX
  8
LAYER_1
 10
193.6988
 20
185.1834
  0
VERTEX
  8
LAYER_1
 10
193.2247
 20
185.1834
 42
-0.114973536
  0
VERTEX
  8
LAYER_1
 10
193.2537
 20
185.317
 42
-0.3022746655
  0
VERTEX
  8
LAYER_1
 10
193.4617
 20
185.4457
 42
-0.2972073812
  0
VERTEX
  8
LAYER_1
 10
193.6698
 20
185.317
 42
-0.09881845695
  0
VERTEX
  8
LAYER_1
 10
193.6988
 20
185.1834
  0
SEQEND
  0
POLYLINE
  8
LAYER_1
 40
0.05
 41
0.05
 66
1
 10
0
 20
0
 30
0
 70
1
  0
VERTEX
  8
LAYER_1
 10
194.005
 20
184.9703
  0
VERTEX
  8
LAYER_1
 10
194.005
 20
185.1019
 42
0.1892622282
  0
VERTEX
  8
LAYER_1
 10
193.8411
 20
185.5595
 42
0.2074283582
  0
VERTEX
  8
LAYER_1
 10
193.4617
 20
185.7039
 42
0.2125386892
  0
VERTEX
  8
LAYER_1
 10
193.0689
 20
185.5385
 42
0.1816356675
  0
VERTEX
  8
LAYER_1
 10
192.9195
 20
185.1154
 42
0.01190628854
  0
VERTEX
  8
LAYER_1
 10
192.9185
 20
185.0686
 42
0.1803715127
  0
VERTEX
  8
LAYER_1
 10
193.072
 20
184.5838
 42
0.2018710301
  0
VERTEX
  8
LAYER_1
 10
193.4402
 20
184.4317
 42
0.01696810336
  0
VERTEX
  8
LAYER_1
 10
193.4952
 20
184.4301
 42
0.2092687615
  0
VERTEX
  8
LAYER_1
 10
193.9455
 20
184.6027
 42
0.009814898684
  0
VERTEX
  8
LAYER_1
 10
193.9692
 20
184.6263
  0
VERTEX
  8
LAYER_1
 10
193.7801
 20
184.8104
 42
-0.2247587249
  0
VERTEX
  8
LAYER_1
 10
193.4979
 20
184.6933
 42
-0.4264622019
  0
VERTEX
  8
LAYER_1
 10
193.2247
 20
184.9703
  0
SEQEND
  0
POLYLINE
  8
LAYER_1
 40
0.05
 41
0.05
 66
1
 10
0
 20
0
 30
0
  0
VERTEX
  8
LAYER_1
 10
192.3204
 20
185.0686
 42
-0.1438197535
  0
VERTEX
  8
LAYER_1
 10
192.2747
 20
184.7963
 42
-0.2886710895
  0
VERTEX
  8
LAYER_1
 10
192.1071
 20
184.7098
 42
-0.3841939241
  0
VERTEX
  8
LAYER_1
 10
191.9131
 20
184.8703
 42
-0.05453483206
  0
VERTEX
  8
LAYER_1
 10
191.8966
 20
185.0686
 42
-0.1483825798
  0
VERTEX
  8
LAYER_1
 10
191.9423
 20
185.3417
 42
-0.2854898392
  0
VERTEX
  8
LAYER_1
 10
192.1071
 20
185.4242
 42
-0.3793691269
  0
VERTEX
  8
LAYER_1
 10
192.3031
 20
185.2658
 42
-0.05700821187
  0
VERTEX
  8
LAYER_1
 10
192.3204
 20
185.0686
  0
SEQEND
  0
POLYLINE
  8
LAYER_1
 40
0.05
 41
0.05
 66
1
 10
0
 20
0
 30
0
 70
1
  0
VERTEX
  8
LAYER_1
 10
192.6315
 20
184.4446
  0
VERTEX
  8
LAYER_1
 10
192.6315
 20
186.1464
  0
VERTEX
  8
LAYER_1
 10
192.3204
 20
186.1464
  0
VERTEX
  8
LAYER_1
 10
192.3204
 20
185.5802
 42
0.2302298524
  0
VERTEX
  8
LAYER_1
 10
192.0162
 20
185.7039
 42
0.1954323607
  0
VERTEX
  8
LAYER_1
 10
191.7147
 20
185.5918
 42
0.1228982735
  0
VERTEX
  8
LAYER_1
 10
191.6187
 20
185.4194
 42
0.07475491459
  0
VERTEX
  8
LAYER_1
 10
191.5852
 20
185.0686
 42
0.101224834
  0
VERTEX
  8
LAYER_1
 10
191.6316
 20
184.676
 42
0.1062307919
  0
VERTEX
  8
LAYER_1
 10
191.7147
 20
184.5422
 42
0.2043634416
  0
VERTEX
  8
LAYER_1
 10
192.0186
 20
184.4301
 42
0.2298336625
  0
VERTEX
  8
LAYER_1
 10
192.3273
 20
184.5617
  0
VERTEX
  8
LAYER_1
 10
192.3273
 20
184.4446
  0
SEQEND
  0
POLYLINE
  8
LAYER_1
 40
0.05
 41
0.05
 66
1
 10
0
 20
0
 30
0
 70
1
  0
VERTEX
  8
LAYER_1
 10
190.992
 20
184.9034
 42
-0.2477108589
  0
VERTEX
  8
LAYER_1
 10
190.9441
 20
184.7458
 42
-0.213124838
  0
VERTEX
  8
LAYER_1
 10
190.7598
 20
184.6859
 42
-0.2057186099
  0
VERTEX
  8
LAYER_1
 10
190.6073
 20
184.7325
 42
-0.2057845703
  0
VERTEX
  8
LAYER_1
 10
190.571
 20
184.827
 42
-0.4731475405
  0
VERTEX
  8
LAYER_1
 10
190.7549
 20
184.9703
  0
VERTEX
  8
LAYER_1
 10
190.992
 20
184.9703
  0
SEQEND
  0
POLYLINE
  8
LAYER_1
 40
0.05
 41
0.05
 66
1
 10
0
 20
0
 30
0
 70
1
  0
VERTEX
  8
LAYER_1
 10
191.3031
 20
184.4446
  0
VERTEX
  8
LAYER_1
 10
191.3031
 20
185.2645
 42
0.2451049617
  0
VERTEX
  8
LAYER_1
 10
191.1432
 20
185.6131
 42
0.1630571112
  0
VERTEX
  8
LAYER_1
 10
190.7715
 20
185.7039
 42
0.2230637614
  0
VERTEX
  8
LAYER_1
 10
190.3357
 20
185.5395
 42
0.006283416224
  0
VERTEX
  8
LAYER_1
 10
190.3243
 20
185.5272
  0
VERTEX
  8
LAYER_1
 10
190.5203
 20
185.3339
 42
-0.2465436866
  0
VERTEX
  8
LAYER_1
 10
190.7598
 20
185.4416
 42
-0.1871582854
  0
VERTEX
  8
LAYER_1
 10
190.9361
 20
185.396
 42
-0.2388971736
  0
VERTEX
  8
LAYER_1
 10
190.992
 20
185.2454
  0
VERTEX
  8
LAYER_1
 10
190.992
 20
185.1834
  0
VERTEX
  8
LAYER_1
 10
190.7022
 20
185.1834
 42
0.2347727545
  0
VERTEX
  8
LAYER_1
 10
190.3302
 20
185.0236
 42
0.1530730853
  0
VERTEX
  8
LAYER_1
 10
190.2716
 20
184.822
 42
0.1890702268
  0
VERTEX
  8
LAYER_1
 10
190.3743
 20
184.5422
 42
0.2074065925
  0
VERTEX
  8
LAYER_1
 10
190.6929
 20
184.4322
 42
0.2223732322
  0
VERTEX
  8
LAYER_1
 10
190.9992
 20
184.5522
  0
VERTEX
  8
LAYER_1
 10
190.9992
 20
184.4446
  0
SEQEND
  0
POLYLINE
  8
LAYER_1
 40
0.05
 41
0.05
 66
1
 10
0
 20
0
 30
0
 70
1
  0
VERTEX
  8
LAYER_1
 10
190.0253
 20
184.4446
  0
VERTEX
  8
LAYER_1
 10
190.0253
 20
185.2404
 42
0.2057885497
  0
VERTEX
  8
LAYER_1
 10
189.8885
 20
185.5938
 42
0.1992687883
  0
VERTEX
  8
LAYER_1
 10
189.5822
 20
185.7039
 42
0.2183541611
  0
VERTEX
  8
LAYER_1
 10
189.2088
 20
185.5463
 42
0.2495745767
  0
VERTEX
  8
LAYER_1
 10
188.8787
 20
185.7039
 42
0.1960640629
  0
VERTEX
  8
LAYER_1
 10
188.5673
 20
185.5752
  0
VERTEX
  8
LAYER_1
 10
188.5673
 20
185.69
  0
VERTEX
  8
LAYER_1
 10
188.2634
 20
185.69
  0
VERTEX
  8
LAYER_1
 10
188.2634
 20
184.4446
  0
VERTEX
  8
LAYER_1
 10
188.5749
 20
184.4446
  0
VERTEX
  8
LAYER_1
 10
188.5749
 20
185.1977
 42
-0.4181127815
  0
VERTEX
  8
LAYER_1
 10
188.783
 20
185.4242
 42
-0.43431598
  0
VERTEX
  8
LAYER_1
 10
188.9886
 20
185.1977
  0
VERTEX
  8
LAYER_1
 10
188.9886
 20
184.4446
  0
VERTEX
  8
LAYER_1
 10
189.2997
 20
184.4446
  0
VERTEX
  8
LAYER_1
 10
189.2997
 20
185.2045
 42
-0.417764333
  0
VERTEX
  8
LAYER_1
 10
189.5078
 20
185.4242
 42
-0.4347640142
  0
VERTEX
  8
LAYER_1
 10
189.7138
 20
185.1977
  0
VERTEX
  8
LAYER_1
 10
189.7138
 20
184.4446
  0
SEQEND
  0
POLYLINE
  8
LAYER_1
 40
0.05
 41
0.05
 66
1
 10
0
 20
0
 30
0
  0
VERTEX
  8
LAYER_1
 10
187.7009
 20
185.0323
 42
-0.1159823606
  0
VERTEX
  8
LAYER_1
 10
187.6537
 20
184.7297
 42
-0.3129868577
  0
VERTEX
  8
LAYER_1
 10
187.4066
 20
184.5832
 42
-0.3149689318
  0
VERTEX
  8
LAYER_1
 10
187.1522
 20
184.7419
 42
-0.1042907152
  0
VERTEX
  8
LAYER_1
 10
187.11
 20
185.0323
 42
-0.1139500946
  0
VERTEX
  8
LAYER_1
 10
187.1558
 20
185.3312
 42
-0.3163329824
  0
VERTEX
  8
LAYER_1
 10
187.4066
 20
185.4817
 42
-0.3163778563
  0
VERTEX
  8
LAYER_1
 10
187.6591
 20
185.323
 42
-0.1034672205
  0
VERTEX
  8
LAYER_1
 10
187.7009
 20
185.0323
  0
SEQEND
  0
POLYLINE
  8
LAYER_1
 40
0.05
 41
0.05
 66
1
 10
0
 20
0
 30
0
 70
1
  0
VERTEX
  8
LAYER_1
 10
187.8735
 20
184.4446
  0
VERTEX
  8
LAYER_1
 10
187.8735
 20
186.1464
  0
VERTEX
  8
LAYER_1
 10
187.7009
 20
186.1464
  0
VERTEX
  8
LAYER_1
 10
187.7009
 20
185.4843
 42
0.2525818121
  0
VERTEX
  8
LAYER_1
 10
187.3684
 20
185.6352
 42
0.1886393528
  0
VERTEX
  8
LAYER_1
 10
187.0811
 20
185.5318
 42
0.1172978386
  0
VERTEX
  8
LAYER_1
 10
186.9777
 20
185.3528
 42
0.07876818405
  0
VERTEX
  8
LAYER_1
 10
186.9374
 20
185.0323
 42
0.09207329595
  0
VERTEX
  8
LAYER_1
 10
186.9855
 20
184.6899
 42
0.1077667615
  0
VERTEX
  8
LAYER_1
 10
187.0811
 20
184.5328
 42
0.198210181
  0
VERTEX
  8
LAYER_1
 10
187.3684
 20
184.4301
 42
0.2509635892
  0
VERTEX
  8
LAYER_1
 10
187.7036
 20
184.5853
  0
VERTEX
  8
LAYER_1
 10
187.7036
 20
184.4446
  0
SEQEND
  0
POLYLINE
  8
LAYER_1
 40
0.05
 41
0.05
 66
1
 10
0
 20
0
 30
0
 70
1
  0
VERTEX
  8
LAYER_1
 10
186.5809
 20
184.4446
  0
VERTEX
  8
LAYER_1
 10
186.5809
 20
185.1977
 42
0.2026166616
  0
VERTEX
  8
LAYER_1
 10
186.4589
 20
185.5251
 42
0.2047521367
  0
VERTEX
  8
LAYER_1
 10
186.1571
 20
185.6352
 42
0.2165707378
  0
VERTEX
  8
LAYER_1
 10
185.8271
 20
185.4912
  0
VERTEX
  8
LAYER_1
 10
185.8271
 20
185.6207
  0
VERTEX
  8
LAYER_1
 10
185.6548
 20
185.6207
  0
VERTEX
  8
LAYER_1
 10
185.6548
 20
184.4446
  0
VERTEX
  8
LAYER_1
 10
185.8271
 20
184.4446
  0
VERTEX
  8
LAYER_1
 10
185.8271
 20
185.1689
 42
-0.2840161527
  0
VERTEX
  8
LAYER_1
 10
185.9793
 20
185.4535
 42
-0.1084735802
  0
VERTEX
  8
LAYER_1
 10
186.1192
 20
185.4817
 42
-0.4423093793
  0
VERTEX
  8
LAYER_1
 10
186.4086
 20
185.1689
  0
VERTEX
  8
LAYER_1
 10
186.4086
 20
184.4446
  0
SEQEND
  0
POLYLINE
  8
LAYER_1
 40
0.05
 41
0.05
 66
1
 10
0
 20
0
 30
0
 70
1
  0
VERTEX
  8
LAYER_1
 10
185.0636
 20
184.8602
 42
-0.2109567468
  0
VERTEX
  8
LAYER_1
 10
185.0037
 20
184.6573
 42
-0.2065729022
  0
VERTEX
  8
LAYER_1
 10
184.7429
 20
184.5782
 42
-0.1623466044
  0
VERTEX
  8
LAYER_1
 10
184.5398
 20
184.6245
 42
-0.262542201
  0
VERTEX
  8
LAYER_1
 10
184.47
 20
184.7794
 42
-0.376646919
  0
VERTEX
  8
LAYER_1
 10
184.629
 20
184.9762
 42
-0.05118405332
  0
VERTEX
  8
LAYER_1
 10
184.7357
 20
184.9868
  0
VERTEX
  8
LAYER_1
 10
185.0636
 20
184.9868
  0
SEQEND
  0
POLYLINE
  8
LAYER_1
 40
0.05
 41
0.05
 66
1
 10
0
 20
0
 30
0
 70
1
  0
VERTEX
  8
LAYER_1
 10
185.2362
 20
184.4446
  0
VERTEX
  8
LAYER_1
 10
185.2362
 20
185.2426
 42
0.2623953637
  0
VERTEX
  8
LAYER_1
 10
185.0758
 20
185.5654
 42
0.145082166
  0
VERTEX
  8
LAYER_1
 10
184.7646
 20
185.6352
 42
0.2362276322
  0
VERTEX
  8
LAYER_1
 10
184.3627
 20
185.4766
 42
0.01170794038
  0
VERTEX
  8
LAYER_1
 10
184.3481
 20
185.4581
  0
VERTEX
  8
LAYER_1
 10
184.4652
 20
185.3501
 42
-0.276132655
  0
VERTEX
  8
LAYER_1
 10
184.7618
 20
185.487
 42
-0.151714978
  0
VERTEX
  8
LAYER_1
 10
184.9699
 20
185.4402
 42
-0.2800763343
  0
VERTEX
  8
LAYER_1
 10
185.0636
 20
185.2288
  0
VERTEX
  8
LAYER_1
 10
185.0636
 20
185.1158
  0
VERTEX
  8
LAYER_1
 10
184.7119
 20
185.1158
 42
0.2378299669
  0
VERTEX
  8
LAYER_1
 10
184.3531
 20
184.9615
 42
0.1477547398
  0
VERTEX
  8
LAYER_1
 10
184.3026
 20
184.7765
 42
0.1984668851
  0
VERTEX
  8
LAYER_1
 10
184.3912
 20
184.5377
 42
0.2226193312
  0
VERTEX
  8
LAYER_1
 10
184.724
 20
184.4301
 42
0.2192154205
  0
VERTEX
  8
LAYER_1
 10
185.0636
 20
184.5563
  0
VERTEX
  8
LAYER_1
 10
185.0636
 20
184.4446
  0
SEQEND
  0
POLYLINE
  8
LAYER_1
 40
0.05
 41
0.05
 66
1
 10
0
 20
0
 30
0
 70
1
  0
VERTEX
  8
LAYER_1
 10
183.9771
 20
184.4446
  0
VERTEX
  8
LAYER_1
 10
183.9771
 20
185.1999
 42
0.2367184569
  0
VERTEX
  8
LAYER_1
 10
183.8134
 20
185.5619
 42
0.1585091962
  0
VERTEX
  8
LAYER_1
 10
183.5533
 20
185.6352
 42
0.2174282511
  0
VERTEX
  8
LAYER_1
 10
183.2233
 20
185.4912
  0
VERTEX
  8
LAYER_1
 10
183.2233
 20
186.1464
  0
VERTEX
  8
LAYER_1
 10
183.0507
 20
186.1464
  0
VERTEX
  8
LAYER_1
 10
183.0507
 20
184.4446
  0
VERTEX
  8
LAYER_1
 10
183.2233
 20
184.4446
  0
VERTEX
  8
LAYER_1
 10
183.2233
 20
185.1713
 42
-0.2890775024
  0
VERTEX
  8
LAYER_1
 10
183.3761
 20
185.4545
 42
-0.1047039451
  0
VERTEX
  8
LAYER_1
 10
183.5175
 20
185.4817
 42
-0.4460898258
  0
VERTEX
  8
LAYER_1
 10
183.8048
 20
185.1713
  0
VERTEX
  8
LAYER_1
 10
183.8048
 20
184.4446
  0
SEQEND
  0
ENDBLK
  0
BLOCK
  8
LAYER_1
  2
AIGNBL01020006
 70
64
 10
0
 20
0
 30
0
  3
AIGNBL01020006
  0
POLYLINE
  8
LAYER_1
 40
0.05
 41
0.05
 66
1
 10
0
 20
0
 30
0
 70
1
  0
VERTEX
  8
LAYER_1
 10
184.531
 20
13.4183
  0
VERTEX
  8
LAYER_1
 10
184.0422
 20
12.2332
  0
VERTEX
  8
LAYER_1
 10
183.4141
 20
12.2332
  0
VERTEX
  8
LAYER_1
 10
185.0137
 20
15.999
  0
VERTEX
  8
LAYER_1
 10
185.7468
 20
15.999
  0
VERTEX
  8
LAYER_1
 10
187.3532
 20
12.2332
  0
VERTEX
  8
LAYER_1
 10
186.7032
 20
12.2332
  0
VERTEX
  8
LAYER_1
 10
186.2005
 20
13.4183
  0
SEQEND
  0
POLYLINE
  8
LAYER_1
 40
0.05
 41
0.05
 66
1
 10
0
 20
0
 30
0
 70
1
  0
VERTEX
  8
LAYER_1
 10
186.0748
 20
13.7973
  0
VERTEX
  8
LAYER_1
 10
185.6138
 20
14.8821
 42
-0.02285081736
  0
VERTEX
  8
LAYER_1
 10
185.3692
 20
15.5691
  0
VERTEX
  8
LAYER_1
 10
185.3554
 20
15.5691
 42
-0.02064481114
  0
VERTEX
  8
LAYER_1
 10
185.1177
 20
14.8866
  0
VERTEX
  8
LAYER_1
 10
184.6571
 20
13.7973
  0
SEQEND
  0
ENDBLK
  0
BLOCK
  8
LAYER_1
  2
AIGNBL01020007
 70
64
 10
0
 20
0
 30
0
  3
AIGNBL01020007
  0
POLYLINE
  8
LAYER_1
 40
0.05
 41
0.05
 66
1
 10
0
 20
0
 30
0
 70
1
  0
VERTEX
  8
LAYER_1
 10
191.7185
 20
11.6799
 42
-0.01525137561
  0
VERTEX
  8
LAYER_1
 10
189.9164
 20
12.1161
 42
0.09192818596
  0
VERTEX
  8
LAYER_1
 10
189.6298
 20
12.1715
 42
-0.09256808484
  0
VERTEX
  8
LAYER_1
 10
188.6759
 20
12.3742
 42
-0.09799469934
  0
VERTEX
  8
LAYER_1
 10
188.0386
 20
12.8089
 42
-0.1630918382
  0
VERTEX
  8
LAYER_1
 10
187.5729
 20
13.8024
 42
-0.0316951694
  0
VERTEX
  8
LAYER_1
 10
187.5558
 20
14.0763
 42
-0.1055313794
  0
VERTEX
  8
LAYER_1
 10
187.7298
 20
14.9182
 42
-0.1619874109
  0
VERTEX
  8
LAYER_1
 10
188.5183
 20
15.7632
 42
-0.09224146328
  0
VERTEX
  8
LAYER_1
 10
189.3174
 20
16.0289
 42
-0.03717154931
  0
VERTEX
  8
LAYER_1
 10
189.749
 20
16.0603
 42
-0.09530333585
  0
VERTEX
  8
LAYER_1
 10
190.7126
 20
15.8827
 42
-0.1001892529
  0
VERTEX
  8
LAYER_1
 10
191.3498
 20
15.4599
 42
-0.1611176259
  0
VERTEX
  8
LAYER_1
 10
191.8365
 20
14.459
 42
-0.03590567958
  0
VERTEX
  8
LAYER_1
 10
191.8581
 20
14.1549
 42
-0.1067071093
  0
VERTEX
  8
LAYER_1
 10
191.6817
 20
13.3002
 42
-0.2183176472
  0
VERTEX
  8
LAYER_1
 10
190.5718
 20
12.3663
 42
-0.006695476449
  0
VERTEX
  8
LAYER_1
 10
190.5172
 20
12.3503
  0
VERTEX
  8
LAYER_1
 10
190.5172
 20
12.3279
 42
0.01533555045
  0
VERTEX
  8
LAYER_1
 10
191.8935
 20
12.0878
  0
SEQEND
  0
POLYLINE
  8
LAYER_1
 40
0.05
 41
0.05
 66
1
 10
0
 20
0
 30
0
  0
VERTEX
  8
LAYER_1
 10
191.2159
 20
14.1335
 42
0.1175610784
  0
VERTEX
  8
LAYER_1
 10
191.0335
 20
14.9019
 42
0.1170135141
  0
VERTEX
  8
LAYER_1
 10
190.608
 20
15.3999
 42
0.1200044572
  0
VERTEX
  8
LAYER_1
 10
189.9951
 20
15.644
 42
0.03774262044
  0
VERTEX
  8
LAYER_1
 10
189.7276
 20
15.6638
 42
0.1153139376
  0
VERTEX
  8
LAYER_1
 10
188.9854
 20
15.4991
 42
0.1853550912
  0
VERTEX
  8
LAYER_1
 10
188.3272
 20
14.7647
 42
0.09859892291
  0
VERTEX
  8
LAYER_1
 10
188.2052
 20
14.0887
 42
0.1178601907
  0
VERTEX
  8
LAYER_1
 10
188.3729
 20
13.35
 42
0.2866911392
  0
VERTEX
  8
LAYER_1
 10
189.6997
 20
12.5681
 42
0.1187689636
  0
VERTEX
  8
LAYER_1
 10
190.4487
 20
12.7401
 42
0.1796927828
  0
VERTEX
  8
LAYER_1
 10
191.0891
 20
13.4566
 42
0.09852468721
  0
VERTEX
  8
LAYER_1
 10
191.2159
 20
14.1335
  0
SEQEND
  0
ENDBLK
  0
BLOCK
  8
LAYER_1
  2
AIGNBL01020008
 70
64
 10
0
 20
0
 30
0
  3
AIGNBL01020008
  0
POLYLINE
  8
LAYER_1
 40
0.05
 41
0.05
 66
1
 10
0
 20
0
 30
0
 70
1
  0
VERTEX
  8
LAYER_1
 10
197.7884
 20
13.4183
  0
VERTEX
  8
LAYER_1
 10
197.2992
 20
12.2332
  0
VERTEX
  8
LAYER_1
 10
196.6712
 20
12.2332
  0
VERTEX
  8
LAYER_1
 10
198.2704
 20
15.999
  0
VERTEX
  8
LAYER_1
 10
199.0035
 20
15.999
  0
VERTEX
  8
LAYER_1
 10
200.61
 20
12.2332
  0
VERTEX
  8
LAYER_1
 10
199.9606
 20
12.2332
  0
VERTEX
  8
LAYER_1
 10
199.4579
 20
13.4183
  0
SEQEND
  0
POLYLINE
  8
LAYER_1
 40
0.05
 41
0.05
 66
1
 10
0
 20
0
 30
0
 70
1
  0
VERTEX
  8
LAYER_1
 10
199.3318
 20
13.7973
  0
VERTEX
  8
LAYER_1
 10
198.8705
 20
14.8821
 42
-0.02208559905
  0
VERTEX
  8
LAYER_1
 10
198.6259
 20
15.5691
  0
VERTEX
  8
LAYER_1
 10
198.6122
 20
15.5691
 42
-0.0206476565
  0
VERTEX
  8
LAYER_1
 10
198.3748
 20
14.8866
  0
VERTEX
  8
LAYER_1
 10
197.9138
 20
13.7973
  0
SEQEND
  0
ENDBLK
  0
BLOCK
  8
LAYER_1
  2
AIGNBL01020009
 70
64
 10
0
 20
0
 30
0
  3
AIGNBL01020009
  0
POLYLINE
  8
LAYER_1
 40
0.05
 41
0.05
 66
1
 10
0
 20
0
 30
0
 70
1
  0
VERTEX
  8
LAYER_1
 10
201.6504
 20
15.9539
 42
-0.03357346528
  0
VERTEX
  8
LAYER_1
 10
202.8176
 20
16.0273
 42
-0.08841555942
  0
VERTEX
  8
LAYER_1
 10
203.8637
 20
15.8623
 42
-0.06038484967
  0
VERTEX
  8
LAYER_1
 10
204.1374
 20
15.7145
 42
-0.2471651456
  0
VERTEX
  8
LAYER_1
 10
204.5491
 20
14.9262
 42
-0.1483298328
  0
VERTEX
  8
LAYER_1
 10
204.3794
 20
14.3319
 42
-0.07223194904
  0
VERTEX
  8
LAYER_1
 10
204.186
 20
14.1221
 42
-0.1209372404
  0
VERTEX
  8
LAYER_1
 10
203.4993
 20
13.7935
 42
-0.06224269186
  0
VERTEX
  8
LAYER_1
 10
202.7473
 20
13.7084
 42
-0.05738783264
  0
VERTEX
  8
LAYER_1
 10
202.2588
 20
13.7418
  0
VERTEX
  8
LAYER_1
 10
202.2588
 20
12.2332
  0
VERTEX
  8
LAYER_1
 10
201.6504
 20
12.2332
  0
SEQEND
  0
POLYLINE
  8
LAYER_1
 40
0.05
 41
0.05
 66
1
 10
0
 20
0
 30
0
 70
1
  0
VERTEX
  8
LAYER_1
 10
202.2588
 20
14.1387
 42
0.05012782438
  0
VERTEX
  8
LAYER_1
 10
202.7611
 20
14.0994
 42
0.113584299
  0
VERTEX
  8
LAYER_1
 10
203.546
 20
14.2587
 42
0.1653756506
  0
VERTEX
  8
LAYER_1
 10
203.8836
 20
14.6067
 42
0.104396654
  0
VERTEX
  8
LAYER_1
 10
203.9417
 20
14.9038
 42
0.2826001903
  0
VERTEX
  8
LAYER_1
 10
203.5909
 20
15.4868
 42
0.06297564985
  0
VERTEX
  8
LAYER_1
 10
203.3253
 20
15.5872
 42
0.06261890019
  0
VERTEX
  8
LAYER_1
 10
202.8317
 20
15.6414
 42
0.05214717704
  0
VERTEX
  8
LAYER_1
 10
202.2588
 20
15.6021
  0
SEQEND
  0
ENDBLK
  0
BLOCK
  8
LAYER_1
  2
AIGNBL0102000A
 70
64
 10
0
 20
0
 30
0
  3
AIGNBL0102000A
  0
POLYLINE
  8
LAYER_1
 40
0.05
 41
0.05
 66
1
 10
0
 20
0
 30
0
  0
VERTEX
  8
LAYER_1
 10
206.1011
 20
15.6972
 42
-0.3048675751
  0
VERTEX
  8
LAYER_1
 10
205.9347
 20
15.4426
 42
-0.1151020929
  0
VERTEX
  8
LAYER_1
 10
205.7094
 20
15.3954
 42
-0.2439599353
  0
VERTEX
  8
LAYER_1
 10
205.379
 20
15.5559
 42
-0.1396869232
  0
VERTEX
  8
LAYER_1
 10
205.3387
 20
15.6972
 42
-0.2876159282
  0
VERTEX
  8
LAYER_1
 10
205.511
 20
15.9568
 42
-0.1178148778
  0
VERTEX
  8
LAYER_1
 10
205.7232
 20
16.0042
 42
-0.2416274379
  0
VERTEX
  8
LAYER_1
 10
206.0579
 20
15.8484
 42
-0.1426378456
  0
VERTEX
  8
LAYER_1
 10
206.1011
 20
15.6972
  0
SEQEND
  0
POLYLINE
  8
LAYER_1
 40
0.05
 41
0.05
 66
1
 10
0
 20
0
 30
0
 70
1
  0
VERTEX
  8
LAYER_1
 10
205.4155
 20
14.9372
  0
VERTEX
  8
LAYER_1
 10
206.0301
 20
14.9372
  0
VERTEX
  8
LAYER_1
 10
206.0301
 20
12.2332
  0
VERTEX
  8
LAYER_1
 10
205.4155
 20
12.2332
  0
SEQEND
  0
ENDBLK
  0
BLOCK
  8
LAYER_1
  2
AIGNBL0102000B
 70
64
 10
0
 20
0
 30
0
  3
AIGNBL0102000B
  0
POLYLINE
  8
LAYER_1
 40
0.05
 41
0.05
 66
1
 10
0
 20
0
 30
0
 70
1
  0
VERTEX
  8
LAYER_1
 10
207.9019
 20
13.4183
  0
VERTEX
  8
LAYER_1
 10
207.4137
 20
12.2332
  0
VERTEX
  8
LAYER_1
 10
206.7846
 20
12.2332
  0
VERTEX
  8
LAYER_1
 10
208.3842
 20
15.999
  0
VERTEX
  8
LAYER_1
 10
209.118
 20
15.999
  0
VERTEX
  8
LAYER_1
 10
210.7244
 20
12.2332
  0
VERTEX
  8
LAYER_1
 10
210.0747
 20
12.2332
  0
VERTEX
  8
LAYER_1
 10
209.572
 20
13.4183
  0
SEQEND
  0
POLYLINE
  8
LAYER_1
 40
0.05
 41
0.05
 66
1
 10
0
 20
0
 30
0
 70
1
  0
VERTEX
  8
LAYER_1
 10
209.446
 20
13.7973
  0
VERTEX
  8
LAYER_1
 10
208.985
 20
14.8821
 42
-0.02411633624
  0
VERTEX
  8
LAYER_1
 10
208.7411
 20
15.5691
  0
VERTEX
  8
LAYER_1
 10
208.7263
 20
15.5691
 42
-0.02034719794
  0
VERTEX
  8
LAYER_1
 10
208.4893
 20
14.8866
  0
VERTEX
  8
LAYER_1
 10
208.028
 20
13.7973
  0
SEQEND
  0
ENDBLK
  0
BLOCK
  8
LAYER_1
  2
AIGNBL0102000C
 70
64
 10
0
 20
0
 30
0
  3
AIGNBL0102000C
  0
POLYLINE
  8
LAYER_1
 40
0.05
 41
0.05
 66
1
 10
0
 20
0
 30
0
  0
VERTEX
  8
LAYER_1
 10
187.7412
 20
10.757
 42
-0.1022022633
  0
VERTEX
  8
LAYER_1
 10
187.7005
 20
10.5396
 42
-0.09962254273
  0
VERTEX
  8
LAYER_1
 10
187.5879
 20
10.368
 42
-0.09627361929
  0
VERTEX
  8
LAYER_1
 10
187.417
 20
10.255
 42
-0.09758594962
  0
VERTEX
  8
LAYER_1
 10
187.203
 20
10.214
 42
-0.1000844711
  0
VERTEX
  8
LAYER_1
 10
186.9894
 20
10.255
 42
-0.09985105323
  0
VERTEX
  8
LAYER_1
 10
186.8186
 20
10.368
 42
-0.09735230618
  0
VERTEX
  8
LAYER_1
 10
186.7052
 20
10.5396
 42
-0.09653980076
  0
VERTEX
  8
LAYER_1
 10
186.6646
 20
10.757
 42
-0.1003092005
  0
VERTEX
  8
LAYER_1
 10
186.7052
 20
10.9744
 42
-0.1009231181
  0
VERTEX
  8
LAYER_1
 10
186.8186
 20
11.1456
 42
-0.0995325037
  0
VERTEX
  8
LAYER_1
 10
186.9894
 20
11.2589
 42
-0.09768823248
  0
VERTEX
  8
LAYER_1
 10
187.203
 20
11.2999
 42
-0.1000514256
  0
VERTEX
  8
LAYER_1
 10
187.417
 20
11.2589
 42
-0.09923049698
  0
VERTEX
  8
LAYER_1
 10
187.5879
 20
11.1456
 42
-0.09806183198
  0
VERTEX
  8
LAYER_1
 10
187.7005
 20
10.9744
 42
-0.09757754881
  0
VERTEX
  8
LAYER_1
 10
187.7412
 20
10.757
  0
SEQEND
  0
POLYLINE
  8
LAYER_1
 40
0.05
 41
0.05
 66
1
 10
0
 20
0
 30
0
  0
VERTEX
  8
LAYER_1
 10
187.6306
 20
10.7563
 42
0.08654741181
  0
VERTEX
  8
LAYER_1
 10
187.6016
 20
10.9282
 42
0.09721101768
  0
VERTEX
  8
LAYER_1
 10
187.5169
 20
11.0715
 42
0.1032857511
  0
VERTEX
  8
LAYER_1
 10
187.3818
 20
11.1697
 42
0.1062442081
  0
VERTEX
  8
LAYER_1
 10
187.203
 20
11.2066
 42
0.1112500832
  0
VERTEX
  8
LAYER_1
 10
187.0242
 20
11.1697
 42
0.1056595975
  0
VERTEX
  8
LAYER_1
 10
186.8895
 20
11.0715
 42
0.09787799956
  0
VERTEX
  8
LAYER_1
 10
186.8048
 20
10.9282
 42
0.08545682236
  0
VERTEX
  8
LAYER_1
 10
186.7755
 20
10.7563
 42
0.08880816226
  0
VERTEX
  8
LAYER_1
 10
186.8048
 20
10.5844
 42
0.1009797617
  0
VERTEX
  8
LAYER_1
 10
186.8895
 20
10.4414
 42
0.09920321622
  0
VERTEX
  8
LAYER_1
 10
187.0242
 20
10.3439
 42
0.1060640085
  0
VERTEX
  8
LAYER_1
 10
187.203
 20
10.3074
 42
0.1126980581
  0
VERTEX
  8
LAYER_1
 10
187.3818
 20
10.3439
 42
0.1035582302
  0
VERTEX
  8
LAYER_1
 10
187.5169
 20
10.4414
 42
0.09450022685
  0
VERTEX
  8
LAYER_1
 10
187.6016
 20
10.5844
 42
0.08461448848
  0
VERTEX
  8
LAYER_1
 10
187.6306
 20
10.7563
  0
SEQEND
  0
ENDBLK
  0
BLOCK
  8
LAYER_1
  2
AIGNBL0102000D
 70
64
 10
0
 20
0
 30
0
  3
AIGNBL0102000D
  0
POLYLINE
  8
LAYER_1
 40
0.05
 41
0.05
 66
1
 10
0
 20
0
 30
0
 70
1
  0
VERTEX
  8
LAYER_1
 10
189.8079
 20
11.2734
  0
VERTEX
  8
LAYER_1
 10
190.1155
 20
11.2734
  0
VERTEX
  8
LAYER_1
 10
190.234
 20
11.261
  0
VERTEX
  8
LAYER_1
 10
190.3408
 20
11.2186
 42
-0.1168262011
  0
VERTEX
  8
LAYER_1
 10
190.4187
 20
11.1376
 42
-0.1230288266
  0
VERTEX
  8
LAYER_1
 10
190.4483
 20
11.0095
 42
-0.180875154
  0
VERTEX
  8
LAYER_1
 10
190.3984
 20
10.8676
 42
-0.1712056764
  0
VERTEX
  8
LAYER_1
 10
190.265
 20
10.7876
  0
VERTEX
  8
LAYER_1
 10
190.265
 20
10.7849
 42
-0.1713534541
  0
VERTEX
  8
LAYER_1
 10
190.4318
 20
10.7067
 42
-0.2022571965
  0
VERTEX
  8
LAYER_1
 10
190.4979
 20
10.5261
 42
-0.1247085485
  0
VERTEX
  8
LAYER_1
 10
190.4707
 20
10.409
 42
-0.1160266957
  0
VERTEX
  8
LAYER_1
 10
190.3946
 20
10.3184
 42
-0.08629069904
  0
VERTEX
  8
LAYER_1
 10
190.2733
 20
10.2609
 42
-0.06577254372
  0
VERTEX
  8
LAYER_1
 10
190.1138
 20
10.2402
  0
VERTEX
  8
LAYER_1
 10
189.8079
 20
10.2402
  0
SEQEND
  0
POLYLINE
  8
LAYER_1
 40
0.05
 41
0.05
 66
1
 10
0
 20
0
 30
0
 70
1
  0
VERTEX
  8
LAYER_1
 10
189.913
 20
10.821
  0
VERTEX
  8
LAYER_1
 10
190.1245
 20
10.821
  0
VERTEX
  8
LAYER_1
 10
190.201
 20
10.83
  0
VERTEX
  8
LAYER_1
 10
190.2716
 20
10.8596
  0
VERTEX
  8
LAYER_1
 10
190.3236
 20
10.9161
 42
0.1156967233
  0
VERTEX
  8
LAYER_1
 10
190.3432
 20
11.0023
  0
VERTEX
  8
LAYER_1
 10
190.3236
 20
11.086
  0
VERTEX
  8
LAYER_1
 10
190.2706
 20
11.1421
  0
VERTEX
  8
LAYER_1
 10
190.1917
 20
11.1735
  0
VERTEX
  8
LAYER_1
 10
190.0952
 20
11.1831
  0
VERTEX
  8
LAYER_1
 10
189.913
 20
11.1831
  0
SEQEND
  0
POLYLINE
  8
LAYER_1
 40
0.05
 41
0.05
 66
1
 10
0
 20
0
 30
0
 70
1
  0
VERTEX
  8
LAYER_1
 10
189.913
 20
10.3308
  0
VERTEX
  8
LAYER_1
 10
190.1086
 20
10.3308
  0
VERTEX
  8
LAYER_1
 10
190.2172
 20
10.3418
  0
VERTEX
  8
LAYER_1
 10
190.3078
 20
10.3766
 42
0.1170814172
  0
VERTEX
  8
LAYER_1
 10
190.3694
 20
10.4397
 42
0.1286909246
  0
VERTEX
  8
LAYER_1
 10
190.3929
 20
10.5323
 42
0.2499212344
  0
VERTEX
  8
LAYER_1
 10
190.3236
 20
10.6846
 42
0.1540181886
  0
VERTEX
  8
LAYER_1
 10
190.1272
 20
10.7353
  0
VERTEX
  8
LAYER_1
 10
189.913
 20
10.7353
  0
SEQEND
  0
ENDBLK
  0
BLOCK
  8
LAYER_1
  2
AIGNBL0102000E
 70
64
 10
0
 20
0
 30
0
  3
AIGNBL0102000E
  0
POLYLINE
  8
LAYER_1
 40
0.05
 41
0.05
 66
1
 10
0
 20
0
 30
0
 70
1
  0
VERTEX
  8
LAYER_1
 10
190.9299
 20
10.2402
  0
VERTEX
  8
LAYER_1
 10
190.8145
 20
10.2402
  0
VERTEX
  8
LAYER_1
 10
191.2614
 20
11.2734
  0
VERTEX
  8
LAYER_1
 10
191.3637
 20
11.2734
  0
VERTEX
  8
LAYER_1
 10
191.8071
 20
10.2402
  0
VERTEX
  8
LAYER_1
 10
191.6903
 20
10.2402
  0
VERTEX
  8
LAYER_1
 10
191.5762
 20
10.5117
  0
VERTEX
  8
LAYER_1
 10
191.0423
 20
10.5117
  0
SEQEND
  0
POLYLINE
  8
LAYER_1
 40
0.05
 41
0.05
 66
1
 10
0
 20
0
 30
0
 70
1
  0
VERTEX
  8
LAYER_1
 10
191.0815
 20
10.6081
  0
VERTEX
  8
LAYER_1
 10
191.537
 20
10.6081
  0
VERTEX
  8
LAYER_1
 10
191.3093
 20
11.1569
  0
SEQEND
  0
ENDBLK
  0
BLOCK
  8
LAYER_1
  2
AIGNBL0102000F
 70
64
 10
0
 20
0
 30
0
  3
AIGNBL0102000F
  0
POLYLINE
  8
LAYER_1
 40
0.05
 41
0.05
 66
1
 10
0
 20
0
 30
0
 70
1
  0
VERTEX
  8
LAYER_1
 10
194.5473
 20
10.2402
  0
VERTEX
  8
LAYER_1
 10
194.4422
 20
10.2402
  0
VERTEX
  8
LAYER_1
 10
194.4422
 20
11.2734
  0
VERTEX
  8
LAYER_1
 10
194.7461
 20
11.2734
  0
VERTEX
  8
LAYER_1
 10
194.8866
 20
11.2589
 42
-0.1032885834
  0
VERTEX
  8
LAYER_1
 10
194.9993
 20
11.2114
 42
-0.1281738609
  0
VERTEX
  8
LAYER_1
 10
195.0727
 20
11.1259
 42
-0.1080104799
  0
VERTEX
  8
LAYER_1
 10
195.0989
 20
10.9974
  0
VERTEX
  8
LAYER_1
 10
195.0789
 20
10.8941
  0
VERTEX
  8
LAYER_1
 10
195.0234
 20
10.8131
  0
VERTEX
  8
LAYER_1
 10
194.94
 20
10.7583
  0
VERTEX
  8
LAYER_1
 10
194.835
 20
10.7322
  0
VERTEX
  8
LAYER_1
 10
195.1371
 20
10.2402
  0
VERTEX
  8
LAYER_1
 10
195.0086
 20
10.2402
  0
VERTEX
  8
LAYER_1
 10
194.7227
 20
10.7232
  0
VERTEX
  8
LAYER_1
 10
194.5473
 20
10.7232
  0
SEQEND
  0
POLYLINE
  8
LAYER_1
 40
0.05
 41
0.05
 66
1
 10
0
 20
0
 30
0
 70
1
  0
VERTEX
  8
LAYER_1
 10
194.5473
 20
10.8138
  0
VERTEX
  8
LAYER_1
 10
194.7299
 20
10.8138
 42
0.153451873
  0
VERTEX
  8
LAYER_1
 10
194.9256
 20
10.8596
 42
0.2578078145
  0
VERTEX
  8
LAYER_1
 10
194.9941
 20
10.9974
  0
VERTEX
  8
LAYER_1
 10
194.9748
 20
11.0836
  0
VERTEX
  8
LAYER_1
 10
194.9225
 20
11.1407
  0
VERTEX
  8
LAYER_1
 10
194.8408
 20
11.1728
  0
VERTEX
  8
LAYER_1
 10
194.7344
 20
11.1831
  0
VERTEX
  8
LAYER_1
 10
194.5473
 20
11.1831
  0
SEQEND
  0
ENDBLK
  0
BLOCK
  8
LAYER_1
  2
AIGNBL01020010
 70
64
 10
0
 20
0
 30
0
  3
AIGNBL01020010
  0
POLYLINE
  8
LAYER_1
 40
0.05
 41
0.05
 66
1
 10
0
 20
0
 30
0
  0
VERTEX
  8
LAYER_1
 10
196.5393
 20
10.757
 42
-0.09890026947
  0
VERTEX
  8
LAYER_1
 10
196.4986
 20
10.5396
 42
-0.0998654539
  0
VERTEX
  8
LAYER_1
 10
196.3853
 20
10.368
 42
-0.09816046092
  0
VERTEX
  8
LAYER_1
 10
196.2147
 20
10.255
 42
-0.09758412454
  0
VERTEX
  8
LAYER_1
 10
196.0008
 20
10.214
 42
-0.09999517154
  0
VERTEX
  8
LAYER_1
 10
195.7868
 20
10.255
 42
-0.09953435427
  0
VERTEX
  8
LAYER_1
 10
195.6163
 20
10.368
 42
-0.09864299929
  0
VERTEX
  8
LAYER_1
 10
195.5033
 20
10.5396
 42
-0.09653980076
  0
VERTEX
  8
LAYER_1
 10
195.4627
 20
10.757
 42
-0.1003092005
  0
VERTEX
  8
LAYER_1
 10
195.5033
 20
10.9744
 42
-0.1015539267
  0
VERTEX
  8
LAYER_1
 10
195.6163
 20
11.1456
 42
-0.09844525413
  0
VERTEX
  8
LAYER_1
 10
195.7868
 20
11.2589
 42
-0.09752919603
  0
VERTEX
  8
LAYER_1
 10
196.0008
 20
11.2999
 42
-0.1000174927
  0
VERTEX
  8
LAYER_1
 10
196.2147
 20
11.2589
 42
-0.1015738137
  0
VERTEX
  8
LAYER_1
 10
196.3853
 20
11.1456
 42
-0.09760351046
  0
VERTEX
  8
LAYER_1
 10
196.4986
 20
10.9744
 42
-0.09585740539
  0
VERTEX
  8
LAYER_1
 10
196.5393
 20
10.757
  0
SEQEND
  0
POLYLINE
  8
LAYER_1
 40
0.05
 41
0.05
 66
1
 10
0
 20
0
 30
0
  0
VERTEX
  8
LAYER_1
 10
196.4283
 20
10.7563
 42
0.08872119732
  0
VERTEX
  8
LAYER_1
 10
196.399
 20
10.9282
 42
0.09973444611
  0
VERTEX
  8
LAYER_1
 10
196.3143
 20
11.0715
 42
0.1024799068
  0
VERTEX
  8
LAYER_1
 10
196.1796
 20
11.1697
 42
0.1061440031
  0
VERTEX
  8
LAYER_1
 10
196.0008
 20
11.2066
 42
0.1115071607
  0
VERTEX
  8
LAYER_1
 10
195.822
 20
11.1697
 42
0.1060506217
  0
VERTEX
  8
LAYER_1
 10
195.6869
 20
11.0715
 42
0.09526104957
  0
VERTEX
  8
LAYER_1
 10
195.6022
 20
10.9282
 42
0.08441303477
  0
VERTEX
  8
LAYER_1
 10
195.5732
 20
10.7563
 42
0.08731060244
  0
VERTEX
  8
LAYER_1
 10
195.6022
 20
10.5844
 42
0.09826867926
  0
VERTEX
  8
LAYER_1
 10
195.6869
 20
10.4414
 42
0.09908422267
  0
VERTEX
  8
LAYER_1
 10
195.822
 20
10.3439
 42
0.1061654103
  0
VERTEX
  8
LAYER_1
 10
196.0008
 20
10.3074
 42
0.1124388132
  0
VERTEX
  8
LAYER_1
 10
196.1796
 20
10.3439
 42
0.1028204009
  0
VERTEX
  8
LAYER_1
 10
196.3143
 20
10.4414
 42
0.09882210045
  0
VERTEX
  8
LAYER_1
 10
196.399
 20
10.5844
 42
0.08588573558
  0
VERTEX
  8
LAYER_1
 10
196.4283
 20
10.7563
  0
SEQEND
  0
ENDBLK
  0
BLOCK
  8
LAYER_1
  2
AIGNBL01020011
 70
64
 10
0
 20
0
 30
0
  3
AIGNBL01020011
  0
POLYLINE
  8
LAYER_1
 40
0.05
 41
0.05
 66
1
 10
0
 20
0
 30
0
  0
VERTEX
  8
LAYER_1
 10
197.9807
 20
10.757
 42
-0.1022022633
  0
VERTEX
  8
LAYER_1
 10
197.94
 20
10.5396
 42
-0.1000344077
  0
VERTEX
  8
LAYER_1
 10
197.8274
 20
10.368
 42
-0.09710469009
  0
VERTEX
  8
LAYER_1
 10
197.6565
 20
10.255
 42
-0.09758412454
  0
VERTEX
  8
LAYER_1
 10
197.4426
 20
10.214
 42
-0.1006569764
  0
VERTEX
  8
LAYER_1
 10
197.229
 20
10.255
 42
-0.1011318925
  0
VERTEX
  8
LAYER_1
 10
197.0581
 20
10.368
 42
-0.09716249889
  0
VERTEX
  8
LAYER_1
 10
196.9447
 20
10.5396
 42
-0.09653980076
  0
VERTEX
  8
LAYER_1
 10
196.9041
 20
10.757
 42
-0.1003092005
  0
VERTEX
  8
LAYER_1
 10
196.9447
 20
10.9744
 42
-0.1005131896
  0
VERTEX
  8
LAYER_1
 10
197.0581
 20
11.1456
 42
-0.09944378693
  0
VERTEX
  8
LAYER_1
 10
197.229
 20
11.2589
 42
-0.09791748865
  0
VERTEX
  8
LAYER_1
 10
197.4426
 20
11.2999
 42
-0.1000174927
  0
VERTEX
  8
LAYER_1
 10
197.6565
 20
11.2589
 42
-0.09935816322
  0
VERTEX
  8
LAYER_1
 10
197.8274
 20
11.1456
 42
-0.09825254034
  0
VERTEX
  8
LAYER_1
 10
197.94
 20
10.9744
 42
-0.09757754881
  0
VERTEX
  8
LAYER_1
 10
197.9807
 20
10.757
  0
SEQEND
  0
POLYLINE
  8
LAYER_1
 40
0.05
 41
0.05
 66
1
 10
0
 20
0
 30
0
  0
VERTEX
  8
LAYER_1
 10
197.8701
 20
10.7563
 42
0.08604989647
  0
VERTEX
  8
LAYER_1
 10
197.8412
 20
10.9282
 42
0.09689814906
  0
VERTEX
  8
LAYER_1
 10
197.7564
 20
11.0715
 42
0.1030853098
  0
VERTEX
  8
LAYER_1
 10
197.6214
 20
11.1697
 42
0.1061440031
  0
VERTEX
  8
LAYER_1
 10
197.4426
 20
11.2066
 42
0.1115071607
  0
VERTEX
  8
LAYER_1
 10
197.2638
 20
11.1697
 42
0.1062687921
  0
VERTEX
  8
LAYER_1
 10
197.1291
 20
11.0715
 42
0.09823040841
  0
VERTEX
  8
LAYER_1
 10
197.0443
 20
10.9282
 42
0.08545682236
  0
VERTEX
  8
LAYER_1
 10
197.015
 20
10.7563
 42
0.08880816226
  0
VERTEX
  8
LAYER_1
 10
197.0443
 20
10.5844
 42
0.1013750404
  0
VERTEX
  8
LAYER_1
 10
197.1291
 20
10.4414
 42
0.09971785929
  0
VERTEX
  8
LAYER_1
 10
197.2638
 20
10.3439
 42
0.1061654103
  0
VERTEX
  8
LAYER_1
 10
197.4426
 20
10.3074
 42
0.1124388132
  0
VERTEX
  8
LAYER_1
 10
197.6214
 20
10.3439
 42
0.103362111
  0
VERTEX
  8
LAYER_1
 10
197.7564
 20
10.4414
 42
0.09401062747
  0
VERTEX
  8
LAYER_1
 10
197.8412
 20
10.5844
 42
0.08427916025
  0
VERTEX
  8
LAYER_1
 10
197.8701
 20
10.7563
  0
SEQEND
  0
ENDBLK
  0
BLOCK
  8
LAYER_1
  2
AIGNBL01020012
 70
64
 10
0
 20
0
 30
0
  3
AIGNBL01020012
  0
POLYLINE
  8
LAYER_1
 40
0.05
 41
0.05
 66
1
 10
0
 20
0
 30
0
 70
1
  0
VERTEX
  8
LAYER_1
 10
202.6753
 20
11.2734
  0
VERTEX
  8
LAYER_1
 10
202.9675
 20
11.2734
  0
VERTEX
  8
LAYER_1
 10
203.1104
 20
11.2568
 42
-0.1014050286
  0
VERTEX
  8
LAYER_1
 10
203.2203
 20
11.2055
 42
-0.1180982091
  0
VERTEX
  8
LAYER_1
 10
203.2913
 20
11.1194
 42
-0.1035265555
  0
VERTEX
  8
LAYER_1
 10
203.3158
 20
10.9978
 42
-0.1223638141
  0
VERTEX
  8
LAYER_1
 10
203.2906
 20
10.8755
 42
-0.1150182928
  0
VERTEX
  8
LAYER_1
 10
203.2189
 20
10.7897
 42
-0.08715194998
  0
VERTEX
  8
LAYER_1
 10
203.108
 20
10.738
 42
-0.0610475314
  0
VERTEX
  8
LAYER_1
 10
202.964
 20
10.7204
  0
VERTEX
  8
LAYER_1
 10
202.7804
 20
10.7204
  0
VERTEX
  8
LAYER_1
 10
202.7804
 20
10.2402
  0
VERTEX
  8
LAYER_1
 10
202.6753
 20
10.2402
  0
SEQEND
  0
POLYLINE
  8
LAYER_1
 40
0.05
 41
0.05
 66
1
 10
0
 20
0
 30
0
 70
1
  0
VERTEX
  8
LAYER_1
 10
202.7804
 20
10.8093
  0
VERTEX
  8
LAYER_1
 10
202.9582
 20
10.8093
 42
0.1698295085
  0
VERTEX
  8
LAYER_1
 10
203.1466
 20
10.8576
 42
0.2445965084
  0
VERTEX
  8
LAYER_1
 10
203.211
 20
10.9978
 42
0.2593003012
  0
VERTEX
  8
LAYER_1
 10
203.1445
 20
11.1387
 42
0.1427701908
  0
VERTEX
  8
LAYER_1
 10
202.9582
 20
11.1831
  0
VERTEX
  8
LAYER_1
 10
202.7804
 20
11.1831
  0
SEQEND
  0
ENDBLK
  0
BLOCK
  8
LAYER_1
  2
AIGNBL01020013
 70
64
 10
0
 20
0
 30
0
  3
AIGNBL01020013
  0
POLYLINE
  8
LAYER_1
 40
0.05
 41
0.05
 66
1
 10
0
 20
0
 30
0
 70
1
  0
VERTEX
  8
LAYER_1
 10
204.8933
 20
10.2402
  0
VERTEX
  8
LAYER_1
 10
204.7882
 20
10.2402
  0
VERTEX
  8
LAYER_1
 10
204.7882
 20
11.2734
  0
VERTEX
  8
LAYER_1
 10
205.092
 20
11.2734
  0
VERTEX
  8
LAYER_1
 10
205.2326
 20
11.2589
 42
-0.1033890198
  0
VERTEX
  8
LAYER_1
 10
205.3453
 20
11.2114
 42
-0.1259996581
  0
VERTEX
  8
LAYER_1
 10
205.419
 20
11.1259
 42
-0.1063645245
  0
VERTEX
  8
LAYER_1
 10
205.4448
 20
10.9974
  0
VERTEX
  8
LAYER_1
 10
205.4248
 20
10.8941
  0
VERTEX
  8
LAYER_1
 10
205.3694
 20
10.8131
  0
VERTEX
  8
LAYER_1
 10
205.286
 20
10.7583
  0
VERTEX
  8
LAYER_1
 10
205.1809
 20
10.7322
  0
VERTEX
  8
LAYER_1
 10
205.4831
 20
10.2402
  0
VERTEX
  8
LAYER_1
 10
205.3546
 20
10.2402
  0
VERTEX
  8
LAYER_1
 10
205.0686
 20
10.7232
  0
VERTEX
  8
LAYER_1
 10
204.8933
 20
10.7232
  0
SEQEND
  0
POLYLINE
  8
LAYER_1
 40
0.05
 41
0.05
 66
1
 10
0
 20
0
 30
0
 70
1
  0
VERTEX
  8
LAYER_1
 10
204.8933
 20
10.8138
  0
VERTEX
  8
LAYER_1
 10
205.0759
 20
10.8138
 42
0.1542400453
  0
VERTEX
  8
LAYER_1
 10
205.2715
 20
10.8596
 42
0.2581571495
  0
VERTEX
  8
LAYER_1
 10
205.3401
 20
10.9974
  0
VERTEX
  8
LAYER_1
 10
205.3211
 20
11.0836
  0
VERTEX
  8
LAYER_1
 10
205.2684
 20
11.1407
  0
VERTEX
  8
LAYER_1
 10
205.1868
 20
11.1728
  0
VERTEX
  8
LAYER_1
 10
205.0803
 20
11.1831
  0
VERTEX
  8
LAYER_1
 10
204.8933
 20
11.1831
  0
SEQEND
  0
ENDBLK
  0
BLOCK
  8
LAYER_1
  2
AIGNBL01020014
 70
64
 10
0
 20
0
 30
0
  3
AIGNBL01020014
  0
POLYLINE
  8
LAYER_1
  6
AIGENLINE001
 40
0.1058
 41
0.1058
 66
1
 10
0
 20
0
 30
0
 70
128
  0
VERTEX
  8
LAYER_1
 10
61.8315
 20
78.7804
 42
0.3917878706
  0
VERTEX
  8
LAYER_1
 10
61.6326
 20
78.9802
  0
SEQEND
  0
POLYLINE
  8
LAYER_1
  6
AIGENLINE001
 40
0.1058
 41
0.1058
 66
1
 10
0
 20
0
 30
0
 70
128
  0
VERTEX
  8
LAYER_1
 10
61.8322
 20
78.1782
 42
0.414292188
  0
VERTEX
  8
LAYER_1
 10
62.0319
 20
77.9784
  0
SEQEND
  0
ENDBLK
  0
BLOCK
  8
LAYER_1
  2
AIGNBL01010002
 70
64
 10
0
 20
0
 30
0
  3
AIGNBL01010002
  0
INSERT
  8
LAYER_1
  2
AIGNBL01020003
 10
0
 20
0
 30
0
  0
POLYLINE
  8
LAYER_1
 40
0.05
 41
0.05
 66
1
 10
0
 20
0
 30
0
  0
VERTEX
  8
LAYER_1
 10
195.1412
 20
196.2778
  0
VERTEX
  8
LAYER_1
 10
193.5058
 20
196.2778
  0
VERTEX
  8
LAYER_1
 10
193.5058
 20
189.2031
 42
0.1050480083
  0
VERTEX
  8
LAYER_1
 10
193.6855
 20
188.3409
 42
0.1079641323
  0
VERTEX
  8
LAYER_1
 10
194.1186
 20
187.7594
 42
0.1057207753
  0
VERTEX
  8
LAYER_1
 10
194.7395
 20
187.4249
 42
0.04709288295
  0
VERTEX
  8
LAYER_1
 10
195.1385
 20
187.3455
  0
VERTEX
  8
LAYER_1
 10
195.1412
 20
196.2778
  0
SEQEND
  0
INSERT
  8
LAYER_1
  2
AIGNBL01020004
 10
0
 20
0
 30
0
  0
POLYLINE
  8
LAYER_1
 40
0.05
 41
0.05
 66
1
 10
0
 20
0
 30
0
 70
1
  0
VERTEX
  8
LAYER_1
 10
0
 20
210.3525
  0
VERTEX
  8
LAYER_1
 10
297.3531
 20
210.3525
  0
VERTEX
  8
LAYER_1
 10
297.3531
 20
0
  0
VERTEX
  8
LAYER_1
 10
0
 20
0
  0
SEQEND
  0
ENDBLK
  0
BLOCK
  8
LAYER_1
  2
AIGNBL01010005
 70
64
 10
0
 20
0
 30
0
  3
AIGNBL01010005
  0
INSERT
  8
LAYER_1
  2
AIGNBL01020006
 10
0
 20
0
 30
0
  0
INSERT
  8
LAYER_1
  2
AIGNBL01020007
 10
0
 20
0
 30
0
  0
POLYLINE
  8
LAYER_1
 40
0.05
 41
0.05
 66
1
 10
0
 20
0
 30
0
 70
1
  0
VERTEX
  8
LAYER_1
 10
193.1855
 20
15.999
  0
VERTEX
  8
LAYER_1
 10
193.1855
 20
13.7697
 42
0.1220027729
  0
VERTEX
  8
LAYER_1
 10
193.3456
 20
13.054
 42
0.2218843908
  0
VERTEX
  8
LAYER_1
 10
193.9869
 20
12.5971
 42
0.0522411709
  0
VERTEX
  8
LAYER_1
 10
194.282
 20
12.5677
 42
0.1303109631
  0
VERTEX
  8
LAYER_1
 10
194.9512
 20
12.7285
 42
0.1509621846
  0
VERTEX
  8
LAYER_1
 10
195.3022
 20
13.1219
 42
0.1174254011
  0
VERTEX
  8
LAYER_1
 10
195.4272
 20
13.7697
  0
VERTEX
  8
LAYER_1
 10
195.4272
 20
15.999
  0
VERTEX
  8
LAYER_1
 10
196.0421
 20
15.999
  0
VERTEX
  8
LAYER_1
 10
196.0421
 20
13.8031
 42
-0.1106573255
  0
VERTEX
  8
LAYER_1
 10
195.8726
 20
12.9845
 42
-0.1821990218
  0
VERTEX
  8
LAYER_1
 10
195.182
 20
12.3402
 42
-0.0976763079
  0
VERTEX
  8
LAYER_1
 10
194.3793
 20
12.1737
 42
-0.01000990153
  0
VERTEX
  8
LAYER_1
 10
194.261
 20
12.1715
 42
-0.09899827608
  0
VERTEX
  8
LAYER_1
 10
193.3885
 20
12.3319
 42
-0.1209605854
  0
VERTEX
  8
LAYER_1
 10
192.8858
 20
12.7131
 42
-0.1192983303
  0
VERTEX
  8
LAYER_1
 10
192.6172
 20
13.3082
 42
-0.05319533763
  0
VERTEX
  8
LAYER_1
 10
192.5708
 20
13.7811
  0
VERTEX
  8
LAYER_1
 10
192.5708
 20
15.999
  0
SEQEND
  0
INSERT
  8
LAYER_1
  2
AIGNBL01020008
 10
0
 20
0
 30
0
  0
INSERT
  8
LAYER_1
  2
AIGNBL01020009
 10
0
 20
0
 30
0
  0
INSERT
  8
LAYER_1
  2
AIGNBL0102000A
 10
0
 20
0
 30
0
  0
INSERT
  8
LAYER_1
  2
AIGNBL0102000B
 10
0
 20
0
 30
0
  0
POLYLINE
  8
LAYER_1
 40
0.05
 41
0.05
 66
1
 10
0
 20
0
 30
0
 70
1
  0
VERTEX
  8
LAYER_1
 10
183.524
 20
10.3339
  0
VERTEX
  8
LAYER_1
 10
184.0773
 20
10.3339
  0
VERTEX
  8
LAYER_1
 10
184.0773
 20
10.2402
  0
VERTEX
  8
LAYER_1
 10
183.419
 20
10.2402
  0
VERTEX
  8
LAYER_1
 10
183.419
 20
11.2734
  0
VERTEX
  8
LAYER_1
 10
184.0597
 20
11.2734
  0
VERTEX
  8
LAYER_1
 10
184.0597
 20
11.18
  0
VERTEX
  8
LAYER_1
 10
183.524
 20
11.18
  0
VERTEX
  8
LAYER_1
 10
183.524
 20
10.8255
  0
VERTEX
  8
LAYER_1
 10
184.0246
 20
10.8255
  0
VERTEX
  8
LAYER_1
 10
184.0246
 20
10.7322
  0
VERTEX
  8
LAYER_1
 10
183.524
 20
10.7322
  0
SEQEND
  0
POLYLINE
  8
LAYER_1
 40
0.05
 41
0.05
 66
1
 10
0
 20
0
 30
0
 70
1
  0
VERTEX
  8
LAYER_1
 10
185.2169
 20
10.3935
  0
VERTEX
  8
LAYER_1
 10
185.2197
 20
10.3935
  0
VERTEX
  8
LAYER_1
 10
185.2197
 20
11.2734
  0
VERTEX
  8
LAYER_1
 10
185.3248
 20
11.2734
  0
VERTEX
  8
LAYER_1
 10
185.3248
 20
10.2402
  0
VERTEX
  8
LAYER_1
 10
185.1939
 20
10.2402
  0
VERTEX
  8
LAYER_1
 10
184.5924
 20
11.129
  0
VERTEX
  8
LAYER_1
 10
184.5892
 20
11.129
  0
VERTEX
  8
LAYER_1
 10
184.5892
 20
10.2402
  0
VERTEX
  8
LAYER_1
 10
184.4845
 20
10.2402
  0
VERTEX
  8
LAYER_1
 10
184.4845
 20
11.2734
  0
VERTEX
  8
LAYER_1
 10
184.6158
 20
11.2734
  0
SEQEND
  0
POLYLINE
  8
LAYER_1
 40
0.05
 41
0.05
 66
1
 10
0
 20
0
 30
0
 70
1
  0
VERTEX
  8
LAYER_1
 10
185.7978
 20
10.4521
 42
0.1563325367
  0
VERTEX
  8
LAYER_1
 10
185.8522
 20
10.3491
 42
0.1919271311
  0
VERTEX
  8
LAYER_1
 10
185.9656
 20
10.3074
  0
VERTEX
  8
LAYER_1
 10
186.0548
 20
10.327
  0
VERTEX
  8
LAYER_1
 10
186.1109
 20
10.3804
  0
VERTEX
  8
LAYER_1
 10
186.1399
 20
10.4569
  0
VERTEX
  8
LAYER_1
 10
186.1482
 20
10.5465
  0
VERTEX
  8
LAYER_1
 10
186.1482
 20
11.2734
  0
VERTEX
  8
LAYER_1
 10
186.2532
 20
11.2734
  0
VERTEX
  8
LAYER_1
 10
186.2532
 20
10.5379
  0
VERTEX
  8
LAYER_1
 10
186.2419
 20
10.43
 42
-0.09741176018
  0
VERTEX
  8
LAYER_1
 10
186.2005
 20
10.325
 42
-0.1149355521
  0
VERTEX
  8
LAYER_1
 10
186.1158
 20
10.2454
 42
-0.1262364526
  0
VERTEX
  8
LAYER_1
 10
185.9769
 20
10.214
 42
-0.1797266639
  0
VERTEX
  8
LAYER_1
 10
185.7923
 20
10.274
 42
-0.1767786224
  0
VERTEX
  8
LAYER_1
 10
185.6999
 20
10.4255
  0
SEQEND
  0
INSERT
  8
LAYER_1
  2
AIGNBL0102000C
 10
0
 20
0
 30
0
  0
POLYLINE
  8
LAYER_1
 40
0.05
 41
0.05
 66
1
 10
0
 20
0
 30
0
 70
1
  0
VERTEX
  8
LAYER_1
 10
188.5163
 20
10.2402
  0
VERTEX
  8
LAYER_1
 10
188.4116
 20
10.2402
  0
VERTEX
  8
LAYER_1
 10
188.4116
 20
10.6857
  0
VERTEX
  8
LAYER_1
 10
188.0247
 20
11.2734
  0
VERTEX
  8
LAYER_1
 10
188.156
 20
11.2734
  0
VERTEX
  8
LAYER_1
 10
188.467
 20
10.7732
  0
VERTEX
  8
LAYER_1
 10
188.7806
 20
11.2734
  0
VERTEX
  8
LAYER_1
 10
188.9029
 20
11.2734
  0
VERTEX
  8
LAYER_1
 10
188.5163
 20
10.6857
  0
SEQEND
  0
INSERT
  8
LAYER_1
  2
AIGNBL0102000D
 10
0
 20
0
 30
0
  0
INSERT
  8
LAYER_1
  2
AIGNBL0102000E
 10
0
 20
0
 30
0
  0
POLYLINE
  8
LAYER_1
 40
0.05
 41
0.05
 66
1
 10
0
 20
0
 30
0
 70
1
  0
VERTEX
  8
LAYER_1
 10
192.4916
 20
10.2402
  0
VERTEX
  8
LAYER_1
 10
192.3865
 20
10.2402
  0
VERTEX
  8
LAYER_1
 10
192.3865
 20
11.18
  0
VERTEX
  8
LAYER_1
 10
192.0403
 20
11.18
  0
VERTEX
  8
LAYER_1
 10
192.0403
 20
11.2734
  0
VERTEX
  8
LAYER_1
 10
192.8368
 20
11.2734
  0
VERTEX
  8
LAYER_1
 10
192.8368
 20
11.18
  0
VERTEX
  8
LAYER_1
 10
192.4916
 20
11.18
  0
SEQEND
  0
POLYLINE
  8
LAYER_1
 40
0.05
 41
0.05
 66
1
 10
0
 20
0
 30
0
 70
1
  0
VERTEX
  8
LAYER_1
 10
193.1934
 20
11.2734
  0
VERTEX
  8
LAYER_1
 10
193.2981
 20
11.2734
  0
VERTEX
  8
LAYER_1
 10
193.2981
 20
10.8255
  0
VERTEX
  8
LAYER_1
 10
193.8617
 20
10.8255
  0
VERTEX
  8
LAYER_1
 10
193.8617
 20
11.2734
  0
VERTEX
  8
LAYER_1
 10
193.9668
 20
11.2734
  0
VERTEX
  8
LAYER_1
 10
193.9668
 20
10.2402
  0
VERTEX
  8
LAYER_1
 10
193.8617
 20
10.2402
  0
VERTEX
  8
LAYER_1
 10
193.8617
 20
10.7294
  0
VERTEX
  8
LAYER_1
 10
193.2981
 20
10.7294
  0
VERTEX
  8
LAYER_1
 10
193.2981
 20
10.2402
  0
VERTEX
  8
LAYER_1
 10
193.1934
 20
10.2402
  0
SEQEND
  0
INSERT
  8
LAYER_1
  2
AIGNBL0102000F
 10
0
 20
0
 30
0
  0
INSERT
  8
LAYER_1
  2
AIGNBL01020010
 10
0
 20
0
 30
0
  0
INSERT
  8
LAYER_1
  2
AIGNBL01020011
 10
0
 20
0
 30
0
  0
POLYLINE
  8
LAYER_1
 40
0.05
 41
0.05
 66
1
 10
0
 20
0
 30
0
 70
1
  0
VERTEX
  8
LAYER_1
 10
198.9119
 20
10.4183
  0
VERTEX
  8
LAYER_1
 10
198.9136
 20
10.4183
  0
VERTEX
  8
LAYER_1
 10
199.2592
 20
11.2734
  0
VERTEX
  8
LAYER_1
 10
199.42
 20
11.2734
  0
VERTEX
  8
LAYER_1
 10
199.42
 20
10.2402
  0
VERTEX
  8
LAYER_1
 10
199.3146
 20
10.2402
  0
VERTEX
  8
LAYER_1
 10
199.3146
 20
11.1376
  0
VERTEX
  8
LAYER_1
 10
199.3119
 20
11.1376
  0
VERTEX
  8
LAYER_1
 10
198.9384
 20
10.2402
  0
VERTEX
  8
LAYER_1
 10
198.883
 20
10.2402
  0
VERTEX
  8
LAYER_1
 10
198.5092
 20
11.1376
  0
VERTEX
  8
LAYER_1
 10
198.5064
 20
11.1376
  0
VERTEX
  8
LAYER_1
 10
198.5064
 20
10.2402
  0
VERTEX
  8
LAYER_1
 10
198.4013
 20
10.2402
  0
VERTEX
  8
LAYER_1
 10
198.4013
 20
11.2734
  0
VERTEX
  8
LAYER_1
 10
198.5619
 20
11.2734
  0
SEQEND
  0
POLYLINE
  8
LAYER_1
 40
0.05
 41
0.05
 66
1
 10
0
 20
0
 30
0
 70
1
  0
VERTEX
  8
LAYER_1
 10
200.5666
 20
10.3339
  0
VERTEX
  8
LAYER_1
 10
201.1199
 20
10.3339
  0
VERTEX
  8
LAYER_1
 10
201.1199
 20
10.2402
  0
VERTEX
  8
LAYER_1
 10
200.4615
 20
10.2402
  0
VERTEX
  8
LAYER_1
 10
200.4615
 20
11.2734
  0
VERTEX
  8
LAYER_1
 10
201.1026
 20
11.2734
  0
VERTEX
  8
LAYER_1
 10
201.1026
 20
11.18
  0
VERTEX
  8
LAYER_1
 10
200.5666
 20
11.18
  0
VERTEX
  8
LAYER_1
 10
200.5666
 20
10.8255
  0
VERTEX
  8
LAYER_1
 10
201.0671
 20
10.8255
  0
VERTEX
  8
LAYER_1
 10
201.0671
 20
10.7322
  0
VERTEX
  8
LAYER_1
 10
200.5666
 20
10.7322
  0
SEQEND
  0
POLYLINE
  8
LAYER_1
 40
0.05
 41
0.05
 66
1
 10
0
 20
0
 30
0
 70
1
  0
VERTEX
  8
LAYER_1
 10
201.865
 20
10.8562
  0
VERTEX
  8
LAYER_1
 10
202.1472
 20
11.2734
  0
VERTEX
  8
LAYER_1
 10
202.2722
 20
11.2734
  0
VERTEX
  8
LAYER_1
 10
201.9298
 20
10.7818
  0
VERTEX
  8
LAYER_1
 10
202.3091
 20
10.2402
  0
VERTEX
  8
LAYER_1
 10
202.1778
 20
10.2402
  0
VERTEX
  8
LAYER_1
 10
201.8623
 20
10.706
  0
VERTEX
  8
LAYER_1
 10
201.5488
 20
10.2402
  0
VERTEX
  8
LAYER_1
 10
201.4168
 20
10.2402
  0
VERTEX
  8
LAYER_1
 10
201.7968
 20
10.7831
  0
VERTEX
  8
LAYER_1
 10
201.4509
 20
11.2734
  0
VERTEX
  8
LAYER_1
 10
201.5825
 20
11.2734
  0
SEQEND
  0
INSERT
  8
LAYER_1
  2
AIGNBL01020012
 10
0
 20
0
 30
0
  0
POLYLINE
  8
LAYER_1
 40
0.05
 41
0.05
 66
1
 10
0
 20
0
 30
0
 70
1
  0
VERTEX
  8
LAYER_1
 10
203.828
 20
10.3339
  0
VERTEX
  8
LAYER_1
 10
204.3813
 20
10.3339
  0
VERTEX
  8
LAYER_1
 10
204.3813
 20
10.2402
  0
VERTEX
  8
LAYER_1
 10
203.723
 20
10.2402
  0
VERTEX
  8
LAYER_1
 10
203.723
 20
11.2734
  0
VERTEX
  8
LAYER_1
 10
204.3638
 20
11.2734
  0
VERTEX
  8
LAYER_1
 10
204.3638
 20
11.18
  0
VERTEX
  8
LAYER_1
 10
203.828
 20
11.18
  0
VERTEX
  8
LAYER_1
 10
203.828
 20
10.8255
  0
VERTEX
  8
LAYER_1
 10
204.3286
 20
10.8255
  0
VERTEX
  8
LAYER_1
 10
204.3286
 20
10.7322
  0
VERTEX
  8
LAYER_1
 10
203.828
 20
10.7322
  0
SEQEND
  0
INSERT
  8
LAYER_1
  2
AIGNBL01020013
 10
0
 20
0
 30
0
  0
POLYLINE
  8
LAYER_1
 40
0.05
 41
0.05
 66
1
 10
0
 20
0
 30
0
 70
1
  0
VERTEX
  8
LAYER_1
 10
205.9688
 20
10.2402
  0
VERTEX
  8
LAYER_1
 10
205.8641
 20
10.2402
  0
VERTEX
  8
LAYER_1
 10
205.8641
 20
11.2734
  0
VERTEX
  8
LAYER_1
 10
205.9688
 20
11.2734
  0
SEQEND
  0
POLYLINE
  8
LAYER_1
 40
0.05
 41
0.05
 66
1
 10
0
 20
0
 30
0
 70
1
  0
VERTEX
  8
LAYER_1
 10
206.5497
 20
10.3339
  0
VERTEX
  8
LAYER_1
 10
207.1026
 20
10.3339
  0
VERTEX
  8
LAYER_1
 10
207.1026
 20
10.2402
  0
VERTEX
  8
LAYER_1
 10
206.4446
 20
10.2402
  0
VERTEX
  8
LAYER_1
 10
206.4446
 20
11.2734
  0
VERTEX
  8
LAYER_1
 10
207.0854
 20
11.2734
  0
VERTEX
  8
LAYER_1
 10
207.0854
 20
11.18
  0
VERTEX
  8
LAYER_1
 10
206.5497
 20
11.18
  0
VERTEX
  8
LAYER_1
 10
206.5497
 20
10.8255
  0
VERTEX
  8
LAYER_1
 10
207.0502
 20
10.8255
  0
VERTEX
  8
LAYER_1
 10
207.0502
 20
10.7322
  0
VERTEX
  8
LAYER_1
 10
206.5497
 20
10.7322
  0
SEQEND
  0
POLYLINE
  8
LAYER_1
 40
0.05
 41
0.05
 66
1
 10
0
 20
0
 30
0
 70
1
  0
VERTEX
  8
LAYER_1
 10
208.2426
 20
10.3935
  0
VERTEX
  8
LAYER_1
 10
208.2453
 20
10.3935
  0
VERTEX
  8
LAYER_1
 10
208.2453
 20
11.2734
  0
VERTEX
  8
LAYER_1
 10
208.3504
 20
11.2734
  0
VERTEX
  8
LAYER_1
 10
208.3504
 20
10.2402
  0
VERTEX
  8
LAYER_1
 10
208.2192
 20
10.2402
  0
VERTEX
  8
LAYER_1
 10
207.6176
 20
11.129
  0
VERTEX
  8
LAYER_1
 10
207.6149
 20
11.129
  0
VERTEX
  8
LAYER_1
 10
207.6149
 20
10.2402
  0
VERTEX
  8
LAYER_1
 10
207.5098
 20
10.2402
  0
VERTEX
  8
LAYER_1
 10
207.5098
 20
11.2734
  0
VERTEX
  8
LAYER_1
 10
207.6414
 20
11.2734
  0
SEQEND
  0
POLYLINE
  8
LAYER_1
 40
0.05
 41
0.05
 66
1
 10
0
 20
0
 30
0
 70
1
  0
VERTEX
  8
LAYER_1
 10
209.6961
 20
10.408
  0
VERTEX
  8
LAYER_1
 10
209.6323
 20
10.3336
  0
VERTEX
  8
LAYER_1
 10
209.5462
 20
10.2719
  0
VERTEX
  8
LAYER_1
 10
209.4384
 20
10.2295
  0
VERTEX
  8
LAYER_1
 10
209.3092
 20
10.214
 42
-0.0997799169
  0
VERTEX
  8
LAYER_1
 10
209.0932
 20
10.255
 42
-0.102530266
  0
VERTEX
  8
LAYER_1
 10
208.9226
 20
10.368
 42
-0.09960131251
  0
VERTEX
  8
LAYER_1
 10
208.811
 20
10.5396
 42
-0.09630702324
  0
VERTEX
  8
LAYER_1
 10
208.7707
 20
10.757
 42
-0.1018675165
  0
VERTEX
  8
LAYER_1
 10
208.8117
 20
10.974
 42
-0.1003546912
  0
VERTEX
  8
LAYER_1
 10
208.9244
 20
11.1459
 42
-0.09705342834
  0
VERTEX
  8
LAYER_1
 10
209.0952
 20
11.2589
 42
-0.09752919603
  0
VERTEX
  8
LAYER_1
 10
209.3092
 20
11.2999
  0
VERTEX
  8
LAYER_1
 10
209.4208
 20
11.2879
  0
VERTEX
  8
LAYER_1
 10
209.5238
 20
11.2544
  0
VERTEX
  8
LAYER_1
 10
209.6113
 20
11.2028
  0
VERTEX
  8
LAYER_1
 10
209.6771
 20
11.1349
  0
VERTEX
  8
LAYER_1
 10
209.5896
 20
11.0705
  0
VERTEX
  8
LAYER_1
 10
209.5462
 20
11.1204
  0
VERTEX
  8
LAYER_1
 10
209.4832
 20
11.1642
  0
VERTEX
  8
LAYER_1
 10
209.4032
 20
11.1945
  0
VERTEX
  8
LAYER_1
 10
209.3106
 20
11.2066
 42
0.1104830616
  0
VERTEX
  8
LAYER_1
 10
209.1304
 20
11.17
 42
0.1040964846
  0
VERTEX
  8
LAYER_1
 10
208.9953
 20
11.0718
 42
0.09554708239
  0
VERTEX
  8
LAYER_1
 10
208.9106
 20
10.9285
 42
0.08447361069
  0
VERTEX
  8
LAYER_1
 10
208.8817
 20
10.757
 42
0.09038739564
  0
VERTEX
  8
LAYER_1
 10
208.9116
 20
10.5854
 42
0.09896205891
  0
VERTEX
  8
LAYER_1
 10
208.9974
 20
10.4421
 42
0.1048551997
  0
VERTEX
  8
LAYER_1
 10
209.1321
 20
10.3439
 42
0.1064777274
  0
VERTEX
  8
LAYER_1
 10
209.3106
 20
10.3074
 42
0.1093190709
  0
VERTEX
  8
LAYER_1
 10
209.4797
 20
10.3439
 42
0.1366622766
  0
VERTEX
  8
LAYER_1
 10
209.6141
 20
10.4607
  0
SEQEND
  0
POLYLINE
  8
LAYER_1
 40
0.05
 41
0.05
 66
1
 10
0
 20
0
 30
0
 70
1
  0
VERTEX
  8
LAYER_1
 10
210.1832
 20
10.3339
  0
VERTEX
  8
LAYER_1
 10
210.7365
 20
10.3339
  0
VERTEX
  8
LAYER_1
 10
210.7365
 20
10.2402
  0
VERTEX
  8
LAYER_1
 10
210.0781
 20
10.2402
  0
VERTEX
  8
LAYER_1
 10
210.0781
 20
11.2734
  0
VERTEX
  8
LAYER_1
 10
210.7189
 20
11.2734
  0
VERTEX
  8
LAYER_1
 10
210.7189
 20
11.18
  0
VERTEX
  8
LAYER_1
 10
210.1832
 20
11.18
  0
VERTEX
  8
LAYER_1
 10
210.1832
 20
10.8255
  0
VERTEX
  8
LAYER_1
 10
210.6838
 20
10.8255
  0
VERTEX
  8
LAYER_1
 10
210.6838
 20
10.7322
  0
VERTEX
  8
LAYER_1
 10
210.1832
 20
10.7322
  0
SEQEND
  0
POLYLINE
  8
LAYER_1
 40
0.1058
 41
0.1058
 66
1
 10
0
 20
0
 30
0
 70
1
  0
VERTEX
  8
LAYER_1
 10
102.016
 20
68.2852
  0
VERTEX
  8
LAYER_1
 10
101.4116
 20
68.2852
  0
VERTEX
  8
LAYER_1
 10
101.4116
 20
60.1879
  0
VERTEX
  8
LAYER_1
 10
102.016
 20
60.1879
  0
SEQEND
  0
POLYLINE
  8
LAYER_1
 40
0.1058
 41
0.1058
 66
1
 10
0
 20
0
 30
0
 70
1
  0
VERTEX
  8
LAYER_1
 10
62.4117
 20
68.2852
  0
VERTEX
  8
LAYER_1
 10
63.016
 20
68.2852
  0
VERTEX
  8
LAYER_1
 10
63.016
 20
60.1879
  0
VERTEX
  8
LAYER_1
 10
62.4117
 20
60.1879
  0
SEQEND
  0
POLYLINE
  8
LAYER_1
 40
0.1058
 41
0.1058
 66
1
 10
0
 20
0
 30
0
  0
VERTEX
  8
LAYER_1
 10
122.6292
 20
74.3458
  0
VERTEX
  8
LAYER_1
 10
122.5922
 20
74.1571
  0
VERTEX
  8
LAYER_1
 10
122.5164
 20
73.9858
  0
VERTEX
  8
LAYER_1
 10
122.3841
 20
73.8553
  0
VERTEX
  8
LAYER_1
 10
122.2144
 20
73.7602
  0
VERTEX
  8
LAYER_1
 10
122.0256
 20
73.7409
  0
VERTEX
  8
LAYER_1
 10
120.0621
 20
73.7409
  0
SEQEND
  0
POLYLINE
  8
LAYER_1
 40
0.1058
 41
0.1058
 66
1
 10
0
 20
0
 30
0
  0
VERTEX
  8
LAYER_1
 10
119.4769
 20
73.2696
  0
VERTEX
  8
LAYER_1
 10
119.552
 20
73.4584
  0
VERTEX
  8
LAYER_1
 10
119.7038
 20
73.6086
  0
VERTEX
  8
LAYER_1
 10
119.8731
 20
73.7033
  0
VERTEX
  8
LAYER_1
 10
120.0619
 20
73.7409
  0
SEQEND
  0
POLYLINE
  8
LAYER_1
 40
0.1058
 41
0.1058
 66
1
 10
0
 20
0
 30
0
  0
VERTEX
  8
LAYER_1
 10
115.7583
 20
73.7409
  0
VERTEX
  8
LAYER_1
 10
115.9471
 20
73.7037
  0
VERTEX
  8
LAYER_1
 10
116.1168
 20
73.6086
  0
VERTEX
  8
LAYER_1
 10
116.2491
 20
73.4763
  0
VERTEX
  8
LAYER_1
 10
116.3433
 20
73.3068
  0
SEQEND
  0
POLYLINE
  8
LAYER_1
 40
0.1058
 41
0.1058
 66
1
 10
0
 20
0
 30
0
  0
VERTEX
  8
LAYER_1
 10
61.8074
 20
76.9696
  0
VERTEX
  8
LAYER_1
 10
42.4212
 20
76.9696
  0
SEQEND
  0
POLYLINE
  8
LAYER_1
 40
0.1058
 41
0.1058
 66
1
 10
0
 20
0
 30
0
  0
VERTEX
  8
LAYER_1
 10
41.7983
 20
76.3647
  0
VERTEX
  8
LAYER_1
 10
41.836
 20
76.5535
  0
VERTEX
  8
LAYER_1
 10
41.9306
 20
76.7243
  0
VERTEX
  8
LAYER_1
 10
42.0625
 20
76.8566
  0
VERTEX
  8
LAYER_1
 10
42.2326
 20
76.931
  0
VERTEX
  8
LAYER_1
 10
42.4214
 20
76.9696
  0
SEQEND
  0
POLYLINE
  8
LAYER_1
 40
0.1058
 41
0.1058
 66
1
 10
0
 20
0
 30
0
  0
VERTEX
  8
LAYER_1
 10
41.7983
 20
76.3647
  0
VERTEX
  8
LAYER_1
 10
41.7983
 20
74.3458
  0
SEQEND
  0
POLYLINE
  8
LAYER_1
 40
0.1058
 41
0.1058
 66
1
 10
0
 20
0
 30
0
  0
VERTEX
  8
LAYER_1
 10
42.4212
 20
73.7409
  0
VERTEX
  8
LAYER_1
 10
42.2327
 20
73.7602
  0
VERTEX
  8
LAYER_1
 10
42.0624
 20
73.8553
  0
VERTEX
  8
LAYER_1
 10
41.9304
 20
73.9862
  0
VERTEX
  8
LAYER_1
 10
41.8362
 20
74.1571
  0
VERTEX
  8
LAYER_1
 10
41.7981
 20
74.3458
  0
SEQEND
  0
POLYLINE
  8
LAYER_1
 40
0.1058
 41
0.1058
 66
1
 10
0
 20
0
 30
0
  0
VERTEX
  8
LAYER_1
 10
53.955
 20
73.3068
  0
VERTEX
  8
LAYER_1
 10
54.0499
 20
73.476
  0
VERTEX
  8
LAYER_1
 10
54.1819
 20
73.6083
  0
VERTEX
  8
LAYER_1
 10
54.3515
 20
73.7037
  0
VERTEX
  8
LAYER_1
 10
54.5403
 20
73.7405
  0
VERTEX
  8
LAYER_1
 10
61.8074
 20
73.7405
  0
SEQEND
  0
POLYLINE
  8
LAYER_1
 40
0.1058
 41
0.1058
 66
1
 10
0
 20
0
 30
0
  0
VERTEX
  8
LAYER_1
 10
42.4212
 20
73.7409
  0
VERTEX
  8
LAYER_1
 10
44.3658
 20
73.7409
  0
VERTEX
  8
LAYER_1
 10
44.5544
 20
73.7037
  0
VERTEX
  8
LAYER_1
 10
44.7432
 20
73.6086
  0
VERTEX
  8
LAYER_1
 10
44.8751
 20
73.4584
  0
VERTEX
  8
LAYER_1
 10
44.9506
 20
73.2696
  0
SEQEND
  0
POLYLINE
  8
LAYER_1
 40
0.1058
 41
0.1058
 66
1
 10
0
 20
0
 30
0
  0
VERTEX
  8
LAYER_1
 10
58.5484
 20
188.0998
  0
VERTEX
  8
LAYER_1
 10
104.6084
 20
188.0998
  0
VERTEX
  8
LAYER_1
 10
41.5783
 20
188.0998
  0
VERTEX
  8
LAYER_1
 10
41.5783
 20
129.9211
  0
VERTEX
  8
LAYER_1
 10
121.5785
 20
129.9211
  0
VERTEX
  8
LAYER_1
 10
121.5785
 20
188.0998
  0
VERTEX
  8
LAYER_1
 10
104.6084
 20
188.0998
  0
SEQEND
  0
POLYLINE
  8
LAYER_1
 40
0.1058
 41
0.1058
 66
1
 10
0
 20
0
 30
0
  0
VERTEX
  8
LAYER_1
 10
97.1465
 20
187.4962
  0
VERTEX
  8
LAYER_1
 10
66.6278
 20
187.4962
  0
SEQEND
  0
POLYLINE
  8
LAYER_1
 40
0.1058
 41
0.1058
 66
1
 10
0
 20
0
 30
0
  0
VERTEX
  8
LAYER_1
 10
64.2114
 20
187.4962
  0
VERTEX
  8
LAYER_1
 10
42.5788
 20
187.4962
  0
VERTEX
  8
LAYER_1
 10
42.5788
 20
130.9216
  0
VERTEX
  8
LAYER_1
 10
120.5778
 20
130.9216
  0
VERTEX
  8
LAYER_1
 10
120.5778
 20
187.4962
  0
VERTEX
  8
LAYER_1
 10
98.9643
 20
187.4962
  0
SEQEND
  0
POLYLINE
  8
LAYER_1
 40
0.1058
 41
0.1058
 66
1
 10
0
 20
0
 30
0
 70
1
  0
VERTEX
  8
LAYER_1
 10
101.3799
 20
187.496
  0
VERTEX
  8
LAYER_1
 10
100.7763
 20
187.496
  0
VERTEX
  8
LAYER_1
 10
100.7763
 20
130.9216
  0
VERTEX
  8
LAYER_1
 10
101.3799
 20
130.9216
  0
SEQEND
  0
POLYLINE
  8
LAYER_1
 40
0.1058
 41
0.1058
 66
1
 10
0
 20
0
 30
0
  0
VERTEX
  8
LAYER_1
 10
94.6998
 20
187.4962
  0
VERTEX
  8
LAYER_1
 10
94.6998
 20
188.0998
  0
SEQEND
  0
POLYLINE
  8
LAYER_1
 40
0.1058
 41
0.1058
 66
1
 10
0
 20
0
 30
0
  0
VERTEX
  8
LAYER_1
 10
99.7536
 20
187.4962
  0
VERTEX
  8
LAYER_1
 10
99.7536
 20
188.0998
  0
VERTEX
  8
LAYER_1
 10
97.1465
 20
188.0998
  0
SEQEND
  0
POLYLINE
  8
LAYER_1
 40
0.1058
 41
0.1058
 66
1
 10
0
 20
0
 30
0
  0
VERTEX
  8
LAYER_1
 10
99.5815
 20
187.4962
  0
VERTEX
  8
LAYER_1
 10
97.1467
 20
187.4962
  0
SEQEND
  0
POLYLINE
  8
LAYER_1
 40
0.1058
 41
0.1058
 66
1
 10
0
 20
0
 30
0
  0
VERTEX
  8
LAYER_1
 10
64.6083
 20
187.4962
  0
VERTEX
  8
LAYER_1
 10
62.191
 20
187.4962
  0
SEQEND
  0
POLYLINE
  8
LAYER_1
 40
0.1058
 41
0.1058
 66
1
 10
0
 20
0
 30
0
 70
1
  0
VERTEX
  8
LAYER_1
 10
61.7762
 20
187.496
  0
VERTEX
  8
LAYER_1
 10
62.38
 20
187.496
  0
VERTEX
  8
LAYER_1
 10
62.38
 20
130.9222
  0
VERTEX
  8
LAYER_1
 10
61.7762
 20
130.9222
  0
SEQEND
  0
POLYLINE
  8
LAYER_1
 40
0.1058
 41
0.1058
 66
1
 10
0
 20
0
 30
0
 70
1
  0
VERTEX
  8
LAYER_1
 10
64.7079
 20
187.496
  0
VERTEX
  8
LAYER_1
 10
69.7332
 20
187.496
  0
VERTEX
  8
LAYER_1
 10
69.7332
 20
188.0996
  0
VERTEX
  8
LAYER_1
 10
64.7079
 20
188.0996
  0
SEQEND
  0
POLYLINE
  8
LAYER_1
 40
0.05
 41
0.05
 66
1
 10
0
 20
0
 30
0
  0
VERTEX
  8
LAYER_1
 10
113.4804
 20
180.0211
  0
VERTEX
  8
LAYER_1
 10
113.4999
 20
180.0397
  0
SEQEND
  0
POLYLINE
  8
LAYER_1
 40
0.1058
 41
0.1058
 66
1
 10
0
 20
0
 30
0
 70
1
  0
VERTEX
  8
LAYER_1
 10
44.9947
 20
133.9608
  0
VERTEX
  8
LAYER_1
 10
45.0324
 20
134.1496
  0
VERTEX
  8
LAYER_1
 10
45.127
 20
134.32
 42
-0.2892405459
  0
VERTEX
  8
LAYER_1
 10
45.7326
 20
134.5564
 42
-0.2529570727
  0
VERTEX
  8
LAYER_1
 10
46.1839
 20
134.1496
  0
VERTEX
  8
LAYER_1
 10
46.222
 20
133.9608
  0
VERTEX
  8
LAYER_1
 10
46.1839
 20
133.772
 42
-0.2760471237
  0
VERTEX
  8
LAYER_1
 10
45.6558
 20
133.3537
 42
-0.2640847122
  0
VERTEX
  8
LAYER_1
 10
45.127
 20
133.6024
  0
VERTEX
  8
LAYER_1
 10
45.0324
 20
133.772
  0
SEQEND
  0
POLYLINE
  8
LAYER_1
 40
0.1058
 41
0.1058
 66
1
 10
0
 20
0
 30
0
 70
1
  0
VERTEX
  8
LAYER_1
 10
117.0482
 20
133.9608
  0
VERTEX
  8
LAYER_1
 10
117.0852
 20
134.1496
  0
VERTEX
  8
LAYER_1
 10
117.199
 20
134.32
  0
VERTEX
  8
LAYER_1
 10
117.3692
 20
134.4328
  0
VERTEX
  8
LAYER_1
 10
117.5579
 20
134.4705
  0
VERTEX
  8
LAYER_1
 10
117.7466
 20
134.4328
  0
VERTEX
  8
LAYER_1
 10
117.9163
 20
134.32
  0
VERTEX
  8
LAYER_1
 10
118.0291
 20
134.1496
  0
VERTEX
  8
LAYER_1
 10
118.0681
 20
133.9608
  0
VERTEX
  8
LAYER_1
 10
118.0291
 20
133.772
  0
VERTEX
  8
LAYER_1
 10
117.9163
 20
133.6024
  0
VERTEX
  8
LAYER_1
 10
117.7466
 20
133.4888
  0
VERTEX
  8
LAYER_1
 10
117.5579
 20
133.4518
  0
VERTEX
  8
LAYER_1
 10
117.3692
 20
133.4888
  0
VERTEX
  8
LAYER_1
 10
117.199
 20
133.6024
  0
VERTEX
  8
LAYER_1
 10
117.0852
 20
133.772
  0
SEQEND
  0
POLYLINE
  8
LAYER_1
 40
0.1058
 41
0.1058
 66
1
 10
0
 20
0
 30
0
 70
1
  0
VERTEX
  8
LAYER_1
 10
115.0279
 20
133.9608
  0
VERTEX
  8
LAYER_1
 10
115.0657
 20
134.3954
  0
VERTEX
  8
LAYER_1
 10
115.1797
 20
134.8297
 42
-0.0906953972
  0
VERTEX
  8
LAYER_1
 10
115.7175
 20
135.6922
 42
-0.5113472451
  0
VERTEX
  8
LAYER_1
 10
119.9183
 20
134.8471
 42
-0.03986165615
  0
VERTEX
  8
LAYER_1
 10
120.0493
 20
134.3954
  0
VERTEX
  8
LAYER_1
 10
120.0867
 20
133.9608
  0
VERTEX
  8
LAYER_1
 10
120.0493
 20
133.5269
 42
-0.08665933569
  0
VERTEX
  8
LAYER_1
 10
119.704
 20
132.6288
 42
-0.3031578189
  0
VERTEX
  8
LAYER_1
 10
117.0987
 20
131.4729
 42
-0.2623479659
  0
VERTEX
  8
LAYER_1
 10
115.1797
 20
133.0927
  0
VERTEX
  8
LAYER_1
 10
115.0657
 20
133.5269
  0
SEQEND
  0
POLYLINE
  8
LAYER_1
 40
0.1058
 41
0.1058
 66
1
 10
0
 20
0
 30
0
 70
1
  0
VERTEX
  8
LAYER_1
 10
121.5785
 20
129.9209
  0
VERTEX
  8
LAYER_1
 10
41.5783
 20
129.9209
  0
VERTEX
  8
LAYER_1
 10
41.5783
 20
138.0004
  0
VERTEX
  8
LAYER_1
 10
121.5785
 20
138.0004
  0
SEQEND
  0
POLYLINE
  8
LAYER_1
 40
0.1058
 41
0.1058
 66
1
 10
0
 20
0
 30
0
 70
1
  0
VERTEX
  8
LAYER_1
 10
45.108
 20
133.9608
  0
VERTEX
  8
LAYER_1
 10
45.1457
 20
134.1496
  0
VERTEX
  8
LAYER_1
 10
45.2593
 20
134.32
  0
VERTEX
  8
LAYER_1
 10
45.41
 20
134.4328
  0
VERTEX
  8
LAYER_1
 10
45.6174
 20
134.4705
  0
VERTEX
  8
LAYER_1
 10
45.8062
 20
134.4328
  0
VERTEX
  8
LAYER_1
 10
45.9576
 20
134.32
  0
VERTEX
  8
LAYER_1
 10
46.0707
 20
134.1496
  0
VERTEX
  8
LAYER_1
 10
46.1085
 20
133.9608
  0
VERTEX
  8
LAYER_1
 10
46.0707
 20
133.772
  0
VERTEX
  8
LAYER_1
 10
45.9576
 20
133.6024
  0
VERTEX
  8
LAYER_1
 10
45.8062
 20
133.4888
  0
VERTEX
  8
LAYER_1
 10
45.6174
 20
133.4518
  0
VERTEX
  8
LAYER_1
 10
45.41
 20
133.4888
  0
VERTEX
  8
LAYER_1
 10
45.2593
 20
133.6024
  0
VERTEX
  8
LAYER_1
 10
45.1457
 20
133.772
  0
SEQEND
  0
POLYLINE
  8
LAYER_1
 40
0.1058
 41
0.1058
 66
1
 10
0
 20
0
 30
0
 70
1
  0
VERTEX
  8
LAYER_1
 10
43.0882
 20
133.9608
  0
VERTEX
  8
LAYER_1
 10
43.1259
 20
134.3954
  0
VERTEX
  8
LAYER_1
 10
43.239
 20
134.8297
 42
-0.08705042514
  0
VERTEX
  8
LAYER_1
 10
43.7339
 20
135.6516
 42
-0.3040187464
  0
VERTEX
  8
LAYER_1
 10
46.4955
 20
136.3274
 42
-0.2629862396
  0
VERTEX
  8
LAYER_1
 10
48.0909
 20
134.3954
  0
VERTEX
  8
LAYER_1
 10
48.1283
 20
133.9608
  0
VERTEX
  8
LAYER_1
 10
48.0909
 20
133.5269
 42
-0.08792678979
  0
VERTEX
  8
LAYER_1
 10
47.7538
 20
132.6296
 42
-0.2620966882
  0
VERTEX
  8
LAYER_1
 10
45.5885
 20
131.4337
 42
-0.1260026488
  0
VERTEX
  8
LAYER_1
 10
44.3652
 20
131.7546
 42
-0.1281049163
  0
VERTEX
  8
LAYER_1
 10
43.4708
 20
132.6221
 42
-0.04630021988
  0
VERTEX
  8
LAYER_1
 10
43.239
 20
133.0927
  0
VERTEX
  8
LAYER_1
 10
43.1259
 20
133.5269
  0
SEQEND
  0
POLYLINE
  8
LAYER_1
 40
0.1058
 41
0.1058
 66
1
 10
0
 20
0
 30
0
 70
1
  0
VERTEX
  8
LAYER_1
 10
116.9538
 20
133.9608
  0
VERTEX
  8
LAYER_1
 10
116.9725
 20
134.1496
  0
VERTEX
  8
LAYER_1
 10
117.0666
 20
134.32
  0
VERTEX
  8
LAYER_1
 10
117.1989
 20
134.4523
  0
VERTEX
  8
LAYER_1
 10
117.3694
 20
134.5465
  0
VERTEX
  8
LAYER_1
 10
117.558
 20
134.5651
  0
VERTEX
  8
LAYER_1
 10
117.7468
 20
134.5465
  0
VERTEX
  8
LAYER_1
 10
117.9165
 20
134.4523
  0
VERTEX
  8
LAYER_1
 10
118.0488
 20
134.32
  0
VERTEX
  8
LAYER_1
 10
118.1242
 20
134.1496
  0
VERTEX
  8
LAYER_1
 10
118.1616
 20
133.9608
  0
VERTEX
  8
LAYER_1
 10
118.1242
 20
133.772
  0
VERTEX
  8
LAYER_1
 10
118.0488
 20
133.6024
  0
VERTEX
  8
LAYER_1
 10
117.9165
 20
133.4701
  0
VERTEX
  8
LAYER_1
 10
117.7468
 20
133.3758
  0
VERTEX
  8
LAYER_1
 10
117.558
 20
133.3572
  0
VERTEX
  8
LAYER_1
 10
117.3694
 20
133.3758
  0
VERTEX
  8
LAYER_1
 10
117.1989
 20
133.4701
  0
VERTEX
  8
LAYER_1
 10
117.0666
 20
133.6024
  0
VERTEX
  8
LAYER_1
 10
116.9725
 20
133.772
  0
SEQEND
  0
POLYLINE
  8
LAYER_1
 40
0.1058
 41
0.1058
 66
1
 10
0
 20
0
 30
0
 70
1
  0
VERTEX
  8
LAYER_1
 10
113.4995
 20
188.0996
  0
VERTEX
  8
LAYER_1
 10
121.5781
 20
188.0996
  0
VERTEX
  8
LAYER_1
 10
121.5781
 20
129.9209
  0
VERTEX
  8
LAYER_1
 10
113.4995
 20
129.9209
  0
SEQEND
  0
POLYLINE
  8
LAYER_1
 40
0.1058
 41
0.1058
 66
1
 10
0
 20
0
 30
0
 70
1
  0
VERTEX
  8
LAYER_1
 10
117.0482
 20
133.9608
  0
VERTEX
  8
LAYER_1
 10
117.0852
 20
134.1496
  0
VERTEX
  8
LAYER_1
 10
117.1804
 20
134.32
 42
-0.2046099194
  0
VERTEX
  8
LAYER_1
 10
117.5883
 20
134.4716
 42
-0.2826679264
  0
VERTEX
  8
LAYER_1
 10
118.0109
 20
134.1496
  0
VERTEX
  8
LAYER_1
 10
118.0486
 20
133.9608
  0
VERTEX
  8
LAYER_1
 10
118.0109
 20
133.7727
 42
-0.208296693
  0
VERTEX
  8
LAYER_1
 10
117.696
 20
133.4723
 42
-0.2772884218
  0
VERTEX
  8
LAYER_1
 10
117.1804
 20
133.6024
  0
VERTEX
  8
LAYER_1
 10
117.0852
 20
133.7727
  0
SEQEND
  0
POLYLINE
  8
LAYER_1
 40
0.1058
 41
0.1058
 66
1
 10
0
 20
0
 30
0
 70
1
  0
VERTEX
  8
LAYER_1
 10
115.0279
 20
133.9608
  0
VERTEX
  8
LAYER_1
 10
115.0657
 20
134.3954
  0
VERTEX
  8
LAYER_1
 10
115.1797
 20
134.8297
 42
-0.08614405817
  0
VERTEX
  8
LAYER_1
 10
115.6798
 20
135.6555
 42
-0.4745757131
  0
VERTEX
  8
LAYER_1
 10
119.7163
 20
135.2417
 42
-0.08316797216
  0
VERTEX
  8
LAYER_1
 10
120.0304
 20
134.3954
  0
VERTEX
  8
LAYER_1
 10
120.0688
 20
133.9608
  0
VERTEX
  8
LAYER_1
 10
120.0304
 20
133.5269
 42
-0.08740246325
  0
VERTEX
  8
LAYER_1
 10
119.6909
 20
132.6309
 42
-0.2609076931
  0
VERTEX
  8
LAYER_1
 10
117.5276
 20
131.4338
 42
-0.1263602037
  0
VERTEX
  8
LAYER_1
 10
116.3065
 20
131.7536
 42
-0.1280861517
  0
VERTEX
  8
LAYER_1
 10
115.4122
 20
132.6214
 42
-0.04607104708
  0
VERTEX
  8
LAYER_1
 10
115.1797
 20
133.0927
  0
VERTEX
  8
LAYER_1
 10
115.0657
 20
133.5269
  0
SEQEND
  0
POLYLINE
  8
LAYER_1
 40
0.1058
 41
0.1058
 66
1
 10
0
 20
0
 30
0
 70
1
  0
VERTEX
  8
LAYER_1
 10
49.6574
 20
188.0996
  0
VERTEX
  8
LAYER_1
 10
41.5783
 20
188.0996
  0
VERTEX
  8
LAYER_1
 10
41.5783
 20
129.9209
  0
VERTEX
  8
LAYER_1
 10
49.6574
 20
129.9209
  0
SEQEND
  0
POLYLINE
  8
LAYER_1
 40
0.1058
 41
0.1058
 66
1
 10
0
 20
0
 30
0
 70
1
  0
VERTEX
  8
LAYER_1
 10
79.9734
 20
138.0005
  0
VERTEX
  8
LAYER_1
 10
79.9929
 20
138.3216
  0
VERTEX
  8
LAYER_1
 10
80.0869
 20
138.6236
 42
-0.1144969369
  0
VERTEX
  8
LAYER_1
 10
80.5593
 20
139.253
 42
-0.5159300272
  0
VERTEX
  8
LAYER_1
 10
83.1636
 20
138.3216
  0
VERTEX
  8
LAYER_1
 10
83.202
 20
138.0005
  0
VERTEX
  8
LAYER_1
 10
83.1636
 20
137.6801
 42
-0.1153508927
  0
VERTEX
  8
LAYER_1
 10
82.827
 20
136.9683
 42
-0.2842593865
  0
VERTEX
  8
LAYER_1
 10
81.1969
 20
136.4299
 42
-0.2341350842
  0
VERTEX
  8
LAYER_1
 10
80.0869
 20
137.3775
  0
VERTEX
  8
LAYER_1
 10
79.9929
 20
137.6801
  0
SEQEND
  0
POLYLINE
  8
LAYER_1
 40
0.1058
 41
0.1058
 66
1
 10
0
 20
0
 30
0
 70
1
  0
VERTEX
  8
LAYER_1
 10
79.9734
 20
180.0211
  0
VERTEX
  8
LAYER_1
 10
79.9929
 20
180.3414
  0
VERTEX
  8
LAYER_1
 10
80.0869
 20
180.6441
 42
-0.1169274141
  0
VERTEX
  8
LAYER_1
 10
80.5504
 20
181.2714
 42
-0.2255860414
  0
VERTEX
  8
LAYER_1
 10
81.9145
 20
181.6061
 42
-0.2961556408
  0
VERTEX
  8
LAYER_1
 10
83.1636
 20
180.3414
  0
VERTEX
  8
LAYER_1
 10
83.202
 20
180.0211
  0
VERTEX
  8
LAYER_1
 10
83.1636
 20
179.7187
 42
-0.1154646177
  0
VERTEX
  8
LAYER_1
 10
82.8279
 20
178.9995
 42
-0.5215904184
  0
VERTEX
  8
LAYER_1
 10
80.0869
 20
179.4168
  0
VERTEX
  8
LAYER_1
 10
79.9929
 20
179.7187
  0
SEQEND
  0
POLYLINE
  8
LAYER_1
 40
0.1058
 41
0.1058
 66
1
 10
0
 20
0
 30
0
  0
VERTEX
  8
LAYER_1
 10
81.5781
 20
131.4423
  0
VERTEX
  8
LAYER_1
 10
81.5781
 20
136.4589
  0
SEQEND
  0
POLYLINE
  8
LAYER_1
 40
0.05
 41
0.05
 66
1
 10
0
 20
0
 30
0
 70
1
  0
VERTEX
  8
LAYER_1
 10
82.077
 20
131.7825
  0
VERTEX
  8
LAYER_1
 10
81.5781
 20
129.9213
  0
VERTEX
  8
LAYER_1
 10
81.0793
 20
131.7825
  0
SEQEND
  0
POLYLINE
  8
LAYER_1
 40
0.05
 41
0.05
 66
1
 10
0
 20
0
 30
0
 70
1
  0
VERTEX
  8
LAYER_1
 10
82.0579
 20
136.1316
  0
VERTEX
  8
LAYER_1
 10
81.5781
 20
137.9213
  0
VERTEX
  8
LAYER_1
 10
81.0982
 20
136.1316
  0
SEQEND
  0
POLYLINE
  8
LAYER_1
 40
0.1058
 41
0.1058
 66
1
 10
0
 20
0
 30
0
  0
VERTEX
  8
LAYER_1
 10
113.4997
 20
181.6444
  0
VERTEX
  8
LAYER_1
 10
113.4997
 20
182.8522
  0
SEQEND
  0
POLYLINE
  8
LAYER_1
 40
0.1058
 41
0.1058
 66
1
 10
0
 20
0
 30
0
  0
VERTEX
  8
LAYER_1
 10
113.4997
 20
186.4958
  0
VERTEX
  8
LAYER_1
 10
113.4997
 20
185.2872
  0
SEQEND
  0
POLYLINE
  8
LAYER_1
 40
0.1058
 41
0.1058
 66
1
 10
0
 20
0
 30
0
  0
VERTEX
  8
LAYER_1
 10
109.4593
 20
187.4962
  0
VERTEX
  8
LAYER_1
 10
109.4593
 20
178.0203
  0
SEQEND
  0
POLYLINE
  8
LAYER_1
 40
0.1058
 41
0.1058
 66
1
 10
0
 20
0
 30
0
  0
VERTEX
  8
LAYER_1
 10
111.4795
 20
175.9999
  0
VERTEX
  8
LAYER_1
 10
111.0826
 20
176.0377
 42
-0.1068564888
  0
VERTEX
  8
LAYER_1
 10
110.3072
 20
176.3779
 42
-0.1461218253
  0
VERTEX
  8
LAYER_1
 10
109.5796
 20
177.3186
 42
-0.04451430894
  0
VERTEX
  8
LAYER_1
 10
109.4972
 20
177.6234
  0
VERTEX
  8
LAYER_1
 10
109.4591
 20
178.0203
  0
SEQEND
  0
POLYLINE
  8
LAYER_1
 40
0.1058
 41
0.1058
 66
1
 10
0
 20
0
 30
0
  0
VERTEX
  8
LAYER_1
 10
111.4795
 20
175.9999
  0
VERTEX
  8
LAYER_1
 10
120.578
 20
175.9999
  0
VERTEX
  8
LAYER_1
 10
120.578
 20
187.4962
  0
VERTEX
  8
LAYER_1
 10
109.4591
 20
187.4962
  0
SEQEND
  0
POLYLINE
  8
LAYER_1
 40
0.1058
 41
0.1058
 66
1
 10
0
 20
0
 30
0
  0
VERTEX
  8
LAYER_1
 10
76.0281
 20
187.4962
  0
VERTEX
  8
LAYER_1
 10
76.0281
 20
178.0203
  0
SEQEND
  0
POLYLINE
  8
LAYER_1
 40
0.1058
 41
0.1058
 66
1
 10
0
 20
0
 30
0
  0
VERTEX
  8
LAYER_1
 10
78.0483
 20
175.9999
  0
VERTEX
  8
LAYER_1
 10
77.6514
 20
176.0377
 42
-0.3002199024
  0
VERTEX
  8
LAYER_1
 10
76.0667
 20
177.6234
  0
VERTEX
  8
LAYER_1
 10
76.0279
 20
178.0203
  0
SEQEND
  0
POLYLINE
  8
LAYER_1
 40
0.1058
 41
0.1058
 66
1
 10
0
 20
0
 30
0
  0
VERTEX
  8
LAYER_1
 10
78.0483
 20
175.9999
  0
VERTEX
  8
LAYER_1
 10
85.1271
 20
175.9999
  0
SEQEND
  0
POLYLINE
  8
LAYER_1
 40
0.1058
 41
0.1058
 66
1
 10
0
 20
0
 30
0
  0
VERTEX
  8
LAYER_1
 10
87.1468
 20
178.0201
  0
VERTEX
  8
LAYER_1
 10
87.0903
 20
177.6233
 42
-0.1057349942
  0
VERTEX
  8
LAYER_1
 10
86.7676
 20
176.8427
 42
-0.1536593082
  0
VERTEX
  8
LAYER_1
 10
85.8385
 20
176.1366
 42
-0.03598024113
  0
VERTEX
  8
LAYER_1
 10
85.505
 20
176.0378
  0
VERTEX
  8
LAYER_1
 10
85.1271
 20
175.9998
  0
SEQEND
  0
POLYLINE
  8
LAYER_1
 40
0.1058
 41
0.1058
 66
1
 10
0
 20
0
 30
0
  0
VERTEX
  8
LAYER_1
 10
87.1468
 20
178.0201
  0
VERTEX
  8
LAYER_1
 10
87.1468
 20
187.496
  0
VERTEX
  8
LAYER_1
 10
76.0279
 20
187.496
  0
SEQEND
  0
POLYLINE
  8
LAYER_1
 40
0.1058
 41
0.1058
 66
1
 10
0
 20
0
 30
0
 70
1
  0
VERTEX
  8
LAYER_1
 10
76.0281
 20
130.9222
  0
VERTEX
  8
LAYER_1
 10
76.0281
 20
140.4169
  0
VERTEX
  8
LAYER_1
 10
76.0665
 20
140.8131
 42
-0.2932539512
  0
VERTEX
  8
LAYER_1
 10
77.6516
 20
142.3992
  0
VERTEX
  8
LAYER_1
 10
78.0485
 20
142.4366
  0
VERTEX
  8
LAYER_1
 10
85.1273
 20
142.4366
 42
-0.1508800099
  0
VERTEX
  8
LAYER_1
 10
86.3017
 20
142.0559
 42
-0.191830486
  0
VERTEX
  8
LAYER_1
 10
87.0901
 20
140.8131
  0
VERTEX
  8
LAYER_1
 10
87.147
 20
140.4169
  0
VERTEX
  8
LAYER_1
 10
87.147
 20
130.9222
  0
SEQEND
  0
POLYLINE
  8
LAYER_1
 40
0.1058
 41
0.1058
 66
1
 10
0
 20
0
 30
0
 70
1
  0
VERTEX
  8
LAYER_1
 10
53.697
 20
187.4962
  0
VERTEX
  8
LAYER_1
 10
53.697
 20
178.0203
 42
-0.411291013
  0
VERTEX
  8
LAYER_1
 10
51.6769
 20
175.9999
  0
VERTEX
  8
LAYER_1
 10
42.5785
 20
175.9999
  0
VERTEX
  8
LAYER_1
 10
42.5785
 20
187.4962
  0
SEQEND
  0
POLYLINE
  8
LAYER_1
 40
0.1058
 41
0.1058
 66
1
 10
0
 20
0
 30
0
 70
1
  0
VERTEX
  8
LAYER_1
 10
109.4593
 20
130.9222
  0
VERTEX
  8
LAYER_1
 10
109.4593
 20
140.4169
 42
-0.1597708105
  0
VERTEX
  8
LAYER_1
 10
109.817
 20
141.5588
 42
-0.1897496483
  0
VERTEX
  8
LAYER_1
 10
111.1046
 20
142.405
 42
-0.05126145953
  0
VERTEX
  8
LAYER_1
 10
111.4797
 20
142.4366
  0
VERTEX
  8
LAYER_1
 10
120.5782
 20
142.4366
  0
VERTEX
  8
LAYER_1
 10
120.5782
 20
130.9222
  0
SEQEND
  0
POLYLINE
  8
LAYER_1
 40
0.1058
 41
0.1058
 66
1
 10
0
 20
0
 30
0
  0
VERTEX
  8
LAYER_1
 10
53.697
 20
130.9222
  0
VERTEX
  8
LAYER_1
 10
53.697
 20
140.4169
  0
SEQEND
  0
POLYLINE
  8
LAYER_1
 40
0.1058
 41
0.1058
 66
1
 10
0
 20
0
 30
0
  0
VERTEX
  8
LAYER_1
 10
51.6771
 20
142.4364
  0
VERTEX
  8
LAYER_1
 10
52.0737
 20
142.3994
 42
-0.1618320325
  0
VERTEX
  8
LAYER_1
 10
53.1456
 20
141.8087
 42
-0.1377683171
  0
VERTEX
  8
LAYER_1
 10
53.6594
 20
140.8129
  0
VERTEX
  8
LAYER_1
 10
53.6972
 20
140.4168
  0
SEQEND
  0
POLYLINE
  8
LAYER_1
 40
0.1058
 41
0.1058
 66
1
 10
0
 20
0
 30
0
  0
VERTEX
  8
LAYER_1
 10
51.6771
 20
142.4364
  0
VERTEX
  8
LAYER_1
 10
42.5786
 20
142.4364
  0
VERTEX
  8
LAYER_1
 10
42.5786
 20
130.9214
  0
VERTEX
  8
LAYER_1
 10
53.6972
 20
130.9214
  0
SEQEND
  0
POLYLINE
  8
LAYER_1
 40
0.1058
 41
0.1058
 66
1
 10
0
 20
0
 30
0
 70
1
  0
VERTEX
  8
LAYER_1
 10
48.8459
 20
180.0397
  0
VERTEX
  8
LAYER_1
 10
48.8833
 20
180.2848
  0
VERTEX
  8
LAYER_1
 10
48.9968
 20
180.5116
 42
-0.159894144
  0
VERTEX
  8
LAYER_1
 10
49.4882
 20
180.8203
 42
-0.3677546214
  0
VERTEX
  8
LAYER_1
 10
50.431
 20
180.2848
  0
VERTEX
  8
LAYER_1
 10
50.4694
 20
180.0397
  0
VERTEX
  8
LAYER_1
 10
50.431
 20
179.7945
 42
-0.6109732957
  0
VERTEX
  8
LAYER_1
 10
48.9968
 20
179.5677
  0
VERTEX
  8
LAYER_1
 10
48.8833
 20
179.7945
  0
SEQEND
  0
POLYLINE
  8
LAYER_1
 40
0.1058
 41
0.1058
 66
1
 10
0
 20
0
 30
0
 70
1
  0
VERTEX
  8
LAYER_1
 10
112.706
 20
180.0397
  0
VERTEX
  8
LAYER_1
 10
112.7437
 20
180.2848
  0
VERTEX
  8
LAYER_1
 10
112.8577
 20
180.5116
 42
-0.2454160192
  0
VERTEX
  8
LAYER_1
 10
113.5646
 20
180.8404
 42
-0.2970045935
  0
VERTEX
  8
LAYER_1
 10
114.2726
 20
180.2848
  0
VERTEX
  8
LAYER_1
 10
114.3107
 20
180.0397
  0
VERTEX
  8
LAYER_1
 10
114.2726
 20
179.7945
 42
-0.5646367506
  0
VERTEX
  8
LAYER_1
 10
112.8577
 20
179.5677
  0
VERTEX
  8
LAYER_1
 10
112.7437
 20
179.7945
  0
SEQEND
  0
POLYLINE
  8
LAYER_1
 40
0.1058
 41
0.1058
 66
1
 10
0
 20
0
 30
0
  0
VERTEX
  8
LAYER_1
 10
49.6573
 20
175.9999
  0
VERTEX
  8
LAYER_1
 10
49.6573
 20
142.4363
  0
SEQEND
  0
POLYLINE
  8
LAYER_1
 40
0.1058
 41
0.1058
 66
1
 10
0
 20
0
 30
0
 70
1
  0
VERTEX
  8
LAYER_1
 10
48.8459
 20
138.3974
  0
VERTEX
  8
LAYER_1
 10
48.8833
 20
138.6425
  0
VERTEX
  8
LAYER_1
 10
48.9968
 20
138.8687
 42
-0.6110897025
  0
VERTEX
  8
LAYER_1
 10
50.431
 20
138.6425
  0
VERTEX
  8
LAYER_1
 10
50.4694
 20
138.3974
  0
VERTEX
  8
LAYER_1
 10
50.431
 20
138.1523
 42
-0.6106898557
  0
VERTEX
  8
LAYER_1
 10
48.9968
 20
137.9254
  0
VERTEX
  8
LAYER_1
 10
48.8833
 20
138.1523
  0
SEQEND
  0
POLYLINE
  8
LAYER_1
 40
0.1058
 41
0.1058
 66
1
 10
0
 20
0
 30
0
 70
1
  0
VERTEX
  8
LAYER_1
 10
112.706
 20
138.3974
  0
VERTEX
  8
LAYER_1
 10
112.7437
 20
138.6425
  0
VERTEX
  8
LAYER_1
 10
112.8577
 20
138.8687
 42
-0.3330679089
  0
VERTEX
  8
LAYER_1
 10
113.7513
 20
139.1738
 42
-0.2477060494
  0
VERTEX
  8
LAYER_1
 10
114.2726
 20
138.6425
  0
VERTEX
  8
LAYER_1
 10
114.3107
 20
138.3974
  0
VERTEX
  8
LAYER_1
 10
114.2726
 20
138.1523
 42
-0.5648703825
  0
VERTEX
  8
LAYER_1
 10
112.8577
 20
137.9254
  0
VERTEX
  8
LAYER_1
 10
112.7437
 20
138.1523
  0
SEQEND
  0
POLYLINE
  8
LAYER_1
 40
0.1058
 41
0.1058
 62
252
 66
1
 10
0
 20
0
 30
0
  0
VERTEX
  8
LAYER_1
 10
108.8557
 20
175.9806
  0
VERTEX
  8
LAYER_1
 10
108.346
 20
175.9806
  0
SEQEND
  0
POLYLINE
  8
LAYER_1
 40
0.1058
 41
0.1058
 62
252
 66
1
 10
0
 20
0
 30
0
  0
VERTEX
  8
LAYER_1
 10
107.8553
 20
175.9806
  0
VERTEX
  8
LAYER_1
 10
106.8353
 20
175.9806
  0
SEQEND
  0
POLYLINE
  8
LAYER_1
 40
0.1058
 41
0.1058
 62
252
 66
1
 10
0
 20
0
 30
0
  0
VERTEX
  8
LAYER_1
 10
106.3256
 20
175.9806
  0
VERTEX
  8
LAYER_1
 10
105.3252
 20
175.9806
  0
SEQEND
  0
POLYLINE
  8
LAYER_1
 40
0.1058
 41
0.1058
 62
252
 66
1
 10
0
 20
0
 30
0
  0
VERTEX
  8
LAYER_1
 10
104.8153
 20
175.9806
  0
VERTEX
  8
LAYER_1
 10
103.8149
 20
175.9806
  0
SEQEND
  0
POLYLINE
  8
LAYER_1
 40
0.1058
 41
0.1058
 62
252
 66
1
 10
0
 20
0
 30
0
  0
VERTEX
  8
LAYER_1
 10
103.3057
 20
175.9806
  0
VERTEX
  8
LAYER_1
 10
102.2864
 20
175.9806
  0
SEQEND
  0
POLYLINE
  8
LAYER_1
 40
0.1058
 41
0.1058
 62
252
 66
1
 10
0
 20
0
 30
0
  0
VERTEX
  8
LAYER_1
 10
101.796
 20
175.9806
  0
VERTEX
  8
LAYER_1
 10
100.7761
 20
175.9806
  0
SEQEND
  0
POLYLINE
  8
LAYER_1
 40
0.1058
 41
0.1058
 62
252
 66
1
 10
0
 20
0
 30
0
  0
VERTEX
  8
LAYER_1
 10
100.2664
 20
175.9806
  0
VERTEX
  8
LAYER_1
 10
99.2659
 20
175.9806
  0
SEQEND
  0
POLYLINE
  8
LAYER_1
 40
0.1058
 41
0.1058
 62
252
 66
1
 10
0
 20
0
 30
0
  0
VERTEX
  8
LAYER_1
 10
98.7561
 20
175.9806
  0
VERTEX
  8
LAYER_1
 10
97.7368
 20
175.9806
  0
SEQEND
  0
POLYLINE
  8
LAYER_1
 40
0.1058
 41
0.1058
 62
252
 66
1
 10
0
 20
0
 30
0
  0
VERTEX
  8
LAYER_1
 10
97.2457
 20
175.9806
  0
VERTEX
  8
LAYER_1
 10
96.2265
 20
175.9806
  0
SEQEND
  0
POLYLINE
  8
LAYER_1
 40
0.1058
 41
0.1058
 62
252
 66
1
 10
0
 20
0
 30
0
  0
VERTEX
  8
LAYER_1
 10
95.7175
 20
175.9806
  0
VERTEX
  8
LAYER_1
 10
94.717
 20
175.9806
  0
SEQEND
  0
POLYLINE
  8
LAYER_1
 40
0.1058
 41
0.1058
 62
252
 66
1
 10
0
 20
0
 30
0
  0
VERTEX
  8
LAYER_1
 10
94.2072
 20
175.9806
  0
VERTEX
  8
LAYER_1
 10
93.2067
 20
175.9806
  0
SEQEND
  0
POLYLINE
  8
LAYER_1
 40
0.1058
 41
0.1058
 62
252
 66
1
 10
0
 20
0
 30
0
  0
VERTEX
  8
LAYER_1
 10
92.6968
 20
175.9806
  0
VERTEX
  8
LAYER_1
 10
91.6769
 20
175.9806
  0
SEQEND
  0
POLYLINE
  8
LAYER_1
 40
0.1058
 41
0.1058
 62
252
 66
1
 10
0
 20
0
 30
0
  0
VERTEX
  8
LAYER_1
 10
91.1865
 20
175.9806
  0
VERTEX
  8
LAYER_1
 10
90.1673
 20
175.9806
  0
SEQEND
  0
POLYLINE
  8
LAYER_1
 40
0.1058
 41
0.1058
 62
252
 66
1
 10
0
 20
0
 30
0
  0
VERTEX
  8
LAYER_1
 10
89.6576
 20
175.9806
  0
VERTEX
  8
LAYER_1
 10
88.6571
 20
175.9806
  0
SEQEND
  0
POLYLINE
  8
LAYER_1
 40
0.1058
 41
0.1058
 62
252
 66
1
 10
0
 20
0
 30
0
  0
VERTEX
  8
LAYER_1
 10
88.1479
 20
175.9806
  0
VERTEX
  8
LAYER_1
 10
87.1475
 20
175.9806
  0
SEQEND
  0
POLYLINE
  8
LAYER_1
 40
0.1058
 41
0.1058
 62
252
 66
1
 10
0
 20
0
 30
0
  0
VERTEX
  8
LAYER_1
 10
86.6376
 20
175.9806
  0
VERTEX
  8
LAYER_1
 10
85.6177
 20
175.9806
  0
SEQEND
  0
POLYLINE
  8
LAYER_1
 40
0.1058
 41
0.1058
 62
252
 66
1
 10
0
 20
0
 30
0
  0
VERTEX
  8
LAYER_1
 10
85.1273
 20
175.9806
  0
VERTEX
  8
LAYER_1
 10
84.1074
 20
175.9806
  0
SEQEND
  0
POLYLINE
  8
LAYER_1
 40
0.1058
 41
0.1058
 62
252
 66
1
 10
0
 20
0
 30
0
  0
VERTEX
  8
LAYER_1
 10
83.5977
 20
175.9806
  0
VERTEX
  8
LAYER_1
 10
82.5979
 20
175.9806
  0
SEQEND
  0
POLYLINE
  8
LAYER_1
 40
0.1058
 41
0.1058
 62
252
 66
1
 10
0
 20
0
 30
0
  0
VERTEX
  8
LAYER_1
 10
82.088
 20
175.9806
  0
VERTEX
  8
LAYER_1
 10
81.0688
 20
175.9806
  0
SEQEND
  0
POLYLINE
  8
LAYER_1
 40
0.1058
 41
0.1058
 62
252
 66
1
 10
0
 20
0
 30
0
  0
VERTEX
  8
LAYER_1
 10
80.5777
 20
175.9806
  0
VERTEX
  8
LAYER_1
 10
79.5585
 20
175.9806
  0
SEQEND
  0
POLYLINE
  8
LAYER_1
 40
0.1058
 41
0.1058
 62
252
 66
1
 10
0
 20
0
 30
0
  0
VERTEX
  8
LAYER_1
 10
79.0487
 20
175.9806
  0
VERTEX
  8
LAYER_1
 10
78.0483
 20
175.9806
  0
SEQEND
  0
POLYLINE
  8
LAYER_1
 40
0.1058
 41
0.1058
 62
252
 66
1
 10
0
 20
0
 30
0
  0
VERTEX
  8
LAYER_1
 10
77.5384
 20
175.9806
  0
VERTEX
  8
LAYER_1
 10
76.538
 20
175.9806
  0
SEQEND
  0
POLYLINE
  8
LAYER_1
 40
0.1058
 41
0.1058
 62
252
 66
1
 10
0
 20
0
 30
0
  0
VERTEX
  8
LAYER_1
 10
76.0281
 20
175.9806
  0
VERTEX
  8
LAYER_1
 10
75.0095
 20
175.9806
  0
SEQEND
  0
POLYLINE
  8
LAYER_1
 40
0.1058
 41
0.1058
 62
252
 66
1
 10
0
 20
0
 30
0
  0
VERTEX
  8
LAYER_1
 10
74.5184
 20
175.9806
  0
VERTEX
  8
LAYER_1
 10
73.4992
 20
175.9806
  0
SEQEND
  0
POLYLINE
  8
LAYER_1
 40
0.1058
 41
0.1058
 62
252
 66
1
 10
0
 20
0
 30
0
  0
VERTEX
  8
LAYER_1
 10
72.9895
 20
175.9806
  0
VERTEX
  8
LAYER_1
 10
71.9891
 20
175.9806
  0
SEQEND
  0
POLYLINE
  8
LAYER_1
 40
0.1058
 41
0.1058
 62
252
 66
1
 10
0
 20
0
 30
0
  0
VERTEX
  8
LAYER_1
 10
71.4792
 20
175.9806
  0
VERTEX
  8
LAYER_1
 10
70.4787
 20
175.9806
  0
SEQEND
  0
POLYLINE
  8
LAYER_1
 40
0.1058
 41
0.1058
 62
252
 66
1
 10
0
 20
0
 30
0
  0
VERTEX
  8
LAYER_1
 10
69.9689
 20
175.9806
  0
VERTEX
  8
LAYER_1
 10
68.9496
 20
175.9806
  0
SEQEND
  0
POLYLINE
  8
LAYER_1
 40
0.1058
 41
0.1058
 62
252
 66
1
 10
0
 20
0
 30
0
  0
VERTEX
  8
LAYER_1
 10
68.4406
 20
175.9806
  0
VERTEX
  8
LAYER_1
 10
67.4395
 20
175.9806
  0
SEQEND
  0
POLYLINE
  8
LAYER_1
 40
0.1058
 41
0.1058
 62
252
 66
1
 10
0
 20
0
 30
0
  0
VERTEX
  8
LAYER_1
 10
66.9303
 20
175.9806
  0
VERTEX
  8
LAYER_1
 10
65.9298
 20
175.9806
  0
SEQEND
  0
POLYLINE
  8
LAYER_1
 40
0.1058
 41
0.1058
 62
252
 66
1
 10
0
 20
0
 30
0
  0
VERTEX
  8
LAYER_1
 10
65.42
 20
175.9806
  0
VERTEX
  8
LAYER_1
 10
64.4
 20
175.9806
  0
SEQEND
  0
POLYLINE
  8
LAYER_1
 40
0.1058
 41
0.1058
 62
252
 66
1
 10
0
 20
0
 30
0
  0
VERTEX
  8
LAYER_1
 10
63.9096
 20
175.9806
  0
VERTEX
  8
LAYER_1
 10
62.8897
 20
175.9806
  0
SEQEND
  0
POLYLINE
  8
LAYER_1
 40
0.1058
 41
0.1058
 62
252
 66
1
 10
0
 20
0
 30
0
  0
VERTEX
  8
LAYER_1
 10
62.38
 20
175.9806
  0
VERTEX
  8
LAYER_1
 10
61.3802
 20
175.9806
  0
SEQEND
  0
POLYLINE
  8
LAYER_1
 40
0.1058
 41
0.1058
 62
252
 66
1
 10
0
 20
0
 30
0
  0
VERTEX
  8
LAYER_1
 10
60.8704
 20
175.9806
  0
VERTEX
  8
LAYER_1
 10
59.8706
 20
175.9806
  0
SEQEND
  0
POLYLINE
  8
LAYER_1
 40
0.1058
 41
0.1058
 62
252
 66
1
 10
0
 20
0
 30
0
  0
VERTEX
  8
LAYER_1
 10
59.3607
 20
175.9806
  0
VERTEX
  8
LAYER_1
 10
58.3408
 20
175.9806
  0
SEQEND
  0
POLYLINE
  8
LAYER_1
 40
0.1058
 41
0.1058
 62
252
 66
1
 10
0
 20
0
 30
0
  0
VERTEX
  8
LAYER_1
 10
57.8504
 20
175.9806
  0
VERTEX
  8
LAYER_1
 10
56.8305
 20
175.9806
  0
SEQEND
  0
POLYLINE
  8
LAYER_1
 40
0.1058
 41
0.1058
 62
252
 66
1
 10
0
 20
0
 30
0
  0
VERTEX
  8
LAYER_1
 10
56.3208
 20
175.9806
  0
VERTEX
  8
LAYER_1
 10
55.3203
 20
175.9806
  0
SEQEND
  0
POLYLINE
  8
LAYER_1
 40
0.1058
 41
0.1058
 62
252
 66
1
 10
0
 20
0
 30
0
  0
VERTEX
  8
LAYER_1
 10
54.8111
 20
175.9806
  0
VERTEX
  8
LAYER_1
 10
54.3014
 20
175.9806
  0
SEQEND
  0
POLYLINE
  8
LAYER_1
 40
0.1058
 41
0.1058
 62
252
 66
1
 10
0
 20
0
 30
0
  0
VERTEX
  8
LAYER_1
 10
113.9145
 20
184.0601
  0
VERTEX
  8
LAYER_1
 10
112.8946
 20
184.0601
  0
SEQEND
  0
POLYLINE
  8
LAYER_1
 40
0.1058
 41
0.1058
 62
252
 66
1
 10
0
 20
0
 30
0
  0
VERTEX
  8
LAYER_1
 10
108.8557
 20
175.9806
  0
VERTEX
  8
LAYER_1
 10
109.1203
 20
175.9436
  0
VERTEX
  8
LAYER_1
 10
109.3654
 20
175.849
  0
SEQEND
  0
POLYLINE
  8
LAYER_1
 40
0.1058
 41
0.1058
 62
252
 66
1
 10
0
 20
0
 30
0
  0
VERTEX
  8
LAYER_1
 10
109.7239
 20
175.4901
  0
VERTEX
  8
LAYER_1
 10
109.7433
 20
175.4713
  0
VERTEX
  8
LAYER_1
 10
109.8367
 20
175.2448
  0
VERTEX
  8
LAYER_1
 10
109.8756
 20
174.9802
  0
SEQEND
  0
POLYLINE
  8
LAYER_1
 40
0.1058
 41
0.1058
 62
252
 66
1
 10
0
 20
0
 30
0
  0
VERTEX
  8
LAYER_1
 10
113.9145
 20
185.0798
  0
VERTEX
  8
LAYER_1
 10
112.8946
 20
185.0798
  0
SEQEND
  0
POLYLINE
  8
LAYER_1
 40
0.1058
 41
0.1058
 62
252
 66
1
 10
0
 20
0
 30
0
  0
VERTEX
  8
LAYER_1
 10
53.3008
 20
169.1662
  0
VERTEX
  8
LAYER_1
 10
53.3008
 20
168.147
  0
SEQEND
  0
POLYLINE
  8
LAYER_1
 40
0.1058
 41
0.1058
 62
252
 66
1
 10
0
 20
0
 30
0
  0
VERTEX
  8
LAYER_1
 10
53.3008
 20
167.6566
  0
VERTEX
  8
LAYER_1
 10
53.3008
 20
166.6367
  0
SEQEND
  0
POLYLINE
  8
LAYER_1
 40
0.1058
 41
0.1058
 62
252
 66
1
 10
0
 20
0
 30
0
  0
VERTEX
  8
LAYER_1
 10
53.3008
 20
166.1277
  0
VERTEX
  8
LAYER_1
 10
53.3008
 20
165.1272
  0
SEQEND
  0
POLYLINE
  8
LAYER_1
 40
0.1058
 41
0.1058
 62
252
 66
1
 10
0
 20
0
 30
0
  0
VERTEX
  8
LAYER_1
 10
53.3008
 20
164.6173
  0
VERTEX
  8
LAYER_1
 10
53.3008
 20
163.6169
  0
SEQEND
  0
POLYLINE
  8
LAYER_1
 40
0.1058
 41
0.1058
 62
252
 66
1
 10
0
 20
0
 30
0
  0
VERTEX
  8
LAYER_1
 10
53.3008
 20
163.107
  0
VERTEX
  8
LAYER_1
 10
53.3008
 20
162.0878
  0
SEQEND
  0
POLYLINE
  8
LAYER_1
 40
0.1058
 41
0.1058
 62
252
 66
1
 10
0
 20
0
 30
0
  0
VERTEX
  8
LAYER_1
 10
53.3008
 20
161.5967
  0
VERTEX
  8
LAYER_1
 10
53.3008
 20
160.5775
  0
SEQEND
  0
POLYLINE
  8
LAYER_1
 40
0.1058
 41
0.1058
 62
252
 66
1
 10
0
 20
0
 30
0
  0
VERTEX
  8
LAYER_1
 10
53.3008
 20
160.0677
  0
VERTEX
  8
LAYER_1
 10
53.3008
 20
159.0673
  0
SEQEND
  0
POLYLINE
  8
LAYER_1
 40
0.1058
 41
0.1058
 62
252
 66
1
 10
0
 20
0
 30
0
  0
VERTEX
  8
LAYER_1
 10
53.3008
 20
158.5581
  0
VERTEX
  8
LAYER_1
 10
53.3008
 20
157.5577
  0
SEQEND
  0
POLYLINE
  8
LAYER_1
 40
0.1058
 41
0.1058
 62
252
 66
1
 10
0
 20
0
 30
0
  0
VERTEX
  8
LAYER_1
 10
53.3008
 20
157.0478
  0
VERTEX
  8
LAYER_1
 10
53.3008
 20
156.0279
  0
SEQEND
  0
POLYLINE
  8
LAYER_1
 40
0.1058
 41
0.1058
 62
252
 66
1
 10
0
 20
0
 30
0
  0
VERTEX
  8
LAYER_1
 10
53.3008
 20
155.5374
  0
VERTEX
  8
LAYER_1
 10
53.3008
 20
154.5175
  0
SEQEND
  0
POLYLINE
  8
LAYER_1
 40
0.1058
 41
0.1058
 62
252
 66
1
 10
0
 20
0
 30
0
  0
VERTEX
  8
LAYER_1
 10
53.3008
 20
154.0085
  0
VERTEX
  8
LAYER_1
 10
53.3008
 20
153.0081
  0
SEQEND
  0
POLYLINE
  8
LAYER_1
 40
0.1058
 41
0.1058
 62
252
 66
1
 10
0
 20
0
 30
0
  0
VERTEX
  8
LAYER_1
 10
53.3008
 20
152.4982
  0
VERTEX
  8
LAYER_1
 10
53.3008
 20
151.479
  0
SEQEND
  0
POLYLINE
  8
LAYER_1
 40
0.1058
 41
0.1058
 62
252
 66
1
 10
0
 20
0
 30
0
  0
VERTEX
  8
LAYER_1
 10
53.3008
 20
150.9885
  0
VERTEX
  8
LAYER_1
 10
53.3008
 20
149.9686
  0
SEQEND
  0
POLYLINE
  8
LAYER_1
 40
0.1058
 41
0.1058
 62
252
 66
1
 10
0
 20
0
 30
0
  0
VERTEX
  8
LAYER_1
 10
53.3008
 20
149.4589
  0
VERTEX
  8
LAYER_1
 10
53.3008
 20
148.4585
  0
SEQEND
  0
POLYLINE
  8
LAYER_1
 40
0.1058
 41
0.1058
 62
252
 66
1
 10
0
 20
0
 30
0
  0
VERTEX
  8
LAYER_1
 10
53.3008
 20
147.9486
  0
VERTEX
  8
LAYER_1
 10
53.3008
 20
146.9481
  0
SEQEND
  0
POLYLINE
  8
LAYER_1
 40
0.1058
 41
0.1058
 62
252
 66
1
 10
0
 20
0
 30
0
  0
VERTEX
  8
LAYER_1
 10
53.3008
 20
146.439
  0
VERTEX
  8
LAYER_1
 10
53.3008
 20
145.419
  0
SEQEND
  0
POLYLINE
  8
LAYER_1
 40
0.1058
 41
0.1058
 62
252
 66
1
 10
0
 20
0
 30
0
  0
VERTEX
  8
LAYER_1
 10
53.3008
 20
144.9286
  0
VERTEX
  8
LAYER_1
 10
53.3008
 20
143.9094
  0
SEQEND
  0
POLYLINE
  8
LAYER_1
 40
0.1058
 41
0.1058
 62
252
 66
1
 10
0
 20
0
 30
0
  0
VERTEX
  8
LAYER_1
 10
53.3008
 20
143.3997
  0
VERTEX
  8
LAYER_1
 10
53.3008
 20
142.6444
  0
SEQEND
  0
POLYLINE
  8
LAYER_1
 40
0.1058
 41
0.1058
 62
252
 66
1
 10
0
 20
0
 30
0
  0
VERTEX
  8
LAYER_1
 10
53.3008
 20
174.9809
  0
VERTEX
  8
LAYER_1
 10
53.3385
 20
175.2448
  0
VERTEX
  8
LAYER_1
 10
53.4331
 20
175.4716
  0
VERTEX
  8
LAYER_1
 10
53.4331
 20
175.4906
  0
SEQEND
  0
POLYLINE
  8
LAYER_1
 40
0.1058
 41
0.1058
 62
252
 66
1
 10
0
 20
0
 30
0
  0
VERTEX
  8
LAYER_1
 10
53.7917
 20
175.849
  0
VERTEX
  8
LAYER_1
 10
54.0372
 20
175.9436
  0
VERTEX
  8
LAYER_1
 10
54.3014
 20
175.9813
  0
SEQEND
  0
POLYLINE
  8
LAYER_1
 40
0.1058
 41
0.1058
 62
252
 66
1
 10
0
 20
0
 30
0
  0
VERTEX
  8
LAYER_1
 10
54.3013
 20
141.6441
  0
VERTEX
  8
LAYER_1
 10
54.811
 20
141.6441
  0
SEQEND
  0
POLYLINE
  8
LAYER_1
 40
0.1058
 41
0.1058
 62
252
 66
1
 10
0
 20
0
 30
0
  0
VERTEX
  8
LAYER_1
 10
55.3203
 20
141.6441
  0
VERTEX
  8
LAYER_1
 10
56.3208
 20
141.6441
  0
SEQEND
  0
POLYLINE
  8
LAYER_1
 40
0.1058
 41
0.1058
 62
252
 66
1
 10
0
 20
0
 30
0
  0
VERTEX
  8
LAYER_1
 10
56.8306
 20
141.6441
  0
VERTEX
  8
LAYER_1
 10
57.8506
 20
141.6441
  0
SEQEND
  0
POLYLINE
  8
LAYER_1
 40
0.1058
 41
0.1058
 62
252
 66
1
 10
0
 20
0
 30
0
  0
VERTEX
  8
LAYER_1
 10
58.341
 20
141.6441
  0
VERTEX
  8
LAYER_1
 10
59.3609
 20
141.6441
  0
SEQEND
  0
POLYLINE
  8
LAYER_1
 40
0.1058
 41
0.1058
 62
252
 66
1
 10
0
 20
0
 30
0
  0
VERTEX
  8
LAYER_1
 10
59.8706
 20
141.6441
  0
VERTEX
  8
LAYER_1
 10
60.871
 20
141.6441
  0
SEQEND
  0
POLYLINE
  8
LAYER_1
 40
0.1058
 41
0.1058
 62
252
 66
1
 10
0
 20
0
 30
0
  0
VERTEX
  8
LAYER_1
 10
61.3802
 20
141.6441
  0
VERTEX
  8
LAYER_1
 10
62.3807
 20
141.6441
  0
SEQEND
  0
POLYLINE
  8
LAYER_1
 40
0.1058
 41
0.1058
 62
252
 66
1
 10
0
 20
0
 30
0
  0
VERTEX
  8
LAYER_1
 10
62.8899
 20
141.6441
  0
VERTEX
  8
LAYER_1
 10
63.9098
 20
141.6441
  0
SEQEND
  0
POLYLINE
  8
LAYER_1
 40
0.1058
 41
0.1058
 62
252
 66
1
 10
0
 20
0
 30
0
  0
VERTEX
  8
LAYER_1
 10
64.4002
 20
141.6441
  0
VERTEX
  8
LAYER_1
 10
65.4201
 20
141.6441
  0
SEQEND
  0
POLYLINE
  8
LAYER_1
 40
0.1058
 41
0.1058
 62
252
 66
1
 10
0
 20
0
 30
0
  0
VERTEX
  8
LAYER_1
 10
65.9298
 20
141.6441
  0
VERTEX
  8
LAYER_1
 10
66.9303
 20
141.6441
  0
SEQEND
  0
POLYLINE
  8
LAYER_1
 40
0.1058
 41
0.1058
 62
252
 66
1
 10
0
 20
0
 30
0
  0
VERTEX
  8
LAYER_1
 10
67.4402
 20
141.6441
  0
VERTEX
  8
LAYER_1
 10
68.4406
 20
141.6441
  0
SEQEND
  0
POLYLINE
  8
LAYER_1
 40
0.1058
 41
0.1058
 62
252
 66
1
 10
0
 20
0
 30
0
  0
VERTEX
  8
LAYER_1
 10
68.9498
 20
141.6441
  0
VERTEX
  8
LAYER_1
 10
69.969
 20
141.6441
  0
SEQEND
  0
POLYLINE
  8
LAYER_1
 40
0.1058
 41
0.1058
 62
252
 66
1
 10
0
 20
0
 30
0
  0
VERTEX
  8
LAYER_1
 10
70.4787
 20
141.6441
  0
VERTEX
  8
LAYER_1
 10
71.4792
 20
141.6441
  0
SEQEND
  0
POLYLINE
  8
LAYER_1
 40
0.1058
 41
0.1058
 62
252
 66
1
 10
0
 20
0
 30
0
  0
VERTEX
  8
LAYER_1
 10
71.9891
 20
141.6441
  0
VERTEX
  8
LAYER_1
 10
72.9895
 20
141.6441
  0
SEQEND
  0
POLYLINE
  8
LAYER_1
 40
0.1058
 41
0.1058
 62
252
 66
1
 10
0
 20
0
 30
0
  0
VERTEX
  8
LAYER_1
 10
73.4994
 20
141.6441
  0
VERTEX
  8
LAYER_1
 10
74.5186
 20
141.6441
  0
SEQEND
  0
POLYLINE
  8
LAYER_1
 40
0.1058
 41
0.1058
 62
252
 66
1
 10
0
 20
0
 30
0
  0
VERTEX
  8
LAYER_1
 10
75.0097
 20
141.6441
  0
VERTEX
  8
LAYER_1
 10
76.0283
 20
141.6441
  0
SEQEND
  0
POLYLINE
  8
LAYER_1
 40
0.1058
 41
0.1058
 62
252
 66
1
 10
0
 20
0
 30
0
  0
VERTEX
  8
LAYER_1
 10
76.538
 20
141.6441
  0
VERTEX
  8
LAYER_1
 10
77.5384
 20
141.6441
  0
SEQEND
  0
POLYLINE
  8
LAYER_1
 40
0.1058
 41
0.1058
 62
252
 66
1
 10
0
 20
0
 30
0
  0
VERTEX
  8
LAYER_1
 10
78.0483
 20
141.6441
  0
VERTEX
  8
LAYER_1
 10
79.0487
 20
141.6441
  0
SEQEND
  0
POLYLINE
  8
LAYER_1
 40
0.1058
 41
0.1058
 62
252
 66
1
 10
0
 20
0
 30
0
  0
VERTEX
  8
LAYER_1
 10
79.5586
 20
141.6441
  0
VERTEX
  8
LAYER_1
 10
80.5785
 20
141.6441
  0
SEQEND
  0
POLYLINE
  8
LAYER_1
 40
0.1058
 41
0.1058
 62
252
 66
1
 10
0
 20
0
 30
0
  0
VERTEX
  8
LAYER_1
 10
81.069
 20
141.6441
  0
VERTEX
  8
LAYER_1
 10
82.0882
 20
141.6441
  0
SEQEND
  0
POLYLINE
  8
LAYER_1
 40
0.1058
 41
0.1058
 62
252
 66
1
 10
0
 20
0
 30
0
  0
VERTEX
  8
LAYER_1
 10
82.5979
 20
141.6441
  0
VERTEX
  8
LAYER_1
 10
83.5983
 20
141.6441
  0
SEQEND
  0
POLYLINE
  8
LAYER_1
 40
0.1058
 41
0.1058
 62
252
 66
1
 10
0
 20
0
 30
0
  0
VERTEX
  8
LAYER_1
 10
84.1075
 20
141.6441
  0
VERTEX
  8
LAYER_1
 10
85.1274
 20
141.6441
  0
SEQEND
  0
POLYLINE
  8
LAYER_1
 40
0.1058
 41
0.1058
 62
252
 66
1
 10
0
 20
0
 30
0
  0
VERTEX
  8
LAYER_1
 10
85.6179
 20
141.6441
  0
VERTEX
  8
LAYER_1
 10
86.6378
 20
141.6441
  0
SEQEND
  0
POLYLINE
  8
LAYER_1
 40
0.1058
 41
0.1058
 62
252
 66
1
 10
0
 20
0
 30
0
  0
VERTEX
  8
LAYER_1
 10
87.1475
 20
141.6441
  0
VERTEX
  8
LAYER_1
 10
88.1479
 20
141.6441
  0
SEQEND
  0
POLYLINE
  8
LAYER_1
 40
0.1058
 41
0.1058
 62
252
 66
1
 10
0
 20
0
 30
0
  0
VERTEX
  8
LAYER_1
 10
88.6578
 20
141.6441
  0
VERTEX
  8
LAYER_1
 10
89.6576
 20
141.6441
  0
SEQEND
  0
POLYLINE
  8
LAYER_1
 40
0.1058
 41
0.1058
 62
252
 66
1
 10
0
 20
0
 30
0
  0
VERTEX
  8
LAYER_1
 10
90.1675
 20
141.6441
  0
VERTEX
  8
LAYER_1
 10
91.1867
 20
141.6441
  0
SEQEND
  0
POLYLINE
  8
LAYER_1
 40
0.1058
 41
0.1058
 62
252
 66
1
 10
0
 20
0
 30
0
  0
VERTEX
  8
LAYER_1
 10
91.6771
 20
141.6441
  0
VERTEX
  8
LAYER_1
 10
92.697
 20
141.6441
  0
SEQEND
  0
POLYLINE
  8
LAYER_1
 40
0.1058
 41
0.1058
 62
252
 66
1
 10
0
 20
0
 30
0
  0
VERTEX
  8
LAYER_1
 10
93.2067
 20
141.6441
  0
VERTEX
  8
LAYER_1
 10
94.2072
 20
141.6441
  0
SEQEND
  0
POLYLINE
  8
LAYER_1
 40
0.1058
 41
0.1058
 62
252
 66
1
 10
0
 20
0
 30
0
  0
VERTEX
  8
LAYER_1
 10
94.717
 20
141.6441
  0
VERTEX
  8
LAYER_1
 10
95.7175
 20
141.6441
  0
SEQEND
  0
POLYLINE
  8
LAYER_1
 40
0.1058
 41
0.1058
 62
252
 66
1
 10
0
 20
0
 30
0
  0
VERTEX
  8
LAYER_1
 10
96.2267
 20
141.6441
  0
VERTEX
  8
LAYER_1
 10
97.2459
 20
141.6441
  0
SEQEND
  0
POLYLINE
  8
LAYER_1
 40
0.1058
 41
0.1058
 62
252
 66
1
 10
0
 20
0
 30
0
  0
VERTEX
  8
LAYER_1
 10
97.737
 20
141.6441
  0
VERTEX
  8
LAYER_1
 10
98.7562
 20
141.6441
  0
SEQEND
  0
POLYLINE
  8
LAYER_1
 40
0.1058
 41
0.1058
 62
252
 66
1
 10
0
 20
0
 30
0
  0
VERTEX
  8
LAYER_1
 10
99.2659
 20
141.6441
  0
VERTEX
  8
LAYER_1
 10
100.2664
 20
141.6441
  0
SEQEND
  0
POLYLINE
  8
LAYER_1
 40
0.1058
 41
0.1058
 62
252
 66
1
 10
0
 20
0
 30
0
  0
VERTEX
  8
LAYER_1
 10
100.7763
 20
141.6441
  0
VERTEX
  8
LAYER_1
 10
101.7962
 20
141.6441
  0
SEQEND
  0
POLYLINE
  8
LAYER_1
 40
0.1058
 41
0.1058
 62
252
 66
1
 10
0
 20
0
 30
0
  0
VERTEX
  8
LAYER_1
 10
102.2866
 20
141.6441
  0
VERTEX
  8
LAYER_1
 10
103.3065
 20
141.6441
  0
SEQEND
  0
POLYLINE
  8
LAYER_1
 40
0.1058
 41
0.1058
 62
252
 66
1
 10
0
 20
0
 30
0
  0
VERTEX
  8
LAYER_1
 10
103.8149
 20
141.6441
  0
VERTEX
  8
LAYER_1
 10
104.816
 20
141.6441
  0
SEQEND
  0
POLYLINE
  8
LAYER_1
 40
0.1058
 41
0.1058
 62
252
 66
1
 10
0
 20
0
 30
0
  0
VERTEX
  8
LAYER_1
 10
105.3252
 20
141.6441
  0
VERTEX
  8
LAYER_1
 10
106.3256
 20
141.6441
  0
SEQEND
  0
POLYLINE
  8
LAYER_1
 40
0.1058
 41
0.1058
 62
252
 66
1
 10
0
 20
0
 30
0
  0
VERTEX
  8
LAYER_1
 10
106.8355
 20
141.6441
  0
VERTEX
  8
LAYER_1
 10
107.8554
 20
141.6441
  0
SEQEND
  0
POLYLINE
  8
LAYER_1
 40
0.1058
 41
0.1058
 62
252
 66
1
 10
0
 20
0
 30
0
  0
VERTEX
  8
LAYER_1
 10
108.3458
 20
141.6441
  0
VERTEX
  8
LAYER_1
 10
108.8555
 20
141.6441
  0
SEQEND
  0
POLYLINE
  8
LAYER_1
 40
0.1058
 41
0.1058
 62
252
 66
1
 10
0
 20
0
 30
0
  0
VERTEX
  8
LAYER_1
 10
54.3013
 20
141.6441
  0
VERTEX
  8
LAYER_1
 10
54.037
 20
141.6818
  0
VERTEX
  8
LAYER_1
 10
53.7919
 20
141.7764
  0
SEQEND
  0
POLYLINE
  8
LAYER_1
 40
0.1058
 41
0.1058
 62
252
 66
1
 10
0
 20
0
 30
0
  0
VERTEX
  8
LAYER_1
 10
53.4327
 20
142.1346
  0
VERTEX
  8
LAYER_1
 10
53.3385
 20
142.3806
  0
VERTEX
  8
LAYER_1
 10
53.3008
 20
142.6444
  0
SEQEND
  0
POLYLINE
  8
LAYER_1
 40
0.1058
 41
0.1058
 62
252
 66
1
 10
0
 20
0
 30
0
  0
VERTEX
  8
LAYER_1
 10
109.8748
 20
142.6445
  0
VERTEX
  8
LAYER_1
 10
109.8371
 20
142.3806
  0
VERTEX
  8
LAYER_1
 10
109.7432
 20
142.1348
  0
VERTEX
  8
LAYER_1
 10
109.7239
 20
142.1348
  0
SEQEND
  0
POLYLINE
  8
LAYER_1
 40
0.1058
 41
0.1058
 62
252
 66
1
 10
0
 20
0
 30
0
  0
VERTEX
  8
LAYER_1
 10
109.3656
 20
141.7764
  0
VERTEX
  8
LAYER_1
 10
109.1196
 20
141.6818
  0
VERTEX
  8
LAYER_1
 10
108.8559
 20
141.6441
  0
SEQEND
  0
POLYLINE
  8
LAYER_1
 40
0.1058
 41
0.1058
 62
252
 66
1
 10
0
 20
0
 30
0
  0
VERTEX
  8
LAYER_1
 10
109.8748
 20
142.6445
  0
VERTEX
  8
LAYER_1
 10
109.8748
 20
143.3999
  0
SEQEND
  0
POLYLINE
  8
LAYER_1
 40
0.1058
 41
0.1058
 62
252
 66
1
 10
0
 20
0
 30
0
  0
VERTEX
  8
LAYER_1
 10
109.8748
 20
143.8903
  0
VERTEX
  8
LAYER_1
 10
109.8748
 20
144.9102
  0
SEQEND
  0
POLYLINE
  8
LAYER_1
 40
0.1058
 41
0.1058
 62
252
 66
1
 10
0
 20
0
 30
0
  0
VERTEX
  8
LAYER_1
 10
109.8748
 20
145.4192
  0
VERTEX
  8
LAYER_1
 10
109.8748
 20
146.4203
  0
SEQEND
  0
POLYLINE
  8
LAYER_1
 40
0.1058
 41
0.1058
 62
252
 66
1
 10
0
 20
0
 30
0
  0
VERTEX
  8
LAYER_1
 10
109.8748
 20
146.9295
  0
VERTEX
  8
LAYER_1
 10
109.8748
 20
147.93
  0
SEQEND
  0
POLYLINE
  8
LAYER_1
 40
0.1058
 41
0.1058
 62
252
 66
1
 10
0
 20
0
 30
0
  0
VERTEX
  8
LAYER_1
 10
109.8748
 20
148.4399
  0
VERTEX
  8
LAYER_1
 10
109.8748
 20
149.1952
  0
VERTEX
  8
LAYER_1
 10
109.8936
 20
149.4403
  0
VERTEX
  8
LAYER_1
 10
109.9885
 20
149.6672
  0
VERTEX
  8
LAYER_1
 10
110.1199
 20
149.856
  0
VERTEX
  8
LAYER_1
 10
110.3087
 20
150.0253
  0
VERTEX
  8
LAYER_1
 10
111.3472
 20
150.7424
  0
SEQEND
  0
POLYLINE
  8
LAYER_1
 40
0.1058
 41
0.1058
 62
252
 66
1
 10
0
 20
0
 30
0
  0
VERTEX
  8
LAYER_1
 10
111.762
 20
151.0258
  0
VERTEX
  8
LAYER_1
 10
112.5928
 20
151.592
  0
SEQEND
  0
POLYLINE
  8
LAYER_1
 40
0.1058
 41
0.1058
 62
252
 66
1
 10
0
 20
0
 30
0
  0
VERTEX
  8
LAYER_1
 10
113.0084
 20
151.8753
  0
VERTEX
  8
LAYER_1
 10
113.8389
 20
152.4603
  0
SEQEND
  0
POLYLINE
  8
LAYER_1
 40
0.1058
 41
0.1058
 62
252
 66
1
 10
0
 20
0
 30
0
  0
VERTEX
  8
LAYER_1
 10
114.2542
 20
152.7435
  0
VERTEX
  8
LAYER_1
 10
115.2924
 20
153.4607
  0
SEQEND
  0
POLYLINE
  8
LAYER_1
 40
0.1058
 41
0.1058
 62
252
 66
1
 10
0
 20
0
 30
0
  0
VERTEX
  8
LAYER_1
 10
115.7266
 20
154.2917
  0
VERTEX
  8
LAYER_1
 10
115.7071
 20
154.0466
  0
VERTEX
  8
LAYER_1
 10
115.6138
 20
153.8197
  0
VERTEX
  8
LAYER_1
 10
115.4815
 20
153.6123
  0
VERTEX
  8
LAYER_1
 10
115.2927
 20
153.4609
  0
SEQEND
  0
POLYLINE
  8
LAYER_1
 40
0.1058
 41
0.1058
 62
252
 66
1
 10
0
 20
0
 30
0
  0
VERTEX
  8
LAYER_1
 10
115.7266
 20
154.2917
  0
VERTEX
  8
LAYER_1
 10
115.7266
 20
155.5373
  0
SEQEND
  0
POLYLINE
  8
LAYER_1
 40
0.1058
 41
0.1058
 62
252
 66
1
 10
0
 20
0
 30
0
  0
VERTEX
  8
LAYER_1
 10
115.7266
 20
156.028
  0
VERTEX
  8
LAYER_1
 10
115.7266
 20
157.048
  0
SEQEND
  0
POLYLINE
  8
LAYER_1
 40
0.1058
 41
0.1058
 62
252
 66
1
 10
0
 20
0
 30
0
  0
VERTEX
  8
LAYER_1
 10
115.7266
 20
157.5577
  0
VERTEX
  8
LAYER_1
 10
115.7266
 20
158.5581
  0
SEQEND
  0
POLYLINE
  8
LAYER_1
 40
0.1058
 41
0.1058
 62
252
 66
1
 10
0
 20
0
 30
0
  0
VERTEX
  8
LAYER_1
 10
115.7266
 20
159.0673
  0
VERTEX
  8
LAYER_1
 10
115.7266
 20
160.0677
  0
SEQEND
  0
POLYLINE
  8
LAYER_1
 40
0.1058
 41
0.1058
 62
252
 66
1
 10
0
 20
0
 30
0
  0
VERTEX
  8
LAYER_1
 10
115.7266
 20
160.5776
  0
VERTEX
  8
LAYER_1
 10
115.7266
 20
161.5969
  0
SEQEND
  0
POLYLINE
  8
LAYER_1
 40
0.1058
 41
0.1058
 62
252
 66
1
 10
0
 20
0
 30
0
  0
VERTEX
  8
LAYER_1
 10
115.7266
 20
162.088
  0
VERTEX
  8
LAYER_1
 10
115.7266
 20
163.3335
  0
SEQEND
  0
POLYLINE
  8
LAYER_1
 40
0.1058
 41
0.1058
 62
252
 66
1
 10
0
 20
0
 30
0
  0
VERTEX
  8
LAYER_1
 10
115.2925
 20
164.164
  0
VERTEX
  8
LAYER_1
 10
115.4813
 20
163.9946
  0
VERTEX
  8
LAYER_1
 10
115.6136
 20
163.8055
  0
VERTEX
  8
LAYER_1
 10
115.7073
 20
163.579
  0
VERTEX
  8
LAYER_1
 10
115.7264
 20
163.3335
  0
SEQEND
  0
POLYLINE
  8
LAYER_1
 40
0.1058
 41
0.1058
 62
252
 66
1
 10
0
 20
0
 30
0
  0
VERTEX
  8
LAYER_1
 10
115.2925
 20
164.164
  0
VERTEX
  8
LAYER_1
 10
114.2544
 20
164.8812
  0
SEQEND
  0
POLYLINE
  8
LAYER_1
 40
0.1058
 41
0.1058
 62
252
 66
1
 10
0
 20
0
 30
0
  0
VERTEX
  8
LAYER_1
 10
113.8387
 20
165.1644
  0
VERTEX
  8
LAYER_1
 10
113.0083
 20
165.7306
  0
SEQEND
  0
POLYLINE
  8
LAYER_1
 40
0.1058
 41
0.1058
 62
252
 66
1
 10
0
 20
0
 30
0
  0
VERTEX
  8
LAYER_1
 10
112.593
 20
166.0333
  0
VERTEX
  8
LAYER_1
 10
111.7622
 20
166.5991
  0
SEQEND
  0
POLYLINE
  8
LAYER_1
 40
0.1058
 41
0.1058
 62
252
 66
1
 10
0
 20
0
 30
0
  0
VERTEX
  8
LAYER_1
 10
111.3472
 20
166.8821
  0
VERTEX
  8
LAYER_1
 10
110.309
 20
167.5994
  0
VERTEX
  8
LAYER_1
 10
110.1199
 20
167.7698
  0
VERTEX
  8
LAYER_1
 10
109.9883
 20
167.9584
  0
VERTEX
  8
LAYER_1
 10
109.8934
 20
168.1849
  0
VERTEX
  8
LAYER_1
 10
109.8748
 20
168.4305
  0
VERTEX
  8
LAYER_1
 10
109.8748
 20
169.1854
  0
SEQEND
  0
POLYLINE
  8
LAYER_1
 40
0.1058
 41
0.1058
 62
252
 66
1
 10
0
 20
0
 30
0
  0
VERTEX
  8
LAYER_1
 10
109.8748
 20
169.6761
  0
VERTEX
  8
LAYER_1
 10
109.8748
 20
170.696
  0
SEQEND
  0
POLYLINE
  8
LAYER_1
 40
0.1058
 41
0.1058
 62
252
 66
1
 10
0
 20
0
 30
0
  0
VERTEX
  8
LAYER_1
 10
109.8748
 20
171.2051
  0
VERTEX
  8
LAYER_1
 10
109.8748
 20
172.2055
  0
SEQEND
  0
POLYLINE
  8
LAYER_1
 40
0.1058
 41
0.1058
 62
252
 66
1
 10
0
 20
0
 30
0
  0
VERTEX
  8
LAYER_1
 10
109.8748
 20
172.7154
  0
VERTEX
  8
LAYER_1
 10
109.8748
 20
173.7346
  0
SEQEND
  0
POLYLINE
  8
LAYER_1
 40
0.1058
 41
0.1058
 62
252
 66
1
 10
0
 20
0
 30
0
  0
VERTEX
  8
LAYER_1
 10
109.8748
 20
174.2257
  0
VERTEX
  8
LAYER_1
 10
109.8748
 20
174.9811
  0
SEQEND
  0
POLYLINE
  8
LAYER_1
 40
0.1058
 41
0.1058
 62
252
 66
1
 10
0
 20
0
 30
0
  0
VERTEX
  8
LAYER_1
 10
47.2412
 20
158.8034
  0
VERTEX
  8
LAYER_1
 10
47.2789
 20
159.1996
  0
VERTEX
  8
LAYER_1
 10
47.3926
 20
159.577
  0
VERTEX
  8
LAYER_1
 10
47.5055
 20
159.8226
  0
SEQEND
  0
POLYLINE
  8
LAYER_1
 40
0.1058
 41
0.1058
 62
252
 66
1
 10
0
 20
0
 30
0
  0
VERTEX
  8
LAYER_1
 10
47.8265
 20
160.2379
  0
VERTEX
  8
LAYER_1
 10
48.1282
 20
160.4831
  0
VERTEX
  8
LAYER_1
 10
48.487
 20
160.6718
  0
VERTEX
  8
LAYER_1
 10
48.7321
 20
160.7476
  0
SEQEND
  0
POLYLINE
  8
LAYER_1
 40
0.1058
 41
0.1058
 62
252
 66
1
 10
0
 20
0
 30
0
  0
VERTEX
  8
LAYER_1
 10
49.2611
 20
160.8229
  0
VERTEX
  8
LAYER_1
 10
49.6573
 20
160.7852
  0
VERTEX
  8
LAYER_1
 10
50.0347
 20
160.672
  0
VERTEX
  8
LAYER_1
 10
50.2615
 20
160.559
  0
SEQEND
  0
POLYLINE
  8
LAYER_1
 40
0.1058
 41
0.1058
 62
252
 66
1
 10
0
 20
0
 30
0
  0
VERTEX
  8
LAYER_1
 10
50.6767
 20
160.2379
  0
VERTEX
  8
LAYER_1
 10
50.9409
 20
159.9356
  0
VERTEX
  8
LAYER_1
 10
51.1297
 20
159.5772
  0
VERTEX
  8
LAYER_1
 10
51.2055
 20
159.332
  0
SEQEND
  0
POLYLINE
  8
LAYER_1
 40
0.1058
 41
0.1058
 62
252
 66
1
 10
0
 20
0
 30
0
  0
VERTEX
  8
LAYER_1
 10
51.2809
 20
158.8034
  0
VERTEX
  8
LAYER_1
 10
51.2432
 20
158.426
  0
VERTEX
  8
LAYER_1
 10
51.1295
 20
158.0481
  0
VERTEX
  8
LAYER_1
 10
50.9976
 20
157.8029
  0
SEQEND
  0
POLYLINE
  8
LAYER_1
 40
0.1058
 41
0.1058
 62
252
 66
1
 10
0
 20
0
 30
0
  0
VERTEX
  8
LAYER_1
 10
50.6767
 20
157.3875
  0
VERTEX
  8
LAYER_1
 10
50.3747
 20
157.1229
  0
VERTEX
  8
LAYER_1
 10
50.035
 20
156.9536
  0
VERTEX
  8
LAYER_1
 10
49.7711
 20
156.8778
  0
SEQEND
  0
POLYLINE
  8
LAYER_1
 40
0.1058
 41
0.1058
 62
252
 66
1
 10
0
 20
0
 30
0
  0
VERTEX
  8
LAYER_1
 10
49.2611
 20
156.7832
  0
VERTEX
  8
LAYER_1
 10
48.8645
 20
156.8209
  0
VERTEX
  8
LAYER_1
 10
48.4871
 20
156.9532
  0
VERTEX
  8
LAYER_1
 10
48.2412
 20
157.0664
  0
SEQEND
  0
POLYLINE
  8
LAYER_1
 40
0.1058
 41
0.1058
 62
252
 66
1
 10
0
 20
0
 30
0
  0
VERTEX
  8
LAYER_1
 10
47.8265
 20
157.3875
  0
VERTEX
  8
LAYER_1
 10
47.5814
 20
157.6891
  0
VERTEX
  8
LAYER_1
 10
47.3926
 20
158.0482
  0
VERTEX
  8
LAYER_1
 10
47.3168
 20
158.2934
  0
SEQEND
  0
POLYLINE
  8
LAYER_1
 40
0.1058
 41
0.1058
 62
252
 66
1
 10
0
 20
0
 30
0
  0
VERTEX
  8
LAYER_1
 10
86.7313
 20
177.0762
  0
VERTEX
  8
LAYER_1
 10
87.4493
 20
176.3777
  0
SEQEND
  0
POLYLINE
  8
LAYER_1
 40
0.1058
 41
0.1058
 62
252
 66
1
 10
0
 20
0
 30
0
  0
VERTEX
  8
LAYER_1
 10
53.5271
 20
140.1337
  0
VERTEX
  8
LAYER_1
 10
53.4517
 20
140.1902
  0
VERTEX
  8
LAYER_1
 10
52.7721
 20
140.8131
  0
SEQEND
  0
POLYLINE
  8
LAYER_1
 40
0.1764
 41
0.1764
 66
1
 10
0
 20
0
 30
0
 70
1
  0
VERTEX
  8
LAYER_1
 10
122.2139
 20
65.3266
  0
VERTEX
  8
LAYER_1
 10
42.2141
 20
65.3266
  0
VERTEX
  8
LAYER_1
 10
42.2141
 20
73.3261
  0
VERTEX
  8
LAYER_1
 10
122.2139
 20
73.3261
  0
SEQEND
  0
CIRCLE
  8
LAYER_1
 10
106.5785
 20
158.8034
 40
3.4999
  0
CIRCLE
  8
LAYER_1
 10
69.3074
 20
158.7669
 40
7.5004
  0
POLYLINE
  8
LAYER_1
  6
AIGENLINE002
 40
0.1058
 41
0.1058
 62
252
 66
1
 10
0
 20
0
 30
0
 70
128
  0
VERTEX
  8
LAYER_1
 10
53.3191
 20
174.9809
  0
VERTEX
  8
LAYER_1
 10
53.3191
 20
174.2255
  0
SEQEND
  0
POLYLINE
  8
LAYER_1
  6
AIGENLINE002
 40
0.1058
 41
0.1058
 62
252
 66
1
 10
0
 20
0
 30
0
 70
128
  0
VERTEX
  8
LAYER_1
 10
53.3191
 20
173.7158
  0
VERTEX
  8
LAYER_1
 10
53.3191
 20
172.6966
  0
SEQEND
  0
POLYLINE
  8
LAYER_1
  6
AIGENLINE002
 40
0.1058
 41
0.1058
 62
252
 66
1
 10
0
 20
0
 30
0
 70
128
  0
VERTEX
  8
LAYER_1
 10
53.3191
 20
172.2055
  0
VERTEX
  8
LAYER_1
 10
53.3191
 20
171.1863
  0
SEQEND
  0
POLYLINE
  8
LAYER_1
  6
AIGENLINE002
 40
0.1058
 41
0.1058
 62
252
 66
1
 10
0
 20
0
 30
0
 70
128
  0
VERTEX
  8
LAYER_1
 10
53.3191
 20
170.6766
  0
VERTEX
  8
LAYER_1
 10
53.3191
 20
169.6761
  0
SEQEND
  0
CIRCLE
  8
LAYER_1
  6
AIGENLINE001
 10
69.3281
 20
158.7669
 40
4.5999
  0
CIRCLE
  8
LAYER_1
  6
AIGENLINE001
 10
69.3462
 20
158.7669
 40
7.0778
  0
CIRCLE
  8
LAYER_1
  6
AIGENLINE001
 10
69.3281
 20
158.7855
 40
25
  0
CIRCLE
  8
LAYER_1
  6
AIGENLINE001
 10
69.3279
 20
158.7855
 40
24.1999
  0
CIRCLE
  8
LAYER_1
  6
AIGENLINE001
 10
69.3282
 20
158.7855
 40
21.5
  0
POLYLINE
  8
LAYER_1
 40
0.0776
 41
0.0776
 66
1
 10
0
 20
0
 30
0
  0
VERTEX
  8
LAYER_1
 10
69.2716
 20
158.7855
  0
VERTEX
  8
LAYER_1
 10
69.3076
 20
158.7855
  0
SEQEND
  0
POLYLINE
  8
LAYER_1
 40
0.0776
 41
0.0776
 66
1
 10
0
 20
0
 30
0
  0
VERTEX
  8
LAYER_1
 10
69.2895
 20
158.7669
  0
VERTEX
  8
LAYER_1
 10
69.2895
 20
158.8036
  0
SEQEND
  0
POLYLINE
  8
LAYER_1
 40
0.0776
 41
0.0776
 66
1
 10
0
 20
0
 30
0
  0
VERTEX
  8
LAYER_1
 10
69.2716
 20
158.7855
  0
VERTEX
  8
LAYER_1
 10
69.3076
 20
158.7855
  0
SEQEND
  0
POLYLINE
  8
LAYER_1
 40
0.0776
 41
0.0776
 66
1
 10
0
 20
0
 30
0
  0
VERTEX
  8
LAYER_1
 10
69.2895
 20
158.7669
  0
VERTEX
  8
LAYER_1
 10
69.2895
 20
158.8036
  0
SEQEND
  0
POLYLINE
  8
LAYER_1
  6
AIGENLINE001
 40
0.1058
 41
0.1058
 66
1
 10
0
 20
0
 30
0
 70
128
  0
VERTEX
  8
LAYER_1
 10
47.5358
 20
76.9779
  0
VERTEX
  8
LAYER_1
 10
91.1264
 20
76.9779
 42
0.4141767362
  0
VERTEX
  8
LAYER_1
 10
91.3264
 20
77.1777
  0
SEQEND
  0
POLYLINE
  8
LAYER_1
  6
AIGENLINE001
 40
0.1058
 41
0.1058
 66
1
 10
0
 20
0
 30
0
 70
128
  0
VERTEX
  8
LAYER_1
 10
47.3353
 20
77.1777
 42
0.4142526277
  0
VERTEX
  8
LAYER_1
 10
47.5353
 20
76.9779
  0
SEQEND
  0
POLYLINE
  8
LAYER_1
  6
AIGENLINE001
 40
0.1058
 41
0.1058
 66
1
 10
0
 20
0
 30
0
 70
128
  0
VERTEX
  8
LAYER_1
 10
44.9361
 20
99.9732
  0
VERTEX
  8
LAYER_1
 10
93.7262
 20
99.9732
  0
SEQEND
  0
POLYLINE
  8
LAYER_1
  6
AIGENLINE001
 40
0.1058
 41
0.1058
 66
1
 10
0
 20
0
 30
0
 70
128
  0
VERTEX
  8
LAYER_1
 10
44.9361
 20
77.977
  0
VERTEX
  8
LAYER_1
 10
93.7262
 20
77.977
  0
SEQEND
  0
POLYLINE
  8
LAYER_1
  6
AIGENLINE001
 40
0.1058
 41
0.1058
 66
1
 10
0
 20
0
 30
0
 70
128
  0
VERTEX
  8
LAYER_1
 10
44.3363
 20
78.5778
 42
0.4142179043
  0
VERTEX
  8
LAYER_1
 10
44.9356
 20
77.9784
  0
SEQEND
  0
POLYLINE
  8
LAYER_1
  6
AIGENLINE001
 40
0.1058
 41
0.1058
 66
1
 10
0
 20
0
 30
0
 70
128
  0
VERTEX
  8
LAYER_1
 10
93.7262
 20
77.977
 42
0.3935366333
  0
VERTEX
  8
LAYER_1
 10
94.3257
 20
78.5778
  0
VERTEX
  8
LAYER_1
 10
94.3257
 20
99.3738
 42
0.4142201906
  0
VERTEX
  8
LAYER_1
 10
93.7262
 20
99.9732
  0
SEQEND
  0
POLYLINE
  8
LAYER_1
  6
AIGENLINE001
 40
0.1058
 41
0.1058
 66
1
 10
0
 20
0
 30
0
 70
128
  0
VERTEX
  8
LAYER_1
 10
91.3264
 20
77.1777
  0
VERTEX
  8
LAYER_1
 10
91.3264
 20
77.977
  0
SEQEND
  0
POLYLINE
  8
LAYER_1
  6
AIGENLINE001
 40
0.1058
 41
0.1058
 66
1
 10
0
 20
0
 30
0
 70
128
  0
VERTEX
  8
LAYER_1
 10
44.3363
 20
78.5778
  0
VERTEX
  8
LAYER_1
 10
44.3363
 20
99.3738
  0
SEQEND
  0
POLYLINE
  8
LAYER_1
  6
AIGENLINE001
 40
0.1058
 41
0.1058
 66
1
 10
0
 20
0
 30
0
 70
128
  0
VERTEX
  8
LAYER_1
 10
44.9361
 20
99.9732
 42
0.414202
  0
VERTEX
  8
LAYER_1
 10
44.3363
 20
99.3738
  0
SEQEND
  0
POLYLINE
  8
LAYER_1
  6
AIGENLINE001
 40
0.1058
 41
0.1058
 66
1
 10
0
 20
0
 30
0
 70
128
  0
VERTEX
  8
LAYER_1
 10
47.3353
 20
77.1777
  0
VERTEX
  8
LAYER_1
 10
47.3353
 20
77.977
  0
SEQEND
  0
POLYLINE
  8
LAYER_1
  6
AIGENLINE001
 40
0.1058
 41
0.1058
 66
1
 10
0
 20
0
 30
0
 70
128
  0
VERTEX
  8
LAYER_1
 10
69.3308
 20
76.9779
  0
SEQEND
  0
POLYLINE
  8
LAYER_1
  6
AIGENLINE001
 40
0.1058
 41
0.1058
 66
1
 10
0
 20
0
 30
0
 70
128
  0
VERTEX
  8
LAYER_1
 10
44.3363
 20
99.9732
  0
SEQEND
  0
POLYLINE
  8
LAYER_1
  6
AIGENLINE001
 40
0.1058
 41
0.1058
 66
1
 10
0
 20
0
 30
0
 70
128
  0
VERTEX
  8
LAYER_1
 10
44.3363
 20
77.977
  0
SEQEND
  0
POLYLINE
  8
LAYER_1
  6
AIGENLINE001
 40
0.1058
 41
0.1058
 66
1
 10
0
 20
0
 30
0
 70
128
  0
VERTEX
  8
LAYER_1
 10
44.3363
 20
77.977
  0
SEQEND
  0
POLYLINE
  8
LAYER_1
  6
AIGENLINE001
 40
0.1058
 41
0.1058
 66
1
 10
0
 20
0
 30
0
 70
128
  0
VERTEX
  8
LAYER_1
 10
47.3353
 20
76.9779
  0
SEQEND
  0
POLYLINE
  8
LAYER_1
  6
AIGENLINE001
 40
0.1058
 41
0.1058
 66
1
 10
0
 20
0
 30
0
 70
128
  0
VERTEX
  8
LAYER_1
 10
47.3353
 20
76.9779
  0
SEQEND
  0
POLYLINE
  8
LAYER_1
  6
AIGENLINE001
 40
0.1058
 41
0.1058
 66
1
 10
0
 20
0
 30
0
 70
128
  0
VERTEX
  8
LAYER_1
 10
91.3264
 20
76.9779
  0
SEQEND
  0
POLYLINE
  8
LAYER_1
  6
AIGENLINE001
 40
0.1058
 41
0.1058
 66
1
 10
0
 20
0
 30
0
 70
128
  0
VERTEX
  8
LAYER_1
 10
44.3363
 20
77.977
  0
SEQEND
  0
POLYLINE
  8
LAYER_1
  6
AIGENLINE001
 40
0.1058
 41
0.1058
 66
1
 10
0
 20
0
 30
0
 70
128
  0
VERTEX
  8
LAYER_1
 10
47.3353
 20
76.9779
  0
SEQEND
  0
POLYLINE
  8
LAYER_1
  6
AIGENLINE001
 40
0.1058
 41
0.1058
 66
1
 10
0
 20
0
 30
0
 70
128
  0
VERTEX
  8
LAYER_1
 10
91.3264
 20
76.9779
  0
SEQEND
  0
POLYLINE
  8
LAYER_1
  6
AIGENLINE001
 40
0.1058
 41
0.1058
 66
1
 10
0
 20
0
 30
0
 70
128
  0
VERTEX
  8
LAYER_1
 10
94.3257
 20
77.977
  0
SEQEND
  0
POLYLINE
  8
LAYER_1
  6
AIGENLINE001
 40
0.1058
 41
0.1058
 66
1
 10
0
 20
0
 30
0
 70
128
  0
VERTEX
  8
LAYER_1
 10
71.3297
 20
81.9774
  0
VERTEX
  8
LAYER_1
 10
73.0004
 20
81.9774
  0
SEQEND
  0
POLYLINE
  8
LAYER_1
  6
AIGENLINE001
 40
0.1058
 41
0.1058
 66
1
 10
0
 20
0
 30
0
 70
128
  0
VERTEX
  8
LAYER_1
 10
71.3297
 20
99.9732
  0
VERTEX
  8
LAYER_1
 10
73.0004
 20
99.9732
  0
SEQEND
  0
POLYLINE
  8
LAYER_1
  6
AIGENLINE001
 40
0.1058
 41
0.1058
 66
1
 10
0
 20
0
 30
0
 70
128
  0
VERTEX
  8
LAYER_1
 10
69.3308
 20
81.9774
  0
SEQEND
  0
POLYLINE
  8
LAYER_1
  6
AIGENLINE001
 40
0.1058
 41
0.1058
 66
1
 10
0
 20
0
 30
0
 70
128
  0
VERTEX
  8
LAYER_1
 10
69.3308
 20
99.9732
  0
SEQEND
  0
POLYLINE
  8
LAYER_1
  6
AIGENLINE001
 40
0.1058
 41
0.1058
 66
1
 10
0
 20
0
 30
0
 70
128
  0
VERTEX
  8
LAYER_1
 10
72.9647
 20
99.9732
  0
SEQEND
  0
POLYLINE
  8
LAYER_1
  6
AIGENLINE001
 40
0.1058
 41
0.1058
 66
1
 10
0
 20
0
 30
0
 70
128
  0
VERTEX
  8
LAYER_1
 10
44.3363
 20
99.5998
  0
SEQEND
  0
POLYLINE
  8
LAYER_1
  6
AIGENLINE001
 40
0.1058
 41
0.1058
 66
1
 10
0
 20
0
 30
0
 70
128
  0
VERTEX
  8
LAYER_1
 10
45.1924
 20
99.608
  0
SEQEND
  0
POLYLINE
  8
LAYER_1
  6
AIGENLINE001
 40
0.1058
 41
0.1058
 66
1
 10
0
 20
0
 30
0
 70
128
  0
VERTEX
  8
LAYER_1
 10
44.3363
 20
99.4826
  0
SEQEND
  0
POLYLINE
  8
LAYER_1
  6
AIGENLINE001
 40
0.1058
 41
0.1058
 66
1
 10
0
 20
0
 30
0
 70
128
  0
VERTEX
  8
LAYER_1
 10
94.3257
 20
99.3738
  0
SEQEND
  0
POLYLINE
  8
LAYER_1
  6
AIGENLINE001
 40
0.1058
 41
0.1058
 66
1
 10
0
 20
0
 30
0
 70
128
  0
VERTEX
  8
LAYER_1
 10
94.3257
 20
99.3738
  0
SEQEND
  0
POLYLINE
  8
LAYER_1
  6
AIGENLINE001
 40
0.1058
 41
0.1058
 66
1
 10
0
 20
0
 30
0
 70
128
  0
VERTEX
  8
LAYER_1
 10
93.4727
 20
99.6039
  0
SEQEND
  0
POLYLINE
  8
LAYER_1
  6
AIGENLINE001
 40
0.1058
 41
0.1058
 66
1
 10
0
 20
0
 30
0
 70
128
  0
VERTEX
  8
LAYER_1
 10
91.1259
 20
76.9738
  0
SEQEND
  0
POLYLINE
  8
LAYER_1
  6
AIGENLINE001
 40
0.1058
 41
0.1058
 66
1
 10
0
 20
0
 30
0
 70
128
  0
VERTEX
  8
LAYER_1
 10
92.825
 20
99.9663
  0
SEQEND
  0
POLYLINE
  8
LAYER_1
  6
AIGENLINE001
 40
0.1058
 41
0.1058
 66
1
 10
0
 20
0
 30
0
 70
128
  0
VERTEX
  8
LAYER_1
 10
64.8315
 20
79.9531
  0
VERTEX
  8
LAYER_1
 10
64.8315
 20
79.6292
  0
SEQEND
  0
POLYLINE
  8
LAYER_1
  6
AIGENLINE001
 40
0.1058
 41
0.1058
 66
1
 10
0
 20
0
 30
0
 70
128
  0
VERTEX
  8
LAYER_1
 10
64.8315
 20
79.253
  0
VERTEX
  8
LAYER_1
 10
64.8315
 20
78.6894
  0
SEQEND
  0
POLYLINE
  8
LAYER_1
  6
AIGENLINE001
 40
0.1058
 41
0.1058
 66
1
 10
0
 20
0
 30
0
 70
128
  0
VERTEX
  8
LAYER_1
 10
64.8315
 20
78.5006
  0
VERTEX
  8
LAYER_1
 10
64.8315
 20
78.1782
  0
SEQEND
  0
POLYLINE
  8
LAYER_1
  6
AIGENLINE001
 40
0.1058
 41
0.1058
 66
1
 10
0
 20
0
 30
0
 70
128
  0
VERTEX
  8
LAYER_1
 10
73.8294
 20
79.9517
  0
VERTEX
  8
LAYER_1
 10
73.8294
 20
79.6292
  0
SEQEND
  0
POLYLINE
  8
LAYER_1
  6
AIGENLINE001
 40
0.1058
 41
0.1058
 66
1
 10
0
 20
0
 30
0
 70
128
  0
VERTEX
  8
LAYER_1
 10
73.8294
 20
79.253
  0
VERTEX
  8
LAYER_1
 10
73.8294
 20
78.6894
  0
SEQEND
  0
POLYLINE
  8
LAYER_1
  6
AIGENLINE001
 40
0.1058
 41
0.1058
 66
1
 10
0
 20
0
 30
0
 70
128
  0
VERTEX
  8
LAYER_1
 10
73.8294
 20
78.5006
  0
VERTEX
  8
LAYER_1
 10
73.8294
 20
78.1782
  0
SEQEND
  0
POLYLINE
  8
LAYER_1
  6
AIGENLINE001
 40
0.1058
 41
0.1058
 66
1
 10
0
 20
0
 30
0
 70
128
  0
VERTEX
  8
LAYER_1
 10
76.4043
 20
81.9774
 42
0.1668768319
  0
VERTEX
  8
LAYER_1
 10
76.1051
 20
81.8603
  0
SEQEND
  0
POLYLINE
  8
LAYER_1
  6
AIGENLINE001
 40
0.1058
 41
0.1058
 66
1
 10
0
 20
0
 30
0
 70
128
  0
VERTEX
  8
LAYER_1
 10
73.8294
 20
78.1782
 42
0.3927308442
  0
VERTEX
  8
LAYER_1
 10
74.0284
 20
77.9784
  0
SEQEND
  0
POLYLINE
  8
LAYER_1
  6
AIGENLINE001
 40
0.1058
 41
0.1058
 66
1
 10
0
 20
0
 30
0
 70
128
  0
VERTEX
  8
LAYER_1
 10
62.5557
 20
81.8603
 42
0.1610776517
  0
VERTEX
  8
LAYER_1
 10
62.2565
 20
81.9774
  0
SEQEND
  0
POLYLINE
  8
LAYER_1
  6
AIGENLINE001
 40
0.1058
 41
0.1058
 66
1
 10
0
 20
0
 30
0
 70
128
  0
VERTEX
  8
LAYER_1
 10
61.8315
 20
78.7804
  0
VERTEX
  8
LAYER_1
 10
61.8322
 20
78.1782
  0
SEQEND
  0
INSERT
  8
LAYER_1
  2
AIGNBL01020014
 10
0
 20
0
 30
0
  0
POLYLINE
  8
LAYER_1
  6
AIGENLINE001
 40
0.1058
 41
0.1058
 66
1
 10
0
 20
0
 30
0
 70
128
  0
VERTEX
  8
LAYER_1
 10
64.6317
 20
77.977
  0
VERTEX
  8
LAYER_1
 10
64.3093
 20
77.977
  0
SEQEND
  0
POLYLINE
  8
LAYER_1
  6
AIGENLINE001
 40
0.1058
 41
0.1058
 66
1
 10
0
 20
0
 30
0
 70
128
  0
VERTEX
  8
LAYER_1
 10
63.6581
 20
77.977
  0
VERTEX
  8
LAYER_1
 10
62.6809
 20
77.977
  0
SEQEND
  0
POLYLINE
  8
LAYER_1
  6
AIGENLINE001
 40
0.1058
 41
0.1058
 66
1
 10
0
 20
0
 30
0
 70
128
  0
VERTEX
  8
LAYER_1
 10
62.3545
 20
77.977
  0
VERTEX
  8
LAYER_1
 10
62.032
 20
77.977
  0
SEQEND
  0
POLYLINE
  8
LAYER_1
  6
AIGENLINE001
 40
0.1058
 41
0.1058
 66
1
 10
0
 20
0
 30
0
 70
128
  0
VERTEX
  8
LAYER_1
 10
64.6317
 20
77.977
 42
0.3927029009
  0
VERTEX
  8
LAYER_1
 10
64.8314
 20
78.1782
  0
SEQEND
  0
POLYLINE
  8
LAYER_1
  6
AIGENLINE001
 40
0.1058
 41
0.1058
 66
1
 10
0
 20
0
 30
0
 70
128
  0
VERTEX
  8
LAYER_1
 10
64.6317
 20
77.977
  0
VERTEX
  8
LAYER_1
 10
64.9542
 20
77.977
  0
SEQEND
  0
POLYLINE
  8
LAYER_1
  6
AIGENLINE001
 40
0.1058
 41
0.1058
 66
1
 10
0
 20
0
 30
0
 70
128
  0
VERTEX
  8
LAYER_1
 10
65.5378
 20
77.977
  0
VERTEX
  8
LAYER_1
 10
66.4133
 20
77.977
  0
SEQEND
  0
POLYLINE
  8
LAYER_1
  6
AIGENLINE001
 40
0.1058
 41
0.1058
 66
1
 10
0
 20
0
 30
0
 70
128
  0
VERTEX
  8
LAYER_1
 10
66.705
 20
77.977
  0
VERTEX
  8
LAYER_1
 10
73.4152
 20
77.977
  0
SEQEND
  0
POLYLINE
  8
LAYER_1
  6
AIGENLINE001
 40
0.1058
 41
0.1058
 66
1
 10
0
 20
0
 30
0
 70
128
  0
VERTEX
  8
LAYER_1
 10
73.7068
 20
77.977
  0
VERTEX
  8
LAYER_1
 10
74.0286
 20
77.977
  0
SEQEND
  0
POLYLINE
  8
LAYER_1
  6
AIGENLINE001
 40
0.1058
 41
0.1058
 66
1
 10
0
 20
0
 30
0
 70
128
  0
VERTEX
  8
LAYER_1
 10
73.8294
 20
79.9517
  0
VERTEX
  8
LAYER_1
 10
73.5063
 20
79.9517
  0
SEQEND
  0
POLYLINE
  8
LAYER_1
  6
AIGENLINE001
 40
0.1058
 41
0.1058
 66
1
 10
0
 20
0
 30
0
 70
128
  0
VERTEX
  8
LAYER_1
 10
72.9502
 20
79.9517
  0
VERTEX
  8
LAYER_1
 10
72.1152
 20
79.9517
  0
SEQEND
  0
POLYLINE
  8
LAYER_1
  6
AIGENLINE001
 40
0.1058
 41
0.1058
 66
1
 10
0
 20
0
 30
0
 70
128
  0
VERTEX
  8
LAYER_1
 10
71.8361
 20
79.9517
  0
VERTEX
  8
LAYER_1
 10
65.4325
 20
79.9517
  0
SEQEND
  0
POLYLINE
  8
LAYER_1
  6
AIGENLINE001
 40
0.1058
 41
0.1058
 66
1
 10
0
 20
0
 30
0
 70
128
  0
VERTEX
  8
LAYER_1
 10
65.154
 20
79.9517
  0
VERTEX
  8
LAYER_1
 10
64.8315
 20
79.9517
  0
SEQEND
  0
POLYLINE
  8
LAYER_1
  6
AIGENLINE001
 40
0.1058
 41
0.1058
 66
1
 10
0
 20
0
 30
0
 70
128
  0
VERTEX
  8
LAYER_1
 10
73.8294
 20
79.9517
  0
VERTEX
  8
LAYER_1
 10
74.0761
 20
80.1584
  0
SEQEND
  0
POLYLINE
  8
LAYER_1
  6
AIGENLINE001
 40
0.1058
 41
0.1058
 66
1
 10
0
 20
0
 30
0
 70
128
  0
VERTEX
  8
LAYER_1
 10
74.331
 20
80.372
  0
VERTEX
  8
LAYER_1
 10
74.7134
 20
80.6931
  0
SEQEND
  0
POLYLINE
  8
LAYER_1
  6
AIGENLINE001
 40
0.1058
 41
0.1058
 66
1
 10
0
 20
0
 30
0
 70
128
  0
VERTEX
  8
LAYER_1
 10
74.8402
 20
80.7992
  0
VERTEX
  8
LAYER_1
 10
75.7303
 20
81.5461
  0
SEQEND
  0
POLYLINE
  8
LAYER_1
  6
AIGENLINE001
 40
0.1058
 41
0.1058
 66
1
 10
0
 20
0
 30
0
 70
128
  0
VERTEX
  8
LAYER_1
 10
75.8586
 20
81.6536
  0
VERTEX
  8
LAYER_1
 10
76.1051
 20
81.8603
  0
SEQEND
  0
POLYLINE
  8
LAYER_1
  6
AIGENLINE001
 40
0.1058
 41
0.1058
 66
1
 10
0
 20
0
 30
0
 70
128
  0
VERTEX
  8
LAYER_1
 10
64.8315
 20
79.9517
  0
VERTEX
  8
LAYER_1
 10
64.5849
 20
80.1584
  0
SEQEND
  0
POLYLINE
  8
LAYER_1
  6
AIGENLINE001
 40
0.1058
 41
0.1058
 66
1
 10
0
 20
0
 30
0
 70
128
  0
VERTEX
  8
LAYER_1
 10
64.3299
 20
80.372
  0
VERTEX
  8
LAYER_1
 10
63.9482
 20
80.6917
  0
SEQEND
  0
POLYLINE
  8
LAYER_1
  6
AIGENLINE001
 40
0.1058
 41
0.1058
 66
1
 10
0
 20
0
 30
0
 70
128
  0
VERTEX
  8
LAYER_1
 10
63.8214
 20
80.7992
  0
VERTEX
  8
LAYER_1
 10
62.9307
 20
81.5461
  0
SEQEND
  0
POLYLINE
  8
LAYER_1
  6
AIGENLINE001
 40
0.1058
 41
0.1058
 66
1
 10
0
 20
0
 30
0
 70
128
  0
VERTEX
  8
LAYER_1
 10
62.8031
 20
81.6522
  0
VERTEX
  8
LAYER_1
 10
62.5557
 20
81.8603
  0
SEQEND
  0
POLYLINE
  8
LAYER_1
  6
AIGENLINE001
 40
0.1058
 41
0.1058
 66
1
 10
0
 20
0
 30
0
 70
128
  0
VERTEX
  8
LAYER_1
 10
62.2567
 20
81.976
  0
VERTEX
  8
LAYER_1
 10
62.5798
 20
81.976
  0
SEQEND
  0
POLYLINE
  8
LAYER_1
  6
AIGENLINE001
 40
0.1058
 41
0.1058
 66
1
 10
0
 20
0
 30
0
 70
128
  0
VERTEX
  8
LAYER_1
 10
63.1662
 20
81.976
  0
VERTEX
  8
LAYER_1
 10
64.046
 20
81.976
  0
SEQEND
  0
POLYLINE
  8
LAYER_1
  6
AIGENLINE001
 40
0.1058
 41
0.1058
 66
1
 10
0
 20
0
 30
0
 70
128
  0
VERTEX
  8
LAYER_1
 10
64.3396
 20
81.9774
  0
VERTEX
  8
LAYER_1
 10
75.7883
 20
81.9774
  0
SEQEND
  0
POLYLINE
  8
LAYER_1
  6
AIGENLINE001
 40
0.1058
 41
0.1058
 66
1
 10
0
 20
0
 30
0
 70
128
  0
VERTEX
  8
LAYER_1
 10
76.0818
 20
81.9774
  0
VERTEX
  8
LAYER_1
 10
76.4043
 20
81.9774
  0
SEQEND
  0
POLYLINE
  8
LAYER_1
  6
AIGENLINE001
 40
0.1058
 41
0.1058
 66
1
 10
0
 20
0
 30
0
 70
128
  0
VERTEX
  8
LAYER_1
 10
44.3363
 20
78.5778
  0
VERTEX
  8
LAYER_1
 10
44.3363
 20
78.9003
  0
SEQEND
  0
POLYLINE
  8
LAYER_1
  6
AIGENLINE001
 40
0.1058
 41
0.1058
 66
1
 10
0
 20
0
 30
0
 70
128
  0
VERTEX
  8
LAYER_1
 10
44.3363
 20
79.5576
  0
VERTEX
  8
LAYER_1
 10
44.3363
 20
80.5429
  0
SEQEND
  0
POLYLINE
  8
LAYER_1
  6
AIGENLINE001
 40
0.1058
 41
0.1058
 66
1
 10
0
 20
0
 30
0
 70
128
  0
VERTEX
  8
LAYER_1
 10
44.3363
 20
80.8722
  0
VERTEX
  8
LAYER_1
 10
44.3363
 20
98.9493
  0
SEQEND
  0
POLYLINE
  8
LAYER_1
  6
AIGENLINE001
 40
0.1058
 41
0.1058
 66
1
 10
0
 20
0
 30
0
 70
128
  0
VERTEX
  8
LAYER_1
 10
44.3363
 20
99.2773
  0
VERTEX
  8
LAYER_1
 10
44.3363
 20
99.5998
  0
SEQEND
  0
POLYLINE
  8
LAYER_1
  6
AIGENLINE001
 40
0.1058
 41
0.1058
 66
1
 10
0
 20
0
 30
0
 70
128
  0
VERTEX
  8
LAYER_1
 10
46.3358
 20
79.5769
  0
VERTEX
  8
LAYER_1
 10
46.3358
 20
79.9104
  0
SEQEND
  0
POLYLINE
  8
LAYER_1
  6
AIGENLINE001
 40
0.1058
 41
0.1058
 66
1
 10
0
 20
0
 30
0
 70
128
  0
VERTEX
  8
LAYER_1
 10
62.2567
 20
81.976
  0
VERTEX
  8
LAYER_1
 10
61.9342
 20
81.9871
  0
SEQEND
  0
POLYLINE
  8
LAYER_1
  6
AIGENLINE001
 40
0.1058
 41
0.1058
 66
1
 10
0
 20
0
 30
0
 70
128
  0
VERTEX
  8
LAYER_1
 10
61.2528
 20
82.0119
  0
VERTEX
  8
LAYER_1
 10
60.2304
 20
82.0477
  0
SEQEND
  0
POLYLINE
  8
LAYER_1
  6
AIGENLINE001
 40
0.1058
 41
0.1058
 66
1
 10
0
 20
0
 30
0
 70
128
  0
VERTEX
  8
LAYER_1
 10
59.8899
 20
82.0587
  0
VERTEX
  8
LAYER_1
 10
49.3248
 20
82.428
  0
SEQEND
  0
POLYLINE
  8
LAYER_1
  6
AIGENLINE001
 40
0.1058
 41
0.1058
 66
1
 10
0
 20
0
 30
0
 70
128
  0
VERTEX
  8
LAYER_1
 10
48.9848
 20
82.4404
  0
VERTEX
  8
LAYER_1
 10
48.6623
 20
82.4515
  0
SEQEND
  0
POLYLINE
  8
LAYER_1
  6
AIGENLINE001
 40
0.1058
 41
0.1058
 66
1
 10
0
 20
0
 30
0
 70
128
  0
VERTEX
  8
LAYER_1
 10
47.7097
 20
83.2976
 42
0.08036266064
  0
VERTEX
  8
LAYER_1
 10
47.8088
 20
82.9917
  0
SEQEND
  0
POLYLINE
  8
LAYER_1
  6
AIGENLINE001
 40
0.1058
 41
0.1058
 66
1
 10
0
 20
0
 30
0
 70
128
  0
VERTEX
  8
LAYER_1
 10
47.9475
 20
82.7891
 42
0.08943150732
  0
VERTEX
  8
LAYER_1
 10
48.2353
 20
82.5631
  0
SEQEND
  0
POLYLINE
  8
LAYER_1
  6
AIGENLINE001
 40
0.1058
 41
0.1058
 66
1
 10
0
 20
0
 30
0
 70
128
  0
VERTEX
  8
LAYER_1
 10
48.3474
 20
82.5135
 42
0.0803642146
  0
VERTEX
  8
LAYER_1
 10
48.6628
 20
82.4515
  0
SEQEND
  0
POLYLINE
  8
LAYER_1
  6
AIGENLINE001
 40
0.1058
 41
0.1058
 66
1
 10
0
 20
0
 30
0
 70
128
  0
VERTEX
  8
LAYER_1
 10
45.1924
 20
99.608
  0
VERTEX
  8
LAYER_1
 10
45.2415
 20
99.2897
  0
SEQEND
  0
POLYLINE
  8
LAYER_1
  6
AIGENLINE001
 40
0.1058
 41
0.1058
 66
1
 10
0
 20
0
 30
0
 70
128
  0
VERTEX
  8
LAYER_1
 10
45.3464
 20
98.6076
  0
VERTEX
  8
LAYER_1
 10
45.5033
 20
97.5851
  0
SEQEND
  0
POLYLINE
  8
LAYER_1
  6
AIGENLINE001
 40
0.1058
 41
0.1058
 66
1
 10
0
 20
0
 30
0
 70
128
  0
VERTEX
  8
LAYER_1
 10
45.5569
 20
97.2447
  0
VERTEX
  8
LAYER_1
 10
47.6076
 20
83.9577
  0
SEQEND
  0
POLYLINE
  8
LAYER_1
  6
AIGENLINE001
 40
0.1058
 41
0.1058
 66
1
 10
0
 20
0
 30
0
 70
128
  0
VERTEX
  8
LAYER_1
 10
47.6601
 20
83.6159
  0
VERTEX
  8
LAYER_1
 10
47.7092
 20
83.2976
  0
SEQEND
  0
POLYLINE
  8
LAYER_1
  6
AIGENLINE001
 40
0.1058
 41
0.1058
 66
1
 10
0
 20
0
 30
0
 70
128
  0
VERTEX
  8
LAYER_1
 10
45.1924
 20
99.608
 42
0.1854371136
  0
VERTEX
  8
LAYER_1
 10
45.0336
 20
99.8809
  0
SEQEND
  0
POLYLINE
  8
LAYER_1
  6
AIGENLINE001
 40
0.1058
 41
0.1058
 66
1
 10
0
 20
0
 30
0
 70
128
  0
VERTEX
  8
LAYER_1
 10
44.8193
 20
99.9705
  0
VERTEX
  8
LAYER_1
 10
44.6991
 20
99.9691
 42
0.1361777012
  0
VERTEX
  8
LAYER_1
 10
44.4898
 20
99.8754
  0
SEQEND
  0
POLYLINE
  8
LAYER_1
  6
AIGENLINE001
 40
0.1058
 41
0.1058
 66
1
 10
0
 20
0
 30
0
 70
128
  0
VERTEX
  8
LAYER_1
 10
44.4104
 20
99.7899
 42
0.1881859298
  0
VERTEX
  8
LAYER_1
 10
44.3363
 20
99.4826
  0
SEQEND
  0
POLYLINE
  8
LAYER_1
  6
AIGENLINE001
 40
0.1058
 41
0.1058
 66
1
 10
0
 20
0
 30
0
 70
128
  0
VERTEX
  8
LAYER_1
 10
76.8287
 20
78.779
  0
VERTEX
  8
LAYER_1
 10
76.8287
 20
78.1768
  0
SEQEND
  0
POLYLINE
  8
LAYER_1
  6
AIGENLINE001
 40
0.1058
 41
0.1058
 66
1
 10
0
 20
0
 30
0
 70
128
  0
VERTEX
  8
LAYER_1
 10
76.6289
 20
77.977
 42
0.4142408302
  0
VERTEX
  8
LAYER_1
 10
76.8286
 20
78.1768
  0
SEQEND
  0
POLYLINE
  8
LAYER_1
  6
AIGENLINE001
 40
0.1058
 41
0.1058
 66
1
 10
0
 20
0
 30
0
 70
128
  0
VERTEX
  8
LAYER_1
 10
77.0285
 20
78.9788
  0
VERTEX
  8
LAYER_1
 10
77.351
 20
78.9788
  0
SEQEND
  0
POLYLINE
  8
LAYER_1
  6
AIGENLINE001
 40
0.1058
 41
0.1058
 66
1
 10
0
 20
0
 30
0
 70
128
  0
VERTEX
  8
LAYER_1
 10
77.9243
 20
78.9788
  0
VERTEX
  8
LAYER_1
 10
78.7854
 20
78.9774
  0
SEQEND
  0
POLYLINE
  8
LAYER_1
  6
AIGENLINE001
 40
0.1058
 41
0.1058
 66
1
 10
0
 20
0
 30
0
 70
128
  0
VERTEX
  8
LAYER_1
 10
79.0722
 20
78.9774
  0
VERTEX
  8
LAYER_1
 10
81.0798
 20
78.9774
  0
SEQEND
  0
POLYLINE
  8
LAYER_1
  6
AIGENLINE001
 40
0.1058
 41
0.1058
 66
1
 10
0
 20
0
 30
0
 70
128
  0
VERTEX
  8
LAYER_1
 10
81.3673
 20
78.9774
  0
VERTEX
  8
LAYER_1
 10
81.6898
 20
78.9774
  0
SEQEND
  0
POLYLINE
  8
LAYER_1
  6
AIGENLINE001
 40
0.1058
 41
0.1058
 66
1
 10
0
 20
0
 30
0
 70
128
  0
VERTEX
  8
LAYER_1
 10
82.2885
 20
78.3766
 42
0.1342623045
  0
VERTEX
  8
LAYER_1
 10
82.2031
 20
78.6853
  0
SEQEND
  0
POLYLINE
  8
LAYER_1
  6
AIGENLINE001
 40
0.1058
 41
0.1058
 66
1
 10
0
 20
0
 30
0
 70
128
  0
VERTEX
  8
LAYER_1
 10
82.1459
 20
78.7652
  0
VERTEX
  8
LAYER_1
 10
82.0375
 20
78.8658
  0
SEQEND
  0
POLYLINE
  8
LAYER_1
  6
AIGENLINE001
 40
0.1058
 41
0.1058
 66
1
 10
0
 20
0
 30
0
 70
128
  0
VERTEX
  8
LAYER_1
 10
81.9978
 20
78.892
 42
0.1344225611
  0
VERTEX
  8
LAYER_1
 10
81.6898
 20
78.9761
  0
SEQEND
  0
POLYLINE
  8
LAYER_1
  6
AIGENLINE001
 40
0.1058
 41
0.1058
 66
1
 10
0
 20
0
 30
0
 70
128
  0
VERTEX
  8
LAYER_1
 10
77.0285
 20
78.9788
 42
0.4141446882
  0
VERTEX
  8
LAYER_1
 10
76.8289
 20
78.779
  0
SEQEND
  0
POLYLINE
  8
LAYER_1
  6
AIGENLINE001
 40
0.1058
 41
0.1058
 66
1
 10
0
 20
0
 30
0
 70
128
  0
VERTEX
  8
LAYER_1
 10
94.325
 20
78.5737
  0
VERTEX
  8
LAYER_1
 10
94.325
 20
78.8961
  0
SEQEND
  0
POLYLINE
  8
LAYER_1
  6
AIGENLINE001
 40
0.1058
 41
0.1058
 66
1
 10
0
 20
0
 30
0
 70
128
  0
VERTEX
  8
LAYER_1
 10
94.325
 20
79.5535
  0
VERTEX
  8
LAYER_1
 10
94.3257
 20
80.5401
  0
SEQEND
  0
POLYLINE
  8
LAYER_1
  6
AIGENLINE001
 40
0.1058
 41
0.1058
 66
1
 10
0
 20
0
 30
0
 70
128
  0
VERTEX
  8
LAYER_1
 10
94.3257
 20
80.8681
  0
VERTEX
  8
LAYER_1
 10
94.3284
 20
98.9452
  0
SEQEND
  0
POLYLINE
  8
LAYER_1
  6
AIGENLINE001
 40
0.1058
 41
0.1058
 66
1
 10
0
 20
0
 30
0
 70
128
  0
VERTEX
  8
LAYER_1
 10
94.3284
 20
99.2746
  0
VERTEX
  8
LAYER_1
 10
94.3284
 20
99.5956
  0
SEQEND
  0
POLYLINE
  8
LAYER_1
  6
AIGENLINE001
 40
0.1058
 41
0.1058
 66
1
 10
0
 20
0
 30
0
 70
128
  0
VERTEX
  8
LAYER_1
 10
76.4043
 20
81.976
  0
VERTEX
  8
LAYER_1
 10
76.7268
 20
81.9871
  0
SEQEND
  0
POLYLINE
  8
LAYER_1
  6
AIGENLINE001
 40
0.1058
 41
0.1058
 66
1
 10
0
 20
0
 30
0
 70
128
  0
VERTEX
  8
LAYER_1
 10
77.4082
 20
82.0105
  0
VERTEX
  8
LAYER_1
 10
78.4312
 20
82.0463
  0
SEQEND
  0
POLYLINE
  8
LAYER_1
  6
AIGENLINE001
 40
0.1058
 41
0.1058
 66
1
 10
0
 20
0
 30
0
 70
128
  0
VERTEX
  8
LAYER_1
 10
78.7718
 20
82.0574
  0
VERTEX
  8
LAYER_1
 10
89.3363
 20
82.4253
  0
SEQEND
  0
POLYLINE
  8
LAYER_1
  6
AIGENLINE001
 40
0.1058
 41
0.1058
 66
1
 10
0
 20
0
 30
0
 70
128
  0
VERTEX
  8
LAYER_1
 10
89.6776
 20
82.4363
  0
VERTEX
  8
LAYER_1
 10
89.9986
 20
82.4487
 42
0.08378583276
  0
VERTEX
  8
LAYER_1
 10
90.3151
 20
82.5107
  0
SEQEND
  0
POLYLINE
  8
LAYER_1
  6
AIGENLINE001
 40
0.1058
 41
0.1058
 66
1
 10
0
 20
0
 30
0
 70
128
  0
VERTEX
  8
LAYER_1
 10
90.5326
 20
82.6237
 42
0.08966119285
  0
VERTEX
  8
LAYER_1
 10
90.7908
 20
82.8842
  0
SEQEND
  0
POLYLINE
  8
LAYER_1
  6
AIGENLINE001
 40
0.1058
 41
0.1058
 66
1
 10
0
 20
0
 30
0
 70
128
  0
VERTEX
  8
LAYER_1
 10
90.853
 20
82.9889
 42
0.07903564268
  0
VERTEX
  8
LAYER_1
 10
90.9529
 20
83.2948
  0
SEQEND
  0
POLYLINE
  8
LAYER_1
  6
AIGENLINE001
 40
0.1058
 41
0.1058
 66
1
 10
0
 20
0
 30
0
 70
128
  0
VERTEX
  8
LAYER_1
 10
93.4727
 20
99.6039
  0
VERTEX
  8
LAYER_1
 10
93.4229
 20
99.2856
  0
SEQEND
  0
POLYLINE
  8
LAYER_1
  6
AIGENLINE001
 40
0.1058
 41
0.1058
 66
1
 10
0
 20
0
 30
0
 70
128
  0
VERTEX
  8
LAYER_1
 10
93.3176
 20
98.6035
  0
VERTEX
  8
LAYER_1
 10
93.16
 20
97.581
  0
SEQEND
  0
POLYLINE
  8
LAYER_1
  6
AIGENLINE001
 40
0.1058
 41
0.1058
 66
1
 10
0
 20
0
 30
0
 70
128
  0
VERTEX
  8
LAYER_1
 10
93.1068
 20
97.2406
  0
VERTEX
  8
LAYER_1
 10
91.0544
 20
83.9535
  0
SEQEND
  0
POLYLINE
  8
LAYER_1
  6
AIGENLINE001
 40
0.1058
 41
0.1058
 66
1
 10
0
 20
0
 30
0
 70
128
  0
VERTEX
  8
LAYER_1
 10
91.0019
 20
83.6132
  0
VERTEX
  8
LAYER_1
 10
90.9528
 20
83.2948
  0
SEQEND
  0
POLYLINE
  8
LAYER_1
  6
AIGENLINE001
 40
0.1058
 41
0.1058
 66
1
 10
0
 20
0
 30
0
 70
128
  0
VERTEX
  8
LAYER_1
 10
91.3257
 20
77.175
  0
VERTEX
  8
LAYER_1
 10
91.3264
 20
77.7744
  0
SEQEND
  0
POLYLINE
  8
LAYER_1
  6
AIGENLINE001
 40
0.1058
 41
0.1058
 66
1
 10
0
 20
0
 30
0
 70
128
  0
VERTEX
  8
LAYER_1
 10
91.5255
 20
77.9742
 42
0.4142155786
  0
VERTEX
  8
LAYER_1
 10
91.3259
 20
77.7744
  0
SEQEND
  0
POLYLINE
  8
LAYER_1
  6
AIGENLINE001
 40
0.1058
 41
0.1058
 66
1
 10
0
 20
0
 30
0
 70
128
  0
VERTEX
  8
LAYER_1
 10
82.2885
 20
77.5746
  0
VERTEX
  8
LAYER_1
 10
82.2885
 20
77.8971
  0
SEQEND
  0
POLYLINE
  8
LAYER_1
  6
AIGENLINE001
 40
0.1058
 41
0.1058
 66
1
 10
0
 20
0
 30
0
 70
128
  0
VERTEX
  8
LAYER_1
 10
82.2885
 20
77.9494
  0
VERTEX
  8
LAYER_1
 10
82.2885
 20
78.028
  0
SEQEND
  0
POLYLINE
  8
LAYER_1
  6
AIGENLINE001
 40
0.1058
 41
0.1058
 66
1
 10
0
 20
0
 30
0
 70
128
  0
VERTEX
  8
LAYER_1
 10
82.2885
 20
78.0542
  0
VERTEX
  8
LAYER_1
 10
82.2885
 20
78.3766
  0
SEQEND
  0
POLYLINE
  8
LAYER_1
  6
AIGENLINE001
 40
0.1058
 41
0.1058
 66
1
 10
0
 20
0
 30
0
 70
128
  0
VERTEX
  8
LAYER_1
 10
82.2885
 20
77.5746
 42
0.1349858078
  0
VERTEX
  8
LAYER_1
 10
82.374
 20
77.2673
  0
SEQEND
  0
POLYLINE
  8
LAYER_1
  6
AIGENLINE001
 40
0.1058
 41
0.1058
 66
1
 10
0
 20
0
 30
0
 70
128
  0
VERTEX
  8
LAYER_1
 10
82.4318
 20
77.1874
 42
0.06553317029
  0
VERTEX
  8
LAYER_1
 10
82.5409
 20
77.0868
  0
SEQEND
  0
POLYLINE
  8
LAYER_1
  6
AIGENLINE001
 40
0.1058
 41
0.1058
 66
1
 10
0
 20
0
 30
0
 70
128
  0
VERTEX
  8
LAYER_1
 10
82.5807
 20
77.0606
 42
0.1360312998
  0
VERTEX
  8
LAYER_1
 10
82.8887
 20
76.9751
  0
SEQEND
  0
POLYLINE
  8
LAYER_1
  6
AIGENLINE001
 40
0.1058
 41
0.1058
 66
1
 10
0
 20
0
 30
0
 70
128
  0
VERTEX
  8
LAYER_1
 10
91.5255
 20
77.9742
  0
VERTEX
  8
LAYER_1
 10
91.848
 20
77.9742
  0
SEQEND
  0
POLYLINE
  8
LAYER_1
  6
AIGENLINE001
 40
0.1058
 41
0.1058
 66
1
 10
0
 20
0
 30
0
 70
128
  0
VERTEX
  8
LAYER_1
 10
92.3661
 20
77.9742
  0
VERTEX
  8
LAYER_1
 10
93.144
 20
77.9742
  0
SEQEND
  0
POLYLINE
  8
LAYER_1
  6
AIGENLINE001
 40
0.1058
 41
0.1058
 66
1
 10
0
 20
0
 30
0
 70
128
  0
VERTEX
  8
LAYER_1
 10
93.4024
 20
77.9742
  0
VERTEX
  8
LAYER_1
 10
93.7249
 20
77.9742
 42
0.1379748619
  0
VERTEX
  8
LAYER_1
 10
94.0328
 20
78.0597
  0
SEQEND
  0
POLYLINE
  8
LAYER_1
  6
AIGENLINE001
 40
0.1058
 41
0.1058
 66
1
 10
0
 20
0
 30
0
 70
128
  0
VERTEX
  8
LAYER_1
 10
94.1135
 20
78.1162
  0
VERTEX
  8
LAYER_1
 10
94.2141
 20
78.225
  0
SEQEND
  0
POLYLINE
  8
LAYER_1
  6
AIGENLINE001
 40
0.1058
 41
0.1058
 66
1
 10
0
 20
0
 30
0
 70
128
  0
VERTEX
  8
LAYER_1
 10
94.2402
 20
78.265
 42
0.1340136047
  0
VERTEX
  8
LAYER_1
 10
94.325
 20
78.5737
  0
SEQEND
  0
POLYLINE
  8
LAYER_1
  6
AIGENLINE001
 40
0.1058
 41
0.1058
 66
1
 10
0
 20
0
 30
0
 70
128
  0
VERTEX
  8
LAYER_1
 10
91.1259
 20
76.9738
  0
VERTEX
  8
LAYER_1
 10
90.8034
 20
76.9738
  0
SEQEND
  0
POLYLINE
  8
LAYER_1
  6
AIGENLINE001
 40
0.1058
 41
0.1058
 66
1
 10
0
 20
0
 30
0
 70
128
  0
VERTEX
  8
LAYER_1
 10
90.113
 20
76.9751
  0
VERTEX
  8
LAYER_1
 10
89.0779
 20
76.9751
  0
SEQEND
  0
POLYLINE
  8
LAYER_1
  6
AIGENLINE001
 40
0.1058
 41
0.1058
 66
1
 10
0
 20
0
 30
0
 70
128
  0
VERTEX
  8
LAYER_1
 10
88.7329
 20
76.9751
  0
VERTEX
  8
LAYER_1
 10
83.5563
 20
76.9751
  0
SEQEND
  0
POLYLINE
  8
LAYER_1
  6
AIGENLINE001
 40
0.1058
 41
0.1058
 66
1
 10
0
 20
0
 30
0
 70
128
  0
VERTEX
  8
LAYER_1
 10
83.2111
 20
76.9751
  0
VERTEX
  8
LAYER_1
 10
82.8887
 20
76.9751
  0
SEQEND
  0
POLYLINE
  8
LAYER_1
  6
AIGENLINE001
 40
0.1058
 41
0.1058
 66
1
 10
0
 20
0
 30
0
 70
128
  0
VERTEX
  8
LAYER_1
 10
91.1259
 20
76.9738
 42
0.3943046432
  0
VERTEX
  8
LAYER_1
 10
91.3255
 20
77.175
  0
SEQEND
  0
POLYLINE
  8
LAYER_1
  6
AIGENLINE001
 40
0.1058
 41
0.1058
 66
1
 10
0
 20
0
 30
0
 70
128
  0
VERTEX
  8
LAYER_1
 10
94.3284
 20
99.4799
 42
0.1867783168
  0
VERTEX
  8
LAYER_1
 10
94.254
 20
99.7858
  0
SEQEND
  0
POLYLINE
  8
LAYER_1
  6
AIGENLINE001
 40
0.1058
 41
0.1058
 66
1
 10
0
 20
0
 30
0
 70
128
  0
VERTEX
  8
LAYER_1
 10
94.0742
 20
99.9333
  0
VERTEX
  8
LAYER_1
 10
93.9591
 20
99.9663
 42
0.1378450385
  0
VERTEX
  8
LAYER_1
 10
93.7316
 20
99.936
  0
SEQEND
  0
POLYLINE
  8
LAYER_1
  6
AIGENLINE001
 40
0.1058
 41
0.1058
 66
1
 10
0
 20
0
 30
0
 70
128
  0
VERTEX
  8
LAYER_1
 10
93.6311
 20
99.8768
 42
0.1878041041
  0
VERTEX
  8
LAYER_1
 10
93.4727
 20
99.6039
  0
SEQEND
  0
POLYLINE
  8
LAYER_1
  6
AIGENLINE001
 40
0.1058
 41
0.1058
 66
1
 10
0
 20
0
 30
0
 70
128
  0
VERTEX
  8
LAYER_1
 10
74.0286
 20
77.977
  0
VERTEX
  8
LAYER_1
 10
74.351
 20
77.977
  0
SEQEND
  0
POLYLINE
  8
LAYER_1
  6
AIGENLINE001
 40
0.1058
 41
0.1058
 66
1
 10
0
 20
0
 30
0
 70
128
  0
VERTEX
  8
LAYER_1
 10
75.0028
 20
77.977
  0
VERTEX
  8
LAYER_1
 10
75.9804
 20
77.977
  0
SEQEND
  0
POLYLINE
  8
LAYER_1
  6
AIGENLINE001
 40
0.1058
 41
0.1058
 66
1
 10
0
 20
0
 30
0
 70
128
  0
VERTEX
  8
LAYER_1
 10
76.3065
 20
77.977
  0
VERTEX
  8
LAYER_1
 10
76.6289
 20
77.977
  0
SEQEND
  0
POLYLINE
  8
LAYER_1
  6
AIGENLINE001
 40
0.1058
 41
0.1058
 66
1
 10
0
 20
0
 30
0
 70
128
  0
VERTEX
  8
LAYER_1
 10
44.7022
 20
99.9691
  0
VERTEX
  8
LAYER_1
 10
45.0243
 20
99.9691
  0
SEQEND
  0
POLYLINE
  8
LAYER_1
  6
AIGENLINE001
 40
0.1058
 41
0.1058
 66
1
 10
0
 20
0
 30
0
 70
128
  0
VERTEX
  8
LAYER_1
 10
45.6734
 20
99.9691
  0
VERTEX
  8
LAYER_1
 10
46.6452
 20
99.9691
  0
SEQEND
  0
POLYLINE
  8
LAYER_1
  6
AIGENLINE001
 40
0.1058
 41
0.1058
 66
1
 10
0
 20
0
 30
0
 70
128
  0
VERTEX
  8
LAYER_1
 10
93.6394
 20
99.9663
  0
VERTEX
  8
LAYER_1
 10
93.9619
 20
99.9663
  0
SEQEND
  0
POLYLINE
  8
LAYER_1
  6
AIGENLINE001
 40
0.1058
 41
0.1058
 66
1
 10
0
 20
0
 30
0
 70
128
  0
VERTEX
  8
LAYER_1
 10
92.3248
 20
79.5672
  0
VERTEX
  8
LAYER_1
 10
92.3248
 20
79.9007
  0
SEQEND
  0
POLYLINE
  8
LAYER_1
  6
AIGENLINE001
 40
0.1058
 41
0.1058
 66
1
 10
0
 20
0
 30
0
 70
128
  0
VERTEX
  8
LAYER_1
 10
92.3248
 20
79.9007
 42
0.1359848378
  0
VERTEX
  8
LAYER_1
 10
92.2393
 20
80.2094
  0
SEQEND
  0
POLYLINE
  8
LAYER_1
  6
AIGENLINE001
 40
0.1058
 41
0.1058
 66
1
 10
0
 20
0
 30
0
 70
128
  0
VERTEX
  8
LAYER_1
 10
92.178
 20
80.2948
 42
0.05760518275
  0
VERTEX
  8
LAYER_1
 10
92.0595
 20
80.3996
  0
SEQEND
  0
POLYLINE
  8
LAYER_1
  6
AIGENLINE001
 40
0.1058
 41
0.1058
 66
1
 10
0
 20
0
 30
0
 70
128
  0
VERTEX
  8
LAYER_1
 10
92.0161
 20
80.4258
 42
0.1276043882
  0
VERTEX
  8
LAYER_1
 10
91.7253
 20
80.5002
  0
VERTEX
  8
LAYER_1
 10
91.7047
 20
80.5002
  0
SEQEND
  0
POLYLINE
  8
LAYER_1
  6
AIGENLINE001
 40
0.1058
 41
0.1058
 66
1
 10
0
 20
0
 30
0
 70
128
  0
VERTEX
  8
LAYER_1
 10
84.9068
 20
80.2659
  0
VERTEX
  8
LAYER_1
 10
85.2279
 20
80.2769
  0
SEQEND
  0
POLYLINE
  8
LAYER_1
  6
AIGENLINE001
 40
0.1058
 41
0.1058
 66
1
 10
0
 20
0
 30
0
 70
128
  0
VERTEX
  8
LAYER_1
 10
85.7874
 20
80.2962
  0
VERTEX
  8
LAYER_1
 10
86.6266
 20
80.3252
  0
SEQEND
  0
POLYLINE
  8
LAYER_1
  6
AIGENLINE001
 40
0.1058
 41
0.1058
 66
1
 10
0
 20
0
 30
0
 70
128
  0
VERTEX
  8
LAYER_1
 10
86.907
 20
80.3348
  0
VERTEX
  8
LAYER_1
 10
91.1026
 20
80.4795
  0
SEQEND
  0
POLYLINE
  8
LAYER_1
  6
AIGENLINE001
 40
0.1058
 41
0.1058
 66
1
 10
0
 20
0
 30
0
 70
128
  0
VERTEX
  8
LAYER_1
 10
91.3822
 20
80.4891
  0
VERTEX
  8
LAYER_1
 10
91.7047
 20
80.5002
  0
SEQEND
  0
POLYLINE
  8
LAYER_1
  6
AIGENLINE001
 40
0.1058
 41
0.1058
 66
1
 10
0
 20
0
 30
0
 70
128
  0
VERTEX
  8
LAYER_1
 10
84.3266
 20
79.5714
  0
VERTEX
  8
LAYER_1
 10
84.3266
 20
79.6665
  0
SEQEND
  0
POLYLINE
  8
LAYER_1
  6
AIGENLINE001
 40
0.1058
 41
0.1058
 66
1
 10
0
 20
0
 30
0
 70
128
  0
VERTEX
  8
LAYER_1
 10
84.9068
 20
80.2659
 42
0.1370218292
  0
VERTEX
  8
LAYER_1
 10
84.6009
 20
80.1694
  0
SEQEND
  0
POLYLINE
  8
LAYER_1
  6
AIGENLINE001
 40
0.1058
 41
0.1058
 66
1
 10
0
 20
0
 30
0
 70
128
  0
VERTEX
  8
LAYER_1
 10
84.5278
 20
80.1143
  0
VERTEX
  8
LAYER_1
 10
84.4369
 20
80.0123
  0
SEQEND
  0
POLYLINE
  8
LAYER_1
  6
AIGENLINE001
 40
0.1058
 41
0.1058
 66
1
 10
0
 20
0
 30
0
 70
128
  0
VERTEX
  8
LAYER_1
 10
84.4121
 20
79.9751
 42
0.1340263898
  0
VERTEX
  8
LAYER_1
 10
84.3266
 20
79.6665
  0
SEQEND
  0
POLYLINE
  8
LAYER_1
  6
AIGENLINE001
 40
0.1058
 41
0.1058
 66
1
 10
0
 20
0
 30
0
 70
128
  0
VERTEX
  8
LAYER_1
 10
91.7246
 20
78.9678
  0
VERTEX
  8
LAYER_1
 10
91.4022
 20
78.9678
  0
SEQEND
  0
POLYLINE
  8
LAYER_1
  6
AIGENLINE001
 40
0.1058
 41
0.1058
 66
1
 10
0
 20
0
 30
0
 70
128
  0
VERTEX
  8
LAYER_1
 10
90.8434
 20
78.9678
  0
VERTEX
  8
LAYER_1
 10
90.0042
 20
78.9692
  0
SEQEND
  0
POLYLINE
  8
LAYER_1
  6
AIGENLINE001
 40
0.1058
 41
0.1058
 66
1
 10
0
 20
0
 30
0
 70
128
  0
VERTEX
  8
LAYER_1
 10
89.7244
 20
78.9692
  0
VERTEX
  8
LAYER_1
 10
85.5295
 20
78.9705
  0
SEQEND
  0
POLYLINE
  8
LAYER_1
  6
AIGENLINE001
 40
0.1058
 41
0.1058
 66
1
 10
0
 20
0
 30
0
 70
128
  0
VERTEX
  8
LAYER_1
 10
85.2499
 20
78.9705
  0
VERTEX
  8
LAYER_1
 10
84.9275
 20
78.9705
  0
SEQEND
  0
POLYLINE
  8
LAYER_1
  6
AIGENLINE001
 40
0.1058
 41
0.1058
 66
1
 10
0
 20
0
 30
0
 70
128
  0
VERTEX
  8
LAYER_1
 10
84.3266
 20
79.5714
 42
0.1345285866
  0
VERTEX
  8
LAYER_1
 10
84.4121
 20
79.2627
  0
SEQEND
  0
POLYLINE
  8
LAYER_1
  6
AIGENLINE001
 40
0.1058
 41
0.1058
 66
1
 10
0
 20
0
 30
0
 70
128
  0
VERTEX
  8
LAYER_1
 10
84.47
 20
79.1828
  0
VERTEX
  8
LAYER_1
 10
84.579
 20
79.0822
  0
SEQEND
  0
POLYLINE
  8
LAYER_1
  6
AIGENLINE001
 40
0.1058
 41
0.1058
 66
1
 10
0
 20
0
 30
0
 70
128
  0
VERTEX
  8
LAYER_1
 10
84.6188
 20
79.056
 42
0.1356766653
  0
VERTEX
  8
LAYER_1
 10
84.9275
 20
78.9705
  0
SEQEND
  0
POLYLINE
  8
LAYER_1
  6
AIGENLINE001
 40
0.1058
 41
0.1058
 66
1
 10
0
 20
0
 30
0
 70
128
  0
VERTEX
  8
LAYER_1
 10
91.7246
 20
78.9678
 42
0.1357081074
  0
VERTEX
  8
LAYER_1
 10
92.0326
 20
79.0532
  0
SEQEND
  0
POLYLINE
  8
LAYER_1
  6
AIGENLINE001
 40
0.1058
 41
0.1058
 66
1
 10
0
 20
0
 30
0
 70
128
  0
VERTEX
  8
LAYER_1
 10
92.1132
 20
79.1111
  0
VERTEX
  8
LAYER_1
 10
92.2138
 20
79.2186
  0
SEQEND
  0
POLYLINE
  8
LAYER_1
  6
AIGENLINE001
 40
0.1058
 41
0.1058
 66
1
 10
0
 20
0
 30
0
 70
128
  0
VERTEX
  8
LAYER_1
 10
92.2393
 20
79.2599
 42
0.1380109797
  0
VERTEX
  8
LAYER_1
 10
92.3248
 20
79.5686
  0
SEQEND
  0
POLYLINE
  8
LAYER_1
  6
AIGENLINE001
 40
0.1058
 41
0.1058
 66
1
 10
0
 20
0
 30
0
 70
128
  0
VERTEX
  8
LAYER_1
 10
61.6324
 20
78.9802
  0
VERTEX
  8
LAYER_1
 10
61.3093
 20
78.9802
  0
SEQEND
  0
POLYLINE
  8
LAYER_1
  6
AIGENLINE001
 40
0.1058
 41
0.1058
 66
1
 10
0
 20
0
 30
0
 70
128
  0
VERTEX
  8
LAYER_1
 10
60.6974
 20
78.9802
  0
VERTEX
  8
LAYER_1
 10
59.7784
 20
78.9802
  0
SEQEND
  0
POLYLINE
  8
LAYER_1
  6
AIGENLINE001
 40
0.1058
 41
0.1058
 66
1
 10
0
 20
0
 30
0
 70
128
  0
VERTEX
  8
LAYER_1
 10
59.4723
 20
78.9802
  0
VERTEX
  8
LAYER_1
 10
56.9326
 20
78.9788
 42
0.3938389753
  0
VERTEX
  8
LAYER_1
 10
56.334
 20
78.3794
  0
VERTEX
  8
LAYER_1
 10
56.334
 20
77.5787
 42
-0.1288705864
  0
VERTEX
  8
LAYER_1
 10
56.2546
 20
77.2797
  0
SEQEND
  0
POLYLINE
  8
LAYER_1
  6
AIGENLINE001
 40
0.1058
 41
0.1058
 66
1
 10
0
 20
0
 30
0
 70
128
  0
VERTEX
  8
LAYER_1
 10
56.041
 20
77.0633
 42
-0.1385453801
  0
VERTEX
  8
LAYER_1
 10
55.733
 20
76.9779
  0
SEQEND
  0
POLYLINE
  8
LAYER_1
  6
AIGENLINE001
 40
0.1058
 41
0.1058
 66
1
 10
0
 20
0
 30
0
 70
128
  0
VERTEX
  8
LAYER_1
 10
46.3358
 20
79.5769
 42
0.1348538553
  0
VERTEX
  8
LAYER_1
 10
46.4213
 20
79.2682
  0
SEQEND
  0
POLYLINE
  8
LAYER_1
  6
AIGENLINE001
 40
0.1058
 41
0.1058
 66
1
 10
0
 20
0
 30
0
 70
128
  0
VERTEX
  8
LAYER_1
 10
46.9132
 20
78.9788
  0
VERTEX
  8
LAYER_1
 10
46.9351
 20
78.9774
  0
VERTEX
  8
LAYER_1
 10
47.8079
 20
78.9774
  0
SEQEND
  0
POLYLINE
  8
LAYER_1
  6
AIGENLINE001
 40
0.1058
 41
0.1058
 66
1
 10
0
 20
0
 30
0
 70
128
  0
VERTEX
  8
LAYER_1
 10
48.107
 20
78.9774
  0
VERTEX
  8
LAYER_1
 10
53.7335
 20
78.9774
 42
0.414221481
  0
VERTEX
  8
LAYER_1
 10
54.3331
 20
79.5769
  0
VERTEX
  8
LAYER_1
 10
54.151
 20
79.796
  0
SEQEND
  0
POLYLINE
  8
LAYER_1
  6
AIGENLINE001
 40
0.1058
 41
0.1058
 66
1
 10
0
 20
0
 30
0
 70
128
  0
VERTEX
  8
LAYER_1
 10
53.9609
 20
80.0247
  0
VERTEX
  8
LAYER_1
 10
53.7549
 20
80.2728
  0
VERTEX
  8
LAYER_1
 10
53.4324
 20
80.2838
  0
SEQEND
  0
POLYLINE
  8
LAYER_1
  6
AIGENLINE001
 40
0.1058
 41
0.1058
 66
1
 10
0
 20
0
 30
0
 70
128
  0
VERTEX
  8
LAYER_1
 10
52.7858
 20
80.3059
  0
VERTEX
  8
LAYER_1
 10
51.8156
 20
80.3403
  0
SEQEND
  0
POLYLINE
  8
LAYER_1
  6
AIGENLINE001
 40
0.1058
 41
0.1058
 66
1
 10
0
 20
0
 30
0
 70
128
  0
VERTEX
  8
LAYER_1
 10
51.4925
 20
80.3513
  0
VERTEX
  8
LAYER_1
 10
46.9561
 20
80.5098
 42
0.1321039866
  0
VERTEX
  8
LAYER_1
 10
46.6523
 20
80.4395
  0
SEQEND
  0
POLYLINE
  8
LAYER_1
  6
AIGENLINE001
 40
0.1058
 41
0.1058
 66
1
 10
0
 20
0
 30
0
 70
128
  0
VERTEX
  8
LAYER_1
 10
46.4203
 20
80.219
 42
0.1254066767
  0
VERTEX
  8
LAYER_1
 10
46.3355
 20
79.931
  0
VERTEX
  8
LAYER_1
 10
46.3355
 20
79.9104
  0
SEQEND
  0
POLYLINE
  8
LAYER_1
  6
AIGENLINE001
 40
0.1058
 41
0.1058
 66
1
 10
0
 20
0
 30
0
 70
128
  0
VERTEX
  8
LAYER_1
 10
44.3363
 20
78.5778
 42
0.1346534478
  0
VERTEX
  8
LAYER_1
 10
44.4212
 20
78.2691
  0
SEQEND
  0
POLYLINE
  8
LAYER_1
  6
AIGENLINE001
 40
0.1058
 41
0.1058
 66
1
 10
0
 20
0
 30
0
 70
128
  0
VERTEX
  8
LAYER_1
 10
47.5936
 20
76.9779
  0
VERTEX
  8
LAYER_1
 10
48.5648
 20
76.9779
  0
SEQEND
  0
POLYLINE
  8
LAYER_1
  6
AIGENLINE001
 40
0.1058
 41
0.1058
 66
1
 10
0
 20
0
 30
0
 70
128
  0
VERTEX
  8
LAYER_1
 10
48.8883
 20
76.9779
  0
VERTEX
  8
LAYER_1
 10
54.0265
 20
76.9779
  0
VERTEX
  8
LAYER_1
 10
58.1417
 20
76.9779
  0
VERTEX
  8
LAYER_1
 10
82.2424
 20
76.9751
  0
SEQEND
  0
POLYLINE
  8
LAYER_1
  6
AIGENLINE001
 40
0.1058
 41
0.1058
 66
1
 10
0
 20
0
 30
0
 70
128
  0
VERTEX
  8
LAYER_1
 10
82.5662
 20
76.9751
  0
VERTEX
  8
LAYER_1
 10
82.8887
 20
76.9751
  0
SEQEND
  0
POLYLINE
  8
LAYER_1
 40
0.1058
 41
0.1058
 66
1
 10
0
 20
0
 30
0
  0
VERTEX
  8
LAYER_1
 10
61.8074
 20
73.7409
  0
VERTEX
  8
LAYER_1
 10
61.8074
 20
76.9696
  0
SEQEND
  0
POLYLINE
  8
LAYER_1
 40
0.1058
 41
0.1058
 66
1
 10
0
 20
0
 30
0
 70
1
  0
VERTEX
  8
LAYER_1
 10
103.3353
 20
73.7409
  0
VERTEX
  8
LAYER_1
 10
76.8075
 20
73.7409
  0
VERTEX
  8
LAYER_1
 10
76.8075
 20
76.9693
  0
VERTEX
  8
LAYER_1
 10
103.3353
 20
76.9693
  0
SEQEND
  0
POLYLINE
  8
LAYER_1
 40
0.1058
 41
0.1058
 66
1
 10
0
 20
0
 30
0
  0
VERTEX
  8
LAYER_1
 10
115.7583
 20
73.7409
  0
VERTEX
  8
LAYER_1
 10
110.9393
 20
73.7409
  0
VERTEX
  8
LAYER_1
 10
110.9393
 20
76.9696
  0
VERTEX
  8
LAYER_1
 10
122.0258
 20
76.9696
 42
-0.09482892894
  0
VERTEX
  8
LAYER_1
 10
122.3431
 20
76.8804
 42
-0.210084159
  0
VERTEX
  8
LAYER_1
 10
122.5864
 20
76.5706
 42
-0.04210293196
  0
VERTEX
  8
LAYER_1
 10
122.6294
 20
76.3643
  0
VERTEX
  8
LAYER_1
 10
122.6294
 20
74.3458
  0
SEQEND
  0
POLYLINE
  8
LAYER_1
 40
0.05
 41
0.05
 66
1
 10
0
 20
0
 30
0
 70
1
  0
VERTEX
  8
LAYER_1
 10
0
 20
210.3525
  0
VERTEX
  8
LAYER_1
 10
297.3531
 20
210.3525
  0
VERTEX
  8
LAYER_1
 10
297.3531
 20
0
  0
VERTEX
  8
LAYER_1
 10
0
 20
0
  0
SEQEND
  0
ENDBLK
  0
BLOCK
  8
LAYER_1
  2
AIGNBL01010015
 70
64
 10
0
 20
0
 30
0
  3
AIGNBL01010015
  0
POLYLINE
  8
LAYER_1
 40
0.1058
 41
0.1058
 66
1
 10
0
 20
0
 30
0
  0
VERTEX
  8
LAYER_1
 10
81.5781
 20
181.6208
  0
VERTEX
  8
LAYER_1
 10
81.5781
 20
186.6374
  0
SEQEND
  0
POLYLINE
  8
LAYER_1
 40
0.05
 41
0.05
 66
1
 10
0
 20
0
 30
0
 70
1
  0
VERTEX
  8
LAYER_1
 10
82.077
 20
181.961
  0
VERTEX
  8
LAYER_1
 10
81.5781
 20
180.0998
  0
VERTEX
  8
LAYER_1
 10
81.0793
 20
181.961
  0
SEQEND
  0
POLYLINE
  8
LAYER_1
 40
0.05
 41
0.05
 66
1
 10
0
 20
0
 30
0
 70
1
  0
VERTEX
  8
LAYER_1
 10
82.0579
 20
186.3099
  0
VERTEX
  8
LAYER_1
 10
81.5781
 20
188.1
  0
VERTEX
  8
LAYER_1
 10
81.0982
 20
186.3099
  0
SEQEND
  0
POLYLINE
  8
LAYER_1
 40
0.05
 41
0.05
 66
1
 10
0
 20
0
 30
0
 70
1
  0
VERTEX
  8
LAYER_1
 10
0
 20
210.3525
  0
VERTEX
  8
LAYER_1
 10
297.3531
 20
210.3525
  0
VERTEX
  8
LAYER_1
 10
297.3531
 20
0
  0
VERTEX
  8
LAYER_1
 10
0
 20
0
  0
SEQEND
  0
ENDBLK
  0
BLOCK
  8
LAYER_1
  2
AIGNBL01010016
 70
64
 10
0
 20
0
 30
0
  3
AIGNBL01010016
  0
POLYLINE
  8
LAYER_1
 40
0.1058
 41
0.1058
 66
1
 10
0
 20
0
 30
0
  0
VERTEX
  8
LAYER_1
 10
121.5785
 20
168.6702
  0
VERTEX
  8
LAYER_1
 10
106.5783
 20
168.6702
  0
SEQEND
  0
POLYLINE
  8
LAYER_1
 40
0.1058
 41
0.1058
 66
1
 10
0
 20
0
 30
0
  0
VERTEX
  8
LAYER_1
 10
121.5785
 20
169.4701
  0
VERTEX
  8
LAYER_1
 10
121.5785
 20
167.8702
  0
SEQEND
  0
POLYLINE
  8
LAYER_1
 40
0.1058
 41
0.1058
 66
1
 10
0
 20
0
 30
0
  0
VERTEX
  8
LAYER_1
 10
106.5785
 20
169.4701
  0
VERTEX
  8
LAYER_1
 10
106.5785
 20
167.8702
  0
SEQEND
  0
POLYLINE
  8
LAYER_1
 40
0.1058
 41
0.1058
 66
1
 10
0
 20
0
 30
0
  0
VERTEX
  8
LAYER_1
 10
106.5785
 20
168.6702
  0
VERTEX
  8
LAYER_1
 10
69.3784
 20
168.6702
  0
SEQEND
  0
POLYLINE
  8
LAYER_1
 40
0.1058
 41
0.1058
 66
1
 10
0
 20
0
 30
0
  0
VERTEX
  8
LAYER_1
 10
69.3784
 20
169.4701
  0
VERTEX
  8
LAYER_1
 10
69.3784
 20
167.8702
  0
SEQEND
  0
POLYLINE
  8
LAYER_1
 40
0.05
 41
0.05
 66
1
 10
0
 20
0
 30
0
 70
1
  0
VERTEX
  8
LAYER_1
 10
0
 20
210.3525
  0
VERTEX
  8
LAYER_1
 10
297.3531
 20
210.3525
  0
VERTEX
  8
LAYER_1
 10
297.3531
 20
0
  0
VERTEX
  8
LAYER_1
 10
0
 20
0
  0
SEQEND
  0
ENDBLK
  0
BLOCK
  8
LAYER_1
  2
AIGNBL01010017
 70
64
 10
0
 20
0
 30
0
  3
AIGNBL01010017
  0
POLYLINE
  8
LAYER_1
 40
0.1058
 41
0.1058
 66
1
 10
0
 20
0
 30
0
  0
VERTEX
  8
LAYER_1
 10
122.6292
 20
108.1092
  0
VERTEX
  8
LAYER_1
 10
42.6294
 20
108.1092
  0
SEQEND
  0
POLYLINE
  8
LAYER_1
 40
0.1058
 41
0.1058
 66
1
 10
0
 20
0
 30
0
  0
VERTEX
  8
LAYER_1
 10
122.6292
 20
108.9098
  0
VERTEX
  8
LAYER_1
 10
122.6292
 20
80.9673
  0
SEQEND
  0
POLYLINE
  8
LAYER_1
 40
0.1058
 41
0.1058
 66
1
 10
0
 20
0
 30
0
  0
VERTEX
  8
LAYER_1
 10
42.6293
 20
108.9098
  0
VERTEX
  8
LAYER_1
 10
42.6293
 20
80.9673
  0
SEQEND
  0
POLYLINE
  8
LAYER_1
 40
0.1058
 41
0.1058
 66
1
 10
0
 20
0
 30
0
  0
VERTEX
  8
LAYER_1
 10
94.3367
 20
101.8239
  0
VERTEX
  8
LAYER_1
 10
44.3365
 20
101.8239
  0
SEQEND
  0
POLYLINE
  8
LAYER_1
 40
0.1058
 41
0.1058
 66
1
 10
0
 20
0
 30
0
  0
VERTEX
  8
LAYER_1
 10
94.3367
 20
102.6232
  0
VERTEX
  8
LAYER_1
 10
94.3367
 20
101.0233
  0
SEQEND
  0
POLYLINE
  8
LAYER_1
 40
0.1058
 41
0.1058
 66
1
 10
0
 20
0
 30
0
  0
VERTEX
  8
LAYER_1
 10
44.3363
 20
102.6232
  0
VERTEX
  8
LAYER_1
 10
44.3363
 20
101.0233
  0
SEQEND
  0
POLYLINE
  8
LAYER_1
 40
0.05
 41
0.05
 66
1
 10
0
 20
0
 30
0
 70
1
  0
VERTEX
  8
LAYER_1
 10
0
 20
210.3525
  0
VERTEX
  8
LAYER_1
 10
297.3531
 20
210.3525
  0
VERTEX
  8
LAYER_1
 10
297.3531
 20
0
  0
VERTEX
  8
LAYER_1
 10
0
 20
0
  0
SEQEND
  0
ENDBLK
  0
BLOCK
  8
LAYER_1
  2
AIGNBL01010018
 70
64
 10
0
 20
0
 30
0
  3
AIGNBL01010018
  0
POLYLINE
  8
LAYER_1
 40
0.1058
 41
0.1058
 66
1
 10
0
 20
0
 30
0
  0
VERTEX
  8
LAYER_1
 10
122.2296
 20
49.8443
  0
VERTEX
  8
LAYER_1
 10
43.0292
 20
49.8443
  0
SEQEND
  0
POLYLINE
  8
LAYER_1
 40
0.1058
 41
0.1058
 66
1
 10
0
 20
0
 30
0
  0
VERTEX
  8
LAYER_1
 10
122.2296
 20
50.6436
  0
VERTEX
  8
LAYER_1
 10
122.2296
 20
49.0437
  0
SEQEND
  0
POLYLINE
  8
LAYER_1
 40
0.1058
 41
0.1058
 66
1
 10
0
 20
0
 30
0
  0
VERTEX
  8
LAYER_1
 10
43.0292
 20
50.6436
  0
VERTEX
  8
LAYER_1
 10
43.0292
 20
49.0437
  0
SEQEND
  0
POLYLINE
  8
LAYER_1
 40
0.05
 41
0.05
 66
1
 10
0
 20
0
 30
0
 70
1
  0
VERTEX
  8
LAYER_1
 10
0
 20
210.3525
  0
VERTEX
  8
LAYER_1
 10
297.3531
 20
210.3525
  0
VERTEX
  8
LAYER_1
 10
297.3531
 20
0
  0
VERTEX
  8
LAYER_1
 10
0
 20
0
  0
SEQEND
  0
ENDBLK
  0
BLOCK
  8
LAYER_1
  2
AIGNBL01010019
 70
64
 10
0
 20
0
 30
0
  3
AIGNBL01010019
  0
POLYLINE
  8
LAYER_1
 40
0.1058
 41
0.1058
 66
1
 10
0
 20
0
 30
0
  0
VERTEX
  8
LAYER_1
 10
124.5888
 20
65.3266
  0
VERTEX
  8
LAYER_1
 10
124.5888
 20
73.3261
  0
SEQEND
  0
POLYLINE
  8
LAYER_1
 40
0.1058
 41
0.1058
 66
1
 10
0
 20
0
 30
0
  0
VERTEX
  8
LAYER_1
 10
125.3887
 20
65.3266
  0
VERTEX
  8
LAYER_1
 10
123.7888
 20
65.3266
  0
SEQEND
  0
POLYLINE
  8
LAYER_1
 40
0.1058
 41
0.1058
 66
1
 10
0
 20
0
 30
0
  0
VERTEX
  8
LAYER_1
 10
125.3887
 20
73.3261
  0
VERTEX
  8
LAYER_1
 10
123.7888
 20
73.3261
  0
SEQEND
  0
POLYLINE
  8
LAYER_1
 40
0.1058
 41
0.1058
 66
1
 10
0
 20
0
 30
0
  0
VERTEX
  8
LAYER_1
 10
124.5888
 20
73.3261
  0
VERTEX
  8
LAYER_1
 10
124.5888
 20
76.3261
  0
SEQEND
  0
POLYLINE
  8
LAYER_1
 40
0.1058
 41
0.1058
 66
1
 10
0
 20
0
 30
0
  0
VERTEX
  8
LAYER_1
 10
125.3887
 20
73.3261
  0
VERTEX
  8
LAYER_1
 10
123.7888
 20
73.3261
  0
SEQEND
  0
POLYLINE
  8
LAYER_1
 40
0.1058
 41
0.1058
 66
1
 10
0
 20
0
 30
0
  0
VERTEX
  8
LAYER_1
 10
125.3887
 20
76.3261
  0
VERTEX
  8
LAYER_1
 10
123.7888
 20
76.3261
  0
SEQEND
  0
POLYLINE
  8
LAYER_1
 40
0.05
 41
0.05
 66
1
 10
0
 20
0
 30
0
 70
1
  0
VERTEX
  8
LAYER_1
 10
0
 20
210.3525
  0
VERTEX
  8
LAYER_1
 10
297.3531
 20
210.3525
  0
VERTEX
  8
LAYER_1
 10
297.3531
 20
0
  0
VERTEX
  8
LAYER_1
 10
0
 20
0
  0
SEQEND
  0
ENDBLK
  0
BLOCK
  8
LAYER_1
  2
AIGNBL0101001A
 70
64
 10
0
 20
0
 30
0
  3
AIGNBL0101001A
  0
POLYLINE
  8
LAYER_1
 40
0.1058
 41
0.1058
 66
1
 10
0
 20
0
 30
0
  0
VERTEX
  8
LAYER_1
 10
124.5888
 20
65.3266
  0
VERTEX
  8
LAYER_1
 10
124.5888
 20
53.3266
  0
SEQEND
  0
POLYLINE
  8
LAYER_1
 40
0.1058
 41
0.1058
 66
1
 10
0
 20
0
 30
0
  0
VERTEX
  8
LAYER_1
 10
123.7888
 20
65.3266
  0
VERTEX
  8
LAYER_1
 10
125.3887
 20
65.3266
  0
SEQEND
  0
POLYLINE
  8
LAYER_1
 40
0.1058
 41
0.1058
 66
1
 10
0
 20
0
 30
0
  0
VERTEX
  8
LAYER_1
 10
123.7888
 20
53.3266
  0
VERTEX
  8
LAYER_1
 10
125.3887
 20
53.3266
  0
SEQEND
  0
POLYLINE
  8
LAYER_1
  6
AIGENLINE003
 40
0.1058
 41
0.1058
 62
252
 66
1
 10
0
 20
0
 30
0
 70
129
  0
VERTEX
  8
LAYER_1
 10
118.9512
 20
132.9452
 42
-0.3923716922
  0
VERTEX
  8
LAYER_1
 10
118.5509
 20
132.5456
  0
VERTEX
  8
LAYER_1
 10
44.5987
 20
132.5456
 42
-0.4142449699
  0
VERTEX
  8
LAYER_1
 10
44.199
 20
132.9452
  0
VERTEX
  8
LAYER_1
 10
44.199
 20
184.6793
 42
-0.3921932796
  0
VERTEX
  8
LAYER_1
 10
44.5987
 20
185.0798
  0
VERTEX
  8
LAYER_1
 10
118.5509
 20
185.0798
 42
-0.4142444696
  0
VERTEX
  8
LAYER_1
 10
118.9512
 20
184.6793
  0
SEQEND
  0
POLYLINE
  8
LAYER_1
  6
AIGENLINE004
 40
0.1058
 41
0.1058
 62
252
 66
1
 10
0
 20
0
 30
0
 70
129
  0
VERTEX
  8
LAYER_1
 10
45.5989
 20
133.5453
 42
-0.4142162155
  0
VERTEX
  8
LAYER_1
 10
45.1984
 20
133.9457
  0
VERTEX
  8
LAYER_1
 10
45.1984
 20
183.6796
 42
-0.4141644714
  0
VERTEX
  8
LAYER_1
 10
45.5989
 20
184.0801
  0
VERTEX
  8
LAYER_1
 10
117.5511
 20
184.0801
 42
-0.3924185774
  0
VERTEX
  8
LAYER_1
 10
117.9508
 20
183.6796
  0
VERTEX
  8
LAYER_1
 10
117.9508
 20
133.9457
 42
-0.3921801729
  0
VERTEX
  8
LAYER_1
 10
117.5511
 20
133.5453
  0
SEQEND
  0
POLYLINE
  8
LAYER_1
 40
0.05
 41
0.05
 66
1
 10
0
 20
0
 30
0
 70
1
  0
VERTEX
  8
LAYER_1
 10
0
 20
210.3525
  0
VERTEX
  8
LAYER_1
 10
297.3531
 20
210.3525
  0
VERTEX
  8
LAYER_1
 10
297.3531
 20
0
  0
VERTEX
  8
LAYER_1
 10
0
 20
0
  0
SEQEND
  0
ENDBLK
  0
BLOCK
  8
LAYER_1
  2
AIGNBL0101001B
 70
64
 10
0
 20
0
 30
0
  3
AIGNBL0101001B
  0
POLYLINE
  8
LAYER_1
 40
0.1058
 41
0.1058
 66
1
 10
0
 20
0
 30
0
  0
VERTEX
  8
LAYER_1
 10
67.2186
 20
191.7654
  0
VERTEX
  8
LAYER_1
 10
67.2186
 20
190.1655
  0
SEQEND
  0
POLYLINE
  8
LAYER_1
 40
0.1058
 41
0.1058
 66
1
 10
0
 20
0
 30
0
  0
VERTEX
  8
LAYER_1
 10
97.2185
 20
191.7654
  0
VERTEX
  8
LAYER_1
 10
97.2185
 20
190.1655
  0
SEQEND
  0
POLYLINE
  8
LAYER_1
 40
0.1058
 41
0.1058
 66
1
 10
0
 20
0
 30
0
  0
VERTEX
  8
LAYER_1
 10
67.2186
 20
189.8368
  0
VERTEX
  8
LAYER_1
 10
67.2186
 20
189.3077
  0
SEQEND
  0
POLYLINE
  8
LAYER_1
  6
AIGENLINE002
 40
0.1058
 41
0.1058
 66
1
 10
0
 20
0
 30
0
 70
128
  0
VERTEX
  8
LAYER_1
 10
67.2186
 20
188.6021
  0
VERTEX
  8
LAYER_1
 10
67.2186
 20
187.5438
  0
SEQEND
  0
POLYLINE
  8
LAYER_1
 40
0.1058
 41
0.1058
 66
1
 10
0
 20
0
 30
0
  0
VERTEX
  8
LAYER_1
 10
67.2186
 20
187.191
  0
VERTEX
  8
LAYER_1
 10
67.2186
 20
186.6618
  0
SEQEND
  0
POLYLINE
  8
LAYER_1
 40
0.1058
 41
0.1058
 66
1
 10
0
 20
0
 30
0
  0
VERTEX
  8
LAYER_1
 10
97.2185
 20
189.8368
  0
VERTEX
  8
LAYER_1
 10
97.2185
 20
189.3077
  0
SEQEND
  0
POLYLINE
  8
LAYER_1
  6
AIGENLINE002
 40
0.1058
 41
0.1058
 66
1
 10
0
 20
0
 30
0
 70
128
  0
VERTEX
  8
LAYER_1
 10
97.2185
 20
188.6021
  0
VERTEX
  8
LAYER_1
 10
97.2185
 20
187.5438
  0
SEQEND
  0
POLYLINE
  8
LAYER_1
 40
0.1058
 41
0.1058
 66
1
 10
0
 20
0
 30
0
  0
VERTEX
  8
LAYER_1
 10
97.2185
 20
187.191
  0
VERTEX
  8
LAYER_1
 10
97.2185
 20
186.6618
  0
SEQEND
  0
POLYLINE
  8
LAYER_1
 40
0.1058
 41
0.1058
 66
1
 10
0
 20
0
 30
0
  0
VERTEX
  8
LAYER_1
 10
67.2186
 20
190.9654
  0
VERTEX
  8
LAYER_1
 10
97.2185
 20
190.9654
  0
SEQEND
  0
POLYLINE
  8
LAYER_1
 40
0.05
 41
0.05
 66
1
 10
0
 20
0
 30
0
 70
1
  0
VERTEX
  8
LAYER_1
 10
0
 20
210.3525
  0
VERTEX
  8
LAYER_1
 10
297.3531
 20
210.3525
  0
VERTEX
  8
LAYER_1
 10
297.3531
 20
0
  0
VERTEX
  8
LAYER_1
 10
0
 20
0
  0
SEQEND
  0
ENDBLK
  0
BLOCK
  8
LAYER_1
  2
AIGNBL0101001C
 70
64
 10
0
 20
0
 30
0
  3
AIGNBL0101001C
  0
POLYLINE
  8
LAYER_1
 40
0.1058
 41
0.1058
 66
1
 10
0
 20
0
 30
0
  0
VERTEX
  8
LAYER_1
 10
36.5814
 20
130.0244
  0
VERTEX
  8
LAYER_1
 10
38.1813
 20
130.0244
  0
SEQEND
  0
POLYLINE
  8
LAYER_1
 40
0.1058
 41
0.1058
 66
1
 10
0
 20
0
 30
0
  0
VERTEX
  8
LAYER_1
 10
36.5814
 20
188.0247
  0
VERTEX
  8
LAYER_1
 10
38.1813
 20
188.0247
  0
SEQEND
  0
POLYLINE
  8
LAYER_1
 40
0.1058
 41
0.1058
 66
1
 10
0
 20
0
 30
0
  0
VERTEX
  8
LAYER_1
 10
37.3814
 20
130.0244
  0
VERTEX
  8
LAYER_1
 10
37.3814
 20
188.0247
  0
SEQEND
  0
POLYLINE
  8
LAYER_1
 40
0.05
 41
0.05
 66
1
 10
0
 20
0
 30
0
 70
1
  0
VERTEX
  8
LAYER_1
 10
0
 20
210.3525
  0
VERTEX
  8
LAYER_1
 10
297.3531
 20
210.3525
  0
VERTEX
  8
LAYER_1
 10
297.3531
 20
0
  0
VERTEX
  8
LAYER_1
 10
0
 20
0
  0
SEQEND
  0
ENDBLK
  0
BLOCK
  8
LAYER_1
  2
AIGNBL0101001D
 70
64
 10
0
 20
0
 30
0
  3
AIGNBL0101001D
  0
POLYLINE
  8
LAYER_1
 40
0.1058
 41
0.1058
 66
1
 10
0
 20
0
 30
0
  0
VERTEX
  8
LAYER_1
 10
41.5782
 20
127.0851
  0
VERTEX
  8
LAYER_1
 10
41.5782
 20
125.4852
  0
SEQEND
  0
POLYLINE
  8
LAYER_1
 40
0.1058
 41
0.1058
 66
1
 10
0
 20
0
 30
0
  0
VERTEX
  8
LAYER_1
 10
121.5778
 20
127.0851
  0
VERTEX
  8
LAYER_1
 10
121.5778
 20
125.4852
  0
SEQEND
  0
POLYLINE
  8
LAYER_1
 40
0.1058
 41
0.1058
 66
1
 10
0
 20
0
 30
0
  0
VERTEX
  8
LAYER_1
 10
41.5782
 20
126.2851
  0
VERTEX
  8
LAYER_1
 10
121.5779
 20
126.2851
  0
SEQEND
  0
POLYLINE
  8
LAYER_1
 40
0.05
 41
0.05
 66
1
 10
0
 20
0
 30
0
 70
1
  0
VERTEX
  8
LAYER_1
 10
0
 20
210.3525
  0
VERTEX
  8
LAYER_1
 10
297.3531
 20
210.3525
  0
VERTEX
  8
LAYER_1
 10
297.3531
 20
0
  0
VERTEX
  8
LAYER_1
 10
0
 20
0
  0
SEQEND
  0
ENDBLK
  0
BLOCK
  8
LAYER_1
  2
AIGNBL0101001E
 70
64
 10
0
 20
0
 30
0
  3
AIGNBL0101001E
  0
POLYLINE
  8
LAYER_1
 40
0.1058
 41
0.1058
 66
1
 10
0
 20
0
 30
0
  0
VERTEX
  8
LAYER_1
 10
67.2186
 20
59.4038
  0
VERTEX
  8
LAYER_1
 10
67.2186
 20
57.8039
  0
SEQEND
  0
POLYLINE
  8
LAYER_1
 40
0.1058
 41
0.1058
 66
1
 10
0
 20
0
 30
0
  0
VERTEX
  8
LAYER_1
 10
97.2185
 20
59.4038
  0
VERTEX
  8
LAYER_1
 10
97.2185
 20
57.8039
  0
SEQEND
  0
POLYLINE
  8
LAYER_1
 40
0.1058
 41
0.1058
 66
1
 10
0
 20
0
 30
0
  0
VERTEX
  8
LAYER_1
 10
67.2186
 20
58.6031
  0
VERTEX
  8
LAYER_1
 10
97.2185
 20
58.6031
  0
SEQEND
  0
POLYLINE
  8
LAYER_1
 40
0.05
 41
0.05
 66
1
 10
0
 20
0
 30
0
 70
1
  0
VERTEX
  8
LAYER_1
 10
0
 20
210.3525
  0
VERTEX
  8
LAYER_1
 10
297.3531
 20
210.3525
  0
VERTEX
  8
LAYER_1
 10
297.3531
 20
0
  0
VERTEX
  8
LAYER_1
 10
0
 20
0
  0
SEQEND
  0
ENDBLK
  0
BLOCK
  8
LAYER_1
  2
AIGNBL0101001F
 70
64
 10
0
 20
0
 30
0
  3
AIGNBL0101001F
  0
POLYLINE
  8
LAYER_1
  6
AIGENLINE003
 40
0.1058
 41
0.1058
 66
1
 10
0
 20
0
 30
0
 70
128
  0
VERTEX
  8
LAYER_1
 10
106.5785
 20
165.5034
  0
VERTEX
  8
LAYER_1
 10
106.5785
 20
152.1035
  0
SEQEND
  0
POLYLINE
  8
LAYER_1
  6
AIGENLINE003
 40
0.1058
 41
0.1058
 66
1
 10
0
 20
0
 30
0
 70
128
  0
VERTEX
  8
LAYER_1
 10
99.8785
 20
158.8034
  0
VERTEX
  8
LAYER_1
 10
113.2784
 20
158.8034
  0
SEQEND
  0
POLYLINE
  8
LAYER_1
  6
AIGENLINE003
 40
0.1058
 41
0.1058
 66
1
 10
0
 20
0
 30
0
 70
128
  0
VERTEX
  8
LAYER_1
 10
69.2895
 20
167.0027
  0
VERTEX
  8
LAYER_1
 10
69.2895
 20
150.6036
  0
SEQEND
  0
POLYLINE
  8
LAYER_1
  6
AIGENLINE003
 40
0.1058
 41
0.1058
 66
1
 10
0
 20
0
 30
0
 70
128
  0
VERTEX
  8
LAYER_1
 10
61.0902
 20
158.8034
  0
VERTEX
  8
LAYER_1
 10
77.49
 20
158.8034
  0
SEQEND
  0
POLYLINE
  8
LAYER_1
 40
0.1058
 41
0.1058
 66
1
 10
0
 20
0
 30
0
  0
VERTEX
  8
LAYER_1
 10
45.7998
 20
65.3266
  0
VERTEX
  8
LAYER_1
 10
42.2134
 20
65.3266
  0
VERTEX
  8
LAYER_1
 10
42.2134
 20
53.2067
  0
VERTEX
  8
LAYER_1
 10
122.2136
 20
53.2067
  0
VERTEX
  8
LAYER_1
 10
122.2136
 20
65.3266
  0
VERTEX
  8
LAYER_1
 10
118.6841
 20
65.3266
  0
SEQEND
  0
POLYLINE
  8
LAYER_1
 40
0.1058
 41
0.1058
 66
1
 10
0
 20
0
 30
0
  0
VERTEX
  8
LAYER_1
 10
45.3278
 20
64.3068
  0
VERTEX
  8
LAYER_1
 10
43.2139
 20
64.3068
  0
VERTEX
  8
LAYER_1
 10
43.2139
 20
54.2072
  0
VERTEX
  8
LAYER_1
 10
121.2131
 20
54.2072
  0
VERTEX
  8
LAYER_1
 10
121.2131
 20
64.3068
  0
VERTEX
  8
LAYER_1
 10
119.1938
 20
64.3068
  0
SEQEND
  0
POLYLINE
  8
LAYER_1
 40
0.1058
 41
0.1058
 62
252
 66
1
 10
0
 20
0
 30
0
  0
VERTEX
  8
LAYER_1
 10
117.6834
 20
67.3261
  0
VERTEX
  8
LAYER_1
 10
118.6839
 20
67.3261
  0
SEQEND
  0
POLYLINE
  8
LAYER_1
 40
0.1058
 41
0.1058
 62
252
 66
1
 10
0
 20
0
 30
0
  0
VERTEX
  8
LAYER_1
 10
117.6834
 20
67.1194
  0
VERTEX
  8
LAYER_1
 10
118.6839
 20
67.1194
  0
SEQEND
  0
POLYLINE
  8
LAYER_1
 40
0.1058
 41
0.1058
 62
252
 66
1
 10
0
 20
0
 30
0
  0
VERTEX
  8
LAYER_1
 10
117.6834
 20
66.9113
  0
VERTEX
  8
LAYER_1
 10
118.6839
 20
66.9113
  0
SEQEND
  0
POLYLINE
  8
LAYER_1
 40
0.1058
 41
0.1058
 62
252
 66
1
 10
0
 20
0
 30
0
  0
VERTEX
  8
LAYER_1
 10
117.6834
 20
66.7032
  0
VERTEX
  8
LAYER_1
 10
118.6839
 20
66.7032
  0
SEQEND
  0
POLYLINE
  8
LAYER_1
 40
0.1058
 41
0.1058
 62
252
 66
1
 10
0
 20
0
 30
0
  0
VERTEX
  8
LAYER_1
 10
117.6834
 20
66.5158
  0
VERTEX
  8
LAYER_1
 10
118.6839
 20
66.5158
  0
SEQEND
  0
POLYLINE
  8
LAYER_1
 40
0.1058
 41
0.1058
 62
252
 66
1
 10
0
 20
0
 30
0
  0
VERTEX
  8
LAYER_1
 10
117.6834
 20
66.3078
  0
VERTEX
  8
LAYER_1
 10
118.6839
 20
66.3078
  0
SEQEND
  0
POLYLINE
  8
LAYER_1
 40
0.1058
 41
0.1058
 62
252
 66
1
 10
0
 20
0
 30
0
  0
VERTEX
  8
LAYER_1
 10
117.6834
 20
66.0997
  0
VERTEX
  8
LAYER_1
 10
118.6839
 20
66.0997
  0
SEQEND
  0
POLYLINE
  8
LAYER_1
 40
0.1058
 41
0.1058
 62
252
 66
1
 10
0
 20
0
 30
0
  0
VERTEX
  8
LAYER_1
 10
117.6834
 20
65.9109
  0
VERTEX
  8
LAYER_1
 10
118.6839
 20
65.9109
  0
SEQEND
  0
POLYLINE
  8
LAYER_1
 40
0.1058
 41
0.1058
 62
252
 66
1
 10
0
 20
0
 30
0
  0
VERTEX
  8
LAYER_1
 10
117.6834
 20
65.7042
  0
VERTEX
  8
LAYER_1
 10
118.6839
 20
65.7042
  0
SEQEND
  0
POLYLINE
  8
LAYER_1
 40
0.1058
 41
0.1058
 62
252
 66
1
 10
0
 20
0
 30
0
  0
VERTEX
  8
LAYER_1
 10
117.6834
 20
65.4961
  0
VERTEX
  8
LAYER_1
 10
118.6839
 20
65.4961
  0
SEQEND
  0
POLYLINE
  8
LAYER_1
 40
0.1058
 41
0.1058
 62
252
 66
1
 10
0
 20
0
 30
0
  0
VERTEX
  8
LAYER_1
 10
117.6834
 20
65.3073
  0
VERTEX
  8
LAYER_1
 10
118.6839
 20
65.3073
  0
SEQEND
  0
POLYLINE
  8
LAYER_1
 40
0.1058
 41
0.1058
 62
252
 66
1
 10
0
 20
0
 30
0
  0
VERTEX
  8
LAYER_1
 10
117.6834
 20
65.0992
  0
VERTEX
  8
LAYER_1
 10
118.6839
 20
65.0992
  0
SEQEND
  0
POLYLINE
  8
LAYER_1
 40
0.1058
 41
0.1058
 62
252
 66
1
 10
0
 20
0
 30
0
  0
VERTEX
  8
LAYER_1
 10
117.6834
 20
64.8911
  0
VERTEX
  8
LAYER_1
 10
118.6839
 20
64.8911
  0
SEQEND
  0
POLYLINE
  8
LAYER_1
 40
0.1058
 41
0.1058
 66
1
 10
0
 20
0
 30
0
 70
1
  0
VERTEX
  8
LAYER_1
 10
119.1938
 20
64.3068
  0
VERTEX
  8
LAYER_1
 10
118.6841
 20
64.8167
  0
VERTEX
  8
LAYER_1
 10
118.6841
 20
67.3454
  0
VERTEX
  8
LAYER_1
 10
117.6836
 20
67.3454
  0
VERTEX
  8
LAYER_1
 10
117.6836
 20
64.8167
  0
VERTEX
  8
LAYER_1
 10
117.1734
 20
64.3068
  0
SEQEND
  0
POLYLINE
  8
LAYER_1
 40
0.1058
 41
0.1058
 66
1
 10
0
 20
0
 30
0
  0
VERTEX
  8
LAYER_1
 10
118.6839
 20
64.8167
  0
VERTEX
  8
LAYER_1
 10
117.6834
 20
64.8167
  0
SEQEND
  0
POLYLINE
  8
LAYER_1
 40
0.1058
 41
0.1058
 62
252
 66
1
 10
0
 20
0
 30
0
  0
VERTEX
  8
LAYER_1
 10
45.7998
 20
67.3261
  0
VERTEX
  8
LAYER_1
 10
46.8002
 20
67.3261
  0
SEQEND
  0
POLYLINE
  8
LAYER_1
 40
0.1058
 41
0.1058
 62
252
 66
1
 10
0
 20
0
 30
0
  0
VERTEX
  8
LAYER_1
 10
45.7998
 20
67.1194
  0
VERTEX
  8
LAYER_1
 10
46.8002
 20
67.1194
  0
SEQEND
  0
POLYLINE
  8
LAYER_1
 40
0.1058
 41
0.1058
 62
252
 66
1
 10
0
 20
0
 30
0
  0
VERTEX
  8
LAYER_1
 10
45.7998
 20
66.9113
  0
VERTEX
  8
LAYER_1
 10
46.8002
 20
66.9113
  0
SEQEND
  0
POLYLINE
  8
LAYER_1
 40
0.1058
 41
0.1058
 62
252
 66
1
 10
0
 20
0
 30
0
  0
VERTEX
  8
LAYER_1
 10
45.7998
 20
66.7032
  0
VERTEX
  8
LAYER_1
 10
46.8002
 20
66.7032
  0
SEQEND
  0
POLYLINE
  8
LAYER_1
 40
0.1058
 41
0.1058
 62
252
 66
1
 10
0
 20
0
 30
0
  0
VERTEX
  8
LAYER_1
 10
45.7998
 20
66.5158
  0
VERTEX
  8
LAYER_1
 10
46.8002
 20
66.5158
  0
SEQEND
  0
POLYLINE
  8
LAYER_1
 40
0.1058
 41
0.1058
 62
252
 66
1
 10
0
 20
0
 30
0
  0
VERTEX
  8
LAYER_1
 10
45.7998
 20
66.3078
  0
VERTEX
  8
LAYER_1
 10
46.8002
 20
66.3078
  0
SEQEND
  0
POLYLINE
  8
LAYER_1
 40
0.1058
 41
0.1058
 62
252
 66
1
 10
0
 20
0
 30
0
  0
VERTEX
  8
LAYER_1
 10
45.7998
 20
66.0997
  0
VERTEX
  8
LAYER_1
 10
46.8002
 20
66.0997
  0
SEQEND
  0
POLYLINE
  8
LAYER_1
 40
0.1058
 41
0.1058
 62
252
 66
1
 10
0
 20
0
 30
0
  0
VERTEX
  8
LAYER_1
 10
45.7998
 20
65.9109
  0
VERTEX
  8
LAYER_1
 10
46.8002
 20
65.9109
  0
SEQEND
  0
POLYLINE
  8
LAYER_1
 40
0.1058
 41
0.1058
 62
252
 66
1
 10
0
 20
0
 30
0
  0
VERTEX
  8
LAYER_1
 10
45.7998
 20
65.7042
  0
VERTEX
  8
LAYER_1
 10
46.8002
 20
65.7042
  0
SEQEND
  0
POLYLINE
  8
LAYER_1
 40
0.1058
 41
0.1058
 62
252
 66
1
 10
0
 20
0
 30
0
  0
VERTEX
  8
LAYER_1
 10
45.7998
 20
65.4961
  0
VERTEX
  8
LAYER_1
 10
46.8002
 20
65.4961
  0
SEQEND
  0
POLYLINE
  8
LAYER_1
 40
0.1058
 41
0.1058
 62
252
 66
1
 10
0
 20
0
 30
0
  0
VERTEX
  8
LAYER_1
 10
45.7998
 20
65.3073
  0
VERTEX
  8
LAYER_1
 10
46.8002
 20
65.3073
  0
SEQEND
  0
POLYLINE
  8
LAYER_1
 40
0.1058
 41
0.1058
 62
252
 66
1
 10
0
 20
0
 30
0
  0
VERTEX
  8
LAYER_1
 10
45.7998
 20
65.0992
  0
VERTEX
  8
LAYER_1
 10
46.8002
 20
65.0992
  0
SEQEND
  0
POLYLINE
  8
LAYER_1
 40
0.1058
 41
0.1058
 62
252
 66
1
 10
0
 20
0
 30
0
  0
VERTEX
  8
LAYER_1
 10
45.7998
 20
64.8911
  0
VERTEX
  8
LAYER_1
 10
46.8002
 20
64.8911
  0
SEQEND
  0
POLYLINE
  8
LAYER_1
 40
0.1058
 41
0.1058
 66
1
 10
0
 20
0
 30
0
 70
1
  0
VERTEX
  8
LAYER_1
 10
47.3098
 20
64.3068
  0
VERTEX
  8
LAYER_1
 10
46.8004
 20
64.8167
  0
VERTEX
  8
LAYER_1
 10
46.8004
 20
67.3454
  0
VERTEX
  8
LAYER_1
 10
45.7998
 20
67.3454
  0
VERTEX
  8
LAYER_1
 10
45.7998
 20
64.8167
  0
VERTEX
  8
LAYER_1
 10
45.2897
 20
64.3068
  0
SEQEND
  0
POLYLINE
  8
LAYER_1
 40
0.1058
 41
0.1058
 66
1
 10
0
 20
0
 30
0
  0
VERTEX
  8
LAYER_1
 10
46.8002
 20
64.8167
  0
VERTEX
  8
LAYER_1
 10
45.7998
 20
64.8167
  0
SEQEND
  0
POLYLINE
  8
LAYER_1
 40
0.1058
 41
0.1058
 66
1
 10
0
 20
0
 30
0
  0
VERTEX
  8
LAYER_1
 10
117.6834
 20
65.3266
  0
VERTEX
  8
LAYER_1
 10
46.8004
 20
65.3266
  0
SEQEND
  0
POLYLINE
  8
LAYER_1
 40
0.1058
 41
0.1058
 66
1
 10
0
 20
0
 30
0
  0
VERTEX
  8
LAYER_1
 10
117.1736
 20
64.3068
  0
VERTEX
  8
LAYER_1
 10
47.1398
 20
64.3068
  0
SEQEND
  0
POLYLINE
  8
LAYER_1
 40
0.1058
 41
0.1058
 66
1
 10
0
 20
0
 30
0
  0
VERTEX
  8
LAYER_1
 10
45.2903
 20
64.3068
  0
VERTEX
  8
LAYER_1
 10
47.3099
 20
64.3068
  0
SEQEND
  0
POLYLINE
  8
LAYER_1
 40
0.1058
 41
0.1058
 66
1
 10
0
 20
0
 30
0
  0
VERTEX
  8
LAYER_1
 10
117.6834
 20
65.3266
  0
VERTEX
  8
LAYER_1
 10
117.6834
 20
64.8167
  0
VERTEX
  8
LAYER_1
 10
117.1737
 20
64.3068
  0
SEQEND
  0
POLYLINE
  8
LAYER_1
 40
0.1058
 41
0.1058
 66
1
 10
0
 20
0
 30
0
  0
VERTEX
  8
LAYER_1
 10
118.6839
 20
65.3266
  0
VERTEX
  8
LAYER_1
 10
118.6839
 20
64.8167
  0
VERTEX
  8
LAYER_1
 10
119.1936
 20
64.3068
  0
SEQEND
  0
POLYLINE
  8
LAYER_1
 40
0.1058
 41
0.1058
 66
1
 10
0
 20
0
 30
0
  0
VERTEX
  8
LAYER_1
 10
119.1938
 20
64.3068
  0
VERTEX
  8
LAYER_1
 10
117.1734
 20
64.3068
  0
SEQEND
  0
POLYLINE
  8
LAYER_1
 40
0.1058
 41
0.1058
 66
1
 10
0
 20
0
 30
0
  0
VERTEX
  8
LAYER_1
 10
45.7998
 20
65.3266
  0
VERTEX
  8
LAYER_1
 10
45.7998
 20
64.8167
  0
VERTEX
  8
LAYER_1
 10
45.2904
 20
64.3068
  0
SEQEND
  0
POLYLINE
  8
LAYER_1
 40
0.1058
 41
0.1058
 66
1
 10
0
 20
0
 30
0
  0
VERTEX
  8
LAYER_1
 10
46.8006
 20
65.3266
  0
VERTEX
  8
LAYER_1
 10
46.8006
 20
64.8167
  0
VERTEX
  8
LAYER_1
 10
47.3096
 20
64.3068
  0
SEQEND
  0
POLYLINE
  8
LAYER_1
 40
0.1058
 41
0.1058
 66
1
 10
0
 20
0
 30
0
  0
VERTEX
  8
LAYER_1
 10
117.6834
 20
65.3266
  0
VERTEX
  8
LAYER_1
 10
118.6839
 20
65.3266
  0
SEQEND
  0
POLYLINE
  8
LAYER_1
 40
0.1058
 41
0.1058
 66
1
 10
0
 20
0
 30
0
  0
VERTEX
  8
LAYER_1
 10
118.6839
 20
64.8167
  0
VERTEX
  8
LAYER_1
 10
117.6834
 20
64.8167
  0
SEQEND
  0
POLYLINE
  8
LAYER_1
 40
0.1058
 41
0.1058
 66
1
 10
0
 20
0
 30
0
  0
VERTEX
  8
LAYER_1
 10
45.7998
 20
65.3266
  0
VERTEX
  8
LAYER_1
 10
46.8006
 20
65.3266
  0
SEQEND
  0
POLYLINE
  8
LAYER_1
 40
0.1058
 41
0.1058
 66
1
 10
0
 20
0
 30
0
  0
VERTEX
  8
LAYER_1
 10
46.8006
 20
64.8167
  0
VERTEX
  8
LAYER_1
 10
45.7998
 20
64.8167
  0
SEQEND
  0
POLYLINE
  8
LAYER_1
 40
0.1058
 41
0.1058
 66
1
 10
0
 20
0
 30
0
 70
1
  0
VERTEX
  8
LAYER_1
 10
45.7998
 20
65.9302
  0
VERTEX
  8
LAYER_1
 10
46.8006
 20
65.9302
  0
VERTEX
  8
LAYER_1
 10
46.8006
 20
65.3266
  0
VERTEX
  8
LAYER_1
 10
45.7998
 20
65.3266
  0
SEQEND
  0
POLYLINE
  8
LAYER_1
 40
0.1058
 41
0.1058
 66
1
 10
0
 20
0
 30
0
 70
1
  0
VERTEX
  8
LAYER_1
 10
46.8006
 20
65.9302
  0
VERTEX
  8
LAYER_1
 10
48.9334
 20
65.9302
  0
VERTEX
  8
LAYER_1
 10
48.9334
 20
65.3266
  0
VERTEX
  8
LAYER_1
 10
46.8006
 20
65.3266
  0
SEQEND
  0
POLYLINE
  8
LAYER_1
 40
0.1058
 41
0.1058
 66
1
 10
0
 20
0
 30
0
 70
1
  0
VERTEX
  8
LAYER_1
 10
43.8933
 20
65.9302
  0
VERTEX
  8
LAYER_1
 10
45.7998
 20
65.9302
  0
VERTEX
  8
LAYER_1
 10
45.7998
 20
65.3266
  0
VERTEX
  8
LAYER_1
 10
43.8933
 20
65.3266
  0
SEQEND
  0
POLYLINE
  8
LAYER_1
 40
0.1058
 41
0.1058
 66
1
 10
0
 20
0
 30
0
 70
1
  0
VERTEX
  8
LAYER_1
 10
118.6839
 20
65.9302
  0
VERTEX
  8
LAYER_1
 10
117.6834
 20
65.9302
  0
VERTEX
  8
LAYER_1
 10
117.6834
 20
65.3266
  0
VERTEX
  8
LAYER_1
 10
118.6839
 20
65.3266
  0
SEQEND
  0
POLYLINE
  8
LAYER_1
 40
0.1058
 41
0.1058
 66
1
 10
0
 20
0
 30
0
 70
1
  0
VERTEX
  8
LAYER_1
 10
117.6834
 20
65.9302
  0
VERTEX
  8
LAYER_1
 10
115.4744
 20
65.9302
  0
VERTEX
  8
LAYER_1
 10
115.4744
 20
65.3266
  0
VERTEX
  8
LAYER_1
 10
117.6834
 20
65.3266
  0
SEQEND
  0
POLYLINE
  8
LAYER_1
 40
0.1058
 41
0.1058
 66
1
 10
0
 20
0
 30
0
 70
1
  0
VERTEX
  8
LAYER_1
 10
120.5332
 20
65.9302
  0
VERTEX
  8
LAYER_1
 10
118.6839
 20
65.9302
  0
VERTEX
  8
LAYER_1
 10
118.6839
 20
65.3266
  0
VERTEX
  8
LAYER_1
 10
120.5332
 20
65.3266
  0
SEQEND
  0
POLYLINE
  8
LAYER_1
  6
AIGENLINE001
 40
0.1058
 41
0.1058
 66
1
 10
0
 20
0
 30
0
 70
129
  0
VERTEX
  8
LAYER_1
 10
80.3889
 20
73.1359
  0
VERTEX
  8
LAYER_1
 10
80.3889
 20
72.4373
  0
VERTEX
  8
LAYER_1
 10
80.4266
 20
72.2871
  0
VERTEX
  8
LAYER_1
 10
80.5398
 20
72.1727
  0
VERTEX
  8
LAYER_1
 10
80.6912
 20
72.1355
  0
VERTEX
  8
LAYER_1
 10
82.5035
 20
72.1355
  0
VERTEX
  8
LAYER_1
 10
82.6537
 20
72.1727
  0
VERTEX
  8
LAYER_1
 10
82.7674
 20
72.2871
  0
VERTEX
  8
LAYER_1
 10
82.8055
 20
72.4373
  0
VERTEX
  8
LAYER_1
 10
82.8055
 20
73.1359
  0
SEQEND
  0
POLYLINE
  8
LAYER_1
  6
AIGENLINE001
 40
0.1058
 41
0.1058
 66
1
 10
0
 20
0
 30
0
 70
129
  0
VERTEX
  8
LAYER_1
 10
80.9739
 20
73.1359
  0
VERTEX
  8
LAYER_1
 10
82.1824
 20
73.1359
  0
VERTEX
  8
LAYER_1
 10
82.1824
 20
78.5678
  0
VERTEX
  8
LAYER_1
 10
80.9739
 20
78.5678
  0
SEQEND
  0
POLYLINE
  8
LAYER_1
  6
AIGENLINE001
 40
0.1058
 41
0.1058
 66
1
 10
0
 20
0
 30
0
 70
129
  0
VERTEX
  8
LAYER_1
 10
79.3697
 20
73.118
  0
VERTEX
  8
LAYER_1
 10
83.8242
 20
73.118
  0
VERTEX
  8
LAYER_1
 10
83.8242
 20
73.3261
  0
VERTEX
  8
LAYER_1
 10
79.3697
 20
73.3261
  0
SEQEND
  0
POLYLINE
  8
LAYER_1
  6
AIGENLINE001
 40
0.1058
 41
0.1058
 66
1
 10
0
 20
0
 30
0
 70
129
  0
VERTEX
  8
LAYER_1
 10
82.3423
 20
78.2967
 42
-0.2536827949
  0
VERTEX
  8
LAYER_1
 10
82.2875
 20
78.2401
 42
-0.104825273
  0
VERTEX
  8
LAYER_1
 10
82.0336
 20
78.1975
  0
VERTEX
  8
LAYER_1
 10
79.4153
 20
78.1975
 42
-0.1198242636
  0
VERTEX
  8
LAYER_1
 10
79.1493
 20
78.2461
 42
-0.298923865
  0
VERTEX
  8
LAYER_1
 10
79.1066
 20
78.2967
 42
-0.2519688867
  0
VERTEX
  8
LAYER_1
 10
79.1613
 20
78.3537
 42
-0.1071100178
  0
VERTEX
  8
LAYER_1
 10
79.4153
 20
78.3973
  0
VERTEX
  8
LAYER_1
 10
82.0336
 20
78.3973
 42
-0.1184513281
  0
VERTEX
  8
LAYER_1
 10
82.2977
 20
78.3487
 42
-0.301568787
  0
SEQEND
  0
POLYLINE
  8
LAYER_1
 40
0.1058
 41
0.1058
 66
1
 10
0
 20
0
 30
0
 70
1
  0
VERTEX
  8
LAYER_1
 10
46.7437
 20
69.2871
  0
VERTEX
  8
LAYER_1
 10
46.706
 20
69.4759
  0
VERTEX
  8
LAYER_1
 10
46.5927
 20
69.6454
  0
VERTEX
  8
LAYER_1
 10
46.423
 20
69.7584
  0
VERTEX
  8
LAYER_1
 10
46.2344
 20
69.7956
  0
VERTEX
  8
LAYER_1
 10
46.0456
 20
69.7584
  0
VERTEX
  8
LAYER_1
 10
45.8756
 20
69.6454
  0
VERTEX
  8
LAYER_1
 10
45.7619
 20
69.4759
  0
VERTEX
  8
LAYER_1
 10
45.7242
 20
69.2871
  0
VERTEX
  8
LAYER_1
 10
45.7619
 20
69.0983
  0
VERTEX
  8
LAYER_1
 10
45.8756
 20
68.9274
  0
VERTEX
  8
LAYER_1
 10
46.0456
 20
68.8144
  0
VERTEX
  8
LAYER_1
 10
46.2344
 20
68.7772
  0
VERTEX
  8
LAYER_1
 10
46.423
 20
68.8144
  0
VERTEX
  8
LAYER_1
 10
46.5927
 20
68.9274
  0
VERTEX
  8
LAYER_1
 10
46.706
 20
69.0983
  0
SEQEND
  0
POLYLINE
  8
LAYER_1
 40
0.1058
 41
0.1058
 66
1
 10
0
 20
0
 30
0
 70
1
  0
VERTEX
  8
LAYER_1
 10
42.2134
 20
65.2467
  0
VERTEX
  8
LAYER_1
 10
122.2136
 20
65.2467
  0
VERTEX
  8
LAYER_1
 10
122.2136
 20
73.3258
  0
VERTEX
  8
LAYER_1
 10
42.2134
 20
73.3258
  0
SEQEND
  0
POLYLINE
  8
LAYER_1
 40
0.1058
 41
0.1058
 66
1
 10
0
 20
0
 30
0
 70
1
  0
VERTEX
  8
LAYER_1
 10
118.6839
 20
69.2871
  0
VERTEX
  8
LAYER_1
 10
118.6462
 20
69.4759
  0
VERTEX
  8
LAYER_1
 10
118.5321
 20
69.6454
  0
VERTEX
  8
LAYER_1
 10
118.3823
 20
69.7584
  0
VERTEX
  8
LAYER_1
 10
118.1742
 20
69.7956
  0
VERTEX
  8
LAYER_1
 10
117.9854
 20
69.7584
  0
VERTEX
  8
LAYER_1
 10
117.8343
 20
69.6454
  0
VERTEX
  8
LAYER_1
 10
117.7208
 20
69.4759
  0
VERTEX
  8
LAYER_1
 10
117.6834
 20
69.2871
  0
VERTEX
  8
LAYER_1
 10
117.7208
 20
69.0983
  0
VERTEX
  8
LAYER_1
 10
117.8343
 20
68.9274
  0
VERTEX
  8
LAYER_1
 10
117.9854
 20
68.8144
  0
VERTEX
  8
LAYER_1
 10
118.1742
 20
68.7772
  0
VERTEX
  8
LAYER_1
 10
118.3823
 20
68.8144
  0
VERTEX
  8
LAYER_1
 10
118.5321
 20
68.9274
  0
VERTEX
  8
LAYER_1
 10
118.6462
 20
69.0983
  0
SEQEND
  0
POLYLINE
  8
LAYER_1
 40
0.1905
 41
0.1905
 66
1
 10
0
 20
0
 30
0
  0
VERTEX
  8
LAYER_1
 10
142.5274
 20
73.344
  0
VERTEX
  8
LAYER_1
 10
141.5114
 20
73.344
  0
SEQEND
  0
POLYLINE
  8
LAYER_1
 40
0.1905
 41
0.1905
 66
1
 10
0
 20
0
 30
0
  0
VERTEX
  8
LAYER_1
 10
142.5274
 20
65.2584
  0
VERTEX
  8
LAYER_1
 10
142.5274
 20
73.344
  0
SEQEND
  0
POLYLINE
  8
LAYER_1
 40
0.1905
 41
0.1905
 66
1
 10
0
 20
0
 30
0
  0
VERTEX
  8
LAYER_1
 10
142.5274
 20
65.2584
  0
VERTEX
  8
LAYER_1
 10
141.5114
 20
65.2584
  0
VERTEX
  8
LAYER_1
 10
141.5114
 20
73.344
  0
SEQEND
  0
POLYLINE
  8
LAYER_1
 40
0.1905
 41
0.1905
 66
1
 10
0
 20
0
 30
0
  0
VERTEX
  8
LAYER_1
 10
142.5274
 20
65.2584
  0
VERTEX
  8
LAYER_1
 10
142.5274
 20
68.3066
  0
SEQEND
  0
POLYLINE
  8
LAYER_1
 40
0.1905
 41
0.1905
 66
1
 10
0
 20
0
 30
0
  0
VERTEX
  8
LAYER_1
 10
159.2706
 20
65.2584
  0
VERTEX
  8
LAYER_1
 10
142.5274
 20
65.2584
  0
SEQEND
  0
POLYLINE
  8
LAYER_1
 40
0.1905
 41
0.1905
 66
1
 10
0
 20
0
 30
0
  0
VERTEX
  8
LAYER_1
 10
159.2706
 20
65.2584
  0
VERTEX
  8
LAYER_1
 10
192.2267
 20
61.025
  0
SEQEND
  0
POLYLINE
  8
LAYER_1
 40
0.1905
 41
0.1905
 66
1
 10
0
 20
0
 30
0
  0
VERTEX
  8
LAYER_1
 10
199.6564
 20
67.4812
  0
VERTEX
  8
LAYER_1
 10
199.0425
 20
67.4812
  0
VERTEX
  8
LAYER_1
 10
199.0425
 20
73.344
  0
SEQEND
  0
POLYLINE
  8
LAYER_1
 40
0.1905
 41
0.1905
 66
1
 10
0
 20
0
 30
0
  0
VERTEX
  8
LAYER_1
 10
199.6564
 20
73.344
  0
VERTEX
  8
LAYER_1
 10
199.0425
 20
73.344
  0
SEQEND
  0
POLYLINE
  8
LAYER_1
 40
0.1905
 41
0.1905
 66
1
 10
0
 20
0
 30
0
  0
VERTEX
  8
LAYER_1
 10
199.6564
 20
67.4812
  0
VERTEX
  8
LAYER_1
 10
199.6564
 20
73.344
  0
SEQEND
  0
POLYLINE
  8
LAYER_1
 40
0.1905
 41
0.1905
 66
1
 10
0
 20
0
 30
0
  0
VERTEX
  8
LAYER_1
 10
199.6564
 20
65.0468
  0
VERTEX
  8
LAYER_1
 10
199.0425
 20
65.0468
  0
SEQEND
  0
POLYLINE
  8
LAYER_1
 40
0.1905
 41
0.1905
 66
1
 10
0
 20
0
 30
0
  0
VERTEX
  8
LAYER_1
 10
199.0425
 20
60.1996
  0
VERTEX
  8
LAYER_1
 10
199.0425
 20
65.0468
  0
SEQEND
  0
POLYLINE
  8
LAYER_1
 40
0.1905
 41
0.1905
 66
1
 10
0
 20
0
 30
0
  0
VERTEX
  8
LAYER_1
 10
199.6564
 20
60.1996
  0
VERTEX
  8
LAYER_1
 10
199.0425
 20
60.1996
  0
SEQEND
  0
POLYLINE
  8
LAYER_1
 40
0.1905
 41
0.1905
 66
1
 10
0
 20
0
 30
0
  0
VERTEX
  8
LAYER_1
 10
199.6564
 20
60.1996
  0
VERTEX
  8
LAYER_1
 10
199.6564
 20
65.0468
  0
SEQEND
  0
POLYLINE
  8
LAYER_1
 40
0.1905
 41
0.1905
 66
1
 10
0
 20
0
 30
0
  0
VERTEX
  8
LAYER_1
 10
144.242
 20
73.344
  0
VERTEX
  8
LAYER_1
 10
142.5276
 20
73.344
  0
SEQEND
  0
POLYLINE
  8
LAYER_1
 40
0.1905
 41
0.1905
 66
1
 10
0
 20
0
 30
0
  0
VERTEX
  8
LAYER_1
 10
199.0425
 20
73.344
  0
VERTEX
  8
LAYER_1
 10
196.5237
 20
73.344
  0
SEQEND
  0
POLYLINE
  8
LAYER_1
 40
0.1905
 41
0.1905
 66
1
 10
0
 20
0
 30
0
  0
VERTEX
  8
LAYER_1
 10
142.5274
 20
73.344
  0
VERTEX
  8
LAYER_1
 10
141.5118
 20
73.344
  0
SEQEND
  0
POLYLINE
  8
LAYER_1
 40
0.1905
 41
0.1905
 66
1
 10
0
 20
0
 30
0
  0
VERTEX
  8
LAYER_1
 10
142.5274
 20
65.2584
  0
VERTEX
  8
LAYER_1
 10
141.5118
 20
65.2584
  0
SEQEND
  0
POLYLINE
  8
LAYER_1
 40
0.1905
 41
0.1905
 66
1
 10
0
 20
0
 30
0
  0
VERTEX
  8
LAYER_1
 10
141.1094
 20
74.3603
  0
VERTEX
  8
LAYER_1
 10
141.1309
 20
74.1701
  0
VERTEX
  8
LAYER_1
 10
141.2152
 20
74.0003
  0
VERTEX
  8
LAYER_1
 10
141.3423
 20
73.8732
  0
VERTEX
  8
LAYER_1
 10
141.5119
 20
73.7678
  0
VERTEX
  8
LAYER_1
 10
141.7021
 20
73.7464
  0
SEQEND
  0
POLYLINE
  8
LAYER_1
 40
0.1905
 41
0.1905
 66
1
 10
0
 20
0
 30
0
  0
VERTEX
  8
LAYER_1
 10
143.6705
 20
73.7464
  0
VERTEX
  8
LAYER_1
 10
141.7019
 20
73.7464
  0
SEQEND
  0
POLYLINE
  8
LAYER_1
 40
0.1905
 41
0.1905
 66
1
 10
0
 20
0
 30
0
  0
VERTEX
  8
LAYER_1
 10
144.263
 20
73.2806
  0
VERTEX
  8
LAYER_1
 10
144.1783
 20
73.4715
  0
VERTEX
  8
LAYER_1
 10
144.0301
 20
73.6196
  0
VERTEX
  8
LAYER_1
 10
143.8608
 20
73.725
  0
VERTEX
  8
LAYER_1
 10
143.6703
 20
73.7464
  0
SEQEND
  0
POLYLINE
  8
LAYER_1
 40
0.1905
 41
0.1905
 66
1
 10
0
 20
0
 30
0
  0
VERTEX
  8
LAYER_1
 10
157.8732
 20
73.7464
  0
VERTEX
  8
LAYER_1
 10
157.6831
 20
73.725
  0
VERTEX
  8
LAYER_1
 10
157.5132
 20
73.6196
  0
VERTEX
  8
LAYER_1
 10
157.3868
 20
73.4922
  0
VERTEX
  8
LAYER_1
 10
157.302
 20
73.3233
  0
SEQEND
  0
POLYLINE
  8
LAYER_1
 40
0.1905
 41
0.1905
 66
1
 10
0
 20
0
 30
0
  0
VERTEX
  8
LAYER_1
 10
162.3184
 20
73.7464
  0
VERTEX
  8
LAYER_1
 10
157.8732
 20
73.7464
  0
SEQEND
  0
POLYLINE
  8
LAYER_1
 40
0.1905
 41
0.1905
 66
1
 10
0
 20
0
 30
0
  0
VERTEX
  8
LAYER_1
 10
162.3184
 20
73.7464
  0
VERTEX
  8
LAYER_1
 10
162.3184
 20
76.9848
  0
VERTEX
  8
LAYER_1
 10
141.7021
 20
76.9848
  0
SEQEND
  0
POLYLINE
  8
LAYER_1
 40
0.1905
 41
0.1905
 66
1
 10
0
 20
0
 30
0
  0
VERTEX
  8
LAYER_1
 10
141.7019
 20
76.9641
 42
0.1069590648
  0
VERTEX
  8
LAYER_1
 10
141.3845
 20
76.8794
 42
0.2329090769
  0
VERTEX
  8
LAYER_1
 10
141.1307
 20
76.5404
 42
0.1094762937
  0
VERTEX
  8
LAYER_1
 10
141.088
 20
76.3502
  0
SEQEND
  0
POLYLINE
  8
LAYER_1
 40
0.1905
 41
0.1905
 66
1
 10
0
 20
0
 30
0
  0
VERTEX
  8
LAYER_1
 10
141.1094
 20
74.3603
  0
VERTEX
  8
LAYER_1
 10
141.1094
 20
76.3709
  0
SEQEND
  0
POLYLINE
  8
LAYER_1
 40
0.1905
 41
0.1905
 66
1
 10
0
 20
0
 30
0
  0
VERTEX
  8
LAYER_1
 10
199.0425
 20
73.7464
  0
VERTEX
  8
LAYER_1
 10
199.233
 20
73.7678
  0
VERTEX
  8
LAYER_1
 10
199.4025
 20
73.8732
  0
VERTEX
  8
LAYER_1
 10
199.5293
 20
74.0007
  0
VERTEX
  8
LAYER_1
 10
199.6354
 20
74.1701
  0
VERTEX
  8
LAYER_1
 10
199.6564
 20
74.3603
  0
SEQEND
  0
POLYLINE
  8
LAYER_1
 40
0.1905
 41
0.1905
 66
1
 10
0
 20
0
 30
0
  0
VERTEX
  8
LAYER_1
 10
183.4427
 20
73.302
 42
0.2925342016
  0
VERTEX
  8
LAYER_1
 10
182.8712
 20
73.7464
  0
SEQEND
  0
POLYLINE
  8
LAYER_1
 40
0.1905
 41
0.1905
 66
1
 10
0
 20
0
 30
0
  0
VERTEX
  8
LAYER_1
 10
182.8922
 20
73.7464
  0
VERTEX
  8
LAYER_1
 10
178.4473
 20
73.7464
  0
VERTEX
  8
LAYER_1
 10
178.4473
 20
76.9848
  0
SEQEND
  0
POLYLINE
  8
LAYER_1
 40
0.1905
 41
0.1905
 66
1
 10
0
 20
0
 30
0
  0
VERTEX
  8
LAYER_1
 10
199.0425
 20
76.9848
  0
VERTEX
  8
LAYER_1
 10
178.4473
 20
76.9848
  0
SEQEND
  0
POLYLINE
  8
LAYER_1
 40
0.1905
 41
0.1905
 66
1
 10
0
 20
0
 30
0
  0
VERTEX
  8
LAYER_1
 10
199.0425
 20
73.7464
  0
VERTEX
  8
LAYER_1
 10
197.0949
 20
73.7464
  0
VERTEX
  8
LAYER_1
 10
196.9044
 20
73.725
  0
VERTEX
  8
LAYER_1
 10
196.7143
 20
73.6196
  0
VERTEX
  8
LAYER_1
 10
196.5871
 20
73.4715
  0
VERTEX
  8
LAYER_1
 10
196.5237
 20
73.2806
  0
SEQEND
  0
POLYLINE
  8
LAYER_1
 40
0.1905
 41
0.1905
 66
1
 10
0
 20
0
 30
0
  0
VERTEX
  8
LAYER_1
 10
199.6564
 20
76.3709
  0
VERTEX
  8
LAYER_1
 10
199.635
 20
76.5617
  0
VERTEX
  8
LAYER_1
 10
199.5293
 20
76.7312
  0
VERTEX
  8
LAYER_1
 10
199.4025
 20
76.858
  0
VERTEX
  8
LAYER_1
 10
199.233
 20
76.9428
  0
VERTEX
  8
LAYER_1
 10
199.0425
 20
76.9848
  0
SEQEND
  0
POLYLINE
  8
LAYER_1
 40
0.1905
 41
0.1905
 66
1
 10
0
 20
0
 30
0
  0
VERTEX
  8
LAYER_1
 10
199.6564
 20
74.3603
  0
VERTEX
  8
LAYER_1
 10
199.6564
 20
76.3709
  0
SEQEND
  0
POLYLINE
  8
LAYER_1
 40
0.1905
 41
0.1905
 66
1
 10
0
 20
0
 30
0
  0
VERTEX
  8
LAYER_1
 10
178.4473
 20
76.9848
  0
VERTEX
  8
LAYER_1
 10
162.3181
 20
76.9848
  0
SEQEND
  0
POLYLINE
  8
LAYER_1
 40
0.1905
 41
0.1905
 66
1
 10
0
 20
0
 30
0
  0
VERTEX
  8
LAYER_1
 10
178.4473
 20
73.7464
  0
VERTEX
  8
LAYER_1
 10
162.3181
 20
73.7464
  0
SEQEND
  0
POLYLINE
  8
LAYER_1
 40
0.1905
 41
0.1905
 66
1
 10
0
 20
0
 30
0
  0
VERTEX
  8
LAYER_1
 10
192.3752
 20
76.9848
  0
VERTEX
  8
LAYER_1
 10
148.3696
 20
76.9848
  0
SEQEND
  0
POLYLINE
  8
LAYER_1
 40
0.1905
 41
0.1905
 66
1
 10
0
 20
0
 30
0
  0
VERTEX
  8
LAYER_1
 10
192.3752
 20
76.9848
  0
VERTEX
  8
LAYER_1
 10
192.4809
 20
77.0062
  0
VERTEX
  8
LAYER_1
 10
192.5653
 20
77.0695
  0
VERTEX
  8
LAYER_1
 10
192.5867
 20
77.1757
  0
SEQEND
  0
POLYLINE
  8
LAYER_1
 40
0.1905
 41
0.1905
 66
1
 10
0
 20
0
 30
0
  0
VERTEX
  8
LAYER_1
 10
184.0566
 20
76.9848
  0
VERTEX
  8
LAYER_1
 10
156.6457
 20
76.9848
  0
SEQEND
  0
POLYLINE
  8
LAYER_1
 40
0.1693
 41
0.1693
 66
1
 10
0
 20
0
 30
0
  0
VERTEX
  8
LAYER_1
 10
204.1436
 20
49.32
  0
VERTEX
  8
LAYER_1
 10
204.1436
 20
126.7904
  0
SEQEND
  0
POLYLINE
  8
LAYER_1
 40
0.1693
 41
0.1693
 66
1
 10
0
 20
0
 30
0
  0
VERTEX
  8
LAYER_1
 10
213.5205
 20
70.9524
  0
VERTEX
  8
LAYER_1
 10
204.1436
 20
70.9524
  0
SEQEND
  0
POLYLINE
  8
LAYER_1
 40
0.1693
 41
0.1693
 66
1
 10
0
 20
0
 30
0
  0
VERTEX
  8
LAYER_1
 10
213.5205
 20
61.5969
  0
VERTEX
  8
LAYER_1
 10
204.1436
 20
61.5969
  0
SEQEND
  0
POLYLINE
  8
LAYER_1
 40
0.1693
 41
0.1693
 66
1
 10
0
 20
0
 30
0
  0
VERTEX
  8
LAYER_1
 10
213.5205
 20
61.5969
  0
VERTEX
  8
LAYER_1
 10
213.5205
 20
70.9524
  0
SEQEND
  0
POLYLINE
  8
LAYER_1
 40
0.1693
 41
0.1693
 66
1
 10
0
 20
0
 30
0
  0
VERTEX
  8
LAYER_1
 10
201.9422
 20
49.32
  0
VERTEX
  8
LAYER_1
 10
204.1436
 20
51.5214
  0
SEQEND
  0
POLYLINE
  8
LAYER_1
 40
0.1693
 41
0.1693
 66
1
 10
0
 20
0
 30
0
  0
VERTEX
  8
LAYER_1
 10
199.6564
 20
50.5692
  0
VERTEX
  8
LAYER_1
 10
204.1436
 20
55.0561
  0
SEQEND
  0
POLYLINE
  8
LAYER_1
 40
0.1693
 41
0.1693
 66
1
 10
0
 20
0
 30
0
  0
VERTEX
  8
LAYER_1
 10
199.6564
 20
54.1038
  0
VERTEX
  8
LAYER_1
 10
204.1436
 20
58.5914
  0
SEQEND
  0
POLYLINE
  8
LAYER_1
 40
0.1693
 41
0.1693
 66
1
 10
0
 20
0
 30
0
  0
VERTEX
  8
LAYER_1
 10
199.6564
 20
57.6385
  0
VERTEX
  8
LAYER_1
 10
204.1436
 20
62.1261
  0
SEQEND
  0
POLYLINE
  8
LAYER_1
 40
0.1693
 41
0.1693
 66
1
 10
0
 20
0
 30
0
  0
VERTEX
  8
LAYER_1
 10
199.6564
 20
61.1732
  0
VERTEX
  8
LAYER_1
 10
204.1436
 20
65.6608
  0
SEQEND
  0
POLYLINE
  8
LAYER_1
 40
0.1693
 41
0.1693
 66
1
 10
0
 20
0
 30
0
  0
VERTEX
  8
LAYER_1
 10
199.6564
 20
68.2218
  0
VERTEX
  8
LAYER_1
 10
204.1436
 20
72.7308
  0
SEQEND
  0
POLYLINE
  8
LAYER_1
 40
0.1693
 41
0.1693
 66
1
 10
0
 20
0
 30
0
  0
VERTEX
  8
LAYER_1
 10
199.6564
 20
71.7565
  0
VERTEX
  8
LAYER_1
 10
204.1436
 20
76.2655
  0
SEQEND
  0
POLYLINE
  8
LAYER_1
 40
0.1693
 41
0.1693
 66
1
 10
0
 20
0
 30
0
  0
VERTEX
  8
LAYER_1
 10
199.6564
 20
75.2919
  0
VERTEX
  8
LAYER_1
 10
204.1436
 20
79.8001
  0
SEQEND
  0
POLYLINE
  8
LAYER_1
 40
0.1693
 41
0.1693
 66
1
 10
0
 20
0
 30
0
  0
VERTEX
  8
LAYER_1
 10
199.6564
 20
78.8265
  0
VERTEX
  8
LAYER_1
 10
204.1436
 20
83.3348
  0
SEQEND
  0
POLYLINE
  8
LAYER_1
 40
0.1693
 41
0.1693
 66
1
 10
0
 20
0
 30
0
  0
VERTEX
  8
LAYER_1
 10
199.6564
 20
82.3612
  0
VERTEX
  8
LAYER_1
 10
204.1436
 20
86.8701
  0
SEQEND
  0
POLYLINE
  8
LAYER_1
 40
0.1693
 41
0.1693
 66
1
 10
0
 20
0
 30
0
  0
VERTEX
  8
LAYER_1
 10
199.6564
 20
85.8959
  0
VERTEX
  8
LAYER_1
 10
204.1436
 20
90.4048
  0
SEQEND
  0
POLYLINE
  8
LAYER_1
 40
0.1693
 41
0.1693
 66
1
 10
0
 20
0
 30
0
  0
VERTEX
  8
LAYER_1
 10
199.6564
 20
89.4312
  0
VERTEX
  8
LAYER_1
 10
204.1436
 20
93.9395
  0
SEQEND
  0
POLYLINE
  8
LAYER_1
 40
0.1693
 41
0.1693
 66
1
 10
0
 20
0
 30
0
  0
VERTEX
  8
LAYER_1
 10
199.6564
 20
92.9659
  0
VERTEX
  8
LAYER_1
 10
204.1436
 20
97.4742
  0
SEQEND
  0
POLYLINE
  8
LAYER_1
 40
0.1693
 41
0.1693
 66
1
 10
0
 20
0
 30
0
  0
VERTEX
  8
LAYER_1
 10
199.6564
 20
96.5006
  0
VERTEX
  8
LAYER_1
 10
204.1436
 20
101.0088
  0
SEQEND
  0
POLYLINE
  8
LAYER_1
 40
0.1693
 41
0.1693
 66
1
 10
0
 20
0
 30
0
  0
VERTEX
  8
LAYER_1
 10
199.6564
 20
100.0352
  0
VERTEX
  8
LAYER_1
 10
204.1436
 20
104.5442
  0
SEQEND
  0
POLYLINE
  8
LAYER_1
 40
0.1693
 41
0.1693
 66
1
 10
0
 20
0
 30
0
  0
VERTEX
  8
LAYER_1
 10
199.6564
 20
103.5706
  0
VERTEX
  8
LAYER_1
 10
204.1436
 20
108.0787
  0
SEQEND
  0
POLYLINE
  8
LAYER_1
 40
0.1693
 41
0.1693
 66
1
 10
0
 20
0
 30
0
  0
VERTEX
  8
LAYER_1
 10
199.6564
 20
107.1053
  0
VERTEX
  8
LAYER_1
 10
204.1436
 20
111.6133
  0
SEQEND
  0
POLYLINE
  8
LAYER_1
 40
0.1693
 41
0.1693
 66
1
 10
0
 20
0
 30
0
  0
VERTEX
  8
LAYER_1
 10
199.6564
 20
110.6399
  0
VERTEX
  8
LAYER_1
 10
204.1436
 20
115.1065
  0
SEQEND
  0
POLYLINE
  8
LAYER_1
 40
0.1693
 41
0.1693
 66
1
 10
0
 20
0
 30
0
  0
VERTEX
  8
LAYER_1
 10
199.6564
 20
114.1746
  0
VERTEX
  8
LAYER_1
 10
204.1436
 20
118.6412
  0
SEQEND
  0
POLYLINE
  8
LAYER_1
 40
0.1693
 41
0.1693
 66
1
 10
0
 20
0
 30
0
  0
VERTEX
  8
LAYER_1
 10
199.6564
 20
117.6883
  0
VERTEX
  8
LAYER_1
 10
204.1436
 20
122.176
  0
SEQEND
  0
POLYLINE
  8
LAYER_1
 40
0.1693
 41
0.1693
 66
1
 10
0
 20
0
 30
0
  0
VERTEX
  8
LAYER_1
 10
199.6564
 20
121.2229
  0
VERTEX
  8
LAYER_1
 10
204.1436
 20
125.7105
  0
SEQEND
  0
POLYLINE
  8
LAYER_1
 40
0.1693
 41
0.1693
 66
1
 10
0
 20
0
 30
0
  0
VERTEX
  8
LAYER_1
 10
199.6564
 20
124.7583
  0
VERTEX
  8
LAYER_1
 10
201.6883
 20
126.7902
  0
SEQEND
  0
POLYLINE
  8
LAYER_1
 40
0.1693
 41
0.1693
 66
1
 10
0
 20
0
 30
0
  0
VERTEX
  8
LAYER_1
 10
213.5205
 20
66.2747
  0
VERTEX
  8
LAYER_1
 10
211.7638
 20
67.2062
  0
SEQEND
  0
POLYLINE
  8
LAYER_1
 40
0.1693
 41
0.1693
 66
1
 10
0
 20
0
 30
0
  0
VERTEX
  8
LAYER_1
 10
213.5205
 20
66.2747
  0
VERTEX
  8
LAYER_1
 10
211.7638
 20
65.3431
  0
SEQEND
  0
POLYLINE
  8
LAYER_1
 40
0.1693
 41
0.1693
 66
1
 10
0
 20
0
 30
0
  0
VERTEX
  8
LAYER_1
 10
204.1436
 20
70.9524
  0
VERTEX
  8
LAYER_1
 10
207.8902
 20
67.2062
  0
SEQEND
  0
POLYLINE
  8
LAYER_1
 40
0.1693
 41
0.1693
 66
1
 10
0
 20
0
 30
0
  0
VERTEX
  8
LAYER_1
 10
209.7739
 20
65.3431
  0
VERTEX
  8
LAYER_1
 10
213.5205
 20
61.5969
  0
SEQEND
  0
POLYLINE
  8
LAYER_1
 40
0.1693
 41
0.1693
 66
1
 10
0
 20
0
 30
0
  0
VERTEX
  8
LAYER_1
 10
204.1436
 20
61.5969
  0
VERTEX
  8
LAYER_1
 10
207.8902
 20
65.3431
  0
SEQEND
  0
POLYLINE
  8
LAYER_1
 40
0.1693
 41
0.1693
 66
1
 10
0
 20
0
 30
0
  0
VERTEX
  8
LAYER_1
 10
209.7739
 20
67.2062
  0
VERTEX
  8
LAYER_1
 10
213.5205
 20
70.9524
  0
SEQEND
  0
POLYLINE
  8
LAYER_1
 40
0.1693
 41
0.1693
 66
1
 10
0
 20
0
 30
0
  0
VERTEX
  8
LAYER_1
 10
199.6564
 20
64.6872
  0
VERTEX
  8
LAYER_1
 10
200.2913
 20
65.3431
  0
SEQEND
  0
POLYLINE
  8
LAYER_1
 40
0.1693
 41
0.1693
 66
1
 10
0
 20
0
 30
0
  0
VERTEX
  8
LAYER_1
 10
202.1541
 20
67.2062
  0
VERTEX
  8
LAYER_1
 10
204.1436
 20
69.1954
  0
SEQEND
  0
POLYLINE
  8
LAYER_1
 40
0.1693
 41
0.1693
 66
1
 10
0
 20
0
 30
0
  0
VERTEX
  8
LAYER_1
 10
200.3971
 20
65.3431
  0
VERTEX
  8
LAYER_1
 10
200.3971
 20
67.2062
  0
SEQEND
  0
POLYLINE
  8
LAYER_1
 40
0.1693
 41
0.1693
 66
1
 10
0
 20
0
 30
0
  0
VERTEX
  8
LAYER_1
 10
204.1436
 20
66.2747
  0
VERTEX
  8
LAYER_1
 10
200.3971
 20
66.2747
  0
SEQEND
  0
POLYLINE
  8
LAYER_1
 40
0.1693
 41
0.1693
 66
1
 10
0
 20
0
 30
0
  0
VERTEX
  8
LAYER_1
 10
211.5943
 20
65.3431
  0
VERTEX
  8
LAYER_1
 10
212.8855
 20
66.613
  0
SEQEND
  0
POLYLINE
  8
LAYER_1
 40
0.1693
 41
0.1693
 66
1
 10
0
 20
0
 30
0
  0
VERTEX
  8
LAYER_1
 10
210.536
 20
65.3431
  0
VERTEX
  8
LAYER_1
 10
212.1869
 20
66.994
  0
SEQEND
  0
POLYLINE
  8
LAYER_1
 40
0.1693
 41
0.1693
 66
1
 10
0
 20
0
 30
0
  0
VERTEX
  8
LAYER_1
 10
209.4777
 20
65.3431
  0
VERTEX
  8
LAYER_1
 10
211.3404
 20
67.2062
  0
SEQEND
  0
POLYLINE
  8
LAYER_1
 40
0.1693
 41
0.1693
 66
1
 10
0
 20
0
 30
0
  0
VERTEX
  8
LAYER_1
 10
208.4193
 20
65.3431
  0
VERTEX
  8
LAYER_1
 10
210.2821
 20
67.2062
  0
SEQEND
  0
POLYLINE
  8
LAYER_1
 40
0.1693
 41
0.1693
 66
1
 10
0
 20
0
 30
0
  0
VERTEX
  8
LAYER_1
 10
207.361
 20
65.3431
  0
VERTEX
  8
LAYER_1
 10
209.2237
 20
67.2062
  0
SEQEND
  0
POLYLINE
  8
LAYER_1
 40
0.1693
 41
0.1693
 66
1
 10
0
 20
0
 30
0
  0
VERTEX
  8
LAYER_1
 10
206.3027
 20
65.3431
  0
VERTEX
  8
LAYER_1
 10
208.1654
 20
67.2062
  0
SEQEND
  0
POLYLINE
  8
LAYER_1
 40
0.1693
 41
0.1693
 66
1
 10
0
 20
0
 30
0
  0
VERTEX
  8
LAYER_1
 10
205.2443
 20
65.3431
  0
VERTEX
  8
LAYER_1
 10
207.1071
 20
67.2062
  0
SEQEND
  0
POLYLINE
  8
LAYER_1
 40
0.1693
 41
0.1693
 66
1
 10
0
 20
0
 30
0
  0
VERTEX
  8
LAYER_1
 10
204.186
 20
65.3431
  0
VERTEX
  8
LAYER_1
 10
206.0487
 20
67.2062
  0
SEQEND
  0
POLYLINE
  8
LAYER_1
 40
0.1693
 41
0.1693
 66
1
 10
0
 20
0
 30
0
  0
VERTEX
  8
LAYER_1
 10
204.1436
 20
66.3594
  0
VERTEX
  8
LAYER_1
 10
204.9904
 20
67.2062
  0
SEQEND
  0
POLYLINE
  8
LAYER_1
 40
0.1693
 41
0.1693
 66
1
 10
0
 20
0
 30
0
  0
VERTEX
  8
LAYER_1
 10
199.9103
 20
65.3431
  0
VERTEX
  8
LAYER_1
 10
199.9103
 20
67.2062
  0
SEQEND
  0
POLYLINE
  8
LAYER_1
 40
0.1693
 41
0.1693
 66
1
 10
0
 20
0
 30
0
  0
VERTEX
  8
LAYER_1
 10
199.4025
 20
65.3431
  0
VERTEX
  8
LAYER_1
 10
199.4025
 20
67.2062
  0
SEQEND
  0
POLYLINE
  8
LAYER_1
 40
0.1693
 41
0.1693
 66
1
 10
0
 20
0
 30
0
  0
VERTEX
  8
LAYER_1
 10
198.8943
 20
65.3431
  0
VERTEX
  8
LAYER_1
 10
198.8943
 20
67.2062
  0
SEQEND
  0
POLYLINE
  8
LAYER_1
 40
0.1693
 41
0.1693
 66
1
 10
0
 20
0
 30
0
  0
VERTEX
  8
LAYER_1
 10
198.4075
 20
65.3431
  0
VERTEX
  8
LAYER_1
 10
198.4075
 20
67.2062
  0
SEQEND
  0
POLYLINE
  8
LAYER_1
 40
0.1693
 41
0.1693
 66
1
 10
0
 20
0
 30
0
  0
VERTEX
  8
LAYER_1
 10
198.1746
 20
66.613
  0
VERTEX
  8
LAYER_1
 10
198.1746
 20
69.7039
  0
SEQEND
  0
POLYLINE
  8
LAYER_1
 40
0.1693
 41
0.1693
 66
1
 10
0
 20
0
 30
0
  0
VERTEX
  8
LAYER_1
 10
199.0425
 20
69.7039
  0
VERTEX
  8
LAYER_1
 10
198.1746
 20
69.7039
  0
SEQEND
  0
POLYLINE
  8
LAYER_1
 40
0.1693
 41
0.1693
 66
1
 10
0
 20
0
 30
0
  0
VERTEX
  8
LAYER_1
 10
198.1746
 20
62.8454
  0
VERTEX
  8
LAYER_1
 10
198.1746
 20
66.613
  0
SEQEND
  0
POLYLINE
  8
LAYER_1
 40
0.1693
 41
0.1693
 66
1
 10
0
 20
0
 30
0
  0
VERTEX
  8
LAYER_1
 10
199.0425
 20
62.8454
  0
VERTEX
  8
LAYER_1
 10
198.1746
 20
62.8454
  0
SEQEND
  0
POLYLINE
  8
LAYER_1
 40
0.1693
 41
0.1693
 66
1
 10
0
 20
0
 30
0
  0
VERTEX
  8
LAYER_1
 10
196.6719
 20
66.613
  0
VERTEX
  8
LAYER_1
 10
196.6719
 20
68.0951
  0
SEQEND
  0
POLYLINE
  8
LAYER_1
 40
0.1693
 41
0.1693
 66
1
 10
0
 20
0
 30
0
  0
VERTEX
  8
LAYER_1
 10
198.1746
 20
68.0951
  0
VERTEX
  8
LAYER_1
 10
196.6719
 20
68.0951
  0
SEQEND
  0
POLYLINE
  8
LAYER_1
 40
0.1693
 41
0.1693
 66
1
 10
0
 20
0
 30
0
  0
VERTEX
  8
LAYER_1
 10
198.217
 20
64.4543
  0
VERTEX
  8
LAYER_1
 10
196.6719
 20
64.4543
  0
VERTEX
  8
LAYER_1
 10
196.6719
 20
66.613
  0
SEQEND
  0
POLYLINE
  8
LAYER_1
 40
0.1693
 41
0.1693
 66
1
 10
0
 20
0
 30
0
  0
VERTEX
  8
LAYER_1
 10
211.7635
 20
67.2062
  0
VERTEX
  8
LAYER_1
 10
198.1743
 20
67.2062
  0
SEQEND
  0
POLYLINE
  8
LAYER_1
 40
0.1693
 41
0.1693
 66
1
 10
0
 20
0
 30
0
  0
VERTEX
  8
LAYER_1
 10
211.7635
 20
65.3431
  0
VERTEX
  8
LAYER_1
 10
198.1743
 20
65.3431
  0
SEQEND
  0
POLYLINE
  8
LAYER_1
 40
0.1905
 41
0.1905
 66
1
 10
0
 20
0
 30
0
  0
VERTEX
  8
LAYER_1
 10
199.0425
 20
67.2062
  0
VERTEX
  8
LAYER_1
 10
199.0425
 20
68.3066
  0
SEQEND
  0
POLYLINE
  8
LAYER_1
 40
0.1905
 41
0.1905
 66
1
 10
0
 20
0
 30
0
  0
VERTEX
  8
LAYER_1
 10
192.2057
 20
61.0891
  0
VERTEX
  8
LAYER_1
 10
199.0425
 20
60.1996
  0
VERTEX
  8
LAYER_1
 10
199.0425
 20
65.3431
  0
SEQEND
  0
POLYLINE
  8
LAYER_1
 40
0.1905
 41
0.1905
 66
1
 10
0
 20
0
 30
0
  0
VERTEX
  8
LAYER_1
 10
199.6564
 20
67.2062
  0
VERTEX
  8
LAYER_1
 10
199.6564
 20
126.79
  0
SEQEND
  0
POLYLINE
  8
LAYER_1
 40
0.1905
 41
0.1905
 66
1
 10
0
 20
0
 30
0
  0
VERTEX
  8
LAYER_1
 10
199.6564
 20
49.32
  0
VERTEX
  8
LAYER_1
 10
199.6564
 20
65.3431
  0
SEQEND
  0
POLYLINE
  8
LAYER_1
 40
0.1905
 41
0.1905
 66
1
 10
0
 20
0
 30
0
  0
VERTEX
  8
LAYER_1
 10
199.0425
 20
60.1996
  0
VERTEX
  8
LAYER_1
 10
199.0425
 20
65.3431
  0
SEQEND
  0
POLYLINE
  8
LAYER_1
 40
0.1905
 41
0.1905
 66
1
 10
0
 20
0
 30
0
  0
VERTEX
  8
LAYER_1
 10
199.6564
 20
60.1996
  0
VERTEX
  8
LAYER_1
 10
199.0425
 20
60.1996
  0
SEQEND
  0
POLYLINE
  8
LAYER_1
 40
0.1905
 41
0.1905
 66
1
 10
0
 20
0
 30
0
  0
VERTEX
  8
LAYER_1
 10
199.6564
 20
60.1996
  0
VERTEX
  8
LAYER_1
 10
199.6564
 20
65.3431
  0
SEQEND
  0
POLYLINE
  8
LAYER_1
 40
0.1905
 41
0.1905
 66
1
 10
0
 20
0
 30
0
  0
VERTEX
  8
LAYER_1
 10
199.0425
 20
73.344
  0
VERTEX
  8
LAYER_1
 10
141.5114
 20
73.344
  0
SEQEND
  0
POLYLINE
  8
LAYER_1
 40
0.1905
 41
0.1905
 66
1
 10
0
 20
0
 30
0
  0
VERTEX
  8
LAYER_1
 10
199.0425
 20
67.2062
  0
VERTEX
  8
LAYER_1
 10
199.0425
 20
73.3437
  0
SEQEND
  0
POLYLINE
  8
LAYER_1
 40
0.1905
 41
0.1905
 66
1
 10
0
 20
0
 30
0
  0
VERTEX
  8
LAYER_1
 10
199.0425
 20
65.2584
  0
VERTEX
  8
LAYER_1
 10
198.1746
 20
65.2584
  0
SEQEND
  0
POLYLINE
  8
LAYER_1
 40
0.1905
 41
0.1905
 66
1
 10
0
 20
0
 30
0
  0
VERTEX
  8
LAYER_1
 10
199.0425
 20
65.2584
  0
VERTEX
  8
LAYER_1
 10
199.0425
 20
65.3431
  0
SEQEND
  0
POLYLINE
  8
LAYER_1
 40
0.1905
 41
0.1905
 66
1
 10
0
 20
0
 30
0
  0
VERTEX
  8
LAYER_1
 10
199.6564
 20
67.2062
  0
VERTEX
  8
LAYER_1
 10
199.6564
 20
67.4812
  0
VERTEX
  8
LAYER_1
 10
199.0425
 20
67.4812
  0
SEQEND
  0
POLYLINE
  8
LAYER_1
 40
0.1905
 41
0.1905
 66
1
 10
0
 20
0
 30
0
  0
VERTEX
  8
LAYER_1
 10
199.0425
 20
67.2062
  0
VERTEX
  8
LAYER_1
 10
199.0425
 20
67.4812
  0
SEQEND
  0
POLYLINE
  8
LAYER_1
 40
0.1905
 41
0.1905
 66
1
 10
0
 20
0
 30
0
  0
VERTEX
  8
LAYER_1
 10
199.6564
 20
65.0468
  0
VERTEX
  8
LAYER_1
 10
199.6564
 20
65.3431
  0
SEQEND
  0
POLYLINE
  8
LAYER_1
 40
0.1905
 41
0.1905
 66
1
 10
0
 20
0
 30
0
  0
VERTEX
  8
LAYER_1
 10
199.6564
 20
65.0468
  0
VERTEX
  8
LAYER_1
 10
199.0425
 20
65.0468
  0
VERTEX
  8
LAYER_1
 10
199.0425
 20
65.3431
  0
SEQEND
  0
POLYLINE
  8
LAYER_1
 40
0.1905
 41
0.1905
 66
1
 10
0
 20
0
 30
0
  0
VERTEX
  8
LAYER_1
 10
165.8321
 20
78.1913
  0
VERTEX
  8
LAYER_1
 10
165.8321
 20
78.7418
  0
SEQEND
  0
POLYLINE
  8
LAYER_1
 40
0.1905
 41
0.1905
 66
1
 10
0
 20
0
 30
0
  0
VERTEX
  8
LAYER_1
 10
165.8321
 20
79.5252
  0
VERTEX
  8
LAYER_1
 10
165.8321
 20
79.991
  0
SEQEND
  0
POLYLINE
  8
LAYER_1
 40
0.1905
 41
0.1905
 66
1
 10
0
 20
0
 30
0
  0
VERTEX
  8
LAYER_1
 10
174.9127
 20
78.1913
  0
VERTEX
  8
LAYER_1
 10
174.9127
 20
78.7418
  0
SEQEND
  0
POLYLINE
  8
LAYER_1
 40
0.1905
 41
0.1905
 66
1
 10
0
 20
0
 30
0
  0
VERTEX
  8
LAYER_1
 10
174.9127
 20
79.5252
  0
VERTEX
  8
LAYER_1
 10
174.9127
 20
79.991
  0
SEQEND
  0
POLYLINE
  8
LAYER_1
 40
0.1905
 41
0.1905
 66
1
 10
0
 20
0
 30
0
  0
VERTEX
  8
LAYER_1
 10
177.5161
 20
82.0229
  0
VERTEX
  8
LAYER_1
 10
177.4737
 20
82.0229
  0
SEQEND
  0
POLYLINE
  8
LAYER_1
 40
0.1905
 41
0.1905
 66
1
 10
0
 20
0
 30
0
  0
VERTEX
  8
LAYER_1
 10
177.389
 20
82.0229
  0
VERTEX
  8
LAYER_1
 10
177.3466
 20
82.0012
  0
VERTEX
  8
LAYER_1
 10
177.3256
 20
81.9802
  0
SEQEND
  0
POLYLINE
  8
LAYER_1
 40
0.1905
 41
0.1905
 66
1
 10
0
 20
0
 30
0
  0
VERTEX
  8
LAYER_1
 10
177.2619
 20
81.9382
  0
VERTEX
  8
LAYER_1
 10
177.2195
 20
81.8954
  0
SEQEND
  0
POLYLINE
  8
LAYER_1
 40
0.1905
 41
0.1905
 66
1
 10
0
 20
0
 30
0
  0
VERTEX
  8
LAYER_1
 10
174.9127
 20
78.1913
  0
VERTEX
  8
LAYER_1
 10
174.9127
 20
78.1706
  0
SEQEND
  0
POLYLINE
  8
LAYER_1
 40
0.1905
 41
0.1905
 66
1
 10
0
 20
0
 30
0
  0
VERTEX
  8
LAYER_1
 10
174.9127
 20
78.1279
  0
VERTEX
  8
LAYER_1
 10
174.9337
 20
78.0858
  0
SEQEND
  0
POLYLINE
  8
LAYER_1
 40
0.1905
 41
0.1905
 66
1
 10
0
 20
0
 30
0
  0
VERTEX
  8
LAYER_1
 10
174.9761
 20
78.0431
  0
VERTEX
  8
LAYER_1
 10
174.9971
 20
78.0225
  0
VERTEX
  8
LAYER_1
 10
175.0184
 20
78.0225
  0
SEQEND
  0
POLYLINE
  8
LAYER_1
 40
0.1905
 41
0.1905
 66
1
 10
0
 20
0
 30
0
  0
VERTEX
  8
LAYER_1
 10
175.0818
 20
78.0011
  0
VERTEX
  8
LAYER_1
 10
175.1242
 20
77.9797
  0
SEQEND
  0
POLYLINE
  8
LAYER_1
 40
0.1905
 41
0.1905
 66
1
 10
0
 20
0
 30
0
  0
VERTEX
  8
LAYER_1
 10
163.5459
 20
81.8954
  0
VERTEX
  8
LAYER_1
 10
163.5039
 20
81.9168
  0
SEQEND
  0
POLYLINE
  8
LAYER_1
 40
0.1905
 41
0.1905
 66
1
 10
0
 20
0
 30
0
  0
VERTEX
  8
LAYER_1
 10
163.4402
 20
81.9588
  0
VERTEX
  8
LAYER_1
 10
163.3978
 20
82.0015
  0
VERTEX
  8
LAYER_1
 10
163.3557
 20
82.0015
  0
SEQEND
  0
POLYLINE
  8
LAYER_1
 40
0.1905
 41
0.1905
 66
1
 10
0
 20
0
 30
0
  0
VERTEX
  8
LAYER_1
 10
163.292
 20
82.0015
  0
VERTEX
  8
LAYER_1
 10
163.2496
 20
82.0229
  0
SEQEND
  0
POLYLINE
  8
LAYER_1
 40
0.1905
 41
0.1905
 66
1
 10
0
 20
0
 30
0
  0
VERTEX
  8
LAYER_1
 10
162.8262
 20
78.1913
  0
VERTEX
  8
LAYER_1
 10
162.8262
 20
78.3604
  0
SEQEND
  0
POLYLINE
  8
LAYER_1
 40
0.1905
 41
0.1905
 66
1
 10
0
 20
0
 30
0
  0
VERTEX
  8
LAYER_1
 10
162.8262
 20
78.6357
  0
VERTEX
  8
LAYER_1
 10
162.8262
 20
78.7838
  0
SEQEND
  0
POLYLINE
  8
LAYER_1
 40
0.1905
 41
0.1905
 66
1
 10
0
 20
0
 30
0
  0
VERTEX
  8
LAYER_1
 10
162.8262
 20
78.1913
  0
VERTEX
  8
LAYER_1
 10
162.8262
 20
78.1706
  0
SEQEND
  0
POLYLINE
  8
LAYER_1
 40
0.1905
 41
0.1905
 66
1
 10
0
 20
0
 30
0
  0
VERTEX
  8
LAYER_1
 10
162.8262
 20
78.1279
  0
VERTEX
  8
LAYER_1
 10
162.8473
 20
78.0858
  0
SEQEND
  0
POLYLINE
  8
LAYER_1
 40
0.1905
 41
0.1905
 66
1
 10
0
 20
0
 30
0
  0
VERTEX
  8
LAYER_1
 10
162.89
 20
78.0431
  0
VERTEX
  8
LAYER_1
 10
162.911
 20
78.0225
  0
VERTEX
  8
LAYER_1
 10
162.932
 20
78.0225
  0
SEQEND
  0
POLYLINE
  8
LAYER_1
 40
0.1905
 41
0.1905
 66
1
 10
0
 20
0
 30
0
  0
VERTEX
  8
LAYER_1
 10
162.9747
 20
78.0011
  0
VERTEX
  8
LAYER_1
 10
163.0168
 20
77.9797
  0
SEQEND
  0
POLYLINE
  8
LAYER_1
 40
0.1905
 41
0.1905
 66
1
 10
0
 20
0
 30
0
  0
VERTEX
  8
LAYER_1
 10
162.6147
 20
78.996
  0
VERTEX
  8
LAYER_1
 10
161.8737
 20
78.996
  0
SEQEND
  0
POLYLINE
  8
LAYER_1
 40
0.1905
 41
0.1905
 66
1
 10
0
 20
0
 30
0
  0
VERTEX
  8
LAYER_1
 10
160.8367
 20
78.996
  0
VERTEX
  8
LAYER_1
 10
159.5031
 20
78.996
  0
SEQEND
  0
POLYLINE
  8
LAYER_1
 40
0.1905
 41
0.1905
 66
1
 10
0
 20
0
 30
0
  0
VERTEX
  8
LAYER_1
 10
158.4658
 20
78.996
  0
VERTEX
  8
LAYER_1
 10
157.8732
 20
78.996
  0
VERTEX
  8
LAYER_1
 10
157.8312
 20
78.996
  0
SEQEND
  0
POLYLINE
  8
LAYER_1
 40
0.1905
 41
0.1905
 66
1
 10
0
 20
0
 30
0
  0
VERTEX
  8
LAYER_1
 10
157.7464
 20
78.9747
  0
VERTEX
  8
LAYER_1
 10
157.6831
 20
78.9533
  0
VERTEX
  8
LAYER_1
 10
157.6403
 20
78.9533
  0
SEQEND
  0
POLYLINE
  8
LAYER_1
 40
0.1905
 41
0.1905
 66
1
 10
0
 20
0
 30
0
  0
VERTEX
  8
LAYER_1
 10
157.5556
 20
78.9113
  0
VERTEX
  8
LAYER_1
 10
157.5136
 20
78.8896
  0
VERTEX
  8
LAYER_1
 10
157.4922
 20
78.8686
  0
SEQEND
  0
POLYLINE
  8
LAYER_1
 40
0.1905
 41
0.1905
 66
1
 10
0
 20
0
 30
0
  0
VERTEX
  8
LAYER_1
 10
157.4288
 20
78.8052
  0
VERTEX
  8
LAYER_1
 10
157.3864
 20
78.7632
  0
VERTEX
  8
LAYER_1
 10
157.3654
 20
78.7204
  0
SEQEND
  0
POLYLINE
  8
LAYER_1
 40
0.1905
 41
0.1905
 66
1
 10
0
 20
0
 30
0
  0
VERTEX
  8
LAYER_1
 10
157.323
 20
78.6357
  0
VERTEX
  8
LAYER_1
 10
157.302
 20
78.5937
  0
VERTEX
  8
LAYER_1
 10
157.302
 20
78.5516
  0
SEQEND
  0
POLYLINE
  8
LAYER_1
 40
0.1905
 41
0.1905
 66
1
 10
0
 20
0
 30
0
  0
VERTEX
  8
LAYER_1
 10
157.2807
 20
78.4669
  0
VERTEX
  8
LAYER_1
 10
157.2593
 20
78.4035
  0
SEQEND
  0
POLYLINE
  8
LAYER_1
 40
0.1905
 41
0.1905
 66
1
 10
0
 20
0
 30
0
  0
VERTEX
  8
LAYER_1
 10
162.8262
 20
78.7838
  0
VERTEX
  8
LAYER_1
 10
162.8262
 20
78.8052
  0
SEQEND
  0
POLYLINE
  8
LAYER_1
 40
0.1905
 41
0.1905
 66
1
 10
0
 20
0
 30
0
  0
VERTEX
  8
LAYER_1
 10
162.8052
 20
78.8686
  0
VERTEX
  8
LAYER_1
 10
162.7835
 20
78.9113
  0
VERTEX
  8
LAYER_1
 10
162.7628
 20
78.9113
  0
SEQEND
  0
POLYLINE
  8
LAYER_1
 40
0.1905
 41
0.1905
 66
1
 10
0
 20
0
 30
0
  0
VERTEX
  8
LAYER_1
 10
162.7205
 20
78.9533
  0
VERTEX
  8
LAYER_1
 10
162.6991
 20
78.9747
  0
VERTEX
  8
LAYER_1
 10
162.6781
 20
78.9747
  0
SEQEND
  0
POLYLINE
  8
LAYER_1
 40
0.1905
 41
0.1905
 66
1
 10
0
 20
0
 30
0
  0
VERTEX
  8
LAYER_1
 10
162.6357
 20
78.9747
  0
VERTEX
  8
LAYER_1
 10
162.6144
 20
78.996
  0
SEQEND
  0
POLYLINE
  8
LAYER_1
 40
0.1905
 41
0.1905
 66
1
 10
0
 20
0
 30
0
  0
VERTEX
  8
LAYER_1
 10
165.6416
 20
77.9797
  0
VERTEX
  8
LAYER_1
 10
164.8371
 20
77.9797
  0
SEQEND
  0
POLYLINE
  8
LAYER_1
 40
0.1905
 41
0.1905
 66
1
 10
0
 20
0
 30
0
  0
VERTEX
  8
LAYER_1
 10
163.673
 20
77.9797
  0
VERTEX
  8
LAYER_1
 10
163.0168
 20
77.9797
  0
SEQEND
  0
POLYLINE
  8
LAYER_1
 40
0.1905
 41
0.1905
 66
1
 10
0
 20
0
 30
0
  0
VERTEX
  8
LAYER_1
 10
165.6416
 20
77.9797
  0
VERTEX
  8
LAYER_1
 10
165.6626
 20
77.9797
  0
SEQEND
  0
POLYLINE
  8
LAYER_1
 40
0.1905
 41
0.1905
 66
1
 10
0
 20
0
 30
0
  0
VERTEX
  8
LAYER_1
 10
165.705
 20
78.0011
  0
VERTEX
  8
LAYER_1
 10
165.7473
 20
78.0225
  0
SEQEND
  0
POLYLINE
  8
LAYER_1
 40
0.1905
 41
0.1905
 66
1
 10
0
 20
0
 30
0
  0
VERTEX
  8
LAYER_1
 10
165.7897
 20
78.0645
  0
VERTEX
  8
LAYER_1
 10
165.8107
 20
78.0858
  0
VERTEX
  8
LAYER_1
 10
165.8107
 20
78.1065
  0
SEQEND
  0
POLYLINE
  8
LAYER_1
 40
0.1905
 41
0.1905
 66
1
 10
0
 20
0
 30
0
  0
VERTEX
  8
LAYER_1
 10
165.8107
 20
78.1492
  0
VERTEX
  8
LAYER_1
 10
165.8321
 20
78.1913
  0
SEQEND
  0
POLYLINE
  8
LAYER_1
 40
0.1905
 41
0.1905
 66
1
 10
0
 20
0
 30
0
  0
VERTEX
  8
LAYER_1
 10
175.1242
 20
77.9797
  0
VERTEX
  8
LAYER_1
 10
174.3835
 20
77.9797
  0
SEQEND
  0
POLYLINE
  8
LAYER_1
 40
0.1905
 41
0.1905
 66
1
 10
0
 20
0
 30
0
  0
VERTEX
  8
LAYER_1
 10
173.3462
 20
77.9797
  0
VERTEX
  8
LAYER_1
 10
172.0126
 20
77.9797
  0
SEQEND
  0
POLYLINE
  8
LAYER_1
 40
0.1905
 41
0.1905
 66
1
 10
0
 20
0
 30
0
  0
VERTEX
  8
LAYER_1
 10
170.9756
 20
77.9797
  0
VERTEX
  8
LAYER_1
 10
169.642
 20
77.9797
  0
SEQEND
  0
POLYLINE
  8
LAYER_1
 40
0.1905
 41
0.1905
 66
1
 10
0
 20
0
 30
0
  0
VERTEX
  8
LAYER_1
 10
168.6047
 20
77.9797
  0
VERTEX
  8
LAYER_1
 10
167.2714
 20
77.9797
  0
SEQEND
  0
POLYLINE
  8
LAYER_1
 40
0.1905
 41
0.1905
 66
1
 10
0
 20
0
 30
0
  0
VERTEX
  8
LAYER_1
 10
166.2341
 20
77.9797
  0
VERTEX
  8
LAYER_1
 10
165.6416
 20
77.9797
  0
SEQEND
  0
POLYLINE
  8
LAYER_1
 40
0.1905
 41
0.1905
 66
1
 10
0
 20
0
 30
0
  0
VERTEX
  8
LAYER_1
 10
174.9123
 20
79.991
  0
VERTEX
  8
LAYER_1
 10
173.9811
 20
79.991
  0
SEQEND
  0
POLYLINE
  8
LAYER_1
 40
0.1905
 41
0.1905
 66
1
 10
0
 20
0
 30
0
  0
VERTEX
  8
LAYER_1
 10
172.6475
 20
79.991
  0
VERTEX
  8
LAYER_1
 10
170.9543
 20
79.991
  0
SEQEND
  0
POLYLINE
  8
LAYER_1
 40
0.1905
 41
0.1905
 66
1
 10
0
 20
0
 30
0
  0
VERTEX
  8
LAYER_1
 10
169.621
 20
79.991
  0
VERTEX
  8
LAYER_1
 10
167.9274
 20
79.991
  0
SEQEND
  0
POLYLINE
  8
LAYER_1
 40
0.1905
 41
0.1905
 66
1
 10
0
 20
0
 30
0
  0
VERTEX
  8
LAYER_1
 10
166.5941
 20
79.991
  0
VERTEX
  8
LAYER_1
 10
165.8321
 20
79.991
  0
SEQEND
  0
POLYLINE
  8
LAYER_1
 40
0.1905
 41
0.1905
 66
1
 10
0
 20
0
 30
0
  0
VERTEX
  8
LAYER_1
 10
174.9123
 20
79.991
  0
VERTEX
  8
LAYER_1
 10
175.632
 20
80.5835
  0
SEQEND
  0
POLYLINE
  8
LAYER_1
 40
0.1905
 41
0.1905
 66
1
 10
0
 20
0
 30
0
  0
VERTEX
  8
LAYER_1
 10
176.6269
 20
81.409
  0
VERTEX
  8
LAYER_1
 10
177.2195
 20
81.8954
  0
SEQEND
  0
POLYLINE
  8
LAYER_1
 40
0.1905
 41
0.1905
 66
1
 10
0
 20
0
 30
0
  0
VERTEX
  8
LAYER_1
 10
165.8321
 20
79.991
  0
VERTEX
  8
LAYER_1
 10
165.1334
 20
80.5835
  0
SEQEND
  0
POLYLINE
  8
LAYER_1
 40
0.1905
 41
0.1905
 66
1
 10
0
 20
0
 30
0
  0
VERTEX
  8
LAYER_1
 10
164.1175
 20
81.409
  0
VERTEX
  8
LAYER_1
 10
163.5459
 20
81.8954
  0
SEQEND
  0
POLYLINE
  8
LAYER_1
 40
0.1905
 41
0.1905
 66
1
 10
0
 20
0
 30
0
  0
VERTEX
  8
LAYER_1
 10
177.5161
 20
82.0229
  0
VERTEX
  8
LAYER_1
 10
176.7751
 20
82.0229
  0
SEQEND
  0
POLYLINE
  8
LAYER_1
 40
0.1905
 41
0.1905
 66
1
 10
0
 20
0
 30
0
  0
VERTEX
  8
LAYER_1
 10
175.7381
 20
82.0229
  0
VERTEX
  8
LAYER_1
 10
174.4045
 20
82.0229
  0
SEQEND
  0
POLYLINE
  8
LAYER_1
 40
0.1905
 41
0.1905
 66
1
 10
0
 20
0
 30
0
  0
VERTEX
  8
LAYER_1
 10
173.3672
 20
82.0229
  0
VERTEX
  8
LAYER_1
 10
172.0339
 20
82.0229
  0
SEQEND
  0
POLYLINE
  8
LAYER_1
 40
0.1905
 41
0.1905
 66
1
 10
0
 20
0
 30
0
  0
VERTEX
  8
LAYER_1
 10
170.9966
 20
82.0229
  0
VERTEX
  8
LAYER_1
 10
169.642
 20
82.0229
  0
SEQEND
  0
POLYLINE
  8
LAYER_1
 40
0.1905
 41
0.1905
 66
1
 10
0
 20
0
 30
0
  0
VERTEX
  8
LAYER_1
 10
168.6047
 20
82.0229
  0
VERTEX
  8
LAYER_1
 10
167.2714
 20
82.0229
  0
SEQEND
  0
POLYLINE
  8
LAYER_1
 40
0.1905
 41
0.1905
 66
1
 10
0
 20
0
 30
0
  0
VERTEX
  8
LAYER_1
 10
166.2341
 20
82.0229
  0
VERTEX
  8
LAYER_1
 10
164.9005
 20
82.0229
  0
SEQEND
  0
POLYLINE
  8
LAYER_1
 40
0.1905
 41
0.1905
 66
1
 10
0
 20
0
 30
0
  0
VERTEX
  8
LAYER_1
 10
163.8636
 20
82.0229
  0
VERTEX
  8
LAYER_1
 10
163.2496
 20
82.0229
  0
SEQEND
  0
POLYLINE
  8
LAYER_1
 40
0.1905
 41
0.1905
 66
1
 10
0
 20
0
 30
0
  0
VERTEX
  8
LAYER_1
 10
148.1791
 20
77.1757
  0
VERTEX
  8
LAYER_1
 10
148.1791
 20
77.1543
  0
SEQEND
  0
POLYLINE
  8
LAYER_1
 40
0.1905
 41
0.1905
 66
1
 10
0
 20
0
 30
0
  0
VERTEX
  8
LAYER_1
 10
148.1791
 20
77.1123
  0
VERTEX
  8
LAYER_1
 10
148.2003
 20
77.0695
  0
SEQEND
  0
POLYLINE
  8
LAYER_1
 40
0.1905
 41
0.1905
 66
1
 10
0
 20
0
 30
0
  0
VERTEX
  8
LAYER_1
 10
148.2425
 20
77.0275
  0
VERTEX
  8
LAYER_1
 10
148.2636
 20
77.0062
  0
VERTEX
  8
LAYER_1
 10
148.2848
 20
77.0062
  0
SEQEND
  0
POLYLINE
  8
LAYER_1
 40
0.1905
 41
0.1905
 66
1
 10
0
 20
0
 30
0
  0
VERTEX
  8
LAYER_1
 10
148.3272
 20
77.0062
  0
VERTEX
  8
LAYER_1
 10
148.3696
 20
76.9844
  0
SEQEND
  0
POLYLINE
  8
LAYER_1
 40
0.1905
 41
0.1905
 66
1
 10
0
 20
0
 30
0
  0
VERTEX
  8
LAYER_1
 10
145.7448
 20
100.2047
  0
VERTEX
  8
LAYER_1
 10
146.5068
 20
100.2047
  0
SEQEND
  0
POLYLINE
  8
LAYER_1
 40
0.1905
 41
0.1905
 66
1
 10
0
 20
0
 30
0
  0
VERTEX
  8
LAYER_1
 10
147.5862
 20
100.2047
  0
VERTEX
  8
LAYER_1
 10
148.9621
 20
100.2047
  0
SEQEND
  0
POLYLINE
  8
LAYER_1
 40
0.1905
 41
0.1905
 66
1
 10
0
 20
0
 30
0
  0
VERTEX
  8
LAYER_1
 10
150.0418
 20
100.2047
  0
VERTEX
  8
LAYER_1
 10
151.4385
 20
100.2047
  0
SEQEND
  0
POLYLINE
  8
LAYER_1
 40
0.1905
 41
0.1905
 66
1
 10
0
 20
0
 30
0
  0
VERTEX
  8
LAYER_1
 10
152.4968
 20
100.2047
  0
VERTEX
  8
LAYER_1
 10
153.8941
 20
100.2047
  0
SEQEND
  0
POLYLINE
  8
LAYER_1
 40
0.1905
 41
0.1905
 66
1
 10
0
 20
0
 30
0
  0
VERTEX
  8
LAYER_1
 10
154.9735
 20
100.2047
  0
VERTEX
  8
LAYER_1
 10
156.3491
 20
100.2047
  0
SEQEND
  0
POLYLINE
  8
LAYER_1
 40
0.1905
 41
0.1905
 66
1
 10
0
 20
0
 30
0
  0
VERTEX
  8
LAYER_1
 10
157.4288
 20
100.2047
  0
VERTEX
  8
LAYER_1
 10
158.8258
 20
100.2047
  0
SEQEND
  0
POLYLINE
  8
LAYER_1
 40
0.1905
 41
0.1905
 66
1
 10
0
 20
0
 30
0
  0
VERTEX
  8
LAYER_1
 10
159.9051
 20
100.2047
  0
VERTEX
  8
LAYER_1
 10
161.2811
 20
100.2047
  0
SEQEND
  0
POLYLINE
  8
LAYER_1
 40
0.1905
 41
0.1905
 66
1
 10
0
 20
0
 30
0
  0
VERTEX
  8
LAYER_1
 10
162.3608
 20
100.2047
  0
VERTEX
  8
LAYER_1
 10
163.7364
 20
100.2047
  0
SEQEND
  0
POLYLINE
  8
LAYER_1
 40
0.1905
 41
0.1905
 66
1
 10
0
 20
0
 30
0
  0
VERTEX
  8
LAYER_1
 10
164.8158
 20
100.2047
  0
VERTEX
  8
LAYER_1
 10
166.2131
 20
100.2047
  0
SEQEND
  0
POLYLINE
  8
LAYER_1
 40
0.1905
 41
0.1905
 66
1
 10
0
 20
0
 30
0
  0
VERTEX
  8
LAYER_1
 10
167.2925
 20
100.2047
  0
VERTEX
  8
LAYER_1
 10
168.6681
 20
100.2047
  0
SEQEND
  0
POLYLINE
  8
LAYER_1
 40
0.1905
 41
0.1905
 66
1
 10
0
 20
0
 30
0
  0
VERTEX
  8
LAYER_1
 10
169.7478
 20
100.2047
  0
VERTEX
  8
LAYER_1
 10
171.1237
 20
100.2047
  0
SEQEND
  0
POLYLINE
  8
LAYER_1
 40
0.1905
 41
0.1905
 66
1
 10
0
 20
0
 30
0
  0
VERTEX
  8
LAYER_1
 10
172.2031
 20
100.2047
  0
VERTEX
  8
LAYER_1
 10
173.6001
 20
100.2047
  0
SEQEND
  0
POLYLINE
  8
LAYER_1
 40
0.1905
 41
0.1905
 66
1
 10
0
 20
0
 30
0
  0
VERTEX
  8
LAYER_1
 10
174.6798
 20
100.2047
  0
VERTEX
  8
LAYER_1
 10
176.0554
 20
100.2047
  0
SEQEND
  0
POLYLINE
  8
LAYER_1
 40
0.1905
 41
0.1905
 66
1
 10
0
 20
0
 30
0
  0
VERTEX
  8
LAYER_1
 10
177.1351
 20
100.2047
  0
VERTEX
  8
LAYER_1
 10
178.5107
 20
100.2047
  0
SEQEND
  0
POLYLINE
  8
LAYER_1
 40
0.1905
 41
0.1905
 66
1
 10
0
 20
0
 30
0
  0
VERTEX
  8
LAYER_1
 10
179.5904
 20
100.2047
  0
VERTEX
  8
LAYER_1
 10
180.9874
 20
100.2047
  0
SEQEND
  0
POLYLINE
  8
LAYER_1
 40
0.1905
 41
0.1905
 66
1
 10
0
 20
0
 30
0
  0
VERTEX
  8
LAYER_1
 10
182.0668
 20
100.2047
  0
VERTEX
  8
LAYER_1
 10
183.4427
 20
100.2047
  0
SEQEND
  0
POLYLINE
  8
LAYER_1
 40
0.1905
 41
0.1905
 66
1
 10
0
 20
0
 30
0
  0
VERTEX
  8
LAYER_1
 10
184.5221
 20
100.2047
  0
VERTEX
  8
LAYER_1
 10
185.898
 20
100.2047
  0
SEQEND
  0
POLYLINE
  8
LAYER_1
 40
0.1905
 41
0.1905
 66
1
 10
0
 20
0
 30
0
  0
VERTEX
  8
LAYER_1
 10
186.9774
 20
100.2047
  0
VERTEX
  8
LAYER_1
 10
188.3744
 20
100.2047
  0
SEQEND
  0
POLYLINE
  8
LAYER_1
 40
0.1905
 41
0.1905
 66
1
 10
0
 20
0
 30
0
  0
VERTEX
  8
LAYER_1
 10
189.4541
 20
100.2047
  0
VERTEX
  8
LAYER_1
 10
190.8297
 20
100.2047
  0
SEQEND
  0
POLYLINE
  8
LAYER_1
 40
0.1905
 41
0.1905
 66
1
 10
0
 20
0
 30
0
  0
VERTEX
  8
LAYER_1
 10
191.9094
 20
100.2047
  0
VERTEX
  8
LAYER_1
 10
193.3064
 20
100.2047
  0
SEQEND
  0
POLYLINE
  8
LAYER_1
 40
0.1905
 41
0.1905
 66
1
 10
0
 20
0
 30
0
  0
VERTEX
  8
LAYER_1
 10
194.3647
 20
100.2047
  0
VERTEX
  8
LAYER_1
 10
194.9996
 20
100.2047
  0
SEQEND
  0
POLYLINE
  8
LAYER_1
 40
0.1905
 41
0.1905
 66
1
 10
0
 20
0
 30
0
  0
VERTEX
  8
LAYER_1
 10
194.9996
 20
77.9797
  0
VERTEX
  8
LAYER_1
 10
194.2376
 20
77.9797
  0
SEQEND
  0
POLYLINE
  8
LAYER_1
 40
0.1905
 41
0.1905
 66
1
 10
0
 20
0
 30
0
  0
VERTEX
  8
LAYER_1
 10
193.1582
 20
77.9797
  0
VERTEX
  8
LAYER_1
 10
191.7823
 20
77.9797
  0
SEQEND
  0
POLYLINE
  8
LAYER_1
 40
0.1905
 41
0.1905
 66
1
 10
0
 20
0
 30
0
  0
VERTEX
  8
LAYER_1
 10
190.7029
 20
77.9797
  0
VERTEX
  8
LAYER_1
 10
189.3056
 20
77.9797
  0
SEQEND
  0
POLYLINE
  8
LAYER_1
 40
0.1905
 41
0.1905
 66
1
 10
0
 20
0
 30
0
  0
VERTEX
  8
LAYER_1
 10
188.2473
 20
77.9797
  0
VERTEX
  8
LAYER_1
 10
186.8503
 20
77.9797
  0
SEQEND
  0
POLYLINE
  8
LAYER_1
 40
0.1905
 41
0.1905
 66
1
 10
0
 20
0
 30
0
  0
VERTEX
  8
LAYER_1
 10
185.7709
 20
77.9797
  0
VERTEX
  8
LAYER_1
 10
184.3949
 20
77.9797
  0
SEQEND
  0
POLYLINE
  8
LAYER_1
 40
0.1905
 41
0.1905
 66
1
 10
0
 20
0
 30
0
  0
VERTEX
  8
LAYER_1
 10
183.3156
 20
77.9797
  0
VERTEX
  8
LAYER_1
 10
181.9186
 20
77.9797
  0
SEQEND
  0
POLYLINE
  8
LAYER_1
 40
0.1905
 41
0.1905
 66
1
 10
0
 20
0
 30
0
  0
VERTEX
  8
LAYER_1
 10
180.8389
 20
77.9797
  0
VERTEX
  8
LAYER_1
 10
179.4633
 20
77.9797
  0
SEQEND
  0
POLYLINE
  8
LAYER_1
 40
0.1905
 41
0.1905
 66
1
 10
0
 20
0
 30
0
  0
VERTEX
  8
LAYER_1
 10
178.3836
 20
77.9797
  0
VERTEX
  8
LAYER_1
 10
177.008
 20
77.9797
  0
SEQEND
  0
POLYLINE
  8
LAYER_1
 40
0.1905
 41
0.1905
 66
1
 10
0
 20
0
 30
0
  0
VERTEX
  8
LAYER_1
 10
175.9283
 20
77.9797
  0
VERTEX
  8
LAYER_1
 10
174.5313
 20
77.9797
  0
SEQEND
  0
POLYLINE
  8
LAYER_1
 40
0.1905
 41
0.1905
 66
1
 10
0
 20
0
 30
0
  0
VERTEX
  8
LAYER_1
 10
173.4519
 20
77.9797
  0
VERTEX
  8
LAYER_1
 10
172.076
 20
77.9797
  0
SEQEND
  0
POLYLINE
  8
LAYER_1
 40
0.1905
 41
0.1905
 66
1
 10
0
 20
0
 30
0
  0
VERTEX
  8
LAYER_1
 10
170.9966
 20
77.9797
  0
VERTEX
  8
LAYER_1
 10
169.621
 20
77.9797
  0
SEQEND
  0
POLYLINE
  8
LAYER_1
 40
0.1905
 41
0.1905
 66
1
 10
0
 20
0
 30
0
  0
VERTEX
  8
LAYER_1
 10
168.5413
 20
77.9797
  0
VERTEX
  8
LAYER_1
 10
167.1443
 20
77.9797
  0
SEQEND
  0
POLYLINE
  8
LAYER_1
 40
0.1905
 41
0.1905
 66
1
 10
0
 20
0
 30
0
  0
VERTEX
  8
LAYER_1
 10
166.065
 20
77.9797
  0
VERTEX
  8
LAYER_1
 10
164.689
 20
77.9797
  0
SEQEND
  0
POLYLINE
  8
LAYER_1
 40
0.1905
 41
0.1905
 66
1
 10
0
 20
0
 30
0
  0
VERTEX
  8
LAYER_1
 10
163.6093
 20
77.9797
  0
VERTEX
  8
LAYER_1
 10
162.2337
 20
77.9797
  0
SEQEND
  0
POLYLINE
  8
LAYER_1
 40
0.1905
 41
0.1905
 66
1
 10
0
 20
0
 30
0
  0
VERTEX
  8
LAYER_1
 10
161.1543
 20
77.9797
  0
VERTEX
  8
LAYER_1
 10
159.757
 20
77.9797
  0
SEQEND
  0
POLYLINE
  8
LAYER_1
 40
0.1905
 41
0.1905
 66
1
 10
0
 20
0
 30
0
  0
VERTEX
  8
LAYER_1
 10
158.6777
 20
77.9797
  0
VERTEX
  8
LAYER_1
 10
157.302
 20
77.9797
  0
SEQEND
  0
POLYLINE
  8
LAYER_1
 40
0.1905
 41
0.1905
 66
1
 10
0
 20
0
 30
0
  0
VERTEX
  8
LAYER_1
 10
156.2223
 20
77.9797
  0
VERTEX
  8
LAYER_1
 10
154.8464
 20
77.9797
  0
SEQEND
  0
POLYLINE
  8
LAYER_1
 40
0.1905
 41
0.1905
 66
1
 10
0
 20
0
 30
0
  0
VERTEX
  8
LAYER_1
 10
153.767
 20
77.9797
  0
VERTEX
  8
LAYER_1
 10
152.37
 20
77.9797
  0
SEQEND
  0
POLYLINE
  8
LAYER_1
 40
0.1905
 41
0.1905
 66
1
 10
0
 20
0
 30
0
  0
VERTEX
  8
LAYER_1
 10
151.2903
 20
77.9797
  0
VERTEX
  8
LAYER_1
 10
149.9147
 20
77.9797
  0
SEQEND
  0
POLYLINE
  8
LAYER_1
 40
0.1905
 41
0.1905
 66
1
 10
0
 20
0
 30
0
  0
VERTEX
  8
LAYER_1
 10
148.8354
 20
77.9797
  0
VERTEX
  8
LAYER_1
 10
147.438
 20
77.9797
  0
SEQEND
  0
POLYLINE
  8
LAYER_1
 40
0.1905
 41
0.1905
 66
1
 10
0
 20
0
 30
0
  0
VERTEX
  8
LAYER_1
 10
146.3797
 20
77.9797
  0
VERTEX
  8
LAYER_1
 10
145.7448
 20
77.9797
  0
SEQEND
  0
POLYLINE
  8
LAYER_1
 40
0.1905
 41
0.1905
 66
1
 10
0
 20
0
 30
0
  0
VERTEX
  8
LAYER_1
 10
145.1312
 20
78.5937
  0
VERTEX
  8
LAYER_1
 10
145.1312
 20
78.5516
  0
SEQEND
  0
POLYLINE
  8
LAYER_1
 40
0.1905
 41
0.1905
 66
1
 10
0
 20
0
 30
0
  0
VERTEX
  8
LAYER_1
 10
145.1522
 20
78.4669
  0
VERTEX
  8
LAYER_1
 10
145.1734
 20
78.4035
  0
VERTEX
  8
LAYER_1
 10
145.1946
 20
78.3608
  0
SEQEND
  0
POLYLINE
  8
LAYER_1
 40
0.1905
 41
0.1905
 66
1
 10
0
 20
0
 30
0
  0
VERTEX
  8
LAYER_1
 10
145.2366
 20
78.2974
  0
VERTEX
  8
LAYER_1
 10
145.2581
 20
78.2547
  0
VERTEX
  8
LAYER_1
 10
145.2793
 20
78.2126
  0
SEQEND
  0
POLYLINE
  8
LAYER_1
 40
0.1905
 41
0.1905
 66
1
 10
0
 20
0
 30
0
  0
VERTEX
  8
LAYER_1
 10
145.3427
 20
78.1279
  0
VERTEX
  8
LAYER_1
 10
145.3848
 20
78.0858
  0
VERTEX
  8
LAYER_1
 10
145.4273
 20
78.0858
  0
SEQEND
  0
POLYLINE
  8
LAYER_1
 40
0.1905
 41
0.1905
 66
1
 10
0
 20
0
 30
0
  0
VERTEX
  8
LAYER_1
 10
145.5119
 20
78.0431
  0
VERTEX
  8
LAYER_1
 10
145.5543
 20
78.0225
  0
VERTEX
  8
LAYER_1
 10
145.5966
 20
78.0225
  0
SEQEND
  0
POLYLINE
  8
LAYER_1
 40
0.1905
 41
0.1905
 66
1
 10
0
 20
0
 30
0
  0
VERTEX
  8
LAYER_1
 10
145.6814
 20
78.0011
  0
VERTEX
  8
LAYER_1
 10
145.7449
 20
77.9797
  0
SEQEND
  0
POLYLINE
  8
LAYER_1
 40
0.1905
 41
0.1905
 66
1
 10
0
 20
0
 30
0
  0
VERTEX
  8
LAYER_1
 10
194.9996
 20
77.9797
  0
VERTEX
  8
LAYER_1
 10
195.042
 20
77.9797
  0
SEQEND
  0
POLYLINE
  8
LAYER_1
 40
0.1905
 41
0.1905
 66
1
 10
0
 20
0
 30
0
  0
VERTEX
  8
LAYER_1
 10
195.1268
 20
78.0011
  0
VERTEX
  8
LAYER_1
 10
195.1902
 20
78.0225
  0
VERTEX
  8
LAYER_1
 10
195.2325
 20
78.0225
  0
SEQEND
  0
POLYLINE
  8
LAYER_1
 40
0.1905
 41
0.1905
 66
1
 10
0
 20
0
 30
0
  0
VERTEX
  8
LAYER_1
 10
195.3173
 20
78.0645
  0
VERTEX
  8
LAYER_1
 10
195.3593
 20
78.0858
  0
VERTEX
  8
LAYER_1
 10
195.4017
 20
78.1279
  0
SEQEND
  0
POLYLINE
  8
LAYER_1
 40
0.1905
 41
0.1905
 66
1
 10
0
 20
0
 30
0
  0
VERTEX
  8
LAYER_1
 10
195.4654
 20
78.2126
  0
VERTEX
  8
LAYER_1
 10
195.5078
 20
78.2547
  0
VERTEX
  8
LAYER_1
 10
195.5288
 20
78.2974
  0
SEQEND
  0
POLYLINE
  8
LAYER_1
 40
0.1905
 41
0.1905
 66
1
 10
0
 20
0
 30
0
  0
VERTEX
  8
LAYER_1
 10
195.5712
 20
78.3608
  0
VERTEX
  8
LAYER_1
 10
195.5922
 20
78.4035
  0
VERTEX
  8
LAYER_1
 10
195.5922
 20
78.4455
  0
SEQEND
  0
POLYLINE
  8
LAYER_1
 40
0.1905
 41
0.1905
 66
1
 10
0
 20
0
 30
0
  0
VERTEX
  8
LAYER_1
 10
195.5922
 20
78.5303
  0
VERTEX
  8
LAYER_1
 10
195.6136
 20
78.5937
  0
VERTEX
  8
LAYER_1
 10
195.6136
 20
79.3977
  0
SEQEND
  0
POLYLINE
  8
LAYER_1
 40
0.1905
 41
0.1905
 66
1
 10
0
 20
0
 30
0
  0
VERTEX
  8
LAYER_1
 10
195.6136
 20
80.5622
  0
VERTEX
  8
LAYER_1
 10
195.6136
 20
82.0229
  0
SEQEND
  0
POLYLINE
  8
LAYER_1
 40
0.1905
 41
0.1905
 66
1
 10
0
 20
0
 30
0
  0
VERTEX
  8
LAYER_1
 10
195.6136
 20
83.1867
  0
VERTEX
  8
LAYER_1
 10
195.6136
 20
84.6687
  0
SEQEND
  0
POLYLINE
  8
LAYER_1
 40
0.1905
 41
0.1905
 66
1
 10
0
 20
0
 30
0
  0
VERTEX
  8
LAYER_1
 10
195.6136
 20
85.8118
  0
VERTEX
  8
LAYER_1
 10
195.6136
 20
87.2932
  0
SEQEND
  0
POLYLINE
  8
LAYER_1
 40
0.1905
 41
0.1905
 66
1
 10
0
 20
0
 30
0
  0
VERTEX
  8
LAYER_1
 10
195.6136
 20
88.4363
  0
VERTEX
  8
LAYER_1
 10
195.6136
 20
89.9177
  0
SEQEND
  0
POLYLINE
  8
LAYER_1
 40
0.1905
 41
0.1905
 66
1
 10
0
 20
0
 30
0
  0
VERTEX
  8
LAYER_1
 10
195.6136
 20
91.0608
  0
VERTEX
  8
LAYER_1
 10
195.6136
 20
92.5422
  0
SEQEND
  0
POLYLINE
  8
LAYER_1
 40
0.1905
 41
0.1905
 66
1
 10
0
 20
0
 30
0
  0
VERTEX
  8
LAYER_1
 10
195.6136
 20
93.6852
  0
VERTEX
  8
LAYER_1
 10
195.6136
 20
95.1673
  0
SEQEND
  0
POLYLINE
  8
LAYER_1
 40
0.1905
 41
0.1905
 66
1
 10
0
 20
0
 30
0
  0
VERTEX
  8
LAYER_1
 10
195.6136
 20
96.3104
  0
VERTEX
  8
LAYER_1
 10
195.6136
 20
97.7918
  0
SEQEND
  0
POLYLINE
  8
LAYER_1
 40
0.1905
 41
0.1905
 66
1
 10
0
 20
0
 30
0
  0
VERTEX
  8
LAYER_1
 10
195.6136
 20
98.9349
  0
VERTEX
  8
LAYER_1
 10
195.6136
 20
99.6122
  0
VERTEX
  8
LAYER_1
 10
195.6136
 20
99.6542
  0
SEQEND
  0
POLYLINE
  8
LAYER_1
 40
0.1905
 41
0.1905
 66
1
 10
0
 20
0
 30
0
  0
VERTEX
  8
LAYER_1
 10
195.6136
 20
99.739
  0
VERTEX
  8
LAYER_1
 10
195.5919
 20
99.7817
  0
VERTEX
  8
LAYER_1
 10
195.5712
 20
99.8237
  0
SEQEND
  0
POLYLINE
  8
LAYER_1
 40
0.1905
 41
0.1905
 66
1
 10
0
 20
0
 30
0
  0
VERTEX
  8
LAYER_1
 10
195.5288
 20
99.9085
  0
VERTEX
  8
LAYER_1
 10
195.5078
 20
99.9505
  0
VERTEX
  8
LAYER_1
 10
195.4654
 20
99.9932
  0
SEQEND
  0
POLYLINE
  8
LAYER_1
 40
0.1905
 41
0.1905
 66
1
 10
0
 20
0
 30
0
  0
VERTEX
  8
LAYER_1
 10
195.4017
 20
100.0566
  0
VERTEX
  8
LAYER_1
 10
195.3597
 20
100.0993
  0
VERTEX
  8
LAYER_1
 10
195.3173
 20
100.0993
  0
SEQEND
  0
POLYLINE
  8
LAYER_1
 40
0.1905
 41
0.1905
 66
1
 10
0
 20
0
 30
0
  0
VERTEX
  8
LAYER_1
 10
195.2325
 20
100.1413
  0
VERTEX
  8
LAYER_1
 10
195.1902
 20
100.1627
  0
VERTEX
  8
LAYER_1
 10
195.1478
 20
100.1627
  0
SEQEND
  0
POLYLINE
  8
LAYER_1
 40
0.1905
 41
0.1905
 66
1
 10
0
 20
0
 30
0
  0
VERTEX
  8
LAYER_1
 10
195.063
 20
100.1834
  0
VERTEX
  8
LAYER_1
 10
194.9996
 20
100.2047
  0
SEQEND
  0
POLYLINE
  8
LAYER_1
 40
0.1905
 41
0.1905
 66
1
 10
0
 20
0
 30
0
  0
VERTEX
  8
LAYER_1
 10
192.5867
 20
77.1757
  0
VERTEX
  8
LAYER_1
 10
192.5867
 20
77.4085
  0
SEQEND
  0
POLYLINE
  8
LAYER_1
 40
0.1905
 41
0.1905
 66
1
 10
0
 20
0
 30
0
  0
VERTEX
  8
LAYER_1
 10
192.5867
 20
77.7682
  0
VERTEX
  8
LAYER_1
 10
192.5867
 20
77.9797
  0
SEQEND
  0
POLYLINE
  8
LAYER_1
 40
0.1905
 41
0.1905
 66
1
 10
0
 20
0
 30
0
  0
VERTEX
  8
LAYER_1
 10
145.1312
 20
78.5937
  0
VERTEX
  8
LAYER_1
 10
145.1312
 20
79.3977
  0
SEQEND
  0
POLYLINE
  8
LAYER_1
 40
0.1905
 41
0.1905
 66
1
 10
0
 20
0
 30
0
  0
VERTEX
  8
LAYER_1
 10
145.1312
 20
80.5622
  0
VERTEX
  8
LAYER_1
 10
145.1312
 20
82.0229
  0
SEQEND
  0
POLYLINE
  8
LAYER_1
 40
0.1905
 41
0.1905
 66
1
 10
0
 20
0
 30
0
  0
VERTEX
  8
LAYER_1
 10
145.1312
 20
83.1867
  0
VERTEX
  8
LAYER_1
 10
145.1312
 20
84.6687
  0
SEQEND
  0
POLYLINE
  8
LAYER_1
 40
0.1905
 41
0.1905
 66
1
 10
0
 20
0
 30
0
  0
VERTEX
  8
LAYER_1
 10
145.1312
 20
85.8118
  0
VERTEX
  8
LAYER_1
 10
145.1312
 20
87.2932
  0
SEQEND
  0
POLYLINE
  8
LAYER_1
 40
0.1905
 41
0.1905
 66
1
 10
0
 20
0
 30
0
  0
VERTEX
  8
LAYER_1
 10
145.1312
 20
88.4363
  0
VERTEX
  8
LAYER_1
 10
145.1312
 20
89.9177
  0
SEQEND
  0
POLYLINE
  8
LAYER_1
 40
0.1905
 41
0.1905
 66
1
 10
0
 20
0
 30
0
  0
VERTEX
  8
LAYER_1
 10
145.1312
 20
91.0608
  0
VERTEX
  8
LAYER_1
 10
145.1312
 20
92.5422
  0
SEQEND
  0
POLYLINE
  8
LAYER_1
 40
0.1905
 41
0.1905
 66
1
 10
0
 20
0
 30
0
  0
VERTEX
  8
LAYER_1
 10
145.1312
 20
93.6852
  0
VERTEX
  8
LAYER_1
 10
145.1312
 20
95.1673
  0
SEQEND
  0
POLYLINE
  8
LAYER_1
 40
0.1905
 41
0.1905
 66
1
 10
0
 20
0
 30
0
  0
VERTEX
  8
LAYER_1
 10
145.1312
 20
96.3104
  0
VERTEX
  8
LAYER_1
 10
145.1312
 20
97.7918
  0
SEQEND
  0
POLYLINE
  8
LAYER_1
 40
0.1905
 41
0.1905
 66
1
 10
0
 20
0
 30
0
  0
VERTEX
  8
LAYER_1
 10
145.1312
 20
98.9349
  0
VERTEX
  8
LAYER_1
 10
145.1312
 20
99.6122
  0
SEQEND
  0
POLYLINE
  8
LAYER_1
 40
0.1905
 41
0.1905
 66
1
 10
0
 20
0
 30
0
  0
VERTEX
  8
LAYER_1
 10
145.7448
 20
100.2047
  0
VERTEX
  8
LAYER_1
 10
145.7024
 20
100.2047
  0
SEQEND
  0
POLYLINE
  8
LAYER_1
 40
0.1905
 41
0.1905
 66
1
 10
0
 20
0
 30
0
  0
VERTEX
  8
LAYER_1
 10
145.6176
 20
100.1834
  0
VERTEX
  8
LAYER_1
 10
145.5541
 20
100.1627
  0
VERTEX
  8
LAYER_1
 10
145.5122
 20
100.1627
  0
SEQEND
  0
POLYLINE
  8
LAYER_1
 40
0.1905
 41
0.1905
 66
1
 10
0
 20
0
 30
0
  0
VERTEX
  8
LAYER_1
 10
145.4275
 20
100.12
  0
VERTEX
  8
LAYER_1
 10
145.3848
 20
100.0993
  0
VERTEX
  8
LAYER_1
 10
145.3639
 20
100.0566
  0
SEQEND
  0
POLYLINE
  8
LAYER_1
 40
0.1905
 41
0.1905
 66
1
 10
0
 20
0
 30
0
  0
VERTEX
  8
LAYER_1
 10
145.3003
 20
99.9932
  0
VERTEX
  8
LAYER_1
 10
145.258
 20
99.9505
  0
VERTEX
  8
LAYER_1
 10
145.2364
 20
99.9085
  0
SEQEND
  0
POLYLINE
  8
LAYER_1
 40
0.1905
 41
0.1905
 66
1
 10
0
 20
0
 30
0
  0
VERTEX
  8
LAYER_1
 10
145.1946
 20
99.8237
  0
VERTEX
  8
LAYER_1
 10
145.1731
 20
99.7817
  0
VERTEX
  8
LAYER_1
 10
145.1731
 20
99.739
  0
SEQEND
  0
POLYLINE
  8
LAYER_1
 40
0.1905
 41
0.1905
 66
1
 10
0
 20
0
 30
0
  0
VERTEX
  8
LAYER_1
 10
145.1522
 20
99.6542
  0
VERTEX
  8
LAYER_1
 10
145.131
 20
99.6122
  0
SEQEND
  0
POLYLINE
  8
LAYER_1
 40
0.1905
 41
0.1905
 66
1
 10
0
 20
0
 30
0
  0
VERTEX
  8
LAYER_1
 10
148.1791
 20
77.1757
  0
VERTEX
  8
LAYER_1
 10
148.1791
 20
77.4085
  0
SEQEND
  0
POLYLINE
  8
LAYER_1
 40
0.1905
 41
0.1905
 66
1
 10
0
 20
0
 30
0
  0
VERTEX
  8
LAYER_1
 10
148.1791
 20
77.7682
  0
VERTEX
  8
LAYER_1
 10
148.1791
 20
77.9797
  0
SEQEND
  0
POLYLINE
  8
LAYER_1
 40
0.1905
 41
0.1905
 66
1
 10
0
 20
0
 30
0
  0
VERTEX
  8
LAYER_1
 10
170.3827
 20
76.9848
  0
VERTEX
  8
LAYER_1
 10
170.3617
 20
76.9848
  0
SEQEND
  0
POLYLINE
  8
LAYER_1
 40
0.1905
 41
0.1905
 66
1
 10
0
 20
0
 30
0
  0
VERTEX
  8
LAYER_1
 10
145.1312
 20
78.5937
  0
VERTEX
  8
LAYER_1
 10
145.1312
 20
79.4191
  0
SEQEND
  0
POLYLINE
  8
LAYER_1
 40
0.1905
 41
0.1905
 66
1
 10
0
 20
0
 30
0
  0
VERTEX
  8
LAYER_1
 10
145.1312
 20
80.5835
  0
VERTEX
  8
LAYER_1
 10
145.1312
 20
82.0649
  0
SEQEND
  0
POLYLINE
  8
LAYER_1
 40
0.1905
 41
0.1905
 66
1
 10
0
 20
0
 30
0
  0
VERTEX
  8
LAYER_1
 10
145.1312
 20
83.2294
  0
VERTEX
  8
LAYER_1
 10
145.1312
 20
84.7108
  0
SEQEND
  0
POLYLINE
  8
LAYER_1
 40
0.1905
 41
0.1905
 66
1
 10
0
 20
0
 30
0
  0
VERTEX
  8
LAYER_1
 10
145.1312
 20
85.8752
  0
VERTEX
  8
LAYER_1
 10
145.1312
 20
87.378
  0
SEQEND
  0
POLYLINE
  8
LAYER_1
 40
0.1905
 41
0.1905
 66
1
 10
0
 20
0
 30
0
  0
VERTEX
  8
LAYER_1
 10
145.1312
 20
88.5417
  0
VERTEX
  8
LAYER_1
 10
145.1312
 20
90.0238
  0
SEQEND
  0
POLYLINE
  8
LAYER_1
 40
0.1905
 41
0.1905
 66
1
 10
0
 20
0
 30
0
  0
VERTEX
  8
LAYER_1
 10
145.1312
 20
91.1875
  0
VERTEX
  8
LAYER_1
 10
145.1312
 20
92.691
  0
SEQEND
  0
POLYLINE
  8
LAYER_1
 40
0.1905
 41
0.1905
 66
1
 10
0
 20
0
 30
0
  0
VERTEX
  8
LAYER_1
 10
145.1312
 20
93.8334
  0
VERTEX
  8
LAYER_1
 10
145.1312
 20
95.3368
  0
SEQEND
  0
POLYLINE
  8
LAYER_1
 40
0.1905
 41
0.1905
 66
1
 10
0
 20
0
 30
0
  0
VERTEX
  8
LAYER_1
 10
145.1312
 20
96.5006
  0
VERTEX
  8
LAYER_1
 10
145.1312
 20
97.9826
  0
SEQEND
  0
POLYLINE
  8
LAYER_1
 40
0.1905
 41
0.1905
 66
1
 10
0
 20
0
 30
0
  0
VERTEX
  8
LAYER_1
 10
145.1312
 20
99.1464
  0
VERTEX
  8
LAYER_1
 10
145.1312
 20
99.8237
  0
SEQEND
  0
POLYLINE
  8
LAYER_1
 40
0.1905
 41
0.1905
 66
1
 10
0
 20
0
 30
0
  0
VERTEX
  8
LAYER_1
 10
147.1631
 20
79.61
  0
VERTEX
  8
LAYER_1
 10
147.1631
 20
79.7154
  0
SEQEND
  0
POLYLINE
  8
LAYER_1
 40
0.1905
 41
0.1905
 66
1
 10
0
 20
0
 30
0
  0
VERTEX
  8
LAYER_1
 10
147.1631
 20
79.8635
  0
VERTEX
  8
LAYER_1
 10
147.1631
 20
79.9483
  0
SEQEND
  0
POLYLINE
  8
LAYER_1
 40
0.1905
 41
0.1905
 66
1
 10
0
 20
0
 30
0
  0
VERTEX
  8
LAYER_1
 10
147.798
 20
80.5408
  0
VERTEX
  8
LAYER_1
 10
147.7341
 20
80.5408
  0
SEQEND
  0
POLYLINE
  8
LAYER_1
 40
0.1905
 41
0.1905
 66
1
 10
0
 20
0
 30
0
  0
VERTEX
  8
LAYER_1
 10
147.6499
 20
80.5408
  0
VERTEX
  8
LAYER_1
 10
147.586
 20
80.5201
  0
VERTEX
  8
LAYER_1
 10
147.5441
 20
80.4988
  0
SEQEND
  0
POLYLINE
  8
LAYER_1
 40
0.1905
 41
0.1905
 66
1
 10
0
 20
0
 30
0
  0
VERTEX
  8
LAYER_1
 10
147.4594
 20
80.4561
  0
VERTEX
  8
LAYER_1
 10
147.417
 20
80.4354
  0
VERTEX
  8
LAYER_1
 10
147.3958
 20
80.414
  0
SEQEND
  0
POLYLINE
  8
LAYER_1
 40
0.1905
 41
0.1905
 66
1
 10
0
 20
0
 30
0
  0
VERTEX
  8
LAYER_1
 10
147.3323
 20
80.3507
  0
VERTEX
  8
LAYER_1
 10
147.2899
 20
80.3079
  0
VERTEX
  8
LAYER_1
 10
147.2687
 20
80.2659
  0
SEQEND
  0
POLYLINE
  8
LAYER_1
 40
0.1905
 41
0.1905
 66
1
 10
0
 20
0
 30
0
  0
VERTEX
  8
LAYER_1
 10
147.2265
 20
80.1812
  0
VERTEX
  8
LAYER_1
 10
147.205
 20
80.1391
  0
VERTEX
  8
LAYER_1
 10
147.205
 20
80.0964
  0
SEQEND
  0
POLYLINE
  8
LAYER_1
 40
0.1905
 41
0.1905
 66
1
 10
0
 20
0
 30
0
  0
VERTEX
  8
LAYER_1
 10
147.1841
 20
80.0117
  0
VERTEX
  8
LAYER_1
 10
147.1629
 20
79.9483
  0
SEQEND
  0
POLYLINE
  8
LAYER_1
 40
0.1905
 41
0.1905
 66
1
 10
0
 20
0
 30
0
  0
VERTEX
  8
LAYER_1
 10
163.2496
 20
82.0229
  0
VERTEX
  8
LAYER_1
 10
162.4028
 20
82.0436
  0
SEQEND
  0
POLYLINE
  8
LAYER_1
 40
0.1905
 41
0.1905
 66
1
 10
0
 20
0
 30
0
  0
VERTEX
  8
LAYER_1
 10
161.1964
 20
82.0863
  0
VERTEX
  8
LAYER_1
 10
159.6516
 20
82.1497
  0
SEQEND
  0
POLYLINE
  8
LAYER_1
 40
0.1905
 41
0.1905
 66
1
 10
0
 20
0
 30
0
  0
VERTEX
  8
LAYER_1
 10
158.4448
 20
82.1917
  0
VERTEX
  8
LAYER_1
 10
156.8996
 20
82.2344
  0
SEQEND
  0
POLYLINE
  8
LAYER_1
 40
0.1905
 41
0.1905
 66
1
 10
0
 20
0
 30
0
  0
VERTEX
  8
LAYER_1
 10
155.7145
 20
82.2765
  0
VERTEX
  8
LAYER_1
 10
154.1691
 20
82.3398
  0
SEQEND
  0
POLYLINE
  8
LAYER_1
 40
0.1905
 41
0.1905
 66
1
 10
0
 20
0
 30
0
  0
VERTEX
  8
LAYER_1
 10
152.9626
 20
82.3826
  0
VERTEX
  8
LAYER_1
 10
151.4175
 20
82.4246
  0
SEQEND
  0
POLYLINE
  8
LAYER_1
 40
0.1905
 41
0.1905
 66
1
 10
0
 20
0
 30
0
  0
VERTEX
  8
LAYER_1
 10
150.211
 20
82.4673
  0
VERTEX
  8
LAYER_1
 10
149.5127
 20
82.5093
  0
SEQEND
  0
POLYLINE
  8
LAYER_1
 40
0.1905
 41
0.1905
 66
1
 10
0
 20
0
 30
0
  0
VERTEX
  8
LAYER_1
 10
154.6562
 20
80.3079
  0
VERTEX
  8
LAYER_1
 10
153.5979
 20
80.3293
  0
SEQEND
  0
POLYLINE
  8
LAYER_1
 40
0.1905
 41
0.1905
 66
1
 10
0
 20
0
 30
0
  0
VERTEX
  8
LAYER_1
 10
152.0948
 20
80.3927
  0
VERTEX
  8
LAYER_1
 10
150.1686
 20
80.4561
  0
SEQEND
  0
POLYLINE
  8
LAYER_1
 40
0.1905
 41
0.1905
 66
1
 10
0
 20
0
 30
0
  0
VERTEX
  8
LAYER_1
 10
148.6659
 20
80.4988
  0
VERTEX
  8
LAYER_1
 10
147.798
 20
80.5408
  0
SEQEND
  0
POLYLINE
  8
LAYER_1
 40
0.1905
 41
0.1905
 66
1
 10
0
 20
0
 30
0
  0
VERTEX
  8
LAYER_1
 10
148.5601
 20
83.3562
  0
VERTEX
  8
LAYER_1
 10
148.5601
 20
83.2928
  0
SEQEND
  0
POLYLINE
  8
LAYER_1
 40
0.1905
 41
0.1905
 66
1
 10
0
 20
0
 30
0
  0
VERTEX
  8
LAYER_1
 10
148.6025
 20
83.166
  0
VERTEX
  8
LAYER_1
 10
148.6235
 20
83.1019
  0
VERTEX
  8
LAYER_1
 10
148.6659
 20
83.0385
  0
SEQEND
  0
POLYLINE
  8
LAYER_1
 40
0.1905
 41
0.1905
 66
1
 10
0
 20
0
 30
0
  0
VERTEX
  8
LAYER_1
 10
148.7293
 20
82.9331
  0
VERTEX
  8
LAYER_1
 10
148.7716
 20
82.869
  0
VERTEX
  8
LAYER_1
 10
148.8354
 20
82.827
  0
SEQEND
  0
POLYLINE
  8
LAYER_1
 40
0.1905
 41
0.1905
 66
1
 10
0
 20
0
 30
0
  0
VERTEX
  8
LAYER_1
 10
148.9198
 20
82.7422
  0
VERTEX
  8
LAYER_1
 10
148.9835
 20
82.6788
  0
VERTEX
  8
LAYER_1
 10
149.0469
 20
82.6575
  0
SEQEND
  0
POLYLINE
  8
LAYER_1
 40
0.1905
 41
0.1905
 66
1
 10
0
 20
0
 30
0
  0
VERTEX
  8
LAYER_1
 10
149.1737
 20
82.5941
  0
VERTEX
  8
LAYER_1
 10
149.2374
 20
82.5521
  0
VERTEX
  8
LAYER_1
 10
149.3218
 20
82.5521
  0
SEQEND
  0
POLYLINE
  8
LAYER_1
 40
0.1905
 41
0.1905
 66
1
 10
0
 20
0
 30
0
  0
VERTEX
  8
LAYER_1
 10
149.4279
 20
82.5307
  0
VERTEX
  8
LAYER_1
 10
149.5127
 20
82.5093
  0
SEQEND
  0
POLYLINE
  8
LAYER_1
 40
0.1905
 41
0.1905
 66
1
 10
0
 20
0
 30
0
  0
VERTEX
  8
LAYER_1
 10
145.9987
 20
99.8237
  0
VERTEX
  8
LAYER_1
 10
146.1048
 20
99.1044
  0
SEQEND
  0
POLYLINE
  8
LAYER_1
 40
0.1905
 41
0.1905
 66
1
 10
0
 20
0
 30
0
  0
VERTEX
  8
LAYER_1
 10
146.2529
 20
98.0667
  0
VERTEX
  8
LAYER_1
 10
146.4646
 20
96.7548
  0
SEQEND
  0
POLYLINE
  8
LAYER_1
 40
0.1905
 41
0.1905
 66
1
 10
0
 20
0
 30
0
  0
VERTEX
  8
LAYER_1
 10
146.6339
 20
95.7178
  0
VERTEX
  8
LAYER_1
 10
146.8241
 20
94.3839
  0
SEQEND
  0
POLYLINE
  8
LAYER_1
 40
0.1905
 41
0.1905
 66
1
 10
0
 20
0
 30
0
  0
VERTEX
  8
LAYER_1
 10
146.9936
 20
93.3683
  0
VERTEX
  8
LAYER_1
 10
147.2053
 20
92.0343
  0
SEQEND
  0
POLYLINE
  8
LAYER_1
 40
0.1905
 41
0.1905
 66
1
 10
0
 20
0
 30
0
  0
VERTEX
  8
LAYER_1
 10
147.3533
 20
91.0187
  0
VERTEX
  8
LAYER_1
 10
147.5653
 20
89.6848
  0
SEQEND
  0
POLYLINE
  8
LAYER_1
 40
0.1905
 41
0.1905
 66
1
 10
0
 20
0
 30
0
  0
VERTEX
  8
LAYER_1
 10
147.7343
 20
88.6692
  0
VERTEX
  8
LAYER_1
 10
147.9252
 20
87.3352
  0
SEQEND
  0
POLYLINE
  8
LAYER_1
 40
0.1905
 41
0.1905
 66
1
 10
0
 20
0
 30
0
  0
VERTEX
  8
LAYER_1
 10
148.0943
 20
86.2983
  0
VERTEX
  8
LAYER_1
 10
148.3064
 20
84.9857
  0
SEQEND
  0
POLYLINE
  8
LAYER_1
 40
0.1905
 41
0.1905
 66
1
 10
0
 20
0
 30
0
  0
VERTEX
  8
LAYER_1
 10
148.4543
 20
83.9487
  0
VERTEX
  8
LAYER_1
 10
148.5598
 20
83.3562
  0
SEQEND
  0
POLYLINE
  8
LAYER_1
 40
0.1905
 41
0.1905
 66
1
 10
0
 20
0
 30
0
  0
VERTEX
  8
LAYER_1
 10
148.1791
 20
77.1757
  0
VERTEX
  8
LAYER_1
 10
148.1791
 20
77.3658
  0
SEQEND
  0
POLYLINE
  8
LAYER_1
 40
0.1905
 41
0.1905
 66
1
 10
0
 20
0
 30
0
  0
VERTEX
  8
LAYER_1
 10
148.1791
 20
77.6201
  0
VERTEX
  8
LAYER_1
 10
148.1791
 20
77.7896
  0
VERTEX
  8
LAYER_1
 10
148.1791
 20
77.8102
  0
SEQEND
  0
POLYLINE
  8
LAYER_1
 40
0.1905
 41
0.1905
 66
1
 10
0
 20
0
 30
0
  0
VERTEX
  8
LAYER_1
 10
148.1581
 20
77.853
  0
VERTEX
  8
LAYER_1
 10
148.1365
 20
77.895
  0
SEQEND
  0
POLYLINE
  8
LAYER_1
 40
0.1905
 41
0.1905
 66
1
 10
0
 20
0
 30
0
  0
VERTEX
  8
LAYER_1
 10
148.0943
 20
77.9377
  0
VERTEX
  8
LAYER_1
 10
148.0731
 20
77.9584
  0
VERTEX
  8
LAYER_1
 10
148.0519
 20
77.9584
  0
SEQEND
  0
POLYLINE
  8
LAYER_1
 40
0.1905
 41
0.1905
 66
1
 10
0
 20
0
 30
0
  0
VERTEX
  8
LAYER_1
 10
148.0099
 20
77.9584
  0
VERTEX
  8
LAYER_1
 10
147.9672
 20
77.9797
  0
SEQEND
  0
POLYLINE
  8
LAYER_1
 40
0.1905
 41
0.1905
 66
1
 10
0
 20
0
 30
0
  0
VERTEX
  8
LAYER_1
 10
157.2593
 20
77.5773
  0
VERTEX
  8
LAYER_1
 10
157.2593
 20
77.8316
  0
SEQEND
  0
POLYLINE
  8
LAYER_1
 40
0.1905
 41
0.1905
 66
1
 10
0
 20
0
 30
0
  0
VERTEX
  8
LAYER_1
 10
157.2593
 20
78.1913
  0
VERTEX
  8
LAYER_1
 10
157.2593
 20
78.4035
  0
SEQEND
  0
POLYLINE
  8
LAYER_1
 40
0.1905
 41
0.1905
 66
1
 10
0
 20
0
 30
0
  0
VERTEX
  8
LAYER_1
 10
155.2274
 20
79.61
  0
VERTEX
  8
LAYER_1
 10
155.2274
 20
79.694
  0
VERTEX
  8
LAYER_1
 10
155.2274
 20
79.7367
  0
SEQEND
  0
POLYLINE
  8
LAYER_1
 40
0.1905
 41
0.1905
 66
1
 10
0
 20
0
 30
0
  0
VERTEX
  8
LAYER_1
 10
155.2274
 20
79.8215
  0
VERTEX
  8
LAYER_1
 10
155.206
 20
79.8849
  0
VERTEX
  8
LAYER_1
 10
155.206
 20
79.9269
  0
SEQEND
  0
POLYLINE
  8
LAYER_1
 40
0.1905
 41
0.1905
 66
1
 10
0
 20
0
 30
0
  0
VERTEX
  8
LAYER_1
 10
155.164
 20
80.0117
  0
VERTEX
  8
LAYER_1
 10
155.1426
 20
80.0544
  0
VERTEX
  8
LAYER_1
 10
155.1216
 20
80.075
  0
SEQEND
  0
POLYLINE
  8
LAYER_1
 40
0.1905
 41
0.1905
 66
1
 10
0
 20
0
 30
0
  0
VERTEX
  8
LAYER_1
 10
155.0582
 20
80.1391
  0
VERTEX
  8
LAYER_1
 10
155.0159
 20
80.1812
  0
VERTEX
  8
LAYER_1
 10
154.9735
 20
80.2025
  0
SEQEND
  0
POLYLINE
  8
LAYER_1
 40
0.1905
 41
0.1905
 66
1
 10
0
 20
0
 30
0
  0
VERTEX
  8
LAYER_1
 10
154.8891
 20
80.2445
  0
VERTEX
  8
LAYER_1
 10
154.8464
 20
80.2659
  0
VERTEX
  8
LAYER_1
 10
154.8043
 20
80.2659
  0
SEQEND
  0
POLYLINE
  8
LAYER_1
 40
0.1905
 41
0.1905
 66
1
 10
0
 20
0
 30
0
  0
VERTEX
  8
LAYER_1
 10
154.7196
 20
80.2873
  0
VERTEX
  8
LAYER_1
 10
154.6562
 20
80.3079
  0
SEQEND
  0
POLYLINE
  8
LAYER_1
 40
0.1905
 41
0.1905
 66
1
 10
0
 20
0
 30
0
  0
VERTEX
  8
LAYER_1
 10
156.6457
 20
76.9848
  0
VERTEX
  8
LAYER_1
 10
156.6881
 20
76.9848
  0
SEQEND
  0
POLYLINE
  8
LAYER_1
 40
0.1905
 41
0.1905
 66
1
 10
0
 20
0
 30
0
  0
VERTEX
  8
LAYER_1
 10
156.7729
 20
76.9848
  0
VERTEX
  8
LAYER_1
 10
156.8362
 20
77.0062
  0
VERTEX
  8
LAYER_1
 10
156.8783
 20
77.0275
  0
SEQEND
  0
POLYLINE
  8
LAYER_1
 40
0.1905
 41
0.1905
 66
1
 10
0
 20
0
 30
0
  0
VERTEX
  8
LAYER_1
 10
156.963
 20
77.0695
  0
VERTEX
  8
LAYER_1
 10
157.0057
 20
77.0909
  0
VERTEX
  8
LAYER_1
 10
157.0264
 20
77.1123
  0
SEQEND
  0
POLYLINE
  8
LAYER_1
 40
0.1905
 41
0.1905
 66
1
 10
0
 20
0
 30
0
  0
VERTEX
  8
LAYER_1
 10
157.0902
 20
77.1757
  0
VERTEX
  8
LAYER_1
 10
157.1325
 20
77.2177
  0
VERTEX
  8
LAYER_1
 10
157.1539
 20
77.2604
  0
SEQEND
  0
POLYLINE
  8
LAYER_1
 40
0.1905
 41
0.1905
 66
1
 10
0
 20
0
 30
0
  0
VERTEX
  8
LAYER_1
 10
157.1959
 20
77.3451
  0
VERTEX
  8
LAYER_1
 10
157.2383
 20
77.3872
  0
VERTEX
  8
LAYER_1
 10
157.2383
 20
77.4292
  0
SEQEND
  0
POLYLINE
  8
LAYER_1
 40
0.1905
 41
0.1905
 66
1
 10
0
 20
0
 30
0
  0
VERTEX
  8
LAYER_1
 10
157.2383
 20
77.514
  0
VERTEX
  8
LAYER_1
 10
157.2593
 20
77.5773
  0
SEQEND
  0
POLYLINE
  8
LAYER_1
 40
0.1905
 41
0.1905
 66
1
 10
0
 20
0
 30
0
  0
VERTEX
  8
LAYER_1
 10
147.9672
 20
77.9797
  0
VERTEX
  8
LAYER_1
 10
147.2899
 20
77.9797
  0
SEQEND
  0
POLYLINE
  8
LAYER_1
 40
0.1905
 41
0.1905
 66
1
 10
0
 20
0
 30
0
  0
VERTEX
  8
LAYER_1
 10
146.3163
 20
77.9797
  0
VERTEX
  8
LAYER_1
 10
145.7448
 20
77.9797
  0
SEQEND
  0
POLYLINE
  8
LAYER_1
 40
0.1905
 41
0.1905
 66
1
 10
0
 20
0
 30
0
  0
VERTEX
  8
LAYER_1
 10
145.1312
 20
78.5937
  0
VERTEX
  8
LAYER_1
 10
145.1312
 20
78.5516
  0
SEQEND
  0
POLYLINE
  8
LAYER_1
 40
0.1905
 41
0.1905
 66
1
 10
0
 20
0
 30
0
  0
VERTEX
  8
LAYER_1
 10
145.1522
 20
78.4669
  0
VERTEX
  8
LAYER_1
 10
145.1734
 20
78.4035
  0
VERTEX
  8
LAYER_1
 10
145.1946
 20
78.3608
  0
SEQEND
  0
POLYLINE
  8
LAYER_1
 40
0.1905
 41
0.1905
 66
1
 10
0
 20
0
 30
0
  0
VERTEX
  8
LAYER_1
 10
145.2366
 20
78.2974
  0
VERTEX
  8
LAYER_1
 10
145.2581
 20
78.2553
  0
VERTEX
  8
LAYER_1
 10
145.2793
 20
78.2126
  0
SEQEND
  0
POLYLINE
  8
LAYER_1
 40
0.1905
 41
0.1905
 66
1
 10
0
 20
0
 30
0
  0
VERTEX
  8
LAYER_1
 10
145.3427
 20
78.1279
  0
VERTEX
  8
LAYER_1
 10
145.3848
 20
78.0858
  0
VERTEX
  8
LAYER_1
 10
145.4273
 20
78.0858
  0
SEQEND
  0
POLYLINE
  8
LAYER_1
 40
0.1905
 41
0.1905
 66
1
 10
0
 20
0
 30
0
  0
VERTEX
  8
LAYER_1
 10
145.5122
 20
78.0431
  0
VERTEX
  8
LAYER_1
 10
145.5543
 20
78.0225
  0
VERTEX
  8
LAYER_1
 10
145.5965
 20
78.0225
  0
SEQEND
  0
POLYLINE
  8
LAYER_1
 40
0.1905
 41
0.1905
 66
1
 10
0
 20
0
 30
0
  0
VERTEX
  8
LAYER_1
 10
145.6814
 20
78.0011
  0
VERTEX
  8
LAYER_1
 10
145.7449
 20
77.9797
  0
SEQEND
  0
POLYLINE
  8
LAYER_1
 40
0.1905
 41
0.1905
 66
1
 10
0
 20
0
 30
0
  0
VERTEX
  8
LAYER_1
 10
156.6457
 20
76.9848
  0
VERTEX
  8
LAYER_1
 10
155.7989
 20
76.9848
  0
SEQEND
  0
POLYLINE
  8
LAYER_1
 40
0.1905
 41
0.1905
 66
1
 10
0
 20
0
 30
0
  0
VERTEX
  8
LAYER_1
 10
154.5925
 20
76.9848
  0
VERTEX
  8
LAYER_1
 10
153.026
 20
76.9848
  0
SEQEND
  0
POLYLINE
  8
LAYER_1
 40
0.1905
 41
0.1905
 66
1
 10
0
 20
0
 30
0
  0
VERTEX
  8
LAYER_1
 10
151.8195
 20
76.9848
  0
VERTEX
  8
LAYER_1
 10
150.2747
 20
76.9848
  0
SEQEND
  0
POLYLINE
  8
LAYER_1
 40
0.1905
 41
0.1905
 66
1
 10
0
 20
0
 30
0
  0
VERTEX
  8
LAYER_1
 10
149.0679
 20
76.9848
  0
VERTEX
  8
LAYER_1
 10
148.3698
 20
76.9848
  0
SEQEND
  0
POLYLINE
  8
LAYER_1
 40
0.1905
 41
0.1905
 66
1
 10
0
 20
0
 30
0
  0
VERTEX
  8
LAYER_1
 10
154.6348
 20
78.996
  0
VERTEX
  8
LAYER_1
 10
153.5765
 20
78.996
  0
SEQEND
  0
POLYLINE
  8
LAYER_1
 40
0.1905
 41
0.1905
 66
1
 10
0
 20
0
 30
0
  0
VERTEX
  8
LAYER_1
 10
152.0737
 20
78.996
  0
VERTEX
  8
LAYER_1
 10
150.1259
 20
78.996
  0
SEQEND
  0
POLYLINE
  8
LAYER_1
 40
0.1905
 41
0.1905
 66
1
 10
0
 20
0
 30
0
  0
VERTEX
  8
LAYER_1
 10
148.6235
 20
78.996
  0
VERTEX
  8
LAYER_1
 10
147.7557
 20
78.996
  0
SEQEND
  0
POLYLINE
  8
LAYER_1
 40
0.1905
 41
0.1905
 66
1
 10
0
 20
0
 30
0
  0
VERTEX
  8
LAYER_1
 10
154.6348
 20
78.996
  0
VERTEX
  8
LAYER_1
 10
154.6772
 20
78.996
  0
SEQEND
  0
POLYLINE
  8
LAYER_1
 40
0.1905
 41
0.1905
 66
1
 10
0
 20
0
 30
0
  0
VERTEX
  8
LAYER_1
 10
154.7616
 20
78.996
  0
VERTEX
  8
LAYER_1
 10
154.8253
 20
79.0167
  0
VERTEX
  8
LAYER_1
 10
154.8677
 20
79.0381
  0
SEQEND
  0
POLYLINE
  8
LAYER_1
 40
0.1905
 41
0.1905
 66
1
 10
0
 20
0
 30
0
  0
VERTEX
  8
LAYER_1
 10
154.9525
 20
79.0808
  0
VERTEX
  8
LAYER_1
 10
154.9945
 20
79.1228
  0
SEQEND
  0
POLYLINE
  8
LAYER_1
 40
0.1905
 41
0.1905
 66
1
 10
0
 20
0
 30
0
  0
VERTEX
  8
LAYER_1
 10
154.9945
 20
79.1228
  0
VERTEX
  8
LAYER_1
 10
155.0159
 20
79.1442
  0
SEQEND
  0
POLYLINE
  8
LAYER_1
 40
0.1905
 41
0.1905
 66
1
 10
0
 20
0
 30
0
  0
VERTEX
  8
LAYER_1
 10
155.0793
 20
79.2076
  0
VERTEX
  8
LAYER_1
 10
155.1216
 20
79.2496
  0
VERTEX
  8
LAYER_1
 10
155.1426
 20
79.2923
  0
SEQEND
  0
POLYLINE
  8
LAYER_1
 40
0.1905
 41
0.1905
 66
1
 10
0
 20
0
 30
0
  0
VERTEX
  8
LAYER_1
 10
155.1854
 20
79.3771
  0
VERTEX
  8
LAYER_1
 10
155.2064
 20
79.4191
  0
VERTEX
  8
LAYER_1
 10
155.2064
 20
79.4618
  0
SEQEND
  0
POLYLINE
  8
LAYER_1
 40
0.1905
 41
0.1905
 66
1
 10
0
 20
0
 30
0
  0
VERTEX
  8
LAYER_1
 10
155.2064
 20
79.5459
  0
VERTEX
  8
LAYER_1
 10
155.2274
 20
79.61
  0
SEQEND
  0
POLYLINE
  8
LAYER_1
 40
0.1905
 41
0.1905
 66
1
 10
0
 20
0
 30
0
  0
VERTEX
  8
LAYER_1
 10
147.1631
 20
79.61
  0
VERTEX
  8
LAYER_1
 10
147.1631
 20
79.5672
  0
SEQEND
  0
POLYLINE
  8
LAYER_1
 40
0.1905
 41
0.1905
 66
1
 10
0
 20
0
 30
0
  0
VERTEX
  8
LAYER_1
 10
147.1841
 20
79.4825
  0
VERTEX
  8
LAYER_1
 10
147.2053
 20
79.4191
  0
VERTEX
  8
LAYER_1
 10
147.2053
 20
79.3771
  0
SEQEND
  0
POLYLINE
  8
LAYER_1
 40
0.1905
 41
0.1905
 66
1
 10
0
 20
0
 30
0
  0
VERTEX
  8
LAYER_1
 10
147.2479
 20
79.2923
  0
VERTEX
  8
LAYER_1
 10
147.269
 20
79.2496
  0
VERTEX
  8
LAYER_1
 10
147.3114
 20
79.2289
  0
SEQEND
  0
POLYLINE
  8
LAYER_1
 40
0.1905
 41
0.1905
 66
1
 10
0
 20
0
 30
0
  0
VERTEX
  8
LAYER_1
 10
147.3746
 20
79.1648
  0
VERTEX
  8
LAYER_1
 10
147.417
 20
79.1228
  0
VERTEX
  8
LAYER_1
 10
147.4594
 20
79.1015
  0
SEQEND
  0
POLYLINE
  8
LAYER_1
 40
0.1905
 41
0.1905
 66
1
 10
0
 20
0
 30
0
  0
VERTEX
  8
LAYER_1
 10
147.5228
 20
79.0594
  0
VERTEX
  8
LAYER_1
 10
147.5652
 20
79.0167
  0
VERTEX
  8
LAYER_1
 10
147.6075
 20
79.0167
  0
SEQEND
  0
POLYLINE
  8
LAYER_1
 40
0.1905
 41
0.1905
 66
1
 10
0
 20
0
 30
0
  0
VERTEX
  8
LAYER_1
 10
147.6923
 20
79.0167
  0
VERTEX
  8
LAYER_1
 10
147.7558
 20
78.996
  0
SEQEND
  0
POLYLINE
  8
LAYER_1
 40
0.1905
 41
0.1905
 66
1
 10
0
 20
0
 30
0
  0
VERTEX
  8
LAYER_1
 10
148.1791
 20
77.1757
  0
VERTEX
  8
LAYER_1
 10
148.1791
 20
77.1543
  0
SEQEND
  0
POLYLINE
  8
LAYER_1
 40
0.1905
 41
0.1905
 66
1
 10
0
 20
0
 30
0
  0
VERTEX
  8
LAYER_1
 10
148.1791
 20
77.1123
  0
VERTEX
  8
LAYER_1
 10
148.2003
 20
77.0695
  0
SEQEND
  0
POLYLINE
  8
LAYER_1
 40
0.1905
 41
0.1905
 66
1
 10
0
 20
0
 30
0
  0
VERTEX
  8
LAYER_1
 10
148.2425
 20
77.0275
  0
VERTEX
  8
LAYER_1
 10
148.2636
 20
77.0062
  0
VERTEX
  8
LAYER_1
 10
148.2848
 20
77.0062
  0
SEQEND
  0
POLYLINE
  8
LAYER_1
 40
0.1905
 41
0.1905
 66
1
 10
0
 20
0
 30
0
  0
VERTEX
  8
LAYER_1
 10
148.3272
 20
77.0062
  0
VERTEX
  8
LAYER_1
 10
148.3696
 20
76.9844
  0
SEQEND
  0
POLYLINE
  8
LAYER_1
 40
0.1905
 41
0.1905
 66
1
 10
0
 20
0
 30
0
  0
VERTEX
  8
LAYER_1
 10
145.9987
 20
99.8237
  0
VERTEX
  8
LAYER_1
 10
145.9987
 20
99.8664
  0
SEQEND
  0
POLYLINE
  8
LAYER_1
 40
0.1905
 41
0.1905
 66
1
 10
0
 20
0
 30
0
  0
VERTEX
  8
LAYER_1
 10
145.9777
 20
99.9505
  0
VERTEX
  8
LAYER_1
 10
145.9565
 20
99.9932
  0
VERTEX
  8
LAYER_1
 10
145.9353
 20
100.0146
  0
SEQEND
  0
POLYLINE
  8
LAYER_1
 40
0.1905
 41
0.1905
 66
1
 10
0
 20
0
 30
0
  0
VERTEX
  8
LAYER_1
 10
145.8719
 20
100.078
  0
VERTEX
  8
LAYER_1
 10
145.8295
 20
100.12
  0
VERTEX
  8
LAYER_1
 10
145.7871
 20
100.12
  0
SEQEND
  0
POLYLINE
  8
LAYER_1
 40
0.1905
 41
0.1905
 66
1
 10
0
 20
0
 30
0
  0
VERTEX
  8
LAYER_1
 10
145.7237
 20
100.1627
  0
VERTEX
  8
LAYER_1
 10
145.6814
 20
100.1834
  0
VERTEX
  8
LAYER_1
 10
145.639
 20
100.1834
  0
SEQEND
  0
POLYLINE
  8
LAYER_1
 40
0.1905
 41
0.1905
 66
1
 10
0
 20
0
 30
0
  0
VERTEX
  8
LAYER_1
 10
145.5543
 20
100.1834
  0
VERTEX
  8
LAYER_1
 10
145.5122
 20
100.1834
  0
VERTEX
  8
LAYER_1
 10
145.4695
 20
100.1834
  0
SEQEND
  0
POLYLINE
  8
LAYER_1
 40
0.1905
 41
0.1905
 66
1
 10
0
 20
0
 30
0
  0
VERTEX
  8
LAYER_1
 10
145.3848
 20
100.1627
  0
VERTEX
  8
LAYER_1
 10
145.3427
 20
100.1413
  0
VERTEX
  8
LAYER_1
 10
145.3212
 20
100.12
  0
SEQEND
  0
POLYLINE
  8
LAYER_1
 40
0.1905
 41
0.1905
 66
1
 10
0
 20
0
 30
0
  0
VERTEX
  8
LAYER_1
 10
145.2793
 20
100.0566
  0
VERTEX
  8
LAYER_1
 10
145.2366
 20
100.0146
  0
VERTEX
  8
LAYER_1
 10
145.2154
 20
99.9718
  0
SEQEND
  0
POLYLINE
  8
LAYER_1
 40
0.1905
 41
0.1905
 66
1
 10
0
 20
0
 30
0
  0
VERTEX
  8
LAYER_1
 10
145.1732
 20
99.9085
  0
VERTEX
  8
LAYER_1
 10
145.152
 20
99.8664
  0
VERTEX
  8
LAYER_1
 10
145.152
 20
99.8237
  0
SEQEND
  0
POLYLINE
  8
LAYER_1
 40
0.1905
 41
0.1905
 66
1
 10
0
 20
0
 30
0
  0
VERTEX
  8
LAYER_1
 10
145.1522
 20
99.739
  0
VERTEX
  8
LAYER_1
 10
145.131
 20
99.6969
  0
SEQEND
  0
POLYLINE
  8
LAYER_1
 40
0.1905
 41
0.1905
 66
1
 10
0
 20
0
 30
0
  0
VERTEX
  8
LAYER_1
 10
177.9605
 20
78.1913
  0
VERTEX
  8
LAYER_1
 10
177.9605
 20
78.3604
  0
SEQEND
  0
POLYLINE
  8
LAYER_1
 40
0.1905
 41
0.1905
 66
1
 10
0
 20
0
 30
0
  0
VERTEX
  8
LAYER_1
 10
177.9605
 20
78.6357
  0
VERTEX
  8
LAYER_1
 10
177.9605
 20
78.7838
  0
SEQEND
  0
POLYLINE
  8
LAYER_1
 40
0.1905
 41
0.1905
 66
1
 10
0
 20
0
 30
0
  0
VERTEX
  8
LAYER_1
 10
177.7487
 20
77.9797
  0
VERTEX
  8
LAYER_1
 10
177.77
 20
77.9797
  0
SEQEND
  0
POLYLINE
  8
LAYER_1
 40
0.1905
 41
0.1905
 66
1
 10
0
 20
0
 30
0
  0
VERTEX
  8
LAYER_1
 10
177.8124
 20
78.0011
  0
VERTEX
  8
LAYER_1
 10
177.8334
 20
78.0225
  0
VERTEX
  8
LAYER_1
 10
177.8548
 20
78.0225
  0
SEQEND
  0
POLYLINE
  8
LAYER_1
 40
0.1905
 41
0.1905
 66
1
 10
0
 20
0
 30
0
  0
VERTEX
  8
LAYER_1
 10
177.8968
 20
78.0645
  0
VERTEX
  8
LAYER_1
 10
177.9182
 20
78.0858
  0
VERTEX
  8
LAYER_1
 10
177.9182
 20
78.1065
  0
SEQEND
  0
POLYLINE
  8
LAYER_1
 40
0.1905
 41
0.1905
 66
1
 10
0
 20
0
 30
0
  0
VERTEX
  8
LAYER_1
 10
177.9392
 20
78.1492
  0
VERTEX
  8
LAYER_1
 10
177.9605
 20
78.1913
  0
SEQEND
  0
POLYLINE
  8
LAYER_1
 40
0.1905
 41
0.1905
 66
1
 10
0
 20
0
 30
0
  0
VERTEX
  8
LAYER_1
 10
182.8498
 20
78.996
  0
VERTEX
  8
LAYER_1
 10
181.3894
 20
78.996
  0
SEQEND
  0
POLYLINE
  8
LAYER_1
 40
0.1905
 41
0.1905
 66
1
 10
0
 20
0
 30
0
  0
VERTEX
  8
LAYER_1
 10
179.3152
 20
78.996
  0
VERTEX
  8
LAYER_1
 10
178.1297
 20
78.996
  0
SEQEND
  0
POLYLINE
  8
LAYER_1
 40
0.1905
 41
0.1905
 66
1
 10
0
 20
0
 30
0
  0
VERTEX
  8
LAYER_1
 10
183.4637
 20
78.4035
  0
VERTEX
  8
LAYER_1
 10
183.4637
 20
78.4455
  0
SEQEND
  0
POLYLINE
  8
LAYER_1
 40
0.1905
 41
0.1905
 66
1
 10
0
 20
0
 30
0
  0
VERTEX
  8
LAYER_1
 10
183.4427
 20
78.5303
  0
VERTEX
  8
LAYER_1
 10
183.421
 20
78.5937
  0
VERTEX
  8
LAYER_1
 10
183.4003
 20
78.6357
  0
SEQEND
  0
POLYLINE
  8
LAYER_1
 40
0.1905
 41
0.1905
 66
1
 10
0
 20
0
 30
0
  0
VERTEX
  8
LAYER_1
 10
183.358
 20
78.7204
  0
VERTEX
  8
LAYER_1
 10
183.337
 20
78.7632
  0
VERTEX
  8
LAYER_1
 10
183.3156
 20
78.7838
  0
SEQEND
  0
POLYLINE
  8
LAYER_1
 40
0.1905
 41
0.1905
 66
1
 10
0
 20
0
 30
0
  0
VERTEX
  8
LAYER_1
 10
183.2522
 20
78.8479
  0
VERTEX
  8
LAYER_1
 10
183.2098
 20
78.8899
  0
VERTEX
  8
LAYER_1
 10
183.1675
 20
78.8899
  0
SEQEND
  0
POLYLINE
  8
LAYER_1
 40
0.1905
 41
0.1905
 66
1
 10
0
 20
0
 30
0
  0
VERTEX
  8
LAYER_1
 10
183.0827
 20
78.9326
  0
VERTEX
  8
LAYER_1
 10
183.0403
 20
78.9533
  0
VERTEX
  8
LAYER_1
 10
182.9983
 20
78.9533
  0
SEQEND
  0
POLYLINE
  8
LAYER_1
 40
0.1905
 41
0.1905
 66
1
 10
0
 20
0
 30
0
  0
VERTEX
  8
LAYER_1
 10
182.9136
 20
78.9747
  0
VERTEX
  8
LAYER_1
 10
182.8502
 20
78.996
  0
SEQEND
  0
POLYLINE
  8
LAYER_1
 40
0.1905
 41
0.1905
 66
1
 10
0
 20
0
 30
0
  0
VERTEX
  8
LAYER_1
 10
178.1297
 20
78.996
  0
VERTEX
  8
LAYER_1
 10
178.1087
 20
78.996
  0
SEQEND
  0
POLYLINE
  8
LAYER_1
 40
0.1905
 41
0.1905
 66
1
 10
0
 20
0
 30
0
  0
VERTEX
  8
LAYER_1
 10
178.0663
 20
78.9747
  0
VERTEX
  8
LAYER_1
 10
178.0453
 20
78.9533
  0
VERTEX
  8
LAYER_1
 10
178.0239
 20
78.9533
  0
SEQEND
  0
POLYLINE
  8
LAYER_1
 40
0.1905
 41
0.1905
 66
1
 10
0
 20
0
 30
0
  0
VERTEX
  8
LAYER_1
 10
177.9816
 20
78.9326
  0
VERTEX
  8
LAYER_1
 10
177.9602
 20
78.9113
  0
VERTEX
  8
LAYER_1
 10
177.9602
 20
78.8899
  0
SEQEND
  0
POLYLINE
  8
LAYER_1
 40
0.1905
 41
0.1905
 66
1
 10
0
 20
0
 30
0
  0
VERTEX
  8
LAYER_1
 10
177.9605
 20
78.8265
  0
VERTEX
  8
LAYER_1
 10
177.9605
 20
78.7838
  0
SEQEND
  0
POLYLINE
  8
LAYER_1
 40
0.1905
 41
0.1905
 66
1
 10
0
 20
0
 30
0
  0
VERTEX
  8
LAYER_1
 10
195.6136
 20
78.5937
  0
VERTEX
  8
LAYER_1
 10
195.6136
 20
79.4191
  0
SEQEND
  0
POLYLINE
  8
LAYER_1
 40
0.1905
 41
0.1905
 66
1
 10
0
 20
0
 30
0
  0
VERTEX
  8
LAYER_1
 10
195.6136
 20
80.5622
  0
VERTEX
  8
LAYER_1
 10
195.6136
 20
82.0649
  0
SEQEND
  0
POLYLINE
  8
LAYER_1
 40
0.1905
 41
0.1905
 66
1
 10
0
 20
0
 30
0
  0
VERTEX
  8
LAYER_1
 10
195.6136
 20
83.2294
  0
VERTEX
  8
LAYER_1
 10
195.6136
 20
84.7108
  0
SEQEND
  0
POLYLINE
  8
LAYER_1
 40
0.1905
 41
0.1905
 66
1
 10
0
 20
0
 30
0
  0
VERTEX
  8
LAYER_1
 10
195.6136
 20
85.8752
  0
VERTEX
  8
LAYER_1
 10
195.6136
 20
87.3566
  0
SEQEND
  0
POLYLINE
  8
LAYER_1
 40
0.1905
 41
0.1905
 66
1
 10
0
 20
0
 30
0
  0
VERTEX
  8
LAYER_1
 10
195.6136
 20
88.521
  0
VERTEX
  8
LAYER_1
 10
195.6136
 20
90.0238
  0
SEQEND
  0
POLYLINE
  8
LAYER_1
 40
0.1905
 41
0.1905
 66
1
 10
0
 20
0
 30
0
  0
VERTEX
  8
LAYER_1
 10
195.6136
 20
91.1669
  0
VERTEX
  8
LAYER_1
 10
195.6136
 20
92.6696
  0
SEQEND
  0
POLYLINE
  8
LAYER_1
 40
0.1905
 41
0.1905
 66
1
 10
0
 20
0
 30
0
  0
VERTEX
  8
LAYER_1
 10
195.6136
 20
93.8334
  0
VERTEX
  8
LAYER_1
 10
195.6136
 20
95.3155
  0
SEQEND
  0
POLYLINE
  8
LAYER_1
 40
0.1905
 41
0.1905
 66
1
 10
0
 20
0
 30
0
  0
VERTEX
  8
LAYER_1
 10
195.6136
 20
96.4792
  0
VERTEX
  8
LAYER_1
 10
195.6136
 20
97.9613
  0
SEQEND
  0
POLYLINE
  8
LAYER_1
 40
0.1905
 41
0.1905
 66
1
 10
0
 20
0
 30
0
  0
VERTEX
  8
LAYER_1
 10
195.6136
 20
99.125
  0
VERTEX
  8
LAYER_1
 10
195.6136
 20
99.8023
  0
SEQEND
  0
POLYLINE
  8
LAYER_1
 40
0.1905
 41
0.1905
 66
1
 10
0
 20
0
 30
0
  0
VERTEX
  8
LAYER_1
 10
177.5161
 20
82.0229
  0
VERTEX
  8
LAYER_1
 10
178.3626
 20
82.0436
  0
SEQEND
  0
POLYLINE
  8
LAYER_1
 40
0.1905
 41
0.1905
 66
1
 10
0
 20
0
 30
0
  0
VERTEX
  8
LAYER_1
 10
179.5691
 20
82.0863
  0
VERTEX
  8
LAYER_1
 10
181.1142
 20
82.1497
  0
SEQEND
  0
POLYLINE
  8
LAYER_1
 40
0.1905
 41
0.1905
 66
1
 10
0
 20
0
 30
0
  0
VERTEX
  8
LAYER_1
 10
182.321
 20
82.1917
  0
VERTEX
  8
LAYER_1
 10
183.8661
 20
82.2344
  0
SEQEND
  0
POLYLINE
  8
LAYER_1
 40
0.1905
 41
0.1905
 66
1
 10
0
 20
0
 30
0
  0
VERTEX
  8
LAYER_1
 10
185.0512
 20
82.2765
  0
VERTEX
  8
LAYER_1
 10
186.5964
 20
82.3398
  0
SEQEND
  0
POLYLINE
  8
LAYER_1
 40
0.1905
 41
0.1905
 66
1
 10
0
 20
0
 30
0
  0
VERTEX
  8
LAYER_1
 10
187.8028
 20
82.3826
  0
VERTEX
  8
LAYER_1
 10
189.3483
 20
82.4246
  0
SEQEND
  0
POLYLINE
  8
LAYER_1
 40
0.1905
 41
0.1905
 66
1
 10
0
 20
0
 30
0
  0
VERTEX
  8
LAYER_1
 10
190.5548
 20
82.4673
  0
VERTEX
  8
LAYER_1
 10
191.2528
 20
82.5093
  0
VERTEX
  8
LAYER_1
 10
191.2955
 20
82.5093
  0
VERTEX
  8
LAYER_1
 10
191.3378
 20
82.5093
  0
VERTEX
  8
LAYER_1
 10
191.3802
 20
82.5093
  0
VERTEX
  8
LAYER_1
 10
191.4226
 20
82.5307
  0
VERTEX
  8
LAYER_1
 10
191.465
 20
82.5307
  0
SEQEND
  0
POLYLINE
  8
LAYER_1
 40
0.1905
 41
0.1905
 66
1
 10
0
 20
0
 30
0
  0
VERTEX
  8
LAYER_1
 10
191.7612
 20
82.6575
  0
VERTEX
  8
LAYER_1
 10
191.7823
 20
82.6788
  0
VERTEX
  8
LAYER_1
 10
191.8246
 20
82.7209
  0
VERTEX
  8
LAYER_1
 10
191.867
 20
82.7636
  0
VERTEX
  8
LAYER_1
 10
191.9094
 20
82.8056
  0
VERTEX
  8
LAYER_1
 10
191.9518
 20
82.8483
  0
VERTEX
  8
LAYER_1
 10
191.9941
 20
82.8904
  0
SEQEND
  0
POLYLINE
  8
LAYER_1
 40
0.1905
 41
0.1905
 66
1
 10
0
 20
0
 30
0
  0
VERTEX
  8
LAYER_1
 10
192.1847
 20
83.2294
  0
VERTEX
  8
LAYER_1
 10
192.1847
 20
83.2714
  0
VERTEX
  8
LAYER_1
 10
192.2057
 20
83.3348
  0
VERTEX
  8
LAYER_1
 10
192.2057
 20
83.3562
  0
VERTEX
  8
LAYER_1
 10
192.3114
 20
84.0755
  0
SEQEND
  0
POLYLINE
  8
LAYER_1
 40
0.1905
 41
0.1905
 66
1
 10
0
 20
0
 30
0
  0
VERTEX
  8
LAYER_1
 10
192.4596
 20
85.1132
  0
VERTEX
  8
LAYER_1
 10
192.6714
 20
86.425
  0
SEQEND
  0
POLYLINE
  8
LAYER_1
 40
0.1905
 41
0.1905
 66
1
 10
0
 20
0
 30
0
  0
VERTEX
  8
LAYER_1
 10
192.8406
 20
87.4627
  0
VERTEX
  8
LAYER_1
 10
193.0311
 20
88.796
  0
SEQEND
  0
POLYLINE
  8
LAYER_1
 40
0.1905
 41
0.1905
 66
1
 10
0
 20
0
 30
0
  0
VERTEX
  8
LAYER_1
 10
193.2006
 20
89.8123
  0
VERTEX
  8
LAYER_1
 10
193.3911
 20
91.1455
  0
SEQEND
  0
POLYLINE
  8
LAYER_1
 40
0.1905
 41
0.1905
 66
1
 10
0
 20
0
 30
0
  0
VERTEX
  8
LAYER_1
 10
193.5603
 20
92.1618
  0
VERTEX
  8
LAYER_1
 10
193.7508
 20
93.4951
  0
SEQEND
  0
POLYLINE
  8
LAYER_1
 40
0.1905
 41
0.1905
 66
1
 10
0
 20
0
 30
0
  0
VERTEX
  8
LAYER_1
 10
193.9203
 20
94.5107
  0
VERTEX
  8
LAYER_1
 10
194.1318
 20
95.8446
  0
SEQEND
  0
POLYLINE
  8
LAYER_1
 40
0.1905
 41
0.1905
 66
1
 10
0
 20
0
 30
0
  0
VERTEX
  8
LAYER_1
 10
194.28
 20
96.8816
  0
VERTEX
  8
LAYER_1
 10
194.4915
 20
98.1942
  0
SEQEND
  0
POLYLINE
  8
LAYER_1
 40
0.1905
 41
0.1905
 66
1
 10
0
 20
0
 30
0
  0
VERTEX
  8
LAYER_1
 10
194.64
 20
99.2312
  0
VERTEX
  8
LAYER_1
 10
194.7457
 20
99.8237
  0
SEQEND
  0
POLYLINE
  8
LAYER_1
 40
0.1905
 41
0.1905
 66
1
 10
0
 20
0
 30
0
  0
VERTEX
  8
LAYER_1
 10
192.5867
 20
77.1757
  0
VERTEX
  8
LAYER_1
 10
192.5867
 20
77.3448
  0
SEQEND
  0
POLYLINE
  8
LAYER_1
 40
0.1905
 41
0.1905
 66
1
 10
0
 20
0
 30
0
  0
VERTEX
  8
LAYER_1
 10
192.5867
 20
77.6201
  0
VERTEX
  8
LAYER_1
 10
192.5867
 20
77.7682
  0
SEQEND
  0
POLYLINE
  8
LAYER_1
 40
0.1905
 41
0.1905
 66
1
 10
0
 20
0
 30
0
  0
VERTEX
  8
LAYER_1
 10
192.7772
 20
77.9797
  0
VERTEX
  8
LAYER_1
 10
192.7558
 20
77.9797
  0
SEQEND
  0
POLYLINE
  8
LAYER_1
 40
0.1905
 41
0.1905
 66
1
 10
0
 20
0
 30
0
  0
VERTEX
  8
LAYER_1
 10
192.7135
 20
77.9797
  0
VERTEX
  8
LAYER_1
 10
192.6925
 20
77.9584
  0
VERTEX
  8
LAYER_1
 10
192.6714
 20
77.9584
  0
SEQEND
  0
POLYLINE
  8
LAYER_1
 40
0.1905
 41
0.1905
 66
1
 10
0
 20
0
 30
0
  0
VERTEX
  8
LAYER_1
 10
192.6291
 20
77.9163
  0
VERTEX
  8
LAYER_1
 10
192.6077
 20
77.895
  0
VERTEX
  8
LAYER_1
 10
192.6077
 20
77.8743
  0
SEQEND
  0
POLYLINE
  8
LAYER_1
 40
0.1905
 41
0.1905
 66
1
 10
0
 20
0
 30
0
  0
VERTEX
  8
LAYER_1
 10
192.6077
 20
77.8102
  0
VERTEX
  8
LAYER_1
 10
192.5863
 20
77.7682
  0
SEQEND
  0
POLYLINE
  8
LAYER_1
 40
0.1905
 41
0.1905
 66
1
 10
0
 20
0
 30
0
  0
VERTEX
  8
LAYER_1
 10
183.4637
 20
77.5773
  0
VERTEX
  8
LAYER_1
 10
183.4637
 20
77.8316
  0
SEQEND
  0
POLYLINE
  8
LAYER_1
 40
0.1905
 41
0.1905
 66
1
 10
0
 20
0
 30
0
  0
VERTEX
  8
LAYER_1
 10
183.4637
 20
78.1913
  0
VERTEX
  8
LAYER_1
 10
183.4637
 20
78.4035
  0
SEQEND
  0
POLYLINE
  8
LAYER_1
 40
0.1905
 41
0.1905
 66
1
 10
0
 20
0
 30
0
  0
VERTEX
  8
LAYER_1
 10
183.4637
 20
77.5773
  0
VERTEX
  8
LAYER_1
 10
183.4637
 20
77.5353
  0
SEQEND
  0
POLYLINE
  8
LAYER_1
 40
0.1905
 41
0.1905
 66
1
 10
0
 20
0
 30
0
  0
VERTEX
  8
LAYER_1
 10
183.4637
 20
77.4506
  0
VERTEX
  8
LAYER_1
 10
183.4851
 20
77.3872
  0
VERTEX
  8
LAYER_1
 10
183.5061
 20
77.3451
  0
SEQEND
  0
POLYLINE
  8
LAYER_1
 40
0.1905
 41
0.1905
 66
1
 10
0
 20
0
 30
0
  0
VERTEX
  8
LAYER_1
 10
183.5485
 20
77.2604
  0
VERTEX
  8
LAYER_1
 10
183.5695
 20
77.2177
  0
VERTEX
  8
LAYER_1
 10
183.5909
 20
77.1963
  0
SEQEND
  0
POLYLINE
  8
LAYER_1
 40
0.1905
 41
0.1905
 66
1
 10
0
 20
0
 30
0
  0
VERTEX
  8
LAYER_1
 10
183.6543
 20
77.1329
  0
VERTEX
  8
LAYER_1
 10
183.6966
 20
77.0909
  0
VERTEX
  8
LAYER_1
 10
183.739
 20
77.0695
  0
SEQEND
  0
POLYLINE
  8
LAYER_1
 40
0.1905
 41
0.1905
 66
1
 10
0
 20
0
 30
0
  0
VERTEX
  8
LAYER_1
 10
183.8237
 20
77.0275
  0
VERTEX
  8
LAYER_1
 10
183.8661
 20
77.0062
  0
VERTEX
  8
LAYER_1
 10
183.9082
 20
77.0062
  0
SEQEND
  0
POLYLINE
  8
LAYER_1
 40
0.1905
 41
0.1905
 66
1
 10
0
 20
0
 30
0
  0
VERTEX
  8
LAYER_1
 10
183.9929
 20
77.0062
  0
VERTEX
  8
LAYER_1
 10
184.0566
 20
76.9844
  0
SEQEND
  0
POLYLINE
  8
LAYER_1
 40
0.1905
 41
0.1905
 66
1
 10
0
 20
0
 30
0
  0
VERTEX
  8
LAYER_1
 10
194.9996
 20
77.9797
  0
VERTEX
  8
LAYER_1
 10
194.3223
 20
77.9797
  0
SEQEND
  0
POLYLINE
  8
LAYER_1
 40
0.1905
 41
0.1905
 66
1
 10
0
 20
0
 30
0
  0
VERTEX
  8
LAYER_1
 10
193.3487
 20
77.9797
  0
VERTEX
  8
LAYER_1
 10
192.7772
 20
77.9797
  0
SEQEND
  0
POLYLINE
  8
LAYER_1
 40
0.1905
 41
0.1905
 66
1
 10
0
 20
0
 30
0
  0
VERTEX
  8
LAYER_1
 10
194.9996
 20
77.9797
  0
VERTEX
  8
LAYER_1
 10
195.042
 20
77.9797
  0
SEQEND
  0
POLYLINE
  8
LAYER_1
 40
0.1905
 41
0.1905
 66
1
 10
0
 20
0
 30
0
  0
VERTEX
  8
LAYER_1
 10
195.1268
 20
78.0011
  0
VERTEX
  8
LAYER_1
 10
195.1902
 20
78.0225
  0
VERTEX
  8
LAYER_1
 10
195.2325
 20
78.0225
  0
SEQEND
  0
POLYLINE
  8
LAYER_1
 40
0.1905
 41
0.1905
 66
1
 10
0
 20
0
 30
0
  0
VERTEX
  8
LAYER_1
 10
195.3173
 20
78.0645
  0
VERTEX
  8
LAYER_1
 10
195.3597
 20
78.0858
  0
VERTEX
  8
LAYER_1
 10
195.4017
 20
78.1279
  0
SEQEND
  0
POLYLINE
  8
LAYER_1
 40
0.1905
 41
0.1905
 66
1
 10
0
 20
0
 30
0
  0
VERTEX
  8
LAYER_1
 10
195.4654
 20
78.1913
  0
VERTEX
  8
LAYER_1
 10
195.5078
 20
78.234
  0
VERTEX
  8
LAYER_1
 10
195.5288
 20
78.276
  0
SEQEND
  0
POLYLINE
  8
LAYER_1
 40
0.1905
 41
0.1905
 66
1
 10
0
 20
0
 30
0
  0
VERTEX
  8
LAYER_1
 10
195.5712
 20
78.3608
  0
VERTEX
  8
LAYER_1
 10
195.5922
 20
78.4035
  0
VERTEX
  8
LAYER_1
 10
195.5922
 20
78.4455
  0
SEQEND
  0
POLYLINE
  8
LAYER_1
 40
0.1905
 41
0.1905
 66
1
 10
0
 20
0
 30
0
  0
VERTEX
  8
LAYER_1
 10
195.5922
 20
78.5303
  0
VERTEX
  8
LAYER_1
 10
195.6136
 20
78.5937
  0
SEQEND
  0
POLYLINE
  8
LAYER_1
 40
0.1905
 41
0.1905
 66
1
 10
0
 20
0
 30
0
  0
VERTEX
  8
LAYER_1
 10
192.3748
 20
76.9848
  0
VERTEX
  8
LAYER_1
 10
191.5284
 20
76.9848
  0
SEQEND
  0
POLYLINE
  8
LAYER_1
 40
0.1905
 41
0.1905
 66
1
 10
0
 20
0
 30
0
  0
VERTEX
  8
LAYER_1
 10
190.3005
 20
76.9848
  0
VERTEX
  8
LAYER_1
 10
188.7554
 20
76.9848
  0
SEQEND
  0
POLYLINE
  8
LAYER_1
 40
0.1905
 41
0.1905
 66
1
 10
0
 20
0
 30
0
  0
VERTEX
  8
LAYER_1
 10
187.5279
 20
76.9848
  0
VERTEX
  8
LAYER_1
 10
185.9828
 20
76.9848
  0
SEQEND
  0
POLYLINE
  8
LAYER_1
 40
0.1905
 41
0.1905
 66
1
 10
0
 20
0
 30
0
  0
VERTEX
  8
LAYER_1
 10
184.755
 20
76.9848
  0
VERTEX
  8
LAYER_1
 10
184.0566
 20
76.9848
  0
SEQEND
  0
POLYLINE
  8
LAYER_1
 40
0.1905
 41
0.1905
 66
1
 10
0
 20
0
 30
0
  0
VERTEX
  8
LAYER_1
 10
192.3752
 20
76.9848
  0
VERTEX
  8
LAYER_1
 10
192.3962
 20
76.9848
  0
SEQEND
  0
POLYLINE
  8
LAYER_1
 40
0.1905
 41
0.1905
 66
1
 10
0
 20
0
 30
0
  0
VERTEX
  8
LAYER_1
 10
192.4386
 20
76.9848
  0
VERTEX
  8
LAYER_1
 10
192.4809
 20
77.0062
  0
VERTEX
  8
LAYER_1
 10
192.5019
 20
77.0062
  0
SEQEND
  0
POLYLINE
  8
LAYER_1
 40
0.1905
 41
0.1905
 66
1
 10
0
 20
0
 30
0
  0
VERTEX
  8
LAYER_1
 10
192.5443
 20
77.0482
  0
VERTEX
  8
LAYER_1
 10
192.5653
 20
77.0695
  0
VERTEX
  8
LAYER_1
 10
192.5653
 20
77.0909
  0
SEQEND
  0
POLYLINE
  8
LAYER_1
 40
0.1905
 41
0.1905
 66
1
 10
0
 20
0
 30
0
  0
VERTEX
  8
LAYER_1
 10
192.5653
 20
77.1329
  0
VERTEX
  8
LAYER_1
 10
192.5867
 20
77.1757
  0
SEQEND
  0
POLYLINE
  8
LAYER_1
 40
0.1905
 41
0.1905
 66
1
 10
0
 20
0
 30
0
  0
VERTEX
  8
LAYER_1
 10
195.6136
 20
99.6969
  0
VERTEX
  8
LAYER_1
 10
195.6136
 20
99.739
  0
SEQEND
  0
POLYLINE
  8
LAYER_1
 40
0.1905
 41
0.1905
 66
1
 10
0
 20
0
 30
0
  0
VERTEX
  8
LAYER_1
 10
195.6136
 20
99.8237
  0
VERTEX
  8
LAYER_1
 10
195.6136
 20
99.8664
  0
VERTEX
  8
LAYER_1
 10
195.5919
 20
99.9085
  0
SEQEND
  0
POLYLINE
  8
LAYER_1
 40
0.1905
 41
0.1905
 66
1
 10
0
 20
0
 30
0
  0
VERTEX
  8
LAYER_1
 10
195.5502
 20
99.9718
  0
VERTEX
  8
LAYER_1
 10
195.5285
 20
100.0146
  0
VERTEX
  8
LAYER_1
 10
195.5078
 20
100.0352
  0
SEQEND
  0
POLYLINE
  8
LAYER_1
 40
0.1905
 41
0.1905
 66
1
 10
0
 20
0
 30
0
  0
VERTEX
  8
LAYER_1
 10
195.4441
 20
100.0993
  0
VERTEX
  8
LAYER_1
 10
195.4017
 20
100.1413
  0
VERTEX
  8
LAYER_1
 10
195.3597
 20
100.1413
  0
SEQEND
  0
POLYLINE
  8
LAYER_1
 40
0.1905
 41
0.1905
 66
1
 10
0
 20
0
 30
0
  0
VERTEX
  8
LAYER_1
 10
195.2959
 20
100.1627
  0
VERTEX
  8
LAYER_1
 10
195.2535
 20
100.1834
  0
VERTEX
  8
LAYER_1
 10
195.2112
 20
100.1834
  0
SEQEND
  0
POLYLINE
  8
LAYER_1
 40
0.1905
 41
0.1905
 66
1
 10
0
 20
0
 30
0
  0
VERTEX
  8
LAYER_1
 10
195.1268
 20
100.1834
  0
VERTEX
  8
LAYER_1
 10
195.0844
 20
100.1834
  0
VERTEX
  8
LAYER_1
 10
195.042
 20
100.1834
  0
SEQEND
  0
POLYLINE
  8
LAYER_1
 40
0.1905
 41
0.1905
 66
1
 10
0
 20
0
 30
0
  0
VERTEX
  8
LAYER_1
 10
194.9786
 20
100.1413
  0
VERTEX
  8
LAYER_1
 10
194.9362
 20
100.12
  0
VERTEX
  8
LAYER_1
 10
194.9149
 20
100.078
  0
SEQEND
  0
POLYLINE
  8
LAYER_1
 40
0.1905
 41
0.1905
 66
1
 10
0
 20
0
 30
0
  0
VERTEX
  8
LAYER_1
 10
194.8515
 20
100.0146
  0
VERTEX
  8
LAYER_1
 10
194.8091
 20
99.9718
  0
VERTEX
  8
LAYER_1
 10
194.8091
 20
99.9298
  0
SEQEND
  0
POLYLINE
  8
LAYER_1
 40
0.1905
 41
0.1905
 66
1
 10
0
 20
0
 30
0
  0
VERTEX
  8
LAYER_1
 10
194.7668
 20
99.8664
  0
VERTEX
  8
LAYER_1
 10
194.7457
 20
99.8237
  0
SEQEND
  0
POLYLINE
  8
LAYER_1
 40
0.1905
 41
0.1905
 66
1
 10
0
 20
0
 30
0
  0
VERTEX
  8
LAYER_1
 10
177.7487
 20
77.9797
  0
VERTEX
  8
LAYER_1
 10
176.9446
 20
77.9797
  0
SEQEND
  0
POLYLINE
  8
LAYER_1
 40
0.1905
 41
0.1905
 66
1
 10
0
 20
0
 30
0
  0
VERTEX
  8
LAYER_1
 10
175.7805
 20
77.9797
  0
VERTEX
  8
LAYER_1
 10
175.1242
 20
77.9797
  0
SEQEND
  0
POLYLINE
  8
LAYER_1
 40
0.1905
 41
0.1905
 66
1
 10
0
 20
0
 30
0
  0
VERTEX
  8
LAYER_1
 10
145.5122
 20
100.1834
  0
VERTEX
  8
LAYER_1
 10
146.2739
 20
100.1834
  0
SEQEND
  0
POLYLINE
  8
LAYER_1
 40
0.1905
 41
0.1905
 66
1
 10
0
 20
0
 30
0
  0
VERTEX
  8
LAYER_1
 10
147.3746
 20
100.1834
  0
VERTEX
  8
LAYER_1
 10
148.7716
 20
100.1834
  0
SEQEND
  0
POLYLINE
  8
LAYER_1
 40
0.1905
 41
0.1905
 66
1
 10
0
 20
0
 30
0
  0
VERTEX
  8
LAYER_1
 10
149.851
 20
100.1834
  0
VERTEX
  8
LAYER_1
 10
151.2483
 20
100.1834
  0
SEQEND
  0
POLYLINE
  8
LAYER_1
 40
0.1905
 41
0.1905
 66
1
 10
0
 20
0
 30
0
  0
VERTEX
  8
LAYER_1
 10
152.3487
 20
100.1834
  0
VERTEX
  8
LAYER_1
 10
153.746
 20
100.1834
  0
SEQEND
  0
POLYLINE
  8
LAYER_1
 40
0.1905
 41
0.1905
 66
1
 10
0
 20
0
 30
0
  0
VERTEX
  8
LAYER_1
 10
154.8253
 20
100.1834
  0
VERTEX
  8
LAYER_1
 10
156.2223
 20
100.1834
  0
SEQEND
  0
POLYLINE
  8
LAYER_1
 40
0.1905
 41
0.1905
 66
1
 10
0
 20
0
 30
0
  0
VERTEX
  8
LAYER_1
 10
157.323
 20
100.1834
  0
VERTEX
  8
LAYER_1
 10
158.72
 20
100.1834
  0
SEQEND
  0
POLYLINE
  8
LAYER_1
 40
0.1905
 41
0.1905
 66
1
 10
0
 20
0
 30
0
  0
VERTEX
  8
LAYER_1
 10
159.7997
 20
100.1834
  0
VERTEX
  8
LAYER_1
 10
161.1964
 20
100.1834
  0
SEQEND
  0
POLYLINE
  8
LAYER_1
 40
0.1905
 41
0.1905
 66
1
 10
0
 20
0
 30
0
  0
VERTEX
  8
LAYER_1
 10
162.2971
 20
100.1834
  0
VERTEX
  8
LAYER_1
 10
163.6941
 20
100.1834
  0
SEQEND
  0
POLYLINE
  8
LAYER_1
 40
0.1905
 41
0.1905
 66
1
 10
0
 20
0
 30
0
  0
VERTEX
  8
LAYER_1
 10
164.7737
 20
100.1834
  0
VERTEX
  8
LAYER_1
 10
166.1707
 20
100.1834
  0
SEQEND
  0
POLYLINE
  8
LAYER_1
 40
0.1905
 41
0.1905
 66
1
 10
0
 20
0
 30
0
  0
VERTEX
  8
LAYER_1
 10
167.2714
 20
100.1834
  0
VERTEX
  8
LAYER_1
 10
168.6681
 20
100.1834
  0
SEQEND
  0
POLYLINE
  8
LAYER_1
 40
0.1905
 41
0.1905
 66
1
 10
0
 20
0
 30
0
  0
VERTEX
  8
LAYER_1
 10
169.7478
 20
100.1834
  0
VERTEX
  8
LAYER_1
 10
171.1448
 20
100.1834
  0
SEQEND
  0
POLYLINE
  8
LAYER_1
 40
0.1905
 41
0.1905
 66
1
 10
0
 20
0
 30
0
  0
VERTEX
  8
LAYER_1
 10
172.2455
 20
100.1834
  0
VERTEX
  8
LAYER_1
 10
173.6425
 20
100.1834
  0
SEQEND
  0
POLYLINE
  8
LAYER_1
 40
0.1905
 41
0.1905
 66
1
 10
0
 20
0
 30
0
  0
VERTEX
  8
LAYER_1
 10
174.7218
 20
100.1834
  0
VERTEX
  8
LAYER_1
 10
176.1191
 20
100.1834
  0
SEQEND
  0
POLYLINE
  8
LAYER_1
 40
0.1905
 41
0.1905
 66
1
 10
0
 20
0
 30
0
  0
VERTEX
  8
LAYER_1
 10
177.2195
 20
100.1834
  0
VERTEX
  8
LAYER_1
 10
178.6165
 20
100.1834
  0
SEQEND
  0
POLYLINE
  8
LAYER_1
 40
0.1905
 41
0.1905
 66
1
 10
0
 20
0
 30
0
  0
VERTEX
  8
LAYER_1
 10
179.6962
 20
100.1834
  0
VERTEX
  8
LAYER_1
 10
181.0932
 20
100.1834
  0
SEQEND
  0
POLYLINE
  8
LAYER_1
 40
0.1905
 41
0.1905
 66
1
 10
0
 20
0
 30
0
  0
VERTEX
  8
LAYER_1
 10
182.1939
 20
100.1834
  0
VERTEX
  8
LAYER_1
 10
183.5909
 20
100.1834
  0
SEQEND
  0
POLYLINE
  8
LAYER_1
 40
0.1905
 41
0.1905
 66
1
 10
0
 20
0
 30
0
  0
VERTEX
  8
LAYER_1
 10
184.6702
 20
100.1834
  0
VERTEX
  8
LAYER_1
 10
186.0672
 20
100.1834
  0
SEQEND
  0
POLYLINE
  8
LAYER_1
 40
0.1905
 41
0.1905
 66
1
 10
0
 20
0
 30
0
  0
VERTEX
  8
LAYER_1
 10
187.1679
 20
100.1834
  0
VERTEX
  8
LAYER_1
 10
188.5649
 20
100.1834
  0
SEQEND
  0
POLYLINE
  8
LAYER_1
 40
0.1905
 41
0.1905
 66
1
 10
0
 20
0
 30
0
  0
VERTEX
  8
LAYER_1
 10
189.6446
 20
100.1834
  0
VERTEX
  8
LAYER_1
 10
191.0416
 20
100.1834
  0
SEQEND
  0
POLYLINE
  8
LAYER_1
 40
0.1905
 41
0.1905
 66
1
 10
0
 20
0
 30
0
  0
VERTEX
  8
LAYER_1
 10
192.1419
 20
100.1834
  0
VERTEX
  8
LAYER_1
 10
193.5393
 20
100.1834
  0
SEQEND
  0
POLYLINE
  8
LAYER_1
 40
0.1905
 41
0.1905
 66
1
 10
0
 20
0
 30
0
  0
VERTEX
  8
LAYER_1
 10
194.6186
 20
100.1834
  0
VERTEX
  8
LAYER_1
 10
195.2535
 20
100.1834
  0
SEQEND
  0
POLYLINE
  8
LAYER_1
 40
0.1905
 41
0.1905
 66
1
 10
0
 20
0
 30
0
  0
VERTEX
  8
LAYER_1
 10
174.4045
 20
82.0229
  0
VERTEX
  8
LAYER_1
 10
173.198
 20
82.0229
  0
SEQEND
  0
POLYLINE
  8
LAYER_1
 40
0.1905
 41
0.1905
 66
1
 10
0
 20
0
 30
0
  0
VERTEX
  8
LAYER_1
 10
171.4834
 20
82.0229
  0
VERTEX
  8
LAYER_1
 10
170.4885
 20
82.0229
  0
SEQEND
  0
POLYLINE
  8
LAYER_1
 40
0.1905
 41
0.1905
 66
1
 10
0
 20
0
 30
0
  0
VERTEX
  8
LAYER_1
 10
174.4045
 20
100.2047
  0
VERTEX
  8
LAYER_1
 10
173.198
 20
100.2047
  0
SEQEND
  0
POLYLINE
  8
LAYER_1
 40
0.1905
 41
0.1905
 66
1
 10
0
 20
0
 30
0
  0
VERTEX
  8
LAYER_1
 10
171.4834
 20
100.2047
  0
VERTEX
  8
LAYER_1
 10
170.4885
 20
100.2047
  0
SEQEND
  0
POLYLINE
  8
LAYER_1
 40
0.1905
 41
0.1905
 66
1
 10
0
 20
0
 30
0
  0
VERTEX
  8
LAYER_1
 10
193.6027
 20
79.5886
  0
VERTEX
  8
LAYER_1
 10
193.6027
 20
79.694
  0
SEQEND
  0
POLYLINE
  8
LAYER_1
 40
0.1905
 41
0.1905
 66
1
 10
0
 20
0
 30
0
  0
VERTEX
  8
LAYER_1
 10
193.6027
 20
79.8422
  0
VERTEX
  8
LAYER_1
 10
193.6027
 20
79.9269
  0
VERTEX
  8
LAYER_1
 10
193.5813
 20
79.9696
  0
VERTEX
  8
LAYER_1
 10
193.5813
 20
79.991
  0
VERTEX
  8
LAYER_1
 10
193.5813
 20
80.033
  0
VERTEX
  8
LAYER_1
 10
193.5603
 20
80.075
  0
VERTEX
  8
LAYER_1
 10
193.5603
 20
80.0964
  0
SEQEND
  0
POLYLINE
  8
LAYER_1
 40
0.1905
 41
0.1905
 66
1
 10
0
 20
0
 30
0
  0
VERTEX
  8
LAYER_1
 10
193.4332
 20
80.3293
  0
VERTEX
  8
LAYER_1
 10
193.4121
 20
80.3507
  0
VERTEX
  8
LAYER_1
 10
193.3908
 20
80.3927
  0
VERTEX
  8
LAYER_1
 10
193.3698
 20
80.414
  0
VERTEX
  8
LAYER_1
 10
193.3274
 20
80.4354
  0
VERTEX
  8
LAYER_1
 10
193.3064
 20
80.4354
  0
VERTEX
  8
LAYER_1
 10
193.285
 20
80.4561
  0
VERTEX
  8
LAYER_1
 10
193.2643
 20
80.4774
  0
SEQEND
  0
POLYLINE
  8
LAYER_1
 40
0.1905
 41
0.1905
 66
1
 10
0
 20
0
 30
0
  0
VERTEX
  8
LAYER_1
 10
193.0735
 20
80.5201
  0
VERTEX
  8
LAYER_1
 10
193.0521
 20
80.5201
  0
VERTEX
  8
LAYER_1
 10
193.0101
 20
80.5201
  0
VERTEX
  8
LAYER_1
 10
192.9887
 20
80.5201
  0
VERTEX
  8
LAYER_1
 10
192.9677
 20
80.5201
  0
VERTEX
  8
LAYER_1
 10
191.9094
 20
80.4988
  0
SEQEND
  0
POLYLINE
  8
LAYER_1
 40
0.1905
 41
0.1905
 66
1
 10
0
 20
0
 30
0
  0
VERTEX
  8
LAYER_1
 10
190.4063
 20
80.4561
  0
VERTEX
  8
LAYER_1
 10
188.4801
 20
80.3927
  0
SEQEND
  0
POLYLINE
  8
LAYER_1
 40
0.1905
 41
0.1905
 66
1
 10
0
 20
0
 30
0
  0
VERTEX
  8
LAYER_1
 10
186.9774
 20
80.3507
  0
VERTEX
  8
LAYER_1
 10
186.1096
 20
80.3079
  0
SEQEND
  0
POLYLINE
  8
LAYER_1
 40
0.1905
 41
0.1905
 66
1
 10
0
 20
0
 30
0
  0
VERTEX
  8
LAYER_1
 10
185.517
 20
79.61
  0
VERTEX
  8
LAYER_1
 10
185.517
 20
79.694
  0
SEQEND
  0
POLYLINE
  8
LAYER_1
 40
0.1905
 41
0.1905
 66
1
 10
0
 20
0
 30
0
  0
VERTEX
  8
LAYER_1
 10
186.1096
 20
80.3079
  0
VERTEX
  8
LAYER_1
 10
186.0672
 20
80.3079
  0
SEQEND
  0
POLYLINE
  8
LAYER_1
 40
0.1905
 41
0.1905
 66
1
 10
0
 20
0
 30
0
  0
VERTEX
  8
LAYER_1
 10
185.9824
 20
80.2873
  0
VERTEX
  8
LAYER_1
 10
185.9191
 20
80.2659
  0
VERTEX
  8
LAYER_1
 10
185.8767
 20
80.2445
  0
SEQEND
  0
POLYLINE
  8
LAYER_1
 40
0.1905
 41
0.1905
 66
1
 10
0
 20
0
 30
0
  0
VERTEX
  8
LAYER_1
 10
185.8133
 20
80.2025
  0
VERTEX
  8
LAYER_1
 10
185.7709
 20
80.1598
  0
VERTEX
  8
LAYER_1
 10
185.7285
 20
80.1391
  0
SEQEND
  0
POLYLINE
  8
LAYER_1
 40
0.1905
 41
0.1905
 66
1
 10
0
 20
0
 30
0
  0
VERTEX
  8
LAYER_1
 10
185.6652
 20
80.075
  0
VERTEX
  8
LAYER_1
 10
185.6228
 20
80.033
  0
VERTEX
  8
LAYER_1
 10
185.6014
 20
79.991
  0
SEQEND
  0
POLYLINE
  8
LAYER_1
 40
0.1905
 41
0.1905
 66
1
 10
0
 20
0
 30
0
  0
VERTEX
  8
LAYER_1
 10
185.5594
 20
79.9062
  0
VERTEX
  8
LAYER_1
 10
185.5377
 20
79.8635
  0
VERTEX
  8
LAYER_1
 10
185.5377
 20
79.8215
  0
SEQEND
  0
POLYLINE
  8
LAYER_1
 40
0.1905
 41
0.1905
 66
1
 10
0
 20
0
 30
0
  0
VERTEX
  8
LAYER_1
 10
185.538
 20
79.7367
  0
VERTEX
  8
LAYER_1
 10
185.517
 20
79.694
  0
SEQEND
  0
POLYLINE
  8
LAYER_1
 40
0.1905
 41
0.1905
 66
1
 10
0
 20
0
 30
0
  0
VERTEX
  8
LAYER_1
 10
192.9887
 20
78.9747
  0
VERTEX
  8
LAYER_1
 10
191.9304
 20
78.9747
  0
SEQEND
  0
POLYLINE
  8
LAYER_1
 40
0.1905
 41
0.1905
 66
1
 10
0
 20
0
 30
0
  0
VERTEX
  8
LAYER_1
 10
190.4277
 20
78.9747
  0
VERTEX
  8
LAYER_1
 10
188.5015
 20
78.9747
  0
SEQEND
  0
POLYLINE
  8
LAYER_1
 40
0.1905
 41
0.1905
 66
1
 10
0
 20
0
 30
0
  0
VERTEX
  8
LAYER_1
 10
186.9987
 20
78.9747
  0
VERTEX
  8
LAYER_1
 10
186.1306
 20
78.9747
  0
SEQEND
  0
POLYLINE
  8
LAYER_1
 40
0.1905
 41
0.1905
 66
1
 10
0
 20
0
 30
0
  0
VERTEX
  8
LAYER_1
 10
185.517
 20
79.61
  0
VERTEX
  8
LAYER_1
 10
185.517
 20
79.5672
  0
SEQEND
  0
POLYLINE
  8
LAYER_1
 40
0.1905
 41
0.1905
 66
1
 10
0
 20
0
 30
0
  0
VERTEX
  8
LAYER_1
 10
185.517
 20
79.4825
  0
VERTEX
  8
LAYER_1
 10
185.538
 20
79.4191
  0
VERTEX
  8
LAYER_1
 10
185.5594
 20
79.3771
  0
SEQEND
  0
POLYLINE
  8
LAYER_1
 40
0.1905
 41
0.1905
 66
1
 10
0
 20
0
 30
0
  0
VERTEX
  8
LAYER_1
 10
185.6014
 20
79.2923
  0
VERTEX
  8
LAYER_1
 10
185.6231
 20
79.2496
  0
VERTEX
  8
LAYER_1
 10
185.6652
 20
79.2289
  0
SEQEND
  0
POLYLINE
  8
LAYER_1
 40
0.1905
 41
0.1905
 66
1
 10
0
 20
0
 30
0
  0
VERTEX
  8
LAYER_1
 10
185.7285
 20
79.1648
  0
VERTEX
  8
LAYER_1
 10
185.7709
 20
79.1228
  0
VERTEX
  8
LAYER_1
 10
185.8133
 20
79.1015
  0
SEQEND
  0
POLYLINE
  8
LAYER_1
 40
0.1905
 41
0.1905
 66
1
 10
0
 20
0
 30
0
  0
VERTEX
  8
LAYER_1
 10
185.898
 20
79.0594
  0
VERTEX
  8
LAYER_1
 10
185.9404
 20
79.0167
  0
VERTEX
  8
LAYER_1
 10
185.9824
 20
79.0167
  0
SEQEND
  0
POLYLINE
  8
LAYER_1
 40
0.1905
 41
0.1905
 66
1
 10
0
 20
0
 30
0
  0
VERTEX
  8
LAYER_1
 10
186.0672
 20
78.996
  0
VERTEX
  8
LAYER_1
 10
186.1306
 20
78.9747
  0
SEQEND
  0
POLYLINE
  8
LAYER_1
 40
0.1905
 41
0.1905
 66
1
 10
0
 20
0
 30
0
  0
VERTEX
  8
LAYER_1
 10
192.9887
 20
78.9747
  0
VERTEX
  8
LAYER_1
 10
193.0311
 20
78.9747
  0
SEQEND
  0
POLYLINE
  8
LAYER_1
 40
0.1905
 41
0.1905
 66
1
 10
0
 20
0
 30
0
  0
VERTEX
  8
LAYER_1
 10
193.1159
 20
78.996
  0
VERTEX
  8
LAYER_1
 10
193.1793
 20
79.0167
  0
VERTEX
  8
LAYER_1
 10
193.2216
 20
79.0381
  0
SEQEND
  0
POLYLINE
  8
LAYER_1
 40
0.1905
 41
0.1905
 66
1
 10
0
 20
0
 30
0
  0
VERTEX
  8
LAYER_1
 10
193.3064
 20
79.0808
  0
VERTEX
  8
LAYER_1
 10
193.3487
 20
79.1015
  0
VERTEX
  8
LAYER_1
 10
193.3698
 20
79.1442
  0
SEQEND
  0
POLYLINE
  8
LAYER_1
 40
0.1905
 41
0.1905
 66
1
 10
0
 20
0
 30
0
  0
VERTEX
  8
LAYER_1
 10
193.4332
 20
79.2076
  0
VERTEX
  8
LAYER_1
 10
193.4755
 20
79.2496
  0
VERTEX
  8
LAYER_1
 10
193.4969
 20
79.2923
  0
SEQEND
  0
POLYLINE
  8
LAYER_1
 40
0.1905
 41
0.1905
 66
1
 10
0
 20
0
 30
0
  0
VERTEX
  8
LAYER_1
 10
193.5389
 20
79.3557
  0
VERTEX
  8
LAYER_1
 10
193.5606
 20
79.3977
  0
VERTEX
  8
LAYER_1
 10
193.5606
 20
79.4405
  0
SEQEND
  0
POLYLINE
  8
LAYER_1
 40
0.1905
 41
0.1905
 66
1
 10
0
 20
0
 30
0
  0
VERTEX
  8
LAYER_1
 10
193.5813
 20
79.5252
  0
VERTEX
  8
LAYER_1
 10
193.6027
 20
79.5886
  0
SEQEND
  0
POLYLINE
  8
LAYER_1
 40
0.1905
 41
0.1905
 66
1
 10
0
 20
0
 30
0
  0
VERTEX
  8
LAYER_1
 10
199.6564
 20
106.2164
  0
VERTEX
  8
LAYER_1
 10
141.7021
 20
106.2164
  0
SEQEND
  0
POLYLINE
  8
LAYER_1
 40
0.1905
 41
0.1905
 66
1
 10
0
 20
0
 30
0
  0
VERTEX
  8
LAYER_1
 10
141.7019
 20
105.4117
  0
VERTEX
  8
LAYER_1
 10
141.7019
 20
107.0207
  0
SEQEND
  0
POLYLINE
  8
LAYER_1
 40
0.1905
 41
0.1905
 66
1
 10
0
 20
0
 30
0
  0
VERTEX
  8
LAYER_1
 10
149.5971
 20
54.1459
  0
VERTEX
  8
LAYER_1
 10
141.5114
 20
54.1459
  0
SEQEND
  0
POLYLINE
  8
LAYER_1
 40
0.1905
 41
0.1905
 66
1
 10
0
 20
0
 30
0
  0
VERTEX
  8
LAYER_1
 10
141.5114
 20
53.1516
  0
VERTEX
  8
LAYER_1
 10
141.5114
 20
54.1459
  0
SEQEND
  0
POLYLINE
  8
LAYER_1
 40
0.1905
 41
0.1905
 66
1
 10
0
 20
0
 30
0
  0
VERTEX
  8
LAYER_1
 10
149.5971
 20
53.1516
  0
VERTEX
  8
LAYER_1
 10
141.5114
 20
53.1516
  0
SEQEND
  0
POLYLINE
  8
LAYER_1
 40
0.1905
 41
0.1905
 66
1
 10
0
 20
0
 30
0
  0
VERTEX
  8
LAYER_1
 10
149.5971
 20
53.1516
  0
VERTEX
  8
LAYER_1
 10
149.5971
 20
54.1459
  0
SEQEND
  0
POLYLINE
  8
LAYER_1
 40
0.1905
 41
0.1905
 66
1
 10
0
 20
0
 30
0
  0
VERTEX
  8
LAYER_1
 10
149.5971
 20
65.2584
  0
VERTEX
  8
LAYER_1
 10
146.041
 20
65.2584
  0
VERTEX
  8
LAYER_1
 10
145.0466
 20
65.2584
  0
VERTEX
  8
LAYER_1
 10
141.5114
 20
65.2584
  0
SEQEND
  0
POLYLINE
  8
LAYER_1
 40
0.1905
 41
0.1905
 66
1
 10
0
 20
0
 30
0
  0
VERTEX
  8
LAYER_1
 10
141.5114
 20
64.2428
  0
VERTEX
  8
LAYER_1
 10
141.5114
 20
65.2584
  0
SEQEND
  0
POLYLINE
  8
LAYER_1
 40
0.1905
 41
0.1905
 66
1
 10
0
 20
0
 30
0
  0
VERTEX
  8
LAYER_1
 10
144.623
 20
64.2428
  0
VERTEX
  8
LAYER_1
 10
141.5116
 20
64.2428
  0
SEQEND
  0
POLYLINE
  8
LAYER_1
 40
0.1905
 41
0.1905
 66
1
 10
0
 20
0
 30
0
  0
VERTEX
  8
LAYER_1
 10
146.4644
 20
64.2428
  0
VERTEX
  8
LAYER_1
 10
144.6229
 20
64.2428
  0
SEQEND
  0
POLYLINE
  8
LAYER_1
 40
0.1905
 41
0.1905
 66
1
 10
0
 20
0
 30
0
  0
VERTEX
  8
LAYER_1
 10
149.5971
 20
64.2428
  0
VERTEX
  8
LAYER_1
 10
146.4644
 20
64.2428
  0
SEQEND
  0
POLYLINE
  8
LAYER_1
 40
0.1905
 41
0.1905
 66
1
 10
0
 20
0
 30
0
  0
VERTEX
  8
LAYER_1
 10
149.5971
 20
64.2428
  0
VERTEX
  8
LAYER_1
 10
149.5971
 20
65.2584
  0
SEQEND
  0
POLYLINE
  8
LAYER_1
 40
0.1905
 41
0.1905
 66
1
 10
0
 20
0
 30
0
  0
VERTEX
  8
LAYER_1
 10
149.5971
 20
54.1459
  0
VERTEX
  8
LAYER_1
 10
149.5971
 20
64.2428
  0
SEQEND
  0
POLYLINE
  8
LAYER_1
 40
0.1905
 41
0.1905
 66
1
 10
0
 20
0
 30
0
  0
VERTEX
  8
LAYER_1
 10
141.5114
 20
54.1459
  0
VERTEX
  8
LAYER_1
 10
141.5114
 20
64.2428
  0
SEQEND
  0
POLYLINE
  8
LAYER_1
 40
0.1905
 41
0.1905
 66
1
 10
0
 20
0
 30
0
  0
VERTEX
  8
LAYER_1
 10
149.5127
 20
50.8021
  0
VERTEX
  8
LAYER_1
 10
141.5113
 20
50.8021
  0
SEQEND
  0
POLYLINE
  8
LAYER_1
 40
0.1905
 41
0.1905
 66
1
 10
0
 20
0
 30
0
  0
VERTEX
  8
LAYER_1
 10
149.5127
 20
49.9973
  0
VERTEX
  8
LAYER_1
 10
149.5127
 20
51.6062
  0
SEQEND
  0
POLYLINE
  8
LAYER_1
 40
0.1905
 41
0.1905
 66
1
 10
0
 20
0
 30
0
  0
VERTEX
  8
LAYER_1
 10
141.5114
 20
49.9973
  0
VERTEX
  8
LAYER_1
 10
141.5114
 20
51.6062
  0
SEQEND
  0
POLYLINE
  8
LAYER_1
 40
0.1693
 41
0.1693
 66
1
 10
0
 20
0
 30
0
  0
VERTEX
  8
LAYER_1
 10
203.3392
 20
128.4197
  0
VERTEX
  8
LAYER_1
 10
211.1499
 20
141.9452
  0
SEQEND
  0
POLYLINE
  8
LAYER_1
 40
0.1693
 41
0.1693
 66
1
 10
0
 20
0
 30
0
  0
VERTEX
  8
LAYER_1
 10
203.3392
 20
128.4197
  0
VERTEX
  8
LAYER_1
 10
203.7202
 20
129.8591
  0
SEQEND
  0
POLYLINE
  8
LAYER_1
 40
0.1693
 41
0.1693
 66
1
 10
0
 20
0
 30
0
  0
VERTEX
  8
LAYER_1
 10
203.3392
 20
128.4197
  0
VERTEX
  8
LAYER_1
 10
204.4612
 20
129.5416
  0
SEQEND
  0
POLYLINE
  8
LAYER_1
 40
0.1693
 41
0.1693
 66
1
 10
0
 20
0
 30
0
  0
VERTEX
  8
LAYER_1
 10
222.1353
 20
141.9452
  0
VERTEX
  8
LAYER_1
 10
211.1499
 20
141.9452
  0
SEQEND
  0
POLYLINE
  8
LAYER_1
 40
0.05
 41
0.05
 66
1
 10
0
 20
0
 30
0
 70
1
  0
VERTEX
  8
LAYER_1
 10
0
 20
210.3525
  0
VERTEX
  8
LAYER_1
 10
297.3531
 20
210.3525
  0
VERTEX
  8
LAYER_1
 10
297.3531
 20
0
  0
VERTEX
  8
LAYER_1
 10
0
 20
0
  0
SEQEND
  0
ENDBLK
  0
BLOCK
  8
LAYER_1
  2
AIGNBL01010020
 70
64
 10
0
 20
0
 30
0
  3
AIGNBL01010020
  0
POLYLINE
  8
LAYER_1
 40
0.1693
 41
0.1693
 66
1
 10
0
 20
0
 30
0
  0
VERTEX
  8
LAYER_1
 10
208.2288
 20
71.5243
  0
VERTEX
  8
LAYER_1
 10
208.737
 20
73.4288
  0
SEQEND
  0
POLYLINE
  8
LAYER_1
 40
0.1693
 41
0.1693
 66
1
 10
0
 20
0
 30
0
  0
VERTEX
  8
LAYER_1
 10
208.2288
 20
71.5243
  0
VERTEX
  8
LAYER_1
 10
209.6048
 20
72.8996
  0
SEQEND
  0
POLYLINE
  8
LAYER_1
 40
0.1693
 41
0.1693
 66
1
 10
0
 20
0
 30
0
  0
VERTEX
  8
LAYER_1
 10
208.2288
 20
71.5243
  0
VERTEX
  8
LAYER_1
 10
214.1978
 20
81.8534
  0
SEQEND
  0
POLYLINE
  8
LAYER_1
 40
0.05
 41
0.05
 66
1
 10
0
 20
0
 30
0
 70
1
  0
VERTEX
  8
LAYER_1
 10
0
 20
210.3525
  0
VERTEX
  8
LAYER_1
 10
297.3531
 20
210.3525
  0
VERTEX
  8
LAYER_1
 10
297.3531
 20
0
  0
VERTEX
  8
LAYER_1
 10
0
 20
0
  0
SEQEND
  0
ENDBLK
  0
BLOCK
  8
LAYER_1
  2
AIGNBL01010021
 70
64
 10
0
 20
0
 30
0
  3
AIGNBL01010021
  0
POLYLINE
  8
LAYER_1
 40
0.1693
 41
0.1693
 66
1
 10
0
 20
0
 30
0
  0
VERTEX
  8
LAYER_1
 10
214.1978
 20
81.8534
  0
VERTEX
  8
LAYER_1
 10
273.4321
 20
81.8534
  0
SEQEND
  0
POLYLINE
  8
LAYER_1
 40
0.1058
 41
0.1058
 66
1
 10
0
 20
0
 30
0
 70
1
  0
VERTEX
  8
LAYER_1
 10
68.6556
 20
67.3747
  0
VERTEX
  8
LAYER_1
 10
65.8556
 20
67.3747
 42
0.4142124614
  0
VERTEX
  8
LAYER_1
 10
64.7556
 20
66.2747
 42
0.4142231635
  0
VERTEX
  8
LAYER_1
 10
65.8556
 20
65.1747
  0
VERTEX
  8
LAYER_1
 10
68.6556
 20
65.1747
 42
0.4142150242
  0
VERTEX
  8
LAYER_1
 10
69.7556
 20
66.2747
 42
0.414204323
  0
SEQEND
  0
POLYLINE
  8
LAYER_1
 40
0.1058
 41
0.1058
 66
1
 10
0
 20
0
 30
0
 70
1
  0
VERTEX
  8
LAYER_1
 10
98.6186
 20
67.3747
  0
VERTEX
  8
LAYER_1
 10
95.8186
 20
67.3747
 42
0.4142047476
  0
VERTEX
  8
LAYER_1
 10
94.7186
 20
66.2747
 42
0.4142154491
  0
VERTEX
  8
LAYER_1
 10
95.8186
 20
65.1747
  0
VERTEX
  8
LAYER_1
 10
98.6186
 20
65.1747
 42
0.4142227386
  0
VERTEX
  8
LAYER_1
 10
99.7186
 20
66.2747
 42
0.4142120367
  0
SEQEND
  0
POLYLINE
  8
LAYER_1
 40
0.05
 41
0.05
 66
1
 10
0
 20
0
 30
0
 70
1
  0
VERTEX
  8
LAYER_1
 10
0
 20
210.3525
  0
VERTEX
  8
LAYER_1
 10
297.3531
 20
210.3525
  0
VERTEX
  8
LAYER_1
 10
297.3531
 20
0
  0
VERTEX
  8
LAYER_1
 10
0
 20
0
  0
SEQEND
  0
ENDBLK
  0
ENDSEC
  0
SECTION
  2
ENTITIES
  0
TEXT
  8
LAYER_1
 10
11.5209
 20
17.4477
 11
11.5209
 21
17.4477
 40
3.0429
 41
0.5
 50
7.016709604e-15
  1
Ädùl
  0
POLYLINE
  8
LAYER_1
 40
0.3528
 41
0.3528
 66
1
 10
0
 20
0
 30
0
  0
VERTEX
  8
LAYER_1
 10
288.4513
 20
26.2272
  0
VERTEX
  8
LAYER_1
 10
8.4586
 20
26.2272
  0
SEQEND
  0
POLYLINE
  8
LAYER_1
 40
0.7056
 41
0.7056
 66
1
 10
0
 20
0
 30
0
 70
1
  0
VERTEX
  8
LAYER_1
 10
289.4514
 20
7.605
  0
VERTEX
  8
LAYER_1
 10
7.4588
 20
7.605
  0
VERTEX
  8
LAYER_1
 10
7.4588
 20
204.6135
  0
VERTEX
  8
LAYER_1
 10
289.4514
 20
204.6135
  0
SEQEND
  0
POLYLINE
  8
LAYER_1
 40
0.3528
 41
0.3528
 66
1
 10
0
 20
0
 30
0
 70
1
  0
VERTEX
  8
LAYER_1
 10
8.4589
 20
8.6048
  0
VERTEX
  8
LAYER_1
 10
288.4516
 20
8.6048
  0
VERTEX
  8
LAYER_1
 10
288.4516
 20
203.6134
  0
VERTEX
  8
LAYER_1
 10
8.4589
 20
203.6134
  0
SEQEND
  0
POLYLINE
  8
LAYER_1
 40
0.3528
 41
0.3528
 66
1
 10
0
 20
0
 30
0
  0
VERTEX
  8
LAYER_1
 10
288.4513
 20
34.7362
  0
VERTEX
  8
LAYER_1
 10
8.4586
 20
34.7362
  0
SEQEND
  0
POLYLINE
  8
LAYER_1
 40
0.3528
 41
0.3528
 66
1
 10
0
 20
0
 30
0
  0
VERTEX
  8
LAYER_1
 10
288.4513
 20
17.7181
  0
VERTEX
  8
LAYER_1
 10
181.3106
 20
17.7181
  0
SEQEND
  0
TEXT
  8
LAYER_1
 10
225.949
 20
19.994
 11
225.949
 21
19.994
 40
3.4776
 41
0.5
 50
7.016709604e-15
  1
-
  0
TEXT
  8
LAYER_1
 10
220.6573
 20
23.7508
 11
220.6573
 21
23.7508
 40
2.0286
 41
0.5
 50
7.016709604e-15
  1
ÅkÄ┌
  0
POLYLINE
  8
LAYER_1
 40
0.3528
 41
0.3528
 66
1
 10
0
 20
0
 30
0
  0
VERTEX
  8
LAYER_1
 10
219.1291
 20
17.7181
  0
VERTEX
  8
LAYER_1
 10
219.1291
 20
26.2272
  0
SEQEND
  0
TEXT
  8
LAYER_1
 10
182.0092
 20
32.2599
 11
182.0092
 21
32.2599
 40
2.0286
 41
0.5
 50
7.016709604e-15
  1
òiöÈ
  0
TEXT
  8
LAYER_1
 10
9.6151
 20
32.2599
 11
9.6151
 21
32.2599
 40
2.0286
 41
0.5
 50
7.016709604e-15
  1
òiû╝
  0
TEXT
  8
LAYER_1
 10
182.0092
 20
23.7508
 11
182.0092
 21
23.7508
 40
2.0286
 41
0.5
 50
7.016709604e-15
  1
Ådù╩
  0
TEXT
  8
LAYER_1
 10
188.0312
 20
28.4279
 11
188.0312
 21
28.4279
 40
5.1875
 41
0.5
 50
7.016709604e-15
  1
CIE-MINIMULTIPLO
  0
TEXT
  8
LAYER_1
 10
187.3219
 20
19.994
 11
187.3219
 21
19.994
 40
3.4776
 41
0.5
 50
7.016709604e-15
  1
-
  0
POLYLINE
  8
LAYER_1
 40
0.3528
 41
0.3528
 66
1
 10
0
 20
0
 30
0
  0
VERTEX
  8
LAYER_1
 10
181.3106
 20
9.2304
  0
VERTEX
  8
LAYER_1
 10
181.3106
 20
34.7362
  0
SEQEND
  0
TEXT
  8
LAYER_1
 10
22.4029
 20
29.1676
 11
22.4029
 21
29.1676
 40
3.3544
 41
0.5
 50
7.016709604e-15
  1
â~âjâ}âïâ`âvâì
  0
TEXT
  8
LAYER_1
 10
44.5513
 20
29.0625
 11
44.5513
 21
29.0625
 40
3.8335
 41
0.5
 50
7.016709604e-15
  1
 
  0
TEXT
  8
LAYER_1
 10
45.4768
 20
29.1676
 11
45.4768
 21
29.1676
 40
3.3544
 41
0.5
 50
7.016709604e-15
  1
âZâëâ~âbâNâJâEâôâ^ü[âZâbâg
  0
TEXT
  8
LAYER_1
 10
213.8019
 20
13.8124
 11
213.8019
 21
13.8124
 40
2.7386
 41
0.5
 50
7.016709604e-15
  1
ü£
  0
TEXT
  8
LAYER_1
 10
216.6593
 20
13.7266
 11
216.6593
 21
13.7266
 40
3.1298
 41
0.5
 50
7.016709604e-15
  1
TEL 0120-65-1232
  0
TEXT
  8
LAYER_1
 10
242.8985
 20
13.8124
 11
242.8985
 21
13.8124
 40
2.7386
 41
0.5
 50
7.016709604e-15
  1
ü£
  0
TEXT
  8
LAYER_1
 10
245.7559
 20
13.7266
 11
245.7559
 21
13.7266
 40
3.1298
 41
0.5
 50
7.016709604e-15
  1
FAX 06-6532-1580
  0
TEXT
  8
LAYER_1
 10
213.8019
 20
10.2964
 11
213.8019
 21
10.2964
 40
3.1298
 41
0.5
 50
7.016709604e-15
  1
hits@hiratatile.co.jp
  0
INSERT
  8
LAYER_1
  2
AIGNBL01010002
 10
0
 20
0
 30
0
  0
TEXT
  8
LAYER_1
 10
22.0931
 20
18.239
 11
22.0931
 21
18.239
 40
2.8752
 41
0.5
 50
7.016709604e-15
  1
ü£âTâCâYüF
  0
TEXT
  8
LAYER_1
 10
34.1027
 20
18.1491
 11
34.1027
 21
18.1491
 40
3.2859
 41
0.5
 50
7.016709604e-15
  1
W400
  0
TEXT
  8
LAYER_1
 10
41.8719
 20
18.239
 11
41.8719
 21
18.239
 40
2.8752
 41
0.5
 50
7.016709604e-15
  1
ü~
  0
TEXT
  8
LAYER_1
 10
44.2996
 20
18.1491
 11
44.2996
 21
18.1491
 40
3.2859
 41
0.5
 50
7.016709604e-15
  1
D290
  0
TEXT
  8
LAYER_1
 10
51.5262
 20
18.239
 11
51.5262
 21
18.239
 40
2.8752
 41
0.5
 50
7.016709604e-15
  1
ü~
  0
TEXT
  8
LAYER_1
 10
53.9542
 20
18.1491
 11
53.9542
 21
18.1491
 40
3.2859
 41
0.5
 50
7.016709604e-15
  1
H118mm
  0
TEXT
  8
LAYER_1
 10
67.2421
 20
18.239
 11
67.2421
 21
18.239
 40
2.8752
 41
0.5
 50
7.016709604e-15
  1
ü£Ådù╩üF
  0
TEXT
  8
LAYER_1
 10
76.6308
 20
18.1491
 11
76.6308
 21
18.1491
 40
3.2859
 41
0.5
 50
7.016709604e-15
  1
12kg
  0
TEXT
  8
LAYER_1
 10
83.7537
 20
18.239
 11
83.7537
 21
18.239
 40
2.8752
 41
0.5
 50
7.016709604e-15
  1
ü£É¦Æuò¹û@üFòÃòté»ü£ÉàÉ­ÄµòtîèüF
  0
TEXT
  8
LAYER_1
 10
125.4647
 20
18.1491
 11
125.4647
 21
18.1491
 40
3.2859
 41
0.5
 50
7.016709604e-15
  1
1
  0
TEXT
  8
LAYER_1
 10
127.2465
 20
18.239
 11
127.2465
 21
18.239
 40
2.8752
 41
0.5
 50
7.016709604e-15
  1
îè
  0
TEXT
  8
LAYER_1
 10
22.0917
 20
13.49
 11
22.0917
 21
13.49
 40
2.8752
 41
0.5
 50
7.016709604e-15
  1
ü£örÉàïÓï´üEâ{âEâïò╩ôrü£ÄµéÞòté»â{âïâgô»ì½ü£âVâàâCâRâôâtâHü[âgâ~âjâéÉÛùpòié┼éÀüB
  0
TEXT
  8
LAYER_1
 10
275.0395
 20
37.5347
 11
275.0395
 21
37.5347
 40
2.396
 41
0.5
 50
7.016709604e-15
  1
ÆPê╩üF
  0
TEXT
  8
LAYER_1
 10
280.6892
 20
37.4596
 11
280.6892
 21
37.4596
 40
2.7382
 41
0.5
 50
7.016709604e-15
  1
mm
  0
TEXT
  8
LAYER_1
 10
208.1199
 20
192.7479
 11
208.1199
 21
192.7479
 40
2.396
 41
0.5
 50
7.016709604e-15
  1
üªô®èÝÉ╗òié═Éíû@î÷ìÀé¬ö¡ÉÂéÁé▄éÀüB
  0
TEXT
  8
LAYER_1
 10
208.1199
 20
187.998
 11
208.1199
 21
187.998
 40
2.396
 41
0.5
 50
7.016709604e-15
  1
üªòÃû╩é╔é═
  0
TEXT
  8
LAYER_1
 10
220.3421
 20
187.9231
 11
220.3421
 21
187.9231
 40
2.7382
 41
0.5
 50
7.016709604e-15
  1
50mm
  0
TEXT
  8
LAYER_1
 10
228.2837
 20
187.998
 11
228.2837
 21
187.998
 40
2.396
 41
0.5
 50
7.016709604e-15
  1
ê╚ÅÒé╠òÔï¡ìÌé­ô³éÛé─é¡é¥é│éóüB
  0
TEXT
  8
LAYER_1
 10
208.1189
 20
183.2481
 11
208.1189
 21
183.2481
 40
2.396
 41
0.5
 50
7.016709604e-15
  1
üªÉ╗òiéãÉ┌éÀéÚòöò¬é╔é═òKé©âRü[âLâôâOÅêùØé­ìsé┴é─é¡é¥é│éóüB
  0
INSERT
  8
LAYER_1
  2
AIGNBL01010005
 10
0
 20
0
 30
0
  0
TEXT
  8
LAYER_1
 10
82.889
 20
134.0213
 11
82.889
 21
134.0213
 40
2.7382
 41
0.5
 50
7.016709604e-15
  1
40
  0
INSERT
  8
LAYER_1
  2
AIGNBL01010015
 10
0
 20
0
 30
0
  0
TEXT
  8
LAYER_1
 10
82.9827
 20
181.2887
 11
82.9827
 21
181.2887
 40
2.7382
 41
0.5
 50
7.016709604e-15
  1
40
  0
TEXT
  8
LAYER_1
 10
79.3374
 20
109.5888
 11
79.3374
 21
109.5888
 40
2.7382
 41
0.5
 50
7.016709604e-15
  1
400
  0
TEXT
  8
LAYER_1
 10
165.8951
 20
109.5888
 11
165.8951
 21
109.5888
 40
2.7382
 41
0.5
 50
7.016709604e-15
  1
290
  0
TEXT
  8
LAYER_1
 10
65.323
 20
102.6235
 11
65.323
 21
102.6235
 40
2.7382
 41
0.5
 50
7.016709604e-15
  1
250
  0
INSERT
  8
LAYER_1
  2
AIGNBL01010016
 10
0
 20
0
 30
0
  0
TEXT
  8
LAYER_1
 10
80.3624
 20
169.7638
 11
80.3624
 21
169.7638
 40
2.7382
 41
0.5
 50
7.016709604e-15
  1
186
  0
TEXT
  8
LAYER_1
 10
114.1939
 20
169.6584
 11
114.1939
 21
169.6584
 40
2.7382
 41
0.5
 50
7.016709604e-15
  1
75
  0
INSERT
  8
LAYER_1
  2
AIGNBL01010017
 10
0
 20
0
 30
0
  0
TEXT
  8
LAYER_1
 10
79.3374
 20
45.7305
 11
79.3374
 21
45.7305
 40
2.7382
 41
0.5
 50
7.016709604e-15
  1
396
  0
INSERT
  8
LAYER_1
  2
AIGNBL01010018
 10
0
 20
0
 30
0
  0
TEXT
  8
LAYER_1
 10
125.4352
 20
68.0658
 11
125.4352
 21
68.0658
 40
2.7382
 41
0.5
 50
7.016709604e-15
  1
40
  0
TEXT
  8
LAYER_1
 10
143.9845
 20
45.8814
 11
143.9845
 21
45.8814
 40
2.7382
 41
0.5
 50
7.016709604e-15
  1
40
  0
TEXT
  8
LAYER_1
 10
126.4819
 20
73.4722
 11
126.4819
 21
73.4722
 40
2.7382
 41
0.5
 50
7.016709604e-15
  1
15
  0
INSERT
  8
LAYER_1
  2
AIGNBL01010019
 10
0
 20
0
 30
0
  0
TEXT
  8
LAYER_1
 10
125.4352
 20
57.612
 11
125.4352
 21
57.612
 40
2.7382
 41
0.5
 50
7.016709604e-15
  1
60
  0
INSERT
  8
LAYER_1
  2
AIGNBL0101001A
 10
0
 20
0
 30
0
  0
TEXT
  8
LAYER_1
 10
71.6115
 20
192.166
 11
71.6115
 21
192.166
 40
2.396
 41
0.5
 50
7.016709604e-15
  1
òÃÄµòtâ{âïâgîè
  0
TEXT
  8
LAYER_1
 10
88.2764
 20
192.0911
 11
88.2764
 21
192.0911
 40
2.7382
 41
0.5
 50
7.016709604e-15
  1
 
  0
TEXT
  8
LAYER_1
 10
89.0497
 20
192.0911
 11
89.0497
 21
192.0911
 40
2.7382
 41
0.5
 50
7.016709604e-15
  1
150
  0
INSERT
  8
LAYER_1
  2
AIGNBL0101001B
 10
0
 20
0
 30
0
  0
TEXT
  8
LAYER_1
 10
36.255
 20
158.6323
 11
36.255
 21
158.6323
 40
2.7382
 41
0.5
 50
89.99999999
  1
290
  0
INSERT
  8
LAYER_1
  2
AIGNBL0101001C
 10
0
 20
0
 30
0
  0
TEXT
  8
LAYER_1
 10
78.9199
 20
122.0027
 11
78.9199
 21
122.0027
 40
2.7382
 41
0.5
 50
7.016709604e-15
  1
400
  0
INSERT
  8
LAYER_1
  2
AIGNBL0101001D
 10
0
 20
0
 30
0
  0
TEXT
  8
LAYER_1
 10
79.5448
 20
59.7287
 11
79.5448
 21
59.7287
 40
2.7382
 41
0.5
 50
7.016709604e-15
  1
150
  0
INSERT
  8
LAYER_1
  2
AIGNBL0101001E
 10
0
 20
0
 30
0
  0
TEXT
  8
LAYER_1
 10
102.534
 20
148.5193
 11
102.534
 21
148.5193
 40
2.7382
 41
0.5
 50
7.016709604e-15
  1
»35
  0
TEXT
  8
LAYER_1
 10
64.8798
 20
146.1766
 11
64.8798
 21
146.1766
 40
2.7382
 41
0.5
 50
7.016709604e-15
  1
»75
  0
INSERT
  8
LAYER_1
  2
AIGNBL0101001F
 10
0
 20
0
 30
0
  0
TEXT
  8
LAYER_1
 10
215.0808
 20
142.8347
 11
215.0808
 21
142.8347
 40
3.3544
 41
0.5
 50
7.016709604e-15
  1
òÃìÌ
  0
INSERT
  8
LAYER_1
  2
AIGNBL01010020
 10
0
 20
0
 30
0
  0
TEXT
  8
LAYER_1
 10
214.5785
 20
91.7949
 11
214.5785
 21
91.7949
 40
2.396
 41
0.5
 50
7.016709604e-15
  1
òÔï¡ìÌ
  0
TEXT
  8
LAYER_1
 10
214.5785
 20
88.7198
 11
214.5785
 21
88.7198
 40
2.7382
 41
0.5
 50
7.016709604e-15
  1
50
  0
TEXT
  8
LAYER_1
 10
217.6715
 20
88.7949
 11
217.6715
 21
88.7949
 40
2.396
 41
0.5
 50
7.016709604e-15
  1
å@èpê╚ÅÒé┼üAèÈÆîôÖé╔î┼ÆÞéÁé─ë║é│éóüB
  0
TEXT
  8
LAYER_1
 10
214.5785
 20
85.7198
 11
214.5785
 21
85.7198
 40
2.7382
 41
0.5
 50
7.016709604e-15
  1
(
  0
TEXT
  8
LAYER_1
 10
215.3846
 20
85.7949
 11
215.3846
 21
85.7949
 40
2.396
 41
0.5
 50
7.016709604e-15
  1
âRâôâNâèü[âgë║Æné╔Æ╝É┌Äµòté»éÚÅÛìçé═òÔï¡ìÌòsùv
  0
TEXT
  8
LAYER_1
 10
270.542
 20
85.7198
 11
270.542
 21
85.7198
 40
2.7382
 41
0.5
 50
7.016709604e-15
  1
)
  0
INSERT
  8
LAYER_1
  2
AIGNBL01010021
 10
0
 20
0
 30
0
  0
ENDSEC
  0
EOF
