  0
SECTION
  2
HEADER
  9
$ACADVER
  1
AC1009
  9
$LUNITS
 70
2
  9
$LUPREC
 70
4
  9
$LTSCALE
 40
1.0
  9
$EXTMIN
 10
-30.3177
 20
33.3285
 30
0
  9
$EXTMAX
 10
251.6749
 20
230.337
 30
0
  0
ENDSEC
  0
SECTION
  2
TABLES
  0
TABLE
  2
LTYPE
 70
256
  0
ENDTAB
  0
TABLE
  2
LAYER
 70
1
  0
LAYER
  2
LAYER_1
 70
64
 62
7
  6
CONTINUOUS
  0
ENDTAB
  0
TABLE
  2
STYLE
 70
6
  0
STYLE
  2
STANDARD
 70
0
 40
0
 50
0
 71
0
 41
0
 42
0
  3
TXT
  4
BIGFONT
  0
ENDTAB
  0
ENDSEC
  0
SECTION
  2
BLOCKS
  0
BLOCK
  8
LAYER_1
  2
AIGNBL01040009
 70
64
 10
0
 20
0
 30
0
  3
AIGNBL01040009
  0
POLYLINE
  8
LAYER_1
 40
0.05
 41
0.05
 66
1
 10
0
 20
0
 30
0
 70
1
  0
VERTEX
  8
LAYER_1
 10
105.4311
 20
39.1418
  0
VERTEX
  8
LAYER_1
 10
104.9422
 20
37.9567
  0
VERTEX
  8
LAYER_1
 10
104.3142
 20
37.9567
  0
VERTEX
  8
LAYER_1
 10
105.9137
 20
41.7225
  0
VERTEX
  8
LAYER_1
 10
106.6468
 20
41.7225
  0
VERTEX
  8
LAYER_1
 10
108.2533
 20
37.9567
  0
VERTEX
  8
LAYER_1
 10
107.6032
 20
37.9567
  0
VERTEX
  8
LAYER_1
 10
107.1006
 20
39.1418
  0
SEQEND
  0
POLYLINE
  8
LAYER_1
 40
0.05
 41
0.05
 66
1
 10
0
 20
0
 30
0
 70
1
  0
VERTEX
  8
LAYER_1
 10
106.9748
 20
39.5207
  0
VERTEX
  8
LAYER_1
 10
106.5138
 20
40.6056
  0
VERTEX
  8
LAYER_1
 10
106.2692
 20
41.2926
  0
VERTEX
  8
LAYER_1
 10
106.2555
 20
41.2926
  0
VERTEX
  8
LAYER_1
 10
106.0178
 20
40.6101
  0
VERTEX
  8
LAYER_1
 10
105.5571
 20
39.5207
  0
SEQEND
  0
ENDBLK
  0
BLOCK
  8
LAYER_1
  2
AIGNBL0104000A
 70
64
 10
0
 20
0
 30
0
  3
AIGNBL0104000A
  0
POLYLINE
  8
LAYER_1
 40
0.05
 41
0.05
 66
1
 10
0
 20
0
 30
0
 70
1
  0
VERTEX
  8
LAYER_1
 10
112.6186
 20
37.4034
 42
-0.0155848755
  0
VERTEX
  8
LAYER_1
 10
110.8164
 20
37.8395
  0
VERTEX
  8
LAYER_1
 10
110.5298
 20
37.895
 42
-0.08356944747
  0
VERTEX
  8
LAYER_1
 10
109.6658
 20
38.0612
 42
-0.0975043791
  0
VERTEX
  8
LAYER_1
 10
109.0046
 20
38.4671
 42
-0.2129077902
  0
VERTEX
  8
LAYER_1
 10
108.4559
 20
39.7998
 42
-0.0968494152
  0
VERTEX
  8
LAYER_1
 10
108.6005
 20
40.5732
 42
-0.2046438079
  0
VERTEX
  8
LAYER_1
 10
109.648
 20
41.5974
 42
-0.09824750395
  0
VERTEX
  8
LAYER_1
 10
110.649
 20
41.7838
 42
-0.08554009695
  0
VERTEX
  8
LAYER_1
 10
111.5176
 20
41.6425
 42
-0.1004336034
  0
VERTEX
  8
LAYER_1
 10
112.1827
 20
41.2483
 42
-0.2141019095
  0
VERTEX
  8
LAYER_1
 10
112.7581
 20
39.8784
 42
-0.09540850229
  0
VERTEX
  8
LAYER_1
 10
112.6192
 20
39.1106
 42
-0.2143210227
  0
VERTEX
  8
LAYER_1
 10
111.5963
 20
38.1321
 42
-0.02338900436
  0
VERTEX
  8
LAYER_1
 10
111.4172
 20
38.0738
  0
VERTEX
  8
LAYER_1
 10
111.4172
 20
38.0514
 42
0.01711211955
  0
VERTEX
  8
LAYER_1
 10
112.7936
 20
37.8113
  0
SEQEND
  0
POLYLINE
  8
LAYER_1
 40
0.05
 41
0.05
 66
1
 10
0
 20
0
 30
0
 70
1
  0
VERTEX
  8
LAYER_1
 10
112.1159
 20
39.857
 42
0.1071543648
  0
VERTEX
  8
LAYER_1
 10
111.9646
 20
40.5618
 42
0.2976507644
  0
VERTEX
  8
LAYER_1
 10
110.6276
 20
41.3873
 42
0.1072356843
  0
VERTEX
  8
LAYER_1
 10
109.9378
 20
41.2478
 42
0.2385874916
  0
VERTEX
  8
LAYER_1
 10
109.1508
 20
40.2422
 42
0.05751786988
  0
VERTEX
  8
LAYER_1
 10
109.1052
 20
39.8122
 42
0.2180663696
  0
VERTEX
  8
LAYER_1
 10
109.6358
 20
38.6168
 42
0.1772758138
  0
VERTEX
  8
LAYER_1
 10
110.5997
 20
38.2912
 42
0.1075185771
  0
VERTEX
  8
LAYER_1
 10
111.2811
 20
38.4302
 42
0.2370926009
  0
VERTEX
  8
LAYER_1
 10
112.0682
 20
39.4298
 42
0.05601310134
  0
SEQEND
  0
ENDBLK
  0
BLOCK
  8
LAYER_1
  2
AIGNBL0104000B
 70
64
 10
0
 20
0
 30
0
  3
AIGNBL0104000B
  0
POLYLINE
  8
LAYER_1
 40
0.05
 41
0.05
 66
1
 10
0
 20
0
 30
0
 70
1
  0
VERTEX
  8
LAYER_1
 10
114.0855
 20
41.7225
  0
VERTEX
  8
LAYER_1
 10
114.0855
 20
39.4932
 42
0.1145199457
  0
VERTEX
  8
LAYER_1
 10
114.2194
 20
38.8274
 42
0.1464896694
  0
VERTEX
  8
LAYER_1
 10
114.5697
 20
38.4422
 42
0.1362580474
  0
VERTEX
  8
LAYER_1
 10
115.1821
 20
38.2912
 42
0.1219300979
  0
VERTEX
  8
LAYER_1
 10
115.8052
 20
38.4259
 42
0.1503016186
  0
VERTEX
  8
LAYER_1
 10
116.177
 20
38.7949
 42
0.1256239276
  0
VERTEX
  8
LAYER_1
 10
116.3276
 20
39.4932
  0
VERTEX
  8
LAYER_1
 10
116.3276
 20
41.7225
  0
VERTEX
  8
LAYER_1
 10
116.9422
 20
41.7225
  0
VERTEX
  8
LAYER_1
 10
116.9422
 20
39.5266
 42
-0.09997665689
  0
VERTEX
  8
LAYER_1
 10
116.8073
 20
38.7839
 42
-0.1215019174
  0
VERTEX
  8
LAYER_1
 10
116.434
 20
38.2772
 42
-0.1106228669
  0
VERTEX
  8
LAYER_1
 10
115.8085
 20
37.9706
 42
-0.06128517916
  0
VERTEX
  8
LAYER_1
 10
115.161
 20
37.895
 42
-0.09418763513
  0
VERTEX
  8
LAYER_1
 10
114.3419
 20
38.0331
 42
-0.2431628294
  0
VERTEX
  8
LAYER_1
 10
113.5384
 20
38.9438
 42
-0.06320488118
  0
VERTEX
  8
LAYER_1
 10
113.4709
 20
39.5045
  0
VERTEX
  8
LAYER_1
 10
113.4709
 20
41.7225
  0
SEQEND
  0
ENDBLK
  0
BLOCK
  8
LAYER_1
  2
AIGNBL0104000C
 70
64
 10
0
 20
0
 30
0
  3
AIGNBL0104000C
  0
POLYLINE
  8
LAYER_1
 40
0.05
 41
0.05
 66
1
 10
0
 20
0
 30
0
 70
1
  0
VERTEX
  8
LAYER_1
 10
118.6885
 20
39.1418
  0
VERTEX
  8
LAYER_1
 10
118.1993
 20
37.9567
  0
VERTEX
  8
LAYER_1
 10
117.5712
 20
37.9567
  0
VERTEX
  8
LAYER_1
 10
119.1705
 20
41.7225
  0
VERTEX
  8
LAYER_1
 10
119.9036
 20
41.7225
  0
VERTEX
  8
LAYER_1
 10
121.51
 20
37.9567
  0
VERTEX
  8
LAYER_1
 10
120.8606
 20
37.9567
  0
VERTEX
  8
LAYER_1
 10
120.358
 20
39.1418
  0
SEQEND
  0
POLYLINE
  8
LAYER_1
 40
0.05
 41
0.05
 66
1
 10
0
 20
0
 30
0
 70
1
  0
VERTEX
  8
LAYER_1
 10
120.2319
 20
39.5207
  0
VERTEX
  8
LAYER_1
 10
119.7706
 20
40.6056
  0
VERTEX
  8
LAYER_1
 10
119.526
 20
41.2926
  0
VERTEX
  8
LAYER_1
 10
119.5122
 20
41.2926
  0
VERTEX
  8
LAYER_1
 10
119.2748
 20
40.6101
  0
VERTEX
  8
LAYER_1
 10
118.8139
 20
39.5207
  0
SEQEND
  0
ENDBLK
  0
BLOCK
  8
LAYER_1
  2
AIGNBL0104000D
 70
64
 10
0
 20
0
 30
0
  3
AIGNBL0104000D
  0
POLYLINE
  8
LAYER_1
 40
0.05
 41
0.05
 66
1
 10
0
 20
0
 30
0
 70
1
  0
VERTEX
  8
LAYER_1
 10
122.5508
 20
41.6777
 42
-0.03246092253
  0
VERTEX
  8
LAYER_1
 10
123.7176
 20
41.7508
 42
-0.08084549745
  0
VERTEX
  8
LAYER_1
 10
124.6741
 20
41.619
 42
-0.07819914268
  0
VERTEX
  8
LAYER_1
 10
125.0374
 20
41.4379
 42
-0.2484709269
  0
VERTEX
  8
LAYER_1
 10
125.4491
 20
40.6497
 42
-0.226147
  0
VERTEX
  8
LAYER_1
 10
125.086
 20
39.8456
 42
-0.109727648
  0
VERTEX
  8
LAYER_1
 10
124.4577
 20
39.5323
 42
-0.06565380896
  0
VERTEX
  8
LAYER_1
 10
123.6473
 20
39.4319
 42
-0.06238309955
  0
VERTEX
  8
LAYER_1
 10
123.1588
 20
39.4653
  0
VERTEX
  8
LAYER_1
 10
123.1588
 20
37.9567
  0
VERTEX
  8
LAYER_1
 10
122.5508
 20
37.9567
  0
SEQEND
  0
POLYLINE
  8
LAYER_1
 40
0.05
 41
0.05
 66
1
 10
0
 20
0
 30
0
 70
1
  0
VERTEX
  8
LAYER_1
 10
123.1588
 20
39.8622
 42
0.04203451964
  0
VERTEX
  8
LAYER_1
 10
123.6611
 20
39.8229
 42
0.1032111168
  0
VERTEX
  8
LAYER_1
 10
124.3803
 20
39.9502
 42
0.1555938032
  0
VERTEX
  8
LAYER_1
 10
124.7451
 20
40.2546
 42
0.1352673748
  0
VERTEX
  8
LAYER_1
 10
124.8421
 20
40.6273
 42
0.1737047371
  0
VERTEX
  8
LAYER_1
 10
124.7073
 20
41.0346
 42
0.1517050813
  0
VERTEX
  8
LAYER_1
 10
124.2862
 20
41.2941
 42
0.06879756253
  0
VERTEX
  8
LAYER_1
 10
123.7317
 20
41.3649
 42
0.06336983159
  0
VERTEX
  8
LAYER_1
 10
123.1588
 20
41.3257
  0
SEQEND
  0
ENDBLK
  0
BLOCK
  8
LAYER_1
  2
AIGNBL0104000E
 70
64
 10
0
 20
0
 30
0
  3
AIGNBL0104000E
  0
POLYLINE
  8
LAYER_1
 40
0.05
 41
0.05
 66
1
 10
0
 20
0
 30
0
 70
1
  0
VERTEX
  8
LAYER_1
 10
127.0011
 20
41.4207
 42
-0.2767461975
  0
VERTEX
  8
LAYER_1
 10
126.8616
 20
41.1806
 42
-0.1265294091
  0
VERTEX
  8
LAYER_1
 10
126.6094
 20
41.1189
 42
-0.2237518698
  0
VERTEX
  8
LAYER_1
 10
126.2991
 20
41.2513
 42
-0.1708341408
  0
VERTEX
  8
LAYER_1
 10
126.2391
 20
41.4207
 42
-0.2643879937
  0
VERTEX
  8
LAYER_1
 10
126.3885
 20
41.6678
 42
-0.1290073663
  0
VERTEX
  8
LAYER_1
 10
126.6232
 20
41.7277
 42
-0.225342086
  0
VERTEX
  8
LAYER_1
 10
126.94
 20
41.597
 42
-0.1691136206
  0
SEQEND
  0
POLYLINE
  8
LAYER_1
 40
0.05
 41
0.05
 66
1
 10
0
 20
0
 30
0
 70
1
  0
VERTEX
  8
LAYER_1
 10
126.3156
 20
37.9567
  0
VERTEX
  8
LAYER_1
 10
126.3156
 20
40.6607
  0
VERTEX
  8
LAYER_1
 10
126.9302
 20
40.6607
  0
VERTEX
  8
LAYER_1
 10
126.9302
 20
37.9567
  0
SEQEND
  0
ENDBLK
  0
BLOCK
  8
LAYER_1
  2
AIGNBL0104000F
 70
64
 10
0
 20
0
 30
0
  3
AIGNBL0104000F
  0
POLYLINE
  8
LAYER_1
 40
0.05
 41
0.05
 66
1
 10
0
 20
0
 30
0
 70
1
  0
VERTEX
  8
LAYER_1
 10
128.8019
 20
39.1418
  0
VERTEX
  8
LAYER_1
 10
128.3137
 20
37.9567
  0
VERTEX
  8
LAYER_1
 10
127.6846
 20
37.9567
  0
VERTEX
  8
LAYER_1
 10
129.2842
 20
41.7225
  0
VERTEX
  8
LAYER_1
 10
130.018
 20
41.7225
  0
VERTEX
  8
LAYER_1
 10
131.6245
 20
37.9567
  0
VERTEX
  8
LAYER_1
 10
130.9747
 20
37.9567
  0
VERTEX
  8
LAYER_1
 10
130.4721
 20
39.1418
  0
SEQEND
  0
POLYLINE
  8
LAYER_1
 40
0.05
 41
0.05
 66
1
 10
0
 20
0
 30
0
 70
1
  0
VERTEX
  8
LAYER_1
 10
130.346
 20
39.5207
  0
VERTEX
  8
LAYER_1
 10
129.885
 20
40.6056
  0
VERTEX
  8
LAYER_1
 10
129.6411
 20
41.2926
  0
VERTEX
  8
LAYER_1
 10
129.6263
 20
41.2926
  0
VERTEX
  8
LAYER_1
 10
129.3893
 20
40.6101
  0
VERTEX
  8
LAYER_1
 10
128.9283
 20
39.5207
  0
SEQEND
  0
ENDBLK
  0
BLOCK
  8
LAYER_1
  2
AIGNBL01030008
 70
64
 10
0
 20
0
 30
0
  3
AIGNBL01030008
  0
INSERT
  8
LAYER_1
  2
AIGNBL01040009
 10
0
 20
0
 30
0
  0
INSERT
  8
LAYER_1
  2
AIGNBL0104000A
 10
0
 20
0
 30
0
  0
INSERT
  8
LAYER_1
  2
AIGNBL0104000B
 10
0
 20
0
 30
0
  0
INSERT
  8
LAYER_1
  2
AIGNBL0104000C
 10
0
 20
0
 30
0
  0
INSERT
  8
LAYER_1
  2
AIGNBL0104000D
 10
0
 20
0
 30
0
  0
INSERT
  8
LAYER_1
  2
AIGNBL0104000E
 10
0
 20
0
 30
0
  0
INSERT
  8
LAYER_1
  2
AIGNBL0104000F
 10
0
 20
0
 30
0
  0
ENDBLK
  0
BLOCK
  8
LAYER_1
  2
AIGNBL01030011
 70
64
 10
0
 20
0
 30
0
  3
AIGNBL01030011
  0
POLYLINE
  8
LAYER_1
 40
0.05
 41
0.05
 66
1
 10
0
 20
0
 30
0
 70
1
  0
VERTEX
  8
LAYER_1
 10
104.4241
 20
36.0574
  0
VERTEX
  8
LAYER_1
 10
104.9773
 20
36.0574
  0
VERTEX
  8
LAYER_1
 10
104.9773
 20
35.9637
  0
VERTEX
  8
LAYER_1
 10
104.319
 20
35.9637
  0
VERTEX
  8
LAYER_1
 10
104.319
 20
36.9969
  0
VERTEX
  8
LAYER_1
 10
104.9598
 20
36.9969
  0
VERTEX
  8
LAYER_1
 10
104.9598
 20
36.9035
  0
VERTEX
  8
LAYER_1
 10
104.4241
 20
36.9035
  0
VERTEX
  8
LAYER_1
 10
104.4241
 20
36.549
  0
VERTEX
  8
LAYER_1
 10
104.9246
 20
36.549
  0
VERTEX
  8
LAYER_1
 10
104.9246
 20
36.4557
  0
VERTEX
  8
LAYER_1
 10
104.4241
 20
36.4557
  0
SEQEND
  0
ENDBLK
  0
BLOCK
  8
LAYER_1
  2
AIGNBL01030012
 70
64
 10
0
 20
0
 30
0
  3
AIGNBL01030012
  0
POLYLINE
  8
LAYER_1
 40
0.05
 41
0.05
 66
1
 10
0
 20
0
 30
0
 70
1
  0
VERTEX
  8
LAYER_1
 10
106.117
 20
36.117
  0
VERTEX
  8
LAYER_1
 10
106.1197
 20
36.117
  0
VERTEX
  8
LAYER_1
 10
106.1197
 20
36.9969
  0
VERTEX
  8
LAYER_1
 10
106.2248
 20
36.9969
  0
VERTEX
  8
LAYER_1
 10
106.2248
 20
35.9637
  0
VERTEX
  8
LAYER_1
 10
106.0939
 20
35.9637
  0
VERTEX
  8
LAYER_1
 10
105.4927
 20
36.8525
  0
VERTEX
  8
LAYER_1
 10
105.4893
 20
36.8525
  0
VERTEX
  8
LAYER_1
 10
105.4893
 20
35.9637
  0
VERTEX
  8
LAYER_1
 10
105.3845
 20
35.9637
  0
VERTEX
  8
LAYER_1
 10
105.3845
 20
36.9969
  0
VERTEX
  8
LAYER_1
 10
105.5158
 20
36.9969
  0
SEQEND
  0
ENDBLK
  0
BLOCK
  8
LAYER_1
  2
AIGNBL01030013
 70
64
 10
0
 20
0
 30
0
  3
AIGNBL01030013
  0
POLYLINE
  8
LAYER_1
 40
0.05
 41
0.05
 66
1
 10
0
 20
0
 30
0
 70
1
  0
VERTEX
  8
LAYER_1
 10
106.6978
 20
36.1756
  0
VERTEX
  8
LAYER_1
 10
106.7523
 20
36.0725
 42
0.1804993832
  0
VERTEX
  8
LAYER_1
 10
106.8656
 20
36.0309
  0
VERTEX
  8
LAYER_1
 10
106.9548
 20
36.0505
  0
VERTEX
  8
LAYER_1
 10
107.011
 20
36.1039
  0
VERTEX
  8
LAYER_1
 10
107.0399
 20
36.1804
  0
VERTEX
  8
LAYER_1
 10
107.0482
 20
36.27
  0
VERTEX
  8
LAYER_1
 10
107.0482
 20
36.9969
  0
VERTEX
  8
LAYER_1
 10
107.1533
 20
36.9969
  0
VERTEX
  8
LAYER_1
 10
107.1533
 20
36.2614
  0
VERTEX
  8
LAYER_1
 10
107.1419
 20
36.1535
  0
VERTEX
  8
LAYER_1
 10
107.1006
 20
36.0485
  0
VERTEX
  8
LAYER_1
 10
107.0158
 20
35.9689
  0
VERTEX
  8
LAYER_1
 10
106.877
 20
35.9375
 42
-0.1845892347
  0
VERTEX
  8
LAYER_1
 10
106.6923
 20
35.9974
 42
-0.176191571
  0
VERTEX
  8
LAYER_1
 10
106.6
 20
36.149
  0
SEQEND
  0
ENDBLK
  0
BLOCK
  8
LAYER_1
  2
AIGNBL01030014
 70
64
 10
0
 20
0
 30
0
  3
AIGNBL01030014
  0
POLYLINE
  8
LAYER_1
 40
0.05
 41
0.05
 66
1
 10
0
 20
0
 30
0
 70
1
  0
VERTEX
  8
LAYER_1
 10
108.6416
 20
36.4805
 42
-0.10394313
  0
VERTEX
  8
LAYER_1
 10
108.6005
 20
36.2631
 42
-0.1002538824
  0
VERTEX
  8
LAYER_1
 10
108.4879
 20
36.0915
  0
VERTEX
  8
LAYER_1
 10
108.317
 20
35.9785
 42
-0.09506675375
  0
VERTEX
  8
LAYER_1
 10
108.1031
 20
35.9375
 42
-0.1010866674
  0
VERTEX
  8
LAYER_1
 10
107.8895
 20
35.9785
 42
-0.1005668876
  0
VERTEX
  8
LAYER_1
 10
107.7186
 20
36.0915
 42
-0.09506076213
  0
VERTEX
  8
LAYER_1
 10
107.6053
 20
36.2631
 42
-0.09316585798
  0
VERTEX
  8
LAYER_1
 10
107.5646
 20
36.4805
 42
-0.1029152058
  0
VERTEX
  8
LAYER_1
 10
107.6053
 20
36.6978
 42
-0.1008913794
  0
VERTEX
  8
LAYER_1
 10
107.7186
 20
36.8694
 42
-0.09625543395
  0
VERTEX
  8
LAYER_1
 10
107.8895
 20
36.9824
 42
-0.09521573462
  0
VERTEX
  8
LAYER_1
 10
108.1031
 20
37.0234
 42
-0.101175466
  0
VERTEX
  8
LAYER_1
 10
108.317
 20
36.9824
 42
-0.09853409661
  0
VERTEX
  8
LAYER_1
 10
108.4879
 20
36.8694
 42
-0.09556553869
  0
VERTEX
  8
LAYER_1
 10
108.6005
 20
36.6978
 42
-0.09420719768
  0
SEQEND
  0
POLYLINE
  8
LAYER_1
 40
0.05
 41
0.05
 66
1
 10
0
 20
0
 30
0
 70
1
  0
VERTEX
  8
LAYER_1
 10
108.5306
 20
36.4798
  0
VERTEX
  8
LAYER_1
 10
108.5017
 20
36.6517
  0
VERTEX
  8
LAYER_1
 10
108.4169
 20
36.795
  0
VERTEX
  8
LAYER_1
 10
108.2819
 20
36.8932
  0
VERTEX
  8
LAYER_1
 10
108.1031
 20
36.93
  0
VERTEX
  8
LAYER_1
 10
107.9243
 20
36.8932
  0
VERTEX
  8
LAYER_1
 10
107.7896
 20
36.795
  0
VERTEX
  8
LAYER_1
 10
107.7048
 20
36.6517
  0
VERTEX
  8
LAYER_1
 10
107.6755
 20
36.4798
  0
VERTEX
  8
LAYER_1
 10
107.7048
 20
36.3079
  0
VERTEX
  8
LAYER_1
 10
107.7896
 20
36.1649
  0
VERTEX
  8
LAYER_1
 10
107.9243
 20
36.0674
 42
0.1008280473
  0
VERTEX
  8
LAYER_1
 10
108.1031
 20
36.0309
  0
VERTEX
  8
LAYER_1
 10
108.2819
 20
36.0674
  0
VERTEX
  8
LAYER_1
 10
108.4169
 20
36.1649
  0
VERTEX
  8
LAYER_1
 10
108.5017
 20
36.3079
  0
SEQEND
  0
ENDBLK
  0
BLOCK
  8
LAYER_1
  2
AIGNBL01030015
 70
64
 10
0
 20
0
 30
0
  3
AIGNBL01030015
  0
POLYLINE
  8
LAYER_1
 40
0.05
 41
0.05
 66
1
 10
0
 20
0
 30
0
 70
1
  0
VERTEX
  8
LAYER_1
 10
109.4163
 20
35.9637
  0
VERTEX
  8
LAYER_1
 10
109.3116
 20
35.9637
  0
VERTEX
  8
LAYER_1
 10
109.3116
 20
36.4091
  0
VERTEX
  8
LAYER_1
 10
108.9247
 20
36.9969
  0
VERTEX
  8
LAYER_1
 10
109.056
 20
36.9969
  0
VERTEX
  8
LAYER_1
 10
109.3671
 20
36.4967
  0
VERTEX
  8
LAYER_1
 10
109.6806
 20
36.9969
  0
VERTEX
  8
LAYER_1
 10
109.8029
 20
36.9969
  0
VERTEX
  8
LAYER_1
 10
109.4163
 20
36.4091
  0
SEQEND
  0
ENDBLK
  0
BLOCK
  8
LAYER_1
  2
AIGNBL01030016
 70
64
 10
0
 20
0
 30
0
  3
AIGNBL01030016
  0
POLYLINE
  8
LAYER_1
 40
0.05
 41
0.05
 66
1
 10
0
 20
0
 30
0
 70
1
  0
VERTEX
  8
LAYER_1
 10
110.7079
 20
36.9969
  0
VERTEX
  8
LAYER_1
 10
111.0155
 20
36.9969
  0
VERTEX
  8
LAYER_1
 10
111.1341
 20
36.9845
  0
VERTEX
  8
LAYER_1
 10
111.2409
 20
36.9421
  0
VERTEX
  8
LAYER_1
 10
111.3187
 20
36.8611
  0
VERTEX
  8
LAYER_1
 10
111.3483
 20
36.733
 42
-0.1790346201
  0
VERTEX
  8
LAYER_1
 10
111.2984
 20
36.5907
 42
-0.1642259289
  0
VERTEX
  8
LAYER_1
 10
111.1651
 20
36.5111
  0
VERTEX
  8
LAYER_1
 10
111.1651
 20
36.5084
 42
-0.1734673322
  0
VERTEX
  8
LAYER_1
 10
111.3318
 20
36.4302
 42
-0.1921994171
  0
VERTEX
  8
LAYER_1
 10
111.3979
 20
36.2496
  0
VERTEX
  8
LAYER_1
 10
111.3708
 20
36.1325
  0
VERTEX
  8
LAYER_1
 10
111.2946
 20
36.0419
  0
VERTEX
  8
LAYER_1
 10
111.1737
 20
35.9844
  0
VERTEX
  8
LAYER_1
 10
111.0138
 20
35.9637
  0
VERTEX
  8
LAYER_1
 10
110.7079
 20
35.9637
  0
SEQEND
  0
POLYLINE
  8
LAYER_1
 40
0.05
 41
0.05
 66
1
 10
0
 20
0
 30
0
 70
1
  0
VERTEX
  8
LAYER_1
 10
110.813
 20
36.5445
  0
VERTEX
  8
LAYER_1
 10
111.0245
 20
36.5445
  0
VERTEX
  8
LAYER_1
 10
111.1013
 20
36.5535
  0
VERTEX
  8
LAYER_1
 10
111.1716
 20
36.5831
  0
VERTEX
  8
LAYER_1
 10
111.2236
 20
36.6396
  0
VERTEX
  8
LAYER_1
 10
111.2433
 20
36.7258
  0
VERTEX
  8
LAYER_1
 10
111.2236
 20
36.8095
  0
VERTEX
  8
LAYER_1
 10
111.1706
 20
36.8656
  0
VERTEX
  8
LAYER_1
 10
111.0917
 20
36.897
  0
VERTEX
  8
LAYER_1
 10
110.9952
 20
36.9066
  0
VERTEX
  8
LAYER_1
 10
110.813
 20
36.9066
  0
SEQEND
  0
POLYLINE
  8
LAYER_1
 40
0.05
 41
0.05
 66
1
 10
0
 20
0
 30
0
 70
1
  0
VERTEX
  8
LAYER_1
 10
110.813
 20
36.0543
  0
VERTEX
  8
LAYER_1
 10
111.0087
 20
36.0543
  0
VERTEX
  8
LAYER_1
 10
111.1172
 20
36.0653
  0
VERTEX
  8
LAYER_1
 10
111.2078
 20
36.1001
  0
VERTEX
  8
LAYER_1
 10
111.2695
 20
36.1632
  0
VERTEX
  8
LAYER_1
 10
111.2929
 20
36.2559
 42
0.2557371221
  0
VERTEX
  8
LAYER_1
 10
111.2236
 20
36.4081
 42
0.1381508151
  0
VERTEX
  8
LAYER_1
 10
111.0276
 20
36.4584
  0
VERTEX
  8
LAYER_1
 10
110.813
 20
36.4584
  0
SEQEND
  0
ENDBLK
  0
BLOCK
  8
LAYER_1
  2
AIGNBL01030017
 70
64
 10
0
 20
0
 30
0
  3
AIGNBL01030017
  0
POLYLINE
  8
LAYER_1
 40
0.05
 41
0.05
 66
1
 10
0
 20
0
 30
0
 70
1
  0
VERTEX
  8
LAYER_1
 10
111.83
 20
35.9637
  0
VERTEX
  8
LAYER_1
 10
111.7146
 20
35.9637
  0
VERTEX
  8
LAYER_1
 10
112.1614
 20
36.9969
  0
VERTEX
  8
LAYER_1
 10
112.2637
 20
36.9969
  0
VERTEX
  8
LAYER_1
 10
112.7071
 20
35.9637
  0
VERTEX
  8
LAYER_1
 10
112.5903
 20
35.9637
  0
VERTEX
  8
LAYER_1
 10
112.4763
 20
36.2352
  0
VERTEX
  8
LAYER_1
 10
111.9423
 20
36.2352
  0
SEQEND
  0
POLYLINE
  8
LAYER_1
 40
0.05
 41
0.05
 66
1
 10
0
 20
0
 30
0
 70
1
  0
VERTEX
  8
LAYER_1
 10
111.9815
 20
36.3316
  0
VERTEX
  8
LAYER_1
 10
112.437
 20
36.3316
  0
VERTEX
  8
LAYER_1
 10
112.2093
 20
36.8804
  0
SEQEND
  0
ENDBLK
  0
BLOCK
  8
LAYER_1
  2
AIGNBL01030018
 70
64
 10
0
 20
0
 30
0
  3
AIGNBL01030018
  0
POLYLINE
  8
LAYER_1
 40
0.05
 41
0.05
 66
1
 10
0
 20
0
 30
0
 70
1
  0
VERTEX
  8
LAYER_1
 10
113.3916
 20
35.9637
  0
VERTEX
  8
LAYER_1
 10
113.2865
 20
35.9637
  0
VERTEX
  8
LAYER_1
 10
113.2865
 20
36.9035
  0
VERTEX
  8
LAYER_1
 10
112.9403
 20
36.9035
  0
VERTEX
  8
LAYER_1
 10
112.9403
 20
36.9969
  0
VERTEX
  8
LAYER_1
 10
113.7372
 20
36.9969
  0
VERTEX
  8
LAYER_1
 10
113.7372
 20
36.9035
  0
VERTEX
  8
LAYER_1
 10
113.3916
 20
36.9035
  0
SEQEND
  0
ENDBLK
  0
BLOCK
  8
LAYER_1
  2
AIGNBL01030019
 70
64
 10
0
 20
0
 30
0
  3
AIGNBL01030019
  0
POLYLINE
  8
LAYER_1
 40
0.05
 41
0.05
 66
1
 10
0
 20
0
 30
0
 70
1
  0
VERTEX
  8
LAYER_1
 10
114.0934
 20
36.9969
  0
VERTEX
  8
LAYER_1
 10
114.1981
 20
36.9969
  0
VERTEX
  8
LAYER_1
 10
114.1981
 20
36.549
  0
VERTEX
  8
LAYER_1
 10
114.7618
 20
36.549
  0
VERTEX
  8
LAYER_1
 10
114.7618
 20
36.9969
  0
VERTEX
  8
LAYER_1
 10
114.8668
 20
36.9969
  0
VERTEX
  8
LAYER_1
 10
114.8668
 20
35.9637
  0
VERTEX
  8
LAYER_1
 10
114.7618
 20
35.9637
  0
VERTEX
  8
LAYER_1
 10
114.7618
 20
36.4529
  0
VERTEX
  8
LAYER_1
 10
114.1981
 20
36.4529
  0
VERTEX
  8
LAYER_1
 10
114.1981
 20
35.9637
  0
VERTEX
  8
LAYER_1
 10
114.0934
 20
35.9637
  0
SEQEND
  0
ENDBLK
  0
BLOCK
  8
LAYER_1
  2
AIGNBL0103001A
 70
64
 10
0
 20
0
 30
0
  3
AIGNBL0103001A
  0
POLYLINE
  8
LAYER_1
 40
0.05
 41
0.05
 66
1
 10
0
 20
0
 30
0
 70
1
  0
VERTEX
  8
LAYER_1
 10
115.4473
 20
35.9637
  0
VERTEX
  8
LAYER_1
 10
115.3423
 20
35.9637
  0
VERTEX
  8
LAYER_1
 10
115.3423
 20
36.9969
  0
VERTEX
  8
LAYER_1
 10
115.6461
 20
36.9969
  0
VERTEX
  8
LAYER_1
 10
115.7867
 20
36.9824
  0
VERTEX
  8
LAYER_1
 10
115.8993
 20
36.9349
  0
VERTEX
  8
LAYER_1
 10
115.9727
 20
36.8494
  0
VERTEX
  8
LAYER_1
 10
115.9989
 20
36.7213
  0
VERTEX
  8
LAYER_1
 10
115.9789
 20
36.6176
  0
VERTEX
  8
LAYER_1
 10
115.9235
 20
36.5366
  0
VERTEX
  8
LAYER_1
 10
115.8401
 20
36.4818
  0
VERTEX
  8
LAYER_1
 10
115.735
 20
36.4557
  0
VERTEX
  8
LAYER_1
 10
116.0371
 20
35.9637
  0
VERTEX
  8
LAYER_1
 10
115.9086
 20
35.9637
  0
VERTEX
  8
LAYER_1
 10
115.6227
 20
36.4467
  0
VERTEX
  8
LAYER_1
 10
115.4473
 20
36.4467
  0
SEQEND
  0
POLYLINE
  8
LAYER_1
 40
0.05
 41
0.05
 66
1
 10
0
 20
0
 30
0
 70
1
  0
VERTEX
  8
LAYER_1
 10
115.4473
 20
36.5373
  0
VERTEX
  8
LAYER_1
 10
115.6299
 20
36.5373
 42
0.1654500383
  0
VERTEX
  8
LAYER_1
 10
115.8256
 20
36.5831
 42
0.2503949893
  0
VERTEX
  8
LAYER_1
 10
115.8942
 20
36.7213
  0
VERTEX
  8
LAYER_1
 10
115.8749
 20
36.8071
  0
VERTEX
  8
LAYER_1
 10
115.8225
 20
36.8643
  0
VERTEX
  8
LAYER_1
 10
115.7409
 20
36.8963
  0
VERTEX
  8
LAYER_1
 10
115.6344
 20
36.9066
  0
VERTEX
  8
LAYER_1
 10
115.4473
 20
36.9066
  0
SEQEND
  0
ENDBLK
  0
BLOCK
  8
LAYER_1
  2
AIGNBL0103001B
 70
64
 10
0
 20
0
 30
0
  3
AIGNBL0103001B
  0
POLYLINE
  8
LAYER_1
 40
0.05
 41
0.05
 66
1
 10
0
 20
0
 30
0
 70
1
  0
VERTEX
  8
LAYER_1
 10
117.4393
 20
36.4805
 42
-0.1005163161
  0
VERTEX
  8
LAYER_1
 10
117.3986
 20
36.2631
 42
-0.1003846159
  0
VERTEX
  8
LAYER_1
 10
117.2853
 20
36.0915
 42
-0.09584766738
  0
VERTEX
  8
LAYER_1
 10
117.1147
 20
35.9785
 42
-0.09506713234
  0
VERTEX
  8
LAYER_1
 10
116.9008
 20
35.9375
 42
-0.101175466
  0
VERTEX
  8
LAYER_1
 10
116.6869
 20
35.9785
 42
-0.09967088569
  0
VERTEX
  8
LAYER_1
 10
116.5163
 20
36.0915
 42
-0.09574135652
  0
VERTEX
  8
LAYER_1
 10
116.4033
 20
36.2631
 42
-0.09293305267
  0
VERTEX
  8
LAYER_1
 10
116.3627
 20
36.4805
 42
-0.1024980643
  0
VERTEX
  8
LAYER_1
 10
116.4033
 20
36.6978
 42
-0.1015030268
  0
VERTEX
  8
LAYER_1
 10
116.5163
 20
36.8694
 42
-0.09577113234
  0
VERTEX
  8
LAYER_1
 10
116.6869
 20
36.9824
 42
-0.09506675375
  0
VERTEX
  8
LAYER_1
 10
116.9008
 20
37.0234
 42
-0.1014233705
  0
VERTEX
  8
LAYER_1
 10
117.1147
 20
36.9824
 42
-0.1017041996
  0
VERTEX
  8
LAYER_1
 10
117.2853
 20
36.8694
 42
-0.09506500802
  0
VERTEX
  8
LAYER_1
 10
117.3986
 20
36.6978
 42
-0.09299771213
  0
SEQEND
  0
POLYLINE
  8
LAYER_1
 40
0.05
 41
0.05
 66
1
 10
0
 20
0
 30
0
 70
1
  0
VERTEX
  8
LAYER_1
 10
117.3284
 20
36.4798
  0
VERTEX
  8
LAYER_1
 10
117.2991
 20
36.6517
  0
VERTEX
  8
LAYER_1
 10
117.2143
 20
36.795
  0
VERTEX
  8
LAYER_1
 10
117.0796
 20
36.8932
  0
VERTEX
  8
LAYER_1
 10
116.9008
 20
36.93
  0
VERTEX
  8
LAYER_1
 10
116.722
 20
36.8932
  0
VERTEX
  8
LAYER_1
 10
116.587
 20
36.795
  0
VERTEX
  8
LAYER_1
 10
116.5022
 20
36.6517
  0
VERTEX
  8
LAYER_1
 10
116.4733
 20
36.4798
  0
VERTEX
  8
LAYER_1
 10
116.5022
 20
36.3079
  0
VERTEX
  8
LAYER_1
 10
116.587
 20
36.1649
  0
VERTEX
  8
LAYER_1
 10
116.722
 20
36.0674
  0
VERTEX
  8
LAYER_1
 10
116.9008
 20
36.0309
 42
0.1157330551
  0
VERTEX
  8
LAYER_1
 10
117.0796
 20
36.0674
  0
VERTEX
  8
LAYER_1
 10
117.2143
 20
36.1649
  0
VERTEX
  8
LAYER_1
 10
117.2991
 20
36.3079
  0
SEQEND
  0
ENDBLK
  0
BLOCK
  8
LAYER_1
  2
AIGNBL0103001C
 70
64
 10
0
 20
0
 30
0
  3
AIGNBL0103001C
  0
POLYLINE
  8
LAYER_1
 40
0.05
 41
0.05
 66
1
 10
0
 20
0
 30
0
 70
1
  0
VERTEX
  8
LAYER_1
 10
118.881
 20
36.4805
 42
-0.1041417444
  0
VERTEX
  8
LAYER_1
 10
118.84
 20
36.2631
 42
-0.1002538824
  0
VERTEX
  8
LAYER_1
 10
118.7274
 20
36.0915
 42
-0.09536265516
  0
VERTEX
  8
LAYER_1
 10
118.5565
 20
35.9785
 42
-0.09506675375
  0
VERTEX
  8
LAYER_1
 10
118.3426
 20
35.9375
 42
-0.101822328
  0
VERTEX
  8
LAYER_1
 10
118.129
 20
35.9785
 42
-0.102112669
  0
VERTEX
  8
LAYER_1
 10
117.9581
 20
36.0915
 42
-0.09462334812
  0
VERTEX
  8
LAYER_1
 10
117.8447
 20
36.2631
 42
-0.09290316602
  0
VERTEX
  8
LAYER_1
 10
117.8041
 20
36.4805
 42
-0.1018782207
  0
VERTEX
  8
LAYER_1
 10
117.8447
 20
36.6978
 42
-0.1006850025
  0
VERTEX
  8
LAYER_1
 10
117.9581
 20
36.8694
 42
-0.09625543395
  0
VERTEX
  8
LAYER_1
 10
118.129
 20
36.9824
 42
-0.09528409444
  0
VERTEX
  8
LAYER_1
 10
118.3426
 20
37.0234
 42
-0.101175466
  0
VERTEX
  8
LAYER_1
 10
118.5565
 20
36.9824
 42
-0.09853409661
  0
VERTEX
  8
LAYER_1
 10
118.7274
 20
36.8694
 42
-0.09556553869
  0
VERTEX
  8
LAYER_1
 10
118.84
 20
36.6978
 42
-0.09400765476
  0
SEQEND
  0
POLYLINE
  8
LAYER_1
 40
0.05
 41
0.05
 66
1
 10
0
 20
0
 30
0
 70
1
  0
VERTEX
  8
LAYER_1
 10
118.7701
 20
36.4798
  0
VERTEX
  8
LAYER_1
 10
118.7412
 20
36.6517
  0
VERTEX
  8
LAYER_1
 10
118.6564
 20
36.795
  0
VERTEX
  8
LAYER_1
 10
118.5214
 20
36.8932
  0
VERTEX
  8
LAYER_1
 10
118.3426
 20
36.93
  0
VERTEX
  8
LAYER_1
 10
118.1638
 20
36.8932
  0
VERTEX
  8
LAYER_1
 10
118.0291
 20
36.795
  0
VERTEX
  8
LAYER_1
 10
117.9443
 20
36.6517
  0
VERTEX
  8
LAYER_1
 10
117.9151
 20
36.4798
  0
VERTEX
  8
LAYER_1
 10
117.9443
 20
36.3079
  0
VERTEX
  8
LAYER_1
 10
118.0291
 20
36.1649
  0
VERTEX
  8
LAYER_1
 10
118.1638
 20
36.0674
 42
0.1008280473
  0
VERTEX
  8
LAYER_1
 10
118.3426
 20
36.0309
  0
VERTEX
  8
LAYER_1
 10
118.5214
 20
36.0674
  0
VERTEX
  8
LAYER_1
 10
118.6564
 20
36.1649
  0
VERTEX
  8
LAYER_1
 10
118.7412
 20
36.3079
  0
SEQEND
  0
ENDBLK
  0
BLOCK
  8
LAYER_1
  2
AIGNBL0103001D
 70
64
 10
0
 20
0
 30
0
  3
AIGNBL0103001D
  0
POLYLINE
  8
LAYER_1
 40
0.05
 41
0.05
 66
1
 10
0
 20
0
 30
0
 70
1
  0
VERTEX
  8
LAYER_1
 10
119.8119
 20
36.1418
  0
VERTEX
  8
LAYER_1
 10
119.8136
 20
36.1418
  0
VERTEX
  8
LAYER_1
 10
120.1592
 20
36.9969
  0
VERTEX
  8
LAYER_1
 10
120.3201
 20
36.9969
  0
VERTEX
  8
LAYER_1
 10
120.3201
 20
35.9637
  0
VERTEX
  8
LAYER_1
 10
120.2146
 20
35.9637
  0
VERTEX
  8
LAYER_1
 10
120.2146
 20
36.8611
  0
VERTEX
  8
LAYER_1
 10
120.2119
 20
36.8611
  0
VERTEX
  8
LAYER_1
 10
119.8384
 20
35.9637
  0
VERTEX
  8
LAYER_1
 10
119.783
 20
35.9637
  0
VERTEX
  8
LAYER_1
 10
119.4092
 20
36.8611
  0
VERTEX
  8
LAYER_1
 10
119.4064
 20
36.8611
  0
VERTEX
  8
LAYER_1
 10
119.4064
 20
35.9637
  0
VERTEX
  8
LAYER_1
 10
119.3014
 20
35.9637
  0
VERTEX
  8
LAYER_1
 10
119.3014
 20
36.9969
  0
VERTEX
  8
LAYER_1
 10
119.4619
 20
36.9969
  0
SEQEND
  0
ENDBLK
  0
BLOCK
  8
LAYER_1
  2
AIGNBL0103001E
 70
64
 10
0
 20
0
 30
0
  3
AIGNBL0103001E
  0
POLYLINE
  8
LAYER_1
 40
0.05
 41
0.05
 66
1
 10
0
 20
0
 30
0
 70
1
  0
VERTEX
  8
LAYER_1
 10
121.4666
 20
36.0574
  0
VERTEX
  8
LAYER_1
 10
122.0199
 20
36.0574
  0
VERTEX
  8
LAYER_1
 10
122.0199
 20
35.9637
  0
VERTEX
  8
LAYER_1
 10
121.3615
 20
35.9637
  0
VERTEX
  8
LAYER_1
 10
121.3615
 20
36.9969
  0
VERTEX
  8
LAYER_1
 10
122.0023
 20
36.9969
  0
VERTEX
  8
LAYER_1
 10
122.0023
 20
36.9035
  0
VERTEX
  8
LAYER_1
 10
121.4666
 20
36.9035
  0
VERTEX
  8
LAYER_1
 10
121.4666
 20
36.549
  0
VERTEX
  8
LAYER_1
 10
121.9672
 20
36.549
  0
VERTEX
  8
LAYER_1
 10
121.9672
 20
36.4557
  0
VERTEX
  8
LAYER_1
 10
121.4666
 20
36.4557
  0
SEQEND
  0
ENDBLK
  0
BLOCK
  8
LAYER_1
  2
AIGNBL0103001F
 70
64
 10
0
 20
0
 30
0
  3
AIGNBL0103001F
  0
POLYLINE
  8
LAYER_1
 40
0.05
 41
0.05
 66
1
 10
0
 20
0
 30
0
 70
1
  0
VERTEX
  8
LAYER_1
 10
122.765
 20
36.5797
  0
VERTEX
  8
LAYER_1
 10
123.0472
 20
36.9969
  0
VERTEX
  8
LAYER_1
 10
123.1723
 20
36.9969
  0
VERTEX
  8
LAYER_1
 10
122.8298
 20
36.5053
  0
VERTEX
  8
LAYER_1
 10
123.2091
 20
35.9637
  0
VERTEX
  8
LAYER_1
 10
123.0779
 20
35.9637
  0
VERTEX
  8
LAYER_1
 10
122.7623
 20
36.4295
  0
VERTEX
  8
LAYER_1
 10
122.4488
 20
35.9637
  0
VERTEX
  8
LAYER_1
 10
122.3172
 20
35.9637
  0
VERTEX
  8
LAYER_1
 10
122.6969
 20
36.5066
  0
VERTEX
  8
LAYER_1
 10
122.351
 20
36.9969
  0
VERTEX
  8
LAYER_1
 10
122.4825
 20
36.9969
  0
SEQEND
  0
ENDBLK
  0
BLOCK
  8
LAYER_1
  2
AIGNBL01030020
 70
64
 10
0
 20
0
 30
0
  3
AIGNBL01030020
  0
POLYLINE
  8
LAYER_1
 40
0.05
 41
0.05
 66
1
 10
0
 20
0
 30
0
 70
1
  0
VERTEX
  8
LAYER_1
 10
123.5753
 20
36.9969
  0
VERTEX
  8
LAYER_1
 10
123.8675
 20
36.9969
  0
VERTEX
  8
LAYER_1
 10
124.0105
 20
36.9804
  0
VERTEX
  8
LAYER_1
 10
124.1203
 20
36.929
  0
VERTEX
  8
LAYER_1
 10
124.1913
 20
36.8429
  0
VERTEX
  8
LAYER_1
 10
124.2158
 20
36.7213
  0
VERTEX
  8
LAYER_1
 10
124.1906
 20
36.5993
  0
VERTEX
  8
LAYER_1
 10
124.119
 20
36.5132
  0
VERTEX
  8
LAYER_1
 10
124.0081
 20
36.4615
  0
VERTEX
  8
LAYER_1
 10
123.8644
 20
36.444
  0
VERTEX
  8
LAYER_1
 10
123.6804
 20
36.444
  0
VERTEX
  8
LAYER_1
 10
123.6804
 20
35.9637
  0
VERTEX
  8
LAYER_1
 10
123.5753
 20
35.9637
  0
SEQEND
  0
POLYLINE
  8
LAYER_1
 40
0.05
 41
0.05
 66
1
 10
0
 20
0
 30
0
 70
1
  0
VERTEX
  8
LAYER_1
 10
123.6804
 20
36.5328
  0
VERTEX
  8
LAYER_1
 10
123.8582
 20
36.5328
 42
0.1829203509
  0
VERTEX
  8
LAYER_1
 10
124.0466
 20
36.581
 42
0.2345943979
  0
VERTEX
  8
LAYER_1
 10
124.111
 20
36.7213
 42
0.2650437466
  0
VERTEX
  8
LAYER_1
 10
124.0446
 20
36.8622
 42
0.1264027561
  0
VERTEX
  8
LAYER_1
 10
123.8582
 20
36.9066
  0
VERTEX
  8
LAYER_1
 10
123.6804
 20
36.9066
  0
SEQEND
  0
ENDBLK
  0
BLOCK
  8
LAYER_1
  2
AIGNBL01030021
 70
64
 10
0
 20
0
 30
0
  3
AIGNBL01030021
  0
POLYLINE
  8
LAYER_1
 40
0.05
 41
0.05
 66
1
 10
0
 20
0
 30
0
 70
1
  0
VERTEX
  8
LAYER_1
 10
124.7281
 20
36.0574
  0
VERTEX
  8
LAYER_1
 10
125.2813
 20
36.0574
  0
VERTEX
  8
LAYER_1
 10
125.2813
 20
35.9637
  0
VERTEX
  8
LAYER_1
 10
124.623
 20
35.9637
  0
VERTEX
  8
LAYER_1
 10
124.623
 20
36.9969
  0
VERTEX
  8
LAYER_1
 10
125.2638
 20
36.9969
  0
VERTEX
  8
LAYER_1
 10
125.2638
 20
36.9035
  0
VERTEX
  8
LAYER_1
 10
124.7281
 20
36.9035
  0
VERTEX
  8
LAYER_1
 10
124.7281
 20
36.549
  0
VERTEX
  8
LAYER_1
 10
125.2286
 20
36.549
  0
VERTEX
  8
LAYER_1
 10
125.2286
 20
36.4557
  0
VERTEX
  8
LAYER_1
 10
124.7281
 20
36.4557
  0
SEQEND
  0
ENDBLK
  0
BLOCK
  8
LAYER_1
  2
AIGNBL01030022
 70
64
 10
0
 20
0
 30
0
  3
AIGNBL01030022
  0
POLYLINE
  8
LAYER_1
 40
0.05
 41
0.05
 66
1
 10
0
 20
0
 30
0
 70
1
  0
VERTEX
  8
LAYER_1
 10
125.7933
 20
35.9637
  0
VERTEX
  8
LAYER_1
 10
125.6882
 20
35.9637
  0
VERTEX
  8
LAYER_1
 10
125.6882
 20
36.9969
  0
VERTEX
  8
LAYER_1
 10
125.9921
 20
36.9969
  0
VERTEX
  8
LAYER_1
 10
126.1326
 20
36.9824
  0
VERTEX
  8
LAYER_1
 10
126.2453
 20
36.9349
  0
VERTEX
  8
LAYER_1
 10
126.319
 20
36.8494
  0
VERTEX
  8
LAYER_1
 10
126.3449
 20
36.7213
  0
VERTEX
  8
LAYER_1
 10
126.3249
 20
36.6176
  0
VERTEX
  8
LAYER_1
 10
126.2694
 20
36.5366
  0
VERTEX
  8
LAYER_1
 10
126.186
 20
36.4818
  0
VERTEX
  8
LAYER_1
 10
126.0809
 20
36.4557
  0
VERTEX
  8
LAYER_1
 10
126.3831
 20
35.9637
  0
VERTEX
  8
LAYER_1
 10
126.2546
 20
35.9637
  0
VERTEX
  8
LAYER_1
 10
125.9687
 20
36.4467
  0
VERTEX
  8
LAYER_1
 10
125.7933
 20
36.4467
  0
SEQEND
  0
POLYLINE
  8
LAYER_1
 40
0.05
 41
0.05
 66
1
 10
0
 20
0
 30
0
 70
1
  0
VERTEX
  8
LAYER_1
 10
125.7933
 20
36.5373
  0
VERTEX
  8
LAYER_1
 10
125.9759
 20
36.5373
 42
0.1663801652
  0
VERTEX
  8
LAYER_1
 10
126.1716
 20
36.5831
 42
0.2503091692
  0
VERTEX
  8
LAYER_1
 10
126.2401
 20
36.7213
  0
VERTEX
  8
LAYER_1
 10
126.2212
 20
36.8071
  0
VERTEX
  8
LAYER_1
 10
126.1685
 20
36.8643
  0
VERTEX
  8
LAYER_1
 10
126.0868
 20
36.8963
  0
VERTEX
  8
LAYER_1
 10
125.9804
 20
36.9066
  0
VERTEX
  8
LAYER_1
 10
125.7933
 20
36.9066
  0
SEQEND
  0
ENDBLK
  0
BLOCK
  8
LAYER_1
  2
AIGNBL01030023
 70
64
 10
0
 20
0
 30
0
  3
AIGNBL01030023
  0
POLYLINE
  8
LAYER_1
 40
0.05
 41
0.05
 66
1
 10
0
 20
0
 30
0
 70
1
  0
VERTEX
  8
LAYER_1
 10
126.8688
 20
35.9637
  0
VERTEX
  8
LAYER_1
 10
126.7641
 20
35.9637
  0
VERTEX
  8
LAYER_1
 10
126.7641
 20
36.9969
  0
VERTEX
  8
LAYER_1
 10
126.8688
 20
36.9969
  0
SEQEND
  0
ENDBLK
  0
BLOCK
  8
LAYER_1
  2
AIGNBL01030024
 70
64
 10
0
 20
0
 30
0
  3
AIGNBL01030024
  0
POLYLINE
  8
LAYER_1
 40
0.05
 41
0.05
 66
1
 10
0
 20
0
 30
0
 70
1
  0
VERTEX
  8
LAYER_1
 10
127.4497
 20
36.0574
  0
VERTEX
  8
LAYER_1
 10
128.0026
 20
36.0574
  0
VERTEX
  8
LAYER_1
 10
128.0026
 20
35.9637
  0
VERTEX
  8
LAYER_1
 10
127.3446
 20
35.9637
  0
VERTEX
  8
LAYER_1
 10
127.3446
 20
36.9969
  0
VERTEX
  8
LAYER_1
 10
127.9854
 20
36.9969
  0
VERTEX
  8
LAYER_1
 10
127.9854
 20
36.9035
  0
VERTEX
  8
LAYER_1
 10
127.4497
 20
36.9035
  0
VERTEX
  8
LAYER_1
 10
127.4497
 20
36.549
  0
VERTEX
  8
LAYER_1
 10
127.9503
 20
36.549
  0
VERTEX
  8
LAYER_1
 10
127.9503
 20
36.4557
  0
VERTEX
  8
LAYER_1
 10
127.4497
 20
36.4557
  0
SEQEND
  0
ENDBLK
  0
BLOCK
  8
LAYER_1
  2
AIGNBL01030025
 70
64
 10
0
 20
0
 30
0
  3
AIGNBL01030025
  0
POLYLINE
  8
LAYER_1
 40
0.05
 41
0.05
 66
1
 10
0
 20
0
 30
0
 70
1
  0
VERTEX
  8
LAYER_1
 10
129.1426
 20
36.117
  0
VERTEX
  8
LAYER_1
 10
129.1454
 20
36.117
  0
VERTEX
  8
LAYER_1
 10
129.1454
 20
36.9969
  0
VERTEX
  8
LAYER_1
 10
129.2504
 20
36.9969
  0
VERTEX
  8
LAYER_1
 10
129.2504
 20
35.9637
  0
VERTEX
  8
LAYER_1
 10
129.1192
 20
35.9637
  0
VERTEX
  8
LAYER_1
 10
128.518
 20
36.8525
  0
VERTEX
  8
LAYER_1
 10
128.5149
 20
36.8525
  0
VERTEX
  8
LAYER_1
 10
128.5149
 20
35.9637
  0
VERTEX
  8
LAYER_1
 10
128.4098
 20
35.9637
  0
VERTEX
  8
LAYER_1
 10
128.4098
 20
36.9969
  0
VERTEX
  8
LAYER_1
 10
128.5414
 20
36.9969
  0
SEQEND
  0
ENDBLK
  0
BLOCK
  8
LAYER_1
  2
AIGNBL01030026
 70
64
 10
0
 20
0
 30
0
  3
AIGNBL01030026
  0
POLYLINE
  8
LAYER_1
 40
0.05
 41
0.05
 66
1
 10
0
 20
0
 30
0
 70
1
  0
VERTEX
  8
LAYER_1
 10
130.5961
 20
36.1315
  0
VERTEX
  8
LAYER_1
 10
130.5324
 20
36.0571
  0
VERTEX
  8
LAYER_1
 10
130.4463
 20
35.9954
  0
VERTEX
  8
LAYER_1
 10
130.3381
 20
35.953
  0
VERTEX
  8
LAYER_1
 10
130.2092
 20
35.9375
 42
-0.1009408553
  0
VERTEX
  8
LAYER_1
 10
129.9932
 20
35.9785
 42
-0.1036559164
  0
VERTEX
  8
LAYER_1
 10
129.8227
 20
36.0915
 42
-0.09812017057
  0
VERTEX
  8
LAYER_1
 10
129.7111
 20
36.2631
 42
-0.09255697562
  0
VERTEX
  8
LAYER_1
 10
129.6707
 20
36.4805
 42
-0.1035456296
  0
VERTEX
  8
LAYER_1
 10
129.7117
 20
36.6978
 42
-0.1005534539
  0
VERTEX
  8
LAYER_1
 10
129.8244
 20
36.8694
 42
-0.09536265516
  0
VERTEX
  8
LAYER_1
 10
129.9953
 20
36.9824
 42
-0.09506675375
  0
VERTEX
  8
LAYER_1
 10
130.2092
 20
37.0234
  0
VERTEX
  8
LAYER_1
 10
130.3208
 20
37.0114
  0
VERTEX
  8
LAYER_1
 10
130.4239
 20
36.9779
  0
VERTEX
  8
LAYER_1
 10
130.5113
 20
36.9263
  0
VERTEX
  8
LAYER_1
 10
130.5771
 20
36.8584
  0
VERTEX
  8
LAYER_1
 10
130.4896
 20
36.794
  0
VERTEX
  8
LAYER_1
 10
130.4463
 20
36.8439
  0
VERTEX
  8
LAYER_1
 10
130.3829
 20
36.8877
  0
VERTEX
  8
LAYER_1
 10
130.3033
 20
36.9183
  0
VERTEX
  8
LAYER_1
 10
130.2106
 20
36.93
  0
VERTEX
  8
LAYER_1
 10
130.0304
 20
36.8935
  0
VERTEX
  8
LAYER_1
 10
129.8954
 20
36.7954
  0
VERTEX
  8
LAYER_1
 10
129.8106
 20
36.652
  0
VERTEX
  8
LAYER_1
 10
129.7817
 20
36.4805
  0
VERTEX
  8
LAYER_1
 10
129.8116
 20
36.3089
  0
VERTEX
  8
LAYER_1
 10
129.8971
 20
36.1656
  0
VERTEX
  8
LAYER_1
 10
130.0321
 20
36.0674
 42
0.1009931409
  0
VERTEX
  8
LAYER_1
 10
130.2106
 20
36.0309
  0
VERTEX
  8
LAYER_1
 10
130.3798
 20
36.0674
 42
0.1319081761
  0
VERTEX
  8
LAYER_1
 10
130.5141
 20
36.1842
  0
SEQEND
  0
ENDBLK
  0
BLOCK
  8
LAYER_1
  2
AIGNBL01030027
 70
64
 10
0
 20
0
 30
0
  3
AIGNBL01030027
  0
POLYLINE
  8
LAYER_1
 40
0.05
 41
0.05
 66
1
 10
0
 20
0
 30
0
 70
1
  0
VERTEX
  8
LAYER_1
 10
131.0832
 20
36.0574
  0
VERTEX
  8
LAYER_1
 10
131.6365
 20
36.0574
  0
VERTEX
  8
LAYER_1
 10
131.6365
 20
35.9637
  0
VERTEX
  8
LAYER_1
 10
130.9782
 20
35.9637
  0
VERTEX
  8
LAYER_1
 10
130.9782
 20
36.9969
  0
VERTEX
  8
LAYER_1
 10
131.619
 20
36.9969
  0
VERTEX
  8
LAYER_1
 10
131.619
 20
36.9035
  0
VERTEX
  8
LAYER_1
 10
131.0832
 20
36.9035
  0
VERTEX
  8
LAYER_1
 10
131.0832
 20
36.549
  0
VERTEX
  8
LAYER_1
 10
131.5838
 20
36.549
  0
VERTEX
  8
LAYER_1
 10
131.5838
 20
36.4557
  0
VERTEX
  8
LAYER_1
 10
131.0832
 20
36.4557
  0
SEQEND
  0
ENDBLK
  0
BLOCK
  8
LAYER_1
  2
AIGNBL01020004
 70
64
 10
0
 20
0
 30
0
  3
AIGNBL01020004
  0
POLYLINE
  8
LAYER_1
 40
0.05
 41
0.05
 66
1
 10
0
 20
0
 30
0
  0
VERTEX
  8
LAYER_1
 10
-1.196
 20
217.6012
 42
-0.07434374488
  0
VERTEX
  8
LAYER_1
 10
-1.3046
 20
216.4751
 42
-0.1312981164
  0
VERTEX
  8
LAYER_1
 10
-1.5732
 20
216.0054
 42
-0.208619006
  0
VERTEX
  8
LAYER_1
 10
-2.3408
 20
215.7164
 42
-0.1980855618
  0
VERTEX
  8
LAYER_1
 10
-3.0956
 20
216.0054
 42
-0.1359059684
  0
VERTEX
  8
LAYER_1
 10
-3.3746
 20
216.5106
 42
-0.06699191066
  0
VERTEX
  8
LAYER_1
 10
-3.4732
 20
217.6012
 42
-0.07470238595
  0
VERTEX
  8
LAYER_1
 10
-3.3644
 20
218.7157
 42
-0.1310826725
  0
VERTEX
  8
LAYER_1
 10
-3.0956
 20
219.1845
 42
-0.2061520596
  0
VERTEX
  8
LAYER_1
 10
-2.3408
 20
219.4732
 42
-0.1977437771
  0
VERTEX
  8
LAYER_1
 10
-1.5732
 20
219.1845
 42
-0.1358673357
  0
VERTEX
  8
LAYER_1
 10
-1.2943
 20
218.6804
 42
-0.06720044206
  0
VERTEX
  8
LAYER_1
 10
-1.196
 20
217.6012
  0
SEQEND
  0
POLYLINE
  8
LAYER_1
 40
0.05
 41
0.05
 66
1
 10
0
 20
0
 30
0
  0
VERTEX
  8
LAYER_1
 10
0.4394
 20
217.6012
 42
0.0577585355
  0
VERTEX
  8
LAYER_1
 10
0.3194
 20
218.9609
 42
0.1358747382
  0
VERTEX
  8
LAYER_1
 10
-0.303
 20
220.1395
 42
0.1777268905
  0
VERTEX
  8
LAYER_1
 10
-1.8892
 20
220.9154
 42
0.03495822391
  0
VERTEX
  8
LAYER_1
 10
-2.3408
 20
220.9436
 42
0.07961804251
  0
VERTEX
  8
LAYER_1
 10
-3.315
 20
220.7962
 42
0.1217450219
  0
VERTEX
  8
LAYER_1
 10
-4.3662
 20
220.1395
 42
0.09150776818
  0
VERTEX
  8
LAYER_1
 10
-4.8465
 20
219.4067
 42
0.07735978812
  0
VERTEX
  8
LAYER_1
 10
-5.0776
 20
218.3847
 42
0.03281807239
  0
VERTEX
  8
LAYER_1
 10
-5.1082
 20
217.6012
 42
0.05725233541
  0
VERTEX
  8
LAYER_1
 10
-4.9885
 20
216.2362
 42
0.1359864428
  0
VERTEX
  8
LAYER_1
 10
-4.3662
 20
215.0504
 42
0.175204158
  0
VERTEX
  8
LAYER_1
 10
-2.7508
 20
214.2702
 42
0.03231924249
  0
VERTEX
  8
LAYER_1
 10
-2.3408
 20
214.2463
 42
0.07899302184
  0
VERTEX
  8
LAYER_1
 10
-1.3625
 20
214.3937
 42
0.1216861451
  0
VERTEX
  8
LAYER_1
 10
-0.303
 20
215.0504
 42
0.09340304456
  0
VERTEX
  8
LAYER_1
 10
0.1681
 20
215.7463
 42
0.0774645698
  0
VERTEX
  8
LAYER_1
 10
0.4017
 20
216.7223
 42
0.02212089617
  0
VERTEX
  8
LAYER_1
 10
0.4394
 20
217.6012
  0
SEQEND
  0
POLYLINE
  8
LAYER_1
 40
0.05
 41
0.05
 66
1
 10
0
 20
0
 30
0
  0
VERTEX
  8
LAYER_1
 10
-11.3166
 20
218.2044
  0
VERTEX
  8
LAYER_1
 10
-13.8074
 20
218.2044
 42
-0.1153546446
  0
VERTEX
  8
LAYER_1
 10
-13.6562
 20
218.9079
 42
-0.3007040875
  0
VERTEX
  8
LAYER_1
 10
-12.562
 20
219.5866
 42
-0.1235431447
  0
VERTEX
  8
LAYER_1
 10
-11.9621
 20
219.4464
 42
-0.1667603161
  0
VERTEX
  8
LAYER_1
 10
-11.4672
 20
218.9079
 42
-0.1143399212
  0
VERTEX
  8
LAYER_1
 10
-11.3166
 20
218.2044
  0
SEQEND
  0
POLYLINE
  8
LAYER_1
 40
0.05
 41
0.05
 66
1
 10
0
 20
0
 30
0
 70
1
  0
VERTEX
  8
LAYER_1
 10
-9.7064
 20
217.0861
  0
VERTEX
  8
LAYER_1
 10
-9.7064
 20
217.7772
 42
0.0677042249
  0
VERTEX
  8
LAYER_1
 10
-9.852
 20
218.9102
 42
0.07767771487
  0
VERTEX
  8
LAYER_1
 10
-10.2392
 20
219.7789
 42
0.1724975422
  0
VERTEX
  8
LAYER_1
 10
-11.5857
 20
220.7996
 42
0.07776532921
  0
VERTEX
  8
LAYER_1
 10
-12.562
 20
220.9436
 42
0.0796960513
  0
VERTEX
  8
LAYER_1
 10
-13.5247
 20
220.7966
 42
0.168887661
  0
VERTEX
  8
LAYER_1
 10
-14.846
 20
219.7874
 42
0.07658055294
  0
VERTEX
  8
LAYER_1
 10
-15.2466
 20
218.9066
 42
0.07097127065
  0
VERTEX
  8
LAYER_1
 10
-15.4177
 20
217.6012
 42
0.05685454964
  0
VERTEX
  8
LAYER_1
 10
-15.2934
 20
216.4004
 42
0.07540481703
  0
VERTEX
  8
LAYER_1
 10
-14.9492
 20
215.5069
 42
0.1774924504
  0
VERTEX
  8
LAYER_1
 10
-13.6777
 20
214.4527
 42
0.08958127581
  0
VERTEX
  8
LAYER_1
 10
-12.386
 20
214.2463
 42
0.07080596686
  0
VERTEX
  8
LAYER_1
 10
-11.2943
 20
214.3814
 42
0.08369033087
  0
VERTEX
  8
LAYER_1
 10
-10.4805
 20
214.7708
 42
0.04417423811
  0
VERTEX
  8
LAYER_1
 10
-9.8948
 20
215.2768
  0
VERTEX
  8
LAYER_1
 10
-10.8887
 20
216.2442
 42
-0.09875545259
  0
VERTEX
  8
LAYER_1
 10
-11.5612
 20
215.7667
 42
-0.1006814841
  0
VERTEX
  8
LAYER_1
 10
-12.3732
 20
215.6285
 42
-0.1070981108
  0
VERTEX
  8
LAYER_1
 10
-13.0555
 20
215.7638
 42
-0.2542521374
  0
VERTEX
  8
LAYER_1
 10
-13.7778
 20
216.7415
 42
-0.04997815034
  0
VERTEX
  8
LAYER_1
 10
-13.8074
 20
217.0861
  0
SEQEND
  0
POLYLINE
  8
LAYER_1
 40
0.05
 41
0.05
 66
1
 10
0
 20
0
 30
0
 70
1
  0
VERTEX
  8
LAYER_1
 10
-16.9018
 20
223.2773
  0
VERTEX
  8
LAYER_1
 10
-18.5517
 20
223.2773
  0
VERTEX
  8
LAYER_1
 10
-18.5517
 20
221.9454
  0
VERTEX
  8
LAYER_1
 10
-16.9018
 20
221.9454
  0
SEQEND
  0
POLYLINE
  8
LAYER_1
 40
0.05
 41
0.05
 66
1
 10
0
 20
0
 30
0
 70
1
  0
VERTEX
  8
LAYER_1
 10
-16.9146
 20
220.79
  0
VERTEX
  8
LAYER_1
 10
-18.5499
 20
220.79
  0
VERTEX
  8
LAYER_1
 10
-18.5499
 20
214.3218
  0
VERTEX
  8
LAYER_1
 10
-16.9146
 20
214.3218
  0
SEQEND
  0
POLYLINE
  8
LAYER_1
 40
0.05
 41
0.05
 66
1
 10
0
 20
0
 30
0
  0
VERTEX
  8
LAYER_1
 10
-19.8205
 20
215.1386
  0
VERTEX
  8
LAYER_1
 10
-20.9274
 20
216.2317
 42
-0.1123773458
  0
VERTEX
  8
LAYER_1
 10
-21.5025
 20
215.8017
 42
-0.09517045223
  0
VERTEX
  8
LAYER_1
 10
-21.984
 20
215.7164
 42
-0.2295666259
  0
VERTEX
  8
LAYER_1
 10
-22.9149
 20
216.1436
 42
-0.1146247369
  0
VERTEX
  8
LAYER_1
 10
-23.2025
 20
216.7765
 42
-0.05302023055
  0
VERTEX
  8
LAYER_1
 10
-23.2797
 20
217.6012
 42
-0.07909887362
  0
VERTEX
  8
LAYER_1
 10
-23.1547
 20
218.5928
 42
-0.092262399
  0
VERTEX
  8
LAYER_1
 10
-22.9149
 20
219.0461
 42
-0.2338488836
  0
VERTEX
  8
LAYER_1
 10
-21.984
 20
219.4732
 42
-0.128883052
  0
VERTEX
  8
LAYER_1
 10
-21.3835
 20
219.3322
 42
-0.07812769659
  0
VERTEX
  8
LAYER_1
 10
-20.9274
 20
218.9585
  0
VERTEX
  8
LAYER_1
 10
-19.8205
 20
220.0637
 42
0.170273791
  0
VERTEX
  8
LAYER_1
 10
-21.4399
 20
220.9062
 42
0.04126809408
  0
VERTEX
  8
LAYER_1
 10
-21.984
 20
220.9436
 42
0.07342899762
  0
VERTEX
  8
LAYER_1
 10
-22.9625
 20
220.804
 42
0.1715306153
  0
VERTEX
  8
LAYER_1
 10
-24.3547
 20
219.7917
 42
0.07792315428
  0
VERTEX
  8
LAYER_1
 10
-24.7438
 20
218.9398
 42
0.07121572719
  0
VERTEX
  8
LAYER_1
 10
-24.9151
 20
217.6012
 42
0.06071119945
  0
VERTEX
  8
LAYER_1
 10
-24.7811
 20
216.4004
 42
0.07599045696
  0
VERTEX
  8
LAYER_1
 10
-24.4186
 20
215.5069
 42
0.1707838222
  0
VERTEX
  8
LAYER_1
 10
-23.1195
 20
214.4409
 42
0.08917342928
  0
VERTEX
  8
LAYER_1
 10
-21.984
 20
214.2463
 42
0.07667723183
  0
VERTEX
  8
LAYER_1
 10
-21.0013
 20
214.3855
 42
0.1303789466
  0
VERTEX
  8
LAYER_1
 10
-19.8205
 20
215.1386
  0
SEQEND
  0
ENDBLK
  0
BLOCK
  8
LAYER_1
  2
AIGNBL01020005
 70
64
 10
0
 20
0
 30
0
  3
AIGNBL01020005
  0
POLYLINE
  8
LAYER_1
 40
0.05
 41
0.05
 66
1
 10
0
 20
0
 30
0
 70
1
  0
VERTEX
  8
LAYER_1
 10
0.3288
 20
212.6805
  0
VERTEX
  8
LAYER_1
 10
0.0009
 20
212.6805
  0
VERTEX
  8
LAYER_1
 10
-0.2479
 20
211.9109
  0
VERTEX
  8
LAYER_1
 10
-0.5066
 20
212.6805
  0
VERTEX
  8
LAYER_1
 10
-0.8342
 20
212.6805
  0
VERTEX
  8
LAYER_1
 10
-0.4084
 20
211.5234
  0
VERTEX
  8
LAYER_1
 10
-0.4611
 20
211.3704
 42
-0.396721792
  0
VERTEX
  8
LAYER_1
 10
-0.6165
 20
211.2581
  0
VERTEX
  8
LAYER_1
 10
-0.6882
 20
211.2581
  0
VERTEX
  8
LAYER_1
 10
-0.6882
 20
210.9783
  0
VERTEX
  8
LAYER_1
 10
-0.5662
 20
210.9783
 42
0.2067482179
  0
VERTEX
  8
LAYER_1
 10
-0.2985
 20
211.0741
  0
VERTEX
  8
LAYER_1
 10
-0.2048
 20
211.2343
  0
SEQEND
  0
POLYLINE
  8
LAYER_1
 40
0.05
 41
0.05
 66
1
 10
0
 20
0
 30
0
 70
1
  0
VERTEX
  8
LAYER_1
 10
-0.8704
 20
211.4352
  0
VERTEX
  8
LAYER_1
 10
-0.8704
 20
211.6977
  0
VERTEX
  8
LAYER_1
 10
-0.9899
 20
211.6977
 42
-0.4758158184
  0
VERTEX
  8
LAYER_1
 10
-1.0998
 20
211.8103
  0
VERTEX
  8
LAYER_1
 10
-1.0998
 20
213.137
  0
VERTEX
  8
LAYER_1
 10
-1.4109
 20
213.137
  0
VERTEX
  8
LAYER_1
 10
-1.4109
 20
211.7914
 42
0.4199153803
  0
VERTEX
  8
LAYER_1
 10
-1.0475
 20
211.4352
  0
SEQEND
  0
POLYLINE
  8
LAYER_1
 40
0.05
 41
0.05
 66
1
 10
0
 20
0
 30
0
 70
1
  0
VERTEX
  8
LAYER_1
 10
-1.9739
 20
211.894
 42
-0.2612643935
  0
VERTEX
  8
LAYER_1
 10
-2.0214
 20
211.7363
 42
-0.1972145384
  0
VERTEX
  8
LAYER_1
 10
-2.2057
 20
211.6763
 42
-0.4351815088
  0
VERTEX
  8
LAYER_1
 10
-2.3949
 20
211.8175
 42
-0.4650020324
  0
VERTEX
  8
LAYER_1
 10
-2.2105
 20
211.9609
  0
VERTEX
  8
LAYER_1
 10
-1.9739
 20
211.9609
  0
SEQEND
  0
POLYLINE
  8
LAYER_1
 40
0.05
 41
0.05
 66
1
 10
0
 20
0
 30
0
 70
1
  0
VERTEX
  8
LAYER_1
 10
-1.6624
 20
211.4352
  0
VERTEX
  8
LAYER_1
 10
-1.6624
 20
212.2551
 42
0.2205564812
  0
VERTEX
  8
LAYER_1
 10
-1.7881
 20
212.5772
 42
0.1806009816
  0
VERTEX
  8
LAYER_1
 10
-2.194
 20
212.6947
 42
0.2375604919
  0
VERTEX
  8
LAYER_1
 10
-2.6412
 20
212.5179
  0
VERTEX
  8
LAYER_1
 10
-2.4452
 20
212.3243
 42
-0.2464065653
  0
VERTEX
  8
LAYER_1
 10
-2.2057
 20
212.4322
 42
-0.4684872669
  0
VERTEX
  8
LAYER_1
 10
-1.9739
 20
212.2358
  0
VERTEX
  8
LAYER_1
 10
-1.9739
 20
212.1738
  0
VERTEX
  8
LAYER_1
 10
-2.2633
 20
212.1738
 42
0.2103132122
  0
VERTEX
  8
LAYER_1
 10
-2.6081
 20
212.0486
 42
0.18506809
  0
VERTEX
  8
LAYER_1
 10
-2.6942
 20
211.8127
 42
0.1945609364
  0
VERTEX
  8
LAYER_1
 10
-2.5912
 20
211.533
 42
0.1980708175
  0
VERTEX
  8
LAYER_1
 10
-2.2729
 20
211.4228
 42
0.2246292991
  0
VERTEX
  8
LAYER_1
 10
-1.9663
 20
211.5426
  0
VERTEX
  8
LAYER_1
 10
-1.9663
 20
211.4352
  0
SEQEND
  0
POLYLINE
  8
LAYER_1
 40
0.05
 41
0.05
 66
1
 10
0
 20
0
 30
0
 70
1
  0
VERTEX
  8
LAYER_1
 10
-2.8758
 20
211.4352
  0
VERTEX
  8
LAYER_1
 10
-2.8758
 20
211.6977
  0
VERTEX
  8
LAYER_1
 10
-2.9884
 20
211.6977
 42
-0.496954413
  0
VERTEX
  8
LAYER_1
 10
-3.0963
 20
211.8103
  0
VERTEX
  8
LAYER_1
 10
-3.0963
 20
212.4081
  0
VERTEX
  8
LAYER_1
 10
-2.8758
 20
212.4081
  0
VERTEX
  8
LAYER_1
 10
-2.8758
 20
212.6444
  0
VERTEX
  8
LAYER_1
 10
-3.0963
 20
212.6444
  0
VERTEX
  8
LAYER_1
 10
-3.0963
 20
213.0126
  0
VERTEX
  8
LAYER_1
 10
-3.407
 20
213.0126
  0
VERTEX
  8
LAYER_1
 10
-3.407
 20
212.6444
  0
VERTEX
  8
LAYER_1
 10
-3.539
 20
212.6444
  0
VERTEX
  8
LAYER_1
 10
-3.539
 20
212.4081
  0
VERTEX
  8
LAYER_1
 10
-3.407
 20
212.4081
  0
VERTEX
  8
LAYER_1
 10
-3.407
 20
211.7914
 42
0.4187763975
  0
VERTEX
  8
LAYER_1
 10
-3.0456
 20
211.4352
  0
SEQEND
  0
POLYLINE
  8
LAYER_1
 40
0.05
 41
0.05
 66
1
 10
0
 20
0
 30
0
 70
1
  0
VERTEX
  8
LAYER_1
 10
-3.8091
 20
213.137
  0
VERTEX
  8
LAYER_1
 10
-4.1419
 20
213.137
  0
VERTEX
  8
LAYER_1
 10
-4.1419
 20
211.4352
  0
VERTEX
  8
LAYER_1
 10
-3.8091
 20
211.4352
  0
SEQEND
  0
POLYLINE
  8
LAYER_1
 40
0.05
 41
0.05
 66
1
 10
0
 20
0
 30
0
 70
1
  0
VERTEX
  8
LAYER_1
 10
-5.0562
 20
211.4352
  0
VERTEX
  8
LAYER_1
 10
-5.0562
 20
212.231
 42
0.2135728393
  0
VERTEX
  8
LAYER_1
 10
-5.183
 20
212.5844
 42
0.1976836271
  0
VERTEX
  8
LAYER_1
 10
-5.4775
 20
212.6947
 42
0.2038428178
  0
VERTEX
  8
LAYER_1
 10
-5.7886
 20
212.5658
  0
VERTEX
  8
LAYER_1
 10
-5.7886
 20
212.6805
  0
VERTEX
  8
LAYER_1
 10
-6.0925
 20
212.6805
  0
VERTEX
  8
LAYER_1
 10
-6.0925
 20
211.4352
  0
VERTEX
  8
LAYER_1
 10
-5.7814
 20
211.4352
  0
VERTEX
  8
LAYER_1
 10
-5.7814
 20
212.1882
 42
-0.4265123439
  0
VERTEX
  8
LAYER_1
 10
-5.573
 20
212.4149
 42
-0.4361688158
  0
VERTEX
  8
LAYER_1
 10
-5.3673
 20
212.1882
  0
VERTEX
  8
LAYER_1
 10
-5.3673
 20
211.4352
  0
SEQEND
  0
POLYLINE
  8
LAYER_1
 40
0.05
 41
0.05
 66
1
 10
0
 20
0
 30
0
 70
1
  0
VERTEX
  8
LAYER_1
 10
-6.437
 20
213.1467
  0
VERTEX
  8
LAYER_1
 10
-6.7553
 20
213.1467
  0
VERTEX
  8
LAYER_1
 10
-6.7553
 20
212.8931
  0
VERTEX
  8
LAYER_1
 10
-6.437
 20
212.8931
  0
SEQEND
  0
POLYLINE
  8
LAYER_1
 40
0.05
 41
0.05
 66
1
 10
0
 20
0
 30
0
 70
1
  0
VERTEX
  8
LAYER_1
 10
-6.4394
 20
212.6444
  0
VERTEX
  8
LAYER_1
 10
-6.7508
 20
212.6444
  0
VERTEX
  8
LAYER_1
 10
-6.7508
 20
211.4352
  0
VERTEX
  8
LAYER_1
 10
-6.4394
 20
211.4352
  0
SEQEND
  0
POLYLINE
  8
LAYER_1
 40
0.05
 41
0.05
 66
1
 10
0
 20
0
 30
0
  0
VERTEX
  8
LAYER_1
 10
-7.8994
 20
212.1738
  0
VERTEX
  8
LAYER_1
 10
-8.3735
 20
212.1738
  0
VERTEX
  8
LAYER_1
 10
-8.3445
 20
212.3074
 42
-0.3006254692
  0
VERTEX
  8
LAYER_1
 10
-8.1365
 20
212.4363
 42
-0.3004502708
  0
VERTEX
  8
LAYER_1
 10
-7.9284
 20
212.3074
  0
VERTEX
  8
LAYER_1
 10
-7.8994
 20
212.1738
  0
SEQEND
  0
POLYLINE
  8
LAYER_1
 40
0.05
 41
0.05
 66
1
 10
0
 20
0
 30
0
 70
1
  0
VERTEX
  8
LAYER_1
 10
-7.5932
 20
211.9609
  0
VERTEX
  8
LAYER_1
 10
-7.5932
 20
212.0925
 42
0.1727949422
  0
VERTEX
  8
LAYER_1
 10
-7.7261
 20
212.5161
 42
0.2293242446
  0
VERTEX
  8
LAYER_1
 10
-8.1365
 20
212.6947
 42
0.4082688927
  0
VERTEX
  8
LAYER_1
 10
-8.6757
 20
212.151
 42
0.02665393029
  0
VERTEX
  8
LAYER_1
 10
-8.6797
 20
212.0591
 42
0.1685110564
  0
VERTEX
  8
LAYER_1
 10
-8.5537
 20
211.6061
 42
0.2404561047
  0
VERTEX
  8
LAYER_1
 10
-8.103
 20
211.4207
 42
0.2250390665
  0
VERTEX
  8
LAYER_1
 10
-7.629
 20
211.6167
  0
VERTEX
  8
LAYER_1
 10
-7.8181
 20
211.801
 42
-0.2242451699
  0
VERTEX
  8
LAYER_1
 10
-8.1003
 20
211.6839
 42
-0.4312737558
  0
VERTEX
  8
LAYER_1
 10
-8.3735
 20
211.9609
  0
SEQEND
  0
POLYLINE
  8
LAYER_1
 40
0.05
 41
0.05
 66
1
 10
0
 20
0
 30
0
  0
VERTEX
  8
LAYER_1
 10
-9.2778
 20
212.0591
 42
-0.253040373
  0
VERTEX
  8
LAYER_1
 10
-9.3737
 20
211.7317
 42
-0.1751487426
  0
VERTEX
  8
LAYER_1
 10
-9.4911
 20
211.7004
 42
-0.3550784466
  0
VERTEX
  8
LAYER_1
 10
-9.6774
 20
211.8331
 42
-0.1590539016
  0
VERTEX
  8
LAYER_1
 10
-9.7016
 20
212.0591
 42
-0.2613372193
  0
VERTEX
  8
LAYER_1
 10
-9.6054
 20
212.3859
 42
-0.1728730088
  0
VERTEX
  8
LAYER_1
 10
-9.4911
 20
212.4149
 42
-0.3508351005
  0
VERTEX
  8
LAYER_1
 10
-9.3031
 20
212.2839
 42
-0.1617280931
  0
VERTEX
  8
LAYER_1
 10
-9.2778
 20
212.0591
  0
SEQEND
  0
POLYLINE
  8
LAYER_1
 40
0.05
 41
0.05
 66
1
 10
0
 20
0
 30
0
 70
1
  0
VERTEX
  8
LAYER_1
 10
-8.9667
 20
211.4352
  0
VERTEX
  8
LAYER_1
 10
-8.9667
 20
213.137
  0
VERTEX
  8
LAYER_1
 10
-9.2778
 20
213.137
  0
VERTEX
  8
LAYER_1
 10
-9.2778
 20
212.5707
 42
0.2263222596
  0
VERTEX
  8
LAYER_1
 10
-9.582
 20
212.6947
 42
0.2021447193
  0
VERTEX
  8
LAYER_1
 10
-9.8835
 20
212.5824
 42
0.1955994833
  0
VERTEX
  8
LAYER_1
 10
-10.0116
 20
212.1647
 42
0.01858076917
  0
VERTEX
  8
LAYER_1
 10
-10.013
 20
212.0591
 42
0.1992737425
  0
VERTEX
  8
LAYER_1
 10
-9.8835
 20
211.533
 42
0.1967798833
  0
VERTEX
  8
LAYER_1
 10
-9.5796
 20
211.4207
 42
0.2368398509
  0
VERTEX
  8
LAYER_1
 10
-9.2709
 20
211.5523
  0
VERTEX
  8
LAYER_1
 10
-9.2709
 20
211.4352
  0
SEQEND
  0
POLYLINE
  8
LAYER_1
 40
0.05
 41
0.05
 66
1
 10
0
 20
0
 30
0
 70
1
  0
VERTEX
  8
LAYER_1
 10
-10.6062
 20
211.894
 42
-0.2606176184
  0
VERTEX
  8
LAYER_1
 10
-10.6541
 20
211.7363
 42
-0.1975146001
  0
VERTEX
  8
LAYER_1
 10
-10.8384
 20
211.6763
 42
-0.4358674545
  0
VERTEX
  8
LAYER_1
 10
-11.0272
 20
211.8175
 42
-0.4654392595
  0
VERTEX
  8
LAYER_1
 10
-10.8433
 20
211.9609
  0
VERTEX
  8
LAYER_1
 10
-10.6062
 20
211.9609
  0
SEQEND
  0
POLYLINE
  8
LAYER_1
 40
0.05
 41
0.05
 66
1
 10
0
 20
0
 30
0
 70
1
  0
VERTEX
  8
LAYER_1
 10
-10.2951
 20
211.4352
  0
VERTEX
  8
LAYER_1
 10
-10.2951
 20
212.2551
 42
0.2204713638
  0
VERTEX
  8
LAYER_1
 10
-10.4207
 20
212.5772
 42
0.1806796456
  0
VERTEX
  8
LAYER_1
 10
-10.8267
 20
212.6947
 42
0.2375604919
  0
VERTEX
  8
LAYER_1
 10
-11.2739
 20
212.5179
  0
VERTEX
  8
LAYER_1
 10
-11.0779
 20
212.3243
 42
-0.2460763492
  0
VERTEX
  8
LAYER_1
 10
-10.8384
 20
212.4322
 42
-0.4683426501
  0
VERTEX
  8
LAYER_1
 10
-10.6062
 20
212.2358
  0
VERTEX
  8
LAYER_1
 10
-10.6062
 20
212.1738
  0
VERTEX
  8
LAYER_1
 10
-10.896
 20
212.1738
 42
0.2105830771
  0
VERTEX
  8
LAYER_1
 10
-11.2407
 20
212.0486
 42
0.1847749138
  0
VERTEX
  8
LAYER_1
 10
-11.3266
 20
211.8127
 42
0.1946881207
  0
VERTEX
  8
LAYER_1
 10
-11.2239
 20
211.533
 42
0.1984095291
  0
VERTEX
  8
LAYER_1
 10
-10.9053
 20
211.4228
 42
0.2251045156
  0
VERTEX
  8
LAYER_1
 10
-10.599
 20
211.5426
  0
VERTEX
  8
LAYER_1
 10
-10.599
 20
211.4352
  0
SEQEND
  0
POLYLINE
  8
LAYER_1
 40
0.05
 41
0.05
 66
1
 10
0
 20
0
 30
0
 70
1
  0
VERTEX
  8
LAYER_1
 10
-11.5733
 20
211.4352
  0
VERTEX
  8
LAYER_1
 10
-11.5733
 20
212.231
 42
0.2096424971
  0
VERTEX
  8
LAYER_1
 10
-11.7097
 20
212.5844
 42
0.1904514856
  0
VERTEX
  8
LAYER_1
 10
-12.016
 20
212.6947
 42
0.2238328308
  0
VERTEX
  8
LAYER_1
 10
-12.3894
 20
212.5369
 42
0.2475119635
  0
VERTEX
  8
LAYER_1
 10
-12.7198
 20
212.6947
 42
0.1995172237
  0
VERTEX
  8
LAYER_1
 10
-13.0309
 20
212.5658
  0
VERTEX
  8
LAYER_1
 10
-13.0309
 20
212.6805
  0
VERTEX
  8
LAYER_1
 10
-13.3348
 20
212.6805
  0
VERTEX
  8
LAYER_1
 10
-13.3348
 20
211.4352
  0
VERTEX
  8
LAYER_1
 10
-13.0233
 20
211.4352
  0
VERTEX
  8
LAYER_1
 10
-13.0233
 20
212.1882
 42
-0.4265481482
  0
VERTEX
  8
LAYER_1
 10
-12.8153
 20
212.4149
 42
-0.4361688158
  0
VERTEX
  8
LAYER_1
 10
-12.6096
 20
212.1882
  0
VERTEX
  8
LAYER_1
 10
-12.6096
 20
211.4352
  0
VERTEX
  8
LAYER_1
 10
-12.2985
 20
211.4352
  0
VERTEX
  8
LAYER_1
 10
-12.2985
 20
212.1951
 42
-0.4236814191
  0
VERTEX
  8
LAYER_1
 10
-12.0904
 20
212.4149
 42
-0.4367319455
  0
VERTEX
  8
LAYER_1
 10
-11.8844
 20
212.1882
  0
VERTEX
  8
LAYER_1
 10
-11.8844
 20
211.4352
  0
SEQEND
  0
POLYLINE
  8
LAYER_1
 40
0.05
 41
0.05
 66
1
 10
0
 20
0
 30
0
  0
VERTEX
  8
LAYER_1
 10
-13.8973
 20
212.0229
 42
-0.2061577285
  0
VERTEX
  8
LAYER_1
 10
-14.0003
 20
211.6401
 42
-0.1860547104
  0
VERTEX
  8
LAYER_1
 10
-14.1915
 20
211.5736
 42
-0.2912351062
  0
VERTEX
  8
LAYER_1
 10
-14.4327
 20
211.7044
 42
-0.1074256356
  0
VERTEX
  8
LAYER_1
 10
-14.4882
 20
212.0229
 42
-0.2074793493
  0
VERTEX
  8
LAYER_1
 10
-14.3843
 20
212.406
 42
-0.1847812498
  0
VERTEX
  8
LAYER_1
 10
-14.1915
 20
212.4725
 42
-0.2924886932
  0
VERTEX
  8
LAYER_1
 10
-13.9523
 20
212.3416
 42
-0.1065173685
  0
VERTEX
  8
LAYER_1
 10
-13.8973
 20
212.0229
  0
SEQEND
  0
POLYLINE
  8
LAYER_1
 40
0.05
 41
0.05
 66
1
 10
0
 20
0
 30
0
 70
1
  0
VERTEX
  8
LAYER_1
 10
-13.7247
 20
211.4352
  0
VERTEX
  8
LAYER_1
 10
-13.7247
 20
213.137
  0
VERTEX
  8
LAYER_1
 10
-13.8973
 20
213.137
  0
VERTEX
  8
LAYER_1
 10
-13.8973
 20
212.4749
 42
0.2526586678
  0
VERTEX
  8
LAYER_1
 10
-14.2298
 20
212.6258
 42
0.19617536
  0
VERTEX
  8
LAYER_1
 10
-14.5171
 20
212.5224
 42
0.2062736322
  0
VERTEX
  8
LAYER_1
 10
-14.6608
 20
212.0229
 42
0.1925049638
  0
VERTEX
  8
LAYER_1
 10
-14.5171
 20
211.5234
 42
0.1893263809
  0
VERTEX
  8
LAYER_1
 10
-14.2298
 20
211.4207
 42
0.2549957718
  0
VERTEX
  8
LAYER_1
 10
-13.8949
 20
211.5761
  0
VERTEX
  8
LAYER_1
 10
-13.8949
 20
211.4352
  0
SEQEND
  0
POLYLINE
  8
LAYER_1
 40
0.05
 41
0.05
 66
1
 10
0
 20
0
 30
0
 70
1
  0
VERTEX
  8
LAYER_1
 10
-15.0173
 20
211.4352
  0
VERTEX
  8
LAYER_1
 10
-15.0173
 20
212.1882
 42
0.2089360908
  0
VERTEX
  8
LAYER_1
 10
-15.1393
 20
212.5156
 42
0.1977212202
  0
VERTEX
  8
LAYER_1
 10
-15.4411
 20
212.6258
 42
0.2189458741
  0
VERTEX
  8
LAYER_1
 10
-15.7711
 20
212.4818
  0
VERTEX
  8
LAYER_1
 10
-15.7711
 20
212.6113
  0
VERTEX
  8
LAYER_1
 10
-15.9434
 20
212.6113
  0
VERTEX
  8
LAYER_1
 10
-15.9434
 20
211.4352
  0
VERTEX
  8
LAYER_1
 10
-15.7711
 20
211.4352
  0
VERTEX
  8
LAYER_1
 10
-15.7711
 20
212.1593
 42
-0.4284576329
  0
VERTEX
  8
LAYER_1
 10
-15.479
 20
212.4725
 42
-0.4466039224
  0
VERTEX
  8
LAYER_1
 10
-15.1896
 20
212.1593
  0
VERTEX
  8
LAYER_1
 10
-15.1896
 20
211.4352
  0
SEQEND
  0
POLYLINE
  8
LAYER_1
 40
0.05
 41
0.05
 66
1
 10
0
 20
0
 30
0
 70
1
  0
VERTEX
  8
LAYER_1
 10
-16.5346
 20
211.8506
 42
-0.2283736068
  0
VERTEX
  8
LAYER_1
 10
-16.5945
 20
211.6477
 42
-0.1936527339
  0
VERTEX
  8
LAYER_1
 10
-16.8553
 20
211.5688
 42
-0.4421173513
  0
VERTEX
  8
LAYER_1
 10
-17.1281
 20
211.77
 42
-0.3470924647
  0
VERTEX
  8
LAYER_1
 10
-16.9968
 20
211.9592
 42
-0.1261120874
  0
VERTEX
  8
LAYER_1
 10
-16.8625
 20
211.9774
  0
VERTEX
  8
LAYER_1
 10
-16.5346
 20
211.9774
  0
SEQEND
  0
POLYLINE
  8
LAYER_1
 40
0.05
 41
0.05
 66
1
 10
0
 20
0
 30
0
 70
1
  0
VERTEX
  8
LAYER_1
 10
-16.362
 20
211.4352
  0
VERTEX
  8
LAYER_1
 10
-16.362
 20
212.233
 42
0.2383829599
  0
VERTEX
  8
LAYER_1
 10
-16.4898
 20
212.5337
 42
0.1599209503
  0
VERTEX
  8
LAYER_1
 10
-16.8336
 20
212.6258
 42
0.2578644009
  0
VERTEX
  8
LAYER_1
 10
-17.2501
 20
212.4487
  0
VERTEX
  8
LAYER_1
 10
-17.133
 20
212.3409
 42
-0.2730960706
  0
VERTEX
  8
LAYER_1
 10
-16.8364
 20
212.4776
 42
-0.4521672334
  0
VERTEX
  8
LAYER_1
 10
-16.5346
 20
212.2193
  0
VERTEX
  8
LAYER_1
 10
-16.5346
 20
212.1066
  0
VERTEX
  8
LAYER_1
 10
-16.8863
 20
212.1066
 42
0.2189203862
  0
VERTEX
  8
LAYER_1
 10
-17.2226
 20
211.9822
 42
0.17494127
  0
VERTEX
  8
LAYER_1
 10
-17.2956
 20
211.7673
 42
0.2075768001
  0
VERTEX
  8
LAYER_1
 10
-17.2071
 20
211.5282
 42
0.2128603639
  0
VERTEX
  8
LAYER_1
 10
-16.8742
 20
211.4207
 42
0.2247839487
  0
VERTEX
  8
LAYER_1
 10
-16.5346
 20
211.5471
  0
VERTEX
  8
LAYER_1
 10
-16.5346
 20
211.4352
  0
SEQEND
  0
POLYLINE
  8
LAYER_1
 40
0.05
 41
0.05
 66
1
 10
0
 20
0
 30
0
 70
1
  0
VERTEX
  8
LAYER_1
 10
-17.6211
 20
211.4352
  0
VERTEX
  8
LAYER_1
 10
-17.6211
 20
212.1903
 42
0.4657729105
  0
VERTEX
  8
LAYER_1
 10
-18.0449
 20
212.6258
 42
0.2190712165
  0
VERTEX
  8
LAYER_1
 10
-18.3749
 20
212.4818
  0
VERTEX
  8
LAYER_1
 10
-18.3749
 20
213.137
  0
VERTEX
  8
LAYER_1
 10
-18.5475
 20
213.137
  0
VERTEX
  8
LAYER_1
 10
-18.5475
 20
211.4352
  0
VERTEX
  8
LAYER_1
 10
-18.3749
 20
211.4352
  0
VERTEX
  8
LAYER_1
 10
-18.3749
 20
212.1617
 42
-0.4350388577
  0
VERTEX
  8
LAYER_1
 10
-18.0807
 20
212.4725
 42
-0.4517618327
  0
VERTEX
  8
LAYER_1
 10
-17.7934
 20
212.1617
  0
VERTEX
  8
LAYER_1
 10
-17.7934
 20
211.4352
  0
SEQEND
  0
ENDBLK
  0
BLOCK
  8
LAYER_1
  2
AIGNBL01020007
 70
64
 10
0
 20
0
 30
0
  3
AIGNBL01020007
  0
INSERT
  8
LAYER_1
  2
AIGNBL01030008
 10
0
 20
0
 30
0
  0
ENDBLK
  0
BLOCK
  8
LAYER_1
  2
AIGNBL01020010
 70
64
 10
0
 20
0
 30
0
  3
AIGNBL01020010
  0
INSERT
  8
LAYER_1
  2
AIGNBL01030011
 10
0
 20
0
 30
0
  0
INSERT
  8
LAYER_1
  2
AIGNBL01030012
 10
0
 20
0
 30
0
  0
INSERT
  8
LAYER_1
  2
AIGNBL01030013
 10
0
 20
0
 30
0
  0
INSERT
  8
LAYER_1
  2
AIGNBL01030014
 10
0
 20
0
 30
0
  0
INSERT
  8
LAYER_1
  2
AIGNBL01030015
 10
0
 20
0
 30
0
  0
INSERT
  8
LAYER_1
  2
AIGNBL01030016
 10
0
 20
0
 30
0
  0
INSERT
  8
LAYER_1
  2
AIGNBL01030017
 10
0
 20
0
 30
0
  0
INSERT
  8
LAYER_1
  2
AIGNBL01030018
 10
0
 20
0
 30
0
  0
INSERT
  8
LAYER_1
  2
AIGNBL01030019
 10
0
 20
0
 30
0
  0
INSERT
  8
LAYER_1
  2
AIGNBL0103001A
 10
0
 20
0
 30
0
  0
INSERT
  8
LAYER_1
  2
AIGNBL0103001B
 10
0
 20
0
 30
0
  0
INSERT
  8
LAYER_1
  2
AIGNBL0103001C
 10
0
 20
0
 30
0
  0
INSERT
  8
LAYER_1
  2
AIGNBL0103001D
 10
0
 20
0
 30
0
  0
INSERT
  8
LAYER_1
  2
AIGNBL0103001E
 10
0
 20
0
 30
0
  0
INSERT
  8
LAYER_1
  2
AIGNBL0103001F
 10
0
 20
0
 30
0
  0
INSERT
  8
LAYER_1
  2
AIGNBL01030020
 10
0
 20
0
 30
0
  0
INSERT
  8
LAYER_1
  2
AIGNBL01030021
 10
0
 20
0
 30
0
  0
INSERT
  8
LAYER_1
  2
AIGNBL01030022
 10
0
 20
0
 30
0
  0
INSERT
  8
LAYER_1
  2
AIGNBL01030023
 10
0
 20
0
 30
0
  0
INSERT
  8
LAYER_1
  2
AIGNBL01030024
 10
0
 20
0
 30
0
  0
INSERT
  8
LAYER_1
  2
AIGNBL01030025
 10
0
 20
0
 30
0
  0
INSERT
  8
LAYER_1
  2
AIGNBL01030026
 10
0
 20
0
 30
0
  0
INSERT
  8
LAYER_1
  2
AIGNBL01030027
 10
0
 20
0
 30
0
  0
ENDBLK
  0
BLOCK
  8
LAYER_1
  2
AIGNBL01010002
 70
64
 10
0
 20
0
 30
0
  3
AIGNBL01010002
  0
POLYLINE
  8
LAYER_1
 40
0.7056
 41
0.7056
 66
1
 10
0
 20
0
 30
0
 70
1
  0
VERTEX
  8
LAYER_1
 10
251.6749
 20
230.337
  0
VERTEX
  8
LAYER_1
 10
251.6749
 20
33.3285
  0
VERTEX
  8
LAYER_1
 10
-30.3177
 20
33.3285
  0
VERTEX
  8
LAYER_1
 10
-30.3177
 20
230.337
  0
SEQEND
  0
ENDBLK
  0
BLOCK
  8
LAYER_1
  2
AIGNBL01010003
 70
64
 10
0
 20
0
 30
0
  3
AIGNBL01010003
  0
INSERT
  8
LAYER_1
  2
AIGNBL01020004
 10
0
 20
0
 30
0
  0
POLYLINE
  8
LAYER_1
 40
0.05
 41
0.05
 66
1
 10
0
 20
0
 30
0
  0
VERTEX
  8
LAYER_1
 10
-6.457
 20
223.2684
  0
VERTEX
  8
LAYER_1
 10
-8.0924
 20
223.2684
  0
VERTEX
  8
LAYER_1
 10
-8.0924
 20
216.1939
 42
0.09304299953
  0
VERTEX
  8
LAYER_1
 10
-7.9518
 20
215.4241
 42
0.2872011141
  0
VERTEX
  8
LAYER_1
 10
-6.4597
 20
214.3359
  0
VERTEX
  8
LAYER_1
 10
-6.457
 20
223.2684
  0
SEQEND
  0
INSERT
  8
LAYER_1
  2
AIGNBL01020005
 10
0
 20
0
 30
0
  0
ENDBLK
  0
BLOCK
  8
LAYER_1
  2
AIGNBL01010006
 70
64
 10
0
 20
0
 30
0
  3
AIGNBL01010006
  0
INSERT
  8
LAYER_1
  2
AIGNBL01020007
 10
0
 20
0
 30
0
  0
INSERT
  8
LAYER_1
  2
AIGNBL01020010
 10
0
 20
0
 30
0
  0
ENDBLK
  0
BLOCK
  8
LAYER_1
  2
AIGNBL01010028
 70
64
 10
0
 20
0
 30
0
  3
AIGNBL01010028
  0
POLYLINE
  8
LAYER_1
 40
0.2752
 41
0.2752
 66
1
 10
0
 20
0
 30
0
  0
VERTEX
  8
LAYER_1
 10
241.1709
 20
150.6844
 42
0.4142105034
  0
VERTEX
  8
LAYER_1
 10
215.9788
 20
175.8766
 42
0.4142117737
  0
VERTEX
  8
LAYER_1
 10
190.7866
 20
150.6844
 42
0.4142112415
  0
VERTEX
  8
LAYER_1
 10
215.9788
 20
125.4922
 42
0.4142108353
  0
VERTEX
  8
LAYER_1
 10
241.1709
 20
150.6844
  0
SEQEND
  0
ENDBLK
  0
BLOCK
  8
LAYER_1
  2
AIGNBL01010029
 70
64
 10
0
 20
0
 30
0
  3
AIGNBL01010029
  0
POLYLINE
  8
LAYER_1
 40
0.1552
 41
0.1552
 66
1
 10
0
 20
0
 30
0
  0
VERTEX
  8
LAYER_1
 10
87.0466
 20
183.4435
 42
0.4141953057
  0
VERTEX
  8
LAYER_1
 10
84.7551
 20
185.7349
 42
0.4142224119
  0
VERTEX
  8
LAYER_1
 10
82.4632
 20
183.4435
 42
0.4142322161
  0
VERTEX
  8
LAYER_1
 10
84.7551
 20
181.152
 42
0.4142051105
  0
VERTEX
  8
LAYER_1
 10
87.0466
 20
183.4435
  0
SEQEND
  0
POLYLINE
  8
LAYER_1
 40
0.1552
 41
0.1552
 66
1
 10
0
 20
0
 30
0
  0
VERTEX
  8
LAYER_1
 10
88.2786
 20
183.4435
 42
0.4141898821
  0
VERTEX
  8
LAYER_1
 10
84.7548
 20
186.9672
 42
0.4142134516
  0
VERTEX
  8
LAYER_1
 10
81.2315
 20
183.4435
 42
0.4142198284
  0
VERTEX
  8
LAYER_1
 10
84.7548
 20
179.9197
 42
0.4141962579
  0
VERTEX
  8
LAYER_1
 10
88.2786
 20
183.4435
  0
SEQEND
  0
ENDBLK
  0
BLOCK
  8
LAYER_1
  2
AIGNBL0101002A
 70
64
 10
0
 20
0
 30
0
  3
AIGNBL0101002A
  0
POLYLINE
  8
LAYER_1
 40
0.1552
 41
0.1552
 66
1
 10
0
 20
0
 30
0
  0
VERTEX
  8
LAYER_1
 10
86.5045
 20
206.4087
 42
0.4141928331
  0
VERTEX
  8
LAYER_1
 10
84.7549
 20
208.1583
 42
0.4140987741
  0
VERTEX
  8
LAYER_1
 10
83.0053
 20
206.4087
 42
0.4141749924
  0
VERTEX
  8
LAYER_1
 10
84.7549
 20
204.6592
 42
0.4142690415
  0
VERTEX
  8
LAYER_1
 10
86.5045
 20
206.4087
  0
SEQEND
  0
ENDBLK
  0
ENDSEC
  0
SECTION
  2
ENTITIES
  0
TEXT
  8
LAYER_1
 10
-26.2556
 20
43.1712
 11
-26.2556
 21
43.1712
 40
3.5846
 41
0.5
  1
仕様
  0
POLYLINE
  8
LAYER_1
 40
0.3528
 41
0.3528
 66
1
 10
0
 20
0
 30
0
  0
VERTEX
  8
LAYER_1
 10
250.6748
 20
51.9507
  0
VERTEX
  8
LAYER_1
 10
-29.3346
 20
51.9507
  0
SEQEND
  0
INSERT
  8
LAYER_1
  2
AIGNBL01010002
 10
0
 20
0
 30
0
  0
POLYLINE
  8
LAYER_1
 40
0.3528
 41
0.3528
 66
1
 10
0
 20
0
 30
0
  0
VERTEX
  8
LAYER_1
 10
-29.3178
 20
229.3369
  0
VERTEX
  8
LAYER_1
 10
-29.3178
 20
34.3283
  0
VERTEX
  8
LAYER_1
 10
250.6748
 20
34.3283
  0
VERTEX
  8
LAYER_1
 10
250.6748
 20
229.3369
  0
VERTEX
  8
LAYER_1
 10
-29.3178
 20
229.3369
  0
SEQEND
  0
POLYLINE
  8
LAYER_1
 40
0.3528
 41
0.3528
 66
1
 10
0
 20
0
 30
0
  0
VERTEX
  8
LAYER_1
 10
250.6748
 20
60.4597
  0
VERTEX
  8
LAYER_1
 10
-29.3346
 20
60.4597
  0
SEQEND
  0
POLYLINE
  8
LAYER_1
 40
0.3528
 41
0.3528
 66
1
 10
0
 20
0
 30
0
  0
VERTEX
  8
LAYER_1
 10
250.6748
 20
43.4416
  0
VERTEX
  8
LAYER_1
 10
100.3837
 20
43.4416
  0
SEQEND
  0
TEXT
  8
LAYER_1
 10
188.1725
 20
45.6854
 11
188.1725
 21
45.6854
 40
4.2657
 41
0.5
  1
-
  0
TEXT
  8
LAYER_1
 10
182.8808
 20
49.4743
 11
182.8808
 21
49.4743
 40
2.3897
 41
0.5
  1
縮尺
  0
POLYLINE
  8
LAYER_1
 40
0.3528
 41
0.3528
 66
1
 10
0
 20
0
 30
0
  0
VERTEX
  8
LAYER_1
 10
181.3526
 20
43.4416
  0
VERTEX
  8
LAYER_1
 10
181.3526
 20
51.9507
  0
SEQEND
  0
TEXT
  8
LAYER_1
 10
101.641
 20
57.9834
 11
101.641
 21
57.9834
 40
2.3897
 41
0.5
  1
品番
  0
TEXT
  8
LAYER_1
 10
-28.1609
 20
57.9834
 11
-28.1609
 21
57.9834
 40
2.3897
 41
0.5
  1
品名
  0
TEXT
  8
LAYER_1
 10
101.641
 20
49.4743
 11
101.641
 21
49.4743
 40
2.3897
 41
0.5
  1
重量
  0
TEXT
  8
LAYER_1
 10
105.0013
 20
54.1714
 11
105.0013
 21
54.1714
 40
4.6883
 41
0.5
  1
CIE-ELLAT/（洗面ボウル） CIE- ELP50/（バックガード） CIE-ELSTT/（フレーム）
  0
TEXT
  8
LAYER_1
 10
107.1887
 20
45.6854
 11
107.1887
 21
45.6854
 40
4.2657
 41
0.5
  1
26.7kg
  0
POLYLINE
  8
LAYER_1
 40
0.3528
 41
0.3528
 66
1
 10
0
 20
0
 30
0
  0
VERTEX
  8
LAYER_1
 10
100.3837
 20
34.9539
  0
VERTEX
  8
LAYER_1
 10
100.3837
 20
60.4597
  0
SEQEND
  0
TEXT
  8
LAYER_1
 10
-15.2886
 20
54.891
 11
-15.2886
 21
54.891
 40
4.7023
 41
0.5
  1
エル壁付け手洗器500mm
  0
INSERT
  8
LAYER_1
  2
AIGNBL01010003
 10
0
 20
0
 30
0
  0
TEXT
  8
LAYER_1
 10
-15.6835
 20
43.9625
 11
-15.6835
 21
43.9625
 40
4.0305
 41
0.5
  1
●サイズ：W500×D540×H430mm●水栓取付穴：1穴●オーバーフローなし
  0
TEXT
  8
LAYER_1
 10
-15.6835
 20
39.2124
 11
-15.6835
 21
39.2124
 40
3.387
 41
0.5
  1
●排水金具別途●床固定ボルト付属●設置方法：壁付け
  0
TEXT
  8
LAYER_1
 10
237.263
 20
63.2582
 11
237.263
 21
63.2582
 40
3.3588
 41
0.5
  1
単位：mm
  0
TEXT
  8
LAYER_1
 10
-21.7499
 20
202.4877
 11
-21.7499
 21
202.4877
 40
2.8225
 41
0.5
  1
※陶器製品は寸法公差が発生します。
  0
TEXT
  8
LAYER_1
 10
-21.7499
 20
197.7378
 11
-21.7499
 21
197.7378
 40
3.3588
 41
0.5
  1
※壁面には50mm以上の補強材を入れてください。
  0
TEXT
  8
LAYER_1
 10
-21.7499
 20
192.9877
 11
-21.7499
 21
192.9877
 40
2.8225
 41
0.5
  1
※バックガードと洗面器の接する部分には必ずコーキング
  0
TEXT
  8
LAYER_1
 10
-21.7499
 20
188.2378
 11
-21.7499
 21
188.2378
 40
2.8225
 41
0.5
  1
処理を行ってください。
  0
TEXT
  8
LAYER_1
 10
-21.7499
 20
183.4877
 11
-21.7499
 21
183.4877
 40
3.3588
 41
0.5
 62
1
  1
※取付厚35mm以上対応の水栓金具を使用ください。
  0
TEXT
  8
LAYER_1
 10
134.702
 20
39.5359
 11
134.702
 21
39.5359
 40
3.8391
 41
0.5
  1
●TEL 0120-65-1232●FAX 06-6532-1580
  0
TEXT
  8
LAYER_1
 10
134.702
 20
35.9926
 11
134.702
 21
35.9926
 40
3.8391
 41
0.5
  1
hits@hiratatile.co.jp
  0
TEXT
  8
LAYER_1
 10
240.3591
 20
225.8257
 11
240.3591
 21
225.8257
 40
2.3512
 41
0.5
  1
170628RT
  0
INSERT
  8
LAYER_1
  2
AIGNBL01010006
 10
0
 20
0
 30
0
  0
POLYLINE
  8
LAYER_1
 40
0.1552
 41
0.1552
 66
1
 10
0
 20
0
 30
0
  0
VERTEX
  8
LAYER_1
 10
67.0381
 20
75.2601
  0
VERTEX
  8
LAYER_1
 10
66.9889
 20
75.2601
  0
VERTEX
  8
LAYER_1
 10
66.9397
 20
75.2601
  0
VERTEX
  8
LAYER_1
 10
66.8905
 20
75.2601
  0
VERTEX
  8
LAYER_1
 10
66.7916
 20
75.2601
  0
VERTEX
  8
LAYER_1
 10
66.5455
 20
75.2601
  0
VERTEX
  8
LAYER_1
 10
66.2989
 20
75.2601
  0
VERTEX
  8
LAYER_1
 10
66.1016
 20
75.2601
  0
VERTEX
  8
LAYER_1
 10
66.0032
 20
75.2601
  0
VERTEX
  8
LAYER_1
 10
65.9047
 20
75.2601
  0
VERTEX
  8
LAYER_1
 10
65.8555
 20
75.2601
  0
VERTEX
  8
LAYER_1
 10
65.8063
 20
75.2601
  0
VERTEX
  8
LAYER_1
 10
65.8063
 20
75.3093
  0
VERTEX
  8
LAYER_1
 10
65.8063
 20
75.3586
  0
VERTEX
  8
LAYER_1
 10
65.8063
 20
75.4574
  0
VERTEX
  8
LAYER_1
 10
65.8063
 20
75.6051
  0
VERTEX
  8
LAYER_1
 10
65.8063
 20
75.7528
  0
VERTEX
  8
LAYER_1
 10
65.7566
 20
75.9009
  0
VERTEX
  8
LAYER_1
 10
65.7566
 20
76.0978
  0
VERTEX
  8
LAYER_1
 10
65.7566
 20
76.3443
  0
VERTEX
  8
LAYER_1
 10
65.7074
 20
76.5416
  0
VERTEX
  8
LAYER_1
 10
65.7074
 20
76.7878
  0
VERTEX
  8
LAYER_1
 10
65.6582
 20
77.0835
  0
VERTEX
  8
LAYER_1
 10
65.6582
 20
77.3793
  0
VERTEX
  8
LAYER_1
 10
65.6582
 20
77.6751
  0
VERTEX
  8
LAYER_1
 10
65.6089
 20
77.9704
  0
VERTEX
  8
LAYER_1
 10
65.6089
 20
78.3154
  0
VERTEX
  8
LAYER_1
 10
65.5597
 20
78.6604
  0
VERTEX
  8
LAYER_1
 10
65.5105
 20
79.3504
  0
VERTEX
  8
LAYER_1
 10
65.4613
 20
80.1388
  0
VERTEX
  8
LAYER_1
 10
65.3624
 20
80.9277
  0
VERTEX
  8
LAYER_1
 10
65.3132
 20
81.7161
  0
VERTEX
  8
LAYER_1
 10
65.2639
 20
82.5538
  0
VERTEX
  8
LAYER_1
 10
65.1163
 20
84.1803
  0
VERTEX
  8
LAYER_1
 10
65.0671
 20
85.018
  0
VERTEX
  8
LAYER_1
 10
65.0174
 20
85.8064
  0
VERTEX
  8
LAYER_1
 10
64.9189
 20
86.5948
  0
VERTEX
  8
LAYER_1
 10
64.8697
 20
87.2848
  0
VERTEX
  8
LAYER_1
 10
64.8205
 20
87.9748
  0
VERTEX
  8
LAYER_1
 10
64.8205
 20
88.3198
  0
VERTEX
  8
LAYER_1
 10
64.7713
 20
88.6156
  0
VERTEX
  8
LAYER_1
 10
64.7713
 20
88.9114
  0
VERTEX
  8
LAYER_1
 10
64.7221
 20
89.2067
  0
VERTEX
  8
LAYER_1
 10
64.7221
 20
89.4533
  0
VERTEX
  8
LAYER_1
 10
64.6724
 20
89.6998
  0
VERTEX
  8
LAYER_1
 10
64.6724
 20
89.9459
  0
VERTEX
  8
LAYER_1
 10
64.6724
 20
90.1432
  0
VERTEX
  8
LAYER_1
 10
64.6232
 20
90.3401
  0
VERTEX
  8
LAYER_1
 10
64.6232
 20
90.4882
  0
VERTEX
  8
LAYER_1
 10
64.6232
 20
90.6359
  0
VERTEX
  8
LAYER_1
 10
64.6232
 20
90.7348
  0
VERTEX
  8
LAYER_1
 10
64.574
 20
90.8332
  0
VERTEX
  8
LAYER_1
 10
64.574
 20
90.8825
  0
VERTEX
  8
LAYER_1
 10
64.574
 20
90.9317
  0
VERTEX
  8
LAYER_1
 10
64.574
 20
90.9809
  0
VERTEX
  8
LAYER_1
 10
64.574
 20
91.0301
  0
VERTEX
  8
LAYER_1
 10
64.5247
 20
91.129
  0
VERTEX
  8
LAYER_1
 10
64.4755
 20
91.2275
  0
VERTEX
  8
LAYER_1
 10
64.4263
 20
91.3259
  0
VERTEX
  8
LAYER_1
 10
64.3278
 20
91.3751
  0
VERTEX
  8
LAYER_1
 10
64.229
 20
91.4243
  0
VERTEX
  8
LAYER_1
 10
64.1305
 20
91.4243
  0
VERTEX
  8
LAYER_1
 10
64.0813
 20
91.4243
  0
VERTEX
  8
LAYER_1
 10
64.0321
 20
91.4243
  0
VERTEX
  8
LAYER_1
 10
63.9828
 20
91.4243
  0
VERTEX
  8
LAYER_1
 10
63.8347
 20
91.4243
  0
VERTEX
  8
LAYER_1
 10
63.7363
 20
91.4243
  0
VERTEX
  8
LAYER_1
 10
63.539
 20
91.4243
  0
VERTEX
  8
LAYER_1
 10
62.849
 20
91.4243
  0
VERTEX
  8
LAYER_1
 10
62.7013
 20
91.4243
  0
VERTEX
  8
LAYER_1
 10
62.6029
 20
91.4243
  0
VERTEX
  8
LAYER_1
 10
62.5044
 20
91.4243
  0
VERTEX
  8
LAYER_1
 10
62.4055
 20
91.4243
  0
VERTEX
  8
LAYER_1
 10
62.3563
 20
91.4243
  0
VERTEX
  8
LAYER_1
 10
62.3071
 20
91.3751
  0
VERTEX
  8
LAYER_1
 10
62.2579
 20
91.3751
  0
VERTEX
  8
LAYER_1
 10
62.2086
 20
91.3259
  0
VERTEX
  8
LAYER_1
 10
62.1594
 20
91.2767
  0
VERTEX
  8
LAYER_1
 10
62.1098
 20
91.2275
  0
VERTEX
  8
LAYER_1
 10
62.0605
 20
91.2275
  0
VERTEX
  8
LAYER_1
 10
62.0113
 20
91.2275
  0
VERTEX
  8
LAYER_1
 10
61.9621
 20
91.2275
  0
VERTEX
  8
LAYER_1
 10
61.8637
 20
91.2275
  0
VERTEX
  8
LAYER_1
 10
61.6663
 20
91.2275
  0
VERTEX
  8
LAYER_1
 10
61.5187
 20
91.2275
  0
VERTEX
  8
LAYER_1
 10
61.3706
 20
91.2275
  0
VERTEX
  8
LAYER_1
 10
61.3213
 20
91.2275
  0
VERTEX
  8
LAYER_1
 10
61.2721
 20
91.2275
  0
VERTEX
  8
LAYER_1
 10
61.2229
 20
91.2275
  0
VERTEX
  8
LAYER_1
 10
61.1737
 20
91.2275
  0
VERTEX
  8
LAYER_1
 10
61.1244
 20
91.2767
  0
VERTEX
  8
LAYER_1
 10
61.0752
 20
91.3751
  0
VERTEX
  8
LAYER_1
 10
61.0752
 20
91.4243
  0
VERTEX
  8
LAYER_1
 10
61.0256
 20
91.4243
  0
VERTEX
  8
LAYER_1
 10
61.0256
 20
91.5232
  0
VERTEX
  8
LAYER_1
 10
61.0256
 20
91.5725
  0
VERTEX
  8
LAYER_1
 10
60.9763
 20
91.7201
  0
VERTEX
  8
LAYER_1
 10
60.9763
 20
91.9667
  0
VERTEX
  8
LAYER_1
 10
60.9271
 20
92.2132
  0
VERTEX
  8
LAYER_1
 10
60.8779
 20
92.4593
  0
VERTEX
  8
LAYER_1
 10
60.7794
 20
93.0509
  0
VERTEX
  8
LAYER_1
 10
60.7302
 20
93.2974
  0
VERTEX
  8
LAYER_1
 10
60.681
 20
93.5435
  0
VERTEX
  8
LAYER_1
 10
60.681
 20
93.7409
  0
VERTEX
  8
LAYER_1
 10
60.6313
 20
93.8393
  0
VERTEX
  8
LAYER_1
 10
60.6313
 20
93.8885
  0
VERTEX
  8
LAYER_1
 10
60.6313
 20
93.987
  0
VERTEX
  8
LAYER_1
 10
60.6313
 20
94.0366
  0
VERTEX
  8
LAYER_1
 10
60.5821
 20
94.1351
  0
VERTEX
  8
LAYER_1
 10
60.5329
 20
94.1843
  0
VERTEX
  8
LAYER_1
 10
60.4345
 20
94.2335
  0
VERTEX
  8
LAYER_1
 10
60.3852
 20
94.2335
  0
VERTEX
  8
LAYER_1
 10
60.336
 20
94.2335
  0
VERTEX
  8
LAYER_1
 10
60.2863
 20
94.2335
  0
SEQEND
  0
POLYLINE
  8
LAYER_1
 40
0.1552
 41
0.1552
 66
1
 10
0
 20
0
 30
0
  0
VERTEX
  8
LAYER_1
 10
59.9908
 20
94.2336
  0
VERTEX
  8
LAYER_1
 10
59.9416
 20
94.2336
  0
VERTEX
  8
LAYER_1
 10
59.8924
 20
94.2336
  0
VERTEX
  8
LAYER_1
 10
59.8432
 20
94.2336
  0
VERTEX
  8
LAYER_1
 10
59.7935
 20
94.2336
  0
VERTEX
  8
LAYER_1
 10
59.7443
 20
94.2336
  0
VERTEX
  8
LAYER_1
 10
59.6951
 20
94.2828
  0
VERTEX
  8
LAYER_1
 10
59.6458
 20
94.3321
  0
VERTEX
  8
LAYER_1
 10
59.6458
 20
94.431
  0
VERTEX
  8
LAYER_1
 10
59.6458
 20
94.4802
  0
VERTEX
  8
LAYER_1
 10
59.6458
 20
94.5294
  0
VERTEX
  8
LAYER_1
 10
59.6458
 20
94.5786
  0
SEQEND
  0
POLYLINE
  8
LAYER_1
 40
0.1552
 41
0.1552
 66
1
 10
0
 20
0
 30
0
  0
VERTEX
  8
LAYER_1
 10
59.6952
 20
94.8743
  0
VERTEX
  8
LAYER_1
 10
59.7444
 20
94.9727
  0
VERTEX
  8
LAYER_1
 10
59.7444
 20
95.022
  0
VERTEX
  8
LAYER_1
 10
59.7444
 20
95.0716
  0
VERTEX
  8
LAYER_1
 10
59.7936
 20
95.1701
  0
VERTEX
  8
LAYER_1
 10
59.8428
 20
95.1701
  0
VERTEX
  8
LAYER_1
 10
59.9417
 20
95.2193
  0
VERTEX
  8
LAYER_1
 10
59.9909
 20
95.2193
  0
VERTEX
  8
LAYER_1
 10
60.0401
 20
95.2193
  0
VERTEX
  8
LAYER_1
 10
60.1386
 20
95.2193
  0
SEQEND
  0
POLYLINE
  8
LAYER_1
 40
0.1552
 41
0.1552
 66
1
 10
0
 20
0
 30
0
  0
VERTEX
  8
LAYER_1
 10
60.4344
 20
95.2193
  0
VERTEX
  8
LAYER_1
 10
60.6317
 20
95.2193
  0
VERTEX
  8
LAYER_1
 10
60.8286
 20
95.2193
  0
VERTEX
  8
LAYER_1
 10
61.0752
 20
95.2193
  0
SEQEND
  0
POLYLINE
  8
LAYER_1
 40
0.1552
 41
0.1552
 66
1
 10
0
 20
0
 30
0
  0
VERTEX
  8
LAYER_1
 10
61.42
 20
95.2193
  0
VERTEX
  8
LAYER_1
 10
61.8635
 20
95.2193
  0
VERTEX
  8
LAYER_1
 10
62.0116
 20
95.2193
  0
SEQEND
  0
POLYLINE
  8
LAYER_1
 40
0.1552
 41
0.1552
 66
1
 10
0
 20
0
 30
0
  0
VERTEX
  8
LAYER_1
 10
62.3564
 20
95.2193
  0
VERTEX
  8
LAYER_1
 10
62.4056
 20
95.2193
  0
VERTEX
  8
LAYER_1
 10
62.9972
 20
95.2193
  0
SEQEND
  0
POLYLINE
  8
LAYER_1
 40
0.1552
 41
0.1552
 66
1
 10
0
 20
0
 30
0
  0
VERTEX
  8
LAYER_1
 10
63.2927
 20
95.2193
  0
VERTEX
  8
LAYER_1
 10
63.5393
 20
95.2193
  0
VERTEX
  8
LAYER_1
 10
63.9335
 20
95.2193
  0
SEQEND
  0
POLYLINE
  8
LAYER_1
 40
0.1552
 41
0.1552
 66
1
 10
0
 20
0
 30
0
  0
VERTEX
  8
LAYER_1
 10
64.2784
 20
95.2193
  0
VERTEX
  8
LAYER_1
 10
64.3276
 20
95.2193
  0
VERTEX
  8
LAYER_1
 10
64.5249
 20
95.2193
  0
VERTEX
  8
LAYER_1
 10
64.7218
 20
95.2193
  0
VERTEX
  8
LAYER_1
 10
64.8699
 20
95.2193
  0
SEQEND
  0
POLYLINE
  8
LAYER_1
 40
0.1552
 41
0.1552
 66
1
 10
0
 20
0
 30
0
  0
VERTEX
  8
LAYER_1
 10
65.2147
 20
95.2193
  0
VERTEX
  8
LAYER_1
 10
65.3132
 20
95.2193
  0
VERTEX
  8
LAYER_1
 10
65.3624
 20
95.2193
  0
VERTEX
  8
LAYER_1
 10
65.4121
 20
95.2193
  0
VERTEX
  8
LAYER_1
 10
65.4613
 20
95.2193
  0
VERTEX
  8
LAYER_1
 10
65.5597
 20
95.1701
  0
VERTEX
  8
LAYER_1
 10
65.5597
 20
95.0716
  0
VERTEX
  8
LAYER_1
 10
65.6089
 20
95.022
  0
VERTEX
  8
LAYER_1
 10
65.6089
 20
94.9727
  0
VERTEX
  8
LAYER_1
 10
65.6089
 20
94.9235
  0
VERTEX
  8
LAYER_1
 10
65.6089
 20
94.8743
  0
SEQEND
  0
POLYLINE
  8
LAYER_1
 40
0.1552
 41
0.1552
 66
1
 10
0
 20
0
 30
0
  0
VERTEX
  8
LAYER_1
 10
65.609
 20
94.5786
  0
VERTEX
  8
LAYER_1
 10
65.6582
 20
94.4309
  0
VERTEX
  8
LAYER_1
 10
65.6582
 20
94.2336
  0
VERTEX
  8
LAYER_1
 10
65.6582
 20
94.0367
  0
VERTEX
  8
LAYER_1
 10
65.6582
 20
93.9378
  0
SEQEND
  0
POLYLINE
  8
LAYER_1
 40
0.1552
 41
0.1552
 66
1
 10
0
 20
0
 30
0
  0
VERTEX
  8
LAYER_1
 10
65.7076
 20
93.6422
  0
VERTEX
  8
LAYER_1
 10
65.7076
 20
93.593
  0
VERTEX
  8
LAYER_1
 10
65.7076
 20
93.3465
  0
VERTEX
  8
LAYER_1
 10
65.7568
 20
93.0507
  0
VERTEX
  8
LAYER_1
 10
65.7568
 20
93.0015
  0
SEQEND
  0
POLYLINE
  8
LAYER_1
 40
0.1552
 41
0.1552
 66
1
 10
0
 20
0
 30
0
  0
VERTEX
  8
LAYER_1
 10
65.7568
 20
92.6566
  0
VERTEX
  8
LAYER_1
 10
65.806
 20
92.4593
  0
VERTEX
  8
LAYER_1
 10
65.806
 20
92.0158
  0
SEQEND
  0
POLYLINE
  8
LAYER_1
 40
0.1552
 41
0.1552
 66
1
 10
0
 20
0
 30
0
  0
VERTEX
  8
LAYER_1
 10
65.8554
 20
91.7203
  0
VERTEX
  8
LAYER_1
 10
65.9046
 20
91.1779
  0
VERTEX
  8
LAYER_1
 10
65.9046
 20
91.0795
  0
SEQEND
  0
POLYLINE
  8
LAYER_1
 40
0.1552
 41
0.1552
 66
1
 10
0
 20
0
 30
0
  0
VERTEX
  8
LAYER_1
 10
65.9047
 20
90.7839
  0
VERTEX
  8
LAYER_1
 10
65.9539
 20
90.4389
  0
VERTEX
  8
LAYER_1
 10
65.9539
 20
90.1431
  0
SEQEND
  0
POLYLINE
  8
LAYER_1
 40
0.1552
 41
0.1552
 66
1
 10
0
 20
0
 30
0
  0
VERTEX
  8
LAYER_1
 10
66.0032
 20
89.8476
  0
VERTEX
  8
LAYER_1
 10
66.0032
 20
89.6999
  0
VERTEX
  8
LAYER_1
 10
66.0525
 20
89.2068
  0
SEQEND
  0
POLYLINE
  8
LAYER_1
 40
0.1552
 41
0.1552
 66
1
 10
0
 20
0
 30
0
  0
VERTEX
  8
LAYER_1
 10
66.0525
 20
88.8619
  0
VERTEX
  8
LAYER_1
 10
66.1017
 20
88.2212
  0
SEQEND
  0
POLYLINE
  8
LAYER_1
 40
0.1552
 41
0.1552
 66
1
 10
0
 20
0
 30
0
  0
VERTEX
  8
LAYER_1
 10
66.1511
 20
87.9256
  0
VERTEX
  8
LAYER_1
 10
66.2003
 20
87.334
  0
VERTEX
  8
LAYER_1
 10
66.2003
 20
87.2848
  0
SEQEND
  0
POLYLINE
  8
LAYER_1
 40
0.1552
 41
0.1552
 66
1
 10
0
 20
0
 30
0
  0
VERTEX
  8
LAYER_1
 10
66.2004
 20
86.9892
  0
VERTEX
  8
LAYER_1
 10
66.2496
 20
86.3484
  0
SEQEND
  0
POLYLINE
  8
LAYER_1
 40
0.1552
 41
0.1552
 66
1
 10
0
 20
0
 30
0
  0
VERTEX
  8
LAYER_1
 10
66.2989
 20
86.0528
  0
VERTEX
  8
LAYER_1
 10
66.2989
 20
85.7571
  0
VERTEX
  8
LAYER_1
 10
66.3481
 20
85.4121
  0
SEQEND
  0
POLYLINE
  8
LAYER_1
 40
0.1552
 41
0.1552
 66
1
 10
0
 20
0
 30
0
  0
VERTEX
  8
LAYER_1
 10
66.3482
 20
85.0672
  0
VERTEX
  8
LAYER_1
 10
66.3974
 20
84.9688
  0
VERTEX
  8
LAYER_1
 10
66.3974
 20
84.4264
  0
SEQEND
  0
POLYLINE
  8
LAYER_1
 40
0.1552
 41
0.1552
 66
1
 10
0
 20
0
 30
0
  0
VERTEX
  8
LAYER_1
 10
66.4468
 20
84.1309
  0
VERTEX
  8
LAYER_1
 10
66.496
 20
83.5393
  0
VERTEX
  8
LAYER_1
 10
66.496
 20
83.4901
  0
SEQEND
  0
POLYLINE
  8
LAYER_1
 40
0.1552
 41
0.1552
 66
1
 10
0
 20
0
 30
0
  0
VERTEX
  8
LAYER_1
 10
66.496
 20
83.1945
  0
VERTEX
  8
LAYER_1
 10
66.5453
 20
82.8495
  0
VERTEX
  8
LAYER_1
 10
66.5453
 20
82.5537
  0
SEQEND
  0
POLYLINE
  8
LAYER_1
 40
0.1552
 41
0.1552
 66
1
 10
0
 20
0
 30
0
  0
VERTEX
  8
LAYER_1
 10
66.5946
 20
82.2582
  0
VERTEX
  8
LAYER_1
 10
66.5946
 20
81.9624
  0
VERTEX
  8
LAYER_1
 10
66.6438
 20
81.6666
  0
VERTEX
  8
LAYER_1
 10
66.6438
 20
81.6174
  0
SEQEND
  0
POLYLINE
  8
LAYER_1
 40
0.1552
 41
0.1552
 66
1
 10
0
 20
0
 30
0
  0
VERTEX
  8
LAYER_1
 10
66.6439
 20
81.2725
  0
VERTEX
  8
LAYER_1
 10
66.6439
 20
81.1741
  0
VERTEX
  8
LAYER_1
 10
66.6931
 20
80.9767
  0
VERTEX
  8
LAYER_1
 10
66.6931
 20
80.7799
  0
VERTEX
  8
LAYER_1
 10
66.6931
 20
80.681
  0
SEQEND
  0
POLYLINE
  8
LAYER_1
 40
0.1552
 41
0.1552
 66
1
 10
0
 20
0
 30
0
  0
VERTEX
  8
LAYER_1
 10
66.7425
 20
80.3361
  0
VERTEX
  8
LAYER_1
 10
66.7425
 20
80.2869
  0
VERTEX
  8
LAYER_1
 10
66.7425
 20
80.1885
  0
VERTEX
  8
LAYER_1
 10
66.7425
 20
80.0896
  0
VERTEX
  8
LAYER_1
 10
66.7425
 20
79.9912
  0
VERTEX
  8
LAYER_1
 10
66.7425
 20
79.9419
  0
SEQEND
  0
POLYLINE
  8
LAYER_1
 40
0.1552
 41
0.1552
 66
1
 10
0
 20
0
 30
0
  0
VERTEX
  8
LAYER_1
 10
68.6152
 20
75.4573
  0
VERTEX
  8
LAYER_1
 10
68.7136
 20
75.408
  0
VERTEX
  8
LAYER_1
 10
68.7629
 20
75.408
  0
VERTEX
  8
LAYER_1
 10
68.8125
 20
75.3096
  0
VERTEX
  8
LAYER_1
 10
68.8125
 20
75.2599
  0
SEQEND
  0
POLYLINE
  8
LAYER_1
 40
0.1552
 41
0.1552
 66
1
 10
0
 20
0
 30
0
  0
VERTEX
  8
LAYER_1
 10
67.2353
 20
75.4573
  0
VERTEX
  8
LAYER_1
 10
67.1368
 20
75.408
  0
VERTEX
  8
LAYER_1
 10
67.0876
 20
75.408
  0
VERTEX
  8
LAYER_1
 10
67.038
 20
75.3096
  0
VERTEX
  8
LAYER_1
 10
67.038
 20
75.2599
  0
VERTEX
  8
LAYER_1
 10
65.8061
 20
75.2599
  0
SEQEND
  0
POLYLINE
  8
LAYER_1
 40
0.1552
 41
0.1552
 66
1
 10
0
 20
0
 30
0
  0
VERTEX
  8
LAYER_1
 10
67.0381
 20
75.2601
  0
VERTEX
  8
LAYER_1
 10
67.7774
 20
75.2601
  0
SEQEND
  0
POLYLINE
  8
LAYER_1
 40
0.1552
 41
0.1552
 66
1
 10
0
 20
0
 30
0
  0
VERTEX
  8
LAYER_1
 10
68.0731
 20
75.2601
  0
VERTEX
  8
LAYER_1
 10
68.8123
 20
75.2601
  0
SEQEND
  0
POLYLINE
  8
LAYER_1
 40
0.1552
 41
0.1552
 66
1
 10
0
 20
0
 30
0
  0
VERTEX
  8
LAYER_1
 10
69.7979
 20
75.2601
  0
VERTEX
  8
LAYER_1
 10
99.2684
 20
75.2109
  0
SEQEND
  0
POLYLINE
  8
LAYER_1
 40
0.1552
 41
0.1552
 66
1
 10
0
 20
0
 30
0
  0
VERTEX
  8
LAYER_1
 10
82.3648
 20
76.4429
  0
VERTEX
  8
LAYER_1
 10
83.0056
 20
76.4429
  0
SEQEND
  0
POLYLINE
  8
LAYER_1
 40
0.1552
 41
0.1552
 66
1
 10
0
 20
0
 30
0
  0
VERTEX
  8
LAYER_1
 10
83.3504
 20
76.4429
  0
VERTEX
  8
LAYER_1
 10
83.9912
 20
76.4429
  0
SEQEND
  0
POLYLINE
  8
LAYER_1
 40
0.1552
 41
0.1552
 66
1
 10
0
 20
0
 30
0
  0
VERTEX
  8
LAYER_1
 10
84.2868
 20
76.4429
  0
VERTEX
  8
LAYER_1
 10
84.9276
 20
76.4429
  0
SEQEND
  0
POLYLINE
  8
LAYER_1
 40
0.1552
 41
0.1552
 66
1
 10
0
 20
0
 30
0
  0
VERTEX
  8
LAYER_1
 10
85.2231
 20
76.4429
  0
VERTEX
  8
LAYER_1
 10
85.8639
 20
76.4429
  0
SEQEND
  0
POLYLINE
  8
LAYER_1
 40
0.1552
 41
0.1552
 66
1
 10
0
 20
0
 30
0
  0
VERTEX
  8
LAYER_1
 10
86.2088
 20
76.4429
  0
VERTEX
  8
LAYER_1
 10
86.8495
 20
76.4429
  0
SEQEND
  0
POLYLINE
  8
LAYER_1
 40
0.1552
 41
0.1552
 66
1
 10
0
 20
0
 30
0
  0
VERTEX
  8
LAYER_1
 10
70.9314
 20
77.0343
  0
VERTEX
  8
LAYER_1
 10
71.3748
 20
77.0343
  0
SEQEND
  0
POLYLINE
  8
LAYER_1
 40
0.1552
 41
0.1552
 66
1
 10
0
 20
0
 30
0
  0
VERTEX
  8
LAYER_1
 10
71.6707
 20
77.0343
  0
VERTEX
  8
LAYER_1
 10
72.3114
 20
77.0343
  0
SEQEND
  0
POLYLINE
  8
LAYER_1
 40
0.1552
 41
0.1552
 66
1
 10
0
 20
0
 30
0
  0
VERTEX
  8
LAYER_1
 10
72.607
 20
77.0343
  0
VERTEX
  8
LAYER_1
 10
73.2477
 20
77.0343
  0
SEQEND
  0
POLYLINE
  8
LAYER_1
 40
0.1552
 41
0.1552
 66
1
 10
0
 20
0
 30
0
  0
VERTEX
  8
LAYER_1
 10
73.5926
 20
77.0343
  0
VERTEX
  8
LAYER_1
 10
74.1842
 20
77.0343
  0
SEQEND
  0
POLYLINE
  8
LAYER_1
 40
0.1552
 41
0.1552
 66
1
 10
0
 20
0
 30
0
  0
VERTEX
  8
LAYER_1
 10
74.529
 20
77.0343
  0
VERTEX
  8
LAYER_1
 10
75.1697
 20
77.0343
  0
SEQEND
  0
POLYLINE
  8
LAYER_1
 40
0.1552
 41
0.1552
 66
1
 10
0
 20
0
 30
0
  0
VERTEX
  8
LAYER_1
 10
75.4653
 20
77.0343
  0
VERTEX
  8
LAYER_1
 10
76.1061
 20
77.0343
  0
SEQEND
  0
POLYLINE
  8
LAYER_1
 40
0.1552
 41
0.1552
 66
1
 10
0
 20
0
 30
0
  0
VERTEX
  8
LAYER_1
 10
76.4017
 20
77.0343
  0
VERTEX
  8
LAYER_1
 10
77.0425
 20
77.0343
  0
SEQEND
  0
POLYLINE
  8
LAYER_1
 40
0.1552
 41
0.1552
 66
1
 10
0
 20
0
 30
0
  0
VERTEX
  8
LAYER_1
 10
77.3873
 20
77.0343
  0
VERTEX
  8
LAYER_1
 10
78.0281
 20
77.0343
  0
SEQEND
  0
POLYLINE
  8
LAYER_1
 40
0.1552
 41
0.1552
 66
1
 10
0
 20
0
 30
0
  0
VERTEX
  8
LAYER_1
 10
78.3237
 20
77.0343
  0
VERTEX
  8
LAYER_1
 10
78.9645
 20
77.0343
  0
SEQEND
  0
POLYLINE
  8
LAYER_1
 40
0.1552
 41
0.1552
 66
1
 10
0
 20
0
 30
0
  0
VERTEX
  8
LAYER_1
 10
79.26
 20
77.0343
  0
VERTEX
  8
LAYER_1
 10
79.7035
 20
77.0343
  0
SEQEND
  0
POLYLINE
  8
LAYER_1
 40
0.1552
 41
0.1552
 66
1
 10
0
 20
0
 30
0
  0
VERTEX
  8
LAYER_1
 10
67.2353
 20
75.2601
  0
VERTEX
  8
LAYER_1
 10
67.7772
 20
75.2601
  0
SEQEND
  0
POLYLINE
  8
LAYER_1
 40
0.1552
 41
0.1552
 66
1
 10
0
 20
0
 30
0
  0
VERTEX
  8
LAYER_1
 10
68.0731
 20
75.2601
  0
VERTEX
  8
LAYER_1
 10
68.615
 20
75.2601
  0
SEQEND
  0
POLYLINE
  8
LAYER_1
 40
0.1552
 41
0.1552
 66
1
 10
0
 20
0
 30
0
  0
VERTEX
  8
LAYER_1
 10
79.7036
 20
77.0343
  0
VERTEX
  8
LAYER_1
 10
79.9009
 20
77.0343
  0
VERTEX
  8
LAYER_1
 10
80.0978
 20
76.985
  0
VERTEX
  8
LAYER_1
 10
80.2455
 20
76.8866
  0
VERTEX
  8
LAYER_1
 10
80.3936
 20
76.7877
  0
VERTEX
  8
LAYER_1
 10
80.492
 20
76.64
  0
VERTEX
  8
LAYER_1
 10
80.5905
 20
76.4924
  0
VERTEX
  8
LAYER_1
 10
80.6894
 20
76.295
  0
VERTEX
  8
LAYER_1
 10
80.6894
 20
76.1474
  0
VERTEX
  8
LAYER_1
 10
80.7878
 20
75.2601
  0
SEQEND
  0
POLYLINE
  8
LAYER_1
 40
0.1552
 41
0.1552
 66
1
 10
0
 20
0
 30
0
  0
VERTEX
  8
LAYER_1
 10
70.9314
 20
77.0343
  0
VERTEX
  8
LAYER_1
 10
70.7341
 20
77.0343
  0
VERTEX
  8
LAYER_1
 10
70.5372
 20
76.985
  0
VERTEX
  8
LAYER_1
 10
70.3895
 20
76.8866
  0
VERTEX
  8
LAYER_1
 10
70.3399
 20
76.8866
  0
SEQEND
  0
POLYLINE
  8
LAYER_1
 40
0.1552
 41
0.1552
 66
1
 10
0
 20
0
 30
0
  0
VERTEX
  8
LAYER_1
 10
70.1429
 20
76.64
  0
VERTEX
  8
LAYER_1
 10
70.0937
 20
76.64
  0
VERTEX
  8
LAYER_1
 10
69.9953
 20
76.4924
  0
VERTEX
  8
LAYER_1
 10
69.9456
 20
76.295
  0
VERTEX
  8
LAYER_1
 10
69.8964
 20
76.1474
  0
VERTEX
  8
LAYER_1
 10
69.7979
 20
75.2601
  0
SEQEND
  0
POLYLINE
  8
LAYER_1
 40
0.1552
 41
0.1552
 66
1
 10
0
 20
0
 30
0
  0
VERTEX
  8
LAYER_1
 10
66.7425
 20
79.9419
  0
VERTEX
  8
LAYER_1
 10
66.7917
 20
79.7942
  0
VERTEX
  8
LAYER_1
 10
66.8409
 20
79.5969
  0
VERTEX
  8
LAYER_1
 10
66.9398
 20
79.4492
  0
SEQEND
  0
POLYLINE
  8
LAYER_1
 40
0.1552
 41
0.1552
 66
1
 10
0
 20
0
 30
0
  0
VERTEX
  8
LAYER_1
 10
67.186
 20
79.2027
  0
VERTEX
  8
LAYER_1
 10
67.3833
 20
79.1042
  0
VERTEX
  8
LAYER_1
 10
67.531
 20
79.055
  0
VERTEX
  8
LAYER_1
 10
67.7279
 20
79.055
  0
SEQEND
  0
POLYLINE
  8
LAYER_1
 40
0.1552
 41
0.1552
 66
1
 10
0
 20
0
 30
0
  0
VERTEX
  8
LAYER_1
 10
82.3648
 20
75.2601
  0
VERTEX
  8
LAYER_1
 10
82.3648
 20
75.3093
  0
VERTEX
  8
LAYER_1
 10
82.3648
 20
75.4078
  0
VERTEX
  8
LAYER_1
 10
82.3648
 20
75.5067
  0
VERTEX
  8
LAYER_1
 10
82.3648
 20
75.7528
  0
SEQEND
  0
POLYLINE
  8
LAYER_1
 40
0.1552
 41
0.1552
 66
1
 10
0
 20
0
 30
0
  0
VERTEX
  8
LAYER_1
 10
82.3648
 20
76.0979
  0
VERTEX
  8
LAYER_1
 10
82.3648
 20
76.2456
  0
VERTEX
  8
LAYER_1
 10
82.3648
 20
76.2953
  0
VERTEX
  8
LAYER_1
 10
82.3648
 20
76.3445
  0
VERTEX
  8
LAYER_1
 10
82.3648
 20
76.3937
  0
VERTEX
  8
LAYER_1
 10
82.3156
 20
76.4922
  0
VERTEX
  8
LAYER_1
 10
82.3156
 20
76.5414
  0
VERTEX
  8
LAYER_1
 10
82.2664
 20
76.5414
  0
VERTEX
  8
LAYER_1
 10
82.2171
 20
76.5906
  0
VERTEX
  8
LAYER_1
 10
82.1675
 20
76.6403
  0
SEQEND
  0
POLYLINE
  8
LAYER_1
 40
0.1552
 41
0.1552
 66
1
 10
0
 20
0
 30
0
  0
VERTEX
  8
LAYER_1
 10
81.9213
 20
76.8864
  0
VERTEX
  8
LAYER_1
 10
81.8721
 20
76.9849
  0
VERTEX
  8
LAYER_1
 10
81.6747
 20
77.133
  0
VERTEX
  8
LAYER_1
 10
81.4778
 20
77.3299
  0
SEQEND
  0
POLYLINE
  8
LAYER_1
 40
0.1552
 41
0.1552
 66
1
 10
0
 20
0
 30
0
  0
VERTEX
  8
LAYER_1
 10
81.2806
 20
77.5271
  0
VERTEX
  8
LAYER_1
 10
81.0833
 20
77.7244
  0
VERTEX
  8
LAYER_1
 10
80.8864
 20
77.8721
  0
VERTEX
  8
LAYER_1
 10
80.8372
 20
77.9705
  0
SEQEND
  0
POLYLINE
  8
LAYER_1
 40
0.1552
 41
0.1552
 66
1
 10
0
 20
0
 30
0
  0
VERTEX
  8
LAYER_1
 10
80.5907
 20
78.2171
  0
VERTEX
  8
LAYER_1
 10
80.5414
 20
78.2171
  0
VERTEX
  8
LAYER_1
 10
80.4922
 20
78.2663
  0
VERTEX
  8
LAYER_1
 10
80.443
 20
78.2663
  0
VERTEX
  8
LAYER_1
 10
80.3933
 20
78.2663
  0
VERTEX
  8
LAYER_1
 10
80.3441
 20
78.2663
  0
VERTEX
  8
LAYER_1
 10
80.2457
 20
78.2663
  0
VERTEX
  8
LAYER_1
 10
80.098
 20
78.2663
  0
VERTEX
  8
LAYER_1
 10
79.9499
 20
78.2663
  0
SEQEND
  0
POLYLINE
  8
LAYER_1
 40
0.1552
 41
0.1552
 66
1
 10
0
 20
0
 30
0
  0
VERTEX
  8
LAYER_1
 10
79.6543
 20
78.3156
  0
VERTEX
  8
LAYER_1
 10
79.6051
 20
78.3156
  0
VERTEX
  8
LAYER_1
 10
79.4077
 20
78.3156
  0
VERTEX
  8
LAYER_1
 10
79.1616
 20
78.3156
  0
VERTEX
  8
LAYER_1
 10
79.0135
 20
78.3156
  0
SEQEND
  0
POLYLINE
  8
LAYER_1
 40
0.1552
 41
0.1552
 66
1
 10
0
 20
0
 30
0
  0
VERTEX
  8
LAYER_1
 10
78.718
 20
78.3649
  0
VERTEX
  8
LAYER_1
 10
78.6687
 20
78.3649
  0
VERTEX
  8
LAYER_1
 10
78.373
 20
78.3649
  0
VERTEX
  8
LAYER_1
 10
78.0772
 20
78.4141
  0
SEQEND
  0
POLYLINE
  8
LAYER_1
 40
0.1552
 41
0.1552
 66
1
 10
0
 20
0
 30
0
  0
VERTEX
  8
LAYER_1
 10
77.7323
 20
78.4142
  0
VERTEX
  8
LAYER_1
 10
77.1408
 20
78.4634
  0
SEQEND
  0
POLYLINE
  8
LAYER_1
 40
0.1552
 41
0.1552
 66
1
 10
0
 20
0
 30
0
  0
VERTEX
  8
LAYER_1
 10
76.796
 20
78.4635
  0
VERTEX
  8
LAYER_1
 10
76.451
 20
78.5127
  0
VERTEX
  8
LAYER_1
 10
76.1552
 20
78.5127
  0
SEQEND
  0
POLYLINE
  8
LAYER_1
 40
0.1552
 41
0.1552
 66
1
 10
0
 20
0
 30
0
  0
VERTEX
  8
LAYER_1
 10
75.8596
 20
78.5127
  0
VERTEX
  8
LAYER_1
 10
75.7119
 20
78.562
  0
VERTEX
  8
LAYER_1
 10
75.2188
 20
78.562
  0
SEQEND
  0
POLYLINE
  8
LAYER_1
 40
0.1552
 41
0.1552
 66
1
 10
0
 20
0
 30
0
  0
VERTEX
  8
LAYER_1
 10
74.9232
 20
78.6113
  0
VERTEX
  8
LAYER_1
 10
74.2825
 20
78.6113
  0
SEQEND
  0
POLYLINE
  8
LAYER_1
 40
0.1552
 41
0.1552
 66
1
 10
0
 20
0
 30
0
  0
VERTEX
  8
LAYER_1
 10
73.9376
 20
78.6606
  0
VERTEX
  8
LAYER_1
 10
73.4942
 20
78.6606
  0
VERTEX
  8
LAYER_1
 10
73.2968
 20
78.7098
  0
SEQEND
  0
POLYLINE
  8
LAYER_1
 40
0.1552
 41
0.1552
 66
1
 10
0
 20
0
 30
0
  0
VERTEX
  8
LAYER_1
 10
73.0012
 20
78.7098
  0
VERTEX
  8
LAYER_1
 10
72.7547
 20
78.7098
  0
VERTEX
  8
LAYER_1
 10
72.3605
 20
78.7591
  0
SEQEND
  0
POLYLINE
  8
LAYER_1
 40
0.1552
 41
0.1552
 66
1
 10
0
 20
0
 30
0
  0
VERTEX
  8
LAYER_1
 10
72.0649
 20
78.7592
  0
VERTEX
  8
LAYER_1
 10
71.4242
 20
78.8084
  0
SEQEND
  0
POLYLINE
  8
LAYER_1
 40
0.1552
 41
0.1552
 66
1
 10
0
 20
0
 30
0
  0
VERTEX
  8
LAYER_1
 10
71.1286
 20
78.8084
  0
VERTEX
  8
LAYER_1
 10
70.6851
 20
78.8576
  0
VERTEX
  8
LAYER_1
 10
70.4878
 20
78.8576
  0
SEQEND
  0
POLYLINE
  8
LAYER_1
 40
0.1552
 41
0.1552
 66
1
 10
0
 20
0
 30
0
  0
VERTEX
  8
LAYER_1
 10
70.1429
 20
78.907
  0
VERTEX
  8
LAYER_1
 10
70.0445
 20
78.907
  0
VERTEX
  8
LAYER_1
 10
69.7979
 20
78.907
  0
VERTEX
  8
LAYER_1
 10
69.5022
 20
78.907
  0
SEQEND
  0
POLYLINE
  8
LAYER_1
 40
0.1552
 41
0.1552
 66
1
 10
0
 20
0
 30
0
  0
VERTEX
  8
LAYER_1
 10
69.2066
 20
78.9563
  0
VERTEX
  8
LAYER_1
 10
69.0092
 20
78.9563
  0
VERTEX
  8
LAYER_1
 10
68.7631
 20
78.9563
  0
VERTEX
  8
LAYER_1
 10
68.5658
 20
79.0055
  0
SEQEND
  0
POLYLINE
  8
LAYER_1
 40
0.1552
 41
0.1552
 66
1
 10
0
 20
0
 30
0
  0
VERTEX
  8
LAYER_1
 10
68.2702
 20
79.0056
  0
VERTEX
  8
LAYER_1
 10
68.221
 20
79.0056
  0
VERTEX
  8
LAYER_1
 10
68.0729
 20
79.0056
  0
VERTEX
  8
LAYER_1
 10
67.9252
 20
79.0056
  0
VERTEX
  8
LAYER_1
 10
67.8267
 20
79.0548
  0
VERTEX
  8
LAYER_1
 10
67.7775
 20
79.0548
  0
VERTEX
  8
LAYER_1
 10
67.7283
 20
79.0548
  0
SEQEND
  0
POLYLINE
  8
LAYER_1
 40
0.1552
 41
0.1552
 66
1
 10
0
 20
0
 30
0
  0
VERTEX
  8
LAYER_1
 10
62.0607
 20
91.2274
  0
VERTEX
  8
LAYER_1
 10
64.4756
 20
91.2274
  0
SEQEND
  0
POLYLINE
  8
LAYER_1
 40
0.1552
 41
0.1552
 66
1
 10
0
 20
0
 30
0
  0
VERTEX
  8
LAYER_1
 10
68.8123
 20
75.2601
  0
VERTEX
  8
LAYER_1
 10
69.1573
 20
75.2601
  0
SEQEND
  0
POLYLINE
  8
LAYER_1
 40
0.1552
 41
0.1552
 66
1
 10
0
 20
0
 30
0
  0
VERTEX
  8
LAYER_1
 10
69.5022
 20
75.2601
  0
VERTEX
  8
LAYER_1
 10
69.798
 20
75.2601
  0
SEQEND
  0
POLYLINE
  8
LAYER_1
 40
0.1552
 41
0.1552
 66
1
 10
0
 20
0
 30
0
  0
VERTEX
  8
LAYER_1
 10
65.4119
 20
95.2193
  0
VERTEX
  8
LAYER_1
 10
103.7037
 20
95.2193
  0
SEQEND
  0
POLYLINE
  8
LAYER_1
 40
0.1552
 41
0.1552
 66
1
 10
0
 20
0
 30
0
  0
VERTEX
  8
LAYER_1
 10
80.4921
 20
78.2663
  0
VERTEX
  8
LAYER_1
 10
81.1328
 20
78.2663
  0
SEQEND
  0
POLYLINE
  8
LAYER_1
 40
0.1552
 41
0.1552
 66
1
 10
0
 20
0
 30
0
  0
VERTEX
  8
LAYER_1
 10
81.4284
 20
78.2663
  0
VERTEX
  8
LAYER_1
 10
82.0692
 20
78.2663
  0
SEQEND
  0
POLYLINE
  8
LAYER_1
 40
0.1552
 41
0.1552
 66
1
 10
0
 20
0
 30
0
  0
VERTEX
  8
LAYER_1
 10
82.3648
 20
78.2663
  0
VERTEX
  8
LAYER_1
 10
83.0056
 20
78.2663
  0
SEQEND
  0
POLYLINE
  8
LAYER_1
 40
0.1552
 41
0.1552
 66
1
 10
0
 20
0
 30
0
  0
VERTEX
  8
LAYER_1
 10
83.3504
 20
78.2663
  0
VERTEX
  8
LAYER_1
 10
83.942
 20
78.2663
  0
SEQEND
  0
POLYLINE
  8
LAYER_1
 40
0.1552
 41
0.1552
 66
1
 10
0
 20
0
 30
0
  0
VERTEX
  8
LAYER_1
 10
84.2868
 20
78.2663
  0
VERTEX
  8
LAYER_1
 10
84.9276
 20
78.2663
  0
SEQEND
  0
POLYLINE
  8
LAYER_1
 40
0.1552
 41
0.1552
 66
1
 10
0
 20
0
 30
0
  0
VERTEX
  8
LAYER_1
 10
85.2231
 20
78.2663
  0
VERTEX
  8
LAYER_1
 10
85.8639
 20
78.2663
  0
SEQEND
  0
POLYLINE
  8
LAYER_1
 40
0.1552
 41
0.1552
 66
1
 10
0
 20
0
 30
0
  0
VERTEX
  8
LAYER_1
 10
86.2088
 20
78.2663
  0
VERTEX
  8
LAYER_1
 10
86.8003
 20
78.2663
  0
SEQEND
  0
POLYLINE
  8
LAYER_1
 40
0.1552
 41
0.1552
 66
1
 10
0
 20
0
 30
0
  0
VERTEX
  8
LAYER_1
 10
87.1451
 20
78.2663
  0
VERTEX
  8
LAYER_1
 10
87.7859
 20
78.2663
  0
SEQEND
  0
POLYLINE
  8
LAYER_1
 40
0.1552
 41
0.1552
 66
1
 10
0
 20
0
 30
0
  0
VERTEX
  8
LAYER_1
 10
88.0815
 20
78.2663
  0
VERTEX
  8
LAYER_1
 10
88.7223
 20
78.2663
  0
SEQEND
  0
POLYLINE
  8
LAYER_1
 40
0.1552
 41
0.1552
 66
1
 10
0
 20
0
 30
0
  0
VERTEX
  8
LAYER_1
 10
82.3648
 20
75.2601
  0
VERTEX
  8
LAYER_1
 10
86.8001
 20
75.2601
  0
SEQEND
  0
POLYLINE
  8
LAYER_1
 40
0.1552
 41
0.1552
 66
1
 10
0
 20
0
 30
0
  0
VERTEX
  8
LAYER_1
 10
102.1761
 20
75.2601
  0
VERTEX
  8
LAYER_1
 10
102.2253
 20
75.2601
  0
VERTEX
  8
LAYER_1
 10
102.3238
 20
75.2601
  0
VERTEX
  8
LAYER_1
 10
102.4227
 20
75.2601
  0
VERTEX
  8
LAYER_1
 10
102.6195
 20
75.2601
  0
VERTEX
  8
LAYER_1
 10
102.8661
 20
75.2601
  0
VERTEX
  8
LAYER_1
 10
103.1126
 20
75.2601
  0
VERTEX
  8
LAYER_1
 10
103.2111
 20
75.2601
  0
VERTEX
  8
LAYER_1
 10
103.3095
 20
75.2601
  0
VERTEX
  8
LAYER_1
 10
103.3588
 20
75.2601
  0
VERTEX
  8
LAYER_1
 10
103.3588
 20
75.3093
  0
VERTEX
  8
LAYER_1
 10
103.3588
 20
75.3586
  0
VERTEX
  8
LAYER_1
 10
103.408
 20
75.4574
  0
VERTEX
  8
LAYER_1
 10
103.408
 20
75.6051
  0
VERTEX
  8
LAYER_1
 10
103.408
 20
75.7528
  0
VERTEX
  8
LAYER_1
 10
103.408
 20
75.9009
  0
VERTEX
  8
LAYER_1
 10
103.4576
 20
76.0978
  0
VERTEX
  8
LAYER_1
 10
103.4576
 20
76.3443
  0
VERTEX
  8
LAYER_1
 10
103.4576
 20
76.5416
  0
VERTEX
  8
LAYER_1
 10
103.5069
 20
76.7878
  0
VERTEX
  8
LAYER_1
 10
103.5069
 20
77.0835
  0
VERTEX
  8
LAYER_1
 10
103.5561
 20
77.3793
  0
VERTEX
  8
LAYER_1
 10
103.5561
 20
77.6751
  0
VERTEX
  8
LAYER_1
 10
103.6053
 20
77.9704
  0
VERTEX
  8
LAYER_1
 10
103.6053
 20
78.3154
  0
VERTEX
  8
LAYER_1
 10
103.6545
 20
78.6604
  0
VERTEX
  8
LAYER_1
 10
103.7038
 20
79.3504
  0
VERTEX
  8
LAYER_1
 10
103.753
 20
80.1388
  0
VERTEX
  8
LAYER_1
 10
103.8022
 20
80.9277
  0
VERTEX
  8
LAYER_1
 10
103.9011
 20
81.7161
  0
VERTEX
  8
LAYER_1
 10
103.9503
 20
82.5538
  0
VERTEX
  8
LAYER_1
 10
104.098
 20
84.1803
  0
VERTEX
  8
LAYER_1
 10
104.1472
 20
85.018
  0
VERTEX
  8
LAYER_1
 10
104.1969
 20
85.8064
  0
VERTEX
  8
LAYER_1
 10
104.2461
 20
86.5948
  0
VERTEX
  8
LAYER_1
 10
104.3445
 20
87.2848
  0
VERTEX
  8
LAYER_1
 10
104.3937
 20
87.9748
  0
VERTEX
  8
LAYER_1
 10
104.3937
 20
88.3198
  0
VERTEX
  8
LAYER_1
 10
104.443
 20
88.6156
  0
VERTEX
  8
LAYER_1
 10
104.443
 20
88.9114
  0
VERTEX
  8
LAYER_1
 10
104.4922
 20
89.2067
  0
VERTEX
  8
LAYER_1
 10
104.4922
 20
89.4533
  0
VERTEX
  8
LAYER_1
 10
104.4922
 20
89.6998
  0
VERTEX
  8
LAYER_1
 10
104.5414
 20
89.9459
  0
VERTEX
  8
LAYER_1
 10
104.5414
 20
90.1432
  0
VERTEX
  8
LAYER_1
 10
104.5414
 20
90.3401
  0
VERTEX
  8
LAYER_1
 10
104.5911
 20
90.4882
  0
VERTEX
  8
LAYER_1
 10
104.5911
 20
90.6359
  0
VERTEX
  8
LAYER_1
 10
104.5911
 20
90.7348
  0
VERTEX
  8
LAYER_1
 10
104.5911
 20
90.8332
  0
VERTEX
  8
LAYER_1
 10
104.5911
 20
90.8825
  0
VERTEX
  8
LAYER_1
 10
104.5911
 20
90.9317
  0
VERTEX
  8
LAYER_1
 10
104.5911
 20
90.9809
  0
VERTEX
  8
LAYER_1
 10
104.6403
 20
91.0301
  0
VERTEX
  8
LAYER_1
 10
104.6403
 20
91.129
  0
VERTEX
  8
LAYER_1
 10
104.6895
 20
91.2275
  0
VERTEX
  8
LAYER_1
 10
104.788
 20
91.3259
  0
VERTEX
  8
LAYER_1
 10
104.8864
 20
91.3751
  0
VERTEX
  8
LAYER_1
 10
104.9853
 20
91.4243
  0
VERTEX
  8
LAYER_1
 10
105.0837
 20
91.4243
  0
VERTEX
  8
LAYER_1
 10
105.133
 20
91.4243
  0
VERTEX
  8
LAYER_1
 10
105.2314
 20
91.4243
  0
VERTEX
  8
LAYER_1
 10
105.3303
 20
91.4243
  0
VERTEX
  8
LAYER_1
 10
105.478
 20
91.4243
  0
VERTEX
  8
LAYER_1
 10
105.6256
 20
91.4243
  0
VERTEX
  8
LAYER_1
 10
106.3156
 20
91.4243
  0
VERTEX
  8
LAYER_1
 10
106.5129
 20
91.4243
  0
VERTEX
  8
LAYER_1
 10
106.6114
 20
91.4243
  0
VERTEX
  8
LAYER_1
 10
106.7098
 20
91.4243
  0
VERTEX
  8
LAYER_1
 10
106.7595
 20
91.4243
  0
VERTEX
  8
LAYER_1
 10
106.8579
 20
91.4243
  0
VERTEX
  8
LAYER_1
 10
106.9072
 20
91.3751
  0
VERTEX
  8
LAYER_1
 10
106.9564
 20
91.3751
  0
VERTEX
  8
LAYER_1
 10
106.9564
 20
91.3259
  0
VERTEX
  8
LAYER_1
 10
107.0056
 20
91.2767
  0
VERTEX
  8
LAYER_1
 10
107.0548
 20
91.2275
  0
VERTEX
  8
LAYER_1
 10
107.1045
 20
91.2275
  0
VERTEX
  8
LAYER_1
 10
107.1537
 20
91.2275
  0
VERTEX
  8
LAYER_1
 10
107.2029
 20
91.2275
  0
VERTEX
  8
LAYER_1
 10
107.3506
 20
91.2275
  0
VERTEX
  8
LAYER_1
 10
107.4987
 20
91.2275
  0
VERTEX
  8
LAYER_1
 10
107.6956
 20
91.2275
  0
VERTEX
  8
LAYER_1
 10
107.8437
 20
91.2275
  0
VERTEX
  8
LAYER_1
 10
107.8929
 20
91.2275
  0
VERTEX
  8
LAYER_1
 10
107.9421
 20
91.2275
  0
VERTEX
  8
LAYER_1
 10
108.0406
 20
91.2275
  0
VERTEX
  8
LAYER_1
 10
108.0898
 20
91.2767
  0
VERTEX
  8
LAYER_1
 10
108.139
 20
91.3751
  0
VERTEX
  8
LAYER_1
 10
108.139
 20
91.4243
  0
VERTEX
  8
LAYER_1
 10
108.139
 20
91.5232
  0
VERTEX
  8
LAYER_1
 10
108.1887
 20
91.5725
  0
VERTEX
  8
LAYER_1
 10
108.1887
 20
91.7201
  0
VERTEX
  8
LAYER_1
 10
108.2379
 20
91.9667
  0
VERTEX
  8
LAYER_1
 10
108.2871
 20
92.2132
  0
VERTEX
  8
LAYER_1
 10
108.3364
 20
92.4593
  0
VERTEX
  8
LAYER_1
 10
108.4348
 20
93.0509
  0
VERTEX
  8
LAYER_1
 10
108.484
 20
93.2974
  0
VERTEX
  8
LAYER_1
 10
108.484
 20
93.5435
  0
VERTEX
  8
LAYER_1
 10
108.5332
 20
93.7409
  0
VERTEX
  8
LAYER_1
 10
108.5332
 20
93.8393
  0
VERTEX
  8
LAYER_1
 10
108.5829
 20
93.8885
  0
VERTEX
  8
LAYER_1
 10
108.5829
 20
93.987
  0
VERTEX
  8
LAYER_1
 10
108.5829
 20
94.0366
  0
VERTEX
  8
LAYER_1
 10
108.6321
 20
94.1351
  0
VERTEX
  8
LAYER_1
 10
108.6814
 20
94.1843
  0
VERTEX
  8
LAYER_1
 10
108.7306
 20
94.2335
  0
VERTEX
  8
LAYER_1
 10
108.829
 20
94.2335
  0
VERTEX
  8
LAYER_1
 10
108.8782
 20
94.2335
  0
SEQEND
  0
POLYLINE
  8
LAYER_1
 40
0.1552
 41
0.1552
 66
1
 10
0
 20
0
 30
0
  0
VERTEX
  8
LAYER_1
 10
109.2234
 20
94.2336
  0
VERTEX
  8
LAYER_1
 10
109.3218
 20
94.2336
  0
VERTEX
  8
LAYER_1
 10
109.371
 20
94.2336
  0
VERTEX
  8
LAYER_1
 10
109.4699
 20
94.2336
  0
VERTEX
  8
LAYER_1
 10
109.5191
 20
94.2828
  0
VERTEX
  8
LAYER_1
 10
109.5684
 20
94.3813
  0
VERTEX
  8
LAYER_1
 10
109.5684
 20
94.431
  0
VERTEX
  8
LAYER_1
 10
109.5684
 20
94.4802
  0
VERTEX
  8
LAYER_1
 10
109.5684
 20
94.5294
  0
VERTEX
  8
LAYER_1
 10
109.5191
 20
94.5786
  0
SEQEND
  0
POLYLINE
  8
LAYER_1
 40
0.1552
 41
0.1552
 66
1
 10
0
 20
0
 30
0
  0
VERTEX
  8
LAYER_1
 10
109.4698
 20
94.8743
  0
VERTEX
  8
LAYER_1
 10
109.4698
 20
94.9727
  0
VERTEX
  8
LAYER_1
 10
109.4698
 20
95.022
  0
VERTEX
  8
LAYER_1
 10
109.4698
 20
95.0716
  0
VERTEX
  8
LAYER_1
 10
109.4206
 20
95.0716
  0
VERTEX
  8
LAYER_1
 10
109.4206
 20
95.1701
  0
VERTEX
  8
LAYER_1
 10
109.3713
 20
95.1701
  0
VERTEX
  8
LAYER_1
 10
109.2725
 20
95.2193
  0
VERTEX
  8
LAYER_1
 10
109.2232
 20
95.2193
  0
VERTEX
  8
LAYER_1
 10
109.1248
 20
95.2193
  0
VERTEX
  8
LAYER_1
 10
109.0756
 20
95.2193
  0
SEQEND
  0
POLYLINE
  8
LAYER_1
 40
0.1552
 41
0.1552
 66
1
 10
0
 20
0
 30
0
  0
VERTEX
  8
LAYER_1
 10
108.7306
 20
95.2193
  0
VERTEX
  8
LAYER_1
 10
108.5829
 20
95.2193
  0
VERTEX
  8
LAYER_1
 10
108.3364
 20
95.2193
  0
VERTEX
  8
LAYER_1
 10
108.139
 20
95.2193
  0
VERTEX
  8
LAYER_1
 10
108.0898
 20
95.2193
  0
SEQEND
  0
POLYLINE
  8
LAYER_1
 40
0.1552
 41
0.1552
 66
1
 10
0
 20
0
 30
0
  0
VERTEX
  8
LAYER_1
 10
107.7942
 20
95.2193
  0
VERTEX
  8
LAYER_1
 10
107.3508
 20
95.2193
  0
VERTEX
  8
LAYER_1
 10
107.1534
 20
95.2193
  0
SEQEND
  0
POLYLINE
  8
LAYER_1
 40
0.1552
 41
0.1552
 66
1
 10
0
 20
0
 30
0
  0
VERTEX
  8
LAYER_1
 10
106.8578
 20
95.2193
  0
VERTEX
  8
LAYER_1
 10
106.7594
 20
95.2193
  0
VERTEX
  8
LAYER_1
 10
106.2171
 20
95.2193
  0
SEQEND
  0
POLYLINE
  8
LAYER_1
 40
0.1552
 41
0.1552
 66
1
 10
0
 20
0
 30
0
  0
VERTEX
  8
LAYER_1
 10
105.8722
 20
95.2193
  0
VERTEX
  8
LAYER_1
 10
105.6257
 20
95.2193
  0
VERTEX
  8
LAYER_1
 10
105.2807
 20
95.2193
  0
SEQEND
  0
POLYLINE
  8
LAYER_1
 40
0.1552
 41
0.1552
 66
1
 10
0
 20
0
 30
0
  0
VERTEX
  8
LAYER_1
 10
104.9359
 20
95.2193
  0
VERTEX
  8
LAYER_1
 10
104.8867
 20
95.2193
  0
VERTEX
  8
LAYER_1
 10
104.6401
 20
95.2193
  0
VERTEX
  8
LAYER_1
 10
104.4432
 20
95.2193
  0
VERTEX
  8
LAYER_1
 10
104.2951
 20
95.2193
  0
SEQEND
  0
POLYLINE
  8
LAYER_1
 40
0.1552
 41
0.1552
 66
1
 10
0
 20
0
 30
0
  0
VERTEX
  8
LAYER_1
 10
103.9995
 20
95.2193
  0
VERTEX
  8
LAYER_1
 10
103.9011
 20
95.2193
  0
VERTEX
  8
LAYER_1
 10
103.8519
 20
95.2193
  0
VERTEX
  8
LAYER_1
 10
103.8022
 20
95.2193
  0
VERTEX
  8
LAYER_1
 10
103.7038
 20
95.2193
  0
VERTEX
  8
LAYER_1
 10
103.6545
 20
95.1701
  0
VERTEX
  8
LAYER_1
 10
103.6053
 20
95.0716
  0
VERTEX
  8
LAYER_1
 10
103.6053
 20
95.022
  0
VERTEX
  8
LAYER_1
 10
103.6053
 20
94.9727
  0
VERTEX
  8
LAYER_1
 10
103.6053
 20
94.9235
  0
VERTEX
  8
LAYER_1
 10
103.6053
 20
94.8743
  0
SEQEND
  0
POLYLINE
  8
LAYER_1
 40
0.1552
 41
0.1552
 66
1
 10
0
 20
0
 30
0
  0
VERTEX
  8
LAYER_1
 10
103.556
 20
94.5786
  0
VERTEX
  8
LAYER_1
 10
103.556
 20
94.4309
  0
VERTEX
  8
LAYER_1
 10
103.556
 20
94.2336
  0
VERTEX
  8
LAYER_1
 10
103.5068
 20
94.0367
  0
VERTEX
  8
LAYER_1
 10
103.5068
 20
93.9378
  0
SEQEND
  0
POLYLINE
  8
LAYER_1
 40
0.1552
 41
0.1552
 66
1
 10
0
 20
0
 30
0
  0
VERTEX
  8
LAYER_1
 10
103.5067
 20
93.6422
  0
VERTEX
  8
LAYER_1
 10
103.5067
 20
93.593
  0
VERTEX
  8
LAYER_1
 10
103.4575
 20
93.3465
  0
VERTEX
  8
LAYER_1
 10
103.4575
 20
93.0507
  0
VERTEX
  8
LAYER_1
 10
103.4575
 20
93.0015
  0
SEQEND
  0
POLYLINE
  8
LAYER_1
 40
0.1552
 41
0.1552
 66
1
 10
0
 20
0
 30
0
  0
VERTEX
  8
LAYER_1
 10
103.4081
 20
92.6566
  0
VERTEX
  8
LAYER_1
 10
103.4081
 20
92.4593
  0
VERTEX
  8
LAYER_1
 10
103.3589
 20
92.0158
  0
SEQEND
  0
POLYLINE
  8
LAYER_1
 40
0.1552
 41
0.1552
 66
1
 10
0
 20
0
 30
0
  0
VERTEX
  8
LAYER_1
 10
103.3588
 20
91.7203
  0
VERTEX
  8
LAYER_1
 10
103.3096
 20
91.1779
  0
VERTEX
  8
LAYER_1
 10
103.3096
 20
91.0795
  0
SEQEND
  0
POLYLINE
  8
LAYER_1
 40
0.1552
 41
0.1552
 66
1
 10
0
 20
0
 30
0
  0
VERTEX
  8
LAYER_1
 10
103.2603
 20
90.7839
  0
VERTEX
  8
LAYER_1
 10
103.2603
 20
90.4389
  0
VERTEX
  8
LAYER_1
 10
103.211
 20
90.1431
  0
SEQEND
  0
POLYLINE
  8
LAYER_1
 40
0.1552
 41
0.1552
 66
1
 10
0
 20
0
 30
0
  0
VERTEX
  8
LAYER_1
 10
103.211
 20
89.8476
  0
VERTEX
  8
LAYER_1
 10
103.211
 20
89.6999
  0
VERTEX
  8
LAYER_1
 10
103.1618
 20
89.2068
  0
SEQEND
  0
POLYLINE
  8
LAYER_1
 40
0.1552
 41
0.1552
 66
1
 10
0
 20
0
 30
0
  0
VERTEX
  8
LAYER_1
 10
103.1124
 20
88.8619
  0
VERTEX
  8
LAYER_1
 10
103.0632
 20
88.2212
  0
SEQEND
  0
POLYLINE
  8
LAYER_1
 40
0.1552
 41
0.1552
 66
1
 10
0
 20
0
 30
0
  0
VERTEX
  8
LAYER_1
 10
103.0632
 20
87.9256
  0
VERTEX
  8
LAYER_1
 10
103.0139
 20
87.334
  0
VERTEX
  8
LAYER_1
 10
103.0139
 20
87.2848
  0
SEQEND
  0
POLYLINE
  8
LAYER_1
 40
0.1552
 41
0.1552
 66
1
 10
0
 20
0
 30
0
  0
VERTEX
  8
LAYER_1
 10
102.9646
 20
86.9892
  0
VERTEX
  8
LAYER_1
 10
102.9154
 20
86.3484
  0
SEQEND
  0
POLYLINE
  8
LAYER_1
 40
0.1552
 41
0.1552
 66
1
 10
0
 20
0
 30
0
  0
VERTEX
  8
LAYER_1
 10
102.9153
 20
86.0528
  0
VERTEX
  8
LAYER_1
 10
102.8661
 20
85.7571
  0
VERTEX
  8
LAYER_1
 10
102.8661
 20
85.4121
  0
SEQEND
  0
POLYLINE
  8
LAYER_1
 40
0.1552
 41
0.1552
 66
1
 10
0
 20
0
 30
0
  0
VERTEX
  8
LAYER_1
 10
102.8167
 20
85.0672
  0
VERTEX
  8
LAYER_1
 10
102.8167
 20
84.9688
  0
VERTEX
  8
LAYER_1
 10
102.7675
 20
84.4264
  0
SEQEND
  0
POLYLINE
  8
LAYER_1
 40
0.1552
 41
0.1552
 66
1
 10
0
 20
0
 30
0
  0
VERTEX
  8
LAYER_1
 10
102.7675
 20
84.1309
  0
VERTEX
  8
LAYER_1
 10
102.7183
 20
83.5393
  0
VERTEX
  8
LAYER_1
 10
102.7183
 20
83.4901
  0
SEQEND
  0
POLYLINE
  8
LAYER_1
 40
0.1552
 41
0.1552
 66
1
 10
0
 20
0
 30
0
  0
VERTEX
  8
LAYER_1
 10
102.6689
 20
83.1945
  0
VERTEX
  8
LAYER_1
 10
102.6689
 20
82.8495
  0
VERTEX
  8
LAYER_1
 10
102.6197
 20
82.5537
  0
SEQEND
  0
POLYLINE
  8
LAYER_1
 40
0.1552
 41
0.1552
 66
1
 10
0
 20
0
 30
0
  0
VERTEX
  8
LAYER_1
 10
102.6196
 20
82.2582
  0
VERTEX
  8
LAYER_1
 10
102.5704
 20
81.9624
  0
VERTEX
  8
LAYER_1
 10
102.5704
 20
81.6666
  0
VERTEX
  8
LAYER_1
 10
102.5704
 20
81.6174
  0
SEQEND
  0
POLYLINE
  8
LAYER_1
 40
0.1552
 41
0.1552
 66
1
 10
0
 20
0
 30
0
  0
VERTEX
  8
LAYER_1
 10
102.5211
 20
81.2725
  0
VERTEX
  8
LAYER_1
 10
102.5211
 20
81.1741
  0
VERTEX
  8
LAYER_1
 10
102.5211
 20
80.9767
  0
VERTEX
  8
LAYER_1
 10
102.5211
 20
80.7799
  0
VERTEX
  8
LAYER_1
 10
102.4718
 20
80.681
  0
SEQEND
  0
POLYLINE
  8
LAYER_1
 40
0.1552
 41
0.1552
 66
1
 10
0
 20
0
 30
0
  0
VERTEX
  8
LAYER_1
 10
102.4718
 20
80.3361
  0
VERTEX
  8
LAYER_1
 10
102.4718
 20
80.2869
  0
VERTEX
  8
LAYER_1
 10
102.4718
 20
80.1885
  0
VERTEX
  8
LAYER_1
 10
102.4226
 20
80.0896
  0
VERTEX
  8
LAYER_1
 10
102.4226
 20
79.9912
  0
VERTEX
  8
LAYER_1
 10
102.4226
 20
79.9419
  0
SEQEND
  0
POLYLINE
  8
LAYER_1
 40
0.1552
 41
0.1552
 66
1
 10
0
 20
0
 30
0
  0
VERTEX
  8
LAYER_1
 10
100.3527
 20
75.2601
  0
VERTEX
  8
LAYER_1
 10
100.4019
 20
75.3093
  0
VERTEX
  8
LAYER_1
 10
100.4511
 20
75.4078
  0
VERTEX
  8
LAYER_1
 10
100.5003
 20
75.4078
  0
VERTEX
  8
LAYER_1
 10
100.5992
 20
75.4574
  0
SEQEND
  0
POLYLINE
  8
LAYER_1
 40
0.1552
 41
0.1552
 66
1
 10
0
 20
0
 30
0
  0
VERTEX
  8
LAYER_1
 10
101.979
 20
75.4573
  0
VERTEX
  8
LAYER_1
 10
102.0282
 20
75.408
  0
VERTEX
  8
LAYER_1
 10
102.1266
 20
75.408
  0
VERTEX
  8
LAYER_1
 10
102.1763
 20
75.3096
  0
VERTEX
  8
LAYER_1
 10
102.1763
 20
75.2599
  0
VERTEX
  8
LAYER_1
 10
103.3589
 20
75.2599
  0
SEQEND
  0
POLYLINE
  8
LAYER_1
 40
0.1552
 41
0.1552
 66
1
 10
0
 20
0
 30
0
  0
VERTEX
  8
LAYER_1
 10
102.1761
 20
75.2601
  0
VERTEX
  8
LAYER_1
 10
101.4369
 20
75.2601
  0
SEQEND
  0
POLYLINE
  8
LAYER_1
 40
0.1552
 41
0.1552
 66
1
 10
0
 20
0
 30
0
  0
VERTEX
  8
LAYER_1
 10
101.0919
 20
75.2601
  0
VERTEX
  8
LAYER_1
 10
100.3527
 20
75.2601
  0
SEQEND
  0
POLYLINE
  8
LAYER_1
 40
0.1552
 41
0.1552
 66
1
 10
0
 20
0
 30
0
  0
VERTEX
  8
LAYER_1
 10
98.2828
 20
77.0343
  0
VERTEX
  8
LAYER_1
 10
97.8394
 20
77.0343
  0
SEQEND
  0
POLYLINE
  8
LAYER_1
 40
0.1552
 41
0.1552
 66
1
 10
0
 20
0
 30
0
  0
VERTEX
  8
LAYER_1
 10
97.5436
 20
77.0343
  0
VERTEX
  8
LAYER_1
 10
96.9028
 20
77.0343
  0
SEQEND
  0
POLYLINE
  8
LAYER_1
 40
0.1552
 41
0.1552
 66
1
 10
0
 20
0
 30
0
  0
VERTEX
  8
LAYER_1
 10
96.558
 20
77.0343
  0
VERTEX
  8
LAYER_1
 10
95.9664
 20
77.0343
  0
SEQEND
  0
POLYLINE
  8
LAYER_1
 40
0.1552
 41
0.1552
 66
1
 10
0
 20
0
 30
0
  0
VERTEX
  8
LAYER_1
 10
95.6216
 20
77.0343
  0
VERTEX
  8
LAYER_1
 10
94.9808
 20
77.0343
  0
SEQEND
  0
POLYLINE
  8
LAYER_1
 40
0.1552
 41
0.1552
 66
1
 10
0
 20
0
 30
0
  0
VERTEX
  8
LAYER_1
 10
94.6853
 20
77.0343
  0
VERTEX
  8
LAYER_1
 10
94.0445
 20
77.0343
  0
SEQEND
  0
POLYLINE
  8
LAYER_1
 40
0.1552
 41
0.1552
 66
1
 10
0
 20
0
 30
0
  0
VERTEX
  8
LAYER_1
 10
93.7489
 20
77.0343
  0
VERTEX
  8
LAYER_1
 10
93.1081
 20
77.0343
  0
SEQEND
  0
POLYLINE
  8
LAYER_1
 40
0.1552
 41
0.1552
 66
1
 10
0
 20
0
 30
0
  0
VERTEX
  8
LAYER_1
 10
92.7633
 20
77.0343
  0
VERTEX
  8
LAYER_1
 10
92.1225
 20
77.0343
  0
SEQEND
  0
POLYLINE
  8
LAYER_1
 40
0.1552
 41
0.1552
 66
1
 10
0
 20
0
 30
0
  0
VERTEX
  8
LAYER_1
 10
91.8269
 20
77.0343
  0
VERTEX
  8
LAYER_1
 10
91.1861
 20
77.0343
  0
SEQEND
  0
POLYLINE
  8
LAYER_1
 40
0.1552
 41
0.1552
 66
1
 10
0
 20
0
 30
0
  0
VERTEX
  8
LAYER_1
 10
90.8905
 20
77.0343
  0
VERTEX
  8
LAYER_1
 10
90.2498
 20
77.0343
  0
SEQEND
  0
POLYLINE
  8
LAYER_1
 40
0.1552
 41
0.1552
 66
1
 10
0
 20
0
 30
0
  0
VERTEX
  8
LAYER_1
 10
89.9049
 20
77.0343
  0
VERTEX
  8
LAYER_1
 10
89.4615
 20
77.0343
  0
SEQEND
  0
POLYLINE
  8
LAYER_1
 40
0.1552
 41
0.1552
 66
1
 10
0
 20
0
 30
0
  0
VERTEX
  8
LAYER_1
 10
101.979
 20
75.4573
  0
VERTEX
  8
LAYER_1
 10
101.4371
 20
75.4573
  0
SEQEND
  0
POLYLINE
  8
LAYER_1
 40
0.1552
 41
0.1552
 66
1
 10
0
 20
0
 30
0
  0
VERTEX
  8
LAYER_1
 10
101.0919
 20
75.4573
  0
VERTEX
  8
LAYER_1
 10
100.5992
 20
75.4573
  0
SEQEND
  0
POLYLINE
  8
LAYER_1
 40
0.1552
 41
0.1552
 66
1
 10
0
 20
0
 30
0
  0
VERTEX
  8
LAYER_1
 10
88.4757
 20
76.1472
  0
VERTEX
  8
LAYER_1
 10
88.3773
 20
75.2603
  0
SEQEND
  0
POLYLINE
  8
LAYER_1
 40
0.1552
 41
0.1552
 66
1
 10
0
 20
0
 30
0
  0
VERTEX
  8
LAYER_1
 10
89.4614
 20
77.0343
  0
VERTEX
  8
LAYER_1
 10
89.3137
 20
77.0343
  0
VERTEX
  8
LAYER_1
 10
89.1164
 20
76.985
  0
VERTEX
  8
LAYER_1
 10
88.9687
 20
76.8866
  0
VERTEX
  8
LAYER_1
 10
88.9195
 20
76.8866
  0
SEQEND
  0
POLYLINE
  8
LAYER_1
 40
0.1552
 41
0.1552
 66
1
 10
0
 20
0
 30
0
  0
VERTEX
  8
LAYER_1
 10
88.7222
 20
76.64
  0
VERTEX
  8
LAYER_1
 10
88.6729
 20
76.64
  0
VERTEX
  8
LAYER_1
 10
88.5745
 20
76.4924
  0
VERTEX
  8
LAYER_1
 10
88.5248
 20
76.295
  0
VERTEX
  8
LAYER_1
 10
88.4756
 20
76.1474
  0
SEQEND
  0
POLYLINE
  8
LAYER_1
 40
0.1552
 41
0.1552
 66
1
 10
0
 20
0
 30
0
  0
VERTEX
  8
LAYER_1
 10
99.2685
 20
76.1472
  0
VERTEX
  8
LAYER_1
 10
99.2685
 20
76.2949
  0
VERTEX
  8
LAYER_1
 10
99.17
 20
76.4922
  0
VERTEX
  8
LAYER_1
 10
99.0711
 20
76.6399
  0
SEQEND
  0
POLYLINE
  8
LAYER_1
 40
0.1552
 41
0.1552
 66
1
 10
0
 20
0
 30
0
  0
VERTEX
  8
LAYER_1
 10
98.8249
 20
76.8864
  0
VERTEX
  8
LAYER_1
 10
98.6772
 20
76.9849
  0
VERTEX
  8
LAYER_1
 10
98.4799
 20
77.0341
  0
VERTEX
  8
LAYER_1
 10
98.283
 20
77.0341
  0
SEQEND
  0
POLYLINE
  8
LAYER_1
 40
0.1552
 41
0.1552
 66
1
 10
0
 20
0
 30
0
  0
VERTEX
  8
LAYER_1
 10
99.2685
 20
76.1472
  0
VERTEX
  8
LAYER_1
 10
99.3669
 20
75.2603
  0
SEQEND
  0
POLYLINE
  8
LAYER_1
 40
0.1552
 41
0.1552
 66
1
 10
0
 20
0
 30
0
  0
VERTEX
  8
LAYER_1
 10
101.4862
 20
79.0548
  0
VERTEX
  8
LAYER_1
 10
101.6835
 20
79.0548
  0
VERTEX
  8
LAYER_1
 10
101.8312
 20
79.1041
  0
VERTEX
  8
LAYER_1
 10
101.9788
 20
79.2025
  0
VERTEX
  8
LAYER_1
 10
102.028
 20
79.2025
  0
SEQEND
  0
POLYLINE
  8
LAYER_1
 40
0.1552
 41
0.1552
 66
1
 10
0
 20
0
 30
0
  0
VERTEX
  8
LAYER_1
 10
102.2254
 20
79.4491
  0
VERTEX
  8
LAYER_1
 10
102.3238
 20
79.5968
  0
VERTEX
  8
LAYER_1
 10
102.4227
 20
79.7941
  0
VERTEX
  8
LAYER_1
 10
102.4227
 20
79.9418
  0
SEQEND
  0
POLYLINE
  8
LAYER_1
 40
0.1552
 41
0.1552
 66
1
 10
0
 20
0
 30
0
  0
VERTEX
  8
LAYER_1
 10
86.8002
 20
75.2601
  0
VERTEX
  8
LAYER_1
 10
86.8002
 20
75.3093
  0
VERTEX
  8
LAYER_1
 10
86.8002
 20
75.4078
  0
VERTEX
  8
LAYER_1
 10
86.8002
 20
75.5067
  0
VERTEX
  8
LAYER_1
 10
86.8002
 20
75.7528
  0
SEQEND
  0
POLYLINE
  8
LAYER_1
 40
0.1552
 41
0.1552
 66
1
 10
0
 20
0
 30
0
  0
VERTEX
  8
LAYER_1
 10
86.8002
 20
76.0979
  0
VERTEX
  8
LAYER_1
 10
86.8002
 20
76.2456
  0
VERTEX
  8
LAYER_1
 10
86.8002
 20
76.2953
  0
VERTEX
  8
LAYER_1
 10
86.8002
 20
76.3445
  0
VERTEX
  8
LAYER_1
 10
86.8002
 20
76.3937
  0
VERTEX
  8
LAYER_1
 10
86.8494
 20
76.4922
  0
VERTEX
  8
LAYER_1
 10
86.8986
 20
76.4922
  0
VERTEX
  8
LAYER_1
 10
86.8986
 20
76.5414
  0
VERTEX
  8
LAYER_1
 10
86.9478
 20
76.5414
  0
VERTEX
  8
LAYER_1
 10
86.9975
 20
76.5906
  0
VERTEX
  8
LAYER_1
 10
87.0467
 20
76.6403
  0
SEQEND
  0
POLYLINE
  8
LAYER_1
 40
0.1552
 41
0.1552
 66
1
 10
0
 20
0
 30
0
  0
VERTEX
  8
LAYER_1
 10
87.2437
 20
76.8864
  0
VERTEX
  8
LAYER_1
 10
87.3421
 20
76.9849
  0
VERTEX
  8
LAYER_1
 10
87.5395
 20
77.133
  0
VERTEX
  8
LAYER_1
 10
87.6871
 20
77.3299
  0
SEQEND
  0
POLYLINE
  8
LAYER_1
 40
0.1552
 41
0.1552
 66
1
 10
0
 20
0
 30
0
  0
VERTEX
  8
LAYER_1
 10
87.9336
 20
77.5271
  0
VERTEX
  8
LAYER_1
 10
88.131
 20
77.7244
  0
VERTEX
  8
LAYER_1
 10
88.2786
 20
77.8721
  0
VERTEX
  8
LAYER_1
 10
88.3771
 20
77.9705
  0
SEQEND
  0
POLYLINE
  8
LAYER_1
 40
0.1552
 41
0.1552
 66
1
 10
0
 20
0
 30
0
  0
VERTEX
  8
LAYER_1
 10
88.6236
 20
78.2171
  0
VERTEX
  8
LAYER_1
 10
88.6728
 20
78.2171
  0
VERTEX
  8
LAYER_1
 10
88.722
 20
78.2663
  0
VERTEX
  8
LAYER_1
 10
88.7713
 20
78.2663
  0
VERTEX
  8
LAYER_1
 10
88.8701
 20
78.2663
  0
VERTEX
  8
LAYER_1
 10
88.9686
 20
78.2663
  0
VERTEX
  8
LAYER_1
 10
89.067
 20
78.2663
  0
VERTEX
  8
LAYER_1
 10
89.2151
 20
78.2663
  0
SEQEND
  0
POLYLINE
  8
LAYER_1
 40
0.1552
 41
0.1552
 66
1
 10
0
 20
0
 30
0
  0
VERTEX
  8
LAYER_1
 10
89.56
 20
78.3156
  0
VERTEX
  8
LAYER_1
 10
89.6092
 20
78.3156
  0
VERTEX
  8
LAYER_1
 10
89.8065
 20
78.3156
  0
VERTEX
  8
LAYER_1
 10
90.0526
 20
78.3156
  0
VERTEX
  8
LAYER_1
 10
90.2007
 20
78.3156
  0
SEQEND
  0
POLYLINE
  8
LAYER_1
 40
0.1552
 41
0.1552
 66
1
 10
0
 20
0
 30
0
  0
VERTEX
  8
LAYER_1
 10
90.4963
 20
78.3649
  0
VERTEX
  8
LAYER_1
 10
90.5455
 20
78.3649
  0
VERTEX
  8
LAYER_1
 10
90.8413
 20
78.3649
  0
VERTEX
  8
LAYER_1
 10
91.137
 20
78.4141
  0
SEQEND
  0
POLYLINE
  8
LAYER_1
 40
0.1552
 41
0.1552
 66
1
 10
0
 20
0
 30
0
  0
VERTEX
  8
LAYER_1
 10
91.4326
 20
78.4142
  0
VERTEX
  8
LAYER_1
 10
92.0734
 20
78.4634
  0
SEQEND
  0
POLYLINE
  8
LAYER_1
 40
0.1552
 41
0.1552
 66
1
 10
0
 20
0
 30
0
  0
VERTEX
  8
LAYER_1
 10
92.4183
 20
78.4635
  0
VERTEX
  8
LAYER_1
 10
92.7633
 20
78.5127
  0
VERTEX
  8
LAYER_1
 10
93.0098
 20
78.5127
  0
SEQEND
  0
POLYLINE
  8
LAYER_1
 40
0.1552
 41
0.1552
 66
1
 10
0
 20
0
 30
0
  0
VERTEX
  8
LAYER_1
 10
93.3546
 20
78.5127
  0
VERTEX
  8
LAYER_1
 10
93.4531
 20
78.562
  0
VERTEX
  8
LAYER_1
 10
93.9954
 20
78.562
  0
SEQEND
  0
POLYLINE
  8
LAYER_1
 40
0.1552
 41
0.1552
 66
1
 10
0
 20
0
 30
0
  0
VERTEX
  8
LAYER_1
 10
94.291
 20
78.6113
  0
VERTEX
  8
LAYER_1
 10
94.9318
 20
78.6113
  0
SEQEND
  0
POLYLINE
  8
LAYER_1
 40
0.1552
 41
0.1552
 66
1
 10
0
 20
0
 30
0
  0
VERTEX
  8
LAYER_1
 10
95.2274
 20
78.6606
  0
VERTEX
  8
LAYER_1
 10
95.6708
 20
78.6606
  0
VERTEX
  8
LAYER_1
 10
95.8681
 20
78.7098
  0
SEQEND
  0
POLYLINE
  8
LAYER_1
 40
0.1552
 41
0.1552
 66
1
 10
0
 20
0
 30
0
  0
VERTEX
  8
LAYER_1
 10
96.213
 20
78.7098
  0
VERTEX
  8
LAYER_1
 10
96.4103
 20
78.7098
  0
VERTEX
  8
LAYER_1
 10
96.8045
 20
78.7591
  0
SEQEND
  0
POLYLINE
  8
LAYER_1
 40
0.1552
 41
0.1552
 66
1
 10
0
 20
0
 30
0
  0
VERTEX
  8
LAYER_1
 10
97.1493
 20
78.7592
  0
VERTEX
  8
LAYER_1
 10
97.7901
 20
78.8084
  0
SEQEND
  0
POLYLINE
  8
LAYER_1
 40
0.1552
 41
0.1552
 66
1
 10
0
 20
0
 30
0
  0
VERTEX
  8
LAYER_1
 10
98.0857
 20
78.8084
  0
VERTEX
  8
LAYER_1
 10
98.5291
 20
78.8576
  0
VERTEX
  8
LAYER_1
 10
98.7265
 20
78.8576
  0
SEQEND
  0
POLYLINE
  8
LAYER_1
 40
0.1552
 41
0.1552
 66
1
 10
0
 20
0
 30
0
  0
VERTEX
  8
LAYER_1
 10
99.0221
 20
78.907
  0
VERTEX
  8
LAYER_1
 10
99.1205
 20
78.907
  0
VERTEX
  8
LAYER_1
 10
99.4163
 20
78.907
  0
VERTEX
  8
LAYER_1
 10
99.6628
 20
78.907
  0
SEQEND
  0
POLYLINE
  8
LAYER_1
 40
0.1552
 41
0.1552
 66
1
 10
0
 20
0
 30
0
  0
VERTEX
  8
LAYER_1
 10
100.0077
 20
78.9563
  0
VERTEX
  8
LAYER_1
 10
100.205
 20
78.9563
  0
VERTEX
  8
LAYER_1
 10
100.4511
 20
78.9563
  0
VERTEX
  8
LAYER_1
 10
100.6485
 20
79.0055
  0
SEQEND
  0
POLYLINE
  8
LAYER_1
 40
0.1552
 41
0.1552
 66
1
 10
0
 20
0
 30
0
  0
VERTEX
  8
LAYER_1
 10
100.9441
 20
79.0056
  0
VERTEX
  8
LAYER_1
 10
100.9933
 20
79.0056
  0
VERTEX
  8
LAYER_1
 10
101.1414
 20
79.0056
  0
VERTEX
  8
LAYER_1
 10
101.2398
 20
79.0056
  0
VERTEX
  8
LAYER_1
 10
101.3383
 20
79.0548
  0
VERTEX
  8
LAYER_1
 10
101.4367
 20
79.0548
  0
VERTEX
  8
LAYER_1
 10
101.4859
 20
79.0548
  0
SEQEND
  0
POLYLINE
  8
LAYER_1
 40
0.1552
 41
0.1552
 66
1
 10
0
 20
0
 30
0
  0
VERTEX
  8
LAYER_1
 10
107.1536
 20
91.2274
  0
VERTEX
  8
LAYER_1
 10
104.6894
 20
91.2274
  0
SEQEND
  0
POLYLINE
  8
LAYER_1
 40
0.1552
 41
0.1552
 66
1
 10
0
 20
0
 30
0
  0
VERTEX
  8
LAYER_1
 10
100.3527
 20
75.2601
  0
VERTEX
  8
LAYER_1
 10
100.0569
 20
75.2601
  0
SEQEND
  0
POLYLINE
  8
LAYER_1
 40
0.1552
 41
0.1552
 66
1
 10
0
 20
0
 30
0
  0
VERTEX
  8
LAYER_1
 10
99.712
 20
75.2601
  0
VERTEX
  8
LAYER_1
 10
99.367
 20
75.2601
  0
SEQEND
  0
POLYLINE
  8
LAYER_1
 40
0.1552
 41
0.1552
 66
1
 10
0
 20
0
 30
0
  0
VERTEX
  8
LAYER_1
 10
67.2353
 20
75.4573
  0
VERTEX
  8
LAYER_1
 10
67.7772
 20
75.4573
  0
SEQEND
  0
POLYLINE
  8
LAYER_1
 40
0.1552
 41
0.1552
 66
1
 10
0
 20
0
 30
0
  0
VERTEX
  8
LAYER_1
 10
68.0731
 20
75.4573
  0
VERTEX
  8
LAYER_1
 10
68.615
 20
75.4573
  0
SEQEND
  0
POLYLINE
  8
LAYER_1
 40
0.1552
 41
0.1552
 66
1
 10
0
 20
0
 30
0
  0
VERTEX
  8
LAYER_1
 10
174.7045
 20
75.063
  0
VERTEX
  8
LAYER_1
 10
175.9364
 20
75.063
  0
SEQEND
  0
POLYLINE
  8
LAYER_1
 40
0.1552
 41
0.1552
 66
1
 10
0
 20
0
 30
0
  0
VERTEX
  8
LAYER_1
 10
182.2446
 20
95.2193
  0
VERTEX
  8
LAYER_1
 10
184.1665
 20
95.2193
  0
VERTEX
  8
LAYER_1
 10
184.2157
 20
95.2193
  0
VERTEX
  8
LAYER_1
 10
184.3146
 20
95.2193
  0
VERTEX
  8
LAYER_1
 10
184.3146
 20
95.1701
  0
VERTEX
  8
LAYER_1
 10
184.3638
 20
95.0716
  0
VERTEX
  8
LAYER_1
 10
184.4623
 20
94.4801
  0
VERTEX
  8
LAYER_1
 10
184.4623
 20
94.3816
  0
VERTEX
  8
LAYER_1
 10
184.4623
 20
94.3324
  0
VERTEX
  8
LAYER_1
 10
184.413
 20
94.2827
  0
VERTEX
  8
LAYER_1
 10
184.3146
 20
94.2335
  0
VERTEX
  8
LAYER_1
 10
184.2654
 20
94.2335
  0
SEQEND
  0
POLYLINE
  8
LAYER_1
 40
0.1552
 41
0.1552
 66
1
 10
0
 20
0
 30
0
  0
VERTEX
  8
LAYER_1
 10
178.7456
 20
95.2193
  0
VERTEX
  8
LAYER_1
 10
176.3307
 20
95.2193
  0
VERTEX
  8
LAYER_1
 10
176.2322
 20
95.2193
  0
VERTEX
  8
LAYER_1
 10
176.183
 20
95.1701
  0
VERTEX
  8
LAYER_1
 10
176.1338
 20
95.1209
  0
VERTEX
  8
LAYER_1
 10
176.1338
 20
95.0716
  0
VERTEX
  8
LAYER_1
 10
176.0845
 20
94.3324
  0
SEQEND
  0
POLYLINE
  8
LAYER_1
 40
0.1552
 41
0.1552
 66
1
 10
0
 20
0
 30
0
  0
VERTEX
  8
LAYER_1
 10
176.0351
 20
93.9872
  0
VERTEX
  8
LAYER_1
 10
175.9859
 20
93.3464
  0
SEQEND
  0
POLYLINE
  8
LAYER_1
 40
0.1552
 41
0.1552
 66
1
 10
0
 20
0
 30
0
  0
VERTEX
  8
LAYER_1
 10
175.9858
 20
93.0509
  0
VERTEX
  8
LAYER_1
 10
175.9366
 20
92.4101
  0
SEQEND
  0
POLYLINE
  8
LAYER_1
 40
0.1552
 41
0.1552
 66
1
 10
0
 20
0
 30
0
  0
VERTEX
  8
LAYER_1
 10
175.8873
 20
92.1145
  0
VERTEX
  8
LAYER_1
 10
175.838
 20
91.4737
  0
SEQEND
  0
POLYLINE
  8
LAYER_1
 40
0.1552
 41
0.1552
 66
1
 10
0
 20
0
 30
0
  0
VERTEX
  8
LAYER_1
 10
175.838
 20
91.1781
  0
VERTEX
  8
LAYER_1
 10
175.7888
 20
90.5374
  0
SEQEND
  0
POLYLINE
  8
LAYER_1
 40
0.1552
 41
0.1552
 66
1
 10
0
 20
0
 30
0
  0
VERTEX
  8
LAYER_1
 10
175.7394
 20
90.1925
  0
VERTEX
  8
LAYER_1
 10
175.6902
 20
89.5517
  0
SEQEND
  0
POLYLINE
  8
LAYER_1
 40
0.1552
 41
0.1552
 66
1
 10
0
 20
0
 30
0
  0
VERTEX
  8
LAYER_1
 10
175.6902
 20
89.2561
  0
VERTEX
  8
LAYER_1
 10
175.6409
 20
88.6154
  0
SEQEND
  0
POLYLINE
  8
LAYER_1
 40
0.1552
 41
0.1552
 66
1
 10
0
 20
0
 30
0
  0
VERTEX
  8
LAYER_1
 10
175.5916
 20
88.3198
  0
VERTEX
  8
LAYER_1
 10
175.5424
 20
87.6791
  0
SEQEND
  0
POLYLINE
  8
LAYER_1
 40
0.1552
 41
0.1552
 66
1
 10
0
 20
0
 30
0
  0
VERTEX
  8
LAYER_1
 10
175.5423
 20
87.3835
  0
VERTEX
  8
LAYER_1
 10
175.493
 20
86.7427
  0
SEQEND
  0
POLYLINE
  8
LAYER_1
 40
0.1552
 41
0.1552
 66
1
 10
0
 20
0
 30
0
  0
VERTEX
  8
LAYER_1
 10
175.4437
 20
86.3978
  0
VERTEX
  8
LAYER_1
 10
175.3945
 20
85.757
  0
SEQEND
  0
POLYLINE
  8
LAYER_1
 40
0.1552
 41
0.1552
 66
1
 10
0
 20
0
 30
0
  0
VERTEX
  8
LAYER_1
 10
175.3944
 20
85.4615
  0
VERTEX
  8
LAYER_1
 10
175.3452
 20
84.8207
  0
SEQEND
  0
POLYLINE
  8
LAYER_1
 40
0.1552
 41
0.1552
 66
1
 10
0
 20
0
 30
0
  0
VERTEX
  8
LAYER_1
 10
175.2959
 20
84.5251
  0
VERTEX
  8
LAYER_1
 10
175.2467
 20
83.8843
  0
SEQEND
  0
POLYLINE
  8
LAYER_1
 40
0.1552
 41
0.1552
 66
1
 10
0
 20
0
 30
0
  0
VERTEX
  8
LAYER_1
 10
175.2466
 20
83.5888
  0
VERTEX
  8
LAYER_1
 10
175.1974
 20
82.948
  0
SEQEND
  0
POLYLINE
  8
LAYER_1
 40
0.1552
 41
0.1552
 66
1
 10
0
 20
0
 30
0
  0
VERTEX
  8
LAYER_1
 10
175.1481
 20
82.6031
  0
VERTEX
  8
LAYER_1
 10
175.0988
 20
81.9623
  0
SEQEND
  0
POLYLINE
  8
LAYER_1
 40
0.1552
 41
0.1552
 66
1
 10
0
 20
0
 30
0
  0
VERTEX
  8
LAYER_1
 10
175.0987
 20
81.6668
  0
VERTEX
  8
LAYER_1
 10
175.0495
 20
81.026
  0
SEQEND
  0
POLYLINE
  8
LAYER_1
 40
0.1552
 41
0.1552
 66
1
 10
0
 20
0
 30
0
  0
VERTEX
  8
LAYER_1
 10
175.0002
 20
80.7304
  0
VERTEX
  8
LAYER_1
 10
174.9509
 20
79.9912
  0
SEQEND
  0
POLYLINE
  8
LAYER_1
 40
0.1552
 41
0.1552
 66
1
 10
0
 20
0
 30
0
  0
VERTEX
  8
LAYER_1
 10
171.5012
 20
75.2601
  0
VERTEX
  8
LAYER_1
 10
171.4027
 20
75.2601
  0
VERTEX
  8
LAYER_1
 10
171.3535
 20
75.2109
  0
VERTEX
  8
LAYER_1
 10
171.3038
 20
75.1617
  0
VERTEX
  8
LAYER_1
 10
171.3038
 20
75.0628
  0
SEQEND
  0
POLYLINE
  8
LAYER_1
 40
0.1552
 41
0.1552
 66
1
 10
0
 20
0
 30
0
  0
VERTEX
  8
LAYER_1
 10
174.5074
 20
75.2601
  0
VERTEX
  8
LAYER_1
 10
174.6058
 20
75.2601
  0
VERTEX
  8
LAYER_1
 10
174.655
 20
75.2109
  0
VERTEX
  8
LAYER_1
 10
174.7047
 20
75.1617
  0
VERTEX
  8
LAYER_1
 10
174.7047
 20
75.0628
  0
VERTEX
  8
LAYER_1
 10
175.9366
 20
75.0628
  0
SEQEND
  0
POLYLINE
  8
LAYER_1
 40
0.1552
 41
0.1552
 66
1
 10
0
 20
0
 30
0
  0
VERTEX
  8
LAYER_1
 10
174.7045
 20
75.063
  0
VERTEX
  8
LAYER_1
 10
171.3042
 20
75.063
  0
SEQEND
  0
POLYLINE
  8
LAYER_1
 40
0.1552
 41
0.1552
 66
1
 10
0
 20
0
 30
0
  0
VERTEX
  8
LAYER_1
 10
161.2506
 20
75.063
  0
VERTEX
  8
LAYER_1
 10
159.6737
 20
75.063
  0
SEQEND
  0
POLYLINE
  8
LAYER_1
 40
0.1552
 41
0.1552
 66
1
 10
0
 20
0
 30
0
  0
VERTEX
  8
LAYER_1
 10
159.6735
 20
76.4429
  0
VERTEX
  8
LAYER_1
 10
159.082
 20
76.4429
  0
SEQEND
  0
POLYLINE
  8
LAYER_1
 40
0.1552
 41
0.1552
 66
1
 10
0
 20
0
 30
0
  0
VERTEX
  8
LAYER_1
 10
158.7865
 20
76.4429
  0
VERTEX
  8
LAYER_1
 10
158.1457
 20
76.4429
  0
SEQEND
  0
POLYLINE
  8
LAYER_1
 40
0.1552
 41
0.1552
 66
1
 10
0
 20
0
 30
0
  0
VERTEX
  8
LAYER_1
 10
157.8501
 20
76.4429
  0
VERTEX
  8
LAYER_1
 10
157.2093
 20
76.4429
  0
SEQEND
  0
POLYLINE
  8
LAYER_1
 40
0.1552
 41
0.1552
 66
1
 10
0
 20
0
 30
0
  0
VERTEX
  8
LAYER_1
 10
156.8645
 20
76.4429
  0
VERTEX
  8
LAYER_1
 10
156.2729
 20
76.4429
  0
SEQEND
  0
POLYLINE
  8
LAYER_1
 40
0.1552
 41
0.1552
 66
1
 10
0
 20
0
 30
0
  0
VERTEX
  8
LAYER_1
 10
155.9281
 20
76.4429
  0
VERTEX
  8
LAYER_1
 10
155.3366
 20
76.4429
  0
SEQEND
  0
POLYLINE
  8
LAYER_1
 40
0.1552
 41
0.1552
 66
1
 10
0
 20
0
 30
0
  0
VERTEX
  8
LAYER_1
 10
168.0022
 20
77.0836
  0
VERTEX
  8
LAYER_1
 10
167.263
 20
77.0836
  0
SEQEND
  0
POLYLINE
  8
LAYER_1
 40
0.1552
 41
0.1552
 66
1
 10
0
 20
0
 30
0
  0
VERTEX
  8
LAYER_1
 10
166.918
 20
77.0836
  0
VERTEX
  8
LAYER_1
 10
166.2772
 20
77.0836
  0
SEQEND
  0
POLYLINE
  8
LAYER_1
 40
0.1552
 41
0.1552
 66
1
 10
0
 20
0
 30
0
  0
VERTEX
  8
LAYER_1
 10
165.9816
 20
77.0836
  0
VERTEX
  8
LAYER_1
 10
165.3409
 20
77.0836
  0
SEQEND
  0
POLYLINE
  8
LAYER_1
 40
0.1552
 41
0.1552
 66
1
 10
0
 20
0
 30
0
  0
VERTEX
  8
LAYER_1
 10
165.0453
 20
77.0836
  0
VERTEX
  8
LAYER_1
 10
164.4045
 20
77.0836
  0
SEQEND
  0
POLYLINE
  8
LAYER_1
 40
0.1552
 41
0.1552
 66
1
 10
0
 20
0
 30
0
  0
VERTEX
  8
LAYER_1
 10
164.0596
 20
77.0836
  0
VERTEX
  8
LAYER_1
 10
163.4189
 20
77.0836
  0
SEQEND
  0
POLYLINE
  8
LAYER_1
 40
0.1552
 41
0.1552
 66
1
 10
0
 20
0
 30
0
  0
VERTEX
  8
LAYER_1
 10
163.1233
 20
77.0836
  0
VERTEX
  8
LAYER_1
 10
162.3348
 20
77.0836
  0
SEQEND
  0
POLYLINE
  8
LAYER_1
 40
0.1552
 41
0.1552
 66
1
 10
0
 20
0
 30
0
  0
VERTEX
  8
LAYER_1
 10
174.5074
 20
75.2601
  0
VERTEX
  8
LAYER_1
 10
171.5013
 20
75.2601
  0
SEQEND
  0
POLYLINE
  8
LAYER_1
 40
0.1552
 41
0.1552
 66
1
 10
0
 20
0
 30
0
  0
VERTEX
  8
LAYER_1
 10
161.3491
 20
76.1472
  0
VERTEX
  8
LAYER_1
 10
161.3491
 20
75.753
  0
SEQEND
  0
POLYLINE
  8
LAYER_1
 40
0.1552
 41
0.1552
 66
1
 10
0
 20
0
 30
0
  0
VERTEX
  8
LAYER_1
 10
161.2999
 20
75.4573
  0
VERTEX
  8
LAYER_1
 10
161.2506
 20
75.063
  0
SEQEND
  0
POLYLINE
  8
LAYER_1
 40
0.1552
 41
0.1552
 66
1
 10
0
 20
0
 30
0
  0
VERTEX
  8
LAYER_1
 10
161.3491
 20
76.1472
  0
VERTEX
  8
LAYER_1
 10
161.3983
 20
76.3445
  0
VERTEX
  8
LAYER_1
 10
161.4476
 20
76.4922
  0
VERTEX
  8
LAYER_1
 10
161.5464
 20
76.6891
  0
VERTEX
  8
LAYER_1
 10
161.5957
 20
76.6891
  0
SEQEND
  0
POLYLINE
  8
LAYER_1
 40
0.1552
 41
0.1552
 66
1
 10
0
 20
0
 30
0
  0
VERTEX
  8
LAYER_1
 10
161.7927
 20
76.8864
  0
VERTEX
  8
LAYER_1
 10
161.8419
 20
76.9356
  0
VERTEX
  8
LAYER_1
 10
161.99
 20
76.9849
  0
VERTEX
  8
LAYER_1
 10
162.1869
 20
77.0341
  0
VERTEX
  8
LAYER_1
 10
162.3345
 20
77.0838
  0
SEQEND
  0
POLYLINE
  8
LAYER_1
 40
0.1552
 41
0.1552
 66
1
 10
0
 20
0
 30
0
  0
VERTEX
  8
LAYER_1
 10
168.0022
 20
77.0836
  0
VERTEX
  8
LAYER_1
 10
168.1995
 20
77.0344
  0
VERTEX
  8
LAYER_1
 10
168.3964
 20
76.9851
  0
VERTEX
  8
LAYER_1
 10
168.5441
 20
76.9359
  0
VERTEX
  8
LAYER_1
 10
168.6922
 20
76.7878
  0
VERTEX
  8
LAYER_1
 10
168.7906
 20
76.6894
  0
VERTEX
  8
LAYER_1
 10
168.889
 20
76.492
  0
VERTEX
  8
LAYER_1
 10
168.9879
 20
76.3444
  0
VERTEX
  8
LAYER_1
 10
168.9879
 20
76.147
  0
SEQEND
  0
POLYLINE
  8
LAYER_1
 40
0.1552
 41
0.1552
 66
1
 10
0
 20
0
 30
0
  0
VERTEX
  8
LAYER_1
 10
174.9509
 20
79.9912
  0
VERTEX
  8
LAYER_1
 10
174.9017
 20
79.7938
  0
VERTEX
  8
LAYER_1
 10
174.8525
 20
79.6462
  0
VERTEX
  8
LAYER_1
 10
174.7536
 20
79.4493
  0
VERTEX
  8
LAYER_1
 10
174.6551
 20
79.3504
  0
VERTEX
  8
LAYER_1
 10
174.5075
 20
79.2027
  0
VERTEX
  8
LAYER_1
 10
174.3593
 20
79.1535
  0
VERTEX
  8
LAYER_1
 10
174.1625
 20
79.1043
  0
VERTEX
  8
LAYER_1
 10
174.0143
 20
79.0546
  0
SEQEND
  0
POLYLINE
  8
LAYER_1
 40
0.1552
 41
0.1552
 66
1
 10
0
 20
0
 30
0
  0
VERTEX
  8
LAYER_1
 10
159.6735
 20
75.063
  0
VERTEX
  8
LAYER_1
 10
159.6735
 20
75.1122
  0
VERTEX
  8
LAYER_1
 10
159.6735
 20
75.1614
  0
VERTEX
  8
LAYER_1
 10
159.6735
 20
75.2603
  0
VERTEX
  8
LAYER_1
 10
159.6735
 20
75.3588
  0
VERTEX
  8
LAYER_1
 10
159.6735
 20
75.5064
  0
SEQEND
  0
POLYLINE
  8
LAYER_1
 40
0.1552
 41
0.1552
 66
1
 10
0
 20
0
 30
0
  0
VERTEX
  8
LAYER_1
 10
159.6735
 20
75.8515
  0
VERTEX
  8
LAYER_1
 10
159.6735
 20
75.95
  0
VERTEX
  8
LAYER_1
 10
159.6735
 20
76.0981
  0
VERTEX
  8
LAYER_1
 10
159.6735
 20
76.1965
  0
VERTEX
  8
LAYER_1
 10
159.6735
 20
76.295
  0
VERTEX
  8
LAYER_1
 10
159.6735
 20
76.3442
  0
VERTEX
  8
LAYER_1
 10
159.7228
 20
76.4431
  0
SEQEND
  0
POLYLINE
  8
LAYER_1
 40
0.1552
 41
0.1552
 66
1
 10
0
 20
0
 30
0
  0
VERTEX
  8
LAYER_1
 10
159.92
 20
76.6893
  0
VERTEX
  8
LAYER_1
 10
160.0676
 20
76.837
  0
VERTEX
  8
LAYER_1
 10
160.2157
 20
76.9851
  0
VERTEX
  8
LAYER_1
 10
160.3634
 20
77.1327
  0
SEQEND
  0
POLYLINE
  8
LAYER_1
 40
0.1552
 41
0.1552
 66
1
 10
0
 20
0
 30
0
  0
VERTEX
  8
LAYER_1
 10
160.6099
 20
77.3793
  0
VERTEX
  8
LAYER_1
 10
160.8072
 20
77.5766
  0
VERTEX
  8
LAYER_1
 10
161.0041
 20
77.7243
  0
VERTEX
  8
LAYER_1
 10
161.0533
 20
77.8227
  0
SEQEND
  0
POLYLINE
  8
LAYER_1
 40
0.1552
 41
0.1552
 66
1
 10
0
 20
0
 30
0
  0
VERTEX
  8
LAYER_1
 10
161.2999
 20
78.0199
  0
VERTEX
  8
LAYER_1
 10
161.2999
 20
78.0691
  0
VERTEX
  8
LAYER_1
 10
161.3491
 20
78.1183
  0
VERTEX
  8
LAYER_1
 10
161.3983
 20
78.1676
  0
VERTEX
  8
LAYER_1
 10
161.4475
 20
78.1676
  0
VERTEX
  8
LAYER_1
 10
161.4475
 20
78.2172
  0
VERTEX
  8
LAYER_1
 10
161.5464
 20
78.2664
  0
VERTEX
  8
LAYER_1
 10
161.5956
 20
78.2664
  0
VERTEX
  8
LAYER_1
 10
161.6449
 20
78.2664
  0
VERTEX
  8
LAYER_1
 10
161.7433
 20
78.2664
  0
VERTEX
  8
LAYER_1
 10
161.8417
 20
78.2664
  0
SEQEND
  0
POLYLINE
  8
LAYER_1
 40
0.1552
 41
0.1552
 66
1
 10
0
 20
0
 30
0
  0
VERTEX
  8
LAYER_1
 10
162.1376
 20
78.3156
  0
VERTEX
  8
LAYER_1
 10
162.2361
 20
78.3156
  0
VERTEX
  8
LAYER_1
 10
162.4334
 20
78.3156
  0
VERTEX
  8
LAYER_1
 10
162.6303
 20
78.3156
  0
VERTEX
  8
LAYER_1
 10
162.7784
 20
78.3648
  0
SEQEND
  0
POLYLINE
  8
LAYER_1
 40
0.1552
 41
0.1552
 66
1
 10
0
 20
0
 30
0
  0
VERTEX
  8
LAYER_1
 10
163.074
 20
78.3649
  0
VERTEX
  8
LAYER_1
 10
163.1232
 20
78.3649
  0
VERTEX
  8
LAYER_1
 10
163.3698
 20
78.3649
  0
VERTEX
  8
LAYER_1
 10
163.6159
 20
78.4141
  0
VERTEX
  8
LAYER_1
 10
163.7148
 20
78.4141
  0
SEQEND
  0
POLYLINE
  8
LAYER_1
 40
0.1552
 41
0.1552
 66
1
 10
0
 20
0
 30
0
  0
VERTEX
  8
LAYER_1
 10
164.0596
 20
78.4142
  0
VERTEX
  8
LAYER_1
 10
164.2073
 20
78.4142
  0
VERTEX
  8
LAYER_1
 10
164.7004
 20
78.4634
  0
SEQEND
  0
POLYLINE
  8
LAYER_1
 40
0.1552
 41
0.1552
 66
1
 10
0
 20
0
 30
0
  0
VERTEX
  8
LAYER_1
 10
164.996
 20
78.4635
  0
VERTEX
  8
LAYER_1
 10
165.5379
 20
78.5127
  0
VERTEX
  8
LAYER_1
 10
165.6368
 20
78.5127
  0
SEQEND
  0
POLYLINE
  8
LAYER_1
 40
0.1552
 41
0.1552
 66
1
 10
0
 20
0
 30
0
  0
VERTEX
  8
LAYER_1
 10
165.9323
 20
78.562
  0
VERTEX
  8
LAYER_1
 10
166.2281
 20
78.562
  0
VERTEX
  8
LAYER_1
 10
166.5731
 20
78.562
  0
SEQEND
  0
POLYLINE
  8
LAYER_1
 40
0.1552
 41
0.1552
 66
1
 10
0
 20
0
 30
0
  0
VERTEX
  8
LAYER_1
 10
166.918
 20
78.6113
  0
VERTEX
  8
LAYER_1
 10
167.5095
 20
78.6605
  0
SEQEND
  0
POLYLINE
  8
LAYER_1
 40
0.1552
 41
0.1552
 66
1
 10
0
 20
0
 30
0
  0
VERTEX
  8
LAYER_1
 10
167.8543
 20
78.6606
  0
VERTEX
  8
LAYER_1
 10
168.347
 20
78.7098
  0
VERTEX
  8
LAYER_1
 10
168.4951
 20
78.7098
  0
SEQEND
  0
POLYLINE
  8
LAYER_1
 40
0.1552
 41
0.1552
 66
1
 10
0
 20
0
 30
0
  0
VERTEX
  8
LAYER_1
 10
168.7907
 20
78.7098
  0
VERTEX
  8
LAYER_1
 10
169.0865
 20
78.7591
  0
VERTEX
  8
LAYER_1
 10
169.4315
 20
78.7591
  0
SEQEND
  0
POLYLINE
  8
LAYER_1
 40
0.1552
 41
0.1552
 66
1
 10
0
 20
0
 30
0
  0
VERTEX
  8
LAYER_1
 10
169.727
 20
78.8084
  0
VERTEX
  8
LAYER_1
 10
169.7762
 20
78.8084
  0
VERTEX
  8
LAYER_1
 10
170.3678
 20
78.8084
  0
SEQEND
  0
POLYLINE
  8
LAYER_1
 40
0.1552
 41
0.1552
 66
1
 10
0
 20
0
 30
0
  0
VERTEX
  8
LAYER_1
 10
170.7127
 20
78.8577
  0
VERTEX
  8
LAYER_1
 10
171.1069
 20
78.8577
  0
VERTEX
  8
LAYER_1
 10
171.3042
 20
78.9069
  0
SEQEND
  0
POLYLINE
  8
LAYER_1
 40
0.1552
 41
0.1552
 66
1
 10
0
 20
0
 30
0
  0
VERTEX
  8
LAYER_1
 10
171.649
 20
78.907
  0
VERTEX
  8
LAYER_1
 10
171.6982
 20
78.907
  0
VERTEX
  8
LAYER_1
 10
171.994
 20
78.907
  0
VERTEX
  8
LAYER_1
 10
172.2898
 20
78.9562
  0
SEQEND
  0
POLYLINE
  8
LAYER_1
 40
0.1552
 41
0.1552
 66
1
 10
0
 20
0
 30
0
  0
VERTEX
  8
LAYER_1
 10
172.5854
 20
78.9563
  0
VERTEX
  8
LAYER_1
 10
172.733
 20
78.9563
  0
VERTEX
  8
LAYER_1
 10
172.9796
 20
79.0055
  0
VERTEX
  8
LAYER_1
 10
173.1769
 20
79.0055
  0
VERTEX
  8
LAYER_1
 10
173.2261
 20
79.0055
  0
SEQEND
  0
POLYLINE
  8
LAYER_1
 40
0.1552
 41
0.1552
 66
1
 10
0
 20
0
 30
0
  0
VERTEX
  8
LAYER_1
 10
173.5217
 20
79.0548
  0
VERTEX
  8
LAYER_1
 10
173.6694
 20
79.0548
  0
VERTEX
  8
LAYER_1
 10
173.7683
 20
79.0548
  0
VERTEX
  8
LAYER_1
 10
173.8667
 20
79.0548
  0
VERTEX
  8
LAYER_1
 10
173.916
 20
79.0548
  0
VERTEX
  8
LAYER_1
 10
173.9652
 20
79.0548
  0
VERTEX
  8
LAYER_1
 10
174.0144
 20
79.0548
  0
SEQEND
  0
POLYLINE
  8
LAYER_1
 40
0.1552
 41
0.1552
 66
1
 10
0
 20
0
 30
0
  0
VERTEX
  8
LAYER_1
 10
171.3041
 20
75.063
  0
VERTEX
  8
LAYER_1
 10
170.3183
 20
75.063
  0
SEQEND
  0
POLYLINE
  8
LAYER_1
 40
0.1552
 41
0.1552
 66
1
 10
0
 20
0
 30
0
  0
VERTEX
  8
LAYER_1
 10
176.3308
 20
95.2193
  0
VERTEX
  8
LAYER_1
 10
138.7289
 20
95.2193
  0
SEQEND
  0
POLYLINE
  8
LAYER_1
 40
0.1552
 41
0.1552
 66
1
 10
0
 20
0
 30
0
  0
VERTEX
  8
LAYER_1
 10
161.5955
 20
78.2663
  0
VERTEX
  8
LAYER_1
 10
161.004
 20
78.2663
  0
SEQEND
  0
POLYLINE
  8
LAYER_1
 40
0.1552
 41
0.1552
 66
1
 10
0
 20
0
 30
0
  0
VERTEX
  8
LAYER_1
 10
160.6592
 20
78.2663
  0
VERTEX
  8
LAYER_1
 10
160.0676
 20
78.2663
  0
SEQEND
  0
POLYLINE
  8
LAYER_1
 40
0.1552
 41
0.1552
 66
1
 10
0
 20
0
 30
0
  0
VERTEX
  8
LAYER_1
 10
159.7228
 20
78.2663
  0
VERTEX
  8
LAYER_1
 10
159.0821
 20
78.2663
  0
SEQEND
  0
POLYLINE
  8
LAYER_1
 40
0.1552
 41
0.1552
 66
1
 10
0
 20
0
 30
0
  0
VERTEX
  8
LAYER_1
 10
158.7865
 20
78.2663
  0
VERTEX
  8
LAYER_1
 10
158.1457
 20
78.2663
  0
SEQEND
  0
POLYLINE
  8
LAYER_1
 40
0.1552
 41
0.1552
 66
1
 10
0
 20
0
 30
0
  0
VERTEX
  8
LAYER_1
 10
157.8501
 20
78.2663
  0
VERTEX
  8
LAYER_1
 10
157.2093
 20
78.2663
  0
SEQEND
  0
POLYLINE
  8
LAYER_1
 40
0.1552
 41
0.1552
 66
1
 10
0
 20
0
 30
0
  0
VERTEX
  8
LAYER_1
 10
156.8645
 20
78.2663
  0
VERTEX
  8
LAYER_1
 10
156.2237
 20
78.2663
  0
SEQEND
  0
POLYLINE
  8
LAYER_1
 40
0.1552
 41
0.1552
 66
1
 10
0
 20
0
 30
0
  0
VERTEX
  8
LAYER_1
 10
155.9281
 20
78.2663
  0
VERTEX
  8
LAYER_1
 10
155.2873
 20
78.2663
  0
SEQEND
  0
POLYLINE
  8
LAYER_1
 40
0.1552
 41
0.1552
 66
1
 10
0
 20
0
 30
0
  0
VERTEX
  8
LAYER_1
 10
154.9918
 20
78.2663
  0
VERTEX
  8
LAYER_1
 10
154.351
 20
78.2663
  0
SEQEND
  0
POLYLINE
  8
LAYER_1
 40
0.1552
 41
0.1552
 66
1
 10
0
 20
0
 30
0
  0
VERTEX
  8
LAYER_1
 10
154.0061
 20
78.2663
  0
VERTEX
  8
LAYER_1
 10
153.4146
 20
78.2663
  0
SEQEND
  0
POLYLINE
  8
LAYER_1
 40
0.1552
 41
0.1552
 66
1
 10
0
 20
0
 30
0
  0
VERTEX
  8
LAYER_1
 10
159.6735
 20
75.063
  0
VERTEX
  8
LAYER_1
 10
155.3367
 20
75.063
  0
SEQEND
  0
POLYLINE
  8
LAYER_1
 40
0.1552
 41
0.1552
 66
1
 10
0
 20
0
 30
0
  0
VERTEX
  8
LAYER_1
 10
140.3551
 20
75.063
  0
VERTEX
  8
LAYER_1
 10
140.3059
 20
75.063
  0
VERTEX
  8
LAYER_1
 10
140.2566
 20
75.063
  0
VERTEX
  8
LAYER_1
 10
140.2074
 20
75.063
  0
VERTEX
  8
LAYER_1
 10
140.1085
 20
75.063
  0
VERTEX
  8
LAYER_1
 10
139.8624
 20
75.063
  0
VERTEX
  8
LAYER_1
 10
139.6159
 20
75.063
  0
VERTEX
  8
LAYER_1
 10
139.4185
 20
75.063
  0
VERTEX
  8
LAYER_1
 10
139.3201
 20
75.063
  0
VERTEX
  8
LAYER_1
 10
139.2217
 20
75.063
  0
VERTEX
  8
LAYER_1
 10
139.1724
 20
75.063
  0
VERTEX
  8
LAYER_1
 10
139.1232
 20
75.063
  0
VERTEX
  8
LAYER_1
 10
139.1232
 20
75.1122
  0
VERTEX
  8
LAYER_1
 10
139.1232
 20
75.2107
  0
VERTEX
  8
LAYER_1
 10
139.1232
 20
75.3096
  0
VERTEX
  8
LAYER_1
 10
139.1232
 20
75.408
  0
VERTEX
  8
LAYER_1
 10
139.1232
 20
75.5557
  0
VERTEX
  8
LAYER_1
 10
139.0736
 20
75.753
  0
VERTEX
  8
LAYER_1
 10
139.0736
 20
75.9499
  0
VERTEX
  8
LAYER_1
 10
139.0736
 20
76.1472
  0
VERTEX
  8
LAYER_1
 10
139.0243
 20
76.3938
  0
VERTEX
  8
LAYER_1
 10
139.0243
 20
76.6399
  0
VERTEX
  8
LAYER_1
 10
138.9751
 20
76.9356
  0
VERTEX
  8
LAYER_1
 10
138.9751
 20
77.2314
  0
VERTEX
  8
LAYER_1
 10
138.9259
 20
77.5272
  0
VERTEX
  8
LAYER_1
 10
138.9259
 20
77.823
  0
VERTEX
  8
LAYER_1
 10
138.8767
 20
78.168
  0
VERTEX
  8
LAYER_1
 10
138.8767
 20
78.5125
  0
VERTEX
  8
LAYER_1
 10
138.8274
 20
79.2522
  0
VERTEX
  8
LAYER_1
 10
138.7782
 20
79.9914
  0
VERTEX
  8
LAYER_1
 10
138.6793
 20
80.829
  0
VERTEX
  8
LAYER_1
 10
138.6301
 20
81.6175
  0
VERTEX
  8
LAYER_1
 10
138.5809
 20
82.4551
  0
VERTEX
  8
LAYER_1
 10
138.4332
 20
84.1309
  0
VERTEX
  8
LAYER_1
 10
138.384
 20
84.9685
  0
VERTEX
  8
LAYER_1
 10
138.2851
 20
85.757
  0
VERTEX
  8
LAYER_1
 10
138.2359
 20
86.5458
  0
VERTEX
  8
LAYER_1
 10
138.1867
 20
87.2851
  0
VERTEX
  8
LAYER_1
 10
138.1375
 20
87.9746
  0
VERTEX
  8
LAYER_1
 10
138.0882
 20
88.3196
  0
VERTEX
  8
LAYER_1
 10
138.0882
 20
88.6154
  0
VERTEX
  8
LAYER_1
 10
138.039
 20
88.9111
  0
VERTEX
  8
LAYER_1
 10
138.039
 20
89.2069
  0
VERTEX
  8
LAYER_1
 10
138.039
 20
89.4535
  0
VERTEX
  8
LAYER_1
 10
137.9893
 20
89.6996
  0
VERTEX
  8
LAYER_1
 10
137.9893
 20
89.9461
  0
VERTEX
  8
LAYER_1
 10
137.9893
 20
90.143
  0
VERTEX
  8
LAYER_1
 10
137.9401
 20
90.3404
  0
VERTEX
  8
LAYER_1
 10
137.9401
 20
90.488
  0
VERTEX
  8
LAYER_1
 10
137.9401
 20
90.6361
  0
VERTEX
  8
LAYER_1
 10
137.9401
 20
90.7838
  0
VERTEX
  8
LAYER_1
 10
137.8909
 20
90.833
  0
VERTEX
  8
LAYER_1
 10
137.8909
 20
90.9319
  0
VERTEX
  8
LAYER_1
 10
137.8909
 20
90.9811
  0
VERTEX
  8
LAYER_1
 10
137.8909
 20
91.0304
  0
VERTEX
  8
LAYER_1
 10
137.8417
 20
91.178
  0
VERTEX
  8
LAYER_1
 10
137.7925
 20
91.2272
  0
VERTEX
  8
LAYER_1
 10
137.7432
 20
91.3261
  0
VERTEX
  8
LAYER_1
 10
137.6448
 20
91.3753
  0
VERTEX
  8
LAYER_1
 10
137.5459
 20
91.4246
  0
VERTEX
  8
LAYER_1
 10
137.4475
 20
91.4246
  0
VERTEX
  8
LAYER_1
 10
137.3982
 20
91.4246
  0
VERTEX
  8
LAYER_1
 10
137.349
 20
91.4246
  0
VERTEX
  8
LAYER_1
 10
137.2998
 20
91.4246
  0
VERTEX
  8
LAYER_1
 10
137.2501
 20
91.4246
  0
VERTEX
  8
LAYER_1
 10
137.2009
 20
91.4246
  0
VERTEX
  8
LAYER_1
 10
137.1517
 20
91.3753
  0
VERTEX
  8
LAYER_1
 10
137.1517
 20
91.3261
  0
VERTEX
  8
LAYER_1
 10
137.1025
 20
91.2769
  0
VERTEX
  8
LAYER_1
 10
137.0532
 20
91.2769
  0
VERTEX
  8
LAYER_1
 10
137.004
 20
91.2272
  0
VERTEX
  8
LAYER_1
 10
136.9548
 20
91.2272
  0
VERTEX
  8
LAYER_1
 10
136.9056
 20
91.2272
  0
VERTEX
  8
LAYER_1
 10
136.7575
 20
91.2272
  0
VERTEX
  8
LAYER_1
 10
136.6098
 20
91.2272
  0
VERTEX
  8
LAYER_1
 10
136.4617
 20
91.2272
  0
VERTEX
  8
LAYER_1
 10
136.314
 20
91.2272
  0
VERTEX
  8
LAYER_1
 10
136.2156
 20
91.2272
  0
VERTEX
  8
LAYER_1
 10
136.1659
 20
91.2272
  0
VERTEX
  8
LAYER_1
 10
136.0675
 20
91.2769
  0
VERTEX
  8
LAYER_1
 10
136.0183
 20
91.3261
  0
VERTEX
  8
LAYER_1
 10
135.969
 20
91.3753
  0
VERTEX
  8
LAYER_1
 10
135.969
 20
91.4246
  0
VERTEX
  8
LAYER_1
 10
135.969
 20
91.4738
  0
VERTEX
  8
LAYER_1
 10
135.969
 20
91.523
  0
VERTEX
  8
LAYER_1
 10
135.9198
 20
91.5722
  0
VERTEX
  8
LAYER_1
 10
135.9198
 20
91.7696
  0
VERTEX
  8
LAYER_1
 10
135.8706
 20
91.9664
  0
VERTEX
  8
LAYER_1
 10
135.8214
 20
92.213
  0
VERTEX
  8
LAYER_1
 10
135.7717
 20
92.5088
  0
VERTEX
  8
LAYER_1
 10
135.7225
 20
93.0507
  0
VERTEX
  8
LAYER_1
 10
135.6733
 20
93.2972
  0
VERTEX
  8
LAYER_1
 10
135.624
 20
93.5438
  0
VERTEX
  8
LAYER_1
 10
135.5748
 20
93.7899
  0
VERTEX
  8
LAYER_1
 10
135.5748
 20
93.8395
  0
VERTEX
  8
LAYER_1
 10
135.5748
 20
93.938
  0
VERTEX
  8
LAYER_1
 10
135.5256
 20
93.9872
  0
VERTEX
  8
LAYER_1
 10
135.5256
 20
94.0364
  0
VERTEX
  8
LAYER_1
 10
135.5256
 20
94.0856
  0
VERTEX
  8
LAYER_1
 10
135.4764
 20
94.1349
  0
VERTEX
  8
LAYER_1
 10
135.4267
 20
94.1845
  0
VERTEX
  8
LAYER_1
 10
135.3775
 20
94.2337
  0
VERTEX
  8
LAYER_1
 10
135.3283
 20
94.2337
  0
VERTEX
  8
LAYER_1
 10
135.2298
 20
94.2337
  0
VERTEX
  8
LAYER_1
 10
135.1314
 20
94.2337
  0
VERTEX
  8
LAYER_1
 10
135.0817
 20
94.2337
  0
SEQEND
  0
POLYLINE
  8
LAYER_1
 40
0.1552
 41
0.1552
 66
1
 10
0
 20
0
 30
0
  0
VERTEX
  8
LAYER_1
 10
134.7369
 20
94.2336
  0
VERTEX
  8
LAYER_1
 10
134.6877
 20
94.2828
  0
VERTEX
  8
LAYER_1
 10
134.5893
 20
94.3321
  0
VERTEX
  8
LAYER_1
 10
134.5396
 20
94.3813
  0
VERTEX
  8
LAYER_1
 10
134.5396
 20
94.431
  0
VERTEX
  8
LAYER_1
 10
134.5396
 20
94.4802
  0
VERTEX
  8
LAYER_1
 10
134.5396
 20
94.5294
  0
VERTEX
  8
LAYER_1
 10
134.5396
 20
94.5786
  0
VERTEX
  8
LAYER_1
 10
134.5893
 20
94.6771
  0
VERTEX
  8
LAYER_1
 10
134.5893
 20
94.7263
  0
SEQEND
  0
POLYLINE
  8
LAYER_1
 40
0.1552
 41
0.1552
 66
1
 10
0
 20
0
 30
0
  0
VERTEX
  8
LAYER_1
 10
134.6877
 20
95.0714
  0
VERTEX
  8
LAYER_1
 10
134.6877
 20
95.1206
  0
VERTEX
  8
LAYER_1
 10
134.6877
 20
95.1698
  0
VERTEX
  8
LAYER_1
 10
134.7861
 20
95.2191
  0
VERTEX
  8
LAYER_1
 10
134.8353
 20
95.2191
  0
VERTEX
  8
LAYER_1
 10
134.885
 20
95.2191
  0
VERTEX
  8
LAYER_1
 10
134.9342
 20
95.2191
  0
VERTEX
  8
LAYER_1
 10
135.0327
 20
95.2191
  0
VERTEX
  8
LAYER_1
 10
135.0819
 20
95.2191
  0
VERTEX
  8
LAYER_1
 10
135.1803
 20
95.2191
  0
SEQEND
  0
POLYLINE
  8
LAYER_1
 40
0.1552
 41
0.1552
 66
1
 10
0
 20
0
 30
0
  0
VERTEX
  8
LAYER_1
 10
135.5255
 20
95.2193
  0
VERTEX
  8
LAYER_1
 10
135.8212
 20
95.2193
  0
VERTEX
  8
LAYER_1
 10
136.1662
 20
95.2193
  0
SEQEND
  0
POLYLINE
  8
LAYER_1
 40
0.1552
 41
0.1552
 66
1
 10
0
 20
0
 30
0
  0
VERTEX
  8
LAYER_1
 10
136.4618
 20
95.2193
  0
VERTEX
  8
LAYER_1
 10
136.6095
 20
95.2193
  0
VERTEX
  8
LAYER_1
 10
137.1026
 20
95.2193
  0
SEQEND
  0
POLYLINE
  8
LAYER_1
 40
0.1552
 41
0.1552
 66
1
 10
0
 20
0
 30
0
  0
VERTEX
  8
LAYER_1
 10
137.3982
 20
95.2193
  0
VERTEX
  8
LAYER_1
 10
137.7924
 20
95.2193
  0
VERTEX
  8
LAYER_1
 10
138.039
 20
95.2193
  0
SEQEND
  0
POLYLINE
  8
LAYER_1
 40
0.1552
 41
0.1552
 66
1
 10
0
 20
0
 30
0
  0
VERTEX
  8
LAYER_1
 10
138.3838
 20
95.2193
  0
VERTEX
  8
LAYER_1
 10
138.4823
 20
95.2193
  0
VERTEX
  8
LAYER_1
 10
138.5811
 20
95.2193
  0
VERTEX
  8
LAYER_1
 10
138.6304
 20
95.2193
  0
VERTEX
  8
LAYER_1
 10
138.6796
 20
95.2193
  0
VERTEX
  8
LAYER_1
 10
138.7288
 20
95.2193
  0
VERTEX
  8
LAYER_1
 10
138.778
 20
95.2193
  0
VERTEX
  8
LAYER_1
 10
138.8765
 20
95.1701
  0
VERTEX
  8
LAYER_1
 10
138.8765
 20
95.0716
  0
VERTEX
  8
LAYER_1
 10
138.9257
 20
95.0716
  0
SEQEND
  0
POLYLINE
  8
LAYER_1
 40
0.1552
 41
0.1552
 66
1
 10
0
 20
0
 30
0
  0
VERTEX
  8
LAYER_1
 10
138.9259
 20
94.7265
  0
VERTEX
  8
LAYER_1
 10
138.9259
 20
94.628
  0
VERTEX
  8
LAYER_1
 10
138.9751
 20
94.4307
  0
VERTEX
  8
LAYER_1
 10
138.9751
 20
94.283
  0
VERTEX
  8
LAYER_1
 10
138.9751
 20
94.0857
  0
SEQEND
  0
POLYLINE
  8
LAYER_1
 40
0.1552
 41
0.1552
 66
1
 10
0
 20
0
 30
0
  0
VERTEX
  8
LAYER_1
 10
139.0245
 20
93.7901
  0
VERTEX
  8
LAYER_1
 10
139.0245
 20
93.5928
  0
VERTEX
  8
LAYER_1
 10
139.0245
 20
93.3466
  0
VERTEX
  8
LAYER_1
 10
139.0737
 20
93.1493
  0
SEQEND
  0
POLYLINE
  8
LAYER_1
 40
0.1552
 41
0.1552
 66
1
 10
0
 20
0
 30
0
  0
VERTEX
  8
LAYER_1
 10
139.0738
 20
92.8537
  0
VERTEX
  8
LAYER_1
 10
139.0738
 20
92.8045
  0
VERTEX
  8
LAYER_1
 10
139.123
 20
92.5087
  0
VERTEX
  8
LAYER_1
 10
139.123
 20
92.213
  0
SEQEND
  0
POLYLINE
  8
LAYER_1
 40
0.1552
 41
0.1552
 66
1
 10
0
 20
0
 30
0
  0
VERTEX
  8
LAYER_1
 10
139.1723
 20
91.8681
  0
VERTEX
  8
LAYER_1
 10
139.2215
 20
91.2765
  0
SEQEND
  0
POLYLINE
  8
LAYER_1
 40
0.1552
 41
0.1552
 66
1
 10
0
 20
0
 30
0
  0
VERTEX
  8
LAYER_1
 10
139.2216
 20
90.9318
  0
VERTEX
  8
LAYER_1
 10
139.2708
 20
90.4391
  0
VERTEX
  8
LAYER_1
 10
139.2708
 20
90.291
  0
SEQEND
  0
POLYLINE
  8
LAYER_1
 40
0.1552
 41
0.1552
 66
1
 10
0
 20
0
 30
0
  0
VERTEX
  8
LAYER_1
 10
139.3201
 20
89.9954
  0
VERTEX
  8
LAYER_1
 10
139.3201
 20
89.6996
  0
VERTEX
  8
LAYER_1
 10
139.3694
 20
89.3546
  0
SEQEND
  0
POLYLINE
  8
LAYER_1
 40
0.1552
 41
0.1552
 66
1
 10
0
 20
0
 30
0
  0
VERTEX
  8
LAYER_1
 10
139.3695
 20
89.059
  0
VERTEX
  8
LAYER_1
 10
139.3695
 20
88.9114
  0
VERTEX
  8
LAYER_1
 10
139.4187
 20
88.4183
  0
SEQEND
  0
POLYLINE
  8
LAYER_1
 40
0.1552
 41
0.1552
 66
1
 10
0
 20
0
 30
0
  0
VERTEX
  8
LAYER_1
 10
139.468
 20
88.1227
  0
VERTEX
  8
LAYER_1
 10
139.5172
 20
87.4819
  0
SEQEND
  0
POLYLINE
  8
LAYER_1
 40
0.1552
 41
0.1552
 66
1
 10
0
 20
0
 30
0
  0
VERTEX
  8
LAYER_1
 10
139.5173
 20
87.137
  0
VERTEX
  8
LAYER_1
 10
139.5665
 20
86.4963
  0
SEQEND
  0
POLYLINE
  8
LAYER_1
 40
0.1552
 41
0.1552
 66
1
 10
0
 20
0
 30
0
  0
VERTEX
  8
LAYER_1
 10
139.6158
 20
86.2007
  0
VERTEX
  8
LAYER_1
 10
139.6158
 20
85.7572
  0
VERTEX
  8
LAYER_1
 10
139.6651
 20
85.5599
  0
SEQEND
  0
POLYLINE
  8
LAYER_1
 40
0.1552
 41
0.1552
 66
1
 10
0
 20
0
 30
0
  0
VERTEX
  8
LAYER_1
 10
139.6651
 20
85.2644
  0
VERTEX
  8
LAYER_1
 10
139.6651
 20
85.0178
  0
VERTEX
  8
LAYER_1
 10
139.7144
 20
84.6236
  0
SEQEND
  0
POLYLINE
  8
LAYER_1
 40
0.1552
 41
0.1552
 66
1
 10
0
 20
0
 30
0
  0
VERTEX
  8
LAYER_1
 10
139.7637
 20
84.328
  0
VERTEX
  8
LAYER_1
 10
139.7637
 20
84.2788
  0
VERTEX
  8
LAYER_1
 10
139.8129
 20
83.6872
  0
SEQEND
  0
POLYLINE
  8
LAYER_1
 40
0.1552
 41
0.1552
 66
1
 10
0
 20
0
 30
0
  0
VERTEX
  8
LAYER_1
 10
139.813
 20
83.3424
  0
VERTEX
  8
LAYER_1
 10
139.8622
 20
82.8989
  0
VERTEX
  8
LAYER_1
 10
139.8622
 20
82.7016
  0
SEQEND
  0
POLYLINE
  8
LAYER_1
 40
0.1552
 41
0.1552
 66
1
 10
0
 20
0
 30
0
  0
VERTEX
  8
LAYER_1
 10
139.9116
 20
82.406
  0
VERTEX
  8
LAYER_1
 10
139.9116
 20
82.2583
  0
VERTEX
  8
LAYER_1
 10
139.9116
 20
81.9626
  0
VERTEX
  8
LAYER_1
 10
139.9608
 20
81.7652
  0
SEQEND
  0
POLYLINE
  8
LAYER_1
 40
0.1552
 41
0.1552
 66
1
 10
0
 20
0
 30
0
  0
VERTEX
  8
LAYER_1
 10
139.9608
 20
81.4696
  0
VERTEX
  8
LAYER_1
 10
139.9608
 20
81.2231
  0
VERTEX
  8
LAYER_1
 10
140.01
 20
80.977
  0
VERTEX
  8
LAYER_1
 10
140.01
 20
80.8289
  0
SEQEND
  0
POLYLINE
  8
LAYER_1
 40
0.1552
 41
0.1552
 66
1
 10
0
 20
0
 30
0
  0
VERTEX
  8
LAYER_1
 10
140.0594
 20
80.5333
  0
VERTEX
  8
LAYER_1
 10
140.0594
 20
80.4349
  0
VERTEX
  8
LAYER_1
 10
140.0594
 20
80.2868
  0
VERTEX
  8
LAYER_1
 10
140.0594
 20
80.1883
  0
VERTEX
  8
LAYER_1
 10
140.0594
 20
80.0899
  0
VERTEX
  8
LAYER_1
 10
140.0594
 20
80.0406
  0
VERTEX
  8
LAYER_1
 10
140.0594
 20
79.991
  0
SEQEND
  0
POLYLINE
  8
LAYER_1
 40
0.1552
 41
0.1552
 66
1
 10
0
 20
0
 30
0
  0
VERTEX
  8
LAYER_1
 10
143.7555
 20
75.063
  0
VERTEX
  8
LAYER_1
 10
143.7063
 20
75.1614
  0
VERTEX
  8
LAYER_1
 10
143.6571
 20
75.2107
  0
VERTEX
  8
LAYER_1
 10
143.6078
 20
75.2603
  0
VERTEX
  8
LAYER_1
 10
143.5582
 20
75.2603
  0
SEQEND
  0
POLYLINE
  8
LAYER_1
 40
0.1552
 41
0.1552
 66
1
 10
0
 20
0
 30
0
  0
VERTEX
  8
LAYER_1
 10
140.5522
 20
75.2601
  0
VERTEX
  8
LAYER_1
 10
140.4537
 20
75.2601
  0
VERTEX
  8
LAYER_1
 10
140.4045
 20
75.2109
  0
VERTEX
  8
LAYER_1
 10
140.3549
 20
75.1617
  0
VERTEX
  8
LAYER_1
 10
140.3549
 20
75.0628
  0
VERTEX
  8
LAYER_1
 10
139.123
 20
75.0628
  0
SEQEND
  0
POLYLINE
  8
LAYER_1
 40
0.1552
 41
0.1552
 66
1
 10
0
 20
0
 30
0
  0
VERTEX
  8
LAYER_1
 10
140.3551
 20
75.063
  0
VERTEX
  8
LAYER_1
 10
143.7554
 20
75.063
  0
SEQEND
  0
POLYLINE
  8
LAYER_1
 40
0.1552
 41
0.1552
 66
1
 10
0
 20
0
 30
0
  0
VERTEX
  8
LAYER_1
 10
153.7597
 20
75.063
  0
VERTEX
  8
LAYER_1
 10
154.4005
 20
75.063
  0
SEQEND
  0
POLYLINE
  8
LAYER_1
 40
0.1552
 41
0.1552
 66
1
 10
0
 20
0
 30
0
  0
VERTEX
  8
LAYER_1
 10
154.6961
 20
75.063
  0
VERTEX
  8
LAYER_1
 10
155.3368
 20
75.063
  0
SEQEND
  0
POLYLINE
  8
LAYER_1
 40
0.1552
 41
0.1552
 66
1
 10
0
 20
0
 30
0
  0
VERTEX
  8
LAYER_1
 10
145.8253
 20
77.0836
  0
VERTEX
  8
LAYER_1
 10
146.2196
 20
77.0836
  0
SEQEND
  0
POLYLINE
  8
LAYER_1
 40
0.1552
 41
0.1552
 66
1
 10
0
 20
0
 30
0
  0
VERTEX
  8
LAYER_1
 10
146.5646
 20
77.0836
  0
VERTEX
  8
LAYER_1
 10
147.2054
 20
77.0836
  0
SEQEND
  0
POLYLINE
  8
LAYER_1
 40
0.1552
 41
0.1552
 66
1
 10
0
 20
0
 30
0
  0
VERTEX
  8
LAYER_1
 10
147.5009
 20
77.0836
  0
VERTEX
  8
LAYER_1
 10
148.1417
 20
77.0836
  0
SEQEND
  0
POLYLINE
  8
LAYER_1
 40
0.1552
 41
0.1552
 66
1
 10
0
 20
0
 30
0
  0
VERTEX
  8
LAYER_1
 10
148.4866
 20
77.0836
  0
VERTEX
  8
LAYER_1
 10
149.0781
 20
77.0836
  0
SEQEND
  0
POLYLINE
  8
LAYER_1
 40
0.1552
 41
0.1552
 66
1
 10
0
 20
0
 30
0
  0
VERTEX
  8
LAYER_1
 10
149.4229
 20
77.0836
  0
VERTEX
  8
LAYER_1
 10
150.0637
 20
77.0836
  0
SEQEND
  0
POLYLINE
  8
LAYER_1
 40
0.1552
 41
0.1552
 66
1
 10
0
 20
0
 30
0
  0
VERTEX
  8
LAYER_1
 10
150.3593
 20
77.0836
  0
VERTEX
  8
LAYER_1
 10
151.0001
 20
77.0836
  0
SEQEND
  0
POLYLINE
  8
LAYER_1
 40
0.1552
 41
0.1552
 66
1
 10
0
 20
0
 30
0
  0
VERTEX
  8
LAYER_1
 10
151.2957
 20
77.0836
  0
VERTEX
  8
LAYER_1
 10
151.9364
 20
77.0836
  0
SEQEND
  0
POLYLINE
  8
LAYER_1
 40
0.1552
 41
0.1552
 66
1
 10
0
 20
0
 30
0
  0
VERTEX
  8
LAYER_1
 10
152.2813
 20
77.0836
  0
VERTEX
  8
LAYER_1
 10
152.6755
 20
77.0836
  0
SEQEND
  0
POLYLINE
  8
LAYER_1
 40
0.1552
 41
0.1552
 66
1
 10
0
 20
0
 30
0
  0
VERTEX
  8
LAYER_1
 10
140.5522
 20
75.2601
  0
VERTEX
  8
LAYER_1
 10
143.5583
 20
75.2601
  0
SEQEND
  0
POLYLINE
  8
LAYER_1
 40
0.1552
 41
0.1552
 66
1
 10
0
 20
0
 30
0
  0
VERTEX
  8
LAYER_1
 10
153.6612
 20
76.1472
  0
VERTEX
  8
LAYER_1
 10
153.7596
 20
75.063
  0
SEQEND
  0
POLYLINE
  8
LAYER_1
 40
0.1552
 41
0.1552
 66
1
 10
0
 20
0
 30
0
  0
VERTEX
  8
LAYER_1
 10
152.6755
 20
77.0836
  0
VERTEX
  8
LAYER_1
 10
152.8729
 20
77.0344
  0
VERTEX
  8
LAYER_1
 10
153.0698
 20
76.9851
  0
VERTEX
  8
LAYER_1
 10
153.2174
 20
76.9359
  0
VERTEX
  8
LAYER_1
 10
153.2174
 20
76.8862
  0
SEQEND
  0
POLYLINE
  8
LAYER_1
 40
0.1552
 41
0.1552
 66
1
 10
0
 20
0
 30
0
  0
VERTEX
  8
LAYER_1
 10
153.464
 20
76.6893
  0
VERTEX
  8
LAYER_1
 10
153.5625
 20
76.492
  0
VERTEX
  8
LAYER_1
 10
153.6614
 20
76.3443
  0
VERTEX
  8
LAYER_1
 10
153.6614
 20
76.1474
  0
SEQEND
  0
POLYLINE
  8
LAYER_1
 40
0.1552
 41
0.1552
 66
1
 10
0
 20
0
 30
0
  0
VERTEX
  8
LAYER_1
 10
144.8397
 20
76.1472
  0
VERTEX
  8
LAYER_1
 10
144.8889
 20
76.3445
  0
VERTEX
  8
LAYER_1
 10
144.9382
 20
76.4922
  0
VERTEX
  8
LAYER_1
 10
145.037
 20
76.6891
  0
SEQEND
  0
POLYLINE
  8
LAYER_1
 40
0.1552
 41
0.1552
 66
1
 10
0
 20
0
 30
0
  0
VERTEX
  8
LAYER_1
 10
145.2832
 20
76.8864
  0
VERTEX
  8
LAYER_1
 10
145.2832
 20
76.9356
  0
VERTEX
  8
LAYER_1
 10
145.4806
 20
76.9849
  0
VERTEX
  8
LAYER_1
 10
145.6282
 20
77.0341
  0
VERTEX
  8
LAYER_1
 10
145.8251
 20
77.0838
  0
SEQEND
  0
POLYLINE
  8
LAYER_1
 40
0.1552
 41
0.1552
 66
1
 10
0
 20
0
 30
0
  0
VERTEX
  8
LAYER_1
 10
144.8397
 20
76.1472
  0
VERTEX
  8
LAYER_1
 10
144.7413
 20
75.063
  0
SEQEND
  0
POLYLINE
  8
LAYER_1
 40
0.1552
 41
0.1552
 66
1
 10
0
 20
0
 30
0
  0
VERTEX
  8
LAYER_1
 10
141.045
 20
79.0548
  0
VERTEX
  8
LAYER_1
 10
140.8477
 20
79.1041
  0
VERTEX
  8
LAYER_1
 10
140.7
 20
79.1533
  0
VERTEX
  8
LAYER_1
 10
140.5031
 20
79.2025
  0
VERTEX
  8
LAYER_1
 10
140.5031
 20
79.2522
  0
SEQEND
  0
POLYLINE
  8
LAYER_1
 40
0.1552
 41
0.1552
 66
1
 10
0
 20
0
 30
0
  0
VERTEX
  8
LAYER_1
 10
140.2565
 20
79.4491
  0
VERTEX
  8
LAYER_1
 10
140.1581
 20
79.6464
  0
VERTEX
  8
LAYER_1
 10
140.1088
 20
79.7941
  0
VERTEX
  8
LAYER_1
 10
140.0592
 20
79.991
  0
SEQEND
  0
POLYLINE
  8
LAYER_1
 40
0.1552
 41
0.1552
 66
1
 10
0
 20
0
 30
0
  0
VERTEX
  8
LAYER_1
 10
155.3368
 20
75.063
  0
VERTEX
  8
LAYER_1
 10
155.3368
 20
75.1122
  0
VERTEX
  8
LAYER_1
 10
155.3368
 20
75.2107
  0
VERTEX
  8
LAYER_1
 10
155.3368
 20
75.3588
  0
VERTEX
  8
LAYER_1
 10
155.3368
 20
75.5064
  0
SEQEND
  0
POLYLINE
  8
LAYER_1
 40
0.1552
 41
0.1552
 66
1
 10
0
 20
0
 30
0
  0
VERTEX
  8
LAYER_1
 10
155.3368
 20
75.8515
  0
VERTEX
  8
LAYER_1
 10
155.3368
 20
75.95
  0
VERTEX
  8
LAYER_1
 10
155.3368
 20
76.0981
  0
VERTEX
  8
LAYER_1
 10
155.3368
 20
76.1965
  0
VERTEX
  8
LAYER_1
 10
155.3368
 20
76.295
  0
VERTEX
  8
LAYER_1
 10
155.3368
 20
76.3442
  0
VERTEX
  8
LAYER_1
 10
155.3368
 20
76.3934
  0
VERTEX
  8
LAYER_1
 10
155.2875
 20
76.4923
  0
SEQEND
  0
POLYLINE
  8
LAYER_1
 40
0.1552
 41
0.1552
 66
1
 10
0
 20
0
 30
0
  0
VERTEX
  8
LAYER_1
 10
155.0903
 20
76.6893
  0
VERTEX
  8
LAYER_1
 10
154.9919
 20
76.7877
  0
VERTEX
  8
LAYER_1
 10
154.7946
 20
76.9851
  0
VERTEX
  8
LAYER_1
 10
154.6469
 20
77.1327
  0
SEQEND
  0
POLYLINE
  8
LAYER_1
 40
0.1552
 41
0.1552
 66
1
 10
0
 20
0
 30
0
  0
VERTEX
  8
LAYER_1
 10
154.4004
 20
77.3793
  0
VERTEX
  8
LAYER_1
 10
154.2527
 20
77.5269
  0
VERTEX
  8
LAYER_1
 10
154.0554
 20
77.7243
  0
VERTEX
  8
LAYER_1
 10
153.9569
 20
77.8227
  0
SEQEND
  0
POLYLINE
  8
LAYER_1
 40
0.1552
 41
0.1552
 66
1
 10
0
 20
0
 30
0
  0
VERTEX
  8
LAYER_1
 10
153.7597
 20
78.0199
  0
VERTEX
  8
LAYER_1
 10
153.6613
 20
78.0691
  0
VERTEX
  8
LAYER_1
 10
153.612
 20
78.1183
  0
VERTEX
  8
LAYER_1
 10
153.612
 20
78.1676
  0
VERTEX
  8
LAYER_1
 10
153.5624
 20
78.1676
  0
VERTEX
  8
LAYER_1
 10
153.5624
 20
78.2172
  0
VERTEX
  8
LAYER_1
 10
153.4639
 20
78.2664
  0
VERTEX
  8
LAYER_1
 10
153.4147
 20
78.2664
  0
VERTEX
  8
LAYER_1
 10
153.3655
 20
78.2664
  0
VERTEX
  8
LAYER_1
 10
153.3163
 20
78.2664
  0
VERTEX
  8
LAYER_1
 10
153.2178
 20
78.2664
  0
VERTEX
  8
LAYER_1
 10
153.1682
 20
78.2664
  0
SEQEND
  0
POLYLINE
  8
LAYER_1
 40
0.1552
 41
0.1552
 66
1
 10
0
 20
0
 30
0
  0
VERTEX
  8
LAYER_1
 10
152.8727
 20
78.2663
  0
VERTEX
  8
LAYER_1
 10
152.7742
 20
78.3155
  0
VERTEX
  8
LAYER_1
 10
152.5769
 20
78.3155
  0
VERTEX
  8
LAYER_1
 10
152.38
 20
78.3155
  0
VERTEX
  8
LAYER_1
 10
152.2319
 20
78.3155
  0
SEQEND
  0
POLYLINE
  8
LAYER_1
 40
0.1552
 41
0.1552
 66
1
 10
0
 20
0
 30
0
  0
VERTEX
  8
LAYER_1
 10
151.9363
 20
78.3649
  0
VERTEX
  8
LAYER_1
 10
151.6405
 20
78.3649
  0
VERTEX
  8
LAYER_1
 10
151.3944
 20
78.3649
  0
VERTEX
  8
LAYER_1
 10
151.2955
 20
78.4141
  0
SEQEND
  0
POLYLINE
  8
LAYER_1
 40
0.1552
 41
0.1552
 66
1
 10
0
 20
0
 30
0
  0
VERTEX
  8
LAYER_1
 10
150.9507
 20
78.4142
  0
VERTEX
  8
LAYER_1
 10
150.803
 20
78.4142
  0
VERTEX
  8
LAYER_1
 10
150.3099
 20
78.4634
  0
SEQEND
  0
POLYLINE
  8
LAYER_1
 40
0.1552
 41
0.1552
 66
1
 10
0
 20
0
 30
0
  0
VERTEX
  8
LAYER_1
 10
150.0143
 20
78.4635
  0
VERTEX
  8
LAYER_1
 10
149.5217
 20
78.5127
  0
VERTEX
  8
LAYER_1
 10
149.3736
 20
78.5127
  0
SEQEND
  0
POLYLINE
  8
LAYER_1
 40
0.1552
 41
0.1552
 66
1
 10
0
 20
0
 30
0
  0
VERTEX
  8
LAYER_1
 10
149.078
 20
78.5127
  0
VERTEX
  8
LAYER_1
 10
148.8314
 20
78.562
  0
VERTEX
  8
LAYER_1
 10
148.4372
 20
78.562
  0
SEQEND
  0
POLYLINE
  8
LAYER_1
 40
0.1552
 41
0.1552
 66
1
 10
0
 20
0
 30
0
  0
VERTEX
  8
LAYER_1
 10
148.1416
 20
78.6113
  0
VERTEX
  8
LAYER_1
 10
148.0924
 20
78.6113
  0
VERTEX
  8
LAYER_1
 10
147.5008
 20
78.6605
  0
SEQEND
  0
POLYLINE
  8
LAYER_1
 40
0.1552
 41
0.1552
 66
1
 10
0
 20
0
 30
0
  0
VERTEX
  8
LAYER_1
 10
147.156
 20
78.6606
  0
VERTEX
  8
LAYER_1
 10
146.6633
 20
78.7098
  0
VERTEX
  8
LAYER_1
 10
146.5152
 20
78.7098
  0
SEQEND
  0
POLYLINE
  8
LAYER_1
 40
0.1552
 41
0.1552
 66
1
 10
0
 20
0
 30
0
  0
VERTEX
  8
LAYER_1
 10
146.2196
 20
78.7098
  0
VERTEX
  8
LAYER_1
 10
145.9238
 20
78.7591
  0
VERTEX
  8
LAYER_1
 10
145.5788
 20
78.7591
  0
SEQEND
  0
POLYLINE
  8
LAYER_1
 40
0.1552
 41
0.1552
 66
1
 10
0
 20
0
 30
0
  0
VERTEX
  8
LAYER_1
 10
145.2832
 20
78.7592
  0
VERTEX
  8
LAYER_1
 10
145.234
 20
78.8084
  0
VERTEX
  8
LAYER_1
 10
144.6425
 20
78.8084
  0
SEQEND
  0
POLYLINE
  8
LAYER_1
 40
0.1552
 41
0.1552
 66
1
 10
0
 20
0
 30
0
  0
VERTEX
  8
LAYER_1
 10
144.2976
 20
78.8577
  0
VERTEX
  8
LAYER_1
 10
143.9034
 20
78.8577
  0
VERTEX
  8
LAYER_1
 10
143.7061
 20
78.9069
  0
SEQEND
  0
POLYLINE
  8
LAYER_1
 40
0.1552
 41
0.1552
 66
1
 10
0
 20
0
 30
0
  0
VERTEX
  8
LAYER_1
 10
143.3613
 20
78.907
  0
VERTEX
  8
LAYER_1
 10
143.2628
 20
78.907
  0
VERTEX
  8
LAYER_1
 10
143.0163
 20
78.907
  0
VERTEX
  8
LAYER_1
 10
142.7205
 20
78.9562
  0
SEQEND
  0
POLYLINE
  8
LAYER_1
 40
0.1552
 41
0.1552
 66
1
 10
0
 20
0
 30
0
  0
VERTEX
  8
LAYER_1
 10
142.4249
 20
78.9563
  0
VERTEX
  8
LAYER_1
 10
142.2276
 20
78.9563
  0
VERTEX
  8
LAYER_1
 10
142.0307
 20
79.0055
  0
VERTEX
  8
LAYER_1
 10
141.8334
 20
79.0055
  0
VERTEX
  8
LAYER_1
 10
141.7841
 20
79.0055
  0
SEQEND
  0
POLYLINE
  8
LAYER_1
 40
0.1552
 41
0.1552
 66
1
 10
0
 20
0
 30
0
  0
VERTEX
  8
LAYER_1
 10
141.4886
 20
79.0548
  0
VERTEX
  8
LAYER_1
 10
141.3409
 20
79.0548
  0
VERTEX
  8
LAYER_1
 10
141.1928
 20
79.0548
  0
VERTEX
  8
LAYER_1
 10
141.1436
 20
79.0548
  0
VERTEX
  8
LAYER_1
 10
141.0451
 20
79.0548
  0
VERTEX
  8
LAYER_1
 10
140.9959
 20
79.0548
  0
SEQEND
  0
POLYLINE
  8
LAYER_1
 40
0.1552
 41
0.1552
 66
1
 10
0
 20
0
 30
0
  0
VERTEX
  8
LAYER_1
 10
136.9546
 20
91.2274
  0
VERTEX
  8
LAYER_1
 10
137.7923
 20
91.2274
  0
SEQEND
  0
POLYLINE
  8
LAYER_1
 40
0.1552
 41
0.1552
 66
1
 10
0
 20
0
 30
0
  0
VERTEX
  8
LAYER_1
 10
143.7555
 20
75.063
  0
VERTEX
  8
LAYER_1
 10
144.7413
 20
75.063
  0
SEQEND
  0
POLYLINE
  8
LAYER_1
 40
0.1552
 41
0.1552
 66
1
 10
0
 20
0
 30
0
  0
VERTEX
  8
LAYER_1
 10
169.0864
 20
75.063
  0
VERTEX
  8
LAYER_1
 10
170.3183
 20
75.063
  0
SEQEND
  0
POLYLINE
  8
LAYER_1
 40
0.1552
 41
0.1552
 66
1
 10
0
 20
0
 30
0
  0
VERTEX
  8
LAYER_1
 10
175.9365
 20
75.063
  0
VERTEX
  8
LAYER_1
 10
177.415
 20
94.0364
  0
VERTEX
  8
LAYER_1
 10
177.415
 20
94.1349
  0
VERTEX
  8
LAYER_1
 10
177.4642
 20
94.1845
  0
VERTEX
  8
LAYER_1
 10
177.5134
 20
94.2337
  0
VERTEX
  8
LAYER_1
 10
177.6123
 20
94.2337
  0
SEQEND
  0
POLYLINE
  8
LAYER_1
 40
0.1552
 41
0.1552
 66
1
 10
0
 20
0
 30
0
  0
VERTEX
  8
LAYER_1
 10
168.9878
 20
76.1472
  0
VERTEX
  8
LAYER_1
 10
169.037
 20
75.753
  0
SEQEND
  0
POLYLINE
  8
LAYER_1
 40
0.1552
 41
0.1552
 66
1
 10
0
 20
0
 30
0
  0
VERTEX
  8
LAYER_1
 10
169.0864
 20
75.4573
  0
VERTEX
  8
LAYER_1
 10
169.0864
 20
75.063
  0
SEQEND
  0
POLYLINE
  8
LAYER_1
 40
0.1552
 41
0.1552
 66
1
 10
0
 20
0
 30
0
  0
VERTEX
  8
LAYER_1
 10
178.7456
 20
95.2193
  0
VERTEX
  8
LAYER_1
 10
178.7456
 20
94.2335
  0
SEQEND
  0
POLYLINE
  8
LAYER_1
 40
0.1552
 41
0.1552
 66
1
 10
0
 20
0
 30
0
  0
VERTEX
  8
LAYER_1
 10
182.2446
 20
95.2193
  0
VERTEX
  8
LAYER_1
 10
182.2446
 20
94.2335
  0
VERTEX
  8
LAYER_1
 10
184.2654
 20
94.2335
  0
SEQEND
  0
POLYLINE
  8
LAYER_1
 40
0.1552
 41
0.1552
 66
1
 10
0
 20
0
 30
0
  0
VERTEX
  8
LAYER_1
 10
178.7456
 20
94.2336
  0
VERTEX
  8
LAYER_1
 10
177.6122
 20
94.2336
  0
SEQEND
  0
POLYLINE
  8
LAYER_1
 40
0.1552
 41
0.1552
 66
1
 10
0
 20
0
 30
0
  0
VERTEX
  8
LAYER_1
 10
177.1686
 20
90.981
  0
VERTEX
  8
LAYER_1
 10
177.1686
 20
91.0303
  0
VERTEX
  8
LAYER_1
 10
177.2178
 20
91.1287
  0
VERTEX
  8
LAYER_1
 10
177.2178
 20
91.2276
  0
VERTEX
  8
LAYER_1
 10
177.267
 20
91.2768
  0
VERTEX
  8
LAYER_1
 10
177.3162
 20
91.326
  0
VERTEX
  8
LAYER_1
 10
177.4151
 20
91.3753
  0
VERTEX
  8
LAYER_1
 10
177.4644
 20
91.4245
  0
VERTEX
  8
LAYER_1
 10
177.5628
 20
91.4245
  0
VERTEX
  8
LAYER_1
 10
177.6612
 20
91.4245
  0
VERTEX
  8
LAYER_1
 10
177.7105
 20
91.4245
  0
VERTEX
  8
LAYER_1
 10
177.7601
 20
91.4245
  0
VERTEX
  8
LAYER_1
 10
177.9078
 20
91.4245
  0
VERTEX
  8
LAYER_1
 10
178.2528
 20
91.4245
  0
VERTEX
  8
LAYER_1
 10
178.4501
 20
91.4245
  0
VERTEX
  8
LAYER_1
 10
178.5978
 20
91.4245
  0
VERTEX
  8
LAYER_1
 10
178.6962
 20
91.4245
  0
VERTEX
  8
LAYER_1
 10
178.7455
 20
91.4245
  0
VERTEX
  8
LAYER_1
 10
178.7951
 20
91.4245
  0
VERTEX
  8
LAYER_1
 10
178.8936
 20
91.4245
  0
VERTEX
  8
LAYER_1
 10
178.9428
 20
91.326
  0
VERTEX
  8
LAYER_1
 10
179.0412
 20
91.2768
  0
VERTEX
  8
LAYER_1
 10
179.0904
 20
91.2276
  0
VERTEX
  8
LAYER_1
 10
179.1397
 20
91.2276
  0
VERTEX
  8
LAYER_1
 10
179.1893
 20
91.2276
  0
VERTEX
  8
LAYER_1
 10
179.2386
 20
91.2276
  0
VERTEX
  8
LAYER_1
 10
179.3862
 20
91.2276
  0
VERTEX
  8
LAYER_1
 10
179.6328
 20
91.2276
  0
VERTEX
  8
LAYER_1
 10
179.7312
 20
91.2276
  0
VERTEX
  8
LAYER_1
 10
179.8297
 20
91.2276
  0
VERTEX
  8
LAYER_1
 10
179.9285
 20
91.2276
  0
VERTEX
  8
LAYER_1
 10
179.9778
 20
91.2768
  0
VERTEX
  8
LAYER_1
 10
180.027
 20
91.2768
  0
VERTEX
  8
LAYER_1
 10
180.0762
 20
91.326
  0
VERTEX
  8
LAYER_1
 10
180.1254
 20
91.3753
  0
VERTEX
  8
LAYER_1
 10
180.1254
 20
91.4245
  0
VERTEX
  8
LAYER_1
 10
180.1254
 20
91.4737
  0
VERTEX
  8
LAYER_1
 10
180.1254
 20
91.5234
  0
VERTEX
  8
LAYER_1
 10
180.1747
 20
91.671
  0
VERTEX
  8
LAYER_1
 10
180.1747
 20
91.8187
  0
VERTEX
  8
LAYER_1
 10
180.2239
 20
91.9668
  0
VERTEX
  8
LAYER_1
 10
180.2239
 20
92.1637
  0
VERTEX
  8
LAYER_1
 10
180.3228
 20
92.6076
  0
VERTEX
  8
LAYER_1
 10
180.4212
 20
93.1002
  0
VERTEX
  8
LAYER_1
 10
180.4704
 20
93.5437
  0
VERTEX
  8
LAYER_1
 10
180.5197
 20
93.741
  0
VERTEX
  8
LAYER_1
 10
180.5197
 20
93.8887
  0
VERTEX
  8
LAYER_1
 10
180.5689
 20
94.0363
  0
VERTEX
  8
LAYER_1
 10
180.5689
 20
94.1352
  0
VERTEX
  8
LAYER_1
 10
180.5689
 20
94.2337
  0
SEQEND
  0
POLYLINE
  8
LAYER_1
 40
0.1552
 41
0.1552
 66
1
 10
0
 20
0
 30
0
  0
VERTEX
  8
LAYER_1
 10
179.1399
 20
91.2274
  0
VERTEX
  8
LAYER_1
 10
177.2673
 20
91.2274
  0
SEQEND
  0
POLYLINE
  8
LAYER_1
 40
0.1552
 41
0.1552
 66
1
 10
0
 20
0
 30
0
 70
1
  0
VERTEX
  8
LAYER_1
 10
182.2446
 20
95.2194
  0
VERTEX
  8
LAYER_1
 10
178.7454
 20
95.2194
  0
VERTEX
  8
LAYER_1
 10
178.7454
 20
94.2336
  0
VERTEX
  8
LAYER_1
 10
182.2446
 20
94.2336
  0
SEQEND
  0
POLYLINE
  8
LAYER_1
 40
0.1552
 41
0.1552
 66
1
 10
0
 20
0
 30
0
  0
VERTEX
  8
LAYER_1
 10
169.0864
 20
75.063
  0
VERTEX
  8
LAYER_1
 10
144.7411
 20
75.063
  0
SEQEND
  0
POLYLINE
  8
LAYER_1
 40
0.1552
 41
0.1552
 66
1
 10
0
 20
0
 30
0
  0
VERTEX
  8
LAYER_1
 10
59.7937
 20
94.2336
  0
VERTEX
  8
LAYER_1
 10
60.2864
 20
94.2336
  0
SEQEND
  0
POLYLINE
  8
LAYER_1
 40
0.1552
 41
0.1552
 66
1
 10
0
 20
0
 30
0
  0
VERTEX
  8
LAYER_1
 10
60.2866
 20
95.2193
  0
VERTEX
  8
LAYER_1
 10
60.2866
 20
117.6919
  0
VERTEX
  8
LAYER_1
 10
108.8289
 20
117.6919
  0
VERTEX
  8
LAYER_1
 10
108.8289
 20
95.2193
  0
SEQEND
  0
POLYLINE
  8
LAYER_1
 40
0.1552
 41
0.1552
 66
1
 10
0
 20
0
 30
0
  0
VERTEX
  8
LAYER_1
 10
59.7937
 20
117.6918
  0
VERTEX
  8
LAYER_1
 10
59.7937
 20
95.1207
  0
SEQEND
  0
POLYLINE
  8
LAYER_1
 40
0.1552
 41
0.1552
 66
1
 10
0
 20
0
 30
0
  0
VERTEX
  8
LAYER_1
 10
109.3219
 20
95.2193
  0
VERTEX
  8
LAYER_1
 10
109.3219
 20
117.6919
  0
SEQEND
  0
POLYLINE
  8
LAYER_1
 40
0.1552
 41
0.1552
 66
1
 10
0
 20
0
 30
0
  0
VERTEX
  8
LAYER_1
 10
59.7937
 20
94.2336
  0
SEQEND
  0
POLYLINE
  8
LAYER_1
 40
0.1552
 41
0.1552
 66
1
 10
0
 20
0
 30
0
  0
VERTEX
  8
LAYER_1
 10
60.4344
 20
94.2336
  0
VERTEX
  8
LAYER_1
 10
60.3852
 20
94.2336
  0
VERTEX
  8
LAYER_1
 10
60.336
 20
94.2336
  0
VERTEX
  8
LAYER_1
 10
60.2867
 20
94.2336
  0
VERTEX
  8
LAYER_1
 10
60.2371
 20
94.2336
  0
VERTEX
  8
LAYER_1
 10
60.0894
 20
94.2336
  0
VERTEX
  8
LAYER_1
 10
59.9417
 20
94.2336
  0
VERTEX
  8
LAYER_1
 10
59.8429
 20
94.2336
  0
VERTEX
  8
LAYER_1
 10
59.7936
 20
94.2336
  0
VERTEX
  8
LAYER_1
 10
59.7444
 20
94.2336
  0
VERTEX
  8
LAYER_1
 10
59.6952
 20
94.2336
  0
VERTEX
  8
LAYER_1
 10
59.6952
 20
94.2828
  0
VERTEX
  8
LAYER_1
 10
59.646
 20
94.3321
  0
VERTEX
  8
LAYER_1
 10
59.646
 20
94.3813
  0
VERTEX
  8
LAYER_1
 10
59.646
 20
94.4802
  0
VERTEX
  8
LAYER_1
 10
59.646
 20
94.5294
  0
VERTEX
  8
LAYER_1
 10
59.646
 20
94.5786
  0
VERTEX
  8
LAYER_1
 10
59.646
 20
94.6278
  0
VERTEX
  8
LAYER_1
 10
59.6952
 20
94.8252
  0
VERTEX
  8
LAYER_1
 10
59.7444
 20
94.9728
  0
VERTEX
  8
LAYER_1
 10
59.7444
 20
95.0221
  0
VERTEX
  8
LAYER_1
 10
59.7444
 20
95.0713
  0
VERTEX
  8
LAYER_1
 10
59.7936
 20
95.1205
  0
VERTEX
  8
LAYER_1
 10
59.8429
 20
95.1702
  0
VERTEX
  8
LAYER_1
 10
59.8429
 20
95.2194
  0
VERTEX
  8
LAYER_1
 10
59.8925
 20
95.2194
  0
VERTEX
  8
LAYER_1
 10
59.9417
 20
95.2194
  0
VERTEX
  8
LAYER_1
 10
59.991
 20
95.2194
  0
VERTEX
  8
LAYER_1
 10
60.0402
 20
95.2194
  0
VERTEX
  8
LAYER_1
 10
60.1386
 20
95.2194
  0
VERTEX
  8
LAYER_1
 10
60.2371
 20
95.2194
  0
VERTEX
  8
LAYER_1
 10
60.336
 20
95.2194
  0
VERTEX
  8
LAYER_1
 10
60.4836
 20
95.2194
  0
VERTEX
  8
LAYER_1
 10
60.5821
 20
95.2194
  0
VERTEX
  8
LAYER_1
 10
60.7794
 20
95.2194
  0
VERTEX
  8
LAYER_1
 10
60.9271
 20
95.2194
  0
VERTEX
  8
LAYER_1
 10
61.1244
 20
95.2194
  0
VERTEX
  8
LAYER_1
 10
61.3213
 20
95.2194
  0
VERTEX
  8
LAYER_1
 10
61.5678
 20
95.2194
  0
VERTEX
  8
LAYER_1
 10
61.8144
 20
95.2194
  0
VERTEX
  8
LAYER_1
 10
62.0605
 20
95.2194
  0
VERTEX
  8
LAYER_1
 10
62.6028
 20
95.2194
  0
VERTEX
  8
LAYER_1
 10
63.1447
 20
95.2194
  0
VERTEX
  8
LAYER_1
 10
63.7855
 20
95.2194
  0
VERTEX
  8
LAYER_1
 10
64.4755
 20
95.2194
  0
VERTEX
  8
LAYER_1
 10
65.1655
 20
95.2194
  0
VERTEX
  8
LAYER_1
 10
65.9047
 20
95.2194
  0
VERTEX
  8
LAYER_1
 10
66.6931
 20
95.2194
  0
VERTEX
  8
LAYER_1
 10
67.4815
 20
95.2194
  0
VERTEX
  8
LAYER_1
 10
68.2704
 20
95.2194
  0
VERTEX
  8
LAYER_1
 10
69.1081
 20
95.2194
  0
VERTEX
  8
LAYER_1
 10
69.9457
 20
95.2194
  0
VERTEX
  8
LAYER_1
 10
73.3957
 20
95.2194
  0
VERTEX
  8
LAYER_1
 10
75.1202
 20
95.2194
  0
VERTEX
  8
LAYER_1
 10
75.9583
 20
95.2194
  0
VERTEX
  8
LAYER_1
 10
76.7467
 20
95.2194
  0
VERTEX
  8
LAYER_1
 10
77.5844
 20
95.2194
  0
VERTEX
  8
LAYER_1
 10
78.3236
 20
95.2194
  0
VERTEX
  8
LAYER_1
 10
79.1121
 20
95.2194
  0
VERTEX
  8
LAYER_1
 10
79.802
 20
95.2194
  0
VERTEX
  8
LAYER_1
 10
80.492
 20
95.2194
  0
VERTEX
  8
LAYER_1
 10
81.1328
 20
95.2194
  0
VERTEX
  8
LAYER_1
 10
81.7243
 20
95.2194
  0
VERTEX
  8
LAYER_1
 10
82.2662
 20
95.2194
  0
VERTEX
  8
LAYER_1
 10
82.562
 20
95.2194
  0
VERTEX
  8
LAYER_1
 10
82.7589
 20
95.2194
  0
VERTEX
  8
LAYER_1
 10
83.0054
 20
95.2194
  0
VERTEX
  8
LAYER_1
 10
83.252
 20
95.2194
  0
VERTEX
  8
LAYER_1
 10
83.4489
 20
95.2194
  0
VERTEX
  8
LAYER_1
 10
83.597
 20
95.2194
  0
VERTEX
  8
LAYER_1
 10
83.7939
 20
95.2194
  0
VERTEX
  8
LAYER_1
 10
83.942
 20
95.2194
  0
VERTEX
  8
LAYER_1
 10
84.0897
 20
95.2194
  0
VERTEX
  8
LAYER_1
 10
84.1881
 20
95.2194
  0
VERTEX
  8
LAYER_1
 10
84.287
 20
95.2194
  0
VERTEX
  8
LAYER_1
 10
84.3854
 20
95.2194
  0
VERTEX
  8
LAYER_1
 10
84.4839
 20
95.2194
  0
VERTEX
  8
LAYER_1
 10
84.5331
 20
95.2194
  0
VERTEX
  8
LAYER_1
 10
84.5823
 20
95.2194
  0
VERTEX
  8
LAYER_1
 10
84.632
 20
95.2194
  0
VERTEX
  8
LAYER_1
 10
84.7304
 20
95.2194
  0
VERTEX
  8
LAYER_1
 10
84.7796
 20
95.2194
  0
VERTEX
  8
LAYER_1
 10
84.8781
 20
95.2194
  0
VERTEX
  8
LAYER_1
 10
85.0262
 20
95.2194
  0
VERTEX
  8
LAYER_1
 10
85.1739
 20
95.2194
  0
VERTEX
  8
LAYER_1
 10
85.3215
 20
95.2194
  0
VERTEX
  8
LAYER_1
 10
85.4696
 20
95.2194
  0
VERTEX
  8
LAYER_1
 10
85.6665
 20
95.2194
  0
VERTEX
  8
LAYER_1
 10
85.8638
 20
95.2194
  0
VERTEX
  8
LAYER_1
 10
86.1104
 20
95.2194
  0
VERTEX
  8
LAYER_1
 10
86.3073
 20
95.2194
  0
VERTEX
  8
LAYER_1
 10
86.5538
 20
95.2194
  0
VERTEX
  8
LAYER_1
 10
86.8496
 20
95.2194
  0
VERTEX
  8
LAYER_1
 10
87.3915
 20
95.2194
  0
VERTEX
  8
LAYER_1
 10
87.983
 20
95.2194
  0
VERTEX
  8
LAYER_1
 10
88.6238
 20
95.2194
  0
VERTEX
  8
LAYER_1
 10
89.3134
 20
95.2194
  0
VERTEX
  8
LAYER_1
 10
90.0526
 20
95.2194
  0
VERTEX
  8
LAYER_1
 10
90.7918
 20
95.2194
  0
VERTEX
  8
LAYER_1
 10
91.5807
 20
95.2194
  0
VERTEX
  8
LAYER_1
 10
92.3691
 20
95.2194
  0
VERTEX
  8
LAYER_1
 10
93.2068
 20
95.2194
  0
VERTEX
  8
LAYER_1
 10
94.0444
 20
95.2194
  0
VERTEX
  8
LAYER_1
 10
95.7694
 20
95.2194
  0
VERTEX
  8
LAYER_1
 10
99.2193
 20
95.2194
  0
VERTEX
  8
LAYER_1
 10
100.057
 20
95.2194
  0
VERTEX
  8
LAYER_1
 10
100.8947
 20
95.2194
  0
VERTEX
  8
LAYER_1
 10
101.6831
 20
95.2194
  0
VERTEX
  8
LAYER_1
 10
102.5212
 20
95.2194
  0
VERTEX
  8
LAYER_1
 10
103.2604
 20
95.2194
  0
VERTEX
  8
LAYER_1
 10
103.9996
 20
95.2194
  0
VERTEX
  8
LAYER_1
 10
104.7388
 20
95.2194
  0
VERTEX
  8
LAYER_1
 10
105.3796
 20
95.2194
  0
VERTEX
  8
LAYER_1
 10
106.0199
 20
95.2194
  0
VERTEX
  8
LAYER_1
 10
106.6115
 20
95.2194
  0
VERTEX
  8
LAYER_1
 10
107.1534
 20
95.2194
  0
VERTEX
  8
LAYER_1
 10
107.3999
 20
95.2194
  0
VERTEX
  8
LAYER_1
 10
107.6465
 20
95.2194
  0
VERTEX
  8
LAYER_1
 10
107.8433
 20
95.2194
  0
VERTEX
  8
LAYER_1
 10
108.0407
 20
95.2194
  0
VERTEX
  8
LAYER_1
 10
108.2376
 20
95.2194
  0
VERTEX
  8
LAYER_1
 10
108.4349
 20
95.2194
  0
VERTEX
  8
LAYER_1
 10
108.5826
 20
95.2194
  0
VERTEX
  8
LAYER_1
 10
108.7307
 20
95.2194
  0
VERTEX
  8
LAYER_1
 10
108.8783
 20
95.2194
  0
VERTEX
  8
LAYER_1
 10
108.9768
 20
95.2194
  0
VERTEX
  8
LAYER_1
 10
109.0757
 20
95.2194
  0
VERTEX
  8
LAYER_1
 10
109.1249
 20
95.2194
  0
VERTEX
  8
LAYER_1
 10
109.1741
 20
95.2194
  0
VERTEX
  8
LAYER_1
 10
109.2233
 20
95.2194
  0
VERTEX
  8
LAYER_1
 10
109.2725
 20
95.2194
  0
VERTEX
  8
LAYER_1
 10
109.3218
 20
95.2194
  0
VERTEX
  8
LAYER_1
 10
109.3714
 20
95.1702
  0
VERTEX
  8
LAYER_1
 10
109.4207
 20
95.1205
  0
VERTEX
  8
LAYER_1
 10
109.4207
 20
95.0713
  0
VERTEX
  8
LAYER_1
 10
109.4699
 20
95.0713
  0
VERTEX
  8
LAYER_1
 10
109.4699
 20
95.0221
  0
VERTEX
  8
LAYER_1
 10
109.4699
 20
94.9728
  0
VERTEX
  8
LAYER_1
 10
109.4699
 20
94.8252
  0
VERTEX
  8
LAYER_1
 10
109.5191
 20
94.6278
  0
VERTEX
  8
LAYER_1
 10
109.5191
 20
94.5786
  0
VERTEX
  8
LAYER_1
 10
109.5683
 20
94.5294
  0
VERTEX
  8
LAYER_1
 10
109.5683
 20
94.4802
  0
VERTEX
  8
LAYER_1
 10
109.5683
 20
94.431
  0
VERTEX
  8
LAYER_1
 10
109.5683
 20
94.3813
  0
VERTEX
  8
LAYER_1
 10
109.5683
 20
94.3321
  0
VERTEX
  8
LAYER_1
 10
109.5191
 20
94.2828
  0
VERTEX
  8
LAYER_1
 10
109.4699
 20
94.2336
  0
VERTEX
  8
LAYER_1
 10
109.4207
 20
94.2336
  0
VERTEX
  8
LAYER_1
 10
109.3714
 20
94.2336
  0
VERTEX
  8
LAYER_1
 10
109.3218
 20
94.2336
  0
VERTEX
  8
LAYER_1
 10
109.2725
 20
94.2336
  0
VERTEX
  8
LAYER_1
 10
109.1249
 20
94.2336
  0
VERTEX
  8
LAYER_1
 10
108.9768
 20
94.2336
  0
VERTEX
  8
LAYER_1
 10
108.8783
 20
94.2336
  0
VERTEX
  8
LAYER_1
 10
108.8291
 20
94.2336
  0
VERTEX
  8
LAYER_1
 10
108.7799
 20
94.2336
  0
SEQEND
  0
POLYLINE
  8
LAYER_1
 40
0.1552
 41
0.1552
 66
1
 10
0
 20
0
 30
0
 70
1
  0
VERTEX
  8
LAYER_1
 10
59.7937
 20
90.2418
  0
VERTEX
  8
LAYER_1
 10
109.3218
 20
90.2418
  0
VERTEX
  8
LAYER_1
 10
109.3218
 20
94.2336
  0
VERTEX
  8
LAYER_1
 10
59.7937
 20
94.2336
  0
SEQEND
  0
POLYLINE
  8
LAYER_1
 40
0.1552
 41
0.1552
 66
1
 10
0
 20
0
 30
0
  0
VERTEX
  8
LAYER_1
 10
60.2866
 20
90.2418
  0
VERTEX
  8
LAYER_1
 10
60.2866
 20
90.1926
  0
VERTEX
  8
LAYER_1
 10
60.3358
 20
90.1926
  0
VERTEX
  8
LAYER_1
 10
60.385
 20
90.1434
  0
VERTEX
  8
LAYER_1
 10
60.4342
 20
90.0445
  0
VERTEX
  8
LAYER_1
 10
60.5331
 20
89.9953
  0
VERTEX
  8
LAYER_1
 10
60.6316
 20
89.8968
  0
VERTEX
  8
LAYER_1
 10
60.7792
 20
89.7492
  0
VERTEX
  8
LAYER_1
 10
60.9273
 20
89.6503
  0
VERTEX
  8
LAYER_1
 10
61.075
 20
89.5026
  0
VERTEX
  8
LAYER_1
 10
61.2231
 20
89.3549
  0
VERTEX
  8
LAYER_1
 10
61.5681
 20
89.0592
  0
VERTEX
  8
LAYER_1
 10
61.9127
 20
88.7142
  0
VERTEX
  8
LAYER_1
 10
62.3073
 20
88.3692
  0
VERTEX
  8
LAYER_1
 10
62.6523
 20
88.0242
  0
VERTEX
  8
LAYER_1
 10
63.0465
 20
87.6792
  0
VERTEX
  8
LAYER_1
 10
63.3419
 20
87.3834
  0
VERTEX
  8
LAYER_1
 10
63.5392
 20
87.2357
  0
VERTEX
  8
LAYER_1
 10
63.6869
 20
87.0876
  0
VERTEX
  8
LAYER_1
 10
63.7857
 20
86.9892
  0
VERTEX
  8
LAYER_1
 10
63.9334
 20
86.8908
  0
VERTEX
  8
LAYER_1
 10
64.0319
 20
86.7923
  0
VERTEX
  8
LAYER_1
 10
64.1307
 20
86.6934
  0
VERTEX
  8
LAYER_1
 10
64.18
 20
86.6442
  0
VERTEX
  8
LAYER_1
 10
64.2292
 20
86.595
  0
VERTEX
  8
LAYER_1
 10
64.2784
 20
86.5458
  0
VERTEX
  8
LAYER_1
 10
64.4261
 20
86.3976
  0
VERTEX
  8
LAYER_1
 10
64.6234
 20
86.3484
  0
VERTEX
  8
LAYER_1
 10
64.7711
 20
86.2992
  0
VERTEX
  8
LAYER_1
 10
64.9684
 20
86.25
  0
SEQEND
  0
POLYLINE
  8
LAYER_1
 40
0.1552
 41
0.1552
 66
1
 10
0
 20
0
 30
0
  0
VERTEX
  8
LAYER_1
 10
104.2459
 20
86.25
  0
VERTEX
  8
LAYER_1
 10
104.3936
 20
86.2992
  0
VERTEX
  8
LAYER_1
 10
104.5417
 20
86.3484
  0
VERTEX
  8
LAYER_1
 10
104.6894
 20
86.4473
  0
VERTEX
  8
LAYER_1
 10
104.7878
 20
86.5458
  0
VERTEX
  8
LAYER_1
 10
104.8375
 20
86.5458
  0
VERTEX
  8
LAYER_1
 10
104.8375
 20
86.595
  0
VERTEX
  8
LAYER_1
 10
104.8867
 20
86.6442
  0
VERTEX
  8
LAYER_1
 10
104.9852
 20
86.6934
  0
VERTEX
  8
LAYER_1
 10
105.0836
 20
86.7923
  0
VERTEX
  8
LAYER_1
 10
105.1825
 20
86.8908
  0
VERTEX
  8
LAYER_1
 10
105.2809
 20
86.9892
  0
VERTEX
  8
LAYER_1
 10
105.4286
 20
87.0876
  0
VERTEX
  8
LAYER_1
 10
105.5767
 20
87.2357
  0
VERTEX
  8
LAYER_1
 10
105.7244
 20
87.3834
  0
VERTEX
  8
LAYER_1
 10
106.0694
 20
87.6792
  0
VERTEX
  8
LAYER_1
 10
106.4636
 20
88.0242
  0
VERTEX
  8
LAYER_1
 10
106.8086
 20
88.3692
  0
VERTEX
  8
LAYER_1
 10
107.2028
 20
88.7142
  0
VERTEX
  8
LAYER_1
 10
107.5478
 20
89.0592
  0
VERTEX
  8
LAYER_1
 10
107.8928
 20
89.3549
  0
VERTEX
  8
LAYER_1
 10
108.0405
 20
89.5026
  0
VERTEX
  8
LAYER_1
 10
108.1886
 20
89.6503
  0
VERTEX
  8
LAYER_1
 10
108.3362
 20
89.7492
  0
VERTEX
  8
LAYER_1
 10
108.4351
 20
89.8968
  0
VERTEX
  8
LAYER_1
 10
108.5828
 20
89.9953
  0
VERTEX
  8
LAYER_1
 10
108.632
 20
90.0445
  0
VERTEX
  8
LAYER_1
 10
108.7304
 20
90.1434
  0
VERTEX
  8
LAYER_1
 10
108.7797
 20
90.1926
  0
VERTEX
  8
LAYER_1
 10
108.8293
 20
90.1926
  0
VERTEX
  8
LAYER_1
 10
108.8293
 20
90.2418
  0
SEQEND
  0
POLYLINE
  8
LAYER_1
 40
0.1552
 41
0.1552
 66
1
 10
0
 20
0
 30
0
  0
VERTEX
  8
LAYER_1
 10
135.0327
 20
94.1843
  0
VERTEX
  8
LAYER_1
 10
184.4624
 20
94.1843
  0
SEQEND
  0
POLYLINE
  8
LAYER_1
 40
0.1552
 41
0.1552
 66
1
 10
0
 20
0
 30
0
  0
VERTEX
  8
LAYER_1
 10
135.3283
 20
94.1843
  0
VERTEX
  8
LAYER_1
 10
159.5259
 20
94.1843
  0
VERTEX
  8
LAYER_1
 10
183.723
 20
94.1843
  0
SEQEND
  0
POLYLINE
  8
LAYER_1
 40
0.1552
 41
0.1552
 66
1
 10
0
 20
0
 30
0
 70
1
  0
VERTEX
  8
LAYER_1
 10
188.4541
 20
118.1846
  0
VERTEX
  8
LAYER_1
 10
184.4623
 20
118.1846
  0
VERTEX
  8
LAYER_1
 10
184.4623
 20
94.1844
  0
VERTEX
  8
LAYER_1
 10
188.4541
 20
94.1844
  0
SEQEND
  0
POLYLINE
  8
LAYER_1
 40
0.1552
 41
0.1552
 66
1
 10
0
 20
0
 30
0
 70
1
  0
VERTEX
  8
LAYER_1
 10
134.5399
 20
94.1844
  0
VERTEX
  8
LAYER_1
 10
188.4541
 20
94.1844
  0
VERTEX
  8
LAYER_1
 10
188.4541
 20
90.1926
  0
VERTEX
  8
LAYER_1
 10
134.5399
 20
90.1926
  0
SEQEND
  0
POLYLINE
  8
LAYER_1
 40
0.1552
 41
0.1552
 66
1
 10
0
 20
0
 30
0
  0
VERTEX
  8
LAYER_1
 10
183.7231
 20
94.1843
  0
VERTEX
  8
LAYER_1
 10
183.7723
 20
94.1843
  0
VERTEX
  8
LAYER_1
 10
183.8215
 20
94.1843
  0
VERTEX
  8
LAYER_1
 10
183.8707
 20
94.1843
  0
VERTEX
  8
LAYER_1
 10
184.0681
 20
94.1843
  0
VERTEX
  8
LAYER_1
 10
184.2157
 20
94.1843
  0
VERTEX
  8
LAYER_1
 10
184.2649
 20
94.1843
  0
VERTEX
  8
LAYER_1
 10
184.3146
 20
94.1843
  0
VERTEX
  8
LAYER_1
 10
184.3638
 20
94.1843
  0
VERTEX
  8
LAYER_1
 10
184.413
 20
94.2336
  0
VERTEX
  8
LAYER_1
 10
184.4623
 20
94.2336
  0
VERTEX
  8
LAYER_1
 10
184.4623
 20
94.2828
  0
VERTEX
  8
LAYER_1
 10
184.5115
 20
94.3817
  0
VERTEX
  8
LAYER_1
 10
184.4623
 20
94.4309
  0
VERTEX
  8
LAYER_1
 10
184.4623
 20
94.4801
  0
VERTEX
  8
LAYER_1
 10
184.4623
 20
94.5293
  0
VERTEX
  8
LAYER_1
 10
184.4623
 20
94.6278
  0
VERTEX
  8
LAYER_1
 10
184.413
 20
94.7759
  0
VERTEX
  8
LAYER_1
 10
184.3638
 20
94.9236
  0
VERTEX
  8
LAYER_1
 10
184.3638
 20
94.9728
  0
VERTEX
  8
LAYER_1
 10
184.3638
 20
95.022
  0
VERTEX
  8
LAYER_1
 10
184.3638
 20
95.0712
  0
VERTEX
  8
LAYER_1
 10
184.3146
 20
95.1209
  0
VERTEX
  8
LAYER_1
 10
184.2649
 20
95.1701
  0
VERTEX
  8
LAYER_1
 10
184.2157
 20
95.1701
  0
VERTEX
  8
LAYER_1
 10
184.1665
 20
95.1701
  0
VERTEX
  8
LAYER_1
 10
184.1173
 20
95.1701
  0
VERTEX
  8
LAYER_1
 10
184.0681
 20
95.1701
  0
VERTEX
  8
LAYER_1
 10
183.9696
 20
95.1701
  0
VERTEX
  8
LAYER_1
 10
183.8707
 20
95.1701
  0
VERTEX
  8
LAYER_1
 10
183.7723
 20
95.1701
  0
VERTEX
  8
LAYER_1
 10
183.6738
 20
95.1701
  0
VERTEX
  8
LAYER_1
 10
183.5257
 20
95.1701
  0
VERTEX
  8
LAYER_1
 10
183.3288
 20
95.1701
  0
VERTEX
  8
LAYER_1
 10
183.1812
 20
95.1701
  0
VERTEX
  8
LAYER_1
 10
182.9838
 20
95.1701
  0
VERTEX
  8
LAYER_1
 10
182.7865
 20
95.1701
  0
VERTEX
  8
LAYER_1
 10
182.5404
 20
95.1701
  0
VERTEX
  8
LAYER_1
 10
182.2938
 20
95.1701
  0
VERTEX
  8
LAYER_1
 10
182.0473
 20
95.1701
  0
VERTEX
  8
LAYER_1
 10
181.5546
 20
95.1701
  0
VERTEX
  8
LAYER_1
 10
180.9631
 20
95.1701
  0
VERTEX
  8
LAYER_1
 10
180.3228
 20
95.1701
  0
VERTEX
  8
LAYER_1
 10
179.6328
 20
95.1701
  0
VERTEX
  8
LAYER_1
 10
178.9428
 20
95.1701
  0
VERTEX
  8
LAYER_1
 10
178.2036
 20
95.1701
  0
VERTEX
  8
LAYER_1
 10
177.4151
 20
95.1701
  0
VERTEX
  8
LAYER_1
 10
176.6263
 20
95.1701
  0
VERTEX
  8
LAYER_1
 10
175.8378
 20
95.1701
  0
VERTEX
  8
LAYER_1
 10
175.0002
 20
95.1701
  0
VERTEX
  8
LAYER_1
 10
174.1625
 20
95.1701
  0
VERTEX
  8
LAYER_1
 10
170.7126
 20
95.1701
  0
VERTEX
  8
LAYER_1
 10
168.9876
 20
95.1701
  0
VERTEX
  8
LAYER_1
 10
168.1499
 20
95.1701
  0
VERTEX
  8
LAYER_1
 10
167.3123
 20
95.1701
  0
VERTEX
  8
LAYER_1
 10
166.5238
 20
95.1701
  0
VERTEX
  8
LAYER_1
 10
165.7354
 20
95.1701
  0
VERTEX
  8
LAYER_1
 10
164.9962
 20
95.1701
  0
VERTEX
  8
LAYER_1
 10
164.2565
 20
95.1701
  0
VERTEX
  8
LAYER_1
 10
163.6162
 20
95.1701
  0
VERTEX
  8
LAYER_1
 10
162.9754
 20
95.1701
  0
VERTEX
  8
LAYER_1
 10
162.3347
 20
95.1701
  0
VERTEX
  8
LAYER_1
 10
161.7928
 20
95.1701
  0
VERTEX
  8
LAYER_1
 10
161.5462
 20
95.1701
  0
VERTEX
  8
LAYER_1
 10
161.2997
 20
95.1701
  0
VERTEX
  8
LAYER_1
 10
161.0536
 20
95.1701
  0
VERTEX
  8
LAYER_1
 10
160.8562
 20
95.1701
  0
VERTEX
  8
LAYER_1
 10
160.6594
 20
95.1701
  0
VERTEX
  8
LAYER_1
 10
160.462
 20
95.1701
  0
VERTEX
  8
LAYER_1
 10
160.2651
 20
95.1701
  0
VERTEX
  8
LAYER_1
 10
160.117
 20
95.1701
  0
VERTEX
  8
LAYER_1
 10
160.0186
 20
95.1701
  0
VERTEX
  8
LAYER_1
 10
159.8705
 20
95.1701
  0
VERTEX
  8
LAYER_1
 10
159.772
 20
95.1701
  0
VERTEX
  8
LAYER_1
 10
159.6736
 20
95.1701
  0
VERTEX
  8
LAYER_1
 10
159.6244
 20
95.1701
  0
VERTEX
  8
LAYER_1
 10
159.5752
 20
95.1701
  0
VERTEX
  8
LAYER_1
 10
159.5255
 20
95.1701
  0
VERTEX
  8
LAYER_1
 10
159.4763
 20
95.1701
  0
VERTEX
  8
LAYER_1
 10
159.427
 20
95.1701
  0
VERTEX
  8
LAYER_1
 10
159.3778
 20
95.1701
  0
VERTEX
  8
LAYER_1
 10
159.2794
 20
95.1701
  0
VERTEX
  8
LAYER_1
 10
159.1809
 20
95.1701
  0
VERTEX
  8
LAYER_1
 10
159.0328
 20
95.1701
  0
VERTEX
  8
LAYER_1
 10
158.9344
 20
95.1701
  0
VERTEX
  8
LAYER_1
 10
158.737
 20
95.1701
  0
VERTEX
  8
LAYER_1
 10
158.5894
 20
95.1701
  0
VERTEX
  8
LAYER_1
 10
158.3921
 20
95.1701
  0
VERTEX
  8
LAYER_1
 10
158.1952
 20
95.1701
  0
VERTEX
  8
LAYER_1
 10
157.9978
 20
95.1701
  0
VERTEX
  8
LAYER_1
 10
157.7517
 20
95.1701
  0
VERTEX
  8
LAYER_1
 10
157.5052
 20
95.1701
  0
VERTEX
  8
LAYER_1
 10
157.2586
 20
95.1701
  0
VERTEX
  8
LAYER_1
 10
156.7167
 20
95.1701
  0
VERTEX
  8
LAYER_1
 10
156.076
 20
95.1701
  0
VERTEX
  8
LAYER_1
 10
155.4352
 20
95.1701
  0
VERTEX
  8
LAYER_1
 10
154.7944
 20
95.1701
  0
VERTEX
  8
LAYER_1
 10
154.0552
 20
95.1701
  0
VERTEX
  8
LAYER_1
 10
153.316
 20
95.1701
  0
VERTEX
  8
LAYER_1
 10
152.5276
 20
95.1701
  0
VERTEX
  8
LAYER_1
 10
151.7391
 20
95.1701
  0
VERTEX
  8
LAYER_1
 10
150.9015
 20
95.1701
  0
VERTEX
  8
LAYER_1
 10
150.0634
 20
95.1701
  0
VERTEX
  8
LAYER_1
 10
148.3388
 20
95.1701
  0
VERTEX
  8
LAYER_1
 10
144.8889
 20
95.1701
  0
VERTEX
  8
LAYER_1
 10
144.0512
 20
95.1701
  0
VERTEX
  8
LAYER_1
 10
143.2136
 20
95.1701
  0
VERTEX
  8
LAYER_1
 10
142.4247
 20
95.1701
  0
VERTEX
  8
LAYER_1
 10
141.587
 20
95.1701
  0
VERTEX
  8
LAYER_1
 10
140.8478
 20
95.1701
  0
VERTEX
  8
LAYER_1
 10
140.1086
 20
95.1701
  0
VERTEX
  8
LAYER_1
 10
139.4186
 20
95.1701
  0
VERTEX
  8
LAYER_1
 10
138.7286
 20
95.1701
  0
VERTEX
  8
LAYER_1
 10
138.0883
 20
95.1701
  0
VERTEX
  8
LAYER_1
 10
137.4968
 20
95.1701
  0
VERTEX
  8
LAYER_1
 10
136.9544
 20
95.1701
  0
VERTEX
  8
LAYER_1
 10
136.7083
 20
95.1701
  0
VERTEX
  8
LAYER_1
 10
136.511
 20
95.1701
  0
VERTEX
  8
LAYER_1
 10
136.2645
 20
95.1701
  0
VERTEX
  8
LAYER_1
 10
136.0676
 20
95.1701
  0
VERTEX
  8
LAYER_1
 10
135.8702
 20
95.1701
  0
VERTEX
  8
LAYER_1
 10
135.6733
 20
95.1701
  0
VERTEX
  8
LAYER_1
 10
135.5252
 20
95.1701
  0
VERTEX
  8
LAYER_1
 10
135.3776
 20
95.1701
  0
VERTEX
  8
LAYER_1
 10
135.2791
 20
95.1701
  0
VERTEX
  8
LAYER_1
 10
135.131
 20
95.1701
  0
VERTEX
  8
LAYER_1
 10
135.0818
 20
95.1701
  0
VERTEX
  8
LAYER_1
 10
134.9834
 20
95.1701
  0
VERTEX
  8
LAYER_1
 10
134.9341
 20
95.1701
  0
VERTEX
  8
LAYER_1
 10
134.8849
 20
95.1701
  0
VERTEX
  8
LAYER_1
 10
134.8357
 20
95.1701
  0
VERTEX
  8
LAYER_1
 10
134.786
 20
95.1701
  0
VERTEX
  8
LAYER_1
 10
134.7368
 20
95.1209
  0
VERTEX
  8
LAYER_1
 10
134.6876
 20
95.0712
  0
VERTEX
  8
LAYER_1
 10
134.6876
 20
95.022
  0
VERTEX
  8
LAYER_1
 10
134.6876
 20
94.9728
  0
VERTEX
  8
LAYER_1
 10
134.6384
 20
94.9236
  0
VERTEX
  8
LAYER_1
 10
134.6384
 20
94.7759
  0
VERTEX
  8
LAYER_1
 10
134.5891
 20
94.6278
  0
VERTEX
  8
LAYER_1
 10
134.5891
 20
94.5293
  0
VERTEX
  8
LAYER_1
 10
134.5891
 20
94.4801
  0
VERTEX
  8
LAYER_1
 10
134.5399
 20
94.4309
  0
VERTEX
  8
LAYER_1
 10
134.5399
 20
94.3817
  0
VERTEX
  8
LAYER_1
 10
134.5399
 20
94.332
  0
VERTEX
  8
LAYER_1
 10
134.5891
 20
94.2828
  0
VERTEX
  8
LAYER_1
 10
134.6384
 20
94.2336
  0
VERTEX
  8
LAYER_1
 10
134.6384
 20
94.1843
  0
VERTEX
  8
LAYER_1
 10
134.7368
 20
94.1843
  0
VERTEX
  8
LAYER_1
 10
134.786
 20
94.1843
  0
VERTEX
  8
LAYER_1
 10
134.8357
 20
94.1843
  0
VERTEX
  8
LAYER_1
 10
134.9834
 20
94.1843
  0
VERTEX
  8
LAYER_1
 10
135.1807
 20
94.1843
  0
VERTEX
  8
LAYER_1
 10
135.2299
 20
94.1843
  0
VERTEX
  8
LAYER_1
 10
135.2791
 20
94.1843
  0
VERTEX
  8
LAYER_1
 10
135.3284
 20
94.1843
  0
SEQEND
  0
POLYLINE
  8
LAYER_1
 40
0.1552
 41
0.1552
 66
1
 10
0
 20
0
 30
0
 70
1
  0
VERTEX
  8
LAYER_1
 10
187.9614
 20
90.1926
  0
VERTEX
  8
LAYER_1
 10
188.4541
 20
90.1926
  0
VERTEX
  8
LAYER_1
 10
188.4541
 20
86.2499
  0
VERTEX
  8
LAYER_1
 10
187.9614
 20
86.2499
  0
SEQEND
  0
POLYLINE
  8
LAYER_1
 40
0.1552
 41
0.1552
 66
1
 10
0
 20
0
 30
0
  0
VERTEX
  8
LAYER_1
 10
188.4541
 20
86.25
  0
SEQEND
  0
POLYLINE
  8
LAYER_1
 40
0.1552
 41
0.1552
 66
1
 10
0
 20
0
 30
0
  0
VERTEX
  8
LAYER_1
 10
188.4541
 20
90.1925
  0
SEQEND
  0
POLYLINE
  8
LAYER_1
 40
0.1552
 41
0.1552
 66
1
 10
0
 20
0
 30
0
  0
VERTEX
  8
LAYER_1
 10
188.4541
 20
94.1843
  0
SEQEND
  0
POLYLINE
  8
LAYER_1
 40
0.1552
 41
0.1552
 66
1
 10
0
 20
0
 30
0
  0
VERTEX
  8
LAYER_1
 10
134.5398
 20
90.1925
  0
SEQEND
  0
POLYLINE
  8
LAYER_1
 40
0.1552
 41
0.1552
 66
1
 10
0
 20
0
 30
0
  0
VERTEX
  8
LAYER_1
 10
188.4541
 20
90.1925
  0
SEQEND
  0
POLYLINE
  8
LAYER_1
 40
0.1552
 41
0.1552
 66
1
 10
0
 20
0
 30
0
  0
VERTEX
  8
LAYER_1
 10
188.3556
 20
86.25
  0
SEQEND
  0
POLYLINE
  8
LAYER_1
 40
0.1552
 41
0.1552
 66
1
 10
0
 20
0
 30
0
  0
VERTEX
  8
LAYER_1
 10
184.4623
 20
94.1843
  0
SEQEND
  0
POLYLINE
  8
LAYER_1
 40
0.1552
 41
0.1552
 66
1
 10
0
 20
0
 30
0
  0
VERTEX
  8
LAYER_1
 10
134.5398
 20
94.1843
  0
SEQEND
  0
POLYLINE
  8
LAYER_1
 40
0.1552
 41
0.1552
 66
1
 10
0
 20
0
 30
0
  0
VERTEX
  8
LAYER_1
 10
134.5398
 20
90.1925
  0
SEQEND
  0
POLYLINE
  8
LAYER_1
 40
0.1552
 41
0.1552
 66
1
 10
0
 20
0
 30
0
  0
VERTEX
  8
LAYER_1
 10
134.5398
 20
94.1843
  0
SEQEND
  0
POLYLINE
  8
LAYER_1
 40
0.1552
 41
0.1552
 66
1
 10
0
 20
0
 30
0
  0
VERTEX
  8
LAYER_1
 10
59.7937
 20
118.1846
  0
VERTEX
  8
LAYER_1
 10
59.7937
 20
117.6919
  0
SEQEND
  0
POLYLINE
  8
LAYER_1
 40
0.1552
 41
0.1552
 66
1
 10
0
 20
0
 30
0
  0
VERTEX
  8
LAYER_1
 10
109.3219
 20
117.6918
  0
VERTEX
  8
LAYER_1
 10
109.3219
 20
118.1844
  0
SEQEND
  0
POLYLINE
  8
LAYER_1
 40
0.1552
 41
0.1552
 66
1
 10
0
 20
0
 30
0
  0
VERTEX
  8
LAYER_1
 10
60.2866
 20
117.6918
  0
VERTEX
  8
LAYER_1
 10
108.8289
 20
117.6918
  0
SEQEND
  0
POLYLINE
  8
LAYER_1
 40
0.1552
 41
0.1552
 66
1
 10
0
 20
0
 30
0
  0
VERTEX
  8
LAYER_1
 10
60.2866
 20
118.1846
  0
VERTEX
  8
LAYER_1
 10
108.8289
 20
118.1846
  0
SEQEND
  0
POLYLINE
  8
LAYER_1
 40
0.1552
 41
0.1552
 66
1
 10
0
 20
0
 30
0
  0
VERTEX
  8
LAYER_1
 10
59.7937
 20
118.1846
  0
VERTEX
  8
LAYER_1
 10
109.3219
 20
118.1846
  0
SEQEND
  0
POLYLINE
  8
LAYER_1
 40
0.1552
 41
0.1552
 66
1
 10
0
 20
0
 30
0
  0
VERTEX
  8
LAYER_1
 10
188.5034
 20
98.0776
  0
VERTEX
  8
LAYER_1
 10
188.5034
 20
100.7879
  0
SEQEND
  0
POLYLINE
  8
LAYER_1
 40
0.1552
 41
0.1552
 66
1
 10
0
 20
0
 30
0
  0
VERTEX
  8
LAYER_1
 10
74.5783
 20
95.2193
  0
VERTEX
  8
LAYER_1
 10
77.2886
 20
95.2193
  0
SEQEND
  0
POLYLINE
  8
LAYER_1
 40
0.1552
 41
0.1552
 66
1
 10
0
 20
0
 30
0
  0
VERTEX
  8
LAYER_1
 10
108.8292
 20
94.2336
  0
VERTEX
  8
LAYER_1
 10
109.3218
 20
94.2336
  0
SEQEND
  0
POLYLINE
  8
LAYER_1
 40
0.1552
 41
0.1552
 66
1
 10
0
 20
0
 30
0
  0
VERTEX
  8
LAYER_1
 10
59.7937
 20
90.2418
  0
SEQEND
  0
POLYLINE
  8
LAYER_1
 40
0.1552
 41
0.1552
 66
1
 10
0
 20
0
 30
0
  0
VERTEX
  8
LAYER_1
 10
109.3219
 20
90.2418
  0
SEQEND
  0
POLYLINE
  8
LAYER_1
 40
0.1552
 41
0.1552
 66
1
 10
0
 20
0
 30
0
  0
VERTEX
  8
LAYER_1
 10
109.6176
 20
90.2418
  0
SEQEND
  0
POLYLINE
  8
LAYER_1
 40
0.1552
 41
0.1552
 66
1
 10
0
 20
0
 30
0
  0
VERTEX
  8
LAYER_1
 10
109.3219
 20
114.4392
  0
SEQEND
  0
POLYLINE
  8
LAYER_1
 40
0.1552
 41
0.1552
 66
1
 10
0
 20
0
 30
0
  0
VERTEX
  8
LAYER_1
 10
104.2459
 20
86.25
  0
SEQEND
  0
POLYLINE
  8
LAYER_1
 40
0.1058
 41
0.1058
 66
1
 10
0
 20
0
 30
0
  0
VERTEX
  8
LAYER_1
 10
140.3058
 20
72.9439
  0
VERTEX
  8
LAYER_1
 10
162.4826
 20
72.9439
  0
SEQEND
  0
POLYLINE
  8
LAYER_1
 40
0.1058
 41
0.1058
 66
1
 10
0
 20
0
 30
0
  0
VERTEX
  8
LAYER_1
 10
174.8524
 20
72.9439
  0
VERTEX
  8
LAYER_1
 10
168.1502
 20
72.9439
  0
SEQEND
  0
POLYLINE
  8
LAYER_1
 40
0.05
 41
0.05
 66
1
 10
0
 20
0
 30
0
 70
1
  0
VERTEX
  8
LAYER_1
 10
140.3058
 20
73.2396
  0
VERTEX
  8
LAYER_1
 10
140.3058
 20
72.6977
  0
VERTEX
  8
LAYER_1
 10
138.7782
 20
72.9438
  0
SEQEND
  0
POLYLINE
  8
LAYER_1
 66
1
 10
0
 20
0
 30
0
 70
1
  0
VERTEX
  8
LAYER_1
 10
140.3058
 20
73.2396
  0
VERTEX
  8
LAYER_1
 10
140.3058
 20
72.6977
  0
VERTEX
  8
LAYER_1
 10
138.7782
 20
72.9438
  0
SEQEND
  0
POLYLINE
  8
LAYER_1
 40
0.05
 41
0.05
 66
1
 10
0
 20
0
 30
0
 70
1
  0
VERTEX
  8
LAYER_1
 10
174.8524
 20
73.2396
  0
VERTEX
  8
LAYER_1
 10
174.8524
 20
72.6977
  0
VERTEX
  8
LAYER_1
 10
176.3308
 20
72.9438
  0
SEQEND
  0
POLYLINE
  8
LAYER_1
 66
1
 10
0
 20
0
 30
0
 70
1
  0
VERTEX
  8
LAYER_1
 10
174.8524
 20
73.2396
  0
VERTEX
  8
LAYER_1
 10
174.8524
 20
72.6977
  0
VERTEX
  8
LAYER_1
 10
176.3308
 20
72.9438
  0
SEQEND
  0
TEXT
  8
LAYER_1
 10
162.3841
 20
71.7117
 11
162.3841
 21
71.7117
 40
3.6967
 41
0.5
  1
375
  0
POLYLINE
  8
LAYER_1
 40
0.1058
 41
0.1058
 66
1
 10
0
 20
0
 30
0
  0
VERTEX
  8
LAYER_1
 10
138.778
 20
72.9439
  0
VERTEX
  8
LAYER_1
 10
138.778
 20
75.2108
  0
SEQEND
  0
POLYLINE
  8
LAYER_1
 40
0.1058
 41
0.1058
 66
1
 10
0
 20
0
 30
0
  0
VERTEX
  8
LAYER_1
 10
176.3308
 20
72.9439
  0
VERTEX
  8
LAYER_1
 10
176.3308
 20
75.2108
  0
SEQEND
  0
POLYLINE
  8
LAYER_1
 40
0.1058
 41
0.1058
 66
1
 10
0
 20
0
 30
0
  0
VERTEX
  8
LAYER_1
 10
109.5191
 20
95.2193
  0
VERTEX
  8
LAYER_1
 10
119.3262
 20
95.2193
  0
SEQEND
  0
POLYLINE
  8
LAYER_1
 40
0.1058
 41
0.1058
 66
1
 10
0
 20
0
 30
0
  0
VERTEX
  8
LAYER_1
 10
112.8703
 20
95.7121
  0
VERTEX
  8
LAYER_1
 10
112.8703
 20
97.2397
  0
SEQEND
  0
POLYLINE
  8
LAYER_1
 40
0.1058
 41
0.1058
 66
1
 10
0
 20
0
 30
0
  0
VERTEX
  8
LAYER_1
 10
112.8703
 20
88.7141
  0
VERTEX
  8
LAYER_1
 10
112.8703
 20
87.2357
  0
SEQEND
  0
POLYLINE
  8
LAYER_1
 40
0.1058
 41
0.1058
 66
1
 10
0
 20
0
 30
0
  0
VERTEX
  8
LAYER_1
 10
112.8703
 20
94.2336
  0
VERTEX
  8
LAYER_1
 10
112.8703
 20
94.1352
  0
SEQEND
  0
POLYLINE
  8
LAYER_1
 40
0.1058
 41
0.1058
 66
1
 10
0
 20
0
 30
0
  0
VERTEX
  8
LAYER_1
 10
112.8703
 20
90.2418
  0
VERTEX
  8
LAYER_1
 10
112.8703
 20
90.3403
  0
SEQEND
  0
POLYLINE
  8
LAYER_1
 40
0.05
 41
0.05
 66
1
 10
0
 20
0
 30
0
 70
1
  0
VERTEX
  8
LAYER_1
 10
112.6238
 20
95.7121
  0
VERTEX
  8
LAYER_1
 10
113.1165
 20
95.7121
  0
VERTEX
  8
LAYER_1
 10
112.8704
 20
94.2336
  0
SEQEND
  0
POLYLINE
  8
LAYER_1
 66
1
 10
0
 20
0
 30
0
 70
1
  0
VERTEX
  8
LAYER_1
 10
112.6238
 20
95.7121
  0
VERTEX
  8
LAYER_1
 10
113.1165
 20
95.7121
  0
VERTEX
  8
LAYER_1
 10
112.8704
 20
94.2336
  0
SEQEND
  0
POLYLINE
  8
LAYER_1
 40
0.05
 41
0.05
 66
1
 10
0
 20
0
 30
0
 70
1
  0
VERTEX
  8
LAYER_1
 10
112.6238
 20
88.7141
  0
VERTEX
  8
LAYER_1
 10
113.1165
 20
88.7141
  0
VERTEX
  8
LAYER_1
 10
112.8704
 20
90.2417
  0
SEQEND
  0
POLYLINE
  8
LAYER_1
 66
1
 10
0
 20
0
 30
0
 70
1
  0
VERTEX
  8
LAYER_1
 10
112.6238
 20
88.7141
  0
VERTEX
  8
LAYER_1
 10
113.1165
 20
88.7141
  0
VERTEX
  8
LAYER_1
 10
112.8704
 20
90.2417
  0
SEQEND
  0
TEXT
  8
LAYER_1
 10
114.1022
 20
90.34
 11
114.1022
 21
90.34
 40
3.6967
 41
0.5
 50
89.99999999
  1
40
  0
POLYLINE
  8
LAYER_1
 40
0.1058
 41
0.1058
 66
1
 10
0
 20
0
 30
0
  0
VERTEX
  8
LAYER_1
 10
112.8703
 20
94.2336
  0
VERTEX
  8
LAYER_1
 10
109.0757
 20
94.2336
  0
SEQEND
  0
POLYLINE
  8
LAYER_1
 40
0.1058
 41
0.1058
 66
1
 10
0
 20
0
 30
0
  0
VERTEX
  8
LAYER_1
 10
112.8703
 20
90.2418
  0
VERTEX
  8
LAYER_1
 10
109.0757
 20
90.2418
  0
SEQEND
  0
POLYLINE
  8
LAYER_1
 40
0.1058
 41
0.1058
 66
1
 10
0
 20
0
 30
0
  0
VERTEX
  8
LAYER_1
 10
192.0516
 20
116.7061
  0
VERTEX
  8
LAYER_1
 10
192.0516
 20
109.0183
  0
SEQEND
  0
POLYLINE
  8
LAYER_1
 40
0.1058
 41
0.1058
 66
1
 10
0
 20
0
 30
0
  0
VERTEX
  8
LAYER_1
 10
192.0516
 20
95.6631
  0
VERTEX
  8
LAYER_1
 10
192.0516
 20
103.3509
  0
SEQEND
  0
POLYLINE
  8
LAYER_1
 40
0.05
 41
0.05
 66
1
 10
0
 20
0
 30
0
 70
1
  0
VERTEX
  8
LAYER_1
 10
191.8053
 20
116.7061
  0
VERTEX
  8
LAYER_1
 10
192.2979
 20
116.7061
  0
VERTEX
  8
LAYER_1
 10
192.0518
 20
118.1846
  0
SEQEND
  0
POLYLINE
  8
LAYER_1
 66
1
 10
0
 20
0
 30
0
 70
1
  0
VERTEX
  8
LAYER_1
 10
191.8053
 20
116.7061
  0
VERTEX
  8
LAYER_1
 10
192.2979
 20
116.7061
  0
VERTEX
  8
LAYER_1
 10
192.0518
 20
118.1846
  0
SEQEND
  0
POLYLINE
  8
LAYER_1
 40
0.05
 41
0.05
 66
1
 10
0
 20
0
 30
0
 70
1
  0
VERTEX
  8
LAYER_1
 10
191.8053
 20
95.6631
  0
VERTEX
  8
LAYER_1
 10
192.2979
 20
95.6631
  0
VERTEX
  8
LAYER_1
 10
192.0518
 20
94.1846
  0
SEQEND
  0
POLYLINE
  8
LAYER_1
 66
1
 10
0
 20
0
 30
0
 70
1
  0
VERTEX
  8
LAYER_1
 10
191.8053
 20
95.6631
  0
VERTEX
  8
LAYER_1
 10
192.2979
 20
95.6631
  0
VERTEX
  8
LAYER_1
 10
192.0518
 20
94.1846
  0
SEQEND
  0
TEXT
  8
LAYER_1
 10
193.2839
 20
103.3018
 11
193.2839
 21
103.3018
 40
3.6967
 41
0.5
 50
89.99999999
  1
240
  0
POLYLINE
  8
LAYER_1
 40
0.1058
 41
0.1058
 66
1
 10
0
 20
0
 30
0
  0
VERTEX
  8
LAYER_1
 10
112.8703
 20
88.7141
  0
VERTEX
  8
LAYER_1
 10
112.8703
 20
85.4122
  0
SEQEND
  0
POLYLINE
  8
LAYER_1
 40
0.1058
 41
0.1058
 66
1
 10
0
 20
0
 30
0
  0
VERTEX
  8
LAYER_1
 10
112.8703
 20
76.7386
  0
VERTEX
  8
LAYER_1
 10
112.8703
 20
80.0404
  0
SEQEND
  0
POLYLINE
  8
LAYER_1
 40
0.05
 41
0.05
 66
1
 10
0
 20
0
 30
0
 70
1
  0
VERTEX
  8
LAYER_1
 10
112.6238
 20
88.7141
  0
VERTEX
  8
LAYER_1
 10
113.1165
 20
88.7141
  0
VERTEX
  8
LAYER_1
 10
112.8704
 20
90.2417
  0
SEQEND
  0
POLYLINE
  8
LAYER_1
 66
1
 10
0
 20
0
 30
0
 70
1
  0
VERTEX
  8
LAYER_1
 10
112.6238
 20
88.7141
  0
VERTEX
  8
LAYER_1
 10
113.1165
 20
88.7141
  0
VERTEX
  8
LAYER_1
 10
112.8704
 20
90.2417
  0
SEQEND
  0
POLYLINE
  8
LAYER_1
 40
0.05
 41
0.05
 66
1
 10
0
 20
0
 30
0
 70
1
  0
VERTEX
  8
LAYER_1
 10
112.6238
 20
76.7386
  0
VERTEX
  8
LAYER_1
 10
113.1165
 20
76.7386
  0
VERTEX
  8
LAYER_1
 10
112.8704
 20
75.2602
  0
SEQEND
  0
POLYLINE
  8
LAYER_1
 66
1
 10
0
 20
0
 30
0
 70
1
  0
VERTEX
  8
LAYER_1
 10
112.6238
 20
76.7386
  0
VERTEX
  8
LAYER_1
 10
113.1165
 20
76.7386
  0
VERTEX
  8
LAYER_1
 10
112.8704
 20
75.2602
  0
SEQEND
  0
TEXT
  8
LAYER_1
 10
114.1024
 20
79.6954
 11
114.1024
 21
79.6954
 40
3.6967
 41
0.5
 50
89.99999999
  1
150
  0
POLYLINE
  8
LAYER_1
 40
0.1058
 41
0.1058
 66
1
 10
0
 20
0
 30
0
  0
VERTEX
  8
LAYER_1
 10
112.8703
 20
75.2601
  0
VERTEX
  8
LAYER_1
 10
103.3589
 20
75.2601
  0
SEQEND
  0
POLYLINE
  8
LAYER_1
 40
0.1058
 41
0.1058
 66
1
 10
0
 20
0
 30
0
  0
VERTEX
  8
LAYER_1
 10
107.8435
 20
130.0122
  0
VERTEX
  8
LAYER_1
 10
87.3917
 20
130.0122
  0
SEQEND
  0
POLYLINE
  8
LAYER_1
 40
0.1058
 41
0.1058
 66
1
 10
0
 20
0
 30
0
  0
VERTEX
  8
LAYER_1
 10
61.2722
 20
130.0122
  0
VERTEX
  8
LAYER_1
 10
81.724
 20
130.0122
  0
SEQEND
  0
POLYLINE
  8
LAYER_1
 40
0.05
 41
0.05
 66
1
 10
0
 20
0
 30
0
 70
1
  0
VERTEX
  8
LAYER_1
 10
107.8435
 20
130.2586
  0
VERTEX
  8
LAYER_1
 10
107.8435
 20
129.766
  0
VERTEX
  8
LAYER_1
 10
109.3219
 20
130.0121
  0
SEQEND
  0
POLYLINE
  8
LAYER_1
 66
1
 10
0
 20
0
 30
0
 70
1
  0
VERTEX
  8
LAYER_1
 10
107.8435
 20
130.2586
  0
VERTEX
  8
LAYER_1
 10
107.8435
 20
129.766
  0
VERTEX
  8
LAYER_1
 10
109.3219
 20
130.0121
  0
SEQEND
  0
POLYLINE
  8
LAYER_1
 40
0.05
 41
0.05
 66
1
 10
0
 20
0
 30
0
 70
1
  0
VERTEX
  8
LAYER_1
 10
61.2722
 20
130.2586
  0
VERTEX
  8
LAYER_1
 10
61.2722
 20
129.766
  0
VERTEX
  8
LAYER_1
 10
59.7938
 20
130.0121
  0
SEQEND
  0
POLYLINE
  8
LAYER_1
 66
1
 10
0
 20
0
 30
0
 70
1
  0
VERTEX
  8
LAYER_1
 10
61.2722
 20
130.2586
  0
VERTEX
  8
LAYER_1
 10
61.2722
 20
129.766
  0
VERTEX
  8
LAYER_1
 10
59.7938
 20
130.0121
  0
SEQEND
  0
TEXT
  8
LAYER_1
 10
81.6748
 20
128.7804
 11
81.6748
 21
128.7804
 40
3.6967
 41
0.5
  1
500
  0
POLYLINE
  8
LAYER_1
 40
0.1058
 41
0.1058
 66
1
 10
0
 20
0
 30
0
  0
VERTEX
  8
LAYER_1
 10
59.7937
 20
118.1846
  0
VERTEX
  8
LAYER_1
 10
59.7937
 20
130.0124
  0
SEQEND
  0
POLYLINE
  8
LAYER_1
 40
0.1058
 41
0.1058
 66
1
 10
0
 20
0
 30
0
  0
VERTEX
  8
LAYER_1
 10
109.3219
 20
130.0122
  0
VERTEX
  8
LAYER_1
 10
109.3219
 20
118.1844
  0
SEQEND
  0
POLYLINE
  8
LAYER_1
 40
0.1058
 41
0.1058
 66
1
 10
0
 20
0
 30
0
  0
VERTEX
  8
LAYER_1
 10
119.3261
 20
116.7061
  0
VERTEX
  8
LAYER_1
 10
119.3261
 20
109.5601
  0
SEQEND
  0
POLYLINE
  8
LAYER_1
 40
0.1058
 41
0.1058
 66
1
 10
0
 20
0
 30
0
  0
VERTEX
  8
LAYER_1
 10
119.3261
 20
96.6977
  0
VERTEX
  8
LAYER_1
 10
119.3261
 20
103.8437
  0
SEQEND
  0
POLYLINE
  8
LAYER_1
 40
0.05
 41
0.05
 66
1
 10
0
 20
0
 30
0
 70
1
  0
VERTEX
  8
LAYER_1
 10
119.0797
 20
116.7061
  0
VERTEX
  8
LAYER_1
 10
119.5724
 20
116.7061
  0
VERTEX
  8
LAYER_1
 10
119.3263
 20
118.1846
  0
SEQEND
  0
POLYLINE
  8
LAYER_1
 66
1
 10
0
 20
0
 30
0
 70
1
  0
VERTEX
  8
LAYER_1
 10
119.0797
 20
116.7061
  0
VERTEX
  8
LAYER_1
 10
119.5724
 20
116.7061
  0
VERTEX
  8
LAYER_1
 10
119.3263
 20
118.1846
  0
SEQEND
  0
POLYLINE
  8
LAYER_1
 40
0.05
 41
0.05
 66
1
 10
0
 20
0
 30
0
 70
1
  0
VERTEX
  8
LAYER_1
 10
119.0797
 20
96.6977
  0
VERTEX
  8
LAYER_1
 10
119.5724
 20
96.6977
  0
VERTEX
  8
LAYER_1
 10
119.3263
 20
95.2193
  0
SEQEND
  0
POLYLINE
  8
LAYER_1
 66
1
 10
0
 20
0
 30
0
 70
1
  0
VERTEX
  8
LAYER_1
 10
119.0797
 20
96.6977
  0
VERTEX
  8
LAYER_1
 10
119.5724
 20
96.6977
  0
VERTEX
  8
LAYER_1
 10
119.3263
 20
95.2193
  0
SEQEND
  0
TEXT
  8
LAYER_1
 10
120.5583
 20
103.8434
 11
120.5583
 21
103.8434
 40
3.6967
 41
0.5
 50
89.99999999
  1
230
  0
POLYLINE
  8
LAYER_1
 40
0.1058
 41
0.1058
 66
1
 10
0
 20
0
 30
0
  0
VERTEX
  8
LAYER_1
 10
119.3261
 20
118.1846
  0
VERTEX
  8
LAYER_1
 10
109.3217
 20
118.1846
  0
SEQEND
  0
POLYLINE
  8
LAYER_1
 40
0.1058
 41
0.1058
 66
1
 10
0
 20
0
 30
0
  0
VERTEX
  8
LAYER_1
 10
213.2132
 20
167.4439
  0
VERTEX
  8
LAYER_1
 10
213.5154
 20
167.746
  0
SEQEND
  0
POLYLINE
  8
LAYER_1
 40
0.1058
 41
0.1058
 66
1
 10
0
 20
0
 30
0
  0
VERTEX
  8
LAYER_1
 10
215.2081
 20
155.8075
  0
VERTEX
  8
LAYER_1
 10
215.2684
 20
155.8678
  0
SEQEND
  0
POLYLINE
  8
LAYER_1
 40
0.2752
 41
0.2752
 66
1
 10
0
 20
0
 30
0
  0
VERTEX
  8
LAYER_1
 10
208.6493
 20
136.766
  0
VERTEX
  8
LAYER_1
 10
212.7597
 20
136.766
  0
VERTEX
  8
LAYER_1
 10
212.8204
 20
136.7358
  0
VERTEX
  8
LAYER_1
 10
212.8506
 20
136.7358
  0
VERTEX
  8
LAYER_1
 10
212.911
 20
136.7056
  0
VERTEX
  8
LAYER_1
 10
212.9411
 20
136.7056
  0
VERTEX
  8
LAYER_1
 10
212.9713
 20
136.645
  0
VERTEX
  8
LAYER_1
 10
213.0018
 20
136.6148
  0
VERTEX
  8
LAYER_1
 10
213.032
 20
136.5846
  0
VERTEX
  8
LAYER_1
 10
213.032
 20
136.5242
  0
VERTEX
  8
LAYER_1
 10
213.2131
 20
135.7081
  0
VERTEX
  8
LAYER_1
 10
213.2131
 20
135.6477
  0
VERTEX
  8
LAYER_1
 10
213.1829
 20
135.5873
  0
VERTEX
  8
LAYER_1
 10
213.1829
 20
135.5571
  0
VERTEX
  8
LAYER_1
 10
213.1527
 20
135.4965
  0
VERTEX
  8
LAYER_1
 10
213.1225
 20
135.4663
  0
VERTEX
  8
LAYER_1
 10
213.0924
 20
135.4361
  0
VERTEX
  8
LAYER_1
 10
213.032
 20
135.4059
  0
VERTEX
  8
LAYER_1
 10
212.9713
 20
135.3758
  0
VERTEX
  8
LAYER_1
 10
212.9411
 20
135.3758
  0
SEQEND
  0
POLYLINE
  8
LAYER_1
 40
0.2752
 41
0.2752
 66
1
 10
0
 20
0
 30
0
  0
VERTEX
  8
LAYER_1
 10
203.8134
 20
136.766
  0
VERTEX
  8
LAYER_1
 10
199.703
 20
136.766
  0
VERTEX
  8
LAYER_1
 10
199.6423
 20
136.7358
  0
VERTEX
  8
LAYER_1
 10
199.582
 20
136.7358
  0
VERTEX
  8
LAYER_1
 10
199.5518
 20
136.7056
  0
VERTEX
  8
LAYER_1
 10
199.4914
 20
136.6755
  0
VERTEX
  8
LAYER_1
 10
199.4609
 20
136.645
  0
VERTEX
  8
LAYER_1
 10
199.4307
 20
136.5846
  0
VERTEX
  8
LAYER_1
 10
199.4307
 20
136.5544
  0
VERTEX
  8
LAYER_1
 10
199.4307
 20
136.4941
  0
VERTEX
  8
LAYER_1
 10
199.0682
 20
131.9602
  0
SEQEND
  0
POLYLINE
  8
LAYER_1
 40
0.2752
 41
0.2752
 66
1
 10
0
 20
0
 30
0
  0
VERTEX
  8
LAYER_1
 10
199.7029
 20
136.766
  0
VERTEX
  8
LAYER_1
 10
194.9577
 20
136.766
  0
SEQEND
  0
POLYLINE
  8
LAYER_1
 40
0.2752
 41
0.2752
 66
1
 10
0
 20
0
 30
0
  0
VERTEX
  8
LAYER_1
 10
200.8212
 20
130.5095
  0
VERTEX
  8
LAYER_1
 10
201.184
 20
135.134
  0
VERTEX
  8
LAYER_1
 10
201.184
 20
135.1641
  0
VERTEX
  8
LAYER_1
 10
201.2142
 20
135.2245
  0
VERTEX
  8
LAYER_1
 10
201.2444
 20
135.2547
  0
VERTEX
  8
LAYER_1
 10
201.2745
 20
135.3153
  0
VERTEX
  8
LAYER_1
 10
201.3047
 20
135.3455
  0
VERTEX
  8
LAYER_1
 10
201.3651
 20
135.3455
  0
VERTEX
  8
LAYER_1
 10
201.3956
 20
135.3757
  0
VERTEX
  8
LAYER_1
 10
201.4559
 20
135.3757
  0
SEQEND
  0
POLYLINE
  8
LAYER_1
 40
0.2752
 41
0.2752
 66
1
 10
0
 20
0
 30
0
  0
VERTEX
  8
LAYER_1
 10
203.8134
 20
136.766
  0
VERTEX
  8
LAYER_1
 10
203.8134
 20
135.3758
  0
SEQEND
  0
POLYLINE
  8
LAYER_1
 40
0.2752
 41
0.2752
 66
1
 10
0
 20
0
 30
0
  0
VERTEX
  8
LAYER_1
 10
208.6493
 20
136.766
  0
VERTEX
  8
LAYER_1
 10
208.6493
 20
135.3758
  0
VERTEX
  8
LAYER_1
 10
212.9411
 20
135.3758
  0
SEQEND
  0
POLYLINE
  8
LAYER_1
 40
0.2752
 41
0.2752
 66
1
 10
0
 20
0
 30
0
  0
VERTEX
  8
LAYER_1
 10
203.8134
 20
135.3757
  0
VERTEX
  8
LAYER_1
 10
201.4558
 20
135.3757
  0
SEQEND
  0
POLYLINE
  8
LAYER_1
 40
0.2752
 41
0.2752
 66
1
 10
0
 20
0
 30
0
  0
VERTEX
  8
LAYER_1
 10
200.8514
 20
130.842
  0
VERTEX
  8
LAYER_1
 10
200.8514
 20
130.9932
  0
VERTEX
  8
LAYER_1
 10
200.9118
 20
131.114
  0
VERTEX
  8
LAYER_1
 10
200.9724
 20
131.235
  0
VERTEX
  8
LAYER_1
 10
201.063
 20
131.3255
  0
VERTEX
  8
LAYER_1
 10
201.1535
 20
131.4164
  0
VERTEX
  8
LAYER_1
 10
201.2746
 20
131.4768
  0
VERTEX
  8
LAYER_1
 10
201.3953
 20
131.5069
  0
VERTEX
  8
LAYER_1
 10
201.5465
 20
131.5069
  0
VERTEX
  8
LAYER_1
 10
201.5767
 20
131.5069
  0
VERTEX
  8
LAYER_1
 10
201.6374
 20
131.5069
  0
VERTEX
  8
LAYER_1
 10
201.6977
 20
131.5069
  0
VERTEX
  8
LAYER_1
 10
201.7581
 20
131.5069
  0
VERTEX
  8
LAYER_1
 10
201.9093
 20
131.5069
  0
VERTEX
  8
LAYER_1
 10
202.0603
 20
131.5069
  0
VERTEX
  8
LAYER_1
 10
202.2718
 20
131.5069
  0
VERTEX
  8
LAYER_1
 10
202.695
 20
131.5069
  0
VERTEX
  8
LAYER_1
 10
203.1182
 20
131.5069
  0
VERTEX
  8
LAYER_1
 10
203.3298
 20
131.5069
  0
VERTEX
  8
LAYER_1
 10
203.5112
 20
131.5069
  0
VERTEX
  8
LAYER_1
 10
203.6624
 20
131.5069
  0
VERTEX
  8
LAYER_1
 10
203.7228
 20
131.5069
  0
VERTEX
  8
LAYER_1
 10
203.7529
 20
131.5069
  0
VERTEX
  8
LAYER_1
 10
203.8133
 20
131.5069
  0
VERTEX
  8
LAYER_1
 10
203.8435
 20
131.5069
  0
VERTEX
  8
LAYER_1
 10
203.874
 20
131.5069
  0
VERTEX
  8
LAYER_1
 10
203.9343
 20
131.5069
  0
VERTEX
  8
LAYER_1
 10
203.9947
 20
131.4768
  0
VERTEX
  8
LAYER_1
 10
204.0551
 20
131.4466
  0
VERTEX
  8
LAYER_1
 10
204.1157
 20
131.3859
  0
VERTEX
  8
LAYER_1
 10
204.1459
 20
131.3255
  0
VERTEX
  8
LAYER_1
 10
204.2063
 20
131.2652
  0
VERTEX
  8
LAYER_1
 10
204.2667
 20
131.235
  0
VERTEX
  8
LAYER_1
 10
204.3575
 20
131.235
  0
VERTEX
  8
LAYER_1
 10
204.3877
 20
131.235
  0
VERTEX
  8
LAYER_1
 10
204.4481
 20
131.235
  0
VERTEX
  8
LAYER_1
 10
204.5084
 20
131.235
  0
VERTEX
  8
LAYER_1
 10
204.5993
 20
131.235
  0
VERTEX
  8
LAYER_1
 10
204.6898
 20
131.235
  0
VERTEX
  8
LAYER_1
 10
204.9014
 20
131.235
  0
VERTEX
  8
LAYER_1
 10
205.113
 20
131.235
  0
VERTEX
  8
LAYER_1
 10
205.2039
 20
131.235
  0
VERTEX
  8
LAYER_1
 10
205.2642
 20
131.235
  0
VERTEX
  8
LAYER_1
 10
205.3548
 20
131.235
  0
VERTEX
  8
LAYER_1
 10
205.4152
 20
131.235
  0
VERTEX
  8
LAYER_1
 10
205.4456
 20
131.235
  0
VERTEX
  8
LAYER_1
 10
205.506
 20
131.235
  0
VERTEX
  8
LAYER_1
 10
205.5362
 20
131.2652
  0
VERTEX
  8
LAYER_1
 10
205.5966
 20
131.2652
  0
VERTEX
  8
LAYER_1
 10
205.6268
 20
131.2954
  0
VERTEX
  8
LAYER_1
 10
205.6572
 20
131.3255
  0
VERTEX
  8
LAYER_1
 10
205.6874
 20
131.3859
  0
VERTEX
  8
LAYER_1
 10
205.7176
 20
131.4164
  0
VERTEX
  8
LAYER_1
 10
205.7176
 20
131.4768
  0
VERTEX
  8
LAYER_1
 10
205.7176
 20
131.5069
  0
VERTEX
  8
LAYER_1
 10
205.7478
 20
131.5673
  0
VERTEX
  8
LAYER_1
 10
205.7478
 20
131.628
  0
VERTEX
  8
LAYER_1
 10
205.778
 20
131.7185
  0
VERTEX
  8
LAYER_1
 10
205.778
 20
131.8393
  0
VERTEX
  8
LAYER_1
 10
205.8082
 20
131.9603
  0
VERTEX
  8
LAYER_1
 10
205.8383
 20
132.0813
  0
VERTEX
  8
LAYER_1
 10
205.8383
 20
132.2323
  0
VERTEX
  8
LAYER_1
 10
205.8688
 20
132.3835
  0
VERTEX
  8
LAYER_1
 10
205.9292
 20
132.7158
  0
VERTEX
  8
LAYER_1
 10
205.9895
 20
133.0484
  0
VERTEX
  8
LAYER_1
 10
206.0499
 20
133.4112
  0
VERTEX
  8
LAYER_1
 10
206.1106
 20
133.7737
  0
VERTEX
  8
LAYER_1
 10
206.1709
 20
134.1365
  0
VERTEX
  8
LAYER_1
 10
206.2313
 20
134.4689
  0
VERTEX
  8
LAYER_1
 10
206.2615
 20
134.6201
  0
VERTEX
  8
LAYER_1
 10
206.2615
 20
134.7713
  0
VERTEX
  8
LAYER_1
 10
206.2917
 20
134.892
  0
VERTEX
  8
LAYER_1
 10
206.3222
 20
135.0131
  0
VERTEX
  8
LAYER_1
 10
206.3222
 20
135.1338
  0
VERTEX
  8
LAYER_1
 10
206.3523
 20
135.1945
  0
VERTEX
  8
LAYER_1
 10
206.3523
 20
135.285
  0
VERTEX
  8
LAYER_1
 10
206.3523
 20
135.3454
  0
VERTEX
  8
LAYER_1
 10
206.3825
 20
135.3756
  0
SEQEND
  0
POLYLINE
  8
LAYER_1
 40
0.2752
 41
0.2752
 66
1
 10
0
 20
0
 30
0
  0
VERTEX
  8
LAYER_1
 10
204.3574
 20
131.2349
  0
VERTEX
  8
LAYER_1
 10
200.9723
 20
131.2349
  0
SEQEND
  0
POLYLINE
  8
LAYER_1
 40
0.2752
 41
0.2752
 66
1
 10
0
 20
0
 30
0
 70
1
  0
VERTEX
  8
LAYER_1
 10
208.6492
 20
136.7661
  0
VERTEX
  8
LAYER_1
 10
203.8132
 20
136.7661
  0
VERTEX
  8
LAYER_1
 10
203.8132
 20
135.3758
  0
VERTEX
  8
LAYER_1
 10
208.6492
 20
135.3758
  0
SEQEND
  0
POLYLINE
  8
LAYER_1
 40
0.1552
 41
0.1552
 66
1
 10
0
 20
0
 30
0
  0
VERTEX
  8
LAYER_1
 10
212.1252
 20
135.285
  0
VERTEX
  8
LAYER_1
 10
195.9854
 20
135.285
  0
VERTEX
  8
LAYER_1
 10
213.2133
 20
135.285
  0
SEQEND
  0
POLYLINE
  8
LAYER_1
 40
0.7514
 41
0.7514
 66
1
 10
0
 20
0
 30
0
  0
VERTEX
  8
LAYER_1
 10
218.7141
 20
135.285
  0
VERTEX
  8
LAYER_1
 10
218.7141
 20
167.7463
  0
SEQEND
  0
POLYLINE
  8
LAYER_1
 40
0.1552
 41
0.1552
 66
1
 10
0
 20
0
 30
0
  0
VERTEX
  8
LAYER_1
 10
195.9852
 20
135.285
  0
VERTEX
  8
LAYER_1
 10
213.183
 20
135.285
  0
SEQEND
  0
POLYLINE
  8
LAYER_1
 40
0.7514
 41
0.7514
 66
1
 10
0
 20
0
 30
0
  0
VERTEX
  8
LAYER_1
 10
218.7141
 20
135.285
  0
VERTEX
  8
LAYER_1
 10
218.7141
 20
129.7841
  0
SEQEND
  0
POLYLINE
  8
LAYER_1
 40
0.1552
 41
0.1552
 66
1
 10
0
 20
0
 30
0
  0
VERTEX
  8
LAYER_1
 10
218.7141
 20
129.7841
  0
VERTEX
  8
LAYER_1
 10
201.8792
 20
129.7841
  0
SEQEND
  0
POLYLINE
  8
LAYER_1
 40
0.1552
 41
0.1552
 66
1
 10
0
 20
0
 30
0
  0
VERTEX
  8
LAYER_1
 10
212.1252
 20
135.285
  0
VERTEX
  8
LAYER_1
 10
212.1553
 20
135.285
  0
VERTEX
  8
LAYER_1
 10
212.1855
 20
135.285
  0
VERTEX
  8
LAYER_1
 10
212.2462
 20
135.285
  0
VERTEX
  8
LAYER_1
 10
212.3669
 20
135.285
  0
VERTEX
  8
LAYER_1
 10
212.5181
 20
135.285
  0
VERTEX
  8
LAYER_1
 10
212.6691
 20
135.285
  0
VERTEX
  8
LAYER_1
 10
212.8203
 20
135.285
  0
VERTEX
  8
LAYER_1
 10
212.8505
 20
135.285
  0
VERTEX
  8
LAYER_1
 10
212.9111
 20
135.285
  0
VERTEX
  8
LAYER_1
 10
212.9413
 20
135.285
  0
VERTEX
  8
LAYER_1
 10
213.0017
 20
135.285
  0
VERTEX
  8
LAYER_1
 10
213.0319
 20
135.3152
  0
VERTEX
  8
LAYER_1
 10
213.0923
 20
135.3454
  0
VERTEX
  8
LAYER_1
 10
213.1224
 20
135.3756
  0
VERTEX
  8
LAYER_1
 10
213.1529
 20
135.406
  0
VERTEX
  8
LAYER_1
 10
213.1831
 20
135.4664
  0
VERTEX
  8
LAYER_1
 10
213.2133
 20
135.5268
  0
VERTEX
  8
LAYER_1
 10
213.2133
 20
135.557
  0
VERTEX
  8
LAYER_1
 10
213.2133
 20
135.6174
  0
VERTEX
  8
LAYER_1
 10
213.1831
 20
135.6478
  0
VERTEX
  8
LAYER_1
 10
213.1831
 20
135.7082
  0
VERTEX
  8
LAYER_1
 10
213.1831
 20
135.7384
  0
VERTEX
  8
LAYER_1
 10
213.1529
 20
135.8896
  0
VERTEX
  8
LAYER_1
 10
213.1224
 20
136.0405
  0
VERTEX
  8
LAYER_1
 10
213.0923
 20
136.1917
  0
VERTEX
  8
LAYER_1
 10
213.0621
 20
136.3128
  0
VERTEX
  8
LAYER_1
 10
213.0621
 20
136.3731
  0
VERTEX
  8
LAYER_1
 10
213.0319
 20
136.4033
  0
VERTEX
  8
LAYER_1
 10
213.0319
 20
136.4335
  0
VERTEX
  8
LAYER_1
 10
213.0319
 20
136.4637
  0
VERTEX
  8
LAYER_1
 10
213.0319
 20
136.4939
  0
VERTEX
  8
LAYER_1
 10
213.0017
 20
136.5243
  0
VERTEX
  8
LAYER_1
 10
212.9715
 20
136.5847
  0
VERTEX
  8
LAYER_1
 10
212.9413
 20
136.6149
  0
VERTEX
  8
LAYER_1
 10
212.9111
 20
136.6451
  0
VERTEX
  8
LAYER_1
 10
212.8505
 20
136.6451
  0
VERTEX
  8
LAYER_1
 10
212.8203
 20
136.6753
  0
VERTEX
  8
LAYER_1
 10
212.7599
 20
136.6753
  0
VERTEX
  8
LAYER_1
 10
212.7297
 20
136.6753
  0
VERTEX
  8
LAYER_1
 10
212.6995
 20
136.6753
  0
VERTEX
  8
LAYER_1
 10
212.6691
 20
136.6753
  0
VERTEX
  8
LAYER_1
 10
212.6087
 20
136.6753
  0
VERTEX
  8
LAYER_1
 10
212.5483
 20
136.6753
  0
VERTEX
  8
LAYER_1
 10
212.4575
 20
136.6753
  0
VERTEX
  8
LAYER_1
 10
212.3669
 20
136.6753
  0
VERTEX
  8
LAYER_1
 10
212.2462
 20
136.6753
  0
VERTEX
  8
LAYER_1
 10
212.1553
 20
136.6753
  0
VERTEX
  8
LAYER_1
 10
212.0041
 20
136.6753
  0
VERTEX
  8
LAYER_1
 10
211.8834
 20
136.6753
  0
VERTEX
  8
LAYER_1
 10
211.7322
 20
136.6753
  0
VERTEX
  8
LAYER_1
 10
211.5812
 20
136.6753
  0
VERTEX
  8
LAYER_1
 10
211.3998
 20
136.6753
  0
VERTEX
  8
LAYER_1
 10
211.2184
 20
136.6753
  0
VERTEX
  8
LAYER_1
 10
211.037
 20
136.6753
  0
VERTEX
  8
LAYER_1
 10
210.8255
 20
136.6753
  0
VERTEX
  8
LAYER_1
 10
210.6139
 20
136.6753
  0
VERTEX
  8
LAYER_1
 10
210.4023
 20
136.6753
  0
VERTEX
  8
LAYER_1
 10
210.1907
 20
136.6753
  0
VERTEX
  8
LAYER_1
 10
209.9489
 20
136.6753
  0
VERTEX
  8
LAYER_1
 10
209.7071
 20
136.6753
  0
VERTEX
  8
LAYER_1
 10
209.4654
 20
136.6753
  0
VERTEX
  8
LAYER_1
 10
209.1934
 20
136.6753
  0
VERTEX
  8
LAYER_1
 10
208.9215
 20
136.6753
  0
VERTEX
  8
LAYER_1
 10
208.3773
 20
136.6753
  0
VERTEX
  8
LAYER_1
 10
207.7727
 20
136.6753
  0
VERTEX
  8
LAYER_1
 10
207.1684
 20
136.6753
  0
VERTEX
  8
LAYER_1
 10
206.5336
 20
136.6753
  0
VERTEX
  8
LAYER_1
 10
205.8687
 20
136.6753
  0
VERTEX
  8
LAYER_1
 10
205.1736
 20
136.6753
  0
VERTEX
  8
LAYER_1
 10
204.4784
 20
136.6753
  0
VERTEX
  8
LAYER_1
 10
203.7528
 20
136.6753
  0
VERTEX
  8
LAYER_1
 10
202.9973
 20
136.6753
  0
VERTEX
  8
LAYER_1
 10
202.2418
 20
136.6753
  0
VERTEX
  8
LAYER_1
 10
201.4559
 20
136.6753
  0
VERTEX
  8
LAYER_1
 10
200.7003
 20
136.6753
  0
VERTEX
  8
LAYER_1
 10
199.8842
 20
136.6753
  0
VERTEX
  8
LAYER_1
 10
198.2823
 20
136.6753
  0
VERTEX
  8
LAYER_1
 10
194.9878
 20
136.6753
  0
SEQEND
  0
POLYLINE
  8
LAYER_1
 40
0.1552
 41
0.1552
 66
1
 10
0
 20
0
 30
0
  0
VERTEX
  8
LAYER_1
 10
203.5414
 20
129.7841
  0
VERTEX
  8
LAYER_1
 10
203.481
 20
128.7869
  0
SEQEND
  0
POLYLINE
  8
LAYER_1
 40
0.1552
 41
0.1552
 66
1
 10
0
 20
0
 30
0
  0
VERTEX
  8
LAYER_1
 10
218.0189
 20
129.7841
  0
VERTEX
  8
LAYER_1
 10
218.7141
 20
129.7841
  0
SEQEND
  0
POLYLINE
  8
LAYER_1
 40
0.7514
 41
0.7514
 66
1
 10
0
 20
0
 30
0
  0
VERTEX
  8
LAYER_1
 10
218.7141
 20
129.7841
  0
VERTEX
  8
LAYER_1
 10
218.7141
 20
125.6131
  0
SEQEND
  0
POLYLINE
  8
LAYER_1
 40
0.1552
 41
0.1552
 66
1
 10
0
 20
0
 30
0
  0
VERTEX
  8
LAYER_1
 10
218.0189
 20
125.5527
  0
VERTEX
  8
LAYER_1
 10
218.0189
 20
129.7841
  0
SEQEND
  0
POLYLINE
  8
LAYER_1
 40
0.1552
 41
0.1552
 66
1
 10
0
 20
0
 30
0
  0
VERTEX
  8
LAYER_1
 10
218.7141
 20
129.7841
  0
SEQEND
  0
POLYLINE
  8
LAYER_1
 40
0.1552
 41
0.1552
 66
1
 10
0
 20
0
 30
0
  0
VERTEX
  8
LAYER_1
 10
218.7141
 20
135.285
  0
SEQEND
  0
POLYLINE
  8
LAYER_1
 40
0.1552
 41
0.1552
 66
1
 10
0
 20
0
 30
0
  0
VERTEX
  8
LAYER_1
 10
218.7141
 20
129.7841
  0
SEQEND
  0
POLYLINE
  8
LAYER_1
 40
0.1552
 41
0.1552
 66
1
 10
0
 20
0
 30
0
  0
VERTEX
  8
LAYER_1
 10
213.183
 20
135.285
  0
SEQEND
  0
POLYLINE
  8
LAYER_1
 40
0.7514
 41
0.7514
 66
1
 10
0
 20
0
 30
0
  0
VERTEX
  8
LAYER_1
 10
218.7141
 20
167.7461
  0
VERTEX
  8
LAYER_1
 10
218.7141
 20
175.7255
  0
SEQEND
  0
INSERT
  8
LAYER_1
  2
AIGNBL01010028
 10
0
 20
0
 30
0
  0
POLYLINE
  8
LAYER_1
 40
0.2752
 41
0.2752
 66
1
 10
0
 20
0
 30
0
 70
1
  0
VERTEX
  8
LAYER_1
 10
213.1831
 20
168.2902
  0
VERTEX
  8
LAYER_1
 10
218.7142
 20
168.2902
  0
VERTEX
  8
LAYER_1
 10
218.7142
 20
167.7462
  0
VERTEX
  8
LAYER_1
 10
213.1831
 20
167.7462
  0
SEQEND
  0
POLYLINE
  8
LAYER_1
 40
0.2752
 41
0.2752
 66
1
 10
0
 20
0
 30
0
 70
1
  0
VERTEX
  8
LAYER_1
 10
215.2685
 20
153.7522
  0
VERTEX
  8
LAYER_1
 10
215.2685
 20
167.746
  0
VERTEX
  8
LAYER_1
 10
213.1831
 20
167.746
  0
VERTEX
  8
LAYER_1
 10
213.1831
 20
153.7522
  0
VERTEX
  8
LAYER_1
 10
213.183
 20
153.7522
  0
VERTEX
  8
LAYER_1
 10
213.183
 20
135.285
  0
VERTEX
  8
LAYER_1
 10
215.2684
 20
135.285
  0
VERTEX
  8
LAYER_1
 10
215.2684
 20
153.7522
  0
SEQEND
  0
POLYLINE
  8
LAYER_1
 40
0.2752
 41
0.2752
 66
1
 10
0
 20
0
 30
0
 70
1
  0
VERTEX
  8
LAYER_1
 10
213.2133
 20
135.285
  0
VERTEX
  8
LAYER_1
 10
218.7142
 20
135.285
  0
VERTEX
  8
LAYER_1
 10
218.7142
 20
134.741
  0
VERTEX
  8
LAYER_1
 10
213.2133
 20
134.741
  0
SEQEND
  0
POLYLINE
  8
LAYER_1
 40
0.1058
 41
0.1058
 66
1
 10
0
 20
0
 30
0
  0
VERTEX
  8
LAYER_1
 10
214.3315
 20
162.7591
  0
VERTEX
  8
LAYER_1
 10
214.1199
 20
162.7591
  0
SEQEND
  0
POLYLINE
  8
LAYER_1
 40
0.1058
 41
0.1058
 66
1
 10
0
 20
0
 30
0
  0
VERTEX
  8
LAYER_1
 10
213.183
 20
162.7591
  0
VERTEX
  8
LAYER_1
 10
212.2763
 20
162.7591
  0
SEQEND
  0
POLYLINE
  8
LAYER_1
 40
0.05
 41
0.05
 66
1
 10
0
 20
0
 30
0
 70
1
  0
VERTEX
  8
LAYER_1
 10
214.3315
 20
162.9102
  0
VERTEX
  8
LAYER_1
 10
214.3315
 20
162.5779
  0
VERTEX
  8
LAYER_1
 10
215.2684
 20
162.759
  0
SEQEND
  0
POLYLINE
  8
LAYER_1
 66
1
 10
0
 20
0
 30
0
 70
1
  0
VERTEX
  8
LAYER_1
 10
214.3315
 20
162.9102
  0
VERTEX
  8
LAYER_1
 10
214.3315
 20
162.5779
  0
VERTEX
  8
LAYER_1
 10
215.2684
 20
162.759
  0
SEQEND
  0
POLYLINE
  8
LAYER_1
 40
0.05
 41
0.05
 66
1
 10
0
 20
0
 30
0
 70
1
  0
VERTEX
  8
LAYER_1
 10
214.12
 20
162.9102
  0
VERTEX
  8
LAYER_1
 10
214.12
 20
162.5779
  0
VERTEX
  8
LAYER_1
 10
213.1831
 20
162.759
  0
SEQEND
  0
POLYLINE
  8
LAYER_1
 66
1
 10
0
 20
0
 30
0
 70
1
  0
VERTEX
  8
LAYER_1
 10
214.12
 20
162.9102
  0
VERTEX
  8
LAYER_1
 10
214.12
 20
162.5779
  0
VERTEX
  8
LAYER_1
 10
213.1831
 20
162.759
  0
SEQEND
  0
TEXT
  8
LAYER_1
 10
206.7452
 20
160.9462
 11
206.7452
 21
160.9462
 40
5.4412
 41
0.5
  1
15
  0
POLYLINE
  8
LAYER_1
 40
0.1058
 41
0.1058
 66
1
 10
0
 20
0
 30
0
  0
VERTEX
  8
LAYER_1
 10
214.12
 20
158.981
  0
VERTEX
  8
LAYER_1
 10
217.777
 20
158.981
  0
SEQEND
  0
POLYLINE
  8
LAYER_1
 40
0.1058
 41
0.1058
 66
1
 10
0
 20
0
 30
0
  0
VERTEX
  8
LAYER_1
 10
218.7141
 20
158.981
  0
VERTEX
  8
LAYER_1
 10
219.6208
 20
158.981
  0
SEQEND
  0
POLYLINE
  8
LAYER_1
 40
0.05
 41
0.05
 66
1
 10
0
 20
0
 30
0
 70
1
  0
VERTEX
  8
LAYER_1
 10
214.12
 20
159.1322
  0
VERTEX
  8
LAYER_1
 10
214.12
 20
158.83
  0
VERTEX
  8
LAYER_1
 10
213.1831
 20
158.981
  0
SEQEND
  0
POLYLINE
  8
LAYER_1
 66
1
 10
0
 20
0
 30
0
 70
1
  0
VERTEX
  8
LAYER_1
 10
214.12
 20
159.1322
  0
VERTEX
  8
LAYER_1
 10
214.12
 20
158.83
  0
VERTEX
  8
LAYER_1
 10
213.1831
 20
158.981
  0
SEQEND
  0
POLYLINE
  8
LAYER_1
 40
0.05
 41
0.05
 66
1
 10
0
 20
0
 30
0
 70
1
  0
VERTEX
  8
LAYER_1
 10
217.7771
 20
159.1322
  0
VERTEX
  8
LAYER_1
 10
217.7771
 20
158.83
  0
VERTEX
  8
LAYER_1
 10
218.714
 20
158.981
  0
SEQEND
  0
POLYLINE
  8
LAYER_1
 66
1
 10
0
 20
0
 30
0
 70
1
  0
VERTEX
  8
LAYER_1
 10
217.7771
 20
159.1322
  0
VERTEX
  8
LAYER_1
 10
217.7771
 20
158.83
  0
VERTEX
  8
LAYER_1
 10
218.714
 20
158.981
  0
SEQEND
  0
TEXT
  8
LAYER_1
 10
219.5906
 20
157.1682
 11
219.5906
 21
157.1682
 40
5.4412
 41
0.5
  1
40
  0
POLYLINE
  8
LAYER_1
 40
0.1058
 41
0.1058
 66
1
 10
0
 20
0
 30
0
  0
VERTEX
  8
LAYER_1
 10
216.1752
 20
146.6797
  0
VERTEX
  8
LAYER_1
 10
217.8073
 20
146.6797
  0
SEQEND
  0
POLYLINE
  8
LAYER_1
 40
0.1058
 41
0.1058
 66
1
 10
0
 20
0
 30
0
  0
VERTEX
  8
LAYER_1
 10
218.7141
 20
146.6797
  0
VERTEX
  8
LAYER_1
 10
222.1596
 20
146.6797
  0
SEQEND
  0
POLYLINE
  8
LAYER_1
 40
0.05
 41
0.05
 66
1
 10
0
 20
0
 30
0
 70
1
  0
VERTEX
  8
LAYER_1
 10
216.1752
 20
146.8308
  0
VERTEX
  8
LAYER_1
 10
216.1752
 20
146.5286
  0
VERTEX
  8
LAYER_1
 10
215.2685
 20
146.6796
  0
SEQEND
  0
POLYLINE
  8
LAYER_1
 66
1
 10
0
 20
0
 30
0
 70
1
  0
VERTEX
  8
LAYER_1
 10
216.1752
 20
146.8308
  0
VERTEX
  8
LAYER_1
 10
216.1752
 20
146.5286
  0
VERTEX
  8
LAYER_1
 10
215.2685
 20
146.6796
  0
SEQEND
  0
POLYLINE
  8
LAYER_1
 40
0.05
 41
0.05
 66
1
 10
0
 20
0
 30
0
 70
1
  0
VERTEX
  8
LAYER_1
 10
217.8073
 20
146.8308
  0
VERTEX
  8
LAYER_1
 10
217.8073
 20
146.5286
  0
VERTEX
  8
LAYER_1
 10
218.7141
 20
146.6796
  0
SEQEND
  0
POLYLINE
  8
LAYER_1
 66
1
 10
0
 20
0
 30
0
 70
1
  0
VERTEX
  8
LAYER_1
 10
217.8073
 20
146.8308
  0
VERTEX
  8
LAYER_1
 10
217.8073
 20
146.5286
  0
VERTEX
  8
LAYER_1
 10
218.7141
 20
146.6796
  0
SEQEND
  0
TEXT
  8
LAYER_1
 10
222.0387
 20
144.8669
 11
222.0387
 21
144.8669
 40
5.4412
 41
0.5
  1
25
  0
POLYLINE
  8
LAYER_1
 40
0.1058
 41
0.1058
 66
1
 10
0
 20
0
 30
0
  0
VERTEX
  8
LAYER_1
 10
192.0516
 20
118.1846
  0
VERTEX
  8
LAYER_1
 10
188.4541
 20
118.1846
  0
SEQEND
  0
POLYLINE
  8
LAYER_1
 40
0.1058
 41
0.1058
 66
1
 10
0
 20
0
 30
0
  0
VERTEX
  8
LAYER_1
 10
192.0516
 20
94.1846
  0
VERTEX
  8
LAYER_1
 10
188.4541
 20
94.1846
  0
SEQEND
  0
POLYLINE
  8
LAYER_1
 40
0.1058
 41
0.1058
 66
1
 10
0
 20
0
 30
0
  0
VERTEX
  8
LAYER_1
 10
136.0676
 20
103.4493
  0
VERTEX
  8
LAYER_1
 10
158.6878
 20
103.4493
  0
SEQEND
  0
POLYLINE
  8
LAYER_1
 40
0.1058
 41
0.1058
 66
1
 10
0
 20
0
 30
0
  0
VERTEX
  8
LAYER_1
 10
186.9757
 20
103.4493
  0
VERTEX
  8
LAYER_1
 10
164.3062
 20
103.4493
  0
SEQEND
  0
POLYLINE
  8
LAYER_1
 40
0.05
 41
0.05
 66
1
 10
0
 20
0
 30
0
 70
1
  0
VERTEX
  8
LAYER_1
 10
136.0676
 20
103.6957
  0
VERTEX
  8
LAYER_1
 10
136.0676
 20
103.2031
  0
VERTEX
  8
LAYER_1
 10
134.5399
 20
103.4492
  0
SEQEND
  0
POLYLINE
  8
LAYER_1
 66
1
 10
0
 20
0
 30
0
 70
1
  0
VERTEX
  8
LAYER_1
 10
136.0676
 20
103.6957
  0
VERTEX
  8
LAYER_1
 10
136.0676
 20
103.2031
  0
VERTEX
  8
LAYER_1
 10
134.5399
 20
103.4492
  0
SEQEND
  0
POLYLINE
  8
LAYER_1
 40
0.05
 41
0.05
 66
1
 10
0
 20
0
 30
0
 70
1
  0
VERTEX
  8
LAYER_1
 10
186.9757
 20
103.6957
  0
VERTEX
  8
LAYER_1
 10
186.9757
 20
103.2031
  0
VERTEX
  8
LAYER_1
 10
188.4541
 20
103.4492
  0
SEQEND
  0
POLYLINE
  8
LAYER_1
 66
1
 10
0
 20
0
 30
0
 70
1
  0
VERTEX
  8
LAYER_1
 10
186.9757
 20
103.6957
  0
VERTEX
  8
LAYER_1
 10
186.9757
 20
103.2031
  0
VERTEX
  8
LAYER_1
 10
188.4541
 20
103.4492
  0
SEQEND
  0
TEXT
  8
LAYER_1
 10
158.5894
 20
102.2173
 11
158.5894
 21
102.2173
 40
3.6967
 41
0.5
  1
540
  0
POLYLINE
  8
LAYER_1
 40
0.1058
 41
0.1058
 66
1
 10
0
 20
0
 30
0
  0
VERTEX
  8
LAYER_1
 10
159.6735
 20
79.7448
  0
VERTEX
  8
LAYER_1
 10
159.6735
 20
84.0324
  0
SEQEND
  0
POLYLINE
  8
LAYER_1
 40
0.1058
 41
0.1058
 66
1
 10
0
 20
0
 30
0
  0
VERTEX
  8
LAYER_1
 10
159.6735
 20
93.7408
  0
VERTEX
  8
LAYER_1
 10
159.6735
 20
89.4532
  0
SEQEND
  0
POLYLINE
  8
LAYER_1
 40
0.05
 41
0.05
 66
1
 10
0
 20
0
 30
0
 70
1
  0
VERTEX
  8
LAYER_1
 10
159.4271
 20
79.7448
  0
VERTEX
  8
LAYER_1
 10
159.9198
 20
79.7448
  0
VERTEX
  8
LAYER_1
 10
159.6737
 20
78.2664
  0
SEQEND
  0
POLYLINE
  8
LAYER_1
 66
1
 10
0
 20
0
 30
0
 70
1
  0
VERTEX
  8
LAYER_1
 10
159.4271
 20
79.7448
  0
VERTEX
  8
LAYER_1
 10
159.9198
 20
79.7448
  0
VERTEX
  8
LAYER_1
 10
159.6737
 20
78.2664
  0
SEQEND
  0
POLYLINE
  8
LAYER_1
 40
0.05
 41
0.05
 66
1
 10
0
 20
0
 30
0
 70
1
  0
VERTEX
  8
LAYER_1
 10
159.4271
 20
93.7408
  0
VERTEX
  8
LAYER_1
 10
159.9198
 20
93.7408
  0
VERTEX
  8
LAYER_1
 10
159.6737
 20
95.2193
  0
SEQEND
  0
POLYLINE
  8
LAYER_1
 66
1
 10
0
 20
0
 30
0
 70
1
  0
VERTEX
  8
LAYER_1
 10
159.4271
 20
93.7408
  0
VERTEX
  8
LAYER_1
 10
159.9198
 20
93.7408
  0
VERTEX
  8
LAYER_1
 10
159.6737
 20
95.2193
  0
SEQEND
  0
TEXT
  8
LAYER_1
 10
160.9058
 20
83.7371
 11
160.9058
 21
83.7371
 40
3.6967
 41
0.5
 50
89.99999999
  1
170
  0
POLYLINE
  8
LAYER_1
 40
0.1058
 41
0.1058
 66
1
 10
0
 20
0
 30
0
  0
VERTEX
  8
LAYER_1
 10
134.5398
 20
94.1843
  0
VERTEX
  8
LAYER_1
 10
134.5398
 20
103.4491
  0
SEQEND
  0
POLYLINE
  8
LAYER_1
 40
0.1058
 41
0.1058
 66
1
 10
0
 20
0
 30
0
  0
VERTEX
  8
LAYER_1
 10
181.9982
 20
97.4862
  0
VERTEX
  8
LAYER_1
 10
182.639
 20
97.4862
  0
SEQEND
  0
POLYLINE
  8
LAYER_1
 40
0.1058
 41
0.1058
 66
1
 10
0
 20
0
 30
0
  0
VERTEX
  8
LAYER_1
 10
186.9757
 20
97.4862
  0
VERTEX
  8
LAYER_1
 10
186.3349
 20
97.4862
  0
SEQEND
  0
POLYLINE
  8
LAYER_1
 40
0.05
 41
0.05
 66
1
 10
0
 20
0
 30
0
 70
1
  0
VERTEX
  8
LAYER_1
 10
181.9982
 20
97.7327
  0
VERTEX
  8
LAYER_1
 10
181.9982
 20
97.24
  0
VERTEX
  8
LAYER_1
 10
180.4706
 20
97.4861
  0
SEQEND
  0
POLYLINE
  8
LAYER_1
 66
1
 10
0
 20
0
 30
0
 70
1
  0
VERTEX
  8
LAYER_1
 10
181.9982
 20
97.7327
  0
VERTEX
  8
LAYER_1
 10
181.9982
 20
97.24
  0
VERTEX
  8
LAYER_1
 10
180.4706
 20
97.4861
  0
SEQEND
  0
POLYLINE
  8
LAYER_1
 40
0.05
 41
0.05
 66
1
 10
0
 20
0
 30
0
 70
1
  0
VERTEX
  8
LAYER_1
 10
186.9757
 20
97.7327
  0
VERTEX
  8
LAYER_1
 10
186.9757
 20
97.24
  0
VERTEX
  8
LAYER_1
 10
188.4541
 20
97.4861
  0
SEQEND
  0
POLYLINE
  8
LAYER_1
 66
1
 10
0
 20
0
 30
0
 70
1
  0
VERTEX
  8
LAYER_1
 10
186.9757
 20
97.7327
  0
VERTEX
  8
LAYER_1
 10
186.9757
 20
97.24
  0
VERTEX
  8
LAYER_1
 10
188.4541
 20
97.4861
  0
SEQEND
  0
TEXT
  8
LAYER_1
 10
182.5404
 20
96.2542
 11
182.5404
 21
96.2542
 40
3.6967
 41
0.5
  1
80
  0
POLYLINE
  8
LAYER_1
 40
0.1058
 41
0.1058
 66
1
 10
0
 20
0
 30
0
  0
VERTEX
  8
LAYER_1
 10
180.4705
 20
97.4862
  0
VERTEX
  8
LAYER_1
 10
180.4705
 20
94.7759
  0
SEQEND
  0
POLYLINE
  8
LAYER_1
 40
0.1552
 41
0.1552
 66
1
 10
0
 20
0
 30
0
  0
VERTEX
  8
LAYER_1
 10
60.2866
 20
210.376
  0
VERTEX
  8
LAYER_1
 10
60.3358
 20
210.376
  0
VERTEX
  8
LAYER_1
 10
60.385
 20
210.376
  0
VERTEX
  8
LAYER_1
 10
60.4342
 20
210.376
  0
VERTEX
  8
LAYER_1
 10
60.4839
 20
210.376
  0
VERTEX
  8
LAYER_1
 10
60.5823
 20
210.376
  0
VERTEX
  8
LAYER_1
 10
60.73
 20
210.376
  0
VERTEX
  8
LAYER_1
 10
60.8284
 20
210.376
  0
VERTEX
  8
LAYER_1
 10
60.9766
 20
210.376
  0
VERTEX
  8
LAYER_1
 10
61.1242
 20
210.376
  0
VERTEX
  8
LAYER_1
 10
61.3216
 20
210.376
  0
VERTEX
  8
LAYER_1
 10
61.5184
 20
210.376
  0
VERTEX
  8
LAYER_1
 10
61.7158
 20
210.376
  0
VERTEX
  8
LAYER_1
 10
61.9127
 20
210.376
  0
VERTEX
  8
LAYER_1
 10
62.1592
 20
210.376
  0
VERTEX
  8
LAYER_1
 10
62.4058
 20
210.376
  0
VERTEX
  8
LAYER_1
 10
62.6523
 20
210.376
  0
VERTEX
  8
LAYER_1
 10
62.8984
 20
210.376
  0
VERTEX
  8
LAYER_1
 10
63.49
 20
210.376
  0
VERTEX
  8
LAYER_1
 10
64.1307
 20
210.376
  0
VERTEX
  8
LAYER_1
 10
64.8203
 20
210.376
  0
VERTEX
  8
LAYER_1
 10
65.5103
 20
210.376
  0
VERTEX
  8
LAYER_1
 10
66.2991
 20
210.376
  0
VERTEX
  8
LAYER_1
 10
67.0876
 20
210.376
  0
VERTEX
  8
LAYER_1
 10
67.9252
 20
210.376
  0
VERTEX
  8
LAYER_1
 10
68.8121
 20
210.376
  0
VERTEX
  8
LAYER_1
 10
69.6994
 20
210.376
  0
VERTEX
  8
LAYER_1
 10
70.6852
 20
210.376
  0
VERTEX
  8
LAYER_1
 10
71.6213
 20
210.376
  0
VERTEX
  8
LAYER_1
 10
72.6563
 20
210.376
  0
VERTEX
  8
LAYER_1
 10
73.6421
 20
210.376
  0
VERTEX
  8
LAYER_1
 10
74.7263
 20
210.376
  0
VERTEX
  8
LAYER_1
 10
75.7612
 20
210.376
  0
VERTEX
  8
LAYER_1
 10
76.8455
 20
210.376
  0
VERTEX
  8
LAYER_1
 10
77.9297
 20
210.376
  0
VERTEX
  8
LAYER_1
 10
80.1965
 20
210.376
  0
VERTEX
  8
LAYER_1
 10
82.4634
 20
210.376
  0
VERTEX
  8
LAYER_1
 10
84.7302
 20
210.376
  0
VERTEX
  8
LAYER_1
 10
87.0468
 20
210.376
  0
VERTEX
  8
LAYER_1
 10
89.3136
 20
210.376
  0
VERTEX
  8
LAYER_1
 10
91.5313
 20
210.376
  0
VERTEX
  8
LAYER_1
 10
92.6647
 20
210.376
  0
VERTEX
  8
LAYER_1
 10
93.7489
 20
210.376
  0
VERTEX
  8
LAYER_1
 10
94.7839
 20
210.376
  0
VERTEX
  8
LAYER_1
 10
95.8681
 20
210.376
  0
VERTEX
  8
LAYER_1
 10
96.8539
 20
210.376
  0
VERTEX
  8
LAYER_1
 10
97.8884
 20
210.376
  0
VERTEX
  8
LAYER_1
 10
98.8249
 20
210.376
  0
VERTEX
  8
LAYER_1
 10
99.7615
 20
210.376
  0
VERTEX
  8
LAYER_1
 10
100.6976
 20
210.376
  0
VERTEX
  8
LAYER_1
 10
101.5849
 20
210.376
  0
VERTEX
  8
LAYER_1
 10
102.4226
 20
210.376
  0
VERTEX
  8
LAYER_1
 10
103.211
 20
210.376
  0
VERTEX
  8
LAYER_1
 10
103.9994
 20
210.376
  0
VERTEX
  8
LAYER_1
 10
104.6894
 20
210.376
  0
VERTEX
  8
LAYER_1
 10
105.3794
 20
210.376
  0
VERTEX
  8
LAYER_1
 10
106.0202
 20
210.376
  0
VERTEX
  8
LAYER_1
 10
106.6113
 20
210.376
  0
VERTEX
  8
LAYER_1
 10
106.8578
 20
210.376
  0
VERTEX
  8
LAYER_1
 10
107.1044
 20
210.376
  0
VERTEX
  8
LAYER_1
 10
107.3505
 20
210.376
  0
VERTEX
  8
LAYER_1
 10
107.5971
 20
210.376
  0
VERTEX
  8
LAYER_1
 10
107.7944
 20
210.376
  0
VERTEX
  8
LAYER_1
 10
107.9913
 20
210.376
  0
VERTEX
  8
LAYER_1
 10
108.1886
 20
210.376
  0
VERTEX
  8
LAYER_1
 10
108.3855
 20
210.376
  0
VERTEX
  8
LAYER_1
 10
108.5336
 20
210.376
  0
VERTEX
  8
LAYER_1
 10
108.6813
 20
210.376
  0
VERTEX
  8
LAYER_1
 10
108.7797
 20
210.376
  0
VERTEX
  8
LAYER_1
 10
108.9278
 20
210.376
  0
VERTEX
  8
LAYER_1
 10
109.0263
 20
210.376
  0
VERTEX
  8
LAYER_1
 10
109.0755
 20
210.376
  0
VERTEX
  8
LAYER_1
 10
109.1247
 20
210.376
  0
VERTEX
  8
LAYER_1
 10
109.1739
 20
210.376
  0
VERTEX
  8
LAYER_1
 10
109.2236
 20
210.376
  0
VERTEX
  8
LAYER_1
 10
109.322
 20
210.376
  0
VERTEX
  8
LAYER_1
 10
109.3713
 20
210.376
  0
VERTEX
  8
LAYER_1
 10
109.4697
 20
210.3268
  0
VERTEX
  8
LAYER_1
 10
109.5189
 20
210.2775
  0
VERTEX
  8
LAYER_1
 10
109.6178
 20
210.2283
  0
VERTEX
  8
LAYER_1
 10
109.667
 20
210.1295
  0
VERTEX
  8
LAYER_1
 10
109.667
 20
210.0802
  0
VERTEX
  8
LAYER_1
 10
109.7163
 20
209.9818
  0
VERTEX
  8
LAYER_1
 10
109.7163
 20
209.8833
  0
VERTEX
  8
LAYER_1
 10
109.7163
 20
209.8337
  0
VERTEX
  8
LAYER_1
 10
109.7163
 20
209.7844
  0
VERTEX
  8
LAYER_1
 10
109.7163
 20
209.7352
  0
VERTEX
  8
LAYER_1
 10
109.7163
 20
209.686
  0
VERTEX
  8
LAYER_1
 10
109.7163
 20
209.4891
  0
VERTEX
  8
LAYER_1
 10
109.7163
 20
209.2426
  0
VERTEX
  8
LAYER_1
 10
109.7163
 20
208.996
  0
VERTEX
  8
LAYER_1
 10
109.7163
 20
208.651
  0
VERTEX
  8
LAYER_1
 10
109.7163
 20
208.306
  0
VERTEX
  8
LAYER_1
 10
109.7163
 20
207.9118
  0
VERTEX
  8
LAYER_1
 10
109.7163
 20
207.4683
  0
VERTEX
  8
LAYER_1
 10
109.7163
 20
206.9757
  0
VERTEX
  8
LAYER_1
 10
109.7163
 20
206.4334
  0
VERTEX
  8
LAYER_1
 10
109.7163
 20
205.8915
  0
VERTEX
  8
LAYER_1
 10
109.7163
 20
205.3
  0
VERTEX
  8
LAYER_1
 10
109.7163
 20
204.6592
  0
VERTEX
  8
LAYER_1
 10
109.7163
 20
203.9692
  0
VERTEX
  8
LAYER_1
 10
109.7163
 20
203.2792
  0
VERTEX
  8
LAYER_1
 10
109.7163
 20
202.54
  0
VERTEX
  8
LAYER_1
 10
109.7163
 20
201.8008
  0
VERTEX
  8
LAYER_1
 10
109.7163
 20
201.0123
  0
VERTEX
  8
LAYER_1
 10
109.7163
 20
200.2239
  0
VERTEX
  8
LAYER_1
 10
109.7163
 20
199.3863
  0
VERTEX
  8
LAYER_1
 10
109.7163
 20
198.5481
  0
VERTEX
  8
LAYER_1
 10
109.7163
 20
197.6613
  0
VERTEX
  8
LAYER_1
 10
109.7163
 20
196.7744
  0
VERTEX
  8
LAYER_1
 10
109.7163
 20
195.8378
  0
VERTEX
  8
LAYER_1
 10
109.7163
 20
194.951
  0
VERTEX
  8
LAYER_1
 10
109.7163
 20
194.0144
  0
VERTEX
  8
LAYER_1
 10
109.7163
 20
193.0287
  0
VERTEX
  8
LAYER_1
 10
109.7163
 20
191.1068
  0
VERTEX
  8
LAYER_1
 10
109.7163
 20
189.1357
  0
VERTEX
  8
LAYER_1
 10
109.7163
 20
187.115
  0
VERTEX
  8
LAYER_1
 10
109.7163
 20
183.1231
  0
VERTEX
  8
LAYER_1
 10
109.7163
 20
181.152
  0
VERTEX
  8
LAYER_1
 10
109.7163
 20
179.1805
  0
VERTEX
  8
LAYER_1
 10
109.7163
 20
177.2587
  0
VERTEX
  8
LAYER_1
 10
109.7163
 20
176.2729
  0
VERTEX
  8
LAYER_1
 10
109.7163
 20
175.386
  0
VERTEX
  8
LAYER_1
 10
109.7163
 20
174.4495
  0
VERTEX
  8
LAYER_1
 10
109.7163
 20
173.5626
  0
VERTEX
  8
LAYER_1
 10
109.7163
 20
172.6753
  0
VERTEX
  8
LAYER_1
 10
109.7163
 20
171.7884
  0
VERTEX
  8
LAYER_1
 10
109.7163
 20
170.9507
  0
VERTEX
  8
LAYER_1
 10
109.7163
 20
170.1619
  0
VERTEX
  8
LAYER_1
 10
109.7163
 20
169.3734
  0
VERTEX
  8
LAYER_1
 10
109.7163
 20
168.585
  0
VERTEX
  8
LAYER_1
 10
109.7163
 20
167.8458
  0
VERTEX
  8
LAYER_1
 10
109.7163
 20
167.1558
  0
VERTEX
  8
LAYER_1
 10
109.7163
 20
166.4658
  0
VERTEX
  8
LAYER_1
 10
109.7163
 20
165.825
  0
VERTEX
  8
LAYER_1
 10
109.7163
 20
165.1847
  0
VERTEX
  8
LAYER_1
 10
109.7163
 20
164.6424
  0
VERTEX
  8
LAYER_1
 10
109.7163
 20
164.1005
  0
VERTEX
  8
LAYER_1
 10
109.7163
 20
163.5582
  0
VERTEX
  8
LAYER_1
 10
109.7163
 20
163.1147
  0
VERTEX
  8
LAYER_1
 10
109.7163
 20
162.6713
  0
VERTEX
  8
LAYER_1
 10
109.7163
 20
162.3263
  0
VERTEX
  8
LAYER_1
 10
109.7163
 20
161.9813
  0
VERTEX
  8
LAYER_1
 10
109.7163
 20
161.6855
  0
VERTEX
  8
LAYER_1
 10
109.7163
 20
161.439
  0
VERTEX
  8
LAYER_1
 10
109.7163
 20
161.2421
  0
VERTEX
  8
LAYER_1
 10
109.7163
 20
161.1436
  0
VERTEX
  8
LAYER_1
 10
109.7163
 20
161.094
  0
VERTEX
  8
LAYER_1
 10
109.7163
 20
161.0448
  0
VERTEX
  8
LAYER_1
 10
109.7163
 20
160.9955
  0
VERTEX
  8
LAYER_1
 10
109.7163
 20
160.9463
  0
VERTEX
  8
LAYER_1
 10
109.7163
 20
160.8971
  0
VERTEX
  8
LAYER_1
 10
109.7163
 20
160.7986
  0
VERTEX
  8
LAYER_1
 10
109.667
 20
160.6997
  0
VERTEX
  8
LAYER_1
 10
109.6178
 20
160.6505
  0
VERTEX
  8
LAYER_1
 10
109.5686
 20
160.6013
  0
VERTEX
  8
LAYER_1
 10
109.5189
 20
160.5521
  0
VERTEX
  8
LAYER_1
 10
109.4205
 20
160.5029
  0
VERTEX
  8
LAYER_1
 10
109.322
 20
160.4536
  0
VERTEX
  8
LAYER_1
 10
109.2728
 20
160.4536
  0
VERTEX
  8
LAYER_1
 10
109.2236
 20
160.4536
  0
VERTEX
  8
LAYER_1
 10
109.1739
 20
160.4536
  0
VERTEX
  8
LAYER_1
 10
109.1247
 20
160.4536
  0
VERTEX
  8
LAYER_1
 10
109.0263
 20
160.4536
  0
VERTEX
  8
LAYER_1
 10
108.8786
 20
160.4536
  0
VERTEX
  8
LAYER_1
 10
108.6813
 20
160.4536
  0
VERTEX
  8
LAYER_1
 10
108.4347
 20
160.4536
  0
VERTEX
  8
LAYER_1
 10
108.0897
 20
160.4536
  0
VERTEX
  8
LAYER_1
 10
107.7452
 20
160.4536
  0
VERTEX
  8
LAYER_1
 10
107.3505
 20
160.4536
  0
VERTEX
  8
LAYER_1
 10
106.9071
 20
160.4536
  0
VERTEX
  8
LAYER_1
 10
106.4636
 20
160.4536
  0
VERTEX
  8
LAYER_1
 10
105.9213
 20
160.4536
  0
VERTEX
  8
LAYER_1
 10
105.3794
 20
160.4536
  0
VERTEX
  8
LAYER_1
 10
104.7879
 20
160.4536
  0
VERTEX
  8
LAYER_1
 10
104.1475
 20
160.4536
  0
VERTEX
  8
LAYER_1
 10
103.5068
 20
160.4536
  0
VERTEX
  8
LAYER_1
 10
102.8168
 20
160.4536
  0
VERTEX
  8
LAYER_1
 10
102.1268
 20
160.4536
  0
VERTEX
  8
LAYER_1
 10
101.3384
 20
160.4536
  0
VERTEX
  8
LAYER_1
 10
100.5991
 20
160.4536
  0
VERTEX
  8
LAYER_1
 10
99.7615
 20
160.4536
  0
VERTEX
  8
LAYER_1
 10
98.9726
 20
160.4536
  0
VERTEX
  8
LAYER_1
 10
98.135
 20
160.4536
  0
VERTEX
  8
LAYER_1
 10
97.2481
 20
160.4536
  0
VERTEX
  8
LAYER_1
 10
96.3608
 20
160.4536
  0
VERTEX
  8
LAYER_1
 10
95.4739
 20
160.4536
  0
VERTEX
  8
LAYER_1
 10
94.5373
 20
160.4536
  0
VERTEX
  8
LAYER_1
 10
93.6012
 20
160.4536
  0
VERTEX
  8
LAYER_1
 10
92.6647
 20
160.4536
  0
VERTEX
  8
LAYER_1
 10
90.7428
 20
160.4536
  0
VERTEX
  8
LAYER_1
 10
88.7713
 20
160.4536
  0
VERTEX
  8
LAYER_1
 10
84.7302
 20
160.4536
  0
VERTEX
  8
LAYER_1
 10
80.7384
 20
160.4536
  0
VERTEX
  8
LAYER_1
 10
78.7673
 20
160.4536
  0
VERTEX
  8
LAYER_1
 10
76.8455
 20
160.4536
  0
VERTEX
  8
LAYER_1
 10
75.9089
 20
160.4536
  0
VERTEX
  8
LAYER_1
 10
74.9724
 20
160.4536
  0
VERTEX
  8
LAYER_1
 10
74.0363
 20
160.4536
  0
VERTEX
  8
LAYER_1
 10
73.149
 20
160.4536
  0
VERTEX
  8
LAYER_1
 10
72.2621
 20
160.4536
  0
VERTEX
  8
LAYER_1
 10
71.3748
 20
160.4536
  0
VERTEX
  8
LAYER_1
 10
70.5371
 20
160.4536
  0
VERTEX
  8
LAYER_1
 10
69.6994
 20
160.4536
  0
VERTEX
  8
LAYER_1
 10
68.911
 20
160.4536
  0
VERTEX
  8
LAYER_1
 10
68.1718
 20
160.4536
  0
VERTEX
  8
LAYER_1
 10
67.3834
 20
160.4536
  0
VERTEX
  8
LAYER_1
 10
66.6934
 20
160.4536
  0
VERTEX
  8
LAYER_1
 10
66.0034
 20
160.4536
  0
VERTEX
  8
LAYER_1
 10
65.3134
 20
160.4536
  0
VERTEX
  8
LAYER_1
 10
64.7218
 20
160.4536
  0
VERTEX
  8
LAYER_1
 10
64.1307
 20
160.4536
  0
VERTEX
  8
LAYER_1
 10
63.5884
 20
160.4536
  0
VERTEX
  8
LAYER_1
 10
63.0465
 20
160.4536
  0
VERTEX
  8
LAYER_1
 10
62.6026
 20
160.4536
  0
VERTEX
  8
LAYER_1
 10
62.1592
 20
160.4536
  0
VERTEX
  8
LAYER_1
 10
61.765
 20
160.4536
  0
VERTEX
  8
LAYER_1
 10
61.42
 20
160.4536
  0
VERTEX
  8
LAYER_1
 10
61.075
 20
160.4536
  0
VERTEX
  8
LAYER_1
 10
60.8284
 20
160.4536
  0
VERTEX
  8
LAYER_1
 10
60.6316
 20
160.4536
  0
VERTEX
  8
LAYER_1
 10
60.4839
 20
160.4536
  0
VERTEX
  8
LAYER_1
 10
60.385
 20
160.4536
  0
VERTEX
  8
LAYER_1
 10
60.3358
 20
160.4536
  0
VERTEX
  8
LAYER_1
 10
60.2866
 20
160.4536
  0
VERTEX
  8
LAYER_1
 10
60.2373
 20
160.4536
  0
VERTEX
  8
LAYER_1
 10
60.1389
 20
160.4536
  0
VERTEX
  8
LAYER_1
 10
60.0892
 20
160.5029
  0
VERTEX
  8
LAYER_1
 10
59.9908
 20
160.5521
  0
VERTEX
  8
LAYER_1
 10
59.9416
 20
160.6013
  0
VERTEX
  8
LAYER_1
 10
59.8923
 20
160.6505
  0
VERTEX
  8
LAYER_1
 10
59.8431
 20
160.6997
  0
VERTEX
  8
LAYER_1
 10
59.7939
 20
160.7986
  0
VERTEX
  8
LAYER_1
 10
59.7939
 20
160.8971
  0
VERTEX
  8
LAYER_1
 10
59.7939
 20
160.9463
  0
VERTEX
  8
LAYER_1
 10
59.7939
 20
160.9955
  0
VERTEX
  8
LAYER_1
 10
59.7939
 20
161.0448
  0
VERTEX
  8
LAYER_1
 10
59.7939
 20
161.094
  0
VERTEX
  8
LAYER_1
 10
59.7939
 20
161.1436
  0
VERTEX
  8
LAYER_1
 10
59.7939
 20
161.2421
  0
VERTEX
  8
LAYER_1
 10
59.7939
 20
161.439
  0
VERTEX
  8
LAYER_1
 10
59.7939
 20
161.6855
  0
VERTEX
  8
LAYER_1
 10
59.7939
 20
161.9813
  0
VERTEX
  8
LAYER_1
 10
59.7939
 20
162.3263
  0
VERTEX
  8
LAYER_1
 10
59.7939
 20
162.6713
  0
VERTEX
  8
LAYER_1
 10
59.7939
 20
163.1147
  0
VERTEX
  8
LAYER_1
 10
59.7939
 20
163.5582
  0
VERTEX
  8
LAYER_1
 10
59.7939
 20
164.1005
  0
VERTEX
  8
LAYER_1
 10
59.7939
 20
164.6424
  0
VERTEX
  8
LAYER_1
 10
59.7939
 20
165.1847
  0
VERTEX
  8
LAYER_1
 10
59.7939
 20
165.825
  0
VERTEX
  8
LAYER_1
 10
59.7939
 20
166.4658
  0
VERTEX
  8
LAYER_1
 10
59.7939
 20
167.1558
  0
VERTEX
  8
LAYER_1
 10
59.7939
 20
167.8458
  0
VERTEX
  8
LAYER_1
 10
59.7939
 20
168.585
  0
VERTEX
  8
LAYER_1
 10
59.7939
 20
169.3734
  0
VERTEX
  8
LAYER_1
 10
59.7939
 20
170.1619
  0
VERTEX
  8
LAYER_1
 10
59.7939
 20
170.9507
  0
VERTEX
  8
LAYER_1
 10
59.7939
 20
171.7884
  0
VERTEX
  8
LAYER_1
 10
59.7939
 20
172.6753
  0
VERTEX
  8
LAYER_1
 10
59.7939
 20
173.5626
  0
VERTEX
  8
LAYER_1
 10
59.7939
 20
174.4495
  0
VERTEX
  8
LAYER_1
 10
59.7939
 20
175.386
  0
VERTEX
  8
LAYER_1
 10
59.7939
 20
176.2729
  0
VERTEX
  8
LAYER_1
 10
59.7939
 20
177.2587
  0
VERTEX
  8
LAYER_1
 10
59.7939
 20
179.1805
  0
VERTEX
  8
LAYER_1
 10
59.7939
 20
181.152
  0
VERTEX
  8
LAYER_1
 10
59.7939
 20
183.1231
  0
VERTEX
  8
LAYER_1
 10
59.7939
 20
187.115
  0
VERTEX
  8
LAYER_1
 10
59.7939
 20
189.1357
  0
VERTEX
  8
LAYER_1
 10
59.7939
 20
191.1068
  0
VERTEX
  8
LAYER_1
 10
59.7939
 20
193.0287
  0
VERTEX
  8
LAYER_1
 10
59.7939
 20
194.0144
  0
VERTEX
  8
LAYER_1
 10
59.7939
 20
194.951
  0
VERTEX
  8
LAYER_1
 10
59.7939
 20
195.8378
  0
VERTEX
  8
LAYER_1
 10
59.7939
 20
196.7744
  0
VERTEX
  8
LAYER_1
 10
59.7939
 20
197.6613
  0
VERTEX
  8
LAYER_1
 10
59.7939
 20
198.5481
  0
VERTEX
  8
LAYER_1
 10
59.7939
 20
199.3863
  0
VERTEX
  8
LAYER_1
 10
59.7939
 20
200.2239
  0
VERTEX
  8
LAYER_1
 10
59.7939
 20
201.0123
  0
VERTEX
  8
LAYER_1
 10
59.7939
 20
201.8008
  0
VERTEX
  8
LAYER_1
 10
59.7939
 20
202.54
  0
VERTEX
  8
LAYER_1
 10
59.7939
 20
203.2792
  0
VERTEX
  8
LAYER_1
 10
59.7939
 20
203.9692
  0
VERTEX
  8
LAYER_1
 10
59.7939
 20
204.6592
  0
VERTEX
  8
LAYER_1
 10
59.7939
 20
205.3
  0
VERTEX
  8
LAYER_1
 10
59.7939
 20
205.8915
  0
VERTEX
  8
LAYER_1
 10
59.7939
 20
206.4334
  0
VERTEX
  8
LAYER_1
 10
59.7939
 20
206.9757
  0
VERTEX
  8
LAYER_1
 10
59.7939
 20
207.4683
  0
VERTEX
  8
LAYER_1
 10
59.7939
 20
207.9118
  0
VERTEX
  8
LAYER_1
 10
59.7939
 20
208.306
  0
VERTEX
  8
LAYER_1
 10
59.7939
 20
208.651
  0
VERTEX
  8
LAYER_1
 10
59.7939
 20
208.996
  0
VERTEX
  8
LAYER_1
 10
59.7939
 20
209.2426
  0
VERTEX
  8
LAYER_1
 10
59.7939
 20
209.4891
  0
VERTEX
  8
LAYER_1
 10
59.7939
 20
209.686
  0
VERTEX
  8
LAYER_1
 10
59.7939
 20
209.7352
  0
VERTEX
  8
LAYER_1
 10
59.7939
 20
209.7844
  0
VERTEX
  8
LAYER_1
 10
59.7939
 20
209.8337
  0
VERTEX
  8
LAYER_1
 10
59.7939
 20
209.8833
  0
VERTEX
  8
LAYER_1
 10
59.7939
 20
209.9818
  0
VERTEX
  8
LAYER_1
 10
59.8431
 20
210.0802
  0
VERTEX
  8
LAYER_1
 10
59.8431
 20
210.1295
  0
VERTEX
  8
LAYER_1
 10
59.8923
 20
210.2283
  0
VERTEX
  8
LAYER_1
 10
59.9908
 20
210.2775
  0
VERTEX
  8
LAYER_1
 10
60.04
 20
210.3268
  0
VERTEX
  8
LAYER_1
 10
60.0892
 20
210.376
  0
VERTEX
  8
LAYER_1
 10
60.1881
 20
210.376
  0
VERTEX
  8
LAYER_1
 10
60.2866
 20
210.376
  0
SEQEND
  0
POLYLINE
  8
LAYER_1
 40
0.1552
 41
0.1552
 66
1
 10
0
 20
0
 30
0
  0
VERTEX
  8
LAYER_1
 10
65.7568
 20
183.4188
  0
VERTEX
  8
LAYER_1
 10
65.806
 20
184.0104
  0
VERTEX
  8
LAYER_1
 10
65.806
 20
184.6507
  0
VERTEX
  8
LAYER_1
 10
65.8553
 20
185.2422
  0
VERTEX
  8
LAYER_1
 10
65.9542
 20
185.8338
  0
VERTEX
  8
LAYER_1
 10
66.0034
 20
186.4249
  0
VERTEX
  8
LAYER_1
 10
66.1018
 20
187.0164
  0
VERTEX
  8
LAYER_1
 10
66.2495
 20
187.6075
  0
VERTEX
  8
LAYER_1
 10
66.3976
 20
188.1499
  0
VERTEX
  8
LAYER_1
 10
66.5453
 20
188.7414
  0
VERTEX
  8
LAYER_1
 10
66.6934
 20
189.2833
  0
VERTEX
  8
LAYER_1
 10
66.8903
 20
189.8256
  0
VERTEX
  8
LAYER_1
 10
67.0876
 20
190.3675
  0
VERTEX
  8
LAYER_1
 10
67.3337
 20
190.9098
  0
VERTEX
  8
LAYER_1
 10
67.531
 20
191.4517
  0
VERTEX
  8
LAYER_1
 10
67.7776
 20
191.9444
  0
VERTEX
  8
LAYER_1
 10
68.0729
 20
192.4867
  0
VERTEX
  8
LAYER_1
 10
68.3687
 20
192.9794
  0
VERTEX
  8
LAYER_1
 10
68.6645
 20
193.4724
  0
VERTEX
  8
LAYER_1
 10
68.9602
 20
193.9159
  0
VERTEX
  8
LAYER_1
 10
69.256
 20
194.4085
  0
VERTEX
  8
LAYER_1
 10
69.601
 20
194.852
  0
VERTEX
  8
LAYER_1
 10
69.946
 20
195.2959
  0
VERTEX
  8
LAYER_1
 10
70.3402
 20
195.7393
  0
VERTEX
  8
LAYER_1
 10
70.6852
 20
196.1828
  0
VERTEX
  8
LAYER_1
 10
71.0794
 20
196.577
  0
VERTEX
  8
LAYER_1
 10
71.4736
 20
196.9712
  0
VERTEX
  8
LAYER_1
 10
71.9171
 20
197.3654
  0
VERTEX
  8
LAYER_1
 10
72.3113
 20
197.7596
  0
VERTEX
  8
LAYER_1
 10
72.7547
 20
198.1543
  0
VERTEX
  8
LAYER_1
 10
73.1982
 20
198.4988
  0
VERTEX
  8
LAYER_1
 10
73.6913
 20
198.8438
  0
VERTEX
  8
LAYER_1
 10
74.1347
 20
199.1396
  0
VERTEX
  8
LAYER_1
 10
74.6274
 20
199.4846
  0
VERTEX
  8
LAYER_1
 10
75.1205
 20
199.7804
  0
VERTEX
  8
LAYER_1
 10
75.6131
 20
200.0269
  0
VERTEX
  8
LAYER_1
 10
76.1058
 20
200.3222
  0
VERTEX
  8
LAYER_1
 10
76.6481
 20
200.5688
  0
VERTEX
  8
LAYER_1
 10
77.1408
 20
200.8154
  0
VERTEX
  8
LAYER_1
 10
77.6831
 20
201.0122
  0
VERTEX
  8
LAYER_1
 10
78.225
 20
201.2588
  0
VERTEX
  8
LAYER_1
 10
78.7673
 20
201.4561
  0
VERTEX
  8
LAYER_1
 10
79.3092
 20
201.6038
  0
VERTEX
  8
LAYER_1
 10
79.9008
 20
201.7515
  0
VERTEX
  8
LAYER_1
 10
80.4426
 20
201.8996
  0
VERTEX
  8
LAYER_1
 10
81.0342
 20
202.0472
  0
VERTEX
  8
LAYER_1
 10
81.6257
 20
202.1457
  0
VERTEX
  8
LAYER_1
 10
82.2168
 20
202.2446
  0
VERTEX
  8
LAYER_1
 10
82.8084
 20
202.2938
  0
VERTEX
  8
LAYER_1
 10
83.3999
 20
202.343
  0
VERTEX
  8
LAYER_1
 10
84.0403
 20
202.3922
  0
VERTEX
  8
LAYER_1
 10
84.6318
 20
202.3922
  0
VERTEX
  8
LAYER_1
 10
85.2233
 20
202.3922
  0
VERTEX
  8
LAYER_1
 10
85.8637
 20
202.343
  0
VERTEX
  8
LAYER_1
 10
86.4552
 20
202.343
  0
VERTEX
  8
LAYER_1
 10
87.0468
 20
202.2446
  0
VERTEX
  8
LAYER_1
 10
87.6379
 20
202.1953
  0
VERTEX
  8
LAYER_1
 10
88.2294
 20
202.0965
  0
VERTEX
  8
LAYER_1
 10
88.8205
 20
201.9488
  0
VERTEX
  8
LAYER_1
 10
89.3629
 20
201.8011
  0
VERTEX
  8
LAYER_1
 10
89.9544
 20
201.653
  0
VERTEX
  8
LAYER_1
 10
90.4963
 20
201.5053
  0
VERTEX
  8
LAYER_1
 10
91.0386
 20
201.308
  0
VERTEX
  8
LAYER_1
 10
91.5805
 20
201.1111
  0
VERTEX
  8
LAYER_1
 10
92.1228
 20
200.9138
  0
VERTEX
  8
LAYER_1
 10
92.6647
 20
200.6673
  0
VERTEX
  8
LAYER_1
 10
93.2066
 20
200.4211
  0
VERTEX
  8
LAYER_1
 10
93.6997
 20
200.1746
  0
VERTEX
  8
LAYER_1
 10
94.1924
 20
199.8788
  0
VERTEX
  8
LAYER_1
 10
94.6854
 20
199.583
  0
VERTEX
  8
LAYER_1
 10
95.1781
 20
199.2877
  0
VERTEX
  8
LAYER_1
 10
95.6215
 20
198.9427
  0
VERTEX
  8
LAYER_1
 10
96.1142
 20
198.647
  0
VERTEX
  8
LAYER_1
 10
96.5581
 20
198.2527
  0
VERTEX
  8
LAYER_1
 10
97.0015
 20
197.9077
  0
VERTEX
  8
LAYER_1
 10
97.445
 20
197.5627
  0
VERTEX
  8
LAYER_1
 10
97.8392
 20
197.1685
  0
VERTEX
  8
LAYER_1
 10
98.2334
 20
196.7743
  0
VERTEX
  8
LAYER_1
 10
98.6276
 20
196.3304
  0
VERTEX
  8
LAYER_1
 10
99.0218
 20
195.9362
  0
VERTEX
  8
LAYER_1
 10
99.4165
 20
195.4928
  0
VERTEX
  8
LAYER_1
 10
99.7615
 20
195.0493
  0
VERTEX
  8
LAYER_1
 10
100.1061
 20
194.6059
  0
VERTEX
  8
LAYER_1
 10
100.4018
 20
194.1128
  0
VERTEX
  8
LAYER_1
 10
100.7468
 20
193.6693
  0
VERTEX
  8
LAYER_1
 10
101.0426
 20
193.1767
  0
VERTEX
  8
LAYER_1
 10
101.3384
 20
192.6836
  0
VERTEX
  8
LAYER_1
 10
101.5849
 20
192.1417
  0
VERTEX
  8
LAYER_1
 10
101.8802
 20
191.649
  0
VERTEX
  8
LAYER_1
 10
102.0776
 20
191.1067
  0
VERTEX
  8
LAYER_1
 10
102.3241
 20
190.6141
  0
VERTEX
  8
LAYER_1
 10
102.521
 20
190.0717
  0
VERTEX
  8
LAYER_1
 10
102.7183
 20
189.4806
  0
VERTEX
  8
LAYER_1
 10
102.9152
 20
188.9383
  0
VERTEX
  8
LAYER_1
 10
103.0633
 20
188.3964
  0
VERTEX
  8
LAYER_1
 10
103.211
 20
187.8049
  0
VERTEX
  8
LAYER_1
 10
103.3587
 20
187.263
  0
VERTEX
  8
LAYER_1
 10
103.4576
 20
186.6714
  0
VERTEX
  8
LAYER_1
 10
103.556
 20
186.0799
  0
VERTEX
  8
LAYER_1
 10
103.6052
 20
185.4888
  0
VERTEX
  8
LAYER_1
 10
103.6544
 20
184.8972
  0
VERTEX
  8
LAYER_1
 10
103.7037
 20
184.2565
  0
VERTEX
  8
LAYER_1
 10
103.7037
 20
183.6653
  0
VERTEX
  8
LAYER_1
 10
103.7037
 20
183.0738
  0
VERTEX
  8
LAYER_1
 10
103.7037
 20
182.4331
  0
VERTEX
  8
LAYER_1
 10
103.6544
 20
181.8419
  0
VERTEX
  8
LAYER_1
 10
103.6052
 20
181.2504
  0
VERTEX
  8
LAYER_1
 10
103.5068
 20
180.6588
  0
VERTEX
  8
LAYER_1
 10
103.4083
 20
180.0677
  0
VERTEX
  8
LAYER_1
 10
103.3095
 20
179.4762
  0
VERTEX
  8
LAYER_1
 10
103.211
 20
178.8851
  0
VERTEX
  8
LAYER_1
 10
103.0633
 20
178.3428
  0
VERTEX
  8
LAYER_1
 10
102.866
 20
177.7512
  0
VERTEX
  8
LAYER_1
 10
102.6691
 20
177.2093
  0
VERTEX
  8
LAYER_1
 10
102.4718
 20
176.667
  0
VERTEX
  8
LAYER_1
 10
102.2745
 20
176.1251
  0
VERTEX
  8
LAYER_1
 10
102.0284
 20
175.5828
  0
VERTEX
  8
LAYER_1
 10
101.7818
 20
175.0901
  0
VERTEX
  8
LAYER_1
 10
101.5353
 20
174.5975
  0
VERTEX
  8
LAYER_1
 10
101.2891
 20
174.0552
  0
VERTEX
  8
LAYER_1
 10
100.9934
 20
173.5625
  0
VERTEX
  8
LAYER_1
 10
100.6976
 20
173.0698
  0
VERTEX
  8
LAYER_1
 10
100.3526
 20
172.626
  0
VERTEX
  8
LAYER_1
 10
100.0076
 20
172.1333
  0
VERTEX
  8
LAYER_1
 10
99.6626
 20
171.6899
  0
VERTEX
  8
LAYER_1
 10
99.3176
 20
171.246
  0
VERTEX
  8
LAYER_1
 10
98.9726
 20
170.8025
  0
VERTEX
  8
LAYER_1
 10
98.5784
 20
170.4083
  0
VERTEX
  8
LAYER_1
 10
98.1842
 20
170.0141
  0
VERTEX
  8
LAYER_1
 10
97.7407
 20
169.6199
  0
VERTEX
  8
LAYER_1
 10
97.3465
 20
169.2257
  0
VERTEX
  8
LAYER_1
 10
96.9031
 20
168.8314
  0
VERTEX
  8
LAYER_1
 10
96.4592
 20
168.4865
  0
VERTEX
  8
LAYER_1
 10
96.0158
 20
168.1414
  0
VERTEX
  8
LAYER_1
 10
95.5723
 20
167.7965
  0
VERTEX
  8
LAYER_1
 10
95.0797
 20
167.5007
  0
VERTEX
  8
LAYER_1
 10
94.5866
 20
167.2049
  0
VERTEX
  8
LAYER_1
 10
94.0939
 20
166.9096
  0
VERTEX
  8
LAYER_1
 10
93.6012
 20
166.6138
  0
VERTEX
  8
LAYER_1
 10
93.0589
 20
166.3673
  0
VERTEX
  8
LAYER_1
 10
92.5663
 20
166.1207
  0
VERTEX
  8
LAYER_1
 10
92.0239
 20
165.8746
  0
VERTEX
  8
LAYER_1
 10
91.482
 20
165.6773
  0
VERTEX
  8
LAYER_1
 10
90.9397
 20
165.4804
  0
VERTEX
  8
LAYER_1
 10
90.3978
 20
165.2831
  0
VERTEX
  8
LAYER_1
 10
89.8555
 20
165.1354
  0
VERTEX
  8
LAYER_1
 10
89.2644
 20
164.9873
  0
VERTEX
  8
LAYER_1
 10
88.6729
 20
164.8396
  0
VERTEX
  8
LAYER_1
 10
88.131
 20
164.7412
  0
VERTEX
  8
LAYER_1
 10
87.5394
 20
164.6423
  0
VERTEX
  8
LAYER_1
 10
86.9479
 20
164.5438
  0
VERTEX
  8
LAYER_1
 10
86.3568
 20
164.4946
  0
VERTEX
  8
LAYER_1
 10
85.716
 20
164.4454
  0
VERTEX
  8
LAYER_1
 10
85.1245
 20
164.4454
  0
VERTEX
  8
LAYER_1
 10
84.4837
 20
164.4454
  0
VERTEX
  8
LAYER_1
 10
83.8926
 20
164.4454
  0
VERTEX
  8
LAYER_1
 10
83.301
 20
164.4946
  0
VERTEX
  8
LAYER_1
 10
82.7099
 20
164.5438
  0
VERTEX
  8
LAYER_1
 10
82.1184
 20
164.6423
  0
VERTEX
  8
LAYER_1
 10
81.5268
 20
164.6915
  0
VERTEX
  8
LAYER_1
 10
80.9357
 20
164.8396
  0
VERTEX
  8
LAYER_1
 10
80.3442
 20
164.938
  0
VERTEX
  8
LAYER_1
 10
79.8023
 20
165.0862
  0
VERTEX
  8
LAYER_1
 10
79.2108
 20
165.2831
  0
VERTEX
  8
LAYER_1
 10
78.6689
 20
165.4307
  0
VERTEX
  8
LAYER_1
 10
78.1266
 20
165.628
  0
VERTEX
  8
LAYER_1
 10
77.5847
 20
165.8254
  0
VERTEX
  8
LAYER_1
 10
77.0423
 20
166.0715
  0
VERTEX
  8
LAYER_1
 10
76.5497
 20
166.318
  0
VERTEX
  8
LAYER_1
 10
76.0074
 20
166.5646
  0
VERTEX
  8
LAYER_1
 10
75.5147
 20
166.8599
  0
VERTEX
  8
LAYER_1
 10
75.0216
 20
167.1065
  0
VERTEX
  8
LAYER_1
 10
74.5289
 20
167.4515
  0
VERTEX
  8
LAYER_1
 10
74.0363
 20
167.7472
  0
VERTEX
  8
LAYER_1
 10
73.5928
 20
168.0922
  0
VERTEX
  8
LAYER_1
 10
73.149
 20
168.4372
  0
VERTEX
  8
LAYER_1
 10
72.7055
 20
168.7822
  0
VERTEX
  8
LAYER_1
 10
72.2621
 20
169.1272
  0
VERTEX
  8
LAYER_1
 10
71.8186
 20
169.5214
  0
VERTEX
  8
LAYER_1
 10
71.4244
 20
169.9157
  0
VERTEX
  8
LAYER_1
 10
71.0302
 20
170.3099
  0
VERTEX
  8
LAYER_1
 10
70.6355
 20
170.7533
  0
VERTEX
  8
LAYER_1
 10
70.2413
 20
171.1475
  0
VERTEX
  8
LAYER_1
 10
69.8963
 20
171.591
  0
VERTEX
  8
LAYER_1
 10
69.5513
 20
172.0841
  0
VERTEX
  8
LAYER_1
 10
69.2063
 20
172.5275
  0
VERTEX
  8
LAYER_1
 10
68.911
 20
173.0202
  0
VERTEX
  8
LAYER_1
 10
68.566
 20
173.464
  0
VERTEX
  8
LAYER_1
 10
68.2702
 20
173.9567
  0
VERTEX
  8
LAYER_1
 10
68.0237
 20
174.4494
  0
VERTEX
  8
LAYER_1
 10
67.7279
 20
174.9917
  0
VERTEX
  8
LAYER_1
 10
67.4818
 20
175.4844
  0
VERTEX
  8
LAYER_1
 10
67.2845
 20
176.0267
  0
VERTEX
  8
LAYER_1
 10
67.0384
 20
176.5686
  0
VERTEX
  8
LAYER_1
 10
66.841
 20
177.1109
  0
VERTEX
  8
LAYER_1
 10
66.6437
 20
177.6528
  0
VERTEX
  8
LAYER_1
 10
66.496
 20
178.2443
  0
VERTEX
  8
LAYER_1
 10
66.3484
 20
178.7862
  0
VERTEX
  8
LAYER_1
 10
66.2003
 20
179.3777
  0
VERTEX
  8
LAYER_1
 10
66.1018
 20
179.9196
  0
VERTEX
  8
LAYER_1
 10
66.0034
 20
180.5112
  0
VERTEX
  8
LAYER_1
 10
65.9045
 20
181.1027
  0
VERTEX
  8
LAYER_1
 10
65.8553
 20
181.6938
  0
VERTEX
  8
LAYER_1
 10
65.806
 20
182.3346
  0
VERTEX
  8
LAYER_1
 10
65.806
 20
182.9262
  0
VERTEX
  8
LAYER_1
 10
65.7568
 20
183.2215
  0
VERTEX
  8
LAYER_1
 10
65.7568
 20
183.3696
  0
VERTEX
  8
LAYER_1
 10
65.7568
 20
183.4188
  0
SEQEND
  0
POLYLINE
  8
LAYER_1
 40
0.1552
 41
0.1552
 66
1
 10
0
 20
0
 30
0
  0
VERTEX
  8
LAYER_1
 10
67.3339
 20
183.4188
  0
VERTEX
  8
LAYER_1
 10
67.3339
 20
183.9607
  0
VERTEX
  8
LAYER_1
 10
67.3339
 20
184.5522
  0
VERTEX
  8
LAYER_1
 10
67.3831
 20
185.0946
  0
VERTEX
  8
LAYER_1
 10
67.4323
 20
185.6365
  0
VERTEX
  8
LAYER_1
 10
67.5312
 20
186.1788
  0
VERTEX
  8
LAYER_1
 10
67.6296
 20
186.7207
  0
VERTEX
  8
LAYER_1
 10
67.7281
 20
187.263
  0
VERTEX
  8
LAYER_1
 10
67.8758
 20
187.7556
  0
VERTEX
  8
LAYER_1
 10
68.0239
 20
188.2975
  0
VERTEX
  8
LAYER_1
 10
68.1715
 20
188.7906
  0
VERTEX
  8
LAYER_1
 10
68.3196
 20
189.3325
  0
VERTEX
  8
LAYER_1
 10
68.5165
 20
189.8256
  0
VERTEX
  8
LAYER_1
 10
68.7139
 20
190.3183
  0
VERTEX
  8
LAYER_1
 10
68.96
 20
190.8109
  0
VERTEX
  8
LAYER_1
 10
69.1573
 20
191.2548
  0
VERTEX
  8
LAYER_1
 10
69.4038
 20
191.7475
  0
VERTEX
  8
LAYER_1
 10
69.6992
 20
192.1909
  0
VERTEX
  8
LAYER_1
 10
69.9457
 20
192.6344
  0
VERTEX
  8
LAYER_1
 10
70.2415
 20
193.0782
  0
VERTEX
  8
LAYER_1
 10
70.5373
 20
193.5217
  0
VERTEX
  8
LAYER_1
 10
70.833
 20
193.9159
  0
VERTEX
  8
LAYER_1
 10
71.178
 20
194.3593
  0
VERTEX
  8
LAYER_1
 10
71.523
 20
194.7536
  0
VERTEX
  8
LAYER_1
 10
71.8676
 20
195.1478
  0
VERTEX
  8
LAYER_1
 10
72.2126
 20
195.542
  0
VERTEX
  8
LAYER_1
 10
72.5576
 20
195.887
  0
VERTEX
  8
LAYER_1
 10
72.9518
 20
196.232
  0
VERTEX
  8
LAYER_1
 10
73.3465
 20
196.6262
  0
VERTEX
  8
LAYER_1
 10
73.7407
 20
196.922
  0
VERTEX
  8
LAYER_1
 10
74.1349
 20
197.267
  0
VERTEX
  8
LAYER_1
 10
74.5783
 20
197.5627
  0
VERTEX
  8
LAYER_1
 10
75.0218
 20
197.8585
  0
VERTEX
  8
LAYER_1
 10
75.4652
 20
198.1543
  0
VERTEX
  8
LAYER_1
 10
75.9091
 20
198.4496
  0
VERTEX
  8
LAYER_1
 10
76.3525
 20
198.6962
  0
VERTEX
  8
LAYER_1
 10
76.796
 20
198.9427
  0
VERTEX
  8
LAYER_1
 10
77.2886
 20
199.1888
  0
VERTEX
  8
LAYER_1
 10
77.7817
 20
199.3861
  0
VERTEX
  8
LAYER_1
 10
78.2744
 20
199.583
  0
VERTEX
  8
LAYER_1
 10
78.7671
 20
199.7804
  0
VERTEX
  8
LAYER_1
 10
79.2602
 20
199.9773
  0
VERTEX
  8
LAYER_1
 10
79.7528
 20
200.1254
  0
VERTEX
  8
LAYER_1
 10
80.2951
 20
200.273
  0
VERTEX
  8
LAYER_1
 10
80.837
 20
200.4211
  0
VERTEX
  8
LAYER_1
 10
81.3297
 20
200.5196
  0
VERTEX
  8
LAYER_1
 10
81.872
 20
200.618
  0
VERTEX
  8
LAYER_1
 10
82.4139
 20
200.7169
  0
VERTEX
  8
LAYER_1
 10
82.9562
 20
200.7661
  0
VERTEX
  8
LAYER_1
 10
83.4981
 20
200.8154
  0
VERTEX
  8
LAYER_1
 10
84.0897
 20
200.8646
  0
VERTEX
  8
LAYER_1
 10
84.632
 20
200.8646
  0
VERTEX
  8
LAYER_1
 10
85.2231
 20
200.8646
  0
VERTEX
  8
LAYER_1
 10
85.7654
 20
200.8154
  0
VERTEX
  8
LAYER_1
 10
86.3073
 20
200.7661
  0
VERTEX
  8
LAYER_1
 10
86.8496
 20
200.7169
  0
VERTEX
  8
LAYER_1
 10
87.3915
 20
200.6673
  0
VERTEX
  8
LAYER_1
 10
87.9338
 20
200.5688
  0
VERTEX
  8
LAYER_1
 10
88.4757
 20
200.4704
  0
VERTEX
  8
LAYER_1
 10
89.018
 20
200.3222
  0
VERTEX
  8
LAYER_1
 10
89.5107
 20
200.1746
  0
VERTEX
  8
LAYER_1
 10
90.0526
 20
200.0269
  0
VERTEX
  8
LAYER_1
 10
90.5457
 20
199.8788
  0
VERTEX
  8
LAYER_1
 10
91.0383
 20
199.6819
  0
VERTEX
  8
LAYER_1
 10
91.5314
 20
199.4846
  0
VERTEX
  8
LAYER_1
 10
92.0241
 20
199.2877
  0
VERTEX
  8
LAYER_1
 10
92.5168
 20
199.0412
  0
VERTEX
  8
LAYER_1
 10
92.9602
 20
198.7946
  0
VERTEX
  8
LAYER_1
 10
93.4533
 20
198.5485
  0
VERTEX
  8
LAYER_1
 10
93.8968
 20
198.2527
  0
VERTEX
  8
LAYER_1
 10
94.3402
 20
198.0062
  0
VERTEX
  8
LAYER_1
 10
94.7836
 20
197.7104
  0
VERTEX
  8
LAYER_1
 10
95.1783
 20
197.4146
  0
VERTEX
  8
LAYER_1
 10
95.6217
 20
197.0701
  0
VERTEX
  8
LAYER_1
 10
96.0159
 20
196.7251
  0
VERTEX
  8
LAYER_1
 10
96.4102
 20
196.3801
  0
VERTEX
  8
LAYER_1
 10
96.8044
 20
196.0351
  0
VERTEX
  8
LAYER_1
 10
97.1494
 20
195.6901
  0
VERTEX
  8
LAYER_1
 10
97.4944
 20
195.2959
  0
VERTEX
  8
LAYER_1
 10
97.8886
 20
194.9017
  0
VERTEX
  8
LAYER_1
 10
98.1844
 20
194.507
  0
VERTEX
  8
LAYER_1
 10
98.5293
 20
194.1128
  0
VERTEX
  8
LAYER_1
 10
98.8743
 20
193.6693
  0
VERTEX
  8
LAYER_1
 10
99.1701
 20
193.2751
  0
VERTEX
  8
LAYER_1
 10
99.4655
 20
192.8317
  0
VERTEX
  8
LAYER_1
 10
99.712
 20
192.3882
  0
VERTEX
  8
LAYER_1
 10
100.0078
 20
191.8951
  0
VERTEX
  8
LAYER_1
 10
100.2543
 20
191.4517
  0
VERTEX
  8
LAYER_1
 10
100.4512
 20
190.959
  0
VERTEX
  8
LAYER_1
 10
100.6978
 20
190.5156
  0
VERTEX
  8
LAYER_1
 10
100.8947
 20
190.0225
  0
VERTEX
  8
LAYER_1
 10
101.092
 20
189.5299
  0
VERTEX
  8
LAYER_1
 10
101.2889
 20
188.9875
  0
VERTEX
  8
LAYER_1
 10
101.437
 20
188.4948
  0
VERTEX
  8
LAYER_1
 10
101.5846
 20
188.0022
  0
VERTEX
  8
LAYER_1
 10
101.7328
 20
187.4599
  0
VERTEX
  8
LAYER_1
 10
101.8312
 20
186.918
  0
VERTEX
  8
LAYER_1
 10
101.9296
 20
186.3757
  0
VERTEX
  8
LAYER_1
 10
102.0281
 20
185.8338
  0
VERTEX
  8
LAYER_1
 10
102.0777
 20
185.2914
  0
VERTEX
  8
LAYER_1
 10
102.127
 20
184.7496
  0
VERTEX
  8
LAYER_1
 10
102.1762
 20
184.2072
  0
VERTEX
  8
LAYER_1
 10
102.1762
 20
183.6653
  0
VERTEX
  8
LAYER_1
 10
102.1762
 20
183.0738
  0
VERTEX
  8
LAYER_1
 10
102.1762
 20
182.5319
  0
VERTEX
  8
LAYER_1
 10
102.127
 20
181.9404
  0
VERTEX
  8
LAYER_1
 10
102.0777
 20
181.3981
  0
VERTEX
  8
LAYER_1
 10
102.0281
 20
180.8562
  0
VERTEX
  8
LAYER_1
 10
101.9296
 20
180.3139
  0
VERTEX
  8
LAYER_1
 10
101.8312
 20
179.772
  0
VERTEX
  8
LAYER_1
 10
101.6831
 20
179.2793
  0
VERTEX
  8
LAYER_1
 10
101.5354
 20
178.737
  0
VERTEX
  8
LAYER_1
 10
101.3878
 20
178.2443
  0
VERTEX
  8
LAYER_1
 10
101.2397
 20
177.702
  0
VERTEX
  8
LAYER_1
 10
101.0428
 20
177.2093
  0
VERTEX
  8
LAYER_1
 10
100.8454
 20
176.7167
  0
VERTEX
  8
LAYER_1
 10
100.6485
 20
176.2236
  0
VERTEX
  8
LAYER_1
 10
100.402
 20
175.7801
  0
VERTEX
  8
LAYER_1
 10
100.2047
 20
175.2875
  0
VERTEX
  8
LAYER_1
 10
99.9093
 20
174.8436
  0
VERTEX
  8
LAYER_1
 10
99.6628
 20
174.3509
  0
VERTEX
  8
LAYER_1
 10
99.367
 20
173.9075
  0
VERTEX
  8
LAYER_1
 10
99.0712
 20
173.5133
  0
VERTEX
  8
LAYER_1
 10
98.7755
 20
173.0698
  0
VERTEX
  8
LAYER_1
 10
98.4801
 20
172.626
  0
VERTEX
  8
LAYER_1
 10
98.1351
 20
172.2317
  0
VERTEX
  8
LAYER_1
 10
97.7901
 20
171.8375
  0
VERTEX
  8
LAYER_1
 10
97.4451
 20
171.4433
  0
VERTEX
  8
LAYER_1
 10
97.1002
 20
171.0983
  0
VERTEX
  8
LAYER_1
 10
96.7059
 20
170.7041
  0
VERTEX
  8
LAYER_1
 10
96.3117
 20
170.3591
  0
VERTEX
  8
LAYER_1
 10
95.9175
 20
170.0141
  0
VERTEX
  8
LAYER_1
 10
95.5233
 20
169.7183
  0
VERTEX
  8
LAYER_1
 10
95.0794
 20
169.3733
  0
VERTEX
  8
LAYER_1
 10
94.6852
 20
169.078
  0
VERTEX
  8
LAYER_1
 10
94.2417
 20
168.7822
  0
VERTEX
  8
LAYER_1
 10
93.7983
 20
168.4865
  0
VERTEX
  8
LAYER_1
 10
93.3549
 20
168.2399
  0
VERTEX
  8
LAYER_1
 10
92.8618
 20
167.9938
  0
VERTEX
  8
LAYER_1
 10
92.4183
 20
167.7472
  0
VERTEX
  8
LAYER_1
 10
91.9257
 20
167.5007
  0
VERTEX
  8
LAYER_1
 10
91.4326
 20
167.3038
  0
VERTEX
  8
LAYER_1
 10
90.9399
 20
167.1065
  0
VERTEX
  8
LAYER_1
 10
90.4472
 20
166.9096
  0
VERTEX
  8
LAYER_1
 10
89.9541
 20
166.7615
  0
VERTEX
  8
LAYER_1
 10
89.4122
 20
166.6138
  0
VERTEX
  8
LAYER_1
 10
88.9191
 20
166.4657
  0
VERTEX
  8
LAYER_1
 10
88.3773
 20
166.3673
  0
VERTEX
  8
LAYER_1
 10
87.8349
 20
166.2688
  0
VERTEX
  8
LAYER_1
 10
87.2931
 20
166.1704
  0
VERTEX
  8
LAYER_1
 10
86.7507
 20
166.0715
  0
VERTEX
  8
LAYER_1
 10
86.2088
 20
166.0223
  0
VERTEX
  8
LAYER_1
 10
85.6665
 20
166.0223
  0
VERTEX
  8
LAYER_1
 10
85.0754
 20
165.973
  0
VERTEX
  8
LAYER_1
 10
84.5331
 20
165.973
  0
VERTEX
  8
LAYER_1
 10
83.9912
 20
165.973
  0
VERTEX
  8
LAYER_1
 10
83.3997
 20
166.0223
  0
VERTEX
  8
LAYER_1
 10
82.8578
 20
166.0715
  0
VERTEX
  8
LAYER_1
 10
82.3155
 20
166.1704
  0
VERTEX
  8
LAYER_1
 10
81.7736
 20
166.2196
  0
VERTEX
  8
LAYER_1
 10
81.2312
 20
166.318
  0
VERTEX
  8
LAYER_1
 10
80.6894
 20
166.4657
  0
VERTEX
  8
LAYER_1
 10
80.1963
 20
166.5646
  0
VERTEX
  8
LAYER_1
 10
79.6544
 20
166.7123
  0
VERTEX
  8
LAYER_1
 10
79.1617
 20
166.9096
  0
VERTEX
  8
LAYER_1
 10
78.6686
 20
167.0572
  0
VERTEX
  8
LAYER_1
 10
78.1759
 20
167.2546
  0
VERTEX
  8
LAYER_1
 10
77.6829
 20
167.4515
  0
VERTEX
  8
LAYER_1
 10
77.1902
 20
167.698
  0
VERTEX
  8
LAYER_1
 10
76.6975
 20
167.9441
  0
VERTEX
  8
LAYER_1
 10
76.2541
 20
168.1907
  0
VERTEX
  8
LAYER_1
 10
75.8102
 20
168.4372
  0
VERTEX
  8
LAYER_1
 10
75.3668
 20
168.733
  0
VERTEX
  8
LAYER_1
 10
74.9233
 20
169.0283
  0
VERTEX
  8
LAYER_1
 10
74.4799
 20
169.3241
  0
VERTEX
  8
LAYER_1
 10
74.0857
 20
169.6199
  0
VERTEX
  8
LAYER_1
 10
73.6418
 20
169.9649
  0
VERTEX
  8
LAYER_1
 10
73.2476
 20
170.3099
  0
VERTEX
  8
LAYER_1
 10
72.8534
 20
170.6549
  0
VERTEX
  8
LAYER_1
 10
72.5084
 20
170.9999
  0
VERTEX
  8
LAYER_1
 10
72.1141
 20
171.3941
  0
VERTEX
  8
LAYER_1
 10
71.7691
 20
171.7883
  0
VERTEX
  8
LAYER_1
 10
71.4242
 20
172.1825
  0
VERTEX
  8
LAYER_1
 10
71.0792
 20
172.5767
  0
VERTEX
  8
LAYER_1
 10
70.7834
 20
172.9709
  0
VERTEX
  8
LAYER_1
 10
70.4881
 20
173.4144
  0
VERTEX
  8
LAYER_1
 10
70.1923
 20
173.8583
  0
VERTEX
  8
LAYER_1
 10
69.8965
 20
174.3017
  0
VERTEX
  8
LAYER_1
 10
69.65
 20
174.7451
  0
VERTEX
  8
LAYER_1
 10
69.3546
 20
175.1886
  0
VERTEX
  8
LAYER_1
 10
69.1081
 20
175.6817
  0
VERTEX
  8
LAYER_1
 10
68.9107
 20
176.1251
  0
VERTEX
  8
LAYER_1
 10
68.6646
 20
176.6178
  0
VERTEX
  8
LAYER_1
 10
68.4673
 20
177.1109
  0
VERTEX
  8
LAYER_1
 10
68.3196
 20
177.6036
  0
VERTEX
  8
LAYER_1
 10
68.1223
 20
178.1454
  0
VERTEX
  8
LAYER_1
 10
67.9746
 20
178.6385
  0
VERTEX
  8
LAYER_1
 10
67.8265
 20
179.1804
  0
VERTEX
  8
LAYER_1
 10
67.7281
 20
179.6735
  0
VERTEX
  8
LAYER_1
 10
67.6296
 20
180.2154
  0
VERTEX
  8
LAYER_1
 10
67.5312
 20
180.7577
  0
VERTEX
  8
LAYER_1
 10
67.4323
 20
181.2996
  0
VERTEX
  8
LAYER_1
 10
67.3831
 20
181.8419
  0
VERTEX
  8
LAYER_1
 10
67.3339
 20
182.3838
  0
VERTEX
  8
LAYER_1
 10
67.3339
 20
182.9754
  0
VERTEX
  8
LAYER_1
 10
67.3339
 20
183.2711
  0
VERTEX
  8
LAYER_1
 10
67.3339
 20
183.3696
  0
VERTEX
  8
LAYER_1
 10
67.3339
 20
183.4188
  0
SEQEND
  0
POLYLINE
  8
LAYER_1
 40
0.1552
 41
0.1552
 66
1
 10
0
 20
0
 30
0
 70
1
  0
VERTEX
  8
LAYER_1
 10
59.991
 20
214.3678
  0
VERTEX
  8
LAYER_1
 10
109.5191
 20
214.3678
  0
VERTEX
  8
LAYER_1
 10
109.5191
 20
210.3759
  0
VERTEX
  8
LAYER_1
 10
59.991
 20
210.3759
  0
SEQEND
  0
POLYLINE
  8
LAYER_1
 40
0.1552
 41
0.1552
 66
1
 10
0
 20
0
 30
0
  0
VERTEX
  8
LAYER_1
 10
109.3712
 20
214.3678
  0
SEQEND
  0
POLYLINE
  8
LAYER_1
 40
0.1552
 41
0.1552
 66
1
 10
0
 20
0
 30
0
  0
VERTEX
  8
LAYER_1
 10
109.3712
 20
160.4534
  0
SEQEND
  0
POLYLINE
  8
LAYER_1
 40
0.1552
 41
0.1552
 66
1
 10
0
 20
0
 30
0
  0
VERTEX
  8
LAYER_1
 10
105.9215
 20
214.3678
  0
SEQEND
  0
POLYLINE
  8
LAYER_1
 40
0.1552
 41
0.1552
 66
1
 10
0
 20
0
 30
0
  0
VERTEX
  8
LAYER_1
 10
105.9215
 20
160.4534
  0
SEQEND
  0
POLYLINE
  8
LAYER_1
 40
0.1552
 41
0.1552
 66
1
 10
0
 20
0
 30
0
  0
VERTEX
  8
LAYER_1
 10
87.1944
 20
210.376
  0
VERTEX
  8
LAYER_1
 10
89.9047
 20
210.376
  0
SEQEND
  0
POLYLINE
  8
LAYER_1
 40
0.1552
 41
0.1552
 66
1
 10
0
 20
0
 30
0
  0
VERTEX
  8
LAYER_1
 10
109.5191
 20
210.376
  0
SEQEND
  0
POLYLINE
  8
LAYER_1
 40
0.1552
 41
0.1552
 66
1
 10
0
 20
0
 30
0
  0
VERTEX
  8
LAYER_1
 10
109.5191
 20
214.3678
  0
SEQEND
  0
POLYLINE
  8
LAYER_1
 40
0.1552
 41
0.1552
 66
1
 10
0
 20
0
 30
0
  0
VERTEX
  8
LAYER_1
 10
111.5396
 20
160.4534
  0
SEQEND
  0
POLYLINE
  8
LAYER_1
 40
0.1552
 41
0.1552
 66
1
 10
0
 20
0
 30
0
  0
VERTEX
  8
LAYER_1
 10
111.5396
 20
210.376
  0
SEQEND
  0
POLYLINE
  8
LAYER_1
 40
0.1552
 41
0.1552
 66
1
 10
0
 20
0
 30
0
  0
VERTEX
  8
LAYER_1
 10
109.5191
 20
214.3678
  0
SEQEND
  0
POLYLINE
  8
LAYER_1
 40
0.1552
 41
0.1552
 66
1
 10
0
 20
0
 30
0
  0
VERTEX
  8
LAYER_1
 10
84.7303
 20
214.3678
  0
SEQEND
  0
POLYLINE
  8
LAYER_1
 40
0.1552
 41
0.1552
 66
1
 10
0
 20
0
 30
0
  0
VERTEX
  8
LAYER_1
 10
59.9908
 20
214.3678
  0
SEQEND
  0
POLYLINE
  8
LAYER_1
 40
0.1552
 41
0.1552
 66
1
 10
0
 20
0
 30
0
  0
VERTEX
  8
LAYER_1
 10
109.5191
 20
214.3678
  0
SEQEND
  0
POLYLINE
  8
LAYER_1
 40
0.1552
 41
0.1552
 66
1
 10
0
 20
0
 30
0
  0
VERTEX
  8
LAYER_1
 10
59.9908
 20
214.3678
  0
SEQEND
  0
POLYLINE
  8
LAYER_1
 40
0.1552
 41
0.1552
 66
1
 10
0
 20
0
 30
0
  0
VERTEX
  8
LAYER_1
 10
111.5396
 20
210.376
  0
SEQEND
  0
POLYLINE
  8
LAYER_1
 40
0.1552
 41
0.1552
 66
1
 10
0
 20
0
 30
0
  0
VERTEX
  8
LAYER_1
 10
109.8148
 20
210.376
  0
SEQEND
  0
POLYLINE
  8
LAYER_1
 40
0.1552
 41
0.1552
 66
1
 10
0
 20
0
 30
0
  0
VERTEX
  8
LAYER_1
 10
111.5396
 20
210.376
  0
SEQEND
  0
POLYLINE
  8
LAYER_1
 40
0.1058
 41
0.1058
 66
1
 10
0
 20
0
 30
0
  0
VERTEX
  8
LAYER_1
 10
111.786
 20
215.8955
  0
VERTEX
  8
LAYER_1
 10
111.786
 20
217.3739
  0
SEQEND
  0
POLYLINE
  8
LAYER_1
 40
0.1058
 41
0.1058
 66
1
 10
0
 20
0
 30
0
  0
VERTEX
  8
LAYER_1
 10
111.786
 20
208.8975
  0
VERTEX
  8
LAYER_1
 10
111.786
 20
207.3699
  0
SEQEND
  0
POLYLINE
  8
LAYER_1
 40
0.1058
 41
0.1058
 66
1
 10
0
 20
0
 30
0
  0
VERTEX
  8
LAYER_1
 10
111.786
 20
214.3678
  0
VERTEX
  8
LAYER_1
 10
111.786
 20
214.2693
  0
SEQEND
  0
POLYLINE
  8
LAYER_1
 40
0.1058
 41
0.1058
 66
1
 10
0
 20
0
 30
0
  0
VERTEX
  8
LAYER_1
 10
111.786
 20
210.376
  0
VERTEX
  8
LAYER_1
 10
111.786
 20
210.4744
  0
SEQEND
  0
POLYLINE
  8
LAYER_1
 40
0.05
 41
0.05
 66
1
 10
0
 20
0
 30
0
 70
1
  0
VERTEX
  8
LAYER_1
 10
111.5396
 20
215.8955
  0
VERTEX
  8
LAYER_1
 10
112.0323
 20
215.8955
  0
VERTEX
  8
LAYER_1
 10
111.7862
 20
214.3679
  0
SEQEND
  0
POLYLINE
  8
LAYER_1
 66
1
 10
0
 20
0
 30
0
 70
1
  0
VERTEX
  8
LAYER_1
 10
111.5396
 20
215.8955
  0
VERTEX
  8
LAYER_1
 10
112.0323
 20
215.8955
  0
VERTEX
  8
LAYER_1
 10
111.7862
 20
214.3679
  0
SEQEND
  0
POLYLINE
  8
LAYER_1
 40
0.05
 41
0.05
 66
1
 10
0
 20
0
 30
0
 70
1
  0
VERTEX
  8
LAYER_1
 10
111.5396
 20
208.8975
  0
VERTEX
  8
LAYER_1
 10
112.0323
 20
208.8975
  0
VERTEX
  8
LAYER_1
 10
111.7862
 20
210.3759
  0
SEQEND
  0
POLYLINE
  8
LAYER_1
 66
1
 10
0
 20
0
 30
0
 70
1
  0
VERTEX
  8
LAYER_1
 10
111.5396
 20
208.8975
  0
VERTEX
  8
LAYER_1
 10
112.0323
 20
208.8975
  0
VERTEX
  8
LAYER_1
 10
111.7862
 20
210.3759
  0
SEQEND
  0
TEXT
  8
LAYER_1
 10
113.0179
 20
210.5235
 11
113.0179
 21
210.5235
 40
3.6967
 41
0.5
 50
89.99999999
  1
40
  0
POLYLINE
  8
LAYER_1
 40
0.1058
 41
0.1058
 66
1
 10
0
 20
0
 30
0
  0
VERTEX
  8
LAYER_1
 10
109.5191
 20
214.3678
  0
VERTEX
  8
LAYER_1
 10
115.4328
 20
214.3678
  0
SEQEND
  0
POLYLINE
  8
LAYER_1
 40
0.1058
 41
0.1058
 66
1
 10
0
 20
0
 30
0
  0
VERTEX
  8
LAYER_1
 10
111.786
 20
210.376
  0
VERTEX
  8
LAYER_1
 10
109.5192
 20
210.376
  0
SEQEND
  0
POLYLINE
  8
LAYER_1
 40
0.1058
 41
0.1058
 66
1
 10
0
 20
0
 30
0
  0
VERTEX
  8
LAYER_1
 10
88.2225
 20
206.4087
  0
VERTEX
  8
LAYER_1
 10
81.0881
 20
206.4087
  0
SEQEND
  0
POLYLINE
  8
LAYER_1
 40
0.1058
 41
0.1058
 66
1
 10
0
 20
0
 30
0
  0
VERTEX
  8
LAYER_1
 10
84.6553
 20
209.976
  0
VERTEX
  8
LAYER_1
 10
84.6553
 20
202.8415
  0
SEQEND
  0
POLYLINE
  8
LAYER_1
 40
0.1058
 41
0.1058
 66
1
 10
0
 20
0
 30
0
  0
VERTEX
  8
LAYER_1
 10
84.7303
 20
200.9138
  0
VERTEX
  8
LAYER_1
 10
84.7303
 20
199.3862
  0
SEQEND
  0
POLYLINE
  8
LAYER_1
 40
0.1058
 41
0.1058
 66
1
 10
0
 20
0
 30
0
  0
VERTEX
  8
LAYER_1
 10
84.7303
 20
202.3923
  0
VERTEX
  8
LAYER_1
 10
84.7303
 20
202.4908
  0
SEQEND
  0
POLYLINE
  8
LAYER_1
 40
0.05
 41
0.05
 66
1
 10
0
 20
0
 30
0
 70
1
  0
VERTEX
  8
LAYER_1
 10
84.4839
 20
200.9138
  0
VERTEX
  8
LAYER_1
 10
85.0262
 20
200.9138
  0
VERTEX
  8
LAYER_1
 10
84.7305
 20
202.3923
  0
SEQEND
  0
POLYLINE
  8
LAYER_1
 66
1
 10
0
 20
0
 30
0
 70
1
  0
VERTEX
  8
LAYER_1
 10
84.4839
 20
200.9138
  0
VERTEX
  8
LAYER_1
 10
85.0262
 20
200.9138
  0
VERTEX
  8
LAYER_1
 10
84.7305
 20
202.3923
  0
SEQEND
  0
POLYLINE
  8
LAYER_1
 40
0.1058
 41
0.1058
 66
1
 10
0
 20
0
 30
0
  0
VERTEX
  8
LAYER_1
 10
111.786
 20
208.8975
  0
VERTEX
  8
LAYER_1
 10
111.786
 20
189.6772
  0
SEQEND
  0
POLYLINE
  8
LAYER_1
 40
0.1058
 41
0.1058
 66
1
 10
0
 20
0
 30
0
  0
VERTEX
  8
LAYER_1
 10
111.786
 20
161.9319
  0
VERTEX
  8
LAYER_1
 10
111.786
 20
181.2882
  0
SEQEND
  0
POLYLINE
  8
LAYER_1
 40
0.05
 41
0.05
 66
1
 10
0
 20
0
 30
0
 70
1
  0
VERTEX
  8
LAYER_1
 10
111.5396
 20
208.8975
  0
VERTEX
  8
LAYER_1
 10
112.0323
 20
208.8975
  0
VERTEX
  8
LAYER_1
 10
111.7862
 20
210.3759
  0
SEQEND
  0
POLYLINE
  8
LAYER_1
 66
1
 10
0
 20
0
 30
0
 70
1
  0
VERTEX
  8
LAYER_1
 10
111.5396
 20
208.8975
  0
VERTEX
  8
LAYER_1
 10
112.0323
 20
208.8975
  0
VERTEX
  8
LAYER_1
 10
111.7862
 20
210.3759
  0
SEQEND
  0
POLYLINE
  8
LAYER_1
 40
0.05
 41
0.05
 66
1
 10
0
 20
0
 30
0
 70
1
  0
VERTEX
  8
LAYER_1
 10
111.5396
 20
161.9319
  0
VERTEX
  8
LAYER_1
 10
112.0323
 20
161.9319
  0
VERTEX
  8
LAYER_1
 10
111.7862
 20
160.4535
  0
SEQEND
  0
POLYLINE
  8
LAYER_1
 66
1
 10
0
 20
0
 30
0
 70
1
  0
VERTEX
  8
LAYER_1
 10
111.5396
 20
161.9319
  0
VERTEX
  8
LAYER_1
 10
112.0323
 20
161.9319
  0
VERTEX
  8
LAYER_1
 10
111.7862
 20
160.4535
  0
SEQEND
  0
TEXT
  8
LAYER_1
 10
113.0181
 20
182.5314
 11
113.0181
 21
182.5314
 40
3.6967
 41
0.5
 50
89.99999999
  1
500
  0
POLYLINE
  8
LAYER_1
 40
0.1058
 41
0.1058
 66
1
 10
0
 20
0
 30
0
  0
VERTEX
  8
LAYER_1
 10
111.786
 20
210.376
  0
VERTEX
  8
LAYER_1
 10
105.675
 20
210.376
  0
SEQEND
  0
POLYLINE
  8
LAYER_1
 40
0.1058
 41
0.1058
 66
1
 10
0
 20
0
 30
0
  0
VERTEX
  8
LAYER_1
 10
115.4329
 20
160.4534
  0
VERTEX
  8
LAYER_1
 10
105.675
 20
160.4534
  0
SEQEND
  0
POLYLINE
  8
LAYER_1
 40
0.1058
 41
0.1058
 66
1
 10
0
 20
0
 30
0
  0
VERTEX
  8
LAYER_1
 10
115.4329
 20
161.9319
  0
VERTEX
  8
LAYER_1
 10
115.4329
 20
183.3078
  0
SEQEND
  0
POLYLINE
  8
LAYER_1
 40
0.1058
 41
0.1058
 66
1
 10
0
 20
0
 30
0
  0
VERTEX
  8
LAYER_1
 10
115.4329
 20
212.8893
  0
VERTEX
  8
LAYER_1
 10
115.4329
 20
191.6967
  0
SEQEND
  0
POLYLINE
  8
LAYER_1
 40
0.05
 41
0.05
 66
1
 10
0
 20
0
 30
0
 70
1
  0
VERTEX
  8
LAYER_1
 10
115.1865
 20
161.9319
  0
VERTEX
  8
LAYER_1
 10
115.6791
 20
161.9319
  0
VERTEX
  8
LAYER_1
 10
115.433
 20
160.4535
  0
SEQEND
  0
POLYLINE
  8
LAYER_1
 66
1
 10
0
 20
0
 30
0
 70
1
  0
VERTEX
  8
LAYER_1
 10
115.1865
 20
161.9319
  0
VERTEX
  8
LAYER_1
 10
115.6791
 20
161.9319
  0
VERTEX
  8
LAYER_1
 10
115.433
 20
160.4535
  0
SEQEND
  0
POLYLINE
  8
LAYER_1
 40
0.05
 41
0.05
 66
1
 10
0
 20
0
 30
0
 70
1
  0
VERTEX
  8
LAYER_1
 10
115.1865
 20
212.8893
  0
VERTEX
  8
LAYER_1
 10
115.6791
 20
212.8893
  0
VERTEX
  8
LAYER_1
 10
115.433
 20
214.3677
  0
SEQEND
  0
POLYLINE
  8
LAYER_1
 66
1
 10
0
 20
0
 30
0
 70
1
  0
VERTEX
  8
LAYER_1
 10
115.1865
 20
212.8893
  0
VERTEX
  8
LAYER_1
 10
115.6791
 20
212.8893
  0
VERTEX
  8
LAYER_1
 10
115.433
 20
214.3677
  0
SEQEND
  0
TEXT
  8
LAYER_1
 10
116.6649
 20
184.5027
 11
116.6649
 21
184.5027
 40
3.6967
 41
0.5
 50
89.99999999
  1
540
  0
INSERT
  8
LAYER_1
  2
AIGNBL01010029
 10
0
 20
0
 30
0
  0
POLYLINE
  8
LAYER_1
 40
0.1058
 41
0.1058
 66
1
 10
0
 20
0
 30
0
  0
VERTEX
  8
LAYER_1
 10
89.8556
 20
180.4126
  0
VERTEX
  8
LAYER_1
 10
88.0322
 20
181.4968
  0
SEQEND
  0
POLYLINE
  8
LAYER_1
 40
0.1058
 41
0.1058
 66
1
 10
0
 20
0
 30
0
  0
VERTEX
  8
LAYER_1
 10
81.4777
 20
185.3408
  0
VERTEX
  8
LAYER_1
 10
80.1962
 20
186.08
  0
SEQEND
  0
TEXT
  8
LAYER_1
 10
89.1225
 20
179.4894
 11
89.1225
 21
179.4894
 40
3.6967
 41
0.5
 50
330.0786587
  1
ｿ46
  0
POLYLINE
  8
LAYER_1
 40
0.1058
 41
0.1058
 66
1
 10
0
 20
0
 30
0
  0
VERTEX
  8
LAYER_1
 10
82.7591
 20
184.5523
  0
VERTEX
  8
LAYER_1
 10
86.7017
 20
182.2362
  0
SEQEND
  0
POLYLINE
  8
LAYER_1
 40
0.05
 41
0.05
 66
1
 10
0
 20
0
 30
0
 70
1
  0
VERTEX
  8
LAYER_1
 10
81.5763
 20
185.5379
  0
VERTEX
  8
LAYER_1
 10
81.3297
 20
185.0945
  0
VERTEX
  8
LAYER_1
 10
82.7589
 20
184.5522
  0
SEQEND
  0
POLYLINE
  8
LAYER_1
 66
1
 10
0
 20
0
 30
0
 70
1
  0
VERTEX
  8
LAYER_1
 10
81.5763
 20
185.5379
  0
VERTEX
  8
LAYER_1
 10
81.3297
 20
185.0945
  0
VERTEX
  8
LAYER_1
 10
82.7589
 20
184.5522
  0
SEQEND
  0
POLYLINE
  8
LAYER_1
 40
0.05
 41
0.05
 66
1
 10
0
 20
0
 30
0
 70
1
  0
VERTEX
  8
LAYER_1
 10
88.1308
 20
181.6939
  0
VERTEX
  8
LAYER_1
 10
87.8842
 20
181.2997
  0
VERTEX
  8
LAYER_1
 10
86.7016
 20
182.2358
  0
SEQEND
  0
POLYLINE
  8
LAYER_1
 66
1
 10
0
 20
0
 30
0
 70
1
  0
VERTEX
  8
LAYER_1
 10
88.1308
 20
181.6939
  0
VERTEX
  8
LAYER_1
 10
87.8842
 20
181.2997
  0
VERTEX
  8
LAYER_1
 10
86.7016
 20
182.2358
  0
SEQEND
  0
POLYLINE
  8
LAYER_1
 40
0.1058
 41
0.1058
 66
1
 10
0
 20
0
 30
0
  0
VERTEX
  8
LAYER_1
 10
70.0443
 20
177.1107
  0
VERTEX
  8
LAYER_1
 10
68.6644
 20
176.5191
  0
SEQEND
  0
TEXT
  8
LAYER_1
 10
70.4973
 20
175.9303
 11
70.4973
 21
175.9303
 40
3.6967
 41
0.5
 50
23.15435511
  1
ｯ380
  0
POLYLINE
  8
LAYER_1
 40
0.05
 41
0.05
 66
1
 10
0
 20
0
 30
0
 70
1
  0
VERTEX
  8
LAYER_1
 10
68.5659
 20
176.7658
  0
VERTEX
  8
LAYER_1
 10
68.7632
 20
176.3223
  0
VERTEX
  8
LAYER_1
 10
67.2843
 20
175.9281
  0
SEQEND
  0
POLYLINE
  8
LAYER_1
 66
1
 10
0
 20
0
 30
0
 70
1
  0
VERTEX
  8
LAYER_1
 10
68.5659
 20
176.7658
  0
VERTEX
  8
LAYER_1
 10
68.7632
 20
176.3223
  0
VERTEX
  8
LAYER_1
 10
67.2843
 20
175.9281
  0
SEQEND
  0
POLYLINE
  8
LAYER_1
 40
0.1058
 41
0.1058
 66
1
 10
0
 20
0
 30
0
  0
VERTEX
  8
LAYER_1
 10
84.7303
 20
200.9138
  0
VERTEX
  8
LAYER_1
 10
84.7303
 20
195.5912
  0
SEQEND
  0
POLYLINE
  8
LAYER_1
 40
0.1058
 41
0.1058
 66
1
 10
0
 20
0
 30
0
  0
VERTEX
  8
LAYER_1
 10
84.7303
 20
184.8972
  0
VERTEX
  8
LAYER_1
 10
84.7303
 20
190.2198
  0
SEQEND
  0
POLYLINE
  8
LAYER_1
 40
0.05
 41
0.05
 66
1
 10
0
 20
0
 30
0
 70
1
  0
VERTEX
  8
LAYER_1
 10
84.4839
 20
200.9138
  0
VERTEX
  8
LAYER_1
 10
84.9766
 20
200.9138
  0
VERTEX
  8
LAYER_1
 10
84.7305
 20
202.3923
  0
SEQEND
  0
POLYLINE
  8
LAYER_1
 40
0.1552
 41
0.1552
 66
1
 10
0
 20
0
 30
0
  0
VERTEX
  8
LAYER_1
 10
80.7039
 20
214.3678
  0
SEQEND
  0
POLYLINE
  8
LAYER_1
 40
0.1058
 41
0.1058
 66
1
 10
0
 20
0
 30
0
  0
VERTEX
  8
LAYER_1
 10
80.7039
 20
207.9118
  0
VERTEX
  8
LAYER_1
 10
80.7039
 20
208.5526
  0
SEQEND
  0
POLYLINE
  8
LAYER_1
 40
0.1058
 41
0.1058
 66
1
 10
0
 20
0
 30
0
  0
VERTEX
  8
LAYER_1
 10
80.7039
 20
212.8893
  0
VERTEX
  8
LAYER_1
 10
80.7039
 20
212.2485
  0
SEQEND
  0
POLYLINE
  8
LAYER_1
 40
0.05
 41
0.05
 66
1
 10
0
 20
0
 30
0
 70
1
  0
VERTEX
  8
LAYER_1
 10
80.4575
 20
207.9118
  0
VERTEX
  8
LAYER_1
 10
80.9998
 20
207.9118
  0
VERTEX
  8
LAYER_1
 10
80.7041
 20
206.3842
  0
SEQEND
  0
POLYLINE
  8
LAYER_1
 66
1
 10
0
 20
0
 30
0
 70
1
  0
VERTEX
  8
LAYER_1
 10
80.4575
 20
207.9118
  0
VERTEX
  8
LAYER_1
 10
80.9998
 20
207.9118
  0
VERTEX
  8
LAYER_1
 10
80.7041
 20
206.3842
  0
SEQEND
  0
POLYLINE
  8
LAYER_1
 40
0.05
 41
0.05
 66
1
 10
0
 20
0
 30
0
 70
1
  0
VERTEX
  8
LAYER_1
 10
80.4575
 20
212.8893
  0
VERTEX
  8
LAYER_1
 10
80.9998
 20
212.8893
  0
VERTEX
  8
LAYER_1
 10
80.7041
 20
214.3677
  0
SEQEND
  0
POLYLINE
  8
LAYER_1
 66
1
 10
0
 20
0
 30
0
 70
1
  0
VERTEX
  8
LAYER_1
 10
80.4575
 20
212.8893
  0
VERTEX
  8
LAYER_1
 10
80.9998
 20
212.8893
  0
VERTEX
  8
LAYER_1
 10
80.7041
 20
214.3677
  0
SEQEND
  0
TEXT
  8
LAYER_1
 10
81.9361
 20
208.4537
 11
81.9361
 21
208.4537
 40
3.6967
 41
0.5
 50
89.99999999
  1
80
  0
POLYLINE
  8
LAYER_1
 40
0.1058
 41
0.1058
 66
1
 10
0
 20
0
 30
0
  0
VERTEX
  8
LAYER_1
 10
80.7039
 20
207.9118
  0
VERTEX
  8
LAYER_1
 10
80.7039
 20
209.3903
  0
SEQEND
  0
POLYLINE
  8
LAYER_1
 40
0.1058
 41
0.1058
 66
1
 10
0
 20
0
 30
0
  0
VERTEX
  8
LAYER_1
 10
80.7039
 20
206.3841
  0
VERTEX
  8
LAYER_1
 10
80.7039
 20
206.2857
  0
SEQEND
  0
POLYLINE
  8
LAYER_1
 40
0.1058
 41
0.1058
 66
1
 10
0
 20
0
 30
0
  0
VERTEX
  8
LAYER_1
 10
80.7039
 20
202.3923
  0
VERTEX
  8
LAYER_1
 10
80.7039
 20
202.4908
  0
SEQEND
  0
POLYLINE
  8
LAYER_1
 40
0.05
 41
0.05
 66
1
 10
0
 20
0
 30
0
 70
1
  0
VERTEX
  8
LAYER_1
 10
80.4575
 20
207.9118
  0
VERTEX
  8
LAYER_1
 10
80.9998
 20
207.9118
  0
VERTEX
  8
LAYER_1
 10
80.7041
 20
206.3842
  0
SEQEND
  0
POLYLINE
  8
LAYER_1
 66
1
 10
0
 20
0
 30
0
 70
1
  0
VERTEX
  8
LAYER_1
 10
80.4575
 20
207.9118
  0
VERTEX
  8
LAYER_1
 10
80.9998
 20
207.9118
  0
VERTEX
  8
LAYER_1
 10
80.7041
 20
206.3842
  0
SEQEND
  0
POLYLINE
  8
LAYER_1
 40
0.05
 41
0.05
 66
1
 10
0
 20
0
 30
0
 70
1
  0
VERTEX
  8
LAYER_1
 10
80.4575
 20
200.9138
  0
VERTEX
  8
LAYER_1
 10
80.9998
 20
200.9138
  0
VERTEX
  8
LAYER_1
 10
80.7041
 20
202.3923
  0
SEQEND
  0
POLYLINE
  8
LAYER_1
 66
1
 10
0
 20
0
 30
0
 70
1
  0
VERTEX
  8
LAYER_1
 10
80.4575
 20
200.9138
  0
VERTEX
  8
LAYER_1
 10
80.9998
 20
200.9138
  0
VERTEX
  8
LAYER_1
 10
80.7041
 20
202.3923
  0
SEQEND
  0
TEXT
  8
LAYER_1
 10
81.9358
 20
202.4909
 11
81.9358
 21
202.4909
 40
3.6967
 41
0.5
 50
89.99999999
  1
40
  0
POLYLINE
  8
LAYER_1
 40
0.05
 41
0.05
 66
1
 10
0
 20
0
 30
0
 70
1
  0
VERTEX
  8
LAYER_1
 10
80.4575
 20
200.9138
  0
VERTEX
  8
LAYER_1
 10
80.9502
 20
200.9138
  0
VERTEX
  8
LAYER_1
 10
80.7041
 20
202.3923
  0
SEQEND
  0
POLYLINE
  8
LAYER_1
 66
1
 10
0
 20
0
 30
0
 70
1
  0
VERTEX
  8
LAYER_1
 10
84.4839
 20
200.9138
  0
VERTEX
  8
LAYER_1
 10
84.9766
 20
200.9138
  0
VERTEX
  8
LAYER_1
 10
84.7305
 20
202.3923
  0
SEQEND
  0
POLYLINE
  8
LAYER_1
 40
0.05
 41
0.05
 66
1
 10
0
 20
0
 30
0
 70
1
  0
VERTEX
  8
LAYER_1
 10
84.4839
 20
184.8972
  0
VERTEX
  8
LAYER_1
 10
84.9766
 20
184.8972
  0
VERTEX
  8
LAYER_1
 10
84.7305
 20
183.4188
  0
SEQEND
  0
POLYLINE
  8
LAYER_1
 66
1
 10
0
 20
0
 30
0
 70
1
  0
VERTEX
  8
LAYER_1
 10
84.4839
 20
184.8972
  0
VERTEX
  8
LAYER_1
 10
84.9766
 20
184.8972
  0
VERTEX
  8
LAYER_1
 10
84.7305
 20
183.4188
  0
SEQEND
  0
TEXT
  8
LAYER_1
 10
85.9625
 20
189.8743
 11
85.9625
 21
189.8743
 40
3.6967
 41
0.5
 50
89.99999999
  1
190
  0
INSERT
  8
LAYER_1
  2
AIGNBL0101002A
 10
0
 20
0
 30
0
  0
POLYLINE
  8
LAYER_1
 40
0.1058
 41
0.1058
 66
1
 10
0
 20
0
 30
0
  0
VERTEX
  8
LAYER_1
 10
108.2377
 20
154.1454
  0
VERTEX
  8
LAYER_1
 10
88.8877
 20
154.1454
  0
SEQEND
  0
POLYLINE
  8
LAYER_1
 40
0.1058
 41
0.1058
 66
1
 10
0
 20
0
 30
0
  0
VERTEX
  8
LAYER_1
 10
61.2722
 20
154.1454
  0
VERTEX
  8
LAYER_1
 10
80.1881
 20
154.1454
  0
SEQEND
  0
POLYLINE
  8
LAYER_1
 40
0.05
 41
0.05
 66
1
 10
0
 20
0
 30
0
 70
1
  0
VERTEX
  8
LAYER_1
 10
108.2377
 20
154.3918
  0
VERTEX
  8
LAYER_1
 10
108.2377
 20
153.8992
  0
VERTEX
  8
LAYER_1
 10
109.7162
 20
154.1453
  0
SEQEND
  0
POLYLINE
  8
LAYER_1
 66
1
 10
0
 20
0
 30
0
 70
1
  0
VERTEX
  8
LAYER_1
 10
108.2377
 20
154.3918
  0
VERTEX
  8
LAYER_1
 10
108.2377
 20
153.8992
  0
VERTEX
  8
LAYER_1
 10
109.7162
 20
154.1453
  0
SEQEND
  0
POLYLINE
  8
LAYER_1
 40
0.05
 41
0.05
 66
1
 10
0
 20
0
 30
0
 70
1
  0
VERTEX
  8
LAYER_1
 10
61.2722
 20
154.3918
  0
VERTEX
  8
LAYER_1
 10
61.2722
 20
153.8992
  0
VERTEX
  8
LAYER_1
 10
59.7938
 20
154.1453
  0
SEQEND
  0
POLYLINE
  8
LAYER_1
 66
1
 10
0
 20
0
 30
0
 70
1
  0
VERTEX
  8
LAYER_1
 10
61.2722
 20
154.3918
  0
VERTEX
  8
LAYER_1
 10
61.2722
 20
153.8992
  0
VERTEX
  8
LAYER_1
 10
59.7938
 20
154.1453
  0
SEQEND
  0
TEXT
  8
LAYER_1
 10
81.8718
 20
152.9133
 11
81.8718
 21
152.9133
 40
3.6967
 41
0.5
  1
500
  0
POLYLINE
  8
LAYER_1
 40
0.1058
 41
0.1058
 66
1
 10
0
 20
0
 30
0
  0
VERTEX
  8
LAYER_1
 10
59.7937
 20
154.1454
  0
VERTEX
  8
LAYER_1
 10
59.7937
 20
160.8475
  0
SEQEND
  0
POLYLINE
  8
LAYER_1
 40
0.1058
 41
0.1058
 66
1
 10
0
 20
0
 30
0
  0
VERTEX
  8
LAYER_1
 10
109.7162
 20
154.1454
  0
VERTEX
  8
LAYER_1
 10
109.7162
 20
160.8475
  0
SEQEND
  0
POLYLINE
  8
LAYER_1
 40
0.1058
 41
0.1058
 66
1
 10
0
 20
0
 30
0
  0
VERTEX
  8
LAYER_1
 10
205.2944
 20
139.6071
  0
VERTEX
  8
LAYER_1
 10
204.3877
 20
139.6071
  0
SEQEND
  0
POLYLINE
  8
LAYER_1
 40
0.1058
 41
0.1058
 66
1
 10
0
 20
0
 30
0
  0
VERTEX
  8
LAYER_1
 10
214.12
 20
139.6071
  0
VERTEX
  8
LAYER_1
 10
215.0267
 20
139.6071
  0
SEQEND
  0
POLYLINE
  8
LAYER_1
 40
0.1058
 41
0.1058
 66
1
 10
0
 20
0
 30
0
  0
VERTEX
  8
LAYER_1
 10
206.2314
 20
139.6071
  0
VERTEX
  8
LAYER_1
 10
206.9869
 20
139.6071
  0
SEQEND
  0
POLYLINE
  8
LAYER_1
 40
0.1058
 41
0.1058
 66
1
 10
0
 20
0
 30
0
  0
VERTEX
  8
LAYER_1
 10
213.2132
 20
139.6071
  0
VERTEX
  8
LAYER_1
 10
212.4577
 20
139.6071
  0
SEQEND
  0
POLYLINE
  8
LAYER_1
 40
0.05
 41
0.05
 66
1
 10
0
 20
0
 30
0
 70
1
  0
VERTEX
  8
LAYER_1
 10
205.2944
 20
139.7582
  0
VERTEX
  8
LAYER_1
 10
205.2944
 20
139.4561
  0
VERTEX
  8
LAYER_1
 10
206.2313
 20
139.607
  0
SEQEND
  0
POLYLINE
  8
LAYER_1
 66
1
 10
0
 20
0
 30
0
 70
1
  0
VERTEX
  8
LAYER_1
 10
205.2944
 20
139.7582
  0
VERTEX
  8
LAYER_1
 10
205.2944
 20
139.4561
  0
VERTEX
  8
LAYER_1
 10
206.2313
 20
139.607
  0
SEQEND
  0
POLYLINE
  8
LAYER_1
 40
0.05
 41
0.05
 66
1
 10
0
 20
0
 30
0
 70
1
  0
VERTEX
  8
LAYER_1
 10
214.12
 20
139.7582
  0
VERTEX
  8
LAYER_1
 10
214.12
 20
139.4561
  0
VERTEX
  8
LAYER_1
 10
213.2132
 20
139.607
  0
SEQEND
  0
POLYLINE
  8
LAYER_1
 66
1
 10
0
 20
0
 30
0
 70
1
  0
VERTEX
  8
LAYER_1
 10
214.12
 20
139.7582
  0
VERTEX
  8
LAYER_1
 10
214.12
 20
139.4561
  0
VERTEX
  8
LAYER_1
 10
213.2132
 20
139.607
  0
SEQEND
  0
TEXT
  8
LAYER_1
 10
206.9568
 20
137.7941
 11
206.9568
 21
137.7941
 40
5.4412
 41
0.5
  1
40
  0
POLYLINE
  8
LAYER_1
 40
0.1058
 41
0.1058
 66
1
 10
0
 20
0
 30
0
  0
VERTEX
  8
LAYER_1
 10
206.2314
 20
139.6071
  0
VERTEX
  8
LAYER_1
 10
206.2314
 20
136.101
  0
SEQEND
  0
POLYLINE
  8
LAYER_1
 40
0.2752
 41
0.2752
 66
1
 10
0
 20
0
 30
0
  0
VERTEX
  8
LAYER_1
 10
67.9252
 20
87.6299
  0
VERTEX
  8
LAYER_1
 10
67.9252
 20
87.6791
  0
VERTEX
  8
LAYER_1
 10
67.9252
 20
87.7283
  0
VERTEX
  8
LAYER_1
 10
67.9252
 20
87.8272
  0
VERTEX
  8
LAYER_1
 10
67.9252
 20
88.0241
  0
VERTEX
  8
LAYER_1
 10
67.9252
 20
88.2214
  0
VERTEX
  8
LAYER_1
 10
67.9252
 20
88.4675
  0
VERTEX
  8
LAYER_1
 10
67.9252
 20
88.6649
  0
VERTEX
  8
LAYER_1
 10
67.9252
 20
88.7141
  0
VERTEX
  8
LAYER_1
 10
67.9252
 20
88.7633
  0
VERTEX
  8
LAYER_1
 10
67.9252
 20
88.8125
  0
VERTEX
  8
LAYER_1
 10
67.9252
 20
88.911
  0
VERTEX
  8
LAYER_1
 10
67.9745
 20
88.9606
  0
VERTEX
  8
LAYER_1
 10
67.9745
 20
89.0591
  0
VERTEX
  8
LAYER_1
 10
68.0237
 20
89.1083
  0
VERTEX
  8
LAYER_1
 10
68.1226
 20
89.1575
  0
VERTEX
  8
LAYER_1
 10
68.1718
 20
89.2067
  0
VERTEX
  8
LAYER_1
 10
68.221
 20
89.2067
  0
VERTEX
  8
LAYER_1
 10
68.3195
 20
89.2067
  0
VERTEX
  8
LAYER_1
 10
68.4179
 20
89.2067
  0
VERTEX
  8
LAYER_1
 10
68.4671
 20
89.2067
  0
VERTEX
  8
LAYER_1
 10
68.566
 20
89.1575
  0
VERTEX
  8
LAYER_1
 10
68.6152
 20
89.1083
  0
VERTEX
  8
LAYER_1
 10
68.6645
 20
89.0591
  0
VERTEX
  8
LAYER_1
 10
68.7137
 20
88.9606
  0
VERTEX
  8
LAYER_1
 10
68.7137
 20
88.911
  0
VERTEX
  8
LAYER_1
 10
68.7137
 20
88.8125
  0
VERTEX
  8
LAYER_1
 10
68.7137
 20
88.7633
  0
VERTEX
  8
LAYER_1
 10
68.7137
 20
88.7141
  0
VERTEX
  8
LAYER_1
 10
68.7137
 20
88.6649
  0
VERTEX
  8
LAYER_1
 10
68.7137
 20
88.4675
  0
VERTEX
  8
LAYER_1
 10
68.7137
 20
88.2214
  0
VERTEX
  8
LAYER_1
 10
68.7137
 20
88.0241
  0
VERTEX
  8
LAYER_1
 10
68.7137
 20
87.8272
  0
VERTEX
  8
LAYER_1
 10
68.7137
 20
87.7283
  0
VERTEX
  8
LAYER_1
 10
68.7137
 20
87.6791
  0
VERTEX
  8
LAYER_1
 10
68.7137
 20
87.6299
  0
VERTEX
  8
LAYER_1
 10
68.7137
 20
87.5314
  0
VERTEX
  8
LAYER_1
 10
68.7137
 20
87.4822
  0
VERTEX
  8
LAYER_1
 10
68.6645
 20
87.3833
  0
VERTEX
  8
LAYER_1
 10
68.6152
 20
87.3341
  0
VERTEX
  8
LAYER_1
 10
68.566
 20
87.2849
  0
VERTEX
  8
LAYER_1
 10
68.4671
 20
87.2849
  0
VERTEX
  8
LAYER_1
 10
68.4179
 20
87.2357
  0
VERTEX
  8
LAYER_1
 10
68.3195
 20
87.2357
  0
VERTEX
  8
LAYER_1
 10
68.221
 20
87.2357
  0
VERTEX
  8
LAYER_1
 10
68.1718
 20
87.2849
  0
VERTEX
  8
LAYER_1
 10
68.1226
 20
87.2849
  0
VERTEX
  8
LAYER_1
 10
68.0237
 20
87.3341
  0
VERTEX
  8
LAYER_1
 10
67.9745
 20
87.3833
  0
VERTEX
  8
LAYER_1
 10
67.9745
 20
87.4822
  0
VERTEX
  8
LAYER_1
 10
67.9252
 20
87.5314
  0
VERTEX
  8
LAYER_1
 10
67.9252
 20
87.6299
  0
SEQEND
  0
POLYLINE
  8
LAYER_1
 40
0.2752
 41
0.2752
 66
1
 10
0
 20
0
 30
0
  0
VERTEX
  8
LAYER_1
 10
100.402
 20
87.6299
  0
VERTEX
  8
LAYER_1
 10
100.402
 20
87.6791
  0
VERTEX
  8
LAYER_1
 10
100.402
 20
87.7283
  0
VERTEX
  8
LAYER_1
 10
100.402
 20
87.8272
  0
VERTEX
  8
LAYER_1
 10
100.402
 20
88.0241
  0
VERTEX
  8
LAYER_1
 10
100.402
 20
88.2214
  0
VERTEX
  8
LAYER_1
 10
100.402
 20
88.4675
  0
VERTEX
  8
LAYER_1
 10
100.402
 20
88.6649
  0
VERTEX
  8
LAYER_1
 10
100.402
 20
88.7141
  0
VERTEX
  8
LAYER_1
 10
100.402
 20
88.7633
  0
VERTEX
  8
LAYER_1
 10
100.402
 20
88.8125
  0
VERTEX
  8
LAYER_1
 10
100.402
 20
88.911
  0
VERTEX
  8
LAYER_1
 10
100.402
 20
88.9606
  0
VERTEX
  8
LAYER_1
 10
100.4512
 20
89.0591
  0
VERTEX
  8
LAYER_1
 10
100.5004
 20
89.1083
  0
VERTEX
  8
LAYER_1
 10
100.5496
 20
89.1575
  0
VERTEX
  8
LAYER_1
 10
100.6485
 20
89.2067
  0
VERTEX
  8
LAYER_1
 10
100.6977
 20
89.2067
  0
VERTEX
  8
LAYER_1
 10
100.7962
 20
89.2067
  0
VERTEX
  8
LAYER_1
 10
100.8454
 20
89.2067
  0
VERTEX
  8
LAYER_1
 10
100.9438
 20
89.2067
  0
VERTEX
  8
LAYER_1
 10
100.9935
 20
89.1575
  0
VERTEX
  8
LAYER_1
 10
101.0427
 20
89.1083
  0
VERTEX
  8
LAYER_1
 10
101.0919
 20
89.0591
  0
VERTEX
  8
LAYER_1
 10
101.1412
 20
88.9606
  0
VERTEX
  8
LAYER_1
 10
101.1904
 20
88.911
  0
VERTEX
  8
LAYER_1
 10
101.1904
 20
88.8125
  0
VERTEX
  8
LAYER_1
 10
101.1904
 20
88.7633
  0
VERTEX
  8
LAYER_1
 10
101.1904
 20
88.7141
  0
VERTEX
  8
LAYER_1
 10
101.1904
 20
88.6649
  0
VERTEX
  8
LAYER_1
 10
101.1904
 20
88.4675
  0
VERTEX
  8
LAYER_1
 10
101.1904
 20
88.2214
  0
VERTEX
  8
LAYER_1
 10
101.1904
 20
88.0241
  0
VERTEX
  8
LAYER_1
 10
101.1904
 20
87.8272
  0
VERTEX
  8
LAYER_1
 10
101.1904
 20
87.7283
  0
VERTEX
  8
LAYER_1
 10
101.1904
 20
87.6791
  0
VERTEX
  8
LAYER_1
 10
101.1904
 20
87.6299
  0
VERTEX
  8
LAYER_1
 10
101.1904
 20
87.5314
  0
VERTEX
  8
LAYER_1
 10
101.1412
 20
87.4822
  0
VERTEX
  8
LAYER_1
 10
101.0919
 20
87.3833
  0
VERTEX
  8
LAYER_1
 10
101.0427
 20
87.3341
  0
VERTEX
  8
LAYER_1
 10
100.9935
 20
87.2849
  0
VERTEX
  8
LAYER_1
 10
100.9438
 20
87.2849
  0
VERTEX
  8
LAYER_1
 10
100.8454
 20
87.2357
  0
VERTEX
  8
LAYER_1
 10
100.7962
 20
87.2357
  0
VERTEX
  8
LAYER_1
 10
100.6977
 20
87.2357
  0
VERTEX
  8
LAYER_1
 10
100.6485
 20
87.2849
  0
VERTEX
  8
LAYER_1
 10
100.5496
 20
87.2849
  0
VERTEX
  8
LAYER_1
 10
100.5004
 20
87.3341
  0
VERTEX
  8
LAYER_1
 10
100.4512
 20
87.3833
  0
VERTEX
  8
LAYER_1
 10
100.402
 20
87.4822
  0
VERTEX
  8
LAYER_1
 10
100.402
 20
87.5314
  0
VERTEX
  8
LAYER_1
 10
100.402
 20
87.6299
  0
SEQEND
  0
POLYLINE
  8
LAYER_1
 40
0.1058
 41
0.1058
 66
1
 10
0
 20
0
 30
0
  0
VERTEX
  8
LAYER_1
 10
99.2685
 20
88.2212
  0
VERTEX
  8
LAYER_1
 10
86.8988
 20
88.2212
  0
SEQEND
  0
POLYLINE
  8
LAYER_1
 40
0.1058
 41
0.1058
 66
1
 10
0
 20
0
 30
0
  0
VERTEX
  8
LAYER_1
 10
69.7979
 20
88.2212
  0
VERTEX
  8
LAYER_1
 10
79.9008
 20
88.2212
  0
SEQEND
  0
POLYLINE
  8
LAYER_1
 40
0.05
 41
0.05
 66
1
 10
0
 20
0
 30
0
 70
1
  0
VERTEX
  8
LAYER_1
 10
99.2685
 20
88.4677
  0
VERTEX
  8
LAYER_1
 10
99.2685
 20
87.975
  0
VERTEX
  8
LAYER_1
 10
100.7961
 20
88.2211
  0
SEQEND
  0
POLYLINE
  8
LAYER_1
 66
1
 10
0
 20
0
 30
0
 70
1
  0
VERTEX
  8
LAYER_1
 10
99.2685
 20
88.4677
  0
VERTEX
  8
LAYER_1
 10
99.2685
 20
87.975
  0
VERTEX
  8
LAYER_1
 10
100.7961
 20
88.2211
  0
SEQEND
  0
POLYLINE
  8
LAYER_1
 40
0.05
 41
0.05
 66
1
 10
0
 20
0
 30
0
 70
1
  0
VERTEX
  8
LAYER_1
 10
69.7979
 20
88.4677
  0
VERTEX
  8
LAYER_1
 10
69.7979
 20
87.975
  0
VERTEX
  8
LAYER_1
 10
68.3195
 20
88.2211
  0
SEQEND
  0
POLYLINE
  8
LAYER_1
 66
1
 10
0
 20
0
 30
0
 70
1
  0
VERTEX
  8
LAYER_1
 10
69.7979
 20
88.4677
  0
VERTEX
  8
LAYER_1
 10
69.7979
 20
87.975
  0
VERTEX
  8
LAYER_1
 10
68.3195
 20
88.2211
  0
SEQEND
  0
TEXT
  8
LAYER_1
 10
79.7527
 20
86.9893
 11
79.7527
 21
86.9893
 40
3.6967
 41
0.5
  1
325
  0
POLYLINE
  8
LAYER_1
 40
0.2752
 41
0.2752
 66
1
 10
0
 20
0
 30
0
  0
VERTEX
  8
LAYER_1
 10
63.687
 20
115.2277
  0
VERTEX
  8
LAYER_1
 10
63.687
 20
115.2769
  0
VERTEX
  8
LAYER_1
 10
63.687
 20
115.3261
  0
VERTEX
  8
LAYER_1
 10
63.687
 20
115.3754
  0
VERTEX
  8
LAYER_1
 10
63.687
 20
115.5235
  0
VERTEX
  8
LAYER_1
 10
63.687
 20
115.7204
  0
VERTEX
  8
LAYER_1
 10
63.687
 20
115.8685
  0
VERTEX
  8
LAYER_1
 10
63.687
 20
116.0161
  0
VERTEX
  8
LAYER_1
 10
63.687
 20
116.0654
  0
VERTEX
  8
LAYER_1
 10
63.687
 20
116.1146
  0
VERTEX
  8
LAYER_1
 10
63.687
 20
116.1642
  0
VERTEX
  8
LAYER_1
 10
63.687
 20
116.2627
  0
VERTEX
  8
LAYER_1
 10
63.7362
 20
116.3119
  0
VERTEX
  8
LAYER_1
 10
63.7362
 20
116.3611
  0
VERTEX
  8
LAYER_1
 10
63.7854
 20
116.4103
  0
VERTEX
  8
LAYER_1
 10
63.8347
 20
116.4596
  0
VERTEX
  8
LAYER_1
 10
63.9335
 20
116.4596
  0
VERTEX
  8
LAYER_1
 10
63.9828
 20
116.5092
  0
VERTEX
  8
LAYER_1
 10
64.0812
 20
116.5092
  0
VERTEX
  8
LAYER_1
 10
64.1797
 20
116.5092
  0
VERTEX
  8
LAYER_1
 10
64.2289
 20
116.4596
  0
VERTEX
  8
LAYER_1
 10
64.3278
 20
116.4596
  0
VERTEX
  8
LAYER_1
 10
64.377
 20
116.4103
  0
VERTEX
  8
LAYER_1
 10
64.4262
 20
116.3611
  0
VERTEX
  8
LAYER_1
 10
64.4262
 20
116.3119
  0
VERTEX
  8
LAYER_1
 10
64.4754
 20
116.2627
  0
VERTEX
  8
LAYER_1
 10
64.4754
 20
116.1642
  0
VERTEX
  8
LAYER_1
 10
64.4754
 20
116.1146
  0
VERTEX
  8
LAYER_1
 10
64.4754
 20
116.0654
  0
VERTEX
  8
LAYER_1
 10
64.4754
 20
116.0161
  0
VERTEX
  8
LAYER_1
 10
64.4754
 20
115.8685
  0
VERTEX
  8
LAYER_1
 10
64.4754
 20
115.7204
  0
VERTEX
  8
LAYER_1
 10
64.4754
 20
115.5235
  0
VERTEX
  8
LAYER_1
 10
64.4754
 20
115.3754
  0
VERTEX
  8
LAYER_1
 10
64.4754
 20
115.3261
  0
VERTEX
  8
LAYER_1
 10
64.4754
 20
115.2769
  0
VERTEX
  8
LAYER_1
 10
64.4754
 20
115.2277
  0
VERTEX
  8
LAYER_1
 10
64.4754
 20
115.1785
  0
VERTEX
  8
LAYER_1
 10
64.4262
 20
115.08
  0
VERTEX
  8
LAYER_1
 10
64.4262
 20
115.0304
  0
VERTEX
  8
LAYER_1
 10
64.377
 20
114.9811
  0
VERTEX
  8
LAYER_1
 10
64.3278
 20
114.9319
  0
VERTEX
  8
LAYER_1
 10
64.2289
 20
114.9319
  0
VERTEX
  8
LAYER_1
 10
64.1797
 20
114.8827
  0
VERTEX
  8
LAYER_1
 10
64.0812
 20
114.8827
  0
VERTEX
  8
LAYER_1
 10
63.9828
 20
114.8827
  0
VERTEX
  8
LAYER_1
 10
63.9335
 20
114.9319
  0
VERTEX
  8
LAYER_1
 10
63.8347
 20
114.9319
  0
VERTEX
  8
LAYER_1
 10
63.7854
 20
114.9811
  0
VERTEX
  8
LAYER_1
 10
63.7362
 20
115.0304
  0
VERTEX
  8
LAYER_1
 10
63.7362
 20
115.08
  0
VERTEX
  8
LAYER_1
 10
63.687
 20
115.1785
  0
VERTEX
  8
LAYER_1
 10
63.687
 20
115.2277
  0
SEQEND
  0
POLYLINE
  8
LAYER_1
 40
0.2752
 41
0.2752
 66
1
 10
0
 20
0
 30
0
  0
VERTEX
  8
LAYER_1
 10
104.6402
 20
115.2277
  0
VERTEX
  8
LAYER_1
 10
104.6402
 20
115.2769
  0
VERTEX
  8
LAYER_1
 10
104.6402
 20
115.3261
  0
VERTEX
  8
LAYER_1
 10
104.6402
 20
115.3754
  0
VERTEX
  8
LAYER_1
 10
104.6402
 20
115.5235
  0
VERTEX
  8
LAYER_1
 10
104.6402
 20
115.7204
  0
VERTEX
  8
LAYER_1
 10
104.6402
 20
115.8685
  0
VERTEX
  8
LAYER_1
 10
104.6402
 20
116.0161
  0
VERTEX
  8
LAYER_1
 10
104.6402
 20
116.0654
  0
VERTEX
  8
LAYER_1
 10
104.6402
 20
116.1146
  0
VERTEX
  8
LAYER_1
 10
104.6402
 20
116.1642
  0
VERTEX
  8
LAYER_1
 10
104.6402
 20
116.2627
  0
VERTEX
  8
LAYER_1
 10
104.6402
 20
116.3119
  0
VERTEX
  8
LAYER_1
 10
104.6894
 20
116.3611
  0
VERTEX
  8
LAYER_1
 10
104.7386
 20
116.4103
  0
VERTEX
  8
LAYER_1
 10
104.7878
 20
116.4596
  0
VERTEX
  8
LAYER_1
 10
104.8867
 20
116.4596
  0
VERTEX
  8
LAYER_1
 10
104.9359
 20
116.5092
  0
VERTEX
  8
LAYER_1
 10
105.0344
 20
116.5092
  0
VERTEX
  8
LAYER_1
 10
105.0836
 20
116.5092
  0
VERTEX
  8
LAYER_1
 10
105.182
 20
116.4596
  0
VERTEX
  8
LAYER_1
 10
105.2317
 20
116.4596
  0
VERTEX
  8
LAYER_1
 10
105.3302
 20
116.4103
  0
VERTEX
  8
LAYER_1
 10
105.3794
 20
116.3611
  0
VERTEX
  8
LAYER_1
 10
105.3794
 20
116.3119
  0
VERTEX
  8
LAYER_1
 10
105.4286
 20
116.2627
  0
VERTEX
  8
LAYER_1
 10
105.4286
 20
116.1642
  0
VERTEX
  8
LAYER_1
 10
105.4286
 20
116.1146
  0
VERTEX
  8
LAYER_1
 10
105.4286
 20
116.0654
  0
VERTEX
  8
LAYER_1
 10
105.4286
 20
116.0161
  0
VERTEX
  8
LAYER_1
 10
105.4286
 20
115.8685
  0
VERTEX
  8
LAYER_1
 10
105.4286
 20
115.7204
  0
VERTEX
  8
LAYER_1
 10
105.4286
 20
115.5235
  0
VERTEX
  8
LAYER_1
 10
105.4286
 20
115.3754
  0
VERTEX
  8
LAYER_1
 10
105.4286
 20
115.3261
  0
VERTEX
  8
LAYER_1
 10
105.4286
 20
115.2769
  0
VERTEX
  8
LAYER_1
 10
105.4286
 20
115.2277
  0
VERTEX
  8
LAYER_1
 10
105.4286
 20
115.1785
  0
VERTEX
  8
LAYER_1
 10
105.3794
 20
115.08
  0
VERTEX
  8
LAYER_1
 10
105.3794
 20
115.0304
  0
VERTEX
  8
LAYER_1
 10
105.3302
 20
114.9811
  0
VERTEX
  8
LAYER_1
 10
105.2317
 20
114.9319
  0
VERTEX
  8
LAYER_1
 10
105.182
 20
114.9319
  0
VERTEX
  8
LAYER_1
 10
105.0836
 20
114.8827
  0
VERTEX
  8
LAYER_1
 10
105.0344
 20
114.8827
  0
VERTEX
  8
LAYER_1
 10
104.9359
 20
114.8827
  0
VERTEX
  8
LAYER_1
 10
104.8867
 20
114.9319
  0
VERTEX
  8
LAYER_1
 10
104.7878
 20
114.9319
  0
VERTEX
  8
LAYER_1
 10
104.7386
 20
114.9811
  0
VERTEX
  8
LAYER_1
 10
104.6894
 20
115.0304
  0
VERTEX
  8
LAYER_1
 10
104.6402
 20
115.08
  0
VERTEX
  8
LAYER_1
 10
104.6402
 20
115.1785
  0
VERTEX
  8
LAYER_1
 10
104.6402
 20
115.2277
  0
SEQEND
  0
POLYLINE
  8
LAYER_1
 40
0.1058
 41
0.1058
 66
1
 10
0
 20
0
 30
0
  0
VERTEX
  8
LAYER_1
 10
65.5597
 20
115.7205
  0
VERTEX
  8
LAYER_1
 10
81.0836
 20
115.7205
  0
SEQEND
  0
POLYLINE
  8
LAYER_1
 40
0.1058
 41
0.1058
 66
1
 10
0
 20
0
 30
0
  0
VERTEX
  8
LAYER_1
 10
103.5067
 20
115.7205
  0
VERTEX
  8
LAYER_1
 10
88.032
 20
115.7205
  0
SEQEND
  0
POLYLINE
  8
LAYER_1
 40
0.05
 41
0.05
 66
1
 10
0
 20
0
 30
0
 70
1
  0
VERTEX
  8
LAYER_1
 10
65.5597
 20
115.9669
  0
VERTEX
  8
LAYER_1
 10
65.5597
 20
115.425
  0
VERTEX
  8
LAYER_1
 10
64.0813
 20
115.7204
  0
SEQEND
  0
POLYLINE
  8
LAYER_1
 66
1
 10
0
 20
0
 30
0
 70
1
  0
VERTEX
  8
LAYER_1
 10
65.5597
 20
115.9669
  0
VERTEX
  8
LAYER_1
 10
65.5597
 20
115.425
  0
VERTEX
  8
LAYER_1
 10
64.0813
 20
115.7204
  0
SEQEND
  0
POLYLINE
  8
LAYER_1
 40
0.05
 41
0.05
 66
1
 10
0
 20
0
 30
0
 70
1
  0
VERTEX
  8
LAYER_1
 10
103.5067
 20
115.9669
  0
VERTEX
  8
LAYER_1
 10
103.5067
 20
115.425
  0
VERTEX
  8
LAYER_1
 10
105.0343
 20
115.7204
  0
SEQEND
  0
POLYLINE
  8
LAYER_1
 66
1
 10
0
 20
0
 30
0
 70
1
  0
VERTEX
  8
LAYER_1
 10
103.5067
 20
115.9669
  0
VERTEX
  8
LAYER_1
 10
103.5067
 20
115.425
  0
VERTEX
  8
LAYER_1
 10
105.0343
 20
115.7204
  0
SEQEND
  0
TEXT
  8
LAYER_1
 10
80.9354
 20
114.4884
 11
80.9354
 21
114.4884
 40
3.6967
 41
0.5
  1
410
  0
POLYLINE
  8
LAYER_1
 40
0.1058
 41
0.1058
 66
1
 10
0
 20
0
 30
0
  0
VERTEX
  8
LAYER_1
 10
64.0812
 20
115.7205
  0
VERTEX
  8
LAYER_1
 10
64.0812
 20
116.4597
  0
SEQEND
  0
POLYLINE
  8
LAYER_1
 40
0.1058
 41
0.1058
 66
1
 10
0
 20
0
 30
0
  0
VERTEX
  8
LAYER_1
 10
105.0344
 20
115.7205
  0
VERTEX
  8
LAYER_1
 10
105.0344
 20
116.4597
  0
SEQEND
  0
POLYLINE
  8
LAYER_1
 40
0.1058
 41
0.1058
 66
1
 10
0
 20
0
 30
0
  0
VERTEX
  8
LAYER_1
 10
90.8812
 20
203.0965
  0
VERTEX
  8
LAYER_1
 10
89.8818
 20
203.0965
  0
SEQEND
  0
POLYLINE
  8
LAYER_1
 40
0.1058
 41
0.1058
 66
1
 10
0
 20
0
 30
0
  0
VERTEX
  8
LAYER_1
 10
89.8811
 20
203.0965
  0
VERTEX
  8
LAYER_1
 10
88.2922
 20
204.5541
  0
SEQEND
  0
TEXT
  8
LAYER_1
 10
91.193
 20
202.5999
 11
91.193
 21
202.5999
 40
3.7753
 41
0.5
  1
35
  0
POLYLINE
  8
LAYER_1
 40
0.05
 41
0.05
 66
1
 10
0
 20
0
 30
0
 70
1
  0
VERTEX
  8
LAYER_1
 10
88.4048
 20
204.6771
  0
VERTEX
  8
LAYER_1
 10
88.1795
 20
204.4311
  0
VERTEX
  8
LAYER_1
 10
87.5556
 20
205.23
  0
SEQEND
  0
ENDSEC
  0
EOF
