  0
SECTION
  2
HEADER
  9
$ACADVER
  1
AC1009
  9
$LUNITS
 70
2
  9
$LUPREC
 70
4
  9
$LTSCALE
 40
1.0
  9
$EXTMIN
 10
16.0764
 20
-7.7766
 30
0
  9
$EXTMAX
 10
206.0763
 20
269.2235
 30
0
  0
ENDSEC
  0
SECTION
  2
TABLES
  0
TABLE
  2
LTYPE
 70
256
  0
ENDTAB
  0
TABLE
  2
LAYER
 70
9
  0
LAYER
  2
LAYER_1
 70
64
 62
7
  6
CONTINUOUS
  0
LAYER
  2
LAYER_2
 70
64
 62
7
  6
CONTINUOUS
  0
LAYER
  2
LAYER_3
 70
64
 62
7
  6
CONTINUOUS
  0
LAYER
  2
LAYER_4
 70
64
 62
7
  6
CONTINUOUS
  0
LAYER
  2
LAYER_5
 70
64
 62
7
  6
CONTINUOUS
  0
LAYER
  2
LAYER_6
 70
64
 62
7
  6
CONTINUOUS
  0
LAYER
  2
LAYER_7
 70
64
 62
7
  6
CONTINUOUS
  0
LAYER
  2
LAYER_8
 70
64
 62
7
  6
CONTINUOUS
  0
LAYER
  2
LAYER_9
 70
64
 62
7
  6
CONTINUOUS
  0
ENDTAB
  0
TABLE
  2
STYLE
 70
6
  0
STYLE
  2
STANDARD
 70
0
 40
0
 50
0
 71
0
 41
0
 42
0
  3
TXT
  4
BIGFONT
  0
ENDTAB
  0
ENDSEC
  0
SECTION
  2
BLOCKS
  0
BLOCK
  8
LAYER_9
  2
AIGNBL09040006
 70
64
 10
0
 20
0
 30
0
  3
AIGNBL09040006
  0
POLYLINE
  8
LAYER_9
 40
0.05
 41
0.05
 66
1
 10
0
 20
0
 30
0
 70
1
  0
VERTEX
  8
LAYER_9
 10
129.456
 20
-2.0154
  0
VERTEX
  8
LAYER_9
 10
129.0416
 20
-3.02
  0
VERTEX
  8
LAYER_9
 10
128.5093
 20
-3.02
  0
VERTEX
  8
LAYER_9
 10
129.8649
 20
0.1719
  0
VERTEX
  8
LAYER_9
 10
130.4864
 20
0.1719
  0
VERTEX
  8
LAYER_9
 10
131.8483
 20
-3.02
  0
VERTEX
  8
LAYER_9
 10
131.2971
 20
-3.02
  0
VERTEX
  8
LAYER_9
 10
130.8709
 20
-2.0154
  0
SEQEND
  0
POLYLINE
  8
LAYER_9
 40
0.05
 41
0.05
 66
1
 10
0
 20
0
 30
0
 70
1
  0
VERTEX
  8
LAYER_9
 10
130.7645
 20
-1.6943
  0
VERTEX
  8
LAYER_9
 10
130.3738
 20
-0.7748
 42
-0.02216005297
  0
VERTEX
  8
LAYER_9
 10
130.1664
 20
-0.1926
  0
VERTEX
  8
LAYER_9
 10
130.1547
 20
-0.1926
  0
VERTEX
  8
LAYER_9
 10
129.9531
 20
-0.771
  0
VERTEX
  8
LAYER_9
 10
129.5628
 20
-1.6943
  0
SEQEND
  0
ENDBLK
  0
BLOCK
  8
LAYER_9
  2
AIGNBL09040007
 70
64
 10
0
 20
0
 30
0
  3
AIGNBL09040007
  0
POLYLINE
  8
LAYER_9
 40
0.05
 41
0.05
 66
1
 10
0
 20
0
 30
0
 70
1
  0
VERTEX
  8
LAYER_9
 10
135.5483
 20
-3.4888
 42
-0.01552181083
  0
VERTEX
  8
LAYER_9
 10
134.0208
 20
-3.1192
 42
0.09485548057
  0
VERTEX
  8
LAYER_9
 10
133.7779
 20
-3.0723
 42
-0.1003837549
  0
VERTEX
  8
LAYER_9
 10
132.9136
 20
-2.8753
 42
-0.1096977777
  0
VERTEX
  8
LAYER_9
 10
132.3509
 20
-2.4434
 42
-0.1713220547
  0
VERTEX
  8
LAYER_9
 10
132.0204
 20
-1.5054
 42
-0.006481895679
  0
VERTEX
  8
LAYER_9
 10
132.0198
 20
-1.4576
 42
-0.1157034776
  0
VERTEX
  8
LAYER_9
 10
132.1944
 20
-0.6874
 42
-0.1679073219
  0
VERTEX
  8
LAYER_9
 10
132.9309
 20
0.0216
 42
-0.1003512093
  0
VERTEX
  8
LAYER_9
 10
133.7293
 20
0.2196
 42
-0.01509702754
  0
VERTEX
  8
LAYER_9
 10
133.8788
 20
0.2239
 42
-0.1039813645
  0
VERTEX
  8
LAYER_9
 10
134.7542
 20
0.0481
 42
-0.1145898629
  0
VERTEX
  8
LAYER_9
 10
135.3272
 20
-0.3876
 42
-0.1701856296
  0
VERTEX
  8
LAYER_9
 10
135.666
 20
-1.3471
 42
-0.006054360336
  0
VERTEX
  8
LAYER_9
 10
135.6665
 20
-1.3911
 42
-0.1147479258
  0
VERTEX
  8
LAYER_9
 10
135.4962
 20
-2.1585
 42
-0.1768882835
  0
VERTEX
  8
LAYER_9
 10
134.7691
 20
-2.8357
 42
-0.03553098636
  0
VERTEX
  8
LAYER_9
 10
134.5299
 20
-2.9208
  0
VERTEX
  8
LAYER_9
 10
134.5299
 20
-2.9397
 42
0.015518042
  0
VERTEX
  8
LAYER_9
 10
135.6965
 20
-3.1433
  0
SEQEND
  0
POLYLINE
  8
LAYER_9
 40
0.05
 41
0.05
 66
1
 10
0
 20
0
 30
0
 70
1
  0
VERTEX
  8
LAYER_9
 10
135.1221
 20
-1.4094
 42
0.1259362341
  0
VERTEX
  8
LAYER_9
 10
134.9462
 20
-0.7184
 42
0.276679865
  0
VERTEX
  8
LAYER_9
 10
133.8606
 20
-0.1123
 42
0.1289955121
  0
VERTEX
  8
LAYER_9
 10
133.1745
 20
-0.2827
 42
0.1986420642
  0
VERTEX
  8
LAYER_9
 10
132.6285
 20
-1.0068
 42
0.0720917222
  0
VERTEX
  8
LAYER_9
 10
132.5704
 20
-1.4473
 42
0.1267003761
  0
VERTEX
  8
LAYER_9
 10
132.7336
 20
-2.1134
 42
0.2778201673
  0
VERTEX
  8
LAYER_9
 10
133.8371
 20
-2.7364
 42
0.1289462616
  0
VERTEX
  8
LAYER_9
 10
134.5134
 20
-2.5677
 42
0.1974163715
  0
VERTEX
  8
LAYER_9
 10
135.0613
 20
-1.849
 42
0.07132768739
  0
SEQEND
  0
ENDBLK
  0
BLOCK
  8
LAYER_9
  2
AIGNBL09040008
 70
64
 10
0
 20
0
 30
0
  3
AIGNBL09040008
  0
POLYLINE
  8
LAYER_9
 40
0.05
 41
0.05
 66
1
 10
0
 20
0
 30
0
 70
1
  0
VERTEX
  8
LAYER_9
 10
136.7917
 20
0.1719
  0
VERTEX
  8
LAYER_9
 10
136.7917
 20
-1.7177
 42
0.1389690947
  0
VERTEX
  8
LAYER_9
 10
136.9577
 20
-2.374
 42
0.2427126428
  0
VERTEX
  8
LAYER_9
 10
137.6108
 20
-2.7319
 42
0.02279498975
  0
VERTEX
  8
LAYER_9
 10
137.7211
 20
-2.7364
 42
0.1446729725
  0
VERTEX
  8
LAYER_9
 10
138.3259
 20
-2.5761
 42
0.1656579644
  0
VERTEX
  8
LAYER_9
 10
138.6235
 20
-2.1745
 42
0.08655069697
  0
VERTEX
  8
LAYER_9
 10
138.692
 20
-1.7177
  0
VERTEX
  8
LAYER_9
 10
138.692
 20
0.1719
  0
VERTEX
  8
LAYER_9
 10
139.2128
 20
0.1719
  0
VERTEX
  8
LAYER_9
 10
139.2128
 20
-1.6895
 42
-0.1213820876
  0
VERTEX
  8
LAYER_9
 10
139.0452
 20
-2.4294
 42
-0.2016338535
  0
VERTEX
  8
LAYER_9
 10
138.3376
 20
-2.9837
 42
-0.07892789043
  0
VERTEX
  8
LAYER_9
 10
137.7032
 20
-3.0723
 42
-0.1140673463
  0
VERTEX
  8
LAYER_9
 10
136.8908
 20
-2.9015
 42
-0.2086854916
  0
VERTEX
  8
LAYER_9
 10
136.338
 20
-2.2193
 42
-0.07376116688
  0
VERTEX
  8
LAYER_9
 10
136.2707
 20
-1.7081
  0
VERTEX
  8
LAYER_9
 10
136.2707
 20
0.1719
  0
SEQEND
  0
ENDBLK
  0
BLOCK
  8
LAYER_9
  2
AIGNBL09040009
 70
64
 10
0
 20
0
 30
0
  3
AIGNBL09040009
  0
POLYLINE
  8
LAYER_9
 40
0.05
 41
0.05
 66
1
 10
0
 20
0
 30
0
 70
1
  0
VERTEX
  8
LAYER_9
 10
140.6932
 20
-2.0154
  0
VERTEX
  8
LAYER_9
 10
140.2784
 20
-3.02
  0
VERTEX
  8
LAYER_9
 10
139.7462
 20
-3.02
  0
VERTEX
  8
LAYER_9
 10
141.1018
 20
0.1719
  0
VERTEX
  8
LAYER_9
 10
141.723
 20
0.1719
  0
VERTEX
  8
LAYER_9
 10
143.0848
 20
-3.02
  0
VERTEX
  8
LAYER_9
 10
142.5343
 20
-3.02
  0
VERTEX
  8
LAYER_9
 10
142.1081
 20
-2.0154
  0
SEQEND
  0
POLYLINE
  8
LAYER_9
 40
0.05
 41
0.05
 66
1
 10
0
 20
0
 30
0
 70
1
  0
VERTEX
  8
LAYER_9
 10
142.0013
 20
-1.6943
  0
VERTEX
  8
LAYER_9
 10
141.6103
 20
-0.7748
 42
-0.02125651819
  0
VERTEX
  8
LAYER_9
 10
141.4029
 20
-0.1926
  0
VERTEX
  8
LAYER_9
 10
141.3912
 20
-0.1926
 42
-0.02103918769
  0
VERTEX
  8
LAYER_9
 10
141.19
 20
-0.771
  0
VERTEX
  8
LAYER_9
 10
140.7993
 20
-1.6943
  0
SEQEND
  0
ENDBLK
  0
BLOCK
  8
LAYER_9
  2
AIGNBL0904000A
 70
64
 10
0
 20
0
 30
0
  3
AIGNBL0904000A
  0
POLYLINE
  8
LAYER_9
 40
0.05
 41
0.05
 66
1
 10
0
 20
0
 30
0
 70
1
  0
VERTEX
  8
LAYER_9
 10
143.9667
 20
0.134
 42
-0.03323004622
  0
VERTEX
  8
LAYER_9
 10
144.9558
 20
0.196
 42
-0.09647193575
  0
VERTEX
  8
LAYER_9
 10
145.8857
 20
0.0378
 42
-0.05236720747
  0
VERTEX
  8
LAYER_9
 10
146.0744
 20
-0.0692
 42
-0.2475259652
  0
VERTEX
  8
LAYER_9
 10
146.4234
 20
-0.7372
 42
-0.1633402787
  0
VERTEX
  8
LAYER_9
 10
146.2524
 20
-1.2789
 42
-0.05697727427
  0
VERTEX
  8
LAYER_9
 10
146.1158
 20
-1.419
 42
-0.07156855431
  0
VERTEX
  8
LAYER_9
 10
145.8226
 20
-1.5999
 42
-0.09992408918
  0
VERTEX
  8
LAYER_9
 10
145.0131
 20
-1.7676
 42
-0.009805001523
  0
VERTEX
  8
LAYER_9
 10
144.8962
 20
-1.7697
 42
-0.05927523618
  0
VERTEX
  8
LAYER_9
 10
144.4821
 20
-1.7412
  0
VERTEX
  8
LAYER_9
 10
144.4821
 20
-3.02
  0
VERTEX
  8
LAYER_9
 10
143.9667
 20
-3.02
  0
SEQEND
  0
POLYLINE
  8
LAYER_9
 40
0.05
 41
0.05
 66
1
 10
0
 20
0
 30
0
 70
1
  0
VERTEX
  8
LAYER_9
 10
144.4821
 20
-1.4049
 42
0.04848394292
  0
VERTEX
  8
LAYER_9
 10
144.9079
 20
-1.4383
 42
0.1267241775
  0
VERTEX
  8
LAYER_9
 10
145.6171
 20
-1.2783
 42
0.1801713856
  0
VERTEX
  8
LAYER_9
 10
145.8819
 20
-0.948
 42
0.07354410889
  0
VERTEX
  8
LAYER_9
 10
145.9091
 20
-0.7562
 42
0.3108550011
  0
VERTEX
  8
LAYER_9
 10
145.5518
 20
-0.2329
 42
0.1110538748
  0
VERTEX
  8
LAYER_9
 10
144.9679
 20
-0.1313
 42
0.05507706355
  0
VERTEX
  8
LAYER_9
 10
144.4821
 20
-0.1643
  0
SEQEND
  0
ENDBLK
  0
BLOCK
  8
LAYER_9
  2
AIGNBL0904000B
 70
64
 10
0
 20
0
 30
0
  3
AIGNBL0904000B
  0
POLYLINE
  8
LAYER_9
 40
0.05
 41
0.05
 66
1
 10
0
 20
0
 30
0
 70
1
  0
VERTEX
  8
LAYER_9
 10
147.7391
 20
-0.0837
 42
-0.324457032
  0
VERTEX
  8
LAYER_9
 10
147.577
 20
-0.309
 42
-0.09625236779
  0
VERTEX
  8
LAYER_9
 10
147.407
 20
-0.3397
 42
-0.2676203371
  0
VERTEX
  8
LAYER_9
 10
147.1164
 20
-0.1839
 42
-0.1146645173
  0
VERTEX
  8
LAYER_9
 10
147.0932
 20
-0.0837
 42
-0.3123927637
  0
VERTEX
  8
LAYER_9
 10
147.2663
 20
0.1485
 42
-0.09437290663
  0
VERTEX
  8
LAYER_9
 10
147.4187
 20
0.1764
 42
-0.2690720095
  0
VERTEX
  8
LAYER_9
 10
147.7152
 20
0.0218
 42
-0.1137202002
  0
SEQEND
  0
POLYLINE
  8
LAYER_9
 40
0.05
 41
0.05
 66
1
 10
0
 20
0
 30
0
 70
1
  0
VERTEX
  8
LAYER_9
 10
147.1579
 20
-3.02
  0
VERTEX
  8
LAYER_9
 10
147.1579
 20
-0.7279
  0
VERTEX
  8
LAYER_9
 10
147.6788
 20
-0.7279
  0
VERTEX
  8
LAYER_9
 10
147.6788
 20
-3.02
  0
SEQEND
  0
ENDBLK
  0
BLOCK
  8
LAYER_9
  2
AIGNBL0904000C
 70
64
 10
0
 20
0
 30
0
  3
AIGNBL0904000C
  0
POLYLINE
  8
LAYER_9
 40
0.05
 41
0.05
 66
1
 10
0
 20
0
 30
0
 70
1
  0
VERTEX
  8
LAYER_9
 10
149.2653
 20
-2.0154
  0
VERTEX
  8
LAYER_9
 10
148.8515
 20
-3.02
  0
VERTEX
  8
LAYER_9
 10
148.3183
 20
-3.02
  0
VERTEX
  8
LAYER_9
 10
149.6742
 20
0.1719
  0
VERTEX
  8
LAYER_9
 10
150.2961
 20
0.1719
  0
VERTEX
  8
LAYER_9
 10
151.6579
 20
-3.02
  0
VERTEX
  8
LAYER_9
 10
151.1071
 20
-3.02
  0
VERTEX
  8
LAYER_9
 10
150.6809
 20
-2.0154
  0
SEQEND
  0
POLYLINE
  8
LAYER_9
 40
0.05
 41
0.05
 66
1
 10
0
 20
0
 30
0
 70
1
  0
VERTEX
  8
LAYER_9
 10
150.5741
 20
-1.6943
  0
VERTEX
  8
LAYER_9
 10
150.1834
 20
-0.7748
 42
-0.02374663041
  0
VERTEX
  8
LAYER_9
 10
149.9767
 20
-0.1926
  0
VERTEX
  8
LAYER_9
 10
149.9643
 20
-0.1926
  0
VERTEX
  8
LAYER_9
 10
149.7631
 20
-0.771
  0
VERTEX
  8
LAYER_9
 10
149.3725
 20
-1.6943
  0
SEQEND
  0
ENDBLK
  0
BLOCK
  8
LAYER_9
  2
AIGNBL09030005
 70
64
 10
0
 20
0
 30
0
  3
AIGNBL09030005
  0
INSERT
  8
LAYER_9
  2
AIGNBL09040006
 10
0
 20
0
 30
0
  0
INSERT
  8
LAYER_9
  2
AIGNBL09040007
 10
0
 20
0
 30
0
  0
INSERT
  8
LAYER_9
  2
AIGNBL09040008
 10
0
 20
0
 30
0
  0
INSERT
  8
LAYER_9
  2
AIGNBL09040009
 10
0
 20
0
 30
0
  0
INSERT
  8
LAYER_9
  2
AIGNBL0904000A
 10
0
 20
0
 30
0
  0
INSERT
  8
LAYER_9
  2
AIGNBL0904000B
 10
0
 20
0
 30
0
  0
INSERT
  8
LAYER_9
  2
AIGNBL0904000C
 10
0
 20
0
 30
0
  0
ENDBLK
  0
BLOCK
  8
LAYER_9
  2
AIGNBL0903000E
 70
64
 10
0
 20
0
 30
0
  3
AIGNBL0903000E
  0
POLYLINE
  8
LAYER_9
 40
0.05
 41
0.05
 66
1
 10
0
 20
0
 30
0
 70
1
  0
VERTEX
  8
LAYER_9
 10
128.6023
 20
-4.6299
  0
VERTEX
  8
LAYER_9
 10
129.0715
 20
-4.6299
  0
VERTEX
  8
LAYER_9
 10
129.0715
 20
-4.7094
  0
VERTEX
  8
LAYER_9
 10
128.5134
 20
-4.7094
  0
VERTEX
  8
LAYER_9
 10
128.5134
 20
-3.8337
  0
VERTEX
  8
LAYER_9
 10
129.0564
 20
-3.8337
  0
VERTEX
  8
LAYER_9
 10
129.0564
 20
-3.9126
  0
VERTEX
  8
LAYER_9
 10
128.6023
 20
-3.9126
  0
VERTEX
  8
LAYER_9
 10
128.6023
 20
-4.213
  0
VERTEX
  8
LAYER_9
 10
129.0267
 20
-4.213
  0
VERTEX
  8
LAYER_9
 10
129.0267
 20
-4.2922
  0
VERTEX
  8
LAYER_9
 10
128.6023
 20
-4.2922
  0
SEQEND
  0
ENDBLK
  0
BLOCK
  8
LAYER_9
  2
AIGNBL0903000F
 70
64
 10
0
 20
0
 30
0
  3
AIGNBL0903000F
  0
POLYLINE
  8
LAYER_9
 40
0.05
 41
0.05
 66
1
 10
0
 20
0
 30
0
 70
1
  0
VERTEX
  8
LAYER_9
 10
130.0376
 20
-4.5792
  0
VERTEX
  8
LAYER_9
 10
130.0396
 20
-4.5792
  0
VERTEX
  8
LAYER_9
 10
130.0396
 20
-3.8337
  0
VERTEX
  8
LAYER_9
 10
130.1288
 20
-3.8337
  0
VERTEX
  8
LAYER_9
 10
130.1288
 20
-4.7094
  0
VERTEX
  8
LAYER_9
 10
130.0179
 20
-4.7094
  0
VERTEX
  8
LAYER_9
 10
129.5084
 20
-3.956
  0
VERTEX
  8
LAYER_9
 10
129.5053
 20
-3.956
  0
VERTEX
  8
LAYER_9
 10
129.5053
 20
-4.7094
  0
VERTEX
  8
LAYER_9
 10
129.4167
 20
-4.7094
  0
VERTEX
  8
LAYER_9
 10
129.4167
 20
-3.8337
  0
VERTEX
  8
LAYER_9
 10
129.5277
 20
-3.8337
  0
SEQEND
  0
ENDBLK
  0
BLOCK
  8
LAYER_9
  2
AIGNBL09030010
 70
64
 10
0
 20
0
 30
0
  3
AIGNBL09030010
  0
POLYLINE
  8
LAYER_9
 40
0.05
 41
0.05
 66
1
 10
0
 20
0
 30
0
 70
1
  0
VERTEX
  8
LAYER_9
 10
130.5299
 20
-4.5296
 42
0.1582167888
  0
VERTEX
  8
LAYER_9
 10
130.576
 20
-4.6171
 42
0.1888509688
  0
VERTEX
  8
LAYER_9
 10
130.6718
 20
-4.6523
  0
VERTEX
  8
LAYER_9
 10
130.7476
 20
-4.6357
  0
VERTEX
  8
LAYER_9
 10
130.7951
 20
-4.5906
  0
VERTEX
  8
LAYER_9
 10
130.8196
 20
-4.5255
  0
VERTEX
  8
LAYER_9
 10
130.8268
 20
-4.4497
  0
VERTEX
  8
LAYER_9
 10
130.8268
 20
-3.8337
  0
VERTEX
  8
LAYER_9
 10
130.9157
 20
-3.8337
  0
VERTEX
  8
LAYER_9
 10
130.9157
 20
-4.4569
  0
VERTEX
  8
LAYER_9
 10
130.9061
 20
-4.5482
  0
VERTEX
  8
LAYER_9
 10
130.8709
 20
-4.6374
 42
-0.1127204021
  0
VERTEX
  8
LAYER_9
 10
130.7992
 20
-4.705
 42
-0.1223515967
  0
VERTEX
  8
LAYER_9
 10
130.6814
 20
-4.7315
 42
-0.1817315996
  0
VERTEX
  8
LAYER_9
 10
130.525
 20
-4.6805
 42
-0.1775350534
  0
VERTEX
  8
LAYER_9
 10
130.4468
 20
-4.5524
  0
SEQEND
  0
ENDBLK
  0
BLOCK
  8
LAYER_9
  2
AIGNBL09030011
 70
64
 10
0
 20
0
 30
0
  3
AIGNBL09030011
  0
POLYLINE
  8
LAYER_9
 40
0.05
 41
0.05
 66
1
 10
0
 20
0
 30
0
 70
1
  0
VERTEX
  8
LAYER_9
 10
132.1773
 20
-4.2712
 42
-0.1023210957
  0
VERTEX
  8
LAYER_9
 10
132.1425
 20
-4.4555
 42
-0.100049973
  0
VERTEX
  8
LAYER_9
 10
132.047
 20
-4.6009
 42
-0.09591375735
  0
VERTEX
  8
LAYER_9
 10
131.902
 20
-4.6967
 42
-0.09730113973
  0
VERTEX
  8
LAYER_9
 10
131.7208
 20
-4.7315
 42
-0.1005044879
  0
VERTEX
  8
LAYER_9
 10
131.5396
 20
-4.6967
 42
-0.1000956886
  0
VERTEX
  8
LAYER_9
 10
131.3949
 20
-4.6009
 42
-0.09705125056
  0
VERTEX
  8
LAYER_9
 10
131.2988
 20
-4.4555
 42
-0.09606953098
  0
VERTEX
  8
LAYER_9
 10
131.2643
 20
-4.2712
 42
-0.1007319707
  0
VERTEX
  8
LAYER_9
 10
131.2988
 20
-4.0869
 42
-0.1001858518
  0
VERTEX
  8
LAYER_9
 10
131.3949
 20
-3.9416
 42
-0.09844109675
  0
VERTEX
  8
LAYER_9
 10
131.5396
 20
-3.8458
 42
-0.09730113973
  0
VERTEX
  8
LAYER_9
 10
131.7208
 20
-3.811
 42
-0.1005044879
  0
VERTEX
  8
LAYER_9
 10
131.902
 20
-3.8458
 42
-0.09944636466
  0
VERTEX
  8
LAYER_9
 10
132.047
 20
-3.9416
 42
-0.09657751445
  0
VERTEX
  8
LAYER_9
 10
132.1425
 20
-4.0869
 42
-0.09699716326
  0
SEQEND
  0
POLYLINE
  8
LAYER_9
 40
0.05
 41
0.05
 66
1
 10
0
 20
0
 30
0
 70
1
  0
VERTEX
  8
LAYER_9
 10
132.0832
 20
-4.2719
 42
0.08590651275
  0
VERTEX
  8
LAYER_9
 10
132.0588
 20
-4.1262
 42
0.09671154951
  0
VERTEX
  8
LAYER_9
 10
131.9868
 20
-4.0046
 42
0.1020590541
  0
VERTEX
  8
LAYER_9
 10
131.8724
 20
-3.9215
 42
0.106231093
  0
VERTEX
  8
LAYER_9
 10
131.7208
 20
-3.8902
 42
0.1137246109
  0
VERTEX
  8
LAYER_9
 10
131.5692
 20
-3.9215
 42
0.1061646081
  0
VERTEX
  8
LAYER_9
 10
131.4552
 20
-4.0046
 42
0.09706696705
  0
VERTEX
  8
LAYER_9
 10
131.3832
 20
-4.1262
 42
0.08453380862
  0
VERTEX
  8
LAYER_9
 10
131.3584
 20
-4.2719
 42
0.08539697836
  0
VERTEX
  8
LAYER_9
 10
131.3832
 20
-4.4177
 42
0.1012181166
  0
VERTEX
  8
LAYER_9
 10
131.4552
 20
-4.5389
 42
0.09946553095
  0
VERTEX
  8
LAYER_9
 10
131.5692
 20
-4.6212
 42
0.1061791796
  0
VERTEX
  8
LAYER_9
 10
131.7208
 20
-4.6523
 42
0.1152832113
  0
VERTEX
  8
LAYER_9
 10
131.8724
 20
-4.6212
 42
0.10635245
  0
VERTEX
  8
LAYER_9
 10
131.9868
 20
-4.5389
 42
0.09368815098
  0
VERTEX
  8
LAYER_9
 10
132.0588
 20
-4.4177
 42
0.0834821187
  0
SEQEND
  0
ENDBLK
  0
BLOCK
  8
LAYER_9
  2
AIGNBL09030012
 70
64
 10
0
 20
0
 30
0
  3
AIGNBL09030012
  0
POLYLINE
  8
LAYER_9
 40
0.05
 41
0.05
 66
1
 10
0
 20
0
 30
0
 70
1
  0
VERTEX
  8
LAYER_9
 10
132.8339
 20
-4.7094
  0
VERTEX
  8
LAYER_9
 10
132.7451
 20
-4.7094
  0
VERTEX
  8
LAYER_9
 10
132.7451
 20
-4.3319
  0
VERTEX
  8
LAYER_9
 10
132.4174
 20
-3.8337
  0
VERTEX
  8
LAYER_9
 10
132.5287
 20
-3.8337
  0
VERTEX
  8
LAYER_9
 10
132.7922
 20
-4.2575
  0
VERTEX
  8
LAYER_9
 10
133.0579
 20
-3.8337
  0
VERTEX
  8
LAYER_9
 10
133.1615
 20
-3.8337
  0
VERTEX
  8
LAYER_9
 10
132.8339
 20
-4.3319
  0
SEQEND
  0
ENDBLK
  0
BLOCK
  8
LAYER_9
  2
AIGNBL09030013
 70
64
 10
0
 20
0
 30
0
  3
AIGNBL09030013
  0
POLYLINE
  8
LAYER_9
 40
0.05
 41
0.05
 66
1
 10
0
 20
0
 30
0
 70
1
  0
VERTEX
  8
LAYER_9
 10
133.9288
 20
-3.8337
  0
VERTEX
  8
LAYER_9
 10
134.1896
 20
-3.8337
  0
VERTEX
  8
LAYER_9
 10
134.2898
 20
-3.844
  0
VERTEX
  8
LAYER_9
 10
134.3804
 20
-3.8798
 42
-0.1156779106
  0
VERTEX
  8
LAYER_9
 10
134.4466
 20
-3.9488
 42
-0.1209575962
  0
VERTEX
  8
LAYER_9
 10
134.4717
 20
-4.0573
 42
-0.1791591056
  0
VERTEX
  8
LAYER_9
 10
134.4294
 20
-4.1779
 42
-0.1661642399
  0
VERTEX
  8
LAYER_9
 10
134.3164
 20
-4.2454
  0
VERTEX
  8
LAYER_9
 10
134.3164
 20
-4.2474
 42
-0.1711702155
  0
VERTEX
  8
LAYER_9
 10
134.4576
 20
-4.3139
 42
-0.1994341856
  0
VERTEX
  8
LAYER_9
 10
134.5137
 20
-4.4669
 42
-0.1266512869
  0
VERTEX
  8
LAYER_9
 10
134.4907
 20
-4.5661
 42
-0.1175617318
  0
VERTEX
  8
LAYER_9
 10
134.4259
 20
-4.6429
 42
-0.0864784881
  0
VERTEX
  8
LAYER_9
 10
134.3236
 20
-4.6919
 42
-0.06453463165
  0
VERTEX
  8
LAYER_9
 10
134.1882
 20
-4.7094
  0
VERTEX
  8
LAYER_9
 10
133.9288
 20
-4.7094
  0
SEQEND
  0
POLYLINE
  8
LAYER_9
 40
0.05
 41
0.05
 66
1
 10
0
 20
0
 30
0
 70
1
  0
VERTEX
  8
LAYER_9
 10
134.0177
 20
-4.2168
  0
VERTEX
  8
LAYER_9
 10
134.1972
 20
-4.2168
  0
VERTEX
  8
LAYER_9
 10
134.2622
 20
-4.2092
  0
VERTEX
  8
LAYER_9
 10
134.3219
 20
-4.1844
  0
VERTEX
  8
LAYER_9
 10
134.366
 20
-4.1365
 42
0.1124215474
  0
VERTEX
  8
LAYER_9
 10
134.3825
 20
-4.0635
  0
VERTEX
  8
LAYER_9
 10
134.366
 20
-3.9925
  0
VERTEX
  8
LAYER_9
 10
134.3208
 20
-3.9446
  0
VERTEX
  8
LAYER_9
 10
134.254
 20
-3.9181
  0
VERTEX
  8
LAYER_9
 10
134.1724
 20
-3.9102
  0
VERTEX
  8
LAYER_9
 10
134.0177
 20
-3.9102
  0
SEQEND
  0
POLYLINE
  8
LAYER_9
 40
0.05
 41
0.05
 66
1
 10
0
 20
0
 30
0
 70
1
  0
VERTEX
  8
LAYER_9
 10
134.0177
 20
-4.6326
  0
VERTEX
  8
LAYER_9
 10
134.1837
 20
-4.6326
  0
VERTEX
  8
LAYER_9
 10
134.2757
 20
-4.623
  0
VERTEX
  8
LAYER_9
 10
134.3525
 20
-4.5937
  0
VERTEX
  8
LAYER_9
 10
134.4046
 20
-4.5403
 42
0.1274798788
  0
VERTEX
  8
LAYER_9
 10
134.4245
 20
-4.4618
 42
0.2508484857
  0
VERTEX
  8
LAYER_9
 10
134.366
 20
-4.3326
 42
0.1505365177
  0
VERTEX
  8
LAYER_9
 10
134.1996
 20
-4.2898
  0
VERTEX
  8
LAYER_9
 10
134.0177
 20
-4.2898
  0
SEQEND
  0
ENDBLK
  0
BLOCK
  8
LAYER_9
  2
AIGNBL09030014
 70
64
 10
0
 20
0
 30
0
  3
AIGNBL09030014
  0
POLYLINE
  8
LAYER_9
 40
0.05
 41
0.05
 66
1
 10
0
 20
0
 30
0
 70
1
  0
VERTEX
  8
LAYER_9
 10
134.88
 20
-4.7094
  0
VERTEX
  8
LAYER_9
 10
134.7821
 20
-4.7094
  0
VERTEX
  8
LAYER_9
 10
135.1607
 20
-3.8337
  0
VERTEX
  8
LAYER_9
 10
135.2476
 20
-3.8337
  0
VERTEX
  8
LAYER_9
 10
135.6234
 20
-4.7094
  0
VERTEX
  8
LAYER_9
 10
135.5242
 20
-4.7094
  0
VERTEX
  8
LAYER_9
 10
135.4277
 20
-4.4793
  0
VERTEX
  8
LAYER_9
 10
134.975
 20
-4.4793
  0
SEQEND
  0
POLYLINE
  8
LAYER_9
 40
0.05
 41
0.05
 66
1
 10
0
 20
0
 30
0
 70
1
  0
VERTEX
  8
LAYER_9
 10
135.0081
 20
-4.3973
  0
VERTEX
  8
LAYER_9
 10
135.3943
 20
-4.3973
  0
VERTEX
  8
LAYER_9
 10
135.2014
 20
-3.9322
  0
SEQEND
  0
ENDBLK
  0
BLOCK
  8
LAYER_9
  2
AIGNBL09030015
 70
64
 10
0
 20
0
 30
0
  3
AIGNBL09030015
  0
POLYLINE
  8
LAYER_9
 40
0.05
 41
0.05
 66
1
 10
0
 20
0
 30
0
 70
1
  0
VERTEX
  8
LAYER_9
 10
136.2036
 20
-4.7094
  0
VERTEX
  8
LAYER_9
 10
136.1143
 20
-4.7094
  0
VERTEX
  8
LAYER_9
 10
136.1143
 20
-3.9126
  0
VERTEX
  8
LAYER_9
 10
135.8208
 20
-3.9126
  0
VERTEX
  8
LAYER_9
 10
135.8208
 20
-3.8337
  0
VERTEX
  8
LAYER_9
 10
136.4964
 20
-3.8337
  0
VERTEX
  8
LAYER_9
 10
136.4964
 20
-3.9126
  0
VERTEX
  8
LAYER_9
 10
136.2036
 20
-3.9126
  0
SEQEND
  0
ENDBLK
  0
BLOCK
  8
LAYER_9
  2
AIGNBL09030016
 70
64
 10
0
 20
0
 30
0
  3
AIGNBL09030016
  0
POLYLINE
  8
LAYER_9
 40
0.05
 41
0.05
 66
1
 10
0
 20
0
 30
0
 70
1
  0
VERTEX
  8
LAYER_9
 10
136.7982
 20
-3.8337
  0
VERTEX
  8
LAYER_9
 10
136.8871
 20
-3.8337
  0
VERTEX
  8
LAYER_9
 10
136.8871
 20
-4.213
  0
VERTEX
  8
LAYER_9
 10
137.3649
 20
-4.213
  0
VERTEX
  8
LAYER_9
 10
137.3649
 20
-3.8337
  0
VERTEX
  8
LAYER_9
 10
137.4538
 20
-3.8337
  0
VERTEX
  8
LAYER_9
 10
137.4538
 20
-4.7094
  0
VERTEX
  8
LAYER_9
 10
137.3649
 20
-4.7094
  0
VERTEX
  8
LAYER_9
 10
137.3649
 20
-4.2946
  0
VERTEX
  8
LAYER_9
 10
136.8871
 20
-4.2946
  0
VERTEX
  8
LAYER_9
 10
136.8871
 20
-4.7094
  0
VERTEX
  8
LAYER_9
 10
136.7982
 20
-4.7094
  0
SEQEND
  0
ENDBLK
  0
BLOCK
  8
LAYER_9
  2
AIGNBL09030017
 70
64
 10
0
 20
0
 30
0
  3
AIGNBL09030017
  0
POLYLINE
  8
LAYER_9
 40
0.05
 41
0.05
 66
1
 10
0
 20
0
 30
0
 70
1
  0
VERTEX
  8
LAYER_9
 10
137.9457
 20
-4.7094
  0
VERTEX
  8
LAYER_9
 10
137.8569
 20
-4.7094
  0
VERTEX
  8
LAYER_9
 10
137.8569
 20
-3.8337
  0
VERTEX
  8
LAYER_9
 10
138.1142
 20
-3.8337
  0
VERTEX
  8
LAYER_9
 10
138.2334
 20
-3.8458
  0
VERTEX
  8
LAYER_9
 10
138.3289
 20
-3.8861
 42
-0.1283108691
  0
VERTEX
  8
LAYER_9
 10
138.3912
 20
-3.9584
 42
-0.1051928432
  0
VERTEX
  8
LAYER_9
 10
138.4132
 20
-4.0673
  0
VERTEX
  8
LAYER_9
 10
138.3964
 20
-4.1551
  0
VERTEX
  8
LAYER_9
 10
138.3495
 20
-4.2237
  0
VERTEX
  8
LAYER_9
 10
138.2789
 20
-4.2702
  0
VERTEX
  8
LAYER_9
 10
138.1897
 20
-4.2922
  0
VERTEX
  8
LAYER_9
 10
138.4456
 20
-4.7094
  0
VERTEX
  8
LAYER_9
 10
138.3368
 20
-4.7094
  0
VERTEX
  8
LAYER_9
 10
138.0946
 20
-4.2998
  0
VERTEX
  8
LAYER_9
 10
137.9457
 20
-4.2998
  0
SEQEND
  0
POLYLINE
  8
LAYER_9
 40
0.05
 41
0.05
 66
1
 10
0
 20
0
 30
0
 70
1
  0
VERTEX
  8
LAYER_9
 10
137.9457
 20
-4.223
  0
VERTEX
  8
LAYER_9
 10
138.1008
 20
-4.223
 42
0.1560036385
  0
VERTEX
  8
LAYER_9
 10
138.2665
 20
-4.1844
 42
0.256718439
  0
VERTEX
  8
LAYER_9
 10
138.3247
 20
-4.0673
  0
VERTEX
  8
LAYER_9
 10
138.3082
 20
-3.9946
  0
VERTEX
  8
LAYER_9
 10
138.2637
 20
-3.946
  0
VERTEX
  8
LAYER_9
 10
138.1948
 20
-3.9188
  0
VERTEX
  8
LAYER_9
 10
138.1046
 20
-3.9102
  0
VERTEX
  8
LAYER_9
 10
137.9457
 20
-3.9102
  0
SEQEND
  0
ENDBLK
  0
BLOCK
  8
LAYER_9
  2
AIGNBL09030018
 70
64
 10
0
 20
0
 30
0
  3
AIGNBL09030018
  0
POLYLINE
  8
LAYER_9
 40
0.05
 41
0.05
 66
1
 10
0
 20
0
 30
0
 70
1
  0
VERTEX
  8
LAYER_9
 10
139.6342
 20
-4.2712
 42
-0.09919881555
  0
VERTEX
  8
LAYER_9
 10
139.5997
 20
-4.4555
 42
-0.1002507449
  0
VERTEX
  8
LAYER_9
 10
139.5036
 20
-4.6009
 42
-0.09817592867
  0
VERTEX
  8
LAYER_9
 10
139.3593
 20
-4.6967
 42
-0.09703887645
  0
VERTEX
  8
LAYER_9
 10
139.1777
 20
-4.7315
 42
-0.1005044879
  0
VERTEX
  8
LAYER_9
 10
138.9965
 20
-4.6967
 42
-0.1014225475
  0
VERTEX
  8
LAYER_9
 10
138.8522
 20
-4.6009
 42
-0.1006710624
  0
VERTEX
  8
LAYER_9
 10
138.7564
 20
-4.4555
 42
-0.09606953098
  0
VERTEX
  8
LAYER_9
 10
138.7219
 20
-4.2712
 42
-0.1007319707
  0
VERTEX
  8
LAYER_9
 10
138.7564
 20
-4.0869
 42
-0.1015908991
  0
VERTEX
  8
LAYER_9
 10
138.8522
 20
-3.9416
 42
-0.09884634081
  0
VERTEX
  8
LAYER_9
 10
138.9965
 20
-3.8458
 42
-0.09730113973
  0
VERTEX
  8
LAYER_9
 10
139.1777
 20
-3.811
 42
-0.1004491736
  0
VERTEX
  8
LAYER_9
 10
139.3593
 20
-3.8458
 42
-0.103270482
  0
VERTEX
  8
LAYER_9
 10
139.5036
 20
-3.9416
 42
-0.09614814713
  0
VERTEX
  8
LAYER_9
 10
139.5997
 20
-4.0869
 42
-0.09519358797
  0
SEQEND
  0
POLYLINE
  8
LAYER_9
 40
0.05
 41
0.05
 66
1
 10
0
 20
0
 30
0
 70
1
  0
VERTEX
  8
LAYER_9
 10
139.5402
 20
-4.2719
 42
0.09005809491
  0
VERTEX
  8
LAYER_9
 10
139.5154
 20
-4.1262
 42
0.09823469525
  0
VERTEX
  8
LAYER_9
 10
139.4437
 20
-4.0046
 42
0.1015931446
  0
VERTEX
  8
LAYER_9
 10
139.3293
 20
-3.9215
 42
0.1064387823
  0
VERTEX
  8
LAYER_9
 10
139.1777
 20
-3.8902
 42
0.1146236776
  0
VERTEX
  8
LAYER_9
 10
139.0265
 20
-3.9215
 42
0.1048939392
  0
VERTEX
  8
LAYER_9
 10
138.9117
 20
-4.0046
 42
0.09514694971
  0
VERTEX
  8
LAYER_9
 10
138.8401
 20
-4.1262
 42
0.08394620596
  0
VERTEX
  8
LAYER_9
 10
138.8157
 20
-4.2719
 42
0.08914187326
  0
VERTEX
  8
LAYER_9
 10
138.8401
 20
-4.4177
 42
0.09716720095
  0
VERTEX
  8
LAYER_9
 10
138.9117
 20
-4.5389
 42
0.09885574029
  0
VERTEX
  8
LAYER_9
 10
139.0265
 20
-4.6212
 42
0.1065525522
  0
VERTEX
  8
LAYER_9
 10
139.1777
 20
-4.6523
 42
0.1160974191
  0
VERTEX
  8
LAYER_9
 10
139.3293
 20
-4.6212
 42
0.1037742872
  0
VERTEX
  8
LAYER_9
 10
139.4437
 20
-4.5389
 42
0.09874351489
  0
VERTEX
  8
LAYER_9
 10
139.5154
 20
-4.4177
 42
0.08539015582
  0
SEQEND
  0
ENDBLK
  0
BLOCK
  8
LAYER_9
  2
AIGNBL09030019
 70
64
 10
0
 20
0
 30
0
  3
AIGNBL09030019
  0
POLYLINE
  8
LAYER_9
 40
0.05
 41
0.05
 66
1
 10
0
 20
0
 30
0
 70
1
  0
VERTEX
  8
LAYER_9
 10
140.8565
 20
-4.2712
 42
-0.1005579471
  0
VERTEX
  8
LAYER_9
 10
140.8217
 20
-4.4555
 42
-0.09829254072
  0
VERTEX
  8
LAYER_9
 10
140.7263
 20
-4.6009
 42
-0.09635359363
  0
VERTEX
  8
LAYER_9
 10
140.5812
 20
-4.6967
 42
-0.09730113973
  0
VERTEX
  8
LAYER_9
 10
140.4
 20
-4.7315
 42
-0.1010483144
  0
VERTEX
  8
LAYER_9
 10
140.2188
 20
-4.6967
 42
-0.1015483086
  0
VERTEX
  8
LAYER_9
 10
140.0741
 20
-4.6009
 42
-0.09705125056
  0
VERTEX
  8
LAYER_9
 10
139.978
 20
-4.4555
 42
-0.09594934368
  0
VERTEX
  8
LAYER_9
 10
139.9436
 20
-4.2712
 42
-0.1009359332
  0
VERTEX
  8
LAYER_9
 10
139.978
 20
-4.0869
 42
-0.1001858518
  0
VERTEX
  8
LAYER_9
 10
140.0741
 20
-3.9416
 42
-0.09916337287
  0
VERTEX
  8
LAYER_9
 10
140.2188
 20
-3.8458
 42
-0.09743363976
  0
VERTEX
  8
LAYER_9
 10
140.4
 20
-3.811
 42
-0.1005044879
  0
VERTEX
  8
LAYER_9
 10
140.5812
 20
-3.8458
 42
-0.09950324727
  0
VERTEX
  8
LAYER_9
 10
140.7263
 20
-3.9416
 42
-0.09627394303
  0
VERTEX
  8
LAYER_9
 10
140.8217
 20
-4.0869
 42
-0.09626911005
  0
SEQEND
  0
POLYLINE
  8
LAYER_9
 40
0.05
 41
0.05
 66
1
 10
0
 20
0
 30
0
 70
1
  0
VERTEX
  8
LAYER_9
 10
140.7625
 20
-4.2719
 42
0.08744350066
  0
VERTEX
  8
LAYER_9
 10
140.7377
 20
-4.1262
 42
0.0974662867
  0
VERTEX
  8
LAYER_9
 10
140.666
 20
-4.0046
 42
0.1015931446
  0
VERTEX
  8
LAYER_9
 10
140.5516
 20
-3.9215
 42
0.1060164095
  0
VERTEX
  8
LAYER_9
 10
140.4
 20
-3.8902
 42
0.1150639473
  0
VERTEX
  8
LAYER_9
 10
140.2485
 20
-3.9215
 42
0.1052132674
  0
VERTEX
  8
LAYER_9
 10
140.1341
 20
-4.0046
 42
0.09840570806
  0
VERTEX
  8
LAYER_9
 10
140.0624
 20
-4.1262
 42
0.08491299828
  0
VERTEX
  8
LAYER_9
 10
140.0376
 20
-4.2719
 42
0.08802482071
  0
VERTEX
  8
LAYER_9
 10
140.0624
 20
-4.4177
 42
0.1001537592
  0
VERTEX
  8
LAYER_9
 10
140.1341
 20
-4.5389
 42
0.1000329357
  0
VERTEX
  8
LAYER_9
 10
140.2485
 20
-4.6212
 42
0.1065438079
  0
VERTEX
  8
LAYER_9
 10
140.4
 20
-4.6523
 42
0.1150863754
  0
VERTEX
  8
LAYER_9
 10
140.5516
 20
-4.6212
 42
0.1037742872
  0
VERTEX
  8
LAYER_9
 10
140.666
 20
-4.5389
 42
0.0931574303
  0
VERTEX
  8
LAYER_9
 10
140.7377
 20
-4.4177
 42
0.08489455374
  0
SEQEND
  0
ENDBLK
  0
BLOCK
  8
LAYER_9
  2
AIGNBL0903001A
 70
64
 10
0
 20
0
 30
0
  3
AIGNBL0903001A
  0
POLYLINE
  8
LAYER_9
 40
0.05
 41
0.05
 66
1
 10
0
 20
0
 30
0
 70
1
  0
VERTEX
  8
LAYER_9
 10
141.6454
 20
-4.5582
  0
VERTEX
  8
LAYER_9
 10
141.6468
 20
-4.5582
  0
VERTEX
  8
LAYER_9
 10
141.9396
 20
-3.8337
  0
VERTEX
  8
LAYER_9
 10
142.0761
 20
-3.8337
  0
VERTEX
  8
LAYER_9
 10
142.0761
 20
-4.7094
  0
VERTEX
  8
LAYER_9
 10
141.9868
 20
-4.7094
  0
VERTEX
  8
LAYER_9
 10
141.9868
 20
-3.9488
  0
VERTEX
  8
LAYER_9
 10
141.9844
 20
-3.9488
  0
VERTEX
  8
LAYER_9
 10
141.6678
 20
-4.7094
  0
VERTEX
  8
LAYER_9
 10
141.621
 20
-4.7094
  0
VERTEX
  8
LAYER_9
 10
141.304
 20
-3.9488
  0
VERTEX
  8
LAYER_9
 10
141.3016
 20
-3.9488
  0
VERTEX
  8
LAYER_9
 10
141.3016
 20
-4.7094
  0
VERTEX
  8
LAYER_9
 10
141.2127
 20
-4.7094
  0
VERTEX
  8
LAYER_9
 10
141.2127
 20
-3.8337
  0
VERTEX
  8
LAYER_9
 10
141.3488
 20
-3.8337
  0
SEQEND
  0
ENDBLK
  0
BLOCK
  8
LAYER_9
  2
AIGNBL0903001B
 70
64
 10
0
 20
0
 30
0
  3
AIGNBL0903001B
  0
POLYLINE
  8
LAYER_9
 40
0.05
 41
0.05
 66
1
 10
0
 20
0
 30
0
 70
1
  0
VERTEX
  8
LAYER_9
 10
143.0479
 20
-4.6299
  0
VERTEX
  8
LAYER_9
 10
143.5168
 20
-4.6299
  0
VERTEX
  8
LAYER_9
 10
143.5168
 20
-4.7094
  0
VERTEX
  8
LAYER_9
 10
142.9587
 20
-4.7094
  0
VERTEX
  8
LAYER_9
 10
142.9587
 20
-3.8337
  0
VERTEX
  8
LAYER_9
 10
143.502
 20
-3.8337
  0
VERTEX
  8
LAYER_9
 10
143.502
 20
-3.9126
  0
VERTEX
  8
LAYER_9
 10
143.0479
 20
-3.9126
  0
VERTEX
  8
LAYER_9
 10
143.0479
 20
-4.213
  0
VERTEX
  8
LAYER_9
 10
143.472
 20
-4.213
  0
VERTEX
  8
LAYER_9
 10
143.472
 20
-4.2922
  0
VERTEX
  8
LAYER_9
 10
143.0479
 20
-4.2922
  0
SEQEND
  0
ENDBLK
  0
BLOCK
  8
LAYER_9
  2
AIGNBL0903001C
 70
64
 10
0
 20
0
 30
0
  3
AIGNBL0903001C
  0
POLYLINE
  8
LAYER_9
 40
0.05
 41
0.05
 66
1
 10
0
 20
0
 30
0
 70
1
  0
VERTEX
  8
LAYER_9
 10
144.1487
 20
-4.1872
  0
VERTEX
  8
LAYER_9
 10
144.3877
 20
-3.8337
  0
VERTEX
  8
LAYER_9
 10
144.4935
 20
-3.8337
  0
VERTEX
  8
LAYER_9
 10
144.2034
 20
-4.2502
  0
VERTEX
  8
LAYER_9
 10
144.5249
 20
-4.7094
  0
VERTEX
  8
LAYER_9
 10
144.4136
 20
-4.7094
  0
VERTEX
  8
LAYER_9
 10
144.1462
 20
-4.3146
  0
VERTEX
  8
LAYER_9
 10
143.8803
 20
-4.7094
  0
VERTEX
  8
LAYER_9
 10
143.769
 20
-4.7094
  0
VERTEX
  8
LAYER_9
 10
144.0908
 20
-4.2492
  0
VERTEX
  8
LAYER_9
 10
143.7976
 20
-3.8337
  0
VERTEX
  8
LAYER_9
 10
143.9089
 20
-3.8337
  0
SEQEND
  0
ENDBLK
  0
BLOCK
  8
LAYER_9
  2
AIGNBL0903001D
 70
64
 10
0
 20
0
 30
0
  3
AIGNBL0903001D
  0
POLYLINE
  8
LAYER_9
 40
0.05
 41
0.05
 66
1
 10
0
 20
0
 30
0
 70
1
  0
VERTEX
  8
LAYER_9
 10
144.8352
 20
-3.8337
  0
VERTEX
  8
LAYER_9
 10
145.083
 20
-3.8337
  0
VERTEX
  8
LAYER_9
 10
145.2042
 20
-3.8475
  0
VERTEX
  8
LAYER_9
 10
145.2972
 20
-3.8912
 42
-0.1196760771
  0
VERTEX
  8
LAYER_9
 10
145.3575
 20
-3.9639
 42
-0.1008071579
  0
VERTEX
  8
LAYER_9
 10
145.3782
 20
-4.0673
 42
-0.1226625575
  0
VERTEX
  8
LAYER_9
 10
145.3569
 20
-4.1706
 42
-0.1130948084
  0
VERTEX
  8
LAYER_9
 10
145.2962
 20
-4.2437
 42
-0.08414869483
  0
VERTEX
  8
LAYER_9
 10
145.2022
 20
-4.2874
  0
VERTEX
  8
LAYER_9
 10
145.0802
 20
-4.3022
  0
VERTEX
  8
LAYER_9
 10
144.9245
 20
-4.3022
  0
VERTEX
  8
LAYER_9
 10
144.9245
 20
-4.7094
  0
VERTEX
  8
LAYER_9
 10
144.8352
 20
-4.7094
  0
SEQEND
  0
POLYLINE
  8
LAYER_9
 40
0.05
 41
0.05
 66
1
 10
0
 20
0
 30
0
 70
1
  0
VERTEX
  8
LAYER_9
 10
144.9245
 20
-4.2268
  0
VERTEX
  8
LAYER_9
 10
145.075
 20
-4.2268
 42
0.1719973382
  0
VERTEX
  8
LAYER_9
 10
145.2349
 20
-4.1861
 42
0.2424570955
  0
VERTEX
  8
LAYER_9
 10
145.2893
 20
-4.0673
 42
0.2605346944
  0
VERTEX
  8
LAYER_9
 10
145.2332
 20
-3.9477
 42
0.1395217604
  0
VERTEX
  8
LAYER_9
 10
145.075
 20
-3.9102
  0
VERTEX
  8
LAYER_9
 10
144.9245
 20
-3.9102
  0
SEQEND
  0
ENDBLK
  0
BLOCK
  8
LAYER_9
  2
AIGNBL0903001E
 70
64
 10
0
 20
0
 30
0
  3
AIGNBL0903001E
  0
POLYLINE
  8
LAYER_9
 40
0.05
 41
0.05
 66
1
 10
0
 20
0
 30
0
 70
1
  0
VERTEX
  8
LAYER_9
 10
145.8123
 20
-4.6299
  0
VERTEX
  8
LAYER_9
 10
146.2812
 20
-4.6299
  0
VERTEX
  8
LAYER_9
 10
146.2812
 20
-4.7094
  0
VERTEX
  8
LAYER_9
 10
145.7234
 20
-4.7094
  0
VERTEX
  8
LAYER_9
 10
145.7234
 20
-3.8337
  0
VERTEX
  8
LAYER_9
 10
146.2664
 20
-3.8337
  0
VERTEX
  8
LAYER_9
 10
146.2664
 20
-3.9126
  0
VERTEX
  8
LAYER_9
 10
145.8123
 20
-3.9126
  0
VERTEX
  8
LAYER_9
 10
145.8123
 20
-4.213
  0
VERTEX
  8
LAYER_9
 10
146.2367
 20
-4.213
  0
VERTEX
  8
LAYER_9
 10
146.2367
 20
-4.2922
  0
VERTEX
  8
LAYER_9
 10
145.8123
 20
-4.2922
  0
SEQEND
  0
ENDBLK
  0
BLOCK
  8
LAYER_9
  2
AIGNBL0903001F
 70
64
 10
0
 20
0
 30
0
  3
AIGNBL0903001F
  0
POLYLINE
  8
LAYER_9
 40
0.05
 41
0.05
 66
1
 10
0
 20
0
 30
0
 70
1
  0
VERTEX
  8
LAYER_9
 10
146.7152
 20
-4.7094
  0
VERTEX
  8
LAYER_9
 10
146.6264
 20
-4.7094
  0
VERTEX
  8
LAYER_9
 10
146.6264
 20
-3.8337
  0
VERTEX
  8
LAYER_9
 10
146.8837
 20
-3.8337
  0
VERTEX
  8
LAYER_9
 10
147.0029
 20
-3.8458
  0
VERTEX
  8
LAYER_9
 10
147.0983
 20
-3.8861
 42
-0.1251490281
  0
VERTEX
  8
LAYER_9
 10
147.1607
 20
-3.9584
 42
-0.1051928432
  0
VERTEX
  8
LAYER_9
 10
147.1827
 20
-4.0673
  0
VERTEX
  8
LAYER_9
 10
147.1659
 20
-4.1551
  0
VERTEX
  8
LAYER_9
 10
147.1187
 20
-4.2237
  0
VERTEX
  8
LAYER_9
 10
147.048
 20
-4.2702
  0
VERTEX
  8
LAYER_9
 10
146.9591
 20
-4.2922
  0
VERTEX
  8
LAYER_9
 10
147.2151
 20
-4.7094
  0
VERTEX
  8
LAYER_9
 10
147.1062
 20
-4.7094
  0
VERTEX
  8
LAYER_9
 10
146.8637
 20
-4.2998
  0
VERTEX
  8
LAYER_9
 10
146.7152
 20
-4.2998
  0
SEQEND
  0
POLYLINE
  8
LAYER_9
 40
0.05
 41
0.05
 66
1
 10
0
 20
0
 30
0
 70
1
  0
VERTEX
  8
LAYER_9
 10
146.7152
 20
-4.223
  0
VERTEX
  8
LAYER_9
 10
146.8699
 20
-4.223
 42
0.1572399812
  0
VERTEX
  8
LAYER_9
 10
147.036
 20
-4.1844
 42
0.2567768408
  0
VERTEX
  8
LAYER_9
 10
147.0939
 20
-4.0673
  0
VERTEX
  8
LAYER_9
 10
147.078
 20
-3.9946
  0
VERTEX
  8
LAYER_9
 10
147.0332
 20
-3.946
  0
VERTEX
  8
LAYER_9
 10
146.964
 20
-3.9188
  0
VERTEX
  8
LAYER_9
 10
146.8737
 20
-3.9102
  0
VERTEX
  8
LAYER_9
 10
146.7152
 20
-3.9102
  0
SEQEND
  0
ENDBLK
  0
BLOCK
  8
LAYER_9
  2
AIGNBL09030020
 70
64
 10
0
 20
0
 30
0
  3
AIGNBL09030020
  0
POLYLINE
  8
LAYER_9
 40
0.05
 41
0.05
 66
1
 10
0
 20
0
 30
0
 70
1
  0
VERTEX
  8
LAYER_9
 10
147.6268
 20
-4.7094
  0
VERTEX
  8
LAYER_9
 10
147.5383
 20
-4.7094
  0
VERTEX
  8
LAYER_9
 10
147.5383
 20
-3.8337
  0
VERTEX
  8
LAYER_9
 10
147.6268
 20
-3.8337
  0
SEQEND
  0
ENDBLK
  0
BLOCK
  8
LAYER_9
  2
AIGNBL09030021
 70
64
 10
0
 20
0
 30
0
  3
AIGNBL09030021
  0
POLYLINE
  8
LAYER_9
 40
0.05
 41
0.05
 66
1
 10
0
 20
0
 30
0
 70
1
  0
VERTEX
  8
LAYER_9
 10
148.1191
 20
-4.6299
  0
VERTEX
  8
LAYER_9
 10
148.588
 20
-4.6299
  0
VERTEX
  8
LAYER_9
 10
148.588
 20
-4.7094
  0
VERTEX
  8
LAYER_9
 10
148.0302
 20
-4.7094
  0
VERTEX
  8
LAYER_9
 10
148.0302
 20
-3.8337
  0
VERTEX
  8
LAYER_9
 10
148.5732
 20
-3.8337
  0
VERTEX
  8
LAYER_9
 10
148.5732
 20
-3.9126
  0
VERTEX
  8
LAYER_9
 10
148.1191
 20
-3.9126
  0
VERTEX
  8
LAYER_9
 10
148.1191
 20
-4.213
  0
VERTEX
  8
LAYER_9
 10
148.5436
 20
-4.213
  0
VERTEX
  8
LAYER_9
 10
148.5436
 20
-4.2922
  0
VERTEX
  8
LAYER_9
 10
148.1191
 20
-4.2922
  0
SEQEND
  0
ENDBLK
  0
BLOCK
  8
LAYER_9
  2
AIGNBL09030022
 70
64
 10
0
 20
0
 30
0
  3
AIGNBL09030022
  0
POLYLINE
  8
LAYER_9
 40
0.05
 41
0.05
 66
1
 10
0
 20
0
 30
0
 70
1
  0
VERTEX
  8
LAYER_9
 10
149.554
 20
-4.5792
  0
VERTEX
  8
LAYER_9
 10
149.5564
 20
-4.5792
  0
VERTEX
  8
LAYER_9
 10
149.5564
 20
-3.8337
  0
VERTEX
  8
LAYER_9
 10
149.6456
 20
-3.8337
  0
VERTEX
  8
LAYER_9
 10
149.6456
 20
-4.7094
  0
VERTEX
  8
LAYER_9
 10
149.5344
 20
-4.7094
  0
VERTEX
  8
LAYER_9
 10
149.0248
 20
-3.956
  0
VERTEX
  8
LAYER_9
 10
149.0221
 20
-3.956
  0
VERTEX
  8
LAYER_9
 10
149.0221
 20
-4.7094
  0
VERTEX
  8
LAYER_9
 10
148.9332
 20
-4.7094
  0
VERTEX
  8
LAYER_9
 10
148.9332
 20
-3.8337
  0
VERTEX
  8
LAYER_9
 10
149.0445
 20
-3.8337
  0
SEQEND
  0
ENDBLK
  0
BLOCK
  8
LAYER_9
  2
AIGNBL09030023
 70
64
 10
0
 20
0
 30
0
  3
AIGNBL09030023
  0
POLYLINE
  8
LAYER_9
 40
0.05
 41
0.05
 66
1
 10
0
 20
0
 30
0
 70
1
  0
VERTEX
  8
LAYER_9
 10
150.7863
 20
-4.5672
  0
VERTEX
  8
LAYER_9
 10
150.7322
 20
-4.6302
  0
VERTEX
  8
LAYER_9
 10
150.6592
 20
-4.6826
  0
VERTEX
  8
LAYER_9
 10
150.5676
 20
-4.7184
  0
VERTEX
  8
LAYER_9
 10
150.4583
 20
-4.7315
 42
-0.1002604889
  0
VERTEX
  8
LAYER_9
 10
150.2751
 20
-4.6967
 42
-0.103618762
  0
VERTEX
  8
LAYER_9
 10
150.1307
 20
-4.6009
 42
-0.1006399092
  0
VERTEX
  8
LAYER_9
 10
150.036
 20
-4.4555
 42
-0.09570873126
  0
VERTEX
  8
LAYER_9
 10
150.0018
 20
-4.2712
 42
-0.1025357642
  0
VERTEX
  8
LAYER_9
 10
150.0367
 20
-4.0869
 42
-0.09974197432
  0
VERTEX
  8
LAYER_9
 10
150.1321
 20
-3.9416
 42
-0.09791826644
  0
VERTEX
  8
LAYER_9
 10
150.2768
 20
-3.8458
 42
-0.09710431873
  0
VERTEX
  8
LAYER_9
 10
150.4583
 20
-3.811
  0
VERTEX
  8
LAYER_9
 10
150.5527
 20
-3.8213
  0
VERTEX
  8
LAYER_9
 10
150.6402
 20
-3.8495
  0
VERTEX
  8
LAYER_9
 10
150.7143
 20
-3.8933
  0
VERTEX
  8
LAYER_9
 10
150.7701
 20
-3.9508
  0
VERTEX
  8
LAYER_9
 10
150.696
 20
-4.0056
  0
VERTEX
  8
LAYER_9
 10
150.6592
 20
-3.9632
  0
VERTEX
  8
LAYER_9
 10
150.6055
 20
-3.926
  0
VERTEX
  8
LAYER_9
 10
150.5379
 20
-3.9002
  0
VERTEX
  8
LAYER_9
 10
150.4594
 20
-3.8902
 42
0.113658286
  0
VERTEX
  8
LAYER_9
 10
150.3068
 20
-3.9212
 42
0.1043770607
  0
VERTEX
  8
LAYER_9
 10
150.1924
 20
-4.0042
 42
0.09614808583
  0
VERTEX
  8
LAYER_9
 10
150.1204
 20
-4.1258
 42
0.08382976821
  0
VERTEX
  8
LAYER_9
 10
150.0959
 20
-4.2712
 42
0.09237333632
  0
VERTEX
  8
LAYER_9
 10
150.1214
 20
-4.4166
 42
0.09906074874
  0
VERTEX
  8
LAYER_9
 10
150.1938
 20
-4.5382
 42
0.1047661843
  0
VERTEX
  8
LAYER_9
 10
150.3081
 20
-4.6212
 42
0.1066098621
  0
VERTEX
  8
LAYER_9
 10
150.4594
 20
-4.6523
 42
0.1116904268
  0
VERTEX
  8
LAYER_9
 10
150.6027
 20
-4.6212
 42
0.1367806879
  0
VERTEX
  8
LAYER_9
 10
150.7167
 20
-4.5224
  0
SEQEND
  0
ENDBLK
  0
BLOCK
  8
LAYER_9
  2
AIGNBL09030024
 70
64
 10
0
 20
0
 30
0
  3
AIGNBL09030024
  0
POLYLINE
  8
LAYER_9
 40
0.05
 41
0.05
 66
1
 10
0
 20
0
 30
0
 70
1
  0
VERTEX
  8
LAYER_9
 10
151.199
 20
-4.6299
  0
VERTEX
  8
LAYER_9
 10
151.6679
 20
-4.6299
  0
VERTEX
  8
LAYER_9
 10
151.6679
 20
-4.7094
  0
VERTEX
  8
LAYER_9
 10
151.1102
 20
-4.7094
  0
VERTEX
  8
LAYER_9
 10
151.1102
 20
-3.8337
  0
VERTEX
  8
LAYER_9
 10
151.6531
 20
-3.8337
  0
VERTEX
  8
LAYER_9
 10
151.6531
 20
-3.9126
  0
VERTEX
  8
LAYER_9
 10
151.199
 20
-3.9126
  0
VERTEX
  8
LAYER_9
 10
151.199
 20
-4.213
  0
VERTEX
  8
LAYER_9
 10
151.6235
 20
-4.213
  0
VERTEX
  8
LAYER_9
 10
151.6235
 20
-4.2922
  0
VERTEX
  8
LAYER_9
 10
151.199
 20
-4.2922
  0
SEQEND
  0
ENDBLK
  0
BLOCK
  8
LAYER_9
  2
AIGNBL09020004
 70
64
 10
0
 20
0
 30
0
  3
AIGNBL09020004
  0
INSERT
  8
LAYER_9
  2
AIGNBL09030005
 10
0
 20
0
 30
0
  0
ENDBLK
  0
BLOCK
  8
LAYER_9
  2
AIGNBL0902000D
 70
64
 10
0
 20
0
 30
0
  3
AIGNBL0902000D
  0
INSERT
  8
LAYER_9
  2
AIGNBL0903000E
 10
0
 20
0
 30
0
  0
INSERT
  8
LAYER_9
  2
AIGNBL0903000F
 10
0
 20
0
 30
0
  0
INSERT
  8
LAYER_9
  2
AIGNBL09030010
 10
0
 20
0
 30
0
  0
INSERT
  8
LAYER_9
  2
AIGNBL09030011
 10
0
 20
0
 30
0
  0
INSERT
  8
LAYER_9
  2
AIGNBL09030012
 10
0
 20
0
 30
0
  0
INSERT
  8
LAYER_9
  2
AIGNBL09030013
 10
0
 20
0
 30
0
  0
INSERT
  8
LAYER_9
  2
AIGNBL09030014
 10
0
 20
0
 30
0
  0
INSERT
  8
LAYER_9
  2
AIGNBL09030015
 10
0
 20
0
 30
0
  0
INSERT
  8
LAYER_9
  2
AIGNBL09030016
 10
0
 20
0
 30
0
  0
INSERT
  8
LAYER_9
  2
AIGNBL09030017
 10
0
 20
0
 30
0
  0
INSERT
  8
LAYER_9
  2
AIGNBL09030018
 10
0
 20
0
 30
0
  0
INSERT
  8
LAYER_9
  2
AIGNBL09030019
 10
0
 20
0
 30
0
  0
INSERT
  8
LAYER_9
  2
AIGNBL0903001A
 10
0
 20
0
 30
0
  0
INSERT
  8
LAYER_9
  2
AIGNBL0903001B
 10
0
 20
0
 30
0
  0
INSERT
  8
LAYER_9
  2
AIGNBL0903001C
 10
0
 20
0
 30
0
  0
INSERT
  8
LAYER_9
  2
AIGNBL0903001D
 10
0
 20
0
 30
0
  0
INSERT
  8
LAYER_9
  2
AIGNBL0903001E
 10
0
 20
0
 30
0
  0
INSERT
  8
LAYER_9
  2
AIGNBL0903001F
 10
0
 20
0
 30
0
  0
INSERT
  8
LAYER_9
  2
AIGNBL09030020
 10
0
 20
0
 30
0
  0
INSERT
  8
LAYER_9
  2
AIGNBL09030021
 10
0
 20
0
 30
0
  0
INSERT
  8
LAYER_9
  2
AIGNBL09030022
 10
0
 20
0
 30
0
  0
INSERT
  8
LAYER_9
  2
AIGNBL09030023
 10
0
 20
0
 30
0
  0
INSERT
  8
LAYER_9
  2
AIGNBL09030024
 10
0
 20
0
 30
0
  0
ENDBLK
  0
BLOCK
  8
LAYER_9
  2
AIGNBL09010002
 70
64
 10
0
 20
0
 30
0
  3
AIGNBL09010002
  0
POLYLINE
  8
LAYER_9
 40
0.7056
 41
0.7056
 66
1
 10
0
 20
0
 30
0
 70
1
  0
VERTEX
  8
LAYER_9
 10
206.0763
 20
269.2235
  0
VERTEX
  8
LAYER_9
 10
206.0763
 20
-7.7766
  0
VERTEX
  8
LAYER_9
 10
16.0764
 20
-7.7766
  0
VERTEX
  8
LAYER_9
 10
16.0764
 20
269.2235
  0
SEQEND
  0
ENDBLK
  0
BLOCK
  8
LAYER_9
  2
AIGNBL09010003
 70
64
 10
0
 20
0
 30
0
  3
AIGNBL09010003
  0
INSERT
  8
LAYER_9
  2
AIGNBL09020004
 10
0
 20
0
 30
0
  0
INSERT
  8
LAYER_9
  2
AIGNBL0902000D
 10
0
 20
0
 30
0
  0
ENDBLK
  0
BLOCK
  8
LAYER_9
  2
AIGNBL09010025
 70
64
 10
0
 20
0
 30
0
  3
AIGNBL09010025
  0
POLYLINE
  8
LAYER_9
 40
0.1058
 41
0.1058
 66
1
 10
0
 20
0
 30
0
  0
VERTEX
  8
LAYER_9
 10
175.3014
 20
91.9675
  0
VERTEX
  8
LAYER_9
 10
176.204
 20
91.9675
  0
VERTEX
  8
LAYER_9
 10
177.1272
 20
91.9675
  0
VERTEX
  8
LAYER_9
 10
178.0157
 20
91.9675
  0
VERTEX
  8
LAYER_9
 10
178.8088
 20
91.9675
  0
VERTEX
  8
LAYER_9
 10
179.4531
 20
91.9675
  0
VERTEX
  8
LAYER_9
 10
179.9135
 20
91.9675
  0
VERTEX
  8
LAYER_9
 10
180.2617
 20
91.9675
  0
SEQEND
  0
ENDBLK
  0
BLOCK
  8
LAYER_9
  2
AIGNBL09010026
 70
64
 10
0
 20
0
 30
0
  3
AIGNBL09010026
  0
POLYLINE
  8
LAYER_9
 40
0.1058
 41
0.1058
 66
1
 10
0
 20
0
 30
0
  0
VERTEX
  8
LAYER_9
 10
86.0156
 20
91.1243
  0
VERTEX
  8
LAYER_9
 10
175.3014
 20
91.1243
  0
SEQEND
  0
ENDBLK
  0
BLOCK
  8
LAYER_9
  2
AIGNBL09010027
 70
64
 10
0
 20
0
 30
0
  3
AIGNBL09010027
  0
POLYLINE
  8
LAYER_9
 40
0.1058
 41
0.1058
 66
1
 10
0
 20
0
 30
0
  0
VERTEX
  8
LAYER_9
 10
180.3585
 20
92.7492
 42
-0.343761233
  0
VERTEX
  8
LAYER_9
 10
180.6585
 20
92.3643
  0
SEQEND
  0
ENDBLK
  0
BLOCK
  8
LAYER_9
  2
AIGNBL09010028
 70
64
 10
0
 20
0
 30
0
  3
AIGNBL09010028
  0
POLYLINE
  8
LAYER_9
 40
0.1058
 41
0.1058
 66
1
 10
0
 20
0
 30
0
  0
VERTEX
  8
LAYER_9
 10
81.0553
 20
92.7612
  0
VERTEX
  8
LAYER_9
 10
81.1381
 20
92.7612
  0
VERTEX
  8
LAYER_9
 10
81.4036
 20
92.7612
  0
VERTEX
  8
LAYER_9
 10
81.8639
 20
92.7612
  0
VERTEX
  8
LAYER_9
 10
82.5082
 20
92.7612
  0
VERTEX
  8
LAYER_9
 10
83.3013
 20
92.7612
  0
VERTEX
  8
LAYER_9
 10
84.1898
 20
92.7612
  0
VERTEX
  8
LAYER_9
 10
86.0156
 20
92.7612
  0
SEQEND
  0
ENDBLK
  0
BLOCK
  8
LAYER_9
  2
AIGNBL09010029
 70
64
 10
0
 20
0
 30
0
  3
AIGNBL09010029
  0
POLYLINE
  8
LAYER_9
 40
0.1058
 41
0.1058
 66
1
 10
0
 20
0
 30
0
  0
VERTEX
  8
LAYER_9
 10
175.3014
 20
173.5286
 42
-0.04575428689
  0
VERTEX
  8
LAYER_9
 10
176.1318
 20
173.4525
 42
-0.04848978115
  0
VERTEX
  8
LAYER_9
 10
176.9812
 20
173.2082
 42
-0.05050879046
  0
VERTEX
  8
LAYER_9
 10
177.7985
 20
172.7848
 42
-0.05160120638
  0
VERTEX
  8
LAYER_9
 10
178.5282
 20
172.192
 42
-0.05156642432
  0
VERTEX
  8
LAYER_9
 10
179.121
 20
171.4623
 42
-0.05068138636
  0
VERTEX
  8
LAYER_9
 10
179.5445
 20
170.645
 42
-0.09439115108
  0
VERTEX
  8
LAYER_9
 10
179.8649
 20
168.9652
  0
SEQEND
  0
ENDBLK
  0
BLOCK
  8
LAYER_9
  2
AIGNBL0901002A
 70
64
 10
0
 20
0
 30
0
  3
AIGNBL0901002A
  0
POLYLINE
  8
LAYER_9
 40
0.1058
 41
0.1058
 66
1
 10
0
 20
0
 30
0
  0
VERTEX
  8
LAYER_9
 10
179.8649
 20
168.9652
  0
VERTEX
  8
LAYER_9
 10
179.8649
 20
137.2191
  0
SEQEND
  0
ENDBLK
  0
BLOCK
  8
LAYER_9
  2
AIGNBL0901002B
 70
64
 10
0
 20
0
 30
0
  3
AIGNBL0901002B
  0
POLYLINE
  8
LAYER_9
 40
0.1058
 41
0.1058
 66
1
 10
0
 20
0
 30
0
  0
VERTEX
  8
LAYER_9
 10
81.0553
 20
91.9675
  0
VERTEX
  8
LAYER_9
 10
81.1381
 20
91.9675
  0
VERTEX
  8
LAYER_9
 10
81.4036
 20
91.9675
  0
VERTEX
  8
LAYER_9
 10
81.8639
 20
91.9675
  0
VERTEX
  8
LAYER_9
 10
82.5082
 20
91.9675
  0
VERTEX
  8
LAYER_9
 10
83.3013
 20
91.9675
  0
VERTEX
  8
LAYER_9
 10
84.1898
 20
91.9675
  0
VERTEX
  8
LAYER_9
 10
86.0156
 20
91.9675
  0
SEQEND
  0
ENDBLK
  0
BLOCK
  8
LAYER_9
  2
AIGNBL0901002C
 70
64
 10
0
 20
0
 30
0
  3
AIGNBL0901002C
  0
POLYLINE
  8
LAYER_9
 40
0.1058
 41
0.1058
 66
1
 10
0
 20
0
 30
0
  0
VERTEX
  8
LAYER_9
 10
86.0156
 20
131.862
 42
-0.04577296337
  0
VERTEX
  8
LAYER_9
 10
85.0408
 20
131.9514
 42
-0.04848769702
  0
VERTEX
  8
LAYER_9
 10
84.0437
 20
132.2381
 42
-0.05051257462
  0
VERTEX
  8
LAYER_9
 10
83.0842
 20
132.7352
 42
-0.05168968442
  0
VERTEX
  8
LAYER_9
 10
82.2276
 20
133.431
 42
-0.05156571693
  0
VERTEX
  8
LAYER_9
 10
81.5317
 20
134.2876
 42
-0.05057228226
  0
VERTEX
  8
LAYER_9
 10
81.0346
 20
135.2472
 42
-0.09439001186
  0
VERTEX
  8
LAYER_9
 10
80.6585
 20
137.2191
  0
SEQEND
  0
ENDBLK
  0
BLOCK
  8
LAYER_9
  2
AIGNBL0901002D
 70
64
 10
0
 20
0
 30
0
  3
AIGNBL0901002D
  0
POLYLINE
  8
LAYER_9
 40
0.1058
 41
0.1058
 66
1
 10
0
 20
0
 30
0
  0
VERTEX
  8
LAYER_9
 10
180.2617
 20
92.7612
  0
VERTEX
  8
LAYER_9
 10
180.3585
 20
92.7492
  0
SEQEND
  0
ENDBLK
  0
BLOCK
  8
LAYER_9
  2
AIGNBL0901002E
 70
64
 10
0
 20
0
 30
0
  3
AIGNBL0901002E
  0
POLYLINE
  8
LAYER_9
 40
0.1058
 41
0.1058
 66
1
 10
0
 20
0
 30
0
  0
VERTEX
  8
LAYER_9
 10
80.6585
 20
92.3643
 42
0.2554809352
  0
VERTEX
  8
LAYER_9
 10
80.8135
 20
92.0233
 42
0.1414482929
  0
VERTEX
  8
LAYER_9
 10
81.0553
 20
91.9675
  0
SEQEND
  0
ENDBLK
  0
BLOCK
  8
LAYER_9
  2
AIGNBL0901002F
 70
64
 10
0
 20
0
 30
0
  3
AIGNBL0901002F
  0
POLYLINE
  8
LAYER_9
 40
0.1058
 41
0.1058
 66
1
 10
0
 20
0
 30
0
  0
VERTEX
  8
LAYER_9
 10
80.6585
 20
137.2191
  0
VERTEX
  8
LAYER_9
 10
80.6585
 20
168.9652
  0
SEQEND
  0
ENDBLK
  0
BLOCK
  8
LAYER_9
  2
AIGNBL09010030
 70
64
 10
0
 20
0
 30
0
  3
AIGNBL09010030
  0
POLYLINE
  8
LAYER_9
 40
0.1058
 41
0.1058
 66
1
 10
0
 20
0
 30
0
  0
VERTEX
  8
LAYER_9
 10
175.3014
 20
174.3223
 42
-0.04577272712
  0
VERTEX
  8
LAYER_9
 10
176.2762
 20
174.2329
 42
-0.04848747449
  0
VERTEX
  8
LAYER_9
 10
177.2733
 20
173.9462
 42
-0.05051238175
  0
VERTEX
  8
LAYER_9
 10
178.2328
 20
173.4491
 42
-0.05160101541
  0
VERTEX
  8
LAYER_9
 10
179.0894
 20
172.7532
 42
-0.051685066
  0
VERTEX
  8
LAYER_9
 10
179.7853
 20
171.8966
 42
-0.05069842866
  0
VERTEX
  8
LAYER_9
 10
180.2824
 20
170.9371
 42
-0.09439010801
  0
VERTEX
  8
LAYER_9
 10
180.6585
 20
168.9652
  0
SEQEND
  0
ENDBLK
  0
BLOCK
  8
LAYER_9
  2
AIGNBL09010031
 70
64
 10
0
 20
0
 30
0
  3
AIGNBL09010031
  0
POLYLINE
  8
LAYER_9
 40
0.1058
 41
0.1058
 66
1
 10
0
 20
0
 30
0
  0
VERTEX
  8
LAYER_9
 10
180.6585
 20
92.3643
 42
-0.255480935
  0
VERTEX
  8
LAYER_9
 10
180.5035
 20
92.0233
 42
-0.1414482929
  0
VERTEX
  8
LAYER_9
 10
180.2617
 20
91.9675
  0
SEQEND
  0
ENDBLK
  0
BLOCK
  8
LAYER_9
  2
AIGNBL09010032
 70
64
 10
0
 20
0
 30
0
  3
AIGNBL09010032
  0
POLYLINE
  8
LAYER_9
 40
0.1058
 41
0.1058
 66
1
 10
0
 20
0
 30
0
  0
VERTEX
  8
LAYER_9
 10
81.0553
 20
92.7612
 42
0.2555186546
  0
VERTEX
  8
LAYER_9
 10
80.7143
 20
92.6062
 42
0.1414221147
  0
VERTEX
  8
LAYER_9
 10
80.6585
 20
92.3643
  0
SEQEND
  0
ENDBLK
  0
BLOCK
  8
LAYER_9
  2
AIGNBL09010033
 70
64
 10
0
 20
0
 30
0
  3
AIGNBL09010033
  0
POLYLINE
  8
LAYER_9
 40
0.1058
 41
0.1058
 66
1
 10
0
 20
0
 30
0
  0
VERTEX
  8
LAYER_9
 10
175.3014
 20
93.6044
  0
VERTEX
  8
LAYER_9
 10
175.3014
 20
91.1243
  0
SEQEND
  0
ENDBLK
  0
BLOCK
  8
LAYER_9
  2
AIGNBL09010034
 70
64
 10
0
 20
0
 30
0
  3
AIGNBL09010034
  0
POLYLINE
  8
LAYER_9
 40
0.1058
 41
0.1058
 66
1
 10
0
 20
0
 30
0
  0
VERTEX
  8
LAYER_9
 10
86.0156
 20
93.6044
  0
VERTEX
  8
LAYER_9
 10
86.0156
 20
91.1243
  0
SEQEND
  0
ENDBLK
  0
BLOCK
  8
LAYER_9
  2
AIGNBL09010035
 70
64
 10
0
 20
0
 30
0
  3
AIGNBL09010035
  0
POLYLINE
  8
LAYER_9
 40
0.1058
 41
0.1058
 66
1
 10
0
 20
0
 30
0
  0
VERTEX
  8
LAYER_9
 10
86.0156
 20
93.6044
  0
VERTEX
  8
LAYER_9
 10
175.3014
 20
93.6044
  0
SEQEND
  0
ENDBLK
  0
BLOCK
  8
LAYER_9
  2
AIGNBL09010036
 70
64
 10
0
 20
0
 30
0
  3
AIGNBL09010036
  0
POLYLINE
  8
LAYER_9
 40
0.1058
 41
0.1058
 66
1
 10
0
 20
0
 30
0
  0
VERTEX
  8
LAYER_9
 10
86.0156
 20
132.6556
 42
-0.04585806088
  0
VERTEX
  8
LAYER_9
 10
85.1853
 20
132.7318
 42
-0.04848831668
  0
VERTEX
  8
LAYER_9
 10
84.3359
 20
132.976
 42
-0.05051613907
  0
VERTEX
  8
LAYER_9
 10
83.5185
 20
133.3995
 42
-0.05159749936
  0
VERTEX
  8
LAYER_9
 10
82.7888
 20
133.9922
 42
-0.05156582088
  0
VERTEX
  8
LAYER_9
 10
82.196
 20
134.7219
 42
-0.05057140398
  0
VERTEX
  8
LAYER_9
 10
81.7725
 20
135.5393
 42
-0.09439103699
  0
VERTEX
  8
LAYER_9
 10
81.4522
 20
137.2191
  0
SEQEND
  0
ENDBLK
  0
BLOCK
  8
LAYER_9
  2
AIGNBL09010037
 70
64
 10
0
 20
0
 30
0
  3
AIGNBL09010037
  0
POLYLINE
  8
LAYER_9
 40
0.1058
 41
0.1058
 66
1
 10
0
 20
0
 30
0
  0
VERTEX
  8
LAYER_9
 10
86.0156
 20
175.7112
  0
VERTEX
  8
LAYER_9
 10
86.0156
 20
173.231
  0
SEQEND
  0
ENDBLK
  0
BLOCK
  8
LAYER_9
  2
AIGNBL09010038
 70
64
 10
0
 20
0
 30
0
  3
AIGNBL09010038
  0
POLYLINE
  8
LAYER_9
 40
0.1058
 41
0.1058
 66
1
 10
0
 20
0
 30
0
  0
VERTEX
  8
LAYER_9
 10
175.3014
 20
175.7112
  0
VERTEX
  8
LAYER_9
 10
175.3014
 20
173.231
  0
SEQEND
  0
ENDBLK
  0
BLOCK
  8
LAYER_9
  2
AIGNBL09010039
 70
64
 10
0
 20
0
 30
0
  3
AIGNBL09010039
  0
POLYLINE
  8
LAYER_9
 40
0.1058
 41
0.1058
 66
1
 10
0
 20
0
 30
0
  0
VERTEX
  8
LAYER_9
 10
80.6585
 20
168.9652
 42
-0.04576864762
  0
VERTEX
  8
LAYER_9
 10
80.7479
 20
169.94
 42
-0.04848744528
  0
VERTEX
  8
LAYER_9
 10
81.0346
 20
170.9371
 42
-0.0505123327
  0
VERTEX
  8
LAYER_9
 10
81.5317
 20
171.8966
 42
-0.05160094807
  0
VERTEX
  8
LAYER_9
 10
82.2276
 20
172.7532
 42
-0.05156614868
  0
VERTEX
  8
LAYER_9
 10
83.0842
 20
173.4491
 42
-0.05056824211
  0
VERTEX
  8
LAYER_9
 10
84.0437
 20
173.9462
 42
-0.09444370477
  0
VERTEX
  8
LAYER_9
 10
86.0156
 20
174.3223
  0
SEQEND
  0
ENDBLK
  0
BLOCK
  8
LAYER_9
  2
AIGNBL0901003A
 70
64
 10
0
 20
0
 30
0
  3
AIGNBL0901003A
  0
POLYLINE
  8
LAYER_9
 40
0.1058
 41
0.1058
 66
1
 10
0
 20
0
 30
0
  0
VERTEX
  8
LAYER_9
 10
81.4522
 20
137.2191
  0
VERTEX
  8
LAYER_9
 10
81.4522
 20
168.9652
  0
SEQEND
  0
ENDBLK
  0
BLOCK
  8
LAYER_9
  2
AIGNBL0901003B
 70
64
 10
0
 20
0
 30
0
  3
AIGNBL0901003B
  0
POLYLINE
  8
LAYER_9
 40
0.1058
 41
0.1058
 66
1
 10
0
 20
0
 30
0
  0
VERTEX
  8
LAYER_9
 10
86.0156
 20
175.7112
  0
VERTEX
  8
LAYER_9
 10
175.3014
 20
175.7112
  0
SEQEND
  0
ENDBLK
  0
BLOCK
  8
LAYER_9
  2
AIGNBL0901003C
 70
64
 10
0
 20
0
 30
0
  3
AIGNBL0901003C
  0
POLYLINE
  8
LAYER_9
 40
0.1058
 41
0.1058
 66
1
 10
0
 20
0
 30
0
  0
VERTEX
  8
LAYER_9
 10
180.6585
 20
137.2191
 42
-0.04582561715
  0
VERTEX
  8
LAYER_9
 10
180.5691
 20
136.2443
 42
-0.04848761325
  0
VERTEX
  8
LAYER_9
 10
180.2824
 20
135.2472
 42
-0.05051646254
  0
VERTEX
  8
LAYER_9
 10
179.7853
 20
134.2876
 42
-0.05159729215
  0
VERTEX
  8
LAYER_9
 10
179.0894
 20
133.4311
 42
-0.0515664304
  0
VERTEX
  8
LAYER_9
 10
178.2328
 20
132.7352
 42
-0.05057025412
  0
VERTEX
  8
LAYER_9
 10
177.2733
 20
132.238
 42
-0.09444250877
  0
VERTEX
  8
LAYER_9
 10
175.3014
 20
131.862
  0
SEQEND
  0
ENDBLK
  0
BLOCK
  8
LAYER_9
  2
AIGNBL0901003D
 70
64
 10
0
 20
0
 30
0
  3
AIGNBL0901003D
  0
POLYLINE
  8
LAYER_9
 40
0.1058
 41
0.1058
 66
1
 10
0
 20
0
 30
0
  0
VERTEX
  8
LAYER_9
 10
81.4522
 20
168.9652
 42
-0.04576827833
  0
VERTEX
  8
LAYER_9
 10
81.5283
 20
169.7955
 42
-0.04849004014
  0
VERTEX
  8
LAYER_9
 10
81.7726
 20
170.6449
 42
-0.0505138348
  0
VERTEX
  8
LAYER_9
 10
82.196
 20
171.4623
 42
-0.05160112731
  0
VERTEX
  8
LAYER_9
 10
82.7888
 20
172.192
 42
-0.05156632776
  0
VERTEX
  8
LAYER_9
 10
83.5185
 20
172.7848
 42
-0.05056666115
  0
VERTEX
  8
LAYER_9
 10
84.3358
 20
173.2083
 42
-0.0944447152
  0
VERTEX
  8
LAYER_9
 10
86.0156
 20
173.5286
  0
SEQEND
  0
ENDBLK
  0
BLOCK
  8
LAYER_9
  2
AIGNBL0901003E
 70
64
 10
0
 20
0
 30
0
  3
AIGNBL0901003E
  0
POLYLINE
  8
LAYER_9
 40
0.1058
 41
0.1058
 66
1
 10
0
 20
0
 30
0
  0
VERTEX
  8
LAYER_9
 10
180.6585
 20
168.9652
  0
VERTEX
  8
LAYER_9
 10
180.6585
 20
137.2191
  0
SEQEND
  0
ENDBLK
  0
BLOCK
  8
LAYER_9
  2
AIGNBL0901003F
 70
64
 10
0
 20
0
 30
0
  3
AIGNBL0901003F
  0
POLYLINE
  8
LAYER_9
 40
0.1058
 41
0.1058
 66
1
 10
0
 20
0
 30
0
  0
VERTEX
  8
LAYER_9
 10
179.8649
 20
137.2191
 42
-0.04575748872
  0
VERTEX
  8
LAYER_9
 10
179.7887
 20
136.3887
 42
-0.04848994405
  0
VERTEX
  8
LAYER_9
 10
179.5444
 20
135.5393
 42
-0.05051358098
  0
VERTEX
  8
LAYER_9
 10
179.121
 20
134.7219
 42
-0.05160071691
  0
VERTEX
  8
LAYER_9
 10
178.5282
 20
133.9922
 42
-0.05155819024
  0
VERTEX
  8
LAYER_9
 10
177.7986
 20
133.3995
 42
-0.05057159837
  0
VERTEX
  8
LAYER_9
 10
176.9812
 20
132.976
 42
-0.09444534274
  0
VERTEX
  8
LAYER_9
 10
175.3014
 20
132.6556
  0
SEQEND
  0
ENDBLK
  0
BLOCK
  8
LAYER_9
  2
AIGNBL09010040
 70
64
 10
0
 20
0
 30
0
  3
AIGNBL09010040
  0
POLYLINE
  8
LAYER_9
 40
0.1058
 41
0.1058
 66
1
 10
0
 20
0
 30
0
  0
VERTEX
  8
LAYER_9
 10
86.0156
 20
173.231
  0
VERTEX
  8
LAYER_9
 10
175.3014
 20
173.231
  0
SEQEND
  0
ENDBLK
  0
BLOCK
  8
LAYER_9
  2
AIGNBL09010041
 70
64
 10
0
 20
0
 30
0
  3
AIGNBL09010041
  0
POLYLINE
  8
LAYER_9
 40
0.1058
 41
0.1058
 66
1
 10
0
 20
0
 30
0
  0
VERTEX
  8
LAYER_9
 10
86.0156
 20
132.9532
  0
VERTEX
  8
LAYER_9
 10
86.0156
 20
130.4731
  0
SEQEND
  0
ENDBLK
  0
BLOCK
  8
LAYER_9
  2
AIGNBL09010042
 70
64
 10
0
 20
0
 30
0
  3
AIGNBL09010042
  0
POLYLINE
  8
LAYER_9
 40
0.1058
 41
0.1058
 66
1
 10
0
 20
0
 30
0
  0
VERTEX
  8
LAYER_9
 10
175.3014
 20
132.9532
  0
VERTEX
  8
LAYER_9
 10
175.3014
 20
130.4731
  0
SEQEND
  0
ENDBLK
  0
BLOCK
  8
LAYER_9
  2
AIGNBL09010043
 70
64
 10
0
 20
0
 30
0
  3
AIGNBL09010043
  0
POLYLINE
  8
LAYER_9
 40
0.1058
 41
0.1058
 66
1
 10
0
 20
0
 30
0
  0
VERTEX
  8
LAYER_9
 10
86.0156
 20
132.9532
  0
VERTEX
  8
LAYER_9
 10
175.3014
 20
132.9532
  0
SEQEND
  0
ENDBLK
  0
BLOCK
  8
LAYER_9
  2
AIGNBL09010044
 70
64
 10
0
 20
0
 30
0
  3
AIGNBL09010044
  0
POLYLINE
  8
LAYER_9
 40
0.1058
 41
0.1058
 66
1
 10
0
 20
0
 30
0
  0
VERTEX
  8
LAYER_9
 10
86.0156
 20
130.4731
  0
VERTEX
  8
LAYER_9
 10
175.3014
 20
130.4731
  0
SEQEND
  0
ENDBLK
  0
BLOCK
  8
LAYER_9
  2
AIGNBL09010045
 70
64
 10
0
 20
0
 30
0
  3
AIGNBL09010045
  0
POLYLINE
  8
LAYER_9
 40
0.1058
 41
0.1058
 66
1
 10
0
 20
0
 30
0
  0
VERTEX
  8
LAYER_9
 10
175.3014
 20
92.7612
  0
VERTEX
  8
LAYER_9
 10
176.204
 20
92.7612
  0
VERTEX
  8
LAYER_9
 10
177.1272
 20
92.7612
  0
VERTEX
  8
LAYER_9
 10
178.0157
 20
92.7612
  0
VERTEX
  8
LAYER_9
 10
178.8088
 20
92.7612
  0
VERTEX
  8
LAYER_9
 10
179.4531
 20
92.7612
  0
VERTEX
  8
LAYER_9
 10
179.9135
 20
92.7612
  0
VERTEX
  8
LAYER_9
 10
180.2617
 20
92.7612
  0
SEQEND
  0
ENDBLK
  0
BLOCK
  8
LAYER_9
  2
AIGNBL09010046
 70
64
 10
0
 20
0
 30
0
  3
AIGNBL09010046
  0
POLYLINE
  8
LAYER_9
 40
0.1058
 41
0.1058
 66
1
 10
0
 20
0
 30
0
  0
VERTEX
  8
LAYER_9
 10
50.7264
 20
173.9112
  0
VERTEX
  8
LAYER_9
 10
50.7264
 20
173.8277
  0
VERTEX
  8
LAYER_9
 10
50.7264
 20
173.5601
  0
VERTEX
  8
LAYER_9
 10
50.7264
 20
173.0962
  0
VERTEX
  8
LAYER_9
 10
50.7264
 20
172.4467
  0
VERTEX
  8
LAYER_9
 10
50.7264
 20
171.6472
  0
VERTEX
  8
LAYER_9
 10
50.7264
 20
170.7517
  0
VERTEX
  8
LAYER_9
 10
50.7264
 20
168.9112
  0
SEQEND
  0
ENDBLK
  0
BLOCK
  8
LAYER_9
  2
AIGNBL09010047
 70
64
 10
0
 20
0
 30
0
  3
AIGNBL09010047
  0
POLYLINE
  8
LAYER_9
 40
0.1058
 41
0.1058
 66
1
 10
0
 20
0
 30
0
  0
VERTEX
  8
LAYER_9
 10
51.6112
 20
173.3089
 42
0.1329898948
  0
VERTEX
  8
LAYER_9
 10
52.1919
 20
173.6806
 42
0.1394674453
  0
VERTEX
  8
LAYER_9
 10
52.4295
 20
174.2156
 42
0.04042097148
  0
VERTEX
  8
LAYER_9
 10
52.45
 20
174.4776
  0
SEQEND
  0
ENDBLK
  0
BLOCK
  8
LAYER_9
  2
AIGNBL09010048
 70
64
 10
0
 20
0
 30
0
  3
AIGNBL09010048
  0
POLYLINE
  8
LAYER_9
 40
0.1058
 41
0.1058
 66
1
 10
0
 20
0
 30
0
  0
VERTEX
  8
LAYER_9
 10
57.9764
 20
173.4076
  0
VERTEX
  8
LAYER_9
 10
51.8318
 20
173.4076
  0
SEQEND
  0
ENDBLK
  0
BLOCK
  8
LAYER_9
  2
AIGNBL09010049
 70
64
 10
0
 20
0
 30
0
  3
AIGNBL09010049
  0
POLYLINE
  8
LAYER_9
 40
0.1058
 41
0.1058
 66
1
 10
0
 20
0
 30
0
  0
VERTEX
  8
LAYER_9
 10
90.0656
 20
99.16
  0
VERTEX
  8
LAYER_9
 10
87.883
 20
99.16
  0
SEQEND
  0
ENDBLK
  0
BLOCK
  8
LAYER_9
  2
AIGNBL0901004A
 70
64
 10
0
 20
0
 30
0
  3
AIGNBL0901004A
  0
POLYLINE
  8
LAYER_9
 40
0.1058
 41
0.1058
 66
1
 10
0
 20
0
 30
0
  0
VERTEX
  8
LAYER_9
 10
87.883
 20
99.16
  0
VERTEX
  8
LAYER_9
 10
87.883
 20
93.6043
  0
SEQEND
  0
ENDBLK
  0
BLOCK
  8
LAYER_9
  2
AIGNBL0901004B
 70
64
 10
0
 20
0
 30
0
  3
AIGNBL0901004B
  0
POLYLINE
  8
LAYER_9
 40
0.1058
 41
0.1058
 66
1
 10
0
 20
0
 30
0
  0
VERTEX
  8
LAYER_9
 10
87.883
 20
93.6043
  0
VERTEX
  8
LAYER_9
 10
87.8871
 20
93.5995
  0
VERTEX
  8
LAYER_9
 10
87.8991
 20
93.5878
  0
VERTEX
  8
LAYER_9
 10
87.9377
 20
93.552
  0
VERTEX
  8
LAYER_9
 10
88.049
 20
93.4528
  0
VERTEX
  8
LAYER_9
 10
88.2395
 20
93.2926
  0
VERTEX
  8
LAYER_9
 10
88.5369
 20
93.0764
 42
0.06203736625
  0
VERTEX
  8
LAYER_9
 10
88.7675
 20
92.961
 42
0.08945832846
  0
VERTEX
  8
LAYER_9
 10
88.9743
 20
92.9235
  0
VERTEX
  8
LAYER_9
 10
89.0766
 20
92.9328
  0
VERTEX
  8
LAYER_9
 10
89.1806
 20
92.9609
 42
0.05142423944
  0
VERTEX
  8
LAYER_9
 10
89.4119
 20
93.0764
 42
0.02655620406
  0
VERTEX
  8
LAYER_9
 10
89.7095
 20
93.2928
  0
VERTEX
  8
LAYER_9
 10
89.8997
 20
93.4528
  0
VERTEX
  8
LAYER_9
 10
90.0109
 20
93.552
  0
VERTEX
  8
LAYER_9
 10
90.0496
 20
93.5878
  0
VERTEX
  8
LAYER_9
 10
90.0615
 20
93.5995
  0
VERTEX
  8
LAYER_9
 10
90.0656
 20
93.6044
  0
SEQEND
  0
ENDBLK
  0
BLOCK
  8
LAYER_9
  2
AIGNBL0901004C
 70
64
 10
0
 20
0
 30
0
  3
AIGNBL0901004C
  0
POLYLINE
  8
LAYER_9
 40
0.1058
 41
0.1058
 66
1
 10
0
 20
0
 30
0
  0
VERTEX
  8
LAYER_9
 10
90.0656
 20
93.6044
  0
VERTEX
  8
LAYER_9
 10
90.0656
 20
99.16
  0
SEQEND
  0
ENDBLK
  0
BLOCK
  8
LAYER_9
  2
AIGNBL0901004D
 70
64
 10
0
 20
0
 30
0
  3
AIGNBL0901004D
  0
POLYLINE
  8
LAYER_9
 40
0.1058
 41
0.1058
 66
1
 10
0
 20
0
 30
0
  0
VERTEX
  8
LAYER_9
 10
173.4166
 20
93.6044
  0
VERTEX
  8
LAYER_9
 10
173.4166
 20
99.16
  0
SEQEND
  0
ENDBLK
  0
BLOCK
  8
LAYER_9
  2
AIGNBL0901004E
 70
64
 10
0
 20
0
 30
0
  3
AIGNBL0901004E
  0
POLYLINE
  8
LAYER_9
 40
0.1058
 41
0.1058
 66
1
 10
0
 20
0
 30
0
  0
VERTEX
  8
LAYER_9
 10
173.4166
 20
99.16
  0
VERTEX
  8
LAYER_9
 10
171.234
 20
99.16
  0
SEQEND
  0
ENDBLK
  0
BLOCK
  8
LAYER_9
  2
AIGNBL0901004F
 70
64
 10
0
 20
0
 30
0
  3
AIGNBL0901004F
  0
POLYLINE
  8
LAYER_9
 40
0.1058
 41
0.1058
 66
1
 10
0
 20
0
 30
0
  0
VERTEX
  8
LAYER_9
 10
171.234
 20
99.16
  0
VERTEX
  8
LAYER_9
 10
171.234
 20
93.6043
  0
SEQEND
  0
ENDBLK
  0
BLOCK
  8
LAYER_9
  2
AIGNBL09010050
 70
64
 10
0
 20
0
 30
0
  3
AIGNBL09010050
  0
POLYLINE
  8
LAYER_9
 40
0.1058
 41
0.1058
 66
1
 10
0
 20
0
 30
0
  0
VERTEX
  8
LAYER_9
 10
171.234
 20
93.6043
  0
VERTEX
  8
LAYER_9
 10
171.2381
 20
93.5995
  0
VERTEX
  8
LAYER_9
 10
171.25
 20
93.5878
  0
VERTEX
  8
LAYER_9
 10
171.2887
 20
93.552
  0
VERTEX
  8
LAYER_9
 10
171.3999
 20
93.4528
  0
VERTEX
  8
LAYER_9
 10
171.5905
 20
93.2926
  0
VERTEX
  8
LAYER_9
 10
171.8878
 20
93.0764
 42
0.06194105408
  0
VERTEX
  8
LAYER_9
 10
172.1185
 20
92.961
 42
0.08945832846
  0
VERTEX
  8
LAYER_9
 10
172.3253
 20
92.9235
  0
VERTEX
  8
LAYER_9
 10
172.4275
 20
92.9328
  0
VERTEX
  8
LAYER_9
 10
172.5316
 20
92.9609
 42
0.05120811371
  0
VERTEX
  8
LAYER_9
 10
172.7629
 20
93.0764
 42
0.02646664104
  0
VERTEX
  8
LAYER_9
 10
173.0604
 20
93.2928
  0
VERTEX
  8
LAYER_9
 10
173.2506
 20
93.4528
  0
VERTEX
  8
LAYER_9
 10
173.3619
 20
93.552
  0
VERTEX
  8
LAYER_9
 10
173.4005
 20
93.5878
  0
VERTEX
  8
LAYER_9
 10
173.4125
 20
93.5995
  0
VERTEX
  8
LAYER_9
 10
173.4166
 20
93.6044
  0
SEQEND
  0
ENDBLK
  0
BLOCK
  8
LAYER_9
  2
AIGNBL09010051
 70
64
 10
0
 20
0
 30
0
  3
AIGNBL09010051
  0
POLYLINE
  8
LAYER_9
 40
0.1058
 41
0.1058
 66
1
 10
0
 20
0
 30
0
  0
VERTEX
  8
LAYER_9
 10
51.5264
 20
173.9112
  0
VERTEX
  8
LAYER_9
 10
51.5264
 20
173.8277
  0
VERTEX
  8
LAYER_9
 10
51.5264
 20
173.5601
  0
VERTEX
  8
LAYER_9
 10
51.5264
 20
173.0962
  0
VERTEX
  8
LAYER_9
 10
51.5264
 20
172.4467
  0
VERTEX
  8
LAYER_9
 10
51.5264
 20
171.6472
  0
VERTEX
  8
LAYER_9
 10
51.5264
 20
170.7517
  0
VERTEX
  8
LAYER_9
 10
51.5264
 20
168.9112
  0
SEQEND
  0
ENDBLK
  0
BLOCK
  8
LAYER_9
  2
AIGNBL09010052
 70
64
 10
0
 20
0
 30
0
  3
AIGNBL09010052
  0
POLYLINE
  8
LAYER_9
 40
0.1058
 41
0.1058
 66
1
 10
0
 20
0
 30
0
  0
VERTEX
  8
LAYER_9
 10
57.9764
 20
175.5787
  0
VERTEX
  8
LAYER_9
 10
51.7735
 20
175.5787
  0
SEQEND
  0
ENDBLK
  0
BLOCK
  8
LAYER_9
  2
AIGNBL09010053
 70
64
 10
0
 20
0
 30
0
  3
AIGNBL09010053
  0
POLYLINE
  8
LAYER_9
 40
0.1058
 41
0.1058
 66
1
 10
0
 20
0
 30
0
  0
VERTEX
  8
LAYER_9
 10
50.8217
 20
137.4217
  0
VERTEX
  8
LAYER_9
 10
50.8217
 20
136.5239
  0
VERTEX
  8
LAYER_9
 10
50.8217
 20
135.6055
  0
VERTEX
  8
LAYER_9
 10
50.8217
 20
134.7217
  0
VERTEX
  8
LAYER_9
 10
50.8217
 20
133.9327
  0
VERTEX
  8
LAYER_9
 10
50.8217
 20
133.2918
  0
VERTEX
  8
LAYER_9
 10
50.8217
 20
132.8339
  0
VERTEX
  8
LAYER_9
 10
50.8217
 20
132.4875
  0
SEQEND
  0
ENDBLK
  0
BLOCK
  8
LAYER_9
  2
AIGNBL09010054
 70
64
 10
0
 20
0
 30
0
  3
AIGNBL09010054
  0
POLYLINE
  8
LAYER_9
 40
0.1058
 41
0.1058
 66
1
 10
0
 20
0
 30
0
  0
VERTEX
  8
LAYER_9
 10
50.8217
 20
132.4875
 42
0.255553878
  0
VERTEX
  8
LAYER_9
 10
50.9759
 20
132.1483
 42
0.141386001
  0
VERTEX
  8
LAYER_9
 10
51.2165
 20
132.0928
  0
SEQEND
  0
ENDBLK
  0
BLOCK
  8
LAYER_9
  2
AIGNBL09010055
 70
64
 10
0
 20
0
 30
0
  3
AIGNBL09010055
  0
POLYLINE
  8
LAYER_9
 40
0.1058
 41
0.1058
 66
1
 10
0
 20
0
 30
0
  0
VERTEX
  8
LAYER_9
 10
51.2165
 20
132.0928
 42
0.3347388422
  0
VERTEX
  8
LAYER_9
 10
51.596
 20
132.3789
  0
SEQEND
  0
ENDBLK
  0
BLOCK
  8
LAYER_9
  2
AIGNBL09010056
 70
64
 10
0
 20
0
 30
0
  3
AIGNBL09010056
  0
POLYLINE
  8
LAYER_9
 40
0.1058
 41
0.1058
 66
1
 10
0
 20
0
 30
0
  0
VERTEX
  8
LAYER_9
 10
51.596
 20
132.3789
  0
VERTEX
  8
LAYER_9
 10
51.6112
 20
132.4875
  0
SEQEND
  0
ENDBLK
  0
BLOCK
  8
LAYER_9
  2
AIGNBL09010057
 70
64
 10
0
 20
0
 30
0
  3
AIGNBL09010057
  0
POLYLINE
  8
LAYER_9
 40
0.1058
 41
0.1058
 66
1
 10
0
 20
0
 30
0
  0
VERTEX
  8
LAYER_9
 10
51.6112
 20
132.4875
  0
VERTEX
  8
LAYER_9
 10
51.6112
 20
132.8339
  0
VERTEX
  8
LAYER_9
 10
51.6112
 20
133.2918
  0
VERTEX
  8
LAYER_9
 10
51.6112
 20
133.9327
  0
VERTEX
  8
LAYER_9
 10
51.6112
 20
134.7217
  0
VERTEX
  8
LAYER_9
 10
51.6112
 20
135.6055
  0
VERTEX
  8
LAYER_9
 10
51.6112
 20
136.5239
  0
VERTEX
  8
LAYER_9
 10
51.6112
 20
137.4217
  0
SEQEND
  0
ENDBLK
  0
BLOCK
  8
LAYER_9
  2
AIGNBL09010058
 70
64
 10
0
 20
0
 30
0
  3
AIGNBL09010058
  0
POLYLINE
  8
LAYER_9
 40
0.1058
 41
0.1058
 66
1
 10
0
 20
0
 30
0
  0
VERTEX
  8
LAYER_9
 10
51.1264
 20
174.3112
 42
0.2555106987
  0
VERTEX
  8
LAYER_9
 10
50.7826
 20
174.1549
 42
0.1414208863
  0
VERTEX
  8
LAYER_9
 10
50.7264
 20
173.9112
  0
SEQEND
  0
ENDBLK
  0
BLOCK
  8
LAYER_9
  2
AIGNBL09010059
 70
64
 10
0
 20
0
 30
0
  3
AIGNBL09010059
  0
POLYLINE
  8
LAYER_9
 40
0.1058
 41
0.1058
 66
1
 10
0
 20
0
 30
0
  0
VERTEX
  8
LAYER_9
 10
52.45
 20
174.4776
 42
0.1213616788
  0
VERTEX
  8
LAYER_9
 10
52.2907
 20
175.2049
 42
0.2263731554
  0
VERTEX
  8
LAYER_9
 10
51.62
 20
175.6714
 42
0.05437831079
  0
VERTEX
  8
LAYER_9
 10
51.2165
 20
175.7112
 42
0.1213803346
  0
VERTEX
  8
LAYER_9
 10
50.4892
 20
175.5519
 42
0.2263582674
  0
VERTEX
  8
LAYER_9
 10
50.0227
 20
174.8811
 42
0.0543759208
  0
VERTEX
  8
LAYER_9
 10
49.9829
 20
174.4776
 42
0.132988391
  0
VERTEX
  8
LAYER_9
 10
50.1492
 20
173.8085
 42
0.1394689647
  0
VERTEX
  8
LAYER_9
 10
50.5801
 20
173.4121
 42
0.04042170378
  0
VERTEX
  8
LAYER_9
 10
50.8217
 20
173.3089
  0
SEQEND
  0
ENDBLK
  0
BLOCK
  8
LAYER_9
  2
AIGNBL0901005A
 70
64
 10
0
 20
0
 30
0
  3
AIGNBL0901005A
  0
POLYLINE
  8
LAYER_9
 40
0.1058
 41
0.1058
 66
1
 10
0
 20
0
 30
0
  0
VERTEX
  8
LAYER_9
 10
51.5264
 20
173.9112
 42
0.2554761109
  0
VERTEX
  8
LAYER_9
 10
51.3701
 20
174.2549
 42
0.1414564222
  0
VERTEX
  8
LAYER_9
 10
51.1264
 20
174.3112
  0
SEQEND
  0
ENDBLK
  0
BLOCK
  8
LAYER_9
  2
AIGNBL0901005B
 70
64
 10
0
 20
0
 30
0
  3
AIGNBL0901005B
  0
POLYLINE
  8
LAYER_9
 40
0.1058
 41
0.1058
 66
1
 10
0
 20
0
 30
0
  0
VERTEX
  8
LAYER_9
 10
50.8217
 20
169.0007
  0
VERTEX
  8
LAYER_9
 10
50.8217
 20
137.4217
  0
SEQEND
  0
ENDBLK
  0
BLOCK
  8
LAYER_9
  2
AIGNBL0901005C
 70
64
 10
0
 20
0
 30
0
  3
AIGNBL0901005C
  0
POLYLINE
  8
LAYER_9
 40
0.1058
 41
0.1058
 66
1
 10
0
 20
0
 30
0
  0
VERTEX
  8
LAYER_9
 10
51.6112
 20
169.0007
  0
VERTEX
  8
LAYER_9
 10
51.6112
 20
137.4217
  0
SEQEND
  0
ENDBLK
  0
BLOCK
  8
LAYER_9
  2
AIGNBL0901005D
 70
64
 10
0
 20
0
 30
0
  3
AIGNBL0901005D
  0
POLYLINE
  8
LAYER_9
 40
0.1058
 41
0.1058
 66
1
 10
0
 20
0
 30
0
  0
VERTEX
  8
LAYER_9
 10
57.9764
 20
173.4076
  0
VERTEX
  8
LAYER_9
 10
57.9764
 20
175.5787
  0
SEQEND
  0
ENDBLK
  0
BLOCK
  8
LAYER_9
  2
AIGNBL0901005E
 70
64
 10
0
 20
0
 30
0
  3
AIGNBL0901005E
  0
POLYLINE
  8
LAYER_9
 40
0.1058
 41
0.1058
 66
1
 10
0
 20
0
 30
0
  0
VERTEX
  8
LAYER_9
 10
57.6803
 20
174.9864
  0
VERTEX
  8
LAYER_9
 10
57.9764
 20
174.9864
  0
SEQEND
  0
ENDBLK
  0
BLOCK
  8
LAYER_9
  2
AIGNBL0901005F
 70
64
 10
0
 20
0
 30
0
  3
AIGNBL0901005F
  0
POLYLINE
  8
LAYER_9
 40
0.1058
 41
0.1058
 66
1
 10
0
 20
0
 30
0
  0
VERTEX
  8
LAYER_9
 10
89.2387
 20
174.2385
 42
-0.4142233577
  0
VERTEX
  8
LAYER_9
 10
88.9906
 20
173.9905
 42
-0.4141055727
  0
VERTEX
  8
LAYER_9
 10
88.7426
 20
174.2385
  0
SEQEND
  0
ENDBLK
  0
BLOCK
  8
LAYER_9
  2
AIGNBL09010060
 70
64
 10
0
 20
0
 30
0
  3
AIGNBL09010060
  0
POLYLINE
  8
LAYER_9
 40
0.1058
 41
0.1058
 66
1
 10
0
 20
0
 30
0
  0
VERTEX
  8
LAYER_9
 10
87.883
 20
174.4867
 42
-0.1989264447
  0
VERTEX
  8
LAYER_9
 10
88.2027
 20
175.2584
 42
-0.1988953289
  0
VERTEX
  8
LAYER_9
 10
88.9743
 20
175.578
 42
-0.1989148595
  0
VERTEX
  8
LAYER_9
 10
89.746
 20
175.2584
 42
-0.1989161021
  0
VERTEX
  8
LAYER_9
 10
90.0656
 20
174.4867
  0
VERTEX
  8
LAYER_9
 10
90.0655
 20
174.4711
  0
SEQEND
  0
ENDBLK
  0
BLOCK
  8
LAYER_9
  2
AIGNBL09010061
 70
64
 10
0
 20
0
 30
0
  3
AIGNBL09010061
  0
POLYLINE
  8
LAYER_9
 40
0.1058
 41
0.1058
 66
1
 10
0
 20
0
 30
0
  0
VERTEX
  8
LAYER_9
 10
175.3014
 20
174.3223
  0
VERTEX
  8
LAYER_9
 10
170.341
 20
174.3223
  0
SEQEND
  0
ENDBLK
  0
BLOCK
  8
LAYER_9
  2
AIGNBL09010062
 70
64
 10
0
 20
0
 30
0
  3
AIGNBL09010062
  0
POLYLINE
  8
LAYER_9
 40
0.1058
 41
0.1058
 66
1
 10
0
 20
0
 30
0
  0
VERTEX
  8
LAYER_9
 10
170.341
 20
174.3223
  0
VERTEX
  8
LAYER_9
 10
170.341
 20
173.5286
  0
SEQEND
  0
ENDBLK
  0
BLOCK
  8
LAYER_9
  2
AIGNBL09010063
 70
64
 10
0
 20
0
 30
0
  3
AIGNBL09010063
  0
POLYLINE
  8
LAYER_9
 40
0.1058
 41
0.1058
 66
1
 10
0
 20
0
 30
0
  0
VERTEX
  8
LAYER_9
 10
170.341
 20
173.5286
  0
VERTEX
  8
LAYER_9
 10
175.3014
 20
173.5286
  0
SEQEND
  0
ENDBLK
  0
BLOCK
  8
LAYER_9
  2
AIGNBL09010064
 70
64
 10
0
 20
0
 30
0
  3
AIGNBL09010064
  0
POLYLINE
  8
LAYER_9
 40
0.1058
 41
0.1058
 66
1
 10
0
 20
0
 30
0
  0
VERTEX
  8
LAYER_9
 10
171.2341
 20
174.4711
  0
VERTEX
  8
LAYER_9
 10
171.234
 20
174.4867
  0
SEQEND
  0
ENDBLK
  0
BLOCK
  8
LAYER_9
  2
AIGNBL09010065
 70
64
 10
0
 20
0
 30
0
  3
AIGNBL09010065
  0
POLYLINE
  8
LAYER_9
 40
0.1058
 41
0.1058
 66
1
 10
0
 20
0
 30
0
  0
VERTEX
  8
LAYER_9
 10
171.234
 20
174.4867
 42
-0.1989156879
  0
VERTEX
  8
LAYER_9
 10
171.5536
 20
175.2584
 42
-0.1989146884
  0
VERTEX
  8
LAYER_9
 10
172.3253
 20
175.578
 42
-0.1988955
  0
VERTEX
  8
LAYER_9
 10
173.0969
 20
175.2584
 42
-0.198926859
  0
VERTEX
  8
LAYER_9
 10
173.4166
 20
174.4867
  0
VERTEX
  8
LAYER_9
 10
173.4164
 20
174.4711
  0
SEQEND
  0
ENDBLK
  0
BLOCK
  8
LAYER_9
  2
AIGNBL09010066
 70
64
 10
0
 20
0
 30
0
  3
AIGNBL09010066
  0
POLYLINE
  8
LAYER_9
 40
0.1058
 41
0.1058
 66
1
 10
0
 20
0
 30
0
 70
1
  0
VERTEX
  8
LAYER_9
 10
172.3579
 20
175.3793
 42
-0.1497769908
  0
VERTEX
  8
LAYER_9
 10
172.9494
 20
175.2095
 42
-0.1755157267
  0
VERTEX
  8
LAYER_9
 10
173.198
 20
174.8189
 42
-0.06903047755
  0
VERTEX
  8
LAYER_9
 10
173.2343
 20
174.4702
 42
-0.1497794547
  0
VERTEX
  8
LAYER_9
 10
173.0645
 20
173.8788
 42
-0.1754776348
  0
VERTEX
  8
LAYER_9
 10
172.6739
 20
173.6302
 42
-0.06902522435
  0
VERTEX
  8
LAYER_9
 10
172.3253
 20
173.5938
 42
-0.1497769908
  0
VERTEX
  8
LAYER_9
 10
171.7338
 20
173.7636
 42
-0.1755157267
  0
VERTEX
  8
LAYER_9
 10
171.4852
 20
174.1542
 42
-0.06903047775
  0
VERTEX
  8
LAYER_9
 10
171.4489
 20
174.5029
 42
-0.1497675659
  0
VERTEX
  8
LAYER_9
 10
171.6187
 20
175.0943
 42
-0.1754979379
  0
VERTEX
  8
LAYER_9
 10
172.0093
 20
175.3429
 42
-0.06905423202
  0
SEQEND
  0
ENDBLK
  0
BLOCK
  8
LAYER_9
  2
AIGNBL09010067
 70
64
 10
0
 20
0
 30
0
  3
AIGNBL09010067
  0
POLYLINE
  8
LAYER_9
 40
0.1058
 41
0.1058
 66
1
 10
0
 20
0
 30
0
  0
VERTEX
  8
LAYER_9
 10
172.5896
 20
174.7346
  0
VERTEX
  8
LAYER_9
 10
172.5896
 20
174.2385
  0
SEQEND
  0
ENDBLK
  0
BLOCK
  8
LAYER_9
  2
AIGNBL09010068
 70
64
 10
0
 20
0
 30
0
  3
AIGNBL09010068
  0
POLYLINE
  8
LAYER_9
 40
0.1058
 41
0.1058
 66
1
 10
0
 20
0
 30
0
  0
VERTEX
  8
LAYER_9
 10
172.0936
 20
174.7346
 42
-0.4141658157
  0
VERTEX
  8
LAYER_9
 10
172.3416
 20
174.9826
 42
-0.4141982928
  0
VERTEX
  8
LAYER_9
 10
172.5896
 20
174.7346
  0
SEQEND
  0
ENDBLK
  0
BLOCK
  8
LAYER_9
  2
AIGNBL09010069
 70
64
 10
0
 20
0
 30
0
  3
AIGNBL09010069
  0
POLYLINE
  8
LAYER_9
 40
0.1058
 41
0.1058
 66
1
 10
0
 20
0
 30
0
  0
VERTEX
  8
LAYER_9
 10
172.0936
 20
174.2385
  0
VERTEX
  8
LAYER_9
 10
172.0936
 20
174.7346
  0
SEQEND
  0
ENDBLK
  0
BLOCK
  8
LAYER_9
  2
AIGNBL0901006A
 70
64
 10
0
 20
0
 30
0
  3
AIGNBL0901006A
  0
POLYLINE
  8
LAYER_9
 40
0.1058
 41
0.1058
 66
1
 10
0
 20
0
 30
0
  0
VERTEX
  8
LAYER_9
 10
172.5896
 20
174.2385
 42
-0.4141806907
  0
VERTEX
  8
LAYER_9
 10
172.3416
 20
173.9905
 42
-0.4141482179
  0
VERTEX
  8
LAYER_9
 10
172.0936
 20
174.2385
  0
SEQEND
  0
ENDBLK
  0
BLOCK
  8
LAYER_9
  2
AIGNBL0901006B
 70
64
 10
0
 20
0
 30
0
  3
AIGNBL0901006B
  0
POLYLINE
  8
LAYER_9
 40
0.1058
 41
0.1058
 66
1
 10
0
 20
0
 30
0
  0
VERTEX
  8
LAYER_9
 10
89.8835
 20
99.16
  0
VERTEX
  8
LAYER_9
 10
89.8835
 20
94.1997
  0
SEQEND
  0
ENDBLK
  0
BLOCK
  8
LAYER_9
  2
AIGNBL0901006C
 70
64
 10
0
 20
0
 30
0
  3
AIGNBL0901006C
  0
POLYLINE
  8
LAYER_9
 40
0.1058
 41
0.1058
 66
1
 10
0
 20
0
 30
0
  0
VERTEX
  8
LAYER_9
 10
88.0978
 20
94.1997
  0
VERTEX
  8
LAYER_9
 10
88.0978
 20
99.16
  0
SEQEND
  0
ENDBLK
  0
BLOCK
  8
LAYER_9
  2
AIGNBL0901006D
 70
64
 10
0
 20
0
 30
0
  3
AIGNBL0901006D
  0
POLYLINE
  8
LAYER_9
 40
0.1058
 41
0.1058
 66
1
 10
0
 20
0
 30
0
  0
VERTEX
  8
LAYER_9
 10
88.0981
 20
94.1997
  0
VERTEX
  8
LAYER_9
 10
89.007
 20
94.1997
  0
SEQEND
  0
ENDBLK
  0
BLOCK
  8
LAYER_9
  2
AIGNBL0901006E
 70
64
 10
0
 20
0
 30
0
  3
AIGNBL0901006E
  0
POLYLINE
  8
LAYER_9
 40
0.1058
 41
0.1058
 66
1
 10
0
 20
0
 30
0
  0
VERTEX
  8
LAYER_9
 10
88.7426
 20
98.8623
  0
VERTEX
  8
LAYER_9
 10
88.7426
 20
99.16
  0
SEQEND
  0
ENDBLK
  0
BLOCK
  8
LAYER_9
  2
AIGNBL0901006F
 70
64
 10
0
 20
0
 30
0
  3
AIGNBL0901006F
  0
POLYLINE
  8
LAYER_9
 40
0.1058
 41
0.1058
 66
1
 10
0
 20
0
 30
0
  0
VERTEX
  8
LAYER_9
 10
88.7426
 20
98.8623
  0
VERTEX
  8
LAYER_9
 10
89.2387
 20
98.8623
  0
SEQEND
  0
ENDBLK
  0
BLOCK
  8
LAYER_9
  2
AIGNBL09010070
 70
64
 10
0
 20
0
 30
0
  3
AIGNBL09010070
  0
POLYLINE
  8
LAYER_9
 40
0.1058
 41
0.1058
 66
1
 10
0
 20
0
 30
0
  0
VERTEX
  8
LAYER_9
 10
89.2387
 20
98.8623
  0
VERTEX
  8
LAYER_9
 10
89.2387
 20
99.16
  0
SEQEND
  0
ENDBLK
  0
BLOCK
  8
LAYER_9
  2
AIGNBL09010071
 70
64
 10
0
 20
0
 30
0
  3
AIGNBL09010071
  0
POLYLINE
  8
LAYER_9
 40
0.1058
 41
0.1058
 66
1
 10
0
 20
0
 30
0
  0
VERTEX
  8
LAYER_9
 10
89.007
 20
94.1997
  0
VERTEX
  8
LAYER_9
 10
89.8832
 20
94.1997
  0
SEQEND
  0
ENDBLK
  0
BLOCK
  8
LAYER_9
  2
AIGNBL09010072
 70
64
 10
0
 20
0
 30
0
  3
AIGNBL09010072
  0
POLYLINE
  8
LAYER_9
 40
0.1058
 41
0.1058
 66
1
 10
0
 20
0
 30
0
  0
VERTEX
  8
LAYER_9
 10
86.0154
 20
92.7612
  0
VERTEX
  8
LAYER_9
 10
90.9758
 20
92.7612
  0
SEQEND
  0
ENDBLK
  0
BLOCK
  8
LAYER_9
  2
AIGNBL09010073
 70
64
 10
0
 20
0
 30
0
  3
AIGNBL09010073
  0
POLYLINE
  8
LAYER_9
 40
0.1058
 41
0.1058
 66
1
 10
0
 20
0
 30
0
  0
VERTEX
  8
LAYER_9
 10
90.9758
 20
92.7612
  0
VERTEX
  8
LAYER_9
 10
90.9758
 20
91.9675
  0
SEQEND
  0
ENDBLK
  0
BLOCK
  8
LAYER_9
  2
AIGNBL09010074
 70
64
 10
0
 20
0
 30
0
  3
AIGNBL09010074
  0
POLYLINE
  8
LAYER_9
 40
0.1058
 41
0.1058
 66
1
 10
0
 20
0
 30
0
  0
VERTEX
  8
LAYER_9
 10
90.9758
 20
91.9675
  0
VERTEX
  8
LAYER_9
 10
86.0154
 20
91.9675
  0
SEQEND
  0
ENDBLK
  0
BLOCK
  8
LAYER_9
  2
AIGNBL09010075
 70
64
 10
0
 20
0
 30
0
  3
AIGNBL09010075
  0
POLYLINE
  8
LAYER_9
 40
0.1058
 41
0.1058
 66
1
 10
0
 20
0
 30
0
  0
VERTEX
  8
LAYER_9
 10
172.0936
 20
98.8623
  0
VERTEX
  8
LAYER_9
 10
172.0936
 20
99.16
  0
SEQEND
  0
ENDBLK
  0
BLOCK
  8
LAYER_9
  2
AIGNBL09010076
 70
64
 10
0
 20
0
 30
0
  3
AIGNBL09010076
  0
POLYLINE
  8
LAYER_9
 40
0.1058
 41
0.1058
 66
1
 10
0
 20
0
 30
0
  0
VERTEX
  8
LAYER_9
 10
171.4488
 20
94.1997
  0
VERTEX
  8
LAYER_9
 10
171.4488
 20
99.16
  0
SEQEND
  0
ENDBLK
  0
BLOCK
  8
LAYER_9
  2
AIGNBL09010077
 70
64
 10
0
 20
0
 30
0
  3
AIGNBL09010077
  0
POLYLINE
  8
LAYER_9
 40
0.1058
 41
0.1058
 66
1
 10
0
 20
0
 30
0
  0
VERTEX
  8
LAYER_9
 10
173.2345
 20
99.16
  0
VERTEX
  8
LAYER_9
 10
173.2345
 20
94.1997
  0
SEQEND
  0
ENDBLK
  0
BLOCK
  8
LAYER_9
  2
AIGNBL09010078
 70
64
 10
0
 20
0
 30
0
  3
AIGNBL09010078
  0
POLYLINE
  8
LAYER_9
 40
0.1058
 41
0.1058
 66
1
 10
0
 20
0
 30
0
  0
VERTEX
  8
LAYER_9
 10
171.4491
 20
94.1997
  0
VERTEX
  8
LAYER_9
 10
172.3579
 20
94.1997
  0
SEQEND
  0
ENDBLK
  0
BLOCK
  8
LAYER_9
  2
AIGNBL09010079
 70
64
 10
0
 20
0
 30
0
  3
AIGNBL09010079
  0
POLYLINE
  8
LAYER_9
 40
0.1058
 41
0.1058
 66
1
 10
0
 20
0
 30
0
  0
VERTEX
  8
LAYER_9
 10
172.0936
 20
98.8623
  0
VERTEX
  8
LAYER_9
 10
172.5896
 20
98.8623
  0
SEQEND
  0
ENDBLK
  0
BLOCK
  8
LAYER_9
  2
AIGNBL0901007A
 70
64
 10
0
 20
0
 30
0
  3
AIGNBL0901007A
  0
POLYLINE
  8
LAYER_9
 40
0.1058
 41
0.1058
 66
1
 10
0
 20
0
 30
0
  0
VERTEX
  8
LAYER_9
 10
172.3579
 20
94.1997
  0
VERTEX
  8
LAYER_9
 10
173.2342
 20
94.1997
  0
SEQEND
  0
ENDBLK
  0
BLOCK
  8
LAYER_9
  2
AIGNBL0901007B
 70
64
 10
0
 20
0
 30
0
  3
AIGNBL0901007B
  0
POLYLINE
  8
LAYER_9
 40
0.1058
 41
0.1058
 66
1
 10
0
 20
0
 30
0
  0
VERTEX
  8
LAYER_9
 10
172.5896
 20
98.8623
  0
VERTEX
  8
LAYER_9
 10
172.5896
 20
99.16
  0
SEQEND
  0
ENDBLK
  0
BLOCK
  8
LAYER_9
  2
AIGNBL0901007C
 70
64
 10
0
 20
0
 30
0
  3
AIGNBL0901007C
  0
POLYLINE
  8
LAYER_9
 40
0.1058
 41
0.1058
 66
1
 10
0
 20
0
 30
0
  0
VERTEX
  8
LAYER_9
 10
175.3012
 20
92.7612
  0
VERTEX
  8
LAYER_9
 10
170.3408
 20
92.7612
  0
SEQEND
  0
ENDBLK
  0
BLOCK
  8
LAYER_9
  2
AIGNBL0901007D
 70
64
 10
0
 20
0
 30
0
  3
AIGNBL0901007D
  0
POLYLINE
  8
LAYER_9
 40
0.1058
 41
0.1058
 66
1
 10
0
 20
0
 30
0
  0
VERTEX
  8
LAYER_9
 10
170.3408
 20
92.7612
  0
VERTEX
  8
LAYER_9
 10
170.3408
 20
91.9675
  0
SEQEND
  0
ENDBLK
  0
BLOCK
  8
LAYER_9
  2
AIGNBL0901007E
 70
64
 10
0
 20
0
 30
0
  3
AIGNBL0901007E
  0
POLYLINE
  8
LAYER_9
 40
0.1058
 41
0.1058
 66
1
 10
0
 20
0
 30
0
  0
VERTEX
  8
LAYER_9
 10
170.3408
 20
91.9675
  0
VERTEX
  8
LAYER_9
 10
175.3012
 20
91.9675
  0
SEQEND
  0
ENDBLK
  0
BLOCK
  8
LAYER_9
  2
AIGNBL0901007F
 70
64
 10
0
 20
0
 30
0
  3
AIGNBL0901007F
  0
POLYLINE
  8
LAYER_9
 40
0.1058
 41
0.1058
 66
1
 10
0
 20
0
 30
0
  0
VERTEX
  8
LAYER_9
 10
57.9764
 20
173.6048
  0
VERTEX
  8
LAYER_9
 10
53.0421
 20
173.6048
  0
SEQEND
  0
ENDBLK
  0
BLOCK
  8
LAYER_9
  2
AIGNBL09010080
 70
64
 10
0
 20
0
 30
0
  3
AIGNBL09010080
  0
POLYLINE
  8
LAYER_9
 40
0.1058
 41
0.1058
 66
1
 10
0
 20
0
 30
0
  0
VERTEX
  8
LAYER_9
 10
90.0655
 20
174.4711
 42
-0.1309013768
  0
VERTEX
  8
LAYER_9
 10
89.8983
 20
173.8052
 42
-0.1565609799
  0
VERTEX
  8
LAYER_9
 10
89.5196
 20
173.4902
 42
-0.1046854386
  0
VERTEX
  8
LAYER_9
 10
88.9743
 20
173.3954
 42
-0.1309271135
  0
VERTEX
  8
LAYER_9
 10
88.3061
 20
173.553
 42
-0.1565760062
  0
VERTEX
  8
LAYER_9
 10
87.9858
 20
173.9272
 42
-0.1046808456
  0
VERTEX
  8
LAYER_9
 10
87.8832
 20
174.4711
  0
SEQEND
  0
ENDBLK
  0
BLOCK
  8
LAYER_9
  2
AIGNBL09010081
 70
64
 10
0
 20
0
 30
0
  3
AIGNBL09010081
  0
POLYLINE
  8
LAYER_9
 40
0.1058
 41
0.1058
 66
1
 10
0
 20
0
 30
0
  0
VERTEX
  8
LAYER_9
 10
86.0156
 20
174.3223
  0
VERTEX
  8
LAYER_9
 10
90.976
 20
174.3223
  0
SEQEND
  0
ENDBLK
  0
BLOCK
  8
LAYER_9
  2
AIGNBL09010082
 70
64
 10
0
 20
0
 30
0
  3
AIGNBL09010082
  0
POLYLINE
  8
LAYER_9
 40
0.1058
 41
0.1058
 66
1
 10
0
 20
0
 30
0
  0
VERTEX
  8
LAYER_9
 10
90.976
 20
174.3223
  0
VERTEX
  8
LAYER_9
 10
90.976
 20
173.5286
  0
SEQEND
  0
ENDBLK
  0
BLOCK
  8
LAYER_9
  2
AIGNBL09010083
 70
64
 10
0
 20
0
 30
0
  3
AIGNBL09010083
  0
POLYLINE
  8
LAYER_9
 40
0.1058
 41
0.1058
 66
1
 10
0
 20
0
 30
0
  0
VERTEX
  8
LAYER_9
 10
90.976
 20
173.5286
  0
VERTEX
  8
LAYER_9
 10
86.0156
 20
173.5286
  0
SEQEND
  0
ENDBLK
  0
BLOCK
  8
LAYER_9
  2
AIGNBL09010084
 70
64
 10
0
 20
0
 30
0
  3
AIGNBL09010084
  0
POLYLINE
  8
LAYER_9
 40
0.1058
 41
0.1058
 66
1
 10
0
 20
0
 30
0
 70
1
  0
VERTEX
  8
LAYER_9
 10
89.007
 20
175.3793
 42
-0.1497876026
  0
VERTEX
  8
LAYER_9
 10
89.5984
 20
175.2095
 42
-0.1754807134
  0
VERTEX
  8
LAYER_9
 10
89.847
 20
174.8189
 42
-0.06901639315
  0
VERTEX
  8
LAYER_9
 10
89.8834
 20
174.4702
 42
-0.1497876026
  0
VERTEX
  8
LAYER_9
 10
89.7136
 20
173.8788
 42
-0.1754807134
  0
VERTEX
  8
LAYER_9
 10
89.323
 20
173.6302
 42
-0.06901639315
  0
VERTEX
  8
LAYER_9
 10
88.9743
 20
173.5938
 42
-0.1497876026
  0
VERTEX
  8
LAYER_9
 10
88.3829
 20
173.7636
 42
-0.1754807134
  0
VERTEX
  8
LAYER_9
 10
88.1343
 20
174.1542
 42
-0.06901639335
  0
VERTEX
  8
LAYER_9
 10
88.0979
 20
174.5029
 42
-0.1497757134
  0
VERTEX
  8
LAYER_9
 10
88.2677
 20
175.0943
 42
-0.1755010167
  0
VERTEX
  8
LAYER_9
 10
88.6583
 20
175.3429
 42
-0.06904539518
  0
SEQEND
  0
ENDBLK
  0
BLOCK
  8
LAYER_9
  2
AIGNBL09010085
 70
64
 10
0
 20
0
 30
0
  3
AIGNBL09010085
  0
POLYLINE
  8
LAYER_9
 40
0.1058
 41
0.1058
 66
1
 10
0
 20
0
 30
0
  0
VERTEX
  8
LAYER_9
 10
89.2387
 20
174.7346
  0
VERTEX
  8
LAYER_9
 10
89.2387
 20
174.2385
  0
SEQEND
  0
ENDBLK
  0
BLOCK
  8
LAYER_9
  2
AIGNBL09010086
 70
64
 10
0
 20
0
 30
0
  3
AIGNBL09010086
  0
POLYLINE
  8
LAYER_9
 40
0.1058
 41
0.1058
 66
1
 10
0
 20
0
 30
0
 70
1
  0
VERTEX
  8
LAYER_9
 10
88.1474
 20
174.4866
 42
0.15747648
  0
VERTEX
  8
LAYER_9
 10
88.3088
 20
173.9101
 42
0.1776637053
  0
VERTEX
  8
LAYER_9
 10
88.6934
 20
173.6755
 42
0.05957380303
  0
VERTEX
  8
LAYER_9
 10
88.9906
 20
173.6433
 42
0.1574858692
  0
VERTEX
  8
LAYER_9
 10
89.5671
 20
173.8047
 42
0.177666152
  0
VERTEX
  8
LAYER_9
 10
89.8017
 20
174.1894
 42
0.05956548448
  0
VERTEX
  8
LAYER_9
 10
89.8339
 20
174.4866
 42
0.1575016624
  0
VERTEX
  8
LAYER_9
 10
89.6725
 20
175.063
 42
0.1776556392
  0
VERTEX
  8
LAYER_9
 10
89.2878
 20
175.2976
 42
0.05956349815
  0
VERTEX
  8
LAYER_9
 10
88.9906
 20
175.3298
 42
0.1574922722
  0
VERTEX
  8
LAYER_9
 10
88.4142
 20
175.1684
 42
0.1776531936
  0
VERTEX
  8
LAYER_9
 10
88.1796
 20
174.7838
 42
0.05957181663
  0
SEQEND
  0
ENDBLK
  0
BLOCK
  8
LAYER_9
  2
AIGNBL09010087
 70
64
 10
0
 20
0
 30
0
  3
AIGNBL09010087
  0
POLYLINE
  8
LAYER_9
 40
0.1058
 41
0.1058
 66
1
 10
0
 20
0
 30
0
  0
VERTEX
  8
LAYER_9
 10
175.3012
 20
132.6556
  0
VERTEX
  8
LAYER_9
 10
170.3408
 20
132.6556
  0
SEQEND
  0
ENDBLK
  0
BLOCK
  8
LAYER_9
  2
AIGNBL09010088
 70
64
 10
0
 20
0
 30
0
  3
AIGNBL09010088
  0
POLYLINE
  8
LAYER_9
 40
0.1058
 41
0.1058
 66
1
 10
0
 20
0
 30
0
  0
VERTEX
  8
LAYER_9
 10
170.3408
 20
132.6556
  0
VERTEX
  8
LAYER_9
 10
170.3408
 20
131.862
  0
SEQEND
  0
ENDBLK
  0
BLOCK
  8
LAYER_9
  2
AIGNBL09010089
 70
64
 10
0
 20
0
 30
0
  3
AIGNBL09010089
  0
POLYLINE
  8
LAYER_9
 40
0.1058
 41
0.1058
 66
1
 10
0
 20
0
 30
0
  0
VERTEX
  8
LAYER_9
 10
170.3408
 20
131.862
  0
VERTEX
  8
LAYER_9
 10
175.3012
 20
131.862
  0
SEQEND
  0
ENDBLK
  0
BLOCK
  8
LAYER_9
  2
AIGNBL0901008A
 70
64
 10
0
 20
0
 30
0
  3
AIGNBL0901008A
  0
POLYLINE
  8
LAYER_9
 40
0.1058
 41
0.1058
 66
1
 10
0
 20
0
 30
0
  0
VERTEX
  8
LAYER_9
 10
86.0154
 20
132.6556
  0
VERTEX
  8
LAYER_9
 10
90.9758
 20
132.6556
  0
SEQEND
  0
ENDBLK
  0
BLOCK
  8
LAYER_9
  2
AIGNBL0901008B
 70
64
 10
0
 20
0
 30
0
  3
AIGNBL0901008B
  0
POLYLINE
  8
LAYER_9
 40
0.1058
 41
0.1058
 66
1
 10
0
 20
0
 30
0
  0
VERTEX
  8
LAYER_9
 10
90.9758
 20
132.6556
  0
VERTEX
  8
LAYER_9
 10
90.9758
 20
131.862
  0
SEQEND
  0
ENDBLK
  0
BLOCK
  8
LAYER_9
  2
AIGNBL0901008C
 70
64
 10
0
 20
0
 30
0
  3
AIGNBL0901008C
  0
POLYLINE
  8
LAYER_9
 40
0.1058
 41
0.1058
 66
1
 10
0
 20
0
 30
0
  0
VERTEX
  8
LAYER_9
 10
90.9758
 20
131.862
  0
VERTEX
  8
LAYER_9
 10
86.0154
 20
131.862
  0
SEQEND
  0
ENDBLK
  0
BLOCK
  8
LAYER_9
  2
AIGNBL0901008D
 70
64
 10
0
 20
0
 30
0
  3
AIGNBL0901008D
  0
POLYLINE
  8
LAYER_9
 40
0.1058
 41
0.1058
 66
1
 10
0
 20
0
 30
0
  0
VERTEX
  8
LAYER_9
 10
88.7426
 20
174.2385
  0
VERTEX
  8
LAYER_9
 10
88.7426
 20
174.7346
  0
SEQEND
  0
ENDBLK
  0
BLOCK
  8
LAYER_9
  2
AIGNBL0901008E
 70
64
 10
0
 20
0
 30
0
  3
AIGNBL0901008E
  0
POLYLINE
  8
LAYER_9
 40
0.1058
 41
0.1058
 66
1
 10
0
 20
0
 30
0
  0
VERTEX
  8
LAYER_9
 10
173.4164
 20
174.4711
 42
-0.1309199147
  0
VERTEX
  8
LAYER_9
 10
173.2493
 20
173.8052
 42
-0.1565767678
  0
VERTEX
  8
LAYER_9
 10
172.8706
 20
173.4902
 42
-0.1046871433
  0
VERTEX
  8
LAYER_9
 10
172.3253
 20
173.3954
 42
-0.1309250759
  0
VERTEX
  8
LAYER_9
 10
171.657
 20
173.553
 42
-0.1565591915
  0
VERTEX
  8
LAYER_9
 10
171.3367
 20
173.9272
 42
-0.104665522
  0
VERTEX
  8
LAYER_9
 10
171.2341
 20
174.4711
  0
SEQEND
  0
ENDBLK
  0
BLOCK
  8
LAYER_9
  2
AIGNBL0901008F
 70
64
 10
0
 20
0
 30
0
  3
AIGNBL0901008F
  0
POLYLINE
  8
LAYER_9
 40
0.1058
 41
0.1058
 66
1
 10
0
 20
0
 30
0
  0
VERTEX
  8
LAYER_9
 10
87.8832
 20
174.4711
  0
VERTEX
  8
LAYER_9
 10
87.883
 20
174.4867
  0
SEQEND
  0
ENDBLK
  0
BLOCK
  8
LAYER_9
  2
AIGNBL09010090
 70
64
 10
0
 20
0
 30
0
  3
AIGNBL09010090
  0
POLYLINE
  8
LAYER_9
 40
0.1058
 41
0.1058
 66
1
 10
0
 20
0
 30
0
 70
1
  0
VERTEX
  8
LAYER_9
 10
171.4984
 20
174.4866
 42
0.1574558742
  0
VERTEX
  8
LAYER_9
 10
171.6598
 20
173.9101
 42
0.1776889087
  0
VERTEX
  8
LAYER_9
 10
172.0444
 20
173.6755
 42
0.05956945219
  0
VERTEX
  8
LAYER_9
 10
172.3416
 20
173.6433
 42
0.1574858692
  0
VERTEX
  8
LAYER_9
 10
172.9181
 20
173.8047
 42
0.177666152
  0
VERTEX
  8
LAYER_9
 10
173.1527
 20
174.1894
 42
0.05956548448
  0
VERTEX
  8
LAYER_9
 10
173.1849
 20
174.4866
 42
0.1575016624
  0
VERTEX
  8
LAYER_9
 10
173.0235
 20
175.063
 42
0.1776556392
  0
VERTEX
  8
LAYER_9
 10
172.6388
 20
175.2976
 42
0.05956349815
  0
VERTEX
  8
LAYER_9
 10
172.3416
 20
175.3298
 42
0.1574936694
  0
VERTEX
  8
LAYER_9
 10
171.7652
 20
175.1684
 42
0.1776668661
  0
VERTEX
  8
LAYER_9
 10
171.5306
 20
174.7838
 42
0.05955717116
  0
SEQEND
  0
ENDBLK
  0
BLOCK
  8
LAYER_9
  2
AIGNBL09010091
 70
64
 10
0
 20
0
 30
0
  3
AIGNBL09010091
  0
POLYLINE
  8
LAYER_9
 40
0.1058
 41
0.1058
 66
1
 10
0
 20
0
 30
0
  0
VERTEX
  8
LAYER_9
 10
50.8217
 20
173.3089
 42
0.08185250515
  0
VERTEX
  8
LAYER_9
 10
51.2165
 20
173.2441
 42
0.08190126555
  0
VERTEX
  8
LAYER_9
 10
51.6112
 20
173.3089
  0
SEQEND
  0
ENDBLK
  0
BLOCK
  8
LAYER_9
  2
AIGNBL09010092
 70
64
 10
0
 20
0
 30
0
  3
AIGNBL09010092
  0
POLYLINE
  8
LAYER_9
 40
0.1058
 41
0.1058
 66
1
 10
0
 20
0
 30
0
  0
VERTEX
  8
LAYER_9
 10
57.6803
 20
174.2463
  0
VERTEX
  8
LAYER_9
 10
57.6803
 20
173.9996
  0
SEQEND
  0
ENDBLK
  0
BLOCK
  8
LAYER_9
  2
AIGNBL09010093
 70
64
 10
0
 20
0
 30
0
  3
AIGNBL09010093
  0
POLYLINE
  8
LAYER_9
 40
0.1058
 41
0.1058
 66
1
 10
0
 20
0
 30
0
  0
VERTEX
  8
LAYER_9
 10
53.0421
 20
175.3812
  0
VERTEX
  8
LAYER_9
 10
57.9764
 20
175.3812
  0
SEQEND
  0
ENDBLK
  0
BLOCK
  8
LAYER_9
  2
AIGNBL09010094
 70
64
 10
0
 20
0
 30
0
  3
AIGNBL09010094
  0
POLYLINE
  8
LAYER_9
 40
0.1058
 41
0.1058
 66
1
 10
0
 20
0
 30
0
  0
VERTEX
  8
LAYER_9
 10
57.6803
 20
174.7397
  0
VERTEX
  8
LAYER_9
 10
57.6803
 20
174.2463
  0
SEQEND
  0
ENDBLK
  0
BLOCK
  8
LAYER_9
  2
AIGNBL09010095
 70
64
 10
0
 20
0
 30
0
  3
AIGNBL09010095
  0
POLYLINE
  8
LAYER_9
 40
0.1058
 41
0.1058
 66
1
 10
0
 20
0
 30
0
  0
VERTEX
  8
LAYER_9
 10
57.9764
 20
173.6542
  0
VERTEX
  8
LAYER_9
 10
53.0421
 20
173.6542
  0
SEQEND
  0
ENDBLK
  0
BLOCK
  8
LAYER_9
  2
AIGNBL09010096
 70
64
 10
0
 20
0
 30
0
  3
AIGNBL09010096
  0
POLYLINE
  8
LAYER_9
 40
0.1058
 41
0.1058
 66
1
 10
0
 20
0
 30
0
  0
VERTEX
  8
LAYER_9
 10
57.9764
 20
175.3318
  0
VERTEX
  8
LAYER_9
 10
53.0421
 20
175.3318
  0
SEQEND
  0
ENDBLK
  0
BLOCK
  8
LAYER_9
  2
AIGNBL09010097
 70
64
 10
0
 20
0
 30
0
  3
AIGNBL09010097
  0
POLYLINE
  8
LAYER_9
 40
0.1058
 41
0.1058
 66
1
 10
0
 20
0
 30
0
  0
VERTEX
  8
LAYER_9
 10
53.0421
 20
175.381
  0
VERTEX
  8
LAYER_9
 10
53.0421
 20
173.6052
  0
SEQEND
  0
ENDBLK
  0
BLOCK
  8
LAYER_9
  2
AIGNBL09010098
 70
64
 10
0
 20
0
 30
0
  3
AIGNBL09010098
  0
POLYLINE
  8
LAYER_9
 40
0.1058
 41
0.1058
 66
1
 10
0
 20
0
 30
0
  0
VERTEX
  8
LAYER_9
 10
57.6803
 20
173.9996
  0
VERTEX
  8
LAYER_9
 10
57.9764
 20
173.9996
  0
SEQEND
  0
ENDBLK
  0
BLOCK
  8
LAYER_9
  2
AIGNBL09010099
 70
64
 10
0
 20
0
 30
0
  3
AIGNBL09010099
  0
POLYLINE
  8
LAYER_9
 40
0.1058
 41
0.1058
 66
1
 10
0
 20
0
 30
0
  0
VERTEX
  8
LAYER_9
 10
57.6803
 20
174.9864
  0
VERTEX
  8
LAYER_9
 10
57.6803
 20
174.7397
  0
SEQEND
  0
ENDBLK
  0
BLOCK
  8
LAYER_9
  2
AIGNBL0901009A
 70
64
 10
0
 20
0
 30
0
  3
AIGNBL0901009A
  0
POLYLINE
  8
LAYER_9
 40
0.1058
 41
0.1058
 66
1
 10
0
 20
0
 30
0
  0
VERTEX
  8
LAYER_9
 10
88.7426
 20
174.7346
 42
-0.4141231651
  0
VERTEX
  8
LAYER_9
 10
88.9906
 20
174.9826
 42
-0.4142409586
  0
VERTEX
  8
LAYER_9
 10
89.2387
 20
174.7346
  0
SEQEND
  0
ENDBLK
  0
BLOCK
  8
LAYER_9
  2
AIGNBL0901009B
 70
64
 10
0
 20
0
 30
0
  3
AIGNBL0901009B
  0
POLYLINE
  8
LAYER_9
 40
0.1058
 41
0.1058
 66
1
 10
0
 20
0
 30
0
  0
VERTEX
  8
LAYER_9
 10
89.2387
 20
131.4806
 42
-0.4142657694
  0
VERTEX
  8
LAYER_9
 10
88.9906
 20
131.2326
 42
-0.4141479639
  0
VERTEX
  8
LAYER_9
 10
88.7426
 20
131.4806
  0
SEQEND
  0
ENDBLK
  0
BLOCK
  8
LAYER_9
  2
AIGNBL0901009C
 70
64
 10
0
 20
0
 30
0
  3
AIGNBL0901009C
  0
POLYLINE
  8
LAYER_9
 40
0.1058
 41
0.1058
 66
1
 10
0
 20
0
 30
0
  0
VERTEX
  8
LAYER_9
 10
87.883
 20
131.7288
 42
-0.1989071001
  0
VERTEX
  8
LAYER_9
 10
88.2027
 20
132.5004
 42
-0.1989061211
  0
VERTEX
  8
LAYER_9
 10
88.9743
 20
132.82
 42
-0.1989256524
  0
VERTEX
  8
LAYER_9
 10
89.746
 20
132.5004
 42
-0.1988967575
  0
VERTEX
  8
LAYER_9
 10
90.0656
 20
131.7288
  0
VERTEX
  8
LAYER_9
 10
90.0655
 20
131.7132
  0
SEQEND
  0
ENDBLK
  0
BLOCK
  8
LAYER_9
  2
AIGNBL0901009D
 70
64
 10
0
 20
0
 30
0
  3
AIGNBL0901009D
  0
POLYLINE
  8
LAYER_9
 40
0.1058
 41
0.1058
 66
1
 10
0
 20
0
 30
0
  0
VERTEX
  8
LAYER_9
 10
171.2341
 20
131.7132
  0
VERTEX
  8
LAYER_9
 10
171.234
 20
131.7288
  0
SEQEND
  0
ENDBLK
  0
BLOCK
  8
LAYER_9
  2
AIGNBL0901009E
 70
64
 10
0
 20
0
 30
0
  3
AIGNBL0901009E
  0
POLYLINE
  8
LAYER_9
 40
0.1058
 41
0.1058
 66
1
 10
0
 20
0
 30
0
  0
VERTEX
  8
LAYER_9
 10
171.234
 20
131.7288
 42
-0.1988963431
  0
VERTEX
  8
LAYER_9
 10
171.5536
 20
132.5004
 42
-0.1989254812
  0
VERTEX
  8
LAYER_9
 10
172.3253
 20
132.82
 42
-0.1989062922
  0
VERTEX
  8
LAYER_9
 10
173.0969
 20
132.5004
 42
-0.1989075145
  0
VERTEX
  8
LAYER_9
 10
173.4166
 20
131.7288
  0
VERTEX
  8
LAYER_9
 10
173.4164
 20
131.7132
  0
SEQEND
  0
ENDBLK
  0
BLOCK
  8
LAYER_9
  2
AIGNBL0901009F
 70
64
 10
0
 20
0
 30
0
  3
AIGNBL0901009F
  0
POLYLINE
  8
LAYER_9
 40
0.1058
 41
0.1058
 66
1
 10
0
 20
0
 30
0
 70
1
  0
VERTEX
  8
LAYER_9
 10
172.3579
 20
132.6213
 42
-0.1497688434
  0
VERTEX
  8
LAYER_9
 10
172.9494
 20
132.4515
 42
-0.17551265
  0
VERTEX
  8
LAYER_9
 10
173.198
 20
132.0609
 42
-0.06903931273
  0
VERTEX
  8
LAYER_9
 10
173.2343
 20
131.7123
 42
-0.1497675657
  0
VERTEX
  8
LAYER_9
 10
173.0645
 20
131.1209
 42
-0.1754979379
  0
VERTEX
  8
LAYER_9
 10
172.6739
 20
130.8723
 42
-0.06905423202
  0
VERTEX
  8
LAYER_9
 10
172.3253
 20
130.8359
 42
-0.1497769908
  0
VERTEX
  8
LAYER_9
 10
171.7338
 20
131.0057
 42
-0.1755157267
  0
VERTEX
  8
LAYER_9
 10
171.4852
 20
131.3963
 42
-0.06903047775
  0
VERTEX
  8
LAYER_9
 10
171.4489
 20
131.745
 42
-0.1497830921
  0
VERTEX
  8
LAYER_9
 10
171.6187
 20
132.3364
 42
-0.1755030859
  0
VERTEX
  8
LAYER_9
 10
172.0093
 20
132.585
 42
-0.06903682303
  0
SEQEND
  0
ENDBLK
  0
BLOCK
  8
LAYER_9
  2
AIGNBL090100A0
 70
64
 10
0
 20
0
 30
0
  3
AIGNBL090100A0
  0
POLYLINE
  8
LAYER_9
 40
0.1058
 41
0.1058
 66
1
 10
0
 20
0
 30
0
  0
VERTEX
  8
LAYER_9
 10
172.5896
 20
131.9766
  0
VERTEX
  8
LAYER_9
 10
172.5896
 20
131.4806
  0
SEQEND
  0
ENDBLK
  0
BLOCK
  8
LAYER_9
  2
AIGNBL090100A1
 70
64
 10
0
 20
0
 30
0
  3
AIGNBL090100A1
  0
POLYLINE
  8
LAYER_9
 40
0.1058
 41
0.1058
 66
1
 10
0
 20
0
 30
0
  0
VERTEX
  8
LAYER_9
 10
172.0936
 20
131.9766
 42
-0.4142415049
  0
VERTEX
  8
LAYER_9
 10
172.3416
 20
132.2247
 42
-0.4142739872
  0
VERTEX
  8
LAYER_9
 10
172.5896
 20
131.9766
  0
SEQEND
  0
ENDBLK
  0
BLOCK
  8
LAYER_9
  2
AIGNBL090100A2
 70
64
 10
0
 20
0
 30
0
  3
AIGNBL090100A2
  0
POLYLINE
  8
LAYER_9
 40
0.1058
 41
0.1058
 66
1
 10
0
 20
0
 30
0
  0
VERTEX
  8
LAYER_9
 10
172.0936
 20
131.4806
  0
VERTEX
  8
LAYER_9
 10
172.0936
 20
131.9766
  0
SEQEND
  0
ENDBLK
  0
BLOCK
  8
LAYER_9
  2
AIGNBL090100A3
 70
64
 10
0
 20
0
 30
0
  3
AIGNBL090100A3
  0
POLYLINE
  8
LAYER_9
 40
0.1058
 41
0.1058
 66
1
 10
0
 20
0
 30
0
  0
VERTEX
  8
LAYER_9
 10
172.5896
 20
131.4806
 42
-0.4142231058
  0
VERTEX
  8
LAYER_9
 10
172.3416
 20
131.2326
 42
-0.4141906227
  0
VERTEX
  8
LAYER_9
 10
172.0936
 20
131.4806
  0
SEQEND
  0
ENDBLK
  0
BLOCK
  8
LAYER_9
  2
AIGNBL090100A4
 70
64
 10
0
 20
0
 30
0
  3
AIGNBL090100A4
  0
POLYLINE
  8
LAYER_9
 40
0.1058
 41
0.1058
 66
1
 10
0
 20
0
 30
0
  0
VERTEX
  8
LAYER_9
 10
90.0655
 20
131.7132
 42
-0.1309013768
  0
VERTEX
  8
LAYER_9
 10
89.8983
 20
131.0473
 42
-0.1565609799
  0
VERTEX
  8
LAYER_9
 10
89.5196
 20
130.7323
 42
-0.1046854386
  0
VERTEX
  8
LAYER_9
 10
88.9743
 20
130.6375
 42
-0.1309271135
  0
VERTEX
  8
LAYER_9
 10
88.3061
 20
130.7951
 42
-0.1565760062
  0
VERTEX
  8
LAYER_9
 10
87.9858
 20
131.1693
 42
-0.1046808456
  0
VERTEX
  8
LAYER_9
 10
87.8832
 20
131.7132
  0
SEQEND
  0
ENDBLK
  0
BLOCK
  8
LAYER_9
  2
AIGNBL090100A5
 70
64
 10
0
 20
0
 30
0
  3
AIGNBL090100A5
  0
POLYLINE
  8
LAYER_9
 40
0.1058
 41
0.1058
 66
1
 10
0
 20
0
 30
0
 70
1
  0
VERTEX
  8
LAYER_9
 10
89.007
 20
132.6213
 42
-0.1497794547
  0
VERTEX
  8
LAYER_9
 10
89.5984
 20
132.4515
 42
-0.1754776348
  0
VERTEX
  8
LAYER_9
 10
89.847
 20
132.0609
 42
-0.06902522435
  0
VERTEX
  8
LAYER_9
 10
89.8834
 20
131.7123
 42
-0.1497757132
  0
VERTEX
  8
LAYER_9
 10
89.7136
 20
131.1209
 42
-0.1755010167
  0
VERTEX
  8
LAYER_9
 10
89.323
 20
130.8723
 42
-0.06904539518
  0
VERTEX
  8
LAYER_9
 10
88.9743
 20
130.8359
 42
-0.1497876026
  0
VERTEX
  8
LAYER_9
 10
88.3829
 20
131.0057
 42
-0.1754807134
  0
VERTEX
  8
LAYER_9
 10
88.1343
 20
131.3963
 42
-0.06901639335
  0
VERTEX
  8
LAYER_9
 10
88.0979
 20
131.745
 42
-0.1497912402
  0
VERTEX
  8
LAYER_9
 10
88.2677
 20
132.3364
 42
-0.1755061617
  0
VERTEX
  8
LAYER_9
 10
88.6583
 20
132.585
 42
-0.06902798815
  0
SEQEND
  0
ENDBLK
  0
BLOCK
  8
LAYER_9
  2
AIGNBL090100A6
 70
64
 10
0
 20
0
 30
0
  3
AIGNBL090100A6
  0
POLYLINE
  8
LAYER_9
 40
0.1058
 41
0.1058
 66
1
 10
0
 20
0
 30
0
  0
VERTEX
  8
LAYER_9
 10
89.2387
 20
131.9766
  0
VERTEX
  8
LAYER_9
 10
89.2387
 20
131.4806
  0
SEQEND
  0
ENDBLK
  0
BLOCK
  8
LAYER_9
  2
AIGNBL090100A7
 70
64
 10
0
 20
0
 30
0
  3
AIGNBL090100A7
  0
POLYLINE
  8
LAYER_9
 40
0.1058
 41
0.1058
 66
1
 10
0
 20
0
 30
0
 70
1
  0
VERTEX
  8
LAYER_9
 10
88.1474
 20
131.7286
 42
0.1574922724
  0
VERTEX
  8
LAYER_9
 10
88.3088
 20
131.1522
 42
0.1776531936
  0
VERTEX
  8
LAYER_9
 10
88.6934
 20
130.9176
 42
0.05957181643
  0
VERTEX
  8
LAYER_9
 10
88.9906
 20
130.8854
 42
0.1574764798
  0
VERTEX
  8
LAYER_9
 10
89.5671
 20
131.0468
 42
0.1776637053
  0
VERTEX
  8
LAYER_9
 10
89.8017
 20
131.4314
 42
0.05957380303
  0
VERTEX
  8
LAYER_9
 10
89.8339
 20
131.7286
 42
0.1574858692
  0
VERTEX
  8
LAYER_9
 10
89.6725
 20
132.3051
 42
0.177666152
  0
VERTEX
  8
LAYER_9
 10
89.2878
 20
132.5397
 42
0.05956548448
  0
VERTEX
  8
LAYER_9
 10
88.9906
 20
132.5719
 42
0.1575016624
  0
VERTEX
  8
LAYER_9
 10
88.4142
 20
132.4105
 42
0.1776556392
  0
VERTEX
  8
LAYER_9
 10
88.1796
 20
132.0258
 42
0.05956349835
  0
SEQEND
  0
ENDBLK
  0
BLOCK
  8
LAYER_9
  2
AIGNBL090100A8
 70
64
 10
0
 20
0
 30
0
  3
AIGNBL090100A8
  0
POLYLINE
  8
LAYER_9
 40
0.1058
 41
0.1058
 66
1
 10
0
 20
0
 30
0
  0
VERTEX
  8
LAYER_9
 10
88.7426
 20
131.4806
  0
VERTEX
  8
LAYER_9
 10
88.7426
 20
131.9766
  0
SEQEND
  0
ENDBLK
  0
BLOCK
  8
LAYER_9
  2
AIGNBL090100A9
 70
64
 10
0
 20
0
 30
0
  3
AIGNBL090100A9
  0
POLYLINE
  8
LAYER_9
 40
0.1058
 41
0.1058
 66
1
 10
0
 20
0
 30
0
  0
VERTEX
  8
LAYER_9
 10
173.4164
 20
131.7132
 42
-0.1309199147
  0
VERTEX
  8
LAYER_9
 10
173.2493
 20
131.0473
 42
-0.1565767678
  0
VERTEX
  8
LAYER_9
 10
172.8706
 20
130.7323
 42
-0.1046871433
  0
VERTEX
  8
LAYER_9
 10
172.3253
 20
130.6375
 42
-0.1309250759
  0
VERTEX
  8
LAYER_9
 10
171.657
 20
130.7951
 42
-0.1565591915
  0
VERTEX
  8
LAYER_9
 10
171.3367
 20
131.1693
 42
-0.104665522
  0
VERTEX
  8
LAYER_9
 10
171.2341
 20
131.7132
  0
SEQEND
  0
ENDBLK
  0
BLOCK
  8
LAYER_9
  2
AIGNBL090100AA
 70
64
 10
0
 20
0
 30
0
  3
AIGNBL090100AA
  0
POLYLINE
  8
LAYER_9
 40
0.1058
 41
0.1058
 66
1
 10
0
 20
0
 30
0
  0
VERTEX
  8
LAYER_9
 10
87.8832
 20
131.7132
  0
VERTEX
  8
LAYER_9
 10
87.883
 20
131.7288
  0
SEQEND
  0
ENDBLK
  0
BLOCK
  8
LAYER_9
  2
AIGNBL090100AB
 70
64
 10
0
 20
0
 30
0
  3
AIGNBL090100AB
  0
POLYLINE
  8
LAYER_9
 40
0.1058
 41
0.1058
 66
1
 10
0
 20
0
 30
0
 70
1
  0
VERTEX
  8
LAYER_9
 10
171.4984
 20
131.7286
 42
0.1574716657
  0
VERTEX
  8
LAYER_9
 10
171.6598
 20
131.1522
 42
0.1776783971
  0
VERTEX
  8
LAYER_9
 10
172.0444
 20
130.9176
 42
0.05956746576
  0
VERTEX
  8
LAYER_9
 10
172.3416
 20
130.8854
 42
0.1574764798
  0
VERTEX
  8
LAYER_9
 10
172.9181
 20
131.0468
 42
0.1776637053
  0
VERTEX
  8
LAYER_9
 10
173.1527
 20
131.4314
 42
0.05957380303
  0
VERTEX
  8
LAYER_9
 10
173.1849
 20
131.7286
 42
0.1574858692
  0
VERTEX
  8
LAYER_9
 10
173.0235
 20
132.3051
 42
0.177666152
  0
VERTEX
  8
LAYER_9
 10
172.6388
 20
132.5397
 42
0.05956548448
  0
VERTEX
  8
LAYER_9
 10
172.3416
 20
132.5719
 42
0.1575030595
  0
VERTEX
  8
LAYER_9
 10
171.7652
 20
132.4105
 42
0.1776693092
  0
VERTEX
  8
LAYER_9
 10
171.5306
 20
132.0258
 42
0.05954885476
  0
SEQEND
  0
ENDBLK
  0
BLOCK
  8
LAYER_9
  2
AIGNBL090100AC
 70
64
 10
0
 20
0
 30
0
  3
AIGNBL090100AC
  0
POLYLINE
  8
LAYER_9
 40
0.1058
 41
0.1058
 66
1
 10
0
 20
0
 30
0
  0
VERTEX
  8
LAYER_9
 10
88.7426
 20
131.9766
 42
-0.4141988472
  0
VERTEX
  8
LAYER_9
 10
88.9906
 20
132.2247
 42
-0.4143166296
  0
VERTEX
  8
LAYER_9
 10
89.2387
 20
131.9766
  0
SEQEND
  0
ENDBLK
  0
BLOCK
  8
LAYER_9
  2
AIGNBL090100AD
 70
64
 10
0
 20
0
 30
0
  3
AIGNBL090100AD
  0
POLYLINE
  8
LAYER_9
 40
0.1058
 41
0.1058
 66
1
 10
0
 20
0
 30
0
  0
VERTEX
  8
LAYER_9
 10
51.6112
 20
130.776
 42
0.1329898948
  0
VERTEX
  8
LAYER_9
 10
52.1919
 20
131.1477
 42
0.1394674453
  0
VERTEX
  8
LAYER_9
 10
52.4295
 20
131.6827
 42
0.04042097148
  0
VERTEX
  8
LAYER_9
 10
52.45
 20
131.9447
  0
SEQEND
  0
ENDBLK
  0
BLOCK
  8
LAYER_9
  2
AIGNBL090100AE
 70
64
 10
0
 20
0
 30
0
  3
AIGNBL090100AE
  0
POLYLINE
  8
LAYER_9
 40
0.1058
 41
0.1058
 66
1
 10
0
 20
0
 30
0
  0
VERTEX
  8
LAYER_9
 10
57.9764
 20
130.8747
  0
VERTEX
  8
LAYER_9
 10
51.8318
 20
130.8747
  0
SEQEND
  0
ENDBLK
  0
BLOCK
  8
LAYER_9
  2
AIGNBL090100AF
 70
64
 10
0
 20
0
 30
0
  3
AIGNBL090100AF
  0
POLYLINE
  8
LAYER_9
 40
0.1058
 41
0.1058
 66
1
 10
0
 20
0
 30
0
  0
VERTEX
  8
LAYER_9
 10
57.9764
 20
133.0458
  0
VERTEX
  8
LAYER_9
 10
51.7735
 20
133.0458
  0
SEQEND
  0
ENDBLK
  0
BLOCK
  8
LAYER_9
  2
AIGNBL090100B0
 70
64
 10
0
 20
0
 30
0
  3
AIGNBL090100B0
  0
POLYLINE
  8
LAYER_9
 40
0.1058
 41
0.1058
 66
1
 10
0
 20
0
 30
0
  0
VERTEX
  8
LAYER_9
 10
52.45
 20
131.9447
 42
0.1213616788
  0
VERTEX
  8
LAYER_9
 10
52.2907
 20
132.672
 42
0.2263731554
  0
VERTEX
  8
LAYER_9
 10
51.62
 20
133.1385
 42
0.05437831079
  0
VERTEX
  8
LAYER_9
 10
51.2165
 20
133.1783
 42
0.1213803346
  0
VERTEX
  8
LAYER_9
 10
50.4892
 20
133.019
 42
0.2263582674
  0
VERTEX
  8
LAYER_9
 10
50.0227
 20
132.3482
 42
0.0543759208
  0
VERTEX
  8
LAYER_9
 10
49.9829
 20
131.9447
 42
0.132988391
  0
VERTEX
  8
LAYER_9
 10
50.1492
 20
131.2756
 42
0.1394689647
  0
VERTEX
  8
LAYER_9
 10
50.5801
 20
130.8792
 42
0.04042170378
  0
VERTEX
  8
LAYER_9
 10
50.8217
 20
130.776
  0
SEQEND
  0
ENDBLK
  0
BLOCK
  8
LAYER_9
  2
AIGNBL090100B1
 70
64
 10
0
 20
0
 30
0
  3
AIGNBL090100B1
  0
POLYLINE
  8
LAYER_9
 40
0.1058
 41
0.1058
 66
1
 10
0
 20
0
 30
0
  0
VERTEX
  8
LAYER_9
 10
57.9764
 20
130.8747
  0
VERTEX
  8
LAYER_9
 10
57.9764
 20
133.0458
  0
SEQEND
  0
ENDBLK
  0
BLOCK
  8
LAYER_9
  2
AIGNBL090100B2
 70
64
 10
0
 20
0
 30
0
  3
AIGNBL090100B2
  0
POLYLINE
  8
LAYER_9
 40
0.1058
 41
0.1058
 66
1
 10
0
 20
0
 30
0
  0
VERTEX
  8
LAYER_9
 10
57.6803
 20
132.4535
  0
VERTEX
  8
LAYER_9
 10
57.9764
 20
132.4535
  0
SEQEND
  0
ENDBLK
  0
BLOCK
  8
LAYER_9
  2
AIGNBL090100B3
 70
64
 10
0
 20
0
 30
0
  3
AIGNBL090100B3
  0
POLYLINE
  8
LAYER_9
 40
0.1058
 41
0.1058
 66
1
 10
0
 20
0
 30
0
  0
VERTEX
  8
LAYER_9
 10
57.9764
 20
131.072
  0
VERTEX
  8
LAYER_9
 10
53.0421
 20
131.072
  0
SEQEND
  0
ENDBLK
  0
BLOCK
  8
LAYER_9
  2
AIGNBL090100B4
 70
64
 10
0
 20
0
 30
0
  3
AIGNBL090100B4
  0
POLYLINE
  8
LAYER_9
 40
0.1058
 41
0.1058
 66
1
 10
0
 20
0
 30
0
  0
VERTEX
  8
LAYER_9
 10
50.8217
 20
130.776
 42
0.08185250515
  0
VERTEX
  8
LAYER_9
 10
51.2165
 20
130.7112
 42
0.08190126555
  0
VERTEX
  8
LAYER_9
 10
51.6112
 20
130.776
  0
SEQEND
  0
ENDBLK
  0
BLOCK
  8
LAYER_9
  2
AIGNBL090100B5
 70
64
 10
0
 20
0
 30
0
  3
AIGNBL090100B5
  0
POLYLINE
  8
LAYER_9
 40
0.1058
 41
0.1058
 66
1
 10
0
 20
0
 30
0
  0
VERTEX
  8
LAYER_9
 10
57.6803
 20
131.7134
  0
VERTEX
  8
LAYER_9
 10
57.6803
 20
131.4667
  0
SEQEND
  0
ENDBLK
  0
BLOCK
  8
LAYER_9
  2
AIGNBL090100B6
 70
64
 10
0
 20
0
 30
0
  3
AIGNBL090100B6
  0
POLYLINE
  8
LAYER_9
 40
0.1058
 41
0.1058
 66
1
 10
0
 20
0
 30
0
  0
VERTEX
  8
LAYER_9
 10
53.0421
 20
132.8483
  0
VERTEX
  8
LAYER_9
 10
57.9764
 20
132.8483
  0
SEQEND
  0
ENDBLK
  0
BLOCK
  8
LAYER_9
  2
AIGNBL090100B7
 70
64
 10
0
 20
0
 30
0
  3
AIGNBL090100B7
  0
POLYLINE
  8
LAYER_9
 40
0.1058
 41
0.1058
 66
1
 10
0
 20
0
 30
0
  0
VERTEX
  8
LAYER_9
 10
57.6803
 20
132.2068
  0
VERTEX
  8
LAYER_9
 10
57.6803
 20
131.7134
  0
SEQEND
  0
ENDBLK
  0
BLOCK
  8
LAYER_9
  2
AIGNBL090100B8
 70
64
 10
0
 20
0
 30
0
  3
AIGNBL090100B8
  0
POLYLINE
  8
LAYER_9
 40
0.1058
 41
0.1058
 66
1
 10
0
 20
0
 30
0
  0
VERTEX
  8
LAYER_9
 10
57.9764
 20
131.1213
  0
VERTEX
  8
LAYER_9
 10
53.0421
 20
131.1213
  0
SEQEND
  0
ENDBLK
  0
BLOCK
  8
LAYER_9
  2
AIGNBL090100B9
 70
64
 10
0
 20
0
 30
0
  3
AIGNBL090100B9
  0
POLYLINE
  8
LAYER_9
 40
0.1058
 41
0.1058
 66
1
 10
0
 20
0
 30
0
  0
VERTEX
  8
LAYER_9
 10
57.9764
 20
132.7989
  0
VERTEX
  8
LAYER_9
 10
53.0421
 20
132.7989
  0
SEQEND
  0
ENDBLK
  0
BLOCK
  8
LAYER_9
  2
AIGNBL090100BA
 70
64
 10
0
 20
0
 30
0
  3
AIGNBL090100BA
  0
POLYLINE
  8
LAYER_9
 40
0.1058
 41
0.1058
 66
1
 10
0
 20
0
 30
0
  0
VERTEX
  8
LAYER_9
 10
53.0421
 20
132.8481
  0
VERTEX
  8
LAYER_9
 10
53.0421
 20
131.0723
  0
SEQEND
  0
ENDBLK
  0
BLOCK
  8
LAYER_9
  2
AIGNBL090100BB
 70
64
 10
0
 20
0
 30
0
  3
AIGNBL090100BB
  0
POLYLINE
  8
LAYER_9
 40
0.1058
 41
0.1058
 66
1
 10
0
 20
0
 30
0
  0
VERTEX
  8
LAYER_9
 10
57.6803
 20
131.4667
  0
VERTEX
  8
LAYER_9
 10
57.9764
 20
131.4667
  0
SEQEND
  0
ENDBLK
  0
BLOCK
  8
LAYER_9
  2
AIGNBL090100BC
 70
64
 10
0
 20
0
 30
0
  3
AIGNBL090100BC
  0
POLYLINE
  8
LAYER_9
 40
0.1058
 41
0.1058
 66
1
 10
0
 20
0
 30
0
  0
VERTEX
  8
LAYER_9
 10
57.6803
 20
132.4535
  0
VERTEX
  8
LAYER_9
 10
57.6803
 20
132.2068
  0
SEQEND
  0
ENDBLK
  0
BLOCK
  8
LAYER_9
  2
AIGNBL090100BD
 70
64
 10
0
 20
0
 30
0
  3
AIGNBL090100BD
  0
POLYLINE
  8
LAYER_9
 40
0.1058
 41
0.1058
 66
1
 10
0
 20
0
 30
0
  0
VERTEX
  8
LAYER_9
 10
80.6585
 20
178.3382
  0
VERTEX
  8
LAYER_9
 10
180.6585
 20
178.3382
  0
SEQEND
  0
POLYLINE
  8
LAYER_9
 40
0.1058
 41
0.1058
 66
1
 10
0
 20
0
 30
0
  0
VERTEX
  8
LAYER_9
 10
80.6585
 20
176.3382
  0
VERTEX
  8
LAYER_9
 10
80.6585
 20
180.3382
  0
SEQEND
  0
POLYLINE
  8
LAYER_9
 40
0.1058
 41
0.1058
 66
1
 10
0
 20
0
 30
0
  0
VERTEX
  8
LAYER_9
 10
180.6585
 20
176.3382
  0
VERTEX
  8
LAYER_9
 10
180.6585
 20
180.3382
  0
SEQEND
  0
ENDBLK
  0
BLOCK
  8
LAYER_9
  2
AIGNBL090100BE
 70
64
 10
0
 20
0
 30
0
  3
AIGNBL090100BE
  0
POLYLINE
  8
LAYER_9
 40
0.1058
 41
0.1058
 66
1
 10
0
 20
0
 30
0
  0
VERTEX
  8
LAYER_9
 10
49.9764
 20
179.3965
  0
VERTEX
  8
LAYER_9
 10
57.9764
 20
179.3965
  0
SEQEND
  0
POLYLINE
  8
LAYER_9
 40
0.1058
 41
0.1058
 66
1
 10
0
 20
0
 30
0
  0
VERTEX
  8
LAYER_9
 10
49.9764
 20
177.3965
  0
VERTEX
  8
LAYER_9
 10
49.9764
 20
181.3965
  0
SEQEND
  0
POLYLINE
  8
LAYER_9
 40
0.1058
 41
0.1058
 66
1
 10
0
 20
0
 30
0
  0
VERTEX
  8
LAYER_9
 10
57.9764
 20
177.3965
  0
VERTEX
  8
LAYER_9
 10
57.9764
 20
181.3965
  0
SEQEND
  0
ENDBLK
  0
BLOCK
  8
LAYER_9
  2
AIGNBL090100BF
 70
64
 10
0
 20
0
 30
0
  3
AIGNBL090100BF
  0
POLYLINE
  8
LAYER_9
 40
0.1058
 41
0.1058
 66
1
 10
0
 20
0
 30
0
  0
VERTEX
  8
LAYER_9
 10
85.6585
 20
126.4247
  0
VERTEX
  8
LAYER_9
 10
175.6585
 20
126.4247
  0
SEQEND
  0
POLYLINE
  8
LAYER_9
 40
0.1058
 41
0.1058
 66
1
 10
0
 20
0
 30
0
  0
VERTEX
  8
LAYER_9
 10
85.6585
 20
124.4247
  0
VERTEX
  8
LAYER_9
 10
85.6585
 20
128.4247
  0
SEQEND
  0
POLYLINE
  8
LAYER_9
 40
0.1058
 41
0.1058
 66
1
 10
0
 20
0
 30
0
  0
VERTEX
  8
LAYER_9
 10
175.6585
 20
124.4247
  0
VERTEX
  8
LAYER_9
 10
175.6585
 20
128.4247
  0
SEQEND
  0
ENDBLK
  0
BLOCK
  8
LAYER_9
  2
AIGNBL090100C0
 70
64
 10
0
 20
0
 30
0
  3
AIGNBL090100C0
  0
POLYLINE
  8
LAYER_9
 40
0.1058
 41
0.1058
 66
1
 10
0
 20
0
 30
0
  0
VERTEX
  8
LAYER_9
 10
88.6585
 20
103.1448
  0
VERTEX
  8
LAYER_9
 10
172.6585
 20
103.1448
  0
SEQEND
  0
POLYLINE
  8
LAYER_9
 40
0.1058
 41
0.1058
 66
1
 10
0
 20
0
 30
0
  0
VERTEX
  8
LAYER_9
 10
88.6585
 20
101.1448
  0
VERTEX
  8
LAYER_9
 10
88.6585
 20
105.1448
  0
SEQEND
  0
POLYLINE
  8
LAYER_9
 40
0.1058
 41
0.1058
 66
1
 10
0
 20
0
 30
0
  0
VERTEX
  8
LAYER_9
 10
172.6585
 20
101.1448
  0
VERTEX
  8
LAYER_9
 10
172.6585
 20
105.1448
  0
SEQEND
  0
ENDBLK
  0
BLOCK
  8
LAYER_9
  2
AIGNBL090100C1
 70
64
 10
0
 20
0
 30
0
  3
AIGNBL090100C1
  0
POLYLINE
  8
LAYER_9
 40
0.1058
 41
0.1058
 66
1
 10
0
 20
0
 30
0
  0
VERTEX
  8
LAYER_9
 10
77.5072
 20
130.4732
  0
VERTEX
  8
LAYER_9
 10
77.5072
 20
175.7112
  0
SEQEND
  0
POLYLINE
  8
LAYER_9
 40
0.1058
 41
0.1058
 66
1
 10
0
 20
0
 30
0
  0
VERTEX
  8
LAYER_9
 10
79.5072
 20
130.4732
  0
VERTEX
  8
LAYER_9
 10
75.5072
 20
130.4732
  0
SEQEND
  0
POLYLINE
  8
LAYER_9
 40
0.1058
 41
0.1058
 66
1
 10
0
 20
0
 30
0
  0
VERTEX
  8
LAYER_9
 10
79.5072
 20
175.7112
  0
VERTEX
  8
LAYER_9
 10
75.5072
 20
175.7112
  0
SEQEND
  0
ENDBLK
  0
BLOCK
  8
LAYER_9
  2
AIGNBL090100C2
 70
64
 10
0
 20
0
 30
0
  3
AIGNBL090100C2
  0
POLYLINE
  8
LAYER_9
 40
0.1058
 41
0.1058
 66
1
 10
0
 20
0
 30
0
  0
VERTEX
  8
LAYER_9
 10
46.6391
 20
133.0922
  0
VERTEX
  8
LAYER_9
 10
46.6391
 20
173.0922
  0
SEQEND
  0
POLYLINE
  8
LAYER_9
 40
0.1058
 41
0.1058
 66
1
 10
0
 20
0
 30
0
  0
VERTEX
  8
LAYER_9
 10
48.6391
 20
133.0922
  0
VERTEX
  8
LAYER_9
 10
44.6391
 20
133.0922
  0
SEQEND
  0
POLYLINE
  8
LAYER_9
 40
0.1058
 41
0.1058
 66
1
 10
0
 20
0
 30
0
  0
VERTEX
  8
LAYER_9
 10
48.6391
 20
173.0922
  0
VERTEX
  8
LAYER_9
 10
44.6391
 20
173.0922
  0
SEQEND
  0
ENDBLK
  0
BLOCK
  8
LAYER_9
  2
AIGNBL090100C3
 70
64
 10
0
 20
0
 30
0
  3
AIGNBL090100C3
  0
POLYLINE
  8
LAYER_9
 40
0.1058
 41
0.1058
 66
1
 10
0
 20
0
 30
0
  0
VERTEX
  8
LAYER_9
 10
46.6391
 20
173.1182
  0
VERTEX
  8
LAYER_9
 10
46.6391
 20
175.6182
  0
SEQEND
  0
POLYLINE
  8
LAYER_9
 40
0.1058
 41
0.1058
 66
1
 10
0
 20
0
 30
0
  0
VERTEX
  8
LAYER_9
 10
48.6391
 20
175.6182
  0
VERTEX
  8
LAYER_9
 10
44.6391
 20
175.6182
  0
SEQEND
  0
ENDBLK
  0
BLOCK
  8
LAYER_9
  2
AIGNBL090100C4
 70
64
 10
0
 20
0
 30
0
  3
AIGNBL090100C4
  0
POLYLINE
  8
LAYER_9
 40
0.1058
 41
0.1058
 66
1
 10
0
 20
0
 30
0
  0
VERTEX
  8
LAYER_9
 10
46.6391
 20
130.5922
  0
VERTEX
  8
LAYER_9
 10
46.6391
 20
133.0922
  0
SEQEND
  0
POLYLINE
  8
LAYER_9
 40
0.1058
 41
0.1058
 66
1
 10
0
 20
0
 30
0
  0
VERTEX
  8
LAYER_9
 10
48.6391
 20
130.5922
  0
VERTEX
  8
LAYER_9
 10
44.6391
 20
130.5922
  0
SEQEND
  0
POLYLINE
  8
LAYER_9
 40
0.1058
 41
0.1058
 66
1
 10
0
 20
0
 30
0
  0
VERTEX
  8
LAYER_9
 10
48.6391
 20
133.0922
  0
VERTEX
  8
LAYER_9
 10
44.6391
 20
133.0922
  0
SEQEND
  0
ENDBLK
  0
ENDSEC
  0
SECTION
  2
ENTITIES
  0
TEXT
  8
LAYER_9
 10
18.1791
 20
6.2646
 11
18.1791
 21
6.2646
 40
3.2995
 41
0.5
  1
仕様
  0
POLYLINE
  8
LAYER_9
 40
0.3528
 41
0.3528
 66
1
 10
0
 20
0
 30
0
  0
VERTEX
  8
LAYER_9
 10
205.0762
 20
10.8455
  0
VERTEX
  8
LAYER_9
 10
17.0763
 20
10.8455
  0
SEQEND
  0
INSERT
  8
LAYER_9
  2
AIGNBL09010002
 10
0
 20
0
 30
0
  0
POLYLINE
  8
LAYER_9
 40
0.3528
 41
0.3528
 66
1
 10
0
 20
0
 30
0
  0
VERTEX
  8
LAYER_9
 10
17.0763
 20
268.2234
  0
VERTEX
  8
LAYER_9
 10
17.0763
 20
-6.7769
  0
VERTEX
  8
LAYER_9
 10
205.0762
 20
-6.7769
  0
VERTEX
  8
LAYER_9
 10
205.0762
 20
268.2234
  0
VERTEX
  8
LAYER_9
 10
17.0763
 20
268.2234
  0
SEQEND
  0
POLYLINE
  8
LAYER_9
 40
0.3528
 41
0.3528
 66
1
 10
0
 20
0
 30
0
  0
VERTEX
  8
LAYER_9
 10
205.0762
 20
19.3546
  0
VERTEX
  8
LAYER_9
 10
17.0763
 20
19.3546
  0
SEQEND
  0
POLYLINE
  8
LAYER_9
 40
0.3528
 41
0.3528
 66
1
 10
0
 20
0
 30
0
  0
VERTEX
  8
LAYER_9
 10
205.0762
 20
2.3365
  0
VERTEX
  8
LAYER_9
 10
127.3025
 20
2.3365
  0
SEQEND
  0
TEXT
  8
LAYER_9
 10
157.5084
 20
4.6123
 11
157.5084
 21
4.6123
 40
3.7615
 41
0.5
  1
-
  0
TEXT
  8
LAYER_9
 10
152.2167
 20
8.3692
 11
152.2167
 21
8.3692
 40
2.1997
 41
0.5
  1
縮尺
  0
POLYLINE
  8
LAYER_9
 40
0.3528
 41
0.3528
 66
1
 10
0
 20
0
 30
0
  0
VERTEX
  8
LAYER_9
 10
150.6885
 20
2.3365
  0
VERTEX
  8
LAYER_9
 10
150.6885
 20
10.8455
  0
SEQEND
  0
TEXT
  8
LAYER_9
 10
128.0011
 20
16.8782
 11
128.0011
 21
16.8782
 40
2.1997
 41
0.5
  1
品番
  0
TEXT
  8
LAYER_9
 10
18.2332
 20
16.8782
 11
18.2332
 21
16.8782
 40
2.1997
 41
0.5
  1
品名
  0
TEXT
  8
LAYER_9
 10
128.0011
 20
8.3692
 11
128.0011
 21
8.3692
 40
2.1997
 41
0.5
  1
重量
  0
TEXT
  8
LAYER_9
 10
135.5345
 20
13.0462
 11
135.5345
 21
13.0462
 40
5.9385
 41
0.5
  1
EX-NDGL1P/
  0
TEXT
  8
LAYER_9
 10
133.3138
 20
4.6123
 11
133.3138
 21
4.6123
 40
3.7615
 41
0.5
  1
-
  0
POLYLINE
  8
LAYER_9
 40
0.3528
 41
0.3528
 66
1
 10
0
 20
0
 30
0
  0
VERTEX
  8
LAYER_9
 10
127.3025
 20
-6.1512
  0
VERTEX
  8
LAYER_9
 10
127.3025
 20
19.3546
  0
SEQEND
  0
TEXT
  8
LAYER_9
 10
24.5084
 20
13.6808
 11
24.5084
 21
13.6808
 40
4.1465
 41
0.5
  1
GRID1 -1000mm
  0
TEXT
  8
LAYER_9
 10
28.7512
 20
5.7361
 11
28.7512
 21
5.7361
 40
3.5541
 41
0.5
  1
●W1000mm×H450mm×D80mm●取り付けビス同梱
  0
TEXT
  8
LAYER_9
 10
191.6644
 20
22.153
 11
191.6644
 21
22.153
 40
2.9618
 41
0.5
  1
単位：mm
  0
TEXT
  8
LAYER_9
 10
194.7605
 20
264.7297
 11
194.7605
 21
264.7297
 40
2.0732
 41
0.5
  1
190711RT
  0
TEXT
  8
LAYER_9
 10
154.2662
 20
-1.6816
 11
154.2662
 21
-1.6816
 40
2.8694
 41
0.5
  1
●TEL 0120-65-1232●FAX 06-6532-1580
  0
TEXT
  8
LAYER_9
 10
154.2662
 20
-4.6609
 11
154.2662
 21
-4.6609
 40
2.8694
 41
0.5
  1
hits@hiratatile.co.jp
  0
INSERT
  8
LAYER_9
  2
AIGNBL09010003
 10
0
 20
0
 30
0
  0
INSERT
  8
LAYER_9
  2
AIGNBL09010025
 10
0
 20
0
 30
0
  0
INSERT
  8
LAYER_9
  2
AIGNBL09010026
 10
0
 20
0
 30
0
  0
INSERT
  8
LAYER_9
  2
AIGNBL09010027
 10
0
 20
0
 30
0
  0
INSERT
  8
LAYER_9
  2
AIGNBL09010028
 10
0
 20
0
 30
0
  0
INSERT
  8
LAYER_9
  2
AIGNBL09010029
 10
0
 20
0
 30
0
  0
INSERT
  8
LAYER_9
  2
AIGNBL0901002A
 10
0
 20
0
 30
0
  0
INSERT
  8
LAYER_9
  2
AIGNBL0901002B
 10
0
 20
0
 30
0
  0
INSERT
  8
LAYER_9
  2
AIGNBL0901002C
 10
0
 20
0
 30
0
  0
INSERT
  8
LAYER_9
  2
AIGNBL0901002D
 10
0
 20
0
 30
0
  0
INSERT
  8
LAYER_9
  2
AIGNBL0901002E
 10
0
 20
0
 30
0
  0
INSERT
  8
LAYER_9
  2
AIGNBL0901002F
 10
0
 20
0
 30
0
  0
INSERT
  8
LAYER_9
  2
AIGNBL09010030
 10
0
 20
0
 30
0
  0
INSERT
  8
LAYER_9
  2
AIGNBL09010031
 10
0
 20
0
 30
0
  0
INSERT
  8
LAYER_9
  2
AIGNBL09010032
 10
0
 20
0
 30
0
  0
INSERT
  8
LAYER_9
  2
AIGNBL09010033
 10
0
 20
0
 30
0
  0
INSERT
  8
LAYER_9
  2
AIGNBL09010034
 10
0
 20
0
 30
0
  0
INSERT
  8
LAYER_9
  2
AIGNBL09010035
 10
0
 20
0
 30
0
  0
INSERT
  8
LAYER_9
  2
AIGNBL09010036
 10
0
 20
0
 30
0
  0
INSERT
  8
LAYER_9
  2
AIGNBL09010037
 10
0
 20
0
 30
0
  0
INSERT
  8
LAYER_9
  2
AIGNBL09010038
 10
0
 20
0
 30
0
  0
INSERT
  8
LAYER_9
  2
AIGNBL09010039
 10
0
 20
0
 30
0
  0
INSERT
  8
LAYER_9
  2
AIGNBL0901003A
 10
0
 20
0
 30
0
  0
INSERT
  8
LAYER_9
  2
AIGNBL0901003B
 10
0
 20
0
 30
0
  0
INSERT
  8
LAYER_9
  2
AIGNBL0901003C
 10
0
 20
0
 30
0
  0
INSERT
  8
LAYER_9
  2
AIGNBL0901003D
 10
0
 20
0
 30
0
  0
INSERT
  8
LAYER_9
  2
AIGNBL0901003E
 10
0
 20
0
 30
0
  0
INSERT
  8
LAYER_9
  2
AIGNBL0901003F
 10
0
 20
0
 30
0
  0
INSERT
  8
LAYER_9
  2
AIGNBL09010040
 10
0
 20
0
 30
0
  0
INSERT
  8
LAYER_9
  2
AIGNBL09010041
 10
0
 20
0
 30
0
  0
INSERT
  8
LAYER_9
  2
AIGNBL09010042
 10
0
 20
0
 30
0
  0
INSERT
  8
LAYER_9
  2
AIGNBL09010043
 10
0
 20
0
 30
0
  0
INSERT
  8
LAYER_9
  2
AIGNBL09010044
 10
0
 20
0
 30
0
  0
INSERT
  8
LAYER_9
  2
AIGNBL09010045
 10
0
 20
0
 30
0
  0
INSERT
  8
LAYER_9
  2
AIGNBL09010046
 10
0
 20
0
 30
0
  0
INSERT
  8
LAYER_9
  2
AIGNBL09010047
 10
0
 20
0
 30
0
  0
INSERT
  8
LAYER_9
  2
AIGNBL09010048
 10
0
 20
0
 30
0
  0
INSERT
  8
LAYER_9
  2
AIGNBL09010049
 10
0
 20
0
 30
0
  0
INSERT
  8
LAYER_9
  2
AIGNBL0901004A
 10
0
 20
0
 30
0
  0
INSERT
  8
LAYER_9
  2
AIGNBL0901004B
 10
0
 20
0
 30
0
  0
INSERT
  8
LAYER_9
  2
AIGNBL0901004C
 10
0
 20
0
 30
0
  0
INSERT
  8
LAYER_9
  2
AIGNBL0901004D
 10
0
 20
0
 30
0
  0
INSERT
  8
LAYER_9
  2
AIGNBL0901004E
 10
0
 20
0
 30
0
  0
INSERT
  8
LAYER_9
  2
AIGNBL0901004F
 10
0
 20
0
 30
0
  0
INSERT
  8
LAYER_9
  2
AIGNBL09010050
 10
0
 20
0
 30
0
  0
INSERT
  8
LAYER_9
  2
AIGNBL09010051
 10
0
 20
0
 30
0
  0
INSERT
  8
LAYER_9
  2
AIGNBL09010052
 10
0
 20
0
 30
0
  0
INSERT
  8
LAYER_9
  2
AIGNBL09010053
 10
0
 20
0
 30
0
  0
INSERT
  8
LAYER_9
  2
AIGNBL09010054
 10
0
 20
0
 30
0
  0
INSERT
  8
LAYER_9
  2
AIGNBL09010055
 10
0
 20
0
 30
0
  0
INSERT
  8
LAYER_9
  2
AIGNBL09010056
 10
0
 20
0
 30
0
  0
INSERT
  8
LAYER_9
  2
AIGNBL09010057
 10
0
 20
0
 30
0
  0
INSERT
  8
LAYER_9
  2
AIGNBL09010058
 10
0
 20
0
 30
0
  0
INSERT
  8
LAYER_9
  2
AIGNBL09010059
 10
0
 20
0
 30
0
  0
INSERT
  8
LAYER_9
  2
AIGNBL0901005A
 10
0
 20
0
 30
0
  0
INSERT
  8
LAYER_9
  2
AIGNBL0901005B
 10
0
 20
0
 30
0
  0
INSERT
  8
LAYER_9
  2
AIGNBL0901005C
 10
0
 20
0
 30
0
  0
INSERT
  8
LAYER_9
  2
AIGNBL0901005D
 10
0
 20
0
 30
0
  0
INSERT
  8
LAYER_9
  2
AIGNBL0901005E
 10
0
 20
0
 30
0
  0
INSERT
  8
LAYER_9
  2
AIGNBL0901005F
 10
0
 20
0
 30
0
  0
INSERT
  8
LAYER_9
  2
AIGNBL09010060
 10
0
 20
0
 30
0
  0
INSERT
  8
LAYER_9
  2
AIGNBL09010061
 10
0
 20
0
 30
0
  0
INSERT
  8
LAYER_9
  2
AIGNBL09010062
 10
0
 20
0
 30
0
  0
INSERT
  8
LAYER_9
  2
AIGNBL09010063
 10
0
 20
0
 30
0
  0
INSERT
  8
LAYER_9
  2
AIGNBL09010064
 10
0
 20
0
 30
0
  0
INSERT
  8
LAYER_9
  2
AIGNBL09010065
 10
0
 20
0
 30
0
  0
INSERT
  8
LAYER_9
  2
AIGNBL09010066
 10
0
 20
0
 30
0
  0
INSERT
  8
LAYER_9
  2
AIGNBL09010067
 10
0
 20
0
 30
0
  0
INSERT
  8
LAYER_9
  2
AIGNBL09010068
 10
0
 20
0
 30
0
  0
INSERT
  8
LAYER_9
  2
AIGNBL09010069
 10
0
 20
0
 30
0
  0
INSERT
  8
LAYER_9
  2
AIGNBL0901006A
 10
0
 20
0
 30
0
  0
INSERT
  8
LAYER_9
  2
AIGNBL0901006B
 10
0
 20
0
 30
0
  0
INSERT
  8
LAYER_9
  2
AIGNBL0901006C
 10
0
 20
0
 30
0
  0
INSERT
  8
LAYER_9
  2
AIGNBL0901006D
 10
0
 20
0
 30
0
  0
INSERT
  8
LAYER_9
  2
AIGNBL0901006E
 10
0
 20
0
 30
0
  0
INSERT
  8
LAYER_9
  2
AIGNBL0901006F
 10
0
 20
0
 30
0
  0
INSERT
  8
LAYER_9
  2
AIGNBL09010070
 10
0
 20
0
 30
0
  0
INSERT
  8
LAYER_9
  2
AIGNBL09010071
 10
0
 20
0
 30
0
  0
INSERT
  8
LAYER_9
  2
AIGNBL09010072
 10
0
 20
0
 30
0
  0
INSERT
  8
LAYER_9
  2
AIGNBL09010073
 10
0
 20
0
 30
0
  0
INSERT
  8
LAYER_9
  2
AIGNBL09010074
 10
0
 20
0
 30
0
  0
INSERT
  8
LAYER_9
  2
AIGNBL09010075
 10
0
 20
0
 30
0
  0
INSERT
  8
LAYER_9
  2
AIGNBL09010076
 10
0
 20
0
 30
0
  0
INSERT
  8
LAYER_9
  2
AIGNBL09010077
 10
0
 20
0
 30
0
  0
INSERT
  8
LAYER_9
  2
AIGNBL09010078
 10
0
 20
0
 30
0
  0
INSERT
  8
LAYER_9
  2
AIGNBL09010079
 10
0
 20
0
 30
0
  0
INSERT
  8
LAYER_9
  2
AIGNBL0901007A
 10
0
 20
0
 30
0
  0
INSERT
  8
LAYER_9
  2
AIGNBL0901007B
 10
0
 20
0
 30
0
  0
INSERT
  8
LAYER_9
  2
AIGNBL0901007C
 10
0
 20
0
 30
0
  0
INSERT
  8
LAYER_9
  2
AIGNBL0901007D
 10
0
 20
0
 30
0
  0
INSERT
  8
LAYER_9
  2
AIGNBL0901007E
 10
0
 20
0
 30
0
  0
INSERT
  8
LAYER_9
  2
AIGNBL0901007F
 10
0
 20
0
 30
0
  0
INSERT
  8
LAYER_9
  2
AIGNBL09010080
 10
0
 20
0
 30
0
  0
INSERT
  8
LAYER_9
  2
AIGNBL09010081
 10
0
 20
0
 30
0
  0
INSERT
  8
LAYER_9
  2
AIGNBL09010082
 10
0
 20
0
 30
0
  0
INSERT
  8
LAYER_9
  2
AIGNBL09010083
 10
0
 20
0
 30
0
  0
INSERT
  8
LAYER_9
  2
AIGNBL09010084
 10
0
 20
0
 30
0
  0
INSERT
  8
LAYER_9
  2
AIGNBL09010085
 10
0
 20
0
 30
0
  0
INSERT
  8
LAYER_9
  2
AIGNBL09010086
 10
0
 20
0
 30
0
  0
INSERT
  8
LAYER_9
  2
AIGNBL09010087
 10
0
 20
0
 30
0
  0
INSERT
  8
LAYER_9
  2
AIGNBL09010088
 10
0
 20
0
 30
0
  0
INSERT
  8
LAYER_9
  2
AIGNBL09010089
 10
0
 20
0
 30
0
  0
INSERT
  8
LAYER_9
  2
AIGNBL0901008A
 10
0
 20
0
 30
0
  0
INSERT
  8
LAYER_9
  2
AIGNBL0901008B
 10
0
 20
0
 30
0
  0
INSERT
  8
LAYER_9
  2
AIGNBL0901008C
 10
0
 20
0
 30
0
  0
INSERT
  8
LAYER_9
  2
AIGNBL0901008D
 10
0
 20
0
 30
0
  0
INSERT
  8
LAYER_9
  2
AIGNBL0901008E
 10
0
 20
0
 30
0
  0
INSERT
  8
LAYER_9
  2
AIGNBL0901008F
 10
0
 20
0
 30
0
  0
INSERT
  8
LAYER_9
  2
AIGNBL09010090
 10
0
 20
0
 30
0
  0
INSERT
  8
LAYER_9
  2
AIGNBL09010091
 10
0
 20
0
 30
0
  0
INSERT
  8
LAYER_9
  2
AIGNBL09010092
 10
0
 20
0
 30
0
  0
INSERT
  8
LAYER_9
  2
AIGNBL09010093
 10
0
 20
0
 30
0
  0
INSERT
  8
LAYER_9
  2
AIGNBL09010094
 10
0
 20
0
 30
0
  0
INSERT
  8
LAYER_9
  2
AIGNBL09010095
 10
0
 20
0
 30
0
  0
INSERT
  8
LAYER_9
  2
AIGNBL09010096
 10
0
 20
0
 30
0
  0
INSERT
  8
LAYER_9
  2
AIGNBL09010097
 10
0
 20
0
 30
0
  0
INSERT
  8
LAYER_9
  2
AIGNBL09010098
 10
0
 20
0
 30
0
  0
INSERT
  8
LAYER_9
  2
AIGNBL09010099
 10
0
 20
0
 30
0
  0
INSERT
  8
LAYER_9
  2
AIGNBL0901009A
 10
0
 20
0
 30
0
  0
INSERT
  8
LAYER_9
  2
AIGNBL0901009B
 10
0
 20
0
 30
0
  0
INSERT
  8
LAYER_9
  2
AIGNBL0901009C
 10
0
 20
0
 30
0
  0
INSERT
  8
LAYER_9
  2
AIGNBL0901009D
 10
0
 20
0
 30
0
  0
INSERT
  8
LAYER_9
  2
AIGNBL0901009E
 10
0
 20
0
 30
0
  0
INSERT
  8
LAYER_9
  2
AIGNBL0901009F
 10
0
 20
0
 30
0
  0
INSERT
  8
LAYER_9
  2
AIGNBL090100A0
 10
0
 20
0
 30
0
  0
INSERT
  8
LAYER_9
  2
AIGNBL090100A1
 10
0
 20
0
 30
0
  0
INSERT
  8
LAYER_9
  2
AIGNBL090100A2
 10
0
 20
0
 30
0
  0
INSERT
  8
LAYER_9
  2
AIGNBL090100A3
 10
0
 20
0
 30
0
  0
INSERT
  8
LAYER_9
  2
AIGNBL090100A4
 10
0
 20
0
 30
0
  0
INSERT
  8
LAYER_9
  2
AIGNBL090100A5
 10
0
 20
0
 30
0
  0
INSERT
  8
LAYER_9
  2
AIGNBL090100A6
 10
0
 20
0
 30
0
  0
INSERT
  8
LAYER_9
  2
AIGNBL090100A7
 10
0
 20
0
 30
0
  0
INSERT
  8
LAYER_9
  2
AIGNBL090100A8
 10
0
 20
0
 30
0
  0
INSERT
  8
LAYER_9
  2
AIGNBL090100A9
 10
0
 20
0
 30
0
  0
INSERT
  8
LAYER_9
  2
AIGNBL090100AA
 10
0
 20
0
 30
0
  0
INSERT
  8
LAYER_9
  2
AIGNBL090100AB
 10
0
 20
0
 30
0
  0
INSERT
  8
LAYER_9
  2
AIGNBL090100AC
 10
0
 20
0
 30
0
  0
INSERT
  8
LAYER_9
  2
AIGNBL090100AD
 10
0
 20
0
 30
0
  0
INSERT
  8
LAYER_9
  2
AIGNBL090100AE
 10
0
 20
0
 30
0
  0
INSERT
  8
LAYER_9
  2
AIGNBL090100AF
 10
0
 20
0
 30
0
  0
INSERT
  8
LAYER_9
  2
AIGNBL090100B0
 10
0
 20
0
 30
0
  0
INSERT
  8
LAYER_9
  2
AIGNBL090100B1
 10
0
 20
0
 30
0
  0
INSERT
  8
LAYER_9
  2
AIGNBL090100B2
 10
0
 20
0
 30
0
  0
INSERT
  8
LAYER_9
  2
AIGNBL090100B3
 10
0
 20
0
 30
0
  0
INSERT
  8
LAYER_9
  2
AIGNBL090100B4
 10
0
 20
0
 30
0
  0
INSERT
  8
LAYER_9
  2
AIGNBL090100B5
 10
0
 20
0
 30
0
  0
INSERT
  8
LAYER_9
  2
AIGNBL090100B6
 10
0
 20
0
 30
0
  0
INSERT
  8
LAYER_9
  2
AIGNBL090100B7
 10
0
 20
0
 30
0
  0
INSERT
  8
LAYER_9
  2
AIGNBL090100B8
 10
0
 20
0
 30
0
  0
INSERT
  8
LAYER_9
  2
AIGNBL090100B9
 10
0
 20
0
 30
0
  0
INSERT
  8
LAYER_9
  2
AIGNBL090100BA
 10
0
 20
0
 30
0
  0
INSERT
  8
LAYER_9
  2
AIGNBL090100BB
 10
0
 20
0
 30
0
  0
INSERT
  8
LAYER_9
  2
AIGNBL090100BC
 10
0
 20
0
 30
0
  0
INSERT
  8
LAYER_9
  2
AIGNBL090100BD
 10
0
 20
0
 30
0
  0
INSERT
  8
LAYER_9
  2
AIGNBL090100BE
 10
0
 20
0
 30
0
  0
INSERT
  8
LAYER_9
  2
AIGNBL090100BF
 10
0
 20
0
 30
0
  0
INSERT
  8
LAYER_9
  2
AIGNBL090100C0
 10
0
 20
0
 30
0
  0
INSERT
  8
LAYER_9
  2
AIGNBL090100C1
 10
0
 20
0
 30
0
  0
INSERT
  8
LAYER_9
  2
AIGNBL090100C2
 10
0
 20
0
 30
0
  0
INSERT
  8
LAYER_9
  2
AIGNBL090100C3
 10
0
 20
0
 30
0
  0
INSERT
  8
LAYER_9
  2
AIGNBL090100C4
 10
0
 20
0
 30
0
  0
TEXT
  8
LAYER_9
 10
51.5789
 20
181.8577
 11
51.5789
 21
181.8577
 40
5.0153
 41
0.5
  1
80
  0
TEXT
  8
LAYER_9
 10
38.1734
 20
172.5679
 11
38.1734
 21
172.5679
 40
5.0153
 41
0.5
  1
25
  0
TEXT
  8
LAYER_9
 10
38.1734
 20
130.117
 11
38.1734
 21
130.117
 40
5.0153
 41
0.5
  1
25
  0
TEXT
  8
LAYER_9
 10
36.8798
 20
156.105
 11
36.8798
 21
156.105
 40
5.0153
 41
0.5
  1
400
  0
TEXT
  8
LAYER_9
 10
128.2493
 20
121.4031
 11
128.2493
 21
121.4031
 40
5.0153
 41
0.5
  1
900
  0
TEXT
  8
LAYER_9
 10
128.2493
 20
104.7637
 11
128.2493
 21
104.7637
 40
5.0153
 41
0.5
  1
840
  0
TEXT
  8
LAYER_9
 10
128.4257
 20
180.3878
 11
128.4257
 21
180.3878
 40
5.0153
 41
0.5
  1
1000
  0
TEXT
  8
LAYER_9
 10
67.0423
 20
152.4008
 11
67.0423
 21
152.4008
 40
5.0153
 41
0.5
  1
450
  0
ENDSEC
  0
EOF
