  0
SECTION
  2
HEADER
  9
$ACADVER
  1
AC1009
  9
$LUNITS
 70
2
  9
$LUPREC
 70
4
  9
$LTSCALE
 40
1.0
  9
$EXTMIN
 10
33.7873
 20
-259.334
 30
0
  9
$EXTMAX
 10
233.4572
 20
22.6587
 30
0
  0
ENDSEC
  0
SECTION
  2
TABLES
  0
TABLE
  2
LTYPE
 70
256
  0
LTYPE
  2
AIGENLINE001
 70
64
  3
generate AI->DXF Converter
 72
65
 73
4
 40
18.0035
 49
12
 49
-3
 49
0.0035
 49
-3
  0
LTYPE
  2
AIGENLINE002
 70
64
  3
generate AI->DXF Converter
 72
65
 73
4
 40
1.125
 49
0.75
 49
-0.125
 49
0.125
 49
-0.125
  0
LTYPE
  2
AIGENLINE003
 70
64
  3
generate AI->DXF Converter
 72
65
 73
6
 40
23.8125
 49
11.9062
 49
-2.3812
 49
2.3812
 49
-2.3812
 49
2.3812
 49
-2.3812
  0
LTYPE
  2
AIGENLINE004
 70
64
  3
generate AI->DXF Converter
 72
65
 73
6
 40
31.75
 49
15.875
 49
-3.175
 49
3.175
 49
-3.175
 49
3.175
 49
-3.175
  0
ENDTAB
  0
TABLE
  2
LAYER
 70
6
  0
LAYER
  2
LAYER_1
 70
64
 62
7
  6
CONTINUOUS
  0
LAYER
  2
LAYER_2
 70
64
 62
7
  6
CONTINUOUS
  0
LAYER
  2
LAYER_3
 70
64
 62
7
  6
CONTINUOUS
  0
LAYER
  2
LAYER_4
 70
64
 62
7
  6
CONTINUOUS
  0
LAYER
  2
LAYER_5
 70
64
 62
7
  6
CONTINUOUS
  0
LAYER
  2
LAYER_6
 70
64
 62
7
  6
CONTINUOUS
  0
ENDTAB
  0
TABLE
  2
STYLE
 70
6
  0
STYLE
  2
STANDARD
 70
0
 40
0
 50
0
 71
0
 41
0
 42
0
  3
TXT
  4
BIGFONT
  0
ENDTAB
  0
ENDSEC
  0
SECTION
  2
BLOCKS
  0
BLOCK
  8
LAYER_1
  2
AIGNBL01040005
 70
64
 10
0
 20
0
 30
0
  3
AIGNBL01040005
  0
POLYLINE
  8
LAYER_1
 40
0.05
 41
0.05
 66
1
 10
0
 20
0
 30
0
 70
1
  0
VERTEX
  8
LAYER_1
 10
138.3767
 20
-249.1011
  0
VERTEX
  8
LAYER_1
 10
137.891
 20
-250.2793
  0
VERTEX
  8
LAYER_1
 10
137.2664
 20
-250.2793
  0
VERTEX
  8
LAYER_1
 10
138.857
 20
-246.5355
  0
VERTEX
  8
LAYER_1
 10
139.586
 20
-246.5355
  0
VERTEX
  8
LAYER_1
 10
141.1828
 20
-250.2793
  0
VERTEX
  8
LAYER_1
 10
140.5365
 20
-250.2793
  0
VERTEX
  8
LAYER_1
 10
140.0369
 20
-249.1011
  0
SEQEND
  0
POLYLINE
  8
LAYER_1
 40
0.05
 41
0.05
 66
1
 10
0
 20
0
 30
0
 70
1
  0
VERTEX
  8
LAYER_1
 10
139.9115
 20
-248.7245
  0
VERTEX
  8
LAYER_1
 10
139.4533
 20
-247.6459
  0
VERTEX
  8
LAYER_1
 10
139.2101
 20
-246.963
  0
VERTEX
  8
LAYER_1
 10
139.1967
 20
-246.963
  0
VERTEX
  8
LAYER_1
 10
138.9603
 20
-247.6414
  0
VERTEX
  8
LAYER_1
 10
138.5021
 20
-248.7245
  0
SEQEND
  0
ENDBLK
  0
BLOCK
  8
LAYER_1
  2
AIGNBL01040006
 70
64
 10
0
 20
0
 30
0
  3
AIGNBL01040006
  0
POLYLINE
  8
LAYER_1
 40
0.05
 41
0.05
 66
1
 10
0
 20
0
 30
0
 70
1
  0
VERTEX
  8
LAYER_1
 10
145.5226
 20
-250.8295
 42
-0.01588995579
  0
VERTEX
  8
LAYER_1
 10
143.7311
 20
-250.3954
  0
VERTEX
  8
LAYER_1
 10
143.4465
 20
-250.3406
 42
-0.08603985201
  0
VERTEX
  8
LAYER_1
 10
142.5648
 20
-250.1665
 42
-0.09807603942
  0
VERTEX
  8
LAYER_1
 10
141.9131
 20
-249.7557
 42
-0.2094886647
  0
VERTEX
  8
LAYER_1
 10
141.3839
 20
-248.4469
 42
-0.09686882676
  0
VERTEX
  8
LAYER_1
 10
141.5276
 20
-247.6779
 42
-0.2046492491
  0
VERTEX
  8
LAYER_1
 10
142.5693
 20
-246.6597
 42
-0.09822810302
  0
VERTEX
  8
LAYER_1
 10
143.5644
 20
-246.4745
 42
-0.08551091506
  0
VERTEX
  8
LAYER_1
 10
144.4282
 20
-246.615
 42
-0.1004264881
  0
VERTEX
  8
LAYER_1
 10
145.0896
 20
-247.0069
 42
-0.2141381959
  0
VERTEX
  8
LAYER_1
 10
145.6617
 20
-248.3686
 42
-0.09538251124
  0
VERTEX
  8
LAYER_1
 10
145.5236
 20
-249.1322
 42
-0.2145004706
  0
VERTEX
  8
LAYER_1
 10
144.5063
 20
-250.1049
 42
-0.02339472194
  0
VERTEX
  8
LAYER_1
 10
144.3281
 20
-250.1628
  0
VERTEX
  8
LAYER_1
 10
144.3281
 20
-250.1852
  0
VERTEX
  8
LAYER_1
 10
145.6965
 20
-250.424
  0
SEQEND
  0
POLYLINE
  8
LAYER_1
 40
0.05
 41
0.05
 66
1
 10
0
 20
0
 30
0
 70
1
  0
VERTEX
  8
LAYER_1
 10
145.0233
 20
-248.39
 42
0.1071465477
  0
VERTEX
  8
LAYER_1
 10
144.8729
 20
-247.6894
 42
0.2977221891
  0
VERTEX
  8
LAYER_1
 10
143.5433
 20
-246.8687
 42
0.1072160189
  0
VERTEX
  8
LAYER_1
 10
142.8575
 20
-247.0073
 42
0.2385375056
  0
VERTEX
  8
LAYER_1
 10
142.0749
 20
-248.007
 42
0.05759145292
  0
VERTEX
  8
LAYER_1
 10
142.0296
 20
-248.4344
 42
0.2182236294
  0
VERTEX
  8
LAYER_1
 10
142.5575
 20
-249.6231
 42
0.1771891839
  0
VERTEX
  8
LAYER_1
 10
143.5161
 20
-249.9468
 42
0.1075696895
  0
VERTEX
  8
LAYER_1
 10
144.1932
 20
-249.8086
 42
0.236982977
  0
VERTEX
  8
LAYER_1
 10
144.9758
 20
-248.8146
 42
0.05604944619
  0
SEQEND
  0
ENDBLK
  0
BLOCK
  8
LAYER_1
  2
AIGNBL01040007
 70
64
 10
0
 20
0
 30
0
  3
AIGNBL01040007
  0
POLYLINE
  8
LAYER_1
 40
0.05
 41
0.05
 66
1
 10
0
 20
0
 30
0
 70
1
  0
VERTEX
  8
LAYER_1
 10
146.9815
 20
-246.5355
  0
VERTEX
  8
LAYER_1
 10
146.9815
 20
-248.7517
 42
0.114472655
  0
VERTEX
  8
LAYER_1
 10
147.1146
 20
-249.4136
 42
0.1464766
  0
VERTEX
  8
LAYER_1
 10
147.4628
 20
-249.7966
 42
0.1363197034
  0
VERTEX
  8
LAYER_1
 10
148.0716
 20
-249.9468
 42
0.1219363095
  0
VERTEX
  8
LAYER_1
 10
148.6913
 20
-249.8128
 42
0.1503291203
  0
VERTEX
  8
LAYER_1
 10
149.0609
 20
-249.446
 42
0.1255921242
  0
VERTEX
  8
LAYER_1
 10
149.2105
 20
-248.7517
  0
VERTEX
  8
LAYER_1
 10
149.2105
 20
-246.5355
  0
VERTEX
  8
LAYER_1
 10
149.8217
 20
-246.5355
  0
VERTEX
  8
LAYER_1
 10
149.8217
 20
-248.7187
 42
-0.1000186514
  0
VERTEX
  8
LAYER_1
 10
149.6875
 20
-249.4569
 42
-0.1214826848
  0
VERTEX
  8
LAYER_1
 10
149.3164
 20
-249.9606
 42
-0.1105884685
  0
VERTEX
  8
LAYER_1
 10
148.6945
 20
-250.2654
 42
-0.06129767201
  0
VERTEX
  8
LAYER_1
 10
148.0509
 20
-250.3406
 42
-0.09420892198
  0
VERTEX
  8
LAYER_1
 10
147.2365
 20
-250.2032
 42
-0.2431575096
  0
VERTEX
  8
LAYER_1
 10
146.4378
 20
-249.2978
 42
-0.06319469768
  0
VERTEX
  8
LAYER_1
 10
146.3707
 20
-248.7404
  0
VERTEX
  8
LAYER_1
 10
146.3707
 20
-246.5355
  0
SEQEND
  0
ENDBLK
  0
BLOCK
  8
LAYER_1
  2
AIGNBL01040008
 70
64
 10
0
 20
0
 30
0
  3
AIGNBL01040008
  0
POLYLINE
  8
LAYER_1
 40
0.05
 41
0.05
 66
1
 10
0
 20
0
 30
0
 70
1
  0
VERTEX
  8
LAYER_1
 10
151.5573
 20
-249.1011
  0
VERTEX
  8
LAYER_1
 10
151.0709
 20
-250.2793
  0
VERTEX
  8
LAYER_1
 10
150.447
 20
-250.2793
  0
VERTEX
  8
LAYER_1
 10
152.0365
 20
-246.5355
  0
VERTEX
  8
LAYER_1
 10
152.7655
 20
-246.5355
  0
VERTEX
  8
LAYER_1
 10
154.3623
 20
-250.2793
  0
VERTEX
  8
LAYER_1
 10
153.7167
 20
-250.2793
  0
VERTEX
  8
LAYER_1
 10
153.2175
 20
-249.1011
  0
SEQEND
  0
POLYLINE
  8
LAYER_1
 40
0.05
 41
0.05
 66
1
 10
0
 20
0
 30
0
 70
1
  0
VERTEX
  8
LAYER_1
 10
153.0921
 20
-248.7245
  0
VERTEX
  8
LAYER_1
 10
152.6332
 20
-247.6459
  0
VERTEX
  8
LAYER_1
 10
152.3897
 20
-246.963
  0
VERTEX
  8
LAYER_1
 10
152.3759
 20
-246.963
  0
VERTEX
  8
LAYER_1
 10
152.1402
 20
-247.6414
  0
VERTEX
  8
LAYER_1
 10
151.682
 20
-248.7245
  0
SEQEND
  0
ENDBLK
  0
BLOCK
  8
LAYER_1
  2
AIGNBL01040009
 70
64
 10
0
 20
0
 30
0
  3
AIGNBL01040009
  0
POLYLINE
  8
LAYER_1
 40
0.05
 41
0.05
 66
1
 10
0
 20
0
 30
0
 70
1
  0
VERTEX
  8
LAYER_1
 10
155.3969
 20
-246.58
 42
-0.03256094069
  0
VERTEX
  8
LAYER_1
 10
156.5576
 20
-246.5072
 42
-0.08241612935
  0
VERTEX
  8
LAYER_1
 10
157.5173
 20
-246.6416
 42
-0.07669938049
  0
VERTEX
  8
LAYER_1
 10
157.8691
 20
-246.8184
 42
-0.2484913661
  0
VERTEX
  8
LAYER_1
 10
158.279
 20
-247.6018
 42
-0.2263535337
  0
VERTEX
  8
LAYER_1
 10
157.9177
 20
-248.4014
 42
-0.1098394792
  0
VERTEX
  8
LAYER_1
 10
157.2932
 20
-248.7128
 42
-0.0656406839
  0
VERTEX
  8
LAYER_1
 10
156.4872
 20
-248.8127
 42
-0.06243203296
  0
VERTEX
  8
LAYER_1
 10
156.0015
 20
-248.7793
  0
VERTEX
  8
LAYER_1
 10
156.0015
 20
-250.2793
  0
VERTEX
  8
LAYER_1
 10
155.3969
 20
-250.2793
  0
SEQEND
  0
POLYLINE
  8
LAYER_1
 40
0.05
 41
0.05
 66
1
 10
0
 20
0
 30
0
 70
1
  0
VERTEX
  8
LAYER_1
 10
156.0015
 20
-248.3852
 42
0.04167858666
  0
VERTEX
  8
LAYER_1
 10
156.501
 20
-248.4245
 42
0.1033682296
  0
VERTEX
  8
LAYER_1
 10
157.216
 20
-248.2977
 42
0.300261568
  0
VERTEX
  8
LAYER_1
 10
157.6751
 20
-247.6242
 42
0.1736095203
  0
VERTEX
  8
LAYER_1
 10
157.5412
 20
-247.2193
 42
0.1518049397
  0
VERTEX
  8
LAYER_1
 10
157.1227
 20
-246.9614
 42
0.06878721899
  0
VERTEX
  8
LAYER_1
 10
156.5713
 20
-246.891
 42
0.0640598863
  0
VERTEX
  8
LAYER_1
 10
156.0015
 20
-246.93
  0
SEQEND
  0
ENDBLK
  0
BLOCK
  8
LAYER_1
  2
AIGNBL0104000A
 70
64
 10
0
 20
0
 30
0
  3
AIGNBL0104000A
  0
POLYLINE
  8
LAYER_1
 40
0.05
 41
0.05
 66
1
 10
0
 20
0
 30
0
 70
1
  0
VERTEX
  8
LAYER_1
 10
159.8218
 20
-246.8352
 42
-0.2759870412
  0
VERTEX
  8
LAYER_1
 10
159.6829
 20
-247.0742
 42
-0.1267055018
  0
VERTEX
  8
LAYER_1
 10
159.4325
 20
-247.1356
 42
-0.2239956238
  0
VERTEX
  8
LAYER_1
 10
159.1241
 20
-247.0039
 42
-0.1705452753
  0
VERTEX
  8
LAYER_1
 10
159.0645
 20
-246.8352
 42
-0.2641883957
  0
VERTEX
  8
LAYER_1
 10
159.2127
 20
-246.5896
 42
-0.1291792354
  0
VERTEX
  8
LAYER_1
 10
159.4459
 20
-246.53
 42
-0.2251681707
  0
VERTEX
  8
LAYER_1
 10
159.761
 20
-246.6599
 42
-0.1693099844
  0
SEQEND
  0
POLYLINE
  8
LAYER_1
 40
0.05
 41
0.05
 66
1
 10
0
 20
0
 30
0
 70
1
  0
VERTEX
  8
LAYER_1
 10
159.1407
 20
-250.2793
  0
VERTEX
  8
LAYER_1
 10
159.1407
 20
-247.5907
  0
VERTEX
  8
LAYER_1
 10
159.7515
 20
-247.5907
  0
VERTEX
  8
LAYER_1
 10
159.7515
 20
-250.2793
  0
SEQEND
  0
ENDBLK
  0
BLOCK
  8
LAYER_1
  2
AIGNBL0104000B
 70
64
 10
0
 20
0
 30
0
  3
AIGNBL0104000B
  0
POLYLINE
  8
LAYER_1
 40
0.05
 41
0.05
 66
1
 10
0
 20
0
 30
0
 70
1
  0
VERTEX
  8
LAYER_1
 10
161.6118
 20
-249.1011
  0
VERTEX
  8
LAYER_1
 10
161.1271
 20
-250.2793
  0
VERTEX
  8
LAYER_1
 10
160.5015
 20
-250.2793
  0
VERTEX
  8
LAYER_1
 10
162.0918
 20
-246.5355
  0
VERTEX
  8
LAYER_1
 10
162.8211
 20
-246.5355
  0
VERTEX
  8
LAYER_1
 10
164.4186
 20
-250.2793
  0
VERTEX
  8
LAYER_1
 10
163.7719
 20
-250.2793
  0
VERTEX
  8
LAYER_1
 10
163.2727
 20
-249.1011
  0
SEQEND
  0
POLYLINE
  8
LAYER_1
 40
0.05
 41
0.05
 66
1
 10
0
 20
0
 30
0
 70
1
  0
VERTEX
  8
LAYER_1
 10
163.1473
 20
-248.7245
  0
VERTEX
  8
LAYER_1
 10
162.6891
 20
-247.6459
  0
VERTEX
  8
LAYER_1
 10
162.4466
 20
-246.963
  0
VERTEX
  8
LAYER_1
 10
162.4321
 20
-246.963
  0
VERTEX
  8
LAYER_1
 10
162.1961
 20
-247.6414
  0
VERTEX
  8
LAYER_1
 10
161.7379
 20
-248.7245
  0
SEQEND
  0
ENDBLK
  0
BLOCK
  8
LAYER_1
  2
AIGNBL01030004
 70
64
 10
0
 20
0
 30
0
  3
AIGNBL01030004
  0
INSERT
  8
LAYER_1
  2
AIGNBL01040005
 10
0
 20
0
 30
0
  0
INSERT
  8
LAYER_1
  2
AIGNBL01040006
 10
0
 20
0
 30
0
  0
INSERT
  8
LAYER_1
  2
AIGNBL01040007
 10
0
 20
0
 30
0
  0
INSERT
  8
LAYER_1
  2
AIGNBL01040008
 10
0
 20
0
 30
0
  0
INSERT
  8
LAYER_1
  2
AIGNBL01040009
 10
0
 20
0
 30
0
  0
INSERT
  8
LAYER_1
  2
AIGNBL0104000A
 10
0
 20
0
 30
0
  0
INSERT
  8
LAYER_1
  2
AIGNBL0104000B
 10
0
 20
0
 30
0
  0
ENDBLK
  0
BLOCK
  8
LAYER_1
  2
AIGNBL0103000D
 70
64
 10
0
 20
0
 30
0
  3
AIGNBL0103000D
  0
POLYLINE
  8
LAYER_1
 40
0.05
 41
0.05
 66
1
 10
0
 20
0
 30
0
 70
1
  0
VERTEX
  8
LAYER_1
 10
137.3756
 20
-252.1676
  0
VERTEX
  8
LAYER_1
 10
137.9258
 20
-252.1676
  0
VERTEX
  8
LAYER_1
 10
137.9258
 20
-252.2609
  0
VERTEX
  8
LAYER_1
 10
137.2715
 20
-252.2609
  0
VERTEX
  8
LAYER_1
 10
137.2715
 20
-251.2339
  0
VERTEX
  8
LAYER_1
 10
137.9082
 20
-251.2339
  0
VERTEX
  8
LAYER_1
 10
137.9082
 20
-251.3266
  0
VERTEX
  8
LAYER_1
 10
137.3756
 20
-251.3266
  0
VERTEX
  8
LAYER_1
 10
137.3756
 20
-251.6787
  0
VERTEX
  8
LAYER_1
 10
137.8734
 20
-251.6787
  0
VERTEX
  8
LAYER_1
 10
137.8734
 20
-251.7717
  0
VERTEX
  8
LAYER_1
 10
137.3756
 20
-251.7717
  0
SEQEND
  0
ENDBLK
  0
BLOCK
  8
LAYER_1
  2
AIGNBL0103000E
 70
64
 10
0
 20
0
 30
0
  3
AIGNBL0103000E
  0
POLYLINE
  8
LAYER_1
 40
0.05
 41
0.05
 66
1
 10
0
 20
0
 30
0
 70
1
  0
VERTEX
  8
LAYER_1
 10
139.0589
 20
-252.1079
  0
VERTEX
  8
LAYER_1
 10
139.0613
 20
-252.1079
  0
VERTEX
  8
LAYER_1
 10
139.0613
 20
-251.2339
  0
VERTEX
  8
LAYER_1
 10
139.1663
 20
-251.2339
  0
VERTEX
  8
LAYER_1
 10
139.1663
 20
-252.2609
  0
VERTEX
  8
LAYER_1
 10
139.0365
 20
-252.2609
  0
VERTEX
  8
LAYER_1
 10
138.4384
 20
-251.3772
  0
VERTEX
  8
LAYER_1
 10
138.435
 20
-251.3772
  0
VERTEX
  8
LAYER_1
 10
138.435
 20
-252.2609
  0
VERTEX
  8
LAYER_1
 10
138.3306
 20
-252.2609
  0
VERTEX
  8
LAYER_1
 10
138.3306
 20
-251.2339
  0
VERTEX
  8
LAYER_1
 10
138.4611
 20
-251.2339
  0
SEQEND
  0
ENDBLK
  0
BLOCK
  8
LAYER_1
  2
AIGNBL0103000F
 70
64
 10
0
 20
0
 30
0
  3
AIGNBL0103000F
  0
POLYLINE
  8
LAYER_1
 40
0.05
 41
0.05
 66
1
 10
0
 20
0
 30
0
 70
1
  0
VERTEX
  8
LAYER_1
 10
139.637
 20
-252.0501
  0
VERTEX
  8
LAYER_1
 10
139.691
 20
-252.1527
 42
0.1791739205
  0
VERTEX
  8
LAYER_1
 10
139.8034
 20
-252.1937
  0
VERTEX
  8
LAYER_1
 10
139.8922
 20
-252.1744
  0
VERTEX
  8
LAYER_1
 10
139.948
 20
-252.1214
  0
VERTEX
  8
LAYER_1
 10
139.9763
 20
-252.0453
  0
VERTEX
  8
LAYER_1
 10
139.9853
 20
-251.956
  0
VERTEX
  8
LAYER_1
 10
139.9853
 20
-251.2339
  0
VERTEX
  8
LAYER_1
 10
140.0893
 20
-251.2339
  0
VERTEX
  8
LAYER_1
 10
140.0893
 20
-251.965
  0
VERTEX
  8
LAYER_1
 10
140.0783
 20
-252.0718
  0
VERTEX
  8
LAYER_1
 10
140.0369
 20
-252.1765
  0
VERTEX
  8
LAYER_1
 10
139.9529
 20
-252.2554
  0
VERTEX
  8
LAYER_1
 10
139.8147
 20
-252.2868
 42
-0.18823279
  0
VERTEX
  8
LAYER_1
 10
139.6311
 20
-252.2268
 42
-0.1779708983
  0
VERTEX
  8
LAYER_1
 10
139.5391
 20
-252.0769
  0
SEQEND
  0
ENDBLK
  0
BLOCK
  8
LAYER_1
  2
AIGNBL01030010
 70
64
 10
0
 20
0
 30
0
  3
AIGNBL01030010
  0
POLYLINE
  8
LAYER_1
 40
0.05
 41
0.05
 66
1
 10
0
 20
0
 30
0
 70
1
  0
VERTEX
  8
LAYER_1
 10
141.5693
 20
-251.7469
 42
-0.104348301
  0
VERTEX
  8
LAYER_1
 10
141.5279
 20
-251.9629
 42
-0.1013865216
  0
VERTEX
  8
LAYER_1
 10
141.4163
 20
-252.1338
  0
VERTEX
  8
LAYER_1
 10
141.2458
 20
-252.2461
 42
-0.09497960855
  0
VERTEX
  8
LAYER_1
 10
141.0332
 20
-252.2868
 42
-0.1003676177
  0
VERTEX
  8
LAYER_1
 10
140.8207
 20
-252.2461
  0
VERTEX
  8
LAYER_1
 10
140.6512
 20
-252.1338
 42
-0.09474436642
  0
VERTEX
  8
LAYER_1
 10
140.5389
 20
-251.9629
 42
-0.09317427323
  0
VERTEX
  8
LAYER_1
 10
140.4986
 20
-251.7469
 42
-0.1052531491
  0
VERTEX
  8
LAYER_1
 10
140.5389
 20
-251.5306
 42
-0.1000138279
  0
VERTEX
  8
LAYER_1
 10
140.6512
 20
-251.3604
 42
-0.09581503346
  0
VERTEX
  8
LAYER_1
 10
140.8207
 20
-251.2481
 42
-0.09561956468
  0
VERTEX
  8
LAYER_1
 10
141.0332
 20
-251.2071
 42
-0.1024782491
  0
VERTEX
  8
LAYER_1
 10
141.2458
 20
-251.2481
 42
-0.1014786584
  0
VERTEX
  8
LAYER_1
 10
141.4163
 20
-251.3604
 42
-0.09815577957
  0
VERTEX
  8
LAYER_1
 10
141.5279
 20
-251.5306
 42
-0.09523735002
  0
SEQEND
  0
POLYLINE
  8
LAYER_1
 40
0.05
 41
0.05
 66
1
 10
0
 20
0
 30
0
 70
1
  0
VERTEX
  8
LAYER_1
 10
141.4584
 20
-251.7476
  0
VERTEX
  8
LAYER_1
 10
141.4301
 20
-251.5767
  0
VERTEX
  8
LAYER_1
 10
141.3454
 20
-251.4344
  0
VERTEX
  8
LAYER_1
 10
141.211
 20
-251.337
 42
0.1026237584
  0
VERTEX
  8
LAYER_1
 10
141.0332
 20
-251.3001
 42
0.1147987019
  0
VERTEX
  8
LAYER_1
 10
140.8558
 20
-251.337
  0
VERTEX
  8
LAYER_1
 10
140.7225
 20
-251.4344
  0
VERTEX
  8
LAYER_1
 10
140.6374
 20
-251.5767
  0
VERTEX
  8
LAYER_1
 10
140.6081
 20
-251.7476
  0
VERTEX
  8
LAYER_1
 10
140.6374
 20
-251.9188
  0
VERTEX
  8
LAYER_1
 10
140.7225
 20
-252.0607
  0
VERTEX
  8
LAYER_1
 10
140.8558
 20
-252.1575
  0
VERTEX
  8
LAYER_1
 10
141.0332
 20
-252.1937
 42
0.1185100977
  0
VERTEX
  8
LAYER_1
 10
141.211
 20
-252.1575
  0
VERTEX
  8
LAYER_1
 10
141.3454
 20
-252.0607
  0
VERTEX
  8
LAYER_1
 10
141.4301
 20
-251.9188
  0
SEQEND
  0
ENDBLK
  0
BLOCK
  8
LAYER_1
  2
AIGNBL01030011
 70
64
 10
0
 20
0
 30
0
  3
AIGNBL01030011
  0
POLYLINE
  8
LAYER_1
 40
0.05
 41
0.05
 66
1
 10
0
 20
0
 30
0
 70
1
  0
VERTEX
  8
LAYER_1
 10
142.3393
 20
-252.2609
  0
VERTEX
  8
LAYER_1
 10
142.2349
 20
-252.2609
  0
VERTEX
  8
LAYER_1
 10
142.2349
 20
-251.8182
  0
VERTEX
  8
LAYER_1
 10
141.8504
 20
-251.2339
  0
VERTEX
  8
LAYER_1
 10
141.9813
 20
-251.2339
  0
VERTEX
  8
LAYER_1
 10
142.2904
 20
-251.7311
  0
VERTEX
  8
LAYER_1
 10
142.6022
 20
-251.2339
  0
VERTEX
  8
LAYER_1
 10
142.7234
 20
-251.2339
  0
VERTEX
  8
LAYER_1
 10
142.3393
 20
-251.8182
  0
SEQEND
  0
ENDBLK
  0
BLOCK
  8
LAYER_1
  2
AIGNBL01030012
 70
64
 10
0
 20
0
 30
0
  3
AIGNBL01030012
  0
POLYLINE
  8
LAYER_1
 40
0.05
 41
0.05
 66
1
 10
0
 20
0
 30
0
 70
1
  0
VERTEX
  8
LAYER_1
 10
143.6236
 20
-251.2339
  0
VERTEX
  8
LAYER_1
 10
143.9288
 20
-251.2339
  0
VERTEX
  8
LAYER_1
 10
144.047
 20
-251.2457
  0
VERTEX
  8
LAYER_1
 10
144.1528
 20
-251.288
  0
VERTEX
  8
LAYER_1
 10
144.2307
 20
-251.3686
  0
VERTEX
  8
LAYER_1
 10
144.2603
 20
-251.4961
 42
-0.1778951175
  0
VERTEX
  8
LAYER_1
 10
144.2103
 20
-251.6373
 42
-0.1614829203
  0
VERTEX
  8
LAYER_1
 10
144.078
 20
-251.7166
  0
VERTEX
  8
LAYER_1
 10
144.078
 20
-251.7194
 42
-0.1736511409
  0
VERTEX
  8
LAYER_1
 10
144.2434
 20
-251.7969
 42
-0.1925337955
  0
VERTEX
  8
LAYER_1
 10
144.3099
 20
-251.9764
  0
VERTEX
  8
LAYER_1
 10
144.2823
 20
-252.0928
  0
VERTEX
  8
LAYER_1
 10
144.2062
 20
-252.1831
  0
VERTEX
  8
LAYER_1
 10
144.0866
 20
-252.2402
  0
VERTEX
  8
LAYER_1
 10
143.9275
 20
-252.2609
  0
VERTEX
  8
LAYER_1
 10
143.6236
 20
-252.2609
  0
SEQEND
  0
POLYLINE
  8
LAYER_1
 40
0.05
 41
0.05
 66
1
 10
0
 20
0
 30
0
 70
1
  0
VERTEX
  8
LAYER_1
 10
143.7277
 20
-251.6832
  0
VERTEX
  8
LAYER_1
 10
143.9382
 20
-251.6832
  0
VERTEX
  8
LAYER_1
 10
144.0146
 20
-251.6742
  0
VERTEX
  8
LAYER_1
 10
144.0842
 20
-251.6453
  0
VERTEX
  8
LAYER_1
 10
144.1362
 20
-251.5888
  0
VERTEX
  8
LAYER_1
 10
144.1552
 20
-251.5034
  0
VERTEX
  8
LAYER_1
 10
144.1362
 20
-251.4203
  0
VERTEX
  8
LAYER_1
 10
144.0835
 20
-251.3638
  0
VERTEX
  8
LAYER_1
 10
144.005
 20
-251.3328
  0
VERTEX
  8
LAYER_1
 10
143.9089
 20
-251.3235
  0
VERTEX
  8
LAYER_1
 10
143.7277
 20
-251.3235
  0
SEQEND
  0
POLYLINE
  8
LAYER_1
 40
0.05
 41
0.05
 66
1
 10
0
 20
0
 30
0
 70
1
  0
VERTEX
  8
LAYER_1
 10
143.7277
 20
-252.171
  0
VERTEX
  8
LAYER_1
 10
143.9223
 20
-252.171
  0
VERTEX
  8
LAYER_1
 10
144.0301
 20
-252.1596
  0
VERTEX
  8
LAYER_1
 10
144.1204
 20
-252.1252
  0
VERTEX
  8
LAYER_1
 10
144.181
 20
-252.0625
  0
VERTEX
  8
LAYER_1
 10
144.2048
 20
-251.9705
 42
0.2546661425
  0
VERTEX
  8
LAYER_1
 10
144.1362
 20
-251.8189
 42
0.138509597
  0
VERTEX
  8
LAYER_1
 10
143.9413
 20
-251.7686
  0
VERTEX
  8
LAYER_1
 10
143.7277
 20
-251.7686
  0
SEQEND
  0
ENDBLK
  0
BLOCK
  8
LAYER_1
  2
AIGNBL01030013
 70
64
 10
0
 20
0
 30
0
  3
AIGNBL01030013
  0
POLYLINE
  8
LAYER_1
 40
0.05
 41
0.05
 66
1
 10
0
 20
0
 30
0
 70
1
  0
VERTEX
  8
LAYER_1
 10
144.7388
 20
-252.2609
  0
VERTEX
  8
LAYER_1
 10
144.6241
 20
-252.2609
  0
VERTEX
  8
LAYER_1
 10
145.0685
 20
-251.2339
  0
VERTEX
  8
LAYER_1
 10
145.1705
 20
-251.2339
  0
VERTEX
  8
LAYER_1
 10
145.6111
 20
-252.2609
  0
VERTEX
  8
LAYER_1
 10
145.4943
 20
-252.2609
  0
VERTEX
  8
LAYER_1
 10
145.3813
 20
-251.9912
  0
VERTEX
  8
LAYER_1
 10
144.8504
 20
-251.9912
  0
SEQEND
  0
POLYLINE
  8
LAYER_1
 40
0.05
 41
0.05
 66
1
 10
0
 20
0
 30
0
 70
1
  0
VERTEX
  8
LAYER_1
 10
144.8894
 20
-251.8947
  0
VERTEX
  8
LAYER_1
 10
145.3424
 20
-251.8947
  0
VERTEX
  8
LAYER_1
 10
145.1164
 20
-251.3493
  0
SEQEND
  0
ENDBLK
  0
BLOCK
  8
LAYER_1
  2
AIGNBL01030014
 70
64
 10
0
 20
0
 30
0
  3
AIGNBL01030014
  0
POLYLINE
  8
LAYER_1
 40
0.05
 41
0.05
 66
1
 10
0
 20
0
 30
0
 70
1
  0
VERTEX
  8
LAYER_1
 10
146.2915
 20
-252.2609
  0
VERTEX
  8
LAYER_1
 10
146.1871
 20
-252.2609
  0
VERTEX
  8
LAYER_1
 10
146.1871
 20
-251.3266
  0
VERTEX
  8
LAYER_1
 10
145.8426
 20
-251.3266
  0
VERTEX
  8
LAYER_1
 10
145.8426
 20
-251.2339
  0
VERTEX
  8
LAYER_1
 10
146.635
 20
-251.2339
  0
VERTEX
  8
LAYER_1
 10
146.635
 20
-251.3266
  0
VERTEX
  8
LAYER_1
 10
146.2915
 20
-251.3266
  0
SEQEND
  0
ENDBLK
  0
BLOCK
  8
LAYER_1
  2
AIGNBL01030015
 70
64
 10
0
 20
0
 30
0
  3
AIGNBL01030015
  0
POLYLINE
  8
LAYER_1
 40
0.05
 41
0.05
 66
1
 10
0
 20
0
 30
0
 70
1
  0
VERTEX
  8
LAYER_1
 10
146.9888
 20
-251.2339
  0
VERTEX
  8
LAYER_1
 10
147.0932
 20
-251.2339
  0
VERTEX
  8
LAYER_1
 10
147.0932
 20
-251.6787
  0
VERTEX
  8
LAYER_1
 10
147.654
 20
-251.6787
  0
VERTEX
  8
LAYER_1
 10
147.654
 20
-251.2339
  0
VERTEX
  8
LAYER_1
 10
147.7581
 20
-251.2339
  0
VERTEX
  8
LAYER_1
 10
147.7581
 20
-252.2609
  0
VERTEX
  8
LAYER_1
 10
147.654
 20
-252.2609
  0
VERTEX
  8
LAYER_1
 10
147.654
 20
-251.7745
  0
VERTEX
  8
LAYER_1
 10
147.0932
 20
-251.7745
  0
VERTEX
  8
LAYER_1
 10
147.0932
 20
-252.2609
  0
VERTEX
  8
LAYER_1
 10
146.9888
 20
-252.2609
  0
SEQEND
  0
ENDBLK
  0
BLOCK
  8
LAYER_1
  2
AIGNBL01030016
 70
64
 10
0
 20
0
 30
0
  3
AIGNBL01030016
  0
POLYLINE
  8
LAYER_1
 40
0.05
 41
0.05
 66
1
 10
0
 20
0
 30
0
 70
1
  0
VERTEX
  8
LAYER_1
 10
148.3351
 20
-252.2609
  0
VERTEX
  8
LAYER_1
 10
148.2311
 20
-252.2609
  0
VERTEX
  8
LAYER_1
 10
148.2311
 20
-251.2339
  0
VERTEX
  8
LAYER_1
 10
148.5322
 20
-251.2339
  0
VERTEX
  8
LAYER_1
 10
148.6724
 20
-251.2481
  0
VERTEX
  8
LAYER_1
 10
148.7844
 20
-251.2953
  0
VERTEX
  8
LAYER_1
 10
148.8571
 20
-251.38
  0
VERTEX
  8
LAYER_1
 10
148.8829
 20
-251.5078
  0
VERTEX
  8
LAYER_1
 10
148.8636
 20
-251.6108
  0
VERTEX
  8
LAYER_1
 10
148.8088
 20
-251.6911
  0
VERTEX
  8
LAYER_1
 10
148.7258
 20
-251.7459
  0
VERTEX
  8
LAYER_1
 10
148.6214
 20
-251.7717
  0
VERTEX
  8
LAYER_1
 10
148.9211
 20
-252.2609
  0
VERTEX
  8
LAYER_1
 10
148.7937
 20
-252.2609
  0
VERTEX
  8
LAYER_1
 10
148.5098
 20
-251.7807
  0
VERTEX
  8
LAYER_1
 10
148.3351
 20
-251.7807
  0
SEQEND
  0
POLYLINE
  8
LAYER_1
 40
0.05
 41
0.05
 66
1
 10
0
 20
0
 30
0
 70
1
  0
VERTEX
  8
LAYER_1
 10
148.3351
 20
-251.6904
  0
VERTEX
  8
LAYER_1
 10
148.517
 20
-251.6904
 42
0.1622417858
  0
VERTEX
  8
LAYER_1
 10
148.711
 20
-251.6453
 42
0.2500476248
  0
VERTEX
  8
LAYER_1
 10
148.7799
 20
-251.5078
  0
VERTEX
  8
LAYER_1
 10
148.7602
 20
-251.4224
  0
VERTEX
  8
LAYER_1
 10
148.7079
 20
-251.3652
  0
VERTEX
  8
LAYER_1
 10
148.6269
 20
-251.3338
  0
VERTEX
  8
LAYER_1
 10
148.5212
 20
-251.3235
  0
VERTEX
  8
LAYER_1
 10
148.3351
 20
-251.3235
  0
SEQEND
  0
ENDBLK
  0
BLOCK
  8
LAYER_1
  2
AIGNBL01030017
 70
64
 10
0
 20
0
 30
0
  3
AIGNBL01030017
  0
POLYLINE
  8
LAYER_1
 40
0.05
 41
0.05
 66
1
 10
0
 20
0
 30
0
 70
1
  0
VERTEX
  8
LAYER_1
 10
150.3154
 20
-251.7469
 42
-0.1015060182
  0
VERTEX
  8
LAYER_1
 10
150.2747
 20
-251.9629
 42
-0.09993540575
  0
VERTEX
  8
LAYER_1
 10
150.1624
 20
-252.1338
 42
-0.09525489566
  0
VERTEX
  8
LAYER_1
 10
149.9926
 20
-252.2461
 42
-0.09491251156
  0
VERTEX
  8
LAYER_1
 10
149.78
 20
-252.2868
 42
-0.1002015795
  0
VERTEX
  8
LAYER_1
 10
149.5674
 20
-252.2461
 42
-0.1016690689
  0
VERTEX
  8
LAYER_1
 10
149.3979
 20
-252.1338
 42
-0.09667300425
  0
VERTEX
  8
LAYER_1
 10
149.2856
 20
-251.9629
 42
-0.09262920428
  0
VERTEX
  8
LAYER_1
 10
149.2453
 20
-251.7469
 42
-0.09846568495
  0
VERTEX
  8
LAYER_1
 10
149.2856
 20
-251.5306
 42
-0.09950302227
  0
VERTEX
  8
LAYER_1
 10
149.3979
 20
-251.3604
 42
-0.09832237419
  0
VERTEX
  8
LAYER_1
 10
149.5674
 20
-251.2481
 42
-0.09564774702
  0
VERTEX
  8
LAYER_1
 10
149.78
 20
-251.2071
 42
-0.1014301699
  0
VERTEX
  8
LAYER_1
 10
149.9926
 20
-251.2481
 42
-0.1041253763
  0
VERTEX
  8
LAYER_1
 10
150.1624
 20
-251.3604
 42
-0.09489987116
  0
VERTEX
  8
LAYER_1
 10
150.2747
 20
-251.5306
 42
-0.09342113907
  0
SEQEND
  0
POLYLINE
  8
LAYER_1
 40
0.05
 41
0.05
 66
1
 10
0
 20
0
 30
0
 70
1
  0
VERTEX
  8
LAYER_1
 10
150.2051
 20
-251.7476
  0
VERTEX
  8
LAYER_1
 10
150.1762
 20
-251.5767
  0
VERTEX
  8
LAYER_1
 10
150.0921
 20
-251.4344
  0
VERTEX
  8
LAYER_1
 10
149.9581
 20
-251.337
 42
0.1022827687
  0
VERTEX
  8
LAYER_1
 10
149.78
 20
-251.3001
 42
0.1183846388
  0
VERTEX
  8
LAYER_1
 10
149.6026
 20
-251.337
  0
VERTEX
  8
LAYER_1
 10
149.4682
 20
-251.4344
  0
VERTEX
  8
LAYER_1
 10
149.3842
 20
-251.5767
  0
VERTEX
  8
LAYER_1
 10
149.3549
 20
-251.7476
  0
VERTEX
  8
LAYER_1
 10
149.3842
 20
-251.9188
  0
VERTEX
  8
LAYER_1
 10
149.4682
 20
-252.0607
  0
VERTEX
  8
LAYER_1
 10
149.6026
 20
-252.1575
 42
0.1007973502
  0
VERTEX
  8
LAYER_1
 10
149.78
 20
-252.1937
  0
VERTEX
  8
LAYER_1
 10
149.9581
 20
-252.1575
  0
VERTEX
  8
LAYER_1
 10
150.0921
 20
-252.0607
  0
VERTEX
  8
LAYER_1
 10
150.1762
 20
-251.9188
  0
SEQEND
  0
ENDBLK
  0
BLOCK
  8
LAYER_1
  2
AIGNBL01030018
 70
64
 10
0
 20
0
 30
0
  3
AIGNBL01030018
  0
POLYLINE
  8
LAYER_1
 40
0.05
 41
0.05
 66
1
 10
0
 20
0
 30
0
 70
1
  0
VERTEX
  8
LAYER_1
 10
151.7489
 20
-251.7469
 42
-0.1017020442
  0
VERTEX
  8
LAYER_1
 10
151.7086
 20
-251.9629
  0
VERTEX
  8
LAYER_1
 10
151.5963
 20
-252.1338
  0
VERTEX
  8
LAYER_1
 10
151.4264
 20
-252.2461
 42
-0.09495021158
  0
VERTEX
  8
LAYER_1
 10
151.2139
 20
-252.2868
 42
-0.1019502388
  0
VERTEX
  8
LAYER_1
 10
151.0013
 20
-252.2461
 42
-0.1021914323
  0
VERTEX
  8
LAYER_1
 10
150.8318
 20
-252.1338
 42
-0.09636018285
  0
VERTEX
  8
LAYER_1
 10
150.7188
 20
-251.9629
 42
-0.09364604827
  0
VERTEX
  8
LAYER_1
 10
150.6781
 20
-251.7469
 42
-0.1001287453
  0
VERTEX
  8
LAYER_1
 10
150.7188
 20
-251.5306
 42
-0.1037227634
  0
VERTEX
  8
LAYER_1
 10
150.8318
 20
-251.3604
 42
-0.0985967677
  0
VERTEX
  8
LAYER_1
 10
151.0013
 20
-251.2481
 42
-0.0957287822
  0
VERTEX
  8
LAYER_1
 10
151.2139
 20
-251.2071
 42
-0.1016365741
  0
VERTEX
  8
LAYER_1
 10
151.4264
 20
-251.2481
 42
-0.09861864621
  0
VERTEX
  8
LAYER_1
 10
151.5963
 20
-251.3604
 42
-0.09487953686
  0
VERTEX
  8
LAYER_1
 10
151.7086
 20
-251.5306
 42
-0.09256741039
  0
SEQEND
  0
POLYLINE
  8
LAYER_1
 40
0.05
 41
0.05
 66
1
 10
0
 20
0
 30
0
 70
1
  0
VERTEX
  8
LAYER_1
 10
151.639
 20
-251.7476
  0
VERTEX
  8
LAYER_1
 10
151.61
 20
-251.5767
  0
VERTEX
  8
LAYER_1
 10
151.526
 20
-251.4344
  0
VERTEX
  8
LAYER_1
 10
151.3916
 20
-251.337
 42
0.1025075331
  0
VERTEX
  8
LAYER_1
 10
151.2139
 20
-251.3001
 42
0.118884027
  0
VERTEX
  8
LAYER_1
 10
151.0361
 20
-251.337
  0
VERTEX
  8
LAYER_1
 10
150.9017
 20
-251.4344
  0
VERTEX
  8
LAYER_1
 10
150.818
 20
-251.5767
  0
VERTEX
  8
LAYER_1
 10
150.7887
 20
-251.7476
  0
VERTEX
  8
LAYER_1
 10
150.818
 20
-251.9188
  0
VERTEX
  8
LAYER_1
 10
150.9017
 20
-252.0607
  0
VERTEX
  8
LAYER_1
 10
151.0361
 20
-252.1575
 42
0.100589677
  0
VERTEX
  8
LAYER_1
 10
151.2139
 20
-252.1937
  0
VERTEX
  8
LAYER_1
 10
151.3916
 20
-252.1575
  0
VERTEX
  8
LAYER_1
 10
151.526
 20
-252.0607
  0
VERTEX
  8
LAYER_1
 10
151.61
 20
-251.9188
  0
SEQEND
  0
ENDBLK
  0
BLOCK
  8
LAYER_1
  2
AIGNBL01030019
 70
64
 10
0
 20
0
 30
0
  3
AIGNBL01030019
  0
POLYLINE
  8
LAYER_1
 40
0.05
 41
0.05
 66
1
 10
0
 20
0
 30
0
 70
1
  0
VERTEX
  8
LAYER_1
 10
152.6742
 20
-252.0839
  0
VERTEX
  8
LAYER_1
 10
152.6756
 20
-252.0839
  0
VERTEX
  8
LAYER_1
 10
153.0194
 20
-251.2339
  0
VERTEX
  8
LAYER_1
 10
153.1793
 20
-251.2339
  0
VERTEX
  8
LAYER_1
 10
153.1793
 20
-252.2609
  0
VERTEX
  8
LAYER_1
 10
153.0749
 20
-252.2609
  0
VERTEX
  8
LAYER_1
 10
153.0749
 20
-251.3686
  0
VERTEX
  8
LAYER_1
 10
153.0718
 20
-251.3686
  0
VERTEX
  8
LAYER_1
 10
152.7007
 20
-252.2609
  0
VERTEX
  8
LAYER_1
 10
152.646
 20
-252.2609
  0
VERTEX
  8
LAYER_1
 10
152.2743
 20
-251.3686
  0
VERTEX
  8
LAYER_1
 10
152.2708
 20
-251.3686
  0
VERTEX
  8
LAYER_1
 10
152.2708
 20
-252.2609
  0
VERTEX
  8
LAYER_1
 10
152.1668
 20
-252.2609
  0
VERTEX
  8
LAYER_1
 10
152.1668
 20
-251.2339
  0
VERTEX
  8
LAYER_1
 10
152.327
 20
-251.2339
  0
SEQEND
  0
ENDBLK
  0
BLOCK
  8
LAYER_1
  2
AIGNBL0103001A
 70
64
 10
0
 20
0
 30
0
  3
AIGNBL0103001A
  0
POLYLINE
  8
LAYER_1
 40
0.05
 41
0.05
 66
1
 10
0
 20
0
 30
0
 70
1
  0
VERTEX
  8
LAYER_1
 10
154.3196
 20
-252.1676
  0
VERTEX
  8
LAYER_1
 10
154.8694
 20
-252.1676
  0
VERTEX
  8
LAYER_1
 10
154.8694
 20
-252.2609
  0
VERTEX
  8
LAYER_1
 10
154.2145
 20
-252.2609
  0
VERTEX
  8
LAYER_1
 10
154.2145
 20
-251.2339
  0
VERTEX
  8
LAYER_1
 10
154.8522
 20
-251.2339
  0
VERTEX
  8
LAYER_1
 10
154.8522
 20
-251.3263
  0
VERTEX
  8
LAYER_1
 10
154.3196
 20
-251.3263
  0
VERTEX
  8
LAYER_1
 10
154.3196
 20
-251.6787
  0
VERTEX
  8
LAYER_1
 10
154.8167
 20
-251.6787
  0
VERTEX
  8
LAYER_1
 10
154.8167
 20
-251.7717
  0
VERTEX
  8
LAYER_1
 10
154.3196
 20
-251.7717
  0
SEQEND
  0
ENDBLK
  0
BLOCK
  8
LAYER_1
  2
AIGNBL0103001B
 70
64
 10
0
 20
0
 30
0
  3
AIGNBL0103001B
  0
POLYLINE
  8
LAYER_1
 40
0.05
 41
0.05
 66
1
 10
0
 20
0
 30
0
 70
1
  0
VERTEX
  8
LAYER_1
 10
155.6101
 20
-251.6484
  0
VERTEX
  8
LAYER_1
 10
155.8906
 20
-251.2339
  0
VERTEX
  8
LAYER_1
 10
156.0153
 20
-251.2339
  0
VERTEX
  8
LAYER_1
 10
155.6749
 20
-251.7221
  0
VERTEX
  8
LAYER_1
 10
156.0518
 20
-252.2609
  0
VERTEX
  8
LAYER_1
 10
155.9216
 20
-252.2609
  0
VERTEX
  8
LAYER_1
 10
155.6081
 20
-251.7979
  0
VERTEX
  8
LAYER_1
 10
155.296
 20
-252.2609
  0
VERTEX
  8
LAYER_1
 10
155.165
 20
-252.2609
  0
VERTEX
  8
LAYER_1
 10
155.5426
 20
-251.7211
  0
VERTEX
  8
LAYER_1
 10
155.1988
 20
-251.2339
  0
VERTEX
  8
LAYER_1
 10
155.329
 20
-251.2339
  0
SEQEND
  0
ENDBLK
  0
BLOCK
  8
LAYER_1
  2
AIGNBL0103001C
 70
64
 10
0
 20
0
 30
0
  3
AIGNBL0103001C
  0
POLYLINE
  8
LAYER_1
 40
0.05
 41
0.05
 66
1
 10
0
 20
0
 30
0
 70
1
  0
VERTEX
  8
LAYER_1
 10
156.4159
 20
-251.2339
  0
VERTEX
  8
LAYER_1
 10
156.706
 20
-251.2339
  0
VERTEX
  8
LAYER_1
 10
156.8487
 20
-251.2498
  0
VERTEX
  8
LAYER_1
 10
156.9575
 20
-251.3015
  0
VERTEX
  8
LAYER_1
 10
157.0288
 20
-251.3866
  0
VERTEX
  8
LAYER_1
 10
157.053
 20
-251.5078
  0
VERTEX
  8
LAYER_1
 10
157.0281
 20
-251.6291
  0
VERTEX
  8
LAYER_1
 10
156.9568
 20
-251.7145
  0
VERTEX
  8
LAYER_1
 10
156.8459
 20
-251.7659
  0
VERTEX
  8
LAYER_1
 10
156.7032
 20
-251.7831
  0
VERTEX
  8
LAYER_1
 10
156.5203
 20
-251.7831
  0
VERTEX
  8
LAYER_1
 10
156.5203
 20
-252.2609
  0
VERTEX
  8
LAYER_1
 10
156.4159
 20
-252.2609
  0
SEQEND
  0
POLYLINE
  8
LAYER_1
 40
0.05
 41
0.05
 66
1
 10
0
 20
0
 30
0
 70
1
  0
VERTEX
  8
LAYER_1
 10
156.5203
 20
-251.6949
  0
VERTEX
  8
LAYER_1
 10
156.6974
 20
-251.6949
 42
0.179800284
  0
VERTEX
  8
LAYER_1
 10
156.8848
 20
-251.6474
 42
0.2343125845
  0
VERTEX
  8
LAYER_1
 10
156.9489
 20
-251.5078
 42
0.2635647854
  0
VERTEX
  8
LAYER_1
 10
156.8824
 20
-251.3676
 42
0.1265134521
  0
VERTEX
  8
LAYER_1
 10
156.6974
 20
-251.3235
  0
VERTEX
  8
LAYER_1
 10
156.5203
 20
-251.3235
  0
SEQEND
  0
ENDBLK
  0
BLOCK
  8
LAYER_1
  2
AIGNBL0103001D
 70
64
 10
0
 20
0
 30
0
  3
AIGNBL0103001D
  0
POLYLINE
  8
LAYER_1
 40
0.05
 41
0.05
 66
1
 10
0
 20
0
 30
0
 70
1
  0
VERTEX
  8
LAYER_1
 10
157.5621
 20
-252.1676
  0
VERTEX
  8
LAYER_1
 10
158.1116
 20
-252.1676
  0
VERTEX
  8
LAYER_1
 10
158.1116
 20
-252.2609
  0
VERTEX
  8
LAYER_1
 10
157.4577
 20
-252.2609
  0
VERTEX
  8
LAYER_1
 10
157.4577
 20
-251.2339
  0
VERTEX
  8
LAYER_1
 10
158.0947
 20
-251.2339
  0
VERTEX
  8
LAYER_1
 10
158.0947
 20
-251.3263
  0
VERTEX
  8
LAYER_1
 10
157.5621
 20
-251.3263
  0
VERTEX
  8
LAYER_1
 10
157.5621
 20
-251.6787
  0
VERTEX
  8
LAYER_1
 10
158.0599
 20
-251.6787
  0
VERTEX
  8
LAYER_1
 10
158.0599
 20
-251.7717
  0
VERTEX
  8
LAYER_1
 10
157.5621
 20
-251.7717
  0
SEQEND
  0
ENDBLK
  0
BLOCK
  8
LAYER_1
  2
AIGNBL0103001E
 70
64
 10
0
 20
0
 30
0
  3
AIGNBL0103001E
  0
POLYLINE
  8
LAYER_1
 40
0.05
 41
0.05
 66
1
 10
0
 20
0
 30
0
 70
1
  0
VERTEX
  8
LAYER_1
 10
158.6208
 20
-252.2609
  0
VERTEX
  8
LAYER_1
 10
158.5168
 20
-252.2609
  0
VERTEX
  8
LAYER_1
 10
158.5168
 20
-251.2339
  0
VERTEX
  8
LAYER_1
 10
158.8185
 20
-251.2339
  0
VERTEX
  8
LAYER_1
 10
158.9584
 20
-251.2481
  0
VERTEX
  8
LAYER_1
 10
159.07
 20
-251.2953
  0
VERTEX
  8
LAYER_1
 10
159.1438
 20
-251.38
  0
VERTEX
  8
LAYER_1
 10
159.1696
 20
-251.5078
  0
VERTEX
  8
LAYER_1
 10
159.1493
 20
-251.6105
  0
VERTEX
  8
LAYER_1
 10
159.0945
 20
-251.6915
  0
VERTEX
  8
LAYER_1
 10
159.0111
 20
-251.7459
  0
VERTEX
  8
LAYER_1
 10
158.9067
 20
-251.7717
  0
VERTEX
  8
LAYER_1
 10
159.2075
 20
-252.2609
  0
VERTEX
  8
LAYER_1
 10
159.08
 20
-252.2609
  0
VERTEX
  8
LAYER_1
 10
158.7955
 20
-251.7803
  0
VERTEX
  8
LAYER_1
 10
158.6208
 20
-251.7803
  0
SEQEND
  0
POLYLINE
  8
LAYER_1
 40
0.05
 41
0.05
 66
1
 10
0
 20
0
 30
0
 70
1
  0
VERTEX
  8
LAYER_1
 10
158.6208
 20
-251.69
  0
VERTEX
  8
LAYER_1
 10
158.8027
 20
-251.69
 42
0.1625850216
  0
VERTEX
  8
LAYER_1
 10
158.9974
 20
-251.6453
 42
0.2500143464
  0
VERTEX
  8
LAYER_1
 10
159.0652
 20
-251.5078
  0
VERTEX
  8
LAYER_1
 10
159.047
 20
-251.4224
  0
VERTEX
  8
LAYER_1
 10
158.9943
 20
-251.3652
  0
VERTEX
  8
LAYER_1
 10
158.9123
 20
-251.3338
  0
VERTEX
  8
LAYER_1
 10
158.8065
 20
-251.3235
  0
VERTEX
  8
LAYER_1
 10
158.6208
 20
-251.3235
  0
SEQEND
  0
ENDBLK
  0
BLOCK
  8
LAYER_1
  2
AIGNBL0103001F
 70
64
 10
0
 20
0
 30
0
  3
AIGNBL0103001F
  0
POLYLINE
  8
LAYER_1
 40
0.05
 41
0.05
 66
1
 10
0
 20
0
 30
0
 70
1
  0
VERTEX
  8
LAYER_1
 10
159.6898
 20
-252.2609
  0
VERTEX
  8
LAYER_1
 10
159.5865
 20
-252.2609
  0
VERTEX
  8
LAYER_1
 10
159.5865
 20
-251.2339
  0
VERTEX
  8
LAYER_1
 10
159.6898
 20
-251.2339
  0
SEQEND
  0
ENDBLK
  0
BLOCK
  8
LAYER_1
  2
AIGNBL01030020
 70
64
 10
0
 20
0
 30
0
  3
AIGNBL01030020
  0
POLYLINE
  8
LAYER_1
 40
0.05
 41
0.05
 66
1
 10
0
 20
0
 30
0
 70
1
  0
VERTEX
  8
LAYER_1
 10
160.2676
 20
-252.1676
  0
VERTEX
  8
LAYER_1
 10
160.8174
 20
-252.1676
  0
VERTEX
  8
LAYER_1
 10
160.8174
 20
-252.2609
  0
VERTEX
  8
LAYER_1
 10
160.1639
 20
-252.2609
  0
VERTEX
  8
LAYER_1
 10
160.1639
 20
-251.2339
  0
VERTEX
  8
LAYER_1
 10
160.8005
 20
-251.2339
  0
VERTEX
  8
LAYER_1
 10
160.8005
 20
-251.3263
  0
VERTEX
  8
LAYER_1
 10
160.2676
 20
-251.3263
  0
VERTEX
  8
LAYER_1
 10
160.2676
 20
-251.6787
  0
VERTEX
  8
LAYER_1
 10
160.7654
 20
-251.6787
  0
VERTEX
  8
LAYER_1
 10
160.7654
 20
-251.7717
  0
VERTEX
  8
LAYER_1
 10
160.2676
 20
-251.7717
  0
SEQEND
  0
ENDBLK
  0
BLOCK
  8
LAYER_1
  2
AIGNBL01030021
 70
64
 10
0
 20
0
 30
0
  3
AIGNBL01030021
  0
POLYLINE
  8
LAYER_1
 40
0.05
 41
0.05
 66
1
 10
0
 20
0
 30
0
 70
1
  0
VERTEX
  8
LAYER_1
 10
161.9505
 20
-252.1079
  0
VERTEX
  8
LAYER_1
 10
161.9536
 20
-252.1079
  0
VERTEX
  8
LAYER_1
 10
161.9536
 20
-251.2339
  0
VERTEX
  8
LAYER_1
 10
162.058
 20
-251.2339
  0
VERTEX
  8
LAYER_1
 10
162.058
 20
-252.2609
  0
VERTEX
  8
LAYER_1
 10
161.9277
 20
-252.2609
  0
VERTEX
  8
LAYER_1
 10
161.3297
 20
-251.3772
  0
VERTEX
  8
LAYER_1
 10
161.3266
 20
-251.3772
  0
VERTEX
  8
LAYER_1
 10
161.3266
 20
-252.2609
  0
VERTEX
  8
LAYER_1
 10
161.2222
 20
-252.2609
  0
VERTEX
  8
LAYER_1
 10
161.2222
 20
-251.2339
  0
VERTEX
  8
LAYER_1
 10
161.3535
 20
-251.2339
  0
SEQEND
  0
ENDBLK
  0
BLOCK
  8
LAYER_1
  2
AIGNBL01030022
 70
64
 10
0
 20
0
 30
0
  3
AIGNBL01030022
  0
POLYLINE
  8
LAYER_1
 40
0.05
 41
0.05
 66
1
 10
0
 20
0
 30
0
 70
1
  0
VERTEX
  8
LAYER_1
 10
163.396
 20
-252.0942
  0
VERTEX
  8
LAYER_1
 10
163.3323
 20
-252.1679
  0
VERTEX
  8
LAYER_1
 10
163.2469
 20
-252.2295
  0
VERTEX
  8
LAYER_1
 10
163.1394
 20
-252.2716
  0
VERTEX
  8
LAYER_1
 10
163.0112
 20
-252.2868
 42
-0.1009164681
  0
VERTEX
  8
LAYER_1
 10
162.7966
 20
-252.2461
 42
-0.1027581013
  0
VERTEX
  8
LAYER_1
 10
162.6271
 20
-252.1335
 42
-0.1010578842
  0
VERTEX
  8
LAYER_1
 10
162.5162
 20
-251.9633
 42
-0.09298732079
  0
VERTEX
  8
LAYER_1
 10
162.4759
 20
-251.7469
 42
-0.1023262951
  0
VERTEX
  8
LAYER_1
 10
162.5169
 20
-251.5306
 42
-0.1009138363
  0
VERTEX
  8
LAYER_1
 10
162.6285
 20
-251.3604
  0
VERTEX
  8
LAYER_1
 10
162.798
 20
-251.2481
 42
-0.09535690024
  0
VERTEX
  8
LAYER_1
 10
163.0112
 20
-251.2071
  0
VERTEX
  8
LAYER_1
 10
163.1222
 20
-251.2191
  0
VERTEX
  8
LAYER_1
 10
163.2252
 20
-251.2522
  0
VERTEX
  8
LAYER_1
 10
163.3117
 20
-251.3035
  0
VERTEX
  8
LAYER_1
 10
163.3767
 20
-251.3711
  0
VERTEX
  8
LAYER_1
 10
163.2906
 20
-251.4355
  0
VERTEX
  8
LAYER_1
 10
163.2469
 20
-251.3858
  0
VERTEX
  8
LAYER_1
 10
163.1835
 20
-251.3421
  0
VERTEX
  8
LAYER_1
 10
163.1043
 20
-251.3114
  0
VERTEX
  8
LAYER_1
 10
163.0126
 20
-251.3001
  0
VERTEX
  8
LAYER_1
 10
162.8338
 20
-251.3362
  0
VERTEX
  8
LAYER_1
 10
162.6998
 20
-251.4338
  0
VERTEX
  8
LAYER_1
 10
162.6147
 20
-251.5764
  0
VERTEX
  8
LAYER_1
 10
162.5868
 20
-251.7469
  0
VERTEX
  8
LAYER_1
 10
162.6164
 20
-251.9178
  0
VERTEX
  8
LAYER_1
 10
162.7012
 20
-252.0601
  0
VERTEX
  8
LAYER_1
 10
162.8356
 20
-252.1575
 42
0.1012189446
  0
VERTEX
  8
LAYER_1
 10
163.0126
 20
-252.1937
  0
VERTEX
  8
LAYER_1
 10
163.1804
 20
-252.1575
 42
0.1297589768
  0
VERTEX
  8
LAYER_1
 10
163.3148
 20
-252.0414
  0
SEQEND
  0
ENDBLK
  0
BLOCK
  8
LAYER_1
  2
AIGNBL01030023
 70
64
 10
0
 20
0
 30
0
  3
AIGNBL01030023
  0
POLYLINE
  8
LAYER_1
 40
0.05
 41
0.05
 66
1
 10
0
 20
0
 30
0
 70
1
  0
VERTEX
  8
LAYER_1
 10
163.8801
 20
-252.1676
  0
VERTEX
  8
LAYER_1
 10
164.4299
 20
-252.1676
  0
VERTEX
  8
LAYER_1
 10
164.4299
 20
-252.2609
  0
VERTEX
  8
LAYER_1
 10
163.7764
 20
-252.2609
  0
VERTEX
  8
LAYER_1
 10
163.7764
 20
-251.2339
  0
VERTEX
  8
LAYER_1
 10
164.4127
 20
-251.2339
  0
VERTEX
  8
LAYER_1
 10
164.4127
 20
-251.3263
  0
VERTEX
  8
LAYER_1
 10
163.8801
 20
-251.3263
  0
VERTEX
  8
LAYER_1
 10
163.8801
 20
-251.6787
  0
VERTEX
  8
LAYER_1
 10
164.3782
 20
-251.6787
  0
VERTEX
  8
LAYER_1
 10
164.3782
 20
-251.7717
  0
VERTEX
  8
LAYER_1
 10
163.8801
 20
-251.7717
  0
SEQEND
  0
ENDBLK
  0
BLOCK
  8
LAYER_1
  2
AIGNBL01020003
 70
64
 10
0
 20
0
 30
0
  3
AIGNBL01020003
  0
INSERT
  8
LAYER_1
  2
AIGNBL01030004
 10
0
 20
0
 30
0
  0
ENDBLK
  0
BLOCK
  8
LAYER_1
  2
AIGNBL0102000C
 70
64
 10
0
 20
0
 30
0
  3
AIGNBL0102000C
  0
INSERT
  8
LAYER_1
  2
AIGNBL0103000D
 10
0
 20
0
 30
0
  0
INSERT
  8
LAYER_1
  2
AIGNBL0103000E
 10
0
 20
0
 30
0
  0
INSERT
  8
LAYER_1
  2
AIGNBL0103000F
 10
0
 20
0
 30
0
  0
INSERT
  8
LAYER_1
  2
AIGNBL01030010
 10
0
 20
0
 30
0
  0
INSERT
  8
LAYER_1
  2
AIGNBL01030011
 10
0
 20
0
 30
0
  0
INSERT
  8
LAYER_1
  2
AIGNBL01030012
 10
0
 20
0
 30
0
  0
INSERT
  8
LAYER_1
  2
AIGNBL01030013
 10
0
 20
0
 30
0
  0
INSERT
  8
LAYER_1
  2
AIGNBL01030014
 10
0
 20
0
 30
0
  0
INSERT
  8
LAYER_1
  2
AIGNBL01030015
 10
0
 20
0
 30
0
  0
INSERT
  8
LAYER_1
  2
AIGNBL01030016
 10
0
 20
0
 30
0
  0
INSERT
  8
LAYER_1
  2
AIGNBL01030017
 10
0
 20
0
 30
0
  0
INSERT
  8
LAYER_1
  2
AIGNBL01030018
 10
0
 20
0
 30
0
  0
INSERT
  8
LAYER_1
  2
AIGNBL01030019
 10
0
 20
0
 30
0
  0
INSERT
  8
LAYER_1
  2
AIGNBL0103001A
 10
0
 20
0
 30
0
  0
INSERT
  8
LAYER_1
  2
AIGNBL0103001B
 10
0
 20
0
 30
0
  0
INSERT
  8
LAYER_1
  2
AIGNBL0103001C
 10
0
 20
0
 30
0
  0
INSERT
  8
LAYER_1
  2
AIGNBL0103001D
 10
0
 20
0
 30
0
  0
INSERT
  8
LAYER_1
  2
AIGNBL0103001E
 10
0
 20
0
 30
0
  0
INSERT
  8
LAYER_1
  2
AIGNBL0103001F
 10
0
 20
0
 30
0
  0
INSERT
  8
LAYER_1
  2
AIGNBL01030020
 10
0
 20
0
 30
0
  0
INSERT
  8
LAYER_1
  2
AIGNBL01030021
 10
0
 20
0
 30
0
  0
INSERT
  8
LAYER_1
  2
AIGNBL01030022
 10
0
 20
0
 30
0
  0
INSERT
  8
LAYER_1
  2
AIGNBL01030023
 10
0
 20
0
 30
0
  0
ENDBLK
  0
BLOCK
  8
LAYER_1
  2
AIGNBL01020025
 70
64
 10
0
 20
0
 30
0
  3
AIGNBL01020025
  0
POLYLINE
  8
LAYER_1
 40
0.2469
 41
0.2469
 66
1
 10
0
 20
0
 30
0
  0
VERTEX
  8
LAYER_1
 10
141.2729
 20
-95.3171
  0
VERTEX
  8
LAYER_1
 10
153.8764
 20
-95.3171
  0
SEQEND
  0
ENDBLK
  0
BLOCK
  8
LAYER_1
  2
AIGNBL01020026
 70
64
 10
0
 20
0
 30
0
  3
AIGNBL01020026
  0
POLYLINE
  8
LAYER_1
 40
0.2469
 41
0.2469
 66
1
 10
0
 20
0
 30
0
  0
VERTEX
  8
LAYER_1
 10
106.2251
 20
-152.2785
  0
VERTEX
  8
LAYER_1
 10
153.8764
 20
-152.2785
  0
SEQEND
  0
ENDBLK
  0
BLOCK
  8
LAYER_1
  2
AIGNBL01020027
 70
64
 10
0
 20
0
 30
0
  3
AIGNBL01020027
  0
POLYLINE
  8
LAYER_1
 40
0.127
 41
0.127
 66
1
 10
0
 20
0
 30
0
  0
VERTEX
  8
LAYER_1
 10
153.6264
 20
-96.3171
  0
VERTEX
  8
LAYER_1
 10
153.6264
 20
-151.2785
  0
SEQEND
  0
ENDBLK
  0
BLOCK
  8
LAYER_1
  2
AIGNBL01020028
 70
64
 10
0
 20
0
 30
0
  3
AIGNBL01020028
  0
POLYLINE
  8
LAYER_1
 40
0.05
 41
0.05
 66
1
 10
0
 20
0
 30
0
 70
1
  0
VERTEX
  8
LAYER_1
 10
153.4597
 20
-96.3171
  0
VERTEX
  8
LAYER_1
 10
153.793
 20
-96.3171
  0
VERTEX
  8
LAYER_1
 10
153.6264
 20
-95.3171
  0
SEQEND
  0
ENDBLK
  0
BLOCK
  8
LAYER_1
  2
AIGNBL01020029
 70
64
 10
0
 20
0
 30
0
  3
AIGNBL01020029
  0
POLYLINE
  8
LAYER_1
 40
0.05
 41
0.05
 66
1
 10
0
 20
0
 30
0
 70
1
  0
VERTEX
  8
LAYER_1
 10
153.4597
 20
-151.2785
  0
VERTEX
  8
LAYER_1
 10
153.793
 20
-151.2785
  0
VERTEX
  8
LAYER_1
 10
153.6264
 20
-152.2785
  0
SEQEND
  0
ENDBLK
  0
BLOCK
  8
LAYER_1
  2
AIGNBL0102002A
 70
64
 10
0
 20
0
 30
0
  3
AIGNBL0102002A
  0
TEXT
  8
LAYER_1
 10
153.3129
 20
-127.2008
 11
153.3129
 21
-127.2008
 40
4.0981
 41
0.5
 50
89.99999999
  1
229
  0
ENDBLK
  0
BLOCK
  8
LAYER_1
  2
AIGNBL0102002C
 70
64
 10
0
 20
0
 30
0
  3
AIGNBL0102002C
  0
POLYLINE
  8
LAYER_1
 40
0.2469
 41
0.2469
 66
1
 10
0
 20
0
 30
0
  0
VERTEX
  8
LAYER_1
 10
93.4751
 20
-152.2785
  0
VERTEX
  8
LAYER_1
 10
86.1468
 20
-152.2785
  0
SEQEND
  0
ENDBLK
  0
BLOCK
  8
LAYER_1
  2
AIGNBL0102002D
 70
64
 10
0
 20
0
 30
0
  3
AIGNBL0102002D
  0
POLYLINE
  8
LAYER_1
 40
0.2469
 41
0.2469
 66
1
 10
0
 20
0
 30
0
  0
VERTEX
  8
LAYER_1
 10
94.2876
 20
-74.1635
  0
VERTEX
  8
LAYER_1
 10
86.1468
 20
-74.1635
  0
SEQEND
  0
ENDBLK
  0
BLOCK
  8
LAYER_1
  2
AIGNBL0102002E
 70
64
 10
0
 20
0
 30
0
  3
AIGNBL0102002E
  0
POLYLINE
  8
LAYER_1
 40
0.127
 41
0.127
 66
1
 10
0
 20
0
 30
0
  0
VERTEX
  8
LAYER_1
 10
86.3968
 20
-151.2785
  0
VERTEX
  8
LAYER_1
 10
86.3968
 20
-75.1635
  0
SEQEND
  0
ENDBLK
  0
BLOCK
  8
LAYER_1
  2
AIGNBL0102002F
 70
64
 10
0
 20
0
 30
0
  3
AIGNBL0102002F
  0
POLYLINE
  8
LAYER_1
 40
0.05
 41
0.05
 66
1
 10
0
 20
0
 30
0
 70
1
  0
VERTEX
  8
LAYER_1
 10
86.2301
 20
-151.2785
  0
VERTEX
  8
LAYER_1
 10
86.5635
 20
-151.2785
  0
VERTEX
  8
LAYER_1
 10
86.3968
 20
-152.2785
  0
SEQEND
  0
ENDBLK
  0
BLOCK
  8
LAYER_1
  2
AIGNBL01020030
 70
64
 10
0
 20
0
 30
0
  3
AIGNBL01020030
  0
POLYLINE
  8
LAYER_1
 40
0.05
 41
0.05
 66
1
 10
0
 20
0
 30
0
 70
1
  0
VERTEX
  8
LAYER_1
 10
86.2301
 20
-75.1635
  0
VERTEX
  8
LAYER_1
 10
86.5635
 20
-75.1635
  0
VERTEX
  8
LAYER_1
 10
86.3968
 20
-74.1635
  0
SEQEND
  0
ENDBLK
  0
BLOCK
  8
LAYER_1
  2
AIGNBL01020031
 70
64
 10
0
 20
0
 30
0
  3
AIGNBL01020031
  0
TEXT
  8
LAYER_1
 10
86.0791
 20
-116.6068
 11
86.0791
 21
-116.6068
 40
4.0981
 41
0.5
 50
89.99999999
  1
312
  0
ENDBLK
  0
BLOCK
  8
LAYER_1
  2
AIGNBL01020038
 70
64
 10
0
 20
0
 30
0
  3
AIGNBL01020038
  0
POLYLINE
  8
LAYER_1
 40
0.2469
 41
0.2469
 66
1
 10
0
 20
0
 30
0
  0
VERTEX
  8
LAYER_1
 10
140.8979
 20
-94.9421
  0
VERTEX
  8
LAYER_1
 10
140.8979
 20
-71.2885
  0
SEQEND
  0
ENDBLK
  0
BLOCK
  8
LAYER_1
  2
AIGNBL01020039
 70
64
 10
0
 20
0
 30
0
  3
AIGNBL01020039
  0
POLYLINE
  8
LAYER_1
 40
0.2469
 41
0.2469
 66
1
 10
0
 20
0
 30
0
  0
VERTEX
  8
LAYER_1
 10
100.1001
 20
-72.8392
  0
VERTEX
  8
LAYER_1
 10
100.1001
 20
-71.2885
  0
SEQEND
  0
ENDBLK
  0
BLOCK
  8
LAYER_1
  2
AIGNBL0102003A
 70
64
 10
0
 20
0
 30
0
  3
AIGNBL0102003A
  0
POLYLINE
  8
LAYER_1
 40
0.127
 41
0.127
 66
1
 10
0
 20
0
 30
0
  0
VERTEX
  8
LAYER_1
 10
139.8979
 20
-71.5385
  0
VERTEX
  8
LAYER_1
 10
101.1001
 20
-71.5385
  0
SEQEND
  0
ENDBLK
  0
BLOCK
  8
LAYER_1
  2
AIGNBL0102003B
 70
64
 10
0
 20
0
 30
0
  3
AIGNBL0102003B
  0
POLYLINE
  8
LAYER_1
 40
0.05
 41
0.05
 66
1
 10
0
 20
0
 30
0
 70
1
  0
VERTEX
  8
LAYER_1
 10
139.8979
 20
-71.3718
  0
VERTEX
  8
LAYER_1
 10
139.8979
 20
-71.7051
  0
VERTEX
  8
LAYER_1
 10
140.8979
 20
-71.5385
  0
SEQEND
  0
ENDBLK
  0
BLOCK
  8
LAYER_1
  2
AIGNBL0102003C
 70
64
 10
0
 20
0
 30
0
  3
AIGNBL0102003C
  0
POLYLINE
  8
LAYER_1
 40
0.05
 41
0.05
 66
1
 10
0
 20
0
 30
0
 70
1
  0
VERTEX
  8
LAYER_1
 10
101.1001
 20
-71.3718
  0
VERTEX
  8
LAYER_1
 10
101.1001
 20
-71.7051
  0
VERTEX
  8
LAYER_1
 10
100.1001
 20
-71.5385
  0
SEQEND
  0
ENDBLK
  0
BLOCK
  8
LAYER_1
  2
AIGNBL0102003D
 70
64
 10
0
 20
0
 30
0
  3
AIGNBL0102003D
  0
TEXT
  8
LAYER_1
 10
122.6285
 20
-71.2209
 11
122.6285
 21
-71.2209
 40
4.0981
 41
0.5
  1
162
  0
ENDBLK
  0
BLOCK
  8
LAYER_1
  2
AIGNBL0102003F
 70
64
 10
0
 20
0
 30
0
  3
AIGNBL0102003F
  0
POLYLINE
  8
LAYER_1
 40
0.2469
 41
0.2469
 66
1
 10
0
 20
0
 30
0
  0
VERTEX
  8
LAYER_1
 10
95.9126
 20
-153.0044
  0
VERTEX
  8
LAYER_1
 10
95.9126
 20
-163.5036
  0
SEQEND
  0
ENDBLK
  0
BLOCK
  8
LAYER_1
  2
AIGNBL01020040
 70
64
 10
0
 20
0
 30
0
  3
AIGNBL01020040
  0
POLYLINE
  8
LAYER_1
 40
0.2469
 41
0.2469
 66
1
 10
0
 20
0
 30
0
  0
VERTEX
  8
LAYER_1
 10
104.2876
 20
-152.9623
  0
VERTEX
  8
LAYER_1
 10
104.2876
 20
-163.5036
  0
SEQEND
  0
ENDBLK
  0
BLOCK
  8
LAYER_1
  2
AIGNBL01020041
 70
64
 10
0
 20
0
 30
0
  3
AIGNBL01020041
  0
POLYLINE
  8
LAYER_1
 40
0.127
 41
0.127
 66
1
 10
0
 20
0
 30
0
  0
VERTEX
  8
LAYER_1
 10
96.9126
 20
-163.2536
  0
VERTEX
  8
LAYER_1
 10
103.2876
 20
-163.2536
  0
SEQEND
  0
ENDBLK
  0
BLOCK
  8
LAYER_1
  2
AIGNBL01020042
 70
64
 10
0
 20
0
 30
0
  3
AIGNBL01020042
  0
POLYLINE
  8
LAYER_1
 40
0.127
 41
0.127
 66
1
 10
0
 20
0
 30
0
  0
VERTEX
  8
LAYER_1
 10
104.2876
 20
-163.2536
  0
VERTEX
  8
LAYER_1
 10
127.413
 20
-163.2536
  0
SEQEND
  0
ENDBLK
  0
BLOCK
  8
LAYER_1
  2
AIGNBL01020043
 70
64
 10
0
 20
0
 30
0
  3
AIGNBL01020043
  0
POLYLINE
  8
LAYER_1
 40
0.05
 41
0.05
 66
1
 10
0
 20
0
 30
0
 70
1
  0
VERTEX
  8
LAYER_1
 10
96.9126
 20
-163.087
  0
VERTEX
  8
LAYER_1
 10
96.9126
 20
-163.4203
  0
VERTEX
  8
LAYER_1
 10
95.9126
 20
-163.2536
  0
SEQEND
  0
ENDBLK
  0
BLOCK
  8
LAYER_1
  2
AIGNBL01020044
 70
64
 10
0
 20
0
 30
0
  3
AIGNBL01020044
  0
POLYLINE
  8
LAYER_1
 40
0.05
 41
0.05
 66
1
 10
0
 20
0
 30
0
 70
1
  0
VERTEX
  8
LAYER_1
 10
103.2876
 20
-163.087
  0
VERTEX
  8
LAYER_1
 10
103.2876
 20
-163.4203
  0
VERTEX
  8
LAYER_1
 10
104.2876
 20
-163.2536
  0
SEQEND
  0
ENDBLK
  0
BLOCK
  8
LAYER_1
  2
AIGNBL01020045
 70
64
 10
0
 20
0
 30
0
  3
AIGNBL01020045
  0
TEXT
  8
LAYER_1
 10
107.0797
 20
-162.2529
 11
107.0797
 21
-162.2529
 40
4.0981
 41
0.5
  1
min. 33,5
  0
ENDBLK
  0
BLOCK
  8
LAYER_1
  2
AIGNBL01020047
 70
64
 10
0
 20
0
 30
0
  3
AIGNBL01020047
  0
POLYLINE
  8
LAYER_1
 40
0.2469
 41
0.2469
 66
1
 10
0
 20
0
 30
0
  0
VERTEX
  8
LAYER_1
 10
106.2251
 20
-152.2785
  0
VERTEX
  8
LAYER_1
 10
112.4544
 20
-152.2785
  0
SEQEND
  0
ENDBLK
  0
BLOCK
  8
LAYER_1
  2
AIGNBL01020048
 70
64
 10
0
 20
0
 30
0
  3
AIGNBL01020048
  0
POLYLINE
  8
LAYER_1
 40
0.2469
 41
0.2469
 66
1
 10
0
 20
0
 30
0
  0
VERTEX
  8
LAYER_1
 10
106.6367
 20
-157.5285
  0
VERTEX
  8
LAYER_1
 10
112.4544
 20
-157.5285
  0
SEQEND
  0
ENDBLK
  0
BLOCK
  8
LAYER_1
  2
AIGNBL01020049
 70
64
 10
0
 20
0
 30
0
  3
AIGNBL01020049
  0
POLYLINE
  8
LAYER_1
 40
0.127
 41
0.127
 66
1
 10
0
 20
0
 30
0
  0
VERTEX
  8
LAYER_1
 10
112.2044
 20
-156.5285
  0
VERTEX
  8
LAYER_1
 10
112.2044
 20
-153.2785
  0
SEQEND
  0
ENDBLK
  0
BLOCK
  8
LAYER_1
  2
AIGNBL0102004A
 70
64
 10
0
 20
0
 30
0
  3
AIGNBL0102004A
  0
POLYLINE
  8
LAYER_1
 40
0.127
 41
0.127
 66
1
 10
0
 20
0
 30
0
  0
VERTEX
  8
LAYER_1
 10
112.2044
 20
-152.2785
  0
VERTEX
  8
LAYER_1
 10
112.2044
 20
-136.2518
  0
SEQEND
  0
ENDBLK
  0
BLOCK
  8
LAYER_1
  2
AIGNBL0102004B
 70
64
 10
0
 20
0
 30
0
  3
AIGNBL0102004B
  0
POLYLINE
  8
LAYER_1
 40
0.05
 41
0.05
 66
1
 10
0
 20
0
 30
0
 70
1
  0
VERTEX
  8
LAYER_1
 10
112.0377
 20
-156.5285
  0
VERTEX
  8
LAYER_1
 10
112.371
 20
-156.5285
  0
VERTEX
  8
LAYER_1
 10
112.2044
 20
-157.5285
  0
SEQEND
  0
ENDBLK
  0
BLOCK
  8
LAYER_1
  2
AIGNBL0102004C
 70
64
 10
0
 20
0
 30
0
  3
AIGNBL0102004C
  0
POLYLINE
  8
LAYER_1
 40
0.05
 41
0.05
 66
1
 10
0
 20
0
 30
0
 70
1
  0
VERTEX
  8
LAYER_1
 10
112.0377
 20
-153.2785
  0
VERTEX
  8
LAYER_1
 10
112.371
 20
-153.2785
  0
VERTEX
  8
LAYER_1
 10
112.2044
 20
-152.2785
  0
SEQEND
  0
ENDBLK
  0
BLOCK
  8
LAYER_1
  2
AIGNBL0102004D
 70
64
 10
0
 20
0
 30
0
  3
AIGNBL0102004D
  0
TEXT
  8
LAYER_1
 10
111.887
 20
-151.1773
 11
111.887
 21
-151.1773
 40
4.0981
 41
0.5
 50
89.99999999
  1
max. 40
  0
ENDBLK
  0
BLOCK
  8
LAYER_1
  2
AIGNBL0102004F
 70
64
 10
0
 20
0
 30
0
  3
AIGNBL0102004F
  0
POLYLINE
  8
LAYER_1
 40
0.2469
 41
0.2469
 66
1
 10
0
 20
0
 30
0
  0
VERTEX
  8
LAYER_1
 10
98.1702
 20
-178.4035
  0
VERTEX
  8
LAYER_1
 10
86.1877
 20
-178.4035
  0
SEQEND
  0
ENDBLK
  0
BLOCK
  8
LAYER_1
  2
AIGNBL01020050
 70
64
 10
0
 20
0
 30
0
  3
AIGNBL01020050
  0
POLYLINE
  8
LAYER_1
 40
0.2469
 41
0.2469
 66
1
 10
0
 20
0
 30
0
  0
VERTEX
  8
LAYER_1
 10
93.9751
 20
-152.2785
  0
VERTEX
  8
LAYER_1
 10
86.1877
 20
-152.2785
  0
SEQEND
  0
ENDBLK
  0
BLOCK
  8
LAYER_1
  2
AIGNBL01020051
 70
64
 10
0
 20
0
 30
0
  3
AIGNBL01020051
  0
POLYLINE
  8
LAYER_1
 40
0.127
 41
0.127
 66
1
 10
0
 20
0
 30
0
  0
VERTEX
  8
LAYER_1
 10
86.4377
 20
-177.4035
  0
VERTEX
  8
LAYER_1
 10
86.4377
 20
-153.2785
  0
SEQEND
  0
ENDBLK
  0
BLOCK
  8
LAYER_1
  2
AIGNBL01020052
 70
64
 10
0
 20
0
 30
0
  3
AIGNBL01020052
  0
POLYLINE
  8
LAYER_1
 40
0.05
 41
0.05
 66
1
 10
0
 20
0
 30
0
 70
1
  0
VERTEX
  8
LAYER_1
 10
86.271
 20
-177.4035
  0
VERTEX
  8
LAYER_1
 10
86.6043
 20
-177.4035
  0
VERTEX
  8
LAYER_1
 10
86.4377
 20
-178.4035
  0
SEQEND
  0
ENDBLK
  0
BLOCK
  8
LAYER_1
  2
AIGNBL01020053
 70
64
 10
0
 20
0
 30
0
  3
AIGNBL01020053
  0
POLYLINE
  8
LAYER_1
 40
0.05
 41
0.05
 66
1
 10
0
 20
0
 30
0
 70
1
  0
VERTEX
  8
LAYER_1
 10
86.271
 20
-153.2785
  0
VERTEX
  8
LAYER_1
 10
86.6043
 20
-153.2785
  0
VERTEX
  8
LAYER_1
 10
86.4377
 20
-152.2785
  0
SEQEND
  0
ENDBLK
  0
BLOCK
  8
LAYER_1
  2
AIGNBL01020054
 70
64
 10
0
 20
0
 30
0
  3
AIGNBL01020054
  0
TEXT
  8
LAYER_1
 10
86.1201
 20
-168.7338
 11
86.1201
 21
-168.7338
 40
4.0981
 41
0.5
 50
89.99999999
  1
370
  0
ENDBLK
  0
BLOCK
  8
LAYER_1
  2
AIGNBL01020058
 70
64
 10
0
 20
0
 30
0
  3
AIGNBL01020058
  0
POLYLINE
  8
LAYER_1
 40
0.05
 41
0.05
 66
1
 10
0
 20
0
 30
0
  0
VERTEX
  8
LAYER_1
 10
100.1001
 20
-164.0285
  0
VERTEX
  8
LAYER_1
 10
102.7876
 20
-164.0285
  0
VERTEX
  8
LAYER_1
 10
102.7876
 20
-170.9035
  0
VERTEX
  8
LAYER_1
 10
100.1001
 20
-170.9035
  0
VERTEX
  8
LAYER_1
 10
100.1001
 20
-164.0285
  0
SEQEND
  0
POLYLINE
  8
LAYER_1
 40
0.05
 41
0.05
 66
1
 10
0
 20
0
 30
0
  0
VERTEX
  8
LAYER_1
 10
99.7876
 20
-164.0285
  0
VERTEX
  8
LAYER_1
 10
100.1001
 20
-164.0285
  0
VERTEX
  8
LAYER_1
 10
100.1001
 20
-170.9035
  0
VERTEX
  8
LAYER_1
 10
99.7876
 20
-170.9035
  0
VERTEX
  8
LAYER_1
 10
99.7876
 20
-164.0285
  0
SEQEND
  0
POLYLINE
  8
LAYER_1
 40
0.05
 41
0.05
 66
1
 10
0
 20
0
 30
0
  0
VERTEX
  8
LAYER_1
 10
99.7876
 20
-157.5285
  0
VERTEX
  8
LAYER_1
 10
100.1001
 20
-157.5285
  0
VERTEX
  8
LAYER_1
 10
100.1001
 20
-162.7785
  0
VERTEX
  8
LAYER_1
 10
99.7876
 20
-162.7785
  0
VERTEX
  8
LAYER_1
 10
99.7876
 20
-157.5285
  0
SEQEND
  0
POLYLINE
  8
LAYER_1
 40
0.05
 41
0.05
 66
1
 10
0
 20
0
 30
0
  0
VERTEX
  8
LAYER_1
 10
100.1001
 20
-157.5285
  0
VERTEX
  8
LAYER_1
 10
102.7876
 20
-157.5285
  0
VERTEX
  8
LAYER_1
 10
102.7876
 20
-162.7785
  0
VERTEX
  8
LAYER_1
 10
100.1001
 20
-162.7785
  0
VERTEX
  8
LAYER_1
 10
100.1001
 20
-157.5285
  0
SEQEND
  0
POLYLINE
  8
LAYER_1
 40
0.05
 41
0.05
 66
1
 10
0
 20
0
 30
0
  0
VERTEX
  8
LAYER_1
 10
100.1001
 20
-155.9035
  0
VERTEX
  8
LAYER_1
 10
102.7876
 20
-155.9035
  0
VERTEX
  8
LAYER_1
 10
102.7876
 20
-156.7785
  0
VERTEX
  8
LAYER_1
 10
100.1001
 20
-156.7785
  0
VERTEX
  8
LAYER_1
 10
100.1001
 20
-155.9035
  0
SEQEND
  0
POLYLINE
  8
LAYER_1
 40
0.05
 41
0.05
 66
1
 10
0
 20
0
 30
0
 70
1
  0
VERTEX
  8
LAYER_1
 10
99.7876
 20
-155.9035
  0
VERTEX
  8
LAYER_1
 10
100.1001
 20
-155.9035
  0
VERTEX
  8
LAYER_1
 10
100.1001
 20
-156.7785
  0
VERTEX
  8
LAYER_1
 10
99.7876
 20
-156.7785
  0
SEQEND
  0
ENDBLK
  0
BLOCK
  8
LAYER_1
  2
AIGNBL01020059
 70
64
 10
0
 20
0
 30
0
  3
AIGNBL01020059
  0
POLYLINE
  8
LAYER_1
 66
1
 10
0
 20
0
 30
0
  0
VERTEX
  8
LAYER_1
 10
100.7675
 20
-170.9035
  0
VERTEX
  8
LAYER_1
 10
100.1001
 20
-170.2361
  0
SEQEND
  0
POLYLINE
  8
LAYER_1
 66
1
 10
0
 20
0
 30
0
  0
VERTEX
  8
LAYER_1
 10
100.1001
 20
-170.2361
  0
VERTEX
  8
LAYER_1
 10
99.7876
 20
-169.9236
  0
SEQEND
  0
POLYLINE
  8
LAYER_1
 66
1
 10
0
 20
0
 30
0
  0
VERTEX
  8
LAYER_1
 10
102.4513
 20
-170.9035
  0
VERTEX
  8
LAYER_1
 10
100.1001
 20
-168.5523
  0
SEQEND
  0
POLYLINE
  8
LAYER_1
 66
1
 10
0
 20
0
 30
0
  0
VERTEX
  8
LAYER_1
 10
100.1001
 20
-168.5523
  0
VERTEX
  8
LAYER_1
 10
99.7876
 20
-168.2398
  0
SEQEND
  0
POLYLINE
  8
LAYER_1
 66
1
 10
0
 20
0
 30
0
  0
VERTEX
  8
LAYER_1
 10
102.7876
 20
-169.556
  0
VERTEX
  8
LAYER_1
 10
100.1001
 20
-166.8685
  0
SEQEND
  0
POLYLINE
  8
LAYER_1
 66
1
 10
0
 20
0
 30
0
  0
VERTEX
  8
LAYER_1
 10
100.1001
 20
-166.8685
  0
VERTEX
  8
LAYER_1
 10
99.7876
 20
-166.556
  0
SEQEND
  0
POLYLINE
  8
LAYER_1
 66
1
 10
0
 20
0
 30
0
  0
VERTEX
  8
LAYER_1
 10
102.7876
 20
-167.8722
  0
VERTEX
  8
LAYER_1
 10
100.1001
 20
-165.1847
  0
SEQEND
  0
POLYLINE
  8
LAYER_1
 66
1
 10
0
 20
0
 30
0
  0
VERTEX
  8
LAYER_1
 10
100.1001
 20
-165.1847
  0
VERTEX
  8
LAYER_1
 10
99.7876
 20
-164.8722
  0
SEQEND
  0
POLYLINE
  8
LAYER_1
 66
1
 10
0
 20
0
 30
0
  0
VERTEX
  8
LAYER_1
 10
102.7876
 20
-166.1884
  0
VERTEX
  8
LAYER_1
 10
100.6277
 20
-164.0285
  0
SEQEND
  0
POLYLINE
  8
LAYER_1
 66
1
 10
0
 20
0
 30
0
  0
VERTEX
  8
LAYER_1
 10
102.7876
 20
-164.5046
  0
VERTEX
  8
LAYER_1
 10
102.3115
 20
-164.0285
  0
SEQEND
  0
POLYLINE
  8
LAYER_1
 66
1
 10
0
 20
0
 30
0
  0
VERTEX
  8
LAYER_1
 10
100.1001
 20
-161.8171
  0
VERTEX
  8
LAYER_1
 10
99.7876
 20
-161.5046
  0
SEQEND
  0
POLYLINE
  8
LAYER_1
 66
1
 10
0
 20
0
 30
0
  0
VERTEX
  8
LAYER_1
 10
101.0615
 20
-162.7785
  0
VERTEX
  8
LAYER_1
 10
100.1001
 20
-161.8171
  0
SEQEND
  0
POLYLINE
  8
LAYER_1
 66
1
 10
0
 20
0
 30
0
  0
VERTEX
  8
LAYER_1
 10
102.7453
 20
-162.7785
  0
VERTEX
  8
LAYER_1
 10
100.1001
 20
-160.1333
  0
SEQEND
  0
POLYLINE
  8
LAYER_1
 66
1
 10
0
 20
0
 30
0
  0
VERTEX
  8
LAYER_1
 10
100.1001
 20
-160.1333
  0
VERTEX
  8
LAYER_1
 10
99.7876
 20
-159.8208
  0
SEQEND
  0
POLYLINE
  8
LAYER_1
 66
1
 10
0
 20
0
 30
0
  0
VERTEX
  8
LAYER_1
 10
102.7876
 20
-161.137
  0
VERTEX
  8
LAYER_1
 10
100.1001
 20
-158.4495
  0
SEQEND
  0
POLYLINE
  8
LAYER_1
 66
1
 10
0
 20
0
 30
0
  0
VERTEX
  8
LAYER_1
 10
100.1001
 20
-158.4495
  0
VERTEX
  8
LAYER_1
 10
99.7876
 20
-158.137
  0
SEQEND
  0
POLYLINE
  8
LAYER_1
 66
1
 10
0
 20
0
 30
0
  0
VERTEX
  8
LAYER_1
 10
102.7876
 20
-159.4532
  0
VERTEX
  8
LAYER_1
 10
100.8629
 20
-157.5285
  0
SEQEND
  0
POLYLINE
  8
LAYER_1
 66
1
 10
0
 20
0
 30
0
  0
VERTEX
  8
LAYER_1
 10
100.1001
 20
-156.7657
  0
VERTEX
  8
LAYER_1
 10
99.7876
 20
-156.4532
  0
SEQEND
  0
POLYLINE
  8
LAYER_1
 66
1
 10
0
 20
0
 30
0
  0
VERTEX
  8
LAYER_1
 10
100.1129
 20
-156.7785
  0
VERTEX
  8
LAYER_1
 10
100.1001
 20
-156.7657
  0
SEQEND
  0
POLYLINE
  8
LAYER_1
 66
1
 10
0
 20
0
 30
0
  0
VERTEX
  8
LAYER_1
 10
102.7876
 20
-157.7694
  0
VERTEX
  8
LAYER_1
 10
102.5467
 20
-157.5285
  0
SEQEND
  0
POLYLINE
  8
LAYER_1
 66
1
 10
0
 20
0
 30
0
  0
VERTEX
  8
LAYER_1
 10
101.7967
 20
-156.7785
  0
VERTEX
  8
LAYER_1
 10
100.9217
 20
-155.9035
  0
SEQEND
  0
POLYLINE
  8
LAYER_1
 66
1
 10
0
 20
0
 30
0
  0
VERTEX
  8
LAYER_1
 10
102.7876
 20
-156.0856
  0
VERTEX
  8
LAYER_1
 10
102.6054
 20
-155.9035
  0
SEQEND
  0
POLYLINE
  8
LAYER_1
 66
1
 10
0
 20
0
 30
0
  0
VERTEX
  8
LAYER_1
 10
100.1147
 20
-156.7785
  0
VERTEX
  8
LAYER_1
 10
100.9897
 20
-155.9035
  0
SEQEND
  0
POLYLINE
  8
LAYER_1
 66
1
 10
0
 20
0
 30
0
  0
VERTEX
  8
LAYER_1
 10
99.7876
 20
-158.7894
  0
VERTEX
  8
LAYER_1
 10
100.1001
 20
-158.4769
  0
SEQEND
  0
POLYLINE
  8
LAYER_1
 66
1
 10
0
 20
0
 30
0
  0
VERTEX
  8
LAYER_1
 10
102.6395
 20
-155.9375
  0
VERTEX
  8
LAYER_1
 10
102.6735
 20
-155.9035
  0
SEQEND
  0
POLYLINE
  8
LAYER_1
 66
1
 10
0
 20
0
 30
0
  0
VERTEX
  8
LAYER_1
 10
100.1001
 20
-158.4769
  0
VERTEX
  8
LAYER_1
 10
101.0485
 20
-157.5285
  0
SEQEND
  0
POLYLINE
  8
LAYER_1
 66
1
 10
0
 20
0
 30
0
  0
VERTEX
  8
LAYER_1
 10
99.7876
 20
-160.4732
  0
VERTEX
  8
LAYER_1
 10
100.1001
 20
-160.1607
  0
SEQEND
  0
POLYLINE
  8
LAYER_1
 66
1
 10
0
 20
0
 30
0
  0
VERTEX
  8
LAYER_1
 10
100.1001
 20
-160.1607
  0
VERTEX
  8
LAYER_1
 10
100.5347
 20
-159.7261
  0
SEQEND
  0
POLYLINE
  8
LAYER_1
 66
1
 10
0
 20
0
 30
0
  0
VERTEX
  8
LAYER_1
 10
101.7976
 20
-158.4632
  0
VERTEX
  8
LAYER_1
 10
102.7323
 20
-157.5285
  0
SEQEND
  0
POLYLINE
  8
LAYER_1
 66
1
 10
0
 20
0
 30
0
  0
VERTEX
  8
LAYER_1
 10
100.9557
 20
-160.9889
  0
VERTEX
  8
LAYER_1
 10
102.7876
 20
-159.157
  0
SEQEND
  0
POLYLINE
  8
LAYER_1
 66
1
 10
0
 20
0
 30
0
  0
VERTEX
  8
LAYER_1
 10
100.8499
 20
-162.7785
  0
VERTEX
  8
LAYER_1
 10
102.2185
 20
-161.4099
  0
SEQEND
  0
POLYLINE
  8
LAYER_1
 66
1
 10
0
 20
0
 30
0
  0
VERTEX
  8
LAYER_1
 10
99.7876
 20
-165.5246
  0
VERTEX
  8
LAYER_1
 10
100.1001
 20
-165.2121
  0
SEQEND
  0
POLYLINE
  8
LAYER_1
 66
1
 10
0
 20
0
 30
0
  0
VERTEX
  8
LAYER_1
 10
102.6395
 20
-162.6727
  0
VERTEX
  8
LAYER_1
 10
102.7876
 20
-162.5246
  0
SEQEND
  0
POLYLINE
  8
LAYER_1
 66
1
 10
0
 20
0
 30
0
  0
VERTEX
  8
LAYER_1
 10
100.1001
 20
-165.2121
  0
VERTEX
  8
LAYER_1
 10
101.2837
 20
-164.0285
  0
SEQEND
  0
POLYLINE
  8
LAYER_1
 66
1
 10
0
 20
0
 30
0
  0
VERTEX
  8
LAYER_1
 10
99.7876
 20
-167.2084
  0
VERTEX
  8
LAYER_1
 10
100.1001
 20
-166.8959
  0
SEQEND
  0
POLYLINE
  8
LAYER_1
 66
1
 10
0
 20
0
 30
0
  0
VERTEX
  8
LAYER_1
 10
100.1001
 20
-166.8959
  0
VERTEX
  8
LAYER_1
 10
100.5347
 20
-166.4613
  0
SEQEND
  0
POLYLINE
  8
LAYER_1
 66
1
 10
0
 20
0
 30
0
  0
VERTEX
  8
LAYER_1
 10
101.7976
 20
-165.1984
  0
VERTEX
  8
LAYER_1
 10
102.7876
 20
-164.2084
  0
SEQEND
  0
POLYLINE
  8
LAYER_1
 66
1
 10
0
 20
0
 30
0
  0
VERTEX
  8
LAYER_1
 10
100.9557
 20
-167.7241
  0
VERTEX
  8
LAYER_1
 10
102.7876
 20
-165.8922
  0
SEQEND
  0
POLYLINE
  8
LAYER_1
 66
1
 10
0
 20
0
 30
0
  0
VERTEX
  8
LAYER_1
 10
100.1138
 20
-170.2498
  0
VERTEX
  8
LAYER_1
 10
102.2185
 20
-168.1451
  0
SEQEND
  0
POLYLINE
  8
LAYER_1
 66
1
 10
0
 20
0
 30
0
  0
VERTEX
  8
LAYER_1
 10
101.1439
 20
-170.9035
  0
VERTEX
  8
LAYER_1
 10
101.3766
 20
-170.6708
  0
SEQEND
  0
POLYLINE
  8
LAYER_1
 66
1
 10
0
 20
0
 30
0
  0
VERTEX
  8
LAYER_1
 10
102.6395
 20
-169.4079
  0
VERTEX
  8
LAYER_1
 10
102.7876
 20
-169.2598
  0
SEQEND
  0
ENDBLK
  0
BLOCK
  8
LAYER_1
  2
AIGNBL0102008C
 70
64
 10
0
 20
0
 30
0
  3
AIGNBL0102008C
  0
POLYLINE
  8
LAYER_1
 40
0.2469
 41
0.2469
 66
1
 10
0
 20
0
 30
0
  0
VERTEX
  8
LAYER_1
 10
105.8501
 20
-150.9035
  0
VERTEX
  8
LAYER_1
 10
105.8501
 20
-147.2975
  0
SEQEND
  0
ENDBLK
  0
BLOCK
  8
LAYER_1
  2
AIGNBL0102008D
 70
64
 10
0
 20
0
 30
0
  3
AIGNBL0102008D
  0
POLYLINE
  8
LAYER_1
 40
0.2469
 41
0.2469
 66
1
 10
0
 20
0
 30
0
  0
VERTEX
  8
LAYER_1
 10
94.3501
 20
-150.9035
  0
VERTEX
  8
LAYER_1
 10
94.3501
 20
-147.2975
  0
SEQEND
  0
ENDBLK
  0
BLOCK
  8
LAYER_1
  2
AIGNBL0102008E
 70
64
 10
0
 20
0
 30
0
  3
AIGNBL0102008E
  0
POLYLINE
  8
LAYER_1
 40
0.127
 41
0.127
 66
1
 10
0
 20
0
 30
0
  0
VERTEX
  8
LAYER_1
 10
104.8501
 20
-147.5475
  0
VERTEX
  8
LAYER_1
 10
95.3501
 20
-147.5475
  0
SEQEND
  0
ENDBLK
  0
BLOCK
  8
LAYER_1
  2
AIGNBL0102008F
 70
64
 10
0
 20
0
 30
0
  3
AIGNBL0102008F
  0
POLYLINE
  8
LAYER_1
 40
0.05
 41
0.05
 66
1
 10
0
 20
0
 30
0
 70
1
  0
VERTEX
  8
LAYER_1
 10
104.8501
 20
-147.3808
  0
VERTEX
  8
LAYER_1
 10
104.8501
 20
-147.7141
  0
VERTEX
  8
LAYER_1
 10
105.8501
 20
-147.5475
  0
SEQEND
  0
ENDBLK
  0
BLOCK
  8
LAYER_1
  2
AIGNBL01020090
 70
64
 10
0
 20
0
 30
0
  3
AIGNBL01020090
  0
POLYLINE
  8
LAYER_1
 40
0.05
 41
0.05
 66
1
 10
0
 20
0
 30
0
 70
1
  0
VERTEX
  8
LAYER_1
 10
95.3501
 20
-147.3808
  0
VERTEX
  8
LAYER_1
 10
95.3501
 20
-147.7141
  0
VERTEX
  8
LAYER_1
 10
94.3501
 20
-147.5475
  0
SEQEND
  0
ENDBLK
  0
BLOCK
  8
LAYER_1
  2
AIGNBL01020091
 70
64
 10
0
 20
0
 30
0
  3
AIGNBL01020091
  0
TEXT
  8
LAYER_1
 10
96.4313
 20
-147.11
 11
96.4313
 21
-147.11
 40
3.473
 41
0.5
  1
"
  0
TEXT
  8
LAYER_1
 10
99.4313
 20
-147.2299
 11
99.4313
 21
-147.2299
 40
4.0981
 41
0.5
  1
50
  0
ENDBLK
  0
BLOCK
  8
LAYER_1
  2
AIGNBL010200B6
 70
64
 10
0
 20
0
 30
0
  3
AIGNBL010200B6
  0
POLYLINE
  8
LAYER_1
 40
0.2469
 41
0.2469
 66
1
 10
0
 20
0
 30
0
  0
VERTEX
  8
LAYER_1
 10
97.6166
 20
-191.0843
  0
VERTEX
  8
LAYER_1
 10
86.1877
 20
-191.0843
  0
SEQEND
  0
ENDBLK
  0
BLOCK
  8
LAYER_1
  2
AIGNBL010200B7
 70
64
 10
0
 20
0
 30
0
  3
AIGNBL010200B7
  0
POLYLINE
  8
LAYER_1
 40
0.2469
 41
0.2469
 66
1
 10
0
 20
0
 30
0
  0
VERTEX
  8
LAYER_1
 10
99.0801
 20
-181.0843
  0
VERTEX
  8
LAYER_1
 10
86.1877
 20
-181.0843
  0
SEQEND
  0
ENDBLK
  0
BLOCK
  8
LAYER_1
  2
AIGNBL010200B8
 70
64
 10
0
 20
0
 30
0
  3
AIGNBL010200B8
  0
POLYLINE
  8
LAYER_1
 40
0.127
 41
0.127
 66
1
 10
0
 20
0
 30
0
  0
VERTEX
  8
LAYER_1
 10
86.4377
 20
-190.0843
  0
VERTEX
  8
LAYER_1
 10
86.4377
 20
-182.0843
  0
SEQEND
  0
ENDBLK
  0
BLOCK
  8
LAYER_1
  2
AIGNBL010200B9
 70
64
 10
0
 20
0
 30
0
  3
AIGNBL010200B9
  0
POLYLINE
  8
LAYER_1
 40
0.05
 41
0.05
 66
1
 10
0
 20
0
 30
0
 70
1
  0
VERTEX
  8
LAYER_1
 10
86.271
 20
-190.0843
  0
VERTEX
  8
LAYER_1
 10
86.6043
 20
-190.0843
  0
VERTEX
  8
LAYER_1
 10
86.4377
 20
-191.0843
  0
SEQEND
  0
ENDBLK
  0
BLOCK
  8
LAYER_1
  2
AIGNBL010200BA
 70
64
 10
0
 20
0
 30
0
  3
AIGNBL010200BA
  0
POLYLINE
  8
LAYER_1
 40
0.05
 41
0.05
 66
1
 10
0
 20
0
 30
0
 70
1
  0
VERTEX
  8
LAYER_1
 10
86.271
 20
-182.0843
  0
VERTEX
  8
LAYER_1
 10
86.6043
 20
-182.0843
  0
VERTEX
  8
LAYER_1
 10
86.4377
 20
-181.0843
  0
SEQEND
  0
ENDBLK
  0
BLOCK
  8
LAYER_1
  2
AIGNBL010200BB
 70
64
 10
0
 20
0
 30
0
  3
AIGNBL010200BB
  0
TEXT
  8
LAYER_1
 10
86.1201
 20
-188.1917
 11
86.1201
 21
-188.1917
 40
4.0981
 41
0.5
 50
89.99999999
  1
40
  0
ENDBLK
  0
BLOCK
  8
LAYER_1
  2
AIGNBL010200BD
 70
64
 10
0
 20
0
 30
0
  3
AIGNBL010200BD
  0
POLYLINE
  8
LAYER_1
 40
0.2469
 41
0.2469
 66
1
 10
0
 20
0
 30
0
  0
VERTEX
  8
LAYER_1
 10
103.9076
 20
-191.4381
  0
VERTEX
  8
LAYER_1
 10
103.9076
 20
-196.9711
  0
SEQEND
  0
ENDBLK
  0
BLOCK
  8
LAYER_1
  2
AIGNBL010200BE
 70
64
 10
0
 20
0
 30
0
  3
AIGNBL010200BE
  0
POLYLINE
  8
LAYER_1
 40
0.2469
 41
0.2469
 66
1
 10
0
 20
0
 30
0
  0
VERTEX
  8
LAYER_1
 10
98.6676
 20
-191.4381
  0
VERTEX
  8
LAYER_1
 10
98.6676
 20
-196.9711
  0
SEQEND
  0
ENDBLK
  0
BLOCK
  8
LAYER_1
  2
AIGNBL010200BF
 70
64
 10
0
 20
0
 30
0
  3
AIGNBL010200BF
  0
POLYLINE
  8
LAYER_1
 40
0.127
 41
0.127
 66
1
 10
0
 20
0
 30
0
  0
VERTEX
  8
LAYER_1
 10
102.9076
 20
-196.7211
  0
VERTEX
  8
LAYER_1
 10
99.6676
 20
-196.7211
  0
SEQEND
  0
ENDBLK
  0
BLOCK
  8
LAYER_1
  2
AIGNBL010200C0
 70
64
 10
0
 20
0
 30
0
  3
AIGNBL010200C0
  0
POLYLINE
  8
LAYER_1
 40
0.127
 41
0.127
 66
1
 10
0
 20
0
 30
0
  0
VERTEX
  8
LAYER_1
 10
98.6676
 20
-196.7211
  0
VERTEX
  8
LAYER_1
 10
89.4176
 20
-196.7211
  0
SEQEND
  0
ENDBLK
  0
BLOCK
  8
LAYER_1
  2
AIGNBL010200C1
 70
64
 10
0
 20
0
 30
0
  3
AIGNBL010200C1
  0
POLYLINE
  8
LAYER_1
 40
0.05
 41
0.05
 66
1
 10
0
 20
0
 30
0
 70
1
  0
VERTEX
  8
LAYER_1
 10
102.9076
 20
-196.5544
  0
VERTEX
  8
LAYER_1
 10
102.9076
 20
-196.8878
  0
VERTEX
  8
LAYER_1
 10
103.9076
 20
-196.7211
  0
SEQEND
  0
ENDBLK
  0
BLOCK
  8
LAYER_1
  2
AIGNBL010200C2
 70
64
 10
0
 20
0
 30
0
  3
AIGNBL010200C2
  0
POLYLINE
  8
LAYER_1
 40
0.05
 41
0.05
 66
1
 10
0
 20
0
 30
0
 70
1
  0
VERTEX
  8
LAYER_1
 10
99.6676
 20
-196.5544
  0
VERTEX
  8
LAYER_1
 10
99.6676
 20
-196.8878
  0
VERTEX
  8
LAYER_1
 10
98.6676
 20
-196.7211
  0
SEQEND
  0
ENDBLK
  0
BLOCK
  8
LAYER_1
  2
AIGNBL010200C3
 70
64
 10
0
 20
0
 30
0
  3
AIGNBL010200C3
  0
TEXT
  8
LAYER_1
 10
88.5427
 20
-196.4658
 11
88.5427
 21
-196.4658
 40
4.0981
 41
0.5
  1
G1/2
  0
ENDBLK
  0
BLOCK
  8
LAYER_1
  2
AIGNBL010200CC
 70
64
 10
0
 20
0
 30
0
  3
AIGNBL010200CC
  0
POLYLINE
  8
LAYER_1
 40
0.127
 41
0.127
 66
1
 10
0
 20
0
 30
0
  0
VERTEX
  8
LAYER_1
 10
145.3384
 20
-172.1864
  0
VERTEX
  8
LAYER_1
 10
136.8673
 20
-180.2338
  0
SEQEND
  0
ENDBLK
  0
BLOCK
  8
LAYER_1
  2
AIGNBL010200CD
 70
64
 10
0
 20
0
 30
0
  3
AIGNBL010200CD
  0
POLYLINE
  8
LAYER_1
 40
0.127
 41
0.127
 66
1
 10
0
 20
0
 30
0
  0
VERTEX
  8
LAYER_1
 10
129.0735
 20
-187.6379
  0
VERTEX
  8
LAYER_1
 10
128.3485
 20
-188.3266
  0
SEQEND
  0
ENDBLK
  0
BLOCK
  8
LAYER_1
  2
AIGNBL010200CE
 70
64
 10
0
 20
0
 30
0
  3
AIGNBL010200CE
  0
TEXT
  8
LAYER_1
 10
136.7542
 20
-178.6333
 11
136.7542
 21
-178.6333
 40
3.0736
 41
0.5
 50
43.53120188
  1
35
  0
TEXT
  8
LAYER_1
 10
139.9178
 20
-173.3639
 11
139.9178
 21
-173.3639
 40
3.0736
 41
0.5
 50
43.53120188
  1
+2
  0
TEXT
  8
LAYER_1
 10
141.9494
 20
-174.7328
 11
141.9494
 21
-174.7328
 40
3.0736
 41
0.5
 50
43.53120188
  1
-0
  0
ENDBLK
  0
BLOCK
  8
LAYER_1
  2
AIGNBL010200CF
 70
64
 10
0
 20
0
 30
0
  3
AIGNBL010200CF
  0
POLYLINE
  8
LAYER_1
 40
0.127
 41
0.127
 66
1
 10
0
 20
0
 30
0
  0
VERTEX
  8
LAYER_1
 10
129.7985
 20
-186.9491
  0
VERTEX
  8
LAYER_1
 10
136.1423
 20
-180.9226
  0
SEQEND
  0
ENDBLK
  0
BLOCK
  8
LAYER_1
  2
AIGNBL010200D0
 70
64
 10
0
 20
0
 30
0
  3
AIGNBL010200D0
  0
POLYLINE
  8
LAYER_1
 40
0.05
 41
0.05
 66
1
 10
0
 20
0
 30
0
 70
1
  0
VERTEX
  8
LAYER_1
 10
128.9587
 20
-187.517
  0
VERTEX
  8
LAYER_1
 10
129.1883
 20
-187.7587
  0
VERTEX
  8
LAYER_1
 10
129.7985
 20
-186.9491
  0
SEQEND
  0
ENDBLK
  0
BLOCK
  8
LAYER_1
  2
AIGNBL010200D1
 70
64
 10
0
 20
0
 30
0
  3
AIGNBL010200D1
  0
POLYLINE
  8
LAYER_1
 40
0.05
 41
0.05
 66
1
 10
0
 20
0
 30
0
 70
1
  0
VERTEX
  8
LAYER_1
 10
136.7525
 20
-180.113
  0
VERTEX
  8
LAYER_1
 10
136.9821
 20
-180.3547
  0
VERTEX
  8
LAYER_1
 10
136.1423
 20
-180.9226
  0
SEQEND
  0
ENDBLK
  0
BLOCK
  8
LAYER_1
  2
AIGNBL010201F3
 70
64
 10
0
 20
0
 30
0
  3
AIGNBL010201F3
  0
POLYLINE
  8
LAYER_1
 40
0.2469
 41
0.2469
 66
1
 10
0
 20
0
 30
0
  0
VERTEX
  8
LAYER_1
 10
114.8927
 20
-38.6204
  0
VERTEX
  8
LAYER_1
 10
117.1135
 20
-41.2669
  0
SEQEND
  0
ENDBLK
  0
BLOCK
  8
LAYER_1
  2
AIGNBL010201F4
 70
64
 10
0
 20
0
 30
0
  3
AIGNBL010201F4
  0
POLYLINE
  8
LAYER_1
 40
0.2469
 41
0.2469
 66
1
 10
0
 20
0
 30
0
  0
VERTEX
  8
LAYER_1
 10
123.1156
 20
-20.9863
  0
VERTEX
  8
LAYER_1
 10
126.5704
 20
-20.9863
  0
SEQEND
  0
ENDBLK
  0
BLOCK
  8
LAYER_1
  2
AIGNBL010201F5
 70
64
 10
0
 20
0
 30
0
  3
AIGNBL010201F5
  0
POLYLINE
  8
LAYER_1
 40
0.127
 41
0.127
 66
1
 10
0
 20
0
 30
0
  0
VERTEX
  8
LAYER_1
 10
117.7064
 20
-40.4181
 42
0.2017724756
  0
VERTEX
  8
LAYER_1
 10
126.3014
 20
-21.9861
  0
SEQEND
  0
ENDBLK
  0
BLOCK
  8
LAYER_1
  2
AIGNBL010201F6
 70
64
 10
0
 20
0
 30
0
  3
AIGNBL010201F6
  0
POLYLINE
  8
LAYER_1
 40
0.05
 41
0.05
 66
1
 10
0
 20
0
 30
0
 70
1
  0
VERTEX
  8
LAYER_1
 10
117.816
 20
-40.5437
  0
VERTEX
  8
LAYER_1
 10
117.5969
 20
-40.2925
  0
VERTEX
  8
LAYER_1
 10
116.9528
 20
-41.0754
  0
SEQEND
  0
ENDBLK
  0
BLOCK
  8
LAYER_1
  2
AIGNBL010201F7
 70
64
 10
0
 20
0
 30
0
  3
AIGNBL010201F7
  0
POLYLINE
  8
LAYER_1
 40
0.05
 41
0.05
 66
1
 10
0
 20
0
 30
0
 70
1
  0
VERTEX
  8
LAYER_1
 10
126.1347
 20
-21.983
  0
VERTEX
  8
LAYER_1
 10
126.468
 20
-21.9893
  0
VERTEX
  8
LAYER_1
 10
126.3204
 20
-20.9863
  0
SEQEND
  0
ENDBLK
  0
BLOCK
  8
LAYER_1
  2
AIGNBL010201F8
 70
64
 10
0
 20
0
 30
0
  3
AIGNBL010201F8
  0
TEXT
  8
LAYER_1
 10
122.2096
 20
-34.8873
 11
122.2096
 21
-34.8873
 40
4.0981
 41
0.5
 50
64.99996093
  1
50%%d
  0
ENDBLK
  0
BLOCK
  8
LAYER_1
  2
AIGNBL010201FA
 70
64
 10
0
 20
0
 30
0
  3
AIGNBL010201FA
  0
POLYLINE
  8
LAYER_1
 40
0.2469
 41
0.2469
 66
1
 10
0
 20
0
 30
0
  0
VERTEX
  8
LAYER_1
 10
123.1156
 20
-20.9863
  0
VERTEX
  8
LAYER_1
 10
126.5268
 20
-20.9863
  0
SEQEND
  0
ENDBLK
  0
BLOCK
  8
LAYER_1
  2
AIGNBL010201FB
 70
64
 10
0
 20
0
 30
0
  3
AIGNBL010201FB
  0
POLYLINE
  8
LAYER_1
 40
0.2469
 41
0.2469
 66
1
 10
0
 20
0
 30
0
  0
VERTEX
  8
LAYER_1
 10
114.8927
 20
-3.3523
  0
VERTEX
  8
LAYER_1
 10
117.0854
 20
-0.7392
  0
SEQEND
  0
ENDBLK
  0
BLOCK
  8
LAYER_1
  2
AIGNBL010201FC
 70
64
 10
0
 20
0
 30
0
  3
AIGNBL010201FC
  0
POLYLINE
  8
LAYER_1
 40
0.127
 41
0.127
 66
1
 10
0
 20
0
 30
0
  0
VERTEX
  8
LAYER_1
 10
126.2577
 20
-19.9865
 42
0.2017383439
  0
VERTEX
  8
LAYER_1
 10
117.6784
 20
-1.588
  0
SEQEND
  0
ENDBLK
  0
BLOCK
  8
LAYER_1
  2
AIGNBL010201FD
 70
64
 10
0
 20
0
 30
0
  3
AIGNBL010201FD
  0
POLYLINE
  8
LAYER_1
 40
0.05
 41
0.05
 66
1
 10
0
 20
0
 30
0
 70
1
  0
VERTEX
  8
LAYER_1
 10
126.4244
 20
-19.9833
  0
VERTEX
  8
LAYER_1
 10
126.0911
 20
-19.9897
  0
VERTEX
  8
LAYER_1
 10
126.2768
 20
-20.9863
  0
SEQEND
  0
ENDBLK
  0
BLOCK
  8
LAYER_1
  2
AIGNBL010201FE
 70
64
 10
0
 20
0
 30
0
  3
AIGNBL010201FE
  0
POLYLINE
  8
LAYER_1
 40
0.05
 41
0.05
 66
1
 10
0
 20
0
 30
0
 70
1
  0
VERTEX
  8
LAYER_1
 10
117.5688
 20
-1.7136
  0
VERTEX
  8
LAYER_1
 10
117.7879
 20
-1.4624
  0
VERTEX
  8
LAYER_1
 10
116.9247
 20
-0.9307
  0
SEQEND
  0
ENDBLK
  0
BLOCK
  8
LAYER_1
  2
AIGNBL010201FF
 70
64
 10
0
 20
0
 30
0
  3
AIGNBL010201FF
  0
TEXT
  8
LAYER_1
 10
124.0041
 20
-12.7061
 11
124.0041
 21
-12.7061
 40
4.0981
 41
0.5
 50
119.9998689
  1
50%%d
  0
ENDBLK
  0
BLOCK
  8
LAYER_1
  2
AIGNBL0102020E
 70
64
 10
0
 20
0
 30
0
  3
AIGNBL0102020E
  0
POLYLINE
  8
LAYER_1
 40
0.2469
 41
0.2469
 66
1
 10
0
 20
0
 30
0
  0
VERTEX
  8
LAYER_1
 10
93.4751
 20
-152.2785
  0
VERTEX
  8
LAYER_1
 10
80.0347
 20
-152.2785
  0
SEQEND
  0
ENDBLK
  0
BLOCK
  8
LAYER_1
  2
AIGNBL0102020F
 70
64
 10
0
 20
0
 30
0
  3
AIGNBL0102020F
  0
POLYLINE
  8
LAYER_1
 40
0.2469
 41
0.2469
 66
1
 10
0
 20
0
 30
0
  0
VERTEX
  8
LAYER_1
 10
116.1336
 20
-67.0285
  0
VERTEX
  8
LAYER_1
 10
80.0347
 20
-67.0285
  0
SEQEND
  0
ENDBLK
  0
BLOCK
  8
LAYER_1
  2
AIGNBL01020210
 70
64
 10
0
 20
0
 30
0
  3
AIGNBL01020210
  0
POLYLINE
  8
LAYER_1
 40
0.127
 41
0.127
 66
1
 10
0
 20
0
 30
0
  0
VERTEX
  8
LAYER_1
 10
80.2847
 20
-151.2785
  0
VERTEX
  8
LAYER_1
 10
80.2847
 20
-68.0285
  0
SEQEND
  0
ENDBLK
  0
BLOCK
  8
LAYER_1
  2
AIGNBL01020211
 70
64
 10
0
 20
0
 30
0
  3
AIGNBL01020211
  0
POLYLINE
  8
LAYER_1
 40
0.05
 41
0.05
 66
1
 10
0
 20
0
 30
0
 70
1
  0
VERTEX
  8
LAYER_1
 10
80.118
 20
-151.2785
  0
VERTEX
  8
LAYER_1
 10
80.4513
 20
-151.2785
  0
VERTEX
  8
LAYER_1
 10
80.2847
 20
-152.2785
  0
SEQEND
  0
ENDBLK
  0
BLOCK
  8
LAYER_1
  2
AIGNBL01020212
 70
64
 10
0
 20
0
 30
0
  3
AIGNBL01020212
  0
POLYLINE
  8
LAYER_1
 40
0.05
 41
0.05
 66
1
 10
0
 20
0
 30
0
 70
1
  0
VERTEX
  8
LAYER_1
 10
80.118
 20
-68.0285
  0
VERTEX
  8
LAYER_1
 10
80.4513
 20
-68.0285
  0
VERTEX
  8
LAYER_1
 10
80.2847
 20
-67.0285
  0
SEQEND
  0
ENDBLK
  0
BLOCK
  8
LAYER_1
  2
AIGNBL01020213
 70
64
 10
0
 20
0
 30
0
  3
AIGNBL01020213
  0
TEXT
  8
LAYER_1
 10
79.9672
 20
-112.9629
 11
79.9672
 21
-112.9629
 40
4.0981
 41
0.5
 50
89.99999999
  1
341
  0
ENDBLK
  0
BLOCK
  8
LAYER_1
  2
AIGNBL01020215
 70
64
 10
0
 20
0
 30
0
  3
AIGNBL01020215
  0
POLYLINE
  8
LAYER_1
 40
0.2469
 41
0.2469
 66
1
 10
0
 20
0
 30
0
  0
VERTEX
  8
LAYER_1
 10
100.1001
 20
-78.5213
  0
VERTEX
  8
LAYER_1
 10
100.1001
 20
-71.3472
  0
SEQEND
  0
ENDBLK
  0
BLOCK
  8
LAYER_1
  2
AIGNBL01020216
 70
64
 10
0
 20
0
 30
0
  3
AIGNBL01020216
  0
POLYLINE
  8
LAYER_1
 40
0.2469
 41
0.2469
 66
1
 10
0
 20
0
 30
0
  0
VERTEX
  8
LAYER_1
 10
92.7342
 20
-76.7604
  0
VERTEX
  8
LAYER_1
 10
92.7342
 20
-71.3472
  0
SEQEND
  0
ENDBLK
  0
BLOCK
  8
LAYER_1
  2
AIGNBL01020217
 70
64
 10
0
 20
0
 30
0
  3
AIGNBL01020217
  0
POLYLINE
  8
LAYER_1
 40
0.127
 41
0.127
 66
1
 10
0
 20
0
 30
0
  0
VERTEX
  8
LAYER_1
 10
99.1001
 20
-71.5972
  0
VERTEX
  8
LAYER_1
 10
93.7342
 20
-71.5972
  0
SEQEND
  0
ENDBLK
  0
BLOCK
  8
LAYER_1
  2
AIGNBL01020218
 70
64
 10
0
 20
0
 30
0
  3
AIGNBL01020218
  0
POLYLINE
  8
LAYER_1
 40
0.05
 41
0.05
 66
1
 10
0
 20
0
 30
0
 70
1
  0
VERTEX
  8
LAYER_1
 10
99.1001
 20
-71.4306
  0
VERTEX
  8
LAYER_1
 10
99.1001
 20
-71.7639
  0
VERTEX
  8
LAYER_1
 10
100.1001
 20
-71.5972
  0
SEQEND
  0
ENDBLK
  0
BLOCK
  8
LAYER_1
  2
AIGNBL01020219
 70
64
 10
0
 20
0
 30
0
  3
AIGNBL01020219
  0
POLYLINE
  8
LAYER_1
 40
0.05
 41
0.05
 66
1
 10
0
 20
0
 30
0
 70
1
  0
VERTEX
  8
LAYER_1
 10
93.7342
 20
-71.4306
  0
VERTEX
  8
LAYER_1
 10
93.7342
 20
-71.7639
  0
VERTEX
  8
LAYER_1
 10
92.7342
 20
-71.5972
  0
SEQEND
  0
ENDBLK
  0
BLOCK
  8
LAYER_1
  2
AIGNBL0102021A
 70
64
 10
0
 20
0
 30
0
  3
AIGNBL0102021A
  0
TEXT
  8
LAYER_1
 10
92.5848
 20
-70.5123
 11
92.5848
 21
-70.5123
 40
4.0981
 41
0.5
  1
(29)
  0
ENDBLK
  0
BLOCK
  8
LAYER_1
  2
AIGNBL0102021C
 70
64
 10
0
 20
0
 30
0
  3
AIGNBL0102021C
  0
POLYLINE
  8
LAYER_1
 40
0.2469
 41
0.2469
 66
1
 10
0
 20
0
 30
0
  0
VERTEX
  8
LAYER_1
 10
121.4085
 20
-75.2132
  0
VERTEX
  8
LAYER_1
 10
136.5038
 20
-75.2132
  0
SEQEND
  0
ENDBLK
  0
BLOCK
  8
LAYER_1
  2
AIGNBL0102021D
 70
64
 10
0
 20
0
 30
0
  3
AIGNBL0102021D
  0
POLYLINE
  8
LAYER_1
 40
0.2469
 41
0.2469
 66
1
 10
0
 20
0
 30
0
  0
VERTEX
  8
LAYER_1
 10
116.8484
 20
-66.87
  0
VERTEX
  8
LAYER_1
 10
132.9859
 20
-59.345
  0
SEQEND
  0
ENDBLK
  0
BLOCK
  8
LAYER_1
  2
AIGNBL0102021E
 70
64
 10
0
 20
0
 30
0
  3
AIGNBL0102021E
  0
POLYLINE
  8
LAYER_1
 40
0.127
 41
0.127
 66
1
 10
0
 20
0
 30
0
  0
VERTEX
  8
LAYER_1
 10
136.2404
 20
-74.2133
 42
0.09597015523
  0
VERTEX
  8
LAYER_1
 10
133.1698
 20
-60.3625
  0
SEQEND
  0
ENDBLK
  0
BLOCK
  8
LAYER_1
  2
AIGNBL0102021F
 70
64
 10
0
 20
0
 30
0
  3
AIGNBL0102021F
  0
POLYLINE
  8
LAYER_1
 40
0.05
 41
0.05
 66
1
 10
0
 20
0
 30
0
 70
1
  0
VERTEX
  8
LAYER_1
 10
136.407
 20
-74.211
  0
VERTEX
  8
LAYER_1
 10
136.0737
 20
-74.2155
  0
VERTEX
  8
LAYER_1
 10
136.2538
 20
-75.2132
  0
SEQEND
  0
ENDBLK
  0
BLOCK
  8
LAYER_1
  2
AIGNBL01020220
 70
64
 10
0
 20
0
 30
0
  3
AIGNBL01020220
  0
POLYLINE
  8
LAYER_1
 40
0.05
 41
0.05
 66
1
 10
0
 20
0
 30
0
 70
1
  0
VERTEX
  8
LAYER_1
 10
133.0178
 20
-60.4309
  0
VERTEX
  8
LAYER_1
 10
133.3217
 20
-60.2941
  0
VERTEX
  8
LAYER_1
 10
132.7593
 20
-59.4506
  0
SEQEND
  0
ENDBLK
  0
BLOCK
  8
LAYER_1
  2
AIGNBL01020221
 70
64
 10
0
 20
0
 30
0
  3
AIGNBL01020221
  0
TEXT
  8
LAYER_1
 10
134.9908
 20
-63.9294
 11
134.9908
 21
-63.9294
 40
4.0981
 41
0.5
 50
282.4999732
  1
25%%d
  0
ENDBLK
  0
BLOCK
  8
LAYER_1
  2
AIGNBL01020225
 70
64
 10
0
 20
0
 30
0
  3
AIGNBL01020225
  0
POLYLINE
  8
LAYER_1
 40
0.127
 41
0.127
 66
1
 10
0
 20
0
 30
0
  0
VERTEX
  8
LAYER_1
 10
139.2699
 20
-96.9148
  0
VERTEX
  8
LAYER_1
 10
142.373
 20
-101.3465
  0
SEQEND
  0
ENDBLK
  0
BLOCK
  8
LAYER_1
  2
AIGNBL01020226
 70
64
 10
0
 20
0
 30
0
  3
AIGNBL01020226
  0
POLYLINE
  8
LAYER_1
 40
0.127
 41
0.127
 66
1
 10
0
 20
0
 30
0
  0
VERTEX
  8
LAYER_1
 10
106.2526
 20
-112.7928
 42
0.1459847058
  0
VERTEX
  8
LAYER_1
 10
141.4061
 20
-101.7089
  0
SEQEND
  0
ENDBLK
  0
BLOCK
  8
LAYER_1
  2
AIGNBL01020227
 70
64
 10
0
 20
0
 30
0
  3
AIGNBL01020227
  0
POLYLINE
  8
LAYER_1
 40
0.05
 41
0.05
 66
1
 10
0
 20
0
 30
0
 70
1
  0
VERTEX
  8
LAYER_1
 10
106.2539
 20
-112.9594
  0
VERTEX
  8
LAYER_1
 10
106.2514
 20
-112.6261
  0
VERTEX
  8
LAYER_1
 10
105.2527
 20
-112.8005
  0
SEQEND
  0
ENDBLK
  0
BLOCK
  8
LAYER_1
  2
AIGNBL01020228
 70
64
 10
0
 20
0
 30
0
  3
AIGNBL01020228
  0
POLYLINE
  8
LAYER_1
 40
0.05
 41
0.05
 66
1
 10
0
 20
0
 30
0
 70
1
  0
VERTEX
  8
LAYER_1
 10
141.3115
 20
-101.5717
  0
VERTEX
  8
LAYER_1
 10
141.5006
 20
-101.8462
  0
VERTEX
  8
LAYER_1
 10
142.2297
 20
-101.1417
  0
SEQEND
  0
ENDBLK
  0
BLOCK
  8
LAYER_1
  2
AIGNBL01020229
 70
64
 10
0
 20
0
 30
0
  3
AIGNBL01020229
  0
TEXT
  8
LAYER_1
 10
121.494
 20
-110.4848
 11
121.494
 21
-110.4848
 40
4.0981
 41
0.5
 50
17.50017765
  1
35%%d
  0
ENDBLK
  0
BLOCK
  8
LAYER_1
  2
AIGNBL01010002
 70
64
 10
0
 20
0
 30
0
  3
AIGNBL01010002
  0
INSERT
  8
LAYER_1
  2
AIGNBL01020003
 10
0
 20
0
 30
0
  0
INSERT
  8
LAYER_1
  2
AIGNBL0102000C
 10
0
 20
0
 30
0
  0
ENDBLK
  0
BLOCK
  8
LAYER_1
  2
AIGNBL01010024
 70
64
 10
0
 20
0
 30
0
  3
AIGNBL01010024
  0
INSERT
  8
LAYER_1
  2
AIGNBL01020025
 10
0
 20
0
 30
0
  0
INSERT
  8
LAYER_1
  2
AIGNBL01020026
 10
0
 20
0
 30
0
  0
INSERT
  8
LAYER_1
  2
AIGNBL01020027
 10
0
 20
0
 30
0
  0
INSERT
  8
LAYER_1
  2
AIGNBL01020028
 10
0
 20
0
 30
0
  0
INSERT
  8
LAYER_1
  2
AIGNBL01020029
 10
0
 20
0
 30
0
  0
INSERT
  8
LAYER_1
  2
AIGNBL0102002A
 10
0
 20
0
 30
0
  0
ENDBLK
  0
BLOCK
  8
LAYER_1
  2
AIGNBL0101002B
 70
64
 10
0
 20
0
 30
0
  3
AIGNBL0101002B
  0
INSERT
  8
LAYER_1
  2
AIGNBL0102002C
 10
0
 20
0
 30
0
  0
INSERT
  8
LAYER_1
  2
AIGNBL0102002D
 10
0
 20
0
 30
0
  0
INSERT
  8
LAYER_1
  2
AIGNBL0102002E
 10
0
 20
0
 30
0
  0
INSERT
  8
LAYER_1
  2
AIGNBL0102002F
 10
0
 20
0
 30
0
  0
INSERT
  8
LAYER_1
  2
AIGNBL01020030
 10
0
 20
0
 30
0
  0
INSERT
  8
LAYER_1
  2
AIGNBL01020031
 10
0
 20
0
 30
0
  0
ENDBLK
  0
BLOCK
  8
LAYER_1
  2
AIGNBL01010032
 70
64
 10
0
 20
0
 30
0
  3
AIGNBL01010032
  0
POLYLINE
  8
LAYER_1
 40
0.2469
 41
0.2469
 66
1
 10
0
 20
0
 30
0
  0
VERTEX
  8
LAYER_1
 10
95.1001
 20
-152.4035
  0
VERTEX
  8
LAYER_1
 10
105.1001
 20
-152.4035
  0
SEQEND
  0
ENDBLK
  0
BLOCK
  8
LAYER_1
  2
AIGNBL01010033
 70
64
 10
0
 20
0
 30
0
  3
AIGNBL01010033
  0
POLYLINE
  8
LAYER_1
 40
0.2469
 41
0.2469
 66
1
 10
0
 20
0
 30
0
  0
VERTEX
  8
LAYER_1
 10
105.1001
 20
-152.4035
 42
0.2132117135
  0
VERTEX
  8
LAYER_1
 10
105.3794
 20
-152.2787
  0
SEQEND
  0
ENDBLK
  0
BLOCK
  8
LAYER_1
  2
AIGNBL01010034
 70
64
 10
0
 20
0
 30
0
  3
AIGNBL01010034
  0
POLYLINE
  8
LAYER_1
 40
0.2469
 41
0.2469
 66
1
 10
0
 20
0
 30
0
  0
VERTEX
  8
LAYER_1
 10
94.8208
 20
-152.2787
 42
0.2132174842
  0
VERTEX
  8
LAYER_1
 10
95.1001
 20
-152.4035
  0
SEQEND
  0
ENDBLK
  0
BLOCK
  8
LAYER_1
  2
AIGNBL01010035
 70
64
 10
0
 20
0
 30
0
  3
AIGNBL01010035
  0
POLYLINE
  8
LAYER_1
 40
0.2469
 41
0.2469
 66
1
 10
0
 20
0
 30
0
  0
VERTEX
  8
LAYER_1
 10
95.2199
 20
-145.2785
  0
VERTEX
  8
LAYER_1
 10
95.2194
 20
-145.344
  0
VERTEX
  8
LAYER_1
 10
95.2182
 20
-145.4082
  0
VERTEX
  8
LAYER_1
 10
95.2161
 20
-145.4712
  0
VERTEX
  8
LAYER_1
 10
95.2132
 20
-145.5335
  0
VERTEX
  8
LAYER_1
 10
95.2096
 20
-145.5945
  0
VERTEX
  8
LAYER_1
 10
95.2056
 20
-145.6526
  0
VERTEX
  8
LAYER_1
 10
95.201
 20
-145.7078
  0
VERTEX
  8
LAYER_1
 10
95.1962
 20
-145.7602
  0
VERTEX
  8
LAYER_1
 10
95.1912
 20
-145.8085
  0
VERTEX
  8
LAYER_1
 10
95.1862
 20
-145.8527
  0
VERTEX
  8
LAYER_1
 10
95.1814
 20
-145.8928
  0
VERTEX
  8
LAYER_1
 10
95.1768
 20
-145.928
  0
VERTEX
  8
LAYER_1
 10
95.1728
 20
-145.9581
  0
VERTEX
  8
LAYER_1
 10
95.1692
 20
-145.9833
  0
VERTEX
  8
LAYER_1
 10
95.1664
 20
-146.003
  0
SEQEND
  0
ENDBLK
  0
BLOCK
  8
LAYER_1
  2
AIGNBL01010036
 70
64
 10
0
 20
0
 30
0
  3
AIGNBL01010036
  0
POLYLINE
  8
LAYER_1
 40
0.2469
 41
0.2469
 66
1
 10
0
 20
0
 30
0
  0
VERTEX
  8
LAYER_1
 10
95.1626
 20
-146.0285
  0
VERTEX
  8
LAYER_1
 10
95.1664
 20
-146.003
  0
SEQEND
  0
ENDBLK
  0
BLOCK
  8
LAYER_1
  2
AIGNBL01010037
 70
64
 10
0
 20
0
 30
0
  3
AIGNBL01010037
  0
INSERT
  8
LAYER_1
  2
AIGNBL01020038
 10
0
 20
0
 30
0
  0
INSERT
  8
LAYER_1
  2
AIGNBL01020039
 10
0
 20
0
 30
0
  0
INSERT
  8
LAYER_1
  2
AIGNBL0102003A
 10
0
 20
0
 30
0
  0
INSERT
  8
LAYER_1
  2
AIGNBL0102003B
 10
0
 20
0
 30
0
  0
INSERT
  8
LAYER_1
  2
AIGNBL0102003C
 10
0
 20
0
 30
0
  0
INSERT
  8
LAYER_1
  2
AIGNBL0102003D
 10
0
 20
0
 30
0
  0
ENDBLK
  0
BLOCK
  8
LAYER_1
  2
AIGNBL0101003E
 70
64
 10
0
 20
0
 30
0
  3
AIGNBL0101003E
  0
INSERT
  8
LAYER_1
  2
AIGNBL0102003F
 10
0
 20
0
 30
0
  0
INSERT
  8
LAYER_1
  2
AIGNBL01020040
 10
0
 20
0
 30
0
  0
INSERT
  8
LAYER_1
  2
AIGNBL01020041
 10
0
 20
0
 30
0
  0
INSERT
  8
LAYER_1
  2
AIGNBL01020042
 10
0
 20
0
 30
0
  0
INSERT
  8
LAYER_1
  2
AIGNBL01020043
 10
0
 20
0
 30
0
  0
INSERT
  8
LAYER_1
  2
AIGNBL01020044
 10
0
 20
0
 30
0
  0
INSERT
  8
LAYER_1
  2
AIGNBL01020045
 10
0
 20
0
 30
0
  0
ENDBLK
  0
BLOCK
  8
LAYER_1
  2
AIGNBL01010046
 70
64
 10
0
 20
0
 30
0
  3
AIGNBL01010046
  0
INSERT
  8
LAYER_1
  2
AIGNBL01020047
 10
0
 20
0
 30
0
  0
INSERT
  8
LAYER_1
  2
AIGNBL01020048
 10
0
 20
0
 30
0
  0
INSERT
  8
LAYER_1
  2
AIGNBL01020049
 10
0
 20
0
 30
0
  0
INSERT
  8
LAYER_1
  2
AIGNBL0102004A
 10
0
 20
0
 30
0
  0
INSERT
  8
LAYER_1
  2
AIGNBL0102004B
 10
0
 20
0
 30
0
  0
INSERT
  8
LAYER_1
  2
AIGNBL0102004C
 10
0
 20
0
 30
0
  0
INSERT
  8
LAYER_1
  2
AIGNBL0102004D
 10
0
 20
0
 30
0
  0
ENDBLK
  0
BLOCK
  8
LAYER_1
  2
AIGNBL0101004E
 70
64
 10
0
 20
0
 30
0
  3
AIGNBL0101004E
  0
INSERT
  8
LAYER_1
  2
AIGNBL0102004F
 10
0
 20
0
 30
0
  0
INSERT
  8
LAYER_1
  2
AIGNBL01020050
 10
0
 20
0
 30
0
  0
INSERT
  8
LAYER_1
  2
AIGNBL01020051
 10
0
 20
0
 30
0
  0
INSERT
  8
LAYER_1
  2
AIGNBL01020052
 10
0
 20
0
 30
0
  0
INSERT
  8
LAYER_1
  2
AIGNBL01020053
 10
0
 20
0
 30
0
  0
INSERT
  8
LAYER_1
  2
AIGNBL01020054
 10
0
 20
0
 30
0
  0
ENDBLK
  0
BLOCK
  8
LAYER_1
  2
AIGNBL01010055
 70
64
 10
0
 20
0
 30
0
  3
AIGNBL01010055
  0
POLYLINE
  8
LAYER_1
 40
0.2469
 41
0.2469
 66
1
 10
0
 20
0
 30
0
  0
VERTEX
  8
LAYER_1
 10
106.2617
 20
-157.5285
  0
VERTEX
  8
LAYER_1
 10
106.2617
 20
-156.7785
  0
SEQEND
  0
ENDBLK
  0
BLOCK
  8
LAYER_1
  2
AIGNBL01010056
 70
64
 10
0
 20
0
 30
0
  3
AIGNBL01010056
  0
POLYLINE
  8
LAYER_1
 40
0.2469
 41
0.2469
 66
1
 10
0
 20
0
 30
0
  0
VERTEX
  8
LAYER_1
 10
94.5376
 20
-157.5285
  0
VERTEX
  8
LAYER_1
 10
94.5376
 20
-156.7785
  0
SEQEND
  0
ENDBLK
  0
BLOCK
  8
LAYER_1
  2
AIGNBL01010057
 70
64
 10
0
 20
0
 30
0
  3
AIGNBL01010057
  0
INSERT
  8
LAYER_1
  2
AIGNBL01020058
 10
0
 20
0
 30
0
  0
INSERT
  8
LAYER_1
  2
AIGNBL01020059
 10
0
 20
0
 30
0
  0
ENDBLK
  0
BLOCK
  8
LAYER_1
  2
AIGNBL0101005A
 70
64
 10
0
 20
0
 30
0
  3
AIGNBL0101005A
  0
POLYLINE
  8
LAYER_1
 40
0.2469
 41
0.2469
 66
1
 10
0
 20
0
 30
0
  0
VERTEX
  8
LAYER_1
 10
99.6626
 20
-174.6535
 42
0.4054742036
  0
VERTEX
  8
LAYER_1
 10
99.7876
 20
-175.3386
  0
SEQEND
  0
ENDBLK
  0
BLOCK
  8
LAYER_1
  2
AIGNBL0101005B
 70
64
 10
0
 20
0
 30
0
  3
AIGNBL0101005B
  0
POLYLINE
  8
LAYER_1
 40
0.2469
 41
0.2469
 66
1
 10
0
 20
0
 30
0
  0
VERTEX
  8
LAYER_1
 10
102.7876
 20
-175.3386
 42
0.4054543487
  0
VERTEX
  8
LAYER_1
 10
102.9126
 20
-174.6535
  0
SEQEND
  0
ENDBLK
  0
BLOCK
  8
LAYER_1
  2
AIGNBL0101005C
 70
64
 10
0
 20
0
 30
0
  3
AIGNBL0101005C
  0
POLYLINE
  8
LAYER_1
 40
0.2469
 41
0.2469
 66
1
 10
0
 20
0
 30
0
  0
VERTEX
  8
LAYER_1
 10
99.7876
 20
-175.3386
  0
VERTEX
  8
LAYER_1
 10
102.7876
 20
-175.3386
  0
SEQEND
  0
ENDBLK
  0
BLOCK
  8
LAYER_1
  2
AIGNBL0101005D
 70
64
 10
0
 20
0
 30
0
  3
AIGNBL0101005D
  0
POLYLINE
  8
LAYER_1
 40
0.2469
 41
0.2469
 66
1
 10
0
 20
0
 30
0
  0
VERTEX
  8
LAYER_1
 10
98.5452
 20
-178.4035
  0
VERTEX
  8
LAYER_1
 10
104.03
 20
-178.4035
  0
SEQEND
  0
ENDBLK
  0
BLOCK
  8
LAYER_1
  2
AIGNBL0101005E
 70
64
 10
0
 20
0
 30
0
  3
AIGNBL0101005E
  0
POLYLINE
  8
LAYER_1
 40
0.2469
 41
0.2469
 66
1
 10
0
 20
0
 30
0
  0
VERTEX
  8
LAYER_1
 10
98.5452
 20
-175.4035
  0
VERTEX
  8
LAYER_1
 10
104.03
 20
-175.4035
  0
SEQEND
  0
ENDBLK
  0
BLOCK
  8
LAYER_1
  2
AIGNBL0101005F
 70
64
 10
0
 20
0
 30
0
  3
AIGNBL0101005F
  0
POLYLINE
  8
LAYER_1
 40
0.2469
 41
0.2469
 66
1
 10
0
 20
0
 30
0
  0
VERTEX
  8
LAYER_1
 10
98.5452
 20
-175.4035
  0
VERTEX
  8
LAYER_1
 10
98.5452
 20
-178.4035
  0
SEQEND
  0
ENDBLK
  0
BLOCK
  8
LAYER_1
  2
AIGNBL01010060
 70
64
 10
0
 20
0
 30
0
  3
AIGNBL01010060
  0
POLYLINE
  8
LAYER_1
 40
0.2469
 41
0.2469
 66
1
 10
0
 20
0
 30
0
  0
VERTEX
  8
LAYER_1
 10
99.9164
 20
-175.4035
  0
VERTEX
  8
LAYER_1
 10
99.9164
 20
-178.4035
  0
SEQEND
  0
ENDBLK
  0
BLOCK
  8
LAYER_1
  2
AIGNBL01010061
 70
64
 10
0
 20
0
 30
0
  3
AIGNBL01010061
  0
POLYLINE
  8
LAYER_1
 40
0.2469
 41
0.2469
 66
1
 10
0
 20
0
 30
0
  0
VERTEX
  8
LAYER_1
 10
99.7876
 20
-175.3386
  0
VERTEX
  8
LAYER_1
 10
99.7876
 20
-175.4035
  0
SEQEND
  0
ENDBLK
  0
BLOCK
  8
LAYER_1
  2
AIGNBL01010062
 70
64
 10
0
 20
0
 30
0
  3
AIGNBL01010062
  0
POLYLINE
  8
LAYER_1
 40
0.2469
 41
0.2469
 66
1
 10
0
 20
0
 30
0
  0
VERTEX
  8
LAYER_1
 10
102.6588
 20
-175.4035
  0
VERTEX
  8
LAYER_1
 10
102.6588
 20
-178.4035
  0
SEQEND
  0
ENDBLK
  0
BLOCK
  8
LAYER_1
  2
AIGNBL01010063
 70
64
 10
0
 20
0
 30
0
  3
AIGNBL01010063
  0
POLYLINE
  8
LAYER_1
 40
0.2469
 41
0.2469
 66
1
 10
0
 20
0
 30
0
  0
VERTEX
  8
LAYER_1
 10
104.03
 20
-175.4035
  0
VERTEX
  8
LAYER_1
 10
104.03
 20
-178.4035
  0
SEQEND
  0
ENDBLK
  0
BLOCK
  8
LAYER_1
  2
AIGNBL01010064
 70
64
 10
0
 20
0
 30
0
  3
AIGNBL01010064
  0
POLYLINE
  8
LAYER_1
 40
0.2469
 41
0.2469
 66
1
 10
0
 20
0
 30
0
  0
VERTEX
  8
LAYER_1
 10
102.7876
 20
-175.3386
  0
VERTEX
  8
LAYER_1
 10
102.7876
 20
-175.4035
  0
SEQEND
  0
ENDBLK
  0
BLOCK
  8
LAYER_1
  2
AIGNBL01010065
 70
64
 10
0
 20
0
 30
0
  3
AIGNBL01010065
  0
POLYLINE
  8
LAYER_1
 40
0.2469
 41
0.2469
 66
1
 10
0
 20
0
 30
0
  0
VERTEX
  8
LAYER_1
 10
99.7876
 20
-164.0285
  0
VERTEX
  8
LAYER_1
 10
99.7876
 20
-170.9035
  0
SEQEND
  0
ENDBLK
  0
BLOCK
  8
LAYER_1
  2
AIGNBL01010066
 70
64
 10
0
 20
0
 30
0
  3
AIGNBL01010066
  0
POLYLINE
  8
LAYER_1
 40
0.2469
 41
0.2469
 66
1
 10
0
 20
0
 30
0
  0
VERTEX
  8
LAYER_1
 10
99.1001
 20
-170.0285
  0
VERTEX
  8
LAYER_1
 10
99.1001
 20
-161.5285
  0
SEQEND
  0
ENDBLK
  0
BLOCK
  8
LAYER_1
  2
AIGNBL01010067
 70
64
 10
0
 20
0
 30
0
  3
AIGNBL01010067
  0
POLYLINE
  8
LAYER_1
 40
0.2469
 41
0.2469
 66
1
 10
0
 20
0
 30
0
  0
VERTEX
  8
LAYER_1
 10
96.1001
 20
-170.0285
  0
VERTEX
  8
LAYER_1
 10
96.1001
 20
-161.5285
  0
SEQEND
  0
ENDBLK
  0
BLOCK
  8
LAYER_1
  2
AIGNBL01010068
 70
64
 10
0
 20
0
 30
0
  3
AIGNBL01010068
  0
POLYLINE
  8
LAYER_1
 40
0.2469
 41
0.2469
 66
1
 10
0
 20
0
 30
0
  0
VERTEX
  8
LAYER_1
 10
102.7876
 20
-164.0285
  0
VERTEX
  8
LAYER_1
 10
102.7876
 20
-170.9035
  0
SEQEND
  0
ENDBLK
  0
BLOCK
  8
LAYER_1
  2
AIGNBL01010069
 70
64
 10
0
 20
0
 30
0
  3
AIGNBL01010069
  0
POLYLINE
  8
LAYER_1
 40
0.2469
 41
0.2469
 66
1
 10
0
 20
0
 30
0
  0
VERTEX
  8
LAYER_1
 10
102.9126
 20
-171.9035
  0
VERTEX
  8
LAYER_1
 10
99.6626
 20
-171.9035
  0
SEQEND
  0
ENDBLK
  0
BLOCK
  8
LAYER_1
  2
AIGNBL0101006A
 70
64
 10
0
 20
0
 30
0
  3
AIGNBL0101006A
  0
POLYLINE
  8
LAYER_1
 40
0.2469
 41
0.2469
 66
1
 10
0
 20
0
 30
0
  0
VERTEX
  8
LAYER_1
 10
102.9126
 20
-174.6535
  0
VERTEX
  8
LAYER_1
 10
99.6626
 20
-174.6535
  0
SEQEND
  0
ENDBLK
  0
BLOCK
  8
LAYER_1
  2
AIGNBL0101006B
 70
64
 10
0
 20
0
 30
0
  3
AIGNBL0101006B
  0
POLYLINE
  8
LAYER_1
 40
0.2469
 41
0.2469
 66
1
 10
0
 20
0
 30
0
  0
VERTEX
  8
LAYER_1
 10
103.0751
 20
-170.9035
  0
VERTEX
  8
LAYER_1
 10
99.5001
 20
-170.9035
  0
SEQEND
  0
ENDBLK
  0
BLOCK
  8
LAYER_1
  2
AIGNBL0101006C
 70
64
 10
0
 20
0
 30
0
  3
AIGNBL0101006C
  0
POLYLINE
  8
LAYER_1
 40
0.2469
 41
0.2469
 66
1
 10
0
 20
0
 30
0
  0
VERTEX
  8
LAYER_1
 10
99.6626
 20
-171.9035
  0
VERTEX
  8
LAYER_1
 10
99.6626
 20
-174.6535
  0
SEQEND
  0
ENDBLK
  0
BLOCK
  8
LAYER_1
  2
AIGNBL0101006D
 70
64
 10
0
 20
0
 30
0
  3
AIGNBL0101006D
  0
POLYLINE
  8
LAYER_1
 40
0.2469
 41
0.2469
 66
1
 10
0
 20
0
 30
0
  0
VERTEX
  8
LAYER_1
 10
99.5001
 20
-170.9035
  0
VERTEX
  8
LAYER_1
 10
99.6626
 20
-171.9035
  0
SEQEND
  0
ENDBLK
  0
BLOCK
  8
LAYER_1
  2
AIGNBL0101006E
 70
64
 10
0
 20
0
 30
0
  3
AIGNBL0101006E
  0
POLYLINE
  8
LAYER_1
 40
0.2469
 41
0.2469
 66
1
 10
0
 20
0
 30
0
  0
VERTEX
  8
LAYER_1
 10
99.1001
 20
-170.0285
  0
VERTEX
  8
LAYER_1
 10
96.1001
 20
-170.0285
  0
SEQEND
  0
ENDBLK
  0
BLOCK
  8
LAYER_1
  2
AIGNBL0101006F
 70
64
 10
0
 20
0
 30
0
  3
AIGNBL0101006F
  0
POLYLINE
  8
LAYER_1
 40
0.2469
 41
0.2469
 66
1
 10
0
 20
0
 30
0
  0
VERTEX
  8
LAYER_1
 10
102.9126
 20
-171.9035
  0
VERTEX
  8
LAYER_1
 10
102.9126
 20
-174.6535
  0
SEQEND
  0
ENDBLK
  0
BLOCK
  8
LAYER_1
  2
AIGNBL01010070
 70
64
 10
0
 20
0
 30
0
  3
AIGNBL01010070
  0
POLYLINE
  8
LAYER_1
 40
0.2469
 41
0.2469
 66
1
 10
0
 20
0
 30
0
  0
VERTEX
  8
LAYER_1
 10
103.0751
 20
-170.9035
  0
VERTEX
  8
LAYER_1
 10
102.9126
 20
-171.9035
  0
SEQEND
  0
ENDBLK
  0
BLOCK
  8
LAYER_1
  2
AIGNBL01010071
 70
64
 10
0
 20
0
 30
0
  3
AIGNBL01010071
  0
POLYLINE
  8
LAYER_1
 40
0.2469
 41
0.2469
 66
1
 10
0
 20
0
 30
0
  0
VERTEX
  8
LAYER_1
 10
106.2617
 20
-157.5285
  0
VERTEX
  8
LAYER_1
 10
94.5376
 20
-157.5285
  0
SEQEND
  0
ENDBLK
  0
BLOCK
  8
LAYER_1
  2
AIGNBL01010072
 70
64
 10
0
 20
0
 30
0
  3
AIGNBL01010072
  0
POLYLINE
  8
LAYER_1
 40
0.2469
 41
0.2469
 66
1
 10
0
 20
0
 30
0
  0
VERTEX
  8
LAYER_1
 10
99.7876
 20
-164.0285
  0
VERTEX
  8
LAYER_1
 10
102.7876
 20
-164.0285
  0
SEQEND
  0
ENDBLK
  0
BLOCK
  8
LAYER_1
  2
AIGNBL01010073
 70
64
 10
0
 20
0
 30
0
  3
AIGNBL01010073
  0
POLYLINE
  8
LAYER_1
 40
0.2469
 41
0.2469
 66
1
 10
0
 20
0
 30
0
  0
VERTEX
  8
LAYER_1
 10
99.7876
 20
-162.7785
  0
VERTEX
  8
LAYER_1
 10
102.7876
 20
-162.7785
  0
SEQEND
  0
ENDBLK
  0
BLOCK
  8
LAYER_1
  2
AIGNBL01010074
 70
64
 10
0
 20
0
 30
0
  3
AIGNBL01010074
  0
POLYLINE
  8
LAYER_1
 40
0.2469
 41
0.2469
 66
1
 10
0
 20
0
 30
0
  0
VERTEX
  8
LAYER_1
 10
96.5176
 20
-161.5285
  0
VERTEX
  8
LAYER_1
 10
96.5176
 20
-157.5285
  0
SEQEND
  0
ENDBLK
  0
BLOCK
  8
LAYER_1
  2
AIGNBL01010075
 70
64
 10
0
 20
0
 30
0
  3
AIGNBL01010075
  0
POLYLINE
  8
LAYER_1
 40
0.2469
 41
0.2469
 66
1
 10
0
 20
0
 30
0
  0
VERTEX
  8
LAYER_1
 10
95.435
 20
-161.5285
  0
VERTEX
  8
LAYER_1
 10
95.435
 20
-157.5285
  0
SEQEND
  0
ENDBLK
  0
BLOCK
  8
LAYER_1
  2
AIGNBL01010076
 70
64
 10
0
 20
0
 30
0
  3
AIGNBL01010076
  0
POLYLINE
  8
LAYER_1
 40
0.2469
 41
0.2469
 66
1
 10
0
 20
0
 30
0
  0
VERTEX
  8
LAYER_1
 10
99.7652
 20
-161.5285
  0
VERTEX
  8
LAYER_1
 10
99.7652
 20
-157.5285
  0
SEQEND
  0
ENDBLK
  0
BLOCK
  8
LAYER_1
  2
AIGNBL01010077
 70
64
 10
0
 20
0
 30
0
  3
AIGNBL01010077
  0
POLYLINE
  8
LAYER_1
 40
0.2469
 41
0.2469
 66
1
 10
0
 20
0
 30
0
  0
VERTEX
  8
LAYER_1
 10
98.6826
 20
-161.5285
  0
VERTEX
  8
LAYER_1
 10
98.6826
 20
-157.5285
  0
SEQEND
  0
ENDBLK
  0
BLOCK
  8
LAYER_1
  2
AIGNBL01010078
 70
64
 10
0
 20
0
 30
0
  3
AIGNBL01010078
  0
POLYLINE
  8
LAYER_1
 40
0.2469
 41
0.2469
 66
1
 10
0
 20
0
 30
0
  0
VERTEX
  8
LAYER_1
 10
99.7876
 20
-157.5285
  0
VERTEX
  8
LAYER_1
 10
99.7876
 20
-162.7785
  0
SEQEND
  0
ENDBLK
  0
BLOCK
  8
LAYER_1
  2
AIGNBL01010079
 70
64
 10
0
 20
0
 30
0
  3
AIGNBL01010079
  0
POLYLINE
  8
LAYER_1
 40
0.2469
 41
0.2469
 66
1
 10
0
 20
0
 30
0
  0
VERTEX
  8
LAYER_1
 10
99.7652
 20
-161.5285
  0
VERTEX
  8
LAYER_1
 10
95.435
 20
-161.5285
  0
SEQEND
  0
ENDBLK
  0
BLOCK
  8
LAYER_1
  2
AIGNBL0101007A
 70
64
 10
0
 20
0
 30
0
  3
AIGNBL0101007A
  0
POLYLINE
  8
LAYER_1
 40
0.2469
 41
0.2469
 66
1
 10
0
 20
0
 30
0
  0
VERTEX
  8
LAYER_1
 10
102.7876
 20
-157.5285
  0
VERTEX
  8
LAYER_1
 10
102.7876
 20
-162.7785
  0
SEQEND
  0
ENDBLK
  0
BLOCK
  8
LAYER_1
  2
AIGNBL0101007B
 70
64
 10
0
 20
0
 30
0
  3
AIGNBL0101007B
  0
POLYLINE
  8
LAYER_1
 40
0.2469
 41
0.2469
 66
1
 10
0
 20
0
 30
0
  0
VERTEX
  8
LAYER_1
 10
106.2617
 20
-155.5285
  0
VERTEX
  8
LAYER_1
 10
94.5376
 20
-155.5285
  0
SEQEND
  0
ENDBLK
  0
BLOCK
  8
LAYER_1
  2
AIGNBL0101007C
 70
64
 10
0
 20
0
 30
0
  3
AIGNBL0101007C
  0
POLYLINE
  8
LAYER_1
 40
0.2469
 41
0.2469
 66
1
 10
0
 20
0
 30
0
  0
VERTEX
  8
LAYER_1
 10
106.2617
 20
-154.7785
  0
VERTEX
  8
LAYER_1
 10
94.5376
 20
-154.7785
  0
SEQEND
  0
ENDBLK
  0
BLOCK
  8
LAYER_1
  2
AIGNBL0101007D
 70
64
 10
0
 20
0
 30
0
  3
AIGNBL0101007D
  0
POLYLINE
  8
LAYER_1
 40
0.2469
 41
0.2469
 66
1
 10
0
 20
0
 30
0
  0
VERTEX
  8
LAYER_1
 10
106.2617
 20
-156.7785
  0
VERTEX
  8
LAYER_1
 10
94.5376
 20
-156.7785
  0
SEQEND
  0
ENDBLK
  0
BLOCK
  8
LAYER_1
  2
AIGNBL0101007E
 70
64
 10
0
 20
0
 30
0
  3
AIGNBL0101007E
  0
POLYLINE
  8
LAYER_1
 40
0.2469
 41
0.2469
 66
1
 10
0
 20
0
 30
0
  0
VERTEX
  8
LAYER_1
 10
103.0751
 20
-155.9035
  0
VERTEX
  8
LAYER_1
 10
99.5001
 20
-155.9035
  0
SEQEND
  0
ENDBLK
  0
BLOCK
  8
LAYER_1
  2
AIGNBL0101007F
 70
64
 10
0
 20
0
 30
0
  3
AIGNBL0101007F
  0
POLYLINE
  8
LAYER_1
 40
0.2469
 41
0.2469
 66
1
 10
0
 20
0
 30
0
  0
VERTEX
  8
LAYER_1
 10
96.1001
 20
-154.7785
  0
VERTEX
  8
LAYER_1
 10
96.1001
 20
-152.4035
  0
SEQEND
  0
ENDBLK
  0
BLOCK
  8
LAYER_1
  2
AIGNBL01010080
 70
64
 10
0
 20
0
 30
0
  3
AIGNBL01010080
  0
POLYLINE
  8
LAYER_1
 40
0.2469
 41
0.2469
 66
1
 10
0
 20
0
 30
0
  0
VERTEX
  8
LAYER_1
 10
99.1001
 20
-154.7785
  0
VERTEX
  8
LAYER_1
 10
99.1001
 20
-152.4035
  0
SEQEND
  0
ENDBLK
  0
BLOCK
  8
LAYER_1
  2
AIGNBL01010081
 70
64
 10
0
 20
0
 30
0
  3
AIGNBL01010081
  0
POLYLINE
  8
LAYER_1
 40
0.2469
 41
0.2469
 66
1
 10
0
 20
0
 30
0
  0
VERTEX
  8
LAYER_1
 10
99.6626
 20
-152.4035
  0
VERTEX
  8
LAYER_1
 10
99.6626
 20
-154.7785
  0
SEQEND
  0
ENDBLK
  0
BLOCK
  8
LAYER_1
  2
AIGNBL01010082
 70
64
 10
0
 20
0
 30
0
  3
AIGNBL01010082
  0
POLYLINE
  8
LAYER_1
 40
0.2469
 41
0.2469
 66
1
 10
0
 20
0
 30
0
  0
VERTEX
  8
LAYER_1
 10
94.5376
 20
-155.5285
  0
VERTEX
  8
LAYER_1
 10
94.5376
 20
-154.7785
  0
SEQEND
  0
ENDBLK
  0
BLOCK
  8
LAYER_1
  2
AIGNBL01010083
 70
64
 10
0
 20
0
 30
0
  3
AIGNBL01010083
  0
POLYLINE
  8
LAYER_1
 40
0.2469
 41
0.2469
 66
1
 10
0
 20
0
 30
0
  0
VERTEX
  8
LAYER_1
 10
96.1001
 20
-156.7785
  0
VERTEX
  8
LAYER_1
 10
96.1001
 20
-155.5285
  0
SEQEND
  0
ENDBLK
  0
BLOCK
  8
LAYER_1
  2
AIGNBL01010084
 70
64
 10
0
 20
0
 30
0
  3
AIGNBL01010084
  0
POLYLINE
  8
LAYER_1
 40
0.2469
 41
0.2469
 66
1
 10
0
 20
0
 30
0
  0
VERTEX
  8
LAYER_1
 10
99.561
 20
-155.5285
  0
VERTEX
  8
LAYER_1
 10
99.5001
 20
-155.9035
  0
SEQEND
  0
ENDBLK
  0
BLOCK
  8
LAYER_1
  2
AIGNBL01010085
 70
64
 10
0
 20
0
 30
0
  3
AIGNBL01010085
  0
POLYLINE
  8
LAYER_1
 40
0.2469
 41
0.2469
 66
1
 10
0
 20
0
 30
0
  0
VERTEX
  8
LAYER_1
 10
99.1001
 20
-156.7785
  0
VERTEX
  8
LAYER_1
 10
99.1001
 20
-155.5285
  0
SEQEND
  0
ENDBLK
  0
BLOCK
  8
LAYER_1
  2
AIGNBL01010086
 70
64
 10
0
 20
0
 30
0
  3
AIGNBL01010086
  0
POLYLINE
  8
LAYER_1
 40
0.2469
 41
0.2469
 66
1
 10
0
 20
0
 30
0
  0
VERTEX
  8
LAYER_1
 10
99.7876
 20
-155.9035
  0
VERTEX
  8
LAYER_1
 10
99.7876
 20
-156.7785
  0
SEQEND
  0
ENDBLK
  0
BLOCK
  8
LAYER_1
  2
AIGNBL01010087
 70
64
 10
0
 20
0
 30
0
  3
AIGNBL01010087
  0
POLYLINE
  8
LAYER_1
 40
0.2469
 41
0.2469
 66
1
 10
0
 20
0
 30
0
  0
VERTEX
  8
LAYER_1
 10
102.9126
 20
-152.4035
  0
VERTEX
  8
LAYER_1
 10
102.9126
 20
-154.7785
  0
SEQEND
  0
ENDBLK
  0
BLOCK
  8
LAYER_1
  2
AIGNBL01010088
 70
64
 10
0
 20
0
 30
0
  3
AIGNBL01010088
  0
POLYLINE
  8
LAYER_1
 40
0.2469
 41
0.2469
 66
1
 10
0
 20
0
 30
0
  0
VERTEX
  8
LAYER_1
 10
106.2617
 20
-155.5285
  0
VERTEX
  8
LAYER_1
 10
106.2617
 20
-154.7785
  0
SEQEND
  0
ENDBLK
  0
BLOCK
  8
LAYER_1
  2
AIGNBL01010089
 70
64
 10
0
 20
0
 30
0
  3
AIGNBL01010089
  0
POLYLINE
  8
LAYER_1
 40
0.2469
 41
0.2469
 66
1
 10
0
 20
0
 30
0
  0
VERTEX
  8
LAYER_1
 10
102.7876
 20
-155.9035
  0
VERTEX
  8
LAYER_1
 10
102.7876
 20
-156.7785
  0
SEQEND
  0
ENDBLK
  0
BLOCK
  8
LAYER_1
  2
AIGNBL0101008A
 70
64
 10
0
 20
0
 30
0
  3
AIGNBL0101008A
  0
POLYLINE
  8
LAYER_1
 40
0.2469
 41
0.2469
 66
1
 10
0
 20
0
 30
0
  0
VERTEX
  8
LAYER_1
 10
103.0142
 20
-155.5285
  0
VERTEX
  8
LAYER_1
 10
103.0751
 20
-155.9035
  0
SEQEND
  0
ENDBLK
  0
BLOCK
  8
LAYER_1
  2
AIGNBL0101008B
 70
64
 10
0
 20
0
 30
0
  3
AIGNBL0101008B
  0
INSERT
  8
LAYER_1
  2
AIGNBL0102008C
 10
0
 20
0
 30
0
  0
INSERT
  8
LAYER_1
  2
AIGNBL0102008D
 10
0
 20
0
 30
0
  0
INSERT
  8
LAYER_1
  2
AIGNBL0102008E
 10
0
 20
0
 30
0
  0
INSERT
  8
LAYER_1
  2
AIGNBL0102008F
 10
0
 20
0
 30
0
  0
INSERT
  8
LAYER_1
  2
AIGNBL01020090
 10
0
 20
0
 30
0
  0
INSERT
  8
LAYER_1
  2
AIGNBL01020091
 10
0
 20
0
 30
0
  0
ENDBLK
  0
BLOCK
  8
LAYER_1
  2
AIGNBL01010092
 70
64
 10
0
 20
0
 30
0
  3
AIGNBL01010092
  0
POLYLINE
  8
LAYER_1
  6
AIGENLINE001
 40
0.2469
 41
0.2469
 66
1
 10
0
 20
0
 30
0
 70
128
  0
VERTEX
  8
LAYER_1
 10
100.1001
 20
-148.4241
  0
VERTEX
  8
LAYER_1
 10
100.1001
 20
-154.5108
  0
SEQEND
  0
ENDBLK
  0
BLOCK
  8
LAYER_1
  2
AIGNBL01010093
 70
64
 10
0
 20
0
 30
0
  3
AIGNBL01010093
  0
POLYLINE
  8
LAYER_1
 40
0.2469
 41
0.2469
 66
1
 10
0
 20
0
 30
0
  0
VERTEX
  8
LAYER_1
 10
104.896
 20
-190.9039
  0
VERTEX
  8
LAYER_1
 10
104.896
 20
-184.0612
  0
SEQEND
  0
ENDBLK
  0
BLOCK
  8
LAYER_1
  2
AIGNBL01010094
 70
64
 10
0
 20
0
 30
0
  3
AIGNBL01010094
  0
POLYLINE
  8
LAYER_1
 40
0.2469
 41
0.2469
 66
1
 10
0
 20
0
 30
0
  0
VERTEX
  8
LAYER_1
 10
104.5835
 20
-191.0843
  0
VERTEX
  8
LAYER_1
 10
104.896
 20
-190.9039
  0
SEQEND
  0
ENDBLK
  0
BLOCK
  8
LAYER_1
  2
AIGNBL01010095
 70
64
 10
0
 20
0
 30
0
  3
AIGNBL01010095
  0
POLYLINE
  8
LAYER_1
 40
0.2469
 41
0.2469
 66
1
 10
0
 20
0
 30
0
  0
VERTEX
  8
LAYER_1
 10
104.5835
 20
-191.0843
  0
VERTEX
  8
LAYER_1
 10
101.2876
 20
-191.0843
  0
SEQEND
  0
ENDBLK
  0
BLOCK
  8
LAYER_1
  2
AIGNBL01010096
 70
64
 10
0
 20
0
 30
0
  3
AIGNBL01010096
  0
POLYLINE
  8
LAYER_1
 40
0.2469
 41
0.2469
 66
1
 10
0
 20
0
 30
0
  0
VERTEX
  8
LAYER_1
 10
101.2876
 20
-181.0843
  0
VERTEX
  8
LAYER_1
 10
103.1201
 20
-181.0843
  0
SEQEND
  0
ENDBLK
  0
BLOCK
  8
LAYER_1
  2
AIGNBL01010097
 70
64
 10
0
 20
0
 30
0
  3
AIGNBL01010097
  0
POLYLINE
  8
LAYER_1
 40
0.2469
 41
0.2469
 66
1
 10
0
 20
0
 30
0
  0
VERTEX
  8
LAYER_1
 10
103.9076
 20
-183.4905
  0
VERTEX
  8
LAYER_1
 10
104.896
 20
-184.0612
  0
SEQEND
  0
ENDBLK
  0
BLOCK
  8
LAYER_1
  2
AIGNBL01010098
 70
64
 10
0
 20
0
 30
0
  3
AIGNBL01010098
  0
POLYLINE
  8
LAYER_1
 40
0.2469
 41
0.2469
 66
1
 10
0
 20
0
 30
0
  0
VERTEX
  8
LAYER_1
 10
101.2876
 20
-183.4905
  0
VERTEX
  8
LAYER_1
 10
103.9076
 20
-183.4905
  0
SEQEND
  0
ENDBLK
  0
BLOCK
  8
LAYER_1
  2
AIGNBL01010099
 70
64
 10
0
 20
0
 30
0
  3
AIGNBL01010099
  0
POLYLINE
  8
LAYER_1
 40
0.2469
 41
0.2469
 66
1
 10
0
 20
0
 30
0
  0
VERTEX
  8
LAYER_1
 10
103.0918
 20
-190.5137
  0
VERTEX
  8
LAYER_1
 10
103.0918
 20
-184.0612
  0
SEQEND
  0
ENDBLK
  0
BLOCK
  8
LAYER_1
  2
AIGNBL0101009A
 70
64
 10
0
 20
0
 30
0
  3
AIGNBL0101009A
  0
POLYLINE
  8
LAYER_1
 40
0.2469
 41
0.2469
 66
1
 10
0
 20
0
 30
0
  0
VERTEX
  8
LAYER_1
 10
103.0918
 20
-184.0612
 42
0.2556514246
  0
VERTEX
  8
LAYER_1
 10
102.9043
 20
-183.8076
 42
0.09539481877
  0
VERTEX
  8
LAYER_1
 10
102.1283
 20
-183.5561
 42
0.03980979233
  0
VERTEX
  8
LAYER_1
 10
101.2876
 20
-183.4905
  0
SEQEND
  0
ENDBLK
  0
BLOCK
  8
LAYER_1
  2
AIGNBL0101009B
 70
64
 10
0
 20
0
 30
0
  3
AIGNBL0101009B
  0
POLYLINE
  8
LAYER_1
 40
0.2469
 41
0.2469
 66
1
 10
0
 20
0
 30
0
  0
VERTEX
  8
LAYER_1
 10
104.896
 20
-184.0612
 42
0.2645632097
  0
VERTEX
  8
LAYER_1
 10
103.0918
 20
-184.0612
  0
SEQEND
  0
ENDBLK
  0
BLOCK
  8
LAYER_1
  2
AIGNBL0101009C
 70
64
 10
0
 20
0
 30
0
  3
AIGNBL0101009C
  0
POLYLINE
  8
LAYER_1
 40
0.2469
 41
0.2469
 66
1
 10
0
 20
0
 30
0
  0
VERTEX
  8
LAYER_1
 10
103.0918
 20
-190.5137
 42
-0.2556633913
  0
VERTEX
  8
LAYER_1
 10
102.9043
 20
-190.7673
 42
-0.09537594964
  0
VERTEX
  8
LAYER_1
 10
102.1283
 20
-191.0187
 42
-0.03980764268
  0
VERTEX
  8
LAYER_1
 10
101.2876
 20
-191.0843
  0
SEQEND
  0
ENDBLK
  0
BLOCK
  8
LAYER_1
  2
AIGNBL0101009D
 70
64
 10
0
 20
0
 30
0
  3
AIGNBL0101009D
  0
POLYLINE
  8
LAYER_1
 40
0.2469
 41
0.2469
 66
1
 10
0
 20
0
 30
0
  0
VERTEX
  8
LAYER_1
 10
103.0918
 20
-190.5137
 42
0.4142022469
  0
VERTEX
  8
LAYER_1
 10
104.4216
 20
-190.9881
 42
0.1730314533
  0
VERTEX
  8
LAYER_1
 10
104.896
 20
-190.5137
  0
SEQEND
  0
ENDBLK
  0
BLOCK
  8
LAYER_1
  2
AIGNBL0101009E
 70
64
 10
0
 20
0
 30
0
  3
AIGNBL0101009E
  0
POLYLINE
  8
LAYER_1
 40
0.2469
 41
0.2469
 66
1
 10
0
 20
0
 30
0
  0
VERTEX
  8
LAYER_1
 10
103.3701
 20
-181.3343
  0
VERTEX
  8
LAYER_1
 10
103.3701
 20
-183.4905
  0
SEQEND
  0
ENDBLK
  0
BLOCK
  8
LAYER_1
  2
AIGNBL0101009F
 70
64
 10
0
 20
0
 30
0
  3
AIGNBL0101009F
  0
POLYLINE
  8
LAYER_1
 40
0.2469
 41
0.2469
 66
1
 10
0
 20
0
 30
0
  0
VERTEX
  8
LAYER_1
 10
103.1201
 20
-181.0843
  0
VERTEX
  8
LAYER_1
 10
103.3701
 20
-181.3343
  0
SEQEND
  0
ENDBLK
  0
BLOCK
  8
LAYER_1
  2
AIGNBL010100A0
 70
64
 10
0
 20
0
 30
0
  3
AIGNBL010100A0
  0
POLYLINE
  8
LAYER_1
 40
0.4974
 41
0.4974
 66
1
 10
0
 20
0
 30
0
  0
VERTEX
  8
LAYER_1
 10
101.2876
 20
-183.0986
  0
VERTEX
  8
LAYER_1
 10
103.3701
 20
-183.0986
  0
SEQEND
  0
ENDBLK
  0
BLOCK
  8
LAYER_1
  2
AIGNBL010100A1
 70
64
 10
0
 20
0
 30
0
  3
AIGNBL010100A1
  0
POLYLINE
  8
LAYER_1
 40
0.1799
 41
0.1799
 66
1
 10
0
 20
0
 30
0
  0
VERTEX
  8
LAYER_1
 10
103.1618
 20
-181.1261
  0
VERTEX
  8
LAYER_1
 10
103.1618
 20
-183.0986
  0
SEQEND
  0
ENDBLK
  0
BLOCK
  8
LAYER_1
  2
AIGNBL010100A2
 70
64
 10
0
 20
0
 30
0
  3
AIGNBL010100A2
  0
POLYLINE
  8
LAYER_1
 40
0.2469
 41
0.2469
 66
1
 10
0
 20
0
 30
0
  0
VERTEX
  8
LAYER_1
 10
103.1618
 20
-183.0986
  0
VERTEX
  8
LAYER_1
 10
103.3701
 20
-183.4593
  0
SEQEND
  0
ENDBLK
  0
BLOCK
  8
LAYER_1
  2
AIGNBL010100A3
 70
64
 10
0
 20
0
 30
0
  3
AIGNBL010100A3
  0
POLYLINE
  8
LAYER_1
 40
0.2469
 41
0.2469
 66
1
 10
0
 20
0
 30
0
  0
VERTEX
  8
LAYER_1
 10
103.3701
 20
-181.3343
  0
VERTEX
  8
LAYER_1
 10
101.2876
 20
-181.3343
  0
SEQEND
  0
ENDBLK
  0
BLOCK
  8
LAYER_1
  2
AIGNBL010100A4
 70
64
 10
0
 20
0
 30
0
  3
AIGNBL010100A4
  0
POLYLINE
  8
LAYER_1
 40
0.2469
 41
0.2469
 66
1
 10
0
 20
0
 30
0
  0
VERTEX
  8
LAYER_1
 10
97.6791
 20
-190.9039
  0
VERTEX
  8
LAYER_1
 10
97.6791
 20
-184.0612
  0
SEQEND
  0
ENDBLK
  0
BLOCK
  8
LAYER_1
  2
AIGNBL010100A5
 70
64
 10
0
 20
0
 30
0
  3
AIGNBL010100A5
  0
POLYLINE
  8
LAYER_1
 40
0.2469
 41
0.2469
 66
1
 10
0
 20
0
 30
0
  0
VERTEX
  8
LAYER_1
 10
97.9916
 20
-191.0843
  0
VERTEX
  8
LAYER_1
 10
97.6791
 20
-190.9039
  0
SEQEND
  0
ENDBLK
  0
BLOCK
  8
LAYER_1
  2
AIGNBL010100A6
 70
64
 10
0
 20
0
 30
0
  3
AIGNBL010100A6
  0
POLYLINE
  8
LAYER_1
 40
0.2469
 41
0.2469
 66
1
 10
0
 20
0
 30
0
  0
VERTEX
  8
LAYER_1
 10
97.9916
 20
-191.0843
  0
VERTEX
  8
LAYER_1
 10
101.2876
 20
-191.0843
  0
SEQEND
  0
ENDBLK
  0
BLOCK
  8
LAYER_1
  2
AIGNBL010100A7
 70
64
 10
0
 20
0
 30
0
  3
AIGNBL010100A7
  0
POLYLINE
  8
LAYER_1
 40
0.2469
 41
0.2469
 66
1
 10
0
 20
0
 30
0
  0
VERTEX
  8
LAYER_1
 10
101.2876
 20
-181.0843
  0
VERTEX
  8
LAYER_1
 10
99.4551
 20
-181.0843
  0
SEQEND
  0
ENDBLK
  0
BLOCK
  8
LAYER_1
  2
AIGNBL010100A8
 70
64
 10
0
 20
0
 30
0
  3
AIGNBL010100A8
  0
POLYLINE
  8
LAYER_1
 40
0.2469
 41
0.2469
 66
1
 10
0
 20
0
 30
0
  0
VERTEX
  8
LAYER_1
 10
98.6676
 20
-183.4905
  0
VERTEX
  8
LAYER_1
 10
97.6791
 20
-184.0612
  0
SEQEND
  0
ENDBLK
  0
BLOCK
  8
LAYER_1
  2
AIGNBL010100A9
 70
64
 10
0
 20
0
 30
0
  3
AIGNBL010100A9
  0
POLYLINE
  8
LAYER_1
 40
0.2469
 41
0.2469
 66
1
 10
0
 20
0
 30
0
  0
VERTEX
  8
LAYER_1
 10
101.2876
 20
-183.4905
  0
VERTEX
  8
LAYER_1
 10
98.6676
 20
-183.4905
  0
SEQEND
  0
ENDBLK
  0
BLOCK
  8
LAYER_1
  2
AIGNBL010100AA
 70
64
 10
0
 20
0
 30
0
  3
AIGNBL010100AA
  0
POLYLINE
  8
LAYER_1
 40
0.2469
 41
0.2469
 66
1
 10
0
 20
0
 30
0
  0
VERTEX
  8
LAYER_1
 10
99.4834
 20
-190.5137
  0
VERTEX
  8
LAYER_1
 10
99.4834
 20
-184.0612
  0
SEQEND
  0
ENDBLK
  0
BLOCK
  8
LAYER_1
  2
AIGNBL010100AB
 70
64
 10
0
 20
0
 30
0
  3
AIGNBL010100AB
  0
POLYLINE
  8
LAYER_1
 40
0.2469
 41
0.2469
 66
1
 10
0
 20
0
 30
0
  0
VERTEX
  8
LAYER_1
 10
99.4834
 20
-184.0612
 42
-0.255645804
  0
VERTEX
  8
LAYER_1
 10
99.6709
 20
-183.8076
 42
-0.09540418401
  0
VERTEX
  8
LAYER_1
 10
100.4468
 20
-183.5561
 42
-0.03980869191
  0
VERTEX
  8
LAYER_1
 10
101.2876
 20
-183.4905
  0
SEQEND
  0
ENDBLK
  0
BLOCK
  8
LAYER_1
  2
AIGNBL010100AC
 70
64
 10
0
 20
0
 30
0
  3
AIGNBL010100AC
  0
POLYLINE
  8
LAYER_1
 40
0.2469
 41
0.2469
 66
1
 10
0
 20
0
 30
0
  0
VERTEX
  8
LAYER_1
 10
99.4834
 20
-184.0612
 42
0.2645759549
  0
VERTEX
  8
LAYER_1
 10
97.6791
 20
-184.0612
  0
SEQEND
  0
ENDBLK
  0
BLOCK
  8
LAYER_1
  2
AIGNBL010100AD
 70
64
 10
0
 20
0
 30
0
  3
AIGNBL010100AD
  0
POLYLINE
  8
LAYER_1
 40
0.2469
 41
0.2469
 66
1
 10
0
 20
0
 30
0
  0
VERTEX
  8
LAYER_1
 10
99.4834
 20
-190.5137
 42
0.2556577751
  0
VERTEX
  8
LAYER_1
 10
99.6709
 20
-190.7673
 42
0.09538531387
  0
VERTEX
  8
LAYER_1
 10
100.4468
 20
-191.0187
 42
0.03980654234
  0
VERTEX
  8
LAYER_1
 10
101.2876
 20
-191.0843
  0
SEQEND
  0
ENDBLK
  0
BLOCK
  8
LAYER_1
  2
AIGNBL010100AE
 70
64
 10
0
 20
0
 30
0
  3
AIGNBL010100AE
  0
POLYLINE
  8
LAYER_1
 40
0.2469
 41
0.2469
 66
1
 10
0
 20
0
 30
0
  0
VERTEX
  8
LAYER_1
 10
97.6791
 20
-190.5137
 42
0.4141964996
  0
VERTEX
  8
LAYER_1
 10
99.0089
 20
-190.9881
 42
0.1730475549
  0
VERTEX
  8
LAYER_1
 10
99.4834
 20
-190.5137
  0
SEQEND
  0
ENDBLK
  0
BLOCK
  8
LAYER_1
  2
AIGNBL010100AF
 70
64
 10
0
 20
0
 30
0
  3
AIGNBL010100AF
  0
POLYLINE
  8
LAYER_1
 40
0.2469
 41
0.2469
 66
1
 10
0
 20
0
 30
0
  0
VERTEX
  8
LAYER_1
 10
99.2051
 20
-181.3343
  0
VERTEX
  8
LAYER_1
 10
99.2051
 20
-183.4905
  0
SEQEND
  0
ENDBLK
  0
BLOCK
  8
LAYER_1
  2
AIGNBL010100B0
 70
64
 10
0
 20
0
 30
0
  3
AIGNBL010100B0
  0
POLYLINE
  8
LAYER_1
 40
0.2469
 41
0.2469
 66
1
 10
0
 20
0
 30
0
  0
VERTEX
  8
LAYER_1
 10
99.4551
 20
-181.0843
  0
VERTEX
  8
LAYER_1
 10
99.2051
 20
-181.3343
  0
SEQEND
  0
ENDBLK
  0
BLOCK
  8
LAYER_1
  2
AIGNBL010100B1
 70
64
 10
0
 20
0
 30
0
  3
AIGNBL010100B1
  0
POLYLINE
  8
LAYER_1
 40
0.4974
 41
0.4974
 66
1
 10
0
 20
0
 30
0
  0
VERTEX
  8
LAYER_1
 10
101.2876
 20
-183.0986
  0
VERTEX
  8
LAYER_1
 10
99.2051
 20
-183.0986
  0
SEQEND
  0
ENDBLK
  0
BLOCK
  8
LAYER_1
  2
AIGNBL010100B2
 70
64
 10
0
 20
0
 30
0
  3
AIGNBL010100B2
  0
POLYLINE
  8
LAYER_1
 40
0.1799
 41
0.1799
 66
1
 10
0
 20
0
 30
0
  0
VERTEX
  8
LAYER_1
 10
99.4133
 20
-181.1261
  0
VERTEX
  8
LAYER_1
 10
99.4133
 20
-183.0986
  0
SEQEND
  0
ENDBLK
  0
BLOCK
  8
LAYER_1
  2
AIGNBL010100B3
 70
64
 10
0
 20
0
 30
0
  3
AIGNBL010100B3
  0
POLYLINE
  8
LAYER_1
 40
0.2469
 41
0.2469
 66
1
 10
0
 20
0
 30
0
  0
VERTEX
  8
LAYER_1
 10
99.4133
 20
-183.0986
  0
VERTEX
  8
LAYER_1
 10
99.2051
 20
-183.4593
  0
SEQEND
  0
ENDBLK
  0
BLOCK
  8
LAYER_1
  2
AIGNBL010100B4
 70
64
 10
0
 20
0
 30
0
  3
AIGNBL010100B4
  0
POLYLINE
  8
LAYER_1
 40
0.2469
 41
0.2469
 66
1
 10
0
 20
0
 30
0
  0
VERTEX
  8
LAYER_1
 10
99.2051
 20
-181.3343
  0
VERTEX
  8
LAYER_1
 10
101.2876
 20
-181.3343
  0
SEQEND
  0
ENDBLK
  0
BLOCK
  8
LAYER_1
  2
AIGNBL010100B5
 70
64
 10
0
 20
0
 30
0
  3
AIGNBL010100B5
  0
INSERT
  8
LAYER_1
  2
AIGNBL010200B6
 10
0
 20
0
 30
0
  0
INSERT
  8
LAYER_1
  2
AIGNBL010200B7
 10
0
 20
0
 30
0
  0
INSERT
  8
LAYER_1
  2
AIGNBL010200B8
 10
0
 20
0
 30
0
  0
INSERT
  8
LAYER_1
  2
AIGNBL010200B9
 10
0
 20
0
 30
0
  0
INSERT
  8
LAYER_1
  2
AIGNBL010200BA
 10
0
 20
0
 30
0
  0
INSERT
  8
LAYER_1
  2
AIGNBL010200BB
 10
0
 20
0
 30
0
  0
ENDBLK
  0
BLOCK
  8
LAYER_1
  2
AIGNBL010100BC
 70
64
 10
0
 20
0
 30
0
  3
AIGNBL010100BC
  0
INSERT
  8
LAYER_1
  2
AIGNBL010200BD
 10
0
 20
0
 30
0
  0
INSERT
  8
LAYER_1
  2
AIGNBL010200BE
 10
0
 20
0
 30
0
  0
INSERT
  8
LAYER_1
  2
AIGNBL010200BF
 10
0
 20
0
 30
0
  0
INSERT
  8
LAYER_1
  2
AIGNBL010200C0
 10
0
 20
0
 30
0
  0
INSERT
  8
LAYER_1
  2
AIGNBL010200C1
 10
0
 20
0
 30
0
  0
INSERT
  8
LAYER_1
  2
AIGNBL010200C2
 10
0
 20
0
 30
0
  0
INSERT
  8
LAYER_1
  2
AIGNBL010200C3
 10
0
 20
0
 30
0
  0
ENDBLK
  0
BLOCK
  8
LAYER_1
  2
AIGNBL010100C4
 70
64
 10
0
 20
0
 30
0
  3
AIGNBL010100C4
  0
CIRCLE
  8
LAYER_1
 10
132.9704
 20
-183.9358
 40
4.375
  0
ENDBLK
  0
BLOCK
  8
LAYER_1
  2
AIGNBL010100C5
 70
64
 10
0
 20
0
 30
0
  3
AIGNBL010100C5
  0
POLYLINE
  8
LAYER_1
 40
0.2469
 41
0.2469
 66
1
 10
0
 20
0
 30
0
  0
VERTEX
  8
LAYER_1
 10
132.5329
 20
-183.9358
  0
VERTEX
  8
LAYER_1
 10
133.4079
 20
-183.9358
  0
SEQEND
  0
ENDBLK
  0
BLOCK
  8
LAYER_1
  2
AIGNBL010100C6
 70
64
 10
0
 20
0
 30
0
  3
AIGNBL010100C6
  0
POLYLINE
  8
LAYER_1
 40
0.2469
 41
0.2469
 66
1
 10
0
 20
0
 30
0
  0
VERTEX
  8
LAYER_1
 10
132.9704
 20
-184.3733
  0
VERTEX
  8
LAYER_1
 10
132.9704
 20
-183.4983
  0
SEQEND
  0
ENDBLK
  0
BLOCK
  8
LAYER_1
  2
AIGNBL010100C7
 70
64
 10
0
 20
0
 30
0
  3
AIGNBL010100C7
  0
POLYLINE
  8
LAYER_1
  6
AIGENLINE002
 40
0.2469
 41
0.2469
 66
1
 10
0
 20
0
 30
0
 70
128
  0
VERTEX
  8
LAYER_1
 10
127.7204
 20
-183.9358
  0
VERTEX
  8
LAYER_1
 10
132.0954
 20
-183.9358
  0
SEQEND
  0
ENDBLK
  0
BLOCK
  8
LAYER_1
  2
AIGNBL010100C8
 70
64
 10
0
 20
0
 30
0
  3
AIGNBL010100C8
  0
POLYLINE
  8
LAYER_1
  6
AIGENLINE002
 40
0.2469
 41
0.2469
 66
1
 10
0
 20
0
 30
0
 70
128
  0
VERTEX
  8
LAYER_1
 10
133.8454
 20
-183.9358
  0
VERTEX
  8
LAYER_1
 10
138.2204
 20
-183.9358
  0
SEQEND
  0
ENDBLK
  0
BLOCK
  8
LAYER_1
  2
AIGNBL010100C9
 70
64
 10
0
 20
0
 30
0
  3
AIGNBL010100C9
  0
POLYLINE
  8
LAYER_1
  6
AIGENLINE002
 40
0.2469
 41
0.2469
 66
1
 10
0
 20
0
 30
0
 70
128
  0
VERTEX
  8
LAYER_1
 10
132.9704
 20
-189.1858
  0
VERTEX
  8
LAYER_1
 10
132.9704
 20
-184.8108
  0
SEQEND
  0
ENDBLK
  0
BLOCK
  8
LAYER_1
  2
AIGNBL010100CA
 70
64
 10
0
 20
0
 30
0
  3
AIGNBL010100CA
  0
POLYLINE
  8
LAYER_1
  6
AIGENLINE002
 40
0.2469
 41
0.2469
 66
1
 10
0
 20
0
 30
0
 70
128
  0
VERTEX
  8
LAYER_1
 10
132.9704
 20
-183.0608
  0
VERTEX
  8
LAYER_1
 10
132.9704
 20
-178.6858
  0
SEQEND
  0
ENDBLK
  0
BLOCK
  8
LAYER_1
  2
AIGNBL010100CB
 70
64
 10
0
 20
0
 30
0
  3
AIGNBL010100CB
  0
INSERT
  8
LAYER_1
  2
AIGNBL010200CC
 10
0
 20
0
 30
0
  0
INSERT
  8
LAYER_1
  2
AIGNBL010200CD
 10
0
 20
0
 30
0
  0
INSERT
  8
LAYER_1
  2
AIGNBL010200CE
 10
0
 20
0
 30
0
  0
INSERT
  8
LAYER_1
  2
AIGNBL010200CF
 10
0
 20
0
 30
0
  0
INSERT
  8
LAYER_1
  2
AIGNBL010200D0
 10
0
 20
0
 30
0
  0
INSERT
  8
LAYER_1
  2
AIGNBL010200D1
 10
0
 20
0
 30
0
  0
ENDBLK
  0
BLOCK
  8
LAYER_1
  2
AIGNBL010100D2
 70
64
 10
0
 20
0
 30
0
  3
AIGNBL010100D2
  0
TEXT
  8
LAYER_1
 10
124.1402
 20
-193.616
 11
124.1402
 21
-193.616
 40
3.473
 41
0.5
  1
水栓取付孔
  0
ENDBLK
  0
BLOCK
  8
LAYER_1
  2
AIGNBL010100D3
 70
64
 10
0
 20
0
 30
0
  3
AIGNBL010100D3
  0
POLYLINE
  8
LAYER_1
  6
AIGENLINE003
 40
0.2469
 41
0.2469
 66
1
 10
0
 20
0
 30
0
 70
128
  0
VERTEX
  8
LAYER_1
 10
144.5674
 20
-168.4093
  0
VERTEX
  8
LAYER_1
 10
121.3836
 20
-168.4093
  0
SEQEND
  0
ENDBLK
  0
BLOCK
  8
LAYER_1
  2
AIGNBL010100D4
 70
64
 10
0
 20
0
 30
0
  3
AIGNBL010100D4
  0
POLYLINE
  8
LAYER_1
  6
AIGENLINE003
 40
0.2469
 41
0.2469
 66
1
 10
0
 20
0
 30
0
 70
128
  0
VERTEX
  8
LAYER_1
 10
118.8836
 20
-170.9093
  0
VERTEX
  8
LAYER_1
 10
118.8836
 20
-193.0941
  0
SEQEND
  0
ENDBLK
  0
BLOCK
  8
LAYER_1
  2
AIGNBL010100D5
 70
64
 10
0
 20
0
 30
0
  3
AIGNBL010100D5
  0
POLYLINE
  8
LAYER_1
  6
AIGENLINE003
 40
0.2469
 41
0.2469
 66
1
 10
0
 20
0
 30
0
 70
128
  0
VERTEX
  8
LAYER_1
 10
121.3836
 20
-195.5941
  0
VERTEX
  8
LAYER_1
 10
144.5674
 20
-195.5941
  0
SEQEND
  0
ENDBLK
  0
BLOCK
  8
LAYER_1
  2
AIGNBL010100D6
 70
64
 10
0
 20
0
 30
0
  3
AIGNBL010100D6
  0
POLYLINE
  8
LAYER_1
  6
AIGENLINE003
 40
0.2469
 41
0.2469
 66
1
 10
0
 20
0
 30
0
 70
128
  0
VERTEX
  8
LAYER_1
 10
147.0674
 20
-193.0941
  0
VERTEX
  8
LAYER_1
 10
147.0674
 20
-170.9093
  0
SEQEND
  0
ENDBLK
  0
BLOCK
  8
LAYER_1
  2
AIGNBL010100D7
 70
64
 10
0
 20
0
 30
0
  3
AIGNBL010100D7
  0
POLYLINE
  8
LAYER_1
  6
AIGENLINE003
 40
0.2469
 41
0.2469
 66
1
 10
0
 20
0
 30
0
 70
128
  0
VERTEX
  8
LAYER_1
 10
121.3836
 20
-168.4093
 42
0.414207822
  0
VERTEX
  8
LAYER_1
 10
118.8836
 20
-170.9093
  0
SEQEND
  0
ENDBLK
  0
BLOCK
  8
LAYER_1
  2
AIGNBL010100D8
 70
64
 10
0
 20
0
 30
0
  3
AIGNBL010100D8
  0
POLYLINE
  8
LAYER_1
  6
AIGENLINE003
 40
0.2469
 41
0.2469
 66
1
 10
0
 20
0
 30
0
 70
128
  0
VERTEX
  8
LAYER_1
 10
147.0674
 20
-170.9093
 42
0.4142134379
  0
VERTEX
  8
LAYER_1
 10
144.5674
 20
-168.4093
  0
SEQEND
  0
ENDBLK
  0
BLOCK
  8
LAYER_1
  2
AIGNBL010100D9
 70
64
 10
0
 20
0
 30
0
  3
AIGNBL010100D9
  0
POLYLINE
  8
LAYER_1
  6
AIGENLINE003
 40
0.2469
 41
0.2469
 66
1
 10
0
 20
0
 30
0
 70
128
  0
VERTEX
  8
LAYER_1
 10
144.5674
 20
-195.5941
 42
0.4142124548
  0
VERTEX
  8
LAYER_1
 10
147.0674
 20
-193.0941
  0
SEQEND
  0
ENDBLK
  0
BLOCK
  8
LAYER_1
  2
AIGNBL010100DA
 70
64
 10
0
 20
0
 30
0
  3
AIGNBL010100DA
  0
POLYLINE
  8
LAYER_1
  6
AIGENLINE003
 40
0.2469
 41
0.2469
 66
1
 10
0
 20
0
 30
0
 70
128
  0
VERTEX
  8
LAYER_1
 10
118.8836
 20
-193.0941
 42
0.4142068389
  0
VERTEX
  8
LAYER_1
 10
121.3836
 20
-195.5941
  0
SEQEND
  0
ENDBLK
  0
BLOCK
  8
LAYER_1
  2
AIGNBL010100DB
 70
64
 10
0
 20
0
 30
0
  3
AIGNBL010100DB
  0
POLYLINE
  8
LAYER_1
 40
0.2469
 41
0.2469
 66
1
 10
0
 20
0
 30
0
  0
VERTEX
  8
LAYER_1
 10
178.9718
 20
-151.2785
  0
VERTEX
  8
LAYER_1
 10
191.4718
 20
-151.2785
  0
SEQEND
  0
ENDBLK
  0
BLOCK
  8
LAYER_1
  2
AIGNBL010100DC
 70
64
 10
0
 20
0
 30
0
  3
AIGNBL010100DC
  0
POLYLINE
  8
LAYER_1
 40
0.2469
 41
0.2469
 66
1
 10
0
 20
0
 30
0
  0
VERTEX
  8
LAYER_1
 10
178.9718
 20
-152.2785
  0
VERTEX
  8
LAYER_1
 10
191.4718
 20
-152.2785
  0
SEQEND
  0
ENDBLK
  0
BLOCK
  8
LAYER_1
  2
AIGNBL010100DD
 70
64
 10
0
 20
0
 30
0
  3
AIGNBL010100DD
  0
POLYLINE
  8
LAYER_1
 40
0.2469
 41
0.2469
 66
1
 10
0
 20
0
 30
0
  0
VERTEX
  8
LAYER_1
 10
184.6156
 20
-94.5751
 42
-0.4851628732
  0
VERTEX
  8
LAYER_1
 10
184.5531
 20
-94.5392
 42
-0.283688512
  0
VERTEX
  8
LAYER_1
 10
184.6156
 20
-94.5034
  0
SEQEND
  0
ENDBLK
  0
BLOCK
  8
LAYER_1
  2
AIGNBL010100DE
 70
64
 10
0
 20
0
 30
0
  3
AIGNBL010100DE
  0
POLYLINE
  8
LAYER_1
 40
0.2469
 41
0.2469
 66
1
 10
0
 20
0
 30
0
  0
VERTEX
  8
LAYER_1
 10
184.6156
 20
-94.5034
 42
-0.4857622231
  0
VERTEX
  8
LAYER_1
 10
184.6781
 20
-94.5392
 42
-0.2841136049
  0
VERTEX
  8
LAYER_1
 10
184.6156
 20
-94.5751
  0
SEQEND
  0
ENDBLK
  0
BLOCK
  8
LAYER_1
  2
AIGNBL010100DF
 70
64
 10
0
 20
0
 30
0
  3
AIGNBL010100DF
  0
POLYLINE
  8
LAYER_1
 40
0.2469
 41
0.2469
 66
1
 10
0
 20
0
 30
0
  0
VERTEX
  8
LAYER_1
 10
184.3504
 20
-94.7271
 42
-0.4857622231
  0
VERTEX
  8
LAYER_1
 10
184.2879
 20
-94.6913
 42
-0.283688512
  0
VERTEX
  8
LAYER_1
 10
184.3504
 20
-94.6555
  0
SEQEND
  0
ENDBLK
  0
BLOCK
  8
LAYER_1
  2
AIGNBL010100E0
 70
64
 10
0
 20
0
 30
0
  3
AIGNBL010100E0
  0
POLYLINE
  8
LAYER_1
 40
0.2469
 41
0.2469
 66
1
 10
0
 20
0
 30
0
  0
VERTEX
  8
LAYER_1
 10
184.3504
 20
-94.6555
 42
-0.4860184237
  0
VERTEX
  8
LAYER_1
 10
184.4129
 20
-94.6913
 42
-0.283946365
  0
VERTEX
  8
LAYER_1
 10
184.3504
 20
-94.7271
  0
SEQEND
  0
ENDBLK
  0
BLOCK
  8
LAYER_1
  2
AIGNBL010100E1
 70
64
 10
0
 20
0
 30
0
  3
AIGNBL010100E1
  0
POLYLINE
  8
LAYER_1
 40
0.2469
 41
0.2469
 66
1
 10
0
 20
0
 30
0
  0
VERTEX
  8
LAYER_1
 10
184.0853
 20
-94.8792
 42
-0.4857622231
  0
VERTEX
  8
LAYER_1
 10
184.0228
 20
-94.8434
 42
-0.2841136049
  0
VERTEX
  8
LAYER_1
 10
184.0853
 20
-94.8075
  0
SEQEND
  0
ENDBLK
  0
BLOCK
  8
LAYER_1
  2
AIGNBL010100E2
 70
64
 10
0
 20
0
 30
0
  3
AIGNBL010100E2
  0
POLYLINE
  8
LAYER_1
 40
0.2469
 41
0.2469
 66
1
 10
0
 20
0
 30
0
  0
VERTEX
  8
LAYER_1
 10
184.0853
 20
-94.8075
 42
-0.4851628732
  0
VERTEX
  8
LAYER_1
 10
184.1478
 20
-94.8434
 42
-0.283688512
  0
VERTEX
  8
LAYER_1
 10
184.0853
 20
-94.8792
  0
SEQEND
  0
ENDBLK
  0
BLOCK
  8
LAYER_1
  2
AIGNBL010100E3
 70
64
 10
0
 20
0
 30
0
  3
AIGNBL010100E3
  0
POLYLINE
  8
LAYER_1
 40
0.2469
 41
0.2469
 66
1
 10
0
 20
0
 30
0
  0
VERTEX
  8
LAYER_1
 10
185.1459
 20
-94.5751
 42
-0.4851628732
  0
VERTEX
  8
LAYER_1
 10
185.0834
 20
-94.5392
 42
-0.283688512
  0
VERTEX
  8
LAYER_1
 10
185.1459
 20
-94.5034
  0
SEQEND
  0
ENDBLK
  0
BLOCK
  8
LAYER_1
  2
AIGNBL010100E4
 70
64
 10
0
 20
0
 30
0
  3
AIGNBL010100E4
  0
POLYLINE
  8
LAYER_1
 40
0.2469
 41
0.2469
 66
1
 10
0
 20
0
 30
0
  0
VERTEX
  8
LAYER_1
 10
185.1459
 20
-94.5034
 42
-0.4860184237
  0
VERTEX
  8
LAYER_1
 10
185.2084
 20
-94.5392
 42
-0.2843720453
  0
VERTEX
  8
LAYER_1
 10
185.1459
 20
-94.5751
  0
SEQEND
  0
ENDBLK
  0
BLOCK
  8
LAYER_1
  2
AIGNBL010100E5
 70
64
 10
0
 20
0
 30
0
  3
AIGNBL010100E5
  0
POLYLINE
  8
LAYER_1
 40
0.2469
 41
0.2469
 66
1
 10
0
 20
0
 30
0
  0
VERTEX
  8
LAYER_1
 10
184.8808
 20
-94.7271
 42
-0.4857622231
  0
VERTEX
  8
LAYER_1
 10
184.8183
 20
-94.6913
 42
-0.283688512
  0
VERTEX
  8
LAYER_1
 10
184.8808
 20
-94.6555
  0
SEQEND
  0
ENDBLK
  0
BLOCK
  8
LAYER_1
  2
AIGNBL010100E6
 70
64
 10
0
 20
0
 30
0
  3
AIGNBL010100E6
  0
POLYLINE
  8
LAYER_1
 40
0.2469
 41
0.2469
 66
1
 10
0
 20
0
 30
0
  0
VERTEX
  8
LAYER_1
 10
184.8808
 20
-94.6555
 42
-0.4857622231
  0
VERTEX
  8
LAYER_1
 10
184.9433
 20
-94.6913
 42
-0.283688512
  0
VERTEX
  8
LAYER_1
 10
184.8808
 20
-94.7271
  0
SEQEND
  0
ENDBLK
  0
BLOCK
  8
LAYER_1
  2
AIGNBL010100E7
 70
64
 10
0
 20
0
 30
0
  3
AIGNBL010100E7
  0
POLYLINE
  8
LAYER_1
 40
0.2469
 41
0.2469
 66
1
 10
0
 20
0
 30
0
  0
VERTEX
  8
LAYER_1
 10
184.6156
 20
-94.8792
 42
-0.4857622231
  0
VERTEX
  8
LAYER_1
 10
184.5531
 20
-94.8434
 42
-0.2841136049
  0
VERTEX
  8
LAYER_1
 10
184.6156
 20
-94.8075
  0
SEQEND
  0
ENDBLK
  0
BLOCK
  8
LAYER_1
  2
AIGNBL010100E8
 70
64
 10
0
 20
0
 30
0
  3
AIGNBL010100E8
  0
POLYLINE
  8
LAYER_1
 40
0.2469
 41
0.2469
 66
1
 10
0
 20
0
 30
0
  0
VERTEX
  8
LAYER_1
 10
184.6156
 20
-94.8075
 42
-0.4851628732
  0
VERTEX
  8
LAYER_1
 10
184.6781
 20
-94.8434
 42
-0.283688512
  0
VERTEX
  8
LAYER_1
 10
184.6156
 20
-94.8792
  0
SEQEND
  0
ENDBLK
  0
BLOCK
  8
LAYER_1
  2
AIGNBL010100E9
 70
64
 10
0
 20
0
 30
0
  3
AIGNBL010100E9
  0
POLYLINE
  8
LAYER_1
 40
0.2469
 41
0.2469
 66
1
 10
0
 20
0
 30
0
  0
VERTEX
  8
LAYER_1
 10
184.3504
 20
-95.0313
 42
-0.4857622231
  0
VERTEX
  8
LAYER_1
 10
184.2879
 20
-94.9955
 42
-0.2841136049
  0
VERTEX
  8
LAYER_1
 10
184.3504
 20
-94.9596
  0
SEQEND
  0
ENDBLK
  0
BLOCK
  8
LAYER_1
  2
AIGNBL010100EA
 70
64
 10
0
 20
0
 30
0
  3
AIGNBL010100EA
  0
POLYLINE
  8
LAYER_1
 40
0.2469
 41
0.2469
 66
1
 10
0
 20
0
 30
0
  0
VERTEX
  8
LAYER_1
 10
184.3504
 20
-94.9596
 42
-0.4854189715
  0
VERTEX
  8
LAYER_1
 10
184.4129
 20
-94.9955
 42
-0.283946365
  0
VERTEX
  8
LAYER_1
 10
184.3504
 20
-95.0313
  0
SEQEND
  0
ENDBLK
  0
BLOCK
  8
LAYER_1
  2
AIGNBL010100EB
 70
64
 10
0
 20
0
 30
0
  3
AIGNBL010100EB
  0
POLYLINE
  8
LAYER_1
 40
0.2469
 41
0.2469
 66
1
 10
0
 20
0
 30
0
  0
VERTEX
  8
LAYER_1
 10
184.0853
 20
-95.1834
 42
-0.4857622231
  0
VERTEX
  8
LAYER_1
 10
184.0228
 20
-95.1476
 42
-0.2841136049
  0
VERTEX
  8
LAYER_1
 10
184.0853
 20
-95.1117
  0
SEQEND
  0
ENDBLK
  0
BLOCK
  8
LAYER_1
  2
AIGNBL010100EC
 70
64
 10
0
 20
0
 30
0
  3
AIGNBL010100EC
  0
POLYLINE
  8
LAYER_1
 40
0.2469
 41
0.2469
 66
1
 10
0
 20
0
 30
0
  0
VERTEX
  8
LAYER_1
 10
184.0853
 20
-95.1117
 42
-0.4851628732
  0
VERTEX
  8
LAYER_1
 10
184.1478
 20
-95.1476
 42
-0.283688512
  0
VERTEX
  8
LAYER_1
 10
184.0853
 20
-95.1834
  0
SEQEND
  0
ENDBLK
  0
BLOCK
  8
LAYER_1
  2
AIGNBL010100ED
 70
64
 10
0
 20
0
 30
0
  3
AIGNBL010100ED
  0
POLYLINE
  8
LAYER_1
 40
0.2469
 41
0.2469
 66
1
 10
0
 20
0
 30
0
  0
VERTEX
  8
LAYER_1
 10
183.8201
 20
-95.3355
 42
-0.4857622231
  0
VERTEX
  8
LAYER_1
 10
183.7576
 20
-95.2997
 42
-0.2841136049
  0
VERTEX
  8
LAYER_1
 10
183.8201
 20
-95.2638
  0
SEQEND
  0
ENDBLK
  0
BLOCK
  8
LAYER_1
  2
AIGNBL010100EE
 70
64
 10
0
 20
0
 30
0
  3
AIGNBL010100EE
  0
POLYLINE
  8
LAYER_1
 40
0.2469
 41
0.2469
 66
1
 10
0
 20
0
 30
0
  0
VERTEX
  8
LAYER_1
 10
183.8201
 20
-95.2638
 42
-0.4851628732
  0
VERTEX
  8
LAYER_1
 10
183.8826
 20
-95.2997
 42
-0.283688512
  0
VERTEX
  8
LAYER_1
 10
183.8201
 20
-95.3355
  0
SEQEND
  0
ENDBLK
  0
BLOCK
  8
LAYER_1
  2
AIGNBL010100EF
 70
64
 10
0
 20
0
 30
0
  3
AIGNBL010100EF
  0
POLYLINE
  8
LAYER_1
 40
0.2469
 41
0.2469
 66
1
 10
0
 20
0
 30
0
  0
VERTEX
  8
LAYER_1
 10
185.6763
 20
-94.5751
 42
-0.4851628732
  0
VERTEX
  8
LAYER_1
 10
185.6138
 20
-94.5392
 42
-0.283688512
  0
VERTEX
  8
LAYER_1
 10
185.6763
 20
-94.5034
  0
SEQEND
  0
ENDBLK
  0
BLOCK
  8
LAYER_1
  2
AIGNBL010100F0
 70
64
 10
0
 20
0
 30
0
  3
AIGNBL010100F0
  0
POLYLINE
  8
LAYER_1
 40
0.2469
 41
0.2469
 66
1
 10
0
 20
0
 30
0
  0
VERTEX
  8
LAYER_1
 10
185.6763
 20
-94.5034
 42
-0.4857622231
  0
VERTEX
  8
LAYER_1
 10
185.7388
 20
-94.5392
 42
-0.2841136049
  0
VERTEX
  8
LAYER_1
 10
185.6763
 20
-94.5751
  0
SEQEND
  0
ENDBLK
  0
BLOCK
  8
LAYER_1
  2
AIGNBL010100F1
 70
64
 10
0
 20
0
 30
0
  3
AIGNBL010100F1
  0
POLYLINE
  8
LAYER_1
 40
0.2469
 41
0.2469
 66
1
 10
0
 20
0
 30
0
  0
VERTEX
  8
LAYER_1
 10
185.4111
 20
-94.7271
 42
-0.4857622231
  0
VERTEX
  8
LAYER_1
 10
185.3486
 20
-94.6913
 42
-0.283688512
  0
VERTEX
  8
LAYER_1
 10
185.4111
 20
-94.6555
  0
SEQEND
  0
ENDBLK
  0
BLOCK
  8
LAYER_1
  2
AIGNBL010100F2
 70
64
 10
0
 20
0
 30
0
  3
AIGNBL010100F2
  0
POLYLINE
  8
LAYER_1
 40
0.2469
 41
0.2469
 66
1
 10
0
 20
0
 30
0
  0
VERTEX
  8
LAYER_1
 10
185.4111
 20
-94.6555
 42
-0.4857622231
  0
VERTEX
  8
LAYER_1
 10
185.4736
 20
-94.6913
 42
-0.283688512
  0
VERTEX
  8
LAYER_1
 10
185.4111
 20
-94.7271
  0
SEQEND
  0
ENDBLK
  0
BLOCK
  8
LAYER_1
  2
AIGNBL010100F3
 70
64
 10
0
 20
0
 30
0
  3
AIGNBL010100F3
  0
POLYLINE
  8
LAYER_1
 40
0.2469
 41
0.2469
 66
1
 10
0
 20
0
 30
0
  0
VERTEX
  8
LAYER_1
 10
185.1459
 20
-94.8792
 42
-0.4857622231
  0
VERTEX
  8
LAYER_1
 10
185.0834
 20
-94.8434
 42
-0.2841136049
  0
VERTEX
  8
LAYER_1
 10
185.1459
 20
-94.8075
  0
SEQEND
  0
ENDBLK
  0
BLOCK
  8
LAYER_1
  2
AIGNBL010100F4
 70
64
 10
0
 20
0
 30
0
  3
AIGNBL010100F4
  0
POLYLINE
  8
LAYER_1
 40
0.2469
 41
0.2469
 66
1
 10
0
 20
0
 30
0
  0
VERTEX
  8
LAYER_1
 10
185.1459
 20
-94.8075
 42
-0.4854189715
  0
VERTEX
  8
LAYER_1
 10
185.2084
 20
-94.8434
 42
-0.283946365
  0
VERTEX
  8
LAYER_1
 10
185.1459
 20
-94.8792
  0
SEQEND
  0
ENDBLK
  0
BLOCK
  8
LAYER_1
  2
AIGNBL010100F5
 70
64
 10
0
 20
0
 30
0
  3
AIGNBL010100F5
  0
POLYLINE
  8
LAYER_1
 40
0.2469
 41
0.2469
 66
1
 10
0
 20
0
 30
0
  0
VERTEX
  8
LAYER_1
 10
184.8808
 20
-95.0313
 42
-0.4857622231
  0
VERTEX
  8
LAYER_1
 10
184.8183
 20
-94.9955
 42
-0.2841136049
  0
VERTEX
  8
LAYER_1
 10
184.8808
 20
-94.9596
  0
SEQEND
  0
ENDBLK
  0
BLOCK
  8
LAYER_1
  2
AIGNBL010100F6
 70
64
 10
0
 20
0
 30
0
  3
AIGNBL010100F6
  0
POLYLINE
  8
LAYER_1
 40
0.2469
 41
0.2469
 66
1
 10
0
 20
0
 30
0
  0
VERTEX
  8
LAYER_1
 10
184.8808
 20
-94.9596
 42
-0.4851628732
  0
VERTEX
  8
LAYER_1
 10
184.9433
 20
-94.9955
 42
-0.283688512
  0
VERTEX
  8
LAYER_1
 10
184.8808
 20
-95.0313
  0
SEQEND
  0
ENDBLK
  0
BLOCK
  8
LAYER_1
  2
AIGNBL010100F7
 70
64
 10
0
 20
0
 30
0
  3
AIGNBL010100F7
  0
POLYLINE
  8
LAYER_1
 40
0.2469
 41
0.2469
 66
1
 10
0
 20
0
 30
0
  0
VERTEX
  8
LAYER_1
 10
184.6156
 20
-95.1834
 42
-0.4857622231
  0
VERTEX
  8
LAYER_1
 10
184.5531
 20
-95.1476
 42
-0.2841136049
  0
VERTEX
  8
LAYER_1
 10
184.6156
 20
-95.1117
  0
SEQEND
  0
ENDBLK
  0
BLOCK
  8
LAYER_1
  2
AIGNBL010100F8
 70
64
 10
0
 20
0
 30
0
  3
AIGNBL010100F8
  0
POLYLINE
  8
LAYER_1
 40
0.2469
 41
0.2469
 66
1
 10
0
 20
0
 30
0
  0
VERTEX
  8
LAYER_1
 10
184.6156
 20
-95.1117
 42
-0.4851628732
  0
VERTEX
  8
LAYER_1
 10
184.6781
 20
-95.1476
 42
-0.283688512
  0
VERTEX
  8
LAYER_1
 10
184.6156
 20
-95.1834
  0
SEQEND
  0
ENDBLK
  0
BLOCK
  8
LAYER_1
  2
AIGNBL010100F9
 70
64
 10
0
 20
0
 30
0
  3
AIGNBL010100F9
  0
POLYLINE
  8
LAYER_1
 40
0.2469
 41
0.2469
 66
1
 10
0
 20
0
 30
0
  0
VERTEX
  8
LAYER_1
 10
184.3504
 20
-95.3355
 42
-0.4857622231
  0
VERTEX
  8
LAYER_1
 10
184.2879
 20
-95.2997
 42
-0.2841136049
  0
VERTEX
  8
LAYER_1
 10
184.3504
 20
-95.2638
  0
SEQEND
  0
ENDBLK
  0
BLOCK
  8
LAYER_1
  2
AIGNBL010100FA
 70
64
 10
0
 20
0
 30
0
  3
AIGNBL010100FA
  0
POLYLINE
  8
LAYER_1
 40
0.2469
 41
0.2469
 66
1
 10
0
 20
0
 30
0
  0
VERTEX
  8
LAYER_1
 10
184.3504
 20
-95.2638
 42
-0.4854189715
  0
VERTEX
  8
LAYER_1
 10
184.4129
 20
-95.2997
 42
-0.283946365
  0
VERTEX
  8
LAYER_1
 10
184.3504
 20
-95.3355
  0
SEQEND
  0
ENDBLK
  0
BLOCK
  8
LAYER_1
  2
AIGNBL010100FB
 70
64
 10
0
 20
0
 30
0
  3
AIGNBL010100FB
  0
POLYLINE
  8
LAYER_1
 40
0.2469
 41
0.2469
 66
1
 10
0
 20
0
 30
0
  0
VERTEX
  8
LAYER_1
 10
184.0853
 20
-95.4876
 42
-0.4857622231
  0
VERTEX
  8
LAYER_1
 10
184.0228
 20
-95.4518
 42
-0.2841136049
  0
VERTEX
  8
LAYER_1
 10
184.0853
 20
-95.4159
  0
SEQEND
  0
ENDBLK
  0
BLOCK
  8
LAYER_1
  2
AIGNBL010100FC
 70
64
 10
0
 20
0
 30
0
  3
AIGNBL010100FC
  0
POLYLINE
  8
LAYER_1
 40
0.2469
 41
0.2469
 66
1
 10
0
 20
0
 30
0
  0
VERTEX
  8
LAYER_1
 10
184.0853
 20
-95.4159
 42
-0.4851628732
  0
VERTEX
  8
LAYER_1
 10
184.1478
 20
-95.4518
 42
-0.283688512
  0
VERTEX
  8
LAYER_1
 10
184.0853
 20
-95.4876
  0
SEQEND
  0
ENDBLK
  0
BLOCK
  8
LAYER_1
  2
AIGNBL010100FD
 70
64
 10
0
 20
0
 30
0
  3
AIGNBL010100FD
  0
POLYLINE
  8
LAYER_1
 40
0.2469
 41
0.2469
 66
1
 10
0
 20
0
 30
0
  0
VERTEX
  8
LAYER_1
 10
183.8201
 20
-95.6397
 42
-0.4857622231
  0
VERTEX
  8
LAYER_1
 10
183.7576
 20
-95.6039
 42
-0.2841136049
  0
VERTEX
  8
LAYER_1
 10
183.8201
 20
-95.568
  0
SEQEND
  0
ENDBLK
  0
BLOCK
  8
LAYER_1
  2
AIGNBL010100FE
 70
64
 10
0
 20
0
 30
0
  3
AIGNBL010100FE
  0
POLYLINE
  8
LAYER_1
 40
0.2469
 41
0.2469
 66
1
 10
0
 20
0
 30
0
  0
VERTEX
  8
LAYER_1
 10
183.8201
 20
-95.568
 42
-0.4851628732
  0
VERTEX
  8
LAYER_1
 10
183.8826
 20
-95.6039
 42
-0.283688512
  0
VERTEX
  8
LAYER_1
 10
183.8201
 20
-95.6397
  0
SEQEND
  0
ENDBLK
  0
BLOCK
  8
LAYER_1
  2
AIGNBL010100FF
 70
64
 10
0
 20
0
 30
0
  3
AIGNBL010100FF
  0
POLYLINE
  8
LAYER_1
 40
0.2469
 41
0.2469
 66
1
 10
0
 20
0
 30
0
  0
VERTEX
  8
LAYER_1
 10
184.0853
 20
-95.7918
 42
-0.4851628732
  0
VERTEX
  8
LAYER_1
 10
184.0228
 20
-95.7559
 42
-0.283688512
  0
VERTEX
  8
LAYER_1
 10
184.0853
 20
-95.7201
  0
SEQEND
  0
ENDBLK
  0
BLOCK
  8
LAYER_1
  2
AIGNBL01010100
 70
64
 10
0
 20
0
 30
0
  3
AIGNBL01010100
  0
POLYLINE
  8
LAYER_1
 40
0.2469
 41
0.2469
 66
1
 10
0
 20
0
 30
0
  0
VERTEX
  8
LAYER_1
 10
184.0853
 20
-95.7201
 42
-0.4857622231
  0
VERTEX
  8
LAYER_1
 10
184.1478
 20
-95.7559
 42
-0.2841136049
  0
VERTEX
  8
LAYER_1
 10
184.0853
 20
-95.7918
  0
SEQEND
  0
ENDBLK
  0
BLOCK
  8
LAYER_1
  2
AIGNBL01010101
 70
64
 10
0
 20
0
 30
0
  3
AIGNBL01010101
  0
POLYLINE
  8
LAYER_1
 40
0.2469
 41
0.2469
 66
1
 10
0
 20
0
 30
0
  0
VERTEX
  8
LAYER_1
 10
184.3504
 20
-95.9439
 42
-0.4851628732
  0
VERTEX
  8
LAYER_1
 10
184.2879
 20
-95.908
 42
-0.283688512
  0
VERTEX
  8
LAYER_1
 10
184.3504
 20
-95.8722
  0
SEQEND
  0
ENDBLK
  0
BLOCK
  8
LAYER_1
  2
AIGNBL01010102
 70
64
 10
0
 20
0
 30
0
  3
AIGNBL01010102
  0
POLYLINE
  8
LAYER_1
 40
0.2469
 41
0.2469
 66
1
 10
0
 20
0
 30
0
  0
VERTEX
  8
LAYER_1
 10
184.3504
 20
-95.8722
 42
-0.4860184237
  0
VERTEX
  8
LAYER_1
 10
184.4129
 20
-95.908
 42
-0.2843720453
  0
VERTEX
  8
LAYER_1
 10
184.3504
 20
-95.9439
  0
SEQEND
  0
ENDBLK
  0
BLOCK
  8
LAYER_1
  2
AIGNBL01010103
 70
64
 10
0
 20
0
 30
0
  3
AIGNBL01010103
  0
POLYLINE
  8
LAYER_1
 40
0.2469
 41
0.2469
 66
1
 10
0
 20
0
 30
0
  0
VERTEX
  8
LAYER_1
 10
184.6156
 20
-96.096
 42
-0.4851628732
  0
VERTEX
  8
LAYER_1
 10
184.5531
 20
-96.0601
 42
-0.283688512
  0
VERTEX
  8
LAYER_1
 10
184.6156
 20
-96.0243
  0
SEQEND
  0
ENDBLK
  0
BLOCK
  8
LAYER_1
  2
AIGNBL01010104
 70
64
 10
0
 20
0
 30
0
  3
AIGNBL01010104
  0
POLYLINE
  8
LAYER_1
 40
0.2469
 41
0.2469
 66
1
 10
0
 20
0
 30
0
  0
VERTEX
  8
LAYER_1
 10
184.6156
 20
-96.0243
 42
-0.4857622231
  0
VERTEX
  8
LAYER_1
 10
184.6781
 20
-96.0601
 42
-0.2841136049
  0
VERTEX
  8
LAYER_1
 10
184.6156
 20
-96.096
  0
SEQEND
  0
ENDBLK
  0
BLOCK
  8
LAYER_1
  2
AIGNBL01010105
 70
64
 10
0
 20
0
 30
0
  3
AIGNBL01010105
  0
POLYLINE
  8
LAYER_1
 40
0.2469
 41
0.2469
 66
1
 10
0
 20
0
 30
0
  0
VERTEX
  8
LAYER_1
 10
185.9414
 20
-94.7271
 42
-0.4857622231
  0
VERTEX
  8
LAYER_1
 10
185.8789
 20
-94.6913
 42
-0.283688512
  0
VERTEX
  8
LAYER_1
 10
185.9414
 20
-94.6555
  0
SEQEND
  0
ENDBLK
  0
BLOCK
  8
LAYER_1
  2
AIGNBL01010106
 70
64
 10
0
 20
0
 30
0
  3
AIGNBL01010106
  0
POLYLINE
  8
LAYER_1
 40
0.2469
 41
0.2469
 66
1
 10
0
 20
0
 30
0
  0
VERTEX
  8
LAYER_1
 10
185.9414
 20
-94.6555
 42
-0.4860184237
  0
VERTEX
  8
LAYER_1
 10
186.0039
 20
-94.6913
 42
-0.283946365
  0
VERTEX
  8
LAYER_1
 10
185.9414
 20
-94.7271
  0
SEQEND
  0
ENDBLK
  0
BLOCK
  8
LAYER_1
  2
AIGNBL01010107
 70
64
 10
0
 20
0
 30
0
  3
AIGNBL01010107
  0
POLYLINE
  8
LAYER_1
 40
0.2469
 41
0.2469
 66
1
 10
0
 20
0
 30
0
  0
VERTEX
  8
LAYER_1
 10
185.6763
 20
-94.8792
 42
-0.4857622231
  0
VERTEX
  8
LAYER_1
 10
185.6138
 20
-94.8434
 42
-0.2841136049
  0
VERTEX
  8
LAYER_1
 10
185.6763
 20
-94.8075
  0
SEQEND
  0
ENDBLK
  0
BLOCK
  8
LAYER_1
  2
AIGNBL01010108
 70
64
 10
0
 20
0
 30
0
  3
AIGNBL01010108
  0
POLYLINE
  8
LAYER_1
 40
0.2469
 41
0.2469
 66
1
 10
0
 20
0
 30
0
  0
VERTEX
  8
LAYER_1
 10
185.6763
 20
-94.8075
 42
-0.4851628732
  0
VERTEX
  8
LAYER_1
 10
185.7388
 20
-94.8434
 42
-0.283688512
  0
VERTEX
  8
LAYER_1
 10
185.6763
 20
-94.8792
  0
SEQEND
  0
ENDBLK
  0
BLOCK
  8
LAYER_1
  2
AIGNBL01010109
 70
64
 10
0
 20
0
 30
0
  3
AIGNBL01010109
  0
POLYLINE
  8
LAYER_1
 40
0.2469
 41
0.2469
 66
1
 10
0
 20
0
 30
0
  0
VERTEX
  8
LAYER_1
 10
185.4111
 20
-95.0313
 42
-0.4857622231
  0
VERTEX
  8
LAYER_1
 10
185.3486
 20
-94.9955
 42
-0.2841136049
  0
VERTEX
  8
LAYER_1
 10
185.4111
 20
-94.9596
  0
SEQEND
  0
ENDBLK
  0
BLOCK
  8
LAYER_1
  2
AIGNBL0101010A
 70
64
 10
0
 20
0
 30
0
  3
AIGNBL0101010A
  0
POLYLINE
  8
LAYER_1
 40
0.2469
 41
0.2469
 66
1
 10
0
 20
0
 30
0
  0
VERTEX
  8
LAYER_1
 10
185.4111
 20
-94.9596
 42
-0.4851628732
  0
VERTEX
  8
LAYER_1
 10
185.4736
 20
-94.9955
 42
-0.283688512
  0
VERTEX
  8
LAYER_1
 10
185.4111
 20
-95.0313
  0
SEQEND
  0
ENDBLK
  0
BLOCK
  8
LAYER_1
  2
AIGNBL0101010B
 70
64
 10
0
 20
0
 30
0
  3
AIGNBL0101010B
  0
POLYLINE
  8
LAYER_1
 40
0.2469
 41
0.2469
 66
1
 10
0
 20
0
 30
0
  0
VERTEX
  8
LAYER_1
 10
185.1459
 20
-95.1834
 42
-0.4857622231
  0
VERTEX
  8
LAYER_1
 10
185.0834
 20
-95.1476
 42
-0.2841136049
  0
VERTEX
  8
LAYER_1
 10
185.1459
 20
-95.1117
  0
SEQEND
  0
ENDBLK
  0
BLOCK
  8
LAYER_1
  2
AIGNBL0101010C
 70
64
 10
0
 20
0
 30
0
  3
AIGNBL0101010C
  0
POLYLINE
  8
LAYER_1
 40
0.2469
 41
0.2469
 66
1
 10
0
 20
0
 30
0
  0
VERTEX
  8
LAYER_1
 10
185.1459
 20
-95.1117
 42
-0.4854189715
  0
VERTEX
  8
LAYER_1
 10
185.2084
 20
-95.1476
 42
-0.283946365
  0
VERTEX
  8
LAYER_1
 10
185.1459
 20
-95.1834
  0
SEQEND
  0
ENDBLK
  0
BLOCK
  8
LAYER_1
  2
AIGNBL0101010D
 70
64
 10
0
 20
0
 30
0
  3
AIGNBL0101010D
  0
POLYLINE
  8
LAYER_1
 40
0.2469
 41
0.2469
 66
1
 10
0
 20
0
 30
0
  0
VERTEX
  8
LAYER_1
 10
184.8808
 20
-95.3355
 42
-0.4857622231
  0
VERTEX
  8
LAYER_1
 10
184.8183
 20
-95.2997
 42
-0.2841136049
  0
VERTEX
  8
LAYER_1
 10
184.8808
 20
-95.2638
  0
SEQEND
  0
ENDBLK
  0
BLOCK
  8
LAYER_1
  2
AIGNBL0101010E
 70
64
 10
0
 20
0
 30
0
  3
AIGNBL0101010E
  0
POLYLINE
  8
LAYER_1
 40
0.2469
 41
0.2469
 66
1
 10
0
 20
0
 30
0
  0
VERTEX
  8
LAYER_1
 10
184.8808
 20
-95.2638
 42
-0.4851628732
  0
VERTEX
  8
LAYER_1
 10
184.9433
 20
-95.2997
 42
-0.283688512
  0
VERTEX
  8
LAYER_1
 10
184.8808
 20
-95.3355
  0
SEQEND
  0
ENDBLK
  0
BLOCK
  8
LAYER_1
  2
AIGNBL0101010F
 70
64
 10
0
 20
0
 30
0
  3
AIGNBL0101010F
  0
POLYLINE
  8
LAYER_1
 40
0.2469
 41
0.2469
 66
1
 10
0
 20
0
 30
0
  0
VERTEX
  8
LAYER_1
 10
184.6156
 20
-95.4876
 42
-0.4857622231
  0
VERTEX
  8
LAYER_1
 10
184.5531
 20
-95.4518
 42
-0.2841136049
  0
VERTEX
  8
LAYER_1
 10
184.6156
 20
-95.4159
  0
SEQEND
  0
ENDBLK
  0
BLOCK
  8
LAYER_1
  2
AIGNBL01010110
 70
64
 10
0
 20
0
 30
0
  3
AIGNBL01010110
  0
POLYLINE
  8
LAYER_1
 40
0.2469
 41
0.2469
 66
1
 10
0
 20
0
 30
0
  0
VERTEX
  8
LAYER_1
 10
184.6156
 20
-95.4159
 42
-0.4851628732
  0
VERTEX
  8
LAYER_1
 10
184.6781
 20
-95.4518
 42
-0.283688512
  0
VERTEX
  8
LAYER_1
 10
184.6156
 20
-95.4876
  0
SEQEND
  0
ENDBLK
  0
BLOCK
  8
LAYER_1
  2
AIGNBL01010111
 70
64
 10
0
 20
0
 30
0
  3
AIGNBL01010111
  0
POLYLINE
  8
LAYER_1
 40
0.2469
 41
0.2469
 66
1
 10
0
 20
0
 30
0
  0
VERTEX
  8
LAYER_1
 10
184.3504
 20
-95.6397
 42
-0.4857622231
  0
VERTEX
  8
LAYER_1
 10
184.2879
 20
-95.6039
 42
-0.2841136049
  0
VERTEX
  8
LAYER_1
 10
184.3504
 20
-95.568
  0
SEQEND
  0
ENDBLK
  0
BLOCK
  8
LAYER_1
  2
AIGNBL01010112
 70
64
 10
0
 20
0
 30
0
  3
AIGNBL01010112
  0
POLYLINE
  8
LAYER_1
 40
0.2469
 41
0.2469
 66
1
 10
0
 20
0
 30
0
  0
VERTEX
  8
LAYER_1
 10
184.3504
 20
-95.568
 42
-0.4854189715
  0
VERTEX
  8
LAYER_1
 10
184.4129
 20
-95.6039
 42
-0.283946365
  0
VERTEX
  8
LAYER_1
 10
184.3504
 20
-95.6397
  0
SEQEND
  0
ENDBLK
  0
BLOCK
  8
LAYER_1
  2
AIGNBL01010113
 70
64
 10
0
 20
0
 30
0
  3
AIGNBL01010113
  0
POLYLINE
  8
LAYER_1
 40
0.2469
 41
0.2469
 66
1
 10
0
 20
0
 30
0
  0
VERTEX
  8
LAYER_1
 10
184.6156
 20
-95.7918
 42
-0.4851628732
  0
VERTEX
  8
LAYER_1
 10
184.5531
 20
-95.7559
 42
-0.283688512
  0
VERTEX
  8
LAYER_1
 10
184.6156
 20
-95.7201
  0
SEQEND
  0
ENDBLK
  0
BLOCK
  8
LAYER_1
  2
AIGNBL01010114
 70
64
 10
0
 20
0
 30
0
  3
AIGNBL01010114
  0
POLYLINE
  8
LAYER_1
 40
0.2469
 41
0.2469
 66
1
 10
0
 20
0
 30
0
  0
VERTEX
  8
LAYER_1
 10
184.6156
 20
-95.7201
 42
-0.4857622231
  0
VERTEX
  8
LAYER_1
 10
184.6781
 20
-95.7559
 42
-0.2841136049
  0
VERTEX
  8
LAYER_1
 10
184.6156
 20
-95.7918
  0
SEQEND
  0
ENDBLK
  0
BLOCK
  8
LAYER_1
  2
AIGNBL01010115
 70
64
 10
0
 20
0
 30
0
  3
AIGNBL01010115
  0
POLYLINE
  8
LAYER_1
 40
0.2469
 41
0.2469
 66
1
 10
0
 20
0
 30
0
  0
VERTEX
  8
LAYER_1
 10
184.8808
 20
-95.9439
 42
-0.4851628732
  0
VERTEX
  8
LAYER_1
 10
184.8183
 20
-95.908
 42
-0.283688512
  0
VERTEX
  8
LAYER_1
 10
184.8808
 20
-95.8722
  0
SEQEND
  0
ENDBLK
  0
BLOCK
  8
LAYER_1
  2
AIGNBL01010116
 70
64
 10
0
 20
0
 30
0
  3
AIGNBL01010116
  0
POLYLINE
  8
LAYER_1
 40
0.2469
 41
0.2469
 66
1
 10
0
 20
0
 30
0
  0
VERTEX
  8
LAYER_1
 10
184.8808
 20
-95.8722
 42
-0.4857622231
  0
VERTEX
  8
LAYER_1
 10
184.9433
 20
-95.908
 42
-0.2841136049
  0
VERTEX
  8
LAYER_1
 10
184.8808
 20
-95.9439
  0
SEQEND
  0
ENDBLK
  0
BLOCK
  8
LAYER_1
  2
AIGNBL01010117
 70
64
 10
0
 20
0
 30
0
  3
AIGNBL01010117
  0
POLYLINE
  8
LAYER_1
 40
0.2469
 41
0.2469
 66
1
 10
0
 20
0
 30
0
  0
VERTEX
  8
LAYER_1
 10
185.1459
 20
-96.096
 42
-0.4851628732
  0
VERTEX
  8
LAYER_1
 10
185.0834
 20
-96.0601
 42
-0.283688512
  0
VERTEX
  8
LAYER_1
 10
185.1459
 20
-96.0243
  0
SEQEND
  0
ENDBLK
  0
BLOCK
  8
LAYER_1
  2
AIGNBL01010118
 70
64
 10
0
 20
0
 30
0
  3
AIGNBL01010118
  0
POLYLINE
  8
LAYER_1
 40
0.2469
 41
0.2469
 66
1
 10
0
 20
0
 30
0
  0
VERTEX
  8
LAYER_1
 10
185.1459
 20
-96.0243
 42
-0.4860184237
  0
VERTEX
  8
LAYER_1
 10
185.2084
 20
-96.0601
 42
-0.2843720453
  0
VERTEX
  8
LAYER_1
 10
185.1459
 20
-96.096
  0
SEQEND
  0
ENDBLK
  0
BLOCK
  8
LAYER_1
  2
AIGNBL01010119
 70
64
 10
0
 20
0
 30
0
  3
AIGNBL01010119
  0
POLYLINE
  8
LAYER_1
 40
0.2469
 41
0.2469
 66
1
 10
0
 20
0
 30
0
  0
VERTEX
  8
LAYER_1
 10
186.2066
 20
-94.8792
 42
-0.4857622231
  0
VERTEX
  8
LAYER_1
 10
186.1441
 20
-94.8434
 42
-0.2841136049
  0
VERTEX
  8
LAYER_1
 10
186.2066
 20
-94.8075
  0
SEQEND
  0
ENDBLK
  0
BLOCK
  8
LAYER_1
  2
AIGNBL0101011A
 70
64
 10
0
 20
0
 30
0
  3
AIGNBL0101011A
  0
POLYLINE
  8
LAYER_1
 40
0.2469
 41
0.2469
 66
1
 10
0
 20
0
 30
0
  0
VERTEX
  8
LAYER_1
 10
186.2066
 20
-94.8075
 42
-0.4851628732
  0
VERTEX
  8
LAYER_1
 10
186.2691
 20
-94.8434
 42
-0.283688512
  0
VERTEX
  8
LAYER_1
 10
186.2066
 20
-94.8792
  0
SEQEND
  0
ENDBLK
  0
BLOCK
  8
LAYER_1
  2
AIGNBL0101011B
 70
64
 10
0
 20
0
 30
0
  3
AIGNBL0101011B
  0
POLYLINE
  8
LAYER_1
 40
0.2469
 41
0.2469
 66
1
 10
0
 20
0
 30
0
  0
VERTEX
  8
LAYER_1
 10
185.9414
 20
-95.0313
 42
-0.4857622231
  0
VERTEX
  8
LAYER_1
 10
185.8789
 20
-94.9955
 42
-0.2841136049
  0
VERTEX
  8
LAYER_1
 10
185.9414
 20
-94.9596
  0
SEQEND
  0
ENDBLK
  0
BLOCK
  8
LAYER_1
  2
AIGNBL0101011C
 70
64
 10
0
 20
0
 30
0
  3
AIGNBL0101011C
  0
POLYLINE
  8
LAYER_1
 40
0.2469
 41
0.2469
 66
1
 10
0
 20
0
 30
0
  0
VERTEX
  8
LAYER_1
 10
185.9414
 20
-94.9596
 42
-0.4854189715
  0
VERTEX
  8
LAYER_1
 10
186.0039
 20
-94.9955
 42
-0.283946365
  0
VERTEX
  8
LAYER_1
 10
185.9414
 20
-95.0313
  0
SEQEND
  0
ENDBLK
  0
BLOCK
  8
LAYER_1
  2
AIGNBL0101011D
 70
64
 10
0
 20
0
 30
0
  3
AIGNBL0101011D
  0
POLYLINE
  8
LAYER_1
 40
0.2469
 41
0.2469
 66
1
 10
0
 20
0
 30
0
  0
VERTEX
  8
LAYER_1
 10
185.6763
 20
-95.1834
 42
-0.4857622231
  0
VERTEX
  8
LAYER_1
 10
185.6138
 20
-95.1476
 42
-0.2841136049
  0
VERTEX
  8
LAYER_1
 10
185.6763
 20
-95.1117
  0
SEQEND
  0
ENDBLK
  0
BLOCK
  8
LAYER_1
  2
AIGNBL0101011E
 70
64
 10
0
 20
0
 30
0
  3
AIGNBL0101011E
  0
POLYLINE
  8
LAYER_1
 40
0.2469
 41
0.2469
 66
1
 10
0
 20
0
 30
0
  0
VERTEX
  8
LAYER_1
 10
185.6763
 20
-95.1117
 42
-0.4851628732
  0
VERTEX
  8
LAYER_1
 10
185.7388
 20
-95.1476
 42
-0.283688512
  0
VERTEX
  8
LAYER_1
 10
185.6763
 20
-95.1834
  0
SEQEND
  0
ENDBLK
  0
BLOCK
  8
LAYER_1
  2
AIGNBL0101011F
 70
64
 10
0
 20
0
 30
0
  3
AIGNBL0101011F
  0
POLYLINE
  8
LAYER_1
 40
0.2469
 41
0.2469
 66
1
 10
0
 20
0
 30
0
  0
VERTEX
  8
LAYER_1
 10
185.4111
 20
-95.3355
 42
-0.4857622231
  0
VERTEX
  8
LAYER_1
 10
185.3486
 20
-95.2997
 42
-0.2841136049
  0
VERTEX
  8
LAYER_1
 10
185.4111
 20
-95.2638
  0
SEQEND
  0
ENDBLK
  0
BLOCK
  8
LAYER_1
  2
AIGNBL01010120
 70
64
 10
0
 20
0
 30
0
  3
AIGNBL01010120
  0
POLYLINE
  8
LAYER_1
 40
0.2469
 41
0.2469
 66
1
 10
0
 20
0
 30
0
  0
VERTEX
  8
LAYER_1
 10
185.4111
 20
-95.2638
 42
-0.4851628732
  0
VERTEX
  8
LAYER_1
 10
185.4736
 20
-95.2997
 42
-0.283688512
  0
VERTEX
  8
LAYER_1
 10
185.4111
 20
-95.3355
  0
SEQEND
  0
ENDBLK
  0
BLOCK
  8
LAYER_1
  2
AIGNBL01010121
 70
64
 10
0
 20
0
 30
0
  3
AIGNBL01010121
  0
POLYLINE
  8
LAYER_1
 40
0.2469
 41
0.2469
 66
1
 10
0
 20
0
 30
0
  0
VERTEX
  8
LAYER_1
 10
185.1459
 20
-95.4876
 42
-0.4857622231
  0
VERTEX
  8
LAYER_1
 10
185.0834
 20
-95.4518
 42
-0.2841136049
  0
VERTEX
  8
LAYER_1
 10
185.1459
 20
-95.4159
  0
SEQEND
  0
ENDBLK
  0
BLOCK
  8
LAYER_1
  2
AIGNBL01010122
 70
64
 10
0
 20
0
 30
0
  3
AIGNBL01010122
  0
POLYLINE
  8
LAYER_1
 40
0.2469
 41
0.2469
 66
1
 10
0
 20
0
 30
0
  0
VERTEX
  8
LAYER_1
 10
185.1459
 20
-95.4159
 42
-0.4854189715
  0
VERTEX
  8
LAYER_1
 10
185.2084
 20
-95.4518
 42
-0.283946365
  0
VERTEX
  8
LAYER_1
 10
185.1459
 20
-95.4876
  0
SEQEND
  0
ENDBLK
  0
BLOCK
  8
LAYER_1
  2
AIGNBL01010123
 70
64
 10
0
 20
0
 30
0
  3
AIGNBL01010123
  0
POLYLINE
  8
LAYER_1
 40
0.2469
 41
0.2469
 66
1
 10
0
 20
0
 30
0
  0
VERTEX
  8
LAYER_1
 10
184.8808
 20
-95.6397
 42
-0.4857622231
  0
VERTEX
  8
LAYER_1
 10
184.8183
 20
-95.6039
 42
-0.2841136049
  0
VERTEX
  8
LAYER_1
 10
184.8808
 20
-95.568
  0
SEQEND
  0
ENDBLK
  0
BLOCK
  8
LAYER_1
  2
AIGNBL01010124
 70
64
 10
0
 20
0
 30
0
  3
AIGNBL01010124
  0
POLYLINE
  8
LAYER_1
 40
0.2469
 41
0.2469
 66
1
 10
0
 20
0
 30
0
  0
VERTEX
  8
LAYER_1
 10
184.8808
 20
-95.568
 42
-0.4851628732
  0
VERTEX
  8
LAYER_1
 10
184.9433
 20
-95.6039
 42
-0.283688512
  0
VERTEX
  8
LAYER_1
 10
184.8808
 20
-95.6397
  0
SEQEND
  0
ENDBLK
  0
BLOCK
  8
LAYER_1
  2
AIGNBL01010125
 70
64
 10
0
 20
0
 30
0
  3
AIGNBL01010125
  0
POLYLINE
  8
LAYER_1
 40
0.2469
 41
0.2469
 66
1
 10
0
 20
0
 30
0
  0
VERTEX
  8
LAYER_1
 10
185.1459
 20
-95.7918
 42
-0.4851628732
  0
VERTEX
  8
LAYER_1
 10
185.0834
 20
-95.7559
 42
-0.283688512
  0
VERTEX
  8
LAYER_1
 10
185.1459
 20
-95.7201
  0
SEQEND
  0
ENDBLK
  0
BLOCK
  8
LAYER_1
  2
AIGNBL01010126
 70
64
 10
0
 20
0
 30
0
  3
AIGNBL01010126
  0
POLYLINE
  8
LAYER_1
 40
0.2469
 41
0.2469
 66
1
 10
0
 20
0
 30
0
  0
VERTEX
  8
LAYER_1
 10
185.1459
 20
-95.7201
 42
-0.4860184237
  0
VERTEX
  8
LAYER_1
 10
185.2084
 20
-95.7559
 42
-0.2843720453
  0
VERTEX
  8
LAYER_1
 10
185.1459
 20
-95.7918
  0
SEQEND
  0
ENDBLK
  0
BLOCK
  8
LAYER_1
  2
AIGNBL01010127
 70
64
 10
0
 20
0
 30
0
  3
AIGNBL01010127
  0
POLYLINE
  8
LAYER_1
 40
0.2469
 41
0.2469
 66
1
 10
0
 20
0
 30
0
  0
VERTEX
  8
LAYER_1
 10
185.4111
 20
-95.9439
 42
-0.4851628732
  0
VERTEX
  8
LAYER_1
 10
185.3486
 20
-95.908
 42
-0.283688512
  0
VERTEX
  8
LAYER_1
 10
185.4111
 20
-95.8722
  0
SEQEND
  0
ENDBLK
  0
BLOCK
  8
LAYER_1
  2
AIGNBL01010128
 70
64
 10
0
 20
0
 30
0
  3
AIGNBL01010128
  0
POLYLINE
  8
LAYER_1
 40
0.2469
 41
0.2469
 66
1
 10
0
 20
0
 30
0
  0
VERTEX
  8
LAYER_1
 10
185.4111
 20
-95.8722
 42
-0.4857622231
  0
VERTEX
  8
LAYER_1
 10
185.4736
 20
-95.908
 42
-0.2841136049
  0
VERTEX
  8
LAYER_1
 10
185.4111
 20
-95.9439
  0
SEQEND
  0
ENDBLK
  0
BLOCK
  8
LAYER_1
  2
AIGNBL01010129
 70
64
 10
0
 20
0
 30
0
  3
AIGNBL01010129
  0
POLYLINE
  8
LAYER_1
 40
0.2469
 41
0.2469
 66
1
 10
0
 20
0
 30
0
  0
VERTEX
  8
LAYER_1
 10
185.6763
 20
-96.096
 42
-0.4851628732
  0
VERTEX
  8
LAYER_1
 10
185.6138
 20
-96.0601
 42
-0.283688512
  0
VERTEX
  8
LAYER_1
 10
185.6763
 20
-96.0243
  0
SEQEND
  0
ENDBLK
  0
BLOCK
  8
LAYER_1
  2
AIGNBL0101012A
 70
64
 10
0
 20
0
 30
0
  3
AIGNBL0101012A
  0
POLYLINE
  8
LAYER_1
 40
0.2469
 41
0.2469
 66
1
 10
0
 20
0
 30
0
  0
VERTEX
  8
LAYER_1
 10
185.6763
 20
-96.0243
 42
-0.4857622231
  0
VERTEX
  8
LAYER_1
 10
185.7388
 20
-96.0601
 42
-0.2841136049
  0
VERTEX
  8
LAYER_1
 10
185.6763
 20
-96.096
  0
SEQEND
  0
ENDBLK
  0
BLOCK
  8
LAYER_1
  2
AIGNBL0101012B
 70
64
 10
0
 20
0
 30
0
  3
AIGNBL0101012B
  0
POLYLINE
  8
LAYER_1
 40
0.2469
 41
0.2469
 66
1
 10
0
 20
0
 30
0
  0
VERTEX
  8
LAYER_1
 10
186.4718
 20
-95.0313
 42
-0.4857622231
  0
VERTEX
  8
LAYER_1
 10
186.4093
 20
-94.9955
 42
-0.2841136049
  0
VERTEX
  8
LAYER_1
 10
186.4718
 20
-94.9596
  0
SEQEND
  0
ENDBLK
  0
BLOCK
  8
LAYER_1
  2
AIGNBL0101012C
 70
64
 10
0
 20
0
 30
0
  3
AIGNBL0101012C
  0
POLYLINE
  8
LAYER_1
 40
0.2469
 41
0.2469
 66
1
 10
0
 20
0
 30
0
  0
VERTEX
  8
LAYER_1
 10
186.4718
 20
-94.9596
 42
-0.4851628732
  0
VERTEX
  8
LAYER_1
 10
186.5343
 20
-94.9955
 42
-0.283688512
  0
VERTEX
  8
LAYER_1
 10
186.4718
 20
-95.0313
  0
SEQEND
  0
ENDBLK
  0
BLOCK
  8
LAYER_1
  2
AIGNBL0101012D
 70
64
 10
0
 20
0
 30
0
  3
AIGNBL0101012D
  0
POLYLINE
  8
LAYER_1
 40
0.2469
 41
0.2469
 66
1
 10
0
 20
0
 30
0
  0
VERTEX
  8
LAYER_1
 10
186.2066
 20
-95.1834
 42
-0.4857622231
  0
VERTEX
  8
LAYER_1
 10
186.1441
 20
-95.1476
 42
-0.2841136049
  0
VERTEX
  8
LAYER_1
 10
186.2066
 20
-95.1117
  0
SEQEND
  0
ENDBLK
  0
BLOCK
  8
LAYER_1
  2
AIGNBL0101012E
 70
64
 10
0
 20
0
 30
0
  3
AIGNBL0101012E
  0
POLYLINE
  8
LAYER_1
 40
0.2469
 41
0.2469
 66
1
 10
0
 20
0
 30
0
  0
VERTEX
  8
LAYER_1
 10
186.2066
 20
-95.1117
 42
-0.4851628732
  0
VERTEX
  8
LAYER_1
 10
186.2691
 20
-95.1476
 42
-0.283688512
  0
VERTEX
  8
LAYER_1
 10
186.2066
 20
-95.1834
  0
SEQEND
  0
ENDBLK
  0
BLOCK
  8
LAYER_1
  2
AIGNBL0101012F
 70
64
 10
0
 20
0
 30
0
  3
AIGNBL0101012F
  0
POLYLINE
  8
LAYER_1
 40
0.2469
 41
0.2469
 66
1
 10
0
 20
0
 30
0
  0
VERTEX
  8
LAYER_1
 10
185.9414
 20
-95.3355
 42
-0.4857622231
  0
VERTEX
  8
LAYER_1
 10
185.8789
 20
-95.2997
 42
-0.2841136049
  0
VERTEX
  8
LAYER_1
 10
185.9414
 20
-95.2638
  0
SEQEND
  0
ENDBLK
  0
BLOCK
  8
LAYER_1
  2
AIGNBL01010130
 70
64
 10
0
 20
0
 30
0
  3
AIGNBL01010130
  0
POLYLINE
  8
LAYER_1
 40
0.2469
 41
0.2469
 66
1
 10
0
 20
0
 30
0
  0
VERTEX
  8
LAYER_1
 10
185.9414
 20
-95.2638
 42
-0.4854189715
  0
VERTEX
  8
LAYER_1
 10
186.0039
 20
-95.2997
 42
-0.283946365
  0
VERTEX
  8
LAYER_1
 10
185.9414
 20
-95.3355
  0
SEQEND
  0
ENDBLK
  0
BLOCK
  8
LAYER_1
  2
AIGNBL01010131
 70
64
 10
0
 20
0
 30
0
  3
AIGNBL01010131
  0
POLYLINE
  8
LAYER_1
 40
0.2469
 41
0.2469
 66
1
 10
0
 20
0
 30
0
  0
VERTEX
  8
LAYER_1
 10
185.6763
 20
-95.4876
 42
-0.4857622231
  0
VERTEX
  8
LAYER_1
 10
185.6138
 20
-95.4518
 42
-0.2841136049
  0
VERTEX
  8
LAYER_1
 10
185.6763
 20
-95.4159
  0
SEQEND
  0
ENDBLK
  0
BLOCK
  8
LAYER_1
  2
AIGNBL01010132
 70
64
 10
0
 20
0
 30
0
  3
AIGNBL01010132
  0
POLYLINE
  8
LAYER_1
 40
0.2469
 41
0.2469
 66
1
 10
0
 20
0
 30
0
  0
VERTEX
  8
LAYER_1
 10
185.6763
 20
-95.4159
 42
-0.4851628732
  0
VERTEX
  8
LAYER_1
 10
185.7388
 20
-95.4518
 42
-0.283688512
  0
VERTEX
  8
LAYER_1
 10
185.6763
 20
-95.4876
  0
SEQEND
  0
ENDBLK
  0
BLOCK
  8
LAYER_1
  2
AIGNBL01010133
 70
64
 10
0
 20
0
 30
0
  3
AIGNBL01010133
  0
POLYLINE
  8
LAYER_1
 40
0.2469
 41
0.2469
 66
1
 10
0
 20
0
 30
0
  0
VERTEX
  8
LAYER_1
 10
185.4111
 20
-95.6397
 42
-0.4857622231
  0
VERTEX
  8
LAYER_1
 10
185.3486
 20
-95.6039
 42
-0.2841136049
  0
VERTEX
  8
LAYER_1
 10
185.4111
 20
-95.568
  0
SEQEND
  0
ENDBLK
  0
BLOCK
  8
LAYER_1
  2
AIGNBL01010134
 70
64
 10
0
 20
0
 30
0
  3
AIGNBL01010134
  0
POLYLINE
  8
LAYER_1
 40
0.2469
 41
0.2469
 66
1
 10
0
 20
0
 30
0
  0
VERTEX
  8
LAYER_1
 10
185.4111
 20
-95.568
 42
-0.4851628732
  0
VERTEX
  8
LAYER_1
 10
185.4736
 20
-95.6039
 42
-0.283688512
  0
VERTEX
  8
LAYER_1
 10
185.4111
 20
-95.6397
  0
SEQEND
  0
ENDBLK
  0
BLOCK
  8
LAYER_1
  2
AIGNBL01010135
 70
64
 10
0
 20
0
 30
0
  3
AIGNBL01010135
  0
POLYLINE
  8
LAYER_1
 40
0.2469
 41
0.2469
 66
1
 10
0
 20
0
 30
0
  0
VERTEX
  8
LAYER_1
 10
185.6763
 20
-95.7918
 42
-0.4851628732
  0
VERTEX
  8
LAYER_1
 10
185.6138
 20
-95.7559
 42
-0.283688512
  0
VERTEX
  8
LAYER_1
 10
185.6763
 20
-95.7201
  0
SEQEND
  0
ENDBLK
  0
BLOCK
  8
LAYER_1
  2
AIGNBL01010136
 70
64
 10
0
 20
0
 30
0
  3
AIGNBL01010136
  0
POLYLINE
  8
LAYER_1
 40
0.2469
 41
0.2469
 66
1
 10
0
 20
0
 30
0
  0
VERTEX
  8
LAYER_1
 10
185.6763
 20
-95.7201
 42
-0.4857622231
  0
VERTEX
  8
LAYER_1
 10
185.7388
 20
-95.7559
 42
-0.2841136049
  0
VERTEX
  8
LAYER_1
 10
185.6763
 20
-95.7918
  0
SEQEND
  0
ENDBLK
  0
BLOCK
  8
LAYER_1
  2
AIGNBL01010137
 70
64
 10
0
 20
0
 30
0
  3
AIGNBL01010137
  0
POLYLINE
  8
LAYER_1
 40
0.2469
 41
0.2469
 66
1
 10
0
 20
0
 30
0
  0
VERTEX
  8
LAYER_1
 10
185.9414
 20
-95.9439
 42
-0.4851628732
  0
VERTEX
  8
LAYER_1
 10
185.8789
 20
-95.908
 42
-0.283688512
  0
VERTEX
  8
LAYER_1
 10
185.9414
 20
-95.8722
  0
SEQEND
  0
ENDBLK
  0
BLOCK
  8
LAYER_1
  2
AIGNBL01010138
 70
64
 10
0
 20
0
 30
0
  3
AIGNBL01010138
  0
POLYLINE
  8
LAYER_1
 40
0.2469
 41
0.2469
 66
1
 10
0
 20
0
 30
0
  0
VERTEX
  8
LAYER_1
 10
185.9414
 20
-95.8722
 42
-0.4860184237
  0
VERTEX
  8
LAYER_1
 10
186.0039
 20
-95.908
 42
-0.2843720453
  0
VERTEX
  8
LAYER_1
 10
185.9414
 20
-95.9439
  0
SEQEND
  0
ENDBLK
  0
BLOCK
  8
LAYER_1
  2
AIGNBL01010139
 70
64
 10
0
 20
0
 30
0
  3
AIGNBL01010139
  0
POLYLINE
  8
LAYER_1
 40
0.2469
 41
0.2469
 66
1
 10
0
 20
0
 30
0
  0
VERTEX
  8
LAYER_1
 10
186.4718
 20
-95.3355
 42
-0.4857622231
  0
VERTEX
  8
LAYER_1
 10
186.4093
 20
-95.2997
 42
-0.2841136049
  0
VERTEX
  8
LAYER_1
 10
186.4718
 20
-95.2638
  0
SEQEND
  0
ENDBLK
  0
BLOCK
  8
LAYER_1
  2
AIGNBL0101013A
 70
64
 10
0
 20
0
 30
0
  3
AIGNBL0101013A
  0
POLYLINE
  8
LAYER_1
 40
0.2469
 41
0.2469
 66
1
 10
0
 20
0
 30
0
  0
VERTEX
  8
LAYER_1
 10
186.4718
 20
-95.2638
 42
-0.4851628732
  0
VERTEX
  8
LAYER_1
 10
186.5343
 20
-95.2997
 42
-0.283688512
  0
VERTEX
  8
LAYER_1
 10
186.4718
 20
-95.3355
  0
SEQEND
  0
ENDBLK
  0
BLOCK
  8
LAYER_1
  2
AIGNBL0101013B
 70
64
 10
0
 20
0
 30
0
  3
AIGNBL0101013B
  0
POLYLINE
  8
LAYER_1
 40
0.2469
 41
0.2469
 66
1
 10
0
 20
0
 30
0
  0
VERTEX
  8
LAYER_1
 10
186.2066
 20
-95.4876
 42
-0.4857622231
  0
VERTEX
  8
LAYER_1
 10
186.1441
 20
-95.4518
 42
-0.2841136049
  0
VERTEX
  8
LAYER_1
 10
186.2066
 20
-95.4159
  0
SEQEND
  0
ENDBLK
  0
BLOCK
  8
LAYER_1
  2
AIGNBL0101013C
 70
64
 10
0
 20
0
 30
0
  3
AIGNBL0101013C
  0
POLYLINE
  8
LAYER_1
 40
0.2469
 41
0.2469
 66
1
 10
0
 20
0
 30
0
  0
VERTEX
  8
LAYER_1
 10
186.2066
 20
-95.4159
 42
-0.4851628732
  0
VERTEX
  8
LAYER_1
 10
186.2691
 20
-95.4518
 42
-0.283688512
  0
VERTEX
  8
LAYER_1
 10
186.2066
 20
-95.4876
  0
SEQEND
  0
ENDBLK
  0
BLOCK
  8
LAYER_1
  2
AIGNBL0101013D
 70
64
 10
0
 20
0
 30
0
  3
AIGNBL0101013D
  0
POLYLINE
  8
LAYER_1
 40
0.2469
 41
0.2469
 66
1
 10
0
 20
0
 30
0
  0
VERTEX
  8
LAYER_1
 10
185.9414
 20
-95.6397
 42
-0.4857622231
  0
VERTEX
  8
LAYER_1
 10
185.8789
 20
-95.6039
 42
-0.2841136049
  0
VERTEX
  8
LAYER_1
 10
185.9414
 20
-95.568
  0
SEQEND
  0
ENDBLK
  0
BLOCK
  8
LAYER_1
  2
AIGNBL0101013E
 70
64
 10
0
 20
0
 30
0
  3
AIGNBL0101013E
  0
POLYLINE
  8
LAYER_1
 40
0.2469
 41
0.2469
 66
1
 10
0
 20
0
 30
0
  0
VERTEX
  8
LAYER_1
 10
185.9414
 20
-95.568
 42
-0.4854189715
  0
VERTEX
  8
LAYER_1
 10
186.0039
 20
-95.6039
 42
-0.283946365
  0
VERTEX
  8
LAYER_1
 10
185.9414
 20
-95.6397
  0
SEQEND
  0
ENDBLK
  0
BLOCK
  8
LAYER_1
  2
AIGNBL0101013F
 70
64
 10
0
 20
0
 30
0
  3
AIGNBL0101013F
  0
POLYLINE
  8
LAYER_1
 40
0.2469
 41
0.2469
 66
1
 10
0
 20
0
 30
0
  0
VERTEX
  8
LAYER_1
 10
186.2066
 20
-95.7918
 42
-0.4851628732
  0
VERTEX
  8
LAYER_1
 10
186.1441
 20
-95.7559
 42
-0.283688512
  0
VERTEX
  8
LAYER_1
 10
186.2066
 20
-95.7201
  0
SEQEND
  0
ENDBLK
  0
BLOCK
  8
LAYER_1
  2
AIGNBL01010140
 70
64
 10
0
 20
0
 30
0
  3
AIGNBL01010140
  0
POLYLINE
  8
LAYER_1
 40
0.2469
 41
0.2469
 66
1
 10
0
 20
0
 30
0
  0
VERTEX
  8
LAYER_1
 10
186.2066
 20
-95.7201
 42
-0.4857622231
  0
VERTEX
  8
LAYER_1
 10
186.2691
 20
-95.7559
 42
-0.2841136049
  0
VERTEX
  8
LAYER_1
 10
186.2066
 20
-95.7918
  0
SEQEND
  0
ENDBLK
  0
BLOCK
  8
LAYER_1
  2
AIGNBL01010141
 70
64
 10
0
 20
0
 30
0
  3
AIGNBL01010141
  0
POLYLINE
  8
LAYER_1
 40
0.2469
 41
0.2469
 66
1
 10
0
 20
0
 30
0
  0
VERTEX
  8
LAYER_1
 10
186.4718
 20
-95.6397
 42
-0.4857622231
  0
VERTEX
  8
LAYER_1
 10
186.4093
 20
-95.6039
 42
-0.2841136049
  0
VERTEX
  8
LAYER_1
 10
186.4718
 20
-95.568
  0
SEQEND
  0
ENDBLK
  0
BLOCK
  8
LAYER_1
  2
AIGNBL01010142
 70
64
 10
0
 20
0
 30
0
  3
AIGNBL01010142
  0
POLYLINE
  8
LAYER_1
 40
0.2469
 41
0.2469
 66
1
 10
0
 20
0
 30
0
  0
VERTEX
  8
LAYER_1
 10
186.4718
 20
-95.568
 42
-0.4851628732
  0
VERTEX
  8
LAYER_1
 10
186.5343
 20
-95.6039
 42
-0.283688512
  0
VERTEX
  8
LAYER_1
 10
186.4718
 20
-95.6397
  0
SEQEND
  0
ENDBLK
  0
BLOCK
  8
LAYER_1
  2
AIGNBL01010143
 70
64
 10
0
 20
0
 30
0
  3
AIGNBL01010143
  0
POLYLINE
  8
LAYER_1
 40
0.2469
 41
0.2469
 66
1
 10
0
 20
0
 30
0
  0
VERTEX
  8
LAYER_1
 10
185.2218
 20
-96.2491
 42
0.0871077547
  0
VERTEX
  8
LAYER_1
 10
186.0976
 20
-96.1023
 42
0.1169511774
  0
VERTEX
  8
LAYER_1
 10
186.6599
 20
-95.7514
 42
0.1883580844
  0
VERTEX
  8
LAYER_1
 10
186.8468
 20
-95.3171
 42
0.1737267583
  0
VERTEX
  8
LAYER_1
 10
186.695
 20
-94.9232
 42
0.1216092381
  0
VERTEX
  8
LAYER_1
 10
186.1783
 20
-94.5635
 42
0.09828982868
  0
VERTEX
  8
LAYER_1
 10
185.2218
 20
-94.385
  0
SEQEND
  0
ENDBLK
  0
BLOCK
  8
LAYER_1
  2
AIGNBL01010144
 70
64
 10
0
 20
0
 30
0
  3
AIGNBL01010144
  0
POLYLINE
  8
LAYER_1
 40
0.2469
 41
0.2469
 66
1
 10
0
 20
0
 30
0
  0
VERTEX
  8
LAYER_1
 10
185.2218
 20
-96.2491
 42
-0.08710859918
  0
VERTEX
  8
LAYER_1
 10
184.3459
 20
-96.1023
 42
-0.1169619393
  0
VERTEX
  8
LAYER_1
 10
183.7836
 20
-95.7514
 42
-0.188348226
  0
VERTEX
  8
LAYER_1
 10
183.5968
 20
-95.3171
 42
-0.1737155564
  0
VERTEX
  8
LAYER_1
 10
183.7486
 20
-94.9232
 42
-0.1216197183
  0
VERTEX
  8
LAYER_1
 10
184.2652
 20
-94.5635
 42
-0.09829229278
  0
VERTEX
  8
LAYER_1
 10
185.2218
 20
-94.385
  0
SEQEND
  0
ENDBLK
  0
BLOCK
  8
LAYER_1
  2
AIGNBL01010145
 70
64
 10
0
 20
0
 30
0
  3
AIGNBL01010145
  0
POLYLINE
  8
LAYER_1
 40
0.2469
 41
0.2469
 66
1
 10
0
 20
0
 30
0
  0
VERTEX
  8
LAYER_1
 10
185.2218
 20
-96.4284
 42
-0.07893706188
  0
VERTEX
  8
LAYER_1
 10
184.2574
 20
-96.2812
 42
-0.09841573595
  0
VERTEX
  8
LAYER_1
 10
183.6022
 20
-95.9273
 42
-0.2098874701
  0
VERTEX
  8
LAYER_1
 10
183.2843
 20
-95.3171
 42
-0.1655533385
  0
VERTEX
  8
LAYER_1
 10
183.4459
 20
-94.8721
 42
-0.1161815293
  0
VERTEX
  8
LAYER_1
 10
183.9715
 20
-94.4681
 42
-0.1133147862
  0
VERTEX
  8
LAYER_1
 10
185.2218
 20
-94.2058
  0
SEQEND
  0
ENDBLK
  0
BLOCK
  8
LAYER_1
  2
AIGNBL01010146
 70
64
 10
0
 20
0
 30
0
  3
AIGNBL01010146
  0
POLYLINE
  8
LAYER_1
 40
0.2469
 41
0.2469
 66
1
 10
0
 20
0
 30
0
  0
VERTEX
  8
LAYER_1
 10
185.2218
 20
-96.4284
 42
0.0789369791
  0
VERTEX
  8
LAYER_1
 10
186.1862
 20
-96.2812
 42
0.09840779924
  0
VERTEX
  8
LAYER_1
 10
186.8413
 20
-95.9273
 42
0.2098914723
  0
VERTEX
  8
LAYER_1
 10
187.1593
 20
-95.3171
 42
0.16556299
  0
VERTEX
  8
LAYER_1
 10
186.9977
 20
-94.8721
 42
0.1161737981
  0
VERTEX
  8
LAYER_1
 10
186.4721
 20
-94.4681
 42
0.1133104684
  0
VERTEX
  8
LAYER_1
 10
185.2218
 20
-94.2058
  0
SEQEND
  0
ENDBLK
  0
BLOCK
  8
LAYER_1
  2
AIGNBL01010147
 70
64
 10
0
 20
0
 30
0
  3
AIGNBL01010147
  0
POLYLINE
  8
LAYER_1
 40
0.2469
 41
0.2469
 66
1
 10
0
 20
0
 30
0
  0
VERTEX
  8
LAYER_1
 10
183.5968
 20
-95.1031
  0
VERTEX
  8
LAYER_1
 10
183.4207
 20
-94.9075
  0
SEQEND
  0
ENDBLK
  0
BLOCK
  8
LAYER_1
  2
AIGNBL01010148
 70
64
 10
0
 20
0
 30
0
  3
AIGNBL01010148
  0
POLYLINE
  8
LAYER_1
 40
0.2469
 41
0.2469
 66
1
 10
0
 20
0
 30
0
  0
VERTEX
  8
LAYER_1
 10
186.8468
 20
-95.1031
  0
VERTEX
  8
LAYER_1
 10
187.0229
 20
-94.9075
  0
SEQEND
  0
ENDBLK
  0
BLOCK
  8
LAYER_1
  2
AIGNBL01010149
 70
64
 10
0
 20
0
 30
0
  3
AIGNBL01010149
  0
POLYLINE
  8
LAYER_1
 40
0.2469
 41
0.2469
 66
1
 10
0
 20
0
 30
0
  0
VERTEX
  8
LAYER_1
 10
183.5968
 20
-94.8705
  0
VERTEX
  8
LAYER_1
 10
183.5366
 20
-94.7686
  0
SEQEND
  0
ENDBLK
  0
BLOCK
  8
LAYER_1
  2
AIGNBL0101014A
 70
64
 10
0
 20
0
 30
0
  3
AIGNBL0101014A
  0
POLYLINE
  8
LAYER_1
 40
0.2469
 41
0.2469
 66
1
 10
0
 20
0
 30
0
  0
VERTEX
  8
LAYER_1
 10
186.8468
 20
-94.8705
  0
VERTEX
  8
LAYER_1
 10
186.9069
 20
-94.7686
  0
SEQEND
  0
ENDBLK
  0
BLOCK
  8
LAYER_1
  2
AIGNBL0101014B
 70
64
 10
0
 20
0
 30
0
  3
AIGNBL0101014B
  0
POLYLINE
  8
LAYER_1
 40
0.2469
 41
0.2469
 66
1
 10
0
 20
0
 30
0
  0
VERTEX
  8
LAYER_1
 10
186.2218
 20
-76.2007
 42
-0.09700904871
  0
VERTEX
  8
LAYER_1
 10
186.1459
 20
-76.5827
 42
-0.09700050207
  0
VERTEX
  8
LAYER_1
 10
185.9295
 20
-76.9072
 42
-0.09710655
  0
VERTEX
  8
LAYER_1
 10
185.6054
 20
-77.1242
 42
-0.09728242362
  0
VERTEX
  8
LAYER_1
 10
185.2218
 20
-77.2007
  0
SEQEND
  0
ENDBLK
  0
BLOCK
  8
LAYER_1
  2
AIGNBL0101014C
 70
64
 10
0
 20
0
 30
0
  3
AIGNBL0101014C
  0
POLYLINE
  8
LAYER_1
 40
0.2469
 41
0.2469
 66
1
 10
0
 20
0
 30
0
  0
VERTEX
  8
LAYER_1
 10
185.2218
 20
-75.2007
 42
-0.09691531688
  0
VERTEX
  8
LAYER_1
 10
185.6046
 20
-75.2768
 42
-0.09682359501
  0
VERTEX
  8
LAYER_1
 10
185.9284
 20
-75.4931
 42
-0.09673828159
  0
VERTEX
  8
LAYER_1
 10
186.145
 20
-75.8164
 42
-0.09684854033
  0
VERTEX
  8
LAYER_1
 10
186.2218
 20
-76.1989
  0
VERTEX
  8
LAYER_1
 10
186.2218
 20
-76.2007
  0
SEQEND
  0
ENDBLK
  0
BLOCK
  8
LAYER_1
  2
AIGNBL0101014D
 70
64
 10
0
 20
0
 30
0
  3
AIGNBL0101014D
  0
POLYLINE
  8
LAYER_1
 40
0.2469
 41
0.2469
 66
1
 10
0
 20
0
 30
0
  0
VERTEX
  8
LAYER_1
 10
184.2218
 20
-76.2007
  0
VERTEX
  8
LAYER_1
 10
184.2218
 20
-76.1989
 42
-0.0970073895
  0
VERTEX
  8
LAYER_1
 10
184.2985
 20
-75.8164
 42
-0.09686532494
  0
VERTEX
  8
LAYER_1
 10
184.5152
 20
-75.4931
 42
-0.09701159325
  0
VERTEX
  8
LAYER_1
 10
184.839
 20
-75.2768
 42
-0.09695668569
  0
VERTEX
  8
LAYER_1
 10
185.2218
 20
-75.2007
  0
SEQEND
  0
ENDBLK
  0
BLOCK
  8
LAYER_1
  2
AIGNBL0101014E
 70
64
 10
0
 20
0
 30
0
  3
AIGNBL0101014E
  0
POLYLINE
  8
LAYER_1
 40
0.2469
 41
0.2469
 66
1
 10
0
 20
0
 30
0
  0
VERTEX
  8
LAYER_1
 10
185.2218
 20
-77.2007
 42
-0.09734637418
  0
VERTEX
  8
LAYER_1
 10
184.8381
 20
-77.1242
 42
-0.09687500857
  0
VERTEX
  8
LAYER_1
 10
184.514
 20
-76.9072
 42
-0.09695471971
  0
VERTEX
  8
LAYER_1
 10
184.2976
 20
-76.5827
 42
-0.09679903965
  0
VERTEX
  8
LAYER_1
 10
184.2218
 20
-76.2007
  0
SEQEND
  0
ENDBLK
  0
BLOCK
  8
LAYER_1
  2
AIGNBL0101014F
 70
64
 10
0
 20
0
 30
0
  3
AIGNBL0101014F
  0
POLYLINE
  8
LAYER_1
 40
0.2469
 41
0.2469
 66
1
 10
0
 20
0
 30
0
  0
VERTEX
  8
LAYER_1
 10
182.9718
 20
-91.5285
 42
-0.1484396237
  0
VERTEX
  8
LAYER_1
 10
183.1179
 20
-91.07
 42
-0.1133407405
  0
VERTEX
  8
LAYER_1
 10
183.6118
 20
-90.6269
 42
-0.08200168889
  0
VERTEX
  8
LAYER_1
 10
184.4741
 20
-90.3109
 42
-0.04922088436
  0
VERTEX
  8
LAYER_1
 10
185.2218
 20
-90.2379
  0
SEQEND
  0
ENDBLK
  0
BLOCK
  8
LAYER_1
  2
AIGNBL01010150
 70
64
 10
0
 20
0
 30
0
  3
AIGNBL01010150
  0
POLYLINE
  8
LAYER_1
 40
0.2469
 41
0.2469
 66
1
 10
0
 20
0
 30
0
  0
VERTEX
  8
LAYER_1
 10
185.2218
 20
-96.6076
 42
-0.07093312392
  0
VERTEX
  8
LAYER_1
 10
184.1975
 20
-96.4664
 42
-0.08827324301
  0
VERTEX
  8
LAYER_1
 10
183.4351
 20
-96.1016
 42
-0.1265871209
  0
VERTEX
  8
LAYER_1
 10
183.0426
 20
-95.6396
 42
-0.1073834774
  0
VERTEX
  8
LAYER_1
 10
182.9718
 20
-95.3171
 42
-0.1484396237
  0
VERTEX
  8
LAYER_1
 10
183.1179
 20
-94.8586
 42
-0.1133407405
  0
VERTEX
  8
LAYER_1
 10
183.6118
 20
-94.4155
 42
-0.08200168889
  0
VERTEX
  8
LAYER_1
 10
184.4741
 20
-94.0995
 42
-0.04922088436
  0
VERTEX
  8
LAYER_1
 10
185.2218
 20
-94.0265
  0
SEQEND
  0
ENDBLK
  0
BLOCK
  8
LAYER_1
  2
AIGNBL01010151
 70
64
 10
0
 20
0
 30
0
  3
AIGNBL01010151
  0
POLYLINE
  8
LAYER_1
 40
0.2469
 41
0.2469
 66
1
 10
0
 20
0
 30
0
  0
VERTEX
  8
LAYER_1
 10
185.2218
 20
-96.6076
 42
0.07093351452
  0
VERTEX
  8
LAYER_1
 10
186.2461
 20
-96.4664
 42
0.08826714844
  0
VERTEX
  8
LAYER_1
 10
187.0085
 20
-96.1016
 42
0.1265843124
  0
VERTEX
  8
LAYER_1
 10
187.401
 20
-95.6396
 42
0.1073919572
  0
VERTEX
  8
LAYER_1
 10
187.4718
 20
-95.3171
 42
0.1484481514
  0
VERTEX
  8
LAYER_1
 10
187.3256
 20
-94.8586
 42
0.1133354595
  0
VERTEX
  8
LAYER_1
 10
186.8317
 20
-94.4155
 42
0.08199678977
  0
VERTEX
  8
LAYER_1
 10
185.9695
 20
-94.0995
 42
0.04922263788
  0
VERTEX
  8
LAYER_1
 10
185.2218
 20
-94.0265
  0
SEQEND
  0
ENDBLK
  0
BLOCK
  8
LAYER_1
  2
AIGNBL01010152
 70
64
 10
0
 20
0
 30
0
  3
AIGNBL01010152
  0
POLYLINE
  8
LAYER_1
 40
0.2469
 41
0.2469
 66
1
 10
0
 20
0
 30
0
  0
VERTEX
  8
LAYER_1
 10
187.4718
 20
-91.5285
 42
0.1484481514
  0
VERTEX
  8
LAYER_1
 10
187.3256
 20
-91.07
 42
0.1133354595
  0
VERTEX
  8
LAYER_1
 10
186.8317
 20
-90.6269
 42
0.08199678977
  0
VERTEX
  8
LAYER_1
 10
185.9695
 20
-90.3109
 42
0.04922263789
  0
VERTEX
  8
LAYER_1
 10
185.2218
 20
-90.2379
  0
SEQEND
  0
ENDBLK
  0
BLOCK
  8
LAYER_1
  2
AIGNBL01010153
 70
64
 10
0
 20
0
 30
0
  3
AIGNBL01010153
  0
POLYLINE
  8
LAYER_1
 40
0.2469
 41
0.2469
 66
1
 10
0
 20
0
 30
0
  0
VERTEX
  8
LAYER_1
 10
182.9718
 20
-86.2785
  0
VERTEX
  8
LAYER_1
 10
182.9718
 20
-91.5022
  0
SEQEND
  0
ENDBLK
  0
BLOCK
  8
LAYER_1
  2
AIGNBL01010154
 70
64
 10
0
 20
0
 30
0
  3
AIGNBL01010154
  0
POLYLINE
  8
LAYER_1
 40
0.2469
 41
0.2469
 66
1
 10
0
 20
0
 30
0
  0
VERTEX
  8
LAYER_1
 10
187.4718
 20
-91.5022
  0
VERTEX
  8
LAYER_1
 10
187.4718
 20
-86.2785
  0
SEQEND
  0
ENDBLK
  0
BLOCK
  8
LAYER_1
  2
AIGNBL01010155
 70
64
 10
0
 20
0
 30
0
  3
AIGNBL01010155
  0
POLYLINE
  8
LAYER_1
 40
0.2469
 41
0.2469
 66
1
 10
0
 20
0
 30
0
  0
VERTEX
  8
LAYER_1
 10
185.2218
 20
-90.2379
 42
0.07093505851
  0
VERTEX
  8
LAYER_1
 10
184.1975
 20
-90.3791
 42
0.08827928057
  0
VERTEX
  8
LAYER_1
 10
183.4351
 20
-90.7439
 42
0.1265901983
  0
VERTEX
  8
LAYER_1
 10
183.0426
 20
-91.206
 42
0.1073718466
  0
VERTEX
  8
LAYER_1
 10
182.9718
 20
-91.5285
  0
SEQEND
  0
ENDBLK
  0
BLOCK
  8
LAYER_1
  2
AIGNBL01010156
 70
64
 10
0
 20
0
 30
0
  3
AIGNBL01010156
  0
POLYLINE
  8
LAYER_1
 40
0.2469
 41
0.2469
 66
1
 10
0
 20
0
 30
0
  0
VERTEX
  8
LAYER_1
 10
187.4718
 20
-91.5285
 42
0.1484481514
  0
VERTEX
  8
LAYER_1
 10
187.3256
 20
-91.07
 42
0.1133354595
  0
VERTEX
  8
LAYER_1
 10
186.8317
 20
-90.6269
 42
0.08199678977
  0
VERTEX
  8
LAYER_1
 10
185.9695
 20
-90.3109
 42
0.04922263789
  0
VERTEX
  8
LAYER_1
 10
185.2218
 20
-90.2379
  0
SEQEND
  0
ENDBLK
  0
BLOCK
  8
LAYER_1
  2
AIGNBL01010157
 70
64
 10
0
 20
0
 30
0
  3
AIGNBL01010157
  0
POLYLINE
  8
LAYER_1
 40
0.2469
 41
0.2469
 66
1
 10
0
 20
0
 30
0
  0
VERTEX
  8
LAYER_1
 10
185.2218
 20
-84.0285
 42
0.41421929
  0
VERTEX
  8
LAYER_1
 10
182.9718
 20
-86.2785
  0
SEQEND
  0
ENDBLK
  0
BLOCK
  8
LAYER_1
  2
AIGNBL01010158
 70
64
 10
0
 20
0
 30
0
  3
AIGNBL01010158
  0
POLYLINE
  8
LAYER_1
 40
0.2469
 41
0.2469
 66
1
 10
0
 20
0
 30
0
  0
VERTEX
  8
LAYER_1
 10
187.4718
 20
-86.2785
 42
0.4142110334
  0
VERTEX
  8
LAYER_1
 10
185.2218
 20
-84.0285
  0
SEQEND
  0
ENDBLK
  0
BLOCK
  8
LAYER_1
  2
AIGNBL01010159
 70
64
 10
0
 20
0
 30
0
  3
AIGNBL01010159
  0
POLYLINE
  8
LAYER_1
 40
0.2469
 41
0.2469
 66
1
 10
0
 20
0
 30
0
  0
VERTEX
  8
LAYER_1
 10
184.2343
 20
-76.2007
 42
-0.4142302011
  0
VERTEX
  8
LAYER_1
 10
185.2218
 20
-75.2132
 42
-0.414211388
  0
VERTEX
  8
LAYER_1
 10
186.2093
 20
-76.2007
  0
SEQEND
  0
ENDBLK
  0
BLOCK
  8
LAYER_1
  2
AIGNBL0101015A
 70
64
 10
0
 20
0
 30
0
  3
AIGNBL0101015A
  0
POLYLINE
  8
LAYER_1
 40
0.2469
 41
0.2469
 66
1
 10
0
 20
0
 30
0
  0
VERTEX
  8
LAYER_1
 10
184.2343
 20
-76.2007
 42
0.4142157358
  0
VERTEX
  8
LAYER_1
 10
185.2218
 20
-77.1882
 42
0.414196925
  0
VERTEX
  8
LAYER_1
 10
186.2093
 20
-76.2007
  0
SEQEND
  0
ENDBLK
  0
BLOCK
  8
LAYER_1
  2
AIGNBL0101015B
 70
64
 10
0
 20
0
 30
0
  3
AIGNBL0101015B
  0
POLYLINE
  8
LAYER_1
 40
0.2469
 41
0.2469
 66
1
 10
0
 20
0
 30
0
  0
VERTEX
  8
LAYER_1
 10
178.9718
 20
-152.2785
  0
VERTEX
  8
LAYER_1
 10
178.9718
 20
-151.2785
  0
SEQEND
  0
ENDBLK
  0
BLOCK
  8
LAYER_1
  2
AIGNBL0101015C
 70
64
 10
0
 20
0
 30
0
  3
AIGNBL0101015C
  0
POLYLINE
  8
LAYER_1
 40
0.2469
 41
0.2469
 66
1
 10
0
 20
0
 30
0
  0
VERTEX
  8
LAYER_1
 10
191.4718
 20
-152.2785
  0
VERTEX
  8
LAYER_1
 10
191.4718
 20
-151.2785
  0
SEQEND
  0
ENDBLK
  0
BLOCK
  8
LAYER_1
  2
AIGNBL0101015D
 70
64
 10
0
 20
0
 30
0
  3
AIGNBL0101015D
  0
POLYLINE
  8
LAYER_1
 40
0.2469
 41
0.2469
 66
1
 10
0
 20
0
 30
0
  0
VERTEX
  8
LAYER_1
 10
186.8468
 20
-94.7119
  0
VERTEX
  8
LAYER_1
 10
186.8468
 20
-95.3171
  0
SEQEND
  0
ENDBLK
  0
BLOCK
  8
LAYER_1
  2
AIGNBL0101015E
 70
64
 10
0
 20
0
 30
0
  3
AIGNBL0101015E
  0
POLYLINE
  8
LAYER_1
 40
0.2469
 41
0.2469
 66
1
 10
0
 20
0
 30
0
  0
VERTEX
  8
LAYER_1
 10
185.2218
 20
-74.3257
  0
VERTEX
  8
LAYER_1
 10
190.1025
 20
-74.3257
  0
SEQEND
  0
ENDBLK
  0
BLOCK
  8
LAYER_1
  2
AIGNBL0101015F
 70
64
 10
0
 20
0
 30
0
  3
AIGNBL0101015F
  0
POLYLINE
  8
LAYER_1
 40
0.2469
 41
0.2469
 66
1
 10
0
 20
0
 30
0
  0
VERTEX
  8
LAYER_1
 10
183.5968
 20
-94.7119
  0
VERTEX
  8
LAYER_1
 10
183.5968
 20
-95.3171
  0
SEQEND
  0
ENDBLK
  0
BLOCK
  8
LAYER_1
  2
AIGNBL01010160
 70
64
 10
0
 20
0
 30
0
  3
AIGNBL01010160
  0
POLYLINE
  8
LAYER_1
 40
0.2469
 41
0.2469
 66
1
 10
0
 20
0
 30
0
  0
VERTEX
  8
LAYER_1
 10
185.2218
 20
-74.3257
  0
VERTEX
  8
LAYER_1
 10
180.341
 20
-74.3257
  0
SEQEND
  0
ENDBLK
  0
BLOCK
  8
LAYER_1
  2
AIGNBL01010161
 70
64
 10
0
 20
0
 30
0
  3
AIGNBL01010161
  0
POLYLINE
  8
LAYER_1
 40
0.2469
 41
0.2469
 66
1
 10
0
 20
0
 30
0
  0
VERTEX
  8
LAYER_1
 10
182.9718
 20
-91.5285
  0
VERTEX
  8
LAYER_1
 10
182.9718
 20
-95.3171
  0
SEQEND
  0
ENDBLK
  0
BLOCK
  8
LAYER_1
  2
AIGNBL01010162
 70
64
 10
0
 20
0
 30
0
  3
AIGNBL01010162
  0
POLYLINE
  8
LAYER_1
 40
0.2469
 41
0.2469
 66
1
 10
0
 20
0
 30
0
  0
VERTEX
  8
LAYER_1
 10
187.4718
 20
-91.5285
  0
VERTEX
  8
LAYER_1
 10
187.4718
 20
-95.3171
  0
SEQEND
  0
ENDBLK
  0
BLOCK
  8
LAYER_1
  2
AIGNBL01010163
 70
64
 10
0
 20
0
 30
0
  3
AIGNBL01010163
  0
POLYLINE
  8
LAYER_1
 40
0.2469
 41
0.2469
 66
1
 10
0
 20
0
 30
0
  0
VERTEX
  8
LAYER_1
 10
182.9718
 20
-91.5022
  0
VERTEX
  8
LAYER_1
 10
182.9718
 20
-91.5285
  0
SEQEND
  0
ENDBLK
  0
BLOCK
  8
LAYER_1
  2
AIGNBL01010164
 70
64
 10
0
 20
0
 30
0
  3
AIGNBL01010164
  0
POLYLINE
  8
LAYER_1
 40
0.2469
 41
0.2469
 66
1
 10
0
 20
0
 30
0
  0
VERTEX
  8
LAYER_1
 10
187.4718
 20
-91.5022
  0
VERTEX
  8
LAYER_1
 10
187.4718
 20
-91.5285
  0
SEQEND
  0
ENDBLK
  0
BLOCK
  8
LAYER_1
  2
AIGNBL01010165
 70
64
 10
0
 20
0
 30
0
  3
AIGNBL01010165
  0
POLYLINE
  8
LAYER_1
 40
0.2469
 41
0.2469
 66
1
 10
0
 20
0
 30
0
  0
VERTEX
  8
LAYER_1
 10
185.2218
 20
-74.2405
  0
VERTEX
  8
LAYER_1
 10
180.341
 20
-74.3257
  0
SEQEND
  0
ENDBLK
  0
BLOCK
  8
LAYER_1
  2
AIGNBL01010166
 70
64
 10
0
 20
0
 30
0
  3
AIGNBL01010166
  0
POLYLINE
  8
LAYER_1
 40
0.2469
 41
0.2469
 66
1
 10
0
 20
0
 30
0
  0
VERTEX
  8
LAYER_1
 10
185.2218
 20
-74.2405
  0
VERTEX
  8
LAYER_1
 10
190.1025
 20
-74.3257
  0
SEQEND
  0
ENDBLK
  0
BLOCK
  8
LAYER_1
  2
AIGNBL01010167
 70
64
 10
0
 20
0
 30
0
  3
AIGNBL01010167
  0
POLYLINE
  8
LAYER_1
 40
0.2469
 41
0.2469
 66
1
 10
0
 20
0
 30
0
  0
VERTEX
  8
LAYER_1
 10
190.1025
 20
-74.3257
  0
VERTEX
  8
LAYER_1
 10
190.1593
 20
-80.8257
  0
SEQEND
  0
ENDBLK
  0
BLOCK
  8
LAYER_1
  2
AIGNBL01010168
 70
64
 10
0
 20
0
 30
0
  3
AIGNBL01010168
  0
POLYLINE
  8
LAYER_1
 40
0.2469
 41
0.2469
 66
1
 10
0
 20
0
 30
0
  0
VERTEX
  8
LAYER_1
 10
180.341
 20
-74.3257
  0
VERTEX
  8
LAYER_1
 10
180.2843
 20
-80.8257
  0
SEQEND
  0
ENDBLK
  0
BLOCK
  8
LAYER_1
  2
AIGNBL01010169
 70
64
 10
0
 20
0
 30
0
  3
AIGNBL01010169
  0
POLYLINE
  8
LAYER_1
 40
0.2469
 41
0.2469
 66
1
 10
0
 20
0
 30
0
  0
VERTEX
  8
LAYER_1
 10
181.1593
 20
-81.2785
  0
VERTEX
  8
LAYER_1
 10
181.2136
 20
-80.8257
  0
SEQEND
  0
ENDBLK
  0
BLOCK
  8
LAYER_1
  2
AIGNBL0101016A
 70
64
 10
0
 20
0
 30
0
  3
AIGNBL0101016A
  0
POLYLINE
  8
LAYER_1
 40
0.2469
 41
0.2469
 66
1
 10
0
 20
0
 30
0
  0
VERTEX
  8
LAYER_1
 10
189.2843
 20
-81.2785
  0
VERTEX
  8
LAYER_1
 10
189.2299
 20
-80.8257
  0
SEQEND
  0
ENDBLK
  0
BLOCK
  8
LAYER_1
  2
AIGNBL0101016B
 70
64
 10
0
 20
0
 30
0
  3
AIGNBL0101016B
  0
POLYLINE
  8
LAYER_1
 40
0.2469
 41
0.2469
 66
1
 10
0
 20
0
 30
0
  0
VERTEX
  8
LAYER_1
 10
185.2218
 20
-80.8257
  0
VERTEX
  8
LAYER_1
 10
180.2843
 20
-80.8257
  0
SEQEND
  0
ENDBLK
  0
BLOCK
  8
LAYER_1
  2
AIGNBL0101016C
 70
64
 10
0
 20
0
 30
0
  3
AIGNBL0101016C
  0
POLYLINE
  8
LAYER_1
 40
0.2469
 41
0.2469
 66
1
 10
0
 20
0
 30
0
  0
VERTEX
  8
LAYER_1
 10
190.1593
 20
-151.2785
  0
VERTEX
  8
LAYER_1
 10
190.1593
 20
-81.2785
  0
SEQEND
  0
ENDBLK
  0
BLOCK
  8
LAYER_1
  2
AIGNBL0101016D
 70
64
 10
0
 20
0
 30
0
  3
AIGNBL0101016D
  0
POLYLINE
  8
LAYER_1
 40
0.2469
 41
0.2469
 66
1
 10
0
 20
0
 30
0
  0
VERTEX
  8
LAYER_1
 10
180.2843
 20
-151.2785
  0
VERTEX
  8
LAYER_1
 10
180.2843
 20
-81.2785
  0
SEQEND
  0
ENDBLK
  0
BLOCK
  8
LAYER_1
  2
AIGNBL0101016E
 70
64
 10
0
 20
0
 30
0
  3
AIGNBL0101016E
  0
POLYLINE
  8
LAYER_1
 40
0.2469
 41
0.2469
 66
1
 10
0
 20
0
 30
0
  0
VERTEX
  8
LAYER_1
 10
185.2218
 20
-80.8257
  0
VERTEX
  8
LAYER_1
 10
190.1593
 20
-80.8257
  0
SEQEND
  0
ENDBLK
  0
BLOCK
  8
LAYER_1
  2
AIGNBL0101016F
 70
64
 10
0
 20
0
 30
0
  3
AIGNBL0101016F
  0
POLYLINE
  8
LAYER_1
 40
0.2469
 41
0.2469
 66
1
 10
0
 20
0
 30
0
  0
VERTEX
  8
LAYER_1
 10
190.1593
 20
-81.2785
  0
VERTEX
  8
LAYER_1
 10
180.2843
 20
-81.2785
  0
SEQEND
  0
ENDBLK
  0
BLOCK
  8
LAYER_1
  2
AIGNBL01010170
 70
64
 10
0
 20
0
 30
0
  3
AIGNBL01010170
  0
POLYLINE
  8
LAYER_1
 40
0.2469
 41
0.2469
 66
1
 10
0
 20
0
 30
0
  0
VERTEX
  8
LAYER_1
 10
106.9951
 20
-88.5285
  0
VERTEX
  8
LAYER_1
 10
107.4326
 20
-88.5285
  0
SEQEND
  0
ENDBLK
  0
BLOCK
  8
LAYER_1
  2
AIGNBL01010171
 70
64
 10
0
 20
0
 30
0
  3
AIGNBL01010171
  0
POLYLINE
  8
LAYER_1
 40
0.2469
 41
0.2469
 66
1
 10
0
 20
0
 30
0
  0
VERTEX
  8
LAYER_1
 10
106.5576
 20
-88.5285
  0
VERTEX
  8
LAYER_1
 10
106.9951
 20
-88.5285
  0
SEQEND
  0
ENDBLK
  0
BLOCK
  8
LAYER_1
  2
AIGNBL01010172
 70
64
 10
0
 20
0
 30
0
  3
AIGNBL01010172
  0
POLYLINE
  8
LAYER_1
 40
0.2469
 41
0.2469
 66
1
 10
0
 20
0
 30
0
  0
VERTEX
  8
LAYER_1
 10
100.1001
 20
-151.2785
  0
VERTEX
  8
LAYER_1
 10
93.8501
 20
-151.2785
  0
SEQEND
  0
ENDBLK
  0
BLOCK
  8
LAYER_1
  2
AIGNBL01010173
 70
64
 10
0
 20
0
 30
0
  3
AIGNBL01010173
  0
POLYLINE
  8
LAYER_1
 40
0.2469
 41
0.2469
 66
1
 10
0
 20
0
 30
0
  0
VERTEX
  8
LAYER_1
 10
100.1001
 20
-151.2785
  0
VERTEX
  8
LAYER_1
 10
106.3501
 20
-151.2785
  0
SEQEND
  0
ENDBLK
  0
BLOCK
  8
LAYER_1
  2
AIGNBL01010174
 70
64
 10
0
 20
0
 30
0
  3
AIGNBL01010174
  0
POLYLINE
  8
LAYER_1
 40
0.2469
 41
0.2469
 66
1
 10
0
 20
0
 30
0
  0
VERTEX
  8
LAYER_1
 10
100.1001
 20
-152.2785
  0
VERTEX
  8
LAYER_1
 10
93.8501
 20
-152.2785
  0
SEQEND
  0
ENDBLK
  0
BLOCK
  8
LAYER_1
  2
AIGNBL01010175
 70
64
 10
0
 20
0
 30
0
  3
AIGNBL01010175
  0
POLYLINE
  8
LAYER_1
 40
0.2469
 41
0.2469
 66
1
 10
0
 20
0
 30
0
  0
VERTEX
  8
LAYER_1
 10
95.1786
 20
-78.5326
  0
VERTEX
  8
LAYER_1
 10
100.096
 20
-80.8257
  0
SEQEND
  0
ENDBLK
  0
BLOCK
  8
LAYER_1
  2
AIGNBL01010176
 70
64
 10
0
 20
0
 30
0
  3
AIGNBL01010176
  0
POLYLINE
  8
LAYER_1
 40
0.2469
 41
0.2469
 66
1
 10
0
 20
0
 30
0
  0
VERTEX
  8
LAYER_1
 10
105.0376
 20
-88.5285
  0
VERTEX
  8
LAYER_1
 10
104.9609
 20
-88.3548
  0
VERTEX
  8
LAYER_1
 10
104.7742
 20
-87.8695
 42
-0.0351107563
  0
VERTEX
  8
LAYER_1
 10
104.5798
 20
-87.1454
 42
-0.04727121261
  0
VERTEX
  8
LAYER_1
 10
104.4951
 20
-86.2785
 42
-0.04655661953
  0
VERTEX
  8
LAYER_1
 10
104.5798
 20
-85.4116
 42
-0.03300722111
  0
VERTEX
  8
LAYER_1
 10
104.7742
 20
-84.6875
  0
VERTEX
  8
LAYER_1
 10
104.9609
 20
-84.2022
  0
VERTEX
  8
LAYER_1
 10
105.0376
 20
-84.0285
  0
SEQEND
  0
ENDBLK
  0
BLOCK
  8
LAYER_1
  2
AIGNBL01010177
 70
64
 10
0
 20
0
 30
0
  3
AIGNBL01010177
  0
POLYLINE
  8
LAYER_1
 40
0.2469
 41
0.2469
 66
1
 10
0
 20
0
 30
0
  0
VERTEX
  8
LAYER_1
 10
107.4024
 20
-88.5097
  0
VERTEX
  8
LAYER_1
 10
107.4699
 20
-88.5206
  0
VERTEX
  8
LAYER_1
 10
107.5139
 20
-88.5285
  0
SEQEND
  0
ENDBLK
  0
BLOCK
  8
LAYER_1
  2
AIGNBL01010178
 70
64
 10
0
 20
0
 30
0
  3
AIGNBL01010178
  0
POLYLINE
  8
LAYER_1
 40
0.2469
 41
0.2469
 66
1
 10
0
 20
0
 30
0
  0
VERTEX
  8
LAYER_1
 10
106.4764
 20
-88.5285
  0
VERTEX
  8
LAYER_1
 10
106.5204
 20
-88.5206
  0
VERTEX
  8
LAYER_1
 10
106.5878
 20
-88.5097
  0
SEQEND
  0
ENDBLK
  0
BLOCK
  8
LAYER_1
  2
AIGNBL01010179
 70
64
 10
0
 20
0
 30
0
  3
AIGNBL01010179
  0
POLYLINE
  8
LAYER_1
 40
0.2469
 41
0.2469
 66
1
 10
0
 20
0
 30
0
  0
VERTEX
  8
LAYER_1
 10
104.89
 20
-76.2007
  0
VERTEX
  8
LAYER_1
 10
104.89
 20
-76.1989
  0
VERTEX
  8
LAYER_1
 10
104.902
 20
-75.8164
  0
VERTEX
  8
LAYER_1
 10
104.9357
 20
-75.4931
  0
VERTEX
  8
LAYER_1
 10
104.9701
 20
-75.2768
  0
VERTEX
  8
LAYER_1
 10
104.9845
 20
-75.2007
  0
SEQEND
  0
ENDBLK
  0
BLOCK
  8
LAYER_1
  2
AIGNBL0101017A
 70
64
 10
0
 20
0
 30
0
  3
AIGNBL0101017A
  0
POLYLINE
  8
LAYER_1
 40
0.2469
 41
0.2469
 66
1
 10
0
 20
0
 30
0
  0
VERTEX
  8
LAYER_1
 10
105.0019
 20
-77.2007
  0
VERTEX
  8
LAYER_1
 10
104.9862
 20
-77.1242
  0
VERTEX
  8
LAYER_1
 10
104.948
 20
-76.9072
  0
VERTEX
  8
LAYER_1
 10
104.9086
 20
-76.5827
  0
VERTEX
  8
LAYER_1
 10
104.89
 20
-76.2007
  0
SEQEND
  0
ENDBLK
  0
BLOCK
  8
LAYER_1
  2
AIGNBL0101017B
 70
64
 10
0
 20
0
 30
0
  3
AIGNBL0101017B
  0
POLYLINE
  8
LAYER_1
 40
0.2469
 41
0.2469
 66
1
 10
0
 20
0
 30
0
  0
VERTEX
  8
LAYER_1
 10
95.2474
 20
-76.2007
  0
VERTEX
  8
LAYER_1
 10
95.238
 20
-76.4634
  0
VERTEX
  8
LAYER_1
 10
95.2189
 20
-76.6865
  0
VERTEX
  8
LAYER_1
 10
95.2004
 20
-76.8357
  0
VERTEX
  8
LAYER_1
 10
95.1961
 20
-76.8666
  0
SEQEND
  0
ENDBLK
  0
BLOCK
  8
LAYER_1
  2
AIGNBL0101017C
 70
64
 10
0
 20
0
 30
0
  3
AIGNBL0101017C
  0
POLYLINE
  8
LAYER_1
 40
0.2469
 41
0.2469
 66
1
 10
0
 20
0
 30
0
  0
VERTEX
  8
LAYER_1
 10
95.2049
 20
-75.5132
  0
VERTEX
  8
LAYER_1
 10
95.2115
 20
-75.5655
  0
VERTEX
  8
LAYER_1
 10
95.2273
 20
-75.7143
  0
VERTEX
  8
LAYER_1
 10
95.2426
 20
-75.9369
  0
VERTEX
  8
LAYER_1
 10
95.2474
 20
-76.1998
  0
VERTEX
  8
LAYER_1
 10
95.2474
 20
-76.2007
  0
SEQEND
  0
ENDBLK
  0
BLOCK
  8
LAYER_1
  2
AIGNBL0101017D
 70
64
 10
0
 20
0
 30
0
  3
AIGNBL0101017D
  0
POLYLINE
  8
LAYER_1
 40
0.2469
 41
0.2469
 66
1
 10
0
 20
0
 30
0
  0
VERTEX
  8
LAYER_1
 10
107.4326
 20
-88.5285
  0
VERTEX
  8
LAYER_1
 10
107.4326
 20
-88.5144
  0
SEQEND
  0
ENDBLK
  0
BLOCK
  8
LAYER_1
  2
AIGNBL0101017E
 70
64
 10
0
 20
0
 30
0
  3
AIGNBL0101017E
  0
POLYLINE
  8
LAYER_1
 40
0.2469
 41
0.2469
 66
1
 10
0
 20
0
 30
0
  0
VERTEX
  8
LAYER_1
 10
106.5576
 20
-88.5285
  0
VERTEX
  8
LAYER_1
 10
106.5576
 20
-88.5144
  0
SEQEND
  0
ENDBLK
  0
BLOCK
  8
LAYER_1
  2
AIGNBL0101017F
 70
64
 10
0
 20
0
 30
0
  3
AIGNBL0101017F
  0
POLYLINE
  8
LAYER_1
 40
0.2469
 41
0.2469
 66
1
 10
0
 20
0
 30
0
  0
VERTEX
  8
LAYER_1
 10
100.1001
 20
-152.2785
  0
VERTEX
  8
LAYER_1
 10
106.3501
 20
-152.2785
  0
SEQEND
  0
ENDBLK
  0
BLOCK
  8
LAYER_1
  2
AIGNBL01010180
 70
64
 10
0
 20
0
 30
0
  3
AIGNBL01010180
  0
POLYLINE
  8
LAYER_1
 40
0.2469
 41
0.2469
 66
1
 10
0
 20
0
 30
0
  0
VERTEX
  8
LAYER_1
 10
93.8501
 20
-151.2785
  0
VERTEX
  8
LAYER_1
 10
93.8501
 20
-152.2785
  0
SEQEND
  0
ENDBLK
  0
BLOCK
  8
LAYER_1
  2
AIGNBL01010181
 70
64
 10
0
 20
0
 30
0
  3
AIGNBL01010181
  0
POLYLINE
  8
LAYER_1
 40
0.2469
 41
0.2469
 66
1
 10
0
 20
0
 30
0
  0
VERTEX
  8
LAYER_1
 10
106.3501
 20
-151.2785
  0
VERTEX
  8
LAYER_1
 10
106.3501
 20
-152.2785
  0
SEQEND
  0
ENDBLK
  0
BLOCK
  8
LAYER_1
  2
AIGNBL01010182
 70
64
 10
0
 20
0
 30
0
  3
AIGNBL01010182
  0
POLYLINE
  8
LAYER_1
 40
0.2469
 41
0.2469
 66
1
 10
0
 20
0
 30
0
  0
VERTEX
  8
LAYER_1
 10
140.0882
 20
-90.2379
  0
VERTEX
  8
LAYER_1
 10
136.402
 20
-92.819
  0
SEQEND
  0
ENDBLK
  0
BLOCK
  8
LAYER_1
  2
AIGNBL01010183
 70
64
 10
0
 20
0
 30
0
  3
AIGNBL01010183
  0
POLYLINE
  8
LAYER_1
 40
0.2469
 41
0.2469
 66
1
 10
0
 20
0
 30
0
  0
VERTEX
  8
LAYER_1
 10
142.741
 20
-94.0265
  0
VERTEX
  8
LAYER_1
 10
140.0882
 20
-90.2379
  0
SEQEND
  0
ENDBLK
  0
BLOCK
  8
LAYER_1
  2
AIGNBL01010184
 70
64
 10
0
 20
0
 30
0
  3
AIGNBL01010184
  0
POLYLINE
  8
LAYER_1
 40
0.2469
 41
0.2469
 66
1
 10
0
 20
0
 30
0
  0
VERTEX
  8
LAYER_1
 10
139.0548
 20
-96.6076
  0
VERTEX
  8
LAYER_1
 10
136.402
 20
-92.819
  0
SEQEND
  0
ENDBLK
  0
BLOCK
  8
LAYER_1
  2
AIGNBL01010185
 70
64
 10
0
 20
0
 30
0
  3
AIGNBL01010185
  0
POLYLINE
  8
LAYER_1
 40
0.2469
 41
0.2469
 66
1
 10
0
 20
0
 30
0
  0
VERTEX
  8
LAYER_1
 10
142.741
 20
-94.0265
  0
VERTEX
  8
LAYER_1
 10
139.0548
 20
-96.6076
  0
SEQEND
  0
ENDBLK
  0
BLOCK
  8
LAYER_1
  2
AIGNBL01010186
 70
64
 10
0
 20
0
 30
0
  3
AIGNBL01010186
  0
POLYLINE
  8
LAYER_1
 40
0.2469
 41
0.2469
 66
1
 10
0
 20
0
 30
0
  0
VERTEX
  8
LAYER_1
 10
107.4025
 20
-88.5097
  0
VERTEX
  8
LAYER_1
 10
106.9951
 20
-88.5097
  0
SEQEND
  0
ENDBLK
  0
BLOCK
  8
LAYER_1
  2
AIGNBL01010187
 70
64
 10
0
 20
0
 30
0
  3
AIGNBL01010187
  0
POLYLINE
  8
LAYER_1
 40
0.2469
 41
0.2469
 66
1
 10
0
 20
0
 30
0
  0
VERTEX
  8
LAYER_1
 10
106.9951
 20
-88.5097
  0
VERTEX
  8
LAYER_1
 10
106.5877
 20
-88.5097
  0
SEQEND
  0
ENDBLK
  0
BLOCK
  8
LAYER_1
  2
AIGNBL01010188
 70
64
 10
0
 20
0
 30
0
  3
AIGNBL01010188
  0
POLYLINE
  8
LAYER_1
 40
0.2469
 41
0.2469
 66
1
 10
0
 20
0
 30
0
  0
VERTEX
  8
LAYER_1
 10
128.1921
 20
-88.5285
 42
-0.244697569
  0
VERTEX
  8
LAYER_1
 10
136.3836
 20
-92.7927
  0
SEQEND
  0
ENDBLK
  0
BLOCK
  8
LAYER_1
  2
AIGNBL01010189
 70
64
 10
0
 20
0
 30
0
  3
AIGNBL01010189
  0
POLYLINE
  8
LAYER_1
 40
0.2469
 41
0.2469
 66
1
 10
0
 20
0
 30
0
  0
VERTEX
  8
LAYER_1
 10
128.1921
 20
-84.0285
 42
-0.2446979156
  0
VERTEX
  8
LAYER_1
 10
140.0698
 20
-90.2116
  0
SEQEND
  0
ENDBLK
  0
BLOCK
  8
LAYER_1
  2
AIGNBL0101018A
 70
64
 10
0
 20
0
 30
0
  3
AIGNBL0101018A
  0
POLYLINE
  8
LAYER_1
 40
0.2469
 41
0.2469
 66
1
 10
0
 20
0
 30
0
  0
VERTEX
  8
LAYER_1
 10
136.402
 20
-92.819
  0
VERTEX
  8
LAYER_1
 10
140.0882
 20
-90.2379
  0
SEQEND
  0
ENDBLK
  0
BLOCK
  8
LAYER_1
  2
AIGNBL0101018B
 70
64
 10
0
 20
0
 30
0
  3
AIGNBL0101018B
  0
POLYLINE
  8
LAYER_1
 40
0.2469
 41
0.2469
 66
1
 10
0
 20
0
 30
0
  0
VERTEX
  8
LAYER_1
 10
121.0335
 20
-75.2132
  0
VERTEX
  8
LAYER_1
 10
121.0335
 20
-76.2007
  0
SEQEND
  0
ENDBLK
  0
BLOCK
  8
LAYER_1
  2
AIGNBL0101018C
 70
64
 10
0
 20
0
 30
0
  3
AIGNBL0101018C
  0
POLYLINE
  8
LAYER_1
 40
0.2469
 41
0.2469
 66
1
 10
0
 20
0
 30
0
  0
VERTEX
  8
LAYER_1
 10
121.0335
 20
-77.1882
  0
VERTEX
  8
LAYER_1
 10
121.0335
 20
-76.2007
  0
SEQEND
  0
ENDBLK
  0
BLOCK
  8
LAYER_1
  2
AIGNBL0101018D
 70
64
 10
0
 20
0
 30
0
  3
AIGNBL0101018D
  0
POLYLINE
  8
LAYER_1
 40
0.2469
 41
0.2469
 66
1
 10
0
 20
0
 30
0
  0
VERTEX
  8
LAYER_1
 10
136.3836
 20
-92.7927
  0
VERTEX
  8
LAYER_1
 10
136.402
 20
-92.819
  0
SEQEND
  0
ENDBLK
  0
BLOCK
  8
LAYER_1
  2
AIGNBL0101018E
 70
64
 10
0
 20
0
 30
0
  3
AIGNBL0101018E
  0
POLYLINE
  8
LAYER_1
 40
0.2469
 41
0.2469
 66
1
 10
0
 20
0
 30
0
  0
VERTEX
  8
LAYER_1
 10
140.0698
 20
-90.2116
  0
VERTEX
  8
LAYER_1
 10
140.0882
 20
-90.2379
  0
SEQEND
  0
ENDBLK
  0
BLOCK
  8
LAYER_1
  2
AIGNBL0101018F
 70
64
 10
0
 20
0
 30
0
  3
AIGNBL0101018F
  0
POLYLINE
  8
LAYER_1
 40
0.2469
 41
0.2469
 66
1
 10
0
 20
0
 30
0
  0
VERTEX
  8
LAYER_1
 10
107.5139
 20
-88.5285
  0
VERTEX
  8
LAYER_1
 10
128.1921
 20
-88.5285
  0
SEQEND
  0
ENDBLK
  0
BLOCK
  8
LAYER_1
  2
AIGNBL01010190
 70
64
 10
0
 20
0
 30
0
  3
AIGNBL01010190
  0
POLYLINE
  8
LAYER_1
 40
0.2469
 41
0.2469
 66
1
 10
0
 20
0
 30
0
  0
VERTEX
  8
LAYER_1
 10
105.0376
 20
-84.0285
  0
VERTEX
  8
LAYER_1
 10
128.1921
 20
-84.0285
  0
SEQEND
  0
ENDBLK
  0
BLOCK
  8
LAYER_1
  2
AIGNBL01010191
 70
64
 10
0
 20
0
 30
0
  3
AIGNBL01010191
  0
POLYLINE
  8
LAYER_1
 40
0.2469
 41
0.2469
 66
1
 10
0
 20
0
 30
0
  0
VERTEX
  8
LAYER_1
 10
105.0376
 20
-88.5285
  0
VERTEX
  8
LAYER_1
 10
106.4764
 20
-88.5285
  0
SEQEND
  0
ENDBLK
  0
BLOCK
  8
LAYER_1
  2
AIGNBL01010192
 70
64
 10
0
 20
0
 30
0
  3
AIGNBL01010192
  0
POLYLINE
  8
LAYER_1
 40
0.2469
 41
0.2469
 66
1
 10
0
 20
0
 30
0
  0
VERTEX
  8
LAYER_1
 10
121.0335
 20
-75.2132
  0
VERTEX
  8
LAYER_1
 10
104.982
 20
-75.2132
  0
SEQEND
  0
ENDBLK
  0
BLOCK
  8
LAYER_1
  2
AIGNBL01010193
 70
64
 10
0
 20
0
 30
0
  3
AIGNBL01010193
  0
POLYLINE
  8
LAYER_1
 40
0.2469
 41
0.2469
 66
1
 10
0
 20
0
 30
0
  0
VERTEX
  8
LAYER_1
 10
121.0335
 20
-77.1882
  0
VERTEX
  8
LAYER_1
 10
104.9993
 20
-77.1882
  0
SEQEND
  0
ENDBLK
  0
BLOCK
  8
LAYER_1
  2
AIGNBL01010194
 70
64
 10
0
 20
0
 30
0
  3
AIGNBL01010194
  0
POLYLINE
  8
LAYER_1
 40
0.2469
 41
0.2469
 66
1
 10
0
 20
0
 30
0
  0
VERTEX
  8
LAYER_1
 10
95.196
 20
-75.5132
  0
VERTEX
  8
LAYER_1
 10
95.2049
 20
-75.5132
  0
SEQEND
  0
ENDBLK
  0
BLOCK
  8
LAYER_1
  2
AIGNBL01010195
 70
64
 10
0
 20
0
 30
0
  3
AIGNBL01010195
  0
POLYLINE
  8
LAYER_1
 40
0.2469
 41
0.2469
 66
1
 10
0
 20
0
 30
0
  0
VERTEX
  8
LAYER_1
 10
95.121
 20
-77.1507
  0
VERTEX
  8
LAYER_1
 10
95.1906
 20
-77.1507
  0
SEQEND
  0
ENDBLK
  0
BLOCK
  8
LAYER_1
  2
AIGNBL01010196
 70
64
 10
0
 20
0
 30
0
  3
AIGNBL01010196
  0
POLYLINE
  8
LAYER_1
 40
0.2469
 41
0.2469
 66
1
 10
0
 20
0
 30
0
  0
VERTEX
  8
LAYER_1
 10
95.121
 20
-75.2507
  0
VERTEX
  8
LAYER_1
 10
95.196
 20
-75.2507
  0
SEQEND
  0
ENDBLK
  0
BLOCK
  8
LAYER_1
  2
AIGNBL01010197
 70
64
 10
0
 20
0
 30
0
  3
AIGNBL01010197
  0
POLYLINE
  8
LAYER_1
 40
0.2469
 41
0.2469
 66
1
 10
0
 20
0
 30
0
  0
VERTEX
  8
LAYER_1
 10
94.696
 20
-76.2007
 42
-0.2134843057
  0
VERTEX
  8
LAYER_1
 10
95.121
 20
-75.2507
  0
SEQEND
  0
ENDBLK
  0
BLOCK
  8
LAYER_1
  2
AIGNBL01010198
 70
64
 10
0
 20
0
 30
0
  3
AIGNBL01010198
  0
POLYLINE
  8
LAYER_1
 40
0.2469
 41
0.2469
 66
1
 10
0
 20
0
 30
0
  0
VERTEX
  8
LAYER_1
 10
95.121
 20
-77.1507
 42
-0.2134809694
  0
VERTEX
  8
LAYER_1
 10
94.696
 20
-76.2007
  0
SEQEND
  0
ENDBLK
  0
BLOCK
  8
LAYER_1
  2
AIGNBL01010199
 70
64
 10
0
 20
0
 30
0
  3
AIGNBL01010199
  0
POLYLINE
  8
LAYER_1
 40
0.2469
 41
0.2469
 66
1
 10
0
 20
0
 30
0
  0
VERTEX
  8
LAYER_1
 10
95.196
 20
-76.8411
  0
VERTEX
  8
LAYER_1
 10
95.1997
 20
-76.8411
  0
SEQEND
  0
ENDBLK
  0
BLOCK
  8
LAYER_1
  2
AIGNBL0101019A
 70
64
 10
0
 20
0
 30
0
  3
AIGNBL0101019A
  0
POLYLINE
  8
LAYER_1
 40
0.2469
 41
0.2469
 66
1
 10
0
 20
0
 30
0
  0
VERTEX
  8
LAYER_1
 10
95.196
 20
-76.4802
  0
VERTEX
  8
LAYER_1
 10
95.2369
 20
-76.4802
  0
SEQEND
  0
ENDBLK
  0
BLOCK
  8
LAYER_1
  2
AIGNBL0101019B
 70
64
 10
0
 20
0
 30
0
  3
AIGNBL0101019B
  0
POLYLINE
  8
LAYER_1
 40
0.2469
 41
0.2469
 66
1
 10
0
 20
0
 30
0
  0
VERTEX
  8
LAYER_1
 10
95.196
 20
-75.9507
  0
VERTEX
  8
LAYER_1
 10
95.2432
 20
-75.9507
  0
SEQEND
  0
ENDBLK
  0
BLOCK
  8
LAYER_1
  2
AIGNBL0101019C
 70
64
 10
0
 20
0
 30
0
  3
AIGNBL0101019C
  0
POLYLINE
  8
LAYER_1
 40
0.2469
 41
0.2469
 66
1
 10
0
 20
0
 30
0
  0
VERTEX
  8
LAYER_1
 10
95.196
 20
-76.4507
  0
VERTEX
  8
LAYER_1
 10
95.2388
 20
-76.4507
  0
SEQEND
  0
ENDBLK
  0
BLOCK
  8
LAYER_1
  2
AIGNBL0101019D
 70
64
 10
0
 20
0
 30
0
  3
AIGNBL0101019D
  0
POLYLINE
  8
LAYER_1
 40
0.2469
 41
0.2469
 66
1
 10
0
 20
0
 30
0
  0
VERTEX
  8
LAYER_1
 10
95.196
 20
-75.9212
  0
VERTEX
  8
LAYER_1
 10
95.2418
 20
-75.9212
  0
SEQEND
  0
ENDBLK
  0
BLOCK
  8
LAYER_1
  2
AIGNBL0101019E
 70
64
 10
0
 20
0
 30
0
  3
AIGNBL0101019E
  0
POLYLINE
  8
LAYER_1
 40
0.2469
 41
0.2469
 66
1
 10
0
 20
0
 30
0
  0
VERTEX
  8
LAYER_1
 10
95.196
 20
-75.5602
  0
VERTEX
  8
LAYER_1
 10
95.2109
 20
-75.5602
  0
SEQEND
  0
ENDBLK
  0
BLOCK
  8
LAYER_1
  2
AIGNBL0101019F
 70
64
 10
0
 20
0
 30
0
  3
AIGNBL0101019F
  0
POLYLINE
  8
LAYER_1
 40
0.2469
 41
0.2469
 66
1
 10
0
 20
0
 30
0
  0
VERTEX
  8
LAYER_1
 10
104.9768
 20
-74.3257
  0
VERTEX
  8
LAYER_1
 10
100.096
 20
-74.2405
  0
SEQEND
  0
ENDBLK
  0
BLOCK
  8
LAYER_1
  2
AIGNBL010101A0
 70
64
 10
0
 20
0
 30
0
  3
AIGNBL010101A0
  0
POLYLINE
  8
LAYER_1
 40
0.2469
 41
0.2469
 66
1
 10
0
 20
0
 30
0
  0
VERTEX
  8
LAYER_1
 10
95.121
 20
-76.2007
  0
VERTEX
  8
LAYER_1
 10
95.121
 20
-77.1507
  0
SEQEND
  0
ENDBLK
  0
BLOCK
  8
LAYER_1
  2
AIGNBL010101A1
 70
64
 10
0
 20
0
 30
0
  3
AIGNBL010101A1
  0
POLYLINE
  8
LAYER_1
 40
0.2469
 41
0.2469
 66
1
 10
0
 20
0
 30
0
  0
VERTEX
  8
LAYER_1
 10
95.121
 20
-76.2007
  0
VERTEX
  8
LAYER_1
 10
95.121
 20
-75.2507
  0
SEQEND
  0
ENDBLK
  0
BLOCK
  8
LAYER_1
  2
AIGNBL010101A2
 70
64
 10
0
 20
0
 30
0
  3
AIGNBL010101A2
  0
POLYLINE
  8
LAYER_1
 40
0.2469
 41
0.2469
 66
1
 10
0
 20
0
 30
0
  0
VERTEX
  8
LAYER_1
 10
95.196
 20
-76.2007
  0
VERTEX
  8
LAYER_1
 10
95.196
 20
-77.1235
  0
SEQEND
  0
ENDBLK
  0
BLOCK
  8
LAYER_1
  2
AIGNBL010101A3
 70
64
 10
0
 20
0
 30
0
  3
AIGNBL010101A3
  0
POLYLINE
  8
LAYER_1
 40
0.2469
 41
0.2469
 66
1
 10
0
 20
0
 30
0
  0
VERTEX
  8
LAYER_1
 10
95.196
 20
-76.2007
  0
VERTEX
  8
LAYER_1
 10
95.196
 20
-75.2507
  0
SEQEND
  0
ENDBLK
  0
BLOCK
  8
LAYER_1
  2
AIGNBL010101A4
 70
64
 10
0
 20
0
 30
0
  3
AIGNBL010101A4
  0
POLYLINE
  8
LAYER_1
 40
0.2469
 41
0.2469
 66
1
 10
0
 20
0
 30
0
  0
VERTEX
  8
LAYER_1
 10
95.2153
 20
-74.3257
  0
VERTEX
  8
LAYER_1
 10
100.096
 20
-74.2405
  0
SEQEND
  0
ENDBLK
  0
BLOCK
  8
LAYER_1
  2
AIGNBL010101A5
 70
64
 10
0
 20
0
 30
0
  3
AIGNBL010101A5
  0
POLYLINE
  8
LAYER_1
 40
0.2469
 41
0.2469
 66
1
 10
0
 20
0
 30
0
  0
VERTEX
  8
LAYER_1
 10
95.2049
 20
-75.5132
  0
VERTEX
  8
LAYER_1
 10
95.2153
 20
-74.3257
  0
SEQEND
  0
ENDBLK
  0
BLOCK
  8
LAYER_1
  2
AIGNBL010101A6
 70
64
 10
0
 20
0
 30
0
  3
AIGNBL010101A6
  0
POLYLINE
  8
LAYER_1
 40
0.2469
 41
0.2469
 66
1
 10
0
 20
0
 30
0
  0
VERTEX
  8
LAYER_1
 10
104.9845
 20
-75.2007
  0
VERTEX
  8
LAYER_1
 10
104.9768
 20
-74.3257
  0
SEQEND
  0
ENDBLK
  0
BLOCK
  8
LAYER_1
  2
AIGNBL010101A7
 70
64
 10
0
 20
0
 30
0
  3
AIGNBL010101A7
  0
POLYLINE
  8
LAYER_1
 40
0.2469
 41
0.2469
 66
1
 10
0
 20
0
 30
0
  0
VERTEX
  8
LAYER_1
 10
105.0335
 20
-80.8257
  0
VERTEX
  8
LAYER_1
 10
105.0019
 20
-77.2007
  0
SEQEND
  0
ENDBLK
  0
BLOCK
  8
LAYER_1
  2
AIGNBL010101A8
 70
64
 10
0
 20
0
 30
0
  3
AIGNBL010101A8
  0
POLYLINE
  8
LAYER_1
 40
0.2469
 41
0.2469
 66
1
 10
0
 20
0
 30
0
  0
VERTEX
  8
LAYER_1
 10
95.1786
 20
-78.5326
  0
VERTEX
  8
LAYER_1
 10
95.1906
 20
-77.1507
  0
SEQEND
  0
ENDBLK
  0
BLOCK
  8
LAYER_1
  2
AIGNBL010101A9
 70
64
 10
0
 20
0
 30
0
  3
AIGNBL010101A9
  0
POLYLINE
  8
LAYER_1
 40
0.2469
 41
0.2469
 66
1
 10
0
 20
0
 30
0
  0
VERTEX
  8
LAYER_1
 10
96.3041
 20
-79.0575
  0
VERTEX
  8
LAYER_1
 10
96.0376
 20
-81.2785
  0
SEQEND
  0
ENDBLK
  0
BLOCK
  8
LAYER_1
  2
AIGNBL010101AA
 70
64
 10
0
 20
0
 30
0
  3
AIGNBL010101AA
  0
POLYLINE
  8
LAYER_1
 40
0.2469
 41
0.2469
 66
1
 10
0
 20
0
 30
0
  0
VERTEX
  8
LAYER_1
 10
104.9768
 20
-74.3257
  0
VERTEX
  8
LAYER_1
 10
95.2153
 20
-74.3257
  0
SEQEND
  0
ENDBLK
  0
BLOCK
  8
LAYER_1
  2
AIGNBL010101AB
 70
64
 10
0
 20
0
 30
0
  3
AIGNBL010101AB
  0
POLYLINE
  8
LAYER_1
 40
0.2469
 41
0.2469
 66
1
 10
0
 20
0
 30
0
  0
VERTEX
  8
LAYER_1
 10
105.0335
 20
-80.8257
  0
VERTEX
  8
LAYER_1
 10
100.096
 20
-80.8257
  0
SEQEND
  0
ENDBLK
  0
BLOCK
  8
LAYER_1
  2
AIGNBL010101AC
 70
64
 10
0
 20
0
 30
0
  3
AIGNBL010101AC
  0
POLYLINE
  8
LAYER_1
 40
0.2469
 41
0.2469
 66
1
 10
0
 20
0
 30
0
  0
VERTEX
  8
LAYER_1
 10
105.0376
 20
-81.2785
  0
VERTEX
  8
LAYER_1
 10
100.1001
 20
-81.2785
  0
SEQEND
  0
ENDBLK
  0
BLOCK
  8
LAYER_1
  2
AIGNBL010101AD
 70
64
 10
0
 20
0
 30
0
  3
AIGNBL010101AD
  0
POLYLINE
  8
LAYER_1
 40
0.2469
 41
0.2469
 66
1
 10
0
 20
0
 30
0
  0
VERTEX
  8
LAYER_1
 10
100.1001
 20
-81.2785
  0
VERTEX
  8
LAYER_1
 10
95.1626
 20
-81.2785
  0
SEQEND
  0
ENDBLK
  0
BLOCK
  8
LAYER_1
  2
AIGNBL010101AE
 70
64
 10
0
 20
0
 30
0
  3
AIGNBL010101AE
  0
POLYLINE
  8
LAYER_1
 40
0.2469
 41
0.2469
 66
1
 10
0
 20
0
 30
0
  0
VERTEX
  8
LAYER_1
 10
104.1083
 20
-80.8257
  0
VERTEX
  8
LAYER_1
 10
104.1626
 20
-81.2785
  0
SEQEND
  0
ENDBLK
  0
BLOCK
  8
LAYER_1
  2
AIGNBL010101AF
 70
64
 10
0
 20
0
 30
0
  3
AIGNBL010101AF
  0
POLYLINE
  8
LAYER_1
 40
0.2469
 41
0.2469
 66
1
 10
0
 20
0
 30
0
  0
VERTEX
  8
LAYER_1
 10
105.0376
 20
-84.0285
  0
VERTEX
  8
LAYER_1
 10
105.0376
 20
-81.2785
  0
SEQEND
  0
ENDBLK
  0
BLOCK
  8
LAYER_1
  2
AIGNBL010101B0
 70
64
 10
0
 20
0
 30
0
  3
AIGNBL010101B0
  0
POLYLINE
  8
LAYER_1
 40
0.2469
 41
0.2469
 66
1
 10
0
 20
0
 30
0
  0
VERTEX
  8
LAYER_1
 10
105.0376
 20
-151.2785
  0
VERTEX
  8
LAYER_1
 10
105.0376
 20
-88.5285
  0
SEQEND
  0
ENDBLK
  0
BLOCK
  8
LAYER_1
  2
AIGNBL010101B1
 70
64
 10
0
 20
0
 30
0
  3
AIGNBL010101B1
  0
POLYLINE
  8
LAYER_1
 40
0.2469
 41
0.2469
 66
1
 10
0
 20
0
 30
0
  0
VERTEX
  8
LAYER_1
 10
95.1626
 20
-151.2785
  0
VERTEX
  8
LAYER_1
 10
95.1626
 20
-81.2785
  0
SEQEND
  0
ENDBLK
  0
BLOCK
  8
LAYER_1
  2
AIGNBL010101B2
 70
64
 10
0
 20
0
 30
0
  3
AIGNBL010101B2
  0
POLYLINE
  8
LAYER_1
 40
0.2469
 41
0.2469
 66
1
 10
0
 20
0
 30
0
  0
VERTEX
  8
LAYER_1
 10
100.1001
 20
-16.0488
 42
0.3738641506
  0
VERTEX
  8
LAYER_1
 10
95.2107
 20
-20.2988
  0
SEQEND
  0
ENDBLK
  0
BLOCK
  8
LAYER_1
  2
AIGNBL010101B3
 70
64
 10
0
 20
0
 30
0
  3
AIGNBL010101B3
  0
POLYLINE
  8
LAYER_1
 40
0.2469
 41
0.2469
 66
1
 10
0
 20
0
 30
0
  0
VERTEX
  8
LAYER_1
 10
95.2107
 20
-21.6738
 42
0.3738676243
  0
VERTEX
  8
LAYER_1
 10
100.1001
 20
-25.9238
  0
SEQEND
  0
ENDBLK
  0
BLOCK
  8
LAYER_1
  2
AIGNBL010101B4
 70
64
 10
0
 20
0
 30
0
  3
AIGNBL010101B4
  0
POLYLINE
  8
LAYER_1
 40
0.2469
 41
0.2469
 66
1
 10
0
 20
0
 30
0
  0
VERTEX
  8
LAYER_1
 10
100.1001
 20
-25.9238
 42
0.3563946078
  0
VERTEX
  8
LAYER_1
 10
104.9378
 20
-21.9738
  0
SEQEND
  0
ENDBLK
  0
BLOCK
  8
LAYER_1
  2
AIGNBL010101B5
 70
64
 10
0
 20
0
 30
0
  3
AIGNBL010101B5
  0
POLYLINE
  8
LAYER_1
 40
0.2469
 41
0.2469
 66
1
 10
0
 20
0
 30
0
  0
VERTEX
  8
LAYER_1
 10
104.9378
 20
-19.9988
 42
0.3563912093
  0
VERTEX
  8
LAYER_1
 10
100.1001
 20
-16.0488
  0
SEQEND
  0
ENDBLK
  0
BLOCK
  8
LAYER_1
  2
AIGNBL010101B6
 70
64
 10
0
 20
0
 30
0
  3
AIGNBL010101B6
  0
POLYLINE
  8
LAYER_1
 40
0.2469
 41
0.2469
 66
1
 10
0
 20
0
 30
0
  0
VERTEX
  8
LAYER_1
 10
95.2049
 20
-20.9863
  0
VERTEX
  8
LAYER_1
 10
95.2115
 20
-21.2494
  0
VERTEX
  8
LAYER_1
 10
95.2273
 20
-21.4722
  0
VERTEX
  8
LAYER_1
 10
95.2426
 20
-21.6212
  0
VERTEX
  8
LAYER_1
 10
95.2474
 20
-21.6738
  0
VERTEX
  8
LAYER_1
 10
95.2474
 20
-21.6738
  0
SEQEND
  0
ENDBLK
  0
BLOCK
  8
LAYER_1
  2
AIGNBL010101B7
 70
64
 10
0
 20
0
 30
0
  3
AIGNBL010101B7
  0
POLYLINE
  8
LAYER_1
 40
0.2469
 41
0.2469
 66
1
 10
0
 20
0
 30
0
  0
VERTEX
  8
LAYER_1
 10
95.2474
 20
-20.2988
  0
VERTEX
  8
LAYER_1
 10
95.2474
 20
-20.2988
  0
VERTEX
  8
LAYER_1
 10
95.2426
 20
-20.3514
  0
VERTEX
  8
LAYER_1
 10
95.2273
 20
-20.5004
  0
VERTEX
  8
LAYER_1
 10
95.2115
 20
-20.7233
  0
VERTEX
  8
LAYER_1
 10
95.2049
 20
-20.9863
  0
SEQEND
  0
ENDBLK
  0
BLOCK
  8
LAYER_1
  2
AIGNBL010101B8
 70
64
 10
0
 20
0
 30
0
  3
AIGNBL010101B8
  0
POLYLINE
  8
LAYER_1
 40
0.2469
 41
0.2469
 66
1
 10
0
 20
0
 30
0
  0
VERTEX
  8
LAYER_1
 10
95.1997
 20
-20.7363
  0
VERTEX
  8
LAYER_1
 10
95.2004
 20
-20.7229
  0
VERTEX
  8
LAYER_1
 10
95.2014
 20
-20.7068
  0
SEQEND
  0
ENDBLK
  0
BLOCK
  8
LAYER_1
  2
AIGNBL010101B9
 70
64
 10
0
 20
0
 30
0
  3
AIGNBL010101B9
  0
POLYLINE
  8
LAYER_1
 40
0.2469
 41
0.2469
 66
1
 10
0
 20
0
 30
0
  0
VERTEX
  8
LAYER_1
 10
95.2014
 20
-21.2658
  0
VERTEX
  8
LAYER_1
 10
95.2004
 20
-21.2498
  0
VERTEX
  8
LAYER_1
 10
95.1997
 20
-21.2363
  0
SEQEND
  0
ENDBLK
  0
BLOCK
  8
LAYER_1
  2
AIGNBL010101BA
 70
64
 10
0
 20
0
 30
0
  3
AIGNBL010101BA
  0
POLYLINE
  8
LAYER_1
 40
0.2469
 41
0.2469
 66
1
 10
0
 20
0
 30
0
  0
VERTEX
  8
LAYER_1
 10
100.096
 20
-25.9238
 42
-0.372704951
  0
VERTEX
  8
LAYER_1
 10
95.2267
 20
-21.6738
  0
SEQEND
  0
ENDBLK
  0
BLOCK
  8
LAYER_1
  2
AIGNBL010101BB
 70
64
 10
0
 20
0
 30
0
  3
AIGNBL010101BB
  0
POLYLINE
  8
LAYER_1
 40
0.2469
 41
0.2469
 66
1
 10
0
 20
0
 30
0
  0
VERTEX
  8
LAYER_1
 10
95.2267
 20
-20.2988
 42
-0.3727014943
  0
VERTEX
  8
LAYER_1
 10
100.096
 20
-16.0488
  0
SEQEND
  0
ENDBLK
  0
BLOCK
  8
LAYER_1
  2
AIGNBL010101BC
 70
64
 10
0
 20
0
 30
0
  3
AIGNBL010101BC
  0
POLYLINE
  8
LAYER_1
 40
0.2469
 41
0.2469
 66
1
 10
0
 20
0
 30
0
  0
VERTEX
  8
LAYER_1
 10
100.096
 20
-16.0488
 42
-0.356394881
  0
VERTEX
  8
LAYER_1
 10
104.9338
 20
-19.9988
  0
SEQEND
  0
ENDBLK
  0
BLOCK
  8
LAYER_1
  2
AIGNBL010101BD
 70
64
 10
0
 20
0
 30
0
  3
AIGNBL010101BD
  0
POLYLINE
  8
LAYER_1
 40
0.2469
 41
0.2469
 66
1
 10
0
 20
0
 30
0
  0
VERTEX
  8
LAYER_1
 10
100.096
 20
-25.9238
 42
0.3563982796
  0
VERTEX
  8
LAYER_1
 10
104.9338
 20
-21.9738
  0
SEQEND
  0
ENDBLK
  0
BLOCK
  8
LAYER_1
  2
AIGNBL010101BE
 70
64
 10
0
 20
0
 30
0
  3
AIGNBL010101BE
  0
POLYLINE
  8
LAYER_1
 40
0.2469
 41
0.2469
 66
1
 10
0
 20
0
 30
0
  0
VERTEX
  8
LAYER_1
 10
104.8941
 20
-21.9736
  0
VERTEX
  8
LAYER_1
 10
104.89
 20
-21.9863
  0
SEQEND
  0
ENDBLK
  0
BLOCK
  8
LAYER_1
  2
AIGNBL010101BF
 70
64
 10
0
 20
0
 30
0
  3
AIGNBL010101BF
  0
POLYLINE
  8
LAYER_1
 40
0.2469
 41
0.2469
 66
1
 10
0
 20
0
 30
0
  0
VERTEX
  8
LAYER_1
 10
104.89
 20
-21.9863
  0
VERTEX
  8
LAYER_1
 10
104.89
 20
-21.9863
  0
VERTEX
  8
LAYER_1
 10
104.902
 20
-21.9095
  0
VERTEX
  8
LAYER_1
 10
104.9357
 20
-21.6929
  0
VERTEX
  8
LAYER_1
 10
104.9701
 20
-21.3691
  0
VERTEX
  8
LAYER_1
 10
104.9845
 20
-20.9863
  0
SEQEND
  0
ENDBLK
  0
BLOCK
  8
LAYER_1
  2
AIGNBL010101C0
 70
64
 10
0
 20
0
 30
0
  3
AIGNBL010101C0
  0
POLYLINE
  8
LAYER_1
 40
0.2469
 41
0.2469
 66
1
 10
0
 20
0
 30
0
  0
VERTEX
  8
LAYER_1
 10
95.2153
 20
-20.9863
 42
0.4142128068
  0
VERTEX
  8
LAYER_1
 10
100.096
 20
-25.8671
 42
0.4142179658
  0
VERTEX
  8
LAYER_1
 10
104.9768
 20
-20.9863
  0
SEQEND
  0
ENDBLK
  0
BLOCK
  8
LAYER_1
  2
AIGNBL010101C1
 70
64
 10
0
 20
0
 30
0
  3
AIGNBL010101C1
  0
POLYLINE
  8
LAYER_1
 40
0.2469
 41
0.2469
 66
1
 10
0
 20
0
 30
0
  0
VERTEX
  8
LAYER_1
 10
95.2153
 20
-20.9863
 42
-0.4142091589
  0
VERTEX
  8
LAYER_1
 10
100.096
 20
-16.1056
 42
-0.4142143182
  0
VERTEX
  8
LAYER_1
 10
104.9768
 20
-20.9863
  0
SEQEND
  0
ENDBLK
  0
BLOCK
  8
LAYER_1
  2
AIGNBL010101C2
 70
64
 10
0
 20
0
 30
0
  3
AIGNBL010101C2
  0
POLYLINE
  8
LAYER_1
 40
0.2469
 41
0.2469
 66
1
 10
0
 20
0
 30
0
  0
VERTEX
  8
LAYER_1
 10
104.9845
 20
-20.9863
  0
VERTEX
  8
LAYER_1
 10
104.9701
 20
-20.6035
  0
VERTEX
  8
LAYER_1
 10
104.9357
 20
-20.2797
  0
VERTEX
  8
LAYER_1
 10
104.902
 20
-20.0631
  0
VERTEX
  8
LAYER_1
 10
104.89
 20
-19.9863
  0
VERTEX
  8
LAYER_1
 10
104.89
 20
-19.9863
  0
SEQEND
  0
ENDBLK
  0
BLOCK
  8
LAYER_1
  2
AIGNBL010101C3
 70
64
 10
0
 20
0
 30
0
  3
AIGNBL010101C3
  0
POLYLINE
  8
LAYER_1
 40
0.2469
 41
0.2469
 66
1
 10
0
 20
0
 30
0
  0
VERTEX
  8
LAYER_1
 10
104.89
 20
-19.9863
  0
VERTEX
  8
LAYER_1
 10
104.8941
 20
-19.9991
  0
SEQEND
  0
ENDBLK
  0
BLOCK
  8
LAYER_1
  2
AIGNBL010101C4
 70
64
 10
0
 20
0
 30
0
  3
AIGNBL010101C4
  0
POLYLINE
  8
LAYER_1
 40
0.2469
 41
0.2469
 66
1
 10
0
 20
0
 30
0
  0
VERTEX
  8
LAYER_1
 10
95.196
 20
-21.9363
  0
VERTEX
  8
LAYER_1
 10
95.196
 20
-20.0363
  0
SEQEND
  0
ENDBLK
  0
BLOCK
  8
LAYER_1
  2
AIGNBL010101C5
 70
64
 10
0
 20
0
 30
0
  3
AIGNBL010101C5
  0
POLYLINE
  8
LAYER_1
 40
0.2469
 41
0.2469
 66
1
 10
0
 20
0
 30
0
  0
VERTEX
  8
LAYER_1
 10
95.196
 20
-20.0363
  0
VERTEX
  8
LAYER_1
 10
95.121
 20
-20.0363
  0
SEQEND
  0
ENDBLK
  0
BLOCK
  8
LAYER_1
  2
AIGNBL010101C6
 70
64
 10
0
 20
0
 30
0
  3
AIGNBL010101C6
  0
POLYLINE
  8
LAYER_1
 40
0.2469
 41
0.2469
 66
1
 10
0
 20
0
 30
0
  0
VERTEX
  8
LAYER_1
 10
95.121
 20
-21.9363
  0
VERTEX
  8
LAYER_1
 10
95.121
 20
-20.0363
  0
SEQEND
  0
ENDBLK
  0
BLOCK
  8
LAYER_1
  2
AIGNBL010101C7
 70
64
 10
0
 20
0
 30
0
  3
AIGNBL010101C7
  0
POLYLINE
  8
LAYER_1
 40
0.2469
 41
0.2469
 66
1
 10
0
 20
0
 30
0
  0
VERTEX
  8
LAYER_1
 10
95.196
 20
-21.9363
  0
VERTEX
  8
LAYER_1
 10
95.121
 20
-21.9363
  0
SEQEND
  0
ENDBLK
  0
BLOCK
  8
LAYER_1
  2
AIGNBL010101C8
 70
64
 10
0
 20
0
 30
0
  3
AIGNBL010101C8
  0
POLYLINE
  8
LAYER_1
 40
0.2469
 41
0.2469
 66
1
 10
0
 20
0
 30
0
  0
VERTEX
  8
LAYER_1
 10
95.121
 20
-20.0363
 42
0.414210514
  0
VERTEX
  8
LAYER_1
 10
95.0203
 20
-21.8356
  0
VERTEX
  8
LAYER_1
 10
95.121
 20
-21.9363
  0
SEQEND
  0
ENDBLK
  0
BLOCK
  8
LAYER_1
  2
AIGNBL010101C9
 70
64
 10
0
 20
0
 30
0
  3
AIGNBL010101C9
  0
POLYLINE
  8
LAYER_1
 40
0.2469
 41
0.2469
 66
1
 10
0
 20
0
 30
0
  0
VERTEX
  8
LAYER_1
 10
95.196
 20
-21.2363
  0
VERTEX
  8
LAYER_1
 10
95.2109
 20
-21.2363
  0
SEQEND
  0
ENDBLK
  0
BLOCK
  8
LAYER_1
  2
AIGNBL010101CA
 70
64
 10
0
 20
0
 30
0
  3
AIGNBL010101CA
  0
POLYLINE
  8
LAYER_1
 40
0.2469
 41
0.2469
 66
1
 10
0
 20
0
 30
0
  0
VERTEX
  8
LAYER_1
 10
95.196
 20
-20.7363
  0
VERTEX
  8
LAYER_1
 10
95.2109
 20
-20.7363
  0
SEQEND
  0
ENDBLK
  0
BLOCK
  8
LAYER_1
  2
AIGNBL010101CB
 70
64
 10
0
 20
0
 30
0
  3
AIGNBL010101CB
  0
POLYLINE
  8
LAYER_1
 40
0.2469
 41
0.2469
 66
1
 10
0
 20
0
 30
0
  0
VERTEX
  8
LAYER_1
 10
95.196
 20
-21.2658
  0
VERTEX
  8
LAYER_1
 10
95.2124
 20
-21.2658
  0
SEQEND
  0
ENDBLK
  0
BLOCK
  8
LAYER_1
  2
AIGNBL010101CC
 70
64
 10
0
 20
0
 30
0
  3
AIGNBL010101CC
  0
POLYLINE
  8
LAYER_1
 40
0.2469
 41
0.2469
 66
1
 10
0
 20
0
 30
0
  0
VERTEX
  8
LAYER_1
 10
95.196
 20
-21.6268
  0
VERTEX
  8
LAYER_1
 10
95.2432
 20
-21.6268
  0
SEQEND
  0
ENDBLK
  0
BLOCK
  8
LAYER_1
  2
AIGNBL010101CD
 70
64
 10
0
 20
0
 30
0
  3
AIGNBL010101CD
  0
POLYLINE
  8
LAYER_1
 40
0.2469
 41
0.2469
 66
1
 10
0
 20
0
 30
0
  0
VERTEX
  8
LAYER_1
 10
95.196
 20
-20.3459
  0
VERTEX
  8
LAYER_1
 10
95.2432
 20
-20.3459
  0
SEQEND
  0
ENDBLK
  0
BLOCK
  8
LAYER_1
  2
AIGNBL010101CE
 70
64
 10
0
 20
0
 30
0
  3
AIGNBL010101CE
  0
POLYLINE
  8
LAYER_1
 40
0.2469
 41
0.2469
 66
1
 10
0
 20
0
 30
0
  0
VERTEX
  8
LAYER_1
 10
95.196
 20
-20.7068
  0
VERTEX
  8
LAYER_1
 10
95.2124
 20
-20.7068
  0
SEQEND
  0
ENDBLK
  0
BLOCK
  8
LAYER_1
  2
AIGNBL010101CF
 70
64
 10
0
 20
0
 30
0
  3
AIGNBL010101CF
  0
POLYLINE
  8
LAYER_1
 40
0.2469
 41
0.2469
 66
1
 10
0
 20
0
 30
0
  0
VERTEX
  8
LAYER_1
 10
95.196
 20
-21.6738
  0
VERTEX
  8
LAYER_1
 10
95.2474
 20
-21.6738
  0
SEQEND
  0
ENDBLK
  0
BLOCK
  8
LAYER_1
  2
AIGNBL010101D0
 70
64
 10
0
 20
0
 30
0
  3
AIGNBL010101D0
  0
POLYLINE
  8
LAYER_1
 40
0.2469
 41
0.2469
 66
1
 10
0
 20
0
 30
0
  0
VERTEX
  8
LAYER_1
 10
95.196
 20
-20.2988
  0
VERTEX
  8
LAYER_1
 10
95.2474
 20
-20.2988
  0
SEQEND
  0
ENDBLK
  0
BLOCK
  8
LAYER_1
  2
AIGNBL010101D1
 70
64
 10
0
 20
0
 30
0
  3
AIGNBL010101D1
  0
POLYLINE
  8
LAYER_1
 40
0.2469
 41
0.2469
 66
1
 10
0
 20
0
 30
0
  0
VERTEX
  8
LAYER_1
 10
104.8912
 20
-21.9738
  0
VERTEX
  8
LAYER_1
 10
121.0335
 20
-21.9738
  0
SEQEND
  0
ENDBLK
  0
BLOCK
  8
LAYER_1
  2
AIGNBL010101D2
 70
64
 10
0
 20
0
 30
0
  3
AIGNBL010101D2
  0
POLYLINE
  8
LAYER_1
 40
0.2469
 41
0.2469
 66
1
 10
0
 20
0
 30
0
  0
VERTEX
  8
LAYER_1
 10
104.8912
 20
-19.9988
  0
VERTEX
  8
LAYER_1
 10
121.0335
 20
-19.9988
  0
SEQEND
  0
ENDBLK
  0
BLOCK
  8
LAYER_1
  2
AIGNBL010101D3
 70
64
 10
0
 20
0
 30
0
  3
AIGNBL010101D3
  0
POLYLINE
  8
LAYER_1
 40
0.2469
 41
0.2469
 66
1
 10
0
 20
0
 30
0
  0
VERTEX
  8
LAYER_1
 10
121.0335
 20
-19.9988
  0
VERTEX
  8
LAYER_1
 10
121.0335
 20
-21.9738
  0
SEQEND
  0
ENDBLK
  0
BLOCK
  8
LAYER_1
  2
AIGNBL010101D4
 70
64
 10
0
 20
0
 30
0
  3
AIGNBL010101D4
  0
POLYLINE
  8
LAYER_1
 40
0.2469
 41
0.2469
 66
1
 10
0
 20
0
 30
0
  0
VERTEX
  8
LAYER_1
 10
138.2451
 20
-18.7363
 42
-0.109252406
  0
VERTEX
  8
LAYER_1
 10
138.8999
 20
-18.8825
 42
-0.1008064909
  0
VERTEX
  8
LAYER_1
 10
139.4844
 20
-19.3208
 42
-0.08917720488
  0
VERTEX
  8
LAYER_1
 10
139.9064
 20
-20.0108
 42
-0.09406773094
  0
VERTEX
  8
LAYER_1
 10
140.0882
 20
-20.9863
  0
SEQEND
  0
ENDBLK
  0
BLOCK
  8
LAYER_1
  2
AIGNBL010101D5
 70
64
 10
0
 20
0
 30
0
  3
AIGNBL010101D5
  0
POLYLINE
  8
LAYER_1
 40
0.2469
 41
0.2469
 66
1
 10
0
 20
0
 30
0
  0
VERTEX
  8
LAYER_1
 10
140.0882
 20
-20.9863
 42
-0.166748132
  0
VERTEX
  8
LAYER_1
 10
139.5484
 20
-22.5773
 42
-0.0985555337
  0
VERTEX
  8
LAYER_1
 10
138.9831
 20
-23.0487
 42
-0.1232278475
  0
VERTEX
  8
LAYER_1
 10
138.2451
 20
-23.2363
  0
SEQEND
  0
ENDBLK
  0
BLOCK
  8
LAYER_1
  2
AIGNBL010101D6
 70
64
 10
0
 20
0
 30
0
  3
AIGNBL010101D6
  0
POLYLINE
  8
LAYER_1
 40
0.2469
 41
0.2469
 66
1
 10
0
 20
0
 30
0
  0
VERTEX
  8
LAYER_1
 10
104.4951
 20
-18.7363
  0
VERTEX
  8
LAYER_1
 10
128.1921
 20
-18.7363
  0
SEQEND
  0
ENDBLK
  0
BLOCK
  8
LAYER_1
  2
AIGNBL010101D7
 70
64
 10
0
 20
0
 30
0
  3
AIGNBL010101D7
  0
POLYLINE
  8
LAYER_1
 40
0.2469
 41
0.2469
 66
1
 10
0
 20
0
 30
0
  0
VERTEX
  8
LAYER_1
 10
104.4951
 20
-23.2363
  0
VERTEX
  8
LAYER_1
 10
128.1921
 20
-23.2363
  0
SEQEND
  0
ENDBLK
  0
BLOCK
  8
LAYER_1
  2
AIGNBL010101D8
 70
64
 10
0
 20
0
 30
0
  3
AIGNBL010101D8
  0
POLYLINE
  8
LAYER_1
 40
0.2469
 41
0.2469
 66
1
 10
0
 20
0
 30
0
  0
VERTEX
  8
LAYER_1
 10
138.2267
 20
-18.7363
  0
VERTEX
  8
LAYER_1
 10
138.2451
 20
-18.7363
  0
SEQEND
  0
ENDBLK
  0
BLOCK
  8
LAYER_1
  2
AIGNBL010101D9
 70
64
 10
0
 20
0
 30
0
  3
AIGNBL010101D9
  0
POLYLINE
  8
LAYER_1
 40
0.2469
 41
0.2469
 66
1
 10
0
 20
0
 30
0
  0
VERTEX
  8
LAYER_1
 10
138.2267
 20
-18.7363
  0
VERTEX
  8
LAYER_1
 10
128.1921
 20
-18.7363
  0
SEQEND
  0
ENDBLK
  0
BLOCK
  8
LAYER_1
  2
AIGNBL010101DA
 70
64
 10
0
 20
0
 30
0
  3
AIGNBL010101DA
  0
POLYLINE
  8
LAYER_1
 40
0.2469
 41
0.2469
 66
1
 10
0
 20
0
 30
0
  0
VERTEX
  8
LAYER_1
 10
128.1921
 20
-23.2363
  0
VERTEX
  8
LAYER_1
 10
138.2267
 20
-23.2363
  0
SEQEND
  0
ENDBLK
  0
BLOCK
  8
LAYER_1
  2
AIGNBL010101DB
 70
64
 10
0
 20
0
 30
0
  3
AIGNBL010101DB
  0
POLYLINE
  8
LAYER_1
 40
0.2469
 41
0.2469
 66
1
 10
0
 20
0
 30
0
  0
VERTEX
  8
LAYER_1
 10
138.2267
 20
-23.2363
  0
VERTEX
  8
LAYER_1
 10
138.2451
 20
-23.2363
  0
SEQEND
  0
ENDBLK
  0
BLOCK
  8
LAYER_1
  2
AIGNBL010101DC
 70
64
 10
0
 20
0
 30
0
  3
AIGNBL010101DC
  0
POLYLINE
  8
LAYER_1
 40
0.2469
 41
0.2469
 66
1
 10
0
 20
0
 30
0
  0
VERTEX
  8
LAYER_1
 10
138.2451
 20
-18.7363
 42
-0.109252406
  0
VERTEX
  8
LAYER_1
 10
138.8999
 20
-18.8825
 42
-0.1008064909
  0
VERTEX
  8
LAYER_1
 10
139.4844
 20
-19.3208
 42
-0.08917720488
  0
VERTEX
  8
LAYER_1
 10
139.9064
 20
-20.0108
 42
-0.09406773094
  0
VERTEX
  8
LAYER_1
 10
140.0882
 20
-20.9863
  0
SEQEND
  0
ENDBLK
  0
BLOCK
  8
LAYER_1
  2
AIGNBL010101DD
 70
64
 10
0
 20
0
 30
0
  3
AIGNBL010101DD
  0
POLYLINE
  8
LAYER_1
 40
0.2469
 41
0.2469
 66
1
 10
0
 20
0
 30
0
  0
VERTEX
  8
LAYER_1
 10
140.8979
 20
-18.7363
 42
-0.109252406
  0
VERTEX
  8
LAYER_1
 10
141.5527
 20
-18.8825
 42
-0.1008064909
  0
VERTEX
  8
LAYER_1
 10
142.1372
 20
-19.3208
 42
-0.08917720488
  0
VERTEX
  8
LAYER_1
 10
142.5592
 20
-20.0108
 42
-0.09406773094
  0
VERTEX
  8
LAYER_1
 10
142.741
 20
-20.9863
  0
SEQEND
  0
ENDBLK
  0
BLOCK
  8
LAYER_1
  2
AIGNBL010101DE
 70
64
 10
0
 20
0
 30
0
  3
AIGNBL010101DE
  0
POLYLINE
  8
LAYER_1
 40
0.2469
 41
0.2469
 66
1
 10
0
 20
0
 30
0
  0
VERTEX
  8
LAYER_1
 10
140.8979
 20
-23.2363
 42
0.1092453463
  0
VERTEX
  8
LAYER_1
 10
141.5527
 20
-23.0902
 42
0.1008090917
  0
VERTEX
  8
LAYER_1
 10
142.1372
 20
-22.6518
 42
0.08918283104
  0
VERTEX
  8
LAYER_1
 10
142.5592
 20
-21.9618
 42
0.09406736263
  0
VERTEX
  8
LAYER_1
 10
142.741
 20
-20.9863
  0
SEQEND
  0
ENDBLK
  0
BLOCK
  8
LAYER_1
  2
AIGNBL010101DF
 70
64
 10
0
 20
0
 30
0
  3
AIGNBL010101DF
  0
POLYLINE
  8
LAYER_1
 40
0.2469
 41
0.2469
 66
1
 10
0
 20
0
 30
0
  0
VERTEX
  8
LAYER_1
 10
138.2451
 20
-23.2363
 42
0.1092453463
  0
VERTEX
  8
LAYER_1
 10
138.8999
 20
-23.0902
 42
0.1008090917
  0
VERTEX
  8
LAYER_1
 10
139.4844
 20
-22.6518
 42
0.08918283104
  0
VERTEX
  8
LAYER_1
 10
139.9064
 20
-21.9618
 42
0.09406736263
  0
VERTEX
  8
LAYER_1
 10
140.0882
 20
-20.9863
  0
SEQEND
  0
ENDBLK
  0
BLOCK
  8
LAYER_1
  2
AIGNBL010101E0
 70
64
 10
0
 20
0
 30
0
  3
AIGNBL010101E0
  0
POLYLINE
  8
LAYER_1
 40
0.2469
 41
0.2469
 66
1
 10
0
 20
0
 30
0
  0
VERTEX
  8
LAYER_1
 10
138.2451
 20
-18.7363
  0
VERTEX
  8
LAYER_1
 10
140.8979
 20
-18.7363
  0
SEQEND
  0
ENDBLK
  0
BLOCK
  8
LAYER_1
  2
AIGNBL010101E1
 70
64
 10
0
 20
0
 30
0
  3
AIGNBL010101E1
  0
POLYLINE
  8
LAYER_1
 40
0.2469
 41
0.2469
 66
1
 10
0
 20
0
 30
0
  0
VERTEX
  8
LAYER_1
 10
138.2451
 20
-23.2363
  0
VERTEX
  8
LAYER_1
 10
140.8979
 20
-23.2363
  0
SEQEND
  0
ENDBLK
  0
BLOCK
  8
LAYER_1
  2
AIGNBL010101E2
 70
64
 10
0
 20
0
 30
0
  3
AIGNBL010101E2
  0
POLYLINE
  8
LAYER_1
 40
0.2469
 41
0.2469
 66
1
 10
0
 20
0
 30
0
  0
VERTEX
  8
LAYER_1
 10
100.1001
 20
-14.7363
 42
-0.3100265678
  0
VERTEX
  8
LAYER_1
 10
105.931
 20
-18.7363
  0
SEQEND
  0
ENDBLK
  0
BLOCK
  8
LAYER_1
  2
AIGNBL010101E3
 70
64
 10
0
 20
0
 30
0
  3
AIGNBL010101E3
  0
POLYLINE
  8
LAYER_1
 40
0.2469
 41
0.2469
 66
1
 10
0
 20
0
 30
0
  0
VERTEX
  8
LAYER_1
 10
105.931
 20
-23.2363
 42
-0.3100290541
  0
VERTEX
  8
LAYER_1
 10
100.1001
 20
-27.2363
  0
SEQEND
  0
ENDBLK
  0
BLOCK
  8
LAYER_1
  2
AIGNBL010101E4
 70
64
 10
0
 20
0
 30
0
  3
AIGNBL010101E4
  0
POLYLINE
  8
LAYER_1
 40
0.2469
 41
0.2469
 66
1
 10
0
 20
0
 30
0
  0
VERTEX
  8
LAYER_1
 10
100.1001
 20
-14.7363
 42
0.4142127213
  0
VERTEX
  8
LAYER_1
 10
93.8501
 20
-20.9863
 42
0.41421557
  0
VERTEX
  8
LAYER_1
 10
100.1001
 20
-27.2363
  0
SEQEND
  0
ENDBLK
  0
BLOCK
  8
LAYER_1
  2
AIGNBL010101E5
 70
64
 10
0
 20
0
 30
0
  3
AIGNBL010101E5
  0
POLYLINE
  8
LAYER_1
  6
AIGENLINE002
 40
0.2469
 41
0.2469
 66
1
 10
0
 20
0
 30
0
 70
128
  0
VERTEX
  8
LAYER_1
 10
141.3998
 20
-96.0338
  0
VERTEX
  8
LAYER_1
 10
137.7433
 20
-90.8117
  0
SEQEND
  0
ENDBLK
  0
BLOCK
  8
LAYER_1
  2
AIGNBL010101E6
 70
64
 10
0
 20
0
 30
0
  3
AIGNBL010101E6
  0
POLYLINE
  8
LAYER_1
  6
AIGENLINE001
 40
0.2469
 41
0.2469
 66
1
 10
0
 20
0
 30
0
 70
128
  0
VERTEX
  8
LAYER_1
 10
185.2218
 20
-148.4241
  0
VERTEX
  8
LAYER_1
 10
185.2218
 20
-154.5108
  0
SEQEND
  0
ENDBLK
  0
BLOCK
  8
LAYER_1
  2
AIGNBL010101E7
 70
64
 10
0
 20
0
 30
0
  3
AIGNBL010101E7
  0
POLYLINE
  8
LAYER_1
  6
AIGENLINE001
 40
0.2469
 41
0.2469
 66
1
 10
0
 20
0
 30
0
 70
128
  0
VERTEX
  8
LAYER_1
 10
100.1001
 20
-13.3538
  0
VERTEX
  8
LAYER_1
 10
100.1001
 20
-27.9257
  0
SEQEND
  0
ENDBLK
  0
BLOCK
  8
LAYER_1
  2
AIGNBL010101E8
 70
64
 10
0
 20
0
 30
0
  3
AIGNBL010101E8
  0
POLYLINE
  8
LAYER_1
  6
AIGENLINE001
 40
0.2469
 41
0.2469
 66
1
 10
0
 20
0
 30
0
 70
128
  0
VERTEX
  8
LAYER_1
 10
92.2444
 20
-20.9863
  0
VERTEX
  8
LAYER_1
 10
122.7406
 20
-20.9863
  0
SEQEND
  0
ENDBLK
  0
BLOCK
  8
LAYER_1
  2
AIGNBL010101E9
 70
64
 10
0
 20
0
 30
0
  3
AIGNBL010101E9
  0
POLYLINE
  8
LAYER_1
  6
AIGENLINE001
 40
0.2469
 41
0.2469
 66
1
 10
0
 20
0
 30
0
 70
128
  0
VERTEX
  8
LAYER_1
 10
100.1001
 20
-78.8963
  0
VERTEX
  8
LAYER_1
 10
100.1001
 20
-84.983
  0
SEQEND
  0
ENDBLK
  0
BLOCK
  8
LAYER_1
  2
AIGNBL010101EA
 70
64
 10
0
 20
0
 30
0
  3
AIGNBL010101EA
  0
POLYLINE
  8
LAYER_1
  6
AIGENLINE004
 40
0.2469
 41
0.2469
 66
1
 10
0
 20
0
 30
0
 70
128
  0
VERTEX
  8
LAYER_1
 10
102.4218
 20
-25.2944
  0
VERTEX
  8
LAYER_1
 10
112.7979
 20
-37.6601
  0
SEQEND
  0
ENDBLK
  0
BLOCK
  8
LAYER_1
  2
AIGNBL010101EB
 70
64
 10
0
 20
0
 30
0
  3
AIGNBL010101EB
  0
POLYLINE
  8
LAYER_1
  6
AIGENLINE004
 40
0.2469
 41
0.2469
 66
1
 10
0
 20
0
 30
0
 70
128
  0
VERTEX
  8
LAYER_1
 10
103.9348
 20
-24.0249
  0
VERTEX
  8
LAYER_1
 10
114.3109
 20
-36.3906
  0
SEQEND
  0
ENDBLK
  0
BLOCK
  8
LAYER_1
  2
AIGNBL010101EC
 70
64
 10
0
 20
0
 30
0
  3
AIGNBL010101EC
  0
POLYLINE
  8
LAYER_1
  6
AIGENLINE004
 40
0.2469
 41
0.2469
 66
1
 10
0
 20
0
 30
0
 70
128
  0
VERTEX
  8
LAYER_1
 10
114.3109
 20
-36.3906
  0
VERTEX
  8
LAYER_1
 10
112.7979
 20
-37.6601
  0
SEQEND
  0
ENDBLK
  0
BLOCK
  8
LAYER_1
  2
AIGNBL010101ED
 70
64
 10
0
 20
0
 30
0
  3
AIGNBL010101ED
  0
POLYLINE
  8
LAYER_1
  6
AIGENLINE001
 40
0.2469
 41
0.2469
 66
1
 10
0
 20
0
 30
0
 70
128
  0
VERTEX
  8
LAYER_1
 10
99.4747
 20
-20.2458
  0
VERTEX
  8
LAYER_1
 10
114.6517
 20
-38.3331
  0
SEQEND
  0
ENDBLK
  0
BLOCK
  8
LAYER_1
  2
AIGNBL010101EE
 70
64
 10
0
 20
0
 30
0
  3
AIGNBL010101EE
  0
POLYLINE
  8
LAYER_1
  6
AIGENLINE004
 40
0.2469
 41
0.2469
 66
1
 10
0
 20
0
 30
0
 70
128
  0
VERTEX
  8
LAYER_1
 10
102.4218
 20
-16.6783
  0
VERTEX
  8
LAYER_1
 10
112.7979
 20
-4.3125
  0
SEQEND
  0
ENDBLK
  0
BLOCK
  8
LAYER_1
  2
AIGNBL010101EF
 70
64
 10
0
 20
0
 30
0
  3
AIGNBL010101EF
  0
POLYLINE
  8
LAYER_1
  6
AIGENLINE004
 40
0.2469
 41
0.2469
 66
1
 10
0
 20
0
 30
0
 70
128
  0
VERTEX
  8
LAYER_1
 10
103.9348
 20
-17.9478
  0
VERTEX
  8
LAYER_1
 10
114.3109
 20
-5.582
  0
SEQEND
  0
ENDBLK
  0
BLOCK
  8
LAYER_1
  2
AIGNBL010101F0
 70
64
 10
0
 20
0
 30
0
  3
AIGNBL010101F0
  0
POLYLINE
  8
LAYER_1
  6
AIGENLINE004
 40
0.2469
 41
0.2469
 66
1
 10
0
 20
0
 30
0
 70
128
  0
VERTEX
  8
LAYER_1
 10
114.3109
 20
-5.582
  0
VERTEX
  8
LAYER_1
 10
112.7979
 20
-4.3125
  0
SEQEND
  0
ENDBLK
  0
BLOCK
  8
LAYER_1
  2
AIGNBL010101F1
 70
64
 10
0
 20
0
 30
0
  3
AIGNBL010101F1
  0
POLYLINE
  8
LAYER_1
  6
AIGENLINE001
 40
0.2469
 41
0.2469
 66
1
 10
0
 20
0
 30
0
 70
128
  0
VERTEX
  8
LAYER_1
 10
99.4747
 20
-21.7268
  0
VERTEX
  8
LAYER_1
 10
114.6517
 20
-3.6396
  0
SEQEND
  0
ENDBLK
  0
BLOCK
  8
LAYER_1
  2
AIGNBL010101F2
 70
64
 10
0
 20
0
 30
0
  3
AIGNBL010101F2
  0
INSERT
  8
LAYER_1
  2
AIGNBL010201F3
 10
0
 20
0
 30
0
  0
INSERT
  8
LAYER_1
  2
AIGNBL010201F4
 10
0
 20
0
 30
0
  0
INSERT
  8
LAYER_1
  2
AIGNBL010201F5
 10
0
 20
0
 30
0
  0
INSERT
  8
LAYER_1
  2
AIGNBL010201F6
 10
0
 20
0
 30
0
  0
INSERT
  8
LAYER_1
  2
AIGNBL010201F7
 10
0
 20
0
 30
0
  0
INSERT
  8
LAYER_1
  2
AIGNBL010201F8
 10
0
 20
0
 30
0
  0
ENDBLK
  0
BLOCK
  8
LAYER_1
  2
AIGNBL010101F9
 70
64
 10
0
 20
0
 30
0
  3
AIGNBL010101F9
  0
INSERT
  8
LAYER_1
  2
AIGNBL010201FA
 10
0
 20
0
 30
0
  0
INSERT
  8
LAYER_1
  2
AIGNBL010201FB
 10
0
 20
0
 30
0
  0
INSERT
  8
LAYER_1
  2
AIGNBL010201FC
 10
0
 20
0
 30
0
  0
INSERT
  8
LAYER_1
  2
AIGNBL010201FD
 10
0
 20
0
 30
0
  0
INSERT
  8
LAYER_1
  2
AIGNBL010201FE
 10
0
 20
0
 30
0
  0
INSERT
  8
LAYER_1
  2
AIGNBL010201FF
 10
0
 20
0
 30
0
  0
ENDBLK
  0
BLOCK
  8
LAYER_1
  2
AIGNBL01010200
 70
64
 10
0
 20
0
 30
0
  3
AIGNBL01010200
  0
TEXT
  8
LAYER_1
 10
105.0275
 20
-40.4069
 11
105.0275
 21
-40.4069
 40
3.473
 41
0.5
  1
湯側
  0
ENDBLK
  0
BLOCK
  8
LAYER_1
  2
AIGNBL01010201
 70
64
 10
0
 20
0
 30
0
  3
AIGNBL01010201
  0
TEXT
  8
LAYER_1
 10
107.1948
 20
-2.6804
 11
107.1948
 21
-2.6804
 40
3.473
 41
0.5
  1
水側
  0
ENDBLK
  0
BLOCK
  8
LAYER_1
  2
AIGNBL01010202
 70
64
 10
0
 20
0
 30
0
  3
AIGNBL01010202
  0
POLYLINE
  8
LAYER_1
  6
AIGENLINE004
 40
0.2469
 41
0.2469
 66
1
 10
0
 20
0
 30
0
 70
128
  0
VERTEX
  8
LAYER_1
 10
94.4788
 20
-80.9637
  0
VERTEX
  8
LAYER_1
 10
99.9047
 20
-80.9637
  0
SEQEND
  0
ENDBLK
  0
BLOCK
  8
LAYER_1
  2
AIGNBL01010203
 70
64
 10
0
 20
0
 30
0
  3
AIGNBL01010203
  0
POLYLINE
  8
LAYER_1
  6
AIGENLINE004
 40
0.2469
 41
0.2469
 66
1
 10
0
 20
0
 30
0
 70
128
  0
VERTEX
  8
LAYER_1
 10
116.5086
 20
-67.0285
  0
VERTEX
  8
LAYER_1
 10
116.9259
 20
-67.9235
  0
SEQEND
  0
ENDBLK
  0
BLOCK
  8
LAYER_1
  2
AIGNBL01010204
 70
64
 10
0
 20
0
 30
0
  3
AIGNBL01010204
  0
POLYLINE
  8
LAYER_1
  6
AIGENLINE004
 40
0.2469
 41
0.2469
 66
1
 10
0
 20
0
 30
0
 70
128
  0
VERTEX
  8
LAYER_1
 10
117.3432
 20
-68.8184
  0
VERTEX
  8
LAYER_1
 10
116.9259
 20
-67.9235
  0
SEQEND
  0
ENDBLK
  0
BLOCK
  8
LAYER_1
  2
AIGNBL01010205
 70
64
 10
0
 20
0
 30
0
  3
AIGNBL01010205
  0
POLYLINE
  8
LAYER_1
  6
AIGENLINE004
 40
0.2469
 41
0.2469
 66
1
 10
0
 20
0
 30
0
 70
128
  0
VERTEX
  8
LAYER_1
 10
116.5086
 20
-67.0285
  0
VERTEX
  8
LAYER_1
 10
101.9609
 20
-73.8122
  0
SEQEND
  0
ENDBLK
  0
BLOCK
  8
LAYER_1
  2
AIGNBL01010206
 70
64
 10
0
 20
0
 30
0
  3
AIGNBL01010206
  0
POLYLINE
  8
LAYER_1
  6
AIGENLINE004
 40
0.2469
 41
0.2469
 66
1
 10
0
 20
0
 30
0
 70
128
  0
VERTEX
  8
LAYER_1
 10
117.3432
 20
-68.8184
  0
VERTEX
  8
LAYER_1
 10
102.8112
 20
-75.5948
  0
SEQEND
  0
ENDBLK
  0
BLOCK
  8
LAYER_1
  2
AIGNBL01010207
 70
64
 10
0
 20
0
 30
0
  3
AIGNBL01010207
  0
POLYLINE
  8
LAYER_1
  6
AIGENLINE004
 40
0.2469
 41
0.2469
 66
1
 10
0
 20
0
 30
0
 70
128
  0
VERTEX
  8
LAYER_1
 10
93.2266
 20
-78.216
  0
VERTEX
  8
LAYER_1
 10
92.7342
 20
-77.1354
  0
SEQEND
  0
ENDBLK
  0
BLOCK
  8
LAYER_1
  2
AIGNBL01010208
 70
64
 10
0
 20
0
 30
0
  3
AIGNBL01010208
  0
POLYLINE
  8
LAYER_1
  6
AIGENLINE004
 40
0.2469
 41
0.2469
 66
1
 10
0
 20
0
 30
0
 70
128
  0
VERTEX
  8
LAYER_1
 10
101.9579
 20
-73.7998
  0
VERTEX
  8
LAYER_1
 10
101.5811
 20
-73.01
  0
SEQEND
  0
ENDBLK
  0
BLOCK
  8
LAYER_1
  2
AIGNBL01010209
 70
64
 10
0
 20
0
 30
0
  3
AIGNBL01010209
  0
POLYLINE
  8
LAYER_1
  6
AIGENLINE004
 40
0.2469
 41
0.2469
 66
1
 10
0
 20
0
 30
0
 70
128
  0
VERTEX
  8
LAYER_1
 10
104.3796
 20
-78.877
  0
VERTEX
  8
LAYER_1
 10
102.8189
 20
-75.605
  0
SEQEND
  0
ENDBLK
  0
BLOCK
  8
LAYER_1
  2
AIGNBL0101020A
 70
64
 10
0
 20
0
 30
0
  3
AIGNBL0101020A
  0
POLYLINE
  8
LAYER_1
  6
AIGENLINE004
 40
0.2469
 41
0.2469
 66
1
 10
0
 20
0
 30
0
 70
128
  0
VERTEX
  8
LAYER_1
 10
94.4788
 20
-80.9637
  0
VERTEX
  8
LAYER_1
 10
93.9057
 20
-79.7062
  0
SEQEND
  0
ENDBLK
  0
BLOCK
  8
LAYER_1
  2
AIGNBL0101020B
 70
64
 10
0
 20
0
 30
0
  3
AIGNBL0101020B
  0
POLYLINE
  8
LAYER_1
  6
AIGENLINE004
 40
0.2469
 41
0.2469
 66
1
 10
0
 20
0
 30
0
 70
128
  0
VERTEX
  8
LAYER_1
 10
101.5811
 20
-73.01
  0
VERTEX
  8
LAYER_1
 10
92.7342
 20
-77.1354
  0
SEQEND
  0
ENDBLK
  0
BLOCK
  8
LAYER_1
  2
AIGNBL0101020C
 70
64
 10
0
 20
0
 30
0
  3
AIGNBL0101020C
  0
POLYLINE
  8
LAYER_1
  6
AIGENLINE004
 40
0.2469
 41
0.2469
 66
1
 10
0
 20
0
 30
0
 70
128
  0
VERTEX
  8
LAYER_1
 10
104.3796
 20
-78.877
  0
VERTEX
  8
LAYER_1
 10
99.9047
 20
-80.9637
  0
SEQEND
  0
ENDBLK
  0
BLOCK
  8
LAYER_1
  2
AIGNBL0101020D
 70
64
 10
0
 20
0
 30
0
  3
AIGNBL0101020D
  0
INSERT
  8
LAYER_1
  2
AIGNBL0102020E
 10
0
 20
0
 30
0
  0
INSERT
  8
LAYER_1
  2
AIGNBL0102020F
 10
0
 20
0
 30
0
  0
INSERT
  8
LAYER_1
  2
AIGNBL01020210
 10
0
 20
0
 30
0
  0
INSERT
  8
LAYER_1
  2
AIGNBL01020211
 10
0
 20
0
 30
0
  0
INSERT
  8
LAYER_1
  2
AIGNBL01020212
 10
0
 20
0
 30
0
  0
INSERT
  8
LAYER_1
  2
AIGNBL01020213
 10
0
 20
0
 30
0
  0
ENDBLK
  0
BLOCK
  8
LAYER_1
  2
AIGNBL01010214
 70
64
 10
0
 20
0
 30
0
  3
AIGNBL01010214
  0
INSERT
  8
LAYER_1
  2
AIGNBL01020215
 10
0
 20
0
 30
0
  0
INSERT
  8
LAYER_1
  2
AIGNBL01020216
 10
0
 20
0
 30
0
  0
INSERT
  8
LAYER_1
  2
AIGNBL01020217
 10
0
 20
0
 30
0
  0
INSERT
  8
LAYER_1
  2
AIGNBL01020218
 10
0
 20
0
 30
0
  0
INSERT
  8
LAYER_1
  2
AIGNBL01020219
 10
0
 20
0
 30
0
  0
INSERT
  8
LAYER_1
  2
AIGNBL0102021A
 10
0
 20
0
 30
0
  0
ENDBLK
  0
BLOCK
  8
LAYER_1
  2
AIGNBL0101021B
 70
64
 10
0
 20
0
 30
0
  3
AIGNBL0101021B
  0
INSERT
  8
LAYER_1
  2
AIGNBL0102021C
 10
0
 20
0
 30
0
  0
INSERT
  8
LAYER_1
  2
AIGNBL0102021D
 10
0
 20
0
 30
0
  0
INSERT
  8
LAYER_1
  2
AIGNBL0102021E
 10
0
 20
0
 30
0
  0
INSERT
  8
LAYER_1
  2
AIGNBL0102021F
 10
0
 20
0
 30
0
  0
INSERT
  8
LAYER_1
  2
AIGNBL01020220
 10
0
 20
0
 30
0
  0
INSERT
  8
LAYER_1
  2
AIGNBL01020221
 10
0
 20
0
 30
0
  0
ENDBLK
  0
BLOCK
  8
LAYER_1
  2
AIGNBL01010222
 70
64
 10
0
 20
0
 30
0
  3
AIGNBL01010222
  0
TEXT
  8
LAYER_1
 10
121.4399
 20
-78.9278
 11
121.4399
 21
-78.9278
 40
3.473
 41
0.5
  1
止水
  0
ENDBLK
  0
BLOCK
  8
LAYER_1
  2
AIGNBL01010223
 70
64
 10
0
 20
0
 30
0
  3
AIGNBL01010223
  0
TEXT
  8
LAYER_1
 10
109.5754
 20
-65.7218
 11
109.5754
 21
-65.7218
 40
3.473
 41
0.5
  1
吐水
  0
ENDBLK
  0
BLOCK
  8
LAYER_1
  2
AIGNBL01010224
 70
64
 10
0
 20
0
 30
0
  3
AIGNBL01010224
  0
INSERT
  8
LAYER_1
  2
AIGNBL01020225
 10
0
 20
0
 30
0
  0
INSERT
  8
LAYER_1
  2
AIGNBL01020226
 10
0
 20
0
 30
0
  0
INSERT
  8
LAYER_1
  2
AIGNBL01020227
 10
0
 20
0
 30
0
  0
INSERT
  8
LAYER_1
  2
AIGNBL01020228
 10
0
 20
0
 30
0
  0
INSERT
  8
LAYER_1
  2
AIGNBL01020229
 10
0
 20
0
 30
0
  0
ENDBLK
  0
BLOCK
  8
LAYER_6
  2
AIGNBL06010002
 70
64
 10
0
 20
0
 30
0
  3
AIGNBL06010002
  0
POLYLINE
  8
LAYER_6
 40
0.7056
 41
0.7056
 66
1
 10
0
 20
0
 30
0
 70
1
  0
VERTEX
  8
LAYER_6
 10
33.7873
 20
22.6587
  0
VERTEX
  8
LAYER_6
 10
230.7955
 20
22.6587
  0
VERTEX
  8
LAYER_6
 10
230.7955
 20
-259.334
  0
VERTEX
  8
LAYER_6
 10
33.7873
 20
-259.334
  0
SEQEND
  0
ENDBLK
  0
ENDSEC
  0
SECTION
  2
ENTITIES
  0
INSERT
  8
LAYER_1
  2
AIGNBL01010002
 10
0
 20
0
 30
0
  0
INSERT
  8
LAYER_1
  2
AIGNBL01010024
 10
0
 20
0
 30
0
  0
INSERT
  8
LAYER_1
  2
AIGNBL0101002B
 10
0
 20
0
 30
0
  0
INSERT
  8
LAYER_1
  2
AIGNBL01010032
 10
0
 20
0
 30
0
  0
INSERT
  8
LAYER_1
  2
AIGNBL01010033
 10
0
 20
0
 30
0
  0
INSERT
  8
LAYER_1
  2
AIGNBL01010034
 10
0
 20
0
 30
0
  0
INSERT
  8
LAYER_1
  2
AIGNBL01010035
 10
0
 20
0
 30
0
  0
INSERT
  8
LAYER_1
  2
AIGNBL01010036
 10
0
 20
0
 30
0
  0
INSERT
  8
LAYER_1
  2
AIGNBL01010037
 10
0
 20
0
 30
0
  0
INSERT
  8
LAYER_1
  2
AIGNBL0101003E
 10
0
 20
0
 30
0
  0
INSERT
  8
LAYER_1
  2
AIGNBL01010046
 10
0
 20
0
 30
0
  0
INSERT
  8
LAYER_1
  2
AIGNBL0101004E
 10
0
 20
0
 30
0
  0
INSERT
  8
LAYER_1
  2
AIGNBL01010055
 10
0
 20
0
 30
0
  0
INSERT
  8
LAYER_1
  2
AIGNBL01010056
 10
0
 20
0
 30
0
  0
INSERT
  8
LAYER_1
  2
AIGNBL01010057
 10
0
 20
0
 30
0
  0
INSERT
  8
LAYER_1
  2
AIGNBL0101005A
 10
0
 20
0
 30
0
  0
INSERT
  8
LAYER_1
  2
AIGNBL0101005B
 10
0
 20
0
 30
0
  0
INSERT
  8
LAYER_1
  2
AIGNBL0101005C
 10
0
 20
0
 30
0
  0
INSERT
  8
LAYER_1
  2
AIGNBL0101005D
 10
0
 20
0
 30
0
  0
INSERT
  8
LAYER_1
  2
AIGNBL0101005E
 10
0
 20
0
 30
0
  0
INSERT
  8
LAYER_1
  2
AIGNBL0101005F
 10
0
 20
0
 30
0
  0
INSERT
  8
LAYER_1
  2
AIGNBL01010060
 10
0
 20
0
 30
0
  0
INSERT
  8
LAYER_1
  2
AIGNBL01010061
 10
0
 20
0
 30
0
  0
INSERT
  8
LAYER_1
  2
AIGNBL01010062
 10
0
 20
0
 30
0
  0
INSERT
  8
LAYER_1
  2
AIGNBL01010063
 10
0
 20
0
 30
0
  0
INSERT
  8
LAYER_1
  2
AIGNBL01010064
 10
0
 20
0
 30
0
  0
INSERT
  8
LAYER_1
  2
AIGNBL01010065
 10
0
 20
0
 30
0
  0
INSERT
  8
LAYER_1
  2
AIGNBL01010066
 10
0
 20
0
 30
0
  0
INSERT
  8
LAYER_1
  2
AIGNBL01010067
 10
0
 20
0
 30
0
  0
INSERT
  8
LAYER_1
  2
AIGNBL01010068
 10
0
 20
0
 30
0
  0
INSERT
  8
LAYER_1
  2
AIGNBL01010069
 10
0
 20
0
 30
0
  0
INSERT
  8
LAYER_1
  2
AIGNBL0101006A
 10
0
 20
0
 30
0
  0
INSERT
  8
LAYER_1
  2
AIGNBL0101006B
 10
0
 20
0
 30
0
  0
INSERT
  8
LAYER_1
  2
AIGNBL0101006C
 10
0
 20
0
 30
0
  0
INSERT
  8
LAYER_1
  2
AIGNBL0101006D
 10
0
 20
0
 30
0
  0
INSERT
  8
LAYER_1
  2
AIGNBL0101006E
 10
0
 20
0
 30
0
  0
INSERT
  8
LAYER_1
  2
AIGNBL0101006F
 10
0
 20
0
 30
0
  0
INSERT
  8
LAYER_1
  2
AIGNBL01010070
 10
0
 20
0
 30
0
  0
INSERT
  8
LAYER_1
  2
AIGNBL01010071
 10
0
 20
0
 30
0
  0
INSERT
  8
LAYER_1
  2
AIGNBL01010072
 10
0
 20
0
 30
0
  0
INSERT
  8
LAYER_1
  2
AIGNBL01010073
 10
0
 20
0
 30
0
  0
INSERT
  8
LAYER_1
  2
AIGNBL01010074
 10
0
 20
0
 30
0
  0
INSERT
  8
LAYER_1
  2
AIGNBL01010075
 10
0
 20
0
 30
0
  0
INSERT
  8
LAYER_1
  2
AIGNBL01010076
 10
0
 20
0
 30
0
  0
INSERT
  8
LAYER_1
  2
AIGNBL01010077
 10
0
 20
0
 30
0
  0
INSERT
  8
LAYER_1
  2
AIGNBL01010078
 10
0
 20
0
 30
0
  0
INSERT
  8
LAYER_1
  2
AIGNBL01010079
 10
0
 20
0
 30
0
  0
INSERT
  8
LAYER_1
  2
AIGNBL0101007A
 10
0
 20
0
 30
0
  0
INSERT
  8
LAYER_1
  2
AIGNBL0101007B
 10
0
 20
0
 30
0
  0
INSERT
  8
LAYER_1
  2
AIGNBL0101007C
 10
0
 20
0
 30
0
  0
INSERT
  8
LAYER_1
  2
AIGNBL0101007D
 10
0
 20
0
 30
0
  0
INSERT
  8
LAYER_1
  2
AIGNBL0101007E
 10
0
 20
0
 30
0
  0
INSERT
  8
LAYER_1
  2
AIGNBL0101007F
 10
0
 20
0
 30
0
  0
INSERT
  8
LAYER_1
  2
AIGNBL01010080
 10
0
 20
0
 30
0
  0
INSERT
  8
LAYER_1
  2
AIGNBL01010081
 10
0
 20
0
 30
0
  0
INSERT
  8
LAYER_1
  2
AIGNBL01010082
 10
0
 20
0
 30
0
  0
INSERT
  8
LAYER_1
  2
AIGNBL01010083
 10
0
 20
0
 30
0
  0
INSERT
  8
LAYER_1
  2
AIGNBL01010084
 10
0
 20
0
 30
0
  0
INSERT
  8
LAYER_1
  2
AIGNBL01010085
 10
0
 20
0
 30
0
  0
INSERT
  8
LAYER_1
  2
AIGNBL01010086
 10
0
 20
0
 30
0
  0
INSERT
  8
LAYER_1
  2
AIGNBL01010087
 10
0
 20
0
 30
0
  0
INSERT
  8
LAYER_1
  2
AIGNBL01010088
 10
0
 20
0
 30
0
  0
INSERT
  8
LAYER_1
  2
AIGNBL01010089
 10
0
 20
0
 30
0
  0
INSERT
  8
LAYER_1
  2
AIGNBL0101008A
 10
0
 20
0
 30
0
  0
INSERT
  8
LAYER_1
  2
AIGNBL0101008B
 10
0
 20
0
 30
0
  0
INSERT
  8
LAYER_1
  2
AIGNBL01010092
 10
0
 20
0
 30
0
  0
INSERT
  8
LAYER_1
  2
AIGNBL01010093
 10
0
 20
0
 30
0
  0
INSERT
  8
LAYER_1
  2
AIGNBL01010094
 10
0
 20
0
 30
0
  0
INSERT
  8
LAYER_1
  2
AIGNBL01010095
 10
0
 20
0
 30
0
  0
INSERT
  8
LAYER_1
  2
AIGNBL01010096
 10
0
 20
0
 30
0
  0
INSERT
  8
LAYER_1
  2
AIGNBL01010097
 10
0
 20
0
 30
0
  0
INSERT
  8
LAYER_1
  2
AIGNBL01010098
 10
0
 20
0
 30
0
  0
INSERT
  8
LAYER_1
  2
AIGNBL01010099
 10
0
 20
0
 30
0
  0
INSERT
  8
LAYER_1
  2
AIGNBL0101009A
 10
0
 20
0
 30
0
  0
INSERT
  8
LAYER_1
  2
AIGNBL0101009B
 10
0
 20
0
 30
0
  0
INSERT
  8
LAYER_1
  2
AIGNBL0101009C
 10
0
 20
0
 30
0
  0
INSERT
  8
LAYER_1
  2
AIGNBL0101009D
 10
0
 20
0
 30
0
  0
INSERT
  8
LAYER_1
  2
AIGNBL0101009E
 10
0
 20
0
 30
0
  0
INSERT
  8
LAYER_1
  2
AIGNBL0101009F
 10
0
 20
0
 30
0
  0
INSERT
  8
LAYER_1
  2
AIGNBL010100A0
 10
0
 20
0
 30
0
  0
INSERT
  8
LAYER_1
  2
AIGNBL010100A1
 10
0
 20
0
 30
0
  0
INSERT
  8
LAYER_1
  2
AIGNBL010100A2
 10
0
 20
0
 30
0
  0
INSERT
  8
LAYER_1
  2
AIGNBL010100A3
 10
0
 20
0
 30
0
  0
INSERT
  8
LAYER_1
  2
AIGNBL010100A4
 10
0
 20
0
 30
0
  0
INSERT
  8
LAYER_1
  2
AIGNBL010100A5
 10
0
 20
0
 30
0
  0
INSERT
  8
LAYER_1
  2
AIGNBL010100A6
 10
0
 20
0
 30
0
  0
INSERT
  8
LAYER_1
  2
AIGNBL010100A7
 10
0
 20
0
 30
0
  0
INSERT
  8
LAYER_1
  2
AIGNBL010100A8
 10
0
 20
0
 30
0
  0
INSERT
  8
LAYER_1
  2
AIGNBL010100A9
 10
0
 20
0
 30
0
  0
INSERT
  8
LAYER_1
  2
AIGNBL010100AA
 10
0
 20
0
 30
0
  0
INSERT
  8
LAYER_1
  2
AIGNBL010100AB
 10
0
 20
0
 30
0
  0
INSERT
  8
LAYER_1
  2
AIGNBL010100AC
 10
0
 20
0
 30
0
  0
INSERT
  8
LAYER_1
  2
AIGNBL010100AD
 10
0
 20
0
 30
0
  0
INSERT
  8
LAYER_1
  2
AIGNBL010100AE
 10
0
 20
0
 30
0
  0
INSERT
  8
LAYER_1
  2
AIGNBL010100AF
 10
0
 20
0
 30
0
  0
INSERT
  8
LAYER_1
  2
AIGNBL010100B0
 10
0
 20
0
 30
0
  0
INSERT
  8
LAYER_1
  2
AIGNBL010100B1
 10
0
 20
0
 30
0
  0
INSERT
  8
LAYER_1
  2
AIGNBL010100B2
 10
0
 20
0
 30
0
  0
INSERT
  8
LAYER_1
  2
AIGNBL010100B3
 10
0
 20
0
 30
0
  0
INSERT
  8
LAYER_1
  2
AIGNBL010100B4
 10
0
 20
0
 30
0
  0
INSERT
  8
LAYER_1
  2
AIGNBL010100B5
 10
0
 20
0
 30
0
  0
INSERT
  8
LAYER_1
  2
AIGNBL010100BC
 10
0
 20
0
 30
0
  0
INSERT
  8
LAYER_1
  2
AIGNBL010100C4
 10
0
 20
0
 30
0
  0
INSERT
  8
LAYER_1
  2
AIGNBL010100C5
 10
0
 20
0
 30
0
  0
INSERT
  8
LAYER_1
  2
AIGNBL010100C6
 10
0
 20
0
 30
0
  0
INSERT
  8
LAYER_1
  2
AIGNBL010100C7
 10
0
 20
0
 30
0
  0
INSERT
  8
LAYER_1
  2
AIGNBL010100C8
 10
0
 20
0
 30
0
  0
INSERT
  8
LAYER_1
  2
AIGNBL010100C9
 10
0
 20
0
 30
0
  0
INSERT
  8
LAYER_1
  2
AIGNBL010100CA
 10
0
 20
0
 30
0
  0
INSERT
  8
LAYER_1
  2
AIGNBL010100CB
 10
0
 20
0
 30
0
  0
INSERT
  8
LAYER_1
  2
AIGNBL010100D2
 10
0
 20
0
 30
0
  0
INSERT
  8
LAYER_1
  2
AIGNBL010100D3
 10
0
 20
0
 30
0
  0
INSERT
  8
LAYER_1
  2
AIGNBL010100D4
 10
0
 20
0
 30
0
  0
INSERT
  8
LAYER_1
  2
AIGNBL010100D5
 10
0
 20
0
 30
0
  0
INSERT
  8
LAYER_1
  2
AIGNBL010100D6
 10
0
 20
0
 30
0
  0
INSERT
  8
LAYER_1
  2
AIGNBL010100D7
 10
0
 20
0
 30
0
  0
INSERT
  8
LAYER_1
  2
AIGNBL010100D8
 10
0
 20
0
 30
0
  0
INSERT
  8
LAYER_1
  2
AIGNBL010100D9
 10
0
 20
0
 30
0
  0
INSERT
  8
LAYER_1
  2
AIGNBL010100DA
 10
0
 20
0
 30
0
  0
INSERT
  8
LAYER_1
  2
AIGNBL010100DB
 10
0
 20
0
 30
0
  0
INSERT
  8
LAYER_1
  2
AIGNBL010100DC
 10
0
 20
0
 30
0
  0
INSERT
  8
LAYER_1
  2
AIGNBL010100DD
 10
0
 20
0
 30
0
  0
INSERT
  8
LAYER_1
  2
AIGNBL010100DE
 10
0
 20
0
 30
0
  0
INSERT
  8
LAYER_1
  2
AIGNBL010100DF
 10
0
 20
0
 30
0
  0
INSERT
  8
LAYER_1
  2
AIGNBL010100E0
 10
0
 20
0
 30
0
  0
INSERT
  8
LAYER_1
  2
AIGNBL010100E1
 10
0
 20
0
 30
0
  0
INSERT
  8
LAYER_1
  2
AIGNBL010100E2
 10
0
 20
0
 30
0
  0
INSERT
  8
LAYER_1
  2
AIGNBL010100E3
 10
0
 20
0
 30
0
  0
INSERT
  8
LAYER_1
  2
AIGNBL010100E4
 10
0
 20
0
 30
0
  0
INSERT
  8
LAYER_1
  2
AIGNBL010100E5
 10
0
 20
0
 30
0
  0
INSERT
  8
LAYER_1
  2
AIGNBL010100E6
 10
0
 20
0
 30
0
  0
INSERT
  8
LAYER_1
  2
AIGNBL010100E7
 10
0
 20
0
 30
0
  0
INSERT
  8
LAYER_1
  2
AIGNBL010100E8
 10
0
 20
0
 30
0
  0
INSERT
  8
LAYER_1
  2
AIGNBL010100E9
 10
0
 20
0
 30
0
  0
INSERT
  8
LAYER_1
  2
AIGNBL010100EA
 10
0
 20
0
 30
0
  0
INSERT
  8
LAYER_1
  2
AIGNBL010100EB
 10
0
 20
0
 30
0
  0
INSERT
  8
LAYER_1
  2
AIGNBL010100EC
 10
0
 20
0
 30
0
  0
INSERT
  8
LAYER_1
  2
AIGNBL010100ED
 10
0
 20
0
 30
0
  0
INSERT
  8
LAYER_1
  2
AIGNBL010100EE
 10
0
 20
0
 30
0
  0
INSERT
  8
LAYER_1
  2
AIGNBL010100EF
 10
0
 20
0
 30
0
  0
INSERT
  8
LAYER_1
  2
AIGNBL010100F0
 10
0
 20
0
 30
0
  0
INSERT
  8
LAYER_1
  2
AIGNBL010100F1
 10
0
 20
0
 30
0
  0
INSERT
  8
LAYER_1
  2
AIGNBL010100F2
 10
0
 20
0
 30
0
  0
INSERT
  8
LAYER_1
  2
AIGNBL010100F3
 10
0
 20
0
 30
0
  0
INSERT
  8
LAYER_1
  2
AIGNBL010100F4
 10
0
 20
0
 30
0
  0
INSERT
  8
LAYER_1
  2
AIGNBL010100F5
 10
0
 20
0
 30
0
  0
INSERT
  8
LAYER_1
  2
AIGNBL010100F6
 10
0
 20
0
 30
0
  0
INSERT
  8
LAYER_1
  2
AIGNBL010100F7
 10
0
 20
0
 30
0
  0
INSERT
  8
LAYER_1
  2
AIGNBL010100F8
 10
0
 20
0
 30
0
  0
INSERT
  8
LAYER_1
  2
AIGNBL010100F9
 10
0
 20
0
 30
0
  0
INSERT
  8
LAYER_1
  2
AIGNBL010100FA
 10
0
 20
0
 30
0
  0
INSERT
  8
LAYER_1
  2
AIGNBL010100FB
 10
0
 20
0
 30
0
  0
INSERT
  8
LAYER_1
  2
AIGNBL010100FC
 10
0
 20
0
 30
0
  0
INSERT
  8
LAYER_1
  2
AIGNBL010100FD
 10
0
 20
0
 30
0
  0
INSERT
  8
LAYER_1
  2
AIGNBL010100FE
 10
0
 20
0
 30
0
  0
INSERT
  8
LAYER_1
  2
AIGNBL010100FF
 10
0
 20
0
 30
0
  0
INSERT
  8
LAYER_1
  2
AIGNBL01010100
 10
0
 20
0
 30
0
  0
INSERT
  8
LAYER_1
  2
AIGNBL01010101
 10
0
 20
0
 30
0
  0
INSERT
  8
LAYER_1
  2
AIGNBL01010102
 10
0
 20
0
 30
0
  0
INSERT
  8
LAYER_1
  2
AIGNBL01010103
 10
0
 20
0
 30
0
  0
INSERT
  8
LAYER_1
  2
AIGNBL01010104
 10
0
 20
0
 30
0
  0
INSERT
  8
LAYER_1
  2
AIGNBL01010105
 10
0
 20
0
 30
0
  0
INSERT
  8
LAYER_1
  2
AIGNBL01010106
 10
0
 20
0
 30
0
  0
INSERT
  8
LAYER_1
  2
AIGNBL01010107
 10
0
 20
0
 30
0
  0
INSERT
  8
LAYER_1
  2
AIGNBL01010108
 10
0
 20
0
 30
0
  0
INSERT
  8
LAYER_1
  2
AIGNBL01010109
 10
0
 20
0
 30
0
  0
INSERT
  8
LAYER_1
  2
AIGNBL0101010A
 10
0
 20
0
 30
0
  0
INSERT
  8
LAYER_1
  2
AIGNBL0101010B
 10
0
 20
0
 30
0
  0
INSERT
  8
LAYER_1
  2
AIGNBL0101010C
 10
0
 20
0
 30
0
  0
INSERT
  8
LAYER_1
  2
AIGNBL0101010D
 10
0
 20
0
 30
0
  0
INSERT
  8
LAYER_1
  2
AIGNBL0101010E
 10
0
 20
0
 30
0
  0
INSERT
  8
LAYER_1
  2
AIGNBL0101010F
 10
0
 20
0
 30
0
  0
INSERT
  8
LAYER_1
  2
AIGNBL01010110
 10
0
 20
0
 30
0
  0
INSERT
  8
LAYER_1
  2
AIGNBL01010111
 10
0
 20
0
 30
0
  0
INSERT
  8
LAYER_1
  2
AIGNBL01010112
 10
0
 20
0
 30
0
  0
INSERT
  8
LAYER_1
  2
AIGNBL01010113
 10
0
 20
0
 30
0
  0
INSERT
  8
LAYER_1
  2
AIGNBL01010114
 10
0
 20
0
 30
0
  0
INSERT
  8
LAYER_1
  2
AIGNBL01010115
 10
0
 20
0
 30
0
  0
INSERT
  8
LAYER_1
  2
AIGNBL01010116
 10
0
 20
0
 30
0
  0
INSERT
  8
LAYER_1
  2
AIGNBL01010117
 10
0
 20
0
 30
0
  0
INSERT
  8
LAYER_1
  2
AIGNBL01010118
 10
0
 20
0
 30
0
  0
INSERT
  8
LAYER_1
  2
AIGNBL01010119
 10
0
 20
0
 30
0
  0
INSERT
  8
LAYER_1
  2
AIGNBL0101011A
 10
0
 20
0
 30
0
  0
INSERT
  8
LAYER_1
  2
AIGNBL0101011B
 10
0
 20
0
 30
0
  0
INSERT
  8
LAYER_1
  2
AIGNBL0101011C
 10
0
 20
0
 30
0
  0
INSERT
  8
LAYER_1
  2
AIGNBL0101011D
 10
0
 20
0
 30
0
  0
INSERT
  8
LAYER_1
  2
AIGNBL0101011E
 10
0
 20
0
 30
0
  0
INSERT
  8
LAYER_1
  2
AIGNBL0101011F
 10
0
 20
0
 30
0
  0
INSERT
  8
LAYER_1
  2
AIGNBL01010120
 10
0
 20
0
 30
0
  0
INSERT
  8
LAYER_1
  2
AIGNBL01010121
 10
0
 20
0
 30
0
  0
INSERT
  8
LAYER_1
  2
AIGNBL01010122
 10
0
 20
0
 30
0
  0
INSERT
  8
LAYER_1
  2
AIGNBL01010123
 10
0
 20
0
 30
0
  0
INSERT
  8
LAYER_1
  2
AIGNBL01010124
 10
0
 20
0
 30
0
  0
INSERT
  8
LAYER_1
  2
AIGNBL01010125
 10
0
 20
0
 30
0
  0
INSERT
  8
LAYER_1
  2
AIGNBL01010126
 10
0
 20
0
 30
0
  0
INSERT
  8
LAYER_1
  2
AIGNBL01010127
 10
0
 20
0
 30
0
  0
INSERT
  8
LAYER_1
  2
AIGNBL01010128
 10
0
 20
0
 30
0
  0
INSERT
  8
LAYER_1
  2
AIGNBL01010129
 10
0
 20
0
 30
0
  0
INSERT
  8
LAYER_1
  2
AIGNBL0101012A
 10
0
 20
0
 30
0
  0
INSERT
  8
LAYER_1
  2
AIGNBL0101012B
 10
0
 20
0
 30
0
  0
INSERT
  8
LAYER_1
  2
AIGNBL0101012C
 10
0
 20
0
 30
0
  0
INSERT
  8
LAYER_1
  2
AIGNBL0101012D
 10
0
 20
0
 30
0
  0
INSERT
  8
LAYER_1
  2
AIGNBL0101012E
 10
0
 20
0
 30
0
  0
INSERT
  8
LAYER_1
  2
AIGNBL0101012F
 10
0
 20
0
 30
0
  0
INSERT
  8
LAYER_1
  2
AIGNBL01010130
 10
0
 20
0
 30
0
  0
INSERT
  8
LAYER_1
  2
AIGNBL01010131
 10
0
 20
0
 30
0
  0
INSERT
  8
LAYER_1
  2
AIGNBL01010132
 10
0
 20
0
 30
0
  0
INSERT
  8
LAYER_1
  2
AIGNBL01010133
 10
0
 20
0
 30
0
  0
INSERT
  8
LAYER_1
  2
AIGNBL01010134
 10
0
 20
0
 30
0
  0
INSERT
  8
LAYER_1
  2
AIGNBL01010135
 10
0
 20
0
 30
0
  0
INSERT
  8
LAYER_1
  2
AIGNBL01010136
 10
0
 20
0
 30
0
  0
INSERT
  8
LAYER_1
  2
AIGNBL01010137
 10
0
 20
0
 30
0
  0
INSERT
  8
LAYER_1
  2
AIGNBL01010138
 10
0
 20
0
 30
0
  0
INSERT
  8
LAYER_1
  2
AIGNBL01010139
 10
0
 20
0
 30
0
  0
INSERT
  8
LAYER_1
  2
AIGNBL0101013A
 10
0
 20
0
 30
0
  0
INSERT
  8
LAYER_1
  2
AIGNBL0101013B
 10
0
 20
0
 30
0
  0
INSERT
  8
LAYER_1
  2
AIGNBL0101013C
 10
0
 20
0
 30
0
  0
INSERT
  8
LAYER_1
  2
AIGNBL0101013D
 10
0
 20
0
 30
0
  0
INSERT
  8
LAYER_1
  2
AIGNBL0101013E
 10
0
 20
0
 30
0
  0
INSERT
  8
LAYER_1
  2
AIGNBL0101013F
 10
0
 20
0
 30
0
  0
INSERT
  8
LAYER_1
  2
AIGNBL01010140
 10
0
 20
0
 30
0
  0
INSERT
  8
LAYER_1
  2
AIGNBL01010141
 10
0
 20
0
 30
0
  0
INSERT
  8
LAYER_1
  2
AIGNBL01010142
 10
0
 20
0
 30
0
  0
INSERT
  8
LAYER_1
  2
AIGNBL01010143
 10
0
 20
0
 30
0
  0
INSERT
  8
LAYER_1
  2
AIGNBL01010144
 10
0
 20
0
 30
0
  0
INSERT
  8
LAYER_1
  2
AIGNBL01010145
 10
0
 20
0
 30
0
  0
INSERT
  8
LAYER_1
  2
AIGNBL01010146
 10
0
 20
0
 30
0
  0
INSERT
  8
LAYER_1
  2
AIGNBL01010147
 10
0
 20
0
 30
0
  0
INSERT
  8
LAYER_1
  2
AIGNBL01010148
 10
0
 20
0
 30
0
  0
INSERT
  8
LAYER_1
  2
AIGNBL01010149
 10
0
 20
0
 30
0
  0
INSERT
  8
LAYER_1
  2
AIGNBL0101014A
 10
0
 20
0
 30
0
  0
INSERT
  8
LAYER_1
  2
AIGNBL0101014B
 10
0
 20
0
 30
0
  0
INSERT
  8
LAYER_1
  2
AIGNBL0101014C
 10
0
 20
0
 30
0
  0
INSERT
  8
LAYER_1
  2
AIGNBL0101014D
 10
0
 20
0
 30
0
  0
INSERT
  8
LAYER_1
  2
AIGNBL0101014E
 10
0
 20
0
 30
0
  0
INSERT
  8
LAYER_1
  2
AIGNBL0101014F
 10
0
 20
0
 30
0
  0
INSERT
  8
LAYER_1
  2
AIGNBL01010150
 10
0
 20
0
 30
0
  0
INSERT
  8
LAYER_1
  2
AIGNBL01010151
 10
0
 20
0
 30
0
  0
INSERT
  8
LAYER_1
  2
AIGNBL01010152
 10
0
 20
0
 30
0
  0
INSERT
  8
LAYER_1
  2
AIGNBL01010153
 10
0
 20
0
 30
0
  0
INSERT
  8
LAYER_1
  2
AIGNBL01010154
 10
0
 20
0
 30
0
  0
INSERT
  8
LAYER_1
  2
AIGNBL01010155
 10
0
 20
0
 30
0
  0
INSERT
  8
LAYER_1
  2
AIGNBL01010156
 10
0
 20
0
 30
0
  0
INSERT
  8
LAYER_1
  2
AIGNBL01010157
 10
0
 20
0
 30
0
  0
INSERT
  8
LAYER_1
  2
AIGNBL01010158
 10
0
 20
0
 30
0
  0
INSERT
  8
LAYER_1
  2
AIGNBL01010159
 10
0
 20
0
 30
0
  0
INSERT
  8
LAYER_1
  2
AIGNBL0101015A
 10
0
 20
0
 30
0
  0
INSERT
  8
LAYER_1
  2
AIGNBL0101015B
 10
0
 20
0
 30
0
  0
INSERT
  8
LAYER_1
  2
AIGNBL0101015C
 10
0
 20
0
 30
0
  0
INSERT
  8
LAYER_1
  2
AIGNBL0101015D
 10
0
 20
0
 30
0
  0
INSERT
  8
LAYER_1
  2
AIGNBL0101015E
 10
0
 20
0
 30
0
  0
INSERT
  8
LAYER_1
  2
AIGNBL0101015F
 10
0
 20
0
 30
0
  0
INSERT
  8
LAYER_1
  2
AIGNBL01010160
 10
0
 20
0
 30
0
  0
INSERT
  8
LAYER_1
  2
AIGNBL01010161
 10
0
 20
0
 30
0
  0
INSERT
  8
LAYER_1
  2
AIGNBL01010162
 10
0
 20
0
 30
0
  0
INSERT
  8
LAYER_1
  2
AIGNBL01010163
 10
0
 20
0
 30
0
  0
INSERT
  8
LAYER_1
  2
AIGNBL01010164
 10
0
 20
0
 30
0
  0
INSERT
  8
LAYER_1
  2
AIGNBL01010165
 10
0
 20
0
 30
0
  0
INSERT
  8
LAYER_1
  2
AIGNBL01010166
 10
0
 20
0
 30
0
  0
INSERT
  8
LAYER_1
  2
AIGNBL01010167
 10
0
 20
0
 30
0
  0
INSERT
  8
LAYER_1
  2
AIGNBL01010168
 10
0
 20
0
 30
0
  0
INSERT
  8
LAYER_1
  2
AIGNBL01010169
 10
0
 20
0
 30
0
  0
INSERT
  8
LAYER_1
  2
AIGNBL0101016A
 10
0
 20
0
 30
0
  0
INSERT
  8
LAYER_1
  2
AIGNBL0101016B
 10
0
 20
0
 30
0
  0
INSERT
  8
LAYER_1
  2
AIGNBL0101016C
 10
0
 20
0
 30
0
  0
INSERT
  8
LAYER_1
  2
AIGNBL0101016D
 10
0
 20
0
 30
0
  0
INSERT
  8
LAYER_1
  2
AIGNBL0101016E
 10
0
 20
0
 30
0
  0
INSERT
  8
LAYER_1
  2
AIGNBL0101016F
 10
0
 20
0
 30
0
  0
INSERT
  8
LAYER_1
  2
AIGNBL01010170
 10
0
 20
0
 30
0
  0
INSERT
  8
LAYER_1
  2
AIGNBL01010171
 10
0
 20
0
 30
0
  0
INSERT
  8
LAYER_1
  2
AIGNBL01010172
 10
0
 20
0
 30
0
  0
INSERT
  8
LAYER_1
  2
AIGNBL01010173
 10
0
 20
0
 30
0
  0
INSERT
  8
LAYER_1
  2
AIGNBL01010174
 10
0
 20
0
 30
0
  0
INSERT
  8
LAYER_1
  2
AIGNBL01010175
 10
0
 20
0
 30
0
  0
INSERT
  8
LAYER_1
  2
AIGNBL01010176
 10
0
 20
0
 30
0
  0
INSERT
  8
LAYER_1
  2
AIGNBL01010177
 10
0
 20
0
 30
0
  0
INSERT
  8
LAYER_1
  2
AIGNBL01010178
 10
0
 20
0
 30
0
  0
INSERT
  8
LAYER_1
  2
AIGNBL01010179
 10
0
 20
0
 30
0
  0
INSERT
  8
LAYER_1
  2
AIGNBL0101017A
 10
0
 20
0
 30
0
  0
INSERT
  8
LAYER_1
  2
AIGNBL0101017B
 10
0
 20
0
 30
0
  0
INSERT
  8
LAYER_1
  2
AIGNBL0101017C
 10
0
 20
0
 30
0
  0
INSERT
  8
LAYER_1
  2
AIGNBL0101017D
 10
0
 20
0
 30
0
  0
INSERT
  8
LAYER_1
  2
AIGNBL0101017E
 10
0
 20
0
 30
0
  0
INSERT
  8
LAYER_1
  2
AIGNBL0101017F
 10
0
 20
0
 30
0
  0
INSERT
  8
LAYER_1
  2
AIGNBL01010180
 10
0
 20
0
 30
0
  0
INSERT
  8
LAYER_1
  2
AIGNBL01010181
 10
0
 20
0
 30
0
  0
INSERT
  8
LAYER_1
  2
AIGNBL01010182
 10
0
 20
0
 30
0
  0
INSERT
  8
LAYER_1
  2
AIGNBL01010183
 10
0
 20
0
 30
0
  0
INSERT
  8
LAYER_1
  2
AIGNBL01010184
 10
0
 20
0
 30
0
  0
INSERT
  8
LAYER_1
  2
AIGNBL01010185
 10
0
 20
0
 30
0
  0
INSERT
  8
LAYER_1
  2
AIGNBL01010186
 10
0
 20
0
 30
0
  0
INSERT
  8
LAYER_1
  2
AIGNBL01010187
 10
0
 20
0
 30
0
  0
INSERT
  8
LAYER_1
  2
AIGNBL01010188
 10
0
 20
0
 30
0
  0
INSERT
  8
LAYER_1
  2
AIGNBL01010189
 10
0
 20
0
 30
0
  0
INSERT
  8
LAYER_1
  2
AIGNBL0101018A
 10
0
 20
0
 30
0
  0
INSERT
  8
LAYER_1
  2
AIGNBL0101018B
 10
0
 20
0
 30
0
  0
INSERT
  8
LAYER_1
  2
AIGNBL0101018C
 10
0
 20
0
 30
0
  0
INSERT
  8
LAYER_1
  2
AIGNBL0101018D
 10
0
 20
0
 30
0
  0
INSERT
  8
LAYER_1
  2
AIGNBL0101018E
 10
0
 20
0
 30
0
  0
INSERT
  8
LAYER_1
  2
AIGNBL0101018F
 10
0
 20
0
 30
0
  0
INSERT
  8
LAYER_1
  2
AIGNBL01010190
 10
0
 20
0
 30
0
  0
INSERT
  8
LAYER_1
  2
AIGNBL01010191
 10
0
 20
0
 30
0
  0
INSERT
  8
LAYER_1
  2
AIGNBL01010192
 10
0
 20
0
 30
0
  0
INSERT
  8
LAYER_1
  2
AIGNBL01010193
 10
0
 20
0
 30
0
  0
INSERT
  8
LAYER_1
  2
AIGNBL01010194
 10
0
 20
0
 30
0
  0
INSERT
  8
LAYER_1
  2
AIGNBL01010195
 10
0
 20
0
 30
0
  0
INSERT
  8
LAYER_1
  2
AIGNBL01010196
 10
0
 20
0
 30
0
  0
INSERT
  8
LAYER_1
  2
AIGNBL01010197
 10
0
 20
0
 30
0
  0
INSERT
  8
LAYER_1
  2
AIGNBL01010198
 10
0
 20
0
 30
0
  0
INSERT
  8
LAYER_1
  2
AIGNBL01010199
 10
0
 20
0
 30
0
  0
INSERT
  8
LAYER_1
  2
AIGNBL0101019A
 10
0
 20
0
 30
0
  0
INSERT
  8
LAYER_1
  2
AIGNBL0101019B
 10
0
 20
0
 30
0
  0
INSERT
  8
LAYER_1
  2
AIGNBL0101019C
 10
0
 20
0
 30
0
  0
INSERT
  8
LAYER_1
  2
AIGNBL0101019D
 10
0
 20
0
 30
0
  0
INSERT
  8
LAYER_1
  2
AIGNBL0101019E
 10
0
 20
0
 30
0
  0
INSERT
  8
LAYER_1
  2
AIGNBL0101019F
 10
0
 20
0
 30
0
  0
INSERT
  8
LAYER_1
  2
AIGNBL010101A0
 10
0
 20
0
 30
0
  0
INSERT
  8
LAYER_1
  2
AIGNBL010101A1
 10
0
 20
0
 30
0
  0
INSERT
  8
LAYER_1
  2
AIGNBL010101A2
 10
0
 20
0
 30
0
  0
INSERT
  8
LAYER_1
  2
AIGNBL010101A3
 10
0
 20
0
 30
0
  0
INSERT
  8
LAYER_1
  2
AIGNBL010101A4
 10
0
 20
0
 30
0
  0
INSERT
  8
LAYER_1
  2
AIGNBL010101A5
 10
0
 20
0
 30
0
  0
INSERT
  8
LAYER_1
  2
AIGNBL010101A6
 10
0
 20
0
 30
0
  0
INSERT
  8
LAYER_1
  2
AIGNBL010101A7
 10
0
 20
0
 30
0
  0
INSERT
  8
LAYER_1
  2
AIGNBL010101A8
 10
0
 20
0
 30
0
  0
INSERT
  8
LAYER_1
  2
AIGNBL010101A9
 10
0
 20
0
 30
0
  0
INSERT
  8
LAYER_1
  2
AIGNBL010101AA
 10
0
 20
0
 30
0
  0
INSERT
  8
LAYER_1
  2
AIGNBL010101AB
 10
0
 20
0
 30
0
  0
INSERT
  8
LAYER_1
  2
AIGNBL010101AC
 10
0
 20
0
 30
0
  0
INSERT
  8
LAYER_1
  2
AIGNBL010101AD
 10
0
 20
0
 30
0
  0
INSERT
  8
LAYER_1
  2
AIGNBL010101AE
 10
0
 20
0
 30
0
  0
INSERT
  8
LAYER_1
  2
AIGNBL010101AF
 10
0
 20
0
 30
0
  0
INSERT
  8
LAYER_1
  2
AIGNBL010101B0
 10
0
 20
0
 30
0
  0
INSERT
  8
LAYER_1
  2
AIGNBL010101B1
 10
0
 20
0
 30
0
  0
INSERT
  8
LAYER_1
  2
AIGNBL010101B2
 10
0
 20
0
 30
0
  0
INSERT
  8
LAYER_1
  2
AIGNBL010101B3
 10
0
 20
0
 30
0
  0
INSERT
  8
LAYER_1
  2
AIGNBL010101B4
 10
0
 20
0
 30
0
  0
INSERT
  8
LAYER_1
  2
AIGNBL010101B5
 10
0
 20
0
 30
0
  0
INSERT
  8
LAYER_1
  2
AIGNBL010101B6
 10
0
 20
0
 30
0
  0
INSERT
  8
LAYER_1
  2
AIGNBL010101B7
 10
0
 20
0
 30
0
  0
INSERT
  8
LAYER_1
  2
AIGNBL010101B8
 10
0
 20
0
 30
0
  0
INSERT
  8
LAYER_1
  2
AIGNBL010101B9
 10
0
 20
0
 30
0
  0
INSERT
  8
LAYER_1
  2
AIGNBL010101BA
 10
0
 20
0
 30
0
  0
INSERT
  8
LAYER_1
  2
AIGNBL010101BB
 10
0
 20
0
 30
0
  0
INSERT
  8
LAYER_1
  2
AIGNBL010101BC
 10
0
 20
0
 30
0
  0
INSERT
  8
LAYER_1
  2
AIGNBL010101BD
 10
0
 20
0
 30
0
  0
INSERT
  8
LAYER_1
  2
AIGNBL010101BE
 10
0
 20
0
 30
0
  0
INSERT
  8
LAYER_1
  2
AIGNBL010101BF
 10
0
 20
0
 30
0
  0
INSERT
  8
LAYER_1
  2
AIGNBL010101C0
 10
0
 20
0
 30
0
  0
INSERT
  8
LAYER_1
  2
AIGNBL010101C1
 10
0
 20
0
 30
0
  0
INSERT
  8
LAYER_1
  2
AIGNBL010101C2
 10
0
 20
0
 30
0
  0
INSERT
  8
LAYER_1
  2
AIGNBL010101C3
 10
0
 20
0
 30
0
  0
INSERT
  8
LAYER_1
  2
AIGNBL010101C4
 10
0
 20
0
 30
0
  0
INSERT
  8
LAYER_1
  2
AIGNBL010101C5
 10
0
 20
0
 30
0
  0
INSERT
  8
LAYER_1
  2
AIGNBL010101C6
 10
0
 20
0
 30
0
  0
INSERT
  8
LAYER_1
  2
AIGNBL010101C7
 10
0
 20
0
 30
0
  0
INSERT
  8
LAYER_1
  2
AIGNBL010101C8
 10
0
 20
0
 30
0
  0
INSERT
  8
LAYER_1
  2
AIGNBL010101C9
 10
0
 20
0
 30
0
  0
INSERT
  8
LAYER_1
  2
AIGNBL010101CA
 10
0
 20
0
 30
0
  0
INSERT
  8
LAYER_1
  2
AIGNBL010101CB
 10
0
 20
0
 30
0
  0
INSERT
  8
LAYER_1
  2
AIGNBL010101CC
 10
0
 20
0
 30
0
  0
INSERT
  8
LAYER_1
  2
AIGNBL010101CD
 10
0
 20
0
 30
0
  0
INSERT
  8
LAYER_1
  2
AIGNBL010101CE
 10
0
 20
0
 30
0
  0
INSERT
  8
LAYER_1
  2
AIGNBL010101CF
 10
0
 20
0
 30
0
  0
INSERT
  8
LAYER_1
  2
AIGNBL010101D0
 10
0
 20
0
 30
0
  0
INSERT
  8
LAYER_1
  2
AIGNBL010101D1
 10
0
 20
0
 30
0
  0
INSERT
  8
LAYER_1
  2
AIGNBL010101D2
 10
0
 20
0
 30
0
  0
INSERT
  8
LAYER_1
  2
AIGNBL010101D3
 10
0
 20
0
 30
0
  0
INSERT
  8
LAYER_1
  2
AIGNBL010101D4
 10
0
 20
0
 30
0
  0
INSERT
  8
LAYER_1
  2
AIGNBL010101D5
 10
0
 20
0
 30
0
  0
INSERT
  8
LAYER_1
  2
AIGNBL010101D6
 10
0
 20
0
 30
0
  0
INSERT
  8
LAYER_1
  2
AIGNBL010101D7
 10
0
 20
0
 30
0
  0
INSERT
  8
LAYER_1
  2
AIGNBL010101D8
 10
0
 20
0
 30
0
  0
INSERT
  8
LAYER_1
  2
AIGNBL010101D9
 10
0
 20
0
 30
0
  0
INSERT
  8
LAYER_1
  2
AIGNBL010101DA
 10
0
 20
0
 30
0
  0
INSERT
  8
LAYER_1
  2
AIGNBL010101DB
 10
0
 20
0
 30
0
  0
INSERT
  8
LAYER_1
  2
AIGNBL010101DC
 10
0
 20
0
 30
0
  0
INSERT
  8
LAYER_1
  2
AIGNBL010101DD
 10
0
 20
0
 30
0
  0
INSERT
  8
LAYER_1
  2
AIGNBL010101DE
 10
0
 20
0
 30
0
  0
INSERT
  8
LAYER_1
  2
AIGNBL010101DF
 10
0
 20
0
 30
0
  0
INSERT
  8
LAYER_1
  2
AIGNBL010101E0
 10
0
 20
0
 30
0
  0
INSERT
  8
LAYER_1
  2
AIGNBL010101E1
 10
0
 20
0
 30
0
  0
INSERT
  8
LAYER_1
  2
AIGNBL010101E2
 10
0
 20
0
 30
0
  0
INSERT
  8
LAYER_1
  2
AIGNBL010101E3
 10
0
 20
0
 30
0
  0
INSERT
  8
LAYER_1
  2
AIGNBL010101E4
 10
0
 20
0
 30
0
  0
INSERT
  8
LAYER_1
  2
AIGNBL010101E5
 10
0
 20
0
 30
0
  0
INSERT
  8
LAYER_1
  2
AIGNBL010101E6
 10
0
 20
0
 30
0
  0
INSERT
  8
LAYER_1
  2
AIGNBL010101E7
 10
0
 20
0
 30
0
  0
INSERT
  8
LAYER_1
  2
AIGNBL010101E8
 10
0
 20
0
 30
0
  0
INSERT
  8
LAYER_1
  2
AIGNBL010101E9
 10
0
 20
0
 30
0
  0
INSERT
  8
LAYER_1
  2
AIGNBL010101EA
 10
0
 20
0
 30
0
  0
INSERT
  8
LAYER_1
  2
AIGNBL010101EB
 10
0
 20
0
 30
0
  0
INSERT
  8
LAYER_1
  2
AIGNBL010101EC
 10
0
 20
0
 30
0
  0
INSERT
  8
LAYER_1
  2
AIGNBL010101ED
 10
0
 20
0
 30
0
  0
INSERT
  8
LAYER_1
  2
AIGNBL010101EE
 10
0
 20
0
 30
0
  0
INSERT
  8
LAYER_1
  2
AIGNBL010101EF
 10
0
 20
0
 30
0
  0
INSERT
  8
LAYER_1
  2
AIGNBL010101F0
 10
0
 20
0
 30
0
  0
INSERT
  8
LAYER_1
  2
AIGNBL010101F1
 10
0
 20
0
 30
0
  0
INSERT
  8
LAYER_1
  2
AIGNBL010101F2
 10
0
 20
0
 30
0
  0
INSERT
  8
LAYER_1
  2
AIGNBL010101F9
 10
0
 20
0
 30
0
  0
INSERT
  8
LAYER_1
  2
AIGNBL01010200
 10
0
 20
0
 30
0
  0
INSERT
  8
LAYER_1
  2
AIGNBL01010201
 10
0
 20
0
 30
0
  0
INSERT
  8
LAYER_1
  2
AIGNBL01010202
 10
0
 20
0
 30
0
  0
INSERT
  8
LAYER_1
  2
AIGNBL01010203
 10
0
 20
0
 30
0
  0
INSERT
  8
LAYER_1
  2
AIGNBL01010204
 10
0
 20
0
 30
0
  0
INSERT
  8
LAYER_1
  2
AIGNBL01010205
 10
0
 20
0
 30
0
  0
INSERT
  8
LAYER_1
  2
AIGNBL01010206
 10
0
 20
0
 30
0
  0
INSERT
  8
LAYER_1
  2
AIGNBL01010207
 10
0
 20
0
 30
0
  0
INSERT
  8
LAYER_1
  2
AIGNBL01010208
 10
0
 20
0
 30
0
  0
INSERT
  8
LAYER_1
  2
AIGNBL01010209
 10
0
 20
0
 30
0
  0
INSERT
  8
LAYER_1
  2
AIGNBL0101020A
 10
0
 20
0
 30
0
  0
INSERT
  8
LAYER_1
  2
AIGNBL0101020B
 10
0
 20
0
 30
0
  0
INSERT
  8
LAYER_1
  2
AIGNBL0101020C
 10
0
 20
0
 30
0
  0
INSERT
  8
LAYER_1
  2
AIGNBL0101020D
 10
0
 20
0
 30
0
  0
INSERT
  8
LAYER_1
  2
AIGNBL01010214
 10
0
 20
0
 30
0
  0
INSERT
  8
LAYER_1
  2
AIGNBL0101021B
 10
0
 20
0
 30
0
  0
INSERT
  8
LAYER_1
  2
AIGNBL01010222
 10
0
 20
0
 30
0
  0
INSERT
  8
LAYER_1
  2
AIGNBL01010223
 10
0
 20
0
 30
0
  0
INSERT
  8
LAYER_1
  2
AIGNBL01010224
 10
0
 20
0
 30
0
  0
INSERT
  8
LAYER_6
  2
AIGNBL06010002
 10
0
 20
0
 30
0
  0
POLYLINE
  8
LAYER_6
 40
0.3528
 41
0.3528
 66
1
 10
0
 20
0
 30
0
  0
VERTEX
  8
LAYER_6
 10
34.7876
 20
-258.3332
  0
VERTEX
  8
LAYER_6
 10
229.7955
 20
-258.3332
  0
VERTEX
  8
LAYER_6
 10
229.7955
 20
21.6583
  0
VERTEX
  8
LAYER_6
 10
34.7876
 20
21.6583
  0
VERTEX
  8
LAYER_6
 10
34.7876
 20
-258.3332
  0
SEQEND
  0
TEXT
  8
LAYER_6
 10
166.4505
 20
-248.7955
 11
166.4505
 21
-248.7955
 40
3.9035
 41
0.5
  1
●TEL 0120-65-1232●FAX 06-6532-1580
  0
TEXT
  8
LAYER_6
 10
166.4505
 20
-252.3388
 11
166.4505
 21
-252.3388
 40
3.9035
 41
0.5
  1
hits@hiratatile.co.jp
  0
TEXT
  8
LAYER_6
 10
37.8495
 20
-250.3797
 11
37.8495
 21
-250.3797
 40
3.6756
 41
0.5
  1
仕様
  0
POLYLINE
  8
LAYER_6
 40
0.3528
 41
0.3528
 66
1
 10
0
 20
0
 30
0
  0
VERTEX
  8
LAYER_6
 10
229.7955
 20
-241.6001
  0
VERTEX
  8
LAYER_6
 10
34.7874
 20
-241.6001
  0
SEQEND
  0
POLYLINE
  8
LAYER_6
 40
0.3528
 41
0.3528
 66
1
 10
0
 20
0
 30
0
  0
VERTEX
  8
LAYER_6
 10
229.7955
 20
-233.091
  0
VERTEX
  8
LAYER_6
 10
34.7874
 20
-233.091
  0
SEQEND
  0
TEXT
  8
LAYER_6
 10
35.9444
 20
-235.5675
 11
35.9444
 21
-235.5675
 40
2.4504
 41
0.5
  1
品名
  0
TEXT
  8
LAYER_6
 10
48.7874
 20
-238.6599
 11
48.7874
 21
-238.6599
 40
4.0518
 41
0.5
  1
ライトシングルレバー洗面混合水栓
  0
TEXT
  8
LAYER_6
 10
48.4217
 20
-250.3883
 11
48.4217
 21
-250.3883
 40
3.473
 41
0.5
  1
●排水金具別途
  0
TEXT
  8
LAYER_6
 10
137.7434
 20
-235.5677
 11
137.7434
 21
-235.5677
 40
2.4504
 41
0.5
  1
品番
  0
TEXT
  8
LAYER_6
 10
143.7654
 20
-240.0443
 11
143.7654
 21
-240.0443
 40
5.9385
 41
0.5
  1
PAF-LIG081/
  0
ENDSEC
  0
EOF
