  0
SECTION
  2
HEADER
  9
$ACADVER
  1
AC1009
  9
$LUNITS
 70
2
  9
$LUPREC
 70
4
  9
$LTSCALE
 40
1.0
  9
$EXTMIN
 10
33.7873
 20
-259.334
 30
0
  9
$EXTMAX
 10
230.7955
 20
22.6587
 30
0
  0
ENDSEC
  0
SECTION
  2
TABLES
  0
TABLE
  2
LTYPE
 70
256
  0
LTYPE
  2
AIGENLINE001
 70
64
  3
generate AI->DXF Converter
 72
65
 73
4
 40
15
 49
9.375
 49
-1.875
 49
1.875
 49
-1.875
  0
LTYPE
  2
AIGENLINE002
 70
64
  3
generate AI->DXF Converter
 72
65
 73
6
 40
15.875
 49
7.9375
 49
-1.5875
 49
1.5875
 49
-1.5875
 49
1.5875
 49
-1.5875
  0
LTYPE
  2
AIGENLINE003
 70
64
  3
generate AI->DXF Converter
 72
65
 73
4
 40
1.125
 49
0.75
 49
-0.125
 49
0.125
 49
-0.125
  0
LTYPE
  2
AIGENLINE004
 70
64
  3
generate AI->DXF Converter
 72
65
 73
6
 40
23.8125
 49
11.9062
 49
-2.3812
 49
2.3812
 49
-2.3812
 49
2.3812
 49
-2.3812
  0
LTYPE
  2
AIGENLINE005
 70
64
  3
generate AI->DXF Converter
 72
65
 73
6
 40
7.9375
 49
3.9687
 49
-0.7938
 49
0.7938
 49
-0.7938
 49
0.7938
 49
-0.7938
  0
ENDTAB
  0
TABLE
  2
LAYER
 70
6
  0
LAYER
  2
LAYER_1
 70
64
 62
7
  6
CONTINUOUS
  0
LAYER
  2
LAYER_2
 70
64
 62
7
  6
CONTINUOUS
  0
LAYER
  2
LAYER_3
 70
64
 62
7
  6
CONTINUOUS
  0
LAYER
  2
LAYER_4
 70
64
 62
7
  6
CONTINUOUS
  0
LAYER
  2
LAYER_5
 70
64
 62
7
  6
CONTINUOUS
  0
LAYER
  2
LAYER_6
 70
64
 62
7
  6
CONTINUOUS
  0
ENDTAB
  0
TABLE
  2
STYLE
 70
6
  0
STYLE
  2
STANDARD
 70
0
 40
0
 50
0
 71
0
 41
0
 42
0
  3
TXT
  4
BIGFONT
  0
ENDTAB
  0
ENDSEC
  0
SECTION
  2
BLOCKS
  0
BLOCK
  8
LAYER_1
  2
AIGNBL01040005
 70
64
 10
0
 20
0
 30
0
  3
AIGNBL01040005
  0
POLYLINE
  8
LAYER_1
 40
0.05
 41
0.05
 66
1
 10
0
 20
0
 30
0
 70
1
  0
VERTEX
  8
LAYER_1
 10
138.3767
 20
-249.1011
  0
VERTEX
  8
LAYER_1
 10
137.891
 20
-250.2793
  0
VERTEX
  8
LAYER_1
 10
137.2664
 20
-250.2793
  0
VERTEX
  8
LAYER_1
 10
138.857
 20
-246.5355
  0
VERTEX
  8
LAYER_1
 10
139.586
 20
-246.5355
  0
VERTEX
  8
LAYER_1
 10
141.1828
 20
-250.2793
  0
VERTEX
  8
LAYER_1
 10
140.5365
 20
-250.2793
  0
VERTEX
  8
LAYER_1
 10
140.0369
 20
-249.1011
  0
SEQEND
  0
POLYLINE
  8
LAYER_1
 40
0.05
 41
0.05
 66
1
 10
0
 20
0
 30
0
 70
1
  0
VERTEX
  8
LAYER_1
 10
139.9115
 20
-248.7245
  0
VERTEX
  8
LAYER_1
 10
139.4533
 20
-247.6459
  0
VERTEX
  8
LAYER_1
 10
139.2101
 20
-246.963
  0
VERTEX
  8
LAYER_1
 10
139.1967
 20
-246.963
  0
VERTEX
  8
LAYER_1
 10
138.9603
 20
-247.6414
  0
VERTEX
  8
LAYER_1
 10
138.5021
 20
-248.7245
  0
SEQEND
  0
ENDBLK
  0
BLOCK
  8
LAYER_1
  2
AIGNBL01040006
 70
64
 10
0
 20
0
 30
0
  3
AIGNBL01040006
  0
POLYLINE
  8
LAYER_1
 40
0.05
 41
0.05
 66
1
 10
0
 20
0
 30
0
 70
1
  0
VERTEX
  8
LAYER_1
 10
145.5226
 20
-250.8295
 42
-0.01588995579
  0
VERTEX
  8
LAYER_1
 10
143.7311
 20
-250.3954
  0
VERTEX
  8
LAYER_1
 10
143.4465
 20
-250.3406
 42
-0.08603985201
  0
VERTEX
  8
LAYER_1
 10
142.5648
 20
-250.1665
 42
-0.09807603942
  0
VERTEX
  8
LAYER_1
 10
141.9131
 20
-249.7557
 42
-0.2094886647
  0
VERTEX
  8
LAYER_1
 10
141.3839
 20
-248.4469
 42
-0.09686882676
  0
VERTEX
  8
LAYER_1
 10
141.5276
 20
-247.6779
 42
-0.2046492491
  0
VERTEX
  8
LAYER_1
 10
142.5693
 20
-246.6597
 42
-0.09822810302
  0
VERTEX
  8
LAYER_1
 10
143.5644
 20
-246.4745
 42
-0.08551091506
  0
VERTEX
  8
LAYER_1
 10
144.4282
 20
-246.615
 42
-0.1004264881
  0
VERTEX
  8
LAYER_1
 10
145.0896
 20
-247.0069
 42
-0.2141381959
  0
VERTEX
  8
LAYER_1
 10
145.6617
 20
-248.3686
 42
-0.09538251124
  0
VERTEX
  8
LAYER_1
 10
145.5236
 20
-249.1322
 42
-0.2145004706
  0
VERTEX
  8
LAYER_1
 10
144.5063
 20
-250.1049
 42
-0.02339472194
  0
VERTEX
  8
LAYER_1
 10
144.3281
 20
-250.1628
  0
VERTEX
  8
LAYER_1
 10
144.3281
 20
-250.1852
  0
VERTEX
  8
LAYER_1
 10
145.6965
 20
-250.424
  0
SEQEND
  0
POLYLINE
  8
LAYER_1
 40
0.05
 41
0.05
 66
1
 10
0
 20
0
 30
0
 70
1
  0
VERTEX
  8
LAYER_1
 10
145.0233
 20
-248.39
 42
0.1071465477
  0
VERTEX
  8
LAYER_1
 10
144.8729
 20
-247.6894
 42
0.2977221891
  0
VERTEX
  8
LAYER_1
 10
143.5433
 20
-246.8687
 42
0.1072160189
  0
VERTEX
  8
LAYER_1
 10
142.8575
 20
-247.0073
 42
0.2385375056
  0
VERTEX
  8
LAYER_1
 10
142.0749
 20
-248.007
 42
0.05759145292
  0
VERTEX
  8
LAYER_1
 10
142.0296
 20
-248.4344
 42
0.2182236294
  0
VERTEX
  8
LAYER_1
 10
142.5575
 20
-249.6231
 42
0.1771891839
  0
VERTEX
  8
LAYER_1
 10
143.5161
 20
-249.9468
 42
0.1075696895
  0
VERTEX
  8
LAYER_1
 10
144.1932
 20
-249.8086
 42
0.236982977
  0
VERTEX
  8
LAYER_1
 10
144.9758
 20
-248.8146
 42
0.05604944619
  0
SEQEND
  0
ENDBLK
  0
BLOCK
  8
LAYER_1
  2
AIGNBL01040007
 70
64
 10
0
 20
0
 30
0
  3
AIGNBL01040007
  0
POLYLINE
  8
LAYER_1
 40
0.05
 41
0.05
 66
1
 10
0
 20
0
 30
0
 70
1
  0
VERTEX
  8
LAYER_1
 10
146.9815
 20
-246.5355
  0
VERTEX
  8
LAYER_1
 10
146.9815
 20
-248.7517
 42
0.114472655
  0
VERTEX
  8
LAYER_1
 10
147.1146
 20
-249.4136
 42
0.1464766
  0
VERTEX
  8
LAYER_1
 10
147.4628
 20
-249.7966
 42
0.1363197034
  0
VERTEX
  8
LAYER_1
 10
148.0716
 20
-249.9468
 42
0.1219363095
  0
VERTEX
  8
LAYER_1
 10
148.6913
 20
-249.8128
 42
0.1503291203
  0
VERTEX
  8
LAYER_1
 10
149.0609
 20
-249.446
 42
0.1255921242
  0
VERTEX
  8
LAYER_1
 10
149.2105
 20
-248.7517
  0
VERTEX
  8
LAYER_1
 10
149.2105
 20
-246.5355
  0
VERTEX
  8
LAYER_1
 10
149.8217
 20
-246.5355
  0
VERTEX
  8
LAYER_1
 10
149.8217
 20
-248.7187
 42
-0.1000186514
  0
VERTEX
  8
LAYER_1
 10
149.6875
 20
-249.4569
 42
-0.1214826848
  0
VERTEX
  8
LAYER_1
 10
149.3164
 20
-249.9606
 42
-0.1105884685
  0
VERTEX
  8
LAYER_1
 10
148.6945
 20
-250.2654
 42
-0.06129767201
  0
VERTEX
  8
LAYER_1
 10
148.0509
 20
-250.3406
 42
-0.09420892198
  0
VERTEX
  8
LAYER_1
 10
147.2365
 20
-250.2032
 42
-0.2431575096
  0
VERTEX
  8
LAYER_1
 10
146.4378
 20
-249.2978
 42
-0.06319469768
  0
VERTEX
  8
LAYER_1
 10
146.3707
 20
-248.7404
  0
VERTEX
  8
LAYER_1
 10
146.3707
 20
-246.5355
  0
SEQEND
  0
ENDBLK
  0
BLOCK
  8
LAYER_1
  2
AIGNBL01040008
 70
64
 10
0
 20
0
 30
0
  3
AIGNBL01040008
  0
POLYLINE
  8
LAYER_1
 40
0.05
 41
0.05
 66
1
 10
0
 20
0
 30
0
 70
1
  0
VERTEX
  8
LAYER_1
 10
151.5573
 20
-249.1011
  0
VERTEX
  8
LAYER_1
 10
151.0709
 20
-250.2793
  0
VERTEX
  8
LAYER_1
 10
150.447
 20
-250.2793
  0
VERTEX
  8
LAYER_1
 10
152.0365
 20
-246.5355
  0
VERTEX
  8
LAYER_1
 10
152.7655
 20
-246.5355
  0
VERTEX
  8
LAYER_1
 10
154.3623
 20
-250.2793
  0
VERTEX
  8
LAYER_1
 10
153.7167
 20
-250.2793
  0
VERTEX
  8
LAYER_1
 10
153.2175
 20
-249.1011
  0
SEQEND
  0
POLYLINE
  8
LAYER_1
 40
0.05
 41
0.05
 66
1
 10
0
 20
0
 30
0
 70
1
  0
VERTEX
  8
LAYER_1
 10
153.0921
 20
-248.7245
  0
VERTEX
  8
LAYER_1
 10
152.6332
 20
-247.6459
  0
VERTEX
  8
LAYER_1
 10
152.3897
 20
-246.963
  0
VERTEX
  8
LAYER_1
 10
152.3759
 20
-246.963
  0
VERTEX
  8
LAYER_1
 10
152.1402
 20
-247.6414
  0
VERTEX
  8
LAYER_1
 10
151.682
 20
-248.7245
  0
SEQEND
  0
ENDBLK
  0
BLOCK
  8
LAYER_1
  2
AIGNBL01040009
 70
64
 10
0
 20
0
 30
0
  3
AIGNBL01040009
  0
POLYLINE
  8
LAYER_1
 40
0.05
 41
0.05
 66
1
 10
0
 20
0
 30
0
 70
1
  0
VERTEX
  8
LAYER_1
 10
155.3969
 20
-246.58
 42
-0.03256094069
  0
VERTEX
  8
LAYER_1
 10
156.5576
 20
-246.5072
 42
-0.08241612935
  0
VERTEX
  8
LAYER_1
 10
157.5173
 20
-246.6416
 42
-0.07669938049
  0
VERTEX
  8
LAYER_1
 10
157.8691
 20
-246.8184
 42
-0.2484913661
  0
VERTEX
  8
LAYER_1
 10
158.279
 20
-247.6018
 42
-0.2263535337
  0
VERTEX
  8
LAYER_1
 10
157.9177
 20
-248.4014
 42
-0.1098394792
  0
VERTEX
  8
LAYER_1
 10
157.2932
 20
-248.7128
 42
-0.0656406839
  0
VERTEX
  8
LAYER_1
 10
156.4872
 20
-248.8127
 42
-0.06243203296
  0
VERTEX
  8
LAYER_1
 10
156.0015
 20
-248.7793
  0
VERTEX
  8
LAYER_1
 10
156.0015
 20
-250.2793
  0
VERTEX
  8
LAYER_1
 10
155.3969
 20
-250.2793
  0
SEQEND
  0
POLYLINE
  8
LAYER_1
 40
0.05
 41
0.05
 66
1
 10
0
 20
0
 30
0
 70
1
  0
VERTEX
  8
LAYER_1
 10
156.0015
 20
-248.3852
 42
0.04167858666
  0
VERTEX
  8
LAYER_1
 10
156.501
 20
-248.4245
 42
0.1033682296
  0
VERTEX
  8
LAYER_1
 10
157.216
 20
-248.2977
 42
0.300261568
  0
VERTEX
  8
LAYER_1
 10
157.6751
 20
-247.6242
 42
0.1736095203
  0
VERTEX
  8
LAYER_1
 10
157.5412
 20
-247.2193
 42
0.1518049397
  0
VERTEX
  8
LAYER_1
 10
157.1227
 20
-246.9614
 42
0.06878721899
  0
VERTEX
  8
LAYER_1
 10
156.5713
 20
-246.891
 42
0.0640598863
  0
VERTEX
  8
LAYER_1
 10
156.0015
 20
-246.93
  0
SEQEND
  0
ENDBLK
  0
BLOCK
  8
LAYER_1
  2
AIGNBL0104000A
 70
64
 10
0
 20
0
 30
0
  3
AIGNBL0104000A
  0
POLYLINE
  8
LAYER_1
 40
0.05
 41
0.05
 66
1
 10
0
 20
0
 30
0
 70
1
  0
VERTEX
  8
LAYER_1
 10
159.8218
 20
-246.8352
 42
-0.2759870412
  0
VERTEX
  8
LAYER_1
 10
159.6829
 20
-247.0742
 42
-0.1267055018
  0
VERTEX
  8
LAYER_1
 10
159.4325
 20
-247.1356
 42
-0.2239956238
  0
VERTEX
  8
LAYER_1
 10
159.1241
 20
-247.0039
 42
-0.1705452753
  0
VERTEX
  8
LAYER_1
 10
159.0645
 20
-246.8352
 42
-0.2641883957
  0
VERTEX
  8
LAYER_1
 10
159.2127
 20
-246.5896
 42
-0.1291792354
  0
VERTEX
  8
LAYER_1
 10
159.4459
 20
-246.53
 42
-0.2251681707
  0
VERTEX
  8
LAYER_1
 10
159.761
 20
-246.6599
 42
-0.1693099844
  0
SEQEND
  0
POLYLINE
  8
LAYER_1
 40
0.05
 41
0.05
 66
1
 10
0
 20
0
 30
0
 70
1
  0
VERTEX
  8
LAYER_1
 10
159.1407
 20
-250.2793
  0
VERTEX
  8
LAYER_1
 10
159.1407
 20
-247.5907
  0
VERTEX
  8
LAYER_1
 10
159.7515
 20
-247.5907
  0
VERTEX
  8
LAYER_1
 10
159.7515
 20
-250.2793
  0
SEQEND
  0
ENDBLK
  0
BLOCK
  8
LAYER_1
  2
AIGNBL0104000B
 70
64
 10
0
 20
0
 30
0
  3
AIGNBL0104000B
  0
POLYLINE
  8
LAYER_1
 40
0.05
 41
0.05
 66
1
 10
0
 20
0
 30
0
 70
1
  0
VERTEX
  8
LAYER_1
 10
161.6118
 20
-249.1011
  0
VERTEX
  8
LAYER_1
 10
161.1271
 20
-250.2793
  0
VERTEX
  8
LAYER_1
 10
160.5015
 20
-250.2793
  0
VERTEX
  8
LAYER_1
 10
162.0918
 20
-246.5355
  0
VERTEX
  8
LAYER_1
 10
162.8211
 20
-246.5355
  0
VERTEX
  8
LAYER_1
 10
164.4186
 20
-250.2793
  0
VERTEX
  8
LAYER_1
 10
163.7719
 20
-250.2793
  0
VERTEX
  8
LAYER_1
 10
163.2727
 20
-249.1011
  0
SEQEND
  0
POLYLINE
  8
LAYER_1
 40
0.05
 41
0.05
 66
1
 10
0
 20
0
 30
0
 70
1
  0
VERTEX
  8
LAYER_1
 10
163.1473
 20
-248.7245
  0
VERTEX
  8
LAYER_1
 10
162.6891
 20
-247.6459
  0
VERTEX
  8
LAYER_1
 10
162.4466
 20
-246.963
  0
VERTEX
  8
LAYER_1
 10
162.4321
 20
-246.963
  0
VERTEX
  8
LAYER_1
 10
162.1961
 20
-247.6414
  0
VERTEX
  8
LAYER_1
 10
161.7379
 20
-248.7245
  0
SEQEND
  0
ENDBLK
  0
BLOCK
  8
LAYER_1
  2
AIGNBL01030004
 70
64
 10
0
 20
0
 30
0
  3
AIGNBL01030004
  0
INSERT
  8
LAYER_1
  2
AIGNBL01040005
 10
0
 20
0
 30
0
  0
INSERT
  8
LAYER_1
  2
AIGNBL01040006
 10
0
 20
0
 30
0
  0
INSERT
  8
LAYER_1
  2
AIGNBL01040007
 10
0
 20
0
 30
0
  0
INSERT
  8
LAYER_1
  2
AIGNBL01040008
 10
0
 20
0
 30
0
  0
INSERT
  8
LAYER_1
  2
AIGNBL01040009
 10
0
 20
0
 30
0
  0
INSERT
  8
LAYER_1
  2
AIGNBL0104000A
 10
0
 20
0
 30
0
  0
INSERT
  8
LAYER_1
  2
AIGNBL0104000B
 10
0
 20
0
 30
0
  0
ENDBLK
  0
BLOCK
  8
LAYER_1
  2
AIGNBL0103000D
 70
64
 10
0
 20
0
 30
0
  3
AIGNBL0103000D
  0
POLYLINE
  8
LAYER_1
 40
0.05
 41
0.05
 66
1
 10
0
 20
0
 30
0
 70
1
  0
VERTEX
  8
LAYER_1
 10
137.3756
 20
-252.1676
  0
VERTEX
  8
LAYER_1
 10
137.9258
 20
-252.1676
  0
VERTEX
  8
LAYER_1
 10
137.9258
 20
-252.2609
  0
VERTEX
  8
LAYER_1
 10
137.2715
 20
-252.2609
  0
VERTEX
  8
LAYER_1
 10
137.2715
 20
-251.2339
  0
VERTEX
  8
LAYER_1
 10
137.9082
 20
-251.2339
  0
VERTEX
  8
LAYER_1
 10
137.9082
 20
-251.3266
  0
VERTEX
  8
LAYER_1
 10
137.3756
 20
-251.3266
  0
VERTEX
  8
LAYER_1
 10
137.3756
 20
-251.6787
  0
VERTEX
  8
LAYER_1
 10
137.8734
 20
-251.6787
  0
VERTEX
  8
LAYER_1
 10
137.8734
 20
-251.7717
  0
VERTEX
  8
LAYER_1
 10
137.3756
 20
-251.7717
  0
SEQEND
  0
ENDBLK
  0
BLOCK
  8
LAYER_1
  2
AIGNBL0103000E
 70
64
 10
0
 20
0
 30
0
  3
AIGNBL0103000E
  0
POLYLINE
  8
LAYER_1
 40
0.05
 41
0.05
 66
1
 10
0
 20
0
 30
0
 70
1
  0
VERTEX
  8
LAYER_1
 10
139.0589
 20
-252.1079
  0
VERTEX
  8
LAYER_1
 10
139.0613
 20
-252.1079
  0
VERTEX
  8
LAYER_1
 10
139.0613
 20
-251.2339
  0
VERTEX
  8
LAYER_1
 10
139.1663
 20
-251.2339
  0
VERTEX
  8
LAYER_1
 10
139.1663
 20
-252.2609
  0
VERTEX
  8
LAYER_1
 10
139.0365
 20
-252.2609
  0
VERTEX
  8
LAYER_1
 10
138.4384
 20
-251.3772
  0
VERTEX
  8
LAYER_1
 10
138.435
 20
-251.3772
  0
VERTEX
  8
LAYER_1
 10
138.435
 20
-252.2609
  0
VERTEX
  8
LAYER_1
 10
138.3306
 20
-252.2609
  0
VERTEX
  8
LAYER_1
 10
138.3306
 20
-251.2339
  0
VERTEX
  8
LAYER_1
 10
138.4611
 20
-251.2339
  0
SEQEND
  0
ENDBLK
  0
BLOCK
  8
LAYER_1
  2
AIGNBL0103000F
 70
64
 10
0
 20
0
 30
0
  3
AIGNBL0103000F
  0
POLYLINE
  8
LAYER_1
 40
0.05
 41
0.05
 66
1
 10
0
 20
0
 30
0
 70
1
  0
VERTEX
  8
LAYER_1
 10
139.637
 20
-252.0501
  0
VERTEX
  8
LAYER_1
 10
139.691
 20
-252.1527
 42
0.1791739205
  0
VERTEX
  8
LAYER_1
 10
139.8034
 20
-252.1937
  0
VERTEX
  8
LAYER_1
 10
139.8922
 20
-252.1744
  0
VERTEX
  8
LAYER_1
 10
139.948
 20
-252.1214
  0
VERTEX
  8
LAYER_1
 10
139.9763
 20
-252.0453
  0
VERTEX
  8
LAYER_1
 10
139.9853
 20
-251.956
  0
VERTEX
  8
LAYER_1
 10
139.9853
 20
-251.2339
  0
VERTEX
  8
LAYER_1
 10
140.0893
 20
-251.2339
  0
VERTEX
  8
LAYER_1
 10
140.0893
 20
-251.965
  0
VERTEX
  8
LAYER_1
 10
140.0783
 20
-252.0718
  0
VERTEX
  8
LAYER_1
 10
140.0369
 20
-252.1765
  0
VERTEX
  8
LAYER_1
 10
139.9529
 20
-252.2554
  0
VERTEX
  8
LAYER_1
 10
139.8147
 20
-252.2868
 42
-0.18823279
  0
VERTEX
  8
LAYER_1
 10
139.6311
 20
-252.2268
 42
-0.1779708983
  0
VERTEX
  8
LAYER_1
 10
139.5391
 20
-252.0769
  0
SEQEND
  0
ENDBLK
  0
BLOCK
  8
LAYER_1
  2
AIGNBL01030010
 70
64
 10
0
 20
0
 30
0
  3
AIGNBL01030010
  0
POLYLINE
  8
LAYER_1
 40
0.05
 41
0.05
 66
1
 10
0
 20
0
 30
0
 70
1
  0
VERTEX
  8
LAYER_1
 10
141.5693
 20
-251.7469
 42
-0.104348301
  0
VERTEX
  8
LAYER_1
 10
141.5279
 20
-251.9629
 42
-0.1013865216
  0
VERTEX
  8
LAYER_1
 10
141.4163
 20
-252.1338
  0
VERTEX
  8
LAYER_1
 10
141.2458
 20
-252.2461
 42
-0.09497960855
  0
VERTEX
  8
LAYER_1
 10
141.0332
 20
-252.2868
 42
-0.1003676177
  0
VERTEX
  8
LAYER_1
 10
140.8207
 20
-252.2461
  0
VERTEX
  8
LAYER_1
 10
140.6512
 20
-252.1338
 42
-0.09474436642
  0
VERTEX
  8
LAYER_1
 10
140.5389
 20
-251.9629
 42
-0.09317427323
  0
VERTEX
  8
LAYER_1
 10
140.4986
 20
-251.7469
 42
-0.1052531491
  0
VERTEX
  8
LAYER_1
 10
140.5389
 20
-251.5306
 42
-0.1000138279
  0
VERTEX
  8
LAYER_1
 10
140.6512
 20
-251.3604
 42
-0.09581503346
  0
VERTEX
  8
LAYER_1
 10
140.8207
 20
-251.2481
 42
-0.09561956468
  0
VERTEX
  8
LAYER_1
 10
141.0332
 20
-251.2071
 42
-0.1024782491
  0
VERTEX
  8
LAYER_1
 10
141.2458
 20
-251.2481
 42
-0.1014786584
  0
VERTEX
  8
LAYER_1
 10
141.4163
 20
-251.3604
 42
-0.09815577957
  0
VERTEX
  8
LAYER_1
 10
141.5279
 20
-251.5306
 42
-0.09523735002
  0
SEQEND
  0
POLYLINE
  8
LAYER_1
 40
0.05
 41
0.05
 66
1
 10
0
 20
0
 30
0
 70
1
  0
VERTEX
  8
LAYER_1
 10
141.4584
 20
-251.7476
  0
VERTEX
  8
LAYER_1
 10
141.4301
 20
-251.5767
  0
VERTEX
  8
LAYER_1
 10
141.3454
 20
-251.4344
  0
VERTEX
  8
LAYER_1
 10
141.211
 20
-251.337
 42
0.1026237584
  0
VERTEX
  8
LAYER_1
 10
141.0332
 20
-251.3001
 42
0.1147987019
  0
VERTEX
  8
LAYER_1
 10
140.8558
 20
-251.337
  0
VERTEX
  8
LAYER_1
 10
140.7225
 20
-251.4344
  0
VERTEX
  8
LAYER_1
 10
140.6374
 20
-251.5767
  0
VERTEX
  8
LAYER_1
 10
140.6081
 20
-251.7476
  0
VERTEX
  8
LAYER_1
 10
140.6374
 20
-251.9188
  0
VERTEX
  8
LAYER_1
 10
140.7225
 20
-252.0607
  0
VERTEX
  8
LAYER_1
 10
140.8558
 20
-252.1575
  0
VERTEX
  8
LAYER_1
 10
141.0332
 20
-252.1937
 42
0.1185100977
  0
VERTEX
  8
LAYER_1
 10
141.211
 20
-252.1575
  0
VERTEX
  8
LAYER_1
 10
141.3454
 20
-252.0607
  0
VERTEX
  8
LAYER_1
 10
141.4301
 20
-251.9188
  0
SEQEND
  0
ENDBLK
  0
BLOCK
  8
LAYER_1
  2
AIGNBL01030011
 70
64
 10
0
 20
0
 30
0
  3
AIGNBL01030011
  0
POLYLINE
  8
LAYER_1
 40
0.05
 41
0.05
 66
1
 10
0
 20
0
 30
0
 70
1
  0
VERTEX
  8
LAYER_1
 10
142.3393
 20
-252.2609
  0
VERTEX
  8
LAYER_1
 10
142.2349
 20
-252.2609
  0
VERTEX
  8
LAYER_1
 10
142.2349
 20
-251.8182
  0
VERTEX
  8
LAYER_1
 10
141.8504
 20
-251.2339
  0
VERTEX
  8
LAYER_1
 10
141.9813
 20
-251.2339
  0
VERTEX
  8
LAYER_1
 10
142.2904
 20
-251.7311
  0
VERTEX
  8
LAYER_1
 10
142.6022
 20
-251.2339
  0
VERTEX
  8
LAYER_1
 10
142.7234
 20
-251.2339
  0
VERTEX
  8
LAYER_1
 10
142.3393
 20
-251.8182
  0
SEQEND
  0
ENDBLK
  0
BLOCK
  8
LAYER_1
  2
AIGNBL01030012
 70
64
 10
0
 20
0
 30
0
  3
AIGNBL01030012
  0
POLYLINE
  8
LAYER_1
 40
0.05
 41
0.05
 66
1
 10
0
 20
0
 30
0
 70
1
  0
VERTEX
  8
LAYER_1
 10
143.6236
 20
-251.2339
  0
VERTEX
  8
LAYER_1
 10
143.9288
 20
-251.2339
  0
VERTEX
  8
LAYER_1
 10
144.047
 20
-251.2457
  0
VERTEX
  8
LAYER_1
 10
144.1528
 20
-251.288
  0
VERTEX
  8
LAYER_1
 10
144.2307
 20
-251.3686
  0
VERTEX
  8
LAYER_1
 10
144.2603
 20
-251.4961
 42
-0.1778951175
  0
VERTEX
  8
LAYER_1
 10
144.2103
 20
-251.6373
 42
-0.1614829203
  0
VERTEX
  8
LAYER_1
 10
144.078
 20
-251.7166
  0
VERTEX
  8
LAYER_1
 10
144.078
 20
-251.7194
 42
-0.1736511409
  0
VERTEX
  8
LAYER_1
 10
144.2434
 20
-251.7969
 42
-0.1925337955
  0
VERTEX
  8
LAYER_1
 10
144.3099
 20
-251.9764
  0
VERTEX
  8
LAYER_1
 10
144.2823
 20
-252.0928
  0
VERTEX
  8
LAYER_1
 10
144.2062
 20
-252.1831
  0
VERTEX
  8
LAYER_1
 10
144.0866
 20
-252.2402
  0
VERTEX
  8
LAYER_1
 10
143.9275
 20
-252.2609
  0
VERTEX
  8
LAYER_1
 10
143.6236
 20
-252.2609
  0
SEQEND
  0
POLYLINE
  8
LAYER_1
 40
0.05
 41
0.05
 66
1
 10
0
 20
0
 30
0
 70
1
  0
VERTEX
  8
LAYER_1
 10
143.7277
 20
-251.6832
  0
VERTEX
  8
LAYER_1
 10
143.9382
 20
-251.6832
  0
VERTEX
  8
LAYER_1
 10
144.0146
 20
-251.6742
  0
VERTEX
  8
LAYER_1
 10
144.0842
 20
-251.6453
  0
VERTEX
  8
LAYER_1
 10
144.1362
 20
-251.5888
  0
VERTEX
  8
LAYER_1
 10
144.1552
 20
-251.5034
  0
VERTEX
  8
LAYER_1
 10
144.1362
 20
-251.4203
  0
VERTEX
  8
LAYER_1
 10
144.0835
 20
-251.3638
  0
VERTEX
  8
LAYER_1
 10
144.005
 20
-251.3328
  0
VERTEX
  8
LAYER_1
 10
143.9089
 20
-251.3235
  0
VERTEX
  8
LAYER_1
 10
143.7277
 20
-251.3235
  0
SEQEND
  0
POLYLINE
  8
LAYER_1
 40
0.05
 41
0.05
 66
1
 10
0
 20
0
 30
0
 70
1
  0
VERTEX
  8
LAYER_1
 10
143.7277
 20
-252.171
  0
VERTEX
  8
LAYER_1
 10
143.9223
 20
-252.171
  0
VERTEX
  8
LAYER_1
 10
144.0301
 20
-252.1596
  0
VERTEX
  8
LAYER_1
 10
144.1204
 20
-252.1252
  0
VERTEX
  8
LAYER_1
 10
144.181
 20
-252.0625
  0
VERTEX
  8
LAYER_1
 10
144.2048
 20
-251.9705
 42
0.2546661425
  0
VERTEX
  8
LAYER_1
 10
144.1362
 20
-251.8189
 42
0.138509597
  0
VERTEX
  8
LAYER_1
 10
143.9413
 20
-251.7686
  0
VERTEX
  8
LAYER_1
 10
143.7277
 20
-251.7686
  0
SEQEND
  0
ENDBLK
  0
BLOCK
  8
LAYER_1
  2
AIGNBL01030013
 70
64
 10
0
 20
0
 30
0
  3
AIGNBL01030013
  0
POLYLINE
  8
LAYER_1
 40
0.05
 41
0.05
 66
1
 10
0
 20
0
 30
0
 70
1
  0
VERTEX
  8
LAYER_1
 10
144.7388
 20
-252.2609
  0
VERTEX
  8
LAYER_1
 10
144.6241
 20
-252.2609
  0
VERTEX
  8
LAYER_1
 10
145.0685
 20
-251.2339
  0
VERTEX
  8
LAYER_1
 10
145.1705
 20
-251.2339
  0
VERTEX
  8
LAYER_1
 10
145.6111
 20
-252.2609
  0
VERTEX
  8
LAYER_1
 10
145.4943
 20
-252.2609
  0
VERTEX
  8
LAYER_1
 10
145.3813
 20
-251.9912
  0
VERTEX
  8
LAYER_1
 10
144.8504
 20
-251.9912
  0
SEQEND
  0
POLYLINE
  8
LAYER_1
 40
0.05
 41
0.05
 66
1
 10
0
 20
0
 30
0
 70
1
  0
VERTEX
  8
LAYER_1
 10
144.8894
 20
-251.8947
  0
VERTEX
  8
LAYER_1
 10
145.3424
 20
-251.8947
  0
VERTEX
  8
LAYER_1
 10
145.1164
 20
-251.3493
  0
SEQEND
  0
ENDBLK
  0
BLOCK
  8
LAYER_1
  2
AIGNBL01030014
 70
64
 10
0
 20
0
 30
0
  3
AIGNBL01030014
  0
POLYLINE
  8
LAYER_1
 40
0.05
 41
0.05
 66
1
 10
0
 20
0
 30
0
 70
1
  0
VERTEX
  8
LAYER_1
 10
146.2915
 20
-252.2609
  0
VERTEX
  8
LAYER_1
 10
146.1871
 20
-252.2609
  0
VERTEX
  8
LAYER_1
 10
146.1871
 20
-251.3266
  0
VERTEX
  8
LAYER_1
 10
145.8426
 20
-251.3266
  0
VERTEX
  8
LAYER_1
 10
145.8426
 20
-251.2339
  0
VERTEX
  8
LAYER_1
 10
146.635
 20
-251.2339
  0
VERTEX
  8
LAYER_1
 10
146.635
 20
-251.3266
  0
VERTEX
  8
LAYER_1
 10
146.2915
 20
-251.3266
  0
SEQEND
  0
ENDBLK
  0
BLOCK
  8
LAYER_1
  2
AIGNBL01030015
 70
64
 10
0
 20
0
 30
0
  3
AIGNBL01030015
  0
POLYLINE
  8
LAYER_1
 40
0.05
 41
0.05
 66
1
 10
0
 20
0
 30
0
 70
1
  0
VERTEX
  8
LAYER_1
 10
146.9888
 20
-251.2339
  0
VERTEX
  8
LAYER_1
 10
147.0932
 20
-251.2339
  0
VERTEX
  8
LAYER_1
 10
147.0932
 20
-251.6787
  0
VERTEX
  8
LAYER_1
 10
147.654
 20
-251.6787
  0
VERTEX
  8
LAYER_1
 10
147.654
 20
-251.2339
  0
VERTEX
  8
LAYER_1
 10
147.7581
 20
-251.2339
  0
VERTEX
  8
LAYER_1
 10
147.7581
 20
-252.2609
  0
VERTEX
  8
LAYER_1
 10
147.654
 20
-252.2609
  0
VERTEX
  8
LAYER_1
 10
147.654
 20
-251.7745
  0
VERTEX
  8
LAYER_1
 10
147.0932
 20
-251.7745
  0
VERTEX
  8
LAYER_1
 10
147.0932
 20
-252.2609
  0
VERTEX
  8
LAYER_1
 10
146.9888
 20
-252.2609
  0
SEQEND
  0
ENDBLK
  0
BLOCK
  8
LAYER_1
  2
AIGNBL01030016
 70
64
 10
0
 20
0
 30
0
  3
AIGNBL01030016
  0
POLYLINE
  8
LAYER_1
 40
0.05
 41
0.05
 66
1
 10
0
 20
0
 30
0
 70
1
  0
VERTEX
  8
LAYER_1
 10
148.3351
 20
-252.2609
  0
VERTEX
  8
LAYER_1
 10
148.2311
 20
-252.2609
  0
VERTEX
  8
LAYER_1
 10
148.2311
 20
-251.2339
  0
VERTEX
  8
LAYER_1
 10
148.5322
 20
-251.2339
  0
VERTEX
  8
LAYER_1
 10
148.6724
 20
-251.2481
  0
VERTEX
  8
LAYER_1
 10
148.7844
 20
-251.2953
  0
VERTEX
  8
LAYER_1
 10
148.8571
 20
-251.38
  0
VERTEX
  8
LAYER_1
 10
148.8829
 20
-251.5078
  0
VERTEX
  8
LAYER_1
 10
148.8636
 20
-251.6108
  0
VERTEX
  8
LAYER_1
 10
148.8088
 20
-251.6911
  0
VERTEX
  8
LAYER_1
 10
148.7258
 20
-251.7459
  0
VERTEX
  8
LAYER_1
 10
148.6214
 20
-251.7717
  0
VERTEX
  8
LAYER_1
 10
148.9211
 20
-252.2609
  0
VERTEX
  8
LAYER_1
 10
148.7937
 20
-252.2609
  0
VERTEX
  8
LAYER_1
 10
148.5098
 20
-251.7807
  0
VERTEX
  8
LAYER_1
 10
148.3351
 20
-251.7807
  0
SEQEND
  0
POLYLINE
  8
LAYER_1
 40
0.05
 41
0.05
 66
1
 10
0
 20
0
 30
0
 70
1
  0
VERTEX
  8
LAYER_1
 10
148.3351
 20
-251.6904
  0
VERTEX
  8
LAYER_1
 10
148.517
 20
-251.6904
 42
0.1622417858
  0
VERTEX
  8
LAYER_1
 10
148.711
 20
-251.6453
 42
0.2500476248
  0
VERTEX
  8
LAYER_1
 10
148.7799
 20
-251.5078
  0
VERTEX
  8
LAYER_1
 10
148.7602
 20
-251.4224
  0
VERTEX
  8
LAYER_1
 10
148.7079
 20
-251.3652
  0
VERTEX
  8
LAYER_1
 10
148.6269
 20
-251.3338
  0
VERTEX
  8
LAYER_1
 10
148.5212
 20
-251.3235
  0
VERTEX
  8
LAYER_1
 10
148.3351
 20
-251.3235
  0
SEQEND
  0
ENDBLK
  0
BLOCK
  8
LAYER_1
  2
AIGNBL01030017
 70
64
 10
0
 20
0
 30
0
  3
AIGNBL01030017
  0
POLYLINE
  8
LAYER_1
 40
0.05
 41
0.05
 66
1
 10
0
 20
0
 30
0
 70
1
  0
VERTEX
  8
LAYER_1
 10
150.3154
 20
-251.7469
 42
-0.1015060182
  0
VERTEX
  8
LAYER_1
 10
150.2747
 20
-251.9629
 42
-0.09993540575
  0
VERTEX
  8
LAYER_1
 10
150.1624
 20
-252.1338
 42
-0.09525489566
  0
VERTEX
  8
LAYER_1
 10
149.9926
 20
-252.2461
 42
-0.09491251156
  0
VERTEX
  8
LAYER_1
 10
149.78
 20
-252.2868
 42
-0.1002015795
  0
VERTEX
  8
LAYER_1
 10
149.5674
 20
-252.2461
 42
-0.1016690689
  0
VERTEX
  8
LAYER_1
 10
149.3979
 20
-252.1338
 42
-0.09667300425
  0
VERTEX
  8
LAYER_1
 10
149.2856
 20
-251.9629
 42
-0.09262920428
  0
VERTEX
  8
LAYER_1
 10
149.2453
 20
-251.7469
 42
-0.09846568495
  0
VERTEX
  8
LAYER_1
 10
149.2856
 20
-251.5306
 42
-0.09950302227
  0
VERTEX
  8
LAYER_1
 10
149.3979
 20
-251.3604
 42
-0.09832237419
  0
VERTEX
  8
LAYER_1
 10
149.5674
 20
-251.2481
 42
-0.09564774702
  0
VERTEX
  8
LAYER_1
 10
149.78
 20
-251.2071
 42
-0.1014301699
  0
VERTEX
  8
LAYER_1
 10
149.9926
 20
-251.2481
 42
-0.1041253763
  0
VERTEX
  8
LAYER_1
 10
150.1624
 20
-251.3604
 42
-0.09489987116
  0
VERTEX
  8
LAYER_1
 10
150.2747
 20
-251.5306
 42
-0.09342113907
  0
SEQEND
  0
POLYLINE
  8
LAYER_1
 40
0.05
 41
0.05
 66
1
 10
0
 20
0
 30
0
 70
1
  0
VERTEX
  8
LAYER_1
 10
150.2051
 20
-251.7476
  0
VERTEX
  8
LAYER_1
 10
150.1762
 20
-251.5767
  0
VERTEX
  8
LAYER_1
 10
150.0921
 20
-251.4344
  0
VERTEX
  8
LAYER_1
 10
149.9581
 20
-251.337
 42
0.1022827687
  0
VERTEX
  8
LAYER_1
 10
149.78
 20
-251.3001
 42
0.1183846388
  0
VERTEX
  8
LAYER_1
 10
149.6026
 20
-251.337
  0
VERTEX
  8
LAYER_1
 10
149.4682
 20
-251.4344
  0
VERTEX
  8
LAYER_1
 10
149.3842
 20
-251.5767
  0
VERTEX
  8
LAYER_1
 10
149.3549
 20
-251.7476
  0
VERTEX
  8
LAYER_1
 10
149.3842
 20
-251.9188
  0
VERTEX
  8
LAYER_1
 10
149.4682
 20
-252.0607
  0
VERTEX
  8
LAYER_1
 10
149.6026
 20
-252.1575
 42
0.1007973502
  0
VERTEX
  8
LAYER_1
 10
149.78
 20
-252.1937
  0
VERTEX
  8
LAYER_1
 10
149.9581
 20
-252.1575
  0
VERTEX
  8
LAYER_1
 10
150.0921
 20
-252.0607
  0
VERTEX
  8
LAYER_1
 10
150.1762
 20
-251.9188
  0
SEQEND
  0
ENDBLK
  0
BLOCK
  8
LAYER_1
  2
AIGNBL01030018
 70
64
 10
0
 20
0
 30
0
  3
AIGNBL01030018
  0
POLYLINE
  8
LAYER_1
 40
0.05
 41
0.05
 66
1
 10
0
 20
0
 30
0
 70
1
  0
VERTEX
  8
LAYER_1
 10
151.7489
 20
-251.7469
 42
-0.1017020442
  0
VERTEX
  8
LAYER_1
 10
151.7086
 20
-251.9629
  0
VERTEX
  8
LAYER_1
 10
151.5963
 20
-252.1338
  0
VERTEX
  8
LAYER_1
 10
151.4264
 20
-252.2461
 42
-0.09495021158
  0
VERTEX
  8
LAYER_1
 10
151.2139
 20
-252.2868
 42
-0.1019502388
  0
VERTEX
  8
LAYER_1
 10
151.0013
 20
-252.2461
 42
-0.1021914323
  0
VERTEX
  8
LAYER_1
 10
150.8318
 20
-252.1338
 42
-0.09636018285
  0
VERTEX
  8
LAYER_1
 10
150.7188
 20
-251.9629
 42
-0.09364604827
  0
VERTEX
  8
LAYER_1
 10
150.6781
 20
-251.7469
 42
-0.1001287453
  0
VERTEX
  8
LAYER_1
 10
150.7188
 20
-251.5306
 42
-0.1037227634
  0
VERTEX
  8
LAYER_1
 10
150.8318
 20
-251.3604
 42
-0.0985967677
  0
VERTEX
  8
LAYER_1
 10
151.0013
 20
-251.2481
 42
-0.0957287822
  0
VERTEX
  8
LAYER_1
 10
151.2139
 20
-251.2071
 42
-0.1016365741
  0
VERTEX
  8
LAYER_1
 10
151.4264
 20
-251.2481
 42
-0.09861864621
  0
VERTEX
  8
LAYER_1
 10
151.5963
 20
-251.3604
 42
-0.09487953686
  0
VERTEX
  8
LAYER_1
 10
151.7086
 20
-251.5306
 42
-0.09256741039
  0
SEQEND
  0
POLYLINE
  8
LAYER_1
 40
0.05
 41
0.05
 66
1
 10
0
 20
0
 30
0
 70
1
  0
VERTEX
  8
LAYER_1
 10
151.639
 20
-251.7476
  0
VERTEX
  8
LAYER_1
 10
151.61
 20
-251.5767
  0
VERTEX
  8
LAYER_1
 10
151.526
 20
-251.4344
  0
VERTEX
  8
LAYER_1
 10
151.3916
 20
-251.337
 42
0.1025075331
  0
VERTEX
  8
LAYER_1
 10
151.2139
 20
-251.3001
 42
0.118884027
  0
VERTEX
  8
LAYER_1
 10
151.0361
 20
-251.337
  0
VERTEX
  8
LAYER_1
 10
150.9017
 20
-251.4344
  0
VERTEX
  8
LAYER_1
 10
150.818
 20
-251.5767
  0
VERTEX
  8
LAYER_1
 10
150.7887
 20
-251.7476
  0
VERTEX
  8
LAYER_1
 10
150.818
 20
-251.9188
  0
VERTEX
  8
LAYER_1
 10
150.9017
 20
-252.0607
  0
VERTEX
  8
LAYER_1
 10
151.0361
 20
-252.1575
 42
0.100589677
  0
VERTEX
  8
LAYER_1
 10
151.2139
 20
-252.1937
  0
VERTEX
  8
LAYER_1
 10
151.3916
 20
-252.1575
  0
VERTEX
  8
LAYER_1
 10
151.526
 20
-252.0607
  0
VERTEX
  8
LAYER_1
 10
151.61
 20
-251.9188
  0
SEQEND
  0
ENDBLK
  0
BLOCK
  8
LAYER_1
  2
AIGNBL01030019
 70
64
 10
0
 20
0
 30
0
  3
AIGNBL01030019
  0
POLYLINE
  8
LAYER_1
 40
0.05
 41
0.05
 66
1
 10
0
 20
0
 30
0
 70
1
  0
VERTEX
  8
LAYER_1
 10
152.6742
 20
-252.0839
  0
VERTEX
  8
LAYER_1
 10
152.6756
 20
-252.0839
  0
VERTEX
  8
LAYER_1
 10
153.0194
 20
-251.2339
  0
VERTEX
  8
LAYER_1
 10
153.1793
 20
-251.2339
  0
VERTEX
  8
LAYER_1
 10
153.1793
 20
-252.2609
  0
VERTEX
  8
LAYER_1
 10
153.0749
 20
-252.2609
  0
VERTEX
  8
LAYER_1
 10
153.0749
 20
-251.3686
  0
VERTEX
  8
LAYER_1
 10
153.0718
 20
-251.3686
  0
VERTEX
  8
LAYER_1
 10
152.7007
 20
-252.2609
  0
VERTEX
  8
LAYER_1
 10
152.646
 20
-252.2609
  0
VERTEX
  8
LAYER_1
 10
152.2743
 20
-251.3686
  0
VERTEX
  8
LAYER_1
 10
152.2708
 20
-251.3686
  0
VERTEX
  8
LAYER_1
 10
152.2708
 20
-252.2609
  0
VERTEX
  8
LAYER_1
 10
152.1668
 20
-252.2609
  0
VERTEX
  8
LAYER_1
 10
152.1668
 20
-251.2339
  0
VERTEX
  8
LAYER_1
 10
152.327
 20
-251.2339
  0
SEQEND
  0
ENDBLK
  0
BLOCK
  8
LAYER_1
  2
AIGNBL0103001A
 70
64
 10
0
 20
0
 30
0
  3
AIGNBL0103001A
  0
POLYLINE
  8
LAYER_1
 40
0.05
 41
0.05
 66
1
 10
0
 20
0
 30
0
 70
1
  0
VERTEX
  8
LAYER_1
 10
154.3196
 20
-252.1676
  0
VERTEX
  8
LAYER_1
 10
154.8694
 20
-252.1676
  0
VERTEX
  8
LAYER_1
 10
154.8694
 20
-252.2609
  0
VERTEX
  8
LAYER_1
 10
154.2145
 20
-252.2609
  0
VERTEX
  8
LAYER_1
 10
154.2145
 20
-251.2339
  0
VERTEX
  8
LAYER_1
 10
154.8522
 20
-251.2339
  0
VERTEX
  8
LAYER_1
 10
154.8522
 20
-251.3263
  0
VERTEX
  8
LAYER_1
 10
154.3196
 20
-251.3263
  0
VERTEX
  8
LAYER_1
 10
154.3196
 20
-251.6787
  0
VERTEX
  8
LAYER_1
 10
154.8167
 20
-251.6787
  0
VERTEX
  8
LAYER_1
 10
154.8167
 20
-251.7717
  0
VERTEX
  8
LAYER_1
 10
154.3196
 20
-251.7717
  0
SEQEND
  0
ENDBLK
  0
BLOCK
  8
LAYER_1
  2
AIGNBL0103001B
 70
64
 10
0
 20
0
 30
0
  3
AIGNBL0103001B
  0
POLYLINE
  8
LAYER_1
 40
0.05
 41
0.05
 66
1
 10
0
 20
0
 30
0
 70
1
  0
VERTEX
  8
LAYER_1
 10
155.6101
 20
-251.6484
  0
VERTEX
  8
LAYER_1
 10
155.8906
 20
-251.2339
  0
VERTEX
  8
LAYER_1
 10
156.0153
 20
-251.2339
  0
VERTEX
  8
LAYER_1
 10
155.6749
 20
-251.7221
  0
VERTEX
  8
LAYER_1
 10
156.0518
 20
-252.2609
  0
VERTEX
  8
LAYER_1
 10
155.9216
 20
-252.2609
  0
VERTEX
  8
LAYER_1
 10
155.6081
 20
-251.7979
  0
VERTEX
  8
LAYER_1
 10
155.296
 20
-252.2609
  0
VERTEX
  8
LAYER_1
 10
155.165
 20
-252.2609
  0
VERTEX
  8
LAYER_1
 10
155.5426
 20
-251.7211
  0
VERTEX
  8
LAYER_1
 10
155.1988
 20
-251.2339
  0
VERTEX
  8
LAYER_1
 10
155.329
 20
-251.2339
  0
SEQEND
  0
ENDBLK
  0
BLOCK
  8
LAYER_1
  2
AIGNBL0103001C
 70
64
 10
0
 20
0
 30
0
  3
AIGNBL0103001C
  0
POLYLINE
  8
LAYER_1
 40
0.05
 41
0.05
 66
1
 10
0
 20
0
 30
0
 70
1
  0
VERTEX
  8
LAYER_1
 10
156.4159
 20
-251.2339
  0
VERTEX
  8
LAYER_1
 10
156.706
 20
-251.2339
  0
VERTEX
  8
LAYER_1
 10
156.8487
 20
-251.2498
  0
VERTEX
  8
LAYER_1
 10
156.9575
 20
-251.3015
  0
VERTEX
  8
LAYER_1
 10
157.0288
 20
-251.3866
  0
VERTEX
  8
LAYER_1
 10
157.053
 20
-251.5078
  0
VERTEX
  8
LAYER_1
 10
157.0281
 20
-251.6291
  0
VERTEX
  8
LAYER_1
 10
156.9568
 20
-251.7145
  0
VERTEX
  8
LAYER_1
 10
156.8459
 20
-251.7659
  0
VERTEX
  8
LAYER_1
 10
156.7032
 20
-251.7831
  0
VERTEX
  8
LAYER_1
 10
156.5203
 20
-251.7831
  0
VERTEX
  8
LAYER_1
 10
156.5203
 20
-252.2609
  0
VERTEX
  8
LAYER_1
 10
156.4159
 20
-252.2609
  0
SEQEND
  0
POLYLINE
  8
LAYER_1
 40
0.05
 41
0.05
 66
1
 10
0
 20
0
 30
0
 70
1
  0
VERTEX
  8
LAYER_1
 10
156.5203
 20
-251.6949
  0
VERTEX
  8
LAYER_1
 10
156.6974
 20
-251.6949
 42
0.179800284
  0
VERTEX
  8
LAYER_1
 10
156.8848
 20
-251.6474
 42
0.2343125845
  0
VERTEX
  8
LAYER_1
 10
156.9489
 20
-251.5078
 42
0.2635647854
  0
VERTEX
  8
LAYER_1
 10
156.8824
 20
-251.3676
 42
0.1265134521
  0
VERTEX
  8
LAYER_1
 10
156.6974
 20
-251.3235
  0
VERTEX
  8
LAYER_1
 10
156.5203
 20
-251.3235
  0
SEQEND
  0
ENDBLK
  0
BLOCK
  8
LAYER_1
  2
AIGNBL0103001D
 70
64
 10
0
 20
0
 30
0
  3
AIGNBL0103001D
  0
POLYLINE
  8
LAYER_1
 40
0.05
 41
0.05
 66
1
 10
0
 20
0
 30
0
 70
1
  0
VERTEX
  8
LAYER_1
 10
157.5621
 20
-252.1676
  0
VERTEX
  8
LAYER_1
 10
158.1116
 20
-252.1676
  0
VERTEX
  8
LAYER_1
 10
158.1116
 20
-252.2609
  0
VERTEX
  8
LAYER_1
 10
157.4577
 20
-252.2609
  0
VERTEX
  8
LAYER_1
 10
157.4577
 20
-251.2339
  0
VERTEX
  8
LAYER_1
 10
158.0947
 20
-251.2339
  0
VERTEX
  8
LAYER_1
 10
158.0947
 20
-251.3263
  0
VERTEX
  8
LAYER_1
 10
157.5621
 20
-251.3263
  0
VERTEX
  8
LAYER_1
 10
157.5621
 20
-251.6787
  0
VERTEX
  8
LAYER_1
 10
158.0599
 20
-251.6787
  0
VERTEX
  8
LAYER_1
 10
158.0599
 20
-251.7717
  0
VERTEX
  8
LAYER_1
 10
157.5621
 20
-251.7717
  0
SEQEND
  0
ENDBLK
  0
BLOCK
  8
LAYER_1
  2
AIGNBL0103001E
 70
64
 10
0
 20
0
 30
0
  3
AIGNBL0103001E
  0
POLYLINE
  8
LAYER_1
 40
0.05
 41
0.05
 66
1
 10
0
 20
0
 30
0
 70
1
  0
VERTEX
  8
LAYER_1
 10
158.6208
 20
-252.2609
  0
VERTEX
  8
LAYER_1
 10
158.5168
 20
-252.2609
  0
VERTEX
  8
LAYER_1
 10
158.5168
 20
-251.2339
  0
VERTEX
  8
LAYER_1
 10
158.8185
 20
-251.2339
  0
VERTEX
  8
LAYER_1
 10
158.9584
 20
-251.2481
  0
VERTEX
  8
LAYER_1
 10
159.07
 20
-251.2953
  0
VERTEX
  8
LAYER_1
 10
159.1438
 20
-251.38
  0
VERTEX
  8
LAYER_1
 10
159.1696
 20
-251.5078
  0
VERTEX
  8
LAYER_1
 10
159.1493
 20
-251.6105
  0
VERTEX
  8
LAYER_1
 10
159.0945
 20
-251.6915
  0
VERTEX
  8
LAYER_1
 10
159.0111
 20
-251.7459
  0
VERTEX
  8
LAYER_1
 10
158.9067
 20
-251.7717
  0
VERTEX
  8
LAYER_1
 10
159.2075
 20
-252.2609
  0
VERTEX
  8
LAYER_1
 10
159.08
 20
-252.2609
  0
VERTEX
  8
LAYER_1
 10
158.7955
 20
-251.7803
  0
VERTEX
  8
LAYER_1
 10
158.6208
 20
-251.7803
  0
SEQEND
  0
POLYLINE
  8
LAYER_1
 40
0.05
 41
0.05
 66
1
 10
0
 20
0
 30
0
 70
1
  0
VERTEX
  8
LAYER_1
 10
158.6208
 20
-251.69
  0
VERTEX
  8
LAYER_1
 10
158.8027
 20
-251.69
 42
0.1625850216
  0
VERTEX
  8
LAYER_1
 10
158.9974
 20
-251.6453
 42
0.2500143464
  0
VERTEX
  8
LAYER_1
 10
159.0652
 20
-251.5078
  0
VERTEX
  8
LAYER_1
 10
159.047
 20
-251.4224
  0
VERTEX
  8
LAYER_1
 10
158.9943
 20
-251.3652
  0
VERTEX
  8
LAYER_1
 10
158.9123
 20
-251.3338
  0
VERTEX
  8
LAYER_1
 10
158.8065
 20
-251.3235
  0
VERTEX
  8
LAYER_1
 10
158.6208
 20
-251.3235
  0
SEQEND
  0
ENDBLK
  0
BLOCK
  8
LAYER_1
  2
AIGNBL0103001F
 70
64
 10
0
 20
0
 30
0
  3
AIGNBL0103001F
  0
POLYLINE
  8
LAYER_1
 40
0.05
 41
0.05
 66
1
 10
0
 20
0
 30
0
 70
1
  0
VERTEX
  8
LAYER_1
 10
159.6898
 20
-252.2609
  0
VERTEX
  8
LAYER_1
 10
159.5865
 20
-252.2609
  0
VERTEX
  8
LAYER_1
 10
159.5865
 20
-251.2339
  0
VERTEX
  8
LAYER_1
 10
159.6898
 20
-251.2339
  0
SEQEND
  0
ENDBLK
  0
BLOCK
  8
LAYER_1
  2
AIGNBL01030020
 70
64
 10
0
 20
0
 30
0
  3
AIGNBL01030020
  0
POLYLINE
  8
LAYER_1
 40
0.05
 41
0.05
 66
1
 10
0
 20
0
 30
0
 70
1
  0
VERTEX
  8
LAYER_1
 10
160.2676
 20
-252.1676
  0
VERTEX
  8
LAYER_1
 10
160.8174
 20
-252.1676
  0
VERTEX
  8
LAYER_1
 10
160.8174
 20
-252.2609
  0
VERTEX
  8
LAYER_1
 10
160.1639
 20
-252.2609
  0
VERTEX
  8
LAYER_1
 10
160.1639
 20
-251.2339
  0
VERTEX
  8
LAYER_1
 10
160.8005
 20
-251.2339
  0
VERTEX
  8
LAYER_1
 10
160.8005
 20
-251.3263
  0
VERTEX
  8
LAYER_1
 10
160.2676
 20
-251.3263
  0
VERTEX
  8
LAYER_1
 10
160.2676
 20
-251.6787
  0
VERTEX
  8
LAYER_1
 10
160.7654
 20
-251.6787
  0
VERTEX
  8
LAYER_1
 10
160.7654
 20
-251.7717
  0
VERTEX
  8
LAYER_1
 10
160.2676
 20
-251.7717
  0
SEQEND
  0
ENDBLK
  0
BLOCK
  8
LAYER_1
  2
AIGNBL01030021
 70
64
 10
0
 20
0
 30
0
  3
AIGNBL01030021
  0
POLYLINE
  8
LAYER_1
 40
0.05
 41
0.05
 66
1
 10
0
 20
0
 30
0
 70
1
  0
VERTEX
  8
LAYER_1
 10
161.9505
 20
-252.1079
  0
VERTEX
  8
LAYER_1
 10
161.9536
 20
-252.1079
  0
VERTEX
  8
LAYER_1
 10
161.9536
 20
-251.2339
  0
VERTEX
  8
LAYER_1
 10
162.058
 20
-251.2339
  0
VERTEX
  8
LAYER_1
 10
162.058
 20
-252.2609
  0
VERTEX
  8
LAYER_1
 10
161.9277
 20
-252.2609
  0
VERTEX
  8
LAYER_1
 10
161.3297
 20
-251.3772
  0
VERTEX
  8
LAYER_1
 10
161.3266
 20
-251.3772
  0
VERTEX
  8
LAYER_1
 10
161.3266
 20
-252.2609
  0
VERTEX
  8
LAYER_1
 10
161.2222
 20
-252.2609
  0
VERTEX
  8
LAYER_1
 10
161.2222
 20
-251.2339
  0
VERTEX
  8
LAYER_1
 10
161.3535
 20
-251.2339
  0
SEQEND
  0
ENDBLK
  0
BLOCK
  8
LAYER_1
  2
AIGNBL01030022
 70
64
 10
0
 20
0
 30
0
  3
AIGNBL01030022
  0
POLYLINE
  8
LAYER_1
 40
0.05
 41
0.05
 66
1
 10
0
 20
0
 30
0
 70
1
  0
VERTEX
  8
LAYER_1
 10
163.396
 20
-252.0942
  0
VERTEX
  8
LAYER_1
 10
163.3323
 20
-252.1679
  0
VERTEX
  8
LAYER_1
 10
163.2469
 20
-252.2295
  0
VERTEX
  8
LAYER_1
 10
163.1394
 20
-252.2716
  0
VERTEX
  8
LAYER_1
 10
163.0112
 20
-252.2868
 42
-0.1009164681
  0
VERTEX
  8
LAYER_1
 10
162.7966
 20
-252.2461
 42
-0.1027581013
  0
VERTEX
  8
LAYER_1
 10
162.6271
 20
-252.1335
 42
-0.1010578842
  0
VERTEX
  8
LAYER_1
 10
162.5162
 20
-251.9633
 42
-0.09298732079
  0
VERTEX
  8
LAYER_1
 10
162.4759
 20
-251.7469
 42
-0.1023262951
  0
VERTEX
  8
LAYER_1
 10
162.5169
 20
-251.5306
 42
-0.1009138363
  0
VERTEX
  8
LAYER_1
 10
162.6285
 20
-251.3604
  0
VERTEX
  8
LAYER_1
 10
162.798
 20
-251.2481
 42
-0.09535690024
  0
VERTEX
  8
LAYER_1
 10
163.0112
 20
-251.2071
  0
VERTEX
  8
LAYER_1
 10
163.1222
 20
-251.2191
  0
VERTEX
  8
LAYER_1
 10
163.2252
 20
-251.2522
  0
VERTEX
  8
LAYER_1
 10
163.3117
 20
-251.3035
  0
VERTEX
  8
LAYER_1
 10
163.3767
 20
-251.3711
  0
VERTEX
  8
LAYER_1
 10
163.2906
 20
-251.4355
  0
VERTEX
  8
LAYER_1
 10
163.2469
 20
-251.3858
  0
VERTEX
  8
LAYER_1
 10
163.1835
 20
-251.3421
  0
VERTEX
  8
LAYER_1
 10
163.1043
 20
-251.3114
  0
VERTEX
  8
LAYER_1
 10
163.0126
 20
-251.3001
  0
VERTEX
  8
LAYER_1
 10
162.8338
 20
-251.3362
  0
VERTEX
  8
LAYER_1
 10
162.6998
 20
-251.4338
  0
VERTEX
  8
LAYER_1
 10
162.6147
 20
-251.5764
  0
VERTEX
  8
LAYER_1
 10
162.5868
 20
-251.7469
  0
VERTEX
  8
LAYER_1
 10
162.6164
 20
-251.9178
  0
VERTEX
  8
LAYER_1
 10
162.7012
 20
-252.0601
  0
VERTEX
  8
LAYER_1
 10
162.8356
 20
-252.1575
 42
0.1012189446
  0
VERTEX
  8
LAYER_1
 10
163.0126
 20
-252.1937
  0
VERTEX
  8
LAYER_1
 10
163.1804
 20
-252.1575
 42
0.1297589768
  0
VERTEX
  8
LAYER_1
 10
163.3148
 20
-252.0414
  0
SEQEND
  0
ENDBLK
  0
BLOCK
  8
LAYER_1
  2
AIGNBL01030023
 70
64
 10
0
 20
0
 30
0
  3
AIGNBL01030023
  0
POLYLINE
  8
LAYER_1
 40
0.05
 41
0.05
 66
1
 10
0
 20
0
 30
0
 70
1
  0
VERTEX
  8
LAYER_1
 10
163.8801
 20
-252.1676
  0
VERTEX
  8
LAYER_1
 10
164.4299
 20
-252.1676
  0
VERTEX
  8
LAYER_1
 10
164.4299
 20
-252.2609
  0
VERTEX
  8
LAYER_1
 10
163.7764
 20
-252.2609
  0
VERTEX
  8
LAYER_1
 10
163.7764
 20
-251.2339
  0
VERTEX
  8
LAYER_1
 10
164.4127
 20
-251.2339
  0
VERTEX
  8
LAYER_1
 10
164.4127
 20
-251.3263
  0
VERTEX
  8
LAYER_1
 10
163.8801
 20
-251.3263
  0
VERTEX
  8
LAYER_1
 10
163.8801
 20
-251.6787
  0
VERTEX
  8
LAYER_1
 10
164.3782
 20
-251.6787
  0
VERTEX
  8
LAYER_1
 10
164.3782
 20
-251.7717
  0
VERTEX
  8
LAYER_1
 10
163.8801
 20
-251.7717
  0
SEQEND
  0
ENDBLK
  0
BLOCK
  8
LAYER_1
  2
AIGNBL01020003
 70
64
 10
0
 20
0
 30
0
  3
AIGNBL01020003
  0
INSERT
  8
LAYER_1
  2
AIGNBL01030004
 10
0
 20
0
 30
0
  0
ENDBLK
  0
BLOCK
  8
LAYER_1
  2
AIGNBL0102000C
 70
64
 10
0
 20
0
 30
0
  3
AIGNBL0102000C
  0
INSERT
  8
LAYER_1
  2
AIGNBL0103000D
 10
0
 20
0
 30
0
  0
INSERT
  8
LAYER_1
  2
AIGNBL0103000E
 10
0
 20
0
 30
0
  0
INSERT
  8
LAYER_1
  2
AIGNBL0103000F
 10
0
 20
0
 30
0
  0
INSERT
  8
LAYER_1
  2
AIGNBL01030010
 10
0
 20
0
 30
0
  0
INSERT
  8
LAYER_1
  2
AIGNBL01030011
 10
0
 20
0
 30
0
  0
INSERT
  8
LAYER_1
  2
AIGNBL01030012
 10
0
 20
0
 30
0
  0
INSERT
  8
LAYER_1
  2
AIGNBL01030013
 10
0
 20
0
 30
0
  0
INSERT
  8
LAYER_1
  2
AIGNBL01030014
 10
0
 20
0
 30
0
  0
INSERT
  8
LAYER_1
  2
AIGNBL01030015
 10
0
 20
0
 30
0
  0
INSERT
  8
LAYER_1
  2
AIGNBL01030016
 10
0
 20
0
 30
0
  0
INSERT
  8
LAYER_1
  2
AIGNBL01030017
 10
0
 20
0
 30
0
  0
INSERT
  8
LAYER_1
  2
AIGNBL01030018
 10
0
 20
0
 30
0
  0
INSERT
  8
LAYER_1
  2
AIGNBL01030019
 10
0
 20
0
 30
0
  0
INSERT
  8
LAYER_1
  2
AIGNBL0103001A
 10
0
 20
0
 30
0
  0
INSERT
  8
LAYER_1
  2
AIGNBL0103001B
 10
0
 20
0
 30
0
  0
INSERT
  8
LAYER_1
  2
AIGNBL0103001C
 10
0
 20
0
 30
0
  0
INSERT
  8
LAYER_1
  2
AIGNBL0103001D
 10
0
 20
0
 30
0
  0
INSERT
  8
LAYER_1
  2
AIGNBL0103001E
 10
0
 20
0
 30
0
  0
INSERT
  8
LAYER_1
  2
AIGNBL0103001F
 10
0
 20
0
 30
0
  0
INSERT
  8
LAYER_1
  2
AIGNBL01030020
 10
0
 20
0
 30
0
  0
INSERT
  8
LAYER_1
  2
AIGNBL01030021
 10
0
 20
0
 30
0
  0
INSERT
  8
LAYER_1
  2
AIGNBL01030022
 10
0
 20
0
 30
0
  0
INSERT
  8
LAYER_1
  2
AIGNBL01030023
 10
0
 20
0
 30
0
  0
ENDBLK
  0
BLOCK
  8
LAYER_1
  2
AIGNBL01020025
 70
64
 10
0
 20
0
 30
0
  3
AIGNBL01020025
  0
POLYLINE
  8
LAYER_1
 40
0.1058
 41
0.1058
 66
1
 10
0
 20
0
 30
0
  0
VERTEX
  8
LAYER_1
 10
184.1104
 20
-124.8903
  0
VERTEX
  8
LAYER_1
 10
185.6293
 20
-124.8903
  0
SEQEND
  0
ENDBLK
  0
BLOCK
  8
LAYER_1
  2
AIGNBL01020026
 70
64
 10
0
 20
0
 30
0
  3
AIGNBL01020026
  0
POLYLINE
  8
LAYER_1
 40
0.1058
 41
0.1058
 66
1
 10
0
 20
0
 30
0
  0
VERTEX
  8
LAYER_1
 10
171.1335
 20
-80.2642
  0
VERTEX
  8
LAYER_1
 10
185.6293
 20
-80.2642
  0
SEQEND
  0
ENDBLK
  0
BLOCK
  8
LAYER_1
  2
AIGNBL01020027
 70
64
 10
0
 20
0
 30
0
  3
AIGNBL01020027
  0
POLYLINE
  8
LAYER_1
 40
0.1058
 41
0.1058
 66
1
 10
0
 20
0
 30
0
  0
VERTEX
  8
LAYER_1
 10
185.3793
 20
-123.8903
  0
VERTEX
  8
LAYER_1
 10
185.3793
 20
-81.2642
  0
SEQEND
  0
ENDBLK
  0
BLOCK
  8
LAYER_1
  2
AIGNBL01020028
 70
64
 10
0
 20
0
 30
0
  3
AIGNBL01020028
  0
POLYLINE
  8
LAYER_1
 40
0.05
 41
0.05
 66
1
 10
0
 20
0
 30
0
 70
1
  0
VERTEX
  8
LAYER_1
 10
185.2127
 20
-123.8903
  0
VERTEX
  8
LAYER_1
 10
185.546
 20
-123.8903
  0
VERTEX
  8
LAYER_1
 10
185.3793
 20
-124.8903
  0
SEQEND
  0
ENDBLK
  0
BLOCK
  8
LAYER_1
  2
AIGNBL01020029
 70
64
 10
0
 20
0
 30
0
  3
AIGNBL01020029
  0
POLYLINE
  8
LAYER_1
 40
0.05
 41
0.05
 66
1
 10
0
 20
0
 30
0
 70
1
  0
VERTEX
  8
LAYER_1
 10
185.2127
 20
-81.2642
  0
VERTEX
  8
LAYER_1
 10
185.546
 20
-81.2642
  0
VERTEX
  8
LAYER_1
 10
185.3793
 20
-80.2642
  0
SEQEND
  0
ENDBLK
  0
BLOCK
  8
LAYER_1
  2
AIGNBL0102002A
 70
64
 10
0
 20
0
 30
0
  3
AIGNBL0102002A
  0
TEXT
  8
LAYER_1
 10
185.0558
 20
-106.078
 11
185.0558
 21
-106.078
 40
4.0981
 41
0.5
 50
89.99999999
  1
178
  0
ENDBLK
  0
BLOCK
  8
LAYER_1
  2
AIGNBL0102002C
 70
64
 10
0
 20
0
 30
0
  3
AIGNBL0102002C
  0
POLYLINE
  8
LAYER_1
 40
0.1058
 41
0.1058
 66
1
 10
0
 20
0
 30
0
  0
VERTEX
  8
LAYER_1
 10
170.7583
 20
-78.9891
  0
VERTEX
  8
LAYER_1
 10
170.7583
 20
-73.4914
  0
SEQEND
  0
ENDBLK
  0
BLOCK
  8
LAYER_1
  2
AIGNBL0102002D
 70
64
 10
0
 20
0
 30
0
  3
AIGNBL0102002D
  0
POLYLINE
  8
LAYER_1
 40
0.1058
 41
0.1058
 66
1
 10
0
 20
0
 30
0
  0
VERTEX
  8
LAYER_1
 10
158.1756
 20
-84.5821
  0
VERTEX
  8
LAYER_1
 10
154.1743
 20
-81.2247
  0
SEQEND
  0
ENDBLK
  0
BLOCK
  8
LAYER_1
  2
AIGNBL0102002E
 70
64
 10
0
 20
0
 30
0
  3
AIGNBL0102002E
  0
POLYLINE
  8
LAYER_1
 40
0.1058
 41
0.1058
 66
1
 10
0
 20
0
 30
0
  0
VERTEX
  8
LAYER_1
 10
169.7586
 20
-73.7648
 42
0.1973002473
  0
VERTEX
  8
LAYER_1
 10
155.0263
 20
-80.6345
  0
SEQEND
  0
ENDBLK
  0
BLOCK
  8
LAYER_1
  2
AIGNBL0102002F
 70
64
 10
0
 20
0
 30
0
  3
AIGNBL0102002F
  0
POLYLINE
  8
LAYER_1
 40
0.05
 41
0.05
 66
1
 10
0
 20
0
 30
0
 70
1
  0
VERTEX
  8
LAYER_1
 10
169.7547
 20
-73.5981
  0
VERTEX
  8
LAYER_1
 10
169.7625
 20
-73.9314
  0
VERTEX
  8
LAYER_1
 10
170.7583
 20
-73.7414
  0
SEQEND
  0
ENDBLK
  0
BLOCK
  8
LAYER_1
  2
AIGNBL01020030
 70
64
 10
0
 20
0
 30
0
  3
AIGNBL01020030
  0
POLYLINE
  8
LAYER_1
 40
0.05
 41
0.05
 66
1
 10
0
 20
0
 30
0
 70
1
  0
VERTEX
  8
LAYER_1
 10
155.1515
 20
-80.7446
  0
VERTEX
  8
LAYER_1
 10
154.9012
 20
-80.5245
  0
VERTEX
  8
LAYER_1
 10
154.3658
 20
-81.3854
  0
SEQEND
  0
ENDBLK
  0
BLOCK
  8
LAYER_1
  2
AIGNBL01020031
 70
64
 10
0
 20
0
 30
0
  3
AIGNBL01020031
  0
TEXT
  8
LAYER_1
 10
158.6479
 20
-76.8363
 11
158.6479
 21
-76.8363
 40
4.0981
 41
0.5
 50
25.00003906
  1
50%%d
  0
ENDBLK
  0
BLOCK
  8
LAYER_1
  2
AIGNBL01020033
 70
64
 10
0
 20
0
 30
0
  3
AIGNBL01020033
  0
POLYLINE
  8
LAYER_1
 40
0.1058
 41
0.1058
 66
1
 10
0
 20
0
 30
0
  0
VERTEX
  8
LAYER_1
 10
158.1756
 20
-84.5821
  0
VERTEX
  8
LAYER_1
 10
154.1743
 20
-81.2247
  0
SEQEND
  0
ENDBLK
  0
BLOCK
  8
LAYER_1
  2
AIGNBL01020034
 70
64
 10
0
 20
0
 30
0
  3
AIGNBL01020034
  0
POLYLINE
  8
LAYER_1
 40
0.1058
 41
0.1058
 66
1
 10
0
 20
0
 30
0
  0
VERTEX
  8
LAYER_1
 10
154.6371
 20
-97.9819
  0
VERTEX
  8
LAYER_1
 10
149.4386
 20
-98.8985
  0
SEQEND
  0
ENDBLK
  0
BLOCK
  8
LAYER_1
  2
AIGNBL01020035
 70
64
 10
0
 20
0
 30
0
  3
AIGNBL01020035
  0
POLYLINE
  8
LAYER_1
 40
0.1058
 41
0.1058
 66
1
 10
0
 20
0
 30
0
  0
VERTEX
  8
LAYER_1
 10
153.7411
 20
-82.1662
 42
0.197298769
  0
VERTEX
  8
LAYER_1
 10
149.5342
 20
-97.8665
  0
SEQEND
  0
ENDBLK
  0
BLOCK
  8
LAYER_1
  2
AIGNBL01020036
 70
64
 10
0
 20
0
 30
0
  3
AIGNBL01020036
  0
POLYLINE
  8
LAYER_1
 40
0.05
 41
0.05
 66
1
 10
0
 20
0
 30
0
 70
1
  0
VERTEX
  8
LAYER_1
 10
153.611
 20
-82.0621
  0
VERTEX
  8
LAYER_1
 10
153.8713
 20
-82.2703
  0
VERTEX
  8
LAYER_1
 10
154.3658
 20
-81.3854
  0
SEQEND
  0
ENDBLK
  0
BLOCK
  8
LAYER_1
  2
AIGNBL01020037
 70
64
 10
0
 20
0
 30
0
  3
AIGNBL01020037
  0
POLYLINE
  8
LAYER_1
 40
0.05
 41
0.05
 66
1
 10
0
 20
0
 30
0
 70
1
  0
VERTEX
  8
LAYER_1
 10
149.699
 20
-97.8414
  0
VERTEX
  8
LAYER_1
 10
149.3695
 20
-97.8916
  0
VERTEX
  8
LAYER_1
 10
149.6848
 20
-98.8551
  0
SEQEND
  0
ENDBLK
  0
BLOCK
  8
LAYER_1
  2
AIGNBL01020038
 70
64
 10
0
 20
0
 30
0
  3
AIGNBL01020038
  0
TEXT
  8
LAYER_1
 10
149.7847
 20
-88.6807
 11
149.7847
 21
-88.6807
 40
4.0981
 41
0.5
 50
64.37946626
  1
50%%d
  0
ENDBLK
  0
BLOCK
  8
LAYER_1
  2
AIGNBL0102003A
 70
64
 10
0
 20
0
 30
0
  3
AIGNBL0102003A
  0
POLYLINE
  8
LAYER_1
 40
0.1058
 41
0.1058
 66
1
 10
0
 20
0
 30
0
  0
VERTEX
  8
LAYER_1
 10
170.7583
 20
-72.6931
  0
VERTEX
  8
LAYER_1
 10
170.7583
 20
-69.672
  0
SEQEND
  0
ENDBLK
  0
BLOCK
  8
LAYER_1
  2
AIGNBL0102003B
 70
64
 10
0
 20
0
 30
0
  3
AIGNBL0102003B
  0
POLYLINE
  8
LAYER_1
 40
0.1058
 41
0.1058
 66
1
 10
0
 20
0
 30
0
  0
VERTEX
  8
LAYER_1
 10
138.3833
 20
-89.0653
  0
VERTEX
  8
LAYER_1
 10
138.3833
 20
-69.672
  0
SEQEND
  0
ENDBLK
  0
BLOCK
  8
LAYER_1
  2
AIGNBL0102003C
 70
64
 10
0
 20
0
 30
0
  3
AIGNBL0102003C
  0
POLYLINE
  8
LAYER_1
 40
0.1058
 41
0.1058
 66
1
 10
0
 20
0
 30
0
  0
VERTEX
  8
LAYER_1
 10
169.7583
 20
-69.922
  0
VERTEX
  8
LAYER_1
 10
139.3833
 20
-69.922
  0
SEQEND
  0
ENDBLK
  0
BLOCK
  8
LAYER_1
  2
AIGNBL0102003D
 70
64
 10
0
 20
0
 30
0
  3
AIGNBL0102003D
  0
POLYLINE
  8
LAYER_1
 40
0.05
 41
0.05
 66
1
 10
0
 20
0
 30
0
 70
1
  0
VERTEX
  8
LAYER_1
 10
169.7583
 20
-69.7553
  0
VERTEX
  8
LAYER_1
 10
169.7583
 20
-70.0887
  0
VERTEX
  8
LAYER_1
 10
170.7583
 20
-69.922
  0
SEQEND
  0
ENDBLK
  0
BLOCK
  8
LAYER_1
  2
AIGNBL0102003E
 70
64
 10
0
 20
0
 30
0
  3
AIGNBL0102003E
  0
POLYLINE
  8
LAYER_1
 40
0.05
 41
0.05
 66
1
 10
0
 20
0
 30
0
 70
1
  0
VERTEX
  8
LAYER_1
 10
139.3833
 20
-69.7553
  0
VERTEX
  8
LAYER_1
 10
139.3833
 20
-70.0887
  0
VERTEX
  8
LAYER_1
 10
138.3833
 20
-69.922
  0
SEQEND
  0
ENDBLK
  0
BLOCK
  8
LAYER_1
  2
AIGNBL0102003F
 70
64
 10
0
 20
0
 30
0
  3
AIGNBL0102003F
  0
TEXT
  8
LAYER_1
 10
151.0803
 20
-69.6046
 11
151.0803
 21
-69.6046
 40
4.0981
 41
0.5
  1
130
  0
ENDBLK
  0
BLOCK
  8
LAYER_1
  2
AIGNBL01020041
 70
64
 10
0
 20
0
 30
0
  3
AIGNBL01020041
  0
POLYLINE
  8
LAYER_1
 40
0.1058
 41
0.1058
 66
1
 10
0
 20
0
 30
0
  0
VERTEX
  8
LAYER_1
 10
164.1333
 20
-124.8903
  0
VERTEX
  8
LAYER_1
 10
123.6688
 20
-124.8903
  0
SEQEND
  0
ENDBLK
  0
BLOCK
  8
LAYER_1
  2
AIGNBL01020042
 70
64
 10
0
 20
0
 30
0
  3
AIGNBL01020042
  0
POLYLINE
  8
LAYER_1
 40
0.1058
 41
0.1058
 66
1
 10
0
 20
0
 30
0
  0
VERTEX
  8
LAYER_1
 10
135.6958
 20
-92.8153
  0
VERTEX
  8
LAYER_1
 10
123.6688
 20
-92.8153
  0
SEQEND
  0
ENDBLK
  0
BLOCK
  8
LAYER_1
  2
AIGNBL01020043
 70
64
 10
0
 20
0
 30
0
  3
AIGNBL01020043
  0
POLYLINE
  8
LAYER_1
 40
0.1058
 41
0.1058
 66
1
 10
0
 20
0
 30
0
  0
VERTEX
  8
LAYER_1
 10
123.9188
 20
-123.8903
  0
VERTEX
  8
LAYER_1
 10
123.9188
 20
-93.8153
  0
SEQEND
  0
ENDBLK
  0
BLOCK
  8
LAYER_1
  2
AIGNBL01020044
 70
64
 10
0
 20
0
 30
0
  3
AIGNBL01020044
  0
POLYLINE
  8
LAYER_1
 40
0.05
 41
0.05
 66
1
 10
0
 20
0
 30
0
 70
1
  0
VERTEX
  8
LAYER_1
 10
123.7521
 20
-123.8903
  0
VERTEX
  8
LAYER_1
 10
124.0855
 20
-123.8903
  0
VERTEX
  8
LAYER_1
 10
123.9188
 20
-124.8903
  0
SEQEND
  0
ENDBLK
  0
BLOCK
  8
LAYER_1
  2
AIGNBL01020045
 70
64
 10
0
 20
0
 30
0
  3
AIGNBL01020045
  0
POLYLINE
  8
LAYER_1
 40
0.05
 41
0.05
 66
1
 10
0
 20
0
 30
0
 70
1
  0
VERTEX
  8
LAYER_1
 10
123.7521
 20
-93.8153
  0
VERTEX
  8
LAYER_1
 10
124.0855
 20
-93.8153
  0
VERTEX
  8
LAYER_1
 10
123.9188
 20
-92.8153
  0
SEQEND
  0
ENDBLK
  0
BLOCK
  8
LAYER_1
  2
AIGNBL01020046
 70
64
 10
0
 20
0
 30
0
  3
AIGNBL01020046
  0
TEXT
  8
LAYER_1
 10
123.5953
 20
-112.3536
 11
123.5953
 21
-112.3536
 40
4.0981
 41
0.5
 50
89.99999999
  1
128
  0
ENDBLK
  0
BLOCK
  8
LAYER_1
  2
AIGNBL01020048
 70
64
 10
0
 20
0
 30
0
  3
AIGNBL01020048
  0
POLYLINE
  8
LAYER_1
 40
0.1058
 41
0.1058
 66
1
 10
0
 20
0
 30
0
  0
VERTEX
  8
LAYER_1
 10
127.3115
 20
-124.8903
  0
VERTEX
  8
LAYER_1
 10
118.6549
 20
-124.8903
  0
SEQEND
  0
ENDBLK
  0
BLOCK
  8
LAYER_1
  2
AIGNBL01020049
 70
64
 10
0
 20
0
 30
0
  3
AIGNBL01020049
  0
POLYLINE
  8
LAYER_1
 40
0.1058
 41
0.1058
 66
1
 10
0
 20
0
 30
0
  0
VERTEX
  8
LAYER_1
 10
134.1333
 20
-88.8903
  0
VERTEX
  8
LAYER_1
 10
118.6549
 20
-88.8903
  0
SEQEND
  0
ENDBLK
  0
BLOCK
  8
LAYER_1
  2
AIGNBL0102004A
 70
64
 10
0
 20
0
 30
0
  3
AIGNBL0102004A
  0
POLYLINE
  8
LAYER_1
 40
0.1058
 41
0.1058
 66
1
 10
0
 20
0
 30
0
  0
VERTEX
  8
LAYER_1
 10
118.9049
 20
-123.8903
  0
VERTEX
  8
LAYER_1
 10
118.9049
 20
-89.8903
  0
SEQEND
  0
ENDBLK
  0
BLOCK
  8
LAYER_1
  2
AIGNBL0102004B
 70
64
 10
0
 20
0
 30
0
  3
AIGNBL0102004B
  0
POLYLINE
  8
LAYER_1
 40
0.05
 41
0.05
 66
1
 10
0
 20
0
 30
0
 70
1
  0
VERTEX
  8
LAYER_1
 10
118.7382
 20
-123.8903
  0
VERTEX
  8
LAYER_1
 10
119.0715
 20
-123.8903
  0
VERTEX
  8
LAYER_1
 10
118.9049
 20
-124.8903
  0
SEQEND
  0
ENDBLK
  0
BLOCK
  8
LAYER_1
  2
AIGNBL0102004C
 70
64
 10
0
 20
0
 30
0
  3
AIGNBL0102004C
  0
POLYLINE
  8
LAYER_1
 40
0.05
 41
0.05
 66
1
 10
0
 20
0
 30
0
 70
1
  0
VERTEX
  8
LAYER_1
 10
118.7382
 20
-89.8903
  0
VERTEX
  8
LAYER_1
 10
119.0715
 20
-89.8903
  0
VERTEX
  8
LAYER_1
 10
118.9049
 20
-88.8903
  0
SEQEND
  0
ENDBLK
  0
BLOCK
  8
LAYER_1
  2
AIGNBL0102004D
 70
64
 10
0
 20
0
 30
0
  3
AIGNBL0102004D
  0
TEXT
  8
LAYER_1
 10
118.6495
 20
-110.413
 11
118.6495
 21
-110.413
 40
4.0981
 41
0.5
 50
89.99999999
  1
144
  0
ENDBLK
  0
BLOCK
  8
LAYER_1
  2
AIGNBL0102004F
 70
64
 10
0
 20
0
 30
0
  3
AIGNBL0102004F
  0
POLYLINE
  8
LAYER_1
 40
0.1058
 41
0.1058
 66
1
 10
0
 20
0
 30
0
  0
VERTEX
  8
LAYER_1
 10
176.6333
 20
-124.8903
  0
VERTEX
  8
LAYER_1
 10
155.5378
 20
-124.8903
  0
SEQEND
  0
ENDBLK
  0
BLOCK
  8
LAYER_1
  2
AIGNBL01020050
 70
64
 10
0
 20
0
 30
0
  3
AIGNBL01020050
  0
POLYLINE
  8
LAYER_1
 40
0.1058
 41
0.1058
 66
1
 10
0
 20
0
 30
0
  0
VERTEX
  8
LAYER_1
 10
175.0083
 20
-129.5403
  0
VERTEX
  8
LAYER_1
 10
155.5378
 20
-129.5403
  0
SEQEND
  0
ENDBLK
  0
BLOCK
  8
LAYER_1
  2
AIGNBL01020051
 70
64
 10
0
 20
0
 30
0
  3
AIGNBL01020051
  0
POLYLINE
  8
LAYER_1
 40
0.1058
 41
0.1058
 66
1
 10
0
 20
0
 30
0
  0
VERTEX
  8
LAYER_1
 10
155.7878
 20
-128.5403
  0
VERTEX
  8
LAYER_1
 10
155.7878
 20
-125.8903
  0
SEQEND
  0
ENDBLK
  0
BLOCK
  8
LAYER_1
  2
AIGNBL01020052
 70
64
 10
0
 20
0
 30
0
  3
AIGNBL01020052
  0
POLYLINE
  8
LAYER_1
 40
0.1058
 41
0.1058
 66
1
 10
0
 20
0
 30
0
  0
VERTEX
  8
LAYER_1
 10
155.7878
 20
-124.8903
  0
VERTEX
  8
LAYER_1
 10
155.7878
 20
-109.8085
  0
SEQEND
  0
ENDBLK
  0
BLOCK
  8
LAYER_1
  2
AIGNBL01020053
 70
64
 10
0
 20
0
 30
0
  3
AIGNBL01020053
  0
POLYLINE
  8
LAYER_1
 40
0.05
 41
0.05
 66
1
 10
0
 20
0
 30
0
 70
1
  0
VERTEX
  8
LAYER_1
 10
155.6211
 20
-128.5403
  0
VERTEX
  8
LAYER_1
 10
155.9545
 20
-128.5403
  0
VERTEX
  8
LAYER_1
 10
155.7878
 20
-129.5403
  0
SEQEND
  0
ENDBLK
  0
BLOCK
  8
LAYER_1
  2
AIGNBL01020054
 70
64
 10
0
 20
0
 30
0
  3
AIGNBL01020054
  0
POLYLINE
  8
LAYER_1
 40
0.05
 41
0.05
 66
1
 10
0
 20
0
 30
0
 70
1
  0
VERTEX
  8
LAYER_1
 10
155.6211
 20
-125.8903
  0
VERTEX
  8
LAYER_1
 10
155.9545
 20
-125.8903
  0
VERTEX
  8
LAYER_1
 10
155.7878
 20
-124.8903
  0
SEQEND
  0
ENDBLK
  0
BLOCK
  8
LAYER_1
  2
AIGNBL01020055
 70
64
 10
0
 20
0
 30
0
  3
AIGNBL01020055
  0
TEXT
  8
LAYER_1
 10
155.47
 20
-123.8196
 11
155.47
 21
-123.8196
 40
4.0981
 41
0.5
 50
89.99999999
  1
MAX.40
  0
ENDBLK
  0
BLOCK
  8
LAYER_1
  2
AIGNBL01020057
 70
64
 10
0
 20
0
 30
0
  3
AIGNBL01020057
  0
POLYLINE
  8
LAYER_1
 40
0.1058
 41
0.1058
 66
1
 10
0
 20
0
 30
0
  0
VERTEX
  8
LAYER_1
 10
177.3833
 20
-124.8903
  0
VERTEX
  8
LAYER_1
 10
185.6293
 20
-124.8903
  0
SEQEND
  0
ENDBLK
  0
BLOCK
  8
LAYER_1
  2
AIGNBL01020058
 70
64
 10
0
 20
0
 30
0
  3
AIGNBL01020058
  0
POLYLINE
  8
LAYER_1
 40
0.1058
 41
0.1058
 66
1
 10
0
 20
0
 30
0
  0
VERTEX
  8
LAYER_1
 10
172.8833
 20
-164.4756
  0
VERTEX
  8
LAYER_1
 10
185.6293
 20
-164.4756
  0
SEQEND
  0
ENDBLK
  0
BLOCK
  8
LAYER_1
  2
AIGNBL01020059
 70
64
 10
0
 20
0
 30
0
  3
AIGNBL01020059
  0
POLYLINE
  8
LAYER_1
 40
0.1058
 41
0.1058
 66
1
 10
0
 20
0
 30
0
  0
VERTEX
  8
LAYER_1
 10
185.3793
 20
-125.8903
  0
VERTEX
  8
LAYER_1
 10
185.3793
 20
-163.4756
  0
SEQEND
  0
ENDBLK
  0
BLOCK
  8
LAYER_1
  2
AIGNBL0102005A
 70
64
 10
0
 20
0
 30
0
  3
AIGNBL0102005A
  0
POLYLINE
  8
LAYER_1
 40
0.05
 41
0.05
 66
1
 10
0
 20
0
 30
0
 70
1
  0
VERTEX
  8
LAYER_1
 10
185.2127
 20
-125.8903
  0
VERTEX
  8
LAYER_1
 10
185.546
 20
-125.8903
  0
VERTEX
  8
LAYER_1
 10
185.3793
 20
-124.8903
  0
SEQEND
  0
ENDBLK
  0
BLOCK
  8
LAYER_1
  2
AIGNBL0102005B
 70
64
 10
0
 20
0
 30
0
  3
AIGNBL0102005B
  0
POLYLINE
  8
LAYER_1
 40
0.05
 41
0.05
 66
1
 10
0
 20
0
 30
0
 70
1
  0
VERTEX
  8
LAYER_1
 10
185.2127
 20
-163.4756
  0
VERTEX
  8
LAYER_1
 10
185.546
 20
-163.4756
  0
VERTEX
  8
LAYER_1
 10
185.3793
 20
-164.4756
  0
SEQEND
  0
ENDBLK
  0
BLOCK
  8
LAYER_1
  2
AIGNBL0102005C
 70
64
 10
0
 20
0
 30
0
  3
AIGNBL0102005C
  0
TEXT
  8
LAYER_1
 10
185.0617
 20
-152.7791
 11
185.0617
 21
-152.7791
 40
4.0981
 41
0.5
 50
89.99999999
  1
MAX.350
  0
ENDBLK
  0
BLOCK
  8
LAYER_1
  2
AIGNBL010200E4
 70
64
 10
0
 20
0
 30
0
  3
AIGNBL010200E4
  0
POLYLINE
  8
LAYER_1
 40
0.1058
 41
0.1058
 66
1
 10
0
 20
0
 30
0
  0
VERTEX
  8
LAYER_1
 10
164.5083
 20
-123.7653
  0
VERTEX
  8
LAYER_1
 10
164.5083
 20
-122.6502
  0
SEQEND
  0
ENDBLK
  0
BLOCK
  8
LAYER_1
  2
AIGNBL010200E5
 70
64
 10
0
 20
0
 30
0
  3
AIGNBL010200E5
  0
POLYLINE
  8
LAYER_1
 40
0.1058
 41
0.1058
 66
1
 10
0
 20
0
 30
0
  0
VERTEX
  8
LAYER_1
 10
177.0083
 20
-123.7653
  0
VERTEX
  8
LAYER_1
 10
177.0083
 20
-122.6502
  0
SEQEND
  0
ENDBLK
  0
BLOCK
  8
LAYER_1
  2
AIGNBL010200E6
 70
64
 10
0
 20
0
 30
0
  3
AIGNBL010200E6
  0
POLYLINE
  8
LAYER_1
 40
0.1058
 41
0.1058
 66
1
 10
0
 20
0
 30
0
  0
VERTEX
  8
LAYER_1
 10
165.5083
 20
-122.9002
  0
VERTEX
  8
LAYER_1
 10
176.0083
 20
-122.9002
  0
SEQEND
  0
ENDBLK
  0
BLOCK
  8
LAYER_1
  2
AIGNBL010200E7
 70
64
 10
0
 20
0
 30
0
  3
AIGNBL010200E7
  0
POLYLINE
  8
LAYER_1
 40
0.05
 41
0.05
 66
1
 10
0
 20
0
 30
0
 70
1
  0
VERTEX
  8
LAYER_1
 10
165.5083
 20
-122.7335
  0
VERTEX
  8
LAYER_1
 10
165.5083
 20
-123.0669
  0
VERTEX
  8
LAYER_1
 10
164.5083
 20
-122.9002
  0
SEQEND
  0
ENDBLK
  0
BLOCK
  8
LAYER_1
  2
AIGNBL010200E8
 70
64
 10
0
 20
0
 30
0
  3
AIGNBL010200E8
  0
POLYLINE
  8
LAYER_1
 40
0.05
 41
0.05
 66
1
 10
0
 20
0
 30
0
 70
1
  0
VERTEX
  8
LAYER_1
 10
176.0083
 20
-122.7335
  0
VERTEX
  8
LAYER_1
 10
176.0083
 20
-123.0669
  0
VERTEX
  8
LAYER_1
 10
177.0083
 20
-122.9002
  0
SEQEND
  0
ENDBLK
  0
BLOCK
  8
LAYER_1
  2
AIGNBL010200E9
 70
64
 10
0
 20
0
 30
0
  3
AIGNBL010200E9
  0
TEXT
  8
LAYER_1
 10
166.8478
 20
-122.4629
 11
166.8478
 21
-122.4629
 40
3.473
 41
0.5
  1
□
  0
TEXT
  8
LAYER_1
 10
169.9632
 20
-122.5828
 11
169.9632
 21
-122.5828
 40
4.0981
 41
0.5
  1
50
  0
ENDBLK
  0
BLOCK
  8
LAYER_1
  2
AIGNBL01020231
 70
64
 10
0
 20
0
 30
0
  3
AIGNBL01020231
  0
POLYLINE
  8
LAYER_1
 40
0.1058
 41
0.1058
 66
1
 10
0
 20
0
 30
0
  0
VERTEX
  8
LAYER_1
 10
168.8374
 20
-178.2967
  0
VERTEX
  8
LAYER_1
 10
157.4084
 20
-178.2967
  0
SEQEND
  0
ENDBLK
  0
BLOCK
  8
LAYER_1
  2
AIGNBL01020232
 70
64
 10
0
 20
0
 30
0
  3
AIGNBL01020232
  0
POLYLINE
  8
LAYER_1
 40
0.1058
 41
0.1058
 66
1
 10
0
 20
0
 30
0
  0
VERTEX
  8
LAYER_1
 10
170.3008
 20
-168.2967
  0
VERTEX
  8
LAYER_1
 10
157.4084
 20
-168.2967
  0
SEQEND
  0
ENDBLK
  0
BLOCK
  8
LAYER_1
  2
AIGNBL01020233
 70
64
 10
0
 20
0
 30
0
  3
AIGNBL01020233
  0
POLYLINE
  8
LAYER_1
 40
0.1058
 41
0.1058
 66
1
 10
0
 20
0
 30
0
  0
VERTEX
  8
LAYER_1
 10
157.6584
 20
-177.2967
  0
VERTEX
  8
LAYER_1
 10
157.6584
 20
-169.2967
  0
SEQEND
  0
ENDBLK
  0
BLOCK
  8
LAYER_1
  2
AIGNBL01020234
 70
64
 10
0
 20
0
 30
0
  3
AIGNBL01020234
  0
POLYLINE
  8
LAYER_1
 40
0.05
 41
0.05
 66
1
 10
0
 20
0
 30
0
 70
1
  0
VERTEX
  8
LAYER_1
 10
157.4917
 20
-177.2967
  0
VERTEX
  8
LAYER_1
 10
157.8251
 20
-177.2967
  0
VERTEX
  8
LAYER_1
 10
157.6584
 20
-178.2967
  0
SEQEND
  0
ENDBLK
  0
BLOCK
  8
LAYER_1
  2
AIGNBL01020235
 70
64
 10
0
 20
0
 30
0
  3
AIGNBL01020235
  0
POLYLINE
  8
LAYER_1
 40
0.05
 41
0.05
 66
1
 10
0
 20
0
 30
0
 70
1
  0
VERTEX
  8
LAYER_1
 10
157.4917
 20
-169.2967
  0
VERTEX
  8
LAYER_1
 10
157.8251
 20
-169.2967
  0
VERTEX
  8
LAYER_1
 10
157.6584
 20
-168.2967
  0
SEQEND
  0
ENDBLK
  0
BLOCK
  8
LAYER_1
  2
AIGNBL01020236
 70
64
 10
0
 20
0
 30
0
  3
AIGNBL01020236
  0
TEXT
  8
LAYER_1
 10
157.3407
 20
-175.4037
 11
157.3407
 21
-175.4037
 40
4.0981
 41
0.5
 50
89.99999999
  1
40
  0
ENDBLK
  0
BLOCK
  8
LAYER_1
  2
AIGNBL01020238
 70
64
 10
0
 20
0
 30
0
  3
AIGNBL01020238
  0
POLYLINE
  8
LAYER_1
 40
0.1058
 41
0.1058
 66
1
 10
0
 20
0
 30
0
  0
VERTEX
  8
LAYER_1
 10
175.1283
 20
-178.6504
  0
VERTEX
  8
LAYER_1
 10
175.1283
 20
-184.1835
  0
SEQEND
  0
ENDBLK
  0
BLOCK
  8
LAYER_1
  2
AIGNBL01020239
 70
64
 10
0
 20
0
 30
0
  3
AIGNBL01020239
  0
POLYLINE
  8
LAYER_1
 40
0.1058
 41
0.1058
 66
1
 10
0
 20
0
 30
0
  0
VERTEX
  8
LAYER_1
 10
169.8883
 20
-178.6504
  0
VERTEX
  8
LAYER_1
 10
169.8883
 20
-184.1835
  0
SEQEND
  0
ENDBLK
  0
BLOCK
  8
LAYER_1
  2
AIGNBL0102023A
 70
64
 10
0
 20
0
 30
0
  3
AIGNBL0102023A
  0
POLYLINE
  8
LAYER_1
 40
0.1058
 41
0.1058
 66
1
 10
0
 20
0
 30
0
  0
VERTEX
  8
LAYER_1
 10
174.1283
 20
-183.9335
  0
VERTEX
  8
LAYER_1
 10
170.8883
 20
-183.9335
  0
SEQEND
  0
ENDBLK
  0
BLOCK
  8
LAYER_1
  2
AIGNBL0102023B
 70
64
 10
0
 20
0
 30
0
  3
AIGNBL0102023B
  0
POLYLINE
  8
LAYER_1
 40
0.1058
 41
0.1058
 66
1
 10
0
 20
0
 30
0
  0
VERTEX
  8
LAYER_1
 10
169.8883
 20
-183.9335
  0
VERTEX
  8
LAYER_1
 10
160.6383
 20
-183.9335
  0
SEQEND
  0
ENDBLK
  0
BLOCK
  8
LAYER_1
  2
AIGNBL0102023C
 70
64
 10
0
 20
0
 30
0
  3
AIGNBL0102023C
  0
POLYLINE
  8
LAYER_1
 40
0.05
 41
0.05
 66
1
 10
0
 20
0
 30
0
 70
1
  0
VERTEX
  8
LAYER_1
 10
174.1283
 20
-183.7668
  0
VERTEX
  8
LAYER_1
 10
174.1283
 20
-184.1001
  0
VERTEX
  8
LAYER_1
 10
175.1283
 20
-183.9335
  0
SEQEND
  0
ENDBLK
  0
BLOCK
  8
LAYER_1
  2
AIGNBL0102023D
 70
64
 10
0
 20
0
 30
0
  3
AIGNBL0102023D
  0
POLYLINE
  8
LAYER_1
 40
0.05
 41
0.05
 66
1
 10
0
 20
0
 30
0
 70
1
  0
VERTEX
  8
LAYER_1
 10
170.8883
 20
-183.7668
  0
VERTEX
  8
LAYER_1
 10
170.8883
 20
-184.1001
  0
VERTEX
  8
LAYER_1
 10
169.8883
 20
-183.9335
  0
SEQEND
  0
ENDBLK
  0
BLOCK
  8
LAYER_1
  2
AIGNBL0102023E
 70
64
 10
0
 20
0
 30
0
  3
AIGNBL0102023E
  0
TEXT
  8
LAYER_1
 10
159.7633
 20
-183.6781
 11
159.7633
 21
-183.6781
 40
4.0981
 41
0.5
  1
G1/2
  0
ENDBLK
  0
BLOCK
  8
LAYER_1
  2
AIGNBL01020247
 70
64
 10
0
 20
0
 30
0
  3
AIGNBL01020247
  0
POLYLINE
  8
LAYER_1
 40
0.1058
 41
0.1058
 66
1
 10
0
 20
0
 30
0
  0
VERTEX
  8
LAYER_1
 10
145.9728
 20
-143.9248
  0
VERTEX
  8
LAYER_1
 10
137.5017
 20
-151.9723
  0
SEQEND
  0
ENDBLK
  0
BLOCK
  8
LAYER_1
  2
AIGNBL01020248
 70
64
 10
0
 20
0
 30
0
  3
AIGNBL01020248
  0
POLYLINE
  8
LAYER_1
 40
0.1058
 41
0.1058
 66
1
 10
0
 20
0
 30
0
  0
VERTEX
  8
LAYER_1
 10
129.708
 20
-159.3763
  0
VERTEX
  8
LAYER_1
 10
128.9829
 20
-160.0651
  0
SEQEND
  0
ENDBLK
  0
BLOCK
  8
LAYER_1
  2
AIGNBL01020249
 70
64
 10
0
 20
0
 30
0
  3
AIGNBL01020249
  0
TEXT
  8
LAYER_1
 10
136.9749
 20
-150.8866
 11
136.9749
 21
-150.8866
 40
3.4151
 41
0.5
 50
43.53120188
  1
35
  0
TEXT
  8
LAYER_1
 10
140.573
 20
-145.1973
 11
140.573
 21
-145.1973
 40
3.4151
 41
0.5
 50
43.53120188
  1
+2
  0
TEXT
  8
LAYER_1
 10
142.2048
 20
-146.8061
 11
142.2048
 21
-146.8061
 40
3.4151
 41
0.5
 50
43.53120188
  1
-0
  0
ENDBLK
  0
BLOCK
  8
LAYER_1
  2
AIGNBL0102024A
 70
64
 10
0
 20
0
 30
0
  3
AIGNBL0102024A
  0
POLYLINE
  8
LAYER_1
 40
0.1058
 41
0.1058
 66
1
 10
0
 20
0
 30
0
  0
VERTEX
  8
LAYER_1
 10
130.433
 20
-158.6876
  0
VERTEX
  8
LAYER_1
 10
136.7767
 20
-152.661
  0
SEQEND
  0
ENDBLK
  0
BLOCK
  8
LAYER_1
  2
AIGNBL0102024B
 70
64
 10
0
 20
0
 30
0
  3
AIGNBL0102024B
  0
POLYLINE
  8
LAYER_1
 40
0.05
 41
0.05
 66
1
 10
0
 20
0
 30
0
 70
1
  0
VERTEX
  8
LAYER_1
 10
129.5932
 20
-159.2555
  0
VERTEX
  8
LAYER_1
 10
129.8227
 20
-159.4971
  0
VERTEX
  8
LAYER_1
 10
130.433
 20
-158.6876
  0
SEQEND
  0
ENDBLK
  0
BLOCK
  8
LAYER_1
  2
AIGNBL0102024C
 70
64
 10
0
 20
0
 30
0
  3
AIGNBL0102024C
  0
POLYLINE
  8
LAYER_1
 40
0.05
 41
0.05
 66
1
 10
0
 20
0
 30
0
 70
1
  0
VERTEX
  8
LAYER_1
 10
137.3869
 20
-151.8515
  0
VERTEX
  8
LAYER_1
 10
137.6165
 20
-152.0931
  0
VERTEX
  8
LAYER_1
 10
136.7767
 20
-152.661
  0
SEQEND
  0
ENDBLK
  0
BLOCK
  8
LAYER_1
  2
AIGNBL010202C8
 70
64
 10
0
 20
0
 30
0
  3
AIGNBL010202C8
  0
POLYLINE
  8
LAYER_1
 40
0.1058
 41
0.1058
 66
1
 10
0
 20
0
 30
0
  0
VERTEX
  8
LAYER_1
 10
91.2337
 20
-87.0389
  0
VERTEX
  8
LAYER_1
 10
91.2337
 20
-69.672
  0
SEQEND
  0
ENDBLK
  0
BLOCK
  8
LAYER_1
  2
AIGNBL010202C9
 70
64
 10
0
 20
0
 30
0
  3
AIGNBL010202C9
  0
POLYLINE
  8
LAYER_1
 40
0.1058
 41
0.1058
 66
1
 10
0
 20
0
 30
0
  0
VERTEX
  8
LAYER_1
 10
105.4876
 20
-85.9418
  0
VERTEX
  8
LAYER_1
 10
105.4876
 20
-69.672
  0
SEQEND
  0
ENDBLK
  0
BLOCK
  8
LAYER_1
  2
AIGNBL010202CA
 70
64
 10
0
 20
0
 30
0
  3
AIGNBL010202CA
  0
POLYLINE
  8
LAYER_1
 40
0.1058
 41
0.1058
 66
1
 10
0
 20
0
 30
0
  0
VERTEX
  8
LAYER_1
 10
92.2337
 20
-69.922
  0
VERTEX
  8
LAYER_1
 10
104.4876
 20
-69.922
  0
SEQEND
  0
ENDBLK
  0
BLOCK
  8
LAYER_1
  2
AIGNBL010202CB
 70
64
 10
0
 20
0
 30
0
  3
AIGNBL010202CB
  0
POLYLINE
  8
LAYER_1
 40
0.05
 41
0.05
 66
1
 10
0
 20
0
 30
0
 70
1
  0
VERTEX
  8
LAYER_1
 10
92.2337
 20
-69.7553
  0
VERTEX
  8
LAYER_1
 10
92.2337
 20
-70.0887
  0
VERTEX
  8
LAYER_1
 10
91.2337
 20
-69.922
  0
SEQEND
  0
ENDBLK
  0
BLOCK
  8
LAYER_1
  2
AIGNBL010202CC
 70
64
 10
0
 20
0
 30
0
  3
AIGNBL010202CC
  0
POLYLINE
  8
LAYER_1
 40
0.05
 41
0.05
 66
1
 10
0
 20
0
 30
0
 70
1
  0
VERTEX
  8
LAYER_1
 10
104.4876
 20
-69.7553
  0
VERTEX
  8
LAYER_1
 10
104.4876
 20
-70.0887
  0
VERTEX
  8
LAYER_1
 10
105.4876
 20
-69.922
  0
SEQEND
  0
ENDBLK
  0
BLOCK
  8
LAYER_1
  2
AIGNBL010202CD
 70
64
 10
0
 20
0
 30
0
  3
AIGNBL010202CD
  0
TEXT
  8
LAYER_1
 10
96.058
 20
-69.6046
 11
96.058
 21
-69.6046
 40
4.0981
 41
0.5
  1
57
  0
ENDBLK
  0
BLOCK
  8
LAYER_1
  2
AIGNBL010202DD
 70
64
 10
0
 20
0
 30
0
  3
AIGNBL010202DD
  0
POLYLINE
  8
LAYER_1
 40
0.1058
 41
0.1058
 66
1
 10
0
 20
0
 30
0
  0
VERTEX
  8
LAYER_1
 10
91.2337
 20
-87.0389
  0
VERTEX
  8
LAYER_1
 10
91.2337
 20
-62.5967
  0
SEQEND
  0
ENDBLK
  0
BLOCK
  8
LAYER_1
  2
AIGNBL010202DE
 70
64
 10
0
 20
0
 30
0
  3
AIGNBL010202DE
  0
POLYLINE
  8
LAYER_1
 40
0.1058
 41
0.1058
 66
1
 10
0
 20
0
 30
0
  0
VERTEX
  8
LAYER_1
 10
110.9864
 20
-88.9308
  0
VERTEX
  8
LAYER_1
 10
110.9864
 20
-62.5967
  0
SEQEND
  0
ENDBLK
  0
BLOCK
  8
LAYER_1
  2
AIGNBL010202DF
 70
64
 10
0
 20
0
 30
0
  3
AIGNBL010202DF
  0
POLYLINE
  8
LAYER_1
 40
0.1058
 41
0.1058
 66
1
 10
0
 20
0
 30
0
  0
VERTEX
  8
LAYER_1
 10
92.2337
 20
-62.8467
  0
VERTEX
  8
LAYER_1
 10
109.9864
 20
-62.8467
  0
SEQEND
  0
ENDBLK
  0
BLOCK
  8
LAYER_1
  2
AIGNBL010202E0
 70
64
 10
0
 20
0
 30
0
  3
AIGNBL010202E0
  0
POLYLINE
  8
LAYER_1
 40
0.05
 41
0.05
 66
1
 10
0
 20
0
 30
0
 70
1
  0
VERTEX
  8
LAYER_1
 10
92.2337
 20
-62.68
  0
VERTEX
  8
LAYER_1
 10
92.2337
 20
-63.0134
  0
VERTEX
  8
LAYER_1
 10
91.2337
 20
-62.8467
  0
SEQEND
  0
ENDBLK
  0
BLOCK
  8
LAYER_1
  2
AIGNBL010202E1
 70
64
 10
0
 20
0
 30
0
  3
AIGNBL010202E1
  0
POLYLINE
  8
LAYER_1
 40
0.05
 41
0.05
 66
1
 10
0
 20
0
 30
0
 70
1
  0
VERTEX
  8
LAYER_1
 10
109.9864
 20
-62.68
  0
VERTEX
  8
LAYER_1
 10
109.9864
 20
-63.0134
  0
VERTEX
  8
LAYER_1
 10
110.9864
 20
-62.8467
  0
SEQEND
  0
ENDBLK
  0
BLOCK
  8
LAYER_1
  2
AIGNBL010202E2
 70
64
 10
0
 20
0
 30
0
  3
AIGNBL010202E2
  0
TEXT
  8
LAYER_1
 10
97.2779
 20
-61.7615
 11
97.2779
 21
-61.7615
 40
4.0981
 41
0.5
  1
(79)
  0
ENDBLK
  0
BLOCK
  8
LAYER_1
  2
AIGNBL010202E4
 70
64
 10
0
 20
0
 30
0
  3
AIGNBL010202E4
  0
POLYLINE
  8
LAYER_1
 40
0.1058
 41
0.1058
 66
1
 10
0
 20
0
 30
0
  0
VERTEX
  8
LAYER_1
 10
110.9014
 20
-89.5522
  0
VERTEX
  8
LAYER_1
 10
118.8003
 20
-72.613
  0
SEQEND
  0
ENDBLK
  0
BLOCK
  8
LAYER_1
  2
AIGNBL010202E5
 70
64
 10
0
 20
0
 30
0
  3
AIGNBL010202E5
  0
POLYLINE
  8
LAYER_1
 40
0.1058
 41
0.1058
 66
1
 10
0
 20
0
 30
0
  0
VERTEX
  8
LAYER_1
 10
105.4876
 20
-85.9418
  0
VERTEX
  8
LAYER_1
 10
105.4876
 20
-69.6617
  0
SEQEND
  0
ENDBLK
  0
BLOCK
  8
LAYER_1
  2
AIGNBL010202E6
 70
64
 10
0
 20
0
 30
0
  3
AIGNBL010202E6
  0
POLYLINE
  8
LAYER_1
 40
0.1058
 41
0.1058
 66
1
 10
0
 20
0
 30
0
  0
VERTEX
  8
LAYER_1
 10
117.7817
 20
-72.4315
 42
0.09335302182
  0
VERTEX
  8
LAYER_1
 10
106.4874
 20
-69.9277
  0
SEQEND
  0
ENDBLK
  0
BLOCK
  8
LAYER_1
  2
AIGNBL010202E7
 70
64
 10
0
 20
0
 30
0
  3
AIGNBL010202E7
  0
POLYLINE
  8
LAYER_1
 40
0.05
 41
0.05
 66
1
 10
0
 20
0
 30
0
 70
1
  0
VERTEX
  8
LAYER_1
 10
117.8497
 20
-72.2794
  0
VERTEX
  8
LAYER_1
 10
117.7136
 20
-72.5837
  0
VERTEX
  8
LAYER_1
 10
118.6946
 20
-72.8396
  0
SEQEND
  0
ENDBLK
  0
BLOCK
  8
LAYER_1
  2
AIGNBL010202E8
 70
64
 10
0
 20
0
 30
0
  3
AIGNBL010202E8
  0
POLYLINE
  8
LAYER_1
 40
0.05
 41
0.05
 66
1
 10
0
 20
0
 30
0
 70
1
  0
VERTEX
  8
LAYER_1
 10
106.4848
 20
-70.0943
  0
VERTEX
  8
LAYER_1
 10
106.4901
 20
-69.761
  0
VERTEX
  8
LAYER_1
 10
105.4876
 20
-69.9117
  0
SEQEND
  0
ENDBLK
  0
BLOCK
  8
LAYER_1
  2
AIGNBL010202E9
 70
64
 10
0
 20
0
 30
0
  3
AIGNBL010202E9
  0
TEXT
  8
LAYER_1
 10
111.9785
 20
-70.1002
 11
111.9785
 21
-70.1002
 40
4.0981
 41
0.5
 50
342.3747922
  1
25%%d
  0
ENDBLK
  0
BLOCK
  8
LAYER_1
  2
AIGNBL010202ED
 70
64
 10
0
 20
0
 30
0
  3
AIGNBL010202ED
  0
POLYLINE
  8
LAYER_1
 40
0.1058
 41
0.1058
 66
1
 10
0
 20
0
 30
0
  0
VERTEX
  8
LAYER_1
 10
137.4029
 20
-101.5186
  0
VERTEX
  8
LAYER_1
 10
136.2214
 20
-112.7602
  0
SEQEND
  0
ENDBLK
  0
BLOCK
  8
LAYER_1
  2
AIGNBL010202EE
 70
64
 10
0
 20
0
 30
0
  3
AIGNBL010202EE
  0
POLYLINE
  8
LAYER_1
 40
0.1058
 41
0.1058
 66
1
 10
0
 20
0
 30
0
  0
VERTEX
  8
LAYER_1
 10
139.3638
 20
-101.5186
  0
VERTEX
  8
LAYER_1
 10
140.5453
 20
-112.7602
  0
SEQEND
  0
ENDBLK
  0
BLOCK
  8
LAYER_1
  2
AIGNBL010202EF
 70
64
 10
0
 20
0
 30
0
  3
AIGNBL010202EF
  0
POLYLINE
  8
LAYER_1
 40
0.1058
 41
0.1058
 66
1
 10
0
 20
0
 30
0
  0
VERTEX
  8
LAYER_1
 10
135.2558
 20
-112.3827
  0
VERTEX
  8
LAYER_1
 10
136.2475
 20
-112.5115
  0
SEQEND
  0
ENDBLK
  0
BLOCK
  8
LAYER_1
  2
AIGNBL010202F0
 70
64
 10
0
 20
0
 30
0
  3
AIGNBL010202F0
  0
POLYLINE
  8
LAYER_1
 40
0.1058
 41
0.1058
 66
1
 10
0
 20
0
 30
0
  0
VERTEX
  8
LAYER_1
 10
135.2558
 20
-112.3827
  0
VERTEX
  8
LAYER_1
 10
126.2271
 20
-110.9843
  0
SEQEND
  0
ENDBLK
  0
BLOCK
  8
LAYER_1
  2
AIGNBL010202F1
 70
64
 10
0
 20
0
 30
0
  3
AIGNBL010202F1
  0
POLYLINE
  8
LAYER_1
 40
0.1058
 41
0.1058
 66
1
 10
0
 20
0
 30
0
  0
VERTEX
  8
LAYER_1
 10
137.2443
 20
-112.5917
 42
0.02789424433
  0
VERTEX
  8
LAYER_1
 10
139.5224
 20
-112.5917
  0
SEQEND
  0
ENDBLK
  0
BLOCK
  8
LAYER_1
  2
AIGNBL010202F2
 70
64
 10
0
 20
0
 30
0
  3
AIGNBL010202F2
  0
POLYLINE
  8
LAYER_1
 40
0.05
 41
0.05
 66
1
 10
0
 20
0
 30
0
 70
1
  0
VERTEX
  8
LAYER_1
 10
137.2309
 20
-112.7578
  0
VERTEX
  8
LAYER_1
 10
137.2576
 20
-112.4256
  0
VERTEX
  8
LAYER_1
 10
136.2475
 20
-112.5115
  0
SEQEND
  0
ENDBLK
  0
BLOCK
  8
LAYER_1
  2
AIGNBL010202F3
 70
64
 10
0
 20
0
 30
0
  3
AIGNBL010202F3
  0
POLYLINE
  8
LAYER_1
 40
0.05
 41
0.05
 66
1
 10
0
 20
0
 30
0
 70
1
  0
VERTEX
  8
LAYER_1
 10
139.509
 20
-112.4256
  0
VERTEX
  8
LAYER_1
 10
139.5358
 20
-112.7578
  0
VERTEX
  8
LAYER_1
 10
140.5192
 20
-112.5115
  0
SEQEND
  0
ENDBLK
  0
BLOCK
  8
LAYER_1
  2
AIGNBL010202F4
 70
64
 10
0
 20
0
 30
0
  3
AIGNBL010202F4
  0
TEXT
  8
LAYER_1
 10
128.5766
 20
-102.0821
 11
128.5766
 21
-102.0821
 40
4.0981
 41
0.5
 50
351.195726
  1
360%%d
  0
TEXT
  8
LAYER_1
 10
127.4166
 20
-105.9749
 11
127.4166
 21
-105.9749
 40
3.473
 41
0.5
 50
351.195726
  1
全方位
  0
TEXT
  8
LAYER_1
 10
127.4874
 20
-110.8928
 11
127.4874
 21
-110.8928
 40
4.0981
 41
0.5
 50
351.195726
  1
12%%d
  0
ENDBLK
  0
BLOCK
  8
LAYER_1
  2
AIGNBL01010002
 70
64
 10
0
 20
0
 30
0
  3
AIGNBL01010002
  0
INSERT
  8
LAYER_1
  2
AIGNBL01020003
 10
0
 20
0
 30
0
  0
INSERT
  8
LAYER_1
  2
AIGNBL0102000C
 10
0
 20
0
 30
0
  0
ENDBLK
  0
BLOCK
  8
LAYER_1
  2
AIGNBL01010024
 70
64
 10
0
 20
0
 30
0
  3
AIGNBL01010024
  0
INSERT
  8
LAYER_1
  2
AIGNBL01020025
 10
0
 20
0
 30
0
  0
INSERT
  8
LAYER_1
  2
AIGNBL01020026
 10
0
 20
0
 30
0
  0
INSERT
  8
LAYER_1
  2
AIGNBL01020027
 10
0
 20
0
 30
0
  0
INSERT
  8
LAYER_1
  2
AIGNBL01020028
 10
0
 20
0
 30
0
  0
INSERT
  8
LAYER_1
  2
AIGNBL01020029
 10
0
 20
0
 30
0
  0
INSERT
  8
LAYER_1
  2
AIGNBL0102002A
 10
0
 20
0
 30
0
  0
ENDBLK
  0
BLOCK
  8
LAYER_1
  2
AIGNBL0101002B
 70
64
 10
0
 20
0
 30
0
  3
AIGNBL0101002B
  0
INSERT
  8
LAYER_1
  2
AIGNBL0102002C
 10
0
 20
0
 30
0
  0
INSERT
  8
LAYER_1
  2
AIGNBL0102002D
 10
0
 20
0
 30
0
  0
INSERT
  8
LAYER_1
  2
AIGNBL0102002E
 10
0
 20
0
 30
0
  0
INSERT
  8
LAYER_1
  2
AIGNBL0102002F
 10
0
 20
0
 30
0
  0
INSERT
  8
LAYER_1
  2
AIGNBL01020030
 10
0
 20
0
 30
0
  0
INSERT
  8
LAYER_1
  2
AIGNBL01020031
 10
0
 20
0
 30
0
  0
ENDBLK
  0
BLOCK
  8
LAYER_1
  2
AIGNBL01010032
 70
64
 10
0
 20
0
 30
0
  3
AIGNBL01010032
  0
INSERT
  8
LAYER_1
  2
AIGNBL01020033
 10
0
 20
0
 30
0
  0
INSERT
  8
LAYER_1
  2
AIGNBL01020034
 10
0
 20
0
 30
0
  0
INSERT
  8
LAYER_1
  2
AIGNBL01020035
 10
0
 20
0
 30
0
  0
INSERT
  8
LAYER_1
  2
AIGNBL01020036
 10
0
 20
0
 30
0
  0
INSERT
  8
LAYER_1
  2
AIGNBL01020037
 10
0
 20
0
 30
0
  0
INSERT
  8
LAYER_1
  2
AIGNBL01020038
 10
0
 20
0
 30
0
  0
ENDBLK
  0
BLOCK
  8
LAYER_1
  2
AIGNBL01010039
 70
64
 10
0
 20
0
 30
0
  3
AIGNBL01010039
  0
INSERT
  8
LAYER_1
  2
AIGNBL0102003A
 10
0
 20
0
 30
0
  0
INSERT
  8
LAYER_1
  2
AIGNBL0102003B
 10
0
 20
0
 30
0
  0
INSERT
  8
LAYER_1
  2
AIGNBL0102003C
 10
0
 20
0
 30
0
  0
INSERT
  8
LAYER_1
  2
AIGNBL0102003D
 10
0
 20
0
 30
0
  0
INSERT
  8
LAYER_1
  2
AIGNBL0102003E
 10
0
 20
0
 30
0
  0
INSERT
  8
LAYER_1
  2
AIGNBL0102003F
 10
0
 20
0
 30
0
  0
ENDBLK
  0
BLOCK
  8
LAYER_1
  2
AIGNBL01010040
 70
64
 10
0
 20
0
 30
0
  3
AIGNBL01010040
  0
INSERT
  8
LAYER_1
  2
AIGNBL01020041
 10
0
 20
0
 30
0
  0
INSERT
  8
LAYER_1
  2
AIGNBL01020042
 10
0
 20
0
 30
0
  0
INSERT
  8
LAYER_1
  2
AIGNBL01020043
 10
0
 20
0
 30
0
  0
INSERT
  8
LAYER_1
  2
AIGNBL01020044
 10
0
 20
0
 30
0
  0
INSERT
  8
LAYER_1
  2
AIGNBL01020045
 10
0
 20
0
 30
0
  0
INSERT
  8
LAYER_1
  2
AIGNBL01020046
 10
0
 20
0
 30
0
  0
ENDBLK
  0
BLOCK
  8
LAYER_1
  2
AIGNBL01010047
 70
64
 10
0
 20
0
 30
0
  3
AIGNBL01010047
  0
INSERT
  8
LAYER_1
  2
AIGNBL01020048
 10
0
 20
0
 30
0
  0
INSERT
  8
LAYER_1
  2
AIGNBL01020049
 10
0
 20
0
 30
0
  0
INSERT
  8
LAYER_1
  2
AIGNBL0102004A
 10
0
 20
0
 30
0
  0
INSERT
  8
LAYER_1
  2
AIGNBL0102004B
 10
0
 20
0
 30
0
  0
INSERT
  8
LAYER_1
  2
AIGNBL0102004C
 10
0
 20
0
 30
0
  0
INSERT
  8
LAYER_1
  2
AIGNBL0102004D
 10
0
 20
0
 30
0
  0
ENDBLK
  0
BLOCK
  8
LAYER_1
  2
AIGNBL0101004E
 70
64
 10
0
 20
0
 30
0
  3
AIGNBL0101004E
  0
INSERT
  8
LAYER_1
  2
AIGNBL0102004F
 10
0
 20
0
 30
0
  0
INSERT
  8
LAYER_1
  2
AIGNBL01020050
 10
0
 20
0
 30
0
  0
INSERT
  8
LAYER_1
  2
AIGNBL01020051
 10
0
 20
0
 30
0
  0
INSERT
  8
LAYER_1
  2
AIGNBL01020052
 10
0
 20
0
 30
0
  0
INSERT
  8
LAYER_1
  2
AIGNBL01020053
 10
0
 20
0
 30
0
  0
INSERT
  8
LAYER_1
  2
AIGNBL01020054
 10
0
 20
0
 30
0
  0
INSERT
  8
LAYER_1
  2
AIGNBL01020055
 10
0
 20
0
 30
0
  0
ENDBLK
  0
BLOCK
  8
LAYER_1
  2
AIGNBL01010056
 70
64
 10
0
 20
0
 30
0
  3
AIGNBL01010056
  0
INSERT
  8
LAYER_1
  2
AIGNBL01020057
 10
0
 20
0
 30
0
  0
INSERT
  8
LAYER_1
  2
AIGNBL01020058
 10
0
 20
0
 30
0
  0
INSERT
  8
LAYER_1
  2
AIGNBL01020059
 10
0
 20
0
 30
0
  0
INSERT
  8
LAYER_1
  2
AIGNBL0102005A
 10
0
 20
0
 30
0
  0
INSERT
  8
LAYER_1
  2
AIGNBL0102005B
 10
0
 20
0
 30
0
  0
INSERT
  8
LAYER_1
  2
AIGNBL0102005C
 10
0
 20
0
 30
0
  0
ENDBLK
  0
BLOCK
  8
LAYER_1
  2
AIGNBL0101005D
 70
64
 10
0
 20
0
 30
0
  3
AIGNBL0101005D
  0
POLYLINE
  8
LAYER_1
 40
0.1058
 41
0.1058
 66
1
 10
0
 20
0
 30
0
  0
VERTEX
  8
LAYER_1
 10
170.7585
 20
-95.1392
  0
VERTEX
  8
LAYER_1
 10
155.0064
 20
-97.9168
  0
SEQEND
  0
ENDBLK
  0
BLOCK
  8
LAYER_1
  2
AIGNBL0101005E
 70
64
 10
0
 20
0
 30
0
  3
AIGNBL0101005E
  0
POLYLINE
  8
LAYER_1
 40
0.1058
 41
0.1058
 66
1
 10
0
 20
0
 30
0
  0
VERTEX
  8
LAYER_1
 10
159.1822
 20
-85.8347
  0
VERTEX
  8
LAYER_1
 10
159.584
 20
-85.3559
  0
SEQEND
  0
ENDBLK
  0
BLOCK
  8
LAYER_1
  2
AIGNBL0101005F
 70
64
 10
0
 20
0
 30
0
  3
AIGNBL0101005F
  0
POLYLINE
  8
LAYER_1
 40
0.1058
 41
0.1058
 66
1
 10
0
 20
0
 30
0
  0
VERTEX
  8
LAYER_1
 10
159.5961
 20
-86.5083
  0
VERTEX
  8
LAYER_1
 10
160.3192
 20
-85.6465
  0
SEQEND
  0
ENDBLK
  0
BLOCK
  8
LAYER_1
  2
AIGNBL01010060
 70
64
 10
0
 20
0
 30
0
  3
AIGNBL01010060
  0
POLYLINE
  8
LAYER_1
 40
0.1058
 41
0.1058
 66
1
 10
0
 20
0
 30
0
  0
VERTEX
  8
LAYER_1
 10
133.7583
 20
-89.1403
  0
VERTEX
  8
LAYER_1
 10
133.7583
 20
-92.0153
  0
SEQEND
  0
ENDBLK
  0
BLOCK
  8
LAYER_1
  2
AIGNBL01010061
 70
64
 10
0
 20
0
 30
0
  3
AIGNBL01010061
  0
POLYLINE
  8
LAYER_1
 40
0.1058
 41
0.1058
 66
1
 10
0
 20
0
 30
0
  0
VERTEX
  8
LAYER_1
 10
134.5083
 20
-92.1903
  0
VERTEX
  8
LAYER_1
 10
134.5083
 20
-88.8903
  0
SEQEND
  0
ENDBLK
  0
BLOCK
  8
LAYER_1
  2
AIGNBL01010062
 70
64
 10
0
 20
0
 30
0
  3
AIGNBL01010062
  0
POLYLINE
  8
LAYER_1
 40
0.1058
 41
0.1058
 66
1
 10
0
 20
0
 30
0
  0
VERTEX
  8
LAYER_1
 10
134.6333
 20
-92.1903
  0
VERTEX
  8
LAYER_1
 10
134.6333
 20
-92.6903
  0
SEQEND
  0
ENDBLK
  0
BLOCK
  8
LAYER_1
  2
AIGNBL01010063
 70
64
 10
0
 20
0
 30
0
  3
AIGNBL01010063
  0
POLYLINE
  8
LAYER_1
 40
0.1058
 41
0.1058
 66
1
 10
0
 20
0
 30
0
  0
VERTEX
  8
LAYER_1
 10
136.0708
 20
-92.6903
  0
VERTEX
  8
LAYER_1
 10
136.0708
 20
-92.8153
  0
SEQEND
  0
ENDBLK
  0
BLOCK
  8
LAYER_1
  2
AIGNBL01010064
 70
64
 10
0
 20
0
 30
0
  3
AIGNBL01010064
  0
POLYLINE
  8
LAYER_1
  6
AIGENLINE001
 40
0.1058
 41
0.1058
 66
1
 10
0
 20
0
 30
0
 70
128
  0
VERTEX
  8
LAYER_1
 10
138.3833
 20
-115.821
  0
VERTEX
  8
LAYER_1
 10
138.3833
 20
-89.4403
  0
SEQEND
  0
ENDBLK
  0
BLOCK
  8
LAYER_1
  2
AIGNBL01010065
 70
64
 10
0
 20
0
 30
0
  3
AIGNBL01010065
  0
POLYLINE
  8
LAYER_1
 40
0.1058
 41
0.1058
 66
1
 10
0
 20
0
 30
0
  0
VERTEX
  8
LAYER_1
 10
167.6517
 20
-91.7992
  0
VERTEX
  8
LAYER_1
 10
167.491
 20
-91.9908
  0
SEQEND
  0
ENDBLK
  0
BLOCK
  8
LAYER_1
  2
AIGNBL01010066
 70
64
 10
0
 20
0
 30
0
  3
AIGNBL01010066
  0
POLYLINE
  8
LAYER_1
 40
0.1058
 41
0.1058
 66
1
 10
0
 20
0
 30
0
  0
VERTEX
  8
LAYER_1
 10
166.9286
 20
-92.661
  0
VERTEX
  8
LAYER_1
 10
167.0893
 20
-92.4695
  0
SEQEND
  0
ENDBLK
  0
BLOCK
  8
LAYER_1
  2
AIGNBL01010067
 70
64
 10
0
 20
0
 30
0
  3
AIGNBL01010067
  0
POLYLINE
  8
LAYER_1
 40
0.1058
 41
0.1058
 66
1
 10
0
 20
0
 30
0
  0
VERTEX
  8
LAYER_1
 10
140.6958
 20
-92.6903
  0
VERTEX
  8
LAYER_1
 10
140.6958
 20
-92.8153
  0
SEQEND
  0
ENDBLK
  0
BLOCK
  8
LAYER_1
  2
AIGNBL01010068
 70
64
 10
0
 20
0
 30
0
  3
AIGNBL01010068
  0
POLYLINE
  8
LAYER_1
 40
0.1058
 41
0.1058
 66
1
 10
0
 20
0
 30
0
  0
VERTEX
  8
LAYER_1
 10
142.1333
 20
-92.1903
  0
VERTEX
  8
LAYER_1
 10
142.1333
 20
-92.6903
  0
SEQEND
  0
ENDBLK
  0
BLOCK
  8
LAYER_1
  2
AIGNBL01010069
 70
64
 10
0
 20
0
 30
0
  3
AIGNBL01010069
  0
POLYLINE
  8
LAYER_1
 40
0.1058
 41
0.1058
 66
1
 10
0
 20
0
 30
0
  0
VERTEX
  8
LAYER_1
 10
173.5192
 20
-98.6971
  0
VERTEX
  8
LAYER_1
 10
174.7405
 20
-97.2416
  0
SEQEND
  0
ENDBLK
  0
BLOCK
  8
LAYER_1
  2
AIGNBL0101006A
 70
64
 10
0
 20
0
 30
0
  3
AIGNBL0101006A
  0
POLYLINE
  8
LAYER_1
 40
0.1058
 41
0.1058
 66
1
 10
0
 20
0
 30
0
  0
VERTEX
  8
LAYER_1
 10
173.5767
 20
-98.7453
  0
VERTEX
  8
LAYER_1
 10
174.7979
 20
-97.2898
  0
SEQEND
  0
ENDBLK
  0
BLOCK
  8
LAYER_1
  2
AIGNBL0101006B
 70
64
 10
0
 20
0
 30
0
  3
AIGNBL0101006B
  0
POLYLINE
  8
LAYER_1
 40
0.1058
 41
0.1058
 66
1
 10
0
 20
0
 30
0
  0
VERTEX
  8
LAYER_1
 10
166.5083
 20
-137.0403
  0
VERTEX
  8
LAYER_1
 10
175.0083
 20
-137.0403
  0
SEQEND
  0
ENDBLK
  0
BLOCK
  8
LAYER_1
  2
AIGNBL0101006C
 70
64
 10
0
 20
0
 30
0
  3
AIGNBL0101006C
  0
POLYLINE
  8
LAYER_1
 40
0.1058
 41
0.1058
 66
1
 10
0
 20
0
 30
0
  0
VERTEX
  8
LAYER_1
 10
166.1333
 20
-131.2903
  0
VERTEX
  8
LAYER_1
 10
175.3833
 20
-131.2903
  0
SEQEND
  0
ENDBLK
  0
BLOCK
  8
LAYER_1
  2
AIGNBL0101006D
 70
64
 10
0
 20
0
 30
0
  3
AIGNBL0101006D
  0
POLYLINE
  8
LAYER_1
 40
0.1058
 41
0.1058
 66
1
 10
0
 20
0
 30
0
  0
VERTEX
  8
LAYER_1
 10
158.9156
 20
-92.2653
  0
VERTEX
  8
LAYER_1
 10
158.9156
 20
-92.0153
  0
SEQEND
  0
ENDBLK
  0
BLOCK
  8
LAYER_1
  2
AIGNBL0101006E
 70
64
 10
0
 20
0
 30
0
  3
AIGNBL0101006E
  0
POLYLINE
  8
LAYER_1
 40
0.1058
 41
0.1058
 66
1
 10
0
 20
0
 30
0
  0
VERTEX
  8
LAYER_1
 10
166.1333
 20
-129.5403
  0
VERTEX
  8
LAYER_1
 10
175.3833
 20
-129.5403
  0
SEQEND
  0
ENDBLK
  0
BLOCK
  8
LAYER_1
  2
AIGNBL0101006F
 70
64
 10
0
 20
0
 30
0
  3
AIGNBL0101006F
  0
POLYLINE
  8
LAYER_1
 40
0.1058
 41
0.1058
 66
1
 10
0
 20
0
 30
0
  0
VERTEX
  8
LAYER_1
 10
163.2583
 20
-128.2903
  0
VERTEX
  8
LAYER_1
 10
178.2583
 20
-128.2903
  0
SEQEND
  0
ENDBLK
  0
BLOCK
  8
LAYER_1
  2
AIGNBL01010070
 70
64
 10
0
 20
0
 30
0
  3
AIGNBL01010070
  0
POLYLINE
  8
LAYER_1
 40
0.1058
 41
0.1058
 66
1
 10
0
 20
0
 30
0
  0
VERTEX
  8
LAYER_1
 10
163.2583
 20
-128.1403
  0
VERTEX
  8
LAYER_1
 10
178.2583
 20
-128.1403
  0
SEQEND
  0
ENDBLK
  0
BLOCK
  8
LAYER_1
  2
AIGNBL01010071
 70
64
 10
0
 20
0
 30
0
  3
AIGNBL01010071
  0
POLYLINE
  8
LAYER_1
 40
0.1058
 41
0.1058
 66
1
 10
0
 20
0
 30
0
  0
VERTEX
  8
LAYER_1
 10
177.3
 20
-127.9153
  0
VERTEX
  8
LAYER_1
 10
164.2167
 20
-127.9153
  0
SEQEND
  0
ENDBLK
  0
BLOCK
  8
LAYER_1
  2
AIGNBL01010072
 70
64
 10
0
 20
0
 30
0
  3
AIGNBL01010072
  0
POLYLINE
  8
LAYER_1
 40
0.1058
 41
0.1058
 66
1
 10
0
 20
0
 30
0
  0
VERTEX
  8
LAYER_1
 10
165.4458
 20
-126.8903
  0
VERTEX
  8
LAYER_1
 10
176.0708
 20
-126.8903
  0
SEQEND
  0
ENDBLK
  0
BLOCK
  8
LAYER_1
  2
AIGNBL01010073
 70
64
 10
0
 20
0
 30
0
  3
AIGNBL01010073
  0
POLYLINE
  8
LAYER_1
 40
0.1058
 41
0.1058
 66
1
 10
0
 20
0
 30
0
  0
VERTEX
  8
LAYER_1
 10
165.4458
 20
-126.1403
  0
VERTEX
  8
LAYER_1
 10
176.0708
 20
-126.1403
  0
SEQEND
  0
ENDBLK
  0
BLOCK
  8
LAYER_1
  2
AIGNBL01010074
 70
64
 10
0
 20
0
 30
0
  3
AIGNBL01010074
  0
POLYLINE
  8
LAYER_1
 40
0.1058
 41
0.1058
 66
1
 10
0
 20
0
 30
0
  0
VERTEX
  8
LAYER_1
 10
163.2583
 20
-128.1403
  0
VERTEX
  8
LAYER_1
 10
163.2583
 20
-128.2903
  0
SEQEND
  0
ENDBLK
  0
BLOCK
  8
LAYER_1
  2
AIGNBL01010075
 70
64
 10
0
 20
0
 30
0
  3
AIGNBL01010075
  0
POLYLINE
  8
LAYER_1
 40
0.1058
 41
0.1058
 66
1
 10
0
 20
0
 30
0
  0
VERTEX
  8
LAYER_1
 10
176.0033
 20
-125.0203
  0
VERTEX
  8
LAYER_1
 10
165.5133
 20
-125.0203
  0
SEQEND
  0
ENDBLK
  0
BLOCK
  8
LAYER_1
  2
AIGNBL01010076
 70
64
 10
0
 20
0
 30
0
  3
AIGNBL01010076
  0
POLYLINE
  8
LAYER_1
 40
0.1058
 41
0.1058
 66
1
 10
0
 20
0
 30
0
  0
VERTEX
  8
LAYER_1
 10
164.5083
 20
-124.8903
  0
VERTEX
  8
LAYER_1
 10
177.0083
 20
-124.8903
  0
SEQEND
  0
ENDBLK
  0
BLOCK
  8
LAYER_1
  2
AIGNBL01010077
 70
64
 10
0
 20
0
 30
0
  3
AIGNBL01010077
  0
POLYLINE
  8
LAYER_1
 40
0.1058
 41
0.1058
 66
1
 10
0
 20
0
 30
0
  0
VERTEX
  8
LAYER_1
 10
164.5083
 20
-124.1403
  0
VERTEX
  8
LAYER_1
 10
177.0083
 20
-124.1403
  0
SEQEND
  0
ENDBLK
  0
BLOCK
  8
LAYER_1
  2
AIGNBL01010078
 70
64
 10
0
 20
0
 30
0
  3
AIGNBL01010078
  0
POLYLINE
  8
LAYER_1
 40
0.1058
 41
0.1058
 66
1
 10
0
 20
0
 30
0
  0
VERTEX
  8
LAYER_1
 10
164.7583
 20
-123.8903
  0
VERTEX
  8
LAYER_1
 10
176.7583
 20
-123.8903
  0
SEQEND
  0
ENDBLK
  0
BLOCK
  8
LAYER_1
  2
AIGNBL01010079
 70
64
 10
0
 20
0
 30
0
  3
AIGNBL01010079
  0
POLYLINE
  8
LAYER_1
 40
0.1058
 41
0.1058
 66
1
 10
0
 20
0
 30
0
  0
VERTEX
  8
LAYER_1
 10
164.5083
 20
-124.1403
  0
VERTEX
  8
LAYER_1
 10
164.5083
 20
-124.8903
  0
SEQEND
  0
ENDBLK
  0
BLOCK
  8
LAYER_1
  2
AIGNBL0101007A
 70
64
 10
0
 20
0
 30
0
  3
AIGNBL0101007A
  0
POLYLINE
  8
LAYER_1
 40
0.1058
 41
0.1058
 66
1
 10
0
 20
0
 30
0
  0
VERTEX
  8
LAYER_1
 10
165.4458
 20
-126.1403
  0
VERTEX
  8
LAYER_1
 10
165.4458
 20
-126.8903
  0
SEQEND
  0
ENDBLK
  0
BLOCK
  8
LAYER_1
  2
AIGNBL0101007B
 70
64
 10
0
 20
0
 30
0
  3
AIGNBL0101007B
  0
POLYLINE
  8
LAYER_1
 40
0.1058
 41
0.1058
 66
1
 10
0
 20
0
 30
0
  0
VERTEX
  8
LAYER_1
 10
165.7583
 20
-123.8903
  0
VERTEX
  8
LAYER_1
 10
165.7583
 20
-124.8903
  0
SEQEND
  0
ENDBLK
  0
BLOCK
  8
LAYER_1
  2
AIGNBL0101007C
 70
64
 10
0
 20
0
 30
0
  3
AIGNBL0101007C
  0
POLYLINE
  8
LAYER_1
 40
0.1058
 41
0.1058
 66
1
 10
0
 20
0
 30
0
  0
VERTEX
  8
LAYER_1
 10
166.1333
 20
-131.2903
  0
VERTEX
  8
LAYER_1
 10
166.1333
 20
-129.5403
  0
SEQEND
  0
ENDBLK
  0
BLOCK
  8
LAYER_1
  2
AIGNBL0101007D
 70
64
 10
0
 20
0
 30
0
  3
AIGNBL0101007D
  0
POLYLINE
  8
LAYER_1
 40
0.1058
 41
0.1058
 66
1
 10
0
 20
0
 30
0
  0
VERTEX
  8
LAYER_1
 10
166.1333
 20
-123.8903
  0
VERTEX
  8
LAYER_1
 10
166.1333
 20
-117.2653
  0
SEQEND
  0
ENDBLK
  0
BLOCK
  8
LAYER_1
  2
AIGNBL0101007E
 70
64
 10
0
 20
0
 30
0
  3
AIGNBL0101007E
  0
POLYLINE
  8
LAYER_1
 40
0.1058
 41
0.1058
 66
1
 10
0
 20
0
 30
0
  0
VERTEX
  8
LAYER_1
 10
166.5083
 20
-137.0403
  0
VERTEX
  8
LAYER_1
 10
166.5083
 20
-131.2903
  0
SEQEND
  0
ENDBLK
  0
BLOCK
  8
LAYER_1
  2
AIGNBL0101007F
 70
64
 10
0
 20
0
 30
0
  3
AIGNBL0101007F
  0
POLYLINE
  8
LAYER_1
 40
0.1058
 41
0.1058
 66
1
 10
0
 20
0
 30
0
  0
VERTEX
  8
LAYER_1
 10
166.6333
 20
-125.0203
  0
VERTEX
  8
LAYER_1
 10
166.6333
 20
-126.1403
  0
SEQEND
  0
ENDBLK
  0
BLOCK
  8
LAYER_1
  2
AIGNBL01010080
 70
64
 10
0
 20
0
 30
0
  3
AIGNBL01010080
  0
POLYLINE
  8
LAYER_1
 40
0.1058
 41
0.1058
 66
1
 10
0
 20
0
 30
0
  0
VERTEX
  8
LAYER_1
 10
166.6333
 20
-126.8903
  0
VERTEX
  8
LAYER_1
 10
166.6333
 20
-127.9153
  0
SEQEND
  0
ENDBLK
  0
BLOCK
  8
LAYER_1
  2
AIGNBL01010081
 70
64
 10
0
 20
0
 30
0
  3
AIGNBL01010081
  0
POLYLINE
  8
LAYER_1
 40
0.1058
 41
0.1058
 66
1
 10
0
 20
0
 30
0
  0
VERTEX
  8
LAYER_1
 10
166.6333
 20
-128.2903
  0
VERTEX
  8
LAYER_1
 10
166.6333
 20
-129.5403
  0
SEQEND
  0
ENDBLK
  0
BLOCK
  8
LAYER_1
  2
AIGNBL01010082
 70
64
 10
0
 20
0
 30
0
  3
AIGNBL01010082
  0
POLYLINE
  8
LAYER_1
 40
0.1058
 41
0.1058
 66
1
 10
0
 20
0
 30
0
  0
VERTEX
  8
LAYER_1
 10
166.8208
 20
-129.5403
  0
VERTEX
  8
LAYER_1
 10
166.8208
 20
-128.2903
  0
SEQEND
  0
ENDBLK
  0
BLOCK
  8
LAYER_1
  2
AIGNBL01010083
 70
64
 10
0
 20
0
 30
0
  3
AIGNBL01010083
  0
POLYLINE
  8
LAYER_1
 40
0.1058
 41
0.1058
 66
1
 10
0
 20
0
 30
0
  0
VERTEX
  8
LAYER_1
 10
166.8208
 20
-127.9153
  0
VERTEX
  8
LAYER_1
 10
166.8208
 20
-126.8903
  0
SEQEND
  0
ENDBLK
  0
BLOCK
  8
LAYER_1
  2
AIGNBL01010084
 70
64
 10
0
 20
0
 30
0
  3
AIGNBL01010084
  0
POLYLINE
  8
LAYER_1
 40
0.1058
 41
0.1058
 66
1
 10
0
 20
0
 30
0
  0
VERTEX
  8
LAYER_1
 10
166.8208
 20
-126.1403
  0
VERTEX
  8
LAYER_1
 10
166.8208
 20
-125.0203
  0
SEQEND
  0
ENDBLK
  0
BLOCK
  8
LAYER_1
  2
AIGNBL01010085
 70
64
 10
0
 20
0
 30
0
  3
AIGNBL01010085
  0
POLYLINE
  8
LAYER_1
 40
0.1058
 41
0.1058
 66
1
 10
0
 20
0
 30
0
  0
VERTEX
  8
LAYER_1
 10
170.7583
 20
-79.3641
  0
VERTEX
  8
LAYER_1
 10
170.7583
 20
-88.8903
  0
SEQEND
  0
ENDBLK
  0
BLOCK
  8
LAYER_1
  2
AIGNBL01010086
 70
64
 10
0
 20
0
 30
0
  3
AIGNBL01010086
  0
POLYLINE
  8
LAYER_1
 40
0.1058
 41
0.1058
 66
1
 10
0
 20
0
 30
0
  0
VERTEX
  8
LAYER_1
 10
170.7583
 20
-90.6003
  0
VERTEX
  8
LAYER_1
 10
170.7583
 20
-99.6803
  0
SEQEND
  0
ENDBLK
  0
BLOCK
  8
LAYER_1
  2
AIGNBL01010087
 70
64
 10
0
 20
0
 30
0
  3
AIGNBL01010087
  0
POLYLINE
  8
LAYER_1
 40
0.1058
 41
0.1058
 66
1
 10
0
 20
0
 30
0
  0
VERTEX
  8
LAYER_1
 10
170.7583
 20
-117.2653
  0
VERTEX
  8
LAYER_1
 10
170.7583
 20
-118.7214
  0
SEQEND
  0
ENDBLK
  0
BLOCK
  8
LAYER_1
  2
AIGNBL01010088
 70
64
 10
0
 20
0
 30
0
  3
AIGNBL01010088
  0
POLYLINE
  8
LAYER_1
 40
0.1058
 41
0.1058
 66
1
 10
0
 20
0
 30
0
  0
VERTEX
  8
LAYER_1
 10
170.7583
 20
-129.8956
  0
VERTEX
  8
LAYER_1
 10
170.7583
 20
-130.9349
  0
SEQEND
  0
ENDBLK
  0
BLOCK
  8
LAYER_1
  2
AIGNBL01010089
 70
64
 10
0
 20
0
 30
0
  3
AIGNBL01010089
  0
POLYLINE
  8
LAYER_1
 40
0.1058
 41
0.1058
 66
1
 10
0
 20
0
 30
0
  0
VERTEX
  8
LAYER_1
 10
170.7583
 20
-137.1403
  0
VERTEX
  8
LAYER_1
 10
170.7583
 20
-130.9349
  0
SEQEND
  0
ENDBLK
  0
BLOCK
  8
LAYER_1
  2
AIGNBL0101008A
 70
64
 10
0
 20
0
 30
0
  3
AIGNBL0101008A
  0
POLYLINE
  8
LAYER_1
 40
0.1058
 41
0.1058
 66
1
 10
0
 20
0
 30
0
  0
VERTEX
  8
LAYER_1
 10
170.7583
 20
-129.8956
  0
VERTEX
  8
LAYER_1
 10
170.7583
 20
-124.9397
  0
SEQEND
  0
ENDBLK
  0
BLOCK
  8
LAYER_1
  2
AIGNBL0101008B
 70
64
 10
0
 20
0
 30
0
  3
AIGNBL0101008B
  0
POLYLINE
  8
LAYER_1
 40
0.1058
 41
0.1058
 66
1
 10
0
 20
0
 30
0
  0
VERTEX
  8
LAYER_1
 10
170.7583
 20
-117.2653
  0
VERTEX
  8
LAYER_1
 10
170.7583
 20
-99.6803
  0
SEQEND
  0
ENDBLK
  0
BLOCK
  8
LAYER_1
  2
AIGNBL0101008C
 70
64
 10
0
 20
0
 30
0
  3
AIGNBL0101008C
  0
POLYLINE
  8
LAYER_1
 40
0.1058
 41
0.1058
 66
1
 10
0
 20
0
 30
0
  0
VERTEX
  8
LAYER_1
 10
170.7583
 20
-90.6003
  0
VERTEX
  8
LAYER_1
 10
170.7583
 20
-88.8903
  0
SEQEND
  0
ENDBLK
  0
BLOCK
  8
LAYER_1
  2
AIGNBL0101008D
 70
64
 10
0
 20
0
 30
0
  3
AIGNBL0101008D
  0
POLYLINE
  8
LAYER_1
 40
0.1058
 41
0.1058
 66
1
 10
0
 20
0
 30
0
  0
VERTEX
  8
LAYER_1
 10
174.6958
 20
-129.5403
  0
VERTEX
  8
LAYER_1
 10
174.6958
 20
-128.2903
  0
SEQEND
  0
ENDBLK
  0
BLOCK
  8
LAYER_1
  2
AIGNBL0101008E
 70
64
 10
0
 20
0
 30
0
  3
AIGNBL0101008E
  0
POLYLINE
  8
LAYER_1
 40
0.1058
 41
0.1058
 66
1
 10
0
 20
0
 30
0
  0
VERTEX
  8
LAYER_1
 10
174.6958
 20
-127.9153
  0
VERTEX
  8
LAYER_1
 10
174.6958
 20
-126.8903
  0
SEQEND
  0
ENDBLK
  0
BLOCK
  8
LAYER_1
  2
AIGNBL0101008F
 70
64
 10
0
 20
0
 30
0
  3
AIGNBL0101008F
  0
POLYLINE
  8
LAYER_1
 40
0.1058
 41
0.1058
 66
1
 10
0
 20
0
 30
0
  0
VERTEX
  8
LAYER_1
 10
174.6958
 20
-126.1403
  0
VERTEX
  8
LAYER_1
 10
174.6958
 20
-125.0203
  0
SEQEND
  0
ENDBLK
  0
BLOCK
  8
LAYER_1
  2
AIGNBL01010090
 70
64
 10
0
 20
0
 30
0
  3
AIGNBL01010090
  0
POLYLINE
  8
LAYER_1
 40
0.1058
 41
0.1058
 66
1
 10
0
 20
0
 30
0
  0
VERTEX
  8
LAYER_1
 10
174.8833
 20
-125.0203
  0
VERTEX
  8
LAYER_1
 10
174.8833
 20
-126.1403
  0
SEQEND
  0
ENDBLK
  0
BLOCK
  8
LAYER_1
  2
AIGNBL01010091
 70
64
 10
0
 20
0
 30
0
  3
AIGNBL01010091
  0
POLYLINE
  8
LAYER_1
 40
0.1058
 41
0.1058
 66
1
 10
0
 20
0
 30
0
  0
VERTEX
  8
LAYER_1
 10
174.8833
 20
-126.8903
  0
VERTEX
  8
LAYER_1
 10
174.8833
 20
-127.9153
  0
SEQEND
  0
ENDBLK
  0
BLOCK
  8
LAYER_1
  2
AIGNBL01010092
 70
64
 10
0
 20
0
 30
0
  3
AIGNBL01010092
  0
POLYLINE
  8
LAYER_1
 40
0.1058
 41
0.1058
 66
1
 10
0
 20
0
 30
0
  0
VERTEX
  8
LAYER_1
 10
174.8833
 20
-128.2903
  0
VERTEX
  8
LAYER_1
 10
174.8833
 20
-129.5403
  0
SEQEND
  0
ENDBLK
  0
BLOCK
  8
LAYER_1
  2
AIGNBL01010093
 70
64
 10
0
 20
0
 30
0
  3
AIGNBL01010093
  0
POLYLINE
  8
LAYER_1
 40
0.1058
 41
0.1058
 66
1
 10
0
 20
0
 30
0
  0
VERTEX
  8
LAYER_1
 10
175.0083
 20
-137.0403
  0
VERTEX
  8
LAYER_1
 10
175.0083
 20
-131.2903
  0
SEQEND
  0
ENDBLK
  0
BLOCK
  8
LAYER_1
  2
AIGNBL01010094
 70
64
 10
0
 20
0
 30
0
  3
AIGNBL01010094
  0
POLYLINE
  8
LAYER_1
 40
0.1058
 41
0.1058
 66
1
 10
0
 20
0
 30
0
  0
VERTEX
  8
LAYER_1
 10
175.3833
 20
-129.5403
  0
VERTEX
  8
LAYER_1
 10
175.3833
 20
-131.2903
  0
SEQEND
  0
ENDBLK
  0
BLOCK
  8
LAYER_1
  2
AIGNBL01010095
 70
64
 10
0
 20
0
 30
0
  3
AIGNBL01010095
  0
POLYLINE
  8
LAYER_1
 40
0.1058
 41
0.1058
 66
1
 10
0
 20
0
 30
0
  0
VERTEX
  8
LAYER_1
 10
175.3833
 20
-123.8903
  0
VERTEX
  8
LAYER_1
 10
175.3833
 20
-118.0154
  0
SEQEND
  0
ENDBLK
  0
BLOCK
  8
LAYER_1
  2
AIGNBL01010096
 70
64
 10
0
 20
0
 30
0
  3
AIGNBL01010096
  0
POLYLINE
  8
LAYER_1
 40
0.1058
 41
0.1058
 66
1
 10
0
 20
0
 30
0
  0
VERTEX
  8
LAYER_1
 10
175.3833
 20
-114.3606
  0
VERTEX
  8
LAYER_1
 10
175.3833
 20
-89.1403
  0
SEQEND
  0
ENDBLK
  0
BLOCK
  8
LAYER_1
  2
AIGNBL01010097
 70
64
 10
0
 20
0
 30
0
  3
AIGNBL01010097
  0
POLYLINE
  8
LAYER_1
 40
0.1058
 41
0.1058
 66
1
 10
0
 20
0
 30
0
  0
VERTEX
  8
LAYER_1
 10
175.7583
 20
-123.8903
  0
VERTEX
  8
LAYER_1
 10
175.7583
 20
-124.8903
  0
SEQEND
  0
ENDBLK
  0
BLOCK
  8
LAYER_1
  2
AIGNBL01010098
 70
64
 10
0
 20
0
 30
0
  3
AIGNBL01010098
  0
POLYLINE
  8
LAYER_1
 40
0.1058
 41
0.1058
 66
1
 10
0
 20
0
 30
0
  0
VERTEX
  8
LAYER_1
 10
176.0708
 20
-126.1403
  0
VERTEX
  8
LAYER_1
 10
176.0708
 20
-126.8903
  0
SEQEND
  0
ENDBLK
  0
BLOCK
  8
LAYER_1
  2
AIGNBL01010099
 70
64
 10
0
 20
0
 30
0
  3
AIGNBL01010099
  0
POLYLINE
  8
LAYER_1
 40
0.1058
 41
0.1058
 66
1
 10
0
 20
0
 30
0
  0
VERTEX
  8
LAYER_1
 10
177.0083
 20
-124.1403
  0
VERTEX
  8
LAYER_1
 10
177.0083
 20
-124.8903
  0
SEQEND
  0
ENDBLK
  0
BLOCK
  8
LAYER_1
  2
AIGNBL0101009A
 70
64
 10
0
 20
0
 30
0
  3
AIGNBL0101009A
  0
POLYLINE
  8
LAYER_1
 40
0.1058
 41
0.1058
 66
1
 10
0
 20
0
 30
0
  0
VERTEX
  8
LAYER_1
 10
178.2583
 20
-128.1403
  0
VERTEX
  8
LAYER_1
 10
178.2583
 20
-128.2903
  0
SEQEND
  0
ENDBLK
  0
BLOCK
  8
LAYER_1
  2
AIGNBL0101009B
 70
64
 10
0
 20
0
 30
0
  3
AIGNBL0101009B
  0
POLYLINE
  8
LAYER_1
 40
0.1058
 41
0.1058
 66
1
 10
0
 20
0
 30
0
  0
VERTEX
  8
LAYER_1
 10
136.0708
 20
-92.8153
  0
VERTEX
  8
LAYER_1
 10
140.6958
 20
-92.8153
  0
SEQEND
  0
ENDBLK
  0
BLOCK
  8
LAYER_1
  2
AIGNBL0101009C
 70
64
 10
0
 20
0
 30
0
  3
AIGNBL0101009C
  0
POLYLINE
  8
LAYER_1
 40
0.1058
 41
0.1058
 66
1
 10
0
 20
0
 30
0
  0
VERTEX
  8
LAYER_1
 10
134.6333
 20
-92.6903
  0
VERTEX
  8
LAYER_1
 10
142.1333
 20
-92.6903
  0
SEQEND
  0
ENDBLK
  0
BLOCK
  8
LAYER_1
  2
AIGNBL0101009D
 70
64
 10
0
 20
0
 30
0
  3
AIGNBL0101009D
  0
POLYLINE
  8
LAYER_1
 40
0.1058
 41
0.1058
 66
1
 10
0
 20
0
 30
0
  0
VERTEX
  8
LAYER_1
 10
173.5192
 20
-98.6971
  0
VERTEX
  8
LAYER_1
 10
173.5767
 20
-98.7453
  0
SEQEND
  0
ENDBLK
  0
BLOCK
  8
LAYER_1
  2
AIGNBL0101009E
 70
64
 10
0
 20
0
 30
0
  3
AIGNBL0101009E
  0
POLYLINE
  8
LAYER_1
 40
0.1058
 41
0.1058
 66
1
 10
0
 20
0
 30
0
  0
VERTEX
  8
LAYER_1
 10
173.6879
 20
-98.496
  0
VERTEX
  8
LAYER_1
 10
173.6458
 20
-98.4606
  0
SEQEND
  0
ENDBLK
  0
BLOCK
  8
LAYER_1
  2
AIGNBL0101009F
 70
64
 10
0
 20
0
 30
0
  3
AIGNBL0101009F
  0
POLYLINE
  8
LAYER_1
 40
0.1058
 41
0.1058
 66
1
 10
0
 20
0
 30
0
  0
VERTEX
  8
LAYER_1
 10
173.7182
 20
-98.4599
  0
VERTEX
  8
LAYER_1
 10
173.6805
 20
-98.4283
  0
SEQEND
  0
ENDBLK
  0
BLOCK
  8
LAYER_1
  2
AIGNBL010100A0
 70
64
 10
0
 20
0
 30
0
  3
AIGNBL010100A0
  0
POLYLINE
  8
LAYER_1
 40
0.1058
 41
0.1058
 66
1
 10
0
 20
0
 30
0
  0
VERTEX
  8
LAYER_1
 10
166.9286
 20
-92.661
  0
VERTEX
  8
LAYER_1
 10
159.213
 20
-86.1869
  0
SEQEND
  0
ENDBLK
  0
BLOCK
  8
LAYER_1
  2
AIGNBL010100A1
 70
64
 10
0
 20
0
 30
0
  3
AIGNBL010100A1
  0
POLYLINE
  8
LAYER_1
 40
0.1058
 41
0.1058
 66
1
 10
0
 20
0
 30
0
  0
VERTEX
  8
LAYER_1
 10
167.0893
 20
-92.4695
  0
VERTEX
  8
LAYER_1
 10
159.1822
 20
-85.8347
  0
SEQEND
  0
ENDBLK
  0
BLOCK
  8
LAYER_1
  2
AIGNBL010100A2
 70
64
 10
0
 20
0
 30
0
  3
AIGNBL010100A2
  0
POLYLINE
  8
LAYER_1
 40
0.1058
 41
0.1058
 66
1
 10
0
 20
0
 30
0
  0
VERTEX
  8
LAYER_1
 10
173.9502
 20
-98.1834
  0
VERTEX
  8
LAYER_1
 10
173.9414
 20
-98.1761
  0
SEQEND
  0
ENDBLK
  0
BLOCK
  8
LAYER_1
  2
AIGNBL010100A3
 70
64
 10
0
 20
0
 30
0
  3
AIGNBL010100A3
  0
POLYLINE
  8
LAYER_1
 40
0.1058
 41
0.1058
 66
1
 10
0
 20
0
 30
0
  0
VERTEX
  8
LAYER_1
 10
173.9691
 20
-98.1608
  0
VERTEX
  8
LAYER_1
 10
173.9612
 20
-98.1542
  0
SEQEND
  0
ENDBLK
  0
BLOCK
  8
LAYER_1
  2
AIGNBL010100A4
 70
64
 10
0
 20
0
 30
0
  3
AIGNBL010100A4
  0
POLYLINE
  8
LAYER_1
 40
0.1058
 41
0.1058
 66
1
 10
0
 20
0
 30
0
  0
VERTEX
  8
LAYER_1
 10
173.1148
 20
-97.1176
  0
VERTEX
  8
LAYER_1
 10
158.4628
 20
-84.8231
  0
SEQEND
  0
ENDBLK
  0
BLOCK
  8
LAYER_1
  2
AIGNBL010100A5
 70
64
 10
0
 20
0
 30
0
  3
AIGNBL010100A5
  0
POLYLINE
  8
LAYER_1
 40
0.1058
 41
0.1058
 66
1
 10
0
 20
0
 30
0
  0
VERTEX
  8
LAYER_1
 10
174.2905
 20
-97.7778
  0
VERTEX
  8
LAYER_1
 10
174.2826
 20
-97.7712
  0
SEQEND
  0
ENDBLK
  0
BLOCK
  8
LAYER_1
  2
AIGNBL010100A6
 70
64
 10
0
 20
0
 30
0
  3
AIGNBL010100A6
  0
POLYLINE
  8
LAYER_1
 40
0.1058
 41
0.1058
 66
1
 10
0
 20
0
 30
0
  0
VERTEX
  8
LAYER_1
 10
167.9727
 20
-91.7996
  0
VERTEX
  8
LAYER_1
 10
168.133
 20
-91.9914
  0
SEQEND
  0
ENDBLK
  0
BLOCK
  8
LAYER_1
  2
AIGNBL010100A7
 70
64
 10
0
 20
0
 30
0
  3
AIGNBL010100A7
  0
POLYLINE
  8
LAYER_1
 40
0.1058
 41
0.1058
 66
1
 10
0
 20
0
 30
0
  0
VERTEX
  8
LAYER_1
 10
158.9156
 20
-92.2653
  0
VERTEX
  8
LAYER_1
 10
143.1906
 20
-92.2653
  0
SEQEND
  0
ENDBLK
  0
BLOCK
  8
LAYER_1
  2
AIGNBL010100A8
 70
64
 10
0
 20
0
 30
0
  3
AIGNBL010100A8
  0
POLYLINE
  8
LAYER_1
 40
0.1058
 41
0.1058
 66
1
 10
0
 20
0
 30
0
  0
VERTEX
  8
LAYER_1
 10
143.0218
 20
-92.1903
  0
VERTEX
  8
LAYER_1
 10
133.8298
 20
-92.1903
  0
SEQEND
  0
ENDBLK
  0
BLOCK
  8
LAYER_1
  2
AIGNBL010100A9
 70
64
 10
0
 20
0
 30
0
  3
AIGNBL010100A9
  0
POLYLINE
  8
LAYER_1
 40
0.1058
 41
0.1058
 66
1
 10
0
 20
0
 30
0
  0
VERTEX
  8
LAYER_1
 10
158.9156
 20
-92.0153
  0
VERTEX
  8
LAYER_1
 10
133.7583
 20
-92.0153
  0
SEQEND
  0
ENDBLK
  0
BLOCK
  8
LAYER_1
  2
AIGNBL010100AA
 70
64
 10
0
 20
0
 30
0
  3
AIGNBL010100AA
  0
POLYLINE
  8
LAYER_1
 40
0.1058
 41
0.1058
 66
1
 10
0
 20
0
 30
0
  0
VERTEX
  8
LAYER_1
 10
133.7583
 20
-89.1403
  0
VERTEX
  8
LAYER_1
 10
162.7327
 20
-89.1403
  0
SEQEND
  0
ENDBLK
  0
BLOCK
  8
LAYER_1
  2
AIGNBL010100AB
 70
64
 10
0
 20
0
 30
0
  3
AIGNBL010100AB
  0
POLYLINE
  8
LAYER_1
 40
0.1058
 41
0.1058
 66
1
 10
0
 20
0
 30
0
  0
VERTEX
  8
LAYER_1
 10
164.4829
 20
-89.1403
  0
VERTEX
  8
LAYER_1
 10
175.3833
 20
-89.1403
  0
SEQEND
  0
ENDBLK
  0
BLOCK
  8
LAYER_1
  2
AIGNBL010100AC
 70
64
 10
0
 20
0
 30
0
  3
AIGNBL010100AC
  0
POLYLINE
  8
LAYER_1
 40
0.1058
 41
0.1058
 66
1
 10
0
 20
0
 30
0
  0
VERTEX
  8
LAYER_1
 10
134.0083
 20
-88.8903
  0
VERTEX
  8
LAYER_1
 10
162.4348
 20
-88.8903
  0
SEQEND
  0
ENDBLK
  0
BLOCK
  8
LAYER_1
  2
AIGNBL010100AD
 70
64
 10
0
 20
0
 30
0
  3
AIGNBL010100AD
  0
POLYLINE
  8
LAYER_1
 40
0.1058
 41
0.1058
 66
1
 10
0
 20
0
 30
0
  0
VERTEX
  8
LAYER_1
 10
164.185
 20
-88.8903
  0
VERTEX
  8
LAYER_1
 10
175.1333
 20
-88.8903
  0
SEQEND
  0
ENDBLK
  0
BLOCK
  8
LAYER_1
  2
AIGNBL010100AE
 70
64
 10
0
 20
0
 30
0
  3
AIGNBL010100AE
  0
POLYLINE
  8
LAYER_1
 40
0.1058
 41
0.1058
 66
1
 10
0
 20
0
 30
0
  0
VERTEX
  8
LAYER_1
 10
166.9846
 20
-92.9771
  0
VERTEX
  8
LAYER_1
 10
167.2014
 20
-93.1017
  0
SEQEND
  0
ENDBLK
  0
BLOCK
  8
LAYER_1
  2
AIGNBL010100AF
 70
64
 10
0
 20
0
 30
0
  3
AIGNBL010100AF
  0
POLYLINE
  8
LAYER_1
 40
0.1058
 41
0.1058
 66
1
 10
0
 20
0
 30
0
  0
VERTEX
  8
LAYER_1
 10
174.3095
 20
-97.7552
  0
VERTEX
  8
LAYER_1
 10
174.3007
 20
-97.7478
  0
SEQEND
  0
ENDBLK
  0
BLOCK
  8
LAYER_1
  2
AIGNBL010100B0
 70
64
 10
0
 20
0
 30
0
  3
AIGNBL010100B0
  0
POLYLINE
  8
LAYER_1
 40
0.1058
 41
0.1058
 66
1
 10
0
 20
0
 30
0
  0
VERTEX
  8
LAYER_1
 10
159.584
 20
-85.3559
  0
VERTEX
  8
LAYER_1
 10
167.491
 20
-91.9908
  0
SEQEND
  0
ENDBLK
  0
BLOCK
  8
LAYER_1
  2
AIGNBL010100B1
 70
64
 10
0
 20
0
 30
0
  3
AIGNBL010100B1
  0
POLYLINE
  8
LAYER_1
 40
0.1058
 41
0.1058
 66
1
 10
0
 20
0
 30
0
  0
VERTEX
  8
LAYER_1
 10
159.9362
 20
-85.3251
  0
VERTEX
  8
LAYER_1
 10
167.6517
 20
-91.7992
  0
SEQEND
  0
ENDBLK
  0
BLOCK
  8
LAYER_1
  2
AIGNBL010100B2
 70
64
 10
0
 20
0
 30
0
  3
AIGNBL010100B2
  0
POLYLINE
  8
LAYER_1
 40
0.1058
 41
0.1058
 66
1
 10
0
 20
0
 30
0
  0
VERTEX
  8
LAYER_1
 10
174.5415
 20
-97.4787
  0
VERTEX
  8
LAYER_1
 10
174.5038
 20
-97.4471
  0
SEQEND
  0
ENDBLK
  0
BLOCK
  8
LAYER_1
  2
AIGNBL010100B3
 70
64
 10
0
 20
0
 30
0
  3
AIGNBL010100B3
  0
POLYLINE
  8
LAYER_1
 40
0.1058
 41
0.1058
 66
1
 10
0
 20
0
 30
0
  0
VERTEX
  8
LAYER_1
 10
174.5718
 20
-97.4427
  0
VERTEX
  8
LAYER_1
 10
174.5296
 20
-97.4073
  0
SEQEND
  0
ENDBLK
  0
BLOCK
  8
LAYER_1
  2
AIGNBL010100B4
 70
64
 10
0
 20
0
 30
0
  3
AIGNBL010100B4
  0
POLYLINE
  8
LAYER_1
 40
0.1058
 41
0.1058
 66
1
 10
0
 20
0
 30
0
  0
VERTEX
  8
LAYER_1
 10
174.7405
 20
-97.2416
  0
VERTEX
  8
LAYER_1
 10
174.7979
 20
-97.2898
  0
SEQEND
  0
ENDBLK
  0
BLOCK
  8
LAYER_1
  2
AIGNBL010100B5
 70
64
 10
0
 20
0
 30
0
  3
AIGNBL010100B5
  0
POLYLINE
  8
LAYER_1
 40
0.1058
 41
0.1058
 66
1
 10
0
 20
0
 30
0
  0
VERTEX
  8
LAYER_1
 10
172.4633
 20
-80.3622
 42
0.4142149864
  0
VERTEX
  8
LAYER_1
 10
155.9815
 20
-93.4345
 42
0.1116666218
  0
VERTEX
  8
LAYER_1
 10
156.686
 20
-99.9589
  0
SEQEND
  0
ENDBLK
  0
BLOCK
  8
LAYER_1
  2
AIGNBL010100B6
 70
64
 10
0
 20
0
 30
0
  3
AIGNBL010100B6
  0
POLYLINE
  8
LAYER_1
 40
0.1058
 41
0.1058
 66
1
 10
0
 20
0
 30
0
  0
VERTEX
  8
LAYER_1
 10
134.0083
 20
-88.8903
 42
0.4141871164
  0
VERTEX
  8
LAYER_1
 10
133.7583
 20
-89.1403
  0
SEQEND
  0
ENDBLK
  0
BLOCK
  8
LAYER_1
  2
AIGNBL010100B7
 70
64
 10
0
 20
0
 30
0
  3
AIGNBL010100B7
  0
POLYLINE
  8
LAYER_1
 40
0.1058
 41
0.1058
 66
1
 10
0
 20
0
 30
0
  0
VERTEX
  8
LAYER_1
 10
133.7583
 20
-92.0153
 42
0.1938290661
  0
VERTEX
  8
LAYER_1
 10
133.8298
 20
-92.1903
  0
SEQEND
  0
ENDBLK
  0
BLOCK
  8
LAYER_1
  2
AIGNBL010100B8
 70
64
 10
0
 20
0
 30
0
  3
AIGNBL010100B8
  0
POLYLINE
  8
LAYER_1
 40
0.1058
 41
0.1058
 66
1
 10
0
 20
0
 30
0
  0
VERTEX
  8
LAYER_1
 10
164.2167
 20
-127.9153
 42
0.2770005276
  0
VERTEX
  8
LAYER_1
 10
163.8417
 20
-128.1403
  0
SEQEND
  0
ENDBLK
  0
BLOCK
  8
LAYER_1
  2
AIGNBL010100B9
 70
64
 10
0
 20
0
 30
0
  3
AIGNBL010100B9
  0
POLYLINE
  8
LAYER_1
 40
0.1058
 41
0.1058
 66
1
 10
0
 20
0
 30
0
  0
VERTEX
  8
LAYER_1
 10
165.2521
 20
-124.8904
 42
0.2349574043
  0
VERTEX
  8
LAYER_1
 10
165.5133
 20
-125.0203
  0
SEQEND
  0
ENDBLK
  0
BLOCK
  8
LAYER_1
  2
AIGNBL010100BA
 70
64
 10
0
 20
0
 30
0
  3
AIGNBL010100BA
  0
POLYLINE
  8
LAYER_1
 40
0.1058
 41
0.1058
 66
1
 10
0
 20
0
 30
0
  0
VERTEX
  8
LAYER_1
 10
164.7583
 20
-123.8903
 42
0.4141870972
  0
VERTEX
  8
LAYER_1
 10
164.5083
 20
-124.1403
  0
SEQEND
  0
ENDBLK
  0
BLOCK
  8
LAYER_1
  2
AIGNBL010100BB
 70
64
 10
0
 20
0
 30
0
  3
AIGNBL010100BB
  0
POLYLINE
  8
LAYER_1
 40
0.1058
 41
0.1058
 66
1
 10
0
 20
0
 30
0
  0
VERTEX
  8
LAYER_1
 10
167.2014
 20
-93.1017
 42
0.3634103144
  0
VERTEX
  8
LAYER_1
 10
167.0893
 20
-92.4695
  0
SEQEND
  0
ENDBLK
  0
BLOCK
  8
LAYER_1
  2
AIGNBL010100BC
 70
64
 10
0
 20
0
 30
0
  3
AIGNBL010100BC
  0
POLYLINE
  8
LAYER_1
 40
0.1058
 41
0.1058
 66
1
 10
0
 20
0
 30
0
  0
VERTEX
  8
LAYER_1
 10
167.491
 20
-91.9908
 42
0.3633754369
  0
VERTEX
  8
LAYER_1
 10
168.133
 20
-91.9914
  0
SEQEND
  0
ENDBLK
  0
BLOCK
  8
LAYER_1
  2
AIGNBL010100BD
 70
64
 10
0
 20
0
 30
0
  3
AIGNBL010100BD
  0
POLYLINE
  8
LAYER_1
 40
0.1058
 41
0.1058
 66
1
 10
0
 20
0
 30
0
  0
VERTEX
  8
LAYER_1
 10
159.9362
 20
-85.3251
 42
0.4141481307
  0
VERTEX
  8
LAYER_1
 10
159.584
 20
-85.3559
  0
SEQEND
  0
ENDBLK
  0
BLOCK
  8
LAYER_1
  2
AIGNBL010100BE
 70
64
 10
0
 20
0
 30
0
  3
AIGNBL010100BE
  0
POLYLINE
  8
LAYER_1
 40
0.1058
 41
0.1058
 66
1
 10
0
 20
0
 30
0
  0
VERTEX
  8
LAYER_1
 10
159.1822
 20
-85.8347
 42
0.4141629819
  0
VERTEX
  8
LAYER_1
 10
159.213
 20
-86.1869
  0
SEQEND
  0
ENDBLK
  0
BLOCK
  8
LAYER_1
  2
AIGNBL010100BF
 70
64
 10
0
 20
0
 30
0
  3
AIGNBL010100BF
  0
POLYLINE
  8
LAYER_1
 40
0.1058
 41
0.1058
 66
1
 10
0
 20
0
 30
0
  0
VERTEX
  8
LAYER_1
 10
166.9846
 20
-92.9771
 42
0.3634195164
  0
VERTEX
  8
LAYER_1
 10
166.9286
 20
-92.661
  0
SEQEND
  0
ENDBLK
  0
BLOCK
  8
LAYER_1
  2
AIGNBL010100C0
 70
64
 10
0
 20
0
 30
0
  3
AIGNBL010100C0
  0
POLYLINE
  8
LAYER_1
 40
0.1058
 41
0.1058
 66
1
 10
0
 20
0
 30
0
  0
VERTEX
  8
LAYER_1
 10
167.6517
 20
-91.7992
 42
0.3633972355
  0
VERTEX
  8
LAYER_1
 10
167.9727
 20
-91.7996
  0
SEQEND
  0
ENDBLK
  0
BLOCK
  8
LAYER_1
  2
AIGNBL010100C1
 70
64
 10
0
 20
0
 30
0
  3
AIGNBL010100C1
  0
POLYLINE
  8
LAYER_1
 40
0.1058
 41
0.1058
 66
1
 10
0
 20
0
 30
0
  0
VERTEX
  8
LAYER_1
 10
177.675
 20
-128.1403
 42
0.2769874949
  0
VERTEX
  8
LAYER_1
 10
177.3
 20
-127.9153
  0
SEQEND
  0
ENDBLK
  0
BLOCK
  8
LAYER_1
  2
AIGNBL010100C2
 70
64
 10
0
 20
0
 30
0
  3
AIGNBL010100C2
  0
POLYLINE
  8
LAYER_1
 40
0.1058
 41
0.1058
 66
1
 10
0
 20
0
 30
0
  0
VERTEX
  8
LAYER_1
 10
176.0033
 20
-125.0203
 42
0.2349769385
  0
VERTEX
  8
LAYER_1
 10
176.2645
 20
-124.8904
  0
SEQEND
  0
ENDBLK
  0
BLOCK
  8
LAYER_1
  2
AIGNBL010100C3
 70
64
 10
0
 20
0
 30
0
  3
AIGNBL010100C3
  0
POLYLINE
  8
LAYER_1
 40
0.1058
 41
0.1058
 66
1
 10
0
 20
0
 30
0
  0
VERTEX
  8
LAYER_1
 10
177.0083
 20
-124.1403
 42
0.4142587231
  0
VERTEX
  8
LAYER_1
 10
176.7583
 20
-123.8903
  0
SEQEND
  0
ENDBLK
  0
BLOCK
  8
LAYER_1
  2
AIGNBL010100C4
 70
64
 10
0
 20
0
 30
0
  3
AIGNBL010100C4
  0
POLYLINE
  8
LAYER_1
 40
0.1058
 41
0.1058
 66
1
 10
0
 20
0
 30
0
  0
VERTEX
  8
LAYER_1
 10
166.7528
 20
-92.5136
 42
0.4142159476
  0
VERTEX
  8
LAYER_1
 10
168.1317
 20
-99.1458
 42
0.1461278988
  0
VERTEX
  8
LAYER_1
 10
170.7583
 20
-99.9302
  0
SEQEND
  0
ENDBLK
  0
BLOCK
  8
LAYER_1
  2
AIGNBL010100C5
 70
64
 10
0
 20
0
 30
0
  3
AIGNBL010100C5
  0
POLYLINE
  8
LAYER_1
 40
0.1058
 41
0.1058
 66
1
 10
0
 20
0
 30
0
  0
VERTEX
  8
LAYER_1
 10
170.7583
 20
-90.3503
 42
0.1910079456
  0
VERTEX
  8
LAYER_1
 10
167.476
 20
-91.6517
  0
SEQEND
  0
ENDBLK
  0
BLOCK
  8
LAYER_1
  2
AIGNBL010100C6
 70
64
 10
0
 20
0
 30
0
  3
AIGNBL010100C6
  0
POLYLINE
  8
LAYER_1
 40
0.1058
 41
0.1058
 66
1
 10
0
 20
0
 30
0
  0
VERTEX
  8
LAYER_1
 10
170.7583
 20
-99.6803
 42
0.1649218924
  0
VERTEX
  8
LAYER_1
 10
173.5706
 20
-98.7267
  0
SEQEND
  0
ENDBLK
  0
BLOCK
  8
LAYER_1
  2
AIGNBL010100C7
 70
64
 10
0
 20
0
 30
0
  3
AIGNBL010100C7
  0
POLYLINE
  8
LAYER_1
 40
0.1058
 41
0.1058
 66
1
 10
0
 20
0
 30
0
  0
VERTEX
  8
LAYER_1
 10
170.7583
 20
-90.6003
 42
0.1894994862
  0
VERTEX
  8
LAYER_1
 10
167.6666
 20
-91.8157
  0
SEQEND
  0
ENDBLK
  0
BLOCK
  8
LAYER_1
  2
AIGNBL010100C8
 70
64
 10
0
 20
0
 30
0
  3
AIGNBL010100C8
  0
POLYLINE
  8
LAYER_1
 40
0.1058
 41
0.1058
 66
1
 10
0
 20
0
 30
0
  0
VERTEX
  8
LAYER_1
 10
166.9477
 20
-92.6724
 42
0.4142196051
  0
VERTEX
  8
LAYER_1
 10
168.2905
 20
-98.951
 42
0.1446673535
  0
VERTEX
  8
LAYER_1
 10
170.7583
 20
-99.6803
  0
SEQEND
  0
ENDBLK
  0
BLOCK
  8
LAYER_1
  2
AIGNBL010100C9
 70
64
 10
0
 20
0
 30
0
  3
AIGNBL010100C9
  0
POLYLINE
  8
LAYER_1
 40
0.1058
 41
0.1058
 66
1
 10
0
 20
0
 30
0
  0
VERTEX
  8
LAYER_1
 10
166.9737
 20
-92.7128
 42
0.4142106546
  0
VERTEX
  8
LAYER_1
 10
168.3308
 20
-98.9249
 42
0.3187412963
  0
VERTEX
  8
LAYER_1
 10
173.529
 20
-98.6815
  0
SEQEND
  0
ENDBLK
  0
BLOCK
  8
LAYER_1
  2
AIGNBL010100CA
 70
64
 10
0
 20
0
 30
0
  3
AIGNBL010100CA
  0
POLYLINE
  8
LAYER_1
 40
0.1058
 41
0.1058
 66
1
 10
0
 20
0
 30
0
  0
VERTEX
  8
LAYER_1
 10
174.7198
 20
-97.2672
 42
0.4142133893
  0
VERTEX
  8
LAYER_1
 10
172.8852
 20
-91.1789
 42
0.319608478
  0
VERTEX
  8
LAYER_1
 10
167.7111
 20
-91.8341
  0
SEQEND
  0
ENDBLK
  0
BLOCK
  8
LAYER_1
  2
AIGNBL010100CB
 70
64
 10
0
 20
0
 30
0
  3
AIGNBL010100CB
  0
POLYLINE
  8
LAYER_1
 40
0.1058
 41
0.1058
 66
1
 10
0
 20
0
 30
0
  0
VERTEX
  8
LAYER_1
 10
166.9846
 20
-92.9771
 42
0.4142132338
  0
VERTEX
  8
LAYER_1
 10
168.5983
 20
-98.9502
 42
0.4142136067
  0
VERTEX
  8
LAYER_1
 10
174.5714
 20
-97.3365
 42
0.4142138912
  0
VERTEX
  8
LAYER_1
 10
172.9577
 20
-91.3634
 42
0.3141679342
  0
VERTEX
  8
LAYER_1
 10
167.9727
 20
-91.7996
  0
SEQEND
  0
ENDBLK
  0
BLOCK
  8
LAYER_1
  2
AIGNBL010100CC
 70
64
 10
0
 20
0
 30
0
  3
AIGNBL010100CC
  0
POLYLINE
  8
LAYER_1
 40
0.1058
 41
0.1058
 66
1
 10
0
 20
0
 30
0
  0
VERTEX
  8
LAYER_1
 10
167.2014
 20
-93.1017
 42
0.4142132139
  0
VERTEX
  8
LAYER_1
 10
168.7229
 20
-98.7334
 42
0.4142136094
  0
VERTEX
  8
LAYER_1
 10
174.3546
 20
-97.2119
 42
0.4142139111
  0
VERTEX
  8
LAYER_1
 10
172.8331
 20
-91.5802
 42
0.3141648711
  0
VERTEX
  8
LAYER_1
 10
168.133
 20
-91.9914
  0
SEQEND
  0
ENDBLK
  0
BLOCK
  8
LAYER_1
  2
AIGNBL010100CD
 70
64
 10
0
 20
0
 30
0
  3
AIGNBL010100CD
  0
POLYLINE
  8
LAYER_1
 40
0.1058
 41
0.1058
 66
1
 10
0
 20
0
 30
0
  0
VERTEX
  8
LAYER_1
 10
173.5767
 20
-98.7453
 42
0.414205949
  0
VERTEX
  8
LAYER_1
 10
174.8104
 20
-97.4317
  0
VERTEX
  8
LAYER_1
 10
174.7979
 20
-97.2898
  0
SEQEND
  0
ENDBLK
  0
BLOCK
  8
LAYER_1
  2
AIGNBL010100CE
 70
64
 10
0
 20
0
 30
0
  3
AIGNBL010100CE
  0
POLYLINE
  8
LAYER_1
 40
0.1058
 41
0.1058
 66
1
 10
0
 20
0
 30
0
  0
VERTEX
  8
LAYER_1
 10
175.3833
 20
-89.1403
 42
0.4142587329
  0
VERTEX
  8
LAYER_1
 10
175.1333
 20
-88.8903
  0
SEQEND
  0
ENDBLK
  0
BLOCK
  8
LAYER_1
  2
AIGNBL010100CF
 70
64
 10
0
 20
0
 30
0
  3
AIGNBL010100CF
  0
POLYLINE
  8
LAYER_1
 40
0.1058
 41
0.1058
 66
1
 10
0
 20
0
 30
0
  0
VERTEX
  8
LAYER_1
 10
173.9082
 20
-131.2903
  0
VERTEX
  8
LAYER_1
 10
174.2816
 20
-131.2287
 42
0.03187078085
  0
VERTEX
  8
LAYER_1
 10
175.3833
 20
-130.9349
  0
SEQEND
  0
ENDBLK
  0
BLOCK
  8
LAYER_1
  2
AIGNBL010100D0
 70
64
 10
0
 20
0
 30
0
  3
AIGNBL010100D0
  0
POLYLINE
  8
LAYER_1
 40
0.1058
 41
0.1058
 66
1
 10
0
 20
0
 30
0
  0
VERTEX
  8
LAYER_1
 10
166.1333
 20
-130.9349
  0
VERTEX
  8
LAYER_1
 10
166.4973
 20
-131.0488
 42
0.03699787704
  0
VERTEX
  8
LAYER_1
 10
167.6084
 20
-131.2903
  0
SEQEND
  0
ENDBLK
  0
BLOCK
  8
LAYER_1
  2
AIGNBL010100D1
 70
64
 10
0
 20
0
 30
0
  3
AIGNBL010100D1
  0
POLYLINE
  8
LAYER_1
 40
0.1058
 41
0.1058
 66
1
 10
0
 20
0
 30
0
  0
VERTEX
  8
LAYER_1
 10
169.2832
 20
-131.2903
  0
VERTEX
  8
LAYER_1
 10
169.6566
 20
-131.2287
 42
0.03187078085
  0
VERTEX
  8
LAYER_1
 10
170.7583
 20
-130.9349
  0
SEQEND
  0
ENDBLK
  0
BLOCK
  8
LAYER_1
  2
AIGNBL010100D2
 70
64
 10
0
 20
0
 30
0
  3
AIGNBL010100D2
  0
POLYLINE
  8
LAYER_1
 40
0.1058
 41
0.1058
 66
1
 10
0
 20
0
 30
0
  0
VERTEX
  8
LAYER_1
 10
170.7583
 20
-130.9349
  0
VERTEX
  8
LAYER_1
 10
171.1223
 20
-131.0488
 42
0.03699787627
  0
VERTEX
  8
LAYER_1
 10
172.2334
 20
-131.2903
  0
SEQEND
  0
ENDBLK
  0
BLOCK
  8
LAYER_1
  2
AIGNBL010100D3
 70
64
 10
0
 20
0
 30
0
  3
AIGNBL010100D3
  0
POLYLINE
  8
LAYER_1
 40
0.1058
 41
0.1058
 66
1
 10
0
 20
0
 30
0
  0
VERTEX
  8
LAYER_1
 10
167.6084
 20
-129.5403
  0
VERTEX
  8
LAYER_1
 10
167.2351
 20
-129.6019
 42
0.03176764324
  0
VERTEX
  8
LAYER_1
 10
166.1333
 20
-129.8956
  0
SEQEND
  0
ENDBLK
  0
BLOCK
  8
LAYER_1
  2
AIGNBL010100D4
 70
64
 10
0
 20
0
 30
0
  3
AIGNBL010100D4
  0
POLYLINE
  8
LAYER_1
 40
0.1058
 41
0.1058
 66
1
 10
0
 20
0
 30
0
  0
VERTEX
  8
LAYER_1
 10
170.7583
 20
-129.8956
  0
VERTEX
  8
LAYER_1
 10
170.3944
 20
-129.7818
 42
0.03700113356
  0
VERTEX
  8
LAYER_1
 10
169.2832
 20
-129.5403
  0
SEQEND
  0
ENDBLK
  0
BLOCK
  8
LAYER_1
  2
AIGNBL010100D5
 70
64
 10
0
 20
0
 30
0
  3
AIGNBL010100D5
  0
POLYLINE
  8
LAYER_1
 40
0.1058
 41
0.1058
 66
1
 10
0
 20
0
 30
0
  0
VERTEX
  8
LAYER_1
 10
172.2334
 20
-129.5403
  0
VERTEX
  8
LAYER_1
 10
171.8601
 20
-129.6019
 42
0.03176764324
  0
VERTEX
  8
LAYER_1
 10
170.7583
 20
-129.8956
  0
SEQEND
  0
ENDBLK
  0
BLOCK
  8
LAYER_1
  2
AIGNBL010100D6
 70
64
 10
0
 20
0
 30
0
  3
AIGNBL010100D6
  0
POLYLINE
  8
LAYER_1
 40
0.1058
 41
0.1058
 66
1
 10
0
 20
0
 30
0
  0
VERTEX
  8
LAYER_1
 10
175.3833
 20
-129.8956
  0
VERTEX
  8
LAYER_1
 10
175.0194
 20
-129.7818
 42
0.03700113433
  0
VERTEX
  8
LAYER_1
 10
173.9082
 20
-129.5403
  0
SEQEND
  0
ENDBLK
  0
BLOCK
  8
LAYER_1
  2
AIGNBL010100D7
 70
64
 10
0
 20
0
 30
0
  3
AIGNBL010100D7
  0
POLYLINE
  8
LAYER_1
 40
0.1058
 41
0.1058
 66
1
 10
0
 20
0
 30
0
  0
VERTEX
  8
LAYER_1
 10
143.0218
 20
-92.1903
  0
VERTEX
  8
LAYER_1
 10
143.103
 20
-92.2468
  0
VERTEX
  8
LAYER_1
 10
143.1906
 20
-92.2653
  0
SEQEND
  0
ENDBLK
  0
BLOCK
  8
LAYER_1
  2
AIGNBL010100D8
 70
64
 10
0
 20
0
 30
0
  3
AIGNBL010100D8
  0
POLYLINE
  8
LAYER_1
 40
0.1058
 41
0.1058
 66
1
 10
0
 20
0
 30
0
  0
VERTEX
  8
LAYER_1
 10
158.1333
 20
-92.2653
  0
VERTEX
  8
LAYER_1
 10
158.3379
 20
-92.2694
  0
VERTEX
  8
LAYER_1
 10
158.9068
 20
-92.3266
  0
SEQEND
  0
ENDBLK
  0
BLOCK
  8
LAYER_1
  2
AIGNBL010100D9
 70
64
 10
0
 20
0
 30
0
  3
AIGNBL010100D9
  0
POLYLINE
  8
LAYER_1
 40
0.1058
 41
0.1058
 66
1
 10
0
 20
0
 30
0
  0
VERTEX
  8
LAYER_1
 10
158.9068
 20
-92.3266
 42
-0.04613353212
  0
VERTEX
  8
LAYER_1
 10
159.705
 20
-92.5336
 42
-0.04179290256
  0
VERTEX
  8
LAYER_1
 10
160.3935
 20
-92.8502
 42
-0.06690149435
  0
VERTEX
  8
LAYER_1
 10
161.5309
 20
-93.7232
 42
-0.0481056308
  0
VERTEX
  8
LAYER_1
 10
162.4361
 20
-94.8282
 42
-0.03381934465
  0
VERTEX
  8
LAYER_1
 10
163.1733
 20
-96.1014
 42
-0.02419081152
  0
VERTEX
  8
LAYER_1
 10
163.7811
 20
-97.5039
 42
-0.01798370246
  0
VERTEX
  8
LAYER_1
 10
164.2856
 20
-99.0097
 42
-0.01403318983
  0
VERTEX
  8
LAYER_1
 10
164.705
 20
-100.6007
  0
VERTEX
  8
LAYER_1
 10
165.0523
 20
-102.2637
 42
-0.01723803802
  0
VERTEX
  8
LAYER_1
 10
165.5709
 20
-105.7657
 42
-0.0122825041
  0
VERTEX
  8
LAYER_1
 10
165.9001
 20
-109.4572
 42
-0.009021992235
  0
VERTEX
  8
LAYER_1
 10
166.0786
 20
-113.2994
 42
-0.007006893773
  0
VERTEX
  8
LAYER_1
 10
166.1333
 20
-117.2653
  0
SEQEND
  0
ENDBLK
  0
BLOCK
  8
LAYER_1
  2
AIGNBL010100DA
 70
64
 10
0
 20
0
 30
0
  3
AIGNBL010100DA
  0
POLYLINE
  8
LAYER_1
 40
0.1058
 41
0.1058
 66
1
 10
0
 20
0
 30
0
  0
VERTEX
  8
LAYER_1
 10
175.3833
 20
-114.3606
  0
VERTEX
  8
LAYER_1
 10
175.3412
 20
-116.1499
 42
0.01471432027
  0
VERTEX
  8
LAYER_1
 10
175.3822
 20
-117.9948
  0
SEQEND
  0
ENDBLK
  0
BLOCK
  8
LAYER_1
  2
AIGNBL010100DB
 70
64
 10
0
 20
0
 30
0
  3
AIGNBL010100DB
  0
POLYLINE
  8
LAYER_1
 40
0.1058
 41
0.1058
 66
1
 10
0
 20
0
 30
0
  0
VERTEX
  8
LAYER_1
 10
175.3822
 20
-117.9948
  0
VERTEX
  8
LAYER_1
 10
175.3833
 20
-118.0154
  0
SEQEND
  0
ENDBLK
  0
BLOCK
  8
LAYER_1
  2
AIGNBL010100DC
 70
64
 10
0
 20
0
 30
0
  3
AIGNBL010100DC
  0
POLYLINE
  8
LAYER_1
 40
0.1058
 41
0.1058
 66
1
 10
0
 20
0
 30
0
  0
VERTEX
  8
LAYER_1
 10
175.3806
 20
-95.1403
  0
VERTEX
  8
LAYER_1
 10
175.367
 20
-95.4535
  0
VERTEX
  8
LAYER_1
 10
175.3367
 20
-95.7404
  0
VERTEX
  8
LAYER_1
 10
175.2276
 20
-96.3068
  0
VERTEX
  8
LAYER_1
 10
175.0527
 20
-96.8635
  0
VERTEX
  8
LAYER_1
 10
174.8093
 20
-97.4063
  0
SEQEND
  0
ENDBLK
  0
BLOCK
  8
LAYER_1
  2
AIGNBL010100DD
 70
64
 10
0
 20
0
 30
0
  3
AIGNBL010100DD
  0
POLYLINE
  8
LAYER_1
 40
0.1058
 41
0.1058
 66
1
 10
0
 20
0
 30
0
  0
VERTEX
  8
LAYER_1
 10
173.8116
 20
-98.7165
 42
-0.04192626949
  0
VERTEX
  8
LAYER_1
 10
173.1997
 20
-99.1955
 42
-0.04534208109
  0
VERTEX
  8
LAYER_1
 10
172.4747
 20
-99.582
 42
-0.04875659004
  0
VERTEX
  8
LAYER_1
 10
171.6484
 20
-99.8391
 42
-0.05091537547
  0
VERTEX
  8
LAYER_1
 10
170.7583
 20
-99.9302
  0
SEQEND
  0
ENDBLK
  0
BLOCK
  8
LAYER_1
  2
AIGNBL010100DE
 70
64
 10
0
 20
0
 30
0
  3
AIGNBL010100DE
  0
POLYLINE
  8
LAYER_1
 40
0.1058
 41
0.1058
 66
1
 10
0
 20
0
 30
0
  0
VERTEX
  8
LAYER_1
 10
170.7583
 20
-90.3503
 42
-0.06205890041
  0
VERTEX
  8
LAYER_1
 10
171.8415
 20
-90.486
 42
-0.05840520355
  0
VERTEX
  8
LAYER_1
 10
172.8142
 20
-90.8586
 42
-0.05301083943
  0
VERTEX
  8
LAYER_1
 10
173.6241
 20
-91.3993
 42
-0.04821401599
  0
VERTEX
  8
LAYER_1
 10
174.2659
 20
-92.0485
 42
-0.04430255959
  0
VERTEX
  8
LAYER_1
 10
174.751
 20
-92.766
 42
-0.0417421536
  0
VERTEX
  8
LAYER_1
 10
175.0926
 20
-93.5261
 42
-0.03990103467
  0
VERTEX
  8
LAYER_1
 10
175.3007
 20
-94.3119
  0
VERTEX
  8
LAYER_1
 10
175.3568
 20
-94.7115
  0
VERTEX
  8
LAYER_1
 10
175.373
 20
-94.9142
  0
VERTEX
  8
LAYER_1
 10
175.3806
 20
-95.1403
  0
SEQEND
  0
ENDBLK
  0
BLOCK
  8
LAYER_1
  2
AIGNBL010100DF
 70
64
 10
0
 20
0
 30
0
  3
AIGNBL010100DF
  0
POLYLINE
  8
LAYER_1
 40
0.1058
 41
0.1058
 66
1
 10
0
 20
0
 30
0
  0
VERTEX
  8
LAYER_1
 10
170.7583
 20
-117.2653
  0
VERTEX
  8
LAYER_1
 10
170.1219
 20
-113.6123
 42
0.005882928189
  0
VERTEX
  8
LAYER_1
 10
169.4193
 20
-109.9715
 42
0.008800642884
  0
VERTEX
  8
LAYER_1
 10
168.6167
 20
-106.3515
 42
0.01352872788
  0
VERTEX
  8
LAYER_1
 10
167.6594
 20
-102.7694
  0
VERTEX
  8
LAYER_1
 10
167.0954
 20
-101.0032
 42
0.01361907888
  0
VERTEX
  8
LAYER_1
 10
166.4518
 20
-99.2645
 42
0.01858681782
  0
VERTEX
  8
LAYER_1
 10
165.7024
 20
-97.5687
 42
0.02569201312
  0
VERTEX
  8
LAYER_1
 10
164.8097
 20
-95.9439
 42
0.03822833093
  0
VERTEX
  8
LAYER_1
 10
163.7208
 20
-94.4444
 42
0.05653772248
  0
VERTEX
  8
LAYER_1
 10
162.3727
 20
-93.1753
 42
0.03689055408
  0
VERTEX
  8
LAYER_1
 10
161.589
 20
-92.6801
 42
0.04068183432
  0
VERTEX
  8
LAYER_1
 10
160.7388
 20
-92.3114
 42
0.04191347315
  0
VERTEX
  8
LAYER_1
 10
159.8395
 20
-92.0882
 42
0.03964694399
  0
VERTEX
  8
LAYER_1
 10
158.9156
 20
-92.0153
  0
SEQEND
  0
ENDBLK
  0
BLOCK
  8
LAYER_1
  2
AIGNBL010100E0
 70
64
 10
0
 20
0
 30
0
  3
AIGNBL010100E0
  0
POLYLINE
  8
LAYER_1
 40
0.1058
 41
0.1058
 66
1
 10
0
 20
0
 30
0
  0
VERTEX
  8
LAYER_1
 10
170.7583
 20
-90.6003
 42
-0.05895716251
  0
VERTEX
  8
LAYER_1
 10
171.8404
 20
-90.7287
 42
-0.05607356955
  0
VERTEX
  8
LAYER_1
 10
172.8121
 20
-91.0815
 42
-0.05183335644
  0
VERTEX
  8
LAYER_1
 10
173.6213
 20
-91.5933
 42
-0.04811521923
  0
VERTEX
  8
LAYER_1
 10
174.2629
 20
-92.2079
 42
-0.04517092645
  0
VERTEX
  8
LAYER_1
 10
174.7483
 20
-92.8873
 42
-0.04302686085
  0
VERTEX
  8
LAYER_1
 10
175.0904
 20
-93.6072
 42
-0.04169937812
  0
VERTEX
  8
LAYER_1
 10
175.2994
 20
-94.3517
  0
VERTEX
  8
LAYER_1
 10
175.356
 20
-94.7304
  0
VERTEX
  8
LAYER_1
 10
175.3725
 20
-94.9228
  0
VERTEX
  8
LAYER_1
 10
175.3805
 20
-95.1403
  0
SEQEND
  0
ENDBLK
  0
BLOCK
  8
LAYER_1
  2
AIGNBL010100E1
 70
64
 10
0
 20
0
 30
0
  3
AIGNBL010100E1
  0
POLYLINE
  8
LAYER_1
 40
0.1058
 41
0.1058
 66
1
 10
0
 20
0
 30
0
  0
VERTEX
  8
LAYER_1
 10
175.3805
 20
-95.1403
  0
VERTEX
  8
LAYER_1
 10
175.3663
 20
-95.4421
  0
VERTEX
  8
LAYER_1
 10
175.3352
 20
-95.7158
  0
VERTEX
  8
LAYER_1
 10
175.2242
 20
-96.2557
  0
VERTEX
  8
LAYER_1
 10
175.0466
 20
-96.7861
  0
VERTEX
  8
LAYER_1
 10
174.7999
 20
-97.3029
  0
SEQEND
  0
ENDBLK
  0
BLOCK
  8
LAYER_1
  2
AIGNBL010100E2
 70
64
 10
0
 20
0
 30
0
  3
AIGNBL010100E2
  0
POLYLINE
  8
LAYER_1
 40
0.1058
 41
0.1058
 66
1
 10
0
 20
0
 30
0
  0
VERTEX
  8
LAYER_1
 10
170.7583
 20
-117.2653
  0
VERTEX
  8
LAYER_1
 10
170.093
 20
-113.6558
 42
0.005837514883
  0
VERTEX
  8
LAYER_1
 10
169.3619
 20
-110.0591
 42
0.008580224281
  0
VERTEX
  8
LAYER_1
 10
168.5339
 20
-106.4835
 42
0.01303898145
  0
VERTEX
  8
LAYER_1
 10
167.5581
 20
-102.9456
  0
VERTEX
  8
LAYER_1
 10
166.9891
 20
-101.2009
 42
0.01311691213
  0
VERTEX
  8
LAYER_1
 10
166.3444
 20
-99.4827
 42
0.01794922198
  0
VERTEX
  8
LAYER_1
 10
165.5993
 20
-97.8058
 42
0.02476242281
  0
VERTEX
  8
LAYER_1
 10
164.7177
 20
-96.1966
 42
0.03708108454
  0
VERTEX
  8
LAYER_1
 10
163.6479
 20
-94.7067
 42
0.05570317458
  0
VERTEX
  8
LAYER_1
 10
162.3259
 20
-93.4378
 42
0.03696608926
  0
VERTEX
  8
LAYER_1
 10
161.5559
 20
-92.9391
 42
0.04133485586
  0
VERTEX
  8
LAYER_1
 10
160.7181
 20
-92.566
 42
0.04281116803
  0
VERTEX
  8
LAYER_1
 10
159.8297
 20
-92.3393
 42
0.04070977659
  0
VERTEX
  8
LAYER_1
 10
158.9156
 20
-92.2653
  0
SEQEND
  0
ENDBLK
  0
BLOCK
  8
LAYER_1
  2
AIGNBL010100E3
 70
64
 10
0
 20
0
 30
0
  3
AIGNBL010100E3
  0
INSERT
  8
LAYER_1
  2
AIGNBL010200E4
 10
0
 20
0
 30
0
  0
INSERT
  8
LAYER_1
  2
AIGNBL010200E5
 10
0
 20
0
 30
0
  0
INSERT
  8
LAYER_1
  2
AIGNBL010200E6
 10
0
 20
0
 30
0
  0
INSERT
  8
LAYER_1
  2
AIGNBL010200E7
 10
0
 20
0
 30
0
  0
INSERT
  8
LAYER_1
  2
AIGNBL010200E8
 10
0
 20
0
 30
0
  0
INSERT
  8
LAYER_1
  2
AIGNBL010200E9
 10
0
 20
0
 30
0
  0
ENDBLK
  0
BLOCK
  8
LAYER_1
  2
AIGNBL010100EA
 70
64
 10
0
 20
0
 30
0
  3
AIGNBL010100EA
  0
POLYLINE
  8
LAYER_1
  6
AIGENLINE001
 40
0.1058
 41
0.1058
 66
1
 10
0
 20
0
 30
0
 70
128
  0
VERTEX
  8
LAYER_1
 10
139.3246
 20
-101.1457
  0
VERTEX
  8
LAYER_1
 10
138.0959
 20
-89.4554
  0
SEQEND
  0
ENDBLK
  0
BLOCK
  8
LAYER_1
  2
AIGNBL010100EB
 70
64
 10
0
 20
0
 30
0
  3
AIGNBL010100EB
  0
POLYLINE
  8
LAYER_1
  6
AIGENLINE001
 40
0.1058
 41
0.1058
 66
1
 10
0
 20
0
 30
0
 70
128
  0
VERTEX
  8
LAYER_1
 10
137.4421
 20
-101.1457
  0
VERTEX
  8
LAYER_1
 10
138.6708
 20
-89.4554
  0
SEQEND
  0
ENDBLK
  0
BLOCK
  8
LAYER_1
  2
AIGNBL010100EC
 70
64
 10
0
 20
0
 30
0
  3
AIGNBL010100EC
  0
POLYLINE
  8
LAYER_1
 40
0.1058
 41
0.1058
 66
1
 10
0
 20
0
 30
0
  0
VERTEX
  8
LAYER_1
 10
168.7596
 20
-161.1693
  0
VERTEX
  8
LAYER_1
 10
169.2235
 20
-161.1693
  0
SEQEND
  0
ENDBLK
  0
BLOCK
  8
LAYER_1
  2
AIGNBL010100ED
 70
64
 10
0
 20
0
 30
0
  3
AIGNBL010100ED
  0
POLYLINE
  8
LAYER_1
 40
0.1058
 41
0.1058
 66
1
 10
0
 20
0
 30
0
  0
VERTEX
  8
LAYER_1
 10
172.2596
 20
-159.9443
  0
VERTEX
  8
LAYER_1
 10
172.7571
 20
-159.9443
  0
SEQEND
  0
ENDBLK
  0
BLOCK
  8
LAYER_1
  2
AIGNBL010100EE
 70
64
 10
0
 20
0
 30
0
  3
AIGNBL010100EE
  0
POLYLINE
  8
LAYER_1
 40
0.1058
 41
0.1058
 66
1
 10
0
 20
0
 30
0
  0
VERTEX
  8
LAYER_1
 10
168.7596
 20
-159.9136
  0
VERTEX
  8
LAYER_1
 10
169.2235
 20
-159.9136
  0
SEQEND
  0
ENDBLK
  0
BLOCK
  8
LAYER_1
  2
AIGNBL010100EF
 70
64
 10
0
 20
0
 30
0
  3
AIGNBL010100EF
  0
POLYLINE
  8
LAYER_1
 40
0.1058
 41
0.1058
 66
1
 10
0
 20
0
 30
0
  0
VERTEX
  8
LAYER_1
 10
167.4539
 20
-165.3981
  0
VERTEX
  8
LAYER_1
 10
168.1878
 20
-165.6099
  0
SEQEND
  0
ENDBLK
  0
BLOCK
  8
LAYER_1
  2
AIGNBL010100F0
 70
64
 10
0
 20
0
 30
0
  3
AIGNBL010100F0
  0
POLYLINE
  8
LAYER_1
 40
0.1058
 41
0.1058
 66
1
 10
0
 20
0
 30
0
  0
VERTEX
  8
LAYER_1
 10
172.2596
 20
-158.6886
  0
VERTEX
  8
LAYER_1
 10
172.7571
 20
-158.6886
  0
SEQEND
  0
ENDBLK
  0
BLOCK
  8
LAYER_1
  2
AIGNBL010100F1
 70
64
 10
0
 20
0
 30
0
  3
AIGNBL010100F1
  0
POLYLINE
  8
LAYER_1
 40
0.1058
 41
0.1058
 66
1
 10
0
 20
0
 30
0
  0
VERTEX
  8
LAYER_1
 10
171.6878
 20
-165.6099
  0
VERTEX
  8
LAYER_1
 10
170.9539
 20
-165.3981
  0
SEQEND
  0
ENDBLK
  0
BLOCK
  8
LAYER_1
  2
AIGNBL010100F2
 70
64
 10
0
 20
0
 30
0
  3
AIGNBL010100F2
  0
POLYLINE
  8
LAYER_1
 40
0.1058
 41
0.1058
 66
1
 10
0
 20
0
 30
0
  0
VERTEX
  8
LAYER_1
 10
167.4539
 20
-162.8
  0
VERTEX
  8
LAYER_1
 10
168.1878
 20
-163.0119
  0
SEQEND
  0
ENDBLK
  0
BLOCK
  8
LAYER_1
  2
AIGNBL010100F3
 70
64
 10
0
 20
0
 30
0
  3
AIGNBL010100F3
  0
POLYLINE
  8
LAYER_1
 40
0.1058
 41
0.1058
 66
1
 10
0
 20
0
 30
0
  0
VERTEX
  8
LAYER_1
 10
173.3289
 20
-163.3413
  0
VERTEX
  8
LAYER_1
 10
174.0628
 20
-163.5531
  0
SEQEND
  0
ENDBLK
  0
BLOCK
  8
LAYER_1
  2
AIGNBL010100F4
 70
64
 10
0
 20
0
 30
0
  3
AIGNBL010100F4
  0
POLYLINE
  8
LAYER_1
 40
0.1058
 41
0.1058
 66
1
 10
0
 20
0
 30
0
  0
VERTEX
  8
LAYER_1
 10
173.3289
 20
-160.7432
  0
VERTEX
  8
LAYER_1
 10
174.0628
 20
-160.9551
  0
SEQEND
  0
ENDBLK
  0
BLOCK
  8
LAYER_1
  2
AIGNBL010100F5
 70
64
 10
0
 20
0
 30
0
  3
AIGNBL010100F5
  0
POLYLINE
  8
LAYER_1
 40
0.1058
 41
0.1058
 66
1
 10
0
 20
0
 30
0
  0
VERTEX
  8
LAYER_1
 10
167.9662
 20
-160.902
  0
VERTEX
  8
LAYER_1
 10
168.318
 20
-161.0779
  0
SEQEND
  0
ENDBLK
  0
BLOCK
  8
LAYER_1
  2
AIGNBL010100F6
 70
64
 10
0
 20
0
 30
0
  3
AIGNBL010100F6
  0
POLYLINE
  8
LAYER_1
 40
0.1058
 41
0.1058
 66
1
 10
0
 20
0
 30
0
  0
VERTEX
  8
LAYER_1
 10
167.9662
 20
-159.6463
  0
VERTEX
  8
LAYER_1
 10
168.318
 20
-159.8222
  0
SEQEND
  0
ENDBLK
  0
BLOCK
  8
LAYER_1
  2
AIGNBL010100F7
 70
64
 10
0
 20
0
 30
0
  3
AIGNBL010100F7
  0
POLYLINE
  8
LAYER_1
 40
0.1058
 41
0.1058
 66
1
 10
0
 20
0
 30
0
  0
VERTEX
  8
LAYER_1
 10
173.1986
 20
-160.0358
  0
VERTEX
  8
LAYER_1
 10
173.5504
 20
-160.2117
  0
SEQEND
  0
ENDBLK
  0
BLOCK
  8
LAYER_1
  2
AIGNBL010100F8
 70
64
 10
0
 20
0
 30
0
  3
AIGNBL010100F8
  0
POLYLINE
  8
LAYER_1
 40
0.1058
 41
0.1058
 66
1
 10
0
 20
0
 30
0
  0
VERTEX
  8
LAYER_1
 10
173.1986
 20
-158.7801
  0
VERTEX
  8
LAYER_1
 10
173.5504
 20
-158.956
  0
SEQEND
  0
ENDBLK
  0
BLOCK
  8
LAYER_1
  2
AIGNBL010100F9
 70
64
 10
0
 20
0
 30
0
  3
AIGNBL010100F9
  0
POLYLINE
  8
LAYER_1
 40
0.1058
 41
0.1058
 66
1
 10
0
 20
0
 30
0
  0
VERTEX
  8
LAYER_1
 10
167.7416
 20
-159.1147
  0
VERTEX
  8
LAYER_1
 10
167.6397
 20
-158.5878
  0
SEQEND
  0
ENDBLK
  0
BLOCK
  8
LAYER_1
  2
AIGNBL010100FA
 70
64
 10
0
 20
0
 30
0
  3
AIGNBL010100FA
  0
POLYLINE
  8
LAYER_1
 40
0.1058
 41
0.1058
 66
1
 10
0
 20
0
 30
0
  0
VERTEX
  8
LAYER_1
 10
167.6333
 20
-158.5217
  0
VERTEX
  8
LAYER_1
 10
167.6397
 20
-158.5878
  0
SEQEND
  0
ENDBLK
  0
BLOCK
  8
LAYER_1
  2
AIGNBL010100FB
 70
64
 10
0
 20
0
 30
0
  3
AIGNBL010100FB
  0
POLYLINE
  8
LAYER_1
 40
0.1058
 41
0.1058
 66
1
 10
0
 20
0
 30
0
  0
VERTEX
  8
LAYER_1
 10
166.6333
 20
-164.9523
  0
VERTEX
  8
LAYER_1
 10
166.6333
 20
-161.4008
  0
SEQEND
  0
ENDBLK
  0
BLOCK
  8
LAYER_1
  2
AIGNBL010100FC
 70
64
 10
0
 20
0
 30
0
  3
AIGNBL010100FC
  0
POLYLINE
  8
LAYER_1
 40
0.1058
 41
0.1058
 66
1
 10
0
 20
0
 30
0
  0
VERTEX
  8
LAYER_1
 10
166.7786
 20
-165.0782
  0
VERTEX
  8
LAYER_1
 10
166.7786
 20
-162.7301
  0
SEQEND
  0
ENDBLK
  0
BLOCK
  8
LAYER_1
  2
AIGNBL010100FD
 70
64
 10
0
 20
0
 30
0
  3
AIGNBL010100FD
  0
POLYLINE
  8
LAYER_1
 40
0.1058
 41
0.1058
 66
1
 10
0
 20
0
 30
0
  0
VERTEX
  8
LAYER_1
 10
167.6333
 20
-161.5528
  0
VERTEX
  8
LAYER_1
 10
167.6333
 20
-161.3363
  0
SEQEND
  0
ENDBLK
  0
BLOCK
  8
LAYER_1
  2
AIGNBL010100FE
 70
64
 10
0
 20
0
 30
0
  3
AIGNBL010100FE
  0
POLYLINE
  8
LAYER_1
 40
0.1058
 41
0.1058
 66
1
 10
0
 20
0
 30
0
  0
VERTEX
  8
LAYER_1
 10
167.6333
 20
-158.5217
  0
VERTEX
  8
LAYER_1
 10
167.6333
 20
-157.9804
  0
SEQEND
  0
ENDBLK
  0
BLOCK
  8
LAYER_1
  2
AIGNBL010100FF
 70
64
 10
0
 20
0
 30
0
  3
AIGNBL010100FF
  0
POLYLINE
  8
LAYER_1
 40
0.1058
 41
0.1058
 66
1
 10
0
 20
0
 30
0
  0
VERTEX
  8
LAYER_1
 10
167.7583
 20
-137.0403
  0
VERTEX
  8
LAYER_1
 10
167.7583
 20
-157.9804
  0
SEQEND
  0
ENDBLK
  0
BLOCK
  8
LAYER_1
  2
AIGNBL01010100
 70
64
 10
0
 20
0
 30
0
  3
AIGNBL01010100
  0
POLYLINE
  8
LAYER_1
 40
0.1058
 41
0.1058
 66
1
 10
0
 20
0
 30
0
  0
VERTEX
  8
LAYER_1
 10
167.7833
 20
-160.6812
  0
VERTEX
  8
LAYER_1
 10
167.7833
 20
-159.4255
  0
SEQEND
  0
ENDBLK
  0
BLOCK
  8
LAYER_1
  2
AIGNBL01010101
 70
64
 10
0
 20
0
 30
0
  3
AIGNBL01010101
  0
POLYLINE
  8
LAYER_1
 40
0.1058
 41
0.1058
 66
1
 10
0
 20
0
 30
0
  0
VERTEX
  8
LAYER_1
 10
167.9662
 20
-160.902
  0
VERTEX
  8
LAYER_1
 10
167.9662
 20
-159.6463
  0
SEQEND
  0
ENDBLK
  0
BLOCK
  8
LAYER_1
  2
AIGNBL01010102
 70
64
 10
0
 20
0
 30
0
  3
AIGNBL01010102
  0
POLYLINE
  8
LAYER_1
 40
0.1058
 41
0.1058
 66
1
 10
0
 20
0
 30
0
  0
VERTEX
  8
LAYER_1
 10
170.3685
 20
-161.2266
  0
VERTEX
  8
LAYER_1
 10
170.2751
 20
-160.7432
  0
SEQEND
  0
ENDBLK
  0
BLOCK
  8
LAYER_1
  2
AIGNBL01010103
 70
64
 10
0
 20
0
 30
0
  3
AIGNBL01010103
  0
POLYLINE
  8
LAYER_1
 40
0.1058
 41
0.1058
 66
1
 10
0
 20
0
 30
0
  0
VERTEX
  8
LAYER_1
 10
171.2416
 20
-159.1147
  0
VERTEX
  8
LAYER_1
 10
171.1397
 20
-158.5878
  0
SEQEND
  0
ENDBLK
  0
BLOCK
  8
LAYER_1
  2
AIGNBL01010104
 70
64
 10
0
 20
0
 30
0
  3
AIGNBL01010104
  0
POLYLINE
  8
LAYER_1
 40
0.1058
 41
0.1058
 66
1
 10
0
 20
0
 30
0
  0
VERTEX
  8
LAYER_1
 10
171.1333
 20
-158.5217
  0
VERTEX
  8
LAYER_1
 10
171.1397
 20
-158.5878
  0
SEQEND
  0
ENDBLK
  0
BLOCK
  8
LAYER_1
  2
AIGNBL01010105
 70
64
 10
0
 20
0
 30
0
  3
AIGNBL01010105
  0
POLYLINE
  8
LAYER_1
 40
0.1058
 41
0.1058
 66
1
 10
0
 20
0
 30
0
  0
VERTEX
  8
LAYER_1
 10
168.318
 20
-161.0779
  0
VERTEX
  8
LAYER_1
 10
168.318
 20
-159.8222
  0
SEQEND
  0
ENDBLK
  0
BLOCK
  8
LAYER_1
  2
AIGNBL01010106
 70
64
 10
0
 20
0
 30
0
  3
AIGNBL01010106
  0
POLYLINE
  8
LAYER_1
 40
0.1058
 41
0.1058
 66
1
 10
0
 20
0
 30
0
  0
VERTEX
  8
LAYER_1
 10
168.7596
 20
-161.1693
  0
VERTEX
  8
LAYER_1
 10
168.7596
 20
-159.9136
  0
SEQEND
  0
ENDBLK
  0
BLOCK
  8
LAYER_1
  2
AIGNBL01010107
 70
64
 10
0
 20
0
 30
0
  3
AIGNBL01010107
  0
POLYLINE
  8
LAYER_1
 40
0.1058
 41
0.1058
 66
1
 10
0
 20
0
 30
0
  0
VERTEX
  8
LAYER_1
 10
168.863
 20
-165.6799
  0
VERTEX
  8
LAYER_1
 10
168.863
 20
-163.3318
  0
SEQEND
  0
ENDBLK
  0
BLOCK
  8
LAYER_1
  2
AIGNBL01010108
 70
64
 10
0
 20
0
 30
0
  3
AIGNBL01010108
  0
POLYLINE
  8
LAYER_1
 40
0.1058
 41
0.1058
 66
1
 10
0
 20
0
 30
0
  0
VERTEX
  8
LAYER_1
 10
169.1536
 20
-165.6799
  0
VERTEX
  8
LAYER_1
 10
169.1536
 20
-163.3318
  0
SEQEND
  0
ENDBLK
  0
BLOCK
  8
LAYER_1
  2
AIGNBL01010109
 70
64
 10
0
 20
0
 30
0
  3
AIGNBL01010109
  0
POLYLINE
  8
LAYER_1
 40
0.1058
 41
0.1058
 66
1
 10
0
 20
0
 30
0
  0
VERTEX
  8
LAYER_1
 10
170.1333
 20
-164.9523
  0
VERTEX
  8
LAYER_1
 10
170.1333
 20
-161.4008
  0
SEQEND
  0
ENDBLK
  0
BLOCK
  8
LAYER_1
  2
AIGNBL0101010A
 70
64
 10
0
 20
0
 30
0
  3
AIGNBL0101010A
  0
POLYLINE
  8
LAYER_1
 40
0.1058
 41
0.1058
 66
1
 10
0
 20
0
 30
0
  0
VERTEX
  8
LAYER_1
 10
170.2235
 20
-137.0403
  0
VERTEX
  8
LAYER_1
 10
170.2254
 20
-158.1229
  0
SEQEND
  0
ENDBLK
  0
BLOCK
  8
LAYER_1
  2
AIGNBL0101010B
 70
64
 10
0
 20
0
 30
0
  3
AIGNBL0101010B
  0
POLYLINE
  8
LAYER_1
 40
0.1058
 41
0.1058
 66
1
 10
0
 20
0
 30
0
  0
VERTEX
  8
LAYER_1
 10
170.2333
 20
-160.6812
  0
VERTEX
  8
LAYER_1
 10
170.2333
 20
-159.4255
  0
SEQEND
  0
ENDBLK
  0
BLOCK
  8
LAYER_1
  2
AIGNBL0101010C
 70
64
 10
0
 20
0
 30
0
  3
AIGNBL0101010C
  0
POLYLINE
  8
LAYER_1
 40
0.1058
 41
0.1058
 66
1
 10
0
 20
0
 30
0
  0
VERTEX
  8
LAYER_1
 10
170.2583
 20
-137.0403
  0
VERTEX
  8
LAYER_1
 10
170.2583
 20
-157.9804
  0
SEQEND
  0
ENDBLK
  0
BLOCK
  8
LAYER_1
  2
AIGNBL0101010D
 70
64
 10
0
 20
0
 30
0
  3
AIGNBL0101010D
  0
POLYLINE
  8
LAYER_1
 40
0.1058
 41
0.1058
 66
1
 10
0
 20
0
 30
0
  0
VERTEX
  8
LAYER_1
 10
170.2786
 20
-163.6231
  0
VERTEX
  8
LAYER_1
 10
170.2786
 20
-161.275
  0
SEQEND
  0
ENDBLK
  0
BLOCK
  8
LAYER_1
  2
AIGNBL0101010E
 70
64
 10
0
 20
0
 30
0
  3
AIGNBL0101010E
  0
POLYLINE
  8
LAYER_1
 40
0.1058
 41
0.1058
 66
1
 10
0
 20
0
 30
0
  0
VERTEX
  8
LAYER_1
 10
170.3833
 20
-158.5217
  0
VERTEX
  8
LAYER_1
 10
170.3833
 20
-157.9804
  0
SEQEND
  0
ENDBLK
  0
BLOCK
  8
LAYER_1
  2
AIGNBL0101010F
 70
64
 10
0
 20
0
 30
0
  3
AIGNBL0101010F
  0
POLYLINE
  8
LAYER_1
 40
0.1058
 41
0.1058
 66
1
 10
0
 20
0
 30
0
  0
VERTEX
  8
LAYER_1
 10
170.6958
 20
-164.4756
  0
VERTEX
  8
LAYER_1
 10
170.6958
 20
-164.0259
  0
SEQEND
  0
ENDBLK
  0
BLOCK
  8
LAYER_1
  2
AIGNBL01010110
 70
64
 10
0
 20
0
 30
0
  3
AIGNBL01010110
  0
POLYLINE
  8
LAYER_1
 40
0.1058
 41
0.1058
 66
1
 10
0
 20
0
 30
0
  0
VERTEX
  8
LAYER_1
 10
171.1333
 20
-158.5217
  0
VERTEX
  8
LAYER_1
 10
171.1333
 20
-157.9804
  0
SEQEND
  0
ENDBLK
  0
BLOCK
  8
LAYER_1
  2
AIGNBL01010111
 70
64
 10
0
 20
0
 30
0
  3
AIGNBL01010111
  0
POLYLINE
  8
LAYER_1
 40
0.1058
 41
0.1058
 66
1
 10
0
 20
0
 30
0
  0
VERTEX
  8
LAYER_1
 10
171.2583
 20
-137.0403
  0
VERTEX
  8
LAYER_1
 10
171.2583
 20
-157.6941
  0
SEQEND
  0
ENDBLK
  0
BLOCK
  8
LAYER_1
  2
AIGNBL01010112
 70
64
 10
0
 20
0
 30
0
  3
AIGNBL01010112
  0
POLYLINE
  8
LAYER_1
 40
0.1058
 41
0.1058
 66
1
 10
0
 20
0
 30
0
  0
VERTEX
  8
LAYER_1
 10
171.2833
 20
-160.4325
  0
VERTEX
  8
LAYER_1
 10
171.2833
 20
-159.1767
  0
SEQEND
  0
ENDBLK
  0
BLOCK
  8
LAYER_1
  2
AIGNBL01010113
 70
64
 10
0
 20
0
 30
0
  3
AIGNBL01010113
  0
POLYLINE
  8
LAYER_1
 40
0.1058
 41
0.1058
 66
1
 10
0
 20
0
 30
0
  0
VERTEX
  8
LAYER_1
 10
171.4662
 20
-160.2117
  0
VERTEX
  8
LAYER_1
 10
171.4662
 20
-158.956
  0
SEQEND
  0
ENDBLK
  0
BLOCK
  8
LAYER_1
  2
AIGNBL01010114
 70
64
 10
0
 20
0
 30
0
  3
AIGNBL01010114
  0
POLYLINE
  8
LAYER_1
 40
0.1058
 41
0.1058
 66
1
 10
0
 20
0
 30
0
  0
VERTEX
  8
LAYER_1
 10
171.818
 20
-160.0358
  0
VERTEX
  8
LAYER_1
 10
171.818
 20
-158.7801
  0
SEQEND
  0
ENDBLK
  0
BLOCK
  8
LAYER_1
  2
AIGNBL01010115
 70
64
 10
0
 20
0
 30
0
  3
AIGNBL01010115
  0
POLYLINE
  8
LAYER_1
 40
0.1058
 41
0.1058
 66
1
 10
0
 20
0
 30
0
  0
VERTEX
  8
LAYER_1
 10
167.6397
 20
-161.2701
  0
VERTEX
  8
LAYER_1
 10
167.6333
 20
-161.3363
  0
SEQEND
  0
ENDBLK
  0
BLOCK
  8
LAYER_1
  2
AIGNBL01010116
 70
64
 10
0
 20
0
 30
0
  3
AIGNBL01010116
  0
POLYLINE
  8
LAYER_1
 40
0.1058
 41
0.1058
 66
1
 10
0
 20
0
 30
0
  0
VERTEX
  8
LAYER_1
 10
173.8014
 20
-160.8796
  0
VERTEX
  8
LAYER_1
 10
173.7751
 20
-160.7432
  0
SEQEND
  0
ENDBLK
  0
BLOCK
  8
LAYER_1
  2
AIGNBL01010117
 70
64
 10
0
 20
0
 30
0
  3
AIGNBL01010117
  0
POLYLINE
  8
LAYER_1
 40
0.1058
 41
0.1058
 66
1
 10
0
 20
0
 30
0
  0
VERTEX
  8
LAYER_1
 10
172.2596
 20
-159.9443
  0
VERTEX
  8
LAYER_1
 10
172.2596
 20
-158.6886
  0
SEQEND
  0
ENDBLK
  0
BLOCK
  8
LAYER_1
  2
AIGNBL01010118
 70
64
 10
0
 20
0
 30
0
  3
AIGNBL01010118
  0
POLYLINE
  8
LAYER_1
 40
0.1058
 41
0.1058
 66
1
 10
0
 20
0
 30
0
  0
VERTEX
  8
LAYER_1
 10
172.363
 20
-163.0213
  0
VERTEX
  8
LAYER_1
 10
172.363
 20
-160.6733
  0
SEQEND
  0
ENDBLK
  0
BLOCK
  8
LAYER_1
  2
AIGNBL01010119
 70
64
 10
0
 20
0
 30
0
  3
AIGNBL01010119
  0
POLYLINE
  8
LAYER_1
 40
0.1058
 41
0.1058
 66
1
 10
0
 20
0
 30
0
  0
VERTEX
  8
LAYER_1
 10
172.6536
 20
-163.0213
  0
VERTEX
  8
LAYER_1
 10
172.6536
 20
-160.6733
  0
SEQEND
  0
ENDBLK
  0
BLOCK
  8
LAYER_1
  2
AIGNBL0101011A
 70
64
 10
0
 20
0
 30
0
  3
AIGNBL0101011A
  0
POLYLINE
  8
LAYER_1
 40
0.1058
 41
0.1058
 66
1
 10
0
 20
0
 30
0
  0
VERTEX
  8
LAYER_1
 10
172.7571
 20
-159.9443
  0
VERTEX
  8
LAYER_1
 10
172.7571
 20
-158.6886
  0
SEQEND
  0
ENDBLK
  0
BLOCK
  8
LAYER_1
  2
AIGNBL0101011B
 70
64
 10
0
 20
0
 30
0
  3
AIGNBL0101011B
  0
POLYLINE
  8
LAYER_1
 40
0.1058
 41
0.1058
 66
1
 10
0
 20
0
 30
0
  0
VERTEX
  8
LAYER_1
 10
173.1986
 20
-160.0358
  0
VERTEX
  8
LAYER_1
 10
173.1986
 20
-158.7801
  0
SEQEND
  0
ENDBLK
  0
BLOCK
  8
LAYER_1
  2
AIGNBL0101011C
 70
64
 10
0
 20
0
 30
0
  3
AIGNBL0101011C
  0
POLYLINE
  8
LAYER_1
 40
0.1058
 41
0.1058
 66
1
 10
0
 20
0
 30
0
  0
VERTEX
  8
LAYER_1
 10
173.5504
 20
-160.2117
  0
VERTEX
  8
LAYER_1
 10
173.5504
 20
-158.956
  0
SEQEND
  0
ENDBLK
  0
BLOCK
  8
LAYER_1
  2
AIGNBL0101011D
 70
64
 10
0
 20
0
 30
0
  3
AIGNBL0101011D
  0
POLYLINE
  8
LAYER_1
 40
0.1058
 41
0.1058
 66
1
 10
0
 20
0
 30
0
  0
VERTEX
  8
LAYER_1
 10
173.7333
 20
-160.4325
  0
VERTEX
  8
LAYER_1
 10
173.7333
 20
-159.1767
  0
SEQEND
  0
ENDBLK
  0
BLOCK
  8
LAYER_1
  2
AIGNBL0101011E
 70
64
 10
0
 20
0
 30
0
  3
AIGNBL0101011E
  0
POLYLINE
  8
LAYER_1
 40
0.1058
 41
0.1058
 66
1
 10
0
 20
0
 30
0
  0
VERTEX
  8
LAYER_1
 10
173.7583
 20
-137.0403
  0
VERTEX
  8
LAYER_1
 10
173.7583
 20
-157.6941
  0
SEQEND
  0
ENDBLK
  0
BLOCK
  8
LAYER_1
  2
AIGNBL0101011F
 70
64
 10
0
 20
0
 30
0
  3
AIGNBL0101011F
  0
POLYLINE
  8
LAYER_1
 40
0.1058
 41
0.1058
 66
1
 10
0
 20
0
 30
0
  0
VERTEX
  8
LAYER_1
 10
173.8833
 20
-158.5217
  0
VERTEX
  8
LAYER_1
 10
173.8833
 20
-157.9804
  0
SEQEND
  0
ENDBLK
  0
BLOCK
  8
LAYER_1
  2
AIGNBL01010120
 70
64
 10
0
 20
0
 30
0
  3
AIGNBL01010120
  0
POLYLINE
  8
LAYER_1
 40
0.1058
 41
0.1058
 66
1
 10
0
 20
0
 30
0
  0
VERTEX
  8
LAYER_1
 10
174.3208
 20
-164.4756
  0
VERTEX
  8
LAYER_1
 10
174.3208
 20
-164.0259
  0
SEQEND
  0
ENDBLK
  0
BLOCK
  8
LAYER_1
  2
AIGNBL01010121
 70
64
 10
0
 20
0
 30
0
  3
AIGNBL01010121
  0
POLYLINE
  8
LAYER_1
 40
0.1058
 41
0.1058
 66
1
 10
0
 20
0
 30
0
  0
VERTEX
  8
LAYER_1
 10
174.738
 20
-163.6231
  0
VERTEX
  8
LAYER_1
 10
174.738
 20
-161.275
  0
SEQEND
  0
ENDBLK
  0
BLOCK
  8
LAYER_1
  2
AIGNBL01010122
 70
64
 10
0
 20
0
 30
0
  3
AIGNBL01010122
  0
POLYLINE
  8
LAYER_1
 40
0.1058
 41
0.1058
 66
1
 10
0
 20
0
 30
0
  0
VERTEX
  8
LAYER_1
 10
174.8833
 20
-164.9523
  0
VERTEX
  8
LAYER_1
 10
174.8833
 20
-161.4008
  0
SEQEND
  0
ENDBLK
  0
BLOCK
  8
LAYER_1
  2
AIGNBL01010123
 70
64
 10
0
 20
0
 30
0
  3
AIGNBL01010123
  0
POLYLINE
  8
LAYER_1
 40
0.1058
 41
0.1058
 66
1
 10
0
 20
0
 30
0
  0
VERTEX
  8
LAYER_1
 10
170.3833
 20
-158.5217
  0
VERTEX
  8
LAYER_1
 10
170.377
 20
-158.5878
  0
SEQEND
  0
ENDBLK
  0
BLOCK
  8
LAYER_1
  2
AIGNBL01010124
 70
64
 10
0
 20
0
 30
0
  3
AIGNBL01010124
  0
POLYLINE
  8
LAYER_1
 40
0.1058
 41
0.1058
 66
1
 10
0
 20
0
 30
0
  0
VERTEX
  8
LAYER_1
 10
167.6397
 20
-161.2701
  0
VERTEX
  8
LAYER_1
 10
167.7416
 20
-160.7432
  0
SEQEND
  0
ENDBLK
  0
BLOCK
  8
LAYER_1
  2
AIGNBL01010125
 70
64
 10
0
 20
0
 30
0
  3
AIGNBL01010125
  0
POLYLINE
  8
LAYER_1
 40
0.1058
 41
0.1058
 66
1
 10
0
 20
0
 30
0
  0
VERTEX
  8
LAYER_1
 10
170.2751
 20
-159.1147
  0
VERTEX
  8
LAYER_1
 10
170.377
 20
-158.5878
  0
SEQEND
  0
ENDBLK
  0
BLOCK
  8
LAYER_1
  2
AIGNBL01010126
 70
64
 10
0
 20
0
 30
0
  3
AIGNBL01010126
  0
POLYLINE
  8
LAYER_1
 40
0.1058
 41
0.1058
 66
1
 10
0
 20
0
 30
0
  0
VERTEX
  8
LAYER_1
 10
173.8833
 20
-158.5217
  0
VERTEX
  8
LAYER_1
 10
173.877
 20
-158.5878
  0
SEQEND
  0
ENDBLK
  0
BLOCK
  8
LAYER_1
  2
AIGNBL01010127
 70
64
 10
0
 20
0
 30
0
  3
AIGNBL01010127
  0
POLYLINE
  8
LAYER_1
 40
0.1058
 41
0.1058
 66
1
 10
0
 20
0
 30
0
  0
VERTEX
  8
LAYER_1
 10
171.2152
 20
-160.8796
  0
VERTEX
  8
LAYER_1
 10
171.2416
 20
-160.7432
  0
SEQEND
  0
ENDBLK
  0
BLOCK
  8
LAYER_1
  2
AIGNBL01010128
 70
64
 10
0
 20
0
 30
0
  3
AIGNBL01010128
  0
POLYLINE
  8
LAYER_1
 40
0.1058
 41
0.1058
 66
1
 10
0
 20
0
 30
0
  0
VERTEX
  8
LAYER_1
 10
173.7751
 20
-159.1147
  0
VERTEX
  8
LAYER_1
 10
173.877
 20
-158.5878
  0
SEQEND
  0
ENDBLK
  0
BLOCK
  8
LAYER_1
  2
AIGNBL01010129
 70
64
 10
0
 20
0
 30
0
  3
AIGNBL01010129
  0
POLYLINE
  8
LAYER_1
 40
0.1058
 41
0.1058
 66
1
 10
0
 20
0
 30
0
  0
VERTEX
  8
LAYER_1
 10
167.7152
 20
-160.8796
  0
VERTEX
  8
LAYER_1
 10
167.4539
 20
-160.9551
  0
SEQEND
  0
ENDBLK
  0
BLOCK
  8
LAYER_1
  2
AIGNBL0101012A
 70
64
 10
0
 20
0
 30
0
  3
AIGNBL0101012A
  0
POLYLINE
  8
LAYER_1
 40
0.1058
 41
0.1058
 66
1
 10
0
 20
0
 30
0
  0
VERTEX
  8
LAYER_1
 10
171.4662
 20
-158.956
  0
VERTEX
  8
LAYER_1
 10
171.818
 20
-158.7801
  0
SEQEND
  0
ENDBLK
  0
BLOCK
  8
LAYER_1
  2
AIGNBL0101012B
 70
64
 10
0
 20
0
 30
0
  3
AIGNBL0101012B
  0
POLYLINE
  8
LAYER_1
 40
0.1058
 41
0.1058
 66
1
 10
0
 20
0
 30
0
  0
VERTEX
  8
LAYER_1
 10
171.4662
 20
-160.2117
  0
VERTEX
  8
LAYER_1
 10
171.818
 20
-160.0358
  0
SEQEND
  0
ENDBLK
  0
BLOCK
  8
LAYER_1
  2
AIGNBL0101012C
 70
64
 10
0
 20
0
 30
0
  3
AIGNBL0101012C
  0
POLYLINE
  8
LAYER_1
 40
0.1058
 41
0.1058
 66
1
 10
0
 20
0
 30
0
  0
VERTEX
  8
LAYER_1
 10
170.9539
 20
-160.9551
  0
VERTEX
  8
LAYER_1
 10
171.6878
 20
-160.7432
  0
SEQEND
  0
ENDBLK
  0
BLOCK
  8
LAYER_1
  2
AIGNBL0101012D
 70
64
 10
0
 20
0
 30
0
  3
AIGNBL0101012D
  0
POLYLINE
  8
LAYER_1
 40
0.1058
 41
0.1058
 66
1
 10
0
 20
0
 30
0
  0
VERTEX
  8
LAYER_1
 10
170.9539
 20
-163.5531
  0
VERTEX
  8
LAYER_1
 10
171.6878
 20
-163.3413
  0
SEQEND
  0
ENDBLK
  0
BLOCK
  8
LAYER_1
  2
AIGNBL0101012E
 70
64
 10
0
 20
0
 30
0
  3
AIGNBL0101012E
  0
POLYLINE
  8
LAYER_1
 40
0.1058
 41
0.1058
 66
1
 10
0
 20
0
 30
0
  0
VERTEX
  8
LAYER_1
 10
170.2235
 20
-165.496
  0
VERTEX
  8
LAYER_1
 10
170.5628
 20
-165.3981
  0
SEQEND
  0
ENDBLK
  0
BLOCK
  8
LAYER_1
  2
AIGNBL0101012F
 70
64
 10
0
 20
0
 30
0
  3
AIGNBL0101012F
  0
POLYLINE
  8
LAYER_1
 40
0.1058
 41
0.1058
 66
1
 10
0
 20
0
 30
0
  0
VERTEX
  8
LAYER_1
 10
174.0628
 20
-165.3981
  0
VERTEX
  8
LAYER_1
 10
173.3289
 20
-165.6099
  0
SEQEND
  0
ENDBLK
  0
BLOCK
  8
LAYER_1
  2
AIGNBL01010130
 70
64
 10
0
 20
0
 30
0
  3
AIGNBL01010130
  0
POLYLINE
  8
LAYER_1
 40
0.1058
 41
0.1058
 66
1
 10
0
 20
0
 30
0
  0
VERTEX
  8
LAYER_1
 10
168.863
 20
-165.6799
  0
VERTEX
  8
LAYER_1
 10
169.1536
 20
-165.6799
  0
SEQEND
  0
ENDBLK
  0
BLOCK
  8
LAYER_1
  2
AIGNBL01010131
 70
64
 10
0
 20
0
 30
0
  3
AIGNBL01010131
  0
POLYLINE
  8
LAYER_1
 40
0.1058
 41
0.1058
 66
1
 10
0
 20
0
 30
0
  0
VERTEX
  8
LAYER_1
 10
168.863
 20
-163.3318
  0
VERTEX
  8
LAYER_1
 10
169.1536
 20
-163.3318
  0
SEQEND
  0
ENDBLK
  0
BLOCK
  8
LAYER_1
  2
AIGNBL01010132
 70
64
 10
0
 20
0
 30
0
  3
AIGNBL01010132
  0
POLYLINE
  8
LAYER_1
 40
0.1058
 41
0.1058
 66
1
 10
0
 20
0
 30
0
  0
VERTEX
  8
LAYER_1
 10
169.1536
 20
-165.6799
 42
0.07191411099
  0
VERTEX
  8
LAYER_1
 10
170.2235
 20
-165.496
  0
SEQEND
  0
ENDBLK
  0
BLOCK
  8
LAYER_1
  2
AIGNBL01010133
 70
64
 10
0
 20
0
 30
0
  3
AIGNBL01010133
  0
POLYLINE
  8
LAYER_1
 40
0.1058
 41
0.1058
 66
1
 10
0
 20
0
 30
0
  0
VERTEX
  8
LAYER_1
 10
170.5628
 20
-165.3981
  0
VERTEX
  8
LAYER_1
 10
170.7584
 20
-165.3168
  0
SEQEND
  0
ENDBLK
  0
BLOCK
  8
LAYER_1
  2
AIGNBL01010134
 70
64
 10
0
 20
0
 30
0
  3
AIGNBL01010134
  0
POLYLINE
  8
LAYER_1
 40
0.1058
 41
0.1058
 66
1
 10
0
 20
0
 30
0
  0
VERTEX
  8
LAYER_1
 10
169.0083
 20
-162.0238
 42
0.08715774644
  0
VERTEX
  8
LAYER_1
 10
170.2786
 20
-161.7937
  0
SEQEND
  0
ENDBLK
  0
BLOCK
  8
LAYER_1
  2
AIGNBL01010135
 70
64
 10
0
 20
0
 30
0
  3
AIGNBL01010135
  0
POLYLINE
  8
LAYER_1
 40
0.1058
 41
0.1058
 66
1
 10
0
 20
0
 30
0
  0
VERTEX
  8
LAYER_1
 10
169.0083
 20
-162.2403
 42
0.09067180477
  0
VERTEX
  8
LAYER_1
 10
170.2786
 20
-162.0018
  0
SEQEND
  0
ENDBLK
  0
BLOCK
  8
LAYER_1
  2
AIGNBL01010136
 70
64
 10
0
 20
0
 30
0
  3
AIGNBL01010136
  0
POLYLINE
  8
LAYER_1
 40
0.1058
 41
0.1058
 66
1
 10
0
 20
0
 30
0
  0
VERTEX
  8
LAYER_1
 10
169.0083
 20
-159.2092
 42
0.1506441114
  0
VERTEX
  8
LAYER_1
 10
170.2264
 20
-158.8406
  0
SEQEND
  0
ENDBLK
  0
BLOCK
  8
LAYER_1
  2
AIGNBL01010137
 70
64
 10
0
 20
0
 30
0
  3
AIGNBL01010137
  0
POLYLINE
  8
LAYER_1
 40
0.1058
 41
0.1058
 66
1
 10
0
 20
0
 30
0
  0
VERTEX
  8
LAYER_1
 10
169.0083
 20
-158.6679
 42
0.1506631134
  0
VERTEX
  8
LAYER_1
 10
170.2265
 20
-158.2993
  0
SEQEND
  0
ENDBLK
  0
BLOCK
  8
LAYER_1
  2
AIGNBL01010138
 70
64
 10
0
 20
0
 30
0
  3
AIGNBL01010138
  0
POLYLINE
  8
LAYER_1
 40
0.1058
 41
0.1058
 66
1
 10
0
 20
0
 30
0
  0
VERTEX
  8
LAYER_1
 10
169.0083
 20
-158.6054
 42
0.1958867273
  0
VERTEX
  8
LAYER_1
 10
170.2254
 20
-158.1229
  0
SEQEND
  0
ENDBLK
  0
BLOCK
  8
LAYER_1
  2
AIGNBL01010139
 70
64
 10
0
 20
0
 30
0
  3
AIGNBL01010139
  0
POLYLINE
  8
LAYER_1
 40
0.1058
 41
0.1058
 66
1
 10
0
 20
0
 30
0
  0
VERTEX
  8
LAYER_1
 10
169.1928
 20
-159.7894
  0
VERTEX
  8
LAYER_1
 10
169.2236
 20
-159.7869
  0
SEQEND
  0
ENDBLK
  0
BLOCK
  8
LAYER_1
  2
AIGNBL0101013A
 70
64
 10
0
 20
0
 30
0
  3
AIGNBL0101013A
  0
POLYLINE
  8
LAYER_1
 40
0.1058
 41
0.1058
 66
1
 10
0
 20
0
 30
0
  0
VERTEX
  8
LAYER_1
 10
169.1928
 20
-161.3049
  0
VERTEX
  8
LAYER_1
 10
169.2236
 20
-161.3024
  0
SEQEND
  0
ENDBLK
  0
BLOCK
  8
LAYER_1
  2
AIGNBL0101013B
 70
64
 10
0
 20
0
 30
0
  3
AIGNBL0101013B
  0
POLYLINE
  8
LAYER_1
 40
0.1058
 41
0.1058
 66
1
 10
0
 20
0
 30
0
  0
VERTEX
  8
LAYER_1
 10
169.0083
 20
-162.4278
 42
0.0528738878
  0
VERTEX
  8
LAYER_1
 10
170.2786
 20
-162.2751
  0
SEQEND
  0
ENDBLK
  0
BLOCK
  8
LAYER_1
  2
AIGNBL0101013C
 70
64
 10
0
 20
0
 30
0
  3
AIGNBL0101013C
  0
POLYLINE
  8
LAYER_1
 40
0.1058
 41
0.1058
 66
1
 10
0
 20
0
 30
0
  0
VERTEX
  8
LAYER_1
 10
167.7416
 20
-159.1147
  0
VERTEX
  8
LAYER_1
 10
167.7466
 20
-159.14
  0
SEQEND
  0
ENDBLK
  0
BLOCK
  8
LAYER_1
  2
AIGNBL0101013D
 70
64
 10
0
 20
0
 30
0
  3
AIGNBL0101013D
  0
POLYLINE
  8
LAYER_1
 40
0.1058
 41
0.1058
 66
1
 10
0
 20
0
 30
0
  0
VERTEX
  8
LAYER_1
 10
167.7466
 20
-160.718
  0
VERTEX
  8
LAYER_1
 10
167.7416
 20
-160.7432
  0
SEQEND
  0
ENDBLK
  0
BLOCK
  8
LAYER_1
  2
AIGNBL0101013E
 70
64
 10
0
 20
0
 30
0
  3
AIGNBL0101013E
  0
POLYLINE
  8
LAYER_1
 40
0.1058
 41
0.1058
 66
1
 10
0
 20
0
 30
0
  0
VERTEX
  8
LAYER_1
 10
171.272
 20
-159.2634
  0
VERTEX
  8
LAYER_1
 10
171.2666
 20
-159.2357
  0
SEQEND
  0
ENDBLK
  0
BLOCK
  8
LAYER_1
  2
AIGNBL0101013F
 70
64
 10
0
 20
0
 30
0
  3
AIGNBL0101013F
  0
POLYLINE
  8
LAYER_1
 40
0.1058
 41
0.1058
 66
1
 10
0
 20
0
 30
0
  0
VERTEX
  8
LAYER_1
 10
171.2666
 20
-160.6222
  0
VERTEX
  8
LAYER_1
 10
171.272
 20
-160.5945
  0
SEQEND
  0
ENDBLK
  0
BLOCK
  8
LAYER_1
  2
AIGNBL01010140
 70
64
 10
0
 20
0
 30
0
  3
AIGNBL01010140
  0
POLYLINE
  8
LAYER_1
 40
0.1058
 41
0.1058
 66
1
 10
0
 20
0
 30
0
  0
VERTEX
  8
LAYER_1
 10
169.1521
 20
-162.3723
  0
VERTEX
  8
LAYER_1
 10
169.224
 20
-162.3658
  0
SEQEND
  0
ENDBLK
  0
BLOCK
  8
LAYER_1
  2
AIGNBL01010141
 70
64
 10
0
 20
0
 30
0
  3
AIGNBL01010141
  0
POLYLINE
  8
LAYER_1
 40
0.1058
 41
0.1058
 66
1
 10
0
 20
0
 30
0
  0
VERTEX
  8
LAYER_1
 10
169.2234
 20
-163.2939
  0
VERTEX
  8
LAYER_1
 10
169.1536
 20
-163.3318
  0
SEQEND
  0
ENDBLK
  0
BLOCK
  8
LAYER_1
  2
AIGNBL01010142
 70
64
 10
0
 20
0
 30
0
  3
AIGNBL01010142
  0
POLYLINE
  8
LAYER_1
 40
0.1058
 41
0.1058
 66
1
 10
0
 20
0
 30
0
  0
VERTEX
  8
LAYER_1
 10
172.6536
 20
-160.6733
  0
VERTEX
  8
LAYER_1
 10
172.363
 20
-160.6733
  0
SEQEND
  0
ENDBLK
  0
BLOCK
  8
LAYER_1
  2
AIGNBL01010143
 70
64
 10
0
 20
0
 30
0
  3
AIGNBL01010143
  0
POLYLINE
  8
LAYER_1
 40
0.1058
 41
0.1058
 66
1
 10
0
 20
0
 30
0
  0
VERTEX
  8
LAYER_1
 10
172.6536
 20
-163.0213
  0
VERTEX
  8
LAYER_1
 10
172.363
 20
-163.0213
  0
SEQEND
  0
ENDBLK
  0
BLOCK
  8
LAYER_1
  2
AIGNBL01010144
 70
64
 10
0
 20
0
 30
0
  3
AIGNBL01010144
  0
POLYLINE
  8
LAYER_1
 40
0.1058
 41
0.1058
 66
1
 10
0
 20
0
 30
0
  0
VERTEX
  8
LAYER_1
 10
172.704
 20
-160.6558
  0
VERTEX
  8
LAYER_1
 10
172.3127
 20
-160.6558
  0
SEQEND
  0
ENDBLK
  0
BLOCK
  8
LAYER_1
  2
AIGNBL01010145
 70
64
 10
0
 20
0
 30
0
  3
AIGNBL01010145
  0
POLYLINE
  8
LAYER_1
 40
0.1058
 41
0.1058
 66
1
 10
0
 20
0
 30
0
  0
VERTEX
  8
LAYER_1
 10
172.363
 20
-165.6799
  0
VERTEX
  8
LAYER_1
 10
172.6536
 20
-165.6799
  0
SEQEND
  0
ENDBLK
  0
BLOCK
  8
LAYER_1
  2
AIGNBL01010146
 70
64
 10
0
 20
0
 30
0
  3
AIGNBL01010146
  0
POLYLINE
  8
LAYER_1
 40
0.1058
 41
0.1058
 66
1
 10
0
 20
0
 30
0
  0
VERTEX
  8
LAYER_1
 10
172.0742
 20
-163.4391
  0
VERTEX
  8
LAYER_1
 10
172.5083
 20
-163.4646
  0
SEQEND
  0
ENDBLK
  0
BLOCK
  8
LAYER_1
  2
AIGNBL01010147
 70
64
 10
0
 20
0
 30
0
  3
AIGNBL01010147
  0
POLYLINE
  8
LAYER_1
 40
0.1058
 41
0.1058
 66
1
 10
0
 20
0
 30
0
  0
VERTEX
  8
LAYER_1
 10
172.5083
 20
-163.4646
  0
VERTEX
  8
LAYER_1
 10
172.9425
 20
-163.4391
  0
SEQEND
  0
ENDBLK
  0
BLOCK
  8
LAYER_1
  2
AIGNBL01010148
 70
64
 10
0
 20
0
 30
0
  3
AIGNBL01010148
  0
POLYLINE
  8
LAYER_1
 40
0.1058
 41
0.1058
 66
1
 10
0
 20
0
 30
0
  0
VERTEX
  8
LAYER_1
 10
173.77
 20
-159.14
  0
VERTEX
  8
LAYER_1
 10
173.7751
 20
-159.1147
  0
SEQEND
  0
ENDBLK
  0
BLOCK
  8
LAYER_1
  2
AIGNBL01010149
 70
64
 10
0
 20
0
 30
0
  3
AIGNBL01010149
  0
POLYLINE
  8
LAYER_1
 40
0.1058
 41
0.1058
 66
1
 10
0
 20
0
 30
0
  0
VERTEX
  8
LAYER_1
 10
173.7751
 20
-160.7432
  0
VERTEX
  8
LAYER_1
 10
173.77
 20
-160.718
  0
SEQEND
  0
ENDBLK
  0
BLOCK
  8
LAYER_1
  2
AIGNBL0101014A
 70
64
 10
0
 20
0
 30
0
  3
AIGNBL0101014A
  0
POLYLINE
  8
LAYER_1
 40
0.1058
 41
0.1058
 66
1
 10
0
 20
0
 30
0
  0
VERTEX
  8
LAYER_1
 10
170.25
 20
-159.2357
  0
VERTEX
  8
LAYER_1
 10
170.2446
 20
-159.2634
  0
SEQEND
  0
ENDBLK
  0
BLOCK
  8
LAYER_1
  2
AIGNBL0101014B
 70
64
 10
0
 20
0
 30
0
  3
AIGNBL0101014B
  0
POLYLINE
  8
LAYER_1
 40
0.1058
 41
0.1058
 66
1
 10
0
 20
0
 30
0
  0
VERTEX
  8
LAYER_1
 10
170.2446
 20
-160.5945
  0
VERTEX
  8
LAYER_1
 10
170.25
 20
-160.6222
  0
SEQEND
  0
ENDBLK
  0
BLOCK
  8
LAYER_1
  2
AIGNBL0101014C
 70
64
 10
0
 20
0
 30
0
  3
AIGNBL0101014C
  0
POLYLINE
  8
LAYER_1
 40
0.1058
 41
0.1058
 66
1
 10
0
 20
0
 30
0
  0
VERTEX
  8
LAYER_1
 10
169.0083
 20
-143.45
 42
0.1290255688
  0
VERTEX
  8
LAYER_1
 10
170.2235
 20
-143.1314
  0
SEQEND
  0
ENDBLK
  0
BLOCK
  8
LAYER_1
  2
AIGNBL0101014D
 70
64
 10
0
 20
0
 30
0
  3
AIGNBL0101014D
  0
POLYLINE
  8
LAYER_1
 40
0.1058
 41
0.1058
 66
1
 10
0
 20
0
 30
0
  0
VERTEX
  8
LAYER_1
 10
172.5083
 20
-165.3819
  0
VERTEX
  8
LAYER_1
 10
172.4126
 20
-165.3767
  0
VERTEX
  8
LAYER_1
 10
172.3647
 20
-165.3742
  0
VERTEX
  8
LAYER_1
 10
172.3168
 20
-165.3716
  0
VERTEX
  8
LAYER_1
 10
172.2689
 20
-165.3691
  0
VERTEX
  8
LAYER_1
 10
172.245
 20
-165.3678
  0
VERTEX
  8
LAYER_1
 10
172.2211
 20
-165.3665
  0
VERTEX
  8
LAYER_1
 10
172.1971
 20
-165.3652
  0
VERTEX
  8
LAYER_1
 10
172.1732
 20
-165.364
  0
VERTEX
  8
LAYER_1
 10
172.1612
 20
-165.3633
  0
VERTEX
  8
LAYER_1
 10
172.1492
 20
-165.3627
  0
VERTEX
  8
LAYER_1
 10
172.1433
 20
-165.3624
  0
VERTEX
  8
LAYER_1
 10
172.1373
 20
-165.362
  0
VERTEX
  8
LAYER_1
 10
172.1313
 20
-165.3617
  0
VERTEX
  8
LAYER_1
 10
172.1283
 20
-165.3616
  0
VERTEX
  8
LAYER_1
 10
172.1268
 20
-165.3615
  0
VERTEX
  8
LAYER_1
 10
172.1253
 20
-165.3614
  0
VERTEX
  8
LAYER_1
 10
172.1239
 20
-165.3612
  0
VERTEX
  8
LAYER_1
 10
172.1224
 20
-165.3609
  0
VERTEX
  8
LAYER_1
 10
172.1195
 20
-165.3604
  0
VERTEX
  8
LAYER_1
 10
172.1137
 20
-165.3595
  0
VERTEX
  8
LAYER_1
 10
172.1079
 20
-165.3585
  0
VERTEX
  8
LAYER_1
 10
172.1021
 20
-165.3575
  0
VERTEX
  8
LAYER_1
 10
172.0905
 20
-165.3556
  0
VERTEX
  8
LAYER_1
 10
172.0789
 20
-165.3537
  0
VERTEX
  8
LAYER_1
 10
172.0557
 20
-165.3498
  0
VERTEX
  8
LAYER_1
 10
172.0324
 20
-165.3459
  0
VERTEX
  8
LAYER_1
 10
172.0092
 20
-165.3421
  0
VERTEX
  8
LAYER_1
 10
171.986
 20
-165.3382
  0
VERTEX
  8
LAYER_1
 10
171.9396
 20
-165.3305
  0
VERTEX
  8
LAYER_1
 10
171.8931
 20
-165.3228
  0
VERTEX
  8
LAYER_1
 10
171.8699
 20
-165.3189
  0
VERTEX
  8
LAYER_1
 10
171.8467
 20
-165.3151
  0
VERTEX
  8
LAYER_1
 10
171.8235
 20
-165.3112
  0
VERTEX
  8
LAYER_1
 10
171.8003
 20
-165.3073
  0
VERTEX
  8
LAYER_1
 10
171.7886
 20
-165.3054
  0
VERTEX
  8
LAYER_1
 10
171.777
 20
-165.3035
  0
VERTEX
  8
LAYER_1
 10
171.7712
 20
-165.3025
  0
VERTEX
  8
LAYER_1
 10
171.7654
 20
-165.3015
  0
VERTEX
  8
LAYER_1
 10
171.7596
 20
-165.3006
  0
VERTEX
  8
LAYER_1
 10
171.7567
 20
-165.3001
  0
VERTEX
  8
LAYER_1
 10
171.7553
 20
-165.2998
  0
VERTEX
  8
LAYER_1
 10
171.7538
 20
-165.2996
  0
VERTEX
  8
LAYER_1
 10
171.7525
 20
-165.2992
  0
VERTEX
  8
LAYER_1
 10
171.7512
 20
-165.2988
  0
VERTEX
  8
LAYER_1
 10
171.7486
 20
-165.2981
  0
VERTEX
  8
LAYER_1
 10
171.7435
 20
-165.2965
  0
VERTEX
  8
LAYER_1
 10
171.7383
 20
-165.295
  0
VERTEX
  8
LAYER_1
 10
171.7331
 20
-165.2935
  0
VERTEX
  8
LAYER_1
 10
171.7228
 20
-165.2904
  0
VERTEX
  8
LAYER_1
 10
171.7124
 20
-165.2873
  0
VERTEX
  8
LAYER_1
 10
171.6917
 20
-165.2812
  0
VERTEX
  8
LAYER_1
 10
171.671
 20
-165.275
  0
VERTEX
  8
LAYER_1
 10
171.6503
 20
-165.2689
  0
VERTEX
  8
LAYER_1
 10
171.6296
 20
-165.2627
  0
VERTEX
  8
LAYER_1
 10
171.5882
 20
-165.2504
  0
VERTEX
  8
LAYER_1
 10
171.5468
 20
-165.2382
  0
VERTEX
  8
LAYER_1
 10
171.5261
 20
-165.232
  0
VERTEX
  8
LAYER_1
 10
171.5054
 20
-165.2259
  0
VERTEX
  8
LAYER_1
 10
171.4847
 20
-165.2197
  0
VERTEX
  8
LAYER_1
 10
171.464
 20
-165.2136
  0
VERTEX
  8
LAYER_1
 10
171.4537
 20
-165.2105
  0
VERTEX
  8
LAYER_1
 10
171.4433
 20
-165.2074
  0
VERTEX
  8
LAYER_1
 10
171.4381
 20
-165.2059
  0
VERTEX
  8
LAYER_1
 10
171.433
 20
-165.2043
  0
VERTEX
  8
LAYER_1
 10
171.4278
 20
-165.2028
  0
VERTEX
  8
LAYER_1
 10
171.4252
 20
-165.202
  0
VERTEX
  8
LAYER_1
 10
171.4239
 20
-165.2017
  0
VERTEX
  8
LAYER_1
 10
171.4226
 20
-165.2013
  0
VERTEX
  8
LAYER_1
 10
171.4215
 20
-165.2008
  0
VERTEX
  8
LAYER_1
 10
171.4204
 20
-165.2002
  0
VERTEX
  8
LAYER_1
 10
171.4181
 20
-165.1992
  0
VERTEX
  8
LAYER_1
 10
171.4137
 20
-165.1971
  0
VERTEX
  8
LAYER_1
 10
171.4092
 20
-165.195
  0
VERTEX
  8
LAYER_1
 10
171.4047
 20
-165.1929
  0
VERTEX
  8
LAYER_1
 10
171.3958
 20
-165.1888
  0
VERTEX
  8
LAYER_1
 10
171.3868
 20
-165.1846
  0
VERTEX
  8
LAYER_1
 10
171.3689
 20
-165.1762
  0
VERTEX
  8
LAYER_1
 10
171.351
 20
-165.1679
  0
VERTEX
  8
LAYER_1
 10
171.3331
 20
-165.1596
  0
VERTEX
  8
LAYER_1
 10
171.3152
 20
-165.1512
  0
VERTEX
  8
LAYER_1
 10
171.2794
 20
-165.1345
  0
VERTEX
  8
LAYER_1
 10
171.2436
 20
-165.1178
  0
VERTEX
  8
LAYER_1
 10
171.2258
 20
-165.1095
  0
VERTEX
  8
LAYER_1
 10
171.2079
 20
-165.1012
  0
VERTEX
  8
LAYER_1
 10
171.19
 20
-165.0928
  0
VERTEX
  8
LAYER_1
 10
171.181
 20
-165.0886
  0
VERTEX
  8
LAYER_1
 10
171.1721
 20
-165.0845
  0
VERTEX
  8
LAYER_1
 10
171.1631
 20
-165.0803
  0
VERTEX
  8
LAYER_1
 10
171.1542
 20
-165.0761
  0
VERTEX
  8
LAYER_1
 10
171.1497
 20
-165.074
  0
VERTEX
  8
LAYER_1
 10
171.1452
 20
-165.0719
  0
VERTEX
  8
LAYER_1
 10
171.143
 20
-165.0709
  0
VERTEX
  8
LAYER_1
 10
171.1408
 20
-165.0699
  0
VERTEX
  8
LAYER_1
 10
171.1385
 20
-165.0688
  0
VERTEX
  8
LAYER_1
 10
171.1374
 20
-165.0683
  0
VERTEX
  8
LAYER_1
 10
171.1363
 20
-165.0678
  0
VERTEX
  8
LAYER_1
 10
171.1354
 20
-165.0672
  0
VERTEX
  8
LAYER_1
 10
171.1346
 20
-165.0665
  0
VERTEX
  8
LAYER_1
 10
171.1329
 20
-165.0653
  0
VERTEX
  8
LAYER_1
 10
171.1311
 20
-165.0641
  0
VERTEX
  8
LAYER_1
 10
171.1294
 20
-165.0628
  0
VERTEX
  8
LAYER_1
 10
171.126
 20
-165.0604
  0
VERTEX
  8
LAYER_1
 10
171.1226
 20
-165.0579
  0
VERTEX
  8
LAYER_1
 10
171.1157
 20
-165.0529
  0
VERTEX
  8
LAYER_1
 10
171.1089
 20
-165.048
  0
VERTEX
  8
LAYER_1
 10
171.102
 20
-165.043
  0
VERTEX
  8
LAYER_1
 10
171.0952
 20
-165.0381
  0
VERTEX
  8
LAYER_1
 10
171.0815
 20
-165.0282
  0
VERTEX
  8
LAYER_1
 10
171.0677
 20
-165.0183
  0
VERTEX
  8
LAYER_1
 10
171.054
 20
-165.0084
  0
VERTEX
  8
LAYER_1
 10
171.0266
 20
-164.9886
  0
VERTEX
  8
LAYER_1
 10
170.9992
 20
-164.9688
  0
VERTEX
  8
LAYER_1
 10
170.9855
 20
-164.9589
  0
VERTEX
  8
LAYER_1
 10
170.9718
 20
-164.949
  0
VERTEX
  8
LAYER_1
 10
170.9581
 20
-164.9391
  0
VERTEX
  8
LAYER_1
 10
170.9513
 20
-164.9342
  0
VERTEX
  8
LAYER_1
 10
170.9444
 20
-164.9292
  0
VERTEX
  8
LAYER_1
 10
170.9375
 20
-164.9243
  0
VERTEX
  8
LAYER_1
 10
170.9307
 20
-164.9193
  0
VERTEX
  8
LAYER_1
 10
170.9273
 20
-164.9169
  0
VERTEX
  8
LAYER_1
 10
170.9238
 20
-164.9144
  0
VERTEX
  8
LAYER_1
 10
170.9221
 20
-164.9131
  0
VERTEX
  8
LAYER_1
 10
170.9204
 20
-164.9119
  0
VERTEX
  8
LAYER_1
 10
170.9187
 20
-164.9107
  0
VERTEX
  8
LAYER_1
 10
170.9178
 20
-164.91
  0
VERTEX
  8
LAYER_1
 10
170.917
 20
-164.9094
  0
VERTEX
  8
LAYER_1
 10
170.9164
 20
-164.9087
  0
VERTEX
  8
LAYER_1
 10
170.9158
 20
-164.908
  0
VERTEX
  8
LAYER_1
 10
170.9147
 20
-164.9066
  0
VERTEX
  8
LAYER_1
 10
170.9135
 20
-164.9052
  0
VERTEX
  8
LAYER_1
 10
170.9123
 20
-164.9038
  0
VERTEX
  8
LAYER_1
 10
170.91
 20
-164.9009
  0
VERTEX
  8
LAYER_1
 10
170.9077
 20
-164.8981
  0
VERTEX
  8
LAYER_1
 10
170.903
 20
-164.8925
  0
VERTEX
  8
LAYER_1
 10
170.8983
 20
-164.8868
  0
VERTEX
  8
LAYER_1
 10
170.8937
 20
-164.8811
  0
VERTEX
  8
LAYER_1
 10
170.889
 20
-164.8755
  0
VERTEX
  8
LAYER_1
 10
170.8797
 20
-164.8642
  0
VERTEX
  8
LAYER_1
 10
170.8704
 20
-164.8529
  0
VERTEX
  8
LAYER_1
 10
170.861
 20
-164.8416
  0
VERTEX
  8
LAYER_1
 10
170.8424
 20
-164.8189
  0
VERTEX
  8
LAYER_1
 10
170.8237
 20
-164.7963
  0
VERTEX
  8
LAYER_1
 10
170.8144
 20
-164.785
  0
VERTEX
  8
LAYER_1
 10
170.8051
 20
-164.7737
  0
VERTEX
  8
LAYER_1
 10
170.7958
 20
-164.7624
  0
VERTEX
  8
LAYER_1
 10
170.7911
 20
-164.7567
  0
VERTEX
  8
LAYER_1
 10
170.7864
 20
-164.7511
  0
VERTEX
  8
LAYER_1
 10
170.7818
 20
-164.7454
  0
VERTEX
  8
LAYER_1
 10
170.7771
 20
-164.7398
  0
VERTEX
  8
LAYER_1
 10
170.7748
 20
-164.7369
  0
VERTEX
  8
LAYER_1
 10
170.7725
 20
-164.7341
  0
VERTEX
  8
LAYER_1
 10
170.7713
 20
-164.7327
  0
VERTEX
  8
LAYER_1
 10
170.7701
 20
-164.7313
  0
VERTEX
  8
LAYER_1
 10
170.769
 20
-164.7299
  0
VERTEX
  8
LAYER_1
 10
170.7684
 20
-164.7292
  0
VERTEX
  8
LAYER_1
 10
170.7681
 20
-164.7288
  0
VERTEX
  8
LAYER_1
 10
170.7678
 20
-164.7284
  0
VERTEX
  8
LAYER_1
 10
170.7677
 20
-164.7281
  0
VERTEX
  8
LAYER_1
 10
170.7675
 20
-164.7277
  0
VERTEX
  8
LAYER_1
 10
170.7673
 20
-164.727
  0
VERTEX
  8
LAYER_1
 10
170.7667
 20
-164.7255
  0
VERTEX
  8
LAYER_1
 10
170.7662
 20
-164.724
  0
VERTEX
  8
LAYER_1
 10
170.7657
 20
-164.7225
  0
VERTEX
  8
LAYER_1
 10
170.7646
 20
-164.7196
  0
VERTEX
  8
LAYER_1
 10
170.7636
 20
-164.7166
  0
VERTEX
  8
LAYER_1
 10
170.7615
 20
-164.7107
  0
VERTEX
  8
LAYER_1
 10
170.7594
 20
-164.7047
  0
VERTEX
  8
LAYER_1
 10
170.7572
 20
-164.6988
  0
VERTEX
  8
LAYER_1
 10
170.7551
 20
-164.6929
  0
VERTEX
  8
LAYER_1
 10
170.7509
 20
-164.681
  0
VERTEX
  8
LAYER_1
 10
170.7467
 20
-164.6692
  0
VERTEX
  8
LAYER_1
 10
170.7425
 20
-164.6573
  0
VERTEX
  8
LAYER_1
 10
170.734
 20
-164.6336
  0
VERTEX
  8
LAYER_1
 10
170.7256
 20
-164.6099
  0
VERTEX
  8
LAYER_1
 10
170.7214
 20
-164.5981
  0
VERTEX
  8
LAYER_1
 10
170.7171
 20
-164.5862
  0
VERTEX
  8
LAYER_1
 10
170.7129
 20
-164.5744
  0
VERTEX
  8
LAYER_1
 10
170.7108
 20
-164.5685
  0
VERTEX
  8
LAYER_1
 10
170.7087
 20
-164.5625
  0
VERTEX
  8
LAYER_1
 10
170.7066
 20
-164.5566
  0
VERTEX
  8
LAYER_1
 10
170.7045
 20
-164.5507
  0
VERTEX
  8
LAYER_1
 10
170.7034
 20
-164.5477
  0
VERTEX
  8
LAYER_1
 10
170.7024
 20
-164.5448
  0
VERTEX
  8
LAYER_1
 10
170.7018
 20
-164.5433
  0
VERTEX
  8
LAYER_1
 10
170.7013
 20
-164.5418
  0
VERTEX
  8
LAYER_1
 10
170.7008
 20
-164.5403
  0
VERTEX
  8
LAYER_1
 10
170.7005
 20
-164.5396
  0
VERTEX
  8
LAYER_1
 10
170.7004
 20
-164.5392
  0
VERTEX
  8
LAYER_1
 10
170.7002
 20
-164.5388
  0
VERTEX
  8
LAYER_1
 10
170.7003
 20
-164.5384
  0
VERTEX
  8
LAYER_1
 10
170.7003
 20
-164.5381
  0
VERTEX
  8
LAYER_1
 10
170.7004
 20
-164.5373
  0
VERTEX
  8
LAYER_1
 10
170.7005
 20
-164.5358
  0
VERTEX
  8
LAYER_1
 10
170.7006
 20
-164.5342
  0
VERTEX
  8
LAYER_1
 10
170.7007
 20
-164.5327
  0
VERTEX
  8
LAYER_1
 10
170.701
 20
-164.5297
  0
VERTEX
  8
LAYER_1
 10
170.7012
 20
-164.5266
  0
VERTEX
  8
LAYER_1
 10
170.7017
 20
-164.5205
  0
VERTEX
  8
LAYER_1
 10
170.7021
 20
-164.5144
  0
VERTEX
  8
LAYER_1
 10
170.7026
 20
-164.5083
  0
VERTEX
  8
LAYER_1
 10
170.7031
 20
-164.5022
  0
VERTEX
  8
LAYER_1
 10
170.704
 20
-164.4899
  0
VERTEX
  8
LAYER_1
 10
170.7049
 20
-164.4777
  0
VERTEX
  8
LAYER_1
 10
170.7059
 20
-164.4655
  0
VERTEX
  8
LAYER_1
 10
170.7078
 20
-164.441
  0
VERTEX
  8
LAYER_1
 10
170.7096
 20
-164.4166
  0
VERTEX
  8
LAYER_1
 10
170.7115
 20
-164.3921
  0
VERTEX
  8
LAYER_1
 10
170.7134
 20
-164.3677
  0
VERTEX
  8
LAYER_1
 10
170.7153
 20
-164.3432
  0
SEQEND
  0
ENDBLK
  0
BLOCK
  8
LAYER_1
  2
AIGNBL0101014E
 70
64
 10
0
 20
0
 30
0
  3
AIGNBL0101014E
  0
POLYLINE
  8
LAYER_1
 40
0.1058
 41
0.1058
 66
1
 10
0
 20
0
 30
0
  0
VERTEX
  8
LAYER_1
 10
170.7153
 20
-164.3432
  0
VERTEX
  8
LAYER_1
 10
170.7349
 20
-164.3044
  0
VERTEX
  8
LAYER_1
 10
170.7448
 20
-164.285
  0
VERTEX
  8
LAYER_1
 10
170.7546
 20
-164.2655
  0
VERTEX
  8
LAYER_1
 10
170.7644
 20
-164.2461
  0
VERTEX
  8
LAYER_1
 10
170.7742
 20
-164.2267
  0
VERTEX
  8
LAYER_1
 10
170.7792
 20
-164.217
  0
VERTEX
  8
LAYER_1
 10
170.7841
 20
-164.2073
  0
VERTEX
  8
LAYER_1
 10
170.789
 20
-164.1976
  0
VERTEX
  8
LAYER_1
 10
170.7939
 20
-164.1879
  0
VERTEX
  8
LAYER_1
 10
170.7964
 20
-164.183
  0
VERTEX
  8
LAYER_1
 10
170.7988
 20
-164.1781
  0
VERTEX
  8
LAYER_1
 10
170.8013
 20
-164.1733
  0
VERTEX
  8
LAYER_1
 10
170.8025
 20
-164.1709
  0
VERTEX
  8
LAYER_1
 10
170.8037
 20
-164.1684
  0
VERTEX
  8
LAYER_1
 10
170.8043
 20
-164.1672
  0
VERTEX
  8
LAYER_1
 10
170.8047
 20
-164.1666
  0
VERTEX
  8
LAYER_1
 10
170.805
 20
-164.166
  0
VERTEX
  8
LAYER_1
 10
170.8051
 20
-164.1657
  0
VERTEX
  8
LAYER_1
 10
170.8054
 20
-164.1654
  0
VERTEX
  8
LAYER_1
 10
170.8059
 20
-164.1649
  0
VERTEX
  8
LAYER_1
 10
170.807
 20
-164.1637
  0
VERTEX
  8
LAYER_1
 10
170.8092
 20
-164.1615
  0
VERTEX
  8
LAYER_1
 10
170.8114
 20
-164.1592
  0
VERTEX
  8
LAYER_1
 10
170.8157
 20
-164.1547
  0
VERTEX
  8
LAYER_1
 10
170.8201
 20
-164.1502
  0
VERTEX
  8
LAYER_1
 10
170.8288
 20
-164.1412
  0
VERTEX
  8
LAYER_1
 10
170.8375
 20
-164.1322
  0
VERTEX
  8
LAYER_1
 10
170.855
 20
-164.1141
  0
VERTEX
  8
LAYER_1
 10
170.8724
 20
-164.0961
  0
VERTEX
  8
LAYER_1
 10
170.8898
 20
-164.0781
  0
VERTEX
  8
LAYER_1
 10
170.9073
 20
-164.06
  0
VERTEX
  8
LAYER_1
 10
170.916
 20
-164.051
  0
VERTEX
  8
LAYER_1
 10
170.9247
 20
-164.042
  0
VERTEX
  8
LAYER_1
 10
170.9334
 20
-164.033
  0
VERTEX
  8
LAYER_1
 10
170.9422
 20
-164.0239
  0
VERTEX
  8
LAYER_1
 10
170.9509
 20
-164.0149
  0
VERTEX
  8
LAYER_1
 10
170.9552
 20
-164.0104
  0
VERTEX
  8
LAYER_1
 10
170.9574
 20
-164.0082
  0
VERTEX
  8
LAYER_1
 10
170.9596
 20
-164.0059
  0
VERTEX
  8
LAYER_1
 10
170.9618
 20
-164.0036
  0
VERTEX
  8
LAYER_1
 10
170.9629
 20
-164.0025
  0
VERTEX
  8
LAYER_1
 10
170.964
 20
-164.0014
  0
VERTEX
  8
LAYER_1
 10
170.9645
 20
-164.0008
  0
VERTEX
  8
LAYER_1
 10
170.9652
 20
-164.0003
  0
VERTEX
  8
LAYER_1
 10
170.9667
 20
-163.9993
  0
VERTEX
  8
LAYER_1
 10
170.9698
 20
-163.9973
  0
VERTEX
  8
LAYER_1
 10
170.9759
 20
-163.9934
  0
VERTEX
  8
LAYER_1
 10
170.982
 20
-163.9894
  0
VERTEX
  8
LAYER_1
 10
170.988
 20
-163.9854
  0
VERTEX
  8
LAYER_1
 10
170.9941
 20
-163.9814
  0
VERTEX
  8
LAYER_1
 10
171.0063
 20
-163.9735
  0
VERTEX
  8
LAYER_1
 10
171.0306
 20
-163.9576
  0
VERTEX
  8
LAYER_1
 10
171.055
 20
-163.9416
  0
VERTEX
  8
LAYER_1
 10
171.1036
 20
-163.9098
  0
VERTEX
  8
LAYER_1
 10
171.128
 20
-163.8939
  0
VERTEX
  8
LAYER_1
 10
171.1401
 20
-163.8859
  0
VERTEX
  8
LAYER_1
 10
171.1523
 20
-163.878
  0
VERTEX
  8
LAYER_1
 10
171.1645
 20
-163.87
  0
VERTEX
  8
LAYER_1
 10
171.1706
 20
-163.866
  0
VERTEX
  8
LAYER_1
 10
171.1766
 20
-163.8621
  0
VERTEX
  8
LAYER_1
 10
171.1827
 20
-163.8581
  0
VERTEX
  8
LAYER_1
 10
171.1843
 20
-163.8571
  0
VERTEX
  8
LAYER_1
 10
171.1858
 20
-163.8561
  0
VERTEX
  8
LAYER_1
 10
171.1873
 20
-163.8551
  0
VERTEX
  8
LAYER_1
 10
171.1883
 20
-163.8547
  0
VERTEX
  8
LAYER_1
 10
171.1893
 20
-163.8543
  0
VERTEX
  8
LAYER_1
 10
171.1931
 20
-163.8526
  0
VERTEX
  8
LAYER_1
 10
171.197
 20
-163.851
  0
VERTEX
  8
LAYER_1
 10
171.2008
 20
-163.8493
  0
VERTEX
  8
LAYER_1
 10
171.2047
 20
-163.8476
  0
VERTEX
  8
LAYER_1
 10
171.2124
 20
-163.8443
  0
VERTEX
  8
LAYER_1
 10
171.2201
 20
-163.8409
  0
VERTEX
  8
LAYER_1
 10
171.2355
 20
-163.8343
  0
VERTEX
  8
LAYER_1
 10
171.2509
 20
-163.8276
  0
VERTEX
  8
LAYER_1
 10
171.2663
 20
-163.8209
  0
VERTEX
  8
LAYER_1
 10
171.2971
 20
-163.8076
  0
VERTEX
  8
LAYER_1
 10
171.3279
 20
-163.7942
  0
VERTEX
  8
LAYER_1
 10
171.3587
 20
-163.7809
  0
VERTEX
  8
LAYER_1
 10
171.3895
 20
-163.7676
  0
VERTEX
  8
LAYER_1
 10
171.4049
 20
-163.7609
  0
VERTEX
  8
LAYER_1
 10
171.4203
 20
-163.7542
  0
VERTEX
  8
LAYER_1
 10
171.4357
 20
-163.7476
  0
VERTEX
  8
LAYER_1
 10
171.4434
 20
-163.7442
  0
VERTEX
  8
LAYER_1
 10
171.4511
 20
-163.7409
  0
VERTEX
  8
LAYER_1
 10
171.4588
 20
-163.7375
  0
VERTEX
  8
LAYER_1
 10
171.4627
 20
-163.7359
  0
VERTEX
  8
LAYER_1
 10
171.4646
 20
-163.735
  0
VERTEX
  8
LAYER_1
 10
171.4665
 20
-163.7342
  0
VERTEX
  8
LAYER_1
 10
171.4684
 20
-163.7334
  0
VERTEX
  8
LAYER_1
 10
171.4706
 20
-163.7327
  0
VERTEX
  8
LAYER_1
 10
171.4728
 20
-163.7321
  0
VERTEX
  8
LAYER_1
 10
171.475
 20
-163.7315
  0
VERTEX
  8
LAYER_1
 10
171.4837
 20
-163.7291
  0
VERTEX
  8
LAYER_1
 10
171.4925
 20
-163.7266
  0
VERTEX
  8
LAYER_1
 10
171.5012
 20
-163.7242
  0
VERTEX
  8
LAYER_1
 10
171.5187
 20
-163.7193
  0
VERTEX
  8
LAYER_1
 10
171.5362
 20
-163.7144
  0
VERTEX
  8
LAYER_1
 10
171.5537
 20
-163.7095
  0
VERTEX
  8
LAYER_1
 10
171.5886
 20
-163.6997
  0
VERTEX
  8
LAYER_1
 10
171.6586
 20
-163.6802
  0
VERTEX
  8
LAYER_1
 10
171.6936
 20
-163.6704
  0
VERTEX
  8
LAYER_1
 10
171.7285
 20
-163.6607
  0
VERTEX
  8
LAYER_1
 10
171.746
 20
-163.6558
  0
VERTEX
  8
LAYER_1
 10
171.7548
 20
-163.6533
  0
VERTEX
  8
LAYER_1
 10
171.7635
 20
-163.6509
  0
VERTEX
  8
LAYER_1
 10
171.7723
 20
-163.6484
  0
VERTEX
  8
LAYER_1
 10
171.781
 20
-163.646
  0
VERTEX
  8
LAYER_1
 10
171.7854
 20
-163.6448
  0
VERTEX
  8
LAYER_1
 10
171.7876
 20
-163.6442
  0
VERTEX
  8
LAYER_1
 10
171.7887
 20
-163.6439
  0
VERTEX
  8
LAYER_1
 10
171.7899
 20
-163.6437
  0
VERTEX
  8
LAYER_1
 10
171.7923
 20
-163.6433
  0
VERTEX
  8
LAYER_1
 10
171.7946
 20
-163.6429
  0
VERTEX
  8
LAYER_1
 10
171.7994
 20
-163.6422
  0
VERTEX
  8
LAYER_1
 10
171.809
 20
-163.6407
  0
VERTEX
  8
LAYER_1
 10
171.8185
 20
-163.6391
  0
VERTEX
  8
LAYER_1
 10
171.8376
 20
-163.6361
  0
VERTEX
  8
LAYER_1
 10
171.8567
 20
-163.6331
  0
VERTEX
  8
LAYER_1
 10
171.8758
 20
-163.6301
  0
VERTEX
  8
LAYER_1
 10
171.914
 20
-163.624
  0
VERTEX
  8
LAYER_1
 10
171.9522
 20
-163.6179
  0
VERTEX
  8
LAYER_1
 10
171.9904
 20
-163.6119
  0
VERTEX
  8
LAYER_1
 10
172.0286
 20
-163.6058
  0
VERTEX
  8
LAYER_1
 10
172.0668
 20
-163.5998
  0
VERTEX
  8
LAYER_1
 10
172.0858
 20
-163.5967
  0
VERTEX
  8
LAYER_1
 10
172.1049
 20
-163.5937
  0
VERTEX
  8
LAYER_1
 10
172.1145
 20
-163.5922
  0
VERTEX
  8
LAYER_1
 10
172.124
 20
-163.5907
  0
VERTEX
  8
LAYER_1
 10
172.1288
 20
-163.5899
  0
VERTEX
  8
LAYER_1
 10
172.1336
 20
-163.5892
  0
VERTEX
  8
LAYER_1
 10
172.1384
 20
-163.5885
  0
VERTEX
  8
LAYER_1
 10
172.1409
 20
-163.5883
  0
VERTEX
  8
LAYER_1
 10
172.1435
 20
-163.5882
  0
VERTEX
  8
LAYER_1
 10
172.1485
 20
-163.588
  0
VERTEX
  8
LAYER_1
 10
172.1536
 20
-163.5877
  0
VERTEX
  8
LAYER_1
 10
172.1637
 20
-163.5872
  0
VERTEX
  8
LAYER_1
 10
172.1739
 20
-163.5866
  0
VERTEX
  8
LAYER_1
 10
172.184
 20
-163.5861
  0
VERTEX
  8
LAYER_1
 10
172.2043
 20
-163.5851
  0
VERTEX
  8
LAYER_1
 10
172.2246
 20
-163.584
  0
VERTEX
  8
LAYER_1
 10
172.2651
 20
-163.5819
  0
VERTEX
  8
LAYER_1
 10
172.3056
 20
-163.5798
  0
VERTEX
  8
LAYER_1
 10
172.3462
 20
-163.5777
  0
VERTEX
  8
LAYER_1
 10
172.4273
 20
-163.5736
  0
VERTEX
  8
LAYER_1
 10
172.5083
 20
-163.5694
  0
SEQEND
  0
ENDBLK
  0
BLOCK
  8
LAYER_1
  2
AIGNBL0101014F
 70
64
 10
0
 20
0
 30
0
  3
AIGNBL0101014F
  0
POLYLINE
  8
LAYER_1
 40
0.1058
 41
0.1058
 66
1
 10
0
 20
0
 30
0
  0
VERTEX
  8
LAYER_1
 10
172.5083
 20
-163.5694
  0
VERTEX
  8
LAYER_1
 10
172.5881
 20
-163.5734
  0
VERTEX
  8
LAYER_1
 10
172.6678
 20
-163.5775
  0
VERTEX
  8
LAYER_1
 10
172.7076
 20
-163.5795
  0
VERTEX
  8
LAYER_1
 10
172.7475
 20
-163.5815
  0
VERTEX
  8
LAYER_1
 10
172.7874
 20
-163.5835
  0
VERTEX
  8
LAYER_1
 10
172.8073
 20
-163.5845
  0
VERTEX
  8
LAYER_1
 10
172.8272
 20
-163.5856
  0
VERTEX
  8
LAYER_1
 10
172.8372
 20
-163.5861
  0
VERTEX
  8
LAYER_1
 10
172.8472
 20
-163.5866
  0
VERTEX
  8
LAYER_1
 10
172.8571
 20
-163.5871
  0
VERTEX
  8
LAYER_1
 10
172.8621
 20
-163.5873
  0
VERTEX
  8
LAYER_1
 10
172.8671
 20
-163.5876
  0
VERTEX
  8
LAYER_1
 10
172.8696
 20
-163.5877
  0
VERTEX
  8
LAYER_1
 10
172.8721
 20
-163.5878
  0
VERTEX
  8
LAYER_1
 10
172.8769
 20
-163.5885
  0
VERTEX
  8
LAYER_1
 10
172.8817
 20
-163.5893
  0
VERTEX
  8
LAYER_1
 10
172.8864
 20
-163.59
  0
VERTEX
  8
LAYER_1
 10
172.896
 20
-163.5915
  0
VERTEX
  8
LAYER_1
 10
172.9056
 20
-163.593
  0
VERTEX
  8
LAYER_1
 10
172.9247
 20
-163.596
  0
VERTEX
  8
LAYER_1
 10
172.9438
 20
-163.599
  0
VERTEX
  8
LAYER_1
 10
172.982
 20
-163.605
  0
VERTEX
  8
LAYER_1
 10
173.0203
 20
-163.611
  0
VERTEX
  8
LAYER_1
 10
173.0585
 20
-163.617
  0
VERTEX
  8
LAYER_1
 10
173.0967
 20
-163.623
  0
VERTEX
  8
LAYER_1
 10
173.135
 20
-163.629
  0
VERTEX
  8
LAYER_1
 10
173.1541
 20
-163.6319
  0
VERTEX
  8
LAYER_1
 10
173.1732
 20
-163.6349
  0
VERTEX
  8
LAYER_1
 10
173.1923
 20
-163.6379
  0
VERTEX
  8
LAYER_1
 10
173.2019
 20
-163.6394
  0
VERTEX
  8
LAYER_1
 10
173.2114
 20
-163.6409
  0
VERTEX
  8
LAYER_1
 10
173.2162
 20
-163.6417
  0
VERTEX
  8
LAYER_1
 10
173.2186
 20
-163.6421
  0
VERTEX
  8
LAYER_1
 10
173.221
 20
-163.6424
  0
VERTEX
  8
LAYER_1
 10
173.2222
 20
-163.6426
  0
VERTEX
  8
LAYER_1
 10
173.2233
 20
-163.6429
  0
VERTEX
  8
LAYER_1
 10
173.2255
 20
-163.6435
  0
VERTEX
  8
LAYER_1
 10
173.2299
 20
-163.6447
  0
VERTEX
  8
LAYER_1
 10
173.2386
 20
-163.6472
  0
VERTEX
  8
LAYER_1
 10
173.2474
 20
-163.6496
  0
VERTEX
  8
LAYER_1
 10
173.2561
 20
-163.652
  0
VERTEX
  8
LAYER_1
 10
173.2649
 20
-163.6544
  0
VERTEX
  8
LAYER_1
 10
173.2824
 20
-163.6593
  0
VERTEX
  8
LAYER_1
 10
173.3175
 20
-163.669
  0
VERTEX
  8
LAYER_1
 10
173.3525
 20
-163.6787
  0
VERTEX
  8
LAYER_1
 10
173.4226
 20
-163.6981
  0
VERTEX
  8
LAYER_1
 10
173.4576
 20
-163.7079
  0
VERTEX
  8
LAYER_1
 10
173.4752
 20
-163.7127
  0
VERTEX
  8
LAYER_1
 10
173.4927
 20
-163.7176
  0
VERTEX
  8
LAYER_1
 10
173.5102
 20
-163.7224
  0
VERTEX
  8
LAYER_1
 10
173.519
 20
-163.7249
  0
VERTEX
  8
LAYER_1
 10
173.5277
 20
-163.7273
  0
VERTEX
  8
LAYER_1
 10
173.5365
 20
-163.7297
  0
VERTEX
  8
LAYER_1
 10
173.5387
 20
-163.7303
  0
VERTEX
  8
LAYER_1
 10
173.5409
 20
-163.7309
  0
VERTEX
  8
LAYER_1
 10
173.543
 20
-163.7316
  0
VERTEX
  8
LAYER_1
 10
173.545
 20
-163.7324
  0
VERTEX
  8
LAYER_1
 10
173.5469
 20
-163.7332
  0
VERTEX
  8
LAYER_1
 10
173.5488
 20
-163.7341
  0
VERTEX
  8
LAYER_1
 10
173.5527
 20
-163.7357
  0
VERTEX
  8
LAYER_1
 10
173.5604
 20
-163.739
  0
VERTEX
  8
LAYER_1
 10
173.5681
 20
-163.7424
  0
VERTEX
  8
LAYER_1
 10
173.5759
 20
-163.7457
  0
VERTEX
  8
LAYER_1
 10
173.5913
 20
-163.7523
  0
VERTEX
  8
LAYER_1
 10
173.6068
 20
-163.759
  0
VERTEX
  8
LAYER_1
 10
173.6222
 20
-163.7656
  0
VERTEX
  8
LAYER_1
 10
173.6531
 20
-163.7789
  0
VERTEX
  8
LAYER_1
 10
173.684
 20
-163.7922
  0
VERTEX
  8
LAYER_1
 10
173.7149
 20
-163.8055
  0
VERTEX
  8
LAYER_1
 10
173.7458
 20
-163.8188
  0
VERTEX
  8
LAYER_1
 10
173.7612
 20
-163.8254
  0
VERTEX
  8
LAYER_1
 10
173.7767
 20
-163.8321
  0
VERTEX
  8
LAYER_1
 10
173.7921
 20
-163.8387
  0
VERTEX
  8
LAYER_1
 10
173.7999
 20
-163.842
  0
VERTEX
  8
LAYER_1
 10
173.8076
 20
-163.8453
  0
VERTEX
  8
LAYER_1
 10
173.8115
 20
-163.847
  0
VERTEX
  8
LAYER_1
 10
173.8153
 20
-163.8487
  0
VERTEX
  8
LAYER_1
 10
173.8192
 20
-163.8503
  0
VERTEX
  8
LAYER_1
 10
173.823
 20
-163.852
  0
VERTEX
  8
LAYER_1
 10
173.824
 20
-163.8524
  0
VERTEX
  8
LAYER_1
 10
173.825
 20
-163.8528
  0
VERTEX
  8
LAYER_1
 10
173.8266
 20
-163.8538
  0
VERTEX
  8
LAYER_1
 10
173.8281
 20
-163.8548
  0
VERTEX
  8
LAYER_1
 10
173.8296
 20
-163.8558
  0
VERTEX
  8
LAYER_1
 10
173.8357
 20
-163.8597
  0
VERTEX
  8
LAYER_1
 10
173.8418
 20
-163.8637
  0
VERTEX
  8
LAYER_1
 10
173.8479
 20
-163.8677
  0
VERTEX
  8
LAYER_1
 10
173.8602
 20
-163.8756
  0
VERTEX
  8
LAYER_1
 10
173.8724
 20
-163.8836
  0
VERTEX
  8
LAYER_1
 10
173.8846
 20
-163.8915
  0
VERTEX
  8
LAYER_1
 10
173.9091
 20
-163.9074
  0
VERTEX
  8
LAYER_1
 10
173.958
 20
-163.9391
  0
VERTEX
  8
LAYER_1
 10
173.9824
 20
-163.955
  0
VERTEX
  8
LAYER_1
 10
174.0069
 20
-163.9708
  0
VERTEX
  8
LAYER_1
 10
174.0191
 20
-163.9788
  0
VERTEX
  8
LAYER_1
 10
174.0252
 20
-163.9828
  0
VERTEX
  8
LAYER_1
 10
174.0313
 20
-163.9867
  0
VERTEX
  8
LAYER_1
 10
174.0374
 20
-163.9907
  0
VERTEX
  8
LAYER_1
 10
174.0435
 20
-163.9947
  0
VERTEX
  8
LAYER_1
 10
174.0466
 20
-163.9966
  0
VERTEX
  8
LAYER_1
 10
174.0481
 20
-163.9976
  0
VERTEX
  8
LAYER_1
 10
174.0488
 20
-163.9981
  0
VERTEX
  8
LAYER_1
 10
174.0494
 20
-163.9987
  0
VERTEX
  8
LAYER_1
 10
174.0505
 20
-163.9998
  0
VERTEX
  8
LAYER_1
 10
174.0516
 20
-164.001
  0
VERTEX
  8
LAYER_1
 10
174.0538
 20
-164.0032
  0
VERTEX
  8
LAYER_1
 10
174.056
 20
-164.0055
  0
VERTEX
  8
LAYER_1
 10
174.0582
 20
-164.0077
  0
VERTEX
  8
LAYER_1
 10
174.0626
 20
-164.0122
  0
VERTEX
  8
LAYER_1
 10
174.0713
 20
-164.0212
  0
VERTEX
  8
LAYER_1
 10
174.0801
 20
-164.0302
  0
VERTEX
  8
LAYER_1
 10
174.0889
 20
-164.0392
  0
VERTEX
  8
LAYER_1
 10
174.0977
 20
-164.0482
  0
VERTEX
  8
LAYER_1
 10
174.1065
 20
-164.0572
  0
VERTEX
  8
LAYER_1
 10
174.124
 20
-164.0752
  0
VERTEX
  8
LAYER_1
 10
174.1416
 20
-164.0932
  0
VERTEX
  8
LAYER_1
 10
174.1592
 20
-164.1112
  0
VERTEX
  8
LAYER_1
 10
174.1767
 20
-164.1292
  0
VERTEX
  8
LAYER_1
 10
174.1855
 20
-164.1382
  0
VERTEX
  8
LAYER_1
 10
174.1943
 20
-164.1473
  0
VERTEX
  8
LAYER_1
 10
174.1987
 20
-164.1518
  0
VERTEX
  8
LAYER_1
 10
174.2031
 20
-164.1563
  0
VERTEX
  8
LAYER_1
 10
174.2053
 20
-164.1585
  0
VERTEX
  8
LAYER_1
 10
174.2075
 20
-164.1608
  0
VERTEX
  8
LAYER_1
 10
174.2086
 20
-164.1619
  0
VERTEX
  8
LAYER_1
 10
174.2091
 20
-164.1624
  0
VERTEX
  8
LAYER_1
 10
174.2094
 20
-164.1627
  0
VERTEX
  8
LAYER_1
 10
174.2095
 20
-164.163
  0
VERTEX
  8
LAYER_1
 10
174.2098
 20
-164.1637
  0
VERTEX
  8
LAYER_1
 10
174.2102
 20
-164.1643
  0
VERTEX
  8
LAYER_1
 10
174.2108
 20
-164.1655
  0
VERTEX
  8
LAYER_1
 10
174.212
 20
-164.168
  0
VERTEX
  8
LAYER_1
 10
174.2133
 20
-164.1704
  0
VERTEX
  8
LAYER_1
 10
174.2158
 20
-164.1754
  0
VERTEX
  8
LAYER_1
 10
174.2183
 20
-164.1803
  0
VERTEX
  8
LAYER_1
 10
174.2209
 20
-164.1853
  0
VERTEX
  8
LAYER_1
 10
174.2259
 20
-164.1951
  0
VERTEX
  8
LAYER_1
 10
174.2309
 20
-164.205
  0
VERTEX
  8
LAYER_1
 10
174.236
 20
-164.2149
  0
VERTEX
  8
LAYER_1
 10
174.241
 20
-164.2247
  0
VERTEX
  8
LAYER_1
 10
174.2511
 20
-164.2445
  0
VERTEX
  8
LAYER_1
 10
174.2611
 20
-164.2642
  0
VERTEX
  8
LAYER_1
 10
174.2712
 20
-164.284
  0
VERTEX
  8
LAYER_1
 10
174.2813
 20
-164.3037
  0
VERTEX
  8
LAYER_1
 10
174.3014
 20
-164.3432
  0
SEQEND
  0
ENDBLK
  0
BLOCK
  8
LAYER_1
  2
AIGNBL01010150
 70
64
 10
0
 20
0
 30
0
  3
AIGNBL01010150
  0
POLYLINE
  8
LAYER_1
 40
0.1058
 41
0.1058
 66
1
 10
0
 20
0
 30
0
  0
VERTEX
  8
LAYER_1
 10
174.3014
 20
-164.3432
  0
VERTEX
  8
LAYER_1
 10
174.3033
 20
-164.3673
  0
VERTEX
  8
LAYER_1
 10
174.3053
 20
-164.3913
  0
VERTEX
  8
LAYER_1
 10
174.3072
 20
-164.4154
  0
VERTEX
  8
LAYER_1
 10
174.3091
 20
-164.4394
  0
VERTEX
  8
LAYER_1
 10
174.311
 20
-164.4635
  0
VERTEX
  8
LAYER_1
 10
174.312
 20
-164.4755
  0
VERTEX
  8
LAYER_1
 10
174.313
 20
-164.4876
  0
VERTEX
  8
LAYER_1
 10
174.3139
 20
-164.4996
  0
VERTEX
  8
LAYER_1
 10
174.3144
 20
-164.5056
  0
VERTEX
  8
LAYER_1
 10
174.3149
 20
-164.5116
  0
VERTEX
  8
LAYER_1
 10
174.3154
 20
-164.5176
  0
VERTEX
  8
LAYER_1
 10
174.3159
 20
-164.5236
  0
VERTEX
  8
LAYER_1
 10
174.3161
 20
-164.5267
  0
VERTEX
  8
LAYER_1
 10
174.3164
 20
-164.5297
  0
VERTEX
  8
LAYER_1
 10
174.3165
 20
-164.5312
  0
VERTEX
  8
LAYER_1
 10
174.3166
 20
-164.5327
  0
VERTEX
  8
LAYER_1
 10
174.3167
 20
-164.5342
  0
VERTEX
  8
LAYER_1
 10
174.3168
 20
-164.5349
  0
VERTEX
  8
LAYER_1
 10
174.3168
 20
-164.5353
  0
VERTEX
  8
LAYER_1
 10
174.3168
 20
-164.5357
  0
VERTEX
  8
LAYER_1
 10
174.3167
 20
-164.5361
  0
VERTEX
  8
LAYER_1
 10
174.3166
 20
-164.5364
  0
VERTEX
  8
LAYER_1
 10
174.3163
 20
-164.5372
  0
VERTEX
  8
LAYER_1
 10
174.3158
 20
-164.5387
  0
VERTEX
  8
LAYER_1
 10
174.3153
 20
-164.5402
  0
VERTEX
  8
LAYER_1
 10
174.3147
 20
-164.5417
  0
VERTEX
  8
LAYER_1
 10
174.3137
 20
-164.5447
  0
VERTEX
  8
LAYER_1
 10
174.3126
 20
-164.5477
  0
VERTEX
  8
LAYER_1
 10
174.3105
 20
-164.5537
  0
VERTEX
  8
LAYER_1
 10
174.3083
 20
-164.5598
  0
VERTEX
  8
LAYER_1
 10
174.3062
 20
-164.5658
  0
VERTEX
  8
LAYER_1
 10
174.3041
 20
-164.5718
  0
VERTEX
  8
LAYER_1
 10
174.2999
 20
-164.5839
  0
VERTEX
  8
LAYER_1
 10
174.2956
 20
-164.5959
  0
VERTEX
  8
LAYER_1
 10
174.2914
 20
-164.608
  0
VERTEX
  8
LAYER_1
 10
174.2829
 20
-164.6321
  0
VERTEX
  8
LAYER_1
 10
174.2744
 20
-164.6562
  0
VERTEX
  8
LAYER_1
 10
174.2701
 20
-164.6682
  0
VERTEX
  8
LAYER_1
 10
174.2659
 20
-164.6803
  0
VERTEX
  8
LAYER_1
 10
174.2616
 20
-164.6923
  0
VERTEX
  8
LAYER_1
 10
174.2595
 20
-164.6983
  0
VERTEX
  8
LAYER_1
 10
174.2574
 20
-164.7044
  0
VERTEX
  8
LAYER_1
 10
174.2552
 20
-164.7104
  0
VERTEX
  8
LAYER_1
 10
174.2531
 20
-164.7164
  0
VERTEX
  8
LAYER_1
 10
174.252
 20
-164.7194
  0
VERTEX
  8
LAYER_1
 10
174.251
 20
-164.7224
  0
VERTEX
  8
LAYER_1
 10
174.2505
 20
-164.7239
  0
VERTEX
  8
LAYER_1
 10
174.2499
 20
-164.7254
  0
VERTEX
  8
LAYER_1
 10
174.2494
 20
-164.7269
  0
VERTEX
  8
LAYER_1
 10
174.2491
 20
-164.7277
  0
VERTEX
  8
LAYER_1
 10
174.249
 20
-164.7281
  0
VERTEX
  8
LAYER_1
 10
174.2489
 20
-164.7284
  0
VERTEX
  8
LAYER_1
 10
174.2486
 20
-164.7288
  0
VERTEX
  8
LAYER_1
 10
174.2483
 20
-164.7291
  0
VERTEX
  8
LAYER_1
 10
174.2477
 20
-164.7298
  0
VERTEX
  8
LAYER_1
 10
174.2466
 20
-164.7312
  0
VERTEX
  8
LAYER_1
 10
174.2454
 20
-164.7326
  0
VERTEX
  8
LAYER_1
 10
174.2443
 20
-164.734
  0
VERTEX
  8
LAYER_1
 10
174.242
 20
-164.7368
  0
VERTEX
  8
LAYER_1
 10
174.2397
 20
-164.7396
  0
VERTEX
  8
LAYER_1
 10
174.2352
 20
-164.7452
  0
VERTEX
  8
LAYER_1
 10
174.2306
 20
-164.7507
  0
VERTEX
  8
LAYER_1
 10
174.226
 20
-164.7563
  0
VERTEX
  8
LAYER_1
 10
174.2215
 20
-164.7619
  0
VERTEX
  8
LAYER_1
 10
174.2123
 20
-164.773
  0
VERTEX
  8
LAYER_1
 10
174.2032
 20
-164.7841
  0
VERTEX
  8
LAYER_1
 10
174.194
 20
-164.7953
  0
VERTEX
  8
LAYER_1
 10
174.1758
 20
-164.8175
  0
VERTEX
  8
LAYER_1
 10
174.1575
 20
-164.8398
  0
VERTEX
  8
LAYER_1
 10
174.1484
 20
-164.851
  0
VERTEX
  8
LAYER_1
 10
174.1392
 20
-164.8621
  0
VERTEX
  8
LAYER_1
 10
174.1301
 20
-164.8732
  0
VERTEX
  8
LAYER_1
 10
174.1255
 20
-164.8788
  0
VERTEX
  8
LAYER_1
 10
174.121
 20
-164.8844
  0
VERTEX
  8
LAYER_1
 10
174.1164
 20
-164.8899
  0
VERTEX
  8
LAYER_1
 10
174.1118
 20
-164.8955
  0
VERTEX
  8
LAYER_1
 10
174.1095
 20
-164.8983
  0
VERTEX
  8
LAYER_1
 10
174.1073
 20
-164.9011
  0
VERTEX
  8
LAYER_1
 10
174.1061
 20
-164.9025
  0
VERTEX
  8
LAYER_1
 10
174.105
 20
-164.9039
  0
VERTEX
  8
LAYER_1
 10
174.1038
 20
-164.9053
  0
VERTEX
  8
LAYER_1
 10
174.1033
 20
-164.906
  0
VERTEX
  8
LAYER_1
 10
174.103
 20
-164.9063
  0
VERTEX
  8
LAYER_1
 10
174.1027
 20
-164.9066
  0
VERTEX
  8
LAYER_1
 10
174.1023
 20
-164.907
  0
VERTEX
  8
LAYER_1
 10
174.1018
 20
-164.9073
  0
VERTEX
  8
LAYER_1
 10
174.101
 20
-164.9079
  0
VERTEX
  8
LAYER_1
 10
174.0992
 20
-164.9092
  0
VERTEX
  8
LAYER_1
 10
174.0975
 20
-164.9104
  0
VERTEX
  8
LAYER_1
 10
174.0957
 20
-164.9117
  0
VERTEX
  8
LAYER_1
 10
174.0923
 20
-164.9142
  0
VERTEX
  8
LAYER_1
 10
174.0888
 20
-164.9167
  0
VERTEX
  8
LAYER_1
 10
174.0819
 20
-164.9218
  0
VERTEX
  8
LAYER_1
 10
174.0749
 20
-164.9268
  0
VERTEX
  8
LAYER_1
 10
174.068
 20
-164.9318
  0
VERTEX
  8
LAYER_1
 10
174.061
 20
-164.9369
  0
VERTEX
  8
LAYER_1
 10
174.0471
 20
-164.9469
  0
VERTEX
  8
LAYER_1
 10
174.0332
 20
-164.957
  0
VERTEX
  8
LAYER_1
 10
174.0193
 20
-164.9671
  0
VERTEX
  8
LAYER_1
 10
173.9915
 20
-164.9872
  0
VERTEX
  8
LAYER_1
 10
173.9638
 20
-165.0074
  0
VERTEX
  8
LAYER_1
 10
173.9499
 20
-165.0174
  0
VERTEX
  8
LAYER_1
 10
173.936
 20
-165.0275
  0
VERTEX
  8
LAYER_1
 10
173.9221
 20
-165.0376
  0
VERTEX
  8
LAYER_1
 10
173.9151
 20
-165.0426
  0
VERTEX
  8
LAYER_1
 10
173.9082
 20
-165.0476
  0
VERTEX
  8
LAYER_1
 10
173.9012
 20
-165.0527
  0
VERTEX
  8
LAYER_1
 10
173.8943
 20
-165.0577
  0
VERTEX
  8
LAYER_1
 10
173.8908
 20
-165.0602
  0
VERTEX
  8
LAYER_1
 10
173.8873
 20
-165.0627
  0
VERTEX
  8
LAYER_1
 10
173.8839
 20
-165.0653
  0
VERTEX
  8
LAYER_1
 10
173.8821
 20
-165.0665
  0
VERTEX
  8
LAYER_1
 10
173.8813
 20
-165.0671
  0
VERTEX
  8
LAYER_1
 10
173.8804
 20
-165.0678
  0
VERTEX
  8
LAYER_1
 10
173.8793
 20
-165.0683
  0
VERTEX
  8
LAYER_1
 10
173.8782
 20
-165.0688
  0
VERTEX
  8
LAYER_1
 10
173.876
 20
-165.0698
  0
VERTEX
  8
LAYER_1
 10
173.8716
 20
-165.0719
  0
VERTEX
  8
LAYER_1
 10
173.8672
 20
-165.0739
  0
VERTEX
  8
LAYER_1
 10
173.8628
 20
-165.076
  0
VERTEX
  8
LAYER_1
 10
173.854
 20
-165.0801
  0
VERTEX
  8
LAYER_1
 10
173.8452
 20
-165.0842
  0
VERTEX
  8
LAYER_1
 10
173.8364
 20
-165.0883
  0
VERTEX
  8
LAYER_1
 10
173.8276
 20
-165.0925
  0
VERTEX
  8
LAYER_1
 10
173.8101
 20
-165.1007
  0
VERTEX
  8
LAYER_1
 10
173.7925
 20
-165.1089
  0
VERTEX
  8
LAYER_1
 10
173.7749
 20
-165.1171
  0
VERTEX
  8
LAYER_1
 10
173.7398
 20
-165.1336
  0
VERTEX
  8
LAYER_1
 10
173.7046
 20
-165.15
  0
VERTEX
  8
LAYER_1
 10
173.687
 20
-165.1583
  0
VERTEX
  8
LAYER_1
 10
173.6694
 20
-165.1665
  0
VERTEX
  8
LAYER_1
 10
173.6519
 20
-165.1747
  0
VERTEX
  8
LAYER_1
 10
173.6343
 20
-165.1829
  0
VERTEX
  8
LAYER_1
 10
173.6255
 20
-165.187
  0
VERTEX
  8
LAYER_1
 10
173.6167
 20
-165.1912
  0
VERTEX
  8
LAYER_1
 10
173.6123
 20
-165.1932
  0
VERTEX
  8
LAYER_1
 10
173.6079
 20
-165.1953
  0
VERTEX
  8
LAYER_1
 10
173.6035
 20
-165.1973
  0
VERTEX
  8
LAYER_1
 10
173.6013
 20
-165.1983
  0
VERTEX
  8
LAYER_1
 10
173.6002
 20
-165.1989
  0
VERTEX
  8
LAYER_1
 10
173.5991
 20
-165.1994
  0
VERTEX
  8
LAYER_1
 10
173.5978
 20
-165.1998
  0
VERTEX
  8
LAYER_1
 10
173.5965
 20
-165.2002
  0
VERTEX
  8
LAYER_1
 10
173.5939
 20
-165.2009
  0
VERTEX
  8
LAYER_1
 10
173.5886
 20
-165.2025
  0
VERTEX
  8
LAYER_1
 10
173.5834
 20
-165.2041
  0
VERTEX
  8
LAYER_1
 10
173.5781
 20
-165.2056
  0
VERTEX
  8
LAYER_1
 10
173.5676
 20
-165.2088
  0
VERTEX
  8
LAYER_1
 10
173.5571
 20
-165.2119
  0
VERTEX
  8
LAYER_1
 10
173.5361
 20
-165.2182
  0
VERTEX
  8
LAYER_1
 10
173.5151
 20
-165.2244
  0
VERTEX
  8
LAYER_1
 10
173.494
 20
-165.2307
  0
VERTEX
  8
LAYER_1
 10
173.473
 20
-165.237
  0
VERTEX
  8
LAYER_1
 10
173.431
 20
-165.2495
  0
VERTEX
  8
LAYER_1
 10
173.3889
 20
-165.262
  0
VERTEX
  8
LAYER_1
 10
173.3679
 20
-165.2683
  0
VERTEX
  8
LAYER_1
 10
173.3469
 20
-165.2746
  0
VERTEX
  8
LAYER_1
 10
173.3259
 20
-165.2808
  0
VERTEX
  8
LAYER_1
 10
173.3049
 20
-165.2871
  0
VERTEX
  8
LAYER_1
 10
173.2944
 20
-165.2902
  0
VERTEX
  8
LAYER_1
 10
173.2839
 20
-165.2933
  0
VERTEX
  8
LAYER_1
 10
173.2786
 20
-165.2949
  0
VERTEX
  8
LAYER_1
 10
173.2733
 20
-165.2965
  0
VERTEX
  8
LAYER_1
 10
173.2681
 20
-165.298
  0
VERTEX
  8
LAYER_1
 10
173.2655
 20
-165.2988
  0
VERTEX
  8
LAYER_1
 10
173.2642
 20
-165.2992
  0
VERTEX
  8
LAYER_1
 10
173.2628
 20
-165.2996
  0
VERTEX
  8
LAYER_1
 10
173.2614
 20
-165.2998
  0
VERTEX
  8
LAYER_1
 10
173.26
 20
-165.3001
  0
VERTEX
  8
LAYER_1
 10
173.2571
 20
-165.3006
  0
VERTEX
  8
LAYER_1
 10
173.2514
 20
-165.3015
  0
VERTEX
  8
LAYER_1
 10
173.2457
 20
-165.3025
  0
VERTEX
  8
LAYER_1
 10
173.24
 20
-165.3034
  0
VERTEX
  8
LAYER_1
 10
173.2286
 20
-165.3053
  0
VERTEX
  8
LAYER_1
 10
173.2172
 20
-165.3072
  0
VERTEX
  8
LAYER_1
 10
173.1943
 20
-165.3111
  0
VERTEX
  8
LAYER_1
 10
173.1715
 20
-165.3149
  0
VERTEX
  8
LAYER_1
 10
173.1487
 20
-165.3187
  0
VERTEX
  8
LAYER_1
 10
173.1259
 20
-165.3225
  0
VERTEX
  8
LAYER_1
 10
173.0802
 20
-165.3302
  0
VERTEX
  8
LAYER_1
 10
173.0345
 20
-165.3378
  0
VERTEX
  8
LAYER_1
 10
173.0117
 20
-165.3416
  0
VERTEX
  8
LAYER_1
 10
172.9889
 20
-165.3454
  0
VERTEX
  8
LAYER_1
 10
172.966
 20
-165.3493
  0
VERTEX
  8
LAYER_1
 10
172.9432
 20
-165.3531
  0
VERTEX
  8
LAYER_1
 10
172.9318
 20
-165.355
  0
VERTEX
  8
LAYER_1
 10
172.9204
 20
-165.3569
  0
VERTEX
  8
LAYER_1
 10
172.9147
 20
-165.3579
  0
VERTEX
  8
LAYER_1
 10
172.909
 20
-165.3588
  0
VERTEX
  8
LAYER_1
 10
172.9032
 20
-165.3598
  0
VERTEX
  8
LAYER_1
 10
172.9004
 20
-165.3602
  0
VERTEX
  8
LAYER_1
 10
172.899
 20
-165.3605
  0
VERTEX
  8
LAYER_1
 10
172.8975
 20
-165.3607
  0
VERTEX
  8
LAYER_1
 10
172.896
 20
-165.3608
  0
VERTEX
  8
LAYER_1
 10
172.8945
 20
-165.3609
  0
VERTEX
  8
LAYER_1
 10
172.8915
 20
-165.3611
  0
VERTEX
  8
LAYER_1
 10
172.8854
 20
-165.3614
  0
VERTEX
  8
LAYER_1
 10
172.8793
 20
-165.3617
  0
VERTEX
  8
LAYER_1
 10
172.8732
 20
-165.362
  0
VERTEX
  8
LAYER_1
 10
172.8611
 20
-165.3627
  0
VERTEX
  8
LAYER_1
 10
172.8489
 20
-165.3634
  0
VERTEX
  8
LAYER_1
 10
172.8246
 20
-165.3647
  0
VERTEX
  8
LAYER_1
 10
172.8002
 20
-165.366
  0
VERTEX
  8
LAYER_1
 10
172.7759
 20
-165.3673
  0
VERTEX
  8
LAYER_1
 10
172.7516
 20
-165.3687
  0
VERTEX
  8
LAYER_1
 10
172.7029
 20
-165.3713
  0
VERTEX
  8
LAYER_1
 10
172.6543
 20
-165.3739
  0
VERTEX
  8
LAYER_1
 10
172.6056
 20
-165.3766
  0
VERTEX
  8
LAYER_1
 10
172.5083
 20
-165.3819
  0
SEQEND
  0
ENDBLK
  0
BLOCK
  8
LAYER_1
  2
AIGNBL01010151
 70
64
 10
0
 20
0
 30
0
  3
AIGNBL01010151
  0
POLYLINE
  8
LAYER_1
 40
0.1058
 41
0.1058
 66
1
 10
0
 20
0
 30
0
  0
VERTEX
  8
LAYER_1
 10
167.7582
 20
-157.6941
  0
VERTEX
  8
LAYER_1
 10
167.6649
 20
-157.8339
  0
VERTEX
  8
LAYER_1
 10
167.6334
 20
-157.9804
  0
SEQEND
  0
ENDBLK
  0
BLOCK
  8
LAYER_1
  2
AIGNBL01010152
 70
64
 10
0
 20
0
 30
0
  3
AIGNBL01010152
  0
POLYLINE
  8
LAYER_1
 40
0.1058
 41
0.1058
 66
1
 10
0
 20
0
 30
0
  0
VERTEX
  8
LAYER_1
 10
167.772
 20
-159.2634
  0
VERTEX
  8
LAYER_1
 10
167.7665
 20
-159.2353
  0
VERTEX
  8
LAYER_1
 10
167.7466
 20
-159.14
  0
SEQEND
  0
ENDBLK
  0
BLOCK
  8
LAYER_1
  2
AIGNBL01010153
 70
64
 10
0
 20
0
 30
0
  3
AIGNBL01010153
  0
POLYLINE
  8
LAYER_1
 40
0.1058
 41
0.1058
 66
1
 10
0
 20
0
 30
0
  0
VERTEX
  8
LAYER_1
 10
167.772
 20
-159.2634
  0
VERTEX
  8
LAYER_1
 10
167.7763
 20
-159.3044
  0
VERTEX
  8
LAYER_1
 10
167.7833
 20
-159.4255
  0
SEQEND
  0
ENDBLK
  0
BLOCK
  8
LAYER_1
  2
AIGNBL01010154
 70
64
 10
0
 20
0
 30
0
  3
AIGNBL01010154
  0
POLYLINE
  8
LAYER_1
 40
0.1058
 41
0.1058
 66
1
 10
0
 20
0
 30
0
  0
VERTEX
  8
LAYER_1
 10
167.772
 20
-160.5945
  0
VERTEX
  8
LAYER_1
 10
167.7763
 20
-160.5535
  0
VERTEX
  8
LAYER_1
 10
167.7833
 20
-160.4325
  0
SEQEND
  0
ENDBLK
  0
BLOCK
  8
LAYER_1
  2
AIGNBL01010155
 70
64
 10
0
 20
0
 30
0
  3
AIGNBL01010155
  0
POLYLINE
  8
LAYER_1
 40
0.1058
 41
0.1058
 66
1
 10
0
 20
0
 30
0
  0
VERTEX
  8
LAYER_1
 10
170.2333
 20
-160.4325
  0
VERTEX
  8
LAYER_1
 10
170.2342
 20
-160.4707
  0
VERTEX
  8
LAYER_1
 10
170.2446
 20
-160.5945
  0
SEQEND
  0
ENDBLK
  0
BLOCK
  8
LAYER_1
  2
AIGNBL01010156
 70
64
 10
0
 20
0
 30
0
  3
AIGNBL01010156
  0
POLYLINE
  8
LAYER_1
 40
0.1058
 41
0.1058
 66
1
 10
0
 20
0
 30
0
  0
VERTEX
  8
LAYER_1
 10
170.2333
 20
-159.4255
  0
VERTEX
  8
LAYER_1
 10
170.2342
 20
-159.3873
  0
VERTEX
  8
LAYER_1
 10
170.2446
 20
-159.2634
  0
SEQEND
  0
ENDBLK
  0
BLOCK
  8
LAYER_1
  2
AIGNBL01010157
 70
64
 10
0
 20
0
 30
0
  3
AIGNBL01010157
  0
POLYLINE
  8
LAYER_1
 40
0.1058
 41
0.1058
 66
1
 10
0
 20
0
 30
0
  0
VERTEX
  8
LAYER_1
 10
167.772
 20
-160.5945
  0
VERTEX
  8
LAYER_1
 10
167.7665
 20
-160.6227
  0
VERTEX
  8
LAYER_1
 10
167.7466
 20
-160.718
  0
SEQEND
  0
ENDBLK
  0
BLOCK
  8
LAYER_1
  2
AIGNBL01010158
 70
64
 10
0
 20
0
 30
0
  3
AIGNBL01010158
  0
POLYLINE
  8
LAYER_1
 40
0.1058
 41
0.1058
 66
1
 10
0
 20
0
 30
0
  0
VERTEX
  8
LAYER_1
 10
170.2584
 20
-157.6941
  0
VERTEX
  8
LAYER_1
 10
170.3517
 20
-157.8339
  0
VERTEX
  8
LAYER_1
 10
170.3833
 20
-157.9804
  0
SEQEND
  0
ENDBLK
  0
BLOCK
  8
LAYER_1
  2
AIGNBL01010159
 70
64
 10
0
 20
0
 30
0
  3
AIGNBL01010159
  0
POLYLINE
  8
LAYER_1
 40
0.1058
 41
0.1058
 66
1
 10
0
 20
0
 30
0
  0
VERTEX
  8
LAYER_1
 10
166.7786
 20
-161.275
  0
VERTEX
  8
LAYER_1
 10
166.7397
 20
-161.3057
  0
VERTEX
  8
LAYER_1
 10
166.6333
 20
-161.4008
  0
SEQEND
  0
ENDBLK
  0
BLOCK
  8
LAYER_1
  2
AIGNBL0101015A
 70
64
 10
0
 20
0
 30
0
  3
AIGNBL0101015A
  0
POLYLINE
  8
LAYER_1
 40
0.1058
 41
0.1058
 66
1
 10
0
 20
0
 30
0
  0
VERTEX
  8
LAYER_1
 10
166.6333
 20
-164.9523
  0
VERTEX
  8
LAYER_1
 10
166.6671
 20
-164.9845
  0
VERTEX
  8
LAYER_1
 10
166.7786
 20
-165.0782
  0
SEQEND
  0
ENDBLK
  0
BLOCK
  8
LAYER_1
  2
AIGNBL0101015B
 70
64
 10
0
 20
0
 30
0
  3
AIGNBL0101015B
  0
POLYLINE
  8
LAYER_1
 40
0.1058
 41
0.1058
 66
1
 10
0
 20
0
 30
0
  0
VERTEX
  8
LAYER_1
 10
168.1878
 20
-165.6099
  0
VERTEX
  8
LAYER_1
 10
168.3583
 20
-165.638
  0
VERTEX
  8
LAYER_1
 10
168.863
 20
-165.6799
  0
SEQEND
  0
ENDBLK
  0
BLOCK
  8
LAYER_1
  2
AIGNBL0101015C
 70
64
 10
0
 20
0
 30
0
  3
AIGNBL0101015C
  0
POLYLINE
  8
LAYER_1
 40
0.1058
 41
0.1058
 66
1
 10
0
 20
0
 30
0
  0
VERTEX
  8
LAYER_1
 10
166.7786
 20
-165.0782
  0
VERTEX
  8
LAYER_1
 10
166.9456
 20
-165.1671
  0
VERTEX
  8
LAYER_1
 10
167.4539
 20
-165.3981
  0
SEQEND
  0
ENDBLK
  0
BLOCK
  8
LAYER_1
  2
AIGNBL0101015D
 70
64
 10
0
 20
0
 30
0
  3
AIGNBL0101015D
  0
POLYLINE
  8
LAYER_1
 40
0.1058
 41
0.1058
 66
1
 10
0
 20
0
 30
0
  0
VERTEX
  8
LAYER_1
 10
170.2751
 20
-160.7432
  0
VERTEX
  8
LAYER_1
 10
170.2691
 20
-160.7137
  0
VERTEX
  8
LAYER_1
 10
170.25
 20
-160.6222
  0
SEQEND
  0
ENDBLK
  0
BLOCK
  8
LAYER_1
  2
AIGNBL0101015E
 70
64
 10
0
 20
0
 30
0
  3
AIGNBL0101015E
  0
POLYLINE
  8
LAYER_1
 40
0.1058
 41
0.1058
 66
1
 10
0
 20
0
 30
0
  0
VERTEX
  8
LAYER_1
 10
167.4539
 20
-160.9551
  0
VERTEX
  8
LAYER_1
 10
167.2833
 20
-161.0254
  0
VERTEX
  8
LAYER_1
 10
166.7786
 20
-161.275
  0
SEQEND
  0
ENDBLK
  0
BLOCK
  8
LAYER_1
  2
AIGNBL0101015F
 70
64
 10
0
 20
0
 30
0
  3
AIGNBL0101015F
  0
POLYLINE
  8
LAYER_1
 40
0.1058
 41
0.1058
 66
1
 10
0
 20
0
 30
0
  0
VERTEX
  8
LAYER_1
 10
170.2751
 20
-159.1147
  0
VERTEX
  8
LAYER_1
 10
170.2691
 20
-159.1443
  0
VERTEX
  8
LAYER_1
 10
170.25
 20
-159.2357
  0
SEQEND
  0
ENDBLK
  0
BLOCK
  8
LAYER_1
  2
AIGNBL01010160
 70
64
 10
0
 20
0
 30
0
  3
AIGNBL01010160
  0
POLYLINE
  8
LAYER_1
 40
0.1058
 41
0.1058
 66
1
 10
0
 20
0
 30
0
  0
VERTEX
  8
LAYER_1
 10
167.6333
 20
-161.5528
  0
VERTEX
  8
LAYER_1
 10
167.6676
 20
-161.7579
  0
VERTEX
  8
LAYER_1
 10
167.763
 20
-161.9408
  0
VERTEX
  8
LAYER_1
 10
167.9042
 20
-162.0928
  0
VERTEX
  8
LAYER_1
 10
168.0802
 20
-162.2136
  0
VERTEX
  8
LAYER_1
 10
168.2843
 20
-162.3067
  0
VERTEX
  8
LAYER_1
 10
168.5115
 20
-162.3737
 42
0.05471164673
  0
VERTEX
  8
LAYER_1
 10
169.0083
 20
-162.4278
  0
VERTEX
  8
LAYER_1
 10
169.0194
 20
-162.4278
  0
SEQEND
  0
ENDBLK
  0
BLOCK
  8
LAYER_1
  2
AIGNBL01010161
 70
64
 10
0
 20
0
 30
0
  3
AIGNBL01010161
  0
POLYLINE
  8
LAYER_1
 40
0.1058
 41
0.1058
 66
1
 10
0
 20
0
 30
0
  0
VERTEX
  8
LAYER_1
 10
168.2646
 20
-159.6735
  0
VERTEX
  8
LAYER_1
 10
168.3927
 20
-159.7151
 42
0.04817334664
  0
VERTEX
  8
LAYER_1
 10
168.8239
 20
-159.7894
  0
SEQEND
  0
ENDBLK
  0
BLOCK
  8
LAYER_1
  2
AIGNBL01010162
 70
64
 10
0
 20
0
 30
0
  3
AIGNBL01010162
  0
POLYLINE
  8
LAYER_1
 40
0.1058
 41
0.1058
 66
1
 10
0
 20
0
 30
0
  0
VERTEX
  8
LAYER_1
 10
168.7596
 20
-159.9136
  0
VERTEX
  8
LAYER_1
 10
168.7766
 20
-159.8446
  0
VERTEX
  8
LAYER_1
 10
168.8239
 20
-159.7894
  0
SEQEND
  0
ENDBLK
  0
BLOCK
  8
LAYER_1
  2
AIGNBL01010163
 70
64
 10
0
 20
0
 30
0
  3
AIGNBL01010163
  0
POLYLINE
  8
LAYER_1
 40
0.1058
 41
0.1058
 66
1
 10
0
 20
0
 30
0
  0
VERTEX
  8
LAYER_1
 10
169.0083
 20
-161.4772
 42
-0.1825550497
  0
VERTEX
  8
LAYER_1
 10
168.8751
 20
-161.4291
  0
VERTEX
  8
LAYER_1
 10
168.8336
 20
-161.3723
  0
VERTEX
  8
LAYER_1
 10
168.8239
 20
-161.3049
  0
SEQEND
  0
ENDBLK
  0
BLOCK
  8
LAYER_1
  2
AIGNBL01010164
 70
64
 10
0
 20
0
 30
0
  3
AIGNBL01010164
  0
POLYLINE
  8
LAYER_1
 40
0.1058
 41
0.1058
 66
1
 10
0
 20
0
 30
0
  0
VERTEX
  8
LAYER_1
 10
167.9662
 20
-159.6463
  0
VERTEX
  8
LAYER_1
 10
167.9687
 20
-159.6121
  0
VERTEX
  8
LAYER_1
 10
168.0037
 20
-159.5431
  0
SEQEND
  0
ENDBLK
  0
BLOCK
  8
LAYER_1
  2
AIGNBL01010165
 70
64
 10
0
 20
0
 30
0
  3
AIGNBL01010165
  0
POLYLINE
  8
LAYER_1
 40
0.1058
 41
0.1058
 66
1
 10
0
 20
0
 30
0
  0
VERTEX
  8
LAYER_1
 10
168.0037
 20
-161.0586
  0
VERTEX
  8
LAYER_1
 10
167.9878
 20
-161.0201
  0
VERTEX
  8
LAYER_1
 10
167.9662
 20
-160.902
  0
SEQEND
  0
ENDBLK
  0
BLOCK
  8
LAYER_1
  2
AIGNBL01010166
 70
64
 10
0
 20
0
 30
0
  3
AIGNBL01010166
  0
POLYLINE
  8
LAYER_1
 40
0.1058
 41
0.1058
 66
1
 10
0
 20
0
 30
0
  0
VERTEX
  8
LAYER_1
 10
167.7833
 20
-160.6812
  0
VERTEX
  8
LAYER_1
 10
167.78
 20
-160.7434
  0
VERTEX
  8
LAYER_1
 10
167.772
 20
-160.779
  0
SEQEND
  0
ENDBLK
  0
BLOCK
  8
LAYER_1
  2
AIGNBL01010167
 70
64
 10
0
 20
0
 30
0
  3
AIGNBL01010167
  0
POLYLINE
  8
LAYER_1
 40
0.1058
 41
0.1058
 66
1
 10
0
 20
0
 30
0
  0
VERTEX
  8
LAYER_1
 10
167.772
 20
-160.779
  0
VERTEX
  8
LAYER_1
 10
167.8037
 20
-160.8536
 42
0.10940203
  0
VERTEX
  8
LAYER_1
 10
168.0037
 20
-161.0586
  0
SEQEND
  0
ENDBLK
  0
BLOCK
  8
LAYER_1
  2
AIGNBL01010168
 70
64
 10
0
 20
0
 30
0
  3
AIGNBL01010168
  0
POLYLINE
  8
LAYER_1
 40
0.1058
 41
0.1058
 66
1
 10
0
 20
0
 30
0
  0
VERTEX
  8
LAYER_1
 10
166.6333
 20
-162.6043
  0
VERTEX
  8
LAYER_1
 10
166.6671
 20
-162.6364
  0
VERTEX
  8
LAYER_1
 10
166.7786
 20
-162.7301
  0
SEQEND
  0
ENDBLK
  0
BLOCK
  8
LAYER_1
  2
AIGNBL01010169
 70
64
 10
0
 20
0
 30
0
  3
AIGNBL01010169
  0
POLYLINE
  8
LAYER_1
 40
0.1058
 41
0.1058
 66
1
 10
0
 20
0
 30
0
  0
VERTEX
  8
LAYER_1
 10
166.6333
 20
-162.0894
 42
0.1272523857
  0
VERTEX
  8
LAYER_1
 10
166.919
 20
-162.4807
  0
VERTEX
  8
LAYER_1
 10
167.1588
 20
-162.652
  0
VERTEX
  8
LAYER_1
 10
167.4539
 20
-162.8
  0
SEQEND
  0
ENDBLK
  0
BLOCK
  8
LAYER_1
  2
AIGNBL0101016A
 70
64
 10
0
 20
0
 30
0
  3
AIGNBL0101016A
  0
POLYLINE
  8
LAYER_1
 40
0.1058
 41
0.1058
 66
1
 10
0
 20
0
 30
0
  0
VERTEX
  8
LAYER_1
 10
168.1878
 20
-163.0119
  0
VERTEX
  8
LAYER_1
 10
168.4395
 20
-163.0498
 42
0.0411010168
  0
VERTEX
  8
LAYER_1
 10
169.2237
 20
-163.079
  0
VERTEX
  8
LAYER_1
 10
169.7911
 20
-163.0268
  0
SEQEND
  0
ENDBLK
  0
BLOCK
  8
LAYER_1
  2
AIGNBL0101016B
 70
64
 10
0
 20
0
 30
0
  3
AIGNBL0101016B
  0
POLYLINE
  8
LAYER_1
 40
0.1058
 41
0.1058
 66
1
 10
0
 20
0
 30
0
  0
VERTEX
  8
LAYER_1
 10
168.0037
 20
-161.0586
 42
0.1497386253
  0
VERTEX
  8
LAYER_1
 10
168.0202
 20
-161.1968
  0
VERTEX
  8
LAYER_1
 10
168.0563
 20
-161.2532
  0
VERTEX
  8
LAYER_1
 10
168.1039
 20
-161.2899
  0
VERTEX
  8
LAYER_1
 10
168.1571
 20
-161.3036
  0
VERTEX
  8
LAYER_1
 10
168.2087
 20
-161.291
  0
VERTEX
  8
LAYER_1
 10
168.2483
 20
-161.251
  0
VERTEX
  8
LAYER_1
 10
168.2646
 20
-161.1891
  0
SEQEND
  0
ENDBLK
  0
BLOCK
  8
LAYER_1
  2
AIGNBL0101016C
 70
64
 10
0
 20
0
 30
0
  3
AIGNBL0101016C
  0
POLYLINE
  8
LAYER_1
 40
0.1058
 41
0.1058
 66
1
 10
0
 20
0
 30
0
  0
VERTEX
  8
LAYER_1
 10
167.4539
 20
-160.9551
 42
0.05175928086
  0
VERTEX
  8
LAYER_1
 10
167.0722
 20
-161.1579
 42
0.07104531702
  0
VERTEX
  8
LAYER_1
 10
166.7938
 20
-161.399
  0
SEQEND
  0
ENDBLK
  0
BLOCK
  8
LAYER_1
  2
AIGNBL0101016D
 70
64
 10
0
 20
0
 30
0
  3
AIGNBL0101016D
  0
POLYLINE
  8
LAYER_1
 40
0.1058
 41
0.1058
 66
1
 10
0
 20
0
 30
0
  0
VERTEX
  8
LAYER_1
 10
166.7938
 20
-161.399
  0
VERTEX
  8
LAYER_1
 10
166.7777
 20
-161.418
  0
VERTEX
  8
LAYER_1
 10
166.7335
 20
-161.4759
  0
SEQEND
  0
ENDBLK
  0
BLOCK
  8
LAYER_1
  2
AIGNBL0101016E
 70
64
 10
0
 20
0
 30
0
  3
AIGNBL0101016E
  0
POLYLINE
  8
LAYER_1
 40
0.1058
 41
0.1058
 66
1
 10
0
 20
0
 30
0
  0
VERTEX
  8
LAYER_1
 10
166.7335
 20
-161.4759
  0
VERTEX
  8
LAYER_1
 10
166.7027
 20
-161.5226
  0
VERTEX
  8
LAYER_1
 10
166.6333
 20
-161.6657
  0
SEQEND
  0
ENDBLK
  0
BLOCK
  8
LAYER_1
  2
AIGNBL0101016F
 70
64
 10
0
 20
0
 30
0
  3
AIGNBL0101016F
  0
POLYLINE
  8
LAYER_1
 40
0.1058
 41
0.1058
 66
1
 10
0
 20
0
 30
0
  0
VERTEX
  8
LAYER_1
 10
168.2646
 20
-161.1891
  0
VERTEX
  8
LAYER_1
 10
168.3927
 20
-161.2307
 42
0.04839601557
  0
VERTEX
  8
LAYER_1
 10
168.8239
 20
-161.3049
  0
SEQEND
  0
ENDBLK
  0
BLOCK
  8
LAYER_1
  2
AIGNBL01010170
 70
64
 10
0
 20
0
 30
0
  3
AIGNBL01010170
  0
POLYLINE
  8
LAYER_1
 40
0.1058
 41
0.1058
 66
1
 10
0
 20
0
 30
0
  0
VERTEX
  8
LAYER_1
 10
169.0386
 20
-143.4498
  0
VERTEX
  8
LAYER_1
 10
169.0083
 20
-143.45
 42
-0.05184828981
  0
VERTEX
  8
LAYER_1
 10
168.53
 20
-143.4024
 42
-0.06956437563
  0
VERTEX
  8
LAYER_1
 10
168.1244
 20
-143.2669
  0
VERTEX
  8
LAYER_1
 10
167.969
 20
-143.1722
  0
VERTEX
  8
LAYER_1
 10
167.8535
 20
-143.0642
  0
VERTEX
  8
LAYER_1
 10
167.7824
 20
-142.9469
  0
VERTEX
  8
LAYER_1
 10
167.7583
 20
-142.825
  0
SEQEND
  0
ENDBLK
  0
BLOCK
  8
LAYER_1
  2
AIGNBL01010171
 70
64
 10
0
 20
0
 30
0
  3
AIGNBL01010171
  0
POLYLINE
  8
LAYER_1
 40
0.1058
 41
0.1058
 66
1
 10
0
 20
0
 30
0
  0
VERTEX
  8
LAYER_1
 10
169.0083
 20
-159.6598
  0
VERTEX
  8
LAYER_1
 10
169.0796
 20
-159.668
  0
VERTEX
  8
LAYER_1
 10
169.1416
 20
-159.6931
  0
VERTEX
  8
LAYER_1
 10
169.1831
 20
-159.7352
  0
VERTEX
  8
LAYER_1
 10
169.1928
 20
-159.7894
  0
SEQEND
  0
ENDBLK
  0
BLOCK
  8
LAYER_1
  2
AIGNBL01010172
 70
64
 10
0
 20
0
 30
0
  3
AIGNBL01010172
  0
POLYLINE
  8
LAYER_1
 40
0.1058
 41
0.1058
 66
1
 10
0
 20
0
 30
0
  0
VERTEX
  8
LAYER_1
 10
168.1878
 20
-163.0119
  0
VERTEX
  8
LAYER_1
 10
168.3583
 20
-163.0822
  0
VERTEX
  8
LAYER_1
 10
168.863
 20
-163.3318
  0
SEQEND
  0
ENDBLK
  0
BLOCK
  8
LAYER_1
  2
AIGNBL01010173
 70
64
 10
0
 20
0
 30
0
  3
AIGNBL01010173
  0
POLYLINE
  8
LAYER_1
 40
0.1058
 41
0.1058
 66
1
 10
0
 20
0
 30
0
  0
VERTEX
  8
LAYER_1
 10
169.1928
 20
-161.3049
  0
VERTEX
  8
LAYER_1
 10
169.1831
 20
-161.3722
  0
VERTEX
  8
LAYER_1
 10
169.1416
 20
-161.429
 42
-0.1730094485
  0
VERTEX
  8
LAYER_1
 10
169.0083
 20
-161.4772
  0
SEQEND
  0
ENDBLK
  0
BLOCK
  8
LAYER_1
  2
AIGNBL01010174
 70
64
 10
0
 20
0
 30
0
  3
AIGNBL01010174
  0
POLYLINE
  8
LAYER_1
 40
0.1058
 41
0.1058
 66
1
 10
0
 20
0
 30
0
  0
VERTEX
  8
LAYER_1
 10
166.7786
 20
-162.7301
  0
VERTEX
  8
LAYER_1
 10
166.9456
 20
-162.7376
  0
VERTEX
  8
LAYER_1
 10
167.4539
 20
-162.8
  0
SEQEND
  0
ENDBLK
  0
BLOCK
  8
LAYER_1
  2
AIGNBL01010175
 70
64
 10
0
 20
0
 30
0
  3
AIGNBL01010175
  0
POLYLINE
  8
LAYER_1
 40
0.1058
 41
0.1058
 66
1
 10
0
 20
0
 30
0
  0
VERTEX
  8
LAYER_1
 10
170.2446
 20
-160.779
  0
VERTEX
  8
LAYER_1
 10
170.2238
 20
-160.8327
  0
SEQEND
  0
ENDBLK
  0
BLOCK
  8
LAYER_1
  2
AIGNBL01010176
 70
64
 10
0
 20
0
 30
0
  3
AIGNBL01010176
  0
POLYLINE
  8
LAYER_1
 40
0.1058
 41
0.1058
 66
1
 10
0
 20
0
 30
0
  0
VERTEX
  8
LAYER_1
 10
170.2446
 20
-160.779
  0
VERTEX
  8
LAYER_1
 10
170.2539
 20
-160.8218
  0
VERTEX
  8
LAYER_1
 10
170.2646
 20
-160.8515
  0
VERTEX
  8
LAYER_1
 10
170.27
 20
-160.8605
  0
VERTEX
  8
LAYER_1
 10
170.2749
 20
-160.8656
  0
VERTEX
  8
LAYER_1
 10
170.2791
 20
-160.8668
  0
VERTEX
  8
LAYER_1
 10
170.2827
 20
-160.8644
  0
VERTEX
  8
LAYER_1
 10
170.2868
 20
-160.8498
  0
VERTEX
  8
LAYER_1
 10
170.2869
 20
-160.8236
  0
VERTEX
  8
LAYER_1
 10
170.2828
 20
-160.7875
  0
VERTEX
  8
LAYER_1
 10
170.2751
 20
-160.7432
  0
SEQEND
  0
ENDBLK
  0
BLOCK
  8
LAYER_1
  2
AIGNBL01010177
 70
64
 10
0
 20
0
 30
0
  3
AIGNBL01010177
  0
POLYLINE
  8
LAYER_1
 40
0.1058
 41
0.1058
 66
1
 10
0
 20
0
 30
0
  0
VERTEX
  8
LAYER_1
 10
170.3769
 20
-158.5878
  0
VERTEX
  8
LAYER_1
 10
170.3578
 20
-158.6535
 42
-0.1003561176
  0
VERTEX
  8
LAYER_1
 10
170.2264
 20
-158.8406
  0
SEQEND
  0
ENDBLK
  0
BLOCK
  8
LAYER_1
  2
AIGNBL01010178
 70
64
 10
0
 20
0
 30
0
  3
AIGNBL01010178
  0
POLYLINE
  8
LAYER_1
 40
0.1058
 41
0.1058
 66
1
 10
0
 20
0
 30
0
  0
VERTEX
  8
LAYER_1
 10
170.3833
 20
-157.9804
  0
VERTEX
  8
LAYER_1
 10
170.3435
 20
-158.1446
  0
VERTEX
  8
LAYER_1
 10
170.2265
 20
-158.2993
  0
SEQEND
  0
ENDBLK
  0
BLOCK
  8
LAYER_1
  2
AIGNBL01010179
 70
64
 10
0
 20
0
 30
0
  3
AIGNBL01010179
  0
POLYLINE
  8
LAYER_1
 40
0.1058
 41
0.1058
 66
1
 10
0
 20
0
 30
0
  0
VERTEX
  8
LAYER_1
 10
168.8239
 20
-159.7894
  0
VERTEX
  8
LAYER_1
 10
168.8336
 20
-159.7352
  0
VERTEX
  8
LAYER_1
 10
168.8751
 20
-159.6931
  0
VERTEX
  8
LAYER_1
 10
168.9372
 20
-159.6679
  0
VERTEX
  8
LAYER_1
 10
169.0083
 20
-159.6598
  0
SEQEND
  0
ENDBLK
  0
BLOCK
  8
LAYER_1
  2
AIGNBL0101017A
 70
64
 10
0
 20
0
 30
0
  3
AIGNBL0101017A
  0
POLYLINE
  8
LAYER_1
 40
0.1058
 41
0.1058
 66
1
 10
0
 20
0
 30
0
  0
VERTEX
  8
LAYER_1
 10
169.0083
 20
-158.6054
 42
-0.05185304313
  0
VERTEX
  8
LAYER_1
 10
168.5299
 20
-158.5578
 42
-0.06933293996
  0
VERTEX
  8
LAYER_1
 10
168.1244
 20
-158.4224
  0
VERTEX
  8
LAYER_1
 10
167.969
 20
-158.3277
  0
VERTEX
  8
LAYER_1
 10
167.8535
 20
-158.2196
  0
VERTEX
  8
LAYER_1
 10
167.7824
 20
-158.1024
  0
VERTEX
  8
LAYER_1
 10
167.7583
 20
-157.9804
  0
SEQEND
  0
ENDBLK
  0
BLOCK
  8
LAYER_1
  2
AIGNBL0101017B
 70
64
 10
0
 20
0
 30
0
  3
AIGNBL0101017B
  0
POLYLINE
  8
LAYER_1
 40
0.1058
 41
0.1058
 66
1
 10
0
 20
0
 30
0
  0
VERTEX
  8
LAYER_1
 10
167.6334
 20
-161.3363
  0
VERTEX
  8
LAYER_1
 10
167.6648
 20
-161.4824
  0
VERTEX
  8
LAYER_1
 10
167.7576
 20
-161.6219
  0
SEQEND
  0
ENDBLK
  0
BLOCK
  8
LAYER_1
  2
AIGNBL0101017C
 70
64
 10
0
 20
0
 30
0
  3
AIGNBL0101017C
  0
POLYLINE
  8
LAYER_1
 40
0.1058
 41
0.1058
 66
1
 10
0
 20
0
 30
0
  0
VERTEX
  8
LAYER_1
 10
167.7576
 20
-161.6219
 42
0.06918385079
  0
VERTEX
  8
LAYER_1
 10
167.9692
 20
-161.7865
  0
VERTEX
  8
LAYER_1
 10
168.2649
 20
-161.9146
  0
VERTEX
  8
LAYER_1
 10
168.6209
 20
-161.9959
  0
VERTEX
  8
LAYER_1
 10
169.0083
 20
-162.0238
  0
VERTEX
  8
LAYER_1
 10
169.0146
 20
-162.0238
  0
SEQEND
  0
ENDBLK
  0
BLOCK
  8
LAYER_1
  2
AIGNBL0101017D
 70
64
 10
0
 20
0
 30
0
  3
AIGNBL0101017D
  0
POLYLINE
  8
LAYER_1
 40
0.1058
 41
0.1058
 66
1
 10
0
 20
0
 30
0
  0
VERTEX
  8
LAYER_1
 10
167.6334
 20
-161.5528
  0
VERTEX
  8
LAYER_1
 10
167.6598
 20
-161.6869
  0
VERTEX
  8
LAYER_1
 10
167.738
 20
-161.8159
  0
VERTEX
  8
LAYER_1
 10
167.8651
 20
-161.9347
  0
VERTEX
  8
LAYER_1
 10
168.0361
 20
-162.0389
 42
0.06219603928
  0
VERTEX
  8
LAYER_1
 10
168.4821
 20
-162.1879
 42
0.04999155744
  0
VERTEX
  8
LAYER_1
 10
169.0083
 20
-162.2403
  0
VERTEX
  8
LAYER_1
 10
169.0131
 20
-162.2403
  0
SEQEND
  0
ENDBLK
  0
BLOCK
  8
LAYER_1
  2
AIGNBL0101017E
 70
64
 10
0
 20
0
 30
0
  3
AIGNBL0101017E
  0
POLYLINE
  8
LAYER_1
 40
0.1058
 41
0.1058
 66
1
 10
0
 20
0
 30
0
  0
VERTEX
  8
LAYER_1
 10
168.2646
 20
-159.6735
 42
0.1410995956
  0
VERTEX
  8
LAYER_1
 10
168.2086
 20
-159.5551
  0
VERTEX
  8
LAYER_1
 10
168.1571
 20
-159.5064
  0
VERTEX
  8
LAYER_1
 10
168.1039
 20
-159.4725
  0
VERTEX
  8
LAYER_1
 10
168.0563
 20
-159.456
  0
VERTEX
  8
LAYER_1
 10
168.0202
 20
-159.4608
  0
VERTEX
  8
LAYER_1
 10
168.0082
 20
-159.4725
  0
VERTEX
  8
LAYER_1
 10
168.0012
 20
-159.4905
  0
VERTEX
  8
LAYER_1
 10
167.9997
 20
-159.5145
  0
VERTEX
  8
LAYER_1
 10
168.0037
 20
-159.5431
  0
SEQEND
  0
ENDBLK
  0
BLOCK
  8
LAYER_1
  2
AIGNBL0101017F
 70
64
 10
0
 20
0
 30
0
  3
AIGNBL0101017F
  0
POLYLINE
  8
LAYER_1
 40
0.1058
 41
0.1058
 66
1
 10
0
 20
0
 30
0
  0
VERTEX
  8
LAYER_1
 10
167.7416
 20
-160.7432
  0
VERTEX
  8
LAYER_1
 10
167.7339
 20
-160.7875
  0
VERTEX
  8
LAYER_1
 10
167.7298
 20
-160.8236
  0
VERTEX
  8
LAYER_1
 10
167.7298
 20
-160.8498
  0
VERTEX
  8
LAYER_1
 10
167.734
 20
-160.8644
  0
VERTEX
  8
LAYER_1
 10
167.7375
 20
-160.8668
  0
VERTEX
  8
LAYER_1
 10
167.7418
 20
-160.8656
  0
VERTEX
  8
LAYER_1
 10
167.7467
 20
-160.8605
  0
VERTEX
  8
LAYER_1
 10
167.752
 20
-160.8515
  0
VERTEX
  8
LAYER_1
 10
167.7628
 20
-160.8218
  0
VERTEX
  8
LAYER_1
 10
167.772
 20
-160.779
  0
SEQEND
  0
ENDBLK
  0
BLOCK
  8
LAYER_1
  2
AIGNBL01010180
 70
64
 10
0
 20
0
 30
0
  3
AIGNBL01010180
  0
POLYLINE
  8
LAYER_1
 40
0.1058
 41
0.1058
 66
1
 10
0
 20
0
 30
0
  0
VERTEX
  8
LAYER_1
 10
167.6397
 20
-158.5878
 42
0.1927624606
  0
VERTEX
  8
LAYER_1
 10
167.8803
 20
-158.9144
 42
0.06266805016
  0
VERTEX
  8
LAYER_1
 10
168.084
 20
-159.0307
  0
VERTEX
  8
LAYER_1
 10
168.2862
 20
-159.1068
  0
VERTEX
  8
LAYER_1
 10
168.5128
 20
-159.163
 42
0.0467648779
  0
VERTEX
  8
LAYER_1
 10
169.0083
 20
-159.2092
  0
SEQEND
  0
ENDBLK
  0
BLOCK
  8
LAYER_1
  2
AIGNBL01010181
 70
64
 10
0
 20
0
 30
0
  3
AIGNBL01010181
  0
POLYLINE
  8
LAYER_1
 40
0.1058
 41
0.1058
 66
1
 10
0
 20
0
 30
0
  0
VERTEX
  8
LAYER_1
 10
167.6334
 20
-157.9804
  0
VERTEX
  8
LAYER_1
 10
167.6598
 20
-158.1145
  0
VERTEX
  8
LAYER_1
 10
167.738
 20
-158.2435
  0
VERTEX
  8
LAYER_1
 10
167.8651
 20
-158.3624
  0
VERTEX
  8
LAYER_1
 10
168.0361
 20
-158.4666
 42
0.06195593787
  0
VERTEX
  8
LAYER_1
 10
168.4821
 20
-158.6156
 42
0.04988376727
  0
VERTEX
  8
LAYER_1
 10
169.0083
 20
-158.6679
  0
SEQEND
  0
ENDBLK
  0
BLOCK
  8
LAYER_1
  2
AIGNBL01010182
 70
64
 10
0
 20
0
 30
0
  3
AIGNBL01010182
  0
POLYLINE
  8
LAYER_1
 40
0.1058
 41
0.1058
 66
1
 10
0
 20
0
 30
0
  0
VERTEX
  8
LAYER_1
 10
170.2446
 20
-159.2634
  0
VERTEX
  8
LAYER_1
 10
170.2238
 20
-159.3172
  0
SEQEND
  0
ENDBLK
  0
BLOCK
  8
LAYER_1
  2
AIGNBL01010183
 70
64
 10
0
 20
0
 30
0
  3
AIGNBL01010183
  0
POLYLINE
  8
LAYER_1
 40
0.1058
 41
0.1058
 66
1
 10
0
 20
0
 30
0
  0
VERTEX
  8
LAYER_1
 10
167.772
 20
-159.2634
  0
VERTEX
  8
LAYER_1
 10
167.7782
 20
-159.2823
  0
VERTEX
  8
LAYER_1
 10
167.8038
 20
-159.3382
  0
SEQEND
  0
ENDBLK
  0
BLOCK
  8
LAYER_1
  2
AIGNBL01010184
 70
64
 10
0
 20
0
 30
0
  3
AIGNBL01010184
  0
POLYLINE
  8
LAYER_1
 40
0.1058
 41
0.1058
 66
1
 10
0
 20
0
 30
0
  0
VERTEX
  8
LAYER_1
 10
167.8038
 20
-159.3382
  0
VERTEX
  8
LAYER_1
 10
167.8361
 20
-159.3882
  0
SEQEND
  0
ENDBLK
  0
BLOCK
  8
LAYER_1
  2
AIGNBL01010185
 70
64
 10
0
 20
0
 30
0
  3
AIGNBL01010185
  0
POLYLINE
  8
LAYER_1
 40
0.1058
 41
0.1058
 66
1
 10
0
 20
0
 30
0
  0
VERTEX
  8
LAYER_1
 10
167.8361
 20
-159.3882
  0
VERTEX
  8
LAYER_1
 10
167.8697
 20
-159.4291
  0
VERTEX
  8
LAYER_1
 10
168.0037
 20
-159.5431
  0
SEQEND
  0
ENDBLK
  0
BLOCK
  8
LAYER_1
  2
AIGNBL01010186
 70
64
 10
0
 20
0
 30
0
  3
AIGNBL01010186
  0
POLYLINE
  8
LAYER_1
 40
0.1058
 41
0.1058
 66
1
 10
0
 20
0
 30
0
  0
VERTEX
  8
LAYER_1
 10
170.2446
 20
-160.779
  0
VERTEX
  8
LAYER_1
 10
170.2367
 20
-160.7434
  0
VERTEX
  8
LAYER_1
 10
170.2333
 20
-160.6812
  0
SEQEND
  0
ENDBLK
  0
BLOCK
  8
LAYER_1
  2
AIGNBL01010187
 70
64
 10
0
 20
0
 30
0
  3
AIGNBL01010187
  0
POLYLINE
  8
LAYER_1
 40
0.1058
 41
0.1058
 66
1
 10
0
 20
0
 30
0
  0
VERTEX
  8
LAYER_1
 10
170.2583
 20
-157.9804
  0
VERTEX
  8
LAYER_1
 10
170.2563
 20
-158.0163
  0
VERTEX
  8
LAYER_1
 10
170.2254
 20
-158.1229
  0
SEQEND
  0
ENDBLK
  0
BLOCK
  8
LAYER_1
  2
AIGNBL01010188
 70
64
 10
0
 20
0
 30
0
  3
AIGNBL01010188
  0
POLYLINE
  8
LAYER_1
 40
0.1058
 41
0.1058
 66
1
 10
0
 20
0
 30
0
  0
VERTEX
  8
LAYER_1
 10
170.2583
 20
-142.825
  0
VERTEX
  8
LAYER_1
 10
170.2562
 20
-142.8612
  0
VERTEX
  8
LAYER_1
 10
170.2248
 20
-142.9688
  0
SEQEND
  0
ENDBLK
  0
BLOCK
  8
LAYER_1
  2
AIGNBL01010189
 70
64
 10
0
 20
0
 30
0
  3
AIGNBL01010189
  0
POLYLINE
  8
LAYER_1
 40
0.1058
 41
0.1058
 66
1
 10
0
 20
0
 30
0
  0
VERTEX
  8
LAYER_1
 10
168.8239
 20
-161.3049
  0
VERTEX
  8
LAYER_1
 10
168.7766
 20
-161.2417
  0
VERTEX
  8
LAYER_1
 10
168.7596
 20
-161.1693
  0
SEQEND
  0
ENDBLK
  0
BLOCK
  8
LAYER_1
  2
AIGNBL0101018A
 70
64
 10
0
 20
0
 30
0
  3
AIGNBL0101018A
  0
POLYLINE
  8
LAYER_1
 40
0.1058
 41
0.1058
 66
1
 10
0
 20
0
 30
0
  0
VERTEX
  8
LAYER_1
 10
168.318
 20
-161.0779
  0
VERTEX
  8
LAYER_1
 10
168.3036
 20
-161.1437
  0
VERTEX
  8
LAYER_1
 10
168.2646
 20
-161.1891
  0
SEQEND
  0
ENDBLK
  0
BLOCK
  8
LAYER_1
  2
AIGNBL0101018B
 70
64
 10
0
 20
0
 30
0
  3
AIGNBL0101018B
  0
POLYLINE
  8
LAYER_1
 40
0.1058
 41
0.1058
 66
1
 10
0
 20
0
 30
0
  0
VERTEX
  8
LAYER_1
 10
168.2646
 20
-159.6735
  0
VERTEX
  8
LAYER_1
 10
168.2866
 20
-159.7091
  0
VERTEX
  8
LAYER_1
 10
168.318
 20
-159.8222
  0
SEQEND
  0
ENDBLK
  0
BLOCK
  8
LAYER_1
  2
AIGNBL0101018C
 70
64
 10
0
 20
0
 30
0
  3
AIGNBL0101018C
  0
POLYLINE
  8
LAYER_1
 40
0.1058
 41
0.1058
 66
1
 10
0
 20
0
 30
0
  0
VERTEX
  8
LAYER_1
 10
172.5083
 20
-157.2929
 42
-0.0518132979
  0
VERTEX
  8
LAYER_1
 10
173.0346
 20
-157.3453
 42
-0.06895332633
  0
VERTEX
  8
LAYER_1
 10
173.4806
 20
-157.4943
  0
VERTEX
  8
LAYER_1
 10
173.6516
 20
-157.5985
  0
VERTEX
  8
LAYER_1
 10
173.7787
 20
-157.7173
  0
VERTEX
  8
LAYER_1
 10
173.8569
 20
-157.8463
  0
VERTEX
  8
LAYER_1
 10
173.8833
 20
-157.9804
  0
SEQEND
  0
ENDBLK
  0
BLOCK
  8
LAYER_1
  2
AIGNBL0101018D
 70
64
 10
0
 20
0
 30
0
  3
AIGNBL0101018D
  0
POLYLINE
  8
LAYER_1
 40
0.1058
 41
0.1058
 66
1
 10
0
 20
0
 30
0
  0
VERTEX
  8
LAYER_1
 10
173.7446
 20
-159.2634
  0
VERTEX
  8
LAYER_1
 10
173.7501
 20
-159.2353
  0
VERTEX
  8
LAYER_1
 10
173.77
 20
-159.14
  0
SEQEND
  0
ENDBLK
  0
BLOCK
  8
LAYER_1
  2
AIGNBL0101018E
 70
64
 10
0
 20
0
 30
0
  3
AIGNBL0101018E
  0
POLYLINE
  8
LAYER_1
 40
0.1058
 41
0.1058
 66
1
 10
0
 20
0
 30
0
  0
VERTEX
  8
LAYER_1
 10
173.7446
 20
-159.2634
  0
VERTEX
  8
LAYER_1
 10
173.7403
 20
-159.3044
  0
VERTEX
  8
LAYER_1
 10
173.7333
 20
-159.4255
  0
SEQEND
  0
ENDBLK
  0
BLOCK
  8
LAYER_1
  2
AIGNBL0101018F
 70
64
 10
0
 20
0
 30
0
  3
AIGNBL0101018F
  0
POLYLINE
  8
LAYER_1
 40
0.1058
 41
0.1058
 66
1
 10
0
 20
0
 30
0
  0
VERTEX
  8
LAYER_1
 10
173.7446
 20
-160.5945
  0
VERTEX
  8
LAYER_1
 10
173.7403
 20
-160.5535
  0
VERTEX
  8
LAYER_1
 10
173.7333
 20
-160.4325
  0
SEQEND
  0
ENDBLK
  0
BLOCK
  8
LAYER_1
  2
AIGNBL01010190
 70
64
 10
0
 20
0
 30
0
  3
AIGNBL01010190
  0
POLYLINE
  8
LAYER_1
 40
0.1058
 41
0.1058
 66
1
 10
0
 20
0
 30
0
  0
VERTEX
  8
LAYER_1
 10
171.2833
 20
-160.4325
  0
VERTEX
  8
LAYER_1
 10
171.2824
 20
-160.4707
  0
VERTEX
  8
LAYER_1
 10
171.272
 20
-160.5945
  0
SEQEND
  0
ENDBLK
  0
BLOCK
  8
LAYER_1
  2
AIGNBL01010191
 70
64
 10
0
 20
0
 30
0
  3
AIGNBL01010191
  0
POLYLINE
  8
LAYER_1
 40
0.1058
 41
0.1058
 66
1
 10
0
 20
0
 30
0
  0
VERTEX
  8
LAYER_1
 10
171.2833
 20
-159.4255
  0
VERTEX
  8
LAYER_1
 10
171.2824
 20
-159.3873
  0
VERTEX
  8
LAYER_1
 10
171.272
 20
-159.2634
  0
SEQEND
  0
ENDBLK
  0
BLOCK
  8
LAYER_1
  2
AIGNBL01010192
 70
64
 10
0
 20
0
 30
0
  3
AIGNBL01010192
  0
POLYLINE
  8
LAYER_1
 40
0.1058
 41
0.1058
 66
1
 10
0
 20
0
 30
0
  0
VERTEX
  8
LAYER_1
 10
174.1321
 20
-163.7904
  0
VERTEX
  8
LAYER_1
 10
174.154
 20
-163.8098
  0
VERTEX
  8
LAYER_1
 10
174.2139
 20
-163.8697
  0
SEQEND
  0
ENDBLK
  0
BLOCK
  8
LAYER_1
  2
AIGNBL01010193
 70
64
 10
0
 20
0
 30
0
  3
AIGNBL01010193
  0
POLYLINE
  8
LAYER_1
 40
0.1058
 41
0.1058
 66
1
 10
0
 20
0
 30
0
  0
VERTEX
  8
LAYER_1
 10
174.2139
 20
-163.8697
  0
VERTEX
  8
LAYER_1
 10
174.2406
 20
-163.9003
  0
VERTEX
  8
LAYER_1
 10
174.3073
 20
-163.995
  0
SEQEND
  0
ENDBLK
  0
BLOCK
  8
LAYER_1
  2
AIGNBL01010194
 70
64
 10
0
 20
0
 30
0
  3
AIGNBL01010194
  0
POLYLINE
  8
LAYER_1
 40
0.1058
 41
0.1058
 66
1
 10
0
 20
0
 30
0
  0
VERTEX
  8
LAYER_1
 10
174.3073
 20
-163.995
  0
VERTEX
  8
LAYER_1
 10
174.3642
 20
-164.1257
  0
VERTEX
  8
LAYER_1
 10
174.3833
 20
-164.2591
  0
SEQEND
  0
ENDBLK
  0
BLOCK
  8
LAYER_1
  2
AIGNBL01010195
 70
64
 10
0
 20
0
 30
0
  3
AIGNBL01010195
  0
POLYLINE
  8
LAYER_1
 40
0.1058
 41
0.1058
 66
1
 10
0
 20
0
 30
0
  0
VERTEX
  8
LAYER_1
 10
170.8845
 20
-163.7904
  0
VERTEX
  8
LAYER_1
 10
170.8627
 20
-163.8098
  0
VERTEX
  8
LAYER_1
 10
170.8028
 20
-163.8697
  0
SEQEND
  0
ENDBLK
  0
BLOCK
  8
LAYER_1
  2
AIGNBL01010196
 70
64
 10
0
 20
0
 30
0
  3
AIGNBL01010196
  0
POLYLINE
  8
LAYER_1
 40
0.1058
 41
0.1058
 66
1
 10
0
 20
0
 30
0
  0
VERTEX
  8
LAYER_1
 10
170.8028
 20
-163.8697
  0
VERTEX
  8
LAYER_1
 10
170.7761
 20
-163.9003
  0
VERTEX
  8
LAYER_1
 10
170.7093
 20
-163.995
  0
SEQEND
  0
ENDBLK
  0
BLOCK
  8
LAYER_1
  2
AIGNBL01010197
 70
64
 10
0
 20
0
 30
0
  3
AIGNBL01010197
  0
POLYLINE
  8
LAYER_1
 40
0.1058
 41
0.1058
 66
1
 10
0
 20
0
 30
0
  0
VERTEX
  8
LAYER_1
 10
170.7093
 20
-163.995
  0
VERTEX
  8
LAYER_1
 10
170.6524
 20
-164.1257
  0
VERTEX
  8
LAYER_1
 10
170.6334
 20
-164.2591
  0
SEQEND
  0
ENDBLK
  0
BLOCK
  8
LAYER_1
  2
AIGNBL01010198
 70
64
 10
0
 20
0
 30
0
  3
AIGNBL01010198
  0
POLYLINE
  8
LAYER_1
 40
0.1058
 41
0.1058
 66
1
 10
0
 20
0
 30
0
  0
VERTEX
  8
LAYER_1
 10
173.7446
 20
-160.5945
  0
VERTEX
  8
LAYER_1
 10
173.7501
 20
-160.6227
  0
VERTEX
  8
LAYER_1
 10
173.77
 20
-160.718
  0
SEQEND
  0
ENDBLK
  0
BLOCK
  8
LAYER_1
  2
AIGNBL01010199
 70
64
 10
0
 20
0
 30
0
  3
AIGNBL01010199
  0
POLYLINE
  8
LAYER_1
 40
0.1058
 41
0.1058
 66
1
 10
0
 20
0
 30
0
  0
VERTEX
  8
LAYER_1
 10
172.5083
 20
-157.2929
 42
0.05184634118
  0
VERTEX
  8
LAYER_1
 10
171.9821
 20
-157.3453
 42
0.06897616656
  0
VERTEX
  8
LAYER_1
 10
171.5361
 20
-157.4943
  0
VERTEX
  8
LAYER_1
 10
171.3651
 20
-157.5985
  0
VERTEX
  8
LAYER_1
 10
171.238
 20
-157.7173
  0
VERTEX
  8
LAYER_1
 10
171.1598
 20
-157.8463
  0
VERTEX
  8
LAYER_1
 10
171.1334
 20
-157.9804
  0
SEQEND
  0
ENDBLK
  0
BLOCK
  8
LAYER_1
  2
AIGNBL0101019A
 70
64
 10
0
 20
0
 30
0
  3
AIGNBL0101019A
  0
POLYLINE
  8
LAYER_1
 40
0.1058
 41
0.1058
 66
1
 10
0
 20
0
 30
0
  0
VERTEX
  8
LAYER_1
 10
170.2786
 20
-161.275
  0
VERTEX
  8
LAYER_1
 10
170.2397
 20
-161.3057
  0
VERTEX
  8
LAYER_1
 10
170.1333
 20
-161.4008
  0
SEQEND
  0
ENDBLK
  0
BLOCK
  8
LAYER_1
  2
AIGNBL0101019B
 70
64
 10
0
 20
0
 30
0
  3
AIGNBL0101019B
  0
POLYLINE
  8
LAYER_1
 40
0.1058
 41
0.1058
 66
1
 10
0
 20
0
 30
0
  0
VERTEX
  8
LAYER_1
 10
174.738
 20
-161.275
  0
VERTEX
  8
LAYER_1
 10
174.7769
 20
-161.3057
  0
VERTEX
  8
LAYER_1
 10
174.8833
 20
-161.4008
  0
SEQEND
  0
ENDBLK
  0
BLOCK
  8
LAYER_1
  2
AIGNBL0101019C
 70
64
 10
0
 20
0
 30
0
  3
AIGNBL0101019C
  0
POLYLINE
  8
LAYER_1
 40
0.1058
 41
0.1058
 66
1
 10
0
 20
0
 30
0
  0
VERTEX
  8
LAYER_1
 10
170.1333
 20
-164.9523
  0
VERTEX
  8
LAYER_1
 10
170.1671
 20
-164.9845
  0
VERTEX
  8
LAYER_1
 10
170.2786
 20
-165.0782
  0
SEQEND
  0
ENDBLK
  0
BLOCK
  8
LAYER_1
  2
AIGNBL0101019D
 70
64
 10
0
 20
0
 30
0
  3
AIGNBL0101019D
  0
POLYLINE
  8
LAYER_1
 40
0.1058
 41
0.1058
 66
1
 10
0
 20
0
 30
0
  0
VERTEX
  8
LAYER_1
 10
174.8833
 20
-164.9523
  0
VERTEX
  8
LAYER_1
 10
174.8496
 20
-164.9845
  0
VERTEX
  8
LAYER_1
 10
174.738
 20
-165.0782
  0
SEQEND
  0
ENDBLK
  0
BLOCK
  8
LAYER_1
  2
AIGNBL0101019E
 70
64
 10
0
 20
0
 30
0
  3
AIGNBL0101019E
  0
POLYLINE
  8
LAYER_1
 40
0.1058
 41
0.1058
 66
1
 10
0
 20
0
 30
0
  0
VERTEX
  8
LAYER_1
 10
173.3289
 20
-165.6099
  0
VERTEX
  8
LAYER_1
 10
173.1583
 20
-165.638
  0
VERTEX
  8
LAYER_1
 10
172.6536
 20
-165.6799
  0
SEQEND
  0
ENDBLK
  0
BLOCK
  8
LAYER_1
  2
AIGNBL0101019F
 70
64
 10
0
 20
0
 30
0
  3
AIGNBL0101019F
  0
POLYLINE
  8
LAYER_1
 40
0.1058
 41
0.1058
 66
1
 10
0
 20
0
 30
0
  0
VERTEX
  8
LAYER_1
 10
174.738
 20
-165.0782
  0
VERTEX
  8
LAYER_1
 10
174.5711
 20
-165.1671
  0
VERTEX
  8
LAYER_1
 10
174.0628
 20
-165.3981
  0
SEQEND
  0
ENDBLK
  0
BLOCK
  8
LAYER_1
  2
AIGNBL010101A0
 70
64
 10
0
 20
0
 30
0
  3
AIGNBL010101A0
  0
POLYLINE
  8
LAYER_1
 40
0.1058
 41
0.1058
 66
1
 10
0
 20
0
 30
0
  0
VERTEX
  8
LAYER_1
 10
170.9539
 20
-165.3981
  0
VERTEX
  8
LAYER_1
 10
170.7833
 20
-165.3277
  0
VERTEX
  8
LAYER_1
 10
170.2786
 20
-165.0782
  0
SEQEND
  0
ENDBLK
  0
BLOCK
  8
LAYER_1
  2
AIGNBL010101A1
 70
64
 10
0
 20
0
 30
0
  3
AIGNBL010101A1
  0
POLYLINE
  8
LAYER_1
 40
0.1058
 41
0.1058
 66
1
 10
0
 20
0
 30
0
  0
VERTEX
  8
LAYER_1
 10
172.363
 20
-165.6799
  0
VERTEX
  8
LAYER_1
 10
172.1961
 20
-165.6724
  0
VERTEX
  8
LAYER_1
 10
171.6878
 20
-165.6099
  0
SEQEND
  0
ENDBLK
  0
BLOCK
  8
LAYER_1
  2
AIGNBL010101A2
 70
64
 10
0
 20
0
 30
0
  3
AIGNBL010101A2
  0
POLYLINE
  8
LAYER_1
 40
0.1058
 41
0.1058
 66
1
 10
0
 20
0
 30
0
  0
VERTEX
  8
LAYER_1
 10
171.6878
 20
-160.7432
  0
VERTEX
  8
LAYER_1
 10
171.8583
 20
-160.7151
  0
VERTEX
  8
LAYER_1
 10
172.363
 20
-160.6733
  0
SEQEND
  0
ENDBLK
  0
BLOCK
  8
LAYER_1
  2
AIGNBL010101A3
 70
64
 10
0
 20
0
 30
0
  3
AIGNBL010101A3
  0
POLYLINE
  8
LAYER_1
 40
0.1058
 41
0.1058
 66
1
 10
0
 20
0
 30
0
  0
VERTEX
  8
LAYER_1
 10
170.2786
 20
-161.275
  0
VERTEX
  8
LAYER_1
 10
170.4456
 20
-161.1861
  0
VERTEX
  8
LAYER_1
 10
170.9539
 20
-160.9551
  0
SEQEND
  0
ENDBLK
  0
BLOCK
  8
LAYER_1
  2
AIGNBL010101A4
 70
64
 10
0
 20
0
 30
0
  3
AIGNBL010101A4
  0
POLYLINE
  8
LAYER_1
 40
0.1058
 41
0.1058
 66
1
 10
0
 20
0
 30
0
  0
VERTEX
  8
LAYER_1
 10
174.0628
 20
-160.9551
  0
VERTEX
  8
LAYER_1
 10
174.2333
 20
-161.0254
  0
VERTEX
  8
LAYER_1
 10
174.738
 20
-161.275
  0
SEQEND
  0
ENDBLK
  0
BLOCK
  8
LAYER_1
  2
AIGNBL010101A5
 70
64
 10
0
 20
0
 30
0
  3
AIGNBL010101A5
  0
POLYLINE
  8
LAYER_1
 40
0.1058
 41
0.1058
 66
1
 10
0
 20
0
 30
0
  0
VERTEX
  8
LAYER_1
 10
172.6536
 20
-160.6733
  0
VERTEX
  8
LAYER_1
 10
172.8206
 20
-160.6808
  0
VERTEX
  8
LAYER_1
 10
173.3289
 20
-160.7432
  0
SEQEND
  0
ENDBLK
  0
BLOCK
  8
LAYER_1
  2
AIGNBL010101A6
 70
64
 10
0
 20
0
 30
0
  3
AIGNBL010101A6
  0
POLYLINE
  8
LAYER_1
 40
0.1058
 41
0.1058
 66
1
 10
0
 20
0
 30
0
  0
VERTEX
  8
LAYER_1
 10
171.2416
 20
-160.7432
  0
VERTEX
  8
LAYER_1
 10
171.2475
 20
-160.7137
  0
VERTEX
  8
LAYER_1
 10
171.2666
 20
-160.6222
  0
SEQEND
  0
ENDBLK
  0
BLOCK
  8
LAYER_1
  2
AIGNBL010101A7
 70
64
 10
0
 20
0
 30
0
  3
AIGNBL010101A7
  0
POLYLINE
  8
LAYER_1
 40
0.1058
 41
0.1058
 66
1
 10
0
 20
0
 30
0
  0
VERTEX
  8
LAYER_1
 10
171.2416
 20
-159.1147
  0
VERTEX
  8
LAYER_1
 10
171.2475
 20
-159.1443
  0
VERTEX
  8
LAYER_1
 10
171.2666
 20
-159.2357
  0
SEQEND
  0
ENDBLK
  0
BLOCK
  8
LAYER_1
  2
AIGNBL010101A8
 70
64
 10
0
 20
0
 30
0
  3
AIGNBL010101A8
  0
POLYLINE
  8
LAYER_1
 40
0.1058
 41
0.1058
 66
1
 10
0
 20
0
 30
0
  0
VERTEX
  8
LAYER_1
 10
172.5083
 20
-163.4131
 42
-0.06329792959
  0
VERTEX
  8
LAYER_1
 10
173.4852
 20
-163.532
  0
VERTEX
  8
LAYER_1
 10
173.9039
 20
-163.6744
  0
VERTEX
  8
LAYER_1
 10
174.2434
 20
-163.8622
  0
SEQEND
  0
ENDBLK
  0
BLOCK
  8
LAYER_1
  2
AIGNBL010101A9
 70
64
 10
0
 20
0
 30
0
  3
AIGNBL010101A9
  0
POLYLINE
  8
LAYER_1
 40
0.1058
 41
0.1058
 66
1
 10
0
 20
0
 30
0
  0
VERTEX
  8
LAYER_1
 10
172.5083
 20
-163.4131
 42
0.06329780973
  0
VERTEX
  8
LAYER_1
 10
171.5314
 20
-163.532
  0
VERTEX
  8
LAYER_1
 10
171.1128
 20
-163.6744
  0
VERTEX
  8
LAYER_1
 10
170.7733
 20
-163.8622
  0
SEQEND
  0
ENDBLK
  0
BLOCK
  8
LAYER_1
  2
AIGNBL010101AA
 70
64
 10
0
 20
0
 30
0
  3
AIGNBL010101AA
  0
POLYLINE
  8
LAYER_1
 40
0.1058
 41
0.1058
 66
1
 10
0
 20
0
 30
0
  0
VERTEX
  8
LAYER_1
 10
170.7733
 20
-163.8622
  0
VERTEX
  8
LAYER_1
 10
170.5847
 20
-164.0242
  0
VERTEX
  8
LAYER_1
 10
170.456
 20
-164.2002
  0
VERTEX
  8
LAYER_1
 10
170.3911
 20
-164.3848
  0
VERTEX
  8
LAYER_1
 10
170.3921
 20
-164.5722
  0
VERTEX
  8
LAYER_1
 10
170.459
 20
-164.7566
  0
VERTEX
  8
LAYER_1
 10
170.5896
 20
-164.9323
  0
VERTEX
  8
LAYER_1
 10
170.7799
 20
-165.0937
  0
VERTEX
  8
LAYER_1
 10
171.024
 20
-165.236
  0
SEQEND
  0
ENDBLK
  0
BLOCK
  8
LAYER_1
  2
AIGNBL010101AB
 70
64
 10
0
 20
0
 30
0
  3
AIGNBL010101AB
  0
POLYLINE
  8
LAYER_1
 40
0.1058
 41
0.1058
 66
1
 10
0
 20
0
 30
0
  0
VERTEX
  8
LAYER_1
 10
171.024
 20
-165.236
 42
0.0633572892
  0
VERTEX
  8
LAYER_1
 10
171.707
 20
-165.4597
 42
0.05009684176
  0
VERTEX
  8
LAYER_1
 10
172.5083
 20
-165.5381
  0
SEQEND
  0
ENDBLK
  0
BLOCK
  8
LAYER_1
  2
AIGNBL010101AC
 70
64
 10
0
 20
0
 30
0
  3
AIGNBL010101AC
  0
POLYLINE
  8
LAYER_1
 40
0.1058
 41
0.1058
 66
1
 10
0
 20
0
 30
0
  0
VERTEX
  8
LAYER_1
 10
173.513
 20
-158.7993
 42
0.1487645093
  0
VERTEX
  8
LAYER_1
 10
173.4965
 20
-158.6612
  0
VERTEX
  8
LAYER_1
 10
173.4603
 20
-158.6048
  0
VERTEX
  8
LAYER_1
 10
173.4128
 20
-158.568
  0
VERTEX
  8
LAYER_1
 10
173.3596
 20
-158.5544
  0
VERTEX
  8
LAYER_1
 10
173.308
 20
-158.5669
  0
VERTEX
  8
LAYER_1
 10
173.2683
 20
-158.6069
  0
VERTEX
  8
LAYER_1
 10
173.2521
 20
-158.6689
  0
SEQEND
  0
ENDBLK
  0
BLOCK
  8
LAYER_1
  2
AIGNBL010101AD
 70
64
 10
0
 20
0
 30
0
  3
AIGNBL010101AD
  0
POLYLINE
  8
LAYER_1
 40
0.1058
 41
0.1058
 66
1
 10
0
 20
0
 30
0
  0
VERTEX
  8
LAYER_1
 10
172.5083
 20
-158.3807
 42
-0.1823909605
  0
VERTEX
  8
LAYER_1
 10
172.6416
 20
-158.4289
  0
VERTEX
  8
LAYER_1
 10
172.6831
 20
-158.4857
  0
VERTEX
  8
LAYER_1
 10
172.6928
 20
-158.5531
  0
SEQEND
  0
ENDBLK
  0
BLOCK
  8
LAYER_1
  2
AIGNBL010101AE
 70
64
 10
0
 20
0
 30
0
  3
AIGNBL010101AE
  0
POLYLINE
  8
LAYER_1
 40
0.1058
 41
0.1058
 66
1
 10
0
 20
0
 30
0
  0
VERTEX
  8
LAYER_1
 10
172.5083
 20
-157.8342
 42
-0.05166223765
  0
VERTEX
  8
LAYER_1
 10
173.0346
 20
-157.8865
 42
-0.06907270221
  0
VERTEX
  8
LAYER_1
 10
173.4806
 20
-158.0356
  0
VERTEX
  8
LAYER_1
 10
173.6516
 20
-158.1397
  0
VERTEX
  8
LAYER_1
 10
173.7787
 20
-158.2586
  0
VERTEX
  8
LAYER_1
 10
173.8569
 20
-158.3876
  0
VERTEX
  8
LAYER_1
 10
173.8833
 20
-158.5217
  0
SEQEND
  0
ENDBLK
  0
BLOCK
  8
LAYER_1
  2
AIGNBL010101AF
 70
64
 10
0
 20
0
 30
0
  3
AIGNBL010101AF
  0
POLYLINE
  8
LAYER_1
 40
0.1058
 41
0.1058
 66
1
 10
0
 20
0
 30
0
  0
VERTEX
  8
LAYER_1
 10
172.6928
 20
-160.0686
  0
VERTEX
  8
LAYER_1
 10
172.6831
 20
-160.1227
  0
VERTEX
  8
LAYER_1
 10
172.6416
 20
-160.1648
  0
VERTEX
  8
LAYER_1
 10
172.5796
 20
-160.19
  0
VERTEX
  8
LAYER_1
 10
172.5083
 20
-160.1982
  0
SEQEND
  0
ENDBLK
  0
BLOCK
  8
LAYER_1
  2
AIGNBL010101B0
 70
64
 10
0
 20
0
 30
0
  3
AIGNBL010101B0
  0
POLYLINE
  8
LAYER_1
 40
0.1058
 41
0.1058
 66
1
 10
0
 20
0
 30
0
  0
VERTEX
  8
LAYER_1
 10
172.6928
 20
-160.0686
  0
VERTEX
  8
LAYER_1
 10
172.8422
 20
-160.0845
 42
-0.05721714371
  0
VERTEX
  8
LAYER_1
 10
173.2521
 20
-160.1844
  0
SEQEND
  0
ENDBLK
  0
BLOCK
  8
LAYER_1
  2
AIGNBL010101B1
 70
64
 10
0
 20
0
 30
0
  3
AIGNBL010101B1
  0
POLYLINE
  8
LAYER_1
 40
0.1058
 41
0.1058
 66
1
 10
0
 20
0
 30
0
  0
VERTEX
  8
LAYER_1
 10
173.2521
 20
-160.1844
 42
0.1409236016
  0
VERTEX
  8
LAYER_1
 10
173.308
 20
-160.3029
  0
VERTEX
  8
LAYER_1
 10
173.3596
 20
-160.3516
  0
VERTEX
  8
LAYER_1
 10
173.4128
 20
-160.3855
  0
VERTEX
  8
LAYER_1
 10
173.4603
 20
-160.4019
  0
VERTEX
  8
LAYER_1
 10
173.4965
 20
-160.3971
  0
VERTEX
  8
LAYER_1
 10
173.5085
 20
-160.3855
  0
VERTEX
  8
LAYER_1
 10
173.5154
 20
-160.3675
  0
VERTEX
  8
LAYER_1
 10
173.5169
 20
-160.3435
  0
VERTEX
  8
LAYER_1
 10
173.513
 20
-160.3149
  0
SEQEND
  0
ENDBLK
  0
BLOCK
  8
LAYER_1
  2
AIGNBL010101B2
 70
64
 10
0
 20
0
 30
0
  3
AIGNBL010101B2
  0
POLYLINE
  8
LAYER_1
 40
0.1058
 41
0.1058
 66
1
 10
0
 20
0
 30
0
  0
VERTEX
  8
LAYER_1
 10
173.513
 20
-160.3149
  0
VERTEX
  8
LAYER_1
 10
173.5702
 20
-160.357
  0
VERTEX
  8
LAYER_1
 10
173.6983
 20
-160.4954
  0
SEQEND
  0
ENDBLK
  0
BLOCK
  8
LAYER_1
  2
AIGNBL010101B3
 70
64
 10
0
 20
0
 30
0
  3
AIGNBL010101B3
  0
POLYLINE
  8
LAYER_1
 40
0.1058
 41
0.1058
 66
1
 10
0
 20
0
 30
0
  0
VERTEX
  8
LAYER_1
 10
173.6983
 20
-160.4954
  0
VERTEX
  8
LAYER_1
 10
173.7255
 20
-160.5445
  0
SEQEND
  0
ENDBLK
  0
BLOCK
  8
LAYER_1
  2
AIGNBL010101B4
 70
64
 10
0
 20
0
 30
0
  3
AIGNBL010101B4
  0
POLYLINE
  8
LAYER_1
 40
0.1058
 41
0.1058
 66
1
 10
0
 20
0
 30
0
  0
VERTEX
  8
LAYER_1
 10
173.7255
 20
-160.5445
  0
VERTEX
  8
LAYER_1
 10
173.7446
 20
-160.5945
  0
SEQEND
  0
ENDBLK
  0
BLOCK
  8
LAYER_1
  2
AIGNBL010101B5
 70
64
 10
0
 20
0
 30
0
  3
AIGNBL010101B5
  0
POLYLINE
  8
LAYER_1
 40
0.1058
 41
0.1058
 66
1
 10
0
 20
0
 30
0
  0
VERTEX
  8
LAYER_1
 10
173.513
 20
-158.7993
  0
VERTEX
  8
LAYER_1
 10
173.5289
 20
-158.8379
  0
VERTEX
  8
LAYER_1
 10
173.5504
 20
-158.956
  0
SEQEND
  0
ENDBLK
  0
BLOCK
  8
LAYER_1
  2
AIGNBL010101B6
 70
64
 10
0
 20
0
 30
0
  3
AIGNBL010101B6
  0
POLYLINE
  8
LAYER_1
 40
0.1058
 41
0.1058
 66
1
 10
0
 20
0
 30
0
  0
VERTEX
  8
LAYER_1
 10
172.704
 20
-160.6558
  0
VERTEX
  8
LAYER_1
 10
172.7784
 20
-160.6622
  0
VERTEX
  8
LAYER_1
 10
172.9959
 20
-160.6934
  0
SEQEND
  0
ENDBLK
  0
BLOCK
  8
LAYER_1
  2
AIGNBL010101B7
 70
64
 10
0
 20
0
 30
0
  3
AIGNBL010101B7
  0
POLYLINE
  8
LAYER_1
 40
0.1058
 41
0.1058
 66
1
 10
0
 20
0
 30
0
  0
VERTEX
  8
LAYER_1
 10
173.513
 20
-158.7993
  0
VERTEX
  8
LAYER_1
 10
173.5962
 20
-158.8634
 42
-0.1473304681
  0
VERTEX
  8
LAYER_1
 10
173.7446
 20
-159.079
  0
SEQEND
  0
ENDBLK
  0
BLOCK
  8
LAYER_1
  2
AIGNBL010101B8
 70
64
 10
0
 20
0
 30
0
  3
AIGNBL010101B8
  0
POLYLINE
  8
LAYER_1
 40
0.1058
 41
0.1058
 66
1
 10
0
 20
0
 30
0
  0
VERTEX
  8
LAYER_1
 10
170.2786
 20
-163.6231
  0
VERTEX
  8
LAYER_1
 10
170.2397
 20
-163.6538
  0
VERTEX
  8
LAYER_1
 10
170.1333
 20
-163.7489
  0
SEQEND
  0
ENDBLK
  0
BLOCK
  8
LAYER_1
  2
AIGNBL010101B9
 70
64
 10
0
 20
0
 30
0
  3
AIGNBL010101B9
  0
POLYLINE
  8
LAYER_1
 40
0.1058
 41
0.1058
 66
1
 10
0
 20
0
 30
0
  0
VERTEX
  8
LAYER_1
 10
170.9539
 20
-163.5531
  0
VERTEX
  8
LAYER_1
 10
170.6588
 20
-163.7012
  0
VERTEX
  8
LAYER_1
 10
170.419
 20
-163.8725
 42
0.1272562524
  0
VERTEX
  8
LAYER_1
 10
170.1333
 20
-164.2638
  0
SEQEND
  0
ENDBLK
  0
BLOCK
  8
LAYER_1
  2
AIGNBL010101BA
 70
64
 10
0
 20
0
 30
0
  3
AIGNBL010101BA
  0
POLYLINE
  8
LAYER_1
 40
0.1058
 41
0.1058
 66
1
 10
0
 20
0
 30
0
  0
VERTEX
  8
LAYER_1
 10
173.7333
 20
-159.1767
  0
VERTEX
  8
LAYER_1
 10
173.7367
 20
-159.1146
  0
VERTEX
  8
LAYER_1
 10
173.7446
 20
-159.079
  0
SEQEND
  0
ENDBLK
  0
BLOCK
  8
LAYER_1
  2
AIGNBL010101BB
 70
64
 10
0
 20
0
 30
0
  3
AIGNBL010101BB
  0
POLYLINE
  8
LAYER_1
 40
0.1058
 41
0.1058
 66
1
 10
0
 20
0
 30
0
  0
VERTEX
  8
LAYER_1
 10
170.1333
 20
-164.6875
  0
VERTEX
  8
LAYER_1
 10
170.1525
 20
-164.7356
  0
VERTEX
  8
LAYER_1
 10
170.2335
 20
-164.8772
  0
SEQEND
  0
ENDBLK
  0
BLOCK
  8
LAYER_1
  2
AIGNBL010101BC
 70
64
 10
0
 20
0
 30
0
  3
AIGNBL010101BC
  0
POLYLINE
  8
LAYER_1
 40
0.1058
 41
0.1058
 66
1
 10
0
 20
0
 30
0
  0
VERTEX
  8
LAYER_1
 10
170.2335
 20
-164.8772
  0
VERTEX
  8
LAYER_1
 10
170.2777
 20
-164.9351
  0
VERTEX
  8
LAYER_1
 10
170.2938
 20
-164.9541
  0
SEQEND
  0
ENDBLK
  0
BLOCK
  8
LAYER_1
  2
AIGNBL010101BD
 70
64
 10
0
 20
0
 30
0
  3
AIGNBL010101BD
  0
POLYLINE
  8
LAYER_1
 40
0.1058
 41
0.1058
 66
1
 10
0
 20
0
 30
0
  0
VERTEX
  8
LAYER_1
 10
170.2938
 20
-164.9541
 42
0.06219764808
  0
VERTEX
  8
LAYER_1
 10
170.5722
 20
-165.1953
 42
0.04518476449
  0
VERTEX
  8
LAYER_1
 10
170.9539
 20
-165.3981
  0
SEQEND
  0
ENDBLK
  0
BLOCK
  8
LAYER_1
  2
AIGNBL010101BE
 70
64
 10
0
 20
0
 30
0
  3
AIGNBL010101BE
  0
POLYLINE
  8
LAYER_1
 40
0.1058
 41
0.1058
 66
1
 10
0
 20
0
 30
0
  0
VERTEX
  8
LAYER_1
 10
174.8833
 20
-164.6875
  0
VERTEX
  8
LAYER_1
 10
174.8641
 20
-164.7356
  0
VERTEX
  8
LAYER_1
 10
174.7832
 20
-164.8772
  0
SEQEND
  0
ENDBLK
  0
BLOCK
  8
LAYER_1
  2
AIGNBL010101BF
 70
64
 10
0
 20
0
 30
0
  3
AIGNBL010101BF
  0
POLYLINE
  8
LAYER_1
 40
0.1058
 41
0.1058
 66
1
 10
0
 20
0
 30
0
  0
VERTEX
  8
LAYER_1
 10
174.7832
 20
-164.8772
  0
VERTEX
  8
LAYER_1
 10
174.7389
 20
-164.9351
  0
VERTEX
  8
LAYER_1
 10
174.7229
 20
-164.9541
  0
SEQEND
  0
ENDBLK
  0
BLOCK
  8
LAYER_1
  2
AIGNBL010101C0
 70
64
 10
0
 20
0
 30
0
  3
AIGNBL010101C0
  0
POLYLINE
  8
LAYER_1
 40
0.1058
 41
0.1058
 66
1
 10
0
 20
0
 30
0
  0
VERTEX
  8
LAYER_1
 10
174.7229
 20
-164.9541
 42
-0.0621240999
  0
VERTEX
  8
LAYER_1
 10
174.4444
 20
-165.1953
 42
-0.04510895333
  0
VERTEX
  8
LAYER_1
 10
174.0628
 20
-165.3981
  0
SEQEND
  0
ENDBLK
  0
BLOCK
  8
LAYER_1
  2
AIGNBL010101C1
 70
64
 10
0
 20
0
 30
0
  3
AIGNBL010101C1
  0
POLYLINE
  8
LAYER_1
 40
0.1058
 41
0.1058
 66
1
 10
0
 20
0
 30
0
  0
VERTEX
  8
LAYER_1
 10
172.5083
 20
-157.8342
 42
0.05169592863
  0
VERTEX
  8
LAYER_1
 10
171.9821
 20
-157.8865
 42
0.06909555701
  0
VERTEX
  8
LAYER_1
 10
171.5361
 20
-158.0356
  0
VERTEX
  8
LAYER_1
 10
171.3651
 20
-158.1397
  0
VERTEX
  8
LAYER_1
 10
171.238
 20
-158.2586
  0
VERTEX
  8
LAYER_1
 10
171.1598
 20
-158.3876
  0
VERTEX
  8
LAYER_1
 10
171.1334
 20
-158.5217
  0
SEQEND
  0
ENDBLK
  0
BLOCK
  8
LAYER_1
  2
AIGNBL010101C2
 70
64
 10
0
 20
0
 30
0
  3
AIGNBL010101C2
  0
POLYLINE
  8
LAYER_1
 40
0.1058
 41
0.1058
 66
1
 10
0
 20
0
 30
0
  0
VERTEX
  8
LAYER_1
 10
171.6878
 20
-165.6099
 42
0.0442796337
  0
VERTEX
  8
LAYER_1
 10
172.5083
 20
-165.6819
 42
0.04521522952
  0
VERTEX
  8
LAYER_1
 10
173.3289
 20
-165.6099
  0
SEQEND
  0
ENDBLK
  0
BLOCK
  8
LAYER_1
  2
AIGNBL010101C3
 70
64
 10
0
 20
0
 30
0
  3
AIGNBL010101C3
  0
POLYLINE
  8
LAYER_1
 40
0.1058
 41
0.1058
 66
1
 10
0
 20
0
 30
0
  0
VERTEX
  8
LAYER_1
 10
173.3289
 20
-163.3413
 42
0.04424581672
  0
VERTEX
  8
LAYER_1
 10
172.5083
 20
-163.2694
 42
0.04524651331
  0
VERTEX
  8
LAYER_1
 10
171.6878
 20
-163.3413
  0
SEQEND
  0
ENDBLK
  0
BLOCK
  8
LAYER_1
  2
AIGNBL010101C4
 70
64
 10
0
 20
0
 30
0
  3
AIGNBL010101C4
  0
POLYLINE
  8
LAYER_1
 40
0.1058
 41
0.1058
 66
1
 10
0
 20
0
 30
0
  0
VERTEX
  8
LAYER_1
 10
174.738
 20
-163.6231
  0
VERTEX
  8
LAYER_1
 10
174.7769
 20
-163.6538
  0
VERTEX
  8
LAYER_1
 10
174.8833
 20
-163.7489
  0
SEQEND
  0
ENDBLK
  0
BLOCK
  8
LAYER_1
  2
AIGNBL010101C5
 70
64
 10
0
 20
0
 30
0
  3
AIGNBL010101C5
  0
POLYLINE
  8
LAYER_1
 40
0.1058
 41
0.1058
 66
1
 10
0
 20
0
 30
0
  0
VERTEX
  8
LAYER_1
 10
174.0628
 20
-163.5531
  0
VERTEX
  8
LAYER_1
 10
174.3579
 20
-163.7012
  0
VERTEX
  8
LAYER_1
 10
174.5976
 20
-163.8725
 42
-0.1272627486
  0
VERTEX
  8
LAYER_1
 10
174.8833
 20
-164.2638
  0
SEQEND
  0
ENDBLK
  0
BLOCK
  8
LAYER_1
  2
AIGNBL010101C6
 70
64
 10
0
 20
0
 30
0
  3
AIGNBL010101C6
  0
POLYLINE
  8
LAYER_1
 40
0.1058
 41
0.1058
 66
1
 10
0
 20
0
 30
0
  0
VERTEX
  8
LAYER_1
 10
172.3239
 20
-158.5531
  0
VERTEX
  8
LAYER_1
 10
172.3336
 20
-158.4857
  0
VERTEX
  8
LAYER_1
 10
172.3751
 20
-158.4289
 42
-0.1730743487
  0
VERTEX
  8
LAYER_1
 10
172.5083
 20
-158.3807
  0
SEQEND
  0
ENDBLK
  0
BLOCK
  8
LAYER_1
  2
AIGNBL010101C7
 70
64
 10
0
 20
0
 30
0
  3
AIGNBL010101C7
  0
POLYLINE
  8
LAYER_1
 40
0.1058
 41
0.1058
 66
1
 10
0
 20
0
 30
0
  0
VERTEX
  8
LAYER_1
 10
171.7646
 20
-158.6689
  0
VERTEX
  8
LAYER_1
 10
171.7483
 20
-158.6069
  0
VERTEX
  8
LAYER_1
 10
171.7086
 20
-158.5669
  0
VERTEX
  8
LAYER_1
 10
171.6571
 20
-158.5544
  0
VERTEX
  8
LAYER_1
 10
171.6039
 20
-158.568
  0
VERTEX
  8
LAYER_1
 10
171.5563
 20
-158.6048
  0
VERTEX
  8
LAYER_1
 10
171.5202
 20
-158.6612
 42
0.1629224007
  0
VERTEX
  8
LAYER_1
 10
171.5037
 20
-158.7993
  0
SEQEND
  0
ENDBLK
  0
BLOCK
  8
LAYER_1
  2
AIGNBL010101C8
 70
64
 10
0
 20
0
 30
0
  3
AIGNBL010101C8
  0
POLYLINE
  8
LAYER_1
 40
0.1058
 41
0.1058
 66
1
 10
0
 20
0
 30
0
  0
VERTEX
  8
LAYER_1
 10
171.272
 20
-159.079
  0
VERTEX
  8
LAYER_1
 10
171.2628
 20
-159.0361
  0
VERTEX
  8
LAYER_1
 10
171.252
 20
-159.0064
  0
VERTEX
  8
LAYER_1
 10
171.2467
 20
-158.9974
  0
VERTEX
  8
LAYER_1
 10
171.2418
 20
-158.9924
  0
VERTEX
  8
LAYER_1
 10
171.2375
 20
-158.9912
  0
VERTEX
  8
LAYER_1
 10
171.234
 20
-158.9936
  0
VERTEX
  8
LAYER_1
 10
171.2298
 20
-159.0082
  0
VERTEX
  8
LAYER_1
 10
171.2298
 20
-159.0344
  0
VERTEX
  8
LAYER_1
 10
171.2339
 20
-159.0704
  0
VERTEX
  8
LAYER_1
 10
171.2416
 20
-159.1147
  0
SEQEND
  0
ENDBLK
  0
BLOCK
  8
LAYER_1
  2
AIGNBL010101C9
 70
64
 10
0
 20
0
 30
0
  3
AIGNBL010101C9
  0
POLYLINE
  8
LAYER_1
 40
0.1058
 41
0.1058
 66
1
 10
0
 20
0
 30
0
  0
VERTEX
  8
LAYER_1
 10
173.5504
 20
-160.2117
  0
VERTEX
  8
LAYER_1
 10
173.548
 20
-160.2459
  0
VERTEX
  8
LAYER_1
 10
173.513
 20
-160.3149
  0
SEQEND
  0
ENDBLK
  0
BLOCK
  8
LAYER_1
  2
AIGNBL010101CA
 70
64
 10
0
 20
0
 30
0
  3
AIGNBL010101CA
  0
POLYLINE
  8
LAYER_1
 40
0.1058
 41
0.1058
 66
1
 10
0
 20
0
 30
0
  0
VERTEX
  8
LAYER_1
 10
172.6928
 20
-158.5531
  0
VERTEX
  8
LAYER_1
 10
172.74
 20
-158.6163
  0
VERTEX
  8
LAYER_1
 10
172.7571
 20
-158.6886
  0
SEQEND
  0
ENDBLK
  0
BLOCK
  8
LAYER_1
  2
AIGNBL010101CB
 70
64
 10
0
 20
0
 30
0
  3
AIGNBL010101CB
  0
POLYLINE
  8
LAYER_1
 40
0.1058
 41
0.1058
 66
1
 10
0
 20
0
 30
0
  0
VERTEX
  8
LAYER_1
 10
172.6928
 20
-158.5531
  0
VERTEX
  8
LAYER_1
 10
172.8422
 20
-158.5689
 42
-0.05709463669
  0
VERTEX
  8
LAYER_1
 10
173.2521
 20
-158.6689
  0
SEQEND
  0
ENDBLK
  0
BLOCK
  8
LAYER_1
  2
AIGNBL010101CC
 70
64
 10
0
 20
0
 30
0
  3
AIGNBL010101CC
  0
POLYLINE
  8
LAYER_1
 40
0.1058
 41
0.1058
 66
1
 10
0
 20
0
 30
0
  0
VERTEX
  8
LAYER_1
 10
173.1986
 20
-158.7801
  0
VERTEX
  8
LAYER_1
 10
173.2131
 20
-158.7142
  0
VERTEX
  8
LAYER_1
 10
173.2521
 20
-158.6689
  0
SEQEND
  0
ENDBLK
  0
BLOCK
  8
LAYER_1
  2
AIGNBL010101CD
 70
64
 10
0
 20
0
 30
0
  3
AIGNBL010101CD
  0
POLYLINE
  8
LAYER_1
 40
0.1058
 41
0.1058
 66
1
 10
0
 20
0
 30
0
  0
VERTEX
  8
LAYER_1
 10
173.2521
 20
-160.1844
  0
VERTEX
  8
LAYER_1
 10
173.2301
 20
-160.1489
  0
VERTEX
  8
LAYER_1
 10
173.1986
 20
-160.0358
  0
SEQEND
  0
ENDBLK
  0
BLOCK
  8
LAYER_1
  2
AIGNBL010101CE
 70
64
 10
0
 20
0
 30
0
  3
AIGNBL010101CE
  0
POLYLINE
  8
LAYER_1
 40
0.1058
 41
0.1058
 66
1
 10
0
 20
0
 30
0
  0
VERTEX
  8
LAYER_1
 10
171.5037
 20
-160.3149
  0
VERTEX
  8
LAYER_1
 10
171.4538
 20
-160.3512
  0
VERTEX
  8
LAYER_1
 10
171.3361
 20
-160.4698
  0
SEQEND
  0
ENDBLK
  0
BLOCK
  8
LAYER_1
  2
AIGNBL010101CF
 70
64
 10
0
 20
0
 30
0
  3
AIGNBL010101CF
  0
POLYLINE
  8
LAYER_1
 40
0.1058
 41
0.1058
 66
1
 10
0
 20
0
 30
0
  0
VERTEX
  8
LAYER_1
 10
171.3361
 20
-160.4698
  0
VERTEX
  8
LAYER_1
 10
171.3038
 20
-160.5198
  0
SEQEND
  0
ENDBLK
  0
BLOCK
  8
LAYER_1
  2
AIGNBL010101D0
 70
64
 10
0
 20
0
 30
0
  3
AIGNBL010101D0
  0
POLYLINE
  8
LAYER_1
 40
0.1058
 41
0.1058
 66
1
 10
0
 20
0
 30
0
  0
VERTEX
  8
LAYER_1
 10
171.3038
 20
-160.5198
  0
VERTEX
  8
LAYER_1
 10
171.2941
 20
-160.5383
  0
VERTEX
  8
LAYER_1
 10
171.272
 20
-160.5945
  0
SEQEND
  0
ENDBLK
  0
BLOCK
  8
LAYER_1
  2
AIGNBL010101D1
 70
64
 10
0
 20
0
 30
0
  3
AIGNBL010101D1
  0
POLYLINE
  8
LAYER_1
 40
0.1058
 41
0.1058
 66
1
 10
0
 20
0
 30
0
  0
VERTEX
  8
LAYER_1
 10
171.5037
 20
-160.3149
  0
VERTEX
  8
LAYER_1
 10
171.4997
 20
-160.3435
  0
VERTEX
  8
LAYER_1
 10
171.5012
 20
-160.3675
  0
VERTEX
  8
LAYER_1
 10
171.5082
 20
-160.3855
  0
VERTEX
  8
LAYER_1
 10
171.5202
 20
-160.3971
  0
VERTEX
  8
LAYER_1
 10
171.5563
 20
-160.4019
  0
VERTEX
  8
LAYER_1
 10
171.6039
 20
-160.3855
  0
VERTEX
  8
LAYER_1
 10
171.6571
 20
-160.3516
  0
VERTEX
  8
LAYER_1
 10
171.7087
 20
-160.3029
 42
0.1992322413
  0
VERTEX
  8
LAYER_1
 10
171.7646
 20
-160.1844
  0
SEQEND
  0
ENDBLK
  0
BLOCK
  8
LAYER_1
  2
AIGNBL010101D2
 70
64
 10
0
 20
0
 30
0
  3
AIGNBL010101D2
  0
POLYLINE
  8
LAYER_1
 40
0.1058
 41
0.1058
 66
1
 10
0
 20
0
 30
0
  0
VERTEX
  8
LAYER_1
 10
172.3239
 20
-160.0686
  0
VERTEX
  8
LAYER_1
 10
172.1746
 20
-160.0845
 42
0.05724601633
  0
VERTEX
  8
LAYER_1
 10
171.7646
 20
-160.1844
  0
SEQEND
  0
ENDBLK
  0
BLOCK
  8
LAYER_1
  2
AIGNBL010101D3
 70
64
 10
0
 20
0
 30
0
  3
AIGNBL010101D3
  0
POLYLINE
  8
LAYER_1
 40
0.1058
 41
0.1058
 66
1
 10
0
 20
0
 30
0
  0
VERTEX
  8
LAYER_1
 10
172.5083
 20
-160.1982
  0
VERTEX
  8
LAYER_1
 10
172.4371
 20
-160.19
  0
VERTEX
  8
LAYER_1
 10
172.3751
 20
-160.1649
  0
VERTEX
  8
LAYER_1
 10
172.3336
 20
-160.1227
  0
VERTEX
  8
LAYER_1
 10
172.3239
 20
-160.0686
  0
SEQEND
  0
ENDBLK
  0
BLOCK
  8
LAYER_1
  2
AIGNBL010101D4
 70
64
 10
0
 20
0
 30
0
  3
AIGNBL010101D4
  0
POLYLINE
  8
LAYER_1
 40
0.1058
 41
0.1058
 66
1
 10
0
 20
0
 30
0
  0
VERTEX
  8
LAYER_1
 10
171.6878
 20
-163.3413
  0
VERTEX
  8
LAYER_1
 10
171.8583
 20
-163.2709
  0
VERTEX
  8
LAYER_1
 10
172.363
 20
-163.0213
  0
SEQEND
  0
ENDBLK
  0
BLOCK
  8
LAYER_1
  2
AIGNBL010101D5
 70
64
 10
0
 20
0
 30
0
  3
AIGNBL010101D5
  0
POLYLINE
  8
LAYER_1
 40
0.1058
 41
0.1058
 66
1
 10
0
 20
0
 30
0
  0
VERTEX
  8
LAYER_1
 10
170.2786
 20
-163.6231
  0
VERTEX
  8
LAYER_1
 10
170.4456
 20
-163.6156
  0
VERTEX
  8
LAYER_1
 10
170.9539
 20
-163.5531
  0
SEQEND
  0
ENDBLK
  0
BLOCK
  8
LAYER_1
  2
AIGNBL010101D6
 70
64
 10
0
 20
0
 30
0
  3
AIGNBL010101D6
  0
POLYLINE
  8
LAYER_1
 40
0.1058
 41
0.1058
 66
1
 10
0
 20
0
 30
0
  0
VERTEX
  8
LAYER_1
 10
172.3127
 20
-160.6558
  0
VERTEX
  8
LAYER_1
 10
172.2382
 20
-160.6622
  0
VERTEX
  8
LAYER_1
 10
172.0207
 20
-160.6935
  0
SEQEND
  0
ENDBLK
  0
BLOCK
  8
LAYER_1
  2
AIGNBL010101D7
 70
64
 10
0
 20
0
 30
0
  3
AIGNBL010101D7
  0
POLYLINE
  8
LAYER_1
 40
0.1058
 41
0.1058
 66
1
 10
0
 20
0
 30
0
  0
VERTEX
  8
LAYER_1
 10
174.0628
 20
-163.5531
  0
VERTEX
  8
LAYER_1
 10
174.2333
 20
-163.5812
  0
VERTEX
  8
LAYER_1
 10
174.738
 20
-163.6231
  0
SEQEND
  0
ENDBLK
  0
BLOCK
  8
LAYER_1
  2
AIGNBL010101D8
 70
64
 10
0
 20
0
 30
0
  3
AIGNBL010101D8
  0
POLYLINE
  8
LAYER_1
 40
0.1058
 41
0.1058
 66
1
 10
0
 20
0
 30
0
  0
VERTEX
  8
LAYER_1
 10
172.6536
 20
-163.0213
  0
VERTEX
  8
LAYER_1
 10
172.8206
 20
-163.1102
  0
VERTEX
  8
LAYER_1
 10
173.3289
 20
-163.3413
  0
SEQEND
  0
ENDBLK
  0
BLOCK
  8
LAYER_1
  2
AIGNBL010101D9
 70
64
 10
0
 20
0
 30
0
  3
AIGNBL010101D9
  0
POLYLINE
  8
LAYER_1
 40
0.1058
 41
0.1058
 66
1
 10
0
 20
0
 30
0
  0
VERTEX
  8
LAYER_1
 10
172.7571
 20
-159.9443
  0
VERTEX
  8
LAYER_1
 10
172.74
 20
-160.0134
  0
VERTEX
  8
LAYER_1
 10
172.6928
 20
-160.0686
  0
SEQEND
  0
ENDBLK
  0
BLOCK
  8
LAYER_1
  2
AIGNBL010101DA
 70
64
 10
0
 20
0
 30
0
  3
AIGNBL010101DA
  0
POLYLINE
  8
LAYER_1
 40
0.1058
 41
0.1058
 66
1
 10
0
 20
0
 30
0
  0
VERTEX
  8
LAYER_1
 10
171.7646
 20
-158.6689
  0
VERTEX
  8
LAYER_1
 10
171.8036
 20
-158.7142
  0
VERTEX
  8
LAYER_1
 10
171.818
 20
-158.7801
  0
SEQEND
  0
ENDBLK
  0
BLOCK
  8
LAYER_1
  2
AIGNBL010101DB
 70
64
 10
0
 20
0
 30
0
  3
AIGNBL010101DB
  0
POLYLINE
  8
LAYER_1
 40
0.1058
 41
0.1058
 66
1
 10
0
 20
0
 30
0
  0
VERTEX
  8
LAYER_1
 10
172.3239
 20
-158.5531
  0
VERTEX
  8
LAYER_1
 10
172.1746
 20
-158.5689
 42
0.05712353784
  0
VERTEX
  8
LAYER_1
 10
171.7646
 20
-158.6689
  0
SEQEND
  0
ENDBLK
  0
BLOCK
  8
LAYER_1
  2
AIGNBL010101DC
 70
64
 10
0
 20
0
 30
0
  3
AIGNBL010101DC
  0
POLYLINE
  8
LAYER_1
 40
0.1058
 41
0.1058
 66
1
 10
0
 20
0
 30
0
  0
VERTEX
  8
LAYER_1
 10
170.6334
 20
-164.2591
  0
VERTEX
  8
LAYER_1
 10
170.6441
 20
-164.3593
  0
VERTEX
  8
LAYER_1
 10
170.6524
 20
-164.3925
  0
SEQEND
  0
ENDBLK
  0
BLOCK
  8
LAYER_1
  2
AIGNBL010101DD
 70
64
 10
0
 20
0
 30
0
  3
AIGNBL010101DD
  0
POLYLINE
  8
LAYER_1
 40
0.1058
 41
0.1058
 66
1
 10
0
 20
0
 30
0
  0
VERTEX
  8
LAYER_1
 10
170.6524
 20
-164.3925
  0
VERTEX
  8
LAYER_1
 10
170.6631
 20
-164.4256
  0
VERTEX
  8
LAYER_1
 10
170.7093
 20
-164.5232
  0
SEQEND
  0
ENDBLK
  0
BLOCK
  8
LAYER_1
  2
AIGNBL010101DE
 70
64
 10
0
 20
0
 30
0
  3
AIGNBL010101DE
  0
POLYLINE
  8
LAYER_1
 40
0.1058
 41
0.1058
 66
1
 10
0
 20
0
 30
0
  0
VERTEX
  8
LAYER_1
 10
170.7093
 20
-164.5232
 42
0.09849155759
  0
VERTEX
  8
LAYER_1
 10
170.9682
 20
-164.7938
 42
0.06373187252
  0
VERTEX
  8
LAYER_1
 10
171.3847
 20
-165.0096
 42
0.04617039223
  0
VERTEX
  8
LAYER_1
 10
171.9162
 20
-165.1486
 42
0.04060006895
  0
VERTEX
  8
LAYER_1
 10
172.5083
 20
-165.1966
  0
SEQEND
  0
ENDBLK
  0
BLOCK
  8
LAYER_1
  2
AIGNBL010101DF
 70
64
 10
0
 20
0
 30
0
  3
AIGNBL010101DF
  0
POLYLINE
  8
LAYER_1
 40
0.1058
 41
0.1058
 66
1
 10
0
 20
0
 30
0
  0
VERTEX
  8
LAYER_1
 10
174.3833
 20
-164.2591
  0
VERTEX
  8
LAYER_1
 10
174.3726
 20
-164.3593
  0
VERTEX
  8
LAYER_1
 10
174.3642
 20
-164.3925
  0
SEQEND
  0
ENDBLK
  0
BLOCK
  8
LAYER_1
  2
AIGNBL010101E0
 70
64
 10
0
 20
0
 30
0
  3
AIGNBL010101E0
  0
POLYLINE
  8
LAYER_1
 40
0.1058
 41
0.1058
 66
1
 10
0
 20
0
 30
0
  0
VERTEX
  8
LAYER_1
 10
174.3642
 20
-164.3925
  0
VERTEX
  8
LAYER_1
 10
174.3535
 20
-164.4256
  0
VERTEX
  8
LAYER_1
 10
174.3073
 20
-164.5232
  0
SEQEND
  0
ENDBLK
  0
BLOCK
  8
LAYER_1
  2
AIGNBL010101E1
 70
64
 10
0
 20
0
 30
0
  3
AIGNBL010101E1
  0
POLYLINE
  8
LAYER_1
 40
0.1058
 41
0.1058
 66
1
 10
0
 20
0
 30
0
  0
VERTEX
  8
LAYER_1
 10
174.3073
 20
-164.5232
 42
-0.09834880874
  0
VERTEX
  8
LAYER_1
 10
174.0485
 20
-164.7938
 42
-0.06376465314
  0
VERTEX
  8
LAYER_1
 10
173.6319
 20
-165.0096
 42
-0.04619090672
  0
VERTEX
  8
LAYER_1
 10
173.1005
 20
-165.1486
 42
-0.04059582892
  0
VERTEX
  8
LAYER_1
 10
172.5083
 20
-165.1966
  0
SEQEND
  0
ENDBLK
  0
BLOCK
  8
LAYER_1
  2
AIGNBL010101E2
 70
64
 10
0
 20
0
 30
0
  3
AIGNBL010101E2
  0
POLYLINE
  8
LAYER_1
 40
0.1058
 41
0.1058
 66
1
 10
0
 20
0
 30
0
  0
VERTEX
  8
LAYER_1
 10
172.2596
 20
-158.6886
  0
VERTEX
  8
LAYER_1
 10
172.2766
 20
-158.6162
  0
VERTEX
  8
LAYER_1
 10
172.3239
 20
-158.5531
  0
SEQEND
  0
ENDBLK
  0
BLOCK
  8
LAYER_1
  2
AIGNBL010101E3
 70
64
 10
0
 20
0
 30
0
  3
AIGNBL010101E3
  0
POLYLINE
  8
LAYER_1
 40
0.1058
 41
0.1058
 66
1
 10
0
 20
0
 30
0
  0
VERTEX
  8
LAYER_1
 10
172.3239
 20
-160.0686
  0
VERTEX
  8
LAYER_1
 10
172.2766
 20
-160.0134
  0
VERTEX
  8
LAYER_1
 10
172.2596
 20
-159.9443
  0
SEQEND
  0
ENDBLK
  0
BLOCK
  8
LAYER_1
  2
AIGNBL010101E4
 70
64
 10
0
 20
0
 30
0
  3
AIGNBL010101E4
  0
POLYLINE
  8
LAYER_1
 40
0.1058
 41
0.1058
 66
1
 10
0
 20
0
 30
0
  0
VERTEX
  8
LAYER_1
 10
171.818
 20
-160.0358
  0
VERTEX
  8
LAYER_1
 10
171.8143
 20
-160.0731
  0
VERTEX
  8
LAYER_1
 10
171.7646
 20
-160.1844
  0
SEQEND
  0
ENDBLK
  0
BLOCK
  8
LAYER_1
  2
AIGNBL010101E5
 70
64
 10
0
 20
0
 30
0
  3
AIGNBL010101E5
  0
POLYLINE
  8
LAYER_1
 40
0.1058
 41
0.1058
 66
1
 10
0
 20
0
 30
0
  0
VERTEX
  8
LAYER_1
 10
171.272
 20
-159.079
  0
VERTEX
  8
LAYER_1
 10
171.28
 20
-159.1146
  0
VERTEX
  8
LAYER_1
 10
171.2833
 20
-159.1767
  0
SEQEND
  0
ENDBLK
  0
BLOCK
  8
LAYER_1
  2
AIGNBL010101E6
 70
64
 10
0
 20
0
 30
0
  3
AIGNBL010101E6
  0
POLYLINE
  8
LAYER_1
 40
0.1058
 41
0.1058
 66
1
 10
0
 20
0
 30
0
  0
VERTEX
  8
LAYER_1
 10
171.5037
 20
-158.7993
  0
VERTEX
  8
LAYER_1
 10
171.4205
 20
-158.8633
 42
0.1470385608
  0
VERTEX
  8
LAYER_1
 10
171.272
 20
-159.079
  0
SEQEND
  0
ENDBLK
  0
BLOCK
  8
LAYER_1
  2
AIGNBL010101E7
 70
64
 10
0
 20
0
 30
0
  3
AIGNBL010101E7
  0
POLYLINE
  8
LAYER_1
 40
0.1058
 41
0.1058
 66
1
 10
0
 20
0
 30
0
  0
VERTEX
  8
LAYER_1
 10
173.7751
 20
-159.1147
  0
VERTEX
  8
LAYER_1
 10
173.7828
 20
-159.0704
  0
VERTEX
  8
LAYER_1
 10
173.7869
 20
-159.0344
  0
VERTEX
  8
LAYER_1
 10
173.7868
 20
-159.0082
  0
VERTEX
  8
LAYER_1
 10
173.7827
 20
-158.9936
  0
VERTEX
  8
LAYER_1
 10
173.7791
 20
-158.9912
  0
VERTEX
  8
LAYER_1
 10
173.7749
 20
-158.9924
  0
VERTEX
  8
LAYER_1
 10
173.77
 20
-158.9974
  0
VERTEX
  8
LAYER_1
 10
173.7646
 20
-159.0064
  0
VERTEX
  8
LAYER_1
 10
173.7539
 20
-159.0361
  0
VERTEX
  8
LAYER_1
 10
173.7446
 20
-159.079
  0
SEQEND
  0
ENDBLK
  0
BLOCK
  8
LAYER_1
  2
AIGNBL010101E8
 70
64
 10
0
 20
0
 30
0
  3
AIGNBL010101E8
  0
POLYLINE
  8
LAYER_1
 40
0.1058
 41
0.1058
 66
1
 10
0
 20
0
 30
0
  0
VERTEX
  8
LAYER_1
 10
171.4662
 20
-158.956
  0
VERTEX
  8
LAYER_1
 10
171.4687
 20
-158.9181
  0
VERTEX
  8
LAYER_1
 10
171.5037
 20
-158.7993
  0
SEQEND
  0
ENDBLK
  0
BLOCK
  8
LAYER_1
  2
AIGNBL010101E9
 70
64
 10
0
 20
0
 30
0
  3
AIGNBL010101E9
  0
POLYLINE
  8
LAYER_1
 40
0.1058
 41
0.1058
 66
1
 10
0
 20
0
 30
0
  0
VERTEX
  8
LAYER_1
 10
171.5037
 20
-160.3149
  0
VERTEX
  8
LAYER_1
 10
171.4878
 20
-160.2983
  0
VERTEX
  8
LAYER_1
 10
171.4662
 20
-160.2117
  0
SEQEND
  0
ENDBLK
  0
BLOCK
  8
LAYER_1
  2
AIGNBL010101EA
 70
64
 10
0
 20
0
 30
0
  3
AIGNBL010101EA
  0
POLYLINE
  8
LAYER_1
 40
0.1058
 41
0.1058
 66
1
 10
0
 20
0
 30
0
  0
VERTEX
  8
LAYER_1
 10
172.5083
 20
-142.2
 42
0.05184828981
  0
VERTEX
  8
LAYER_1
 10
172.03
 20
-142.2476
 42
0.06941727293
  0
VERTEX
  8
LAYER_1
 10
171.6244
 20
-142.383
  0
VERTEX
  8
LAYER_1
 10
171.469
 20
-142.4777
  0
VERTEX
  8
LAYER_1
 10
171.3535
 20
-142.5858
  0
VERTEX
  8
LAYER_1
 10
171.2824
 20
-142.703
  0
VERTEX
  8
LAYER_1
 10
171.2583
 20
-142.825
  0
SEQEND
  0
ENDBLK
  0
BLOCK
  8
LAYER_1
  2
AIGNBL010101EB
 70
64
 10
0
 20
0
 30
0
  3
AIGNBL010101EB
  0
POLYLINE
  8
LAYER_1
 40
0.1058
 41
0.1058
 66
1
 10
0
 20
0
 30
0
  0
VERTEX
  8
LAYER_1
 10
173.7583
 20
-142.825
  0
VERTEX
  8
LAYER_1
 10
173.7343
 20
-142.703
  0
VERTEX
  8
LAYER_1
 10
173.6632
 20
-142.5858
  0
VERTEX
  8
LAYER_1
 10
173.5477
 20
-142.4777
  0
VERTEX
  8
LAYER_1
 10
173.3922
 20
-142.383
 42
0.06169761578
  0
VERTEX
  8
LAYER_1
 10
172.9867
 20
-142.2476
 42
0.04983309165
  0
VERTEX
  8
LAYER_1
 10
172.5083
 20
-142.2
  0
SEQEND
  0
ENDBLK
  0
BLOCK
  8
LAYER_1
  2
AIGNBL010101EC
 70
64
 10
0
 20
0
 30
0
  3
AIGNBL010101EC
  0
POLYLINE
  8
LAYER_1
 40
0.1058
 41
0.1058
 66
1
 10
0
 20
0
 30
0
  0
VERTEX
  8
LAYER_1
 10
174.2434
 20
-163.8622
  0
VERTEX
  8
LAYER_1
 10
174.4319
 20
-164.0242
  0
VERTEX
  8
LAYER_1
 10
174.5607
 20
-164.2002
  0
VERTEX
  8
LAYER_1
 10
174.6255
 20
-164.3848
  0
VERTEX
  8
LAYER_1
 10
174.6245
 20
-164.5722
  0
VERTEX
  8
LAYER_1
 10
174.5577
 20
-164.7566
  0
VERTEX
  8
LAYER_1
 10
174.427
 20
-164.9323
  0
VERTEX
  8
LAYER_1
 10
174.2367
 20
-165.0937
  0
VERTEX
  8
LAYER_1
 10
173.9926
 20
-165.236
  0
SEQEND
  0
ENDBLK
  0
BLOCK
  8
LAYER_1
  2
AIGNBL010101ED
 70
64
 10
0
 20
0
 30
0
  3
AIGNBL010101ED
  0
POLYLINE
  8
LAYER_1
 40
0.1058
 41
0.1058
 66
1
 10
0
 20
0
 30
0
  0
VERTEX
  8
LAYER_1
 10
173.9926
 20
-165.236
 42
-0.06334905575
  0
VERTEX
  8
LAYER_1
 10
173.3097
 20
-165.4597
 42
-0.05010301689
  0
VERTEX
  8
LAYER_1
 10
172.5083
 20
-165.5381
  0
SEQEND
  0
ENDBLK
  0
BLOCK
  8
LAYER_1
  2
AIGNBL010101EE
 70
64
 10
0
 20
0
 30
0
  3
AIGNBL010101EE
  0
POLYLINE
  8
LAYER_1
 40
0.1058
 41
0.1058
 66
1
 10
0
 20
0
 30
0
  0
VERTEX
  8
LAYER_1
 10
169.6877
 20
-161.1693
  0
VERTEX
  8
LAYER_1
 10
169.2238
 20
-161.1693
  0
SEQEND
  0
ENDBLK
  0
BLOCK
  8
LAYER_1
  2
AIGNBL010101EF
 70
64
 10
0
 20
0
 30
0
  3
AIGNBL010101EF
  0
POLYLINE
  8
LAYER_1
 40
0.1058
 41
0.1058
 66
1
 10
0
 20
0
 30
0
  0
VERTEX
  8
LAYER_1
 10
169.6877
 20
-159.9136
  0
VERTEX
  8
LAYER_1
 10
169.2238
 20
-159.9136
  0
SEQEND
  0
ENDBLK
  0
BLOCK
  8
LAYER_1
  2
AIGNBL010101F0
 70
64
 10
0
 20
0
 30
0
  3
AIGNBL010101F0
  0
POLYLINE
  8
LAYER_1
 40
0.1058
 41
0.1058
 66
1
 10
0
 20
0
 30
0
  0
VERTEX
  8
LAYER_1
 10
170.3212
 20
-160.9819
  0
VERTEX
  8
LAYER_1
 10
170.1292
 20
-161.0779
  0
SEQEND
  0
ENDBLK
  0
BLOCK
  8
LAYER_1
  2
AIGNBL010101F1
 70
64
 10
0
 20
0
 30
0
  3
AIGNBL010101F1
  0
POLYLINE
  8
LAYER_1
 40
0.1058
 41
0.1058
 66
1
 10
0
 20
0
 30
0
  0
VERTEX
  8
LAYER_1
 10
170.2333
 20
-159.7701
  0
VERTEX
  8
LAYER_1
 10
170.1292
 20
-159.8222
  0
SEQEND
  0
ENDBLK
  0
BLOCK
  8
LAYER_1
  2
AIGNBL010101F2
 70
64
 10
0
 20
0
 30
0
  3
AIGNBL010101F2
  0
POLYLINE
  8
LAYER_1
 40
0.1058
 41
0.1058
 66
1
 10
0
 20
0
 30
0
  0
VERTEX
  8
LAYER_1
 10
170.1292
 20
-161.0779
  0
VERTEX
  8
LAYER_1
 10
170.1292
 20
-159.8222
  0
SEQEND
  0
ENDBLK
  0
BLOCK
  8
LAYER_1
  2
AIGNBL010101F3
 70
64
 10
0
 20
0
 30
0
  3
AIGNBL010101F3
  0
POLYLINE
  8
LAYER_1
 40
0.1058
 41
0.1058
 66
1
 10
0
 20
0
 30
0
  0
VERTEX
  8
LAYER_1
 10
169.6877
 20
-161.1693
  0
VERTEX
  8
LAYER_1
 10
169.6877
 20
-159.9136
  0
SEQEND
  0
ENDBLK
  0
BLOCK
  8
LAYER_1
  2
AIGNBL010101F4
 70
64
 10
0
 20
0
 30
0
  3
AIGNBL010101F4
  0
POLYLINE
  8
LAYER_1
 40
0.1058
 41
0.1058
 66
1
 10
0
 20
0
 30
0
  0
VERTEX
  8
LAYER_1
 10
169.2236
 20
-159.7869
  0
VERTEX
  8
LAYER_1
 10
169.2545
 20
-159.7894
  0
SEQEND
  0
ENDBLK
  0
BLOCK
  8
LAYER_1
  2
AIGNBL010101F5
 70
64
 10
0
 20
0
 30
0
  3
AIGNBL010101F5
  0
POLYLINE
  8
LAYER_1
 40
0.1058
 41
0.1058
 66
1
 10
0
 20
0
 30
0
  0
VERTEX
  8
LAYER_1
 10
169.2236
 20
-161.3024
  0
VERTEX
  8
LAYER_1
 10
169.2545
 20
-161.3049
  0
SEQEND
  0
ENDBLK
  0
BLOCK
  8
LAYER_1
  2
AIGNBL010101F6
 70
64
 10
0
 20
0
 30
0
  3
AIGNBL010101F6
  0
POLYLINE
  8
LAYER_1
 40
0.1058
 41
0.1058
 66
1
 10
0
 20
0
 30
0
  0
VERTEX
  8
LAYER_1
 10
170.1827
 20
-159.6735
  0
VERTEX
  8
LAYER_1
 10
170.0546
 20
-159.7151
 42
-0.04814590247
  0
VERTEX
  8
LAYER_1
 10
169.6234
 20
-159.7894
  0
SEQEND
  0
ENDBLK
  0
BLOCK
  8
LAYER_1
  2
AIGNBL010101F7
 70
64
 10
0
 20
0
 30
0
  3
AIGNBL010101F7
  0
POLYLINE
  8
LAYER_1
 40
0.1058
 41
0.1058
 66
1
 10
0
 20
0
 30
0
  0
VERTEX
  8
LAYER_1
 10
169.6877
 20
-159.9136
  0
VERTEX
  8
LAYER_1
 10
169.6706
 20
-159.8446
  0
VERTEX
  8
LAYER_1
 10
169.6234
 20
-159.7894
  0
SEQEND
  0
ENDBLK
  0
BLOCK
  8
LAYER_1
  2
AIGNBL010101F8
 70
64
 10
0
 20
0
 30
0
  3
AIGNBL010101F8
  0
POLYLINE
  8
LAYER_1
 40
0.1058
 41
0.1058
 66
1
 10
0
 20
0
 30
0
  0
VERTEX
  8
LAYER_1
 10
169.4389
 20
-161.4772
 42
0.1826713186
  0
VERTEX
  8
LAYER_1
 10
169.5722
 20
-161.4291
  0
VERTEX
  8
LAYER_1
 10
169.6137
 20
-161.3723
  0
VERTEX
  8
LAYER_1
 10
169.6234
 20
-161.3049
  0
SEQEND
  0
ENDBLK
  0
BLOCK
  8
LAYER_1
  2
AIGNBL010101F9
 70
64
 10
0
 20
0
 30
0
  3
AIGNBL010101F9
  0
POLYLINE
  8
LAYER_1
 40
0.1058
 41
0.1058
 66
1
 10
0
 20
0
 30
0
  0
VERTEX
  8
LAYER_1
 10
170.2786
 20
-161.3031
  0
VERTEX
  8
LAYER_1
 10
170.2386
 20
-161.291
  0
VERTEX
  8
LAYER_1
 10
170.1989
 20
-161.251
  0
VERTEX
  8
LAYER_1
 10
170.1827
 20
-161.1891
  0
SEQEND
  0
ENDBLK
  0
BLOCK
  8
LAYER_1
  2
AIGNBL010101FA
 70
64
 10
0
 20
0
 30
0
  3
AIGNBL010101FA
  0
POLYLINE
  8
LAYER_1
 40
0.1058
 41
0.1058
 66
1
 10
0
 20
0
 30
0
  0
VERTEX
  8
LAYER_1
 10
170.1827
 20
-161.1891
  0
VERTEX
  8
LAYER_1
 10
170.0546
 20
-161.2307
 42
-0.04836877095
  0
VERTEX
  8
LAYER_1
 10
169.6234
 20
-161.3049
  0
SEQEND
  0
ENDBLK
  0
BLOCK
  8
LAYER_1
  2
AIGNBL010101FB
 70
64
 10
0
 20
0
 30
0
  3
AIGNBL010101FB
  0
POLYLINE
  8
LAYER_1
 40
0.1058
 41
0.1058
 66
1
 10
0
 20
0
 30
0
  0
VERTEX
  8
LAYER_1
 10
169.4389
 20
-159.6598
  0
VERTEX
  8
LAYER_1
 10
169.3677
 20
-159.668
  0
VERTEX
  8
LAYER_1
 10
169.3057
 20
-159.6931
  0
VERTEX
  8
LAYER_1
 10
169.2642
 20
-159.7352
  0
VERTEX
  8
LAYER_1
 10
169.2545
 20
-159.7894
  0
SEQEND
  0
ENDBLK
  0
BLOCK
  8
LAYER_1
  2
AIGNBL010101FC
 70
64
 10
0
 20
0
 30
0
  3
AIGNBL010101FC
  0
POLYLINE
  8
LAYER_1
 40
0.1058
 41
0.1058
 66
1
 10
0
 20
0
 30
0
  0
VERTEX
  8
LAYER_1
 10
169.2545
 20
-161.3049
  0
VERTEX
  8
LAYER_1
 10
169.2642
 20
-161.3722
  0
VERTEX
  8
LAYER_1
 10
169.3056
 20
-161.429
 42
0.1729347841
  0
VERTEX
  8
LAYER_1
 10
169.4389
 20
-161.4772
  0
SEQEND
  0
ENDBLK
  0
BLOCK
  8
LAYER_1
  2
AIGNBL010101FD
 70
64
 10
0
 20
0
 30
0
  3
AIGNBL010101FD
  0
POLYLINE
  8
LAYER_1
 40
0.1058
 41
0.1058
 66
1
 10
0
 20
0
 30
0
  0
VERTEX
  8
LAYER_1
 10
169.6234
 20
-159.7894
  0
VERTEX
  8
LAYER_1
 10
169.6137
 20
-159.7352
  0
VERTEX
  8
LAYER_1
 10
169.5722
 20
-159.6931
  0
VERTEX
  8
LAYER_1
 10
169.5101
 20
-159.6679
  0
VERTEX
  8
LAYER_1
 10
169.4389
 20
-159.6598
  0
SEQEND
  0
ENDBLK
  0
BLOCK
  8
LAYER_1
  2
AIGNBL010101FE
 70
64
 10
0
 20
0
 30
0
  3
AIGNBL010101FE
  0
POLYLINE
  8
LAYER_1
 40
0.1058
 41
0.1058
 66
1
 10
0
 20
0
 30
0
  0
VERTEX
  8
LAYER_1
 10
170.1827
 20
-159.6735
 42
-0.1349754559
  0
VERTEX
  8
LAYER_1
 10
170.2333
 20
-159.5613
  0
SEQEND
  0
ENDBLK
  0
BLOCK
  8
LAYER_1
  2
AIGNBL010101FF
 70
64
 10
0
 20
0
 30
0
  3
AIGNBL010101FF
  0
POLYLINE
  8
LAYER_1
 40
0.1058
 41
0.1058
 66
1
 10
0
 20
0
 30
0
  0
VERTEX
  8
LAYER_1
 10
169.6234
 20
-161.3049
  0
VERTEX
  8
LAYER_1
 10
169.6706
 20
-161.2417
  0
VERTEX
  8
LAYER_1
 10
169.6877
 20
-161.1693
  0
SEQEND
  0
ENDBLK
  0
BLOCK
  8
LAYER_1
  2
AIGNBL01010200
 70
64
 10
0
 20
0
 30
0
  3
AIGNBL01010200
  0
POLYLINE
  8
LAYER_1
 40
0.1058
 41
0.1058
 66
1
 10
0
 20
0
 30
0
  0
VERTEX
  8
LAYER_1
 10
170.1292
 20
-161.0779
  0
VERTEX
  8
LAYER_1
 10
170.1437
 20
-161.1437
  0
VERTEX
  8
LAYER_1
 10
170.1827
 20
-161.1891
  0
SEQEND
  0
ENDBLK
  0
BLOCK
  8
LAYER_1
  2
AIGNBL01010201
 70
64
 10
0
 20
0
 30
0
  3
AIGNBL01010201
  0
POLYLINE
  8
LAYER_1
 40
0.1058
 41
0.1058
 66
1
 10
0
 20
0
 30
0
  0
VERTEX
  8
LAYER_1
 10
170.1827
 20
-159.6735
  0
VERTEX
  8
LAYER_1
 10
170.1607
 20
-159.7091
  0
VERTEX
  8
LAYER_1
 10
170.1292
 20
-159.8222
  0
SEQEND
  0
ENDBLK
  0
BLOCK
  8
LAYER_1
  2
AIGNBL01010202
 70
64
 10
0
 20
0
 30
0
  3
AIGNBL01010202
  0
POLYLINE
  8
LAYER_1
 40
0.1058
 41
0.1058
 66
1
 10
0
 20
0
 30
0
  0
VERTEX
  8
LAYER_1
 10
170.1333
 20
-162.924
  0
VERTEX
  8
LAYER_1
 10
169.8289
 20
-163.0119
  0
SEQEND
  0
ENDBLK
  0
BLOCK
  8
LAYER_1
  2
AIGNBL01010203
 70
64
 10
0
 20
0
 30
0
  3
AIGNBL01010203
  0
POLYLINE
  8
LAYER_1
 40
0.1058
 41
0.1058
 66
1
 10
0
 20
0
 30
0
  0
VERTEX
  8
LAYER_1
 10
169.8289
 20
-163.0119
  0
VERTEX
  8
LAYER_1
 10
169.6583
 20
-163.0822
  0
VERTEX
  8
LAYER_1
 10
169.1536
 20
-163.3318
  0
SEQEND
  0
ENDBLK
  0
BLOCK
  8
LAYER_1
  2
AIGNBL01010204
 70
64
 10
0
 20
0
 30
0
  3
AIGNBL01010204
  0
POLYLINE
  8
LAYER_1
  6
AIGENLINE002
 40
0.1058
 41
0.1058
 66
1
 10
0
 20
0
 30
0
 70
128
  0
VERTEX
  8
LAYER_1
 10
156.1889
 20
-98.0266
  0
VERTEX
  8
LAYER_1
 10
156.0803
 20
-97.4111
  0
SEQEND
  0
ENDBLK
  0
BLOCK
  8
LAYER_1
  2
AIGNBL01010205
 70
64
 10
0
 20
0
 30
0
  3
AIGNBL01010205
  0
POLYLINE
  8
LAYER_1
  6
AIGENLINE002
 40
0.1058
 41
0.1058
 66
1
 10
0
 20
0
 30
0
 70
128
  0
VERTEX
  8
LAYER_1
 10
166.3974
 20
-96.4804
  0
VERTEX
  8
LAYER_1
 10
156.4785
 20
-98.2294
  0
SEQEND
  0
ENDBLK
  0
BLOCK
  8
LAYER_1
  2
AIGNBL01010206
 70
64
 10
0
 20
0
 30
0
  3
AIGNBL01010206
  0
POLYLINE
  8
LAYER_1
  6
AIGENLINE002
 40
0.1058
 41
0.1058
 66
1
 10
0
 20
0
 30
0
 70
128
  0
VERTEX
  8
LAYER_1
 10
156.2831
 20
-97.1215
  0
VERTEX
  8
LAYER_1
 10
166.202
 20
-95.3725
  0
SEQEND
  0
ENDBLK
  0
BLOCK
  8
LAYER_1
  2
AIGNBL01010207
 70
64
 10
0
 20
0
 30
0
  3
AIGNBL01010207
  0
POLYLINE
  8
LAYER_1
  6
AIGENLINE002
 40
0.1058
 41
0.1058
 66
1
 10
0
 20
0
 30
0
 70
128
  0
VERTEX
  8
LAYER_1
 10
156.2831
 20
-97.1215
 42
0.4141695691
  0
VERTEX
  8
LAYER_1
 10
156.0803
 20
-97.4111
  0
SEQEND
  0
ENDBLK
  0
BLOCK
  8
LAYER_1
  2
AIGNBL01010208
 70
64
 10
0
 20
0
 30
0
  3
AIGNBL01010208
  0
POLYLINE
  8
LAYER_1
  6
AIGENLINE002
 40
0.1058
 41
0.1058
 66
1
 10
0
 20
0
 30
0
 70
128
  0
VERTEX
  8
LAYER_1
 10
156.1889
 20
-98.0266
 42
0.4142248186
  0
VERTEX
  8
LAYER_1
 10
156.4785
 20
-98.2294
  0
SEQEND
  0
ENDBLK
  0
BLOCK
  8
LAYER_1
  2
AIGNBL01010209
 70
64
 10
0
 20
0
 30
0
  3
AIGNBL01010209
  0
POLYLINE
  8
LAYER_1
  6
AIGENLINE002
 40
0.1058
 41
0.1058
 66
1
 10
0
 20
0
 30
0
 70
128
  0
VERTEX
  8
LAYER_1
 10
170.445
 20
-80.2896
  0
VERTEX
  8
LAYER_1
 10
171.07
 20
-80.2896
  0
SEQEND
  0
ENDBLK
  0
BLOCK
  8
LAYER_1
  2
AIGNBL0101020A
 70
64
 10
0
 20
0
 30
0
  3
AIGNBL0101020A
  0
POLYLINE
  8
LAYER_1
  6
AIGENLINE002
 40
0.1058
 41
0.1058
 66
1
 10
0
 20
0
 30
0
 70
128
  0
VERTEX
  8
LAYER_1
 10
170.195
 20
-90.6115
  0
VERTEX
  8
LAYER_1
 10
170.195
 20
-80.5396
  0
SEQEND
  0
ENDBLK
  0
BLOCK
  8
LAYER_1
  2
AIGNBL0101020B
 70
64
 10
0
 20
0
 30
0
  3
AIGNBL0101020B
  0
POLYLINE
  8
LAYER_1
  6
AIGENLINE002
 40
0.1058
 41
0.1058
 66
1
 10
0
 20
0
 30
0
 70
128
  0
VERTEX
  8
LAYER_1
 10
171.32
 20
-80.5396
  0
VERTEX
  8
LAYER_1
 10
171.32
 20
-90.6115
  0
SEQEND
  0
ENDBLK
  0
BLOCK
  8
LAYER_1
  2
AIGNBL0101020C
 70
64
 10
0
 20
0
 30
0
  3
AIGNBL0101020C
  0
POLYLINE
  8
LAYER_1
  6
AIGENLINE002
 40
0.1058
 41
0.1058
 66
1
 10
0
 20
0
 30
0
 70
128
  0
VERTEX
  8
LAYER_1
 10
171.32
 20
-80.5396
 42
0.4142240097
  0
VERTEX
  8
LAYER_1
 10
171.07
 20
-80.2896
  0
SEQEND
  0
ENDBLK
  0
BLOCK
  8
LAYER_1
  2
AIGNBL0101020D
 70
64
 10
0
 20
0
 30
0
  3
AIGNBL0101020D
  0
POLYLINE
  8
LAYER_1
  6
AIGENLINE002
 40
0.1058
 41
0.1058
 66
1
 10
0
 20
0
 30
0
 70
128
  0
VERTEX
  8
LAYER_1
 10
170.445
 20
-80.2896
 42
0.4142818504
  0
VERTEX
  8
LAYER_1
 10
170.195
 20
-80.5396
  0
SEQEND
  0
ENDBLK
  0
BLOCK
  8
LAYER_1
  2
AIGNBL0101020E
 70
64
 10
0
 20
0
 30
0
  3
AIGNBL0101020E
  0
POLYLINE
  8
LAYER_1
 40
0.1058
 41
0.1058
 66
1
 10
0
 20
0
 30
0
  0
VERTEX
  8
LAYER_1
 10
176.1168
 20
-178.1162
  0
VERTEX
  8
LAYER_1
 10
176.1168
 20
-171.2736
  0
SEQEND
  0
ENDBLK
  0
BLOCK
  8
LAYER_1
  2
AIGNBL0101020F
 70
64
 10
0
 20
0
 30
0
  3
AIGNBL0101020F
  0
POLYLINE
  8
LAYER_1
 40
0.1058
 41
0.1058
 66
1
 10
0
 20
0
 30
0
  0
VERTEX
  8
LAYER_1
 10
175.8043
 20
-178.2967
  0
VERTEX
  8
LAYER_1
 10
176.1168
 20
-178.1162
  0
SEQEND
  0
ENDBLK
  0
BLOCK
  8
LAYER_1
  2
AIGNBL01010210
 70
64
 10
0
 20
0
 30
0
  3
AIGNBL01010210
  0
POLYLINE
  8
LAYER_1
 40
0.1058
 41
0.1058
 66
1
 10
0
 20
0
 30
0
  0
VERTEX
  8
LAYER_1
 10
175.8043
 20
-178.2967
  0
VERTEX
  8
LAYER_1
 10
172.5083
 20
-178.2967
  0
SEQEND
  0
ENDBLK
  0
BLOCK
  8
LAYER_1
  2
AIGNBL01010211
 70
64
 10
0
 20
0
 30
0
  3
AIGNBL01010211
  0
POLYLINE
  8
LAYER_1
 40
0.1058
 41
0.1058
 66
1
 10
0
 20
0
 30
0
  0
VERTEX
  8
LAYER_1
 10
172.5083
 20
-168.2967
  0
VERTEX
  8
LAYER_1
 10
174.3408
 20
-168.2967
  0
SEQEND
  0
ENDBLK
  0
BLOCK
  8
LAYER_1
  2
AIGNBL01010212
 70
64
 10
0
 20
0
 30
0
  3
AIGNBL01010212
  0
POLYLINE
  8
LAYER_1
 40
0.1058
 41
0.1058
 66
1
 10
0
 20
0
 30
0
  0
VERTEX
  8
LAYER_1
 10
175.1283
 20
-170.7029
  0
VERTEX
  8
LAYER_1
 10
176.1168
 20
-171.2736
  0
SEQEND
  0
ENDBLK
  0
BLOCK
  8
LAYER_1
  2
AIGNBL01010213
 70
64
 10
0
 20
0
 30
0
  3
AIGNBL01010213
  0
POLYLINE
  8
LAYER_1
 40
0.1058
 41
0.1058
 66
1
 10
0
 20
0
 30
0
  0
VERTEX
  8
LAYER_1
 10
172.5083
 20
-170.7029
  0
VERTEX
  8
LAYER_1
 10
175.1283
 20
-170.7029
  0
SEQEND
  0
ENDBLK
  0
BLOCK
  8
LAYER_1
  2
AIGNBL01010214
 70
64
 10
0
 20
0
 30
0
  3
AIGNBL01010214
  0
POLYLINE
  8
LAYER_1
 40
0.1058
 41
0.1058
 66
1
 10
0
 20
0
 30
0
  0
VERTEX
  8
LAYER_1
 10
174.3126
 20
-177.726
  0
VERTEX
  8
LAYER_1
 10
174.3126
 20
-171.2736
  0
SEQEND
  0
ENDBLK
  0
BLOCK
  8
LAYER_1
  2
AIGNBL01010215
 70
64
 10
0
 20
0
 30
0
  3
AIGNBL01010215
  0
POLYLINE
  8
LAYER_1
 40
0.1058
 41
0.1058
 66
1
 10
0
 20
0
 30
0
  0
VERTEX
  8
LAYER_1
 10
174.3126
 20
-171.2736
 42
0.2556542711
  0
VERTEX
  8
LAYER_1
 10
174.1251
 20
-171.02
 42
0.09539487976
  0
VERTEX
  8
LAYER_1
 10
173.3491
 20
-170.7685
 42
0.03980711136
  0
VERTEX
  8
LAYER_1
 10
172.5083
 20
-170.7029
  0
SEQEND
  0
ENDBLK
  0
BLOCK
  8
LAYER_1
  2
AIGNBL01010216
 70
64
 10
0
 20
0
 30
0
  3
AIGNBL01010216
  0
POLYLINE
  8
LAYER_1
 40
0.1058
 41
0.1058
 66
1
 10
0
 20
0
 30
0
  0
VERTEX
  8
LAYER_1
 10
176.1168
 20
-171.2736
 42
0.2645719367
  0
VERTEX
  8
LAYER_1
 10
174.3126
 20
-171.2736
  0
SEQEND
  0
ENDBLK
  0
BLOCK
  8
LAYER_1
  2
AIGNBL01010217
 70
64
 10
0
 20
0
 30
0
  3
AIGNBL01010217
  0
POLYLINE
  8
LAYER_1
 40
0.1058
 41
0.1058
 66
1
 10
0
 20
0
 30
0
  0
VERTEX
  8
LAYER_1
 10
174.3126
 20
-177.726
 42
-0.2556542711
  0
VERTEX
  8
LAYER_1
 10
174.1251
 20
-177.9796
 42
-0.09539487976
  0
VERTEX
  8
LAYER_1
 10
173.3491
 20
-178.2311
 42
-0.03980711136
  0
VERTEX
  8
LAYER_1
 10
172.5083
 20
-178.2967
  0
SEQEND
  0
ENDBLK
  0
BLOCK
  8
LAYER_1
  2
AIGNBL01010218
 70
64
 10
0
 20
0
 30
0
  3
AIGNBL01010218
  0
POLYLINE
  8
LAYER_1
 40
0.1058
 41
0.1058
 66
1
 10
0
 20
0
 30
0
  0
VERTEX
  8
LAYER_1
 10
174.3126
 20
-177.726
 42
0.4141992453
  0
VERTEX
  8
LAYER_1
 10
175.6423
 20
-178.2004
 42
0.1730526548
  0
VERTEX
  8
LAYER_1
 10
176.1168
 20
-177.726
  0
SEQEND
  0
ENDBLK
  0
BLOCK
  8
LAYER_1
  2
AIGNBL01010219
 70
64
 10
0
 20
0
 30
0
  3
AIGNBL01010219
  0
POLYLINE
  8
LAYER_1
 40
0.1058
 41
0.1058
 66
1
 10
0
 20
0
 30
0
  0
VERTEX
  8
LAYER_1
 10
174.5908
 20
-168.5467
  0
VERTEX
  8
LAYER_1
 10
174.5908
 20
-170.7029
  0
SEQEND
  0
ENDBLK
  0
BLOCK
  8
LAYER_1
  2
AIGNBL0101021A
 70
64
 10
0
 20
0
 30
0
  3
AIGNBL0101021A
  0
POLYLINE
  8
LAYER_1
 40
0.1058
 41
0.1058
 66
1
 10
0
 20
0
 30
0
  0
VERTEX
  8
LAYER_1
 10
174.3408
 20
-168.2967
  0
VERTEX
  8
LAYER_1
 10
174.5908
 20
-168.5467
  0
SEQEND
  0
ENDBLK
  0
BLOCK
  8
LAYER_1
  2
AIGNBL0101021B
 70
64
 10
0
 20
0
 30
0
  3
AIGNBL0101021B
  0
POLYLINE
  8
LAYER_1
 40
0.1058
 41
0.1058
 66
1
 10
0
 20
0
 30
0
  0
VERTEX
  8
LAYER_1
 10
172.5083
 20
-170.311
  0
VERTEX
  8
LAYER_1
 10
174.5908
 20
-170.311
  0
SEQEND
  0
ENDBLK
  0
BLOCK
  8
LAYER_1
  2
AIGNBL0101021C
 70
64
 10
0
 20
0
 30
0
  3
AIGNBL0101021C
  0
POLYLINE
  8
LAYER_1
 40
0.1799
 41
0.1799
 66
1
 10
0
 20
0
 30
0
  0
VERTEX
  8
LAYER_1
 10
174.3826
 20
-168.3384
  0
VERTEX
  8
LAYER_1
 10
174.3826
 20
-170.311
  0
SEQEND
  0
ENDBLK
  0
BLOCK
  8
LAYER_1
  2
AIGNBL0101021D
 70
64
 10
0
 20
0
 30
0
  3
AIGNBL0101021D
  0
POLYLINE
  8
LAYER_1
 40
0.1058
 41
0.1058
 66
1
 10
0
 20
0
 30
0
  0
VERTEX
  8
LAYER_1
 10
174.3826
 20
-170.311
  0
VERTEX
  8
LAYER_1
 10
174.5908
 20
-170.6717
  0
SEQEND
  0
ENDBLK
  0
BLOCK
  8
LAYER_1
  2
AIGNBL0101021E
 70
64
 10
0
 20
0
 30
0
  3
AIGNBL0101021E
  0
POLYLINE
  8
LAYER_1
 40
0.1058
 41
0.1058
 66
1
 10
0
 20
0
 30
0
  0
VERTEX
  8
LAYER_1
 10
174.5908
 20
-168.5467
  0
VERTEX
  8
LAYER_1
 10
172.5083
 20
-168.5467
  0
SEQEND
  0
ENDBLK
  0
BLOCK
  8
LAYER_1
  2
AIGNBL0101021F
 70
64
 10
0
 20
0
 30
0
  3
AIGNBL0101021F
  0
POLYLINE
  8
LAYER_1
 40
0.1058
 41
0.1058
 66
1
 10
0
 20
0
 30
0
  0
VERTEX
  8
LAYER_1
 10
168.8999
 20
-178.1162
  0
VERTEX
  8
LAYER_1
 10
168.8999
 20
-171.2736
  0
SEQEND
  0
ENDBLK
  0
BLOCK
  8
LAYER_1
  2
AIGNBL01010220
 70
64
 10
0
 20
0
 30
0
  3
AIGNBL01010220
  0
POLYLINE
  8
LAYER_1
 40
0.1058
 41
0.1058
 66
1
 10
0
 20
0
 30
0
  0
VERTEX
  8
LAYER_1
 10
169.2124
 20
-178.2967
  0
VERTEX
  8
LAYER_1
 10
168.8999
 20
-178.1162
  0
SEQEND
  0
ENDBLK
  0
BLOCK
  8
LAYER_1
  2
AIGNBL01010221
 70
64
 10
0
 20
0
 30
0
  3
AIGNBL01010221
  0
POLYLINE
  8
LAYER_1
 40
0.1058
 41
0.1058
 66
1
 10
0
 20
0
 30
0
  0
VERTEX
  8
LAYER_1
 10
169.2124
 20
-178.2967
  0
VERTEX
  8
LAYER_1
 10
172.5083
 20
-178.2967
  0
SEQEND
  0
ENDBLK
  0
BLOCK
  8
LAYER_1
  2
AIGNBL01010222
 70
64
 10
0
 20
0
 30
0
  3
AIGNBL01010222
  0
POLYLINE
  8
LAYER_1
 40
0.1058
 41
0.1058
 66
1
 10
0
 20
0
 30
0
  0
VERTEX
  8
LAYER_1
 10
172.5083
 20
-168.2967
  0
VERTEX
  8
LAYER_1
 10
170.6758
 20
-168.2967
  0
SEQEND
  0
ENDBLK
  0
BLOCK
  8
LAYER_1
  2
AIGNBL01010223
 70
64
 10
0
 20
0
 30
0
  3
AIGNBL01010223
  0
POLYLINE
  8
LAYER_1
 40
0.1058
 41
0.1058
 66
1
 10
0
 20
0
 30
0
  0
VERTEX
  8
LAYER_1
 10
169.8883
 20
-170.7029
  0
VERTEX
  8
LAYER_1
 10
168.8999
 20
-171.2736
  0
SEQEND
  0
ENDBLK
  0
BLOCK
  8
LAYER_1
  2
AIGNBL01010224
 70
64
 10
0
 20
0
 30
0
  3
AIGNBL01010224
  0
POLYLINE
  8
LAYER_1
 40
0.1058
 41
0.1058
 66
1
 10
0
 20
0
 30
0
  0
VERTEX
  8
LAYER_1
 10
172.5083
 20
-170.7029
  0
VERTEX
  8
LAYER_1
 10
169.8883
 20
-170.7029
  0
SEQEND
  0
ENDBLK
  0
BLOCK
  8
LAYER_1
  2
AIGNBL01010225
 70
64
 10
0
 20
0
 30
0
  3
AIGNBL01010225
  0
POLYLINE
  8
LAYER_1
 40
0.1058
 41
0.1058
 66
1
 10
0
 20
0
 30
0
  0
VERTEX
  8
LAYER_1
 10
170.7041
 20
-177.726
  0
VERTEX
  8
LAYER_1
 10
170.7041
 20
-171.2736
  0
SEQEND
  0
ENDBLK
  0
BLOCK
  8
LAYER_1
  2
AIGNBL01010226
 70
64
 10
0
 20
0
 30
0
  3
AIGNBL01010226
  0
POLYLINE
  8
LAYER_1
 40
0.1058
 41
0.1058
 66
1
 10
0
 20
0
 30
0
  0
VERTEX
  8
LAYER_1
 10
170.7041
 20
-171.2736
 42
-0.2556514246
  0
VERTEX
  8
LAYER_1
 10
170.8916
 20
-171.02
 42
-0.09539481877
  0
VERTEX
  8
LAYER_1
 10
171.6676
 20
-170.7685
 42
-0.03980979233
  0
VERTEX
  8
LAYER_1
 10
172.5083
 20
-170.7029
  0
SEQEND
  0
ENDBLK
  0
BLOCK
  8
LAYER_1
  2
AIGNBL01010227
 70
64
 10
0
 20
0
 30
0
  3
AIGNBL01010227
  0
POLYLINE
  8
LAYER_1
 40
0.1058
 41
0.1058
 66
1
 10
0
 20
0
 30
0
  0
VERTEX
  8
LAYER_1
 10
170.7041
 20
-171.2736
 42
0.2645719368
  0
VERTEX
  8
LAYER_1
 10
168.8999
 20
-171.2736
  0
SEQEND
  0
ENDBLK
  0
BLOCK
  8
LAYER_1
  2
AIGNBL01010228
 70
64
 10
0
 20
0
 30
0
  3
AIGNBL01010228
  0
POLYLINE
  8
LAYER_1
 40
0.1058
 41
0.1058
 66
1
 10
0
 20
0
 30
0
  0
VERTEX
  8
LAYER_1
 10
170.7041
 20
-177.726
 42
0.2556514246
  0
VERTEX
  8
LAYER_1
 10
170.8916
 20
-177.9796
 42
0.09539481877
  0
VERTEX
  8
LAYER_1
 10
171.6676
 20
-178.2311
 42
0.03980979233
  0
VERTEX
  8
LAYER_1
 10
172.5083
 20
-178.2967
  0
SEQEND
  0
ENDBLK
  0
BLOCK
  8
LAYER_1
  2
AIGNBL01010229
 70
64
 10
0
 20
0
 30
0
  3
AIGNBL01010229
  0
POLYLINE
  8
LAYER_1
 40
0.1058
 41
0.1058
 66
1
 10
0
 20
0
 30
0
  0
VERTEX
  8
LAYER_1
 10
168.8999
 20
-177.726
 42
0.4142200079
  0
VERTEX
  8
LAYER_1
 10
170.2297
 20
-178.2004
 42
0.1730344024
  0
VERTEX
  8
LAYER_1
 10
170.7041
 20
-177.726
  0
SEQEND
  0
ENDBLK
  0
BLOCK
  8
LAYER_1
  2
AIGNBL0101022A
 70
64
 10
0
 20
0
 30
0
  3
AIGNBL0101022A
  0
POLYLINE
  8
LAYER_1
 40
0.1058
 41
0.1058
 66
1
 10
0
 20
0
 30
0
  0
VERTEX
  8
LAYER_1
 10
170.4258
 20
-168.5467
  0
VERTEX
  8
LAYER_1
 10
170.4258
 20
-170.7029
  0
SEQEND
  0
ENDBLK
  0
BLOCK
  8
LAYER_1
  2
AIGNBL0101022B
 70
64
 10
0
 20
0
 30
0
  3
AIGNBL0101022B
  0
POLYLINE
  8
LAYER_1
 40
0.1058
 41
0.1058
 66
1
 10
0
 20
0
 30
0
  0
VERTEX
  8
LAYER_1
 10
170.6758
 20
-168.2967
  0
VERTEX
  8
LAYER_1
 10
170.4258
 20
-168.5467
  0
SEQEND
  0
ENDBLK
  0
BLOCK
  8
LAYER_1
  2
AIGNBL0101022C
 70
64
 10
0
 20
0
 30
0
  3
AIGNBL0101022C
  0
POLYLINE
  8
LAYER_1
 40
0.1058
 41
0.1058
 66
1
 10
0
 20
0
 30
0
  0
VERTEX
  8
LAYER_1
 10
172.5083
 20
-170.311
  0
VERTEX
  8
LAYER_1
 10
170.4258
 20
-170.311
  0
SEQEND
  0
ENDBLK
  0
BLOCK
  8
LAYER_1
  2
AIGNBL0101022D
 70
64
 10
0
 20
0
 30
0
  3
AIGNBL0101022D
  0
POLYLINE
  8
LAYER_1
 40
0.1799
 41
0.1799
 66
1
 10
0
 20
0
 30
0
  0
VERTEX
  8
LAYER_1
 10
170.6341
 20
-168.3384
  0
VERTEX
  8
LAYER_1
 10
170.6341
 20
-170.311
  0
SEQEND
  0
ENDBLK
  0
BLOCK
  8
LAYER_1
  2
AIGNBL0101022E
 70
64
 10
0
 20
0
 30
0
  3
AIGNBL0101022E
  0
POLYLINE
  8
LAYER_1
 40
0.1058
 41
0.1058
 66
1
 10
0
 20
0
 30
0
  0
VERTEX
  8
LAYER_1
 10
170.6341
 20
-170.311
  0
VERTEX
  8
LAYER_1
 10
170.4258
 20
-170.6717
  0
SEQEND
  0
ENDBLK
  0
BLOCK
  8
LAYER_1
  2
AIGNBL0101022F
 70
64
 10
0
 20
0
 30
0
  3
AIGNBL0101022F
  0
POLYLINE
  8
LAYER_1
 40
0.1058
 41
0.1058
 66
1
 10
0
 20
0
 30
0
  0
VERTEX
  8
LAYER_1
 10
170.4258
 20
-168.5467
  0
VERTEX
  8
LAYER_1
 10
172.5083
 20
-168.5467
  0
SEQEND
  0
ENDBLK
  0
BLOCK
  8
LAYER_1
  2
AIGNBL01010230
 70
64
 10
0
 20
0
 30
0
  3
AIGNBL01010230
  0
INSERT
  8
LAYER_1
  2
AIGNBL01020231
 10
0
 20
0
 30
0
  0
INSERT
  8
LAYER_1
  2
AIGNBL01020232
 10
0
 20
0
 30
0
  0
INSERT
  8
LAYER_1
  2
AIGNBL01020233
 10
0
 20
0
 30
0
  0
INSERT
  8
LAYER_1
  2
AIGNBL01020234
 10
0
 20
0
 30
0
  0
INSERT
  8
LAYER_1
  2
AIGNBL01020235
 10
0
 20
0
 30
0
  0
INSERT
  8
LAYER_1
  2
AIGNBL01020236
 10
0
 20
0
 30
0
  0
ENDBLK
  0
BLOCK
  8
LAYER_1
  2
AIGNBL01010237
 70
64
 10
0
 20
0
 30
0
  3
AIGNBL01010237
  0
INSERT
  8
LAYER_1
  2
AIGNBL01020238
 10
0
 20
0
 30
0
  0
INSERT
  8
LAYER_1
  2
AIGNBL01020239
 10
0
 20
0
 30
0
  0
INSERT
  8
LAYER_1
  2
AIGNBL0102023A
 10
0
 20
0
 30
0
  0
INSERT
  8
LAYER_1
  2
AIGNBL0102023B
 10
0
 20
0
 30
0
  0
INSERT
  8
LAYER_1
  2
AIGNBL0102023C
 10
0
 20
0
 30
0
  0
INSERT
  8
LAYER_1
  2
AIGNBL0102023D
 10
0
 20
0
 30
0
  0
INSERT
  8
LAYER_1
  2
AIGNBL0102023E
 10
0
 20
0
 30
0
  0
ENDBLK
  0
BLOCK
  8
LAYER_1
  2
AIGNBL0101023F
 70
64
 10
0
 20
0
 30
0
  3
AIGNBL0101023F
  0
CIRCLE
  8
LAYER_1
 10
133.6048
 20
-155.6743
 40
4.375
  0
ENDBLK
  0
BLOCK
  8
LAYER_1
  2
AIGNBL01010240
 70
64
 10
0
 20
0
 30
0
  3
AIGNBL01010240
  0
POLYLINE
  8
LAYER_1
 40
0.1058
 41
0.1058
 66
1
 10
0
 20
0
 30
0
  0
VERTEX
  8
LAYER_1
 10
133.1673
 20
-155.6743
  0
VERTEX
  8
LAYER_1
 10
134.0423
 20
-155.6743
  0
SEQEND
  0
ENDBLK
  0
BLOCK
  8
LAYER_1
  2
AIGNBL01010241
 70
64
 10
0
 20
0
 30
0
  3
AIGNBL01010241
  0
POLYLINE
  8
LAYER_1
 40
0.1058
 41
0.1058
 66
1
 10
0
 20
0
 30
0
  0
VERTEX
  8
LAYER_1
 10
133.6048
 20
-156.1118
  0
VERTEX
  8
LAYER_1
 10
133.6048
 20
-155.2368
  0
SEQEND
  0
ENDBLK
  0
BLOCK
  8
LAYER_1
  2
AIGNBL01010242
 70
64
 10
0
 20
0
 30
0
  3
AIGNBL01010242
  0
POLYLINE
  8
LAYER_1
  6
AIGENLINE003
 40
0.1058
 41
0.1058
 66
1
 10
0
 20
0
 30
0
 70
128
  0
VERTEX
  8
LAYER_1
 10
128.3548
 20
-155.6743
  0
VERTEX
  8
LAYER_1
 10
132.7298
 20
-155.6743
  0
SEQEND
  0
ENDBLK
  0
BLOCK
  8
LAYER_1
  2
AIGNBL01010243
 70
64
 10
0
 20
0
 30
0
  3
AIGNBL01010243
  0
POLYLINE
  8
LAYER_1
  6
AIGENLINE003
 40
0.1058
 41
0.1058
 66
1
 10
0
 20
0
 30
0
 70
128
  0
VERTEX
  8
LAYER_1
 10
134.4798
 20
-155.6743
  0
VERTEX
  8
LAYER_1
 10
138.8548
 20
-155.6743
  0
SEQEND
  0
ENDBLK
  0
BLOCK
  8
LAYER_1
  2
AIGNBL01010244
 70
64
 10
0
 20
0
 30
0
  3
AIGNBL01010244
  0
POLYLINE
  8
LAYER_1
  6
AIGENLINE003
 40
0.1058
 41
0.1058
 66
1
 10
0
 20
0
 30
0
 70
128
  0
VERTEX
  8
LAYER_1
 10
133.6048
 20
-160.9243
  0
VERTEX
  8
LAYER_1
 10
133.6048
 20
-156.5493
  0
SEQEND
  0
ENDBLK
  0
BLOCK
  8
LAYER_1
  2
AIGNBL01010245
 70
64
 10
0
 20
0
 30
0
  3
AIGNBL01010245
  0
POLYLINE
  8
LAYER_1
  6
AIGENLINE003
 40
0.1058
 41
0.1058
 66
1
 10
0
 20
0
 30
0
 70
128
  0
VERTEX
  8
LAYER_1
 10
133.6048
 20
-154.7993
  0
VERTEX
  8
LAYER_1
 10
133.6048
 20
-150.4243
  0
SEQEND
  0
ENDBLK
  0
BLOCK
  8
LAYER_1
  2
AIGNBL01010246
 70
64
 10
0
 20
0
 30
0
  3
AIGNBL01010246
  0
INSERT
  8
LAYER_1
  2
AIGNBL01020247
 10
0
 20
0
 30
0
  0
INSERT
  8
LAYER_1
  2
AIGNBL01020248
 10
0
 20
0
 30
0
  0
INSERT
  8
LAYER_1
  2
AIGNBL01020249
 10
0
 20
0
 30
0
  0
INSERT
  8
LAYER_1
  2
AIGNBL0102024A
 10
0
 20
0
 30
0
  0
INSERT
  8
LAYER_1
  2
AIGNBL0102024B
 10
0
 20
0
 30
0
  0
INSERT
  8
LAYER_1
  2
AIGNBL0102024C
 10
0
 20
0
 30
0
  0
ENDBLK
  0
BLOCK
  8
LAYER_1
  2
AIGNBL0101024D
 70
64
 10
0
 20
0
 30
0
  3
AIGNBL0101024D
  0
TEXT
  8
LAYER_1
 10
124.7749
 20
-165.3543
 11
124.7749
 21
-165.3543
 40
3.473
 41
0.5
  1
水栓取付孔
  0
ENDBLK
  0
BLOCK
  8
LAYER_1
  2
AIGNBL0101024E
 70
64
 10
0
 20
0
 30
0
  3
AIGNBL0101024E
  0
POLYLINE
  8
LAYER_1
  6
AIGENLINE004
 40
0.1058
 41
0.1058
 66
1
 10
0
 20
0
 30
0
 70
128
  0
VERTEX
  8
LAYER_1
 10
145.2019
 20
-140.1478
  0
VERTEX
  8
LAYER_1
 10
122.0181
 20
-140.1478
  0
SEQEND
  0
ENDBLK
  0
BLOCK
  8
LAYER_1
  2
AIGNBL0101024F
 70
64
 10
0
 20
0
 30
0
  3
AIGNBL0101024F
  0
POLYLINE
  8
LAYER_1
  6
AIGENLINE004
 40
0.1058
 41
0.1058
 66
1
 10
0
 20
0
 30
0
 70
128
  0
VERTEX
  8
LAYER_1
 10
122.0181
 20
-140.1478
 42
0.4142187836
  0
VERTEX
  8
LAYER_1
 10
119.5181
 20
-142.6478
  0
SEQEND
  0
ENDBLK
  0
BLOCK
  8
LAYER_1
  2
AIGNBL01010250
 70
64
 10
0
 20
0
 30
0
  3
AIGNBL01010250
  0
POLYLINE
  8
LAYER_1
  6
AIGENLINE004
 40
0.1058
 41
0.1058
 66
1
 10
0
 20
0
 30
0
 70
128
  0
VERTEX
  8
LAYER_1
 10
119.5181
 20
-142.6478
  0
VERTEX
  8
LAYER_1
 10
119.5181
 20
-164.8325
  0
SEQEND
  0
ENDBLK
  0
BLOCK
  8
LAYER_1
  2
AIGNBL01010251
 70
64
 10
0
 20
0
 30
0
  3
AIGNBL01010251
  0
POLYLINE
  8
LAYER_1
  6
AIGENLINE004
 40
0.1058
 41
0.1058
 66
1
 10
0
 20
0
 30
0
 70
128
  0
VERTEX
  8
LAYER_1
 10
119.5181
 20
-164.8325
 42
0.4142182887
  0
VERTEX
  8
LAYER_1
 10
122.0181
 20
-167.3325
  0
SEQEND
  0
ENDBLK
  0
BLOCK
  8
LAYER_1
  2
AIGNBL01010252
 70
64
 10
0
 20
0
 30
0
  3
AIGNBL01010252
  0
POLYLINE
  8
LAYER_1
  6
AIGENLINE004
 40
0.1058
 41
0.1058
 66
1
 10
0
 20
0
 30
0
 70
128
  0
VERTEX
  8
LAYER_1
 10
122.0181
 20
-167.3325
  0
VERTEX
  8
LAYER_1
 10
145.2019
 20
-167.3325
  0
SEQEND
  0
ENDBLK
  0
BLOCK
  8
LAYER_1
  2
AIGNBL01010253
 70
64
 10
0
 20
0
 30
0
  3
AIGNBL01010253
  0
POLYLINE
  8
LAYER_1
  6
AIGENLINE004
 40
0.1058
 41
0.1058
 66
1
 10
0
 20
0
 30
0
 70
128
  0
VERTEX
  8
LAYER_1
 10
145.2019
 20
-167.3325
 42
0.4142132091
  0
VERTEX
  8
LAYER_1
 10
147.7019
 20
-164.8325
  0
SEQEND
  0
ENDBLK
  0
BLOCK
  8
LAYER_1
  2
AIGNBL01010254
 70
64
 10
0
 20
0
 30
0
  3
AIGNBL01010254
  0
POLYLINE
  8
LAYER_1
  6
AIGENLINE004
 40
0.1058
 41
0.1058
 66
1
 10
0
 20
0
 30
0
 70
128
  0
VERTEX
  8
LAYER_1
 10
147.7019
 20
-164.8325
  0
VERTEX
  8
LAYER_1
 10
147.7019
 20
-142.6478
  0
SEQEND
  0
ENDBLK
  0
BLOCK
  8
LAYER_1
  2
AIGNBL01010255
 70
64
 10
0
 20
0
 30
0
  3
AIGNBL01010255
  0
POLYLINE
  8
LAYER_1
  6
AIGENLINE004
 40
0.1058
 41
0.1058
 66
1
 10
0
 20
0
 30
0
 70
128
  0
VERTEX
  8
LAYER_1
 10
147.7019
 20
-142.6478
 42
0.414213704
  0
VERTEX
  8
LAYER_1
 10
145.2019
 20
-140.1478
  0
SEQEND
  0
ENDBLK
  0
BLOCK
  8
LAYER_1
  2
AIGNBL01010256
 70
64
 10
0
 20
0
 30
0
  3
AIGNBL01010256
  0
POLYLINE
  8
LAYER_1
 40
0.1058
 41
0.1058
 66
1
 10
0
 20
0
 30
0
  0
VERTEX
  8
LAYER_1
 10
164.5083
 20
-53.2595
 42
0.4142180686
  0
VERTEX
  8
LAYER_1
 10
165.7583
 20
-54.5095
  0
SEQEND
  0
ENDBLK
  0
BLOCK
  8
LAYER_1
  2
AIGNBL01010257
 70
64
 10
0
 20
0
 30
0
  3
AIGNBL01010257
  0
POLYLINE
  8
LAYER_1
 40
0.1058
 41
0.1058
 66
1
 10
0
 20
0
 30
0
  0
VERTEX
  8
LAYER_1
 10
165.7583
 20
-54.5095
  0
VERTEX
  8
LAYER_1
 10
166.2424
 20
-54.5095
  0
SEQEND
  0
ENDBLK
  0
BLOCK
  8
LAYER_1
  2
AIGNBL01010258
 70
64
 10
0
 20
0
 30
0
  3
AIGNBL01010258
  0
POLYLINE
  8
LAYER_1
 40
0.1058
 41
0.1058
 66
1
 10
0
 20
0
 30
0
  0
VERTEX
  8
LAYER_1
 10
175.2742
 20
-54.5095
  0
VERTEX
  8
LAYER_1
 10
175.7583
 20
-54.5095
  0
SEQEND
  0
ENDBLK
  0
BLOCK
  8
LAYER_1
  2
AIGNBL01010259
 70
64
 10
0
 20
0
 30
0
  3
AIGNBL01010259
  0
POLYLINE
  8
LAYER_1
 40
0.1058
 41
0.1058
 66
1
 10
0
 20
0
 30
0
  0
VERTEX
  8
LAYER_1
 10
175.7583
 20
-54.5095
 42
0.4142323938
  0
VERTEX
  8
LAYER_1
 10
177.0083
 20
-53.2595
  0
SEQEND
  0
ENDBLK
  0
BLOCK
  8
LAYER_1
  2
AIGNBL0101025A
 70
64
 10
0
 20
0
 30
0
  3
AIGNBL0101025A
  0
POLYLINE
  8
LAYER_1
 40
0.1058
 41
0.1058
 66
1
 10
0
 20
0
 30
0
  0
VERTEX
  8
LAYER_1
 10
177.0083
 20
-53.2595
  0
VERTEX
  8
LAYER_1
 10
177.0083
 20
-43.2595
  0
SEQEND
  0
ENDBLK
  0
BLOCK
  8
LAYER_1
  2
AIGNBL0101025B
 70
64
 10
0
 20
0
 30
0
  3
AIGNBL0101025B
  0
POLYLINE
  8
LAYER_1
 40
0.1058
 41
0.1058
 66
1
 10
0
 20
0
 30
0
  0
VERTEX
  8
LAYER_1
 10
177.0083
 20
-43.2595
 42
0.4142090565
  0
VERTEX
  8
LAYER_1
 10
175.7583
 20
-42.0095
  0
SEQEND
  0
ENDBLK
  0
BLOCK
  8
LAYER_1
  2
AIGNBL0101025C
 70
64
 10
0
 20
0
 30
0
  3
AIGNBL0101025C
  0
POLYLINE
  8
LAYER_1
 40
0.1058
 41
0.1058
 66
1
 10
0
 20
0
 30
0
  0
VERTEX
  8
LAYER_1
 10
175.7583
 20
-42.0095
  0
VERTEX
  8
LAYER_1
 10
165.7583
 20
-42.0095
  0
SEQEND
  0
ENDBLK
  0
BLOCK
  8
LAYER_1
  2
AIGNBL0101025D
 70
64
 10
0
 20
0
 30
0
  3
AIGNBL0101025D
  0
POLYLINE
  8
LAYER_1
 40
0.1058
 41
0.1058
 66
1
 10
0
 20
0
 30
0
  0
VERTEX
  8
LAYER_1
 10
165.7583
 20
-42.0095
 42
0.4141947335
  0
VERTEX
  8
LAYER_1
 10
164.5083
 20
-43.2595
  0
SEQEND
  0
ENDBLK
  0
BLOCK
  8
LAYER_1
  2
AIGNBL0101025E
 70
64
 10
0
 20
0
 30
0
  3
AIGNBL0101025E
  0
POLYLINE
  8
LAYER_1
 40
0.1058
 41
0.1058
 66
1
 10
0
 20
0
 30
0
  0
VERTEX
  8
LAYER_1
 10
164.5083
 20
-43.2595
  0
VERTEX
  8
LAYER_1
 10
164.5083
 20
-43.6345
  0
SEQEND
  0
ENDBLK
  0
BLOCK
  8
LAYER_1
  2
AIGNBL0101025F
 70
64
 10
0
 20
0
 30
0
  3
AIGNBL0101025F
  0
POLYLINE
  8
LAYER_1
 40
0.1058
 41
0.1058
 66
1
 10
0
 20
0
 30
0
  0
VERTEX
  8
LAYER_1
 10
164.5083
 20
-52.8845
  0
VERTEX
  8
LAYER_1
 10
164.5083
 20
-53.2595
  0
SEQEND
  0
ENDBLK
  0
BLOCK
  8
LAYER_1
  2
AIGNBL01010260
 70
64
 10
0
 20
0
 30
0
  3
AIGNBL01010260
  0
POLYLINE
  8
LAYER_1
 40
0.1058
 41
0.1058
 66
1
 10
0
 20
0
 30
0
  0
VERTEX
  8
LAYER_1
 10
170.7583
 20
-52.8845
 42
0.4142186517
  0
VERTEX
  8
LAYER_1
 10
175.3833
 20
-48.2595
 42
0.4142123445
  0
VERTEX
  8
LAYER_1
 10
170.7583
 20
-43.6345
  0
SEQEND
  0
ENDBLK
  0
BLOCK
  8
LAYER_1
  2
AIGNBL01010261
 70
64
 10
0
 20
0
 30
0
  3
AIGNBL01010261
  0
POLYLINE
  8
LAYER_1
 40
0.1058
 41
0.1058
 66
1
 10
0
 20
0
 30
0
  0
VERTEX
  8
LAYER_1
 10
170.7583
 20
-43.6345
  0
VERTEX
  8
LAYER_1
 10
134.5083
 20
-43.6345
  0
SEQEND
  0
ENDBLK
  0
BLOCK
  8
LAYER_1
  2
AIGNBL01010262
 70
64
 10
0
 20
0
 30
0
  3
AIGNBL01010262
  0
POLYLINE
  8
LAYER_1
 40
0.1058
 41
0.1058
 66
1
 10
0
 20
0
 30
0
  0
VERTEX
  8
LAYER_1
 10
134.5083
 20
-43.6345
 42
0.4141821846
  0
VERTEX
  8
LAYER_1
 10
133.7583
 20
-44.3845
  0
SEQEND
  0
ENDBLK
  0
BLOCK
  8
LAYER_1
  2
AIGNBL01010263
 70
64
 10
0
 20
0
 30
0
  3
AIGNBL01010263
  0
POLYLINE
  8
LAYER_1
 40
0.1058
 41
0.1058
 66
1
 10
0
 20
0
 30
0
  0
VERTEX
  8
LAYER_1
 10
133.7583
 20
-44.3845
  0
VERTEX
  8
LAYER_1
 10
133.7583
 20
-52.1345
  0
SEQEND
  0
ENDBLK
  0
BLOCK
  8
LAYER_1
  2
AIGNBL01010264
 70
64
 10
0
 20
0
 30
0
  3
AIGNBL01010264
  0
POLYLINE
  8
LAYER_1
 40
0.1058
 41
0.1058
 66
1
 10
0
 20
0
 30
0
  0
VERTEX
  8
LAYER_1
 10
133.7583
 20
-52.1345
 42
0.4142210749
  0
VERTEX
  8
LAYER_1
 10
134.5083
 20
-52.8845
  0
SEQEND
  0
ENDBLK
  0
BLOCK
  8
LAYER_1
  2
AIGNBL01010265
 70
64
 10
0
 20
0
 30
0
  3
AIGNBL01010265
  0
POLYLINE
  8
LAYER_1
 40
0.1058
 41
0.1058
 66
1
 10
0
 20
0
 30
0
  0
VERTEX
  8
LAYER_1
 10
134.5083
 20
-52.8845
  0
VERTEX
  8
LAYER_1
 10
170.7583
 20
-52.8845
  0
SEQEND
  0
ENDBLK
  0
BLOCK
  8
LAYER_1
  2
AIGNBL01010266
 70
64
 10
0
 20
0
 30
0
  3
AIGNBL01010266
  0
POLYLINE
  8
LAYER_1
 40
0.1058
 41
0.1058
 66
1
 10
0
 20
0
 30
0
  0
VERTEX
  8
LAYER_1
 10
166.2183
 20
-53.1302
  0
VERTEX
  8
LAYER_1
 10
166.2621
 20
-55.6345
  0
SEQEND
  0
ENDBLK
  0
BLOCK
  8
LAYER_1
  2
AIGNBL01010267
 70
64
 10
0
 20
0
 30
0
  3
AIGNBL01010267
  0
POLYLINE
  8
LAYER_1
 40
0.1058
 41
0.1058
 66
1
 10
0
 20
0
 30
0
  0
VERTEX
  8
LAYER_1
 10
175.3805
 20
-48.4231
  0
VERTEX
  8
LAYER_1
 10
175.2546
 20
-55.6345
  0
SEQEND
  0
ENDBLK
  0
BLOCK
  8
LAYER_1
  2
AIGNBL01010268
 70
64
 10
0
 20
0
 30
0
  3
AIGNBL01010268
  0
POLYLINE
  8
LAYER_1
 40
0.1058
 41
0.1058
 66
1
 10
0
 20
0
 30
0
  0
VERTEX
  8
LAYER_1
 10
166.2621
 20
-55.6345
  0
VERTEX
  8
LAYER_1
 10
175.2546
 20
-55.6345
  0
SEQEND
  0
ENDBLK
  0
BLOCK
  8
LAYER_1
  2
AIGNBL01010269
 70
64
 10
0
 20
0
 30
0
  3
AIGNBL01010269
  0
POLYLINE
  8
LAYER_1
 40
0.1058
 41
0.1058
 66
1
 10
0
 20
0
 30
0
  0
VERTEX
  8
LAYER_1
 10
173.5902
 20
-56.0134
  0
VERTEX
  8
LAYER_1
 10
167.4266
 20
-56.0134
  0
VERTEX
  8
LAYER_1
 10
166.403
 20
-56.0134
  0
SEQEND
  0
ENDBLK
  0
BLOCK
  8
LAYER_1
  2
AIGNBL0101026A
 70
64
 10
0
 20
0
 30
0
  3
AIGNBL0101026A
  0
POLYLINE
  8
LAYER_1
 40
0.1058
 41
0.1058
 66
1
 10
0
 20
0
 30
0
  0
VERTEX
  8
LAYER_1
 10
173.5902
 20
-56.0134
 42
-0.05522813391
  0
VERTEX
  8
LAYER_1
 10
174.7177
 20
-56.8505
 42
-0.1126906363
  0
VERTEX
  8
LAYER_1
 10
175.1231
 20
-57.4124
 42
-0.05740521708
  0
VERTEX
  8
LAYER_1
 10
175.153
 20
-57.5762
  0
SEQEND
  0
ENDBLK
  0
BLOCK
  8
LAYER_1
  2
AIGNBL0101026B
 70
64
 10
0
 20
0
 30
0
  3
AIGNBL0101026B
  0
POLYLINE
  8
LAYER_1
 40
0.1058
 41
0.1058
 66
1
 10
0
 20
0
 30
0
  0
VERTEX
  8
LAYER_1
 10
174.903
 20
-62.5134
  0
VERTEX
  8
LAYER_1
 10
170.778
 20
-62.5134
  0
VERTEX
  8
LAYER_1
 10
168.133
 20
-62.5134
  0
SEQEND
  0
ENDBLK
  0
BLOCK
  8
LAYER_1
  2
AIGNBL0101026C
 70
64
 10
0
 20
0
 30
0
  3
AIGNBL0101026C
  0
POLYLINE
  8
LAYER_1
 40
0.1058
 41
0.1058
 66
1
 10
0
 20
0
 30
0
  0
VERTEX
  8
LAYER_1
 10
167.0423
 20
-57.5134
  0
VERTEX
  8
LAYER_1
 10
167.0423
 20
-57.5134
  0
SEQEND
  0
ENDBLK
  0
BLOCK
  8
LAYER_1
  2
AIGNBL0101026D
 70
64
 10
0
 20
0
 30
0
  3
AIGNBL0101026D
  0
POLYLINE
  8
LAYER_1
 40
0.1058
 41
0.1058
 66
1
 10
0
 20
0
 30
0
  0
VERTEX
  8
LAYER_1
 10
167.491
 20
-62.5134
  0
VERTEX
  8
LAYER_1
 10
168.133
 20
-62.5134
  0
SEQEND
  0
ENDBLK
  0
BLOCK
  8
LAYER_1
  2
AIGNBL0101026E
 70
64
 10
0
 20
0
 30
0
  3
AIGNBL0101026E
  0
POLYLINE
  8
LAYER_1
 40
0.1058
 41
0.1058
 66
1
 10
0
 20
0
 30
0
  0
VERTEX
  8
LAYER_1
 10
160.1585
 20
-62.5134
  0
VERTEX
  8
LAYER_1
 10
167.491
 20
-62.5134
  0
SEQEND
  0
ENDBLK
  0
BLOCK
  8
LAYER_1
  2
AIGNBL0101026F
 70
64
 10
0
 20
0
 30
0
  3
AIGNBL0101026F
  0
POLYLINE
  8
LAYER_1
 40
0.1058
 41
0.1058
 66
1
 10
0
 20
0
 30
0
  0
VERTEX
  8
LAYER_1
 10
159.7568
 20
-62.5134
  0
VERTEX
  8
LAYER_1
 10
160.1585
 20
-62.5134
  0
SEQEND
  0
ENDBLK
  0
BLOCK
  8
LAYER_1
  2
AIGNBL01010270
 70
64
 10
0
 20
0
 30
0
  3
AIGNBL01010270
  0
POLYLINE
  8
LAYER_1
 40
0.1058
 41
0.1058
 66
1
 10
0
 20
0
 30
0
  0
VERTEX
  8
LAYER_1
 10
160.1585
 20
-57.5134
  0
VERTEX
  8
LAYER_1
 10
159.7568
 20
-57.5134
  0
SEQEND
  0
ENDBLK
  0
BLOCK
  8
LAYER_1
  2
AIGNBL01010271
 70
64
 10
0
 20
0
 30
0
  3
AIGNBL01010271
  0
POLYLINE
  8
LAYER_1
 40
0.1058
 41
0.1058
 66
1
 10
0
 20
0
 30
0
  0
VERTEX
  8
LAYER_1
 10
167.444
 20
-57.5134
  0
VERTEX
  8
LAYER_1
 10
160.1585
 20
-57.5134
  0
SEQEND
  0
ENDBLK
  0
BLOCK
  8
LAYER_1
  2
AIGNBL01010272
 70
64
 10
0
 20
0
 30
0
  3
AIGNBL01010272
  0
POLYLINE
  8
LAYER_1
 40
0.1058
 41
0.1058
 66
1
 10
0
 20
0
 30
0
  0
VERTEX
  8
LAYER_1
 10
175.3806
 20
-48.419
  0
VERTEX
  8
LAYER_1
 10
175.3806
 20
-48.4189
  0
VERTEX
  8
LAYER_1
 10
175.3806
 20
-48.4189
  0
VERTEX
  8
LAYER_1
 10
175.3806
 20
-48.419
  0
VERTEX
  8
LAYER_1
 10
175.3806
 20
-48.4191
  0
VERTEX
  8
LAYER_1
 10
175.3806
 20
-48.4192
  0
VERTEX
  8
LAYER_1
 10
175.3806
 20
-48.4193
  0
VERTEX
  8
LAYER_1
 10
175.3806
 20
-48.4199
  0
VERTEX
  8
LAYER_1
 10
175.3805
 20
-48.421
  0
VERTEX
  8
LAYER_1
 10
175.3805
 20
-48.4231
  0
SEQEND
  0
ENDBLK
  0
BLOCK
  8
LAYER_1
  2
AIGNBL01010273
 70
64
 10
0
 20
0
 30
0
  3
AIGNBL01010273
  0
POLYLINE
  8
LAYER_1
 40
0.1058
 41
0.1058
 66
1
 10
0
 20
0
 30
0
  0
VERTEX
  8
LAYER_1
 10
165.9684
 20
-52.8845
 42
-0.4091089296
  0
VERTEX
  8
LAYER_1
 10
166.2183
 20
-53.1302
  0
SEQEND
  0
ENDBLK
  0
BLOCK
  8
LAYER_1
  2
AIGNBL01010274
 70
64
 10
0
 20
0
 30
0
  3
AIGNBL01010274
  0
POLYLINE
  8
LAYER_1
 40
0.1058
 41
0.1058
 66
1
 10
0
 20
0
 30
0
  0
VERTEX
  8
LAYER_1
 10
166.7951
 20
-56.0134
  0
VERTEX
  8
LAYER_1
 10
166.6958
 20
-55.6345
  0
SEQEND
  0
ENDBLK
  0
BLOCK
  8
LAYER_1
  2
AIGNBL01010275
 70
64
 10
0
 20
0
 30
0
  3
AIGNBL01010275
  0
POLYLINE
  8
LAYER_1
 40
0.1058
 41
0.1058
 66
1
 10
0
 20
0
 30
0
  0
VERTEX
  8
LAYER_1
 10
174.5441
 20
-56.6913
  0
VERTEX
  8
LAYER_1
 10
174.8208
 20
-55.6345
  0
SEQEND
  0
ENDBLK
  0
BLOCK
  8
LAYER_1
  2
AIGNBL01010276
 70
64
 10
0
 20
0
 30
0
  3
AIGNBL01010276
  0
POLYLINE
  8
LAYER_1
 40
0.1058
 41
0.1058
 66
1
 10
0
 20
0
 30
0
  0
VERTEX
  8
LAYER_1
 10
175.153
 20
-57.5762
  0
VERTEX
  8
LAYER_1
 10
175.153
 20
-62.2634
  0
SEQEND
  0
ENDBLK
  0
BLOCK
  8
LAYER_1
  2
AIGNBL01010277
 70
64
 10
0
 20
0
 30
0
  3
AIGNBL01010277
  0
POLYLINE
  8
LAYER_1
 40
0.1058
 41
0.1058
 66
1
 10
0
 20
0
 30
0
  0
VERTEX
  8
LAYER_1
 10
166.403
 20
-56.0134
  0
VERTEX
  8
LAYER_1
 10
166.403
 20
-57.5134
  0
SEQEND
  0
ENDBLK
  0
BLOCK
  8
LAYER_1
  2
AIGNBL01010278
 70
64
 10
0
 20
0
 30
0
  3
AIGNBL01010278
  0
POLYLINE
  8
LAYER_1
 40
0.1058
 41
0.1058
 66
1
 10
0
 20
0
 30
0
  0
VERTEX
  8
LAYER_1
 10
175.153
 20
-62.2634
 42
-0.4142607311
  0
VERTEX
  8
LAYER_1
 10
174.903
 20
-62.5134
  0
SEQEND
  0
ENDBLK
  0
BLOCK
  8
LAYER_1
  2
AIGNBL01010279
 70
64
 10
0
 20
0
 30
0
  3
AIGNBL01010279
  0
POLYLINE
  8
LAYER_1
 40
0.1058
 41
0.1058
 66
1
 10
0
 20
0
 30
0
  0
VERTEX
  8
LAYER_1
 10
167.0423
 20
-57.5134
  0
VERTEX
  8
LAYER_1
 10
167.0758
 20
-57.5056
  0
VERTEX
  8
LAYER_1
 10
167.0819
 20
-57.5017
  0
SEQEND
  0
ENDBLK
  0
BLOCK
  8
LAYER_1
  2
AIGNBL0101027A
 70
64
 10
0
 20
0
 30
0
  3
AIGNBL0101027A
  0
POLYLINE
  8
LAYER_1
 40
0.1058
 41
0.1058
 66
1
 10
0
 20
0
 30
0
  0
VERTEX
  8
LAYER_1
 10
159.1237
 20
-61.7634
  0
VERTEX
  8
LAYER_1
 10
159.1499
 20
-61.9783
  0
VERTEX
  8
LAYER_1
 10
159.2284
 20
-62.1789
  0
VERTEX
  8
LAYER_1
 10
159.3596
 20
-62.3493
  0
VERTEX
  8
LAYER_1
 10
159.5408
 20
-62.4691
  0
VERTEX
  8
LAYER_1
 10
159.7356
 20
-62.513
  0
VERTEX
  8
LAYER_1
 10
159.7568
 20
-62.5134
  0
SEQEND
  0
ENDBLK
  0
BLOCK
  8
LAYER_1
  2
AIGNBL0101027B
 70
64
 10
0
 20
0
 30
0
  3
AIGNBL0101027B
  0
POLYLINE
  8
LAYER_1
 40
0.1058
 41
0.1058
 66
1
 10
0
 20
0
 30
0
  0
VERTEX
  8
LAYER_1
 10
159.1237
 20
-61.7634
  0
VERTEX
  8
LAYER_1
 10
159.1237
 20
-58.2634
  0
SEQEND
  0
ENDBLK
  0
BLOCK
  8
LAYER_1
  2
AIGNBL0101027C
 70
64
 10
0
 20
0
 30
0
  3
AIGNBL0101027C
  0
POLYLINE
  8
LAYER_1
 40
0.1058
 41
0.1058
 66
1
 10
0
 20
0
 30
0
  0
VERTEX
  8
LAYER_1
 10
159.1237
 20
-58.2634
  0
VERTEX
  8
LAYER_1
 10
159.1499
 20
-58.0485
  0
VERTEX
  8
LAYER_1
 10
159.2284
 20
-57.848
  0
VERTEX
  8
LAYER_1
 10
159.3596
 20
-57.6775
  0
VERTEX
  8
LAYER_1
 10
159.5408
 20
-57.5577
  0
VERTEX
  8
LAYER_1
 10
159.7356
 20
-57.5138
  0
VERTEX
  8
LAYER_1
 10
159.7568
 20
-57.5134
  0
SEQEND
  0
ENDBLK
  0
BLOCK
  8
LAYER_1
  2
AIGNBL0101027D
 70
64
 10
0
 20
0
 30
0
  3
AIGNBL0101027D
  0
POLYLINE
  8
LAYER_1
 40
0.1058
 41
0.1058
 66
1
 10
0
 20
0
 30
0
  0
VERTEX
  8
LAYER_1
 10
96.2337
 20
-124.8903
  0
VERTEX
  8
LAYER_1
 10
97.4837
 20
-124.8903
  0
SEQEND
  0
ENDBLK
  0
BLOCK
  8
LAYER_1
  2
AIGNBL0101027E
 70
64
 10
0
 20
0
 30
0
  3
AIGNBL0101027E
  0
POLYLINE
  8
LAYER_1
 40
0.1058
 41
0.1058
 66
1
 10
0
 20
0
 30
0
  0
VERTEX
  8
LAYER_1
 10
86.2337
 20
-124.8903
  0
VERTEX
  8
LAYER_1
 10
96.2337
 20
-124.8903
  0
SEQEND
  0
ENDBLK
  0
BLOCK
  8
LAYER_1
  2
AIGNBL0101027F
 70
64
 10
0
 20
0
 30
0
  3
AIGNBL0101027F
  0
POLYLINE
  8
LAYER_1
 40
0.1058
 41
0.1058
 66
1
 10
0
 20
0
 30
0
  0
VERTEX
  8
LAYER_1
 10
84.9837
 20
-124.8903
  0
VERTEX
  8
LAYER_1
 10
86.2337
 20
-124.8903
  0
SEQEND
  0
ENDBLK
  0
BLOCK
  8
LAYER_1
  2
AIGNBL01010280
 70
64
 10
0
 20
0
 30
0
  3
AIGNBL01010280
  0
POLYLINE
  8
LAYER_1
 40
0.1058
 41
0.1058
 66
1
 10
0
 20
0
 30
0
  0
VERTEX
  8
LAYER_1
 10
97.4837
 20
-124.1403
  0
VERTEX
  8
LAYER_1
 10
97.4837
 20
-124.8903
  0
SEQEND
  0
ENDBLK
  0
BLOCK
  8
LAYER_1
  2
AIGNBL01010281
 70
64
 10
0
 20
0
 30
0
  3
AIGNBL01010281
  0
POLYLINE
  8
LAYER_1
 40
0.1058
 41
0.1058
 66
1
 10
0
 20
0
 30
0
  0
VERTEX
  8
LAYER_1
 10
97.2337
 20
-123.8903
  0
VERTEX
  8
LAYER_1
 10
96.2337
 20
-123.8903
  0
SEQEND
  0
ENDBLK
  0
BLOCK
  8
LAYER_1
  2
AIGNBL01010282
 70
64
 10
0
 20
0
 30
0
  3
AIGNBL01010282
  0
POLYLINE
  8
LAYER_1
 40
0.1058
 41
0.1058
 66
1
 10
0
 20
0
 30
0
  0
VERTEX
  8
LAYER_1
 10
97.2337
 20
-123.8903
 42
-0.4142381569
  0
VERTEX
  8
LAYER_1
 10
97.4837
 20
-124.1403
  0
SEQEND
  0
ENDBLK
  0
BLOCK
  8
LAYER_1
  2
AIGNBL01010283
 70
64
 10
0
 20
0
 30
0
  3
AIGNBL01010283
  0
POLYLINE
  8
LAYER_1
 40
0.1058
 41
0.1058
 66
1
 10
0
 20
0
 30
0
  0
VERTEX
  8
LAYER_1
 10
86.2337
 20
-123.8903
  0
VERTEX
  8
LAYER_1
 10
85.2337
 20
-123.8903
  0
SEQEND
  0
ENDBLK
  0
BLOCK
  8
LAYER_1
  2
AIGNBL01010284
 70
64
 10
0
 20
0
 30
0
  3
AIGNBL01010284
  0
POLYLINE
  8
LAYER_1
 40
0.1058
 41
0.1058
 66
1
 10
0
 20
0
 30
0
  0
VERTEX
  8
LAYER_1
 10
86.2337
 20
-123.8903
  0
VERTEX
  8
LAYER_1
 10
96.2337
 20
-123.8903
  0
SEQEND
  0
ENDBLK
  0
BLOCK
  8
LAYER_1
  2
AIGNBL01010285
 70
64
 10
0
 20
0
 30
0
  3
AIGNBL01010285
  0
POLYLINE
  8
LAYER_1
 40
0.1058
 41
0.1058
 66
1
 10
0
 20
0
 30
0
  0
VERTEX
  8
LAYER_1
 10
85.2337
 20
-123.8903
 42
0.4142076626
  0
VERTEX
  8
LAYER_1
 10
84.9837
 20
-124.1403
  0
SEQEND
  0
ENDBLK
  0
BLOCK
  8
LAYER_1
  2
AIGNBL01010286
 70
64
 10
0
 20
0
 30
0
  3
AIGNBL01010286
  0
POLYLINE
  8
LAYER_1
 40
0.1058
 41
0.1058
 66
1
 10
0
 20
0
 30
0
  0
VERTEX
  8
LAYER_1
 10
84.9837
 20
-124.1403
  0
VERTEX
  8
LAYER_1
 10
84.9837
 20
-124.8903
  0
SEQEND
  0
ENDBLK
  0
BLOCK
  8
LAYER_1
  2
AIGNBL01010287
 70
64
 10
0
 20
0
 30
0
  3
AIGNBL01010287
  0
POLYLINE
  8
LAYER_1
 40
0.1058
 41
0.1058
 66
1
 10
0
 20
0
 30
0
  0
VERTEX
  8
LAYER_1
 10
87.3587
 20
-88.8903
  0
VERTEX
  8
LAYER_1
 10
86.8587
 20
-88.8903
  0
SEQEND
  0
ENDBLK
  0
BLOCK
  8
LAYER_1
  2
AIGNBL01010288
 70
64
 10
0
 20
0
 30
0
  3
AIGNBL01010288
  0
POLYLINE
  8
LAYER_1
 40
0.1058
 41
0.1058
 66
1
 10
0
 20
0
 30
0
  0
VERTEX
  8
LAYER_1
 10
87.3587
 20
-88.8903
  0
VERTEX
  8
LAYER_1
 10
95.1087
 20
-88.8903
  0
SEQEND
  0
ENDBLK
  0
BLOCK
  8
LAYER_1
  2
AIGNBL01010289
 70
64
 10
0
 20
0
 30
0
  3
AIGNBL01010289
  0
POLYLINE
  8
LAYER_1
 40
0.1058
 41
0.1058
 66
1
 10
0
 20
0
 30
0
  0
VERTEX
  8
LAYER_1
 10
95.6087
 20
-88.8903
  0
VERTEX
  8
LAYER_1
 10
95.1087
 20
-88.8903
  0
SEQEND
  0
ENDBLK
  0
BLOCK
  8
LAYER_1
  2
AIGNBL0101028A
 70
64
 10
0
 20
0
 30
0
  3
AIGNBL0101028A
  0
POLYLINE
  8
LAYER_1
 40
0.1058
 41
0.1058
 66
1
 10
0
 20
0
 30
0
  0
VERTEX
  8
LAYER_1
 10
86.8587
 20
-88.8903
 42
0.4142076724
  0
VERTEX
  8
LAYER_1
 10
86.6087
 20
-89.1403
  0
SEQEND
  0
ENDBLK
  0
BLOCK
  8
LAYER_1
  2
AIGNBL0101028B
 70
64
 10
0
 20
0
 30
0
  3
AIGNBL0101028B
  0
POLYLINE
  8
LAYER_1
 40
0.1058
 41
0.1058
 66
1
 10
0
 20
0
 30
0
  0
VERTEX
  8
LAYER_1
 10
95.6087
 20
-88.8903
 42
-0.4142381667
  0
VERTEX
  8
LAYER_1
 10
95.8587
 20
-89.1403
  0
SEQEND
  0
ENDBLK
  0
BLOCK
  8
LAYER_1
  2
AIGNBL0101028C
 70
64
 10
0
 20
0
 30
0
  3
AIGNBL0101028C
  0
POLYLINE
  8
LAYER_1
 40
0.1058
 41
0.1058
 66
1
 10
0
 20
0
 30
0
  0
VERTEX
  8
LAYER_1
 10
95.8587
 20
-89.1403
  0
VERTEX
  8
LAYER_1
 10
95.8587
 20
-92.0153
  0
SEQEND
  0
ENDBLK
  0
BLOCK
  8
LAYER_1
  2
AIGNBL0101028D
 70
64
 10
0
 20
0
 30
0
  3
AIGNBL0101028D
  0
POLYLINE
  8
LAYER_1
 40
0.1058
 41
0.1058
 66
1
 10
0
 20
0
 30
0
  0
VERTEX
  8
LAYER_1
 10
95.8587
 20
-117.2653
  0
VERTEX
  8
LAYER_1
 10
95.8587
 20
-116.2788
  0
VERTEX
  8
LAYER_1
 10
95.8587
 20
-115.1956
  0
VERTEX
  8
LAYER_1
 10
95.8587
 20
-113.9992
  0
VERTEX
  8
LAYER_1
 10
95.8587
 20
-112.6728
  0
VERTEX
  8
LAYER_1
 10
95.8587
 20
-111.2003
  0
VERTEX
  8
LAYER_1
 10
95.8587
 20
-109.5644
  0
VERTEX
  8
LAYER_1
 10
95.8587
 20
-107.714
  0
VERTEX
  8
LAYER_1
 10
95.8587
 20
-105.6004
  0
VERTEX
  8
LAYER_1
 10
95.8587
 20
-103.3691
  0
SEQEND
  0
ENDBLK
  0
BLOCK
  8
LAYER_1
  2
AIGNBL0101028E
 70
64
 10
0
 20
0
 30
0
  3
AIGNBL0101028E
  0
POLYLINE
  8
LAYER_1
 40
0.1058
 41
0.1058
 66
1
 10
0
 20
0
 30
0
  0
VERTEX
  8
LAYER_1
 10
95.8587
 20
-96.4268
  0
VERTEX
  8
LAYER_1
 10
95.8587
 20
-95.2277
  0
SEQEND
  0
ENDBLK
  0
BLOCK
  8
LAYER_1
  2
AIGNBL0101028F
 70
64
 10
0
 20
0
 30
0
  3
AIGNBL0101028F
  0
POLYLINE
  8
LAYER_1
 40
0.1058
 41
0.1058
 66
1
 10
0
 20
0
 30
0
  0
VERTEX
  8
LAYER_1
 10
95.8587
 20
-94.2271
  0
VERTEX
  8
LAYER_1
 10
95.8587
 20
-94.2221
  0
VERTEX
  8
LAYER_1
 10
95.8587
 20
-93.4361
  0
VERTEX
  8
LAYER_1
 10
95.8587
 20
-92.8557
  0
VERTEX
  8
LAYER_1
 10
95.8587
 20
-92.4584
  0
VERTEX
  8
LAYER_1
 10
95.8587
 20
-92.2111
  0
VERTEX
  8
LAYER_1
 10
95.8587
 20
-92.0658
  0
VERTEX
  8
LAYER_1
 10
95.8587
 20
-92.0153
  0
SEQEND
  0
ENDBLK
  0
BLOCK
  8
LAYER_1
  2
AIGNBL01010290
 70
64
 10
0
 20
0
 30
0
  3
AIGNBL01010290
  0
POLYLINE
  8
LAYER_1
 40
0.1058
 41
0.1058
 66
1
 10
0
 20
0
 30
0
  0
VERTEX
  8
LAYER_1
 10
86.6087
 20
-123.8903
  0
VERTEX
  8
LAYER_1
 10
86.6087
 20
-117.2653
  0
SEQEND
  0
ENDBLK
  0
BLOCK
  8
LAYER_1
  2
AIGNBL01010291
 70
64
 10
0
 20
0
 30
0
  3
AIGNBL01010291
  0
POLYLINE
  8
LAYER_1
 40
0.1058
 41
0.1058
 66
1
 10
0
 20
0
 30
0
  0
VERTEX
  8
LAYER_1
 10
95.8587
 20
-123.8903
  0
VERTEX
  8
LAYER_1
 10
95.8587
 20
-117.2653
  0
SEQEND
  0
ENDBLK
  0
BLOCK
  8
LAYER_1
  2
AIGNBL01010292
 70
64
 10
0
 20
0
 30
0
  3
AIGNBL01010292
  0
POLYLINE
  8
LAYER_1
 40
0.1058
 41
0.1058
 66
1
 10
0
 20
0
 30
0
  0
VERTEX
  8
LAYER_1
 10
86.8587
 20
-92.2653
  0
SEQEND
  0
ENDBLK
  0
BLOCK
  8
LAYER_1
  2
AIGNBL01010293
 70
64
 10
0
 20
0
 30
0
  3
AIGNBL01010293
  0
POLYLINE
  8
LAYER_1
 40
0.1058
 41
0.1058
 66
1
 10
0
 20
0
 30
0
  0
VERTEX
  8
LAYER_1
 10
95.6087
 20
-92.2653
  0
SEQEND
  0
ENDBLK
  0
BLOCK
  8
LAYER_1
  2
AIGNBL01010294
 70
64
 10
0
 20
0
 30
0
  3
AIGNBL01010294
  0
POLYLINE
  8
LAYER_1
 40
0.1058
 41
0.1058
 66
1
 10
0
 20
0
 30
0
  0
VERTEX
  8
LAYER_1
 10
86.6087
 20
-92.0153
  0
VERTEX
  8
LAYER_1
 10
86.6087
 20
-92.0637
  0
VERTEX
  8
LAYER_1
 10
86.6087
 20
-92.2254
  0
VERTEX
  8
LAYER_1
 10
86.6087
 20
-92.5489
  0
VERTEX
  8
LAYER_1
 10
86.6087
 20
-93.0771
  0
VERTEX
  8
LAYER_1
 10
86.6087
 20
-93.838
  0
VERTEX
  8
LAYER_1
 10
86.6087
 20
-94.8415
  0
VERTEX
  8
LAYER_1
 10
86.6087
 20
-96.0889
  0
VERTEX
  8
LAYER_1
 10
86.6087
 20
-97.5753
  0
VERTEX
  8
LAYER_1
 10
86.6087
 20
-99.2961
  0
VERTEX
  8
LAYER_1
 10
86.6087
 20
-101.2622
  0
VERTEX
  8
LAYER_1
 10
86.6087
 20
-103.4592
  0
VERTEX
  8
LAYER_1
 10
86.6087
 20
-105.6975
  0
VERTEX
  8
LAYER_1
 10
86.6087
 20
-107.7431
  0
VERTEX
  8
LAYER_1
 10
86.6087
 20
-109.5583
  0
VERTEX
  8
LAYER_1
 10
86.6087
 20
-111.1804
  0
VERTEX
  8
LAYER_1
 10
86.6087
 20
-112.6445
  0
VERTEX
  8
LAYER_1
 10
86.6087
 20
-113.9681
  0
VERTEX
  8
LAYER_1
 10
86.6087
 20
-115.1679
  0
VERTEX
  8
LAYER_1
 10
86.6087
 20
-116.2612
  0
VERTEX
  8
LAYER_1
 10
86.6087
 20
-117.2653
  0
SEQEND
  0
ENDBLK
  0
BLOCK
  8
LAYER_1
  2
AIGNBL01010295
 70
64
 10
0
 20
0
 30
0
  3
AIGNBL01010295
  0
POLYLINE
  8
LAYER_1
 40
0.1058
 41
0.1058
 66
1
 10
0
 20
0
 30
0
  0
VERTEX
  8
LAYER_1
 10
86.6087
 20
-89.1403
  0
VERTEX
  8
LAYER_1
 10
86.6087
 20
-92.0153
  0
SEQEND
  0
ENDBLK
  0
BLOCK
  8
LAYER_1
  2
AIGNBL01010296
 70
64
 10
0
 20
0
 30
0
  3
AIGNBL01010296
  0
POLYLINE
  8
LAYER_1
 40
0.1058
 41
0.1058
 66
1
 10
0
 20
0
 30
0
  0
VERTEX
  8
LAYER_1
 10
95.1087
 20
-92.1903
  0
VERTEX
  8
LAYER_1
 10
95.7872
 20
-92.1903
  0
SEQEND
  0
ENDBLK
  0
BLOCK
  8
LAYER_1
  2
AIGNBL01010297
 70
64
 10
0
 20
0
 30
0
  3
AIGNBL01010297
  0
POLYLINE
  8
LAYER_1
 40
0.1058
 41
0.1058
 66
1
 10
0
 20
0
 30
0
  0
VERTEX
  8
LAYER_1
 10
95.7872
 20
-92.1903
 42
0.1940514824
  0
VERTEX
  8
LAYER_1
 10
95.8587
 20
-92.0153
  0
SEQEND
  0
ENDBLK
  0
BLOCK
  8
LAYER_1
  2
AIGNBL01010298
 70
64
 10
0
 20
0
 30
0
  3
AIGNBL01010298
  0
POLYLINE
  8
LAYER_1
 40
0.1058
 41
0.1058
 66
1
 10
0
 20
0
 30
0
  0
VERTEX
  8
LAYER_1
 10
95.1087
 20
-92.1903
  0
VERTEX
  8
LAYER_1
 10
87.3587
 20
-92.1903
  0
SEQEND
  0
ENDBLK
  0
BLOCK
  8
LAYER_1
  2
AIGNBL01010299
 70
64
 10
0
 20
0
 30
0
  3
AIGNBL01010299
  0
POLYLINE
  8
LAYER_1
 40
0.1058
 41
0.1058
 66
1
 10
0
 20
0
 30
0
  0
VERTEX
  8
LAYER_1
 10
86.6802
 20
-92.1903
  0
VERTEX
  8
LAYER_1
 10
87.3587
 20
-92.1903
  0
SEQEND
  0
ENDBLK
  0
BLOCK
  8
LAYER_1
  2
AIGNBL0101029A
 70
64
 10
0
 20
0
 30
0
  3
AIGNBL0101029A
  0
POLYLINE
  8
LAYER_1
 40
0.1058
 41
0.1058
 66
1
 10
0
 20
0
 30
0
  0
VERTEX
  8
LAYER_1
 10
86.6802
 20
-92.1903
 42
-0.1938472423
  0
VERTEX
  8
LAYER_1
 10
86.6087
 20
-92.0153
  0
SEQEND
  0
ENDBLK
  0
BLOCK
  8
LAYER_1
  2
AIGNBL0101029B
 70
64
 10
0
 20
0
 30
0
  3
AIGNBL0101029B
  0
POLYLINE
  8
LAYER_1
 40
0.1058
 41
0.1058
 66
1
 10
0
 20
0
 30
0
  0
VERTEX
  8
LAYER_1
 10
86.8587
 20
-92.2653
  0
VERTEX
  8
LAYER_1
 10
86.7585
 20
-92.2443
  0
VERTEX
  8
LAYER_1
 10
86.6802
 20
-92.1903
  0
SEQEND
  0
ENDBLK
  0
BLOCK
  8
LAYER_1
  2
AIGNBL0101029C
 70
64
 10
0
 20
0
 30
0
  3
AIGNBL0101029C
  0
POLYLINE
  8
LAYER_1
 40
0.1058
 41
0.1058
 66
1
 10
0
 20
0
 30
0
  0
VERTEX
  8
LAYER_1
 10
95.6087
 20
-92.2653
  0
VERTEX
  8
LAYER_1
 10
94.9837
 20
-92.2653
  0
SEQEND
  0
ENDBLK
  0
BLOCK
  8
LAYER_1
  2
AIGNBL0101029D
 70
64
 10
0
 20
0
 30
0
  3
AIGNBL0101029D
  0
POLYLINE
  8
LAYER_1
 40
0.1058
 41
0.1058
 66
1
 10
0
 20
0
 30
0
  0
VERTEX
  8
LAYER_1
 10
87.4837
 20
-92.2653
  0
VERTEX
  8
LAYER_1
 10
86.8587
 20
-92.2653
  0
SEQEND
  0
ENDBLK
  0
BLOCK
  8
LAYER_1
  2
AIGNBL0101029E
 70
64
 10
0
 20
0
 30
0
  3
AIGNBL0101029E
  0
POLYLINE
  8
LAYER_1
 40
0.1058
 41
0.1058
 66
1
 10
0
 20
0
 30
0
  0
VERTEX
  8
LAYER_1
 10
95.7872
 20
-92.1903
  0
VERTEX
  8
LAYER_1
 10
95.7089
 20
-92.2443
  0
VERTEX
  8
LAYER_1
 10
95.6087
 20
-92.2653
  0
SEQEND
  0
ENDBLK
  0
BLOCK
  8
LAYER_1
  2
AIGNBL0101029F
 70
64
 10
0
 20
0
 30
0
  3
AIGNBL0101029F
  0
POLYLINE
  8
LAYER_1
 40
0.1058
 41
0.1058
 66
1
 10
0
 20
0
 30
0
  0
VERTEX
  8
LAYER_1
 10
96.1043
 20
-99.6803
 42
0.4090092355
  0
VERTEX
  8
LAYER_1
 10
95.8587
 20
-99.9302
  0
SEQEND
  0
ENDBLK
  0
BLOCK
  8
LAYER_1
  2
AIGNBL010102A0
 70
64
 10
0
 20
0
 30
0
  3
AIGNBL010102A0
  0
POLYLINE
  8
LAYER_1
 40
0.1058
 41
0.1058
 66
1
 10
0
 20
0
 30
0
  0
VERTEX
  8
LAYER_1
 10
98.6087
 20
-99.6366
  0
VERTEX
  8
LAYER_1
 10
98.6087
 20
-95.1403
  0
SEQEND
  0
ENDBLK
  0
BLOCK
  8
LAYER_1
  2
AIGNBL010102A1
 70
64
 10
0
 20
0
 30
0
  3
AIGNBL010102A1
  0
POLYLINE
  8
LAYER_1
 40
0.1058
 41
0.1058
 66
1
 10
0
 20
0
 30
0
  0
VERTEX
  8
LAYER_1
 10
98.6087
 20
-95.1403
  0
VERTEX
  8
LAYER_1
 10
98.6087
 20
-90.644
  0
SEQEND
  0
ENDBLK
  0
BLOCK
  8
LAYER_1
  2
AIGNBL010102A2
 70
64
 10
0
 20
0
 30
0
  3
AIGNBL010102A2
  0
POLYLINE
  8
LAYER_1
 40
0.1058
 41
0.1058
 66
1
 10
0
 20
0
 30
0
  0
VERTEX
  8
LAYER_1
 10
96.1043
 20
-90.6003
 42
-0.4091076526
  0
VERTEX
  8
LAYER_1
 10
95.8587
 20
-90.3503
  0
SEQEND
  0
ENDBLK
  0
BLOCK
  8
LAYER_1
  2
AIGNBL010102A3
 70
64
 10
0
 20
0
 30
0
  3
AIGNBL010102A3
  0
POLYLINE
  8
LAYER_1
 40
0.1058
 41
0.1058
 66
1
 10
0
 20
0
 30
0
  0
VERTEX
  8
LAYER_1
 10
98.9876
 20
-90.7818
  0
VERTEX
  8
LAYER_1
 10
98.9876
 20
-95.1568
  0
VERTEX
  8
LAYER_1
 10
98.9876
 20
-98.5082
  0
SEQEND
  0
ENDBLK
  0
BLOCK
  8
LAYER_1
  2
AIGNBL010102A4
 70
64
 10
0
 20
0
 30
0
  3
AIGNBL010102A4
  0
POLYLINE
  8
LAYER_1
 40
0.1058
 41
0.1058
 66
1
 10
0
 20
0
 30
0
  0
VERTEX
  8
LAYER_1
 10
100.299
 20
-99.5318
 42
-0.1471318348
  0
VERTEX
  8
LAYER_1
 10
99.7985
 20
-99.3499
 42
-0.0888266048
  0
VERTEX
  8
LAYER_1
 10
98.9876
 20
-98.5082
  0
SEQEND
  0
ENDBLK
  0
BLOCK
  8
LAYER_1
  2
AIGNBL010102A5
 70
64
 10
0
 20
0
 30
0
  3
AIGNBL010102A5
  0
POLYLINE
  8
LAYER_1
 40
0.1058
 41
0.1058
 66
1
 10
0
 20
0
 30
0
  0
VERTEX
  8
LAYER_1
 10
105.4876
 20
-93.1017
  0
VERTEX
  8
LAYER_1
 10
105.4876
 20
-98.7334
  0
VERTEX
  8
LAYER_1
 10
105.4876
 20
-99.2818
  0
SEQEND
  0
ENDBLK
  0
BLOCK
  8
LAYER_1
  2
AIGNBL010102A6
 70
64
 10
0
 20
0
 30
0
  3
AIGNBL010102A6
  0
POLYLINE
  8
LAYER_1
 40
0.1058
 41
0.1058
 66
1
 10
0
 20
0
 30
0
  0
VERTEX
  8
LAYER_1
 10
105.4876
 20
-93.1017
  0
VERTEX
  8
LAYER_1
 10
105.4876
 20
-92.4695
  0
SEQEND
  0
ENDBLK
  0
BLOCK
  8
LAYER_1
  2
AIGNBL010102A7
 70
64
 10
0
 20
0
 30
0
  3
AIGNBL010102A7
  0
POLYLINE
  8
LAYER_1
 40
0.1058
 41
0.1058
 66
1
 10
0
 20
0
 30
0
  0
VERTEX
  8
LAYER_1
 10
100.4876
 20
-91.9513
  0
VERTEX
  8
LAYER_1
 10
100.4876
 20
-91.9513
  0
SEQEND
  0
ENDBLK
  0
BLOCK
  8
LAYER_1
  2
AIGNBL010102A8
 70
64
 10
0
 20
0
 30
0
  3
AIGNBL010102A8
  0
POLYLINE
  8
LAYER_1
 40
0.1058
 41
0.1058
 66
1
 10
0
 20
0
 30
0
  0
VERTEX
  8
LAYER_1
 10
105.4876
 20
-92.4695
  0
VERTEX
  8
LAYER_1
 10
105.4876
 20
-86.3168
  0
SEQEND
  0
ENDBLK
  0
BLOCK
  8
LAYER_1
  2
AIGNBL010102A9
 70
64
 10
0
 20
0
 30
0
  3
AIGNBL010102A9
  0
POLYLINE
  8
LAYER_1
 40
0.1058
 41
0.1058
 66
1
 10
0
 20
0
 30
0
  0
VERTEX
  8
LAYER_1
 10
105.4876
 20
-86.3168
  0
VERTEX
  8
LAYER_1
 10
105.4876
 20
-85.838
  0
SEQEND
  0
ENDBLK
  0
BLOCK
  8
LAYER_1
  2
AIGNBL010102AA
 70
64
 10
0
 20
0
 30
0
  3
AIGNBL010102AA
  0
POLYLINE
  8
LAYER_1
 40
0.1058
 41
0.1058
 66
1
 10
0
 20
0
 30
0
  0
VERTEX
  8
LAYER_1
 10
100.4876
 20
-86.3168
  0
VERTEX
  8
LAYER_1
 10
100.4876
 20
-92.4301
  0
SEQEND
  0
ENDBLK
  0
BLOCK
  8
LAYER_1
  2
AIGNBL010102AB
 70
64
 10
0
 20
0
 30
0
  3
AIGNBL010102AB
  0
POLYLINE
  8
LAYER_1
 40
0.1058
 41
0.1058
 66
1
 10
0
 20
0
 30
0
  0
VERTEX
  8
LAYER_1
 10
100.4876
 20
-85.838
  0
VERTEX
  8
LAYER_1
 10
100.4876
 20
-86.3168
  0
SEQEND
  0
ENDBLK
  0
BLOCK
  8
LAYER_1
  2
AIGNBL010102AC
 70
64
 10
0
 20
0
 30
0
  3
AIGNBL010102AC
  0
POLYLINE
  8
LAYER_1
 40
0.1058
 41
0.1058
 66
1
 10
0
 20
0
 30
0
  0
VERTEX
  8
LAYER_1
 10
87.4837
 20
-92.6903
  0
VERTEX
  8
LAYER_1
 10
94.9837
 20
-92.6903
  0
SEQEND
  0
ENDBLK
  0
BLOCK
  8
LAYER_1
  2
AIGNBL010102AD
 70
64
 10
0
 20
0
 30
0
  3
AIGNBL010102AD
  0
POLYLINE
  8
LAYER_1
 40
0.1058
 41
0.1058
 66
1
 10
0
 20
0
 30
0
  0
VERTEX
  8
LAYER_1
 10
94.9837
 20
-92.6903
  0
VERTEX
  8
LAYER_1
 10
94.9837
 20
-92.1903
  0
SEQEND
  0
ENDBLK
  0
BLOCK
  8
LAYER_1
  2
AIGNBL010102AE
 70
64
 10
0
 20
0
 30
0
  3
AIGNBL010102AE
  0
POLYLINE
  8
LAYER_1
 40
0.1058
 41
0.1058
 66
1
 10
0
 20
0
 30
0
  0
VERTEX
  8
LAYER_1
 10
87.4837
 20
-92.6903
  0
VERTEX
  8
LAYER_1
 10
87.4837
 20
-92.1903
  0
SEQEND
  0
ENDBLK
  0
BLOCK
  8
LAYER_1
  2
AIGNBL010102AF
 70
64
 10
0
 20
0
 30
0
  3
AIGNBL010102AF
  0
POLYLINE
  8
LAYER_1
 40
0.1058
 41
0.1058
 66
1
 10
0
 20
0
 30
0
  0
VERTEX
  8
LAYER_1
 10
93.5462
 20
-92.8153
  0
VERTEX
  8
LAYER_1
 10
88.9212
 20
-92.8153
  0
SEQEND
  0
ENDBLK
  0
BLOCK
  8
LAYER_1
  2
AIGNBL010102B0
 70
64
 10
0
 20
0
 30
0
  3
AIGNBL010102B0
  0
POLYLINE
  8
LAYER_1
 40
0.1058
 41
0.1058
 66
1
 10
0
 20
0
 30
0
  0
VERTEX
  8
LAYER_1
 10
96.4787
 20
-125.0203
 42
0.2350841581
  0
VERTEX
  8
LAYER_1
 10
96.74
 20
-124.8903
  0
SEQEND
  0
ENDBLK
  0
BLOCK
  8
LAYER_1
  2
AIGNBL010102B1
 70
64
 10
0
 20
0
 30
0
  3
AIGNBL010102B1
  0
POLYLINE
  8
LAYER_1
 40
0.1058
 41
0.1058
 66
1
 10
0
 20
0
 30
0
  0
VERTEX
  8
LAYER_1
 10
85.9887
 20
-125.0203
 42
-0.2350272584
  0
VERTEX
  8
LAYER_1
 10
85.7275
 20
-124.8903
  0
SEQEND
  0
ENDBLK
  0
BLOCK
  8
LAYER_1
  2
AIGNBL010102B2
 70
64
 10
0
 20
0
 30
0
  3
AIGNBL010102B2
  0
POLYLINE
  8
LAYER_1
 40
0.1058
 41
0.1058
 66
1
 10
0
 20
0
 30
0
  0
VERTEX
  8
LAYER_1
 10
86.6087
 20
-117.2653
  0
VERTEX
  8
LAYER_1
 10
86.6087
 20
-117.2649
  0
VERTEX
  8
LAYER_1
 10
86.6087
 20
-117.2637
  0
VERTEX
  8
LAYER_1
 10
86.6087
 20
-117.2611
  0
VERTEX
  8
LAYER_1
 10
86.6087
 20
-117.2403
  0
VERTEX
  8
LAYER_1
 10
86.6087
 20
-117.1988
  0
VERTEX
  8
LAYER_1
 10
86.6087
 20
-117.1173
  0
VERTEX
  8
LAYER_1
 10
86.6087
 20
-116.8999
  0
VERTEX
  8
LAYER_1
 10
86.6087
 20
-116.3202
  0
VERTEX
  8
LAYER_1
 10
86.6087
 20
-110.153
  0
VERTEX
  8
LAYER_1
 10
86.6087
 20
-101.8342
  0
VERTEX
  8
LAYER_1
 10
86.6087
 20
-98.9841
  0
VERTEX
  8
LAYER_1
 10
86.6087
 20
-98.0584
  0
VERTEX
  8
LAYER_1
 10
86.6087
 20
-97.7536
  0
VERTEX
  8
LAYER_1
 10
86.6087
 20
-94.8539
  0
VERTEX
  8
LAYER_1
 10
86.6087
 20
-93.0829
  0
VERTEX
  8
LAYER_1
 10
86.6087
 20
-92.4335
  0
VERTEX
  8
LAYER_1
 10
86.6087
 20
-92.0199
  0
VERTEX
  8
LAYER_1
 10
86.6087
 20
-92.0166
  0
VERTEX
  8
LAYER_1
 10
86.6087
 20
-92.0153
  0
SEQEND
  0
ENDBLK
  0
BLOCK
  8
LAYER_1
  2
AIGNBL010102B3
 70
64
 10
0
 20
0
 30
0
  3
AIGNBL010102B3
  0
POLYLINE
  8
LAYER_1
 40
0.1058
 41
0.1058
 66
1
 10
0
 20
0
 30
0
  0
VERTEX
  8
LAYER_1
 10
86.6087
 20
-104.0635
  0
VERTEX
  8
LAYER_1
 10
86.6087
 20
-99.2955
  0
SEQEND
  0
ENDBLK
  0
BLOCK
  8
LAYER_1
  2
AIGNBL010102B4
 70
64
 10
0
 20
0
 30
0
  3
AIGNBL010102B4
  0
POLYLINE
  8
LAYER_1
 40
0.1058
 41
0.1058
 66
1
 10
0
 20
0
 30
0
  0
VERTEX
  8
LAYER_1
 10
95.8587
 20
-96.4268
  0
VERTEX
  8
LAYER_1
 10
95.8587
 20
-101.4722
  0
VERTEX
  8
LAYER_1
 10
95.8587
 20
-103.3691
  0
SEQEND
  0
ENDBLK
  0
BLOCK
  8
LAYER_1
  2
AIGNBL010102B5
 70
64
 10
0
 20
0
 30
0
  3
AIGNBL010102B5
  0
POLYLINE
  8
LAYER_1
 40
0.1058
 41
0.1058
 66
1
 10
0
 20
0
 30
0
  0
VERTEX
  8
LAYER_1
 10
95.8587
 20
-94.2271
  0
VERTEX
  8
LAYER_1
 10
95.8587
 20
-95.2277
  0
SEQEND
  0
ENDBLK
  0
BLOCK
  8
LAYER_1
  2
AIGNBL010102B6
 70
64
 10
0
 20
0
 30
0
  3
AIGNBL010102B6
  0
POLYLINE
  8
LAYER_1
 40
0.1058
 41
0.1058
 66
1
 10
0
 20
0
 30
0
  0
VERTEX
  8
LAYER_1
 10
98.6087
 20
-99.6366
  0
VERTEX
  8
LAYER_1
 10
96.1043
 20
-99.6803
  0
SEQEND
  0
ENDBLK
  0
BLOCK
  8
LAYER_1
  2
AIGNBL010102B7
 70
64
 10
0
 20
0
 30
0
  3
AIGNBL010102B7
  0
POLYLINE
  8
LAYER_1
 40
0.1058
 41
0.1058
 66
1
 10
0
 20
0
 30
0
  0
VERTEX
  8
LAYER_1
 10
98.6087
 20
-90.644
  0
VERTEX
  8
LAYER_1
 10
96.1043
 20
-90.6003
  0
SEQEND
  0
ENDBLK
  0
BLOCK
  8
LAYER_1
  2
AIGNBL010102B8
 70
64
 10
0
 20
0
 30
0
  3
AIGNBL010102B8
  0
POLYLINE
  8
LAYER_1
 40
0.1058
 41
0.1058
 66
1
 10
0
 20
0
 30
0
  0
VERTEX
  8
LAYER_1
 10
98.9876
 20
-91.177
  0
VERTEX
  8
LAYER_1
 10
98.6087
 20
-91.0778
  0
SEQEND
  0
ENDBLK
  0
BLOCK
  8
LAYER_1
  2
AIGNBL010102B9
 70
64
 10
0
 20
0
 30
0
  3
AIGNBL010102B9
  0
POLYLINE
  8
LAYER_1
 40
0.1058
 41
0.1058
 66
1
 10
0
 20
0
 30
0
  0
VERTEX
  8
LAYER_1
 10
99.3908
 20
-98.998
  0
VERTEX
  8
LAYER_1
 10
98.6087
 20
-99.2028
  0
SEQEND
  0
ENDBLK
  0
BLOCK
  8
LAYER_1
  2
AIGNBL010102BA
 70
64
 10
0
 20
0
 30
0
  3
AIGNBL010102BA
  0
POLYLINE
  8
LAYER_1
 40
0.1058
 41
0.1058
 66
1
 10
0
 20
0
 30
0
  0
VERTEX
  8
LAYER_1
 10
100.299
 20
-99.5318
  0
VERTEX
  8
LAYER_1
 10
105.2376
 20
-99.5318
  0
SEQEND
  0
ENDBLK
  0
BLOCK
  8
LAYER_1
  2
AIGNBL010102BB
 70
64
 10
0
 20
0
 30
0
  3
AIGNBL010102BB
  0
POLYLINE
  8
LAYER_1
 40
0.1058
 41
0.1058
 66
1
 10
0
 20
0
 30
0
  0
VERTEX
  8
LAYER_1
 10
98.9876
 20
-90.7818
  0
VERTEX
  8
LAYER_1
 10
100.4876
 20
-90.7818
  0
SEQEND
  0
ENDBLK
  0
BLOCK
  8
LAYER_1
  2
AIGNBL010102BC
 70
64
 10
0
 20
0
 30
0
  3
AIGNBL010102BC
  0
POLYLINE
  8
LAYER_1
 40
0.1058
 41
0.1058
 66
1
 10
0
 20
0
 30
0
  0
VERTEX
  8
LAYER_1
 10
105.4876
 20
-99.2818
 42
-0.4142132383
  0
VERTEX
  8
LAYER_1
 10
105.2376
 20
-99.5318
  0
SEQEND
  0
ENDBLK
  0
BLOCK
  8
LAYER_1
  2
AIGNBL010102BD
 70
64
 10
0
 20
0
 30
0
  3
AIGNBL010102BD
  0
POLYLINE
  8
LAYER_1
 40
0.1058
 41
0.1058
 66
1
 10
0
 20
0
 30
0
  0
VERTEX
  8
LAYER_1
 10
104.7376
 20
-85.2666
  0
VERTEX
  8
LAYER_1
 10
104.9432
 20
-85.2876
  0
VERTEX
  8
LAYER_1
 10
105.1373
 20
-85.3515
  0
VERTEX
  8
LAYER_1
 10
105.3078
 20
-85.4619
  0
VERTEX
  8
LAYER_1
 10
105.4362
 20
-85.6259
  0
VERTEX
  8
LAYER_1
 10
105.4862
 20
-85.8026
  0
VERTEX
  8
LAYER_1
 10
105.4876
 20
-85.838
  0
SEQEND
  0
ENDBLK
  0
BLOCK
  8
LAYER_1
  2
AIGNBL010102BE
 70
64
 10
0
 20
0
 30
0
  3
AIGNBL010102BE
  0
POLYLINE
  8
LAYER_1
 40
0.1058
 41
0.1058
 66
1
 10
0
 20
0
 30
0
  0
VERTEX
  8
LAYER_1
 10
101.2376
 20
-85.2666
  0
VERTEX
  8
LAYER_1
 10
101.032
 20
-85.2876
  0
VERTEX
  8
LAYER_1
 10
100.8379
 20
-85.3515
  0
VERTEX
  8
LAYER_1
 10
100.6674
 20
-85.4619
  0
VERTEX
  8
LAYER_1
 10
100.5389
 20
-85.6259
  0
VERTEX
  8
LAYER_1
 10
100.489
 20
-85.8026
  0
VERTEX
  8
LAYER_1
 10
100.4876
 20
-85.838
  0
SEQEND
  0
ENDBLK
  0
BLOCK
  8
LAYER_1
  2
AIGNBL010102BF
 70
64
 10
0
 20
0
 30
0
  3
AIGNBL010102BF
  0
POLYLINE
  8
LAYER_1
 40
0.1058
 41
0.1058
 66
1
 10
0
 20
0
 30
0
  0
VERTEX
  8
LAYER_1
 10
101.2376
 20
-85.2666
  0
VERTEX
  8
LAYER_1
 10
104.7376
 20
-85.2666
  0
SEQEND
  0
ENDBLK
  0
BLOCK
  8
LAYER_1
  2
AIGNBL010102C0
 70
64
 10
0
 20
0
 30
0
  3
AIGNBL010102C0
  0
POLYLINE
  8
LAYER_1
 40
0.1058
 41
0.1058
 66
1
 10
0
 20
0
 30
0
  0
VERTEX
  8
LAYER_1
 10
85.9887
 20
-125.0203
  0
VERTEX
  8
LAYER_1
 10
96.4787
 20
-125.0203
  0
SEQEND
  0
ENDBLK
  0
BLOCK
  8
LAYER_1
  2
AIGNBL010102C1
 70
64
 10
0
 20
0
 30
0
  3
AIGNBL010102C1
  0
POLYLINE
  8
LAYER_1
  6
AIGENLINE001
 40
0.1058
 41
0.1058
 66
1
 10
0
 20
0
 30
0
 70
128
  0
VERTEX
  8
LAYER_1
 10
91.2337
 20
-117.7581
  0
VERTEX
  8
LAYER_1
 10
91.2337
 20
-125.7793
  0
SEQEND
  0
ENDBLK
  0
BLOCK
  8
LAYER_1
  2
AIGNBL010102C2
 70
64
 10
0
 20
0
 30
0
  3
AIGNBL010102C2
  0
POLYLINE
  8
LAYER_1
  6
AIGENLINE001
 40
0.1058
 41
0.1058
 66
1
 10
0
 20
0
 30
0
 70
128
  0
VERTEX
  8
LAYER_1
 10
170.7583
 20
-44.557
  0
VERTEX
  8
LAYER_1
 10
170.7583
 20
-52.2299
  0
SEQEND
  0
ENDBLK
  0
BLOCK
  8
LAYER_1
  2
AIGNBL010102C3
 70
64
 10
0
 20
0
 30
0
  3
AIGNBL010102C3
  0
POLYLINE
  8
LAYER_1
  6
AIGENLINE001
 40
0.1058
 41
0.1058
 66
1
 10
0
 20
0
 30
0
 70
128
  0
VERTEX
  8
LAYER_1
 10
174.608
 20
-48.2595
  0
VERTEX
  8
LAYER_1
 10
166.5868
 20
-48.2595
  0
SEQEND
  0
ENDBLK
  0
BLOCK
  8
LAYER_1
  2
AIGNBL010102C4
 70
64
 10
0
 20
0
 30
0
  3
AIGNBL010102C4
  0
POLYLINE
  8
LAYER_1
  6
AIGENLINE001
 40
0.1058
 41
0.1058
 66
1
 10
0
 20
0
 30
0
 70
128
  0
VERTEX
  8
LAYER_1
 10
91.2337
 20
-87.4139
  0
VERTEX
  8
LAYER_1
 10
91.2337
 20
-94.7521
  0
SEQEND
  0
ENDBLK
  0
BLOCK
  8
LAYER_1
  2
AIGNBL010102C5
 70
64
 10
0
 20
0
 30
0
  3
AIGNBL010102C5
  0
TEXT
  8
LAYER_1
 10
145.2178
 20
-102.43
 11
145.2178
 21
-102.43
 40
3.473
 41
0.5
  1
湯側
  0
ENDBLK
  0
BLOCK
  8
LAYER_1
  2
AIGNBL010102C6
 70
64
 10
0
 20
0
 30
0
  3
AIGNBL010102C6
  0
TEXT
  8
LAYER_1
 10
171.2052
 20
-79.0418
 11
171.2052
 21
-79.0418
 40
3.473
 41
0.5
  1
水側
  0
ENDBLK
  0
BLOCK
  8
LAYER_1
  2
AIGNBL010102C7
 70
64
 10
0
 20
0
 30
0
  3
AIGNBL010102C7
  0
INSERT
  8
LAYER_1
  2
AIGNBL010202C8
 10
0
 20
0
 30
0
  0
INSERT
  8
LAYER_1
  2
AIGNBL010202C9
 10
0
 20
0
 30
0
  0
INSERT
  8
LAYER_1
  2
AIGNBL010202CA
 10
0
 20
0
 30
0
  0
INSERT
  8
LAYER_1
  2
AIGNBL010202CB
 10
0
 20
0
 30
0
  0
INSERT
  8
LAYER_1
  2
AIGNBL010202CC
 10
0
 20
0
 30
0
  0
INSERT
  8
LAYER_1
  2
AIGNBL010202CD
 10
0
 20
0
 30
0
  0
ENDBLK
  0
BLOCK
  8
LAYER_1
  2
AIGNBL010102CE
 70
64
 10
0
 20
0
 30
0
  3
AIGNBL010102CE
  0
POLYLINE
  8
LAYER_1
  6
AIGENLINE005
 40
0.1058
 41
0.1058
 66
1
 10
0
 20
0
 30
0
 70
128
  0
VERTEX
  8
LAYER_1
 10
102.965
 20
-91.1917
  0
VERTEX
  8
LAYER_1
 10
101.116
 20
-95.1568
  0
VERTEX
  8
LAYER_1
 10
99.6996
 20
-98.1942
  0
SEQEND
  0
ENDBLK
  0
BLOCK
  8
LAYER_1
  2
AIGNBL010102CF
 70
64
 10
0
 20
0
 30
0
  3
AIGNBL010102CF
  0
POLYLINE
  8
LAYER_1
  6
AIGENLINE005
 40
0.1058
 41
0.1058
 66
1
 10
0
 20
0
 30
0
 70
128
  0
VERTEX
  8
LAYER_1
 10
100.4555
 20
-99.6761
 42
-0.1471261925
  0
VERTEX
  8
LAYER_1
 10
100.0788
 20
-99.2998
 42
-0.08880275521
  0
VERTEX
  8
LAYER_1
 10
99.6996
 20
-98.1942
  0
SEQEND
  0
ENDBLK
  0
BLOCK
  8
LAYER_1
  2
AIGNBL010102D0
 70
64
 10
0
 20
0
 30
0
  3
AIGNBL010102D0
  0
POLYLINE
  8
LAYER_1
  6
AIGENLINE005
 40
0.1058
 41
0.1058
 66
1
 10
0
 20
0
 30
0
 70
128
  0
VERTEX
  8
LAYER_1
 10
107.8755
 20
-96.0412
  0
VERTEX
  8
LAYER_1
 10
105.4955
 20
-101.1453
  0
VERTEX
  8
LAYER_1
 10
105.2637
 20
-101.6423
  0
SEQEND
  0
ENDBLK
  0
BLOCK
  8
LAYER_1
  2
AIGNBL010102D1
 70
64
 10
0
 20
0
 30
0
  3
AIGNBL010102D1
  0
POLYLINE
  8
LAYER_1
  6
AIGENLINE005
 40
0.1058
 41
0.1058
 66
1
 10
0
 20
0
 30
0
 70
128
  0
VERTEX
  8
LAYER_1
 10
103.8302
 20
-92.8856
  0
VERTEX
  8
LAYER_1
 10
103.8302
 20
-92.8856
  0
SEQEND
  0
ENDBLK
  0
BLOCK
  8
LAYER_1
  2
AIGNBL010102D2
 70
64
 10
0
 20
0
 30
0
  3
AIGNBL010102D2
  0
POLYLINE
  8
LAYER_1
  6
AIGENLINE005
 40
0.1058
 41
0.1058
 66
1
 10
0
 20
0
 30
0
 70
128
  0
VERTEX
  8
LAYER_1
 10
108.1427
 20
-95.4683
  0
VERTEX
  8
LAYER_1
 10
110.7429
 20
-89.8921
  0
SEQEND
  0
ENDBLK
  0
BLOCK
  8
LAYER_1
  2
AIGNBL010102D3
 70
64
 10
0
 20
0
 30
0
  3
AIGNBL010102D3
  0
POLYLINE
  8
LAYER_1
  6
AIGENLINE005
 40
0.1058
 41
0.1058
 66
1
 10
0
 20
0
 30
0
 70
128
  0
VERTEX
  8
LAYER_1
 10
110.7429
 20
-89.8921
  0
VERTEX
  8
LAYER_1
 10
110.9453
 20
-89.4581
  0
SEQEND
  0
ENDBLK
  0
BLOCK
  8
LAYER_1
  2
AIGNBL010102D4
 70
64
 10
0
 20
0
 30
0
  3
AIGNBL010102D4
  0
POLYLINE
  8
LAYER_1
  6
AIGENLINE005
 40
0.1058
 41
0.1058
 66
1
 10
0
 20
0
 30
0
 70
128
  0
VERTEX
  8
LAYER_1
 10
106.2114
 20
-87.779
  0
VERTEX
  8
LAYER_1
 10
103.6278
 20
-93.3195
  0
SEQEND
  0
ENDBLK
  0
BLOCK
  8
LAYER_1
  2
AIGNBL010102D5
 70
64
 10
0
 20
0
 30
0
  3
AIGNBL010102D5
  0
POLYLINE
  8
LAYER_1
  6
AIGENLINE005
 40
0.1058
 41
0.1058
 66
1
 10
0
 20
0
 30
0
 70
128
  0
VERTEX
  8
LAYER_1
 10
106.4137
 20
-87.3451
  0
VERTEX
  8
LAYER_1
 10
106.2114
 20
-87.779
  0
SEQEND
  0
ENDBLK
  0
BLOCK
  8
LAYER_1
  2
AIGNBL010102D6
 70
64
 10
0
 20
0
 30
0
  3
AIGNBL010102D6
  0
POLYLINE
  8
LAYER_1
  6
AIGENLINE005
 40
0.1058
 41
0.1058
 66
1
 10
0
 20
0
 30
0
 70
128
  0
VERTEX
  8
LAYER_1
 10
100.4555
 20
-99.6761
  0
VERTEX
  8
LAYER_1
 10
104.9315
 20
-101.7633
  0
SEQEND
  0
ENDBLK
  0
BLOCK
  8
LAYER_1
  2
AIGNBL010102D7
 70
64
 10
0
 20
0
 30
0
  3
AIGNBL010102D7
  0
POLYLINE
  8
LAYER_1
  6
AIGENLINE005
 40
0.1058
 41
0.1058
 66
1
 10
0
 20
0
 30
0
 70
128
  0
VERTEX
  8
LAYER_1
 10
102.965
 20
-91.1917
  0
VERTEX
  8
LAYER_1
 10
104.3244
 20
-91.8256
  0
SEQEND
  0
ENDBLK
  0
BLOCK
  8
LAYER_1
  2
AIGNBL010102D8
 70
64
 10
0
 20
0
 30
0
  3
AIGNBL010102D8
  0
POLYLINE
  8
LAYER_1
  6
AIGENLINE005
 40
0.1058
 41
0.1058
 66
1
 10
0
 20
0
 30
0
 70
128
  0
VERTEX
  8
LAYER_1
 10
105.2637
 20
-101.6423
 42
-0.414200176
  0
VERTEX
  8
LAYER_1
 10
104.9315
 20
-101.7633
  0
SEQEND
  0
ENDBLK
  0
BLOCK
  8
LAYER_1
  2
AIGNBL010102D9
 70
64
 10
0
 20
0
 30
0
  3
AIGNBL010102D9
  0
POLYLINE
  8
LAYER_1
  6
AIGENLINE005
 40
0.1058
 41
0.1058
 66
1
 10
0
 20
0
 30
0
 70
128
  0
VERTEX
  8
LAYER_1
 10
110.507
 20
-88.6233
  0
VERTEX
  8
LAYER_1
 10
110.6845
 20
-88.7293
  0
VERTEX
  8
LAYER_1
 10
110.8334
 20
-88.8691
  0
VERTEX
  8
LAYER_1
 10
110.9413
 20
-89.0412
  0
VERTEX
  8
LAYER_1
 10
110.9884
 20
-89.2442
  0
VERTEX
  8
LAYER_1
 10
110.959
 20
-89.4255
  0
VERTEX
  8
LAYER_1
 10
110.9453
 20
-89.4581
  0
SEQEND
  0
ENDBLK
  0
BLOCK
  8
LAYER_1
  2
AIGNBL010102DA
 70
64
 10
0
 20
0
 30
0
  3
AIGNBL010102DA
  0
POLYLINE
  8
LAYER_1
  6
AIGENLINE005
 40
0.1058
 41
0.1058
 66
1
 10
0
 20
0
 30
0
 70
128
  0
VERTEX
  8
LAYER_1
 10
107.3349
 20
-87.1442
  0
VERTEX
  8
LAYER_1
 10
107.1397
 20
-87.0763
  0
VERTEX
  8
LAYER_1
 10
106.9369
 20
-87.0522
  0
VERTEX
  8
LAYER_1
 10
106.7357
 20
-87.0801
  0
VERTEX
  8
LAYER_1
 10
106.5499
 20
-87.1745
  0
VERTEX
  8
LAYER_1
 10
106.4299
 20
-87.3136
  0
VERTEX
  8
LAYER_1
 10
106.4137
 20
-87.3451
  0
SEQEND
  0
ENDBLK
  0
BLOCK
  8
LAYER_1
  2
AIGNBL010102DB
 70
64
 10
0
 20
0
 30
0
  3
AIGNBL010102DB
  0
POLYLINE
  8
LAYER_1
  6
AIGENLINE005
 40
0.1058
 41
0.1058
 66
1
 10
0
 20
0
 30
0
 70
128
  0
VERTEX
  8
LAYER_1
 10
107.3349
 20
-87.1442
  0
VERTEX
  8
LAYER_1
 10
110.507
 20
-88.6233
  0
SEQEND
  0
ENDBLK
  0
BLOCK
  8
LAYER_1
  2
AIGNBL010102DC
 70
64
 10
0
 20
0
 30
0
  3
AIGNBL010102DC
  0
INSERT
  8
LAYER_1
  2
AIGNBL010202DD
 10
0
 20
0
 30
0
  0
INSERT
  8
LAYER_1
  2
AIGNBL010202DE
 10
0
 20
0
 30
0
  0
INSERT
  8
LAYER_1
  2
AIGNBL010202DF
 10
0
 20
0
 30
0
  0
INSERT
  8
LAYER_1
  2
AIGNBL010202E0
 10
0
 20
0
 30
0
  0
INSERT
  8
LAYER_1
  2
AIGNBL010202E1
 10
0
 20
0
 30
0
  0
INSERT
  8
LAYER_1
  2
AIGNBL010202E2
 10
0
 20
0
 30
0
  0
ENDBLK
  0
BLOCK
  8
LAYER_1
  2
AIGNBL010102E3
 70
64
 10
0
 20
0
 30
0
  3
AIGNBL010102E3
  0
INSERT
  8
LAYER_1
  2
AIGNBL010202E4
 10
0
 20
0
 30
0
  0
INSERT
  8
LAYER_1
  2
AIGNBL010202E5
 10
0
 20
0
 30
0
  0
INSERT
  8
LAYER_1
  2
AIGNBL010202E6
 10
0
 20
0
 30
0
  0
INSERT
  8
LAYER_1
  2
AIGNBL010202E7
 10
0
 20
0
 30
0
  0
INSERT
  8
LAYER_1
  2
AIGNBL010202E8
 10
0
 20
0
 30
0
  0
INSERT
  8
LAYER_1
  2
AIGNBL010202E9
 10
0
 20
0
 30
0
  0
ENDBLK
  0
BLOCK
  8
LAYER_1
  2
AIGNBL010102EA
 70
64
 10
0
 20
0
 30
0
  3
AIGNBL010102EA
  0
TEXT
  8
LAYER_1
 10
119.0971
 20
-73.2595
 11
119.0971
 21
-73.2595
 40
3.473
 41
0.5
  1
吐水
  0
ENDBLK
  0
BLOCK
  8
LAYER_1
  2
AIGNBL010102EB
 70
64
 10
0
 20
0
 30
0
  3
AIGNBL010102EB
  0
TEXT
  8
LAYER_1
 10
101.8771
 20
-68.6298
 11
101.8771
 21
-68.6298
 40
3.473
 41
0.5
  1
止水
  0
ENDBLK
  0
BLOCK
  8
LAYER_1
  2
AIGNBL010102EC
 70
64
 10
0
 20
0
 30
0
  3
AIGNBL010102EC
  0
INSERT
  8
LAYER_1
  2
AIGNBL010202ED
 10
0
 20
0
 30
0
  0
INSERT
  8
LAYER_1
  2
AIGNBL010202EE
 10
0
 20
0
 30
0
  0
INSERT
  8
LAYER_1
  2
AIGNBL010202EF
 10
0
 20
0
 30
0
  0
INSERT
  8
LAYER_1
  2
AIGNBL010202F0
 10
0
 20
0
 30
0
  0
INSERT
  8
LAYER_1
  2
AIGNBL010202F1
 10
0
 20
0
 30
0
  0
INSERT
  8
LAYER_1
  2
AIGNBL010202F2
 10
0
 20
0
 30
0
  0
INSERT
  8
LAYER_1
  2
AIGNBL010202F3
 10
0
 20
0
 30
0
  0
INSERT
  8
LAYER_1
  2
AIGNBL010202F4
 10
0
 20
0
 30
0
  0
ENDBLK
  0
BLOCK
  8
LAYER_6
  2
AIGNBL06010002
 70
64
 10
0
 20
0
 30
0
  3
AIGNBL06010002
  0
POLYLINE
  8
LAYER_6
 40
0.7056
 41
0.7056
 66
1
 10
0
 20
0
 30
0
 70
1
  0
VERTEX
  8
LAYER_6
 10
33.7873
 20
22.6587
  0
VERTEX
  8
LAYER_6
 10
230.7955
 20
22.6587
  0
VERTEX
  8
LAYER_6
 10
230.7955
 20
-259.334
  0
VERTEX
  8
LAYER_6
 10
33.7873
 20
-259.334
  0
SEQEND
  0
ENDBLK
  0
ENDSEC
  0
SECTION
  2
ENTITIES
  0
INSERT
  8
LAYER_1
  2
AIGNBL01010002
 10
0
 20
0
 30
0
  0
INSERT
  8
LAYER_1
  2
AIGNBL01010024
 10
0
 20
0
 30
0
  0
INSERT
  8
LAYER_1
  2
AIGNBL0101002B
 10
0
 20
0
 30
0
  0
INSERT
  8
LAYER_1
  2
AIGNBL01010032
 10
0
 20
0
 30
0
  0
INSERT
  8
LAYER_1
  2
AIGNBL01010039
 10
0
 20
0
 30
0
  0
INSERT
  8
LAYER_1
  2
AIGNBL01010040
 10
0
 20
0
 30
0
  0
INSERT
  8
LAYER_1
  2
AIGNBL01010047
 10
0
 20
0
 30
0
  0
INSERT
  8
LAYER_1
  2
AIGNBL0101004E
 10
0
 20
0
 30
0
  0
INSERT
  8
LAYER_1
  2
AIGNBL01010056
 10
0
 20
0
 30
0
  0
INSERT
  8
LAYER_1
  2
AIGNBL0101005D
 10
0
 20
0
 30
0
  0
INSERT
  8
LAYER_1
  2
AIGNBL0101005E
 10
0
 20
0
 30
0
  0
INSERT
  8
LAYER_1
  2
AIGNBL0101005F
 10
0
 20
0
 30
0
  0
INSERT
  8
LAYER_1
  2
AIGNBL01010060
 10
0
 20
0
 30
0
  0
INSERT
  8
LAYER_1
  2
AIGNBL01010061
 10
0
 20
0
 30
0
  0
INSERT
  8
LAYER_1
  2
AIGNBL01010062
 10
0
 20
0
 30
0
  0
INSERT
  8
LAYER_1
  2
AIGNBL01010063
 10
0
 20
0
 30
0
  0
INSERT
  8
LAYER_1
  2
AIGNBL01010064
 10
0
 20
0
 30
0
  0
INSERT
  8
LAYER_1
  2
AIGNBL01010065
 10
0
 20
0
 30
0
  0
INSERT
  8
LAYER_1
  2
AIGNBL01010066
 10
0
 20
0
 30
0
  0
INSERT
  8
LAYER_1
  2
AIGNBL01010067
 10
0
 20
0
 30
0
  0
INSERT
  8
LAYER_1
  2
AIGNBL01010068
 10
0
 20
0
 30
0
  0
INSERT
  8
LAYER_1
  2
AIGNBL01010069
 10
0
 20
0
 30
0
  0
INSERT
  8
LAYER_1
  2
AIGNBL0101006A
 10
0
 20
0
 30
0
  0
INSERT
  8
LAYER_1
  2
AIGNBL0101006B
 10
0
 20
0
 30
0
  0
INSERT
  8
LAYER_1
  2
AIGNBL0101006C
 10
0
 20
0
 30
0
  0
INSERT
  8
LAYER_1
  2
AIGNBL0101006D
 10
0
 20
0
 30
0
  0
INSERT
  8
LAYER_1
  2
AIGNBL0101006E
 10
0
 20
0
 30
0
  0
INSERT
  8
LAYER_1
  2
AIGNBL0101006F
 10
0
 20
0
 30
0
  0
INSERT
  8
LAYER_1
  2
AIGNBL01010070
 10
0
 20
0
 30
0
  0
INSERT
  8
LAYER_1
  2
AIGNBL01010071
 10
0
 20
0
 30
0
  0
INSERT
  8
LAYER_1
  2
AIGNBL01010072
 10
0
 20
0
 30
0
  0
INSERT
  8
LAYER_1
  2
AIGNBL01010073
 10
0
 20
0
 30
0
  0
INSERT
  8
LAYER_1
  2
AIGNBL01010074
 10
0
 20
0
 30
0
  0
INSERT
  8
LAYER_1
  2
AIGNBL01010075
 10
0
 20
0
 30
0
  0
INSERT
  8
LAYER_1
  2
AIGNBL01010076
 10
0
 20
0
 30
0
  0
INSERT
  8
LAYER_1
  2
AIGNBL01010077
 10
0
 20
0
 30
0
  0
INSERT
  8
LAYER_1
  2
AIGNBL01010078
 10
0
 20
0
 30
0
  0
INSERT
  8
LAYER_1
  2
AIGNBL01010079
 10
0
 20
0
 30
0
  0
INSERT
  8
LAYER_1
  2
AIGNBL0101007A
 10
0
 20
0
 30
0
  0
INSERT
  8
LAYER_1
  2
AIGNBL0101007B
 10
0
 20
0
 30
0
  0
INSERT
  8
LAYER_1
  2
AIGNBL0101007C
 10
0
 20
0
 30
0
  0
INSERT
  8
LAYER_1
  2
AIGNBL0101007D
 10
0
 20
0
 30
0
  0
INSERT
  8
LAYER_1
  2
AIGNBL0101007E
 10
0
 20
0
 30
0
  0
INSERT
  8
LAYER_1
  2
AIGNBL0101007F
 10
0
 20
0
 30
0
  0
INSERT
  8
LAYER_1
  2
AIGNBL01010080
 10
0
 20
0
 30
0
  0
INSERT
  8
LAYER_1
  2
AIGNBL01010081
 10
0
 20
0
 30
0
  0
INSERT
  8
LAYER_1
  2
AIGNBL01010082
 10
0
 20
0
 30
0
  0
INSERT
  8
LAYER_1
  2
AIGNBL01010083
 10
0
 20
0
 30
0
  0
INSERT
  8
LAYER_1
  2
AIGNBL01010084
 10
0
 20
0
 30
0
  0
INSERT
  8
LAYER_1
  2
AIGNBL01010085
 10
0
 20
0
 30
0
  0
INSERT
  8
LAYER_1
  2
AIGNBL01010086
 10
0
 20
0
 30
0
  0
INSERT
  8
LAYER_1
  2
AIGNBL01010087
 10
0
 20
0
 30
0
  0
INSERT
  8
LAYER_1
  2
AIGNBL01010088
 10
0
 20
0
 30
0
  0
INSERT
  8
LAYER_1
  2
AIGNBL01010089
 10
0
 20
0
 30
0
  0
INSERT
  8
LAYER_1
  2
AIGNBL0101008A
 10
0
 20
0
 30
0
  0
INSERT
  8
LAYER_1
  2
AIGNBL0101008B
 10
0
 20
0
 30
0
  0
INSERT
  8
LAYER_1
  2
AIGNBL0101008C
 10
0
 20
0
 30
0
  0
INSERT
  8
LAYER_1
  2
AIGNBL0101008D
 10
0
 20
0
 30
0
  0
INSERT
  8
LAYER_1
  2
AIGNBL0101008E
 10
0
 20
0
 30
0
  0
INSERT
  8
LAYER_1
  2
AIGNBL0101008F
 10
0
 20
0
 30
0
  0
INSERT
  8
LAYER_1
  2
AIGNBL01010090
 10
0
 20
0
 30
0
  0
INSERT
  8
LAYER_1
  2
AIGNBL01010091
 10
0
 20
0
 30
0
  0
INSERT
  8
LAYER_1
  2
AIGNBL01010092
 10
0
 20
0
 30
0
  0
INSERT
  8
LAYER_1
  2
AIGNBL01010093
 10
0
 20
0
 30
0
  0
INSERT
  8
LAYER_1
  2
AIGNBL01010094
 10
0
 20
0
 30
0
  0
INSERT
  8
LAYER_1
  2
AIGNBL01010095
 10
0
 20
0
 30
0
  0
INSERT
  8
LAYER_1
  2
AIGNBL01010096
 10
0
 20
0
 30
0
  0
INSERT
  8
LAYER_1
  2
AIGNBL01010097
 10
0
 20
0
 30
0
  0
INSERT
  8
LAYER_1
  2
AIGNBL01010098
 10
0
 20
0
 30
0
  0
INSERT
  8
LAYER_1
  2
AIGNBL01010099
 10
0
 20
0
 30
0
  0
INSERT
  8
LAYER_1
  2
AIGNBL0101009A
 10
0
 20
0
 30
0
  0
INSERT
  8
LAYER_1
  2
AIGNBL0101009B
 10
0
 20
0
 30
0
  0
INSERT
  8
LAYER_1
  2
AIGNBL0101009C
 10
0
 20
0
 30
0
  0
INSERT
  8
LAYER_1
  2
AIGNBL0101009D
 10
0
 20
0
 30
0
  0
INSERT
  8
LAYER_1
  2
AIGNBL0101009E
 10
0
 20
0
 30
0
  0
INSERT
  8
LAYER_1
  2
AIGNBL0101009F
 10
0
 20
0
 30
0
  0
INSERT
  8
LAYER_1
  2
AIGNBL010100A0
 10
0
 20
0
 30
0
  0
INSERT
  8
LAYER_1
  2
AIGNBL010100A1
 10
0
 20
0
 30
0
  0
INSERT
  8
LAYER_1
  2
AIGNBL010100A2
 10
0
 20
0
 30
0
  0
INSERT
  8
LAYER_1
  2
AIGNBL010100A3
 10
0
 20
0
 30
0
  0
INSERT
  8
LAYER_1
  2
AIGNBL010100A4
 10
0
 20
0
 30
0
  0
INSERT
  8
LAYER_1
  2
AIGNBL010100A5
 10
0
 20
0
 30
0
  0
INSERT
  8
LAYER_1
  2
AIGNBL010100A6
 10
0
 20
0
 30
0
  0
INSERT
  8
LAYER_1
  2
AIGNBL010100A7
 10
0
 20
0
 30
0
  0
INSERT
  8
LAYER_1
  2
AIGNBL010100A8
 10
0
 20
0
 30
0
  0
INSERT
  8
LAYER_1
  2
AIGNBL010100A9
 10
0
 20
0
 30
0
  0
INSERT
  8
LAYER_1
  2
AIGNBL010100AA
 10
0
 20
0
 30
0
  0
INSERT
  8
LAYER_1
  2
AIGNBL010100AB
 10
0
 20
0
 30
0
  0
INSERT
  8
LAYER_1
  2
AIGNBL010100AC
 10
0
 20
0
 30
0
  0
INSERT
  8
LAYER_1
  2
AIGNBL010100AD
 10
0
 20
0
 30
0
  0
INSERT
  8
LAYER_1
  2
AIGNBL010100AE
 10
0
 20
0
 30
0
  0
INSERT
  8
LAYER_1
  2
AIGNBL010100AF
 10
0
 20
0
 30
0
  0
INSERT
  8
LAYER_1
  2
AIGNBL010100B0
 10
0
 20
0
 30
0
  0
INSERT
  8
LAYER_1
  2
AIGNBL010100B1
 10
0
 20
0
 30
0
  0
INSERT
  8
LAYER_1
  2
AIGNBL010100B2
 10
0
 20
0
 30
0
  0
INSERT
  8
LAYER_1
  2
AIGNBL010100B3
 10
0
 20
0
 30
0
  0
INSERT
  8
LAYER_1
  2
AIGNBL010100B4
 10
0
 20
0
 30
0
  0
INSERT
  8
LAYER_1
  2
AIGNBL010100B5
 10
0
 20
0
 30
0
  0
INSERT
  8
LAYER_1
  2
AIGNBL010100B6
 10
0
 20
0
 30
0
  0
INSERT
  8
LAYER_1
  2
AIGNBL010100B7
 10
0
 20
0
 30
0
  0
INSERT
  8
LAYER_1
  2
AIGNBL010100B8
 10
0
 20
0
 30
0
  0
INSERT
  8
LAYER_1
  2
AIGNBL010100B9
 10
0
 20
0
 30
0
  0
INSERT
  8
LAYER_1
  2
AIGNBL010100BA
 10
0
 20
0
 30
0
  0
INSERT
  8
LAYER_1
  2
AIGNBL010100BB
 10
0
 20
0
 30
0
  0
INSERT
  8
LAYER_1
  2
AIGNBL010100BC
 10
0
 20
0
 30
0
  0
INSERT
  8
LAYER_1
  2
AIGNBL010100BD
 10
0
 20
0
 30
0
  0
INSERT
  8
LAYER_1
  2
AIGNBL010100BE
 10
0
 20
0
 30
0
  0
INSERT
  8
LAYER_1
  2
AIGNBL010100BF
 10
0
 20
0
 30
0
  0
INSERT
  8
LAYER_1
  2
AIGNBL010100C0
 10
0
 20
0
 30
0
  0
INSERT
  8
LAYER_1
  2
AIGNBL010100C1
 10
0
 20
0
 30
0
  0
INSERT
  8
LAYER_1
  2
AIGNBL010100C2
 10
0
 20
0
 30
0
  0
INSERT
  8
LAYER_1
  2
AIGNBL010100C3
 10
0
 20
0
 30
0
  0
INSERT
  8
LAYER_1
  2
AIGNBL010100C4
 10
0
 20
0
 30
0
  0
INSERT
  8
LAYER_1
  2
AIGNBL010100C5
 10
0
 20
0
 30
0
  0
INSERT
  8
LAYER_1
  2
AIGNBL010100C6
 10
0
 20
0
 30
0
  0
INSERT
  8
LAYER_1
  2
AIGNBL010100C7
 10
0
 20
0
 30
0
  0
INSERT
  8
LAYER_1
  2
AIGNBL010100C8
 10
0
 20
0
 30
0
  0
INSERT
  8
LAYER_1
  2
AIGNBL010100C9
 10
0
 20
0
 30
0
  0
INSERT
  8
LAYER_1
  2
AIGNBL010100CA
 10
0
 20
0
 30
0
  0
INSERT
  8
LAYER_1
  2
AIGNBL010100CB
 10
0
 20
0
 30
0
  0
INSERT
  8
LAYER_1
  2
AIGNBL010100CC
 10
0
 20
0
 30
0
  0
INSERT
  8
LAYER_1
  2
AIGNBL010100CD
 10
0
 20
0
 30
0
  0
INSERT
  8
LAYER_1
  2
AIGNBL010100CE
 10
0
 20
0
 30
0
  0
INSERT
  8
LAYER_1
  2
AIGNBL010100CF
 10
0
 20
0
 30
0
  0
INSERT
  8
LAYER_1
  2
AIGNBL010100D0
 10
0
 20
0
 30
0
  0
INSERT
  8
LAYER_1
  2
AIGNBL010100D1
 10
0
 20
0
 30
0
  0
INSERT
  8
LAYER_1
  2
AIGNBL010100D2
 10
0
 20
0
 30
0
  0
INSERT
  8
LAYER_1
  2
AIGNBL010100D3
 10
0
 20
0
 30
0
  0
INSERT
  8
LAYER_1
  2
AIGNBL010100D4
 10
0
 20
0
 30
0
  0
INSERT
  8
LAYER_1
  2
AIGNBL010100D5
 10
0
 20
0
 30
0
  0
INSERT
  8
LAYER_1
  2
AIGNBL010100D6
 10
0
 20
0
 30
0
  0
INSERT
  8
LAYER_1
  2
AIGNBL010100D7
 10
0
 20
0
 30
0
  0
INSERT
  8
LAYER_1
  2
AIGNBL010100D8
 10
0
 20
0
 30
0
  0
INSERT
  8
LAYER_1
  2
AIGNBL010100D9
 10
0
 20
0
 30
0
  0
INSERT
  8
LAYER_1
  2
AIGNBL010100DA
 10
0
 20
0
 30
0
  0
INSERT
  8
LAYER_1
  2
AIGNBL010100DB
 10
0
 20
0
 30
0
  0
INSERT
  8
LAYER_1
  2
AIGNBL010100DC
 10
0
 20
0
 30
0
  0
INSERT
  8
LAYER_1
  2
AIGNBL010100DD
 10
0
 20
0
 30
0
  0
INSERT
  8
LAYER_1
  2
AIGNBL010100DE
 10
0
 20
0
 30
0
  0
INSERT
  8
LAYER_1
  2
AIGNBL010100DF
 10
0
 20
0
 30
0
  0
INSERT
  8
LAYER_1
  2
AIGNBL010100E0
 10
0
 20
0
 30
0
  0
INSERT
  8
LAYER_1
  2
AIGNBL010100E1
 10
0
 20
0
 30
0
  0
INSERT
  8
LAYER_1
  2
AIGNBL010100E2
 10
0
 20
0
 30
0
  0
INSERT
  8
LAYER_1
  2
AIGNBL010100E3
 10
0
 20
0
 30
0
  0
INSERT
  8
LAYER_1
  2
AIGNBL010100EA
 10
0
 20
0
 30
0
  0
INSERT
  8
LAYER_1
  2
AIGNBL010100EB
 10
0
 20
0
 30
0
  0
INSERT
  8
LAYER_1
  2
AIGNBL010100EC
 10
0
 20
0
 30
0
  0
INSERT
  8
LAYER_1
  2
AIGNBL010100ED
 10
0
 20
0
 30
0
  0
INSERT
  8
LAYER_1
  2
AIGNBL010100EE
 10
0
 20
0
 30
0
  0
INSERT
  8
LAYER_1
  2
AIGNBL010100EF
 10
0
 20
0
 30
0
  0
INSERT
  8
LAYER_1
  2
AIGNBL010100F0
 10
0
 20
0
 30
0
  0
INSERT
  8
LAYER_1
  2
AIGNBL010100F1
 10
0
 20
0
 30
0
  0
INSERT
  8
LAYER_1
  2
AIGNBL010100F2
 10
0
 20
0
 30
0
  0
INSERT
  8
LAYER_1
  2
AIGNBL010100F3
 10
0
 20
0
 30
0
  0
INSERT
  8
LAYER_1
  2
AIGNBL010100F4
 10
0
 20
0
 30
0
  0
INSERT
  8
LAYER_1
  2
AIGNBL010100F5
 10
0
 20
0
 30
0
  0
INSERT
  8
LAYER_1
  2
AIGNBL010100F6
 10
0
 20
0
 30
0
  0
INSERT
  8
LAYER_1
  2
AIGNBL010100F7
 10
0
 20
0
 30
0
  0
INSERT
  8
LAYER_1
  2
AIGNBL010100F8
 10
0
 20
0
 30
0
  0
INSERT
  8
LAYER_1
  2
AIGNBL010100F9
 10
0
 20
0
 30
0
  0
INSERT
  8
LAYER_1
  2
AIGNBL010100FA
 10
0
 20
0
 30
0
  0
INSERT
  8
LAYER_1
  2
AIGNBL010100FB
 10
0
 20
0
 30
0
  0
INSERT
  8
LAYER_1
  2
AIGNBL010100FC
 10
0
 20
0
 30
0
  0
INSERT
  8
LAYER_1
  2
AIGNBL010100FD
 10
0
 20
0
 30
0
  0
INSERT
  8
LAYER_1
  2
AIGNBL010100FE
 10
0
 20
0
 30
0
  0
INSERT
  8
LAYER_1
  2
AIGNBL010100FF
 10
0
 20
0
 30
0
  0
INSERT
  8
LAYER_1
  2
AIGNBL01010100
 10
0
 20
0
 30
0
  0
INSERT
  8
LAYER_1
  2
AIGNBL01010101
 10
0
 20
0
 30
0
  0
INSERT
  8
LAYER_1
  2
AIGNBL01010102
 10
0
 20
0
 30
0
  0
INSERT
  8
LAYER_1
  2
AIGNBL01010103
 10
0
 20
0
 30
0
  0
INSERT
  8
LAYER_1
  2
AIGNBL01010104
 10
0
 20
0
 30
0
  0
INSERT
  8
LAYER_1
  2
AIGNBL01010105
 10
0
 20
0
 30
0
  0
INSERT
  8
LAYER_1
  2
AIGNBL01010106
 10
0
 20
0
 30
0
  0
INSERT
  8
LAYER_1
  2
AIGNBL01010107
 10
0
 20
0
 30
0
  0
INSERT
  8
LAYER_1
  2
AIGNBL01010108
 10
0
 20
0
 30
0
  0
INSERT
  8
LAYER_1
  2
AIGNBL01010109
 10
0
 20
0
 30
0
  0
INSERT
  8
LAYER_1
  2
AIGNBL0101010A
 10
0
 20
0
 30
0
  0
INSERT
  8
LAYER_1
  2
AIGNBL0101010B
 10
0
 20
0
 30
0
  0
INSERT
  8
LAYER_1
  2
AIGNBL0101010C
 10
0
 20
0
 30
0
  0
INSERT
  8
LAYER_1
  2
AIGNBL0101010D
 10
0
 20
0
 30
0
  0
INSERT
  8
LAYER_1
  2
AIGNBL0101010E
 10
0
 20
0
 30
0
  0
INSERT
  8
LAYER_1
  2
AIGNBL0101010F
 10
0
 20
0
 30
0
  0
INSERT
  8
LAYER_1
  2
AIGNBL01010110
 10
0
 20
0
 30
0
  0
INSERT
  8
LAYER_1
  2
AIGNBL01010111
 10
0
 20
0
 30
0
  0
INSERT
  8
LAYER_1
  2
AIGNBL01010112
 10
0
 20
0
 30
0
  0
INSERT
  8
LAYER_1
  2
AIGNBL01010113
 10
0
 20
0
 30
0
  0
INSERT
  8
LAYER_1
  2
AIGNBL01010114
 10
0
 20
0
 30
0
  0
INSERT
  8
LAYER_1
  2
AIGNBL01010115
 10
0
 20
0
 30
0
  0
INSERT
  8
LAYER_1
  2
AIGNBL01010116
 10
0
 20
0
 30
0
  0
INSERT
  8
LAYER_1
  2
AIGNBL01010117
 10
0
 20
0
 30
0
  0
INSERT
  8
LAYER_1
  2
AIGNBL01010118
 10
0
 20
0
 30
0
  0
INSERT
  8
LAYER_1
  2
AIGNBL01010119
 10
0
 20
0
 30
0
  0
INSERT
  8
LAYER_1
  2
AIGNBL0101011A
 10
0
 20
0
 30
0
  0
INSERT
  8
LAYER_1
  2
AIGNBL0101011B
 10
0
 20
0
 30
0
  0
INSERT
  8
LAYER_1
  2
AIGNBL0101011C
 10
0
 20
0
 30
0
  0
INSERT
  8
LAYER_1
  2
AIGNBL0101011D
 10
0
 20
0
 30
0
  0
INSERT
  8
LAYER_1
  2
AIGNBL0101011E
 10
0
 20
0
 30
0
  0
INSERT
  8
LAYER_1
  2
AIGNBL0101011F
 10
0
 20
0
 30
0
  0
INSERT
  8
LAYER_1
  2
AIGNBL01010120
 10
0
 20
0
 30
0
  0
INSERT
  8
LAYER_1
  2
AIGNBL01010121
 10
0
 20
0
 30
0
  0
INSERT
  8
LAYER_1
  2
AIGNBL01010122
 10
0
 20
0
 30
0
  0
INSERT
  8
LAYER_1
  2
AIGNBL01010123
 10
0
 20
0
 30
0
  0
INSERT
  8
LAYER_1
  2
AIGNBL01010124
 10
0
 20
0
 30
0
  0
INSERT
  8
LAYER_1
  2
AIGNBL01010125
 10
0
 20
0
 30
0
  0
INSERT
  8
LAYER_1
  2
AIGNBL01010126
 10
0
 20
0
 30
0
  0
INSERT
  8
LAYER_1
  2
AIGNBL01010127
 10
0
 20
0
 30
0
  0
INSERT
  8
LAYER_1
  2
AIGNBL01010128
 10
0
 20
0
 30
0
  0
INSERT
  8
LAYER_1
  2
AIGNBL01010129
 10
0
 20
0
 30
0
  0
INSERT
  8
LAYER_1
  2
AIGNBL0101012A
 10
0
 20
0
 30
0
  0
INSERT
  8
LAYER_1
  2
AIGNBL0101012B
 10
0
 20
0
 30
0
  0
INSERT
  8
LAYER_1
  2
AIGNBL0101012C
 10
0
 20
0
 30
0
  0
INSERT
  8
LAYER_1
  2
AIGNBL0101012D
 10
0
 20
0
 30
0
  0
INSERT
  8
LAYER_1
  2
AIGNBL0101012E
 10
0
 20
0
 30
0
  0
INSERT
  8
LAYER_1
  2
AIGNBL0101012F
 10
0
 20
0
 30
0
  0
INSERT
  8
LAYER_1
  2
AIGNBL01010130
 10
0
 20
0
 30
0
  0
INSERT
  8
LAYER_1
  2
AIGNBL01010131
 10
0
 20
0
 30
0
  0
INSERT
  8
LAYER_1
  2
AIGNBL01010132
 10
0
 20
0
 30
0
  0
INSERT
  8
LAYER_1
  2
AIGNBL01010133
 10
0
 20
0
 30
0
  0
INSERT
  8
LAYER_1
  2
AIGNBL01010134
 10
0
 20
0
 30
0
  0
INSERT
  8
LAYER_1
  2
AIGNBL01010135
 10
0
 20
0
 30
0
  0
INSERT
  8
LAYER_1
  2
AIGNBL01010136
 10
0
 20
0
 30
0
  0
INSERT
  8
LAYER_1
  2
AIGNBL01010137
 10
0
 20
0
 30
0
  0
INSERT
  8
LAYER_1
  2
AIGNBL01010138
 10
0
 20
0
 30
0
  0
INSERT
  8
LAYER_1
  2
AIGNBL01010139
 10
0
 20
0
 30
0
  0
INSERT
  8
LAYER_1
  2
AIGNBL0101013A
 10
0
 20
0
 30
0
  0
INSERT
  8
LAYER_1
  2
AIGNBL0101013B
 10
0
 20
0
 30
0
  0
INSERT
  8
LAYER_1
  2
AIGNBL0101013C
 10
0
 20
0
 30
0
  0
INSERT
  8
LAYER_1
  2
AIGNBL0101013D
 10
0
 20
0
 30
0
  0
INSERT
  8
LAYER_1
  2
AIGNBL0101013E
 10
0
 20
0
 30
0
  0
INSERT
  8
LAYER_1
  2
AIGNBL0101013F
 10
0
 20
0
 30
0
  0
INSERT
  8
LAYER_1
  2
AIGNBL01010140
 10
0
 20
0
 30
0
  0
INSERT
  8
LAYER_1
  2
AIGNBL01010141
 10
0
 20
0
 30
0
  0
INSERT
  8
LAYER_1
  2
AIGNBL01010142
 10
0
 20
0
 30
0
  0
INSERT
  8
LAYER_1
  2
AIGNBL01010143
 10
0
 20
0
 30
0
  0
INSERT
  8
LAYER_1
  2
AIGNBL01010144
 10
0
 20
0
 30
0
  0
INSERT
  8
LAYER_1
  2
AIGNBL01010145
 10
0
 20
0
 30
0
  0
INSERT
  8
LAYER_1
  2
AIGNBL01010146
 10
0
 20
0
 30
0
  0
INSERT
  8
LAYER_1
  2
AIGNBL01010147
 10
0
 20
0
 30
0
  0
INSERT
  8
LAYER_1
  2
AIGNBL01010148
 10
0
 20
0
 30
0
  0
INSERT
  8
LAYER_1
  2
AIGNBL01010149
 10
0
 20
0
 30
0
  0
INSERT
  8
LAYER_1
  2
AIGNBL0101014A
 10
0
 20
0
 30
0
  0
INSERT
  8
LAYER_1
  2
AIGNBL0101014B
 10
0
 20
0
 30
0
  0
INSERT
  8
LAYER_1
  2
AIGNBL0101014C
 10
0
 20
0
 30
0
  0
INSERT
  8
LAYER_1
  2
AIGNBL0101014D
 10
0
 20
0
 30
0
  0
INSERT
  8
LAYER_1
  2
AIGNBL0101014E
 10
0
 20
0
 30
0
  0
INSERT
  8
LAYER_1
  2
AIGNBL0101014F
 10
0
 20
0
 30
0
  0
INSERT
  8
LAYER_1
  2
AIGNBL01010150
 10
0
 20
0
 30
0
  0
INSERT
  8
LAYER_1
  2
AIGNBL01010151
 10
0
 20
0
 30
0
  0
INSERT
  8
LAYER_1
  2
AIGNBL01010152
 10
0
 20
0
 30
0
  0
INSERT
  8
LAYER_1
  2
AIGNBL01010153
 10
0
 20
0
 30
0
  0
INSERT
  8
LAYER_1
  2
AIGNBL01010154
 10
0
 20
0
 30
0
  0
INSERT
  8
LAYER_1
  2
AIGNBL01010155
 10
0
 20
0
 30
0
  0
INSERT
  8
LAYER_1
  2
AIGNBL01010156
 10
0
 20
0
 30
0
  0
INSERT
  8
LAYER_1
  2
AIGNBL01010157
 10
0
 20
0
 30
0
  0
INSERT
  8
LAYER_1
  2
AIGNBL01010158
 10
0
 20
0
 30
0
  0
INSERT
  8
LAYER_1
  2
AIGNBL01010159
 10
0
 20
0
 30
0
  0
INSERT
  8
LAYER_1
  2
AIGNBL0101015A
 10
0
 20
0
 30
0
  0
INSERT
  8
LAYER_1
  2
AIGNBL0101015B
 10
0
 20
0
 30
0
  0
INSERT
  8
LAYER_1
  2
AIGNBL0101015C
 10
0
 20
0
 30
0
  0
INSERT
  8
LAYER_1
  2
AIGNBL0101015D
 10
0
 20
0
 30
0
  0
INSERT
  8
LAYER_1
  2
AIGNBL0101015E
 10
0
 20
0
 30
0
  0
INSERT
  8
LAYER_1
  2
AIGNBL0101015F
 10
0
 20
0
 30
0
  0
INSERT
  8
LAYER_1
  2
AIGNBL01010160
 10
0
 20
0
 30
0
  0
INSERT
  8
LAYER_1
  2
AIGNBL01010161
 10
0
 20
0
 30
0
  0
INSERT
  8
LAYER_1
  2
AIGNBL01010162
 10
0
 20
0
 30
0
  0
INSERT
  8
LAYER_1
  2
AIGNBL01010163
 10
0
 20
0
 30
0
  0
INSERT
  8
LAYER_1
  2
AIGNBL01010164
 10
0
 20
0
 30
0
  0
INSERT
  8
LAYER_1
  2
AIGNBL01010165
 10
0
 20
0
 30
0
  0
INSERT
  8
LAYER_1
  2
AIGNBL01010166
 10
0
 20
0
 30
0
  0
INSERT
  8
LAYER_1
  2
AIGNBL01010167
 10
0
 20
0
 30
0
  0
INSERT
  8
LAYER_1
  2
AIGNBL01010168
 10
0
 20
0
 30
0
  0
INSERT
  8
LAYER_1
  2
AIGNBL01010169
 10
0
 20
0
 30
0
  0
INSERT
  8
LAYER_1
  2
AIGNBL0101016A
 10
0
 20
0
 30
0
  0
INSERT
  8
LAYER_1
  2
AIGNBL0101016B
 10
0
 20
0
 30
0
  0
INSERT
  8
LAYER_1
  2
AIGNBL0101016C
 10
0
 20
0
 30
0
  0
INSERT
  8
LAYER_1
  2
AIGNBL0101016D
 10
0
 20
0
 30
0
  0
INSERT
  8
LAYER_1
  2
AIGNBL0101016E
 10
0
 20
0
 30
0
  0
INSERT
  8
LAYER_1
  2
AIGNBL0101016F
 10
0
 20
0
 30
0
  0
INSERT
  8
LAYER_1
  2
AIGNBL01010170
 10
0
 20
0
 30
0
  0
INSERT
  8
LAYER_1
  2
AIGNBL01010171
 10
0
 20
0
 30
0
  0
INSERT
  8
LAYER_1
  2
AIGNBL01010172
 10
0
 20
0
 30
0
  0
INSERT
  8
LAYER_1
  2
AIGNBL01010173
 10
0
 20
0
 30
0
  0
INSERT
  8
LAYER_1
  2
AIGNBL01010174
 10
0
 20
0
 30
0
  0
INSERT
  8
LAYER_1
  2
AIGNBL01010175
 10
0
 20
0
 30
0
  0
INSERT
  8
LAYER_1
  2
AIGNBL01010176
 10
0
 20
0
 30
0
  0
INSERT
  8
LAYER_1
  2
AIGNBL01010177
 10
0
 20
0
 30
0
  0
INSERT
  8
LAYER_1
  2
AIGNBL01010178
 10
0
 20
0
 30
0
  0
INSERT
  8
LAYER_1
  2
AIGNBL01010179
 10
0
 20
0
 30
0
  0
INSERT
  8
LAYER_1
  2
AIGNBL0101017A
 10
0
 20
0
 30
0
  0
INSERT
  8
LAYER_1
  2
AIGNBL0101017B
 10
0
 20
0
 30
0
  0
INSERT
  8
LAYER_1
  2
AIGNBL0101017C
 10
0
 20
0
 30
0
  0
INSERT
  8
LAYER_1
  2
AIGNBL0101017D
 10
0
 20
0
 30
0
  0
INSERT
  8
LAYER_1
  2
AIGNBL0101017E
 10
0
 20
0
 30
0
  0
INSERT
  8
LAYER_1
  2
AIGNBL0101017F
 10
0
 20
0
 30
0
  0
INSERT
  8
LAYER_1
  2
AIGNBL01010180
 10
0
 20
0
 30
0
  0
INSERT
  8
LAYER_1
  2
AIGNBL01010181
 10
0
 20
0
 30
0
  0
INSERT
  8
LAYER_1
  2
AIGNBL01010182
 10
0
 20
0
 30
0
  0
INSERT
  8
LAYER_1
  2
AIGNBL01010183
 10
0
 20
0
 30
0
  0
INSERT
  8
LAYER_1
  2
AIGNBL01010184
 10
0
 20
0
 30
0
  0
INSERT
  8
LAYER_1
  2
AIGNBL01010185
 10
0
 20
0
 30
0
  0
INSERT
  8
LAYER_1
  2
AIGNBL01010186
 10
0
 20
0
 30
0
  0
INSERT
  8
LAYER_1
  2
AIGNBL01010187
 10
0
 20
0
 30
0
  0
INSERT
  8
LAYER_1
  2
AIGNBL01010188
 10
0
 20
0
 30
0
  0
INSERT
  8
LAYER_1
  2
AIGNBL01010189
 10
0
 20
0
 30
0
  0
INSERT
  8
LAYER_1
  2
AIGNBL0101018A
 10
0
 20
0
 30
0
  0
INSERT
  8
LAYER_1
  2
AIGNBL0101018B
 10
0
 20
0
 30
0
  0
INSERT
  8
LAYER_1
  2
AIGNBL0101018C
 10
0
 20
0
 30
0
  0
INSERT
  8
LAYER_1
  2
AIGNBL0101018D
 10
0
 20
0
 30
0
  0
INSERT
  8
LAYER_1
  2
AIGNBL0101018E
 10
0
 20
0
 30
0
  0
INSERT
  8
LAYER_1
  2
AIGNBL0101018F
 10
0
 20
0
 30
0
  0
INSERT
  8
LAYER_1
  2
AIGNBL01010190
 10
0
 20
0
 30
0
  0
INSERT
  8
LAYER_1
  2
AIGNBL01010191
 10
0
 20
0
 30
0
  0
INSERT
  8
LAYER_1
  2
AIGNBL01010192
 10
0
 20
0
 30
0
  0
INSERT
  8
LAYER_1
  2
AIGNBL01010193
 10
0
 20
0
 30
0
  0
INSERT
  8
LAYER_1
  2
AIGNBL01010194
 10
0
 20
0
 30
0
  0
INSERT
  8
LAYER_1
  2
AIGNBL01010195
 10
0
 20
0
 30
0
  0
INSERT
  8
LAYER_1
  2
AIGNBL01010196
 10
0
 20
0
 30
0
  0
INSERT
  8
LAYER_1
  2
AIGNBL01010197
 10
0
 20
0
 30
0
  0
INSERT
  8
LAYER_1
  2
AIGNBL01010198
 10
0
 20
0
 30
0
  0
INSERT
  8
LAYER_1
  2
AIGNBL01010199
 10
0
 20
0
 30
0
  0
INSERT
  8
LAYER_1
  2
AIGNBL0101019A
 10
0
 20
0
 30
0
  0
INSERT
  8
LAYER_1
  2
AIGNBL0101019B
 10
0
 20
0
 30
0
  0
INSERT
  8
LAYER_1
  2
AIGNBL0101019C
 10
0
 20
0
 30
0
  0
INSERT
  8
LAYER_1
  2
AIGNBL0101019D
 10
0
 20
0
 30
0
  0
INSERT
  8
LAYER_1
  2
AIGNBL0101019E
 10
0
 20
0
 30
0
  0
INSERT
  8
LAYER_1
  2
AIGNBL0101019F
 10
0
 20
0
 30
0
  0
INSERT
  8
LAYER_1
  2
AIGNBL010101A0
 10
0
 20
0
 30
0
  0
INSERT
  8
LAYER_1
  2
AIGNBL010101A1
 10
0
 20
0
 30
0
  0
INSERT
  8
LAYER_1
  2
AIGNBL010101A2
 10
0
 20
0
 30
0
  0
INSERT
  8
LAYER_1
  2
AIGNBL010101A3
 10
0
 20
0
 30
0
  0
INSERT
  8
LAYER_1
  2
AIGNBL010101A4
 10
0
 20
0
 30
0
  0
INSERT
  8
LAYER_1
  2
AIGNBL010101A5
 10
0
 20
0
 30
0
  0
INSERT
  8
LAYER_1
  2
AIGNBL010101A6
 10
0
 20
0
 30
0
  0
INSERT
  8
LAYER_1
  2
AIGNBL010101A7
 10
0
 20
0
 30
0
  0
INSERT
  8
LAYER_1
  2
AIGNBL010101A8
 10
0
 20
0
 30
0
  0
INSERT
  8
LAYER_1
  2
AIGNBL010101A9
 10
0
 20
0
 30
0
  0
INSERT
  8
LAYER_1
  2
AIGNBL010101AA
 10
0
 20
0
 30
0
  0
INSERT
  8
LAYER_1
  2
AIGNBL010101AB
 10
0
 20
0
 30
0
  0
INSERT
  8
LAYER_1
  2
AIGNBL010101AC
 10
0
 20
0
 30
0
  0
INSERT
  8
LAYER_1
  2
AIGNBL010101AD
 10
0
 20
0
 30
0
  0
INSERT
  8
LAYER_1
  2
AIGNBL010101AE
 10
0
 20
0
 30
0
  0
INSERT
  8
LAYER_1
  2
AIGNBL010101AF
 10
0
 20
0
 30
0
  0
INSERT
  8
LAYER_1
  2
AIGNBL010101B0
 10
0
 20
0
 30
0
  0
INSERT
  8
LAYER_1
  2
AIGNBL010101B1
 10
0
 20
0
 30
0
  0
INSERT
  8
LAYER_1
  2
AIGNBL010101B2
 10
0
 20
0
 30
0
  0
INSERT
  8
LAYER_1
  2
AIGNBL010101B3
 10
0
 20
0
 30
0
  0
INSERT
  8
LAYER_1
  2
AIGNBL010101B4
 10
0
 20
0
 30
0
  0
INSERT
  8
LAYER_1
  2
AIGNBL010101B5
 10
0
 20
0
 30
0
  0
INSERT
  8
LAYER_1
  2
AIGNBL010101B6
 10
0
 20
0
 30
0
  0
INSERT
  8
LAYER_1
  2
AIGNBL010101B7
 10
0
 20
0
 30
0
  0
INSERT
  8
LAYER_1
  2
AIGNBL010101B8
 10
0
 20
0
 30
0
  0
INSERT
  8
LAYER_1
  2
AIGNBL010101B9
 10
0
 20
0
 30
0
  0
INSERT
  8
LAYER_1
  2
AIGNBL010101BA
 10
0
 20
0
 30
0
  0
INSERT
  8
LAYER_1
  2
AIGNBL010101BB
 10
0
 20
0
 30
0
  0
INSERT
  8
LAYER_1
  2
AIGNBL010101BC
 10
0
 20
0
 30
0
  0
INSERT
  8
LAYER_1
  2
AIGNBL010101BD
 10
0
 20
0
 30
0
  0
INSERT
  8
LAYER_1
  2
AIGNBL010101BE
 10
0
 20
0
 30
0
  0
INSERT
  8
LAYER_1
  2
AIGNBL010101BF
 10
0
 20
0
 30
0
  0
INSERT
  8
LAYER_1
  2
AIGNBL010101C0
 10
0
 20
0
 30
0
  0
INSERT
  8
LAYER_1
  2
AIGNBL010101C1
 10
0
 20
0
 30
0
  0
INSERT
  8
LAYER_1
  2
AIGNBL010101C2
 10
0
 20
0
 30
0
  0
INSERT
  8
LAYER_1
  2
AIGNBL010101C3
 10
0
 20
0
 30
0
  0
INSERT
  8
LAYER_1
  2
AIGNBL010101C4
 10
0
 20
0
 30
0
  0
INSERT
  8
LAYER_1
  2
AIGNBL010101C5
 10
0
 20
0
 30
0
  0
INSERT
  8
LAYER_1
  2
AIGNBL010101C6
 10
0
 20
0
 30
0
  0
INSERT
  8
LAYER_1
  2
AIGNBL010101C7
 10
0
 20
0
 30
0
  0
INSERT
  8
LAYER_1
  2
AIGNBL010101C8
 10
0
 20
0
 30
0
  0
INSERT
  8
LAYER_1
  2
AIGNBL010101C9
 10
0
 20
0
 30
0
  0
INSERT
  8
LAYER_1
  2
AIGNBL010101CA
 10
0
 20
0
 30
0
  0
INSERT
  8
LAYER_1
  2
AIGNBL010101CB
 10
0
 20
0
 30
0
  0
INSERT
  8
LAYER_1
  2
AIGNBL010101CC
 10
0
 20
0
 30
0
  0
INSERT
  8
LAYER_1
  2
AIGNBL010101CD
 10
0
 20
0
 30
0
  0
INSERT
  8
LAYER_1
  2
AIGNBL010101CE
 10
0
 20
0
 30
0
  0
INSERT
  8
LAYER_1
  2
AIGNBL010101CF
 10
0
 20
0
 30
0
  0
INSERT
  8
LAYER_1
  2
AIGNBL010101D0
 10
0
 20
0
 30
0
  0
INSERT
  8
LAYER_1
  2
AIGNBL010101D1
 10
0
 20
0
 30
0
  0
INSERT
  8
LAYER_1
  2
AIGNBL010101D2
 10
0
 20
0
 30
0
  0
INSERT
  8
LAYER_1
  2
AIGNBL010101D3
 10
0
 20
0
 30
0
  0
INSERT
  8
LAYER_1
  2
AIGNBL010101D4
 10
0
 20
0
 30
0
  0
INSERT
  8
LAYER_1
  2
AIGNBL010101D5
 10
0
 20
0
 30
0
  0
INSERT
  8
LAYER_1
  2
AIGNBL010101D6
 10
0
 20
0
 30
0
  0
INSERT
  8
LAYER_1
  2
AIGNBL010101D7
 10
0
 20
0
 30
0
  0
INSERT
  8
LAYER_1
  2
AIGNBL010101D8
 10
0
 20
0
 30
0
  0
INSERT
  8
LAYER_1
  2
AIGNBL010101D9
 10
0
 20
0
 30
0
  0
INSERT
  8
LAYER_1
  2
AIGNBL010101DA
 10
0
 20
0
 30
0
  0
INSERT
  8
LAYER_1
  2
AIGNBL010101DB
 10
0
 20
0
 30
0
  0
INSERT
  8
LAYER_1
  2
AIGNBL010101DC
 10
0
 20
0
 30
0
  0
INSERT
  8
LAYER_1
  2
AIGNBL010101DD
 10
0
 20
0
 30
0
  0
INSERT
  8
LAYER_1
  2
AIGNBL010101DE
 10
0
 20
0
 30
0
  0
INSERT
  8
LAYER_1
  2
AIGNBL010101DF
 10
0
 20
0
 30
0
  0
INSERT
  8
LAYER_1
  2
AIGNBL010101E0
 10
0
 20
0
 30
0
  0
INSERT
  8
LAYER_1
  2
AIGNBL010101E1
 10
0
 20
0
 30
0
  0
INSERT
  8
LAYER_1
  2
AIGNBL010101E2
 10
0
 20
0
 30
0
  0
INSERT
  8
LAYER_1
  2
AIGNBL010101E3
 10
0
 20
0
 30
0
  0
INSERT
  8
LAYER_1
  2
AIGNBL010101E4
 10
0
 20
0
 30
0
  0
INSERT
  8
LAYER_1
  2
AIGNBL010101E5
 10
0
 20
0
 30
0
  0
INSERT
  8
LAYER_1
  2
AIGNBL010101E6
 10
0
 20
0
 30
0
  0
INSERT
  8
LAYER_1
  2
AIGNBL010101E7
 10
0
 20
0
 30
0
  0
INSERT
  8
LAYER_1
  2
AIGNBL010101E8
 10
0
 20
0
 30
0
  0
INSERT
  8
LAYER_1
  2
AIGNBL010101E9
 10
0
 20
0
 30
0
  0
INSERT
  8
LAYER_1
  2
AIGNBL010101EA
 10
0
 20
0
 30
0
  0
INSERT
  8
LAYER_1
  2
AIGNBL010101EB
 10
0
 20
0
 30
0
  0
INSERT
  8
LAYER_1
  2
AIGNBL010101EC
 10
0
 20
0
 30
0
  0
INSERT
  8
LAYER_1
  2
AIGNBL010101ED
 10
0
 20
0
 30
0
  0
INSERT
  8
LAYER_1
  2
AIGNBL010101EE
 10
0
 20
0
 30
0
  0
INSERT
  8
LAYER_1
  2
AIGNBL010101EF
 10
0
 20
0
 30
0
  0
INSERT
  8
LAYER_1
  2
AIGNBL010101F0
 10
0
 20
0
 30
0
  0
INSERT
  8
LAYER_1
  2
AIGNBL010101F1
 10
0
 20
0
 30
0
  0
INSERT
  8
LAYER_1
  2
AIGNBL010101F2
 10
0
 20
0
 30
0
  0
INSERT
  8
LAYER_1
  2
AIGNBL010101F3
 10
0
 20
0
 30
0
  0
INSERT
  8
LAYER_1
  2
AIGNBL010101F4
 10
0
 20
0
 30
0
  0
INSERT
  8
LAYER_1
  2
AIGNBL010101F5
 10
0
 20
0
 30
0
  0
INSERT
  8
LAYER_1
  2
AIGNBL010101F6
 10
0
 20
0
 30
0
  0
INSERT
  8
LAYER_1
  2
AIGNBL010101F7
 10
0
 20
0
 30
0
  0
INSERT
  8
LAYER_1
  2
AIGNBL010101F8
 10
0
 20
0
 30
0
  0
INSERT
  8
LAYER_1
  2
AIGNBL010101F9
 10
0
 20
0
 30
0
  0
INSERT
  8
LAYER_1
  2
AIGNBL010101FA
 10
0
 20
0
 30
0
  0
INSERT
  8
LAYER_1
  2
AIGNBL010101FB
 10
0
 20
0
 30
0
  0
INSERT
  8
LAYER_1
  2
AIGNBL010101FC
 10
0
 20
0
 30
0
  0
INSERT
  8
LAYER_1
  2
AIGNBL010101FD
 10
0
 20
0
 30
0
  0
INSERT
  8
LAYER_1
  2
AIGNBL010101FE
 10
0
 20
0
 30
0
  0
INSERT
  8
LAYER_1
  2
AIGNBL010101FF
 10
0
 20
0
 30
0
  0
INSERT
  8
LAYER_1
  2
AIGNBL01010200
 10
0
 20
0
 30
0
  0
INSERT
  8
LAYER_1
  2
AIGNBL01010201
 10
0
 20
0
 30
0
  0
INSERT
  8
LAYER_1
  2
AIGNBL01010202
 10
0
 20
0
 30
0
  0
INSERT
  8
LAYER_1
  2
AIGNBL01010203
 10
0
 20
0
 30
0
  0
INSERT
  8
LAYER_1
  2
AIGNBL01010204
 10
0
 20
0
 30
0
  0
INSERT
  8
LAYER_1
  2
AIGNBL01010205
 10
0
 20
0
 30
0
  0
INSERT
  8
LAYER_1
  2
AIGNBL01010206
 10
0
 20
0
 30
0
  0
INSERT
  8
LAYER_1
  2
AIGNBL01010207
 10
0
 20
0
 30
0
  0
INSERT
  8
LAYER_1
  2
AIGNBL01010208
 10
0
 20
0
 30
0
  0
INSERT
  8
LAYER_1
  2
AIGNBL01010209
 10
0
 20
0
 30
0
  0
INSERT
  8
LAYER_1
  2
AIGNBL0101020A
 10
0
 20
0
 30
0
  0
INSERT
  8
LAYER_1
  2
AIGNBL0101020B
 10
0
 20
0
 30
0
  0
INSERT
  8
LAYER_1
  2
AIGNBL0101020C
 10
0
 20
0
 30
0
  0
INSERT
  8
LAYER_1
  2
AIGNBL0101020D
 10
0
 20
0
 30
0
  0
INSERT
  8
LAYER_1
  2
AIGNBL0101020E
 10
0
 20
0
 30
0
  0
INSERT
  8
LAYER_1
  2
AIGNBL0101020F
 10
0
 20
0
 30
0
  0
INSERT
  8
LAYER_1
  2
AIGNBL01010210
 10
0
 20
0
 30
0
  0
INSERT
  8
LAYER_1
  2
AIGNBL01010211
 10
0
 20
0
 30
0
  0
INSERT
  8
LAYER_1
  2
AIGNBL01010212
 10
0
 20
0
 30
0
  0
INSERT
  8
LAYER_1
  2
AIGNBL01010213
 10
0
 20
0
 30
0
  0
INSERT
  8
LAYER_1
  2
AIGNBL01010214
 10
0
 20
0
 30
0
  0
INSERT
  8
LAYER_1
  2
AIGNBL01010215
 10
0
 20
0
 30
0
  0
INSERT
  8
LAYER_1
  2
AIGNBL01010216
 10
0
 20
0
 30
0
  0
INSERT
  8
LAYER_1
  2
AIGNBL01010217
 10
0
 20
0
 30
0
  0
INSERT
  8
LAYER_1
  2
AIGNBL01010218
 10
0
 20
0
 30
0
  0
INSERT
  8
LAYER_1
  2
AIGNBL01010219
 10
0
 20
0
 30
0
  0
INSERT
  8
LAYER_1
  2
AIGNBL0101021A
 10
0
 20
0
 30
0
  0
INSERT
  8
LAYER_1
  2
AIGNBL0101021B
 10
0
 20
0
 30
0
  0
INSERT
  8
LAYER_1
  2
AIGNBL0101021C
 10
0
 20
0
 30
0
  0
INSERT
  8
LAYER_1
  2
AIGNBL0101021D
 10
0
 20
0
 30
0
  0
INSERT
  8
LAYER_1
  2
AIGNBL0101021E
 10
0
 20
0
 30
0
  0
INSERT
  8
LAYER_1
  2
AIGNBL0101021F
 10
0
 20
0
 30
0
  0
INSERT
  8
LAYER_1
  2
AIGNBL01010220
 10
0
 20
0
 30
0
  0
INSERT
  8
LAYER_1
  2
AIGNBL01010221
 10
0
 20
0
 30
0
  0
INSERT
  8
LAYER_1
  2
AIGNBL01010222
 10
0
 20
0
 30
0
  0
INSERT
  8
LAYER_1
  2
AIGNBL01010223
 10
0
 20
0
 30
0
  0
INSERT
  8
LAYER_1
  2
AIGNBL01010224
 10
0
 20
0
 30
0
  0
INSERT
  8
LAYER_1
  2
AIGNBL01010225
 10
0
 20
0
 30
0
  0
INSERT
  8
LAYER_1
  2
AIGNBL01010226
 10
0
 20
0
 30
0
  0
INSERT
  8
LAYER_1
  2
AIGNBL01010227
 10
0
 20
0
 30
0
  0
INSERT
  8
LAYER_1
  2
AIGNBL01010228
 10
0
 20
0
 30
0
  0
INSERT
  8
LAYER_1
  2
AIGNBL01010229
 10
0
 20
0
 30
0
  0
INSERT
  8
LAYER_1
  2
AIGNBL0101022A
 10
0
 20
0
 30
0
  0
INSERT
  8
LAYER_1
  2
AIGNBL0101022B
 10
0
 20
0
 30
0
  0
INSERT
  8
LAYER_1
  2
AIGNBL0101022C
 10
0
 20
0
 30
0
  0
INSERT
  8
LAYER_1
  2
AIGNBL0101022D
 10
0
 20
0
 30
0
  0
INSERT
  8
LAYER_1
  2
AIGNBL0101022E
 10
0
 20
0
 30
0
  0
INSERT
  8
LAYER_1
  2
AIGNBL0101022F
 10
0
 20
0
 30
0
  0
INSERT
  8
LAYER_1
  2
AIGNBL01010230
 10
0
 20
0
 30
0
  0
INSERT
  8
LAYER_1
  2
AIGNBL01010237
 10
0
 20
0
 30
0
  0
INSERT
  8
LAYER_1
  2
AIGNBL0101023F
 10
0
 20
0
 30
0
  0
INSERT
  8
LAYER_1
  2
AIGNBL01010240
 10
0
 20
0
 30
0
  0
INSERT
  8
LAYER_1
  2
AIGNBL01010241
 10
0
 20
0
 30
0
  0
INSERT
  8
LAYER_1
  2
AIGNBL01010242
 10
0
 20
0
 30
0
  0
INSERT
  8
LAYER_1
  2
AIGNBL01010243
 10
0
 20
0
 30
0
  0
INSERT
  8
LAYER_1
  2
AIGNBL01010244
 10
0
 20
0
 30
0
  0
INSERT
  8
LAYER_1
  2
AIGNBL01010245
 10
0
 20
0
 30
0
  0
INSERT
  8
LAYER_1
  2
AIGNBL01010246
 10
0
 20
0
 30
0
  0
INSERT
  8
LAYER_1
  2
AIGNBL0101024D
 10
0
 20
0
 30
0
  0
INSERT
  8
LAYER_1
  2
AIGNBL0101024E
 10
0
 20
0
 30
0
  0
INSERT
  8
LAYER_1
  2
AIGNBL0101024F
 10
0
 20
0
 30
0
  0
INSERT
  8
LAYER_1
  2
AIGNBL01010250
 10
0
 20
0
 30
0
  0
INSERT
  8
LAYER_1
  2
AIGNBL01010251
 10
0
 20
0
 30
0
  0
INSERT
  8
LAYER_1
  2
AIGNBL01010252
 10
0
 20
0
 30
0
  0
INSERT
  8
LAYER_1
  2
AIGNBL01010253
 10
0
 20
0
 30
0
  0
INSERT
  8
LAYER_1
  2
AIGNBL01010254
 10
0
 20
0
 30
0
  0
INSERT
  8
LAYER_1
  2
AIGNBL01010255
 10
0
 20
0
 30
0
  0
INSERT
  8
LAYER_1
  2
AIGNBL01010256
 10
0
 20
0
 30
0
  0
INSERT
  8
LAYER_1
  2
AIGNBL01010257
 10
0
 20
0
 30
0
  0
INSERT
  8
LAYER_1
  2
AIGNBL01010258
 10
0
 20
0
 30
0
  0
INSERT
  8
LAYER_1
  2
AIGNBL01010259
 10
0
 20
0
 30
0
  0
INSERT
  8
LAYER_1
  2
AIGNBL0101025A
 10
0
 20
0
 30
0
  0
INSERT
  8
LAYER_1
  2
AIGNBL0101025B
 10
0
 20
0
 30
0
  0
INSERT
  8
LAYER_1
  2
AIGNBL0101025C
 10
0
 20
0
 30
0
  0
INSERT
  8
LAYER_1
  2
AIGNBL0101025D
 10
0
 20
0
 30
0
  0
INSERT
  8
LAYER_1
  2
AIGNBL0101025E
 10
0
 20
0
 30
0
  0
INSERT
  8
LAYER_1
  2
AIGNBL0101025F
 10
0
 20
0
 30
0
  0
INSERT
  8
LAYER_1
  2
AIGNBL01010260
 10
0
 20
0
 30
0
  0
INSERT
  8
LAYER_1
  2
AIGNBL01010261
 10
0
 20
0
 30
0
  0
INSERT
  8
LAYER_1
  2
AIGNBL01010262
 10
0
 20
0
 30
0
  0
INSERT
  8
LAYER_1
  2
AIGNBL01010263
 10
0
 20
0
 30
0
  0
INSERT
  8
LAYER_1
  2
AIGNBL01010264
 10
0
 20
0
 30
0
  0
INSERT
  8
LAYER_1
  2
AIGNBL01010265
 10
0
 20
0
 30
0
  0
INSERT
  8
LAYER_1
  2
AIGNBL01010266
 10
0
 20
0
 30
0
  0
INSERT
  8
LAYER_1
  2
AIGNBL01010267
 10
0
 20
0
 30
0
  0
INSERT
  8
LAYER_1
  2
AIGNBL01010268
 10
0
 20
0
 30
0
  0
INSERT
  8
LAYER_1
  2
AIGNBL01010269
 10
0
 20
0
 30
0
  0
INSERT
  8
LAYER_1
  2
AIGNBL0101026A
 10
0
 20
0
 30
0
  0
INSERT
  8
LAYER_1
  2
AIGNBL0101026B
 10
0
 20
0
 30
0
  0
INSERT
  8
LAYER_1
  2
AIGNBL0101026C
 10
0
 20
0
 30
0
  0
INSERT
  8
LAYER_1
  2
AIGNBL0101026D
 10
0
 20
0
 30
0
  0
INSERT
  8
LAYER_1
  2
AIGNBL0101026E
 10
0
 20
0
 30
0
  0
INSERT
  8
LAYER_1
  2
AIGNBL0101026F
 10
0
 20
0
 30
0
  0
INSERT
  8
LAYER_1
  2
AIGNBL01010270
 10
0
 20
0
 30
0
  0
INSERT
  8
LAYER_1
  2
AIGNBL01010271
 10
0
 20
0
 30
0
  0
INSERT
  8
LAYER_1
  2
AIGNBL01010272
 10
0
 20
0
 30
0
  0
INSERT
  8
LAYER_1
  2
AIGNBL01010273
 10
0
 20
0
 30
0
  0
INSERT
  8
LAYER_1
  2
AIGNBL01010274
 10
0
 20
0
 30
0
  0
INSERT
  8
LAYER_1
  2
AIGNBL01010275
 10
0
 20
0
 30
0
  0
INSERT
  8
LAYER_1
  2
AIGNBL01010276
 10
0
 20
0
 30
0
  0
INSERT
  8
LAYER_1
  2
AIGNBL01010277
 10
0
 20
0
 30
0
  0
INSERT
  8
LAYER_1
  2
AIGNBL01010278
 10
0
 20
0
 30
0
  0
INSERT
  8
LAYER_1
  2
AIGNBL01010279
 10
0
 20
0
 30
0
  0
INSERT
  8
LAYER_1
  2
AIGNBL0101027A
 10
0
 20
0
 30
0
  0
INSERT
  8
LAYER_1
  2
AIGNBL0101027B
 10
0
 20
0
 30
0
  0
INSERT
  8
LAYER_1
  2
AIGNBL0101027C
 10
0
 20
0
 30
0
  0
INSERT
  8
LAYER_1
  2
AIGNBL0101027D
 10
0
 20
0
 30
0
  0
INSERT
  8
LAYER_1
  2
AIGNBL0101027E
 10
0
 20
0
 30
0
  0
INSERT
  8
LAYER_1
  2
AIGNBL0101027F
 10
0
 20
0
 30
0
  0
INSERT
  8
LAYER_1
  2
AIGNBL01010280
 10
0
 20
0
 30
0
  0
INSERT
  8
LAYER_1
  2
AIGNBL01010281
 10
0
 20
0
 30
0
  0
INSERT
  8
LAYER_1
  2
AIGNBL01010282
 10
0
 20
0
 30
0
  0
INSERT
  8
LAYER_1
  2
AIGNBL01010283
 10
0
 20
0
 30
0
  0
INSERT
  8
LAYER_1
  2
AIGNBL01010284
 10
0
 20
0
 30
0
  0
INSERT
  8
LAYER_1
  2
AIGNBL01010285
 10
0
 20
0
 30
0
  0
INSERT
  8
LAYER_1
  2
AIGNBL01010286
 10
0
 20
0
 30
0
  0
INSERT
  8
LAYER_1
  2
AIGNBL01010287
 10
0
 20
0
 30
0
  0
INSERT
  8
LAYER_1
  2
AIGNBL01010288
 10
0
 20
0
 30
0
  0
INSERT
  8
LAYER_1
  2
AIGNBL01010289
 10
0
 20
0
 30
0
  0
INSERT
  8
LAYER_1
  2
AIGNBL0101028A
 10
0
 20
0
 30
0
  0
INSERT
  8
LAYER_1
  2
AIGNBL0101028B
 10
0
 20
0
 30
0
  0
INSERT
  8
LAYER_1
  2
AIGNBL0101028C
 10
0
 20
0
 30
0
  0
INSERT
  8
LAYER_1
  2
AIGNBL0101028D
 10
0
 20
0
 30
0
  0
INSERT
  8
LAYER_1
  2
AIGNBL0101028E
 10
0
 20
0
 30
0
  0
INSERT
  8
LAYER_1
  2
AIGNBL0101028F
 10
0
 20
0
 30
0
  0
INSERT
  8
LAYER_1
  2
AIGNBL01010290
 10
0
 20
0
 30
0
  0
INSERT
  8
LAYER_1
  2
AIGNBL01010291
 10
0
 20
0
 30
0
  0
INSERT
  8
LAYER_1
  2
AIGNBL01010292
 10
0
 20
0
 30
0
  0
INSERT
  8
LAYER_1
  2
AIGNBL01010293
 10
0
 20
0
 30
0
  0
INSERT
  8
LAYER_1
  2
AIGNBL01010294
 10
0
 20
0
 30
0
  0
INSERT
  8
LAYER_1
  2
AIGNBL01010295
 10
0
 20
0
 30
0
  0
INSERT
  8
LAYER_1
  2
AIGNBL01010296
 10
0
 20
0
 30
0
  0
INSERT
  8
LAYER_1
  2
AIGNBL01010297
 10
0
 20
0
 30
0
  0
INSERT
  8
LAYER_1
  2
AIGNBL01010298
 10
0
 20
0
 30
0
  0
INSERT
  8
LAYER_1
  2
AIGNBL01010299
 10
0
 20
0
 30
0
  0
INSERT
  8
LAYER_1
  2
AIGNBL0101029A
 10
0
 20
0
 30
0
  0
INSERT
  8
LAYER_1
  2
AIGNBL0101029B
 10
0
 20
0
 30
0
  0
INSERT
  8
LAYER_1
  2
AIGNBL0101029C
 10
0
 20
0
 30
0
  0
INSERT
  8
LAYER_1
  2
AIGNBL0101029D
 10
0
 20
0
 30
0
  0
INSERT
  8
LAYER_1
  2
AIGNBL0101029E
 10
0
 20
0
 30
0
  0
INSERT
  8
LAYER_1
  2
AIGNBL0101029F
 10
0
 20
0
 30
0
  0
INSERT
  8
LAYER_1
  2
AIGNBL010102A0
 10
0
 20
0
 30
0
  0
INSERT
  8
LAYER_1
  2
AIGNBL010102A1
 10
0
 20
0
 30
0
  0
INSERT
  8
LAYER_1
  2
AIGNBL010102A2
 10
0
 20
0
 30
0
  0
INSERT
  8
LAYER_1
  2
AIGNBL010102A3
 10
0
 20
0
 30
0
  0
INSERT
  8
LAYER_1
  2
AIGNBL010102A4
 10
0
 20
0
 30
0
  0
INSERT
  8
LAYER_1
  2
AIGNBL010102A5
 10
0
 20
0
 30
0
  0
INSERT
  8
LAYER_1
  2
AIGNBL010102A6
 10
0
 20
0
 30
0
  0
INSERT
  8
LAYER_1
  2
AIGNBL010102A7
 10
0
 20
0
 30
0
  0
INSERT
  8
LAYER_1
  2
AIGNBL010102A8
 10
0
 20
0
 30
0
  0
INSERT
  8
LAYER_1
  2
AIGNBL010102A9
 10
0
 20
0
 30
0
  0
INSERT
  8
LAYER_1
  2
AIGNBL010102AA
 10
0
 20
0
 30
0
  0
INSERT
  8
LAYER_1
  2
AIGNBL010102AB
 10
0
 20
0
 30
0
  0
INSERT
  8
LAYER_1
  2
AIGNBL010102AC
 10
0
 20
0
 30
0
  0
INSERT
  8
LAYER_1
  2
AIGNBL010102AD
 10
0
 20
0
 30
0
  0
INSERT
  8
LAYER_1
  2
AIGNBL010102AE
 10
0
 20
0
 30
0
  0
INSERT
  8
LAYER_1
  2
AIGNBL010102AF
 10
0
 20
0
 30
0
  0
INSERT
  8
LAYER_1
  2
AIGNBL010102B0
 10
0
 20
0
 30
0
  0
INSERT
  8
LAYER_1
  2
AIGNBL010102B1
 10
0
 20
0
 30
0
  0
INSERT
  8
LAYER_1
  2
AIGNBL010102B2
 10
0
 20
0
 30
0
  0
INSERT
  8
LAYER_1
  2
AIGNBL010102B3
 10
0
 20
0
 30
0
  0
INSERT
  8
LAYER_1
  2
AIGNBL010102B4
 10
0
 20
0
 30
0
  0
INSERT
  8
LAYER_1
  2
AIGNBL010102B5
 10
0
 20
0
 30
0
  0
INSERT
  8
LAYER_1
  2
AIGNBL010102B6
 10
0
 20
0
 30
0
  0
INSERT
  8
LAYER_1
  2
AIGNBL010102B7
 10
0
 20
0
 30
0
  0
INSERT
  8
LAYER_1
  2
AIGNBL010102B8
 10
0
 20
0
 30
0
  0
INSERT
  8
LAYER_1
  2
AIGNBL010102B9
 10
0
 20
0
 30
0
  0
INSERT
  8
LAYER_1
  2
AIGNBL010102BA
 10
0
 20
0
 30
0
  0
INSERT
  8
LAYER_1
  2
AIGNBL010102BB
 10
0
 20
0
 30
0
  0
INSERT
  8
LAYER_1
  2
AIGNBL010102BC
 10
0
 20
0
 30
0
  0
INSERT
  8
LAYER_1
  2
AIGNBL010102BD
 10
0
 20
0
 30
0
  0
INSERT
  8
LAYER_1
  2
AIGNBL010102BE
 10
0
 20
0
 30
0
  0
INSERT
  8
LAYER_1
  2
AIGNBL010102BF
 10
0
 20
0
 30
0
  0
INSERT
  8
LAYER_1
  2
AIGNBL010102C0
 10
0
 20
0
 30
0
  0
INSERT
  8
LAYER_1
  2
AIGNBL010102C1
 10
0
 20
0
 30
0
  0
INSERT
  8
LAYER_1
  2
AIGNBL010102C2
 10
0
 20
0
 30
0
  0
INSERT
  8
LAYER_1
  2
AIGNBL010102C3
 10
0
 20
0
 30
0
  0
INSERT
  8
LAYER_1
  2
AIGNBL010102C4
 10
0
 20
0
 30
0
  0
INSERT
  8
LAYER_1
  2
AIGNBL010102C5
 10
0
 20
0
 30
0
  0
INSERT
  8
LAYER_1
  2
AIGNBL010102C6
 10
0
 20
0
 30
0
  0
INSERT
  8
LAYER_1
  2
AIGNBL010102C7
 10
0
 20
0
 30
0
  0
INSERT
  8
LAYER_1
  2
AIGNBL010102CE
 10
0
 20
0
 30
0
  0
INSERT
  8
LAYER_1
  2
AIGNBL010102CF
 10
0
 20
0
 30
0
  0
INSERT
  8
LAYER_1
  2
AIGNBL010102D0
 10
0
 20
0
 30
0
  0
INSERT
  8
LAYER_1
  2
AIGNBL010102D1
 10
0
 20
0
 30
0
  0
INSERT
  8
LAYER_1
  2
AIGNBL010102D2
 10
0
 20
0
 30
0
  0
INSERT
  8
LAYER_1
  2
AIGNBL010102D3
 10
0
 20
0
 30
0
  0
INSERT
  8
LAYER_1
  2
AIGNBL010102D4
 10
0
 20
0
 30
0
  0
INSERT
  8
LAYER_1
  2
AIGNBL010102D5
 10
0
 20
0
 30
0
  0
INSERT
  8
LAYER_1
  2
AIGNBL010102D6
 10
0
 20
0
 30
0
  0
INSERT
  8
LAYER_1
  2
AIGNBL010102D7
 10
0
 20
0
 30
0
  0
INSERT
  8
LAYER_1
  2
AIGNBL010102D8
 10
0
 20
0
 30
0
  0
INSERT
  8
LAYER_1
  2
AIGNBL010102D9
 10
0
 20
0
 30
0
  0
INSERT
  8
LAYER_1
  2
AIGNBL010102DA
 10
0
 20
0
 30
0
  0
INSERT
  8
LAYER_1
  2
AIGNBL010102DB
 10
0
 20
0
 30
0
  0
INSERT
  8
LAYER_1
  2
AIGNBL010102DC
 10
0
 20
0
 30
0
  0
INSERT
  8
LAYER_1
  2
AIGNBL010102E3
 10
0
 20
0
 30
0
  0
INSERT
  8
LAYER_1
  2
AIGNBL010102EA
 10
0
 20
0
 30
0
  0
INSERT
  8
LAYER_1
  2
AIGNBL010102EB
 10
0
 20
0
 30
0
  0
INSERT
  8
LAYER_1
  2
AIGNBL010102EC
 10
0
 20
0
 30
0
  0
INSERT
  8
LAYER_6
  2
AIGNBL06010002
 10
0
 20
0
 30
0
  0
POLYLINE
  8
LAYER_6
 40
0.3528
 41
0.3528
 66
1
 10
0
 20
0
 30
0
  0
VERTEX
  8
LAYER_6
 10
34.7876
 20
-258.3332
  0
VERTEX
  8
LAYER_6
 10
229.7955
 20
-258.3332
  0
VERTEX
  8
LAYER_6
 10
229.7955
 20
21.6583
  0
VERTEX
  8
LAYER_6
 10
34.7876
 20
21.6583
  0
VERTEX
  8
LAYER_6
 10
34.7876
 20
-258.3332
  0
SEQEND
  0
TEXT
  8
LAYER_6
 10
166.4505
 20
-248.7955
 11
166.4505
 21
-248.7955
 40
3.3848
 41
0.5
  1
●TEL 0120-65-1232●FAX 06-6532-1580
  0
TEXT
  8
LAYER_6
 10
166.4505
 20
-252.3102
 11
166.4505
 21
-252.3102
 40
3.3848
 41
0.5
  1
hits@hiratatile.co.jp
  0
TEXT
  8
LAYER_6
 10
37.8495
 20
-250.3797
 11
37.8495
 21
-250.3797
 40
3.2991
 41
0.5
  1
仕様
  0
POLYLINE
  8
LAYER_6
 40
0.3528
 41
0.3528
 66
1
 10
0
 20
0
 30
0
  0
VERTEX
  8
LAYER_6
 10
229.7955
 20
-241.6001
  0
VERTEX
  8
LAYER_6
 10
34.7874
 20
-241.6001
  0
SEQEND
  0
POLYLINE
  8
LAYER_6
 40
0.3528
 41
0.3528
 66
1
 10
0
 20
0
 30
0
  0
VERTEX
  8
LAYER_6
 10
229.7955
 20
-233.091
  0
VERTEX
  8
LAYER_6
 10
34.7874
 20
-233.091
  0
SEQEND
  0
TEXT
  8
LAYER_6
 10
35.9444
 20
-235.5675
 11
35.9444
 21
-235.5675
 40
2.1994
 41
0.5
  1
品名
  0
TEXT
  8
LAYER_6
 10
48.7874
 20
-238.6599
 11
48.7874
 21
-238.6599
 40
3.6368
 41
0.5
  1
ロックシングルレバー洗面混合水栓
  0
TEXT
  8
LAYER_6
 10
48.4217
 20
-250.3883
 11
48.4217
 21
-250.3883
 40
3.1172
 41
0.5
  1
●排水金具別途
  0
TEXT
  8
LAYER_6
 10
137.7434
 20
-235.5677
 11
137.7434
 21
-235.5677
 40
2.1994
 41
0.5
  1
品番
  0
TEXT
  8
LAYER_6
 10
143.7654
 20
-240.0443
 11
143.7654
 21
-240.0443
 40
5.9385
 41
0.5
  1
PAF-RO071/
  0
ENDSEC
  0
EOF
