  0
SECTION
  2
HEADER
  9
$ACADVER
  1
AC1009
  9
$LUNITS
 70
2
  9
$LUPREC
 70
4
  9
$LTSCALE
 40
1.0
  9
$EXTMIN
 10
33.7873
 20
-259.334
 30
0
  9
$EXTMAX
 10
230.7955
 20
22.6587
 30
0
  0
ENDSEC
  0
SECTION
  2
TABLES
  0
TABLE
  2
LTYPE
 70
256
  0
LTYPE
  2
AIGENLINE001
 70
64
  3
generate AI->DXF Converter
 72
65
 73
4
 40
15
 49
9.375
 49
-1.875
 49
1.875
 49
-1.875
  0
LTYPE
  2
AIGENLINE002
 70
64
  3
generate AI->DXF Converter
 72
65
 73
6
 40
15.875
 49
7.9375
 49
-1.5875
 49
1.5875
 49
-1.5875
 49
1.5875
 49
-1.5875
  0
LTYPE
  2
AIGENLINE003
 70
64
  3
generate AI->DXF Converter
 72
65
 73
4
 40
1.125
 49
0.75
 49
-0.125
 49
0.125
 49
-0.125
  0
LTYPE
  2
AIGENLINE004
 70
64
  3
generate AI->DXF Converter
 72
65
 73
6
 40
23.8125
 49
11.9062
 49
-2.3812
 49
2.3812
 49
-2.3812
 49
2.3812
 49
-2.3812
  0
LTYPE
  2
AIGENLINE005
 70
64
  3
generate AI->DXF Converter
 72
65
 73
6
 40
7.9375
 49
3.9687
 49
-0.7938
 49
0.7938
 49
-0.7938
 49
0.7938
 49
-0.7938
  0
ENDTAB
  0
TABLE
  2
LAYER
 70
6
  0
LAYER
  2
LAYER_1
 70
64
 62
7
  6
CONTINUOUS
  0
LAYER
  2
LAYER_2
 70
64
 62
7
  6
CONTINUOUS
  0
LAYER
  2
LAYER_3
 70
64
 62
7
  6
CONTINUOUS
  0
LAYER
  2
LAYER_4
 70
64
 62
7
  6
CONTINUOUS
  0
LAYER
  2
LAYER_5
 70
64
 62
7
  6
CONTINUOUS
  0
LAYER
  2
LAYER_6
 70
64
 62
7
  6
CONTINUOUS
  0
ENDTAB
  0
TABLE
  2
STYLE
 70
6
  0
STYLE
  2
STANDARD
 70
0
 40
0
 50
0
 71
0
 41
0
 42
0
  3
TXT
  4
BIGFONT
  0
ENDTAB
  0
ENDSEC
  0
SECTION
  2
BLOCKS
  0
BLOCK
  8
LAYER_1
  2
AIGNBL01040005
 70
64
 10
0
 20
0
 30
0
  3
AIGNBL01040005
  0
POLYLINE
  8
LAYER_1
 40
0.05
 41
0.05
 66
1
 10
0
 20
0
 30
0
 70
1
  0
VERTEX
  8
LAYER_1
 10
138.3767
 20
-249.1011
  0
VERTEX
  8
LAYER_1
 10
137.891
 20
-250.2793
  0
VERTEX
  8
LAYER_1
 10
137.2664
 20
-250.2793
  0
VERTEX
  8
LAYER_1
 10
138.857
 20
-246.5355
  0
VERTEX
  8
LAYER_1
 10
139.586
 20
-246.5355
  0
VERTEX
  8
LAYER_1
 10
141.1828
 20
-250.2793
  0
VERTEX
  8
LAYER_1
 10
140.5365
 20
-250.2793
  0
VERTEX
  8
LAYER_1
 10
140.0369
 20
-249.1011
  0
SEQEND
  0
POLYLINE
  8
LAYER_1
 40
0.05
 41
0.05
 66
1
 10
0
 20
0
 30
0
 70
1
  0
VERTEX
  8
LAYER_1
 10
139.9115
 20
-248.7245
  0
VERTEX
  8
LAYER_1
 10
139.4533
 20
-247.6459
  0
VERTEX
  8
LAYER_1
 10
139.2101
 20
-246.963
  0
VERTEX
  8
LAYER_1
 10
139.1967
 20
-246.963
  0
VERTEX
  8
LAYER_1
 10
138.9603
 20
-247.6414
  0
VERTEX
  8
LAYER_1
 10
138.5021
 20
-248.7245
  0
SEQEND
  0
ENDBLK
  0
BLOCK
  8
LAYER_1
  2
AIGNBL01040006
 70
64
 10
0
 20
0
 30
0
  3
AIGNBL01040006
  0
POLYLINE
  8
LAYER_1
 40
0.05
 41
0.05
 66
1
 10
0
 20
0
 30
0
 70
1
  0
VERTEX
  8
LAYER_1
 10
145.5226
 20
-250.8295
 42
-0.01588995579
  0
VERTEX
  8
LAYER_1
 10
143.7311
 20
-250.3954
  0
VERTEX
  8
LAYER_1
 10
143.4465
 20
-250.3406
 42
-0.08603985201
  0
VERTEX
  8
LAYER_1
 10
142.5648
 20
-250.1665
 42
-0.09807603942
  0
VERTEX
  8
LAYER_1
 10
141.9131
 20
-249.7557
 42
-0.2094886647
  0
VERTEX
  8
LAYER_1
 10
141.3839
 20
-248.4469
 42
-0.09686882676
  0
VERTEX
  8
LAYER_1
 10
141.5276
 20
-247.6779
 42
-0.2046492491
  0
VERTEX
  8
LAYER_1
 10
142.5693
 20
-246.6597
 42
-0.09822810302
  0
VERTEX
  8
LAYER_1
 10
143.5644
 20
-246.4745
 42
-0.08551091506
  0
VERTEX
  8
LAYER_1
 10
144.4282
 20
-246.615
 42
-0.1004264881
  0
VERTEX
  8
LAYER_1
 10
145.0896
 20
-247.0069
 42
-0.2141381959
  0
VERTEX
  8
LAYER_1
 10
145.6617
 20
-248.3686
 42
-0.09538251124
  0
VERTEX
  8
LAYER_1
 10
145.5236
 20
-249.1322
 42
-0.2145004706
  0
VERTEX
  8
LAYER_1
 10
144.5063
 20
-250.1049
 42
-0.02339472194
  0
VERTEX
  8
LAYER_1
 10
144.3281
 20
-250.1628
  0
VERTEX
  8
LAYER_1
 10
144.3281
 20
-250.1852
  0
VERTEX
  8
LAYER_1
 10
145.6965
 20
-250.424
  0
SEQEND
  0
POLYLINE
  8
LAYER_1
 40
0.05
 41
0.05
 66
1
 10
0
 20
0
 30
0
 70
1
  0
VERTEX
  8
LAYER_1
 10
145.0233
 20
-248.39
 42
0.1071465477
  0
VERTEX
  8
LAYER_1
 10
144.8729
 20
-247.6894
 42
0.2977221891
  0
VERTEX
  8
LAYER_1
 10
143.5433
 20
-246.8687
 42
0.1072160189
  0
VERTEX
  8
LAYER_1
 10
142.8575
 20
-247.0073
 42
0.2385375056
  0
VERTEX
  8
LAYER_1
 10
142.0749
 20
-248.007
 42
0.05759145292
  0
VERTEX
  8
LAYER_1
 10
142.0296
 20
-248.4344
 42
0.2182236294
  0
VERTEX
  8
LAYER_1
 10
142.5575
 20
-249.6231
 42
0.1771891839
  0
VERTEX
  8
LAYER_1
 10
143.5161
 20
-249.9468
 42
0.1075696895
  0
VERTEX
  8
LAYER_1
 10
144.1932
 20
-249.8086
 42
0.236982977
  0
VERTEX
  8
LAYER_1
 10
144.9758
 20
-248.8146
 42
0.05604944619
  0
SEQEND
  0
ENDBLK
  0
BLOCK
  8
LAYER_1
  2
AIGNBL01040007
 70
64
 10
0
 20
0
 30
0
  3
AIGNBL01040007
  0
POLYLINE
  8
LAYER_1
 40
0.05
 41
0.05
 66
1
 10
0
 20
0
 30
0
 70
1
  0
VERTEX
  8
LAYER_1
 10
146.9815
 20
-246.5355
  0
VERTEX
  8
LAYER_1
 10
146.9815
 20
-248.7517
 42
0.114472655
  0
VERTEX
  8
LAYER_1
 10
147.1146
 20
-249.4136
 42
0.1464766
  0
VERTEX
  8
LAYER_1
 10
147.4628
 20
-249.7966
 42
0.1363197034
  0
VERTEX
  8
LAYER_1
 10
148.0716
 20
-249.9468
 42
0.1219363095
  0
VERTEX
  8
LAYER_1
 10
148.6913
 20
-249.8128
 42
0.1503291203
  0
VERTEX
  8
LAYER_1
 10
149.0609
 20
-249.446
 42
0.1255921242
  0
VERTEX
  8
LAYER_1
 10
149.2105
 20
-248.7517
  0
VERTEX
  8
LAYER_1
 10
149.2105
 20
-246.5355
  0
VERTEX
  8
LAYER_1
 10
149.8217
 20
-246.5355
  0
VERTEX
  8
LAYER_1
 10
149.8217
 20
-248.7187
 42
-0.1000186514
  0
VERTEX
  8
LAYER_1
 10
149.6875
 20
-249.4569
 42
-0.1214826848
  0
VERTEX
  8
LAYER_1
 10
149.3164
 20
-249.9606
 42
-0.1105884685
  0
VERTEX
  8
LAYER_1
 10
148.6945
 20
-250.2654
 42
-0.06129767201
  0
VERTEX
  8
LAYER_1
 10
148.0509
 20
-250.3406
 42
-0.09420892198
  0
VERTEX
  8
LAYER_1
 10
147.2365
 20
-250.2032
 42
-0.2431575096
  0
VERTEX
  8
LAYER_1
 10
146.4378
 20
-249.2978
 42
-0.06319469768
  0
VERTEX
  8
LAYER_1
 10
146.3707
 20
-248.7404
  0
VERTEX
  8
LAYER_1
 10
146.3707
 20
-246.5355
  0
SEQEND
  0
ENDBLK
  0
BLOCK
  8
LAYER_1
  2
AIGNBL01040008
 70
64
 10
0
 20
0
 30
0
  3
AIGNBL01040008
  0
POLYLINE
  8
LAYER_1
 40
0.05
 41
0.05
 66
1
 10
0
 20
0
 30
0
 70
1
  0
VERTEX
  8
LAYER_1
 10
151.5573
 20
-249.1011
  0
VERTEX
  8
LAYER_1
 10
151.0709
 20
-250.2793
  0
VERTEX
  8
LAYER_1
 10
150.447
 20
-250.2793
  0
VERTEX
  8
LAYER_1
 10
152.0365
 20
-246.5355
  0
VERTEX
  8
LAYER_1
 10
152.7655
 20
-246.5355
  0
VERTEX
  8
LAYER_1
 10
154.3623
 20
-250.2793
  0
VERTEX
  8
LAYER_1
 10
153.7167
 20
-250.2793
  0
VERTEX
  8
LAYER_1
 10
153.2175
 20
-249.1011
  0
SEQEND
  0
POLYLINE
  8
LAYER_1
 40
0.05
 41
0.05
 66
1
 10
0
 20
0
 30
0
 70
1
  0
VERTEX
  8
LAYER_1
 10
153.0921
 20
-248.7245
  0
VERTEX
  8
LAYER_1
 10
152.6332
 20
-247.6459
  0
VERTEX
  8
LAYER_1
 10
152.3897
 20
-246.963
  0
VERTEX
  8
LAYER_1
 10
152.3759
 20
-246.963
  0
VERTEX
  8
LAYER_1
 10
152.1402
 20
-247.6414
  0
VERTEX
  8
LAYER_1
 10
151.682
 20
-248.7245
  0
SEQEND
  0
ENDBLK
  0
BLOCK
  8
LAYER_1
  2
AIGNBL01040009
 70
64
 10
0
 20
0
 30
0
  3
AIGNBL01040009
  0
POLYLINE
  8
LAYER_1
 40
0.05
 41
0.05
 66
1
 10
0
 20
0
 30
0
 70
1
  0
VERTEX
  8
LAYER_1
 10
155.3969
 20
-246.58
 42
-0.03256094069
  0
VERTEX
  8
LAYER_1
 10
156.5576
 20
-246.5072
 42
-0.08241612935
  0
VERTEX
  8
LAYER_1
 10
157.5173
 20
-246.6416
 42
-0.07669938049
  0
VERTEX
  8
LAYER_1
 10
157.8691
 20
-246.8184
 42
-0.2484913661
  0
VERTEX
  8
LAYER_1
 10
158.279
 20
-247.6018
 42
-0.2263535337
  0
VERTEX
  8
LAYER_1
 10
157.9177
 20
-248.4014
 42
-0.1098394792
  0
VERTEX
  8
LAYER_1
 10
157.2932
 20
-248.7128
 42
-0.0656406839
  0
VERTEX
  8
LAYER_1
 10
156.4872
 20
-248.8127
 42
-0.06243203296
  0
VERTEX
  8
LAYER_1
 10
156.0015
 20
-248.7793
  0
VERTEX
  8
LAYER_1
 10
156.0015
 20
-250.2793
  0
VERTEX
  8
LAYER_1
 10
155.3969
 20
-250.2793
  0
SEQEND
  0
POLYLINE
  8
LAYER_1
 40
0.05
 41
0.05
 66
1
 10
0
 20
0
 30
0
 70
1
  0
VERTEX
  8
LAYER_1
 10
156.0015
 20
-248.3852
 42
0.04167858666
  0
VERTEX
  8
LAYER_1
 10
156.501
 20
-248.4245
 42
0.1033682296
  0
VERTEX
  8
LAYER_1
 10
157.216
 20
-248.2977
 42
0.300261568
  0
VERTEX
  8
LAYER_1
 10
157.6751
 20
-247.6242
 42
0.1736095203
  0
VERTEX
  8
LAYER_1
 10
157.5412
 20
-247.2193
 42
0.1518049397
  0
VERTEX
  8
LAYER_1
 10
157.1227
 20
-246.9614
 42
0.06878721899
  0
VERTEX
  8
LAYER_1
 10
156.5713
 20
-246.891
 42
0.0640598863
  0
VERTEX
  8
LAYER_1
 10
156.0015
 20
-246.93
  0
SEQEND
  0
ENDBLK
  0
BLOCK
  8
LAYER_1
  2
AIGNBL0104000A
 70
64
 10
0
 20
0
 30
0
  3
AIGNBL0104000A
  0
POLYLINE
  8
LAYER_1
 40
0.05
 41
0.05
 66
1
 10
0
 20
0
 30
0
 70
1
  0
VERTEX
  8
LAYER_1
 10
159.8218
 20
-246.8352
 42
-0.2759870412
  0
VERTEX
  8
LAYER_1
 10
159.6829
 20
-247.0742
 42
-0.1267055018
  0
VERTEX
  8
LAYER_1
 10
159.4325
 20
-247.1356
 42
-0.2239956238
  0
VERTEX
  8
LAYER_1
 10
159.1241
 20
-247.0039
 42
-0.1705452753
  0
VERTEX
  8
LAYER_1
 10
159.0645
 20
-246.8352
 42
-0.2641883957
  0
VERTEX
  8
LAYER_1
 10
159.2127
 20
-246.5896
 42
-0.1291792354
  0
VERTEX
  8
LAYER_1
 10
159.4459
 20
-246.53
 42
-0.2251681707
  0
VERTEX
  8
LAYER_1
 10
159.761
 20
-246.6599
 42
-0.1693099844
  0
SEQEND
  0
POLYLINE
  8
LAYER_1
 40
0.05
 41
0.05
 66
1
 10
0
 20
0
 30
0
 70
1
  0
VERTEX
  8
LAYER_1
 10
159.1407
 20
-250.2793
  0
VERTEX
  8
LAYER_1
 10
159.1407
 20
-247.5907
  0
VERTEX
  8
LAYER_1
 10
159.7515
 20
-247.5907
  0
VERTEX
  8
LAYER_1
 10
159.7515
 20
-250.2793
  0
SEQEND
  0
ENDBLK
  0
BLOCK
  8
LAYER_1
  2
AIGNBL0104000B
 70
64
 10
0
 20
0
 30
0
  3
AIGNBL0104000B
  0
POLYLINE
  8
LAYER_1
 40
0.05
 41
0.05
 66
1
 10
0
 20
0
 30
0
 70
1
  0
VERTEX
  8
LAYER_1
 10
161.6118
 20
-249.1011
  0
VERTEX
  8
LAYER_1
 10
161.1271
 20
-250.2793
  0
VERTEX
  8
LAYER_1
 10
160.5015
 20
-250.2793
  0
VERTEX
  8
LAYER_1
 10
162.0918
 20
-246.5355
  0
VERTEX
  8
LAYER_1
 10
162.8211
 20
-246.5355
  0
VERTEX
  8
LAYER_1
 10
164.4186
 20
-250.2793
  0
VERTEX
  8
LAYER_1
 10
163.7719
 20
-250.2793
  0
VERTEX
  8
LAYER_1
 10
163.2727
 20
-249.1011
  0
SEQEND
  0
POLYLINE
  8
LAYER_1
 40
0.05
 41
0.05
 66
1
 10
0
 20
0
 30
0
 70
1
  0
VERTEX
  8
LAYER_1
 10
163.1473
 20
-248.7245
  0
VERTEX
  8
LAYER_1
 10
162.6891
 20
-247.6459
  0
VERTEX
  8
LAYER_1
 10
162.4466
 20
-246.963
  0
VERTEX
  8
LAYER_1
 10
162.4321
 20
-246.963
  0
VERTEX
  8
LAYER_1
 10
162.1961
 20
-247.6414
  0
VERTEX
  8
LAYER_1
 10
161.7379
 20
-248.7245
  0
SEQEND
  0
ENDBLK
  0
BLOCK
  8
LAYER_1
  2
AIGNBL01030004
 70
64
 10
0
 20
0
 30
0
  3
AIGNBL01030004
  0
INSERT
  8
LAYER_1
  2
AIGNBL01040005
 10
0
 20
0
 30
0
  0
INSERT
  8
LAYER_1
  2
AIGNBL01040006
 10
0
 20
0
 30
0
  0
INSERT
  8
LAYER_1
  2
AIGNBL01040007
 10
0
 20
0
 30
0
  0
INSERT
  8
LAYER_1
  2
AIGNBL01040008
 10
0
 20
0
 30
0
  0
INSERT
  8
LAYER_1
  2
AIGNBL01040009
 10
0
 20
0
 30
0
  0
INSERT
  8
LAYER_1
  2
AIGNBL0104000A
 10
0
 20
0
 30
0
  0
INSERT
  8
LAYER_1
  2
AIGNBL0104000B
 10
0
 20
0
 30
0
  0
ENDBLK
  0
BLOCK
  8
LAYER_1
  2
AIGNBL0103000D
 70
64
 10
0
 20
0
 30
0
  3
AIGNBL0103000D
  0
POLYLINE
  8
LAYER_1
 40
0.05
 41
0.05
 66
1
 10
0
 20
0
 30
0
 70
1
  0
VERTEX
  8
LAYER_1
 10
137.3756
 20
-252.1676
  0
VERTEX
  8
LAYER_1
 10
137.9258
 20
-252.1676
  0
VERTEX
  8
LAYER_1
 10
137.9258
 20
-252.2609
  0
VERTEX
  8
LAYER_1
 10
137.2715
 20
-252.2609
  0
VERTEX
  8
LAYER_1
 10
137.2715
 20
-251.2339
  0
VERTEX
  8
LAYER_1
 10
137.9082
 20
-251.2339
  0
VERTEX
  8
LAYER_1
 10
137.9082
 20
-251.3266
  0
VERTEX
  8
LAYER_1
 10
137.3756
 20
-251.3266
  0
VERTEX
  8
LAYER_1
 10
137.3756
 20
-251.6787
  0
VERTEX
  8
LAYER_1
 10
137.8734
 20
-251.6787
  0
VERTEX
  8
LAYER_1
 10
137.8734
 20
-251.7717
  0
VERTEX
  8
LAYER_1
 10
137.3756
 20
-251.7717
  0
SEQEND
  0
ENDBLK
  0
BLOCK
  8
LAYER_1
  2
AIGNBL0103000E
 70
64
 10
0
 20
0
 30
0
  3
AIGNBL0103000E
  0
POLYLINE
  8
LAYER_1
 40
0.05
 41
0.05
 66
1
 10
0
 20
0
 30
0
 70
1
  0
VERTEX
  8
LAYER_1
 10
139.0589
 20
-252.1079
  0
VERTEX
  8
LAYER_1
 10
139.0613
 20
-252.1079
  0
VERTEX
  8
LAYER_1
 10
139.0613
 20
-251.2339
  0
VERTEX
  8
LAYER_1
 10
139.1663
 20
-251.2339
  0
VERTEX
  8
LAYER_1
 10
139.1663
 20
-252.2609
  0
VERTEX
  8
LAYER_1
 10
139.0365
 20
-252.2609
  0
VERTEX
  8
LAYER_1
 10
138.4384
 20
-251.3772
  0
VERTEX
  8
LAYER_1
 10
138.435
 20
-251.3772
  0
VERTEX
  8
LAYER_1
 10
138.435
 20
-252.2609
  0
VERTEX
  8
LAYER_1
 10
138.3306
 20
-252.2609
  0
VERTEX
  8
LAYER_1
 10
138.3306
 20
-251.2339
  0
VERTEX
  8
LAYER_1
 10
138.4611
 20
-251.2339
  0
SEQEND
  0
ENDBLK
  0
BLOCK
  8
LAYER_1
  2
AIGNBL0103000F
 70
64
 10
0
 20
0
 30
0
  3
AIGNBL0103000F
  0
POLYLINE
  8
LAYER_1
 40
0.05
 41
0.05
 66
1
 10
0
 20
0
 30
0
 70
1
  0
VERTEX
  8
LAYER_1
 10
139.637
 20
-252.0501
  0
VERTEX
  8
LAYER_1
 10
139.691
 20
-252.1527
 42
0.1791739205
  0
VERTEX
  8
LAYER_1
 10
139.8034
 20
-252.1937
  0
VERTEX
  8
LAYER_1
 10
139.8922
 20
-252.1744
  0
VERTEX
  8
LAYER_1
 10
139.948
 20
-252.1214
  0
VERTEX
  8
LAYER_1
 10
139.9763
 20
-252.0453
  0
VERTEX
  8
LAYER_1
 10
139.9853
 20
-251.956
  0
VERTEX
  8
LAYER_1
 10
139.9853
 20
-251.2339
  0
VERTEX
  8
LAYER_1
 10
140.0893
 20
-251.2339
  0
VERTEX
  8
LAYER_1
 10
140.0893
 20
-251.965
  0
VERTEX
  8
LAYER_1
 10
140.0783
 20
-252.0718
  0
VERTEX
  8
LAYER_1
 10
140.0369
 20
-252.1765
  0
VERTEX
  8
LAYER_1
 10
139.9529
 20
-252.2554
  0
VERTEX
  8
LAYER_1
 10
139.8147
 20
-252.2868
 42
-0.18823279
  0
VERTEX
  8
LAYER_1
 10
139.6311
 20
-252.2268
 42
-0.1779708983
  0
VERTEX
  8
LAYER_1
 10
139.5391
 20
-252.0769
  0
SEQEND
  0
ENDBLK
  0
BLOCK
  8
LAYER_1
  2
AIGNBL01030010
 70
64
 10
0
 20
0
 30
0
  3
AIGNBL01030010
  0
POLYLINE
  8
LAYER_1
 40
0.05
 41
0.05
 66
1
 10
0
 20
0
 30
0
 70
1
  0
VERTEX
  8
LAYER_1
 10
141.5693
 20
-251.7469
 42
-0.104348301
  0
VERTEX
  8
LAYER_1
 10
141.5279
 20
-251.9629
 42
-0.1013865216
  0
VERTEX
  8
LAYER_1
 10
141.4163
 20
-252.1338
  0
VERTEX
  8
LAYER_1
 10
141.2458
 20
-252.2461
 42
-0.09497960855
  0
VERTEX
  8
LAYER_1
 10
141.0332
 20
-252.2868
 42
-0.1003676177
  0
VERTEX
  8
LAYER_1
 10
140.8207
 20
-252.2461
  0
VERTEX
  8
LAYER_1
 10
140.6512
 20
-252.1338
 42
-0.09474436642
  0
VERTEX
  8
LAYER_1
 10
140.5389
 20
-251.9629
 42
-0.09317427323
  0
VERTEX
  8
LAYER_1
 10
140.4986
 20
-251.7469
 42
-0.1052531491
  0
VERTEX
  8
LAYER_1
 10
140.5389
 20
-251.5306
 42
-0.1000138279
  0
VERTEX
  8
LAYER_1
 10
140.6512
 20
-251.3604
 42
-0.09581503346
  0
VERTEX
  8
LAYER_1
 10
140.8207
 20
-251.2481
 42
-0.09561956468
  0
VERTEX
  8
LAYER_1
 10
141.0332
 20
-251.2071
 42
-0.1024782491
  0
VERTEX
  8
LAYER_1
 10
141.2458
 20
-251.2481
 42
-0.1014786584
  0
VERTEX
  8
LAYER_1
 10
141.4163
 20
-251.3604
 42
-0.09815577957
  0
VERTEX
  8
LAYER_1
 10
141.5279
 20
-251.5306
 42
-0.09523735002
  0
SEQEND
  0
POLYLINE
  8
LAYER_1
 40
0.05
 41
0.05
 66
1
 10
0
 20
0
 30
0
 70
1
  0
VERTEX
  8
LAYER_1
 10
141.4584
 20
-251.7476
  0
VERTEX
  8
LAYER_1
 10
141.4301
 20
-251.5767
  0
VERTEX
  8
LAYER_1
 10
141.3454
 20
-251.4344
  0
VERTEX
  8
LAYER_1
 10
141.211
 20
-251.337
 42
0.1026237584
  0
VERTEX
  8
LAYER_1
 10
141.0332
 20
-251.3001
 42
0.1147987019
  0
VERTEX
  8
LAYER_1
 10
140.8558
 20
-251.337
  0
VERTEX
  8
LAYER_1
 10
140.7225
 20
-251.4344
  0
VERTEX
  8
LAYER_1
 10
140.6374
 20
-251.5767
  0
VERTEX
  8
LAYER_1
 10
140.6081
 20
-251.7476
  0
VERTEX
  8
LAYER_1
 10
140.6374
 20
-251.9188
  0
VERTEX
  8
LAYER_1
 10
140.7225
 20
-252.0607
  0
VERTEX
  8
LAYER_1
 10
140.8558
 20
-252.1575
  0
VERTEX
  8
LAYER_1
 10
141.0332
 20
-252.1937
 42
0.1185100977
  0
VERTEX
  8
LAYER_1
 10
141.211
 20
-252.1575
  0
VERTEX
  8
LAYER_1
 10
141.3454
 20
-252.0607
  0
VERTEX
  8
LAYER_1
 10
141.4301
 20
-251.9188
  0
SEQEND
  0
ENDBLK
  0
BLOCK
  8
LAYER_1
  2
AIGNBL01030011
 70
64
 10
0
 20
0
 30
0
  3
AIGNBL01030011
  0
POLYLINE
  8
LAYER_1
 40
0.05
 41
0.05
 66
1
 10
0
 20
0
 30
0
 70
1
  0
VERTEX
  8
LAYER_1
 10
142.3393
 20
-252.2609
  0
VERTEX
  8
LAYER_1
 10
142.2349
 20
-252.2609
  0
VERTEX
  8
LAYER_1
 10
142.2349
 20
-251.8182
  0
VERTEX
  8
LAYER_1
 10
141.8504
 20
-251.2339
  0
VERTEX
  8
LAYER_1
 10
141.9813
 20
-251.2339
  0
VERTEX
  8
LAYER_1
 10
142.2904
 20
-251.7311
  0
VERTEX
  8
LAYER_1
 10
142.6022
 20
-251.2339
  0
VERTEX
  8
LAYER_1
 10
142.7234
 20
-251.2339
  0
VERTEX
  8
LAYER_1
 10
142.3393
 20
-251.8182
  0
SEQEND
  0
ENDBLK
  0
BLOCK
  8
LAYER_1
  2
AIGNBL01030012
 70
64
 10
0
 20
0
 30
0
  3
AIGNBL01030012
  0
POLYLINE
  8
LAYER_1
 40
0.05
 41
0.05
 66
1
 10
0
 20
0
 30
0
 70
1
  0
VERTEX
  8
LAYER_1
 10
143.6236
 20
-251.2339
  0
VERTEX
  8
LAYER_1
 10
143.9288
 20
-251.2339
  0
VERTEX
  8
LAYER_1
 10
144.047
 20
-251.2457
  0
VERTEX
  8
LAYER_1
 10
144.1528
 20
-251.288
  0
VERTEX
  8
LAYER_1
 10
144.2307
 20
-251.3686
  0
VERTEX
  8
LAYER_1
 10
144.2603
 20
-251.4961
 42
-0.1778951175
  0
VERTEX
  8
LAYER_1
 10
144.2103
 20
-251.6373
 42
-0.1614829203
  0
VERTEX
  8
LAYER_1
 10
144.078
 20
-251.7166
  0
VERTEX
  8
LAYER_1
 10
144.078
 20
-251.7194
 42
-0.1736511409
  0
VERTEX
  8
LAYER_1
 10
144.2434
 20
-251.7969
 42
-0.1925337955
  0
VERTEX
  8
LAYER_1
 10
144.3099
 20
-251.9764
  0
VERTEX
  8
LAYER_1
 10
144.2823
 20
-252.0928
  0
VERTEX
  8
LAYER_1
 10
144.2062
 20
-252.1831
  0
VERTEX
  8
LAYER_1
 10
144.0866
 20
-252.2402
  0
VERTEX
  8
LAYER_1
 10
143.9275
 20
-252.2609
  0
VERTEX
  8
LAYER_1
 10
143.6236
 20
-252.2609
  0
SEQEND
  0
POLYLINE
  8
LAYER_1
 40
0.05
 41
0.05
 66
1
 10
0
 20
0
 30
0
 70
1
  0
VERTEX
  8
LAYER_1
 10
143.7277
 20
-251.6832
  0
VERTEX
  8
LAYER_1
 10
143.9382
 20
-251.6832
  0
VERTEX
  8
LAYER_1
 10
144.0146
 20
-251.6742
  0
VERTEX
  8
LAYER_1
 10
144.0842
 20
-251.6453
  0
VERTEX
  8
LAYER_1
 10
144.1362
 20
-251.5888
  0
VERTEX
  8
LAYER_1
 10
144.1552
 20
-251.5034
  0
VERTEX
  8
LAYER_1
 10
144.1362
 20
-251.4203
  0
VERTEX
  8
LAYER_1
 10
144.0835
 20
-251.3638
  0
VERTEX
  8
LAYER_1
 10
144.005
 20
-251.3328
  0
VERTEX
  8
LAYER_1
 10
143.9089
 20
-251.3235
  0
VERTEX
  8
LAYER_1
 10
143.7277
 20
-251.3235
  0
SEQEND
  0
POLYLINE
  8
LAYER_1
 40
0.05
 41
0.05
 66
1
 10
0
 20
0
 30
0
 70
1
  0
VERTEX
  8
LAYER_1
 10
143.7277
 20
-252.171
  0
VERTEX
  8
LAYER_1
 10
143.9223
 20
-252.171
  0
VERTEX
  8
LAYER_1
 10
144.0301
 20
-252.1596
  0
VERTEX
  8
LAYER_1
 10
144.1204
 20
-252.1252
  0
VERTEX
  8
LAYER_1
 10
144.181
 20
-252.0625
  0
VERTEX
  8
LAYER_1
 10
144.2048
 20
-251.9705
 42
0.2546661425
  0
VERTEX
  8
LAYER_1
 10
144.1362
 20
-251.8189
 42
0.138509597
  0
VERTEX
  8
LAYER_1
 10
143.9413
 20
-251.7686
  0
VERTEX
  8
LAYER_1
 10
143.7277
 20
-251.7686
  0
SEQEND
  0
ENDBLK
  0
BLOCK
  8
LAYER_1
  2
AIGNBL01030013
 70
64
 10
0
 20
0
 30
0
  3
AIGNBL01030013
  0
POLYLINE
  8
LAYER_1
 40
0.05
 41
0.05
 66
1
 10
0
 20
0
 30
0
 70
1
  0
VERTEX
  8
LAYER_1
 10
144.7388
 20
-252.2609
  0
VERTEX
  8
LAYER_1
 10
144.6241
 20
-252.2609
  0
VERTEX
  8
LAYER_1
 10
145.0685
 20
-251.2339
  0
VERTEX
  8
LAYER_1
 10
145.1705
 20
-251.2339
  0
VERTEX
  8
LAYER_1
 10
145.6111
 20
-252.2609
  0
VERTEX
  8
LAYER_1
 10
145.4943
 20
-252.2609
  0
VERTEX
  8
LAYER_1
 10
145.3813
 20
-251.9912
  0
VERTEX
  8
LAYER_1
 10
144.8504
 20
-251.9912
  0
SEQEND
  0
POLYLINE
  8
LAYER_1
 40
0.05
 41
0.05
 66
1
 10
0
 20
0
 30
0
 70
1
  0
VERTEX
  8
LAYER_1
 10
144.8894
 20
-251.8947
  0
VERTEX
  8
LAYER_1
 10
145.3424
 20
-251.8947
  0
VERTEX
  8
LAYER_1
 10
145.1164
 20
-251.3493
  0
SEQEND
  0
ENDBLK
  0
BLOCK
  8
LAYER_1
  2
AIGNBL01030014
 70
64
 10
0
 20
0
 30
0
  3
AIGNBL01030014
  0
POLYLINE
  8
LAYER_1
 40
0.05
 41
0.05
 66
1
 10
0
 20
0
 30
0
 70
1
  0
VERTEX
  8
LAYER_1
 10
146.2915
 20
-252.2609
  0
VERTEX
  8
LAYER_1
 10
146.1871
 20
-252.2609
  0
VERTEX
  8
LAYER_1
 10
146.1871
 20
-251.3266
  0
VERTEX
  8
LAYER_1
 10
145.8426
 20
-251.3266
  0
VERTEX
  8
LAYER_1
 10
145.8426
 20
-251.2339
  0
VERTEX
  8
LAYER_1
 10
146.635
 20
-251.2339
  0
VERTEX
  8
LAYER_1
 10
146.635
 20
-251.3266
  0
VERTEX
  8
LAYER_1
 10
146.2915
 20
-251.3266
  0
SEQEND
  0
ENDBLK
  0
BLOCK
  8
LAYER_1
  2
AIGNBL01030015
 70
64
 10
0
 20
0
 30
0
  3
AIGNBL01030015
  0
POLYLINE
  8
LAYER_1
 40
0.05
 41
0.05
 66
1
 10
0
 20
0
 30
0
 70
1
  0
VERTEX
  8
LAYER_1
 10
146.9888
 20
-251.2339
  0
VERTEX
  8
LAYER_1
 10
147.0932
 20
-251.2339
  0
VERTEX
  8
LAYER_1
 10
147.0932
 20
-251.6787
  0
VERTEX
  8
LAYER_1
 10
147.654
 20
-251.6787
  0
VERTEX
  8
LAYER_1
 10
147.654
 20
-251.2339
  0
VERTEX
  8
LAYER_1
 10
147.7581
 20
-251.2339
  0
VERTEX
  8
LAYER_1
 10
147.7581
 20
-252.2609
  0
VERTEX
  8
LAYER_1
 10
147.654
 20
-252.2609
  0
VERTEX
  8
LAYER_1
 10
147.654
 20
-251.7745
  0
VERTEX
  8
LAYER_1
 10
147.0932
 20
-251.7745
  0
VERTEX
  8
LAYER_1
 10
147.0932
 20
-252.2609
  0
VERTEX
  8
LAYER_1
 10
146.9888
 20
-252.2609
  0
SEQEND
  0
ENDBLK
  0
BLOCK
  8
LAYER_1
  2
AIGNBL01030016
 70
64
 10
0
 20
0
 30
0
  3
AIGNBL01030016
  0
POLYLINE
  8
LAYER_1
 40
0.05
 41
0.05
 66
1
 10
0
 20
0
 30
0
 70
1
  0
VERTEX
  8
LAYER_1
 10
148.3351
 20
-252.2609
  0
VERTEX
  8
LAYER_1
 10
148.2311
 20
-252.2609
  0
VERTEX
  8
LAYER_1
 10
148.2311
 20
-251.2339
  0
VERTEX
  8
LAYER_1
 10
148.5322
 20
-251.2339
  0
VERTEX
  8
LAYER_1
 10
148.6724
 20
-251.2481
  0
VERTEX
  8
LAYER_1
 10
148.7844
 20
-251.2953
  0
VERTEX
  8
LAYER_1
 10
148.8571
 20
-251.38
  0
VERTEX
  8
LAYER_1
 10
148.8829
 20
-251.5078
  0
VERTEX
  8
LAYER_1
 10
148.8636
 20
-251.6108
  0
VERTEX
  8
LAYER_1
 10
148.8088
 20
-251.6911
  0
VERTEX
  8
LAYER_1
 10
148.7258
 20
-251.7459
  0
VERTEX
  8
LAYER_1
 10
148.6214
 20
-251.7717
  0
VERTEX
  8
LAYER_1
 10
148.9211
 20
-252.2609
  0
VERTEX
  8
LAYER_1
 10
148.7937
 20
-252.2609
  0
VERTEX
  8
LAYER_1
 10
148.5098
 20
-251.7807
  0
VERTEX
  8
LAYER_1
 10
148.3351
 20
-251.7807
  0
SEQEND
  0
POLYLINE
  8
LAYER_1
 40
0.05
 41
0.05
 66
1
 10
0
 20
0
 30
0
 70
1
  0
VERTEX
  8
LAYER_1
 10
148.3351
 20
-251.6904
  0
VERTEX
  8
LAYER_1
 10
148.517
 20
-251.6904
 42
0.1622417858
  0
VERTEX
  8
LAYER_1
 10
148.711
 20
-251.6453
 42
0.2500476248
  0
VERTEX
  8
LAYER_1
 10
148.7799
 20
-251.5078
  0
VERTEX
  8
LAYER_1
 10
148.7602
 20
-251.4224
  0
VERTEX
  8
LAYER_1
 10
148.7079
 20
-251.3652
  0
VERTEX
  8
LAYER_1
 10
148.6269
 20
-251.3338
  0
VERTEX
  8
LAYER_1
 10
148.5212
 20
-251.3235
  0
VERTEX
  8
LAYER_1
 10
148.3351
 20
-251.3235
  0
SEQEND
  0
ENDBLK
  0
BLOCK
  8
LAYER_1
  2
AIGNBL01030017
 70
64
 10
0
 20
0
 30
0
  3
AIGNBL01030017
  0
POLYLINE
  8
LAYER_1
 40
0.05
 41
0.05
 66
1
 10
0
 20
0
 30
0
 70
1
  0
VERTEX
  8
LAYER_1
 10
150.3154
 20
-251.7469
 42
-0.1015060182
  0
VERTEX
  8
LAYER_1
 10
150.2747
 20
-251.9629
 42
-0.09993540575
  0
VERTEX
  8
LAYER_1
 10
150.1624
 20
-252.1338
 42
-0.09525489566
  0
VERTEX
  8
LAYER_1
 10
149.9926
 20
-252.2461
 42
-0.09491251156
  0
VERTEX
  8
LAYER_1
 10
149.78
 20
-252.2868
 42
-0.1002015795
  0
VERTEX
  8
LAYER_1
 10
149.5674
 20
-252.2461
 42
-0.1016690689
  0
VERTEX
  8
LAYER_1
 10
149.3979
 20
-252.1338
 42
-0.09667300425
  0
VERTEX
  8
LAYER_1
 10
149.2856
 20
-251.9629
 42
-0.09262920428
  0
VERTEX
  8
LAYER_1
 10
149.2453
 20
-251.7469
 42
-0.09846568495
  0
VERTEX
  8
LAYER_1
 10
149.2856
 20
-251.5306
 42
-0.09950302227
  0
VERTEX
  8
LAYER_1
 10
149.3979
 20
-251.3604
 42
-0.09832237419
  0
VERTEX
  8
LAYER_1
 10
149.5674
 20
-251.2481
 42
-0.09564774702
  0
VERTEX
  8
LAYER_1
 10
149.78
 20
-251.2071
 42
-0.1014301699
  0
VERTEX
  8
LAYER_1
 10
149.9926
 20
-251.2481
 42
-0.1041253763
  0
VERTEX
  8
LAYER_1
 10
150.1624
 20
-251.3604
 42
-0.09489987116
  0
VERTEX
  8
LAYER_1
 10
150.2747
 20
-251.5306
 42
-0.09342113907
  0
SEQEND
  0
POLYLINE
  8
LAYER_1
 40
0.05
 41
0.05
 66
1
 10
0
 20
0
 30
0
 70
1
  0
VERTEX
  8
LAYER_1
 10
150.2051
 20
-251.7476
  0
VERTEX
  8
LAYER_1
 10
150.1762
 20
-251.5767
  0
VERTEX
  8
LAYER_1
 10
150.0921
 20
-251.4344
  0
VERTEX
  8
LAYER_1
 10
149.9581
 20
-251.337
 42
0.1022827687
  0
VERTEX
  8
LAYER_1
 10
149.78
 20
-251.3001
 42
0.1183846388
  0
VERTEX
  8
LAYER_1
 10
149.6026
 20
-251.337
  0
VERTEX
  8
LAYER_1
 10
149.4682
 20
-251.4344
  0
VERTEX
  8
LAYER_1
 10
149.3842
 20
-251.5767
  0
VERTEX
  8
LAYER_1
 10
149.3549
 20
-251.7476
  0
VERTEX
  8
LAYER_1
 10
149.3842
 20
-251.9188
  0
VERTEX
  8
LAYER_1
 10
149.4682
 20
-252.0607
  0
VERTEX
  8
LAYER_1
 10
149.6026
 20
-252.1575
 42
0.1007973502
  0
VERTEX
  8
LAYER_1
 10
149.78
 20
-252.1937
  0
VERTEX
  8
LAYER_1
 10
149.9581
 20
-252.1575
  0
VERTEX
  8
LAYER_1
 10
150.0921
 20
-252.0607
  0
VERTEX
  8
LAYER_1
 10
150.1762
 20
-251.9188
  0
SEQEND
  0
ENDBLK
  0
BLOCK
  8
LAYER_1
  2
AIGNBL01030018
 70
64
 10
0
 20
0
 30
0
  3
AIGNBL01030018
  0
POLYLINE
  8
LAYER_1
 40
0.05
 41
0.05
 66
1
 10
0
 20
0
 30
0
 70
1
  0
VERTEX
  8
LAYER_1
 10
151.7489
 20
-251.7469
 42
-0.1017020442
  0
VERTEX
  8
LAYER_1
 10
151.7086
 20
-251.9629
  0
VERTEX
  8
LAYER_1
 10
151.5963
 20
-252.1338
  0
VERTEX
  8
LAYER_1
 10
151.4264
 20
-252.2461
 42
-0.09495021158
  0
VERTEX
  8
LAYER_1
 10
151.2139
 20
-252.2868
 42
-0.1019502388
  0
VERTEX
  8
LAYER_1
 10
151.0013
 20
-252.2461
 42
-0.1021914323
  0
VERTEX
  8
LAYER_1
 10
150.8318
 20
-252.1338
 42
-0.09636018285
  0
VERTEX
  8
LAYER_1
 10
150.7188
 20
-251.9629
 42
-0.09364604827
  0
VERTEX
  8
LAYER_1
 10
150.6781
 20
-251.7469
 42
-0.1001287453
  0
VERTEX
  8
LAYER_1
 10
150.7188
 20
-251.5306
 42
-0.1037227634
  0
VERTEX
  8
LAYER_1
 10
150.8318
 20
-251.3604
 42
-0.0985967677
  0
VERTEX
  8
LAYER_1
 10
151.0013
 20
-251.2481
 42
-0.0957287822
  0
VERTEX
  8
LAYER_1
 10
151.2139
 20
-251.2071
 42
-0.1016365741
  0
VERTEX
  8
LAYER_1
 10
151.4264
 20
-251.2481
 42
-0.09861864621
  0
VERTEX
  8
LAYER_1
 10
151.5963
 20
-251.3604
 42
-0.09487953686
  0
VERTEX
  8
LAYER_1
 10
151.7086
 20
-251.5306
 42
-0.09256741039
  0
SEQEND
  0
POLYLINE
  8
LAYER_1
 40
0.05
 41
0.05
 66
1
 10
0
 20
0
 30
0
 70
1
  0
VERTEX
  8
LAYER_1
 10
151.639
 20
-251.7476
  0
VERTEX
  8
LAYER_1
 10
151.61
 20
-251.5767
  0
VERTEX
  8
LAYER_1
 10
151.526
 20
-251.4344
  0
VERTEX
  8
LAYER_1
 10
151.3916
 20
-251.337
 42
0.1025075331
  0
VERTEX
  8
LAYER_1
 10
151.2139
 20
-251.3001
 42
0.118884027
  0
VERTEX
  8
LAYER_1
 10
151.0361
 20
-251.337
  0
VERTEX
  8
LAYER_1
 10
150.9017
 20
-251.4344
  0
VERTEX
  8
LAYER_1
 10
150.818
 20
-251.5767
  0
VERTEX
  8
LAYER_1
 10
150.7887
 20
-251.7476
  0
VERTEX
  8
LAYER_1
 10
150.818
 20
-251.9188
  0
VERTEX
  8
LAYER_1
 10
150.9017
 20
-252.0607
  0
VERTEX
  8
LAYER_1
 10
151.0361
 20
-252.1575
 42
0.100589677
  0
VERTEX
  8
LAYER_1
 10
151.2139
 20
-252.1937
  0
VERTEX
  8
LAYER_1
 10
151.3916
 20
-252.1575
  0
VERTEX
  8
LAYER_1
 10
151.526
 20
-252.0607
  0
VERTEX
  8
LAYER_1
 10
151.61
 20
-251.9188
  0
SEQEND
  0
ENDBLK
  0
BLOCK
  8
LAYER_1
  2
AIGNBL01030019
 70
64
 10
0
 20
0
 30
0
  3
AIGNBL01030019
  0
POLYLINE
  8
LAYER_1
 40
0.05
 41
0.05
 66
1
 10
0
 20
0
 30
0
 70
1
  0
VERTEX
  8
LAYER_1
 10
152.6742
 20
-252.0839
  0
VERTEX
  8
LAYER_1
 10
152.6756
 20
-252.0839
  0
VERTEX
  8
LAYER_1
 10
153.0194
 20
-251.2339
  0
VERTEX
  8
LAYER_1
 10
153.1793
 20
-251.2339
  0
VERTEX
  8
LAYER_1
 10
153.1793
 20
-252.2609
  0
VERTEX
  8
LAYER_1
 10
153.0749
 20
-252.2609
  0
VERTEX
  8
LAYER_1
 10
153.0749
 20
-251.3686
  0
VERTEX
  8
LAYER_1
 10
153.0718
 20
-251.3686
  0
VERTEX
  8
LAYER_1
 10
152.7007
 20
-252.2609
  0
VERTEX
  8
LAYER_1
 10
152.646
 20
-252.2609
  0
VERTEX
  8
LAYER_1
 10
152.2743
 20
-251.3686
  0
VERTEX
  8
LAYER_1
 10
152.2708
 20
-251.3686
  0
VERTEX
  8
LAYER_1
 10
152.2708
 20
-252.2609
  0
VERTEX
  8
LAYER_1
 10
152.1668
 20
-252.2609
  0
VERTEX
  8
LAYER_1
 10
152.1668
 20
-251.2339
  0
VERTEX
  8
LAYER_1
 10
152.327
 20
-251.2339
  0
SEQEND
  0
ENDBLK
  0
BLOCK
  8
LAYER_1
  2
AIGNBL0103001A
 70
64
 10
0
 20
0
 30
0
  3
AIGNBL0103001A
  0
POLYLINE
  8
LAYER_1
 40
0.05
 41
0.05
 66
1
 10
0
 20
0
 30
0
 70
1
  0
VERTEX
  8
LAYER_1
 10
154.3196
 20
-252.1676
  0
VERTEX
  8
LAYER_1
 10
154.8694
 20
-252.1676
  0
VERTEX
  8
LAYER_1
 10
154.8694
 20
-252.2609
  0
VERTEX
  8
LAYER_1
 10
154.2145
 20
-252.2609
  0
VERTEX
  8
LAYER_1
 10
154.2145
 20
-251.2339
  0
VERTEX
  8
LAYER_1
 10
154.8522
 20
-251.2339
  0
VERTEX
  8
LAYER_1
 10
154.8522
 20
-251.3263
  0
VERTEX
  8
LAYER_1
 10
154.3196
 20
-251.3263
  0
VERTEX
  8
LAYER_1
 10
154.3196
 20
-251.6787
  0
VERTEX
  8
LAYER_1
 10
154.8167
 20
-251.6787
  0
VERTEX
  8
LAYER_1
 10
154.8167
 20
-251.7717
  0
VERTEX
  8
LAYER_1
 10
154.3196
 20
-251.7717
  0
SEQEND
  0
ENDBLK
  0
BLOCK
  8
LAYER_1
  2
AIGNBL0103001B
 70
64
 10
0
 20
0
 30
0
  3
AIGNBL0103001B
  0
POLYLINE
  8
LAYER_1
 40
0.05
 41
0.05
 66
1
 10
0
 20
0
 30
0
 70
1
  0
VERTEX
  8
LAYER_1
 10
155.6101
 20
-251.6484
  0
VERTEX
  8
LAYER_1
 10
155.8906
 20
-251.2339
  0
VERTEX
  8
LAYER_1
 10
156.0153
 20
-251.2339
  0
VERTEX
  8
LAYER_1
 10
155.6749
 20
-251.7221
  0
VERTEX
  8
LAYER_1
 10
156.0518
 20
-252.2609
  0
VERTEX
  8
LAYER_1
 10
155.9216
 20
-252.2609
  0
VERTEX
  8
LAYER_1
 10
155.6081
 20
-251.7979
  0
VERTEX
  8
LAYER_1
 10
155.296
 20
-252.2609
  0
VERTEX
  8
LAYER_1
 10
155.165
 20
-252.2609
  0
VERTEX
  8
LAYER_1
 10
155.5426
 20
-251.7211
  0
VERTEX
  8
LAYER_1
 10
155.1988
 20
-251.2339
  0
VERTEX
  8
LAYER_1
 10
155.329
 20
-251.2339
  0
SEQEND
  0
ENDBLK
  0
BLOCK
  8
LAYER_1
  2
AIGNBL0103001C
 70
64
 10
0
 20
0
 30
0
  3
AIGNBL0103001C
  0
POLYLINE
  8
LAYER_1
 40
0.05
 41
0.05
 66
1
 10
0
 20
0
 30
0
 70
1
  0
VERTEX
  8
LAYER_1
 10
156.4159
 20
-251.2339
  0
VERTEX
  8
LAYER_1
 10
156.706
 20
-251.2339
  0
VERTEX
  8
LAYER_1
 10
156.8487
 20
-251.2498
  0
VERTEX
  8
LAYER_1
 10
156.9575
 20
-251.3015
  0
VERTEX
  8
LAYER_1
 10
157.0288
 20
-251.3866
  0
VERTEX
  8
LAYER_1
 10
157.053
 20
-251.5078
  0
VERTEX
  8
LAYER_1
 10
157.0281
 20
-251.6291
  0
VERTEX
  8
LAYER_1
 10
156.9568
 20
-251.7145
  0
VERTEX
  8
LAYER_1
 10
156.8459
 20
-251.7659
  0
VERTEX
  8
LAYER_1
 10
156.7032
 20
-251.7831
  0
VERTEX
  8
LAYER_1
 10
156.5203
 20
-251.7831
  0
VERTEX
  8
LAYER_1
 10
156.5203
 20
-252.2609
  0
VERTEX
  8
LAYER_1
 10
156.4159
 20
-252.2609
  0
SEQEND
  0
POLYLINE
  8
LAYER_1
 40
0.05
 41
0.05
 66
1
 10
0
 20
0
 30
0
 70
1
  0
VERTEX
  8
LAYER_1
 10
156.5203
 20
-251.6949
  0
VERTEX
  8
LAYER_1
 10
156.6974
 20
-251.6949
 42
0.179800284
  0
VERTEX
  8
LAYER_1
 10
156.8848
 20
-251.6474
 42
0.2343125845
  0
VERTEX
  8
LAYER_1
 10
156.9489
 20
-251.5078
 42
0.2635647854
  0
VERTEX
  8
LAYER_1
 10
156.8824
 20
-251.3676
 42
0.1265134521
  0
VERTEX
  8
LAYER_1
 10
156.6974
 20
-251.3235
  0
VERTEX
  8
LAYER_1
 10
156.5203
 20
-251.3235
  0
SEQEND
  0
ENDBLK
  0
BLOCK
  8
LAYER_1
  2
AIGNBL0103001D
 70
64
 10
0
 20
0
 30
0
  3
AIGNBL0103001D
  0
POLYLINE
  8
LAYER_1
 40
0.05
 41
0.05
 66
1
 10
0
 20
0
 30
0
 70
1
  0
VERTEX
  8
LAYER_1
 10
157.5621
 20
-252.1676
  0
VERTEX
  8
LAYER_1
 10
158.1116
 20
-252.1676
  0
VERTEX
  8
LAYER_1
 10
158.1116
 20
-252.2609
  0
VERTEX
  8
LAYER_1
 10
157.4577
 20
-252.2609
  0
VERTEX
  8
LAYER_1
 10
157.4577
 20
-251.2339
  0
VERTEX
  8
LAYER_1
 10
158.0947
 20
-251.2339
  0
VERTEX
  8
LAYER_1
 10
158.0947
 20
-251.3263
  0
VERTEX
  8
LAYER_1
 10
157.5621
 20
-251.3263
  0
VERTEX
  8
LAYER_1
 10
157.5621
 20
-251.6787
  0
VERTEX
  8
LAYER_1
 10
158.0599
 20
-251.6787
  0
VERTEX
  8
LAYER_1
 10
158.0599
 20
-251.7717
  0
VERTEX
  8
LAYER_1
 10
157.5621
 20
-251.7717
  0
SEQEND
  0
ENDBLK
  0
BLOCK
  8
LAYER_1
  2
AIGNBL0103001E
 70
64
 10
0
 20
0
 30
0
  3
AIGNBL0103001E
  0
POLYLINE
  8
LAYER_1
 40
0.05
 41
0.05
 66
1
 10
0
 20
0
 30
0
 70
1
  0
VERTEX
  8
LAYER_1
 10
158.6208
 20
-252.2609
  0
VERTEX
  8
LAYER_1
 10
158.5168
 20
-252.2609
  0
VERTEX
  8
LAYER_1
 10
158.5168
 20
-251.2339
  0
VERTEX
  8
LAYER_1
 10
158.8185
 20
-251.2339
  0
VERTEX
  8
LAYER_1
 10
158.9584
 20
-251.2481
  0
VERTEX
  8
LAYER_1
 10
159.07
 20
-251.2953
  0
VERTEX
  8
LAYER_1
 10
159.1438
 20
-251.38
  0
VERTEX
  8
LAYER_1
 10
159.1696
 20
-251.5078
  0
VERTEX
  8
LAYER_1
 10
159.1493
 20
-251.6105
  0
VERTEX
  8
LAYER_1
 10
159.0945
 20
-251.6915
  0
VERTEX
  8
LAYER_1
 10
159.0111
 20
-251.7459
  0
VERTEX
  8
LAYER_1
 10
158.9067
 20
-251.7717
  0
VERTEX
  8
LAYER_1
 10
159.2075
 20
-252.2609
  0
VERTEX
  8
LAYER_1
 10
159.08
 20
-252.2609
  0
VERTEX
  8
LAYER_1
 10
158.7955
 20
-251.7803
  0
VERTEX
  8
LAYER_1
 10
158.6208
 20
-251.7803
  0
SEQEND
  0
POLYLINE
  8
LAYER_1
 40
0.05
 41
0.05
 66
1
 10
0
 20
0
 30
0
 70
1
  0
VERTEX
  8
LAYER_1
 10
158.6208
 20
-251.69
  0
VERTEX
  8
LAYER_1
 10
158.8027
 20
-251.69
 42
0.1625850216
  0
VERTEX
  8
LAYER_1
 10
158.9974
 20
-251.6453
 42
0.2500143464
  0
VERTEX
  8
LAYER_1
 10
159.0652
 20
-251.5078
  0
VERTEX
  8
LAYER_1
 10
159.047
 20
-251.4224
  0
VERTEX
  8
LAYER_1
 10
158.9943
 20
-251.3652
  0
VERTEX
  8
LAYER_1
 10
158.9123
 20
-251.3338
  0
VERTEX
  8
LAYER_1
 10
158.8065
 20
-251.3235
  0
VERTEX
  8
LAYER_1
 10
158.6208
 20
-251.3235
  0
SEQEND
  0
ENDBLK
  0
BLOCK
  8
LAYER_1
  2
AIGNBL0103001F
 70
64
 10
0
 20
0
 30
0
  3
AIGNBL0103001F
  0
POLYLINE
  8
LAYER_1
 40
0.05
 41
0.05
 66
1
 10
0
 20
0
 30
0
 70
1
  0
VERTEX
  8
LAYER_1
 10
159.6898
 20
-252.2609
  0
VERTEX
  8
LAYER_1
 10
159.5865
 20
-252.2609
  0
VERTEX
  8
LAYER_1
 10
159.5865
 20
-251.2339
  0
VERTEX
  8
LAYER_1
 10
159.6898
 20
-251.2339
  0
SEQEND
  0
ENDBLK
  0
BLOCK
  8
LAYER_1
  2
AIGNBL01030020
 70
64
 10
0
 20
0
 30
0
  3
AIGNBL01030020
  0
POLYLINE
  8
LAYER_1
 40
0.05
 41
0.05
 66
1
 10
0
 20
0
 30
0
 70
1
  0
VERTEX
  8
LAYER_1
 10
160.2676
 20
-252.1676
  0
VERTEX
  8
LAYER_1
 10
160.8174
 20
-252.1676
  0
VERTEX
  8
LAYER_1
 10
160.8174
 20
-252.2609
  0
VERTEX
  8
LAYER_1
 10
160.1639
 20
-252.2609
  0
VERTEX
  8
LAYER_1
 10
160.1639
 20
-251.2339
  0
VERTEX
  8
LAYER_1
 10
160.8005
 20
-251.2339
  0
VERTEX
  8
LAYER_1
 10
160.8005
 20
-251.3263
  0
VERTEX
  8
LAYER_1
 10
160.2676
 20
-251.3263
  0
VERTEX
  8
LAYER_1
 10
160.2676
 20
-251.6787
  0
VERTEX
  8
LAYER_1
 10
160.7654
 20
-251.6787
  0
VERTEX
  8
LAYER_1
 10
160.7654
 20
-251.7717
  0
VERTEX
  8
LAYER_1
 10
160.2676
 20
-251.7717
  0
SEQEND
  0
ENDBLK
  0
BLOCK
  8
LAYER_1
  2
AIGNBL01030021
 70
64
 10
0
 20
0
 30
0
  3
AIGNBL01030021
  0
POLYLINE
  8
LAYER_1
 40
0.05
 41
0.05
 66
1
 10
0
 20
0
 30
0
 70
1
  0
VERTEX
  8
LAYER_1
 10
161.9505
 20
-252.1079
  0
VERTEX
  8
LAYER_1
 10
161.9536
 20
-252.1079
  0
VERTEX
  8
LAYER_1
 10
161.9536
 20
-251.2339
  0
VERTEX
  8
LAYER_1
 10
162.058
 20
-251.2339
  0
VERTEX
  8
LAYER_1
 10
162.058
 20
-252.2609
  0
VERTEX
  8
LAYER_1
 10
161.9277
 20
-252.2609
  0
VERTEX
  8
LAYER_1
 10
161.3297
 20
-251.3772
  0
VERTEX
  8
LAYER_1
 10
161.3266
 20
-251.3772
  0
VERTEX
  8
LAYER_1
 10
161.3266
 20
-252.2609
  0
VERTEX
  8
LAYER_1
 10
161.2222
 20
-252.2609
  0
VERTEX
  8
LAYER_1
 10
161.2222
 20
-251.2339
  0
VERTEX
  8
LAYER_1
 10
161.3535
 20
-251.2339
  0
SEQEND
  0
ENDBLK
  0
BLOCK
  8
LAYER_1
  2
AIGNBL01030022
 70
64
 10
0
 20
0
 30
0
  3
AIGNBL01030022
  0
POLYLINE
  8
LAYER_1
 40
0.05
 41
0.05
 66
1
 10
0
 20
0
 30
0
 70
1
  0
VERTEX
  8
LAYER_1
 10
163.396
 20
-252.0942
  0
VERTEX
  8
LAYER_1
 10
163.3323
 20
-252.1679
  0
VERTEX
  8
LAYER_1
 10
163.2469
 20
-252.2295
  0
VERTEX
  8
LAYER_1
 10
163.1394
 20
-252.2716
  0
VERTEX
  8
LAYER_1
 10
163.0112
 20
-252.2868
 42
-0.1009164681
  0
VERTEX
  8
LAYER_1
 10
162.7966
 20
-252.2461
 42
-0.1027581013
  0
VERTEX
  8
LAYER_1
 10
162.6271
 20
-252.1335
 42
-0.1010578842
  0
VERTEX
  8
LAYER_1
 10
162.5162
 20
-251.9633
 42
-0.09298732079
  0
VERTEX
  8
LAYER_1
 10
162.4759
 20
-251.7469
 42
-0.1023262951
  0
VERTEX
  8
LAYER_1
 10
162.5169
 20
-251.5306
 42
-0.1009138363
  0
VERTEX
  8
LAYER_1
 10
162.6285
 20
-251.3604
  0
VERTEX
  8
LAYER_1
 10
162.798
 20
-251.2481
 42
-0.09535690024
  0
VERTEX
  8
LAYER_1
 10
163.0112
 20
-251.2071
  0
VERTEX
  8
LAYER_1
 10
163.1222
 20
-251.2191
  0
VERTEX
  8
LAYER_1
 10
163.2252
 20
-251.2522
  0
VERTEX
  8
LAYER_1
 10
163.3117
 20
-251.3035
  0
VERTEX
  8
LAYER_1
 10
163.3767
 20
-251.3711
  0
VERTEX
  8
LAYER_1
 10
163.2906
 20
-251.4355
  0
VERTEX
  8
LAYER_1
 10
163.2469
 20
-251.3858
  0
VERTEX
  8
LAYER_1
 10
163.1835
 20
-251.3421
  0
VERTEX
  8
LAYER_1
 10
163.1043
 20
-251.3114
  0
VERTEX
  8
LAYER_1
 10
163.0126
 20
-251.3001
  0
VERTEX
  8
LAYER_1
 10
162.8338
 20
-251.3362
  0
VERTEX
  8
LAYER_1
 10
162.6998
 20
-251.4338
  0
VERTEX
  8
LAYER_1
 10
162.6147
 20
-251.5764
  0
VERTEX
  8
LAYER_1
 10
162.5868
 20
-251.7469
  0
VERTEX
  8
LAYER_1
 10
162.6164
 20
-251.9178
  0
VERTEX
  8
LAYER_1
 10
162.7012
 20
-252.0601
  0
VERTEX
  8
LAYER_1
 10
162.8356
 20
-252.1575
 42
0.1012189446
  0
VERTEX
  8
LAYER_1
 10
163.0126
 20
-252.1937
  0
VERTEX
  8
LAYER_1
 10
163.1804
 20
-252.1575
 42
0.1297589768
  0
VERTEX
  8
LAYER_1
 10
163.3148
 20
-252.0414
  0
SEQEND
  0
ENDBLK
  0
BLOCK
  8
LAYER_1
  2
AIGNBL01030023
 70
64
 10
0
 20
0
 30
0
  3
AIGNBL01030023
  0
POLYLINE
  8
LAYER_1
 40
0.05
 41
0.05
 66
1
 10
0
 20
0
 30
0
 70
1
  0
VERTEX
  8
LAYER_1
 10
163.8801
 20
-252.1676
  0
VERTEX
  8
LAYER_1
 10
164.4299
 20
-252.1676
  0
VERTEX
  8
LAYER_1
 10
164.4299
 20
-252.2609
  0
VERTEX
  8
LAYER_1
 10
163.7764
 20
-252.2609
  0
VERTEX
  8
LAYER_1
 10
163.7764
 20
-251.2339
  0
VERTEX
  8
LAYER_1
 10
164.4127
 20
-251.2339
  0
VERTEX
  8
LAYER_1
 10
164.4127
 20
-251.3263
  0
VERTEX
  8
LAYER_1
 10
163.8801
 20
-251.3263
  0
VERTEX
  8
LAYER_1
 10
163.8801
 20
-251.6787
  0
VERTEX
  8
LAYER_1
 10
164.3782
 20
-251.6787
  0
VERTEX
  8
LAYER_1
 10
164.3782
 20
-251.7717
  0
VERTEX
  8
LAYER_1
 10
163.8801
 20
-251.7717
  0
SEQEND
  0
ENDBLK
  0
BLOCK
  8
LAYER_1
  2
AIGNBL01020003
 70
64
 10
0
 20
0
 30
0
  3
AIGNBL01020003
  0
INSERT
  8
LAYER_1
  2
AIGNBL01030004
 10
0
 20
0
 30
0
  0
ENDBLK
  0
BLOCK
  8
LAYER_1
  2
AIGNBL0102000C
 70
64
 10
0
 20
0
 30
0
  3
AIGNBL0102000C
  0
INSERT
  8
LAYER_1
  2
AIGNBL0103000D
 10
0
 20
0
 30
0
  0
INSERT
  8
LAYER_1
  2
AIGNBL0103000E
 10
0
 20
0
 30
0
  0
INSERT
  8
LAYER_1
  2
AIGNBL0103000F
 10
0
 20
0
 30
0
  0
INSERT
  8
LAYER_1
  2
AIGNBL01030010
 10
0
 20
0
 30
0
  0
INSERT
  8
LAYER_1
  2
AIGNBL01030011
 10
0
 20
0
 30
0
  0
INSERT
  8
LAYER_1
  2
AIGNBL01030012
 10
0
 20
0
 30
0
  0
INSERT
  8
LAYER_1
  2
AIGNBL01030013
 10
0
 20
0
 30
0
  0
INSERT
  8
LAYER_1
  2
AIGNBL01030014
 10
0
 20
0
 30
0
  0
INSERT
  8
LAYER_1
  2
AIGNBL01030015
 10
0
 20
0
 30
0
  0
INSERT
  8
LAYER_1
  2
AIGNBL01030016
 10
0
 20
0
 30
0
  0
INSERT
  8
LAYER_1
  2
AIGNBL01030017
 10
0
 20
0
 30
0
  0
INSERT
  8
LAYER_1
  2
AIGNBL01030018
 10
0
 20
0
 30
0
  0
INSERT
  8
LAYER_1
  2
AIGNBL01030019
 10
0
 20
0
 30
0
  0
INSERT
  8
LAYER_1
  2
AIGNBL0103001A
 10
0
 20
0
 30
0
  0
INSERT
  8
LAYER_1
  2
AIGNBL0103001B
 10
0
 20
0
 30
0
  0
INSERT
  8
LAYER_1
  2
AIGNBL0103001C
 10
0
 20
0
 30
0
  0
INSERT
  8
LAYER_1
  2
AIGNBL0103001D
 10
0
 20
0
 30
0
  0
INSERT
  8
LAYER_1
  2
AIGNBL0103001E
 10
0
 20
0
 30
0
  0
INSERT
  8
LAYER_1
  2
AIGNBL0103001F
 10
0
 20
0
 30
0
  0
INSERT
  8
LAYER_1
  2
AIGNBL01030020
 10
0
 20
0
 30
0
  0
INSERT
  8
LAYER_1
  2
AIGNBL01030021
 10
0
 20
0
 30
0
  0
INSERT
  8
LAYER_1
  2
AIGNBL01030022
 10
0
 20
0
 30
0
  0
INSERT
  8
LAYER_1
  2
AIGNBL01030023
 10
0
 20
0
 30
0
  0
ENDBLK
  0
BLOCK
  8
LAYER_1
  2
AIGNBL01020025
 70
64
 10
0
 20
0
 30
0
  3
AIGNBL01020025
  0
POLYLINE
  8
LAYER_1
 40
0.1058
 41
0.1058
 66
1
 10
0
 20
0
 30
0
  0
VERTEX
  8
LAYER_1
 10
184.7697
 20
-135.9337
  0
VERTEX
  8
LAYER_1
 10
163.6742
 20
-135.9337
  0
SEQEND
  0
ENDBLK
  0
BLOCK
  8
LAYER_1
  2
AIGNBL01020026
 70
64
 10
0
 20
0
 30
0
  3
AIGNBL01020026
  0
POLYLINE
  8
LAYER_1
 40
0.1058
 41
0.1058
 66
1
 10
0
 20
0
 30
0
  0
VERTEX
  8
LAYER_1
 10
183.1447
 20
-140.5837
  0
VERTEX
  8
LAYER_1
 10
163.6742
 20
-140.5837
  0
SEQEND
  0
ENDBLK
  0
BLOCK
  8
LAYER_1
  2
AIGNBL01020027
 70
64
 10
0
 20
0
 30
0
  3
AIGNBL01020027
  0
POLYLINE
  8
LAYER_1
 40
0.127
 41
0.127
 66
1
 10
0
 20
0
 30
0
  0
VERTEX
  8
LAYER_1
 10
163.9242
 20
-139.5837
  0
VERTEX
  8
LAYER_1
 10
163.9242
 20
-136.9337
  0
SEQEND
  0
ENDBLK
  0
BLOCK
  8
LAYER_1
  2
AIGNBL01020028
 70
64
 10
0
 20
0
 30
0
  3
AIGNBL01020028
  0
POLYLINE
  8
LAYER_1
 40
0.127
 41
0.127
 66
1
 10
0
 20
0
 30
0
  0
VERTEX
  8
LAYER_1
 10
163.9242
 20
-135.9337
  0
VERTEX
  8
LAYER_1
 10
163.9242
 20
-120.8519
  0
SEQEND
  0
ENDBLK
  0
BLOCK
  8
LAYER_1
  2
AIGNBL01020029
 70
64
 10
0
 20
0
 30
0
  3
AIGNBL01020029
  0
POLYLINE
  8
LAYER_1
 40
0.05
 41
0.05
 66
1
 10
0
 20
0
 30
0
 70
1
  0
VERTEX
  8
LAYER_1
 10
163.7575
 20
-139.5837
  0
VERTEX
  8
LAYER_1
 10
164.0908
 20
-139.5837
  0
VERTEX
  8
LAYER_1
 10
163.9242
 20
-140.5837
  0
SEQEND
  0
ENDBLK
  0
BLOCK
  8
LAYER_1
  2
AIGNBL0102002A
 70
64
 10
0
 20
0
 30
0
  3
AIGNBL0102002A
  0
POLYLINE
  8
LAYER_1
 40
0.05
 41
0.05
 66
1
 10
0
 20
0
 30
0
 70
1
  0
VERTEX
  8
LAYER_1
 10
163.7575
 20
-136.9337
  0
VERTEX
  8
LAYER_1
 10
164.0908
 20
-136.9337
  0
VERTEX
  8
LAYER_1
 10
163.9242
 20
-135.9337
  0
SEQEND
  0
ENDBLK
  0
BLOCK
  8
LAYER_1
  2
AIGNBL0102002B
 70
64
 10
0
 20
0
 30
0
  3
AIGNBL0102002B
  0
TEXT
  8
LAYER_1
 10
163.6066
 20
-134.8631
 11
163.6066
 21
-134.8631
 40
4.0981
 41
0.5
 50
89.99999999
  1
MAX.40
  0
ENDBLK
  0
BLOCK
  8
LAYER_1
  2
AIGNBL0102002D
 70
64
 10
0
 20
0
 30
0
  3
AIGNBL0102002D
  0
POLYLINE
  8
LAYER_1
 40
0.1058
 41
0.1058
 66
1
 10
0
 20
0
 30
0
  0
VERTEX
  8
LAYER_1
 10
185.5197
 20
-135.9337
  0
VERTEX
  8
LAYER_1
 10
193.7657
 20
-135.9337
  0
SEQEND
  0
ENDBLK
  0
BLOCK
  8
LAYER_1
  2
AIGNBL0102002E
 70
64
 10
0
 20
0
 30
0
  3
AIGNBL0102002E
  0
POLYLINE
  8
LAYER_1
 40
0.1058
 41
0.1058
 66
1
 10
0
 20
0
 30
0
  0
VERTEX
  8
LAYER_1
 10
181.0197
 20
-175.519
  0
VERTEX
  8
LAYER_1
 10
193.7657
 20
-175.519
  0
SEQEND
  0
ENDBLK
  0
BLOCK
  8
LAYER_1
  2
AIGNBL0102002F
 70
64
 10
0
 20
0
 30
0
  3
AIGNBL0102002F
  0
POLYLINE
  8
LAYER_1
 40
0.127
 41
0.127
 66
1
 10
0
 20
0
 30
0
  0
VERTEX
  8
LAYER_1
 10
193.5157
 20
-136.9337
  0
VERTEX
  8
LAYER_1
 10
193.5157
 20
-174.519
  0
SEQEND
  0
ENDBLK
  0
BLOCK
  8
LAYER_1
  2
AIGNBL01020030
 70
64
 10
0
 20
0
 30
0
  3
AIGNBL01020030
  0
POLYLINE
  8
LAYER_1
 40
0.05
 41
0.05
 66
1
 10
0
 20
0
 30
0
 70
1
  0
VERTEX
  8
LAYER_1
 10
193.3491
 20
-136.9337
  0
VERTEX
  8
LAYER_1
 10
193.6824
 20
-136.9337
  0
VERTEX
  8
LAYER_1
 10
193.5157
 20
-135.9337
  0
SEQEND
  0
ENDBLK
  0
BLOCK
  8
LAYER_1
  2
AIGNBL01020031
 70
64
 10
0
 20
0
 30
0
  3
AIGNBL01020031
  0
POLYLINE
  8
LAYER_1
 40
0.05
 41
0.05
 66
1
 10
0
 20
0
 30
0
 70
1
  0
VERTEX
  8
LAYER_1
 10
193.3491
 20
-174.519
  0
VERTEX
  8
LAYER_1
 10
193.6824
 20
-174.519
  0
VERTEX
  8
LAYER_1
 10
193.5157
 20
-175.519
  0
SEQEND
  0
ENDBLK
  0
BLOCK
  8
LAYER_1
  2
AIGNBL01020032
 70
64
 10
0
 20
0
 30
0
  3
AIGNBL01020032
  0
TEXT
  8
LAYER_1
 10
193.1979
 20
-163.8226
 11
193.1979
 21
-163.8226
 40
4.0981
 41
0.5
 50
89.99999999
  1
MAX.350
  0
ENDBLK
  0
BLOCK
  8
LAYER_1
  2
AIGNBL01020069
 70
64
 10
0
 20
0
 30
0
  3
AIGNBL01020069
  0
POLYLINE
  8
LAYER_1
 40
0.1058
 41
0.1058
 66
1
 10
0
 20
0
 30
0
  0
VERTEX
  8
LAYER_1
 10
172.6447
 20
-134.8087
  0
VERTEX
  8
LAYER_1
 10
172.6447
 20
-133.6936
  0
SEQEND
  0
ENDBLK
  0
BLOCK
  8
LAYER_1
  2
AIGNBL0102006A
 70
64
 10
0
 20
0
 30
0
  3
AIGNBL0102006A
  0
POLYLINE
  8
LAYER_1
 40
0.1058
 41
0.1058
 66
1
 10
0
 20
0
 30
0
  0
VERTEX
  8
LAYER_1
 10
185.1447
 20
-134.8087
  0
VERTEX
  8
LAYER_1
 10
185.1447
 20
-133.6936
  0
SEQEND
  0
ENDBLK
  0
BLOCK
  8
LAYER_1
  2
AIGNBL0102006B
 70
64
 10
0
 20
0
 30
0
  3
AIGNBL0102006B
  0
POLYLINE
  8
LAYER_1
 40
0.127
 41
0.127
 66
1
 10
0
 20
0
 30
0
  0
VERTEX
  8
LAYER_1
 10
173.6447
 20
-133.9436
  0
VERTEX
  8
LAYER_1
 10
184.1447
 20
-133.9436
  0
SEQEND
  0
ENDBLK
  0
BLOCK
  8
LAYER_1
  2
AIGNBL0102006C
 70
64
 10
0
 20
0
 30
0
  3
AIGNBL0102006C
  0
POLYLINE
  8
LAYER_1
 40
0.05
 41
0.05
 66
1
 10
0
 20
0
 30
0
 70
1
  0
VERTEX
  8
LAYER_1
 10
173.6447
 20
-133.7769
  0
VERTEX
  8
LAYER_1
 10
173.6447
 20
-134.1103
  0
VERTEX
  8
LAYER_1
 10
172.6447
 20
-133.9436
  0
SEQEND
  0
ENDBLK
  0
BLOCK
  8
LAYER_1
  2
AIGNBL0102006D
 70
64
 10
0
 20
0
 30
0
  3
AIGNBL0102006D
  0
POLYLINE
  8
LAYER_1
 40
0.05
 41
0.05
 66
1
 10
0
 20
0
 30
0
 70
1
  0
VERTEX
  8
LAYER_1
 10
184.1447
 20
-133.7769
  0
VERTEX
  8
LAYER_1
 10
184.1447
 20
-134.1103
  0
VERTEX
  8
LAYER_1
 10
185.1447
 20
-133.9436
  0
SEQEND
  0
ENDBLK
  0
BLOCK
  8
LAYER_1
  2
AIGNBL0102006E
 70
64
 10
0
 20
0
 30
0
  3
AIGNBL0102006E
  0
TEXT
  8
LAYER_1
 10
174.9843
 20
-133.5061
 11
174.9843
 21
-133.5061
 40
3.473
 41
0.5
  1
□
  0
TEXT
  8
LAYER_1
 10
178.0994
 20
-133.626
 11
178.0994
 21
-133.626
 40
4.0981
 41
0.5
  1
50
  0
ENDBLK
  0
BLOCK
  8
LAYER_1
  2
AIGNBL01020070
 70
64
 10
0
 20
0
 30
0
  3
AIGNBL01020070
  0
POLYLINE
  8
LAYER_1
 40
0.1058
 41
0.1058
 66
1
 10
0
 20
0
 30
0
  0
VERTEX
  8
LAYER_1
 10
185.5197
 20
-135.9337
  0
VERTEX
  8
LAYER_1
 10
193.7657
 20
-135.9337
  0
SEQEND
  0
ENDBLK
  0
BLOCK
  8
LAYER_1
  2
AIGNBL01020071
 70
64
 10
0
 20
0
 30
0
  3
AIGNBL01020071
  0
POLYLINE
  8
LAYER_1
 40
0.1058
 41
0.1058
 66
1
 10
0
 20
0
 30
0
  0
VERTEX
  8
LAYER_1
 10
179.2697
 20
-58.1837
  0
VERTEX
  8
LAYER_1
 10
193.7657
 20
-58.1837
  0
SEQEND
  0
ENDBLK
  0
BLOCK
  8
LAYER_1
  2
AIGNBL01020072
 70
64
 10
0
 20
0
 30
0
  3
AIGNBL01020072
  0
POLYLINE
  8
LAYER_1
 40
0.127
 41
0.127
 66
1
 10
0
 20
0
 30
0
  0
VERTEX
  8
LAYER_1
 10
193.5157
 20
-134.9337
  0
VERTEX
  8
LAYER_1
 10
193.5157
 20
-59.1837
  0
SEQEND
  0
ENDBLK
  0
BLOCK
  8
LAYER_1
  2
AIGNBL01020073
 70
64
 10
0
 20
0
 30
0
  3
AIGNBL01020073
  0
POLYLINE
  8
LAYER_1
 40
0.05
 41
0.05
 66
1
 10
0
 20
0
 30
0
 70
1
  0
VERTEX
  8
LAYER_1
 10
193.3491
 20
-134.9337
  0
VERTEX
  8
LAYER_1
 10
193.6824
 20
-134.9337
  0
VERTEX
  8
LAYER_1
 10
193.5157
 20
-135.9337
  0
SEQEND
  0
ENDBLK
  0
BLOCK
  8
LAYER_1
  2
AIGNBL01020074
 70
64
 10
0
 20
0
 30
0
  3
AIGNBL01020074
  0
POLYLINE
  8
LAYER_1
 40
0.05
 41
0.05
 66
1
 10
0
 20
0
 30
0
 70
1
  0
VERTEX
  8
LAYER_1
 10
193.3491
 20
-59.1837
  0
VERTEX
  8
LAYER_1
 10
193.6824
 20
-59.1837
  0
VERTEX
  8
LAYER_1
 10
193.5157
 20
-58.1837
  0
SEQEND
  0
ENDBLK
  0
BLOCK
  8
LAYER_1
  2
AIGNBL01020075
 70
64
 10
0
 20
0
 30
0
  3
AIGNBL01020075
  0
TEXT
  8
LAYER_1
 10
193.1979
 20
-100.5155
 11
193.1979
 21
-100.5155
 40
4.0981
 41
0.5
 50
89.99999999
  1
311
  0
ENDBLK
  0
BLOCK
  8
LAYER_1
  2
AIGNBL01020077
 70
64
 10
0
 20
0
 30
0
  3
AIGNBL01020077
  0
POLYLINE
  8
LAYER_1
 40
0.1058
 41
0.1058
 66
1
 10
0
 20
0
 30
0
  0
VERTEX
  8
LAYER_1
 10
178.8947
 20
-56.2789
  0
VERTEX
  8
LAYER_1
 10
178.8947
 20
-53.2698
  0
SEQEND
  0
ENDBLK
  0
BLOCK
  8
LAYER_1
  2
AIGNBL01020078
 70
64
 10
0
 20
0
 30
0
  3
AIGNBL01020078
  0
POLYLINE
  8
LAYER_1
 40
0.1058
 41
0.1058
 66
1
 10
0
 20
0
 30
0
  0
VERTEX
  8
LAYER_1
 10
166.5298
 20
-62.6833
  0
VERTEX
  8
LAYER_1
 10
163.7356
 20
-60.3387
  0
SEQEND
  0
ENDBLK
  0
BLOCK
  8
LAYER_1
  2
AIGNBL01020079
 70
64
 10
0
 20
0
 30
0
  3
AIGNBL01020079
  0
POLYLINE
  8
LAYER_1
 40
0.127
 41
0.127
 66
1
 10
0
 20
0
 30
0
  0
VERTEX
  8
LAYER_1
 10
177.8951
 20
-53.5454
 42
0.1949898837
  0
VERTEX
  8
LAYER_1
 10
164.5893
 20
-59.75
  0
SEQEND
  0
ENDBLK
  0
BLOCK
  8
LAYER_1
  2
AIGNBL0102007A
 70
64
 10
0
 20
0
 30
0
  3
AIGNBL0102007A
  0
POLYLINE
  8
LAYER_1
 40
0.05
 41
0.05
 66
1
 10
0
 20
0
 30
0
 70
1
  0
VERTEX
  8
LAYER_1
 10
177.8908
 20
-53.3788
  0
VERTEX
  8
LAYER_1
 10
177.8993
 20
-53.712
  0
VERTEX
  8
LAYER_1
 10
178.8947
 20
-53.5198
  0
SEQEND
  0
ENDBLK
  0
BLOCK
  8
LAYER_1
  2
AIGNBL0102007B
 70
64
 10
0
 20
0
 30
0
  3
AIGNBL0102007B
  0
POLYLINE
  8
LAYER_1
 40
0.05
 41
0.05
 66
1
 10
0
 20
0
 30
0
 70
1
  0
VERTEX
  8
LAYER_1
 10
164.7142
 20
-59.8604
  0
VERTEX
  8
LAYER_1
 10
164.4644
 20
-59.6396
  0
VERTEX
  8
LAYER_1
 10
163.9271
 20
-60.4994
  0
SEQEND
  0
ENDBLK
  0
BLOCK
  8
LAYER_1
  2
AIGNBL0102007C
 70
64
 10
0
 20
0
 30
0
  3
AIGNBL0102007C
  0
TEXT
  8
LAYER_1
 10
167.4922
 20
-56.472
 11
167.4922
 21
-56.472
 40
4.0981
 41
0.5
 50
25.23302301
  1
50%%d
  0
ENDBLK
  0
BLOCK
  8
LAYER_1
  2
AIGNBL0102007E
 70
64
 10
0
 20
0
 30
0
  3
AIGNBL0102007E
  0
POLYLINE
  8
LAYER_1
 40
0.1058
 41
0.1058
 66
1
 10
0
 20
0
 30
0
  0
VERTEX
  8
LAYER_1
 10
166.5298
 20
-62.6833
  0
VERTEX
  8
LAYER_1
 10
163.7356
 20
-60.3387
  0
SEQEND
  0
ENDBLK
  0
BLOCK
  8
LAYER_1
  2
AIGNBL0102007F
 70
64
 10
0
 20
0
 30
0
  3
AIGNBL0102007F
  0
POLYLINE
  8
LAYER_1
 40
0.1058
 41
0.1058
 66
1
 10
0
 20
0
 30
0
  0
VERTEX
  8
LAYER_1
 10
162.7733
 20
-75.9013
  0
VERTEX
  8
LAYER_1
 10
159.4065
 20
-76.495
  0
SEQEND
  0
ENDBLK
  0
BLOCK
  8
LAYER_1
  2
AIGNBL01020080
 70
64
 10
0
 20
0
 30
0
  3
AIGNBL01020080
  0
POLYLINE
  8
LAYER_1
 40
0.127
 41
0.127
 66
1
 10
0
 20
0
 30
0
  0
VERTEX
  8
LAYER_1
 10
163.3041
 20
-61.2816
 42
0.1949901541
  0
VERTEX
  8
LAYER_1
 10
159.5043
 20
-75.4627
  0
SEQEND
  0
ENDBLK
  0
BLOCK
  8
LAYER_1
  2
AIGNBL01020081
 70
64
 10
0
 20
0
 30
0
  3
AIGNBL01020081
  0
POLYLINE
  8
LAYER_1
 40
0.05
 41
0.05
 66
1
 10
0
 20
0
 30
0
 70
1
  0
VERTEX
  8
LAYER_1
 10
163.1737
 20
-61.1778
  0
VERTEX
  8
LAYER_1
 10
163.4345
 20
-61.3854
  0
VERTEX
  8
LAYER_1
 10
163.9271
 20
-60.4994
  0
SEQEND
  0
ENDBLK
  0
BLOCK
  8
LAYER_1
  2
AIGNBL01020082
 70
64
 10
0
 20
0
 30
0
  3
AIGNBL01020082
  0
POLYLINE
  8
LAYER_1
 40
0.05
 41
0.05
 66
1
 10
0
 20
0
 30
0
 70
1
  0
VERTEX
  8
LAYER_1
 10
159.6691
 20
-75.4379
  0
VERTEX
  8
LAYER_1
 10
159.3395
 20
-75.4874
  0
VERTEX
  8
LAYER_1
 10
159.6527
 20
-76.4516
  0
SEQEND
  0
ENDBLK
  0
BLOCK
  8
LAYER_1
  2
AIGNBL01020083
 70
64
 10
0
 20
0
 30
0
  3
AIGNBL01020083
  0
TEXT
  8
LAYER_1
 10
159.8908
 20
-66.3961
 11
159.8908
 21
-66.3961
 40
4.0981
 41
0.5
 50
61.34847925
  1
50%%d
  0
ENDBLK
  0
BLOCK
  8
LAYER_1
  2
AIGNBL01020085
 70
64
 10
0
 20
0
 30
0
  3
AIGNBL01020085
  0
POLYLINE
  8
LAYER_1
 40
0.1058
 41
0.1058
 66
1
 10
0
 20
0
 30
0
  0
VERTEX
  8
LAYER_1
 10
178.8947
 20
-52.6181
  0
VERTEX
  8
LAYER_1
 10
178.8947
 20
-48.3284
  0
SEQEND
  0
ENDBLK
  0
BLOCK
  8
LAYER_1
  2
AIGNBL01020086
 70
64
 10
0
 20
0
 30
0
  3
AIGNBL01020086
  0
POLYLINE
  8
LAYER_1
 40
0.1058
 41
0.1058
 66
1
 10
0
 20
0
 30
0
  0
VERTEX
  8
LAYER_1
 10
127.8947
 20
-65.7337
  0
VERTEX
  8
LAYER_1
 10
127.8947
 20
-48.3284
  0
SEQEND
  0
ENDBLK
  0
BLOCK
  8
LAYER_1
  2
AIGNBL01020087
 70
64
 10
0
 20
0
 30
0
  3
AIGNBL01020087
  0
POLYLINE
  8
LAYER_1
 40
0.127
 41
0.127
 66
1
 10
0
 20
0
 30
0
  0
VERTEX
  8
LAYER_1
 10
177.8947
 20
-48.5784
  0
VERTEX
  8
LAYER_1
 10
128.8947
 20
-48.5784
  0
SEQEND
  0
ENDBLK
  0
BLOCK
  8
LAYER_1
  2
AIGNBL01020088
 70
64
 10
0
 20
0
 30
0
  3
AIGNBL01020088
  0
POLYLINE
  8
LAYER_1
 40
0.05
 41
0.05
 66
1
 10
0
 20
0
 30
0
 70
1
  0
VERTEX
  8
LAYER_1
 10
177.8947
 20
-48.4117
  0
VERTEX
  8
LAYER_1
 10
177.8947
 20
-48.7451
  0
VERTEX
  8
LAYER_1
 10
178.8947
 20
-48.5784
  0
SEQEND
  0
ENDBLK
  0
BLOCK
  8
LAYER_1
  2
AIGNBL01020089
 70
64
 10
0
 20
0
 30
0
  3
AIGNBL01020089
  0
POLYLINE
  8
LAYER_1
 40
0.05
 41
0.05
 66
1
 10
0
 20
0
 30
0
 70
1
  0
VERTEX
  8
LAYER_1
 10
128.8947
 20
-48.4117
  0
VERTEX
  8
LAYER_1
 10
128.8947
 20
-48.7451
  0
VERTEX
  8
LAYER_1
 10
127.8947
 20
-48.5784
  0
SEQEND
  0
ENDBLK
  0
BLOCK
  8
LAYER_1
  2
AIGNBL0102008A
 70
64
 10
0
 20
0
 30
0
  3
AIGNBL0102008A
  0
TEXT
  8
LAYER_1
 10
149.9385
 20
-48.261
 11
149.9385
 21
-48.261
 40
4.0981
 41
0.5
  1
204
  0
ENDBLK
  0
BLOCK
  8
LAYER_1
  2
AIGNBL0102008C
 70
64
 10
0
 20
0
 30
0
  3
AIGNBL0102008C
  0
POLYLINE
  8
LAYER_1
 40
0.1058
 41
0.1058
 66
1
 10
0
 20
0
 30
0
  0
VERTEX
  8
LAYER_1
 10
172.2697
 20
-135.9337
  0
VERTEX
  8
LAYER_1
 10
112.8735
 20
-135.9337
  0
SEQEND
  0
ENDBLK
  0
BLOCK
  8
LAYER_1
  2
AIGNBL0102008D
 70
64
 10
0
 20
0
 30
0
  3
AIGNBL0102008D
  0
POLYLINE
  8
LAYER_1
 40
0.1058
 41
0.1058
 66
1
 10
0
 20
0
 30
0
  0
VERTEX
  8
LAYER_1
 10
125.2072
 20
-70.7337
  0
VERTEX
  8
LAYER_1
 10
112.8735
 20
-70.7337
  0
SEQEND
  0
ENDBLK
  0
BLOCK
  8
LAYER_1
  2
AIGNBL0102008E
 70
64
 10
0
 20
0
 30
0
  3
AIGNBL0102008E
  0
POLYLINE
  8
LAYER_1
 40
0.127
 41
0.127
 66
1
 10
0
 20
0
 30
0
  0
VERTEX
  8
LAYER_1
 10
113.1235
 20
-134.9337
  0
VERTEX
  8
LAYER_1
 10
113.1235
 20
-71.7337
  0
SEQEND
  0
ENDBLK
  0
BLOCK
  8
LAYER_1
  2
AIGNBL0102008F
 70
64
 10
0
 20
0
 30
0
  3
AIGNBL0102008F
  0
POLYLINE
  8
LAYER_1
 40
0.05
 41
0.05
 66
1
 10
0
 20
0
 30
0
 70
1
  0
VERTEX
  8
LAYER_1
 10
112.9569
 20
-134.9337
  0
VERTEX
  8
LAYER_1
 10
113.2902
 20
-134.9337
  0
VERTEX
  8
LAYER_1
 10
113.1235
 20
-135.9337
  0
SEQEND
  0
ENDBLK
  0
BLOCK
  8
LAYER_1
  2
AIGNBL01020090
 70
64
 10
0
 20
0
 30
0
  3
AIGNBL01020090
  0
POLYLINE
  8
LAYER_1
 40
0.05
 41
0.05
 66
1
 10
0
 20
0
 30
0
 70
1
  0
VERTEX
  8
LAYER_1
 10
112.9569
 20
-71.7337
  0
VERTEX
  8
LAYER_1
 10
113.2902
 20
-71.7337
  0
VERTEX
  8
LAYER_1
 10
113.1235
 20
-70.7337
  0
SEQEND
  0
ENDBLK
  0
BLOCK
  8
LAYER_1
  2
AIGNBL01020091
 70
64
 10
0
 20
0
 30
0
  3
AIGNBL01020091
  0
TEXT
  8
LAYER_1
 10
112.8059
 20
-106.8194
 11
112.8059
 21
-106.8194
 40
4.0981
 41
0.5
 50
89.99999999
  1
261
  0
ENDBLK
  0
BLOCK
  8
LAYER_1
  2
AIGNBL01020093
 70
64
 10
0
 20
0
 30
0
  3
AIGNBL01020093
  0
POLYLINE
  8
LAYER_1
 40
0.1058
 41
0.1058
 66
1
 10
0
 20
0
 30
0
  0
VERTEX
  8
LAYER_1
 10
172.2697
 20
-135.9337
  0
VERTEX
  8
LAYER_1
 10
106.4607
 20
-135.9337
  0
SEQEND
  0
ENDBLK
  0
BLOCK
  8
LAYER_1
  2
AIGNBL01020094
 70
64
 10
0
 20
0
 30
0
  3
AIGNBL01020094
  0
POLYLINE
  8
LAYER_1
 40
0.1058
 41
0.1058
 66
1
 10
0
 20
0
 30
0
  0
VERTEX
  8
LAYER_1
 10
123.6447
 20
-66.8087
  0
VERTEX
  8
LAYER_1
 10
106.4607
 20
-66.8087
  0
SEQEND
  0
ENDBLK
  0
BLOCK
  8
LAYER_1
  2
AIGNBL01020095
 70
64
 10
0
 20
0
 30
0
  3
AIGNBL01020095
  0
POLYLINE
  8
LAYER_1
 40
0.127
 41
0.127
 66
1
 10
0
 20
0
 30
0
  0
VERTEX
  8
LAYER_1
 10
106.7107
 20
-134.9337
  0
VERTEX
  8
LAYER_1
 10
106.7107
 20
-67.8087
  0
SEQEND
  0
ENDBLK
  0
BLOCK
  8
LAYER_1
  2
AIGNBL01020096
 70
64
 10
0
 20
0
 30
0
  3
AIGNBL01020096
  0
POLYLINE
  8
LAYER_1
 40
0.05
 41
0.05
 66
1
 10
0
 20
0
 30
0
 70
1
  0
VERTEX
  8
LAYER_1
 10
106.544
 20
-134.9337
  0
VERTEX
  8
LAYER_1
 10
106.8774
 20
-134.9337
  0
VERTEX
  8
LAYER_1
 10
106.7107
 20
-135.9337
  0
SEQEND
  0
ENDBLK
  0
BLOCK
  8
LAYER_1
  2
AIGNBL01020097
 70
64
 10
0
 20
0
 30
0
  3
AIGNBL01020097
  0
POLYLINE
  8
LAYER_1
 40
0.05
 41
0.05
 66
1
 10
0
 20
0
 30
0
 70
1
  0
VERTEX
  8
LAYER_1
 10
106.544
 20
-67.8087
  0
VERTEX
  8
LAYER_1
 10
106.8774
 20
-67.8087
  0
VERTEX
  8
LAYER_1
 10
106.7107
 20
-66.8087
  0
SEQEND
  0
ENDBLK
  0
BLOCK
  8
LAYER_1
  2
AIGNBL01020098
 70
64
 10
0
 20
0
 30
0
  3
AIGNBL01020098
  0
TEXT
  8
LAYER_1
 10
106.4555
 20
-104.8043
 11
106.4555
 21
-104.8043
 40
4.0981
 41
0.5
 50
89.99999999
  1
277
  0
ENDBLK
  0
BLOCK
  8
LAYER_1
  2
AIGNBL0102022C
 70
64
 10
0
 20
0
 30
0
  3
AIGNBL0102022C
  0
POLYLINE
  8
LAYER_1
 40
0.1058
 41
0.1058
 66
1
 10
0
 20
0
 30
0
  0
VERTEX
  8
LAYER_1
 10
176.9738
 20
-189.3401
  0
VERTEX
  8
LAYER_1
 10
165.5448
 20
-189.3401
  0
SEQEND
  0
ENDBLK
  0
BLOCK
  8
LAYER_1
  2
AIGNBL0102022D
 70
64
 10
0
 20
0
 30
0
  3
AIGNBL0102022D
  0
POLYLINE
  8
LAYER_1
 40
0.1058
 41
0.1058
 66
1
 10
0
 20
0
 30
0
  0
VERTEX
  8
LAYER_1
 10
178.4372
 20
-179.3401
  0
VERTEX
  8
LAYER_1
 10
165.5448
 20
-179.3401
  0
SEQEND
  0
ENDBLK
  0
BLOCK
  8
LAYER_1
  2
AIGNBL0102022E
 70
64
 10
0
 20
0
 30
0
  3
AIGNBL0102022E
  0
POLYLINE
  8
LAYER_1
 40
0.127
 41
0.127
 66
1
 10
0
 20
0
 30
0
  0
VERTEX
  8
LAYER_1
 10
165.7948
 20
-188.3401
  0
VERTEX
  8
LAYER_1
 10
165.7948
 20
-180.3401
  0
SEQEND
  0
ENDBLK
  0
BLOCK
  8
LAYER_1
  2
AIGNBL0102022F
 70
64
 10
0
 20
0
 30
0
  3
AIGNBL0102022F
  0
POLYLINE
  8
LAYER_1
 40
0.05
 41
0.05
 66
1
 10
0
 20
0
 30
0
 70
1
  0
VERTEX
  8
LAYER_1
 10
165.6281
 20
-188.3401
  0
VERTEX
  8
LAYER_1
 10
165.9615
 20
-188.3401
  0
VERTEX
  8
LAYER_1
 10
165.7948
 20
-189.3401
  0
SEQEND
  0
ENDBLK
  0
BLOCK
  8
LAYER_1
  2
AIGNBL01020230
 70
64
 10
0
 20
0
 30
0
  3
AIGNBL01020230
  0
POLYLINE
  8
LAYER_1
 40
0.05
 41
0.05
 66
1
 10
0
 20
0
 30
0
 70
1
  0
VERTEX
  8
LAYER_1
 10
165.6281
 20
-180.3401
  0
VERTEX
  8
LAYER_1
 10
165.9615
 20
-180.3401
  0
VERTEX
  8
LAYER_1
 10
165.7948
 20
-179.3401
  0
SEQEND
  0
ENDBLK
  0
BLOCK
  8
LAYER_1
  2
AIGNBL01020231
 70
64
 10
0
 20
0
 30
0
  3
AIGNBL01020231
  0
TEXT
  8
LAYER_1
 10
165.4772
 20
-186.4472
 11
165.4772
 21
-186.4472
 40
4.0981
 41
0.5
 50
89.99999999
  1
40
  0
ENDBLK
  0
BLOCK
  8
LAYER_1
  2
AIGNBL01020233
 70
64
 10
0
 20
0
 30
0
  3
AIGNBL01020233
  0
POLYLINE
  8
LAYER_1
 40
0.1058
 41
0.1058
 66
1
 10
0
 20
0
 30
0
  0
VERTEX
  8
LAYER_1
 10
183.2647
 20
-189.6938
  0
VERTEX
  8
LAYER_1
 10
183.2647
 20
-195.2269
  0
SEQEND
  0
ENDBLK
  0
BLOCK
  8
LAYER_1
  2
AIGNBL01020234
 70
64
 10
0
 20
0
 30
0
  3
AIGNBL01020234
  0
POLYLINE
  8
LAYER_1
 40
0.1058
 41
0.1058
 66
1
 10
0
 20
0
 30
0
  0
VERTEX
  8
LAYER_1
 10
178.0247
 20
-189.6938
  0
VERTEX
  8
LAYER_1
 10
178.0247
 20
-195.2269
  0
SEQEND
  0
ENDBLK
  0
BLOCK
  8
LAYER_1
  2
AIGNBL01020235
 70
64
 10
0
 20
0
 30
0
  3
AIGNBL01020235
  0
POLYLINE
  8
LAYER_1
 40
0.127
 41
0.127
 66
1
 10
0
 20
0
 30
0
  0
VERTEX
  8
LAYER_1
 10
182.2647
 20
-194.9769
  0
VERTEX
  8
LAYER_1
 10
179.0247
 20
-194.9769
  0
SEQEND
  0
ENDBLK
  0
BLOCK
  8
LAYER_1
  2
AIGNBL01020236
 70
64
 10
0
 20
0
 30
0
  3
AIGNBL01020236
  0
POLYLINE
  8
LAYER_1
 40
0.127
 41
0.127
 66
1
 10
0
 20
0
 30
0
  0
VERTEX
  8
LAYER_1
 10
178.0247
 20
-194.9769
  0
VERTEX
  8
LAYER_1
 10
168.7747
 20
-194.9769
  0
SEQEND
  0
ENDBLK
  0
BLOCK
  8
LAYER_1
  2
AIGNBL01020237
 70
64
 10
0
 20
0
 30
0
  3
AIGNBL01020237
  0
POLYLINE
  8
LAYER_1
 40
0.05
 41
0.05
 66
1
 10
0
 20
0
 30
0
 70
1
  0
VERTEX
  8
LAYER_1
 10
182.2647
 20
-194.8102
  0
VERTEX
  8
LAYER_1
 10
182.2647
 20
-195.1435
  0
VERTEX
  8
LAYER_1
 10
183.2647
 20
-194.9769
  0
SEQEND
  0
ENDBLK
  0
BLOCK
  8
LAYER_1
  2
AIGNBL01020238
 70
64
 10
0
 20
0
 30
0
  3
AIGNBL01020238
  0
POLYLINE
  8
LAYER_1
 40
0.05
 41
0.05
 66
1
 10
0
 20
0
 30
0
 70
1
  0
VERTEX
  8
LAYER_1
 10
179.0247
 20
-194.8102
  0
VERTEX
  8
LAYER_1
 10
179.0247
 20
-195.1435
  0
VERTEX
  8
LAYER_1
 10
178.0247
 20
-194.9769
  0
SEQEND
  0
ENDBLK
  0
BLOCK
  8
LAYER_1
  2
AIGNBL01020239
 70
64
 10
0
 20
0
 30
0
  3
AIGNBL01020239
  0
TEXT
  8
LAYER_1
 10
167.8998
 20
-194.7217
 11
167.8998
 21
-194.7217
 40
4.0981
 41
0.5
  1
G1/2
  0
ENDBLK
  0
BLOCK
  8
LAYER_1
  2
AIGNBL01020242
 70
64
 10
0
 20
0
 30
0
  3
AIGNBL01020242
  0
POLYLINE
  8
LAYER_1
 40
0.127
 41
0.127
 66
1
 10
0
 20
0
 30
0
  0
VERTEX
  8
LAYER_1
 10
152.0069
 20
-156.5811
  0
VERTEX
  8
LAYER_1
 10
143.5358
 20
-164.6286
  0
SEQEND
  0
ENDBLK
  0
BLOCK
  8
LAYER_1
  2
AIGNBL01020243
 70
64
 10
0
 20
0
 30
0
  3
AIGNBL01020243
  0
POLYLINE
  8
LAYER_1
 40
0.127
 41
0.127
 66
1
 10
0
 20
0
 30
0
  0
VERTEX
  8
LAYER_1
 10
135.742
 20
-172.0326
  0
VERTEX
  8
LAYER_1
 10
135.017
 20
-172.7214
  0
SEQEND
  0
ENDBLK
  0
BLOCK
  8
LAYER_1
  2
AIGNBL01020244
 70
64
 10
0
 20
0
 30
0
  3
AIGNBL01020244
  0
TEXT
  8
LAYER_1
 10
142.6092
 20
-162.7392
 11
142.6092
 21
-162.7392
 40
3.4151
 41
0.5
 50
43.53120188
  1
35
  0
TEXT
  8
LAYER_1
 10
146.538
 20
-157.5611
 11
146.538
 21
-157.5611
 40
3.4151
 41
0.5
 50
43.53120188
  1
+2
  0
TEXT
  8
LAYER_1
 10
148.17
 20
-159.1702
 11
148.17
 21
-159.1702
 40
3.4151
 41
0.5
 50
43.53120188
  1
-0
  0
ENDBLK
  0
BLOCK
  8
LAYER_1
  2
AIGNBL01020245
 70
64
 10
0
 20
0
 30
0
  3
AIGNBL01020245
  0
POLYLINE
  8
LAYER_1
 40
0.127
 41
0.127
 66
1
 10
0
 20
0
 30
0
  0
VERTEX
  8
LAYER_1
 10
136.467
 20
-171.3439
  0
VERTEX
  8
LAYER_1
 10
142.8108
 20
-165.3173
  0
SEQEND
  0
ENDBLK
  0
BLOCK
  8
LAYER_1
  2
AIGNBL01020246
 70
64
 10
0
 20
0
 30
0
  3
AIGNBL01020246
  0
POLYLINE
  8
LAYER_1
 40
0.05
 41
0.05
 66
1
 10
0
 20
0
 30
0
 70
1
  0
VERTEX
  8
LAYER_1
 10
135.6272
 20
-171.9118
  0
VERTEX
  8
LAYER_1
 10
135.8568
 20
-172.1534
  0
VERTEX
  8
LAYER_1
 10
136.467
 20
-171.3439
  0
SEQEND
  0
ENDBLK
  0
BLOCK
  8
LAYER_1
  2
AIGNBL01020247
 70
64
 10
0
 20
0
 30
0
  3
AIGNBL01020247
  0
POLYLINE
  8
LAYER_1
 40
0.05
 41
0.05
 66
1
 10
0
 20
0
 30
0
 70
1
  0
VERTEX
  8
LAYER_1
 10
143.421
 20
-164.5078
  0
VERTEX
  8
LAYER_1
 10
143.6506
 20
-164.7494
  0
VERTEX
  8
LAYER_1
 10
142.8108
 20
-165.3173
  0
SEQEND
  0
ENDBLK
  0
BLOCK
  8
LAYER_1
  2
AIGNBL010202BC
 70
64
 10
0
 20
0
 30
0
  3
AIGNBL010202BC
  0
POLYLINE
  8
LAYER_1
 40
0.1058
 41
0.1058
 66
1
 10
0
 20
0
 30
0
  0
VERTEX
  8
LAYER_1
 10
66.443
 20
-64.9573
  0
VERTEX
  8
LAYER_1
 10
66.443
 20
-47.5904
  0
SEQEND
  0
ENDBLK
  0
BLOCK
  8
LAYER_1
  2
AIGNBL010202BD
 70
64
 10
0
 20
0
 30
0
  3
AIGNBL010202BD
  0
POLYLINE
  8
LAYER_1
 40
0.1058
 41
0.1058
 66
1
 10
0
 20
0
 30
0
  0
VERTEX
  8
LAYER_1
 10
80.6969
 20
-63.8602
  0
VERTEX
  8
LAYER_1
 10
80.6969
 20
-47.5904
  0
SEQEND
  0
ENDBLK
  0
BLOCK
  8
LAYER_1
  2
AIGNBL010202BE
 70
64
 10
0
 20
0
 30
0
  3
AIGNBL010202BE
  0
POLYLINE
  8
LAYER_1
 40
0.127
 41
0.127
 66
1
 10
0
 20
0
 30
0
  0
VERTEX
  8
LAYER_1
 10
67.443
 20
-47.8404
  0
VERTEX
  8
LAYER_1
 10
79.6969
 20
-47.8404
  0
SEQEND
  0
ENDBLK
  0
BLOCK
  8
LAYER_1
  2
AIGNBL010202BF
 70
64
 10
0
 20
0
 30
0
  3
AIGNBL010202BF
  0
POLYLINE
  8
LAYER_1
 40
0.05
 41
0.05
 66
1
 10
0
 20
0
 30
0
 70
1
  0
VERTEX
  8
LAYER_1
 10
67.443
 20
-47.6738
  0
VERTEX
  8
LAYER_1
 10
67.443
 20
-48.0071
  0
VERTEX
  8
LAYER_1
 10
66.443
 20
-47.8404
  0
SEQEND
  0
ENDBLK
  0
BLOCK
  8
LAYER_1
  2
AIGNBL010202C0
 70
64
 10
0
 20
0
 30
0
  3
AIGNBL010202C0
  0
POLYLINE
  8
LAYER_1
 40
0.05
 41
0.05
 66
1
 10
0
 20
0
 30
0
 70
1
  0
VERTEX
  8
LAYER_1
 10
79.6969
 20
-47.6738
  0
VERTEX
  8
LAYER_1
 10
79.6969
 20
-48.0071
  0
VERTEX
  8
LAYER_1
 10
80.6969
 20
-47.8404
  0
SEQEND
  0
ENDBLK
  0
BLOCK
  8
LAYER_1
  2
AIGNBL010202C1
 70
64
 10
0
 20
0
 30
0
  3
AIGNBL010202C1
  0
TEXT
  8
LAYER_1
 10
71.267
 20
-47.5229
 11
71.267
 21
-47.5229
 40
4.0981
 41
0.5
  1
57
  0
ENDBLK
  0
BLOCK
  8
LAYER_1
  2
AIGNBL010202D1
 70
64
 10
0
 20
0
 30
0
  3
AIGNBL010202D1
  0
POLYLINE
  8
LAYER_1
 40
0.1058
 41
0.1058
 66
1
 10
0
 20
0
 30
0
  0
VERTEX
  8
LAYER_1
 10
66.443
 20
-47.4654
  0
VERTEX
  8
LAYER_1
 10
66.443
 20
-42.3883
  0
SEQEND
  0
ENDBLK
  0
BLOCK
  8
LAYER_1
  2
AIGNBL010202D2
 70
64
 10
0
 20
0
 30
0
  3
AIGNBL010202D2
  0
POLYLINE
  8
LAYER_1
 40
0.1058
 41
0.1058
 66
1
 10
0
 20
0
 30
0
  0
VERTEX
  8
LAYER_1
 10
86.1971
 20
-66.8305
  0
VERTEX
  8
LAYER_1
 10
86.1971
 20
-42.3883
  0
SEQEND
  0
ENDBLK
  0
BLOCK
  8
LAYER_1
  2
AIGNBL010202D3
 70
64
 10
0
 20
0
 30
0
  3
AIGNBL010202D3
  0
POLYLINE
  8
LAYER_1
 40
0.127
 41
0.127
 66
1
 10
0
 20
0
 30
0
  0
VERTEX
  8
LAYER_1
 10
67.443
 20
-42.6383
  0
VERTEX
  8
LAYER_1
 10
85.1971
 20
-42.6383
  0
SEQEND
  0
ENDBLK
  0
BLOCK
  8
LAYER_1
  2
AIGNBL010202D4
 70
64
 10
0
 20
0
 30
0
  3
AIGNBL010202D4
  0
POLYLINE
  8
LAYER_1
 40
0.05
 41
0.05
 66
1
 10
0
 20
0
 30
0
 70
1
  0
VERTEX
  8
LAYER_1
 10
67.443
 20
-42.4716
  0
VERTEX
  8
LAYER_1
 10
67.443
 20
-42.8049
  0
VERTEX
  8
LAYER_1
 10
66.443
 20
-42.6383
  0
SEQEND
  0
ENDBLK
  0
BLOCK
  8
LAYER_1
  2
AIGNBL010202D5
 70
64
 10
0
 20
0
 30
0
  3
AIGNBL010202D5
  0
POLYLINE
  8
LAYER_1
 40
0.05
 41
0.05
 66
1
 10
0
 20
0
 30
0
 70
1
  0
VERTEX
  8
LAYER_1
 10
85.1971
 20
-42.4716
  0
VERTEX
  8
LAYER_1
 10
85.1971
 20
-42.8049
  0
VERTEX
  8
LAYER_1
 10
86.1971
 20
-42.6383
  0
SEQEND
  0
ENDBLK
  0
BLOCK
  8
LAYER_1
  2
AIGNBL010202D6
 70
64
 10
0
 20
0
 30
0
  3
AIGNBL010202D6
  0
TEXT
  8
LAYER_1
 10
73.0781
 20
-41.5532
 11
73.0781
 21
-41.5532
 40
4.0981
 41
0.5
  1
(79)
  0
ENDBLK
  0
BLOCK
  8
LAYER_1
  2
AIGNBL010202DB
 70
64
 10
0
 20
0
 30
0
  3
AIGNBL010202DB
  0
POLYLINE
  8
LAYER_1
 40
0.127
 41
0.127
 66
1
 10
0
 20
0
 30
0
  0
VERTEX
  8
LAYER_1
 10
126.9143
 20
-79.437
  0
VERTEX
  8
LAYER_1
 10
125.7327
 20
-90.6786
  0
SEQEND
  0
ENDBLK
  0
BLOCK
  8
LAYER_1
  2
AIGNBL010202DC
 70
64
 10
0
 20
0
 30
0
  3
AIGNBL010202DC
  0
POLYLINE
  8
LAYER_1
 40
0.127
 41
0.127
 66
1
 10
0
 20
0
 30
0
  0
VERTEX
  8
LAYER_1
 10
128.8752
 20
-79.437
  0
VERTEX
  8
LAYER_1
 10
130.0567
 20
-90.6786
  0
SEQEND
  0
ENDBLK
  0
BLOCK
  8
LAYER_1
  2
AIGNBL010202DD
 70
64
 10
0
 20
0
 30
0
  3
AIGNBL010202DD
  0
POLYLINE
  8
LAYER_1
 40
0.127
 41
0.127
 66
1
 10
0
 20
0
 30
0
  0
VERTEX
  8
LAYER_1
 10
124.7672
 20
-90.3011
  0
VERTEX
  8
LAYER_1
 10
125.7589
 20
-90.4299
  0
SEQEND
  0
ENDBLK
  0
BLOCK
  8
LAYER_1
  2
AIGNBL010202DE
 70
64
 10
0
 20
0
 30
0
  3
AIGNBL010202DE
  0
POLYLINE
  8
LAYER_1
 40
0.127
 41
0.127
 66
1
 10
0
 20
0
 30
0
  0
VERTEX
  8
LAYER_1
 10
124.7672
 20
-90.3011
  0
VERTEX
  8
LAYER_1
 10
115.7385
 20
-88.9027
  0
SEQEND
  0
ENDBLK
  0
BLOCK
  8
LAYER_1
  2
AIGNBL010202DF
 70
64
 10
0
 20
0
 30
0
  3
AIGNBL010202DF
  0
POLYLINE
  8
LAYER_1
 40
0.127
 41
0.127
 66
1
 10
0
 20
0
 30
0
  0
VERTEX
  8
LAYER_1
 10
126.7557
 20
-90.5101
 42
0.02789425389
  0
VERTEX
  8
LAYER_1
 10
129.0338
 20
-90.5101
  0
SEQEND
  0
ENDBLK
  0
BLOCK
  8
LAYER_1
  2
AIGNBL010202E0
 70
64
 10
0
 20
0
 30
0
  3
AIGNBL010202E0
  0
POLYLINE
  8
LAYER_1
 40
0.05
 41
0.05
 66
1
 10
0
 20
0
 30
0
 70
1
  0
VERTEX
  8
LAYER_1
 10
126.7423
 20
-90.6762
  0
VERTEX
  8
LAYER_1
 10
126.769
 20
-90.344
  0
VERTEX
  8
LAYER_1
 10
125.7589
 20
-90.4299
  0
SEQEND
  0
ENDBLK
  0
BLOCK
  8
LAYER_1
  2
AIGNBL010202E1
 70
64
 10
0
 20
0
 30
0
  3
AIGNBL010202E1
  0
POLYLINE
  8
LAYER_1
 40
0.05
 41
0.05
 66
1
 10
0
 20
0
 30
0
 70
1
  0
VERTEX
  8
LAYER_1
 10
129.0204
 20
-90.344
  0
VERTEX
  8
LAYER_1
 10
129.0471
 20
-90.6762
  0
VERTEX
  8
LAYER_1
 10
130.0306
 20
-90.4299
  0
SEQEND
  0
ENDBLK
  0
BLOCK
  8
LAYER_1
  2
AIGNBL010202E2
 70
64
 10
0
 20
0
 30
0
  3
AIGNBL010202E2
  0
TEXT
  8
LAYER_1
 10
118.0882
 20
-80.0006
 11
118.0882
 21
-80.0006
 40
4.0981
 41
0.5
 50
351.195726
  1
360%%d
  0
TEXT
  8
LAYER_1
 10
116.9275
 20
-83.8931
 11
116.9275
 21
-83.8931
 40
3.473
 41
0.5
 50
351.195726
  1
全方位
  0
TEXT
  8
LAYER_1
 10
116.9986
 20
-88.8111
 11
116.9986
 21
-88.8111
 40
4.0981
 41
0.5
 50
351.195726
  1
12%%d
  0
ENDBLK
  0
BLOCK
  8
LAYER_1
  2
AIGNBL010202E4
 70
64
 10
0
 20
0
 30
0
  3
AIGNBL010202E4
  0
POLYLINE
  8
LAYER_1
 40
0.127
 41
0.127
 66
1
 10
0
 20
0
 30
0
  0
VERTEX
  8
LAYER_1
 10
86.1107
 20
-67.4706
  0
VERTEX
  8
LAYER_1
 10
94.013
 20
-50.524
  0
SEQEND
  0
ENDBLK
  0
BLOCK
  8
LAYER_1
  2
AIGNBL010202E5
 70
64
 10
0
 20
0
 30
0
  3
AIGNBL010202E5
  0
POLYLINE
  8
LAYER_1
 40
0.127
 41
0.127
 66
1
 10
0
 20
0
 30
0
  0
VERTEX
  8
LAYER_1
 10
80.6969
 20
-63.8602
  0
VERTEX
  8
LAYER_1
 10
80.6969
 20
-47.5719
  0
SEQEND
  0
ENDBLK
  0
BLOCK
  8
LAYER_1
  2
AIGNBL010202E6
 70
64
 10
0
 20
0
 30
0
  3
AIGNBL010202E6
  0
POLYLINE
  8
LAYER_1
 40
0.127
 41
0.127
 66
1
 10
0
 20
0
 30
0
  0
VERTEX
  8
LAYER_1
 10
92.9944
 20
-50.3426
 42
0.0933571134
  0
VERTEX
  8
LAYER_1
 10
81.6967
 20
-47.8379
  0
SEQEND
  0
ENDBLK
  0
BLOCK
  8
LAYER_1
  2
AIGNBL010202E7
 70
64
 10
0
 20
0
 30
0
  3
AIGNBL010202E7
  0
POLYLINE
  8
LAYER_1
 40
0.05
 41
0.05
 66
1
 10
0
 20
0
 30
0
 70
1
  0
VERTEX
  8
LAYER_1
 10
93.0624
 20
-50.1904
  0
VERTEX
  8
LAYER_1
 10
92.9264
 20
-50.4947
  0
VERTEX
  8
LAYER_1
 10
93.9073
 20
-50.7506
  0
SEQEND
  0
ENDBLK
  0
BLOCK
  8
LAYER_1
  2
AIGNBL010202E8
 70
64
 10
0
 20
0
 30
0
  3
AIGNBL010202E8
  0
POLYLINE
  8
LAYER_1
 40
0.05
 41
0.05
 66
1
 10
0
 20
0
 30
0
 70
1
  0
VERTEX
  8
LAYER_1
 10
81.6941
 20
-48.0046
  0
VERTEX
  8
LAYER_1
 10
81.6994
 20
-47.6713
  0
VERTEX
  8
LAYER_1
 10
80.6969
 20
-47.8219
  0
SEQEND
  0
ENDBLK
  0
BLOCK
  8
LAYER_1
  2
AIGNBL010202E9
 70
64
 10
0
 20
0
 30
0
  3
AIGNBL010202E9
  0
TEXT
  8
LAYER_1
 10
87.7002
 20
-48.1147
 11
87.7002
 21
-48.1147
 40
4.0981
 41
0.5
 50
341.4059712
  1
25%%d
  0
ENDBLK
  0
BLOCK
  8
LAYER_1
  2
AIGNBL01010002
 70
64
 10
0
 20
0
 30
0
  3
AIGNBL01010002
  0
INSERT
  8
LAYER_1
  2
AIGNBL01020003
 10
0
 20
0
 30
0
  0
INSERT
  8
LAYER_1
  2
AIGNBL0102000C
 10
0
 20
0
 30
0
  0
ENDBLK
  0
BLOCK
  8
LAYER_1
  2
AIGNBL01010024
 70
64
 10
0
 20
0
 30
0
  3
AIGNBL01010024
  0
INSERT
  8
LAYER_1
  2
AIGNBL01020025
 10
0
 20
0
 30
0
  0
INSERT
  8
LAYER_1
  2
AIGNBL01020026
 10
0
 20
0
 30
0
  0
INSERT
  8
LAYER_1
  2
AIGNBL01020027
 10
0
 20
0
 30
0
  0
INSERT
  8
LAYER_1
  2
AIGNBL01020028
 10
0
 20
0
 30
0
  0
INSERT
  8
LAYER_1
  2
AIGNBL01020029
 10
0
 20
0
 30
0
  0
INSERT
  8
LAYER_1
  2
AIGNBL0102002A
 10
0
 20
0
 30
0
  0
INSERT
  8
LAYER_1
  2
AIGNBL0102002B
 10
0
 20
0
 30
0
  0
ENDBLK
  0
BLOCK
  8
LAYER_1
  2
AIGNBL0101002C
 70
64
 10
0
 20
0
 30
0
  3
AIGNBL0101002C
  0
INSERT
  8
LAYER_1
  2
AIGNBL0102002D
 10
0
 20
0
 30
0
  0
INSERT
  8
LAYER_1
  2
AIGNBL0102002E
 10
0
 20
0
 30
0
  0
INSERT
  8
LAYER_1
  2
AIGNBL0102002F
 10
0
 20
0
 30
0
  0
INSERT
  8
LAYER_1
  2
AIGNBL01020030
 10
0
 20
0
 30
0
  0
INSERT
  8
LAYER_1
  2
AIGNBL01020031
 10
0
 20
0
 30
0
  0
INSERT
  8
LAYER_1
  2
AIGNBL01020032
 10
0
 20
0
 30
0
  0
ENDBLK
  0
BLOCK
  8
LAYER_1
  2
AIGNBL01010033
 70
64
 10
0
 20
0
 30
0
  3
AIGNBL01010033
  0
POLYLINE
  8
LAYER_1
 40
0.1058
 41
0.1058
 66
1
 10
0
 20
0
 30
0
  0
VERTEX
  8
LAYER_1
 10
174.6447
 20
-148.0837
  0
VERTEX
  8
LAYER_1
 10
183.1447
 20
-148.0837
  0
SEQEND
  0
ENDBLK
  0
BLOCK
  8
LAYER_1
  2
AIGNBL01010034
 70
64
 10
0
 20
0
 30
0
  3
AIGNBL01010034
  0
POLYLINE
  8
LAYER_1
 40
0.1058
 41
0.1058
 66
1
 10
0
 20
0
 30
0
  0
VERTEX
  8
LAYER_1
 10
174.2697
 20
-142.3337
  0
VERTEX
  8
LAYER_1
 10
183.5197
 20
-142.3337
  0
SEQEND
  0
ENDBLK
  0
BLOCK
  8
LAYER_1
  2
AIGNBL01010035
 70
64
 10
0
 20
0
 30
0
  3
AIGNBL01010035
  0
POLYLINE
  8
LAYER_1
 40
0.1058
 41
0.1058
 66
1
 10
0
 20
0
 30
0
  0
VERTEX
  8
LAYER_1
 10
174.2697
 20
-140.5837
  0
VERTEX
  8
LAYER_1
 10
183.5197
 20
-140.5837
  0
SEQEND
  0
ENDBLK
  0
BLOCK
  8
LAYER_1
  2
AIGNBL01010036
 70
64
 10
0
 20
0
 30
0
  3
AIGNBL01010036
  0
POLYLINE
  8
LAYER_1
 40
0.1058
 41
0.1058
 66
1
 10
0
 20
0
 30
0
  0
VERTEX
  8
LAYER_1
 10
171.3947
 20
-139.3337
  0
VERTEX
  8
LAYER_1
 10
186.3947
 20
-139.3337
  0
SEQEND
  0
ENDBLK
  0
BLOCK
  8
LAYER_1
  2
AIGNBL01010037
 70
64
 10
0
 20
0
 30
0
  3
AIGNBL01010037
  0
POLYLINE
  8
LAYER_1
 40
0.1058
 41
0.1058
 66
1
 10
0
 20
0
 30
0
  0
VERTEX
  8
LAYER_1
 10
171.3947
 20
-139.1837
  0
VERTEX
  8
LAYER_1
 10
186.3947
 20
-139.1837
  0
SEQEND
  0
ENDBLK
  0
BLOCK
  8
LAYER_1
  2
AIGNBL01010038
 70
64
 10
0
 20
0
 30
0
  3
AIGNBL01010038
  0
POLYLINE
  8
LAYER_1
 40
0.1058
 41
0.1058
 66
1
 10
0
 20
0
 30
0
  0
VERTEX
  8
LAYER_1
 10
185.4364
 20
-138.9587
  0
VERTEX
  8
LAYER_1
 10
172.3531
 20
-138.9587
  0
SEQEND
  0
ENDBLK
  0
BLOCK
  8
LAYER_1
  2
AIGNBL01010039
 70
64
 10
0
 20
0
 30
0
  3
AIGNBL01010039
  0
POLYLINE
  8
LAYER_1
 40
0.1058
 41
0.1058
 66
1
 10
0
 20
0
 30
0
  0
VERTEX
  8
LAYER_1
 10
173.5822
 20
-137.9337
  0
VERTEX
  8
LAYER_1
 10
184.2072
 20
-137.9337
  0
SEQEND
  0
ENDBLK
  0
BLOCK
  8
LAYER_1
  2
AIGNBL0101003A
 70
64
 10
0
 20
0
 30
0
  3
AIGNBL0101003A
  0
POLYLINE
  8
LAYER_1
 40
0.1058
 41
0.1058
 66
1
 10
0
 20
0
 30
0
  0
VERTEX
  8
LAYER_1
 10
173.5822
 20
-137.1837
  0
VERTEX
  8
LAYER_1
 10
184.2072
 20
-137.1837
  0
SEQEND
  0
ENDBLK
  0
BLOCK
  8
LAYER_1
  2
AIGNBL0101003B
 70
64
 10
0
 20
0
 30
0
  3
AIGNBL0101003B
  0
POLYLINE
  8
LAYER_1
 40
0.1058
 41
0.1058
 66
1
 10
0
 20
0
 30
0
  0
VERTEX
  8
LAYER_1
 10
171.3947
 20
-139.1837
  0
VERTEX
  8
LAYER_1
 10
171.3947
 20
-139.3337
  0
SEQEND
  0
ENDBLK
  0
BLOCK
  8
LAYER_1
  2
AIGNBL0101003C
 70
64
 10
0
 20
0
 30
0
  3
AIGNBL0101003C
  0
POLYLINE
  8
LAYER_1
 40
0.1058
 41
0.1058
 66
1
 10
0
 20
0
 30
0
  0
VERTEX
  8
LAYER_1
 10
184.1397
 20
-136.0637
  0
VERTEX
  8
LAYER_1
 10
173.6497
 20
-136.0637
  0
SEQEND
  0
ENDBLK
  0
BLOCK
  8
LAYER_1
  2
AIGNBL0101003D
 70
64
 10
0
 20
0
 30
0
  3
AIGNBL0101003D
  0
POLYLINE
  8
LAYER_1
 40
0.1058
 41
0.1058
 66
1
 10
0
 20
0
 30
0
  0
VERTEX
  8
LAYER_1
 10
172.6447
 20
-135.9337
  0
VERTEX
  8
LAYER_1
 10
185.1447
 20
-135.9337
  0
SEQEND
  0
ENDBLK
  0
BLOCK
  8
LAYER_1
  2
AIGNBL0101003E
 70
64
 10
0
 20
0
 30
0
  3
AIGNBL0101003E
  0
POLYLINE
  8
LAYER_1
 40
0.1058
 41
0.1058
 66
1
 10
0
 20
0
 30
0
  0
VERTEX
  8
LAYER_1
 10
172.6447
 20
-135.1837
  0
VERTEX
  8
LAYER_1
 10
185.1447
 20
-135.1837
  0
SEQEND
  0
ENDBLK
  0
BLOCK
  8
LAYER_1
  2
AIGNBL0101003F
 70
64
 10
0
 20
0
 30
0
  3
AIGNBL0101003F
  0
POLYLINE
  8
LAYER_1
 40
0.1058
 41
0.1058
 66
1
 10
0
 20
0
 30
0
  0
VERTEX
  8
LAYER_1
 10
172.8947
 20
-134.9337
  0
VERTEX
  8
LAYER_1
 10
184.8947
 20
-134.9337
  0
SEQEND
  0
ENDBLK
  0
BLOCK
  8
LAYER_1
  2
AIGNBL01010040
 70
64
 10
0
 20
0
 30
0
  3
AIGNBL01010040
  0
POLYLINE
  8
LAYER_1
 40
0.1058
 41
0.1058
 66
1
 10
0
 20
0
 30
0
  0
VERTEX
  8
LAYER_1
 10
172.6447
 20
-135.1837
  0
VERTEX
  8
LAYER_1
 10
172.6447
 20
-135.9337
  0
SEQEND
  0
ENDBLK
  0
BLOCK
  8
LAYER_1
  2
AIGNBL01010041
 70
64
 10
0
 20
0
 30
0
  3
AIGNBL01010041
  0
POLYLINE
  8
LAYER_1
 40
0.1058
 41
0.1058
 66
1
 10
0
 20
0
 30
0
  0
VERTEX
  8
LAYER_1
 10
173.5822
 20
-137.1837
  0
VERTEX
  8
LAYER_1
 10
173.5822
 20
-137.9337
  0
SEQEND
  0
ENDBLK
  0
BLOCK
  8
LAYER_1
  2
AIGNBL01010042
 70
64
 10
0
 20
0
 30
0
  3
AIGNBL01010042
  0
POLYLINE
  8
LAYER_1
 40
0.1058
 41
0.1058
 66
1
 10
0
 20
0
 30
0
  0
VERTEX
  8
LAYER_1
 10
173.8947
 20
-134.9337
  0
VERTEX
  8
LAYER_1
 10
173.8947
 20
-135.9337
  0
SEQEND
  0
ENDBLK
  0
BLOCK
  8
LAYER_1
  2
AIGNBL01010043
 70
64
 10
0
 20
0
 30
0
  3
AIGNBL01010043
  0
POLYLINE
  8
LAYER_1
 40
0.1058
 41
0.1058
 66
1
 10
0
 20
0
 30
0
  0
VERTEX
  8
LAYER_1
 10
174.2697
 20
-142.3337
  0
VERTEX
  8
LAYER_1
 10
174.2697
 20
-140.5837
  0
SEQEND
  0
ENDBLK
  0
BLOCK
  8
LAYER_1
  2
AIGNBL01010044
 70
64
 10
0
 20
0
 30
0
  3
AIGNBL01010044
  0
POLYLINE
  8
LAYER_1
 40
0.1058
 41
0.1058
 66
1
 10
0
 20
0
 30
0
  0
VERTEX
  8
LAYER_1
 10
174.6447
 20
-148.0837
  0
VERTEX
  8
LAYER_1
 10
174.6447
 20
-142.3337
  0
SEQEND
  0
ENDBLK
  0
BLOCK
  8
LAYER_1
  2
AIGNBL01010045
 70
64
 10
0
 20
0
 30
0
  3
AIGNBL01010045
  0
POLYLINE
  8
LAYER_1
 40
0.1058
 41
0.1058
 66
1
 10
0
 20
0
 30
0
  0
VERTEX
  8
LAYER_1
 10
174.7697
 20
-136.0637
  0
VERTEX
  8
LAYER_1
 10
174.7697
 20
-137.1837
  0
SEQEND
  0
ENDBLK
  0
BLOCK
  8
LAYER_1
  2
AIGNBL01010046
 70
64
 10
0
 20
0
 30
0
  3
AIGNBL01010046
  0
POLYLINE
  8
LAYER_1
 40
0.1058
 41
0.1058
 66
1
 10
0
 20
0
 30
0
  0
VERTEX
  8
LAYER_1
 10
174.7697
 20
-137.9337
  0
VERTEX
  8
LAYER_1
 10
174.7697
 20
-138.9587
  0
SEQEND
  0
ENDBLK
  0
BLOCK
  8
LAYER_1
  2
AIGNBL01010047
 70
64
 10
0
 20
0
 30
0
  3
AIGNBL01010047
  0
POLYLINE
  8
LAYER_1
 40
0.1058
 41
0.1058
 66
1
 10
0
 20
0
 30
0
  0
VERTEX
  8
LAYER_1
 10
174.7697
 20
-139.3337
  0
VERTEX
  8
LAYER_1
 10
174.7697
 20
-140.5837
  0
SEQEND
  0
ENDBLK
  0
BLOCK
  8
LAYER_1
  2
AIGNBL01010048
 70
64
 10
0
 20
0
 30
0
  3
AIGNBL01010048
  0
POLYLINE
  8
LAYER_1
 40
0.1058
 41
0.1058
 66
1
 10
0
 20
0
 30
0
  0
VERTEX
  8
LAYER_1
 10
174.9572
 20
-140.5837
  0
VERTEX
  8
LAYER_1
 10
174.9572
 20
-139.3337
  0
SEQEND
  0
ENDBLK
  0
BLOCK
  8
LAYER_1
  2
AIGNBL01010049
 70
64
 10
0
 20
0
 30
0
  3
AIGNBL01010049
  0
POLYLINE
  8
LAYER_1
 40
0.1058
 41
0.1058
 66
1
 10
0
 20
0
 30
0
  0
VERTEX
  8
LAYER_1
 10
174.9572
 20
-138.9587
  0
VERTEX
  8
LAYER_1
 10
174.9572
 20
-137.9337
  0
SEQEND
  0
ENDBLK
  0
BLOCK
  8
LAYER_1
  2
AIGNBL0101004A
 70
64
 10
0
 20
0
 30
0
  3
AIGNBL0101004A
  0
POLYLINE
  8
LAYER_1
 40
0.1058
 41
0.1058
 66
1
 10
0
 20
0
 30
0
  0
VERTEX
  8
LAYER_1
 10
174.9572
 20
-137.1837
  0
VERTEX
  8
LAYER_1
 10
174.9572
 20
-136.0637
  0
SEQEND
  0
ENDBLK
  0
BLOCK
  8
LAYER_1
  2
AIGNBL0101004B
 70
64
 10
0
 20
0
 30
0
  3
AIGNBL0101004B
  0
POLYLINE
  8
LAYER_1
 40
0.1058
 41
0.1058
 66
1
 10
0
 20
0
 30
0
  0
VERTEX
  8
LAYER_1
 10
178.8947
 20
-140.9391
  0
VERTEX
  8
LAYER_1
 10
178.8947
 20
-141.9783
  0
SEQEND
  0
ENDBLK
  0
BLOCK
  8
LAYER_1
  2
AIGNBL0101004C
 70
64
 10
0
 20
0
 30
0
  3
AIGNBL0101004C
  0
POLYLINE
  8
LAYER_1
 40
0.1058
 41
0.1058
 66
1
 10
0
 20
0
 30
0
  0
VERTEX
  8
LAYER_1
 10
178.8947
 20
-148.1837
  0
VERTEX
  8
LAYER_1
 10
178.8947
 20
-141.9783
  0
SEQEND
  0
ENDBLK
  0
BLOCK
  8
LAYER_1
  2
AIGNBL0101004D
 70
64
 10
0
 20
0
 30
0
  3
AIGNBL0101004D
  0
POLYLINE
  8
LAYER_1
 40
0.1058
 41
0.1058
 66
1
 10
0
 20
0
 30
0
  0
VERTEX
  8
LAYER_1
 10
178.8947
 20
-140.9391
  0
VERTEX
  8
LAYER_1
 10
178.8947
 20
-135.9831
  0
SEQEND
  0
ENDBLK
  0
BLOCK
  8
LAYER_1
  2
AIGNBL0101004E
 70
64
 10
0
 20
0
 30
0
  3
AIGNBL0101004E
  0
POLYLINE
  8
LAYER_1
 40
0.1058
 41
0.1058
 66
1
 10
0
 20
0
 30
0
  0
VERTEX
  8
LAYER_1
 10
182.8322
 20
-140.5837
  0
VERTEX
  8
LAYER_1
 10
182.8322
 20
-139.3337
  0
SEQEND
  0
ENDBLK
  0
BLOCK
  8
LAYER_1
  2
AIGNBL0101004F
 70
64
 10
0
 20
0
 30
0
  3
AIGNBL0101004F
  0
POLYLINE
  8
LAYER_1
 40
0.1058
 41
0.1058
 66
1
 10
0
 20
0
 30
0
  0
VERTEX
  8
LAYER_1
 10
182.8322
 20
-138.9587
  0
VERTEX
  8
LAYER_1
 10
182.8322
 20
-137.9337
  0
SEQEND
  0
ENDBLK
  0
BLOCK
  8
LAYER_1
  2
AIGNBL01010050
 70
64
 10
0
 20
0
 30
0
  3
AIGNBL01010050
  0
POLYLINE
  8
LAYER_1
 40
0.1058
 41
0.1058
 66
1
 10
0
 20
0
 30
0
  0
VERTEX
  8
LAYER_1
 10
182.8322
 20
-137.1837
  0
VERTEX
  8
LAYER_1
 10
182.8322
 20
-136.0637
  0
SEQEND
  0
ENDBLK
  0
BLOCK
  8
LAYER_1
  2
AIGNBL01010051
 70
64
 10
0
 20
0
 30
0
  3
AIGNBL01010051
  0
POLYLINE
  8
LAYER_1
 40
0.1058
 41
0.1058
 66
1
 10
0
 20
0
 30
0
  0
VERTEX
  8
LAYER_1
 10
183.0197
 20
-136.0637
  0
VERTEX
  8
LAYER_1
 10
183.0197
 20
-137.1837
  0
SEQEND
  0
ENDBLK
  0
BLOCK
  8
LAYER_1
  2
AIGNBL01010052
 70
64
 10
0
 20
0
 30
0
  3
AIGNBL01010052
  0
POLYLINE
  8
LAYER_1
 40
0.1058
 41
0.1058
 66
1
 10
0
 20
0
 30
0
  0
VERTEX
  8
LAYER_1
 10
183.0197
 20
-137.9337
  0
VERTEX
  8
LAYER_1
 10
183.0197
 20
-138.9587
  0
SEQEND
  0
ENDBLK
  0
BLOCK
  8
LAYER_1
  2
AIGNBL01010053
 70
64
 10
0
 20
0
 30
0
  3
AIGNBL01010053
  0
POLYLINE
  8
LAYER_1
 40
0.1058
 41
0.1058
 66
1
 10
0
 20
0
 30
0
  0
VERTEX
  8
LAYER_1
 10
183.0197
 20
-139.3337
  0
VERTEX
  8
LAYER_1
 10
183.0197
 20
-140.5837
  0
SEQEND
  0
ENDBLK
  0
BLOCK
  8
LAYER_1
  2
AIGNBL01010054
 70
64
 10
0
 20
0
 30
0
  3
AIGNBL01010054
  0
POLYLINE
  8
LAYER_1
 40
0.1058
 41
0.1058
 66
1
 10
0
 20
0
 30
0
  0
VERTEX
  8
LAYER_1
 10
183.1447
 20
-148.0837
  0
VERTEX
  8
LAYER_1
 10
183.1447
 20
-142.3337
  0
SEQEND
  0
ENDBLK
  0
BLOCK
  8
LAYER_1
  2
AIGNBL01010055
 70
64
 10
0
 20
0
 30
0
  3
AIGNBL01010055
  0
POLYLINE
  8
LAYER_1
 40
0.1058
 41
0.1058
 66
1
 10
0
 20
0
 30
0
  0
VERTEX
  8
LAYER_1
 10
183.5197
 20
-140.5837
  0
VERTEX
  8
LAYER_1
 10
183.5197
 20
-142.3337
  0
SEQEND
  0
ENDBLK
  0
BLOCK
  8
LAYER_1
  2
AIGNBL01010056
 70
64
 10
0
 20
0
 30
0
  3
AIGNBL01010056
  0
POLYLINE
  8
LAYER_1
 40
0.1058
 41
0.1058
 66
1
 10
0
 20
0
 30
0
  0
VERTEX
  8
LAYER_1
 10
183.8947
 20
-134.9337
  0
VERTEX
  8
LAYER_1
 10
183.8947
 20
-135.9337
  0
SEQEND
  0
ENDBLK
  0
BLOCK
  8
LAYER_1
  2
AIGNBL01010057
 70
64
 10
0
 20
0
 30
0
  3
AIGNBL01010057
  0
POLYLINE
  8
LAYER_1
 40
0.1058
 41
0.1058
 66
1
 10
0
 20
0
 30
0
  0
VERTEX
  8
LAYER_1
 10
184.2072
 20
-137.1837
  0
VERTEX
  8
LAYER_1
 10
184.2072
 20
-137.9337
  0
SEQEND
  0
ENDBLK
  0
BLOCK
  8
LAYER_1
  2
AIGNBL01010058
 70
64
 10
0
 20
0
 30
0
  3
AIGNBL01010058
  0
POLYLINE
  8
LAYER_1
 40
0.1058
 41
0.1058
 66
1
 10
0
 20
0
 30
0
  0
VERTEX
  8
LAYER_1
 10
185.1447
 20
-135.1837
  0
VERTEX
  8
LAYER_1
 10
185.1447
 20
-135.9337
  0
SEQEND
  0
ENDBLK
  0
BLOCK
  8
LAYER_1
  2
AIGNBL01010059
 70
64
 10
0
 20
0
 30
0
  3
AIGNBL01010059
  0
POLYLINE
  8
LAYER_1
 40
0.1058
 41
0.1058
 66
1
 10
0
 20
0
 30
0
  0
VERTEX
  8
LAYER_1
 10
186.3947
 20
-139.1837
  0
VERTEX
  8
LAYER_1
 10
186.3947
 20
-139.3337
  0
SEQEND
  0
ENDBLK
  0
BLOCK
  8
LAYER_1
  2
AIGNBL0101005A
 70
64
 10
0
 20
0
 30
0
  3
AIGNBL0101005A
  0
POLYLINE
  8
LAYER_1
 40
0.1058
 41
0.1058
 66
1
 10
0
 20
0
 30
0
  0
VERTEX
  8
LAYER_1
 10
172.3531
 20
-138.9587
 42
0.2769980302
  0
VERTEX
  8
LAYER_1
 10
171.9781
 20
-139.1837
  0
SEQEND
  0
ENDBLK
  0
BLOCK
  8
LAYER_1
  2
AIGNBL0101005B
 70
64
 10
0
 20
0
 30
0
  3
AIGNBL0101005B
  0
POLYLINE
  8
LAYER_1
 40
0.1058
 41
0.1058
 66
1
 10
0
 20
0
 30
0
  0
VERTEX
  8
LAYER_1
 10
173.3885
 20
-135.9338
 42
0.234963266
  0
VERTEX
  8
LAYER_1
 10
173.6497
 20
-136.0637
  0
SEQEND
  0
ENDBLK
  0
BLOCK
  8
LAYER_1
  2
AIGNBL0101005C
 70
64
 10
0
 20
0
 30
0
  3
AIGNBL0101005C
  0
POLYLINE
  8
LAYER_1
 40
0.1058
 41
0.1058
 66
1
 10
0
 20
0
 30
0
  0
VERTEX
  8
LAYER_1
 10
172.8947
 20
-134.9337
 42
0.414183855
  0
VERTEX
  8
LAYER_1
 10
172.6447
 20
-135.1837
  0
SEQEND
  0
ENDBLK
  0
BLOCK
  8
LAYER_1
  2
AIGNBL0101005D
 70
64
 10
0
 20
0
 30
0
  3
AIGNBL0101005D
  0
POLYLINE
  8
LAYER_1
 40
0.1058
 41
0.1058
 66
1
 10
0
 20
0
 30
0
  0
VERTEX
  8
LAYER_1
 10
185.8114
 20
-139.1837
 42
0.2769821515
  0
VERTEX
  8
LAYER_1
 10
185.4364
 20
-138.9587
  0
SEQEND
  0
ENDBLK
  0
BLOCK
  8
LAYER_1
  2
AIGNBL0101005E
 70
64
 10
0
 20
0
 30
0
  3
AIGNBL0101005E
  0
POLYLINE
  8
LAYER_1
 40
0.1058
 41
0.1058
 66
1
 10
0
 20
0
 30
0
  0
VERTEX
  8
LAYER_1
 10
184.1397
 20
-136.0637
 42
0.2349800884
  0
VERTEX
  8
LAYER_1
 10
184.4009
 20
-135.9338
  0
SEQEND
  0
ENDBLK
  0
BLOCK
  8
LAYER_1
  2
AIGNBL0101005F
 70
64
 10
0
 20
0
 30
0
  3
AIGNBL0101005F
  0
POLYLINE
  8
LAYER_1
 40
0.1058
 41
0.1058
 66
1
 10
0
 20
0
 30
0
  0
VERTEX
  8
LAYER_1
 10
185.1447
 20
-135.1837
 42
0.4142455294
  0
VERTEX
  8
LAYER_1
 10
184.8947
 20
-134.9337
  0
SEQEND
  0
ENDBLK
  0
BLOCK
  8
LAYER_1
  2
AIGNBL01010060
 70
64
 10
0
 20
0
 30
0
  3
AIGNBL01010060
  0
POLYLINE
  8
LAYER_1
 40
0.1058
 41
0.1058
 66
1
 10
0
 20
0
 30
0
  0
VERTEX
  8
LAYER_1
 10
182.0446
 20
-142.3337
  0
VERTEX
  8
LAYER_1
 10
182.4179
 20
-142.2721
 42
0.03188414911
  0
VERTEX
  8
LAYER_1
 10
183.5197
 20
-141.9783
  0
SEQEND
  0
ENDBLK
  0
BLOCK
  8
LAYER_1
  2
AIGNBL01010061
 70
64
 10
0
 20
0
 30
0
  3
AIGNBL01010061
  0
POLYLINE
  8
LAYER_1
 40
0.1058
 41
0.1058
 66
1
 10
0
 20
0
 30
0
  0
VERTEX
  8
LAYER_1
 10
174.2697
 20
-141.9783
  0
VERTEX
  8
LAYER_1
 10
174.6337
 20
-142.0922
 42
0.03699791434
  0
VERTEX
  8
LAYER_1
 10
175.7448
 20
-142.3337
  0
SEQEND
  0
ENDBLK
  0
BLOCK
  8
LAYER_1
  2
AIGNBL01010062
 70
64
 10
0
 20
0
 30
0
  3
AIGNBL01010062
  0
POLYLINE
  8
LAYER_1
 40
0.1058
 41
0.1058
 66
1
 10
0
 20
0
 30
0
  0
VERTEX
  8
LAYER_1
 10
177.4196
 20
-142.3337
  0
VERTEX
  8
LAYER_1
 10
177.7929
 20
-142.2721
 42
0.03188414911
  0
VERTEX
  8
LAYER_1
 10
178.8947
 20
-141.9783
  0
SEQEND
  0
ENDBLK
  0
BLOCK
  8
LAYER_1
  2
AIGNBL01010063
 70
64
 10
0
 20
0
 30
0
  3
AIGNBL01010063
  0
POLYLINE
  8
LAYER_1
 40
0.1058
 41
0.1058
 66
1
 10
0
 20
0
 30
0
  0
VERTEX
  8
LAYER_1
 10
178.8947
 20
-141.9783
  0
VERTEX
  8
LAYER_1
 10
179.2587
 20
-142.0922
 42
0.03699791357
  0
VERTEX
  8
LAYER_1
 10
180.3698
 20
-142.3337
  0
SEQEND
  0
ENDBLK
  0
BLOCK
  8
LAYER_1
  2
AIGNBL01010064
 70
64
 10
0
 20
0
 30
0
  3
AIGNBL01010064
  0
POLYLINE
  8
LAYER_1
 40
0.1058
 41
0.1058
 66
1
 10
0
 20
0
 30
0
  0
VERTEX
  8
LAYER_1
 10
175.7448
 20
-140.5837
  0
VERTEX
  8
LAYER_1
 10
175.3715
 20
-140.6453
 42
0.03187312327
  0
VERTEX
  8
LAYER_1
 10
174.2697
 20
-140.9391
  0
SEQEND
  0
ENDBLK
  0
BLOCK
  8
LAYER_1
  2
AIGNBL01010065
 70
64
 10
0
 20
0
 30
0
  3
AIGNBL01010065
  0
POLYLINE
  8
LAYER_1
 40
0.1058
 41
0.1058
 66
1
 10
0
 20
0
 30
0
  0
VERTEX
  8
LAYER_1
 10
178.8947
 20
-140.9391
  0
VERTEX
  8
LAYER_1
 10
178.5307
 20
-140.8252
 42
0.03699797635
  0
VERTEX
  8
LAYER_1
 10
177.4196
 20
-140.5837
  0
SEQEND
  0
ENDBLK
  0
BLOCK
  8
LAYER_1
  2
AIGNBL01010066
 70
64
 10
0
 20
0
 30
0
  3
AIGNBL01010066
  0
POLYLINE
  8
LAYER_1
 40
0.1058
 41
0.1058
 66
1
 10
0
 20
0
 30
0
  0
VERTEX
  8
LAYER_1
 10
180.3698
 20
-140.5837
  0
VERTEX
  8
LAYER_1
 10
179.9965
 20
-140.6453
 42
0.03187312327
  0
VERTEX
  8
LAYER_1
 10
178.8947
 20
-140.9391
  0
SEQEND
  0
ENDBLK
  0
BLOCK
  8
LAYER_1
  2
AIGNBL01010067
 70
64
 10
0
 20
0
 30
0
  3
AIGNBL01010067
  0
POLYLINE
  8
LAYER_1
 40
0.1058
 41
0.1058
 66
1
 10
0
 20
0
 30
0
  0
VERTEX
  8
LAYER_1
 10
183.5197
 20
-140.9391
  0
VERTEX
  8
LAYER_1
 10
183.1557
 20
-140.8252
 42
0.03699797712
  0
VERTEX
  8
LAYER_1
 10
182.0446
 20
-140.5837
  0
SEQEND
  0
ENDBLK
  0
BLOCK
  8
LAYER_1
  2
AIGNBL01010068
 70
64
 10
0
 20
0
 30
0
  3
AIGNBL01010068
  0
INSERT
  8
LAYER_1
  2
AIGNBL01020069
 10
0
 20
0
 30
0
  0
INSERT
  8
LAYER_1
  2
AIGNBL0102006A
 10
0
 20
0
 30
0
  0
INSERT
  8
LAYER_1
  2
AIGNBL0102006B
 10
0
 20
0
 30
0
  0
INSERT
  8
LAYER_1
  2
AIGNBL0102006C
 10
0
 20
0
 30
0
  0
INSERT
  8
LAYER_1
  2
AIGNBL0102006D
 10
0
 20
0
 30
0
  0
INSERT
  8
LAYER_1
  2
AIGNBL0102006E
 10
0
 20
0
 30
0
  0
ENDBLK
  0
BLOCK
  8
LAYER_1
  2
AIGNBL0101006F
 70
64
 10
0
 20
0
 30
0
  3
AIGNBL0101006F
  0
INSERT
  8
LAYER_1
  2
AIGNBL01020070
 10
0
 20
0
 30
0
  0
INSERT
  8
LAYER_1
  2
AIGNBL01020071
 10
0
 20
0
 30
0
  0
INSERT
  8
LAYER_1
  2
AIGNBL01020072
 10
0
 20
0
 30
0
  0
INSERT
  8
LAYER_1
  2
AIGNBL01020073
 10
0
 20
0
 30
0
  0
INSERT
  8
LAYER_1
  2
AIGNBL01020074
 10
0
 20
0
 30
0
  0
INSERT
  8
LAYER_1
  2
AIGNBL01020075
 10
0
 20
0
 30
0
  0
ENDBLK
  0
BLOCK
  8
LAYER_1
  2
AIGNBL01010076
 70
64
 10
0
 20
0
 30
0
  3
AIGNBL01010076
  0
INSERT
  8
LAYER_1
  2
AIGNBL01020077
 10
0
 20
0
 30
0
  0
INSERT
  8
LAYER_1
  2
AIGNBL01020078
 10
0
 20
0
 30
0
  0
INSERT
  8
LAYER_1
  2
AIGNBL01020079
 10
0
 20
0
 30
0
  0
INSERT
  8
LAYER_1
  2
AIGNBL0102007A
 10
0
 20
0
 30
0
  0
INSERT
  8
LAYER_1
  2
AIGNBL0102007B
 10
0
 20
0
 30
0
  0
INSERT
  8
LAYER_1
  2
AIGNBL0102007C
 10
0
 20
0
 30
0
  0
ENDBLK
  0
BLOCK
  8
LAYER_1
  2
AIGNBL0101007D
 70
64
 10
0
 20
0
 30
0
  3
AIGNBL0101007D
  0
INSERT
  8
LAYER_1
  2
AIGNBL0102007E
 10
0
 20
0
 30
0
  0
INSERT
  8
LAYER_1
  2
AIGNBL0102007F
 10
0
 20
0
 30
0
  0
INSERT
  8
LAYER_1
  2
AIGNBL01020080
 10
0
 20
0
 30
0
  0
INSERT
  8
LAYER_1
  2
AIGNBL01020081
 10
0
 20
0
 30
0
  0
INSERT
  8
LAYER_1
  2
AIGNBL01020082
 10
0
 20
0
 30
0
  0
INSERT
  8
LAYER_1
  2
AIGNBL01020083
 10
0
 20
0
 30
0
  0
ENDBLK
  0
BLOCK
  8
LAYER_1
  2
AIGNBL01010084
 70
64
 10
0
 20
0
 30
0
  3
AIGNBL01010084
  0
INSERT
  8
LAYER_1
  2
AIGNBL01020085
 10
0
 20
0
 30
0
  0
INSERT
  8
LAYER_1
  2
AIGNBL01020086
 10
0
 20
0
 30
0
  0
INSERT
  8
LAYER_1
  2
AIGNBL01020087
 10
0
 20
0
 30
0
  0
INSERT
  8
LAYER_1
  2
AIGNBL01020088
 10
0
 20
0
 30
0
  0
INSERT
  8
LAYER_1
  2
AIGNBL01020089
 10
0
 20
0
 30
0
  0
INSERT
  8
LAYER_1
  2
AIGNBL0102008A
 10
0
 20
0
 30
0
  0
ENDBLK
  0
BLOCK
  8
LAYER_1
  2
AIGNBL0101008B
 70
64
 10
0
 20
0
 30
0
  3
AIGNBL0101008B
  0
INSERT
  8
LAYER_1
  2
AIGNBL0102008C
 10
0
 20
0
 30
0
  0
INSERT
  8
LAYER_1
  2
AIGNBL0102008D
 10
0
 20
0
 30
0
  0
INSERT
  8
LAYER_1
  2
AIGNBL0102008E
 10
0
 20
0
 30
0
  0
INSERT
  8
LAYER_1
  2
AIGNBL0102008F
 10
0
 20
0
 30
0
  0
INSERT
  8
LAYER_1
  2
AIGNBL01020090
 10
0
 20
0
 30
0
  0
INSERT
  8
LAYER_1
  2
AIGNBL01020091
 10
0
 20
0
 30
0
  0
ENDBLK
  0
BLOCK
  8
LAYER_1
  2
AIGNBL01010092
 70
64
 10
0
 20
0
 30
0
  3
AIGNBL01010092
  0
INSERT
  8
LAYER_1
  2
AIGNBL01020093
 10
0
 20
0
 30
0
  0
INSERT
  8
LAYER_1
  2
AIGNBL01020094
 10
0
 20
0
 30
0
  0
INSERT
  8
LAYER_1
  2
AIGNBL01020095
 10
0
 20
0
 30
0
  0
INSERT
  8
LAYER_1
  2
AIGNBL01020096
 10
0
 20
0
 30
0
  0
INSERT
  8
LAYER_1
  2
AIGNBL01020097
 10
0
 20
0
 30
0
  0
INSERT
  8
LAYER_1
  2
AIGNBL01020098
 10
0
 20
0
 30
0
  0
ENDBLK
  0
BLOCK
  8
LAYER_1
  2
AIGNBL01010099
 70
64
 10
0
 20
0
 30
0
  3
AIGNBL01010099
  0
POLYLINE
  8
LAYER_1
 40
0.1058
 41
0.1058
 66
1
 10
0
 20
0
 30
0
  0
VERTEX
  8
LAYER_1
 10
178.8947
 20
-73.0587
  0
VERTEX
  8
LAYER_1
 10
163.1426
 20
-75.8362
  0
SEQEND
  0
ENDBLK
  0
BLOCK
  8
LAYER_1
  2
AIGNBL0101009A
 70
64
 10
0
 20
0
 30
0
  3
AIGNBL0101009A
  0
POLYLINE
  8
LAYER_1
 40
0.1058
 41
0.1058
 66
1
 10
0
 20
0
 30
0
  0
VERTEX
  8
LAYER_1
 10
123.2697
 20
-67.0587
  0
VERTEX
  8
LAYER_1
 10
123.2697
 20
-69.9337
  0
SEQEND
  0
ENDBLK
  0
BLOCK
  8
LAYER_1
  2
AIGNBL0101009B
 70
64
 10
0
 20
0
 30
0
  3
AIGNBL0101009B
  0
POLYLINE
  8
LAYER_1
 40
0.1058
 41
0.1058
 66
1
 10
0
 20
0
 30
0
  0
VERTEX
  8
LAYER_1
 10
124.0197
 20
-70.1087
  0
VERTEX
  8
LAYER_1
 10
124.0197
 20
-66.8087
  0
SEQEND
  0
ENDBLK
  0
BLOCK
  8
LAYER_1
  2
AIGNBL0101009C
 70
64
 10
0
 20
0
 30
0
  3
AIGNBL0101009C
  0
POLYLINE
  8
LAYER_1
 40
0.1058
 41
0.1058
 66
1
 10
0
 20
0
 30
0
  0
VERTEX
  8
LAYER_1
 10
124.1447
 20
-70.1087
  0
VERTEX
  8
LAYER_1
 10
124.1447
 20
-70.6087
  0
SEQEND
  0
ENDBLK
  0
BLOCK
  8
LAYER_1
  2
AIGNBL0101009D
 70
64
 10
0
 20
0
 30
0
  3
AIGNBL0101009D
  0
POLYLINE
  8
LAYER_1
 40
0.1058
 41
0.1058
 66
1
 10
0
 20
0
 30
0
  0
VERTEX
  8
LAYER_1
 10
125.5822
 20
-70.6087
  0
VERTEX
  8
LAYER_1
 10
125.5822
 20
-70.7337
  0
SEQEND
  0
ENDBLK
  0
BLOCK
  8
LAYER_1
  2
AIGNBL0101009E
 70
64
 10
0
 20
0
 30
0
  3
AIGNBL0101009E
  0
POLYLINE
  8
LAYER_1
 40
0.1058
 41
0.1058
 66
1
 10
0
 20
0
 30
0
  0
VERTEX
  8
LAYER_1
 10
167.3186
 20
-63.7531
  0
VERTEX
  8
LAYER_1
 10
167.7204
 20
-63.2744
  0
SEQEND
  0
ENDBLK
  0
BLOCK
  8
LAYER_1
  2
AIGNBL0101009F
 70
64
 10
0
 20
0
 30
0
  3
AIGNBL0101009F
  0
POLYLINE
  8
LAYER_1
 40
0.1058
 41
0.1058
 66
1
 10
0
 20
0
 30
0
  0
VERTEX
  8
LAYER_1
 10
167.7325
 20
-64.4267
  0
VERTEX
  8
LAYER_1
 10
168.4556
 20
-63.5649
  0
SEQEND
  0
ENDBLK
  0
BLOCK
  8
LAYER_1
  2
AIGNBL010100A0
 70
64
 10
0
 20
0
 30
0
  3
AIGNBL010100A0
  0
POLYLINE
  8
LAYER_1
 40
0.1058
 41
0.1058
 66
1
 10
0
 20
0
 30
0
  0
VERTEX
  8
LAYER_1
 10
127.8947
 20
-73.1087
  0
VERTEX
  8
LAYER_1
 10
127.8947
 20
-66.1087
  0
SEQEND
  0
ENDBLK
  0
BLOCK
  8
LAYER_1
  2
AIGNBL010100A1
 70
64
 10
0
 20
0
 30
0
  3
AIGNBL010100A1
  0
POLYLINE
  8
LAYER_1
 40
0.1058
 41
0.1058
 66
1
 10
0
 20
0
 30
0
  0
VERTEX
  8
LAYER_1
 10
130.2072
 20
-70.6087
  0
VERTEX
  8
LAYER_1
 10
130.2072
 20
-70.7337
  0
SEQEND
  0
ENDBLK
  0
BLOCK
  8
LAYER_1
  2
AIGNBL010100A2
 70
64
 10
0
 20
0
 30
0
  3
AIGNBL010100A2
  0
POLYLINE
  8
LAYER_1
 40
0.1058
 41
0.1058
 66
1
 10
0
 20
0
 30
0
  0
VERTEX
  8
LAYER_1
 10
131.6447
 20
-70.1087
  0
VERTEX
  8
LAYER_1
 10
131.6447
 20
-70.6087
  0
SEQEND
  0
ENDBLK
  0
BLOCK
  8
LAYER_1
  2
AIGNBL010100A3
 70
64
 10
0
 20
0
 30
0
  3
AIGNBL010100A3
  0
POLYLINE
  8
LAYER_1
 40
0.1058
 41
0.1058
 66
1
 10
0
 20
0
 30
0
  0
VERTEX
  8
LAYER_1
 10
175.7881
 20
-69.7176
  0
VERTEX
  8
LAYER_1
 10
175.6274
 20
-69.9092
  0
SEQEND
  0
ENDBLK
  0
BLOCK
  8
LAYER_1
  2
AIGNBL010100A4
 70
64
 10
0
 20
0
 30
0
  3
AIGNBL010100A4
  0
POLYLINE
  8
LAYER_1
 40
0.1058
 41
0.1058
 66
1
 10
0
 20
0
 30
0
  0
VERTEX
  8
LAYER_1
 10
175.065
 20
-70.5794
  0
VERTEX
  8
LAYER_1
 10
175.2257
 20
-70.3879
  0
SEQEND
  0
ENDBLK
  0
BLOCK
  8
LAYER_1
  2
AIGNBL010100A5
 70
64
 10
0
 20
0
 30
0
  3
AIGNBL010100A5
  0
POLYLINE
  8
LAYER_1
 40
0.1058
 41
0.1058
 66
1
 10
0
 20
0
 30
0
  0
VERTEX
  8
LAYER_1
 10
181.6556
 20
-76.6155
  0
VERTEX
  8
LAYER_1
 10
182.8769
 20
-75.16
  0
SEQEND
  0
ENDBLK
  0
BLOCK
  8
LAYER_1
  2
AIGNBL010100A6
 70
64
 10
0
 20
0
 30
0
  3
AIGNBL010100A6
  0
POLYLINE
  8
LAYER_1
 40
0.1058
 41
0.1058
 66
1
 10
0
 20
0
 30
0
  0
VERTEX
  8
LAYER_1
 10
181.713
 20
-76.6637
  0
VERTEX
  8
LAYER_1
 10
182.9343
 20
-75.2082
  0
SEQEND
  0
ENDBLK
  0
BLOCK
  8
LAYER_1
  2
AIGNBL010100A7
 70
64
 10
0
 20
0
 30
0
  3
AIGNBL010100A7
  0
POLYLINE
  8
LAYER_1
 40
0.1058
 41
0.1058
 66
1
 10
0
 20
0
 30
0
  0
VERTEX
  8
LAYER_1
 10
167.052
 20
-70.1837
  0
VERTEX
  8
LAYER_1
 10
167.052
 20
-69.9337
  0
SEQEND
  0
ENDBLK
  0
BLOCK
  8
LAYER_1
  2
AIGNBL010100A8
 70
64
 10
0
 20
0
 30
0
  3
AIGNBL010100A8
  0
POLYLINE
  8
LAYER_1
 40
0.1058
 41
0.1058
 66
1
 10
0
 20
0
 30
0
  0
VERTEX
  8
LAYER_1
 10
174.2697
 20
-134.9337
  0
VERTEX
  8
LAYER_1
 10
174.2697
 20
-95.1837
  0
SEQEND
  0
ENDBLK
  0
BLOCK
  8
LAYER_1
  2
AIGNBL010100A9
 70
64
 10
0
 20
0
 30
0
  3
AIGNBL010100A9
  0
POLYLINE
  8
LAYER_1
 40
0.1058
 41
0.1058
 66
1
 10
0
 20
0
 30
0
  0
VERTEX
  8
LAYER_1
 10
178.8947
 20
-56.6539
  0
VERTEX
  8
LAYER_1
 10
178.8947
 20
-66.8087
  0
SEQEND
  0
ENDBLK
  0
BLOCK
  8
LAYER_1
  2
AIGNBL010100AA
 70
64
 10
0
 20
0
 30
0
  3
AIGNBL010100AA
  0
POLYLINE
  8
LAYER_1
 40
0.1058
 41
0.1058
 66
1
 10
0
 20
0
 30
0
  0
VERTEX
  8
LAYER_1
 10
178.8947
 20
-68.5144
  0
VERTEX
  8
LAYER_1
 10
178.8947
 20
-77.603
  0
SEQEND
  0
ENDBLK
  0
BLOCK
  8
LAYER_1
  2
AIGNBL010100AB
 70
64
 10
0
 20
0
 30
0
  3
AIGNBL010100AB
  0
POLYLINE
  8
LAYER_1
 40
0.1058
 41
0.1058
 66
1
 10
0
 20
0
 30
0
  0
VERTEX
  8
LAYER_1
 10
178.8947
 20
-95.1837
  0
VERTEX
  8
LAYER_1
 10
178.8947
 20
-127.5315
  0
SEQEND
  0
ENDBLK
  0
BLOCK
  8
LAYER_1
  2
AIGNBL010100AC
 70
64
 10
0
 20
0
 30
0
  3
AIGNBL010100AC
  0
POLYLINE
  8
LAYER_1
 40
0.1058
 41
0.1058
 66
1
 10
0
 20
0
 30
0
  0
VERTEX
  8
LAYER_1
 10
178.8947
 20
-95.1837
  0
VERTEX
  8
LAYER_1
 10
178.8947
 20
-77.603
  0
SEQEND
  0
ENDBLK
  0
BLOCK
  8
LAYER_1
  2
AIGNBL010100AD
 70
64
 10
0
 20
0
 30
0
  3
AIGNBL010100AD
  0
POLYLINE
  8
LAYER_1
 40
0.1058
 41
0.1058
 66
1
 10
0
 20
0
 30
0
  0
VERTEX
  8
LAYER_1
 10
178.8947
 20
-68.5144
  0
VERTEX
  8
LAYER_1
 10
178.8947
 20
-66.8087
  0
SEQEND
  0
ENDBLK
  0
BLOCK
  8
LAYER_1
  2
AIGNBL010100AE
 70
64
 10
0
 20
0
 30
0
  3
AIGNBL010100AE
  0
POLYLINE
  8
LAYER_1
 40
0.1058
 41
0.1058
 66
1
 10
0
 20
0
 30
0
  0
VERTEX
  8
LAYER_1
 10
183.5197
 20
-134.9337
  0
VERTEX
  8
LAYER_1
 10
183.5197
 20
-129.0588
  0
SEQEND
  0
ENDBLK
  0
BLOCK
  8
LAYER_1
  2
AIGNBL010100AF
 70
64
 10
0
 20
0
 30
0
  3
AIGNBL010100AF
  0
POLYLINE
  8
LAYER_1
 40
0.1058
 41
0.1058
 66
1
 10
0
 20
0
 30
0
  0
VERTEX
  8
LAYER_1
 10
183.5197
 20
-125.404
  0
VERTEX
  8
LAYER_1
 10
183.5197
 20
-67.0587
  0
SEQEND
  0
ENDBLK
  0
BLOCK
  8
LAYER_1
  2
AIGNBL010100B0
 70
64
 10
0
 20
0
 30
0
  3
AIGNBL010100B0
  0
POLYLINE
  8
LAYER_1
 40
0.1058
 41
0.1058
 66
1
 10
0
 20
0
 30
0
  0
VERTEX
  8
LAYER_1
 10
176.1091
 20
-69.718
  0
VERTEX
  8
LAYER_1
 10
176.2694
 20
-69.9098
  0
SEQEND
  0
ENDBLK
  0
BLOCK
  8
LAYER_1
  2
AIGNBL010100B1
 70
64
 10
0
 20
0
 30
0
  3
AIGNBL010100B1
  0
POLYLINE
  8
LAYER_1
 40
0.1058
 41
0.1058
 66
1
 10
0
 20
0
 30
0
  0
VERTEX
  8
LAYER_1
 10
125.5822
 20
-70.7337
  0
VERTEX
  8
LAYER_1
 10
130.2072
 20
-70.7337
  0
SEQEND
  0
ENDBLK
  0
BLOCK
  8
LAYER_1
  2
AIGNBL010100B2
 70
64
 10
0
 20
0
 30
0
  3
AIGNBL010100B2
  0
POLYLINE
  8
LAYER_1
 40
0.1058
 41
0.1058
 66
1
 10
0
 20
0
 30
0
  0
VERTEX
  8
LAYER_1
 10
124.1447
 20
-70.6087
  0
VERTEX
  8
LAYER_1
 10
131.6447
 20
-70.6087
  0
SEQEND
  0
ENDBLK
  0
BLOCK
  8
LAYER_1
  2
AIGNBL010100B3
 70
64
 10
0
 20
0
 30
0
  3
AIGNBL010100B3
  0
POLYLINE
  8
LAYER_1
 40
0.1058
 41
0.1058
 66
1
 10
0
 20
0
 30
0
  0
VERTEX
  8
LAYER_1
 10
167.052
 20
-70.1837
  0
VERTEX
  8
LAYER_1
 10
132.7019
 20
-70.1837
  0
SEQEND
  0
ENDBLK
  0
BLOCK
  8
LAYER_1
  2
AIGNBL010100B4
 70
64
 10
0
 20
0
 30
0
  3
AIGNBL010100B4
  0
POLYLINE
  8
LAYER_1
 40
0.1058
 41
0.1058
 66
1
 10
0
 20
0
 30
0
  0
VERTEX
  8
LAYER_1
 10
132.5332
 20
-70.1087
  0
VERTEX
  8
LAYER_1
 10
123.3412
 20
-70.1087
  0
SEQEND
  0
ENDBLK
  0
BLOCK
  8
LAYER_1
  2
AIGNBL010100B5
 70
64
 10
0
 20
0
 30
0
  3
AIGNBL010100B5
  0
POLYLINE
  8
LAYER_1
 40
0.1058
 41
0.1058
 66
1
 10
0
 20
0
 30
0
  0
VERTEX
  8
LAYER_1
 10
167.052
 20
-69.9337
  0
VERTEX
  8
LAYER_1
 10
123.2697
 20
-69.9337
  0
SEQEND
  0
ENDBLK
  0
BLOCK
  8
LAYER_1
  2
AIGNBL010100B6
 70
64
 10
0
 20
0
 30
0
  3
AIGNBL010100B6
  0
POLYLINE
  8
LAYER_1
 40
0.1058
 41
0.1058
 66
1
 10
0
 20
0
 30
0
  0
VERTEX
  8
LAYER_1
 10
181.6556
 20
-76.6155
  0
VERTEX
  8
LAYER_1
 10
181.713
 20
-76.6637
  0
SEQEND
  0
ENDBLK
  0
BLOCK
  8
LAYER_1
  2
AIGNBL010100B7
 70
64
 10
0
 20
0
 30
0
  3
AIGNBL010100B7
  0
POLYLINE
  8
LAYER_1
 40
0.1058
 41
0.1058
 66
1
 10
0
 20
0
 30
0
  0
VERTEX
  8
LAYER_1
 10
181.8243
 20
-76.4144
  0
VERTEX
  8
LAYER_1
 10
181.7822
 20
-76.379
  0
SEQEND
  0
ENDBLK
  0
BLOCK
  8
LAYER_1
  2
AIGNBL010100B8
 70
64
 10
0
 20
0
 30
0
  3
AIGNBL010100B8
  0
POLYLINE
  8
LAYER_1
 40
0.1058
 41
0.1058
 66
1
 10
0
 20
0
 30
0
  0
VERTEX
  8
LAYER_1
 10
181.8546
 20
-76.3783
  0
VERTEX
  8
LAYER_1
 10
181.8169
 20
-76.3467
  0
SEQEND
  0
ENDBLK
  0
BLOCK
  8
LAYER_1
  2
AIGNBL010100B9
 70
64
 10
0
 20
0
 30
0
  3
AIGNBL010100B9
  0
POLYLINE
  8
LAYER_1
 40
0.1058
 41
0.1058
 66
1
 10
0
 20
0
 30
0
  0
VERTEX
  8
LAYER_1
 10
175.065
 20
-70.5794
  0
VERTEX
  8
LAYER_1
 10
167.3494
 20
-64.1053
  0
SEQEND
  0
ENDBLK
  0
BLOCK
  8
LAYER_1
  2
AIGNBL010100BA
 70
64
 10
0
 20
0
 30
0
  3
AIGNBL010100BA
  0
POLYLINE
  8
LAYER_1
 40
0.1058
 41
0.1058
 66
1
 10
0
 20
0
 30
0
  0
VERTEX
  8
LAYER_1
 10
175.2257
 20
-70.3879
  0
VERTEX
  8
LAYER_1
 10
167.3186
 20
-63.7531
  0
SEQEND
  0
ENDBLK
  0
BLOCK
  8
LAYER_1
  2
AIGNBL010100BB
 70
64
 10
0
 20
0
 30
0
  3
AIGNBL010100BB
  0
POLYLINE
  8
LAYER_1
 40
0.1058
 41
0.1058
 66
1
 10
0
 20
0
 30
0
  0
VERTEX
  8
LAYER_1
 10
182.0866
 20
-76.1019
  0
VERTEX
  8
LAYER_1
 10
182.0778
 20
-76.0945
  0
SEQEND
  0
ENDBLK
  0
BLOCK
  8
LAYER_1
  2
AIGNBL010100BC
 70
64
 10
0
 20
0
 30
0
  3
AIGNBL010100BC
  0
POLYLINE
  8
LAYER_1
 40
0.1058
 41
0.1058
 66
1
 10
0
 20
0
 30
0
  0
VERTEX
  8
LAYER_1
 10
182.1055
 20
-76.0792
  0
VERTEX
  8
LAYER_1
 10
182.0976
 20
-76.0726
  0
SEQEND
  0
ENDBLK
  0
BLOCK
  8
LAYER_1
  2
AIGNBL010100BD
 70
64
 10
0
 20
0
 30
0
  3
AIGNBL010100BD
  0
POLYLINE
  8
LAYER_1
 40
0.1058
 41
0.1058
 66
1
 10
0
 20
0
 30
0
  0
VERTEX
  8
LAYER_1
 10
182.2088
 20
-75.8395
  0
VERTEX
  8
LAYER_1
 10
166.8171
 20
-62.9244
  0
SEQEND
  0
ENDBLK
  0
BLOCK
  8
LAYER_1
  2
AIGNBL010100BE
 70
64
 10
0
 20
0
 30
0
  3
AIGNBL010100BE
  0
POLYLINE
  8
LAYER_1
 40
0.1058
 41
0.1058
 66
1
 10
0
 20
0
 30
0
  0
VERTEX
  8
LAYER_1
 10
182.4269
 20
-75.6962
  0
VERTEX
  8
LAYER_1
 10
182.419
 20
-75.6896
  0
SEQEND
  0
ENDBLK
  0
BLOCK
  8
LAYER_1
  2
AIGNBL010100BF
 70
64
 10
0
 20
0
 30
0
  3
AIGNBL010100BF
  0
POLYLINE
  8
LAYER_1
 40
0.1058
 41
0.1058
 66
1
 10
0
 20
0
 30
0
  0
VERTEX
  8
LAYER_1
 10
182.4459
 20
-75.6736
  0
VERTEX
  8
LAYER_1
 10
182.4371
 20
-75.6662
  0
SEQEND
  0
ENDBLK
  0
BLOCK
  8
LAYER_1
  2
AIGNBL010100C0
 70
64
 10
0
 20
0
 30
0
  3
AIGNBL010100C0
  0
POLYLINE
  8
LAYER_1
 40
0.1058
 41
0.1058
 66
1
 10
0
 20
0
 30
0
  0
VERTEX
  8
LAYER_1
 10
167.7204
 20
-63.2744
  0
VERTEX
  8
LAYER_1
 10
175.6274
 20
-69.9092
  0
SEQEND
  0
ENDBLK
  0
BLOCK
  8
LAYER_1
  2
AIGNBL010100C1
 70
64
 10
0
 20
0
 30
0
  3
AIGNBL010100C1
  0
POLYLINE
  8
LAYER_1
 40
0.1058
 41
0.1058
 66
1
 10
0
 20
0
 30
0
  0
VERTEX
  8
LAYER_1
 10
168.0726
 20
-63.2435
  0
VERTEX
  8
LAYER_1
 10
175.7881
 20
-69.7176
  0
SEQEND
  0
ENDBLK
  0
BLOCK
  8
LAYER_1
  2
AIGNBL010100C2
 70
64
 10
0
 20
0
 30
0
  3
AIGNBL010100C2
  0
POLYLINE
  8
LAYER_1
 40
0.1058
 41
0.1058
 66
1
 10
0
 20
0
 30
0
  0
VERTEX
  8
LAYER_1
 10
182.6779
 20
-75.3971
  0
VERTEX
  8
LAYER_1
 10
182.6402
 20
-75.3655
  0
SEQEND
  0
ENDBLK
  0
BLOCK
  8
LAYER_1
  2
AIGNBL010100C3
 70
64
 10
0
 20
0
 30
0
  3
AIGNBL010100C3
  0
POLYLINE
  8
LAYER_1
 40
0.1058
 41
0.1058
 66
1
 10
0
 20
0
 30
0
  0
VERTEX
  8
LAYER_1
 10
182.7082
 20
-75.3611
  0
VERTEX
  8
LAYER_1
 10
182.666
 20
-75.3257
  0
SEQEND
  0
ENDBLK
  0
BLOCK
  8
LAYER_1
  2
AIGNBL010100C4
 70
64
 10
0
 20
0
 30
0
  3
AIGNBL010100C4
  0
POLYLINE
  8
LAYER_1
 40
0.1058
 41
0.1058
 66
1
 10
0
 20
0
 30
0
  0
VERTEX
  8
LAYER_1
 10
182.8769
 20
-75.16
  0
VERTEX
  8
LAYER_1
 10
182.9343
 20
-75.2082
  0
SEQEND
  0
ENDBLK
  0
BLOCK
  8
LAYER_1
  2
AIGNBL010100C5
 70
64
 10
0
 20
0
 30
0
  3
AIGNBL010100C5
  0
POLYLINE
  8
LAYER_1
 40
0.1058
 41
0.1058
 66
1
 10
0
 20
0
 30
0
  0
VERTEX
  8
LAYER_1
 10
123.2697
 20
-67.0587
  0
VERTEX
  8
LAYER_1
 10
170.8691
 20
-67.0587
  0
SEQEND
  0
ENDBLK
  0
BLOCK
  8
LAYER_1
  2
AIGNBL010100C6
 70
64
 10
0
 20
0
 30
0
  3
AIGNBL010100C6
  0
POLYLINE
  8
LAYER_1
 40
0.1058
 41
0.1058
 66
1
 10
0
 20
0
 30
0
  0
VERTEX
  8
LAYER_1
 10
172.6193
 20
-67.0587
  0
VERTEX
  8
LAYER_1
 10
183.5197
 20
-67.0587
  0
SEQEND
  0
ENDBLK
  0
BLOCK
  8
LAYER_1
  2
AIGNBL010100C7
 70
64
 10
0
 20
0
 30
0
  3
AIGNBL010100C7
  0
POLYLINE
  8
LAYER_1
 40
0.1058
 41
0.1058
 66
1
 10
0
 20
0
 30
0
  0
VERTEX
  8
LAYER_1
 10
123.5197
 20
-66.8087
  0
VERTEX
  8
LAYER_1
 10
170.5712
 20
-66.8087
  0
SEQEND
  0
ENDBLK
  0
BLOCK
  8
LAYER_1
  2
AIGNBL010100C8
 70
64
 10
0
 20
0
 30
0
  3
AIGNBL010100C8
  0
POLYLINE
  8
LAYER_1
 40
0.1058
 41
0.1058
 66
1
 10
0
 20
0
 30
0
  0
VERTEX
  8
LAYER_1
 10
172.3214
 20
-66.8087
  0
VERTEX
  8
LAYER_1
 10
183.2697
 20
-66.8087
  0
SEQEND
  0
ENDBLK
  0
BLOCK
  8
LAYER_1
  2
AIGNBL010100C9
 70
64
 10
0
 20
0
 30
0
  3
AIGNBL010100C9
  0
POLYLINE
  8
LAYER_1
 40
0.1058
 41
0.1058
 66
1
 10
0
 20
0
 30
0
  0
VERTEX
  8
LAYER_1
 10
175.121
 20
-70.8955
  0
VERTEX
  8
LAYER_1
 10
175.3378
 20
-71.0201
  0
SEQEND
  0
ENDBLK
  0
BLOCK
  8
LAYER_1
  2
AIGNBL010100CA
 70
64
 10
0
 20
0
 30
0
  3
AIGNBL010100CA
  0
POLYLINE
  8
LAYER_1
 40
0.1058
 41
0.1058
 66
1
 10
0
 20
0
 30
0
  0
VERTEX
  8
LAYER_1
 10
180.5995
 20
-58.2817
 42
0.4142131762
  0
VERTEX
  8
LAYER_1
 10
164.1177
 20
-71.3539
 42
0.1116680306
  0
VERTEX
  8
LAYER_1
 10
164.8222
 20
-77.8784
  0
SEQEND
  0
ENDBLK
  0
BLOCK
  8
LAYER_1
  2
AIGNBL010100CB
 70
64
 10
0
 20
0
 30
0
  3
AIGNBL010100CB
  0
POLYLINE
  8
LAYER_1
 40
0.1058
 41
0.1058
 66
1
 10
0
 20
0
 30
0
  0
VERTEX
  8
LAYER_1
 10
123.5197
 20
-66.8087
 42
0.4141838894
  0
VERTEX
  8
LAYER_1
 10
123.2697
 20
-67.0587
  0
SEQEND
  0
ENDBLK
  0
BLOCK
  8
LAYER_1
  2
AIGNBL010100CC
 70
64
 10
0
 20
0
 30
0
  3
AIGNBL010100CC
  0
POLYLINE
  8
LAYER_1
 40
0.1058
 41
0.1058
 66
1
 10
0
 20
0
 30
0
  0
VERTEX
  8
LAYER_1
 10
123.2697
 20
-69.9337
 42
0.1938290661
  0
VERTEX
  8
LAYER_1
 10
123.3412
 20
-70.1087
  0
SEQEND
  0
ENDBLK
  0
BLOCK
  8
LAYER_1
  2
AIGNBL010100CD
 70
64
 10
0
 20
0
 30
0
  3
AIGNBL010100CD
  0
POLYLINE
  8
LAYER_1
 40
0.1058
 41
0.1058
 66
1
 10
0
 20
0
 30
0
  0
VERTEX
  8
LAYER_1
 10
175.3378
 20
-71.0201
 42
0.3634063872
  0
VERTEX
  8
LAYER_1
 10
175.2257
 20
-70.3879
  0
SEQEND
  0
ENDBLK
  0
BLOCK
  8
LAYER_1
  2
AIGNBL010100CE
 70
64
 10
0
 20
0
 30
0
  3
AIGNBL010100CE
  0
POLYLINE
  8
LAYER_1
 40
0.1058
 41
0.1058
 66
1
 10
0
 20
0
 30
0
  0
VERTEX
  8
LAYER_1
 10
175.6274
 20
-69.9092
 42
0.3633805318
  0
VERTEX
  8
LAYER_1
 10
176.2694
 20
-69.9098
  0
SEQEND
  0
ENDBLK
  0
BLOCK
  8
LAYER_1
  2
AIGNBL010100CF
 70
64
 10
0
 20
0
 30
0
  3
AIGNBL010100CF
  0
POLYLINE
  8
LAYER_1
 40
0.1058
 41
0.1058
 66
1
 10
0
 20
0
 30
0
  0
VERTEX
  8
LAYER_1
 10
168.0726
 20
-63.2435
 42
0.4142269292
  0
VERTEX
  8
LAYER_1
 10
167.7204
 20
-63.2744
  0
SEQEND
  0
ENDBLK
  0
BLOCK
  8
LAYER_1
  2
AIGNBL010100D0
 70
64
 10
0
 20
0
 30
0
  3
AIGNBL010100D0
  0
POLYLINE
  8
LAYER_1
 40
0.1058
 41
0.1058
 66
1
 10
0
 20
0
 30
0
  0
VERTEX
  8
LAYER_1
 10
167.3186
 20
-63.7531
 42
0.4141709971
  0
VERTEX
  8
LAYER_1
 10
167.3494
 20
-64.1053
  0
SEQEND
  0
ENDBLK
  0
BLOCK
  8
LAYER_1
  2
AIGNBL010100D1
 70
64
 10
0
 20
0
 30
0
  3
AIGNBL010100D1
  0
POLYLINE
  8
LAYER_1
 40
0.1058
 41
0.1058
 66
1
 10
0
 20
0
 30
0
  0
VERTEX
  8
LAYER_1
 10
175.121
 20
-70.8955
 42
0.3634116596
  0
VERTEX
  8
LAYER_1
 10
175.065
 20
-70.5794
  0
SEQEND
  0
ENDBLK
  0
BLOCK
  8
LAYER_1
  2
AIGNBL010100D2
 70
64
 10
0
 20
0
 30
0
  3
AIGNBL010100D2
  0
POLYLINE
  8
LAYER_1
 40
0.1058
 41
0.1058
 66
1
 10
0
 20
0
 30
0
  0
VERTEX
  8
LAYER_1
 10
175.7881
 20
-69.7176
 42
0.3634074265
  0
VERTEX
  8
LAYER_1
 10
176.1091
 20
-69.718
  0
SEQEND
  0
ENDBLK
  0
BLOCK
  8
LAYER_1
  2
AIGNBL010100D3
 70
64
 10
0
 20
0
 30
0
  3
AIGNBL010100D3
  0
POLYLINE
  8
LAYER_1
 40
0.1058
 41
0.1058
 66
1
 10
0
 20
0
 30
0
  0
VERTEX
  8
LAYER_1
 10
178.8947
 20
-77.603
 42
0.1638358271
  0
VERTEX
  8
LAYER_1
 10
181.6914
 20
-76.6613
  0
SEQEND
  0
ENDBLK
  0
BLOCK
  8
LAYER_1
  2
AIGNBL010100D4
 70
64
 10
0
 20
0
 30
0
  3
AIGNBL010100D4
  0
POLYLINE
  8
LAYER_1
 40
0.1058
 41
0.1058
 66
1
 10
0
 20
0
 30
0
  0
VERTEX
  8
LAYER_1
 10
178.8947
 20
-68.5144
 42
0.1894677787
  0
VERTEX
  8
LAYER_1
 10
175.8005
 20
-69.7306
  0
SEQEND
  0
ENDBLK
  0
BLOCK
  8
LAYER_1
  2
AIGNBL010100D5
 70
64
 10
0
 20
0
 30
0
  3
AIGNBL010100D5
  0
POLYLINE
  8
LAYER_1
 40
0.1058
 41
0.1058
 66
1
 10
0
 20
0
 30
0
  0
VERTEX
  8
LAYER_1
 10
175.0797
 20
-70.5897
 42
0.414211198
  0
VERTEX
  8
LAYER_1
 10
176.4257
 20
-76.8737
 42
0.1445929001
  0
VERTEX
  8
LAYER_1
 10
178.8947
 20
-77.603
  0
SEQEND
  0
ENDBLK
  0
BLOCK
  8
LAYER_1
  2
AIGNBL010100D6
 70
64
 10
0
 20
0
 30
0
  3
AIGNBL010100D6
  0
POLYLINE
  8
LAYER_1
 40
0.1058
 41
0.1058
 66
1
 10
0
 20
0
 30
0
  0
VERTEX
  8
LAYER_1
 10
175.1103
 20
-70.6308
 42
0.4142111744
  0
VERTEX
  8
LAYER_1
 10
176.4668
 20
-76.8431
 42
0.3199029459
  0
VERTEX
  8
LAYER_1
 10
181.6799
 20
-76.5884
  0
SEQEND
  0
ENDBLK
  0
BLOCK
  8
LAYER_1
  2
AIGNBL010100D7
 70
64
 10
0
 20
0
 30
0
  3
AIGNBL010100D7
  0
POLYLINE
  8
LAYER_1
 40
0.1058
 41
0.1058
 66
1
 10
0
 20
0
 30
0
  0
VERTEX
  8
LAYER_1
 10
182.865
 20
-75.1689
 42
0.4142159075
  0
VERTEX
  8
LAYER_1
 10
181.0049
 20
-69.0884
 42
0.318331751
  0
VERTEX
  8
LAYER_1
 10
175.8489
 20
-69.7512
  0
SEQEND
  0
ENDBLK
  0
BLOCK
  8
LAYER_1
  2
AIGNBL010100D8
 70
64
 10
0
 20
0
 30
0
  3
AIGNBL010100D8
  0
POLYLINE
  8
LAYER_1
 40
0.1058
 41
0.1058
 66
1
 10
0
 20
0
 30
0
  0
VERTEX
  8
LAYER_1
 10
175.121
 20
-70.8955
 42
0.4142137948
  0
VERTEX
  8
LAYER_1
 10
176.7347
 20
-76.8686
 42
0.4142141422
  0
VERTEX
  8
LAYER_1
 10
182.7078
 20
-75.2549
 42
0.4142133302
  0
VERTEX
  8
LAYER_1
 10
181.0941
 20
-69.2818
 42
0.3141674596
  0
VERTEX
  8
LAYER_1
 10
176.1091
 20
-69.718
  0
SEQEND
  0
ENDBLK
  0
BLOCK
  8
LAYER_1
  2
AIGNBL010100D9
 70
64
 10
0
 20
0
 30
0
  3
AIGNBL010100D9
  0
POLYLINE
  8
LAYER_1
 40
0.1058
 41
0.1058
 66
1
 10
0
 20
0
 30
0
  0
VERTEX
  8
LAYER_1
 10
175.3378
 20
-71.0201
 42
0.4142138089
  0
VERTEX
  8
LAYER_1
 10
176.8593
 20
-76.6518
 42
0.4142141774
  0
VERTEX
  8
LAYER_1
 10
182.491
 20
-75.1303
 42
0.4142133161
  0
VERTEX
  8
LAYER_1
 10
180.9695
 20
-69.4986
 42
0.3141643677
  0
VERTEX
  8
LAYER_1
 10
176.2694
 20
-69.9098
  0
SEQEND
  0
ENDBLK
  0
BLOCK
  8
LAYER_1
  2
AIGNBL010100DA
 70
64
 10
0
 20
0
 30
0
  3
AIGNBL010100DA
  0
POLYLINE
  8
LAYER_1
 40
0.1058
 41
0.1058
 66
1
 10
0
 20
0
 30
0
  0
VERTEX
  8
LAYER_1
 10
181.713
 20
-76.6637
 42
0.414229476
  0
VERTEX
  8
LAYER_1
 10
182.9468
 20
-75.3501
  0
VERTEX
  8
LAYER_1
 10
182.9343
 20
-75.2082
  0
SEQEND
  0
ENDBLK
  0
BLOCK
  8
LAYER_1
  2
AIGNBL010100DB
 70
64
 10
0
 20
0
 30
0
  3
AIGNBL010100DB
  0
POLYLINE
  8
LAYER_1
 40
0.1058
 41
0.1058
 66
1
 10
0
 20
0
 30
0
  0
VERTEX
  8
LAYER_1
 10
183.5197
 20
-67.0587
 42
0.4142455489
  0
VERTEX
  8
LAYER_1
 10
183.2697
 20
-66.8087
  0
SEQEND
  0
ENDBLK
  0
BLOCK
  8
LAYER_1
  2
AIGNBL010100DC
 70
64
 10
0
 20
0
 30
0
  3
AIGNBL010100DC
  0
POLYLINE
  8
LAYER_1
 40
0.1058
 41
0.1058
 66
1
 10
0
 20
0
 30
0
  0
VERTEX
  8
LAYER_1
 10
132.5332
 20
-70.1087
  0
VERTEX
  8
LAYER_1
 10
132.5723
 20
-70.1419
 42
0.1558302676
  0
VERTEX
  8
LAYER_1
 10
132.7019
 20
-70.1837
  0
SEQEND
  0
ENDBLK
  0
BLOCK
  8
LAYER_1
  2
AIGNBL010100DD
 70
64
 10
0
 20
0
 30
0
  3
AIGNBL010100DD
  0
POLYLINE
  8
LAYER_1
 40
0.1058
 41
0.1058
 66
1
 10
0
 20
0
 30
0
  0
VERTEX
  8
LAYER_1
 10
166.2697
 20
-70.1837
  0
VERTEX
  8
LAYER_1
 10
166.4741
 20
-70.1878
  0
VERTEX
  8
LAYER_1
 10
167.0422
 20
-70.2449
  0
SEQEND
  0
ENDBLK
  0
BLOCK
  8
LAYER_1
  2
AIGNBL010100DE
 70
64
 10
0
 20
0
 30
0
  3
AIGNBL010100DE
  0
POLYLINE
  8
LAYER_1
 40
0.1058
 41
0.1058
 66
1
 10
0
 20
0
 30
0
  0
VERTEX
  8
LAYER_1
 10
167.0422
 20
-70.2449
 42
-0.04593785769
  0
VERTEX
  8
LAYER_1
 10
167.8406
 20
-70.4518
 42
-0.04186027808
  0
VERTEX
  8
LAYER_1
 10
168.5297
 20
-70.7678
 42
-0.06712860576
  0
VERTEX
  8
LAYER_1
 10
169.6666
 20
-71.6413
 42
-0.04794621023
  0
VERTEX
  8
LAYER_1
 10
170.5722
 20
-72.7461
 42
-0.03391097006
  0
VERTEX
  8
LAYER_1
 10
171.3094
 20
-74.0193
 42
-0.02419143719
  0
VERTEX
  8
LAYER_1
 10
171.9173
 20
-75.4218
 42
-0.01793458866
  0
VERTEX
  8
LAYER_1
 10
172.4219
 20
-76.9276
 42
-0.0261338882
  0
VERTEX
  8
LAYER_1
 10
173.1886
 20
-80.1817
 42
-0.01717423785
  0
VERTEX
  8
LAYER_1
 10
173.7073
 20
-83.6838
 42
-0.01229841488
  0
VERTEX
  8
LAYER_1
 10
174.0365
 20
-87.3753
 42
-0.009020274753
  0
VERTEX
  8
LAYER_1
 10
174.215
 20
-91.2177
 42
-0.007006678253
  0
VERTEX
  8
LAYER_1
 10
174.2697
 20
-95.1837
  0
SEQEND
  0
ENDBLK
  0
BLOCK
  8
LAYER_1
  2
AIGNBL010100DF
 70
64
 10
0
 20
0
 30
0
  3
AIGNBL010100DF
  0
POLYLINE
  8
LAYER_1
 40
0.1058
 41
0.1058
 66
1
 10
0
 20
0
 30
0
  0
VERTEX
  8
LAYER_1
 10
183.5192
 20
-125.4175
  0
VERTEX
  8
LAYER_1
 10
183.4914
 20
-126.2569
 42
0.01923743257
  0
VERTEX
  8
LAYER_1
 10
183.5184
 20
-129.034
  0
SEQEND
  0
ENDBLK
  0
BLOCK
  8
LAYER_1
  2
AIGNBL010100E0
 70
64
 10
0
 20
0
 30
0
  3
AIGNBL010100E0
  0
POLYLINE
  8
LAYER_1
 40
0.1058
 41
0.1058
 66
1
 10
0
 20
0
 30
0
  0
VERTEX
  8
LAYER_1
 10
183.5169
 20
-73.0587
 42
-0.0338728172
  0
VERTEX
  8
LAYER_1
 10
183.472
 20
-73.6349
  0
VERTEX
  8
LAYER_1
 10
183.3611
 20
-74.1762
 42
-0.06135545498
  0
VERTEX
  8
LAYER_1
 10
182.9367
 20
-75.2248
  0
SEQEND
  0
ENDBLK
  0
BLOCK
  8
LAYER_1
  2
AIGNBL010100E1
 70
64
 10
0
 20
0
 30
0
  3
AIGNBL010100E1
  0
POLYLINE
  8
LAYER_1
 40
0.1058
 41
0.1058
 66
1
 10
0
 20
0
 30
0
  0
VERTEX
  8
LAYER_1
 10
178.8947
 20
-68.5144
 42
-0.05802471954
  0
VERTEX
  8
LAYER_1
 10
179.9598
 20
-68.6388
 42
-0.05554607507
  0
VERTEX
  8
LAYER_1
 10
180.9241
 20
-68.9836
 42
-0.05175786745
  0
VERTEX
  8
LAYER_1
 10
181.7352
 20
-69.4898
 42
-0.04830423863
  0
VERTEX
  8
LAYER_1
 10
182.3829
 20
-70.1031
 42
-0.04552218571
  0
VERTEX
  8
LAYER_1
 10
182.8751
 20
-70.7852
 42
-0.0433484911
  0
VERTEX
  8
LAYER_1
 10
183.2228
 20
-71.5107
 42
-0.04248245006
  0
VERTEX
  8
LAYER_1
 10
183.4351
 20
-72.2626
  0
VERTEX
  8
LAYER_1
 10
183.4924
 20
-72.6454
  0
VERTEX
  8
LAYER_1
 10
183.5169
 20
-73.0587
  0
SEQEND
  0
ENDBLK
  0
BLOCK
  8
LAYER_1
  2
AIGNBL010100E2
 70
64
 10
0
 20
0
 30
0
  3
AIGNBL010100E2
  0
POLYLINE
  8
LAYER_1
 40
0.1058
 41
0.1058
 66
1
 10
0
 20
0
 30
0
  0
VERTEX
  8
LAYER_1
 10
178.8947
 20
-95.1837
  0
VERTEX
  8
LAYER_1
 10
178.2582
 20
-91.5302
 42
0.005874565384
  0
VERTEX
  8
LAYER_1
 10
177.5555
 20
-87.8889
 42
0.008859993229
  0
VERTEX
  8
LAYER_1
 10
176.7527
 20
-84.2684
 42
0.01342785205
  0
VERTEX
  8
LAYER_1
 10
175.7952
 20
-80.6859
 42
0.02306867319
  0
VERTEX
  8
LAYER_1
 10
174.5873
 20
-77.1807
 42
0.01856548598
  0
VERTEX
  8
LAYER_1
 10
173.8377
 20
-75.4849
 42
0.02575999515
  0
VERTEX
  8
LAYER_1
 10
172.9449
 20
-73.8604
 42
0.03809887374
  0
VERTEX
  8
LAYER_1
 10
171.8559
 20
-72.3614
 42
0.05690862952
  0
VERTEX
  8
LAYER_1
 10
170.5081
 20
-71.093
 42
0.07676143452
  0
VERTEX
  8
LAYER_1
 10
168.8748
 20
-70.2296
 42
0.08145396504
  0
VERTEX
  8
LAYER_1
 10
167.052
 20
-69.9337
  0
SEQEND
  0
ENDBLK
  0
BLOCK
  8
LAYER_1
  2
AIGNBL010100E3
 70
64
 10
0
 20
0
 30
0
  3
AIGNBL010100E3
  0
POLYLINE
  8
LAYER_1
 40
0.1058
 41
0.1058
 66
1
 10
0
 20
0
 30
0
  0
VERTEX
  8
LAYER_1
 10
178.8947
 20
-95.1837
  0
VERTEX
  8
LAYER_1
 10
178.2293
 20
-91.5737
 42
0.005820707868
  0
VERTEX
  8
LAYER_1
 10
177.4981
 20
-87.9765
 42
0.008630501795
  0
VERTEX
  8
LAYER_1
 10
176.6699
 20
-84.4005
 42
0.01294181484
  0
VERTEX
  8
LAYER_1
 10
175.6939
 20
-80.8622
 42
0.02216926216
  0
VERTEX
  8
LAYER_1
 10
174.48
 20
-77.3991
 42
0.0178961463
  0
VERTEX
  8
LAYER_1
 10
173.7347
 20
-75.7221
 42
0.02479536777
  0
VERTEX
  8
LAYER_1
 10
172.8529
 20
-74.1131
 42
0.03707906326
  0
VERTEX
  8
LAYER_1
 10
171.7831
 20
-72.6236
 42
0.05570377475
  0
VERTEX
  8
LAYER_1
 10
170.4613
 20
-71.3554
 42
0.03695917746
  0
VERTEX
  8
LAYER_1
 10
169.6916
 20
-70.8571
 42
0.04135252186
  0
VERTEX
  8
LAYER_1
 10
168.8541
 20
-70.4843
 42
0.04281860913
  0
VERTEX
  8
LAYER_1
 10
167.9659
 20
-70.2577
 42
0.04071548003
  0
VERTEX
  8
LAYER_1
 10
167.052
 20
-70.1837
  0
SEQEND
  0
ENDBLK
  0
BLOCK
  8
LAYER_1
  2
AIGNBL010100E4
 70
64
 10
0
 20
0
 30
0
  3
AIGNBL010100E4
  0
POLYLINE
  8
LAYER_1
 40
0.1058
 41
0.1058
 66
1
 10
0
 20
0
 30
0
  0
VERTEX
  8
LAYER_1
 10
176.896
 20
-172.2128
  0
VERTEX
  8
LAYER_1
 10
177.3599
 20
-172.2128
  0
SEQEND
  0
ENDBLK
  0
BLOCK
  8
LAYER_1
  2
AIGNBL010100E5
 70
64
 10
0
 20
0
 30
0
  3
AIGNBL010100E5
  0
POLYLINE
  8
LAYER_1
 40
0.1058
 41
0.1058
 66
1
 10
0
 20
0
 30
0
  0
VERTEX
  8
LAYER_1
 10
180.396
 20
-170.9878
  0
VERTEX
  8
LAYER_1
 10
180.8935
 20
-170.9878
  0
SEQEND
  0
ENDBLK
  0
BLOCK
  8
LAYER_1
  2
AIGNBL010100E6
 70
64
 10
0
 20
0
 30
0
  3
AIGNBL010100E6
  0
POLYLINE
  8
LAYER_1
 40
0.1058
 41
0.1058
 66
1
 10
0
 20
0
 30
0
  0
VERTEX
  8
LAYER_1
 10
176.896
 20
-170.957
  0
VERTEX
  8
LAYER_1
 10
177.3599
 20
-170.957
  0
SEQEND
  0
ENDBLK
  0
BLOCK
  8
LAYER_1
  2
AIGNBL010100E7
 70
64
 10
0
 20
0
 30
0
  3
AIGNBL010100E7
  0
POLYLINE
  8
LAYER_1
 40
0.1058
 41
0.1058
 66
1
 10
0
 20
0
 30
0
  0
VERTEX
  8
LAYER_1
 10
175.5903
 20
-176.4415
  0
VERTEX
  8
LAYER_1
 10
176.3242
 20
-176.6534
  0
SEQEND
  0
ENDBLK
  0
BLOCK
  8
LAYER_1
  2
AIGNBL010100E8
 70
64
 10
0
 20
0
 30
0
  3
AIGNBL010100E8
  0
POLYLINE
  8
LAYER_1
 40
0.1058
 41
0.1058
 66
1
 10
0
 20
0
 30
0
  0
VERTEX
  8
LAYER_1
 10
180.396
 20
-169.732
  0
VERTEX
  8
LAYER_1
 10
180.8935
 20
-169.732
  0
SEQEND
  0
ENDBLK
  0
BLOCK
  8
LAYER_1
  2
AIGNBL010100E9
 70
64
 10
0
 20
0
 30
0
  3
AIGNBL010100E9
  0
POLYLINE
  8
LAYER_1
 40
0.1058
 41
0.1058
 66
1
 10
0
 20
0
 30
0
  0
VERTEX
  8
LAYER_1
 10
179.8242
 20
-176.6534
  0
VERTEX
  8
LAYER_1
 10
179.0903
 20
-176.4415
  0
SEQEND
  0
ENDBLK
  0
BLOCK
  8
LAYER_1
  2
AIGNBL010100EA
 70
64
 10
0
 20
0
 30
0
  3
AIGNBL010100EA
  0
POLYLINE
  8
LAYER_1
 40
0.1058
 41
0.1058
 66
1
 10
0
 20
0
 30
0
  0
VERTEX
  8
LAYER_1
 10
175.5903
 20
-173.8434
  0
VERTEX
  8
LAYER_1
 10
176.3242
 20
-174.0553
  0
SEQEND
  0
ENDBLK
  0
BLOCK
  8
LAYER_1
  2
AIGNBL010100EB
 70
64
 10
0
 20
0
 30
0
  3
AIGNBL010100EB
  0
POLYLINE
  8
LAYER_1
 40
0.1058
 41
0.1058
 66
1
 10
0
 20
0
 30
0
  0
VERTEX
  8
LAYER_1
 10
181.4653
 20
-174.3847
  0
VERTEX
  8
LAYER_1
 10
182.1992
 20
-174.5965
  0
SEQEND
  0
ENDBLK
  0
BLOCK
  8
LAYER_1
  2
AIGNBL010100EC
 70
64
 10
0
 20
0
 30
0
  3
AIGNBL010100EC
  0
POLYLINE
  8
LAYER_1
 40
0.1058
 41
0.1058
 66
1
 10
0
 20
0
 30
0
  0
VERTEX
  8
LAYER_1
 10
181.4653
 20
-171.7866
  0
VERTEX
  8
LAYER_1
 10
182.1992
 20
-171.9985
  0
SEQEND
  0
ENDBLK
  0
BLOCK
  8
LAYER_1
  2
AIGNBL010100ED
 70
64
 10
0
 20
0
 30
0
  3
AIGNBL010100ED
  0
POLYLINE
  8
LAYER_1
 40
0.1058
 41
0.1058
 66
1
 10
0
 20
0
 30
0
  0
VERTEX
  8
LAYER_1
 10
176.1026
 20
-171.9454
  0
VERTEX
  8
LAYER_1
 10
176.4544
 20
-172.1213
  0
SEQEND
  0
ENDBLK
  0
BLOCK
  8
LAYER_1
  2
AIGNBL010100EE
 70
64
 10
0
 20
0
 30
0
  3
AIGNBL010100EE
  0
POLYLINE
  8
LAYER_1
 40
0.1058
 41
0.1058
 66
1
 10
0
 20
0
 30
0
  0
VERTEX
  8
LAYER_1
 10
176.1026
 20
-170.6897
  0
VERTEX
  8
LAYER_1
 10
176.4544
 20
-170.8656
  0
SEQEND
  0
ENDBLK
  0
BLOCK
  8
LAYER_1
  2
AIGNBL010100EF
 70
64
 10
0
 20
0
 30
0
  3
AIGNBL010100EF
  0
POLYLINE
  8
LAYER_1
 40
0.1058
 41
0.1058
 66
1
 10
0
 20
0
 30
0
  0
VERTEX
  8
LAYER_1
 10
181.335
 20
-171.0792
  0
VERTEX
  8
LAYER_1
 10
181.6868
 20
-171.2551
  0
SEQEND
  0
ENDBLK
  0
BLOCK
  8
LAYER_1
  2
AIGNBL010100F0
 70
64
 10
0
 20
0
 30
0
  3
AIGNBL010100F0
  0
POLYLINE
  8
LAYER_1
 40
0.1058
 41
0.1058
 66
1
 10
0
 20
0
 30
0
  0
VERTEX
  8
LAYER_1
 10
181.335
 20
-169.8235
  0
VERTEX
  8
LAYER_1
 10
181.6868
 20
-169.9994
  0
SEQEND
  0
ENDBLK
  0
BLOCK
  8
LAYER_1
  2
AIGNBL010100F1
 70
64
 10
0
 20
0
 30
0
  3
AIGNBL010100F1
  0
POLYLINE
  8
LAYER_1
 40
0.1058
 41
0.1058
 66
1
 10
0
 20
0
 30
0
  0
VERTEX
  8
LAYER_1
 10
175.878
 20
-170.1581
  0
VERTEX
  8
LAYER_1
 10
175.7761
 20
-169.6313
  0
SEQEND
  0
ENDBLK
  0
BLOCK
  8
LAYER_1
  2
AIGNBL010100F2
 70
64
 10
0
 20
0
 30
0
  3
AIGNBL010100F2
  0
POLYLINE
  8
LAYER_1
 40
0.1058
 41
0.1058
 66
1
 10
0
 20
0
 30
0
  0
VERTEX
  8
LAYER_1
 10
175.7697
 20
-169.5651
  0
VERTEX
  8
LAYER_1
 10
175.7761
 20
-169.6313
  0
SEQEND
  0
ENDBLK
  0
BLOCK
  8
LAYER_1
  2
AIGNBL010100F3
 70
64
 10
0
 20
0
 30
0
  3
AIGNBL010100F3
  0
POLYLINE
  8
LAYER_1
 40
0.1058
 41
0.1058
 66
1
 10
0
 20
0
 30
0
  0
VERTEX
  8
LAYER_1
 10
174.7697
 20
-175.9957
  0
VERTEX
  8
LAYER_1
 10
174.7697
 20
-172.4442
  0
SEQEND
  0
ENDBLK
  0
BLOCK
  8
LAYER_1
  2
AIGNBL010100F4
 70
64
 10
0
 20
0
 30
0
  3
AIGNBL010100F4
  0
POLYLINE
  8
LAYER_1
 40
0.1058
 41
0.1058
 66
1
 10
0
 20
0
 30
0
  0
VERTEX
  8
LAYER_1
 10
174.915
 20
-176.1216
  0
VERTEX
  8
LAYER_1
 10
174.915
 20
-173.7735
  0
SEQEND
  0
ENDBLK
  0
BLOCK
  8
LAYER_1
  2
AIGNBL010100F5
 70
64
 10
0
 20
0
 30
0
  3
AIGNBL010100F5
  0
POLYLINE
  8
LAYER_1
 40
0.1058
 41
0.1058
 66
1
 10
0
 20
0
 30
0
  0
VERTEX
  8
LAYER_1
 10
175.7697
 20
-172.5962
  0
VERTEX
  8
LAYER_1
 10
175.7697
 20
-172.3797
  0
SEQEND
  0
ENDBLK
  0
BLOCK
  8
LAYER_1
  2
AIGNBL010100F6
 70
64
 10
0
 20
0
 30
0
  3
AIGNBL010100F6
  0
POLYLINE
  8
LAYER_1
 40
0.1058
 41
0.1058
 66
1
 10
0
 20
0
 30
0
  0
VERTEX
  8
LAYER_1
 10
175.7697
 20
-169.5651
  0
VERTEX
  8
LAYER_1
 10
175.7697
 20
-169.0238
  0
SEQEND
  0
ENDBLK
  0
BLOCK
  8
LAYER_1
  2
AIGNBL010100F7
 70
64
 10
0
 20
0
 30
0
  3
AIGNBL010100F7
  0
POLYLINE
  8
LAYER_1
 40
0.1058
 41
0.1058
 66
1
 10
0
 20
0
 30
0
  0
VERTEX
  8
LAYER_1
 10
175.8947
 20
-148.0837
  0
VERTEX
  8
LAYER_1
 10
175.8947
 20
-169.0238
  0
SEQEND
  0
ENDBLK
  0
BLOCK
  8
LAYER_1
  2
AIGNBL010100F8
 70
64
 10
0
 20
0
 30
0
  3
AIGNBL010100F8
  0
POLYLINE
  8
LAYER_1
 40
0.1058
 41
0.1058
 66
1
 10
0
 20
0
 30
0
  0
VERTEX
  8
LAYER_1
 10
175.9197
 20
-171.7246
  0
VERTEX
  8
LAYER_1
 10
175.9197
 20
-170.4689
  0
SEQEND
  0
ENDBLK
  0
BLOCK
  8
LAYER_1
  2
AIGNBL010100F9
 70
64
 10
0
 20
0
 30
0
  3
AIGNBL010100F9
  0
POLYLINE
  8
LAYER_1
 40
0.1058
 41
0.1058
 66
1
 10
0
 20
0
 30
0
  0
VERTEX
  8
LAYER_1
 10
176.1026
 20
-171.9454
  0
VERTEX
  8
LAYER_1
 10
176.1026
 20
-170.6897
  0
SEQEND
  0
ENDBLK
  0
BLOCK
  8
LAYER_1
  2
AIGNBL010100FA
 70
64
 10
0
 20
0
 30
0
  3
AIGNBL010100FA
  0
POLYLINE
  8
LAYER_1
 40
0.1058
 41
0.1058
 66
1
 10
0
 20
0
 30
0
  0
VERTEX
  8
LAYER_1
 10
178.5049
 20
-172.27
  0
VERTEX
  8
LAYER_1
 10
178.4115
 20
-171.7866
  0
SEQEND
  0
ENDBLK
  0
BLOCK
  8
LAYER_1
  2
AIGNBL010100FB
 70
64
 10
0
 20
0
 30
0
  3
AIGNBL010100FB
  0
POLYLINE
  8
LAYER_1
 40
0.1058
 41
0.1058
 66
1
 10
0
 20
0
 30
0
  0
VERTEX
  8
LAYER_1
 10
179.378
 20
-170.1581
  0
VERTEX
  8
LAYER_1
 10
179.2761
 20
-169.6313
  0
SEQEND
  0
ENDBLK
  0
BLOCK
  8
LAYER_1
  2
AIGNBL010100FC
 70
64
 10
0
 20
0
 30
0
  3
AIGNBL010100FC
  0
POLYLINE
  8
LAYER_1
 40
0.1058
 41
0.1058
 66
1
 10
0
 20
0
 30
0
  0
VERTEX
  8
LAYER_1
 10
179.2697
 20
-169.5651
  0
VERTEX
  8
LAYER_1
 10
179.2761
 20
-169.6313
  0
SEQEND
  0
ENDBLK
  0
BLOCK
  8
LAYER_1
  2
AIGNBL010100FD
 70
64
 10
0
 20
0
 30
0
  3
AIGNBL010100FD
  0
POLYLINE
  8
LAYER_1
 40
0.1058
 41
0.1058
 66
1
 10
0
 20
0
 30
0
  0
VERTEX
  8
LAYER_1
 10
176.4544
 20
-172.1213
  0
VERTEX
  8
LAYER_1
 10
176.4544
 20
-170.8656
  0
SEQEND
  0
ENDBLK
  0
BLOCK
  8
LAYER_1
  2
AIGNBL010100FE
 70
64
 10
0
 20
0
 30
0
  3
AIGNBL010100FE
  0
POLYLINE
  8
LAYER_1
 40
0.1058
 41
0.1058
 66
1
 10
0
 20
0
 30
0
  0
VERTEX
  8
LAYER_1
 10
176.896
 20
-172.2128
  0
VERTEX
  8
LAYER_1
 10
176.896
 20
-170.957
  0
SEQEND
  0
ENDBLK
  0
BLOCK
  8
LAYER_1
  2
AIGNBL010100FF
 70
64
 10
0
 20
0
 30
0
  3
AIGNBL010100FF
  0
POLYLINE
  8
LAYER_1
 40
0.1058
 41
0.1058
 66
1
 10
0
 20
0
 30
0
  0
VERTEX
  8
LAYER_1
 10
176.9994
 20
-176.7233
  0
VERTEX
  8
LAYER_1
 10
176.9994
 20
-174.3752
  0
SEQEND
  0
ENDBLK
  0
BLOCK
  8
LAYER_1
  2
AIGNBL01010100
 70
64
 10
0
 20
0
 30
0
  3
AIGNBL01010100
  0
POLYLINE
  8
LAYER_1
 40
0.1058
 41
0.1058
 66
1
 10
0
 20
0
 30
0
  0
VERTEX
  8
LAYER_1
 10
177.29
 20
-176.7233
  0
VERTEX
  8
LAYER_1
 10
177.29
 20
-174.3752
  0
SEQEND
  0
ENDBLK
  0
BLOCK
  8
LAYER_1
  2
AIGNBL01010101
 70
64
 10
0
 20
0
 30
0
  3
AIGNBL01010101
  0
POLYLINE
  8
LAYER_1
 40
0.1058
 41
0.1058
 66
1
 10
0
 20
0
 30
0
  0
VERTEX
  8
LAYER_1
 10
178.2697
 20
-175.9957
  0
VERTEX
  8
LAYER_1
 10
178.2697
 20
-172.4442
  0
SEQEND
  0
ENDBLK
  0
BLOCK
  8
LAYER_1
  2
AIGNBL01010102
 70
64
 10
0
 20
0
 30
0
  3
AIGNBL01010102
  0
POLYLINE
  8
LAYER_1
 40
0.1058
 41
0.1058
 66
1
 10
0
 20
0
 30
0
  0
VERTEX
  8
LAYER_1
 10
178.3599
 20
-148.0837
  0
VERTEX
  8
LAYER_1
 10
178.3618
 20
-169.1663
  0
SEQEND
  0
ENDBLK
  0
BLOCK
  8
LAYER_1
  2
AIGNBL01010103
 70
64
 10
0
 20
0
 30
0
  3
AIGNBL01010103
  0
POLYLINE
  8
LAYER_1
 40
0.1058
 41
0.1058
 66
1
 10
0
 20
0
 30
0
  0
VERTEX
  8
LAYER_1
 10
178.3697
 20
-171.7246
  0
VERTEX
  8
LAYER_1
 10
178.3697
 20
-170.4689
  0
SEQEND
  0
ENDBLK
  0
BLOCK
  8
LAYER_1
  2
AIGNBL01010104
 70
64
 10
0
 20
0
 30
0
  3
AIGNBL01010104
  0
POLYLINE
  8
LAYER_1
 40
0.1058
 41
0.1058
 66
1
 10
0
 20
0
 30
0
  0
VERTEX
  8
LAYER_1
 10
178.3947
 20
-148.0837
  0
VERTEX
  8
LAYER_1
 10
178.3947
 20
-169.0238
  0
SEQEND
  0
ENDBLK
  0
BLOCK
  8
LAYER_1
  2
AIGNBL01010105
 70
64
 10
0
 20
0
 30
0
  3
AIGNBL01010105
  0
POLYLINE
  8
LAYER_1
 40
0.1058
 41
0.1058
 66
1
 10
0
 20
0
 30
0
  0
VERTEX
  8
LAYER_1
 10
178.415
 20
-174.6665
  0
VERTEX
  8
LAYER_1
 10
178.415
 20
-172.3184
  0
SEQEND
  0
ENDBLK
  0
BLOCK
  8
LAYER_1
  2
AIGNBL01010106
 70
64
 10
0
 20
0
 30
0
  3
AIGNBL01010106
  0
POLYLINE
  8
LAYER_1
 40
0.1058
 41
0.1058
 66
1
 10
0
 20
0
 30
0
  0
VERTEX
  8
LAYER_1
 10
178.5197
 20
-169.5651
  0
VERTEX
  8
LAYER_1
 10
178.5197
 20
-169.0238
  0
SEQEND
  0
ENDBLK
  0
BLOCK
  8
LAYER_1
  2
AIGNBL01010107
 70
64
 10
0
 20
0
 30
0
  3
AIGNBL01010107
  0
POLYLINE
  8
LAYER_1
 40
0.1058
 41
0.1058
 66
1
 10
0
 20
0
 30
0
  0
VERTEX
  8
LAYER_1
 10
178.8322
 20
-175.519
  0
VERTEX
  8
LAYER_1
 10
178.8322
 20
-175.0693
  0
SEQEND
  0
ENDBLK
  0
BLOCK
  8
LAYER_1
  2
AIGNBL01010108
 70
64
 10
0
 20
0
 30
0
  3
AIGNBL01010108
  0
POLYLINE
  8
LAYER_1
 40
0.1058
 41
0.1058
 66
1
 10
0
 20
0
 30
0
  0
VERTEX
  8
LAYER_1
 10
179.2697
 20
-169.5651
  0
VERTEX
  8
LAYER_1
 10
179.2697
 20
-169.0238
  0
SEQEND
  0
ENDBLK
  0
BLOCK
  8
LAYER_1
  2
AIGNBL01010109
 70
64
 10
0
 20
0
 30
0
  3
AIGNBL01010109
  0
POLYLINE
  8
LAYER_1
 40
0.1058
 41
0.1058
 66
1
 10
0
 20
0
 30
0
  0
VERTEX
  8
LAYER_1
 10
179.3947
 20
-148.0837
  0
VERTEX
  8
LAYER_1
 10
179.3947
 20
-168.7376
  0
SEQEND
  0
ENDBLK
  0
BLOCK
  8
LAYER_1
  2
AIGNBL0101010A
 70
64
 10
0
 20
0
 30
0
  3
AIGNBL0101010A
  0
POLYLINE
  8
LAYER_1
 40
0.1058
 41
0.1058
 66
1
 10
0
 20
0
 30
0
  0
VERTEX
  8
LAYER_1
 10
179.4197
 20
-171.4759
  0
VERTEX
  8
LAYER_1
 10
179.4197
 20
-170.2201
  0
SEQEND
  0
ENDBLK
  0
BLOCK
  8
LAYER_1
  2
AIGNBL0101010B
 70
64
 10
0
 20
0
 30
0
  3
AIGNBL0101010B
  0
POLYLINE
  8
LAYER_1
 40
0.1058
 41
0.1058
 66
1
 10
0
 20
0
 30
0
  0
VERTEX
  8
LAYER_1
 10
179.6026
 20
-171.2551
  0
VERTEX
  8
LAYER_1
 10
179.6026
 20
-169.9994
  0
SEQEND
  0
ENDBLK
  0
BLOCK
  8
LAYER_1
  2
AIGNBL0101010C
 70
64
 10
0
 20
0
 30
0
  3
AIGNBL0101010C
  0
POLYLINE
  8
LAYER_1
 40
0.1058
 41
0.1058
 66
1
 10
0
 20
0
 30
0
  0
VERTEX
  8
LAYER_1
 10
179.9544
 20
-171.0792
  0
VERTEX
  8
LAYER_1
 10
179.9544
 20
-169.8235
  0
SEQEND
  0
ENDBLK
  0
BLOCK
  8
LAYER_1
  2
AIGNBL0101010D
 70
64
 10
0
 20
0
 30
0
  3
AIGNBL0101010D
  0
POLYLINE
  8
LAYER_1
 40
0.1058
 41
0.1058
 66
1
 10
0
 20
0
 30
0
  0
VERTEX
  8
LAYER_1
 10
175.7761
 20
-172.3135
  0
VERTEX
  8
LAYER_1
 10
175.7697
 20
-172.3797
  0
SEQEND
  0
ENDBLK
  0
BLOCK
  8
LAYER_1
  2
AIGNBL0101010E
 70
64
 10
0
 20
0
 30
0
  3
AIGNBL0101010E
  0
POLYLINE
  8
LAYER_1
 40
0.1058
 41
0.1058
 66
1
 10
0
 20
0
 30
0
  0
VERTEX
  8
LAYER_1
 10
181.9378
 20
-171.923
  0
VERTEX
  8
LAYER_1
 10
181.9115
 20
-171.7866
  0
SEQEND
  0
ENDBLK
  0
BLOCK
  8
LAYER_1
  2
AIGNBL0101010F
 70
64
 10
0
 20
0
 30
0
  3
AIGNBL0101010F
  0
POLYLINE
  8
LAYER_1
 40
0.1058
 41
0.1058
 66
1
 10
0
 20
0
 30
0
  0
VERTEX
  8
LAYER_1
 10
180.396
 20
-170.9878
  0
VERTEX
  8
LAYER_1
 10
180.396
 20
-169.732
  0
SEQEND
  0
ENDBLK
  0
BLOCK
  8
LAYER_1
  2
AIGNBL01010110
 70
64
 10
0
 20
0
 30
0
  3
AIGNBL01010110
  0
POLYLINE
  8
LAYER_1
 40
0.1058
 41
0.1058
 66
1
 10
0
 20
0
 30
0
  0
VERTEX
  8
LAYER_1
 10
180.4994
 20
-174.0648
  0
VERTEX
  8
LAYER_1
 10
180.4994
 20
-171.7167
  0
SEQEND
  0
ENDBLK
  0
BLOCK
  8
LAYER_1
  2
AIGNBL01010111
 70
64
 10
0
 20
0
 30
0
  3
AIGNBL01010111
  0
POLYLINE
  8
LAYER_1
 40
0.1058
 41
0.1058
 66
1
 10
0
 20
0
 30
0
  0
VERTEX
  8
LAYER_1
 10
180.79
 20
-174.0648
  0
VERTEX
  8
LAYER_1
 10
180.79
 20
-171.7167
  0
SEQEND
  0
ENDBLK
  0
BLOCK
  8
LAYER_1
  2
AIGNBL01010112
 70
64
 10
0
 20
0
 30
0
  3
AIGNBL01010112
  0
POLYLINE
  8
LAYER_1
 40
0.1058
 41
0.1058
 66
1
 10
0
 20
0
 30
0
  0
VERTEX
  8
LAYER_1
 10
180.8935
 20
-170.9878
  0
VERTEX
  8
LAYER_1
 10
180.8935
 20
-169.732
  0
SEQEND
  0
ENDBLK
  0
BLOCK
  8
LAYER_1
  2
AIGNBL01010113
 70
64
 10
0
 20
0
 30
0
  3
AIGNBL01010113
  0
POLYLINE
  8
LAYER_1
 40
0.1058
 41
0.1058
 66
1
 10
0
 20
0
 30
0
  0
VERTEX
  8
LAYER_1
 10
181.335
 20
-171.0792
  0
VERTEX
  8
LAYER_1
 10
181.335
 20
-169.8235
  0
SEQEND
  0
ENDBLK
  0
BLOCK
  8
LAYER_1
  2
AIGNBL01010114
 70
64
 10
0
 20
0
 30
0
  3
AIGNBL01010114
  0
POLYLINE
  8
LAYER_1
 40
0.1058
 41
0.1058
 66
1
 10
0
 20
0
 30
0
  0
VERTEX
  8
LAYER_1
 10
181.6868
 20
-171.2551
  0
VERTEX
  8
LAYER_1
 10
181.6868
 20
-169.9994
  0
SEQEND
  0
ENDBLK
  0
BLOCK
  8
LAYER_1
  2
AIGNBL01010115
 70
64
 10
0
 20
0
 30
0
  3
AIGNBL01010115
  0
POLYLINE
  8
LAYER_1
 40
0.1058
 41
0.1058
 66
1
 10
0
 20
0
 30
0
  0
VERTEX
  8
LAYER_1
 10
181.8697
 20
-171.4759
  0
VERTEX
  8
LAYER_1
 10
181.8697
 20
-170.2201
  0
SEQEND
  0
ENDBLK
  0
BLOCK
  8
LAYER_1
  2
AIGNBL01010116
 70
64
 10
0
 20
0
 30
0
  3
AIGNBL01010116
  0
POLYLINE
  8
LAYER_1
 40
0.1058
 41
0.1058
 66
1
 10
0
 20
0
 30
0
  0
VERTEX
  8
LAYER_1
 10
181.8947
 20
-148.0837
  0
VERTEX
  8
LAYER_1
 10
181.8947
 20
-168.7376
  0
SEQEND
  0
ENDBLK
  0
BLOCK
  8
LAYER_1
  2
AIGNBL01010117
 70
64
 10
0
 20
0
 30
0
  3
AIGNBL01010117
  0
POLYLINE
  8
LAYER_1
 40
0.1058
 41
0.1058
 66
1
 10
0
 20
0
 30
0
  0
VERTEX
  8
LAYER_1
 10
182.0197
 20
-169.5651
  0
VERTEX
  8
LAYER_1
 10
182.0197
 20
-169.0238
  0
SEQEND
  0
ENDBLK
  0
BLOCK
  8
LAYER_1
  2
AIGNBL01010118
 70
64
 10
0
 20
0
 30
0
  3
AIGNBL01010118
  0
POLYLINE
  8
LAYER_1
 40
0.1058
 41
0.1058
 66
1
 10
0
 20
0
 30
0
  0
VERTEX
  8
LAYER_1
 10
182.4572
 20
-175.519
  0
VERTEX
  8
LAYER_1
 10
182.4572
 20
-175.0693
  0
SEQEND
  0
ENDBLK
  0
BLOCK
  8
LAYER_1
  2
AIGNBL01010119
 70
64
 10
0
 20
0
 30
0
  3
AIGNBL01010119
  0
POLYLINE
  8
LAYER_1
 40
0.1058
 41
0.1058
 66
1
 10
0
 20
0
 30
0
  0
VERTEX
  8
LAYER_1
 10
182.8744
 20
-174.6665
  0
VERTEX
  8
LAYER_1
 10
182.8744
 20
-172.3184
  0
SEQEND
  0
ENDBLK
  0
BLOCK
  8
LAYER_1
  2
AIGNBL0101011A
 70
64
 10
0
 20
0
 30
0
  3
AIGNBL0101011A
  0
POLYLINE
  8
LAYER_1
 40
0.1058
 41
0.1058
 66
1
 10
0
 20
0
 30
0
  0
VERTEX
  8
LAYER_1
 10
183.0197
 20
-175.9957
  0
VERTEX
  8
LAYER_1
 10
183.0197
 20
-172.4442
  0
SEQEND
  0
ENDBLK
  0
BLOCK
  8
LAYER_1
  2
AIGNBL0101011B
 70
64
 10
0
 20
0
 30
0
  3
AIGNBL0101011B
  0
POLYLINE
  8
LAYER_1
 40
0.1058
 41
0.1058
 66
1
 10
0
 20
0
 30
0
  0
VERTEX
  8
LAYER_1
 10
178.5197
 20
-169.5651
  0
VERTEX
  8
LAYER_1
 10
178.5133
 20
-169.6313
  0
SEQEND
  0
ENDBLK
  0
BLOCK
  8
LAYER_1
  2
AIGNBL0101011C
 70
64
 10
0
 20
0
 30
0
  3
AIGNBL0101011C
  0
POLYLINE
  8
LAYER_1
 40
0.1058
 41
0.1058
 66
1
 10
0
 20
0
 30
0
  0
VERTEX
  8
LAYER_1
 10
175.7761
 20
-172.3135
  0
VERTEX
  8
LAYER_1
 10
175.878
 20
-171.7866
  0
SEQEND
  0
ENDBLK
  0
BLOCK
  8
LAYER_1
  2
AIGNBL0101011D
 70
64
 10
0
 20
0
 30
0
  3
AIGNBL0101011D
  0
POLYLINE
  8
LAYER_1
 40
0.1058
 41
0.1058
 66
1
 10
0
 20
0
 30
0
  0
VERTEX
  8
LAYER_1
 10
178.4115
 20
-170.1581
  0
VERTEX
  8
LAYER_1
 10
178.5133
 20
-169.6313
  0
SEQEND
  0
ENDBLK
  0
BLOCK
  8
LAYER_1
  2
AIGNBL0101011E
 70
64
 10
0
 20
0
 30
0
  3
AIGNBL0101011E
  0
POLYLINE
  8
LAYER_1
 40
0.1058
 41
0.1058
 66
1
 10
0
 20
0
 30
0
  0
VERTEX
  8
LAYER_1
 10
182.0197
 20
-169.5651
  0
VERTEX
  8
LAYER_1
 10
182.0133
 20
-169.6313
  0
SEQEND
  0
ENDBLK
  0
BLOCK
  8
LAYER_1
  2
AIGNBL0101011F
 70
64
 10
0
 20
0
 30
0
  3
AIGNBL0101011F
  0
POLYLINE
  8
LAYER_1
 40
0.1058
 41
0.1058
 66
1
 10
0
 20
0
 30
0
  0
VERTEX
  8
LAYER_1
 10
179.3516
 20
-171.923
  0
VERTEX
  8
LAYER_1
 10
179.378
 20
-171.7866
  0
SEQEND
  0
ENDBLK
  0
BLOCK
  8
LAYER_1
  2
AIGNBL01010120
 70
64
 10
0
 20
0
 30
0
  3
AIGNBL01010120
  0
POLYLINE
  8
LAYER_1
 40
0.1058
 41
0.1058
 66
1
 10
0
 20
0
 30
0
  0
VERTEX
  8
LAYER_1
 10
181.9115
 20
-170.1581
  0
VERTEX
  8
LAYER_1
 10
182.0133
 20
-169.6313
  0
SEQEND
  0
ENDBLK
  0
BLOCK
  8
LAYER_1
  2
AIGNBL01010121
 70
64
 10
0
 20
0
 30
0
  3
AIGNBL01010121
  0
POLYLINE
  8
LAYER_1
 40
0.1058
 41
0.1058
 66
1
 10
0
 20
0
 30
0
  0
VERTEX
  8
LAYER_1
 10
175.8516
 20
-171.923
  0
VERTEX
  8
LAYER_1
 10
175.5903
 20
-171.9985
  0
SEQEND
  0
ENDBLK
  0
BLOCK
  8
LAYER_1
  2
AIGNBL01010122
 70
64
 10
0
 20
0
 30
0
  3
AIGNBL01010122
  0
POLYLINE
  8
LAYER_1
 40
0.1058
 41
0.1058
 66
1
 10
0
 20
0
 30
0
  0
VERTEX
  8
LAYER_1
 10
179.6026
 20
-169.9994
  0
VERTEX
  8
LAYER_1
 10
179.9544
 20
-169.8235
  0
SEQEND
  0
ENDBLK
  0
BLOCK
  8
LAYER_1
  2
AIGNBL01010123
 70
64
 10
0
 20
0
 30
0
  3
AIGNBL01010123
  0
POLYLINE
  8
LAYER_1
 40
0.1058
 41
0.1058
 66
1
 10
0
 20
0
 30
0
  0
VERTEX
  8
LAYER_1
 10
179.6026
 20
-171.2551
  0
VERTEX
  8
LAYER_1
 10
179.9544
 20
-171.0792
  0
SEQEND
  0
ENDBLK
  0
BLOCK
  8
LAYER_1
  2
AIGNBL01010124
 70
64
 10
0
 20
0
 30
0
  3
AIGNBL01010124
  0
POLYLINE
  8
LAYER_1
 40
0.1058
 41
0.1058
 66
1
 10
0
 20
0
 30
0
  0
VERTEX
  8
LAYER_1
 10
179.0903
 20
-171.9985
  0
VERTEX
  8
LAYER_1
 10
179.8242
 20
-171.7866
  0
SEQEND
  0
ENDBLK
  0
BLOCK
  8
LAYER_1
  2
AIGNBL01010125
 70
64
 10
0
 20
0
 30
0
  3
AIGNBL01010125
  0
POLYLINE
  8
LAYER_1
 40
0.1058
 41
0.1058
 66
1
 10
0
 20
0
 30
0
  0
VERTEX
  8
LAYER_1
 10
179.0903
 20
-174.5965
  0
VERTEX
  8
LAYER_1
 10
179.8242
 20
-174.3847
  0
SEQEND
  0
ENDBLK
  0
BLOCK
  8
LAYER_1
  2
AIGNBL01010126
 70
64
 10
0
 20
0
 30
0
  3
AIGNBL01010126
  0
POLYLINE
  8
LAYER_1
 40
0.1058
 41
0.1058
 66
1
 10
0
 20
0
 30
0
  0
VERTEX
  8
LAYER_1
 10
178.3599
 20
-176.5394
  0
VERTEX
  8
LAYER_1
 10
178.6992
 20
-176.4415
  0
SEQEND
  0
ENDBLK
  0
BLOCK
  8
LAYER_1
  2
AIGNBL01010127
 70
64
 10
0
 20
0
 30
0
  3
AIGNBL01010127
  0
POLYLINE
  8
LAYER_1
 40
0.1058
 41
0.1058
 66
1
 10
0
 20
0
 30
0
  0
VERTEX
  8
LAYER_1
 10
182.1992
 20
-176.4415
  0
VERTEX
  8
LAYER_1
 10
181.4653
 20
-176.6534
  0
SEQEND
  0
ENDBLK
  0
BLOCK
  8
LAYER_1
  2
AIGNBL01010128
 70
64
 10
0
 20
0
 30
0
  3
AIGNBL01010128
  0
POLYLINE
  8
LAYER_1
 40
0.1058
 41
0.1058
 66
1
 10
0
 20
0
 30
0
  0
VERTEX
  8
LAYER_1
 10
176.9994
 20
-176.7233
  0
VERTEX
  8
LAYER_1
 10
177.29
 20
-176.7233
  0
SEQEND
  0
ENDBLK
  0
BLOCK
  8
LAYER_1
  2
AIGNBL01010129
 70
64
 10
0
 20
0
 30
0
  3
AIGNBL01010129
  0
POLYLINE
  8
LAYER_1
 40
0.1058
 41
0.1058
 66
1
 10
0
 20
0
 30
0
  0
VERTEX
  8
LAYER_1
 10
176.9994
 20
-174.3752
  0
VERTEX
  8
LAYER_1
 10
177.29
 20
-174.3752
  0
SEQEND
  0
ENDBLK
  0
BLOCK
  8
LAYER_1
  2
AIGNBL0101012A
 70
64
 10
0
 20
0
 30
0
  3
AIGNBL0101012A
  0
POLYLINE
  8
LAYER_1
 40
0.1058
 41
0.1058
 66
1
 10
0
 20
0
 30
0
  0
VERTEX
  8
LAYER_1
 10
177.29
 20
-176.7233
 42
0.07191422842
  0
VERTEX
  8
LAYER_1
 10
178.3599
 20
-176.5394
  0
SEQEND
  0
ENDBLK
  0
BLOCK
  8
LAYER_1
  2
AIGNBL0101012B
 70
64
 10
0
 20
0
 30
0
  3
AIGNBL0101012B
  0
POLYLINE
  8
LAYER_1
 40
0.1058
 41
0.1058
 66
1
 10
0
 20
0
 30
0
  0
VERTEX
  8
LAYER_1
 10
178.6992
 20
-176.4415
  0
VERTEX
  8
LAYER_1
 10
178.8948
 20
-176.3602
  0
SEQEND
  0
ENDBLK
  0
BLOCK
  8
LAYER_1
  2
AIGNBL0101012C
 70
64
 10
0
 20
0
 30
0
  3
AIGNBL0101012C
  0
POLYLINE
  8
LAYER_1
 40
0.1058
 41
0.1058
 66
1
 10
0
 20
0
 30
0
  0
VERTEX
  8
LAYER_1
 10
177.1447
 20
-173.0672
 42
0.08715789001
  0
VERTEX
  8
LAYER_1
 10
178.415
 20
-172.8371
  0
SEQEND
  0
ENDBLK
  0
BLOCK
  8
LAYER_1
  2
AIGNBL0101012D
 70
64
 10
0
 20
0
 30
0
  3
AIGNBL0101012D
  0
POLYLINE
  8
LAYER_1
 40
0.1058
 41
0.1058
 66
1
 10
0
 20
0
 30
0
  0
VERTEX
  8
LAYER_1
 10
177.1447
 20
-173.2837
 42
0.09067195898
  0
VERTEX
  8
LAYER_1
 10
178.415
 20
-173.0452
  0
SEQEND
  0
ENDBLK
  0
BLOCK
  8
LAYER_1
  2
AIGNBL0101012E
 70
64
 10
0
 20
0
 30
0
  3
AIGNBL0101012E
  0
POLYLINE
  8
LAYER_1
 40
0.1058
 41
0.1058
 66
1
 10
0
 20
0
 30
0
  0
VERTEX
  8
LAYER_1
 10
177.1447
 20
-170.2526
 42
0.1506378804
  0
VERTEX
  8
LAYER_1
 10
178.3628
 20
-169.8841
  0
SEQEND
  0
ENDBLK
  0
BLOCK
  8
LAYER_1
  2
AIGNBL0101012F
 70
64
 10
0
 20
0
 30
0
  3
AIGNBL0101012F
  0
POLYLINE
  8
LAYER_1
 40
0.1058
 41
0.1058
 66
1
 10
0
 20
0
 30
0
  0
VERTEX
  8
LAYER_1
 10
177.1447
 20
-169.7113
 42
0.1506634959
  0
VERTEX
  8
LAYER_1
 10
178.3629
 20
-169.3427
  0
SEQEND
  0
ENDBLK
  0
BLOCK
  8
LAYER_1
  2
AIGNBL01010130
 70
64
 10
0
 20
0
 30
0
  3
AIGNBL01010130
  0
POLYLINE
  8
LAYER_1
 40
0.1058
 41
0.1058
 66
1
 10
0
 20
0
 30
0
  0
VERTEX
  8
LAYER_1
 10
177.1447
 20
-169.6488
 42
0.1958872868
  0
VERTEX
  8
LAYER_1
 10
178.3618
 20
-169.1663
  0
SEQEND
  0
ENDBLK
  0
BLOCK
  8
LAYER_1
  2
AIGNBL01010131
 70
64
 10
0
 20
0
 30
0
  3
AIGNBL01010131
  0
POLYLINE
  8
LAYER_1
 40
0.1058
 41
0.1058
 66
1
 10
0
 20
0
 30
0
  0
VERTEX
  8
LAYER_1
 10
177.3292
 20
-170.8328
  0
VERTEX
  8
LAYER_1
 10
177.36
 20
-170.8303
  0
SEQEND
  0
ENDBLK
  0
BLOCK
  8
LAYER_1
  2
AIGNBL01010132
 70
64
 10
0
 20
0
 30
0
  3
AIGNBL01010132
  0
POLYLINE
  8
LAYER_1
 40
0.1058
 41
0.1058
 66
1
 10
0
 20
0
 30
0
  0
VERTEX
  8
LAYER_1
 10
177.3292
 20
-172.3483
  0
VERTEX
  8
LAYER_1
 10
177.36
 20
-172.3458
  0
SEQEND
  0
ENDBLK
  0
BLOCK
  8
LAYER_1
  2
AIGNBL01010133
 70
64
 10
0
 20
0
 30
0
  3
AIGNBL01010133
  0
POLYLINE
  8
LAYER_1
 40
0.1058
 41
0.1058
 66
1
 10
0
 20
0
 30
0
  0
VERTEX
  8
LAYER_1
 10
177.1447
 20
-173.4712
 42
0.05287394408
  0
VERTEX
  8
LAYER_1
 10
178.415
 20
-173.3185
  0
SEQEND
  0
ENDBLK
  0
BLOCK
  8
LAYER_1
  2
AIGNBL01010134
 70
64
 10
0
 20
0
 30
0
  3
AIGNBL01010134
  0
POLYLINE
  8
LAYER_1
 40
0.1058
 41
0.1058
 66
1
 10
0
 20
0
 30
0
  0
VERTEX
  8
LAYER_1
 10
175.878
 20
-170.1581
  0
VERTEX
  8
LAYER_1
 10
175.883
 20
-170.1834
  0
SEQEND
  0
ENDBLK
  0
BLOCK
  8
LAYER_1
  2
AIGNBL01010135
 70
64
 10
0
 20
0
 30
0
  3
AIGNBL01010135
  0
POLYLINE
  8
LAYER_1
 40
0.1058
 41
0.1058
 66
1
 10
0
 20
0
 30
0
  0
VERTEX
  8
LAYER_1
 10
175.883
 20
-171.7614
  0
VERTEX
  8
LAYER_1
 10
175.878
 20
-171.7866
  0
SEQEND
  0
ENDBLK
  0
BLOCK
  8
LAYER_1
  2
AIGNBL01010136
 70
64
 10
0
 20
0
 30
0
  3
AIGNBL01010136
  0
POLYLINE
  8
LAYER_1
 40
0.1058
 41
0.1058
 66
1
 10
0
 20
0
 30
0
  0
VERTEX
  8
LAYER_1
 10
179.4084
 20
-170.3068
  0
VERTEX
  8
LAYER_1
 10
179.403
 20
-170.2791
  0
SEQEND
  0
ENDBLK
  0
BLOCK
  8
LAYER_1
  2
AIGNBL01010137
 70
64
 10
0
 20
0
 30
0
  3
AIGNBL01010137
  0
POLYLINE
  8
LAYER_1
 40
0.1058
 41
0.1058
 66
1
 10
0
 20
0
 30
0
  0
VERTEX
  8
LAYER_1
 10
179.403
 20
-171.6656
  0
VERTEX
  8
LAYER_1
 10
179.4084
 20
-171.6379
  0
SEQEND
  0
ENDBLK
  0
BLOCK
  8
LAYER_1
  2
AIGNBL01010138
 70
64
 10
0
 20
0
 30
0
  3
AIGNBL01010138
  0
POLYLINE
  8
LAYER_1
 40
0.1058
 41
0.1058
 66
1
 10
0
 20
0
 30
0
  0
VERTEX
  8
LAYER_1
 10
177.2885
 20
-173.4157
  0
VERTEX
  8
LAYER_1
 10
177.3604
 20
-173.4092
  0
SEQEND
  0
ENDBLK
  0
BLOCK
  8
LAYER_1
  2
AIGNBL01010139
 70
64
 10
0
 20
0
 30
0
  3
AIGNBL01010139
  0
POLYLINE
  8
LAYER_1
 40
0.1058
 41
0.1058
 66
1
 10
0
 20
0
 30
0
  0
VERTEX
  8
LAYER_1
 10
177.3598
 20
-174.3373
  0
VERTEX
  8
LAYER_1
 10
177.29
 20
-174.3752
  0
SEQEND
  0
ENDBLK
  0
BLOCK
  8
LAYER_1
  2
AIGNBL0101013A
 70
64
 10
0
 20
0
 30
0
  3
AIGNBL0101013A
  0
POLYLINE
  8
LAYER_1
 40
0.1058
 41
0.1058
 66
1
 10
0
 20
0
 30
0
  0
VERTEX
  8
LAYER_1
 10
180.79
 20
-171.7167
  0
VERTEX
  8
LAYER_1
 10
180.4994
 20
-171.7167
  0
SEQEND
  0
ENDBLK
  0
BLOCK
  8
LAYER_1
  2
AIGNBL0101013B
 70
64
 10
0
 20
0
 30
0
  3
AIGNBL0101013B
  0
POLYLINE
  8
LAYER_1
 40
0.1058
 41
0.1058
 66
1
 10
0
 20
0
 30
0
  0
VERTEX
  8
LAYER_1
 10
180.79
 20
-174.0648
  0
VERTEX
  8
LAYER_1
 10
180.4994
 20
-174.0648
  0
SEQEND
  0
ENDBLK
  0
BLOCK
  8
LAYER_1
  2
AIGNBL0101013C
 70
64
 10
0
 20
0
 30
0
  3
AIGNBL0101013C
  0
POLYLINE
  8
LAYER_1
 40
0.1058
 41
0.1058
 66
1
 10
0
 20
0
 30
0
  0
VERTEX
  8
LAYER_1
 10
180.8404
 20
-171.6992
  0
VERTEX
  8
LAYER_1
 10
180.4491
 20
-171.6992
  0
SEQEND
  0
ENDBLK
  0
BLOCK
  8
LAYER_1
  2
AIGNBL0101013D
 70
64
 10
0
 20
0
 30
0
  3
AIGNBL0101013D
  0
POLYLINE
  8
LAYER_1
 40
0.1058
 41
0.1058
 66
1
 10
0
 20
0
 30
0
  0
VERTEX
  8
LAYER_1
 10
180.4994
 20
-176.7233
  0
VERTEX
  8
LAYER_1
 10
180.79
 20
-176.7233
  0
SEQEND
  0
ENDBLK
  0
BLOCK
  8
LAYER_1
  2
AIGNBL0101013E
 70
64
 10
0
 20
0
 30
0
  3
AIGNBL0101013E
  0
POLYLINE
  8
LAYER_1
 40
0.1058
 41
0.1058
 66
1
 10
0
 20
0
 30
0
  0
VERTEX
  8
LAYER_1
 10
180.2106
 20
-174.4825
  0
VERTEX
  8
LAYER_1
 10
180.6447
 20
-174.508
  0
SEQEND
  0
ENDBLK
  0
BLOCK
  8
LAYER_1
  2
AIGNBL0101013F
 70
64
 10
0
 20
0
 30
0
  3
AIGNBL0101013F
  0
POLYLINE
  8
LAYER_1
 40
0.1058
 41
0.1058
 66
1
 10
0
 20
0
 30
0
  0
VERTEX
  8
LAYER_1
 10
180.6447
 20
-174.508
  0
VERTEX
  8
LAYER_1
 10
181.0789
 20
-174.4825
  0
SEQEND
  0
ENDBLK
  0
BLOCK
  8
LAYER_1
  2
AIGNBL01010140
 70
64
 10
0
 20
0
 30
0
  3
AIGNBL01010140
  0
POLYLINE
  8
LAYER_1
 40
0.1058
 41
0.1058
 66
1
 10
0
 20
0
 30
0
  0
VERTEX
  8
LAYER_1
 10
181.9064
 20
-170.1834
  0
VERTEX
  8
LAYER_1
 10
181.9115
 20
-170.1581
  0
SEQEND
  0
ENDBLK
  0
BLOCK
  8
LAYER_1
  2
AIGNBL01010141
 70
64
 10
0
 20
0
 30
0
  3
AIGNBL01010141
  0
POLYLINE
  8
LAYER_1
 40
0.1058
 41
0.1058
 66
1
 10
0
 20
0
 30
0
  0
VERTEX
  8
LAYER_1
 10
181.9115
 20
-171.7866
  0
VERTEX
  8
LAYER_1
 10
181.9064
 20
-171.7614
  0
SEQEND
  0
ENDBLK
  0
BLOCK
  8
LAYER_1
  2
AIGNBL01010142
 70
64
 10
0
 20
0
 30
0
  3
AIGNBL01010142
  0
POLYLINE
  8
LAYER_1
 40
0.1058
 41
0.1058
 66
1
 10
0
 20
0
 30
0
  0
VERTEX
  8
LAYER_1
 10
178.3864
 20
-170.2791
  0
VERTEX
  8
LAYER_1
 10
178.381
 20
-170.3068
  0
SEQEND
  0
ENDBLK
  0
BLOCK
  8
LAYER_1
  2
AIGNBL01010143
 70
64
 10
0
 20
0
 30
0
  3
AIGNBL01010143
  0
POLYLINE
  8
LAYER_1
 40
0.1058
 41
0.1058
 66
1
 10
0
 20
0
 30
0
  0
VERTEX
  8
LAYER_1
 10
178.381
 20
-171.6379
  0
VERTEX
  8
LAYER_1
 10
178.3864
 20
-171.6656
  0
SEQEND
  0
ENDBLK
  0
BLOCK
  8
LAYER_1
  2
AIGNBL01010144
 70
64
 10
0
 20
0
 30
0
  3
AIGNBL01010144
  0
POLYLINE
  8
LAYER_1
 40
0.1058
 41
0.1058
 66
1
 10
0
 20
0
 30
0
  0
VERTEX
  8
LAYER_1
 10
177.1447
 20
-154.4934
 42
0.1290258664
  0
VERTEX
  8
LAYER_1
 10
178.3599
 20
-154.1748
  0
SEQEND
  0
ENDBLK
  0
BLOCK
  8
LAYER_1
  2
AIGNBL01010145
 70
64
 10
0
 20
0
 30
0
  3
AIGNBL01010145
  0
POLYLINE
  8
LAYER_1
 40
0.1058
 41
0.1058
 66
1
 10
0
 20
0
 30
0
  0
VERTEX
  8
LAYER_1
 10
180.6447
 20
-176.4253
  0
VERTEX
  8
LAYER_1
 10
180.549
 20
-176.4202
  0
VERTEX
  8
LAYER_1
 10
180.5011
 20
-176.4176
  0
VERTEX
  8
LAYER_1
 10
180.4532
 20
-176.415
  0
VERTEX
  8
LAYER_1
 10
180.4053
 20
-176.4125
  0
VERTEX
  8
LAYER_1
 10
180.3814
 20
-176.4112
  0
VERTEX
  8
LAYER_1
 10
180.3575
 20
-176.4099
  0
VERTEX
  8
LAYER_1
 10
180.3335
 20
-176.4086
  0
VERTEX
  8
LAYER_1
 10
180.3096
 20
-176.4074
  0
VERTEX
  8
LAYER_1
 10
180.2976
 20
-176.4067
  0
VERTEX
  8
LAYER_1
 10
180.2856
 20
-176.4061
  0
VERTEX
  8
LAYER_1
 10
180.2797
 20
-176.4058
  0
VERTEX
  8
LAYER_1
 10
180.2737
 20
-176.4054
  0
VERTEX
  8
LAYER_1
 10
180.2677
 20
-176.4051
  0
VERTEX
  8
LAYER_1
 10
180.2647
 20
-176.405
  0
VERTEX
  8
LAYER_1
 10
180.2632
 20
-176.4049
  0
VERTEX
  8
LAYER_1
 10
180.2617
 20
-176.4048
  0
VERTEX
  8
LAYER_1
 10
180.2602
 20
-176.4046
  0
VERTEX
  8
LAYER_1
 10
180.2588
 20
-176.4043
  0
VERTEX
  8
LAYER_1
 10
180.2559
 20
-176.4038
  0
VERTEX
  8
LAYER_1
 10
180.2501
 20
-176.4029
  0
VERTEX
  8
LAYER_1
 10
180.2443
 20
-176.4019
  0
VERTEX
  8
LAYER_1
 10
180.2385
 20
-176.4009
  0
VERTEX
  8
LAYER_1
 10
180.2269
 20
-176.399
  0
VERTEX
  8
LAYER_1
 10
180.2153
 20
-176.3971
  0
VERTEX
  8
LAYER_1
 10
180.192
 20
-176.3932
  0
VERTEX
  8
LAYER_1
 10
180.1688
 20
-176.3894
  0
VERTEX
  8
LAYER_1
 10
180.1456
 20
-176.3855
  0
VERTEX
  8
LAYER_1
 10
180.1224
 20
-176.3816
  0
VERTEX
  8
LAYER_1
 10
180.076
 20
-176.3739
  0
VERTEX
  8
LAYER_1
 10
180.0295
 20
-176.3662
  0
VERTEX
  8
LAYER_1
 10
180.0063
 20
-176.3623
  0
VERTEX
  8
LAYER_1
 10
179.9831
 20
-176.3585
  0
VERTEX
  8
LAYER_1
 10
179.9599
 20
-176.3546
  0
VERTEX
  8
LAYER_1
 10
179.9367
 20
-176.3507
  0
VERTEX
  8
LAYER_1
 10
179.925
 20
-176.3488
  0
VERTEX
  8
LAYER_1
 10
179.9134
 20
-176.3469
  0
VERTEX
  8
LAYER_1
 10
179.9076
 20
-176.3459
  0
VERTEX
  8
LAYER_1
 10
179.9018
 20
-176.3449
  0
VERTEX
  8
LAYER_1
 10
179.896
 20
-176.344
  0
VERTEX
  8
LAYER_1
 10
179.8931
 20
-176.3435
  0
VERTEX
  8
LAYER_1
 10
179.8917
 20
-176.3433
  0
VERTEX
  8
LAYER_1
 10
179.8902
 20
-176.343
  0
VERTEX
  8
LAYER_1
 10
179.8889
 20
-176.3426
  0
VERTEX
  8
LAYER_1
 10
179.8876
 20
-176.3422
  0
VERTEX
  8
LAYER_1
 10
179.885
 20
-176.3415
  0
VERTEX
  8
LAYER_1
 10
179.8799
 20
-176.3399
  0
VERTEX
  8
LAYER_1
 10
179.8747
 20
-176.3384
  0
VERTEX
  8
LAYER_1
 10
179.8695
 20
-176.3369
  0
VERTEX
  8
LAYER_1
 10
179.8592
 20
-176.3338
  0
VERTEX
  8
LAYER_1
 10
179.8488
 20
-176.3307
  0
VERTEX
  8
LAYER_1
 10
179.8281
 20
-176.3246
  0
VERTEX
  8
LAYER_1
 10
179.8074
 20
-176.3184
  0
VERTEX
  8
LAYER_1
 10
179.7867
 20
-176.3123
  0
VERTEX
  8
LAYER_1
 10
179.766
 20
-176.3061
  0
VERTEX
  8
LAYER_1
 10
179.7246
 20
-176.2938
  0
VERTEX
  8
LAYER_1
 10
179.6832
 20
-176.2816
  0
VERTEX
  8
LAYER_1
 10
179.6625
 20
-176.2754
  0
VERTEX
  8
LAYER_1
 10
179.6418
 20
-176.2693
  0
VERTEX
  8
LAYER_1
 10
179.6211
 20
-176.2631
  0
VERTEX
  8
LAYER_1
 10
179.6004
 20
-176.257
  0
VERTEX
  8
LAYER_1
 10
179.59
 20
-176.2539
  0
VERTEX
  8
LAYER_1
 10
179.5797
 20
-176.2508
  0
VERTEX
  8
LAYER_1
 10
179.5745
 20
-176.2493
  0
VERTEX
  8
LAYER_1
 10
179.5693
 20
-176.2478
  0
VERTEX
  8
LAYER_1
 10
179.5642
 20
-176.2462
  0
VERTEX
  8
LAYER_1
 10
179.5616
 20
-176.2455
  0
VERTEX
  8
LAYER_1
 10
179.5603
 20
-176.2451
  0
VERTEX
  8
LAYER_1
 10
179.559
 20
-176.2447
  0
VERTEX
  8
LAYER_1
 10
179.5579
 20
-176.2442
  0
VERTEX
  8
LAYER_1
 10
179.5568
 20
-176.2436
  0
VERTEX
  8
LAYER_1
 10
179.5545
 20
-176.2426
  0
VERTEX
  8
LAYER_1
 10
179.55
 20
-176.2405
  0
VERTEX
  8
LAYER_1
 10
179.5456
 20
-176.2384
  0
VERTEX
  8
LAYER_1
 10
179.5411
 20
-176.2363
  0
VERTEX
  8
LAYER_1
 10
179.5322
 20
-176.2322
  0
VERTEX
  8
LAYER_1
 10
179.5232
 20
-176.228
  0
VERTEX
  8
LAYER_1
 10
179.5053
 20
-176.2197
  0
VERTEX
  8
LAYER_1
 10
179.4874
 20
-176.2113
  0
VERTEX
  8
LAYER_1
 10
179.4695
 20
-176.203
  0
VERTEX
  8
LAYER_1
 10
179.4516
 20
-176.1946
  0
VERTEX
  8
LAYER_1
 10
179.4158
 20
-176.1779
  0
VERTEX
  8
LAYER_1
 10
179.38
 20
-176.1612
  0
VERTEX
  8
LAYER_1
 10
179.3621
 20
-176.1529
  0
VERTEX
  8
LAYER_1
 10
179.3443
 20
-176.1446
  0
VERTEX
  8
LAYER_1
 10
179.3264
 20
-176.1362
  0
VERTEX
  8
LAYER_1
 10
179.3174
 20
-176.132
  0
VERTEX
  8
LAYER_1
 10
179.3085
 20
-176.1279
  0
VERTEX
  8
LAYER_1
 10
179.2995
 20
-176.1237
  0
VERTEX
  8
LAYER_1
 10
179.2906
 20
-176.1195
  0
VERTEX
  8
LAYER_1
 10
179.2861
 20
-176.1174
  0
VERTEX
  8
LAYER_1
 10
179.2816
 20
-176.1154
  0
VERTEX
  8
LAYER_1
 10
179.2794
 20
-176.1143
  0
VERTEX
  8
LAYER_1
 10
179.2771
 20
-176.1133
  0
VERTEX
  8
LAYER_1
 10
179.2749
 20
-176.1122
  0
VERTEX
  8
LAYER_1
 10
179.2738
 20
-176.1117
  0
VERTEX
  8
LAYER_1
 10
179.2727
 20
-176.1112
  0
VERTEX
  8
LAYER_1
 10
179.2718
 20
-176.1106
  0
VERTEX
  8
LAYER_1
 10
179.271
 20
-176.1099
  0
VERTEX
  8
LAYER_1
 10
179.2692
 20
-176.1087
  0
VERTEX
  8
LAYER_1
 10
179.2675
 20
-176.1075
  0
VERTEX
  8
LAYER_1
 10
179.2658
 20
-176.1062
  0
VERTEX
  8
LAYER_1
 10
179.2624
 20
-176.1038
  0
VERTEX
  8
LAYER_1
 10
179.259
 20
-176.1013
  0
VERTEX
  8
LAYER_1
 10
179.2521
 20
-176.0963
  0
VERTEX
  8
LAYER_1
 10
179.2453
 20
-176.0914
  0
VERTEX
  8
LAYER_1
 10
179.2384
 20
-176.0864
  0
VERTEX
  8
LAYER_1
 10
179.2316
 20
-176.0815
  0
VERTEX
  8
LAYER_1
 10
179.2179
 20
-176.0716
  0
VERTEX
  8
LAYER_1
 10
179.2041
 20
-176.0617
  0
VERTEX
  8
LAYER_1
 10
179.1904
 20
-176.0518
  0
VERTEX
  8
LAYER_1
 10
179.163
 20
-176.032
  0
VERTEX
  8
LAYER_1
 10
179.1356
 20
-176.0122
  0
VERTEX
  8
LAYER_1
 10
179.1219
 20
-176.0023
  0
VERTEX
  8
LAYER_1
 10
179.1082
 20
-175.9924
  0
VERTEX
  8
LAYER_1
 10
179.0945
 20
-175.9825
  0
VERTEX
  8
LAYER_1
 10
179.0876
 20
-175.9776
  0
VERTEX
  8
LAYER_1
 10
179.0808
 20
-175.9726
  0
VERTEX
  8
LAYER_1
 10
179.0739
 20
-175.9677
  0
VERTEX
  8
LAYER_1
 10
179.0671
 20
-175.9627
  0
VERTEX
  8
LAYER_1
 10
179.0637
 20
-175.9603
  0
VERTEX
  8
LAYER_1
 10
179.0602
 20
-175.9578
  0
VERTEX
  8
LAYER_1
 10
179.0585
 20
-175.9565
  0
VERTEX
  8
LAYER_1
 10
179.0568
 20
-175.9553
  0
VERTEX
  8
LAYER_1
 10
179.0551
 20
-175.9541
  0
VERTEX
  8
LAYER_1
 10
179.0542
 20
-175.9535
  0
VERTEX
  8
LAYER_1
 10
179.0534
 20
-175.9528
  0
VERTEX
  8
LAYER_1
 10
179.0528
 20
-175.9521
  0
VERTEX
  8
LAYER_1
 10
179.0522
 20
-175.9514
  0
VERTEX
  8
LAYER_1
 10
179.0511
 20
-175.95
  0
VERTEX
  8
LAYER_1
 10
179.0499
 20
-175.9486
  0
VERTEX
  8
LAYER_1
 10
179.0487
 20
-175.9472
  0
VERTEX
  8
LAYER_1
 10
179.0464
 20
-175.9444
  0
VERTEX
  8
LAYER_1
 10
179.0441
 20
-175.9415
  0
VERTEX
  8
LAYER_1
 10
179.0394
 20
-175.9359
  0
VERTEX
  8
LAYER_1
 10
179.0347
 20
-175.9302
  0
VERTEX
  8
LAYER_1
 10
179.0301
 20
-175.9246
  0
VERTEX
  8
LAYER_1
 10
179.0254
 20
-175.9189
  0
VERTEX
  8
LAYER_1
 10
179.0161
 20
-175.9076
  0
VERTEX
  8
LAYER_1
 10
179.0068
 20
-175.8963
  0
VERTEX
  8
LAYER_1
 10
178.9974
 20
-175.885
  0
VERTEX
  8
LAYER_1
 10
178.9788
 20
-175.8623
  0
VERTEX
  8
LAYER_1
 10
178.9601
 20
-175.8397
  0
VERTEX
  8
LAYER_1
 10
178.9508
 20
-175.8284
  0
VERTEX
  8
LAYER_1
 10
178.9415
 20
-175.8171
  0
VERTEX
  8
LAYER_1
 10
178.9322
 20
-175.8058
  0
VERTEX
  8
LAYER_1
 10
178.9275
 20
-175.8001
  0
VERTEX
  8
LAYER_1
 10
178.9228
 20
-175.7945
  0
VERTEX
  8
LAYER_1
 10
178.9182
 20
-175.7888
  0
VERTEX
  8
LAYER_1
 10
178.9135
 20
-175.7832
  0
VERTEX
  8
LAYER_1
 10
178.9112
 20
-175.7803
  0
VERTEX
  8
LAYER_1
 10
178.9089
 20
-175.7775
  0
VERTEX
  8
LAYER_1
 10
178.9077
 20
-175.7761
  0
VERTEX
  8
LAYER_1
 10
178.9065
 20
-175.7747
  0
VERTEX
  8
LAYER_1
 10
178.9054
 20
-175.7733
  0
VERTEX
  8
LAYER_1
 10
178.9048
 20
-175.7726
  0
VERTEX
  8
LAYER_1
 10
178.9045
 20
-175.7722
  0
VERTEX
  8
LAYER_1
 10
178.9042
 20
-175.7719
  0
VERTEX
  8
LAYER_1
 10
178.9041
 20
-175.7715
  0
VERTEX
  8
LAYER_1
 10
178.9039
 20
-175.7711
  0
VERTEX
  8
LAYER_1
 10
178.9037
 20
-175.7704
  0
VERTEX
  8
LAYER_1
 10
178.9031
 20
-175.7689
  0
VERTEX
  8
LAYER_1
 10
178.9026
 20
-175.7674
  0
VERTEX
  8
LAYER_1
 10
178.9021
 20
-175.7659
  0
VERTEX
  8
LAYER_1
 10
178.901
 20
-175.763
  0
VERTEX
  8
LAYER_1
 10
178.9
 20
-175.76
  0
VERTEX
  8
LAYER_1
 10
178.8979
 20
-175.7541
  0
VERTEX
  8
LAYER_1
 10
178.8957
 20
-175.7482
  0
VERTEX
  8
LAYER_1
 10
178.8936
 20
-175.7422
  0
VERTEX
  8
LAYER_1
 10
178.8915
 20
-175.7363
  0
VERTEX
  8
LAYER_1
 10
178.8873
 20
-175.7245
  0
VERTEX
  8
LAYER_1
 10
178.8831
 20
-175.7126
  0
VERTEX
  8
LAYER_1
 10
178.8789
 20
-175.7007
  0
VERTEX
  8
LAYER_1
 10
178.8704
 20
-175.677
  0
VERTEX
  8
LAYER_1
 10
178.862
 20
-175.6533
  0
VERTEX
  8
LAYER_1
 10
178.8578
 20
-175.6415
  0
VERTEX
  8
LAYER_1
 10
178.8535
 20
-175.6296
  0
VERTEX
  8
LAYER_1
 10
178.8493
 20
-175.6178
  0
VERTEX
  8
LAYER_1
 10
178.8472
 20
-175.6119
  0
VERTEX
  8
LAYER_1
 10
178.8451
 20
-175.6059
  0
VERTEX
  8
LAYER_1
 10
178.843
 20
-175.6
  0
VERTEX
  8
LAYER_1
 10
178.8409
 20
-175.5941
  0
VERTEX
  8
LAYER_1
 10
178.8398
 20
-175.5911
  0
VERTEX
  8
LAYER_1
 10
178.8388
 20
-175.5882
  0
VERTEX
  8
LAYER_1
 10
178.8382
 20
-175.5867
  0
VERTEX
  8
LAYER_1
 10
178.8377
 20
-175.5852
  0
VERTEX
  8
LAYER_1
 10
178.8372
 20
-175.5837
  0
VERTEX
  8
LAYER_1
 10
178.8369
 20
-175.583
  0
VERTEX
  8
LAYER_1
 10
178.8368
 20
-175.5826
  0
VERTEX
  8
LAYER_1
 10
178.8366
 20
-175.5822
  0
VERTEX
  8
LAYER_1
 10
178.8367
 20
-175.5819
  0
VERTEX
  8
LAYER_1
 10
178.8367
 20
-175.5815
  0
VERTEX
  8
LAYER_1
 10
178.8368
 20
-175.5807
  0
VERTEX
  8
LAYER_1
 10
178.8369
 20
-175.5792
  0
VERTEX
  8
LAYER_1
 10
178.837
 20
-175.5777
  0
VERTEX
  8
LAYER_1
 10
178.8371
 20
-175.5761
  0
VERTEX
  8
LAYER_1
 10
178.8373
 20
-175.5731
  0
VERTEX
  8
LAYER_1
 10
178.8376
 20
-175.57
  0
VERTEX
  8
LAYER_1
 10
178.8381
 20
-175.5639
  0
VERTEX
  8
LAYER_1
 10
178.8385
 20
-175.5578
  0
VERTEX
  8
LAYER_1
 10
178.839
 20
-175.5517
  0
VERTEX
  8
LAYER_1
 10
178.8395
 20
-175.5456
  0
VERTEX
  8
LAYER_1
 10
178.8404
 20
-175.5333
  0
VERTEX
  8
LAYER_1
 10
178.8413
 20
-175.5211
  0
VERTEX
  8
LAYER_1
 10
178.8423
 20
-175.5089
  0
VERTEX
  8
LAYER_1
 10
178.8442
 20
-175.4844
  0
VERTEX
  8
LAYER_1
 10
178.846
 20
-175.46
  0
VERTEX
  8
LAYER_1
 10
178.8479
 20
-175.4355
  0
VERTEX
  8
LAYER_1
 10
178.8498
 20
-175.4111
  0
VERTEX
  8
LAYER_1
 10
178.8517
 20
-175.3866
  0
SEQEND
  0
ENDBLK
  0
BLOCK
  8
LAYER_1
  2
AIGNBL01010146
 70
64
 10
0
 20
0
 30
0
  3
AIGNBL01010146
  0
POLYLINE
  8
LAYER_1
 40
0.1058
 41
0.1058
 66
1
 10
0
 20
0
 30
0
  0
VERTEX
  8
LAYER_1
 10
178.8517
 20
-175.3866
  0
VERTEX
  8
LAYER_1
 10
178.8713
 20
-175.3478
  0
VERTEX
  8
LAYER_1
 10
178.8812
 20
-175.3284
  0
VERTEX
  8
LAYER_1
 10
178.891
 20
-175.3089
  0
VERTEX
  8
LAYER_1
 10
178.9008
 20
-175.2895
  0
VERTEX
  8
LAYER_1
 10
178.9106
 20
-175.2701
  0
VERTEX
  8
LAYER_1
 10
178.9156
 20
-175.2604
  0
VERTEX
  8
LAYER_1
 10
178.9205
 20
-175.2507
  0
VERTEX
  8
LAYER_1
 10
178.9254
 20
-175.241
  0
VERTEX
  8
LAYER_1
 10
178.9303
 20
-175.2313
  0
VERTEX
  8
LAYER_1
 10
178.9328
 20
-175.2264
  0
VERTEX
  8
LAYER_1
 10
178.9352
 20
-175.2215
  0
VERTEX
  8
LAYER_1
 10
178.9377
 20
-175.2167
  0
VERTEX
  8
LAYER_1
 10
178.9389
 20
-175.2143
  0
VERTEX
  8
LAYER_1
 10
178.9401
 20
-175.2118
  0
VERTEX
  8
LAYER_1
 10
178.9407
 20
-175.2106
  0
VERTEX
  8
LAYER_1
 10
178.9411
 20
-175.21
  0
VERTEX
  8
LAYER_1
 10
178.9414
 20
-175.2094
  0
VERTEX
  8
LAYER_1
 10
178.9415
 20
-175.2091
  0
VERTEX
  8
LAYER_1
 10
178.9418
 20
-175.2088
  0
VERTEX
  8
LAYER_1
 10
178.9423
 20
-175.2083
  0
VERTEX
  8
LAYER_1
 10
178.9434
 20
-175.2071
  0
VERTEX
  8
LAYER_1
 10
178.9456
 20
-175.2049
  0
VERTEX
  8
LAYER_1
 10
178.9478
 20
-175.2026
  0
VERTEX
  8
LAYER_1
 10
178.9521
 20
-175.1981
  0
VERTEX
  8
LAYER_1
 10
178.9565
 20
-175.1936
  0
VERTEX
  8
LAYER_1
 10
178.9652
 20
-175.1846
  0
VERTEX
  8
LAYER_1
 10
178.9739
 20
-175.1756
  0
VERTEX
  8
LAYER_1
 10
178.9914
 20
-175.1575
  0
VERTEX
  8
LAYER_1
 10
179.0088
 20
-175.1395
  0
VERTEX
  8
LAYER_1
 10
179.0262
 20
-175.1215
  0
VERTEX
  8
LAYER_1
 10
179.0437
 20
-175.1034
  0
VERTEX
  8
LAYER_1
 10
179.0524
 20
-175.0944
  0
VERTEX
  8
LAYER_1
 10
179.0611
 20
-175.0854
  0
VERTEX
  8
LAYER_1
 10
179.0698
 20
-175.0764
  0
VERTEX
  8
LAYER_1
 10
179.0786
 20
-175.0673
  0
VERTEX
  8
LAYER_1
 10
179.0873
 20
-175.0583
  0
VERTEX
  8
LAYER_1
 10
179.0916
 20
-175.0538
  0
VERTEX
  8
LAYER_1
 10
179.0938
 20
-175.0516
  0
VERTEX
  8
LAYER_1
 10
179.096
 20
-175.0493
  0
VERTEX
  8
LAYER_1
 10
179.0982
 20
-175.0471
  0
VERTEX
  8
LAYER_1
 10
179.0993
 20
-175.0459
  0
VERTEX
  8
LAYER_1
 10
179.1003
 20
-175.0448
  0
VERTEX
  8
LAYER_1
 10
179.1009
 20
-175.0442
  0
VERTEX
  8
LAYER_1
 10
179.1016
 20
-175.0437
  0
VERTEX
  8
LAYER_1
 10
179.1031
 20
-175.0427
  0
VERTEX
  8
LAYER_1
 10
179.1062
 20
-175.0407
  0
VERTEX
  8
LAYER_1
 10
179.1123
 20
-175.0368
  0
VERTEX
  8
LAYER_1
 10
179.1184
 20
-175.0328
  0
VERTEX
  8
LAYER_1
 10
179.1244
 20
-175.0288
  0
VERTEX
  8
LAYER_1
 10
179.1305
 20
-175.0248
  0
VERTEX
  8
LAYER_1
 10
179.1427
 20
-175.0169
  0
VERTEX
  8
LAYER_1
 10
179.167
 20
-175.001
  0
VERTEX
  8
LAYER_1
 10
179.1914
 20
-174.985
  0
VERTEX
  8
LAYER_1
 10
179.24
 20
-174.9532
  0
VERTEX
  8
LAYER_1
 10
179.2644
 20
-174.9373
  0
VERTEX
  8
LAYER_1
 10
179.2765
 20
-174.9293
  0
VERTEX
  8
LAYER_1
 10
179.2887
 20
-174.9214
  0
VERTEX
  8
LAYER_1
 10
179.3009
 20
-174.9134
  0
VERTEX
  8
LAYER_1
 10
179.307
 20
-174.9094
  0
VERTEX
  8
LAYER_1
 10
179.313
 20
-174.9055
  0
VERTEX
  8
LAYER_1
 10
179.3191
 20
-174.9015
  0
VERTEX
  8
LAYER_1
 10
179.3206
 20
-174.9005
  0
VERTEX
  8
LAYER_1
 10
179.3222
 20
-174.8995
  0
VERTEX
  8
LAYER_1
 10
179.3237
 20
-174.8985
  0
VERTEX
  8
LAYER_1
 10
179.3247
 20
-174.8981
  0
VERTEX
  8
LAYER_1
 10
179.3257
 20
-174.8977
  0
VERTEX
  8
LAYER_1
 10
179.3295
 20
-174.896
  0
VERTEX
  8
LAYER_1
 10
179.3334
 20
-174.8944
  0
VERTEX
  8
LAYER_1
 10
179.3372
 20
-174.8927
  0
VERTEX
  8
LAYER_1
 10
179.3411
 20
-174.891
  0
VERTEX
  8
LAYER_1
 10
179.3488
 20
-174.8877
  0
VERTEX
  8
LAYER_1
 10
179.3565
 20
-174.8844
  0
VERTEX
  8
LAYER_1
 10
179.3719
 20
-174.8777
  0
VERTEX
  8
LAYER_1
 10
179.3873
 20
-174.871
  0
VERTEX
  8
LAYER_1
 10
179.4027
 20
-174.8643
  0
VERTEX
  8
LAYER_1
 10
179.4335
 20
-174.851
  0
VERTEX
  8
LAYER_1
 10
179.4643
 20
-174.8377
  0
VERTEX
  8
LAYER_1
 10
179.4951
 20
-174.8243
  0
VERTEX
  8
LAYER_1
 10
179.5259
 20
-174.811
  0
VERTEX
  8
LAYER_1
 10
179.5413
 20
-174.8043
  0
VERTEX
  8
LAYER_1
 10
179.5567
 20
-174.7976
  0
VERTEX
  8
LAYER_1
 10
179.5721
 20
-174.791
  0
VERTEX
  8
LAYER_1
 10
179.5798
 20
-174.7876
  0
VERTEX
  8
LAYER_1
 10
179.5875
 20
-174.7843
  0
VERTEX
  8
LAYER_1
 10
179.5952
 20
-174.781
  0
VERTEX
  8
LAYER_1
 10
179.5991
 20
-174.7793
  0
VERTEX
  8
LAYER_1
 10
179.601
 20
-174.7785
  0
VERTEX
  8
LAYER_1
 10
179.6029
 20
-174.7776
  0
VERTEX
  8
LAYER_1
 10
179.6048
 20
-174.7768
  0
VERTEX
  8
LAYER_1
 10
179.607
 20
-174.7761
  0
VERTEX
  8
LAYER_1
 10
179.6092
 20
-174.7755
  0
VERTEX
  8
LAYER_1
 10
179.6114
 20
-174.7749
  0
VERTEX
  8
LAYER_1
 10
179.6201
 20
-174.7725
  0
VERTEX
  8
LAYER_1
 10
179.6289
 20
-174.77
  0
VERTEX
  8
LAYER_1
 10
179.6376
 20
-174.7676
  0
VERTEX
  8
LAYER_1
 10
179.6551
 20
-174.7627
  0
VERTEX
  8
LAYER_1
 10
179.6726
 20
-174.7578
  0
VERTEX
  8
LAYER_1
 10
179.6901
 20
-174.7529
  0
VERTEX
  8
LAYER_1
 10
179.725
 20
-174.7432
  0
VERTEX
  8
LAYER_1
 10
179.795
 20
-174.7236
  0
VERTEX
  8
LAYER_1
 10
179.83
 20
-174.7138
  0
VERTEX
  8
LAYER_1
 10
179.8649
 20
-174.7041
  0
VERTEX
  8
LAYER_1
 10
179.8824
 20
-174.6992
  0
VERTEX
  8
LAYER_1
 10
179.8912
 20
-174.6967
  0
VERTEX
  8
LAYER_1
 10
179.8999
 20
-174.6943
  0
VERTEX
  8
LAYER_1
 10
179.9087
 20
-174.6918
  0
VERTEX
  8
LAYER_1
 10
179.9174
 20
-174.6894
  0
VERTEX
  8
LAYER_1
 10
179.9218
 20
-174.6882
  0
VERTEX
  8
LAYER_1
 10
179.924
 20
-174.6876
  0
VERTEX
  8
LAYER_1
 10
179.9251
 20
-174.6873
  0
VERTEX
  8
LAYER_1
 10
179.9263
 20
-174.6871
  0
VERTEX
  8
LAYER_1
 10
179.9286
 20
-174.6867
  0
VERTEX
  8
LAYER_1
 10
179.931
 20
-174.6863
  0
VERTEX
  8
LAYER_1
 10
179.9358
 20
-174.6856
  0
VERTEX
  8
LAYER_1
 10
179.9454
 20
-174.6841
  0
VERTEX
  8
LAYER_1
 10
179.9549
 20
-174.6825
  0
VERTEX
  8
LAYER_1
 10
179.974
 20
-174.6795
  0
VERTEX
  8
LAYER_1
 10
179.9931
 20
-174.6765
  0
VERTEX
  8
LAYER_1
 10
180.0122
 20
-174.6735
  0
VERTEX
  8
LAYER_1
 10
180.0504
 20
-174.6674
  0
VERTEX
  8
LAYER_1
 10
180.0886
 20
-174.6613
  0
VERTEX
  8
LAYER_1
 10
180.1268
 20
-174.6553
  0
VERTEX
  8
LAYER_1
 10
180.165
 20
-174.6492
  0
VERTEX
  8
LAYER_1
 10
180.2031
 20
-174.6432
  0
VERTEX
  8
LAYER_1
 10
180.2222
 20
-174.6401
  0
VERTEX
  8
LAYER_1
 10
180.2413
 20
-174.6371
  0
VERTEX
  8
LAYER_1
 10
180.2509
 20
-174.6356
  0
VERTEX
  8
LAYER_1
 10
180.2604
 20
-174.6341
  0
VERTEX
  8
LAYER_1
 10
180.2652
 20
-174.6333
  0
VERTEX
  8
LAYER_1
 10
180.27
 20
-174.6326
  0
VERTEX
  8
LAYER_1
 10
180.2748
 20
-174.6319
  0
VERTEX
  8
LAYER_1
 10
180.2773
 20
-174.6318
  0
VERTEX
  8
LAYER_1
 10
180.2799
 20
-174.6316
  0
VERTEX
  8
LAYER_1
 10
180.2849
 20
-174.6314
  0
VERTEX
  8
LAYER_1
 10
180.29
 20
-174.6311
  0
VERTEX
  8
LAYER_1
 10
180.3001
 20
-174.6306
  0
VERTEX
  8
LAYER_1
 10
180.3103
 20
-174.6301
  0
VERTEX
  8
LAYER_1
 10
180.3204
 20
-174.6295
  0
VERTEX
  8
LAYER_1
 10
180.3407
 20
-174.6285
  0
VERTEX
  8
LAYER_1
 10
180.3609
 20
-174.6274
  0
VERTEX
  8
LAYER_1
 10
180.4015
 20
-174.6253
  0
VERTEX
  8
LAYER_1
 10
180.442
 20
-174.6232
  0
VERTEX
  8
LAYER_1
 10
180.4826
 20
-174.6211
  0
VERTEX
  8
LAYER_1
 10
180.5636
 20
-174.617
  0
VERTEX
  8
LAYER_1
 10
180.6447
 20
-174.6128
  0
SEQEND
  0
ENDBLK
  0
BLOCK
  8
LAYER_1
  2
AIGNBL01010147
 70
64
 10
0
 20
0
 30
0
  3
AIGNBL01010147
  0
POLYLINE
  8
LAYER_1
 40
0.1058
 41
0.1058
 66
1
 10
0
 20
0
 30
0
  0
VERTEX
  8
LAYER_1
 10
180.6447
 20
-174.6128
  0
VERTEX
  8
LAYER_1
 10
180.7245
 20
-174.6168
  0
VERTEX
  8
LAYER_1
 10
180.8042
 20
-174.6209
  0
VERTEX
  8
LAYER_1
 10
180.844
 20
-174.6229
  0
VERTEX
  8
LAYER_1
 10
180.8839
 20
-174.6249
  0
VERTEX
  8
LAYER_1
 10
180.9238
 20
-174.6269
  0
VERTEX
  8
LAYER_1
 10
180.9437
 20
-174.628
  0
VERTEX
  8
LAYER_1
 10
180.9636
 20
-174.629
  0
VERTEX
  8
LAYER_1
 10
180.9736
 20
-174.6295
  0
VERTEX
  8
LAYER_1
 10
180.9836
 20
-174.63
  0
VERTEX
  8
LAYER_1
 10
180.9935
 20
-174.6305
  0
VERTEX
  8
LAYER_1
 10
180.9985
 20
-174.6307
  0
VERTEX
  8
LAYER_1
 10
181.0035
 20
-174.631
  0
VERTEX
  8
LAYER_1
 10
181.006
 20
-174.6311
  0
VERTEX
  8
LAYER_1
 10
181.0085
 20
-174.6312
  0
VERTEX
  8
LAYER_1
 10
181.0133
 20
-174.6319
  0
VERTEX
  8
LAYER_1
 10
181.0181
 20
-174.6327
  0
VERTEX
  8
LAYER_1
 10
181.0228
 20
-174.6334
  0
VERTEX
  8
LAYER_1
 10
181.0324
 20
-174.6349
  0
VERTEX
  8
LAYER_1
 10
181.042
 20
-174.6364
  0
VERTEX
  8
LAYER_1
 10
181.0611
 20
-174.6394
  0
VERTEX
  8
LAYER_1
 10
181.0802
 20
-174.6424
  0
VERTEX
  8
LAYER_1
 10
181.1184
 20
-174.6484
  0
VERTEX
  8
LAYER_1
 10
181.1567
 20
-174.6544
  0
VERTEX
  8
LAYER_1
 10
181.1949
 20
-174.6604
  0
VERTEX
  8
LAYER_1
 10
181.2331
 20
-174.6664
  0
VERTEX
  8
LAYER_1
 10
181.2714
 20
-174.6724
  0
VERTEX
  8
LAYER_1
 10
181.2905
 20
-174.6754
  0
VERTEX
  8
LAYER_1
 10
181.3096
 20
-174.6784
  0
VERTEX
  8
LAYER_1
 10
181.3287
 20
-174.6813
  0
VERTEX
  8
LAYER_1
 10
181.3383
 20
-174.6828
  0
VERTEX
  8
LAYER_1
 10
181.3478
 20
-174.6843
  0
VERTEX
  8
LAYER_1
 10
181.3526
 20
-174.6851
  0
VERTEX
  8
LAYER_1
 10
181.355
 20
-174.6855
  0
VERTEX
  8
LAYER_1
 10
181.3574
 20
-174.6858
  0
VERTEX
  8
LAYER_1
 10
181.3586
 20
-174.686
  0
VERTEX
  8
LAYER_1
 10
181.3597
 20
-174.6863
  0
VERTEX
  8
LAYER_1
 10
181.3619
 20
-174.6869
  0
VERTEX
  8
LAYER_1
 10
181.3663
 20
-174.6881
  0
VERTEX
  8
LAYER_1
 10
181.375
 20
-174.6906
  0
VERTEX
  8
LAYER_1
 10
181.3838
 20
-174.693
  0
VERTEX
  8
LAYER_1
 10
181.3925
 20
-174.6954
  0
VERTEX
  8
LAYER_1
 10
181.4013
 20
-174.6978
  0
VERTEX
  8
LAYER_1
 10
181.4188
 20
-174.7027
  0
VERTEX
  8
LAYER_1
 10
181.4539
 20
-174.7124
  0
VERTEX
  8
LAYER_1
 10
181.4889
 20
-174.7221
  0
VERTEX
  8
LAYER_1
 10
181.559
 20
-174.7416
  0
VERTEX
  8
LAYER_1
 10
181.594
 20
-174.7513
  0
VERTEX
  8
LAYER_1
 10
181.6116
 20
-174.7561
  0
VERTEX
  8
LAYER_1
 10
181.6291
 20
-174.761
  0
VERTEX
  8
LAYER_1
 10
181.6466
 20
-174.7658
  0
VERTEX
  8
LAYER_1
 10
181.6554
 20
-174.7683
  0
VERTEX
  8
LAYER_1
 10
181.6641
 20
-174.7707
  0
VERTEX
  8
LAYER_1
 10
181.6729
 20
-174.7731
  0
VERTEX
  8
LAYER_1
 10
181.6751
 20
-174.7737
  0
VERTEX
  8
LAYER_1
 10
181.6773
 20
-174.7743
  0
VERTEX
  8
LAYER_1
 10
181.6794
 20
-174.775
  0
VERTEX
  8
LAYER_1
 10
181.6814
 20
-174.7758
  0
VERTEX
  8
LAYER_1
 10
181.6833
 20
-174.7766
  0
VERTEX
  8
LAYER_1
 10
181.6852
 20
-174.7775
  0
VERTEX
  8
LAYER_1
 10
181.6891
 20
-174.7791
  0
VERTEX
  8
LAYER_1
 10
181.6968
 20
-174.7824
  0
VERTEX
  8
LAYER_1
 10
181.7045
 20
-174.7858
  0
VERTEX
  8
LAYER_1
 10
181.7122
 20
-174.7891
  0
VERTEX
  8
LAYER_1
 10
181.7277
 20
-174.7957
  0
VERTEX
  8
LAYER_1
 10
181.7431
 20
-174.8024
  0
VERTEX
  8
LAYER_1
 10
181.7586
 20
-174.809
  0
VERTEX
  8
LAYER_1
 10
181.7895
 20
-174.8223
  0
VERTEX
  8
LAYER_1
 10
181.8204
 20
-174.8356
  0
VERTEX
  8
LAYER_1
 10
181.8513
 20
-174.8489
  0
VERTEX
  8
LAYER_1
 10
181.8822
 20
-174.8622
  0
VERTEX
  8
LAYER_1
 10
181.8976
 20
-174.8688
  0
VERTEX
  8
LAYER_1
 10
181.9131
 20
-174.8755
  0
VERTEX
  8
LAYER_1
 10
181.9285
 20
-174.8821
  0
VERTEX
  8
LAYER_1
 10
181.9363
 20
-174.8854
  0
VERTEX
  8
LAYER_1
 10
181.944
 20
-174.8888
  0
VERTEX
  8
LAYER_1
 10
181.9478
 20
-174.8904
  0
VERTEX
  8
LAYER_1
 10
181.9517
 20
-174.8921
  0
VERTEX
  8
LAYER_1
 10
181.9556
 20
-174.8937
  0
VERTEX
  8
LAYER_1
 10
181.9594
 20
-174.8954
  0
VERTEX
  8
LAYER_1
 10
181.9604
 20
-174.8958
  0
VERTEX
  8
LAYER_1
 10
181.9614
 20
-174.8962
  0
VERTEX
  8
LAYER_1
 10
181.963
 20
-174.8972
  0
VERTEX
  8
LAYER_1
 10
181.9645
 20
-174.8982
  0
VERTEX
  8
LAYER_1
 10
181.966
 20
-174.8992
  0
VERTEX
  8
LAYER_1
 10
181.9721
 20
-174.9031
  0
VERTEX
  8
LAYER_1
 10
181.9782
 20
-174.9071
  0
VERTEX
  8
LAYER_1
 10
181.9843
 20
-174.9111
  0
VERTEX
  8
LAYER_1
 10
181.9966
 20
-174.919
  0
VERTEX
  8
LAYER_1
 10
182.0088
 20
-174.927
  0
VERTEX
  8
LAYER_1
 10
182.021
 20
-174.9349
  0
VERTEX
  8
LAYER_1
 10
182.0455
 20
-174.9508
  0
VERTEX
  8
LAYER_1
 10
182.0944
 20
-174.9825
  0
VERTEX
  8
LAYER_1
 10
182.1188
 20
-174.9984
  0
VERTEX
  8
LAYER_1
 10
182.1432
 20
-175.0143
  0
VERTEX
  8
LAYER_1
 10
182.1555
 20
-175.0222
  0
VERTEX
  8
LAYER_1
 10
182.1616
 20
-175.0262
  0
VERTEX
  8
LAYER_1
 10
182.1677
 20
-175.0301
  0
VERTEX
  8
LAYER_1
 10
182.1738
 20
-175.0341
  0
VERTEX
  8
LAYER_1
 10
182.1799
 20
-175.0381
  0
VERTEX
  8
LAYER_1
 10
182.183
 20
-175.04
  0
VERTEX
  8
LAYER_1
 10
182.1845
 20
-175.041
  0
VERTEX
  8
LAYER_1
 10
182.1852
 20
-175.0415
  0
VERTEX
  8
LAYER_1
 10
182.1858
 20
-175.0421
  0
VERTEX
  8
LAYER_1
 10
182.1869
 20
-175.0432
  0
VERTEX
  8
LAYER_1
 10
182.188
 20
-175.0444
  0
VERTEX
  8
LAYER_1
 10
182.1902
 20
-175.0466
  0
VERTEX
  8
LAYER_1
 10
182.1924
 20
-175.0489
  0
VERTEX
  8
LAYER_1
 10
182.1946
 20
-175.0511
  0
VERTEX
  8
LAYER_1
 10
182.199
 20
-175.0556
  0
VERTEX
  8
LAYER_1
 10
182.2077
 20
-175.0646
  0
VERTEX
  8
LAYER_1
 10
182.2165
 20
-175.0736
  0
VERTEX
  8
LAYER_1
 10
182.2253
 20
-175.0826
  0
VERTEX
  8
LAYER_1
 10
182.2341
 20
-175.0916
  0
VERTEX
  8
LAYER_1
 10
182.2429
 20
-175.1006
  0
VERTEX
  8
LAYER_1
 10
182.2604
 20
-175.1186
  0
VERTEX
  8
LAYER_1
 10
182.278
 20
-175.1366
  0
VERTEX
  8
LAYER_1
 10
182.2956
 20
-175.1546
  0
VERTEX
  8
LAYER_1
 10
182.3131
 20
-175.1727
  0
VERTEX
  8
LAYER_1
 10
182.3219
 20
-175.1817
  0
VERTEX
  8
LAYER_1
 10
182.3307
 20
-175.1907
  0
VERTEX
  8
LAYER_1
 10
182.3351
 20
-175.1952
  0
VERTEX
  8
LAYER_1
 10
182.3395
 20
-175.1997
  0
VERTEX
  8
LAYER_1
 10
182.3417
 20
-175.2019
  0
VERTEX
  8
LAYER_1
 10
182.3439
 20
-175.2042
  0
VERTEX
  8
LAYER_1
 10
182.345
 20
-175.2053
  0
VERTEX
  8
LAYER_1
 10
182.3455
 20
-175.2059
  0
VERTEX
  8
LAYER_1
 10
182.3458
 20
-175.2061
  0
VERTEX
  8
LAYER_1
 10
182.3459
 20
-175.2064
  0
VERTEX
  8
LAYER_1
 10
182.3462
 20
-175.2071
  0
VERTEX
  8
LAYER_1
 10
182.3466
 20
-175.2077
  0
VERTEX
  8
LAYER_1
 10
182.3472
 20
-175.2089
  0
VERTEX
  8
LAYER_1
 10
182.3484
 20
-175.2114
  0
VERTEX
  8
LAYER_1
 10
182.3497
 20
-175.2139
  0
VERTEX
  8
LAYER_1
 10
182.3522
 20
-175.2188
  0
VERTEX
  8
LAYER_1
 10
182.3547
 20
-175.2237
  0
VERTEX
  8
LAYER_1
 10
182.3572
 20
-175.2287
  0
VERTEX
  8
LAYER_1
 10
182.3623
 20
-175.2385
  0
VERTEX
  8
LAYER_1
 10
182.3673
 20
-175.2484
  0
VERTEX
  8
LAYER_1
 10
182.3723
 20
-175.2583
  0
VERTEX
  8
LAYER_1
 10
182.3774
 20
-175.2682
  0
VERTEX
  8
LAYER_1
 10
182.3874
 20
-175.2879
  0
VERTEX
  8
LAYER_1
 10
182.3975
 20
-175.3076
  0
VERTEX
  8
LAYER_1
 10
182.4076
 20
-175.3274
  0
VERTEX
  8
LAYER_1
 10
182.4176
 20
-175.3471
  0
VERTEX
  8
LAYER_1
 10
182.4378
 20
-175.3866
  0
SEQEND
  0
ENDBLK
  0
BLOCK
  8
LAYER_1
  2
AIGNBL01010148
 70
64
 10
0
 20
0
 30
0
  3
AIGNBL01010148
  0
POLYLINE
  8
LAYER_1
 40
0.1058
 41
0.1058
 66
1
 10
0
 20
0
 30
0
  0
VERTEX
  8
LAYER_1
 10
182.4378
 20
-175.3866
  0
VERTEX
  8
LAYER_1
 10
182.4397
 20
-175.4107
  0
VERTEX
  8
LAYER_1
 10
182.4416
 20
-175.4347
  0
VERTEX
  8
LAYER_1
 10
182.4436
 20
-175.4588
  0
VERTEX
  8
LAYER_1
 10
182.4455
 20
-175.4829
  0
VERTEX
  8
LAYER_1
 10
182.4474
 20
-175.5069
  0
VERTEX
  8
LAYER_1
 10
182.4484
 20
-175.5189
  0
VERTEX
  8
LAYER_1
 10
182.4494
 20
-175.531
  0
VERTEX
  8
LAYER_1
 10
182.4503
 20
-175.543
  0
VERTEX
  8
LAYER_1
 10
182.4508
 20
-175.549
  0
VERTEX
  8
LAYER_1
 10
182.4513
 20
-175.555
  0
VERTEX
  8
LAYER_1
 10
182.4518
 20
-175.561
  0
VERTEX
  8
LAYER_1
 10
182.4523
 20
-175.5671
  0
VERTEX
  8
LAYER_1
 10
182.4525
 20
-175.5701
  0
VERTEX
  8
LAYER_1
 10
182.4528
 20
-175.5731
  0
VERTEX
  8
LAYER_1
 10
182.4529
 20
-175.5746
  0
VERTEX
  8
LAYER_1
 10
182.453
 20
-175.5761
  0
VERTEX
  8
LAYER_1
 10
182.4531
 20
-175.5776
  0
VERTEX
  8
LAYER_1
 10
182.4532
 20
-175.5783
  0
VERTEX
  8
LAYER_1
 10
182.4532
 20
-175.5787
  0
VERTEX
  8
LAYER_1
 10
182.4532
 20
-175.5791
  0
VERTEX
  8
LAYER_1
 10
182.4531
 20
-175.5795
  0
VERTEX
  8
LAYER_1
 10
182.453
 20
-175.5798
  0
VERTEX
  8
LAYER_1
 10
182.4527
 20
-175.5806
  0
VERTEX
  8
LAYER_1
 10
182.4522
 20
-175.5821
  0
VERTEX
  8
LAYER_1
 10
182.4516
 20
-175.5836
  0
VERTEX
  8
LAYER_1
 10
182.4511
 20
-175.5851
  0
VERTEX
  8
LAYER_1
 10
182.4501
 20
-175.5881
  0
VERTEX
  8
LAYER_1
 10
182.449
 20
-175.5911
  0
VERTEX
  8
LAYER_1
 10
182.4469
 20
-175.5972
  0
VERTEX
  8
LAYER_1
 10
182.4447
 20
-175.6032
  0
VERTEX
  8
LAYER_1
 10
182.4426
 20
-175.6092
  0
VERTEX
  8
LAYER_1
 10
182.4405
 20
-175.6152
  0
VERTEX
  8
LAYER_1
 10
182.4362
 20
-175.6273
  0
VERTEX
  8
LAYER_1
 10
182.432
 20
-175.6393
  0
VERTEX
  8
LAYER_1
 10
182.4277
 20
-175.6514
  0
VERTEX
  8
LAYER_1
 10
182.4193
 20
-175.6755
  0
VERTEX
  8
LAYER_1
 10
182.4108
 20
-175.6996
  0
VERTEX
  8
LAYER_1
 10
182.4065
 20
-175.7116
  0
VERTEX
  8
LAYER_1
 10
182.4023
 20
-175.7237
  0
VERTEX
  8
LAYER_1
 10
182.398
 20
-175.7357
  0
VERTEX
  8
LAYER_1
 10
182.3959
 20
-175.7417
  0
VERTEX
  8
LAYER_1
 10
182.3938
 20
-175.7478
  0
VERTEX
  8
LAYER_1
 10
182.3916
 20
-175.7538
  0
VERTEX
  8
LAYER_1
 10
182.3895
 20
-175.7598
  0
VERTEX
  8
LAYER_1
 10
182.3884
 20
-175.7628
  0
VERTEX
  8
LAYER_1
 10
182.3874
 20
-175.7658
  0
VERTEX
  8
LAYER_1
 10
182.3869
 20
-175.7673
  0
VERTEX
  8
LAYER_1
 10
182.3863
 20
-175.7688
  0
VERTEX
  8
LAYER_1
 10
182.3858
 20
-175.7703
  0
VERTEX
  8
LAYER_1
 10
182.3855
 20
-175.7711
  0
VERTEX
  8
LAYER_1
 10
182.3854
 20
-175.7715
  0
VERTEX
  8
LAYER_1
 10
182.3853
 20
-175.7719
  0
VERTEX
  8
LAYER_1
 10
182.385
 20
-175.7722
  0
VERTEX
  8
LAYER_1
 10
182.3847
 20
-175.7726
  0
VERTEX
  8
LAYER_1
 10
182.3841
 20
-175.7732
  0
VERTEX
  8
LAYER_1
 10
182.383
 20
-175.7746
  0
VERTEX
  8
LAYER_1
 10
182.3818
 20
-175.776
  0
VERTEX
  8
LAYER_1
 10
182.3807
 20
-175.7774
  0
VERTEX
  8
LAYER_1
 10
182.3784
 20
-175.7802
  0
VERTEX
  8
LAYER_1
 10
182.3761
 20
-175.783
  0
VERTEX
  8
LAYER_1
 10
182.3716
 20
-175.7886
  0
VERTEX
  8
LAYER_1
 10
182.367
 20
-175.7941
  0
VERTEX
  8
LAYER_1
 10
182.3624
 20
-175.7997
  0
VERTEX
  8
LAYER_1
 10
182.3579
 20
-175.8053
  0
VERTEX
  8
LAYER_1
 10
182.3487
 20
-175.8164
  0
VERTEX
  8
LAYER_1
 10
182.3396
 20
-175.8275
  0
VERTEX
  8
LAYER_1
 10
182.3304
 20
-175.8387
  0
VERTEX
  8
LAYER_1
 10
182.3122
 20
-175.861
  0
VERTEX
  8
LAYER_1
 10
182.2939
 20
-175.8832
  0
VERTEX
  8
LAYER_1
 10
182.2848
 20
-175.8944
  0
VERTEX
  8
LAYER_1
 10
182.2756
 20
-175.9055
  0
VERTEX
  8
LAYER_1
 10
182.2665
 20
-175.9166
  0
VERTEX
  8
LAYER_1
 10
182.2619
 20
-175.9222
  0
VERTEX
  8
LAYER_1
 10
182.2574
 20
-175.9278
  0
VERTEX
  8
LAYER_1
 10
182.2528
 20
-175.9333
  0
VERTEX
  8
LAYER_1
 10
182.2482
 20
-175.9389
  0
VERTEX
  8
LAYER_1
 10
182.2459
 20
-175.9417
  0
VERTEX
  8
LAYER_1
 10
182.2437
 20
-175.9445
  0
VERTEX
  8
LAYER_1
 10
182.2425
 20
-175.9459
  0
VERTEX
  8
LAYER_1
 10
182.2414
 20
-175.9473
  0
VERTEX
  8
LAYER_1
 10
182.2402
 20
-175.9487
  0
VERTEX
  8
LAYER_1
 10
182.2397
 20
-175.9494
  0
VERTEX
  8
LAYER_1
 10
182.2394
 20
-175.9497
  0
VERTEX
  8
LAYER_1
 10
182.2391
 20
-175.9501
  0
VERTEX
  8
LAYER_1
 10
182.2387
 20
-175.9504
  0
VERTEX
  8
LAYER_1
 10
182.2382
 20
-175.9507
  0
VERTEX
  8
LAYER_1
 10
182.2374
 20
-175.9513
  0
VERTEX
  8
LAYER_1
 10
182.2356
 20
-175.9526
  0
VERTEX
  8
LAYER_1
 10
182.2339
 20
-175.9538
  0
VERTEX
  8
LAYER_1
 10
182.2321
 20
-175.9551
  0
VERTEX
  8
LAYER_1
 10
182.2287
 20
-175.9576
  0
VERTEX
  8
LAYER_1
 10
182.2252
 20
-175.9601
  0
VERTEX
  8
LAYER_1
 10
182.2182
 20
-175.9652
  0
VERTEX
  8
LAYER_1
 10
182.2113
 20
-175.9702
  0
VERTEX
  8
LAYER_1
 10
182.2044
 20
-175.9752
  0
VERTEX
  8
LAYER_1
 10
182.1974
 20
-175.9803
  0
VERTEX
  8
LAYER_1
 10
182.1835
 20
-175.9903
  0
VERTEX
  8
LAYER_1
 10
182.1696
 20
-176.0004
  0
VERTEX
  8
LAYER_1
 10
182.1557
 20
-176.0105
  0
VERTEX
  8
LAYER_1
 10
182.1279
 20
-176.0306
  0
VERTEX
  8
LAYER_1
 10
182.1001
 20
-176.0508
  0
VERTEX
  8
LAYER_1
 10
182.0863
 20
-176.0608
  0
VERTEX
  8
LAYER_1
 10
182.0724
 20
-176.0709
  0
VERTEX
  8
LAYER_1
 10
182.0585
 20
-176.081
  0
VERTEX
  8
LAYER_1
 10
182.0515
 20
-176.086
  0
VERTEX
  8
LAYER_1
 10
182.0446
 20
-176.091
  0
VERTEX
  8
LAYER_1
 10
182.0376
 20
-176.0961
  0
VERTEX
  8
LAYER_1
 10
182.0307
 20
-176.1011
  0
VERTEX
  8
LAYER_1
 10
182.0272
 20
-176.1036
  0
VERTEX
  8
LAYER_1
 10
182.0237
 20
-176.1061
  0
VERTEX
  8
LAYER_1
 10
182.0203
 20
-176.1087
  0
VERTEX
  8
LAYER_1
 10
182.0185
 20
-176.1099
  0
VERTEX
  8
LAYER_1
 10
182.0176
 20
-176.1106
  0
VERTEX
  8
LAYER_1
 10
182.0168
 20
-176.1112
  0
VERTEX
  8
LAYER_1
 10
182.0157
 20
-176.1117
  0
VERTEX
  8
LAYER_1
 10
182.0146
 20
-176.1122
  0
VERTEX
  8
LAYER_1
 10
182.0124
 20
-176.1132
  0
VERTEX
  8
LAYER_1
 10
182.008
 20
-176.1153
  0
VERTEX
  8
LAYER_1
 10
182.0036
 20
-176.1174
  0
VERTEX
  8
LAYER_1
 10
181.9992
 20
-176.1194
  0
VERTEX
  8
LAYER_1
 10
181.9904
 20
-176.1235
  0
VERTEX
  8
LAYER_1
 10
181.9816
 20
-176.1276
  0
VERTEX
  8
LAYER_1
 10
181.9728
 20
-176.1317
  0
VERTEX
  8
LAYER_1
 10
181.964
 20
-176.1359
  0
VERTEX
  8
LAYER_1
 10
181.9465
 20
-176.1441
  0
VERTEX
  8
LAYER_1
 10
181.9289
 20
-176.1523
  0
VERTEX
  8
LAYER_1
 10
181.9113
 20
-176.1605
  0
VERTEX
  8
LAYER_1
 10
181.8761
 20
-176.177
  0
VERTEX
  8
LAYER_1
 10
181.841
 20
-176.1934
  0
VERTEX
  8
LAYER_1
 10
181.8234
 20
-176.2017
  0
VERTEX
  8
LAYER_1
 10
181.8058
 20
-176.2099
  0
VERTEX
  8
LAYER_1
 10
181.7883
 20
-176.2181
  0
VERTEX
  8
LAYER_1
 10
181.7707
 20
-176.2263
  0
VERTEX
  8
LAYER_1
 10
181.7619
 20
-176.2304
  0
VERTEX
  8
LAYER_1
 10
181.7531
 20
-176.2346
  0
VERTEX
  8
LAYER_1
 10
181.7487
 20
-176.2366
  0
VERTEX
  8
LAYER_1
 10
181.7443
 20
-176.2387
  0
VERTEX
  8
LAYER_1
 10
181.7399
 20
-176.2407
  0
VERTEX
  8
LAYER_1
 10
181.7377
 20
-176.2418
  0
VERTEX
  8
LAYER_1
 10
181.7366
 20
-176.2423
  0
VERTEX
  8
LAYER_1
 10
181.7355
 20
-176.2428
  0
VERTEX
  8
LAYER_1
 10
181.7342
 20
-176.2432
  0
VERTEX
  8
LAYER_1
 10
181.7329
 20
-176.2436
  0
VERTEX
  8
LAYER_1
 10
181.7303
 20
-176.2443
  0
VERTEX
  8
LAYER_1
 10
181.725
 20
-176.2459
  0
VERTEX
  8
LAYER_1
 10
181.7198
 20
-176.2475
  0
VERTEX
  8
LAYER_1
 10
181.7145
 20
-176.249
  0
VERTEX
  8
LAYER_1
 10
181.704
 20
-176.2522
  0
VERTEX
  8
LAYER_1
 10
181.6935
 20
-176.2553
  0
VERTEX
  8
LAYER_1
 10
181.6725
 20
-176.2616
  0
VERTEX
  8
LAYER_1
 10
181.6514
 20
-176.2678
  0
VERTEX
  8
LAYER_1
 10
181.6304
 20
-176.2741
  0
VERTEX
  8
LAYER_1
 10
181.6094
 20
-176.2804
  0
VERTEX
  8
LAYER_1
 10
181.5674
 20
-176.2929
  0
VERTEX
  8
LAYER_1
 10
181.5253
 20
-176.3054
  0
VERTEX
  8
LAYER_1
 10
181.5043
 20
-176.3117
  0
VERTEX
  8
LAYER_1
 10
181.4833
 20
-176.318
  0
VERTEX
  8
LAYER_1
 10
181.4623
 20
-176.3242
  0
VERTEX
  8
LAYER_1
 10
181.4413
 20
-176.3305
  0
VERTEX
  8
LAYER_1
 10
181.4308
 20
-176.3336
  0
VERTEX
  8
LAYER_1
 10
181.4203
 20
-176.3368
  0
VERTEX
  8
LAYER_1
 10
181.415
 20
-176.3383
  0
VERTEX
  8
LAYER_1
 10
181.4097
 20
-176.3399
  0
VERTEX
  8
LAYER_1
 10
181.4045
 20
-176.3414
  0
VERTEX
  8
LAYER_1
 10
181.4019
 20
-176.3422
  0
VERTEX
  8
LAYER_1
 10
181.4005
 20
-176.3426
  0
VERTEX
  8
LAYER_1
 10
181.3992
 20
-176.343
  0
VERTEX
  8
LAYER_1
 10
181.3978
 20
-176.3433
  0
VERTEX
  8
LAYER_1
 10
181.3964
 20
-176.3435
  0
VERTEX
  8
LAYER_1
 10
181.3935
 20
-176.344
  0
VERTEX
  8
LAYER_1
 10
181.3878
 20
-176.3449
  0
VERTEX
  8
LAYER_1
 10
181.3821
 20
-176.3459
  0
VERTEX
  8
LAYER_1
 10
181.3764
 20
-176.3468
  0
VERTEX
  8
LAYER_1
 10
181.365
 20
-176.3487
  0
VERTEX
  8
LAYER_1
 10
181.3536
 20
-176.3507
  0
VERTEX
  8
LAYER_1
 10
181.3307
 20
-176.3545
  0
VERTEX
  8
LAYER_1
 10
181.3079
 20
-176.3583
  0
VERTEX
  8
LAYER_1
 10
181.2851
 20
-176.3621
  0
VERTEX
  8
LAYER_1
 10
181.2622
 20
-176.3659
  0
VERTEX
  8
LAYER_1
 10
181.2166
 20
-176.3736
  0
VERTEX
  8
LAYER_1
 10
181.1709
 20
-176.3812
  0
VERTEX
  8
LAYER_1
 10
181.1481
 20
-176.385
  0
VERTEX
  8
LAYER_1
 10
181.1253
 20
-176.3889
  0
VERTEX
  8
LAYER_1
 10
181.1024
 20
-176.3927
  0
VERTEX
  8
LAYER_1
 10
181.0796
 20
-176.3965
  0
VERTEX
  8
LAYER_1
 10
181.0682
 20
-176.3984
  0
VERTEX
  8
LAYER_1
 10
181.0568
 20
-176.4003
  0
VERTEX
  8
LAYER_1
 10
181.0511
 20
-176.4013
  0
VERTEX
  8
LAYER_1
 10
181.0453
 20
-176.4022
  0
VERTEX
  8
LAYER_1
 10
181.0396
 20
-176.4032
  0
VERTEX
  8
LAYER_1
 10
181.0368
 20
-176.4037
  0
VERTEX
  8
LAYER_1
 10
181.0354
 20
-176.4039
  0
VERTEX
  8
LAYER_1
 10
181.0339
 20
-176.4041
  0
VERTEX
  8
LAYER_1
 10
181.0324
 20
-176.4042
  0
VERTEX
  8
LAYER_1
 10
181.0309
 20
-176.4043
  0
VERTEX
  8
LAYER_1
 10
181.0279
 20
-176.4045
  0
VERTEX
  8
LAYER_1
 10
181.0218
 20
-176.4048
  0
VERTEX
  8
LAYER_1
 10
181.0157
 20
-176.4051
  0
VERTEX
  8
LAYER_1
 10
181.0096
 20
-176.4055
  0
VERTEX
  8
LAYER_1
 10
180.9974
 20
-176.4061
  0
VERTEX
  8
LAYER_1
 10
180.9853
 20
-176.4068
  0
VERTEX
  8
LAYER_1
 10
180.961
 20
-176.4081
  0
VERTEX
  8
LAYER_1
 10
180.9366
 20
-176.4094
  0
VERTEX
  8
LAYER_1
 10
180.9123
 20
-176.4107
  0
VERTEX
  8
LAYER_1
 10
180.888
 20
-176.4121
  0
VERTEX
  8
LAYER_1
 10
180.8393
 20
-176.4147
  0
VERTEX
  8
LAYER_1
 10
180.7907
 20
-176.4173
  0
VERTEX
  8
LAYER_1
 10
180.742
 20
-176.42
  0
VERTEX
  8
LAYER_1
 10
180.6447
 20
-176.4253
  0
SEQEND
  0
ENDBLK
  0
BLOCK
  8
LAYER_1
  2
AIGNBL01010149
 70
64
 10
0
 20
0
 30
0
  3
AIGNBL01010149
  0
POLYLINE
  8
LAYER_1
 40
0.1058
 41
0.1058
 66
1
 10
0
 20
0
 30
0
  0
VERTEX
  8
LAYER_1
 10
175.8946
 20
-168.7375
  0
VERTEX
  8
LAYER_1
 10
175.8013
 20
-168.8773
  0
VERTEX
  8
LAYER_1
 10
175.7698
 20
-169.0238
  0
SEQEND
  0
ENDBLK
  0
BLOCK
  8
LAYER_1
  2
AIGNBL0101014A
 70
64
 10
0
 20
0
 30
0
  3
AIGNBL0101014A
  0
POLYLINE
  8
LAYER_1
 40
0.1058
 41
0.1058
 66
1
 10
0
 20
0
 30
0
  0
VERTEX
  8
LAYER_1
 10
175.9084
 20
-170.3068
  0
VERTEX
  8
LAYER_1
 10
175.9029
 20
-170.2787
  0
VERTEX
  8
LAYER_1
 10
175.883
 20
-170.1834
  0
SEQEND
  0
ENDBLK
  0
BLOCK
  8
LAYER_1
  2
AIGNBL0101014B
 70
64
 10
0
 20
0
 30
0
  3
AIGNBL0101014B
  0
POLYLINE
  8
LAYER_1
 40
0.1058
 41
0.1058
 66
1
 10
0
 20
0
 30
0
  0
VERTEX
  8
LAYER_1
 10
175.9084
 20
-170.3068
  0
VERTEX
  8
LAYER_1
 10
175.9127
 20
-170.3478
  0
VERTEX
  8
LAYER_1
 10
175.9197
 20
-170.4689
  0
SEQEND
  0
ENDBLK
  0
BLOCK
  8
LAYER_1
  2
AIGNBL0101014C
 70
64
 10
0
 20
0
 30
0
  3
AIGNBL0101014C
  0
POLYLINE
  8
LAYER_1
 40
0.1058
 41
0.1058
 66
1
 10
0
 20
0
 30
0
  0
VERTEX
  8
LAYER_1
 10
175.9084
 20
-171.6379
  0
VERTEX
  8
LAYER_1
 10
175.9127
 20
-171.5969
  0
VERTEX
  8
LAYER_1
 10
175.9197
 20
-171.4759
  0
SEQEND
  0
ENDBLK
  0
BLOCK
  8
LAYER_1
  2
AIGNBL0101014D
 70
64
 10
0
 20
0
 30
0
  3
AIGNBL0101014D
  0
POLYLINE
  8
LAYER_1
 40
0.1058
 41
0.1058
 66
1
 10
0
 20
0
 30
0
  0
VERTEX
  8
LAYER_1
 10
178.3697
 20
-171.4759
  0
VERTEX
  8
LAYER_1
 10
178.3706
 20
-171.5141
  0
VERTEX
  8
LAYER_1
 10
178.381
 20
-171.6379
  0
SEQEND
  0
ENDBLK
  0
BLOCK
  8
LAYER_1
  2
AIGNBL0101014E
 70
64
 10
0
 20
0
 30
0
  3
AIGNBL0101014E
  0
POLYLINE
  8
LAYER_1
 40
0.1058
 41
0.1058
 66
1
 10
0
 20
0
 30
0
  0
VERTEX
  8
LAYER_1
 10
178.3697
 20
-170.4689
  0
VERTEX
  8
LAYER_1
 10
178.3706
 20
-170.4307
  0
VERTEX
  8
LAYER_1
 10
178.381
 20
-170.3068
  0
SEQEND
  0
ENDBLK
  0
BLOCK
  8
LAYER_1
  2
AIGNBL0101014F
 70
64
 10
0
 20
0
 30
0
  3
AIGNBL0101014F
  0
POLYLINE
  8
LAYER_1
 40
0.1058
 41
0.1058
 66
1
 10
0
 20
0
 30
0
  0
VERTEX
  8
LAYER_1
 10
175.9084
 20
-171.6379
  0
VERTEX
  8
LAYER_1
 10
175.9029
 20
-171.6661
  0
VERTEX
  8
LAYER_1
 10
175.883
 20
-171.7614
  0
SEQEND
  0
ENDBLK
  0
BLOCK
  8
LAYER_1
  2
AIGNBL01010150
 70
64
 10
0
 20
0
 30
0
  3
AIGNBL01010150
  0
POLYLINE
  8
LAYER_1
 40
0.1058
 41
0.1058
 66
1
 10
0
 20
0
 30
0
  0
VERTEX
  8
LAYER_1
 10
178.3948
 20
-168.7375
  0
VERTEX
  8
LAYER_1
 10
178.4881
 20
-168.8773
  0
VERTEX
  8
LAYER_1
 10
178.5197
 20
-169.0238
  0
SEQEND
  0
ENDBLK
  0
BLOCK
  8
LAYER_1
  2
AIGNBL01010151
 70
64
 10
0
 20
0
 30
0
  3
AIGNBL01010151
  0
POLYLINE
  8
LAYER_1
 40
0.1058
 41
0.1058
 66
1
 10
0
 20
0
 30
0
  0
VERTEX
  8
LAYER_1
 10
174.915
 20
-172.3184
  0
VERTEX
  8
LAYER_1
 10
174.8761
 20
-172.3491
  0
VERTEX
  8
LAYER_1
 10
174.7697
 20
-172.4442
  0
SEQEND
  0
ENDBLK
  0
BLOCK
  8
LAYER_1
  2
AIGNBL01010152
 70
64
 10
0
 20
0
 30
0
  3
AIGNBL01010152
  0
POLYLINE
  8
LAYER_1
 40
0.1058
 41
0.1058
 66
1
 10
0
 20
0
 30
0
  0
VERTEX
  8
LAYER_1
 10
174.7697
 20
-175.9957
  0
VERTEX
  8
LAYER_1
 10
174.8035
 20
-176.0279
  0
VERTEX
  8
LAYER_1
 10
174.915
 20
-176.1216
  0
SEQEND
  0
ENDBLK
  0
BLOCK
  8
LAYER_1
  2
AIGNBL01010153
 70
64
 10
0
 20
0
 30
0
  3
AIGNBL01010153
  0
POLYLINE
  8
LAYER_1
 40
0.1058
 41
0.1058
 66
1
 10
0
 20
0
 30
0
  0
VERTEX
  8
LAYER_1
 10
176.3242
 20
-176.6534
  0
VERTEX
  8
LAYER_1
 10
176.4947
 20
-176.6815
  0
VERTEX
  8
LAYER_1
 10
176.9994
 20
-176.7233
  0
SEQEND
  0
ENDBLK
  0
BLOCK
  8
LAYER_1
  2
AIGNBL01010154
 70
64
 10
0
 20
0
 30
0
  3
AIGNBL01010154
  0
POLYLINE
  8
LAYER_1
 40
0.1058
 41
0.1058
 66
1
 10
0
 20
0
 30
0
  0
VERTEX
  8
LAYER_1
 10
174.915
 20
-176.1216
  0
VERTEX
  8
LAYER_1
 10
175.082
 20
-176.2105
  0
VERTEX
  8
LAYER_1
 10
175.5903
 20
-176.4415
  0
SEQEND
  0
ENDBLK
  0
BLOCK
  8
LAYER_1
  2
AIGNBL01010155
 70
64
 10
0
 20
0
 30
0
  3
AIGNBL01010155
  0
POLYLINE
  8
LAYER_1
 40
0.1058
 41
0.1058
 66
1
 10
0
 20
0
 30
0
  0
VERTEX
  8
LAYER_1
 10
178.4115
 20
-171.7866
  0
VERTEX
  8
LAYER_1
 10
178.4055
 20
-171.7571
  0
VERTEX
  8
LAYER_1
 10
178.3864
 20
-171.6656
  0
SEQEND
  0
ENDBLK
  0
BLOCK
  8
LAYER_1
  2
AIGNBL01010156
 70
64
 10
0
 20
0
 30
0
  3
AIGNBL01010156
  0
POLYLINE
  8
LAYER_1
 40
0.1058
 41
0.1058
 66
1
 10
0
 20
0
 30
0
  0
VERTEX
  8
LAYER_1
 10
175.5903
 20
-171.9985
  0
VERTEX
  8
LAYER_1
 10
175.4197
 20
-172.0688
  0
VERTEX
  8
LAYER_1
 10
174.915
 20
-172.3184
  0
SEQEND
  0
ENDBLK
  0
BLOCK
  8
LAYER_1
  2
AIGNBL01010157
 70
64
 10
0
 20
0
 30
0
  3
AIGNBL01010157
  0
POLYLINE
  8
LAYER_1
 40
0.1058
 41
0.1058
 66
1
 10
0
 20
0
 30
0
  0
VERTEX
  8
LAYER_1
 10
178.4115
 20
-170.1581
  0
VERTEX
  8
LAYER_1
 10
178.4055
 20
-170.1877
  0
VERTEX
  8
LAYER_1
 10
178.3864
 20
-170.2791
  0
SEQEND
  0
ENDBLK
  0
BLOCK
  8
LAYER_1
  2
AIGNBL01010158
 70
64
 10
0
 20
0
 30
0
  3
AIGNBL01010158
  0
POLYLINE
  8
LAYER_1
 40
0.1058
 41
0.1058
 66
1
 10
0
 20
0
 30
0
  0
VERTEX
  8
LAYER_1
 10
175.7697
 20
-172.5962
  0
VERTEX
  8
LAYER_1
 10
175.804
 20
-172.8013
  0
VERTEX
  8
LAYER_1
 10
175.8994
 20
-172.9842
  0
VERTEX
  8
LAYER_1
 10
176.0406
 20
-173.1362
  0
VERTEX
  8
LAYER_1
 10
176.2166
 20
-173.257
  0
VERTEX
  8
LAYER_1
 10
176.4207
 20
-173.3502
  0
VERTEX
  8
LAYER_1
 10
176.6479
 20
-173.4171
 42
0.05471164673
  0
VERTEX
  8
LAYER_1
 10
177.1447
 20
-173.4712
  0
VERTEX
  8
LAYER_1
 10
177.1558
 20
-173.4712
  0
SEQEND
  0
ENDBLK
  0
BLOCK
  8
LAYER_1
  2
AIGNBL01010159
 70
64
 10
0
 20
0
 30
0
  3
AIGNBL01010159
  0
POLYLINE
  8
LAYER_1
 40
0.1058
 41
0.1058
 66
1
 10
0
 20
0
 30
0
  0
VERTEX
  8
LAYER_1
 10
176.401
 20
-170.7169
  0
VERTEX
  8
LAYER_1
 10
176.5291
 20
-170.7585
 42
0.04817334664
  0
VERTEX
  8
LAYER_1
 10
176.9603
 20
-170.8328
  0
SEQEND
  0
ENDBLK
  0
BLOCK
  8
LAYER_1
  2
AIGNBL0101015A
 70
64
 10
0
 20
0
 30
0
  3
AIGNBL0101015A
  0
POLYLINE
  8
LAYER_1
 40
0.1058
 41
0.1058
 66
1
 10
0
 20
0
 30
0
  0
VERTEX
  8
LAYER_1
 10
176.896
 20
-170.957
  0
VERTEX
  8
LAYER_1
 10
176.913
 20
-170.888
  0
VERTEX
  8
LAYER_1
 10
176.9603
 20
-170.8328
  0
SEQEND
  0
ENDBLK
  0
BLOCK
  8
LAYER_1
  2
AIGNBL0101015B
 70
64
 10
0
 20
0
 30
0
  3
AIGNBL0101015B
  0
POLYLINE
  8
LAYER_1
 40
0.1058
 41
0.1058
 66
1
 10
0
 20
0
 30
0
  0
VERTEX
  8
LAYER_1
 10
177.1447
 20
-172.5207
 42
-0.1822744467
  0
VERTEX
  8
LAYER_1
 10
177.0115
 20
-172.4725
  0
VERTEX
  8
LAYER_1
 10
176.97
 20
-172.4157
  0
VERTEX
  8
LAYER_1
 10
176.9603
 20
-172.3483
  0
SEQEND
  0
ENDBLK
  0
BLOCK
  8
LAYER_1
  2
AIGNBL0101015C
 70
64
 10
0
 20
0
 30
0
  3
AIGNBL0101015C
  0
POLYLINE
  8
LAYER_1
 40
0.1058
 41
0.1058
 66
1
 10
0
 20
0
 30
0
  0
VERTEX
  8
LAYER_1
 10
176.1026
 20
-170.6897
  0
VERTEX
  8
LAYER_1
 10
176.1051
 20
-170.6555
  0
VERTEX
  8
LAYER_1
 10
176.1401
 20
-170.5865
  0
SEQEND
  0
ENDBLK
  0
BLOCK
  8
LAYER_1
  2
AIGNBL0101015D
 70
64
 10
0
 20
0
 30
0
  3
AIGNBL0101015D
  0
POLYLINE
  8
LAYER_1
 40
0.1058
 41
0.1058
 66
1
 10
0
 20
0
 30
0
  0
VERTEX
  8
LAYER_1
 10
176.1401
 20
-172.102
  0
VERTEX
  8
LAYER_1
 10
176.1242
 20
-172.0635
  0
VERTEX
  8
LAYER_1
 10
176.1026
 20
-171.9454
  0
SEQEND
  0
ENDBLK
  0
BLOCK
  8
LAYER_1
  2
AIGNBL0101015E
 70
64
 10
0
 20
0
 30
0
  3
AIGNBL0101015E
  0
POLYLINE
  8
LAYER_1
 40
0.1058
 41
0.1058
 66
1
 10
0
 20
0
 30
0
  0
VERTEX
  8
LAYER_1
 10
175.9197
 20
-171.7246
  0
VERTEX
  8
LAYER_1
 10
175.9164
 20
-171.7868
  0
VERTEX
  8
LAYER_1
 10
175.9084
 20
-171.8224
  0
SEQEND
  0
ENDBLK
  0
BLOCK
  8
LAYER_1
  2
AIGNBL0101015F
 70
64
 10
0
 20
0
 30
0
  3
AIGNBL0101015F
  0
POLYLINE
  8
LAYER_1
 40
0.1058
 41
0.1058
 66
1
 10
0
 20
0
 30
0
  0
VERTEX
  8
LAYER_1
 10
175.9084
 20
-171.8224
  0
VERTEX
  8
LAYER_1
 10
175.9401
 20
-171.897
 42
0.10940203
  0
VERTEX
  8
LAYER_1
 10
176.1401
 20
-172.102
  0
SEQEND
  0
ENDBLK
  0
BLOCK
  8
LAYER_1
  2
AIGNBL01010160
 70
64
 10
0
 20
0
 30
0
  3
AIGNBL01010160
  0
POLYLINE
  8
LAYER_1
 40
0.1058
 41
0.1058
 66
1
 10
0
 20
0
 30
0
  0
VERTEX
  8
LAYER_1
 10
174.7697
 20
-173.6477
  0
VERTEX
  8
LAYER_1
 10
174.8035
 20
-173.6799
  0
VERTEX
  8
LAYER_1
 10
174.915
 20
-173.7735
  0
SEQEND
  0
ENDBLK
  0
BLOCK
  8
LAYER_1
  2
AIGNBL01010161
 70
64
 10
0
 20
0
 30
0
  3
AIGNBL01010161
  0
POLYLINE
  8
LAYER_1
 40
0.1058
 41
0.1058
 66
1
 10
0
 20
0
 30
0
  0
VERTEX
  8
LAYER_1
 10
174.7697
 20
-173.1328
 42
0.127253381
  0
VERTEX
  8
LAYER_1
 10
175.0554
 20
-173.5241
  0
VERTEX
  8
LAYER_1
 10
175.2952
 20
-173.6954
  0
VERTEX
  8
LAYER_1
 10
175.5903
 20
-173.8434
  0
SEQEND
  0
ENDBLK
  0
BLOCK
  8
LAYER_1
  2
AIGNBL01010162
 70
64
 10
0
 20
0
 30
0
  3
AIGNBL01010162
  0
POLYLINE
  8
LAYER_1
 40
0.1058
 41
0.1058
 66
1
 10
0
 20
0
 30
0
  0
VERTEX
  8
LAYER_1
 10
176.3242
 20
-174.0553
  0
VERTEX
  8
LAYER_1
 10
176.5759
 20
-174.0932
 42
0.0411010168
  0
VERTEX
  8
LAYER_1
 10
177.3601
 20
-174.1224
  0
VERTEX
  8
LAYER_1
 10
177.9275
 20
-174.0702
  0
SEQEND
  0
ENDBLK
  0
BLOCK
  8
LAYER_1
  2
AIGNBL01010163
 70
64
 10
0
 20
0
 30
0
  3
AIGNBL01010163
  0
POLYLINE
  8
LAYER_1
 40
0.1058
 41
0.1058
 66
1
 10
0
 20
0
 30
0
  0
VERTEX
  8
LAYER_1
 10
176.1401
 20
-172.102
 42
0.1497845738
  0
VERTEX
  8
LAYER_1
 10
176.1566
 20
-172.2402
  0
VERTEX
  8
LAYER_1
 10
176.1927
 20
-172.2966
  0
VERTEX
  8
LAYER_1
 10
176.2403
 20
-172.3333
  0
VERTEX
  8
LAYER_1
 10
176.2934
 20
-172.347
  0
VERTEX
  8
LAYER_1
 10
176.345
 20
-172.3344
  0
VERTEX
  8
LAYER_1
 10
176.3847
 20
-172.2944
  0
VERTEX
  8
LAYER_1
 10
176.401
 20
-172.2325
  0
SEQEND
  0
ENDBLK
  0
BLOCK
  8
LAYER_1
  2
AIGNBL01010164
 70
64
 10
0
 20
0
 30
0
  3
AIGNBL01010164
  0
POLYLINE
  8
LAYER_1
 40
0.1058
 41
0.1058
 66
1
 10
0
 20
0
 30
0
  0
VERTEX
  8
LAYER_1
 10
175.5903
 20
-171.9985
 42
0.05175928086
  0
VERTEX
  8
LAYER_1
 10
175.2086
 20
-172.2013
 42
0.07104531702
  0
VERTEX
  8
LAYER_1
 10
174.9302
 20
-172.4424
  0
SEQEND
  0
ENDBLK
  0
BLOCK
  8
LAYER_1
  2
AIGNBL01010165
 70
64
 10
0
 20
0
 30
0
  3
AIGNBL01010165
  0
POLYLINE
  8
LAYER_1
 40
0.1058
 41
0.1058
 66
1
 10
0
 20
0
 30
0
  0
VERTEX
  8
LAYER_1
 10
174.9302
 20
-172.4424
  0
VERTEX
  8
LAYER_1
 10
174.9141
 20
-172.4615
  0
VERTEX
  8
LAYER_1
 10
174.8699
 20
-172.5194
  0
SEQEND
  0
ENDBLK
  0
BLOCK
  8
LAYER_1
  2
AIGNBL01010166
 70
64
 10
0
 20
0
 30
0
  3
AIGNBL01010166
  0
POLYLINE
  8
LAYER_1
 40
0.1058
 41
0.1058
 66
1
 10
0
 20
0
 30
0
  0
VERTEX
  8
LAYER_1
 10
174.8699
 20
-172.5194
  0
VERTEX
  8
LAYER_1
 10
174.8391
 20
-172.566
  0
VERTEX
  8
LAYER_1
 10
174.7697
 20
-172.7091
  0
SEQEND
  0
ENDBLK
  0
BLOCK
  8
LAYER_1
  2
AIGNBL01010167
 70
64
 10
0
 20
0
 30
0
  3
AIGNBL01010167
  0
POLYLINE
  8
LAYER_1
 40
0.1058
 41
0.1058
 66
1
 10
0
 20
0
 30
0
  0
VERTEX
  8
LAYER_1
 10
176.401
 20
-172.2325
  0
VERTEX
  8
LAYER_1
 10
176.5291
 20
-172.2741
 42
0.04839601557
  0
VERTEX
  8
LAYER_1
 10
176.9603
 20
-172.3483
  0
SEQEND
  0
ENDBLK
  0
BLOCK
  8
LAYER_1
  2
AIGNBL01010168
 70
64
 10
0
 20
0
 30
0
  3
AIGNBL01010168
  0
POLYLINE
  8
LAYER_1
 40
0.1058
 41
0.1058
 66
1
 10
0
 20
0
 30
0
  0
VERTEX
  8
LAYER_1
 10
177.175
 20
-154.4932
  0
VERTEX
  8
LAYER_1
 10
177.1447
 20
-154.4934
 42
-0.05189968504
  0
VERTEX
  8
LAYER_1
 10
176.6664
 20
-154.4458
 42
-0.06956437563
  0
VERTEX
  8
LAYER_1
 10
176.2608
 20
-154.3103
  0
VERTEX
  8
LAYER_1
 10
176.1054
 20
-154.2156
  0
VERTEX
  8
LAYER_1
 10
175.9899
 20
-154.1076
  0
VERTEX
  8
LAYER_1
 10
175.9187
 20
-153.9903
  0
VERTEX
  8
LAYER_1
 10
175.8947
 20
-153.8684
  0
SEQEND
  0
ENDBLK
  0
BLOCK
  8
LAYER_1
  2
AIGNBL01010169
 70
64
 10
0
 20
0
 30
0
  3
AIGNBL01010169
  0
POLYLINE
  8
LAYER_1
 40
0.1058
 41
0.1058
 66
1
 10
0
 20
0
 30
0
  0
VERTEX
  8
LAYER_1
 10
177.1447
 20
-170.7032
  0
VERTEX
  8
LAYER_1
 10
177.216
 20
-170.7114
  0
VERTEX
  8
LAYER_1
 10
177.278
 20
-170.7365
  0
VERTEX
  8
LAYER_1
 10
177.3195
 20
-170.7787
  0
VERTEX
  8
LAYER_1
 10
177.3292
 20
-170.8328
  0
SEQEND
  0
ENDBLK
  0
BLOCK
  8
LAYER_1
  2
AIGNBL0101016A
 70
64
 10
0
 20
0
 30
0
  3
AIGNBL0101016A
  0
POLYLINE
  8
LAYER_1
 40
0.1058
 41
0.1058
 66
1
 10
0
 20
0
 30
0
  0
VERTEX
  8
LAYER_1
 10
176.3242
 20
-174.0553
  0
VERTEX
  8
LAYER_1
 10
176.4947
 20
-174.1256
  0
VERTEX
  8
LAYER_1
 10
176.9994
 20
-174.3752
  0
SEQEND
  0
ENDBLK
  0
BLOCK
  8
LAYER_1
  2
AIGNBL0101016B
 70
64
 10
0
 20
0
 30
0
  3
AIGNBL0101016B
  0
POLYLINE
  8
LAYER_1
 40
0.1058
 41
0.1058
 66
1
 10
0
 20
0
 30
0
  0
VERTEX
  8
LAYER_1
 10
177.3292
 20
-172.3483
  0
VERTEX
  8
LAYER_1
 10
177.3195
 20
-172.4156
  0
VERTEX
  8
LAYER_1
 10
177.278
 20
-172.4724
 42
-0.1733717092
  0
VERTEX
  8
LAYER_1
 10
177.1447
 20
-172.5207
  0
SEQEND
  0
ENDBLK
  0
BLOCK
  8
LAYER_1
  2
AIGNBL0101016C
 70
64
 10
0
 20
0
 30
0
  3
AIGNBL0101016C
  0
POLYLINE
  8
LAYER_1
 40
0.1058
 41
0.1058
 66
1
 10
0
 20
0
 30
0
  0
VERTEX
  8
LAYER_1
 10
174.915
 20
-173.7735
  0
VERTEX
  8
LAYER_1
 10
175.082
 20
-173.781
  0
VERTEX
  8
LAYER_1
 10
175.5903
 20
-173.8434
  0
SEQEND
  0
ENDBLK
  0
BLOCK
  8
LAYER_1
  2
AIGNBL0101016D
 70
64
 10
0
 20
0
 30
0
  3
AIGNBL0101016D
  0
POLYLINE
  8
LAYER_1
 40
0.1058
 41
0.1058
 66
1
 10
0
 20
0
 30
0
  0
VERTEX
  8
LAYER_1
 10
178.381
 20
-171.8224
  0
VERTEX
  8
LAYER_1
 10
178.3601
 20
-171.8761
  0
SEQEND
  0
ENDBLK
  0
BLOCK
  8
LAYER_1
  2
AIGNBL0101016E
 70
64
 10
0
 20
0
 30
0
  3
AIGNBL0101016E
  0
POLYLINE
  8
LAYER_1
 40
0.1058
 41
0.1058
 66
1
 10
0
 20
0
 30
0
  0
VERTEX
  8
LAYER_1
 10
178.381
 20
-171.8224
  0
VERTEX
  8
LAYER_1
 10
178.3903
 20
-171.8653
  0
VERTEX
  8
LAYER_1
 10
178.401
 20
-171.8949
  0
VERTEX
  8
LAYER_1
 10
178.4064
 20
-171.9039
  0
VERTEX
  8
LAYER_1
 10
178.4113
 20
-171.909
  0
VERTEX
  8
LAYER_1
 10
178.4155
 20
-171.9102
  0
VERTEX
  8
LAYER_1
 10
178.4191
 20
-171.9078
  0
VERTEX
  8
LAYER_1
 10
178.4232
 20
-171.8932
  0
VERTEX
  8
LAYER_1
 10
178.4233
 20
-171.867
  0
VERTEX
  8
LAYER_1
 10
178.4192
 20
-171.8309
  0
VERTEX
  8
LAYER_1
 10
178.4115
 20
-171.7866
  0
SEQEND
  0
ENDBLK
  0
BLOCK
  8
LAYER_1
  2
AIGNBL0101016F
 70
64
 10
0
 20
0
 30
0
  3
AIGNBL0101016F
  0
POLYLINE
  8
LAYER_1
 40
0.1058
 41
0.1058
 66
1
 10
0
 20
0
 30
0
  0
VERTEX
  8
LAYER_1
 10
178.5133
 20
-169.6312
  0
VERTEX
  8
LAYER_1
 10
178.4942
 20
-169.6969
 42
-0.1000409253
  0
VERTEX
  8
LAYER_1
 10
178.3628
 20
-169.8841
  0
SEQEND
  0
ENDBLK
  0
BLOCK
  8
LAYER_1
  2
AIGNBL01010170
 70
64
 10
0
 20
0
 30
0
  3
AIGNBL01010170
  0
POLYLINE
  8
LAYER_1
 40
0.1058
 41
0.1058
 66
1
 10
0
 20
0
 30
0
  0
VERTEX
  8
LAYER_1
 10
178.5197
 20
-169.0238
  0
VERTEX
  8
LAYER_1
 10
178.4799
 20
-169.188
  0
VERTEX
  8
LAYER_1
 10
178.3629
 20
-169.3427
  0
SEQEND
  0
ENDBLK
  0
BLOCK
  8
LAYER_1
  2
AIGNBL01010171
 70
64
 10
0
 20
0
 30
0
  3
AIGNBL01010171
  0
POLYLINE
  8
LAYER_1
 40
0.1058
 41
0.1058
 66
1
 10
0
 20
0
 30
0
  0
VERTEX
  8
LAYER_1
 10
176.9603
 20
-170.8328
  0
VERTEX
  8
LAYER_1
 10
176.97
 20
-170.7786
  0
VERTEX
  8
LAYER_1
 10
177.0115
 20
-170.7365
  0
VERTEX
  8
LAYER_1
 10
177.0736
 20
-170.7114
  0
VERTEX
  8
LAYER_1
 10
177.1447
 20
-170.7032
  0
SEQEND
  0
ENDBLK
  0
BLOCK
  8
LAYER_1
  2
AIGNBL01010172
 70
64
 10
0
 20
0
 30
0
  3
AIGNBL01010172
  0
POLYLINE
  8
LAYER_1
 40
0.1058
 41
0.1058
 66
1
 10
0
 20
0
 30
0
  0
VERTEX
  8
LAYER_1
 10
177.1447
 20
-169.6488
 42
-0.05185304313
  0
VERTEX
  8
LAYER_1
 10
176.6663
 20
-169.6012
 42
-0.06937784858
  0
VERTEX
  8
LAYER_1
 10
176.2608
 20
-169.4658
  0
VERTEX
  8
LAYER_1
 10
176.1054
 20
-169.3711
  0
VERTEX
  8
LAYER_1
 10
175.9899
 20
-169.263
  0
VERTEX
  8
LAYER_1
 10
175.9188
 20
-169.1458
  0
VERTEX
  8
LAYER_1
 10
175.8947
 20
-169.0238
  0
SEQEND
  0
ENDBLK
  0
BLOCK
  8
LAYER_1
  2
AIGNBL01010173
 70
64
 10
0
 20
0
 30
0
  3
AIGNBL01010173
  0
POLYLINE
  8
LAYER_1
 40
0.1058
 41
0.1058
 66
1
 10
0
 20
0
 30
0
  0
VERTEX
  8
LAYER_1
 10
175.7698
 20
-172.3797
  0
VERTEX
  8
LAYER_1
 10
175.8012
 20
-172.5258
  0
VERTEX
  8
LAYER_1
 10
175.894
 20
-172.6653
  0
SEQEND
  0
ENDBLK
  0
BLOCK
  8
LAYER_1
  2
AIGNBL01010174
 70
64
 10
0
 20
0
 30
0
  3
AIGNBL01010174
  0
POLYLINE
  8
LAYER_1
 40
0.1058
 41
0.1058
 66
1
 10
0
 20
0
 30
0
  0
VERTEX
  8
LAYER_1
 10
175.894
 20
-172.6653
 42
0.06919043553
  0
VERTEX
  8
LAYER_1
 10
176.1056
 20
-172.8299
  0
VERTEX
  8
LAYER_1
 10
176.4013
 20
-172.958
  0
VERTEX
  8
LAYER_1
 10
176.7573
 20
-173.0393
  0
VERTEX
  8
LAYER_1
 10
177.1447
 20
-173.0672
  0
VERTEX
  8
LAYER_1
 10
177.151
 20
-173.0672
  0
SEQEND
  0
ENDBLK
  0
BLOCK
  8
LAYER_1
  2
AIGNBL01010175
 70
64
 10
0
 20
0
 30
0
  3
AIGNBL01010175
  0
POLYLINE
  8
LAYER_1
 40
0.1058
 41
0.1058
 66
1
 10
0
 20
0
 30
0
  0
VERTEX
  8
LAYER_1
 10
175.7698
 20
-172.5962
  0
VERTEX
  8
LAYER_1
 10
175.7962
 20
-172.7303
  0
VERTEX
  8
LAYER_1
 10
175.8744
 20
-172.8593
  0
VERTEX
  8
LAYER_1
 10
176.0015
 20
-172.9781
  0
VERTEX
  8
LAYER_1
 10
176.1725
 20
-173.0823
 42
0.06219603928
  0
VERTEX
  8
LAYER_1
 10
176.6185
 20
-173.2313
 42
0.04999853265
  0
VERTEX
  8
LAYER_1
 10
177.1447
 20
-173.2837
  0
VERTEX
  8
LAYER_1
 10
177.1495
 20
-173.2837
  0
SEQEND
  0
ENDBLK
  0
BLOCK
  8
LAYER_1
  2
AIGNBL01010176
 70
64
 10
0
 20
0
 30
0
  3
AIGNBL01010176
  0
POLYLINE
  8
LAYER_1
 40
0.1058
 41
0.1058
 66
1
 10
0
 20
0
 30
0
  0
VERTEX
  8
LAYER_1
 10
176.401
 20
-170.7169
 42
0.1404450988
  0
VERTEX
  8
LAYER_1
 10
176.345
 20
-170.5985
  0
VERTEX
  8
LAYER_1
 10
176.2934
 20
-170.5498
  0
VERTEX
  8
LAYER_1
 10
176.2403
 20
-170.5159
  0
VERTEX
  8
LAYER_1
 10
176.1927
 20
-170.4994
  0
VERTEX
  8
LAYER_1
 10
176.1566
 20
-170.5043
  0
VERTEX
  8
LAYER_1
 10
176.1446
 20
-170.5159
  0
VERTEX
  8
LAYER_1
 10
176.1376
 20
-170.5339
  0
VERTEX
  8
LAYER_1
 10
176.1361
 20
-170.5579
  0
VERTEX
  8
LAYER_1
 10
176.1401
 20
-170.5865
  0
SEQEND
  0
ENDBLK
  0
BLOCK
  8
LAYER_1
  2
AIGNBL01010177
 70
64
 10
0
 20
0
 30
0
  3
AIGNBL01010177
  0
POLYLINE
  8
LAYER_1
 40
0.1058
 41
0.1058
 66
1
 10
0
 20
0
 30
0
  0
VERTEX
  8
LAYER_1
 10
175.878
 20
-171.7866
  0
VERTEX
  8
LAYER_1
 10
175.8703
 20
-171.8309
  0
VERTEX
  8
LAYER_1
 10
175.8662
 20
-171.867
  0
VERTEX
  8
LAYER_1
 10
175.8662
 20
-171.8932
  0
VERTEX
  8
LAYER_1
 10
175.8704
 20
-171.9078
  0
VERTEX
  8
LAYER_1
 10
175.8739
 20
-171.9102
  0
VERTEX
  8
LAYER_1
 10
175.8782
 20
-171.909
  0
VERTEX
  8
LAYER_1
 10
175.8831
 20
-171.9039
  0
VERTEX
  8
LAYER_1
 10
175.8884
 20
-171.8949
  0
VERTEX
  8
LAYER_1
 10
175.8992
 20
-171.8653
  0
VERTEX
  8
LAYER_1
 10
175.9084
 20
-171.8224
  0
SEQEND
  0
ENDBLK
  0
BLOCK
  8
LAYER_1
  2
AIGNBL01010178
 70
64
 10
0
 20
0
 30
0
  3
AIGNBL01010178
  0
POLYLINE
  8
LAYER_1
 40
0.1058
 41
0.1058
 66
1
 10
0
 20
0
 30
0
  0
VERTEX
  8
LAYER_1
 10
175.7761
 20
-169.6312
 42
0.1927419307
  0
VERTEX
  8
LAYER_1
 10
176.0167
 20
-169.9578
 42
0.06272402767
  0
VERTEX
  8
LAYER_1
 10
176.2204
 20
-170.0741
  0
VERTEX
  8
LAYER_1
 10
176.4226
 20
-170.1502
  0
VERTEX
  8
LAYER_1
 10
176.6492
 20
-170.2064
 42
0.04676950534
  0
VERTEX
  8
LAYER_1
 10
177.1447
 20
-170.2526
  0
SEQEND
  0
ENDBLK
  0
BLOCK
  8
LAYER_1
  2
AIGNBL01010179
 70
64
 10
0
 20
0
 30
0
  3
AIGNBL01010179
  0
POLYLINE
  8
LAYER_1
 40
0.1058
 41
0.1058
 66
1
 10
0
 20
0
 30
0
  0
VERTEX
  8
LAYER_1
 10
175.7698
 20
-169.0238
  0
VERTEX
  8
LAYER_1
 10
175.7962
 20
-169.158
  0
VERTEX
  8
LAYER_1
 10
175.8744
 20
-169.2869
  0
VERTEX
  8
LAYER_1
 10
176.0015
 20
-169.4058
  0
VERTEX
  8
LAYER_1
 10
176.1725
 20
-169.51
 42
0.06195593787
  0
VERTEX
  8
LAYER_1
 10
176.6185
 20
-169.659
 42
0.0498907339
  0
VERTEX
  8
LAYER_1
 10
177.1447
 20
-169.7113
  0
SEQEND
  0
ENDBLK
  0
BLOCK
  8
LAYER_1
  2
AIGNBL0101017A
 70
64
 10
0
 20
0
 30
0
  3
AIGNBL0101017A
  0
POLYLINE
  8
LAYER_1
 40
0.1058
 41
0.1058
 66
1
 10
0
 20
0
 30
0
  0
VERTEX
  8
LAYER_1
 10
178.381
 20
-170.3068
  0
VERTEX
  8
LAYER_1
 10
178.3601
 20
-170.3606
  0
SEQEND
  0
ENDBLK
  0
BLOCK
  8
LAYER_1
  2
AIGNBL0101017B
 70
64
 10
0
 20
0
 30
0
  3
AIGNBL0101017B
  0
POLYLINE
  8
LAYER_1
 40
0.1058
 41
0.1058
 66
1
 10
0
 20
0
 30
0
  0
VERTEX
  8
LAYER_1
 10
175.9084
 20
-170.3068
  0
VERTEX
  8
LAYER_1
 10
175.9146
 20
-170.3257
  0
VERTEX
  8
LAYER_1
 10
175.9402
 20
-170.3816
  0
SEQEND
  0
ENDBLK
  0
BLOCK
  8
LAYER_1
  2
AIGNBL0101017C
 70
64
 10
0
 20
0
 30
0
  3
AIGNBL0101017C
  0
POLYLINE
  8
LAYER_1
 40
0.1058
 41
0.1058
 66
1
 10
0
 20
0
 30
0
  0
VERTEX
  8
LAYER_1
 10
175.9402
 20
-170.3816
  0
VERTEX
  8
LAYER_1
 10
175.9725
 20
-170.4316
  0
SEQEND
  0
ENDBLK
  0
BLOCK
  8
LAYER_1
  2
AIGNBL0101017D
 70
64
 10
0
 20
0
 30
0
  3
AIGNBL0101017D
  0
POLYLINE
  8
LAYER_1
 40
0.1058
 41
0.1058
 66
1
 10
0
 20
0
 30
0
  0
VERTEX
  8
LAYER_1
 10
175.9725
 20
-170.4316
  0
VERTEX
  8
LAYER_1
 10
176.0061
 20
-170.4725
  0
VERTEX
  8
LAYER_1
 10
176.1401
 20
-170.5865
  0
SEQEND
  0
ENDBLK
  0
BLOCK
  8
LAYER_1
  2
AIGNBL0101017E
 70
64
 10
0
 20
0
 30
0
  3
AIGNBL0101017E
  0
POLYLINE
  8
LAYER_1
 40
0.1058
 41
0.1058
 66
1
 10
0
 20
0
 30
0
  0
VERTEX
  8
LAYER_1
 10
178.381
 20
-171.8224
  0
VERTEX
  8
LAYER_1
 10
178.3731
 20
-171.7868
  0
VERTEX
  8
LAYER_1
 10
178.3697
 20
-171.7246
  0
SEQEND
  0
ENDBLK
  0
BLOCK
  8
LAYER_1
  2
AIGNBL0101017F
 70
64
 10
0
 20
0
 30
0
  3
AIGNBL0101017F
  0
POLYLINE
  8
LAYER_1
 40
0.1058
 41
0.1058
 66
1
 10
0
 20
0
 30
0
  0
VERTEX
  8
LAYER_1
 10
178.3947
 20
-169.0238
  0
VERTEX
  8
LAYER_1
 10
178.3927
 20
-169.0597
  0
VERTEX
  8
LAYER_1
 10
178.3618
 20
-169.1663
  0
SEQEND
  0
ENDBLK
  0
BLOCK
  8
LAYER_1
  2
AIGNBL01010180
 70
64
 10
0
 20
0
 30
0
  3
AIGNBL01010180
  0
POLYLINE
  8
LAYER_1
 40
0.1058
 41
0.1058
 66
1
 10
0
 20
0
 30
0
  0
VERTEX
  8
LAYER_1
 10
178.3947
 20
-153.8684
  0
VERTEX
  8
LAYER_1
 10
178.3926
 20
-153.9047
  0
VERTEX
  8
LAYER_1
 10
178.3612
 20
-154.0122
  0
SEQEND
  0
ENDBLK
  0
BLOCK
  8
LAYER_1
  2
AIGNBL01010181
 70
64
 10
0
 20
0
 30
0
  3
AIGNBL01010181
  0
POLYLINE
  8
LAYER_1
 40
0.1058
 41
0.1058
 66
1
 10
0
 20
0
 30
0
  0
VERTEX
  8
LAYER_1
 10
176.9603
 20
-172.3483
  0
VERTEX
  8
LAYER_1
 10
176.913
 20
-172.2851
  0
VERTEX
  8
LAYER_1
 10
176.896
 20
-172.2128
  0
SEQEND
  0
ENDBLK
  0
BLOCK
  8
LAYER_1
  2
AIGNBL01010182
 70
64
 10
0
 20
0
 30
0
  3
AIGNBL01010182
  0
POLYLINE
  8
LAYER_1
 40
0.1058
 41
0.1058
 66
1
 10
0
 20
0
 30
0
  0
VERTEX
  8
LAYER_1
 10
176.4544
 20
-172.1213
  0
VERTEX
  8
LAYER_1
 10
176.44
 20
-172.1872
  0
VERTEX
  8
LAYER_1
 10
176.401
 20
-172.2325
  0
SEQEND
  0
ENDBLK
  0
BLOCK
  8
LAYER_1
  2
AIGNBL01010183
 70
64
 10
0
 20
0
 30
0
  3
AIGNBL01010183
  0
POLYLINE
  8
LAYER_1
 40
0.1058
 41
0.1058
 66
1
 10
0
 20
0
 30
0
  0
VERTEX
  8
LAYER_1
 10
176.401
 20
-170.7169
  0
VERTEX
  8
LAYER_1
 10
176.423
 20
-170.7525
  0
VERTEX
  8
LAYER_1
 10
176.4544
 20
-170.8656
  0
SEQEND
  0
ENDBLK
  0
BLOCK
  8
LAYER_1
  2
AIGNBL01010184
 70
64
 10
0
 20
0
 30
0
  3
AIGNBL01010184
  0
POLYLINE
  8
LAYER_1
 40
0.1058
 41
0.1058
 66
1
 10
0
 20
0
 30
0
  0
VERTEX
  8
LAYER_1
 10
180.6447
 20
-168.3363
 42
-0.0518132979
  0
VERTEX
  8
LAYER_1
 10
181.171
 20
-168.3887
 42
-0.06890090334
  0
VERTEX
  8
LAYER_1
 10
181.617
 20
-168.5377
  0
VERTEX
  8
LAYER_1
 10
181.788
 20
-168.6419
  0
VERTEX
  8
LAYER_1
 10
181.9151
 20
-168.7607
  0
VERTEX
  8
LAYER_1
 10
181.9933
 20
-168.8897
  0
VERTEX
  8
LAYER_1
 10
182.0197
 20
-169.0238
  0
SEQEND
  0
ENDBLK
  0
BLOCK
  8
LAYER_1
  2
AIGNBL01010185
 70
64
 10
0
 20
0
 30
0
  3
AIGNBL01010185
  0
POLYLINE
  8
LAYER_1
 40
0.1058
 41
0.1058
 66
1
 10
0
 20
0
 30
0
  0
VERTEX
  8
LAYER_1
 10
181.881
 20
-170.3068
  0
VERTEX
  8
LAYER_1
 10
181.8865
 20
-170.2787
  0
VERTEX
  8
LAYER_1
 10
181.9064
 20
-170.1834
  0
SEQEND
  0
ENDBLK
  0
BLOCK
  8
LAYER_1
  2
AIGNBL01010186
 70
64
 10
0
 20
0
 30
0
  3
AIGNBL01010186
  0
POLYLINE
  8
LAYER_1
 40
0.1058
 41
0.1058
 66
1
 10
0
 20
0
 30
0
  0
VERTEX
  8
LAYER_1
 10
181.881
 20
-170.3068
  0
VERTEX
  8
LAYER_1
 10
181.8767
 20
-170.3478
  0
VERTEX
  8
LAYER_1
 10
181.8697
 20
-170.4689
  0
SEQEND
  0
ENDBLK
  0
BLOCK
  8
LAYER_1
  2
AIGNBL01010187
 70
64
 10
0
 20
0
 30
0
  3
AIGNBL01010187
  0
POLYLINE
  8
LAYER_1
 40
0.1058
 41
0.1058
 66
1
 10
0
 20
0
 30
0
  0
VERTEX
  8
LAYER_1
 10
181.881
 20
-171.6379
  0
VERTEX
  8
LAYER_1
 10
181.8767
 20
-171.5969
  0
VERTEX
  8
LAYER_1
 10
181.8697
 20
-171.4759
  0
SEQEND
  0
ENDBLK
  0
BLOCK
  8
LAYER_1
  2
AIGNBL01010188
 70
64
 10
0
 20
0
 30
0
  3
AIGNBL01010188
  0
POLYLINE
  8
LAYER_1
 40
0.1058
 41
0.1058
 66
1
 10
0
 20
0
 30
0
  0
VERTEX
  8
LAYER_1
 10
179.4197
 20
-171.4759
  0
VERTEX
  8
LAYER_1
 10
179.4188
 20
-171.5141
  0
VERTEX
  8
LAYER_1
 10
179.4084
 20
-171.6379
  0
SEQEND
  0
ENDBLK
  0
BLOCK
  8
LAYER_1
  2
AIGNBL01010189
 70
64
 10
0
 20
0
 30
0
  3
AIGNBL01010189
  0
POLYLINE
  8
LAYER_1
 40
0.1058
 41
0.1058
 66
1
 10
0
 20
0
 30
0
  0
VERTEX
  8
LAYER_1
 10
179.4197
 20
-170.4689
  0
VERTEX
  8
LAYER_1
 10
179.4188
 20
-170.4307
  0
VERTEX
  8
LAYER_1
 10
179.4084
 20
-170.3068
  0
SEQEND
  0
ENDBLK
  0
BLOCK
  8
LAYER_1
  2
AIGNBL0101018A
 70
64
 10
0
 20
0
 30
0
  3
AIGNBL0101018A
  0
POLYLINE
  8
LAYER_1
 40
0.1058
 41
0.1058
 66
1
 10
0
 20
0
 30
0
  0
VERTEX
  8
LAYER_1
 10
182.2685
 20
-174.8338
  0
VERTEX
  8
LAYER_1
 10
182.2904
 20
-174.8532
  0
VERTEX
  8
LAYER_1
 10
182.3503
 20
-174.9131
  0
SEQEND
  0
ENDBLK
  0
BLOCK
  8
LAYER_1
  2
AIGNBL0101018B
 70
64
 10
0
 20
0
 30
0
  3
AIGNBL0101018B
  0
POLYLINE
  8
LAYER_1
 40
0.1058
 41
0.1058
 66
1
 10
0
 20
0
 30
0
  0
VERTEX
  8
LAYER_1
 10
182.3503
 20
-174.9131
  0
VERTEX
  8
LAYER_1
 10
182.377
 20
-174.9437
  0
VERTEX
  8
LAYER_1
 10
182.4437
 20
-175.0384
  0
SEQEND
  0
ENDBLK
  0
BLOCK
  8
LAYER_1
  2
AIGNBL0101018C
 70
64
 10
0
 20
0
 30
0
  3
AIGNBL0101018C
  0
POLYLINE
  8
LAYER_1
 40
0.1058
 41
0.1058
 66
1
 10
0
 20
0
 30
0
  0
VERTEX
  8
LAYER_1
 10
182.4437
 20
-175.0384
  0
VERTEX
  8
LAYER_1
 10
182.5006
 20
-175.1691
  0
VERTEX
  8
LAYER_1
 10
182.5197
 20
-175.3025
  0
SEQEND
  0
ENDBLK
  0
BLOCK
  8
LAYER_1
  2
AIGNBL0101018D
 70
64
 10
0
 20
0
 30
0
  3
AIGNBL0101018D
  0
POLYLINE
  8
LAYER_1
 40
0.1058
 41
0.1058
 66
1
 10
0
 20
0
 30
0
  0
VERTEX
  8
LAYER_1
 10
179.0209
 20
-174.8338
  0
VERTEX
  8
LAYER_1
 10
178.9991
 20
-174.8532
  0
VERTEX
  8
LAYER_1
 10
178.9392
 20
-174.9131
  0
SEQEND
  0
ENDBLK
  0
BLOCK
  8
LAYER_1
  2
AIGNBL0101018E
 70
64
 10
0
 20
0
 30
0
  3
AIGNBL0101018E
  0
POLYLINE
  8
LAYER_1
 40
0.1058
 41
0.1058
 66
1
 10
0
 20
0
 30
0
  0
VERTEX
  8
LAYER_1
 10
178.9392
 20
-174.9131
  0
VERTEX
  8
LAYER_1
 10
178.9125
 20
-174.9437
  0
VERTEX
  8
LAYER_1
 10
178.8457
 20
-175.0384
  0
SEQEND
  0
ENDBLK
  0
BLOCK
  8
LAYER_1
  2
AIGNBL0101018F
 70
64
 10
0
 20
0
 30
0
  3
AIGNBL0101018F
  0
POLYLINE
  8
LAYER_1
 40
0.1058
 41
0.1058
 66
1
 10
0
 20
0
 30
0
  0
VERTEX
  8
LAYER_1
 10
178.8457
 20
-175.0384
  0
VERTEX
  8
LAYER_1
 10
178.7888
 20
-175.1691
  0
VERTEX
  8
LAYER_1
 10
178.7698
 20
-175.3025
  0
SEQEND
  0
ENDBLK
  0
BLOCK
  8
LAYER_1
  2
AIGNBL01010190
 70
64
 10
0
 20
0
 30
0
  3
AIGNBL01010190
  0
POLYLINE
  8
LAYER_1
 40
0.1058
 41
0.1058
 66
1
 10
0
 20
0
 30
0
  0
VERTEX
  8
LAYER_1
 10
181.881
 20
-171.6379
  0
VERTEX
  8
LAYER_1
 10
181.8865
 20
-171.6661
  0
VERTEX
  8
LAYER_1
 10
181.9064
 20
-171.7614
  0
SEQEND
  0
ENDBLK
  0
BLOCK
  8
LAYER_1
  2
AIGNBL01010191
 70
64
 10
0
 20
0
 30
0
  3
AIGNBL01010191
  0
POLYLINE
  8
LAYER_1
 40
0.1058
 41
0.1058
 66
1
 10
0
 20
0
 30
0
  0
VERTEX
  8
LAYER_1
 10
180.6447
 20
-168.3363
 42
0.05185321179
  0
VERTEX
  8
LAYER_1
 10
180.1185
 20
-168.3887
 42
0.0689237409
  0
VERTEX
  8
LAYER_1
 10
179.6725
 20
-168.5377
  0
VERTEX
  8
LAYER_1
 10
179.5015
 20
-168.6419
  0
VERTEX
  8
LAYER_1
 10
179.3744
 20
-168.7607
  0
VERTEX
  8
LAYER_1
 10
179.2962
 20
-168.8897
  0
VERTEX
  8
LAYER_1
 10
179.2698
 20
-169.0238
  0
SEQEND
  0
ENDBLK
  0
BLOCK
  8
LAYER_1
  2
AIGNBL01010192
 70
64
 10
0
 20
0
 30
0
  3
AIGNBL01010192
  0
POLYLINE
  8
LAYER_1
 40
0.1058
 41
0.1058
 66
1
 10
0
 20
0
 30
0
  0
VERTEX
  8
LAYER_1
 10
178.415
 20
-172.3184
  0
VERTEX
  8
LAYER_1
 10
178.3761
 20
-172.3491
  0
VERTEX
  8
LAYER_1
 10
178.2697
 20
-172.4442
  0
SEQEND
  0
ENDBLK
  0
BLOCK
  8
LAYER_1
  2
AIGNBL01010193
 70
64
 10
0
 20
0
 30
0
  3
AIGNBL01010193
  0
POLYLINE
  8
LAYER_1
 40
0.1058
 41
0.1058
 66
1
 10
0
 20
0
 30
0
  0
VERTEX
  8
LAYER_1
 10
182.8744
 20
-172.3184
  0
VERTEX
  8
LAYER_1
 10
182.9133
 20
-172.3491
  0
VERTEX
  8
LAYER_1
 10
183.0197
 20
-172.4442
  0
SEQEND
  0
ENDBLK
  0
BLOCK
  8
LAYER_1
  2
AIGNBL01010194
 70
64
 10
0
 20
0
 30
0
  3
AIGNBL01010194
  0
POLYLINE
  8
LAYER_1
 40
0.1058
 41
0.1058
 66
1
 10
0
 20
0
 30
0
  0
VERTEX
  8
LAYER_1
 10
178.2697
 20
-175.9957
  0
VERTEX
  8
LAYER_1
 10
178.3035
 20
-176.0279
  0
VERTEX
  8
LAYER_1
 10
178.415
 20
-176.1216
  0
SEQEND
  0
ENDBLK
  0
BLOCK
  8
LAYER_1
  2
AIGNBL01010195
 70
64
 10
0
 20
0
 30
0
  3
AIGNBL01010195
  0
POLYLINE
  8
LAYER_1
 40
0.1058
 41
0.1058
 66
1
 10
0
 20
0
 30
0
  0
VERTEX
  8
LAYER_1
 10
183.0197
 20
-175.9957
  0
VERTEX
  8
LAYER_1
 10
182.986
 20
-176.0279
  0
VERTEX
  8
LAYER_1
 10
182.8744
 20
-176.1216
  0
SEQEND
  0
ENDBLK
  0
BLOCK
  8
LAYER_1
  2
AIGNBL01010196
 70
64
 10
0
 20
0
 30
0
  3
AIGNBL01010196
  0
POLYLINE
  8
LAYER_1
 40
0.1058
 41
0.1058
 66
1
 10
0
 20
0
 30
0
  0
VERTEX
  8
LAYER_1
 10
181.4653
 20
-176.6534
  0
VERTEX
  8
LAYER_1
 10
181.2947
 20
-176.6815
  0
VERTEX
  8
LAYER_1
 10
180.79
 20
-176.7233
  0
SEQEND
  0
ENDBLK
  0
BLOCK
  8
LAYER_1
  2
AIGNBL01010197
 70
64
 10
0
 20
0
 30
0
  3
AIGNBL01010197
  0
POLYLINE
  8
LAYER_1
 40
0.1058
 41
0.1058
 66
1
 10
0
 20
0
 30
0
  0
VERTEX
  8
LAYER_1
 10
182.8744
 20
-176.1216
  0
VERTEX
  8
LAYER_1
 10
182.7075
 20
-176.2105
  0
VERTEX
  8
LAYER_1
 10
182.1992
 20
-176.4415
  0
SEQEND
  0
ENDBLK
  0
BLOCK
  8
LAYER_1
  2
AIGNBL01010198
 70
64
 10
0
 20
0
 30
0
  3
AIGNBL01010198
  0
POLYLINE
  8
LAYER_1
 40
0.1058
 41
0.1058
 66
1
 10
0
 20
0
 30
0
  0
VERTEX
  8
LAYER_1
 10
179.0903
 20
-176.4415
  0
VERTEX
  8
LAYER_1
 10
178.9197
 20
-176.3711
  0
VERTEX
  8
LAYER_1
 10
178.415
 20
-176.1216
  0
SEQEND
  0
ENDBLK
  0
BLOCK
  8
LAYER_1
  2
AIGNBL01010199
 70
64
 10
0
 20
0
 30
0
  3
AIGNBL01010199
  0
POLYLINE
  8
LAYER_1
 40
0.1058
 41
0.1058
 66
1
 10
0
 20
0
 30
0
  0
VERTEX
  8
LAYER_1
 10
180.4994
 20
-176.7233
  0
VERTEX
  8
LAYER_1
 10
180.3325
 20
-176.7158
  0
VERTEX
  8
LAYER_1
 10
179.8242
 20
-176.6534
  0
SEQEND
  0
ENDBLK
  0
BLOCK
  8
LAYER_1
  2
AIGNBL0101019A
 70
64
 10
0
 20
0
 30
0
  3
AIGNBL0101019A
  0
POLYLINE
  8
LAYER_1
 40
0.1058
 41
0.1058
 66
1
 10
0
 20
0
 30
0
  0
VERTEX
  8
LAYER_1
 10
179.8242
 20
-171.7866
  0
VERTEX
  8
LAYER_1
 10
179.9947
 20
-171.7585
  0
VERTEX
  8
LAYER_1
 10
180.4994
 20
-171.7167
  0
SEQEND
  0
ENDBLK
  0
BLOCK
  8
LAYER_1
  2
AIGNBL0101019B
 70
64
 10
0
 20
0
 30
0
  3
AIGNBL0101019B
  0
POLYLINE
  8
LAYER_1
 40
0.1058
 41
0.1058
 66
1
 10
0
 20
0
 30
0
  0
VERTEX
  8
LAYER_1
 10
178.415
 20
-172.3184
  0
VERTEX
  8
LAYER_1
 10
178.582
 20
-172.2295
  0
VERTEX
  8
LAYER_1
 10
179.0903
 20
-171.9985
  0
SEQEND
  0
ENDBLK
  0
BLOCK
  8
LAYER_1
  2
AIGNBL0101019C
 70
64
 10
0
 20
0
 30
0
  3
AIGNBL0101019C
  0
POLYLINE
  8
LAYER_1
 40
0.1058
 41
0.1058
 66
1
 10
0
 20
0
 30
0
  0
VERTEX
  8
LAYER_1
 10
182.1992
 20
-171.9985
  0
VERTEX
  8
LAYER_1
 10
182.3697
 20
-172.0688
  0
VERTEX
  8
LAYER_1
 10
182.8744
 20
-172.3184
  0
SEQEND
  0
ENDBLK
  0
BLOCK
  8
LAYER_1
  2
AIGNBL0101019D
 70
64
 10
0
 20
0
 30
0
  3
AIGNBL0101019D
  0
POLYLINE
  8
LAYER_1
 40
0.1058
 41
0.1058
 66
1
 10
0
 20
0
 30
0
  0
VERTEX
  8
LAYER_1
 10
180.79
 20
-171.7167
  0
VERTEX
  8
LAYER_1
 10
180.957
 20
-171.7242
  0
VERTEX
  8
LAYER_1
 10
181.4653
 20
-171.7866
  0
SEQEND
  0
ENDBLK
  0
BLOCK
  8
LAYER_1
  2
AIGNBL0101019E
 70
64
 10
0
 20
0
 30
0
  3
AIGNBL0101019E
  0
POLYLINE
  8
LAYER_1
 40
0.1058
 41
0.1058
 66
1
 10
0
 20
0
 30
0
  0
VERTEX
  8
LAYER_1
 10
179.378
 20
-171.7866
  0
VERTEX
  8
LAYER_1
 10
179.3839
 20
-171.7571
  0
VERTEX
  8
LAYER_1
 10
179.403
 20
-171.6656
  0
SEQEND
  0
ENDBLK
  0
BLOCK
  8
LAYER_1
  2
AIGNBL0101019F
 70
64
 10
0
 20
0
 30
0
  3
AIGNBL0101019F
  0
POLYLINE
  8
LAYER_1
 40
0.1058
 41
0.1058
 66
1
 10
0
 20
0
 30
0
  0
VERTEX
  8
LAYER_1
 10
179.378
 20
-170.1581
  0
VERTEX
  8
LAYER_1
 10
179.3839
 20
-170.1877
  0
VERTEX
  8
LAYER_1
 10
179.403
 20
-170.2791
  0
SEQEND
  0
ENDBLK
  0
BLOCK
  8
LAYER_1
  2
AIGNBL010101A0
 70
64
 10
0
 20
0
 30
0
  3
AIGNBL010101A0
  0
POLYLINE
  8
LAYER_1
 40
0.1058
 41
0.1058
 66
1
 10
0
 20
0
 30
0
  0
VERTEX
  8
LAYER_1
 10
180.6447
 20
-174.4565
 42
-0.06329780833
  0
VERTEX
  8
LAYER_1
 10
181.6216
 20
-174.5754
  0
VERTEX
  8
LAYER_1
 10
182.0403
 20
-174.7178
  0
VERTEX
  8
LAYER_1
 10
182.3798
 20
-174.9056
  0
SEQEND
  0
ENDBLK
  0
BLOCK
  8
LAYER_1
  2
AIGNBL010101A1
 70
64
 10
0
 20
0
 30
0
  3
AIGNBL010101A1
  0
POLYLINE
  8
LAYER_1
 40
0.1058
 41
0.1058
 66
1
 10
0
 20
0
 30
0
  0
VERTEX
  8
LAYER_1
 10
180.6447
 20
-174.4565
 42
0.06329770512
  0
VERTEX
  8
LAYER_1
 10
179.6678
 20
-174.5754
  0
VERTEX
  8
LAYER_1
 10
179.2492
 20
-174.7178
  0
VERTEX
  8
LAYER_1
 10
178.9097
 20
-174.9056
  0
SEQEND
  0
ENDBLK
  0
BLOCK
  8
LAYER_1
  2
AIGNBL010101A2
 70
64
 10
0
 20
0
 30
0
  3
AIGNBL010101A2
  0
POLYLINE
  8
LAYER_1
 40
0.1058
 41
0.1058
 66
1
 10
0
 20
0
 30
0
  0
VERTEX
  8
LAYER_1
 10
178.9097
 20
-174.9056
  0
VERTEX
  8
LAYER_1
 10
178.7211
 20
-175.0676
  0
VERTEX
  8
LAYER_1
 10
178.5924
 20
-175.2436
  0
VERTEX
  8
LAYER_1
 10
178.5275
 20
-175.4282
  0
VERTEX
  8
LAYER_1
 10
178.5285
 20
-175.6156
  0
VERTEX
  8
LAYER_1
 10
178.5954
 20
-175.8
  0
VERTEX
  8
LAYER_1
 10
178.726
 20
-175.9757
  0
VERTEX
  8
LAYER_1
 10
178.9163
 20
-176.1371
  0
VERTEX
  8
LAYER_1
 10
179.1604
 20
-176.2794
  0
SEQEND
  0
ENDBLK
  0
BLOCK
  8
LAYER_1
  2
AIGNBL010101A3
 70
64
 10
0
 20
0
 30
0
  3
AIGNBL010101A3
  0
POLYLINE
  8
LAYER_1
 40
0.1058
 41
0.1058
 66
1
 10
0
 20
0
 30
0
  0
VERTEX
  8
LAYER_1
 10
179.1604
 20
-176.2794
 42
0.06335746693
  0
VERTEX
  8
LAYER_1
 10
179.8434
 20
-176.5031
 42
0.05009693373
  0
VERTEX
  8
LAYER_1
 10
180.6447
 20
-176.5815
  0
SEQEND
  0
ENDBLK
  0
BLOCK
  8
LAYER_1
  2
AIGNBL010101A4
 70
64
 10
0
 20
0
 30
0
  3
AIGNBL010101A4
  0
POLYLINE
  8
LAYER_1
 40
0.1058
 41
0.1058
 66
1
 10
0
 20
0
 30
0
  0
VERTEX
  8
LAYER_1
 10
181.6494
 20
-169.8427
 42
0.1487645093
  0
VERTEX
  8
LAYER_1
 10
181.6329
 20
-169.7046
  0
VERTEX
  8
LAYER_1
 10
181.5967
 20
-169.6482
  0
VERTEX
  8
LAYER_1
 10
181.5492
 20
-169.6114
  0
VERTEX
  8
LAYER_1
 10
181.496
 20
-169.5978
  0
VERTEX
  8
LAYER_1
 10
181.4444
 20
-169.6103
  0
VERTEX
  8
LAYER_1
 10
181.4047
 20
-169.6503
  0
VERTEX
  8
LAYER_1
 10
181.3885
 20
-169.7123
  0
SEQEND
  0
ENDBLK
  0
BLOCK
  8
LAYER_1
  2
AIGNBL010101A5
 70
64
 10
0
 20
0
 30
0
  3
AIGNBL010101A5
  0
POLYLINE
  8
LAYER_1
 40
0.1058
 41
0.1058
 66
1
 10
0
 20
0
 30
0
  0
VERTEX
  8
LAYER_1
 10
180.6447
 20
-169.4241
 42
-0.1823909605
  0
VERTEX
  8
LAYER_1
 10
180.778
 20
-169.4723
  0
VERTEX
  8
LAYER_1
 10
180.8195
 20
-169.5291
  0
VERTEX
  8
LAYER_1
 10
180.8292
 20
-169.5965
  0
SEQEND
  0
ENDBLK
  0
BLOCK
  8
LAYER_1
  2
AIGNBL010101A6
 70
64
 10
0
 20
0
 30
0
  3
AIGNBL010101A6
  0
POLYLINE
  8
LAYER_1
 40
0.1058
 41
0.1058
 66
1
 10
0
 20
0
 30
0
  0
VERTEX
  8
LAYER_1
 10
180.6447
 20
-168.8776
 42
-0.05166223765
  0
VERTEX
  8
LAYER_1
 10
181.171
 20
-168.9299
 42
-0.06907270221
  0
VERTEX
  8
LAYER_1
 10
181.617
 20
-169.079
  0
VERTEX
  8
LAYER_1
 10
181.788
 20
-169.1831
  0
VERTEX
  8
LAYER_1
 10
181.9151
 20
-169.302
  0
VERTEX
  8
LAYER_1
 10
181.9933
 20
-169.431
  0
VERTEX
  8
LAYER_1
 10
182.0197
 20
-169.5651
  0
SEQEND
  0
ENDBLK
  0
BLOCK
  8
LAYER_1
  2
AIGNBL010101A7
 70
64
 10
0
 20
0
 30
0
  3
AIGNBL010101A7
  0
POLYLINE
  8
LAYER_1
 40
0.1058
 41
0.1058
 66
1
 10
0
 20
0
 30
0
  0
VERTEX
  8
LAYER_1
 10
180.8292
 20
-171.112
  0
VERTEX
  8
LAYER_1
 10
180.8195
 20
-171.1661
  0
VERTEX
  8
LAYER_1
 10
180.778
 20
-171.2082
  0
VERTEX
  8
LAYER_1
 10
180.716
 20
-171.2334
  0
VERTEX
  8
LAYER_1
 10
180.6447
 20
-171.2416
  0
SEQEND
  0
ENDBLK
  0
BLOCK
  8
LAYER_1
  2
AIGNBL010101A8
 70
64
 10
0
 20
0
 30
0
  3
AIGNBL010101A8
  0
POLYLINE
  8
LAYER_1
 40
0.1058
 41
0.1058
 66
1
 10
0
 20
0
 30
0
  0
VERTEX
  8
LAYER_1
 10
180.8292
 20
-171.112
  0
VERTEX
  8
LAYER_1
 10
180.9786
 20
-171.1279
 42
-0.05719620074
  0
VERTEX
  8
LAYER_1
 10
181.3885
 20
-171.2278
  0
SEQEND
  0
ENDBLK
  0
BLOCK
  8
LAYER_1
  2
AIGNBL010101A9
 70
64
 10
0
 20
0
 30
0
  3
AIGNBL010101A9
  0
POLYLINE
  8
LAYER_1
 40
0.1058
 41
0.1058
 66
1
 10
0
 20
0
 30
0
  0
VERTEX
  8
LAYER_1
 10
181.3885
 20
-171.2278
 42
0.1409236016
  0
VERTEX
  8
LAYER_1
 10
181.4444
 20
-171.3463
  0
VERTEX
  8
LAYER_1
 10
181.496
 20
-171.395
  0
VERTEX
  8
LAYER_1
 10
181.5492
 20
-171.4289
  0
VERTEX
  8
LAYER_1
 10
181.5967
 20
-171.4453
  0
VERTEX
  8
LAYER_1
 10
181.6329
 20
-171.4405
  0
VERTEX
  8
LAYER_1
 10
181.6449
 20
-171.4289
  0
VERTEX
  8
LAYER_1
 10
181.6518
 20
-171.4109
  0
VERTEX
  8
LAYER_1
 10
181.6533
 20
-171.3869
  0
VERTEX
  8
LAYER_1
 10
181.6494
 20
-171.3583
  0
SEQEND
  0
ENDBLK
  0
BLOCK
  8
LAYER_1
  2
AIGNBL010101AA
 70
64
 10
0
 20
0
 30
0
  3
AIGNBL010101AA
  0
POLYLINE
  8
LAYER_1
 40
0.1058
 41
0.1058
 66
1
 10
0
 20
0
 30
0
  0
VERTEX
  8
LAYER_1
 10
181.6494
 20
-171.3583
  0
VERTEX
  8
LAYER_1
 10
181.7066
 20
-171.4004
  0
VERTEX
  8
LAYER_1
 10
181.8347
 20
-171.5388
  0
SEQEND
  0
ENDBLK
  0
BLOCK
  8
LAYER_1
  2
AIGNBL010101AB
 70
64
 10
0
 20
0
 30
0
  3
AIGNBL010101AB
  0
POLYLINE
  8
LAYER_1
 40
0.1058
 41
0.1058
 66
1
 10
0
 20
0
 30
0
  0
VERTEX
  8
LAYER_1
 10
181.8347
 20
-171.5388
  0
VERTEX
  8
LAYER_1
 10
181.8619
 20
-171.5879
  0
SEQEND
  0
ENDBLK
  0
BLOCK
  8
LAYER_1
  2
AIGNBL010101AC
 70
64
 10
0
 20
0
 30
0
  3
AIGNBL010101AC
  0
POLYLINE
  8
LAYER_1
 40
0.1058
 41
0.1058
 66
1
 10
0
 20
0
 30
0
  0
VERTEX
  8
LAYER_1
 10
181.8619
 20
-171.5879
  0
VERTEX
  8
LAYER_1
 10
181.881
 20
-171.6379
  0
SEQEND
  0
ENDBLK
  0
BLOCK
  8
LAYER_1
  2
AIGNBL010101AD
 70
64
 10
0
 20
0
 30
0
  3
AIGNBL010101AD
  0
POLYLINE
  8
LAYER_1
 40
0.1058
 41
0.1058
 66
1
 10
0
 20
0
 30
0
  0
VERTEX
  8
LAYER_1
 10
181.6494
 20
-169.8427
  0
VERTEX
  8
LAYER_1
 10
181.6653
 20
-169.8813
  0
VERTEX
  8
LAYER_1
 10
181.6868
 20
-169.9994
  0
SEQEND
  0
ENDBLK
  0
BLOCK
  8
LAYER_1
  2
AIGNBL010101AE
 70
64
 10
0
 20
0
 30
0
  3
AIGNBL010101AE
  0
POLYLINE
  8
LAYER_1
 40
0.1058
 41
0.1058
 66
1
 10
0
 20
0
 30
0
  0
VERTEX
  8
LAYER_1
 10
180.8404
 20
-171.6992
  0
VERTEX
  8
LAYER_1
 10
180.9148
 20
-171.7056
  0
VERTEX
  8
LAYER_1
 10
181.1323
 20
-171.7368
  0
SEQEND
  0
ENDBLK
  0
BLOCK
  8
LAYER_1
  2
AIGNBL010101AF
 70
64
 10
0
 20
0
 30
0
  3
AIGNBL010101AF
  0
POLYLINE
  8
LAYER_1
 40
0.1058
 41
0.1058
 66
1
 10
0
 20
0
 30
0
  0
VERTEX
  8
LAYER_1
 10
181.6494
 20
-169.8427
  0
VERTEX
  8
LAYER_1
 10
181.7326
 20
-169.9068
 42
-0.1473304681
  0
VERTEX
  8
LAYER_1
 10
181.881
 20
-170.1224
  0
SEQEND
  0
ENDBLK
  0
BLOCK
  8
LAYER_1
  2
AIGNBL010101B0
 70
64
 10
0
 20
0
 30
0
  3
AIGNBL010101B0
  0
POLYLINE
  8
LAYER_1
 40
0.1058
 41
0.1058
 66
1
 10
0
 20
0
 30
0
  0
VERTEX
  8
LAYER_1
 10
178.415
 20
-174.6665
  0
VERTEX
  8
LAYER_1
 10
178.3761
 20
-174.6972
  0
VERTEX
  8
LAYER_1
 10
178.2697
 20
-174.7923
  0
SEQEND
  0
ENDBLK
  0
BLOCK
  8
LAYER_1
  2
AIGNBL010101B1
 70
64
 10
0
 20
0
 30
0
  3
AIGNBL010101B1
  0
POLYLINE
  8
LAYER_1
 40
0.1058
 41
0.1058
 66
1
 10
0
 20
0
 30
0
  0
VERTEX
  8
LAYER_1
 10
179.0903
 20
-174.5965
  0
VERTEX
  8
LAYER_1
 10
178.7952
 20
-174.7446
  0
VERTEX
  8
LAYER_1
 10
178.5554
 20
-174.9159
 42
0.1272561593
  0
VERTEX
  8
LAYER_1
 10
178.2697
 20
-175.3072
  0
SEQEND
  0
ENDBLK
  0
BLOCK
  8
LAYER_1
  2
AIGNBL010101B2
 70
64
 10
0
 20
0
 30
0
  3
AIGNBL010101B2
  0
POLYLINE
  8
LAYER_1
 40
0.1058
 41
0.1058
 66
1
 10
0
 20
0
 30
0
  0
VERTEX
  8
LAYER_1
 10
181.8697
 20
-170.2201
  0
VERTEX
  8
LAYER_1
 10
181.8731
 20
-170.158
  0
VERTEX
  8
LAYER_1
 10
181.881
 20
-170.1224
  0
SEQEND
  0
ENDBLK
  0
BLOCK
  8
LAYER_1
  2
AIGNBL010101B3
 70
64
 10
0
 20
0
 30
0
  3
AIGNBL010101B3
  0
POLYLINE
  8
LAYER_1
 40
0.1058
 41
0.1058
 66
1
 10
0
 20
0
 30
0
  0
VERTEX
  8
LAYER_1
 10
178.2697
 20
-175.7309
  0
VERTEX
  8
LAYER_1
 10
178.2889
 20
-175.779
  0
VERTEX
  8
LAYER_1
 10
178.3699
 20
-175.9206
  0
SEQEND
  0
ENDBLK
  0
BLOCK
  8
LAYER_1
  2
AIGNBL010101B4
 70
64
 10
0
 20
0
 30
0
  3
AIGNBL010101B4
  0
POLYLINE
  8
LAYER_1
 40
0.1058
 41
0.1058
 66
1
 10
0
 20
0
 30
0
  0
VERTEX
  8
LAYER_1
 10
178.3699
 20
-175.9206
  0
VERTEX
  8
LAYER_1
 10
178.4141
 20
-175.9785
  0
VERTEX
  8
LAYER_1
 10
178.4302
 20
-175.9975
  0
SEQEND
  0
ENDBLK
  0
BLOCK
  8
LAYER_1
  2
AIGNBL010101B5
 70
64
 10
0
 20
0
 30
0
  3
AIGNBL010101B5
  0
POLYLINE
  8
LAYER_1
 40
0.1058
 41
0.1058
 66
1
 10
0
 20
0
 30
0
  0
VERTEX
  8
LAYER_1
 10
178.4302
 20
-175.9975
 42
0.06219764808
  0
VERTEX
  8
LAYER_1
 10
178.7086
 20
-176.2387
 42
0.04518476449
  0
VERTEX
  8
LAYER_1
 10
179.0903
 20
-176.4415
  0
SEQEND
  0
ENDBLK
  0
BLOCK
  8
LAYER_1
  2
AIGNBL010101B6
 70
64
 10
0
 20
0
 30
0
  3
AIGNBL010101B6
  0
POLYLINE
  8
LAYER_1
 40
0.1058
 41
0.1058
 66
1
 10
0
 20
0
 30
0
  0
VERTEX
  8
LAYER_1
 10
183.0197
 20
-175.7309
  0
VERTEX
  8
LAYER_1
 10
183.0005
 20
-175.779
  0
VERTEX
  8
LAYER_1
 10
182.9196
 20
-175.9206
  0
SEQEND
  0
ENDBLK
  0
BLOCK
  8
LAYER_1
  2
AIGNBL010101B7
 70
64
 10
0
 20
0
 30
0
  3
AIGNBL010101B7
  0
POLYLINE
  8
LAYER_1
 40
0.1058
 41
0.1058
 66
1
 10
0
 20
0
 30
0
  0
VERTEX
  8
LAYER_1
 10
182.9196
 20
-175.9206
  0
VERTEX
  8
LAYER_1
 10
182.8753
 20
-175.9785
  0
VERTEX
  8
LAYER_1
 10
182.8593
 20
-175.9975
  0
SEQEND
  0
ENDBLK
  0
BLOCK
  8
LAYER_1
  2
AIGNBL010101B8
 70
64
 10
0
 20
0
 30
0
  3
AIGNBL010101B8
  0
POLYLINE
  8
LAYER_1
 40
0.1058
 41
0.1058
 66
1
 10
0
 20
0
 30
0
  0
VERTEX
  8
LAYER_1
 10
182.8593
 20
-175.9975
 42
-0.0621240999
  0
VERTEX
  8
LAYER_1
 10
182.5808
 20
-176.2387
 42
-0.04510895333
  0
VERTEX
  8
LAYER_1
 10
182.1992
 20
-176.4415
  0
SEQEND
  0
ENDBLK
  0
BLOCK
  8
LAYER_1
  2
AIGNBL010101B9
 70
64
 10
0
 20
0
 30
0
  3
AIGNBL010101B9
  0
POLYLINE
  8
LAYER_1
 40
0.1058
 41
0.1058
 66
1
 10
0
 20
0
 30
0
  0
VERTEX
  8
LAYER_1
 10
180.6447
 20
-168.8776
 42
0.05168228092
  0
VERTEX
  8
LAYER_1
 10
180.1185
 20
-168.9299
 42
0.06909555701
  0
VERTEX
  8
LAYER_1
 10
179.6725
 20
-169.079
  0
VERTEX
  8
LAYER_1
 10
179.5015
 20
-169.1831
  0
VERTEX
  8
LAYER_1
 10
179.3744
 20
-169.302
  0
VERTEX
  8
LAYER_1
 10
179.2962
 20
-169.431
  0
VERTEX
  8
LAYER_1
 10
179.2698
 20
-169.5651
  0
SEQEND
  0
ENDBLK
  0
BLOCK
  8
LAYER_1
  2
AIGNBL010101BA
 70
64
 10
0
 20
0
 30
0
  3
AIGNBL010101BA
  0
POLYLINE
  8
LAYER_1
 40
0.1058
 41
0.1058
 66
1
 10
0
 20
0
 30
0
  0
VERTEX
  8
LAYER_1
 10
179.8242
 20
-176.6534
 42
0.04420285096
  0
VERTEX
  8
LAYER_1
 10
180.6447
 20
-176.7253
 42
0.04511107311
  0
VERTEX
  8
LAYER_1
 10
181.4653
 20
-176.6534
  0
SEQEND
  0
ENDBLK
  0
BLOCK
  8
LAYER_1
  2
AIGNBL010101BB
 70
64
 10
0
 20
0
 30
0
  3
AIGNBL010101BB
  0
POLYLINE
  8
LAYER_1
 40
0.1058
 41
0.1058
 66
1
 10
0
 20
0
 30
0
  0
VERTEX
  8
LAYER_1
 10
181.4653
 20
-174.3847
 42
0.04424581672
  0
VERTEX
  8
LAYER_1
 10
180.6447
 20
-174.3128
 42
0.04524651331
  0
VERTEX
  8
LAYER_1
 10
179.8242
 20
-174.3847
  0
SEQEND
  0
ENDBLK
  0
BLOCK
  8
LAYER_1
  2
AIGNBL010101BC
 70
64
 10
0
 20
0
 30
0
  3
AIGNBL010101BC
  0
POLYLINE
  8
LAYER_1
 40
0.1058
 41
0.1058
 66
1
 10
0
 20
0
 30
0
  0
VERTEX
  8
LAYER_1
 10
182.8744
 20
-174.6665
  0
VERTEX
  8
LAYER_1
 10
182.9133
 20
-174.6972
  0
VERTEX
  8
LAYER_1
 10
183.0197
 20
-174.7923
  0
SEQEND
  0
ENDBLK
  0
BLOCK
  8
LAYER_1
  2
AIGNBL010101BD
 70
64
 10
0
 20
0
 30
0
  3
AIGNBL010101BD
  0
POLYLINE
  8
LAYER_1
 40
0.1058
 41
0.1058
 66
1
 10
0
 20
0
 30
0
  0
VERTEX
  8
LAYER_1
 10
182.1992
 20
-174.5965
  0
VERTEX
  8
LAYER_1
 10
182.4943
 20
-174.7446
  0
VERTEX
  8
LAYER_1
 10
182.734
 20
-174.9159
 42
-0.1272617532
  0
VERTEX
  8
LAYER_1
 10
183.0197
 20
-175.3072
  0
SEQEND
  0
ENDBLK
  0
BLOCK
  8
LAYER_1
  2
AIGNBL010101BE
 70
64
 10
0
 20
0
 30
0
  3
AIGNBL010101BE
  0
POLYLINE
  8
LAYER_1
 40
0.1058
 41
0.1058
 66
1
 10
0
 20
0
 30
0
  0
VERTEX
  8
LAYER_1
 10
180.4603
 20
-169.5965
  0
VERTEX
  8
LAYER_1
 10
180.47
 20
-169.5291
  0
VERTEX
  8
LAYER_1
 10
180.5115
 20
-169.4723
 42
-0.1730743487
  0
VERTEX
  8
LAYER_1
 10
180.6447
 20
-169.4241
  0
SEQEND
  0
ENDBLK
  0
BLOCK
  8
LAYER_1
  2
AIGNBL010101BF
 70
64
 10
0
 20
0
 30
0
  3
AIGNBL010101BF
  0
POLYLINE
  8
LAYER_1
 40
0.1058
 41
0.1058
 66
1
 10
0
 20
0
 30
0
  0
VERTEX
  8
LAYER_1
 10
179.901
 20
-169.7123
  0
VERTEX
  8
LAYER_1
 10
179.8847
 20
-169.6503
  0
VERTEX
  8
LAYER_1
 10
179.845
 20
-169.6103
  0
VERTEX
  8
LAYER_1
 10
179.7934
 20
-169.5978
  0
VERTEX
  8
LAYER_1
 10
179.7403
 20
-169.6114
  0
VERTEX
  8
LAYER_1
 10
179.6927
 20
-169.6482
  0
VERTEX
  8
LAYER_1
 10
179.6566
 20
-169.7046
 42
0.1639395652
  0
VERTEX
  8
LAYER_1
 10
179.6401
 20
-169.8427
  0
SEQEND
  0
ENDBLK
  0
BLOCK
  8
LAYER_1
  2
AIGNBL010101C0
 70
64
 10
0
 20
0
 30
0
  3
AIGNBL010101C0
  0
POLYLINE
  8
LAYER_1
 40
0.1058
 41
0.1058
 66
1
 10
0
 20
0
 30
0
  0
VERTEX
  8
LAYER_1
 10
179.4084
 20
-170.1224
  0
VERTEX
  8
LAYER_1
 10
179.3992
 20
-170.0795
  0
VERTEX
  8
LAYER_1
 10
179.3884
 20
-170.0498
  0
VERTEX
  8
LAYER_1
 10
179.3831
 20
-170.0408
  0
VERTEX
  8
LAYER_1
 10
179.3782
 20
-170.0358
  0
VERTEX
  8
LAYER_1
 10
179.3739
 20
-170.0346
  0
VERTEX
  8
LAYER_1
 10
179.3704
 20
-170.037
  0
VERTEX
  8
LAYER_1
 10
179.3662
 20
-170.0516
  0
VERTEX
  8
LAYER_1
 10
179.3662
 20
-170.0778
  0
VERTEX
  8
LAYER_1
 10
179.3703
 20
-170.1138
  0
VERTEX
  8
LAYER_1
 10
179.378
 20
-170.1581
  0
SEQEND
  0
ENDBLK
  0
BLOCK
  8
LAYER_1
  2
AIGNBL010101C1
 70
64
 10
0
 20
0
 30
0
  3
AIGNBL010101C1
  0
POLYLINE
  8
LAYER_1
 40
0.1058
 41
0.1058
 66
1
 10
0
 20
0
 30
0
  0
VERTEX
  8
LAYER_1
 10
181.6868
 20
-171.2551
  0
VERTEX
  8
LAYER_1
 10
181.6844
 20
-171.2893
  0
VERTEX
  8
LAYER_1
 10
181.6494
 20
-171.3583
  0
SEQEND
  0
ENDBLK
  0
BLOCK
  8
LAYER_1
  2
AIGNBL010101C2
 70
64
 10
0
 20
0
 30
0
  3
AIGNBL010101C2
  0
POLYLINE
  8
LAYER_1
 40
0.1058
 41
0.1058
 66
1
 10
0
 20
0
 30
0
  0
VERTEX
  8
LAYER_1
 10
180.8292
 20
-169.5965
  0
VERTEX
  8
LAYER_1
 10
180.8764
 20
-169.6597
  0
VERTEX
  8
LAYER_1
 10
180.8935
 20
-169.732
  0
SEQEND
  0
ENDBLK
  0
BLOCK
  8
LAYER_1
  2
AIGNBL010101C3
 70
64
 10
0
 20
0
 30
0
  3
AIGNBL010101C3
  0
POLYLINE
  8
LAYER_1
 40
0.1058
 41
0.1058
 66
1
 10
0
 20
0
 30
0
  0
VERTEX
  8
LAYER_1
 10
180.8292
 20
-169.5965
  0
VERTEX
  8
LAYER_1
 10
180.9786
 20
-169.6123
 42
-0.05709463669
  0
VERTEX
  8
LAYER_1
 10
181.3885
 20
-169.7123
  0
SEQEND
  0
ENDBLK
  0
BLOCK
  8
LAYER_1
  2
AIGNBL010101C4
 70
64
 10
0
 20
0
 30
0
  3
AIGNBL010101C4
  0
POLYLINE
  8
LAYER_1
 40
0.1058
 41
0.1058
 66
1
 10
0
 20
0
 30
0
  0
VERTEX
  8
LAYER_1
 10
181.335
 20
-169.8235
  0
VERTEX
  8
LAYER_1
 10
181.3495
 20
-169.7576
  0
VERTEX
  8
LAYER_1
 10
181.3885
 20
-169.7123
  0
SEQEND
  0
ENDBLK
  0
BLOCK
  8
LAYER_1
  2
AIGNBL010101C5
 70
64
 10
0
 20
0
 30
0
  3
AIGNBL010101C5
  0
POLYLINE
  8
LAYER_1
 40
0.1058
 41
0.1058
 66
1
 10
0
 20
0
 30
0
  0
VERTEX
  8
LAYER_1
 10
181.3885
 20
-171.2278
  0
VERTEX
  8
LAYER_1
 10
181.3665
 20
-171.1923
  0
VERTEX
  8
LAYER_1
 10
181.335
 20
-171.0792
  0
SEQEND
  0
ENDBLK
  0
BLOCK
  8
LAYER_1
  2
AIGNBL010101C6
 70
64
 10
0
 20
0
 30
0
  3
AIGNBL010101C6
  0
POLYLINE
  8
LAYER_1
 40
0.1058
 41
0.1058
 66
1
 10
0
 20
0
 30
0
  0
VERTEX
  8
LAYER_1
 10
179.6401
 20
-171.3583
  0
VERTEX
  8
LAYER_1
 10
179.5902
 20
-171.3946
  0
VERTEX
  8
LAYER_1
 10
179.4725
 20
-171.5132
  0
SEQEND
  0
ENDBLK
  0
BLOCK
  8
LAYER_1
  2
AIGNBL010101C7
 70
64
 10
0
 20
0
 30
0
  3
AIGNBL010101C7
  0
POLYLINE
  8
LAYER_1
 40
0.1058
 41
0.1058
 66
1
 10
0
 20
0
 30
0
  0
VERTEX
  8
LAYER_1
 10
179.4725
 20
-171.5132
  0
VERTEX
  8
LAYER_1
 10
179.4402
 20
-171.5632
  0
SEQEND
  0
ENDBLK
  0
BLOCK
  8
LAYER_1
  2
AIGNBL010101C8
 70
64
 10
0
 20
0
 30
0
  3
AIGNBL010101C8
  0
POLYLINE
  8
LAYER_1
 40
0.1058
 41
0.1058
 66
1
 10
0
 20
0
 30
0
  0
VERTEX
  8
LAYER_1
 10
179.4402
 20
-171.5632
  0
VERTEX
  8
LAYER_1
 10
179.4305
 20
-171.5817
  0
VERTEX
  8
LAYER_1
 10
179.4084
 20
-171.6379
  0
SEQEND
  0
ENDBLK
  0
BLOCK
  8
LAYER_1
  2
AIGNBL010101C9
 70
64
 10
0
 20
0
 30
0
  3
AIGNBL010101C9
  0
POLYLINE
  8
LAYER_1
 40
0.1058
 41
0.1058
 66
1
 10
0
 20
0
 30
0
  0
VERTEX
  8
LAYER_1
 10
179.6401
 20
-171.3583
  0
VERTEX
  8
LAYER_1
 10
179.6361
 20
-171.3869
  0
VERTEX
  8
LAYER_1
 10
179.6376
 20
-171.4109
  0
VERTEX
  8
LAYER_1
 10
179.6446
 20
-171.4289
  0
VERTEX
  8
LAYER_1
 10
179.6566
 20
-171.4405
  0
VERTEX
  8
LAYER_1
 10
179.6927
 20
-171.4453
  0
VERTEX
  8
LAYER_1
 10
179.7403
 20
-171.4289
  0
VERTEX
  8
LAYER_1
 10
179.7934
 20
-171.395
  0
VERTEX
  8
LAYER_1
 10
179.845
 20
-171.3463
 42
0.1990138173
  0
VERTEX
  8
LAYER_1
 10
179.901
 20
-171.2278
  0
SEQEND
  0
ENDBLK
  0
BLOCK
  8
LAYER_1
  2
AIGNBL010101CA
 70
64
 10
0
 20
0
 30
0
  3
AIGNBL010101CA
  0
POLYLINE
  8
LAYER_1
 40
0.1058
 41
0.1058
 66
1
 10
0
 20
0
 30
0
  0
VERTEX
  8
LAYER_1
 10
180.4603
 20
-171.112
  0
VERTEX
  8
LAYER_1
 10
180.311
 20
-171.1279
 42
0.05724601633
  0
VERTEX
  8
LAYER_1
 10
179.901
 20
-171.2278
  0
SEQEND
  0
ENDBLK
  0
BLOCK
  8
LAYER_1
  2
AIGNBL010101CB
 70
64
 10
0
 20
0
 30
0
  3
AIGNBL010101CB
  0
POLYLINE
  8
LAYER_1
 40
0.1058
 41
0.1058
 66
1
 10
0
 20
0
 30
0
  0
VERTEX
  8
LAYER_1
 10
180.6447
 20
-171.2416
  0
VERTEX
  8
LAYER_1
 10
180.5735
 20
-171.2334
  0
VERTEX
  8
LAYER_1
 10
180.5115
 20
-171.2083
  0
VERTEX
  8
LAYER_1
 10
180.47
 20
-171.1661
  0
VERTEX
  8
LAYER_1
 10
180.4603
 20
-171.112
  0
SEQEND
  0
ENDBLK
  0
BLOCK
  8
LAYER_1
  2
AIGNBL010101CC
 70
64
 10
0
 20
0
 30
0
  3
AIGNBL010101CC
  0
POLYLINE
  8
LAYER_1
 40
0.1058
 41
0.1058
 66
1
 10
0
 20
0
 30
0
  0
VERTEX
  8
LAYER_1
 10
179.8242
 20
-174.3847
  0
VERTEX
  8
LAYER_1
 10
179.9947
 20
-174.3143
  0
VERTEX
  8
LAYER_1
 10
180.4994
 20
-174.0648
  0
SEQEND
  0
ENDBLK
  0
BLOCK
  8
LAYER_1
  2
AIGNBL010101CD
 70
64
 10
0
 20
0
 30
0
  3
AIGNBL010101CD
  0
POLYLINE
  8
LAYER_1
 40
0.1058
 41
0.1058
 66
1
 10
0
 20
0
 30
0
  0
VERTEX
  8
LAYER_1
 10
178.415
 20
-174.6665
  0
VERTEX
  8
LAYER_1
 10
178.582
 20
-174.659
  0
VERTEX
  8
LAYER_1
 10
179.0903
 20
-174.5965
  0
SEQEND
  0
ENDBLK
  0
BLOCK
  8
LAYER_1
  2
AIGNBL010101CE
 70
64
 10
0
 20
0
 30
0
  3
AIGNBL010101CE
  0
POLYLINE
  8
LAYER_1
 40
0.1058
 41
0.1058
 66
1
 10
0
 20
0
 30
0
  0
VERTEX
  8
LAYER_1
 10
180.4491
 20
-171.6992
  0
VERTEX
  8
LAYER_1
 10
180.3746
 20
-171.7056
  0
VERTEX
  8
LAYER_1
 10
180.1571
 20
-171.7369
  0
SEQEND
  0
ENDBLK
  0
BLOCK
  8
LAYER_1
  2
AIGNBL010101CF
 70
64
 10
0
 20
0
 30
0
  3
AIGNBL010101CF
  0
POLYLINE
  8
LAYER_1
 40
0.1058
 41
0.1058
 66
1
 10
0
 20
0
 30
0
  0
VERTEX
  8
LAYER_1
 10
182.1992
 20
-174.5965
  0
VERTEX
  8
LAYER_1
 10
182.3697
 20
-174.6246
  0
VERTEX
  8
LAYER_1
 10
182.8744
 20
-174.6665
  0
SEQEND
  0
ENDBLK
  0
BLOCK
  8
LAYER_1
  2
AIGNBL010101D0
 70
64
 10
0
 20
0
 30
0
  3
AIGNBL010101D0
  0
POLYLINE
  8
LAYER_1
 40
0.1058
 41
0.1058
 66
1
 10
0
 20
0
 30
0
  0
VERTEX
  8
LAYER_1
 10
180.79
 20
-174.0648
  0
VERTEX
  8
LAYER_1
 10
180.957
 20
-174.1537
  0
VERTEX
  8
LAYER_1
 10
181.4653
 20
-174.3847
  0
SEQEND
  0
ENDBLK
  0
BLOCK
  8
LAYER_1
  2
AIGNBL010101D1
 70
64
 10
0
 20
0
 30
0
  3
AIGNBL010101D1
  0
POLYLINE
  8
LAYER_1
 40
0.1058
 41
0.1058
 66
1
 10
0
 20
0
 30
0
  0
VERTEX
  8
LAYER_1
 10
180.8935
 20
-170.9878
  0
VERTEX
  8
LAYER_1
 10
180.8764
 20
-171.0568
  0
VERTEX
  8
LAYER_1
 10
180.8292
 20
-171.112
  0
SEQEND
  0
ENDBLK
  0
BLOCK
  8
LAYER_1
  2
AIGNBL010101D2
 70
64
 10
0
 20
0
 30
0
  3
AIGNBL010101D2
  0
POLYLINE
  8
LAYER_1
 40
0.1058
 41
0.1058
 66
1
 10
0
 20
0
 30
0
  0
VERTEX
  8
LAYER_1
 10
179.901
 20
-169.7123
  0
VERTEX
  8
LAYER_1
 10
179.94
 20
-169.7576
  0
VERTEX
  8
LAYER_1
 10
179.9544
 20
-169.8235
  0
SEQEND
  0
ENDBLK
  0
BLOCK
  8
LAYER_1
  2
AIGNBL010101D3
 70
64
 10
0
 20
0
 30
0
  3
AIGNBL010101D3
  0
POLYLINE
  8
LAYER_1
 40
0.1058
 41
0.1058
 66
1
 10
0
 20
0
 30
0
  0
VERTEX
  8
LAYER_1
 10
180.4603
 20
-169.5965
  0
VERTEX
  8
LAYER_1
 10
180.311
 20
-169.6123
 42
0.05712353784
  0
VERTEX
  8
LAYER_1
 10
179.901
 20
-169.7123
  0
SEQEND
  0
ENDBLK
  0
BLOCK
  8
LAYER_1
  2
AIGNBL010101D4
 70
64
 10
0
 20
0
 30
0
  3
AIGNBL010101D4
  0
POLYLINE
  8
LAYER_1
 40
0.1058
 41
0.1058
 66
1
 10
0
 20
0
 30
0
  0
VERTEX
  8
LAYER_1
 10
178.7698
 20
-175.3025
  0
VERTEX
  8
LAYER_1
 10
178.7805
 20
-175.4027
  0
VERTEX
  8
LAYER_1
 10
178.7888
 20
-175.4359
  0
SEQEND
  0
ENDBLK
  0
BLOCK
  8
LAYER_1
  2
AIGNBL010101D5
 70
64
 10
0
 20
0
 30
0
  3
AIGNBL010101D5
  0
POLYLINE
  8
LAYER_1
 40
0.1058
 41
0.1058
 66
1
 10
0
 20
0
 30
0
  0
VERTEX
  8
LAYER_1
 10
178.7888
 20
-175.4359
  0
VERTEX
  8
LAYER_1
 10
178.7995
 20
-175.469
  0
VERTEX
  8
LAYER_1
 10
178.8457
 20
-175.5666
  0
SEQEND
  0
ENDBLK
  0
BLOCK
  8
LAYER_1
  2
AIGNBL010101D6
 70
64
 10
0
 20
0
 30
0
  3
AIGNBL010101D6
  0
POLYLINE
  8
LAYER_1
 40
0.1058
 41
0.1058
 66
1
 10
0
 20
0
 30
0
  0
VERTEX
  8
LAYER_1
 10
178.8457
 20
-175.5666
 42
0.09849155759
  0
VERTEX
  8
LAYER_1
 10
179.1046
 20
-175.8372
 42
0.06373187252
  0
VERTEX
  8
LAYER_1
 10
179.5211
 20
-176.053
 42
0.04617039223
  0
VERTEX
  8
LAYER_1
 10
180.0526
 20
-176.192
 42
0.04060006895
  0
VERTEX
  8
LAYER_1
 10
180.6447
 20
-176.24
  0
SEQEND
  0
ENDBLK
  0
BLOCK
  8
LAYER_1
  2
AIGNBL010101D7
 70
64
 10
0
 20
0
 30
0
  3
AIGNBL010101D7
  0
POLYLINE
  8
LAYER_1
 40
0.1058
 41
0.1058
 66
1
 10
0
 20
0
 30
0
  0
VERTEX
  8
LAYER_1
 10
182.5197
 20
-175.3025
  0
VERTEX
  8
LAYER_1
 10
182.509
 20
-175.4027
  0
VERTEX
  8
LAYER_1
 10
182.5006
 20
-175.4359
  0
SEQEND
  0
ENDBLK
  0
BLOCK
  8
LAYER_1
  2
AIGNBL010101D8
 70
64
 10
0
 20
0
 30
0
  3
AIGNBL010101D8
  0
POLYLINE
  8
LAYER_1
 40
0.1058
 41
0.1058
 66
1
 10
0
 20
0
 30
0
  0
VERTEX
  8
LAYER_1
 10
182.5006
 20
-175.4359
  0
VERTEX
  8
LAYER_1
 10
182.4899
 20
-175.469
  0
VERTEX
  8
LAYER_1
 10
182.4437
 20
-175.5666
  0
SEQEND
  0
ENDBLK
  0
BLOCK
  8
LAYER_1
  2
AIGNBL010101D9
 70
64
 10
0
 20
0
 30
0
  3
AIGNBL010101D9
  0
POLYLINE
  8
LAYER_1
 40
0.1058
 41
0.1058
 66
1
 10
0
 20
0
 30
0
  0
VERTEX
  8
LAYER_1
 10
182.4437
 20
-175.5666
 42
-0.09834880874
  0
VERTEX
  8
LAYER_1
 10
182.1849
 20
-175.8372
 42
-0.06376465314
  0
VERTEX
  8
LAYER_1
 10
181.7683
 20
-176.053
 42
-0.04619090672
  0
VERTEX
  8
LAYER_1
 10
181.2369
 20
-176.192
 42
-0.04059582892
  0
VERTEX
  8
LAYER_1
 10
180.6447
 20
-176.24
  0
SEQEND
  0
ENDBLK
  0
BLOCK
  8
LAYER_1
  2
AIGNBL010101DA
 70
64
 10
0
 20
0
 30
0
  3
AIGNBL010101DA
  0
POLYLINE
  8
LAYER_1
 40
0.1058
 41
0.1058
 66
1
 10
0
 20
0
 30
0
  0
VERTEX
  8
LAYER_1
 10
180.396
 20
-169.732
  0
VERTEX
  8
LAYER_1
 10
180.413
 20
-169.6597
  0
VERTEX
  8
LAYER_1
 10
180.4603
 20
-169.5965
  0
SEQEND
  0
ENDBLK
  0
BLOCK
  8
LAYER_1
  2
AIGNBL010101DB
 70
64
 10
0
 20
0
 30
0
  3
AIGNBL010101DB
  0
POLYLINE
  8
LAYER_1
 40
0.1058
 41
0.1058
 66
1
 10
0
 20
0
 30
0
  0
VERTEX
  8
LAYER_1
 10
180.4603
 20
-171.112
  0
VERTEX
  8
LAYER_1
 10
180.413
 20
-171.0568
  0
VERTEX
  8
LAYER_1
 10
180.396
 20
-170.9878
  0
SEQEND
  0
ENDBLK
  0
BLOCK
  8
LAYER_1
  2
AIGNBL010101DC
 70
64
 10
0
 20
0
 30
0
  3
AIGNBL010101DC
  0
POLYLINE
  8
LAYER_1
 40
0.1058
 41
0.1058
 66
1
 10
0
 20
0
 30
0
  0
VERTEX
  8
LAYER_1
 10
179.9544
 20
-171.0792
  0
VERTEX
  8
LAYER_1
 10
179.9507
 20
-171.1165
  0
VERTEX
  8
LAYER_1
 10
179.901
 20
-171.2278
  0
SEQEND
  0
ENDBLK
  0
BLOCK
  8
LAYER_1
  2
AIGNBL010101DD
 70
64
 10
0
 20
0
 30
0
  3
AIGNBL010101DD
  0
POLYLINE
  8
LAYER_1
 40
0.1058
 41
0.1058
 66
1
 10
0
 20
0
 30
0
  0
VERTEX
  8
LAYER_1
 10
179.4084
 20
-170.1224
  0
VERTEX
  8
LAYER_1
 10
179.4164
 20
-170.158
  0
VERTEX
  8
LAYER_1
 10
179.4197
 20
-170.2201
  0
SEQEND
  0
ENDBLK
  0
BLOCK
  8
LAYER_1
  2
AIGNBL010101DE
 70
64
 10
0
 20
0
 30
0
  3
AIGNBL010101DE
  0
POLYLINE
  8
LAYER_1
 40
0.1058
 41
0.1058
 66
1
 10
0
 20
0
 30
0
  0
VERTEX
  8
LAYER_1
 10
179.6401
 20
-169.8427
  0
VERTEX
  8
LAYER_1
 10
179.5569
 20
-169.9067
 42
0.1470385608
  0
VERTEX
  8
LAYER_1
 10
179.4084
 20
-170.1224
  0
SEQEND
  0
ENDBLK
  0
BLOCK
  8
LAYER_1
  2
AIGNBL010101DF
 70
64
 10
0
 20
0
 30
0
  3
AIGNBL010101DF
  0
POLYLINE
  8
LAYER_1
 40
0.1058
 41
0.1058
 66
1
 10
0
 20
0
 30
0
  0
VERTEX
  8
LAYER_1
 10
181.9115
 20
-170.1581
  0
VERTEX
  8
LAYER_1
 10
181.9192
 20
-170.1138
  0
VERTEX
  8
LAYER_1
 10
181.9233
 20
-170.0778
  0
VERTEX
  8
LAYER_1
 10
181.9232
 20
-170.0516
  0
VERTEX
  8
LAYER_1
 10
181.9191
 20
-170.037
  0
VERTEX
  8
LAYER_1
 10
181.9155
 20
-170.0346
  0
VERTEX
  8
LAYER_1
 10
181.9113
 20
-170.0358
  0
VERTEX
  8
LAYER_1
 10
181.9064
 20
-170.0408
  0
VERTEX
  8
LAYER_1
 10
181.901
 20
-170.0498
  0
VERTEX
  8
LAYER_1
 10
181.8903
 20
-170.0795
  0
VERTEX
  8
LAYER_1
 10
181.881
 20
-170.1224
  0
SEQEND
  0
ENDBLK
  0
BLOCK
  8
LAYER_1
  2
AIGNBL010101E0
 70
64
 10
0
 20
0
 30
0
  3
AIGNBL010101E0
  0
POLYLINE
  8
LAYER_1
 40
0.1058
 41
0.1058
 66
1
 10
0
 20
0
 30
0
  0
VERTEX
  8
LAYER_1
 10
179.6026
 20
-169.9994
  0
VERTEX
  8
LAYER_1
 10
179.6051
 20
-169.9615
  0
VERTEX
  8
LAYER_1
 10
179.6401
 20
-169.8427
  0
SEQEND
  0
ENDBLK
  0
BLOCK
  8
LAYER_1
  2
AIGNBL010101E1
 70
64
 10
0
 20
0
 30
0
  3
AIGNBL010101E1
  0
POLYLINE
  8
LAYER_1
 40
0.1058
 41
0.1058
 66
1
 10
0
 20
0
 30
0
  0
VERTEX
  8
LAYER_1
 10
179.6401
 20
-171.3583
  0
VERTEX
  8
LAYER_1
 10
179.6242
 20
-171.3417
  0
VERTEX
  8
LAYER_1
 10
179.6026
 20
-171.2551
  0
SEQEND
  0
ENDBLK
  0
BLOCK
  8
LAYER_1
  2
AIGNBL010101E2
 70
64
 10
0
 20
0
 30
0
  3
AIGNBL010101E2
  0
POLYLINE
  8
LAYER_1
 40
0.1058
 41
0.1058
 66
1
 10
0
 20
0
 30
0
  0
VERTEX
  8
LAYER_1
 10
180.6447
 20
-153.2434
 42
0.05189968504
  0
VERTEX
  8
LAYER_1
 10
180.1664
 20
-153.291
 42
0.06937236598
  0
VERTEX
  8
LAYER_1
 10
179.7608
 20
-153.4264
  0
VERTEX
  8
LAYER_1
 10
179.6054
 20
-153.5212
  0
VERTEX
  8
LAYER_1
 10
179.4899
 20
-153.6292
  0
VERTEX
  8
LAYER_1
 10
179.4187
 20
-153.7465
  0
VERTEX
  8
LAYER_1
 10
179.3947
 20
-153.8684
  0
SEQEND
  0
ENDBLK
  0
BLOCK
  8
LAYER_1
  2
AIGNBL010101E3
 70
64
 10
0
 20
0
 30
0
  3
AIGNBL010101E3
  0
POLYLINE
  8
LAYER_1
 40
0.1058
 41
0.1058
 66
1
 10
0
 20
0
 30
0
  0
VERTEX
  8
LAYER_1
 10
181.8947
 20
-153.8684
  0
VERTEX
  8
LAYER_1
 10
181.8707
 20
-153.7465
  0
VERTEX
  8
LAYER_1
 10
181.7996
 20
-153.6292
  0
VERTEX
  8
LAYER_1
 10
181.6841
 20
-153.5212
  0
VERTEX
  8
LAYER_1
 10
181.5286
 20
-153.4264
 42
0.06141955874
  0
VERTEX
  8
LAYER_1
 10
181.1231
 20
-153.291
 42
0.04983309165
  0
VERTEX
  8
LAYER_1
 10
180.6447
 20
-153.2434
  0
SEQEND
  0
ENDBLK
  0
BLOCK
  8
LAYER_1
  2
AIGNBL010101E4
 70
64
 10
0
 20
0
 30
0
  3
AIGNBL010101E4
  0
POLYLINE
  8
LAYER_1
 40
0.1058
 41
0.1058
 66
1
 10
0
 20
0
 30
0
  0
VERTEX
  8
LAYER_1
 10
182.3798
 20
-174.9056
  0
VERTEX
  8
LAYER_1
 10
182.5683
 20
-175.0676
  0
VERTEX
  8
LAYER_1
 10
182.6971
 20
-175.2436
  0
VERTEX
  8
LAYER_1
 10
182.7619
 20
-175.4282
  0
VERTEX
  8
LAYER_1
 10
182.7609
 20
-175.6156
  0
VERTEX
  8
LAYER_1
 10
182.6941
 20
-175.8
  0
VERTEX
  8
LAYER_1
 10
182.5634
 20
-175.9757
  0
VERTEX
  8
LAYER_1
 10
182.3731
 20
-176.1371
  0
VERTEX
  8
LAYER_1
 10
182.129
 20
-176.2794
  0
SEQEND
  0
ENDBLK
  0
BLOCK
  8
LAYER_1
  2
AIGNBL010101E5
 70
64
 10
0
 20
0
 30
0
  3
AIGNBL010101E5
  0
POLYLINE
  8
LAYER_1
 40
0.1058
 41
0.1058
 66
1
 10
0
 20
0
 30
0
  0
VERTEX
  8
LAYER_1
 10
182.129
 20
-176.2794
 42
-0.06334917466
  0
VERTEX
  8
LAYER_1
 10
181.4461
 20
-176.5031
 42
-0.05010309857
  0
VERTEX
  8
LAYER_1
 10
180.6447
 20
-176.5815
  0
SEQEND
  0
ENDBLK
  0
BLOCK
  8
LAYER_1
  2
AIGNBL010101E6
 70
64
 10
0
 20
0
 30
0
  3
AIGNBL010101E6
  0
POLYLINE
  8
LAYER_1
 40
0.1058
 41
0.1058
 66
1
 10
0
 20
0
 30
0
  0
VERTEX
  8
LAYER_1
 10
177.8241
 20
-172.2128
  0
VERTEX
  8
LAYER_1
 10
177.3602
 20
-172.2128
  0
SEQEND
  0
ENDBLK
  0
BLOCK
  8
LAYER_1
  2
AIGNBL010101E7
 70
64
 10
0
 20
0
 30
0
  3
AIGNBL010101E7
  0
POLYLINE
  8
LAYER_1
 40
0.1058
 41
0.1058
 66
1
 10
0
 20
0
 30
0
  0
VERTEX
  8
LAYER_1
 10
177.8241
 20
-170.957
  0
VERTEX
  8
LAYER_1
 10
177.3602
 20
-170.957
  0
SEQEND
  0
ENDBLK
  0
BLOCK
  8
LAYER_1
  2
AIGNBL010101E8
 70
64
 10
0
 20
0
 30
0
  3
AIGNBL010101E8
  0
POLYLINE
  8
LAYER_1
 40
0.1058
 41
0.1058
 66
1
 10
0
 20
0
 30
0
  0
VERTEX
  8
LAYER_1
 10
178.4576
 20
-172.0253
  0
VERTEX
  8
LAYER_1
 10
178.2656
 20
-172.1213
  0
SEQEND
  0
ENDBLK
  0
BLOCK
  8
LAYER_1
  2
AIGNBL010101E9
 70
64
 10
0
 20
0
 30
0
  3
AIGNBL010101E9
  0
POLYLINE
  8
LAYER_1
 40
0.1058
 41
0.1058
 66
1
 10
0
 20
0
 30
0
  0
VERTEX
  8
LAYER_1
 10
178.3697
 20
-170.8135
  0
VERTEX
  8
LAYER_1
 10
178.2656
 20
-170.8656
  0
SEQEND
  0
ENDBLK
  0
BLOCK
  8
LAYER_1
  2
AIGNBL010101EA
 70
64
 10
0
 20
0
 30
0
  3
AIGNBL010101EA
  0
POLYLINE
  8
LAYER_1
 40
0.1058
 41
0.1058
 66
1
 10
0
 20
0
 30
0
  0
VERTEX
  8
LAYER_1
 10
178.2656
 20
-172.1213
  0
VERTEX
  8
LAYER_1
 10
178.2656
 20
-170.8656
  0
SEQEND
  0
ENDBLK
  0
BLOCK
  8
LAYER_1
  2
AIGNBL010101EB
 70
64
 10
0
 20
0
 30
0
  3
AIGNBL010101EB
  0
POLYLINE
  8
LAYER_1
 40
0.1058
 41
0.1058
 66
1
 10
0
 20
0
 30
0
  0
VERTEX
  8
LAYER_1
 10
177.8241
 20
-172.2128
  0
VERTEX
  8
LAYER_1
 10
177.8241
 20
-170.957
  0
SEQEND
  0
ENDBLK
  0
BLOCK
  8
LAYER_1
  2
AIGNBL010101EC
 70
64
 10
0
 20
0
 30
0
  3
AIGNBL010101EC
  0
POLYLINE
  8
LAYER_1
 40
0.1058
 41
0.1058
 66
1
 10
0
 20
0
 30
0
  0
VERTEX
  8
LAYER_1
 10
177.36
 20
-170.8303
  0
VERTEX
  8
LAYER_1
 10
177.3909
 20
-170.8328
  0
SEQEND
  0
ENDBLK
  0
BLOCK
  8
LAYER_1
  2
AIGNBL010101ED
 70
64
 10
0
 20
0
 30
0
  3
AIGNBL010101ED
  0
POLYLINE
  8
LAYER_1
 40
0.1058
 41
0.1058
 66
1
 10
0
 20
0
 30
0
  0
VERTEX
  8
LAYER_1
 10
177.36
 20
-172.3458
  0
VERTEX
  8
LAYER_1
 10
177.3909
 20
-172.3483
  0
SEQEND
  0
ENDBLK
  0
BLOCK
  8
LAYER_1
  2
AIGNBL010101EE
 70
64
 10
0
 20
0
 30
0
  3
AIGNBL010101EE
  0
POLYLINE
  8
LAYER_1
 40
0.1058
 41
0.1058
 66
1
 10
0
 20
0
 30
0
  0
VERTEX
  8
LAYER_1
 10
178.3191
 20
-170.7169
  0
VERTEX
  8
LAYER_1
 10
178.191
 20
-170.7585
 42
-0.04814590247
  0
VERTEX
  8
LAYER_1
 10
177.7598
 20
-170.8328
  0
SEQEND
  0
ENDBLK
  0
BLOCK
  8
LAYER_1
  2
AIGNBL010101EF
 70
64
 10
0
 20
0
 30
0
  3
AIGNBL010101EF
  0
POLYLINE
  8
LAYER_1
 40
0.1058
 41
0.1058
 66
1
 10
0
 20
0
 30
0
  0
VERTEX
  8
LAYER_1
 10
177.8241
 20
-170.957
  0
VERTEX
  8
LAYER_1
 10
177.807
 20
-170.888
  0
VERTEX
  8
LAYER_1
 10
177.7598
 20
-170.8328
  0
SEQEND
  0
ENDBLK
  0
BLOCK
  8
LAYER_1
  2
AIGNBL010101F0
 70
64
 10
0
 20
0
 30
0
  3
AIGNBL010101F0
  0
POLYLINE
  8
LAYER_1
 40
0.1058
 41
0.1058
 66
1
 10
0
 20
0
 30
0
  0
VERTEX
  8
LAYER_1
 10
177.5753
 20
-172.5207
 42
0.1823909605
  0
VERTEX
  8
LAYER_1
 10
177.7086
 20
-172.4725
  0
VERTEX
  8
LAYER_1
 10
177.7501
 20
-172.4157
  0
VERTEX
  8
LAYER_1
 10
177.7598
 20
-172.3483
  0
SEQEND
  0
ENDBLK
  0
BLOCK
  8
LAYER_1
  2
AIGNBL010101F1
 70
64
 10
0
 20
0
 30
0
  3
AIGNBL010101F1
  0
POLYLINE
  8
LAYER_1
 40
0.1058
 41
0.1058
 66
1
 10
0
 20
0
 30
0
  0
VERTEX
  8
LAYER_1
 10
178.415
 20
-172.3465
  0
VERTEX
  8
LAYER_1
 10
178.375
 20
-172.3344
  0
VERTEX
  8
LAYER_1
 10
178.3353
 20
-172.2944
  0
VERTEX
  8
LAYER_1
 10
178.3191
 20
-172.2325
  0
SEQEND
  0
ENDBLK
  0
BLOCK
  8
LAYER_1
  2
AIGNBL010101F2
 70
64
 10
0
 20
0
 30
0
  3
AIGNBL010101F2
  0
POLYLINE
  8
LAYER_1
 40
0.1058
 41
0.1058
 66
1
 10
0
 20
0
 30
0
  0
VERTEX
  8
LAYER_1
 10
178.3191
 20
-172.2325
  0
VERTEX
  8
LAYER_1
 10
178.191
 20
-172.2741
 42
-0.04836877095
  0
VERTEX
  8
LAYER_1
 10
177.7598
 20
-172.3483
  0
SEQEND
  0
ENDBLK
  0
BLOCK
  8
LAYER_1
  2
AIGNBL010101F3
 70
64
 10
0
 20
0
 30
0
  3
AIGNBL010101F3
  0
POLYLINE
  8
LAYER_1
 40
0.1058
 41
0.1058
 66
1
 10
0
 20
0
 30
0
  0
VERTEX
  8
LAYER_1
 10
177.5753
 20
-170.7032
  0
VERTEX
  8
LAYER_1
 10
177.5041
 20
-170.7114
  0
VERTEX
  8
LAYER_1
 10
177.4421
 20
-170.7365
  0
VERTEX
  8
LAYER_1
 10
177.4006
 20
-170.7787
  0
VERTEX
  8
LAYER_1
 10
177.3909
 20
-170.8328
  0
SEQEND
  0
ENDBLK
  0
BLOCK
  8
LAYER_1
  2
AIGNBL010101F4
 70
64
 10
0
 20
0
 30
0
  3
AIGNBL010101F4
  0
POLYLINE
  8
LAYER_1
 40
0.1058
 41
0.1058
 66
1
 10
0
 20
0
 30
0
  0
VERTEX
  8
LAYER_1
 10
177.3909
 20
-172.3483
  0
VERTEX
  8
LAYER_1
 10
177.4006
 20
-172.4156
  0
VERTEX
  8
LAYER_1
 10
177.442
 20
-172.4724
 42
0.1732969752
  0
VERTEX
  8
LAYER_1
 10
177.5753
 20
-172.5207
  0
SEQEND
  0
ENDBLK
  0
BLOCK
  8
LAYER_1
  2
AIGNBL010101F5
 70
64
 10
0
 20
0
 30
0
  3
AIGNBL010101F5
  0
POLYLINE
  8
LAYER_1
 40
0.1058
 41
0.1058
 66
1
 10
0
 20
0
 30
0
  0
VERTEX
  8
LAYER_1
 10
177.7598
 20
-170.8328
  0
VERTEX
  8
LAYER_1
 10
177.7501
 20
-170.7786
  0
VERTEX
  8
LAYER_1
 10
177.7086
 20
-170.7365
  0
VERTEX
  8
LAYER_1
 10
177.6465
 20
-170.7114
  0
VERTEX
  8
LAYER_1
 10
177.5753
 20
-170.7032
  0
SEQEND
  0
ENDBLK
  0
BLOCK
  8
LAYER_1
  2
AIGNBL010101F6
 70
64
 10
0
 20
0
 30
0
  3
AIGNBL010101F6
  0
POLYLINE
  8
LAYER_1
 40
0.1058
 41
0.1058
 66
1
 10
0
 20
0
 30
0
  0
VERTEX
  8
LAYER_1
 10
178.3191
 20
-170.7169
 42
-0.1342219671
  0
VERTEX
  8
LAYER_1
 10
178.3697
 20
-170.6047
  0
SEQEND
  0
ENDBLK
  0
BLOCK
  8
LAYER_1
  2
AIGNBL010101F7
 70
64
 10
0
 20
0
 30
0
  3
AIGNBL010101F7
  0
POLYLINE
  8
LAYER_1
 40
0.1058
 41
0.1058
 66
1
 10
0
 20
0
 30
0
  0
VERTEX
  8
LAYER_1
 10
177.7598
 20
-172.3483
  0
VERTEX
  8
LAYER_1
 10
177.807
 20
-172.2851
  0
VERTEX
  8
LAYER_1
 10
177.8241
 20
-172.2128
  0
SEQEND
  0
ENDBLK
  0
BLOCK
  8
LAYER_1
  2
AIGNBL010101F8
 70
64
 10
0
 20
0
 30
0
  3
AIGNBL010101F8
  0
POLYLINE
  8
LAYER_1
 40
0.1058
 41
0.1058
 66
1
 10
0
 20
0
 30
0
  0
VERTEX
  8
LAYER_1
 10
178.2656
 20
-172.1213
  0
VERTEX
  8
LAYER_1
 10
178.28
 20
-172.1872
  0
VERTEX
  8
LAYER_1
 10
178.3191
 20
-172.2325
  0
SEQEND
  0
ENDBLK
  0
BLOCK
  8
LAYER_1
  2
AIGNBL010101F9
 70
64
 10
0
 20
0
 30
0
  3
AIGNBL010101F9
  0
POLYLINE
  8
LAYER_1
 40
0.1058
 41
0.1058
 66
1
 10
0
 20
0
 30
0
  0
VERTEX
  8
LAYER_1
 10
178.3191
 20
-170.7169
  0
VERTEX
  8
LAYER_1
 10
178.2971
 20
-170.7525
  0
VERTEX
  8
LAYER_1
 10
178.2656
 20
-170.8656
  0
SEQEND
  0
ENDBLK
  0
BLOCK
  8
LAYER_1
  2
AIGNBL010101FA
 70
64
 10
0
 20
0
 30
0
  3
AIGNBL010101FA
  0
POLYLINE
  8
LAYER_1
 40
0.1058
 41
0.1058
 66
1
 10
0
 20
0
 30
0
  0
VERTEX
  8
LAYER_1
 10
178.2697
 20
-173.9674
  0
VERTEX
  8
LAYER_1
 10
177.9653
 20
-174.0553
  0
SEQEND
  0
ENDBLK
  0
BLOCK
  8
LAYER_1
  2
AIGNBL010101FB
 70
64
 10
0
 20
0
 30
0
  3
AIGNBL010101FB
  0
POLYLINE
  8
LAYER_1
 40
0.1058
 41
0.1058
 66
1
 10
0
 20
0
 30
0
  0
VERTEX
  8
LAYER_1
 10
177.9653
 20
-174.0553
  0
VERTEX
  8
LAYER_1
 10
177.7947
 20
-174.1256
  0
VERTEX
  8
LAYER_1
 10
177.29
 20
-174.3752
  0
SEQEND
  0
ENDBLK
  0
BLOCK
  8
LAYER_1
  2
AIGNBL010101FC
 70
64
 10
0
 20
0
 30
0
  3
AIGNBL010101FC
  0
POLYLINE
  8
LAYER_1
  6
AIGENLINE001
 40
0.1058
 41
0.1058
 66
1
 10
0
 20
0
 30
0
 70
128
  0
VERTEX
  8
LAYER_1
 10
127.8947
 20
-93.7394
  0
VERTEX
  8
LAYER_1
 10
127.8947
 20
-67.3587
  0
SEQEND
  0
ENDBLK
  0
BLOCK
  8
LAYER_1
  2
AIGNBL010101FD
 70
64
 10
0
 20
0
 30
0
  3
AIGNBL010101FD
  0
POLYLINE
  8
LAYER_1
  6
AIGENLINE001
 40
0.1058
 41
0.1058
 66
1
 10
0
 20
0
 30
0
 70
128
  0
VERTEX
  8
LAYER_1
 10
128.836
 20
-79.0641
  0
VERTEX
  8
LAYER_1
 10
127.6073
 20
-67.3738
  0
SEQEND
  0
ENDBLK
  0
BLOCK
  8
LAYER_1
  2
AIGNBL010101FE
 70
64
 10
0
 20
0
 30
0
  3
AIGNBL010101FE
  0
POLYLINE
  8
LAYER_1
  6
AIGENLINE001
 40
0.1058
 41
0.1058
 66
1
 10
0
 20
0
 30
0
 70
128
  0
VERTEX
  8
LAYER_1
 10
126.9535
 20
-79.0641
  0
VERTEX
  8
LAYER_1
 10
128.1822
 20
-67.3738
  0
SEQEND
  0
ENDBLK
  0
BLOCK
  8
LAYER_1
  2
AIGNBL010101FF
 70
64
 10
0
 20
0
 30
0
  3
AIGNBL010101FF
  0
POLYLINE
  8
LAYER_1
  6
AIGENLINE002
 40
0.1058
 41
0.1058
 66
1
 10
0
 20
0
 30
0
 70
128
  0
VERTEX
  8
LAYER_1
 10
164.3253
 20
-75.945
  0
VERTEX
  8
LAYER_1
 10
164.2167
 20
-75.3295
  0
SEQEND
  0
ENDBLK
  0
BLOCK
  8
LAYER_1
  2
AIGNBL01010200
 70
64
 10
0
 20
0
 30
0
  3
AIGNBL01010200
  0
POLYLINE
  8
LAYER_1
  6
AIGENLINE002
 40
0.1058
 41
0.1058
 66
1
 10
0
 20
0
 30
0
 70
128
  0
VERTEX
  8
LAYER_1
 10
174.5338
 20
-74.3988
  0
VERTEX
  8
LAYER_1
 10
164.6149
 20
-76.1478
  0
SEQEND
  0
ENDBLK
  0
BLOCK
  8
LAYER_1
  2
AIGNBL01010201
 70
64
 10
0
 20
0
 30
0
  3
AIGNBL01010201
  0
POLYLINE
  8
LAYER_1
  6
AIGENLINE002
 40
0.1058
 41
0.1058
 66
1
 10
0
 20
0
 30
0
 70
128
  0
VERTEX
  8
LAYER_1
 10
164.4195
 20
-75.0399
  0
VERTEX
  8
LAYER_1
 10
174.3384
 20
-73.2909
  0
SEQEND
  0
ENDBLK
  0
BLOCK
  8
LAYER_1
  2
AIGNBL01010202
 70
64
 10
0
 20
0
 30
0
  3
AIGNBL01010202
  0
POLYLINE
  8
LAYER_1
  6
AIGENLINE002
 40
0.1058
 41
0.1058
 66
1
 10
0
 20
0
 30
0
 70
128
  0
VERTEX
  8
LAYER_1
 10
164.4195
 20
-75.0399
 42
0.4141686767
  0
VERTEX
  8
LAYER_1
 10
164.2167
 20
-75.3295
  0
SEQEND
  0
ENDBLK
  0
BLOCK
  8
LAYER_1
  2
AIGNBL01010203
 70
64
 10
0
 20
0
 30
0
  3
AIGNBL01010203
  0
POLYLINE
  8
LAYER_1
  6
AIGENLINE002
 40
0.1058
 41
0.1058
 66
1
 10
0
 20
0
 30
0
 70
128
  0
VERTEX
  8
LAYER_1
 10
164.3253
 20
-75.945
 42
0.4142383628
  0
VERTEX
  8
LAYER_1
 10
164.6149
 20
-76.1478
  0
SEQEND
  0
ENDBLK
  0
BLOCK
  8
LAYER_1
  2
AIGNBL01010204
 70
64
 10
0
 20
0
 30
0
  3
AIGNBL01010204
  0
POLYLINE
  8
LAYER_1
  6
AIGENLINE002
 40
0.1058
 41
0.1058
 66
1
 10
0
 20
0
 30
0
 70
128
  0
VERTEX
  8
LAYER_1
 10
178.5814
 20
-58.208
  0
VERTEX
  8
LAYER_1
 10
179.2064
 20
-58.208
  0
SEQEND
  0
ENDBLK
  0
BLOCK
  8
LAYER_1
  2
AIGNBL01010205
 70
64
 10
0
 20
0
 30
0
  3
AIGNBL01010205
  0
POLYLINE
  8
LAYER_1
  6
AIGENLINE002
 40
0.1058
 41
0.1058
 66
1
 10
0
 20
0
 30
0
 70
128
  0
VERTEX
  8
LAYER_1
 10
178.3314
 20
-68.5299
  0
VERTEX
  8
LAYER_1
 10
178.3314
 20
-58.458
  0
SEQEND
  0
ENDBLK
  0
BLOCK
  8
LAYER_1
  2
AIGNBL01010206
 70
64
 10
0
 20
0
 30
0
  3
AIGNBL01010206
  0
POLYLINE
  8
LAYER_1
  6
AIGENLINE002
 40
0.1058
 41
0.1058
 66
1
 10
0
 20
0
 30
0
 70
128
  0
VERTEX
  8
LAYER_1
 10
179.4564
 20
-58.458
  0
VERTEX
  8
LAYER_1
 10
179.4564
 20
-68.5299
  0
SEQEND
  0
ENDBLK
  0
BLOCK
  8
LAYER_1
  2
AIGNBL01010207
 70
64
 10
0
 20
0
 30
0
  3
AIGNBL01010207
  0
POLYLINE
  8
LAYER_1
  6
AIGENLINE002
 40
0.1058
 41
0.1058
 66
1
 10
0
 20
0
 30
0
 70
128
  0
VERTEX
  8
LAYER_1
 10
179.4564
 20
-58.458
 42
0.4142108285
  0
VERTEX
  8
LAYER_1
 10
179.2064
 20
-58.208
  0
SEQEND
  0
ENDBLK
  0
BLOCK
  8
LAYER_1
  2
AIGNBL01010208
 70
64
 10
0
 20
0
 30
0
  3
AIGNBL01010208
  0
POLYLINE
  8
LAYER_1
  6
AIGENLINE002
 40
0.1058
 41
0.1058
 66
1
 10
0
 20
0
 30
0
 70
128
  0
VERTEX
  8
LAYER_1
 10
178.5814
 20
-58.208
 42
0.4142786171
  0
VERTEX
  8
LAYER_1
 10
178.3314
 20
-58.458
  0
SEQEND
  0
ENDBLK
  0
BLOCK
  8
LAYER_1
  2
AIGNBL01010209
 70
64
 10
0
 20
0
 30
0
  3
AIGNBL01010209
  0
POLYLINE
  8
LAYER_1
 40
0.1058
 41
0.1058
 66
1
 10
0
 20
0
 30
0
  0
VERTEX
  8
LAYER_1
 10
184.2532
 20
-189.1597
  0
VERTEX
  8
LAYER_1
 10
184.2532
 20
-182.317
  0
SEQEND
  0
ENDBLK
  0
BLOCK
  8
LAYER_1
  2
AIGNBL0101020A
 70
64
 10
0
 20
0
 30
0
  3
AIGNBL0101020A
  0
POLYLINE
  8
LAYER_1
 40
0.1058
 41
0.1058
 66
1
 10
0
 20
0
 30
0
  0
VERTEX
  8
LAYER_1
 10
183.9407
 20
-189.3401
  0
VERTEX
  8
LAYER_1
 10
184.2532
 20
-189.1597
  0
SEQEND
  0
ENDBLK
  0
BLOCK
  8
LAYER_1
  2
AIGNBL0101020B
 70
64
 10
0
 20
0
 30
0
  3
AIGNBL0101020B
  0
POLYLINE
  8
LAYER_1
 40
0.1058
 41
0.1058
 66
1
 10
0
 20
0
 30
0
  0
VERTEX
  8
LAYER_1
 10
183.9407
 20
-189.3401
  0
VERTEX
  8
LAYER_1
 10
180.6447
 20
-189.3401
  0
SEQEND
  0
ENDBLK
  0
BLOCK
  8
LAYER_1
  2
AIGNBL0101020C
 70
64
 10
0
 20
0
 30
0
  3
AIGNBL0101020C
  0
POLYLINE
  8
LAYER_1
 40
0.1058
 41
0.1058
 66
1
 10
0
 20
0
 30
0
  0
VERTEX
  8
LAYER_1
 10
180.6447
 20
-179.3401
  0
VERTEX
  8
LAYER_1
 10
182.4772
 20
-179.3401
  0
SEQEND
  0
ENDBLK
  0
BLOCK
  8
LAYER_1
  2
AIGNBL0101020D
 70
64
 10
0
 20
0
 30
0
  3
AIGNBL0101020D
  0
POLYLINE
  8
LAYER_1
 40
0.1058
 41
0.1058
 66
1
 10
0
 20
0
 30
0
  0
VERTEX
  8
LAYER_1
 10
183.2647
 20
-181.7463
  0
VERTEX
  8
LAYER_1
 10
184.2532
 20
-182.317
  0
SEQEND
  0
ENDBLK
  0
BLOCK
  8
LAYER_1
  2
AIGNBL0101020E
 70
64
 10
0
 20
0
 30
0
  3
AIGNBL0101020E
  0
POLYLINE
  8
LAYER_1
 40
0.1058
 41
0.1058
 66
1
 10
0
 20
0
 30
0
  0
VERTEX
  8
LAYER_1
 10
180.6447
 20
-181.7463
  0
VERTEX
  8
LAYER_1
 10
183.2647
 20
-181.7463
  0
SEQEND
  0
ENDBLK
  0
BLOCK
  8
LAYER_1
  2
AIGNBL0101020F
 70
64
 10
0
 20
0
 30
0
  3
AIGNBL0101020F
  0
POLYLINE
  8
LAYER_1
 40
0.1058
 41
0.1058
 66
1
 10
0
 20
0
 30
0
  0
VERTEX
  8
LAYER_1
 10
182.4489
 20
-188.7694
  0
VERTEX
  8
LAYER_1
 10
182.4489
 20
-182.317
  0
SEQEND
  0
ENDBLK
  0
BLOCK
  8
LAYER_1
  2
AIGNBL01010210
 70
64
 10
0
 20
0
 30
0
  3
AIGNBL01010210
  0
POLYLINE
  8
LAYER_1
 40
0.1058
 41
0.1058
 66
1
 10
0
 20
0
 30
0
  0
VERTEX
  8
LAYER_1
 10
182.4489
 20
-182.317
 42
0.255645804
  0
VERTEX
  8
LAYER_1
 10
182.2614
 20
-182.0634
 42
0.09540418401
  0
VERTEX
  8
LAYER_1
 10
181.4855
 20
-181.8119
 42
0.03980869191
  0
VERTEX
  8
LAYER_1
 10
180.6447
 20
-181.7463
  0
SEQEND
  0
ENDBLK
  0
BLOCK
  8
LAYER_1
  2
AIGNBL01010211
 70
64
 10
0
 20
0
 30
0
  3
AIGNBL01010211
  0
POLYLINE
  8
LAYER_1
 40
0.1058
 41
0.1058
 66
1
 10
0
 20
0
 30
0
  0
VERTEX
  8
LAYER_1
 10
184.2532
 20
-182.317
 42
0.2645836649
  0
VERTEX
  8
LAYER_1
 10
182.4489
 20
-182.317
  0
SEQEND
  0
ENDBLK
  0
BLOCK
  8
LAYER_1
  2
AIGNBL01010212
 70
64
 10
0
 20
0
 30
0
  3
AIGNBL01010212
  0
POLYLINE
  8
LAYER_1
 40
0.1058
 41
0.1058
 66
1
 10
0
 20
0
 30
0
  0
VERTEX
  8
LAYER_1
 10
182.4489
 20
-188.7694
 42
-0.255645804
  0
VERTEX
  8
LAYER_1
 10
182.2614
 20
-189.023
 42
-0.09540418401
  0
VERTEX
  8
LAYER_1
 10
181.4855
 20
-189.2745
 42
-0.03980869191
  0
VERTEX
  8
LAYER_1
 10
180.6447
 20
-189.3401
  0
SEQEND
  0
ENDBLK
  0
BLOCK
  8
LAYER_1
  2
AIGNBL01010213
 70
64
 10
0
 20
0
 30
0
  3
AIGNBL01010213
  0
POLYLINE
  8
LAYER_1
 40
0.1058
 41
0.1058
 66
1
 10
0
 20
0
 30
0
  0
VERTEX
  8
LAYER_1
 10
182.4489
 20
-188.7694
 42
0.4142151459
  0
VERTEX
  8
LAYER_1
 10
183.7787
 20
-189.2438
 42
0.1730529941
  0
VERTEX
  8
LAYER_1
 10
184.2532
 20
-188.7694
  0
SEQEND
  0
ENDBLK
  0
BLOCK
  8
LAYER_1
  2
AIGNBL01010214
 70
64
 10
0
 20
0
 30
0
  3
AIGNBL01010214
  0
POLYLINE
  8
LAYER_1
 40
0.1058
 41
0.1058
 66
1
 10
0
 20
0
 30
0
  0
VERTEX
  8
LAYER_1
 10
182.7272
 20
-179.5901
  0
VERTEX
  8
LAYER_1
 10
182.7272
 20
-181.7463
  0
SEQEND
  0
ENDBLK
  0
BLOCK
  8
LAYER_1
  2
AIGNBL01010215
 70
64
 10
0
 20
0
 30
0
  3
AIGNBL01010215
  0
POLYLINE
  8
LAYER_1
 40
0.1058
 41
0.1058
 66
1
 10
0
 20
0
 30
0
  0
VERTEX
  8
LAYER_1
 10
182.4772
 20
-179.3401
  0
VERTEX
  8
LAYER_1
 10
182.7272
 20
-179.5901
  0
SEQEND
  0
ENDBLK
  0
BLOCK
  8
LAYER_1
  2
AIGNBL01010216
 70
64
 10
0
 20
0
 30
0
  3
AIGNBL01010216
  0
POLYLINE
  8
LAYER_1
 40
0.1058
 41
0.1058
 66
1
 10
0
 20
0
 30
0
  0
VERTEX
  8
LAYER_1
 10
180.6447
 20
-181.3544
  0
VERTEX
  8
LAYER_1
 10
182.7272
 20
-181.3544
  0
SEQEND
  0
ENDBLK
  0
BLOCK
  8
LAYER_1
  2
AIGNBL01010217
 70
64
 10
0
 20
0
 30
0
  3
AIGNBL01010217
  0
POLYLINE
  8
LAYER_1
 40
0.1058
 41
0.1058
 66
1
 10
0
 20
0
 30
0
  0
VERTEX
  8
LAYER_1
 10
182.519
 20
-179.3818
  0
VERTEX
  8
LAYER_1
 10
182.519
 20
-181.3544
  0
SEQEND
  0
ENDBLK
  0
BLOCK
  8
LAYER_1
  2
AIGNBL01010218
 70
64
 10
0
 20
0
 30
0
  3
AIGNBL01010218
  0
POLYLINE
  8
LAYER_1
 40
0.1058
 41
0.1058
 66
1
 10
0
 20
0
 30
0
  0
VERTEX
  8
LAYER_1
 10
182.519
 20
-181.3544
  0
VERTEX
  8
LAYER_1
 10
182.7272
 20
-181.7151
  0
SEQEND
  0
ENDBLK
  0
BLOCK
  8
LAYER_1
  2
AIGNBL01010219
 70
64
 10
0
 20
0
 30
0
  3
AIGNBL01010219
  0
POLYLINE
  8
LAYER_1
 40
0.1058
 41
0.1058
 66
1
 10
0
 20
0
 30
0
  0
VERTEX
  8
LAYER_1
 10
182.7272
 20
-179.5901
  0
VERTEX
  8
LAYER_1
 10
180.6447
 20
-179.5901
  0
SEQEND
  0
ENDBLK
  0
BLOCK
  8
LAYER_1
  2
AIGNBL0101021A
 70
64
 10
0
 20
0
 30
0
  3
AIGNBL0101021A
  0
POLYLINE
  8
LAYER_1
 40
0.1058
 41
0.1058
 66
1
 10
0
 20
0
 30
0
  0
VERTEX
  8
LAYER_1
 10
177.0363
 20
-189.1597
  0
VERTEX
  8
LAYER_1
 10
177.0363
 20
-182.317
  0
SEQEND
  0
ENDBLK
  0
BLOCK
  8
LAYER_1
  2
AIGNBL0101021B
 70
64
 10
0
 20
0
 30
0
  3
AIGNBL0101021B
  0
POLYLINE
  8
LAYER_1
 40
0.1058
 41
0.1058
 66
1
 10
0
 20
0
 30
0
  0
VERTEX
  8
LAYER_1
 10
177.3488
 20
-189.3401
  0
VERTEX
  8
LAYER_1
 10
177.0363
 20
-189.1597
  0
SEQEND
  0
ENDBLK
  0
BLOCK
  8
LAYER_1
  2
AIGNBL0101021C
 70
64
 10
0
 20
0
 30
0
  3
AIGNBL0101021C
  0
POLYLINE
  8
LAYER_1
 40
0.1058
 41
0.1058
 66
1
 10
0
 20
0
 30
0
  0
VERTEX
  8
LAYER_1
 10
177.3488
 20
-189.3401
  0
VERTEX
  8
LAYER_1
 10
180.6447
 20
-189.3401
  0
SEQEND
  0
ENDBLK
  0
BLOCK
  8
LAYER_1
  2
AIGNBL0101021D
 70
64
 10
0
 20
0
 30
0
  3
AIGNBL0101021D
  0
POLYLINE
  8
LAYER_1
 40
0.1058
 41
0.1058
 66
1
 10
0
 20
0
 30
0
  0
VERTEX
  8
LAYER_1
 10
180.6447
 20
-179.3401
  0
VERTEX
  8
LAYER_1
 10
178.8122
 20
-179.3401
  0
SEQEND
  0
ENDBLK
  0
BLOCK
  8
LAYER_1
  2
AIGNBL0101021E
 70
64
 10
0
 20
0
 30
0
  3
AIGNBL0101021E
  0
POLYLINE
  8
LAYER_1
 40
0.1058
 41
0.1058
 66
1
 10
0
 20
0
 30
0
  0
VERTEX
  8
LAYER_1
 10
178.0247
 20
-181.7463
  0
VERTEX
  8
LAYER_1
 10
177.0363
 20
-182.317
  0
SEQEND
  0
ENDBLK
  0
BLOCK
  8
LAYER_1
  2
AIGNBL0101021F
 70
64
 10
0
 20
0
 30
0
  3
AIGNBL0101021F
  0
POLYLINE
  8
LAYER_1
 40
0.1058
 41
0.1058
 66
1
 10
0
 20
0
 30
0
  0
VERTEX
  8
LAYER_1
 10
180.6447
 20
-181.7463
  0
VERTEX
  8
LAYER_1
 10
178.0247
 20
-181.7463
  0
SEQEND
  0
ENDBLK
  0
BLOCK
  8
LAYER_1
  2
AIGNBL01010220
 70
64
 10
0
 20
0
 30
0
  3
AIGNBL01010220
  0
POLYLINE
  8
LAYER_1
 40
0.1058
 41
0.1058
 66
1
 10
0
 20
0
 30
0
  0
VERTEX
  8
LAYER_1
 10
178.8405
 20
-188.7694
  0
VERTEX
  8
LAYER_1
 10
178.8405
 20
-182.317
  0
SEQEND
  0
ENDBLK
  0
BLOCK
  8
LAYER_1
  2
AIGNBL01010221
 70
64
 10
0
 20
0
 30
0
  3
AIGNBL01010221
  0
POLYLINE
  8
LAYER_1
 40
0.1058
 41
0.1058
 66
1
 10
0
 20
0
 30
0
  0
VERTEX
  8
LAYER_1
 10
178.8405
 20
-182.317
 42
-0.2556514246
  0
VERTEX
  8
LAYER_1
 10
179.028
 20
-182.0634
 42
-0.09539481877
  0
VERTEX
  8
LAYER_1
 10
179.804
 20
-181.8119
 42
-0.03980979233
  0
VERTEX
  8
LAYER_1
 10
180.6447
 20
-181.7463
  0
SEQEND
  0
ENDBLK
  0
BLOCK
  8
LAYER_1
  2
AIGNBL01010222
 70
64
 10
0
 20
0
 30
0
  3
AIGNBL01010222
  0
POLYLINE
  8
LAYER_1
 40
0.1058
 41
0.1058
 66
1
 10
0
 20
0
 30
0
  0
VERTEX
  8
LAYER_1
 10
178.8405
 20
-182.317
 42
0.2645709195
  0
VERTEX
  8
LAYER_1
 10
177.0363
 20
-182.317
  0
SEQEND
  0
ENDBLK
  0
BLOCK
  8
LAYER_1
  2
AIGNBL01010223
 70
64
 10
0
 20
0
 30
0
  3
AIGNBL01010223
  0
POLYLINE
  8
LAYER_1
 40
0.1058
 41
0.1058
 66
1
 10
0
 20
0
 30
0
  0
VERTEX
  8
LAYER_1
 10
178.8405
 20
-188.7694
 42
0.2556514246
  0
VERTEX
  8
LAYER_1
 10
179.028
 20
-189.023
 42
0.09539481877
  0
VERTEX
  8
LAYER_1
 10
179.804
 20
-189.2745
 42
0.03980979233
  0
VERTEX
  8
LAYER_1
 10
180.6447
 20
-189.3401
  0
SEQEND
  0
ENDBLK
  0
BLOCK
  8
LAYER_1
  2
AIGNBL01010224
 70
64
 10
0
 20
0
 30
0
  3
AIGNBL01010224
  0
POLYLINE
  8
LAYER_1
 40
0.1058
 41
0.1058
 66
1
 10
0
 20
0
 30
0
  0
VERTEX
  8
LAYER_1
 10
177.0363
 20
-188.7694
 42
0.4142233408
  0
VERTEX
  8
LAYER_1
 10
178.3661
 20
-189.2438
 42
0.1730347417
  0
VERTEX
  8
LAYER_1
 10
178.8405
 20
-188.7694
  0
SEQEND
  0
ENDBLK
  0
BLOCK
  8
LAYER_1
  2
AIGNBL01010225
 70
64
 10
0
 20
0
 30
0
  3
AIGNBL01010225
  0
POLYLINE
  8
LAYER_1
 40
0.1058
 41
0.1058
 66
1
 10
0
 20
0
 30
0
  0
VERTEX
  8
LAYER_1
 10
178.5622
 20
-179.5901
  0
VERTEX
  8
LAYER_1
 10
178.5622
 20
-181.7463
  0
SEQEND
  0
ENDBLK
  0
BLOCK
  8
LAYER_1
  2
AIGNBL01010226
 70
64
 10
0
 20
0
 30
0
  3
AIGNBL01010226
  0
POLYLINE
  8
LAYER_1
 40
0.1058
 41
0.1058
 66
1
 10
0
 20
0
 30
0
  0
VERTEX
  8
LAYER_1
 10
178.8122
 20
-179.3401
  0
VERTEX
  8
LAYER_1
 10
178.5622
 20
-179.5901
  0
SEQEND
  0
ENDBLK
  0
BLOCK
  8
LAYER_1
  2
AIGNBL01010227
 70
64
 10
0
 20
0
 30
0
  3
AIGNBL01010227
  0
POLYLINE
  8
LAYER_1
 40
0.1058
 41
0.1058
 66
1
 10
0
 20
0
 30
0
  0
VERTEX
  8
LAYER_1
 10
180.6447
 20
-181.3544
  0
VERTEX
  8
LAYER_1
 10
178.5622
 20
-181.3544
  0
SEQEND
  0
ENDBLK
  0
BLOCK
  8
LAYER_1
  2
AIGNBL01010228
 70
64
 10
0
 20
0
 30
0
  3
AIGNBL01010228
  0
POLYLINE
  8
LAYER_1
 40
0.1058
 41
0.1058
 66
1
 10
0
 20
0
 30
0
  0
VERTEX
  8
LAYER_1
 10
178.7705
 20
-179.3818
  0
VERTEX
  8
LAYER_1
 10
178.7705
 20
-181.3544
  0
SEQEND
  0
ENDBLK
  0
BLOCK
  8
LAYER_1
  2
AIGNBL01010229
 70
64
 10
0
 20
0
 30
0
  3
AIGNBL01010229
  0
POLYLINE
  8
LAYER_1
 40
0.1058
 41
0.1058
 66
1
 10
0
 20
0
 30
0
  0
VERTEX
  8
LAYER_1
 10
178.7705
 20
-181.3544
  0
VERTEX
  8
LAYER_1
 10
178.5622
 20
-181.7151
  0
SEQEND
  0
ENDBLK
  0
BLOCK
  8
LAYER_1
  2
AIGNBL0101022A
 70
64
 10
0
 20
0
 30
0
  3
AIGNBL0101022A
  0
POLYLINE
  8
LAYER_1
 40
0.1058
 41
0.1058
 66
1
 10
0
 20
0
 30
0
  0
VERTEX
  8
LAYER_1
 10
178.5622
 20
-179.5901
  0
VERTEX
  8
LAYER_1
 10
180.6447
 20
-179.5901
  0
SEQEND
  0
ENDBLK
  0
BLOCK
  8
LAYER_1
  2
AIGNBL0101022B
 70
64
 10
0
 20
0
 30
0
  3
AIGNBL0101022B
  0
INSERT
  8
LAYER_1
  2
AIGNBL0102022C
 10
0
 20
0
 30
0
  0
INSERT
  8
LAYER_1
  2
AIGNBL0102022D
 10
0
 20
0
 30
0
  0
INSERT
  8
LAYER_1
  2
AIGNBL0102022E
 10
0
 20
0
 30
0
  0
INSERT
  8
LAYER_1
  2
AIGNBL0102022F
 10
0
 20
0
 30
0
  0
INSERT
  8
LAYER_1
  2
AIGNBL01020230
 10
0
 20
0
 30
0
  0
INSERT
  8
LAYER_1
  2
AIGNBL01020231
 10
0
 20
0
 30
0
  0
ENDBLK
  0
BLOCK
  8
LAYER_1
  2
AIGNBL01010232
 70
64
 10
0
 20
0
 30
0
  3
AIGNBL01010232
  0
INSERT
  8
LAYER_1
  2
AIGNBL01020233
 10
0
 20
0
 30
0
  0
INSERT
  8
LAYER_1
  2
AIGNBL01020234
 10
0
 20
0
 30
0
  0
INSERT
  8
LAYER_1
  2
AIGNBL01020235
 10
0
 20
0
 30
0
  0
INSERT
  8
LAYER_1
  2
AIGNBL01020236
 10
0
 20
0
 30
0
  0
INSERT
  8
LAYER_1
  2
AIGNBL01020237
 10
0
 20
0
 30
0
  0
INSERT
  8
LAYER_1
  2
AIGNBL01020238
 10
0
 20
0
 30
0
  0
INSERT
  8
LAYER_1
  2
AIGNBL01020239
 10
0
 20
0
 30
0
  0
ENDBLK
  0
BLOCK
  8
LAYER_1
  2
AIGNBL0101023A
 70
64
 10
0
 20
0
 30
0
  3
AIGNBL0101023A
  0
CIRCLE
  8
LAYER_1
 10
139.6389
 20
-168.3306
 40
4.375
  0
ENDBLK
  0
BLOCK
  8
LAYER_1
  2
AIGNBL0101023B
 70
64
 10
0
 20
0
 30
0
  3
AIGNBL0101023B
  0
POLYLINE
  8
LAYER_1
 40
0.1058
 41
0.1058
 66
1
 10
0
 20
0
 30
0
  0
VERTEX
  8
LAYER_1
 10
139.2014
 20
-168.3306
  0
VERTEX
  8
LAYER_1
 10
140.0764
 20
-168.3306
  0
SEQEND
  0
ENDBLK
  0
BLOCK
  8
LAYER_1
  2
AIGNBL0101023C
 70
64
 10
0
 20
0
 30
0
  3
AIGNBL0101023C
  0
POLYLINE
  8
LAYER_1
 40
0.1058
 41
0.1058
 66
1
 10
0
 20
0
 30
0
  0
VERTEX
  8
LAYER_1
 10
139.6389
 20
-168.7681
  0
VERTEX
  8
LAYER_1
 10
139.6389
 20
-167.8931
  0
SEQEND
  0
ENDBLK
  0
BLOCK
  8
LAYER_1
  2
AIGNBL0101023D
 70
64
 10
0
 20
0
 30
0
  3
AIGNBL0101023D
  0
POLYLINE
  8
LAYER_1
  6
AIGENLINE003
 40
0.1058
 41
0.1058
 66
1
 10
0
 20
0
 30
0
 70
128
  0
VERTEX
  8
LAYER_1
 10
134.3889
 20
-168.3306
  0
VERTEX
  8
LAYER_1
 10
138.7639
 20
-168.3306
  0
SEQEND
  0
ENDBLK
  0
BLOCK
  8
LAYER_1
  2
AIGNBL0101023E
 70
64
 10
0
 20
0
 30
0
  3
AIGNBL0101023E
  0
POLYLINE
  8
LAYER_1
  6
AIGENLINE003
 40
0.1058
 41
0.1058
 66
1
 10
0
 20
0
 30
0
 70
128
  0
VERTEX
  8
LAYER_1
 10
140.5139
 20
-168.3306
  0
VERTEX
  8
LAYER_1
 10
144.8889
 20
-168.3306
  0
SEQEND
  0
ENDBLK
  0
BLOCK
  8
LAYER_1
  2
AIGNBL0101023F
 70
64
 10
0
 20
0
 30
0
  3
AIGNBL0101023F
  0
POLYLINE
  8
LAYER_1
  6
AIGENLINE003
 40
0.1058
 41
0.1058
 66
1
 10
0
 20
0
 30
0
 70
128
  0
VERTEX
  8
LAYER_1
 10
139.6389
 20
-173.5806
  0
VERTEX
  8
LAYER_1
 10
139.6389
 20
-169.2056
  0
SEQEND
  0
ENDBLK
  0
BLOCK
  8
LAYER_1
  2
AIGNBL01010240
 70
64
 10
0
 20
0
 30
0
  3
AIGNBL01010240
  0
POLYLINE
  8
LAYER_1
  6
AIGENLINE003
 40
0.1058
 41
0.1058
 66
1
 10
0
 20
0
 30
0
 70
128
  0
VERTEX
  8
LAYER_1
 10
139.6389
 20
-167.4556
  0
VERTEX
  8
LAYER_1
 10
139.6389
 20
-163.0806
  0
SEQEND
  0
ENDBLK
  0
BLOCK
  8
LAYER_1
  2
AIGNBL01010241
 70
64
 10
0
 20
0
 30
0
  3
AIGNBL01010241
  0
INSERT
  8
LAYER_1
  2
AIGNBL01020242
 10
0
 20
0
 30
0
  0
INSERT
  8
LAYER_1
  2
AIGNBL01020243
 10
0
 20
0
 30
0
  0
INSERT
  8
LAYER_1
  2
AIGNBL01020244
 10
0
 20
0
 30
0
  0
INSERT
  8
LAYER_1
  2
AIGNBL01020245
 10
0
 20
0
 30
0
  0
INSERT
  8
LAYER_1
  2
AIGNBL01020246
 10
0
 20
0
 30
0
  0
INSERT
  8
LAYER_1
  2
AIGNBL01020247
 10
0
 20
0
 30
0
  0
ENDBLK
  0
BLOCK
  8
LAYER_1
  2
AIGNBL01010248
 70
64
 10
0
 20
0
 30
0
  3
AIGNBL01010248
  0
TEXT
  8
LAYER_1
 10
130.8086
 20
-178.0105
 11
130.8086
 21
-178.0105
 40
3.473
 41
0.5
  1
水栓取付孔
  0
ENDBLK
  0
BLOCK
  8
LAYER_1
  2
AIGNBL01010249
 70
64
 10
0
 20
0
 30
0
  3
AIGNBL01010249
  0
POLYLINE
  8
LAYER_1
  6
AIGENLINE004
 40
0.1058
 41
0.1058
 66
1
 10
0
 20
0
 30
0
 70
128
  0
VERTEX
  8
LAYER_1
 10
151.236
 20
-152.8041
  0
VERTEX
  8
LAYER_1
 10
128.0522
 20
-152.8041
  0
SEQEND
  0
ENDBLK
  0
BLOCK
  8
LAYER_1
  2
AIGNBL0101024A
 70
64
 10
0
 20
0
 30
0
  3
AIGNBL0101024A
  0
POLYLINE
  8
LAYER_1
  6
AIGENLINE004
 40
0.1058
 41
0.1058
 66
1
 10
0
 20
0
 30
0
 70
128
  0
VERTEX
  8
LAYER_1
 10
128.0522
 20
-152.8041
 42
0.4142197109
  0
VERTEX
  8
LAYER_1
 10
125.5522
 20
-155.3041
  0
SEQEND
  0
ENDBLK
  0
BLOCK
  8
LAYER_1
  2
AIGNBL0101024B
 70
64
 10
0
 20
0
 30
0
  3
AIGNBL0101024B
  0
POLYLINE
  8
LAYER_1
  6
AIGENLINE004
 40
0.1058
 41
0.1058
 66
1
 10
0
 20
0
 30
0
 70
128
  0
VERTEX
  8
LAYER_1
 10
125.5522
 20
-155.3041
  0
VERTEX
  8
LAYER_1
 10
125.5522
 20
-177.4888
  0
SEQEND
  0
ENDBLK
  0
BLOCK
  8
LAYER_1
  2
AIGNBL0101024C
 70
64
 10
0
 20
0
 30
0
  3
AIGNBL0101024C
  0
POLYLINE
  8
LAYER_1
  6
AIGENLINE004
 40
0.1058
 41
0.1058
 66
1
 10
0
 20
0
 30
0
 70
128
  0
VERTEX
  8
LAYER_1
 10
125.5522
 20
-177.4888
 42
0.4142199197
  0
VERTEX
  8
LAYER_1
 10
128.0522
 20
-179.9888
  0
SEQEND
  0
ENDBLK
  0
BLOCK
  8
LAYER_1
  2
AIGNBL0101024D
 70
64
 10
0
 20
0
 30
0
  3
AIGNBL0101024D
  0
POLYLINE
  8
LAYER_1
  6
AIGENLINE004
 40
0.1058
 41
0.1058
 66
1
 10
0
 20
0
 30
0
 70
128
  0
VERTEX
  8
LAYER_1
 10
128.0522
 20
-179.9888
  0
VERTEX
  8
LAYER_1
 10
151.236
 20
-179.9888
  0
SEQEND
  0
ENDBLK
  0
BLOCK
  8
LAYER_1
  2
AIGNBL0101024E
 70
64
 10
0
 20
0
 30
0
  3
AIGNBL0101024E
  0
POLYLINE
  8
LAYER_1
  6
AIGENLINE004
 40
0.1058
 41
0.1058
 66
1
 10
0
 20
0
 30
0
 70
128
  0
VERTEX
  8
LAYER_1
 10
151.236
 20
-179.9888
 42
0.4142122818
  0
VERTEX
  8
LAYER_1
 10
153.736
 20
-177.4888
  0
SEQEND
  0
ENDBLK
  0
BLOCK
  8
LAYER_1
  2
AIGNBL0101024F
 70
64
 10
0
 20
0
 30
0
  3
AIGNBL0101024F
  0
POLYLINE
  8
LAYER_1
  6
AIGENLINE004
 40
0.1058
 41
0.1058
 66
1
 10
0
 20
0
 30
0
 70
128
  0
VERTEX
  8
LAYER_1
 10
153.736
 20
-177.4888
  0
VERTEX
  8
LAYER_1
 10
153.736
 20
-155.3041
  0
SEQEND
  0
ENDBLK
  0
BLOCK
  8
LAYER_1
  2
AIGNBL01010250
 70
64
 10
0
 20
0
 30
0
  3
AIGNBL01010250
  0
POLYLINE
  8
LAYER_1
  6
AIGENLINE004
 40
0.1058
 41
0.1058
 66
1
 10
0
 20
0
 30
0
 70
128
  0
VERTEX
  8
LAYER_1
 10
153.736
 20
-155.3041
 42
0.414212073
  0
VERTEX
  8
LAYER_1
 10
151.236
 20
-152.8041
  0
SEQEND
  0
ENDBLK
  0
BLOCK
  8
LAYER_1
  2
AIGNBL01010251
 70
64
 10
0
 20
0
 30
0
  3
AIGNBL01010251
  0
POLYLINE
  8
LAYER_1
 40
0.1058
 41
0.1058
 66
1
 10
0
 20
0
 30
0
  0
VERTEX
  8
LAYER_1
 10
174.3985
 20
-32.8923
  0
VERTEX
  8
LAYER_1
 10
183.391
 20
-32.8923
  0
SEQEND
  0
ENDBLK
  0
BLOCK
  8
LAYER_1
  2
AIGNBL01010252
 70
64
 10
0
 20
0
 30
0
  3
AIGNBL01010252
  0
POLYLINE
  8
LAYER_1
 40
0.1058
 41
0.1058
 66
1
 10
0
 20
0
 30
0
  0
VERTEX
  8
LAYER_1
 10
183.5169
 20
-25.6787
  0
VERTEX
  8
LAYER_1
 10
183.391
 20
-32.8923
  0
SEQEND
  0
ENDBLK
  0
BLOCK
  8
LAYER_1
  2
AIGNBL01010253
 70
64
 10
0
 20
0
 30
0
  3
AIGNBL01010253
  0
POLYLINE
  8
LAYER_1
 40
0.1058
 41
0.1058
 66
1
 10
0
 20
0
 30
0
  0
VERTEX
  8
LAYER_1
 10
174.3505
 20
-30.1423
  0
VERTEX
  8
LAYER_1
 10
174.3985
 20
-32.8923
  0
SEQEND
  0
ENDBLK
  0
BLOCK
  8
LAYER_1
  2
AIGNBL01010254
 70
64
 10
0
 20
0
 30
0
  3
AIGNBL01010254
  0
POLYLINE
  8
LAYER_1
 40
0.1058
 41
0.1058
 66
1
 10
0
 20
0
 30
0
  0
VERTEX
  8
LAYER_1
 10
178.8947
 20
-30.1423
 42
0.4142145296
  0
VERTEX
  8
LAYER_1
 10
183.5197
 20
-25.5173
 42
0.4142159289
  0
VERTEX
  8
LAYER_1
 10
178.8947
 20
-20.8923
  0
SEQEND
  0
ENDBLK
  0
BLOCK
  8
LAYER_1
  2
AIGNBL01010255
 70
64
 10
0
 20
0
 30
0
  3
AIGNBL01010255
  0
POLYLINE
  8
LAYER_1
 40
0.1058
 41
0.1058
 66
1
 10
0
 20
0
 30
0
  0
VERTEX
  8
LAYER_1
 10
173.8947
 20
-31.7673
  0
VERTEX
  8
LAYER_1
 10
174.3788
 20
-31.7673
  0
SEQEND
  0
ENDBLK
  0
BLOCK
  8
LAYER_1
  2
AIGNBL01010256
 70
64
 10
0
 20
0
 30
0
  3
AIGNBL01010256
  0
POLYLINE
  8
LAYER_1
 40
0.1058
 41
0.1058
 66
1
 10
0
 20
0
 30
0
  0
VERTEX
  8
LAYER_1
 10
183.4106
 20
-31.7673
  0
VERTEX
  8
LAYER_1
 10
183.8947
 20
-31.7673
  0
SEQEND
  0
ENDBLK
  0
BLOCK
  8
LAYER_1
  2
AIGNBL01010257
 70
64
 10
0
 20
0
 30
0
  3
AIGNBL01010257
  0
POLYLINE
  8
LAYER_1
 40
0.1058
 41
0.1058
 66
1
 10
0
 20
0
 30
0
  0
VERTEX
  8
LAYER_1
 10
183.8947
 20
-31.7673
 42
0.4142171418
  0
VERTEX
  8
LAYER_1
 10
185.1447
 20
-30.5173
  0
SEQEND
  0
ENDBLK
  0
BLOCK
  8
LAYER_1
  2
AIGNBL01010258
 70
64
 10
0
 20
0
 30
0
  3
AIGNBL01010258
  0
POLYLINE
  8
LAYER_1
 40
0.1058
 41
0.1058
 66
1
 10
0
 20
0
 30
0
  0
VERTEX
  8
LAYER_1
 10
185.1447
 20
-30.5173
  0
VERTEX
  8
LAYER_1
 10
185.1447
 20
-20.5173
  0
SEQEND
  0
ENDBLK
  0
BLOCK
  8
LAYER_1
  2
AIGNBL01010259
 70
64
 10
0
 20
0
 30
0
  3
AIGNBL01010259
  0
POLYLINE
  8
LAYER_1
 40
0.1058
 41
0.1058
 66
1
 10
0
 20
0
 30
0
  0
VERTEX
  8
LAYER_1
 10
185.1447
 20
-20.5173
 42
0.414222319
  0
VERTEX
  8
LAYER_1
 10
183.8947
 20
-19.2673
  0
SEQEND
  0
ENDBLK
  0
BLOCK
  8
LAYER_1
  2
AIGNBL0101025A
 70
64
 10
0
 20
0
 30
0
  3
AIGNBL0101025A
  0
POLYLINE
  8
LAYER_1
 40
0.1058
 41
0.1058
 66
1
 10
0
 20
0
 30
0
  0
VERTEX
  8
LAYER_1
 10
183.8947
 20
-19.2673
  0
VERTEX
  8
LAYER_1
 10
173.8947
 20
-19.2673
  0
SEQEND
  0
ENDBLK
  0
BLOCK
  8
LAYER_1
  2
AIGNBL0101025B
 70
64
 10
0
 20
0
 30
0
  3
AIGNBL0101025B
  0
POLYLINE
  8
LAYER_1
 40
0.1058
 41
0.1058
 66
1
 10
0
 20
0
 30
0
  0
VERTEX
  8
LAYER_1
 10
173.8947
 20
-19.2673
 42
0.4142099842
  0
VERTEX
  8
LAYER_1
 10
172.6447
 20
-20.5173
  0
SEQEND
  0
ENDBLK
  0
BLOCK
  8
LAYER_1
  2
AIGNBL0101025C
 70
64
 10
0
 20
0
 30
0
  3
AIGNBL0101025C
  0
POLYLINE
  8
LAYER_1
 40
0.1058
 41
0.1058
 66
1
 10
0
 20
0
 30
0
  0
VERTEX
  8
LAYER_1
 10
172.6447
 20
-20.5173
  0
VERTEX
  8
LAYER_1
 10
172.6447
 20
-20.8923
  0
SEQEND
  0
ENDBLK
  0
BLOCK
  8
LAYER_1
  2
AIGNBL0101025D
 70
64
 10
0
 20
0
 30
0
  3
AIGNBL0101025D
  0
POLYLINE
  8
LAYER_1
 40
0.1058
 41
0.1058
 66
1
 10
0
 20
0
 30
0
  0
VERTEX
  8
LAYER_1
 10
172.6447
 20
-30.1423
  0
VERTEX
  8
LAYER_1
 10
172.6447
 20
-30.5173
  0
SEQEND
  0
ENDBLK
  0
BLOCK
  8
LAYER_1
  2
AIGNBL0101025E
 70
64
 10
0
 20
0
 30
0
  3
AIGNBL0101025E
  0
POLYLINE
  8
LAYER_1
 40
0.1058
 41
0.1058
 66
1
 10
0
 20
0
 30
0
  0
VERTEX
  8
LAYER_1
 10
172.6447
 20
-30.5173
 42
0.4142048072
  0
VERTEX
  8
LAYER_1
 10
173.8947
 20
-31.7673
  0
SEQEND
  0
ENDBLK
  0
BLOCK
  8
LAYER_1
  2
AIGNBL0101025F
 70
64
 10
0
 20
0
 30
0
  3
AIGNBL0101025F
  0
POLYLINE
  8
LAYER_1
 40
0.1058
 41
0.1058
 66
1
 10
0
 20
0
 30
0
  0
VERTEX
  8
LAYER_1
 10
178.8947
 20
-20.8923
  0
VERTEX
  8
LAYER_1
 10
124.0197
 20
-20.8923
  0
SEQEND
  0
ENDBLK
  0
BLOCK
  8
LAYER_1
  2
AIGNBL01010260
 70
64
 10
0
 20
0
 30
0
  3
AIGNBL01010260
  0
POLYLINE
  8
LAYER_1
 40
0.1058
 41
0.1058
 66
1
 10
0
 20
0
 30
0
  0
VERTEX
  8
LAYER_1
 10
124.0197
 20
-30.1423
  0
VERTEX
  8
LAYER_1
 10
178.8947
 20
-30.1423
  0
SEQEND
  0
ENDBLK
  0
BLOCK
  8
LAYER_1
  2
AIGNBL01010261
 70
64
 10
0
 20
0
 30
0
  3
AIGNBL01010261
  0
POLYLINE
  8
LAYER_1
 40
0.1058
 41
0.1058
 66
1
 10
0
 20
0
 30
0
  0
VERTEX
  8
LAYER_1
 10
124.0197
 20
-20.8923
 42
0.4142076032
  0
VERTEX
  8
LAYER_1
 10
123.2697
 20
-21.6423
  0
SEQEND
  0
ENDBLK
  0
BLOCK
  8
LAYER_1
  2
AIGNBL01010262
 70
64
 10
0
 20
0
 30
0
  3
AIGNBL01010262
  0
POLYLINE
  8
LAYER_1
 40
0.1058
 41
0.1058
 66
1
 10
0
 20
0
 30
0
  0
VERTEX
  8
LAYER_1
 10
123.2697
 20
-21.6423
  0
VERTEX
  8
LAYER_1
 10
123.2697
 20
-29.3923
  0
SEQEND
  0
ENDBLK
  0
BLOCK
  8
LAYER_1
  2
AIGNBL01010263
 70
64
 10
0
 20
0
 30
0
  3
AIGNBL01010263
  0
POLYLINE
  8
LAYER_1
 40
0.1058
 41
0.1058
 66
1
 10
0
 20
0
 30
0
  0
VERTEX
  8
LAYER_1
 10
123.2697
 20
-29.3923
 42
0.4141989752
  0
VERTEX
  8
LAYER_1
 10
124.0197
 20
-30.1423
  0
SEQEND
  0
ENDBLK
  0
BLOCK
  8
LAYER_1
  2
AIGNBL01010264
 70
64
 10
0
 20
0
 30
0
  3
AIGNBL01010264
  0
POLYLINE
  8
LAYER_1
 40
0.1058
 41
0.1058
 66
1
 10
0
 20
0
 30
0
  0
VERTEX
  8
LAYER_1
 10
182.6804
 20
-33.9491
  0
VERTEX
  8
LAYER_1
 10
182.9572
 20
-32.8923
  0
SEQEND
  0
ENDBLK
  0
BLOCK
  8
LAYER_1
  2
AIGNBL01010265
 70
64
 10
0
 20
0
 30
0
  3
AIGNBL01010265
  0
POLYLINE
  8
LAYER_1
 40
0.1058
 41
0.1058
 66
1
 10
0
 20
0
 30
0
  0
VERTEX
  8
LAYER_1
 10
174.9315
 20
-33.2712
  0
VERTEX
  8
LAYER_1
 10
174.8322
 20
-32.8923
  0
SEQEND
  0
ENDBLK
  0
BLOCK
  8
LAYER_1
  2
AIGNBL01010266
 70
64
 10
0
 20
0
 30
0
  3
AIGNBL01010266
  0
POLYLINE
  8
LAYER_1
 40
0.1058
 41
0.1058
 66
1
 10
0
 20
0
 30
0
  0
VERTEX
  8
LAYER_1
 10
174.5394
 20
-33.2712
  0
VERTEX
  8
LAYER_1
 10
181.7266
 20
-33.2712
  0
SEQEND
  0
ENDBLK
  0
BLOCK
  8
LAYER_1
  2
AIGNBL01010267
 70
64
 10
0
 20
0
 30
0
  3
AIGNBL01010267
  0
POLYLINE
  8
LAYER_1
 40
0.1058
 41
0.1058
 66
1
 10
0
 20
0
 30
0
  0
VERTEX
  8
LAYER_1
 10
181.7266
 20
-33.2712
 42
-0.05525233528
  0
VERTEX
  8
LAYER_1
 10
182.8541
 20
-34.1083
 42
-0.1126889911
  0
VERTEX
  8
LAYER_1
 10
183.2595
 20
-34.6702
 42
-0.05740056372
  0
VERTEX
  8
LAYER_1
 10
183.2894
 20
-34.834
  0
SEQEND
  0
ENDBLK
  0
BLOCK
  8
LAYER_1
  2
AIGNBL01010268
 70
64
 10
0
 20
0
 30
0
  3
AIGNBL01010268
  0
POLYLINE
  8
LAYER_1
 40
0.1058
 41
0.1058
 66
1
 10
0
 20
0
 30
0
  0
VERTEX
  8
LAYER_1
 10
176.2694
 20
-39.7712
  0
VERTEX
  8
LAYER_1
 10
183.0394
 20
-39.7712
  0
SEQEND
  0
ENDBLK
  0
BLOCK
  8
LAYER_1
  2
AIGNBL01010269
 70
64
 10
0
 20
0
 30
0
  3
AIGNBL01010269
  0
POLYLINE
  8
LAYER_1
 40
0.1058
 41
0.1058
 66
1
 10
0
 20
0
 30
0
  0
VERTEX
  8
LAYER_1
 10
175.1787
 20
-34.7712
  0
VERTEX
  8
LAYER_1
 10
175.1787
 20
-34.7712
  0
SEQEND
  0
ENDBLK
  0
BLOCK
  8
LAYER_1
  2
AIGNBL0101026A
 70
64
 10
0
 20
0
 30
0
  3
AIGNBL0101026A
  0
POLYLINE
  8
LAYER_1
 40
0.1058
 41
0.1058
 66
1
 10
0
 20
0
 30
0
  0
VERTEX
  8
LAYER_1
 10
175.6274
 20
-39.7712
  0
VERTEX
  8
LAYER_1
 10
176.2694
 20
-39.7712
  0
SEQEND
  0
ENDBLK
  0
BLOCK
  8
LAYER_1
  2
AIGNBL0101026B
 70
64
 10
0
 20
0
 30
0
  3
AIGNBL0101026B
  0
POLYLINE
  8
LAYER_1
 40
0.1058
 41
0.1058
 66
1
 10
0
 20
0
 30
0
  0
VERTEX
  8
LAYER_1
 10
168.2949
 20
-39.7712
  0
VERTEX
  8
LAYER_1
 10
175.6274
 20
-39.7712
  0
SEQEND
  0
ENDBLK
  0
BLOCK
  8
LAYER_1
  2
AIGNBL0101026C
 70
64
 10
0
 20
0
 30
0
  3
AIGNBL0101026C
  0
POLYLINE
  8
LAYER_1
 40
0.1058
 41
0.1058
 66
1
 10
0
 20
0
 30
0
  0
VERTEX
  8
LAYER_1
 10
167.8932
 20
-39.7712
  0
VERTEX
  8
LAYER_1
 10
168.2949
 20
-39.7712
  0
SEQEND
  0
ENDBLK
  0
BLOCK
  8
LAYER_1
  2
AIGNBL0101026D
 70
64
 10
0
 20
0
 30
0
  3
AIGNBL0101026D
  0
POLYLINE
  8
LAYER_1
 40
0.1058
 41
0.1058
 66
1
 10
0
 20
0
 30
0
  0
VERTEX
  8
LAYER_1
 10
168.2949
 20
-34.7712
  0
VERTEX
  8
LAYER_1
 10
167.8932
 20
-34.7712
  0
SEQEND
  0
ENDBLK
  0
BLOCK
  8
LAYER_1
  2
AIGNBL0101026E
 70
64
 10
0
 20
0
 30
0
  3
AIGNBL0101026E
  0
POLYLINE
  8
LAYER_1
 40
0.1058
 41
0.1058
 66
1
 10
0
 20
0
 30
0
  0
VERTEX
  8
LAYER_1
 10
175.5804
 20
-34.7712
  0
VERTEX
  8
LAYER_1
 10
168.2949
 20
-34.7712
  0
SEQEND
  0
ENDBLK
  0
BLOCK
  8
LAYER_1
  2
AIGNBL0101026F
 70
64
 10
0
 20
0
 30
0
  3
AIGNBL0101026F
  0
POLYLINE
  8
LAYER_1
 40
0.1058
 41
0.1058
 66
1
 10
0
 20
0
 30
0
  0
VERTEX
  8
LAYER_1
 10
183.2894
 20
-34.834
  0
VERTEX
  8
LAYER_1
 10
183.2894
 20
-39.5212
  0
SEQEND
  0
ENDBLK
  0
BLOCK
  8
LAYER_1
  2
AIGNBL01010270
 70
64
 10
0
 20
0
 30
0
  3
AIGNBL01010270
  0
POLYLINE
  8
LAYER_1
 40
0.1058
 41
0.1058
 66
1
 10
0
 20
0
 30
0
  0
VERTEX
  8
LAYER_1
 10
174.5394
 20
-33.2712
  0
VERTEX
  8
LAYER_1
 10
174.5394
 20
-34.7712
  0
SEQEND
  0
ENDBLK
  0
BLOCK
  8
LAYER_1
  2
AIGNBL01010271
 70
64
 10
0
 20
0
 30
0
  3
AIGNBL01010271
  0
POLYLINE
  8
LAYER_1
 40
0.1058
 41
0.1058
 66
1
 10
0
 20
0
 30
0
  0
VERTEX
  8
LAYER_1
 10
183.2894
 20
-39.5212
 42
-0.4141856892
  0
VERTEX
  8
LAYER_1
 10
183.0394
 20
-39.7712
  0
SEQEND
  0
ENDBLK
  0
BLOCK
  8
LAYER_1
  2
AIGNBL01010272
 70
64
 10
0
 20
0
 30
0
  3
AIGNBL01010272
  0
POLYLINE
  8
LAYER_1
 40
0.1058
 41
0.1058
 66
1
 10
0
 20
0
 30
0
  0
VERTEX
  8
LAYER_1
 10
175.1787
 20
-34.7712
  0
VERTEX
  8
LAYER_1
 10
175.2122
 20
-34.7634
  0
VERTEX
  8
LAYER_1
 10
175.2183
 20
-34.7594
  0
SEQEND
  0
ENDBLK
  0
BLOCK
  8
LAYER_1
  2
AIGNBL01010273
 70
64
 10
0
 20
0
 30
0
  3
AIGNBL01010273
  0
POLYLINE
  8
LAYER_1
 40
0.1058
 41
0.1058
 66
1
 10
0
 20
0
 30
0
  0
VERTEX
  8
LAYER_1
 10
167.2601
 20
-39.0212
  0
VERTEX
  8
LAYER_1
 10
167.2863
 20
-39.2361
  0
VERTEX
  8
LAYER_1
 10
167.3648
 20
-39.4366
  0
VERTEX
  8
LAYER_1
 10
167.496
 20
-39.6071
  0
VERTEX
  8
LAYER_1
 10
167.6772
 20
-39.7269
  0
VERTEX
  8
LAYER_1
 10
167.872
 20
-39.7708
  0
VERTEX
  8
LAYER_1
 10
167.8932
 20
-39.7712
  0
SEQEND
  0
ENDBLK
  0
BLOCK
  8
LAYER_1
  2
AIGNBL01010274
 70
64
 10
0
 20
0
 30
0
  3
AIGNBL01010274
  0
POLYLINE
  8
LAYER_1
 40
0.1058
 41
0.1058
 66
1
 10
0
 20
0
 30
0
  0
VERTEX
  8
LAYER_1
 10
167.2601
 20
-39.0212
  0
VERTEX
  8
LAYER_1
 10
167.2601
 20
-35.5212
  0
SEQEND
  0
ENDBLK
  0
BLOCK
  8
LAYER_1
  2
AIGNBL01010275
 70
64
 10
0
 20
0
 30
0
  3
AIGNBL01010275
  0
POLYLINE
  8
LAYER_1
 40
0.1058
 41
0.1058
 66
1
 10
0
 20
0
 30
0
  0
VERTEX
  8
LAYER_1
 10
167.2601
 20
-35.5212
  0
VERTEX
  8
LAYER_1
 10
167.2863
 20
-35.3063
  0
VERTEX
  8
LAYER_1
 10
167.3648
 20
-35.1057
  0
VERTEX
  8
LAYER_1
 10
167.496
 20
-34.9353
  0
VERTEX
  8
LAYER_1
 10
167.6772
 20
-34.8155
  0
VERTEX
  8
LAYER_1
 10
167.872
 20
-34.7716
  0
VERTEX
  8
LAYER_1
 10
167.8932
 20
-34.7712
  0
SEQEND
  0
ENDBLK
  0
BLOCK
  8
LAYER_1
  2
AIGNBL01010276
 70
64
 10
0
 20
0
 30
0
  3
AIGNBL01010276
  0
POLYLINE
  8
LAYER_1
 40
0.1058
 41
0.1058
 66
1
 10
0
 20
0
 30
0
  0
VERTEX
  8
LAYER_1
 10
73.818
 20
-73.0587
  0
VERTEX
  8
LAYER_1
 10
73.818
 20
-68.5624
  0
SEQEND
  0
ENDBLK
  0
BLOCK
  8
LAYER_1
  2
AIGNBL01010277
 70
64
 10
0
 20
0
 30
0
  3
AIGNBL01010277
  0
POLYLINE
  8
LAYER_1
 40
0.1058
 41
0.1058
 66
1
 10
0
 20
0
 30
0
  0
VERTEX
  8
LAYER_1
 10
73.818
 20
-77.555
  0
VERTEX
  8
LAYER_1
 10
73.818
 20
-73.0587
  0
SEQEND
  0
ENDBLK
  0
BLOCK
  8
LAYER_1
  2
AIGNBL01010278
 70
64
 10
0
 20
0
 30
0
  3
AIGNBL01010278
  0
POLYLINE
  8
LAYER_1
 40
0.1058
 41
0.1058
 66
1
 10
0
 20
0
 30
0
  0
VERTEX
  8
LAYER_1
 10
61.818
 20
-134.9337
  0
VERTEX
  8
LAYER_1
 10
61.818
 20
-95.1837
  0
SEQEND
  0
ENDBLK
  0
BLOCK
  8
LAYER_1
  2
AIGNBL01010279
 70
64
 10
0
 20
0
 30
0
  3
AIGNBL01010279
  0
POLYLINE
  8
LAYER_1
 40
0.1058
 41
0.1058
 66
1
 10
0
 20
0
 30
0
  0
VERTEX
  8
LAYER_1
 10
71.068
 20
-134.9337
  0
VERTEX
  8
LAYER_1
 10
71.068
 20
-95.1837
  0
SEQEND
  0
ENDBLK
  0
BLOCK
  8
LAYER_1
  2
AIGNBL0101027A
 70
64
 10
0
 20
0
 30
0
  3
AIGNBL0101027A
  0
POLYLINE
  8
LAYER_1
 40
0.1058
 41
0.1058
 66
1
 10
0
 20
0
 30
0
  0
VERTEX
  8
LAYER_1
 10
61.443
 20
-134.9337
  0
VERTEX
  8
LAYER_1
 10
60.443
 20
-134.9337
  0
SEQEND
  0
ENDBLK
  0
BLOCK
  8
LAYER_1
  2
AIGNBL0101027B
 70
64
 10
0
 20
0
 30
0
  3
AIGNBL0101027B
  0
POLYLINE
  8
LAYER_1
 40
0.1058
 41
0.1058
 66
1
 10
0
 20
0
 30
0
  0
VERTEX
  8
LAYER_1
 10
61.443
 20
-134.9337
  0
VERTEX
  8
LAYER_1
 10
71.443
 20
-134.9337
  0
SEQEND
  0
ENDBLK
  0
BLOCK
  8
LAYER_1
  2
AIGNBL0101027C
 70
64
 10
0
 20
0
 30
0
  3
AIGNBL0101027C
  0
POLYLINE
  8
LAYER_1
 40
0.1058
 41
0.1058
 66
1
 10
0
 20
0
 30
0
  0
VERTEX
  8
LAYER_1
 10
72.443
 20
-134.9337
  0
VERTEX
  8
LAYER_1
 10
71.443
 20
-134.9337
  0
SEQEND
  0
ENDBLK
  0
BLOCK
  8
LAYER_1
  2
AIGNBL0101027D
 70
64
 10
0
 20
0
 30
0
  3
AIGNBL0101027D
  0
POLYLINE
  8
LAYER_1
 40
0.1058
 41
0.1058
 66
1
 10
0
 20
0
 30
0
  0
VERTEX
  8
LAYER_1
 10
72.443
 20
-134.9337
 42
-0.4141998315
  0
VERTEX
  8
LAYER_1
 10
72.693
 20
-135.1837
  0
SEQEND
  0
ENDBLK
  0
BLOCK
  8
LAYER_1
  2
AIGNBL0101027E
 70
64
 10
0
 20
0
 30
0
  3
AIGNBL0101027E
  0
POLYLINE
  8
LAYER_1
 40
0.1058
 41
0.1058
 66
1
 10
0
 20
0
 30
0
  0
VERTEX
  8
LAYER_1
 10
60.443
 20
-134.9337
 42
0.4142295524
  0
VERTEX
  8
LAYER_1
 10
60.193
 20
-135.1837
  0
SEQEND
  0
ENDBLK
  0
BLOCK
  8
LAYER_1
  2
AIGNBL0101027F
 70
64
 10
0
 20
0
 30
0
  3
AIGNBL0101027F
  0
POLYLINE
  8
LAYER_1
 40
0.1058
 41
0.1058
 66
1
 10
0
 20
0
 30
0
  0
VERTEX
  8
LAYER_1
 10
71.443
 20
-135.9337
  0
VERTEX
  8
LAYER_1
 10
72.693
 20
-135.9337
  0
SEQEND
  0
ENDBLK
  0
BLOCK
  8
LAYER_1
  2
AIGNBL01010280
 70
64
 10
0
 20
0
 30
0
  3
AIGNBL01010280
  0
POLYLINE
  8
LAYER_1
 40
0.1058
 41
0.1058
 66
1
 10
0
 20
0
 30
0
  0
VERTEX
  8
LAYER_1
 10
72.693
 20
-135.1837
  0
VERTEX
  8
LAYER_1
 10
72.693
 20
-135.9337
  0
SEQEND
  0
ENDBLK
  0
BLOCK
  8
LAYER_1
  2
AIGNBL01010281
 70
64
 10
0
 20
0
 30
0
  3
AIGNBL01010281
  0
POLYLINE
  8
LAYER_1
 40
0.1058
 41
0.1058
 66
1
 10
0
 20
0
 30
0
  0
VERTEX
  8
LAYER_1
 10
60.193
 20
-135.1837
  0
VERTEX
  8
LAYER_1
 10
60.193
 20
-135.9337
  0
SEQEND
  0
ENDBLK
  0
BLOCK
  8
LAYER_1
  2
AIGNBL01010282
 70
64
 10
0
 20
0
 30
0
  3
AIGNBL01010282
  0
POLYLINE
  8
LAYER_1
 40
0.1058
 41
0.1058
 66
1
 10
0
 20
0
 30
0
  0
VERTEX
  8
LAYER_1
 10
60.193
 20
-135.9337
  0
VERTEX
  8
LAYER_1
 10
61.443
 20
-135.9337
  0
SEQEND
  0
ENDBLK
  0
BLOCK
  8
LAYER_1
  2
AIGNBL01010283
 70
64
 10
0
 20
0
 30
0
  3
AIGNBL01010283
  0
POLYLINE
  8
LAYER_1
 40
0.1058
 41
0.1058
 66
1
 10
0
 20
0
 30
0
  0
VERTEX
  8
LAYER_1
 10
61.443
 20
-135.9337
  0
VERTEX
  8
LAYER_1
 10
71.443
 20
-135.9337
  0
SEQEND
  0
ENDBLK
  0
BLOCK
  8
LAYER_1
  2
AIGNBL01010284
 70
64
 10
0
 20
0
 30
0
  3
AIGNBL01010284
  0
POLYLINE
  8
LAYER_1
 40
0.1058
 41
0.1058
 66
1
 10
0
 20
0
 30
0
  0
VERTEX
  8
LAYER_1
 10
62.068
 20
-70.1837
  0
SEQEND
  0
ENDBLK
  0
BLOCK
  8
LAYER_1
  2
AIGNBL01010285
 70
64
 10
0
 20
0
 30
0
  3
AIGNBL01010285
  0
POLYLINE
  8
LAYER_1
 40
0.1058
 41
0.1058
 66
1
 10
0
 20
0
 30
0
  0
VERTEX
  8
LAYER_1
 10
70.818
 20
-70.1837
  0
SEQEND
  0
ENDBLK
  0
BLOCK
  8
LAYER_1
  2
AIGNBL01010286
 70
64
 10
0
 20
0
 30
0
  3
AIGNBL01010286
  0
POLYLINE
  8
LAYER_1
 40
0.1058
 41
0.1058
 66
1
 10
0
 20
0
 30
0
  0
VERTEX
  8
LAYER_1
 10
61.818
 20
-69.9337
  0
VERTEX
  8
LAYER_1
 10
61.818
 20
-69.9376
  0
VERTEX
  8
LAYER_1
 10
61.818
 20
-69.9494
  0
VERTEX
  8
LAYER_1
 10
61.818
 20
-69.9689
  0
VERTEX
  8
LAYER_1
 10
61.818
 20
-69.996
  0
VERTEX
  8
LAYER_1
 10
61.818
 20
-70.0305
  0
VERTEX
  8
LAYER_1
 10
61.818
 20
-70.0726
  0
VERTEX
  8
LAYER_1
 10
61.818
 20
-70.122
  0
VERTEX
  8
LAYER_1
 10
61.818
 20
-70.179
  0
VERTEX
  8
LAYER_1
 10
61.818
 20
-70.2437
  0
VERTEX
  8
LAYER_1
 10
61.818
 20
-70.3162
  0
VERTEX
  8
LAYER_1
 10
61.818
 20
-70.3967
  0
VERTEX
  8
LAYER_1
 10
61.818
 20
-70.4856
  0
VERTEX
  8
LAYER_1
 10
61.818
 20
-70.5742
  0
SEQEND
  0
ENDBLK
  0
BLOCK
  8
LAYER_1
  2
AIGNBL01010287
 70
64
 10
0
 20
0
 30
0
  3
AIGNBL01010287
  0
POLYLINE
  8
LAYER_1
 40
0.1058
 41
0.1058
 66
1
 10
0
 20
0
 30
0
  0
VERTEX
  8
LAYER_1
 10
61.818
 20
-77.7509
  0
VERTEX
  8
LAYER_1
 10
61.818
 20
-78.5257
  0
VERTEX
  8
LAYER_1
 10
61.818
 20
-79.4145
  0
VERTEX
  8
LAYER_1
 10
61.818
 20
-80.4016
  0
VERTEX
  8
LAYER_1
 10
61.818
 20
-81.4881
  0
VERTEX
  8
LAYER_1
 10
61.818
 20
-82.6737
  0
VERTEX
  8
LAYER_1
 10
61.818
 20
-83.9669
  0
VERTEX
  8
LAYER_1
 10
61.818
 20
-85.3839
  0
VERTEX
  8
LAYER_1
 10
61.818
 20
-86.9423
  0
VERTEX
  8
LAYER_1
 10
61.818
 20
-88.6655
  0
VERTEX
  8
LAYER_1
 10
61.818
 20
-90.584
  0
VERTEX
  8
LAYER_1
 10
61.818
 20
-92.7366
  0
VERTEX
  8
LAYER_1
 10
61.818
 20
-95.1837
  0
SEQEND
  0
ENDBLK
  0
BLOCK
  8
LAYER_1
  2
AIGNBL01010288
 70
64
 10
0
 20
0
 30
0
  3
AIGNBL01010288
  0
POLYLINE
  8
LAYER_1
 40
0.1058
 41
0.1058
 66
1
 10
0
 20
0
 30
0
  0
VERTEX
  8
LAYER_1
 10
61.818
 20
-67.0587
  0
VERTEX
  8
LAYER_1
 10
61.818
 20
-69.9337
  0
SEQEND
  0
ENDBLK
  0
BLOCK
  8
LAYER_1
  2
AIGNBL01010289
 70
64
 10
0
 20
0
 30
0
  3
AIGNBL01010289
  0
POLYLINE
  8
LAYER_1
 40
0.1058
 41
0.1058
 66
1
 10
0
 20
0
 30
0
  0
VERTEX
  8
LAYER_1
 10
62.068
 20
-66.8087
 42
0.4142295719
  0
VERTEX
  8
LAYER_1
 10
61.818
 20
-67.0587
  0
SEQEND
  0
ENDBLK
  0
BLOCK
  8
LAYER_1
  2
AIGNBL0101028A
 70
64
 10
0
 20
0
 30
0
  3
AIGNBL0101028A
  0
POLYLINE
  8
LAYER_1
 40
0.1058
 41
0.1058
 66
1
 10
0
 20
0
 30
0
  0
VERTEX
  8
LAYER_1
 10
62.568
 20
-66.8087
  0
VERTEX
  8
LAYER_1
 10
62.068
 20
-66.8087
  0
SEQEND
  0
ENDBLK
  0
BLOCK
  8
LAYER_1
  2
AIGNBL0101028B
 70
64
 10
0
 20
0
 30
0
  3
AIGNBL0101028B
  0
POLYLINE
  8
LAYER_1
 40
0.1058
 41
0.1058
 66
1
 10
0
 20
0
 30
0
  0
VERTEX
  8
LAYER_1
 10
62.568
 20
-66.8087
  0
VERTEX
  8
LAYER_1
 10
70.318
 20
-66.8087
  0
SEQEND
  0
ENDBLK
  0
BLOCK
  8
LAYER_1
  2
AIGNBL0101028C
 70
64
 10
0
 20
0
 30
0
  3
AIGNBL0101028C
  0
POLYLINE
  8
LAYER_1
 40
0.1058
 41
0.1058
 66
1
 10
0
 20
0
 30
0
  0
VERTEX
  8
LAYER_1
 10
70.818
 20
-66.8087
  0
VERTEX
  8
LAYER_1
 10
70.318
 20
-66.8087
  0
SEQEND
  0
ENDBLK
  0
BLOCK
  8
LAYER_1
  2
AIGNBL0101028D
 70
64
 10
0
 20
0
 30
0
  3
AIGNBL0101028D
  0
POLYLINE
  8
LAYER_1
 40
0.1058
 41
0.1058
 66
1
 10
0
 20
0
 30
0
  0
VERTEX
  8
LAYER_1
 10
70.818
 20
-66.8087
 42
-0.414199851
  0
VERTEX
  8
LAYER_1
 10
71.068
 20
-67.0587
  0
SEQEND
  0
ENDBLK
  0
BLOCK
  8
LAYER_1
  2
AIGNBL0101028E
 70
64
 10
0
 20
0
 30
0
  3
AIGNBL0101028E
  0
POLYLINE
  8
LAYER_1
 40
0.1058
 41
0.1058
 66
1
 10
0
 20
0
 30
0
  0
VERTEX
  8
LAYER_1
 10
71.068
 20
-67.0587
  0
VERTEX
  8
LAYER_1
 10
71.068
 20
-69.9337
  0
SEQEND
  0
ENDBLK
  0
BLOCK
  8
LAYER_1
  2
AIGNBL0101028F
 70
64
 10
0
 20
0
 30
0
  3
AIGNBL0101028F
  0
POLYLINE
  8
LAYER_1
 40
0.1058
 41
0.1058
 66
1
 10
0
 20
0
 30
0
  0
VERTEX
  8
LAYER_1
 10
71.068
 20
-75.2579
  0
VERTEX
  8
LAYER_1
 10
71.068
 20
-74.79
  0
VERTEX
  8
LAYER_1
 10
71.068
 20
-74.3541
  0
VERTEX
  8
LAYER_1
 10
71.068
 20
-73.9999
  0
SEQEND
  0
ENDBLK
  0
BLOCK
  8
LAYER_1
  2
AIGNBL01010290
 70
64
 10
0
 20
0
 30
0
  3
AIGNBL01010290
  0
POLYLINE
  8
LAYER_1
 40
0.1058
 41
0.1058
 66
1
 10
0
 20
0
 30
0
  0
VERTEX
  8
LAYER_1
 10
71.068
 20
-70.0359
  0
VERTEX
  8
LAYER_1
 10
71.068
 20
-70.0306
  0
VERTEX
  8
LAYER_1
 10
71.068
 20
-69.996
  0
VERTEX
  8
LAYER_1
 10
71.068
 20
-69.9689
  0
VERTEX
  8
LAYER_1
 10
71.068
 20
-69.9494
  0
VERTEX
  8
LAYER_1
 10
71.068
 20
-69.9377
  0
VERTEX
  8
LAYER_1
 10
71.068
 20
-69.9337
  0
SEQEND
  0
ENDBLK
  0
BLOCK
  8
LAYER_1
  2
AIGNBL01010291
 70
64
 10
0
 20
0
 30
0
  3
AIGNBL01010291
  0
POLYLINE
  8
LAYER_1
 40
0.1058
 41
0.1058
 66
1
 10
0
 20
0
 30
0
  0
VERTEX
  8
LAYER_1
 10
70.9965
 20
-70.1087
  0
VERTEX
  8
LAYER_1
 10
70.9819
 20
-70.1224
  0
VERTEX
  8
LAYER_1
 10
70.9656
 20
-70.1355
  0
VERTEX
  8
LAYER_1
 10
70.9477
 20
-70.1474
  0
VERTEX
  8
LAYER_1
 10
70.9284
 20
-70.158
  0
VERTEX
  8
LAYER_1
 10
70.9078
 20
-70.167
  0
VERTEX
  8
LAYER_1
 10
70.8863
 20
-70.1742
  0
VERTEX
  8
LAYER_1
 10
70.864
 20
-70.1794
  0
VERTEX
  8
LAYER_1
 10
70.8411
 20
-70.1826
  0
VERTEX
  8
LAYER_1
 10
70.818
 20
-70.1837
  0
SEQEND
  0
ENDBLK
  0
BLOCK
  8
LAYER_1
  2
AIGNBL01010292
 70
64
 10
0
 20
0
 30
0
  3
AIGNBL01010292
  0
POLYLINE
  8
LAYER_1
 40
0.1058
 41
0.1058
 66
1
 10
0
 20
0
 30
0
  0
VERTEX
  8
LAYER_1
 10
70.9965
 20
-70.1087
 42
0.1938472423
  0
VERTEX
  8
LAYER_1
 10
71.068
 20
-69.9337
  0
SEQEND
  0
ENDBLK
  0
BLOCK
  8
LAYER_1
  2
AIGNBL01010293
 70
64
 10
0
 20
0
 30
0
  3
AIGNBL01010293
  0
POLYLINE
  8
LAYER_1
 40
0.1058
 41
0.1058
 66
1
 10
0
 20
0
 30
0
  0
VERTEX
  8
LAYER_1
 10
70.318
 20
-70.1087
  0
VERTEX
  8
LAYER_1
 10
70.9965
 20
-70.1087
  0
SEQEND
  0
ENDBLK
  0
BLOCK
  8
LAYER_1
  2
AIGNBL01010294
 70
64
 10
0
 20
0
 30
0
  3
AIGNBL01010294
  0
POLYLINE
  8
LAYER_1
 40
0.1058
 41
0.1058
 66
1
 10
0
 20
0
 30
0
  0
VERTEX
  8
LAYER_1
 10
70.318
 20
-70.1087
  0
VERTEX
  8
LAYER_1
 10
62.568
 20
-70.1087
  0
SEQEND
  0
ENDBLK
  0
BLOCK
  8
LAYER_1
  2
AIGNBL01010295
 70
64
 10
0
 20
0
 30
0
  3
AIGNBL01010295
  0
POLYLINE
  8
LAYER_1
 40
0.1058
 41
0.1058
 66
1
 10
0
 20
0
 30
0
  0
VERTEX
  8
LAYER_1
 10
61.8895
 20
-70.1087
  0
VERTEX
  8
LAYER_1
 10
62.568
 20
-70.1087
  0
SEQEND
  0
ENDBLK
  0
BLOCK
  8
LAYER_1
  2
AIGNBL01010296
 70
64
 10
0
 20
0
 30
0
  3
AIGNBL01010296
  0
POLYLINE
  8
LAYER_1
 40
0.1058
 41
0.1058
 66
1
 10
0
 20
0
 30
0
  0
VERTEX
  8
LAYER_1
 10
61.8895
 20
-70.1087
 42
-0.1940514826
  0
VERTEX
  8
LAYER_1
 10
61.818
 20
-69.9337
  0
SEQEND
  0
ENDBLK
  0
BLOCK
  8
LAYER_1
  2
AIGNBL01010297
 70
64
 10
0
 20
0
 30
0
  3
AIGNBL01010297
  0
POLYLINE
  8
LAYER_1
 40
0.1058
 41
0.1058
 66
1
 10
0
 20
0
 30
0
  0
VERTEX
  8
LAYER_1
 10
62.068
 20
-70.1837
  0
VERTEX
  8
LAYER_1
 10
62.0449
 20
-70.1826
  0
VERTEX
  8
LAYER_1
 10
62.022
 20
-70.1794
  0
VERTEX
  8
LAYER_1
 10
61.9997
 20
-70.1742
  0
VERTEX
  8
LAYER_1
 10
61.9781
 20
-70.167
  0
VERTEX
  8
LAYER_1
 10
61.9576
 20
-70.158
  0
VERTEX
  8
LAYER_1
 10
61.9383
 20
-70.1474
  0
VERTEX
  8
LAYER_1
 10
61.9204
 20
-70.1355
  0
VERTEX
  8
LAYER_1
 10
61.9041
 20
-70.1224
  0
VERTEX
  8
LAYER_1
 10
61.8895
 20
-70.1087
  0
SEQEND
  0
ENDBLK
  0
BLOCK
  8
LAYER_1
  2
AIGNBL01010298
 70
64
 10
0
 20
0
 30
0
  3
AIGNBL01010298
  0
POLYLINE
  8
LAYER_1
 40
0.1058
 41
0.1058
 66
1
 10
0
 20
0
 30
0
  0
VERTEX
  8
LAYER_1
 10
70.818
 20
-70.1837
  0
VERTEX
  8
LAYER_1
 10
70.193
 20
-70.1837
  0
SEQEND
  0
ENDBLK
  0
BLOCK
  8
LAYER_1
  2
AIGNBL01010299
 70
64
 10
0
 20
0
 30
0
  3
AIGNBL01010299
  0
POLYLINE
  8
LAYER_1
 40
0.1058
 41
0.1058
 66
1
 10
0
 20
0
 30
0
  0
VERTEX
  8
LAYER_1
 10
62.693
 20
-70.1837
  0
VERTEX
  8
LAYER_1
 10
62.068
 20
-70.1837
  0
SEQEND
  0
ENDBLK
  0
BLOCK
  8
LAYER_1
  2
AIGNBL0101029A
 70
64
 10
0
 20
0
 30
0
  3
AIGNBL0101029A
  0
POLYLINE
  8
LAYER_1
 40
0.1058
 41
0.1058
 66
1
 10
0
 20
0
 30
0
  0
VERTEX
  8
LAYER_1
 10
62.693
 20
-70.6087
  0
VERTEX
  8
LAYER_1
 10
62.693
 20
-70.1087
  0
SEQEND
  0
ENDBLK
  0
BLOCK
  8
LAYER_1
  2
AIGNBL0101029B
 70
64
 10
0
 20
0
 30
0
  3
AIGNBL0101029B
  0
POLYLINE
  8
LAYER_1
 40
0.1058
 41
0.1058
 66
1
 10
0
 20
0
 30
0
  0
VERTEX
  8
LAYER_1
 10
62.693
 20
-70.6087
  0
VERTEX
  8
LAYER_1
 10
70.193
 20
-70.6087
  0
SEQEND
  0
ENDBLK
  0
BLOCK
  8
LAYER_1
  2
AIGNBL0101029C
 70
64
 10
0
 20
0
 30
0
  3
AIGNBL0101029C
  0
POLYLINE
  8
LAYER_1
 40
0.1058
 41
0.1058
 66
1
 10
0
 20
0
 30
0
  0
VERTEX
  8
LAYER_1
 10
70.193
 20
-70.6087
  0
VERTEX
  8
LAYER_1
 10
70.193
 20
-70.1087
  0
SEQEND
  0
ENDBLK
  0
BLOCK
  8
LAYER_1
  2
AIGNBL0101029D
 70
64
 10
0
 20
0
 30
0
  3
AIGNBL0101029D
  0
POLYLINE
  8
LAYER_1
 40
0.1058
 41
0.1058
 66
1
 10
0
 20
0
 30
0
  0
VERTEX
  8
LAYER_1
 10
68.7555
 20
-70.7337
  0
VERTEX
  8
LAYER_1
 10
68.7555
 20
-70.6087
  0
SEQEND
  0
ENDBLK
  0
BLOCK
  8
LAYER_1
  2
AIGNBL0101029E
 70
64
 10
0
 20
0
 30
0
  3
AIGNBL0101029E
  0
POLYLINE
  8
LAYER_1
 40
0.1058
 41
0.1058
 66
1
 10
0
 20
0
 30
0
  0
VERTEX
  8
LAYER_1
 10
64.1305
 20
-70.7337
  0
VERTEX
  8
LAYER_1
 10
64.1305
 20
-70.6087
  0
SEQEND
  0
ENDBLK
  0
BLOCK
  8
LAYER_1
  2
AIGNBL0101029F
 70
64
 10
0
 20
0
 30
0
  3
AIGNBL0101029F
  0
POLYLINE
  8
LAYER_1
 40
0.1058
 41
0.1058
 66
1
 10
0
 20
0
 30
0
  0
VERTEX
  8
LAYER_1
 10
64.1305
 20
-70.7337
  0
VERTEX
  8
LAYER_1
 10
68.7555
 20
-70.7337
  0
SEQEND
  0
ENDBLK
  0
BLOCK
  8
LAYER_1
  2
AIGNBL010102A0
 70
64
 10
0
 20
0
 30
0
  3
AIGNBL010102A0
  0
POLYLINE
  8
LAYER_1
 40
0.1058
 41
0.1058
 66
1
 10
0
 20
0
 30
0
  0
VERTEX
  8
LAYER_1
 10
74.6001
 20
-76.9164
  0
VERTEX
  8
LAYER_1
 10
73.818
 20
-77.1212
  0
SEQEND
  0
ENDBLK
  0
BLOCK
  8
LAYER_1
  2
AIGNBL010102A1
 70
64
 10
0
 20
0
 30
0
  3
AIGNBL010102A1
  0
POLYLINE
  8
LAYER_1
 40
0.1058
 41
0.1058
 66
1
 10
0
 20
0
 30
0
  0
VERTEX
  8
LAYER_1
 10
73.818
 20
-68.5624
  0
VERTEX
  8
LAYER_1
 10
71.068
 20
-68.5144
  0
SEQEND
  0
ENDBLK
  0
BLOCK
  8
LAYER_1
  2
AIGNBL010102A2
 70
64
 10
0
 20
0
 30
0
  3
AIGNBL010102A2
  0
POLYLINE
  8
LAYER_1
 40
0.1058
 41
0.1058
 66
1
 10
0
 20
0
 30
0
  0
VERTEX
  8
LAYER_1
 10
73.818
 20
-77.555
  0
VERTEX
  8
LAYER_1
 10
71.068
 20
-77.603
  0
SEQEND
  0
ENDBLK
  0
BLOCK
  8
LAYER_1
  2
AIGNBL010102A3
 70
64
 10
0
 20
0
 30
0
  3
AIGNBL010102A3
  0
POLYLINE
  8
LAYER_1
 40
0.1058
 41
0.1058
 66
1
 10
0
 20
0
 30
0
  0
VERTEX
  8
LAYER_1
 10
61.818
 20
-77.7509
  0
VERTEX
  8
LAYER_1
 10
61.818
 20
-73.8897
  0
VERTEX
  8
LAYER_1
 10
61.818
 20
-72.065
  0
VERTEX
  8
LAYER_1
 10
61.818
 20
-70.5742
  0
SEQEND
  0
ENDBLK
  0
BLOCK
  8
LAYER_1
  2
AIGNBL010102A4
 70
64
 10
0
 20
0
 30
0
  3
AIGNBL010102A4
  0
POLYLINE
  8
LAYER_1
 40
0.1058
 41
0.1058
 66
1
 10
0
 20
0
 30
0
  0
VERTEX
  8
LAYER_1
 10
71.068
 20
-75.2579
  0
VERTEX
  8
LAYER_1
 10
71.068
 20
-81.3174
  0
VERTEX
  8
LAYER_1
 10
71.068
 20
-89.3779
  0
VERTEX
  8
LAYER_1
 10
71.068
 20
-95.1837
  0
SEQEND
  0
ENDBLK
  0
BLOCK
  8
LAYER_1
  2
AIGNBL010102A5
 70
64
 10
0
 20
0
 30
0
  3
AIGNBL010102A5
  0
POLYLINE
  8
LAYER_1
 40
0.1058
 41
0.1058
 66
1
 10
0
 20
0
 30
0
  0
VERTEX
  8
LAYER_1
 10
71.068
 20
-70.0359
  0
VERTEX
  8
LAYER_1
 10
71.068
 20
-70.6543
  0
VERTEX
  8
LAYER_1
 10
71.068
 20
-71.7338
  0
VERTEX
  8
LAYER_1
 10
71.068
 20
-73.4491
  0
VERTEX
  8
LAYER_1
 10
71.068
 20
-73.9999
  0
SEQEND
  0
ENDBLK
  0
BLOCK
  8
LAYER_1
  2
AIGNBL010102A6
 70
64
 10
0
 20
0
 30
0
  3
AIGNBL010102A6
  0
POLYLINE
  8
LAYER_1
 40
0.1058
 41
0.1058
 66
1
 10
0
 20
0
 30
0
  0
VERTEX
  8
LAYER_1
 10
74.1969
 20
-69.0954
  0
VERTEX
  8
LAYER_1
 10
73.818
 20
-68.9962
  0
SEQEND
  0
ENDBLK
  0
BLOCK
  8
LAYER_1
  2
AIGNBL010102A7
 70
64
 10
0
 20
0
 30
0
  3
AIGNBL010102A7
  0
POLYLINE
  8
LAYER_1
 40
0.1058
 41
0.1058
 66
1
 10
0
 20
0
 30
0
  0
VERTEX
  8
LAYER_1
 10
74.1969
 20
-76.4267
  0
VERTEX
  8
LAYER_1
 10
74.1969
 20
-68.7002
  0
SEQEND
  0
ENDBLK
  0
BLOCK
  8
LAYER_1
  2
AIGNBL010102A8
 70
64
 10
0
 20
0
 30
0
  3
AIGNBL010102A8
  0
POLYLINE
  8
LAYER_1
 40
0.1058
 41
0.1058
 66
1
 10
0
 20
0
 30
0
  0
VERTEX
  8
LAYER_1
 10
75.5082
 20
-77.4502
 42
-0.1471292734
  0
VERTEX
  8
LAYER_1
 10
75.0078
 20
-77.2683
 42
-0.08880504314
  0
VERTEX
  8
LAYER_1
 10
74.1969
 20
-76.4267
  0
SEQEND
  0
ENDBLK
  0
BLOCK
  8
LAYER_1
  2
AIGNBL010102A9
 70
64
 10
0
 20
0
 30
0
  3
AIGNBL010102A9
  0
POLYLINE
  8
LAYER_1
 40
0.1058
 41
0.1058
 66
1
 10
0
 20
0
 30
0
  0
VERTEX
  8
LAYER_1
 10
80.6969
 20
-77.2002
  0
VERTEX
  8
LAYER_1
 10
80.6969
 20
-71.0201
  0
SEQEND
  0
ENDBLK
  0
BLOCK
  8
LAYER_1
  2
AIGNBL010102AA
 70
64
 10
0
 20
0
 30
0
  3
AIGNBL010102AA
  0
POLYLINE
  8
LAYER_1
 40
0.1058
 41
0.1058
 66
1
 10
0
 20
0
 30
0
  0
VERTEX
  8
LAYER_1
 10
80.6969
 20
-71.0201
  0
VERTEX
  8
LAYER_1
 10
80.6969
 20
-70.3879
  0
SEQEND
  0
ENDBLK
  0
BLOCK
  8
LAYER_1
  2
AIGNBL010102AB
 70
64
 10
0
 20
0
 30
0
  3
AIGNBL010102AB
  0
POLYLINE
  8
LAYER_1
 40
0.1058
 41
0.1058
 66
1
 10
0
 20
0
 30
0
  0
VERTEX
  8
LAYER_1
 10
75.6969
 20
-69.8697
  0
VERTEX
  8
LAYER_1
 10
75.6969
 20
-69.8697
  0
SEQEND
  0
ENDBLK
  0
BLOCK
  8
LAYER_1
  2
AIGNBL010102AC
 70
64
 10
0
 20
0
 30
0
  3
AIGNBL010102AC
  0
POLYLINE
  8
LAYER_1
 40
0.1058
 41
0.1058
 66
1
 10
0
 20
0
 30
0
  0
VERTEX
  8
LAYER_1
 10
80.6969
 20
-70.3879
  0
VERTEX
  8
LAYER_1
 10
80.6969
 20
-64.2352
  0
SEQEND
  0
ENDBLK
  0
BLOCK
  8
LAYER_1
  2
AIGNBL010102AD
 70
64
 10
0
 20
0
 30
0
  3
AIGNBL010102AD
  0
POLYLINE
  8
LAYER_1
 40
0.1058
 41
0.1058
 66
1
 10
0
 20
0
 30
0
  0
VERTEX
  8
LAYER_1
 10
80.6969
 20
-64.2352
  0
VERTEX
  8
LAYER_1
 10
80.6969
 20
-63.7564
  0
SEQEND
  0
ENDBLK
  0
BLOCK
  8
LAYER_1
  2
AIGNBL010102AE
 70
64
 10
0
 20
0
 30
0
  3
AIGNBL010102AE
  0
POLYLINE
  8
LAYER_1
 40
0.1058
 41
0.1058
 66
1
 10
0
 20
0
 30
0
  0
VERTEX
  8
LAYER_1
 10
75.6969
 20
-64.2352
  0
VERTEX
  8
LAYER_1
 10
75.6969
 20
-70.3485
  0
SEQEND
  0
ENDBLK
  0
BLOCK
  8
LAYER_1
  2
AIGNBL010102AF
 70
64
 10
0
 20
0
 30
0
  3
AIGNBL010102AF
  0
POLYLINE
  8
LAYER_1
 40
0.1058
 41
0.1058
 66
1
 10
0
 20
0
 30
0
  0
VERTEX
  8
LAYER_1
 10
75.6969
 20
-63.7564
  0
VERTEX
  8
LAYER_1
 10
75.6969
 20
-64.2352
  0
SEQEND
  0
ENDBLK
  0
BLOCK
  8
LAYER_1
  2
AIGNBL010102B0
 70
64
 10
0
 20
0
 30
0
  3
AIGNBL010102B0
  0
POLYLINE
  8
LAYER_1
 40
0.1058
 41
0.1058
 66
1
 10
0
 20
0
 30
0
  0
VERTEX
  8
LAYER_1
 10
75.5082
 20
-77.4502
  0
VERTEX
  8
LAYER_1
 10
80.4469
 20
-77.4502
  0
SEQEND
  0
ENDBLK
  0
BLOCK
  8
LAYER_1
  2
AIGNBL010102B1
 70
64
 10
0
 20
0
 30
0
  3
AIGNBL010102B1
  0
POLYLINE
  8
LAYER_1
 40
0.1058
 41
0.1058
 66
1
 10
0
 20
0
 30
0
  0
VERTEX
  8
LAYER_1
 10
74.1969
 20
-68.7002
  0
VERTEX
  8
LAYER_1
 10
75.6969
 20
-68.7002
  0
SEQEND
  0
ENDBLK
  0
BLOCK
  8
LAYER_1
  2
AIGNBL010102B2
 70
64
 10
0
 20
0
 30
0
  3
AIGNBL010102B2
  0
POLYLINE
  8
LAYER_1
 40
0.1058
 41
0.1058
 66
1
 10
0
 20
0
 30
0
  0
VERTEX
  8
LAYER_1
 10
80.6969
 20
-77.2002
 42
-0.4141923487
  0
VERTEX
  8
LAYER_1
 10
80.4469
 20
-77.4502
  0
SEQEND
  0
ENDBLK
  0
BLOCK
  8
LAYER_1
  2
AIGNBL010102B3
 70
64
 10
0
 20
0
 30
0
  3
AIGNBL010102B3
  0
POLYLINE
  8
LAYER_1
 40
0.1058
 41
0.1058
 66
1
 10
0
 20
0
 30
0
  0
VERTEX
  8
LAYER_1
 10
79.9469
 20
-63.185
  0
VERTEX
  8
LAYER_1
 10
80.1525
 20
-63.2061
  0
VERTEX
  8
LAYER_1
 10
80.3466
 20
-63.2699
  0
VERTEX
  8
LAYER_1
 10
80.517
 20
-63.3803
  0
VERTEX
  8
LAYER_1
 10
80.6455
 20
-63.5443
  0
VERTEX
  8
LAYER_1
 10
80.6955
 20
-63.721
  0
VERTEX
  8
LAYER_1
 10
80.6969
 20
-63.7564
  0
SEQEND
  0
ENDBLK
  0
BLOCK
  8
LAYER_1
  2
AIGNBL010102B4
 70
64
 10
0
 20
0
 30
0
  3
AIGNBL010102B4
  0
POLYLINE
  8
LAYER_1
 40
0.1058
 41
0.1058
 66
1
 10
0
 20
0
 30
0
  0
VERTEX
  8
LAYER_1
 10
76.4469
 20
-63.185
  0
VERTEX
  8
LAYER_1
 10
76.2413
 20
-63.2061
  0
VERTEX
  8
LAYER_1
 10
76.0472
 20
-63.2699
  0
VERTEX
  8
LAYER_1
 10
75.8767
 20
-63.3803
  0
VERTEX
  8
LAYER_1
 10
75.7482
 20
-63.5443
  0
VERTEX
  8
LAYER_1
 10
75.6982
 20
-63.721
  0
VERTEX
  8
LAYER_1
 10
75.6969
 20
-63.7564
  0
SEQEND
  0
ENDBLK
  0
BLOCK
  8
LAYER_1
  2
AIGNBL010102B5
 70
64
 10
0
 20
0
 30
0
  3
AIGNBL010102B5
  0
POLYLINE
  8
LAYER_1
 40
0.1058
 41
0.1058
 66
1
 10
0
 20
0
 30
0
  0
VERTEX
  8
LAYER_1
 10
76.4469
 20
-63.185
  0
VERTEX
  8
LAYER_1
 10
79.9469
 20
-63.185
  0
SEQEND
  0
ENDBLK
  0
BLOCK
  8
LAYER_1
  2
AIGNBL010102B6
 70
64
 10
0
 20
0
 30
0
  3
AIGNBL010102B6
  0
POLYLINE
  8
LAYER_1
  6
AIGENLINE001
 40
0.1058
 41
0.1058
 66
1
 10
0
 20
0
 30
0
 70
128
  0
VERTEX
  8
LAYER_1
 10
66.443
 20
-132.7816
  0
VERTEX
  8
LAYER_1
 10
66.443
 20
-137.8464
  0
SEQEND
  0
ENDBLK
  0
BLOCK
  8
LAYER_1
  2
AIGNBL010102B7
 70
64
 10
0
 20
0
 30
0
  3
AIGNBL010102B7
  0
POLYLINE
  8
LAYER_1
  6
AIGENLINE001
 40
0.1058
 41
0.1058
 66
1
 10
0
 20
0
 30
0
 70
128
  0
VERTEX
  8
LAYER_1
 10
178.8947
 20
-21.6428
  0
VERTEX
  8
LAYER_1
 10
178.8947
 20
-28.8018
  0
SEQEND
  0
ENDBLK
  0
BLOCK
  8
LAYER_1
  2
AIGNBL010102B8
 70
64
 10
0
 20
0
 30
0
  3
AIGNBL010102B8
  0
POLYLINE
  8
LAYER_1
  6
AIGENLINE001
 40
0.1058
 41
0.1058
 66
1
 10
0
 20
0
 30
0
 70
128
  0
VERTEX
  8
LAYER_1
 10
182.3373
 20
-25.5173
  0
VERTEX
  8
LAYER_1
 10
175.6631
 20
-25.5173
  0
SEQEND
  0
ENDBLK
  0
BLOCK
  8
LAYER_1
  2
AIGNBL010102B9
 70
64
 10
0
 20
0
 30
0
  3
AIGNBL010102B9
  0
TEXT
  8
LAYER_1
 10
153.354
 20
-80.3486
 11
153.354
 21
-80.3486
 40
3.473
 41
0.5
  1
湯側
  0
ENDBLK
  0
BLOCK
  8
LAYER_1
  2
AIGNBL010102BA
 70
64
 10
0
 20
0
 30
0
  3
AIGNBL010102BA
  0
TEXT
  8
LAYER_1
 10
179.3417
 20
-56.9602
 11
179.3417
 21
-56.9602
 40
3.473
 41
0.5
  1
水側
  0
ENDBLK
  0
BLOCK
  8
LAYER_1
  2
AIGNBL010102BB
 70
64
 10
0
 20
0
 30
0
  3
AIGNBL010102BB
  0
INSERT
  8
LAYER_1
  2
AIGNBL010202BC
 10
0
 20
0
 30
0
  0
INSERT
  8
LAYER_1
  2
AIGNBL010202BD
 10
0
 20
0
 30
0
  0
INSERT
  8
LAYER_1
  2
AIGNBL010202BE
 10
0
 20
0
 30
0
  0
INSERT
  8
LAYER_1
  2
AIGNBL010202BF
 10
0
 20
0
 30
0
  0
INSERT
  8
LAYER_1
  2
AIGNBL010202C0
 10
0
 20
0
 30
0
  0
INSERT
  8
LAYER_1
  2
AIGNBL010202C1
 10
0
 20
0
 30
0
  0
ENDBLK
  0
BLOCK
  8
LAYER_1
  2
AIGNBL010102C2
 70
64
 10
0
 20
0
 30
0
  3
AIGNBL010102C2
  0
POLYLINE
  8
LAYER_1
  6
AIGENLINE005
 40
0.1058
 41
0.1058
 66
1
 10
0
 20
0
 30
0
 70
128
  0
VERTEX
  8
LAYER_1
 10
78.1742
 20
-69.1101
  0
VERTEX
  8
LAYER_1
 10
76.3253
 20
-73.0752
  0
VERTEX
  8
LAYER_1
 10
74.9089
 20
-76.1126
  0
SEQEND
  0
ENDBLK
  0
BLOCK
  8
LAYER_1
  2
AIGNBL010102C3
 70
64
 10
0
 20
0
 30
0
  3
AIGNBL010102C3
  0
POLYLINE
  8
LAYER_1
  6
AIGENLINE005
 40
0.1058
 41
0.1058
 66
1
 10
0
 20
0
 30
0
 70
128
  0
VERTEX
  8
LAYER_1
 10
75.6648
 20
-77.5945
 42
-0.1471261925
  0
VERTEX
  8
LAYER_1
 10
75.2881
 20
-77.2182
 42
-0.08880275521
  0
VERTEX
  8
LAYER_1
 10
74.9089
 20
-76.1126
  0
SEQEND
  0
ENDBLK
  0
BLOCK
  8
LAYER_1
  2
AIGNBL010102C4
 70
64
 10
0
 20
0
 30
0
  3
AIGNBL010102C4
  0
POLYLINE
  8
LAYER_1
  6
AIGENLINE005
 40
0.1058
 41
0.1058
 66
1
 10
0
 20
0
 30
0
 70
128
  0
VERTEX
  8
LAYER_1
 10
83.0848
 20
-73.9596
  0
VERTEX
  8
LAYER_1
 10
80.7047
 20
-79.0637
  0
VERTEX
  8
LAYER_1
 10
80.473
 20
-79.5607
  0
SEQEND
  0
ENDBLK
  0
BLOCK
  8
LAYER_1
  2
AIGNBL010102C5
 70
64
 10
0
 20
0
 30
0
  3
AIGNBL010102C5
  0
POLYLINE
  8
LAYER_1
  6
AIGENLINE005
 40
0.1058
 41
0.1058
 66
1
 10
0
 20
0
 30
0
 70
128
  0
VERTEX
  8
LAYER_1
 10
79.0394
 20
-70.804
  0
VERTEX
  8
LAYER_1
 10
79.0394
 20
-70.804
  0
SEQEND
  0
ENDBLK
  0
BLOCK
  8
LAYER_1
  2
AIGNBL010102C6
 70
64
 10
0
 20
0
 30
0
  3
AIGNBL010102C6
  0
POLYLINE
  8
LAYER_1
  6
AIGENLINE005
 40
0.1058
 41
0.1058
 66
1
 10
0
 20
0
 30
0
 70
128
  0
VERTEX
  8
LAYER_1
 10
83.352
 20
-73.3867
  0
VERTEX
  8
LAYER_1
 10
85.9522
 20
-67.8105
  0
SEQEND
  0
ENDBLK
  0
BLOCK
  8
LAYER_1
  2
AIGNBL010102C7
 70
64
 10
0
 20
0
 30
0
  3
AIGNBL010102C7
  0
POLYLINE
  8
LAYER_1
  6
AIGENLINE005
 40
0.1058
 41
0.1058
 66
1
 10
0
 20
0
 30
0
 70
128
  0
VERTEX
  8
LAYER_1
 10
85.9522
 20
-67.8105
  0
VERTEX
  8
LAYER_1
 10
86.1545
 20
-67.3765
  0
SEQEND
  0
ENDBLK
  0
BLOCK
  8
LAYER_1
  2
AIGNBL010102C8
 70
64
 10
0
 20
0
 30
0
  3
AIGNBL010102C8
  0
POLYLINE
  8
LAYER_1
  6
AIGENLINE005
 40
0.1058
 41
0.1058
 66
1
 10
0
 20
0
 30
0
 70
128
  0
VERTEX
  8
LAYER_1
 10
81.4207
 20
-65.6974
  0
VERTEX
  8
LAYER_1
 10
78.8371
 20
-71.2379
  0
SEQEND
  0
ENDBLK
  0
BLOCK
  8
LAYER_1
  2
AIGNBL010102C9
 70
64
 10
0
 20
0
 30
0
  3
AIGNBL010102C9
  0
POLYLINE
  8
LAYER_1
  6
AIGENLINE005
 40
0.1058
 41
0.1058
 66
1
 10
0
 20
0
 30
0
 70
128
  0
VERTEX
  8
LAYER_1
 10
81.623
 20
-65.2635
  0
VERTEX
  8
LAYER_1
 10
81.4207
 20
-65.6974
  0
SEQEND
  0
ENDBLK
  0
BLOCK
  8
LAYER_1
  2
AIGNBL010102CA
 70
64
 10
0
 20
0
 30
0
  3
AIGNBL010102CA
  0
POLYLINE
  8
LAYER_1
  6
AIGENLINE005
 40
0.1058
 41
0.1058
 66
1
 10
0
 20
0
 30
0
 70
128
  0
VERTEX
  8
LAYER_1
 10
75.6648
 20
-77.5945
  0
VERTEX
  8
LAYER_1
 10
80.1407
 20
-79.6817
  0
SEQEND
  0
ENDBLK
  0
BLOCK
  8
LAYER_1
  2
AIGNBL010102CB
 70
64
 10
0
 20
0
 30
0
  3
AIGNBL010102CB
  0
POLYLINE
  8
LAYER_1
  6
AIGENLINE005
 40
0.1058
 41
0.1058
 66
1
 10
0
 20
0
 30
0
 70
128
  0
VERTEX
  8
LAYER_1
 10
78.1742
 20
-69.1101
  0
VERTEX
  8
LAYER_1
 10
79.5337
 20
-69.744
  0
SEQEND
  0
ENDBLK
  0
BLOCK
  8
LAYER_1
  2
AIGNBL010102CC
 70
64
 10
0
 20
0
 30
0
  3
AIGNBL010102CC
  0
POLYLINE
  8
LAYER_1
  6
AIGENLINE005
 40
0.1058
 41
0.1058
 66
1
 10
0
 20
0
 30
0
 70
128
  0
VERTEX
  8
LAYER_1
 10
80.473
 20
-79.5607
 42
-0.4143026903
  0
VERTEX
  8
LAYER_1
 10
80.1407
 20
-79.6817
  0
SEQEND
  0
ENDBLK
  0
BLOCK
  8
LAYER_1
  2
AIGNBL010102CD
 70
64
 10
0
 20
0
 30
0
  3
AIGNBL010102CD
  0
POLYLINE
  8
LAYER_1
  6
AIGENLINE005
 40
0.1058
 41
0.1058
 66
1
 10
0
 20
0
 30
0
 70
128
  0
VERTEX
  8
LAYER_1
 10
85.7163
 20
-66.5417
  0
VERTEX
  8
LAYER_1
 10
85.8938
 20
-66.6477
  0
VERTEX
  8
LAYER_1
 10
86.0427
 20
-66.7876
  0
VERTEX
  8
LAYER_1
 10
86.1505
 20
-66.9596
  0
VERTEX
  8
LAYER_1
 10
86.1976
 20
-67.1626
  0
VERTEX
  8
LAYER_1
 10
86.1683
 20
-67.3439
  0
VERTEX
  8
LAYER_1
 10
86.1545
 20
-67.3765
  0
SEQEND
  0
ENDBLK
  0
BLOCK
  8
LAYER_1
  2
AIGNBL010102CE
 70
64
 10
0
 20
0
 30
0
  3
AIGNBL010102CE
  0
POLYLINE
  8
LAYER_1
  6
AIGENLINE005
 40
0.1058
 41
0.1058
 66
1
 10
0
 20
0
 30
0
 70
128
  0
VERTEX
  8
LAYER_1
 10
82.5442
 20
-65.0626
  0
VERTEX
  8
LAYER_1
 10
82.349
 20
-64.9947
  0
VERTEX
  8
LAYER_1
 10
82.1461
 20
-64.9706
  0
VERTEX
  8
LAYER_1
 10
81.945
 20
-64.9986
  0
VERTEX
  8
LAYER_1
 10
81.7592
 20
-65.0929
  0
VERTEX
  8
LAYER_1
 10
81.6392
 20
-65.232
  0
VERTEX
  8
LAYER_1
 10
81.623
 20
-65.2635
  0
SEQEND
  0
ENDBLK
  0
BLOCK
  8
LAYER_1
  2
AIGNBL010102CF
 70
64
 10
0
 20
0
 30
0
  3
AIGNBL010102CF
  0
POLYLINE
  8
LAYER_1
  6
AIGENLINE005
 40
0.1058
 41
0.1058
 66
1
 10
0
 20
0
 30
0
 70
128
  0
VERTEX
  8
LAYER_1
 10
82.5442
 20
-65.0626
  0
VERTEX
  8
LAYER_1
 10
85.7163
 20
-66.5417
  0
SEQEND
  0
ENDBLK
  0
BLOCK
  8
LAYER_1
  2
AIGNBL010102D0
 70
64
 10
0
 20
0
 30
0
  3
AIGNBL010102D0
  0
INSERT
  8
LAYER_1
  2
AIGNBL010202D1
 10
0
 20
0
 30
0
  0
INSERT
  8
LAYER_1
  2
AIGNBL010202D2
 10
0
 20
0
 30
0
  0
INSERT
  8
LAYER_1
  2
AIGNBL010202D3
 10
0
 20
0
 30
0
  0
INSERT
  8
LAYER_1
  2
AIGNBL010202D4
 10
0
 20
0
 30
0
  0
INSERT
  8
LAYER_1
  2
AIGNBL010202D5
 10
0
 20
0
 30
0
  0
INSERT
  8
LAYER_1
  2
AIGNBL010202D6
 10
0
 20
0
 30
0
  0
ENDBLK
  0
BLOCK
  8
LAYER_1
  2
AIGNBL010102D7
 70
64
 10
0
 20
0
 30
0
  3
AIGNBL010102D7
  0
TEXT
  8
LAYER_1
 10
94.3064
 20
-51.178
 11
94.3064
 21
-51.178
 40
3.473
 41
0.5
  1
吐水
  0
ENDBLK
  0
BLOCK
  8
LAYER_1
  2
AIGNBL010102D8
 70
64
 10
0
 20
0
 30
0
  3
AIGNBL010102D8
  0
TEXT
  8
LAYER_1
 10
77.0863
 20
-46.5483
 11
77.0863
 21
-46.5483
 40
3.473
 41
0.5
  1
止水
  0
ENDBLK
  0
BLOCK
  8
LAYER_1
  2
AIGNBL010102D9
 70
64
 10
0
 20
0
 30
0
  3
AIGNBL010102D9
  0
POLYLINE
  8
LAYER_1
  6
AIGENLINE001
 40
0.1058
 41
0.1058
 66
1
 10
0
 20
0
 30
0
 70
128
  0
VERTEX
  8
LAYER_1
 10
66.443
 20
-65.4018
  0
VERTEX
  8
LAYER_1
 10
66.443
 20
-71.8735
  0
SEQEND
  0
ENDBLK
  0
BLOCK
  8
LAYER_1
  2
AIGNBL010102DA
 70
64
 10
0
 20
0
 30
0
  3
AIGNBL010102DA
  0
INSERT
  8
LAYER_1
  2
AIGNBL010202DB
 10
0
 20
0
 30
0
  0
INSERT
  8
LAYER_1
  2
AIGNBL010202DC
 10
0
 20
0
 30
0
  0
INSERT
  8
LAYER_1
  2
AIGNBL010202DD
 10
0
 20
0
 30
0
  0
INSERT
  8
LAYER_1
  2
AIGNBL010202DE
 10
0
 20
0
 30
0
  0
INSERT
  8
LAYER_1
  2
AIGNBL010202DF
 10
0
 20
0
 30
0
  0
INSERT
  8
LAYER_1
  2
AIGNBL010202E0
 10
0
 20
0
 30
0
  0
INSERT
  8
LAYER_1
  2
AIGNBL010202E1
 10
0
 20
0
 30
0
  0
INSERT
  8
LAYER_1
  2
AIGNBL010202E2
 10
0
 20
0
 30
0
  0
ENDBLK
  0
BLOCK
  8
LAYER_1
  2
AIGNBL010102E3
 70
64
 10
0
 20
0
 30
0
  3
AIGNBL010102E3
  0
INSERT
  8
LAYER_1
  2
AIGNBL010202E4
 10
0
 20
0
 30
0
  0
INSERT
  8
LAYER_1
  2
AIGNBL010202E5
 10
0
 20
0
 30
0
  0
INSERT
  8
LAYER_1
  2
AIGNBL010202E6
 10
0
 20
0
 30
0
  0
INSERT
  8
LAYER_1
  2
AIGNBL010202E7
 10
0
 20
0
 30
0
  0
INSERT
  8
LAYER_1
  2
AIGNBL010202E8
 10
0
 20
0
 30
0
  0
INSERT
  8
LAYER_1
  2
AIGNBL010202E9
 10
0
 20
0
 30
0
  0
ENDBLK
  0
BLOCK
  8
LAYER_6
  2
AIGNBL06010002
 70
64
 10
0
 20
0
 30
0
  3
AIGNBL06010002
  0
POLYLINE
  8
LAYER_6
 40
0.7056
 41
0.7056
 66
1
 10
0
 20
0
 30
0
 70
1
  0
VERTEX
  8
LAYER_6
 10
33.7873
 20
22.6587
  0
VERTEX
  8
LAYER_6
 10
230.7955
 20
22.6587
  0
VERTEX
  8
LAYER_6
 10
230.7955
 20
-259.334
  0
VERTEX
  8
LAYER_6
 10
33.7873
 20
-259.334
  0
SEQEND
  0
ENDBLK
  0
ENDSEC
  0
SECTION
  2
ENTITIES
  0
INSERT
  8
LAYER_1
  2
AIGNBL01010002
 10
0
 20
0
 30
0
  0
INSERT
  8
LAYER_1
  2
AIGNBL01010024
 10
0
 20
0
 30
0
  0
INSERT
  8
LAYER_1
  2
AIGNBL0101002C
 10
0
 20
0
 30
0
  0
INSERT
  8
LAYER_1
  2
AIGNBL01010033
 10
0
 20
0
 30
0
  0
INSERT
  8
LAYER_1
  2
AIGNBL01010034
 10
0
 20
0
 30
0
  0
INSERT
  8
LAYER_1
  2
AIGNBL01010035
 10
0
 20
0
 30
0
  0
INSERT
  8
LAYER_1
  2
AIGNBL01010036
 10
0
 20
0
 30
0
  0
INSERT
  8
LAYER_1
  2
AIGNBL01010037
 10
0
 20
0
 30
0
  0
INSERT
  8
LAYER_1
  2
AIGNBL01010038
 10
0
 20
0
 30
0
  0
INSERT
  8
LAYER_1
  2
AIGNBL01010039
 10
0
 20
0
 30
0
  0
INSERT
  8
LAYER_1
  2
AIGNBL0101003A
 10
0
 20
0
 30
0
  0
INSERT
  8
LAYER_1
  2
AIGNBL0101003B
 10
0
 20
0
 30
0
  0
INSERT
  8
LAYER_1
  2
AIGNBL0101003C
 10
0
 20
0
 30
0
  0
INSERT
  8
LAYER_1
  2
AIGNBL0101003D
 10
0
 20
0
 30
0
  0
INSERT
  8
LAYER_1
  2
AIGNBL0101003E
 10
0
 20
0
 30
0
  0
INSERT
  8
LAYER_1
  2
AIGNBL0101003F
 10
0
 20
0
 30
0
  0
INSERT
  8
LAYER_1
  2
AIGNBL01010040
 10
0
 20
0
 30
0
  0
INSERT
  8
LAYER_1
  2
AIGNBL01010041
 10
0
 20
0
 30
0
  0
INSERT
  8
LAYER_1
  2
AIGNBL01010042
 10
0
 20
0
 30
0
  0
INSERT
  8
LAYER_1
  2
AIGNBL01010043
 10
0
 20
0
 30
0
  0
INSERT
  8
LAYER_1
  2
AIGNBL01010044
 10
0
 20
0
 30
0
  0
INSERT
  8
LAYER_1
  2
AIGNBL01010045
 10
0
 20
0
 30
0
  0
INSERT
  8
LAYER_1
  2
AIGNBL01010046
 10
0
 20
0
 30
0
  0
INSERT
  8
LAYER_1
  2
AIGNBL01010047
 10
0
 20
0
 30
0
  0
INSERT
  8
LAYER_1
  2
AIGNBL01010048
 10
0
 20
0
 30
0
  0
INSERT
  8
LAYER_1
  2
AIGNBL01010049
 10
0
 20
0
 30
0
  0
INSERT
  8
LAYER_1
  2
AIGNBL0101004A
 10
0
 20
0
 30
0
  0
INSERT
  8
LAYER_1
  2
AIGNBL0101004B
 10
0
 20
0
 30
0
  0
INSERT
  8
LAYER_1
  2
AIGNBL0101004C
 10
0
 20
0
 30
0
  0
INSERT
  8
LAYER_1
  2
AIGNBL0101004D
 10
0
 20
0
 30
0
  0
INSERT
  8
LAYER_1
  2
AIGNBL0101004E
 10
0
 20
0
 30
0
  0
INSERT
  8
LAYER_1
  2
AIGNBL0101004F
 10
0
 20
0
 30
0
  0
INSERT
  8
LAYER_1
  2
AIGNBL01010050
 10
0
 20
0
 30
0
  0
INSERT
  8
LAYER_1
  2
AIGNBL01010051
 10
0
 20
0
 30
0
  0
INSERT
  8
LAYER_1
  2
AIGNBL01010052
 10
0
 20
0
 30
0
  0
INSERT
  8
LAYER_1
  2
AIGNBL01010053
 10
0
 20
0
 30
0
  0
INSERT
  8
LAYER_1
  2
AIGNBL01010054
 10
0
 20
0
 30
0
  0
INSERT
  8
LAYER_1
  2
AIGNBL01010055
 10
0
 20
0
 30
0
  0
INSERT
  8
LAYER_1
  2
AIGNBL01010056
 10
0
 20
0
 30
0
  0
INSERT
  8
LAYER_1
  2
AIGNBL01010057
 10
0
 20
0
 30
0
  0
INSERT
  8
LAYER_1
  2
AIGNBL01010058
 10
0
 20
0
 30
0
  0
INSERT
  8
LAYER_1
  2
AIGNBL01010059
 10
0
 20
0
 30
0
  0
INSERT
  8
LAYER_1
  2
AIGNBL0101005A
 10
0
 20
0
 30
0
  0
INSERT
  8
LAYER_1
  2
AIGNBL0101005B
 10
0
 20
0
 30
0
  0
INSERT
  8
LAYER_1
  2
AIGNBL0101005C
 10
0
 20
0
 30
0
  0
INSERT
  8
LAYER_1
  2
AIGNBL0101005D
 10
0
 20
0
 30
0
  0
INSERT
  8
LAYER_1
  2
AIGNBL0101005E
 10
0
 20
0
 30
0
  0
INSERT
  8
LAYER_1
  2
AIGNBL0101005F
 10
0
 20
0
 30
0
  0
INSERT
  8
LAYER_1
  2
AIGNBL01010060
 10
0
 20
0
 30
0
  0
INSERT
  8
LAYER_1
  2
AIGNBL01010061
 10
0
 20
0
 30
0
  0
INSERT
  8
LAYER_1
  2
AIGNBL01010062
 10
0
 20
0
 30
0
  0
INSERT
  8
LAYER_1
  2
AIGNBL01010063
 10
0
 20
0
 30
0
  0
INSERT
  8
LAYER_1
  2
AIGNBL01010064
 10
0
 20
0
 30
0
  0
INSERT
  8
LAYER_1
  2
AIGNBL01010065
 10
0
 20
0
 30
0
  0
INSERT
  8
LAYER_1
  2
AIGNBL01010066
 10
0
 20
0
 30
0
  0
INSERT
  8
LAYER_1
  2
AIGNBL01010067
 10
0
 20
0
 30
0
  0
INSERT
  8
LAYER_1
  2
AIGNBL01010068
 10
0
 20
0
 30
0
  0
INSERT
  8
LAYER_1
  2
AIGNBL0101006F
 10
0
 20
0
 30
0
  0
INSERT
  8
LAYER_1
  2
AIGNBL01010076
 10
0
 20
0
 30
0
  0
INSERT
  8
LAYER_1
  2
AIGNBL0101007D
 10
0
 20
0
 30
0
  0
INSERT
  8
LAYER_1
  2
AIGNBL01010084
 10
0
 20
0
 30
0
  0
INSERT
  8
LAYER_1
  2
AIGNBL0101008B
 10
0
 20
0
 30
0
  0
INSERT
  8
LAYER_1
  2
AIGNBL01010092
 10
0
 20
0
 30
0
  0
INSERT
  8
LAYER_1
  2
AIGNBL01010099
 10
0
 20
0
 30
0
  0
INSERT
  8
LAYER_1
  2
AIGNBL0101009A
 10
0
 20
0
 30
0
  0
INSERT
  8
LAYER_1
  2
AIGNBL0101009B
 10
0
 20
0
 30
0
  0
INSERT
  8
LAYER_1
  2
AIGNBL0101009C
 10
0
 20
0
 30
0
  0
INSERT
  8
LAYER_1
  2
AIGNBL0101009D
 10
0
 20
0
 30
0
  0
INSERT
  8
LAYER_1
  2
AIGNBL0101009E
 10
0
 20
0
 30
0
  0
INSERT
  8
LAYER_1
  2
AIGNBL0101009F
 10
0
 20
0
 30
0
  0
INSERT
  8
LAYER_1
  2
AIGNBL010100A0
 10
0
 20
0
 30
0
  0
INSERT
  8
LAYER_1
  2
AIGNBL010100A1
 10
0
 20
0
 30
0
  0
INSERT
  8
LAYER_1
  2
AIGNBL010100A2
 10
0
 20
0
 30
0
  0
INSERT
  8
LAYER_1
  2
AIGNBL010100A3
 10
0
 20
0
 30
0
  0
INSERT
  8
LAYER_1
  2
AIGNBL010100A4
 10
0
 20
0
 30
0
  0
INSERT
  8
LAYER_1
  2
AIGNBL010100A5
 10
0
 20
0
 30
0
  0
INSERT
  8
LAYER_1
  2
AIGNBL010100A6
 10
0
 20
0
 30
0
  0
INSERT
  8
LAYER_1
  2
AIGNBL010100A7
 10
0
 20
0
 30
0
  0
INSERT
  8
LAYER_1
  2
AIGNBL010100A8
 10
0
 20
0
 30
0
  0
INSERT
  8
LAYER_1
  2
AIGNBL010100A9
 10
0
 20
0
 30
0
  0
INSERT
  8
LAYER_1
  2
AIGNBL010100AA
 10
0
 20
0
 30
0
  0
INSERT
  8
LAYER_1
  2
AIGNBL010100AB
 10
0
 20
0
 30
0
  0
INSERT
  8
LAYER_1
  2
AIGNBL010100AC
 10
0
 20
0
 30
0
  0
INSERT
  8
LAYER_1
  2
AIGNBL010100AD
 10
0
 20
0
 30
0
  0
INSERT
  8
LAYER_1
  2
AIGNBL010100AE
 10
0
 20
0
 30
0
  0
INSERT
  8
LAYER_1
  2
AIGNBL010100AF
 10
0
 20
0
 30
0
  0
INSERT
  8
LAYER_1
  2
AIGNBL010100B0
 10
0
 20
0
 30
0
  0
INSERT
  8
LAYER_1
  2
AIGNBL010100B1
 10
0
 20
0
 30
0
  0
INSERT
  8
LAYER_1
  2
AIGNBL010100B2
 10
0
 20
0
 30
0
  0
INSERT
  8
LAYER_1
  2
AIGNBL010100B3
 10
0
 20
0
 30
0
  0
INSERT
  8
LAYER_1
  2
AIGNBL010100B4
 10
0
 20
0
 30
0
  0
INSERT
  8
LAYER_1
  2
AIGNBL010100B5
 10
0
 20
0
 30
0
  0
INSERT
  8
LAYER_1
  2
AIGNBL010100B6
 10
0
 20
0
 30
0
  0
INSERT
  8
LAYER_1
  2
AIGNBL010100B7
 10
0
 20
0
 30
0
  0
INSERT
  8
LAYER_1
  2
AIGNBL010100B8
 10
0
 20
0
 30
0
  0
INSERT
  8
LAYER_1
  2
AIGNBL010100B9
 10
0
 20
0
 30
0
  0
INSERT
  8
LAYER_1
  2
AIGNBL010100BA
 10
0
 20
0
 30
0
  0
INSERT
  8
LAYER_1
  2
AIGNBL010100BB
 10
0
 20
0
 30
0
  0
INSERT
  8
LAYER_1
  2
AIGNBL010100BC
 10
0
 20
0
 30
0
  0
INSERT
  8
LAYER_1
  2
AIGNBL010100BD
 10
0
 20
0
 30
0
  0
INSERT
  8
LAYER_1
  2
AIGNBL010100BE
 10
0
 20
0
 30
0
  0
INSERT
  8
LAYER_1
  2
AIGNBL010100BF
 10
0
 20
0
 30
0
  0
INSERT
  8
LAYER_1
  2
AIGNBL010100C0
 10
0
 20
0
 30
0
  0
INSERT
  8
LAYER_1
  2
AIGNBL010100C1
 10
0
 20
0
 30
0
  0
INSERT
  8
LAYER_1
  2
AIGNBL010100C2
 10
0
 20
0
 30
0
  0
INSERT
  8
LAYER_1
  2
AIGNBL010100C3
 10
0
 20
0
 30
0
  0
INSERT
  8
LAYER_1
  2
AIGNBL010100C4
 10
0
 20
0
 30
0
  0
INSERT
  8
LAYER_1
  2
AIGNBL010100C5
 10
0
 20
0
 30
0
  0
INSERT
  8
LAYER_1
  2
AIGNBL010100C6
 10
0
 20
0
 30
0
  0
INSERT
  8
LAYER_1
  2
AIGNBL010100C7
 10
0
 20
0
 30
0
  0
INSERT
  8
LAYER_1
  2
AIGNBL010100C8
 10
0
 20
0
 30
0
  0
INSERT
  8
LAYER_1
  2
AIGNBL010100C9
 10
0
 20
0
 30
0
  0
INSERT
  8
LAYER_1
  2
AIGNBL010100CA
 10
0
 20
0
 30
0
  0
INSERT
  8
LAYER_1
  2
AIGNBL010100CB
 10
0
 20
0
 30
0
  0
INSERT
  8
LAYER_1
  2
AIGNBL010100CC
 10
0
 20
0
 30
0
  0
INSERT
  8
LAYER_1
  2
AIGNBL010100CD
 10
0
 20
0
 30
0
  0
INSERT
  8
LAYER_1
  2
AIGNBL010100CE
 10
0
 20
0
 30
0
  0
INSERT
  8
LAYER_1
  2
AIGNBL010100CF
 10
0
 20
0
 30
0
  0
INSERT
  8
LAYER_1
  2
AIGNBL010100D0
 10
0
 20
0
 30
0
  0
INSERT
  8
LAYER_1
  2
AIGNBL010100D1
 10
0
 20
0
 30
0
  0
INSERT
  8
LAYER_1
  2
AIGNBL010100D2
 10
0
 20
0
 30
0
  0
INSERT
  8
LAYER_1
  2
AIGNBL010100D3
 10
0
 20
0
 30
0
  0
INSERT
  8
LAYER_1
  2
AIGNBL010100D4
 10
0
 20
0
 30
0
  0
INSERT
  8
LAYER_1
  2
AIGNBL010100D5
 10
0
 20
0
 30
0
  0
INSERT
  8
LAYER_1
  2
AIGNBL010100D6
 10
0
 20
0
 30
0
  0
INSERT
  8
LAYER_1
  2
AIGNBL010100D7
 10
0
 20
0
 30
0
  0
INSERT
  8
LAYER_1
  2
AIGNBL010100D8
 10
0
 20
0
 30
0
  0
INSERT
  8
LAYER_1
  2
AIGNBL010100D9
 10
0
 20
0
 30
0
  0
INSERT
  8
LAYER_1
  2
AIGNBL010100DA
 10
0
 20
0
 30
0
  0
INSERT
  8
LAYER_1
  2
AIGNBL010100DB
 10
0
 20
0
 30
0
  0
INSERT
  8
LAYER_1
  2
AIGNBL010100DC
 10
0
 20
0
 30
0
  0
INSERT
  8
LAYER_1
  2
AIGNBL010100DD
 10
0
 20
0
 30
0
  0
INSERT
  8
LAYER_1
  2
AIGNBL010100DE
 10
0
 20
0
 30
0
  0
INSERT
  8
LAYER_1
  2
AIGNBL010100DF
 10
0
 20
0
 30
0
  0
INSERT
  8
LAYER_1
  2
AIGNBL010100E0
 10
0
 20
0
 30
0
  0
INSERT
  8
LAYER_1
  2
AIGNBL010100E1
 10
0
 20
0
 30
0
  0
INSERT
  8
LAYER_1
  2
AIGNBL010100E2
 10
0
 20
0
 30
0
  0
INSERT
  8
LAYER_1
  2
AIGNBL010100E3
 10
0
 20
0
 30
0
  0
INSERT
  8
LAYER_1
  2
AIGNBL010100E4
 10
0
 20
0
 30
0
  0
INSERT
  8
LAYER_1
  2
AIGNBL010100E5
 10
0
 20
0
 30
0
  0
INSERT
  8
LAYER_1
  2
AIGNBL010100E6
 10
0
 20
0
 30
0
  0
INSERT
  8
LAYER_1
  2
AIGNBL010100E7
 10
0
 20
0
 30
0
  0
INSERT
  8
LAYER_1
  2
AIGNBL010100E8
 10
0
 20
0
 30
0
  0
INSERT
  8
LAYER_1
  2
AIGNBL010100E9
 10
0
 20
0
 30
0
  0
INSERT
  8
LAYER_1
  2
AIGNBL010100EA
 10
0
 20
0
 30
0
  0
INSERT
  8
LAYER_1
  2
AIGNBL010100EB
 10
0
 20
0
 30
0
  0
INSERT
  8
LAYER_1
  2
AIGNBL010100EC
 10
0
 20
0
 30
0
  0
INSERT
  8
LAYER_1
  2
AIGNBL010100ED
 10
0
 20
0
 30
0
  0
INSERT
  8
LAYER_1
  2
AIGNBL010100EE
 10
0
 20
0
 30
0
  0
INSERT
  8
LAYER_1
  2
AIGNBL010100EF
 10
0
 20
0
 30
0
  0
INSERT
  8
LAYER_1
  2
AIGNBL010100F0
 10
0
 20
0
 30
0
  0
INSERT
  8
LAYER_1
  2
AIGNBL010100F1
 10
0
 20
0
 30
0
  0
INSERT
  8
LAYER_1
  2
AIGNBL010100F2
 10
0
 20
0
 30
0
  0
INSERT
  8
LAYER_1
  2
AIGNBL010100F3
 10
0
 20
0
 30
0
  0
INSERT
  8
LAYER_1
  2
AIGNBL010100F4
 10
0
 20
0
 30
0
  0
INSERT
  8
LAYER_1
  2
AIGNBL010100F5
 10
0
 20
0
 30
0
  0
INSERT
  8
LAYER_1
  2
AIGNBL010100F6
 10
0
 20
0
 30
0
  0
INSERT
  8
LAYER_1
  2
AIGNBL010100F7
 10
0
 20
0
 30
0
  0
INSERT
  8
LAYER_1
  2
AIGNBL010100F8
 10
0
 20
0
 30
0
  0
INSERT
  8
LAYER_1
  2
AIGNBL010100F9
 10
0
 20
0
 30
0
  0
INSERT
  8
LAYER_1
  2
AIGNBL010100FA
 10
0
 20
0
 30
0
  0
INSERT
  8
LAYER_1
  2
AIGNBL010100FB
 10
0
 20
0
 30
0
  0
INSERT
  8
LAYER_1
  2
AIGNBL010100FC
 10
0
 20
0
 30
0
  0
INSERT
  8
LAYER_1
  2
AIGNBL010100FD
 10
0
 20
0
 30
0
  0
INSERT
  8
LAYER_1
  2
AIGNBL010100FE
 10
0
 20
0
 30
0
  0
INSERT
  8
LAYER_1
  2
AIGNBL010100FF
 10
0
 20
0
 30
0
  0
INSERT
  8
LAYER_1
  2
AIGNBL01010100
 10
0
 20
0
 30
0
  0
INSERT
  8
LAYER_1
  2
AIGNBL01010101
 10
0
 20
0
 30
0
  0
INSERT
  8
LAYER_1
  2
AIGNBL01010102
 10
0
 20
0
 30
0
  0
INSERT
  8
LAYER_1
  2
AIGNBL01010103
 10
0
 20
0
 30
0
  0
INSERT
  8
LAYER_1
  2
AIGNBL01010104
 10
0
 20
0
 30
0
  0
INSERT
  8
LAYER_1
  2
AIGNBL01010105
 10
0
 20
0
 30
0
  0
INSERT
  8
LAYER_1
  2
AIGNBL01010106
 10
0
 20
0
 30
0
  0
INSERT
  8
LAYER_1
  2
AIGNBL01010107
 10
0
 20
0
 30
0
  0
INSERT
  8
LAYER_1
  2
AIGNBL01010108
 10
0
 20
0
 30
0
  0
INSERT
  8
LAYER_1
  2
AIGNBL01010109
 10
0
 20
0
 30
0
  0
INSERT
  8
LAYER_1
  2
AIGNBL0101010A
 10
0
 20
0
 30
0
  0
INSERT
  8
LAYER_1
  2
AIGNBL0101010B
 10
0
 20
0
 30
0
  0
INSERT
  8
LAYER_1
  2
AIGNBL0101010C
 10
0
 20
0
 30
0
  0
INSERT
  8
LAYER_1
  2
AIGNBL0101010D
 10
0
 20
0
 30
0
  0
INSERT
  8
LAYER_1
  2
AIGNBL0101010E
 10
0
 20
0
 30
0
  0
INSERT
  8
LAYER_1
  2
AIGNBL0101010F
 10
0
 20
0
 30
0
  0
INSERT
  8
LAYER_1
  2
AIGNBL01010110
 10
0
 20
0
 30
0
  0
INSERT
  8
LAYER_1
  2
AIGNBL01010111
 10
0
 20
0
 30
0
  0
INSERT
  8
LAYER_1
  2
AIGNBL01010112
 10
0
 20
0
 30
0
  0
INSERT
  8
LAYER_1
  2
AIGNBL01010113
 10
0
 20
0
 30
0
  0
INSERT
  8
LAYER_1
  2
AIGNBL01010114
 10
0
 20
0
 30
0
  0
INSERT
  8
LAYER_1
  2
AIGNBL01010115
 10
0
 20
0
 30
0
  0
INSERT
  8
LAYER_1
  2
AIGNBL01010116
 10
0
 20
0
 30
0
  0
INSERT
  8
LAYER_1
  2
AIGNBL01010117
 10
0
 20
0
 30
0
  0
INSERT
  8
LAYER_1
  2
AIGNBL01010118
 10
0
 20
0
 30
0
  0
INSERT
  8
LAYER_1
  2
AIGNBL01010119
 10
0
 20
0
 30
0
  0
INSERT
  8
LAYER_1
  2
AIGNBL0101011A
 10
0
 20
0
 30
0
  0
INSERT
  8
LAYER_1
  2
AIGNBL0101011B
 10
0
 20
0
 30
0
  0
INSERT
  8
LAYER_1
  2
AIGNBL0101011C
 10
0
 20
0
 30
0
  0
INSERT
  8
LAYER_1
  2
AIGNBL0101011D
 10
0
 20
0
 30
0
  0
INSERT
  8
LAYER_1
  2
AIGNBL0101011E
 10
0
 20
0
 30
0
  0
INSERT
  8
LAYER_1
  2
AIGNBL0101011F
 10
0
 20
0
 30
0
  0
INSERT
  8
LAYER_1
  2
AIGNBL01010120
 10
0
 20
0
 30
0
  0
INSERT
  8
LAYER_1
  2
AIGNBL01010121
 10
0
 20
0
 30
0
  0
INSERT
  8
LAYER_1
  2
AIGNBL01010122
 10
0
 20
0
 30
0
  0
INSERT
  8
LAYER_1
  2
AIGNBL01010123
 10
0
 20
0
 30
0
  0
INSERT
  8
LAYER_1
  2
AIGNBL01010124
 10
0
 20
0
 30
0
  0
INSERT
  8
LAYER_1
  2
AIGNBL01010125
 10
0
 20
0
 30
0
  0
INSERT
  8
LAYER_1
  2
AIGNBL01010126
 10
0
 20
0
 30
0
  0
INSERT
  8
LAYER_1
  2
AIGNBL01010127
 10
0
 20
0
 30
0
  0
INSERT
  8
LAYER_1
  2
AIGNBL01010128
 10
0
 20
0
 30
0
  0
INSERT
  8
LAYER_1
  2
AIGNBL01010129
 10
0
 20
0
 30
0
  0
INSERT
  8
LAYER_1
  2
AIGNBL0101012A
 10
0
 20
0
 30
0
  0
INSERT
  8
LAYER_1
  2
AIGNBL0101012B
 10
0
 20
0
 30
0
  0
INSERT
  8
LAYER_1
  2
AIGNBL0101012C
 10
0
 20
0
 30
0
  0
INSERT
  8
LAYER_1
  2
AIGNBL0101012D
 10
0
 20
0
 30
0
  0
INSERT
  8
LAYER_1
  2
AIGNBL0101012E
 10
0
 20
0
 30
0
  0
INSERT
  8
LAYER_1
  2
AIGNBL0101012F
 10
0
 20
0
 30
0
  0
INSERT
  8
LAYER_1
  2
AIGNBL01010130
 10
0
 20
0
 30
0
  0
INSERT
  8
LAYER_1
  2
AIGNBL01010131
 10
0
 20
0
 30
0
  0
INSERT
  8
LAYER_1
  2
AIGNBL01010132
 10
0
 20
0
 30
0
  0
INSERT
  8
LAYER_1
  2
AIGNBL01010133
 10
0
 20
0
 30
0
  0
INSERT
  8
LAYER_1
  2
AIGNBL01010134
 10
0
 20
0
 30
0
  0
INSERT
  8
LAYER_1
  2
AIGNBL01010135
 10
0
 20
0
 30
0
  0
INSERT
  8
LAYER_1
  2
AIGNBL01010136
 10
0
 20
0
 30
0
  0
INSERT
  8
LAYER_1
  2
AIGNBL01010137
 10
0
 20
0
 30
0
  0
INSERT
  8
LAYER_1
  2
AIGNBL01010138
 10
0
 20
0
 30
0
  0
INSERT
  8
LAYER_1
  2
AIGNBL01010139
 10
0
 20
0
 30
0
  0
INSERT
  8
LAYER_1
  2
AIGNBL0101013A
 10
0
 20
0
 30
0
  0
INSERT
  8
LAYER_1
  2
AIGNBL0101013B
 10
0
 20
0
 30
0
  0
INSERT
  8
LAYER_1
  2
AIGNBL0101013C
 10
0
 20
0
 30
0
  0
INSERT
  8
LAYER_1
  2
AIGNBL0101013D
 10
0
 20
0
 30
0
  0
INSERT
  8
LAYER_1
  2
AIGNBL0101013E
 10
0
 20
0
 30
0
  0
INSERT
  8
LAYER_1
  2
AIGNBL0101013F
 10
0
 20
0
 30
0
  0
INSERT
  8
LAYER_1
  2
AIGNBL01010140
 10
0
 20
0
 30
0
  0
INSERT
  8
LAYER_1
  2
AIGNBL01010141
 10
0
 20
0
 30
0
  0
INSERT
  8
LAYER_1
  2
AIGNBL01010142
 10
0
 20
0
 30
0
  0
INSERT
  8
LAYER_1
  2
AIGNBL01010143
 10
0
 20
0
 30
0
  0
INSERT
  8
LAYER_1
  2
AIGNBL01010144
 10
0
 20
0
 30
0
  0
INSERT
  8
LAYER_1
  2
AIGNBL01010145
 10
0
 20
0
 30
0
  0
INSERT
  8
LAYER_1
  2
AIGNBL01010146
 10
0
 20
0
 30
0
  0
INSERT
  8
LAYER_1
  2
AIGNBL01010147
 10
0
 20
0
 30
0
  0
INSERT
  8
LAYER_1
  2
AIGNBL01010148
 10
0
 20
0
 30
0
  0
INSERT
  8
LAYER_1
  2
AIGNBL01010149
 10
0
 20
0
 30
0
  0
INSERT
  8
LAYER_1
  2
AIGNBL0101014A
 10
0
 20
0
 30
0
  0
INSERT
  8
LAYER_1
  2
AIGNBL0101014B
 10
0
 20
0
 30
0
  0
INSERT
  8
LAYER_1
  2
AIGNBL0101014C
 10
0
 20
0
 30
0
  0
INSERT
  8
LAYER_1
  2
AIGNBL0101014D
 10
0
 20
0
 30
0
  0
INSERT
  8
LAYER_1
  2
AIGNBL0101014E
 10
0
 20
0
 30
0
  0
INSERT
  8
LAYER_1
  2
AIGNBL0101014F
 10
0
 20
0
 30
0
  0
INSERT
  8
LAYER_1
  2
AIGNBL01010150
 10
0
 20
0
 30
0
  0
INSERT
  8
LAYER_1
  2
AIGNBL01010151
 10
0
 20
0
 30
0
  0
INSERT
  8
LAYER_1
  2
AIGNBL01010152
 10
0
 20
0
 30
0
  0
INSERT
  8
LAYER_1
  2
AIGNBL01010153
 10
0
 20
0
 30
0
  0
INSERT
  8
LAYER_1
  2
AIGNBL01010154
 10
0
 20
0
 30
0
  0
INSERT
  8
LAYER_1
  2
AIGNBL01010155
 10
0
 20
0
 30
0
  0
INSERT
  8
LAYER_1
  2
AIGNBL01010156
 10
0
 20
0
 30
0
  0
INSERT
  8
LAYER_1
  2
AIGNBL01010157
 10
0
 20
0
 30
0
  0
INSERT
  8
LAYER_1
  2
AIGNBL01010158
 10
0
 20
0
 30
0
  0
INSERT
  8
LAYER_1
  2
AIGNBL01010159
 10
0
 20
0
 30
0
  0
INSERT
  8
LAYER_1
  2
AIGNBL0101015A
 10
0
 20
0
 30
0
  0
INSERT
  8
LAYER_1
  2
AIGNBL0101015B
 10
0
 20
0
 30
0
  0
INSERT
  8
LAYER_1
  2
AIGNBL0101015C
 10
0
 20
0
 30
0
  0
INSERT
  8
LAYER_1
  2
AIGNBL0101015D
 10
0
 20
0
 30
0
  0
INSERT
  8
LAYER_1
  2
AIGNBL0101015E
 10
0
 20
0
 30
0
  0
INSERT
  8
LAYER_1
  2
AIGNBL0101015F
 10
0
 20
0
 30
0
  0
INSERT
  8
LAYER_1
  2
AIGNBL01010160
 10
0
 20
0
 30
0
  0
INSERT
  8
LAYER_1
  2
AIGNBL01010161
 10
0
 20
0
 30
0
  0
INSERT
  8
LAYER_1
  2
AIGNBL01010162
 10
0
 20
0
 30
0
  0
INSERT
  8
LAYER_1
  2
AIGNBL01010163
 10
0
 20
0
 30
0
  0
INSERT
  8
LAYER_1
  2
AIGNBL01010164
 10
0
 20
0
 30
0
  0
INSERT
  8
LAYER_1
  2
AIGNBL01010165
 10
0
 20
0
 30
0
  0
INSERT
  8
LAYER_1
  2
AIGNBL01010166
 10
0
 20
0
 30
0
  0
INSERT
  8
LAYER_1
  2
AIGNBL01010167
 10
0
 20
0
 30
0
  0
INSERT
  8
LAYER_1
  2
AIGNBL01010168
 10
0
 20
0
 30
0
  0
INSERT
  8
LAYER_1
  2
AIGNBL01010169
 10
0
 20
0
 30
0
  0
INSERT
  8
LAYER_1
  2
AIGNBL0101016A
 10
0
 20
0
 30
0
  0
INSERT
  8
LAYER_1
  2
AIGNBL0101016B
 10
0
 20
0
 30
0
  0
INSERT
  8
LAYER_1
  2
AIGNBL0101016C
 10
0
 20
0
 30
0
  0
INSERT
  8
LAYER_1
  2
AIGNBL0101016D
 10
0
 20
0
 30
0
  0
INSERT
  8
LAYER_1
  2
AIGNBL0101016E
 10
0
 20
0
 30
0
  0
INSERT
  8
LAYER_1
  2
AIGNBL0101016F
 10
0
 20
0
 30
0
  0
INSERT
  8
LAYER_1
  2
AIGNBL01010170
 10
0
 20
0
 30
0
  0
INSERT
  8
LAYER_1
  2
AIGNBL01010171
 10
0
 20
0
 30
0
  0
INSERT
  8
LAYER_1
  2
AIGNBL01010172
 10
0
 20
0
 30
0
  0
INSERT
  8
LAYER_1
  2
AIGNBL01010173
 10
0
 20
0
 30
0
  0
INSERT
  8
LAYER_1
  2
AIGNBL01010174
 10
0
 20
0
 30
0
  0
INSERT
  8
LAYER_1
  2
AIGNBL01010175
 10
0
 20
0
 30
0
  0
INSERT
  8
LAYER_1
  2
AIGNBL01010176
 10
0
 20
0
 30
0
  0
INSERT
  8
LAYER_1
  2
AIGNBL01010177
 10
0
 20
0
 30
0
  0
INSERT
  8
LAYER_1
  2
AIGNBL01010178
 10
0
 20
0
 30
0
  0
INSERT
  8
LAYER_1
  2
AIGNBL01010179
 10
0
 20
0
 30
0
  0
INSERT
  8
LAYER_1
  2
AIGNBL0101017A
 10
0
 20
0
 30
0
  0
INSERT
  8
LAYER_1
  2
AIGNBL0101017B
 10
0
 20
0
 30
0
  0
INSERT
  8
LAYER_1
  2
AIGNBL0101017C
 10
0
 20
0
 30
0
  0
INSERT
  8
LAYER_1
  2
AIGNBL0101017D
 10
0
 20
0
 30
0
  0
INSERT
  8
LAYER_1
  2
AIGNBL0101017E
 10
0
 20
0
 30
0
  0
INSERT
  8
LAYER_1
  2
AIGNBL0101017F
 10
0
 20
0
 30
0
  0
INSERT
  8
LAYER_1
  2
AIGNBL01010180
 10
0
 20
0
 30
0
  0
INSERT
  8
LAYER_1
  2
AIGNBL01010181
 10
0
 20
0
 30
0
  0
INSERT
  8
LAYER_1
  2
AIGNBL01010182
 10
0
 20
0
 30
0
  0
INSERT
  8
LAYER_1
  2
AIGNBL01010183
 10
0
 20
0
 30
0
  0
INSERT
  8
LAYER_1
  2
AIGNBL01010184
 10
0
 20
0
 30
0
  0
INSERT
  8
LAYER_1
  2
AIGNBL01010185
 10
0
 20
0
 30
0
  0
INSERT
  8
LAYER_1
  2
AIGNBL01010186
 10
0
 20
0
 30
0
  0
INSERT
  8
LAYER_1
  2
AIGNBL01010187
 10
0
 20
0
 30
0
  0
INSERT
  8
LAYER_1
  2
AIGNBL01010188
 10
0
 20
0
 30
0
  0
INSERT
  8
LAYER_1
  2
AIGNBL01010189
 10
0
 20
0
 30
0
  0
INSERT
  8
LAYER_1
  2
AIGNBL0101018A
 10
0
 20
0
 30
0
  0
INSERT
  8
LAYER_1
  2
AIGNBL0101018B
 10
0
 20
0
 30
0
  0
INSERT
  8
LAYER_1
  2
AIGNBL0101018C
 10
0
 20
0
 30
0
  0
INSERT
  8
LAYER_1
  2
AIGNBL0101018D
 10
0
 20
0
 30
0
  0
INSERT
  8
LAYER_1
  2
AIGNBL0101018E
 10
0
 20
0
 30
0
  0
INSERT
  8
LAYER_1
  2
AIGNBL0101018F
 10
0
 20
0
 30
0
  0
INSERT
  8
LAYER_1
  2
AIGNBL01010190
 10
0
 20
0
 30
0
  0
INSERT
  8
LAYER_1
  2
AIGNBL01010191
 10
0
 20
0
 30
0
  0
INSERT
  8
LAYER_1
  2
AIGNBL01010192
 10
0
 20
0
 30
0
  0
INSERT
  8
LAYER_1
  2
AIGNBL01010193
 10
0
 20
0
 30
0
  0
INSERT
  8
LAYER_1
  2
AIGNBL01010194
 10
0
 20
0
 30
0
  0
INSERT
  8
LAYER_1
  2
AIGNBL01010195
 10
0
 20
0
 30
0
  0
INSERT
  8
LAYER_1
  2
AIGNBL01010196
 10
0
 20
0
 30
0
  0
INSERT
  8
LAYER_1
  2
AIGNBL01010197
 10
0
 20
0
 30
0
  0
INSERT
  8
LAYER_1
  2
AIGNBL01010198
 10
0
 20
0
 30
0
  0
INSERT
  8
LAYER_1
  2
AIGNBL01010199
 10
0
 20
0
 30
0
  0
INSERT
  8
LAYER_1
  2
AIGNBL0101019A
 10
0
 20
0
 30
0
  0
INSERT
  8
LAYER_1
  2
AIGNBL0101019B
 10
0
 20
0
 30
0
  0
INSERT
  8
LAYER_1
  2
AIGNBL0101019C
 10
0
 20
0
 30
0
  0
INSERT
  8
LAYER_1
  2
AIGNBL0101019D
 10
0
 20
0
 30
0
  0
INSERT
  8
LAYER_1
  2
AIGNBL0101019E
 10
0
 20
0
 30
0
  0
INSERT
  8
LAYER_1
  2
AIGNBL0101019F
 10
0
 20
0
 30
0
  0
INSERT
  8
LAYER_1
  2
AIGNBL010101A0
 10
0
 20
0
 30
0
  0
INSERT
  8
LAYER_1
  2
AIGNBL010101A1
 10
0
 20
0
 30
0
  0
INSERT
  8
LAYER_1
  2
AIGNBL010101A2
 10
0
 20
0
 30
0
  0
INSERT
  8
LAYER_1
  2
AIGNBL010101A3
 10
0
 20
0
 30
0
  0
INSERT
  8
LAYER_1
  2
AIGNBL010101A4
 10
0
 20
0
 30
0
  0
INSERT
  8
LAYER_1
  2
AIGNBL010101A5
 10
0
 20
0
 30
0
  0
INSERT
  8
LAYER_1
  2
AIGNBL010101A6
 10
0
 20
0
 30
0
  0
INSERT
  8
LAYER_1
  2
AIGNBL010101A7
 10
0
 20
0
 30
0
  0
INSERT
  8
LAYER_1
  2
AIGNBL010101A8
 10
0
 20
0
 30
0
  0
INSERT
  8
LAYER_1
  2
AIGNBL010101A9
 10
0
 20
0
 30
0
  0
INSERT
  8
LAYER_1
  2
AIGNBL010101AA
 10
0
 20
0
 30
0
  0
INSERT
  8
LAYER_1
  2
AIGNBL010101AB
 10
0
 20
0
 30
0
  0
INSERT
  8
LAYER_1
  2
AIGNBL010101AC
 10
0
 20
0
 30
0
  0
INSERT
  8
LAYER_1
  2
AIGNBL010101AD
 10
0
 20
0
 30
0
  0
INSERT
  8
LAYER_1
  2
AIGNBL010101AE
 10
0
 20
0
 30
0
  0
INSERT
  8
LAYER_1
  2
AIGNBL010101AF
 10
0
 20
0
 30
0
  0
INSERT
  8
LAYER_1
  2
AIGNBL010101B0
 10
0
 20
0
 30
0
  0
INSERT
  8
LAYER_1
  2
AIGNBL010101B1
 10
0
 20
0
 30
0
  0
INSERT
  8
LAYER_1
  2
AIGNBL010101B2
 10
0
 20
0
 30
0
  0
INSERT
  8
LAYER_1
  2
AIGNBL010101B3
 10
0
 20
0
 30
0
  0
INSERT
  8
LAYER_1
  2
AIGNBL010101B4
 10
0
 20
0
 30
0
  0
INSERT
  8
LAYER_1
  2
AIGNBL010101B5
 10
0
 20
0
 30
0
  0
INSERT
  8
LAYER_1
  2
AIGNBL010101B6
 10
0
 20
0
 30
0
  0
INSERT
  8
LAYER_1
  2
AIGNBL010101B7
 10
0
 20
0
 30
0
  0
INSERT
  8
LAYER_1
  2
AIGNBL010101B8
 10
0
 20
0
 30
0
  0
INSERT
  8
LAYER_1
  2
AIGNBL010101B9
 10
0
 20
0
 30
0
  0
INSERT
  8
LAYER_1
  2
AIGNBL010101BA
 10
0
 20
0
 30
0
  0
INSERT
  8
LAYER_1
  2
AIGNBL010101BB
 10
0
 20
0
 30
0
  0
INSERT
  8
LAYER_1
  2
AIGNBL010101BC
 10
0
 20
0
 30
0
  0
INSERT
  8
LAYER_1
  2
AIGNBL010101BD
 10
0
 20
0
 30
0
  0
INSERT
  8
LAYER_1
  2
AIGNBL010101BE
 10
0
 20
0
 30
0
  0
INSERT
  8
LAYER_1
  2
AIGNBL010101BF
 10
0
 20
0
 30
0
  0
INSERT
  8
LAYER_1
  2
AIGNBL010101C0
 10
0
 20
0
 30
0
  0
INSERT
  8
LAYER_1
  2
AIGNBL010101C1
 10
0
 20
0
 30
0
  0
INSERT
  8
LAYER_1
  2
AIGNBL010101C2
 10
0
 20
0
 30
0
  0
INSERT
  8
LAYER_1
  2
AIGNBL010101C3
 10
0
 20
0
 30
0
  0
INSERT
  8
LAYER_1
  2
AIGNBL010101C4
 10
0
 20
0
 30
0
  0
INSERT
  8
LAYER_1
  2
AIGNBL010101C5
 10
0
 20
0
 30
0
  0
INSERT
  8
LAYER_1
  2
AIGNBL010101C6
 10
0
 20
0
 30
0
  0
INSERT
  8
LAYER_1
  2
AIGNBL010101C7
 10
0
 20
0
 30
0
  0
INSERT
  8
LAYER_1
  2
AIGNBL010101C8
 10
0
 20
0
 30
0
  0
INSERT
  8
LAYER_1
  2
AIGNBL010101C9
 10
0
 20
0
 30
0
  0
INSERT
  8
LAYER_1
  2
AIGNBL010101CA
 10
0
 20
0
 30
0
  0
INSERT
  8
LAYER_1
  2
AIGNBL010101CB
 10
0
 20
0
 30
0
  0
INSERT
  8
LAYER_1
  2
AIGNBL010101CC
 10
0
 20
0
 30
0
  0
INSERT
  8
LAYER_1
  2
AIGNBL010101CD
 10
0
 20
0
 30
0
  0
INSERT
  8
LAYER_1
  2
AIGNBL010101CE
 10
0
 20
0
 30
0
  0
INSERT
  8
LAYER_1
  2
AIGNBL010101CF
 10
0
 20
0
 30
0
  0
INSERT
  8
LAYER_1
  2
AIGNBL010101D0
 10
0
 20
0
 30
0
  0
INSERT
  8
LAYER_1
  2
AIGNBL010101D1
 10
0
 20
0
 30
0
  0
INSERT
  8
LAYER_1
  2
AIGNBL010101D2
 10
0
 20
0
 30
0
  0
INSERT
  8
LAYER_1
  2
AIGNBL010101D3
 10
0
 20
0
 30
0
  0
INSERT
  8
LAYER_1
  2
AIGNBL010101D4
 10
0
 20
0
 30
0
  0
INSERT
  8
LAYER_1
  2
AIGNBL010101D5
 10
0
 20
0
 30
0
  0
INSERT
  8
LAYER_1
  2
AIGNBL010101D6
 10
0
 20
0
 30
0
  0
INSERT
  8
LAYER_1
  2
AIGNBL010101D7
 10
0
 20
0
 30
0
  0
INSERT
  8
LAYER_1
  2
AIGNBL010101D8
 10
0
 20
0
 30
0
  0
INSERT
  8
LAYER_1
  2
AIGNBL010101D9
 10
0
 20
0
 30
0
  0
INSERT
  8
LAYER_1
  2
AIGNBL010101DA
 10
0
 20
0
 30
0
  0
INSERT
  8
LAYER_1
  2
AIGNBL010101DB
 10
0
 20
0
 30
0
  0
INSERT
  8
LAYER_1
  2
AIGNBL010101DC
 10
0
 20
0
 30
0
  0
INSERT
  8
LAYER_1
  2
AIGNBL010101DD
 10
0
 20
0
 30
0
  0
INSERT
  8
LAYER_1
  2
AIGNBL010101DE
 10
0
 20
0
 30
0
  0
INSERT
  8
LAYER_1
  2
AIGNBL010101DF
 10
0
 20
0
 30
0
  0
INSERT
  8
LAYER_1
  2
AIGNBL010101E0
 10
0
 20
0
 30
0
  0
INSERT
  8
LAYER_1
  2
AIGNBL010101E1
 10
0
 20
0
 30
0
  0
INSERT
  8
LAYER_1
  2
AIGNBL010101E2
 10
0
 20
0
 30
0
  0
INSERT
  8
LAYER_1
  2
AIGNBL010101E3
 10
0
 20
0
 30
0
  0
INSERT
  8
LAYER_1
  2
AIGNBL010101E4
 10
0
 20
0
 30
0
  0
INSERT
  8
LAYER_1
  2
AIGNBL010101E5
 10
0
 20
0
 30
0
  0
INSERT
  8
LAYER_1
  2
AIGNBL010101E6
 10
0
 20
0
 30
0
  0
INSERT
  8
LAYER_1
  2
AIGNBL010101E7
 10
0
 20
0
 30
0
  0
INSERT
  8
LAYER_1
  2
AIGNBL010101E8
 10
0
 20
0
 30
0
  0
INSERT
  8
LAYER_1
  2
AIGNBL010101E9
 10
0
 20
0
 30
0
  0
INSERT
  8
LAYER_1
  2
AIGNBL010101EA
 10
0
 20
0
 30
0
  0
INSERT
  8
LAYER_1
  2
AIGNBL010101EB
 10
0
 20
0
 30
0
  0
INSERT
  8
LAYER_1
  2
AIGNBL010101EC
 10
0
 20
0
 30
0
  0
INSERT
  8
LAYER_1
  2
AIGNBL010101ED
 10
0
 20
0
 30
0
  0
INSERT
  8
LAYER_1
  2
AIGNBL010101EE
 10
0
 20
0
 30
0
  0
INSERT
  8
LAYER_1
  2
AIGNBL010101EF
 10
0
 20
0
 30
0
  0
INSERT
  8
LAYER_1
  2
AIGNBL010101F0
 10
0
 20
0
 30
0
  0
INSERT
  8
LAYER_1
  2
AIGNBL010101F1
 10
0
 20
0
 30
0
  0
INSERT
  8
LAYER_1
  2
AIGNBL010101F2
 10
0
 20
0
 30
0
  0
INSERT
  8
LAYER_1
  2
AIGNBL010101F3
 10
0
 20
0
 30
0
  0
INSERT
  8
LAYER_1
  2
AIGNBL010101F4
 10
0
 20
0
 30
0
  0
INSERT
  8
LAYER_1
  2
AIGNBL010101F5
 10
0
 20
0
 30
0
  0
INSERT
  8
LAYER_1
  2
AIGNBL010101F6
 10
0
 20
0
 30
0
  0
INSERT
  8
LAYER_1
  2
AIGNBL010101F7
 10
0
 20
0
 30
0
  0
INSERT
  8
LAYER_1
  2
AIGNBL010101F8
 10
0
 20
0
 30
0
  0
INSERT
  8
LAYER_1
  2
AIGNBL010101F9
 10
0
 20
0
 30
0
  0
INSERT
  8
LAYER_1
  2
AIGNBL010101FA
 10
0
 20
0
 30
0
  0
INSERT
  8
LAYER_1
  2
AIGNBL010101FB
 10
0
 20
0
 30
0
  0
INSERT
  8
LAYER_1
  2
AIGNBL010101FC
 10
0
 20
0
 30
0
  0
INSERT
  8
LAYER_1
  2
AIGNBL010101FD
 10
0
 20
0
 30
0
  0
INSERT
  8
LAYER_1
  2
AIGNBL010101FE
 10
0
 20
0
 30
0
  0
INSERT
  8
LAYER_1
  2
AIGNBL010101FF
 10
0
 20
0
 30
0
  0
INSERT
  8
LAYER_1
  2
AIGNBL01010200
 10
0
 20
0
 30
0
  0
INSERT
  8
LAYER_1
  2
AIGNBL01010201
 10
0
 20
0
 30
0
  0
INSERT
  8
LAYER_1
  2
AIGNBL01010202
 10
0
 20
0
 30
0
  0
INSERT
  8
LAYER_1
  2
AIGNBL01010203
 10
0
 20
0
 30
0
  0
INSERT
  8
LAYER_1
  2
AIGNBL01010204
 10
0
 20
0
 30
0
  0
INSERT
  8
LAYER_1
  2
AIGNBL01010205
 10
0
 20
0
 30
0
  0
INSERT
  8
LAYER_1
  2
AIGNBL01010206
 10
0
 20
0
 30
0
  0
INSERT
  8
LAYER_1
  2
AIGNBL01010207
 10
0
 20
0
 30
0
  0
INSERT
  8
LAYER_1
  2
AIGNBL01010208
 10
0
 20
0
 30
0
  0
INSERT
  8
LAYER_1
  2
AIGNBL01010209
 10
0
 20
0
 30
0
  0
INSERT
  8
LAYER_1
  2
AIGNBL0101020A
 10
0
 20
0
 30
0
  0
INSERT
  8
LAYER_1
  2
AIGNBL0101020B
 10
0
 20
0
 30
0
  0
INSERT
  8
LAYER_1
  2
AIGNBL0101020C
 10
0
 20
0
 30
0
  0
INSERT
  8
LAYER_1
  2
AIGNBL0101020D
 10
0
 20
0
 30
0
  0
INSERT
  8
LAYER_1
  2
AIGNBL0101020E
 10
0
 20
0
 30
0
  0
INSERT
  8
LAYER_1
  2
AIGNBL0101020F
 10
0
 20
0
 30
0
  0
INSERT
  8
LAYER_1
  2
AIGNBL01010210
 10
0
 20
0
 30
0
  0
INSERT
  8
LAYER_1
  2
AIGNBL01010211
 10
0
 20
0
 30
0
  0
INSERT
  8
LAYER_1
  2
AIGNBL01010212
 10
0
 20
0
 30
0
  0
INSERT
  8
LAYER_1
  2
AIGNBL01010213
 10
0
 20
0
 30
0
  0
INSERT
  8
LAYER_1
  2
AIGNBL01010214
 10
0
 20
0
 30
0
  0
INSERT
  8
LAYER_1
  2
AIGNBL01010215
 10
0
 20
0
 30
0
  0
INSERT
  8
LAYER_1
  2
AIGNBL01010216
 10
0
 20
0
 30
0
  0
INSERT
  8
LAYER_1
  2
AIGNBL01010217
 10
0
 20
0
 30
0
  0
INSERT
  8
LAYER_1
  2
AIGNBL01010218
 10
0
 20
0
 30
0
  0
INSERT
  8
LAYER_1
  2
AIGNBL01010219
 10
0
 20
0
 30
0
  0
INSERT
  8
LAYER_1
  2
AIGNBL0101021A
 10
0
 20
0
 30
0
  0
INSERT
  8
LAYER_1
  2
AIGNBL0101021B
 10
0
 20
0
 30
0
  0
INSERT
  8
LAYER_1
  2
AIGNBL0101021C
 10
0
 20
0
 30
0
  0
INSERT
  8
LAYER_1
  2
AIGNBL0101021D
 10
0
 20
0
 30
0
  0
INSERT
  8
LAYER_1
  2
AIGNBL0101021E
 10
0
 20
0
 30
0
  0
INSERT
  8
LAYER_1
  2
AIGNBL0101021F
 10
0
 20
0
 30
0
  0
INSERT
  8
LAYER_1
  2
AIGNBL01010220
 10
0
 20
0
 30
0
  0
INSERT
  8
LAYER_1
  2
AIGNBL01010221
 10
0
 20
0
 30
0
  0
INSERT
  8
LAYER_1
  2
AIGNBL01010222
 10
0
 20
0
 30
0
  0
INSERT
  8
LAYER_1
  2
AIGNBL01010223
 10
0
 20
0
 30
0
  0
INSERT
  8
LAYER_1
  2
AIGNBL01010224
 10
0
 20
0
 30
0
  0
INSERT
  8
LAYER_1
  2
AIGNBL01010225
 10
0
 20
0
 30
0
  0
INSERT
  8
LAYER_1
  2
AIGNBL01010226
 10
0
 20
0
 30
0
  0
INSERT
  8
LAYER_1
  2
AIGNBL01010227
 10
0
 20
0
 30
0
  0
INSERT
  8
LAYER_1
  2
AIGNBL01010228
 10
0
 20
0
 30
0
  0
INSERT
  8
LAYER_1
  2
AIGNBL01010229
 10
0
 20
0
 30
0
  0
INSERT
  8
LAYER_1
  2
AIGNBL0101022A
 10
0
 20
0
 30
0
  0
INSERT
  8
LAYER_1
  2
AIGNBL0101022B
 10
0
 20
0
 30
0
  0
INSERT
  8
LAYER_1
  2
AIGNBL01010232
 10
0
 20
0
 30
0
  0
INSERT
  8
LAYER_1
  2
AIGNBL0101023A
 10
0
 20
0
 30
0
  0
INSERT
  8
LAYER_1
  2
AIGNBL0101023B
 10
0
 20
0
 30
0
  0
INSERT
  8
LAYER_1
  2
AIGNBL0101023C
 10
0
 20
0
 30
0
  0
INSERT
  8
LAYER_1
  2
AIGNBL0101023D
 10
0
 20
0
 30
0
  0
INSERT
  8
LAYER_1
  2
AIGNBL0101023E
 10
0
 20
0
 30
0
  0
INSERT
  8
LAYER_1
  2
AIGNBL0101023F
 10
0
 20
0
 30
0
  0
INSERT
  8
LAYER_1
  2
AIGNBL01010240
 10
0
 20
0
 30
0
  0
INSERT
  8
LAYER_1
  2
AIGNBL01010241
 10
0
 20
0
 30
0
  0
INSERT
  8
LAYER_1
  2
AIGNBL01010248
 10
0
 20
0
 30
0
  0
INSERT
  8
LAYER_1
  2
AIGNBL01010249
 10
0
 20
0
 30
0
  0
INSERT
  8
LAYER_1
  2
AIGNBL0101024A
 10
0
 20
0
 30
0
  0
INSERT
  8
LAYER_1
  2
AIGNBL0101024B
 10
0
 20
0
 30
0
  0
INSERT
  8
LAYER_1
  2
AIGNBL0101024C
 10
0
 20
0
 30
0
  0
INSERT
  8
LAYER_1
  2
AIGNBL0101024D
 10
0
 20
0
 30
0
  0
INSERT
  8
LAYER_1
  2
AIGNBL0101024E
 10
0
 20
0
 30
0
  0
INSERT
  8
LAYER_1
  2
AIGNBL0101024F
 10
0
 20
0
 30
0
  0
INSERT
  8
LAYER_1
  2
AIGNBL01010250
 10
0
 20
0
 30
0
  0
INSERT
  8
LAYER_1
  2
AIGNBL01010251
 10
0
 20
0
 30
0
  0
INSERT
  8
LAYER_1
  2
AIGNBL01010252
 10
0
 20
0
 30
0
  0
INSERT
  8
LAYER_1
  2
AIGNBL01010253
 10
0
 20
0
 30
0
  0
INSERT
  8
LAYER_1
  2
AIGNBL01010254
 10
0
 20
0
 30
0
  0
INSERT
  8
LAYER_1
  2
AIGNBL01010255
 10
0
 20
0
 30
0
  0
INSERT
  8
LAYER_1
  2
AIGNBL01010256
 10
0
 20
0
 30
0
  0
INSERT
  8
LAYER_1
  2
AIGNBL01010257
 10
0
 20
0
 30
0
  0
INSERT
  8
LAYER_1
  2
AIGNBL01010258
 10
0
 20
0
 30
0
  0
INSERT
  8
LAYER_1
  2
AIGNBL01010259
 10
0
 20
0
 30
0
  0
INSERT
  8
LAYER_1
  2
AIGNBL0101025A
 10
0
 20
0
 30
0
  0
INSERT
  8
LAYER_1
  2
AIGNBL0101025B
 10
0
 20
0
 30
0
  0
INSERT
  8
LAYER_1
  2
AIGNBL0101025C
 10
0
 20
0
 30
0
  0
INSERT
  8
LAYER_1
  2
AIGNBL0101025D
 10
0
 20
0
 30
0
  0
INSERT
  8
LAYER_1
  2
AIGNBL0101025E
 10
0
 20
0
 30
0
  0
INSERT
  8
LAYER_1
  2
AIGNBL0101025F
 10
0
 20
0
 30
0
  0
INSERT
  8
LAYER_1
  2
AIGNBL01010260
 10
0
 20
0
 30
0
  0
INSERT
  8
LAYER_1
  2
AIGNBL01010261
 10
0
 20
0
 30
0
  0
INSERT
  8
LAYER_1
  2
AIGNBL01010262
 10
0
 20
0
 30
0
  0
INSERT
  8
LAYER_1
  2
AIGNBL01010263
 10
0
 20
0
 30
0
  0
INSERT
  8
LAYER_1
  2
AIGNBL01010264
 10
0
 20
0
 30
0
  0
INSERT
  8
LAYER_1
  2
AIGNBL01010265
 10
0
 20
0
 30
0
  0
INSERT
  8
LAYER_1
  2
AIGNBL01010266
 10
0
 20
0
 30
0
  0
INSERT
  8
LAYER_1
  2
AIGNBL01010267
 10
0
 20
0
 30
0
  0
INSERT
  8
LAYER_1
  2
AIGNBL01010268
 10
0
 20
0
 30
0
  0
INSERT
  8
LAYER_1
  2
AIGNBL01010269
 10
0
 20
0
 30
0
  0
INSERT
  8
LAYER_1
  2
AIGNBL0101026A
 10
0
 20
0
 30
0
  0
INSERT
  8
LAYER_1
  2
AIGNBL0101026B
 10
0
 20
0
 30
0
  0
INSERT
  8
LAYER_1
  2
AIGNBL0101026C
 10
0
 20
0
 30
0
  0
INSERT
  8
LAYER_1
  2
AIGNBL0101026D
 10
0
 20
0
 30
0
  0
INSERT
  8
LAYER_1
  2
AIGNBL0101026E
 10
0
 20
0
 30
0
  0
INSERT
  8
LAYER_1
  2
AIGNBL0101026F
 10
0
 20
0
 30
0
  0
INSERT
  8
LAYER_1
  2
AIGNBL01010270
 10
0
 20
0
 30
0
  0
INSERT
  8
LAYER_1
  2
AIGNBL01010271
 10
0
 20
0
 30
0
  0
INSERT
  8
LAYER_1
  2
AIGNBL01010272
 10
0
 20
0
 30
0
  0
INSERT
  8
LAYER_1
  2
AIGNBL01010273
 10
0
 20
0
 30
0
  0
INSERT
  8
LAYER_1
  2
AIGNBL01010274
 10
0
 20
0
 30
0
  0
INSERT
  8
LAYER_1
  2
AIGNBL01010275
 10
0
 20
0
 30
0
  0
INSERT
  8
LAYER_1
  2
AIGNBL01010276
 10
0
 20
0
 30
0
  0
INSERT
  8
LAYER_1
  2
AIGNBL01010277
 10
0
 20
0
 30
0
  0
INSERT
  8
LAYER_1
  2
AIGNBL01010278
 10
0
 20
0
 30
0
  0
INSERT
  8
LAYER_1
  2
AIGNBL01010279
 10
0
 20
0
 30
0
  0
INSERT
  8
LAYER_1
  2
AIGNBL0101027A
 10
0
 20
0
 30
0
  0
INSERT
  8
LAYER_1
  2
AIGNBL0101027B
 10
0
 20
0
 30
0
  0
INSERT
  8
LAYER_1
  2
AIGNBL0101027C
 10
0
 20
0
 30
0
  0
INSERT
  8
LAYER_1
  2
AIGNBL0101027D
 10
0
 20
0
 30
0
  0
INSERT
  8
LAYER_1
  2
AIGNBL0101027E
 10
0
 20
0
 30
0
  0
INSERT
  8
LAYER_1
  2
AIGNBL0101027F
 10
0
 20
0
 30
0
  0
INSERT
  8
LAYER_1
  2
AIGNBL01010280
 10
0
 20
0
 30
0
  0
INSERT
  8
LAYER_1
  2
AIGNBL01010281
 10
0
 20
0
 30
0
  0
INSERT
  8
LAYER_1
  2
AIGNBL01010282
 10
0
 20
0
 30
0
  0
INSERT
  8
LAYER_1
  2
AIGNBL01010283
 10
0
 20
0
 30
0
  0
INSERT
  8
LAYER_1
  2
AIGNBL01010284
 10
0
 20
0
 30
0
  0
INSERT
  8
LAYER_1
  2
AIGNBL01010285
 10
0
 20
0
 30
0
  0
INSERT
  8
LAYER_1
  2
AIGNBL01010286
 10
0
 20
0
 30
0
  0
INSERT
  8
LAYER_1
  2
AIGNBL01010287
 10
0
 20
0
 30
0
  0
INSERT
  8
LAYER_1
  2
AIGNBL01010288
 10
0
 20
0
 30
0
  0
INSERT
  8
LAYER_1
  2
AIGNBL01010289
 10
0
 20
0
 30
0
  0
INSERT
  8
LAYER_1
  2
AIGNBL0101028A
 10
0
 20
0
 30
0
  0
INSERT
  8
LAYER_1
  2
AIGNBL0101028B
 10
0
 20
0
 30
0
  0
INSERT
  8
LAYER_1
  2
AIGNBL0101028C
 10
0
 20
0
 30
0
  0
INSERT
  8
LAYER_1
  2
AIGNBL0101028D
 10
0
 20
0
 30
0
  0
INSERT
  8
LAYER_1
  2
AIGNBL0101028E
 10
0
 20
0
 30
0
  0
INSERT
  8
LAYER_1
  2
AIGNBL0101028F
 10
0
 20
0
 30
0
  0
INSERT
  8
LAYER_1
  2
AIGNBL01010290
 10
0
 20
0
 30
0
  0
INSERT
  8
LAYER_1
  2
AIGNBL01010291
 10
0
 20
0
 30
0
  0
INSERT
  8
LAYER_1
  2
AIGNBL01010292
 10
0
 20
0
 30
0
  0
INSERT
  8
LAYER_1
  2
AIGNBL01010293
 10
0
 20
0
 30
0
  0
INSERT
  8
LAYER_1
  2
AIGNBL01010294
 10
0
 20
0
 30
0
  0
INSERT
  8
LAYER_1
  2
AIGNBL01010295
 10
0
 20
0
 30
0
  0
INSERT
  8
LAYER_1
  2
AIGNBL01010296
 10
0
 20
0
 30
0
  0
INSERT
  8
LAYER_1
  2
AIGNBL01010297
 10
0
 20
0
 30
0
  0
INSERT
  8
LAYER_1
  2
AIGNBL01010298
 10
0
 20
0
 30
0
  0
INSERT
  8
LAYER_1
  2
AIGNBL01010299
 10
0
 20
0
 30
0
  0
INSERT
  8
LAYER_1
  2
AIGNBL0101029A
 10
0
 20
0
 30
0
  0
INSERT
  8
LAYER_1
  2
AIGNBL0101029B
 10
0
 20
0
 30
0
  0
INSERT
  8
LAYER_1
  2
AIGNBL0101029C
 10
0
 20
0
 30
0
  0
INSERT
  8
LAYER_1
  2
AIGNBL0101029D
 10
0
 20
0
 30
0
  0
INSERT
  8
LAYER_1
  2
AIGNBL0101029E
 10
0
 20
0
 30
0
  0
INSERT
  8
LAYER_1
  2
AIGNBL0101029F
 10
0
 20
0
 30
0
  0
INSERT
  8
LAYER_1
  2
AIGNBL010102A0
 10
0
 20
0
 30
0
  0
INSERT
  8
LAYER_1
  2
AIGNBL010102A1
 10
0
 20
0
 30
0
  0
INSERT
  8
LAYER_1
  2
AIGNBL010102A2
 10
0
 20
0
 30
0
  0
INSERT
  8
LAYER_1
  2
AIGNBL010102A3
 10
0
 20
0
 30
0
  0
INSERT
  8
LAYER_1
  2
AIGNBL010102A4
 10
0
 20
0
 30
0
  0
INSERT
  8
LAYER_1
  2
AIGNBL010102A5
 10
0
 20
0
 30
0
  0
INSERT
  8
LAYER_1
  2
AIGNBL010102A6
 10
0
 20
0
 30
0
  0
INSERT
  8
LAYER_1
  2
AIGNBL010102A7
 10
0
 20
0
 30
0
  0
INSERT
  8
LAYER_1
  2
AIGNBL010102A8
 10
0
 20
0
 30
0
  0
INSERT
  8
LAYER_1
  2
AIGNBL010102A9
 10
0
 20
0
 30
0
  0
INSERT
  8
LAYER_1
  2
AIGNBL010102AA
 10
0
 20
0
 30
0
  0
INSERT
  8
LAYER_1
  2
AIGNBL010102AB
 10
0
 20
0
 30
0
  0
INSERT
  8
LAYER_1
  2
AIGNBL010102AC
 10
0
 20
0
 30
0
  0
INSERT
  8
LAYER_1
  2
AIGNBL010102AD
 10
0
 20
0
 30
0
  0
INSERT
  8
LAYER_1
  2
AIGNBL010102AE
 10
0
 20
0
 30
0
  0
INSERT
  8
LAYER_1
  2
AIGNBL010102AF
 10
0
 20
0
 30
0
  0
INSERT
  8
LAYER_1
  2
AIGNBL010102B0
 10
0
 20
0
 30
0
  0
INSERT
  8
LAYER_1
  2
AIGNBL010102B1
 10
0
 20
0
 30
0
  0
INSERT
  8
LAYER_1
  2
AIGNBL010102B2
 10
0
 20
0
 30
0
  0
INSERT
  8
LAYER_1
  2
AIGNBL010102B3
 10
0
 20
0
 30
0
  0
INSERT
  8
LAYER_1
  2
AIGNBL010102B4
 10
0
 20
0
 30
0
  0
INSERT
  8
LAYER_1
  2
AIGNBL010102B5
 10
0
 20
0
 30
0
  0
INSERT
  8
LAYER_1
  2
AIGNBL010102B6
 10
0
 20
0
 30
0
  0
INSERT
  8
LAYER_1
  2
AIGNBL010102B7
 10
0
 20
0
 30
0
  0
INSERT
  8
LAYER_1
  2
AIGNBL010102B8
 10
0
 20
0
 30
0
  0
INSERT
  8
LAYER_1
  2
AIGNBL010102B9
 10
0
 20
0
 30
0
  0
INSERT
  8
LAYER_1
  2
AIGNBL010102BA
 10
0
 20
0
 30
0
  0
INSERT
  8
LAYER_1
  2
AIGNBL010102BB
 10
0
 20
0
 30
0
  0
INSERT
  8
LAYER_1
  2
AIGNBL010102C2
 10
0
 20
0
 30
0
  0
INSERT
  8
LAYER_1
  2
AIGNBL010102C3
 10
0
 20
0
 30
0
  0
INSERT
  8
LAYER_1
  2
AIGNBL010102C4
 10
0
 20
0
 30
0
  0
INSERT
  8
LAYER_1
  2
AIGNBL010102C5
 10
0
 20
0
 30
0
  0
INSERT
  8
LAYER_1
  2
AIGNBL010102C6
 10
0
 20
0
 30
0
  0
INSERT
  8
LAYER_1
  2
AIGNBL010102C7
 10
0
 20
0
 30
0
  0
INSERT
  8
LAYER_1
  2
AIGNBL010102C8
 10
0
 20
0
 30
0
  0
INSERT
  8
LAYER_1
  2
AIGNBL010102C9
 10
0
 20
0
 30
0
  0
INSERT
  8
LAYER_1
  2
AIGNBL010102CA
 10
0
 20
0
 30
0
  0
INSERT
  8
LAYER_1
  2
AIGNBL010102CB
 10
0
 20
0
 30
0
  0
INSERT
  8
LAYER_1
  2
AIGNBL010102CC
 10
0
 20
0
 30
0
  0
INSERT
  8
LAYER_1
  2
AIGNBL010102CD
 10
0
 20
0
 30
0
  0
INSERT
  8
LAYER_1
  2
AIGNBL010102CE
 10
0
 20
0
 30
0
  0
INSERT
  8
LAYER_1
  2
AIGNBL010102CF
 10
0
 20
0
 30
0
  0
INSERT
  8
LAYER_1
  2
AIGNBL010102D0
 10
0
 20
0
 30
0
  0
INSERT
  8
LAYER_1
  2
AIGNBL010102D7
 10
0
 20
0
 30
0
  0
INSERT
  8
LAYER_1
  2
AIGNBL010102D8
 10
0
 20
0
 30
0
  0
INSERT
  8
LAYER_1
  2
AIGNBL010102D9
 10
0
 20
0
 30
0
  0
INSERT
  8
LAYER_1
  2
AIGNBL010102DA
 10
0
 20
0
 30
0
  0
INSERT
  8
LAYER_1
  2
AIGNBL010102E3
 10
0
 20
0
 30
0
  0
INSERT
  8
LAYER_6
  2
AIGNBL06010002
 10
0
 20
0
 30
0
  0
POLYLINE
  8
LAYER_6
 40
0.3528
 41
0.3528
 66
1
 10
0
 20
0
 30
0
  0
VERTEX
  8
LAYER_6
 10
34.7876
 20
-258.3332
  0
VERTEX
  8
LAYER_6
 10
229.7955
 20
-258.3332
  0
VERTEX
  8
LAYER_6
 10
229.7955
 20
21.6583
  0
VERTEX
  8
LAYER_6
 10
34.7876
 20
21.6583
  0
VERTEX
  8
LAYER_6
 10
34.7876
 20
-258.3332
  0
SEQEND
  0
TEXT
  8
LAYER_6
 10
166.4505
 20
-248.7955
 11
166.4505
 21
-248.7955
 40
3.3848
 41
0.5
  1
●TEL 0120-65-1232●FAX 06-6532-1580
  0
TEXT
  8
LAYER_6
 10
166.4505
 20
-252.3102
 11
166.4505
 21
-252.3102
 40
3.3848
 41
0.5
  1
hits@hiratatile.co.jp
  0
TEXT
  8
LAYER_6
 10
37.8495
 20
-250.3797
 11
37.8495
 21
-250.3797
 40
3.2991
 41
0.5
  1
仕様
  0
POLYLINE
  8
LAYER_6
 40
0.3528
 41
0.3528
 66
1
 10
0
 20
0
 30
0
  0
VERTEX
  8
LAYER_6
 10
229.7955
 20
-241.6001
  0
VERTEX
  8
LAYER_6
 10
34.7874
 20
-241.6001
  0
SEQEND
  0
POLYLINE
  8
LAYER_6
 40
0.3528
 41
0.3528
 66
1
 10
0
 20
0
 30
0
  0
VERTEX
  8
LAYER_6
 10
229.7955
 20
-233.091
  0
VERTEX
  8
LAYER_6
 10
34.7874
 20
-233.091
  0
SEQEND
  0
TEXT
  8
LAYER_6
 10
35.9444
 20
-235.5675
 11
35.9444
 21
-235.5675
 40
2.1994
 41
0.5
  1
品名
  0
TEXT
  8
LAYER_6
 10
48.7874
 20
-238.6599
 11
48.7874
 21
-238.6599
 40
3.6368
 41
0.5
  1
ロックシングルレバー洗面混合水栓
  0
TEXT
  8
LAYER_6
 10
48.4217
 20
-250.3883
 11
48.4217
 21
-250.3883
 40
3.1172
 41
0.5
  1
●排水金具別途
  0
TEXT
  8
LAYER_6
 10
137.7434
 20
-235.5677
 11
137.7434
 21
-235.5677
 40
2.1994
 41
0.5
  1
品番
  0
TEXT
  8
LAYER_6
 10
143.7654
 20
-240.0443
 11
143.7654
 21
-240.0443
 40
5.9385
 41
0.5
  1
PAF-RO081/
  0
ENDSEC
  0
EOF
