  0
SECTION
  2
HEADER
  9
$ACADVER
  1
AC1009
  9
$LUNITS
 70
2
  9
$LUPREC
 70
4
  9
$LTSCALE
 40
1.0
  9
$EXTMIN
 10
3.1173
 20
6.8623
 30
0
  9
$EXTMAX
 10
417.095
 20
214.5242
 30
0
  0
ENDSEC
  0
SECTION
  2
TABLES
  0
TABLE
  2
LTYPE
 70
256
  0
LTYPE
  2
AIGENLINE001
 70
64
  3
generate AI->DXF Converter
 72
65
 73
2
 40
2.032
 49
1.016
 49
-1.016
  0
ENDTAB
  0
TABLE
  2
LAYER
 70
1
  0
LAYER
  2
LAYER_1
 70
64
 62
7
  6
CONTINUOUS
  0
ENDTAB
  0
TABLE
  2
STYLE
 70
6
  0
STYLE
  2
STANDARD
 70
0
 40
0
 50
0
 71
0
 41
0
 42
0
  3
TXT
  4
BIGFONT
  0
ENDTAB
  0
ENDSEC
  0
SECTION
  2
BLOCKS
  0
BLOCK
  8
LAYER_1
  2
AIGNBL01040005
 70
64
 10
0
 20
0
 30
0
  3
AIGNBL01040005
  0
POLYLINE
  8
LAYER_1
 40
0.05
 41
0.05
 62
29
 66
1
 10
0
 20
0
 30
0
 70
1
  0
VERTEX
  8
LAYER_1
 10
320.4766
 20
15.8555
  0
VERTEX
  8
LAYER_1
 10
319.9877
 20
14.6704
  0
VERTEX
  8
LAYER_1
 10
319.3597
 20
14.6704
  0
VERTEX
  8
LAYER_1
 10
320.9592
 20
18.4363
  0
VERTEX
  8
LAYER_1
 10
321.6924
 20
18.4363
  0
VERTEX
  8
LAYER_1
 10
323.2988
 20
14.6704
  0
VERTEX
  8
LAYER_1
 10
322.6487
 20
14.6704
  0
VERTEX
  8
LAYER_1
 10
322.1461
 20
15.8555
  0
SEQEND
  0
POLYLINE
  8
LAYER_1
 40
0.05
 41
0.05
 62
29
 66
1
 10
0
 20
0
 30
0
 70
1
  0
VERTEX
  8
LAYER_1
 10
322.0203
 20
16.2345
  0
VERTEX
  8
LAYER_1
 10
321.5594
 20
17.3193
  0
VERTEX
  8
LAYER_1
 10
321.3147
 20
18.0063
  0
VERTEX
  8
LAYER_1
 10
321.301
 20
18.0063
  0
VERTEX
  8
LAYER_1
 10
321.0633
 20
17.3238
  0
VERTEX
  8
LAYER_1
 10
320.6027
 20
16.2345
  0
SEQEND
  0
ENDBLK
  0
BLOCK
  8
LAYER_1
  2
AIGNBL01040006
 70
64
 10
0
 20
0
 30
0
  3
AIGNBL01040006
  0
POLYLINE
  8
LAYER_1
 40
0.05
 41
0.05
 62
29
 66
1
 10
0
 20
0
 30
0
 70
1
  0
VERTEX
  8
LAYER_1
 10
327.6641
 20
14.1171
 42
-0.01562387181
  0
VERTEX
  8
LAYER_1
 10
325.8619
 20
14.5533
  0
VERTEX
  8
LAYER_1
 10
325.5753
 20
14.6087
 42
-0.08357116773
  0
VERTEX
  8
LAYER_1
 10
324.7113
 20
14.7749
 42
-0.09750805853
  0
VERTEX
  8
LAYER_1
 10
324.0501
 20
15.1809
 42
-0.2129055397
  0
VERTEX
  8
LAYER_1
 10
323.5014
 20
16.5136
 42
-0.09685143224
  0
VERTEX
  8
LAYER_1
 10
323.646
 20
17.287
 42
-0.2046325641
  0
VERTEX
  8
LAYER_1
 10
324.6935
 20
18.3112
 42
-0.09825434011
  0
VERTEX
  8
LAYER_1
 10
325.6945
 20
18.4976
 42
-0.08554836282
  0
VERTEX
  8
LAYER_1
 10
326.5631
 20
18.3563
 42
-0.1004347897
  0
VERTEX
  8
LAYER_1
 10
327.2282
 20
17.962
 42
-0.2140895568
  0
VERTEX
  8
LAYER_1
 10
327.8036
 20
16.5921
 42
-0.09540761417
  0
VERTEX
  8
LAYER_1
 10
327.6647
 20
15.8243
 42
-0.2143180113
  0
VERTEX
  8
LAYER_1
 10
326.6419
 20
14.8459
 42
-0.02339684384
  0
VERTEX
  8
LAYER_1
 10
326.4628
 20
14.7876
  0
VERTEX
  8
LAYER_1
 10
326.4628
 20
14.7652
 42
0.01715381139
  0
VERTEX
  8
LAYER_1
 10
327.8391
 20
14.525
  0
SEQEND
  0
POLYLINE
  8
LAYER_1
 40
0.05
 41
0.05
 62
29
 66
1
 10
0
 20
0
 30
0
 70
1
  0
VERTEX
  8
LAYER_1
 10
327.1614
 20
16.5707
 42
0.1071478063
  0
VERTEX
  8
LAYER_1
 10
327.0101
 20
17.2755
 42
0.29764763
  0
VERTEX
  8
LAYER_1
 10
325.6731
 20
18.1011
 42
0.1072381498
  0
VERTEX
  8
LAYER_1
 10
324.9833
 20
17.9616
 42
0.2386128144
  0
VERTEX
  8
LAYER_1
 10
324.1964
 20
16.9559
 42
0.05752200415
  0
VERTEX
  8
LAYER_1
 10
324.1508
 20
16.5259
 42
0.218096749
  0
VERTEX
  8
LAYER_1
 10
324.6814
 20
15.3305
 42
0.1772796408
  0
VERTEX
  8
LAYER_1
 10
325.6452
 20
15.0049
 42
0.1075185771
  0
VERTEX
  8
LAYER_1
 10
326.3266
 20
15.1439
 42
0.2370926009
  0
VERTEX
  8
LAYER_1
 10
327.1137
 20
16.1435
 42
0.05601310134
  0
SEQEND
  0
ENDBLK
  0
BLOCK
  8
LAYER_1
  2
AIGNBL01040007
 70
64
 10
0
 20
0
 30
0
  3
AIGNBL01040007
  0
POLYLINE
  8
LAYER_1
 40
0.05
 41
0.05
 62
29
 66
1
 10
0
 20
0
 30
0
 70
1
  0
VERTEX
  8
LAYER_1
 10
329.131
 20
18.4363
  0
VERTEX
  8
LAYER_1
 10
329.131
 20
16.2069
 42
0.1145199457
  0
VERTEX
  8
LAYER_1
 10
329.2649
 20
15.5411
 42
0.1464896694
  0
VERTEX
  8
LAYER_1
 10
329.6152
 20
15.1559
 42
0.1362580474
  0
VERTEX
  8
LAYER_1
 10
330.2276
 20
15.0049
 42
0.1219437831
  0
VERTEX
  8
LAYER_1
 10
330.8507
 20
15.1397
 42
0.1502873274
  0
VERTEX
  8
LAYER_1
 10
331.2225
 20
15.5087
 42
0.1256234729
  0
VERTEX
  8
LAYER_1
 10
331.3731
 20
16.2069
  0
VERTEX
  8
LAYER_1
 10
331.3731
 20
18.4363
  0
VERTEX
  8
LAYER_1
 10
331.9877
 20
18.4363
  0
VERTEX
  8
LAYER_1
 10
331.9877
 20
16.2403
 42
-0.09997895241
  0
VERTEX
  8
LAYER_1
 10
331.8528
 20
15.4976
 42
-0.1214934275
  0
VERTEX
  8
LAYER_1
 10
331.4795
 20
14.991
 42
-0.110620524
  0
VERTEX
  8
LAYER_1
 10
330.854
 20
14.6843
 42
-0.06129362553
  0
VERTEX
  8
LAYER_1
 10
330.2065
 20
14.6087
 42
-0.09420005614
  0
VERTEX
  8
LAYER_1
 10
329.3874
 20
14.7469
 42
-0.24315236
  0
VERTEX
  8
LAYER_1
 10
328.5839
 20
15.6576
 42
-0.0632033471
  0
VERTEX
  8
LAYER_1
 10
328.5164
 20
16.2183
  0
VERTEX
  8
LAYER_1
 10
328.5164
 20
18.4363
  0
SEQEND
  0
ENDBLK
  0
BLOCK
  8
LAYER_1
  2
AIGNBL01040008
 70
64
 10
0
 20
0
 30
0
  3
AIGNBL01040008
  0
POLYLINE
  8
LAYER_1
 40
0.05
 41
0.05
 62
29
 66
1
 10
0
 20
0
 30
0
 70
1
  0
VERTEX
  8
LAYER_1
 10
333.734
 20
15.8555
  0
VERTEX
  8
LAYER_1
 10
333.2448
 20
14.6704
  0
VERTEX
  8
LAYER_1
 10
332.6167
 20
14.6704
  0
VERTEX
  8
LAYER_1
 10
334.216
 20
18.4363
  0
VERTEX
  8
LAYER_1
 10
334.9491
 20
18.4363
  0
VERTEX
  8
LAYER_1
 10
336.5555
 20
14.6704
  0
VERTEX
  8
LAYER_1
 10
335.9061
 20
14.6704
  0
VERTEX
  8
LAYER_1
 10
335.4035
 20
15.8555
  0
SEQEND
  0
POLYLINE
  8
LAYER_1
 40
0.05
 41
0.05
 62
29
 66
1
 10
0
 20
0
 30
0
 70
1
  0
VERTEX
  8
LAYER_1
 10
335.2774
 20
16.2345
  0
VERTEX
  8
LAYER_1
 10
334.8161
 20
17.3193
  0
VERTEX
  8
LAYER_1
 10
334.5715
 20
18.0063
  0
VERTEX
  8
LAYER_1
 10
334.5577
 20
18.0063
  0
VERTEX
  8
LAYER_1
 10
334.3203
 20
17.3238
  0
VERTEX
  8
LAYER_1
 10
333.8594
 20
16.2345
  0
SEQEND
  0
ENDBLK
  0
BLOCK
  8
LAYER_1
  2
AIGNBL01040009
 70
64
 10
0
 20
0
 30
0
  3
AIGNBL01040009
  0
POLYLINE
  8
LAYER_1
 40
0.05
 41
0.05
 62
29
 66
1
 10
0
 20
0
 30
0
 70
1
  0
VERTEX
  8
LAYER_1
 10
337.5963
 20
18.3915
 42
-0.03240300255
  0
VERTEX
  8
LAYER_1
 10
338.7631
 20
18.4645
 42
-0.08082287254
  0
VERTEX
  8
LAYER_1
 10
339.7196
 20
18.3327
 42
-0.07816212749
  0
VERTEX
  8
LAYER_1
 10
340.0829
 20
18.1517
 42
-0.2483921074
  0
VERTEX
  8
LAYER_1
 10
340.4946
 20
17.3634
 42
-0.226147
  0
VERTEX
  8
LAYER_1
 10
340.1315
 20
16.5593
 42
-0.1097235065
  0
VERTEX
  8
LAYER_1
 10
339.5032
 20
16.246
 42
-0.06565761462
  0
VERTEX
  8
LAYER_1
 10
338.6929
 20
16.1456
 42
-0.06238970687
  0
VERTEX
  8
LAYER_1
 10
338.2043
 20
16.179
  0
VERTEX
  8
LAYER_1
 10
338.2043
 20
14.6704
  0
VERTEX
  8
LAYER_1
 10
337.5963
 20
14.6704
  0
SEQEND
  0
POLYLINE
  8
LAYER_1
 40
0.05
 41
0.05
 62
29
 66
1
 10
0
 20
0
 30
0
 70
1
  0
VERTEX
  8
LAYER_1
 10
338.2043
 20
16.5759
 42
0.04202964651
  0
VERTEX
  8
LAYER_1
 10
338.7066
 20
16.5366
 42
0.1032325703
  0
VERTEX
  8
LAYER_1
 10
339.4258
 20
16.6639
 42
0.1555838345
  0
VERTEX
  8
LAYER_1
 10
339.7906
 20
16.9684
 42
0.1352564048
  0
VERTEX
  8
LAYER_1
 10
339.8876
 20
17.3411
 42
0.1737047371
  0
VERTEX
  8
LAYER_1
 10
339.7528
 20
17.7484
 42
0.1517050813
  0
VERTEX
  8
LAYER_1
 10
339.3317
 20
18.0079
 42
0.06879756253
  0
VERTEX
  8
LAYER_1
 10
338.7772
 20
18.0787
 42
0.06317907604
  0
VERTEX
  8
LAYER_1
 10
338.2043
 20
18.0394
  0
SEQEND
  0
ENDBLK
  0
BLOCK
  8
LAYER_1
  2
AIGNBL0104000A
 70
64
 10
0
 20
0
 30
0
  3
AIGNBL0104000A
  0
POLYLINE
  8
LAYER_1
 40
0.05
 41
0.05
 62
29
 66
1
 10
0
 20
0
 30
0
 70
1
  0
VERTEX
  8
LAYER_1
 10
342.0466
 20
18.1345
 42
-0.2767830485
  0
VERTEX
  8
LAYER_1
 10
341.9071
 20
17.8944
 42
-0.1265113161
  0
VERTEX
  8
LAYER_1
 10
341.655
 20
17.8327
 42
-0.2237303387
  0
VERTEX
  8
LAYER_1
 10
341.3446
 20
17.9651
 42
-0.1708347924
  0
VERTEX
  8
LAYER_1
 10
341.2846
 20
18.1345
 42
-0.2643957951
  0
VERTEX
  8
LAYER_1
 10
341.434
 20
18.3815
 42
-0.1289907874
  0
VERTEX
  8
LAYER_1
 10
341.6687
 20
18.4414
 42
-0.2252979244
  0
VERTEX
  8
LAYER_1
 10
341.9855
 20
18.3108
 42
-0.1691669651
  0
SEQEND
  0
POLYLINE
  8
LAYER_1
 40
0.05
 41
0.05
 62
29
 66
1
 10
0
 20
0
 30
0
 70
1
  0
VERTEX
  8
LAYER_1
 10
341.3611
 20
14.6704
  0
VERTEX
  8
LAYER_1
 10
341.3611
 20
17.3745
  0
VERTEX
  8
LAYER_1
 10
341.9757
 20
17.3745
  0
VERTEX
  8
LAYER_1
 10
341.9757
 20
14.6704
  0
SEQEND
  0
ENDBLK
  0
BLOCK
  8
LAYER_1
  2
AIGNBL0104000B
 70
64
 10
0
 20
0
 30
0
  3
AIGNBL0104000B
  0
POLYLINE
  8
LAYER_1
 40
0.05
 41
0.05
 62
29
 66
1
 10
0
 20
0
 30
0
 70
1
  0
VERTEX
  8
LAYER_1
 10
343.8474
 20
15.8555
  0
VERTEX
  8
LAYER_1
 10
343.3592
 20
14.6704
  0
VERTEX
  8
LAYER_1
 10
342.7301
 20
14.6704
  0
VERTEX
  8
LAYER_1
 10
344.3297
 20
18.4363
  0
VERTEX
  8
LAYER_1
 10
345.0635
 20
18.4363
  0
VERTEX
  8
LAYER_1
 10
346.67
 20
14.6704
  0
VERTEX
  8
LAYER_1
 10
346.0202
 20
14.6704
  0
VERTEX
  8
LAYER_1
 10
345.5176
 20
15.8555
  0
SEQEND
  0
POLYLINE
  8
LAYER_1
 40
0.05
 41
0.05
 62
29
 66
1
 10
0
 20
0
 30
0
 70
1
  0
VERTEX
  8
LAYER_1
 10
345.3915
 20
16.2345
  0
VERTEX
  8
LAYER_1
 10
344.9305
 20
17.3193
  0
VERTEX
  8
LAYER_1
 10
344.6866
 20
18.0063
  0
VERTEX
  8
LAYER_1
 10
344.6718
 20
18.0063
  0
VERTEX
  8
LAYER_1
 10
344.4348
 20
17.3238
  0
VERTEX
  8
LAYER_1
 10
343.9738
 20
16.2345
  0
SEQEND
  0
ENDBLK
  0
BLOCK
  8
LAYER_1
  2
AIGNBL01030004
 70
64
 10
0
 20
0
 30
0
  3
AIGNBL01030004
  0
INSERT
  8
LAYER_1
  2
AIGNBL01040005
 10
0
 20
0
 30
0
  0
INSERT
  8
LAYER_1
  2
AIGNBL01040006
 10
0
 20
0
 30
0
  0
INSERT
  8
LAYER_1
  2
AIGNBL01040007
 10
0
 20
0
 30
0
  0
INSERT
  8
LAYER_1
  2
AIGNBL01040008
 10
0
 20
0
 30
0
  0
INSERT
  8
LAYER_1
  2
AIGNBL01040009
 10
0
 20
0
 30
0
  0
INSERT
  8
LAYER_1
  2
AIGNBL0104000A
 10
0
 20
0
 30
0
  0
INSERT
  8
LAYER_1
  2
AIGNBL0104000B
 10
0
 20
0
 30
0
  0
ENDBLK
  0
BLOCK
  8
LAYER_1
  2
AIGNBL0103000D
 70
64
 10
0
 20
0
 30
0
  3
AIGNBL0103000D
  0
POLYLINE
  8
LAYER_1
 40
0.05
 41
0.05
 62
29
 66
1
 10
0
 20
0
 30
0
 70
1
  0
VERTEX
  8
LAYER_1
 10
319.4696
 20
12.7711
  0
VERTEX
  8
LAYER_1
 10
320.0228
 20
12.7711
  0
VERTEX
  8
LAYER_1
 10
320.0228
 20
12.6774
  0
VERTEX
  8
LAYER_1
 10
319.3645
 20
12.6774
  0
VERTEX
  8
LAYER_1
 10
319.3645
 20
13.7106
  0
VERTEX
  8
LAYER_1
 10
320.0053
 20
13.7106
  0
VERTEX
  8
LAYER_1
 10
320.0053
 20
13.6172
  0
VERTEX
  8
LAYER_1
 10
319.4696
 20
13.6172
  0
VERTEX
  8
LAYER_1
 10
319.4696
 20
13.2627
  0
VERTEX
  8
LAYER_1
 10
319.9701
 20
13.2627
  0
VERTEX
  8
LAYER_1
 10
319.9701
 20
13.1694
  0
VERTEX
  8
LAYER_1
 10
319.4696
 20
13.1694
  0
SEQEND
  0
ENDBLK
  0
BLOCK
  8
LAYER_1
  2
AIGNBL0103000E
 70
64
 10
0
 20
0
 30
0
  3
AIGNBL0103000E
  0
POLYLINE
  8
LAYER_1
 40
0.05
 41
0.05
 62
29
 66
1
 10
0
 20
0
 30
0
 70
1
  0
VERTEX
  8
LAYER_1
 10
321.1625
 20
12.8307
  0
VERTEX
  8
LAYER_1
 10
321.1652
 20
12.8307
  0
VERTEX
  8
LAYER_1
 10
321.1652
 20
13.7106
  0
VERTEX
  8
LAYER_1
 10
321.2703
 20
13.7106
  0
VERTEX
  8
LAYER_1
 10
321.2703
 20
12.6774
  0
VERTEX
  8
LAYER_1
 10
321.1394
 20
12.6774
  0
VERTEX
  8
LAYER_1
 10
320.5382
 20
13.5663
  0
VERTEX
  8
LAYER_1
 10
320.5348
 20
13.5663
  0
VERTEX
  8
LAYER_1
 10
320.5348
 20
12.6774
  0
VERTEX
  8
LAYER_1
 10
320.43
 20
12.6774
  0
VERTEX
  8
LAYER_1
 10
320.43
 20
13.7106
  0
VERTEX
  8
LAYER_1
 10
320.5613
 20
13.7106
  0
SEQEND
  0
ENDBLK
  0
BLOCK
  8
LAYER_1
  2
AIGNBL0103000F
 70
64
 10
0
 20
0
 30
0
  3
AIGNBL0103000F
  0
POLYLINE
  8
LAYER_1
 40
0.05
 41
0.05
 62
29
 66
1
 10
0
 20
0
 30
0
 70
1
  0
VERTEX
  8
LAYER_1
 10
321.7433
 20
12.8893
  0
VERTEX
  8
LAYER_1
 10
321.7978
 20
12.7863
 42
0.1809219053
  0
VERTEX
  8
LAYER_1
 10
321.9111
 20
12.7446
  0
VERTEX
  8
LAYER_1
 10
322.0003
 20
12.7642
  0
VERTEX
  8
LAYER_1
 10
322.0565
 20
12.8176
  0
VERTEX
  8
LAYER_1
 10
322.0854
 20
12.8941
  0
VERTEX
  8
LAYER_1
 10
322.0937
 20
12.9837
  0
VERTEX
  8
LAYER_1
 10
322.0937
 20
13.7106
  0
VERTEX
  8
LAYER_1
 10
322.1988
 20
13.7106
  0
VERTEX
  8
LAYER_1
 10
322.1988
 20
12.9751
  0
VERTEX
  8
LAYER_1
 10
322.1874
 20
12.8672
  0
VERTEX
  8
LAYER_1
 10
322.1461
 20
12.7622
  0
VERTEX
  8
LAYER_1
 10
322.0613
 20
12.6826
  0
VERTEX
  8
LAYER_1
 10
321.9225
 20
12.6512
 42
-0.1846674817
  0
VERTEX
  8
LAYER_1
 10
321.7378
 20
12.7112
 42
-0.1765293084
  0
VERTEX
  8
LAYER_1
 10
321.6455
 20
12.8628
  0
SEQEND
  0
ENDBLK
  0
BLOCK
  8
LAYER_1
  2
AIGNBL01030010
 70
64
 10
0
 20
0
 30
0
  3
AIGNBL01030010
  0
POLYLINE
  8
LAYER_1
 40
0.05
 41
0.05
 62
29
 66
1
 10
0
 20
0
 30
0
 70
1
  0
VERTEX
  8
LAYER_1
 10
323.6871
 20
13.1942
 42
-0.1037038216
  0
VERTEX
  8
LAYER_1
 10
323.646
 20
12.9768
 42
-0.1002458474
  0
VERTEX
  8
LAYER_1
 10
323.5334
 20
12.8052
  0
VERTEX
  8
LAYER_1
 10
323.3625
 20
12.6922
 42
-0.09506675375
  0
VERTEX
  8
LAYER_1
 10
323.1486
 20
12.6512
 42
-0.1010866674
  0
VERTEX
  8
LAYER_1
 10
322.935
 20
12.6922
 42
-0.1000561267
  0
VERTEX
  8
LAYER_1
 10
322.7641
 20
12.8052
 42
-0.09479293922
  0
VERTEX
  8
LAYER_1
 10
322.6508
 20
12.9768
 42
-0.09316534225
  0
VERTEX
  8
LAYER_1
 10
322.6101
 20
13.1942
 42
-0.1027149125
  0
VERTEX
  8
LAYER_1
 10
322.6508
 20
13.4116
 42
-0.1007559602
  0
VERTEX
  8
LAYER_1
 10
322.7641
 20
13.5831
 42
-0.09634037191
  0
VERTEX
  8
LAYER_1
 10
322.935
 20
13.6961
 42
-0.09532420784
  0
VERTEX
  8
LAYER_1
 10
323.1486
 20
13.7371
 42
-0.1018017754
  0
VERTEX
  8
LAYER_1
 10
323.3625
 20
13.6961
 42
-0.09904976341
  0
VERTEX
  8
LAYER_1
 10
323.5334
 20
13.5831
 42
-0.09543199427
  0
VERTEX
  8
LAYER_1
 10
323.646
 20
13.4116
 42
-0.09417236148
  0
SEQEND
  0
POLYLINE
  8
LAYER_1
 40
0.05
 41
0.05
 62
29
 66
1
 10
0
 20
0
 30
0
 70
1
  0
VERTEX
  8
LAYER_1
 10
323.5761
 20
13.1935
  0
VERTEX
  8
LAYER_1
 10
323.5472
 20
13.3654
  0
VERTEX
  8
LAYER_1
 10
323.4624
 20
13.5087
  0
VERTEX
  8
LAYER_1
 10
323.3274
 20
13.6069
  0
VERTEX
  8
LAYER_1
 10
323.1486
 20
13.6438
 42
0.1146758138
  0
VERTEX
  8
LAYER_1
 10
322.9698
 20
13.6069
  0
VERTEX
  8
LAYER_1
 10
322.8351
 20
13.5087
  0
VERTEX
  8
LAYER_1
 10
322.7503
 20
13.3654
  0
VERTEX
  8
LAYER_1
 10
322.7211
 20
13.1935
  0
VERTEX
  8
LAYER_1
 10
322.7503
 20
13.0216
  0
VERTEX
  8
LAYER_1
 10
322.8351
 20
12.8786
  0
VERTEX
  8
LAYER_1
 10
322.9698
 20
12.7811
 42
0.1008280473
  0
VERTEX
  8
LAYER_1
 10
323.1486
 20
12.7446
  0
VERTEX
  8
LAYER_1
 10
323.3274
 20
12.7811
  0
VERTEX
  8
LAYER_1
 10
323.4624
 20
12.8786
  0
VERTEX
  8
LAYER_1
 10
323.5472
 20
13.0216
  0
SEQEND
  0
ENDBLK
  0
BLOCK
  8
LAYER_1
  2
AIGNBL01030011
 70
64
 10
0
 20
0
 30
0
  3
AIGNBL01030011
  0
POLYLINE
  8
LAYER_1
 40
0.05
 41
0.05
 62
29
 66
1
 10
0
 20
0
 30
0
 70
1
  0
VERTEX
  8
LAYER_1
 10
324.4618
 20
12.6774
  0
VERTEX
  8
LAYER_1
 10
324.3571
 20
12.6774
  0
VERTEX
  8
LAYER_1
 10
324.3571
 20
13.1229
  0
VERTEX
  8
LAYER_1
 10
323.9702
 20
13.7106
  0
VERTEX
  8
LAYER_1
 10
324.1015
 20
13.7106
  0
VERTEX
  8
LAYER_1
 10
324.4126
 20
13.2104
  0
VERTEX
  8
LAYER_1
 10
324.7261
 20
13.7106
  0
VERTEX
  8
LAYER_1
 10
324.8484
 20
13.7106
  0
VERTEX
  8
LAYER_1
 10
324.4618
 20
13.1229
  0
SEQEND
  0
ENDBLK
  0
BLOCK
  8
LAYER_1
  2
AIGNBL01030012
 70
64
 10
0
 20
0
 30
0
  3
AIGNBL01030012
  0
POLYLINE
  8
LAYER_1
 40
0.05
 41
0.05
 62
29
 66
1
 10
0
 20
0
 30
0
 70
1
  0
VERTEX
  8
LAYER_1
 10
325.7534
 20
13.7106
  0
VERTEX
  8
LAYER_1
 10
326.061
 20
13.7106
  0
VERTEX
  8
LAYER_1
 10
326.1796
 20
13.6982
  0
VERTEX
  8
LAYER_1
 10
326.2864
 20
13.6558
  0
VERTEX
  8
LAYER_1
 10
326.3642
 20
13.5749
  0
VERTEX
  8
LAYER_1
 10
326.3939
 20
13.4467
 42
-0.1787887146
  0
VERTEX
  8
LAYER_1
 10
326.3439
 20
13.3044
 42
-0.1639171028
  0
VERTEX
  8
LAYER_1
 10
326.2106
 20
13.2249
  0
VERTEX
  8
LAYER_1
 10
326.2106
 20
13.2221
 42
-0.1735745096
  0
VERTEX
  8
LAYER_1
 10
326.3773
 20
13.1439
 42
-0.1923137572
  0
VERTEX
  8
LAYER_1
 10
326.4435
 20
12.9634
  0
VERTEX
  8
LAYER_1
 10
326.4163
 20
12.8463
  0
VERTEX
  8
LAYER_1
 10
326.3401
 20
12.7556
  0
VERTEX
  8
LAYER_1
 10
326.2192
 20
12.6981
  0
VERTEX
  8
LAYER_1
 10
326.0594
 20
12.6774
  0
VERTEX
  8
LAYER_1
 10
325.7534
 20
12.6774
  0
SEQEND
  0
POLYLINE
  8
LAYER_1
 40
0.05
 41
0.05
 62
29
 66
1
 10
0
 20
0
 30
0
 70
1
  0
VERTEX
  8
LAYER_1
 10
325.8585
 20
13.2583
  0
VERTEX
  8
LAYER_1
 10
326.07
 20
13.2583
  0
VERTEX
  8
LAYER_1
 10
326.1468
 20
13.2672
  0
VERTEX
  8
LAYER_1
 10
326.2171
 20
13.2969
  0
VERTEX
  8
LAYER_1
 10
326.2692
 20
13.3534
  0
VERTEX
  8
LAYER_1
 10
326.2888
 20
13.4395
  0
VERTEX
  8
LAYER_1
 10
326.2692
 20
13.5232
  0
VERTEX
  8
LAYER_1
 10
326.2161
 20
13.5794
  0
VERTEX
  8
LAYER_1
 10
326.1372
 20
13.6107
  0
VERTEX
  8
LAYER_1
 10
326.0407
 20
13.6204
  0
VERTEX
  8
LAYER_1
 10
325.8585
 20
13.6204
  0
SEQEND
  0
POLYLINE
  8
LAYER_1
 40
0.05
 41
0.05
 62
29
 66
1
 10
0
 20
0
 30
0
 70
1
  0
VERTEX
  8
LAYER_1
 10
325.8585
 20
12.768
  0
VERTEX
  8
LAYER_1
 10
326.0542
 20
12.768
  0
VERTEX
  8
LAYER_1
 10
326.1627
 20
12.779
  0
VERTEX
  8
LAYER_1
 10
326.2533
 20
12.8139
  0
VERTEX
  8
LAYER_1
 10
326.315
 20
12.8769
  0
VERTEX
  8
LAYER_1
 10
326.3384
 20
12.9696
 42
0.2554060681
  0
VERTEX
  8
LAYER_1
 10
326.2692
 20
13.1218
 42
0.1380642909
  0
VERTEX
  8
LAYER_1
 10
326.0731
 20
13.1721
  0
VERTEX
  8
LAYER_1
 10
325.8585
 20
13.1721
  0
SEQEND
  0
ENDBLK
  0
BLOCK
  8
LAYER_1
  2
AIGNBL01030013
 70
64
 10
0
 20
0
 30
0
  3
AIGNBL01030013
  0
POLYLINE
  8
LAYER_1
 40
0.05
 41
0.05
 62
29
 66
1
 10
0
 20
0
 30
0
 70
1
  0
VERTEX
  8
LAYER_1
 10
326.8755
 20
12.6774
  0
VERTEX
  8
LAYER_1
 10
326.7601
 20
12.6774
  0
VERTEX
  8
LAYER_1
 10
327.2069
 20
13.7106
  0
VERTEX
  8
LAYER_1
 10
327.3092
 20
13.7106
  0
VERTEX
  8
LAYER_1
 10
327.7526
 20
12.6774
  0
VERTEX
  8
LAYER_1
 10
327.6358
 20
12.6774
  0
VERTEX
  8
LAYER_1
 10
327.5218
 20
12.9489
  0
VERTEX
  8
LAYER_1
 10
326.9878
 20
12.9489
  0
SEQEND
  0
POLYLINE
  8
LAYER_1
 40
0.05
 41
0.05
 62
29
 66
1
 10
0
 20
0
 30
0
 70
1
  0
VERTEX
  8
LAYER_1
 10
327.0271
 20
13.0454
  0
VERTEX
  8
LAYER_1
 10
327.4825
 20
13.0454
  0
VERTEX
  8
LAYER_1
 10
327.2548
 20
13.5942
  0
SEQEND
  0
ENDBLK
  0
BLOCK
  8
LAYER_1
  2
AIGNBL01030014
 70
64
 10
0
 20
0
 30
0
  3
AIGNBL01030014
  0
POLYLINE
  8
LAYER_1
 40
0.05
 41
0.05
 62
29
 66
1
 10
0
 20
0
 30
0
 70
1
  0
VERTEX
  8
LAYER_1
 10
328.4371
 20
12.6774
  0
VERTEX
  8
LAYER_1
 10
328.3321
 20
12.6774
  0
VERTEX
  8
LAYER_1
 10
328.3321
 20
13.6172
  0
VERTEX
  8
LAYER_1
 10
327.9858
 20
13.6172
  0
VERTEX
  8
LAYER_1
 10
327.9858
 20
13.7106
  0
VERTEX
  8
LAYER_1
 10
328.7827
 20
13.7106
  0
VERTEX
  8
LAYER_1
 10
328.7827
 20
13.6172
  0
VERTEX
  8
LAYER_1
 10
328.4371
 20
13.6172
  0
SEQEND
  0
ENDBLK
  0
BLOCK
  8
LAYER_1
  2
AIGNBL01030015
 70
64
 10
0
 20
0
 30
0
  3
AIGNBL01030015
  0
POLYLINE
  8
LAYER_1
 40
0.05
 41
0.05
 62
29
 66
1
 10
0
 20
0
 30
0
 70
1
  0
VERTEX
  8
LAYER_1
 10
329.1389
 20
13.7106
  0
VERTEX
  8
LAYER_1
 10
329.2436
 20
13.7106
  0
VERTEX
  8
LAYER_1
 10
329.2436
 20
13.2627
  0
VERTEX
  8
LAYER_1
 10
329.8073
 20
13.2627
  0
VERTEX
  8
LAYER_1
 10
329.8073
 20
13.7106
  0
VERTEX
  8
LAYER_1
 10
329.9123
 20
13.7106
  0
VERTEX
  8
LAYER_1
 10
329.9123
 20
12.6774
  0
VERTEX
  8
LAYER_1
 10
329.8073
 20
12.6774
  0
VERTEX
  8
LAYER_1
 10
329.8073
 20
13.1666
  0
VERTEX
  8
LAYER_1
 10
329.2436
 20
13.1666
  0
VERTEX
  8
LAYER_1
 10
329.2436
 20
12.6774
  0
VERTEX
  8
LAYER_1
 10
329.1389
 20
12.6774
  0
SEQEND
  0
ENDBLK
  0
BLOCK
  8
LAYER_1
  2
AIGNBL01030016
 70
64
 10
0
 20
0
 30
0
  3
AIGNBL01030016
  0
POLYLINE
  8
LAYER_1
 40
0.05
 41
0.05
 62
29
 66
1
 10
0
 20
0
 30
0
 70
1
  0
VERTEX
  8
LAYER_1
 10
330.4928
 20
12.6774
  0
VERTEX
  8
LAYER_1
 10
330.3878
 20
12.6774
  0
VERTEX
  8
LAYER_1
 10
330.3878
 20
13.7106
  0
VERTEX
  8
LAYER_1
 10
330.6916
 20
13.7106
  0
VERTEX
  8
LAYER_1
 10
330.8322
 20
13.6961
  0
VERTEX
  8
LAYER_1
 10
330.9448
 20
13.6486
  0
VERTEX
  8
LAYER_1
 10
331.0182
 20
13.5632
  0
VERTEX
  8
LAYER_1
 10
331.0444
 20
13.435
  0
VERTEX
  8
LAYER_1
 10
331.0244
 20
13.3313
  0
VERTEX
  8
LAYER_1
 10
330.969
 20
13.2504
  0
VERTEX
  8
LAYER_1
 10
330.8856
 20
13.1956
  0
VERTEX
  8
LAYER_1
 10
330.7805
 20
13.1694
  0
VERTEX
  8
LAYER_1
 10
331.0826
 20
12.6774
  0
VERTEX
  8
LAYER_1
 10
330.9541
 20
12.6774
  0
VERTEX
  8
LAYER_1
 10
330.6682
 20
13.1604
  0
VERTEX
  8
LAYER_1
 10
330.4928
 20
13.1604
  0
SEQEND
  0
POLYLINE
  8
LAYER_1
 40
0.05
 41
0.05
 62
29
 66
1
 10
0
 20
0
 30
0
 70
1
  0
VERTEX
  8
LAYER_1
 10
330.4928
 20
13.251
  0
VERTEX
  8
LAYER_1
 10
330.6754
 20
13.251
 42
0.1656263988
  0
VERTEX
  8
LAYER_1
 10
330.8711
 20
13.2969
 42
0.250658542
  0
VERTEX
  8
LAYER_1
 10
330.9397
 20
13.435
  0
VERTEX
  8
LAYER_1
 10
330.9204
 20
13.5208
  0
VERTEX
  8
LAYER_1
 10
330.868
 20
13.578
  0
VERTEX
  8
LAYER_1
 10
330.7864
 20
13.61
  0
VERTEX
  8
LAYER_1
 10
330.6799
 20
13.6204
  0
VERTEX
  8
LAYER_1
 10
330.4928
 20
13.6204
  0
SEQEND
  0
ENDBLK
  0
BLOCK
  8
LAYER_1
  2
AIGNBL01030017
 70
64
 10
0
 20
0
 30
0
  3
AIGNBL01030017
  0
POLYLINE
  8
LAYER_1
 40
0.05
 41
0.05
 62
29
 66
1
 10
0
 20
0
 30
0
 70
1
  0
VERTEX
  8
LAYER_1
 10
332.4848
 20
13.1942
 42
-0.1002731409
  0
VERTEX
  8
LAYER_1
 10
332.4441
 20
12.9768
 42
-0.1003765801
  0
VERTEX
  8
LAYER_1
 10
332.3308
 20
12.8052
 42
-0.09507020048
  0
VERTEX
  8
LAYER_1
 10
332.1603
 20
12.6922
 42
-0.09502028874
  0
VERTEX
  8
LAYER_1
 10
331.9463
 20
12.6512
 42
-0.101175466
  0
VERTEX
  8
LAYER_1
 10
331.7324
 20
12.6922
 42
-0.09966682099
  0
VERTEX
  8
LAYER_1
 10
331.5618
 20
12.8052
 42
-0.09547486106
  0
VERTEX
  8
LAYER_1
 10
331.4488
 20
12.9768
 42
-0.09293253763
  0
VERTEX
  8
LAYER_1
 10
331.4082
 20
13.1942
 42
-0.1022983043
  0
VERTEX
  8
LAYER_1
 10
331.4488
 20
13.4116
 42
-0.1013677539
  0
VERTEX
  8
LAYER_1
 10
331.5618
 20
13.5831
 42
-0.09584066826
  0
VERTEX
  8
LAYER_1
 10
331.7324
 20
13.6961
 42
-0.09517167486
  0
VERTEX
  8
LAYER_1
 10
331.9463
 20
13.7371
 42
-0.1018346168
  0
VERTEX
  8
LAYER_1
 10
332.1603
 20
13.6961
 42
-0.10208105
  0
VERTEX
  8
LAYER_1
 10
332.3308
 20
13.5831
 42
-0.09492976366
  0
VERTEX
  8
LAYER_1
 10
332.4441
 20
13.4116
 42
-0.09296145325
  0
SEQEND
  0
POLYLINE
  8
LAYER_1
 40
0.05
 41
0.05
 62
29
 66
1
 10
0
 20
0
 30
0
 70
1
  0
VERTEX
  8
LAYER_1
 10
332.3739
 20
13.1935
  0
VERTEX
  8
LAYER_1
 10
332.3446
 20
13.3654
  0
VERTEX
  8
LAYER_1
 10
332.2598
 20
13.5087
  0
VERTEX
  8
LAYER_1
 10
332.1251
 20
13.6069
 42
0.1018863245
  0
VERTEX
  8
LAYER_1
 10
331.9463
 20
13.6438
  0
VERTEX
  8
LAYER_1
 10
331.7675
 20
13.6069
  0
VERTEX
  8
LAYER_1
 10
331.6325
 20
13.5087
  0
VERTEX
  8
LAYER_1
 10
331.5477
 20
13.3654
  0
VERTEX
  8
LAYER_1
 10
331.5188
 20
13.1935
  0
VERTEX
  8
LAYER_1
 10
331.5477
 20
13.0216
  0
VERTEX
  8
LAYER_1
 10
331.6325
 20
12.8786
  0
VERTEX
  8
LAYER_1
 10
331.7675
 20
12.7811
  0
VERTEX
  8
LAYER_1
 10
331.9463
 20
12.7446
 42
0.1157330551
  0
VERTEX
  8
LAYER_1
 10
332.1251
 20
12.7811
  0
VERTEX
  8
LAYER_1
 10
332.2598
 20
12.8786
  0
VERTEX
  8
LAYER_1
 10
332.3446
 20
13.0216
  0
SEQEND
  0
ENDBLK
  0
BLOCK
  8
LAYER_1
  2
AIGNBL01030018
 70
64
 10
0
 20
0
 30
0
  3
AIGNBL01030018
  0
POLYLINE
  8
LAYER_1
 40
0.05
 41
0.05
 62
29
 66
1
 10
0
 20
0
 30
0
 70
1
  0
VERTEX
  8
LAYER_1
 10
333.9265
 20
13.1942
 42
-0.1035463774
  0
VERTEX
  8
LAYER_1
 10
333.8856
 20
12.9768
 42
-0.1000469042
  0
VERTEX
  8
LAYER_1
 10
333.7729
 20
12.8052
 42
-0.09471741496
  0
VERTEX
  8
LAYER_1
 10
333.602
 20
12.6922
 42
-0.09506675375
  0
VERTEX
  8
LAYER_1
 10
333.3881
 20
12.6512
 42
-0.101822328
  0
VERTEX
  8
LAYER_1
 10
333.1745
 20
12.6922
 42
-0.1021045144
  0
VERTEX
  8
LAYER_1
 10
333.0036
 20
12.8052
 42
-0.09479293922
  0
VERTEX
  8
LAYER_1
 10
332.8903
 20
12.9768
 42
-0.09313545426
  0
VERTEX
  8
LAYER_1
 10
332.8496
 20
13.1942
 42
-0.1020962526
  0
VERTEX
  8
LAYER_1
 10
332.8903
 20
13.4116
 42
-0.1007559602
  0
VERTEX
  8
LAYER_1
 10
333.0036
 20
13.5831
 42
-0.09634037191
  0
VERTEX
  8
LAYER_1
 10
333.1745
 20
13.6961
 42
-0.0953147657
  0
VERTEX
  8
LAYER_1
 10
333.3881
 20
13.7371
 42
-0.1018017754
  0
VERTEX
  8
LAYER_1
 10
333.602
 20
13.6961
 42
-0.09904976342
  0
VERTEX
  8
LAYER_1
 10
333.7729
 20
13.5831
 42
-0.09562840933
  0
VERTEX
  8
LAYER_1
 10
333.8856
 20
13.4116
 42
-0.09373843258
  0
SEQEND
  0
POLYLINE
  8
LAYER_1
 40
0.05
 41
0.05
 62
29
 66
1
 10
0
 20
0
 30
0
 70
1
  0
VERTEX
  8
LAYER_1
 10
333.8156
 20
13.1935
  0
VERTEX
  8
LAYER_1
 10
333.7867
 20
13.3654
  0
VERTEX
  8
LAYER_1
 10
333.7019
 20
13.5087
  0
VERTEX
  8
LAYER_1
 10
333.5669
 20
13.6069
  0
VERTEX
  8
LAYER_1
 10
333.3881
 20
13.6438
 42
0.11467303
  0
VERTEX
  8
LAYER_1
 10
333.2093
 20
13.6069
  0
VERTEX
  8
LAYER_1
 10
333.0746
 20
13.5087
  0
VERTEX
  8
LAYER_1
 10
332.9898
 20
13.3654
  0
VERTEX
  8
LAYER_1
 10
332.9606
 20
13.1935
  0
VERTEX
  8
LAYER_1
 10
332.9898
 20
13.0216
  0
VERTEX
  8
LAYER_1
 10
333.0746
 20
12.8786
  0
VERTEX
  8
LAYER_1
 10
333.2093
 20
12.7811
 42
0.1008257054
  0
VERTEX
  8
LAYER_1
 10
333.3881
 20
12.7446
  0
VERTEX
  8
LAYER_1
 10
333.5669
 20
12.7811
  0
VERTEX
  8
LAYER_1
 10
333.7019
 20
12.8786
  0
VERTEX
  8
LAYER_1
 10
333.7867
 20
13.0216
  0
SEQEND
  0
ENDBLK
  0
BLOCK
  8
LAYER_1
  2
AIGNBL01030019
 70
64
 10
0
 20
0
 30
0
  3
AIGNBL01030019
  0
POLYLINE
  8
LAYER_1
 40
0.05
 41
0.05
 62
29
 66
1
 10
0
 20
0
 30
0
 70
1
  0
VERTEX
  8
LAYER_1
 10
334.8574
 20
12.8555
  0
VERTEX
  8
LAYER_1
 10
334.8591
 20
12.8555
  0
VERTEX
  8
LAYER_1
 10
335.2047
 20
13.7106
  0
VERTEX
  8
LAYER_1
 10
335.3656
 20
13.7106
  0
VERTEX
  8
LAYER_1
 10
335.3656
 20
12.6774
  0
VERTEX
  8
LAYER_1
 10
335.2601
 20
12.6774
  0
VERTEX
  8
LAYER_1
 10
335.2601
 20
13.5749
  0
VERTEX
  8
LAYER_1
 10
335.2574
 20
13.5749
  0
VERTEX
  8
LAYER_1
 10
334.8839
 20
12.6774
  0
VERTEX
  8
LAYER_1
 10
334.8285
 20
12.6774
  0
VERTEX
  8
LAYER_1
 10
334.4547
 20
13.5749
  0
VERTEX
  8
LAYER_1
 10
334.4519
 20
13.5749
  0
VERTEX
  8
LAYER_1
 10
334.4519
 20
12.6774
  0
VERTEX
  8
LAYER_1
 10
334.3469
 20
12.6774
  0
VERTEX
  8
LAYER_1
 10
334.3469
 20
13.7106
  0
VERTEX
  8
LAYER_1
 10
334.5074
 20
13.7106
  0
SEQEND
  0
ENDBLK
  0
BLOCK
  8
LAYER_1
  2
AIGNBL0103001A
 70
64
 10
0
 20
0
 30
0
  3
AIGNBL0103001A
  0
POLYLINE
  8
LAYER_1
 40
0.05
 41
0.05
 62
29
 66
1
 10
0
 20
0
 30
0
 70
1
  0
VERTEX
  8
LAYER_1
 10
336.5121
 20
12.7711
  0
VERTEX
  8
LAYER_1
 10
337.0654
 20
12.7711
  0
VERTEX
  8
LAYER_1
 10
337.0654
 20
12.6774
  0
VERTEX
  8
LAYER_1
 10
336.407
 20
12.6774
  0
VERTEX
  8
LAYER_1
 10
336.407
 20
13.7106
  0
VERTEX
  8
LAYER_1
 10
337.0478
 20
13.7106
  0
VERTEX
  8
LAYER_1
 10
337.0478
 20
13.6172
  0
VERTEX
  8
LAYER_1
 10
336.5121
 20
13.6172
  0
VERTEX
  8
LAYER_1
 10
336.5121
 20
13.2627
  0
VERTEX
  8
LAYER_1
 10
337.0127
 20
13.2627
  0
VERTEX
  8
LAYER_1
 10
337.0127
 20
13.1694
  0
VERTEX
  8
LAYER_1
 10
336.5121
 20
13.1694
  0
SEQEND
  0
ENDBLK
  0
BLOCK
  8
LAYER_1
  2
AIGNBL0103001B
 70
64
 10
0
 20
0
 30
0
  3
AIGNBL0103001B
  0
POLYLINE
  8
LAYER_1
 40
0.05
 41
0.05
 62
29
 66
1
 10
0
 20
0
 30
0
 70
1
  0
VERTEX
  8
LAYER_1
 10
337.8106
 20
13.2934
  0
VERTEX
  8
LAYER_1
 10
338.0927
 20
13.7106
  0
VERTEX
  8
LAYER_1
 10
338.2178
 20
13.7106
  0
VERTEX
  8
LAYER_1
 10
337.8753
 20
13.219
  0
VERTEX
  8
LAYER_1
 10
338.2546
 20
12.6774
  0
VERTEX
  8
LAYER_1
 10
338.1234
 20
12.6774
  0
VERTEX
  8
LAYER_1
 10
337.8078
 20
13.1432
  0
VERTEX
  8
LAYER_1
 10
337.4943
 20
12.6774
  0
VERTEX
  8
LAYER_1
 10
337.3627
 20
12.6774
  0
VERTEX
  8
LAYER_1
 10
337.7424
 20
13.2204
  0
VERTEX
  8
LAYER_1
 10
337.3965
 20
13.7106
  0
VERTEX
  8
LAYER_1
 10
337.5281
 20
13.7106
  0
SEQEND
  0
ENDBLK
  0
BLOCK
  8
LAYER_1
  2
AIGNBL0103001C
 70
64
 10
0
 20
0
 30
0
  3
AIGNBL0103001C
  0
POLYLINE
  8
LAYER_1
 40
0.05
 41
0.05
 62
29
 66
1
 10
0
 20
0
 30
0
 70
1
  0
VERTEX
  8
LAYER_1
 10
338.6209
 20
13.7106
  0
VERTEX
  8
LAYER_1
 10
338.913
 20
13.7106
  0
VERTEX
  8
LAYER_1
 10
339.056
 20
13.6941
  0
VERTEX
  8
LAYER_1
 10
339.1659
 20
13.6428
  0
VERTEX
  8
LAYER_1
 10
339.2368
 20
13.5566
  0
VERTEX
  8
LAYER_1
 10
339.2613
 20
13.435
  0
VERTEX
  8
LAYER_1
 10
339.2361
 20
13.313
  0
VERTEX
  8
LAYER_1
 10
339.1645
 20
13.2269
  0
VERTEX
  8
LAYER_1
 10
339.0536
 20
13.1753
  0
VERTEX
  8
LAYER_1
 10
338.9099
 20
13.1577
  0
VERTEX
  8
LAYER_1
 10
338.7259
 20
13.1577
  0
VERTEX
  8
LAYER_1
 10
338.7259
 20
12.6774
  0
VERTEX
  8
LAYER_1
 10
338.6209
 20
12.6774
  0
SEQEND
  0
POLYLINE
  8
LAYER_1
 40
0.05
 41
0.05
 62
29
 66
1
 10
0
 20
0
 30
0
 70
1
  0
VERTEX
  8
LAYER_1
 10
338.7259
 20
13.2465
  0
VERTEX
  8
LAYER_1
 10
338.9037
 20
13.2465
 42
0.1834000512
  0
VERTEX
  8
LAYER_1
 10
339.0921
 20
13.2948
 42
0.2348377208
  0
VERTEX
  8
LAYER_1
 10
339.1565
 20
13.435
 42
0.2656295013
  0
VERTEX
  8
LAYER_1
 10
339.0901
 20
13.5759
 42
0.1265933612
  0
VERTEX
  8
LAYER_1
 10
338.9037
 20
13.6204
  0
VERTEX
  8
LAYER_1
 10
338.7259
 20
13.6204
  0
SEQEND
  0
ENDBLK
  0
BLOCK
  8
LAYER_1
  2
AIGNBL0103001D
 70
64
 10
0
 20
0
 30
0
  3
AIGNBL0103001D
  0
POLYLINE
  8
LAYER_1
 40
0.05
 41
0.05
 62
29
 66
1
 10
0
 20
0
 30
0
 70
1
  0
VERTEX
  8
LAYER_1
 10
339.7736
 20
12.7711
  0
VERTEX
  8
LAYER_1
 10
340.3268
 20
12.7711
  0
VERTEX
  8
LAYER_1
 10
340.3268
 20
12.6774
  0
VERTEX
  8
LAYER_1
 10
339.6685
 20
12.6774
  0
VERTEX
  8
LAYER_1
 10
339.6685
 20
13.7106
  0
VERTEX
  8
LAYER_1
 10
340.3093
 20
13.7106
  0
VERTEX
  8
LAYER_1
 10
340.3093
 20
13.6172
  0
VERTEX
  8
LAYER_1
 10
339.7736
 20
13.6172
  0
VERTEX
  8
LAYER_1
 10
339.7736
 20
13.2627
  0
VERTEX
  8
LAYER_1
 10
340.2741
 20
13.2627
  0
VERTEX
  8
LAYER_1
 10
340.2741
 20
13.1694
  0
VERTEX
  8
LAYER_1
 10
339.7736
 20
13.1694
  0
SEQEND
  0
ENDBLK
  0
BLOCK
  8
LAYER_1
  2
AIGNBL0103001E
 70
64
 10
0
 20
0
 30
0
  3
AIGNBL0103001E
  0
POLYLINE
  8
LAYER_1
 40
0.05
 41
0.05
 62
29
 66
1
 10
0
 20
0
 30
0
 70
1
  0
VERTEX
  8
LAYER_1
 10
340.8388
 20
12.6774
  0
VERTEX
  8
LAYER_1
 10
340.7337
 20
12.6774
  0
VERTEX
  8
LAYER_1
 10
340.7337
 20
13.7106
  0
VERTEX
  8
LAYER_1
 10
341.0376
 20
13.7106
  0
VERTEX
  8
LAYER_1
 10
341.1781
 20
13.6961
  0
VERTEX
  8
LAYER_1
 10
341.2908
 20
13.6486
  0
VERTEX
  8
LAYER_1
 10
341.3645
 20
13.5632
  0
VERTEX
  8
LAYER_1
 10
341.3904
 20
13.435
  0
VERTEX
  8
LAYER_1
 10
341.3704
 20
13.3313
  0
VERTEX
  8
LAYER_1
 10
341.3149
 20
13.2504
  0
VERTEX
  8
LAYER_1
 10
341.2315
 20
13.1956
  0
VERTEX
  8
LAYER_1
 10
341.1265
 20
13.1694
  0
VERTEX
  8
LAYER_1
 10
341.4286
 20
12.6774
  0
VERTEX
  8
LAYER_1
 10
341.3001
 20
12.6774
  0
VERTEX
  8
LAYER_1
 10
341.0142
 20
13.1604
  0
VERTEX
  8
LAYER_1
 10
340.8388
 20
13.1604
  0
SEQEND
  0
POLYLINE
  8
LAYER_1
 40
0.05
 41
0.05
 62
29
 66
1
 10
0
 20
0
 30
0
 70
1
  0
VERTEX
  8
LAYER_1
 10
340.8388
 20
13.251
  0
VERTEX
  8
LAYER_1
 10
341.0214
 20
13.251
 42
0.166558795
  0
VERTEX
  8
LAYER_1
 10
341.2171
 20
13.2969
 42
0.2505726271
  0
VERTEX
  8
LAYER_1
 10
341.2856
 20
13.435
  0
VERTEX
  8
LAYER_1
 10
341.2667
 20
13.5208
  0
VERTEX
  8
LAYER_1
 10
341.214
 20
13.578
  0
VERTEX
  8
LAYER_1
 10
341.1323
 20
13.61
  0
VERTEX
  8
LAYER_1
 10
341.0259
 20
13.6204
  0
VERTEX
  8
LAYER_1
 10
340.8388
 20
13.6204
  0
SEQEND
  0
ENDBLK
  0
BLOCK
  8
LAYER_1
  2
AIGNBL0103001F
 70
64
 10
0
 20
0
 30
0
  3
AIGNBL0103001F
  0
POLYLINE
  8
LAYER_1
 40
0.05
 41
0.05
 62
29
 66
1
 10
0
 20
0
 30
0
 70
1
  0
VERTEX
  8
LAYER_1
 10
341.9143
 20
12.6774
  0
VERTEX
  8
LAYER_1
 10
341.8096
 20
12.6774
  0
VERTEX
  8
LAYER_1
 10
341.8096
 20
13.7106
  0
VERTEX
  8
LAYER_1
 10
341.9143
 20
13.7106
  0
SEQEND
  0
ENDBLK
  0
BLOCK
  8
LAYER_1
  2
AIGNBL01030020
 70
64
 10
0
 20
0
 30
0
  3
AIGNBL01030020
  0
POLYLINE
  8
LAYER_1
 40
0.05
 41
0.05
 62
29
 66
1
 10
0
 20
0
 30
0
 70
1
  0
VERTEX
  8
LAYER_1
 10
342.4952
 20
12.7711
  0
VERTEX
  8
LAYER_1
 10
343.0481
 20
12.7711
  0
VERTEX
  8
LAYER_1
 10
343.0481
 20
12.6774
  0
VERTEX
  8
LAYER_1
 10
342.3901
 20
12.6774
  0
VERTEX
  8
LAYER_1
 10
342.3901
 20
13.7106
  0
VERTEX
  8
LAYER_1
 10
343.0309
 20
13.7106
  0
VERTEX
  8
LAYER_1
 10
343.0309
 20
13.6172
  0
VERTEX
  8
LAYER_1
 10
342.4952
 20
13.6172
  0
VERTEX
  8
LAYER_1
 10
342.4952
 20
13.2627
  0
VERTEX
  8
LAYER_1
 10
342.9958
 20
13.2627
  0
VERTEX
  8
LAYER_1
 10
342.9958
 20
13.1694
  0
VERTEX
  8
LAYER_1
 10
342.4952
 20
13.1694
  0
SEQEND
  0
ENDBLK
  0
BLOCK
  8
LAYER_1
  2
AIGNBL01030021
 70
64
 10
0
 20
0
 30
0
  3
AIGNBL01030021
  0
POLYLINE
  8
LAYER_1
 40
0.05
 41
0.05
 62
29
 66
1
 10
0
 20
0
 30
0
 70
1
  0
VERTEX
  8
LAYER_1
 10
344.1881
 20
12.8307
  0
VERTEX
  8
LAYER_1
 10
344.1909
 20
12.8307
  0
VERTEX
  8
LAYER_1
 10
344.1909
 20
13.7106
  0
VERTEX
  8
LAYER_1
 10
344.296
 20
13.7106
  0
VERTEX
  8
LAYER_1
 10
344.296
 20
12.6774
  0
VERTEX
  8
LAYER_1
 10
344.1647
 20
12.6774
  0
VERTEX
  8
LAYER_1
 10
343.5635
 20
13.5663
  0
VERTEX
  8
LAYER_1
 10
343.5604
 20
13.5663
  0
VERTEX
  8
LAYER_1
 10
343.5604
 20
12.6774
  0
VERTEX
  8
LAYER_1
 10
343.4554
 20
12.6774
  0
VERTEX
  8
LAYER_1
 10
343.4554
 20
13.7106
  0
VERTEX
  8
LAYER_1
 10
343.5869
 20
13.7106
  0
SEQEND
  0
ENDBLK
  0
BLOCK
  8
LAYER_1
  2
AIGNBL01030022
 70
64
 10
0
 20
0
 30
0
  3
AIGNBL01030022
  0
POLYLINE
  8
LAYER_1
 40
0.05
 41
0.05
 62
29
 66
1
 10
0
 20
0
 30
0
 70
1
  0
VERTEX
  8
LAYER_1
 10
345.6416
 20
12.8452
  0
VERTEX
  8
LAYER_1
 10
345.5779
 20
12.7708
  0
VERTEX
  8
LAYER_1
 10
345.4918
 20
12.7091
  0
VERTEX
  8
LAYER_1
 10
345.3836
 20
12.6668
  0
VERTEX
  8
LAYER_1
 10
345.2547
 20
12.6512
 42
-0.1009408553
  0
VERTEX
  8
LAYER_1
 10
345.0387
 20
12.6922
 42
-0.1036436467
  0
VERTEX
  8
LAYER_1
 10
344.8682
 20
12.8052
 42
-0.09785904176
  0
VERTEX
  8
LAYER_1
 10
344.7566
 20
12.9768
 42
-0.09235342416
  0
VERTEX
  8
LAYER_1
 10
344.7163
 20
13.1942
 42
-0.1035463776
  0
VERTEX
  8
LAYER_1
 10
344.7572
 20
13.4116
 42
-0.1004334688
  0
VERTEX
  8
LAYER_1
 10
344.8699
 20
13.5831
 42
-0.09536773851
  0
VERTEX
  8
LAYER_1
 10
345.0408
 20
13.6961
 42
-0.09517167486
  0
VERTEX
  8
LAYER_1
 10
345.2547
 20
13.7371
  0
VERTEX
  8
LAYER_1
 10
345.3663
 20
13.7251
  0
VERTEX
  8
LAYER_1
 10
345.4694
 20
13.6916
  0
VERTEX
  8
LAYER_1
 10
345.5568
 20
13.64
  0
VERTEX
  8
LAYER_1
 10
345.6226
 20
13.5721
  0
VERTEX
  8
LAYER_1
 10
345.5352
 20
13.5077
  0
VERTEX
  8
LAYER_1
 10
345.4918
 20
13.5577
  0
VERTEX
  8
LAYER_1
 10
345.4284
 20
13.6014
  0
VERTEX
  8
LAYER_1
 10
345.3488
 20
13.6321
  0
VERTEX
  8
LAYER_1
 10
345.2561
 20
13.6438
  0
VERTEX
  8
LAYER_1
 10
345.0759
 20
13.6073
  0
VERTEX
  8
LAYER_1
 10
344.9409
 20
13.5091
  0
VERTEX
  8
LAYER_1
 10
344.8561
 20
13.3658
  0
VERTEX
  8
LAYER_1
 10
344.8272
 20
13.1942
  0
VERTEX
  8
LAYER_1
 10
344.8572
 20
13.0226
  0
VERTEX
  8
LAYER_1
 10
344.9426
 20
12.8793
  0
VERTEX
  8
LAYER_1
 10
345.0776
 20
12.7811
 42
0.1009931409
  0
VERTEX
  8
LAYER_1
 10
345.2561
 20
12.7446
  0
VERTEX
  8
LAYER_1
 10
345.4253
 20
12.7811
 42
0.1318558246
  0
VERTEX
  8
LAYER_1
 10
345.5596
 20
12.8979
  0
SEQEND
  0
ENDBLK
  0
BLOCK
  8
LAYER_1
  2
AIGNBL01030023
 70
64
 10
0
 20
0
 30
0
  3
AIGNBL01030023
  0
POLYLINE
  8
LAYER_1
 40
0.05
 41
0.05
 62
29
 66
1
 10
0
 20
0
 30
0
 70
1
  0
VERTEX
  8
LAYER_1
 10
346.1287
 20
12.7711
  0
VERTEX
  8
LAYER_1
 10
346.682
 20
12.7711
  0
VERTEX
  8
LAYER_1
 10
346.682
 20
12.6774
  0
VERTEX
  8
LAYER_1
 10
346.0237
 20
12.6774
  0
VERTEX
  8
LAYER_1
 10
346.0237
 20
13.7106
  0
VERTEX
  8
LAYER_1
 10
346.6645
 20
13.7106
  0
VERTEX
  8
LAYER_1
 10
346.6645
 20
13.6172
  0
VERTEX
  8
LAYER_1
 10
346.1287
 20
13.6172
  0
VERTEX
  8
LAYER_1
 10
346.1287
 20
13.2627
  0
VERTEX
  8
LAYER_1
 10
346.6293
 20
13.2627
  0
VERTEX
  8
LAYER_1
 10
346.6293
 20
13.1694
  0
VERTEX
  8
LAYER_1
 10
346.1287
 20
13.1694
  0
SEQEND
  0
ENDBLK
  0
BLOCK
  8
LAYER_1
  2
AIGNBL01020003
 70
64
 10
0
 20
0
 30
0
  3
AIGNBL01020003
  0
INSERT
  8
LAYER_1
  2
AIGNBL01030004
 10
0
 20
0
 30
0
  0
ENDBLK
  0
BLOCK
  8
LAYER_1
  2
AIGNBL0102000C
 70
64
 10
0
 20
0
 30
0
  3
AIGNBL0102000C
  0
INSERT
  8
LAYER_1
  2
AIGNBL0103000D
 10
0
 20
0
 30
0
  0
INSERT
  8
LAYER_1
  2
AIGNBL0103000E
 10
0
 20
0
 30
0
  0
INSERT
  8
LAYER_1
  2
AIGNBL0103000F
 10
0
 20
0
 30
0
  0
INSERT
  8
LAYER_1
  2
AIGNBL01030010
 10
0
 20
0
 30
0
  0
INSERT
  8
LAYER_1
  2
AIGNBL01030011
 10
0
 20
0
 30
0
  0
INSERT
  8
LAYER_1
  2
AIGNBL01030012
 10
0
 20
0
 30
0
  0
INSERT
  8
LAYER_1
  2
AIGNBL01030013
 10
0
 20
0
 30
0
  0
INSERT
  8
LAYER_1
  2
AIGNBL01030014
 10
0
 20
0
 30
0
  0
INSERT
  8
LAYER_1
  2
AIGNBL01030015
 10
0
 20
0
 30
0
  0
INSERT
  8
LAYER_1
  2
AIGNBL01030016
 10
0
 20
0
 30
0
  0
INSERT
  8
LAYER_1
  2
AIGNBL01030017
 10
0
 20
0
 30
0
  0
INSERT
  8
LAYER_1
  2
AIGNBL01030018
 10
0
 20
0
 30
0
  0
INSERT
  8
LAYER_1
  2
AIGNBL01030019
 10
0
 20
0
 30
0
  0
INSERT
  8
LAYER_1
  2
AIGNBL0103001A
 10
0
 20
0
 30
0
  0
INSERT
  8
LAYER_1
  2
AIGNBL0103001B
 10
0
 20
0
 30
0
  0
INSERT
  8
LAYER_1
  2
AIGNBL0103001C
 10
0
 20
0
 30
0
  0
INSERT
  8
LAYER_1
  2
AIGNBL0103001D
 10
0
 20
0
 30
0
  0
INSERT
  8
LAYER_1
  2
AIGNBL0103001E
 10
0
 20
0
 30
0
  0
INSERT
  8
LAYER_1
  2
AIGNBL0103001F
 10
0
 20
0
 30
0
  0
INSERT
  8
LAYER_1
  2
AIGNBL01030020
 10
0
 20
0
 30
0
  0
INSERT
  8
LAYER_1
  2
AIGNBL01030021
 10
0
 20
0
 30
0
  0
INSERT
  8
LAYER_1
  2
AIGNBL01030022
 10
0
 20
0
 30
0
  0
INSERT
  8
LAYER_1
  2
AIGNBL01030023
 10
0
 20
0
 30
0
  0
ENDBLK
  0
BLOCK
  8
LAYER_1
  2
AIGNBL01010002
 70
64
 10
0
 20
0
 30
0
  3
AIGNBL01010002
  0
INSERT
  8
LAYER_1
  2
AIGNBL01020003
 10
0
 20
0
 30
0
  0
INSERT
  8
LAYER_1
  2
AIGNBL0102000C
 10
0
 20
0
 30
0
  0
ENDBLK
  0
ENDSEC
  0
SECTION
  2
ENTITIES
  0
POLYLINE
  8
LAYER_1
 40
0.1764
 41
0.1764
 66
1
 10
0
 20
0
 30
0
  0
VERTEX
  8
LAYER_1
 10
170.135
 20
187.0228
 42
0.09849090208
  0
VERTEX
  8
LAYER_1
 10
155.5931
 20
184.1303
 42
0.09849395878
  0
VERTEX
  8
LAYER_1
 10
143.265
 20
175.8929
 42
0.09848974831
  0
VERTEX
  8
LAYER_1
 10
135.0276
 20
163.5648
 42
0.09849080674
  0
VERTEX
  8
LAYER_1
 10
132.135
 20
149.0228
  0
VERTEX
  8
LAYER_1
 10
144.135
 20
149.0228
 42
-0.09849478514
  0
VERTEX
  8
LAYER_1
 10
146.1142
 20
158.9726
 42
-0.09849483953
  0
VERTEX
  8
LAYER_1
 10
151.7502
 20
167.4076
 42
-0.09849335529
  0
VERTEX
  8
LAYER_1
 10
160.1852
 20
173.0437
 42
-0.09849329719
  0
VERTEX
  8
LAYER_1
 10
170.135
 20
175.0228
  0
VERTEX
  8
LAYER_1
 10
170.135
 20
187.0228
  0
SEQEND
  0
POLYLINE
  8
LAYER_1
 40
0.1764
 41
0.1764
 66
1
 10
0
 20
0
 30
0
  0
VERTEX
  8
LAYER_1
 10
132.1352
 20
149.0228
 42
0.09849032359
  0
VERTEX
  8
LAYER_1
 10
135.0278
 20
134.4809
 42
0.09848838374
  0
VERTEX
  8
LAYER_1
 10
143.2651
 20
122.1528
 42
0.09849240278
  0
VERTEX
  8
LAYER_1
 10
155.5933
 20
113.9154
 42
0.09849447213
  0
VERTEX
  8
LAYER_1
 10
170.1352
 20
111.0228
  0
VERTEX
  8
LAYER_1
 10
170.1352
 20
123.0229
 42
-0.09848745171
  0
VERTEX
  8
LAYER_1
 10
160.1854
 20
125.002
 42
-0.09848230571
  0
VERTEX
  8
LAYER_1
 10
151.7504
 20
130.638
 42
-0.09848782667
  0
VERTEX
  8
LAYER_1
 10
146.1143
 20
139.073
 42
-0.09849281274
  0
VERTEX
  8
LAYER_1
 10
144.1352
 20
149.0228
  0
VERTEX
  8
LAYER_1
 10
132.1352
 20
149.0228
  0
SEQEND
  0
POLYLINE
  8
LAYER_1
 40
0.1764
 41
0.1764
 66
1
 10
0
 20
0
 30
0
  0
VERTEX
  8
LAYER_1
 10
170.1352
 20
187.0228
 42
-0.09848941349
  0
VERTEX
  8
LAYER_1
 10
184.6772
 20
184.1303
 42
-0.09849224712
  0
VERTEX
  8
LAYER_1
 10
197.0053
 20
175.8929
 42
-0.09848911817
  0
VERTEX
  8
LAYER_1
 10
205.2427
 20
163.5648
 42
-0.09849061129
  0
VERTEX
  8
LAYER_1
 10
208.1352
 20
149.0228
  0
VERTEX
  8
LAYER_1
 10
196.1353
 20
149.0228
 42
0.09849445878
  0
VERTEX
  8
LAYER_1
 10
194.1561
 20
158.9726
 42
0.09849976739
  0
VERTEX
  8
LAYER_1
 10
188.52
 20
167.4076
 42
0.09849443776
  0
VERTEX
  8
LAYER_1
 10
180.085
 20
173.0437
 42
0.09849434548
  0
VERTEX
  8
LAYER_1
 10
170.1352
 20
175.0228
  0
VERTEX
  8
LAYER_1
 10
170.1352
 20
187.0228
  0
SEQEND
  0
POLYLINE
  8
LAYER_1
 40
0.1764
 41
0.1764
 66
1
 10
0
 20
0
 30
0
  0
VERTEX
  8
LAYER_1
 10
208.135
 20
149.0228
 42
-0.09849012835
  0
VERTEX
  8
LAYER_1
 10
205.2425
 20
134.4809
 42
-0.09848822331
  0
VERTEX
  8
LAYER_1
 10
197.0051
 20
122.1528
 42
-0.09849022139
  0
VERTEX
  8
LAYER_1
 10
184.677
 20
113.9154
 42
-0.0984929835
  0
VERTEX
  8
LAYER_1
 10
170.135
 20
111.0228
  0
VERTEX
  8
LAYER_1
 10
170.135
 20
123.0229
 42
0.09848849997
  0
VERTEX
  8
LAYER_1
 10
180.0848
 20
125.002
 42
0.09848338816
  0
VERTEX
  8
LAYER_1
 10
188.5198
 20
130.638
 42
0.09849238299
  0
VERTEX
  8
LAYER_1
 10
194.1559
 20
139.073
 42
0.09849285814
  0
VERTEX
  8
LAYER_1
 10
196.1351
 20
149.0228
  0
VERTEX
  8
LAYER_1
 10
208.135
 20
149.0228
  0
SEQEND
  0
POLYLINE
  8
LAYER_1
 40
0.254
 41
0.254
 66
1
 10
0
 20
0
 30
0
  0
VERTEX
  8
LAYER_1
 10
3.1173
 20
26.564
  0
VERTEX
  8
LAYER_1
 10
417.095
 20
26.564
  0
SEQEND
  0
TEXT
  8
LAYER_1
 10
50.2808
 20
15.2382
 11
50.2808
 21
15.2382
 40
4.5833
 41
0.5
  1
ボヘミアンクリスタルミラー%%c380mm
  0
TEXT
  8
LAYER_1
 10
349.7475
 20
16.2496
 11
349.7475
 21
16.2496
 40
3.3848
 41
0.5
 62
29
  1
●TEL 0120-65-1232●FAX 06-6532-1580
  0
TEXT
  8
LAYER_1
 10
349.7475
 20
12.735
 11
349.7475
 21
12.735
 40
3.3848
 41
0.5
 62
29
  1
hits@hiratatile.co.jp
  0
INSERT
  8
LAYER_1
  2
AIGNBL01010002
 10
0
 20
0
 30
0
  0
TEXT
  8
LAYER_1
 10
50.3859
 20
8.4635
 11
50.3859
 21
8.4635
 40
4.6883
 41
0.5
 62
29
  1
SC-BMS-M02
  0
POLYLINE
  8
LAYER_1
 40
0.1764
 41
0.1764
 66
1
 10
0
 20
0
 30
0
 70
1
  0
VERTEX
  8
LAYER_1
 10
300.101
 20
186.9863
  0
VERTEX
  8
LAYER_1
 10
302.4717
 20
186.9863
  0
VERTEX
  8
LAYER_1
 10
302.4717
 20
111.0403
  0
VERTEX
  8
LAYER_1
 10
300.101
 20
111.0403
  0
SEQEND
  0
POLYLINE
  8
LAYER_1
 40
0.1764
 41
0.1764
 66
1
 10
0
 20
0
 30
0
 70
1
  0
VERTEX
  8
LAYER_1
 10
302.4717
 20
186.055
  0
VERTEX
  8
LAYER_1
 10
304.3343
 20
186.055
  0
VERTEX
  8
LAYER_1
 10
304.3343
 20
112.0563
  0
VERTEX
  8
LAYER_1
 10
302.4717
 20
112.0563
  0
SEQEND
  0
POLYLINE
  8
LAYER_1
 40
0.1764
 41
0.1764
 66
1
 10
0
 20
0
 30
0
  0
VERTEX
  8
LAYER_1
 10
132.1223
 20
167.4283
  0
VERTEX
  8
LAYER_1
 10
132.1223
 20
210.1003
  0
SEQEND
  0
POLYLINE
  8
LAYER_1
 40
0.1764
 41
0.1764
 66
1
 10
0
 20
0
 30
0
  0
VERTEX
  8
LAYER_1
 10
208.153
 20
167.4283
  0
VERTEX
  8
LAYER_1
 10
208.153
 20
210.1003
  0
SEQEND
  0
POLYLINE
  8
LAYER_1
 40
0.1764
 41
0.1764
 66
1
 10
0
 20
0
 30
0
  0
VERTEX
  8
LAYER_1
 10
132.1223
 20
210.1003
  0
VERTEX
  8
LAYER_1
 10
208.153
 20
210.1003
  0
SEQEND
  0
POLYLINE
  8
LAYER_1
 40
0.1764
 41
0.1764
 66
1
 10
0
 20
0
 30
0
 70
1
  0
VERTEX
  8
LAYER_1
 10
132.3763
 20
210.1003
  0
VERTEX
  8
LAYER_1
 10
132.3763
 20
210.0157
  0
VERTEX
  8
LAYER_1
 10
132.3763
 20
209.931
  0
VERTEX
  8
LAYER_1
 10
132.2917
 20
209.931
  0
VERTEX
  8
LAYER_1
 10
132.207
 20
209.931
  0
VERTEX
  8
LAYER_1
 10
132.207
 20
209.8463
  0
VERTEX
  8
LAYER_1
 10
132.1223
 20
209.8463
  0
VERTEX
  8
LAYER_1
 10
132.0377
 20
209.8463
  0
VERTEX
  8
LAYER_1
 10
132.0377
 20
209.931
  0
VERTEX
  8
LAYER_1
 10
131.953
 20
209.931
  0
VERTEX
  8
LAYER_1
 10
131.953
 20
210.0157
  0
VERTEX
  8
LAYER_1
 10
131.8683
 20
210.0157
  0
VERTEX
  8
LAYER_1
 10
131.8683
 20
210.1003
  0
VERTEX
  8
LAYER_1
 10
131.8683
 20
210.185
  0
VERTEX
  8
LAYER_1
 10
131.953
 20
210.2697
  0
VERTEX
  8
LAYER_1
 10
131.953
 20
210.3543
  0
VERTEX
  8
LAYER_1
 10
132.0377
 20
210.3543
  0
VERTEX
  8
LAYER_1
 10
132.1223
 20
210.3543
  0
VERTEX
  8
LAYER_1
 10
132.207
 20
210.3543
  0
VERTEX
  8
LAYER_1
 10
132.2917
 20
210.3543
  0
VERTEX
  8
LAYER_1
 10
132.2917
 20
210.2697
  0
VERTEX
  8
LAYER_1
 10
132.3763
 20
210.2697
  0
VERTEX
  8
LAYER_1
 10
132.3763
 20
210.185
  0
SEQEND
  0
POLYLINE
  8
LAYER_1
 40
0.05
 41
0.05
 66
1
 10
0
 20
0
 30
0
 70
1
  0
VERTEX
  8
LAYER_1
 10
132.3552
 20
210.1215
  0
VERTEX
  8
LAYER_1
 10
132.3552
 20
210.0368
  0
VERTEX
  8
LAYER_1
 10
132.3552
 20
209.9522
  0
VERTEX
  8
LAYER_1
 10
132.2705
 20
209.9522
  0
VERTEX
  8
LAYER_1
 10
132.1858
 20
209.9522
  0
VERTEX
  8
LAYER_1
 10
132.1858
 20
209.8675
  0
VERTEX
  8
LAYER_1
 10
132.1012
 20
209.8675
  0
VERTEX
  8
LAYER_1
 10
132.0165
 20
209.8675
  0
VERTEX
  8
LAYER_1
 10
132.0165
 20
209.9522
  0
VERTEX
  8
LAYER_1
 10
131.9318
 20
209.9522
  0
VERTEX
  8
LAYER_1
 10
131.9318
 20
210.0368
  0
VERTEX
  8
LAYER_1
 10
131.8472
 20
210.0368
  0
VERTEX
  8
LAYER_1
 10
131.8472
 20
210.1215
  0
VERTEX
  8
LAYER_1
 10
131.8472
 20
210.2062
  0
VERTEX
  8
LAYER_1
 10
131.9318
 20
210.2908
  0
VERTEX
  8
LAYER_1
 10
131.9318
 20
210.3755
  0
VERTEX
  8
LAYER_1
 10
132.0165
 20
210.3755
  0
VERTEX
  8
LAYER_1
 10
132.1012
 20
210.3755
  0
VERTEX
  8
LAYER_1
 10
132.1858
 20
210.3755
  0
VERTEX
  8
LAYER_1
 10
132.2705
 20
210.3755
  0
VERTEX
  8
LAYER_1
 10
132.2705
 20
210.2908
  0
VERTEX
  8
LAYER_1
 10
132.3552
 20
210.2908
  0
VERTEX
  8
LAYER_1
 10
132.3552
 20
210.2062
  0
SEQEND
  0
POLYLINE
  8
LAYER_1
 40
0.0847
 41
0.0847
 66
1
 10
0
 20
0
 30
0
 70
1
  0
VERTEX
  8
LAYER_1
 10
132.3763
 20
210.1003
  0
VERTEX
  8
LAYER_1
 10
132.3763
 20
210.0157
  0
VERTEX
  8
LAYER_1
 10
132.3763
 20
209.931
  0
VERTEX
  8
LAYER_1
 10
132.2917
 20
209.931
  0
VERTEX
  8
LAYER_1
 10
132.207
 20
209.931
  0
VERTEX
  8
LAYER_1
 10
132.207
 20
209.8463
  0
VERTEX
  8
LAYER_1
 10
132.1223
 20
209.8463
  0
VERTEX
  8
LAYER_1
 10
132.0377
 20
209.8463
  0
VERTEX
  8
LAYER_1
 10
132.0377
 20
209.931
  0
VERTEX
  8
LAYER_1
 10
131.953
 20
209.931
  0
VERTEX
  8
LAYER_1
 10
131.953
 20
210.0157
  0
VERTEX
  8
LAYER_1
 10
131.8683
 20
210.0157
  0
VERTEX
  8
LAYER_1
 10
131.8683
 20
210.1003
  0
VERTEX
  8
LAYER_1
 10
131.8683
 20
210.185
  0
VERTEX
  8
LAYER_1
 10
131.953
 20
210.2697
  0
VERTEX
  8
LAYER_1
 10
131.953
 20
210.3543
  0
VERTEX
  8
LAYER_1
 10
132.0377
 20
210.3543
  0
VERTEX
  8
LAYER_1
 10
132.1223
 20
210.3543
  0
VERTEX
  8
LAYER_1
 10
132.207
 20
210.3543
  0
VERTEX
  8
LAYER_1
 10
132.2917
 20
210.3543
  0
VERTEX
  8
LAYER_1
 10
132.2917
 20
210.2697
  0
VERTEX
  8
LAYER_1
 10
132.3763
 20
210.2697
  0
VERTEX
  8
LAYER_1
 10
132.3763
 20
210.185
  0
SEQEND
  0
POLYLINE
  8
LAYER_1
 40
0.1764
 41
0.1764
 66
1
 10
0
 20
0
 30
0
 70
1
  0
VERTEX
  8
LAYER_1
 10
207.899
 20
210.1003
  0
VERTEX
  8
LAYER_1
 10
207.899
 20
210.185
  0
VERTEX
  8
LAYER_1
 10
207.899
 20
210.2697
  0
VERTEX
  8
LAYER_1
 10
207.9837
 20
210.2697
  0
VERTEX
  8
LAYER_1
 10
207.9837
 20
210.3543
  0
VERTEX
  8
LAYER_1
 10
208.0683
 20
210.3543
  0
VERTEX
  8
LAYER_1
 10
208.153
 20
210.3543
  0
VERTEX
  8
LAYER_1
 10
208.2377
 20
210.3543
  0
VERTEX
  8
LAYER_1
 10
208.3223
 20
210.3543
  0
VERTEX
  8
LAYER_1
 10
208.3223
 20
210.2697
  0
VERTEX
  8
LAYER_1
 10
208.3223
 20
210.185
  0
VERTEX
  8
LAYER_1
 10
208.407
 20
210.185
  0
VERTEX
  8
LAYER_1
 10
208.407
 20
210.1003
  0
VERTEX
  8
LAYER_1
 10
208.407
 20
210.0157
  0
VERTEX
  8
LAYER_1
 10
208.3223
 20
210.0157
  0
VERTEX
  8
LAYER_1
 10
208.3223
 20
209.931
  0
VERTEX
  8
LAYER_1
 10
208.2377
 20
209.931
  0
VERTEX
  8
LAYER_1
 10
208.2377
 20
209.8463
  0
VERTEX
  8
LAYER_1
 10
208.153
 20
209.8463
  0
VERTEX
  8
LAYER_1
 10
208.0683
 20
209.8463
  0
VERTEX
  8
LAYER_1
 10
208.0683
 20
209.931
  0
VERTEX
  8
LAYER_1
 10
207.9837
 20
209.931
  0
VERTEX
  8
LAYER_1
 10
207.899
 20
209.931
  0
VERTEX
  8
LAYER_1
 10
207.899
 20
210.0157
  0
SEQEND
  0
POLYLINE
  8
LAYER_1
 40
0.05
 41
0.05
 66
1
 10
0
 20
0
 30
0
 70
1
  0
VERTEX
  8
LAYER_1
 10
207.8778
 20
210.1215
  0
VERTEX
  8
LAYER_1
 10
207.8778
 20
210.2062
  0
VERTEX
  8
LAYER_1
 10
207.8778
 20
210.2908
  0
VERTEX
  8
LAYER_1
 10
207.9625
 20
210.2908
  0
VERTEX
  8
LAYER_1
 10
207.9625
 20
210.3755
  0
VERTEX
  8
LAYER_1
 10
208.0472
 20
210.3755
  0
VERTEX
  8
LAYER_1
 10
208.1318
 20
210.3755
  0
VERTEX
  8
LAYER_1
 10
208.2165
 20
210.3755
  0
VERTEX
  8
LAYER_1
 10
208.3012
 20
210.3755
  0
VERTEX
  8
LAYER_1
 10
208.3012
 20
210.2908
  0
VERTEX
  8
LAYER_1
 10
208.3012
 20
210.2062
  0
VERTEX
  8
LAYER_1
 10
208.3858
 20
210.2062
  0
VERTEX
  8
LAYER_1
 10
208.3858
 20
210.1215
  0
VERTEX
  8
LAYER_1
 10
208.3858
 20
210.0368
  0
VERTEX
  8
LAYER_1
 10
208.3012
 20
210.0368
  0
VERTEX
  8
LAYER_1
 10
208.3012
 20
209.9522
  0
VERTEX
  8
LAYER_1
 10
208.2165
 20
209.9522
  0
VERTEX
  8
LAYER_1
 10
208.2165
 20
209.8675
  0
VERTEX
  8
LAYER_1
 10
208.1318
 20
209.8675
  0
VERTEX
  8
LAYER_1
 10
208.0472
 20
209.8675
  0
VERTEX
  8
LAYER_1
 10
208.0472
 20
209.9522
  0
VERTEX
  8
LAYER_1
 10
207.9625
 20
209.9522
  0
VERTEX
  8
LAYER_1
 10
207.8778
 20
209.9522
  0
VERTEX
  8
LAYER_1
 10
207.8778
 20
210.0368
  0
SEQEND
  0
POLYLINE
  8
LAYER_1
 40
0.0847
 41
0.0847
 66
1
 10
0
 20
0
 30
0
 70
1
  0
VERTEX
  8
LAYER_1
 10
207.899
 20
210.1003
  0
VERTEX
  8
LAYER_1
 10
207.899
 20
210.185
  0
VERTEX
  8
LAYER_1
 10
207.899
 20
210.2697
  0
VERTEX
  8
LAYER_1
 10
207.9837
 20
210.2697
  0
VERTEX
  8
LAYER_1
 10
207.9837
 20
210.3543
  0
VERTEX
  8
LAYER_1
 10
208.0683
 20
210.3543
  0
VERTEX
  8
LAYER_1
 10
208.153
 20
210.3543
  0
VERTEX
  8
LAYER_1
 10
208.2377
 20
210.3543
  0
VERTEX
  8
LAYER_1
 10
208.3223
 20
210.3543
  0
VERTEX
  8
LAYER_1
 10
208.3223
 20
210.2697
  0
VERTEX
  8
LAYER_1
 10
208.3223
 20
210.185
  0
VERTEX
  8
LAYER_1
 10
208.407
 20
210.185
  0
VERTEX
  8
LAYER_1
 10
208.407
 20
210.1003
  0
VERTEX
  8
LAYER_1
 10
208.407
 20
210.0157
  0
VERTEX
  8
LAYER_1
 10
208.3223
 20
210.0157
  0
VERTEX
  8
LAYER_1
 10
208.3223
 20
209.931
  0
VERTEX
  8
LAYER_1
 10
208.2377
 20
209.931
  0
VERTEX
  8
LAYER_1
 10
208.2377
 20
209.8463
  0
VERTEX
  8
LAYER_1
 10
208.153
 20
209.8463
  0
VERTEX
  8
LAYER_1
 10
208.0683
 20
209.8463
  0
VERTEX
  8
LAYER_1
 10
208.0683
 20
209.931
  0
VERTEX
  8
LAYER_1
 10
207.9837
 20
209.931
  0
VERTEX
  8
LAYER_1
 10
207.899
 20
209.931
  0
VERTEX
  8
LAYER_1
 10
207.899
 20
210.0157
  0
SEQEND
  0
POLYLINE
  8
LAYER_1
 40
0.05
 41
0.05
 62
255
 66
1
 10
0
 20
0
 30
0
 70
1
  0
VERTEX
  8
LAYER_1
 10
167.7458
 20
214.5242
  0
VERTEX
  8
LAYER_1
 10
172.4872
 20
214.5242
  0
VERTEX
  8
LAYER_1
 10
172.4872
 20
211.3068
  0
VERTEX
  8
LAYER_1
 10
167.7458
 20
211.3068
  0
SEQEND
  0
TEXT
  8
LAYER_1
 10
167.767
 20
211.8513
 11
167.767
 21
211.8513
 40
3.4028
 41
0.5
  1
380
  0
POLYLINE
  8
LAYER_1
 40
0.1764
 41
0.1764
 66
1
 10
0
 20
0
 30
0
  0
VERTEX
  8
LAYER_1
 10
144.145
 20
181.0597
  0
VERTEX
  8
LAYER_1
 10
144.145
 20
197.3157
  0
SEQEND
  0
POLYLINE
  8
LAYER_1
 40
0.1764
 41
0.1764
 66
1
 10
0
 20
0
 30
0
  0
VERTEX
  8
LAYER_1
 10
196.1303
 20
181.0597
  0
VERTEX
  8
LAYER_1
 10
196.1303
 20
197.3157
  0
SEQEND
  0
POLYLINE
  8
LAYER_1
 40
0.1764
 41
0.1764
 66
1
 10
0
 20
0
 30
0
  0
VERTEX
  8
LAYER_1
 10
144.145
 20
197.3157
  0
VERTEX
  8
LAYER_1
 10
196.1303
 20
197.3157
  0
SEQEND
  0
POLYLINE
  8
LAYER_1
 40
0.1764
 41
0.1764
 66
1
 10
0
 20
0
 30
0
 70
1
  0
VERTEX
  8
LAYER_1
 10
144.399
 20
197.3157
  0
VERTEX
  8
LAYER_1
 10
144.399
 20
197.231
  0
VERTEX
  8
LAYER_1
 10
144.3143
 20
197.231
  0
VERTEX
  8
LAYER_1
 10
144.3143
 20
197.1463
  0
VERTEX
  8
LAYER_1
 10
144.2297
 20
197.0617
  0
VERTEX
  8
LAYER_1
 10
144.145
 20
197.0617
  0
VERTEX
  8
LAYER_1
 10
144.0603
 20
197.0617
  0
VERTEX
  8
LAYER_1
 10
143.9757
 20
197.0617
  0
VERTEX
  8
LAYER_1
 10
143.9757
 20
197.1463
  0
VERTEX
  8
LAYER_1
 10
143.891
 20
197.1463
  0
VERTEX
  8
LAYER_1
 10
143.891
 20
197.231
  0
VERTEX
  8
LAYER_1
 10
143.891
 20
197.3157
  0
VERTEX
  8
LAYER_1
 10
143.891
 20
197.4003
  0
VERTEX
  8
LAYER_1
 10
143.891
 20
197.485
  0
VERTEX
  8
LAYER_1
 10
143.9757
 20
197.485
  0
VERTEX
  8
LAYER_1
 10
143.9757
 20
197.5697
  0
VERTEX
  8
LAYER_1
 10
144.0603
 20
197.5697
  0
VERTEX
  8
LAYER_1
 10
144.145
 20
197.5697
  0
VERTEX
  8
LAYER_1
 10
144.2297
 20
197.5697
  0
VERTEX
  8
LAYER_1
 10
144.3143
 20
197.485
  0
VERTEX
  8
LAYER_1
 10
144.3143
 20
197.4003
  0
VERTEX
  8
LAYER_1
 10
144.399
 20
197.4003
  0
SEQEND
  0
POLYLINE
  8
LAYER_1
 40
0.05
 41
0.05
 66
1
 10
0
 20
0
 30
0
 70
1
  0
VERTEX
  8
LAYER_1
 10
144.3778
 20
197.3368
  0
VERTEX
  8
LAYER_1
 10
144.3778
 20
197.2522
  0
VERTEX
  8
LAYER_1
 10
144.2932
 20
197.2522
  0
VERTEX
  8
LAYER_1
 10
144.2932
 20
197.1675
  0
VERTEX
  8
LAYER_1
 10
144.2085
 20
197.0828
  0
VERTEX
  8
LAYER_1
 10
144.1238
 20
197.0828
  0
VERTEX
  8
LAYER_1
 10
144.0392
 20
197.0828
  0
VERTEX
  8
LAYER_1
 10
143.9545
 20
197.0828
  0
VERTEX
  8
LAYER_1
 10
143.9545
 20
197.1675
  0
VERTEX
  8
LAYER_1
 10
143.8698
 20
197.1675
  0
VERTEX
  8
LAYER_1
 10
143.8698
 20
197.2522
  0
VERTEX
  8
LAYER_1
 10
143.8698
 20
197.3368
  0
VERTEX
  8
LAYER_1
 10
143.8698
 20
197.4215
  0
VERTEX
  8
LAYER_1
 10
143.8698
 20
197.5062
  0
VERTEX
  8
LAYER_1
 10
143.9545
 20
197.5062
  0
VERTEX
  8
LAYER_1
 10
143.9545
 20
197.5908
  0
VERTEX
  8
LAYER_1
 10
144.0392
 20
197.5908
  0
VERTEX
  8
LAYER_1
 10
144.1238
 20
197.5908
  0
VERTEX
  8
LAYER_1
 10
144.2085
 20
197.5908
  0
VERTEX
  8
LAYER_1
 10
144.2932
 20
197.5062
  0
VERTEX
  8
LAYER_1
 10
144.2932
 20
197.4215
  0
VERTEX
  8
LAYER_1
 10
144.3778
 20
197.4215
  0
SEQEND
  0
POLYLINE
  8
LAYER_1
 40
0.0847
 41
0.0847
 66
1
 10
0
 20
0
 30
0
 70
1
  0
VERTEX
  8
LAYER_1
 10
144.399
 20
197.3157
  0
VERTEX
  8
LAYER_1
 10
144.399
 20
197.231
  0
VERTEX
  8
LAYER_1
 10
144.3143
 20
197.231
  0
VERTEX
  8
LAYER_1
 10
144.3143
 20
197.1463
  0
VERTEX
  8
LAYER_1
 10
144.2297
 20
197.0617
  0
VERTEX
  8
LAYER_1
 10
144.145
 20
197.0617
  0
VERTEX
  8
LAYER_1
 10
144.0603
 20
197.0617
  0
VERTEX
  8
LAYER_1
 10
143.9757
 20
197.0617
  0
VERTEX
  8
LAYER_1
 10
143.9757
 20
197.1463
  0
VERTEX
  8
LAYER_1
 10
143.891
 20
197.1463
  0
VERTEX
  8
LAYER_1
 10
143.891
 20
197.231
  0
VERTEX
  8
LAYER_1
 10
143.891
 20
197.3157
  0
VERTEX
  8
LAYER_1
 10
143.891
 20
197.4003
  0
VERTEX
  8
LAYER_1
 10
143.891
 20
197.485
  0
VERTEX
  8
LAYER_1
 10
143.9757
 20
197.485
  0
VERTEX
  8
LAYER_1
 10
143.9757
 20
197.5697
  0
VERTEX
  8
LAYER_1
 10
144.0603
 20
197.5697
  0
VERTEX
  8
LAYER_1
 10
144.145
 20
197.5697
  0
VERTEX
  8
LAYER_1
 10
144.2297
 20
197.5697
  0
VERTEX
  8
LAYER_1
 10
144.3143
 20
197.485
  0
VERTEX
  8
LAYER_1
 10
144.3143
 20
197.4003
  0
VERTEX
  8
LAYER_1
 10
144.399
 20
197.4003
  0
SEQEND
  0
POLYLINE
  8
LAYER_1
 40
0.1764
 41
0.1764
 66
1
 10
0
 20
0
 30
0
 70
1
  0
VERTEX
  8
LAYER_1
 10
195.8763
 20
197.3157
  0
VERTEX
  8
LAYER_1
 10
195.8763
 20
197.4003
  0
VERTEX
  8
LAYER_1
 10
195.961
 20
197.485
  0
VERTEX
  8
LAYER_1
 10
196.0457
 20
197.5697
  0
VERTEX
  8
LAYER_1
 10
196.1303
 20
197.5697
  0
VERTEX
  8
LAYER_1
 10
196.215
 20
197.5697
  0
VERTEX
  8
LAYER_1
 10
196.2997
 20
197.5697
  0
VERTEX
  8
LAYER_1
 10
196.2997
 20
197.485
  0
VERTEX
  8
LAYER_1
 10
196.3843
 20
197.485
  0
VERTEX
  8
LAYER_1
 10
196.3843
 20
197.4003
  0
VERTEX
  8
LAYER_1
 10
196.3843
 20
197.3157
  0
VERTEX
  8
LAYER_1
 10
196.3843
 20
197.231
  0
VERTEX
  8
LAYER_1
 10
196.3843
 20
197.1463
  0
VERTEX
  8
LAYER_1
 10
196.2997
 20
197.1463
  0
VERTEX
  8
LAYER_1
 10
196.2997
 20
197.0617
  0
VERTEX
  8
LAYER_1
 10
196.215
 20
197.0617
  0
VERTEX
  8
LAYER_1
 10
196.1303
 20
197.0617
  0
VERTEX
  8
LAYER_1
 10
196.0457
 20
197.0617
  0
VERTEX
  8
LAYER_1
 10
195.961
 20
197.1463
  0
VERTEX
  8
LAYER_1
 10
195.961
 20
197.231
  0
VERTEX
  8
LAYER_1
 10
195.8763
 20
197.231
  0
SEQEND
  0
POLYLINE
  8
LAYER_1
 40
0.05
 41
0.05
 66
1
 10
0
 20
0
 30
0
 70
1
  0
VERTEX
  8
LAYER_1
 10
195.8552
 20
197.3368
  0
VERTEX
  8
LAYER_1
 10
195.8552
 20
197.4215
  0
VERTEX
  8
LAYER_1
 10
195.9398
 20
197.5062
  0
VERTEX
  8
LAYER_1
 10
196.0245
 20
197.5908
  0
VERTEX
  8
LAYER_1
 10
196.1092
 20
197.5908
  0
VERTEX
  8
LAYER_1
 10
196.1938
 20
197.5908
  0
VERTEX
  8
LAYER_1
 10
196.2785
 20
197.5908
  0
VERTEX
  8
LAYER_1
 10
196.2785
 20
197.5062
  0
VERTEX
  8
LAYER_1
 10
196.3632
 20
197.5062
  0
VERTEX
  8
LAYER_1
 10
196.3632
 20
197.4215
  0
VERTEX
  8
LAYER_1
 10
196.3632
 20
197.3368
  0
VERTEX
  8
LAYER_1
 10
196.3632
 20
197.2522
  0
VERTEX
  8
LAYER_1
 10
196.3632
 20
197.1675
  0
VERTEX
  8
LAYER_1
 10
196.2785
 20
197.1675
  0
VERTEX
  8
LAYER_1
 10
196.2785
 20
197.0828
  0
VERTEX
  8
LAYER_1
 10
196.1938
 20
197.0828
  0
VERTEX
  8
LAYER_1
 10
196.1092
 20
197.0828
  0
VERTEX
  8
LAYER_1
 10
196.0245
 20
197.0828
  0
VERTEX
  8
LAYER_1
 10
195.9398
 20
197.1675
  0
VERTEX
  8
LAYER_1
 10
195.9398
 20
197.2522
  0
VERTEX
  8
LAYER_1
 10
195.8552
 20
197.2522
  0
SEQEND
  0
POLYLINE
  8
LAYER_1
 40
0.0847
 41
0.0847
 66
1
 10
0
 20
0
 30
0
 70
1
  0
VERTEX
  8
LAYER_1
 10
195.8763
 20
197.3157
  0
VERTEX
  8
LAYER_1
 10
195.8763
 20
197.4003
  0
VERTEX
  8
LAYER_1
 10
195.961
 20
197.485
  0
VERTEX
  8
LAYER_1
 10
196.0457
 20
197.5697
  0
VERTEX
  8
LAYER_1
 10
196.1303
 20
197.5697
  0
VERTEX
  8
LAYER_1
 10
196.215
 20
197.5697
  0
VERTEX
  8
LAYER_1
 10
196.2997
 20
197.5697
  0
VERTEX
  8
LAYER_1
 10
196.2997
 20
197.485
  0
VERTEX
  8
LAYER_1
 10
196.3843
 20
197.485
  0
VERTEX
  8
LAYER_1
 10
196.3843
 20
197.4003
  0
VERTEX
  8
LAYER_1
 10
196.3843
 20
197.3157
  0
VERTEX
  8
LAYER_1
 10
196.3843
 20
197.231
  0
VERTEX
  8
LAYER_1
 10
196.3843
 20
197.1463
  0
VERTEX
  8
LAYER_1
 10
196.2997
 20
197.1463
  0
VERTEX
  8
LAYER_1
 10
196.2997
 20
197.0617
  0
VERTEX
  8
LAYER_1
 10
196.215
 20
197.0617
  0
VERTEX
  8
LAYER_1
 10
196.1303
 20
197.0617
  0
VERTEX
  8
LAYER_1
 10
196.0457
 20
197.0617
  0
VERTEX
  8
LAYER_1
 10
195.961
 20
197.1463
  0
VERTEX
  8
LAYER_1
 10
195.961
 20
197.231
  0
VERTEX
  8
LAYER_1
 10
195.8763
 20
197.231
  0
SEQEND
  0
POLYLINE
  8
LAYER_1
 40
0.05
 41
0.05
 62
255
 66
1
 10
0
 20
0
 30
0
 70
1
  0
VERTEX
  8
LAYER_1
 10
167.7458
 20
201.7395
  0
VERTEX
  8
LAYER_1
 10
172.4872
 20
201.7395
  0
VERTEX
  8
LAYER_1
 10
172.4872
 20
198.5222
  0
VERTEX
  8
LAYER_1
 10
167.7458
 20
198.5222
  0
SEQEND
  0
TEXT
  8
LAYER_1
 10
167.767
 20
199.0666
 11
167.767
 21
199.0666
 40
3.4028
 41
0.5
  1
260
  0
POLYLINE
  8
LAYER_1
 40
0.1764
 41
0.1764
 66
1
 10
0
 20
0
 30
0
  0
VERTEX
  8
LAYER_1
 10
144.145
 20
198.3316
  0
VERTEX
  8
LAYER_1
 10
144.145
 20
197.3157
  0
SEQEND
  0
POLYLINE
  8
LAYER_1
 40
0.1764
 41
0.1764
 66
1
 10
0
 20
0
 30
0
  0
VERTEX
  8
LAYER_1
 10
132.1223
 20
198.3316
  0
VERTEX
  8
LAYER_1
 10
132.1223
 20
197.3157
  0
SEQEND
  0
POLYLINE
  8
LAYER_1
 40
0.1764
 41
0.1764
 66
1
 10
0
 20
0
 30
0
  0
VERTEX
  8
LAYER_1
 10
144.145
 20
197.3157
  0
VERTEX
  8
LAYER_1
 10
132.1223
 20
197.3157
  0
SEQEND
  0
POLYLINE
  8
LAYER_1
 40
0.1764
 41
0.1764
 66
1
 10
0
 20
0
 30
0
 70
1
  0
VERTEX
  8
LAYER_1
 10
143.891
 20
197.3157
  0
VERTEX
  8
LAYER_1
 10
143.891
 20
197.4003
  0
VERTEX
  8
LAYER_1
 10
143.891
 20
197.485
  0
VERTEX
  8
LAYER_1
 10
143.9757
 20
197.485
  0
VERTEX
  8
LAYER_1
 10
143.9757
 20
197.5697
  0
VERTEX
  8
LAYER_1
 10
144.0603
 20
197.5697
  0
VERTEX
  8
LAYER_1
 10
144.145
 20
197.5697
  0
VERTEX
  8
LAYER_1
 10
144.2297
 20
197.5697
  0
VERTEX
  8
LAYER_1
 10
144.3143
 20
197.485
  0
VERTEX
  8
LAYER_1
 10
144.3143
 20
197.4003
  0
VERTEX
  8
LAYER_1
 10
144.399
 20
197.4003
  0
VERTEX
  8
LAYER_1
 10
144.399
 20
197.3157
  0
VERTEX
  8
LAYER_1
 10
144.399
 20
197.231
  0
VERTEX
  8
LAYER_1
 10
144.3143
 20
197.231
  0
VERTEX
  8
LAYER_1
 10
144.3143
 20
197.1463
  0
VERTEX
  8
LAYER_1
 10
144.2297
 20
197.0617
  0
VERTEX
  8
LAYER_1
 10
144.145
 20
197.0617
  0
VERTEX
  8
LAYER_1
 10
144.0603
 20
197.0617
  0
VERTEX
  8
LAYER_1
 10
143.9757
 20
197.0617
  0
VERTEX
  8
LAYER_1
 10
143.9757
 20
197.1463
  0
VERTEX
  8
LAYER_1
 10
143.891
 20
197.1463
  0
VERTEX
  8
LAYER_1
 10
143.891
 20
197.231
  0
SEQEND
  0
POLYLINE
  8
LAYER_1
 40
0.05
 41
0.05
 66
1
 10
0
 20
0
 30
0
 70
1
  0
VERTEX
  8
LAYER_1
 10
143.8698
 20
197.3368
  0
VERTEX
  8
LAYER_1
 10
143.8698
 20
197.4215
  0
VERTEX
  8
LAYER_1
 10
143.8698
 20
197.5062
  0
VERTEX
  8
LAYER_1
 10
143.9545
 20
197.5062
  0
VERTEX
  8
LAYER_1
 10
143.9545
 20
197.5908
  0
VERTEX
  8
LAYER_1
 10
144.0392
 20
197.5908
  0
VERTEX
  8
LAYER_1
 10
144.1238
 20
197.5908
  0
VERTEX
  8
LAYER_1
 10
144.2085
 20
197.5908
  0
VERTEX
  8
LAYER_1
 10
144.2932
 20
197.5062
  0
VERTEX
  8
LAYER_1
 10
144.2932
 20
197.4215
  0
VERTEX
  8
LAYER_1
 10
144.3778
 20
197.4215
  0
VERTEX
  8
LAYER_1
 10
144.3778
 20
197.3368
  0
VERTEX
  8
LAYER_1
 10
144.3778
 20
197.2522
  0
VERTEX
  8
LAYER_1
 10
144.2932
 20
197.2522
  0
VERTEX
  8
LAYER_1
 10
144.2932
 20
197.1675
  0
VERTEX
  8
LAYER_1
 10
144.2085
 20
197.0828
  0
VERTEX
  8
LAYER_1
 10
144.1238
 20
197.0828
  0
VERTEX
  8
LAYER_1
 10
144.0392
 20
197.0828
  0
VERTEX
  8
LAYER_1
 10
143.9545
 20
197.0828
  0
VERTEX
  8
LAYER_1
 10
143.9545
 20
197.1675
  0
VERTEX
  8
LAYER_1
 10
143.8698
 20
197.1675
  0
VERTEX
  8
LAYER_1
 10
143.8698
 20
197.2522
  0
SEQEND
  0
POLYLINE
  8
LAYER_1
 40
0.0847
 41
0.0847
 66
1
 10
0
 20
0
 30
0
 70
1
  0
VERTEX
  8
LAYER_1
 10
143.891
 20
197.3157
  0
VERTEX
  8
LAYER_1
 10
143.891
 20
197.4003
  0
VERTEX
  8
LAYER_1
 10
143.891
 20
197.485
  0
VERTEX
  8
LAYER_1
 10
143.9757
 20
197.485
  0
VERTEX
  8
LAYER_1
 10
143.9757
 20
197.5697
  0
VERTEX
  8
LAYER_1
 10
144.0603
 20
197.5697
  0
VERTEX
  8
LAYER_1
 10
144.145
 20
197.5697
  0
VERTEX
  8
LAYER_1
 10
144.2297
 20
197.5697
  0
VERTEX
  8
LAYER_1
 10
144.3143
 20
197.485
  0
VERTEX
  8
LAYER_1
 10
144.3143
 20
197.4003
  0
VERTEX
  8
LAYER_1
 10
144.399
 20
197.4003
  0
VERTEX
  8
LAYER_1
 10
144.399
 20
197.3157
  0
VERTEX
  8
LAYER_1
 10
144.399
 20
197.231
  0
VERTEX
  8
LAYER_1
 10
144.3143
 20
197.231
  0
VERTEX
  8
LAYER_1
 10
144.3143
 20
197.1463
  0
VERTEX
  8
LAYER_1
 10
144.2297
 20
197.0617
  0
VERTEX
  8
LAYER_1
 10
144.145
 20
197.0617
  0
VERTEX
  8
LAYER_1
 10
144.0603
 20
197.0617
  0
VERTEX
  8
LAYER_1
 10
143.9757
 20
197.0617
  0
VERTEX
  8
LAYER_1
 10
143.9757
 20
197.1463
  0
VERTEX
  8
LAYER_1
 10
143.891
 20
197.1463
  0
VERTEX
  8
LAYER_1
 10
143.891
 20
197.231
  0
SEQEND
  0
POLYLINE
  8
LAYER_1
 40
0.1764
 41
0.1764
 66
1
 10
0
 20
0
 30
0
 70
1
  0
VERTEX
  8
LAYER_1
 10
132.3763
 20
197.3157
  0
VERTEX
  8
LAYER_1
 10
132.3763
 20
197.231
  0
VERTEX
  8
LAYER_1
 10
132.3763
 20
197.1463
  0
VERTEX
  8
LAYER_1
 10
132.2917
 20
197.1463
  0
VERTEX
  8
LAYER_1
 10
132.2917
 20
197.0617
  0
VERTEX
  8
LAYER_1
 10
132.207
 20
197.0617
  0
VERTEX
  8
LAYER_1
 10
132.1223
 20
197.0617
  0
VERTEX
  8
LAYER_1
 10
132.0377
 20
197.0617
  0
VERTEX
  8
LAYER_1
 10
132.0377
 20
197.1463
  0
VERTEX
  8
LAYER_1
 10
131.953
 20
197.1463
  0
VERTEX
  8
LAYER_1
 10
131.953
 20
197.231
  0
VERTEX
  8
LAYER_1
 10
131.8683
 20
197.231
  0
VERTEX
  8
LAYER_1
 10
131.8683
 20
197.3157
  0
VERTEX
  8
LAYER_1
 10
131.8683
 20
197.4003
  0
VERTEX
  8
LAYER_1
 10
131.953
 20
197.4003
  0
VERTEX
  8
LAYER_1
 10
131.953
 20
197.485
  0
VERTEX
  8
LAYER_1
 10
132.0377
 20
197.485
  0
VERTEX
  8
LAYER_1
 10
132.0377
 20
197.5697
  0
VERTEX
  8
LAYER_1
 10
132.1223
 20
197.5697
  0
VERTEX
  8
LAYER_1
 10
132.207
 20
197.5697
  0
VERTEX
  8
LAYER_1
 10
132.2917
 20
197.5697
  0
VERTEX
  8
LAYER_1
 10
132.2917
 20
197.485
  0
VERTEX
  8
LAYER_1
 10
132.3763
 20
197.485
  0
VERTEX
  8
LAYER_1
 10
132.3763
 20
197.4003
  0
SEQEND
  0
POLYLINE
  8
LAYER_1
 40
0.05
 41
0.05
 66
1
 10
0
 20
0
 30
0
 70
1
  0
VERTEX
  8
LAYER_1
 10
132.3552
 20
197.3368
  0
VERTEX
  8
LAYER_1
 10
132.3552
 20
197.2522
  0
VERTEX
  8
LAYER_1
 10
132.3552
 20
197.1675
  0
VERTEX
  8
LAYER_1
 10
132.2705
 20
197.1675
  0
VERTEX
  8
LAYER_1
 10
132.2705
 20
197.0828
  0
VERTEX
  8
LAYER_1
 10
132.1858
 20
197.0828
  0
VERTEX
  8
LAYER_1
 10
132.1012
 20
197.0828
  0
VERTEX
  8
LAYER_1
 10
132.0165
 20
197.0828
  0
VERTEX
  8
LAYER_1
 10
132.0165
 20
197.1675
  0
VERTEX
  8
LAYER_1
 10
131.9318
 20
197.1675
  0
VERTEX
  8
LAYER_1
 10
131.9318
 20
197.2522
  0
VERTEX
  8
LAYER_1
 10
131.8472
 20
197.2522
  0
VERTEX
  8
LAYER_1
 10
131.8472
 20
197.3368
  0
VERTEX
  8
LAYER_1
 10
131.8472
 20
197.4215
  0
VERTEX
  8
LAYER_1
 10
131.9318
 20
197.4215
  0
VERTEX
  8
LAYER_1
 10
131.9318
 20
197.5062
  0
VERTEX
  8
LAYER_1
 10
132.0165
 20
197.5062
  0
VERTEX
  8
LAYER_1
 10
132.0165
 20
197.5908
  0
VERTEX
  8
LAYER_1
 10
132.1012
 20
197.5908
  0
VERTEX
  8
LAYER_1
 10
132.1858
 20
197.5908
  0
VERTEX
  8
LAYER_1
 10
132.2705
 20
197.5908
  0
VERTEX
  8
LAYER_1
 10
132.2705
 20
197.5062
  0
VERTEX
  8
LAYER_1
 10
132.3552
 20
197.5062
  0
VERTEX
  8
LAYER_1
 10
132.3552
 20
197.4215
  0
SEQEND
  0
POLYLINE
  8
LAYER_1
 40
0.0847
 41
0.0847
 66
1
 10
0
 20
0
 30
0
 70
1
  0
VERTEX
  8
LAYER_1
 10
132.3763
 20
197.3157
  0
VERTEX
  8
LAYER_1
 10
132.3763
 20
197.231
  0
VERTEX
  8
LAYER_1
 10
132.3763
 20
197.1463
  0
VERTEX
  8
LAYER_1
 10
132.2917
 20
197.1463
  0
VERTEX
  8
LAYER_1
 10
132.2917
 20
197.0617
  0
VERTEX
  8
LAYER_1
 10
132.207
 20
197.0617
  0
VERTEX
  8
LAYER_1
 10
132.1223
 20
197.0617
  0
VERTEX
  8
LAYER_1
 10
132.0377
 20
197.0617
  0
VERTEX
  8
LAYER_1
 10
132.0377
 20
197.1463
  0
VERTEX
  8
LAYER_1
 10
131.953
 20
197.1463
  0
VERTEX
  8
LAYER_1
 10
131.953
 20
197.231
  0
VERTEX
  8
LAYER_1
 10
131.8683
 20
197.231
  0
VERTEX
  8
LAYER_1
 10
131.8683
 20
197.3157
  0
VERTEX
  8
LAYER_1
 10
131.8683
 20
197.4003
  0
VERTEX
  8
LAYER_1
 10
131.953
 20
197.4003
  0
VERTEX
  8
LAYER_1
 10
131.953
 20
197.485
  0
VERTEX
  8
LAYER_1
 10
132.0377
 20
197.485
  0
VERTEX
  8
LAYER_1
 10
132.0377
 20
197.5697
  0
VERTEX
  8
LAYER_1
 10
132.1223
 20
197.5697
  0
VERTEX
  8
LAYER_1
 10
132.207
 20
197.5697
  0
VERTEX
  8
LAYER_1
 10
132.2917
 20
197.5697
  0
VERTEX
  8
LAYER_1
 10
132.2917
 20
197.485
  0
VERTEX
  8
LAYER_1
 10
132.3763
 20
197.485
  0
VERTEX
  8
LAYER_1
 10
132.3763
 20
197.4003
  0
SEQEND
  0
POLYLINE
  8
LAYER_1
 40
0.05
 41
0.05
 62
255
 66
1
 10
0
 20
0
 30
0
 70
1
  0
VERTEX
  8
LAYER_1
 10
136.5038
 20
201.7395
  0
VERTEX
  8
LAYER_1
 10
139.7212
 20
201.7395
  0
VERTEX
  8
LAYER_1
 10
139.7212
 20
198.5222
  0
VERTEX
  8
LAYER_1
 10
136.5038
 20
198.5222
  0
SEQEND
  0
TEXT
  8
LAYER_1
 10
136.525
 20
199.0666
 11
136.525
 21
199.0666
 40
3.4028
 41
0.5
  1
60
  0
POLYLINE
  8
LAYER_1
 40
0.1764
 41
0.1764
 66
1
 10
0
 20
0
 30
0
  0
VERTEX
  8
LAYER_1
 10
196.1303
 20
198.3316
  0
VERTEX
  8
LAYER_1
 10
196.1303
 20
197.3157
  0
SEQEND
  0
POLYLINE
  8
LAYER_1
 40
0.1764
 41
0.1764
 66
1
 10
0
 20
0
 30
0
  0
VERTEX
  8
LAYER_1
 10
208.153
 20
198.3316
  0
VERTEX
  8
LAYER_1
 10
208.153
 20
197.3157
  0
SEQEND
  0
POLYLINE
  8
LAYER_1
 40
0.1764
 41
0.1764
 66
1
 10
0
 20
0
 30
0
  0
VERTEX
  8
LAYER_1
 10
196.1303
 20
197.3157
  0
VERTEX
  8
LAYER_1
 10
208.153
 20
197.3157
  0
SEQEND
  0
POLYLINE
  8
LAYER_1
 40
0.1764
 41
0.1764
 66
1
 10
0
 20
0
 30
0
 70
1
  0
VERTEX
  8
LAYER_1
 10
196.3843
 20
197.3157
  0
VERTEX
  8
LAYER_1
 10
196.3843
 20
197.231
  0
VERTEX
  8
LAYER_1
 10
196.3843
 20
197.1463
  0
VERTEX
  8
LAYER_1
 10
196.2997
 20
197.1463
  0
VERTEX
  8
LAYER_1
 10
196.2997
 20
197.0617
  0
VERTEX
  8
LAYER_1
 10
196.215
 20
197.0617
  0
VERTEX
  8
LAYER_1
 10
196.1303
 20
197.0617
  0
VERTEX
  8
LAYER_1
 10
196.0457
 20
197.0617
  0
VERTEX
  8
LAYER_1
 10
195.961
 20
197.1463
  0
VERTEX
  8
LAYER_1
 10
195.961
 20
197.231
  0
VERTEX
  8
LAYER_1
 10
195.8763
 20
197.231
  0
VERTEX
  8
LAYER_1
 10
195.8763
 20
197.3157
  0
VERTEX
  8
LAYER_1
 10
195.8763
 20
197.4003
  0
VERTEX
  8
LAYER_1
 10
195.961
 20
197.485
  0
VERTEX
  8
LAYER_1
 10
196.0457
 20
197.5697
  0
VERTEX
  8
LAYER_1
 10
196.1303
 20
197.5697
  0
VERTEX
  8
LAYER_1
 10
196.215
 20
197.5697
  0
VERTEX
  8
LAYER_1
 10
196.2997
 20
197.5697
  0
VERTEX
  8
LAYER_1
 10
196.2997
 20
197.485
  0
VERTEX
  8
LAYER_1
 10
196.3843
 20
197.485
  0
VERTEX
  8
LAYER_1
 10
196.3843
 20
197.4003
  0
SEQEND
  0
POLYLINE
  8
LAYER_1
 40
0.05
 41
0.05
 66
1
 10
0
 20
0
 30
0
 70
1
  0
VERTEX
  8
LAYER_1
 10
196.3632
 20
197.3368
  0
VERTEX
  8
LAYER_1
 10
196.3632
 20
197.2522
  0
VERTEX
  8
LAYER_1
 10
196.3632
 20
197.1675
  0
VERTEX
  8
LAYER_1
 10
196.2785
 20
197.1675
  0
VERTEX
  8
LAYER_1
 10
196.2785
 20
197.0828
  0
VERTEX
  8
LAYER_1
 10
196.1938
 20
197.0828
  0
VERTEX
  8
LAYER_1
 10
196.1092
 20
197.0828
  0
VERTEX
  8
LAYER_1
 10
196.0245
 20
197.0828
  0
VERTEX
  8
LAYER_1
 10
195.9398
 20
197.1675
  0
VERTEX
  8
LAYER_1
 10
195.9398
 20
197.2522
  0
VERTEX
  8
LAYER_1
 10
195.8552
 20
197.2522
  0
VERTEX
  8
LAYER_1
 10
195.8552
 20
197.3368
  0
VERTEX
  8
LAYER_1
 10
195.8552
 20
197.4215
  0
VERTEX
  8
LAYER_1
 10
195.9398
 20
197.5062
  0
VERTEX
  8
LAYER_1
 10
196.0245
 20
197.5908
  0
VERTEX
  8
LAYER_1
 10
196.1092
 20
197.5908
  0
VERTEX
  8
LAYER_1
 10
196.1938
 20
197.5908
  0
VERTEX
  8
LAYER_1
 10
196.2785
 20
197.5908
  0
VERTEX
  8
LAYER_1
 10
196.2785
 20
197.5062
  0
VERTEX
  8
LAYER_1
 10
196.3632
 20
197.5062
  0
VERTEX
  8
LAYER_1
 10
196.3632
 20
197.4215
  0
SEQEND
  0
POLYLINE
  8
LAYER_1
 40
0.0847
 41
0.0847
 66
1
 10
0
 20
0
 30
0
 70
1
  0
VERTEX
  8
LAYER_1
 10
196.3843
 20
197.3157
  0
VERTEX
  8
LAYER_1
 10
196.3843
 20
197.231
  0
VERTEX
  8
LAYER_1
 10
196.3843
 20
197.1463
  0
VERTEX
  8
LAYER_1
 10
196.2997
 20
197.1463
  0
VERTEX
  8
LAYER_1
 10
196.2997
 20
197.0617
  0
VERTEX
  8
LAYER_1
 10
196.215
 20
197.0617
  0
VERTEX
  8
LAYER_1
 10
196.1303
 20
197.0617
  0
VERTEX
  8
LAYER_1
 10
196.0457
 20
197.0617
  0
VERTEX
  8
LAYER_1
 10
195.961
 20
197.1463
  0
VERTEX
  8
LAYER_1
 10
195.961
 20
197.231
  0
VERTEX
  8
LAYER_1
 10
195.8763
 20
197.231
  0
VERTEX
  8
LAYER_1
 10
195.8763
 20
197.3157
  0
VERTEX
  8
LAYER_1
 10
195.8763
 20
197.4003
  0
VERTEX
  8
LAYER_1
 10
195.961
 20
197.485
  0
VERTEX
  8
LAYER_1
 10
196.0457
 20
197.5697
  0
VERTEX
  8
LAYER_1
 10
196.1303
 20
197.5697
  0
VERTEX
  8
LAYER_1
 10
196.215
 20
197.5697
  0
VERTEX
  8
LAYER_1
 10
196.2997
 20
197.5697
  0
VERTEX
  8
LAYER_1
 10
196.2997
 20
197.485
  0
VERTEX
  8
LAYER_1
 10
196.3843
 20
197.485
  0
VERTEX
  8
LAYER_1
 10
196.3843
 20
197.4003
  0
SEQEND
  0
POLYLINE
  8
LAYER_1
 40
0.1764
 41
0.1764
 66
1
 10
0
 20
0
 30
0
 70
1
  0
VERTEX
  8
LAYER_1
 10
207.899
 20
197.3157
  0
VERTEX
  8
LAYER_1
 10
207.899
 20
197.4003
  0
VERTEX
  8
LAYER_1
 10
207.899
 20
197.485
  0
VERTEX
  8
LAYER_1
 10
207.9837
 20
197.485
  0
VERTEX
  8
LAYER_1
 10
207.9837
 20
197.5697
  0
VERTEX
  8
LAYER_1
 10
208.0683
 20
197.5697
  0
VERTEX
  8
LAYER_1
 10
208.153
 20
197.5697
  0
VERTEX
  8
LAYER_1
 10
208.2377
 20
197.5697
  0
VERTEX
  8
LAYER_1
 10
208.2377
 20
197.485
  0
VERTEX
  8
LAYER_1
 10
208.3223
 20
197.485
  0
VERTEX
  8
LAYER_1
 10
208.3223
 20
197.4003
  0
VERTEX
  8
LAYER_1
 10
208.407
 20
197.4003
  0
VERTEX
  8
LAYER_1
 10
208.407
 20
197.3157
  0
VERTEX
  8
LAYER_1
 10
208.407
 20
197.231
  0
VERTEX
  8
LAYER_1
 10
208.3223
 20
197.231
  0
VERTEX
  8
LAYER_1
 10
208.3223
 20
197.1463
  0
VERTEX
  8
LAYER_1
 10
208.2377
 20
197.1463
  0
VERTEX
  8
LAYER_1
 10
208.2377
 20
197.0617
  0
VERTEX
  8
LAYER_1
 10
208.153
 20
197.0617
  0
VERTEX
  8
LAYER_1
 10
208.0683
 20
197.0617
  0
VERTEX
  8
LAYER_1
 10
207.9837
 20
197.0617
  0
VERTEX
  8
LAYER_1
 10
207.9837
 20
197.1463
  0
VERTEX
  8
LAYER_1
 10
207.899
 20
197.1463
  0
VERTEX
  8
LAYER_1
 10
207.899
 20
197.231
  0
SEQEND
  0
POLYLINE
  8
LAYER_1
 40
0.05
 41
0.05
 66
1
 10
0
 20
0
 30
0
 70
1
  0
VERTEX
  8
LAYER_1
 10
207.8778
 20
197.3368
  0
VERTEX
  8
LAYER_1
 10
207.8778
 20
197.4215
  0
VERTEX
  8
LAYER_1
 10
207.8778
 20
197.5062
  0
VERTEX
  8
LAYER_1
 10
207.9625
 20
197.5062
  0
VERTEX
  8
LAYER_1
 10
207.9625
 20
197.5908
  0
VERTEX
  8
LAYER_1
 10
208.0472
 20
197.5908
  0
VERTEX
  8
LAYER_1
 10
208.1318
 20
197.5908
  0
VERTEX
  8
LAYER_1
 10
208.2165
 20
197.5908
  0
VERTEX
  8
LAYER_1
 10
208.2165
 20
197.5062
  0
VERTEX
  8
LAYER_1
 10
208.3012
 20
197.5062
  0
VERTEX
  8
LAYER_1
 10
208.3012
 20
197.4215
  0
VERTEX
  8
LAYER_1
 10
208.3858
 20
197.4215
  0
VERTEX
  8
LAYER_1
 10
208.3858
 20
197.3368
  0
VERTEX
  8
LAYER_1
 10
208.3858
 20
197.2522
  0
VERTEX
  8
LAYER_1
 10
208.3012
 20
197.2522
  0
VERTEX
  8
LAYER_1
 10
208.3012
 20
197.1675
  0
VERTEX
  8
LAYER_1
 10
208.2165
 20
197.1675
  0
VERTEX
  8
LAYER_1
 10
208.2165
 20
197.0828
  0
VERTEX
  8
LAYER_1
 10
208.1318
 20
197.0828
  0
VERTEX
  8
LAYER_1
 10
208.0472
 20
197.0828
  0
VERTEX
  8
LAYER_1
 10
207.9625
 20
197.0828
  0
VERTEX
  8
LAYER_1
 10
207.9625
 20
197.1675
  0
VERTEX
  8
LAYER_1
 10
207.8778
 20
197.1675
  0
VERTEX
  8
LAYER_1
 10
207.8778
 20
197.2522
  0
SEQEND
  0
POLYLINE
  8
LAYER_1
 40
0.0847
 41
0.0847
 66
1
 10
0
 20
0
 30
0
 70
1
  0
VERTEX
  8
LAYER_1
 10
207.899
 20
197.3157
  0
VERTEX
  8
LAYER_1
 10
207.899
 20
197.4003
  0
VERTEX
  8
LAYER_1
 10
207.899
 20
197.485
  0
VERTEX
  8
LAYER_1
 10
207.9837
 20
197.485
  0
VERTEX
  8
LAYER_1
 10
207.9837
 20
197.5697
  0
VERTEX
  8
LAYER_1
 10
208.0683
 20
197.5697
  0
VERTEX
  8
LAYER_1
 10
208.153
 20
197.5697
  0
VERTEX
  8
LAYER_1
 10
208.2377
 20
197.5697
  0
VERTEX
  8
LAYER_1
 10
208.2377
 20
197.485
  0
VERTEX
  8
LAYER_1
 10
208.3223
 20
197.485
  0
VERTEX
  8
LAYER_1
 10
208.3223
 20
197.4003
  0
VERTEX
  8
LAYER_1
 10
208.407
 20
197.4003
  0
VERTEX
  8
LAYER_1
 10
208.407
 20
197.3157
  0
VERTEX
  8
LAYER_1
 10
208.407
 20
197.231
  0
VERTEX
  8
LAYER_1
 10
208.3223
 20
197.231
  0
VERTEX
  8
LAYER_1
 10
208.3223
 20
197.1463
  0
VERTEX
  8
LAYER_1
 10
208.2377
 20
197.1463
  0
VERTEX
  8
LAYER_1
 10
208.2377
 20
197.0617
  0
VERTEX
  8
LAYER_1
 10
208.153
 20
197.0617
  0
VERTEX
  8
LAYER_1
 10
208.0683
 20
197.0617
  0
VERTEX
  8
LAYER_1
 10
207.9837
 20
197.0617
  0
VERTEX
  8
LAYER_1
 10
207.9837
 20
197.1463
  0
VERTEX
  8
LAYER_1
 10
207.899
 20
197.1463
  0
VERTEX
  8
LAYER_1
 10
207.899
 20
197.231
  0
SEQEND
  0
POLYLINE
  8
LAYER_1
 40
0.05
 41
0.05
 62
255
 66
1
 10
0
 20
0
 30
0
 70
1
  0
VERTEX
  8
LAYER_1
 10
200.5118
 20
201.7395
  0
VERTEX
  8
LAYER_1
 10
203.6445
 20
201.7395
  0
VERTEX
  8
LAYER_1
 10
203.6445
 20
198.5222
  0
VERTEX
  8
LAYER_1
 10
200.5118
 20
198.5222
  0
SEQEND
  0
TEXT
  8
LAYER_1
 10
200.533
 20
199.0666
 11
200.533
 21
199.0666
 40
3.4028
 41
0.5
  1
60
  0
POLYLINE
  8
LAYER_1
 40
0.1764
 41
0.1764
 66
1
 10
0
 20
0
 30
0
  0
VERTEX
  8
LAYER_1
 10
300.101
 20
188.0023
  0
VERTEX
  8
LAYER_1
 10
300.101
 20
199.009
  0
SEQEND
  0
POLYLINE
  8
LAYER_1
 40
0.1764
 41
0.1764
 66
1
 10
0
 20
0
 30
0
  0
VERTEX
  8
LAYER_1
 10
304.3343
 20
186.9863
  0
VERTEX
  8
LAYER_1
 10
304.3343
 20
199.009
  0
SEQEND
  0
POLYLINE
  8
LAYER_1
 40
0.1764
 41
0.1764
 66
1
 10
0
 20
0
 30
0
  0
VERTEX
  8
LAYER_1
 10
300.101
 20
199.009
  0
VERTEX
  8
LAYER_1
 10
304.3343
 20
199.009
  0
SEQEND
  0
POLYLINE
  8
LAYER_1
 40
0.1764
 41
0.1764
 66
1
 10
0
 20
0
 30
0
 70
1
  0
VERTEX
  8
LAYER_1
 10
300.355
 20
199.009
  0
VERTEX
  8
LAYER_1
 10
300.355
 20
198.9243
  0
VERTEX
  8
LAYER_1
 10
300.2703
 20
198.8397
  0
VERTEX
  8
LAYER_1
 10
300.1857
 20
198.755
  0
VERTEX
  8
LAYER_1
 10
300.101
 20
198.755
  0
VERTEX
  8
LAYER_1
 10
300.0163
 20
198.755
  0
VERTEX
  8
LAYER_1
 10
299.9316
 20
198.8397
  0
VERTEX
  8
LAYER_1
 10
299.847
 20
198.9243
  0
VERTEX
  8
LAYER_1
 10
299.847
 20
199.009
  0
VERTEX
  8
LAYER_1
 10
299.847
 20
199.0937
  0
VERTEX
  8
LAYER_1
 10
299.847
 20
199.1783
  0
VERTEX
  8
LAYER_1
 10
299.9316
 20
199.1783
  0
VERTEX
  8
LAYER_1
 10
299.9316
 20
199.263
  0
VERTEX
  8
LAYER_1
 10
300.0163
 20
199.263
  0
VERTEX
  8
LAYER_1
 10
300.101
 20
199.263
  0
VERTEX
  8
LAYER_1
 10
300.1857
 20
199.263
  0
VERTEX
  8
LAYER_1
 10
300.2703
 20
199.263
  0
VERTEX
  8
LAYER_1
 10
300.2703
 20
199.1783
  0
VERTEX
  8
LAYER_1
 10
300.355
 20
199.1783
  0
VERTEX
  8
LAYER_1
 10
300.355
 20
199.0937
  0
SEQEND
  0
POLYLINE
  8
LAYER_1
 40
0.05
 41
0.05
 66
1
 10
0
 20
0
 30
0
 70
1
  0
VERTEX
  8
LAYER_1
 10
300.3338
 20
199.0302
  0
VERTEX
  8
LAYER_1
 10
300.3338
 20
198.9455
  0
VERTEX
  8
LAYER_1
 10
300.2492
 20
198.8608
  0
VERTEX
  8
LAYER_1
 10
300.1645
 20
198.7762
  0
VERTEX
  8
LAYER_1
 10
300.0798
 20
198.7762
  0
VERTEX
  8
LAYER_1
 10
299.9952
 20
198.7762
  0
VERTEX
  8
LAYER_1
 10
299.9105
 20
198.8608
  0
VERTEX
  8
LAYER_1
 10
299.8258
 20
198.9455
  0
VERTEX
  8
LAYER_1
 10
299.8258
 20
199.0302
  0
VERTEX
  8
LAYER_1
 10
299.8258
 20
199.1148
  0
VERTEX
  8
LAYER_1
 10
299.8258
 20
199.1995
  0
VERTEX
  8
LAYER_1
 10
299.9105
 20
199.1995
  0
VERTEX
  8
LAYER_1
 10
299.9105
 20
199.2842
  0
VERTEX
  8
LAYER_1
 10
299.9952
 20
199.2842
  0
VERTEX
  8
LAYER_1
 10
300.0798
 20
199.2842
  0
VERTEX
  8
LAYER_1
 10
300.1645
 20
199.2842
  0
VERTEX
  8
LAYER_1
 10
300.2492
 20
199.2842
  0
VERTEX
  8
LAYER_1
 10
300.2492
 20
199.1995
  0
VERTEX
  8
LAYER_1
 10
300.3338
 20
199.1995
  0
VERTEX
  8
LAYER_1
 10
300.3338
 20
199.1148
  0
SEQEND
  0
POLYLINE
  8
LAYER_1
 40
0.0847
 41
0.0847
 66
1
 10
0
 20
0
 30
0
 70
1
  0
VERTEX
  8
LAYER_1
 10
300.355
 20
199.009
  0
VERTEX
  8
LAYER_1
 10
300.355
 20
198.9243
  0
VERTEX
  8
LAYER_1
 10
300.2703
 20
198.8397
  0
VERTEX
  8
LAYER_1
 10
300.1857
 20
198.755
  0
VERTEX
  8
LAYER_1
 10
300.101
 20
198.755
  0
VERTEX
  8
LAYER_1
 10
300.0163
 20
198.755
  0
VERTEX
  8
LAYER_1
 10
299.9316
 20
198.8397
  0
VERTEX
  8
LAYER_1
 10
299.847
 20
198.9243
  0
VERTEX
  8
LAYER_1
 10
299.847
 20
199.009
  0
VERTEX
  8
LAYER_1
 10
299.847
 20
199.0937
  0
VERTEX
  8
LAYER_1
 10
299.847
 20
199.1783
  0
VERTEX
  8
LAYER_1
 10
299.9316
 20
199.1783
  0
VERTEX
  8
LAYER_1
 10
299.9316
 20
199.263
  0
VERTEX
  8
LAYER_1
 10
300.0163
 20
199.263
  0
VERTEX
  8
LAYER_1
 10
300.101
 20
199.263
  0
VERTEX
  8
LAYER_1
 10
300.1857
 20
199.263
  0
VERTEX
  8
LAYER_1
 10
300.2703
 20
199.263
  0
VERTEX
  8
LAYER_1
 10
300.2703
 20
199.1783
  0
VERTEX
  8
LAYER_1
 10
300.355
 20
199.1783
  0
VERTEX
  8
LAYER_1
 10
300.355
 20
199.0937
  0
SEQEND
  0
POLYLINE
  8
LAYER_1
 40
0.1764
 41
0.1764
 66
1
 10
0
 20
0
 30
0
 70
1
  0
VERTEX
  8
LAYER_1
 10
304.0803
 20
199.009
  0
VERTEX
  8
LAYER_1
 10
304.0803
 20
199.0937
  0
VERTEX
  8
LAYER_1
 10
304.0803
 20
199.1783
  0
VERTEX
  8
LAYER_1
 10
304.165
 20
199.1783
  0
VERTEX
  8
LAYER_1
 10
304.165
 20
199.263
  0
VERTEX
  8
LAYER_1
 10
304.2497
 20
199.263
  0
VERTEX
  8
LAYER_1
 10
304.3343
 20
199.263
  0
VERTEX
  8
LAYER_1
 10
304.419
 20
199.263
  0
VERTEX
  8
LAYER_1
 10
304.419
 20
199.1783
  0
VERTEX
  8
LAYER_1
 10
304.5037
 20
199.1783
  0
VERTEX
  8
LAYER_1
 10
304.5037
 20
199.0937
  0
VERTEX
  8
LAYER_1
 10
304.5883
 20
199.0937
  0
VERTEX
  8
LAYER_1
 10
304.5883
 20
199.009
  0
VERTEX
  8
LAYER_1
 10
304.5037
 20
198.9243
  0
VERTEX
  8
LAYER_1
 10
304.5037
 20
198.8397
  0
VERTEX
  8
LAYER_1
 10
304.419
 20
198.8397
  0
VERTEX
  8
LAYER_1
 10
304.419
 20
198.755
  0
VERTEX
  8
LAYER_1
 10
304.3343
 20
198.755
  0
VERTEX
  8
LAYER_1
 10
304.2497
 20
198.755
  0
VERTEX
  8
LAYER_1
 10
304.165
 20
198.755
  0
VERTEX
  8
LAYER_1
 10
304.165
 20
198.8397
  0
VERTEX
  8
LAYER_1
 10
304.0803
 20
198.8397
  0
VERTEX
  8
LAYER_1
 10
304.0803
 20
198.9243
  0
SEQEND
  0
POLYLINE
  8
LAYER_1
 40
0.05
 41
0.05
 66
1
 10
0
 20
0
 30
0
 70
1
  0
VERTEX
  8
LAYER_1
 10
304.0592
 20
199.0302
  0
VERTEX
  8
LAYER_1
 10
304.0592
 20
199.1148
  0
VERTEX
  8
LAYER_1
 10
304.0592
 20
199.1995
  0
VERTEX
  8
LAYER_1
 10
304.1438
 20
199.1995
  0
VERTEX
  8
LAYER_1
 10
304.1438
 20
199.2842
  0
VERTEX
  8
LAYER_1
 10
304.2285
 20
199.2842
  0
VERTEX
  8
LAYER_1
 10
304.3132
 20
199.2842
  0
VERTEX
  8
LAYER_1
 10
304.3978
 20
199.2842
  0
VERTEX
  8
LAYER_1
 10
304.3978
 20
199.1995
  0
VERTEX
  8
LAYER_1
 10
304.4825
 20
199.1995
  0
VERTEX
  8
LAYER_1
 10
304.4825
 20
199.1148
  0
VERTEX
  8
LAYER_1
 10
304.5672
 20
199.1148
  0
VERTEX
  8
LAYER_1
 10
304.5672
 20
199.0302
  0
VERTEX
  8
LAYER_1
 10
304.4825
 20
198.9455
  0
VERTEX
  8
LAYER_1
 10
304.4825
 20
198.8608
  0
VERTEX
  8
LAYER_1
 10
304.3978
 20
198.8608
  0
VERTEX
  8
LAYER_1
 10
304.3978
 20
198.7762
  0
VERTEX
  8
LAYER_1
 10
304.3132
 20
198.7762
  0
VERTEX
  8
LAYER_1
 10
304.2285
 20
198.7762
  0
VERTEX
  8
LAYER_1
 10
304.1438
 20
198.7762
  0
VERTEX
  8
LAYER_1
 10
304.1438
 20
198.8608
  0
VERTEX
  8
LAYER_1
 10
304.0592
 20
198.8608
  0
VERTEX
  8
LAYER_1
 10
304.0592
 20
198.9455
  0
SEQEND
  0
POLYLINE
  8
LAYER_1
 40
0.0847
 41
0.0847
 66
1
 10
0
 20
0
 30
0
 70
1
  0
VERTEX
  8
LAYER_1
 10
304.0803
 20
199.009
  0
VERTEX
  8
LAYER_1
 10
304.0803
 20
199.0937
  0
VERTEX
  8
LAYER_1
 10
304.0803
 20
199.1783
  0
VERTEX
  8
LAYER_1
 10
304.165
 20
199.1783
  0
VERTEX
  8
LAYER_1
 10
304.165
 20
199.263
  0
VERTEX
  8
LAYER_1
 10
304.2497
 20
199.263
  0
VERTEX
  8
LAYER_1
 10
304.3343
 20
199.263
  0
VERTEX
  8
LAYER_1
 10
304.419
 20
199.263
  0
VERTEX
  8
LAYER_1
 10
304.419
 20
199.1783
  0
VERTEX
  8
LAYER_1
 10
304.5037
 20
199.1783
  0
VERTEX
  8
LAYER_1
 10
304.5037
 20
199.0937
  0
VERTEX
  8
LAYER_1
 10
304.5883
 20
199.0937
  0
VERTEX
  8
LAYER_1
 10
304.5883
 20
199.009
  0
VERTEX
  8
LAYER_1
 10
304.5037
 20
198.9243
  0
VERTEX
  8
LAYER_1
 10
304.5037
 20
198.8397
  0
VERTEX
  8
LAYER_1
 10
304.419
 20
198.8397
  0
VERTEX
  8
LAYER_1
 10
304.419
 20
198.755
  0
VERTEX
  8
LAYER_1
 10
304.3343
 20
198.755
  0
VERTEX
  8
LAYER_1
 10
304.2497
 20
198.755
  0
VERTEX
  8
LAYER_1
 10
304.165
 20
198.755
  0
VERTEX
  8
LAYER_1
 10
304.165
 20
198.8397
  0
VERTEX
  8
LAYER_1
 10
304.0803
 20
198.8397
  0
VERTEX
  8
LAYER_1
 10
304.0803
 20
198.9243
  0
SEQEND
  0
POLYLINE
  8
LAYER_1
 40
0.05
 41
0.05
 62
255
 66
1
 10
0
 20
0
 30
0
 70
1
  0
VERTEX
  8
LAYER_1
 10
300.5878
 20
203.4328
  0
VERTEX
  8
LAYER_1
 10
303.7205
 20
203.4328
  0
VERTEX
  8
LAYER_1
 10
303.7205
 20
200.2155
  0
VERTEX
  8
LAYER_1
 10
300.5878
 20
200.2155
  0
SEQEND
  0
TEXT
  8
LAYER_1
 10
300.609
 20
200.7598
 11
300.609
 21
200.7598
 40
3.4028
 41
0.5
  1
21
  0
POLYLINE
  8
LAYER_1
 40
0.1764
 41
0.1764
 66
1
 10
0
 20
0
 30
0
  0
VERTEX
  8
LAYER_1
 10
300.101
 20
188.0023
  0
VERTEX
  8
LAYER_1
 10
300.101
 20
193.8443
  0
SEQEND
  0
POLYLINE
  8
LAYER_1
 40
0.1764
 41
0.1764
 66
1
 10
0
 20
0
 30
0
  0
VERTEX
  8
LAYER_1
 10
302.4717
 20
188.0023
  0
VERTEX
  8
LAYER_1
 10
302.4717
 20
193.8443
  0
SEQEND
  0
POLYLINE
  8
LAYER_1
 40
0.1764
 41
0.1764
 66
1
 10
0
 20
0
 30
0
  0
VERTEX
  8
LAYER_1
 10
300.101
 20
193.8443
  0
VERTEX
  8
LAYER_1
 10
302.4717
 20
193.8443
  0
SEQEND
  0
POLYLINE
  8
LAYER_1
 40
0.1764
 41
0.1764
 66
1
 10
0
 20
0
 30
0
 70
1
  0
VERTEX
  8
LAYER_1
 10
300.355
 20
193.8443
  0
VERTEX
  8
LAYER_1
 10
300.355
 20
193.7597
  0
VERTEX
  8
LAYER_1
 10
300.2703
 20
193.7597
  0
VERTEX
  8
LAYER_1
 10
300.2703
 20
193.675
  0
VERTEX
  8
LAYER_1
 10
300.1857
 20
193.675
  0
VERTEX
  8
LAYER_1
 10
300.1857
 20
193.5903
  0
VERTEX
  8
LAYER_1
 10
300.101
 20
193.5903
  0
VERTEX
  8
LAYER_1
 10
300.0163
 20
193.5903
  0
VERTEX
  8
LAYER_1
 10
300.0163
 20
193.675
  0
VERTEX
  8
LAYER_1
 10
299.9316
 20
193.675
  0
VERTEX
  8
LAYER_1
 10
299.9316
 20
193.7597
  0
VERTEX
  8
LAYER_1
 10
299.847
 20
193.7597
  0
VERTEX
  8
LAYER_1
 10
299.847
 20
193.8443
  0
VERTEX
  8
LAYER_1
 10
299.847
 20
193.929
  0
VERTEX
  8
LAYER_1
 10
299.847
 20
194.0137
  0
VERTEX
  8
LAYER_1
 10
299.9316
 20
194.0137
  0
VERTEX
  8
LAYER_1
 10
299.9316
 20
194.0983
  0
VERTEX
  8
LAYER_1
 10
300.0163
 20
194.0983
  0
VERTEX
  8
LAYER_1
 10
300.101
 20
194.0983
  0
VERTEX
  8
LAYER_1
 10
300.1857
 20
194.0983
  0
VERTEX
  8
LAYER_1
 10
300.2703
 20
194.0983
  0
VERTEX
  8
LAYER_1
 10
300.2703
 20
194.0137
  0
VERTEX
  8
LAYER_1
 10
300.355
 20
194.0137
  0
VERTEX
  8
LAYER_1
 10
300.355
 20
193.929
  0
SEQEND
  0
POLYLINE
  8
LAYER_1
 40
0.05
 41
0.05
 66
1
 10
0
 20
0
 30
0
 70
1
  0
VERTEX
  8
LAYER_1
 10
300.3338
 20
193.8655
  0
VERTEX
  8
LAYER_1
 10
300.3338
 20
193.7808
  0
VERTEX
  8
LAYER_1
 10
300.2492
 20
193.7808
  0
VERTEX
  8
LAYER_1
 10
300.2492
 20
193.6962
  0
VERTEX
  8
LAYER_1
 10
300.1645
 20
193.6962
  0
VERTEX
  8
LAYER_1
 10
300.1645
 20
193.6115
  0
VERTEX
  8
LAYER_1
 10
300.0798
 20
193.6115
  0
VERTEX
  8
LAYER_1
 10
299.9952
 20
193.6115
  0
VERTEX
  8
LAYER_1
 10
299.9952
 20
193.6962
  0
VERTEX
  8
LAYER_1
 10
299.9105
 20
193.6962
  0
VERTEX
  8
LAYER_1
 10
299.9105
 20
193.7808
  0
VERTEX
  8
LAYER_1
 10
299.8258
 20
193.7808
  0
VERTEX
  8
LAYER_1
 10
299.8258
 20
193.8655
  0
VERTEX
  8
LAYER_1
 10
299.8258
 20
193.9502
  0
VERTEX
  8
LAYER_1
 10
299.8258
 20
194.0348
  0
VERTEX
  8
LAYER_1
 10
299.9105
 20
194.0348
  0
VERTEX
  8
LAYER_1
 10
299.9105
 20
194.1195
  0
VERTEX
  8
LAYER_1
 10
299.9952
 20
194.1195
  0
VERTEX
  8
LAYER_1
 10
300.0798
 20
194.1195
  0
VERTEX
  8
LAYER_1
 10
300.1645
 20
194.1195
  0
VERTEX
  8
LAYER_1
 10
300.2492
 20
194.1195
  0
VERTEX
  8
LAYER_1
 10
300.2492
 20
194.0348
  0
VERTEX
  8
LAYER_1
 10
300.3338
 20
194.0348
  0
VERTEX
  8
LAYER_1
 10
300.3338
 20
193.9502
  0
SEQEND
  0
POLYLINE
  8
LAYER_1
 40
0.0847
 41
0.0847
 66
1
 10
0
 20
0
 30
0
 70
1
  0
VERTEX
  8
LAYER_1
 10
300.355
 20
193.8443
  0
VERTEX
  8
LAYER_1
 10
300.355
 20
193.7597
  0
VERTEX
  8
LAYER_1
 10
300.2703
 20
193.7597
  0
VERTEX
  8
LAYER_1
 10
300.2703
 20
193.675
  0
VERTEX
  8
LAYER_1
 10
300.1857
 20
193.675
  0
VERTEX
  8
LAYER_1
 10
300.1857
 20
193.5903
  0
VERTEX
  8
LAYER_1
 10
300.101
 20
193.5903
  0
VERTEX
  8
LAYER_1
 10
300.0163
 20
193.5903
  0
VERTEX
  8
LAYER_1
 10
300.0163
 20
193.675
  0
VERTEX
  8
LAYER_1
 10
299.9316
 20
193.675
  0
VERTEX
  8
LAYER_1
 10
299.9316
 20
193.7597
  0
VERTEX
  8
LAYER_1
 10
299.847
 20
193.7597
  0
VERTEX
  8
LAYER_1
 10
299.847
 20
193.8443
  0
VERTEX
  8
LAYER_1
 10
299.847
 20
193.929
  0
VERTEX
  8
LAYER_1
 10
299.847
 20
194.0137
  0
VERTEX
  8
LAYER_1
 10
299.9316
 20
194.0137
  0
VERTEX
  8
LAYER_1
 10
299.9316
 20
194.0983
  0
VERTEX
  8
LAYER_1
 10
300.0163
 20
194.0983
  0
VERTEX
  8
LAYER_1
 10
300.101
 20
194.0983
  0
VERTEX
  8
LAYER_1
 10
300.1857
 20
194.0983
  0
VERTEX
  8
LAYER_1
 10
300.2703
 20
194.0983
  0
VERTEX
  8
LAYER_1
 10
300.2703
 20
194.0137
  0
VERTEX
  8
LAYER_1
 10
300.355
 20
194.0137
  0
VERTEX
  8
LAYER_1
 10
300.355
 20
193.929
  0
SEQEND
  0
POLYLINE
  8
LAYER_1
 40
0.1764
 41
0.1764
 66
1
 10
0
 20
0
 30
0
 70
1
  0
VERTEX
  8
LAYER_1
 10
302.2177
 20
193.8443
  0
VERTEX
  8
LAYER_1
 10
302.2177
 20
193.929
  0
VERTEX
  8
LAYER_1
 10
302.3023
 20
193.929
  0
VERTEX
  8
LAYER_1
 10
302.3023
 20
194.0137
  0
VERTEX
  8
LAYER_1
 10
302.3023
 20
194.0983
  0
VERTEX
  8
LAYER_1
 10
302.387
 20
194.0983
  0
VERTEX
  8
LAYER_1
 10
302.4717
 20
194.0983
  0
VERTEX
  8
LAYER_1
 10
302.5563
 20
194.0983
  0
VERTEX
  8
LAYER_1
 10
302.641
 20
194.0983
  0
VERTEX
  8
LAYER_1
 10
302.641
 20
194.0137
  0
VERTEX
  8
LAYER_1
 10
302.7257
 20
194.0137
  0
VERTEX
  8
LAYER_1
 10
302.7257
 20
193.929
  0
VERTEX
  8
LAYER_1
 10
302.7257
 20
193.8443
  0
VERTEX
  8
LAYER_1
 10
302.7257
 20
193.7597
  0
VERTEX
  8
LAYER_1
 10
302.7257
 20
193.675
  0
VERTEX
  8
LAYER_1
 10
302.641
 20
193.675
  0
VERTEX
  8
LAYER_1
 10
302.5563
 20
193.675
  0
VERTEX
  8
LAYER_1
 10
302.5563
 20
193.5903
  0
VERTEX
  8
LAYER_1
 10
302.4717
 20
193.5903
  0
VERTEX
  8
LAYER_1
 10
302.387
 20
193.5903
  0
VERTEX
  8
LAYER_1
 10
302.387
 20
193.675
  0
VERTEX
  8
LAYER_1
 10
302.3023
 20
193.675
  0
VERTEX
  8
LAYER_1
 10
302.3023
 20
193.7597
  0
SEQEND
  0
POLYLINE
  8
LAYER_1
 40
0.05
 41
0.05
 66
1
 10
0
 20
0
 30
0
 70
1
  0
VERTEX
  8
LAYER_1
 10
302.1965
 20
193.8655
  0
VERTEX
  8
LAYER_1
 10
302.1965
 20
193.9502
  0
VERTEX
  8
LAYER_1
 10
302.2812
 20
193.9502
  0
VERTEX
  8
LAYER_1
 10
302.2812
 20
194.0348
  0
VERTEX
  8
LAYER_1
 10
302.2812
 20
194.1195
  0
VERTEX
  8
LAYER_1
 10
302.3658
 20
194.1195
  0
VERTEX
  8
LAYER_1
 10
302.4505
 20
194.1195
  0
VERTEX
  8
LAYER_1
 10
302.5352
 20
194.1195
  0
VERTEX
  8
LAYER_1
 10
302.6198
 20
194.1195
  0
VERTEX
  8
LAYER_1
 10
302.6198
 20
194.0348
  0
VERTEX
  8
LAYER_1
 10
302.7045
 20
194.0348
  0
VERTEX
  8
LAYER_1
 10
302.7045
 20
193.9502
  0
VERTEX
  8
LAYER_1
 10
302.7045
 20
193.8655
  0
VERTEX
  8
LAYER_1
 10
302.7045
 20
193.7808
  0
VERTEX
  8
LAYER_1
 10
302.7045
 20
193.6962
  0
VERTEX
  8
LAYER_1
 10
302.6198
 20
193.6962
  0
VERTEX
  8
LAYER_1
 10
302.5352
 20
193.6962
  0
VERTEX
  8
LAYER_1
 10
302.5352
 20
193.6115
  0
VERTEX
  8
LAYER_1
 10
302.4505
 20
193.6115
  0
VERTEX
  8
LAYER_1
 10
302.3658
 20
193.6115
  0
VERTEX
  8
LAYER_1
 10
302.3658
 20
193.6962
  0
VERTEX
  8
LAYER_1
 10
302.2812
 20
193.6962
  0
VERTEX
  8
LAYER_1
 10
302.2812
 20
193.7808
  0
SEQEND
  0
POLYLINE
  8
LAYER_1
 40
0.0847
 41
0.0847
 66
1
 10
0
 20
0
 30
0
 70
1
  0
VERTEX
  8
LAYER_1
 10
302.2177
 20
193.8443
  0
VERTEX
  8
LAYER_1
 10
302.2177
 20
193.929
  0
VERTEX
  8
LAYER_1
 10
302.3023
 20
193.929
  0
VERTEX
  8
LAYER_1
 10
302.3023
 20
194.0137
  0
VERTEX
  8
LAYER_1
 10
302.3023
 20
194.0983
  0
VERTEX
  8
LAYER_1
 10
302.387
 20
194.0983
  0
VERTEX
  8
LAYER_1
 10
302.4717
 20
194.0983
  0
VERTEX
  8
LAYER_1
 10
302.5563
 20
194.0983
  0
VERTEX
  8
LAYER_1
 10
302.641
 20
194.0983
  0
VERTEX
  8
LAYER_1
 10
302.641
 20
194.0137
  0
VERTEX
  8
LAYER_1
 10
302.7257
 20
194.0137
  0
VERTEX
  8
LAYER_1
 10
302.7257
 20
193.929
  0
VERTEX
  8
LAYER_1
 10
302.7257
 20
193.8443
  0
VERTEX
  8
LAYER_1
 10
302.7257
 20
193.7597
  0
VERTEX
  8
LAYER_1
 10
302.7257
 20
193.675
  0
VERTEX
  8
LAYER_1
 10
302.641
 20
193.675
  0
VERTEX
  8
LAYER_1
 10
302.5563
 20
193.675
  0
VERTEX
  8
LAYER_1
 10
302.5563
 20
193.5903
  0
VERTEX
  8
LAYER_1
 10
302.4717
 20
193.5903
  0
VERTEX
  8
LAYER_1
 10
302.387
 20
193.5903
  0
VERTEX
  8
LAYER_1
 10
302.387
 20
193.675
  0
VERTEX
  8
LAYER_1
 10
302.3023
 20
193.675
  0
VERTEX
  8
LAYER_1
 10
302.3023
 20
193.7597
  0
SEQEND
  0
POLYLINE
  8
LAYER_1
 40
0.05
 41
0.05
 62
255
 66
1
 10
0
 20
0
 30
0
 70
1
  0
VERTEX
  8
LAYER_1
 10
299.7412
 20
198.2682
  0
VERTEX
  8
LAYER_1
 10
302.8738
 20
198.2682
  0
VERTEX
  8
LAYER_1
 10
302.8738
 20
195.0508
  0
VERTEX
  8
LAYER_1
 10
299.7412
 20
195.0508
  0
SEQEND
  0
TEXT
  8
LAYER_1
 10
299.7622
 20
195.5953
 11
299.7622
 21
195.5953
 40
3.4028
 41
0.5
  1
12
  0
POLYLINE
  8
LAYER_1
 40
0.1764
 41
0.1764
 66
1
 10
0
 20
0
 30
0
  0
VERTEX
  8
LAYER_1
 10
299.085
 20
186.9863
  0
VERTEX
  8
LAYER_1
 10
289.6023
 20
186.9863
  0
SEQEND
  0
POLYLINE
  8
LAYER_1
 40
0.1764
 41
0.1764
 66
1
 10
0
 20
0
 30
0
  0
VERTEX
  8
LAYER_1
 10
299.085
 20
111.0403
  0
VERTEX
  8
LAYER_1
 10
289.6023
 20
111.0403
  0
SEQEND
  0
POLYLINE
  8
LAYER_1
 40
0.1764
 41
0.1764
 66
1
 10
0
 20
0
 30
0
  0
VERTEX
  8
LAYER_1
 10
289.6023
 20
186.9863
  0
VERTEX
  8
LAYER_1
 10
289.6023
 20
111.0403
  0
SEQEND
  0
POLYLINE
  8
LAYER_1
 40
0.1764
 41
0.1764
 66
1
 10
0
 20
0
 30
0
 70
1
  0
VERTEX
  8
LAYER_1
 10
289.6023
 20
186.7323
  0
VERTEX
  8
LAYER_1
 10
289.5177
 20
186.817
  0
VERTEX
  8
LAYER_1
 10
289.433
 20
186.817
  0
VERTEX
  8
LAYER_1
 10
289.433
 20
186.9017
  0
VERTEX
  8
LAYER_1
 10
289.3483
 20
186.9017
  0
VERTEX
  8
LAYER_1
 10
289.3483
 20
186.9863
  0
VERTEX
  8
LAYER_1
 10
289.3483
 20
187.071
  0
VERTEX
  8
LAYER_1
 10
289.3483
 20
187.1557
  0
VERTEX
  8
LAYER_1
 10
289.433
 20
187.1557
  0
VERTEX
  8
LAYER_1
 10
289.433
 20
187.2403
  0
VERTEX
  8
LAYER_1
 10
289.5177
 20
187.2403
  0
VERTEX
  8
LAYER_1
 10
289.6023
 20
187.2403
  0
VERTEX
  8
LAYER_1
 10
289.687
 20
187.2403
  0
VERTEX
  8
LAYER_1
 10
289.7717
 20
187.2403
  0
VERTEX
  8
LAYER_1
 10
289.7717
 20
187.1557
  0
VERTEX
  8
LAYER_1
 10
289.8563
 20
187.1557
  0
VERTEX
  8
LAYER_1
 10
289.8563
 20
187.071
  0
VERTEX
  8
LAYER_1
 10
289.8563
 20
186.9863
  0
VERTEX
  8
LAYER_1
 10
289.8563
 20
186.9017
  0
VERTEX
  8
LAYER_1
 10
289.7717
 20
186.9017
  0
VERTEX
  8
LAYER_1
 10
289.7717
 20
186.817
  0
VERTEX
  8
LAYER_1
 10
289.687
 20
186.817
  0
VERTEX
  8
LAYER_1
 10
289.6023
 20
186.817
  0
SEQEND
  0
POLYLINE
  8
LAYER_1
 40
0.05
 41
0.05
 66
1
 10
0
 20
0
 30
0
 70
1
  0
VERTEX
  8
LAYER_1
 10
289.5812
 20
186.7535
  0
VERTEX
  8
LAYER_1
 10
289.4965
 20
186.8382
  0
VERTEX
  8
LAYER_1
 10
289.4118
 20
186.8382
  0
VERTEX
  8
LAYER_1
 10
289.4118
 20
186.9228
  0
VERTEX
  8
LAYER_1
 10
289.3272
 20
186.9228
  0
VERTEX
  8
LAYER_1
 10
289.3272
 20
187.0075
  0
VERTEX
  8
LAYER_1
 10
289.3272
 20
187.0922
  0
VERTEX
  8
LAYER_1
 10
289.3272
 20
187.1768
  0
VERTEX
  8
LAYER_1
 10
289.4118
 20
187.1768
  0
VERTEX
  8
LAYER_1
 10
289.4118
 20
187.2615
  0
VERTEX
  8
LAYER_1
 10
289.4965
 20
187.2615
  0
VERTEX
  8
LAYER_1
 10
289.5812
 20
187.2615
  0
VERTEX
  8
LAYER_1
 10
289.6658
 20
187.2615
  0
VERTEX
  8
LAYER_1
 10
289.7505
 20
187.2615
  0
VERTEX
  8
LAYER_1
 10
289.7505
 20
187.1768
  0
VERTEX
  8
LAYER_1
 10
289.8352
 20
187.1768
  0
VERTEX
  8
LAYER_1
 10
289.8352
 20
187.0922
  0
VERTEX
  8
LAYER_1
 10
289.8352
 20
187.0075
  0
VERTEX
  8
LAYER_1
 10
289.8352
 20
186.9228
  0
VERTEX
  8
LAYER_1
 10
289.7505
 20
186.9228
  0
VERTEX
  8
LAYER_1
 10
289.7505
 20
186.8382
  0
VERTEX
  8
LAYER_1
 10
289.6658
 20
186.8382
  0
VERTEX
  8
LAYER_1
 10
289.5812
 20
186.8382
  0
SEQEND
  0
POLYLINE
  8
LAYER_1
 40
0.0847
 41
0.0847
 66
1
 10
0
 20
0
 30
0
 70
1
  0
VERTEX
  8
LAYER_1
 10
289.6023
 20
186.7323
  0
VERTEX
  8
LAYER_1
 10
289.5177
 20
186.817
  0
VERTEX
  8
LAYER_1
 10
289.433
 20
186.817
  0
VERTEX
  8
LAYER_1
 10
289.433
 20
186.9017
  0
VERTEX
  8
LAYER_1
 10
289.3483
 20
186.9017
  0
VERTEX
  8
LAYER_1
 10
289.3483
 20
186.9863
  0
VERTEX
  8
LAYER_1
 10
289.3483
 20
187.071
  0
VERTEX
  8
LAYER_1
 10
289.3483
 20
187.1557
  0
VERTEX
  8
LAYER_1
 10
289.433
 20
187.1557
  0
VERTEX
  8
LAYER_1
 10
289.433
 20
187.2403
  0
VERTEX
  8
LAYER_1
 10
289.5177
 20
187.2403
  0
VERTEX
  8
LAYER_1
 10
289.6023
 20
187.2403
  0
VERTEX
  8
LAYER_1
 10
289.687
 20
187.2403
  0
VERTEX
  8
LAYER_1
 10
289.7717
 20
187.2403
  0
VERTEX
  8
LAYER_1
 10
289.7717
 20
187.1557
  0
VERTEX
  8
LAYER_1
 10
289.8563
 20
187.1557
  0
VERTEX
  8
LAYER_1
 10
289.8563
 20
187.071
  0
VERTEX
  8
LAYER_1
 10
289.8563
 20
186.9863
  0
VERTEX
  8
LAYER_1
 10
289.8563
 20
186.9017
  0
VERTEX
  8
LAYER_1
 10
289.7717
 20
186.9017
  0
VERTEX
  8
LAYER_1
 10
289.7717
 20
186.817
  0
VERTEX
  8
LAYER_1
 10
289.687
 20
186.817
  0
VERTEX
  8
LAYER_1
 10
289.6023
 20
186.817
  0
SEQEND
  0
POLYLINE
  8
LAYER_1
 40
0.1764
 41
0.1764
 66
1
 10
0
 20
0
 30
0
 70
1
  0
VERTEX
  8
LAYER_1
 10
289.6023
 20
111.2943
  0
VERTEX
  8
LAYER_1
 10
289.687
 20
111.2943
  0
VERTEX
  8
LAYER_1
 10
289.687
 20
111.2097
  0
VERTEX
  8
LAYER_1
 10
289.7717
 20
111.2097
  0
VERTEX
  8
LAYER_1
 10
289.7717
 20
111.125
  0
VERTEX
  8
LAYER_1
 10
289.8563
 20
111.125
  0
VERTEX
  8
LAYER_1
 10
289.8563
 20
111.0403
  0
VERTEX
  8
LAYER_1
 10
289.8563
 20
110.9557
  0
VERTEX
  8
LAYER_1
 10
289.7717
 20
110.871
  0
VERTEX
  8
LAYER_1
 10
289.7717
 20
110.7863
  0
VERTEX
  8
LAYER_1
 10
289.687
 20
110.7863
  0
VERTEX
  8
LAYER_1
 10
289.6023
 20
110.7863
  0
VERTEX
  8
LAYER_1
 10
289.5177
 20
110.7863
  0
VERTEX
  8
LAYER_1
 10
289.433
 20
110.7863
  0
VERTEX
  8
LAYER_1
 10
289.433
 20
110.871
  0
VERTEX
  8
LAYER_1
 10
289.3483
 20
110.871
  0
VERTEX
  8
LAYER_1
 10
289.3483
 20
110.9557
  0
VERTEX
  8
LAYER_1
 10
289.3483
 20
111.0403
  0
VERTEX
  8
LAYER_1
 10
289.3483
 20
111.125
  0
VERTEX
  8
LAYER_1
 10
289.433
 20
111.2097
  0
VERTEX
  8
LAYER_1
 10
289.5177
 20
111.2097
  0
VERTEX
  8
LAYER_1
 10
289.5177
 20
111.2943
  0
SEQEND
  0
POLYLINE
  8
LAYER_1
 40
0.05
 41
0.05
 66
1
 10
0
 20
0
 30
0
 70
1
  0
VERTEX
  8
LAYER_1
 10
289.5812
 20
111.3155
  0
VERTEX
  8
LAYER_1
 10
289.6658
 20
111.3155
  0
VERTEX
  8
LAYER_1
 10
289.6658
 20
111.2308
  0
VERTEX
  8
LAYER_1
 10
289.7505
 20
111.2308
  0
VERTEX
  8
LAYER_1
 10
289.7505
 20
111.1462
  0
VERTEX
  8
LAYER_1
 10
289.8352
 20
111.1462
  0
VERTEX
  8
LAYER_1
 10
289.8352
 20
111.0615
  0
VERTEX
  8
LAYER_1
 10
289.8352
 20
110.9768
  0
VERTEX
  8
LAYER_1
 10
289.7505
 20
110.8922
  0
VERTEX
  8
LAYER_1
 10
289.7505
 20
110.8075
  0
VERTEX
  8
LAYER_1
 10
289.6658
 20
110.8075
  0
VERTEX
  8
LAYER_1
 10
289.5812
 20
110.8075
  0
VERTEX
  8
LAYER_1
 10
289.4965
 20
110.8075
  0
VERTEX
  8
LAYER_1
 10
289.4118
 20
110.8075
  0
VERTEX
  8
LAYER_1
 10
289.4118
 20
110.8922
  0
VERTEX
  8
LAYER_1
 10
289.3272
 20
110.8922
  0
VERTEX
  8
LAYER_1
 10
289.3272
 20
110.9768
  0
VERTEX
  8
LAYER_1
 10
289.3272
 20
111.0615
  0
VERTEX
  8
LAYER_1
 10
289.3272
 20
111.1462
  0
VERTEX
  8
LAYER_1
 10
289.4118
 20
111.2308
  0
VERTEX
  8
LAYER_1
 10
289.4965
 20
111.2308
  0
VERTEX
  8
LAYER_1
 10
289.4965
 20
111.3155
  0
SEQEND
  0
POLYLINE
  8
LAYER_1
 40
0.0847
 41
0.0847
 66
1
 10
0
 20
0
 30
0
 70
1
  0
VERTEX
  8
LAYER_1
 10
289.6023
 20
111.2943
  0
VERTEX
  8
LAYER_1
 10
289.687
 20
111.2943
  0
VERTEX
  8
LAYER_1
 10
289.687
 20
111.2097
  0
VERTEX
  8
LAYER_1
 10
289.7717
 20
111.2097
  0
VERTEX
  8
LAYER_1
 10
289.7717
 20
111.125
  0
VERTEX
  8
LAYER_1
 10
289.8563
 20
111.125
  0
VERTEX
  8
LAYER_1
 10
289.8563
 20
111.0403
  0
VERTEX
  8
LAYER_1
 10
289.8563
 20
110.9557
  0
VERTEX
  8
LAYER_1
 10
289.7717
 20
110.871
  0
VERTEX
  8
LAYER_1
 10
289.7717
 20
110.7863
  0
VERTEX
  8
LAYER_1
 10
289.687
 20
110.7863
  0
VERTEX
  8
LAYER_1
 10
289.6023
 20
110.7863
  0
VERTEX
  8
LAYER_1
 10
289.5177
 20
110.7863
  0
VERTEX
  8
LAYER_1
 10
289.433
 20
110.7863
  0
VERTEX
  8
LAYER_1
 10
289.433
 20
110.871
  0
VERTEX
  8
LAYER_1
 10
289.3483
 20
110.871
  0
VERTEX
  8
LAYER_1
 10
289.3483
 20
110.9557
  0
VERTEX
  8
LAYER_1
 10
289.3483
 20
111.0403
  0
VERTEX
  8
LAYER_1
 10
289.3483
 20
111.125
  0
VERTEX
  8
LAYER_1
 10
289.433
 20
111.2097
  0
VERTEX
  8
LAYER_1
 10
289.5177
 20
111.2097
  0
VERTEX
  8
LAYER_1
 10
289.5177
 20
111.2943
  0
SEQEND
  0
POLYLINE
  8
LAYER_1
 40
0.05
 41
0.05
 62
255
 66
1
 10
0
 20
0
 30
0
 70
1
  0
VERTEX
  8
LAYER_1
 10
285.1785
 20
146.7062
  0
VERTEX
  8
LAYER_1
 10
285.1785
 20
151.3628
  0
VERTEX
  8
LAYER_1
 10
288.3958
 20
151.3628
  0
VERTEX
  8
LAYER_1
 10
288.3958
 20
146.7062
  0
SEQEND
  0
TEXT
  8
LAYER_1
 10
287.8515
 20
146.6853
 11
287.8515
 21
146.6853
 40
3.4028
 41
0.5
 50
89.99999999
  1
380
  0
POLYLINE
  8
LAYER_1
 40
0.1764
 41
0.1764
 66
1
 10
0
 20
0
 30
0
  0
VERTEX
  8
LAYER_1
 10
305.2656
 20
186.055
  0
VERTEX
  8
LAYER_1
 10
315.1717
 20
186.055
  0
SEQEND
  0
POLYLINE
  8
LAYER_1
 40
0.1764
 41
0.1764
 66
1
 10
0
 20
0
 30
0
  0
VERTEX
  8
LAYER_1
 10
305.2656
 20
112.0563
  0
VERTEX
  8
LAYER_1
 10
315.1717
 20
112.0563
  0
SEQEND
  0
POLYLINE
  8
LAYER_1
 40
0.1764
 41
0.1764
 66
1
 10
0
 20
0
 30
0
  0
VERTEX
  8
LAYER_1
 10
315.1717
 20
186.055
  0
VERTEX
  8
LAYER_1
 10
315.1717
 20
112.0563
  0
SEQEND
  0
POLYLINE
  8
LAYER_1
 40
0.1764
 41
0.1764
 66
1
 10
0
 20
0
 30
0
 70
1
  0
VERTEX
  8
LAYER_1
 10
315.1717
 20
185.801
  0
VERTEX
  8
LAYER_1
 10
315.087
 20
185.801
  0
VERTEX
  8
LAYER_1
 10
315.0023
 20
185.801
  0
VERTEX
  8
LAYER_1
 10
315.0023
 20
185.8857
  0
VERTEX
  8
LAYER_1
 10
314.9177
 20
185.9703
  0
VERTEX
  8
LAYER_1
 10
314.9177
 20
186.055
  0
VERTEX
  8
LAYER_1
 10
314.9177
 20
186.1397
  0
VERTEX
  8
LAYER_1
 10
315.0023
 20
186.1397
  0
VERTEX
  8
LAYER_1
 10
315.0023
 20
186.2243
  0
VERTEX
  8
LAYER_1
 10
315.087
 20
186.2243
  0
VERTEX
  8
LAYER_1
 10
315.1717
 20
186.2243
  0
VERTEX
  8
LAYER_1
 10
315.1717
 20
186.309
  0
VERTEX
  8
LAYER_1
 10
315.2563
 20
186.309
  0
VERTEX
  8
LAYER_1
 10
315.2563
 20
186.2243
  0
VERTEX
  8
LAYER_1
 10
315.341
 20
186.2243
  0
VERTEX
  8
LAYER_1
 10
315.4257
 20
186.1397
  0
VERTEX
  8
LAYER_1
 10
315.4257
 20
186.055
  0
VERTEX
  8
LAYER_1
 10
315.4257
 20
185.9703
  0
VERTEX
  8
LAYER_1
 10
315.4257
 20
185.8857
  0
VERTEX
  8
LAYER_1
 10
315.341
 20
185.8857
  0
VERTEX
  8
LAYER_1
 10
315.341
 20
185.801
  0
VERTEX
  8
LAYER_1
 10
315.2563
 20
185.801
  0
SEQEND
  0
POLYLINE
  8
LAYER_1
 40
0.05
 41
0.05
 66
1
 10
0
 20
0
 30
0
 70
1
  0
VERTEX
  8
LAYER_1
 10
315.1505
 20
185.8222
  0
VERTEX
  8
LAYER_1
 10
315.0658
 20
185.8222
  0
VERTEX
  8
LAYER_1
 10
314.9812
 20
185.8222
  0
VERTEX
  8
LAYER_1
 10
314.9812
 20
185.9068
  0
VERTEX
  8
LAYER_1
 10
314.8965
 20
185.9915
  0
VERTEX
  8
LAYER_1
 10
314.8965
 20
186.0762
  0
VERTEX
  8
LAYER_1
 10
314.8965
 20
186.1608
  0
VERTEX
  8
LAYER_1
 10
314.9812
 20
186.1608
  0
VERTEX
  8
LAYER_1
 10
314.9812
 20
186.2455
  0
VERTEX
  8
LAYER_1
 10
315.0658
 20
186.2455
  0
VERTEX
  8
LAYER_1
 10
315.1505
 20
186.2455
  0
VERTEX
  8
LAYER_1
 10
315.1505
 20
186.3302
  0
VERTEX
  8
LAYER_1
 10
315.2352
 20
186.3302
  0
VERTEX
  8
LAYER_1
 10
315.2352
 20
186.2455
  0
VERTEX
  8
LAYER_1
 10
315.3198
 20
186.2455
  0
VERTEX
  8
LAYER_1
 10
315.4045
 20
186.1608
  0
VERTEX
  8
LAYER_1
 10
315.4045
 20
186.0762
  0
VERTEX
  8
LAYER_1
 10
315.4045
 20
185.9915
  0
VERTEX
  8
LAYER_1
 10
315.4045
 20
185.9068
  0
VERTEX
  8
LAYER_1
 10
315.3198
 20
185.9068
  0
VERTEX
  8
LAYER_1
 10
315.3198
 20
185.8222
  0
VERTEX
  8
LAYER_1
 10
315.2352
 20
185.8222
  0
SEQEND
  0
POLYLINE
  8
LAYER_1
 40
0.0847
 41
0.0847
 66
1
 10
0
 20
0
 30
0
 70
1
  0
VERTEX
  8
LAYER_1
 10
315.1717
 20
185.801
  0
VERTEX
  8
LAYER_1
 10
315.087
 20
185.801
  0
VERTEX
  8
LAYER_1
 10
315.0023
 20
185.801
  0
VERTEX
  8
LAYER_1
 10
315.0023
 20
185.8857
  0
VERTEX
  8
LAYER_1
 10
314.9177
 20
185.9703
  0
VERTEX
  8
LAYER_1
 10
314.9177
 20
186.055
  0
VERTEX
  8
LAYER_1
 10
314.9177
 20
186.1397
  0
VERTEX
  8
LAYER_1
 10
315.0023
 20
186.1397
  0
VERTEX
  8
LAYER_1
 10
315.0023
 20
186.2243
  0
VERTEX
  8
LAYER_1
 10
315.087
 20
186.2243
  0
VERTEX
  8
LAYER_1
 10
315.1717
 20
186.2243
  0
VERTEX
  8
LAYER_1
 10
315.1717
 20
186.309
  0
VERTEX
  8
LAYER_1
 10
315.2563
 20
186.309
  0
VERTEX
  8
LAYER_1
 10
315.2563
 20
186.2243
  0
VERTEX
  8
LAYER_1
 10
315.341
 20
186.2243
  0
VERTEX
  8
LAYER_1
 10
315.4257
 20
186.1397
  0
VERTEX
  8
LAYER_1
 10
315.4257
 20
186.055
  0
VERTEX
  8
LAYER_1
 10
315.4257
 20
185.9703
  0
VERTEX
  8
LAYER_1
 10
315.4257
 20
185.8857
  0
VERTEX
  8
LAYER_1
 10
315.341
 20
185.8857
  0
VERTEX
  8
LAYER_1
 10
315.341
 20
185.801
  0
VERTEX
  8
LAYER_1
 10
315.2563
 20
185.801
  0
SEQEND
  0
POLYLINE
  8
LAYER_1
 40
0.1764
 41
0.1764
 66
1
 10
0
 20
0
 30
0
 70
1
  0
VERTEX
  8
LAYER_1
 10
315.1717
 20
112.3103
  0
VERTEX
  8
LAYER_1
 10
315.2563
 20
112.3103
  0
VERTEX
  8
LAYER_1
 10
315.2563
 20
112.2257
  0
VERTEX
  8
LAYER_1
 10
315.341
 20
112.2257
  0
VERTEX
  8
LAYER_1
 10
315.4257
 20
112.141
  0
VERTEX
  8
LAYER_1
 10
315.4257
 20
112.0563
  0
VERTEX
  8
LAYER_1
 10
315.4257
 20
111.9717
  0
VERTEX
  8
LAYER_1
 10
315.4257
 20
111.887
  0
VERTEX
  8
LAYER_1
 10
315.341
 20
111.887
  0
VERTEX
  8
LAYER_1
 10
315.341
 20
111.8023
  0
VERTEX
  8
LAYER_1
 10
315.2563
 20
111.8023
  0
VERTEX
  8
LAYER_1
 10
315.1717
 20
111.8023
  0
VERTEX
  8
LAYER_1
 10
315.087
 20
111.8023
  0
VERTEX
  8
LAYER_1
 10
315.0023
 20
111.8023
  0
VERTEX
  8
LAYER_1
 10
315.0023
 20
111.887
  0
VERTEX
  8
LAYER_1
 10
314.9177
 20
111.9717
  0
VERTEX
  8
LAYER_1
 10
314.9177
 20
112.0563
  0
VERTEX
  8
LAYER_1
 10
314.9177
 20
112.141
  0
VERTEX
  8
LAYER_1
 10
315.0023
 20
112.141
  0
VERTEX
  8
LAYER_1
 10
315.0023
 20
112.2257
  0
VERTEX
  8
LAYER_1
 10
315.087
 20
112.2257
  0
VERTEX
  8
LAYER_1
 10
315.1717
 20
112.2257
  0
SEQEND
  0
POLYLINE
  8
LAYER_1
 40
0.05
 41
0.05
 66
1
 10
0
 20
0
 30
0
 70
1
  0
VERTEX
  8
LAYER_1
 10
315.1505
 20
112.3315
  0
VERTEX
  8
LAYER_1
 10
315.2352
 20
112.3315
  0
VERTEX
  8
LAYER_1
 10
315.2352
 20
112.2468
  0
VERTEX
  8
LAYER_1
 10
315.3198
 20
112.2468
  0
VERTEX
  8
LAYER_1
 10
315.4045
 20
112.1622
  0
VERTEX
  8
LAYER_1
 10
315.4045
 20
112.0775
  0
VERTEX
  8
LAYER_1
 10
315.4045
 20
111.9928
  0
VERTEX
  8
LAYER_1
 10
315.4045
 20
111.9082
  0
VERTEX
  8
LAYER_1
 10
315.3198
 20
111.9082
  0
VERTEX
  8
LAYER_1
 10
315.3198
 20
111.8235
  0
VERTEX
  8
LAYER_1
 10
315.2352
 20
111.8235
  0
VERTEX
  8
LAYER_1
 10
315.1505
 20
111.8235
  0
VERTEX
  8
LAYER_1
 10
315.0658
 20
111.8235
  0
VERTEX
  8
LAYER_1
 10
314.9812
 20
111.8235
  0
VERTEX
  8
LAYER_1
 10
314.9812
 20
111.9082
  0
VERTEX
  8
LAYER_1
 10
314.8965
 20
111.9928
  0
VERTEX
  8
LAYER_1
 10
314.8965
 20
112.0775
  0
VERTEX
  8
LAYER_1
 10
314.8965
 20
112.1622
  0
VERTEX
  8
LAYER_1
 10
314.9812
 20
112.1622
  0
VERTEX
  8
LAYER_1
 10
314.9812
 20
112.2468
  0
VERTEX
  8
LAYER_1
 10
315.0658
 20
112.2468
  0
VERTEX
  8
LAYER_1
 10
315.1505
 20
112.2468
  0
SEQEND
  0
POLYLINE
  8
LAYER_1
 40
0.0847
 41
0.0847
 66
1
 10
0
 20
0
 30
0
 70
1
  0
VERTEX
  8
LAYER_1
 10
315.1717
 20
112.3103
  0
VERTEX
  8
LAYER_1
 10
315.2563
 20
112.3103
  0
VERTEX
  8
LAYER_1
 10
315.2563
 20
112.2257
  0
VERTEX
  8
LAYER_1
 10
315.341
 20
112.2257
  0
VERTEX
  8
LAYER_1
 10
315.4257
 20
112.141
  0
VERTEX
  8
LAYER_1
 10
315.4257
 20
112.0563
  0
VERTEX
  8
LAYER_1
 10
315.4257
 20
111.9717
  0
VERTEX
  8
LAYER_1
 10
315.4257
 20
111.887
  0
VERTEX
  8
LAYER_1
 10
315.341
 20
111.887
  0
VERTEX
  8
LAYER_1
 10
315.341
 20
111.8023
  0
VERTEX
  8
LAYER_1
 10
315.2563
 20
111.8023
  0
VERTEX
  8
LAYER_1
 10
315.1717
 20
111.8023
  0
VERTEX
  8
LAYER_1
 10
315.087
 20
111.8023
  0
VERTEX
  8
LAYER_1
 10
315.0023
 20
111.8023
  0
VERTEX
  8
LAYER_1
 10
315.0023
 20
111.887
  0
VERTEX
  8
LAYER_1
 10
314.9177
 20
111.9717
  0
VERTEX
  8
LAYER_1
 10
314.9177
 20
112.0563
  0
VERTEX
  8
LAYER_1
 10
314.9177
 20
112.141
  0
VERTEX
  8
LAYER_1
 10
315.0023
 20
112.141
  0
VERTEX
  8
LAYER_1
 10
315.0023
 20
112.2257
  0
VERTEX
  8
LAYER_1
 10
315.087
 20
112.2257
  0
VERTEX
  8
LAYER_1
 10
315.1717
 20
112.2257
  0
SEQEND
  0
POLYLINE
  8
LAYER_1
 40
0.05
 41
0.05
 62
255
 66
1
 10
0
 20
0
 30
0
 70
1
  0
VERTEX
  8
LAYER_1
 10
310.7478
 20
146.7062
  0
VERTEX
  8
LAYER_1
 10
310.7478
 20
151.3628
  0
VERTEX
  8
LAYER_1
 10
313.9652
 20
151.3628
  0
VERTEX
  8
LAYER_1
 10
313.9652
 20
146.7062
  0
SEQEND
  0
TEXT
  8
LAYER_1
 10
313.4207
 20
146.6853
 11
313.4207
 21
146.6853
 40
3.4028
 41
0.5
 50
89.99999999
  1
370
  0
POLYLINE
  8
LAYER_1
 40
0.1764
 41
0.1764
 66
1
 10
0
 20
0
 30
0
  0
VERTEX
  8
LAYER_1
 10
305.2656
 20
186.055
  0
VERTEX
  8
LAYER_1
 10
315.1717
 20
186.055
  0
SEQEND
  0
POLYLINE
  8
LAYER_1
 40
0.1764
 41
0.1764
 66
1
 10
0
 20
0
 30
0
  0
VERTEX
  8
LAYER_1
 10
303.4877
 20
186.9863
  0
VERTEX
  8
LAYER_1
 10
315.1717
 20
186.9863
  0
SEQEND
  0
POLYLINE
  8
LAYER_1
 40
0.1764
 41
0.1764
 66
1
 10
0
 20
0
 30
0
  0
VERTEX
  8
LAYER_1
 10
315.1717
 20
186.055
  0
VERTEX
  8
LAYER_1
 10
315.1717
 20
186.9863
  0
SEQEND
  0
POLYLINE
  8
LAYER_1
 40
0.1764
 41
0.1764
 66
1
 10
0
 20
0
 30
0
 70
1
  0
VERTEX
  8
LAYER_1
 10
315.1717
 20
186.309
  0
VERTEX
  8
LAYER_1
 10
315.2563
 20
186.309
  0
VERTEX
  8
LAYER_1
 10
315.2563
 20
186.2243
  0
VERTEX
  8
LAYER_1
 10
315.341
 20
186.2243
  0
VERTEX
  8
LAYER_1
 10
315.4257
 20
186.1397
  0
VERTEX
  8
LAYER_1
 10
315.4257
 20
186.055
  0
VERTEX
  8
LAYER_1
 10
315.4257
 20
185.9703
  0
VERTEX
  8
LAYER_1
 10
315.4257
 20
185.8857
  0
VERTEX
  8
LAYER_1
 10
315.341
 20
185.8857
  0
VERTEX
  8
LAYER_1
 10
315.341
 20
185.801
  0
VERTEX
  8
LAYER_1
 10
315.2563
 20
185.801
  0
VERTEX
  8
LAYER_1
 10
315.1717
 20
185.801
  0
VERTEX
  8
LAYER_1
 10
315.087
 20
185.801
  0
VERTEX
  8
LAYER_1
 10
315.0023
 20
185.801
  0
VERTEX
  8
LAYER_1
 10
315.0023
 20
185.8857
  0
VERTEX
  8
LAYER_1
 10
314.9177
 20
185.9703
  0
VERTEX
  8
LAYER_1
 10
314.9177
 20
186.055
  0
VERTEX
  8
LAYER_1
 10
314.9177
 20
186.1397
  0
VERTEX
  8
LAYER_1
 10
315.0023
 20
186.1397
  0
VERTEX
  8
LAYER_1
 10
315.0023
 20
186.2243
  0
VERTEX
  8
LAYER_1
 10
315.087
 20
186.2243
  0
VERTEX
  8
LAYER_1
 10
315.1717
 20
186.2243
  0
SEQEND
  0
POLYLINE
  8
LAYER_1
 40
0.05
 41
0.05
 66
1
 10
0
 20
0
 30
0
 70
1
  0
VERTEX
  8
LAYER_1
 10
315.1505
 20
186.3302
  0
VERTEX
  8
LAYER_1
 10
315.2352
 20
186.3302
  0
VERTEX
  8
LAYER_1
 10
315.2352
 20
186.2455
  0
VERTEX
  8
LAYER_1
 10
315.3198
 20
186.2455
  0
VERTEX
  8
LAYER_1
 10
315.4045
 20
186.1608
  0
VERTEX
  8
LAYER_1
 10
315.4045
 20
186.0762
  0
VERTEX
  8
LAYER_1
 10
315.4045
 20
185.9915
  0
VERTEX
  8
LAYER_1
 10
315.4045
 20
185.9068
  0
VERTEX
  8
LAYER_1
 10
315.3198
 20
185.9068
  0
VERTEX
  8
LAYER_1
 10
315.3198
 20
185.8222
  0
VERTEX
  8
LAYER_1
 10
315.2352
 20
185.8222
  0
VERTEX
  8
LAYER_1
 10
315.1505
 20
185.8222
  0
VERTEX
  8
LAYER_1
 10
315.0658
 20
185.8222
  0
VERTEX
  8
LAYER_1
 10
314.9812
 20
185.8222
  0
VERTEX
  8
LAYER_1
 10
314.9812
 20
185.9068
  0
VERTEX
  8
LAYER_1
 10
314.8965
 20
185.9915
  0
VERTEX
  8
LAYER_1
 10
314.8965
 20
186.0762
  0
VERTEX
  8
LAYER_1
 10
314.8965
 20
186.1608
  0
VERTEX
  8
LAYER_1
 10
314.9812
 20
186.1608
  0
VERTEX
  8
LAYER_1
 10
314.9812
 20
186.2455
  0
VERTEX
  8
LAYER_1
 10
315.0658
 20
186.2455
  0
VERTEX
  8
LAYER_1
 10
315.1505
 20
186.2455
  0
SEQEND
  0
POLYLINE
  8
LAYER_1
 40
0.0847
 41
0.0847
 66
1
 10
0
 20
0
 30
0
 70
1
  0
VERTEX
  8
LAYER_1
 10
315.1717
 20
186.309
  0
VERTEX
  8
LAYER_1
 10
315.2563
 20
186.309
  0
VERTEX
  8
LAYER_1
 10
315.2563
 20
186.2243
  0
VERTEX
  8
LAYER_1
 10
315.341
 20
186.2243
  0
VERTEX
  8
LAYER_1
 10
315.4257
 20
186.1397
  0
VERTEX
  8
LAYER_1
 10
315.4257
 20
186.055
  0
VERTEX
  8
LAYER_1
 10
315.4257
 20
185.9703
  0
VERTEX
  8
LAYER_1
 10
315.4257
 20
185.8857
  0
VERTEX
  8
LAYER_1
 10
315.341
 20
185.8857
  0
VERTEX
  8
LAYER_1
 10
315.341
 20
185.801
  0
VERTEX
  8
LAYER_1
 10
315.2563
 20
185.801
  0
VERTEX
  8
LAYER_1
 10
315.1717
 20
185.801
  0
VERTEX
  8
LAYER_1
 10
315.087
 20
185.801
  0
VERTEX
  8
LAYER_1
 10
315.0023
 20
185.801
  0
VERTEX
  8
LAYER_1
 10
315.0023
 20
185.8857
  0
VERTEX
  8
LAYER_1
 10
314.9177
 20
185.9703
  0
VERTEX
  8
LAYER_1
 10
314.9177
 20
186.055
  0
VERTEX
  8
LAYER_1
 10
314.9177
 20
186.1397
  0
VERTEX
  8
LAYER_1
 10
315.0023
 20
186.1397
  0
VERTEX
  8
LAYER_1
 10
315.0023
 20
186.2243
  0
VERTEX
  8
LAYER_1
 10
315.087
 20
186.2243
  0
VERTEX
  8
LAYER_1
 10
315.1717
 20
186.2243
  0
SEQEND
  0
POLYLINE
  8
LAYER_1
 40
0.1764
 41
0.1764
 66
1
 10
0
 20
0
 30
0
 70
1
  0
VERTEX
  8
LAYER_1
 10
315.1717
 20
186.7323
  0
VERTEX
  8
LAYER_1
 10
315.1717
 20
186.817
  0
VERTEX
  8
LAYER_1
 10
315.087
 20
186.817
  0
VERTEX
  8
LAYER_1
 10
315.0023
 20
186.817
  0
VERTEX
  8
LAYER_1
 10
315.0023
 20
186.9017
  0
VERTEX
  8
LAYER_1
 10
314.9177
 20
186.9017
  0
VERTEX
  8
LAYER_1
 10
314.9177
 20
186.9863
  0
VERTEX
  8
LAYER_1
 10
314.9177
 20
187.071
  0
VERTEX
  8
LAYER_1
 10
315.0023
 20
187.1557
  0
VERTEX
  8
LAYER_1
 10
315.0023
 20
187.2403
  0
VERTEX
  8
LAYER_1
 10
315.087
 20
187.2403
  0
VERTEX
  8
LAYER_1
 10
315.1717
 20
187.2403
  0
VERTEX
  8
LAYER_1
 10
315.2563
 20
187.2403
  0
VERTEX
  8
LAYER_1
 10
315.341
 20
187.2403
  0
VERTEX
  8
LAYER_1
 10
315.341
 20
187.1557
  0
VERTEX
  8
LAYER_1
 10
315.4257
 20
187.1557
  0
VERTEX
  8
LAYER_1
 10
315.4257
 20
187.071
  0
VERTEX
  8
LAYER_1
 10
315.4257
 20
186.9863
  0
VERTEX
  8
LAYER_1
 10
315.4257
 20
186.9017
  0
VERTEX
  8
LAYER_1
 10
315.341
 20
186.817
  0
VERTEX
  8
LAYER_1
 10
315.2563
 20
186.817
  0
VERTEX
  8
LAYER_1
 10
315.2563
 20
186.7323
  0
SEQEND
  0
POLYLINE
  8
LAYER_1
 40
0.05
 41
0.05
 66
1
 10
0
 20
0
 30
0
 70
1
  0
VERTEX
  8
LAYER_1
 10
315.1505
 20
186.7535
  0
VERTEX
  8
LAYER_1
 10
315.1505
 20
186.8382
  0
VERTEX
  8
LAYER_1
 10
315.0658
 20
186.8382
  0
VERTEX
  8
LAYER_1
 10
314.9812
 20
186.8382
  0
VERTEX
  8
LAYER_1
 10
314.9812
 20
186.9228
  0
VERTEX
  8
LAYER_1
 10
314.8965
 20
186.9228
  0
VERTEX
  8
LAYER_1
 10
314.8965
 20
187.0075
  0
VERTEX
  8
LAYER_1
 10
314.8965
 20
187.0922
  0
VERTEX
  8
LAYER_1
 10
314.9812
 20
187.1768
  0
VERTEX
  8
LAYER_1
 10
314.9812
 20
187.2615
  0
VERTEX
  8
LAYER_1
 10
315.0658
 20
187.2615
  0
VERTEX
  8
LAYER_1
 10
315.1505
 20
187.2615
  0
VERTEX
  8
LAYER_1
 10
315.2352
 20
187.2615
  0
VERTEX
  8
LAYER_1
 10
315.3198
 20
187.2615
  0
VERTEX
  8
LAYER_1
 10
315.3198
 20
187.1768
  0
VERTEX
  8
LAYER_1
 10
315.4045
 20
187.1768
  0
VERTEX
  8
LAYER_1
 10
315.4045
 20
187.0922
  0
VERTEX
  8
LAYER_1
 10
315.4045
 20
187.0075
  0
VERTEX
  8
LAYER_1
 10
315.4045
 20
186.9228
  0
VERTEX
  8
LAYER_1
 10
315.3198
 20
186.8382
  0
VERTEX
  8
LAYER_1
 10
315.2352
 20
186.8382
  0
VERTEX
  8
LAYER_1
 10
315.2352
 20
186.7535
  0
SEQEND
  0
POLYLINE
  8
LAYER_1
 40
0.0847
 41
0.0847
 66
1
 10
0
 20
0
 30
0
 70
1
  0
VERTEX
  8
LAYER_1
 10
315.1717
 20
186.7323
  0
VERTEX
  8
LAYER_1
 10
315.1717
 20
186.817
  0
VERTEX
  8
LAYER_1
 10
315.087
 20
186.817
  0
VERTEX
  8
LAYER_1
 10
315.0023
 20
186.817
  0
VERTEX
  8
LAYER_1
 10
315.0023
 20
186.9017
  0
VERTEX
  8
LAYER_1
 10
314.9177
 20
186.9017
  0
VERTEX
  8
LAYER_1
 10
314.9177
 20
186.9863
  0
VERTEX
  8
LAYER_1
 10
314.9177
 20
187.071
  0
VERTEX
  8
LAYER_1
 10
315.0023
 20
187.1557
  0
VERTEX
  8
LAYER_1
 10
315.0023
 20
187.2403
  0
VERTEX
  8
LAYER_1
 10
315.087
 20
187.2403
  0
VERTEX
  8
LAYER_1
 10
315.1717
 20
187.2403
  0
VERTEX
  8
LAYER_1
 10
315.2563
 20
187.2403
  0
VERTEX
  8
LAYER_1
 10
315.341
 20
187.2403
  0
VERTEX
  8
LAYER_1
 10
315.341
 20
187.1557
  0
VERTEX
  8
LAYER_1
 10
315.4257
 20
187.1557
  0
VERTEX
  8
LAYER_1
 10
315.4257
 20
187.071
  0
VERTEX
  8
LAYER_1
 10
315.4257
 20
186.9863
  0
VERTEX
  8
LAYER_1
 10
315.4257
 20
186.9017
  0
VERTEX
  8
LAYER_1
 10
315.341
 20
186.817
  0
VERTEX
  8
LAYER_1
 10
315.2563
 20
186.817
  0
VERTEX
  8
LAYER_1
 10
315.2563
 20
186.7323
  0
SEQEND
  0
POLYLINE
  8
LAYER_1
 40
0.05
 41
0.05
 62
255
 66
1
 10
0
 20
0
 30
0
 70
1
  0
VERTEX
  8
LAYER_1
 10
310.7478
 20
185.7375
  0
VERTEX
  8
LAYER_1
 10
310.7478
 20
187.3462
  0
VERTEX
  8
LAYER_1
 10
313.9652
 20
187.3462
  0
VERTEX
  8
LAYER_1
 10
313.9652
 20
185.7375
  0
SEQEND
  0
TEXT
  8
LAYER_1
 10
313.4207
 20
185.7163
 11
313.4207
 21
185.7163
 40
3.4028
 41
0.5
 50
89.99999999
  1
5
  0
POLYLINE
  8
LAYER_1
 40
0.1764
 41
0.1764
 66
1
 10
0
 20
0
 30
0
  0
VERTEX
  8
LAYER_1
 10
302.4717
 20
188.0023
  0
VERTEX
  8
LAYER_1
 10
302.4717
 20
188.9337
  0
SEQEND
  0
POLYLINE
  8
LAYER_1
 40
0.1764
 41
0.1764
 66
1
 10
0
 20
0
 30
0
  0
VERTEX
  8
LAYER_1
 10
304.3343
 20
188.0023
  0
VERTEX
  8
LAYER_1
 10
304.3343
 20
188.9337
  0
SEQEND
  0
POLYLINE
  8
LAYER_1
 40
0.1764
 41
0.1764
 66
1
 10
0
 20
0
 30
0
  0
VERTEX
  8
LAYER_1
 10
302.4717
 20
188.9337
  0
VERTEX
  8
LAYER_1
 10
304.3343
 20
188.9337
  0
SEQEND
  0
POLYLINE
  8
LAYER_1
 40
0.1764
 41
0.1764
 66
1
 10
0
 20
0
 30
0
 70
1
  0
VERTEX
  8
LAYER_1
 10
302.7257
 20
188.9337
  0
VERTEX
  8
LAYER_1
 10
302.7257
 20
188.849
  0
VERTEX
  8
LAYER_1
 10
302.7257
 20
188.7643
  0
VERTEX
  8
LAYER_1
 10
302.641
 20
188.6797
  0
VERTEX
  8
LAYER_1
 10
302.5563
 20
188.6797
  0
VERTEX
  8
LAYER_1
 10
302.4717
 20
188.6797
  0
VERTEX
  8
LAYER_1
 10
302.387
 20
188.6797
  0
VERTEX
  8
LAYER_1
 10
302.3023
 20
188.6797
  0
VERTEX
  8
LAYER_1
 10
302.3023
 20
188.7643
  0
VERTEX
  8
LAYER_1
 10
302.3023
 20
188.849
  0
VERTEX
  8
LAYER_1
 10
302.2177
 20
188.849
  0
VERTEX
  8
LAYER_1
 10
302.2177
 20
188.9337
  0
VERTEX
  8
LAYER_1
 10
302.3023
 20
188.9337
  0
VERTEX
  8
LAYER_1
 10
302.3023
 20
189.0183
  0
VERTEX
  8
LAYER_1
 10
302.3023
 20
189.103
  0
VERTEX
  8
LAYER_1
 10
302.387
 20
189.103
  0
VERTEX
  8
LAYER_1
 10
302.4717
 20
189.103
  0
VERTEX
  8
LAYER_1
 10
302.4717
 20
189.1877
  0
VERTEX
  8
LAYER_1
 10
302.5563
 20
189.1877
  0
VERTEX
  8
LAYER_1
 10
302.5563
 20
189.103
  0
VERTEX
  8
LAYER_1
 10
302.641
 20
189.103
  0
VERTEX
  8
LAYER_1
 10
302.7257
 20
189.103
  0
VERTEX
  8
LAYER_1
 10
302.7257
 20
189.0183
  0
SEQEND
  0
POLYLINE
  8
LAYER_1
 40
0.05
 41
0.05
 66
1
 10
0
 20
0
 30
0
 70
1
  0
VERTEX
  8
LAYER_1
 10
302.7045
 20
188.9548
  0
VERTEX
  8
LAYER_1
 10
302.7045
 20
188.8702
  0
VERTEX
  8
LAYER_1
 10
302.7045
 20
188.7855
  0
VERTEX
  8
LAYER_1
 10
302.6198
 20
188.7008
  0
VERTEX
  8
LAYER_1
 10
302.5352
 20
188.7008
  0
VERTEX
  8
LAYER_1
 10
302.4505
 20
188.7008
  0
VERTEX
  8
LAYER_1
 10
302.3658
 20
188.7008
  0
VERTEX
  8
LAYER_1
 10
302.2812
 20
188.7008
  0
VERTEX
  8
LAYER_1
 10
302.2812
 20
188.7855
  0
VERTEX
  8
LAYER_1
 10
302.2812
 20
188.8702
  0
VERTEX
  8
LAYER_1
 10
302.1965
 20
188.8702
  0
VERTEX
  8
LAYER_1
 10
302.1965
 20
188.9548
  0
VERTEX
  8
LAYER_1
 10
302.2812
 20
188.9548
  0
VERTEX
  8
LAYER_1
 10
302.2812
 20
189.0395
  0
VERTEX
  8
LAYER_1
 10
302.2812
 20
189.1242
  0
VERTEX
  8
LAYER_1
 10
302.3658
 20
189.1242
  0
VERTEX
  8
LAYER_1
 10
302.4505
 20
189.1242
  0
VERTEX
  8
LAYER_1
 10
302.4505
 20
189.2088
  0
VERTEX
  8
LAYER_1
 10
302.5352
 20
189.2088
  0
VERTEX
  8
LAYER_1
 10
302.5352
 20
189.1242
  0
VERTEX
  8
LAYER_1
 10
302.6198
 20
189.1242
  0
VERTEX
  8
LAYER_1
 10
302.7045
 20
189.1242
  0
VERTEX
  8
LAYER_1
 10
302.7045
 20
189.0395
  0
SEQEND
  0
POLYLINE
  8
LAYER_1
 40
0.0847
 41
0.0847
 66
1
 10
0
 20
0
 30
0
 70
1
  0
VERTEX
  8
LAYER_1
 10
302.7257
 20
188.9337
  0
VERTEX
  8
LAYER_1
 10
302.7257
 20
188.849
  0
VERTEX
  8
LAYER_1
 10
302.7257
 20
188.7643
  0
VERTEX
  8
LAYER_1
 10
302.641
 20
188.6797
  0
VERTEX
  8
LAYER_1
 10
302.5563
 20
188.6797
  0
VERTEX
  8
LAYER_1
 10
302.4717
 20
188.6797
  0
VERTEX
  8
LAYER_1
 10
302.387
 20
188.6797
  0
VERTEX
  8
LAYER_1
 10
302.3023
 20
188.6797
  0
VERTEX
  8
LAYER_1
 10
302.3023
 20
188.7643
  0
VERTEX
  8
LAYER_1
 10
302.3023
 20
188.849
  0
VERTEX
  8
LAYER_1
 10
302.2177
 20
188.849
  0
VERTEX
  8
LAYER_1
 10
302.2177
 20
188.9337
  0
VERTEX
  8
LAYER_1
 10
302.3023
 20
188.9337
  0
VERTEX
  8
LAYER_1
 10
302.3023
 20
189.0183
  0
VERTEX
  8
LAYER_1
 10
302.3023
 20
189.103
  0
VERTEX
  8
LAYER_1
 10
302.387
 20
189.103
  0
VERTEX
  8
LAYER_1
 10
302.4717
 20
189.103
  0
VERTEX
  8
LAYER_1
 10
302.4717
 20
189.1877
  0
VERTEX
  8
LAYER_1
 10
302.5563
 20
189.1877
  0
VERTEX
  8
LAYER_1
 10
302.5563
 20
189.103
  0
VERTEX
  8
LAYER_1
 10
302.641
 20
189.103
  0
VERTEX
  8
LAYER_1
 10
302.7257
 20
189.103
  0
VERTEX
  8
LAYER_1
 10
302.7257
 20
189.0183
  0
SEQEND
  0
POLYLINE
  8
LAYER_1
 40
0.1764
 41
0.1764
 66
1
 10
0
 20
0
 30
0
 70
1
  0
VERTEX
  8
LAYER_1
 10
304.0803
 20
188.9337
  0
VERTEX
  8
LAYER_1
 10
304.0803
 20
189.0183
  0
VERTEX
  8
LAYER_1
 10
304.0803
 20
189.103
  0
VERTEX
  8
LAYER_1
 10
304.165
 20
189.103
  0
VERTEX
  8
LAYER_1
 10
304.2497
 20
189.103
  0
VERTEX
  8
LAYER_1
 10
304.2497
 20
189.1877
  0
VERTEX
  8
LAYER_1
 10
304.3343
 20
189.1877
  0
VERTEX
  8
LAYER_1
 10
304.3343
 20
189.103
  0
VERTEX
  8
LAYER_1
 10
304.419
 20
189.103
  0
VERTEX
  8
LAYER_1
 10
304.5037
 20
189.103
  0
VERTEX
  8
LAYER_1
 10
304.5037
 20
189.0183
  0
VERTEX
  8
LAYER_1
 10
304.5037
 20
188.9337
  0
VERTEX
  8
LAYER_1
 10
304.5883
 20
188.9337
  0
VERTEX
  8
LAYER_1
 10
304.5883
 20
188.849
  0
VERTEX
  8
LAYER_1
 10
304.5037
 20
188.849
  0
VERTEX
  8
LAYER_1
 10
304.5037
 20
188.7643
  0
VERTEX
  8
LAYER_1
 10
304.5037
 20
188.6797
  0
VERTEX
  8
LAYER_1
 10
304.419
 20
188.6797
  0
VERTEX
  8
LAYER_1
 10
304.3343
 20
188.6797
  0
VERTEX
  8
LAYER_1
 10
304.2497
 20
188.6797
  0
VERTEX
  8
LAYER_1
 10
304.165
 20
188.6797
  0
VERTEX
  8
LAYER_1
 10
304.0803
 20
188.7643
  0
VERTEX
  8
LAYER_1
 10
304.0803
 20
188.849
  0
SEQEND
  0
POLYLINE
  8
LAYER_1
 40
0.05
 41
0.05
 66
1
 10
0
 20
0
 30
0
 70
1
  0
VERTEX
  8
LAYER_1
 10
304.0592
 20
188.9548
  0
VERTEX
  8
LAYER_1
 10
304.0592
 20
189.0395
  0
VERTEX
  8
LAYER_1
 10
304.0592
 20
189.1242
  0
VERTEX
  8
LAYER_1
 10
304.1438
 20
189.1242
  0
VERTEX
  8
LAYER_1
 10
304.2285
 20
189.1242
  0
VERTEX
  8
LAYER_1
 10
304.2285
 20
189.2088
  0
VERTEX
  8
LAYER_1
 10
304.3132
 20
189.2088
  0
VERTEX
  8
LAYER_1
 10
304.3132
 20
189.1242
  0
VERTEX
  8
LAYER_1
 10
304.3978
 20
189.1242
  0
VERTEX
  8
LAYER_1
 10
304.4825
 20
189.1242
  0
VERTEX
  8
LAYER_1
 10
304.4825
 20
189.0395
  0
VERTEX
  8
LAYER_1
 10
304.4825
 20
188.9548
  0
VERTEX
  8
LAYER_1
 10
304.5672
 20
188.9548
  0
VERTEX
  8
LAYER_1
 10
304.5672
 20
188.8702
  0
VERTEX
  8
LAYER_1
 10
304.4825
 20
188.8702
  0
VERTEX
  8
LAYER_1
 10
304.4825
 20
188.7855
  0
VERTEX
  8
LAYER_1
 10
304.4825
 20
188.7008
  0
VERTEX
  8
LAYER_1
 10
304.3978
 20
188.7008
  0
VERTEX
  8
LAYER_1
 10
304.3132
 20
188.7008
  0
VERTEX
  8
LAYER_1
 10
304.2285
 20
188.7008
  0
VERTEX
  8
LAYER_1
 10
304.1438
 20
188.7008
  0
VERTEX
  8
LAYER_1
 10
304.0592
 20
188.7855
  0
VERTEX
  8
LAYER_1
 10
304.0592
 20
188.8702
  0
SEQEND
  0
POLYLINE
  8
LAYER_1
 40
0.0847
 41
0.0847
 66
1
 10
0
 20
0
 30
0
 70
1
  0
VERTEX
  8
LAYER_1
 10
304.0803
 20
188.9337
  0
VERTEX
  8
LAYER_1
 10
304.0803
 20
189.0183
  0
VERTEX
  8
LAYER_1
 10
304.0803
 20
189.103
  0
VERTEX
  8
LAYER_1
 10
304.165
 20
189.103
  0
VERTEX
  8
LAYER_1
 10
304.2497
 20
189.103
  0
VERTEX
  8
LAYER_1
 10
304.2497
 20
189.1877
  0
VERTEX
  8
LAYER_1
 10
304.3343
 20
189.1877
  0
VERTEX
  8
LAYER_1
 10
304.3343
 20
189.103
  0
VERTEX
  8
LAYER_1
 10
304.419
 20
189.103
  0
VERTEX
  8
LAYER_1
 10
304.5037
 20
189.103
  0
VERTEX
  8
LAYER_1
 10
304.5037
 20
189.0183
  0
VERTEX
  8
LAYER_1
 10
304.5037
 20
188.9337
  0
VERTEX
  8
LAYER_1
 10
304.5883
 20
188.9337
  0
VERTEX
  8
LAYER_1
 10
304.5883
 20
188.849
  0
VERTEX
  8
LAYER_1
 10
304.5037
 20
188.849
  0
VERTEX
  8
LAYER_1
 10
304.5037
 20
188.7643
  0
VERTEX
  8
LAYER_1
 10
304.5037
 20
188.6797
  0
VERTEX
  8
LAYER_1
 10
304.419
 20
188.6797
  0
VERTEX
  8
LAYER_1
 10
304.3343
 20
188.6797
  0
VERTEX
  8
LAYER_1
 10
304.2497
 20
188.6797
  0
VERTEX
  8
LAYER_1
 10
304.165
 20
188.6797
  0
VERTEX
  8
LAYER_1
 10
304.0803
 20
188.7643
  0
VERTEX
  8
LAYER_1
 10
304.0803
 20
188.849
  0
SEQEND
  0
POLYLINE
  8
LAYER_1
 40
0.05
 41
0.05
 62
255
 66
1
 10
0
 20
0
 30
0
 70
1
  0
VERTEX
  8
LAYER_1
 10
302.6198
 20
193.3575
  0
VERTEX
  8
LAYER_1
 10
304.1438
 20
193.3575
  0
VERTEX
  8
LAYER_1
 10
304.1438
 20
190.1402
  0
VERTEX
  8
LAYER_1
 10
302.6198
 20
190.1402
  0
SEQEND
  0
TEXT
  8
LAYER_1
 10
302.641
 20
190.6847
 11
302.641
 21
190.6847
 40
3.4028
 41
0.5
  1
9
  0
POLYLINE
  8
LAYER_1
 40
0.1764
 41
0.1764
 66
1
 10
0
 20
0
 30
0
 70
1
  0
VERTEX
  8
LAYER_1
 10
304.3343
 20
170.561
  0
VERTEX
  8
LAYER_1
 10
306.1123
 20
167.8517
  0
VERTEX
  8
LAYER_1
 10
306.3663
 20
168.021
  0
VERTEX
  8
LAYER_1
 10
304.5883
 20
170.6457
  0
VERTEX
  8
LAYER_1
 10
304.5883
 20
174.0323
  0
VERTEX
  8
LAYER_1
 10
304.3343
 20
174.0323
  0
SEQEND
  0
TEXT
  8
LAYER_1
 10
320.5903
 20
185.6317
 11
320.5903
 21
185.6317
 40
2.8837
 41
0.5
  1
壁掛け金具
  0
POLYLINE
  8
LAYER_1
 40
0.1764
 41
0.1764
 66
1
 10
0
 20
0
 30
0
  0
VERTEX
  8
LAYER_1
 10
306.197
 20
170.6457
  0
VERTEX
  8
LAYER_1
 10
320.5903
 20
184.9543
  0
SEQEND
  0
POLYLINE
  8
LAYER_1
 40
0.1764
 41
0.1764
 66
1
 10
0
 20
0
 30
0
  0
VERTEX
  8
LAYER_1
 10
320.5903
 20
184.9543
  0
VERTEX
  8
LAYER_1
 10
334.645
 20
184.9543
  0
SEQEND
  0
POLYLINE
  8
LAYER_1
 40
0.05
 41
0.05
 62
253
 66
1
 10
0
 20
0
 30
0
 70
1
  0
VERTEX
  8
LAYER_1
 10
304.3343
 20
126.7883
  0
VERTEX
  8
LAYER_1
 10
305.689
 20
126.7883
  0
VERTEX
  8
LAYER_1
 10
305.689
 20
123.9943
  0
VERTEX
  8
LAYER_1
 10
304.3343
 20
123.9943
  0
SEQEND
  0
POLYLINE
  8
LAYER_1
 40
0.1764
 41
0.1764
 66
1
 10
0
 20
0
 30
0
 70
1
  0
VERTEX
  8
LAYER_1
 10
304.3343
 20
126.7883
  0
VERTEX
  8
LAYER_1
 10
305.689
 20
126.7883
  0
VERTEX
  8
LAYER_1
 10
305.689
 20
123.9943
  0
VERTEX
  8
LAYER_1
 10
304.3343
 20
123.9943
  0
SEQEND
  0
TEXT
  8
LAYER_1
 10
320.1672
 20
141.097
 11
320.1672
 21
141.097
 40
2.8837
 41
0.5
  1
ウレタンパッド
  0
POLYLINE
  8
LAYER_1
 40
0.1764
 41
0.1764
 66
1
 10
0
 20
0
 30
0
  0
VERTEX
  8
LAYER_1
 10
306.1123
 20
126.2803
  0
VERTEX
  8
LAYER_1
 10
320.167
 20
140.4197
  0
SEQEND
  0
POLYLINE
  8
LAYER_1
 40
0.1764
 41
0.1764
 66
1
 10
0
 20
0
 30
0
  0
VERTEX
  8
LAYER_1
 10
320.167
 20
140.4197
  0
VERTEX
  8
LAYER_1
 10
339.8097
 20
140.4197
  0
SEQEND
  0
POLYLINE
  8
LAYER_1
  6
AIGENLINE001
 40
0.1764
 41
0.1764
 66
1
 10
0
 20
0
 30
0
 70
128
  0
VERTEX
  8
LAYER_1
 10
157.4377
 20
174.0323
  0
VERTEX
  8
LAYER_1
 10
182.8377
 20
174.0323
  0
SEQEND
  0
POLYLINE
  8
LAYER_1
  6
AIGENLINE001
 40
0.1764
 41
0.1764
 66
1
 10
0
 20
0
 30
0
 70
128
  0
VERTEX
  8
LAYER_1
 10
182.8377
 20
174.0323
  0
VERTEX
  8
LAYER_1
 10
182.8377
 20
167.8517
  0
SEQEND
  0
POLYLINE
  8
LAYER_1
  6
AIGENLINE001
 40
0.1764
 41
0.1764
 66
1
 10
0
 20
0
 30
0
 70
128
  0
VERTEX
  8
LAYER_1
 10
182.8377
 20
167.8517
  0
VERTEX
  8
LAYER_1
 10
157.4377
 20
167.8517
  0
SEQEND
  0
POLYLINE
  8
LAYER_1
  6
AIGENLINE001
 40
0.1764
 41
0.1764
 66
1
 10
0
 20
0
 30
0
 70
128
  0
VERTEX
  8
LAYER_1
 10
157.4377
 20
167.8517
  0
VERTEX
  8
LAYER_1
 10
157.4377
 20
174.0323
  0
SEQEND
  0
POLYLINE
  8
LAYER_1
  6
AIGENLINE001
 40
0.1764
 41
0.1764
 66
1
 10
0
 20
0
 30
0
 70
128
  0
VERTEX
  8
LAYER_1
 10
158.115
 20
125.4337
  0
VERTEX
  8
LAYER_1
 10
182.1603
 20
125.4337
  0
SEQEND
  0
POLYLINE
  8
LAYER_1
 40
0.1764
 41
0.1764
 66
1
 10
0
 20
0
 30
0
  0
VERTEX
  8
LAYER_1
 10
182.1603
 20
125.4337
  0
VERTEX
  8
LAYER_1
 10
182.1603
 20
124.7563
  0
SEQEND
  0
POLYLINE
  8
LAYER_1
  6
AIGENLINE001
 40
0.1764
 41
0.1764
 66
1
 10
0
 20
0
 30
0
 70
128
  0
VERTEX
  8
LAYER_1
 10
182.1603
 20
123.9943
  0
VERTEX
  8
LAYER_1
 10
158.115
 20
123.9943
  0
SEQEND
  0
POLYLINE
  8
LAYER_1
 40
0.1764
 41
0.1764
 66
1
 10
0
 20
0
 30
0
  0
VERTEX
  8
LAYER_1
 10
158.115
 20
123.9943
  0
VERTEX
  8
LAYER_1
 10
158.115
 20
124.6717
  0
SEQEND
  0
POLYLINE
  8
LAYER_1
 40
0.1764
 41
0.1764
 66
1
 10
0
 20
0
 30
0
  0
VERTEX
  8
LAYER_1
 10
305.2656
 20
186.055
  0
VERTEX
  8
LAYER_1
 10
310.261
 20
186.055
  0
SEQEND
  0
POLYLINE
  8
LAYER_1
 40
0.1764
 41
0.1764
 66
1
 10
0
 20
0
 30
0
  0
VERTEX
  8
LAYER_1
 10
305.6043
 20
174.0323
  0
VERTEX
  8
LAYER_1
 10
310.261
 20
174.0323
  0
SEQEND
  0
POLYLINE
  8
LAYER_1
 40
0.1764
 41
0.1764
 66
1
 10
0
 20
0
 30
0
  0
VERTEX
  8
LAYER_1
 10
310.261
 20
186.055
  0
VERTEX
  8
LAYER_1
 10
310.261
 20
174.0323
  0
SEQEND
  0
POLYLINE
  8
LAYER_1
 40
0.1764
 41
0.1764
 66
1
 10
0
 20
0
 30
0
 70
1
  0
VERTEX
  8
LAYER_1
 10
310.261
 20
185.801
  0
VERTEX
  8
LAYER_1
 10
310.1763
 20
185.801
  0
VERTEX
  8
LAYER_1
 10
310.0917
 20
185.801
  0
VERTEX
  8
LAYER_1
 10
310.0917
 20
185.8857
  0
VERTEX
  8
LAYER_1
 10
310.0917
 20
185.9703
  0
VERTEX
  8
LAYER_1
 10
310.007
 20
185.9703
  0
VERTEX
  8
LAYER_1
 10
310.007
 20
186.055
  0
VERTEX
  8
LAYER_1
 10
310.0917
 20
186.055
  0
VERTEX
  8
LAYER_1
 10
310.0917
 20
186.1397
  0
VERTEX
  8
LAYER_1
 10
310.0917
 20
186.2243
  0
VERTEX
  8
LAYER_1
 10
310.1763
 20
186.2243
  0
VERTEX
  8
LAYER_1
 10
310.261
 20
186.2243
  0
VERTEX
  8
LAYER_1
 10
310.261
 20
186.309
  0
VERTEX
  8
LAYER_1
 10
310.3457
 20
186.309
  0
VERTEX
  8
LAYER_1
 10
310.3457
 20
186.2243
  0
VERTEX
  8
LAYER_1
 10
310.4303
 20
186.2243
  0
VERTEX
  8
LAYER_1
 10
310.515
 20
186.2243
  0
VERTEX
  8
LAYER_1
 10
310.515
 20
186.1397
  0
VERTEX
  8
LAYER_1
 10
310.515
 20
186.055
  0
VERTEX
  8
LAYER_1
 10
310.515
 20
185.9703
  0
VERTEX
  8
LAYER_1
 10
310.515
 20
185.8857
  0
VERTEX
  8
LAYER_1
 10
310.4303
 20
185.8857
  0
VERTEX
  8
LAYER_1
 10
310.4303
 20
185.801
  0
VERTEX
  8
LAYER_1
 10
310.3457
 20
185.801
  0
SEQEND
  0
POLYLINE
  8
LAYER_1
 40
0.05
 41
0.05
 66
1
 10
0
 20
0
 30
0
 70
1
  0
VERTEX
  8
LAYER_1
 10
310.2398
 20
185.8222
  0
VERTEX
  8
LAYER_1
 10
310.1552
 20
185.8222
  0
VERTEX
  8
LAYER_1
 10
310.0705
 20
185.8222
  0
VERTEX
  8
LAYER_1
 10
310.0705
 20
185.9068
  0
VERTEX
  8
LAYER_1
 10
310.0705
 20
185.9915
  0
VERTEX
  8
LAYER_1
 10
309.9858
 20
185.9915
  0
VERTEX
  8
LAYER_1
 10
309.9858
 20
186.0762
  0
VERTEX
  8
LAYER_1
 10
310.0705
 20
186.0762
  0
VERTEX
  8
LAYER_1
 10
310.0705
 20
186.1608
  0
VERTEX
  8
LAYER_1
 10
310.0705
 20
186.2455
  0
VERTEX
  8
LAYER_1
 10
310.1552
 20
186.2455
  0
VERTEX
  8
LAYER_1
 10
310.2398
 20
186.2455
  0
VERTEX
  8
LAYER_1
 10
310.2398
 20
186.3302
  0
VERTEX
  8
LAYER_1
 10
310.3245
 20
186.3302
  0
VERTEX
  8
LAYER_1
 10
310.3245
 20
186.2455
  0
VERTEX
  8
LAYER_1
 10
310.4092
 20
186.2455
  0
VERTEX
  8
LAYER_1
 10
310.4938
 20
186.2455
  0
VERTEX
  8
LAYER_1
 10
310.4938
 20
186.1608
  0
VERTEX
  8
LAYER_1
 10
310.4938
 20
186.0762
  0
VERTEX
  8
LAYER_1
 10
310.4938
 20
185.9915
  0
VERTEX
  8
LAYER_1
 10
310.4938
 20
185.9068
  0
VERTEX
  8
LAYER_1
 10
310.4092
 20
185.9068
  0
VERTEX
  8
LAYER_1
 10
310.4092
 20
185.8222
  0
VERTEX
  8
LAYER_1
 10
310.3245
 20
185.8222
  0
SEQEND
  0
POLYLINE
  8
LAYER_1
 40
0.0847
 41
0.0847
 66
1
 10
0
 20
0
 30
0
 70
1
  0
VERTEX
  8
LAYER_1
 10
310.261
 20
185.801
  0
VERTEX
  8
LAYER_1
 10
310.1763
 20
185.801
  0
VERTEX
  8
LAYER_1
 10
310.0917
 20
185.801
  0
VERTEX
  8
LAYER_1
 10
310.0917
 20
185.8857
  0
VERTEX
  8
LAYER_1
 10
310.0917
 20
185.9703
  0
VERTEX
  8
LAYER_1
 10
310.007
 20
185.9703
  0
VERTEX
  8
LAYER_1
 10
310.007
 20
186.055
  0
VERTEX
  8
LAYER_1
 10
310.0917
 20
186.055
  0
VERTEX
  8
LAYER_1
 10
310.0917
 20
186.1397
  0
VERTEX
  8
LAYER_1
 10
310.0917
 20
186.2243
  0
VERTEX
  8
LAYER_1
 10
310.1763
 20
186.2243
  0
VERTEX
  8
LAYER_1
 10
310.261
 20
186.2243
  0
VERTEX
  8
LAYER_1
 10
310.261
 20
186.309
  0
VERTEX
  8
LAYER_1
 10
310.3457
 20
186.309
  0
VERTEX
  8
LAYER_1
 10
310.3457
 20
186.2243
  0
VERTEX
  8
LAYER_1
 10
310.4303
 20
186.2243
  0
VERTEX
  8
LAYER_1
 10
310.515
 20
186.2243
  0
VERTEX
  8
LAYER_1
 10
310.515
 20
186.1397
  0
VERTEX
  8
LAYER_1
 10
310.515
 20
186.055
  0
VERTEX
  8
LAYER_1
 10
310.515
 20
185.9703
  0
VERTEX
  8
LAYER_1
 10
310.515
 20
185.8857
  0
VERTEX
  8
LAYER_1
 10
310.4303
 20
185.8857
  0
VERTEX
  8
LAYER_1
 10
310.4303
 20
185.801
  0
VERTEX
  8
LAYER_1
 10
310.3457
 20
185.801
  0
SEQEND
  0
POLYLINE
  8
LAYER_1
 40
0.1764
 41
0.1764
 66
1
 10
0
 20
0
 30
0
 70
1
  0
VERTEX
  8
LAYER_1
 10
310.261
 20
174.2863
  0
VERTEX
  8
LAYER_1
 10
310.3457
 20
174.2863
  0
VERTEX
  8
LAYER_1
 10
310.4303
 20
174.2863
  0
VERTEX
  8
LAYER_1
 10
310.4303
 20
174.2017
  0
VERTEX
  8
LAYER_1
 10
310.515
 20
174.2017
  0
VERTEX
  8
LAYER_1
 10
310.515
 20
174.117
  0
VERTEX
  8
LAYER_1
 10
310.515
 20
174.0323
  0
VERTEX
  8
LAYER_1
 10
310.515
 20
173.9477
  0
VERTEX
  8
LAYER_1
 10
310.515
 20
173.863
  0
VERTEX
  8
LAYER_1
 10
310.4303
 20
173.863
  0
VERTEX
  8
LAYER_1
 10
310.4303
 20
173.7783
  0
VERTEX
  8
LAYER_1
 10
310.3457
 20
173.7783
  0
VERTEX
  8
LAYER_1
 10
310.261
 20
173.7783
  0
VERTEX
  8
LAYER_1
 10
310.1763
 20
173.7783
  0
VERTEX
  8
LAYER_1
 10
310.1763
 20
173.863
  0
VERTEX
  8
LAYER_1
 10
310.0917
 20
173.863
  0
VERTEX
  8
LAYER_1
 10
310.0917
 20
173.9477
  0
VERTEX
  8
LAYER_1
 10
310.007
 20
173.9477
  0
VERTEX
  8
LAYER_1
 10
310.007
 20
174.0323
  0
VERTEX
  8
LAYER_1
 10
310.0917
 20
174.117
  0
VERTEX
  8
LAYER_1
 10
310.0917
 20
174.2017
  0
VERTEX
  8
LAYER_1
 10
310.1763
 20
174.2017
  0
VERTEX
  8
LAYER_1
 10
310.1763
 20
174.2863
  0
SEQEND
  0
POLYLINE
  8
LAYER_1
 40
0.05
 41
0.05
 66
1
 10
0
 20
0
 30
0
 70
1
  0
VERTEX
  8
LAYER_1
 10
310.2398
 20
174.3075
  0
VERTEX
  8
LAYER_1
 10
310.3245
 20
174.3075
  0
VERTEX
  8
LAYER_1
 10
310.4092
 20
174.3075
  0
VERTEX
  8
LAYER_1
 10
310.4092
 20
174.2228
  0
VERTEX
  8
LAYER_1
 10
310.4938
 20
174.2228
  0
VERTEX
  8
LAYER_1
 10
310.4938
 20
174.1382
  0
VERTEX
  8
LAYER_1
 10
310.4938
 20
174.0535
  0
VERTEX
  8
LAYER_1
 10
310.4938
 20
173.9688
  0
VERTEX
  8
LAYER_1
 10
310.4938
 20
173.8842
  0
VERTEX
  8
LAYER_1
 10
310.4092
 20
173.8842
  0
VERTEX
  8
LAYER_1
 10
310.4092
 20
173.7995
  0
VERTEX
  8
LAYER_1
 10
310.3245
 20
173.7995
  0
VERTEX
  8
LAYER_1
 10
310.2398
 20
173.7995
  0
VERTEX
  8
LAYER_1
 10
310.1552
 20
173.7995
  0
VERTEX
  8
LAYER_1
 10
310.1552
 20
173.8842
  0
VERTEX
  8
LAYER_1
 10
310.0705
 20
173.8842
  0
VERTEX
  8
LAYER_1
 10
310.0705
 20
173.9688
  0
VERTEX
  8
LAYER_1
 10
309.9858
 20
173.9688
  0
VERTEX
  8
LAYER_1
 10
309.9858
 20
174.0535
  0
VERTEX
  8
LAYER_1
 10
310.0705
 20
174.1382
  0
VERTEX
  8
LAYER_1
 10
310.0705
 20
174.2228
  0
VERTEX
  8
LAYER_1
 10
310.1552
 20
174.2228
  0
VERTEX
  8
LAYER_1
 10
310.1552
 20
174.3075
  0
SEQEND
  0
POLYLINE
  8
LAYER_1
 40
0.0847
 41
0.0847
 66
1
 10
0
 20
0
 30
0
 70
1
  0
VERTEX
  8
LAYER_1
 10
310.261
 20
174.2863
  0
VERTEX
  8
LAYER_1
 10
310.3457
 20
174.2863
  0
VERTEX
  8
LAYER_1
 10
310.4303
 20
174.2863
  0
VERTEX
  8
LAYER_1
 10
310.4303
 20
174.2017
  0
VERTEX
  8
LAYER_1
 10
310.515
 20
174.2017
  0
VERTEX
  8
LAYER_1
 10
310.515
 20
174.117
  0
VERTEX
  8
LAYER_1
 10
310.515
 20
174.0323
  0
VERTEX
  8
LAYER_1
 10
310.515
 20
173.9477
  0
VERTEX
  8
LAYER_1
 10
310.515
 20
173.863
  0
VERTEX
  8
LAYER_1
 10
310.4303
 20
173.863
  0
VERTEX
  8
LAYER_1
 10
310.4303
 20
173.7783
  0
VERTEX
  8
LAYER_1
 10
310.3457
 20
173.7783
  0
VERTEX
  8
LAYER_1
 10
310.261
 20
173.7783
  0
VERTEX
  8
LAYER_1
 10
310.1763
 20
173.7783
  0
VERTEX
  8
LAYER_1
 10
310.1763
 20
173.863
  0
VERTEX
  8
LAYER_1
 10
310.0917
 20
173.863
  0
VERTEX
  8
LAYER_1
 10
310.0917
 20
173.9477
  0
VERTEX
  8
LAYER_1
 10
310.007
 20
173.9477
  0
VERTEX
  8
LAYER_1
 10
310.007
 20
174.0323
  0
VERTEX
  8
LAYER_1
 10
310.0917
 20
174.117
  0
VERTEX
  8
LAYER_1
 10
310.0917
 20
174.2017
  0
VERTEX
  8
LAYER_1
 10
310.1763
 20
174.2017
  0
VERTEX
  8
LAYER_1
 10
310.1763
 20
174.2863
  0
SEQEND
  0
POLYLINE
  8
LAYER_1
 40
0.05
 41
0.05
 62
255
 66
1
 10
0
 20
0
 30
0
 70
1
  0
VERTEX
  8
LAYER_1
 10
305.8372
 20
178.4562
  0
VERTEX
  8
LAYER_1
 10
305.8372
 20
181.5888
  0
VERTEX
  8
LAYER_1
 10
309.0545
 20
181.5888
  0
VERTEX
  8
LAYER_1
 10
309.0545
 20
178.4562
  0
SEQEND
  0
TEXT
  8
LAYER_1
 10
308.5097
 20
178.4351
 11
308.5097
 21
178.4351
 40
3.4028
 41
0.5
 50
89.99999999
  1
60
  0
POLYLINE
  8
LAYER_1
 40
0.1764
 41
0.1764
 66
1
 10
0
 20
0
 30
0
  0
VERTEX
  8
LAYER_1
 10
306.705
 20
123.9943
  0
VERTEX
  8
LAYER_1
 10
310.261
 20
123.9943
  0
SEQEND
  0
POLYLINE
  8
LAYER_1
 40
0.1764
 41
0.1764
 66
1
 10
0
 20
0
 30
0
  0
VERTEX
  8
LAYER_1
 10
305.2656
 20
112.0563
  0
VERTEX
  8
LAYER_1
 10
310.261
 20
112.0563
  0
SEQEND
  0
POLYLINE
  8
LAYER_1
 40
0.1764
 41
0.1764
 66
1
 10
0
 20
0
 30
0
  0
VERTEX
  8
LAYER_1
 10
310.261
 20
123.9943
  0
VERTEX
  8
LAYER_1
 10
310.261
 20
112.0563
  0
SEQEND
  0
POLYLINE
  8
LAYER_1
 40
0.1764
 41
0.1764
 66
1
 10
0
 20
0
 30
0
 70
1
  0
VERTEX
  8
LAYER_1
 10
310.261
 20
123.7403
  0
VERTEX
  8
LAYER_1
 10
310.261
 20
123.825
  0
VERTEX
  8
LAYER_1
 10
310.1763
 20
123.825
  0
VERTEX
  8
LAYER_1
 10
310.0917
 20
123.825
  0
VERTEX
  8
LAYER_1
 10
310.0917
 20
123.9097
  0
VERTEX
  8
LAYER_1
 10
310.0917
 20
123.9943
  0
VERTEX
  8
LAYER_1
 10
310.007
 20
123.9943
  0
VERTEX
  8
LAYER_1
 10
310.007
 20
124.079
  0
VERTEX
  8
LAYER_1
 10
310.0917
 20
124.079
  0
VERTEX
  8
LAYER_1
 10
310.0917
 20
124.1637
  0
VERTEX
  8
LAYER_1
 10
310.0917
 20
124.2483
  0
VERTEX
  8
LAYER_1
 10
310.1763
 20
124.2483
  0
VERTEX
  8
LAYER_1
 10
310.261
 20
124.2483
  0
VERTEX
  8
LAYER_1
 10
310.3457
 20
124.2483
  0
VERTEX
  8
LAYER_1
 10
310.4303
 20
124.2483
  0
VERTEX
  8
LAYER_1
 10
310.4303
 20
124.1637
  0
VERTEX
  8
LAYER_1
 10
310.515
 20
124.1637
  0
VERTEX
  8
LAYER_1
 10
310.515
 20
124.079
  0
VERTEX
  8
LAYER_1
 10
310.515
 20
123.9943
  0
VERTEX
  8
LAYER_1
 10
310.515
 20
123.9097
  0
VERTEX
  8
LAYER_1
 10
310.515
 20
123.825
  0
VERTEX
  8
LAYER_1
 10
310.4303
 20
123.825
  0
VERTEX
  8
LAYER_1
 10
310.3457
 20
123.825
  0
VERTEX
  8
LAYER_1
 10
310.3457
 20
123.7403
  0
SEQEND
  0
POLYLINE
  8
LAYER_1
 40
0.05
 41
0.05
 66
1
 10
0
 20
0
 30
0
 70
1
  0
VERTEX
  8
LAYER_1
 10
310.2398
 20
123.7615
  0
VERTEX
  8
LAYER_1
 10
310.2398
 20
123.8462
  0
VERTEX
  8
LAYER_1
 10
310.1552
 20
123.8462
  0
VERTEX
  8
LAYER_1
 10
310.0705
 20
123.8462
  0
VERTEX
  8
LAYER_1
 10
310.0705
 20
123.9308
  0
VERTEX
  8
LAYER_1
 10
310.0705
 20
124.0155
  0
VERTEX
  8
LAYER_1
 10
309.9858
 20
124.0155
  0
VERTEX
  8
LAYER_1
 10
309.9858
 20
124.1002
  0
VERTEX
  8
LAYER_1
 10
310.0705
 20
124.1002
  0
VERTEX
  8
LAYER_1
 10
310.0705
 20
124.1848
  0
VERTEX
  8
LAYER_1
 10
310.0705
 20
124.2695
  0
VERTEX
  8
LAYER_1
 10
310.1552
 20
124.2695
  0
VERTEX
  8
LAYER_1
 10
310.2398
 20
124.2695
  0
VERTEX
  8
LAYER_1
 10
310.3245
 20
124.2695
  0
VERTEX
  8
LAYER_1
 10
310.4092
 20
124.2695
  0
VERTEX
  8
LAYER_1
 10
310.4092
 20
124.1848
  0
VERTEX
  8
LAYER_1
 10
310.4938
 20
124.1848
  0
VERTEX
  8
LAYER_1
 10
310.4938
 20
124.1002
  0
VERTEX
  8
LAYER_1
 10
310.4938
 20
124.0155
  0
VERTEX
  8
LAYER_1
 10
310.4938
 20
123.9308
  0
VERTEX
  8
LAYER_1
 10
310.4938
 20
123.8462
  0
VERTEX
  8
LAYER_1
 10
310.4092
 20
123.8462
  0
VERTEX
  8
LAYER_1
 10
310.3245
 20
123.8462
  0
VERTEX
  8
LAYER_1
 10
310.3245
 20
123.7615
  0
SEQEND
  0
POLYLINE
  8
LAYER_1
 40
0.0847
 41
0.0847
 66
1
 10
0
 20
0
 30
0
 70
1
  0
VERTEX
  8
LAYER_1
 10
310.261
 20
123.7403
  0
VERTEX
  8
LAYER_1
 10
310.261
 20
123.825
  0
VERTEX
  8
LAYER_1
 10
310.1763
 20
123.825
  0
VERTEX
  8
LAYER_1
 10
310.0917
 20
123.825
  0
VERTEX
  8
LAYER_1
 10
310.0917
 20
123.9097
  0
VERTEX
  8
LAYER_1
 10
310.0917
 20
123.9943
  0
VERTEX
  8
LAYER_1
 10
310.007
 20
123.9943
  0
VERTEX
  8
LAYER_1
 10
310.007
 20
124.079
  0
VERTEX
  8
LAYER_1
 10
310.0917
 20
124.079
  0
VERTEX
  8
LAYER_1
 10
310.0917
 20
124.1637
  0
VERTEX
  8
LAYER_1
 10
310.0917
 20
124.2483
  0
VERTEX
  8
LAYER_1
 10
310.1763
 20
124.2483
  0
VERTEX
  8
LAYER_1
 10
310.261
 20
124.2483
  0
VERTEX
  8
LAYER_1
 10
310.3457
 20
124.2483
  0
VERTEX
  8
LAYER_1
 10
310.4303
 20
124.2483
  0
VERTEX
  8
LAYER_1
 10
310.4303
 20
124.1637
  0
VERTEX
  8
LAYER_1
 10
310.515
 20
124.1637
  0
VERTEX
  8
LAYER_1
 10
310.515
 20
124.079
  0
VERTEX
  8
LAYER_1
 10
310.515
 20
123.9943
  0
VERTEX
  8
LAYER_1
 10
310.515
 20
123.9097
  0
VERTEX
  8
LAYER_1
 10
310.515
 20
123.825
  0
VERTEX
  8
LAYER_1
 10
310.4303
 20
123.825
  0
VERTEX
  8
LAYER_1
 10
310.3457
 20
123.825
  0
VERTEX
  8
LAYER_1
 10
310.3457
 20
123.7403
  0
SEQEND
  0
POLYLINE
  8
LAYER_1
 40
0.1764
 41
0.1764
 66
1
 10
0
 20
0
 30
0
 70
1
  0
VERTEX
  8
LAYER_1
 10
310.261
 20
112.3103
  0
VERTEX
  8
LAYER_1
 10
310.3457
 20
112.3103
  0
VERTEX
  8
LAYER_1
 10
310.3457
 20
112.2257
  0
VERTEX
  8
LAYER_1
 10
310.4303
 20
112.2257
  0
VERTEX
  8
LAYER_1
 10
310.515
 20
112.2257
  0
VERTEX
  8
LAYER_1
 10
310.515
 20
112.141
  0
VERTEX
  8
LAYER_1
 10
310.515
 20
112.0563
  0
VERTEX
  8
LAYER_1
 10
310.515
 20
111.9717
  0
VERTEX
  8
LAYER_1
 10
310.515
 20
111.887
  0
VERTEX
  8
LAYER_1
 10
310.4303
 20
111.887
  0
VERTEX
  8
LAYER_1
 10
310.4303
 20
111.8023
  0
VERTEX
  8
LAYER_1
 10
310.3457
 20
111.8023
  0
VERTEX
  8
LAYER_1
 10
310.261
 20
111.8023
  0
VERTEX
  8
LAYER_1
 10
310.1763
 20
111.8023
  0
VERTEX
  8
LAYER_1
 10
310.0917
 20
111.8023
  0
VERTEX
  8
LAYER_1
 10
310.0917
 20
111.887
  0
VERTEX
  8
LAYER_1
 10
310.0917
 20
111.9717
  0
VERTEX
  8
LAYER_1
 10
310.007
 20
111.9717
  0
VERTEX
  8
LAYER_1
 10
310.007
 20
112.0563
  0
VERTEX
  8
LAYER_1
 10
310.0917
 20
112.0563
  0
VERTEX
  8
LAYER_1
 10
310.0917
 20
112.141
  0
VERTEX
  8
LAYER_1
 10
310.0917
 20
112.2257
  0
VERTEX
  8
LAYER_1
 10
310.1763
 20
112.2257
  0
VERTEX
  8
LAYER_1
 10
310.261
 20
112.2257
  0
SEQEND
  0
POLYLINE
  8
LAYER_1
 40
0.05
 41
0.05
 66
1
 10
0
 20
0
 30
0
 70
1
  0
VERTEX
  8
LAYER_1
 10
310.2398
 20
112.3315
  0
VERTEX
  8
LAYER_1
 10
310.3245
 20
112.3315
  0
VERTEX
  8
LAYER_1
 10
310.3245
 20
112.2468
  0
VERTEX
  8
LAYER_1
 10
310.4092
 20
112.2468
  0
VERTEX
  8
LAYER_1
 10
310.4938
 20
112.2468
  0
VERTEX
  8
LAYER_1
 10
310.4938
 20
112.1622
  0
VERTEX
  8
LAYER_1
 10
310.4938
 20
112.0775
  0
VERTEX
  8
LAYER_1
 10
310.4938
 20
111.9928
  0
VERTEX
  8
LAYER_1
 10
310.4938
 20
111.9082
  0
VERTEX
  8
LAYER_1
 10
310.4092
 20
111.9082
  0
VERTEX
  8
LAYER_1
 10
310.4092
 20
111.8235
  0
VERTEX
  8
LAYER_1
 10
310.3245
 20
111.8235
  0
VERTEX
  8
LAYER_1
 10
310.2398
 20
111.8235
  0
VERTEX
  8
LAYER_1
 10
310.1552
 20
111.8235
  0
VERTEX
  8
LAYER_1
 10
310.0705
 20
111.8235
  0
VERTEX
  8
LAYER_1
 10
310.0705
 20
111.9082
  0
VERTEX
  8
LAYER_1
 10
310.0705
 20
111.9928
  0
VERTEX
  8
LAYER_1
 10
309.9858
 20
111.9928
  0
VERTEX
  8
LAYER_1
 10
309.9858
 20
112.0775
  0
VERTEX
  8
LAYER_1
 10
310.0705
 20
112.0775
  0
VERTEX
  8
LAYER_1
 10
310.0705
 20
112.1622
  0
VERTEX
  8
LAYER_1
 10
310.0705
 20
112.2468
  0
VERTEX
  8
LAYER_1
 10
310.1552
 20
112.2468
  0
VERTEX
  8
LAYER_1
 10
310.2398
 20
112.2468
  0
SEQEND
  0
POLYLINE
  8
LAYER_1
 40
0.0847
 41
0.0847
 66
1
 10
0
 20
0
 30
0
 70
1
  0
VERTEX
  8
LAYER_1
 10
310.261
 20
112.3103
  0
VERTEX
  8
LAYER_1
 10
310.3457
 20
112.3103
  0
VERTEX
  8
LAYER_1
 10
310.3457
 20
112.2257
  0
VERTEX
  8
LAYER_1
 10
310.4303
 20
112.2257
  0
VERTEX
  8
LAYER_1
 10
310.515
 20
112.2257
  0
VERTEX
  8
LAYER_1
 10
310.515
 20
112.141
  0
VERTEX
  8
LAYER_1
 10
310.515
 20
112.0563
  0
VERTEX
  8
LAYER_1
 10
310.515
 20
111.9717
  0
VERTEX
  8
LAYER_1
 10
310.515
 20
111.887
  0
VERTEX
  8
LAYER_1
 10
310.4303
 20
111.887
  0
VERTEX
  8
LAYER_1
 10
310.4303
 20
111.8023
  0
VERTEX
  8
LAYER_1
 10
310.3457
 20
111.8023
  0
VERTEX
  8
LAYER_1
 10
310.261
 20
111.8023
  0
VERTEX
  8
LAYER_1
 10
310.1763
 20
111.8023
  0
VERTEX
  8
LAYER_1
 10
310.0917
 20
111.8023
  0
VERTEX
  8
LAYER_1
 10
310.0917
 20
111.887
  0
VERTEX
  8
LAYER_1
 10
310.0917
 20
111.9717
  0
VERTEX
  8
LAYER_1
 10
310.007
 20
111.9717
  0
VERTEX
  8
LAYER_1
 10
310.007
 20
112.0563
  0
VERTEX
  8
LAYER_1
 10
310.0917
 20
112.0563
  0
VERTEX
  8
LAYER_1
 10
310.0917
 20
112.141
  0
VERTEX
  8
LAYER_1
 10
310.0917
 20
112.2257
  0
VERTEX
  8
LAYER_1
 10
310.1763
 20
112.2257
  0
VERTEX
  8
LAYER_1
 10
310.261
 20
112.2257
  0
SEQEND
  0
POLYLINE
  8
LAYER_1
 40
0.05
 41
0.05
 62
255
 66
1
 10
0
 20
0
 30
0
 70
1
  0
VERTEX
  8
LAYER_1
 10
305.8372
 20
116.4802
  0
VERTEX
  8
LAYER_1
 10
305.8372
 20
119.6128
  0
VERTEX
  8
LAYER_1
 10
309.0545
 20
119.6128
  0
VERTEX
  8
LAYER_1
 10
309.0545
 20
116.4802
  0
SEQEND
  0
TEXT
  8
LAYER_1
 10
308.5097
 20
116.459
 11
308.5097
 21
116.459
 40
3.4028
 41
0.5
 50
89.99999999
  1
60
  0
POLYLINE
  8
LAYER_1
 40
0.1764
 41
0.1764
 66
1
 10
0
 20
0
 30
0
  0
VERTEX
  8
LAYER_1
 10
157.4377
 20
166.8357
  0
VERTEX
  8
LAYER_1
 10
157.4377
 20
157.6917
  0
SEQEND
  0
POLYLINE
  8
LAYER_1
 40
0.1764
 41
0.1764
 66
1
 10
0
 20
0
 30
0
  0
VERTEX
  8
LAYER_1
 10
182.8377
 20
166.8357
  0
VERTEX
  8
LAYER_1
 10
182.8377
 20
157.6917
  0
SEQEND
  0
POLYLINE
  8
LAYER_1
 40
0.1764
 41
0.1764
 66
1
 10
0
 20
0
 30
0
  0
VERTEX
  8
LAYER_1
 10
157.4377
 20
157.6917
  0
VERTEX
  8
LAYER_1
 10
182.8377
 20
157.6917
  0
SEQEND
  0
POLYLINE
  8
LAYER_1
 40
0.1764
 41
0.1764
 66
1
 10
0
 20
0
 30
0
 70
1
  0
VERTEX
  8
LAYER_1
 10
157.6917
 20
157.6917
  0
VERTEX
  8
LAYER_1
 10
157.6917
 20
157.607
  0
VERTEX
  8
LAYER_1
 10
157.6917
 20
157.5223
  0
VERTEX
  8
LAYER_1
 10
157.607
 20
157.5223
  0
VERTEX
  8
LAYER_1
 10
157.607
 20
157.4377
  0
VERTEX
  8
LAYER_1
 10
157.5223
 20
157.4377
  0
VERTEX
  8
LAYER_1
 10
157.4377
 20
157.4377
  0
VERTEX
  8
LAYER_1
 10
157.353
 20
157.4377
  0
VERTEX
  8
LAYER_1
 10
157.2683
 20
157.4377
  0
VERTEX
  8
LAYER_1
 10
157.2683
 20
157.5223
  0
VERTEX
  8
LAYER_1
 10
157.1837
 20
157.5223
  0
VERTEX
  8
LAYER_1
 10
157.1837
 20
157.607
  0
VERTEX
  8
LAYER_1
 10
157.1837
 20
157.6917
  0
VERTEX
  8
LAYER_1
 10
157.1837
 20
157.7763
  0
VERTEX
  8
LAYER_1
 10
157.2683
 20
157.7763
  0
VERTEX
  8
LAYER_1
 10
157.2683
 20
157.861
  0
VERTEX
  8
LAYER_1
 10
157.353
 20
157.861
  0
VERTEX
  8
LAYER_1
 10
157.353
 20
157.9457
  0
VERTEX
  8
LAYER_1
 10
157.4377
 20
157.9457
  0
VERTEX
  8
LAYER_1
 10
157.5223
 20
157.9457
  0
VERTEX
  8
LAYER_1
 10
157.5223
 20
157.861
  0
VERTEX
  8
LAYER_1
 10
157.607
 20
157.861
  0
VERTEX
  8
LAYER_1
 10
157.607
 20
157.7763
  0
VERTEX
  8
LAYER_1
 10
157.6917
 20
157.7763
  0
SEQEND
  0
POLYLINE
  8
LAYER_1
 40
0.05
 41
0.05
 66
1
 10
0
 20
0
 30
0
 70
1
  0
VERTEX
  8
LAYER_1
 10
157.6705
 20
157.7128
  0
VERTEX
  8
LAYER_1
 10
157.6705
 20
157.6282
  0
VERTEX
  8
LAYER_1
 10
157.6705
 20
157.5435
  0
VERTEX
  8
LAYER_1
 10
157.5858
 20
157.5435
  0
VERTEX
  8
LAYER_1
 10
157.5858
 20
157.4588
  0
VERTEX
  8
LAYER_1
 10
157.5012
 20
157.4588
  0
VERTEX
  8
LAYER_1
 10
157.4165
 20
157.4588
  0
VERTEX
  8
LAYER_1
 10
157.3318
 20
157.4588
  0
VERTEX
  8
LAYER_1
 10
157.2472
 20
157.4588
  0
VERTEX
  8
LAYER_1
 10
157.2472
 20
157.5435
  0
VERTEX
  8
LAYER_1
 10
157.1625
 20
157.5435
  0
VERTEX
  8
LAYER_1
 10
157.1625
 20
157.6282
  0
VERTEX
  8
LAYER_1
 10
157.1625
 20
157.7128
  0
VERTEX
  8
LAYER_1
 10
157.1625
 20
157.7975
  0
VERTEX
  8
LAYER_1
 10
157.2472
 20
157.7975
  0
VERTEX
  8
LAYER_1
 10
157.2472
 20
157.8822
  0
VERTEX
  8
LAYER_1
 10
157.3318
 20
157.8822
  0
VERTEX
  8
LAYER_1
 10
157.3318
 20
157.9668
  0
VERTEX
  8
LAYER_1
 10
157.4165
 20
157.9668
  0
VERTEX
  8
LAYER_1
 10
157.5012
 20
157.9668
  0
VERTEX
  8
LAYER_1
 10
157.5012
 20
157.8822
  0
VERTEX
  8
LAYER_1
 10
157.5858
 20
157.8822
  0
VERTEX
  8
LAYER_1
 10
157.5858
 20
157.7975
  0
VERTEX
  8
LAYER_1
 10
157.6705
 20
157.7975
  0
SEQEND
  0
POLYLINE
  8
LAYER_1
 40
0.0847
 41
0.0847
 66
1
 10
0
 20
0
 30
0
 70
1
  0
VERTEX
  8
LAYER_1
 10
157.6917
 20
157.6917
  0
VERTEX
  8
LAYER_1
 10
157.6917
 20
157.607
  0
VERTEX
  8
LAYER_1
 10
157.6917
 20
157.5223
  0
VERTEX
  8
LAYER_1
 10
157.607
 20
157.5223
  0
VERTEX
  8
LAYER_1
 10
157.607
 20
157.4377
  0
VERTEX
  8
LAYER_1
 10
157.5223
 20
157.4377
  0
VERTEX
  8
LAYER_1
 10
157.4377
 20
157.4377
  0
VERTEX
  8
LAYER_1
 10
157.353
 20
157.4377
  0
VERTEX
  8
LAYER_1
 10
157.2683
 20
157.4377
  0
VERTEX
  8
LAYER_1
 10
157.2683
 20
157.5223
  0
VERTEX
  8
LAYER_1
 10
157.1837
 20
157.5223
  0
VERTEX
  8
LAYER_1
 10
157.1837
 20
157.607
  0
VERTEX
  8
LAYER_1
 10
157.1837
 20
157.6917
  0
VERTEX
  8
LAYER_1
 10
157.1837
 20
157.7763
  0
VERTEX
  8
LAYER_1
 10
157.2683
 20
157.7763
  0
VERTEX
  8
LAYER_1
 10
157.2683
 20
157.861
  0
VERTEX
  8
LAYER_1
 10
157.353
 20
157.861
  0
VERTEX
  8
LAYER_1
 10
157.353
 20
157.9457
  0
VERTEX
  8
LAYER_1
 10
157.4377
 20
157.9457
  0
VERTEX
  8
LAYER_1
 10
157.5223
 20
157.9457
  0
VERTEX
  8
LAYER_1
 10
157.5223
 20
157.861
  0
VERTEX
  8
LAYER_1
 10
157.607
 20
157.861
  0
VERTEX
  8
LAYER_1
 10
157.607
 20
157.7763
  0
VERTEX
  8
LAYER_1
 10
157.6917
 20
157.7763
  0
SEQEND
  0
POLYLINE
  8
LAYER_1
 40
0.1764
 41
0.1764
 66
1
 10
0
 20
0
 30
0
 70
1
  0
VERTEX
  8
LAYER_1
 10
182.5837
 20
157.6917
  0
VERTEX
  8
LAYER_1
 10
182.5837
 20
157.7763
  0
VERTEX
  8
LAYER_1
 10
182.6683
 20
157.7763
  0
VERTEX
  8
LAYER_1
 10
182.6683
 20
157.861
  0
VERTEX
  8
LAYER_1
 10
182.753
 20
157.861
  0
VERTEX
  8
LAYER_1
 10
182.753
 20
157.9457
  0
VERTEX
  8
LAYER_1
 10
182.8377
 20
157.9457
  0
VERTEX
  8
LAYER_1
 10
182.9223
 20
157.9457
  0
VERTEX
  8
LAYER_1
 10
182.9223
 20
157.861
  0
VERTEX
  8
LAYER_1
 10
183.007
 20
157.861
  0
VERTEX
  8
LAYER_1
 10
183.007
 20
157.7763
  0
VERTEX
  8
LAYER_1
 10
183.0917
 20
157.7763
  0
VERTEX
  8
LAYER_1
 10
183.0917
 20
157.6917
  0
VERTEX
  8
LAYER_1
 10
183.0917
 20
157.607
  0
VERTEX
  8
LAYER_1
 10
183.0917
 20
157.5223
  0
VERTEX
  8
LAYER_1
 10
183.007
 20
157.5223
  0
VERTEX
  8
LAYER_1
 10
183.007
 20
157.4377
  0
VERTEX
  8
LAYER_1
 10
182.9223
 20
157.4377
  0
VERTEX
  8
LAYER_1
 10
182.8377
 20
157.4377
  0
VERTEX
  8
LAYER_1
 10
182.753
 20
157.4377
  0
VERTEX
  8
LAYER_1
 10
182.6683
 20
157.4377
  0
VERTEX
  8
LAYER_1
 10
182.6683
 20
157.5223
  0
VERTEX
  8
LAYER_1
 10
182.5837
 20
157.5223
  0
VERTEX
  8
LAYER_1
 10
182.5837
 20
157.607
  0
SEQEND
  0
POLYLINE
  8
LAYER_1
 40
0.05
 41
0.05
 66
1
 10
0
 20
0
 30
0
 70
1
  0
VERTEX
  8
LAYER_1
 10
182.5625
 20
157.7128
  0
VERTEX
  8
LAYER_1
 10
182.5625
 20
157.7975
  0
VERTEX
  8
LAYER_1
 10
182.6472
 20
157.7975
  0
VERTEX
  8
LAYER_1
 10
182.6472
 20
157.8822
  0
VERTEX
  8
LAYER_1
 10
182.7318
 20
157.8822
  0
VERTEX
  8
LAYER_1
 10
182.7318
 20
157.9668
  0
VERTEX
  8
LAYER_1
 10
182.8165
 20
157.9668
  0
VERTEX
  8
LAYER_1
 10
182.9012
 20
157.9668
  0
VERTEX
  8
LAYER_1
 10
182.9012
 20
157.8822
  0
VERTEX
  8
LAYER_1
 10
182.9858
 20
157.8822
  0
VERTEX
  8
LAYER_1
 10
182.9858
 20
157.7975
  0
VERTEX
  8
LAYER_1
 10
183.0705
 20
157.7975
  0
VERTEX
  8
LAYER_1
 10
183.0705
 20
157.7128
  0
VERTEX
  8
LAYER_1
 10
183.0705
 20
157.6282
  0
VERTEX
  8
LAYER_1
 10
183.0705
 20
157.5435
  0
VERTEX
  8
LAYER_1
 10
182.9858
 20
157.5435
  0
VERTEX
  8
LAYER_1
 10
182.9858
 20
157.4588
  0
VERTEX
  8
LAYER_1
 10
182.9012
 20
157.4588
  0
VERTEX
  8
LAYER_1
 10
182.8165
 20
157.4588
  0
VERTEX
  8
LAYER_1
 10
182.7318
 20
157.4588
  0
VERTEX
  8
LAYER_1
 10
182.6472
 20
157.4588
  0
VERTEX
  8
LAYER_1
 10
182.6472
 20
157.5435
  0
VERTEX
  8
LAYER_1
 10
182.5625
 20
157.5435
  0
VERTEX
  8
LAYER_1
 10
182.5625
 20
157.6282
  0
SEQEND
  0
POLYLINE
  8
LAYER_1
 40
0.0847
 41
0.0847
 66
1
 10
0
 20
0
 30
0
 70
1
  0
VERTEX
  8
LAYER_1
 10
182.5837
 20
157.6917
  0
VERTEX
  8
LAYER_1
 10
182.5837
 20
157.7763
  0
VERTEX
  8
LAYER_1
 10
182.6683
 20
157.7763
  0
VERTEX
  8
LAYER_1
 10
182.6683
 20
157.861
  0
VERTEX
  8
LAYER_1
 10
182.753
 20
157.861
  0
VERTEX
  8
LAYER_1
 10
182.753
 20
157.9457
  0
VERTEX
  8
LAYER_1
 10
182.8377
 20
157.9457
  0
VERTEX
  8
LAYER_1
 10
182.9223
 20
157.9457
  0
VERTEX
  8
LAYER_1
 10
182.9223
 20
157.861
  0
VERTEX
  8
LAYER_1
 10
183.007
 20
157.861
  0
VERTEX
  8
LAYER_1
 10
183.007
 20
157.7763
  0
VERTEX
  8
LAYER_1
 10
183.0917
 20
157.7763
  0
VERTEX
  8
LAYER_1
 10
183.0917
 20
157.6917
  0
VERTEX
  8
LAYER_1
 10
183.0917
 20
157.607
  0
VERTEX
  8
LAYER_1
 10
183.0917
 20
157.5223
  0
VERTEX
  8
LAYER_1
 10
183.007
 20
157.5223
  0
VERTEX
  8
LAYER_1
 10
183.007
 20
157.4377
  0
VERTEX
  8
LAYER_1
 10
182.9223
 20
157.4377
  0
VERTEX
  8
LAYER_1
 10
182.8377
 20
157.4377
  0
VERTEX
  8
LAYER_1
 10
182.753
 20
157.4377
  0
VERTEX
  8
LAYER_1
 10
182.6683
 20
157.4377
  0
VERTEX
  8
LAYER_1
 10
182.6683
 20
157.5223
  0
VERTEX
  8
LAYER_1
 10
182.5837
 20
157.5223
  0
VERTEX
  8
LAYER_1
 10
182.5837
 20
157.607
  0
SEQEND
  0
POLYLINE
  8
LAYER_1
 40
0.05
 41
0.05
 62
255
 66
1
 10
0
 20
0
 30
0
 70
1
  0
VERTEX
  8
LAYER_1
 10
167.7458
 20
162.1155
  0
VERTEX
  8
LAYER_1
 10
172.4872
 20
162.1155
  0
VERTEX
  8
LAYER_1
 10
172.4872
 20
158.8982
  0
VERTEX
  8
LAYER_1
 10
167.7458
 20
158.8982
  0
SEQEND
  0
TEXT
  8
LAYER_1
 10
167.767
 20
159.4426
 11
167.767
 21
159.4426
 40
3.4028
 41
0.5
  1
127
  0
POLYLINE
  8
LAYER_1
 40
0.1764
 41
0.1764
 66
1
 10
0
 20
0
 30
0
  0
VERTEX
  8
LAYER_1
 10
158.115
 20
126.4497
  0
VERTEX
  8
LAYER_1
 10
158.115
 20
131.953
  0
SEQEND
  0
POLYLINE
  8
LAYER_1
 40
0.1764
 41
0.1764
 66
1
 10
0
 20
0
 30
0
  0
VERTEX
  8
LAYER_1
 10
182.1603
 20
126.4497
  0
VERTEX
  8
LAYER_1
 10
182.1603
 20
131.953
  0
SEQEND
  0
POLYLINE
  8
LAYER_1
 40
0.1764
 41
0.1764
 66
1
 10
0
 20
0
 30
0
  0
VERTEX
  8
LAYER_1
 10
158.115
 20
131.953
  0
VERTEX
  8
LAYER_1
 10
182.1603
 20
131.953
  0
SEQEND
  0
POLYLINE
  8
LAYER_1
 40
0.1764
 41
0.1764
 66
1
 10
0
 20
0
 30
0
 70
1
  0
VERTEX
  8
LAYER_1
 10
158.369
 20
131.953
  0
VERTEX
  8
LAYER_1
 10
158.369
 20
131.8683
  0
VERTEX
  8
LAYER_1
 10
158.369
 20
131.7837
  0
VERTEX
  8
LAYER_1
 10
158.2843
 20
131.7837
  0
VERTEX
  8
LAYER_1
 10
158.1997
 20
131.7837
  0
VERTEX
  8
LAYER_1
 10
158.1997
 20
131.699
  0
VERTEX
  8
LAYER_1
 10
158.115
 20
131.699
  0
VERTEX
  8
LAYER_1
 10
158.0303
 20
131.699
  0
VERTEX
  8
LAYER_1
 10
158.0303
 20
131.7837
  0
VERTEX
  8
LAYER_1
 10
157.9457
 20
131.7837
  0
VERTEX
  8
LAYER_1
 10
157.9457
 20
131.8683
  0
VERTEX
  8
LAYER_1
 10
157.861
 20
131.8683
  0
VERTEX
  8
LAYER_1
 10
157.861
 20
131.953
  0
VERTEX
  8
LAYER_1
 10
157.861
 20
132.0377
  0
VERTEX
  8
LAYER_1
 10
157.9457
 20
132.0377
  0
VERTEX
  8
LAYER_1
 10
157.9457
 20
132.1223
  0
VERTEX
  8
LAYER_1
 10
157.9457
 20
132.207
  0
VERTEX
  8
LAYER_1
 10
158.0303
 20
132.207
  0
VERTEX
  8
LAYER_1
 10
158.115
 20
132.207
  0
VERTEX
  8
LAYER_1
 10
158.1997
 20
132.207
  0
VERTEX
  8
LAYER_1
 10
158.2843
 20
132.207
  0
VERTEX
  8
LAYER_1
 10
158.2843
 20
132.1223
  0
VERTEX
  8
LAYER_1
 10
158.369
 20
132.1223
  0
VERTEX
  8
LAYER_1
 10
158.369
 20
132.0377
  0
SEQEND
  0
POLYLINE
  8
LAYER_1
 40
0.05
 41
0.05
 66
1
 10
0
 20
0
 30
0
 70
1
  0
VERTEX
  8
LAYER_1
 10
158.3478
 20
131.9742
  0
VERTEX
  8
LAYER_1
 10
158.3478
 20
131.8895
  0
VERTEX
  8
LAYER_1
 10
158.3478
 20
131.8048
  0
VERTEX
  8
LAYER_1
 10
158.2632
 20
131.8048
  0
VERTEX
  8
LAYER_1
 10
158.1785
 20
131.8048
  0
VERTEX
  8
LAYER_1
 10
158.1785
 20
131.7202
  0
VERTEX
  8
LAYER_1
 10
158.0938
 20
131.7202
  0
VERTEX
  8
LAYER_1
 10
158.0092
 20
131.7202
  0
VERTEX
  8
LAYER_1
 10
158.0092
 20
131.8048
  0
VERTEX
  8
LAYER_1
 10
157.9245
 20
131.8048
  0
VERTEX
  8
LAYER_1
 10
157.9245
 20
131.8895
  0
VERTEX
  8
LAYER_1
 10
157.8398
 20
131.8895
  0
VERTEX
  8
LAYER_1
 10
157.8398
 20
131.9742
  0
VERTEX
  8
LAYER_1
 10
157.8398
 20
132.0588
  0
VERTEX
  8
LAYER_1
 10
157.9245
 20
132.0588
  0
VERTEX
  8
LAYER_1
 10
157.9245
 20
132.1435
  0
VERTEX
  8
LAYER_1
 10
157.9245
 20
132.2282
  0
VERTEX
  8
LAYER_1
 10
158.0092
 20
132.2282
  0
VERTEX
  8
LAYER_1
 10
158.0938
 20
132.2282
  0
VERTEX
  8
LAYER_1
 10
158.1785
 20
132.2282
  0
VERTEX
  8
LAYER_1
 10
158.2632
 20
132.2282
  0
VERTEX
  8
LAYER_1
 10
158.2632
 20
132.1435
  0
VERTEX
  8
LAYER_1
 10
158.3478
 20
132.1435
  0
VERTEX
  8
LAYER_1
 10
158.3478
 20
132.0588
  0
SEQEND
  0
POLYLINE
  8
LAYER_1
 40
0.0847
 41
0.0847
 66
1
 10
0
 20
0
 30
0
 70
1
  0
VERTEX
  8
LAYER_1
 10
158.369
 20
131.953
  0
VERTEX
  8
LAYER_1
 10
158.369
 20
131.8683
  0
VERTEX
  8
LAYER_1
 10
158.369
 20
131.7837
  0
VERTEX
  8
LAYER_1
 10
158.2843
 20
131.7837
  0
VERTEX
  8
LAYER_1
 10
158.1997
 20
131.7837
  0
VERTEX
  8
LAYER_1
 10
158.1997
 20
131.699
  0
VERTEX
  8
LAYER_1
 10
158.115
 20
131.699
  0
VERTEX
  8
LAYER_1
 10
158.0303
 20
131.699
  0
VERTEX
  8
LAYER_1
 10
158.0303
 20
131.7837
  0
VERTEX
  8
LAYER_1
 10
157.9457
 20
131.7837
  0
VERTEX
  8
LAYER_1
 10
157.9457
 20
131.8683
  0
VERTEX
  8
LAYER_1
 10
157.861
 20
131.8683
  0
VERTEX
  8
LAYER_1
 10
157.861
 20
131.953
  0
VERTEX
  8
LAYER_1
 10
157.861
 20
132.0377
  0
VERTEX
  8
LAYER_1
 10
157.9457
 20
132.0377
  0
VERTEX
  8
LAYER_1
 10
157.9457
 20
132.1223
  0
VERTEX
  8
LAYER_1
 10
157.9457
 20
132.207
  0
VERTEX
  8
LAYER_1
 10
158.0303
 20
132.207
  0
VERTEX
  8
LAYER_1
 10
158.115
 20
132.207
  0
VERTEX
  8
LAYER_1
 10
158.1997
 20
132.207
  0
VERTEX
  8
LAYER_1
 10
158.2843
 20
132.207
  0
VERTEX
  8
LAYER_1
 10
158.2843
 20
132.1223
  0
VERTEX
  8
LAYER_1
 10
158.369
 20
132.1223
  0
VERTEX
  8
LAYER_1
 10
158.369
 20
132.0377
  0
SEQEND
  0
POLYLINE
  8
LAYER_1
 40
0.1764
 41
0.1764
 66
1
 10
0
 20
0
 30
0
 70
1
  0
VERTEX
  8
LAYER_1
 10
181.9063
 20
131.953
  0
VERTEX
  8
LAYER_1
 10
181.9063
 20
132.0377
  0
VERTEX
  8
LAYER_1
 10
181.9063
 20
132.1223
  0
VERTEX
  8
LAYER_1
 10
181.991
 20
132.1223
  0
VERTEX
  8
LAYER_1
 10
181.991
 20
132.207
  0
VERTEX
  8
LAYER_1
 10
182.0757
 20
132.207
  0
VERTEX
  8
LAYER_1
 10
182.1603
 20
132.207
  0
VERTEX
  8
LAYER_1
 10
182.245
 20
132.207
  0
VERTEX
  8
LAYER_1
 10
182.3297
 20
132.207
  0
VERTEX
  8
LAYER_1
 10
182.3297
 20
132.1223
  0
VERTEX
  8
LAYER_1
 10
182.3297
 20
132.0377
  0
VERTEX
  8
LAYER_1
 10
182.4143
 20
132.0377
  0
VERTEX
  8
LAYER_1
 10
182.4143
 20
131.953
  0
VERTEX
  8
LAYER_1
 10
182.4143
 20
131.8683
  0
VERTEX
  8
LAYER_1
 10
182.3297
 20
131.8683
  0
VERTEX
  8
LAYER_1
 10
182.3297
 20
131.7837
  0
VERTEX
  8
LAYER_1
 10
182.245
 20
131.7837
  0
VERTEX
  8
LAYER_1
 10
182.245
 20
131.699
  0
VERTEX
  8
LAYER_1
 10
182.1603
 20
131.699
  0
VERTEX
  8
LAYER_1
 10
182.0757
 20
131.699
  0
VERTEX
  8
LAYER_1
 10
182.0757
 20
131.7837
  0
VERTEX
  8
LAYER_1
 10
181.991
 20
131.7837
  0
VERTEX
  8
LAYER_1
 10
181.9063
 20
131.7837
  0
VERTEX
  8
LAYER_1
 10
181.9063
 20
131.8683
  0
SEQEND
  0
POLYLINE
  8
LAYER_1
 40
0.05
 41
0.05
 66
1
 10
0
 20
0
 30
0
 70
1
  0
VERTEX
  8
LAYER_1
 10
181.8852
 20
131.9742
  0
VERTEX
  8
LAYER_1
 10
181.8852
 20
132.0588
  0
VERTEX
  8
LAYER_1
 10
181.8852
 20
132.1435
  0
VERTEX
  8
LAYER_1
 10
181.9698
 20
132.1435
  0
VERTEX
  8
LAYER_1
 10
181.9698
 20
132.2282
  0
VERTEX
  8
LAYER_1
 10
182.0545
 20
132.2282
  0
VERTEX
  8
LAYER_1
 10
182.1392
 20
132.2282
  0
VERTEX
  8
LAYER_1
 10
182.2238
 20
132.2282
  0
VERTEX
  8
LAYER_1
 10
182.3085
 20
132.2282
  0
VERTEX
  8
LAYER_1
 10
182.3085
 20
132.1435
  0
VERTEX
  8
LAYER_1
 10
182.3085
 20
132.0588
  0
VERTEX
  8
LAYER_1
 10
182.3932
 20
132.0588
  0
VERTEX
  8
LAYER_1
 10
182.3932
 20
131.9742
  0
VERTEX
  8
LAYER_1
 10
182.3932
 20
131.8895
  0
VERTEX
  8
LAYER_1
 10
182.3085
 20
131.8895
  0
VERTEX
  8
LAYER_1
 10
182.3085
 20
131.8048
  0
VERTEX
  8
LAYER_1
 10
182.2238
 20
131.8048
  0
VERTEX
  8
LAYER_1
 10
182.2238
 20
131.7202
  0
VERTEX
  8
LAYER_1
 10
182.1392
 20
131.7202
  0
VERTEX
  8
LAYER_1
 10
182.0545
 20
131.7202
  0
VERTEX
  8
LAYER_1
 10
182.0545
 20
131.8048
  0
VERTEX
  8
LAYER_1
 10
181.9698
 20
131.8048
  0
VERTEX
  8
LAYER_1
 10
181.8852
 20
131.8048
  0
VERTEX
  8
LAYER_1
 10
181.8852
 20
131.8895
  0
SEQEND
  0
POLYLINE
  8
LAYER_1
 40
0.0847
 41
0.0847
 66
1
 10
0
 20
0
 30
0
 70
1
  0
VERTEX
  8
LAYER_1
 10
181.9063
 20
131.953
  0
VERTEX
  8
LAYER_1
 10
181.9063
 20
132.0377
  0
VERTEX
  8
LAYER_1
 10
181.9063
 20
132.1223
  0
VERTEX
  8
LAYER_1
 10
181.991
 20
132.1223
  0
VERTEX
  8
LAYER_1
 10
181.991
 20
132.207
  0
VERTEX
  8
LAYER_1
 10
182.0757
 20
132.207
  0
VERTEX
  8
LAYER_1
 10
182.1603
 20
132.207
  0
VERTEX
  8
LAYER_1
 10
182.245
 20
132.207
  0
VERTEX
  8
LAYER_1
 10
182.3297
 20
132.207
  0
VERTEX
  8
LAYER_1
 10
182.3297
 20
132.1223
  0
VERTEX
  8
LAYER_1
 10
182.3297
 20
132.0377
  0
VERTEX
  8
LAYER_1
 10
182.4143
 20
132.0377
  0
VERTEX
  8
LAYER_1
 10
182.4143
 20
131.953
  0
VERTEX
  8
LAYER_1
 10
182.4143
 20
131.8683
  0
VERTEX
  8
LAYER_1
 10
182.3297
 20
131.8683
  0
VERTEX
  8
LAYER_1
 10
182.3297
 20
131.7837
  0
VERTEX
  8
LAYER_1
 10
182.245
 20
131.7837
  0
VERTEX
  8
LAYER_1
 10
182.245
 20
131.699
  0
VERTEX
  8
LAYER_1
 10
182.1603
 20
131.699
  0
VERTEX
  8
LAYER_1
 10
182.0757
 20
131.699
  0
VERTEX
  8
LAYER_1
 10
182.0757
 20
131.7837
  0
VERTEX
  8
LAYER_1
 10
181.991
 20
131.7837
  0
VERTEX
  8
LAYER_1
 10
181.9063
 20
131.7837
  0
VERTEX
  8
LAYER_1
 10
181.9063
 20
131.8683
  0
SEQEND
  0
POLYLINE
  8
LAYER_1
 40
0.05
 41
0.05
 62
255
 66
1
 10
0
 20
0
 30
0
 70
1
  0
VERTEX
  8
LAYER_1
 10
167.7458
 20
136.3768
  0
VERTEX
  8
LAYER_1
 10
172.4872
 20
136.3768
  0
VERTEX
  8
LAYER_1
 10
172.4872
 20
133.1595
  0
VERTEX
  8
LAYER_1
 10
167.7458
 20
133.1595
  0
SEQEND
  0
TEXT
  8
LAYER_1
 10
167.767
 20
133.7042
 11
167.767
 21
133.7042
 40
3.4028
 41
0.5
  1
120
  0
POLYLINE
  8
LAYER_1
 40
0.1764
 41
0.1764
 66
1
 10
0
 20
0
 30
0
  0
VERTEX
  8
LAYER_1
 10
183.8537
 20
174.0323
  0
VERTEX
  8
LAYER_1
 10
190.119
 20
174.0323
  0
SEQEND
  0
POLYLINE
  8
LAYER_1
 40
0.1764
 41
0.1764
 66
1
 10
0
 20
0
 30
0
  0
VERTEX
  8
LAYER_1
 10
183.8537
 20
167.8517
  0
VERTEX
  8
LAYER_1
 10
190.119
 20
167.8517
  0
SEQEND
  0
POLYLINE
  8
LAYER_1
 40
0.1764
 41
0.1764
 66
1
 10
0
 20
0
 30
0
  0
VERTEX
  8
LAYER_1
 10
190.119
 20
174.0323
  0
VERTEX
  8
LAYER_1
 10
190.119
 20
167.8517
  0
SEQEND
  0
POLYLINE
  8
LAYER_1
 40
0.1764
 41
0.1764
 66
1
 10
0
 20
0
 30
0
 70
1
  0
VERTEX
  8
LAYER_1
 10
190.119
 20
173.7783
  0
VERTEX
  8
LAYER_1
 10
190.0343
 20
173.7783
  0
VERTEX
  8
LAYER_1
 10
190.0343
 20
173.863
  0
VERTEX
  8
LAYER_1
 10
189.9497
 20
173.863
  0
VERTEX
  8
LAYER_1
 10
189.9497
 20
173.9477
  0
VERTEX
  8
LAYER_1
 10
189.865
 20
173.9477
  0
VERTEX
  8
LAYER_1
 10
189.865
 20
174.0323
  0
VERTEX
  8
LAYER_1
 10
189.9497
 20
174.117
  0
VERTEX
  8
LAYER_1
 10
189.9497
 20
174.2017
  0
VERTEX
  8
LAYER_1
 10
190.0343
 20
174.2017
  0
VERTEX
  8
LAYER_1
 10
190.0343
 20
174.2863
  0
VERTEX
  8
LAYER_1
 10
190.119
 20
174.2863
  0
VERTEX
  8
LAYER_1
 10
190.2037
 20
174.2863
  0
VERTEX
  8
LAYER_1
 10
190.2883
 20
174.2863
  0
VERTEX
  8
LAYER_1
 10
190.2883
 20
174.2017
  0
VERTEX
  8
LAYER_1
 10
190.373
 20
174.2017
  0
VERTEX
  8
LAYER_1
 10
190.373
 20
174.117
  0
VERTEX
  8
LAYER_1
 10
190.373
 20
174.0323
  0
VERTEX
  8
LAYER_1
 10
190.373
 20
173.9477
  0
VERTEX
  8
LAYER_1
 10
190.373
 20
173.863
  0
VERTEX
  8
LAYER_1
 10
190.2883
 20
173.863
  0
VERTEX
  8
LAYER_1
 10
190.2883
 20
173.7783
  0
VERTEX
  8
LAYER_1
 10
190.2037
 20
173.7783
  0
SEQEND
  0
POLYLINE
  8
LAYER_1
 40
0.05
 41
0.05
 66
1
 10
0
 20
0
 30
0
 70
1
  0
VERTEX
  8
LAYER_1
 10
190.0978
 20
173.7995
  0
VERTEX
  8
LAYER_1
 10
190.0132
 20
173.7995
  0
VERTEX
  8
LAYER_1
 10
190.0132
 20
173.8842
  0
VERTEX
  8
LAYER_1
 10
189.9285
 20
173.8842
  0
VERTEX
  8
LAYER_1
 10
189.9285
 20
173.9688
  0
VERTEX
  8
LAYER_1
 10
189.8438
 20
173.9688
  0
VERTEX
  8
LAYER_1
 10
189.8438
 20
174.0535
  0
VERTEX
  8
LAYER_1
 10
189.9285
 20
174.1382
  0
VERTEX
  8
LAYER_1
 10
189.9285
 20
174.2228
  0
VERTEX
  8
LAYER_1
 10
190.0132
 20
174.2228
  0
VERTEX
  8
LAYER_1
 10
190.0132
 20
174.3075
  0
VERTEX
  8
LAYER_1
 10
190.0978
 20
174.3075
  0
VERTEX
  8
LAYER_1
 10
190.1825
 20
174.3075
  0
VERTEX
  8
LAYER_1
 10
190.2672
 20
174.3075
  0
VERTEX
  8
LAYER_1
 10
190.2672
 20
174.2228
  0
VERTEX
  8
LAYER_1
 10
190.3518
 20
174.2228
  0
VERTEX
  8
LAYER_1
 10
190.3518
 20
174.1382
  0
VERTEX
  8
LAYER_1
 10
190.3518
 20
174.0535
  0
VERTEX
  8
LAYER_1
 10
190.3518
 20
173.9688
  0
VERTEX
  8
LAYER_1
 10
190.3518
 20
173.8842
  0
VERTEX
  8
LAYER_1
 10
190.2672
 20
173.8842
  0
VERTEX
  8
LAYER_1
 10
190.2672
 20
173.7995
  0
VERTEX
  8
LAYER_1
 10
190.1825
 20
173.7995
  0
SEQEND
  0
POLYLINE
  8
LAYER_1
 40
0.0847
 41
0.0847
 66
1
 10
0
 20
0
 30
0
 70
1
  0
VERTEX
  8
LAYER_1
 10
190.119
 20
173.7783
  0
VERTEX
  8
LAYER_1
 10
190.0343
 20
173.7783
  0
VERTEX
  8
LAYER_1
 10
190.0343
 20
173.863
  0
VERTEX
  8
LAYER_1
 10
189.9497
 20
173.863
  0
VERTEX
  8
LAYER_1
 10
189.9497
 20
173.9477
  0
VERTEX
  8
LAYER_1
 10
189.865
 20
173.9477
  0
VERTEX
  8
LAYER_1
 10
189.865
 20
174.0323
  0
VERTEX
  8
LAYER_1
 10
189.9497
 20
174.117
  0
VERTEX
  8
LAYER_1
 10
189.9497
 20
174.2017
  0
VERTEX
  8
LAYER_1
 10
190.0343
 20
174.2017
  0
VERTEX
  8
LAYER_1
 10
190.0343
 20
174.2863
  0
VERTEX
  8
LAYER_1
 10
190.119
 20
174.2863
  0
VERTEX
  8
LAYER_1
 10
190.2037
 20
174.2863
  0
VERTEX
  8
LAYER_1
 10
190.2883
 20
174.2863
  0
VERTEX
  8
LAYER_1
 10
190.2883
 20
174.2017
  0
VERTEX
  8
LAYER_1
 10
190.373
 20
174.2017
  0
VERTEX
  8
LAYER_1
 10
190.373
 20
174.117
  0
VERTEX
  8
LAYER_1
 10
190.373
 20
174.0323
  0
VERTEX
  8
LAYER_1
 10
190.373
 20
173.9477
  0
VERTEX
  8
LAYER_1
 10
190.373
 20
173.863
  0
VERTEX
  8
LAYER_1
 10
190.2883
 20
173.863
  0
VERTEX
  8
LAYER_1
 10
190.2883
 20
173.7783
  0
VERTEX
  8
LAYER_1
 10
190.2037
 20
173.7783
  0
SEQEND
  0
POLYLINE
  8
LAYER_1
 40
0.1764
 41
0.1764
 66
1
 10
0
 20
0
 30
0
 70
1
  0
VERTEX
  8
LAYER_1
 10
190.119
 20
168.1057
  0
VERTEX
  8
LAYER_1
 10
190.2037
 20
168.1057
  0
VERTEX
  8
LAYER_1
 10
190.2037
 20
168.021
  0
VERTEX
  8
LAYER_1
 10
190.2883
 20
168.021
  0
VERTEX
  8
LAYER_1
 10
190.373
 20
168.021
  0
VERTEX
  8
LAYER_1
 10
190.373
 20
167.9363
  0
VERTEX
  8
LAYER_1
 10
190.373
 20
167.8517
  0
VERTEX
  8
LAYER_1
 10
190.373
 20
167.767
  0
VERTEX
  8
LAYER_1
 10
190.373
 20
167.6823
  0
VERTEX
  8
LAYER_1
 10
190.2883
 20
167.6823
  0
VERTEX
  8
LAYER_1
 10
190.2883
 20
167.5977
  0
VERTEX
  8
LAYER_1
 10
190.2037
 20
167.5977
  0
VERTEX
  8
LAYER_1
 10
190.119
 20
167.5977
  0
VERTEX
  8
LAYER_1
 10
190.0343
 20
167.5977
  0
VERTEX
  8
LAYER_1
 10
189.9497
 20
167.5977
  0
VERTEX
  8
LAYER_1
 10
189.9497
 20
167.6823
  0
VERTEX
  8
LAYER_1
 10
189.9497
 20
167.767
  0
VERTEX
  8
LAYER_1
 10
189.865
 20
167.767
  0
VERTEX
  8
LAYER_1
 10
189.865
 20
167.8517
  0
VERTEX
  8
LAYER_1
 10
189.9497
 20
167.8517
  0
VERTEX
  8
LAYER_1
 10
189.9497
 20
167.9363
  0
VERTEX
  8
LAYER_1
 10
189.9497
 20
168.021
  0
VERTEX
  8
LAYER_1
 10
190.0343
 20
168.021
  0
VERTEX
  8
LAYER_1
 10
190.119
 20
168.021
  0
SEQEND
  0
POLYLINE
  8
LAYER_1
 40
0.05
 41
0.05
 66
1
 10
0
 20
0
 30
0
 70
1
  0
VERTEX
  8
LAYER_1
 10
190.0978
 20
168.1268
  0
VERTEX
  8
LAYER_1
 10
190.1825
 20
168.1268
  0
VERTEX
  8
LAYER_1
 10
190.1825
 20
168.0422
  0
VERTEX
  8
LAYER_1
 10
190.2672
 20
168.0422
  0
VERTEX
  8
LAYER_1
 10
190.3518
 20
168.0422
  0
VERTEX
  8
LAYER_1
 10
190.3518
 20
167.9575
  0
VERTEX
  8
LAYER_1
 10
190.3518
 20
167.8728
  0
VERTEX
  8
LAYER_1
 10
190.3518
 20
167.7882
  0
VERTEX
  8
LAYER_1
 10
190.3518
 20
167.7035
  0
VERTEX
  8
LAYER_1
 10
190.2672
 20
167.7035
  0
VERTEX
  8
LAYER_1
 10
190.2672
 20
167.6188
  0
VERTEX
  8
LAYER_1
 10
190.1825
 20
167.6188
  0
VERTEX
  8
LAYER_1
 10
190.0978
 20
167.6188
  0
VERTEX
  8
LAYER_1
 10
190.0132
 20
167.6188
  0
VERTEX
  8
LAYER_1
 10
189.9285
 20
167.6188
  0
VERTEX
  8
LAYER_1
 10
189.9285
 20
167.7035
  0
VERTEX
  8
LAYER_1
 10
189.9285
 20
167.7882
  0
VERTEX
  8
LAYER_1
 10
189.8438
 20
167.7882
  0
VERTEX
  8
LAYER_1
 10
189.8438
 20
167.8728
  0
VERTEX
  8
LAYER_1
 10
189.9285
 20
167.8728
  0
VERTEX
  8
LAYER_1
 10
189.9285
 20
167.9575
  0
VERTEX
  8
LAYER_1
 10
189.9285
 20
168.0422
  0
VERTEX
  8
LAYER_1
 10
190.0132
 20
168.0422
  0
VERTEX
  8
LAYER_1
 10
190.0978
 20
168.0422
  0
SEQEND
  0
POLYLINE
  8
LAYER_1
 40
0.0847
 41
0.0847
 66
1
 10
0
 20
0
 30
0
 70
1
  0
VERTEX
  8
LAYER_1
 10
190.119
 20
168.1057
  0
VERTEX
  8
LAYER_1
 10
190.2037
 20
168.1057
  0
VERTEX
  8
LAYER_1
 10
190.2037
 20
168.021
  0
VERTEX
  8
LAYER_1
 10
190.2883
 20
168.021
  0
VERTEX
  8
LAYER_1
 10
190.373
 20
168.021
  0
VERTEX
  8
LAYER_1
 10
190.373
 20
167.9363
  0
VERTEX
  8
LAYER_1
 10
190.373
 20
167.8517
  0
VERTEX
  8
LAYER_1
 10
190.373
 20
167.767
  0
VERTEX
  8
LAYER_1
 10
190.373
 20
167.6823
  0
VERTEX
  8
LAYER_1
 10
190.2883
 20
167.6823
  0
VERTEX
  8
LAYER_1
 10
190.2883
 20
167.5977
  0
VERTEX
  8
LAYER_1
 10
190.2037
 20
167.5977
  0
VERTEX
  8
LAYER_1
 10
190.119
 20
167.5977
  0
VERTEX
  8
LAYER_1
 10
190.0343
 20
167.5977
  0
VERTEX
  8
LAYER_1
 10
189.9497
 20
167.5977
  0
VERTEX
  8
LAYER_1
 10
189.9497
 20
167.6823
  0
VERTEX
  8
LAYER_1
 10
189.9497
 20
167.767
  0
VERTEX
  8
LAYER_1
 10
189.865
 20
167.767
  0
VERTEX
  8
LAYER_1
 10
189.865
 20
167.8517
  0
VERTEX
  8
LAYER_1
 10
189.9497
 20
167.8517
  0
VERTEX
  8
LAYER_1
 10
189.9497
 20
167.9363
  0
VERTEX
  8
LAYER_1
 10
189.9497
 20
168.021
  0
VERTEX
  8
LAYER_1
 10
190.0343
 20
168.021
  0
VERTEX
  8
LAYER_1
 10
190.119
 20
168.021
  0
SEQEND
  0
POLYLINE
  8
LAYER_1
 40
0.05
 41
0.05
 62
255
 66
1
 10
0
 20
0
 30
0
 70
1
  0
VERTEX
  8
LAYER_1
 10
185.6952
 20
169.3968
  0
VERTEX
  8
LAYER_1
 10
185.6952
 20
172.5295
  0
VERTEX
  8
LAYER_1
 10
188.9125
 20
172.5295
  0
VERTEX
  8
LAYER_1
 10
188.9125
 20
169.3968
  0
SEQEND
  0
TEXT
  8
LAYER_1
 10
188.3682
 20
169.3755
 11
188.3682
 21
169.3755
 40
3.4028
 41
0.5
 50
89.99999999
  1
31
  0
POLYLINE
  8
LAYER_1
 40
0.1764
 41
0.1764
 66
1
 10
0
 20
0
 30
0
  0
VERTEX
  8
LAYER_1
 10
183.1763
 20
125.4337
  0
VERTEX
  8
LAYER_1
 10
190.119
 20
125.4337
  0
SEQEND
  0
POLYLINE
  8
LAYER_1
 40
0.1764
 41
0.1764
 66
1
 10
0
 20
0
 30
0
  0
VERTEX
  8
LAYER_1
 10
183.1763
 20
123.9943
  0
VERTEX
  8
LAYER_1
 10
190.119
 20
123.9943
  0
SEQEND
  0
POLYLINE
  8
LAYER_1
 40
0.1764
 41
0.1764
 66
1
 10
0
 20
0
 30
0
  0
VERTEX
  8
LAYER_1
 10
190.119
 20
125.4337
  0
VERTEX
  8
LAYER_1
 10
190.119
 20
123.9943
  0
SEQEND
  0
POLYLINE
  8
LAYER_1
 40
0.1764
 41
0.1764
 66
1
 10
0
 20
0
 30
0
 70
1
  0
VERTEX
  8
LAYER_1
 10
190.119
 20
125.1797
  0
VERTEX
  8
LAYER_1
 10
190.0343
 20
125.1797
  0
VERTEX
  8
LAYER_1
 10
190.0343
 20
125.2643
  0
VERTEX
  8
LAYER_1
 10
189.9497
 20
125.2643
  0
VERTEX
  8
LAYER_1
 10
189.9497
 20
125.349
  0
VERTEX
  8
LAYER_1
 10
189.865
 20
125.349
  0
VERTEX
  8
LAYER_1
 10
189.865
 20
125.4337
  0
VERTEX
  8
LAYER_1
 10
189.9497
 20
125.5183
  0
VERTEX
  8
LAYER_1
 10
189.9497
 20
125.603
  0
VERTEX
  8
LAYER_1
 10
190.0343
 20
125.603
  0
VERTEX
  8
LAYER_1
 10
190.0343
 20
125.6877
  0
VERTEX
  8
LAYER_1
 10
190.119
 20
125.6877
  0
VERTEX
  8
LAYER_1
 10
190.2037
 20
125.6877
  0
VERTEX
  8
LAYER_1
 10
190.2883
 20
125.6877
  0
VERTEX
  8
LAYER_1
 10
190.2883
 20
125.603
  0
VERTEX
  8
LAYER_1
 10
190.373
 20
125.603
  0
VERTEX
  8
LAYER_1
 10
190.373
 20
125.5183
  0
VERTEX
  8
LAYER_1
 10
190.373
 20
125.4337
  0
VERTEX
  8
LAYER_1
 10
190.373
 20
125.349
  0
VERTEX
  8
LAYER_1
 10
190.373
 20
125.2643
  0
VERTEX
  8
LAYER_1
 10
190.2883
 20
125.2643
  0
VERTEX
  8
LAYER_1
 10
190.2883
 20
125.1797
  0
VERTEX
  8
LAYER_1
 10
190.2037
 20
125.1797
  0
SEQEND
  0
POLYLINE
  8
LAYER_1
 40
0.05
 41
0.05
 66
1
 10
0
 20
0
 30
0
 70
1
  0
VERTEX
  8
LAYER_1
 10
190.0978
 20
125.2008
  0
VERTEX
  8
LAYER_1
 10
190.0132
 20
125.2008
  0
VERTEX
  8
LAYER_1
 10
190.0132
 20
125.2855
  0
VERTEX
  8
LAYER_1
 10
189.9285
 20
125.2855
  0
VERTEX
  8
LAYER_1
 10
189.9285
 20
125.3702
  0
VERTEX
  8
LAYER_1
 10
189.8438
 20
125.3702
  0
VERTEX
  8
LAYER_1
 10
189.8438
 20
125.4548
  0
VERTEX
  8
LAYER_1
 10
189.9285
 20
125.5395
  0
VERTEX
  8
LAYER_1
 10
189.9285
 20
125.6242
  0
VERTEX
  8
LAYER_1
 10
190.0132
 20
125.6242
  0
VERTEX
  8
LAYER_1
 10
190.0132
 20
125.7088
  0
VERTEX
  8
LAYER_1
 10
190.0978
 20
125.7088
  0
VERTEX
  8
LAYER_1
 10
190.1825
 20
125.7088
  0
VERTEX
  8
LAYER_1
 10
190.2672
 20
125.7088
  0
VERTEX
  8
LAYER_1
 10
190.2672
 20
125.6242
  0
VERTEX
  8
LAYER_1
 10
190.3518
 20
125.6242
  0
VERTEX
  8
LAYER_1
 10
190.3518
 20
125.5395
  0
VERTEX
  8
LAYER_1
 10
190.3518
 20
125.4548
  0
VERTEX
  8
LAYER_1
 10
190.3518
 20
125.3702
  0
VERTEX
  8
LAYER_1
 10
190.3518
 20
125.2855
  0
VERTEX
  8
LAYER_1
 10
190.2672
 20
125.2855
  0
VERTEX
  8
LAYER_1
 10
190.2672
 20
125.2008
  0
VERTEX
  8
LAYER_1
 10
190.1825
 20
125.2008
  0
SEQEND
  0
POLYLINE
  8
LAYER_1
 40
0.0847
 41
0.0847
 66
1
 10
0
 20
0
 30
0
 70
1
  0
VERTEX
  8
LAYER_1
 10
190.119
 20
125.1797
  0
VERTEX
  8
LAYER_1
 10
190.0343
 20
125.1797
  0
VERTEX
  8
LAYER_1
 10
190.0343
 20
125.2643
  0
VERTEX
  8
LAYER_1
 10
189.9497
 20
125.2643
  0
VERTEX
  8
LAYER_1
 10
189.9497
 20
125.349
  0
VERTEX
  8
LAYER_1
 10
189.865
 20
125.349
  0
VERTEX
  8
LAYER_1
 10
189.865
 20
125.4337
  0
VERTEX
  8
LAYER_1
 10
189.9497
 20
125.5183
  0
VERTEX
  8
LAYER_1
 10
189.9497
 20
125.603
  0
VERTEX
  8
LAYER_1
 10
190.0343
 20
125.603
  0
VERTEX
  8
LAYER_1
 10
190.0343
 20
125.6877
  0
VERTEX
  8
LAYER_1
 10
190.119
 20
125.6877
  0
VERTEX
  8
LAYER_1
 10
190.2037
 20
125.6877
  0
VERTEX
  8
LAYER_1
 10
190.2883
 20
125.6877
  0
VERTEX
  8
LAYER_1
 10
190.2883
 20
125.603
  0
VERTEX
  8
LAYER_1
 10
190.373
 20
125.603
  0
VERTEX
  8
LAYER_1
 10
190.373
 20
125.5183
  0
VERTEX
  8
LAYER_1
 10
190.373
 20
125.4337
  0
VERTEX
  8
LAYER_1
 10
190.373
 20
125.349
  0
VERTEX
  8
LAYER_1
 10
190.373
 20
125.2643
  0
VERTEX
  8
LAYER_1
 10
190.2883
 20
125.2643
  0
VERTEX
  8
LAYER_1
 10
190.2883
 20
125.1797
  0
VERTEX
  8
LAYER_1
 10
190.2037
 20
125.1797
  0
SEQEND
  0
POLYLINE
  8
LAYER_1
 40
0.1764
 41
0.1764
 66
1
 10
0
 20
0
 30
0
 70
1
  0
VERTEX
  8
LAYER_1
 10
190.119
 20
124.2483
  0
VERTEX
  8
LAYER_1
 10
190.2037
 20
124.2483
  0
VERTEX
  8
LAYER_1
 10
190.2883
 20
124.2483
  0
VERTEX
  8
LAYER_1
 10
190.2883
 20
124.1637
  0
VERTEX
  8
LAYER_1
 10
190.373
 20
124.1637
  0
VERTEX
  8
LAYER_1
 10
190.373
 20
124.079
  0
VERTEX
  8
LAYER_1
 10
190.373
 20
123.9943
  0
VERTEX
  8
LAYER_1
 10
190.373
 20
123.9097
  0
VERTEX
  8
LAYER_1
 10
190.373
 20
123.825
  0
VERTEX
  8
LAYER_1
 10
190.2883
 20
123.825
  0
VERTEX
  8
LAYER_1
 10
190.2037
 20
123.825
  0
VERTEX
  8
LAYER_1
 10
190.2037
 20
123.7403
  0
VERTEX
  8
LAYER_1
 10
190.119
 20
123.7403
  0
VERTEX
  8
LAYER_1
 10
190.119
 20
123.825
  0
VERTEX
  8
LAYER_1
 10
190.0343
 20
123.825
  0
VERTEX
  8
LAYER_1
 10
189.9497
 20
123.825
  0
VERTEX
  8
LAYER_1
 10
189.9497
 20
123.9097
  0
VERTEX
  8
LAYER_1
 10
189.9497
 20
123.9943
  0
VERTEX
  8
LAYER_1
 10
189.865
 20
123.9943
  0
VERTEX
  8
LAYER_1
 10
189.865
 20
124.079
  0
VERTEX
  8
LAYER_1
 10
189.9497
 20
124.079
  0
VERTEX
  8
LAYER_1
 10
189.9497
 20
124.1637
  0
VERTEX
  8
LAYER_1
 10
189.9497
 20
124.2483
  0
VERTEX
  8
LAYER_1
 10
190.0343
 20
124.2483
  0
SEQEND
  0
POLYLINE
  8
LAYER_1
 40
0.05
 41
0.05
 66
1
 10
0
 20
0
 30
0
 70
1
  0
VERTEX
  8
LAYER_1
 10
190.0978
 20
124.2695
  0
VERTEX
  8
LAYER_1
 10
190.1825
 20
124.2695
  0
VERTEX
  8
LAYER_1
 10
190.2672
 20
124.2695
  0
VERTEX
  8
LAYER_1
 10
190.2672
 20
124.1848
  0
VERTEX
  8
LAYER_1
 10
190.3518
 20
124.1848
  0
VERTEX
  8
LAYER_1
 10
190.3518
 20
124.1002
  0
VERTEX
  8
LAYER_1
 10
190.3518
 20
124.0155
  0
VERTEX
  8
LAYER_1
 10
190.3518
 20
123.9308
  0
VERTEX
  8
LAYER_1
 10
190.3518
 20
123.8462
  0
VERTEX
  8
LAYER_1
 10
190.2672
 20
123.8462
  0
VERTEX
  8
LAYER_1
 10
190.1825
 20
123.8462
  0
VERTEX
  8
LAYER_1
 10
190.1825
 20
123.7615
  0
VERTEX
  8
LAYER_1
 10
190.0978
 20
123.7615
  0
VERTEX
  8
LAYER_1
 10
190.0978
 20
123.8462
  0
VERTEX
  8
LAYER_1
 10
190.0132
 20
123.8462
  0
VERTEX
  8
LAYER_1
 10
189.9285
 20
123.8462
  0
VERTEX
  8
LAYER_1
 10
189.9285
 20
123.9308
  0
VERTEX
  8
LAYER_1
 10
189.9285
 20
124.0155
  0
VERTEX
  8
LAYER_1
 10
189.8438
 20
124.0155
  0
VERTEX
  8
LAYER_1
 10
189.8438
 20
124.1002
  0
VERTEX
  8
LAYER_1
 10
189.9285
 20
124.1002
  0
VERTEX
  8
LAYER_1
 10
189.9285
 20
124.1848
  0
VERTEX
  8
LAYER_1
 10
189.9285
 20
124.2695
  0
VERTEX
  8
LAYER_1
 10
190.0132
 20
124.2695
  0
SEQEND
  0
POLYLINE
  8
LAYER_1
 40
0.0847
 41
0.0847
 66
1
 10
0
 20
0
 30
0
 70
1
  0
VERTEX
  8
LAYER_1
 10
190.119
 20
124.2483
  0
VERTEX
  8
LAYER_1
 10
190.2037
 20
124.2483
  0
VERTEX
  8
LAYER_1
 10
190.2883
 20
124.2483
  0
VERTEX
  8
LAYER_1
 10
190.2883
 20
124.1637
  0
VERTEX
  8
LAYER_1
 10
190.373
 20
124.1637
  0
VERTEX
  8
LAYER_1
 10
190.373
 20
124.079
  0
VERTEX
  8
LAYER_1
 10
190.373
 20
123.9943
  0
VERTEX
  8
LAYER_1
 10
190.373
 20
123.9097
  0
VERTEX
  8
LAYER_1
 10
190.373
 20
123.825
  0
VERTEX
  8
LAYER_1
 10
190.2883
 20
123.825
  0
VERTEX
  8
LAYER_1
 10
190.2037
 20
123.825
  0
VERTEX
  8
LAYER_1
 10
190.2037
 20
123.7403
  0
VERTEX
  8
LAYER_1
 10
190.119
 20
123.7403
  0
VERTEX
  8
LAYER_1
 10
190.119
 20
123.825
  0
VERTEX
  8
LAYER_1
 10
190.0343
 20
123.825
  0
VERTEX
  8
LAYER_1
 10
189.9497
 20
123.825
  0
VERTEX
  8
LAYER_1
 10
189.9497
 20
123.9097
  0
VERTEX
  8
LAYER_1
 10
189.9497
 20
123.9943
  0
VERTEX
  8
LAYER_1
 10
189.865
 20
123.9943
  0
VERTEX
  8
LAYER_1
 10
189.865
 20
124.079
  0
VERTEX
  8
LAYER_1
 10
189.9497
 20
124.079
  0
VERTEX
  8
LAYER_1
 10
189.9497
 20
124.1637
  0
VERTEX
  8
LAYER_1
 10
189.9497
 20
124.2483
  0
VERTEX
  8
LAYER_1
 10
190.0343
 20
124.2483
  0
SEQEND
  0
POLYLINE
  8
LAYER_1
 40
0.05
 41
0.05
 62
255
 66
1
 10
0
 20
0
 30
0
 70
1
  0
VERTEX
  8
LAYER_1
 10
185.6952
 20
123.9308
  0
VERTEX
  8
LAYER_1
 10
185.6952
 20
125.5395
  0
VERTEX
  8
LAYER_1
 10
188.9125
 20
125.5395
  0
VERTEX
  8
LAYER_1
 10
188.9125
 20
123.9308
  0
SEQEND
  0
TEXT
  8
LAYER_1
 10
188.3682
 20
123.9097
 11
188.3682
 21
123.9097
 40
3.4028
 41
0.5
 50
89.99999999
  1
7
  0
ENDSEC
  0
EOF
