  0
SECTION
  2
HEADER
  9
$ACADVER
  1
AC1009
  9
$LUNITS
 70
2
  9
$LUPREC
 70
4
  9
$LTSCALE
 40
1.0
  9
$EXTMIN
 10
3.1173
 20
13.235
 30
0
  9
$EXTMAX
 10
287.6826
 20
394.2815
 30
0
  0
ENDSEC
  0
SECTION
  2
TABLES
  0
TABLE
  2
LTYPE
 70
256
  0
LTYPE
  2
AIGENLINE001
 70
64
  3
generate AI->DXF Converter
 72
65
 73
4
 40
10
 49
6.25
 49
-1.25
 49
1.25
 49
-1.25
  0
LTYPE
  2
AIGENLINE002
 70
64
  3
generate AI->DXF Converter
 72
65
 73
2
 40
5
 49
2.5
 49
-2.5
  0
LTYPE
  2
AIGENLINE003
 70
64
  3
generate AI->DXF Converter
 72
65
 73
2
 40
2.5
 49
1.25
 49
-1.25
  0
ENDTAB
  0
TABLE
  2
LAYER
 70
1
  0
LAYER
  2
LAYER_1
 70
64
 62
7
  6
CONTINUOUS
  0
ENDTAB
  0
TABLE
  2
STYLE
 70
6
  0
STYLE
  2
STANDARD
 70
0
 40
0
 50
0
 71
0
 41
0
 42
0
  3
TXT
  4
BIGFONT
  0
ENDTAB
  0
ENDSEC
  0
SECTION
  2
BLOCKS
  0
BLOCK
  8
LAYER_1
  2
AIGNBL01040005
 70
64
 10
0
 20
0
 30
0
  3
AIGNBL01040005
  0
POLYLINE
  8
LAYER_1
 40
0.05
 41
0.05
 62
39
 66
1
 10
0
 20
0
 30
0
 70
1
  0
VERTEX
  8
LAYER_1
 10
191.0642
 20
22.2284
  0
VERTEX
  8
LAYER_1
 10
190.5753
 20
21.0433
  0
VERTEX
  8
LAYER_1
 10
189.9473
 20
21.0433
  0
VERTEX
  8
LAYER_1
 10
191.5468
 20
24.8092
  0
VERTEX
  8
LAYER_1
 10
192.2799
 20
24.8092
  0
VERTEX
  8
LAYER_1
 10
193.8864
 20
21.0433
  0
VERTEX
  8
LAYER_1
 10
193.2363
 20
21.0433
  0
VERTEX
  8
LAYER_1
 10
192.7336
 20
22.2284
  0
SEQEND
  0
POLYLINE
  8
LAYER_1
 40
0.05
 41
0.05
 62
39
 66
1
 10
0
 20
0
 30
0
 70
1
  0
VERTEX
  8
LAYER_1
 10
192.6079
 20
22.6074
  0
VERTEX
  8
LAYER_1
 10
192.1469
 20
23.6922
  0
VERTEX
  8
LAYER_1
 10
191.9023
 20
24.3792
  0
VERTEX
  8
LAYER_1
 10
191.8886
 20
24.3792
  0
VERTEX
  8
LAYER_1
 10
191.6509
 20
23.6967
  0
VERTEX
  8
LAYER_1
 10
191.1902
 20
22.6074
  0
SEQEND
  0
ENDBLK
  0
BLOCK
  8
LAYER_1
  2
AIGNBL01040006
 70
64
 10
0
 20
0
 30
0
  3
AIGNBL01040006
  0
POLYLINE
  8
LAYER_1
 40
0.05
 41
0.05
 62
39
 66
1
 10
0
 20
0
 30
0
 70
1
  0
VERTEX
  8
LAYER_1
 10
198.2517
 20
20.49
 42
-0.01563743173
  0
VERTEX
  8
LAYER_1
 10
196.4495
 20
20.9262
  0
VERTEX
  8
LAYER_1
 10
196.1629
 20
20.9816
 42
-0.08356586593
  0
VERTEX
  8
LAYER_1
 10
195.2988
 20
21.1478
 42
-0.09749891868
  0
VERTEX
  8
LAYER_1
 10
194.6377
 20
21.5537
 42
-0.2129139625
  0
VERTEX
  8
LAYER_1
 10
194.0889
 20
22.8864
 42
-0.09685416448
  0
VERTEX
  8
LAYER_1
 10
194.2335
 20
23.6598
 42
-0.2046320353
  0
VERTEX
  8
LAYER_1
 10
195.2811
 20
24.6841
 42
-0.09825228572
  0
VERTEX
  8
LAYER_1
 10
196.2821
 20
24.8705
 42
-0.08554836282
  0
VERTEX
  8
LAYER_1
 10
197.1507
 20
24.7292
 42
-0.1004347897
  0
VERTEX
  8
LAYER_1
 10
197.8158
 20
24.3349
 42
-0.2140895568
  0
VERTEX
  8
LAYER_1
 10
198.3912
 20
22.965
 42
-0.09540850229
  0
VERTEX
  8
LAYER_1
 10
198.2523
 20
22.1972
 42
-0.2143210227
  0
VERTEX
  8
LAYER_1
 10
197.2294
 20
21.2187
 42
-0.02338900436
  0
VERTEX
  8
LAYER_1
 10
197.0503
 20
21.1604
  0
VERTEX
  8
LAYER_1
 10
197.0503
 20
21.138
 42
0.01711211955
  0
VERTEX
  8
LAYER_1
 10
198.4267
 20
20.8979
  0
SEQEND
  0
POLYLINE
  8
LAYER_1
 40
0.05
 41
0.05
 62
39
 66
1
 10
0
 20
0
 30
0
 70
1
  0
VERTEX
  8
LAYER_1
 10
197.749
 20
22.9436
 42
0.1071543648
  0
VERTEX
  8
LAYER_1
 10
197.5977
 20
23.6484
 42
0.2976507644
  0
VERTEX
  8
LAYER_1
 10
196.2607
 20
24.4739
 42
0.1072265869
  0
VERTEX
  8
LAYER_1
 10
195.5709
 20
24.3344
 42
0.2386027189
  0
VERTEX
  8
LAYER_1
 10
194.7839
 20
23.3288
 42
0.05751346494
  0
VERTEX
  8
LAYER_1
 10
194.7383
 20
22.8988
 42
0.2180663696
  0
VERTEX
  8
LAYER_1
 10
195.2689
 20
21.7034
 42
0.1772758138
  0
VERTEX
  8
LAYER_1
 10
196.2328
 20
21.3778
 42
0.1075185771
  0
VERTEX
  8
LAYER_1
 10
196.9142
 20
21.5168
 42
0.2370926009
  0
VERTEX
  8
LAYER_1
 10
197.7013
 20
22.5164
 42
0.05601310134
  0
SEQEND
  0
ENDBLK
  0
BLOCK
  8
LAYER_1
  2
AIGNBL01040007
 70
64
 10
0
 20
0
 30
0
  3
AIGNBL01040007
  0
POLYLINE
  8
LAYER_1
 40
0.05
 41
0.05
 62
39
 66
1
 10
0
 20
0
 30
0
 70
1
  0
VERTEX
  8
LAYER_1
 10
199.7186
 20
24.8092
  0
VERTEX
  8
LAYER_1
 10
199.7186
 20
22.5798
 42
0.1145161066
  0
VERTEX
  8
LAYER_1
 10
199.8525
 20
21.914
 42
0.1464833358
  0
VERTEX
  8
LAYER_1
 10
200.2028
 20
21.5288
 42
0.1362674881
  0
VERTEX
  8
LAYER_1
 10
200.8151
 20
21.3778
 42
0.121920808
  0
VERTEX
  8
LAYER_1
 10
201.4383
 20
21.5125
 42
0.1503067419
  0
VERTEX
  8
LAYER_1
 10
201.8101
 20
21.8815
 42
0.1256285103
  0
VERTEX
  8
LAYER_1
 10
201.9607
 20
22.5798
  0
VERTEX
  8
LAYER_1
 10
201.9607
 20
24.8092
  0
VERTEX
  8
LAYER_1
 10
202.5753
 20
24.8092
  0
VERTEX
  8
LAYER_1
 10
202.5753
 20
22.6132
 42
-0.09997895241
  0
VERTEX
  8
LAYER_1
 10
202.4404
 20
21.8705
 42
-0.1214934275
  0
VERTEX
  8
LAYER_1
 10
202.0671
 20
21.3639
 42
-0.110620524
  0
VERTEX
  8
LAYER_1
 10
201.4416
 20
21.0572
 42
-0.06129362553
  0
VERTEX
  8
LAYER_1
 10
200.7941
 20
20.9816
 42
-0.09420005614
  0
VERTEX
  8
LAYER_1
 10
199.975
 20
21.1198
 42
-0.24315236
  0
VERTEX
  8
LAYER_1
 10
199.1715
 20
22.0305
 42
-0.0632033471
  0
VERTEX
  8
LAYER_1
 10
199.104
 20
22.5912
  0
VERTEX
  8
LAYER_1
 10
199.104
 20
24.8092
  0
SEQEND
  0
ENDBLK
  0
BLOCK
  8
LAYER_1
  2
AIGNBL01040008
 70
64
 10
0
 20
0
 30
0
  3
AIGNBL01040008
  0
POLYLINE
  8
LAYER_1
 40
0.05
 41
0.05
 62
39
 66
1
 10
0
 20
0
 30
0
 70
1
  0
VERTEX
  8
LAYER_1
 10
204.3215
 20
22.2284
  0
VERTEX
  8
LAYER_1
 10
203.8323
 20
21.0433
  0
VERTEX
  8
LAYER_1
 10
203.2043
 20
21.0433
  0
VERTEX
  8
LAYER_1
 10
204.8035
 20
24.8092
  0
VERTEX
  8
LAYER_1
 10
205.5367
 20
24.8092
  0
VERTEX
  8
LAYER_1
 10
207.1431
 20
21.0433
  0
VERTEX
  8
LAYER_1
 10
206.4937
 20
21.0433
  0
VERTEX
  8
LAYER_1
 10
205.9911
 20
22.2284
  0
SEQEND
  0
POLYLINE
  8
LAYER_1
 40
0.05
 41
0.05
 62
39
 66
1
 10
0
 20
0
 30
0
 70
1
  0
VERTEX
  8
LAYER_1
 10
205.8649
 20
22.6074
  0
VERTEX
  8
LAYER_1
 10
205.4037
 20
23.6922
  0
VERTEX
  8
LAYER_1
 10
205.1591
 20
24.3792
  0
VERTEX
  8
LAYER_1
 10
205.1453
 20
24.3792
  0
VERTEX
  8
LAYER_1
 10
204.9079
 20
23.6967
  0
VERTEX
  8
LAYER_1
 10
204.447
 20
22.6074
  0
SEQEND
  0
ENDBLK
  0
BLOCK
  8
LAYER_1
  2
AIGNBL01040009
 70
64
 10
0
 20
0
 30
0
  3
AIGNBL01040009
  0
POLYLINE
  8
LAYER_1
 40
0.05
 41
0.05
 62
39
 66
1
 10
0
 20
0
 30
0
 70
1
  0
VERTEX
  8
LAYER_1
 10
208.1839
 20
24.7644
 42
-0.03240300255
  0
VERTEX
  8
LAYER_1
 10
209.3507
 20
24.8374
 42
-0.08082287254
  0
VERTEX
  8
LAYER_1
 10
210.3072
 20
24.7056
 42
-0.07816212749
  0
VERTEX
  8
LAYER_1
 10
210.6705
 20
24.5246
 42
-0.2483921074
  0
VERTEX
  8
LAYER_1
 10
211.0822
 20
23.7363
 42
-0.226147
  0
VERTEX
  8
LAYER_1
 10
210.7191
 20
22.9322
 42
-0.109727648
  0
VERTEX
  8
LAYER_1
 10
210.0908
 20
22.6189
 42
-0.06565380896
  0
VERTEX
  8
LAYER_1
 10
209.2804
 20
22.5185
 42
-0.06238309955
  0
VERTEX
  8
LAYER_1
 10
208.7919
 20
22.5519
  0
VERTEX
  8
LAYER_1
 10
208.7919
 20
21.0433
  0
VERTEX
  8
LAYER_1
 10
208.1839
 20
21.0433
  0
SEQEND
  0
POLYLINE
  8
LAYER_1
 40
0.05
 41
0.05
 62
39
 66
1
 10
0
 20
0
 30
0
 70
1
  0
VERTEX
  8
LAYER_1
 10
208.7919
 20
22.9488
 42
0.04203451964
  0
VERTEX
  8
LAYER_1
 10
209.2942
 20
22.9095
 42
0.1032325703
  0
VERTEX
  8
LAYER_1
 10
210.0134
 20
23.0368
 42
0.1555838345
  0
VERTEX
  8
LAYER_1
 10
210.3782
 20
23.3413
 42
0.1352564048
  0
VERTEX
  8
LAYER_1
 10
210.4752
 20
23.714
 42
0.1737230689
  0
VERTEX
  8
LAYER_1
 10
210.3404
 20
24.1213
 42
0.1517081527
  0
VERTEX
  8
LAYER_1
 10
209.9193
 20
24.3807
 42
0.0687773514
  0
VERTEX
  8
LAYER_1
 10
209.3648
 20
24.4515
 42
0.06336983159
  0
VERTEX
  8
LAYER_1
 10
208.7919
 20
24.4123
  0
SEQEND
  0
ENDBLK
  0
BLOCK
  8
LAYER_1
  2
AIGNBL0104000A
 70
64
 10
0
 20
0
 30
0
  3
AIGNBL0104000A
  0
POLYLINE
  8
LAYER_1
 40
0.05
 41
0.05
 62
39
 66
1
 10
0
 20
0
 30
0
 70
1
  0
VERTEX
  8
LAYER_1
 10
212.6342
 20
24.5074
 42
-0.2768160409
  0
VERTEX
  8
LAYER_1
 10
212.4947
 20
24.2673
 42
-0.1264799952
  0
VERTEX
  8
LAYER_1
 10
212.2425
 20
24.2056
 42
-0.2237457958
  0
VERTEX
  8
LAYER_1
 10
211.9322
 20
24.338
 42
-0.1708186296
  0
VERTEX
  8
LAYER_1
 10
211.8722
 20
24.5074
 42
-0.2643957951
  0
VERTEX
  8
LAYER_1
 10
212.0216
 20
24.7544
 42
-0.1289907874
  0
VERTEX
  8
LAYER_1
 10
212.2563
 20
24.8143
 42
-0.2252979244
  0
VERTEX
  8
LAYER_1
 10
212.5731
 20
24.6837
 42
-0.1691669651
  0
SEQEND
  0
POLYLINE
  8
LAYER_1
 40
0.05
 41
0.05
 62
39
 66
1
 10
0
 20
0
 30
0
 70
1
  0
VERTEX
  8
LAYER_1
 10
211.9487
 20
21.0433
  0
VERTEX
  8
LAYER_1
 10
211.9487
 20
23.7474
  0
VERTEX
  8
LAYER_1
 10
212.5633
 20
23.7474
  0
VERTEX
  8
LAYER_1
 10
212.5633
 20
21.0433
  0
SEQEND
  0
ENDBLK
  0
BLOCK
  8
LAYER_1
  2
AIGNBL0104000B
 70
64
 10
0
 20
0
 30
0
  3
AIGNBL0104000B
  0
POLYLINE
  8
LAYER_1
 40
0.05
 41
0.05
 62
39
 66
1
 10
0
 20
0
 30
0
 70
1
  0
VERTEX
  8
LAYER_1
 10
214.435
 20
22.2284
  0
VERTEX
  8
LAYER_1
 10
213.9468
 20
21.0433
  0
VERTEX
  8
LAYER_1
 10
213.3177
 20
21.0433
  0
VERTEX
  8
LAYER_1
 10
214.9173
 20
24.8092
  0
VERTEX
  8
LAYER_1
 10
215.6511
 20
24.8092
  0
VERTEX
  8
LAYER_1
 10
217.2576
 20
21.0433
  0
VERTEX
  8
LAYER_1
 10
216.6078
 20
21.0433
  0
VERTEX
  8
LAYER_1
 10
216.1052
 20
22.2284
  0
SEQEND
  0
POLYLINE
  8
LAYER_1
 40
0.05
 41
0.05
 62
39
 66
1
 10
0
 20
0
 30
0
 70
1
  0
VERTEX
  8
LAYER_1
 10
215.9791
 20
22.6074
  0
VERTEX
  8
LAYER_1
 10
215.5181
 20
23.6922
  0
VERTEX
  8
LAYER_1
 10
215.2742
 20
24.3792
  0
VERTEX
  8
LAYER_1
 10
215.2594
 20
24.3792
  0
VERTEX
  8
LAYER_1
 10
215.0224
 20
23.6967
  0
VERTEX
  8
LAYER_1
 10
214.5614
 20
22.6074
  0
SEQEND
  0
ENDBLK
  0
BLOCK
  8
LAYER_1
  2
AIGNBL01030004
 70
64
 10
0
 20
0
 30
0
  3
AIGNBL01030004
  0
INSERT
  8
LAYER_1
  2
AIGNBL01040005
 10
0
 20
0
 30
0
  0
INSERT
  8
LAYER_1
  2
AIGNBL01040006
 10
0
 20
0
 30
0
  0
INSERT
  8
LAYER_1
  2
AIGNBL01040007
 10
0
 20
0
 30
0
  0
INSERT
  8
LAYER_1
  2
AIGNBL01040008
 10
0
 20
0
 30
0
  0
INSERT
  8
LAYER_1
  2
AIGNBL01040009
 10
0
 20
0
 30
0
  0
INSERT
  8
LAYER_1
  2
AIGNBL0104000A
 10
0
 20
0
 30
0
  0
INSERT
  8
LAYER_1
  2
AIGNBL0104000B
 10
0
 20
0
 30
0
  0
ENDBLK
  0
BLOCK
  8
LAYER_1
  2
AIGNBL0103000D
 70
64
 10
0
 20
0
 30
0
  3
AIGNBL0103000D
  0
POLYLINE
  8
LAYER_1
 40
0.05
 41
0.05
 62
39
 66
1
 10
0
 20
0
 30
0
 70
1
  0
VERTEX
  8
LAYER_1
 10
190.0572
 20
19.144
  0
VERTEX
  8
LAYER_1
 10
190.6104
 20
19.144
  0
VERTEX
  8
LAYER_1
 10
190.6104
 20
19.0503
  0
VERTEX
  8
LAYER_1
 10
189.9521
 20
19.0503
  0
VERTEX
  8
LAYER_1
 10
189.9521
 20
20.0835
  0
VERTEX
  8
LAYER_1
 10
190.5928
 20
20.0835
  0
VERTEX
  8
LAYER_1
 10
190.5928
 20
19.9901
  0
VERTEX
  8
LAYER_1
 10
190.0572
 20
19.9901
  0
VERTEX
  8
LAYER_1
 10
190.0572
 20
19.6356
  0
VERTEX
  8
LAYER_1
 10
190.5577
 20
19.6356
  0
VERTEX
  8
LAYER_1
 10
190.5577
 20
19.5423
  0
VERTEX
  8
LAYER_1
 10
190.0572
 20
19.5423
  0
SEQEND
  0
ENDBLK
  0
BLOCK
  8
LAYER_1
  2
AIGNBL0103000E
 70
64
 10
0
 20
0
 30
0
  3
AIGNBL0103000E
  0
POLYLINE
  8
LAYER_1
 40
0.05
 41
0.05
 62
39
 66
1
 10
0
 20
0
 30
0
 70
1
  0
VERTEX
  8
LAYER_1
 10
191.7501
 20
19.2036
  0
VERTEX
  8
LAYER_1
 10
191.7528
 20
19.2036
  0
VERTEX
  8
LAYER_1
 10
191.7528
 20
20.0835
  0
VERTEX
  8
LAYER_1
 10
191.8579
 20
20.0835
  0
VERTEX
  8
LAYER_1
 10
191.8579
 20
19.0503
  0
VERTEX
  8
LAYER_1
 10
191.727
 20
19.0503
  0
VERTEX
  8
LAYER_1
 10
191.1258
 20
19.9392
  0
VERTEX
  8
LAYER_1
 10
191.1224
 20
19.9392
  0
VERTEX
  8
LAYER_1
 10
191.1224
 20
19.0503
  0
VERTEX
  8
LAYER_1
 10
191.0176
 20
19.0503
  0
VERTEX
  8
LAYER_1
 10
191.0176
 20
20.0835
  0
VERTEX
  8
LAYER_1
 10
191.1489
 20
20.0835
  0
SEQEND
  0
ENDBLK
  0
BLOCK
  8
LAYER_1
  2
AIGNBL0103000F
 70
64
 10
0
 20
0
 30
0
  3
AIGNBL0103000F
  0
POLYLINE
  8
LAYER_1
 40
0.05
 41
0.05
 62
39
 66
1
 10
0
 20
0
 30
0
 70
1
  0
VERTEX
  8
LAYER_1
 10
192.3309
 20
19.2622
  0
VERTEX
  8
LAYER_1
 10
192.3853
 20
19.1592
 42
0.1808129973
  0
VERTEX
  8
LAYER_1
 10
192.4987
 20
19.1175
  0
VERTEX
  8
LAYER_1
 10
192.5879
 20
19.1371
  0
VERTEX
  8
LAYER_1
 10
192.6441
 20
19.1905
  0
VERTEX
  8
LAYER_1
 10
192.673
 20
19.267
  0
VERTEX
  8
LAYER_1
 10
192.6813
 20
19.3566
  0
VERTEX
  8
LAYER_1
 10
192.6813
 20
20.0835
  0
VERTEX
  8
LAYER_1
 10
192.7863
 20
20.0835
  0
VERTEX
  8
LAYER_1
 10
192.7863
 20
19.348
  0
VERTEX
  8
LAYER_1
 10
192.775
 20
19.2401
  0
VERTEX
  8
LAYER_1
 10
192.7336
 20
19.1351
  0
VERTEX
  8
LAYER_1
 10
192.6489
 20
19.0555
  0
VERTEX
  8
LAYER_1
 10
192.5101
 20
19.0241
 42
-0.1849648081
  0
VERTEX
  8
LAYER_1
 10
192.3254
 20
19.0841
 42
-0.1765293084
  0
VERTEX
  8
LAYER_1
 10
192.2331
 20
19.2357
  0
SEQEND
  0
ENDBLK
  0
BLOCK
  8
LAYER_1
  2
AIGNBL01030010
 70
64
 10
0
 20
0
 30
0
  3
AIGNBL01030010
  0
POLYLINE
  8
LAYER_1
 40
0.05
 41
0.05
 62
39
 66
1
 10
0
 20
0
 30
0
 70
1
  0
VERTEX
  8
LAYER_1
 10
194.2746
 20
19.5671
 42
-0.1039024845
  0
VERTEX
  8
LAYER_1
 10
194.2336
 20
19.3497
 42
-0.1002458474
  0
VERTEX
  8
LAYER_1
 10
194.121
 20
19.1781
  0
VERTEX
  8
LAYER_1
 10
193.9501
 20
19.0651
 42
-0.09506675375
  0
VERTEX
  8
LAYER_1
 10
193.7362
 20
19.0241
 42
-0.1010866674
  0
VERTEX
  8
LAYER_1
 10
193.5226
 20
19.0651
 42
-0.1005760356
  0
VERTEX
  8
LAYER_1
 10
193.3517
 20
19.1781
 42
-0.09479293922
  0
VERTEX
  8
LAYER_1
 10
193.2384
 20
19.3497
 42
-0.09316534225
  0
VERTEX
  8
LAYER_1
 10
193.1977
 20
19.5671
 42
-0.1027149125
  0
VERTEX
  8
LAYER_1
 10
193.2384
 20
19.7845
 42
-0.1007559602
  0
VERTEX
  8
LAYER_1
 10
193.3517
 20
19.956
 42
-0.09625543395
  0
VERTEX
  8
LAYER_1
 10
193.5226
 20
20.069
 42
-0.09532420784
  0
VERTEX
  8
LAYER_1
 10
193.7362
 20
20.11
 42
-0.1018017754
  0
VERTEX
  8
LAYER_1
 10
193.9501
 20
20.069
 42
-0.09853409661
  0
VERTEX
  8
LAYER_1
 10
194.121
 20
19.956
 42
-0.09543199427
  0
VERTEX
  8
LAYER_1
 10
194.2336
 20
19.7845
 42
-0.09397287008
  0
SEQEND
  0
POLYLINE
  8
LAYER_1
 40
0.05
 41
0.05
 62
39
 66
1
 10
0
 20
0
 30
0
 70
1
  0
VERTEX
  8
LAYER_1
 10
194.1637
 20
19.5664
  0
VERTEX
  8
LAYER_1
 10
194.1348
 20
19.7383
  0
VERTEX
  8
LAYER_1
 10
194.05
 20
19.8816
  0
VERTEX
  8
LAYER_1
 10
193.915
 20
19.9798
  0
VERTEX
  8
LAYER_1
 10
193.7362
 20
20.0167
  0
VERTEX
  8
LAYER_1
 10
193.5574
 20
19.9798
  0
VERTEX
  8
LAYER_1
 10
193.4227
 20
19.8816
  0
VERTEX
  8
LAYER_1
 10
193.3379
 20
19.7383
  0
VERTEX
  8
LAYER_1
 10
193.3086
 20
19.5664
  0
VERTEX
  8
LAYER_1
 10
193.3379
 20
19.3945
  0
VERTEX
  8
LAYER_1
 10
193.4227
 20
19.2515
  0
VERTEX
  8
LAYER_1
 10
193.5574
 20
19.154
 42
0.1008280473
  0
VERTEX
  8
LAYER_1
 10
193.7362
 20
19.1175
  0
VERTEX
  8
LAYER_1
 10
193.915
 20
19.154
  0
VERTEX
  8
LAYER_1
 10
194.05
 20
19.2515
  0
VERTEX
  8
LAYER_1
 10
194.1348
 20
19.3945
  0
SEQEND
  0
ENDBLK
  0
BLOCK
  8
LAYER_1
  2
AIGNBL01030011
 70
64
 10
0
 20
0
 30
0
  3
AIGNBL01030011
  0
POLYLINE
  8
LAYER_1
 40
0.05
 41
0.05
 62
39
 66
1
 10
0
 20
0
 30
0
 70
1
  0
VERTEX
  8
LAYER_1
 10
195.0494
 20
19.0503
  0
VERTEX
  8
LAYER_1
 10
194.9447
 20
19.0503
  0
VERTEX
  8
LAYER_1
 10
194.9447
 20
19.4958
  0
VERTEX
  8
LAYER_1
 10
194.5578
 20
20.0835
  0
VERTEX
  8
LAYER_1
 10
194.6891
 20
20.0835
  0
VERTEX
  8
LAYER_1
 10
195.0002
 20
19.5833
  0
VERTEX
  8
LAYER_1
 10
195.3137
 20
20.0835
  0
VERTEX
  8
LAYER_1
 10
195.436
 20
20.0835
  0
VERTEX
  8
LAYER_1
 10
195.0494
 20
19.4958
  0
SEQEND
  0
ENDBLK
  0
BLOCK
  8
LAYER_1
  2
AIGNBL01030012
 70
64
 10
0
 20
0
 30
0
  3
AIGNBL01030012
  0
POLYLINE
  8
LAYER_1
 40
0.05
 41
0.05
 62
39
 66
1
 10
0
 20
0
 30
0
 70
1
  0
VERTEX
  8
LAYER_1
 10
196.341
 20
20.0835
  0
VERTEX
  8
LAYER_1
 10
196.6486
 20
20.0835
  0
VERTEX
  8
LAYER_1
 10
196.7672
 20
20.0711
  0
VERTEX
  8
LAYER_1
 10
196.8739
 20
20.0287
  0
VERTEX
  8
LAYER_1
 10
196.9518
 20
19.9478
  0
VERTEX
  8
LAYER_1
 10
196.9814
 20
19.8196
 42
-0.1790346201
  0
VERTEX
  8
LAYER_1
 10
196.9315
 20
19.6773
 42
-0.1631549063
  0
VERTEX
  8
LAYER_1
 10
196.7982
 20
19.5977
  0
VERTEX
  8
LAYER_1
 10
196.7982
 20
19.595
 42
-0.1735745096
  0
VERTEX
  8
LAYER_1
 10
196.9649
 20
19.5168
 42
-0.1922132794
  0
VERTEX
  8
LAYER_1
 10
197.031
 20
19.3363
  0
VERTEX
  8
LAYER_1
 10
197.0038
 20
19.2191
  0
VERTEX
  8
LAYER_1
 10
196.9277
 20
19.1285
  0
VERTEX
  8
LAYER_1
 10
196.8068
 20
19.071
  0
VERTEX
  8
LAYER_1
 10
196.6469
 20
19.0503
  0
VERTEX
  8
LAYER_1
 10
196.341
 20
19.0503
  0
SEQEND
  0
POLYLINE
  8
LAYER_1
 40
0.05
 41
0.05
 62
39
 66
1
 10
0
 20
0
 30
0
 70
1
  0
VERTEX
  8
LAYER_1
 10
196.4461
 20
19.6312
  0
VERTEX
  8
LAYER_1
 10
196.6576
 20
19.6312
  0
VERTEX
  8
LAYER_1
 10
196.7344
 20
19.6401
  0
VERTEX
  8
LAYER_1
 10
196.8047
 20
19.6697
  0
VERTEX
  8
LAYER_1
 10
196.8567
 20
19.7263
  0
VERTEX
  8
LAYER_1
 10
196.8764
 20
19.8124
  0
VERTEX
  8
LAYER_1
 10
196.8567
 20
19.8961
  0
VERTEX
  8
LAYER_1
 10
196.8037
 20
19.9523
  0
VERTEX
  8
LAYER_1
 10
196.7248
 20
19.9836
  0
VERTEX
  8
LAYER_1
 10
196.6283
 20
19.9932
  0
VERTEX
  8
LAYER_1
 10
196.4461
 20
19.9932
  0
SEQEND
  0
POLYLINE
  8
LAYER_1
 40
0.05
 41
0.05
 62
39
 66
1
 10
0
 20
0
 30
0
 70
1
  0
VERTEX
  8
LAYER_1
 10
196.4461
 20
19.1409
  0
VERTEX
  8
LAYER_1
 10
196.6418
 20
19.1409
  0
VERTEX
  8
LAYER_1
 10
196.7503
 20
19.1519
  0
VERTEX
  8
LAYER_1
 10
196.8409
 20
19.1868
  0
VERTEX
  8
LAYER_1
 10
196.9026
 20
19.2498
  0
VERTEX
  8
LAYER_1
 10
196.926
 20
19.3425
 42
0.2557371221
  0
VERTEX
  8
LAYER_1
 10
196.8567
 20
19.4947
 42
0.1381508151
  0
VERTEX
  8
LAYER_1
 10
196.6607
 20
19.545
  0
VERTEX
  8
LAYER_1
 10
196.4461
 20
19.545
  0
SEQEND
  0
ENDBLK
  0
BLOCK
  8
LAYER_1
  2
AIGNBL01030013
 70
64
 10
0
 20
0
 30
0
  3
AIGNBL01030013
  0
POLYLINE
  8
LAYER_1
 40
0.05
 41
0.05
 62
39
 66
1
 10
0
 20
0
 30
0
 70
1
  0
VERTEX
  8
LAYER_1
 10
197.4631
 20
19.0503
  0
VERTEX
  8
LAYER_1
 10
197.3477
 20
19.0503
  0
VERTEX
  8
LAYER_1
 10
197.7945
 20
20.0835
  0
VERTEX
  8
LAYER_1
 10
197.8968
 20
20.0835
  0
VERTEX
  8
LAYER_1
 10
198.3402
 20
19.0503
  0
VERTEX
  8
LAYER_1
 10
198.2234
 20
19.0503
  0
VERTEX
  8
LAYER_1
 10
198.1094
 20
19.3218
  0
VERTEX
  8
LAYER_1
 10
197.5754
 20
19.3218
  0
SEQEND
  0
POLYLINE
  8
LAYER_1
 40
0.05
 41
0.05
 62
39
 66
1
 10
0
 20
0
 30
0
 70
1
  0
VERTEX
  8
LAYER_1
 10
197.6146
 20
19.4182
  0
VERTEX
  8
LAYER_1
 10
198.0701
 20
19.4182
  0
VERTEX
  8
LAYER_1
 10
197.8424
 20
19.9671
  0
SEQEND
  0
ENDBLK
  0
BLOCK
  8
LAYER_1
  2
AIGNBL01030014
 70
64
 10
0
 20
0
 30
0
  3
AIGNBL01030014
  0
POLYLINE
  8
LAYER_1
 40
0.05
 41
0.05
 62
39
 66
1
 10
0
 20
0
 30
0
 70
1
  0
VERTEX
  8
LAYER_1
 10
199.0247
 20
19.0503
  0
VERTEX
  8
LAYER_1
 10
198.9196
 20
19.0503
  0
VERTEX
  8
LAYER_1
 10
198.9196
 20
19.9901
  0
VERTEX
  8
LAYER_1
 10
198.5734
 20
19.9901
  0
VERTEX
  8
LAYER_1
 10
198.5734
 20
20.0835
  0
VERTEX
  8
LAYER_1
 10
199.3703
 20
20.0835
  0
VERTEX
  8
LAYER_1
 10
199.3703
 20
19.9901
  0
VERTEX
  8
LAYER_1
 10
199.0247
 20
19.9901
  0
SEQEND
  0
ENDBLK
  0
BLOCK
  8
LAYER_1
  2
AIGNBL01030015
 70
64
 10
0
 20
0
 30
0
  3
AIGNBL01030015
  0
POLYLINE
  8
LAYER_1
 40
0.05
 41
0.05
 62
39
 66
1
 10
0
 20
0
 30
0
 70
1
  0
VERTEX
  8
LAYER_1
 10
199.7265
 20
20.0835
  0
VERTEX
  8
LAYER_1
 10
199.8312
 20
20.0835
  0
VERTEX
  8
LAYER_1
 10
199.8312
 20
19.6356
  0
VERTEX
  8
LAYER_1
 10
200.3948
 20
19.6356
  0
VERTEX
  8
LAYER_1
 10
200.3948
 20
20.0835
  0
VERTEX
  8
LAYER_1
 10
200.4999
 20
20.0835
  0
VERTEX
  8
LAYER_1
 10
200.4999
 20
19.0503
  0
VERTEX
  8
LAYER_1
 10
200.3948
 20
19.0503
  0
VERTEX
  8
LAYER_1
 10
200.3948
 20
19.5395
  0
VERTEX
  8
LAYER_1
 10
199.8312
 20
19.5395
  0
VERTEX
  8
LAYER_1
 10
199.8312
 20
19.0503
  0
VERTEX
  8
LAYER_1
 10
199.7265
 20
19.0503
  0
SEQEND
  0
ENDBLK
  0
BLOCK
  8
LAYER_1
  2
AIGNBL01030016
 70
64
 10
0
 20
0
 30
0
  3
AIGNBL01030016
  0
POLYLINE
  8
LAYER_1
 40
0.05
 41
0.05
 62
39
 66
1
 10
0
 20
0
 30
0
 70
1
  0
VERTEX
  8
LAYER_1
 10
201.0804
 20
19.0503
  0
VERTEX
  8
LAYER_1
 10
200.9753
 20
19.0503
  0
VERTEX
  8
LAYER_1
 10
200.9753
 20
20.0835
  0
VERTEX
  8
LAYER_1
 10
201.2792
 20
20.0835
  0
VERTEX
  8
LAYER_1
 10
201.4198
 20
20.069
  0
VERTEX
  8
LAYER_1
 10
201.5324
 20
20.0215
  0
VERTEX
  8
LAYER_1
 10
201.6058
 20
19.9361
  0
VERTEX
  8
LAYER_1
 10
201.632
 20
19.8079
  0
VERTEX
  8
LAYER_1
 10
201.612
 20
19.7042
  0
VERTEX
  8
LAYER_1
 10
201.5565
 20
19.6232
  0
VERTEX
  8
LAYER_1
 10
201.4731
 20
19.5685
  0
VERTEX
  8
LAYER_1
 10
201.3681
 20
19.5423
  0
VERTEX
  8
LAYER_1
 10
201.6702
 20
19.0503
  0
VERTEX
  8
LAYER_1
 10
201.5417
 20
19.0503
  0
VERTEX
  8
LAYER_1
 10
201.2558
 20
19.5333
  0
VERTEX
  8
LAYER_1
 10
201.0804
 20
19.5333
  0
SEQEND
  0
POLYLINE
  8
LAYER_1
 40
0.05
 41
0.05
 62
39
 66
1
 10
0
 20
0
 30
0
 70
1
  0
VERTEX
  8
LAYER_1
 10
201.0804
 20
19.6239
  0
VERTEX
  8
LAYER_1
 10
201.263
 20
19.6239
 42
0.1654500383
  0
VERTEX
  8
LAYER_1
 10
201.4587
 20
19.6697
 42
0.2503949893
  0
VERTEX
  8
LAYER_1
 10
201.5273
 20
19.8079
  0
VERTEX
  8
LAYER_1
 10
201.508
 20
19.8937
  0
VERTEX
  8
LAYER_1
 10
201.4556
 20
19.9509
  0
VERTEX
  8
LAYER_1
 10
201.3739
 20
19.9829
  0
VERTEX
  8
LAYER_1
 10
201.2675
 20
19.9932
  0
VERTEX
  8
LAYER_1
 10
201.0804
 20
19.9932
  0
SEQEND
  0
ENDBLK
  0
BLOCK
  8
LAYER_1
  2
AIGNBL01030017
 70
64
 10
0
 20
0
 30
0
  3
AIGNBL01030017
  0
POLYLINE
  8
LAYER_1
 40
0.05
 41
0.05
 62
39
 66
1
 10
0
 20
0
 30
0
 70
1
  0
VERTEX
  8
LAYER_1
 10
203.0724
 20
19.5671
 42
-0.1002731409
  0
VERTEX
  8
LAYER_1
 10
203.0317
 20
19.3497
 42
-0.1003765801
  0
VERTEX
  8
LAYER_1
 10
202.9184
 20
19.1781
 42
-0.09520795497
  0
VERTEX
  8
LAYER_1
 10
202.7478
 20
19.0651
 42
-0.09506675375
  0
VERTEX
  8
LAYER_1
 10
202.5339
 20
19.0241
 42
-0.1014233705
  0
VERTEX
  8
LAYER_1
 10
202.32
 20
19.0651
 42
-0.1001793077
  0
VERTEX
  8
LAYER_1
 10
202.1494
 20
19.1781
 42
-0.09547486106
  0
VERTEX
  8
LAYER_1
 10
202.0364
 20
19.3497
 42
-0.09293253763
  0
VERTEX
  8
LAYER_1
 10
201.9958
 20
19.5671
 42
-0.1022983043
  0
VERTEX
  8
LAYER_1
 10
202.0364
 20
19.7845
 42
-0.1013677539
  0
VERTEX
  8
LAYER_1
 10
202.1494
 20
19.956
 42
-0.09583479814
  0
VERTEX
  8
LAYER_1
 10
202.32
 20
20.069
 42
-0.09517221897
  0
VERTEX
  8
LAYER_1
 10
202.5339
 20
20.11
 42
-0.1018017754
  0
VERTEX
  8
LAYER_1
 10
202.7478
 20
20.069
 42
-0.1017041996
  0
VERTEX
  8
LAYER_1
 10
202.9184
 20
19.956
 42
-0.09492976366
  0
VERTEX
  8
LAYER_1
 10
203.0317
 20
19.7845
 42
-0.09296145325
  0
SEQEND
  0
POLYLINE
  8
LAYER_1
 40
0.05
 41
0.05
 62
39
 66
1
 10
0
 20
0
 30
0
 70
1
  0
VERTEX
  8
LAYER_1
 10
202.9614
 20
19.5664
  0
VERTEX
  8
LAYER_1
 10
202.9322
 20
19.7383
  0
VERTEX
  8
LAYER_1
 10
202.8474
 20
19.8816
  0
VERTEX
  8
LAYER_1
 10
202.7127
 20
19.9798
  0
VERTEX
  8
LAYER_1
 10
202.5339
 20
20.0167
  0
VERTEX
  8
LAYER_1
 10
202.3551
 20
19.9798
  0
VERTEX
  8
LAYER_1
 10
202.22
 20
19.8816
  0
VERTEX
  8
LAYER_1
 10
202.1353
 20
19.7383
  0
VERTEX
  8
LAYER_1
 10
202.1064
 20
19.5664
  0
VERTEX
  8
LAYER_1
 10
202.1353
 20
19.3945
  0
VERTEX
  8
LAYER_1
 10
202.22
 20
19.2515
  0
VERTEX
  8
LAYER_1
 10
202.3551
 20
19.154
  0
VERTEX
  8
LAYER_1
 10
202.5339
 20
19.1175
  0
VERTEX
  8
LAYER_1
 10
202.7127
 20
19.154
  0
VERTEX
  8
LAYER_1
 10
202.8474
 20
19.2515
  0
VERTEX
  8
LAYER_1
 10
202.9322
 20
19.3945
  0
SEQEND
  0
ENDBLK
  0
BLOCK
  8
LAYER_1
  2
AIGNBL01030018
 70
64
 10
0
 20
0
 30
0
  3
AIGNBL01030018
  0
POLYLINE
  8
LAYER_1
 40
0.05
 41
0.05
 62
39
 66
1
 10
0
 20
0
 30
0
 70
1
  0
VERTEX
  8
LAYER_1
 10
204.5141
 20
19.5671
 42
-0.1039024845
  0
VERTEX
  8
LAYER_1
 10
204.4731
 20
19.3497
 42
-0.1002458474
  0
VERTEX
  8
LAYER_1
 10
204.3605
 20
19.1781
 42
-0.09471741496
  0
VERTEX
  8
LAYER_1
 10
204.1896
 20
19.0651
 42
-0.09506675375
  0
VERTEX
  8
LAYER_1
 10
203.9757
 20
19.0241
 42
-0.101832469
  0
VERTEX
  8
LAYER_1
 10
203.7621
 20
19.0651
 42
-0.1021045144
  0
VERTEX
  8
LAYER_1
 10
203.5912
 20
19.1781
 42
-0.0942812324
  0
VERTEX
  8
LAYER_1
 10
203.4778
 20
19.3497
 42
-0.09293253763
  0
VERTEX
  8
LAYER_1
 10
203.4372
 20
19.5671
 42
-0.1022983043
  0
VERTEX
  8
LAYER_1
 10
203.4778
 20
19.7845
 42
-0.1005682055
  0
VERTEX
  8
LAYER_1
 10
203.5912
 20
19.956
 42
-0.09625543395
  0
VERTEX
  8
LAYER_1
 10
203.7621
 20
20.069
 42
-0.09532584124
  0
VERTEX
  8
LAYER_1
 10
203.9757
 20
20.11
 42
-0.1018017754
  0
VERTEX
  8
LAYER_1
 10
204.1896
 20
20.069
 42
-0.09853409661
  0
VERTEX
  8
LAYER_1
 10
204.3605
 20
19.956
 42
-0.09543199427
  0
VERTEX
  8
LAYER_1
 10
204.4731
 20
19.7845
 42
-0.09397287008
  0
SEQEND
  0
POLYLINE
  8
LAYER_1
 40
0.05
 41
0.05
 62
39
 66
1
 10
0
 20
0
 30
0
 70
1
  0
VERTEX
  8
LAYER_1
 10
204.4032
 20
19.5664
  0
VERTEX
  8
LAYER_1
 10
204.3743
 20
19.7383
  0
VERTEX
  8
LAYER_1
 10
204.2895
 20
19.8816
  0
VERTEX
  8
LAYER_1
 10
204.1545
 20
19.9798
  0
VERTEX
  8
LAYER_1
 10
203.9757
 20
20.0167
  0
VERTEX
  8
LAYER_1
 10
203.7969
 20
19.9798
  0
VERTEX
  8
LAYER_1
 10
203.6622
 20
19.8816
  0
VERTEX
  8
LAYER_1
 10
203.5774
 20
19.7383
  0
VERTEX
  8
LAYER_1
 10
203.5482
 20
19.5664
  0
VERTEX
  8
LAYER_1
 10
203.5774
 20
19.3945
  0
VERTEX
  8
LAYER_1
 10
203.6622
 20
19.2515
  0
VERTEX
  8
LAYER_1
 10
203.7969
 20
19.154
 42
0.1008280473
  0
VERTEX
  8
LAYER_1
 10
203.9757
 20
19.1175
  0
VERTEX
  8
LAYER_1
 10
204.1545
 20
19.154
  0
VERTEX
  8
LAYER_1
 10
204.2895
 20
19.2515
  0
VERTEX
  8
LAYER_1
 10
204.3743
 20
19.3945
  0
SEQEND
  0
ENDBLK
  0
BLOCK
  8
LAYER_1
  2
AIGNBL01030019
 70
64
 10
0
 20
0
 30
0
  3
AIGNBL01030019
  0
POLYLINE
  8
LAYER_1
 40
0.05
 41
0.05
 62
39
 66
1
 10
0
 20
0
 30
0
 70
1
  0
VERTEX
  8
LAYER_1
 10
205.445
 20
19.2284
  0
VERTEX
  8
LAYER_1
 10
205.4467
 20
19.2284
  0
VERTEX
  8
LAYER_1
 10
205.7923
 20
20.0835
  0
VERTEX
  8
LAYER_1
 10
205.9531
 20
20.0835
  0
VERTEX
  8
LAYER_1
 10
205.9531
 20
19.0503
  0
VERTEX
  8
LAYER_1
 10
205.8477
 20
19.0503
  0
VERTEX
  8
LAYER_1
 10
205.8477
 20
19.9478
  0
VERTEX
  8
LAYER_1
 10
205.845
 20
19.9478
  0
VERTEX
  8
LAYER_1
 10
205.4715
 20
19.0503
  0
VERTEX
  8
LAYER_1
 10
205.4161
 20
19.0503
  0
VERTEX
  8
LAYER_1
 10
205.0423
 20
19.9478
  0
VERTEX
  8
LAYER_1
 10
205.0395
 20
19.9478
  0
VERTEX
  8
LAYER_1
 10
205.0395
 20
19.0503
  0
VERTEX
  8
LAYER_1
 10
204.9345
 20
19.0503
  0
VERTEX
  8
LAYER_1
 10
204.9345
 20
20.0835
  0
VERTEX
  8
LAYER_1
 10
205.095
 20
20.0835
  0
SEQEND
  0
ENDBLK
  0
BLOCK
  8
LAYER_1
  2
AIGNBL0103001A
 70
64
 10
0
 20
0
 30
0
  3
AIGNBL0103001A
  0
POLYLINE
  8
LAYER_1
 40
0.05
 41
0.05
 62
39
 66
1
 10
0
 20
0
 30
0
 70
1
  0
VERTEX
  8
LAYER_1
 10
207.0997
 20
19.144
  0
VERTEX
  8
LAYER_1
 10
207.653
 20
19.144
  0
VERTEX
  8
LAYER_1
 10
207.653
 20
19.0503
  0
VERTEX
  8
LAYER_1
 10
206.9946
 20
19.0503
  0
VERTEX
  8
LAYER_1
 10
206.9946
 20
20.0835
  0
VERTEX
  8
LAYER_1
 10
207.6354
 20
20.0835
  0
VERTEX
  8
LAYER_1
 10
207.6354
 20
19.9901
  0
VERTEX
  8
LAYER_1
 10
207.0997
 20
19.9901
  0
VERTEX
  8
LAYER_1
 10
207.0997
 20
19.6356
  0
VERTEX
  8
LAYER_1
 10
207.6003
 20
19.6356
  0
VERTEX
  8
LAYER_1
 10
207.6003
 20
19.5423
  0
VERTEX
  8
LAYER_1
 10
207.0997
 20
19.5423
  0
SEQEND
  0
ENDBLK
  0
BLOCK
  8
LAYER_1
  2
AIGNBL0103001B
 70
64
 10
0
 20
0
 30
0
  3
AIGNBL0103001B
  0
POLYLINE
  8
LAYER_1
 40
0.05
 41
0.05
 62
39
 66
1
 10
0
 20
0
 30
0
 70
1
  0
VERTEX
  8
LAYER_1
 10
208.3981
 20
19.6663
  0
VERTEX
  8
LAYER_1
 10
208.6803
 20
20.0835
  0
VERTEX
  8
LAYER_1
 10
208.8054
 20
20.0835
  0
VERTEX
  8
LAYER_1
 10
208.4629
 20
19.5919
  0
VERTEX
  8
LAYER_1
 10
208.8422
 20
19.0503
  0
VERTEX
  8
LAYER_1
 10
208.7109
 20
19.0503
  0
VERTEX
  8
LAYER_1
 10
208.3954
 20
19.5161
  0
VERTEX
  8
LAYER_1
 10
208.0819
 20
19.0503
  0
VERTEX
  8
LAYER_1
 10
207.9503
 20
19.0503
  0
VERTEX
  8
LAYER_1
 10
208.3299
 20
19.5933
  0
VERTEX
  8
LAYER_1
 10
207.9841
 20
20.0835
  0
VERTEX
  8
LAYER_1
 10
208.1156
 20
20.0835
  0
SEQEND
  0
ENDBLK
  0
BLOCK
  8
LAYER_1
  2
AIGNBL0103001C
 70
64
 10
0
 20
0
 30
0
  3
AIGNBL0103001C
  0
POLYLINE
  8
LAYER_1
 40
0.05
 41
0.05
 62
39
 66
1
 10
0
 20
0
 30
0
 70
1
  0
VERTEX
  8
LAYER_1
 10
209.2084
 20
20.0835
  0
VERTEX
  8
LAYER_1
 10
209.5006
 20
20.0835
  0
VERTEX
  8
LAYER_1
 10
209.6436
 20
20.067
  0
VERTEX
  8
LAYER_1
 10
209.7534
 20
20.0156
  0
VERTEX
  8
LAYER_1
 10
209.8244
 20
19.9295
  0
VERTEX
  8
LAYER_1
 10
209.8489
 20
19.8079
  0
VERTEX
  8
LAYER_1
 10
209.8237
 20
19.6859
  0
VERTEX
  8
LAYER_1
 10
209.7521
 20
19.5998
  0
VERTEX
  8
LAYER_1
 10
209.6412
 20
19.5481
  0
VERTEX
  8
LAYER_1
 10
209.4975
 20
19.5306
  0
VERTEX
  8
LAYER_1
 10
209.3135
 20
19.5306
  0
VERTEX
  8
LAYER_1
 10
209.3135
 20
19.0503
  0
VERTEX
  8
LAYER_1
 10
209.2084
 20
19.0503
  0
SEQEND
  0
POLYLINE
  8
LAYER_1
 40
0.05
 41
0.05
 62
39
 66
1
 10
0
 20
0
 30
0
 70
1
  0
VERTEX
  8
LAYER_1
 10
209.3135
 20
19.6194
  0
VERTEX
  8
LAYER_1
 10
209.4913
 20
19.6194
 42
0.1834000512
  0
VERTEX
  8
LAYER_1
 10
209.6797
 20
19.6677
 42
0.2348377208
  0
VERTEX
  8
LAYER_1
 10
209.7441
 20
19.8079
 42
0.2652129765
  0
VERTEX
  8
LAYER_1
 10
209.6777
 20
19.9488
 42
0.1264027561
  0
VERTEX
  8
LAYER_1
 10
209.4913
 20
19.9932
  0
VERTEX
  8
LAYER_1
 10
209.3135
 20
19.9932
  0
SEQEND
  0
ENDBLK
  0
BLOCK
  8
LAYER_1
  2
AIGNBL0103001D
 70
64
 10
0
 20
0
 30
0
  3
AIGNBL0103001D
  0
POLYLINE
  8
LAYER_1
 40
0.05
 41
0.05
 62
39
 66
1
 10
0
 20
0
 30
0
 70
1
  0
VERTEX
  8
LAYER_1
 10
210.3612
 20
19.144
  0
VERTEX
  8
LAYER_1
 10
210.9144
 20
19.144
  0
VERTEX
  8
LAYER_1
 10
210.9144
 20
19.0503
  0
VERTEX
  8
LAYER_1
 10
210.2561
 20
19.0503
  0
VERTEX
  8
LAYER_1
 10
210.2561
 20
20.0835
  0
VERTEX
  8
LAYER_1
 10
210.8969
 20
20.0835
  0
VERTEX
  8
LAYER_1
 10
210.8969
 20
19.9901
  0
VERTEX
  8
LAYER_1
 10
210.3612
 20
19.9901
  0
VERTEX
  8
LAYER_1
 10
210.3612
 20
19.6356
  0
VERTEX
  8
LAYER_1
 10
210.8617
 20
19.6356
  0
VERTEX
  8
LAYER_1
 10
210.8617
 20
19.5423
  0
VERTEX
  8
LAYER_1
 10
210.3612
 20
19.5423
  0
SEQEND
  0
ENDBLK
  0
BLOCK
  8
LAYER_1
  2
AIGNBL0103001E
 70
64
 10
0
 20
0
 30
0
  3
AIGNBL0103001E
  0
POLYLINE
  8
LAYER_1
 40
0.05
 41
0.05
 62
39
 66
1
 10
0
 20
0
 30
0
 70
1
  0
VERTEX
  8
LAYER_1
 10
211.4264
 20
19.0503
  0
VERTEX
  8
LAYER_1
 10
211.3213
 20
19.0503
  0
VERTEX
  8
LAYER_1
 10
211.3213
 20
20.0835
  0
VERTEX
  8
LAYER_1
 10
211.6252
 20
20.0835
  0
VERTEX
  8
LAYER_1
 10
211.7657
 20
20.069
  0
VERTEX
  8
LAYER_1
 10
211.8784
 20
20.0215
  0
VERTEX
  8
LAYER_1
 10
211.9521
 20
19.9361
  0
VERTEX
  8
LAYER_1
 10
211.978
 20
19.8079
  0
VERTEX
  8
LAYER_1
 10
211.958
 20
19.7042
  0
VERTEX
  8
LAYER_1
 10
211.9025
 20
19.6232
  0
VERTEX
  8
LAYER_1
 10
211.8191
 20
19.5685
  0
VERTEX
  8
LAYER_1
 10
211.714
 20
19.5423
  0
VERTEX
  8
LAYER_1
 10
212.0162
 20
19.0503
  0
VERTEX
  8
LAYER_1
 10
211.8877
 20
19.0503
  0
VERTEX
  8
LAYER_1
 10
211.6018
 20
19.5333
  0
VERTEX
  8
LAYER_1
 10
211.4264
 20
19.5333
  0
SEQEND
  0
POLYLINE
  8
LAYER_1
 40
0.05
 41
0.05
 62
39
 66
1
 10
0
 20
0
 30
0
 70
1
  0
VERTEX
  8
LAYER_1
 10
211.4264
 20
19.6239
  0
VERTEX
  8
LAYER_1
 10
211.609
 20
19.6239
 42
0.1663801652
  0
VERTEX
  8
LAYER_1
 10
211.8047
 20
19.6697
 42
0.2500512188
  0
VERTEX
  8
LAYER_1
 10
211.8732
 20
19.8079
  0
VERTEX
  8
LAYER_1
 10
211.8543
 20
19.8937
  0
VERTEX
  8
LAYER_1
 10
211.8016
 20
19.9509
  0
VERTEX
  8
LAYER_1
 10
211.7199
 20
19.9829
  0
VERTEX
  8
LAYER_1
 10
211.6135
 20
19.9932
  0
VERTEX
  8
LAYER_1
 10
211.4264
 20
19.9932
  0
SEQEND
  0
ENDBLK
  0
BLOCK
  8
LAYER_1
  2
AIGNBL0103001F
 70
64
 10
0
 20
0
 30
0
  3
AIGNBL0103001F
  0
POLYLINE
  8
LAYER_1
 40
0.05
 41
0.05
 62
39
 66
1
 10
0
 20
0
 30
0
 70
1
  0
VERTEX
  8
LAYER_1
 10
212.5019
 20
19.0503
  0
VERTEX
  8
LAYER_1
 10
212.3972
 20
19.0503
  0
VERTEX
  8
LAYER_1
 10
212.3972
 20
20.0835
  0
VERTEX
  8
LAYER_1
 10
212.5019
 20
20.0835
  0
SEQEND
  0
ENDBLK
  0
BLOCK
  8
LAYER_1
  2
AIGNBL01030020
 70
64
 10
0
 20
0
 30
0
  3
AIGNBL01030020
  0
POLYLINE
  8
LAYER_1
 40
0.05
 41
0.05
 62
39
 66
1
 10
0
 20
0
 30
0
 70
1
  0
VERTEX
  8
LAYER_1
 10
213.0828
 20
19.144
  0
VERTEX
  8
LAYER_1
 10
213.6357
 20
19.144
  0
VERTEX
  8
LAYER_1
 10
213.6357
 20
19.0503
  0
VERTEX
  8
LAYER_1
 10
212.9777
 20
19.0503
  0
VERTEX
  8
LAYER_1
 10
212.9777
 20
20.0835
  0
VERTEX
  8
LAYER_1
 10
213.6185
 20
20.0835
  0
VERTEX
  8
LAYER_1
 10
213.6185
 20
19.9901
  0
VERTEX
  8
LAYER_1
 10
213.0828
 20
19.9901
  0
VERTEX
  8
LAYER_1
 10
213.0828
 20
19.6356
  0
VERTEX
  8
LAYER_1
 10
213.5834
 20
19.6356
  0
VERTEX
  8
LAYER_1
 10
213.5834
 20
19.5423
  0
VERTEX
  8
LAYER_1
 10
213.0828
 20
19.5423
  0
SEQEND
  0
ENDBLK
  0
BLOCK
  8
LAYER_1
  2
AIGNBL01030021
 70
64
 10
0
 20
0
 30
0
  3
AIGNBL01030021
  0
POLYLINE
  8
LAYER_1
 40
0.05
 41
0.05
 62
39
 66
1
 10
0
 20
0
 30
0
 70
1
  0
VERTEX
  8
LAYER_1
 10
214.7757
 20
19.2036
  0
VERTEX
  8
LAYER_1
 10
214.7785
 20
19.2036
  0
VERTEX
  8
LAYER_1
 10
214.7785
 20
20.0835
  0
VERTEX
  8
LAYER_1
 10
214.8835
 20
20.0835
  0
VERTEX
  8
LAYER_1
 10
214.8835
 20
19.0503
  0
VERTEX
  8
LAYER_1
 10
214.7523
 20
19.0503
  0
VERTEX
  8
LAYER_1
 10
214.1511
 20
19.9392
  0
VERTEX
  8
LAYER_1
 10
214.148
 20
19.9392
  0
VERTEX
  8
LAYER_1
 10
214.148
 20
19.0503
  0
VERTEX
  8
LAYER_1
 10
214.0429
 20
19.0503
  0
VERTEX
  8
LAYER_1
 10
214.0429
 20
20.0835
  0
VERTEX
  8
LAYER_1
 10
214.1745
 20
20.0835
  0
SEQEND
  0
ENDBLK
  0
BLOCK
  8
LAYER_1
  2
AIGNBL01030022
 70
64
 10
0
 20
0
 30
0
  3
AIGNBL01030022
  0
POLYLINE
  8
LAYER_1
 40
0.05
 41
0.05
 62
39
 66
1
 10
0
 20
0
 30
0
 70
1
  0
VERTEX
  8
LAYER_1
 10
216.2292
 20
19.2181
  0
VERTEX
  8
LAYER_1
 10
216.1655
 20
19.1437
  0
VERTEX
  8
LAYER_1
 10
216.0793
 20
19.082
  0
VERTEX
  8
LAYER_1
 10
215.9712
 20
19.0396
  0
VERTEX
  8
LAYER_1
 10
215.8423
 20
19.0241
 42
-0.1009408553
  0
VERTEX
  8
LAYER_1
 10
215.6263
 20
19.0651
 42
-0.1036436467
  0
VERTEX
  8
LAYER_1
 10
215.4558
 20
19.1781
 42
-0.09785904176
  0
VERTEX
  8
LAYER_1
 10
215.3442
 20
19.3497
 42
-0.09255646678
  0
VERTEX
  8
LAYER_1
 10
215.3038
 20
19.5671
 42
-0.1033443381
  0
VERTEX
  8
LAYER_1
 10
215.3448
 20
19.7845
 42
-0.1004334688
  0
VERTEX
  8
LAYER_1
 10
215.4575
 20
19.956
 42
-0.09536265516
  0
VERTEX
  8
LAYER_1
 10
215.6284
 20
20.069
 42
-0.09517167486
  0
VERTEX
  8
LAYER_1
 10
215.8423
 20
20.11
  0
VERTEX
  8
LAYER_1
 10
215.9539
 20
20.098
  0
VERTEX
  8
LAYER_1
 10
216.0569
 20
20.0645
  0
VERTEX
  8
LAYER_1
 10
216.1444
 20
20.0129
  0
VERTEX
  8
LAYER_1
 10
216.2102
 20
19.945
  0
VERTEX
  8
LAYER_1
 10
216.1227
 20
19.8806
  0
VERTEX
  8
LAYER_1
 10
216.0793
 20
19.9306
  0
VERTEX
  8
LAYER_1
 10
216.016
 20
19.9743
  0
VERTEX
  8
LAYER_1
 10
215.9364
 20
20.005
  0
VERTEX
  8
LAYER_1
 10
215.8437
 20
20.0167
  0
VERTEX
  8
LAYER_1
 10
215.6635
 20
19.9802
  0
VERTEX
  8
LAYER_1
 10
215.5284
 20
19.882
  0
VERTEX
  8
LAYER_1
 10
215.4437
 20
19.7386
  0
VERTEX
  8
LAYER_1
 10
215.4148
 20
19.5671
  0
VERTEX
  8
LAYER_1
 10
215.4447
 20
19.3955
  0
VERTEX
  8
LAYER_1
 10
215.5302
 20
19.2522
  0
VERTEX
  8
LAYER_1
 10
215.6652
 20
19.154
 42
0.100995487
  0
VERTEX
  8
LAYER_1
 10
215.8437
 20
19.1175
  0
VERTEX
  8
LAYER_1
 10
216.0128
 20
19.154
 42
0.1320535509
  0
VERTEX
  8
LAYER_1
 10
216.1472
 20
19.2708
  0
SEQEND
  0
ENDBLK
  0
BLOCK
  8
LAYER_1
  2
AIGNBL01030023
 70
64
 10
0
 20
0
 30
0
  3
AIGNBL01030023
  0
POLYLINE
  8
LAYER_1
 40
0.05
 41
0.05
 62
39
 66
1
 10
0
 20
0
 30
0
 70
1
  0
VERTEX
  8
LAYER_1
 10
216.7163
 20
19.144
  0
VERTEX
  8
LAYER_1
 10
217.2696
 20
19.144
  0
VERTEX
  8
LAYER_1
 10
217.2696
 20
19.0503
  0
VERTEX
  8
LAYER_1
 10
216.6113
 20
19.0503
  0
VERTEX
  8
LAYER_1
 10
216.6113
 20
20.0835
  0
VERTEX
  8
LAYER_1
 10
217.2521
 20
20.0835
  0
VERTEX
  8
LAYER_1
 10
217.2521
 20
19.9901
  0
VERTEX
  8
LAYER_1
 10
216.7163
 20
19.9901
  0
VERTEX
  8
LAYER_1
 10
216.7163
 20
19.6356
  0
VERTEX
  8
LAYER_1
 10
217.2169
 20
19.6356
  0
VERTEX
  8
LAYER_1
 10
217.2169
 20
19.5423
  0
VERTEX
  8
LAYER_1
 10
216.7163
 20
19.5423
  0
SEQEND
  0
ENDBLK
  0
BLOCK
  8
LAYER_1
  2
AIGNBL01020003
 70
64
 10
0
 20
0
 30
0
  3
AIGNBL01020003
  0
INSERT
  8
LAYER_1
  2
AIGNBL01030004
 10
0
 20
0
 30
0
  0
ENDBLK
  0
BLOCK
  8
LAYER_1
  2
AIGNBL0102000C
 70
64
 10
0
 20
0
 30
0
  3
AIGNBL0102000C
  0
INSERT
  8
LAYER_1
  2
AIGNBL0103000D
 10
0
 20
0
 30
0
  0
INSERT
  8
LAYER_1
  2
AIGNBL0103000E
 10
0
 20
0
 30
0
  0
INSERT
  8
LAYER_1
  2
AIGNBL0103000F
 10
0
 20
0
 30
0
  0
INSERT
  8
LAYER_1
  2
AIGNBL01030010
 10
0
 20
0
 30
0
  0
INSERT
  8
LAYER_1
  2
AIGNBL01030011
 10
0
 20
0
 30
0
  0
INSERT
  8
LAYER_1
  2
AIGNBL01030012
 10
0
 20
0
 30
0
  0
INSERT
  8
LAYER_1
  2
AIGNBL01030013
 10
0
 20
0
 30
0
  0
INSERT
  8
LAYER_1
  2
AIGNBL01030014
 10
0
 20
0
 30
0
  0
INSERT
  8
LAYER_1
  2
AIGNBL01030015
 10
0
 20
0
 30
0
  0
INSERT
  8
LAYER_1
  2
AIGNBL01030016
 10
0
 20
0
 30
0
  0
INSERT
  8
LAYER_1
  2
AIGNBL01030017
 10
0
 20
0
 30
0
  0
INSERT
  8
LAYER_1
  2
AIGNBL01030018
 10
0
 20
0
 30
0
  0
INSERT
  8
LAYER_1
  2
AIGNBL01030019
 10
0
 20
0
 30
0
  0
INSERT
  8
LAYER_1
  2
AIGNBL0103001A
 10
0
 20
0
 30
0
  0
INSERT
  8
LAYER_1
  2
AIGNBL0103001B
 10
0
 20
0
 30
0
  0
INSERT
  8
LAYER_1
  2
AIGNBL0103001C
 10
0
 20
0
 30
0
  0
INSERT
  8
LAYER_1
  2
AIGNBL0103001D
 10
0
 20
0
 30
0
  0
INSERT
  8
LAYER_1
  2
AIGNBL0103001E
 10
0
 20
0
 30
0
  0
INSERT
  8
LAYER_1
  2
AIGNBL0103001F
 10
0
 20
0
 30
0
  0
INSERT
  8
LAYER_1
  2
AIGNBL01030020
 10
0
 20
0
 30
0
  0
INSERT
  8
LAYER_1
  2
AIGNBL01030021
 10
0
 20
0
 30
0
  0
INSERT
  8
LAYER_1
  2
AIGNBL01030022
 10
0
 20
0
 30
0
  0
INSERT
  8
LAYER_1
  2
AIGNBL01030023
 10
0
 20
0
 30
0
  0
ENDBLK
  0
BLOCK
  8
LAYER_1
  2
AIGNBL01010002
 70
64
 10
0
 20
0
 30
0
  3
AIGNBL01010002
  0
INSERT
  8
LAYER_1
  2
AIGNBL01020003
 10
0
 20
0
 30
0
  0
INSERT
  8
LAYER_1
  2
AIGNBL0102000C
 10
0
 20
0
 30
0
  0
ENDBLK
  0
BLOCK
  8
LAYER_1
  2
AIGNBL01010024
 70
64
 10
0
 20
0
 30
0
  3
AIGNBL01010024
  0
POLYLINE
  8
LAYER_1
 40
0.2469
 41
0.2469
 62
4
 66
1
 10
0
 20
0
 30
0
  0
VERTEX
  8
LAYER_1
 10
87.7915
 20
156.0581
  0
VERTEX
  8
LAYER_1
 10
97.0415
 20
156.0581
  0
SEQEND
  0
ENDBLK
  0
BLOCK
  8
LAYER_1
  2
AIGNBL01010025
 70
64
 10
0
 20
0
 30
0
  3
AIGNBL01010025
  0
CIRCLE
  8
LAYER_1
 62
4
 10
77.0415
 20
215.7768
 40
10.75
  0
ENDBLK
  0
BLOCK
  8
LAYER_1
  2
AIGNBL01010026
 70
64
 10
0
 20
0
 30
0
  3
AIGNBL01010026
  0
CIRCLE
  8
LAYER_1
 62
4
 10
77.0415
 20
215.7768
 40
20
  0
ENDBLK
  0
BLOCK
  8
LAYER_1
  2
AIGNBL01010027
 70
64
 10
0
 20
0
 30
0
  3
AIGNBL01010027
  0
CIRCLE
  8
LAYER_1
 62
4
 10
77.0415
 20
215.7768
 40
27.5
  0
ENDBLK
  0
BLOCK
  8
LAYER_1
  2
AIGNBL01010028
 70
64
 10
0
 20
0
 30
0
  3
AIGNBL01010028
  0
POLYLINE
  8
LAYER_1
  6
AIGENLINE001
 40
0.2469
 41
0.2469
 66
1
 10
0
 20
0
 30
0
 70
128
  0
VERTEX
  8
LAYER_1
 10
35.5475
 20
215.7768
  0
VERTEX
  8
LAYER_1
 10
120.3929
 20
215.7768
  0
SEQEND
  0
ENDBLK
  0
BLOCK
  8
LAYER_1
  2
AIGNBL01010029
 70
64
 10
0
 20
0
 30
0
  3
AIGNBL01010029
  0
POLYLINE
  8
LAYER_1
 40
0.2469
 41
0.2469
 66
1
 10
0
 20
0
 30
0
  0
VERTEX
  8
LAYER_1
 10
57.0415
 20
173.1812
  0
VERTEX
  8
LAYER_1
 10
97.0415
 20
173.1812
  0
SEQEND
  0
ENDBLK
  0
BLOCK
  8
LAYER_1
  2
AIGNBL0101002A
 70
64
 10
0
 20
0
 30
0
  3
AIGNBL0101002A
  0
POLYLINE
  8
LAYER_1
 40
0.2469
 41
0.2469
 62
4
 66
1
 10
0
 20
0
 30
0
  0
VERTEX
  8
LAYER_1
 10
51.3672
 20
153.7178
 42
0.3888837706
  0
VERTEX
  8
LAYER_1
 10
49.5415
 20
151.7254
  0
SEQEND
  0
ENDBLK
  0
BLOCK
  8
LAYER_1
  2
AIGNBL0101002B
 70
64
 10
0
 20
0
 30
0
  3
AIGNBL0101002B
  0
POLYLINE
  8
LAYER_1
 40
0.2469
 41
0.2469
 62
4
 66
1
 10
0
 20
0
 30
0
  0
VERTEX
  8
LAYER_1
 10
104.5415
 20
151.7254
 42
0.3888885718
  0
VERTEX
  8
LAYER_1
 10
102.7158
 20
153.7178
  0
SEQEND
  0
ENDBLK
  0
BLOCK
  8
LAYER_1
  2
AIGNBL0101002C
 70
64
 10
0
 20
0
 30
0
  3
AIGNBL0101002C
  0
POLYLINE
  8
LAYER_1
 40
0.2469
 41
0.2469
 62
4
 66
1
 10
0
 20
0
 30
0
  0
VERTEX
  8
LAYER_1
 10
97.0415
 20
156.0469
  0
VERTEX
  8
LAYER_1
 10
97.0415
 20
156.0581
  0
SEQEND
  0
ENDBLK
  0
BLOCK
  8
LAYER_1
  2
AIGNBL0101002D
 70
64
 10
0
 20
0
 30
0
  3
AIGNBL0101002D
  0
POLYLINE
  8
LAYER_1
 40
0.2469
 41
0.2469
 62
4
 66
1
 10
0
 20
0
 30
0
  0
VERTEX
  8
LAYER_1
 10
98.8672
 20
154.0545
  0
VERTEX
  8
LAYER_1
 10
102.7158
 20
153.7178
  0
SEQEND
  0
ENDBLK
  0
BLOCK
  8
LAYER_1
  2
AIGNBL0101002E
 70
64
 10
0
 20
0
 30
0
  3
AIGNBL0101002E
  0
POLYLINE
  8
LAYER_1
 40
0.2469
 41
0.2469
 62
4
 66
1
 10
0
 20
0
 30
0
  0
VERTEX
  8
LAYER_1
 10
97.0415
 20
156.0469
 42
0.3888738078
  0
VERTEX
  8
LAYER_1
 10
98.8672
 20
154.0545
  0
SEQEND
  0
ENDBLK
  0
BLOCK
  8
LAYER_1
  2
AIGNBL0101002F
 70
64
 10
0
 20
0
 30
0
  3
AIGNBL0101002F
  0
POLYLINE
  8
LAYER_1
 40
0.2469
 41
0.2469
 62
4
 66
1
 10
0
 20
0
 30
0
  0
VERTEX
  8
LAYER_1
 10
57.0415
 20
156.0469
  0
VERTEX
  8
LAYER_1
 10
57.0415
 20
156.0581
  0
SEQEND
  0
ENDBLK
  0
BLOCK
  8
LAYER_1
  2
AIGNBL01010030
 70
64
 10
0
 20
0
 30
0
  3
AIGNBL01010030
  0
POLYLINE
  8
LAYER_1
 40
0.2469
 41
0.2469
 62
4
 66
1
 10
0
 20
0
 30
0
  0
VERTEX
  8
LAYER_1
 10
55.2158
 20
154.0545
  0
VERTEX
  8
LAYER_1
 10
51.3672
 20
153.7178
  0
SEQEND
  0
ENDBLK
  0
BLOCK
  8
LAYER_1
  2
AIGNBL01010031
 70
64
 10
0
 20
0
 30
0
  3
AIGNBL01010031
  0
POLYLINE
  8
LAYER_1
 40
0.2469
 41
0.2469
 62
4
 66
1
 10
0
 20
0
 30
0
  0
VERTEX
  8
LAYER_1
 10
55.2158
 20
154.0545
 42
0.3888786088
  0
VERTEX
  8
LAYER_1
 10
57.0415
 20
156.0469
  0
SEQEND
  0
ENDBLK
  0
BLOCK
  8
LAYER_1
  2
AIGNBL01010032
 70
64
 10
0
 20
0
 30
0
  3
AIGNBL01010032
  0
POLYLINE
  8
LAYER_1
 40
0.2469
 41
0.2469
 62
4
 66
1
 10
0
 20
0
 30
0
  0
VERTEX
  8
LAYER_1
 10
49.5415
 20
151.7254
  0
VERTEX
  8
LAYER_1
 10
49.5415
 20
151.0581
  0
SEQEND
  0
ENDBLK
  0
BLOCK
  8
LAYER_1
  2
AIGNBL01010033
 70
64
 10
0
 20
0
 30
0
  3
AIGNBL01010033
  0
POLYLINE
  8
LAYER_1
 40
0.2469
 41
0.2469
 62
4
 66
1
 10
0
 20
0
 30
0
  0
VERTEX
  8
LAYER_1
 10
49.5415
 20
151.0581
  0
VERTEX
  8
LAYER_1
 10
104.5415
 20
151.0581
  0
SEQEND
  0
ENDBLK
  0
BLOCK
  8
LAYER_1
  2
AIGNBL01010034
 70
64
 10
0
 20
0
 30
0
  3
AIGNBL01010034
  0
POLYLINE
  8
LAYER_1
 40
0.2469
 41
0.2469
 62
4
 66
1
 10
0
 20
0
 30
0
  0
VERTEX
  8
LAYER_1
 10
104.5415
 20
151.7254
  0
VERTEX
  8
LAYER_1
 10
104.5415
 20
151.0581
  0
SEQEND
  0
ENDBLK
  0
BLOCK
  8
LAYER_1
  2
AIGNBL01010035
 70
64
 10
0
 20
0
 30
0
  3
AIGNBL01010035
  0
POLYLINE
  8
LAYER_1
 40
0.2469
 41
0.2469
 62
4
 66
1
 10
0
 20
0
 30
0
  0
VERTEX
  8
LAYER_1
 10
57.0415
 20
156.0581
  0
VERTEX
  8
LAYER_1
 10
66.2915
 20
156.0581
  0
SEQEND
  0
ENDBLK
  0
BLOCK
  8
LAYER_1
  2
AIGNBL01010036
 70
64
 10
0
 20
0
 30
0
  3
AIGNBL01010036
  0
POLYLINE
  8
LAYER_1
 40
0.2469
 41
0.2469
 62
4
 66
1
 10
0
 20
0
 30
0
  0
VERTEX
  8
LAYER_1
 10
87.7915
 20
156.0581
  0
VERTEX
  8
LAYER_1
 10
87.7915
 20
151.0581
  0
SEQEND
  0
ENDBLK
  0
BLOCK
  8
LAYER_1
  2
AIGNBL01010037
 70
64
 10
0
 20
0
 30
0
  3
AIGNBL01010037
  0
POLYLINE
  8
LAYER_1
 40
0.2469
 41
0.2469
 66
1
 10
0
 20
0
 30
0
  0
VERTEX
  8
LAYER_1
 10
77.0415
 20
156.0581
  0
VERTEX
  8
LAYER_1
 10
87.7915
 20
156.0581
  0
SEQEND
  0
ENDBLK
  0
BLOCK
  8
LAYER_1
  2
AIGNBL01010038
 70
64
 10
0
 20
0
 30
0
  3
AIGNBL01010038
  0
POLYLINE
  8
LAYER_1
 40
0.2469
 41
0.2469
 62
4
 66
1
 10
0
 20
0
 30
0
  0
VERTEX
  8
LAYER_1
 10
65.2915
 20
156.0581
  0
VERTEX
  8
LAYER_1
 10
65.2915
 20
151.0581
  0
SEQEND
  0
ENDBLK
  0
BLOCK
  8
LAYER_1
  2
AIGNBL01010039
 70
64
 10
0
 20
0
 30
0
  3
AIGNBL01010039
  0
POLYLINE
  8
LAYER_1
  6
AIGENLINE002
 40
0.2469
 41
0.2469
 62
4
 66
1
 10
0
 20
0
 30
0
 70
128
  0
VERTEX
  8
LAYER_1
 10
66.2915
 20
156.0581
  0
VERTEX
  8
LAYER_1
 10
66.2915
 20
151.0581
  0
SEQEND
  0
ENDBLK
  0
BLOCK
  8
LAYER_1
  2
AIGNBL0101003A
 70
64
 10
0
 20
0
 30
0
  3
AIGNBL0101003A
  0
POLYLINE
  8
LAYER_1
 40
0.2469
 41
0.2469
 66
1
 10
0
 20
0
 30
0
  0
VERTEX
  8
LAYER_1
 10
103.45
 20
151.0581
  0
VERTEX
  8
LAYER_1
 10
104.5038
 20
152.1119
  0
SEQEND
  0
ENDBLK
  0
BLOCK
  8
LAYER_1
  2
AIGNBL0101003B
 70
64
 10
0
 20
0
 30
0
  3
AIGNBL0101003B
  0
POLYLINE
  8
LAYER_1
 40
0.2469
 41
0.2469
 66
1
 10
0
 20
0
 30
0
  0
VERTEX
  8
LAYER_1
 10
101.3287
 20
151.0581
  0
VERTEX
  8
LAYER_1
 10
103.6564
 20
153.3859
  0
SEQEND
  0
ENDBLK
  0
BLOCK
  8
LAYER_1
  2
AIGNBL0101003C
 70
64
 10
0
 20
0
 30
0
  3
AIGNBL0101003C
  0
POLYLINE
  8
LAYER_1
 40
0.2469
 41
0.2469
 66
1
 10
0
 20
0
 30
0
  0
VERTEX
  8
LAYER_1
 10
99.2073
 20
151.0581
  0
VERTEX
  8
LAYER_1
 10
101.9354
 20
153.7861
  0
SEQEND
  0
ENDBLK
  0
BLOCK
  8
LAYER_1
  2
AIGNBL0101003D
 70
64
 10
0
 20
0
 30
0
  3
AIGNBL0101003D
  0
POLYLINE
  8
LAYER_1
 40
0.2469
 41
0.2469
 66
1
 10
0
 20
0
 30
0
  0
VERTEX
  8
LAYER_1
 10
97.086
 20
151.0581
  0
VERTEX
  8
LAYER_1
 10
99.9847
 20
153.9568
  0
SEQEND
  0
ENDBLK
  0
BLOCK
  8
LAYER_1
  2
AIGNBL0101003E
 70
64
 10
0
 20
0
 30
0
  3
AIGNBL0101003E
  0
POLYLINE
  8
LAYER_1
 40
0.2469
 41
0.2469
 66
1
 10
0
 20
0
 30
0
  0
VERTEX
  8
LAYER_1
 10
94.9647
 20
151.0581
  0
VERTEX
  8
LAYER_1
 10
98.1588
 20
154.2522
  0
SEQEND
  0
ENDBLK
  0
BLOCK
  8
LAYER_1
  2
AIGNBL0101003F
 70
64
 10
0
 20
0
 30
0
  3
AIGNBL0101003F
  0
POLYLINE
  8
LAYER_1
 40
0.2469
 41
0.2469
 66
1
 10
0
 20
0
 30
0
  0
VERTEX
  8
LAYER_1
 10
92.8434
 20
151.0581
  0
VERTEX
  8
LAYER_1
 10
97.1584
 20
155.3732
  0
SEQEND
  0
ENDBLK
  0
BLOCK
  8
LAYER_1
  2
AIGNBL01010040
 70
64
 10
0
 20
0
 30
0
  3
AIGNBL01010040
  0
POLYLINE
  8
LAYER_1
 40
0.2469
 41
0.2469
 66
1
 10
0
 20
0
 30
0
  0
VERTEX
  8
LAYER_1
 10
90.7221
 20
151.0581
  0
VERTEX
  8
LAYER_1
 10
95.7221
 20
156.0581
  0
SEQEND
  0
ENDBLK
  0
BLOCK
  8
LAYER_1
  2
AIGNBL01010041
 70
64
 10
0
 20
0
 30
0
  3
AIGNBL01010041
  0
POLYLINE
  8
LAYER_1
 40
0.2469
 41
0.2469
 66
1
 10
0
 20
0
 30
0
  0
VERTEX
  8
LAYER_1
 10
88.6007
 20
151.0581
  0
VERTEX
  8
LAYER_1
 10
93.6007
 20
156.0581
  0
SEQEND
  0
ENDBLK
  0
BLOCK
  8
LAYER_1
  2
AIGNBL01010042
 70
64
 10
0
 20
0
 30
0
  3
AIGNBL01010042
  0
POLYLINE
  8
LAYER_1
 40
0.2469
 41
0.2469
 66
1
 10
0
 20
0
 30
0
  0
VERTEX
  8
LAYER_1
 10
87.7915
 20
152.3702
  0
VERTEX
  8
LAYER_1
 10
91.4794
 20
156.0581
  0
SEQEND
  0
ENDBLK
  0
BLOCK
  8
LAYER_1
  2
AIGNBL01010043
 70
64
 10
0
 20
0
 30
0
  3
AIGNBL01010043
  0
POLYLINE
  8
LAYER_1
 40
0.2469
 41
0.2469
 66
1
 10
0
 20
0
 30
0
  0
VERTEX
  8
LAYER_1
 10
87.7915
 20
154.4915
  0
VERTEX
  8
LAYER_1
 10
89.3581
 20
156.0581
  0
SEQEND
  0
ENDBLK
  0
BLOCK
  8
LAYER_1
  2
AIGNBL01010044
 70
64
 10
0
 20
0
 30
0
  3
AIGNBL01010044
  0
POLYLINE
  8
LAYER_1
 40
0.2469
 41
0.2469
 66
1
 10
0
 20
0
 30
0
  0
VERTEX
  8
LAYER_1
 10
65.2662
 20
151.0581
  0
VERTEX
  8
LAYER_1
 10
65.2915
 20
151.0834
  0
SEQEND
  0
ENDBLK
  0
BLOCK
  8
LAYER_1
  2
AIGNBL01010045
 70
64
 10
0
 20
0
 30
0
  3
AIGNBL01010045
  0
POLYLINE
  8
LAYER_1
 40
0.2469
 41
0.2469
 66
1
 10
0
 20
0
 30
0
  0
VERTEX
  8
LAYER_1
 10
63.1449
 20
151.0581
  0
VERTEX
  8
LAYER_1
 10
65.2915
 20
153.2047
  0
SEQEND
  0
ENDBLK
  0
BLOCK
  8
LAYER_1
  2
AIGNBL01010046
 70
64
 10
0
 20
0
 30
0
  3
AIGNBL01010046
  0
POLYLINE
  8
LAYER_1
 40
0.2469
 41
0.2469
 66
1
 10
0
 20
0
 30
0
  0
VERTEX
  8
LAYER_1
 10
61.0236
 20
151.0581
  0
VERTEX
  8
LAYER_1
 10
65.2915
 20
155.326
  0
SEQEND
  0
ENDBLK
  0
BLOCK
  8
LAYER_1
  2
AIGNBL01010047
 70
64
 10
0
 20
0
 30
0
  3
AIGNBL01010047
  0
POLYLINE
  8
LAYER_1
 40
0.2469
 41
0.2469
 66
1
 10
0
 20
0
 30
0
  0
VERTEX
  8
LAYER_1
 10
58.9023
 20
151.0581
  0
VERTEX
  8
LAYER_1
 10
63.9023
 20
156.0581
  0
SEQEND
  0
ENDBLK
  0
BLOCK
  8
LAYER_1
  2
AIGNBL01010048
 70
64
 10
0
 20
0
 30
0
  3
AIGNBL01010048
  0
POLYLINE
  8
LAYER_1
 40
0.2469
 41
0.2469
 66
1
 10
0
 20
0
 30
0
  0
VERTEX
  8
LAYER_1
 10
56.7809
 20
151.0581
  0
VERTEX
  8
LAYER_1
 10
61.7809
 20
156.0581
  0
SEQEND
  0
ENDBLK
  0
BLOCK
  8
LAYER_1
  2
AIGNBL01010049
 70
64
 10
0
 20
0
 30
0
  3
AIGNBL01010049
  0
POLYLINE
  8
LAYER_1
 40
0.2469
 41
0.2469
 66
1
 10
0
 20
0
 30
0
  0
VERTEX
  8
LAYER_1
 10
54.6596
 20
151.0581
  0
VERTEX
  8
LAYER_1
 10
59.6596
 20
156.0581
  0
SEQEND
  0
ENDBLK
  0
BLOCK
  8
LAYER_1
  2
AIGNBL0101004A
 70
64
 10
0
 20
0
 30
0
  3
AIGNBL0101004A
  0
POLYLINE
  8
LAYER_1
 40
0.2469
 41
0.2469
 66
1
 10
0
 20
0
 30
0
  0
VERTEX
  8
LAYER_1
 10
52.5383
 20
151.0581
  0
VERTEX
  8
LAYER_1
 10
55.6095
 20
154.1293
  0
SEQEND
  0
ENDBLK
  0
BLOCK
  8
LAYER_1
  2
AIGNBL0101004B
 70
64
 10
0
 20
0
 30
0
  3
AIGNBL0101004B
  0
POLYLINE
  8
LAYER_1
 40
0.2469
 41
0.2469
 66
1
 10
0
 20
0
 30
0
  0
VERTEX
  8
LAYER_1
 10
56.9592
 20
155.479
  0
VERTEX
  8
LAYER_1
 10
57.5383
 20
156.0581
  0
SEQEND
  0
ENDBLK
  0
BLOCK
  8
LAYER_1
  2
AIGNBL0101004C
 70
64
 10
0
 20
0
 30
0
  3
AIGNBL0101004C
  0
POLYLINE
  8
LAYER_1
 40
0.2469
 41
0.2469
 66
1
 10
0
 20
0
 30
0
  0
VERTEX
  8
LAYER_1
 10
50.417
 20
151.0581
  0
VERTEX
  8
LAYER_1
 10
53.2406
 20
153.8817
  0
SEQEND
  0
ENDBLK
  0
BLOCK
  8
LAYER_1
  2
AIGNBL0101004D
 70
64
 10
0
 20
0
 30
0
  3
AIGNBL0101004D
  0
POLYLINE
  8
LAYER_1
 40
0.2469
 41
0.2469
 66
1
 10
0
 20
0
 30
0
  0
VERTEX
  8
LAYER_1
 10
49.671
 20
152.4335
  0
VERTEX
  8
LAYER_1
 10
50.8335
 20
153.5959
  0
SEQEND
  0
ENDBLK
  0
BLOCK
  8
LAYER_1
  2
AIGNBL0101004E
 70
64
 10
0
 20
0
 30
0
  3
AIGNBL0101004E
  0
POLYLINE
  8
LAYER_1
 40
0.2469
 41
0.2469
 66
1
 10
0
 20
0
 30
0
  0
VERTEX
  8
LAYER_1
 10
57.0415
 20
157.195
  0
VERTEX
  8
LAYER_1
 10
57.0415
 20
173.1812
  0
SEQEND
  0
ENDBLK
  0
BLOCK
  8
LAYER_1
  2
AIGNBL0101004F
 70
64
 10
0
 20
0
 30
0
  3
AIGNBL0101004F
  0
POLYLINE
  8
LAYER_1
 40
0.2469
 41
0.2469
 66
1
 10
0
 20
0
 30
0
  0
VERTEX
  8
LAYER_1
 10
97.0415
 20
157.195
  0
VERTEX
  8
LAYER_1
 10
97.0415
 20
173.1812
  0
SEQEND
  0
ENDBLK
  0
BLOCK
  8
LAYER_1
  2
AIGNBL01010050
 70
64
 10
0
 20
0
 30
0
  3
AIGNBL01010050
  0
POLYLINE
  8
LAYER_1
 40
0.2469
 41
0.2469
 66
1
 10
0
 20
0
 30
0
  0
VERTEX
  8
LAYER_1
 10
66.2915
 20
165.1345
  0
VERTEX
  8
LAYER_1
 10
87.7915
 20
165.1345
  0
SEQEND
  0
ENDBLK
  0
BLOCK
  8
LAYER_1
  2
AIGNBL01010051
 70
64
 10
0
 20
0
 30
0
  3
AIGNBL01010051
  0
POLYLINE
  8
LAYER_1
 40
0.2469
 41
0.2469
 66
1
 10
0
 20
0
 30
0
  0
VERTEX
  8
LAYER_1
 10
66.2915
 20
157.195
  0
VERTEX
  8
LAYER_1
 10
66.2915
 20
165.1345
  0
SEQEND
  0
ENDBLK
  0
BLOCK
  8
LAYER_1
  2
AIGNBL01010052
 70
64
 10
0
 20
0
 30
0
  3
AIGNBL01010052
  0
POLYLINE
  8
LAYER_1
 40
0.2469
 41
0.2469
 66
1
 10
0
 20
0
 30
0
  0
VERTEX
  8
LAYER_1
 10
87.7915
 20
157.195
  0
VERTEX
  8
LAYER_1
 10
87.7915
 20
165.1345
  0
SEQEND
  0
ENDBLK
  0
BLOCK
  8
LAYER_1
  2
AIGNBL01010053
 70
64
 10
0
 20
0
 30
0
  3
AIGNBL01010053
  0
POLYLINE
  8
LAYER_1
 40
0.2469
 41
0.2469
 62
4
 66
1
 10
0
 20
0
 30
0
  0
VERTEX
  8
LAYER_1
 10
57.0415
 20
173.1812
  0
VERTEX
  8
LAYER_1
 10
58.4904
 20
173.5694
  0
SEQEND
  0
ENDBLK
  0
BLOCK
  8
LAYER_1
  2
AIGNBL01010054
 70
64
 10
0
 20
0
 30
0
  3
AIGNBL01010054
  0
POLYLINE
  8
LAYER_1
 40
0.2469
 41
0.2469
 62
4
 66
1
 10
0
 20
0
 30
0
  0
VERTEX
  8
LAYER_1
 10
57.0415
 20
173.1812
  0
VERTEX
  8
LAYER_1
 10
58.4904
 20
172.793
  0
SEQEND
  0
ENDBLK
  0
BLOCK
  8
LAYER_1
  2
AIGNBL01010055
 70
64
 10
0
 20
0
 30
0
  3
AIGNBL01010055
  0
POLYLINE
  8
LAYER_1
 40
0.2469
 41
0.2469
 62
4
 66
1
 10
0
 20
0
 30
0
  0
VERTEX
  8
LAYER_1
 10
97.0415
 20
173.1812
  0
VERTEX
  8
LAYER_1
 10
95.5926
 20
172.793
  0
SEQEND
  0
ENDBLK
  0
BLOCK
  8
LAYER_1
  2
AIGNBL01010056
 70
64
 10
0
 20
0
 30
0
  3
AIGNBL01010056
  0
POLYLINE
  8
LAYER_1
 40
0.2469
 41
0.2469
 62
4
 66
1
 10
0
 20
0
 30
0
  0
VERTEX
  8
LAYER_1
 10
97.0415
 20
173.1812
  0
VERTEX
  8
LAYER_1
 10
95.5926
 20
173.5694
  0
SEQEND
  0
ENDBLK
  0
BLOCK
  8
LAYER_1
  2
AIGNBL01010057
 70
64
 10
0
 20
0
 30
0
  3
AIGNBL01010057
  0
POLYLINE
  8
LAYER_1
 40
0.2469
 41
0.2469
 62
4
 66
1
 10
0
 20
0
 30
0
  0
VERTEX
  8
LAYER_1
 10
66.2915
 20
165.1345
  0
VERTEX
  8
LAYER_1
 10
67.7404
 20
165.5227
  0
SEQEND
  0
ENDBLK
  0
BLOCK
  8
LAYER_1
  2
AIGNBL01010058
 70
64
 10
0
 20
0
 30
0
  3
AIGNBL01010058
  0
POLYLINE
  8
LAYER_1
 40
0.2469
 41
0.2469
 62
4
 66
1
 10
0
 20
0
 30
0
  0
VERTEX
  8
LAYER_1
 10
66.2915
 20
165.1345
  0
VERTEX
  8
LAYER_1
 10
67.7404
 20
164.7462
  0
SEQEND
  0
ENDBLK
  0
BLOCK
  8
LAYER_1
  2
AIGNBL01010059
 70
64
 10
0
 20
0
 30
0
  3
AIGNBL01010059
  0
POLYLINE
  8
LAYER_1
 40
0.2469
 41
0.2469
 62
4
 66
1
 10
0
 20
0
 30
0
  0
VERTEX
  8
LAYER_1
 10
87.7915
 20
165.1345
  0
VERTEX
  8
LAYER_1
 10
86.3426
 20
164.7462
  0
SEQEND
  0
ENDBLK
  0
BLOCK
  8
LAYER_1
  2
AIGNBL0101005A
 70
64
 10
0
 20
0
 30
0
  3
AIGNBL0101005A
  0
POLYLINE
  8
LAYER_1
 40
0.2469
 41
0.2469
 62
4
 66
1
 10
0
 20
0
 30
0
  0
VERTEX
  8
LAYER_1
 10
87.7915
 20
165.1345
  0
VERTEX
  8
LAYER_1
 10
86.3426
 20
165.5227
  0
SEQEND
  0
ENDBLK
  0
BLOCK
  8
LAYER_1
  2
AIGNBL0101005B
 70
64
 10
0
 20
0
 30
0
  3
AIGNBL0101005B
  0
CIRCLE
  8
LAYER_1
 62
4
 10
180.5415
 20
215.7768
 40
10.75
  0
ENDBLK
  0
BLOCK
  8
LAYER_1
  2
AIGNBL0101005C
 70
64
 10
0
 20
0
 30
0
  3
AIGNBL0101005C
  0
CIRCLE
  8
LAYER_1
 62
4
 10
180.5415
 20
215.7768
 40
20
  0
ENDBLK
  0
BLOCK
  8
LAYER_1
  2
AIGNBL0101005D
 70
64
 10
0
 20
0
 30
0
  3
AIGNBL0101005D
  0
CIRCLE
  8
LAYER_1
 62
4
 10
180.5415
 20
215.7768
 40
27.5
  0
ENDBLK
  0
BLOCK
  8
LAYER_1
  2
AIGNBL0101005E
 70
64
 10
0
 20
0
 30
0
  3
AIGNBL0101005E
  0
POLYLINE
  8
LAYER_1
  6
AIGENLINE001
 40
0.2469
 41
0.2469
 66
1
 10
0
 20
0
 30
0
 70
128
  0
VERTEX
  8
LAYER_1
 10
139.0475
 20
215.7768
  0
VERTEX
  8
LAYER_1
 10
223.8929
 20
215.7768
  0
SEQEND
  0
ENDBLK
  0
BLOCK
  8
LAYER_1
  2
AIGNBL0101005F
 70
64
 10
0
 20
0
 30
0
  3
AIGNBL0101005F
  0
POLYLINE
  8
LAYER_1
 40
0.2469
 41
0.2469
 62
4
 66
1
 10
0
 20
0
 30
0
  0
VERTEX
  8
LAYER_1
 10
200.5415
 20
153.5581
  0
VERTEX
  8
LAYER_1
 10
191.7915
 20
153.5581
  0
SEQEND
  0
ENDBLK
  0
BLOCK
  8
LAYER_1
  2
AIGNBL01010060
 70
64
 10
0
 20
0
 30
0
  3
AIGNBL01010060
  0
POLYLINE
  8
LAYER_1
 40
0.2469
 41
0.2469
 62
4
 66
1
 10
0
 20
0
 30
0
  0
VERTEX
  8
LAYER_1
 10
153.0415
 20
151.0581
  0
VERTEX
  8
LAYER_1
 10
208.0415
 20
151.0581
  0
SEQEND
  0
ENDBLK
  0
BLOCK
  8
LAYER_1
  2
AIGNBL01010061
 70
64
 10
0
 20
0
 30
0
  3
AIGNBL01010061
  0
POLYLINE
  8
LAYER_1
 40
0.2469
 41
0.2469
 62
4
 66
1
 10
0
 20
0
 30
0
  0
VERTEX
  8
LAYER_1
 10
159.7915
 20
152.8081
  0
VERTEX
  8
LAYER_1
 10
155.9157
 20
152.8081
  0
SEQEND
  0
ENDBLK
  0
BLOCK
  8
LAYER_1
  2
AIGNBL01010062
 70
64
 10
0
 20
0
 30
0
  3
AIGNBL01010062
  0
POLYLINE
  8
LAYER_1
 40
0.2469
 41
0.2469
 62
4
 66
1
 10
0
 20
0
 30
0
  0
VERTEX
  8
LAYER_1
 10
155.9157
 20
152.8081
 42
0.1098248855
  0
VERTEX
  8
LAYER_1
 10
154.8564
 20
152.5726
  0
SEQEND
  0
ENDBLK
  0
BLOCK
  8
LAYER_1
  2
AIGNBL01010063
 70
64
 10
0
 20
0
 30
0
  3
AIGNBL01010063
  0
POLYLINE
  8
LAYER_1
 40
0.2469
 41
0.2469
 62
4
 66
1
 10
0
 20
0
 30
0
  0
VERTEX
  8
LAYER_1
 10
153.0415
 20
151.2025
  0
VERTEX
  8
LAYER_1
 10
153.0415
 20
151.0581
  0
SEQEND
  0
ENDBLK
  0
BLOCK
  8
LAYER_1
  2
AIGNBL01010064
 70
64
 10
0
 20
0
 30
0
  3
AIGNBL01010064
  0
POLYLINE
  8
LAYER_1
 40
0.2469
 41
0.2469
 62
4
 66
1
 10
0
 20
0
 30
0
  0
VERTEX
  8
LAYER_1
 10
154.8564
 20
152.5726
 42
0.08152636384
  0
VERTEX
  8
LAYER_1
 10
153.1188
 20
151.3832
  0
SEQEND
  0
ENDBLK
  0
BLOCK
  8
LAYER_1
  2
AIGNBL01010065
 70
64
 10
0
 20
0
 30
0
  3
AIGNBL01010065
  0
POLYLINE
  8
LAYER_1
 40
0.2469
 41
0.2469
 62
4
 66
1
 10
0
 20
0
 30
0
  0
VERTEX
  8
LAYER_1
 10
153.1188
 20
151.3832
 42
0.2047827927
  0
VERTEX
  8
LAYER_1
 10
153.0415
 20
151.2025
  0
SEQEND
  0
ENDBLK
  0
BLOCK
  8
LAYER_1
  2
AIGNBL01010066
 70
64
 10
0
 20
0
 30
0
  3
AIGNBL01010066
  0
POLYLINE
  8
LAYER_1
 40
0.2469
 41
0.2469
 62
4
 66
1
 10
0
 20
0
 30
0
  0
VERTEX
  8
LAYER_1
 10
159.7915
 20
152.8081
  0
VERTEX
  8
LAYER_1
 10
159.9218
 20
152.8195
  0
SEQEND
  0
ENDBLK
  0
BLOCK
  8
LAYER_1
  2
AIGNBL01010067
 70
64
 10
0
 20
0
 30
0
  3
AIGNBL01010067
  0
POLYLINE
  8
LAYER_1
 40
0.2469
 41
0.2469
 62
4
 66
1
 10
0
 20
0
 30
0
  0
VERTEX
  8
LAYER_1
 10
159.9218
 20
152.8195
  0
VERTEX
  8
LAYER_1
 10
160.048
 20
152.8533
  0
SEQEND
  0
ENDBLK
  0
BLOCK
  8
LAYER_1
  2
AIGNBL01010068
 70
64
 10
0
 20
0
 30
0
  3
AIGNBL01010068
  0
POLYLINE
  8
LAYER_1
 40
0.2469
 41
0.2469
 62
4
 66
1
 10
0
 20
0
 30
0
  0
VERTEX
  8
LAYER_1
 10
160.048
 20
152.8533
  0
VERTEX
  8
LAYER_1
 10
160.1665
 20
152.9086
  0
SEQEND
  0
ENDBLK
  0
BLOCK
  8
LAYER_1
  2
AIGNBL01010069
 70
64
 10
0
 20
0
 30
0
  3
AIGNBL01010069
  0
POLYLINE
  8
LAYER_1
 40
0.2469
 41
0.2469
 62
4
 66
1
 10
0
 20
0
 30
0
  0
VERTEX
  8
LAYER_1
 10
160.1665
 20
152.9086
  0
VERTEX
  8
LAYER_1
 10
160.2736
 20
152.9836
  0
SEQEND
  0
ENDBLK
  0
BLOCK
  8
LAYER_1
  2
AIGNBL0101006A
 70
64
 10
0
 20
0
 30
0
  3
AIGNBL0101006A
  0
POLYLINE
  8
LAYER_1
 40
0.2469
 41
0.2469
 62
4
 66
1
 10
0
 20
0
 30
0
  0
VERTEX
  8
LAYER_1
 10
160.2736
 20
152.9836
  0
VERTEX
  8
LAYER_1
 10
160.3661
 20
153.076
  0
SEQEND
  0
ENDBLK
  0
BLOCK
  8
LAYER_1
  2
AIGNBL0101006B
 70
64
 10
0
 20
0
 30
0
  3
AIGNBL0101006B
  0
POLYLINE
  8
LAYER_1
 40
0.2469
 41
0.2469
 62
4
 66
1
 10
0
 20
0
 30
0
  0
VERTEX
  8
LAYER_1
 10
160.3661
 20
153.076
  0
VERTEX
  8
LAYER_1
 10
160.441
 20
153.1831
  0
SEQEND
  0
ENDBLK
  0
BLOCK
  8
LAYER_1
  2
AIGNBL0101006C
 70
64
 10
0
 20
0
 30
0
  3
AIGNBL0101006C
  0
POLYLINE
  8
LAYER_1
 40
0.2469
 41
0.2469
 62
4
 66
1
 10
0
 20
0
 30
0
  0
VERTEX
  8
LAYER_1
 10
160.441
 20
153.1831
  0
VERTEX
  8
LAYER_1
 10
160.4963
 20
153.3016
  0
SEQEND
  0
ENDBLK
  0
BLOCK
  8
LAYER_1
  2
AIGNBL0101006D
 70
64
 10
0
 20
0
 30
0
  3
AIGNBL0101006D
  0
POLYLINE
  8
LAYER_1
 40
0.2469
 41
0.2469
 62
4
 66
1
 10
0
 20
0
 30
0
  0
VERTEX
  8
LAYER_1
 10
160.4963
 20
153.3016
  0
VERTEX
  8
LAYER_1
 10
160.5301
 20
153.4279
  0
SEQEND
  0
ENDBLK
  0
BLOCK
  8
LAYER_1
  2
AIGNBL0101006E
 70
64
 10
0
 20
0
 30
0
  3
AIGNBL0101006E
  0
POLYLINE
  8
LAYER_1
 40
0.2469
 41
0.2469
 62
4
 66
1
 10
0
 20
0
 30
0
  0
VERTEX
  8
LAYER_1
 10
160.5301
 20
153.4279
  0
VERTEX
  8
LAYER_1
 10
160.5415
 20
153.5581
  0
SEQEND
  0
ENDBLK
  0
BLOCK
  8
LAYER_1
  2
AIGNBL0101006F
 70
64
 10
0
 20
0
 30
0
  3
AIGNBL0101006F
  0
POLYLINE
  8
LAYER_1
 40
0.2469
 41
0.2469
 62
4
 66
1
 10
0
 20
0
 30
0
  0
VERTEX
  8
LAYER_1
 10
201.2915
 20
152.8081
  0
VERTEX
  8
LAYER_1
 10
205.1673
 20
152.8081
  0
SEQEND
  0
ENDBLK
  0
BLOCK
  8
LAYER_1
  2
AIGNBL01010070
 70
64
 10
0
 20
0
 30
0
  3
AIGNBL01010070
  0
POLYLINE
  8
LAYER_1
 40
0.2469
 41
0.2469
 62
4
 66
1
 10
0
 20
0
 30
0
  0
VERTEX
  8
LAYER_1
 10
206.2266
 20
152.5726
 42
0.1098252053
  0
VERTEX
  8
LAYER_1
 10
205.1673
 20
152.8081
  0
SEQEND
  0
ENDBLK
  0
BLOCK
  8
LAYER_1
  2
AIGNBL01010071
 70
64
 10
0
 20
0
 30
0
  3
AIGNBL01010071
  0
POLYLINE
  8
LAYER_1
 40
0.2469
 41
0.2469
 62
4
 66
1
 10
0
 20
0
 30
0
  0
VERTEX
  8
LAYER_1
 10
208.0415
 20
151.2025
  0
VERTEX
  8
LAYER_1
 10
208.0415
 20
151.0581
  0
SEQEND
  0
ENDBLK
  0
BLOCK
  8
LAYER_1
  2
AIGNBL01010072
 70
64
 10
0
 20
0
 30
0
  3
AIGNBL01010072
  0
POLYLINE
  8
LAYER_1
 40
0.2469
 41
0.2469
 62
4
 66
1
 10
0
 20
0
 30
0
  0
VERTEX
  8
LAYER_1
 10
207.9643
 20
151.3832
 42
0.0815294
  0
VERTEX
  8
LAYER_1
 10
206.2266
 20
152.5726
  0
SEQEND
  0
ENDBLK
  0
BLOCK
  8
LAYER_1
  2
AIGNBL01010073
 70
64
 10
0
 20
0
 30
0
  3
AIGNBL01010073
  0
POLYLINE
  8
LAYER_1
 40
0.2469
 41
0.2469
 62
4
 66
1
 10
0
 20
0
 30
0
  0
VERTEX
  8
LAYER_1
 10
208.0415
 20
151.2025
 42
0.2047327375
  0
VERTEX
  8
LAYER_1
 10
207.9643
 20
151.3832
  0
SEQEND
  0
ENDBLK
  0
BLOCK
  8
LAYER_1
  2
AIGNBL01010074
 70
64
 10
0
 20
0
 30
0
  3
AIGNBL01010074
  0
POLYLINE
  8
LAYER_1
 40
0.2469
 41
0.2469
 62
4
 66
1
 10
0
 20
0
 30
0
  0
VERTEX
  8
LAYER_1
 10
200.5415
 20
153.5581
 42
0.4142048916
  0
VERTEX
  8
LAYER_1
 10
201.2915
 20
152.8081
  0
SEQEND
  0
ENDBLK
  0
BLOCK
  8
LAYER_1
  2
AIGNBL01010075
 70
64
 10
0
 20
0
 30
0
  3
AIGNBL01010075
  0
POLYLINE
  8
LAYER_1
 40
0.2469
 41
0.2469
 62
4
 66
1
 10
0
 20
0
 30
0
  0
VERTEX
  8
LAYER_1
 10
191.7915
 20
153.5581
  0
VERTEX
  8
LAYER_1
 10
191.7915
 20
151.0581
  0
SEQEND
  0
ENDBLK
  0
BLOCK
  8
LAYER_1
  2
AIGNBL01010076
 70
64
 10
0
 20
0
 30
0
  3
AIGNBL01010076
  0
POLYLINE
  8
LAYER_1
 40
0.2469
 41
0.2469
 66
1
 10
0
 20
0
 30
0
  0
VERTEX
  8
LAYER_1
 10
191.7915
 20
153.5581
  0
VERTEX
  8
LAYER_1
 10
180.5415
 20
153.5581
  0
SEQEND
  0
ENDBLK
  0
BLOCK
  8
LAYER_1
  2
AIGNBL01010077
 70
64
 10
0
 20
0
 30
0
  3
AIGNBL01010077
  0
POLYLINE
  8
LAYER_1
 40
0.2469
 41
0.2469
 66
1
 10
0
 20
0
 30
0
  0
VERTEX
  8
LAYER_1
 10
206.5638
 20
151.0581
  0
VERTEX
  8
LAYER_1
 10
207.3828
 20
151.8771
  0
SEQEND
  0
ENDBLK
  0
BLOCK
  8
LAYER_1
  2
AIGNBL01010078
 70
64
 10
0
 20
0
 30
0
  3
AIGNBL01010078
  0
POLYLINE
  8
LAYER_1
 40
0.2469
 41
0.2469
 66
1
 10
0
 20
0
 30
0
  0
VERTEX
  8
LAYER_1
 10
204.4425
 20
151.0581
  0
VERTEX
  8
LAYER_1
 10
206.0365
 20
152.6521
  0
SEQEND
  0
ENDBLK
  0
BLOCK
  8
LAYER_1
  2
AIGNBL01010079
 70
64
 10
0
 20
0
 30
0
  3
AIGNBL01010079
  0
POLYLINE
  8
LAYER_1
 40
0.2469
 41
0.2469
 66
1
 10
0
 20
0
 30
0
  0
VERTEX
  8
LAYER_1
 10
202.3211
 20
151.0581
  0
VERTEX
  8
LAYER_1
 10
204.0711
 20
152.8081
  0
SEQEND
  0
ENDBLK
  0
BLOCK
  8
LAYER_1
  2
AIGNBL0101007A
 70
64
 10
0
 20
0
 30
0
  3
AIGNBL0101007A
  0
POLYLINE
  8
LAYER_1
 40
0.2469
 41
0.2469
 66
1
 10
0
 20
0
 30
0
  0
VERTEX
  8
LAYER_1
 10
200.1998
 20
151.0581
  0
VERTEX
  8
LAYER_1
 10
201.9498
 20
152.8081
  0
SEQEND
  0
ENDBLK
  0
BLOCK
  8
LAYER_1
  2
AIGNBL0101007B
 70
64
 10
0
 20
0
 30
0
  3
AIGNBL0101007B
  0
POLYLINE
  8
LAYER_1
 40
0.2469
 41
0.2469
 66
1
 10
0
 20
0
 30
0
  0
VERTEX
  8
LAYER_1
 10
198.0785
 20
151.0581
  0
VERTEX
  8
LAYER_1
 10
200.5424
 20
153.522
  0
SEQEND
  0
ENDBLK
  0
BLOCK
  8
LAYER_1
  2
AIGNBL0101007C
 70
64
 10
0
 20
0
 30
0
  3
AIGNBL0101007C
  0
POLYLINE
  8
LAYER_1
 40
0.2469
 41
0.2469
 66
1
 10
0
 20
0
 30
0
  0
VERTEX
  8
LAYER_1
 10
195.9572
 20
151.0581
  0
VERTEX
  8
LAYER_1
 10
198.4572
 20
153.5581
  0
SEQEND
  0
ENDBLK
  0
BLOCK
  8
LAYER_1
  2
AIGNBL0101007D
 70
64
 10
0
 20
0
 30
0
  3
AIGNBL0101007D
  0
POLYLINE
  8
LAYER_1
 40
0.2469
 41
0.2469
 66
1
 10
0
 20
0
 30
0
  0
VERTEX
  8
LAYER_1
 10
193.8359
 20
151.0581
  0
VERTEX
  8
LAYER_1
 10
196.3359
 20
153.5581
  0
SEQEND
  0
ENDBLK
  0
BLOCK
  8
LAYER_1
  2
AIGNBL0101007E
 70
64
 10
0
 20
0
 30
0
  3
AIGNBL0101007E
  0
POLYLINE
  8
LAYER_1
 40
0.2469
 41
0.2469
 66
1
 10
0
 20
0
 30
0
  0
VERTEX
  8
LAYER_1
 10
191.7915
 20
151.1351
  0
VERTEX
  8
LAYER_1
 10
194.2145
 20
153.5581
  0
SEQEND
  0
ENDBLK
  0
BLOCK
  8
LAYER_1
  2
AIGNBL0101007F
 70
64
 10
0
 20
0
 30
0
  3
AIGNBL0101007F
  0
POLYLINE
  8
LAYER_1
 40
0.2469
 41
0.2469
 66
1
 10
0
 20
0
 30
0
  0
VERTEX
  8
LAYER_1
 10
191.7915
 20
153.2564
  0
VERTEX
  8
LAYER_1
 10
192.0932
 20
153.5581
  0
SEQEND
  0
ENDBLK
  0
BLOCK
  8
LAYER_1
  2
AIGNBL01010080
 70
64
 10
0
 20
0
 30
0
  3
AIGNBL01010080
  0
POLYLINE
  8
LAYER_1
 40
0.2469
 41
0.2469
 66
1
 10
0
 20
0
 30
0
  0
VERTEX
  8
LAYER_1
 10
166.2587
 20
151.0581
  0
VERTEX
  8
LAYER_1
 10
168.2915
 20
153.0909
  0
SEQEND
  0
ENDBLK
  0
BLOCK
  8
LAYER_1
  2
AIGNBL01010081
 70
64
 10
0
 20
0
 30
0
  3
AIGNBL01010081
  0
POLYLINE
  8
LAYER_1
 40
0.2469
 41
0.2469
 66
1
 10
0
 20
0
 30
0
  0
VERTEX
  8
LAYER_1
 10
164.1374
 20
151.0581
  0
VERTEX
  8
LAYER_1
 10
166.6374
 20
153.5581
  0
SEQEND
  0
ENDBLK
  0
BLOCK
  8
LAYER_1
  2
AIGNBL01010082
 70
64
 10
0
 20
0
 30
0
  3
AIGNBL01010082
  0
POLYLINE
  8
LAYER_1
 40
0.2469
 41
0.2469
 66
1
 10
0
 20
0
 30
0
  0
VERTEX
  8
LAYER_1
 10
162.0161
 20
151.0581
  0
VERTEX
  8
LAYER_1
 10
164.5161
 20
153.5581
  0
SEQEND
  0
ENDBLK
  0
BLOCK
  8
LAYER_1
  2
AIGNBL01010083
 70
64
 10
0
 20
0
 30
0
  3
AIGNBL01010083
  0
POLYLINE
  8
LAYER_1
 40
0.2469
 41
0.2469
 66
1
 10
0
 20
0
 30
0
  0
VERTEX
  8
LAYER_1
 10
159.8947
 20
151.0581
  0
VERTEX
  8
LAYER_1
 10
162.3947
 20
153.5581
  0
SEQEND
  0
ENDBLK
  0
BLOCK
  8
LAYER_1
  2
AIGNBL01010084
 70
64
 10
0
 20
0
 30
0
  3
AIGNBL01010084
  0
POLYLINE
  8
LAYER_1
 40
0.2469
 41
0.2469
 66
1
 10
0
 20
0
 30
0
  0
VERTEX
  8
LAYER_1
 10
157.7734
 20
151.0581
  0
VERTEX
  8
LAYER_1
 10
159.5234
 20
152.8081
  0
SEQEND
  0
ENDBLK
  0
BLOCK
  8
LAYER_1
  2
AIGNBL01010085
 70
64
 10
0
 20
0
 30
0
  3
AIGNBL01010085
  0
POLYLINE
  8
LAYER_1
 40
0.2469
 41
0.2469
 66
1
 10
0
 20
0
 30
0
  0
VERTEX
  8
LAYER_1
 10
155.6521
 20
151.0581
  0
VERTEX
  8
LAYER_1
 10
157.4021
 20
152.8081
  0
SEQEND
  0
ENDBLK
  0
BLOCK
  8
LAYER_1
  2
AIGNBL01010086
 70
64
 10
0
 20
0
 30
0
  3
AIGNBL01010086
  0
POLYLINE
  8
LAYER_1
 40
0.2469
 41
0.2469
 66
1
 10
0
 20
0
 30
0
  0
VERTEX
  8
LAYER_1
 10
153.5308
 20
151.0581
  0
VERTEX
  8
LAYER_1
 10
155.1656
 20
152.6929
  0
SEQEND
  0
ENDBLK
  0
BLOCK
  8
LAYER_1
  2
AIGNBL01010087
 70
64
 10
0
 20
0
 30
0
  3
AIGNBL01010087
  0
POLYLINE
  8
LAYER_1
 40
0.2469
 41
0.2469
 62
4
 66
1
 10
0
 20
0
 30
0
  0
VERTEX
  8
LAYER_1
 10
168.2915
 20
153.5581
  0
VERTEX
  8
LAYER_1
 10
168.2915
 20
151.0581
  0
SEQEND
  0
ENDBLK
  0
BLOCK
  8
LAYER_1
  2
AIGNBL01010088
 70
64
 10
0
 20
0
 30
0
  3
AIGNBL01010088
  0
POLYLINE
  8
LAYER_1
 40
0.2469
 41
0.2469
 62
4
 66
1
 10
0
 20
0
 30
0
  0
VERTEX
  8
LAYER_1
 10
160.5415
 20
153.5581
  0
VERTEX
  8
LAYER_1
 10
169.2915
 20
153.5581
  0
SEQEND
  0
ENDBLK
  0
BLOCK
  8
LAYER_1
  2
AIGNBL01010089
 70
64
 10
0
 20
0
 30
0
  3
AIGNBL01010089
  0
POLYLINE
  8
LAYER_1
  6
AIGENLINE002
 40
0.2469
 41
0.2469
 62
4
 66
1
 10
0
 20
0
 30
0
 70
128
  0
VERTEX
  8
LAYER_1
 10
169.2915
 20
153.5581
  0
VERTEX
  8
LAYER_1
 10
169.2915
 20
151.0581
  0
SEQEND
  0
ENDBLK
  0
BLOCK
  8
LAYER_1
  2
AIGNBL0101008A
 70
64
 10
0
 20
0
 30
0
  3
AIGNBL0101008A
  0
POLYLINE
  8
LAYER_1
 40
0.2469
 41
0.2469
 66
1
 10
0
 20
0
 30
0
  0
VERTEX
  8
LAYER_1
 10
160.5415
 20
173.1812
  0
VERTEX
  8
LAYER_1
 10
200.5415
 20
173.1812
  0
SEQEND
  0
ENDBLK
  0
BLOCK
  8
LAYER_1
  2
AIGNBL0101008B
 70
64
 10
0
 20
0
 30
0
  3
AIGNBL0101008B
  0
POLYLINE
  8
LAYER_1
 40
0.2469
 41
0.2469
 66
1
 10
0
 20
0
 30
0
  0
VERTEX
  8
LAYER_1
 10
191.2915
 20
165.1345
  0
VERTEX
  8
LAYER_1
 10
169.7915
 20
165.1345
  0
SEQEND
  0
ENDBLK
  0
BLOCK
  8
LAYER_1
  2
AIGNBL0101008C
 70
64
 10
0
 20
0
 30
0
  3
AIGNBL0101008C
  0
POLYLINE
  8
LAYER_1
 40
0.2469
 41
0.2469
 66
1
 10
0
 20
0
 30
0
  0
VERTEX
  8
LAYER_1
 10
160.5415
 20
154.5597
  0
VERTEX
  8
LAYER_1
 10
160.5415
 20
173.1812
  0
SEQEND
  0
ENDBLK
  0
BLOCK
  8
LAYER_1
  2
AIGNBL0101008D
 70
64
 10
0
 20
0
 30
0
  3
AIGNBL0101008D
  0
POLYLINE
  8
LAYER_1
 40
0.2469
 41
0.2469
 66
1
 10
0
 20
0
 30
0
  0
VERTEX
  8
LAYER_1
 10
200.5415
 20
154.5597
  0
VERTEX
  8
LAYER_1
 10
200.5415
 20
173.1812
  0
SEQEND
  0
ENDBLK
  0
BLOCK
  8
LAYER_1
  2
AIGNBL0101008E
 70
64
 10
0
 20
0
 30
0
  3
AIGNBL0101008E
  0
POLYLINE
  8
LAYER_1
 40
0.2469
 41
0.2469
 66
1
 10
0
 20
0
 30
0
  0
VERTEX
  8
LAYER_1
 10
169.7915
 20
154.5597
  0
VERTEX
  8
LAYER_1
 10
169.7915
 20
165.1345
  0
SEQEND
  0
ENDBLK
  0
BLOCK
  8
LAYER_1
  2
AIGNBL0101008F
 70
64
 10
0
 20
0
 30
0
  3
AIGNBL0101008F
  0
POLYLINE
  8
LAYER_1
 40
0.2469
 41
0.2469
 66
1
 10
0
 20
0
 30
0
  0
VERTEX
  8
LAYER_1
 10
191.2915
 20
154.5597
  0
VERTEX
  8
LAYER_1
 10
191.2915
 20
165.1345
  0
SEQEND
  0
ENDBLK
  0
BLOCK
  8
LAYER_1
  2
AIGNBL01010090
 70
64
 10
0
 20
0
 30
0
  3
AIGNBL01010090
  0
POLYLINE
  8
LAYER_1
 40
0.2469
 41
0.2469
 62
4
 66
1
 10
0
 20
0
 30
0
  0
VERTEX
  8
LAYER_1
 10
160.5415
 20
173.1812
  0
VERTEX
  8
LAYER_1
 10
161.9904
 20
173.5694
  0
SEQEND
  0
ENDBLK
  0
BLOCK
  8
LAYER_1
  2
AIGNBL01010091
 70
64
 10
0
 20
0
 30
0
  3
AIGNBL01010091
  0
POLYLINE
  8
LAYER_1
 40
0.2469
 41
0.2469
 62
4
 66
1
 10
0
 20
0
 30
0
  0
VERTEX
  8
LAYER_1
 10
160.5415
 20
173.1812
  0
VERTEX
  8
LAYER_1
 10
161.9904
 20
172.793
  0
SEQEND
  0
ENDBLK
  0
BLOCK
  8
LAYER_1
  2
AIGNBL01010092
 70
64
 10
0
 20
0
 30
0
  3
AIGNBL01010092
  0
POLYLINE
  8
LAYER_1
 40
0.2469
 41
0.2469
 62
4
 66
1
 10
0
 20
0
 30
0
  0
VERTEX
  8
LAYER_1
 10
200.5415
 20
173.1812
  0
VERTEX
  8
LAYER_1
 10
199.0926
 20
172.793
  0
SEQEND
  0
ENDBLK
  0
BLOCK
  8
LAYER_1
  2
AIGNBL01010093
 70
64
 10
0
 20
0
 30
0
  3
AIGNBL01010093
  0
POLYLINE
  8
LAYER_1
 40
0.2469
 41
0.2469
 62
4
 66
1
 10
0
 20
0
 30
0
  0
VERTEX
  8
LAYER_1
 10
200.5415
 20
173.1812
  0
VERTEX
  8
LAYER_1
 10
199.0926
 20
173.5694
  0
SEQEND
  0
ENDBLK
  0
BLOCK
  8
LAYER_1
  2
AIGNBL01010094
 70
64
 10
0
 20
0
 30
0
  3
AIGNBL01010094
  0
POLYLINE
  8
LAYER_1
 40
0.2469
 41
0.2469
 62
4
 66
1
 10
0
 20
0
 30
0
  0
VERTEX
  8
LAYER_1
 10
169.7915
 20
165.1345
  0
VERTEX
  8
LAYER_1
 10
171.2404
 20
165.5227
  0
SEQEND
  0
ENDBLK
  0
BLOCK
  8
LAYER_1
  2
AIGNBL01010095
 70
64
 10
0
 20
0
 30
0
  3
AIGNBL01010095
  0
POLYLINE
  8
LAYER_1
 40
0.2469
 41
0.2469
 62
4
 66
1
 10
0
 20
0
 30
0
  0
VERTEX
  8
LAYER_1
 10
169.7915
 20
165.1345
  0
VERTEX
  8
LAYER_1
 10
171.2404
 20
164.7462
  0
SEQEND
  0
ENDBLK
  0
BLOCK
  8
LAYER_1
  2
AIGNBL01010096
 70
64
 10
0
 20
0
 30
0
  3
AIGNBL01010096
  0
POLYLINE
  8
LAYER_1
 40
0.2469
 41
0.2469
 62
4
 66
1
 10
0
 20
0
 30
0
  0
VERTEX
  8
LAYER_1
 10
191.2915
 20
165.1345
  0
VERTEX
  8
LAYER_1
 10
189.8426
 20
164.7462
  0
SEQEND
  0
ENDBLK
  0
BLOCK
  8
LAYER_1
  2
AIGNBL01010097
 70
64
 10
0
 20
0
 30
0
  3
AIGNBL01010097
  0
POLYLINE
  8
LAYER_1
 40
0.2469
 41
0.2469
 62
4
 66
1
 10
0
 20
0
 30
0
  0
VERTEX
  8
LAYER_1
 10
191.2915
 20
165.1345
  0
VERTEX
  8
LAYER_1
 10
189.8426
 20
165.5227
  0
SEQEND
  0
ENDBLK
  0
BLOCK
  8
LAYER_1
  2
AIGNBL01010098
 70
64
 10
0
 20
0
 30
0
  3
AIGNBL01010098
  0
POLYLINE
  8
LAYER_1
 40
0.2469
 41
0.2469
 66
1
 10
0
 20
0
 30
0
  0
VERTEX
  8
LAYER_1
 10
49.5415
 20
140.3141
  0
VERTEX
  8
LAYER_1
 10
104.5415
 20
140.3141
  0
SEQEND
  0
ENDBLK
  0
BLOCK
  8
LAYER_1
  2
AIGNBL01010099
 70
64
 10
0
 20
0
 30
0
  3
AIGNBL01010099
  0
POLYLINE
  8
LAYER_1
  6
AIGENLINE001
 40
0.2469
 41
0.2469
 66
1
 10
0
 20
0
 30
0
 70
128
  0
VERTEX
  8
LAYER_1
 10
77.0415
 20
161.7012
  0
VERTEX
  8
LAYER_1
 10
77.0415
 20
146.5039
  0
SEQEND
  0
ENDBLK
  0
BLOCK
  8
LAYER_1
  2
AIGNBL0101009A
 70
64
 10
0
 20
0
 30
0
  3
AIGNBL0101009A
  0
POLYLINE
  8
LAYER_1
 40
0.2469
 41
0.2469
 66
1
 10
0
 20
0
 30
0
  0
VERTEX
  8
LAYER_1
 10
49.5415
 20
150.0132
  0
VERTEX
  8
LAYER_1
 10
49.5415
 20
140.3141
  0
SEQEND
  0
ENDBLK
  0
BLOCK
  8
LAYER_1
  2
AIGNBL0101009B
 70
64
 10
0
 20
0
 30
0
  3
AIGNBL0101009B
  0
POLYLINE
  8
LAYER_1
 40
0.2469
 41
0.2469
 66
1
 10
0
 20
0
 30
0
  0
VERTEX
  8
LAYER_1
 10
104.5415
 20
150.0132
  0
VERTEX
  8
LAYER_1
 10
104.5415
 20
140.3141
  0
SEQEND
  0
ENDBLK
  0
BLOCK
  8
LAYER_1
  2
AIGNBL0101009C
 70
64
 10
0
 20
0
 30
0
  3
AIGNBL0101009C
  0
POLYLINE
  8
LAYER_1
 40
0.2469
 41
0.2469
 62
4
 66
1
 10
0
 20
0
 30
0
  0
VERTEX
  8
LAYER_1
 10
49.5415
 20
140.3141
  0
VERTEX
  8
LAYER_1
 10
50.9904
 20
140.7024
  0
SEQEND
  0
ENDBLK
  0
BLOCK
  8
LAYER_1
  2
AIGNBL0101009D
 70
64
 10
0
 20
0
 30
0
  3
AIGNBL0101009D
  0
POLYLINE
  8
LAYER_1
 40
0.2469
 41
0.2469
 62
4
 66
1
 10
0
 20
0
 30
0
  0
VERTEX
  8
LAYER_1
 10
49.5415
 20
140.3141
  0
VERTEX
  8
LAYER_1
 10
50.9904
 20
139.9259
  0
SEQEND
  0
ENDBLK
  0
BLOCK
  8
LAYER_1
  2
AIGNBL0101009E
 70
64
 10
0
 20
0
 30
0
  3
AIGNBL0101009E
  0
POLYLINE
  8
LAYER_1
 40
0.2469
 41
0.2469
 62
4
 66
1
 10
0
 20
0
 30
0
  0
VERTEX
  8
LAYER_1
 10
104.5415
 20
140.3141
  0
VERTEX
  8
LAYER_1
 10
103.0926
 20
139.9259
  0
SEQEND
  0
ENDBLK
  0
BLOCK
  8
LAYER_1
  2
AIGNBL0101009F
 70
64
 10
0
 20
0
 30
0
  3
AIGNBL0101009F
  0
POLYLINE
  8
LAYER_1
 40
0.2469
 41
0.2469
 62
4
 66
1
 10
0
 20
0
 30
0
  0
VERTEX
  8
LAYER_1
 10
104.5415
 20
140.3141
  0
VERTEX
  8
LAYER_1
 10
103.0926
 20
140.7024
  0
SEQEND
  0
ENDBLK
  0
BLOCK
  8
LAYER_1
  2
AIGNBL010100A0
 70
64
 10
0
 20
0
 30
0
  3
AIGNBL010100A0
  0
POLYLINE
  8
LAYER_1
 40
0.2469
 41
0.2469
 66
1
 10
0
 20
0
 30
0
  0
VERTEX
  8
LAYER_1
 10
153.0415
 20
140.3141
  0
VERTEX
  8
LAYER_1
 10
208.0415
 20
140.3141
  0
SEQEND
  0
ENDBLK
  0
BLOCK
  8
LAYER_1
  2
AIGNBL010100A1
 70
64
 10
0
 20
0
 30
0
  3
AIGNBL010100A1
  0
POLYLINE
  8
LAYER_1
  6
AIGENLINE001
 40
0.2469
 41
0.2469
 66
1
 10
0
 20
0
 30
0
 70
128
  0
VERTEX
  8
LAYER_1
 10
180.5415
 20
161.7012
  0
VERTEX
  8
LAYER_1
 10
180.5415
 20
146.5039
  0
SEQEND
  0
ENDBLK
  0
BLOCK
  8
LAYER_1
  2
AIGNBL010100A2
 70
64
 10
0
 20
0
 30
0
  3
AIGNBL010100A2
  0
POLYLINE
  8
LAYER_1
 40
0.2469
 41
0.2469
 66
1
 10
0
 20
0
 30
0
  0
VERTEX
  8
LAYER_1
 10
153.0415
 20
150.0132
  0
VERTEX
  8
LAYER_1
 10
153.0415
 20
140.3141
  0
SEQEND
  0
ENDBLK
  0
BLOCK
  8
LAYER_1
  2
AIGNBL010100A3
 70
64
 10
0
 20
0
 30
0
  3
AIGNBL010100A3
  0
POLYLINE
  8
LAYER_1
 40
0.2469
 41
0.2469
 66
1
 10
0
 20
0
 30
0
  0
VERTEX
  8
LAYER_1
 10
208.0415
 20
150.0132
  0
VERTEX
  8
LAYER_1
 10
208.0415
 20
140.3141
  0
SEQEND
  0
ENDBLK
  0
BLOCK
  8
LAYER_1
  2
AIGNBL010100A4
 70
64
 10
0
 20
0
 30
0
  3
AIGNBL010100A4
  0
POLYLINE
  8
LAYER_1
 40
0.2469
 41
0.2469
 62
4
 66
1
 10
0
 20
0
 30
0
  0
VERTEX
  8
LAYER_1
 10
153.0415
 20
140.3141
  0
VERTEX
  8
LAYER_1
 10
154.4904
 20
140.7024
  0
SEQEND
  0
ENDBLK
  0
BLOCK
  8
LAYER_1
  2
AIGNBL010100A5
 70
64
 10
0
 20
0
 30
0
  3
AIGNBL010100A5
  0
POLYLINE
  8
LAYER_1
 40
0.2469
 41
0.2469
 62
4
 66
1
 10
0
 20
0
 30
0
  0
VERTEX
  8
LAYER_1
 10
153.0415
 20
140.3141
  0
VERTEX
  8
LAYER_1
 10
154.4904
 20
139.9259
  0
SEQEND
  0
ENDBLK
  0
BLOCK
  8
LAYER_1
  2
AIGNBL010100A6
 70
64
 10
0
 20
0
 30
0
  3
AIGNBL010100A6
  0
POLYLINE
  8
LAYER_1
 40
0.2469
 41
0.2469
 62
4
 66
1
 10
0
 20
0
 30
0
  0
VERTEX
  8
LAYER_1
 10
208.0415
 20
140.3141
  0
VERTEX
  8
LAYER_1
 10
206.5926
 20
139.9259
  0
SEQEND
  0
ENDBLK
  0
BLOCK
  8
LAYER_1
  2
AIGNBL010100A7
 70
64
 10
0
 20
0
 30
0
  3
AIGNBL010100A7
  0
POLYLINE
  8
LAYER_1
 40
0.2469
 41
0.2469
 62
4
 66
1
 10
0
 20
0
 30
0
  0
VERTEX
  8
LAYER_1
 10
208.0415
 20
140.3141
  0
VERTEX
  8
LAYER_1
 10
206.5926
 20
140.7024
  0
SEQEND
  0
ENDBLK
  0
BLOCK
  8
LAYER_1
  2
AIGNBL010100A8
 70
64
 10
0
 20
0
 30
0
  3
AIGNBL010100A8
  0
POLYLINE
  8
LAYER_1
 40
0.2469
 41
0.2469
 66
1
 10
0
 20
0
 30
0
  0
VERTEX
  8
LAYER_1
 10
215.5415
 20
156.0581
  0
VERTEX
  8
LAYER_1
 10
215.5415
 20
148.5581
  0
SEQEND
  0
ENDBLK
  0
BLOCK
  8
LAYER_1
  2
AIGNBL010100A9
 70
64
 10
0
 20
0
 30
0
  3
AIGNBL010100A9
  0
POLYLINE
  8
LAYER_1
 40
0.2469
 41
0.2469
 62
4
 66
1
 10
0
 20
0
 30
0
  0
VERTEX
  8
LAYER_1
 10
215.5415
 20
151.0581
  0
VERTEX
  8
LAYER_1
 10
215.9297
 20
149.6092
  0
SEQEND
  0
ENDBLK
  0
BLOCK
  8
LAYER_1
  2
AIGNBL010100AA
 70
64
 10
0
 20
0
 30
0
  3
AIGNBL010100AA
  0
POLYLINE
  8
LAYER_1
 40
0.2469
 41
0.2469
 62
4
 66
1
 10
0
 20
0
 30
0
  0
VERTEX
  8
LAYER_1
 10
215.5415
 20
151.0581
  0
VERTEX
  8
LAYER_1
 10
215.1533
 20
149.6092
  0
SEQEND
  0
ENDBLK
  0
BLOCK
  8
LAYER_1
  2
AIGNBL010100AB
 70
64
 10
0
 20
0
 30
0
  3
AIGNBL010100AB
  0
POLYLINE
  8
LAYER_1
 40
0.2469
 41
0.2469
 62
4
 66
1
 10
0
 20
0
 30
0
  0
VERTEX
  8
LAYER_1
 10
215.5415
 20
153.5581
  0
VERTEX
  8
LAYER_1
 10
215.1533
 20
155.007
  0
SEQEND
  0
ENDBLK
  0
BLOCK
  8
LAYER_1
  2
AIGNBL010100AC
 70
64
 10
0
 20
0
 30
0
  3
AIGNBL010100AC
  0
POLYLINE
  8
LAYER_1
 40
0.2469
 41
0.2469
 62
4
 66
1
 10
0
 20
0
 30
0
  0
VERTEX
  8
LAYER_1
 10
215.5415
 20
153.5581
  0
VERTEX
  8
LAYER_1
 10
215.9297
 20
155.007
  0
SEQEND
  0
ENDBLK
  0
BLOCK
  8
LAYER_1
  2
AIGNBL010100AD
 70
64
 10
0
 20
0
 30
0
  3
AIGNBL010100AD
  0
POLYLINE
  8
LAYER_1
 40
0.2469
 41
0.2469
 66
1
 10
0
 20
0
 30
0
  0
VERTEX
  8
LAYER_1
 10
215.5415
 20
151.0581
  0
VERTEX
  8
LAYER_1
 10
208.4024
 20
151.0581
  0
SEQEND
  0
ENDBLK
  0
BLOCK
  8
LAYER_1
  2
AIGNBL010100AE
 70
64
 10
0
 20
0
 30
0
  3
AIGNBL010100AE
  0
POLYLINE
  8
LAYER_1
 40
0.2469
 41
0.2469
 66
1
 10
0
 20
0
 30
0
  0
VERTEX
  8
LAYER_1
 10
215.5415
 20
153.5581
  0
VERTEX
  8
LAYER_1
 10
208.4024
 20
153.5581
  0
SEQEND
  0
ENDBLK
  0
BLOCK
  8
LAYER_1
  2
AIGNBL010100AF
 70
64
 10
0
 20
0
 30
0
  3
AIGNBL010100AF
  0
POLYLINE
  8
LAYER_1
 40
0.2469
 41
0.2469
 66
1
 10
0
 20
0
 30
0
  0
VERTEX
  8
LAYER_1
 10
112.0415
 20
158.5581
  0
VERTEX
  8
LAYER_1
 10
112.0415
 20
148.5581
  0
SEQEND
  0
ENDBLK
  0
BLOCK
  8
LAYER_1
  2
AIGNBL010100B0
 70
64
 10
0
 20
0
 30
0
  3
AIGNBL010100B0
  0
POLYLINE
  8
LAYER_1
 40
0.2469
 41
0.2469
 62
4
 66
1
 10
0
 20
0
 30
0
  0
VERTEX
  8
LAYER_1
 10
112.0415
 20
151.0581
  0
VERTEX
  8
LAYER_1
 10
112.4297
 20
149.6092
  0
SEQEND
  0
ENDBLK
  0
BLOCK
  8
LAYER_1
  2
AIGNBL010100B1
 70
64
 10
0
 20
0
 30
0
  3
AIGNBL010100B1
  0
POLYLINE
  8
LAYER_1
 40
0.2469
 41
0.2469
 62
4
 66
1
 10
0
 20
0
 30
0
  0
VERTEX
  8
LAYER_1
 10
112.0415
 20
151.0581
  0
VERTEX
  8
LAYER_1
 10
111.6533
 20
149.6092
  0
SEQEND
  0
ENDBLK
  0
BLOCK
  8
LAYER_1
  2
AIGNBL010100B2
 70
64
 10
0
 20
0
 30
0
  3
AIGNBL010100B2
  0
POLYLINE
  8
LAYER_1
 40
0.2469
 41
0.2469
 62
4
 66
1
 10
0
 20
0
 30
0
  0
VERTEX
  8
LAYER_1
 10
112.0415
 20
156.0581
  0
VERTEX
  8
LAYER_1
 10
111.6533
 20
157.507
  0
SEQEND
  0
ENDBLK
  0
BLOCK
  8
LAYER_1
  2
AIGNBL010100B3
 70
64
 10
0
 20
0
 30
0
  3
AIGNBL010100B3
  0
POLYLINE
  8
LAYER_1
 40
0.2469
 41
0.2469
 62
4
 66
1
 10
0
 20
0
 30
0
  0
VERTEX
  8
LAYER_1
 10
112.0415
 20
156.0581
  0
VERTEX
  8
LAYER_1
 10
112.4297
 20
157.507
  0
SEQEND
  0
ENDBLK
  0
BLOCK
  8
LAYER_1
  2
AIGNBL010100B4
 70
64
 10
0
 20
0
 30
0
  3
AIGNBL010100B4
  0
POLYLINE
  8
LAYER_1
 40
0.2469
 41
0.2469
 66
1
 10
0
 20
0
 30
0
  0
VERTEX
  8
LAYER_1
 10
112.0415
 20
151.0581
  0
VERTEX
  8
LAYER_1
 10
105.2951
 20
151.0581
  0
SEQEND
  0
ENDBLK
  0
BLOCK
  8
LAYER_1
  2
AIGNBL010100B5
 70
64
 10
0
 20
0
 30
0
  3
AIGNBL010100B5
  0
POLYLINE
  8
LAYER_1
 40
0.2469
 41
0.2469
 66
1
 10
0
 20
0
 30
0
  0
VERTEX
  8
LAYER_1
 10
112.0415
 20
156.0581
  0
VERTEX
  8
LAYER_1
 10
105.2951
 20
156.0581
  0
SEQEND
  0
ENDBLK
  0
BLOCK
  8
LAYER_1
  2
AIGNBL010100B6
 70
64
 10
0
 20
0
 30
0
  3
AIGNBL010100B6
  0
CIRCLE
  8
LAYER_1
 10
77.0415
 20
215.7768
 40
13.75
  0
ENDBLK
  0
BLOCK
  8
LAYER_1
  2
AIGNBL010100B7
 70
64
 10
0
 20
0
 30
0
  3
AIGNBL010100B7
  0
CIRCLE
  8
LAYER_1
 10
77.0415
 20
215.7768
 40
15.25
  0
ENDBLK
  0
BLOCK
  8
LAYER_1
  2
AIGNBL010100B8
 70
64
 10
0
 20
0
 30
0
  3
AIGNBL010100B8
  0
CIRCLE
  8
LAYER_1
 10
180.5415
 20
215.7768
 40
13.75
  0
ENDBLK
  0
BLOCK
  8
LAYER_1
  2
AIGNBL010100B9
 70
64
 10
0
 20
0
 30
0
  3
AIGNBL010100B9
  0
CIRCLE
  8
LAYER_1
 10
180.5415
 20
215.7768
 40
15.25
  0
ENDBLK
  0
BLOCK
  8
LAYER_1
  2
AIGNBL010100BA
 70
64
 10
0
 20
0
 30
0
  3
AIGNBL010100BA
  0
POLYLINE
  8
LAYER_1
  6
AIGENLINE001
 40
0.2469
 41
0.2469
 66
1
 10
0
 20
0
 30
0
 70
128
  0
VERTEX
  8
LAYER_1
 10
77.0415
 20
251.6205
  0
VERTEX
  8
LAYER_1
 10
77.0415
 20
177.7341
  0
SEQEND
  0
ENDBLK
  0
BLOCK
  8
LAYER_1
  2
AIGNBL010100BB
 70
64
 10
0
 20
0
 30
0
  3
AIGNBL010100BB
  0
POLYLINE
  8
LAYER_1
  6
AIGENLINE001
 40
0.2469
 41
0.2469
 66
1
 10
0
 20
0
 30
0
 70
128
  0
VERTEX
  8
LAYER_1
 10
180.5415
 20
251.6205
  0
VERTEX
  8
LAYER_1
 10
180.5415
 20
177.7341
  0
SEQEND
  0
ENDBLK
  0
BLOCK
  8
LAYER_1
  2
AIGNBL010100BC
 70
64
 10
0
 20
0
 30
0
  3
AIGNBL010100BC
  0
TEXT
  8
LAYER_1
 10
56.4905
 20
132.3399
 11
56.4905
 21
132.3399
 40
3.4404
 41
0.5
  1
â}âEâôâeâBâôâOâfâBâXâNüiâXâyü[âTü[üjL10.0
  0
ENDBLK
  0
BLOCK
  8
LAYER_1
  2
AIGNBL010100BD
 70
64
 10
0
 20
0
 30
0
  3
AIGNBL010100BD
  0
TEXT
  8
LAYER_1
 10
160.4904
 20
132.3399
 11
160.4904
 21
132.3399
 40
3.4404
 41
0.5
  1
â}âEâôâeâBâôâOâfâBâXâNüiâXâyü[âTü[üjL5.0
  0
ENDBLK
  0
BLOCK
  8
LAYER_1
  2
AIGNBL010100BE
 70
64
 10
0
 20
0
 30
0
  3
AIGNBL010100BE
  0
POLYLINE
  8
LAYER_1
 40
0.2469
 41
0.2469
 66
1
 10
0
 20
0
 30
0
  0
VERTEX
  8
LAYER_1
 10
55.7915
 20
135.0901
  0
VERTEX
  8
LAYER_1
 10
55.7915
 20
131.5901
  0
SEQEND
  0
ENDBLK
  0
BLOCK
  8
LAYER_1
  2
AIGNBL010100BF
 70
64
 10
0
 20
0
 30
0
  3
AIGNBL010100BF
  0
POLYLINE
  8
LAYER_1
 40
0.2469
 41
0.2469
 66
1
 10
0
 20
0
 30
0
  0
VERTEX
  8
LAYER_1
 10
55.7915
 20
131.5901
  0
VERTEX
  8
LAYER_1
 10
111.3516
 20
131.5901
  0
SEQEND
  0
ENDBLK
  0
BLOCK
  8
LAYER_1
  2
AIGNBL010100C0
 70
64
 10
0
 20
0
 30
0
  3
AIGNBL010100C0
  0
POLYLINE
  8
LAYER_1
 40
0.2469
 41
0.2469
 66
1
 10
0
 20
0
 30
0
  0
VERTEX
  8
LAYER_1
 10
111.3516
 20
131.5901
  0
VERTEX
  8
LAYER_1
 10
111.3516
 20
135.0901
  0
SEQEND
  0
ENDBLK
  0
BLOCK
  8
LAYER_1
  2
AIGNBL010100C1
 70
64
 10
0
 20
0
 30
0
  3
AIGNBL010100C1
  0
POLYLINE
  8
LAYER_1
 40
0.2469
 41
0.2469
 66
1
 10
0
 20
0
 30
0
  0
VERTEX
  8
LAYER_1
 10
111.3516
 20
135.0901
  0
VERTEX
  8
LAYER_1
 10
55.7915
 20
135.0901
  0
SEQEND
  0
ENDBLK
  0
BLOCK
  8
LAYER_1
  2
AIGNBL010100C2
 70
64
 10
0
 20
0
 30
0
  3
AIGNBL010100C2
  0
POLYLINE
  8
LAYER_1
 40
0.2469
 41
0.2469
 66
1
 10
0
 20
0
 30
0
  0
VERTEX
  8
LAYER_1
 10
212.9514
 20
135.0901
  0
VERTEX
  8
LAYER_1
 10
159.2915
 20
135.0901
  0
SEQEND
  0
ENDBLK
  0
BLOCK
  8
LAYER_1
  2
AIGNBL010100C3
 70
64
 10
0
 20
0
 30
0
  3
AIGNBL010100C3
  0
POLYLINE
  8
LAYER_1
 40
0.2469
 41
0.2469
 66
1
 10
0
 20
0
 30
0
  0
VERTEX
  8
LAYER_1
 10
159.2915
 20
135.0901
  0
VERTEX
  8
LAYER_1
 10
159.2915
 20
131.5901
  0
SEQEND
  0
ENDBLK
  0
BLOCK
  8
LAYER_1
  2
AIGNBL010100C4
 70
64
 10
0
 20
0
 30
0
  3
AIGNBL010100C4
  0
POLYLINE
  8
LAYER_1
 40
0.2469
 41
0.2469
 66
1
 10
0
 20
0
 30
0
  0
VERTEX
  8
LAYER_1
 10
159.2915
 20
131.5901
  0
VERTEX
  8
LAYER_1
 10
212.9514
 20
131.5901
  0
SEQEND
  0
ENDBLK
  0
BLOCK
  8
LAYER_1
  2
AIGNBL010100C5
 70
64
 10
0
 20
0
 30
0
  3
AIGNBL010100C5
  0
POLYLINE
  8
LAYER_1
 40
0.2469
 41
0.2469
 66
1
 10
0
 20
0
 30
0
  0
VERTEX
  8
LAYER_1
 10
212.9514
 20
131.5901
  0
VERTEX
  8
LAYER_1
 10
212.9514
 20
135.0901
  0
SEQEND
  0
ENDBLK
  0
BLOCK
  8
LAYER_1
  2
AIGNBL010100C6
 70
64
 10
0
 20
0
 30
0
  3
AIGNBL010100C6
  0
TEXT
  8
LAYER_1
 10
73.274
 20
173.7782
 11
73.274
 21
173.7782
 40
4.3005
 41
0.5
  1
%%c80
  0
ENDBLK
  0
BLOCK
  8
LAYER_1
  2
AIGNBL010100C7
 70
64
 10
0
 20
0
 30
0
  3
AIGNBL010100C7
  0
TEXT
  8
LAYER_1
 10
73.274
 20
165.7318
 11
73.274
 21
165.7318
 40
4.3005
 41
0.5
  1
%%c43
  0
ENDBLK
  0
BLOCK
  8
LAYER_1
  2
AIGNBL010100C8
 70
64
 10
0
 20
0
 30
0
  3
AIGNBL010100C8
  0
TEXT
  8
LAYER_1
 10
72.4303
 20
140.9113
 11
72.4303
 21
140.9113
 40
4.3005
 41
0.5
  1
%%c110
  0
ENDBLK
  0
BLOCK
  8
LAYER_1
  2
AIGNBL010100C9
 70
64
 10
0
 20
0
 30
0
  3
AIGNBL010100C9
  0
TEXT
  8
LAYER_1
 10
176.7739
 20
173.7782
 11
176.7739
 21
173.7782
 40
4.3005
 41
0.5
  1
%%c80
  0
ENDBLK
  0
BLOCK
  8
LAYER_1
  2
AIGNBL010100CA
 70
64
 10
0
 20
0
 30
0
  3
AIGNBL010100CA
  0
TEXT
  8
LAYER_1
 10
176.7739
 20
165.7318
 11
176.7739
 21
165.7318
 40
4.3005
 41
0.5
  1
%%c43
  0
ENDBLK
  0
BLOCK
  8
LAYER_1
  2
AIGNBL010100CB
 70
64
 10
0
 20
0
 30
0
  3
AIGNBL010100CB
  0
TEXT
  8
LAYER_1
 10
175.9302
 20
140.9113
 11
175.9302
 21
140.9113
 40
4.3005
 41
0.5
  1
%%c110
  0
ENDBLK
  0
BLOCK
  8
LAYER_1
  2
AIGNBL010100CC
 70
64
 10
0
 20
0
 30
0
  3
AIGNBL010100CC
  0
TEXT
  8
LAYER_1
 10
111.4246
 20
151.9018
 11
111.4246
 21
151.9018
 40
4.3005
 41
0.5
 50
89.99999999
  1
10
  0
ENDBLK
  0
BLOCK
  8
LAYER_1
  2
AIGNBL010100CD
 70
64
 10
0
 20
0
 30
0
  3
AIGNBL010100CD
  0
TEXT
  8
LAYER_1
 10
215.4424
 20
151.4957
 11
215.4424
 21
151.4957
 40
4.3005
 41
0.5
 50
89.99999999
  1
5
  0
ENDBLK
  0
BLOCK
  8
LAYER_1
  2
AIGNBL010100CE
 70
64
 10
0
 20
0
 30
0
  3
AIGNBL010100CE
  0
POLYLINE
  8
LAYER_1
  6
AIGENLINE003
 40
0.2469
 41
0.2469
 66
1
 10
0
 20
0
 30
0
 70
128
  0
VERTEX
  8
LAYER_1
 10
61.7915
 20
155.3081
  0
VERTEX
  8
LAYER_1
 10
63.2915
 20
155.3081
  0
SEQEND
  0
ENDBLK
  0
BLOCK
  8
LAYER_1
  2
AIGNBL010100CF
 70
64
 10
0
 20
0
 30
0
  3
AIGNBL010100CF
  0
POLYLINE
  8
LAYER_1
  6
AIGENLINE003
 40
0.2469
 41
0.2469
 66
1
 10
0
 20
0
 30
0
 70
128
  0
VERTEX
  8
LAYER_1
 10
90.7915
 20
155.3081
  0
VERTEX
  8
LAYER_1
 10
92.2915
 20
155.3081
  0
SEQEND
  0
ENDBLK
  0
BLOCK
  8
LAYER_1
  2
AIGNBL010100D0
 70
64
 10
0
 20
0
 30
0
  3
AIGNBL010100D0
  0
POLYLINE
  8
LAYER_1
  6
AIGENLINE003
 40
0.2469
 41
0.2469
 66
1
 10
0
 20
0
 30
0
 70
128
  0
VERTEX
  8
LAYER_1
 10
90.7915
 20
156.0581
  0
VERTEX
  8
LAYER_1
 10
90.7915
 20
155.3081
  0
SEQEND
  0
ENDBLK
  0
BLOCK
  8
LAYER_1
  2
AIGNBL010100D1
 70
64
 10
0
 20
0
 30
0
  3
AIGNBL010100D1
  0
POLYLINE
  8
LAYER_1
  6
AIGENLINE003
 40
0.2469
 41
0.2469
 66
1
 10
0
 20
0
 30
0
 70
128
  0
VERTEX
  8
LAYER_1
 10
92.2915
 20
156.0581
  0
VERTEX
  8
LAYER_1
 10
92.2915
 20
155.3081
  0
SEQEND
  0
ENDBLK
  0
BLOCK
  8
LAYER_1
  2
AIGNBL010100D2
 70
64
 10
0
 20
0
 30
0
  3
AIGNBL010100D2
  0
POLYLINE
  8
LAYER_1
  6
AIGENLINE003
 40
0.2469
 41
0.2469
 66
1
 10
0
 20
0
 30
0
 70
128
  0
VERTEX
  8
LAYER_1
 10
61.7915
 20
156.0581
  0
VERTEX
  8
LAYER_1
 10
61.7915
 20
155.3081
  0
SEQEND
  0
ENDBLK
  0
BLOCK
  8
LAYER_1
  2
AIGNBL010100D3
 70
64
 10
0
 20
0
 30
0
  3
AIGNBL010100D3
  0
POLYLINE
  8
LAYER_1
  6
AIGENLINE003
 40
0.2469
 41
0.2469
 66
1
 10
0
 20
0
 30
0
 70
128
  0
VERTEX
  8
LAYER_1
 10
63.2915
 20
156.0581
  0
VERTEX
  8
LAYER_1
 10
63.2915
 20
155.3081
  0
SEQEND
  0
ENDBLK
  0
BLOCK
  8
LAYER_1
  2
AIGNBL010100D4
 70
64
 10
0
 20
0
 30
0
  3
AIGNBL010100D4
  0
POLYLINE
  8
LAYER_1
  6
AIGENLINE003
 40
0.2469
 41
0.2469
 66
1
 10
0
 20
0
 30
0
 70
128
  0
VERTEX
  8
LAYER_1
 10
194.2915
 20
152.8081
  0
VERTEX
  8
LAYER_1
 10
195.7915
 20
152.8081
  0
SEQEND
  0
ENDBLK
  0
BLOCK
  8
LAYER_1
  2
AIGNBL010100D5
 70
64
 10
0
 20
0
 30
0
  3
AIGNBL010100D5
  0
POLYLINE
  8
LAYER_1
  6
AIGENLINE003
 40
0.2469
 41
0.2469
 66
1
 10
0
 20
0
 30
0
 70
128
  0
VERTEX
  8
LAYER_1
 10
165.2915
 20
152.8081
  0
VERTEX
  8
LAYER_1
 10
166.7915
 20
152.8081
  0
SEQEND
  0
ENDBLK
  0
BLOCK
  8
LAYER_1
  2
AIGNBL010100D6
 70
64
 10
0
 20
0
 30
0
  3
AIGNBL010100D6
  0
POLYLINE
  8
LAYER_1
  6
AIGENLINE003
 40
0.2469
 41
0.2469
 66
1
 10
0
 20
0
 30
0
 70
128
  0
VERTEX
  8
LAYER_1
 10
166.7915
 20
153.5581
  0
VERTEX
  8
LAYER_1
 10
166.7915
 20
152.8081
  0
SEQEND
  0
ENDBLK
  0
BLOCK
  8
LAYER_1
  2
AIGNBL010100D7
 70
64
 10
0
 20
0
 30
0
  3
AIGNBL010100D7
  0
POLYLINE
  8
LAYER_1
  6
AIGENLINE003
 40
0.2469
 41
0.2469
 66
1
 10
0
 20
0
 30
0
 70
128
  0
VERTEX
  8
LAYER_1
 10
165.2915
 20
153.5581
  0
VERTEX
  8
LAYER_1
 10
165.2915
 20
152.8081
  0
SEQEND
  0
ENDBLK
  0
BLOCK
  8
LAYER_1
  2
AIGNBL010100D8
 70
64
 10
0
 20
0
 30
0
  3
AIGNBL010100D8
  0
POLYLINE
  8
LAYER_1
  6
AIGENLINE003
 40
0.2469
 41
0.2469
 66
1
 10
0
 20
0
 30
0
 70
128
  0
VERTEX
  8
LAYER_1
 10
194.2915
 20
153.5581
  0
VERTEX
  8
LAYER_1
 10
194.2915
 20
152.8081
  0
SEQEND
  0
ENDBLK
  0
BLOCK
  8
LAYER_1
  2
AIGNBL010100D9
 70
64
 10
0
 20
0
 30
0
  3
AIGNBL010100D9
  0
POLYLINE
  8
LAYER_1
  6
AIGENLINE003
 40
0.2469
 41
0.2469
 66
1
 10
0
 20
0
 30
0
 70
128
  0
VERTEX
  8
LAYER_1
 10
195.7915
 20
153.5581
  0
VERTEX
  8
LAYER_1
 10
195.7915
 20
152.8081
  0
SEQEND
  0
ENDBLK
  0
BLOCK
  8
LAYER_1
  2
AIGNBL010100DA
 70
64
 10
0
 20
0
 30
0
  3
AIGNBL010100DA
  0
POLYLINE
  8
LAYER_1
 40
0.2469
 41
0.2469
 62
4
 66
1
 10
0
 20
0
 30
0
  0
VERTEX
  8
LAYER_1
 10
55.7302
 20
352.0251
  0
VERTEX
  8
LAYER_1
 10
86.2302
 20
352.0251
  0
SEQEND
  0
ENDBLK
  0
BLOCK
  8
LAYER_1
  2
AIGNBL010100DB
 70
64
 10
0
 20
0
 30
0
  3
AIGNBL010100DB
  0
POLYLINE
  8
LAYER_1
 40
0.2469
 41
0.2469
 66
1
 10
0
 20
0
 30
0
  0
VERTEX
  8
LAYER_1
 10
60.6052
 20
321.0337
  0
VERTEX
  8
LAYER_1
 10
81.3552
 20
321.7295
  0
SEQEND
  0
ENDBLK
  0
BLOCK
  8
LAYER_1
  2
AIGNBL010100DC
 70
64
 10
0
 20
0
 30
0
  3
AIGNBL010100DC
  0
POLYLINE
  8
LAYER_1
 40
0.2469
 41
0.2469
 62
4
 66
1
 10
0
 20
0
 30
0
  0
VERTEX
  8
LAYER_1
 10
67.2302
 20
358.5251
  0
VERTEX
  8
LAYER_1
 10
67.2302
 20
354.0251
  0
SEQEND
  0
ENDBLK
  0
BLOCK
  8
LAYER_1
  2
AIGNBL010100DD
 70
64
 10
0
 20
0
 30
0
  3
AIGNBL010100DD
  0
POLYLINE
  8
LAYER_1
 40
0.2469
 41
0.2469
 62
4
 66
1
 10
0
 20
0
 30
0
  0
VERTEX
  8
LAYER_1
 10
74.7302
 20
358.5251
  0
VERTEX
  8
LAYER_1
 10
74.7302
 20
354.0251
  0
SEQEND
  0
ENDBLK
  0
BLOCK
  8
LAYER_1
  2
AIGNBL010100DE
 70
64
 10
0
 20
0
 30
0
  3
AIGNBL010100DE
  0
POLYLINE
  8
LAYER_1
 40
0.2469
 41
0.2469
 62
4
 66
1
 10
0
 20
0
 30
0
  0
VERTEX
  8
LAYER_1
 10
55.7302
 20
349.0251
  0
VERTEX
  8
LAYER_1
 10
86.2302
 20
349.0251
  0
SEQEND
  0
ENDBLK
  0
BLOCK
  8
LAYER_1
  2
AIGNBL010100DF
 70
64
 10
0
 20
0
 30
0
  3
AIGNBL010100DF
  0
POLYLINE
  8
LAYER_1
 40
0.2469
 41
0.2469
 62
4
 66
1
 10
0
 20
0
 30
0
  0
VERTEX
  8
LAYER_1
 10
86.2302
 20
352.0251
  0
VERTEX
  8
LAYER_1
 10
86.2302
 20
349.0251
  0
SEQEND
  0
ENDBLK
  0
BLOCK
  8
LAYER_1
  2
AIGNBL010100E0
 70
64
 10
0
 20
0
 30
0
  3
AIGNBL010100E0
  0
POLYLINE
  8
LAYER_1
 40
0.2469
 41
0.2469
 62
4
 66
1
 10
0
 20
0
 30
0
  0
VERTEX
  8
LAYER_1
 10
55.7302
 20
352.0251
  0
VERTEX
  8
LAYER_1
 10
55.7302
 20
349.0251
  0
SEQEND
  0
ENDBLK
  0
BLOCK
  8
LAYER_1
  2
AIGNBL010100E1
 70
64
 10
0
 20
0
 30
0
  3
AIGNBL010100E1
  0
POLYLINE
  8
LAYER_1
 40
0.2469
 41
0.2469
 62
4
 66
1
 10
0
 20
0
 30
0
  0
VERTEX
  8
LAYER_1
 10
60.6052
 20
344.0251
  0
VERTEX
  8
LAYER_1
 10
81.3552
 20
344.0251
  0
SEQEND
  0
ENDBLK
  0
BLOCK
  8
LAYER_1
  2
AIGNBL010100E2
 70
64
 10
0
 20
0
 30
0
  3
AIGNBL010100E2
  0
POLYLINE
  8
LAYER_1
 40
0.2469
 41
0.2469
 62
4
 66
1
 10
0
 20
0
 30
0
  0
VERTEX
  8
LAYER_1
 10
61.3552
 20
339.1976
  0
VERTEX
  8
LAYER_1
 10
60.6052
 20
338.5451
  0
SEQEND
  0
ENDBLK
  0
BLOCK
  8
LAYER_1
  2
AIGNBL010100E3
 70
64
 10
0
 20
0
 30
0
  3
AIGNBL010100E3
  0
POLYLINE
  8
LAYER_1
 40
0.2469
 41
0.2469
 62
4
 66
1
 10
0
 20
0
 30
0
  0
VERTEX
  8
LAYER_1
 10
60.6052
 20
338.5451
  0
VERTEX
  8
LAYER_1
 10
61.3552
 20
337.9468
  0
SEQEND
  0
ENDBLK
  0
BLOCK
  8
LAYER_1
  2
AIGNBL010100E4
 70
64
 10
0
 20
0
 30
0
  3
AIGNBL010100E4
  0
POLYLINE
  8
LAYER_1
 40
0.2469
 41
0.2469
 62
4
 66
1
 10
0
 20
0
 30
0
  0
VERTEX
  8
LAYER_1
 10
61.3552
 20
337.9468
  0
VERTEX
  8
LAYER_1
 10
60.6052
 20
337.2943
  0
SEQEND
  0
ENDBLK
  0
BLOCK
  8
LAYER_1
  2
AIGNBL010100E5
 70
64
 10
0
 20
0
 30
0
  3
AIGNBL010100E5
  0
POLYLINE
  8
LAYER_1
 40
0.2469
 41
0.2469
 62
4
 66
1
 10
0
 20
0
 30
0
  0
VERTEX
  8
LAYER_1
 10
60.6052
 20
337.2943
  0
VERTEX
  8
LAYER_1
 10
61.3552
 20
336.696
  0
SEQEND
  0
ENDBLK
  0
BLOCK
  8
LAYER_1
  2
AIGNBL010100E6
 70
64
 10
0
 20
0
 30
0
  3
AIGNBL010100E6
  0
POLYLINE
  8
LAYER_1
 40
0.2469
 41
0.2469
 62
4
 66
1
 10
0
 20
0
 30
0
  0
VERTEX
  8
LAYER_1
 10
61.3552
 20
336.696
  0
VERTEX
  8
LAYER_1
 10
60.6052
 20
336.0435
  0
SEQEND
  0
ENDBLK
  0
BLOCK
  8
LAYER_1
  2
AIGNBL010100E7
 70
64
 10
0
 20
0
 30
0
  3
AIGNBL010100E7
  0
POLYLINE
  8
LAYER_1
 40
0.2469
 41
0.2469
 62
4
 66
1
 10
0
 20
0
 30
0
  0
VERTEX
  8
LAYER_1
 10
60.6052
 20
336.0435
  0
VERTEX
  8
LAYER_1
 10
61.3552
 20
335.4452
  0
SEQEND
  0
ENDBLK
  0
BLOCK
  8
LAYER_1
  2
AIGNBL010100E8
 70
64
 10
0
 20
0
 30
0
  3
AIGNBL010100E8
  0
POLYLINE
  8
LAYER_1
 40
0.2469
 41
0.2469
 62
4
 66
1
 10
0
 20
0
 30
0
  0
VERTEX
  8
LAYER_1
 10
61.3552
 20
335.4452
  0
VERTEX
  8
LAYER_1
 10
60.6052
 20
334.7927
  0
SEQEND
  0
ENDBLK
  0
BLOCK
  8
LAYER_1
  2
AIGNBL010100E9
 70
64
 10
0
 20
0
 30
0
  3
AIGNBL010100E9
  0
POLYLINE
  8
LAYER_1
 40
0.2469
 41
0.2469
 62
4
 66
1
 10
0
 20
0
 30
0
  0
VERTEX
  8
LAYER_1
 10
60.6052
 20
334.7927
  0
VERTEX
  8
LAYER_1
 10
61.3552
 20
334.1944
  0
SEQEND
  0
ENDBLK
  0
BLOCK
  8
LAYER_1
  2
AIGNBL010100EA
 70
64
 10
0
 20
0
 30
0
  3
AIGNBL010100EA
  0
POLYLINE
  8
LAYER_1
 40
0.2469
 41
0.2469
 62
4
 66
1
 10
0
 20
0
 30
0
  0
VERTEX
  8
LAYER_1
 10
61.3552
 20
334.1944
  0
VERTEX
  8
LAYER_1
 10
60.6052
 20
333.5419
  0
SEQEND
  0
ENDBLK
  0
BLOCK
  8
LAYER_1
  2
AIGNBL010100EB
 70
64
 10
0
 20
0
 30
0
  3
AIGNBL010100EB
  0
POLYLINE
  8
LAYER_1
 40
0.2469
 41
0.2469
 62
4
 66
1
 10
0
 20
0
 30
0
  0
VERTEX
  8
LAYER_1
 10
60.6052
 20
333.5419
  0
VERTEX
  8
LAYER_1
 10
61.3552
 20
332.9436
  0
SEQEND
  0
ENDBLK
  0
BLOCK
  8
LAYER_1
  2
AIGNBL010100EC
 70
64
 10
0
 20
0
 30
0
  3
AIGNBL010100EC
  0
POLYLINE
  8
LAYER_1
 40
0.2469
 41
0.2469
 62
4
 66
1
 10
0
 20
0
 30
0
  0
VERTEX
  8
LAYER_1
 10
61.3552
 20
332.9436
  0
VERTEX
  8
LAYER_1
 10
60.6052
 20
332.291
  0
SEQEND
  0
ENDBLK
  0
BLOCK
  8
LAYER_1
  2
AIGNBL010100ED
 70
64
 10
0
 20
0
 30
0
  3
AIGNBL010100ED
  0
POLYLINE
  8
LAYER_1
 40
0.2469
 41
0.2469
 62
4
 66
1
 10
0
 20
0
 30
0
  0
VERTEX
  8
LAYER_1
 10
60.6052
 20
332.291
  0
VERTEX
  8
LAYER_1
 10
61.3552
 20
331.6927
  0
SEQEND
  0
ENDBLK
  0
BLOCK
  8
LAYER_1
  2
AIGNBL010100EE
 70
64
 10
0
 20
0
 30
0
  3
AIGNBL010100EE
  0
POLYLINE
  8
LAYER_1
 40
0.2469
 41
0.2469
 62
4
 66
1
 10
0
 20
0
 30
0
  0
VERTEX
  8
LAYER_1
 10
61.3552
 20
331.6927
  0
VERTEX
  8
LAYER_1
 10
60.6052
 20
331.0402
  0
SEQEND
  0
ENDBLK
  0
BLOCK
  8
LAYER_1
  2
AIGNBL010100EF
 70
64
 10
0
 20
0
 30
0
  3
AIGNBL010100EF
  0
POLYLINE
  8
LAYER_1
 40
0.2469
 41
0.2469
 62
4
 66
1
 10
0
 20
0
 30
0
  0
VERTEX
  8
LAYER_1
 10
60.6052
 20
331.0402
  0
VERTEX
  8
LAYER_1
 10
61.3552
 20
330.4419
  0
SEQEND
  0
ENDBLK
  0
BLOCK
  8
LAYER_1
  2
AIGNBL010100F0
 70
64
 10
0
 20
0
 30
0
  3
AIGNBL010100F0
  0
POLYLINE
  8
LAYER_1
 40
0.2469
 41
0.2469
 62
4
 66
1
 10
0
 20
0
 30
0
  0
VERTEX
  8
LAYER_1
 10
61.3552
 20
330.4419
  0
VERTEX
  8
LAYER_1
 10
60.6052
 20
329.7894
  0
SEQEND
  0
ENDBLK
  0
BLOCK
  8
LAYER_1
  2
AIGNBL010100F1
 70
64
 10
0
 20
0
 30
0
  3
AIGNBL010100F1
  0
POLYLINE
  8
LAYER_1
 40
0.2469
 41
0.2469
 62
4
 66
1
 10
0
 20
0
 30
0
  0
VERTEX
  8
LAYER_1
 10
60.6052
 20
329.7894
  0
VERTEX
  8
LAYER_1
 10
61.3552
 20
329.1911
  0
SEQEND
  0
ENDBLK
  0
BLOCK
  8
LAYER_1
  2
AIGNBL010100F2
 70
64
 10
0
 20
0
 30
0
  3
AIGNBL010100F2
  0
POLYLINE
  8
LAYER_1
 40
0.2469
 41
0.2469
 62
4
 66
1
 10
0
 20
0
 30
0
  0
VERTEX
  8
LAYER_1
 10
61.3552
 20
329.1911
  0
VERTEX
  8
LAYER_1
 10
60.6052
 20
328.5386
  0
SEQEND
  0
ENDBLK
  0
BLOCK
  8
LAYER_1
  2
AIGNBL010100F3
 70
64
 10
0
 20
0
 30
0
  3
AIGNBL010100F3
  0
POLYLINE
  8
LAYER_1
 40
0.2469
 41
0.2469
 62
4
 66
1
 10
0
 20
0
 30
0
  0
VERTEX
  8
LAYER_1
 10
60.6052
 20
328.5386
  0
VERTEX
  8
LAYER_1
 10
61.3552
 20
327.9403
  0
SEQEND
  0
ENDBLK
  0
BLOCK
  8
LAYER_1
  2
AIGNBL010100F4
 70
64
 10
0
 20
0
 30
0
  3
AIGNBL010100F4
  0
POLYLINE
  8
LAYER_1
 40
0.2469
 41
0.2469
 62
4
 66
1
 10
0
 20
0
 30
0
  0
VERTEX
  8
LAYER_1
 10
61.3552
 20
327.9403
  0
VERTEX
  8
LAYER_1
 10
60.6052
 20
327.2878
  0
SEQEND
  0
ENDBLK
  0
BLOCK
  8
LAYER_1
  2
AIGNBL010100F5
 70
64
 10
0
 20
0
 30
0
  3
AIGNBL010100F5
  0
POLYLINE
  8
LAYER_1
 40
0.2469
 41
0.2469
 62
4
 66
1
 10
0
 20
0
 30
0
  0
VERTEX
  8
LAYER_1
 10
60.6052
 20
327.2878
  0
VERTEX
  8
LAYER_1
 10
61.3552
 20
326.6895
  0
SEQEND
  0
ENDBLK
  0
BLOCK
  8
LAYER_1
  2
AIGNBL010100F6
 70
64
 10
0
 20
0
 30
0
  3
AIGNBL010100F6
  0
POLYLINE
  8
LAYER_1
 40
0.2469
 41
0.2469
 62
4
 66
1
 10
0
 20
0
 30
0
  0
VERTEX
  8
LAYER_1
 10
61.3552
 20
326.6895
  0
VERTEX
  8
LAYER_1
 10
60.6052
 20
326.037
  0
SEQEND
  0
ENDBLK
  0
BLOCK
  8
LAYER_1
  2
AIGNBL010100F7
 70
64
 10
0
 20
0
 30
0
  3
AIGNBL010100F7
  0
POLYLINE
  8
LAYER_1
 40
0.2469
 41
0.2469
 62
4
 66
1
 10
0
 20
0
 30
0
  0
VERTEX
  8
LAYER_1
 10
60.6052
 20
326.037
  0
VERTEX
  8
LAYER_1
 10
61.3552
 20
325.4387
  0
SEQEND
  0
ENDBLK
  0
BLOCK
  8
LAYER_1
  2
AIGNBL010100F8
 70
64
 10
0
 20
0
 30
0
  3
AIGNBL010100F8
  0
POLYLINE
  8
LAYER_1
 40
0.2469
 41
0.2469
 62
4
 66
1
 10
0
 20
0
 30
0
  0
VERTEX
  8
LAYER_1
 10
61.3552
 20
325.4387
  0
VERTEX
  8
LAYER_1
 10
60.6052
 20
324.7861
  0
SEQEND
  0
ENDBLK
  0
BLOCK
  8
LAYER_1
  2
AIGNBL010100F9
 70
64
 10
0
 20
0
 30
0
  3
AIGNBL010100F9
  0
POLYLINE
  8
LAYER_1
 40
0.2469
 41
0.2469
 62
4
 66
1
 10
0
 20
0
 30
0
  0
VERTEX
  8
LAYER_1
 10
60.6052
 20
324.7861
  0
VERTEX
  8
LAYER_1
 10
61.3552
 20
324.1878
  0
SEQEND
  0
ENDBLK
  0
BLOCK
  8
LAYER_1
  2
AIGNBL010100FA
 70
64
 10
0
 20
0
 30
0
  3
AIGNBL010100FA
  0
POLYLINE
  8
LAYER_1
 40
0.2469
 41
0.2469
 62
4
 66
1
 10
0
 20
0
 30
0
  0
VERTEX
  8
LAYER_1
 10
61.3552
 20
324.1878
  0
VERTEX
  8
LAYER_1
 10
60.6052
 20
323.5353
  0
SEQEND
  0
ENDBLK
  0
BLOCK
  8
LAYER_1
  2
AIGNBL010100FB
 70
64
 10
0
 20
0
 30
0
  3
AIGNBL010100FB
  0
POLYLINE
  8
LAYER_1
 40
0.2469
 41
0.2469
 62
4
 66
1
 10
0
 20
0
 30
0
  0
VERTEX
  8
LAYER_1
 10
60.6052
 20
323.5353
  0
VERTEX
  8
LAYER_1
 10
61.3552
 20
322.937
  0
SEQEND
  0
ENDBLK
  0
BLOCK
  8
LAYER_1
  2
AIGNBL010100FC
 70
64
 10
0
 20
0
 30
0
  3
AIGNBL010100FC
  0
POLYLINE
  8
LAYER_1
 40
0.2469
 41
0.2469
 62
4
 66
1
 10
0
 20
0
 30
0
  0
VERTEX
  8
LAYER_1
 10
61.3552
 20
322.937
  0
VERTEX
  8
LAYER_1
 10
60.6052
 20
322.2845
  0
SEQEND
  0
ENDBLK
  0
BLOCK
  8
LAYER_1
  2
AIGNBL010100FD
 70
64
 10
0
 20
0
 30
0
  3
AIGNBL010100FD
  0
POLYLINE
  8
LAYER_1
 40
0.2469
 41
0.2469
 62
4
 66
1
 10
0
 20
0
 30
0
  0
VERTEX
  8
LAYER_1
 10
60.6052
 20
322.2845
  0
VERTEX
  8
LAYER_1
 10
61.3552
 20
321.6862
  0
SEQEND
  0
ENDBLK
  0
BLOCK
  8
LAYER_1
  2
AIGNBL010100FE
 70
64
 10
0
 20
0
 30
0
  3
AIGNBL010100FE
  0
POLYLINE
  8
LAYER_1
 40
0.2469
 41
0.2469
 62
4
 66
1
 10
0
 20
0
 30
0
  0
VERTEX
  8
LAYER_1
 10
61.3552
 20
321.6862
  0
VERTEX
  8
LAYER_1
 10
60.6052
 20
321.0337
  0
SEQEND
  0
ENDBLK
  0
BLOCK
  8
LAYER_1
  2
AIGNBL010100FF
 70
64
 10
0
 20
0
 30
0
  3
AIGNBL010100FF
  0
POLYLINE
  8
LAYER_1
 40
0.2469
 41
0.2469
 62
4
 66
1
 10
0
 20
0
 30
0
  0
VERTEX
  8
LAYER_1
 10
60.6052
 20
313.5288
  0
VERTEX
  8
LAYER_1
 10
61.3552
 20
312.9305
  0
SEQEND
  0
ENDBLK
  0
BLOCK
  8
LAYER_1
  2
AIGNBL01010100
 70
64
 10
0
 20
0
 30
0
  3
AIGNBL01010100
  0
POLYLINE
  8
LAYER_1
 40
0.2469
 41
0.2469
 62
4
 66
1
 10
0
 20
0
 30
0
  0
VERTEX
  8
LAYER_1
 10
61.3552
 20
312.9305
  0
VERTEX
  8
LAYER_1
 10
60.6052
 20
312.278
  0
SEQEND
  0
ENDBLK
  0
BLOCK
  8
LAYER_1
  2
AIGNBL01010101
 70
64
 10
0
 20
0
 30
0
  3
AIGNBL01010101
  0
POLYLINE
  8
LAYER_1
 40
0.2469
 41
0.2469
 62
4
 66
1
 10
0
 20
0
 30
0
  0
VERTEX
  8
LAYER_1
 10
60.6052
 20
312.278
  0
VERTEX
  8
LAYER_1
 10
61.3552
 20
311.6797
  0
SEQEND
  0
ENDBLK
  0
BLOCK
  8
LAYER_1
  2
AIGNBL01010102
 70
64
 10
0
 20
0
 30
0
  3
AIGNBL01010102
  0
POLYLINE
  8
LAYER_1
 40
0.2469
 41
0.2469
 62
4
 66
1
 10
0
 20
0
 30
0
  0
VERTEX
  8
LAYER_1
 10
61.3552
 20
311.6797
  0
VERTEX
  8
LAYER_1
 10
60.6052
 20
311.0272
  0
SEQEND
  0
ENDBLK
  0
BLOCK
  8
LAYER_1
  2
AIGNBL01010103
 70
64
 10
0
 20
0
 30
0
  3
AIGNBL01010103
  0
POLYLINE
  8
LAYER_1
 40
0.2469
 41
0.2469
 62
4
 66
1
 10
0
 20
0
 30
0
  0
VERTEX
  8
LAYER_1
 10
60.6052
 20
311.0272
  0
VERTEX
  8
LAYER_1
 10
61.3552
 20
310.4289
  0
SEQEND
  0
ENDBLK
  0
BLOCK
  8
LAYER_1
  2
AIGNBL01010104
 70
64
 10
0
 20
0
 30
0
  3
AIGNBL01010104
  0
POLYLINE
  8
LAYER_1
 40
0.2469
 41
0.2469
 62
4
 66
1
 10
0
 20
0
 30
0
  0
VERTEX
  8
LAYER_1
 10
61.3552
 20
310.4289
  0
VERTEX
  8
LAYER_1
 10
60.6052
 20
309.7763
  0
SEQEND
  0
ENDBLK
  0
BLOCK
  8
LAYER_1
  2
AIGNBL01010105
 70
64
 10
0
 20
0
 30
0
  3
AIGNBL01010105
  0
POLYLINE
  8
LAYER_1
 40
0.2469
 41
0.2469
 62
4
 66
1
 10
0
 20
0
 30
0
  0
VERTEX
  8
LAYER_1
 10
60.6052
 20
309.7763
  0
VERTEX
  8
LAYER_1
 10
61.3552
 20
309.178
  0
SEQEND
  0
ENDBLK
  0
BLOCK
  8
LAYER_1
  2
AIGNBL01010106
 70
64
 10
0
 20
0
 30
0
  3
AIGNBL01010106
  0
POLYLINE
  8
LAYER_1
 40
0.2469
 41
0.2469
 62
4
 66
1
 10
0
 20
0
 30
0
  0
VERTEX
  8
LAYER_1
 10
61.3552
 20
309.178
  0
VERTEX
  8
LAYER_1
 10
60.6052
 20
308.5255
  0
SEQEND
  0
ENDBLK
  0
BLOCK
  8
LAYER_1
  2
AIGNBL01010107
 70
64
 10
0
 20
0
 30
0
  3
AIGNBL01010107
  0
POLYLINE
  8
LAYER_1
 40
0.2469
 41
0.2469
 62
4
 66
1
 10
0
 20
0
 30
0
  0
VERTEX
  8
LAYER_1
 10
60.6052
 20
308.5255
  0
VERTEX
  8
LAYER_1
 10
61.3552
 20
307.9272
  0
SEQEND
  0
ENDBLK
  0
BLOCK
  8
LAYER_1
  2
AIGNBL01010108
 70
64
 10
0
 20
0
 30
0
  3
AIGNBL01010108
  0
POLYLINE
  8
LAYER_1
 40
0.2469
 41
0.2469
 62
4
 66
1
 10
0
 20
0
 30
0
  0
VERTEX
  8
LAYER_1
 10
61.3552
 20
307.9272
  0
VERTEX
  8
LAYER_1
 10
60.6052
 20
307.2747
  0
SEQEND
  0
ENDBLK
  0
BLOCK
  8
LAYER_1
  2
AIGNBL01010109
 70
64
 10
0
 20
0
 30
0
  3
AIGNBL01010109
  0
POLYLINE
  8
LAYER_1
 40
0.2469
 41
0.2469
 62
4
 66
1
 10
0
 20
0
 30
0
  0
VERTEX
  8
LAYER_1
 10
60.6052
 20
307.2747
  0
VERTEX
  8
LAYER_1
 10
61.3552
 20
306.6764
  0
SEQEND
  0
ENDBLK
  0
BLOCK
  8
LAYER_1
  2
AIGNBL0101010A
 70
64
 10
0
 20
0
 30
0
  3
AIGNBL0101010A
  0
POLYLINE
  8
LAYER_1
 40
0.2469
 41
0.2469
 62
4
 66
1
 10
0
 20
0
 30
0
  0
VERTEX
  8
LAYER_1
 10
61.3552
 20
306.6764
  0
VERTEX
  8
LAYER_1
 10
60.6052
 20
306.0239
  0
SEQEND
  0
ENDBLK
  0
BLOCK
  8
LAYER_1
  2
AIGNBL0101010B
 70
64
 10
0
 20
0
 30
0
  3
AIGNBL0101010B
  0
POLYLINE
  8
LAYER_1
 40
0.2469
 41
0.2469
 62
4
 66
1
 10
0
 20
0
 30
0
  0
VERTEX
  8
LAYER_1
 10
60.6052
 20
306.0239
  0
VERTEX
  8
LAYER_1
 10
61.3552
 20
305.4256
  0
SEQEND
  0
ENDBLK
  0
BLOCK
  8
LAYER_1
  2
AIGNBL0101010C
 70
64
 10
0
 20
0
 30
0
  3
AIGNBL0101010C
  0
POLYLINE
  8
LAYER_1
 40
0.2469
 41
0.2469
 62
4
 66
1
 10
0
 20
0
 30
0
  0
VERTEX
  8
LAYER_1
 10
61.3552
 20
305.4256
  0
VERTEX
  8
LAYER_1
 10
60.6052
 20
304.7731
  0
SEQEND
  0
ENDBLK
  0
BLOCK
  8
LAYER_1
  2
AIGNBL0101010D
 70
64
 10
0
 20
0
 30
0
  3
AIGNBL0101010D
  0
POLYLINE
  8
LAYER_1
 40
0.2469
 41
0.2469
 62
4
 66
1
 10
0
 20
0
 30
0
  0
VERTEX
  8
LAYER_1
 10
60.6052
 20
304.7731
  0
VERTEX
  8
LAYER_1
 10
61.3552
 20
304.1748
  0
SEQEND
  0
ENDBLK
  0
BLOCK
  8
LAYER_1
  2
AIGNBL0101010E
 70
64
 10
0
 20
0
 30
0
  3
AIGNBL0101010E
  0
POLYLINE
  8
LAYER_1
 40
0.2469
 41
0.2469
 62
4
 66
1
 10
0
 20
0
 30
0
  0
VERTEX
  8
LAYER_1
 10
60.6052
 20
339.7959
  0
VERTEX
  8
LAYER_1
 10
61.3552
 20
339.1976
  0
SEQEND
  0
ENDBLK
  0
BLOCK
  8
LAYER_1
  2
AIGNBL0101010F
 70
64
 10
0
 20
0
 30
0
  3
AIGNBL0101010F
  0
POLYLINE
  8
LAYER_1
 40
0.2469
 41
0.2469
 62
4
 66
1
 10
0
 20
0
 30
0
  0
VERTEX
  8
LAYER_1
 10
80.6052
 20
339.8934
  0
VERTEX
  8
LAYER_1
 10
81.3552
 20
339.2409
  0
SEQEND
  0
ENDBLK
  0
BLOCK
  8
LAYER_1
  2
AIGNBL01010110
 70
64
 10
0
 20
0
 30
0
  3
AIGNBL01010110
  0
POLYLINE
  8
LAYER_1
 40
0.2469
 41
0.2469
 62
4
 66
1
 10
0
 20
0
 30
0
  0
VERTEX
  8
LAYER_1
 10
81.3552
 20
339.2409
  0
VERTEX
  8
LAYER_1
 10
80.6052
 20
338.6426
  0
SEQEND
  0
ENDBLK
  0
BLOCK
  8
LAYER_1
  2
AIGNBL01010111
 70
64
 10
0
 20
0
 30
0
  3
AIGNBL01010111
  0
POLYLINE
  8
LAYER_1
 40
0.2469
 41
0.2469
 62
4
 66
1
 10
0
 20
0
 30
0
  0
VERTEX
  8
LAYER_1
 10
80.6052
 20
338.6426
  0
VERTEX
  8
LAYER_1
 10
81.3552
 20
337.9901
  0
SEQEND
  0
ENDBLK
  0
BLOCK
  8
LAYER_1
  2
AIGNBL01010112
 70
64
 10
0
 20
0
 30
0
  3
AIGNBL01010112
  0
POLYLINE
  8
LAYER_1
 40
0.2469
 41
0.2469
 62
4
 66
1
 10
0
 20
0
 30
0
  0
VERTEX
  8
LAYER_1
 10
81.3552
 20
337.9901
  0
VERTEX
  8
LAYER_1
 10
80.6052
 20
337.3918
  0
SEQEND
  0
ENDBLK
  0
BLOCK
  8
LAYER_1
  2
AIGNBL01010113
 70
64
 10
0
 20
0
 30
0
  3
AIGNBL01010113
  0
POLYLINE
  8
LAYER_1
 40
0.2469
 41
0.2469
 62
4
 66
1
 10
0
 20
0
 30
0
  0
VERTEX
  8
LAYER_1
 10
80.6052
 20
337.3918
  0
VERTEX
  8
LAYER_1
 10
81.3552
 20
336.7393
  0
SEQEND
  0
ENDBLK
  0
BLOCK
  8
LAYER_1
  2
AIGNBL01010114
 70
64
 10
0
 20
0
 30
0
  3
AIGNBL01010114
  0
POLYLINE
  8
LAYER_1
 40
0.2469
 41
0.2469
 62
4
 66
1
 10
0
 20
0
 30
0
  0
VERTEX
  8
LAYER_1
 10
81.3552
 20
336.7393
  0
VERTEX
  8
LAYER_1
 10
80.6052
 20
336.141
  0
SEQEND
  0
ENDBLK
  0
BLOCK
  8
LAYER_1
  2
AIGNBL01010115
 70
64
 10
0
 20
0
 30
0
  3
AIGNBL01010115
  0
POLYLINE
  8
LAYER_1
 40
0.2469
 41
0.2469
 62
4
 66
1
 10
0
 20
0
 30
0
  0
VERTEX
  8
LAYER_1
 10
80.6052
 20
336.141
  0
VERTEX
  8
LAYER_1
 10
81.3552
 20
335.4885
  0
SEQEND
  0
ENDBLK
  0
BLOCK
  8
LAYER_1
  2
AIGNBL01010116
 70
64
 10
0
 20
0
 30
0
  3
AIGNBL01010116
  0
POLYLINE
  8
LAYER_1
 40
0.2469
 41
0.2469
 62
4
 66
1
 10
0
 20
0
 30
0
  0
VERTEX
  8
LAYER_1
 10
81.3552
 20
335.4885
  0
VERTEX
  8
LAYER_1
 10
80.6052
 20
334.8902
  0
SEQEND
  0
ENDBLK
  0
BLOCK
  8
LAYER_1
  2
AIGNBL01010117
 70
64
 10
0
 20
0
 30
0
  3
AIGNBL01010117
  0
POLYLINE
  8
LAYER_1
 40
0.2469
 41
0.2469
 62
4
 66
1
 10
0
 20
0
 30
0
  0
VERTEX
  8
LAYER_1
 10
80.6052
 20
334.8902
  0
VERTEX
  8
LAYER_1
 10
81.3552
 20
334.2376
  0
SEQEND
  0
ENDBLK
  0
BLOCK
  8
LAYER_1
  2
AIGNBL01010118
 70
64
 10
0
 20
0
 30
0
  3
AIGNBL01010118
  0
POLYLINE
  8
LAYER_1
 40
0.2469
 41
0.2469
 62
4
 66
1
 10
0
 20
0
 30
0
  0
VERTEX
  8
LAYER_1
 10
81.3552
 20
334.2376
  0
VERTEX
  8
LAYER_1
 10
80.6052
 20
333.6393
  0
SEQEND
  0
ENDBLK
  0
BLOCK
  8
LAYER_1
  2
AIGNBL01010119
 70
64
 10
0
 20
0
 30
0
  3
AIGNBL01010119
  0
POLYLINE
  8
LAYER_1
 40
0.2469
 41
0.2469
 62
4
 66
1
 10
0
 20
0
 30
0
  0
VERTEX
  8
LAYER_1
 10
80.6052
 20
333.6393
  0
VERTEX
  8
LAYER_1
 10
81.3552
 20
332.9868
  0
SEQEND
  0
ENDBLK
  0
BLOCK
  8
LAYER_1
  2
AIGNBL0101011A
 70
64
 10
0
 20
0
 30
0
  3
AIGNBL0101011A
  0
POLYLINE
  8
LAYER_1
 40
0.2469
 41
0.2469
 62
4
 66
1
 10
0
 20
0
 30
0
  0
VERTEX
  8
LAYER_1
 10
81.3552
 20
332.9868
  0
VERTEX
  8
LAYER_1
 10
80.6052
 20
332.3885
  0
SEQEND
  0
ENDBLK
  0
BLOCK
  8
LAYER_1
  2
AIGNBL0101011B
 70
64
 10
0
 20
0
 30
0
  3
AIGNBL0101011B
  0
POLYLINE
  8
LAYER_1
 40
0.2469
 41
0.2469
 62
4
 66
1
 10
0
 20
0
 30
0
  0
VERTEX
  8
LAYER_1
 10
80.6052
 20
332.3885
  0
VERTEX
  8
LAYER_1
 10
81.3552
 20
331.736
  0
SEQEND
  0
ENDBLK
  0
BLOCK
  8
LAYER_1
  2
AIGNBL0101011C
 70
64
 10
0
 20
0
 30
0
  3
AIGNBL0101011C
  0
POLYLINE
  8
LAYER_1
 40
0.2469
 41
0.2469
 62
4
 66
1
 10
0
 20
0
 30
0
  0
VERTEX
  8
LAYER_1
 10
81.3552
 20
331.736
  0
VERTEX
  8
LAYER_1
 10
80.6052
 20
331.1377
  0
SEQEND
  0
ENDBLK
  0
BLOCK
  8
LAYER_1
  2
AIGNBL0101011D
 70
64
 10
0
 20
0
 30
0
  3
AIGNBL0101011D
  0
POLYLINE
  8
LAYER_1
 40
0.2469
 41
0.2469
 62
4
 66
1
 10
0
 20
0
 30
0
  0
VERTEX
  8
LAYER_1
 10
80.6052
 20
331.1377
  0
VERTEX
  8
LAYER_1
 10
81.3552
 20
330.4852
  0
SEQEND
  0
ENDBLK
  0
BLOCK
  8
LAYER_1
  2
AIGNBL0101011E
 70
64
 10
0
 20
0
 30
0
  3
AIGNBL0101011E
  0
POLYLINE
  8
LAYER_1
 40
0.2469
 41
0.2469
 62
4
 66
1
 10
0
 20
0
 30
0
  0
VERTEX
  8
LAYER_1
 10
81.3552
 20
330.4852
  0
VERTEX
  8
LAYER_1
 10
80.6052
 20
329.8869
  0
SEQEND
  0
ENDBLK
  0
BLOCK
  8
LAYER_1
  2
AIGNBL0101011F
 70
64
 10
0
 20
0
 30
0
  3
AIGNBL0101011F
  0
POLYLINE
  8
LAYER_1
 40
0.2469
 41
0.2469
 62
4
 66
1
 10
0
 20
0
 30
0
  0
VERTEX
  8
LAYER_1
 10
80.6052
 20
329.8869
  0
VERTEX
  8
LAYER_1
 10
81.3552
 20
329.2344
  0
SEQEND
  0
ENDBLK
  0
BLOCK
  8
LAYER_1
  2
AIGNBL01010120
 70
64
 10
0
 20
0
 30
0
  3
AIGNBL01010120
  0
POLYLINE
  8
LAYER_1
 40
0.2469
 41
0.2469
 62
4
 66
1
 10
0
 20
0
 30
0
  0
VERTEX
  8
LAYER_1
 10
81.3552
 20
329.2344
  0
VERTEX
  8
LAYER_1
 10
80.6052
 20
328.6361
  0
SEQEND
  0
ENDBLK
  0
BLOCK
  8
LAYER_1
  2
AIGNBL01010121
 70
64
 10
0
 20
0
 30
0
  3
AIGNBL01010121
  0
POLYLINE
  8
LAYER_1
 40
0.2469
 41
0.2469
 62
4
 66
1
 10
0
 20
0
 30
0
  0
VERTEX
  8
LAYER_1
 10
80.6052
 20
328.6361
  0
VERTEX
  8
LAYER_1
 10
81.3552
 20
327.9836
  0
SEQEND
  0
ENDBLK
  0
BLOCK
  8
LAYER_1
  2
AIGNBL01010122
 70
64
 10
0
 20
0
 30
0
  3
AIGNBL01010122
  0
POLYLINE
  8
LAYER_1
 40
0.2469
 41
0.2469
 62
4
 66
1
 10
0
 20
0
 30
0
  0
VERTEX
  8
LAYER_1
 10
81.3552
 20
327.9836
  0
VERTEX
  8
LAYER_1
 10
80.6052
 20
327.3853
  0
SEQEND
  0
ENDBLK
  0
BLOCK
  8
LAYER_1
  2
AIGNBL01010123
 70
64
 10
0
 20
0
 30
0
  3
AIGNBL01010123
  0
POLYLINE
  8
LAYER_1
 40
0.2469
 41
0.2469
 62
4
 66
1
 10
0
 20
0
 30
0
  0
VERTEX
  8
LAYER_1
 10
80.6052
 20
327.3853
  0
VERTEX
  8
LAYER_1
 10
81.3552
 20
326.7327
  0
SEQEND
  0
ENDBLK
  0
BLOCK
  8
LAYER_1
  2
AIGNBL01010124
 70
64
 10
0
 20
0
 30
0
  3
AIGNBL01010124
  0
POLYLINE
  8
LAYER_1
 40
0.2469
 41
0.2469
 62
4
 66
1
 10
0
 20
0
 30
0
  0
VERTEX
  8
LAYER_1
 10
81.3552
 20
326.7327
  0
VERTEX
  8
LAYER_1
 10
80.6052
 20
326.1344
  0
SEQEND
  0
ENDBLK
  0
BLOCK
  8
LAYER_1
  2
AIGNBL01010125
 70
64
 10
0
 20
0
 30
0
  3
AIGNBL01010125
  0
POLYLINE
  8
LAYER_1
 40
0.2469
 41
0.2469
 62
4
 66
1
 10
0
 20
0
 30
0
  0
VERTEX
  8
LAYER_1
 10
80.6052
 20
326.1344
  0
VERTEX
  8
LAYER_1
 10
81.3552
 20
325.4819
  0
SEQEND
  0
ENDBLK
  0
BLOCK
  8
LAYER_1
  2
AIGNBL01010126
 70
64
 10
0
 20
0
 30
0
  3
AIGNBL01010126
  0
POLYLINE
  8
LAYER_1
 40
0.2469
 41
0.2469
 62
4
 66
1
 10
0
 20
0
 30
0
  0
VERTEX
  8
LAYER_1
 10
81.3552
 20
325.4819
  0
VERTEX
  8
LAYER_1
 10
80.6052
 20
324.8836
  0
SEQEND
  0
ENDBLK
  0
BLOCK
  8
LAYER_1
  2
AIGNBL01010127
 70
64
 10
0
 20
0
 30
0
  3
AIGNBL01010127
  0
POLYLINE
  8
LAYER_1
 40
0.2469
 41
0.2469
 62
4
 66
1
 10
0
 20
0
 30
0
  0
VERTEX
  8
LAYER_1
 10
80.6052
 20
324.8836
  0
VERTEX
  8
LAYER_1
 10
81.3552
 20
324.2311
  0
SEQEND
  0
ENDBLK
  0
BLOCK
  8
LAYER_1
  2
AIGNBL01010128
 70
64
 10
0
 20
0
 30
0
  3
AIGNBL01010128
  0
POLYLINE
  8
LAYER_1
 40
0.2469
 41
0.2469
 62
4
 66
1
 10
0
 20
0
 30
0
  0
VERTEX
  8
LAYER_1
 10
81.3552
 20
324.2311
  0
VERTEX
  8
LAYER_1
 10
80.6052
 20
323.6328
  0
SEQEND
  0
ENDBLK
  0
BLOCK
  8
LAYER_1
  2
AIGNBL01010129
 70
64
 10
0
 20
0
 30
0
  3
AIGNBL01010129
  0
POLYLINE
  8
LAYER_1
 40
0.2469
 41
0.2469
 62
4
 66
1
 10
0
 20
0
 30
0
  0
VERTEX
  8
LAYER_1
 10
80.6052
 20
323.6328
  0
VERTEX
  8
LAYER_1
 10
81.3552
 20
322.9803
  0
SEQEND
  0
ENDBLK
  0
BLOCK
  8
LAYER_1
  2
AIGNBL0101012A
 70
64
 10
0
 20
0
 30
0
  3
AIGNBL0101012A
  0
POLYLINE
  8
LAYER_1
 40
0.2469
 41
0.2469
 62
4
 66
1
 10
0
 20
0
 30
0
  0
VERTEX
  8
LAYER_1
 10
81.3552
 20
322.9803
  0
VERTEX
  8
LAYER_1
 10
80.6052
 20
322.382
  0
SEQEND
  0
ENDBLK
  0
BLOCK
  8
LAYER_1
  2
AIGNBL0101012B
 70
64
 10
0
 20
0
 30
0
  3
AIGNBL0101012B
  0
POLYLINE
  8
LAYER_1
 40
0.2469
 41
0.2469
 62
4
 66
1
 10
0
 20
0
 30
0
  0
VERTEX
  8
LAYER_1
 10
80.6052
 20
322.382
  0
VERTEX
  8
LAYER_1
 10
81.3552
 20
321.7295
  0
SEQEND
  0
ENDBLK
  0
BLOCK
  8
LAYER_1
  2
AIGNBL0101012C
 70
64
 10
0
 20
0
 30
0
  3
AIGNBL0101012C
  0
POLYLINE
  8
LAYER_1
 40
0.2469
 41
0.2469
 62
4
 66
1
 10
0
 20
0
 30
0
  0
VERTEX
  8
LAYER_1
 10
81.3552
 20
321.7295
  0
VERTEX
  8
LAYER_1
 10
80.6052
 20
321.1312
  0
SEQEND
  0
ENDBLK
  0
BLOCK
  8
LAYER_1
  2
AIGNBL0101012D
 70
64
 10
0
 20
0
 30
0
  3
AIGNBL0101012D
  0
POLYLINE
  8
LAYER_1
 40
0.2469
 41
0.2469
 62
4
 66
1
 10
0
 20
0
 30
0
  0
VERTEX
  8
LAYER_1
 10
80.6052
 20
313.6263
  0
VERTEX
  8
LAYER_1
 10
81.3552
 20
312.9738
  0
SEQEND
  0
ENDBLK
  0
BLOCK
  8
LAYER_1
  2
AIGNBL0101012E
 70
64
 10
0
 20
0
 30
0
  3
AIGNBL0101012E
  0
POLYLINE
  8
LAYER_1
 40
0.2469
 41
0.2469
 62
4
 66
1
 10
0
 20
0
 30
0
  0
VERTEX
  8
LAYER_1
 10
81.3552
 20
312.9738
  0
VERTEX
  8
LAYER_1
 10
80.6052
 20
312.3755
  0
SEQEND
  0
ENDBLK
  0
BLOCK
  8
LAYER_1
  2
AIGNBL0101012F
 70
64
 10
0
 20
0
 30
0
  3
AIGNBL0101012F
  0
POLYLINE
  8
LAYER_1
 40
0.2469
 41
0.2469
 62
4
 66
1
 10
0
 20
0
 30
0
  0
VERTEX
  8
LAYER_1
 10
80.6052
 20
312.3755
  0
VERTEX
  8
LAYER_1
 10
81.3552
 20
311.7229
  0
SEQEND
  0
ENDBLK
  0
BLOCK
  8
LAYER_1
  2
AIGNBL01010130
 70
64
 10
0
 20
0
 30
0
  3
AIGNBL01010130
  0
POLYLINE
  8
LAYER_1
 40
0.2469
 41
0.2469
 62
4
 66
1
 10
0
 20
0
 30
0
  0
VERTEX
  8
LAYER_1
 10
81.3552
 20
311.7229
  0
VERTEX
  8
LAYER_1
 10
80.6052
 20
311.1246
  0
SEQEND
  0
ENDBLK
  0
BLOCK
  8
LAYER_1
  2
AIGNBL01010131
 70
64
 10
0
 20
0
 30
0
  3
AIGNBL01010131
  0
POLYLINE
  8
LAYER_1
 40
0.2469
 41
0.2469
 62
4
 66
1
 10
0
 20
0
 30
0
  0
VERTEX
  8
LAYER_1
 10
80.6052
 20
311.1246
  0
VERTEX
  8
LAYER_1
 10
81.3552
 20
310.4721
  0
SEQEND
  0
ENDBLK
  0
BLOCK
  8
LAYER_1
  2
AIGNBL01010132
 70
64
 10
0
 20
0
 30
0
  3
AIGNBL01010132
  0
POLYLINE
  8
LAYER_1
 40
0.2469
 41
0.2469
 62
4
 66
1
 10
0
 20
0
 30
0
  0
VERTEX
  8
LAYER_1
 10
81.3552
 20
310.4721
  0
VERTEX
  8
LAYER_1
 10
80.6052
 20
309.8738
  0
SEQEND
  0
ENDBLK
  0
BLOCK
  8
LAYER_1
  2
AIGNBL01010133
 70
64
 10
0
 20
0
 30
0
  3
AIGNBL01010133
  0
POLYLINE
  8
LAYER_1
 40
0.2469
 41
0.2469
 62
4
 66
1
 10
0
 20
0
 30
0
  0
VERTEX
  8
LAYER_1
 10
80.6052
 20
309.8738
  0
VERTEX
  8
LAYER_1
 10
81.3552
 20
309.2213
  0
SEQEND
  0
ENDBLK
  0
BLOCK
  8
LAYER_1
  2
AIGNBL01010134
 70
64
 10
0
 20
0
 30
0
  3
AIGNBL01010134
  0
POLYLINE
  8
LAYER_1
 40
0.2469
 41
0.2469
 62
4
 66
1
 10
0
 20
0
 30
0
  0
VERTEX
  8
LAYER_1
 10
81.3552
 20
309.2213
  0
VERTEX
  8
LAYER_1
 10
80.6052
 20
308.623
  0
SEQEND
  0
ENDBLK
  0
BLOCK
  8
LAYER_1
  2
AIGNBL01010135
 70
64
 10
0
 20
0
 30
0
  3
AIGNBL01010135
  0
POLYLINE
  8
LAYER_1
 40
0.2469
 41
0.2469
 62
4
 66
1
 10
0
 20
0
 30
0
  0
VERTEX
  8
LAYER_1
 10
80.6052
 20
308.623
  0
VERTEX
  8
LAYER_1
 10
81.3552
 20
307.9705
  0
SEQEND
  0
ENDBLK
  0
BLOCK
  8
LAYER_1
  2
AIGNBL01010136
 70
64
 10
0
 20
0
 30
0
  3
AIGNBL01010136
  0
POLYLINE
  8
LAYER_1
 40
0.2469
 41
0.2469
 62
4
 66
1
 10
0
 20
0
 30
0
  0
VERTEX
  8
LAYER_1
 10
81.3552
 20
307.9705
  0
VERTEX
  8
LAYER_1
 10
80.6052
 20
307.3722
  0
SEQEND
  0
ENDBLK
  0
BLOCK
  8
LAYER_1
  2
AIGNBL01010137
 70
64
 10
0
 20
0
 30
0
  3
AIGNBL01010137
  0
POLYLINE
  8
LAYER_1
 40
0.2469
 41
0.2469
 62
4
 66
1
 10
0
 20
0
 30
0
  0
VERTEX
  8
LAYER_1
 10
80.6052
 20
307.3722
  0
VERTEX
  8
LAYER_1
 10
81.3552
 20
306.7197
  0
SEQEND
  0
ENDBLK
  0
BLOCK
  8
LAYER_1
  2
AIGNBL01010138
 70
64
 10
0
 20
0
 30
0
  3
AIGNBL01010138
  0
POLYLINE
  8
LAYER_1
 40
0.2469
 41
0.2469
 62
4
 66
1
 10
0
 20
0
 30
0
  0
VERTEX
  8
LAYER_1
 10
81.3552
 20
306.7197
  0
VERTEX
  8
LAYER_1
 10
80.6052
 20
306.1214
  0
SEQEND
  0
ENDBLK
  0
BLOCK
  8
LAYER_1
  2
AIGNBL01010139
 70
64
 10
0
 20
0
 30
0
  3
AIGNBL01010139
  0
POLYLINE
  8
LAYER_1
 40
0.2469
 41
0.2469
 62
4
 66
1
 10
0
 20
0
 30
0
  0
VERTEX
  8
LAYER_1
 10
80.6052
 20
306.1214
  0
VERTEX
  8
LAYER_1
 10
81.3552
 20
305.4689
  0
SEQEND
  0
ENDBLK
  0
BLOCK
  8
LAYER_1
  2
AIGNBL0101013A
 70
64
 10
0
 20
0
 30
0
  3
AIGNBL0101013A
  0
POLYLINE
  8
LAYER_1
 40
0.2469
 41
0.2469
 62
4
 66
1
 10
0
 20
0
 30
0
  0
VERTEX
  8
LAYER_1
 10
81.3552
 20
305.4689
  0
VERTEX
  8
LAYER_1
 10
80.6052
 20
304.8706
  0
SEQEND
  0
ENDBLK
  0
BLOCK
  8
LAYER_1
  2
AIGNBL0101013B
 70
64
 10
0
 20
0
 30
0
  3
AIGNBL0101013B
  0
POLYLINE
  8
LAYER_1
 40
0.2469
 41
0.2469
 62
4
 66
1
 10
0
 20
0
 30
0
  0
VERTEX
  8
LAYER_1
 10
80.6052
 20
304.8706
  0
VERTEX
  8
LAYER_1
 10
81.3552
 20
304.2181
  0
SEQEND
  0
ENDBLK
  0
BLOCK
  8
LAYER_1
  2
AIGNBL0101013C
 70
64
 10
0
 20
0
 30
0
  3
AIGNBL0101013C
  0
POLYLINE
  8
LAYER_1
 40
0.2469
 41
0.2469
 62
4
 66
1
 10
0
 20
0
 30
0
  0
VERTEX
  8
LAYER_1
 10
80.6052
 20
339.8934
  0
VERTEX
  8
LAYER_1
 10
61.3552
 20
339.1976
  0
SEQEND
  0
ENDBLK
  0
BLOCK
  8
LAYER_1
  2
AIGNBL0101013D
 70
64
 10
0
 20
0
 30
0
  3
AIGNBL0101013D
  0
POLYLINE
  8
LAYER_1
 40
0.2469
 41
0.2469
 62
4
 66
1
 10
0
 20
0
 30
0
  0
VERTEX
  8
LAYER_1
 10
80.6052
 20
304.8706
  0
VERTEX
  8
LAYER_1
 10
61.3552
 20
304.1748
  0
SEQEND
  0
ENDBLK
  0
BLOCK
  8
LAYER_1
  2
AIGNBL0101013E
 70
64
 10
0
 20
0
 30
0
  3
AIGNBL0101013E
  0
POLYLINE
  8
LAYER_1
 40
0.2469
 41
0.2469
 62
4
 66
1
 10
0
 20
0
 30
0
  0
VERTEX
  8
LAYER_1
 10
80.6052
 20
306.1214
  0
VERTEX
  8
LAYER_1
 10
61.3552
 20
305.4256
  0
SEQEND
  0
ENDBLK
  0
BLOCK
  8
LAYER_1
  2
AIGNBL0101013F
 70
64
 10
0
 20
0
 30
0
  3
AIGNBL0101013F
  0
POLYLINE
  8
LAYER_1
 40
0.2469
 41
0.2469
 62
4
 66
1
 10
0
 20
0
 30
0
  0
VERTEX
  8
LAYER_1
 10
80.6052
 20
307.3722
  0
VERTEX
  8
LAYER_1
 10
61.3552
 20
306.6764
  0
SEQEND
  0
ENDBLK
  0
BLOCK
  8
LAYER_1
  2
AIGNBL01010140
 70
64
 10
0
 20
0
 30
0
  3
AIGNBL01010140
  0
POLYLINE
  8
LAYER_1
 40
0.2469
 41
0.2469
 62
4
 66
1
 10
0
 20
0
 30
0
  0
VERTEX
  8
LAYER_1
 10
80.6052
 20
308.623
  0
VERTEX
  8
LAYER_1
 10
61.3552
 20
307.9272
  0
SEQEND
  0
ENDBLK
  0
BLOCK
  8
LAYER_1
  2
AIGNBL01010141
 70
64
 10
0
 20
0
 30
0
  3
AIGNBL01010141
  0
POLYLINE
  8
LAYER_1
 40
0.2469
 41
0.2469
 62
4
 66
1
 10
0
 20
0
 30
0
  0
VERTEX
  8
LAYER_1
 10
80.6052
 20
309.8738
  0
VERTEX
  8
LAYER_1
 10
61.3552
 20
309.178
  0
SEQEND
  0
ENDBLK
  0
BLOCK
  8
LAYER_1
  2
AIGNBL01010142
 70
64
 10
0
 20
0
 30
0
  3
AIGNBL01010142
  0
POLYLINE
  8
LAYER_1
 40
0.2469
 41
0.2469
 62
4
 66
1
 10
0
 20
0
 30
0
  0
VERTEX
  8
LAYER_1
 10
80.6052
 20
311.1246
  0
VERTEX
  8
LAYER_1
 10
61.3552
 20
310.4289
  0
SEQEND
  0
ENDBLK
  0
BLOCK
  8
LAYER_1
  2
AIGNBL01010143
 70
64
 10
0
 20
0
 30
0
  3
AIGNBL01010143
  0
POLYLINE
  8
LAYER_1
 40
0.2469
 41
0.2469
 62
4
 66
1
 10
0
 20
0
 30
0
  0
VERTEX
  8
LAYER_1
 10
80.6052
 20
312.3755
  0
VERTEX
  8
LAYER_1
 10
61.3552
 20
311.6797
  0
SEQEND
  0
ENDBLK
  0
BLOCK
  8
LAYER_1
  2
AIGNBL01010144
 70
64
 10
0
 20
0
 30
0
  3
AIGNBL01010144
  0
POLYLINE
  8
LAYER_1
 40
0.2469
 41
0.2469
 62
4
 66
1
 10
0
 20
0
 30
0
  0
VERTEX
  8
LAYER_1
 10
80.6052
 20
313.6263
  0
VERTEX
  8
LAYER_1
 10
61.3552
 20
312.9305
  0
SEQEND
  0
ENDBLK
  0
BLOCK
  8
LAYER_1
  2
AIGNBL01010145
 70
64
 10
0
 20
0
 30
0
  3
AIGNBL01010145
  0
POLYLINE
  8
LAYER_1
 40
0.2469
 41
0.2469
 62
4
 66
1
 10
0
 20
0
 30
0
  0
VERTEX
  8
LAYER_1
 10
80.6052
 20
322.382
  0
VERTEX
  8
LAYER_1
 10
61.3552
 20
321.6862
  0
SEQEND
  0
ENDBLK
  0
BLOCK
  8
LAYER_1
  2
AIGNBL01010146
 70
64
 10
0
 20
0
 30
0
  3
AIGNBL01010146
  0
POLYLINE
  8
LAYER_1
 40
0.2469
 41
0.2469
 62
4
 66
1
 10
0
 20
0
 30
0
  0
VERTEX
  8
LAYER_1
 10
80.6052
 20
323.6328
  0
VERTEX
  8
LAYER_1
 10
61.3552
 20
322.937
  0
SEQEND
  0
ENDBLK
  0
BLOCK
  8
LAYER_1
  2
AIGNBL01010147
 70
64
 10
0
 20
0
 30
0
  3
AIGNBL01010147
  0
POLYLINE
  8
LAYER_1
 40
0.2469
 41
0.2469
 62
4
 66
1
 10
0
 20
0
 30
0
  0
VERTEX
  8
LAYER_1
 10
80.6052
 20
324.8836
  0
VERTEX
  8
LAYER_1
 10
61.3552
 20
324.1878
  0
SEQEND
  0
ENDBLK
  0
BLOCK
  8
LAYER_1
  2
AIGNBL01010148
 70
64
 10
0
 20
0
 30
0
  3
AIGNBL01010148
  0
POLYLINE
  8
LAYER_1
 40
0.2469
 41
0.2469
 62
4
 66
1
 10
0
 20
0
 30
0
  0
VERTEX
  8
LAYER_1
 10
80.6052
 20
326.1344
  0
VERTEX
  8
LAYER_1
 10
61.3552
 20
325.4387
  0
SEQEND
  0
ENDBLK
  0
BLOCK
  8
LAYER_1
  2
AIGNBL01010149
 70
64
 10
0
 20
0
 30
0
  3
AIGNBL01010149
  0
POLYLINE
  8
LAYER_1
 40
0.2469
 41
0.2469
 62
4
 66
1
 10
0
 20
0
 30
0
  0
VERTEX
  8
LAYER_1
 10
80.6052
 20
327.3853
  0
VERTEX
  8
LAYER_1
 10
61.3552
 20
326.6895
  0
SEQEND
  0
ENDBLK
  0
BLOCK
  8
LAYER_1
  2
AIGNBL0101014A
 70
64
 10
0
 20
0
 30
0
  3
AIGNBL0101014A
  0
POLYLINE
  8
LAYER_1
 40
0.2469
 41
0.2469
 62
4
 66
1
 10
0
 20
0
 30
0
  0
VERTEX
  8
LAYER_1
 10
80.6052
 20
328.6361
  0
VERTEX
  8
LAYER_1
 10
61.3552
 20
327.9403
  0
SEQEND
  0
ENDBLK
  0
BLOCK
  8
LAYER_1
  2
AIGNBL0101014B
 70
64
 10
0
 20
0
 30
0
  3
AIGNBL0101014B
  0
POLYLINE
  8
LAYER_1
 40
0.2469
 41
0.2469
 62
4
 66
1
 10
0
 20
0
 30
0
  0
VERTEX
  8
LAYER_1
 10
80.6052
 20
329.8869
  0
VERTEX
  8
LAYER_1
 10
61.3552
 20
329.1911
  0
SEQEND
  0
ENDBLK
  0
BLOCK
  8
LAYER_1
  2
AIGNBL0101014C
 70
64
 10
0
 20
0
 30
0
  3
AIGNBL0101014C
  0
POLYLINE
  8
LAYER_1
 40
0.2469
 41
0.2469
 62
4
 66
1
 10
0
 20
0
 30
0
  0
VERTEX
  8
LAYER_1
 10
80.6052
 20
331.1377
  0
VERTEX
  8
LAYER_1
 10
61.3552
 20
330.4419
  0
SEQEND
  0
ENDBLK
  0
BLOCK
  8
LAYER_1
  2
AIGNBL0101014D
 70
64
 10
0
 20
0
 30
0
  3
AIGNBL0101014D
  0
POLYLINE
  8
LAYER_1
 40
0.2469
 41
0.2469
 62
4
 66
1
 10
0
 20
0
 30
0
  0
VERTEX
  8
LAYER_1
 10
80.6052
 20
332.3885
  0
VERTEX
  8
LAYER_1
 10
61.3552
 20
331.6927
  0
SEQEND
  0
ENDBLK
  0
BLOCK
  8
LAYER_1
  2
AIGNBL0101014E
 70
64
 10
0
 20
0
 30
0
  3
AIGNBL0101014E
  0
POLYLINE
  8
LAYER_1
 40
0.2469
 41
0.2469
 62
4
 66
1
 10
0
 20
0
 30
0
  0
VERTEX
  8
LAYER_1
 10
80.6052
 20
333.6393
  0
VERTEX
  8
LAYER_1
 10
61.3552
 20
332.9436
  0
SEQEND
  0
ENDBLK
  0
BLOCK
  8
LAYER_1
  2
AIGNBL0101014F
 70
64
 10
0
 20
0
 30
0
  3
AIGNBL0101014F
  0
POLYLINE
  8
LAYER_1
 40
0.2469
 41
0.2469
 62
4
 66
1
 10
0
 20
0
 30
0
  0
VERTEX
  8
LAYER_1
 10
80.6052
 20
334.8902
  0
VERTEX
  8
LAYER_1
 10
61.3552
 20
334.1944
  0
SEQEND
  0
ENDBLK
  0
BLOCK
  8
LAYER_1
  2
AIGNBL01010150
 70
64
 10
0
 20
0
 30
0
  3
AIGNBL01010150
  0
POLYLINE
  8
LAYER_1
 40
0.2469
 41
0.2469
 62
4
 66
1
 10
0
 20
0
 30
0
  0
VERTEX
  8
LAYER_1
 10
80.6052
 20
336.141
  0
VERTEX
  8
LAYER_1
 10
61.3552
 20
335.4452
  0
SEQEND
  0
ENDBLK
  0
BLOCK
  8
LAYER_1
  2
AIGNBL01010151
 70
64
 10
0
 20
0
 30
0
  3
AIGNBL01010151
  0
POLYLINE
  8
LAYER_1
 40
0.2469
 41
0.2469
 62
4
 66
1
 10
0
 20
0
 30
0
  0
VERTEX
  8
LAYER_1
 10
80.6052
 20
337.3918
  0
VERTEX
  8
LAYER_1
 10
61.3552
 20
336.696
  0
SEQEND
  0
ENDBLK
  0
BLOCK
  8
LAYER_1
  2
AIGNBL01010152
 70
64
 10
0
 20
0
 30
0
  3
AIGNBL01010152
  0
POLYLINE
  8
LAYER_1
 40
0.2469
 41
0.2469
 62
4
 66
1
 10
0
 20
0
 30
0
  0
VERTEX
  8
LAYER_1
 10
80.6052
 20
338.6426
  0
VERTEX
  8
LAYER_1
 10
61.3552
 20
337.9468
  0
SEQEND
  0
ENDBLK
  0
BLOCK
  8
LAYER_1
  2
AIGNBL01010153
 70
64
 10
0
 20
0
 30
0
  3
AIGNBL01010153
  0
POLYLINE
  8
LAYER_1
 40
0.2469
 41
0.2469
 62
4
 66
1
 10
0
 20
0
 30
0
  0
VERTEX
  8
LAYER_1
 10
60.6052
 20
340.2751
  0
VERTEX
  8
LAYER_1
 10
81.3552
 20
340.2751
  0
SEQEND
  0
ENDBLK
  0
BLOCK
  8
LAYER_1
  2
AIGNBL01010154
 70
64
 10
0
 20
0
 30
0
  3
AIGNBL01010154
  0
POLYLINE
  8
LAYER_1
 40
0.2469
 41
0.2469
 62
4
 66
1
 10
0
 20
0
 30
0
  0
VERTEX
  8
LAYER_1
 10
61.1559
 20
340.2751
  0
VERTEX
  8
LAYER_1
 10
60.6052
 20
339.7959
  0
SEQEND
  0
ENDBLK
  0
BLOCK
  8
LAYER_1
  2
AIGNBL01010155
 70
64
 10
0
 20
0
 30
0
  3
AIGNBL01010155
  0
POLYLINE
  8
LAYER_1
 40
0.2469
 41
0.2469
 62
4
 66
1
 10
0
 20
0
 30
0
  0
VERTEX
  8
LAYER_1
 10
81.0836
 20
340.2751
  0
VERTEX
  8
LAYER_1
 10
80.6052
 20
339.8934
  0
SEQEND
  0
ENDBLK
  0
BLOCK
  8
LAYER_1
  2
AIGNBL01010156
 70
64
 10
0
 20
0
 30
0
  3
AIGNBL01010156
  0
POLYLINE
  8
LAYER_1
 40
0.2469
 41
0.2469
 66
1
 10
0
 20
0
 30
0
  0
VERTEX
  8
LAYER_1
 10
60.6052
 20
338.5451
  0
VERTEX
  8
LAYER_1
 10
81.3552
 20
339.2409
  0
SEQEND
  0
ENDBLK
  0
BLOCK
  8
LAYER_1
  2
AIGNBL01010157
 70
64
 10
0
 20
0
 30
0
  3
AIGNBL01010157
  0
POLYLINE
  8
LAYER_1
 40
0.2469
 41
0.2469
 66
1
 10
0
 20
0
 30
0
  0
VERTEX
  8
LAYER_1
 10
60.6052
 20
339.7959
  0
VERTEX
  8
LAYER_1
 10
73.8607
 20
340.2751
  0
SEQEND
  0
ENDBLK
  0
BLOCK
  8
LAYER_1
  2
AIGNBL01010158
 70
64
 10
0
 20
0
 30
0
  3
AIGNBL01010158
  0
POLYLINE
  8
LAYER_1
 40
0.2469
 41
0.2469
 66
1
 10
0
 20
0
 30
0
  0
VERTEX
  8
LAYER_1
 10
60.6052
 20
337.2943
  0
VERTEX
  8
LAYER_1
 10
81.3552
 20
337.9901
  0
SEQEND
  0
ENDBLK
  0
BLOCK
  8
LAYER_1
  2
AIGNBL01010159
 70
64
 10
0
 20
0
 30
0
  3
AIGNBL01010159
  0
POLYLINE
  8
LAYER_1
 40
0.2469
 41
0.2469
 66
1
 10
0
 20
0
 30
0
  0
VERTEX
  8
LAYER_1
 10
60.6052
 20
336.0435
  0
VERTEX
  8
LAYER_1
 10
81.3552
 20
336.7393
  0
SEQEND
  0
ENDBLK
  0
BLOCK
  8
LAYER_1
  2
AIGNBL0101015A
 70
64
 10
0
 20
0
 30
0
  3
AIGNBL0101015A
  0
POLYLINE
  8
LAYER_1
 40
0.2469
 41
0.2469
 66
1
 10
0
 20
0
 30
0
  0
VERTEX
  8
LAYER_1
 10
60.6052
 20
334.7927
  0
VERTEX
  8
LAYER_1
 10
81.3552
 20
335.4885
  0
SEQEND
  0
ENDBLK
  0
BLOCK
  8
LAYER_1
  2
AIGNBL0101015B
 70
64
 10
0
 20
0
 30
0
  3
AIGNBL0101015B
  0
POLYLINE
  8
LAYER_1
 40
0.2469
 41
0.2469
 66
1
 10
0
 20
0
 30
0
  0
VERTEX
  8
LAYER_1
 10
60.6052
 20
333.5419
  0
VERTEX
  8
LAYER_1
 10
81.3552
 20
334.2376
  0
SEQEND
  0
ENDBLK
  0
BLOCK
  8
LAYER_1
  2
AIGNBL0101015C
 70
64
 10
0
 20
0
 30
0
  3
AIGNBL0101015C
  0
POLYLINE
  8
LAYER_1
 40
0.2469
 41
0.2469
 66
1
 10
0
 20
0
 30
0
  0
VERTEX
  8
LAYER_1
 10
60.6052
 20
332.291
  0
VERTEX
  8
LAYER_1
 10
81.3552
 20
332.9868
  0
SEQEND
  0
ENDBLK
  0
BLOCK
  8
LAYER_1
  2
AIGNBL0101015D
 70
64
 10
0
 20
0
 30
0
  3
AIGNBL0101015D
  0
POLYLINE
  8
LAYER_1
 40
0.2469
 41
0.2469
 66
1
 10
0
 20
0
 30
0
  0
VERTEX
  8
LAYER_1
 10
60.6052
 20
331.0402
  0
VERTEX
  8
LAYER_1
 10
81.3552
 20
331.736
  0
SEQEND
  0
ENDBLK
  0
BLOCK
  8
LAYER_1
  2
AIGNBL0101015E
 70
64
 10
0
 20
0
 30
0
  3
AIGNBL0101015E
  0
POLYLINE
  8
LAYER_1
 40
0.2469
 41
0.2469
 66
1
 10
0
 20
0
 30
0
  0
VERTEX
  8
LAYER_1
 10
60.6052
 20
329.7894
  0
VERTEX
  8
LAYER_1
 10
81.3552
 20
330.4852
  0
SEQEND
  0
ENDBLK
  0
BLOCK
  8
LAYER_1
  2
AIGNBL0101015F
 70
64
 10
0
 20
0
 30
0
  3
AIGNBL0101015F
  0
POLYLINE
  8
LAYER_1
 40
0.2469
 41
0.2469
 66
1
 10
0
 20
0
 30
0
  0
VERTEX
  8
LAYER_1
 10
60.6052
 20
328.5386
  0
VERTEX
  8
LAYER_1
 10
81.3552
 20
329.2344
  0
SEQEND
  0
ENDBLK
  0
BLOCK
  8
LAYER_1
  2
AIGNBL01010160
 70
64
 10
0
 20
0
 30
0
  3
AIGNBL01010160
  0
POLYLINE
  8
LAYER_1
 40
0.2469
 41
0.2469
 66
1
 10
0
 20
0
 30
0
  0
VERTEX
  8
LAYER_1
 10
60.6052
 20
327.2878
  0
VERTEX
  8
LAYER_1
 10
81.3552
 20
327.9836
  0
SEQEND
  0
ENDBLK
  0
BLOCK
  8
LAYER_1
  2
AIGNBL01010161
 70
64
 10
0
 20
0
 30
0
  3
AIGNBL01010161
  0
POLYLINE
  8
LAYER_1
 40
0.2469
 41
0.2469
 66
1
 10
0
 20
0
 30
0
  0
VERTEX
  8
LAYER_1
 10
60.6052
 20
326.037
  0
VERTEX
  8
LAYER_1
 10
81.3552
 20
326.7327
  0
SEQEND
  0
ENDBLK
  0
BLOCK
  8
LAYER_1
  2
AIGNBL01010162
 70
64
 10
0
 20
0
 30
0
  3
AIGNBL01010162
  0
POLYLINE
  8
LAYER_1
 40
0.2469
 41
0.2469
 66
1
 10
0
 20
0
 30
0
  0
VERTEX
  8
LAYER_1
 10
60.6052
 20
324.7861
  0
VERTEX
  8
LAYER_1
 10
81.3552
 20
325.4819
  0
SEQEND
  0
ENDBLK
  0
BLOCK
  8
LAYER_1
  2
AIGNBL01010163
 70
64
 10
0
 20
0
 30
0
  3
AIGNBL01010163
  0
POLYLINE
  8
LAYER_1
 40
0.2469
 41
0.2469
 66
1
 10
0
 20
0
 30
0
  0
VERTEX
  8
LAYER_1
 10
60.6052
 20
323.5353
  0
VERTEX
  8
LAYER_1
 10
81.3552
 20
324.2311
  0
SEQEND
  0
ENDBLK
  0
BLOCK
  8
LAYER_1
  2
AIGNBL01010164
 70
64
 10
0
 20
0
 30
0
  3
AIGNBL01010164
  0
POLYLINE
  8
LAYER_1
 40
0.2469
 41
0.2469
 66
1
 10
0
 20
0
 30
0
  0
VERTEX
  8
LAYER_1
 10
60.6052
 20
322.2845
  0
VERTEX
  8
LAYER_1
 10
81.3552
 20
322.9803
  0
SEQEND
  0
ENDBLK
  0
BLOCK
  8
LAYER_1
  2
AIGNBL01010165
 70
64
 10
0
 20
0
 30
0
  3
AIGNBL01010165
  0
POLYLINE
  8
LAYER_1
 40
0.2469
 41
0.2469
 66
1
 10
0
 20
0
 30
0
  0
VERTEX
  8
LAYER_1
 10
60.6052
 20
312.278
  0
VERTEX
  8
LAYER_1
 10
81.3552
 20
312.9738
  0
SEQEND
  0
ENDBLK
  0
BLOCK
  8
LAYER_1
  2
AIGNBL01010166
 70
64
 10
0
 20
0
 30
0
  3
AIGNBL01010166
  0
POLYLINE
  8
LAYER_1
 40
0.2469
 41
0.2469
 66
1
 10
0
 20
0
 30
0
  0
VERTEX
  8
LAYER_1
 10
60.6052
 20
311.0272
  0
VERTEX
  8
LAYER_1
 10
81.3552
 20
311.7229
  0
SEQEND
  0
ENDBLK
  0
BLOCK
  8
LAYER_1
  2
AIGNBL01010167
 70
64
 10
0
 20
0
 30
0
  3
AIGNBL01010167
  0
POLYLINE
  8
LAYER_1
 40
0.2469
 41
0.2469
 66
1
 10
0
 20
0
 30
0
  0
VERTEX
  8
LAYER_1
 10
60.6052
 20
309.7763
  0
VERTEX
  8
LAYER_1
 10
81.3552
 20
310.4721
  0
SEQEND
  0
ENDBLK
  0
BLOCK
  8
LAYER_1
  2
AIGNBL01010168
 70
64
 10
0
 20
0
 30
0
  3
AIGNBL01010168
  0
POLYLINE
  8
LAYER_1
 40
0.2469
 41
0.2469
 66
1
 10
0
 20
0
 30
0
  0
VERTEX
  8
LAYER_1
 10
60.6052
 20
308.5255
  0
VERTEX
  8
LAYER_1
 10
81.3552
 20
309.2213
  0
SEQEND
  0
ENDBLK
  0
BLOCK
  8
LAYER_1
  2
AIGNBL01010169
 70
64
 10
0
 20
0
 30
0
  3
AIGNBL01010169
  0
POLYLINE
  8
LAYER_1
 40
0.2469
 41
0.2469
 66
1
 10
0
 20
0
 30
0
  0
VERTEX
  8
LAYER_1
 10
60.6052
 20
307.2747
  0
VERTEX
  8
LAYER_1
 10
81.3552
 20
307.9705
  0
SEQEND
  0
ENDBLK
  0
BLOCK
  8
LAYER_1
  2
AIGNBL0101016A
 70
64
 10
0
 20
0
 30
0
  3
AIGNBL0101016A
  0
POLYLINE
  8
LAYER_1
 40
0.2469
 41
0.2469
 66
1
 10
0
 20
0
 30
0
  0
VERTEX
  8
LAYER_1
 10
60.6052
 20
306.0239
  0
VERTEX
  8
LAYER_1
 10
81.3552
 20
306.7197
  0
SEQEND
  0
ENDBLK
  0
BLOCK
  8
LAYER_1
  2
AIGNBL0101016B
 70
64
 10
0
 20
0
 30
0
  3
AIGNBL0101016B
  0
POLYLINE
  8
LAYER_1
 40
0.2469
 41
0.2469
 66
1
 10
0
 20
0
 30
0
  0
VERTEX
  8
LAYER_1
 10
60.6052
 20
304.7731
  0
VERTEX
  8
LAYER_1
 10
81.3552
 20
305.4689
  0
SEQEND
  0
ENDBLK
  0
BLOCK
  8
LAYER_1
  2
AIGNBL0101016C
 70
64
 10
0
 20
0
 30
0
  3
AIGNBL0101016C
  0
POLYLINE
  8
LAYER_1
 40
0.2469
 41
0.2469
 62
4
 66
1
 10
0
 20
0
 30
0
  0
VERTEX
  8
LAYER_1
 10
55.9802
 20
316.7751
  0
VERTEX
  8
LAYER_1
 10
85.9802
 20
316.7751
  0
SEQEND
  0
ENDBLK
  0
BLOCK
  8
LAYER_1
  2
AIGNBL0101016D
 70
64
 10
0
 20
0
 30
0
  3
AIGNBL0101016D
  0
POLYLINE
  8
LAYER_1
 40
0.2469
 41
0.2469
 62
4
 66
1
 10
0
 20
0
 30
0
  0
VERTEX
  8
LAYER_1
 10
55.4802
 20
319.5409
  0
VERTEX
  8
LAYER_1
 10
55.4802
 20
318.2751
  0
SEQEND
  0
ENDBLK
  0
BLOCK
  8
LAYER_1
  2
AIGNBL0101016E
 70
64
 10
0
 20
0
 30
0
  3
AIGNBL0101016E
  0
POLYLINE
  8
LAYER_1
 40
0.2469
 41
0.2469
 62
4
 66
1
 10
0
 20
0
 30
0
  0
VERTEX
  8
LAYER_1
 10
55.6601
 20
319.925
 42
0.2225616839
  0
VERTEX
  8
LAYER_1
 10
55.4802
 20
319.5409
  0
SEQEND
  0
ENDBLK
  0
BLOCK
  8
LAYER_1
  2
AIGNBL0101016F
 70
64
 10
0
 20
0
 30
0
  3
AIGNBL0101016F
  0
POLYLINE
  8
LAYER_1
 40
0.2469
 41
0.2469
 62
4
 66
1
 10
0
 20
0
 30
0
  0
VERTEX
  8
LAYER_1
 10
86.4802
 20
319.5409
  0
VERTEX
  8
LAYER_1
 10
86.4802
 20
318.2751
  0
SEQEND
  0
ENDBLK
  0
BLOCK
  8
LAYER_1
  2
AIGNBL01010170
 70
64
 10
0
 20
0
 30
0
  3
AIGNBL01010170
  0
POLYLINE
  8
LAYER_1
 40
0.2469
 41
0.2469
 62
4
 66
1
 10
0
 20
0
 30
0
  0
VERTEX
  8
LAYER_1
 10
55.4802
 20
318.2751
  0
VERTEX
  8
LAYER_1
 10
86.4802
 20
318.2751
  0
SEQEND
  0
ENDBLK
  0
BLOCK
  8
LAYER_1
  2
AIGNBL01010171
 70
64
 10
0
 20
0
 30
0
  3
AIGNBL01010171
  0
POLYLINE
  8
LAYER_1
 40
0.2469
 41
0.2469
 62
4
 66
1
 10
0
 20
0
 30
0
  0
VERTEX
  8
LAYER_1
 10
85.1193
 20
320.9092
 42
0.1754429134
  0
VERTEX
  8
LAYER_1
 10
84.7992
 20
321.0251
  0
SEQEND
  0
ENDBLK
  0
BLOCK
  8
LAYER_1
  2
AIGNBL01010172
 70
64
 10
0
 20
0
 30
0
  3
AIGNBL01010172
  0
POLYLINE
  8
LAYER_1
 40
0.2469
 41
0.2469
 62
4
 66
1
 10
0
 20
0
 30
0
  0
VERTEX
  8
LAYER_1
 10
86.3003
 20
319.925
  0
VERTEX
  8
LAYER_1
 10
85.1193
 20
320.9092
  0
SEQEND
  0
ENDBLK
  0
BLOCK
  8
LAYER_1
  2
AIGNBL01010173
 70
64
 10
0
 20
0
 30
0
  3
AIGNBL01010173
  0
POLYLINE
  8
LAYER_1
 40
0.2469
 41
0.2469
 62
4
 66
1
 10
0
 20
0
 30
0
  0
VERTEX
  8
LAYER_1
 10
86.4802
 20
319.5409
 42
0.2225811074
  0
VERTEX
  8
LAYER_1
 10
86.3003
 20
319.925
  0
SEQEND
  0
ENDBLK
  0
BLOCK
  8
LAYER_1
  2
AIGNBL01010174
 70
64
 10
0
 20
0
 30
0
  3
AIGNBL01010174
  0
POLYLINE
  8
LAYER_1
 40
0.2469
 41
0.2469
 62
4
 66
1
 10
0
 20
0
 30
0
  0
VERTEX
  8
LAYER_1
 10
55.6601
 20
319.925
  0
VERTEX
  8
LAYER_1
 10
56.8412
 20
320.9092
  0
SEQEND
  0
ENDBLK
  0
BLOCK
  8
LAYER_1
  2
AIGNBL01010175
 70
64
 10
0
 20
0
 30
0
  3
AIGNBL01010175
  0
POLYLINE
  8
LAYER_1
 40
0.2469
 41
0.2469
 62
4
 66
1
 10
0
 20
0
 30
0
  0
VERTEX
  8
LAYER_1
 10
84.7992
 20
321.0251
  0
VERTEX
  8
LAYER_1
 10
57.1612
 20
321.0251
  0
SEQEND
  0
ENDBLK
  0
BLOCK
  8
LAYER_1
  2
AIGNBL01010176
 70
64
 10
0
 20
0
 30
0
  3
AIGNBL01010176
  0
POLYLINE
  8
LAYER_1
 40
0.2469
 41
0.2469
 62
4
 66
1
 10
0
 20
0
 30
0
  0
VERTEX
  8
LAYER_1
 10
57.1612
 20
321.0251
 42
0.175397566
  0
VERTEX
  8
LAYER_1
 10
56.8412
 20
320.9092
  0
SEQEND
  0
ENDBLK
  0
BLOCK
  8
LAYER_1
  2
AIGNBL01010177
 70
64
 10
0
 20
0
 30
0
  3
AIGNBL01010177
  0
POLYLINE
  8
LAYER_1
 40
0.2469
 41
0.2469
 62
4
 66
1
 10
0
 20
0
 30
0
  0
VERTEX
  8
LAYER_1
 10
55.9802
 20
318.2751
  0
VERTEX
  8
LAYER_1
 10
55.9802
 20
316.7751
  0
SEQEND
  0
ENDBLK
  0
BLOCK
  8
LAYER_1
  2
AIGNBL01010178
 70
64
 10
0
 20
0
 30
0
  3
AIGNBL01010178
  0
POLYLINE
  8
LAYER_1
 40
0.2469
 41
0.2469
 62
4
 66
1
 10
0
 20
0
 30
0
  0
VERTEX
  8
LAYER_1
 10
85.9802
 20
318.2751
  0
VERTEX
  8
LAYER_1
 10
85.9802
 20
316.7751
  0
SEQEND
  0
ENDBLK
  0
BLOCK
  8
LAYER_1
  2
AIGNBL01010179
 70
64
 10
0
 20
0
 30
0
  3
AIGNBL01010179
  0
POLYLINE
  8
LAYER_1
 40
0.2469
 41
0.2469
 66
1
 10
0
 20
0
 30
0
  0
VERTEX
  8
LAYER_1
 10
70.9802
 20
316.7751
  0
VERTEX
  8
LAYER_1
 10
70.9802
 20
313.7751
  0
SEQEND
  0
ENDBLK
  0
BLOCK
  8
LAYER_1
  2
AIGNBL0101017A
 70
64
 10
0
 20
0
 30
0
  3
AIGNBL0101017A
  0
POLYLINE
  8
LAYER_1
 40
0.2469
 41
0.2469
 62
4
 66
1
 10
0
 20
0
 30
0
  0
VERTEX
  8
LAYER_1
 10
59.6052
 20
316.7751
  0
VERTEX
  8
LAYER_1
 10
59.6052
 20
313.7751
  0
SEQEND
  0
ENDBLK
  0
BLOCK
  8
LAYER_1
  2
AIGNBL0101017B
 70
64
 10
0
 20
0
 30
0
  3
AIGNBL0101017B
  0
POLYLINE
  8
LAYER_1
 40
0.2469
 41
0.2469
 62
4
 66
1
 10
0
 20
0
 30
0
  0
VERTEX
  8
LAYER_1
 10
59.6052
 20
313.7751
  0
VERTEX
  8
LAYER_1
 10
82.3552
 20
313.7751
  0
SEQEND
  0
ENDBLK
  0
BLOCK
  8
LAYER_1
  2
AIGNBL0101017C
 70
64
 10
0
 20
0
 30
0
  3
AIGNBL0101017C
  0
POLYLINE
  8
LAYER_1
 40
0.2469
 41
0.2469
 62
4
 66
1
 10
0
 20
0
 30
0
  0
VERTEX
  8
LAYER_1
 10
82.3552
 20
316.7751
  0
VERTEX
  8
LAYER_1
 10
82.3552
 20
313.7751
  0
SEQEND
  0
ENDBLK
  0
BLOCK
  8
LAYER_1
  2
AIGNBL0101017D
 70
64
 10
0
 20
0
 30
0
  3
AIGNBL0101017D
  0
POLYLINE
  8
LAYER_1
 40
0.2469
 41
0.2469
 62
4
 66
1
 10
0
 20
0
 30
0
  0
VERTEX
  8
LAYER_1
 10
80.7917
 20
313.7751
  0
VERTEX
  8
LAYER_1
 10
80.6052
 20
313.6263
  0
SEQEND
  0
ENDBLK
  0
BLOCK
  8
LAYER_1
  2
AIGNBL0101017E
 70
64
 10
0
 20
0
 30
0
  3
AIGNBL0101017E
  0
POLYLINE
  8
LAYER_1
 40
0.2469
 41
0.2469
 66
1
 10
0
 20
0
 30
0
  0
VERTEX
  8
LAYER_1
 10
60.6052
 20
313.5288
  0
VERTEX
  8
LAYER_1
 10
67.9491
 20
313.7751
  0
SEQEND
  0
ENDBLK
  0
BLOCK
  8
LAYER_1
  2
AIGNBL0101017F
 70
64
 10
0
 20
0
 30
0
  3
AIGNBL0101017F
  0
POLYLINE
  8
LAYER_1
 40
0.2469
 41
0.2469
 62
4
 66
1
 10
0
 20
0
 30
0
  0
VERTEX
  8
LAYER_1
 10
60.8883
 20
313.7751
  0
VERTEX
  8
LAYER_1
 10
60.6052
 20
313.5288
  0
SEQEND
  0
ENDBLK
  0
BLOCK
  8
LAYER_1
  2
AIGNBL01010180
 70
64
 10
0
 20
0
 30
0
  3
AIGNBL01010180
  0
POLYLINE
  8
LAYER_1
 40
0.2469
 41
0.2469
 62
4
 66
1
 10
0
 20
0
 30
0
  0
VERTEX
  8
LAYER_1
 10
60.6052
 20
321.0337
  0
VERTEX
  8
LAYER_1
 10
60.6161
 20
321.0251
  0
SEQEND
  0
ENDBLK
  0
BLOCK
  8
LAYER_1
  2
AIGNBL01010181
 70
64
 10
0
 20
0
 30
0
  3
AIGNBL01010181
  0
POLYLINE
  8
LAYER_1
 40
0.2469
 41
0.2469
 62
4
 66
1
 10
0
 20
0
 30
0
  0
VERTEX
  8
LAYER_1
 10
80.6052
 20
321.1312
  0
VERTEX
  8
LAYER_1
 10
77.669
 20
321.0251
  0
SEQEND
  0
ENDBLK
  0
BLOCK
  8
LAYER_1
  2
AIGNBL01010182
 70
64
 10
0
 20
0
 30
0
  3
AIGNBL01010182
  0
POLYLINE
  8
LAYER_1
 40
0.2469
 41
0.2469
 62
4
 66
1
 10
0
 20
0
 30
0
  0
VERTEX
  8
LAYER_1
 10
80.6052
 20
321.1312
  0
VERTEX
  8
LAYER_1
 10
80.7272
 20
321.0251
  0
SEQEND
  0
ENDBLK
  0
BLOCK
  8
LAYER_1
  2
AIGNBL01010183
 70
64
 10
0
 20
0
 30
0
  3
AIGNBL01010183
  0
POLYLINE
  8
LAYER_1
 40
0.2469
 41
0.2469
 62
4
 66
1
 10
0
 20
0
 30
0
  0
VERTEX
  8
LAYER_1
 10
60.6052
 20
349.0251
  0
VERTEX
  8
LAYER_1
 10
60.6052
 20
340.2751
  0
SEQEND
  0
ENDBLK
  0
BLOCK
  8
LAYER_1
  2
AIGNBL01010184
 70
64
 10
0
 20
0
 30
0
  3
AIGNBL01010184
  0
POLYLINE
  8
LAYER_1
 40
0.2469
 41
0.2469
 62
4
 66
1
 10
0
 20
0
 30
0
  0
VERTEX
  8
LAYER_1
 10
81.3552
 20
349.0251
  0
VERTEX
  8
LAYER_1
 10
81.3552
 20
340.2751
  0
SEQEND
  0
ENDBLK
  0
BLOCK
  8
LAYER_1
  2
AIGNBL01010185
 70
64
 10
0
 20
0
 30
0
  3
AIGNBL01010185
  0
POLYLINE
  8
LAYER_1
  6
AIGENLINE003
 40
0.2469
 41
0.2469
 66
1
 10
0
 20
0
 30
0
 70
128
  0
VERTEX
  8
LAYER_1
 10
60.6052
 20
352.0251
  0
VERTEX
  8
LAYER_1
 10
60.6052
 20
349.0251
  0
SEQEND
  0
ENDBLK
  0
BLOCK
  8
LAYER_1
  2
AIGNBL01010186
 70
64
 10
0
 20
0
 30
0
  3
AIGNBL01010186
  0
POLYLINE
  8
LAYER_1
  6
AIGENLINE003
 40
0.2469
 41
0.2469
 66
1
 10
0
 20
0
 30
0
 70
128
  0
VERTEX
  8
LAYER_1
 10
81.3552
 20
349.0251
  0
VERTEX
  8
LAYER_1
 10
81.3552
 20
352.0251
  0
SEQEND
  0
ENDBLK
  0
BLOCK
  8
LAYER_1
  2
AIGNBL01010187
 70
64
 10
0
 20
0
 30
0
  3
AIGNBL01010187
  0
POLYLINE
  8
LAYER_1
 40
0.2469
 41
0.2469
 62
4
 66
1
 10
0
 20
0
 30
0
  0
VERTEX
  8
LAYER_1
 10
61.3552
 20
304.1748
  0
VERTEX
  8
LAYER_1
 10
61.1831
 20
304.0251
  0
SEQEND
  0
ENDBLK
  0
BLOCK
  8
LAYER_1
  2
AIGNBL01010188
 70
64
 10
0
 20
0
 30
0
  3
AIGNBL01010188
  0
POLYLINE
  8
LAYER_1
 40
0.2469
 41
0.2469
 62
4
 66
1
 10
0
 20
0
 30
0
  0
VERTEX
  8
LAYER_1
 10
80.9802
 20
303.5251
  0
VERTEX
  8
LAYER_1
 10
60.9649
 20
303.5251
  0
SEQEND
  0
ENDBLK
  0
BLOCK
  8
LAYER_1
  2
AIGNBL01010189
 70
64
 10
0
 20
0
 30
0
  3
AIGNBL01010189
  0
POLYLINE
  8
LAYER_1
 40
0.2469
 41
0.2469
 62
4
 66
1
 10
0
 20
0
 30
0
  0
VERTEX
  8
LAYER_1
 10
80.9802
 20
304.0251
  0
VERTEX
  8
LAYER_1
 10
80.9802
 20
303.5251
  0
SEQEND
  0
ENDBLK
  0
BLOCK
  8
LAYER_1
  2
AIGNBL0101018A
 70
64
 10
0
 20
0
 30
0
  3
AIGNBL0101018A
  0
POLYLINE
  8
LAYER_1
 40
0.2469
 41
0.2469
 66
1
 10
0
 20
0
 30
0
  0
VERTEX
  8
LAYER_1
 10
75.5995
 20
304.0251
  0
VERTEX
  8
LAYER_1
 10
81.3552
 20
304.2181
  0
SEQEND
  0
ENDBLK
  0
BLOCK
  8
LAYER_1
  2
AIGNBL0101018B
 70
64
 10
0
 20
0
 30
0
  3
AIGNBL0101018B
  0
POLYLINE
  8
LAYER_1
 40
0.2469
 41
0.2469
 62
4
 66
1
 10
0
 20
0
 30
0
  0
VERTEX
  8
LAYER_1
 10
81.3552
 20
304.2181
  0
VERTEX
  8
LAYER_1
 10
81.1133
 20
304.0251
  0
SEQEND
  0
ENDBLK
  0
BLOCK
  8
LAYER_1
  2
AIGNBL0101018C
 70
64
 10
0
 20
0
 30
0
  3
AIGNBL0101018C
  0
POLYLINE
  8
LAYER_1
 40
0.2469
 41
0.2469
 66
1
 10
0
 20
0
 30
0
  0
VERTEX
  8
LAYER_1
 10
88.9802
 20
374.6176
  0
VERTEX
  8
LAYER_1
 10
52.9802
 20
374.6176
  0
SEQEND
  0
ENDBLK
  0
BLOCK
  8
LAYER_1
  2
AIGNBL0101018D
 70
64
 10
0
 20
0
 30
0
  3
AIGNBL0101018D
  0
POLYLINE
  8
LAYER_1
 40
0.2469
 41
0.2469
 62
4
 66
1
 10
0
 20
0
 30
0
  0
VERTEX
  8
LAYER_1
 10
52.9802
 20
358.6251
  0
VERTEX
  8
LAYER_1
 10
52.9802
 20
358.7404
  0
SEQEND
  0
ENDBLK
  0
BLOCK
  8
LAYER_1
  2
AIGNBL0101018E
 70
64
 10
0
 20
0
 30
0
  3
AIGNBL0101018E
  0
POLYLINE
  8
LAYER_1
 40
0.2469
 41
0.2469
 62
4
 66
1
 10
0
 20
0
 30
0
  0
VERTEX
  8
LAYER_1
 10
52.9802
 20
358.6251
 42
0.4142845994
  0
VERTEX
  8
LAYER_1
 10
53.0802
 20
358.5251
  0
SEQEND
  0
ENDBLK
  0
BLOCK
  8
LAYER_1
  2
AIGNBL0101018F
 70
64
 10
0
 20
0
 30
0
  3
AIGNBL0101018F
  0
POLYLINE
  8
LAYER_1
 40
0.2469
 41
0.2469
 62
4
 66
1
 10
0
 20
0
 30
0
  0
VERTEX
  8
LAYER_1
 10
88.9802
 20
358.6251
  0
VERTEX
  8
LAYER_1
 10
88.9802
 20
358.7404
  0
SEQEND
  0
ENDBLK
  0
BLOCK
  8
LAYER_1
  2
AIGNBL01010190
 70
64
 10
0
 20
0
 30
0
  3
AIGNBL01010190
  0
POLYLINE
  8
LAYER_1
 40
0.2469
 41
0.2469
 62
4
 66
1
 10
0
 20
0
 30
0
  0
VERTEX
  8
LAYER_1
 10
88.8802
 20
358.5251
 42
0.4144258852
  0
VERTEX
  8
LAYER_1
 10
88.9802
 20
358.6251
  0
SEQEND
  0
ENDBLK
  0
BLOCK
  8
LAYER_1
  2
AIGNBL01010191
 70
64
 10
0
 20
0
 30
0
  3
AIGNBL01010191
  0
POLYLINE
  8
LAYER_1
 40
0.2469
 41
0.2469
 62
4
 66
1
 10
0
 20
0
 30
0
  0
VERTEX
  8
LAYER_1
 10
53.0802
 20
358.5251
  0
VERTEX
  8
LAYER_1
 10
88.8802
 20
358.5251
  0
SEQEND
  0
ENDBLK
  0
BLOCK
  8
LAYER_1
  2
AIGNBL01010192
 70
64
 10
0
 20
0
 30
0
  3
AIGNBL01010192
  0
POLYLINE
  8
LAYER_1
 40
0.2469
 41
0.2469
 62
4
 66
1
 10
0
 20
0
 30
0
  0
VERTEX
  8
LAYER_1
 10
53.2719
 20
359.1601
 42
0.293287177
  0
VERTEX
  8
LAYER_1
 10
52.9802
 20
358.7055
  0
SEQEND
  0
ENDBLK
  0
BLOCK
  8
LAYER_1
  2
AIGNBL01010193
 70
64
 10
0
 20
0
 30
0
  3
AIGNBL01010193
  0
POLYLINE
  8
LAYER_1
 40
0.2469
 41
0.2469
 62
4
 66
1
 10
0
 20
0
 30
0
  0
VERTEX
  8
LAYER_1
 10
88.6886
 20
359.1601
 42
0.2182576287
  0
VERTEX
  8
LAYER_1
 10
53.2719
 20
359.1601
  0
SEQEND
  0
ENDBLK
  0
BLOCK
  8
LAYER_1
  2
AIGNBL01010194
 70
64
 10
0
 20
0
 30
0
  3
AIGNBL01010194
  0
POLYLINE
  8
LAYER_1
 40
0.2469
 41
0.2469
 62
4
 66
1
 10
0
 20
0
 30
0
  0
VERTEX
  8
LAYER_1
 10
88.9802
 20
358.7055
 42
0.2932616045
  0
VERTEX
  8
LAYER_1
 10
88.6886
 20
359.1601
  0
SEQEND
  0
ENDBLK
  0
BLOCK
  8
LAYER_1
  2
AIGNBL01010195
 70
64
 10
0
 20
0
 30
0
  3
AIGNBL01010195
  0
POLYLINE
  8
LAYER_1
 40
0.2469
 41
0.2469
 62
4
 66
1
 10
0
 20
0
 30
0
  0
VERTEX
  8
LAYER_1
 10
52.9802
 20
374.6176
  0
VERTEX
  8
LAYER_1
 10
54.4291
 20
375.0059
  0
SEQEND
  0
ENDBLK
  0
BLOCK
  8
LAYER_1
  2
AIGNBL01010196
 70
64
 10
0
 20
0
 30
0
  3
AIGNBL01010196
  0
POLYLINE
  8
LAYER_1
 40
0.2469
 41
0.2469
 62
4
 66
1
 10
0
 20
0
 30
0
  0
VERTEX
  8
LAYER_1
 10
52.9802
 20
374.6176
  0
VERTEX
  8
LAYER_1
 10
54.4291
 20
374.2294
  0
SEQEND
  0
ENDBLK
  0
BLOCK
  8
LAYER_1
  2
AIGNBL01010197
 70
64
 10
0
 20
0
 30
0
  3
AIGNBL01010197
  0
POLYLINE
  8
LAYER_1
 40
0.2469
 41
0.2469
 62
4
 66
1
 10
0
 20
0
 30
0
  0
VERTEX
  8
LAYER_1
 10
88.9802
 20
374.6176
  0
VERTEX
  8
LAYER_1
 10
87.5313
 20
374.2294
  0
SEQEND
  0
ENDBLK
  0
BLOCK
  8
LAYER_1
  2
AIGNBL01010198
 70
64
 10
0
 20
0
 30
0
  3
AIGNBL01010198
  0
POLYLINE
  8
LAYER_1
 40
0.2469
 41
0.2469
 62
4
 66
1
 10
0
 20
0
 30
0
  0
VERTEX
  8
LAYER_1
 10
88.9802
 20
374.6176
  0
VERTEX
  8
LAYER_1
 10
87.5313
 20
375.0059
  0
SEQEND
  0
ENDBLK
  0
BLOCK
  8
LAYER_1
  2
AIGNBL01010199
 70
64
 10
0
 20
0
 30
0
  3
AIGNBL01010199
  0
POLYLINE
  8
LAYER_1
 40
0.2469
 41
0.2469
 66
1
 10
0
 20
0
 30
0
  0
VERTEX
  8
LAYER_1
 10
52.9802
 20
359.6622
  0
VERTEX
  8
LAYER_1
 10
52.9802
 20
374.6176
  0
SEQEND
  0
ENDBLK
  0
BLOCK
  8
LAYER_1
  2
AIGNBL0101019A
 70
64
 10
0
 20
0
 30
0
  3
AIGNBL0101019A
  0
POLYLINE
  8
LAYER_1
 40
0.2469
 41
0.2469
 66
1
 10
0
 20
0
 30
0
  0
VERTEX
  8
LAYER_1
 10
88.9802
 20
359.6622
  0
VERTEX
  8
LAYER_1
 10
88.9802
 20
374.6176
  0
SEQEND
  0
ENDBLK
  0
BLOCK
  8
LAYER_1
  2
AIGNBL0101019B
 70
64
 10
0
 20
0
 30
0
  3
AIGNBL0101019B
  0
POLYLINE
  8
LAYER_1
 40
0.2469
 41
0.2469
 66
1
 10
0
 20
0
 30
0
  0
VERTEX
  8
LAYER_1
 10
40.9224
 20
354.0251
  0
VERTEX
  8
LAYER_1
 10
40.9224
 20
304.0251
  0
SEQEND
  0
ENDBLK
  0
BLOCK
  8
LAYER_1
  2
AIGNBL0101019C
 70
64
 10
0
 20
0
 30
0
  3
AIGNBL0101019C
  0
POLYLINE
  8
LAYER_1
 40
0.2469
 41
0.2469
 62
4
 66
1
 10
0
 20
0
 30
0
  0
VERTEX
  8
LAYER_1
 10
40.9224
 20
354.0251
  0
VERTEX
  8
LAYER_1
 10
41.3106
 20
352.5762
  0
SEQEND
  0
ENDBLK
  0
BLOCK
  8
LAYER_1
  2
AIGNBL0101019D
 70
64
 10
0
 20
0
 30
0
  3
AIGNBL0101019D
  0
POLYLINE
  8
LAYER_1
 40
0.2469
 41
0.2469
 62
4
 66
1
 10
0
 20
0
 30
0
  0
VERTEX
  8
LAYER_1
 10
40.9224
 20
354.0251
  0
VERTEX
  8
LAYER_1
 10
40.5342
 20
352.5762
  0
SEQEND
  0
ENDBLK
  0
BLOCK
  8
LAYER_1
  2
AIGNBL0101019E
 70
64
 10
0
 20
0
 30
0
  3
AIGNBL0101019E
  0
POLYLINE
  8
LAYER_1
 40
0.2469
 41
0.2469
 62
4
 66
1
 10
0
 20
0
 30
0
  0
VERTEX
  8
LAYER_1
 10
40.9224
 20
304.0251
  0
VERTEX
  8
LAYER_1
 10
40.5342
 20
305.4739
  0
SEQEND
  0
ENDBLK
  0
BLOCK
  8
LAYER_1
  2
AIGNBL0101019F
 70
64
 10
0
 20
0
 30
0
  3
AIGNBL0101019F
  0
POLYLINE
  8
LAYER_1
 40
0.2469
 41
0.2469
 62
4
 66
1
 10
0
 20
0
 30
0
  0
VERTEX
  8
LAYER_1
 10
40.9224
 20
304.0251
  0
VERTEX
  8
LAYER_1
 10
41.3106
 20
305.4739
  0
SEQEND
  0
ENDBLK
  0
BLOCK
  8
LAYER_1
  2
AIGNBL010101A0
 70
64
 10
0
 20
0
 30
0
  3
AIGNBL010101A0
  0
POLYLINE
  8
LAYER_1
 40
0.2469
 41
0.2469
 66
1
 10
0
 20
0
 30
0
  0
VERTEX
  8
LAYER_1
 10
40.9224
 20
304.0251
  0
VERTEX
  8
LAYER_1
 10
55.6052
 20
304.0251
  0
SEQEND
  0
ENDBLK
  0
BLOCK
  8
LAYER_1
  2
AIGNBL010101A1
 70
64
 10
0
 20
0
 30
0
  3
AIGNBL010101A1
  0
POLYLINE
  8
LAYER_1
 40
0.2469
 41
0.2469
 62
4
 66
1
 10
0
 20
0
 30
0
  0
VERTEX
  8
LAYER_1
 10
60.9649
 20
304.0251
  0
VERTEX
  8
LAYER_1
 10
60.9649
 20
303.5251
  0
SEQEND
  0
ENDBLK
  0
BLOCK
  8
LAYER_1
  2
AIGNBL010101A2
 70
64
 10
0
 20
0
 30
0
  3
AIGNBL010101A2
  0
POLYLINE
  8
LAYER_1
 40
0.2469
 41
0.2469
 62
4
 66
1
 10
0
 20
0
 30
0
  0
VERTEX
  8
LAYER_1
 10
60.9649
 20
304.0251
  0
VERTEX
  8
LAYER_1
 10
81.1133
 20
304.0251
  0
SEQEND
  0
ENDBLK
  0
BLOCK
  8
LAYER_1
  2
AIGNBL010101A3
 70
64
 10
0
 20
0
 30
0
  3
AIGNBL010101A3
  0
POLYLINE
  8
LAYER_1
 40
0.2469
 41
0.2469
 66
1
 10
0
 20
0
 30
0
  0
VERTEX
  8
LAYER_1
 10
46.5153
 20
353.5251
  0
VERTEX
  8
LAYER_1
 10
46.5153
 20
321.0251
  0
SEQEND
  0
ENDBLK
  0
BLOCK
  8
LAYER_1
  2
AIGNBL010101A4
 70
64
 10
0
 20
0
 30
0
  3
AIGNBL010101A4
  0
POLYLINE
  8
LAYER_1
 40
0.2469
 41
0.2469
 62
4
 66
1
 10
0
 20
0
 30
0
  0
VERTEX
  8
LAYER_1
 10
46.5153
 20
353.5251
  0
VERTEX
  8
LAYER_1
 10
46.9035
 20
352.0762
  0
SEQEND
  0
ENDBLK
  0
BLOCK
  8
LAYER_1
  2
AIGNBL010101A5
 70
64
 10
0
 20
0
 30
0
  3
AIGNBL010101A5
  0
POLYLINE
  8
LAYER_1
 40
0.2469
 41
0.2469
 62
4
 66
1
 10
0
 20
0
 30
0
  0
VERTEX
  8
LAYER_1
 10
46.5153
 20
353.5251
  0
VERTEX
  8
LAYER_1
 10
46.1271
 20
352.0762
  0
SEQEND
  0
ENDBLK
  0
BLOCK
  8
LAYER_1
  2
AIGNBL010101A6
 70
64
 10
0
 20
0
 30
0
  3
AIGNBL010101A6
  0
POLYLINE
  8
LAYER_1
 40
0.2469
 41
0.2469
 62
4
 66
1
 10
0
 20
0
 30
0
  0
VERTEX
  8
LAYER_1
 10
46.5153
 20
321.0251
  0
VERTEX
  8
LAYER_1
 10
46.1271
 20
322.4739
  0
SEQEND
  0
ENDBLK
  0
BLOCK
  8
LAYER_1
  2
AIGNBL010101A7
 70
64
 10
0
 20
0
 30
0
  3
AIGNBL010101A7
  0
POLYLINE
  8
LAYER_1
 40
0.2469
 41
0.2469
 62
4
 66
1
 10
0
 20
0
 30
0
  0
VERTEX
  8
LAYER_1
 10
46.5153
 20
321.0251
  0
VERTEX
  8
LAYER_1
 10
46.9035
 20
322.4739
  0
SEQEND
  0
ENDBLK
  0
BLOCK
  8
LAYER_1
  2
AIGNBL010101A8
 70
64
 10
0
 20
0
 30
0
  3
AIGNBL010101A8
  0
POLYLINE
  8
LAYER_1
 40
0.2469
 41
0.2469
 66
1
 10
0
 20
0
 30
0
  0
VERTEX
  8
LAYER_1
 10
46.5153
 20
321.0251
  0
VERTEX
  8
LAYER_1
 10
55.6052
 20
321.0251
  0
SEQEND
  0
ENDBLK
  0
BLOCK
  8
LAYER_1
  2
AIGNBL010101A9
 70
64
 10
0
 20
0
 30
0
  3
AIGNBL010101A9
  0
TEXT
  8
LAYER_1
 10
40.0133
 20
293.3843
 11
40.0133
 21
293.3843
 40
3.4404
 41
0.5
  1
JORGERÉ╗ örÉàïÓï´ âNâìü[âÇâüâbâL100å@
  0
ENDBLK
  0
BLOCK
  8
LAYER_1
  2
AIGNBL010101AA
 70
64
 10
0
 20
0
 30
0
  3
AIGNBL010101AA
  0
POLYLINE
  8
LAYER_1
 40
0.2469
 41
0.2469
 66
1
 10
0
 20
0
 30
0
  0
VERTEX
  8
LAYER_1
 10
39.2631
 20
296.2475
  0
VERTEX
  8
LAYER_1
 10
96.2049
 20
296.2475
  0
SEQEND
  0
ENDBLK
  0
BLOCK
  8
LAYER_1
  2
AIGNBL010101AB
 70
64
 10
0
 20
0
 30
0
  3
AIGNBL010101AB
  0
POLYLINE
  8
LAYER_1
 40
0.2469
 41
0.2469
 66
1
 10
0
 20
0
 30
0
  0
VERTEX
  8
LAYER_1
 10
96.2049
 20
292.7475
  0
VERTEX
  8
LAYER_1
 10
96.2049
 20
296.2475
  0
SEQEND
  0
ENDBLK
  0
BLOCK
  8
LAYER_1
  2
AIGNBL010101AC
 70
64
 10
0
 20
0
 30
0
  3
AIGNBL010101AC
  0
POLYLINE
  8
LAYER_1
 40
0.2469
 41
0.2469
 66
1
 10
0
 20
0
 30
0
  0
VERTEX
  8
LAYER_1
 10
39.2631
 20
292.7475
  0
VERTEX
  8
LAYER_1
 10
96.2049
 20
292.7475
  0
SEQEND
  0
ENDBLK
  0
BLOCK
  8
LAYER_1
  2
AIGNBL010101AD
 70
64
 10
0
 20
0
 30
0
  3
AIGNBL010101AD
  0
POLYLINE
  8
LAYER_1
 40
0.2469
 41
0.2469
 66
1
 10
0
 20
0
 30
0
  0
VERTEX
  8
LAYER_1
 10
39.2631
 20
296.2475
  0
VERTEX
  8
LAYER_1
 10
39.2631
 20
292.7475
  0
SEQEND
  0
ENDBLK
  0
BLOCK
  8
LAYER_1
  2
AIGNBL010101AE
 70
64
 10
0
 20
0
 30
0
  3
AIGNBL010101AE
  0
POLYLINE
  8
LAYER_1
 40
0.2469
 41
0.2469
 62
4
 66
1
 10
0
 20
0
 30
0
  0
VERTEX
  8
LAYER_1
 10
54.9802
 20
354.0251
 42
0.4141286889
  0
VERTEX
  8
LAYER_1
 10
54.7302
 20
353.7751
 42
0.4142419941
  0
VERTEX
  8
LAYER_1
 10
54.9802
 20
353.5251
  0
SEQEND
  0
ENDBLK
  0
BLOCK
  8
LAYER_1
  2
AIGNBL010101AF
 70
64
 10
0
 20
0
 30
0
  3
AIGNBL010101AF
  0
POLYLINE
  8
LAYER_1
 40
0.2469
 41
0.2469
 62
4
 66
1
 10
0
 20
0
 30
0
  0
VERTEX
  8
LAYER_1
 10
54.9802
 20
353.5251
  0
VERTEX
  8
LAYER_1
 10
60.6052
 20
352.0251
  0
SEQEND
  0
ENDBLK
  0
BLOCK
  8
LAYER_1
  2
AIGNBL010101B0
 70
64
 10
0
 20
0
 30
0
  3
AIGNBL010101B0
  0
POLYLINE
  8
LAYER_1
 40
0.2469
 41
0.2469
 62
4
 66
1
 10
0
 20
0
 30
0
  0
VERTEX
  8
LAYER_1
 10
86.9802
 20
353.5251
  0
VERTEX
  8
LAYER_1
 10
81.3552
 20
352.0251
  0
SEQEND
  0
ENDBLK
  0
BLOCK
  8
LAYER_1
  2
AIGNBL010101B1
 70
64
 10
0
 20
0
 30
0
  3
AIGNBL010101B1
  0
POLYLINE
  8
LAYER_1
 40
0.2469
 41
0.2469
 62
4
 66
1
 10
0
 20
0
 30
0
  0
VERTEX
  8
LAYER_1
 10
54.9802
 20
354.0251
  0
VERTEX
  8
LAYER_1
 10
86.9802
 20
354.0251
  0
SEQEND
  0
ENDBLK
  0
BLOCK
  8
LAYER_1
  2
AIGNBL010101B2
 70
64
 10
0
 20
0
 30
0
  3
AIGNBL010101B2
  0
POLYLINE
  8
LAYER_1
 40
0.2469
 41
0.2469
 62
4
 66
1
 10
0
 20
0
 30
0
  0
VERTEX
  8
LAYER_1
 10
54.9802
 20
353.5251
  0
VERTEX
  8
LAYER_1
 10
86.9802
 20
353.5251
  0
SEQEND
  0
ENDBLK
  0
BLOCK
  8
LAYER_1
  2
AIGNBL010101B3
 70
64
 10
0
 20
0
 30
0
  3
AIGNBL010101B3
  0
POLYLINE
  8
LAYER_1
 40
0.2469
 41
0.2469
 62
4
 66
1
 10
0
 20
0
 30
0
  0
VERTEX
  8
LAYER_1
 10
86.9802
 20
353.5251
 42
0.4142984721
  0
VERTEX
  8
LAYER_1
 10
87.2302
 20
353.7751
 42
0.4141851189
  0
VERTEX
  8
LAYER_1
 10
86.9802
 20
354.0251
  0
SEQEND
  0
ENDBLK
  0
BLOCK
  8
LAYER_1
  2
AIGNBL010101B4
 70
64
 10
0
 20
0
 30
0
  3
AIGNBL010101B4
  0
POLYLINE
  8
LAYER_1
 40
0.2469
 41
0.2469
 66
1
 10
0
 20
0
 30
0
  0
VERTEX
  8
LAYER_1
 10
40.9224
 20
354.0251
  0
VERTEX
  8
LAYER_1
 10
54.9802
 20
354.0251
  0
SEQEND
  0
ENDBLK
  0
BLOCK
  8
LAYER_1
  2
AIGNBL010101B5
 70
64
 10
0
 20
0
 30
0
  3
AIGNBL010101B5
  0
POLYLINE
  8
LAYER_1
 40
0.2469
 41
0.2469
 66
1
 10
0
 20
0
 30
0
  0
VERTEX
  8
LAYER_1
 10
46.5153
 20
353.5251
  0
VERTEX
  8
LAYER_1
 10
54.9802
 20
353.5251
  0
SEQEND
  0
ENDBLK
  0
BLOCK
  8
LAYER_1
  2
AIGNBL010101B6
 70
64
 10
0
 20
0
 30
0
  3
AIGNBL010101B6
  0
POLYLINE
  8
LAYER_1
  6
AIGENLINE001
 40
0.2469
 41
0.2469
 66
1
 10
0
 20
0
 30
0
 70
128
  0
VERTEX
  8
LAYER_1
 10
70.9802
 20
371.6708
  0
VERTEX
  8
LAYER_1
 10
70.9802
 20
297.9282
  0
SEQEND
  0
ENDBLK
  0
BLOCK
  8
LAYER_1
  2
AIGNBL010101B7
 70
64
 10
0
 20
0
 30
0
  3
AIGNBL010101B7
  0
POLYLINE
  8
LAYER_1
 40
0.2469
 41
0.2469
 66
1
 10
0
 20
0
 30
0
  0
VERTEX
  8
LAYER_1
 10
140.9702
 20
275.132
  0
VERTEX
  8
LAYER_1
 10
118.4702
 20
275.132
  0
SEQEND
  0
ENDBLK
  0
BLOCK
  8
LAYER_1
  2
AIGNBL010101B8
 70
64
 10
0
 20
0
 30
0
  3
AIGNBL010101B8
  0
POLYLINE
  8
LAYER_1
 40
0.2469
 41
0.2469
 66
1
 10
0
 20
0
 30
0
  0
VERTEX
  8
LAYER_1
 10
118.4702
 20
275.132
  0
VERTEX
  8
LAYER_1
 10
118.4702
 20
271.632
  0
SEQEND
  0
ENDBLK
  0
BLOCK
  8
LAYER_1
  2
AIGNBL010101B9
 70
64
 10
0
 20
0
 30
0
  3
AIGNBL010101B9
  0
POLYLINE
  8
LAYER_1
 40
0.2469
 41
0.2469
 66
1
 10
0
 20
0
 30
0
  0
VERTEX
  8
LAYER_1
 10
118.4702
 20
271.632
  0
VERTEX
  8
LAYER_1
 10
140.9702
 20
271.632
  0
SEQEND
  0
ENDBLK
  0
BLOCK
  8
LAYER_1
  2
AIGNBL010101BA
 70
64
 10
0
 20
0
 30
0
  3
AIGNBL010101BA
  0
POLYLINE
  8
LAYER_1
 40
0.2469
 41
0.2469
 66
1
 10
0
 20
0
 30
0
  0
VERTEX
  8
LAYER_1
 10
140.9702
 20
271.632
  0
VERTEX
  8
LAYER_1
 10
140.9702
 20
275.132
  0
SEQEND
  0
ENDBLK
  0
BLOCK
  8
LAYER_1
  2
AIGNBL010101BB
 70
64
 10
0
 20
0
 30
0
  3
AIGNBL010101BB
  0
CIRCLE
  8
LAYER_1
 62
4
 10
129.7202
 20
294.1123
 40
15
  0
ENDBLK
  0
BLOCK
  8
LAYER_1
  2
AIGNBL010101BC
 70
64
 10
0
 20
0
 30
0
  3
AIGNBL010101BC
  0
CIRCLE
  8
LAYER_1
 62
4
 10
129.7202
 20
294.1123
 40
10
  0
ENDBLK
  0
BLOCK
  8
LAYER_1
  2
AIGNBL010101BD
 70
64
 10
0
 20
0
 30
0
  3
AIGNBL010101BD
  0
CIRCLE
  8
LAYER_1
 10
129.7202
 20
294.1123
 40
10.5
  0
ENDBLK
  0
BLOCK
  8
LAYER_1
  2
AIGNBL010101BE
 70
64
 10
0
 20
0
 30
0
  3
AIGNBL010101BE
  0
POLYLINE
  8
LAYER_1
 40
0.2469
 41
0.2469
 62
4
 66
1
 10
0
 20
0
 30
0
  0
VERTEX
  8
LAYER_1
 10
140.9702
 20
333.4264
  0
VERTEX
  8
LAYER_1
 10
118.4702
 20
333.4264
  0
SEQEND
  0
ENDBLK
  0
BLOCK
  8
LAYER_1
  2
AIGNBL010101BF
 70
64
 10
0
 20
0
 30
0
  3
AIGNBL010101BF
  0
POLYLINE
  8
LAYER_1
 40
0.2469
 41
0.2469
 62
4
 66
1
 10
0
 20
0
 30
0
  0
VERTEX
  8
LAYER_1
 10
118.4702
 20
333.4264
  0
VERTEX
  8
LAYER_1
 10
118.4702
 20
329.9264
  0
SEQEND
  0
ENDBLK
  0
BLOCK
  8
LAYER_1
  2
AIGNBL010101C0
 70
64
 10
0
 20
0
 30
0
  3
AIGNBL010101C0
  0
POLYLINE
  8
LAYER_1
 40
0.2469
 41
0.2469
 62
4
 66
1
 10
0
 20
0
 30
0
  0
VERTEX
  8
LAYER_1
 10
118.4702
 20
329.9264
  0
VERTEX
  8
LAYER_1
 10
140.9702
 20
329.9264
  0
SEQEND
  0
ENDBLK
  0
BLOCK
  8
LAYER_1
  2
AIGNBL010101C1
 70
64
 10
0
 20
0
 30
0
  3
AIGNBL010101C1
  0
POLYLINE
  8
LAYER_1
 40
0.2469
 41
0.2469
 62
4
 66
1
 10
0
 20
0
 30
0
  0
VERTEX
  8
LAYER_1
 10
140.9702
 20
329.9264
  0
VERTEX
  8
LAYER_1
 10
140.9702
 20
333.4264
  0
SEQEND
  0
ENDBLK
  0
BLOCK
  8
LAYER_1
  2
AIGNBL010101C2
 70
64
 10
0
 20
0
 30
0
  3
AIGNBL010101C2
  0
CIRCLE
  8
LAYER_1
 62
4
 10
129.7202
 20
352.4067
 40
15.5
  0
ENDBLK
  0
BLOCK
  8
LAYER_1
  2
AIGNBL010101C3
 70
64
 10
0
 20
0
 30
0
  3
AIGNBL010101C3
  0
CIRCLE
  8
LAYER_1
 10
129.7202
 20
352.4067
 40
14
  0
ENDBLK
  0
BLOCK
  8
LAYER_1
  2
AIGNBL010101C4
 70
64
 10
0
 20
0
 30
0
  3
AIGNBL010101C4
  0
POLYLINE
  8
LAYER_1
 40
0.2469
 41
0.2469
 62
4
 66
1
 10
0
 20
0
 30
0
  0
VERTEX
  8
LAYER_1
 10
137.6547
 20
345.1538
  0
VERTEX
  8
LAYER_1
 10
137.2089
 20
345.4112
  0
SEQEND
  0
ENDBLK
  0
BLOCK
  8
LAYER_1
  2
AIGNBL010101C5
 70
64
 10
0
 20
0
 30
0
  3
AIGNBL010101C5
  0
POLYLINE
  8
LAYER_1
 40
0.2469
 41
0.2469
 62
4
 66
1
 10
0
 20
0
 30
0
  0
VERTEX
  8
LAYER_1
 10
136.9731
 20
344.4721
  0
VERTEX
  8
LAYER_1
 10
136.7157
 20
344.9179
  0
SEQEND
  0
ENDBLK
  0
BLOCK
  8
LAYER_1
  2
AIGNBL010101C6
 70
64
 10
0
 20
0
 30
0
  3
AIGNBL010101C6
  0
POLYLINE
  8
LAYER_1
 40
0.2469
 41
0.2469
 62
4
 66
1
 10
0
 20
0
 30
0
  0
VERTEX
  8
LAYER_1
 10
137.2089
 20
345.4112
 42
0.09877480905
  0
VERTEX
  8
LAYER_1
 10
136.7157
 20
344.9179
  0
SEQEND
  0
ENDBLK
  0
BLOCK
  8
LAYER_1
  2
AIGNBL010101C7
 70
64
 10
0
 20
0
 30
0
  3
AIGNBL010101C7
  0
POLYLINE
  8
LAYER_1
 40
0.2469
 41
0.2469
 62
4
 66
1
 10
0
 20
0
 30
0
  0
VERTEX
  8
LAYER_1
 10
122.4672
 20
360.3413
  0
VERTEX
  8
LAYER_1
 10
122.7246
 20
359.8955
  0
SEQEND
  0
ENDBLK
  0
BLOCK
  8
LAYER_1
  2
AIGNBL010101C8
 70
64
 10
0
 20
0
 30
0
  3
AIGNBL010101C8
  0
POLYLINE
  8
LAYER_1
 40
0.2469
 41
0.2469
 62
4
 66
1
 10
0
 20
0
 30
0
  0
VERTEX
  8
LAYER_1
 10
121.7856
 20
359.6596
  0
VERTEX
  8
LAYER_1
 10
122.2314
 20
359.4022
  0
SEQEND
  0
ENDBLK
  0
BLOCK
  8
LAYER_1
  2
AIGNBL010101C9
 70
64
 10
0
 20
0
 30
0
  3
AIGNBL010101C9
  0
POLYLINE
  8
LAYER_1
 40
0.2469
 41
0.2469
 62
4
 66
1
 10
0
 20
0
 30
0
  0
VERTEX
  8
LAYER_1
 10
122.2314
 20
359.4022
 42
0.09877629604
  0
VERTEX
  8
LAYER_1
 10
122.7246
 20
359.8955
  0
SEQEND
  0
ENDBLK
  0
BLOCK
  8
LAYER_1
  2
AIGNBL010101CA
 70
64
 10
0
 20
0
 30
0
  3
AIGNBL010101CA
  0
POLYLINE
  8
LAYER_1
 40
0.2469
 41
0.2469
 62
4
 66
1
 10
0
 20
0
 30
0
  0
VERTEX
  8
LAYER_1
 10
122.4672
 20
344.4721
  0
VERTEX
  8
LAYER_1
 10
122.7246
 20
344.9179
  0
SEQEND
  0
ENDBLK
  0
BLOCK
  8
LAYER_1
  2
AIGNBL010101CB
 70
64
 10
0
 20
0
 30
0
  3
AIGNBL010101CB
  0
POLYLINE
  8
LAYER_1
 40
0.2469
 41
0.2469
 62
4
 66
1
 10
0
 20
0
 30
0
  0
VERTEX
  8
LAYER_1
 10
121.7856
 20
345.1538
  0
VERTEX
  8
LAYER_1
 10
122.2314
 20
345.4112
  0
SEQEND
  0
ENDBLK
  0
BLOCK
  8
LAYER_1
  2
AIGNBL010101CC
 70
64
 10
0
 20
0
 30
0
  3
AIGNBL010101CC
  0
POLYLINE
  8
LAYER_1
 40
0.2469
 41
0.2469
 62
4
 66
1
 10
0
 20
0
 30
0
  0
VERTEX
  8
LAYER_1
 10
122.7246
 20
344.9179
 42
0.09877578649
  0
VERTEX
  8
LAYER_1
 10
122.2314
 20
345.4112
  0
SEQEND
  0
ENDBLK
  0
BLOCK
  8
LAYER_1
  2
AIGNBL010101CD
 70
64
 10
0
 20
0
 30
0
  3
AIGNBL010101CD
  0
POLYLINE
  8
LAYER_1
 40
0.2469
 41
0.2469
 62
4
 66
1
 10
0
 20
0
 30
0
  0
VERTEX
  8
LAYER_1
 10
137.6547
 20
359.6596
  0
VERTEX
  8
LAYER_1
 10
137.2089
 20
359.4022
  0
SEQEND
  0
ENDBLK
  0
BLOCK
  8
LAYER_1
  2
AIGNBL010101CE
 70
64
 10
0
 20
0
 30
0
  3
AIGNBL010101CE
  0
POLYLINE
  8
LAYER_1
 40
0.2469
 41
0.2469
 62
4
 66
1
 10
0
 20
0
 30
0
  0
VERTEX
  8
LAYER_1
 10
136.9731
 20
360.3413
  0
VERTEX
  8
LAYER_1
 10
136.7157
 20
359.8955
  0
SEQEND
  0
ENDBLK
  0
BLOCK
  8
LAYER_1
  2
AIGNBL010101CF
 70
64
 10
0
 20
0
 30
0
  3
AIGNBL010101CF
  0
POLYLINE
  8
LAYER_1
 40
0.2469
 41
0.2469
 62
4
 66
1
 10
0
 20
0
 30
0
  0
VERTEX
  8
LAYER_1
 10
136.7157
 20
359.8955
 42
0.09877531858
  0
VERTEX
  8
LAYER_1
 10
137.2089
 20
359.4022
  0
SEQEND
  0
ENDBLK
  0
BLOCK
  8
LAYER_1
  2
AIGNBL010101D0
 70
64
 10
0
 20
0
 30
0
  3
AIGNBL010101D0
  0
POLYLINE
  8
LAYER_1
 40
0.2469
 41
0.2469
 62
4
 66
1
 10
0
 20
0
 30
0
  0
VERTEX
  8
LAYER_1
 10
122.4672
 20
344.4721
 42
0.3881775609
  0
VERTEX
  8
LAYER_1
 10
136.9731
 20
344.4721
  0
SEQEND
  0
ENDBLK
  0
BLOCK
  8
LAYER_1
  2
AIGNBL010101D1
 70
64
 10
0
 20
0
 30
0
  3
AIGNBL010101D1
  0
POLYLINE
  8
LAYER_1
 40
0.2469
 41
0.2469
 62
4
 66
1
 10
0
 20
0
 30
0
  0
VERTEX
  8
LAYER_1
 10
137.6547
 20
345.1538
 42
0.388177607
  0
VERTEX
  8
LAYER_1
 10
137.6547
 20
359.6596
  0
SEQEND
  0
ENDBLK
  0
BLOCK
  8
LAYER_1
  2
AIGNBL010101D2
 70
64
 10
0
 20
0
 30
0
  3
AIGNBL010101D2
  0
POLYLINE
  8
LAYER_1
 40
0.2469
 41
0.2469
 62
4
 66
1
 10
0
 20
0
 30
0
  0
VERTEX
  8
LAYER_1
 10
121.7856
 20
359.6596
 42
0.3881767062
  0
VERTEX
  8
LAYER_1
 10
121.7856
 20
345.1538
  0
SEQEND
  0
ENDBLK
  0
BLOCK
  8
LAYER_1
  2
AIGNBL010101D3
 70
64
 10
0
 20
0
 30
0
  3
AIGNBL010101D3
  0
POLYLINE
  8
LAYER_1
 40
0.2469
 41
0.2469
 62
4
 66
1
 10
0
 20
0
 30
0
  0
VERTEX
  8
LAYER_1
 10
136.9731
 20
360.3413
 42
0.3881770914
  0
VERTEX
  8
LAYER_1
 10
122.4672
 20
360.3413
  0
SEQEND
  0
ENDBLK
  0
BLOCK
  8
LAYER_1
  2
AIGNBL010101D4
 70
64
 10
0
 20
0
 30
0
  3
AIGNBL010101D4
  0
POLYLINE
  8
LAYER_1
 40
0.2469
 41
0.2469
 66
1
 10
0
 20
0
 30
0
  0
VERTEX
  8
LAYER_1
 10
129.7202
 20
371.913
  0
VERTEX
  8
LAYER_1
 10
129.7202
 20
373.7039
  0
SEQEND
  0
ENDBLK
  0
BLOCK
  8
LAYER_1
  2
AIGNBL010101D5
 70
64
 10
0
 20
0
 30
0
  3
AIGNBL010101D5
  0
POLYLINE
  8
LAYER_1
 40
0.2469
 41
0.2469
 62
4
 66
1
 10
0
 20
0
 30
0
  0
VERTEX
  8
LAYER_1
 10
114.2202
 20
373.413
  0
VERTEX
  8
LAYER_1
 10
145.2202
 20
373.413
  0
SEQEND
  0
ENDBLK
  0
BLOCK
  8
LAYER_1
  2
AIGNBL010101D6
 70
64
 10
0
 20
0
 30
0
  3
AIGNBL010101D6
  0
POLYLINE
  8
LAYER_1
 40
0.2469
 41
0.2469
 62
4
 66
1
 10
0
 20
0
 30
0
  0
VERTEX
  8
LAYER_1
 10
114.2202
 20
374.6788
  0
VERTEX
  8
LAYER_1
 10
114.2202
 20
373.413
  0
SEQEND
  0
ENDBLK
  0
BLOCK
  8
LAYER_1
  2
AIGNBL010101D7
 70
64
 10
0
 20
0
 30
0
  3
AIGNBL010101D7
  0
POLYLINE
  8
LAYER_1
 40
0.2469
 41
0.2469
 62
4
 66
1
 10
0
 20
0
 30
0
  0
VERTEX
  8
LAYER_1
 10
114.4001
 20
375.0629
 42
0.2225981994
  0
VERTEX
  8
LAYER_1
 10
114.2202
 20
374.6788
  0
SEQEND
  0
ENDBLK
  0
BLOCK
  8
LAYER_1
  2
AIGNBL010101D8
 70
64
 10
0
 20
0
 30
0
  3
AIGNBL010101D8
  0
POLYLINE
  8
LAYER_1
 40
0.2469
 41
0.2469
 62
4
 66
1
 10
0
 20
0
 30
0
  0
VERTEX
  8
LAYER_1
 10
145.2202
 20
374.6788
  0
VERTEX
  8
LAYER_1
 10
145.2202
 20
373.413
  0
SEQEND
  0
ENDBLK
  0
BLOCK
  8
LAYER_1
  2
AIGNBL010101D9
 70
64
 10
0
 20
0
 30
0
  3
AIGNBL010101D9
  0
POLYLINE
  8
LAYER_1
 40
0.2469
 41
0.2469
 62
4
 66
1
 10
0
 20
0
 30
0
  0
VERTEX
  8
LAYER_1
 10
143.8592
 20
376.0471
 42
0.1754678988
  0
VERTEX
  8
LAYER_1
 10
143.5391
 20
376.163
  0
SEQEND
  0
ENDBLK
  0
BLOCK
  8
LAYER_1
  2
AIGNBL010101DA
 70
64
 10
0
 20
0
 30
0
  3
AIGNBL010101DA
  0
POLYLINE
  8
LAYER_1
 40
0.2469
 41
0.2469
 62
4
 66
1
 10
0
 20
0
 30
0
  0
VERTEX
  8
LAYER_1
 10
145.0403
 20
375.0629
  0
VERTEX
  8
LAYER_1
 10
143.8592
 20
376.0471
  0
SEQEND
  0
ENDBLK
  0
BLOCK
  8
LAYER_1
  2
AIGNBL010101DB
 70
64
 10
0
 20
0
 30
0
  3
AIGNBL010101DB
  0
POLYLINE
  8
LAYER_1
 40
0.2469
 41
0.2469
 62
4
 66
1
 10
0
 20
0
 30
0
  0
VERTEX
  8
LAYER_1
 10
145.2202
 20
374.6788
 42
0.222567942
  0
VERTEX
  8
LAYER_1
 10
145.0403
 20
375.0629
  0
SEQEND
  0
ENDBLK
  0
BLOCK
  8
LAYER_1
  2
AIGNBL010101DC
 70
64
 10
0
 20
0
 30
0
  3
AIGNBL010101DC
  0
POLYLINE
  8
LAYER_1
 40
0.2469
 41
0.2469
 62
4
 66
1
 10
0
 20
0
 30
0
  0
VERTEX
  8
LAYER_1
 10
114.4001
 20
375.0629
  0
VERTEX
  8
LAYER_1
 10
115.5811
 20
376.0471
  0
SEQEND
  0
ENDBLK
  0
BLOCK
  8
LAYER_1
  2
AIGNBL010101DD
 70
64
 10
0
 20
0
 30
0
  3
AIGNBL010101DD
  0
POLYLINE
  8
LAYER_1
 40
0.2469
 41
0.2469
 62
4
 66
1
 10
0
 20
0
 30
0
  0
VERTEX
  8
LAYER_1
 10
143.5391
 20
376.163
  0
VERTEX
  8
LAYER_1
 10
115.9012
 20
376.163
  0
SEQEND
  0
ENDBLK
  0
BLOCK
  8
LAYER_1
  2
AIGNBL010101DE
 70
64
 10
0
 20
0
 30
0
  3
AIGNBL010101DE
  0
POLYLINE
  8
LAYER_1
 40
0.2469
 41
0.2469
 62
4
 66
1
 10
0
 20
0
 30
0
  0
VERTEX
  8
LAYER_1
 10
115.9012
 20
376.163
 42
0.1754649184
  0
VERTEX
  8
LAYER_1
 10
115.5811
 20
376.0471
  0
SEQEND
  0
ENDBLK
  0
BLOCK
  8
LAYER_1
  2
AIGNBL010101DF
 70
64
 10
0
 20
0
 30
0
  3
AIGNBL010101DF
  0
POLYLINE
  8
LAYER_1
  6
AIGENLINE003
 40
0.2469
 41
0.2469
 66
1
 10
0
 20
0
 30
0
 70
128
  0
VERTEX
  8
LAYER_1
 10
118.9702
 20
373.413
  0
VERTEX
  8
LAYER_1
 10
118.9702
 20
376.163
  0
SEQEND
  0
ENDBLK
  0
BLOCK
  8
LAYER_1
  2
AIGNBL010101E0
 70
64
 10
0
 20
0
 30
0
  3
AIGNBL010101E0
  0
POLYLINE
  8
LAYER_1
  6
AIGENLINE003
 40
0.2469
 41
0.2469
 66
1
 10
0
 20
0
 30
0
 70
128
  0
VERTEX
  8
LAYER_1
 10
140.4702
 20
373.413
  0
VERTEX
  8
LAYER_1
 10
140.4702
 20
376.163
  0
SEQEND
  0
ENDBLK
  0
BLOCK
  8
LAYER_1
  2
AIGNBL010101E1
 70
64
 10
0
 20
0
 30
0
  3
AIGNBL010101E1
  0
POLYLINE
  8
LAYER_1
 40
0.2469
 41
0.2469
 66
1
 10
0
 20
0
 30
0
  0
VERTEX
  8
LAYER_1
 10
145.2202
 20
383.663
  0
VERTEX
  8
LAYER_1
 10
114.2202
 20
383.663
  0
SEQEND
  0
ENDBLK
  0
BLOCK
  8
LAYER_1
  2
AIGNBL010101E2
 70
64
 10
0
 20
0
 30
0
  3
AIGNBL010101E2
  0
POLYLINE
  8
LAYER_1
 40
0.2469
 41
0.2469
 62
4
 66
1
 10
0
 20
0
 30
0
  0
VERTEX
  8
LAYER_1
 10
145.2202
 20
383.663
  0
VERTEX
  8
LAYER_1
 10
143.7713
 20
383.2748
  0
SEQEND
  0
ENDBLK
  0
BLOCK
  8
LAYER_1
  2
AIGNBL010101E3
 70
64
 10
0
 20
0
 30
0
  3
AIGNBL010101E3
  0
POLYLINE
  8
LAYER_1
 40
0.2469
 41
0.2469
 62
4
 66
1
 10
0
 20
0
 30
0
  0
VERTEX
  8
LAYER_1
 10
145.2202
 20
383.663
  0
VERTEX
  8
LAYER_1
 10
143.7713
 20
384.0512
  0
SEQEND
  0
ENDBLK
  0
BLOCK
  8
LAYER_1
  2
AIGNBL010101E4
 70
64
 10
0
 20
0
 30
0
  3
AIGNBL010101E4
  0
POLYLINE
  8
LAYER_1
 40
0.2469
 41
0.2469
 62
4
 66
1
 10
0
 20
0
 30
0
  0
VERTEX
  8
LAYER_1
 10
114.2202
 20
383.663
  0
VERTEX
  8
LAYER_1
 10
115.6691
 20
384.0512
  0
SEQEND
  0
ENDBLK
  0
BLOCK
  8
LAYER_1
  2
AIGNBL010101E5
 70
64
 10
0
 20
0
 30
0
  3
AIGNBL010101E5
  0
POLYLINE
  8
LAYER_1
 40
0.2469
 41
0.2469
 62
4
 66
1
 10
0
 20
0
 30
0
  0
VERTEX
  8
LAYER_1
 10
114.2202
 20
383.663
  0
VERTEX
  8
LAYER_1
 10
115.6691
 20
383.2748
  0
SEQEND
  0
ENDBLK
  0
BLOCK
  8
LAYER_1
  2
AIGNBL010101E6
 70
64
 10
0
 20
0
 30
0
  3
AIGNBL010101E6
  0
POLYLINE
  8
LAYER_1
 40
0.2469
 41
0.2469
 66
1
 10
0
 20
0
 30
0
  0
VERTEX
  8
LAYER_1
 10
145.2202
 20
376.163
  0
VERTEX
  8
LAYER_1
 10
145.2202
 20
383.663
  0
SEQEND
  0
ENDBLK
  0
BLOCK
  8
LAYER_1
  2
AIGNBL010101E7
 70
64
 10
0
 20
0
 30
0
  3
AIGNBL010101E7
  0
POLYLINE
  8
LAYER_1
 40
0.2469
 41
0.2469
 66
1
 10
0
 20
0
 30
0
  0
VERTEX
  8
LAYER_1
 10
114.2202
 20
376.163
  0
VERTEX
  8
LAYER_1
 10
114.2202
 20
383.663
  0
SEQEND
  0
ENDBLK
  0
BLOCK
  8
LAYER_1
  2
AIGNBL010101E8
 70
64
 10
0
 20
0
 30
0
  3
AIGNBL010101E8
  0
POLYLINE
  8
LAYER_1
  6
AIGENLINE001
 40
0.2469
 41
0.2469
 66
1
 10
0
 20
0
 30
0
 70
128
  0
VERTEX
  8
LAYER_1
 10
129.7202
 20
381.2232
  0
VERTEX
  8
LAYER_1
 10
129.7202
 20
335.0094
  0
SEQEND
  0
ENDBLK
  0
BLOCK
  8
LAYER_1
  2
AIGNBL010101E9
 70
64
 10
0
 20
0
 30
0
  3
AIGNBL010101E9
  0
POLYLINE
  8
LAYER_1
 40
0.2469
 41
0.2469
 62
4
 66
1
 10
0
 20
0
 30
0
  0
VERTEX
  8
LAYER_1
 10
114.7202
 20
315.69
  0
VERTEX
  8
LAYER_1
 10
144.7202
 20
315.69
  0
SEQEND
  0
ENDBLK
  0
BLOCK
  8
LAYER_1
  2
AIGNBL010101EA
 70
64
 10
0
 20
0
 30
0
  3
AIGNBL010101EA
  0
POLYLINE
  8
LAYER_1
 40
0.2469
 41
0.2469
 62
4
 66
1
 10
0
 20
0
 30
0
  0
VERTEX
  8
LAYER_1
 10
114.7202
 20
317.19
  0
VERTEX
  8
LAYER_1
 10
114.7202
 20
315.69
  0
SEQEND
  0
ENDBLK
  0
BLOCK
  8
LAYER_1
  2
AIGNBL010101EB
 70
64
 10
0
 20
0
 30
0
  3
AIGNBL010101EB
  0
POLYLINE
  8
LAYER_1
 40
0.2469
 41
0.2469
 62
4
 66
1
 10
0
 20
0
 30
0
  0
VERTEX
  8
LAYER_1
 10
144.7202
 20
317.19
  0
VERTEX
  8
LAYER_1
 10
144.7202
 20
315.69
  0
SEQEND
  0
ENDBLK
  0
BLOCK
  8
LAYER_1
  2
AIGNBL010101EC
 70
64
 10
0
 20
0
 30
0
  3
AIGNBL010101EC
  0
POLYLINE
  8
LAYER_1
 40
0.2469
 41
0.2469
 66
1
 10
0
 20
0
 30
0
  0
VERTEX
  8
LAYER_1
 10
129.7202
 20
315.69
  0
VERTEX
  8
LAYER_1
 10
129.7202
 20
312.69
  0
SEQEND
  0
ENDBLK
  0
BLOCK
  8
LAYER_1
  2
AIGNBL010101ED
 70
64
 10
0
 20
0
 30
0
  3
AIGNBL010101ED
  0
POLYLINE
  8
LAYER_1
 40
0.2469
 41
0.2469
 62
4
 66
1
 10
0
 20
0
 30
0
  0
VERTEX
  8
LAYER_1
 10
118.3452
 20
315.69
  0
VERTEX
  8
LAYER_1
 10
118.3452
 20
312.69
  0
SEQEND
  0
ENDBLK
  0
BLOCK
  8
LAYER_1
  2
AIGNBL010101EE
 70
64
 10
0
 20
0
 30
0
  3
AIGNBL010101EE
  0
POLYLINE
  8
LAYER_1
 40
0.2469
 41
0.2469
 62
4
 66
1
 10
0
 20
0
 30
0
  0
VERTEX
  8
LAYER_1
 10
118.3452
 20
312.69
  0
VERTEX
  8
LAYER_1
 10
141.0952
 20
312.69
  0
SEQEND
  0
ENDBLK
  0
BLOCK
  8
LAYER_1
  2
AIGNBL010101EF
 70
64
 10
0
 20
0
 30
0
  3
AIGNBL010101EF
  0
POLYLINE
  8
LAYER_1
 40
0.2469
 41
0.2469
 62
4
 66
1
 10
0
 20
0
 30
0
  0
VERTEX
  8
LAYER_1
 10
141.0952
 20
315.69
  0
VERTEX
  8
LAYER_1
 10
141.0952
 20
312.69
  0
SEQEND
  0
ENDBLK
  0
BLOCK
  8
LAYER_1
  2
AIGNBL010101F0
 70
64
 10
0
 20
0
 30
0
  3
AIGNBL010101F0
  0
POLYLINE
  8
LAYER_1
 40
0.2469
 41
0.2469
 62
4
 66
1
 10
0
 20
0
 30
0
  0
VERTEX
  8
LAYER_1
 10
114.7202
 20
317.19
  0
VERTEX
  8
LAYER_1
 10
144.7202
 20
317.19
  0
SEQEND
  0
ENDBLK
  0
BLOCK
  8
LAYER_1
  2
AIGNBL010101F1
 70
64
 10
0
 20
0
 30
0
  3
AIGNBL010101F1
  0
POLYLINE
  8
LAYER_1
  6
AIGENLINE003
 40
0.2469
 41
0.2469
 66
1
 10
0
 20
0
 30
0
 70
128
  0
VERTEX
  8
LAYER_1
 10
139.7202
 20
312.69
  0
VERTEX
  8
LAYER_1
 10
139.7202
 20
317.19
  0
SEQEND
  0
ENDBLK
  0
BLOCK
  8
LAYER_1
  2
AIGNBL010101F2
 70
64
 10
0
 20
0
 30
0
  3
AIGNBL010101F2
  0
POLYLINE
  8
LAYER_1
  6
AIGENLINE003
 40
0.2469
 41
0.2469
 66
1
 10
0
 20
0
 30
0
 70
128
  0
VERTEX
  8
LAYER_1
 10
119.7202
 20
312.69
  0
VERTEX
  8
LAYER_1
 10
119.7202
 20
317.19
  0
SEQEND
  0
ENDBLK
  0
BLOCK
  8
LAYER_1
  2
AIGNBL010101F3
 70
64
 10
0
 20
0
 30
0
  3
AIGNBL010101F3
  0
POLYLINE
  8
LAYER_1
 40
0.2469
 41
0.2469
 66
1
 10
0
 20
0
 30
0
  0
VERTEX
  8
LAYER_1
 10
144.7202
 20
324.69
  0
VERTEX
  8
LAYER_1
 10
114.7202
 20
324.69
  0
SEQEND
  0
ENDBLK
  0
BLOCK
  8
LAYER_1
  2
AIGNBL010101F4
 70
64
 10
0
 20
0
 30
0
  3
AIGNBL010101F4
  0
POLYLINE
  8
LAYER_1
 40
0.2469
 41
0.2469
 62
4
 66
1
 10
0
 20
0
 30
0
  0
VERTEX
  8
LAYER_1
 10
144.7202
 20
324.69
  0
VERTEX
  8
LAYER_1
 10
143.2713
 20
324.3018
  0
SEQEND
  0
ENDBLK
  0
BLOCK
  8
LAYER_1
  2
AIGNBL010101F5
 70
64
 10
0
 20
0
 30
0
  3
AIGNBL010101F5
  0
POLYLINE
  8
LAYER_1
 40
0.2469
 41
0.2469
 62
4
 66
1
 10
0
 20
0
 30
0
  0
VERTEX
  8
LAYER_1
 10
144.7202
 20
324.69
  0
VERTEX
  8
LAYER_1
 10
143.2713
 20
325.0782
  0
SEQEND
  0
ENDBLK
  0
BLOCK
  8
LAYER_1
  2
AIGNBL010101F6
 70
64
 10
0
 20
0
 30
0
  3
AIGNBL010101F6
  0
POLYLINE
  8
LAYER_1
 40
0.2469
 41
0.2469
 62
4
 66
1
 10
0
 20
0
 30
0
  0
VERTEX
  8
LAYER_1
 10
114.7202
 20
324.69
  0
VERTEX
  8
LAYER_1
 10
116.1691
 20
325.0782
  0
SEQEND
  0
ENDBLK
  0
BLOCK
  8
LAYER_1
  2
AIGNBL010101F7
 70
64
 10
0
 20
0
 30
0
  3
AIGNBL010101F7
  0
POLYLINE
  8
LAYER_1
 40
0.2469
 41
0.2469
 62
4
 66
1
 10
0
 20
0
 30
0
  0
VERTEX
  8
LAYER_1
 10
114.7202
 20
324.69
  0
VERTEX
  8
LAYER_1
 10
116.1691
 20
324.3018
  0
SEQEND
  0
ENDBLK
  0
BLOCK
  8
LAYER_1
  2
AIGNBL010101F8
 70
64
 10
0
 20
0
 30
0
  3
AIGNBL010101F8
  0
POLYLINE
  8
LAYER_1
 40
0.2469
 41
0.2469
 66
1
 10
0
 20
0
 30
0
  0
VERTEX
  8
LAYER_1
 10
144.7202
 20
317.19
  0
VERTEX
  8
LAYER_1
 10
144.7202
 20
324.69
  0
SEQEND
  0
ENDBLK
  0
BLOCK
  8
LAYER_1
  2
AIGNBL010101F9
 70
64
 10
0
 20
0
 30
0
  3
AIGNBL010101F9
  0
POLYLINE
  8
LAYER_1
 40
0.2469
 41
0.2469
 66
1
 10
0
 20
0
 30
0
  0
VERTEX
  8
LAYER_1
 10
114.7202
 20
317.19
  0
VERTEX
  8
LAYER_1
 10
114.7202
 20
324.69
  0
SEQEND
  0
ENDBLK
  0
BLOCK
  8
LAYER_1
  2
AIGNBL010101FA
 70
64
 10
0
 20
0
 30
0
  3
AIGNBL010101FA
  0
POLYLINE
  8
LAYER_1
  6
AIGENLINE001
 40
0.2469
 41
0.2469
 66
1
 10
0
 20
0
 30
0
 70
128
  0
VERTEX
  8
LAYER_1
 10
129.7202
 20
322.0557
  0
VERTEX
  8
LAYER_1
 10
129.7202
 20
277.0736
  0
SEQEND
  0
ENDBLK
  0
BLOCK
  8
LAYER_1
  2
AIGNBL010101FB
 70
64
 10
0
 20
0
 30
0
  3
AIGNBL010101FB
  0
TEXT
  8
LAYER_1
 10
123.7202
 20
272.382
 11
123.7202
 21
272.382
 40
2.9156
 41
0.5
  1
ì└òté½âiâbâg
  0
ENDBLK
  0
BLOCK
  8
LAYER_1
  2
AIGNBL010101FC
 70
64
 10
0
 20
0
 30
0
  3
AIGNBL010101FC
  0
TEXT
  8
LAYER_1
 10
123.7202
 20
330.6764
 11
123.7202
 21
330.6764
 40
2.9156
 41
0.5
  1
Ä¸ÄëâpâbâLâô
  0
ENDBLK
  0
BLOCK
  8
LAYER_1
  2
AIGNBL010101FD
 70
64
 10
0
 20
0
 30
0
  3
AIGNBL010101FD
  0
TEXT
  8
LAYER_1
 10
141.9702
 20
330.5634
 11
141.9702
 21
330.5634
 40
3.4404
 41
0.5
  1
S=1/2
  0
ENDBLK
  0
BLOCK
  8
LAYER_1
  2
AIGNBL010101FE
 70
64
 10
0
 20
0
 30
0
  3
AIGNBL010101FE
  0
POLYLINE
  8
LAYER_1
 40
0.2469
 41
0.2469
 66
1
 10
0
 20
0
 30
0
  0
VERTEX
  8
LAYER_1
 10
85.0235
 20
349.8382
  0
VERTEX
  8
LAYER_1
 10
116.66
 20
392.5589
  0
SEQEND
  0
ENDBLK
  0
BLOCK
  8
LAYER_1
  2
AIGNBL010101FF
 70
64
 10
0
 20
0
 30
0
  3
AIGNBL010101FF
  0
POLYLINE
  8
LAYER_1
 40
0.2469
 41
0.2469
 66
1
 10
0
 20
0
 30
0
  0
VERTEX
  8
LAYER_1
 10
84.9802
 20
319.7751
  0
VERTEX
  8
LAYER_1
 10
113.569
 20
371.6574
  0
SEQEND
  0
ENDBLK
  0
BLOCK
  8
LAYER_1
  2
AIGNBL01010200
 70
64
 10
0
 20
0
 30
0
  3
AIGNBL01010200
  0
POLYLINE
  8
LAYER_1
 40
0.2469
 41
0.2469
 66
1
 10
0
 20
0
 30
0
  0
VERTEX
  8
LAYER_1
 10
81.6539
 20
315.0825
  0
VERTEX
  8
LAYER_1
 10
114.1196
 20
315.8743
  0
SEQEND
  0
ENDBLK
  0
BLOCK
  8
LAYER_1
  2
AIGNBL01010201
 70
64
 10
0
 20
0
 30
0
  3
AIGNBL01010201
  0
POLYLINE
  8
LAYER_1
 40
0.2469
 41
0.2469
 66
1
 10
0
 20
0
 30
0
  0
VERTEX
  8
LAYER_1
 10
135.4937
 20
305.6123
  0
VERTEX
  8
LAYER_1
 10
123.9467
 20
305.6123
  0
SEQEND
  0
ENDBLK
  0
BLOCK
  8
LAYER_1
  2
AIGNBL01010202
 70
64
 10
0
 20
0
 30
0
  3
AIGNBL01010202
  0
POLYLINE
  8
LAYER_1
 40
0.2469
 41
0.2469
 66
1
 10
0
 20
0
 30
0
  0
VERTEX
  8
LAYER_1
 10
123.9467
 20
305.6123
 42
0.2679577183
  0
VERTEX
  8
LAYER_1
 10
122.6476
 20
304.8623
  0
SEQEND
  0
ENDBLK
  0
BLOCK
  8
LAYER_1
  2
AIGNBL01010203
 70
64
 10
0
 20
0
 30
0
  3
AIGNBL01010203
  0
POLYLINE
  8
LAYER_1
 40
0.2469
 41
0.2469
 66
1
 10
0
 20
0
 30
0
  0
VERTEX
  8
LAYER_1
 10
116.8741
 20
294.8623
  0
VERTEX
  8
LAYER_1
 10
122.6476
 20
304.8623
  0
SEQEND
  0
ENDBLK
  0
BLOCK
  8
LAYER_1
  2
AIGNBL01010204
 70
64
 10
0
 20
0
 30
0
  3
AIGNBL01010204
  0
POLYLINE
  8
LAYER_1
 40
0.2469
 41
0.2469
 66
1
 10
0
 20
0
 30
0
  0
VERTEX
  8
LAYER_1
 10
116.8741
 20
294.8623
 42
0.2679458017
  0
VERTEX
  8
LAYER_1
 10
116.8741
 20
293.3623
  0
SEQEND
  0
ENDBLK
  0
BLOCK
  8
LAYER_1
  2
AIGNBL01010205
 70
64
 10
0
 20
0
 30
0
  3
AIGNBL01010205
  0
POLYLINE
  8
LAYER_1
 40
0.2469
 41
0.2469
 66
1
 10
0
 20
0
 30
0
  0
VERTEX
  8
LAYER_1
 10
122.6476
 20
283.3623
  0
VERTEX
  8
LAYER_1
 10
116.8741
 20
293.3623
  0
SEQEND
  0
ENDBLK
  0
BLOCK
  8
LAYER_1
  2
AIGNBL01010206
 70
64
 10
0
 20
0
 30
0
  3
AIGNBL01010206
  0
POLYLINE
  8
LAYER_1
 40
0.2469
 41
0.2469
 66
1
 10
0
 20
0
 30
0
  0
VERTEX
  8
LAYER_1
 10
122.6476
 20
283.3623
 42
0.2679589079
  0
VERTEX
  8
LAYER_1
 10
123.9467
 20
282.6123
  0
SEQEND
  0
ENDBLK
  0
BLOCK
  8
LAYER_1
  2
AIGNBL01010207
 70
64
 10
0
 20
0
 30
0
  3
AIGNBL01010207
  0
POLYLINE
  8
LAYER_1
 40
0.2469
 41
0.2469
 66
1
 10
0
 20
0
 30
0
  0
VERTEX
  8
LAYER_1
 10
123.9467
 20
282.6123
  0
VERTEX
  8
LAYER_1
 10
135.4937
 20
282.6123
  0
SEQEND
  0
ENDBLK
  0
BLOCK
  8
LAYER_1
  2
AIGNBL01010208
 70
64
 10
0
 20
0
 30
0
  3
AIGNBL01010208
  0
POLYLINE
  8
LAYER_1
 40
0.2469
 41
0.2469
 66
1
 10
0
 20
0
 30
0
  0
VERTEX
  8
LAYER_1
 10
135.4937
 20
282.6123
 42
0.2679432731
  0
VERTEX
  8
LAYER_1
 10
136.7927
 20
283.3623
  0
SEQEND
  0
ENDBLK
  0
BLOCK
  8
LAYER_1
  2
AIGNBL01010209
 70
64
 10
0
 20
0
 30
0
  3
AIGNBL01010209
  0
POLYLINE
  8
LAYER_1
 40
0.2469
 41
0.2469
 66
1
 10
0
 20
0
 30
0
  0
VERTEX
  8
LAYER_1
 10
136.7927
 20
283.3623
  0
VERTEX
  8
LAYER_1
 10
142.5662
 20
293.3623
  0
SEQEND
  0
ENDBLK
  0
BLOCK
  8
LAYER_1
  2
AIGNBL0101020A
 70
64
 10
0
 20
0
 30
0
  3
AIGNBL0101020A
  0
POLYLINE
  8
LAYER_1
 40
0.2469
 41
0.2469
 66
1
 10
0
 20
0
 30
0
  0
VERTEX
  8
LAYER_1
 10
142.5662
 20
293.3623
 42
0.2679502585
  0
VERTEX
  8
LAYER_1
 10
142.5662
 20
294.8623
  0
SEQEND
  0
ENDBLK
  0
BLOCK
  8
LAYER_1
  2
AIGNBL0101020B
 70
64
 10
0
 20
0
 30
0
  3
AIGNBL0101020B
  0
POLYLINE
  8
LAYER_1
 40
0.2469
 41
0.2469
 66
1
 10
0
 20
0
 30
0
  0
VERTEX
  8
LAYER_1
 10
142.5662
 20
294.8623
  0
VERTEX
  8
LAYER_1
 10
136.7927
 20
304.8623
  0
SEQEND
  0
ENDBLK
  0
BLOCK
  8
LAYER_1
  2
AIGNBL0101020C
 70
64
 10
0
 20
0
 30
0
  3
AIGNBL0101020C
  0
POLYLINE
  8
LAYER_1
 40
0.2469
 41
0.2469
 66
1
 10
0
 20
0
 30
0
  0
VERTEX
  8
LAYER_1
 10
136.7927
 20
304.8623
 42
0.2679420836
  0
VERTEX
  8
LAYER_1
 10
135.4937
 20
305.6123
  0
SEQEND
  0
ENDBLK
  0
BLOCK
  8
LAYER_1
  2
AIGNBL0101020D
 70
64
 10
0
 20
0
 30
0
  3
AIGNBL0101020D
  0
POLYLINE
  8
LAYER_1
  6
AIGENLINE001
 40
0.2469
 41
0.2469
 66
1
 10
0
 20
0
 30
0
 70
128
  0
VERTEX
  8
LAYER_1
 10
150.1333
 20
294.1123
  0
VERTEX
  8
LAYER_1
 10
106.4895
 20
294.1123
  0
SEQEND
  0
ENDBLK
  0
BLOCK
  8
LAYER_1
  2
AIGNBL0101020E
 70
64
 10
0
 20
0
 30
0
  3
AIGNBL0101020E
  0
TEXT
  8
LAYER_1
 10
118.6635
 20
391.5315
 11
118.6635
 21
391.5315
 40
3.4404
 41
0.5
  1
âXâ`âìü[âïâpâbâLâô%%c60
  0
ENDBLK
  0
BLOCK
  8
LAYER_1
  2
AIGNBL0101020F
 70
64
 10
0
 20
0
 30
0
  3
AIGNBL0101020F
  0
POLYLINE
  8
LAYER_1
 40
0.2469
 41
0.2469
 66
1
 10
0
 20
0
 30
0
  0
VERTEX
  8
LAYER_1
 10
116.9702
 20
394.2815
  0
VERTEX
  8
LAYER_1
 10
116.9702
 20
390.7815
  0
SEQEND
  0
ENDBLK
  0
BLOCK
  8
LAYER_1
  2
AIGNBL01010210
 70
64
 10
0
 20
0
 30
0
  3
AIGNBL01010210
  0
POLYLINE
  8
LAYER_1
 40
0.2469
 41
0.2469
 66
1
 10
0
 20
0
 30
0
  0
VERTEX
  8
LAYER_1
 10
150.4264
 20
394.2815
  0
VERTEX
  8
LAYER_1
 10
116.9702
 20
394.2815
  0
SEQEND
  0
ENDBLK
  0
BLOCK
  8
LAYER_1
  2
AIGNBL01010211
 70
64
 10
0
 20
0
 30
0
  3
AIGNBL01010211
  0
POLYLINE
  8
LAYER_1
 40
0.2469
 41
0.2469
 66
1
 10
0
 20
0
 30
0
  0
VERTEX
  8
LAYER_1
 10
150.4264
 20
390.7815
  0
VERTEX
  8
LAYER_1
 10
150.4264
 20
394.2815
  0
SEQEND
  0
ENDBLK
  0
BLOCK
  8
LAYER_1
  2
AIGNBL01010212
 70
64
 10
0
 20
0
 30
0
  3
AIGNBL01010212
  0
POLYLINE
  8
LAYER_1
 40
0.2469
 41
0.2469
 66
1
 10
0
 20
0
 30
0
  0
VERTEX
  8
LAYER_1
 10
116.9702
 20
390.7815
  0
VERTEX
  8
LAYER_1
 10
150.4264
 20
390.7815
  0
SEQEND
  0
ENDBLK
  0
BLOCK
  8
LAYER_1
  2
AIGNBL01010213
 70
64
 10
0
 20
0
 30
0
  3
AIGNBL01010213
  0
TEXT
  8
LAYER_1
 10
126.7966
 20
384.1629
 11
126.7966
 21
384.1629
 40
4.3005
 41
0.5
  1
%%c62
  0
ENDBLK
  0
BLOCK
  8
LAYER_1
  2
AIGNBL01010214
 70
64
 10
0
 20
0
 30
0
  3
AIGNBL01010214
  0
TEXT
  8
LAYER_1
 10
126.7966
 20
325.1901
 11
126.7966
 21
325.1901
 40
4.3005
 41
0.5
  1
%%c60
  0
ENDBLK
  0
BLOCK
  8
LAYER_1
  2
AIGNBL01010215
 70
64
 10
0
 20
0
 30
0
  3
AIGNBL01010215
  0
CIRCLE
  8
LAYER_1
 62
4
 10
195.4392
 20
364.2628
 40
15
  0
ENDBLK
  0
BLOCK
  8
LAYER_1
  2
AIGNBL01010216
 70
64
 10
0
 20
0
 30
0
  3
AIGNBL01010216
  0
CIRCLE
  8
LAYER_1
 62
4
 10
195.4392
 20
364.2628
 40
13.8
  0
ENDBLK
  0
BLOCK
  8
LAYER_1
  2
AIGNBL01010217
 70
64
 10
0
 20
0
 30
0
  3
AIGNBL01010217
  0
POLYLINE
  8
LAYER_1
 40
0.2469
 41
0.2469
 66
1
 10
0
 20
0
 30
0
  0
VERTEX
  8
LAYER_1
 10
210.4392
 20
390.5444
  0
VERTEX
  8
LAYER_1
 10
180.4392
 20
390.5444
  0
SEQEND
  0
ENDBLK
  0
BLOCK
  8
LAYER_1
  2
AIGNBL01010218
 70
64
 10
0
 20
0
 30
0
  3
AIGNBL01010218
  0
POLYLINE
  8
LAYER_1
 40
0.2469
 41
0.2469
 62
4
 66
1
 10
0
 20
0
 30
0
  0
VERTEX
  8
LAYER_1
 10
210.4392
 20
390.5444
  0
VERTEX
  8
LAYER_1
 10
208.9903
 20
390.1561
  0
SEQEND
  0
ENDBLK
  0
BLOCK
  8
LAYER_1
  2
AIGNBL01010219
 70
64
 10
0
 20
0
 30
0
  3
AIGNBL01010219
  0
POLYLINE
  8
LAYER_1
 40
0.2469
 41
0.2469
 62
4
 66
1
 10
0
 20
0
 30
0
  0
VERTEX
  8
LAYER_1
 10
210.4392
 20
390.5444
  0
VERTEX
  8
LAYER_1
 10
208.9903
 20
390.9326
  0
SEQEND
  0
ENDBLK
  0
BLOCK
  8
LAYER_1
  2
AIGNBL0101021A
 70
64
 10
0
 20
0
 30
0
  3
AIGNBL0101021A
  0
POLYLINE
  8
LAYER_1
 40
0.2469
 41
0.2469
 62
4
 66
1
 10
0
 20
0
 30
0
  0
VERTEX
  8
LAYER_1
 10
180.4392
 20
390.5444
  0
VERTEX
  8
LAYER_1
 10
181.888
 20
390.9326
  0
SEQEND
  0
ENDBLK
  0
BLOCK
  8
LAYER_1
  2
AIGNBL0101021B
 70
64
 10
0
 20
0
 30
0
  3
AIGNBL0101021B
  0
POLYLINE
  8
LAYER_1
 40
0.2469
 41
0.2469
 62
4
 66
1
 10
0
 20
0
 30
0
  0
VERTEX
  8
LAYER_1
 10
180.4392
 20
390.5444
  0
VERTEX
  8
LAYER_1
 10
181.888
 20
390.1561
  0
SEQEND
  0
ENDBLK
  0
BLOCK
  8
LAYER_1
  2
AIGNBL0101021C
 70
64
 10
0
 20
0
 30
0
  3
AIGNBL0101021C
  0
POLYLINE
  8
LAYER_1
 40
0.2469
 41
0.2469
 66
1
 10
0
 20
0
 30
0
  0
VERTEX
  8
LAYER_1
 10
210.4392
 20
373.3087
  0
VERTEX
  8
LAYER_1
 10
210.4392
 20
390.5444
  0
SEQEND
  0
ENDBLK
  0
BLOCK
  8
LAYER_1
  2
AIGNBL0101021D
 70
64
 10
0
 20
0
 30
0
  3
AIGNBL0101021D
  0
POLYLINE
  8
LAYER_1
 40
0.2469
 41
0.2469
 66
1
 10
0
 20
0
 30
0
  0
VERTEX
  8
LAYER_1
 10
180.4392
 20
373.3087
  0
VERTEX
  8
LAYER_1
 10
180.4392
 20
390.5444
  0
SEQEND
  0
ENDBLK
  0
BLOCK
  8
LAYER_1
  2
AIGNBL0101021E
 70
64
 10
0
 20
0
 30
0
  3
AIGNBL0101021E
  0
POLYLINE
  8
LAYER_1
 40
0.2469
 41
0.2469
 66
1
 10
0
 20
0
 30
0
  0
VERTEX
  8
LAYER_1
 10
183.4653
 20
356.2371
  0
VERTEX
  8
LAYER_1
 10
172.8076
 20
347.5531
  0
SEQEND
  0
ENDBLK
  0
BLOCK
  8
LAYER_1
  2
AIGNBL0101021F
 70
64
 10
0
 20
0
 30
0
  3
AIGNBL0101021F
  0
TEXT
  8
LAYER_1
 10
166.4921
 20
345.8097
 11
166.4921
 21
345.8097
 40
3.6445
 41
0.5
  1
ô¹öÆ
  0
ENDBLK
  0
BLOCK
  8
LAYER_1
  2
AIGNBL01010220
 70
64
 10
0
 20
0
 30
0
  3
AIGNBL01010220
  0
CIRCLE
  8
LAYER_1
 62
4
 10
195.4392
 20
303.4866
 40
18.625
  0
ENDBLK
  0
BLOCK
  8
LAYER_1
  2
AIGNBL01010221
 70
64
 10
0
 20
0
 30
0
  3
AIGNBL01010221
  0
POLYLINE
  8
LAYER_1
 40
0.2469
 41
0.2469
 66
1
 10
0
 20
0
 30
0
  0
VERTEX
  8
LAYER_1
 10
178.0793
 20
295.4608
  0
VERTEX
  8
LAYER_1
 10
167.4216
 20
286.7768
  0
SEQEND
  0
ENDBLK
  0
BLOCK
  8
LAYER_1
  2
AIGNBL01010222
 70
64
 10
0
 20
0
 30
0
  3
AIGNBL01010222
  0
TEXT
  8
LAYER_1
 10
163.573
 20
285.0334
 11
163.573
 21
285.0334
 40
3.6445
 41
0.5
  1
ìò
  0
ENDBLK
  0
BLOCK
  8
LAYER_1
  2
AIGNBL01010223
 70
64
 10
0
 20
0
 30
0
  3
AIGNBL01010223
  0
POLYLINE
  8
LAYER_1
 40
0.2469
 41
0.2469
 66
1
 10
0
 20
0
 30
0
  0
VERTEX
  8
LAYER_1
 10
215.0642
 20
329.7681
  0
VERTEX
  8
LAYER_1
 10
175.8142
 20
329.7681
  0
SEQEND
  0
ENDBLK
  0
BLOCK
  8
LAYER_1
  2
AIGNBL01010224
 70
64
 10
0
 20
0
 30
0
  3
AIGNBL01010224
  0
POLYLINE
  8
LAYER_1
 40
0.2469
 41
0.2469
 62
4
 66
1
 10
0
 20
0
 30
0
  0
VERTEX
  8
LAYER_1
 10
215.0642
 20
329.7681
  0
VERTEX
  8
LAYER_1
 10
213.6153
 20
329.3799
  0
SEQEND
  0
ENDBLK
  0
BLOCK
  8
LAYER_1
  2
AIGNBL01010225
 70
64
 10
0
 20
0
 30
0
  3
AIGNBL01010225
  0
POLYLINE
  8
LAYER_1
 40
0.2469
 41
0.2469
 62
4
 66
1
 10
0
 20
0
 30
0
  0
VERTEX
  8
LAYER_1
 10
215.0642
 20
329.7681
  0
VERTEX
  8
LAYER_1
 10
213.6153
 20
330.1563
  0
SEQEND
  0
ENDBLK
  0
BLOCK
  8
LAYER_1
  2
AIGNBL01010226
 70
64
 10
0
 20
0
 30
0
  3
AIGNBL01010226
  0
POLYLINE
  8
LAYER_1
 40
0.2469
 41
0.2469
 62
4
 66
1
 10
0
 20
0
 30
0
  0
VERTEX
  8
LAYER_1
 10
175.8142
 20
329.7681
  0
VERTEX
  8
LAYER_1
 10
177.263
 20
330.1563
  0
SEQEND
  0
ENDBLK
  0
BLOCK
  8
LAYER_1
  2
AIGNBL01010227
 70
64
 10
0
 20
0
 30
0
  3
AIGNBL01010227
  0
POLYLINE
  8
LAYER_1
 40
0.2469
 41
0.2469
 62
4
 66
1
 10
0
 20
0
 30
0
  0
VERTEX
  8
LAYER_1
 10
175.8142
 20
329.7681
  0
VERTEX
  8
LAYER_1
 10
177.263
 20
329.3799
  0
SEQEND
  0
ENDBLK
  0
BLOCK
  8
LAYER_1
  2
AIGNBL01010228
 70
64
 10
0
 20
0
 30
0
  3
AIGNBL01010228
  0
POLYLINE
  8
LAYER_1
 40
0.2469
 41
0.2469
 66
1
 10
0
 20
0
 30
0
  0
VERTEX
  8
LAYER_1
 10
215.0642
 20
312.5324
  0
VERTEX
  8
LAYER_1
 10
215.0642
 20
329.7681
  0
SEQEND
  0
ENDBLK
  0
BLOCK
  8
LAYER_1
  2
AIGNBL01010229
 70
64
 10
0
 20
0
 30
0
  3
AIGNBL01010229
  0
POLYLINE
  8
LAYER_1
 40
0.2469
 41
0.2469
 66
1
 10
0
 20
0
 30
0
  0
VERTEX
  8
LAYER_1
 10
175.8142
 20
312.5324
  0
VERTEX
  8
LAYER_1
 10
175.8142
 20
329.7681
  0
SEQEND
  0
ENDBLK
  0
BLOCK
  8
LAYER_1
  2
AIGNBL0101022A
 70
64
 10
0
 20
0
 30
0
  3
AIGNBL0101022A
  0
POLYLINE
  8
LAYER_1
 40
0.2469
 41
0.2469
 62
4
 66
1
 10
0
 20
0
 30
0
  0
VERTEX
  8
LAYER_1
 10
176.2875
 20
307.7709
 42
0.4142133451
  0
VERTEX
  8
LAYER_1
 10
191.1548
 20
284.3349
 42
0.4142134407
  0
VERTEX
  8
LAYER_1
 10
214.5908
 20
299.2022
 42
0.4142137799
  0
VERTEX
  8
LAYER_1
 10
199.7235
 20
322.6382
 42
0.3850298976
  0
VERTEX
  8
LAYER_1
 10
176.815
 20
309.6737
  0
SEQEND
  0
ENDBLK
  0
BLOCK
  8
LAYER_1
  2
AIGNBL0101022B
 70
64
 10
0
 20
0
 30
0
  3
AIGNBL0101022B
  0
POLYLINE
  8
LAYER_1
 40
0.2469
 41
0.2469
 66
1
 10
0
 20
0
 30
0
  0
VERTEX
  8
LAYER_1
 10
176.1892
 20
276.5556
  0
VERTEX
  8
LAYER_1
 10
176.1892
 20
273.0556
  0
SEQEND
  0
ENDBLK
  0
BLOCK
  8
LAYER_1
  2
AIGNBL0101022C
 70
64
 10
0
 20
0
 30
0
  3
AIGNBL0101022C
  0
POLYLINE
  8
LAYER_1
 40
0.2469
 41
0.2469
 66
1
 10
0
 20
0
 30
0
  0
VERTEX
  8
LAYER_1
 10
176.1892
 20
273.0556
  0
VERTEX
  8
LAYER_1
 10
214.6892
 20
273.0556
  0
SEQEND
  0
ENDBLK
  0
BLOCK
  8
LAYER_1
  2
AIGNBL0101022D
 70
64
 10
0
 20
0
 30
0
  3
AIGNBL0101022D
  0
POLYLINE
  8
LAYER_1
 40
0.2469
 41
0.2469
 66
1
 10
0
 20
0
 30
0
  0
VERTEX
  8
LAYER_1
 10
214.6892
 20
273.0556
  0
VERTEX
  8
LAYER_1
 10
214.6892
 20
276.5556
  0
SEQEND
  0
ENDBLK
  0
BLOCK
  8
LAYER_1
  2
AIGNBL0101022E
 70
64
 10
0
 20
0
 30
0
  3
AIGNBL0101022E
  0
POLYLINE
  8
LAYER_1
 40
0.2469
 41
0.2469
 66
1
 10
0
 20
0
 30
0
  0
VERTEX
  8
LAYER_1
 10
176.1892
 20
276.5556
  0
VERTEX
  8
LAYER_1
 10
214.6892
 20
276.5556
  0
SEQEND
  0
ENDBLK
  0
BLOCK
  8
LAYER_1
  2
AIGNBL0101022F
 70
64
 10
0
 20
0
 30
0
  3
AIGNBL0101022F
  0
TEXT
  8
LAYER_1
 10
179.3127
 20
273.8058
 11
179.3127
 21
273.8058
 40
3.4404
 41
0.5
  1
äOâèâôâOü@ô¹öÆüEìòü@èe1
  0
ENDBLK
  0
BLOCK
  8
LAYER_1
  2
AIGNBL01010230
 70
64
 10
0
 20
0
 30
0
  3
AIGNBL01010230
  0
TEXT
  8
LAYER_1
 10
192.5153
 20
391.0443
 11
192.5153
 21
391.0443
 40
4.3005
 41
0.5
  1
%%c60
  0
ENDBLK
  0
BLOCK
  8
LAYER_1
  2
AIGNBL01010231
 70
64
 10
0
 20
0
 30
0
  3
AIGNBL01010231
  0
TEXT
  8
LAYER_1
 10
191.2654
 20
330.2682
 11
191.2654
 21
330.2682
 40
4.3005
 41
0.5
  1
%%c78.5
  0
ENDBLK
  0
BLOCK
  8
LAYER_1
  2
AIGNBL01010232
 70
64
 10
0
 20
0
 30
0
  3
AIGNBL01010232
  0
TEXT
  8
LAYER_1
 10
68.0564
 20
374.6176
 11
68.0564
 21
374.6176
 40
4.3005
 41
0.5
  1
%%c72
  0
ENDBLK
  0
BLOCK
  8
LAYER_1
  2
AIGNBL01010233
 70
64
 10
0
 20
0
 30
0
  3
AIGNBL01010233
  0
TEXT
  8
LAYER_1
 10
46.6565
 20
333.5249
 11
46.6565
 21
333.5249
 40
4.3005
 41
0.5
 50
89.99999999
  1
45065
  0
ENDBLK
  0
BLOCK
  8
LAYER_1
  2
AIGNBL01010234
 70
64
 10
0
 20
0
 30
0
  3
AIGNBL01010234
  0
TEXT
  8
LAYER_1
 10
40.9225
 20
327.15
 11
40.9225
 21
327.15
 40
3.7825
 41
0.5
 50
89.99999999
  1
100
  0
ENDBLK
  0
ENDSEC
  0
SECTION
  2
ENTITIES
  0
TEXT
  8
LAYER_1
 10
50.3183
 20
21.6111
 11
50.3183
 21
21.6111
 40
4.5833
 41
0.5
  1
âfâBâìâXâVâèü[âYùpörÉàû┌ÄMüi100mmüFôVö┬î·üF10045mmæ╬ë×üj
  0
TEXT
  8
LAYER_1
 10
220.3351
 20
22.6225
 11
220.3351
 21
22.6225
 40
3.3848
 41
0.5
 62
39
  1
ü£TEL 0120-65-1232ü£FAX 06-6532-1580
  0
TEXT
  8
LAYER_1
 10
220.3351
 20
19.1079
 11
220.3351
 21
19.1079
 40
3.3848
 41
0.5
 62
39
  1
hits@hiratatile.co.jp
  0
INSERT
  8
LAYER_1
  2
AIGNBL01010002
 10
0
 20
0
 30
0
  0
TEXT
  8
LAYER_1
 10
50.3859
 20
14.8364
 11
50.3859
 21
14.8364
 40
4.6883
 41
0.5
 62
39
  1
SC-D45M-0174590S-100
  0
POLYLINE
  8
LAYER_1
 40
0.254
 41
0.254
 66
1
 10
0
 20
0
 30
0
  0
VERTEX
  8
LAYER_1
 10
3.1173
 20
32.9369
  0
VERTEX
  8
LAYER_1
 10
287.6826
 20
32.9369
  0
SEQEND
  0
INSERT
  8
LAYER_1
  2
AIGNBL01010024
 10
0
 20
0
 30
0
  0
INSERT
  8
LAYER_1
  2
AIGNBL01010025
 10
0
 20
0
 30
0
  0
INSERT
  8
LAYER_1
  2
AIGNBL01010026
 10
0
 20
0
 30
0
  0
INSERT
  8
LAYER_1
  2
AIGNBL01010027
 10
0
 20
0
 30
0
  0
INSERT
  8
LAYER_1
  2
AIGNBL01010028
 10
0
 20
0
 30
0
  0
INSERT
  8
LAYER_1
  2
AIGNBL01010029
 10
0
 20
0
 30
0
  0
INSERT
  8
LAYER_1
  2
AIGNBL0101002A
 10
0
 20
0
 30
0
  0
INSERT
  8
LAYER_1
  2
AIGNBL0101002B
 10
0
 20
0
 30
0
  0
INSERT
  8
LAYER_1
  2
AIGNBL0101002C
 10
0
 20
0
 30
0
  0
INSERT
  8
LAYER_1
  2
AIGNBL0101002D
 10
0
 20
0
 30
0
  0
INSERT
  8
LAYER_1
  2
AIGNBL0101002E
 10
0
 20
0
 30
0
  0
INSERT
  8
LAYER_1
  2
AIGNBL0101002F
 10
0
 20
0
 30
0
  0
INSERT
  8
LAYER_1
  2
AIGNBL01010030
 10
0
 20
0
 30
0
  0
INSERT
  8
LAYER_1
  2
AIGNBL01010031
 10
0
 20
0
 30
0
  0
INSERT
  8
LAYER_1
  2
AIGNBL01010032
 10
0
 20
0
 30
0
  0
INSERT
  8
LAYER_1
  2
AIGNBL01010033
 10
0
 20
0
 30
0
  0
INSERT
  8
LAYER_1
  2
AIGNBL01010034
 10
0
 20
0
 30
0
  0
INSERT
  8
LAYER_1
  2
AIGNBL01010035
 10
0
 20
0
 30
0
  0
INSERT
  8
LAYER_1
  2
AIGNBL01010036
 10
0
 20
0
 30
0
  0
INSERT
  8
LAYER_1
  2
AIGNBL01010037
 10
0
 20
0
 30
0
  0
INSERT
  8
LAYER_1
  2
AIGNBL01010038
 10
0
 20
0
 30
0
  0
INSERT
  8
LAYER_1
  2
AIGNBL01010039
 10
0
 20
0
 30
0
  0
INSERT
  8
LAYER_1
  2
AIGNBL0101003A
 10
0
 20
0
 30
0
  0
INSERT
  8
LAYER_1
  2
AIGNBL0101003B
 10
0
 20
0
 30
0
  0
INSERT
  8
LAYER_1
  2
AIGNBL0101003C
 10
0
 20
0
 30
0
  0
INSERT
  8
LAYER_1
  2
AIGNBL0101003D
 10
0
 20
0
 30
0
  0
INSERT
  8
LAYER_1
  2
AIGNBL0101003E
 10
0
 20
0
 30
0
  0
INSERT
  8
LAYER_1
  2
AIGNBL0101003F
 10
0
 20
0
 30
0
  0
INSERT
  8
LAYER_1
  2
AIGNBL01010040
 10
0
 20
0
 30
0
  0
INSERT
  8
LAYER_1
  2
AIGNBL01010041
 10
0
 20
0
 30
0
  0
INSERT
  8
LAYER_1
  2
AIGNBL01010042
 10
0
 20
0
 30
0
  0
INSERT
  8
LAYER_1
  2
AIGNBL01010043
 10
0
 20
0
 30
0
  0
INSERT
  8
LAYER_1
  2
AIGNBL01010044
 10
0
 20
0
 30
0
  0
INSERT
  8
LAYER_1
  2
AIGNBL01010045
 10
0
 20
0
 30
0
  0
INSERT
  8
LAYER_1
  2
AIGNBL01010046
 10
0
 20
0
 30
0
  0
INSERT
  8
LAYER_1
  2
AIGNBL01010047
 10
0
 20
0
 30
0
  0
INSERT
  8
LAYER_1
  2
AIGNBL01010048
 10
0
 20
0
 30
0
  0
INSERT
  8
LAYER_1
  2
AIGNBL01010049
 10
0
 20
0
 30
0
  0
INSERT
  8
LAYER_1
  2
AIGNBL0101004A
 10
0
 20
0
 30
0
  0
INSERT
  8
LAYER_1
  2
AIGNBL0101004B
 10
0
 20
0
 30
0
  0
INSERT
  8
LAYER_1
  2
AIGNBL0101004C
 10
0
 20
0
 30
0
  0
INSERT
  8
LAYER_1
  2
AIGNBL0101004D
 10
0
 20
0
 30
0
  0
INSERT
  8
LAYER_1
  2
AIGNBL0101004E
 10
0
 20
0
 30
0
  0
INSERT
  8
LAYER_1
  2
AIGNBL0101004F
 10
0
 20
0
 30
0
  0
INSERT
  8
LAYER_1
  2
AIGNBL01010050
 10
0
 20
0
 30
0
  0
INSERT
  8
LAYER_1
  2
AIGNBL01010051
 10
0
 20
0
 30
0
  0
INSERT
  8
LAYER_1
  2
AIGNBL01010052
 10
0
 20
0
 30
0
  0
INSERT
  8
LAYER_1
  2
AIGNBL01010053
 10
0
 20
0
 30
0
  0
INSERT
  8
LAYER_1
  2
AIGNBL01010054
 10
0
 20
0
 30
0
  0
INSERT
  8
LAYER_1
  2
AIGNBL01010055
 10
0
 20
0
 30
0
  0
INSERT
  8
LAYER_1
  2
AIGNBL01010056
 10
0
 20
0
 30
0
  0
INSERT
  8
LAYER_1
  2
AIGNBL01010057
 10
0
 20
0
 30
0
  0
INSERT
  8
LAYER_1
  2
AIGNBL01010058
 10
0
 20
0
 30
0
  0
INSERT
  8
LAYER_1
  2
AIGNBL01010059
 10
0
 20
0
 30
0
  0
INSERT
  8
LAYER_1
  2
AIGNBL0101005A
 10
0
 20
0
 30
0
  0
INSERT
  8
LAYER_1
  2
AIGNBL0101005B
 10
0
 20
0
 30
0
  0
INSERT
  8
LAYER_1
  2
AIGNBL0101005C
 10
0
 20
0
 30
0
  0
INSERT
  8
LAYER_1
  2
AIGNBL0101005D
 10
0
 20
0
 30
0
  0
INSERT
  8
LAYER_1
  2
AIGNBL0101005E
 10
0
 20
0
 30
0
  0
INSERT
  8
LAYER_1
  2
AIGNBL0101005F
 10
0
 20
0
 30
0
  0
INSERT
  8
LAYER_1
  2
AIGNBL01010060
 10
0
 20
0
 30
0
  0
INSERT
  8
LAYER_1
  2
AIGNBL01010061
 10
0
 20
0
 30
0
  0
INSERT
  8
LAYER_1
  2
AIGNBL01010062
 10
0
 20
0
 30
0
  0
INSERT
  8
LAYER_1
  2
AIGNBL01010063
 10
0
 20
0
 30
0
  0
INSERT
  8
LAYER_1
  2
AIGNBL01010064
 10
0
 20
0
 30
0
  0
INSERT
  8
LAYER_1
  2
AIGNBL01010065
 10
0
 20
0
 30
0
  0
INSERT
  8
LAYER_1
  2
AIGNBL01010066
 10
0
 20
0
 30
0
  0
INSERT
  8
LAYER_1
  2
AIGNBL01010067
 10
0
 20
0
 30
0
  0
INSERT
  8
LAYER_1
  2
AIGNBL01010068
 10
0
 20
0
 30
0
  0
INSERT
  8
LAYER_1
  2
AIGNBL01010069
 10
0
 20
0
 30
0
  0
INSERT
  8
LAYER_1
  2
AIGNBL0101006A
 10
0
 20
0
 30
0
  0
INSERT
  8
LAYER_1
  2
AIGNBL0101006B
 10
0
 20
0
 30
0
  0
INSERT
  8
LAYER_1
  2
AIGNBL0101006C
 10
0
 20
0
 30
0
  0
INSERT
  8
LAYER_1
  2
AIGNBL0101006D
 10
0
 20
0
 30
0
  0
INSERT
  8
LAYER_1
  2
AIGNBL0101006E
 10
0
 20
0
 30
0
  0
INSERT
  8
LAYER_1
  2
AIGNBL0101006F
 10
0
 20
0
 30
0
  0
INSERT
  8
LAYER_1
  2
AIGNBL01010070
 10
0
 20
0
 30
0
  0
INSERT
  8
LAYER_1
  2
AIGNBL01010071
 10
0
 20
0
 30
0
  0
INSERT
  8
LAYER_1
  2
AIGNBL01010072
 10
0
 20
0
 30
0
  0
INSERT
  8
LAYER_1
  2
AIGNBL01010073
 10
0
 20
0
 30
0
  0
INSERT
  8
LAYER_1
  2
AIGNBL01010074
 10
0
 20
0
 30
0
  0
INSERT
  8
LAYER_1
  2
AIGNBL01010075
 10
0
 20
0
 30
0
  0
INSERT
  8
LAYER_1
  2
AIGNBL01010076
 10
0
 20
0
 30
0
  0
INSERT
  8
LAYER_1
  2
AIGNBL01010077
 10
0
 20
0
 30
0
  0
INSERT
  8
LAYER_1
  2
AIGNBL01010078
 10
0
 20
0
 30
0
  0
INSERT
  8
LAYER_1
  2
AIGNBL01010079
 10
0
 20
0
 30
0
  0
INSERT
  8
LAYER_1
  2
AIGNBL0101007A
 10
0
 20
0
 30
0
  0
INSERT
  8
LAYER_1
  2
AIGNBL0101007B
 10
0
 20
0
 30
0
  0
INSERT
  8
LAYER_1
  2
AIGNBL0101007C
 10
0
 20
0
 30
0
  0
INSERT
  8
LAYER_1
  2
AIGNBL0101007D
 10
0
 20
0
 30
0
  0
INSERT
  8
LAYER_1
  2
AIGNBL0101007E
 10
0
 20
0
 30
0
  0
INSERT
  8
LAYER_1
  2
AIGNBL0101007F
 10
0
 20
0
 30
0
  0
INSERT
  8
LAYER_1
  2
AIGNBL01010080
 10
0
 20
0
 30
0
  0
INSERT
  8
LAYER_1
  2
AIGNBL01010081
 10
0
 20
0
 30
0
  0
INSERT
  8
LAYER_1
  2
AIGNBL01010082
 10
0
 20
0
 30
0
  0
INSERT
  8
LAYER_1
  2
AIGNBL01010083
 10
0
 20
0
 30
0
  0
INSERT
  8
LAYER_1
  2
AIGNBL01010084
 10
0
 20
0
 30
0
  0
INSERT
  8
LAYER_1
  2
AIGNBL01010085
 10
0
 20
0
 30
0
  0
INSERT
  8
LAYER_1
  2
AIGNBL01010086
 10
0
 20
0
 30
0
  0
INSERT
  8
LAYER_1
  2
AIGNBL01010087
 10
0
 20
0
 30
0
  0
INSERT
  8
LAYER_1
  2
AIGNBL01010088
 10
0
 20
0
 30
0
  0
INSERT
  8
LAYER_1
  2
AIGNBL01010089
 10
0
 20
0
 30
0
  0
INSERT
  8
LAYER_1
  2
AIGNBL0101008A
 10
0
 20
0
 30
0
  0
INSERT
  8
LAYER_1
  2
AIGNBL0101008B
 10
0
 20
0
 30
0
  0
INSERT
  8
LAYER_1
  2
AIGNBL0101008C
 10
0
 20
0
 30
0
  0
INSERT
  8
LAYER_1
  2
AIGNBL0101008D
 10
0
 20
0
 30
0
  0
INSERT
  8
LAYER_1
  2
AIGNBL0101008E
 10
0
 20
0
 30
0
  0
INSERT
  8
LAYER_1
  2
AIGNBL0101008F
 10
0
 20
0
 30
0
  0
INSERT
  8
LAYER_1
  2
AIGNBL01010090
 10
0
 20
0
 30
0
  0
INSERT
  8
LAYER_1
  2
AIGNBL01010091
 10
0
 20
0
 30
0
  0
INSERT
  8
LAYER_1
  2
AIGNBL01010092
 10
0
 20
0
 30
0
  0
INSERT
  8
LAYER_1
  2
AIGNBL01010093
 10
0
 20
0
 30
0
  0
INSERT
  8
LAYER_1
  2
AIGNBL01010094
 10
0
 20
0
 30
0
  0
INSERT
  8
LAYER_1
  2
AIGNBL01010095
 10
0
 20
0
 30
0
  0
INSERT
  8
LAYER_1
  2
AIGNBL01010096
 10
0
 20
0
 30
0
  0
INSERT
  8
LAYER_1
  2
AIGNBL01010097
 10
0
 20
0
 30
0
  0
INSERT
  8
LAYER_1
  2
AIGNBL01010098
 10
0
 20
0
 30
0
  0
INSERT
  8
LAYER_1
  2
AIGNBL01010099
 10
0
 20
0
 30
0
  0
INSERT
  8
LAYER_1
  2
AIGNBL0101009A
 10
0
 20
0
 30
0
  0
INSERT
  8
LAYER_1
  2
AIGNBL0101009B
 10
0
 20
0
 30
0
  0
INSERT
  8
LAYER_1
  2
AIGNBL0101009C
 10
0
 20
0
 30
0
  0
INSERT
  8
LAYER_1
  2
AIGNBL0101009D
 10
0
 20
0
 30
0
  0
INSERT
  8
LAYER_1
  2
AIGNBL0101009E
 10
0
 20
0
 30
0
  0
INSERT
  8
LAYER_1
  2
AIGNBL0101009F
 10
0
 20
0
 30
0
  0
INSERT
  8
LAYER_1
  2
AIGNBL010100A0
 10
0
 20
0
 30
0
  0
INSERT
  8
LAYER_1
  2
AIGNBL010100A1
 10
0
 20
0
 30
0
  0
INSERT
  8
LAYER_1
  2
AIGNBL010100A2
 10
0
 20
0
 30
0
  0
INSERT
  8
LAYER_1
  2
AIGNBL010100A3
 10
0
 20
0
 30
0
  0
INSERT
  8
LAYER_1
  2
AIGNBL010100A4
 10
0
 20
0
 30
0
  0
INSERT
  8
LAYER_1
  2
AIGNBL010100A5
 10
0
 20
0
 30
0
  0
INSERT
  8
LAYER_1
  2
AIGNBL010100A6
 10
0
 20
0
 30
0
  0
INSERT
  8
LAYER_1
  2
AIGNBL010100A7
 10
0
 20
0
 30
0
  0
INSERT
  8
LAYER_1
  2
AIGNBL010100A8
 10
0
 20
0
 30
0
  0
INSERT
  8
LAYER_1
  2
AIGNBL010100A9
 10
0
 20
0
 30
0
  0
INSERT
  8
LAYER_1
  2
AIGNBL010100AA
 10
0
 20
0
 30
0
  0
INSERT
  8
LAYER_1
  2
AIGNBL010100AB
 10
0
 20
0
 30
0
  0
INSERT
  8
LAYER_1
  2
AIGNBL010100AC
 10
0
 20
0
 30
0
  0
INSERT
  8
LAYER_1
  2
AIGNBL010100AD
 10
0
 20
0
 30
0
  0
INSERT
  8
LAYER_1
  2
AIGNBL010100AE
 10
0
 20
0
 30
0
  0
INSERT
  8
LAYER_1
  2
AIGNBL010100AF
 10
0
 20
0
 30
0
  0
INSERT
  8
LAYER_1
  2
AIGNBL010100B0
 10
0
 20
0
 30
0
  0
INSERT
  8
LAYER_1
  2
AIGNBL010100B1
 10
0
 20
0
 30
0
  0
INSERT
  8
LAYER_1
  2
AIGNBL010100B2
 10
0
 20
0
 30
0
  0
INSERT
  8
LAYER_1
  2
AIGNBL010100B3
 10
0
 20
0
 30
0
  0
INSERT
  8
LAYER_1
  2
AIGNBL010100B4
 10
0
 20
0
 30
0
  0
INSERT
  8
LAYER_1
  2
AIGNBL010100B5
 10
0
 20
0
 30
0
  0
INSERT
  8
LAYER_1
  2
AIGNBL010100B6
 10
0
 20
0
 30
0
  0
INSERT
  8
LAYER_1
  2
AIGNBL010100B7
 10
0
 20
0
 30
0
  0
INSERT
  8
LAYER_1
  2
AIGNBL010100B8
 10
0
 20
0
 30
0
  0
INSERT
  8
LAYER_1
  2
AIGNBL010100B9
 10
0
 20
0
 30
0
  0
INSERT
  8
LAYER_1
  2
AIGNBL010100BA
 10
0
 20
0
 30
0
  0
INSERT
  8
LAYER_1
  2
AIGNBL010100BB
 10
0
 20
0
 30
0
  0
INSERT
  8
LAYER_1
  2
AIGNBL010100BC
 10
0
 20
0
 30
0
  0
INSERT
  8
LAYER_1
  2
AIGNBL010100BD
 10
0
 20
0
 30
0
  0
INSERT
  8
LAYER_1
  2
AIGNBL010100BE
 10
0
 20
0
 30
0
  0
INSERT
  8
LAYER_1
  2
AIGNBL010100BF
 10
0
 20
0
 30
0
  0
INSERT
  8
LAYER_1
  2
AIGNBL010100C0
 10
0
 20
0
 30
0
  0
INSERT
  8
LAYER_1
  2
AIGNBL010100C1
 10
0
 20
0
 30
0
  0
INSERT
  8
LAYER_1
  2
AIGNBL010100C2
 10
0
 20
0
 30
0
  0
INSERT
  8
LAYER_1
  2
AIGNBL010100C3
 10
0
 20
0
 30
0
  0
INSERT
  8
LAYER_1
  2
AIGNBL010100C4
 10
0
 20
0
 30
0
  0
INSERT
  8
LAYER_1
  2
AIGNBL010100C5
 10
0
 20
0
 30
0
  0
INSERT
  8
LAYER_1
  2
AIGNBL010100C6
 10
0
 20
0
 30
0
  0
INSERT
  8
LAYER_1
  2
AIGNBL010100C7
 10
0
 20
0
 30
0
  0
INSERT
  8
LAYER_1
  2
AIGNBL010100C8
 10
0
 20
0
 30
0
  0
INSERT
  8
LAYER_1
  2
AIGNBL010100C9
 10
0
 20
0
 30
0
  0
INSERT
  8
LAYER_1
  2
AIGNBL010100CA
 10
0
 20
0
 30
0
  0
INSERT
  8
LAYER_1
  2
AIGNBL010100CB
 10
0
 20
0
 30
0
  0
INSERT
  8
LAYER_1
  2
AIGNBL010100CC
 10
0
 20
0
 30
0
  0
INSERT
  8
LAYER_1
  2
AIGNBL010100CD
 10
0
 20
0
 30
0
  0
INSERT
  8
LAYER_1
  2
AIGNBL010100CE
 10
0
 20
0
 30
0
  0
INSERT
  8
LAYER_1
  2
AIGNBL010100CF
 10
0
 20
0
 30
0
  0
INSERT
  8
LAYER_1
  2
AIGNBL010100D0
 10
0
 20
0
 30
0
  0
INSERT
  8
LAYER_1
  2
AIGNBL010100D1
 10
0
 20
0
 30
0
  0
INSERT
  8
LAYER_1
  2
AIGNBL010100D2
 10
0
 20
0
 30
0
  0
INSERT
  8
LAYER_1
  2
AIGNBL010100D3
 10
0
 20
0
 30
0
  0
INSERT
  8
LAYER_1
  2
AIGNBL010100D4
 10
0
 20
0
 30
0
  0
INSERT
  8
LAYER_1
  2
AIGNBL010100D5
 10
0
 20
0
 30
0
  0
INSERT
  8
LAYER_1
  2
AIGNBL010100D6
 10
0
 20
0
 30
0
  0
INSERT
  8
LAYER_1
  2
AIGNBL010100D7
 10
0
 20
0
 30
0
  0
INSERT
  8
LAYER_1
  2
AIGNBL010100D8
 10
0
 20
0
 30
0
  0
INSERT
  8
LAYER_1
  2
AIGNBL010100D9
 10
0
 20
0
 30
0
  0
INSERT
  8
LAYER_1
  2
AIGNBL010100DA
 10
0
 20
0
 30
0
  0
INSERT
  8
LAYER_1
  2
AIGNBL010100DB
 10
0
 20
0
 30
0
  0
INSERT
  8
LAYER_1
  2
AIGNBL010100DC
 10
0
 20
0
 30
0
  0
INSERT
  8
LAYER_1
  2
AIGNBL010100DD
 10
0
 20
0
 30
0
  0
INSERT
  8
LAYER_1
  2
AIGNBL010100DE
 10
0
 20
0
 30
0
  0
INSERT
  8
LAYER_1
  2
AIGNBL010100DF
 10
0
 20
0
 30
0
  0
INSERT
  8
LAYER_1
  2
AIGNBL010100E0
 10
0
 20
0
 30
0
  0
INSERT
  8
LAYER_1
  2
AIGNBL010100E1
 10
0
 20
0
 30
0
  0
INSERT
  8
LAYER_1
  2
AIGNBL010100E2
 10
0
 20
0
 30
0
  0
INSERT
  8
LAYER_1
  2
AIGNBL010100E3
 10
0
 20
0
 30
0
  0
INSERT
  8
LAYER_1
  2
AIGNBL010100E4
 10
0
 20
0
 30
0
  0
INSERT
  8
LAYER_1
  2
AIGNBL010100E5
 10
0
 20
0
 30
0
  0
INSERT
  8
LAYER_1
  2
AIGNBL010100E6
 10
0
 20
0
 30
0
  0
INSERT
  8
LAYER_1
  2
AIGNBL010100E7
 10
0
 20
0
 30
0
  0
INSERT
  8
LAYER_1
  2
AIGNBL010100E8
 10
0
 20
0
 30
0
  0
INSERT
  8
LAYER_1
  2
AIGNBL010100E9
 10
0
 20
0
 30
0
  0
INSERT
  8
LAYER_1
  2
AIGNBL010100EA
 10
0
 20
0
 30
0
  0
INSERT
  8
LAYER_1
  2
AIGNBL010100EB
 10
0
 20
0
 30
0
  0
INSERT
  8
LAYER_1
  2
AIGNBL010100EC
 10
0
 20
0
 30
0
  0
INSERT
  8
LAYER_1
  2
AIGNBL010100ED
 10
0
 20
0
 30
0
  0
INSERT
  8
LAYER_1
  2
AIGNBL010100EE
 10
0
 20
0
 30
0
  0
INSERT
  8
LAYER_1
  2
AIGNBL010100EF
 10
0
 20
0
 30
0
  0
INSERT
  8
LAYER_1
  2
AIGNBL010100F0
 10
0
 20
0
 30
0
  0
INSERT
  8
LAYER_1
  2
AIGNBL010100F1
 10
0
 20
0
 30
0
  0
INSERT
  8
LAYER_1
  2
AIGNBL010100F2
 10
0
 20
0
 30
0
  0
INSERT
  8
LAYER_1
  2
AIGNBL010100F3
 10
0
 20
0
 30
0
  0
INSERT
  8
LAYER_1
  2
AIGNBL010100F4
 10
0
 20
0
 30
0
  0
INSERT
  8
LAYER_1
  2
AIGNBL010100F5
 10
0
 20
0
 30
0
  0
INSERT
  8
LAYER_1
  2
AIGNBL010100F6
 10
0
 20
0
 30
0
  0
INSERT
  8
LAYER_1
  2
AIGNBL010100F7
 10
0
 20
0
 30
0
  0
INSERT
  8
LAYER_1
  2
AIGNBL010100F8
 10
0
 20
0
 30
0
  0
INSERT
  8
LAYER_1
  2
AIGNBL010100F9
 10
0
 20
0
 30
0
  0
INSERT
  8
LAYER_1
  2
AIGNBL010100FA
 10
0
 20
0
 30
0
  0
INSERT
  8
LAYER_1
  2
AIGNBL010100FB
 10
0
 20
0
 30
0
  0
INSERT
  8
LAYER_1
  2
AIGNBL010100FC
 10
0
 20
0
 30
0
  0
INSERT
  8
LAYER_1
  2
AIGNBL010100FD
 10
0
 20
0
 30
0
  0
INSERT
  8
LAYER_1
  2
AIGNBL010100FE
 10
0
 20
0
 30
0
  0
INSERT
  8
LAYER_1
  2
AIGNBL010100FF
 10
0
 20
0
 30
0
  0
INSERT
  8
LAYER_1
  2
AIGNBL01010100
 10
0
 20
0
 30
0
  0
INSERT
  8
LAYER_1
  2
AIGNBL01010101
 10
0
 20
0
 30
0
  0
INSERT
  8
LAYER_1
  2
AIGNBL01010102
 10
0
 20
0
 30
0
  0
INSERT
  8
LAYER_1
  2
AIGNBL01010103
 10
0
 20
0
 30
0
  0
INSERT
  8
LAYER_1
  2
AIGNBL01010104
 10
0
 20
0
 30
0
  0
INSERT
  8
LAYER_1
  2
AIGNBL01010105
 10
0
 20
0
 30
0
  0
INSERT
  8
LAYER_1
  2
AIGNBL01010106
 10
0
 20
0
 30
0
  0
INSERT
  8
LAYER_1
  2
AIGNBL01010107
 10
0
 20
0
 30
0
  0
INSERT
  8
LAYER_1
  2
AIGNBL01010108
 10
0
 20
0
 30
0
  0
INSERT
  8
LAYER_1
  2
AIGNBL01010109
 10
0
 20
0
 30
0
  0
INSERT
  8
LAYER_1
  2
AIGNBL0101010A
 10
0
 20
0
 30
0
  0
INSERT
  8
LAYER_1
  2
AIGNBL0101010B
 10
0
 20
0
 30
0
  0
INSERT
  8
LAYER_1
  2
AIGNBL0101010C
 10
0
 20
0
 30
0
  0
INSERT
  8
LAYER_1
  2
AIGNBL0101010D
 10
0
 20
0
 30
0
  0
INSERT
  8
LAYER_1
  2
AIGNBL0101010E
 10
0
 20
0
 30
0
  0
INSERT
  8
LAYER_1
  2
AIGNBL0101010F
 10
0
 20
0
 30
0
  0
INSERT
  8
LAYER_1
  2
AIGNBL01010110
 10
0
 20
0
 30
0
  0
INSERT
  8
LAYER_1
  2
AIGNBL01010111
 10
0
 20
0
 30
0
  0
INSERT
  8
LAYER_1
  2
AIGNBL01010112
 10
0
 20
0
 30
0
  0
INSERT
  8
LAYER_1
  2
AIGNBL01010113
 10
0
 20
0
 30
0
  0
INSERT
  8
LAYER_1
  2
AIGNBL01010114
 10
0
 20
0
 30
0
  0
INSERT
  8
LAYER_1
  2
AIGNBL01010115
 10
0
 20
0
 30
0
  0
INSERT
  8
LAYER_1
  2
AIGNBL01010116
 10
0
 20
0
 30
0
  0
INSERT
  8
LAYER_1
  2
AIGNBL01010117
 10
0
 20
0
 30
0
  0
INSERT
  8
LAYER_1
  2
AIGNBL01010118
 10
0
 20
0
 30
0
  0
INSERT
  8
LAYER_1
  2
AIGNBL01010119
 10
0
 20
0
 30
0
  0
INSERT
  8
LAYER_1
  2
AIGNBL0101011A
 10
0
 20
0
 30
0
  0
INSERT
  8
LAYER_1
  2
AIGNBL0101011B
 10
0
 20
0
 30
0
  0
INSERT
  8
LAYER_1
  2
AIGNBL0101011C
 10
0
 20
0
 30
0
  0
INSERT
  8
LAYER_1
  2
AIGNBL0101011D
 10
0
 20
0
 30
0
  0
INSERT
  8
LAYER_1
  2
AIGNBL0101011E
 10
0
 20
0
 30
0
  0
INSERT
  8
LAYER_1
  2
AIGNBL0101011F
 10
0
 20
0
 30
0
  0
INSERT
  8
LAYER_1
  2
AIGNBL01010120
 10
0
 20
0
 30
0
  0
INSERT
  8
LAYER_1
  2
AIGNBL01010121
 10
0
 20
0
 30
0
  0
INSERT
  8
LAYER_1
  2
AIGNBL01010122
 10
0
 20
0
 30
0
  0
INSERT
  8
LAYER_1
  2
AIGNBL01010123
 10
0
 20
0
 30
0
  0
INSERT
  8
LAYER_1
  2
AIGNBL01010124
 10
0
 20
0
 30
0
  0
INSERT
  8
LAYER_1
  2
AIGNBL01010125
 10
0
 20
0
 30
0
  0
INSERT
  8
LAYER_1
  2
AIGNBL01010126
 10
0
 20
0
 30
0
  0
INSERT
  8
LAYER_1
  2
AIGNBL01010127
 10
0
 20
0
 30
0
  0
INSERT
  8
LAYER_1
  2
AIGNBL01010128
 10
0
 20
0
 30
0
  0
INSERT
  8
LAYER_1
  2
AIGNBL01010129
 10
0
 20
0
 30
0
  0
INSERT
  8
LAYER_1
  2
AIGNBL0101012A
 10
0
 20
0
 30
0
  0
INSERT
  8
LAYER_1
  2
AIGNBL0101012B
 10
0
 20
0
 30
0
  0
INSERT
  8
LAYER_1
  2
AIGNBL0101012C
 10
0
 20
0
 30
0
  0
INSERT
  8
LAYER_1
  2
AIGNBL0101012D
 10
0
 20
0
 30
0
  0
INSERT
  8
LAYER_1
  2
AIGNBL0101012E
 10
0
 20
0
 30
0
  0
INSERT
  8
LAYER_1
  2
AIGNBL0101012F
 10
0
 20
0
 30
0
  0
INSERT
  8
LAYER_1
  2
AIGNBL01010130
 10
0
 20
0
 30
0
  0
INSERT
  8
LAYER_1
  2
AIGNBL01010131
 10
0
 20
0
 30
0
  0
INSERT
  8
LAYER_1
  2
AIGNBL01010132
 10
0
 20
0
 30
0
  0
INSERT
  8
LAYER_1
  2
AIGNBL01010133
 10
0
 20
0
 30
0
  0
INSERT
  8
LAYER_1
  2
AIGNBL01010134
 10
0
 20
0
 30
0
  0
INSERT
  8
LAYER_1
  2
AIGNBL01010135
 10
0
 20
0
 30
0
  0
INSERT
  8
LAYER_1
  2
AIGNBL01010136
 10
0
 20
0
 30
0
  0
INSERT
  8
LAYER_1
  2
AIGNBL01010137
 10
0
 20
0
 30
0
  0
INSERT
  8
LAYER_1
  2
AIGNBL01010138
 10
0
 20
0
 30
0
  0
INSERT
  8
LAYER_1
  2
AIGNBL01010139
 10
0
 20
0
 30
0
  0
INSERT
  8
LAYER_1
  2
AIGNBL0101013A
 10
0
 20
0
 30
0
  0
INSERT
  8
LAYER_1
  2
AIGNBL0101013B
 10
0
 20
0
 30
0
  0
INSERT
  8
LAYER_1
  2
AIGNBL0101013C
 10
0
 20
0
 30
0
  0
INSERT
  8
LAYER_1
  2
AIGNBL0101013D
 10
0
 20
0
 30
0
  0
INSERT
  8
LAYER_1
  2
AIGNBL0101013E
 10
0
 20
0
 30
0
  0
INSERT
  8
LAYER_1
  2
AIGNBL0101013F
 10
0
 20
0
 30
0
  0
INSERT
  8
LAYER_1
  2
AIGNBL01010140
 10
0
 20
0
 30
0
  0
INSERT
  8
LAYER_1
  2
AIGNBL01010141
 10
0
 20
0
 30
0
  0
INSERT
  8
LAYER_1
  2
AIGNBL01010142
 10
0
 20
0
 30
0
  0
INSERT
  8
LAYER_1
  2
AIGNBL01010143
 10
0
 20
0
 30
0
  0
INSERT
  8
LAYER_1
  2
AIGNBL01010144
 10
0
 20
0
 30
0
  0
INSERT
  8
LAYER_1
  2
AIGNBL01010145
 10
0
 20
0
 30
0
  0
INSERT
  8
LAYER_1
  2
AIGNBL01010146
 10
0
 20
0
 30
0
  0
INSERT
  8
LAYER_1
  2
AIGNBL01010147
 10
0
 20
0
 30
0
  0
INSERT
  8
LAYER_1
  2
AIGNBL01010148
 10
0
 20
0
 30
0
  0
INSERT
  8
LAYER_1
  2
AIGNBL01010149
 10
0
 20
0
 30
0
  0
INSERT
  8
LAYER_1
  2
AIGNBL0101014A
 10
0
 20
0
 30
0
  0
INSERT
  8
LAYER_1
  2
AIGNBL0101014B
 10
0
 20
0
 30
0
  0
INSERT
  8
LAYER_1
  2
AIGNBL0101014C
 10
0
 20
0
 30
0
  0
INSERT
  8
LAYER_1
  2
AIGNBL0101014D
 10
0
 20
0
 30
0
  0
INSERT
  8
LAYER_1
  2
AIGNBL0101014E
 10
0
 20
0
 30
0
  0
INSERT
  8
LAYER_1
  2
AIGNBL0101014F
 10
0
 20
0
 30
0
  0
INSERT
  8
LAYER_1
  2
AIGNBL01010150
 10
0
 20
0
 30
0
  0
INSERT
  8
LAYER_1
  2
AIGNBL01010151
 10
0
 20
0
 30
0
  0
INSERT
  8
LAYER_1
  2
AIGNBL01010152
 10
0
 20
0
 30
0
  0
INSERT
  8
LAYER_1
  2
AIGNBL01010153
 10
0
 20
0
 30
0
  0
INSERT
  8
LAYER_1
  2
AIGNBL01010154
 10
0
 20
0
 30
0
  0
INSERT
  8
LAYER_1
  2
AIGNBL01010155
 10
0
 20
0
 30
0
  0
INSERT
  8
LAYER_1
  2
AIGNBL01010156
 10
0
 20
0
 30
0
  0
INSERT
  8
LAYER_1
  2
AIGNBL01010157
 10
0
 20
0
 30
0
  0
INSERT
  8
LAYER_1
  2
AIGNBL01010158
 10
0
 20
0
 30
0
  0
INSERT
  8
LAYER_1
  2
AIGNBL01010159
 10
0
 20
0
 30
0
  0
INSERT
  8
LAYER_1
  2
AIGNBL0101015A
 10
0
 20
0
 30
0
  0
INSERT
  8
LAYER_1
  2
AIGNBL0101015B
 10
0
 20
0
 30
0
  0
INSERT
  8
LAYER_1
  2
AIGNBL0101015C
 10
0
 20
0
 30
0
  0
INSERT
  8
LAYER_1
  2
AIGNBL0101015D
 10
0
 20
0
 30
0
  0
INSERT
  8
LAYER_1
  2
AIGNBL0101015E
 10
0
 20
0
 30
0
  0
INSERT
  8
LAYER_1
  2
AIGNBL0101015F
 10
0
 20
0
 30
0
  0
INSERT
  8
LAYER_1
  2
AIGNBL01010160
 10
0
 20
0
 30
0
  0
INSERT
  8
LAYER_1
  2
AIGNBL01010161
 10
0
 20
0
 30
0
  0
INSERT
  8
LAYER_1
  2
AIGNBL01010162
 10
0
 20
0
 30
0
  0
INSERT
  8
LAYER_1
  2
AIGNBL01010163
 10
0
 20
0
 30
0
  0
INSERT
  8
LAYER_1
  2
AIGNBL01010164
 10
0
 20
0
 30
0
  0
INSERT
  8
LAYER_1
  2
AIGNBL01010165
 10
0
 20
0
 30
0
  0
INSERT
  8
LAYER_1
  2
AIGNBL01010166
 10
0
 20
0
 30
0
  0
INSERT
  8
LAYER_1
  2
AIGNBL01010167
 10
0
 20
0
 30
0
  0
INSERT
  8
LAYER_1
  2
AIGNBL01010168
 10
0
 20
0
 30
0
  0
INSERT
  8
LAYER_1
  2
AIGNBL01010169
 10
0
 20
0
 30
0
  0
INSERT
  8
LAYER_1
  2
AIGNBL0101016A
 10
0
 20
0
 30
0
  0
INSERT
  8
LAYER_1
  2
AIGNBL0101016B
 10
0
 20
0
 30
0
  0
INSERT
  8
LAYER_1
  2
AIGNBL0101016C
 10
0
 20
0
 30
0
  0
INSERT
  8
LAYER_1
  2
AIGNBL0101016D
 10
0
 20
0
 30
0
  0
INSERT
  8
LAYER_1
  2
AIGNBL0101016E
 10
0
 20
0
 30
0
  0
INSERT
  8
LAYER_1
  2
AIGNBL0101016F
 10
0
 20
0
 30
0
  0
INSERT
  8
LAYER_1
  2
AIGNBL01010170
 10
0
 20
0
 30
0
  0
INSERT
  8
LAYER_1
  2
AIGNBL01010171
 10
0
 20
0
 30
0
  0
INSERT
  8
LAYER_1
  2
AIGNBL01010172
 10
0
 20
0
 30
0
  0
INSERT
  8
LAYER_1
  2
AIGNBL01010173
 10
0
 20
0
 30
0
  0
INSERT
  8
LAYER_1
  2
AIGNBL01010174
 10
0
 20
0
 30
0
  0
INSERT
  8
LAYER_1
  2
AIGNBL01010175
 10
0
 20
0
 30
0
  0
INSERT
  8
LAYER_1
  2
AIGNBL01010176
 10
0
 20
0
 30
0
  0
INSERT
  8
LAYER_1
  2
AIGNBL01010177
 10
0
 20
0
 30
0
  0
INSERT
  8
LAYER_1
  2
AIGNBL01010178
 10
0
 20
0
 30
0
  0
INSERT
  8
LAYER_1
  2
AIGNBL01010179
 10
0
 20
0
 30
0
  0
INSERT
  8
LAYER_1
  2
AIGNBL0101017A
 10
0
 20
0
 30
0
  0
INSERT
  8
LAYER_1
  2
AIGNBL0101017B
 10
0
 20
0
 30
0
  0
INSERT
  8
LAYER_1
  2
AIGNBL0101017C
 10
0
 20
0
 30
0
  0
INSERT
  8
LAYER_1
  2
AIGNBL0101017D
 10
0
 20
0
 30
0
  0
INSERT
  8
LAYER_1
  2
AIGNBL0101017E
 10
0
 20
0
 30
0
  0
INSERT
  8
LAYER_1
  2
AIGNBL0101017F
 10
0
 20
0
 30
0
  0
INSERT
  8
LAYER_1
  2
AIGNBL01010180
 10
0
 20
0
 30
0
  0
INSERT
  8
LAYER_1
  2
AIGNBL01010181
 10
0
 20
0
 30
0
  0
INSERT
  8
LAYER_1
  2
AIGNBL01010182
 10
0
 20
0
 30
0
  0
INSERT
  8
LAYER_1
  2
AIGNBL01010183
 10
0
 20
0
 30
0
  0
INSERT
  8
LAYER_1
  2
AIGNBL01010184
 10
0
 20
0
 30
0
  0
INSERT
  8
LAYER_1
  2
AIGNBL01010185
 10
0
 20
0
 30
0
  0
INSERT
  8
LAYER_1
  2
AIGNBL01010186
 10
0
 20
0
 30
0
  0
INSERT
  8
LAYER_1
  2
AIGNBL01010187
 10
0
 20
0
 30
0
  0
INSERT
  8
LAYER_1
  2
AIGNBL01010188
 10
0
 20
0
 30
0
  0
INSERT
  8
LAYER_1
  2
AIGNBL01010189
 10
0
 20
0
 30
0
  0
INSERT
  8
LAYER_1
  2
AIGNBL0101018A
 10
0
 20
0
 30
0
  0
INSERT
  8
LAYER_1
  2
AIGNBL0101018B
 10
0
 20
0
 30
0
  0
INSERT
  8
LAYER_1
  2
AIGNBL0101018C
 10
0
 20
0
 30
0
  0
INSERT
  8
LAYER_1
  2
AIGNBL0101018D
 10
0
 20
0
 30
0
  0
INSERT
  8
LAYER_1
  2
AIGNBL0101018E
 10
0
 20
0
 30
0
  0
INSERT
  8
LAYER_1
  2
AIGNBL0101018F
 10
0
 20
0
 30
0
  0
INSERT
  8
LAYER_1
  2
AIGNBL01010190
 10
0
 20
0
 30
0
  0
INSERT
  8
LAYER_1
  2
AIGNBL01010191
 10
0
 20
0
 30
0
  0
INSERT
  8
LAYER_1
  2
AIGNBL01010192
 10
0
 20
0
 30
0
  0
INSERT
  8
LAYER_1
  2
AIGNBL01010193
 10
0
 20
0
 30
0
  0
INSERT
  8
LAYER_1
  2
AIGNBL01010194
 10
0
 20
0
 30
0
  0
INSERT
  8
LAYER_1
  2
AIGNBL01010195
 10
0
 20
0
 30
0
  0
INSERT
  8
LAYER_1
  2
AIGNBL01010196
 10
0
 20
0
 30
0
  0
INSERT
  8
LAYER_1
  2
AIGNBL01010197
 10
0
 20
0
 30
0
  0
INSERT
  8
LAYER_1
  2
AIGNBL01010198
 10
0
 20
0
 30
0
  0
INSERT
  8
LAYER_1
  2
AIGNBL01010199
 10
0
 20
0
 30
0
  0
INSERT
  8
LAYER_1
  2
AIGNBL0101019A
 10
0
 20
0
 30
0
  0
INSERT
  8
LAYER_1
  2
AIGNBL0101019B
 10
0
 20
0
 30
0
  0
INSERT
  8
LAYER_1
  2
AIGNBL0101019C
 10
0
 20
0
 30
0
  0
INSERT
  8
LAYER_1
  2
AIGNBL0101019D
 10
0
 20
0
 30
0
  0
INSERT
  8
LAYER_1
  2
AIGNBL0101019E
 10
0
 20
0
 30
0
  0
INSERT
  8
LAYER_1
  2
AIGNBL0101019F
 10
0
 20
0
 30
0
  0
INSERT
  8
LAYER_1
  2
AIGNBL010101A0
 10
0
 20
0
 30
0
  0
INSERT
  8
LAYER_1
  2
AIGNBL010101A1
 10
0
 20
0
 30
0
  0
INSERT
  8
LAYER_1
  2
AIGNBL010101A2
 10
0
 20
0
 30
0
  0
INSERT
  8
LAYER_1
  2
AIGNBL010101A3
 10
0
 20
0
 30
0
  0
INSERT
  8
LAYER_1
  2
AIGNBL010101A4
 10
0
 20
0
 30
0
  0
INSERT
  8
LAYER_1
  2
AIGNBL010101A5
 10
0
 20
0
 30
0
  0
INSERT
  8
LAYER_1
  2
AIGNBL010101A6
 10
0
 20
0
 30
0
  0
INSERT
  8
LAYER_1
  2
AIGNBL010101A7
 10
0
 20
0
 30
0
  0
INSERT
  8
LAYER_1
  2
AIGNBL010101A8
 10
0
 20
0
 30
0
  0
INSERT
  8
LAYER_1
  2
AIGNBL010101A9
 10
0
 20
0
 30
0
  0
INSERT
  8
LAYER_1
  2
AIGNBL010101AA
 10
0
 20
0
 30
0
  0
INSERT
  8
LAYER_1
  2
AIGNBL010101AB
 10
0
 20
0
 30
0
  0
INSERT
  8
LAYER_1
  2
AIGNBL010101AC
 10
0
 20
0
 30
0
  0
INSERT
  8
LAYER_1
  2
AIGNBL010101AD
 10
0
 20
0
 30
0
  0
INSERT
  8
LAYER_1
  2
AIGNBL010101AE
 10
0
 20
0
 30
0
  0
INSERT
  8
LAYER_1
  2
AIGNBL010101AF
 10
0
 20
0
 30
0
  0
INSERT
  8
LAYER_1
  2
AIGNBL010101B0
 10
0
 20
0
 30
0
  0
INSERT
  8
LAYER_1
  2
AIGNBL010101B1
 10
0
 20
0
 30
0
  0
INSERT
  8
LAYER_1
  2
AIGNBL010101B2
 10
0
 20
0
 30
0
  0
INSERT
  8
LAYER_1
  2
AIGNBL010101B3
 10
0
 20
0
 30
0
  0
INSERT
  8
LAYER_1
  2
AIGNBL010101B4
 10
0
 20
0
 30
0
  0
INSERT
  8
LAYER_1
  2
AIGNBL010101B5
 10
0
 20
0
 30
0
  0
INSERT
  8
LAYER_1
  2
AIGNBL010101B6
 10
0
 20
0
 30
0
  0
INSERT
  8
LAYER_1
  2
AIGNBL010101B7
 10
0
 20
0
 30
0
  0
INSERT
  8
LAYER_1
  2
AIGNBL010101B8
 10
0
 20
0
 30
0
  0
INSERT
  8
LAYER_1
  2
AIGNBL010101B9
 10
0
 20
0
 30
0
  0
INSERT
  8
LAYER_1
  2
AIGNBL010101BA
 10
0
 20
0
 30
0
  0
INSERT
  8
LAYER_1
  2
AIGNBL010101BB
 10
0
 20
0
 30
0
  0
INSERT
  8
LAYER_1
  2
AIGNBL010101BC
 10
0
 20
0
 30
0
  0
INSERT
  8
LAYER_1
  2
AIGNBL010101BD
 10
0
 20
0
 30
0
  0
INSERT
  8
LAYER_1
  2
AIGNBL010101BE
 10
0
 20
0
 30
0
  0
INSERT
  8
LAYER_1
  2
AIGNBL010101BF
 10
0
 20
0
 30
0
  0
INSERT
  8
LAYER_1
  2
AIGNBL010101C0
 10
0
 20
0
 30
0
  0
INSERT
  8
LAYER_1
  2
AIGNBL010101C1
 10
0
 20
0
 30
0
  0
INSERT
  8
LAYER_1
  2
AIGNBL010101C2
 10
0
 20
0
 30
0
  0
INSERT
  8
LAYER_1
  2
AIGNBL010101C3
 10
0
 20
0
 30
0
  0
INSERT
  8
LAYER_1
  2
AIGNBL010101C4
 10
0
 20
0
 30
0
  0
INSERT
  8
LAYER_1
  2
AIGNBL010101C5
 10
0
 20
0
 30
0
  0
INSERT
  8
LAYER_1
  2
AIGNBL010101C6
 10
0
 20
0
 30
0
  0
INSERT
  8
LAYER_1
  2
AIGNBL010101C7
 10
0
 20
0
 30
0
  0
INSERT
  8
LAYER_1
  2
AIGNBL010101C8
 10
0
 20
0
 30
0
  0
INSERT
  8
LAYER_1
  2
AIGNBL010101C9
 10
0
 20
0
 30
0
  0
INSERT
  8
LAYER_1
  2
AIGNBL010101CA
 10
0
 20
0
 30
0
  0
INSERT
  8
LAYER_1
  2
AIGNBL010101CB
 10
0
 20
0
 30
0
  0
INSERT
  8
LAYER_1
  2
AIGNBL010101CC
 10
0
 20
0
 30
0
  0
INSERT
  8
LAYER_1
  2
AIGNBL010101CD
 10
0
 20
0
 30
0
  0
INSERT
  8
LAYER_1
  2
AIGNBL010101CE
 10
0
 20
0
 30
0
  0
INSERT
  8
LAYER_1
  2
AIGNBL010101CF
 10
0
 20
0
 30
0
  0
INSERT
  8
LAYER_1
  2
AIGNBL010101D0
 10
0
 20
0
 30
0
  0
INSERT
  8
LAYER_1
  2
AIGNBL010101D1
 10
0
 20
0
 30
0
  0
INSERT
  8
LAYER_1
  2
AIGNBL010101D2
 10
0
 20
0
 30
0
  0
INSERT
  8
LAYER_1
  2
AIGNBL010101D3
 10
0
 20
0
 30
0
  0
INSERT
  8
LAYER_1
  2
AIGNBL010101D4
 10
0
 20
0
 30
0
  0
INSERT
  8
LAYER_1
  2
AIGNBL010101D5
 10
0
 20
0
 30
0
  0
INSERT
  8
LAYER_1
  2
AIGNBL010101D6
 10
0
 20
0
 30
0
  0
INSERT
  8
LAYER_1
  2
AIGNBL010101D7
 10
0
 20
0
 30
0
  0
INSERT
  8
LAYER_1
  2
AIGNBL010101D8
 10
0
 20
0
 30
0
  0
INSERT
  8
LAYER_1
  2
AIGNBL010101D9
 10
0
 20
0
 30
0
  0
INSERT
  8
LAYER_1
  2
AIGNBL010101DA
 10
0
 20
0
 30
0
  0
INSERT
  8
LAYER_1
  2
AIGNBL010101DB
 10
0
 20
0
 30
0
  0
INSERT
  8
LAYER_1
  2
AIGNBL010101DC
 10
0
 20
0
 30
0
  0
INSERT
  8
LAYER_1
  2
AIGNBL010101DD
 10
0
 20
0
 30
0
  0
INSERT
  8
LAYER_1
  2
AIGNBL010101DE
 10
0
 20
0
 30
0
  0
INSERT
  8
LAYER_1
  2
AIGNBL010101DF
 10
0
 20
0
 30
0
  0
INSERT
  8
LAYER_1
  2
AIGNBL010101E0
 10
0
 20
0
 30
0
  0
INSERT
  8
LAYER_1
  2
AIGNBL010101E1
 10
0
 20
0
 30
0
  0
INSERT
  8
LAYER_1
  2
AIGNBL010101E2
 10
0
 20
0
 30
0
  0
INSERT
  8
LAYER_1
  2
AIGNBL010101E3
 10
0
 20
0
 30
0
  0
INSERT
  8
LAYER_1
  2
AIGNBL010101E4
 10
0
 20
0
 30
0
  0
INSERT
  8
LAYER_1
  2
AIGNBL010101E5
 10
0
 20
0
 30
0
  0
INSERT
  8
LAYER_1
  2
AIGNBL010101E6
 10
0
 20
0
 30
0
  0
INSERT
  8
LAYER_1
  2
AIGNBL010101E7
 10
0
 20
0
 30
0
  0
INSERT
  8
LAYER_1
  2
AIGNBL010101E8
 10
0
 20
0
 30
0
  0
INSERT
  8
LAYER_1
  2
AIGNBL010101E9
 10
0
 20
0
 30
0
  0
INSERT
  8
LAYER_1
  2
AIGNBL010101EA
 10
0
 20
0
 30
0
  0
INSERT
  8
LAYER_1
  2
AIGNBL010101EB
 10
0
 20
0
 30
0
  0
INSERT
  8
LAYER_1
  2
AIGNBL010101EC
 10
0
 20
0
 30
0
  0
INSERT
  8
LAYER_1
  2
AIGNBL010101ED
 10
0
 20
0
 30
0
  0
INSERT
  8
LAYER_1
  2
AIGNBL010101EE
 10
0
 20
0
 30
0
  0
INSERT
  8
LAYER_1
  2
AIGNBL010101EF
 10
0
 20
0
 30
0
  0
INSERT
  8
LAYER_1
  2
AIGNBL010101F0
 10
0
 20
0
 30
0
  0
INSERT
  8
LAYER_1
  2
AIGNBL010101F1
 10
0
 20
0
 30
0
  0
INSERT
  8
LAYER_1
  2
AIGNBL010101F2
 10
0
 20
0
 30
0
  0
INSERT
  8
LAYER_1
  2
AIGNBL010101F3
 10
0
 20
0
 30
0
  0
INSERT
  8
LAYER_1
  2
AIGNBL010101F4
 10
0
 20
0
 30
0
  0
INSERT
  8
LAYER_1
  2
AIGNBL010101F5
 10
0
 20
0
 30
0
  0
INSERT
  8
LAYER_1
  2
AIGNBL010101F6
 10
0
 20
0
 30
0
  0
INSERT
  8
LAYER_1
  2
AIGNBL010101F7
 10
0
 20
0
 30
0
  0
INSERT
  8
LAYER_1
  2
AIGNBL010101F8
 10
0
 20
0
 30
0
  0
INSERT
  8
LAYER_1
  2
AIGNBL010101F9
 10
0
 20
0
 30
0
  0
INSERT
  8
LAYER_1
  2
AIGNBL010101FA
 10
0
 20
0
 30
0
  0
INSERT
  8
LAYER_1
  2
AIGNBL010101FB
 10
0
 20
0
 30
0
  0
INSERT
  8
LAYER_1
  2
AIGNBL010101FC
 10
0
 20
0
 30
0
  0
INSERT
  8
LAYER_1
  2
AIGNBL010101FD
 10
0
 20
0
 30
0
  0
INSERT
  8
LAYER_1
  2
AIGNBL010101FE
 10
0
 20
0
 30
0
  0
INSERT
  8
LAYER_1
  2
AIGNBL010101FF
 10
0
 20
0
 30
0
  0
INSERT
  8
LAYER_1
  2
AIGNBL01010200
 10
0
 20
0
 30
0
  0
INSERT
  8
LAYER_1
  2
AIGNBL01010201
 10
0
 20
0
 30
0
  0
INSERT
  8
LAYER_1
  2
AIGNBL01010202
 10
0
 20
0
 30
0
  0
INSERT
  8
LAYER_1
  2
AIGNBL01010203
 10
0
 20
0
 30
0
  0
INSERT
  8
LAYER_1
  2
AIGNBL01010204
 10
0
 20
0
 30
0
  0
INSERT
  8
LAYER_1
  2
AIGNBL01010205
 10
0
 20
0
 30
0
  0
INSERT
  8
LAYER_1
  2
AIGNBL01010206
 10
0
 20
0
 30
0
  0
INSERT
  8
LAYER_1
  2
AIGNBL01010207
 10
0
 20
0
 30
0
  0
INSERT
  8
LAYER_1
  2
AIGNBL01010208
 10
0
 20
0
 30
0
  0
INSERT
  8
LAYER_1
  2
AIGNBL01010209
 10
0
 20
0
 30
0
  0
INSERT
  8
LAYER_1
  2
AIGNBL0101020A
 10
0
 20
0
 30
0
  0
INSERT
  8
LAYER_1
  2
AIGNBL0101020B
 10
0
 20
0
 30
0
  0
INSERT
  8
LAYER_1
  2
AIGNBL0101020C
 10
0
 20
0
 30
0
  0
INSERT
  8
LAYER_1
  2
AIGNBL0101020D
 10
0
 20
0
 30
0
  0
INSERT
  8
LAYER_1
  2
AIGNBL0101020E
 10
0
 20
0
 30
0
  0
INSERT
  8
LAYER_1
  2
AIGNBL0101020F
 10
0
 20
0
 30
0
  0
INSERT
  8
LAYER_1
  2
AIGNBL01010210
 10
0
 20
0
 30
0
  0
INSERT
  8
LAYER_1
  2
AIGNBL01010211
 10
0
 20
0
 30
0
  0
INSERT
  8
LAYER_1
  2
AIGNBL01010212
 10
0
 20
0
 30
0
  0
INSERT
  8
LAYER_1
  2
AIGNBL01010213
 10
0
 20
0
 30
0
  0
INSERT
  8
LAYER_1
  2
AIGNBL01010214
 10
0
 20
0
 30
0
  0
INSERT
  8
LAYER_1
  2
AIGNBL01010215
 10
0
 20
0
 30
0
  0
INSERT
  8
LAYER_1
  2
AIGNBL01010216
 10
0
 20
0
 30
0
  0
INSERT
  8
LAYER_1
  2
AIGNBL01010217
 10
0
 20
0
 30
0
  0
INSERT
  8
LAYER_1
  2
AIGNBL01010218
 10
0
 20
0
 30
0
  0
INSERT
  8
LAYER_1
  2
AIGNBL01010219
 10
0
 20
0
 30
0
  0
INSERT
  8
LAYER_1
  2
AIGNBL0101021A
 10
0
 20
0
 30
0
  0
INSERT
  8
LAYER_1
  2
AIGNBL0101021B
 10
0
 20
0
 30
0
  0
INSERT
  8
LAYER_1
  2
AIGNBL0101021C
 10
0
 20
0
 30
0
  0
INSERT
  8
LAYER_1
  2
AIGNBL0101021D
 10
0
 20
0
 30
0
  0
INSERT
  8
LAYER_1
  2
AIGNBL0101021E
 10
0
 20
0
 30
0
  0
INSERT
  8
LAYER_1
  2
AIGNBL0101021F
 10
0
 20
0
 30
0
  0
INSERT
  8
LAYER_1
  2
AIGNBL01010220
 10
0
 20
0
 30
0
  0
INSERT
  8
LAYER_1
  2
AIGNBL01010221
 10
0
 20
0
 30
0
  0
INSERT
  8
LAYER_1
  2
AIGNBL01010222
 10
0
 20
0
 30
0
  0
INSERT
  8
LAYER_1
  2
AIGNBL01010223
 10
0
 20
0
 30
0
  0
INSERT
  8
LAYER_1
  2
AIGNBL01010224
 10
0
 20
0
 30
0
  0
INSERT
  8
LAYER_1
  2
AIGNBL01010225
 10
0
 20
0
 30
0
  0
INSERT
  8
LAYER_1
  2
AIGNBL01010226
 10
0
 20
0
 30
0
  0
INSERT
  8
LAYER_1
  2
AIGNBL01010227
 10
0
 20
0
 30
0
  0
INSERT
  8
LAYER_1
  2
AIGNBL01010228
 10
0
 20
0
 30
0
  0
INSERT
  8
LAYER_1
  2
AIGNBL01010229
 10
0
 20
0
 30
0
  0
INSERT
  8
LAYER_1
  2
AIGNBL0101022A
 10
0
 20
0
 30
0
  0
INSERT
  8
LAYER_1
  2
AIGNBL0101022B
 10
0
 20
0
 30
0
  0
INSERT
  8
LAYER_1
  2
AIGNBL0101022C
 10
0
 20
0
 30
0
  0
INSERT
  8
LAYER_1
  2
AIGNBL0101022D
 10
0
 20
0
 30
0
  0
INSERT
  8
LAYER_1
  2
AIGNBL0101022E
 10
0
 20
0
 30
0
  0
INSERT
  8
LAYER_1
  2
AIGNBL0101022F
 10
0
 20
0
 30
0
  0
INSERT
  8
LAYER_1
  2
AIGNBL01010230
 10
0
 20
0
 30
0
  0
INSERT
  8
LAYER_1
  2
AIGNBL01010231
 10
0
 20
0
 30
0
  0
INSERT
  8
LAYER_1
  2
AIGNBL01010232
 10
0
 20
0
 30
0
  0
INSERT
  8
LAYER_1
  2
AIGNBL01010233
 10
0
 20
0
 30
0
  0
INSERT
  8
LAYER_1
  2
AIGNBL01010234
 10
0
 20
0
 30
0
  0
ENDSEC
  0
EOF
