  0
SECTION
  2
HEADER
  9
$ACADVER
  1
AC1009
  9
$LUNITS
 70
2
  9
$LUPREC
 70
4
  9
$LTSCALE
 40
1.0
  9
$EXTMIN
 10
3.1173
 20
13.235
 30
0
  9
$EXTMAX
 10
287.6826
 20
325.0712
 30
0
  0
ENDSEC
  0
SECTION
  2
TABLES
  0
TABLE
  2
LTYPE
 70
256
  0
ENDTAB
  0
TABLE
  2
LAYER
 70
1
  0
LAYER
  2
LAYER_1
 70
64
 62
7
  6
CONTINUOUS
  0
ENDTAB
  0
TABLE
  2
STYLE
 70
6
  0
STYLE
  2
STANDARD
 70
0
 40
0
 50
0
 71
0
 41
0
 42
0
  3
TXT
  4
BIGFONT
  0
ENDTAB
  0
ENDSEC
  0
SECTION
  2
BLOCKS
  0
BLOCK
  8
LAYER_1
  2
AIGNBL01040005
 70
64
 10
0
 20
0
 30
0
  3
AIGNBL01040005
  0
POLYLINE
  8
LAYER_1
 40
0.05
 41
0.05
 62
39
 66
1
 10
0
 20
0
 30
0
 70
1
  0
VERTEX
  8
LAYER_1
 10
191.0642
 20
22.2284
  0
VERTEX
  8
LAYER_1
 10
190.5753
 20
21.0433
  0
VERTEX
  8
LAYER_1
 10
189.9473
 20
21.0433
  0
VERTEX
  8
LAYER_1
 10
191.5468
 20
24.8092
  0
VERTEX
  8
LAYER_1
 10
192.2799
 20
24.8092
  0
VERTEX
  8
LAYER_1
 10
193.8864
 20
21.0433
  0
VERTEX
  8
LAYER_1
 10
193.2363
 20
21.0433
  0
VERTEX
  8
LAYER_1
 10
192.7336
 20
22.2284
  0
SEQEND
  0
POLYLINE
  8
LAYER_1
 40
0.05
 41
0.05
 62
39
 66
1
 10
0
 20
0
 30
0
 70
1
  0
VERTEX
  8
LAYER_1
 10
192.6079
 20
22.6074
  0
VERTEX
  8
LAYER_1
 10
192.1469
 20
23.6922
  0
VERTEX
  8
LAYER_1
 10
191.9023
 20
24.3792
  0
VERTEX
  8
LAYER_1
 10
191.8886
 20
24.3792
  0
VERTEX
  8
LAYER_1
 10
191.6509
 20
23.6967
  0
VERTEX
  8
LAYER_1
 10
191.1902
 20
22.6074
  0
SEQEND
  0
ENDBLK
  0
BLOCK
  8
LAYER_1
  2
AIGNBL01040006
 70
64
 10
0
 20
0
 30
0
  3
AIGNBL01040006
  0
POLYLINE
  8
LAYER_1
 40
0.05
 41
0.05
 62
39
 66
1
 10
0
 20
0
 30
0
 70
1
  0
VERTEX
  8
LAYER_1
 10
198.2517
 20
20.49
 42
-0.01563743173
  0
VERTEX
  8
LAYER_1
 10
196.4495
 20
20.9262
  0
VERTEX
  8
LAYER_1
 10
196.1629
 20
20.9816
 42
-0.08356586593
  0
VERTEX
  8
LAYER_1
 10
195.2988
 20
21.1478
 42
-0.09749891868
  0
VERTEX
  8
LAYER_1
 10
194.6377
 20
21.5537
 42
-0.2129139625
  0
VERTEX
  8
LAYER_1
 10
194.0889
 20
22.8864
 42
-0.09685416448
  0
VERTEX
  8
LAYER_1
 10
194.2335
 20
23.6598
 42
-0.2046320353
  0
VERTEX
  8
LAYER_1
 10
195.2811
 20
24.6841
 42
-0.09825228572
  0
VERTEX
  8
LAYER_1
 10
196.2821
 20
24.8705
 42
-0.08554836282
  0
VERTEX
  8
LAYER_1
 10
197.1507
 20
24.7292
 42
-0.1004347897
  0
VERTEX
  8
LAYER_1
 10
197.8158
 20
24.3349
 42
-0.2140895568
  0
VERTEX
  8
LAYER_1
 10
198.3912
 20
22.965
 42
-0.09540850229
  0
VERTEX
  8
LAYER_1
 10
198.2523
 20
22.1972
 42
-0.2143210227
  0
VERTEX
  8
LAYER_1
 10
197.2294
 20
21.2187
 42
-0.02338900436
  0
VERTEX
  8
LAYER_1
 10
197.0503
 20
21.1604
  0
VERTEX
  8
LAYER_1
 10
197.0503
 20
21.138
 42
0.01711211955
  0
VERTEX
  8
LAYER_1
 10
198.4267
 20
20.8979
  0
SEQEND
  0
POLYLINE
  8
LAYER_1
 40
0.05
 41
0.05
 62
39
 66
1
 10
0
 20
0
 30
0
 70
1
  0
VERTEX
  8
LAYER_1
 10
197.749
 20
22.9436
 42
0.1071543648
  0
VERTEX
  8
LAYER_1
 10
197.5977
 20
23.6484
 42
0.2976507644
  0
VERTEX
  8
LAYER_1
 10
196.2607
 20
24.4739
 42
0.1072265869
  0
VERTEX
  8
LAYER_1
 10
195.5709
 20
24.3344
 42
0.2386027189
  0
VERTEX
  8
LAYER_1
 10
194.7839
 20
23.3288
 42
0.05751346494
  0
VERTEX
  8
LAYER_1
 10
194.7383
 20
22.8988
 42
0.2180663696
  0
VERTEX
  8
LAYER_1
 10
195.2689
 20
21.7034
 42
0.1772758138
  0
VERTEX
  8
LAYER_1
 10
196.2328
 20
21.3778
 42
0.1075185771
  0
VERTEX
  8
LAYER_1
 10
196.9142
 20
21.5168
 42
0.2370926009
  0
VERTEX
  8
LAYER_1
 10
197.7013
 20
22.5164
 42
0.05601310134
  0
SEQEND
  0
ENDBLK
  0
BLOCK
  8
LAYER_1
  2
AIGNBL01040007
 70
64
 10
0
 20
0
 30
0
  3
AIGNBL01040007
  0
POLYLINE
  8
LAYER_1
 40
0.05
 41
0.05
 62
39
 66
1
 10
0
 20
0
 30
0
 70
1
  0
VERTEX
  8
LAYER_1
 10
199.7186
 20
24.8092
  0
VERTEX
  8
LAYER_1
 10
199.7186
 20
22.5798
 42
0.1145161066
  0
VERTEX
  8
LAYER_1
 10
199.8525
 20
21.914
 42
0.1464833358
  0
VERTEX
  8
LAYER_1
 10
200.2028
 20
21.5288
 42
0.1362674881
  0
VERTEX
  8
LAYER_1
 10
200.8151
 20
21.3778
 42
0.121920808
  0
VERTEX
  8
LAYER_1
 10
201.4383
 20
21.5125
 42
0.1503067419
  0
VERTEX
  8
LAYER_1
 10
201.8101
 20
21.8815
 42
0.1256285103
  0
VERTEX
  8
LAYER_1
 10
201.9607
 20
22.5798
  0
VERTEX
  8
LAYER_1
 10
201.9607
 20
24.8092
  0
VERTEX
  8
LAYER_1
 10
202.5753
 20
24.8092
  0
VERTEX
  8
LAYER_1
 10
202.5753
 20
22.6132
 42
-0.09997895241
  0
VERTEX
  8
LAYER_1
 10
202.4404
 20
21.8705
 42
-0.1214934275
  0
VERTEX
  8
LAYER_1
 10
202.0671
 20
21.3639
 42
-0.110620524
  0
VERTEX
  8
LAYER_1
 10
201.4416
 20
21.0572
 42
-0.06129362553
  0
VERTEX
  8
LAYER_1
 10
200.7941
 20
20.9816
 42
-0.09420005614
  0
VERTEX
  8
LAYER_1
 10
199.975
 20
21.1198
 42
-0.24315236
  0
VERTEX
  8
LAYER_1
 10
199.1715
 20
22.0305
 42
-0.0632033471
  0
VERTEX
  8
LAYER_1
 10
199.104
 20
22.5912
  0
VERTEX
  8
LAYER_1
 10
199.104
 20
24.8092
  0
SEQEND
  0
ENDBLK
  0
BLOCK
  8
LAYER_1
  2
AIGNBL01040008
 70
64
 10
0
 20
0
 30
0
  3
AIGNBL01040008
  0
POLYLINE
  8
LAYER_1
 40
0.05
 41
0.05
 62
39
 66
1
 10
0
 20
0
 30
0
 70
1
  0
VERTEX
  8
LAYER_1
 10
204.3215
 20
22.2284
  0
VERTEX
  8
LAYER_1
 10
203.8323
 20
21.0433
  0
VERTEX
  8
LAYER_1
 10
203.2043
 20
21.0433
  0
VERTEX
  8
LAYER_1
 10
204.8035
 20
24.8092
  0
VERTEX
  8
LAYER_1
 10
205.5367
 20
24.8092
  0
VERTEX
  8
LAYER_1
 10
207.1431
 20
21.0433
  0
VERTEX
  8
LAYER_1
 10
206.4937
 20
21.0433
  0
VERTEX
  8
LAYER_1
 10
205.9911
 20
22.2284
  0
SEQEND
  0
POLYLINE
  8
LAYER_1
 40
0.05
 41
0.05
 62
39
 66
1
 10
0
 20
0
 30
0
 70
1
  0
VERTEX
  8
LAYER_1
 10
205.8649
 20
22.6074
  0
VERTEX
  8
LAYER_1
 10
205.4037
 20
23.6922
  0
VERTEX
  8
LAYER_1
 10
205.1591
 20
24.3792
  0
VERTEX
  8
LAYER_1
 10
205.1453
 20
24.3792
  0
VERTEX
  8
LAYER_1
 10
204.9079
 20
23.6967
  0
VERTEX
  8
LAYER_1
 10
204.447
 20
22.6074
  0
SEQEND
  0
ENDBLK
  0
BLOCK
  8
LAYER_1
  2
AIGNBL01040009
 70
64
 10
0
 20
0
 30
0
  3
AIGNBL01040009
  0
POLYLINE
  8
LAYER_1
 40
0.05
 41
0.05
 62
39
 66
1
 10
0
 20
0
 30
0
 70
1
  0
VERTEX
  8
LAYER_1
 10
208.1839
 20
24.7644
 42
-0.03240300255
  0
VERTEX
  8
LAYER_1
 10
209.3507
 20
24.8374
 42
-0.08082287254
  0
VERTEX
  8
LAYER_1
 10
210.3072
 20
24.7056
 42
-0.07816212749
  0
VERTEX
  8
LAYER_1
 10
210.6705
 20
24.5246
 42
-0.2483921074
  0
VERTEX
  8
LAYER_1
 10
211.0822
 20
23.7363
 42
-0.226147
  0
VERTEX
  8
LAYER_1
 10
210.7191
 20
22.9322
 42
-0.109727648
  0
VERTEX
  8
LAYER_1
 10
210.0908
 20
22.6189
 42
-0.06565380896
  0
VERTEX
  8
LAYER_1
 10
209.2804
 20
22.5185
 42
-0.06238309955
  0
VERTEX
  8
LAYER_1
 10
208.7919
 20
22.5519
  0
VERTEX
  8
LAYER_1
 10
208.7919
 20
21.0433
  0
VERTEX
  8
LAYER_1
 10
208.1839
 20
21.0433
  0
SEQEND
  0
POLYLINE
  8
LAYER_1
 40
0.05
 41
0.05
 62
39
 66
1
 10
0
 20
0
 30
0
 70
1
  0
VERTEX
  8
LAYER_1
 10
208.7919
 20
22.9488
 42
0.04203451964
  0
VERTEX
  8
LAYER_1
 10
209.2942
 20
22.9095
 42
0.1032325703
  0
VERTEX
  8
LAYER_1
 10
210.0134
 20
23.0368
 42
0.1555838345
  0
VERTEX
  8
LAYER_1
 10
210.3782
 20
23.3413
 42
0.1352564048
  0
VERTEX
  8
LAYER_1
 10
210.4752
 20
23.714
 42
0.1737230689
  0
VERTEX
  8
LAYER_1
 10
210.3404
 20
24.1213
 42
0.1517081527
  0
VERTEX
  8
LAYER_1
 10
209.9193
 20
24.3807
 42
0.0687773514
  0
VERTEX
  8
LAYER_1
 10
209.3648
 20
24.4515
 42
0.06336983159
  0
VERTEX
  8
LAYER_1
 10
208.7919
 20
24.4123
  0
SEQEND
  0
ENDBLK
  0
BLOCK
  8
LAYER_1
  2
AIGNBL0104000A
 70
64
 10
0
 20
0
 30
0
  3
AIGNBL0104000A
  0
POLYLINE
  8
LAYER_1
 40
0.05
 41
0.05
 62
39
 66
1
 10
0
 20
0
 30
0
 70
1
  0
VERTEX
  8
LAYER_1
 10
212.6342
 20
24.5074
 42
-0.2768160409
  0
VERTEX
  8
LAYER_1
 10
212.4947
 20
24.2673
 42
-0.1264799952
  0
VERTEX
  8
LAYER_1
 10
212.2425
 20
24.2056
 42
-0.2237457958
  0
VERTEX
  8
LAYER_1
 10
211.9322
 20
24.338
 42
-0.1708186296
  0
VERTEX
  8
LAYER_1
 10
211.8722
 20
24.5074
 42
-0.2643957951
  0
VERTEX
  8
LAYER_1
 10
212.0216
 20
24.7544
 42
-0.1289907874
  0
VERTEX
  8
LAYER_1
 10
212.2563
 20
24.8143
 42
-0.2252979244
  0
VERTEX
  8
LAYER_1
 10
212.5731
 20
24.6837
 42
-0.1691669651
  0
SEQEND
  0
POLYLINE
  8
LAYER_1
 40
0.05
 41
0.05
 62
39
 66
1
 10
0
 20
0
 30
0
 70
1
  0
VERTEX
  8
LAYER_1
 10
211.9487
 20
21.0433
  0
VERTEX
  8
LAYER_1
 10
211.9487
 20
23.7474
  0
VERTEX
  8
LAYER_1
 10
212.5633
 20
23.7474
  0
VERTEX
  8
LAYER_1
 10
212.5633
 20
21.0433
  0
SEQEND
  0
ENDBLK
  0
BLOCK
  8
LAYER_1
  2
AIGNBL0104000B
 70
64
 10
0
 20
0
 30
0
  3
AIGNBL0104000B
  0
POLYLINE
  8
LAYER_1
 40
0.05
 41
0.05
 62
39
 66
1
 10
0
 20
0
 30
0
 70
1
  0
VERTEX
  8
LAYER_1
 10
214.435
 20
22.2284
  0
VERTEX
  8
LAYER_1
 10
213.9468
 20
21.0433
  0
VERTEX
  8
LAYER_1
 10
213.3177
 20
21.0433
  0
VERTEX
  8
LAYER_1
 10
214.9173
 20
24.8092
  0
VERTEX
  8
LAYER_1
 10
215.6511
 20
24.8092
  0
VERTEX
  8
LAYER_1
 10
217.2576
 20
21.0433
  0
VERTEX
  8
LAYER_1
 10
216.6078
 20
21.0433
  0
VERTEX
  8
LAYER_1
 10
216.1052
 20
22.2284
  0
SEQEND
  0
POLYLINE
  8
LAYER_1
 40
0.05
 41
0.05
 62
39
 66
1
 10
0
 20
0
 30
0
 70
1
  0
VERTEX
  8
LAYER_1
 10
215.9791
 20
22.6074
  0
VERTEX
  8
LAYER_1
 10
215.5181
 20
23.6922
  0
VERTEX
  8
LAYER_1
 10
215.2742
 20
24.3792
  0
VERTEX
  8
LAYER_1
 10
215.2594
 20
24.3792
  0
VERTEX
  8
LAYER_1
 10
215.0224
 20
23.6967
  0
VERTEX
  8
LAYER_1
 10
214.5614
 20
22.6074
  0
SEQEND
  0
ENDBLK
  0
BLOCK
  8
LAYER_1
  2
AIGNBL01030004
 70
64
 10
0
 20
0
 30
0
  3
AIGNBL01030004
  0
INSERT
  8
LAYER_1
  2
AIGNBL01040005
 10
0
 20
0
 30
0
  0
INSERT
  8
LAYER_1
  2
AIGNBL01040006
 10
0
 20
0
 30
0
  0
INSERT
  8
LAYER_1
  2
AIGNBL01040007
 10
0
 20
0
 30
0
  0
INSERT
  8
LAYER_1
  2
AIGNBL01040008
 10
0
 20
0
 30
0
  0
INSERT
  8
LAYER_1
  2
AIGNBL01040009
 10
0
 20
0
 30
0
  0
INSERT
  8
LAYER_1
  2
AIGNBL0104000A
 10
0
 20
0
 30
0
  0
INSERT
  8
LAYER_1
  2
AIGNBL0104000B
 10
0
 20
0
 30
0
  0
ENDBLK
  0
BLOCK
  8
LAYER_1
  2
AIGNBL0103000D
 70
64
 10
0
 20
0
 30
0
  3
AIGNBL0103000D
  0
POLYLINE
  8
LAYER_1
 40
0.05
 41
0.05
 62
39
 66
1
 10
0
 20
0
 30
0
 70
1
  0
VERTEX
  8
LAYER_1
 10
190.0572
 20
19.144
  0
VERTEX
  8
LAYER_1
 10
190.6104
 20
19.144
  0
VERTEX
  8
LAYER_1
 10
190.6104
 20
19.0503
  0
VERTEX
  8
LAYER_1
 10
189.9521
 20
19.0503
  0
VERTEX
  8
LAYER_1
 10
189.9521
 20
20.0835
  0
VERTEX
  8
LAYER_1
 10
190.5928
 20
20.0835
  0
VERTEX
  8
LAYER_1
 10
190.5928
 20
19.9901
  0
VERTEX
  8
LAYER_1
 10
190.0572
 20
19.9901
  0
VERTEX
  8
LAYER_1
 10
190.0572
 20
19.6356
  0
VERTEX
  8
LAYER_1
 10
190.5577
 20
19.6356
  0
VERTEX
  8
LAYER_1
 10
190.5577
 20
19.5423
  0
VERTEX
  8
LAYER_1
 10
190.0572
 20
19.5423
  0
SEQEND
  0
ENDBLK
  0
BLOCK
  8
LAYER_1
  2
AIGNBL0103000E
 70
64
 10
0
 20
0
 30
0
  3
AIGNBL0103000E
  0
POLYLINE
  8
LAYER_1
 40
0.05
 41
0.05
 62
39
 66
1
 10
0
 20
0
 30
0
 70
1
  0
VERTEX
  8
LAYER_1
 10
191.7501
 20
19.2036
  0
VERTEX
  8
LAYER_1
 10
191.7528
 20
19.2036
  0
VERTEX
  8
LAYER_1
 10
191.7528
 20
20.0835
  0
VERTEX
  8
LAYER_1
 10
191.8579
 20
20.0835
  0
VERTEX
  8
LAYER_1
 10
191.8579
 20
19.0503
  0
VERTEX
  8
LAYER_1
 10
191.727
 20
19.0503
  0
VERTEX
  8
LAYER_1
 10
191.1258
 20
19.9392
  0
VERTEX
  8
LAYER_1
 10
191.1224
 20
19.9392
  0
VERTEX
  8
LAYER_1
 10
191.1224
 20
19.0503
  0
VERTEX
  8
LAYER_1
 10
191.0176
 20
19.0503
  0
VERTEX
  8
LAYER_1
 10
191.0176
 20
20.0835
  0
VERTEX
  8
LAYER_1
 10
191.1489
 20
20.0835
  0
SEQEND
  0
ENDBLK
  0
BLOCK
  8
LAYER_1
  2
AIGNBL0103000F
 70
64
 10
0
 20
0
 30
0
  3
AIGNBL0103000F
  0
POLYLINE
  8
LAYER_1
 40
0.05
 41
0.05
 62
39
 66
1
 10
0
 20
0
 30
0
 70
1
  0
VERTEX
  8
LAYER_1
 10
192.3309
 20
19.2622
  0
VERTEX
  8
LAYER_1
 10
192.3853
 20
19.1592
 42
0.1808129973
  0
VERTEX
  8
LAYER_1
 10
192.4987
 20
19.1175
  0
VERTEX
  8
LAYER_1
 10
192.5879
 20
19.1371
  0
VERTEX
  8
LAYER_1
 10
192.6441
 20
19.1905
  0
VERTEX
  8
LAYER_1
 10
192.673
 20
19.267
  0
VERTEX
  8
LAYER_1
 10
192.6813
 20
19.3566
  0
VERTEX
  8
LAYER_1
 10
192.6813
 20
20.0835
  0
VERTEX
  8
LAYER_1
 10
192.7863
 20
20.0835
  0
VERTEX
  8
LAYER_1
 10
192.7863
 20
19.348
  0
VERTEX
  8
LAYER_1
 10
192.775
 20
19.2401
  0
VERTEX
  8
LAYER_1
 10
192.7336
 20
19.1351
  0
VERTEX
  8
LAYER_1
 10
192.6489
 20
19.0555
  0
VERTEX
  8
LAYER_1
 10
192.5101
 20
19.0241
 42
-0.1849648081
  0
VERTEX
  8
LAYER_1
 10
192.3254
 20
19.0841
 42
-0.1765293084
  0
VERTEX
  8
LAYER_1
 10
192.2331
 20
19.2357
  0
SEQEND
  0
ENDBLK
  0
BLOCK
  8
LAYER_1
  2
AIGNBL01030010
 70
64
 10
0
 20
0
 30
0
  3
AIGNBL01030010
  0
POLYLINE
  8
LAYER_1
 40
0.05
 41
0.05
 62
39
 66
1
 10
0
 20
0
 30
0
 70
1
  0
VERTEX
  8
LAYER_1
 10
194.2746
 20
19.5671
 42
-0.1039024845
  0
VERTEX
  8
LAYER_1
 10
194.2336
 20
19.3497
 42
-0.1002458474
  0
VERTEX
  8
LAYER_1
 10
194.121
 20
19.1781
  0
VERTEX
  8
LAYER_1
 10
193.9501
 20
19.0651
 42
-0.09506675375
  0
VERTEX
  8
LAYER_1
 10
193.7362
 20
19.0241
 42
-0.1010866674
  0
VERTEX
  8
LAYER_1
 10
193.5226
 20
19.0651
 42
-0.1005760356
  0
VERTEX
  8
LAYER_1
 10
193.3517
 20
19.1781
 42
-0.09479293922
  0
VERTEX
  8
LAYER_1
 10
193.2384
 20
19.3497
 42
-0.09316534225
  0
VERTEX
  8
LAYER_1
 10
193.1977
 20
19.5671
 42
-0.1027149125
  0
VERTEX
  8
LAYER_1
 10
193.2384
 20
19.7845
 42
-0.1007559602
  0
VERTEX
  8
LAYER_1
 10
193.3517
 20
19.956
 42
-0.09625543395
  0
VERTEX
  8
LAYER_1
 10
193.5226
 20
20.069
 42
-0.09532420784
  0
VERTEX
  8
LAYER_1
 10
193.7362
 20
20.11
 42
-0.1018017754
  0
VERTEX
  8
LAYER_1
 10
193.9501
 20
20.069
 42
-0.09853409661
  0
VERTEX
  8
LAYER_1
 10
194.121
 20
19.956
 42
-0.09543199427
  0
VERTEX
  8
LAYER_1
 10
194.2336
 20
19.7845
 42
-0.09397287008
  0
SEQEND
  0
POLYLINE
  8
LAYER_1
 40
0.05
 41
0.05
 62
39
 66
1
 10
0
 20
0
 30
0
 70
1
  0
VERTEX
  8
LAYER_1
 10
194.1637
 20
19.5664
  0
VERTEX
  8
LAYER_1
 10
194.1348
 20
19.7383
  0
VERTEX
  8
LAYER_1
 10
194.05
 20
19.8816
  0
VERTEX
  8
LAYER_1
 10
193.915
 20
19.9798
  0
VERTEX
  8
LAYER_1
 10
193.7362
 20
20.0167
  0
VERTEX
  8
LAYER_1
 10
193.5574
 20
19.9798
  0
VERTEX
  8
LAYER_1
 10
193.4227
 20
19.8816
  0
VERTEX
  8
LAYER_1
 10
193.3379
 20
19.7383
  0
VERTEX
  8
LAYER_1
 10
193.3086
 20
19.5664
  0
VERTEX
  8
LAYER_1
 10
193.3379
 20
19.3945
  0
VERTEX
  8
LAYER_1
 10
193.4227
 20
19.2515
  0
VERTEX
  8
LAYER_1
 10
193.5574
 20
19.154
 42
0.1008280473
  0
VERTEX
  8
LAYER_1
 10
193.7362
 20
19.1175
  0
VERTEX
  8
LAYER_1
 10
193.915
 20
19.154
  0
VERTEX
  8
LAYER_1
 10
194.05
 20
19.2515
  0
VERTEX
  8
LAYER_1
 10
194.1348
 20
19.3945
  0
SEQEND
  0
ENDBLK
  0
BLOCK
  8
LAYER_1
  2
AIGNBL01030011
 70
64
 10
0
 20
0
 30
0
  3
AIGNBL01030011
  0
POLYLINE
  8
LAYER_1
 40
0.05
 41
0.05
 62
39
 66
1
 10
0
 20
0
 30
0
 70
1
  0
VERTEX
  8
LAYER_1
 10
195.0494
 20
19.0503
  0
VERTEX
  8
LAYER_1
 10
194.9447
 20
19.0503
  0
VERTEX
  8
LAYER_1
 10
194.9447
 20
19.4958
  0
VERTEX
  8
LAYER_1
 10
194.5578
 20
20.0835
  0
VERTEX
  8
LAYER_1
 10
194.6891
 20
20.0835
  0
VERTEX
  8
LAYER_1
 10
195.0002
 20
19.5833
  0
VERTEX
  8
LAYER_1
 10
195.3137
 20
20.0835
  0
VERTEX
  8
LAYER_1
 10
195.436
 20
20.0835
  0
VERTEX
  8
LAYER_1
 10
195.0494
 20
19.4958
  0
SEQEND
  0
ENDBLK
  0
BLOCK
  8
LAYER_1
  2
AIGNBL01030012
 70
64
 10
0
 20
0
 30
0
  3
AIGNBL01030012
  0
POLYLINE
  8
LAYER_1
 40
0.05
 41
0.05
 62
39
 66
1
 10
0
 20
0
 30
0
 70
1
  0
VERTEX
  8
LAYER_1
 10
196.341
 20
20.0835
  0
VERTEX
  8
LAYER_1
 10
196.6486
 20
20.0835
  0
VERTEX
  8
LAYER_1
 10
196.7672
 20
20.0711
  0
VERTEX
  8
LAYER_1
 10
196.8739
 20
20.0287
  0
VERTEX
  8
LAYER_1
 10
196.9518
 20
19.9478
  0
VERTEX
  8
LAYER_1
 10
196.9814
 20
19.8196
 42
-0.1790346201
  0
VERTEX
  8
LAYER_1
 10
196.9315
 20
19.6773
 42
-0.1631549063
  0
VERTEX
  8
LAYER_1
 10
196.7982
 20
19.5977
  0
VERTEX
  8
LAYER_1
 10
196.7982
 20
19.595
 42
-0.1735745096
  0
VERTEX
  8
LAYER_1
 10
196.9649
 20
19.5168
 42
-0.1922132794
  0
VERTEX
  8
LAYER_1
 10
197.031
 20
19.3363
  0
VERTEX
  8
LAYER_1
 10
197.0038
 20
19.2191
  0
VERTEX
  8
LAYER_1
 10
196.9277
 20
19.1285
  0
VERTEX
  8
LAYER_1
 10
196.8068
 20
19.071
  0
VERTEX
  8
LAYER_1
 10
196.6469
 20
19.0503
  0
VERTEX
  8
LAYER_1
 10
196.341
 20
19.0503
  0
SEQEND
  0
POLYLINE
  8
LAYER_1
 40
0.05
 41
0.05
 62
39
 66
1
 10
0
 20
0
 30
0
 70
1
  0
VERTEX
  8
LAYER_1
 10
196.4461
 20
19.6312
  0
VERTEX
  8
LAYER_1
 10
196.6576
 20
19.6312
  0
VERTEX
  8
LAYER_1
 10
196.7344
 20
19.6401
  0
VERTEX
  8
LAYER_1
 10
196.8047
 20
19.6697
  0
VERTEX
  8
LAYER_1
 10
196.8567
 20
19.7263
  0
VERTEX
  8
LAYER_1
 10
196.8764
 20
19.8124
  0
VERTEX
  8
LAYER_1
 10
196.8567
 20
19.8961
  0
VERTEX
  8
LAYER_1
 10
196.8037
 20
19.9523
  0
VERTEX
  8
LAYER_1
 10
196.7248
 20
19.9836
  0
VERTEX
  8
LAYER_1
 10
196.6283
 20
19.9932
  0
VERTEX
  8
LAYER_1
 10
196.4461
 20
19.9932
  0
SEQEND
  0
POLYLINE
  8
LAYER_1
 40
0.05
 41
0.05
 62
39
 66
1
 10
0
 20
0
 30
0
 70
1
  0
VERTEX
  8
LAYER_1
 10
196.4461
 20
19.1409
  0
VERTEX
  8
LAYER_1
 10
196.6418
 20
19.1409
  0
VERTEX
  8
LAYER_1
 10
196.7503
 20
19.1519
  0
VERTEX
  8
LAYER_1
 10
196.8409
 20
19.1868
  0
VERTEX
  8
LAYER_1
 10
196.9026
 20
19.2498
  0
VERTEX
  8
LAYER_1
 10
196.926
 20
19.3425
 42
0.2557371221
  0
VERTEX
  8
LAYER_1
 10
196.8567
 20
19.4947
 42
0.1381508151
  0
VERTEX
  8
LAYER_1
 10
196.6607
 20
19.545
  0
VERTEX
  8
LAYER_1
 10
196.4461
 20
19.545
  0
SEQEND
  0
ENDBLK
  0
BLOCK
  8
LAYER_1
  2
AIGNBL01030013
 70
64
 10
0
 20
0
 30
0
  3
AIGNBL01030013
  0
POLYLINE
  8
LAYER_1
 40
0.05
 41
0.05
 62
39
 66
1
 10
0
 20
0
 30
0
 70
1
  0
VERTEX
  8
LAYER_1
 10
197.4631
 20
19.0503
  0
VERTEX
  8
LAYER_1
 10
197.3477
 20
19.0503
  0
VERTEX
  8
LAYER_1
 10
197.7945
 20
20.0835
  0
VERTEX
  8
LAYER_1
 10
197.8968
 20
20.0835
  0
VERTEX
  8
LAYER_1
 10
198.3402
 20
19.0503
  0
VERTEX
  8
LAYER_1
 10
198.2234
 20
19.0503
  0
VERTEX
  8
LAYER_1
 10
198.1094
 20
19.3218
  0
VERTEX
  8
LAYER_1
 10
197.5754
 20
19.3218
  0
SEQEND
  0
POLYLINE
  8
LAYER_1
 40
0.05
 41
0.05
 62
39
 66
1
 10
0
 20
0
 30
0
 70
1
  0
VERTEX
  8
LAYER_1
 10
197.6146
 20
19.4182
  0
VERTEX
  8
LAYER_1
 10
198.0701
 20
19.4182
  0
VERTEX
  8
LAYER_1
 10
197.8424
 20
19.9671
  0
SEQEND
  0
ENDBLK
  0
BLOCK
  8
LAYER_1
  2
AIGNBL01030014
 70
64
 10
0
 20
0
 30
0
  3
AIGNBL01030014
  0
POLYLINE
  8
LAYER_1
 40
0.05
 41
0.05
 62
39
 66
1
 10
0
 20
0
 30
0
 70
1
  0
VERTEX
  8
LAYER_1
 10
199.0247
 20
19.0503
  0
VERTEX
  8
LAYER_1
 10
198.9196
 20
19.0503
  0
VERTEX
  8
LAYER_1
 10
198.9196
 20
19.9901
  0
VERTEX
  8
LAYER_1
 10
198.5734
 20
19.9901
  0
VERTEX
  8
LAYER_1
 10
198.5734
 20
20.0835
  0
VERTEX
  8
LAYER_1
 10
199.3703
 20
20.0835
  0
VERTEX
  8
LAYER_1
 10
199.3703
 20
19.9901
  0
VERTEX
  8
LAYER_1
 10
199.0247
 20
19.9901
  0
SEQEND
  0
ENDBLK
  0
BLOCK
  8
LAYER_1
  2
AIGNBL01030015
 70
64
 10
0
 20
0
 30
0
  3
AIGNBL01030015
  0
POLYLINE
  8
LAYER_1
 40
0.05
 41
0.05
 62
39
 66
1
 10
0
 20
0
 30
0
 70
1
  0
VERTEX
  8
LAYER_1
 10
199.7265
 20
20.0835
  0
VERTEX
  8
LAYER_1
 10
199.8312
 20
20.0835
  0
VERTEX
  8
LAYER_1
 10
199.8312
 20
19.6356
  0
VERTEX
  8
LAYER_1
 10
200.3948
 20
19.6356
  0
VERTEX
  8
LAYER_1
 10
200.3948
 20
20.0835
  0
VERTEX
  8
LAYER_1
 10
200.4999
 20
20.0835
  0
VERTEX
  8
LAYER_1
 10
200.4999
 20
19.0503
  0
VERTEX
  8
LAYER_1
 10
200.3948
 20
19.0503
  0
VERTEX
  8
LAYER_1
 10
200.3948
 20
19.5395
  0
VERTEX
  8
LAYER_1
 10
199.8312
 20
19.5395
  0
VERTEX
  8
LAYER_1
 10
199.8312
 20
19.0503
  0
VERTEX
  8
LAYER_1
 10
199.7265
 20
19.0503
  0
SEQEND
  0
ENDBLK
  0
BLOCK
  8
LAYER_1
  2
AIGNBL01030016
 70
64
 10
0
 20
0
 30
0
  3
AIGNBL01030016
  0
POLYLINE
  8
LAYER_1
 40
0.05
 41
0.05
 62
39
 66
1
 10
0
 20
0
 30
0
 70
1
  0
VERTEX
  8
LAYER_1
 10
201.0804
 20
19.0503
  0
VERTEX
  8
LAYER_1
 10
200.9753
 20
19.0503
  0
VERTEX
  8
LAYER_1
 10
200.9753
 20
20.0835
  0
VERTEX
  8
LAYER_1
 10
201.2792
 20
20.0835
  0
VERTEX
  8
LAYER_1
 10
201.4198
 20
20.069
  0
VERTEX
  8
LAYER_1
 10
201.5324
 20
20.0215
  0
VERTEX
  8
LAYER_1
 10
201.6058
 20
19.9361
  0
VERTEX
  8
LAYER_1
 10
201.632
 20
19.8079
  0
VERTEX
  8
LAYER_1
 10
201.612
 20
19.7042
  0
VERTEX
  8
LAYER_1
 10
201.5565
 20
19.6232
  0
VERTEX
  8
LAYER_1
 10
201.4731
 20
19.5685
  0
VERTEX
  8
LAYER_1
 10
201.3681
 20
19.5423
  0
VERTEX
  8
LAYER_1
 10
201.6702
 20
19.0503
  0
VERTEX
  8
LAYER_1
 10
201.5417
 20
19.0503
  0
VERTEX
  8
LAYER_1
 10
201.2558
 20
19.5333
  0
VERTEX
  8
LAYER_1
 10
201.0804
 20
19.5333
  0
SEQEND
  0
POLYLINE
  8
LAYER_1
 40
0.05
 41
0.05
 62
39
 66
1
 10
0
 20
0
 30
0
 70
1
  0
VERTEX
  8
LAYER_1
 10
201.0804
 20
19.6239
  0
VERTEX
  8
LAYER_1
 10
201.263
 20
19.6239
 42
0.1654500383
  0
VERTEX
  8
LAYER_1
 10
201.4587
 20
19.6697
 42
0.2503949893
  0
VERTEX
  8
LAYER_1
 10
201.5273
 20
19.8079
  0
VERTEX
  8
LAYER_1
 10
201.508
 20
19.8937
  0
VERTEX
  8
LAYER_1
 10
201.4556
 20
19.9509
  0
VERTEX
  8
LAYER_1
 10
201.3739
 20
19.9829
  0
VERTEX
  8
LAYER_1
 10
201.2675
 20
19.9932
  0
VERTEX
  8
LAYER_1
 10
201.0804
 20
19.9932
  0
SEQEND
  0
ENDBLK
  0
BLOCK
  8
LAYER_1
  2
AIGNBL01030017
 70
64
 10
0
 20
0
 30
0
  3
AIGNBL01030017
  0
POLYLINE
  8
LAYER_1
 40
0.05
 41
0.05
 62
39
 66
1
 10
0
 20
0
 30
0
 70
1
  0
VERTEX
  8
LAYER_1
 10
203.0724
 20
19.5671
 42
-0.1002731409
  0
VERTEX
  8
LAYER_1
 10
203.0317
 20
19.3497
 42
-0.1003765801
  0
VERTEX
  8
LAYER_1
 10
202.9184
 20
19.1781
 42
-0.09520795497
  0
VERTEX
  8
LAYER_1
 10
202.7478
 20
19.0651
 42
-0.09506675375
  0
VERTEX
  8
LAYER_1
 10
202.5339
 20
19.0241
 42
-0.1014233705
  0
VERTEX
  8
LAYER_1
 10
202.32
 20
19.0651
 42
-0.1001793077
  0
VERTEX
  8
LAYER_1
 10
202.1494
 20
19.1781
 42
-0.09547486106
  0
VERTEX
  8
LAYER_1
 10
202.0364
 20
19.3497
 42
-0.09293253763
  0
VERTEX
  8
LAYER_1
 10
201.9958
 20
19.5671
 42
-0.1022983043
  0
VERTEX
  8
LAYER_1
 10
202.0364
 20
19.7845
 42
-0.1013677539
  0
VERTEX
  8
LAYER_1
 10
202.1494
 20
19.956
 42
-0.09583479814
  0
VERTEX
  8
LAYER_1
 10
202.32
 20
20.069
 42
-0.09517221897
  0
VERTEX
  8
LAYER_1
 10
202.5339
 20
20.11
 42
-0.1018017754
  0
VERTEX
  8
LAYER_1
 10
202.7478
 20
20.069
 42
-0.1017041996
  0
VERTEX
  8
LAYER_1
 10
202.9184
 20
19.956
 42
-0.09492976366
  0
VERTEX
  8
LAYER_1
 10
203.0317
 20
19.7845
 42
-0.09296145325
  0
SEQEND
  0
POLYLINE
  8
LAYER_1
 40
0.05
 41
0.05
 62
39
 66
1
 10
0
 20
0
 30
0
 70
1
  0
VERTEX
  8
LAYER_1
 10
202.9614
 20
19.5664
  0
VERTEX
  8
LAYER_1
 10
202.9322
 20
19.7383
  0
VERTEX
  8
LAYER_1
 10
202.8474
 20
19.8816
  0
VERTEX
  8
LAYER_1
 10
202.7127
 20
19.9798
  0
VERTEX
  8
LAYER_1
 10
202.5339
 20
20.0167
  0
VERTEX
  8
LAYER_1
 10
202.3551
 20
19.9798
  0
VERTEX
  8
LAYER_1
 10
202.22
 20
19.8816
  0
VERTEX
  8
LAYER_1
 10
202.1353
 20
19.7383
  0
VERTEX
  8
LAYER_1
 10
202.1064
 20
19.5664
  0
VERTEX
  8
LAYER_1
 10
202.1353
 20
19.3945
  0
VERTEX
  8
LAYER_1
 10
202.22
 20
19.2515
  0
VERTEX
  8
LAYER_1
 10
202.3551
 20
19.154
  0
VERTEX
  8
LAYER_1
 10
202.5339
 20
19.1175
  0
VERTEX
  8
LAYER_1
 10
202.7127
 20
19.154
  0
VERTEX
  8
LAYER_1
 10
202.8474
 20
19.2515
  0
VERTEX
  8
LAYER_1
 10
202.9322
 20
19.3945
  0
SEQEND
  0
ENDBLK
  0
BLOCK
  8
LAYER_1
  2
AIGNBL01030018
 70
64
 10
0
 20
0
 30
0
  3
AIGNBL01030018
  0
POLYLINE
  8
LAYER_1
 40
0.05
 41
0.05
 62
39
 66
1
 10
0
 20
0
 30
0
 70
1
  0
VERTEX
  8
LAYER_1
 10
204.5141
 20
19.5671
 42
-0.1039024845
  0
VERTEX
  8
LAYER_1
 10
204.4731
 20
19.3497
 42
-0.1002458474
  0
VERTEX
  8
LAYER_1
 10
204.3605
 20
19.1781
 42
-0.09471741496
  0
VERTEX
  8
LAYER_1
 10
204.1896
 20
19.0651
 42
-0.09506675375
  0
VERTEX
  8
LAYER_1
 10
203.9757
 20
19.0241
 42
-0.101832469
  0
VERTEX
  8
LAYER_1
 10
203.7621
 20
19.0651
 42
-0.1021045144
  0
VERTEX
  8
LAYER_1
 10
203.5912
 20
19.1781
 42
-0.0942812324
  0
VERTEX
  8
LAYER_1
 10
203.4778
 20
19.3497
 42
-0.09293253763
  0
VERTEX
  8
LAYER_1
 10
203.4372
 20
19.5671
 42
-0.1022983043
  0
VERTEX
  8
LAYER_1
 10
203.4778
 20
19.7845
 42
-0.1005682055
  0
VERTEX
  8
LAYER_1
 10
203.5912
 20
19.956
 42
-0.09625543395
  0
VERTEX
  8
LAYER_1
 10
203.7621
 20
20.069
 42
-0.09532584124
  0
VERTEX
  8
LAYER_1
 10
203.9757
 20
20.11
 42
-0.1018017754
  0
VERTEX
  8
LAYER_1
 10
204.1896
 20
20.069
 42
-0.09853409661
  0
VERTEX
  8
LAYER_1
 10
204.3605
 20
19.956
 42
-0.09543199427
  0
VERTEX
  8
LAYER_1
 10
204.4731
 20
19.7845
 42
-0.09397287008
  0
SEQEND
  0
POLYLINE
  8
LAYER_1
 40
0.05
 41
0.05
 62
39
 66
1
 10
0
 20
0
 30
0
 70
1
  0
VERTEX
  8
LAYER_1
 10
204.4032
 20
19.5664
  0
VERTEX
  8
LAYER_1
 10
204.3743
 20
19.7383
  0
VERTEX
  8
LAYER_1
 10
204.2895
 20
19.8816
  0
VERTEX
  8
LAYER_1
 10
204.1545
 20
19.9798
  0
VERTEX
  8
LAYER_1
 10
203.9757
 20
20.0167
  0
VERTEX
  8
LAYER_1
 10
203.7969
 20
19.9798
  0
VERTEX
  8
LAYER_1
 10
203.6622
 20
19.8816
  0
VERTEX
  8
LAYER_1
 10
203.5774
 20
19.7383
  0
VERTEX
  8
LAYER_1
 10
203.5482
 20
19.5664
  0
VERTEX
  8
LAYER_1
 10
203.5774
 20
19.3945
  0
VERTEX
  8
LAYER_1
 10
203.6622
 20
19.2515
  0
VERTEX
  8
LAYER_1
 10
203.7969
 20
19.154
 42
0.1008280473
  0
VERTEX
  8
LAYER_1
 10
203.9757
 20
19.1175
  0
VERTEX
  8
LAYER_1
 10
204.1545
 20
19.154
  0
VERTEX
  8
LAYER_1
 10
204.2895
 20
19.2515
  0
VERTEX
  8
LAYER_1
 10
204.3743
 20
19.3945
  0
SEQEND
  0
ENDBLK
  0
BLOCK
  8
LAYER_1
  2
AIGNBL01030019
 70
64
 10
0
 20
0
 30
0
  3
AIGNBL01030019
  0
POLYLINE
  8
LAYER_1
 40
0.05
 41
0.05
 62
39
 66
1
 10
0
 20
0
 30
0
 70
1
  0
VERTEX
  8
LAYER_1
 10
205.445
 20
19.2284
  0
VERTEX
  8
LAYER_1
 10
205.4467
 20
19.2284
  0
VERTEX
  8
LAYER_1
 10
205.7923
 20
20.0835
  0
VERTEX
  8
LAYER_1
 10
205.9531
 20
20.0835
  0
VERTEX
  8
LAYER_1
 10
205.9531
 20
19.0503
  0
VERTEX
  8
LAYER_1
 10
205.8477
 20
19.0503
  0
VERTEX
  8
LAYER_1
 10
205.8477
 20
19.9478
  0
VERTEX
  8
LAYER_1
 10
205.845
 20
19.9478
  0
VERTEX
  8
LAYER_1
 10
205.4715
 20
19.0503
  0
VERTEX
  8
LAYER_1
 10
205.4161
 20
19.0503
  0
VERTEX
  8
LAYER_1
 10
205.0423
 20
19.9478
  0
VERTEX
  8
LAYER_1
 10
205.0395
 20
19.9478
  0
VERTEX
  8
LAYER_1
 10
205.0395
 20
19.0503
  0
VERTEX
  8
LAYER_1
 10
204.9345
 20
19.0503
  0
VERTEX
  8
LAYER_1
 10
204.9345
 20
20.0835
  0
VERTEX
  8
LAYER_1
 10
205.095
 20
20.0835
  0
SEQEND
  0
ENDBLK
  0
BLOCK
  8
LAYER_1
  2
AIGNBL0103001A
 70
64
 10
0
 20
0
 30
0
  3
AIGNBL0103001A
  0
POLYLINE
  8
LAYER_1
 40
0.05
 41
0.05
 62
39
 66
1
 10
0
 20
0
 30
0
 70
1
  0
VERTEX
  8
LAYER_1
 10
207.0997
 20
19.144
  0
VERTEX
  8
LAYER_1
 10
207.653
 20
19.144
  0
VERTEX
  8
LAYER_1
 10
207.653
 20
19.0503
  0
VERTEX
  8
LAYER_1
 10
206.9946
 20
19.0503
  0
VERTEX
  8
LAYER_1
 10
206.9946
 20
20.0835
  0
VERTEX
  8
LAYER_1
 10
207.6354
 20
20.0835
  0
VERTEX
  8
LAYER_1
 10
207.6354
 20
19.9901
  0
VERTEX
  8
LAYER_1
 10
207.0997
 20
19.9901
  0
VERTEX
  8
LAYER_1
 10
207.0997
 20
19.6356
  0
VERTEX
  8
LAYER_1
 10
207.6003
 20
19.6356
  0
VERTEX
  8
LAYER_1
 10
207.6003
 20
19.5423
  0
VERTEX
  8
LAYER_1
 10
207.0997
 20
19.5423
  0
SEQEND
  0
ENDBLK
  0
BLOCK
  8
LAYER_1
  2
AIGNBL0103001B
 70
64
 10
0
 20
0
 30
0
  3
AIGNBL0103001B
  0
POLYLINE
  8
LAYER_1
 40
0.05
 41
0.05
 62
39
 66
1
 10
0
 20
0
 30
0
 70
1
  0
VERTEX
  8
LAYER_1
 10
208.3981
 20
19.6663
  0
VERTEX
  8
LAYER_1
 10
208.6803
 20
20.0835
  0
VERTEX
  8
LAYER_1
 10
208.8054
 20
20.0835
  0
VERTEX
  8
LAYER_1
 10
208.4629
 20
19.5919
  0
VERTEX
  8
LAYER_1
 10
208.8422
 20
19.0503
  0
VERTEX
  8
LAYER_1
 10
208.7109
 20
19.0503
  0
VERTEX
  8
LAYER_1
 10
208.3954
 20
19.5161
  0
VERTEX
  8
LAYER_1
 10
208.0819
 20
19.0503
  0
VERTEX
  8
LAYER_1
 10
207.9503
 20
19.0503
  0
VERTEX
  8
LAYER_1
 10
208.3299
 20
19.5933
  0
VERTEX
  8
LAYER_1
 10
207.9841
 20
20.0835
  0
VERTEX
  8
LAYER_1
 10
208.1156
 20
20.0835
  0
SEQEND
  0
ENDBLK
  0
BLOCK
  8
LAYER_1
  2
AIGNBL0103001C
 70
64
 10
0
 20
0
 30
0
  3
AIGNBL0103001C
  0
POLYLINE
  8
LAYER_1
 40
0.05
 41
0.05
 62
39
 66
1
 10
0
 20
0
 30
0
 70
1
  0
VERTEX
  8
LAYER_1
 10
209.2084
 20
20.0835
  0
VERTEX
  8
LAYER_1
 10
209.5006
 20
20.0835
  0
VERTEX
  8
LAYER_1
 10
209.6436
 20
20.067
  0
VERTEX
  8
LAYER_1
 10
209.7534
 20
20.0156
  0
VERTEX
  8
LAYER_1
 10
209.8244
 20
19.9295
  0
VERTEX
  8
LAYER_1
 10
209.8489
 20
19.8079
  0
VERTEX
  8
LAYER_1
 10
209.8237
 20
19.6859
  0
VERTEX
  8
LAYER_1
 10
209.7521
 20
19.5998
  0
VERTEX
  8
LAYER_1
 10
209.6412
 20
19.5481
  0
VERTEX
  8
LAYER_1
 10
209.4975
 20
19.5306
  0
VERTEX
  8
LAYER_1
 10
209.3135
 20
19.5306
  0
VERTEX
  8
LAYER_1
 10
209.3135
 20
19.0503
  0
VERTEX
  8
LAYER_1
 10
209.2084
 20
19.0503
  0
SEQEND
  0
POLYLINE
  8
LAYER_1
 40
0.05
 41
0.05
 62
39
 66
1
 10
0
 20
0
 30
0
 70
1
  0
VERTEX
  8
LAYER_1
 10
209.3135
 20
19.6194
  0
VERTEX
  8
LAYER_1
 10
209.4913
 20
19.6194
 42
0.1834000512
  0
VERTEX
  8
LAYER_1
 10
209.6797
 20
19.6677
 42
0.2348377208
  0
VERTEX
  8
LAYER_1
 10
209.7441
 20
19.8079
 42
0.2652129765
  0
VERTEX
  8
LAYER_1
 10
209.6777
 20
19.9488
 42
0.1264027561
  0
VERTEX
  8
LAYER_1
 10
209.4913
 20
19.9932
  0
VERTEX
  8
LAYER_1
 10
209.3135
 20
19.9932
  0
SEQEND
  0
ENDBLK
  0
BLOCK
  8
LAYER_1
  2
AIGNBL0103001D
 70
64
 10
0
 20
0
 30
0
  3
AIGNBL0103001D
  0
POLYLINE
  8
LAYER_1
 40
0.05
 41
0.05
 62
39
 66
1
 10
0
 20
0
 30
0
 70
1
  0
VERTEX
  8
LAYER_1
 10
210.3612
 20
19.144
  0
VERTEX
  8
LAYER_1
 10
210.9144
 20
19.144
  0
VERTEX
  8
LAYER_1
 10
210.9144
 20
19.0503
  0
VERTEX
  8
LAYER_1
 10
210.2561
 20
19.0503
  0
VERTEX
  8
LAYER_1
 10
210.2561
 20
20.0835
  0
VERTEX
  8
LAYER_1
 10
210.8969
 20
20.0835
  0
VERTEX
  8
LAYER_1
 10
210.8969
 20
19.9901
  0
VERTEX
  8
LAYER_1
 10
210.3612
 20
19.9901
  0
VERTEX
  8
LAYER_1
 10
210.3612
 20
19.6356
  0
VERTEX
  8
LAYER_1
 10
210.8617
 20
19.6356
  0
VERTEX
  8
LAYER_1
 10
210.8617
 20
19.5423
  0
VERTEX
  8
LAYER_1
 10
210.3612
 20
19.5423
  0
SEQEND
  0
ENDBLK
  0
BLOCK
  8
LAYER_1
  2
AIGNBL0103001E
 70
64
 10
0
 20
0
 30
0
  3
AIGNBL0103001E
  0
POLYLINE
  8
LAYER_1
 40
0.05
 41
0.05
 62
39
 66
1
 10
0
 20
0
 30
0
 70
1
  0
VERTEX
  8
LAYER_1
 10
211.4264
 20
19.0503
  0
VERTEX
  8
LAYER_1
 10
211.3213
 20
19.0503
  0
VERTEX
  8
LAYER_1
 10
211.3213
 20
20.0835
  0
VERTEX
  8
LAYER_1
 10
211.6252
 20
20.0835
  0
VERTEX
  8
LAYER_1
 10
211.7657
 20
20.069
  0
VERTEX
  8
LAYER_1
 10
211.8784
 20
20.0215
  0
VERTEX
  8
LAYER_1
 10
211.9521
 20
19.9361
  0
VERTEX
  8
LAYER_1
 10
211.978
 20
19.8079
  0
VERTEX
  8
LAYER_1
 10
211.958
 20
19.7042
  0
VERTEX
  8
LAYER_1
 10
211.9025
 20
19.6232
  0
VERTEX
  8
LAYER_1
 10
211.8191
 20
19.5685
  0
VERTEX
  8
LAYER_1
 10
211.714
 20
19.5423
  0
VERTEX
  8
LAYER_1
 10
212.0162
 20
19.0503
  0
VERTEX
  8
LAYER_1
 10
211.8877
 20
19.0503
  0
VERTEX
  8
LAYER_1
 10
211.6018
 20
19.5333
  0
VERTEX
  8
LAYER_1
 10
211.4264
 20
19.5333
  0
SEQEND
  0
POLYLINE
  8
LAYER_1
 40
0.05
 41
0.05
 62
39
 66
1
 10
0
 20
0
 30
0
 70
1
  0
VERTEX
  8
LAYER_1
 10
211.4264
 20
19.6239
  0
VERTEX
  8
LAYER_1
 10
211.609
 20
19.6239
 42
0.1663801652
  0
VERTEX
  8
LAYER_1
 10
211.8047
 20
19.6697
 42
0.2500512188
  0
VERTEX
  8
LAYER_1
 10
211.8732
 20
19.8079
  0
VERTEX
  8
LAYER_1
 10
211.8543
 20
19.8937
  0
VERTEX
  8
LAYER_1
 10
211.8016
 20
19.9509
  0
VERTEX
  8
LAYER_1
 10
211.7199
 20
19.9829
  0
VERTEX
  8
LAYER_1
 10
211.6135
 20
19.9932
  0
VERTEX
  8
LAYER_1
 10
211.4264
 20
19.9932
  0
SEQEND
  0
ENDBLK
  0
BLOCK
  8
LAYER_1
  2
AIGNBL0103001F
 70
64
 10
0
 20
0
 30
0
  3
AIGNBL0103001F
  0
POLYLINE
  8
LAYER_1
 40
0.05
 41
0.05
 62
39
 66
1
 10
0
 20
0
 30
0
 70
1
  0
VERTEX
  8
LAYER_1
 10
212.5019
 20
19.0503
  0
VERTEX
  8
LAYER_1
 10
212.3972
 20
19.0503
  0
VERTEX
  8
LAYER_1
 10
212.3972
 20
20.0835
  0
VERTEX
  8
LAYER_1
 10
212.5019
 20
20.0835
  0
SEQEND
  0
ENDBLK
  0
BLOCK
  8
LAYER_1
  2
AIGNBL01030020
 70
64
 10
0
 20
0
 30
0
  3
AIGNBL01030020
  0
POLYLINE
  8
LAYER_1
 40
0.05
 41
0.05
 62
39
 66
1
 10
0
 20
0
 30
0
 70
1
  0
VERTEX
  8
LAYER_1
 10
213.0828
 20
19.144
  0
VERTEX
  8
LAYER_1
 10
213.6357
 20
19.144
  0
VERTEX
  8
LAYER_1
 10
213.6357
 20
19.0503
  0
VERTEX
  8
LAYER_1
 10
212.9777
 20
19.0503
  0
VERTEX
  8
LAYER_1
 10
212.9777
 20
20.0835
  0
VERTEX
  8
LAYER_1
 10
213.6185
 20
20.0835
  0
VERTEX
  8
LAYER_1
 10
213.6185
 20
19.9901
  0
VERTEX
  8
LAYER_1
 10
213.0828
 20
19.9901
  0
VERTEX
  8
LAYER_1
 10
213.0828
 20
19.6356
  0
VERTEX
  8
LAYER_1
 10
213.5834
 20
19.6356
  0
VERTEX
  8
LAYER_1
 10
213.5834
 20
19.5423
  0
VERTEX
  8
LAYER_1
 10
213.0828
 20
19.5423
  0
SEQEND
  0
ENDBLK
  0
BLOCK
  8
LAYER_1
  2
AIGNBL01030021
 70
64
 10
0
 20
0
 30
0
  3
AIGNBL01030021
  0
POLYLINE
  8
LAYER_1
 40
0.05
 41
0.05
 62
39
 66
1
 10
0
 20
0
 30
0
 70
1
  0
VERTEX
  8
LAYER_1
 10
214.7757
 20
19.2036
  0
VERTEX
  8
LAYER_1
 10
214.7785
 20
19.2036
  0
VERTEX
  8
LAYER_1
 10
214.7785
 20
20.0835
  0
VERTEX
  8
LAYER_1
 10
214.8835
 20
20.0835
  0
VERTEX
  8
LAYER_1
 10
214.8835
 20
19.0503
  0
VERTEX
  8
LAYER_1
 10
214.7523
 20
19.0503
  0
VERTEX
  8
LAYER_1
 10
214.1511
 20
19.9392
  0
VERTEX
  8
LAYER_1
 10
214.148
 20
19.9392
  0
VERTEX
  8
LAYER_1
 10
214.148
 20
19.0503
  0
VERTEX
  8
LAYER_1
 10
214.0429
 20
19.0503
  0
VERTEX
  8
LAYER_1
 10
214.0429
 20
20.0835
  0
VERTEX
  8
LAYER_1
 10
214.1745
 20
20.0835
  0
SEQEND
  0
ENDBLK
  0
BLOCK
  8
LAYER_1
  2
AIGNBL01030022
 70
64
 10
0
 20
0
 30
0
  3
AIGNBL01030022
  0
POLYLINE
  8
LAYER_1
 40
0.05
 41
0.05
 62
39
 66
1
 10
0
 20
0
 30
0
 70
1
  0
VERTEX
  8
LAYER_1
 10
216.2292
 20
19.2181
  0
VERTEX
  8
LAYER_1
 10
216.1655
 20
19.1437
  0
VERTEX
  8
LAYER_1
 10
216.0793
 20
19.082
  0
VERTEX
  8
LAYER_1
 10
215.9712
 20
19.0396
  0
VERTEX
  8
LAYER_1
 10
215.8423
 20
19.0241
 42
-0.1009408553
  0
VERTEX
  8
LAYER_1
 10
215.6263
 20
19.0651
 42
-0.1036436467
  0
VERTEX
  8
LAYER_1
 10
215.4558
 20
19.1781
 42
-0.09785904176
  0
VERTEX
  8
LAYER_1
 10
215.3442
 20
19.3497
 42
-0.09255646678
  0
VERTEX
  8
LAYER_1
 10
215.3038
 20
19.5671
 42
-0.1033443381
  0
VERTEX
  8
LAYER_1
 10
215.3448
 20
19.7845
 42
-0.1004334688
  0
VERTEX
  8
LAYER_1
 10
215.4575
 20
19.956
 42
-0.09536265516
  0
VERTEX
  8
LAYER_1
 10
215.6284
 20
20.069
 42
-0.09517167486
  0
VERTEX
  8
LAYER_1
 10
215.8423
 20
20.11
  0
VERTEX
  8
LAYER_1
 10
215.9539
 20
20.098
  0
VERTEX
  8
LAYER_1
 10
216.0569
 20
20.0645
  0
VERTEX
  8
LAYER_1
 10
216.1444
 20
20.0129
  0
VERTEX
  8
LAYER_1
 10
216.2102
 20
19.945
  0
VERTEX
  8
LAYER_1
 10
216.1227
 20
19.8806
  0
VERTEX
  8
LAYER_1
 10
216.0793
 20
19.9306
  0
VERTEX
  8
LAYER_1
 10
216.016
 20
19.9743
  0
VERTEX
  8
LAYER_1
 10
215.9364
 20
20.005
  0
VERTEX
  8
LAYER_1
 10
215.8437
 20
20.0167
  0
VERTEX
  8
LAYER_1
 10
215.6635
 20
19.9802
  0
VERTEX
  8
LAYER_1
 10
215.5284
 20
19.882
  0
VERTEX
  8
LAYER_1
 10
215.4437
 20
19.7386
  0
VERTEX
  8
LAYER_1
 10
215.4148
 20
19.5671
  0
VERTEX
  8
LAYER_1
 10
215.4447
 20
19.3955
  0
VERTEX
  8
LAYER_1
 10
215.5302
 20
19.2522
  0
VERTEX
  8
LAYER_1
 10
215.6652
 20
19.154
 42
0.100995487
  0
VERTEX
  8
LAYER_1
 10
215.8437
 20
19.1175
  0
VERTEX
  8
LAYER_1
 10
216.0128
 20
19.154
 42
0.1320535509
  0
VERTEX
  8
LAYER_1
 10
216.1472
 20
19.2708
  0
SEQEND
  0
ENDBLK
  0
BLOCK
  8
LAYER_1
  2
AIGNBL01030023
 70
64
 10
0
 20
0
 30
0
  3
AIGNBL01030023
  0
POLYLINE
  8
LAYER_1
 40
0.05
 41
0.05
 62
39
 66
1
 10
0
 20
0
 30
0
 70
1
  0
VERTEX
  8
LAYER_1
 10
216.7163
 20
19.144
  0
VERTEX
  8
LAYER_1
 10
217.2696
 20
19.144
  0
VERTEX
  8
LAYER_1
 10
217.2696
 20
19.0503
  0
VERTEX
  8
LAYER_1
 10
216.6113
 20
19.0503
  0
VERTEX
  8
LAYER_1
 10
216.6113
 20
20.0835
  0
VERTEX
  8
LAYER_1
 10
217.2521
 20
20.0835
  0
VERTEX
  8
LAYER_1
 10
217.2521
 20
19.9901
  0
VERTEX
  8
LAYER_1
 10
216.7163
 20
19.9901
  0
VERTEX
  8
LAYER_1
 10
216.7163
 20
19.6356
  0
VERTEX
  8
LAYER_1
 10
217.2169
 20
19.6356
  0
VERTEX
  8
LAYER_1
 10
217.2169
 20
19.5423
  0
VERTEX
  8
LAYER_1
 10
216.7163
 20
19.5423
  0
SEQEND
  0
ENDBLK
  0
BLOCK
  8
LAYER_1
  2
AIGNBL01020003
 70
64
 10
0
 20
0
 30
0
  3
AIGNBL01020003
  0
INSERT
  8
LAYER_1
  2
AIGNBL01030004
 10
0
 20
0
 30
0
  0
ENDBLK
  0
BLOCK
  8
LAYER_1
  2
AIGNBL0102000C
 70
64
 10
0
 20
0
 30
0
  3
AIGNBL0102000C
  0
INSERT
  8
LAYER_1
  2
AIGNBL0103000D
 10
0
 20
0
 30
0
  0
INSERT
  8
LAYER_1
  2
AIGNBL0103000E
 10
0
 20
0
 30
0
  0
INSERT
  8
LAYER_1
  2
AIGNBL0103000F
 10
0
 20
0
 30
0
  0
INSERT
  8
LAYER_1
  2
AIGNBL01030010
 10
0
 20
0
 30
0
  0
INSERT
  8
LAYER_1
  2
AIGNBL01030011
 10
0
 20
0
 30
0
  0
INSERT
  8
LAYER_1
  2
AIGNBL01030012
 10
0
 20
0
 30
0
  0
INSERT
  8
LAYER_1
  2
AIGNBL01030013
 10
0
 20
0
 30
0
  0
INSERT
  8
LAYER_1
  2
AIGNBL01030014
 10
0
 20
0
 30
0
  0
INSERT
  8
LAYER_1
  2
AIGNBL01030015
 10
0
 20
0
 30
0
  0
INSERT
  8
LAYER_1
  2
AIGNBL01030016
 10
0
 20
0
 30
0
  0
INSERT
  8
LAYER_1
  2
AIGNBL01030017
 10
0
 20
0
 30
0
  0
INSERT
  8
LAYER_1
  2
AIGNBL01030018
 10
0
 20
0
 30
0
  0
INSERT
  8
LAYER_1
  2
AIGNBL01030019
 10
0
 20
0
 30
0
  0
INSERT
  8
LAYER_1
  2
AIGNBL0103001A
 10
0
 20
0
 30
0
  0
INSERT
  8
LAYER_1
  2
AIGNBL0103001B
 10
0
 20
0
 30
0
  0
INSERT
  8
LAYER_1
  2
AIGNBL0103001C
 10
0
 20
0
 30
0
  0
INSERT
  8
LAYER_1
  2
AIGNBL0103001D
 10
0
 20
0
 30
0
  0
INSERT
  8
LAYER_1
  2
AIGNBL0103001E
 10
0
 20
0
 30
0
  0
INSERT
  8
LAYER_1
  2
AIGNBL0103001F
 10
0
 20
0
 30
0
  0
INSERT
  8
LAYER_1
  2
AIGNBL01030020
 10
0
 20
0
 30
0
  0
INSERT
  8
LAYER_1
  2
AIGNBL01030021
 10
0
 20
0
 30
0
  0
INSERT
  8
LAYER_1
  2
AIGNBL01030022
 10
0
 20
0
 30
0
  0
INSERT
  8
LAYER_1
  2
AIGNBL01030023
 10
0
 20
0
 30
0
  0
ENDBLK
  0
BLOCK
  8
LAYER_1
  2
AIGNBL01010002
 70
64
 10
0
 20
0
 30
0
  3
AIGNBL01010002
  0
INSERT
  8
LAYER_1
  2
AIGNBL01020003
 10
0
 20
0
 30
0
  0
INSERT
  8
LAYER_1
  2
AIGNBL0102000C
 10
0
 20
0
 30
0
  0
ENDBLK
  0
BLOCK
  8
LAYER_1
  2
AIGNBL01010024
 70
64
 10
0
 20
0
 30
0
  3
AIGNBL01010024
  0
POLYLINE
  8
LAYER_1
 40
0.3528
 41
0.3528
 66
1
 10
0
 20
0
 30
0
  0
VERTEX
  8
LAYER_1
 10
109.5059
 20
230.7992
  0
VERTEX
  8
LAYER_1
 10
170.5059
 20
230.7992
  0
SEQEND
  0
POLYLINE
  8
LAYER_1
 40
0.3528
 41
0.3528
 66
1
 10
0
 20
0
 30
0
  0
VERTEX
  8
LAYER_1
 10
116.0475
 20
228.8826
  0
VERTEX
  8
LAYER_1
 10
109.5059
 20
230.7992
  0
SEQEND
  0
POLYLINE
  8
LAYER_1
 40
0.3528
 41
0.3528
 66
1
 10
0
 20
0
 30
0
  0
VERTEX
  8
LAYER_1
 10
163.9642
 20
228.8826
  0
VERTEX
  8
LAYER_1
 10
170.5059
 20
230.7992
  0
SEQEND
  0
POLYLINE
  8
LAYER_1
 40
0.3528
 41
0.3528
 66
1
 10
0
 20
0
 30
0
  0
VERTEX
  8
LAYER_1
 10
117.9225
 20
227.8409
 42
0.1020011524
  0
VERTEX
  8
LAYER_1
 10
116.0059
 20
228.8826
  0
SEQEND
  0
POLYLINE
  8
LAYER_1
 40
0.3528
 41
0.3528
 66
1
 10
0
 20
0
 30
0
  0
VERTEX
  8
LAYER_1
 10
163.9225
 20
228.8826
 42
0.1021919259
  0
VERTEX
  8
LAYER_1
 10
162.0892
 20
227.8409
  0
SEQEND
  0
POLYLINE
  8
LAYER_1
 40
0.3528
 41
0.3528
 66
1
 10
0
 20
0
 30
0
  0
VERTEX
  8
LAYER_1
 10
119.2142
 20
225.9659
  0
VERTEX
  8
LAYER_1
 10
119.1725
 20
226.0492
  0
VERTEX
  8
LAYER_1
 10
118.7559
 20
226.8826
  0
SEQEND
  0
ENDBLK
  0
BLOCK
  8
LAYER_1
  2
AIGNBL01010025
 70
64
 10
0
 20
0
 30
0
  3
AIGNBL01010025
  0
POLYLINE
  8
LAYER_1
 40
0.3528
 41
0.3528
 66
1
 10
0
 20
0
 30
0
  0
VERTEX
  8
LAYER_1
 10
148.9782
 20
194.2191
  0
VERTEX
  8
LAYER_1
 10
160.3578
 20
194.5957
  0
SEQEND
  0
POLYLINE
  8
LAYER_1
 40
0.3528
 41
0.3528
 66
1
 10
0
 20
0
 30
0
  0
VERTEX
  8
LAYER_1
 10
119.3578
 20
195.6834
  0
VERTEX
  8
LAYER_1
 10
160.3578
 20
197.0641
  0
SEQEND
  0
POLYLINE
  8
LAYER_1
 40
0.3528
 41
0.3528
 66
1
 10
0
 20
0
 30
0
  0
VERTEX
  8
LAYER_1
 10
119.3578
 20
198.1518
  0
VERTEX
  8
LAYER_1
 10
160.3578
 20
199.5325
  0
SEQEND
  0
POLYLINE
  8
LAYER_1
 40
0.3528
 41
0.3528
 66
1
 10
0
 20
0
 30
0
  0
VERTEX
  8
LAYER_1
 10
119.3578
 20
200.6621
  0
VERTEX
  8
LAYER_1
 10
160.3578
 20
202.0009
  0
SEQEND
  0
POLYLINE
  8
LAYER_1
 40
0.3528
 41
0.3528
 66
1
 10
0
 20
0
 30
0
  0
VERTEX
  8
LAYER_1
 10
120.069
 20
194.2191
  0
VERTEX
  8
LAYER_1
 10
159.8557
 20
194.2191
  0
SEQEND
  0
POLYLINE
  8
LAYER_1
 40
0.3528
 41
0.3528
 66
1
 10
0
 20
0
 30
0
  0
VERTEX
  8
LAYER_1
 10
120.069
 20
193.215
  0
VERTEX
  8
LAYER_1
 10
120.069
 20
194.2191
  0
SEQEND
  0
POLYLINE
  8
LAYER_1
 40
0.3528
 41
0.3528
 66
1
 10
0
 20
0
 30
0
  0
VERTEX
  8
LAYER_1
 10
160.3578
 20
194.5956
  0
VERTEX
  8
LAYER_1
 10
159.8557
 20
194.2191
  0
SEQEND
  0
POLYLINE
  8
LAYER_1
 40
0.3528
 41
0.3528
 66
1
 10
0
 20
0
 30
0
  0
VERTEX
  8
LAYER_1
 10
159.6047
 20
193.215
  0
VERTEX
  8
LAYER_1
 10
159.6047
 20
194.2191
  0
SEQEND
  0
POLYLINE
  8
LAYER_1
 40
0.3528
 41
0.3528
 66
1
 10
0
 20
0
 30
0
  0
VERTEX
  8
LAYER_1
 10
120.069
 20
193.215
  0
VERTEX
  8
LAYER_1
 10
159.6047
 20
193.215
  0
SEQEND
  0
POLYLINE
  8
LAYER_1
 40
0.3528
 41
0.3528
 66
1
 10
0
 20
0
 30
0
  0
VERTEX
  8
LAYER_1
 10
120.8221
 20
194.512
  0
VERTEX
  8
LAYER_1
 10
120.4874
 20
194.2191
  0
SEQEND
  0
POLYLINE
  8
LAYER_1
 40
0.3528
 41
0.3528
 66
1
 10
0
 20
0
 30
0
  0
VERTEX
  8
LAYER_1
 10
158.8517
 20
203.2979
  0
VERTEX
  8
LAYER_1
 10
120.8221
 20
201.9173
  0
SEQEND
  0
POLYLINE
  8
LAYER_1
 40
0.3528
 41
0.3528
 66
1
 10
0
 20
0
 30
0
  0
VERTEX
  8
LAYER_1
 10
158.8517
 20
200.8295
  0
VERTEX
  8
LAYER_1
 10
120.8221
 20
199.4488
  0
SEQEND
  0
POLYLINE
  8
LAYER_1
 40
0.3528
 41
0.3528
 66
1
 10
0
 20
0
 30
0
  0
VERTEX
  8
LAYER_1
 10
158.8517
 20
198.3611
  0
VERTEX
  8
LAYER_1
 10
120.8221
 20
196.9804
  0
SEQEND
  0
POLYLINE
  8
LAYER_1
 40
0.3528
 41
0.3528
 66
1
 10
0
 20
0
 30
0
  0
VERTEX
  8
LAYER_1
 10
158.8517
 20
195.8927
  0
VERTEX
  8
LAYER_1
 10
120.8221
 20
194.512
  0
SEQEND
  0
POLYLINE
  8
LAYER_1
 40
0.3528
 41
0.3528
 66
1
 10
0
 20
0
 30
0
  0
VERTEX
  8
LAYER_1
 10
158.8517
 20
195.8927
  0
VERTEX
  8
LAYER_1
 10
160.3578
 20
194.5957
  0
SEQEND
  0
POLYLINE
  8
LAYER_1
 40
0.3528
 41
0.3528
 66
1
 10
0
 20
0
 30
0
  0
VERTEX
  8
LAYER_1
 10
160.3578
 20
197.0641
  0
VERTEX
  8
LAYER_1
 10
158.8517
 20
195.8927
  0
SEQEND
  0
POLYLINE
  8
LAYER_1
 40
0.3528
 41
0.3528
 66
1
 10
0
 20
0
 30
0
  0
VERTEX
  8
LAYER_1
 10
158.8517
 20
198.3611
  0
VERTEX
  8
LAYER_1
 10
160.3578
 20
197.0641
  0
SEQEND
  0
POLYLINE
  8
LAYER_1
 40
0.3528
 41
0.3528
 66
1
 10
0
 20
0
 30
0
  0
VERTEX
  8
LAYER_1
 10
160.3578
 20
199.5325
  0
VERTEX
  8
LAYER_1
 10
158.8517
 20
198.3611
  0
SEQEND
  0
POLYLINE
  8
LAYER_1
 40
0.3528
 41
0.3528
 66
1
 10
0
 20
0
 30
0
  0
VERTEX
  8
LAYER_1
 10
158.8517
 20
200.8294
  0
VERTEX
  8
LAYER_1
 10
160.3578
 20
199.5325
  0
SEQEND
  0
POLYLINE
  8
LAYER_1
 40
0.3528
 41
0.3528
 66
1
 10
0
 20
0
 30
0
  0
VERTEX
  8
LAYER_1
 10
160.3578
 20
202.0009
  0
VERTEX
  8
LAYER_1
 10
158.8517
 20
200.8294
  0
SEQEND
  0
POLYLINE
  8
LAYER_1
 40
0.3528
 41
0.3528
 66
1
 10
0
 20
0
 30
0
  0
VERTEX
  8
LAYER_1
 10
158.8517
 20
203.2978
  0
VERTEX
  8
LAYER_1
 10
160.3578
 20
202.0009
  0
SEQEND
  0
POLYLINE
  8
LAYER_1
 40
0.3528
 41
0.3528
 66
1
 10
0
 20
0
 30
0
  0
VERTEX
  8
LAYER_1
 10
119.3578
 20
195.6832
  0
VERTEX
  8
LAYER_1
 10
120.8221
 20
194.5117
  0
SEQEND
  0
POLYLINE
  8
LAYER_1
 40
0.3528
 41
0.3528
 66
1
 10
0
 20
0
 30
0
  0
VERTEX
  8
LAYER_1
 10
120.8221
 20
196.9801
  0
VERTEX
  8
LAYER_1
 10
119.3578
 20
195.6832
  0
SEQEND
  0
POLYLINE
  8
LAYER_1
 40
0.3528
 41
0.3528
 66
1
 10
0
 20
0
 30
0
  0
VERTEX
  8
LAYER_1
 10
119.3578
 20
198.1516
  0
VERTEX
  8
LAYER_1
 10
120.8221
 20
196.9801
  0
SEQEND
  0
POLYLINE
  8
LAYER_1
 40
0.3528
 41
0.3528
 66
1
 10
0
 20
0
 30
0
  0
VERTEX
  8
LAYER_1
 10
120.8221
 20
199.4485
  0
VERTEX
  8
LAYER_1
 10
119.3578
 20
198.1516
  0
SEQEND
  0
POLYLINE
  8
LAYER_1
 40
0.3528
 41
0.3528
 66
1
 10
0
 20
0
 30
0
  0
VERTEX
  8
LAYER_1
 10
119.3578
 20
200.6618
  0
VERTEX
  8
LAYER_1
 10
120.8221
 20
199.4485
  0
SEQEND
  0
POLYLINE
  8
LAYER_1
 40
0.3528
 41
0.3528
 66
1
 10
0
 20
0
 30
0
  0
VERTEX
  8
LAYER_1
 10
120.8221
 20
201.9169
  0
VERTEX
  8
LAYER_1
 10
119.3578
 20
200.6618
  0
SEQEND
  0
POLYLINE
  8
LAYER_1
 40
0.3528
 41
0.3528
 66
1
 10
0
 20
0
 30
0
  0
VERTEX
  8
LAYER_1
 10
119.3578
 20
203.1302
  0
VERTEX
  8
LAYER_1
 10
120.8221
 20
201.9169
  0
SEQEND
  0
ENDBLK
  0
ENDSEC
  0
SECTION
  2
ENTITIES
  0
TEXT
  8
LAYER_1
 10
50.3109
 20
21.6111
 11
50.3109
 21
21.6111
 40
3.8842
 41
0.5
  1
ラプソディ用排水目皿（埋め込み施工用）
  0
TEXT
  8
LAYER_1
 10
220.3351
 20
22.6225
 11
220.3351
 21
22.6225
 40
3.3848
 41
0.5
 62
39
  1
●TEL 0120-65-1232●FAX 06-6532-1580
  0
TEXT
  8
LAYER_1
 10
220.3351
 20
19.1079
 11
220.3351
 21
19.1079
 40
3.3848
 41
0.5
 62
39
  1
hits@hiratatile.co.jp
  0
INSERT
  8
LAYER_1
  2
AIGNBL01010002
 10
0
 20
0
 30
0
  0
TEXT
  8
LAYER_1
 10
50.3859
 20
14.8364
 11
50.3859
 21
14.8364
 40
4.6883
 41
0.5
 62
39
  1
SCR-649-15-276-S
  0
POLYLINE
  8
LAYER_1
 40
0.254
 41
0.254
 66
1
 10
0
 20
0
 30
0
  0
VERTEX
  8
LAYER_1
 10
3.1173
 20
32.9369
  0
VERTEX
  8
LAYER_1
 10
287.6826
 20
32.9369
  0
SEQEND
  0
POLYLINE
  8
LAYER_1
 40
0.0847
 41
0.0847
 66
1
 10
0
 20
0
 30
0
  0
VERTEX
  8
LAYER_1
 10
77.1478
 20
268.1328
  0
VERTEX
  8
LAYER_1
 10
103.7966
 20
268.1328
  0
SEQEND
  0
POLYLINE
  8
LAYER_1
 40
0.0847
 41
0.0847
 66
1
 10
0
 20
0
 30
0
  0
VERTEX
  8
LAYER_1
 10
134.9963
 20
264.7462
  0
VERTEX
  8
LAYER_1
 10
183.5737
 20
325.0712
  0
SEQEND
  0
POLYLINE
  8
LAYER_1
 40
0.0847
 41
0.0847
 66
1
 10
0
 20
0
 30
0
  0
VERTEX
  8
LAYER_1
 10
133.7686
 20
234.9012
  0
VERTEX
  8
LAYER_1
 10
180.3564
 20
299.9886
  0
SEQEND
  0
POLYLINE
  8
LAYER_1
 40
0.0847
 41
0.0847
 66
1
 10
0
 20
0
 30
0
  0
VERTEX
  8
LAYER_1
 10
131.1862
 20
229.0592
  0
VERTEX
  8
LAYER_1
 10
180.0812
 20
243.0503
  0
SEQEND
  0
POLYLINE
  8
LAYER_1
 40
0.0847
 41
0.0847
 66
1
 10
0
 20
0
 30
0
  0
VERTEX
  8
LAYER_1
 10
90.4616
 20
268.1328
  0
VERTEX
  8
LAYER_1
 10
105.0243
 20
268.1328
  0
SEQEND
  0
POLYLINE
  8
LAYER_1
 40
0.0847
 41
0.0847
 66
1
 10
0
 20
0
 30
0
  0
VERTEX
  8
LAYER_1
 10
90.4616
 20
268.1328
  0
VERTEX
  8
LAYER_1
 10
105.0243
 20
268.1328
  0
SEQEND
  0
POLYLINE
  8
LAYER_1
 40
0.3528
 41
0.3528
 66
1
 10
0
 20
0
 30
0
 70
1
  0
VERTEX
  8
LAYER_1
 10
164.8369
 20
203.3141
  0
VERTEX
  8
LAYER_1
 10
114.8369
 20
203.3141
  0
VERTEX
  8
LAYER_1
 10
114.8369
 20
218.855
  0
VERTEX
  8
LAYER_1
 10
164.8369
 20
218.855
  0
SEQEND
  0
POLYLINE
  8
LAYER_1
 40
0.3528
 41
0.3528
 66
1
 10
0
 20
0
 30
0
 70
1
  0
VERTEX
  8
LAYER_1
 10
170.7815
 20
218.855
  0
VERTEX
  8
LAYER_1
 10
108.8922
 20
218.855
  0
VERTEX
  8
LAYER_1
 10
108.8922
 20
224.862
  0
VERTEX
  8
LAYER_1
 10
170.7815
 20
224.862
  0
SEQEND
  0
POLYLINE
  8
LAYER_1
 40
0.05
 41
0.05
 66
1
 10
0
 20
0
 30
0
 70
1
  0
VERTEX
  8
LAYER_1
 10
169.8369
 20
225.2021
  0
VERTEX
  8
LAYER_1
 10
109.8369
 20
225.2021
  0
VERTEX
  8
LAYER_1
 10
109.8369
 20
226.9544
  0
VERTEX
  8
LAYER_1
 10
169.8369
 20
226.9544
  0
SEQEND
  0
POLYLINE
  8
LAYER_1
 40
0.05
 41
0.05
 66
1
 10
0
 20
0
 30
0
 70
1
  0
VERTEX
  8
LAYER_1
 10
169.8369
 20
227.7653
  0
VERTEX
  8
LAYER_1
 10
109.8369
 20
227.7653
  0
VERTEX
  8
LAYER_1
 10
109.8369
 20
229.5176
  0
VERTEX
  8
LAYER_1
 10
169.8369
 20
229.5176
  0
SEQEND
  0
POLYLINE
  8
LAYER_1
 40
0.3528
 41
0.3528
 66
1
 10
0
 20
0
 30
0
 70
1
  0
VERTEX
  8
LAYER_1
 10
171.3369
 20
230.5436
  0
VERTEX
  8
LAYER_1
 10
108.3369
 20
230.5436
  0
VERTEX
  8
LAYER_1
 10
108.3369
 20
233.1626
  0
VERTEX
  8
LAYER_1
 10
171.3369
 20
233.1626
  0
SEQEND
  0
POLYLINE
  8
LAYER_1
 40
0.3528
 41
0.3528
 66
1
 10
0
 20
0
 30
0
  0
VERTEX
  8
LAYER_1
 10
119.5892
 20
225.4309
  0
VERTEX
  8
LAYER_1
 10
119.5892
 20
226.0142
  0
SEQEND
  0
INSERT
  8
LAYER_1
  2
AIGNBL01010024
 10
0
 20
0
 30
0
  0
POLYLINE
  8
LAYER_1
 40
0.3528
 41
0.3528
 66
1
 10
0
 20
0
 30
0
  0
VERTEX
  8
LAYER_1
 10
160.4225
 20
226.0142
  0
SEQEND
  0
POLYLINE
  8
LAYER_1
 40
0.3528
 41
0.3528
 66
1
 10
0
 20
0
 30
0
  0
VERTEX
  8
LAYER_1
 10
160.4225
 20
225.4309
  0
VERTEX
  8
LAYER_1
 10
160.4225
 20
226.0143
  0
SEQEND
  0
POLYLINE
  8
LAYER_1
 40
0.3528
 41
0.3528
 66
1
 10
0
 20
0
 30
0
 70
1
  0
VERTEX
  8
LAYER_1
 10
147.8369
 20
234.0947
  0
VERTEX
  8
LAYER_1
 10
131.8369
 20
234.0947
  0
VERTEX
  8
LAYER_1
 10
131.8369
 20
248.9589
  0
VERTEX
  8
LAYER_1
 10
147.8369
 20
248.9589
  0
SEQEND
  0
POLYLINE
  8
LAYER_1
 40
0.3528
 41
0.3528
 66
1
 10
0
 20
0
 30
0
 70
1
  0
VERTEX
  8
LAYER_1
 10
139.8369
 20
233.2015
  0
VERTEX
  8
LAYER_1
 10
139.8369
 20
234.0947
  0
SEQEND
  0
POLYLINE
  8
LAYER_1
 40
0.3528
 41
0.3528
 66
1
 10
0
 20
0
 30
0
 70
1
  0
VERTEX
  8
LAYER_1
 10
145.8369
 20
187.4928
  0
VERTEX
  8
LAYER_1
 10
133.8369
 20
187.4928
  0
VERTEX
  8
LAYER_1
 10
133.8369
 20
193.215
  0
VERTEX
  8
LAYER_1
 10
145.8369
 20
193.215
  0
SEQEND
  0
POLYLINE
  8
LAYER_1
 40
0.3528
 41
0.3528
 66
1
 10
0
 20
0
 30
0
 70
1
  0
VERTEX
  8
LAYER_1
 10
148.8369
 20
248.9589
  0
VERTEX
  8
LAYER_1
 10
130.8369
 20
248.9589
  0
VERTEX
  8
LAYER_1
 10
130.8369
 20
251.4228
  0
VERTEX
  8
LAYER_1
 10
139.7104
 20
251.7228
  0
VERTEX
  8
LAYER_1
 10
148.8369
 20
251.4228
  0
SEQEND
  0
INSERT
  8
LAYER_1
  2
AIGNBL01010025
 10
0
 20
0
 30
0
  0
POLYLINE
  8
LAYER_1
 40
0.3528
 41
0.3528
 66
1
 10
0
 20
0
 30
0
 70
1
  0
VERTEX
  8
LAYER_1
 10
139.8369
 20
254.0682
 42
0.01585752657
  0
VERTEX
  8
LAYER_1
 10
122.4239
 20
253.0513
 42
0.01147640872
  0
VERTEX
  8
LAYER_1
 10
115.7802
 20
252.286
 42
0.01496379545
  0
VERTEX
  8
LAYER_1
 10
111.1371
 20
251.5043
 42
0.01925313503
  0
VERTEX
  8
LAYER_1
 10
108.0775
 20
250.7731
 42
0.03057216299
  0
VERTEX
  8
LAYER_1
 10
105.8558
 20
250.0099
 42
0.0429512341
  0
VERTEX
  8
LAYER_1
 10
104.5566
 20
249.3431
 42
0.05209418379
  0
VERTEX
  8
LAYER_1
 10
103.8931
 20
248.8257
 42
0.2201153407
  0
VERTEX
  8
LAYER_1
 10
103.5726
 20
248.4386
  0
VERTEX
  8
LAYER_1
 10
103.5468
 20
246.8869
 42
0.113572871
  0
VERTEX
  8
LAYER_1
 10
103.8056
 20
246.2636
 42
0.4304728561
  0
VERTEX
  8
LAYER_1
 10
104.2192
 20
246.2145
 42
-0.0452092647
  0
VERTEX
  8
LAYER_1
 10
105.5463
 20
247.0188
 42
-0.03175829777
  0
VERTEX
  8
LAYER_1
 10
107.5855
 20
247.8644
 42
-0.02285004506
  0
VERTEX
  8
LAYER_1
 10
110.5813
 20
248.7446
 42
-0.01668414638
  0
VERTEX
  8
LAYER_1
 10
114.5743
 20
249.5868
 42
-0.01310988726
  0
VERTEX
  8
LAYER_1
 10
119.9138
 20
250.3879
 42
-0.010470309
  0
VERTEX
  8
LAYER_1
 10
126.8043
 20
251.0947
 42
-0.01205570145
  0
VERTEX
  8
LAYER_1
 10
139.8369
 20
251.8383
 42
-0.007803744272
  0
VERTEX
  8
LAYER_1
 10
149.3149
 20
251.3606
 42
-0.009540223654
  0
VERTEX
  8
LAYER_1
 10
156.9482
 20
250.7119
 42
-0.01185695141
  0
VERTEX
  8
LAYER_1
 10
162.9411
 20
249.9455
 42
-0.014986312
  0
VERTEX
  8
LAYER_1
 10
167.4981
 20
249.1147
 42
-0.01921486547
  0
VERTEX
  8
LAYER_1
 10
170.8235
 20
248.2728
 42
-0.02823830931
  0
VERTEX
  8
LAYER_1
 10
173.347
 20
247.379
 42
-0.05761541427
  0
VERTEX
  8
LAYER_1
 10
175.4546
 20
246.2145
 42
0.2651250001
  0
VERTEX
  8
LAYER_1
 10
175.7261
 20
246.155
 42
0.1927120705
  0
VERTEX
  8
LAYER_1
 10
175.9923
 20
246.4682
 42
0.05338287079
  0
VERTEX
  8
LAYER_1
 10
176.127
 20
246.8869
  0
VERTEX
  8
LAYER_1
 10
176.1011
 20
248.4386
 42
0.2425588561
  0
VERTEX
  8
LAYER_1
 10
175.7806
 20
248.8257
 42
0.05845308772
  0
VERTEX
  8
LAYER_1
 10
174.957
 20
249.4425
 42
0.03958437335
  0
VERTEX
  8
LAYER_1
 10
173.5999
 20
250.0999
 42
0.02863628258
  0
VERTEX
  8
LAYER_1
 10
171.3158
 20
250.8516
 42
0.01985873716
  0
VERTEX
  8
LAYER_1
 10
167.864
 20
251.6366
 42
0.01381425531
  0
VERTEX
  8
LAYER_1
 10
163.1331
 20
252.3905
 42
0.01078456566
  0
VERTEX
  8
LAYER_1
 10
156.4593
 20
253.124
 42
0.0156858924
  0
SEQEND
  0
POLYLINE
  8
LAYER_1
 40
0.3528
 41
0.3528
 66
1
 10
0
 20
0
 30
0
  0
VERTEX
  8
LAYER_1
 10
160.9414
 20
182.3449
  0
VERTEX
  8
LAYER_1
 10
158.0416
 20
181.5617
  0
SEQEND
  0
POLYLINE
  8
LAYER_1
 40
0.3528
 41
0.3528
 66
1
 10
0
 20
0
 30
0
  0
VERTEX
  8
LAYER_1
 10
160.9414
 20
182.3449
  0
VERTEX
  8
LAYER_1
 10
158.0416
 20
183.1069
  0
SEQEND
  0
POLYLINE
  8
LAYER_1
 40
0.3528
 41
0.3528
 66
1
 10
0
 20
0
 30
0
  0
VERTEX
  8
LAYER_1
 10
139.8369
 20
182.3449
  0
VERTEX
  8
LAYER_1
 10
160.9419
 20
182.3449
  0
SEQEND
  0
POLYLINE
  8
LAYER_1
 40
0.3528
 41
0.3528
 66
1
 10
0
 20
0
 30
0
  0
VERTEX
  8
LAYER_1
 10
118.7319
 20
182.3449
  0
VERTEX
  8
LAYER_1
 10
121.6317
 20
181.5617
  0
SEQEND
  0
POLYLINE
  8
LAYER_1
 40
0.3528
 41
0.3528
 66
1
 10
0
 20
0
 30
0
  0
VERTEX
  8
LAYER_1
 10
118.7319
 20
182.3449
  0
VERTEX
  8
LAYER_1
 10
121.6317
 20
183.1069
  0
SEQEND
  0
POLYLINE
  8
LAYER_1
 40
0.3528
 41
0.3528
 66
1
 10
0
 20
0
 30
0
  0
VERTEX
  8
LAYER_1
 10
139.8369
 20
182.3449
  0
VERTEX
  8
LAYER_1
 10
118.7319
 20
182.3449
  0
SEQEND
  0
TEXT
  8
LAYER_1
 10
133.7158
 20
174.5844
 11
133.7158
 21
174.5844
 40
5.4805
 41
0.5
  1
G1  1/4
  0
POLYLINE
  8
LAYER_1
 40
0.3528
 41
0.3528
 66
1
 10
0
 20
0
 30
0
  0
VERTEX
  8
LAYER_1
 10
118.7319
 20
173.0595
  0
VERTEX
  8
LAYER_1
 10
118.7319
 20
190.2678
  0
SEQEND
  0
POLYLINE
  8
LAYER_1
 40
0.3528
 41
0.3528
 66
1
 10
0
 20
0
 30
0
  0
VERTEX
  8
LAYER_1
 10
160.7799
 20
173.0595
  0
VERTEX
  8
LAYER_1
 10
160.7799
 20
190.2678
  0
SEQEND
  0
POLYLINE
  8
LAYER_1
 40
0.3528
 41
0.3528
 66
1
 10
0
 20
0
 30
0
  0
VERTEX
  8
LAYER_1
 10
175.9409
 20
263.3785
  0
VERTEX
  8
LAYER_1
 10
173.0411
 20
262.5953
  0
SEQEND
  0
POLYLINE
  8
LAYER_1
 40
0.3528
 41
0.3528
 66
1
 10
0
 20
0
 30
0
  0
VERTEX
  8
LAYER_1
 10
175.9409
 20
263.3785
  0
VERTEX
  8
LAYER_1
 10
173.0411
 20
264.1405
  0
SEQEND
  0
POLYLINE
  8
LAYER_1
 40
0.3528
 41
0.3528
 66
1
 10
0
 20
0
 30
0
  0
VERTEX
  8
LAYER_1
 10
140.8364
 20
263.3785
  0
VERTEX
  8
LAYER_1
 10
175.9414
 20
263.3785
  0
SEQEND
  0
POLYLINE
  8
LAYER_1
 40
0.3528
 41
0.3528
 66
1
 10
0
 20
0
 30
0
  0
VERTEX
  8
LAYER_1
 10
103.7314
 20
263.3785
  0
VERTEX
  8
LAYER_1
 10
106.6312
 20
262.5953
  0
SEQEND
  0
POLYLINE
  8
LAYER_1
 40
0.3528
 41
0.3528
 66
1
 10
0
 20
0
 30
0
  0
VERTEX
  8
LAYER_1
 10
103.7314
 20
263.3785
  0
VERTEX
  8
LAYER_1
 10
106.6312
 20
264.1405
  0
SEQEND
  0
POLYLINE
  8
LAYER_1
 40
0.3528
 41
0.3528
 66
1
 10
0
 20
0
 30
0
  0
VERTEX
  8
LAYER_1
 10
140.8364
 20
263.3785
  0
VERTEX
  8
LAYER_1
 10
103.7314
 20
263.3785
  0
SEQEND
  0
TEXT
  8
LAYER_1
 10
135.347
 20
265.3064
 11
135.347
 21
265.3064
 40
5.4805
 41
0.5
  1
□ 72
  0
POLYLINE
  8
LAYER_1
 40
0.3528
 41
0.3528
 66
1
 10
0
 20
0
 30
0
  0
VERTEX
  8
LAYER_1
 10
103.7314
 20
254.093
  0
VERTEX
  8
LAYER_1
 10
103.7314
 20
271.3014
  0
SEQEND
  0
POLYLINE
  8
LAYER_1
 40
0.3528
 41
0.3528
 66
1
 10
0
 20
0
 30
0
  0
VERTEX
  8
LAYER_1
 10
175.7794
 20
254.093
  0
VERTEX
  8
LAYER_1
 10
175.7794
 20
271.3014
  0
SEQEND
  0
POLYLINE
  8
LAYER_1
 40
0.3528
 41
0.3528
 66
1
 10
0
 20
0
 30
0
  0
VERTEX
  8
LAYER_1
 10
212.2537
 20
187.4928
  0
VERTEX
  8
LAYER_1
 10
197.5641
 20
187.4928
  0
SEQEND
  0
POLYLINE
  8
LAYER_1
 40
0.3528
 41
0.3528
 66
1
 10
0
 20
0
 30
0
  0
VERTEX
  8
LAYER_1
 10
220.5808
 20
187.4928
  0
VERTEX
  8
LAYER_1
 10
220.5808
 20
243.6488
  0
SEQEND
  0
POLYLINE
  8
LAYER_1
 40
0.3528
 41
0.3528
 66
1
 10
0
 20
0
 30
0
  0
VERTEX
  8
LAYER_1
 10
220.5808
 20
187.4928
  0
VERTEX
  8
LAYER_1
 10
221.3639
 20
190.3926
  0
SEQEND
  0
POLYLINE
  8
LAYER_1
 40
0.3528
 41
0.3528
 66
1
 10
0
 20
0
 30
0
  0
VERTEX
  8
LAYER_1
 10
220.5808
 20
187.4928
  0
VERTEX
  8
LAYER_1
 10
219.8188
 20
190.3926
  0
SEQEND
  0
POLYLINE
  8
LAYER_1
 40
0.3528
 41
0.3528
 66
1
 10
0
 20
0
 30
0
  0
VERTEX
  8
LAYER_1
 10
220.5808
 20
243.6488
  0
VERTEX
  8
LAYER_1
 10
219.8188
 20
240.749
  0
SEQEND
  0
POLYLINE
  8
LAYER_1
 40
0.3528
 41
0.3528
 66
1
 10
0
 20
0
 30
0
  0
VERTEX
  8
LAYER_1
 10
220.5808
 20
243.6488
  0
VERTEX
  8
LAYER_1
 10
221.3639
 20
240.749
  0
SEQEND
  0
POLYLINE
  8
LAYER_1
 40
0.3528
 41
0.3528
 66
1
 10
0
 20
0
 30
0
  0
VERTEX
  8
LAYER_1
 10
220.5808
 20
187.4928
  0
VERTEX
  8
LAYER_1
 10
166.3787
 20
187.4928
  0
SEQEND
  0
POLYLINE
  8
LAYER_1
 40
0.3528
 41
0.3528
 66
1
 10
0
 20
0
 30
0
  0
VERTEX
  8
LAYER_1
 10
220.5808
 20
243.6488
  0
VERTEX
  8
LAYER_1
 10
197.5641
 20
243.6488
  0
SEQEND
  0
POLYLINE
  8
LAYER_1
 40
0.3528
 41
0.3528
 66
1
 10
0
 20
0
 30
0
  0
VERTEX
  8
LAYER_1
 10
201.5153
 20
225.0067
  0
VERTEX
  8
LAYER_1
 10
201.5153
 20
233.1626
  0
SEQEND
  0
POLYLINE
  8
LAYER_1
 40
0.3528
 41
0.3528
 66
1
 10
0
 20
0
 30
0
  0
VERTEX
  8
LAYER_1
 10
201.5153
 20
225.0067
  0
VERTEX
  8
LAYER_1
 10
202.2985
 20
227.9065
  0
SEQEND
  0
POLYLINE
  8
LAYER_1
 40
0.3528
 41
0.3528
 66
1
 10
0
 20
0
 30
0
  0
VERTEX
  8
LAYER_1
 10
201.5153
 20
225.0067
  0
VERTEX
  8
LAYER_1
 10
200.7533
 20
227.9065
  0
SEQEND
  0
POLYLINE
  8
LAYER_1
 40
0.3528
 41
0.3528
 66
1
 10
0
 20
0
 30
0
  0
VERTEX
  8
LAYER_1
 10
201.5153
 20
233.1626
  0
VERTEX
  8
LAYER_1
 10
200.7533
 20
230.2628
  0
SEQEND
  0
POLYLINE
  8
LAYER_1
 40
0.3528
 41
0.3528
 66
1
 10
0
 20
0
 30
0
  0
VERTEX
  8
LAYER_1
 10
201.5153
 20
233.1626
  0
VERTEX
  8
LAYER_1
 10
202.2985
 20
230.2628
  0
SEQEND
  0
POLYLINE
  8
LAYER_1
 40
0.3528
 41
0.3528
 66
1
 10
0
 20
0
 30
0
  0
VERTEX
  8
LAYER_1
 10
201.5149
 20
225.0067
  0
VERTEX
  8
LAYER_1
 10
173.5119
 20
225.0067
  0
SEQEND
  0
POLYLINE
  8
LAYER_1
 40
0.3528
 41
0.3528
 66
1
 10
0
 20
0
 30
0
  0
VERTEX
  8
LAYER_1
 10
201.5149
 20
233.1626
  0
VERTEX
  8
LAYER_1
 10
173.5119
 20
233.1626
  0
SEQEND
  0
POLYLINE
  8
LAYER_1
 40
0.3528
 41
0.3528
 66
1
 10
0
 20
0
 30
0
  0
VERTEX
  8
LAYER_1
 10
90.3674
 20
233.085
  0
VERTEX
  8
LAYER_1
 10
90.3674
 20
243.8042
  0
SEQEND
  0
POLYLINE
  8
LAYER_1
 40
0.3528
 41
0.3528
 66
1
 10
0
 20
0
 30
0
  0
VERTEX
  8
LAYER_1
 10
90.3674
 20
233.085
  0
VERTEX
  8
LAYER_1
 10
89.5842
 20
235.9848
  0
SEQEND
  0
POLYLINE
  8
LAYER_1
 40
0.3528
 41
0.3528
 66
1
 10
0
 20
0
 30
0
  0
VERTEX
  8
LAYER_1
 10
90.3674
 20
233.085
  0
VERTEX
  8
LAYER_1
 10
91.1294
 20
235.9848
  0
SEQEND
  0
POLYLINE
  8
LAYER_1
 40
0.3528
 41
0.3528
 66
1
 10
0
 20
0
 30
0
  0
VERTEX
  8
LAYER_1
 10
90.3674
 20
243.8042
  0
VERTEX
  8
LAYER_1
 10
91.1294
 20
240.9044
  0
SEQEND
  0
POLYLINE
  8
LAYER_1
 40
0.3528
 41
0.3528
 66
1
 10
0
 20
0
 30
0
  0
VERTEX
  8
LAYER_1
 10
90.3674
 20
243.8042
  0
VERTEX
  8
LAYER_1
 10
89.5842
 20
240.9044
  0
SEQEND
  0
POLYLINE
  8
LAYER_1
 40
0.3528
 41
0.3528
 66
1
 10
0
 20
0
 30
0
  0
VERTEX
  8
LAYER_1
 10
90.3678
 20
233.085
  0
VERTEX
  8
LAYER_1
 10
105.0149
 20
233.085
  0
SEQEND
  0
POLYLINE
  8
LAYER_1
 40
0.3528
 41
0.3528
 66
1
 10
0
 20
0
 30
0
  0
VERTEX
  8
LAYER_1
 10
90.3678
 20
243.8042
  0
VERTEX
  8
LAYER_1
 10
105.0149
 20
243.8042
  0
SEQEND
  0
TEXT
  8
LAYER_1
 10
217.199
 20
214.7149
 11
217.199
 21
214.7149
 40
5.4805
 41
0.5
 50
89.99999999
  1
MAX.115
  0
TEXT
  8
LAYER_1
 10
193.2905
 20
234.5221
 11
193.2905
 21
234.5221
 40
5.4805
 41
0.5
 50
89.99999999
  1
MAX.65
  0
TEXT
  8
LAYER_1
 10
95.1556
 20
236.4622
 11
95.1556
 21
236.4622
 40
5.1761
 41
0.5
  1
9
  0
ENDSEC
  0
EOF
