  0
SECTION
  2
HEADER
  9
$ACADVER
  1
AC1009
  9
$LUNITS
 70
2
  9
$LUPREC
 70
4
  9
$LTSCALE
 40
1.0
  9
$EXTMIN
 10
3.1173
 20
13.235
 30
0
  9
$EXTMAX
 10
287.6826
 20
337.3902
 30
0
  0
ENDSEC
  0
SECTION
  2
TABLES
  0
TABLE
  2
LTYPE
 70
256
  0
ENDTAB
  0
TABLE
  2
LAYER
 70
1
  0
LAYER
  2
LAYER_1
 70
64
 62
7
  6
CONTINUOUS
  0
ENDTAB
  0
TABLE
  2
STYLE
 70
6
  0
STYLE
  2
STANDARD
 70
0
 40
0
 50
0
 71
0
 41
0
 42
0
  3
TXT
  4
BIGFONT
  0
ENDTAB
  0
ENDSEC
  0
SECTION
  2
BLOCKS
  0
BLOCK
  8
LAYER_1
  2
AIGNBL01040005
 70
64
 10
0
 20
0
 30
0
  3
AIGNBL01040005
  0
POLYLINE
  8
LAYER_1
 40
0.05
 41
0.05
 62
39
 66
1
 10
0
 20
0
 30
0
 70
1
  0
VERTEX
  8
LAYER_1
 10
191.0642
 20
22.2284
  0
VERTEX
  8
LAYER_1
 10
190.5753
 20
21.0433
  0
VERTEX
  8
LAYER_1
 10
189.9473
 20
21.0433
  0
VERTEX
  8
LAYER_1
 10
191.5468
 20
24.8092
  0
VERTEX
  8
LAYER_1
 10
192.2799
 20
24.8092
  0
VERTEX
  8
LAYER_1
 10
193.8864
 20
21.0433
  0
VERTEX
  8
LAYER_1
 10
193.2363
 20
21.0433
  0
VERTEX
  8
LAYER_1
 10
192.7336
 20
22.2284
  0
SEQEND
  0
POLYLINE
  8
LAYER_1
 40
0.05
 41
0.05
 62
39
 66
1
 10
0
 20
0
 30
0
 70
1
  0
VERTEX
  8
LAYER_1
 10
192.6079
 20
22.6074
  0
VERTEX
  8
LAYER_1
 10
192.1469
 20
23.6922
  0
VERTEX
  8
LAYER_1
 10
191.9023
 20
24.3792
  0
VERTEX
  8
LAYER_1
 10
191.8886
 20
24.3792
  0
VERTEX
  8
LAYER_1
 10
191.6509
 20
23.6967
  0
VERTEX
  8
LAYER_1
 10
191.1902
 20
22.6074
  0
SEQEND
  0
ENDBLK
  0
BLOCK
  8
LAYER_1
  2
AIGNBL01040006
 70
64
 10
0
 20
0
 30
0
  3
AIGNBL01040006
  0
POLYLINE
  8
LAYER_1
 40
0.05
 41
0.05
 62
39
 66
1
 10
0
 20
0
 30
0
 70
1
  0
VERTEX
  8
LAYER_1
 10
198.2517
 20
20.49
 42
-0.01563743173
  0
VERTEX
  8
LAYER_1
 10
196.4495
 20
20.9262
  0
VERTEX
  8
LAYER_1
 10
196.1629
 20
20.9816
 42
-0.08356586593
  0
VERTEX
  8
LAYER_1
 10
195.2988
 20
21.1478
 42
-0.09749891868
  0
VERTEX
  8
LAYER_1
 10
194.6377
 20
21.5537
 42
-0.2129139625
  0
VERTEX
  8
LAYER_1
 10
194.0889
 20
22.8864
 42
-0.09685416448
  0
VERTEX
  8
LAYER_1
 10
194.2335
 20
23.6598
 42
-0.2046320353
  0
VERTEX
  8
LAYER_1
 10
195.2811
 20
24.6841
 42
-0.09825228572
  0
VERTEX
  8
LAYER_1
 10
196.2821
 20
24.8705
 42
-0.08554836282
  0
VERTEX
  8
LAYER_1
 10
197.1507
 20
24.7292
 42
-0.1004347897
  0
VERTEX
  8
LAYER_1
 10
197.8158
 20
24.3349
 42
-0.2140895568
  0
VERTEX
  8
LAYER_1
 10
198.3912
 20
22.965
 42
-0.09540850229
  0
VERTEX
  8
LAYER_1
 10
198.2523
 20
22.1972
 42
-0.2143210227
  0
VERTEX
  8
LAYER_1
 10
197.2294
 20
21.2187
 42
-0.02338900436
  0
VERTEX
  8
LAYER_1
 10
197.0503
 20
21.1604
  0
VERTEX
  8
LAYER_1
 10
197.0503
 20
21.138
 42
0.01711211955
  0
VERTEX
  8
LAYER_1
 10
198.4267
 20
20.8979
  0
SEQEND
  0
POLYLINE
  8
LAYER_1
 40
0.05
 41
0.05
 62
39
 66
1
 10
0
 20
0
 30
0
 70
1
  0
VERTEX
  8
LAYER_1
 10
197.749
 20
22.9436
 42
0.1071543648
  0
VERTEX
  8
LAYER_1
 10
197.5977
 20
23.6484
 42
0.2976507644
  0
VERTEX
  8
LAYER_1
 10
196.2607
 20
24.4739
 42
0.1072265869
  0
VERTEX
  8
LAYER_1
 10
195.5709
 20
24.3344
 42
0.2386027189
  0
VERTEX
  8
LAYER_1
 10
194.7839
 20
23.3288
 42
0.05751346494
  0
VERTEX
  8
LAYER_1
 10
194.7383
 20
22.8988
 42
0.2180663696
  0
VERTEX
  8
LAYER_1
 10
195.2689
 20
21.7034
 42
0.1772758138
  0
VERTEX
  8
LAYER_1
 10
196.2328
 20
21.3778
 42
0.1075185771
  0
VERTEX
  8
LAYER_1
 10
196.9142
 20
21.5168
 42
0.2370926009
  0
VERTEX
  8
LAYER_1
 10
197.7013
 20
22.5164
 42
0.05601310134
  0
SEQEND
  0
ENDBLK
  0
BLOCK
  8
LAYER_1
  2
AIGNBL01040007
 70
64
 10
0
 20
0
 30
0
  3
AIGNBL01040007
  0
POLYLINE
  8
LAYER_1
 40
0.05
 41
0.05
 62
39
 66
1
 10
0
 20
0
 30
0
 70
1
  0
VERTEX
  8
LAYER_1
 10
199.7186
 20
24.8092
  0
VERTEX
  8
LAYER_1
 10
199.7186
 20
22.5798
 42
0.1145161066
  0
VERTEX
  8
LAYER_1
 10
199.8525
 20
21.914
 42
0.1464833358
  0
VERTEX
  8
LAYER_1
 10
200.2028
 20
21.5288
 42
0.1362674881
  0
VERTEX
  8
LAYER_1
 10
200.8151
 20
21.3778
 42
0.121920808
  0
VERTEX
  8
LAYER_1
 10
201.4383
 20
21.5125
 42
0.1503067419
  0
VERTEX
  8
LAYER_1
 10
201.8101
 20
21.8815
 42
0.1256285103
  0
VERTEX
  8
LAYER_1
 10
201.9607
 20
22.5798
  0
VERTEX
  8
LAYER_1
 10
201.9607
 20
24.8092
  0
VERTEX
  8
LAYER_1
 10
202.5753
 20
24.8092
  0
VERTEX
  8
LAYER_1
 10
202.5753
 20
22.6132
 42
-0.09997895241
  0
VERTEX
  8
LAYER_1
 10
202.4404
 20
21.8705
 42
-0.1214934275
  0
VERTEX
  8
LAYER_1
 10
202.0671
 20
21.3639
 42
-0.110620524
  0
VERTEX
  8
LAYER_1
 10
201.4416
 20
21.0572
 42
-0.06129362553
  0
VERTEX
  8
LAYER_1
 10
200.7941
 20
20.9816
 42
-0.09420005614
  0
VERTEX
  8
LAYER_1
 10
199.975
 20
21.1198
 42
-0.24315236
  0
VERTEX
  8
LAYER_1
 10
199.1715
 20
22.0305
 42
-0.0632033471
  0
VERTEX
  8
LAYER_1
 10
199.104
 20
22.5912
  0
VERTEX
  8
LAYER_1
 10
199.104
 20
24.8092
  0
SEQEND
  0
ENDBLK
  0
BLOCK
  8
LAYER_1
  2
AIGNBL01040008
 70
64
 10
0
 20
0
 30
0
  3
AIGNBL01040008
  0
POLYLINE
  8
LAYER_1
 40
0.05
 41
0.05
 62
39
 66
1
 10
0
 20
0
 30
0
 70
1
  0
VERTEX
  8
LAYER_1
 10
204.3215
 20
22.2284
  0
VERTEX
  8
LAYER_1
 10
203.8323
 20
21.0433
  0
VERTEX
  8
LAYER_1
 10
203.2043
 20
21.0433
  0
VERTEX
  8
LAYER_1
 10
204.8035
 20
24.8092
  0
VERTEX
  8
LAYER_1
 10
205.5367
 20
24.8092
  0
VERTEX
  8
LAYER_1
 10
207.1431
 20
21.0433
  0
VERTEX
  8
LAYER_1
 10
206.4937
 20
21.0433
  0
VERTEX
  8
LAYER_1
 10
205.9911
 20
22.2284
  0
SEQEND
  0
POLYLINE
  8
LAYER_1
 40
0.05
 41
0.05
 62
39
 66
1
 10
0
 20
0
 30
0
 70
1
  0
VERTEX
  8
LAYER_1
 10
205.8649
 20
22.6074
  0
VERTEX
  8
LAYER_1
 10
205.4037
 20
23.6922
  0
VERTEX
  8
LAYER_1
 10
205.1591
 20
24.3792
  0
VERTEX
  8
LAYER_1
 10
205.1453
 20
24.3792
  0
VERTEX
  8
LAYER_1
 10
204.9079
 20
23.6967
  0
VERTEX
  8
LAYER_1
 10
204.447
 20
22.6074
  0
SEQEND
  0
ENDBLK
  0
BLOCK
  8
LAYER_1
  2
AIGNBL01040009
 70
64
 10
0
 20
0
 30
0
  3
AIGNBL01040009
  0
POLYLINE
  8
LAYER_1
 40
0.05
 41
0.05
 62
39
 66
1
 10
0
 20
0
 30
0
 70
1
  0
VERTEX
  8
LAYER_1
 10
208.1839
 20
24.7644
 42
-0.03240300255
  0
VERTEX
  8
LAYER_1
 10
209.3507
 20
24.8374
 42
-0.08082287254
  0
VERTEX
  8
LAYER_1
 10
210.3072
 20
24.7056
 42
-0.07816212749
  0
VERTEX
  8
LAYER_1
 10
210.6705
 20
24.5246
 42
-0.2483921074
  0
VERTEX
  8
LAYER_1
 10
211.0822
 20
23.7363
 42
-0.226147
  0
VERTEX
  8
LAYER_1
 10
210.7191
 20
22.9322
 42
-0.109727648
  0
VERTEX
  8
LAYER_1
 10
210.0908
 20
22.6189
 42
-0.06565380896
  0
VERTEX
  8
LAYER_1
 10
209.2804
 20
22.5185
 42
-0.06238309955
  0
VERTEX
  8
LAYER_1
 10
208.7919
 20
22.5519
  0
VERTEX
  8
LAYER_1
 10
208.7919
 20
21.0433
  0
VERTEX
  8
LAYER_1
 10
208.1839
 20
21.0433
  0
SEQEND
  0
POLYLINE
  8
LAYER_1
 40
0.05
 41
0.05
 62
39
 66
1
 10
0
 20
0
 30
0
 70
1
  0
VERTEX
  8
LAYER_1
 10
208.7919
 20
22.9488
 42
0.04203451964
  0
VERTEX
  8
LAYER_1
 10
209.2942
 20
22.9095
 42
0.1032325703
  0
VERTEX
  8
LAYER_1
 10
210.0134
 20
23.0368
 42
0.1555838345
  0
VERTEX
  8
LAYER_1
 10
210.3782
 20
23.3413
 42
0.1352564048
  0
VERTEX
  8
LAYER_1
 10
210.4752
 20
23.714
 42
0.1737230689
  0
VERTEX
  8
LAYER_1
 10
210.3404
 20
24.1213
 42
0.1517081527
  0
VERTEX
  8
LAYER_1
 10
209.9193
 20
24.3807
 42
0.0687773514
  0
VERTEX
  8
LAYER_1
 10
209.3648
 20
24.4515
 42
0.06336983159
  0
VERTEX
  8
LAYER_1
 10
208.7919
 20
24.4123
  0
SEQEND
  0
ENDBLK
  0
BLOCK
  8
LAYER_1
  2
AIGNBL0104000A
 70
64
 10
0
 20
0
 30
0
  3
AIGNBL0104000A
  0
POLYLINE
  8
LAYER_1
 40
0.05
 41
0.05
 62
39
 66
1
 10
0
 20
0
 30
0
 70
1
  0
VERTEX
  8
LAYER_1
 10
212.6342
 20
24.5074
 42
-0.2768160409
  0
VERTEX
  8
LAYER_1
 10
212.4947
 20
24.2673
 42
-0.1264799952
  0
VERTEX
  8
LAYER_1
 10
212.2425
 20
24.2056
 42
-0.2237457958
  0
VERTEX
  8
LAYER_1
 10
211.9322
 20
24.338
 42
-0.1708186296
  0
VERTEX
  8
LAYER_1
 10
211.8722
 20
24.5074
 42
-0.2643957951
  0
VERTEX
  8
LAYER_1
 10
212.0216
 20
24.7544
 42
-0.1289907874
  0
VERTEX
  8
LAYER_1
 10
212.2563
 20
24.8143
 42
-0.2252979244
  0
VERTEX
  8
LAYER_1
 10
212.5731
 20
24.6837
 42
-0.1691669651
  0
SEQEND
  0
POLYLINE
  8
LAYER_1
 40
0.05
 41
0.05
 62
39
 66
1
 10
0
 20
0
 30
0
 70
1
  0
VERTEX
  8
LAYER_1
 10
211.9487
 20
21.0433
  0
VERTEX
  8
LAYER_1
 10
211.9487
 20
23.7474
  0
VERTEX
  8
LAYER_1
 10
212.5633
 20
23.7474
  0
VERTEX
  8
LAYER_1
 10
212.5633
 20
21.0433
  0
SEQEND
  0
ENDBLK
  0
BLOCK
  8
LAYER_1
  2
AIGNBL0104000B
 70
64
 10
0
 20
0
 30
0
  3
AIGNBL0104000B
  0
POLYLINE
  8
LAYER_1
 40
0.05
 41
0.05
 62
39
 66
1
 10
0
 20
0
 30
0
 70
1
  0
VERTEX
  8
LAYER_1
 10
214.435
 20
22.2284
  0
VERTEX
  8
LAYER_1
 10
213.9468
 20
21.0433
  0
VERTEX
  8
LAYER_1
 10
213.3177
 20
21.0433
  0
VERTEX
  8
LAYER_1
 10
214.9173
 20
24.8092
  0
VERTEX
  8
LAYER_1
 10
215.6511
 20
24.8092
  0
VERTEX
  8
LAYER_1
 10
217.2576
 20
21.0433
  0
VERTEX
  8
LAYER_1
 10
216.6078
 20
21.0433
  0
VERTEX
  8
LAYER_1
 10
216.1052
 20
22.2284
  0
SEQEND
  0
POLYLINE
  8
LAYER_1
 40
0.05
 41
0.05
 62
39
 66
1
 10
0
 20
0
 30
0
 70
1
  0
VERTEX
  8
LAYER_1
 10
215.9791
 20
22.6074
  0
VERTEX
  8
LAYER_1
 10
215.5181
 20
23.6922
  0
VERTEX
  8
LAYER_1
 10
215.2742
 20
24.3792
  0
VERTEX
  8
LAYER_1
 10
215.2594
 20
24.3792
  0
VERTEX
  8
LAYER_1
 10
215.0224
 20
23.6967
  0
VERTEX
  8
LAYER_1
 10
214.5614
 20
22.6074
  0
SEQEND
  0
ENDBLK
  0
BLOCK
  8
LAYER_1
  2
AIGNBL01030004
 70
64
 10
0
 20
0
 30
0
  3
AIGNBL01030004
  0
INSERT
  8
LAYER_1
  2
AIGNBL01040005
 10
0
 20
0
 30
0
  0
INSERT
  8
LAYER_1
  2
AIGNBL01040006
 10
0
 20
0
 30
0
  0
INSERT
  8
LAYER_1
  2
AIGNBL01040007
 10
0
 20
0
 30
0
  0
INSERT
  8
LAYER_1
  2
AIGNBL01040008
 10
0
 20
0
 30
0
  0
INSERT
  8
LAYER_1
  2
AIGNBL01040009
 10
0
 20
0
 30
0
  0
INSERT
  8
LAYER_1
  2
AIGNBL0104000A
 10
0
 20
0
 30
0
  0
INSERT
  8
LAYER_1
  2
AIGNBL0104000B
 10
0
 20
0
 30
0
  0
ENDBLK
  0
BLOCK
  8
LAYER_1
  2
AIGNBL0103000D
 70
64
 10
0
 20
0
 30
0
  3
AIGNBL0103000D
  0
POLYLINE
  8
LAYER_1
 40
0.05
 41
0.05
 62
39
 66
1
 10
0
 20
0
 30
0
 70
1
  0
VERTEX
  8
LAYER_1
 10
190.0572
 20
19.144
  0
VERTEX
  8
LAYER_1
 10
190.6104
 20
19.144
  0
VERTEX
  8
LAYER_1
 10
190.6104
 20
19.0503
  0
VERTEX
  8
LAYER_1
 10
189.9521
 20
19.0503
  0
VERTEX
  8
LAYER_1
 10
189.9521
 20
20.0835
  0
VERTEX
  8
LAYER_1
 10
190.5928
 20
20.0835
  0
VERTEX
  8
LAYER_1
 10
190.5928
 20
19.9901
  0
VERTEX
  8
LAYER_1
 10
190.0572
 20
19.9901
  0
VERTEX
  8
LAYER_1
 10
190.0572
 20
19.6356
  0
VERTEX
  8
LAYER_1
 10
190.5577
 20
19.6356
  0
VERTEX
  8
LAYER_1
 10
190.5577
 20
19.5423
  0
VERTEX
  8
LAYER_1
 10
190.0572
 20
19.5423
  0
SEQEND
  0
ENDBLK
  0
BLOCK
  8
LAYER_1
  2
AIGNBL0103000E
 70
64
 10
0
 20
0
 30
0
  3
AIGNBL0103000E
  0
POLYLINE
  8
LAYER_1
 40
0.05
 41
0.05
 62
39
 66
1
 10
0
 20
0
 30
0
 70
1
  0
VERTEX
  8
LAYER_1
 10
191.7501
 20
19.2036
  0
VERTEX
  8
LAYER_1
 10
191.7528
 20
19.2036
  0
VERTEX
  8
LAYER_1
 10
191.7528
 20
20.0835
  0
VERTEX
  8
LAYER_1
 10
191.8579
 20
20.0835
  0
VERTEX
  8
LAYER_1
 10
191.8579
 20
19.0503
  0
VERTEX
  8
LAYER_1
 10
191.727
 20
19.0503
  0
VERTEX
  8
LAYER_1
 10
191.1258
 20
19.9392
  0
VERTEX
  8
LAYER_1
 10
191.1224
 20
19.9392
  0
VERTEX
  8
LAYER_1
 10
191.1224
 20
19.0503
  0
VERTEX
  8
LAYER_1
 10
191.0176
 20
19.0503
  0
VERTEX
  8
LAYER_1
 10
191.0176
 20
20.0835
  0
VERTEX
  8
LAYER_1
 10
191.1489
 20
20.0835
  0
SEQEND
  0
ENDBLK
  0
BLOCK
  8
LAYER_1
  2
AIGNBL0103000F
 70
64
 10
0
 20
0
 30
0
  3
AIGNBL0103000F
  0
POLYLINE
  8
LAYER_1
 40
0.05
 41
0.05
 62
39
 66
1
 10
0
 20
0
 30
0
 70
1
  0
VERTEX
  8
LAYER_1
 10
192.3309
 20
19.2622
  0
VERTEX
  8
LAYER_1
 10
192.3853
 20
19.1592
 42
0.1808129973
  0
VERTEX
  8
LAYER_1
 10
192.4987
 20
19.1175
  0
VERTEX
  8
LAYER_1
 10
192.5879
 20
19.1371
  0
VERTEX
  8
LAYER_1
 10
192.6441
 20
19.1905
  0
VERTEX
  8
LAYER_1
 10
192.673
 20
19.267
  0
VERTEX
  8
LAYER_1
 10
192.6813
 20
19.3566
  0
VERTEX
  8
LAYER_1
 10
192.6813
 20
20.0835
  0
VERTEX
  8
LAYER_1
 10
192.7863
 20
20.0835
  0
VERTEX
  8
LAYER_1
 10
192.7863
 20
19.348
  0
VERTEX
  8
LAYER_1
 10
192.775
 20
19.2401
  0
VERTEX
  8
LAYER_1
 10
192.7336
 20
19.1351
  0
VERTEX
  8
LAYER_1
 10
192.6489
 20
19.0555
  0
VERTEX
  8
LAYER_1
 10
192.5101
 20
19.0241
 42
-0.1849648081
  0
VERTEX
  8
LAYER_1
 10
192.3254
 20
19.0841
 42
-0.1765293084
  0
VERTEX
  8
LAYER_1
 10
192.2331
 20
19.2357
  0
SEQEND
  0
ENDBLK
  0
BLOCK
  8
LAYER_1
  2
AIGNBL01030010
 70
64
 10
0
 20
0
 30
0
  3
AIGNBL01030010
  0
POLYLINE
  8
LAYER_1
 40
0.05
 41
0.05
 62
39
 66
1
 10
0
 20
0
 30
0
 70
1
  0
VERTEX
  8
LAYER_1
 10
194.2746
 20
19.5671
 42
-0.1039024845
  0
VERTEX
  8
LAYER_1
 10
194.2336
 20
19.3497
 42
-0.1002458474
  0
VERTEX
  8
LAYER_1
 10
194.121
 20
19.1781
  0
VERTEX
  8
LAYER_1
 10
193.9501
 20
19.0651
 42
-0.09506675375
  0
VERTEX
  8
LAYER_1
 10
193.7362
 20
19.0241
 42
-0.1010866674
  0
VERTEX
  8
LAYER_1
 10
193.5226
 20
19.0651
 42
-0.1005760356
  0
VERTEX
  8
LAYER_1
 10
193.3517
 20
19.1781
 42
-0.09479293922
  0
VERTEX
  8
LAYER_1
 10
193.2384
 20
19.3497
 42
-0.09316534225
  0
VERTEX
  8
LAYER_1
 10
193.1977
 20
19.5671
 42
-0.1027149125
  0
VERTEX
  8
LAYER_1
 10
193.2384
 20
19.7845
 42
-0.1007559602
  0
VERTEX
  8
LAYER_1
 10
193.3517
 20
19.956
 42
-0.09625543395
  0
VERTEX
  8
LAYER_1
 10
193.5226
 20
20.069
 42
-0.09532420784
  0
VERTEX
  8
LAYER_1
 10
193.7362
 20
20.11
 42
-0.1018017754
  0
VERTEX
  8
LAYER_1
 10
193.9501
 20
20.069
 42
-0.09853409661
  0
VERTEX
  8
LAYER_1
 10
194.121
 20
19.956
 42
-0.09543199427
  0
VERTEX
  8
LAYER_1
 10
194.2336
 20
19.7845
 42
-0.09397287008
  0
SEQEND
  0
POLYLINE
  8
LAYER_1
 40
0.05
 41
0.05
 62
39
 66
1
 10
0
 20
0
 30
0
 70
1
  0
VERTEX
  8
LAYER_1
 10
194.1637
 20
19.5664
  0
VERTEX
  8
LAYER_1
 10
194.1348
 20
19.7383
  0
VERTEX
  8
LAYER_1
 10
194.05
 20
19.8816
  0
VERTEX
  8
LAYER_1
 10
193.915
 20
19.9798
  0
VERTEX
  8
LAYER_1
 10
193.7362
 20
20.0167
  0
VERTEX
  8
LAYER_1
 10
193.5574
 20
19.9798
  0
VERTEX
  8
LAYER_1
 10
193.4227
 20
19.8816
  0
VERTEX
  8
LAYER_1
 10
193.3379
 20
19.7383
  0
VERTEX
  8
LAYER_1
 10
193.3086
 20
19.5664
  0
VERTEX
  8
LAYER_1
 10
193.3379
 20
19.3945
  0
VERTEX
  8
LAYER_1
 10
193.4227
 20
19.2515
  0
VERTEX
  8
LAYER_1
 10
193.5574
 20
19.154
 42
0.1008280473
  0
VERTEX
  8
LAYER_1
 10
193.7362
 20
19.1175
  0
VERTEX
  8
LAYER_1
 10
193.915
 20
19.154
  0
VERTEX
  8
LAYER_1
 10
194.05
 20
19.2515
  0
VERTEX
  8
LAYER_1
 10
194.1348
 20
19.3945
  0
SEQEND
  0
ENDBLK
  0
BLOCK
  8
LAYER_1
  2
AIGNBL01030011
 70
64
 10
0
 20
0
 30
0
  3
AIGNBL01030011
  0
POLYLINE
  8
LAYER_1
 40
0.05
 41
0.05
 62
39
 66
1
 10
0
 20
0
 30
0
 70
1
  0
VERTEX
  8
LAYER_1
 10
195.0494
 20
19.0503
  0
VERTEX
  8
LAYER_1
 10
194.9447
 20
19.0503
  0
VERTEX
  8
LAYER_1
 10
194.9447
 20
19.4958
  0
VERTEX
  8
LAYER_1
 10
194.5578
 20
20.0835
  0
VERTEX
  8
LAYER_1
 10
194.6891
 20
20.0835
  0
VERTEX
  8
LAYER_1
 10
195.0002
 20
19.5833
  0
VERTEX
  8
LAYER_1
 10
195.3137
 20
20.0835
  0
VERTEX
  8
LAYER_1
 10
195.436
 20
20.0835
  0
VERTEX
  8
LAYER_1
 10
195.0494
 20
19.4958
  0
SEQEND
  0
ENDBLK
  0
BLOCK
  8
LAYER_1
  2
AIGNBL01030012
 70
64
 10
0
 20
0
 30
0
  3
AIGNBL01030012
  0
POLYLINE
  8
LAYER_1
 40
0.05
 41
0.05
 62
39
 66
1
 10
0
 20
0
 30
0
 70
1
  0
VERTEX
  8
LAYER_1
 10
196.341
 20
20.0835
  0
VERTEX
  8
LAYER_1
 10
196.6486
 20
20.0835
  0
VERTEX
  8
LAYER_1
 10
196.7672
 20
20.0711
  0
VERTEX
  8
LAYER_1
 10
196.8739
 20
20.0287
  0
VERTEX
  8
LAYER_1
 10
196.9518
 20
19.9478
  0
VERTEX
  8
LAYER_1
 10
196.9814
 20
19.8196
 42
-0.1790346201
  0
VERTEX
  8
LAYER_1
 10
196.9315
 20
19.6773
 42
-0.1631549063
  0
VERTEX
  8
LAYER_1
 10
196.7982
 20
19.5977
  0
VERTEX
  8
LAYER_1
 10
196.7982
 20
19.595
 42
-0.1735745096
  0
VERTEX
  8
LAYER_1
 10
196.9649
 20
19.5168
 42
-0.1922132794
  0
VERTEX
  8
LAYER_1
 10
197.031
 20
19.3363
  0
VERTEX
  8
LAYER_1
 10
197.0038
 20
19.2191
  0
VERTEX
  8
LAYER_1
 10
196.9277
 20
19.1285
  0
VERTEX
  8
LAYER_1
 10
196.8068
 20
19.071
  0
VERTEX
  8
LAYER_1
 10
196.6469
 20
19.0503
  0
VERTEX
  8
LAYER_1
 10
196.341
 20
19.0503
  0
SEQEND
  0
POLYLINE
  8
LAYER_1
 40
0.05
 41
0.05
 62
39
 66
1
 10
0
 20
0
 30
0
 70
1
  0
VERTEX
  8
LAYER_1
 10
196.4461
 20
19.6312
  0
VERTEX
  8
LAYER_1
 10
196.6576
 20
19.6312
  0
VERTEX
  8
LAYER_1
 10
196.7344
 20
19.6401
  0
VERTEX
  8
LAYER_1
 10
196.8047
 20
19.6697
  0
VERTEX
  8
LAYER_1
 10
196.8567
 20
19.7263
  0
VERTEX
  8
LAYER_1
 10
196.8764
 20
19.8124
  0
VERTEX
  8
LAYER_1
 10
196.8567
 20
19.8961
  0
VERTEX
  8
LAYER_1
 10
196.8037
 20
19.9523
  0
VERTEX
  8
LAYER_1
 10
196.7248
 20
19.9836
  0
VERTEX
  8
LAYER_1
 10
196.6283
 20
19.9932
  0
VERTEX
  8
LAYER_1
 10
196.4461
 20
19.9932
  0
SEQEND
  0
POLYLINE
  8
LAYER_1
 40
0.05
 41
0.05
 62
39
 66
1
 10
0
 20
0
 30
0
 70
1
  0
VERTEX
  8
LAYER_1
 10
196.4461
 20
19.1409
  0
VERTEX
  8
LAYER_1
 10
196.6418
 20
19.1409
  0
VERTEX
  8
LAYER_1
 10
196.7503
 20
19.1519
  0
VERTEX
  8
LAYER_1
 10
196.8409
 20
19.1868
  0
VERTEX
  8
LAYER_1
 10
196.9026
 20
19.2498
  0
VERTEX
  8
LAYER_1
 10
196.926
 20
19.3425
 42
0.2557371221
  0
VERTEX
  8
LAYER_1
 10
196.8567
 20
19.4947
 42
0.1381508151
  0
VERTEX
  8
LAYER_1
 10
196.6607
 20
19.545
  0
VERTEX
  8
LAYER_1
 10
196.4461
 20
19.545
  0
SEQEND
  0
ENDBLK
  0
BLOCK
  8
LAYER_1
  2
AIGNBL01030013
 70
64
 10
0
 20
0
 30
0
  3
AIGNBL01030013
  0
POLYLINE
  8
LAYER_1
 40
0.05
 41
0.05
 62
39
 66
1
 10
0
 20
0
 30
0
 70
1
  0
VERTEX
  8
LAYER_1
 10
197.4631
 20
19.0503
  0
VERTEX
  8
LAYER_1
 10
197.3477
 20
19.0503
  0
VERTEX
  8
LAYER_1
 10
197.7945
 20
20.0835
  0
VERTEX
  8
LAYER_1
 10
197.8968
 20
20.0835
  0
VERTEX
  8
LAYER_1
 10
198.3402
 20
19.0503
  0
VERTEX
  8
LAYER_1
 10
198.2234
 20
19.0503
  0
VERTEX
  8
LAYER_1
 10
198.1094
 20
19.3218
  0
VERTEX
  8
LAYER_1
 10
197.5754
 20
19.3218
  0
SEQEND
  0
POLYLINE
  8
LAYER_1
 40
0.05
 41
0.05
 62
39
 66
1
 10
0
 20
0
 30
0
 70
1
  0
VERTEX
  8
LAYER_1
 10
197.6146
 20
19.4182
  0
VERTEX
  8
LAYER_1
 10
198.0701
 20
19.4182
  0
VERTEX
  8
LAYER_1
 10
197.8424
 20
19.9671
  0
SEQEND
  0
ENDBLK
  0
BLOCK
  8
LAYER_1
  2
AIGNBL01030014
 70
64
 10
0
 20
0
 30
0
  3
AIGNBL01030014
  0
POLYLINE
  8
LAYER_1
 40
0.05
 41
0.05
 62
39
 66
1
 10
0
 20
0
 30
0
 70
1
  0
VERTEX
  8
LAYER_1
 10
199.0247
 20
19.0503
  0
VERTEX
  8
LAYER_1
 10
198.9196
 20
19.0503
  0
VERTEX
  8
LAYER_1
 10
198.9196
 20
19.9901
  0
VERTEX
  8
LAYER_1
 10
198.5734
 20
19.9901
  0
VERTEX
  8
LAYER_1
 10
198.5734
 20
20.0835
  0
VERTEX
  8
LAYER_1
 10
199.3703
 20
20.0835
  0
VERTEX
  8
LAYER_1
 10
199.3703
 20
19.9901
  0
VERTEX
  8
LAYER_1
 10
199.0247
 20
19.9901
  0
SEQEND
  0
ENDBLK
  0
BLOCK
  8
LAYER_1
  2
AIGNBL01030015
 70
64
 10
0
 20
0
 30
0
  3
AIGNBL01030015
  0
POLYLINE
  8
LAYER_1
 40
0.05
 41
0.05
 62
39
 66
1
 10
0
 20
0
 30
0
 70
1
  0
VERTEX
  8
LAYER_1
 10
199.7265
 20
20.0835
  0
VERTEX
  8
LAYER_1
 10
199.8312
 20
20.0835
  0
VERTEX
  8
LAYER_1
 10
199.8312
 20
19.6356
  0
VERTEX
  8
LAYER_1
 10
200.3948
 20
19.6356
  0
VERTEX
  8
LAYER_1
 10
200.3948
 20
20.0835
  0
VERTEX
  8
LAYER_1
 10
200.4999
 20
20.0835
  0
VERTEX
  8
LAYER_1
 10
200.4999
 20
19.0503
  0
VERTEX
  8
LAYER_1
 10
200.3948
 20
19.0503
  0
VERTEX
  8
LAYER_1
 10
200.3948
 20
19.5395
  0
VERTEX
  8
LAYER_1
 10
199.8312
 20
19.5395
  0
VERTEX
  8
LAYER_1
 10
199.8312
 20
19.0503
  0
VERTEX
  8
LAYER_1
 10
199.7265
 20
19.0503
  0
SEQEND
  0
ENDBLK
  0
BLOCK
  8
LAYER_1
  2
AIGNBL01030016
 70
64
 10
0
 20
0
 30
0
  3
AIGNBL01030016
  0
POLYLINE
  8
LAYER_1
 40
0.05
 41
0.05
 62
39
 66
1
 10
0
 20
0
 30
0
 70
1
  0
VERTEX
  8
LAYER_1
 10
201.0804
 20
19.0503
  0
VERTEX
  8
LAYER_1
 10
200.9753
 20
19.0503
  0
VERTEX
  8
LAYER_1
 10
200.9753
 20
20.0835
  0
VERTEX
  8
LAYER_1
 10
201.2792
 20
20.0835
  0
VERTEX
  8
LAYER_1
 10
201.4198
 20
20.069
  0
VERTEX
  8
LAYER_1
 10
201.5324
 20
20.0215
  0
VERTEX
  8
LAYER_1
 10
201.6058
 20
19.9361
  0
VERTEX
  8
LAYER_1
 10
201.632
 20
19.8079
  0
VERTEX
  8
LAYER_1
 10
201.612
 20
19.7042
  0
VERTEX
  8
LAYER_1
 10
201.5565
 20
19.6232
  0
VERTEX
  8
LAYER_1
 10
201.4731
 20
19.5685
  0
VERTEX
  8
LAYER_1
 10
201.3681
 20
19.5423
  0
VERTEX
  8
LAYER_1
 10
201.6702
 20
19.0503
  0
VERTEX
  8
LAYER_1
 10
201.5417
 20
19.0503
  0
VERTEX
  8
LAYER_1
 10
201.2558
 20
19.5333
  0
VERTEX
  8
LAYER_1
 10
201.0804
 20
19.5333
  0
SEQEND
  0
POLYLINE
  8
LAYER_1
 40
0.05
 41
0.05
 62
39
 66
1
 10
0
 20
0
 30
0
 70
1
  0
VERTEX
  8
LAYER_1
 10
201.0804
 20
19.6239
  0
VERTEX
  8
LAYER_1
 10
201.263
 20
19.6239
 42
0.1654500383
  0
VERTEX
  8
LAYER_1
 10
201.4587
 20
19.6697
 42
0.2503949893
  0
VERTEX
  8
LAYER_1
 10
201.5273
 20
19.8079
  0
VERTEX
  8
LAYER_1
 10
201.508
 20
19.8937
  0
VERTEX
  8
LAYER_1
 10
201.4556
 20
19.9509
  0
VERTEX
  8
LAYER_1
 10
201.3739
 20
19.9829
  0
VERTEX
  8
LAYER_1
 10
201.2675
 20
19.9932
  0
VERTEX
  8
LAYER_1
 10
201.0804
 20
19.9932
  0
SEQEND
  0
ENDBLK
  0
BLOCK
  8
LAYER_1
  2
AIGNBL01030017
 70
64
 10
0
 20
0
 30
0
  3
AIGNBL01030017
  0
POLYLINE
  8
LAYER_1
 40
0.05
 41
0.05
 62
39
 66
1
 10
0
 20
0
 30
0
 70
1
  0
VERTEX
  8
LAYER_1
 10
203.0724
 20
19.5671
 42
-0.1002731409
  0
VERTEX
  8
LAYER_1
 10
203.0317
 20
19.3497
 42
-0.1003765801
  0
VERTEX
  8
LAYER_1
 10
202.9184
 20
19.1781
 42
-0.09520795497
  0
VERTEX
  8
LAYER_1
 10
202.7478
 20
19.0651
 42
-0.09506675375
  0
VERTEX
  8
LAYER_1
 10
202.5339
 20
19.0241
 42
-0.1014233705
  0
VERTEX
  8
LAYER_1
 10
202.32
 20
19.0651
 42
-0.1001793077
  0
VERTEX
  8
LAYER_1
 10
202.1494
 20
19.1781
 42
-0.09547486106
  0
VERTEX
  8
LAYER_1
 10
202.0364
 20
19.3497
 42
-0.09293253763
  0
VERTEX
  8
LAYER_1
 10
201.9958
 20
19.5671
 42
-0.1022983043
  0
VERTEX
  8
LAYER_1
 10
202.0364
 20
19.7845
 42
-0.1013677539
  0
VERTEX
  8
LAYER_1
 10
202.1494
 20
19.956
 42
-0.09583479814
  0
VERTEX
  8
LAYER_1
 10
202.32
 20
20.069
 42
-0.09517221897
  0
VERTEX
  8
LAYER_1
 10
202.5339
 20
20.11
 42
-0.1018017754
  0
VERTEX
  8
LAYER_1
 10
202.7478
 20
20.069
 42
-0.1017041996
  0
VERTEX
  8
LAYER_1
 10
202.9184
 20
19.956
 42
-0.09492976366
  0
VERTEX
  8
LAYER_1
 10
203.0317
 20
19.7845
 42
-0.09296145325
  0
SEQEND
  0
POLYLINE
  8
LAYER_1
 40
0.05
 41
0.05
 62
39
 66
1
 10
0
 20
0
 30
0
 70
1
  0
VERTEX
  8
LAYER_1
 10
202.9614
 20
19.5664
  0
VERTEX
  8
LAYER_1
 10
202.9322
 20
19.7383
  0
VERTEX
  8
LAYER_1
 10
202.8474
 20
19.8816
  0
VERTEX
  8
LAYER_1
 10
202.7127
 20
19.9798
  0
VERTEX
  8
LAYER_1
 10
202.5339
 20
20.0167
  0
VERTEX
  8
LAYER_1
 10
202.3551
 20
19.9798
  0
VERTEX
  8
LAYER_1
 10
202.22
 20
19.8816
  0
VERTEX
  8
LAYER_1
 10
202.1353
 20
19.7383
  0
VERTEX
  8
LAYER_1
 10
202.1064
 20
19.5664
  0
VERTEX
  8
LAYER_1
 10
202.1353
 20
19.3945
  0
VERTEX
  8
LAYER_1
 10
202.22
 20
19.2515
  0
VERTEX
  8
LAYER_1
 10
202.3551
 20
19.154
  0
VERTEX
  8
LAYER_1
 10
202.5339
 20
19.1175
  0
VERTEX
  8
LAYER_1
 10
202.7127
 20
19.154
  0
VERTEX
  8
LAYER_1
 10
202.8474
 20
19.2515
  0
VERTEX
  8
LAYER_1
 10
202.9322
 20
19.3945
  0
SEQEND
  0
ENDBLK
  0
BLOCK
  8
LAYER_1
  2
AIGNBL01030018
 70
64
 10
0
 20
0
 30
0
  3
AIGNBL01030018
  0
POLYLINE
  8
LAYER_1
 40
0.05
 41
0.05
 62
39
 66
1
 10
0
 20
0
 30
0
 70
1
  0
VERTEX
  8
LAYER_1
 10
204.5141
 20
19.5671
 42
-0.1039024845
  0
VERTEX
  8
LAYER_1
 10
204.4731
 20
19.3497
 42
-0.1002458474
  0
VERTEX
  8
LAYER_1
 10
204.3605
 20
19.1781
 42
-0.09471741496
  0
VERTEX
  8
LAYER_1
 10
204.1896
 20
19.0651
 42
-0.09506675375
  0
VERTEX
  8
LAYER_1
 10
203.9757
 20
19.0241
 42
-0.101832469
  0
VERTEX
  8
LAYER_1
 10
203.7621
 20
19.0651
 42
-0.1021045144
  0
VERTEX
  8
LAYER_1
 10
203.5912
 20
19.1781
 42
-0.0942812324
  0
VERTEX
  8
LAYER_1
 10
203.4778
 20
19.3497
 42
-0.09293253763
  0
VERTEX
  8
LAYER_1
 10
203.4372
 20
19.5671
 42
-0.1022983043
  0
VERTEX
  8
LAYER_1
 10
203.4778
 20
19.7845
 42
-0.1005682055
  0
VERTEX
  8
LAYER_1
 10
203.5912
 20
19.956
 42
-0.09625543395
  0
VERTEX
  8
LAYER_1
 10
203.7621
 20
20.069
 42
-0.09532584124
  0
VERTEX
  8
LAYER_1
 10
203.9757
 20
20.11
 42
-0.1018017754
  0
VERTEX
  8
LAYER_1
 10
204.1896
 20
20.069
 42
-0.09853409661
  0
VERTEX
  8
LAYER_1
 10
204.3605
 20
19.956
 42
-0.09543199427
  0
VERTEX
  8
LAYER_1
 10
204.4731
 20
19.7845
 42
-0.09397287008
  0
SEQEND
  0
POLYLINE
  8
LAYER_1
 40
0.05
 41
0.05
 62
39
 66
1
 10
0
 20
0
 30
0
 70
1
  0
VERTEX
  8
LAYER_1
 10
204.4032
 20
19.5664
  0
VERTEX
  8
LAYER_1
 10
204.3743
 20
19.7383
  0
VERTEX
  8
LAYER_1
 10
204.2895
 20
19.8816
  0
VERTEX
  8
LAYER_1
 10
204.1545
 20
19.9798
  0
VERTEX
  8
LAYER_1
 10
203.9757
 20
20.0167
  0
VERTEX
  8
LAYER_1
 10
203.7969
 20
19.9798
  0
VERTEX
  8
LAYER_1
 10
203.6622
 20
19.8816
  0
VERTEX
  8
LAYER_1
 10
203.5774
 20
19.7383
  0
VERTEX
  8
LAYER_1
 10
203.5482
 20
19.5664
  0
VERTEX
  8
LAYER_1
 10
203.5774
 20
19.3945
  0
VERTEX
  8
LAYER_1
 10
203.6622
 20
19.2515
  0
VERTEX
  8
LAYER_1
 10
203.7969
 20
19.154
 42
0.1008280473
  0
VERTEX
  8
LAYER_1
 10
203.9757
 20
19.1175
  0
VERTEX
  8
LAYER_1
 10
204.1545
 20
19.154
  0
VERTEX
  8
LAYER_1
 10
204.2895
 20
19.2515
  0
VERTEX
  8
LAYER_1
 10
204.3743
 20
19.3945
  0
SEQEND
  0
ENDBLK
  0
BLOCK
  8
LAYER_1
  2
AIGNBL01030019
 70
64
 10
0
 20
0
 30
0
  3
AIGNBL01030019
  0
POLYLINE
  8
LAYER_1
 40
0.05
 41
0.05
 62
39
 66
1
 10
0
 20
0
 30
0
 70
1
  0
VERTEX
  8
LAYER_1
 10
205.445
 20
19.2284
  0
VERTEX
  8
LAYER_1
 10
205.4467
 20
19.2284
  0
VERTEX
  8
LAYER_1
 10
205.7923
 20
20.0835
  0
VERTEX
  8
LAYER_1
 10
205.9531
 20
20.0835
  0
VERTEX
  8
LAYER_1
 10
205.9531
 20
19.0503
  0
VERTEX
  8
LAYER_1
 10
205.8477
 20
19.0503
  0
VERTEX
  8
LAYER_1
 10
205.8477
 20
19.9478
  0
VERTEX
  8
LAYER_1
 10
205.845
 20
19.9478
  0
VERTEX
  8
LAYER_1
 10
205.4715
 20
19.0503
  0
VERTEX
  8
LAYER_1
 10
205.4161
 20
19.0503
  0
VERTEX
  8
LAYER_1
 10
205.0423
 20
19.9478
  0
VERTEX
  8
LAYER_1
 10
205.0395
 20
19.9478
  0
VERTEX
  8
LAYER_1
 10
205.0395
 20
19.0503
  0
VERTEX
  8
LAYER_1
 10
204.9345
 20
19.0503
  0
VERTEX
  8
LAYER_1
 10
204.9345
 20
20.0835
  0
VERTEX
  8
LAYER_1
 10
205.095
 20
20.0835
  0
SEQEND
  0
ENDBLK
  0
BLOCK
  8
LAYER_1
  2
AIGNBL0103001A
 70
64
 10
0
 20
0
 30
0
  3
AIGNBL0103001A
  0
POLYLINE
  8
LAYER_1
 40
0.05
 41
0.05
 62
39
 66
1
 10
0
 20
0
 30
0
 70
1
  0
VERTEX
  8
LAYER_1
 10
207.0997
 20
19.144
  0
VERTEX
  8
LAYER_1
 10
207.653
 20
19.144
  0
VERTEX
  8
LAYER_1
 10
207.653
 20
19.0503
  0
VERTEX
  8
LAYER_1
 10
206.9946
 20
19.0503
  0
VERTEX
  8
LAYER_1
 10
206.9946
 20
20.0835
  0
VERTEX
  8
LAYER_1
 10
207.6354
 20
20.0835
  0
VERTEX
  8
LAYER_1
 10
207.6354
 20
19.9901
  0
VERTEX
  8
LAYER_1
 10
207.0997
 20
19.9901
  0
VERTEX
  8
LAYER_1
 10
207.0997
 20
19.6356
  0
VERTEX
  8
LAYER_1
 10
207.6003
 20
19.6356
  0
VERTEX
  8
LAYER_1
 10
207.6003
 20
19.5423
  0
VERTEX
  8
LAYER_1
 10
207.0997
 20
19.5423
  0
SEQEND
  0
ENDBLK
  0
BLOCK
  8
LAYER_1
  2
AIGNBL0103001B
 70
64
 10
0
 20
0
 30
0
  3
AIGNBL0103001B
  0
POLYLINE
  8
LAYER_1
 40
0.05
 41
0.05
 62
39
 66
1
 10
0
 20
0
 30
0
 70
1
  0
VERTEX
  8
LAYER_1
 10
208.3981
 20
19.6663
  0
VERTEX
  8
LAYER_1
 10
208.6803
 20
20.0835
  0
VERTEX
  8
LAYER_1
 10
208.8054
 20
20.0835
  0
VERTEX
  8
LAYER_1
 10
208.4629
 20
19.5919
  0
VERTEX
  8
LAYER_1
 10
208.8422
 20
19.0503
  0
VERTEX
  8
LAYER_1
 10
208.7109
 20
19.0503
  0
VERTEX
  8
LAYER_1
 10
208.3954
 20
19.5161
  0
VERTEX
  8
LAYER_1
 10
208.0819
 20
19.0503
  0
VERTEX
  8
LAYER_1
 10
207.9503
 20
19.0503
  0
VERTEX
  8
LAYER_1
 10
208.3299
 20
19.5933
  0
VERTEX
  8
LAYER_1
 10
207.9841
 20
20.0835
  0
VERTEX
  8
LAYER_1
 10
208.1156
 20
20.0835
  0
SEQEND
  0
ENDBLK
  0
BLOCK
  8
LAYER_1
  2
AIGNBL0103001C
 70
64
 10
0
 20
0
 30
0
  3
AIGNBL0103001C
  0
POLYLINE
  8
LAYER_1
 40
0.05
 41
0.05
 62
39
 66
1
 10
0
 20
0
 30
0
 70
1
  0
VERTEX
  8
LAYER_1
 10
209.2084
 20
20.0835
  0
VERTEX
  8
LAYER_1
 10
209.5006
 20
20.0835
  0
VERTEX
  8
LAYER_1
 10
209.6436
 20
20.067
  0
VERTEX
  8
LAYER_1
 10
209.7534
 20
20.0156
  0
VERTEX
  8
LAYER_1
 10
209.8244
 20
19.9295
  0
VERTEX
  8
LAYER_1
 10
209.8489
 20
19.8079
  0
VERTEX
  8
LAYER_1
 10
209.8237
 20
19.6859
  0
VERTEX
  8
LAYER_1
 10
209.7521
 20
19.5998
  0
VERTEX
  8
LAYER_1
 10
209.6412
 20
19.5481
  0
VERTEX
  8
LAYER_1
 10
209.4975
 20
19.5306
  0
VERTEX
  8
LAYER_1
 10
209.3135
 20
19.5306
  0
VERTEX
  8
LAYER_1
 10
209.3135
 20
19.0503
  0
VERTEX
  8
LAYER_1
 10
209.2084
 20
19.0503
  0
SEQEND
  0
POLYLINE
  8
LAYER_1
 40
0.05
 41
0.05
 62
39
 66
1
 10
0
 20
0
 30
0
 70
1
  0
VERTEX
  8
LAYER_1
 10
209.3135
 20
19.6194
  0
VERTEX
  8
LAYER_1
 10
209.4913
 20
19.6194
 42
0.1834000512
  0
VERTEX
  8
LAYER_1
 10
209.6797
 20
19.6677
 42
0.2348377208
  0
VERTEX
  8
LAYER_1
 10
209.7441
 20
19.8079
 42
0.2652129765
  0
VERTEX
  8
LAYER_1
 10
209.6777
 20
19.9488
 42
0.1264027561
  0
VERTEX
  8
LAYER_1
 10
209.4913
 20
19.9932
  0
VERTEX
  8
LAYER_1
 10
209.3135
 20
19.9932
  0
SEQEND
  0
ENDBLK
  0
BLOCK
  8
LAYER_1
  2
AIGNBL0103001D
 70
64
 10
0
 20
0
 30
0
  3
AIGNBL0103001D
  0
POLYLINE
  8
LAYER_1
 40
0.05
 41
0.05
 62
39
 66
1
 10
0
 20
0
 30
0
 70
1
  0
VERTEX
  8
LAYER_1
 10
210.3612
 20
19.144
  0
VERTEX
  8
LAYER_1
 10
210.9144
 20
19.144
  0
VERTEX
  8
LAYER_1
 10
210.9144
 20
19.0503
  0
VERTEX
  8
LAYER_1
 10
210.2561
 20
19.0503
  0
VERTEX
  8
LAYER_1
 10
210.2561
 20
20.0835
  0
VERTEX
  8
LAYER_1
 10
210.8969
 20
20.0835
  0
VERTEX
  8
LAYER_1
 10
210.8969
 20
19.9901
  0
VERTEX
  8
LAYER_1
 10
210.3612
 20
19.9901
  0
VERTEX
  8
LAYER_1
 10
210.3612
 20
19.6356
  0
VERTEX
  8
LAYER_1
 10
210.8617
 20
19.6356
  0
VERTEX
  8
LAYER_1
 10
210.8617
 20
19.5423
  0
VERTEX
  8
LAYER_1
 10
210.3612
 20
19.5423
  0
SEQEND
  0
ENDBLK
  0
BLOCK
  8
LAYER_1
  2
AIGNBL0103001E
 70
64
 10
0
 20
0
 30
0
  3
AIGNBL0103001E
  0
POLYLINE
  8
LAYER_1
 40
0.05
 41
0.05
 62
39
 66
1
 10
0
 20
0
 30
0
 70
1
  0
VERTEX
  8
LAYER_1
 10
211.4264
 20
19.0503
  0
VERTEX
  8
LAYER_1
 10
211.3213
 20
19.0503
  0
VERTEX
  8
LAYER_1
 10
211.3213
 20
20.0835
  0
VERTEX
  8
LAYER_1
 10
211.6252
 20
20.0835
  0
VERTEX
  8
LAYER_1
 10
211.7657
 20
20.069
  0
VERTEX
  8
LAYER_1
 10
211.8784
 20
20.0215
  0
VERTEX
  8
LAYER_1
 10
211.9521
 20
19.9361
  0
VERTEX
  8
LAYER_1
 10
211.978
 20
19.8079
  0
VERTEX
  8
LAYER_1
 10
211.958
 20
19.7042
  0
VERTEX
  8
LAYER_1
 10
211.9025
 20
19.6232
  0
VERTEX
  8
LAYER_1
 10
211.8191
 20
19.5685
  0
VERTEX
  8
LAYER_1
 10
211.714
 20
19.5423
  0
VERTEX
  8
LAYER_1
 10
212.0162
 20
19.0503
  0
VERTEX
  8
LAYER_1
 10
211.8877
 20
19.0503
  0
VERTEX
  8
LAYER_1
 10
211.6018
 20
19.5333
  0
VERTEX
  8
LAYER_1
 10
211.4264
 20
19.5333
  0
SEQEND
  0
POLYLINE
  8
LAYER_1
 40
0.05
 41
0.05
 62
39
 66
1
 10
0
 20
0
 30
0
 70
1
  0
VERTEX
  8
LAYER_1
 10
211.4264
 20
19.6239
  0
VERTEX
  8
LAYER_1
 10
211.609
 20
19.6239
 42
0.1663801652
  0
VERTEX
  8
LAYER_1
 10
211.8047
 20
19.6697
 42
0.2500512188
  0
VERTEX
  8
LAYER_1
 10
211.8732
 20
19.8079
  0
VERTEX
  8
LAYER_1
 10
211.8543
 20
19.8937
  0
VERTEX
  8
LAYER_1
 10
211.8016
 20
19.9509
  0
VERTEX
  8
LAYER_1
 10
211.7199
 20
19.9829
  0
VERTEX
  8
LAYER_1
 10
211.6135
 20
19.9932
  0
VERTEX
  8
LAYER_1
 10
211.4264
 20
19.9932
  0
SEQEND
  0
ENDBLK
  0
BLOCK
  8
LAYER_1
  2
AIGNBL0103001F
 70
64
 10
0
 20
0
 30
0
  3
AIGNBL0103001F
  0
POLYLINE
  8
LAYER_1
 40
0.05
 41
0.05
 62
39
 66
1
 10
0
 20
0
 30
0
 70
1
  0
VERTEX
  8
LAYER_1
 10
212.5019
 20
19.0503
  0
VERTEX
  8
LAYER_1
 10
212.3972
 20
19.0503
  0
VERTEX
  8
LAYER_1
 10
212.3972
 20
20.0835
  0
VERTEX
  8
LAYER_1
 10
212.5019
 20
20.0835
  0
SEQEND
  0
ENDBLK
  0
BLOCK
  8
LAYER_1
  2
AIGNBL01030020
 70
64
 10
0
 20
0
 30
0
  3
AIGNBL01030020
  0
POLYLINE
  8
LAYER_1
 40
0.05
 41
0.05
 62
39
 66
1
 10
0
 20
0
 30
0
 70
1
  0
VERTEX
  8
LAYER_1
 10
213.0828
 20
19.144
  0
VERTEX
  8
LAYER_1
 10
213.6357
 20
19.144
  0
VERTEX
  8
LAYER_1
 10
213.6357
 20
19.0503
  0
VERTEX
  8
LAYER_1
 10
212.9777
 20
19.0503
  0
VERTEX
  8
LAYER_1
 10
212.9777
 20
20.0835
  0
VERTEX
  8
LAYER_1
 10
213.6185
 20
20.0835
  0
VERTEX
  8
LAYER_1
 10
213.6185
 20
19.9901
  0
VERTEX
  8
LAYER_1
 10
213.0828
 20
19.9901
  0
VERTEX
  8
LAYER_1
 10
213.0828
 20
19.6356
  0
VERTEX
  8
LAYER_1
 10
213.5834
 20
19.6356
  0
VERTEX
  8
LAYER_1
 10
213.5834
 20
19.5423
  0
VERTEX
  8
LAYER_1
 10
213.0828
 20
19.5423
  0
SEQEND
  0
ENDBLK
  0
BLOCK
  8
LAYER_1
  2
AIGNBL01030021
 70
64
 10
0
 20
0
 30
0
  3
AIGNBL01030021
  0
POLYLINE
  8
LAYER_1
 40
0.05
 41
0.05
 62
39
 66
1
 10
0
 20
0
 30
0
 70
1
  0
VERTEX
  8
LAYER_1
 10
214.7757
 20
19.2036
  0
VERTEX
  8
LAYER_1
 10
214.7785
 20
19.2036
  0
VERTEX
  8
LAYER_1
 10
214.7785
 20
20.0835
  0
VERTEX
  8
LAYER_1
 10
214.8835
 20
20.0835
  0
VERTEX
  8
LAYER_1
 10
214.8835
 20
19.0503
  0
VERTEX
  8
LAYER_1
 10
214.7523
 20
19.0503
  0
VERTEX
  8
LAYER_1
 10
214.1511
 20
19.9392
  0
VERTEX
  8
LAYER_1
 10
214.148
 20
19.9392
  0
VERTEX
  8
LAYER_1
 10
214.148
 20
19.0503
  0
VERTEX
  8
LAYER_1
 10
214.0429
 20
19.0503
  0
VERTEX
  8
LAYER_1
 10
214.0429
 20
20.0835
  0
VERTEX
  8
LAYER_1
 10
214.1745
 20
20.0835
  0
SEQEND
  0
ENDBLK
  0
BLOCK
  8
LAYER_1
  2
AIGNBL01030022
 70
64
 10
0
 20
0
 30
0
  3
AIGNBL01030022
  0
POLYLINE
  8
LAYER_1
 40
0.05
 41
0.05
 62
39
 66
1
 10
0
 20
0
 30
0
 70
1
  0
VERTEX
  8
LAYER_1
 10
216.2292
 20
19.2181
  0
VERTEX
  8
LAYER_1
 10
216.1655
 20
19.1437
  0
VERTEX
  8
LAYER_1
 10
216.0793
 20
19.082
  0
VERTEX
  8
LAYER_1
 10
215.9712
 20
19.0396
  0
VERTEX
  8
LAYER_1
 10
215.8423
 20
19.0241
 42
-0.1009408553
  0
VERTEX
  8
LAYER_1
 10
215.6263
 20
19.0651
 42
-0.1036436467
  0
VERTEX
  8
LAYER_1
 10
215.4558
 20
19.1781
 42
-0.09785904176
  0
VERTEX
  8
LAYER_1
 10
215.3442
 20
19.3497
 42
-0.09255646678
  0
VERTEX
  8
LAYER_1
 10
215.3038
 20
19.5671
 42
-0.1033443381
  0
VERTEX
  8
LAYER_1
 10
215.3448
 20
19.7845
 42
-0.1004334688
  0
VERTEX
  8
LAYER_1
 10
215.4575
 20
19.956
 42
-0.09536265516
  0
VERTEX
  8
LAYER_1
 10
215.6284
 20
20.069
 42
-0.09517167486
  0
VERTEX
  8
LAYER_1
 10
215.8423
 20
20.11
  0
VERTEX
  8
LAYER_1
 10
215.9539
 20
20.098
  0
VERTEX
  8
LAYER_1
 10
216.0569
 20
20.0645
  0
VERTEX
  8
LAYER_1
 10
216.1444
 20
20.0129
  0
VERTEX
  8
LAYER_1
 10
216.2102
 20
19.945
  0
VERTEX
  8
LAYER_1
 10
216.1227
 20
19.8806
  0
VERTEX
  8
LAYER_1
 10
216.0793
 20
19.9306
  0
VERTEX
  8
LAYER_1
 10
216.016
 20
19.9743
  0
VERTEX
  8
LAYER_1
 10
215.9364
 20
20.005
  0
VERTEX
  8
LAYER_1
 10
215.8437
 20
20.0167
  0
VERTEX
  8
LAYER_1
 10
215.6635
 20
19.9802
  0
VERTEX
  8
LAYER_1
 10
215.5284
 20
19.882
  0
VERTEX
  8
LAYER_1
 10
215.4437
 20
19.7386
  0
VERTEX
  8
LAYER_1
 10
215.4148
 20
19.5671
  0
VERTEX
  8
LAYER_1
 10
215.4447
 20
19.3955
  0
VERTEX
  8
LAYER_1
 10
215.5302
 20
19.2522
  0
VERTEX
  8
LAYER_1
 10
215.6652
 20
19.154
 42
0.100995487
  0
VERTEX
  8
LAYER_1
 10
215.8437
 20
19.1175
  0
VERTEX
  8
LAYER_1
 10
216.0128
 20
19.154
 42
0.1320535509
  0
VERTEX
  8
LAYER_1
 10
216.1472
 20
19.2708
  0
SEQEND
  0
ENDBLK
  0
BLOCK
  8
LAYER_1
  2
AIGNBL01030023
 70
64
 10
0
 20
0
 30
0
  3
AIGNBL01030023
  0
POLYLINE
  8
LAYER_1
 40
0.05
 41
0.05
 62
39
 66
1
 10
0
 20
0
 30
0
 70
1
  0
VERTEX
  8
LAYER_1
 10
216.7163
 20
19.144
  0
VERTEX
  8
LAYER_1
 10
217.2696
 20
19.144
  0
VERTEX
  8
LAYER_1
 10
217.2696
 20
19.0503
  0
VERTEX
  8
LAYER_1
 10
216.6113
 20
19.0503
  0
VERTEX
  8
LAYER_1
 10
216.6113
 20
20.0835
  0
VERTEX
  8
LAYER_1
 10
217.2521
 20
20.0835
  0
VERTEX
  8
LAYER_1
 10
217.2521
 20
19.9901
  0
VERTEX
  8
LAYER_1
 10
216.7163
 20
19.9901
  0
VERTEX
  8
LAYER_1
 10
216.7163
 20
19.6356
  0
VERTEX
  8
LAYER_1
 10
217.2169
 20
19.6356
  0
VERTEX
  8
LAYER_1
 10
217.2169
 20
19.5423
  0
VERTEX
  8
LAYER_1
 10
216.7163
 20
19.5423
  0
SEQEND
  0
ENDBLK
  0
BLOCK
  8
LAYER_1
  2
AIGNBL01020003
 70
64
 10
0
 20
0
 30
0
  3
AIGNBL01020003
  0
INSERT
  8
LAYER_1
  2
AIGNBL01030004
 10
0
 20
0
 30
0
  0
ENDBLK
  0
BLOCK
  8
LAYER_1
  2
AIGNBL0102000C
 70
64
 10
0
 20
0
 30
0
  3
AIGNBL0102000C
  0
INSERT
  8
LAYER_1
  2
AIGNBL0103000D
 10
0
 20
0
 30
0
  0
INSERT
  8
LAYER_1
  2
AIGNBL0103000E
 10
0
 20
0
 30
0
  0
INSERT
  8
LAYER_1
  2
AIGNBL0103000F
 10
0
 20
0
 30
0
  0
INSERT
  8
LAYER_1
  2
AIGNBL01030010
 10
0
 20
0
 30
0
  0
INSERT
  8
LAYER_1
  2
AIGNBL01030011
 10
0
 20
0
 30
0
  0
INSERT
  8
LAYER_1
  2
AIGNBL01030012
 10
0
 20
0
 30
0
  0
INSERT
  8
LAYER_1
  2
AIGNBL01030013
 10
0
 20
0
 30
0
  0
INSERT
  8
LAYER_1
  2
AIGNBL01030014
 10
0
 20
0
 30
0
  0
INSERT
  8
LAYER_1
  2
AIGNBL01030015
 10
0
 20
0
 30
0
  0
INSERT
  8
LAYER_1
  2
AIGNBL01030016
 10
0
 20
0
 30
0
  0
INSERT
  8
LAYER_1
  2
AIGNBL01030017
 10
0
 20
0
 30
0
  0
INSERT
  8
LAYER_1
  2
AIGNBL01030018
 10
0
 20
0
 30
0
  0
INSERT
  8
LAYER_1
  2
AIGNBL01030019
 10
0
 20
0
 30
0
  0
INSERT
  8
LAYER_1
  2
AIGNBL0103001A
 10
0
 20
0
 30
0
  0
INSERT
  8
LAYER_1
  2
AIGNBL0103001B
 10
0
 20
0
 30
0
  0
INSERT
  8
LAYER_1
  2
AIGNBL0103001C
 10
0
 20
0
 30
0
  0
INSERT
  8
LAYER_1
  2
AIGNBL0103001D
 10
0
 20
0
 30
0
  0
INSERT
  8
LAYER_1
  2
AIGNBL0103001E
 10
0
 20
0
 30
0
  0
INSERT
  8
LAYER_1
  2
AIGNBL0103001F
 10
0
 20
0
 30
0
  0
INSERT
  8
LAYER_1
  2
AIGNBL01030020
 10
0
 20
0
 30
0
  0
INSERT
  8
LAYER_1
  2
AIGNBL01030021
 10
0
 20
0
 30
0
  0
INSERT
  8
LAYER_1
  2
AIGNBL01030022
 10
0
 20
0
 30
0
  0
INSERT
  8
LAYER_1
  2
AIGNBL01030023
 10
0
 20
0
 30
0
  0
ENDBLK
  0
BLOCK
  8
LAYER_1
  2
AIGNBL01010002
 70
64
 10
0
 20
0
 30
0
  3
AIGNBL01010002
  0
INSERT
  8
LAYER_1
  2
AIGNBL01020003
 10
0
 20
0
 30
0
  0
INSERT
  8
LAYER_1
  2
AIGNBL0102000C
 10
0
 20
0
 30
0
  0
ENDBLK
  0
ENDSEC
  0
SECTION
  2
ENTITIES
  0
TEXT
  8
LAYER_1
 10
50.3109
 20
21.6111
 11
50.3109
 21
21.6111
 40
4.5833
 41
0.5
  1
âëâvâ\âfâBùpörÉàû┌ÄMüi100mmüFôVö┬î·üF10045mmæ╬ë×üj
  0
TEXT
  8
LAYER_1
 10
220.3351
 20
22.6225
 11
220.3351
 21
22.6225
 40
3.3848
 41
0.5
 62
39
  1
ü£TEL 0120-65-1232ü£FAX 06-6532-1580
  0
TEXT
  8
LAYER_1
 10
220.3351
 20
19.1079
 11
220.3351
 21
19.1079
 40
3.3848
 41
0.5
 62
39
  1
hits@hiratatile.co.jp
  0
INSERT
  8
LAYER_1
  2
AIGNBL01010002
 10
0
 20
0
 30
0
  0
TEXT
  8
LAYER_1
 10
50.3859
 20
14.8364
 11
50.3859
 21
14.8364
 40
4.6883
 41
0.5
 62
39
  1
SCR-649-271-100
  0
POLYLINE
  8
LAYER_1
 40
0.254
 41
0.254
 66
1
 10
0
 20
0
 30
0
  0
VERTEX
  8
LAYER_1
 10
3.1173
 20
32.9369
  0
VERTEX
  8
LAYER_1
 10
287.6826
 20
32.9369
  0
SEQEND
  0
POLYLINE
  8
LAYER_1
 40
0.1693
 41
0.1693
 66
1
 10
0
 20
0
 30
0
  0
VERTEX
  8
LAYER_1
 10
105.2783
 20
266.1432
  0
VERTEX
  8
LAYER_1
 10
135.7583
 20
266.1432
  0
SEQEND
  0
POLYLINE
  8
LAYER_1
 40
0.1693
 41
0.1693
 66
1
 10
0
 20
0
 30
0
  0
VERTEX
  8
LAYER_1
 10
229.5054
 20
142.8897
 42
0.4141457479
  0
VERTEX
  8
LAYER_1
 10
204.6557
 20
167.7182
 42
0.4143211585
  0
VERTEX
  8
LAYER_1
 10
179.8272
 20
142.8897
 42
0.4141455838
  0
VERTEX
  8
LAYER_1
 10
204.6557
 20
118.04
 42
0.4139704504
  0
VERTEX
  8
LAYER_1
 10
229.5054
 20
142.8897
  0
SEQEND
  0
POLYLINE
  8
LAYER_1
 40
0.1693
 41
0.1693
 66
1
 10
0
 20
0
 30
0
  0
VERTEX
  8
LAYER_1
 10
231.0506
 20
142.8897
 42
0.4139590293
  0
VERTEX
  8
LAYER_1
 10
204.6557
 20
169.2633
 42
0.4141240845
  0
VERTEX
  8
LAYER_1
 10
178.2821
 20
142.8897
 42
0.4139589171
  0
VERTEX
  8
LAYER_1
 10
204.6557
 20
116.4948
 42
0.413794107
  0
VERTEX
  8
LAYER_1
 10
231.0506
 20
142.8897
  0
SEQEND
  0
TEXT
  8
LAYER_1
 10
173.3081
 20
113.2566
 11
173.3081
 21
113.2566
 40
2.5779
 41
0.5
  1
ìò
  0
POLYLINE
  8
LAYER_1
 40
0.0847
 41
0.0847
 66
1
 10
0
 20
0
 30
0
  0
VERTEX
  8
LAYER_1
 10
187.8071
 20
123.3105
  0
VERTEX
  8
LAYER_1
 10
177.1391
 20
114.6322
  0
SEQEND
  0
TEXT
  8
LAYER_1
 10
199.1949
 20
104.9591
 11
199.1949
 21
104.9591
 40
2.0536
 41
0.5
  1
äOâèâôâOü@ìò
  0
POLYLINE
  8
LAYER_1
 40
0.1693
 41
0.1693
 66
1
 10
0
 20
0
 30
0
  0
VERTEX
  8
LAYER_1
 10
192.9294
 20
103.943
  0
VERTEX
  8
LAYER_1
 10
192.9294
 20
107.4355
  0
SEQEND
  0
POLYLINE
  8
LAYER_1
 40
0.1693
 41
0.1693
 66
1
 10
0
 20
0
 30
0
  0
VERTEX
  8
LAYER_1
 10
192.9294
 20
103.943
  0
VERTEX
  8
LAYER_1
 10
216.4244
 20
103.943
  0
VERTEX
  8
LAYER_1
 10
216.4244
 20
107.4355
  0
SEQEND
  0
POLYLINE
  8
LAYER_1
 40
0.1693
 41
0.1693
 66
1
 10
0
 20
0
 30
0
  0
VERTEX
  8
LAYER_1
 10
192.9294
 20
107.4355
  0
VERTEX
  8
LAYER_1
 10
216.4244
 20
107.4355
  0
SEQEND
  0
TEXT
  8
LAYER_1
 10
217.4191
 20
104.8795
 11
217.4191
 21
104.8795
 40
2.4232
 41
0.5
  1
S=1/2
  0
TEXT
  8
LAYER_1
 10
102.0185
 20
104.9591
 11
102.0185
 21
104.9591
 40
2.0536
 41
0.5
  1
âoâbâNâvâîü[âg
  0
POLYLINE
  8
LAYER_1
 40
0.1693
 41
0.1693
 66
1
 10
0
 20
0
 30
0
  0
VERTEX
  8
LAYER_1
 10
94.2716
 20
103.943
  0
VERTEX
  8
LAYER_1
 10
94.2716
 20
107.4355
  0
SEQEND
  0
POLYLINE
  8
LAYER_1
 40
0.1693
 41
0.1693
 66
1
 10
0
 20
0
 30
0
  0
VERTEX
  8
LAYER_1
 10
94.2716
 20
103.943
  0
VERTEX
  8
LAYER_1
 10
122.7619
 20
103.943
  0
VERTEX
  8
LAYER_1
 10
122.7619
 20
107.4355
  0
SEQEND
  0
POLYLINE
  8
LAYER_1
 40
0.1693
 41
0.1693
 66
1
 10
0
 20
0
 30
0
  0
VERTEX
  8
LAYER_1
 10
94.2716
 20
107.4355
  0
VERTEX
  8
LAYER_1
 10
122.7619
 20
107.4355
  0
SEQEND
  0
TEXT
  8
LAYER_1
 10
123.7567
 20
104.8795
 11
123.7567
 21
104.8795
 40
2.4232
 41
0.5
  1
S=1/2
  0
POLYLINE
  8
LAYER_1
 40
0.0847
 41
0.0847
 66
1
 10
0
 20
0
 30
0
  0
VERTEX
  8
LAYER_1
 10
179.8484
 20
178.6825
  0
VERTEX
  8
LAYER_1
 10
229.5266
 20
178.6825
  0
SEQEND
  0
POLYLINE
  8
LAYER_1
 40
0.1693
 41
0.1693
 66
1
 10
0
 20
0
 30
0
  0
VERTEX
  8
LAYER_1
 10
229.5266
 20
178.6825
  0
VERTEX
  8
LAYER_1
 10
226.6268
 20
177.8993
  0
SEQEND
  0
POLYLINE
  8
LAYER_1
 40
0.1693
 41
0.1693
 66
1
 10
0
 20
0
 30
0
  0
VERTEX
  8
LAYER_1
 10
229.5266
 20
178.6825
  0
VERTEX
  8
LAYER_1
 10
226.6268
 20
179.4657
  0
SEQEND
  0
POLYLINE
  8
LAYER_1
 40
0.1693
 41
0.1693
 66
1
 10
0
 20
0
 30
0
  0
VERTEX
  8
LAYER_1
 10
179.8484
 20
178.6825
  0
VERTEX
  8
LAYER_1
 10
182.7482
 20
179.4657
  0
SEQEND
  0
POLYLINE
  8
LAYER_1
 40
0.1693
 41
0.1693
 66
1
 10
0
 20
0
 30
0
  0
VERTEX
  8
LAYER_1
 10
179.8484
 20
178.6825
  0
VERTEX
  8
LAYER_1
 10
182.7482
 20
177.8993
  0
SEQEND
  0
POLYLINE
  8
LAYER_1
 40
0.0847
 41
0.0847
 66
1
 10
0
 20
0
 30
0
  0
VERTEX
  8
LAYER_1
 10
229.5266
 20
152.9438
  0
VERTEX
  8
LAYER_1
 10
229.5266
 20
178.6825
  0
SEQEND
  0
POLYLINE
  8
LAYER_1
 40
0.0847
 41
0.0847
 66
1
 10
0
 20
0
 30
0
  0
VERTEX
  8
LAYER_1
 10
179.8484
 20
152.9438
  0
VERTEX
  8
LAYER_1
 10
179.8484
 20
178.6825
  0
SEQEND
  0
TEXT
  8
LAYER_1
 10
200.9305
 20
179.5506
 11
200.9305
 21
179.5506
 40
3.0419
 41
0.5
  1
%%c99.4
  0
POLYLINE
  8
LAYER_1
 40
0.0847
 41
0.0847
 66
1
 10
0
 20
0
 30
0
  0
VERTEX
  8
LAYER_1
 10
120.5183
 20
217.227
  0
VERTEX
  8
LAYER_1
 10
120.5183
 20
230.9007
  0
SEQEND
  0
POLYLINE
  8
LAYER_1
 40
0.0847
 41
0.0847
 66
1
 10
0
 20
0
 30
0
  0
VERTEX
  8
LAYER_1
 10
125.1326
 20
218.1583
  0
VERTEX
  8
LAYER_1
 10
130.8899
 20
218.3488
  0
SEQEND
  0
POLYLINE
  8
LAYER_1
 40
0.0847
 41
0.0847
 66
1
 10
0
 20
0
 30
0
  0
VERTEX
  8
LAYER_1
 10
110.1466
 20
227.6622
  0
VERTEX
  8
LAYER_1
 10
117.4914
 20
227.9162
  0
SEQEND
  0
POLYLINE
  8
LAYER_1
 40
0.1693
 41
0.1693
 66
1
 10
0
 20
0
 30
0
  0
VERTEX
  8
LAYER_1
 10
105.5111
 20
232.4035
  0
VERTEX
  8
LAYER_1
 10
135.5043
 20
232.4035
  0
SEQEND
  0
POLYLINE
  8
LAYER_1
 40
0.0847
 41
0.0847
 66
1
 10
0
 20
0
 30
0
  0
VERTEX
  8
LAYER_1
 10
110.1466
 20
218.8992
  0
VERTEX
  8
LAYER_1
 10
130.8899
 20
219.5977
  0
SEQEND
  0
POLYLINE
  8
LAYER_1
 40
0.0847
 41
0.0847
 66
1
 10
0
 20
0
 30
0
  0
VERTEX
  8
LAYER_1
 10
110.1466
 20
220.148
  0
VERTEX
  8
LAYER_1
 10
130.8899
 20
220.8465
  0
SEQEND
  0
POLYLINE
  8
LAYER_1
 40
0.0847
 41
0.0847
 66
1
 10
0
 20
0
 30
0
  0
VERTEX
  8
LAYER_1
 10
110.1466
 20
221.418
  0
VERTEX
  8
LAYER_1
 10
130.8899
 20
222.0953
  0
SEQEND
  0
POLYLINE
  8
LAYER_1
 40
0.0847
 41
0.0847
 66
1
 10
0
 20
0
 30
0
  0
VERTEX
  8
LAYER_1
 10
110.1466
 20
222.6668
  0
VERTEX
  8
LAYER_1
 10
130.8899
 20
223.3442
  0
SEQEND
  0
POLYLINE
  8
LAYER_1
 40
0.0847
 41
0.0847
 66
1
 10
0
 20
0
 30
0
  0
VERTEX
  8
LAYER_1
 10
110.1466
 20
223.9157
  0
VERTEX
  8
LAYER_1
 10
130.8899
 20
224.6142
  0
SEQEND
  0
POLYLINE
  8
LAYER_1
 40
0.0847
 41
0.0847
 66
1
 10
0
 20
0
 30
0
  0
VERTEX
  8
LAYER_1
 10
110.1466
 20
225.1645
  0
VERTEX
  8
LAYER_1
 10
130.8899
 20
225.863
  0
SEQEND
  0
POLYLINE
  8
LAYER_1
 40
0.0847
 41
0.0847
 66
1
 10
0
 20
0
 30
0
  0
VERTEX
  8
LAYER_1
 10
110.1466
 20
226.4133
  0
VERTEX
  8
LAYER_1
 10
130.8899
 20
227.1118
  0
SEQEND
  0
POLYLINE
  8
LAYER_1
 40
0.0847
 41
0.0847
 66
1
 10
0
 20
0
 30
0
  0
VERTEX
  8
LAYER_1
 10
110.1466
 20
236.404
  0
VERTEX
  8
LAYER_1
 10
130.8899
 20
237.1025
  0
SEQEND
  0
POLYLINE
  8
LAYER_1
 40
0.0847
 41
0.0847
 66
1
 10
0
 20
0
 30
0
  0
VERTEX
  8
LAYER_1
 10
110.1466
 20
237.6529
  0
VERTEX
  8
LAYER_1
 10
130.8899
 20
238.3514
  0
SEQEND
  0
POLYLINE
  8
LAYER_1
 40
0.0847
 41
0.0847
 66
1
 10
0
 20
0
 30
0
  0
VERTEX
  8
LAYER_1
 10
110.1466
 20
238.9229
  0
VERTEX
  8
LAYER_1
 10
130.8899
 20
239.6002
  0
SEQEND
  0
POLYLINE
  8
LAYER_1
 40
0.0847
 41
0.0847
 66
1
 10
0
 20
0
 30
0
  0
VERTEX
  8
LAYER_1
 10
110.1466
 20
240.1717
  0
VERTEX
  8
LAYER_1
 10
130.8899
 20
240.849
  0
SEQEND
  0
POLYLINE
  8
LAYER_1
 40
0.0847
 41
0.0847
 66
1
 10
0
 20
0
 30
0
  0
VERTEX
  8
LAYER_1
 10
110.1466
 20
241.4205
  0
VERTEX
  8
LAYER_1
 10
130.8899
 20
242.119
  0
SEQEND
  0
POLYLINE
  8
LAYER_1
 40
0.0847
 41
0.0847
 66
1
 10
0
 20
0
 30
0
  0
VERTEX
  8
LAYER_1
 10
110.1466
 20
242.6694
  0
VERTEX
  8
LAYER_1
 10
130.8899
 20
243.3679
  0
SEQEND
  0
POLYLINE
  8
LAYER_1
 40
0.0847
 41
0.0847
 66
1
 10
0
 20
0
 30
0
  0
VERTEX
  8
LAYER_1
 10
110.1466
 20
243.9182
  0
VERTEX
  8
LAYER_1
 10
130.8899
 20
244.6167
  0
SEQEND
  0
POLYLINE
  8
LAYER_1
 40
0.0847
 41
0.0847
 66
1
 10
0
 20
0
 30
0
  0
VERTEX
  8
LAYER_1
 10
110.1466
 20
245.167
  0
VERTEX
  8
LAYER_1
 10
130.8899
 20
245.8655
  0
SEQEND
  0
POLYLINE
  8
LAYER_1
 40
0.0847
 41
0.0847
 66
1
 10
0
 20
0
 30
0
  0
VERTEX
  8
LAYER_1
 10
110.1466
 20
246.4158
  0
VERTEX
  8
LAYER_1
 10
130.8899
 20
247.1143
  0
SEQEND
  0
POLYLINE
  8
LAYER_1
 40
0.0847
 41
0.0847
 66
1
 10
0
 20
0
 30
0
  0
VERTEX
  8
LAYER_1
 10
110.1466
 20
247.6647
  0
VERTEX
  8
LAYER_1
 10
130.8899
 20
248.3632
  0
SEQEND
  0
POLYLINE
  8
LAYER_1
 40
0.0847
 41
0.0847
 66
1
 10
0
 20
0
 30
0
  0
VERTEX
  8
LAYER_1
 10
110.1466
 20
248.9135
  0
VERTEX
  8
LAYER_1
 10
130.8899
 20
249.612
  0
SEQEND
  0
POLYLINE
  8
LAYER_1
 40
0.0847
 41
0.0847
 66
1
 10
0
 20
0
 30
0
  0
VERTEX
  8
LAYER_1
 10
110.1466
 20
250.1623
  0
VERTEX
  8
LAYER_1
 10
130.8899
 20
250.8608
  0
SEQEND
  0
POLYLINE
  8
LAYER_1
 40
0.0847
 41
0.0847
 66
1
 10
0
 20
0
 30
0
  0
VERTEX
  8
LAYER_1
 10
110.1466
 20
251.4111
  0
VERTEX
  8
LAYER_1
 10
130.8899
 20
252.1096
  0
SEQEND
  0
POLYLINE
  8
LAYER_1
 40
0.0847
 41
0.0847
 66
1
 10
0
 20
0
 30
0
  0
VERTEX
  8
LAYER_1
 10
110.1466
 20
253.9088
  0
VERTEX
  8
LAYER_1
 10
123.3969
 20
254.3956
  0
SEQEND
  0
POLYLINE
  8
LAYER_1
 40
0.0847
 41
0.0847
 66
1
 10
0
 20
0
 30
0
  0
VERTEX
  8
LAYER_1
 10
110.1466
 20
252.66
  0
VERTEX
  8
LAYER_1
 10
130.8899
 20
253.3585
  0
SEQEND
  0
POLYLINE
  8
LAYER_1
 40
0.0847
 41
0.0847
 66
1
 10
0
 20
0
 30
0
  0
VERTEX
  8
LAYER_1
 10
110.1466
 20
235.1552
  0
VERTEX
  8
LAYER_1
 10
130.8899
 20
235.8537
  0
SEQEND
  0
POLYLINE
  8
LAYER_1
 40
0.1693
 41
0.1693
 66
1
 10
0
 20
0
 30
0
  0
VERTEX
  8
LAYER_1
 10
112.2633
 20
268.1328
  0
VERTEX
  8
LAYER_1
 10
128.7521
 20
268.1328
  0
SEQEND
  0
POLYLINE
  8
LAYER_1
 40
0.1693
 41
0.1693
 66
1
 10
0
 20
0
 30
0
  0
VERTEX
  8
LAYER_1
 10
110.5064
 20
218.1583
  0
VERTEX
  8
LAYER_1
 10
130.6359
 20
218.1583
  0
SEQEND
  0
POLYLINE
  8
LAYER_1
 40
0.1693
 41
0.1693
 66
1
 10
0
 20
0
 30
0
  0
VERTEX
  8
LAYER_1
 10
110.5064
 20
217.6503
  0
VERTEX
  8
LAYER_1
 10
110.5064
 20
218.1583
  0
SEQEND
  0
POLYLINE
  8
LAYER_1
 40
0.0847
 41
0.0847
 66
1
 10
0
 20
0
 30
0
  0
VERTEX
  8
LAYER_1
 10
90.4616
 20
218.1583
  0
VERTEX
  8
LAYER_1
 10
105.1513
 20
218.1583
  0
SEQEND
  0
POLYLINE
  8
LAYER_1
 40
0.1693
 41
0.1693
 66
1
 10
0
 20
0
 30
0
  0
VERTEX
  8
LAYER_1
 10
130.8899
 20
218.3488
  0
VERTEX
  8
LAYER_1
 10
130.6359
 20
218.1583
  0
SEQEND
  0
POLYLINE
  8
LAYER_1
 40
0.1693
 41
0.1693
 66
1
 10
0
 20
0
 30
0
  0
VERTEX
  8
LAYER_1
 10
130.5089
 20
217.6503
  0
VERTEX
  8
LAYER_1
 10
130.5089
 20
218.1583
  0
SEQEND
  0
POLYLINE
  8
LAYER_1
 40
0.1693
 41
0.1693
 66
1
 10
0
 20
0
 30
0
  0
VERTEX
  8
LAYER_1
 10
110.5064
 20
217.6503
  0
VERTEX
  8
LAYER_1
 10
130.5089
 20
217.6503
  0
SEQEND
  0
POLYLINE
  8
LAYER_1
 40
0.1693
 41
0.1693
 66
1
 10
0
 20
0
 30
0
  0
VERTEX
  8
LAYER_1
 10
110.8874
 20
218.3065
  0
VERTEX
  8
LAYER_1
 10
110.7181
 20
218.1583
  0
SEQEND
  0
POLYLINE
  8
LAYER_1
 40
0.1693
 41
0.1693
 66
1
 10
0
 20
0
 30
0
  0
VERTEX
  8
LAYER_1
 10
130.1279
 20
235.261
  0
VERTEX
  8
LAYER_1
 10
130.2549
 20
235.1552
  0
SEQEND
  0
POLYLINE
  8
LAYER_1
 40
0.1693
 41
0.1693
 66
1
 10
0
 20
0
 30
0
  0
VERTEX
  8
LAYER_1
 10
130.1279
 20
235.261
  0
VERTEX
  8
LAYER_1
 10
127.2069
 20
235.1552
  0
SEQEND
  0
POLYLINE
  8
LAYER_1
 40
0.1693
 41
0.1693
 66
1
 10
0
 20
0
 30
0
  0
VERTEX
  8
LAYER_1
 10
110.1466
 20
235.1552
  0
SEQEND
  0
POLYLINE
  8
LAYER_1
 40
0.1693
 41
0.1693
 66
1
 10
0
 20
0
 30
0
  0
VERTEX
  8
LAYER_1
 10
110.4218
 20
227.9162
  0
VERTEX
  8
LAYER_1
 10
110.1466
 20
227.6622
  0
SEQEND
  0
POLYLINE
  8
LAYER_1
 40
0.1693
 41
0.1693
 66
1
 10
0
 20
0
 30
0
  0
VERTEX
  8
LAYER_1
 10
130.3184
 20
227.9162
  0
VERTEX
  8
LAYER_1
 10
130.1279
 20
227.768
  0
SEQEND
  0
POLYLINE
  8
LAYER_1
 40
0.1693
 41
0.1693
 66
1
 10
0
 20
0
 30
0
  0
VERTEX
  8
LAYER_1
 10
106.6753
 20
235.1552
 42
0.1500105317
  0
VERTEX
  8
LAYER_1
 10
106.3578
 20
235.0493
  0
SEQEND
  0
POLYLINE
  8
LAYER_1
 40
0.1693
 41
0.1693
 66
1
 10
0
 20
0
 30
0
  0
VERTEX
  8
LAYER_1
 10
106.6964
 20
235.1552
  0
VERTEX
  8
LAYER_1
 10
134.3189
 20
235.1552
  0
SEQEND
  0
POLYLINE
  8
LAYER_1
 40
0.1693
 41
0.1693
 66
1
 10
0
 20
0
 30
0
  0
VERTEX
  8
LAYER_1
 10
105.1936
 20
234.0545
  0
VERTEX
  8
LAYER_1
 10
106.3789
 20
235.0282
  0
SEQEND
  0
POLYLINE
  8
LAYER_1
 40
0.1693
 41
0.1693
 66
1
 10
0
 20
0
 30
0
  0
VERTEX
  8
LAYER_1
 10
136.0123
 20
233.6947
 42
0.2122866956
  0
VERTEX
  8
LAYER_1
 10
135.8006
 20
234.0757
  0
SEQEND
  0
POLYLINE
  8
LAYER_1
 40
0.1693
 41
0.1693
 66
1
 10
0
 20
0
 30
0
  0
VERTEX
  8
LAYER_1
 10
135.8218
 20
234.0545
  0
VERTEX
  8
LAYER_1
 10
134.6364
 20
235.0282
  0
SEQEND
  0
POLYLINE
  8
LAYER_1
 40
0.1693
 41
0.1693
 66
1
 10
0
 20
0
 30
0
  0
VERTEX
  8
LAYER_1
 10
134.6153
 20
235.0493
 42
0.2046848639
  0
VERTEX
  8
LAYER_1
 10
134.3189
 20
235.1552
  0
VERTEX
  8
LAYER_1
 10
134.2978
 20
235.1552
  0
SEQEND
  0
POLYLINE
  8
LAYER_1
 40
0.1693
 41
0.1693
 66
1
 10
0
 20
0
 30
0
  0
VERTEX
  8
LAYER_1
 10
105.0243
 20
232.4035
  0
VERTEX
  8
LAYER_1
 10
136.0123
 20
232.4035
  0
VERTEX
  8
LAYER_1
 10
136.0123
 20
233.6735
  0
SEQEND
  0
POLYLINE
  8
LAYER_1
 40
0.1693
 41
0.1693
 66
1
 10
0
 20
0
 30
0
  0
VERTEX
  8
LAYER_1
 10
105.1724
 20
234.0757
 42
0.2048991815
  0
VERTEX
  8
LAYER_1
 10
105.0031
 20
233.6947
  0
SEQEND
  0
POLYLINE
  8
LAYER_1
 40
0.1693
 41
0.1693
 66
1
 10
0
 20
0
 30
0
  0
VERTEX
  8
LAYER_1
 10
105.0243
 20
232.4035
  0
VERTEX
  8
LAYER_1
 10
105.0243
 20
233.6735
  0
SEQEND
  0
POLYLINE
  8
LAYER_1
 40
0.1693
 41
0.1693
 66
1
 10
0
 20
0
 30
0
  0
VERTEX
  8
LAYER_1
 10
130.6148
 20
254.3957
  0
VERTEX
  8
LAYER_1
 10
130.1279
 20
254.0147
  0
SEQEND
  0
POLYLINE
  8
LAYER_1
 40
0.1693
 41
0.1693
 66
1
 10
0
 20
0
 30
0
  0
VERTEX
  8
LAYER_1
 10
110.6969
 20
254.3957
  0
VERTEX
  8
LAYER_1
 10
110.1466
 20
253.9088
  0
SEQEND
  0
POLYLINE
  8
LAYER_1
 40
0.1693
 41
0.1693
 66
1
 10
0
 20
0
 30
0
  0
VERTEX
  8
LAYER_1
 10
110.1466
 20
254.3957
  0
VERTEX
  8
LAYER_1
 10
130.8899
 20
254.3957
  0
SEQEND
  0
POLYLINE
  8
LAYER_1
 40
0.1693
 41
0.1693
 66
1
 10
0
 20
0
 30
0
  0
VERTEX
  8
LAYER_1
 10
130.1279
 20
252.7658
  0
VERTEX
  8
LAYER_1
 10
110.8874
 20
252.0673
  0
SEQEND
  0
POLYLINE
  8
LAYER_1
 40
0.1693
 41
0.1693
 66
1
 10
0
 20
0
 30
0
  0
VERTEX
  8
LAYER_1
 10
130.1279
 20
251.517
  0
VERTEX
  8
LAYER_1
 10
110.8874
 20
250.8185
  0
SEQEND
  0
POLYLINE
  8
LAYER_1
 40
0.1693
 41
0.1693
 66
1
 10
0
 20
0
 30
0
  0
VERTEX
  8
LAYER_1
 10
130.1279
 20
250.2682
  0
VERTEX
  8
LAYER_1
 10
110.8874
 20
249.5697
  0
SEQEND
  0
POLYLINE
  8
LAYER_1
 40
0.1693
 41
0.1693
 66
1
 10
0
 20
0
 30
0
  0
VERTEX
  8
LAYER_1
 10
130.1279
 20
249.0194
  0
VERTEX
  8
LAYER_1
 10
110.8874
 20
248.3209
  0
SEQEND
  0
POLYLINE
  8
LAYER_1
 40
0.1693
 41
0.1693
 66
1
 10
0
 20
0
 30
0
  0
VERTEX
  8
LAYER_1
 10
130.1279
 20
247.7705
  0
VERTEX
  8
LAYER_1
 10
110.8874
 20
247.072
  0
SEQEND
  0
POLYLINE
  8
LAYER_1
 40
0.1693
 41
0.1693
 66
1
 10
0
 20
0
 30
0
  0
VERTEX
  8
LAYER_1
 10
130.1279
 20
246.5217
  0
VERTEX
  8
LAYER_1
 10
110.8874
 20
245.8232
  0
SEQEND
  0
POLYLINE
  8
LAYER_1
 40
0.1693
 41
0.1693
 66
1
 10
0
 20
0
 30
0
  0
VERTEX
  8
LAYER_1
 10
130.1279
 20
245.2517
  0
VERTEX
  8
LAYER_1
 10
110.8874
 20
244.5744
  0
SEQEND
  0
POLYLINE
  8
LAYER_1
 40
0.1693
 41
0.1693
 66
1
 10
0
 20
0
 30
0
  0
VERTEX
  8
LAYER_1
 10
130.1279
 20
244.0029
  0
VERTEX
  8
LAYER_1
 10
110.8874
 20
243.3256
  0
SEQEND
  0
POLYLINE
  8
LAYER_1
 40
0.1693
 41
0.1693
 66
1
 10
0
 20
0
 30
0
  0
VERTEX
  8
LAYER_1
 10
130.1279
 20
242.7541
  0
VERTEX
  8
LAYER_1
 10
110.8874
 20
242.0556
  0
SEQEND
  0
POLYLINE
  8
LAYER_1
 40
0.1693
 41
0.1693
 66
1
 10
0
 20
0
 30
0
  0
VERTEX
  8
LAYER_1
 10
130.1279
 20
241.5052
  0
VERTEX
  8
LAYER_1
 10
110.8874
 20
240.8067
  0
SEQEND
  0
POLYLINE
  8
LAYER_1
 40
0.1693
 41
0.1693
 66
1
 10
0
 20
0
 30
0
  0
VERTEX
  8
LAYER_1
 10
130.1279
 20
240.2564
  0
VERTEX
  8
LAYER_1
 10
110.8874
 20
239.5579
  0
SEQEND
  0
POLYLINE
  8
LAYER_1
 40
0.1693
 41
0.1693
 66
1
 10
0
 20
0
 30
0
  0
VERTEX
  8
LAYER_1
 10
130.1279
 20
239.0075
  0
VERTEX
  8
LAYER_1
 10
110.8874
 20
238.309
  0
SEQEND
  0
POLYLINE
  8
LAYER_1
 40
0.1693
 41
0.1693
 66
1
 10
0
 20
0
 30
0
  0
VERTEX
  8
LAYER_1
 10
130.1279
 20
237.7587
  0
VERTEX
  8
LAYER_1
 10
110.8874
 20
237.0602
  0
SEQEND
  0
POLYLINE
  8
LAYER_1
 40
0.1693
 41
0.1693
 66
1
 10
0
 20
0
 30
0
  0
VERTEX
  8
LAYER_1
 10
130.1279
 20
236.5099
  0
VERTEX
  8
LAYER_1
 10
110.8874
 20
235.8114
  0
SEQEND
  0
POLYLINE
  8
LAYER_1
 40
0.1693
 41
0.1693
 66
1
 10
0
 20
0
 30
0
  0
VERTEX
  8
LAYER_1
 10
130.1279
 20
227.768
  0
VERTEX
  8
LAYER_1
 10
110.8874
 20
227.0695
  0
SEQEND
  0
POLYLINE
  8
LAYER_1
 40
0.1693
 41
0.1693
 66
1
 10
0
 20
0
 30
0
  0
VERTEX
  8
LAYER_1
 10
130.1279
 20
226.498
  0
VERTEX
  8
LAYER_1
 10
110.8874
 20
225.8207
  0
SEQEND
  0
POLYLINE
  8
LAYER_1
 40
0.1693
 41
0.1693
 66
1
 10
0
 20
0
 30
0
  0
VERTEX
  8
LAYER_1
 10
130.1279
 20
225.2492
  0
VERTEX
  8
LAYER_1
 10
110.8874
 20
224.5719
  0
SEQEND
  0
POLYLINE
  8
LAYER_1
 40
0.1693
 41
0.1693
 66
1
 10
0
 20
0
 30
0
  0
VERTEX
  8
LAYER_1
 10
130.1279
 20
224.0004
  0
VERTEX
  8
LAYER_1
 10
110.8874
 20
223.3019
  0
SEQEND
  0
POLYLINE
  8
LAYER_1
 40
0.1693
 41
0.1693
 66
1
 10
0
 20
0
 30
0
  0
VERTEX
  8
LAYER_1
 10
130.1279
 20
222.7515
  0
VERTEX
  8
LAYER_1
 10
110.8874
 20
222.053
  0
SEQEND
  0
POLYLINE
  8
LAYER_1
 40
0.1693
 41
0.1693
 66
1
 10
0
 20
0
 30
0
  0
VERTEX
  8
LAYER_1
 10
130.1279
 20
221.5027
  0
VERTEX
  8
LAYER_1
 10
110.8874
 20
220.8042
  0
SEQEND
  0
POLYLINE
  8
LAYER_1
 40
0.1693
 41
0.1693
 66
1
 10
0
 20
0
 30
0
  0
VERTEX
  8
LAYER_1
 10
130.1279
 20
220.2539
  0
VERTEX
  8
LAYER_1
 10
110.8874
 20
219.5554
  0
SEQEND
  0
POLYLINE
  8
LAYER_1
 40
0.1693
 41
0.1693
 66
1
 10
0
 20
0
 30
0
  0
VERTEX
  8
LAYER_1
 10
130.1279
 20
219.005
  0
VERTEX
  8
LAYER_1
 10
110.8874
 20
218.3065
  0
SEQEND
  0
POLYLINE
  8
LAYER_1
 40
0.1693
 41
0.1693
 66
1
 10
0
 20
0
 30
0
  0
VERTEX
  8
LAYER_1
 10
130.1279
 20
254.0147
  0
VERTEX
  8
LAYER_1
 10
110.8874
 20
253.3162
  0
SEQEND
  0
POLYLINE
  8
LAYER_1
 40
0.1693
 41
0.1693
 66
1
 10
0
 20
0
 30
0
  0
VERTEX
  8
LAYER_1
 10
130.1279
 20
219.005
  0
VERTEX
  8
LAYER_1
 10
130.8899
 20
218.3489
  0
SEQEND
  0
POLYLINE
  8
LAYER_1
 40
0.1693
 41
0.1693
 66
1
 10
0
 20
0
 30
0
  0
VERTEX
  8
LAYER_1
 10
130.8899
 20
219.5977
  0
VERTEX
  8
LAYER_1
 10
130.1279
 20
219.005
  0
SEQEND
  0
POLYLINE
  8
LAYER_1
 40
0.1693
 41
0.1693
 66
1
 10
0
 20
0
 30
0
  0
VERTEX
  8
LAYER_1
 10
130.1279
 20
220.2538
  0
VERTEX
  8
LAYER_1
 10
130.8899
 20
219.5977
  0
SEQEND
  0
POLYLINE
  8
LAYER_1
 40
0.1693
 41
0.1693
 66
1
 10
0
 20
0
 30
0
  0
VERTEX
  8
LAYER_1
 10
130.8899
 20
220.8465
  0
VERTEX
  8
LAYER_1
 10
130.1279
 20
220.2538
  0
SEQEND
  0
POLYLINE
  8
LAYER_1
 40
0.1693
 41
0.1693
 66
1
 10
0
 20
0
 30
0
  0
VERTEX
  8
LAYER_1
 10
130.1279
 20
221.5027
  0
VERTEX
  8
LAYER_1
 10
130.8899
 20
220.8465
  0
SEQEND
  0
POLYLINE
  8
LAYER_1
 40
0.1693
 41
0.1693
 66
1
 10
0
 20
0
 30
0
  0
VERTEX
  8
LAYER_1
 10
130.8899
 20
222.0953
  0
VERTEX
  8
LAYER_1
 10
130.1279
 20
221.5027
  0
SEQEND
  0
POLYLINE
  8
LAYER_1
 40
0.1693
 41
0.1693
 66
1
 10
0
 20
0
 30
0
  0
VERTEX
  8
LAYER_1
 10
130.1279
 20
222.7515
  0
VERTEX
  8
LAYER_1
 10
130.8899
 20
222.0953
  0
SEQEND
  0
POLYLINE
  8
LAYER_1
 40
0.1693
 41
0.1693
 66
1
 10
0
 20
0
 30
0
  0
VERTEX
  8
LAYER_1
 10
130.8899
 20
223.3442
  0
VERTEX
  8
LAYER_1
 10
130.1279
 20
222.7515
  0
SEQEND
  0
POLYLINE
  8
LAYER_1
 40
0.1693
 41
0.1693
 66
1
 10
0
 20
0
 30
0
  0
VERTEX
  8
LAYER_1
 10
130.1279
 20
224.0003
  0
VERTEX
  8
LAYER_1
 10
130.8899
 20
223.3442
  0
SEQEND
  0
POLYLINE
  8
LAYER_1
 40
0.1693
 41
0.1693
 66
1
 10
0
 20
0
 30
0
  0
VERTEX
  8
LAYER_1
 10
130.8899
 20
224.6142
  0
VERTEX
  8
LAYER_1
 10
130.1279
 20
224.0003
  0
SEQEND
  0
POLYLINE
  8
LAYER_1
 40
0.1693
 41
0.1693
 66
1
 10
0
 20
0
 30
0
  0
VERTEX
  8
LAYER_1
 10
130.1279
 20
225.2492
  0
VERTEX
  8
LAYER_1
 10
130.8899
 20
224.6142
  0
SEQEND
  0
POLYLINE
  8
LAYER_1
 40
0.1693
 41
0.1693
 66
1
 10
0
 20
0
 30
0
  0
VERTEX
  8
LAYER_1
 10
130.8899
 20
225.863
  0
VERTEX
  8
LAYER_1
 10
130.1279
 20
225.2492
  0
SEQEND
  0
POLYLINE
  8
LAYER_1
 40
0.1693
 41
0.1693
 66
1
 10
0
 20
0
 30
0
  0
VERTEX
  8
LAYER_1
 10
130.1279
 20
226.498
  0
VERTEX
  8
LAYER_1
 10
130.8899
 20
225.863
  0
SEQEND
  0
POLYLINE
  8
LAYER_1
 40
0.1693
 41
0.1693
 66
1
 10
0
 20
0
 30
0
  0
VERTEX
  8
LAYER_1
 10
130.8899
 20
227.1118
  0
VERTEX
  8
LAYER_1
 10
130.1279
 20
226.498
  0
SEQEND
  0
POLYLINE
  8
LAYER_1
 40
0.1693
 41
0.1693
 66
1
 10
0
 20
0
 30
0
  0
VERTEX
  8
LAYER_1
 10
130.1279
 20
227.768
  0
VERTEX
  8
LAYER_1
 10
130.8899
 20
227.1118
  0
SEQEND
  0
POLYLINE
  8
LAYER_1
 40
0.1693
 41
0.1693
 66
1
 10
0
 20
0
 30
0
  0
VERTEX
  8
LAYER_1
 10
130.8899
 20
235.8536
  0
VERTEX
  8
LAYER_1
 10
130.1279
 20
235.261
  0
SEQEND
  0
POLYLINE
  8
LAYER_1
 40
0.1693
 41
0.1693
 66
1
 10
0
 20
0
 30
0
  0
VERTEX
  8
LAYER_1
 10
130.1279
 20
236.5098
  0
VERTEX
  8
LAYER_1
 10
130.8899
 20
235.8536
  0
SEQEND
  0
POLYLINE
  8
LAYER_1
 40
0.1693
 41
0.1693
 66
1
 10
0
 20
0
 30
0
  0
VERTEX
  8
LAYER_1
 10
130.8899
 20
237.1025
  0
VERTEX
  8
LAYER_1
 10
130.1279
 20
236.5098
  0
SEQEND
  0
POLYLINE
  8
LAYER_1
 40
0.1693
 41
0.1693
 66
1
 10
0
 20
0
 30
0
  0
VERTEX
  8
LAYER_1
 10
130.1279
 20
237.7586
  0
VERTEX
  8
LAYER_1
 10
130.8899
 20
237.1025
  0
SEQEND
  0
POLYLINE
  8
LAYER_1
 40
0.1693
 41
0.1693
 66
1
 10
0
 20
0
 30
0
  0
VERTEX
  8
LAYER_1
 10
130.8899
 20
238.3513
  0
VERTEX
  8
LAYER_1
 10
130.1279
 20
237.7586
  0
SEQEND
  0
POLYLINE
  8
LAYER_1
 40
0.1693
 41
0.1693
 66
1
 10
0
 20
0
 30
0
  0
VERTEX
  8
LAYER_1
 10
130.1279
 20
239.0075
  0
VERTEX
  8
LAYER_1
 10
130.8899
 20
238.3513
  0
SEQEND
  0
POLYLINE
  8
LAYER_1
 40
0.1693
 41
0.1693
 66
1
 10
0
 20
0
 30
0
  0
VERTEX
  8
LAYER_1
 10
130.8899
 20
239.6001
  0
VERTEX
  8
LAYER_1
 10
130.1279
 20
239.0075
  0
SEQEND
  0
POLYLINE
  8
LAYER_1
 40
0.1693
 41
0.1693
 66
1
 10
0
 20
0
 30
0
  0
VERTEX
  8
LAYER_1
 10
130.1279
 20
240.2563
  0
VERTEX
  8
LAYER_1
 10
130.8899
 20
239.6001
  0
SEQEND
  0
POLYLINE
  8
LAYER_1
 40
0.1693
 41
0.1693
 66
1
 10
0
 20
0
 30
0
  0
VERTEX
  8
LAYER_1
 10
130.8899
 20
240.8489
  0
VERTEX
  8
LAYER_1
 10
130.1279
 20
240.2563
  0
SEQEND
  0
POLYLINE
  8
LAYER_1
 40
0.1693
 41
0.1693
 66
1
 10
0
 20
0
 30
0
  0
VERTEX
  8
LAYER_1
 10
130.1279
 20
241.5051
  0
VERTEX
  8
LAYER_1
 10
130.8899
 20
240.8489
  0
SEQEND
  0
POLYLINE
  8
LAYER_1
 40
0.1693
 41
0.1693
 66
1
 10
0
 20
0
 30
0
  0
VERTEX
  8
LAYER_1
 10
130.8899
 20
242.1189
  0
VERTEX
  8
LAYER_1
 10
130.1279
 20
241.5051
  0
SEQEND
  0
POLYLINE
  8
LAYER_1
 40
0.1693
 41
0.1693
 66
1
 10
0
 20
0
 30
0
  0
VERTEX
  8
LAYER_1
 10
130.1279
 20
242.7539
  0
VERTEX
  8
LAYER_1
 10
130.8899
 20
242.1189
  0
SEQEND
  0
POLYLINE
  8
LAYER_1
 40
0.1693
 41
0.1693
 66
1
 10
0
 20
0
 30
0
  0
VERTEX
  8
LAYER_1
 10
130.8899
 20
243.3678
  0
VERTEX
  8
LAYER_1
 10
130.1279
 20
242.7539
  0
SEQEND
  0
POLYLINE
  8
LAYER_1
 40
0.1693
 41
0.1693
 66
1
 10
0
 20
0
 30
0
  0
VERTEX
  8
LAYER_1
 10
130.1279
 20
244.0028
  0
VERTEX
  8
LAYER_1
 10
130.8899
 20
243.3678
  0
SEQEND
  0
POLYLINE
  8
LAYER_1
 40
0.1693
 41
0.1693
 66
1
 10
0
 20
0
 30
0
  0
VERTEX
  8
LAYER_1
 10
130.8899
 20
244.6166
  0
VERTEX
  8
LAYER_1
 10
130.1279
 20
244.0028
  0
SEQEND
  0
POLYLINE
  8
LAYER_1
 40
0.1693
 41
0.1693
 66
1
 10
0
 20
0
 30
0
  0
VERTEX
  8
LAYER_1
 10
130.1279
 20
245.2516
  0
VERTEX
  8
LAYER_1
 10
130.8899
 20
244.6166
  0
SEQEND
  0
POLYLINE
  8
LAYER_1
 40
0.1693
 41
0.1693
 66
1
 10
0
 20
0
 30
0
  0
VERTEX
  8
LAYER_1
 10
130.8899
 20
245.8654
  0
VERTEX
  8
LAYER_1
 10
130.1279
 20
245.2516
  0
SEQEND
  0
POLYLINE
  8
LAYER_1
 40
0.1693
 41
0.1693
 66
1
 10
0
 20
0
 30
0
  0
VERTEX
  8
LAYER_1
 10
130.1279
 20
246.5216
  0
VERTEX
  8
LAYER_1
 10
130.8899
 20
245.8654
  0
SEQEND
  0
POLYLINE
  8
LAYER_1
 40
0.1693
 41
0.1693
 66
1
 10
0
 20
0
 30
0
  0
VERTEX
  8
LAYER_1
 10
130.8899
 20
247.1142
  0
VERTEX
  8
LAYER_1
 10
130.1279
 20
246.5216
  0
SEQEND
  0
POLYLINE
  8
LAYER_1
 40
0.1693
 41
0.1693
 66
1
 10
0
 20
0
 30
0
  0
VERTEX
  8
LAYER_1
 10
130.1279
 20
247.7704
  0
VERTEX
  8
LAYER_1
 10
130.8899
 20
247.1142
  0
SEQEND
  0
POLYLINE
  8
LAYER_1
 40
0.1693
 41
0.1693
 66
1
 10
0
 20
0
 30
0
  0
VERTEX
  8
LAYER_1
 10
130.8899
 20
248.3631
  0
VERTEX
  8
LAYER_1
 10
130.1279
 20
247.7704
  0
SEQEND
  0
POLYLINE
  8
LAYER_1
 40
0.1693
 41
0.1693
 66
1
 10
0
 20
0
 30
0
  0
VERTEX
  8
LAYER_1
 10
130.1279
 20
249.0192
  0
VERTEX
  8
LAYER_1
 10
130.8899
 20
248.3631
  0
SEQEND
  0
POLYLINE
  8
LAYER_1
 40
0.1693
 41
0.1693
 66
1
 10
0
 20
0
 30
0
  0
VERTEX
  8
LAYER_1
 10
130.8899
 20
249.6119
  0
VERTEX
  8
LAYER_1
 10
130.1279
 20
249.0192
  0
SEQEND
  0
POLYLINE
  8
LAYER_1
 40
0.1693
 41
0.1693
 66
1
 10
0
 20
0
 30
0
  0
VERTEX
  8
LAYER_1
 10
130.1279
 20
250.2681
  0
VERTEX
  8
LAYER_1
 10
130.8899
 20
249.6119
  0
SEQEND
  0
POLYLINE
  8
LAYER_1
 40
0.1693
 41
0.1693
 66
1
 10
0
 20
0
 30
0
  0
VERTEX
  8
LAYER_1
 10
130.8899
 20
250.8607
  0
VERTEX
  8
LAYER_1
 10
130.1279
 20
250.2681
  0
SEQEND
  0
POLYLINE
  8
LAYER_1
 40
0.1693
 41
0.1693
 66
1
 10
0
 20
0
 30
0
  0
VERTEX
  8
LAYER_1
 10
130.1279
 20
251.5169
  0
VERTEX
  8
LAYER_1
 10
130.8899
 20
250.8607
  0
SEQEND
  0
POLYLINE
  8
LAYER_1
 40
0.1693
 41
0.1693
 66
1
 10
0
 20
0
 30
0
  0
VERTEX
  8
LAYER_1
 10
130.8899
 20
252.1095
  0
VERTEX
  8
LAYER_1
 10
130.1279
 20
251.5169
  0
SEQEND
  0
POLYLINE
  8
LAYER_1
 40
0.1693
 41
0.1693
 66
1
 10
0
 20
0
 30
0
  0
VERTEX
  8
LAYER_1
 10
130.1279
 20
252.7657
  0
VERTEX
  8
LAYER_1
 10
130.8899
 20
252.1095
  0
SEQEND
  0
POLYLINE
  8
LAYER_1
 40
0.1693
 41
0.1693
 66
1
 10
0
 20
0
 30
0
  0
VERTEX
  8
LAYER_1
 10
130.8899
 20
253.3584
  0
VERTEX
  8
LAYER_1
 10
130.1279
 20
252.7657
  0
SEQEND
  0
POLYLINE
  8
LAYER_1
 40
0.1693
 41
0.1693
 66
1
 10
0
 20
0
 30
0
  0
VERTEX
  8
LAYER_1
 10
130.1279
 20
254.0145
  0
VERTEX
  8
LAYER_1
 10
130.8899
 20
253.3584
  0
SEQEND
  0
POLYLINE
  8
LAYER_1
 40
0.1693
 41
0.1693
 66
1
 10
0
 20
0
 30
0
  0
VERTEX
  8
LAYER_1
 10
110.1466
 20
253.9087
  0
VERTEX
  8
LAYER_1
 10
110.8874
 20
253.316
  0
SEQEND
  0
POLYLINE
  8
LAYER_1
 40
0.1693
 41
0.1693
 66
1
 10
0
 20
0
 30
0
  0
VERTEX
  8
LAYER_1
 10
110.1466
 20
218.899
  0
VERTEX
  8
LAYER_1
 10
110.8874
 20
218.3064
  0
SEQEND
  0
POLYLINE
  8
LAYER_1
 40
0.1693
 41
0.1693
 66
1
 10
0
 20
0
 30
0
  0
VERTEX
  8
LAYER_1
 10
110.8874
 20
219.5552
  0
VERTEX
  8
LAYER_1
 10
110.1466
 20
218.899
  0
SEQEND
  0
POLYLINE
  8
LAYER_1
 40
0.1693
 41
0.1693
 66
1
 10
0
 20
0
 30
0
  0
VERTEX
  8
LAYER_1
 10
110.1466
 20
220.1479
  0
VERTEX
  8
LAYER_1
 10
110.8874
 20
219.5552
  0
SEQEND
  0
POLYLINE
  8
LAYER_1
 40
0.1693
 41
0.1693
 66
1
 10
0
 20
0
 30
0
  0
VERTEX
  8
LAYER_1
 10
110.8874
 20
220.804
  0
VERTEX
  8
LAYER_1
 10
110.1466
 20
220.1479
  0
SEQEND
  0
POLYLINE
  8
LAYER_1
 40
0.1693
 41
0.1693
 66
1
 10
0
 20
0
 30
0
  0
VERTEX
  8
LAYER_1
 10
110.1466
 20
221.4179
  0
VERTEX
  8
LAYER_1
 10
110.8874
 20
220.804
  0
SEQEND
  0
POLYLINE
  8
LAYER_1
 40
0.1693
 41
0.1693
 66
1
 10
0
 20
0
 30
0
  0
VERTEX
  8
LAYER_1
 10
110.8874
 20
222.0529
  0
VERTEX
  8
LAYER_1
 10
110.1466
 20
221.4179
  0
SEQEND
  0
POLYLINE
  8
LAYER_1
 40
0.1693
 41
0.1693
 66
1
 10
0
 20
0
 30
0
  0
VERTEX
  8
LAYER_1
 10
110.1466
 20
222.6667
  0
VERTEX
  8
LAYER_1
 10
110.8874
 20
222.0529
  0
SEQEND
  0
POLYLINE
  8
LAYER_1
 40
0.1693
 41
0.1693
 66
1
 10
0
 20
0
 30
0
  0
VERTEX
  8
LAYER_1
 10
110.8874
 20
223.3017
  0
VERTEX
  8
LAYER_1
 10
110.1466
 20
222.6667
  0
SEQEND
  0
POLYLINE
  8
LAYER_1
 40
0.1693
 41
0.1693
 66
1
 10
0
 20
0
 30
0
  0
VERTEX
  8
LAYER_1
 10
110.1466
 20
223.9155
  0
VERTEX
  8
LAYER_1
 10
110.8874
 20
223.3017
  0
SEQEND
  0
POLYLINE
  8
LAYER_1
 40
0.1693
 41
0.1693
 66
1
 10
0
 20
0
 30
0
  0
VERTEX
  8
LAYER_1
 10
110.8874
 20
224.5717
  0
VERTEX
  8
LAYER_1
 10
110.1466
 20
223.9155
  0
SEQEND
  0
POLYLINE
  8
LAYER_1
 40
0.1693
 41
0.1693
 66
1
 10
0
 20
0
 30
0
  0
VERTEX
  8
LAYER_1
 10
110.1466
 20
225.1643
  0
VERTEX
  8
LAYER_1
 10
110.8874
 20
224.5717
  0
SEQEND
  0
POLYLINE
  8
LAYER_1
 40
0.1693
 41
0.1693
 66
1
 10
0
 20
0
 30
0
  0
VERTEX
  8
LAYER_1
 10
110.8874
 20
225.8205
  0
VERTEX
  8
LAYER_1
 10
110.1466
 20
225.1643
  0
SEQEND
  0
POLYLINE
  8
LAYER_1
 40
0.1693
 41
0.1693
 66
1
 10
0
 20
0
 30
0
  0
VERTEX
  8
LAYER_1
 10
110.1466
 20
226.4132
  0
VERTEX
  8
LAYER_1
 10
110.8874
 20
225.8205
  0
SEQEND
  0
POLYLINE
  8
LAYER_1
 40
0.1693
 41
0.1693
 66
1
 10
0
 20
0
 30
0
  0
VERTEX
  8
LAYER_1
 10
110.8874
 20
227.0693
  0
VERTEX
  8
LAYER_1
 10
110.1466
 20
226.4132
  0
SEQEND
  0
POLYLINE
  8
LAYER_1
 40
0.1693
 41
0.1693
 66
1
 10
0
 20
0
 30
0
  0
VERTEX
  8
LAYER_1
 10
110.1466
 20
227.662
  0
VERTEX
  8
LAYER_1
 10
110.8874
 20
227.0693
  0
SEQEND
  0
POLYLINE
  8
LAYER_1
 40
0.1693
 41
0.1693
 66
1
 10
0
 20
0
 30
0
  0
VERTEX
  8
LAYER_1
 10
110.8874
 20
235.8112
  0
VERTEX
  8
LAYER_1
 10
110.1466
 20
235.155
  0
SEQEND
  0
POLYLINE
  8
LAYER_1
 40
0.1693
 41
0.1693
 66
1
 10
0
 20
0
 30
0
  0
VERTEX
  8
LAYER_1
 10
110.1466
 20
236.4038
  0
VERTEX
  8
LAYER_1
 10
110.8874
 20
235.8112
  0
SEQEND
  0
POLYLINE
  8
LAYER_1
 40
0.1693
 41
0.1693
 66
1
 10
0
 20
0
 30
0
  0
VERTEX
  8
LAYER_1
 10
110.8874
 20
237.06
  0
VERTEX
  8
LAYER_1
 10
110.1466
 20
236.4038
  0
SEQEND
  0
POLYLINE
  8
LAYER_1
 40
0.1693
 41
0.1693
 66
1
 10
0
 20
0
 30
0
  0
VERTEX
  8
LAYER_1
 10
110.1466
 20
237.6526
  0
VERTEX
  8
LAYER_1
 10
110.8874
 20
237.06
  0
SEQEND
  0
POLYLINE
  8
LAYER_1
 40
0.1693
 41
0.1693
 66
1
 10
0
 20
0
 30
0
  0
VERTEX
  8
LAYER_1
 10
110.8874
 20
238.3088
  0
VERTEX
  8
LAYER_1
 10
110.1466
 20
237.6526
  0
SEQEND
  0
POLYLINE
  8
LAYER_1
 40
0.1693
 41
0.1693
 66
1
 10
0
 20
0
 30
0
  0
VERTEX
  8
LAYER_1
 10
110.1466
 20
238.9226
  0
VERTEX
  8
LAYER_1
 10
110.8874
 20
238.3088
  0
SEQEND
  0
POLYLINE
  8
LAYER_1
 40
0.1693
 41
0.1693
 66
1
 10
0
 20
0
 30
0
  0
VERTEX
  8
LAYER_1
 10
110.8874
 20
239.5576
  0
VERTEX
  8
LAYER_1
 10
110.1466
 20
238.9226
  0
SEQEND
  0
POLYLINE
  8
LAYER_1
 40
0.1693
 41
0.1693
 66
1
 10
0
 20
0
 30
0
  0
VERTEX
  8
LAYER_1
 10
110.1466
 20
240.1715
  0
VERTEX
  8
LAYER_1
 10
110.8874
 20
239.5576
  0
SEQEND
  0
POLYLINE
  8
LAYER_1
 40
0.1693
 41
0.1693
 66
1
 10
0
 20
0
 30
0
  0
VERTEX
  8
LAYER_1
 10
110.8874
 20
240.8065
  0
VERTEX
  8
LAYER_1
 10
110.1466
 20
240.1715
  0
SEQEND
  0
POLYLINE
  8
LAYER_1
 40
0.1693
 41
0.1693
 66
1
 10
0
 20
0
 30
0
  0
VERTEX
  8
LAYER_1
 10
110.1466
 20
241.4203
  0
VERTEX
  8
LAYER_1
 10
110.8874
 20
240.8065
  0
SEQEND
  0
POLYLINE
  8
LAYER_1
 40
0.1693
 41
0.1693
 66
1
 10
0
 20
0
 30
0
  0
VERTEX
  8
LAYER_1
 10
110.8874
 20
242.0553
  0
VERTEX
  8
LAYER_1
 10
110.1466
 20
241.4203
  0
SEQEND
  0
POLYLINE
  8
LAYER_1
 40
0.1693
 41
0.1693
 66
1
 10
0
 20
0
 30
0
  0
VERTEX
  8
LAYER_1
 10
110.1466
 20
242.6691
  0
VERTEX
  8
LAYER_1
 10
110.8874
 20
242.0553
  0
SEQEND
  0
POLYLINE
  8
LAYER_1
 40
0.1693
 41
0.1693
 66
1
 10
0
 20
0
 30
0
  0
VERTEX
  8
LAYER_1
 10
110.8874
 20
243.3253
  0
VERTEX
  8
LAYER_1
 10
110.1466
 20
242.6691
  0
SEQEND
  0
POLYLINE
  8
LAYER_1
 40
0.1693
 41
0.1693
 66
1
 10
0
 20
0
 30
0
  0
VERTEX
  8
LAYER_1
 10
110.1466
 20
243.918
  0
VERTEX
  8
LAYER_1
 10
110.8874
 20
243.3253
  0
SEQEND
  0
POLYLINE
  8
LAYER_1
 40
0.1693
 41
0.1693
 66
1
 10
0
 20
0
 30
0
  0
VERTEX
  8
LAYER_1
 10
110.8874
 20
244.5741
  0
VERTEX
  8
LAYER_1
 10
110.1466
 20
243.918
  0
SEQEND
  0
POLYLINE
  8
LAYER_1
 40
0.1693
 41
0.1693
 66
1
 10
0
 20
0
 30
0
  0
VERTEX
  8
LAYER_1
 10
110.1466
 20
245.1668
  0
VERTEX
  8
LAYER_1
 10
110.8874
 20
244.5741
  0
SEQEND
  0
POLYLINE
  8
LAYER_1
 40
0.1693
 41
0.1693
 66
1
 10
0
 20
0
 30
0
  0
VERTEX
  8
LAYER_1
 10
110.8874
 20
245.8229
  0
VERTEX
  8
LAYER_1
 10
110.1466
 20
245.1668
  0
SEQEND
  0
POLYLINE
  8
LAYER_1
 40
0.1693
 41
0.1693
 66
1
 10
0
 20
0
 30
0
  0
VERTEX
  8
LAYER_1
 10
110.1466
 20
246.4156
  0
VERTEX
  8
LAYER_1
 10
110.8874
 20
245.8229
  0
SEQEND
  0
POLYLINE
  8
LAYER_1
 40
0.1693
 41
0.1693
 66
1
 10
0
 20
0
 30
0
  0
VERTEX
  8
LAYER_1
 10
110.8874
 20
247.0718
  0
VERTEX
  8
LAYER_1
 10
110.1466
 20
246.4156
  0
SEQEND
  0
POLYLINE
  8
LAYER_1
 40
0.1693
 41
0.1693
 66
1
 10
0
 20
0
 30
0
  0
VERTEX
  8
LAYER_1
 10
110.1466
 20
247.6644
  0
VERTEX
  8
LAYER_1
 10
110.8874
 20
247.0718
  0
SEQEND
  0
POLYLINE
  8
LAYER_1
 40
0.1693
 41
0.1693
 66
1
 10
0
 20
0
 30
0
  0
VERTEX
  8
LAYER_1
 10
110.8874
 20
248.3206
  0
VERTEX
  8
LAYER_1
 10
110.1466
 20
247.6644
  0
SEQEND
  0
POLYLINE
  8
LAYER_1
 40
0.1693
 41
0.1693
 66
1
 10
0
 20
0
 30
0
  0
VERTEX
  8
LAYER_1
 10
110.1466
 20
248.9133
  0
VERTEX
  8
LAYER_1
 10
110.8874
 20
248.3206
  0
SEQEND
  0
POLYLINE
  8
LAYER_1
 40
0.1693
 41
0.1693
 66
1
 10
0
 20
0
 30
0
  0
VERTEX
  8
LAYER_1
 10
110.8874
 20
249.5694
  0
VERTEX
  8
LAYER_1
 10
110.1466
 20
248.9133
  0
SEQEND
  0
POLYLINE
  8
LAYER_1
 40
0.1693
 41
0.1693
 66
1
 10
0
 20
0
 30
0
  0
VERTEX
  8
LAYER_1
 10
110.1466
 20
250.1621
  0
VERTEX
  8
LAYER_1
 10
110.8874
 20
249.5694
  0
SEQEND
  0
POLYLINE
  8
LAYER_1
 40
0.1693
 41
0.1693
 66
1
 10
0
 20
0
 30
0
  0
VERTEX
  8
LAYER_1
 10
110.8874
 20
250.8182
  0
VERTEX
  8
LAYER_1
 10
110.1466
 20
250.1621
  0
SEQEND
  0
POLYLINE
  8
LAYER_1
 40
0.1693
 41
0.1693
 66
1
 10
0
 20
0
 30
0
  0
VERTEX
  8
LAYER_1
 10
110.1466
 20
251.4109
  0
VERTEX
  8
LAYER_1
 10
110.8874
 20
250.8182
  0
SEQEND
  0
POLYLINE
  8
LAYER_1
 40
0.1693
 41
0.1693
 66
1
 10
0
 20
0
 30
0
  0
VERTEX
  8
LAYER_1
 10
110.8874
 20
252.0671
  0
VERTEX
  8
LAYER_1
 10
110.1466
 20
251.4109
  0
SEQEND
  0
POLYLINE
  8
LAYER_1
 40
0.1693
 41
0.1693
 66
1
 10
0
 20
0
 30
0
  0
VERTEX
  8
LAYER_1
 10
110.1466
 20
252.6597
  0
VERTEX
  8
LAYER_1
 10
110.8874
 20
252.0671
  0
SEQEND
  0
POLYLINE
  8
LAYER_1
 40
0.1693
 41
0.1693
 66
1
 10
0
 20
0
 30
0
  0
VERTEX
  8
LAYER_1
 10
110.8874
 20
253.3159
  0
VERTEX
  8
LAYER_1
 10
110.1466
 20
252.6597
  0
SEQEND
  0
POLYLINE
  8
LAYER_1
 40
0.1693
 41
0.1693
 66
1
 10
0
 20
0
 30
0
  0
VERTEX
  8
LAYER_1
 10
110.1466
 20
258.1419
  0
VERTEX
  8
LAYER_1
 10
130.8899
 20
258.1419
  0
SEQEND
  0
POLYLINE
  8
LAYER_1
 40
0.1693
 41
0.1693
 66
1
 10
0
 20
0
 30
0
  0
VERTEX
  8
LAYER_1
 10
105.2783
 20
263.1372
  0
VERTEX
  8
LAYER_1
 10
105.2783
 20
266.1429
  0
SEQEND
  0
POLYLINE
  8
LAYER_1
 40
0.1693
 41
0.1693
 66
1
 10
0
 20
0
 30
0
  0
VERTEX
  8
LAYER_1
 10
135.7583
 20
263.1372
  0
VERTEX
  8
LAYER_1
 10
135.7583
 20
266.1429
  0
SEQEND
  0
POLYLINE
  8
LAYER_1
 40
0.1693
 41
0.1693
 66
1
 10
0
 20
0
 30
0
  0
VERTEX
  8
LAYER_1
 10
105.2783
 20
263.1372
  0
VERTEX
  8
LAYER_1
 10
135.7583
 20
263.1372
  0
SEQEND
  0
POLYLINE
  8
LAYER_1
 40
0.0847
 41
0.0847
 66
1
 10
0
 20
0
 30
0
  0
VERTEX
  8
LAYER_1
 10
103.5214
 20
288.982
  0
VERTEX
  8
LAYER_1
 10
137.5151
 20
288.982
  0
SEQEND
  0
POLYLINE
  8
LAYER_1
 40
0.1693
 41
0.1693
 66
1
 10
0
 20
0
 30
0
  0
VERTEX
  8
LAYER_1
 10
103.5214
 20
288.982
  0
VERTEX
  8
LAYER_1
 10
104.9608
 20
289.363
  0
SEQEND
  0
POLYLINE
  8
LAYER_1
 40
0.1693
 41
0.1693
 66
1
 10
0
 20
0
 30
0
  0
VERTEX
  8
LAYER_1
 10
103.5214
 20
288.982
  0
VERTEX
  8
LAYER_1
 10
104.9608
 20
288.5798
  0
SEQEND
  0
POLYLINE
  8
LAYER_1
 40
0.1693
 41
0.1693
 66
1
 10
0
 20
0
 30
0
  0
VERTEX
  8
LAYER_1
 10
137.5151
 20
288.982
  0
VERTEX
  8
LAYER_1
 10
136.0546
 20
288.5798
  0
SEQEND
  0
POLYLINE
  8
LAYER_1
 40
0.1693
 41
0.1693
 66
1
 10
0
 20
0
 30
0
  0
VERTEX
  8
LAYER_1
 10
137.5151
 20
288.982
  0
VERTEX
  8
LAYER_1
 10
136.0546
 20
289.363
  0
SEQEND
  0
POLYLINE
  8
LAYER_1
 40
0.0847
 41
0.0847
 66
1
 10
0
 20
0
 30
0
  0
VERTEX
  8
LAYER_1
 10
103.5214
 20
275.6893
  0
VERTEX
  8
LAYER_1
 10
103.5214
 20
288.982
  0
SEQEND
  0
POLYLINE
  8
LAYER_1
 40
0.0847
 41
0.0847
 66
1
 10
0
 20
0
 30
0
  0
VERTEX
  8
LAYER_1
 10
137.5151
 20
275.6893
  0
VERTEX
  8
LAYER_1
 10
137.5151
 20
288.982
  0
SEQEND
  0
POLYLINE
  8
LAYER_1
 40
0.1693
 41
0.1693
 66
1
 10
0
 20
0
 30
0
  0
VERTEX
  8
LAYER_1
 10
103.7543
 20
274.1442
 42
0.4091967401
  0
VERTEX
  8
LAYER_1
 10
103.5214
 20
273.9113
  0
SEQEND
  0
POLYLINE
  8
LAYER_1
 40
0.1693
 41
0.1693
 66
1
 10
0
 20
0
 30
0
  0
VERTEX
  8
LAYER_1
 10
103.5214
 20
273.3822
  0
VERTEX
  8
LAYER_1
 10
103.5214
 20
273.8902
  0
SEQEND
  0
POLYLINE
  8
LAYER_1
 40
0.1693
 41
0.1693
 66
1
 10
0
 20
0
 30
0
  0
VERTEX
  8
LAYER_1
 10
103.5214
 20
273.4033
  0
VERTEX
  8
LAYER_1
 10
103.5214
 20
273.3822
 42
0.3595510475
  0
VERTEX
  8
LAYER_1
 10
103.7543
 20
273.1282
  0
SEQEND
  0
POLYLINE
  8
LAYER_1
 40
0.1693
 41
0.1693
 66
1
 10
0
 20
0
 30
0
  0
VERTEX
  8
LAYER_1
 10
103.7754
 20
274.1442
  0
VERTEX
  8
LAYER_1
 10
137.2611
 20
274.1442
  0
SEQEND
  0
POLYLINE
  8
LAYER_1
 40
0.1693
 41
0.1693
 66
1
 10
0
 20
0
 30
0
  0
VERTEX
  8
LAYER_1
 10
137.5151
 20
273.9113
 42
0.3595581609
  0
VERTEX
  8
LAYER_1
 10
137.2611
 20
274.1442
  0
VERTEX
  8
LAYER_1
 10
137.2399
 20
274.1442
  0
SEQEND
  0
POLYLINE
  8
LAYER_1
 40
0.1693
 41
0.1693
 66
1
 10
0
 20
0
 30
0
  0
VERTEX
  8
LAYER_1
 10
103.7754
 20
273.1282
  0
VERTEX
  8
LAYER_1
 10
137.2611
 20
273.1282
  0
SEQEND
  0
POLYLINE
  8
LAYER_1
 40
0.1693
 41
0.1693
 66
1
 10
0
 20
0
 30
0
  0
VERTEX
  8
LAYER_1
 10
137.5151
 20
273.3822
  0
VERTEX
  8
LAYER_1
 10
137.5151
 20
273.8902
  0
SEQEND
  0
POLYLINE
  8
LAYER_1
 40
0.1693
 41
0.1693
 66
1
 10
0
 20
0
 30
0
  0
VERTEX
  8
LAYER_1
 10
137.2399
 20
273.1282
  0
VERTEX
  8
LAYER_1
 10
137.2611
 20
273.1282
 42
0.3750161937
  0
VERTEX
  8
LAYER_1
 10
137.5151
 20
273.3822
  0
VERTEX
  8
LAYER_1
 10
137.5151
 20
273.4034
  0
SEQEND
  0
POLYLINE
  8
LAYER_1
 40
0.1693
 41
0.1693
 66
1
 10
0
 20
0
 30
0
  0
VERTEX
  8
LAYER_1
 10
112.2632
 20
268.1329
  0
VERTEX
  8
LAYER_1
 10
112.2632
 20
273.1282
  0
SEQEND
  0
POLYLINE
  8
LAYER_1
 40
0.1693
 41
0.1693
 66
1
 10
0
 20
0
 30
0
  0
VERTEX
  8
LAYER_1
 10
128.7521
 20
268.1329
  0
VERTEX
  8
LAYER_1
 10
128.7521
 20
273.1282
  0
SEQEND
  0
POLYLINE
  8
LAYER_1
 40
0.0847
 41
0.0847
 66
1
 10
0
 20
0
 30
0
  0
VERTEX
  8
LAYER_1
 10
128.7521
 20
316.5833
  0
VERTEX
  8
LAYER_1
 10
128.7309
 20
317.0067
  0
SEQEND
  0
POLYLINE
  8
LAYER_1
 40
0.0847
 41
0.0847
 66
1
 10
0
 20
0
 30
0
  0
VERTEX
  8
LAYER_1
 10
128.6463
 20
317.8533
  0
VERTEX
  8
LAYER_1
 10
128.6039
 20
318.2132
  0
VERTEX
  8
LAYER_1
 10
128.4769
 20
318.6365
  0
SEQEND
  0
POLYLINE
  8
LAYER_1
 40
0.0847
 41
0.0847
 66
1
 10
0
 20
0
 30
0
  0
VERTEX
  8
LAYER_1
 10
128.2229
 20
319.4831
  0
VERTEX
  8
LAYER_1
 10
128.1171
 20
319.8007
  0
VERTEX
  8
LAYER_1
 10
127.8843
 20
320.224
  0
SEQEND
  0
POLYLINE
  8
LAYER_1
 40
0.0847
 41
0.0847
 66
1
 10
0
 20
0
 30
0
  0
VERTEX
  8
LAYER_1
 10
127.4186
 20
321.0706
  0
VERTEX
  8
LAYER_1
 10
127.3128
 20
321.24
  0
VERTEX
  8
LAYER_1
 10
126.9741
 20
321.6633
  0
SEQEND
  0
POLYLINE
  8
LAYER_1
 40
0.0847
 41
0.0847
 66
1
 10
0
 20
0
 30
0
  0
VERTEX
  8
LAYER_1
 10
126.2544
 20
322.4888
  0
VERTEX
  8
LAYER_1
 10
125.4078
 20
323.1661
  0
SEQEND
  0
POLYLINE
  8
LAYER_1
 40
0.0847
 41
0.0847
 66
1
 10
0
 20
0
 30
0
  0
VERTEX
  8
LAYER_1
 10
124.9633
 20
323.526
  0
VERTEX
  8
LAYER_1
 10
124.1166
 20
323.9493
  0
SEQEND
  0
POLYLINE
  8
LAYER_1
 40
0.0847
 41
0.0847
 66
1
 10
0
 20
0
 30
0
  0
VERTEX
  8
LAYER_1
 10
123.5028
 20
324.2668
  0
VERTEX
  8
LAYER_1
 10
122.6561
 20
324.4996
  0
SEQEND
  0
POLYLINE
  8
LAYER_1
 40
0.0847
 41
0.0847
 66
1
 10
0
 20
0
 30
0
  0
VERTEX
  8
LAYER_1
 10
121.9153
 20
324.7113
  0
VERTEX
  8
LAYER_1
 10
121.0686
 20
324.7536
  0
SEQEND
  0
POLYLINE
  8
LAYER_1
 40
0.0847
 41
0.0847
 66
1
 10
0
 20
0
 30
0
  0
VERTEX
  8
LAYER_1
 10
120.2643
 20
324.8171
  0
VERTEX
  8
LAYER_1
 10
119.4176
 20
324.7113
  0
SEQEND
  0
POLYLINE
  8
LAYER_1
 40
0.0847
 41
0.0847
 66
1
 10
0
 20
0
 30
0
  0
VERTEX
  8
LAYER_1
 10
118.6344
 20
324.6055
  0
VERTEX
  8
LAYER_1
 10
117.7878
 20
324.3303
  0
SEQEND
  0
POLYLINE
  8
LAYER_1
 40
0.0847
 41
0.0847
 66
1
 10
0
 20
0
 30
0
  0
VERTEX
  8
LAYER_1
 10
117.0893
 20
324.0763
  0
VERTEX
  8
LAYER_1
 10
116.2426
 20
323.6107
  0
SEQEND
  0
POLYLINE
  8
LAYER_1
 40
0.0847
 41
0.0847
 66
1
 10
0
 20
0
 30
0
  0
VERTEX
  8
LAYER_1
 10
115.6499
 20
323.2508
  0
VERTEX
  8
LAYER_1
 10
114.8033
 20
322.51
  0
SEQEND
  0
POLYLINE
  8
LAYER_1
 40
0.0847
 41
0.0847
 66
1
 10
0
 20
0
 30
0
  0
VERTEX
  8
LAYER_1
 10
114.1259
 20
321.7268
  0
VERTEX
  8
LAYER_1
 10
113.4909
 20
320.8801
  0
SEQEND
  0
POLYLINE
  8
LAYER_1
 40
0.0847
 41
0.0847
 66
1
 10
0
 20
0
 30
0
  0
VERTEX
  8
LAYER_1
 10
113.2581
 20
320.4145
  0
VERTEX
  8
LAYER_1
 10
112.8771
 20
319.5678
  0
SEQEND
  0
POLYLINE
  8
LAYER_1
 40
0.0847
 41
0.0847
 66
1
 10
0
 20
0
 30
0
  0
VERTEX
  8
LAYER_1
 10
112.6442
 20
318.9117
  0
VERTEX
  8
LAYER_1
 10
112.4326
 20
318.065
  0
SEQEND
  0
POLYLINE
  8
LAYER_1
 40
0.0847
 41
0.0847
 66
1
 10
0
 20
0
 30
0
  0
VERTEX
  8
LAYER_1
 10
112.3479
 20
317.3242
  0
VERTEX
  8
LAYER_1
 10
112.3056
 20
316.4775
  0
SEQEND
  0
POLYLINE
  8
LAYER_1
 40
0.0847
 41
0.0847
 66
1
 10
0
 20
0
 30
0
  0
VERTEX
  8
LAYER_1
 10
112.3479
 20
315.6732
  0
VERTEX
  8
LAYER_1
 10
112.4749
 20
314.8265
  0
SEQEND
  0
POLYLINE
  8
LAYER_1
 40
0.0847
 41
0.0847
 66
1
 10
0
 20
0
 30
0
  0
VERTEX
  8
LAYER_1
 10
112.6866
 20
314.0433
  0
VERTEX
  8
LAYER_1
 10
113.0041
 20
313.1966
  0
SEQEND
  0
POLYLINE
  8
LAYER_1
 40
0.0847
 41
0.0847
 66
1
 10
0
 20
0
 30
0
  0
VERTEX
  8
LAYER_1
 10
113.3639
 20
312.4982
  0
VERTEX
  8
LAYER_1
 10
113.9142
 20
311.6515
  0
SEQEND
  0
POLYLINE
  8
LAYER_1
 40
0.0847
 41
0.0847
 66
1
 10
0
 20
0
 30
0
  0
VERTEX
  8
LAYER_1
 10
114.3799
 20
311.1011
  0
VERTEX
  8
LAYER_1
 10
115.1208
 20
310.3392
  0
SEQEND
  0
POLYLINE
  8
LAYER_1
 40
0.0847
 41
0.0847
 66
1
 10
0
 20
0
 30
0
  0
VERTEX
  8
LAYER_1
 10
115.9674
 20
309.7465
  0
VERTEX
  8
LAYER_1
 10
116.4754
 20
309.3866
  0
SEQEND
  0
POLYLINE
  8
LAYER_1
 40
0.0847
 41
0.0847
 66
1
 10
0
 20
0
 30
0
  0
VERTEX
  8
LAYER_1
 10
117.3221
 20
309.0268
  0
VERTEX
  8
LAYER_1
 10
117.9783
 20
308.7305
  0
SEQEND
  0
POLYLINE
  8
LAYER_1
 40
0.0847
 41
0.0847
 66
1
 10
0
 20
0
 30
0
  0
VERTEX
  8
LAYER_1
 10
118.8249
 20
308.5611
  0
VERTEX
  8
LAYER_1
 10
119.5869
 20
308.3918
  0
SEQEND
  0
POLYLINE
  8
LAYER_1
 40
0.0847
 41
0.0847
 66
1
 10
0
 20
0
 30
0
  0
VERTEX
  8
LAYER_1
 10
120.4336
 20
308.3918
  0
VERTEX
  8
LAYER_1
 10
121.2379
 20
308.3706
  0
SEQEND
  0
POLYLINE
  8
LAYER_1
 40
0.0847
 41
0.0847
 66
1
 10
0
 20
0
 30
0
  0
VERTEX
  8
LAYER_1
 10
122.0846
 20
308.5188
  0
VERTEX
  8
LAYER_1
 10
122.8466
 20
308.667
  0
SEQEND
  0
POLYLINE
  8
LAYER_1
 40
0.0847
 41
0.0847
 66
1
 10
0
 20
0
 30
0
  0
VERTEX
  8
LAYER_1
 10
123.6932
 20
309.0056
  0
VERTEX
  8
LAYER_1
 10
124.3706
 20
309.302
  0
SEQEND
  0
POLYLINE
  8
LAYER_1
 40
0.0847
 41
0.0847
 66
1
 10
0
 20
0
 30
0
  0
VERTEX
  8
LAYER_1
 10
125.2172
 20
309.8523
  0
VERTEX
  8
LAYER_1
 10
125.7464
 20
310.2122
  0
SEQEND
  0
POLYLINE
  8
LAYER_1
 40
0.0847
 41
0.0847
 66
1
 10
0
 20
0
 30
0
  0
VERTEX
  8
LAYER_1
 10
126.5931
 20
311.0588
  0
VERTEX
  8
LAYER_1
 10
126.9106
 20
311.3763
  0
VERTEX
  8
LAYER_1
 10
127.1857
 20
311.7996
  0
SEQEND
  0
POLYLINE
  8
LAYER_1
 40
0.0847
 41
0.0847
 66
1
 10
0
 20
0
 30
0
  0
VERTEX
  8
LAYER_1
 10
127.7361
 20
312.6463
  0
VERTEX
  8
LAYER_1
 10
127.8207
 20
312.7521
  0
VERTEX
  8
LAYER_1
 10
127.9901
 20
313.1755
  0
SEQEND
  0
POLYLINE
  8
LAYER_1
 40
0.0847
 41
0.0847
 66
1
 10
0
 20
0
 30
0
  0
VERTEX
  8
LAYER_1
 10
128.3287
 20
314.0222
  0
VERTEX
  8
LAYER_1
 10
128.4346
 20
314.2761
  0
VERTEX
  8
LAYER_1
 10
128.4981
 20
314.6995
  0
SEQEND
  0
POLYLINE
  8
LAYER_1
 40
0.0847
 41
0.0847
 66
1
 10
0
 20
0
 30
0
  0
VERTEX
  8
LAYER_1
 10
128.6674
 20
315.5462
  0
VERTEX
  8
LAYER_1
 10
128.7309
 20
315.8848
  0
VERTEX
  8
LAYER_1
 10
128.7309
 20
316.3081
  0
SEQEND
  0
POLYLINE
  8
LAYER_1
 40
0.0847
 41
0.0847
 66
1
 10
0
 20
0
 30
0
  0
VERTEX
  8
LAYER_1
 10
128.7521
 20
316.5833
  0
SEQEND
  0
POLYLINE
  8
LAYER_1
 40
0.1693
 41
0.1693
 66
1
 10
0
 20
0
 30
0
  0
VERTEX
  8
LAYER_1
 10
104.0083
 20
333.5802
 42
0.4239596651
  0
VERTEX
  8
LAYER_1
 10
103.5214
 20
333.0933
  0
SEQEND
  0
POLYLINE
  8
LAYER_1
 40
0.1693
 41
0.1693
 66
1
 10
0
 20
0
 30
0
  0
VERTEX
  8
LAYER_1
 10
104.0294
 20
333.5802
  0
VERTEX
  8
LAYER_1
 10
137.0071
 20
333.5802
  0
SEQEND
  0
POLYLINE
  8
LAYER_1
 40
0.1693
 41
0.1693
 66
1
 10
0
 20
0
 30
0
  0
VERTEX
  8
LAYER_1
 10
137.5151
 20
333.0933
 42
0.3991226623
  0
VERTEX
  8
LAYER_1
 10
137.0071
 20
333.5802
  0
VERTEX
  8
LAYER_1
 10
136.9859
 20
333.5802
  0
SEQEND
  0
POLYLINE
  8
LAYER_1
 40
0.1693
 41
0.1693
 66
1
 10
0
 20
0
 30
0
  0
VERTEX
  8
LAYER_1
 10
103.5214
 20
300.0945
  0
VERTEX
  8
LAYER_1
 10
103.5214
 20
333.0722
  0
SEQEND
  0
POLYLINE
  8
LAYER_1
 40
0.1693
 41
0.1693
 66
1
 10
0
 20
0
 30
0
  0
VERTEX
  8
LAYER_1
 10
103.5214
 20
300.1157
  0
VERTEX
  8
LAYER_1
 10
103.5214
 20
300.0945
 42
0.3990957801
  0
VERTEX
  8
LAYER_1
 10
104.0082
 20
299.5865
  0
SEQEND
  0
POLYLINE
  8
LAYER_1
 40
0.1693
 41
0.1693
 66
1
 10
0
 20
0
 30
0
  0
VERTEX
  8
LAYER_1
 10
104.0294
 20
299.5865
  0
VERTEX
  8
LAYER_1
 10
137.0071
 20
299.5865
  0
SEQEND
  0
POLYLINE
  8
LAYER_1
 40
0.1693
 41
0.1693
 66
1
 10
0
 20
0
 30
0
  0
VERTEX
  8
LAYER_1
 10
137.5151
 20
300.0945
  0
VERTEX
  8
LAYER_1
 10
137.5151
 20
333.0722
  0
SEQEND
  0
POLYLINE
  8
LAYER_1
 40
0.1693
 41
0.1693
 66
1
 10
0
 20
0
 30
0
  0
VERTEX
  8
LAYER_1
 10
136.9859
 20
299.5865
  0
VERTEX
  8
LAYER_1
 10
137.0071
 20
299.5865
 42
0.4062478787
  0
VERTEX
  8
LAYER_1
 10
137.5151
 20
300.0945
  0
VERTEX
  8
LAYER_1
 10
137.5151
 20
300.1157
  0
SEQEND
  0
TEXT
  8
LAYER_1
 10
102.1667
 20
205.1035
 11
102.1667
 21
205.1035
 40
2.4232
 41
0.5
  1
JORGERÉ╗ örÉàïÓï´ âNâìü[âÇâüâbâL100å@
  0
POLYLINE
  8
LAYER_1
 40
0.1693
 41
0.1693
 66
1
 10
0
 20
0
 30
0
  0
VERTEX
  8
LAYER_1
 10
101.4259
 20
207.6385
  0
VERTEX
  8
LAYER_1
 10
143.4479
 20
207.6385
  0
SEQEND
  0
POLYLINE
  8
LAYER_1
 40
0.1693
 41
0.1693
 66
1
 10
0
 20
0
 30
0
  0
VERTEX
  8
LAYER_1
 10
143.4479
 20
204.146
  0
VERTEX
  8
LAYER_1
 10
143.4479
 20
207.6385
  0
SEQEND
  0
POLYLINE
  8
LAYER_1
 40
0.1693
 41
0.1693
 66
1
 10
0
 20
0
 30
0
  0
VERTEX
  8
LAYER_1
 10
101.4259
 20
204.146
  0
VERTEX
  8
LAYER_1
 10
143.4479
 20
204.146
  0
SEQEND
  0
POLYLINE
  8
LAYER_1
 40
0.1693
 41
0.1693
 66
1
 10
0
 20
0
 30
0
  0
VERTEX
  8
LAYER_1
 10
101.4259
 20
204.146
  0
VERTEX
  8
LAYER_1
 10
101.4259
 20
207.6385
  0
SEQEND
  0
TEXT
  8
LAYER_1
 10
146.21
 20
205.1035
 11
146.21
 21
205.1035
 40
2.4232
 41
0.5
  1
S=1/2
  0
POLYLINE
  8
LAYER_1
 40
0.0847
 41
0.0847
 66
1
 10
0
 20
0
 30
0
  0
VERTEX
  8
LAYER_1
 10
77.1478
 20
218.1583
  0
VERTEX
  8
LAYER_1
 10
77.1478
 20
268.1328
  0
SEQEND
  0
POLYLINE
  8
LAYER_1
 40
0.1693
 41
0.1693
 66
1
 10
0
 20
0
 30
0
  0
VERTEX
  8
LAYER_1
 10
77.1478
 20
218.1583
  0
VERTEX
  8
LAYER_1
 10
76.3646
 20
221.0582
  0
SEQEND
  0
POLYLINE
  8
LAYER_1
 40
0.1693
 41
0.1693
 66
1
 10
0
 20
0
 30
0
  0
VERTEX
  8
LAYER_1
 10
77.1478
 20
218.1583
  0
VERTEX
  8
LAYER_1
 10
77.9098
 20
221.0582
  0
SEQEND
  0
POLYLINE
  8
LAYER_1
 40
0.1693
 41
0.1693
 66
1
 10
0
 20
0
 30
0
  0
VERTEX
  8
LAYER_1
 10
77.1478
 20
268.1328
  0
VERTEX
  8
LAYER_1
 10
77.9098
 20
265.233
  0
SEQEND
  0
POLYLINE
  8
LAYER_1
 40
0.1693
 41
0.1693
 66
1
 10
0
 20
0
 30
0
  0
VERTEX
  8
LAYER_1
 10
77.1478
 20
268.1328
  0
VERTEX
  8
LAYER_1
 10
76.3646
 20
265.233
  0
SEQEND
  0
POLYLINE
  8
LAYER_1
 40
0.0847
 41
0.0847
 66
1
 10
0
 20
0
 30
0
  0
VERTEX
  8
LAYER_1
 10
77.1478
 20
218.1583
  0
VERTEX
  8
LAYER_1
 10
105.1513
 20
218.1583
  0
SEQEND
  0
POLYLINE
  8
LAYER_1
 40
0.0847
 41
0.0847
 66
1
 10
0
 20
0
 30
0
  0
VERTEX
  8
LAYER_1
 10
77.1478
 20
268.1328
  0
VERTEX
  8
LAYER_1
 10
105.1513
 20
268.1328
  0
SEQEND
  0
TEXT
  8
LAYER_1
 10
76.4434
 20
241.2724
 11
76.4434
 21
241.2724
 40
3.0419
 41
0.5
 50
89.99999999
  1
100
  0
POLYLINE
  8
LAYER_1
 40
0.0847
 41
0.0847
 66
1
 10
0
 20
0
 30
0
  0
VERTEX
  8
LAYER_1
 10
77.1478
 20
299.5865
  0
VERTEX
  8
LAYER_1
 10
77.1478
 20
333.5802
  0
SEQEND
  0
POLYLINE
  8
LAYER_1
 40
0.1693
 41
0.1693
 66
1
 10
0
 20
0
 30
0
  0
VERTEX
  8
LAYER_1
 10
77.1478
 20
333.5802
  0
VERTEX
  8
LAYER_1
 10
77.9098
 20
330.6803
  0
SEQEND
  0
POLYLINE
  8
LAYER_1
 40
0.1693
 41
0.1693
 66
1
 10
0
 20
0
 30
0
  0
VERTEX
  8
LAYER_1
 10
77.1478
 20
333.5802
  0
VERTEX
  8
LAYER_1
 10
76.3646
 20
330.6803
  0
SEQEND
  0
POLYLINE
  8
LAYER_1
 40
0.1693
 41
0.1693
 66
1
 10
0
 20
0
 30
0
  0
VERTEX
  8
LAYER_1
 10
77.1478
 20
299.5865
  0
VERTEX
  8
LAYER_1
 10
76.3646
 20
302.4863
  0
SEQEND
  0
POLYLINE
  8
LAYER_1
 40
0.1693
 41
0.1693
 66
1
 10
0
 20
0
 30
0
  0
VERTEX
  8
LAYER_1
 10
77.1478
 20
299.5865
  0
VERTEX
  8
LAYER_1
 10
77.9098
 20
302.4863
  0
SEQEND
  0
TEXT
  8
LAYER_1
 10
76.4434
 20
315.3344
 11
76.4434
 21
315.3344
 40
3.0419
 41
0.5
 50
89.99999999
  1
68
  0
POLYLINE
  8
LAYER_1
 40
0.0847
 41
0.0847
 66
1
 10
0
 20
0
 30
0
  0
VERTEX
  8
LAYER_1
 10
77.1478
 20
333.5802
  0
VERTEX
  8
LAYER_1
 10
101.0449
 20
333.5802
  0
SEQEND
  0
POLYLINE
  8
LAYER_1
 40
0.0847
 41
0.0847
 66
1
 10
0
 20
0
 30
0
  0
VERTEX
  8
LAYER_1
 10
77.1478
 20
299.5865
  0
VERTEX
  8
LAYER_1
 10
101.0449
 20
299.5865
  0
SEQEND
  0
POLYLINE
  8
LAYER_1
 40
0.0847
 41
0.0847
 66
1
 10
0
 20
0
 30
0
  0
VERTEX
  8
LAYER_1
 10
77.1478
 20
268.1328
  0
VERTEX
  8
LAYER_1
 10
103.7966
 20
268.1328
  0
SEQEND
  0
TEXT
  8
LAYER_1
 10
185.3094
 20
324.3727
 11
185.3094
 21
324.3727
 40
2.4232
 41
0.5
  1
âXâ`âìü[âïâpâbâLâô%%c60
  0
POLYLINE
  8
LAYER_1
 40
0.1693
 41
0.1693
 66
1
 10
0
 20
0
 30
0
  0
VERTEX
  8
LAYER_1
 10
183.5738
 20
323.3355
  0
VERTEX
  8
LAYER_1
 10
183.5738
 20
326.828
  0
VERTEX
  8
LAYER_1
 10
209.0584
 20
326.828
  0
SEQEND
  0
POLYLINE
  8
LAYER_1
 40
0.1693
 41
0.1693
 66
1
 10
0
 20
0
 30
0
  0
VERTEX
  8
LAYER_1
 10
209.0584
 20
323.3355
  0
VERTEX
  8
LAYER_1
 10
209.0584
 20
326.828
  0
SEQEND
  0
POLYLINE
  8
LAYER_1
 40
0.1693
 41
0.1693
 66
1
 10
0
 20
0
 30
0
  0
VERTEX
  8
LAYER_1
 10
183.5738
 20
323.3355
  0
VERTEX
  8
LAYER_1
 10
209.0584
 20
323.3355
  0
SEQEND
  0
POLYLINE
  8
LAYER_1
 40
0.0847
 41
0.0847
 66
1
 10
0
 20
0
 30
0
  0
VERTEX
  8
LAYER_1
 10
134.9963
 20
264.7462
  0
VERTEX
  8
LAYER_1
 10
183.5737
 20
325.0712
  0
SEQEND
  0
POLYLINE
  8
LAYER_1
 40
0.1693
 41
0.1693
 66
1
 10
0
 20
0
 30
0
  0
VERTEX
  8
LAYER_1
 10
185.0554
 20
202.9395
  0
VERTEX
  8
LAYER_1
 10
207.5556
 20
202.9395
  0
SEQEND
  0
POLYLINE
  8
LAYER_1
 40
0.1693
 41
0.1693
 66
1
 10
0
 20
0
 30
0
  0
VERTEX
  8
LAYER_1
 10
185.0554
 20
199.447
  0
VERTEX
  8
LAYER_1
 10
185.0554
 20
202.9395
  0
SEQEND
  0
POLYLINE
  8
LAYER_1
 40
0.1693
 41
0.1693
 66
1
 10
0
 20
0
 30
0
  0
VERTEX
  8
LAYER_1
 10
185.0554
 20
199.447
  0
VERTEX
  8
LAYER_1
 10
207.5556
 20
199.447
  0
VERTEX
  8
LAYER_1
 10
207.5556
 20
202.9395
  0
SEQEND
  0
POLYLINE
  8
LAYER_1
 40
0.1693
 41
0.1693
 66
1
 10
0
 20
0
 30
0
  0
VERTEX
  8
LAYER_1
 10
211.2809
 20
221.926
 42
0.4144877027
  0
VERTEX
  8
LAYER_1
 10
196.2949
 20
236.8908
 42
0.4147803951
  0
VERTEX
  8
LAYER_1
 10
181.3301
 20
221.926
 42
0.4144870883
  0
VERTEX
  8
LAYER_1
 10
196.2949
 20
206.94
 42
0.4141951628
  0
VERTEX
  8
LAYER_1
 10
211.2809
 20
221.926
  0
SEQEND
  0
POLYLINE
  8
LAYER_1
 40
0.1693
 41
0.1693
 66
1
 10
0
 20
0
 30
0
  0
VERTEX
  8
LAYER_1
 10
206.2856
 20
221.926
 42
0.4135737113
  0
VERTEX
  8
LAYER_1
 10
196.2949
 20
231.8955
 42
0.4140119981
  0
VERTEX
  8
LAYER_1
 10
186.3254
 20
221.926
 42
0.4135725684
  0
VERTEX
  8
LAYER_1
 10
196.2949
 20
211.9353
 42
0.4131360039
  0
VERTEX
  8
LAYER_1
 10
206.2856
 20
221.926
  0
SEQEND
  0
POLYLINE
  8
LAYER_1
 40
0.0847
 41
0.0847
 66
1
 10
0
 20
0
 30
0
  0
VERTEX
  8
LAYER_1
 10
206.7936
 20
221.926
 42
0.4147321926
  0
VERTEX
  8
LAYER_1
 10
196.2949
 20
232.4035
 42
0.4151509785
  0
VERTEX
  8
LAYER_1
 10
185.8174
 20
221.926
 42
0.4147323017
  0
VERTEX
  8
LAYER_1
 10
196.2949
 20
211.4273
 42
0.4143150791
  0
VERTEX
  8
LAYER_1
 10
206.7936
 20
221.926
  0
SEQEND
  0
POLYLINE
  8
LAYER_1
 40
0.1693
 41
0.1693
 66
1
 10
0
 20
0
 30
0
  0
VERTEX
  8
LAYER_1
 10
185.0554
 20
261.1902
  0
VERTEX
  8
LAYER_1
 10
207.5556
 20
261.1902
  0
SEQEND
  0
POLYLINE
  8
LAYER_1
 40
0.1693
 41
0.1693
 66
1
 10
0
 20
0
 30
0
  0
VERTEX
  8
LAYER_1
 10
185.0554
 20
257.6976
  0
VERTEX
  8
LAYER_1
 10
185.0554
 20
261.1902
  0
SEQEND
  0
POLYLINE
  8
LAYER_1
 40
0.1693
 41
0.1693
 66
1
 10
0
 20
0
 30
0
  0
VERTEX
  8
LAYER_1
 10
185.0554
 20
257.6976
  0
VERTEX
  8
LAYER_1
 10
207.5556
 20
257.6976
  0
VERTEX
  8
LAYER_1
 10
207.5556
 20
261.1902
  0
SEQEND
  0
POLYLINE
  8
LAYER_1
 40
0.1693
 41
0.1693
 66
1
 10
0
 20
0
 30
0
  0
VERTEX
  8
LAYER_1
 10
211.7889
 20
280.1978
 42
0.4142179127
  0
VERTEX
  8
LAYER_1
 10
196.2949
 20
295.6706
 42
0.414500806
  0
VERTEX
  8
LAYER_1
 10
180.8221
 20
280.1978
 42
0.4142165636
  0
VERTEX
  8
LAYER_1
 10
196.2949
 20
264.7038
 42
0.4139343881
  0
VERTEX
  8
LAYER_1
 10
211.7889
 20
280.1978
  0
SEQEND
  0
POLYLINE
  8
LAYER_1
 40
0.0847
 41
0.0847
 66
1
 10
0
 20
0
 30
0
  0
VERTEX
  8
LAYER_1
 10
210.2861
 20
280.1978
 42
0.4144597316
  0
VERTEX
  8
LAYER_1
 10
196.2949
 20
294.1678
 42
0.4147729365
  0
VERTEX
  8
LAYER_1
 10
182.3249
 20
280.1978
 42
0.4144579131
  0
VERTEX
  8
LAYER_1
 10
196.2949
 20
266.2067
 42
0.4141455886
  0
VERTEX
  8
LAYER_1
 10
210.2861
 20
280.1978
  0
SEQEND
  0
POLYLINE
  8
LAYER_1
 40
0.1693
 41
0.1693
 66
1
 10
0
 20
0
 30
0
  0
VERTEX
  8
LAYER_1
 10
204.2324
 20
272.9165
  0
VERTEX
  8
LAYER_1
 10
203.7879
 20
273.1705
  0
SEQEND
  0
POLYLINE
  8
LAYER_1
 40
0.1693
 41
0.1693
 66
1
 10
0
 20
0
 30
0
  0
VERTEX
  8
LAYER_1
 10
203.5551
 20
272.2392
  0
VERTEX
  8
LAYER_1
 10
203.3011
 20
272.6837
  0
SEQEND
  0
POLYLINE
  8
LAYER_1
 40
0.1693
 41
0.1693
 66
1
 10
0
 20
0
 30
0
  0
VERTEX
  8
LAYER_1
 10
203.7879
 20
273.1705
 42
0.09781464776
  0
VERTEX
  8
LAYER_1
 10
203.3011
 20
272.6837
  0
SEQEND
  0
POLYLINE
  8
LAYER_1
 40
0.1693
 41
0.1693
 66
1
 10
0
 20
0
 30
0
  0
VERTEX
  8
LAYER_1
 10
189.0559
 20
288.093
  0
VERTEX
  8
LAYER_1
 10
189.3099
 20
287.6485
  0
SEQEND
  0
POLYLINE
  8
LAYER_1
 40
0.1693
 41
0.1693
 66
1
 10
0
 20
0
 30
0
  0
VERTEX
  8
LAYER_1
 10
188.3786
 20
287.4157
  0
VERTEX
  8
LAYER_1
 10
188.8231
 20
287.1617
  0
SEQEND
  0
POLYLINE
  8
LAYER_1
 40
0.1693
 41
0.1693
 66
1
 10
0
 20
0
 30
0
  0
VERTEX
  8
LAYER_1
 10
188.8019
 20
287.1617
 42
0.06249759182
  0
VERTEX
  8
LAYER_1
 10
189.3099
 20
287.6697
  0
SEQEND
  0
POLYLINE
  8
LAYER_1
 40
0.1693
 41
0.1693
 66
1
 10
0
 20
0
 30
0
  0
VERTEX
  8
LAYER_1
 10
189.0559
 20
272.2392
  0
VERTEX
  8
LAYER_1
 10
189.3099
 20
272.6837
  0
SEQEND
  0
POLYLINE
  8
LAYER_1
 40
0.1693
 41
0.1693
 66
1
 10
0
 20
0
 30
0
  0
VERTEX
  8
LAYER_1
 10
188.3786
 20
272.9165
  0
VERTEX
  8
LAYER_1
 10
188.8231
 20
273.1705
  0
SEQEND
  0
POLYLINE
  8
LAYER_1
 40
0.1693
 41
0.1693
 66
1
 10
0
 20
0
 30
0
  0
VERTEX
  8
LAYER_1
 10
189.2887
 20
272.7049
 42
0.09782340824
  0
VERTEX
  8
LAYER_1
 10
188.8019
 20
273.1917
  0
SEQEND
  0
POLYLINE
  8
LAYER_1
 40
0.1693
 41
0.1693
 66
1
 10
0
 20
0
 30
0
  0
VERTEX
  8
LAYER_1
 10
204.2324
 20
287.4157
  0
VERTEX
  8
LAYER_1
 10
203.7879
 20
287.1617
  0
SEQEND
  0
POLYLINE
  8
LAYER_1
 40
0.1693
 41
0.1693
 66
1
 10
0
 20
0
 30
0
  0
VERTEX
  8
LAYER_1
 10
203.5551
 20
288.093
  0
VERTEX
  8
LAYER_1
 10
203.3011
 20
287.6485
  0
SEQEND
  0
POLYLINE
  8
LAYER_1
 40
0.1693
 41
0.1693
 66
1
 10
0
 20
0
 30
0
  0
VERTEX
  8
LAYER_1
 10
203.2799
 20
287.6697
 42
0.09782306039
  0
VERTEX
  8
LAYER_1
 10
203.7667
 20
287.1829
  0
SEQEND
  0
POLYLINE
  8
LAYER_1
 40
0.1693
 41
0.1693
 66
1
 10
0
 20
0
 30
0
  0
VERTEX
  8
LAYER_1
 10
189.0347
 20
272.2604
 42
0.08050690718
  0
VERTEX
  8
LAYER_1
 10
191.9475
 20
270.3507
 42
0.1047678048
  0
VERTEX
  8
LAYER_1
 10
196.3161
 20
269.424
 42
0.08186730313
  0
VERTEX
  8
LAYER_1
 10
199.7322
 20
269.9897
 42
0.1045840364
  0
VERTEX
  8
LAYER_1
 10
203.5551
 20
272.2604
  0
SEQEND
  0
POLYLINE
  8
LAYER_1
 40
0.1693
 41
0.1693
 66
1
 10
0
 20
0
 30
0
  0
VERTEX
  8
LAYER_1
 10
204.2324
 20
272.9377
 42
0.08188282514
  0
VERTEX
  8
LAYER_1
 10
206.142
 20
275.8381
 42
0.1044763869
  0
VERTEX
  8
LAYER_1
 10
207.0687
 20
280.1767
 42
0.1858254174
  0
VERTEX
  8
LAYER_1
 10
204.2324
 20
287.458
  0
SEQEND
  0
POLYLINE
  8
LAYER_1
 40
0.1693
 41
0.1693
 66
1
 10
0
 20
0
 30
0
  0
VERTEX
  8
LAYER_1
 10
188.3786
 20
287.4368
 42
0.08304645327
  0
VERTEX
  8
LAYER_1
 10
186.4776
 20
284.5346
 42
0.1039187701
  0
VERTEX
  8
LAYER_1
 10
185.5634
 20
280.1767
 42
0.1681412983
  0
VERTEX
  8
LAYER_1
 10
187.9115
 20
273.4635
 42
0.01590173566
  0
VERTEX
  8
LAYER_1
 10
188.3574
 20
272.9377
  0
SEQEND
  0
POLYLINE
  8
LAYER_1
 40
0.1693
 41
0.1693
 66
1
 10
0
 20
0
 30
0
  0
VERTEX
  8
LAYER_1
 10
203.5551
 20
288.1353
 42
0.1834746827
  0
VERTEX
  8
LAYER_1
 10
196.3161
 20
290.9293
 42
0.1207966543
  0
VERTEX
  8
LAYER_1
 10
191.2887
 20
289.6919
 42
0.06529119728
  0
VERTEX
  8
LAYER_1
 10
189.0559
 20
288.1142
  0
SEQEND
  0
POLYLINE
  8
LAYER_1
 40
0.0847
 41
0.0847
 66
1
 10
0
 20
0
 30
0
  0
VERTEX
  8
LAYER_1
 10
196.3161
 20
240.468
  0
VERTEX
  8
LAYER_1
 10
196.3161
 20
243.4737
  0
SEQEND
  0
POLYLINE
  8
LAYER_1
 40
0.1693
 41
0.1693
 66
1
 10
0
 20
0
 30
0
  0
VERTEX
  8
LAYER_1
 10
184.9496
 20
240.468
  0
VERTEX
  8
LAYER_1
 10
207.6826
 20
240.468
  0
SEQEND
  0
POLYLINE
  8
LAYER_1
 40
0.1693
 41
0.1693
 66
1
 10
0
 20
0
 30
0
  0
VERTEX
  8
LAYER_1
 10
181.3089
 20
244.9765
  0
VERTEX
  8
LAYER_1
 10
211.3021
 20
244.9765
  0
SEQEND
  0
POLYLINE
  8
LAYER_1
 40
0.0847
 41
0.0847
 66
1
 10
0
 20
0
 30
0
  0
VERTEX
  8
LAYER_1
 10
206.3068
 20
240.468
  0
VERTEX
  8
LAYER_1
 10
206.3068
 20
241.0183
  0
SEQEND
  0
POLYLINE
  8
LAYER_1
 40
0.0847
 41
0.0847
 66
1
 10
0
 20
0
 30
0
  0
VERTEX
  8
LAYER_1
 10
206.3068
 20
242.1402
  0
VERTEX
  8
LAYER_1
 10
206.3068
 20
243.2831
  0
SEQEND
  0
POLYLINE
  8
LAYER_1
 40
0.0847
 41
0.0847
 66
1
 10
0
 20
0
 30
0
  0
VERTEX
  8
LAYER_1
 10
206.3068
 20
244.405
  0
VERTEX
  8
LAYER_1
 10
206.3068
 20
244.9765
  0
SEQEND
  0
POLYLINE
  8
LAYER_1
 40
0.0847
 41
0.0847
 66
1
 10
0
 20
0
 30
0
  0
VERTEX
  8
LAYER_1
 10
186.3043
 20
240.468
  0
VERTEX
  8
LAYER_1
 10
186.3043
 20
241.0183
  0
SEQEND
  0
POLYLINE
  8
LAYER_1
 40
0.0847
 41
0.0847
 66
1
 10
0
 20
0
 30
0
  0
VERTEX
  8
LAYER_1
 10
186.3043
 20
242.1401
  0
VERTEX
  8
LAYER_1
 10
186.3043
 20
243.2831
  0
SEQEND
  0
POLYLINE
  8
LAYER_1
 40
0.0847
 41
0.0847
 66
1
 10
0
 20
0
 30
0
  0
VERTEX
  8
LAYER_1
 10
186.3043
 20
244.405
  0
VERTEX
  8
LAYER_1
 10
186.3043
 20
244.9765
  0
SEQEND
  0
POLYLINE
  8
LAYER_1
 40
0.0847
 41
0.0847
 66
1
 10
0
 20
0
 30
0
  0
VERTEX
  8
LAYER_1
 10
181.3089
 20
252.4695
  0
VERTEX
  8
LAYER_1
 10
211.3021
 20
252.4695
  0
SEQEND
  0
POLYLINE
  8
LAYER_1
 40
0.1693
 41
0.1693
 66
1
 10
0
 20
0
 30
0
  0
VERTEX
  8
LAYER_1
 10
211.3021
 20
252.4695
  0
VERTEX
  8
LAYER_1
 10
209.8628
 20
252.0673
  0
SEQEND
  0
POLYLINE
  8
LAYER_1
 40
0.1693
 41
0.1693
 66
1
 10
0
 20
0
 30
0
  0
VERTEX
  8
LAYER_1
 10
211.3021
 20
252.4695
  0
VERTEX
  8
LAYER_1
 10
209.8628
 20
252.8505
  0
SEQEND
  0
POLYLINE
  8
LAYER_1
 40
0.1693
 41
0.1693
 66
1
 10
0
 20
0
 30
0
  0
VERTEX
  8
LAYER_1
 10
181.3089
 20
252.4695
  0
VERTEX
  8
LAYER_1
 10
182.7694
 20
252.8505
  0
SEQEND
  0
POLYLINE
  8
LAYER_1
 40
0.1693
 41
0.1693
 66
1
 10
0
 20
0
 30
0
  0
VERTEX
  8
LAYER_1
 10
181.3089
 20
252.4695
  0
VERTEX
  8
LAYER_1
 10
182.7694
 20
252.0673
  0
SEQEND
  0
POLYLINE
  8
LAYER_1
 40
0.0847
 41
0.0847
 66
1
 10
0
 20
0
 30
0
  0
VERTEX
  8
LAYER_1
 10
211.3021
 20
244.9765
  0
VERTEX
  8
LAYER_1
 10
211.3021
 20
252.4695
  0
SEQEND
  0
POLYLINE
  8
LAYER_1
 40
0.0847
 41
0.0847
 66
1
 10
0
 20
0
 30
0
  0
VERTEX
  8
LAYER_1
 10
181.3089
 20
244.9765
  0
VERTEX
  8
LAYER_1
 10
181.3089
 20
252.4695
  0
SEQEND
  0
POLYLINE
  8
LAYER_1
 40
0.0847
 41
0.0847
 66
1
 10
0
 20
0
 30
0
  0
VERTEX
  8
LAYER_1
 10
196.3161
 20
204.8868
  0
VERTEX
  8
LAYER_1
 10
196.3161
 20
207.2152
  0
SEQEND
  0
POLYLINE
  8
LAYER_1
 40
0.0847
 41
0.0847
 66
1
 10
0
 20
0
 30
0
  0
VERTEX
  8
LAYER_1
 10
196.3161
 20
208.1465
  0
VERTEX
  8
LAYER_1
 10
196.3161
 20
209.099
  0
SEQEND
  0
POLYLINE
  8
LAYER_1
 40
0.0847
 41
0.0847
 66
1
 10
0
 20
0
 30
0
  0
VERTEX
  8
LAYER_1
 10
196.3161
 20
210.0303
  0
VERTEX
  8
LAYER_1
 10
196.3161
 20
214.7082
  0
SEQEND
  0
POLYLINE
  8
LAYER_1
 40
0.0847
 41
0.0847
 66
1
 10
0
 20
0
 30
0
  0
VERTEX
  8
LAYER_1
 10
196.3161
 20
215.6395
  0
VERTEX
  8
LAYER_1
 10
196.3161
 20
216.5708
  0
SEQEND
  0
POLYLINE
  8
LAYER_1
 40
0.0847
 41
0.0847
 66
1
 10
0
 20
0
 30
0
  0
VERTEX
  8
LAYER_1
 10
196.3161
 20
217.5233
  0
VERTEX
  8
LAYER_1
 10
196.3161
 20
222.2012
  0
SEQEND
  0
POLYLINE
  8
LAYER_1
 40
0.0847
 41
0.0847
 66
1
 10
0
 20
0
 30
0
  0
VERTEX
  8
LAYER_1
 10
196.3161
 20
223.1325
  0
VERTEX
  8
LAYER_1
 10
196.3161
 20
224.0638
  0
SEQEND
  0
POLYLINE
  8
LAYER_1
 40
0.0847
 41
0.0847
 66
1
 10
0
 20
0
 30
0
  0
VERTEX
  8
LAYER_1
 10
196.3161
 20
224.9951
  0
VERTEX
  8
LAYER_1
 10
196.3161
 20
229.6942
  0
SEQEND
  0
POLYLINE
  8
LAYER_1
 40
0.0847
 41
0.0847
 66
1
 10
0
 20
0
 30
0
  0
VERTEX
  8
LAYER_1
 10
196.3161
 20
230.6255
  0
VERTEX
  8
LAYER_1
 10
196.3161
 20
231.5568
  0
SEQEND
  0
POLYLINE
  8
LAYER_1
 40
0.0847
 41
0.0847
 66
1
 10
0
 20
0
 30
0
  0
VERTEX
  8
LAYER_1
 10
196.3161
 20
232.4881
  0
VERTEX
  8
LAYER_1
 10
196.3161
 20
237.166
  0
SEQEND
  0
POLYLINE
  8
LAYER_1
 40
0.0847
 41
0.0847
 66
1
 10
0
 20
0
 30
0
  0
VERTEX
  8
LAYER_1
 10
196.3161
 20
238.1185
  0
VERTEX
  8
LAYER_1
 10
196.3161
 20
239.0498
  0
SEQEND
  0
POLYLINE
  8
LAYER_1
 40
0.0847
 41
0.0847
 66
1
 10
0
 20
0
 30
0
  0
VERTEX
  8
LAYER_1
 10
196.3161
 20
239.9811
  0
VERTEX
  8
LAYER_1
 10
196.3161
 20
244.659
  0
SEQEND
  0
POLYLINE
  8
LAYER_1
 40
0.0847
 41
0.0847
 66
1
 10
0
 20
0
 30
0
  0
VERTEX
  8
LAYER_1
 10
196.3161
 20
245.5903
  0
VERTEX
  8
LAYER_1
 10
196.3161
 20
246.5428
  0
SEQEND
  0
POLYLINE
  8
LAYER_1
 40
0.0847
 41
0.0847
 66
1
 10
0
 20
0
 30
0
  0
VERTEX
  8
LAYER_1
 10
196.3161
 20
247.4742
  0
VERTEX
  8
LAYER_1
 10
196.3161
 20
249.8236
  0
SEQEND
  0
TEXT
  8
LAYER_1
 10
190.3048
 20
200.4843
 11
190.3048
 21
200.4843
 40
2.0536
 41
0.5
  1
ì└òté½âiâbâg
  0
TEXT
  8
LAYER_1
 10
190.3048
 20
258.7349
 11
190.3048
 21
258.7349
 40
2.0536
 41
0.5
  1
Ä¸ÄëâpâbâLâô
  0
TEXT
  8
LAYER_1
 10
208.5504
 20
200.4048
 11
208.5504
 21
200.4048
 40
2.4232
 41
0.5
  1
S=1/2
  0
TEXT
  8
LAYER_1
 10
208.5504
 20
258.6553
 11
208.5504
 21
258.6553
 40
2.4232
 41
0.5
  1
S=1/2
  0
POLYLINE
  8
LAYER_1
 40
0.0847
 41
0.0847
 66
1
 10
0
 20
0
 30
0
  0
VERTEX
  8
LAYER_1
 10
190.5376
 20
233.3983
  0
VERTEX
  8
LAYER_1
 10
202.0734
 20
233.3983
  0
SEQEND
  0
POLYLINE
  8
LAYER_1
 40
0.0847
 41
0.0847
 66
1
 10
0
 20
0
 30
0
  0
VERTEX
  8
LAYER_1
 10
190.5164
 20
233.3983
 42
0.2611960132
  0
VERTEX
  8
LAYER_1
 10
189.2253
 20
232.6575
  0
SEQEND
  0
POLYLINE
  8
LAYER_1
 40
0.0847
 41
0.0847
 66
1
 10
0
 20
0
 30
0
  0
VERTEX
  8
LAYER_1
 10
183.4679
 20
222.6457
  0
VERTEX
  8
LAYER_1
 10
189.2464
 20
232.6363
  0
SEQEND
  0
POLYLINE
  8
LAYER_1
 40
0.0847
 41
0.0847
 66
1
 10
0
 20
0
 30
0
  0
VERTEX
  8
LAYER_1
 10
183.4468
 20
222.6668
 42
0.1270277087
  0
VERTEX
  8
LAYER_1
 10
183.2562
 20
221.9048
 42
0.1333015584
  0
VERTEX
  8
LAYER_1
 10
183.4468
 20
221.1852
  0
SEQEND
  0
POLYLINE
  8
LAYER_1
 40
0.0847
 41
0.0847
 66
1
 10
0
 20
0
 30
0
  0
VERTEX
  8
LAYER_1
 10
189.2464
 20
211.1733
  0
VERTEX
  8
LAYER_1
 10
183.4679
 20
221.1428
  0
SEQEND
  0
POLYLINE
  8
LAYER_1
 40
0.0847
 41
0.0847
 66
1
 10
0
 20
0
 30
0
  0
VERTEX
  8
LAYER_1
 10
189.2253
 20
211.1733
 42
0.233709627
  0
VERTEX
  8
LAYER_1
 10
190.2951
 20
210.4141
 42
0.0341613567
  0
VERTEX
  8
LAYER_1
 10
190.5164
 20
210.3902
  0
SEQEND
  0
POLYLINE
  8
LAYER_1
 40
0.0847
 41
0.0847
 66
1
 10
0
 20
0
 30
0
  0
VERTEX
  8
LAYER_1
 10
190.5376
 20
210.4325
  0
VERTEX
  8
LAYER_1
 10
202.0734
 20
210.4325
  0
SEQEND
  0
POLYLINE
  8
LAYER_1
 40
0.0847
 41
0.0847
 66
1
 10
0
 20
0
 30
0
  0
VERTEX
  8
LAYER_1
 10
202.0522
 20
210.3902
  0
VERTEX
  8
LAYER_1
 10
202.0734
 20
210.3902
 42
0.270590493
  0
VERTEX
  8
LAYER_1
 10
203.3646
 20
211.1522
  0
SEQEND
  0
POLYLINE
  8
LAYER_1
 40
0.0847
 41
0.0847
 66
1
 10
0
 20
0
 30
0
  0
VERTEX
  8
LAYER_1
 10
203.3857
 20
211.1733
  0
VERTEX
  8
LAYER_1
 10
209.1431
 20
221.1428
  0
SEQEND
  0
POLYLINE
  8
LAYER_1
 40
0.0847
 41
0.0847
 66
1
 10
0
 20
0
 30
0
  0
VERTEX
  8
LAYER_1
 10
209.1431
 20
221.164
 42
0.1236981785
  0
VERTEX
  8
LAYER_1
 10
209.3548
 20
221.9048
 42
0.1317265455
  0
VERTEX
  8
LAYER_1
 10
209.1431
 20
222.6668
  0
SEQEND
  0
POLYLINE
  8
LAYER_1
 40
0.0847
 41
0.0847
 66
1
 10
0
 20
0
 30
0
  0
VERTEX
  8
LAYER_1
 10
209.1431
 20
222.6457
  0
VERTEX
  8
LAYER_1
 10
203.3857
 20
232.6363
  0
SEQEND
  0
POLYLINE
  8
LAYER_1
 40
0.0847
 41
0.0847
 66
1
 10
0
 20
0
 30
0
  0
VERTEX
  8
LAYER_1
 10
203.3646
 20
232.6575
 42
0.2599555718
  0
VERTEX
  8
LAYER_1
 10
202.0734
 20
233.3983
  0
VERTEX
  8
LAYER_1
 10
202.0522
 20
233.3983
  0
SEQEND
  0
POLYLINE
  8
LAYER_1
 40
0.0847
 41
0.0847
 66
1
 10
0
 20
0
 30
0
  0
VERTEX
  8
LAYER_1
 10
173.0962
 20
221.9048
  0
VERTEX
  8
LAYER_1
 10
175.3611
 20
221.9048
  0
SEQEND
  0
POLYLINE
  8
LAYER_1
 40
0.0847
 41
0.0847
 66
1
 10
0
 20
0
 30
0
  0
VERTEX
  8
LAYER_1
 10
176.2712
 20
221.9048
  0
VERTEX
  8
LAYER_1
 10
177.1814
 20
221.9048
  0
SEQEND
  0
POLYLINE
  8
LAYER_1
 40
0.0847
 41
0.0847
 66
1
 10
0
 20
0
 30
0
  0
VERTEX
  8
LAYER_1
 10
178.0916
 20
221.9048
  0
VERTEX
  8
LAYER_1
 10
182.6212
 20
221.9048
  0
SEQEND
  0
POLYLINE
  8
LAYER_1
 40
0.0847
 41
0.0847
 66
1
 10
0
 20
0
 30
0
  0
VERTEX
  8
LAYER_1
 10
183.5314
 20
221.9048
  0
VERTEX
  8
LAYER_1
 10
184.4416
 20
221.9048
  0
SEQEND
  0
POLYLINE
  8
LAYER_1
 40
0.0847
 41
0.0847
 66
1
 10
0
 20
0
 30
0
  0
VERTEX
  8
LAYER_1
 10
185.3517
 20
221.9048
  0
VERTEX
  8
LAYER_1
 10
189.9026
 20
221.9048
  0
SEQEND
  0
POLYLINE
  8
LAYER_1
 40
0.0847
 41
0.0847
 66
1
 10
0
 20
0
 30
0
  0
VERTEX
  8
LAYER_1
 10
190.8128
 20
221.9048
  0
VERTEX
  8
LAYER_1
 10
191.7229
 20
221.9048
  0
SEQEND
  0
POLYLINE
  8
LAYER_1
 40
0.0847
 41
0.0847
 66
1
 10
0
 20
0
 30
0
  0
VERTEX
  8
LAYER_1
 10
192.6331
 20
221.9048
  0
VERTEX
  8
LAYER_1
 10
197.1628
 20
221.9048
  0
SEQEND
  0
POLYLINE
  8
LAYER_1
 40
0.0847
 41
0.0847
 66
1
 10
0
 20
0
 30
0
  0
VERTEX
  8
LAYER_1
 10
198.0729
 20
221.9048
  0
VERTEX
  8
LAYER_1
 10
198.9831
 20
221.9048
  0
SEQEND
  0
POLYLINE
  8
LAYER_1
 40
0.0847
 41
0.0847
 66
1
 10
0
 20
0
 30
0
  0
VERTEX
  8
LAYER_1
 10
199.8933
 20
221.9048
  0
VERTEX
  8
LAYER_1
 10
204.4441
 20
221.9048
  0
SEQEND
  0
POLYLINE
  8
LAYER_1
 40
0.0847
 41
0.0847
 66
1
 10
0
 20
0
 30
0
  0
VERTEX
  8
LAYER_1
 10
205.3543
 20
221.9048
  0
VERTEX
  8
LAYER_1
 10
206.2644
 20
221.9048
  0
SEQEND
  0
POLYLINE
  8
LAYER_1
 40
0.0847
 41
0.0847
 66
1
 10
0
 20
0
 30
0
  0
VERTEX
  8
LAYER_1
 10
207.1746
 20
221.9048
  0
VERTEX
  8
LAYER_1
 10
211.7043
 20
221.9048
  0
SEQEND
  0
POLYLINE
  8
LAYER_1
 40
0.0847
 41
0.0847
 66
1
 10
0
 20
0
 30
0
  0
VERTEX
  8
LAYER_1
 10
212.6144
 20
221.9048
  0
VERTEX
  8
LAYER_1
 10
213.5246
 20
221.9048
  0
SEQEND
  0
POLYLINE
  8
LAYER_1
 40
0.0847
 41
0.0847
 66
1
 10
0
 20
0
 30
0
  0
VERTEX
  8
LAYER_1
 10
214.4348
 20
221.9048
  0
VERTEX
  8
LAYER_1
 10
216.7208
 20
221.9048
  0
SEQEND
  0
TEXT
  8
LAYER_1
 10
193.8184
 20
253.3163
 11
193.8184
 21
253.3163
 40
3.0419
 41
0.5
  1
%%c60
  0
POLYLINE
  8
LAYER_1
 40
0.0847
 41
0.0847
 66
1
 10
0
 20
0
 30
0
  0
VERTEX
  8
LAYER_1
 10
180.8221
 20
311.0165
  0
VERTEX
  8
LAYER_1
 10
211.8101
 20
311.0165
  0
SEQEND
  0
POLYLINE
  8
LAYER_1
 40
0.1693
 41
0.1693
 66
1
 10
0
 20
0
 30
0
  0
VERTEX
  8
LAYER_1
 10
211.8101
 20
311.0165
  0
VERTEX
  8
LAYER_1
 10
210.3496
 20
310.6143
  0
SEQEND
  0
POLYLINE
  8
LAYER_1
 40
0.1693
 41
0.1693
 66
1
 10
0
 20
0
 30
0
  0
VERTEX
  8
LAYER_1
 10
211.8101
 20
311.0165
  0
VERTEX
  8
LAYER_1
 10
210.3496
 20
311.3975
  0
SEQEND
  0
POLYLINE
  8
LAYER_1
 40
0.1693
 41
0.1693
 66
1
 10
0
 20
0
 30
0
  0
VERTEX
  8
LAYER_1
 10
180.8221
 20
311.0165
  0
VERTEX
  8
LAYER_1
 10
182.2614
 20
311.3975
  0
SEQEND
  0
POLYLINE
  8
LAYER_1
 40
0.1693
 41
0.1693
 66
1
 10
0
 20
0
 30
0
  0
VERTEX
  8
LAYER_1
 10
180.8221
 20
311.0165
  0
VERTEX
  8
LAYER_1
 10
182.2614
 20
310.6143
  0
SEQEND
  0
POLYLINE
  8
LAYER_1
 40
0.0847
 41
0.0847
 66
1
 10
0
 20
0
 30
0
  0
VERTEX
  8
LAYER_1
 10
211.8101
 20
303.5235
  0
VERTEX
  8
LAYER_1
 10
211.8101
 20
311.0165
  0
SEQEND
  0
POLYLINE
  8
LAYER_1
 40
0.0847
 41
0.0847
 66
1
 10
0
 20
0
 30
0
  0
VERTEX
  8
LAYER_1
 10
180.8221
 20
303.5235
  0
VERTEX
  8
LAYER_1
 10
180.8221
 20
311.0165
  0
SEQEND
  0
TEXT
  8
LAYER_1
 10
193.8184
 20
311.8632
 11
193.8184
 21
311.8632
 40
3.0419
 41
0.5
  1
%%c62
  0
POLYLINE
  8
LAYER_1
 40
0.0847
 41
0.0847
 66
1
 10
0
 20
0
 30
0
  0
VERTEX
  8
LAYER_1
 10
133.7686
 20
234.9012
  0
VERTEX
  8
LAYER_1
 10
180.3564
 20
299.9886
  0
SEQEND
  0
POLYLINE
  8
LAYER_1
 40
0.0847
 41
0.0847
 66
1
 10
0
 20
0
 30
0
  0
VERTEX
  8
LAYER_1
 10
131.1862
 20
229.0592
  0
VERTEX
  8
LAYER_1
 10
180.0812
 20
243.0503
  0
SEQEND
  0
POLYLINE
  8
LAYER_1
 40
0.1693
 41
0.1693
 66
1
 10
0
 20
0
 30
0
  0
VERTEX
  8
LAYER_1
 10
119.9679
 20
154.6795
 42
0.4142318438
  0
VERTEX
  8
LAYER_1
 10
108.7284
 20
165.8978
 42
0.4146217431
  0
VERTEX
  8
LAYER_1
 10
97.5101
 20
154.6795
 42
0.4142311998
  0
VERTEX
  8
LAYER_1
 10
108.7284
 20
143.44
 42
0.4138426616
  0
VERTEX
  8
LAYER_1
 10
119.9679
 20
154.6795
  0
SEQEND
  0
POLYLINE
  8
LAYER_1
 40
0.1693
 41
0.1693
 66
1
 10
0
 20
0
 30
0
  0
VERTEX
  8
LAYER_1
 10
85.2334
 20
179.6562
 42
0.4178506552
  0
VERTEX
  8
LAYER_1
 10
83.7518
 20
178.1745
  0
SEQEND
  0
POLYLINE
  8
LAYER_1
 40
0.1693
 41
0.1693
 66
1
 10
0
 20
0
 30
0
  0
VERTEX
  8
LAYER_1
 10
85.2546
 20
179.6562
  0
VERTEX
  8
LAYER_1
 10
132.2446
 20
179.6562
  0
SEQEND
  0
POLYLINE
  8
LAYER_1
 40
0.1693
 41
0.1693
 66
1
 10
0
 20
0
 30
0
  0
VERTEX
  8
LAYER_1
 10
133.7474
 20
178.1745
 42
0.4095873166
  0
VERTEX
  8
LAYER_1
 10
132.2446
 20
179.6562
  0
VERTEX
  8
LAYER_1
 10
132.2234
 20
179.6562
  0
SEQEND
  0
POLYLINE
  8
LAYER_1
 40
0.1693
 41
0.1693
 66
1
 10
0
 20
0
 30
0
  0
VERTEX
  8
LAYER_1
 10
133.7474
 20
131.1633
  0
VERTEX
  8
LAYER_1
 10
133.7474
 20
178.1533
  0
SEQEND
  0
POLYLINE
  8
LAYER_1
 40
0.1693
 41
0.1693
 66
1
 10
0
 20
0
 30
0
  0
VERTEX
  8
LAYER_1
 10
132.2234
 20
129.6605
  0
VERTEX
  8
LAYER_1
 10
132.2446
 20
129.6605
 42
0.4119656691
  0
VERTEX
  8
LAYER_1
 10
133.7474
 20
131.1633
  0
VERTEX
  8
LAYER_1
 10
133.7474
 20
131.1845
  0
SEQEND
  0
POLYLINE
  8
LAYER_1
 40
0.1693
 41
0.1693
 66
1
 10
0
 20
0
 30
0
  0
VERTEX
  8
LAYER_1
 10
83.7729
 20
131.1633
  0
VERTEX
  8
LAYER_1
 10
83.7729
 20
178.1533
  0
SEQEND
  0
POLYLINE
  8
LAYER_1
 40
0.1693
 41
0.1693
 66
1
 10
0
 20
0
 30
0
  0
VERTEX
  8
LAYER_1
 10
85.2546
 20
129.6605
  0
VERTEX
  8
LAYER_1
 10
132.2446
 20
129.6605
  0
SEQEND
  0
POLYLINE
  8
LAYER_1
 40
0.1693
 41
0.1693
 66
1
 10
0
 20
0
 30
0
  0
VERTEX
  8
LAYER_1
 10
83.7518
 20
131.1845
  0
VERTEX
  8
LAYER_1
 10
83.7518
 20
131.1633
 42
0.4095824661
  0
VERTEX
  8
LAYER_1
 10
85.2334
 20
129.6605
  0
SEQEND
  0
POLYLINE
  8
LAYER_1
 40
0.1693
 41
0.1693
 66
1
 10
0
 20
0
 30
0
  0
VERTEX
  8
LAYER_1
 10
83.7729
 20
190.3453
  0
VERTEX
  8
LAYER_1
 10
86.6516
 20
191.1073
  0
SEQEND
  0
POLYLINE
  8
LAYER_1
 40
0.1693
 41
0.1693
 66
1
 10
0
 20
0
 30
0
  0
VERTEX
  8
LAYER_1
 10
83.7729
 20
190.3453
  0
VERTEX
  8
LAYER_1
 10
86.6516
 20
189.5621
  0
SEQEND
  0
POLYLINE
  8
LAYER_1
 40
0.1693
 41
0.1693
 66
1
 10
0
 20
0
 30
0
  0
VERTEX
  8
LAYER_1
 10
133.7474
 20
190.3453
  0
VERTEX
  8
LAYER_1
 10
130.8476
 20
189.5621
  0
SEQEND
  0
POLYLINE
  8
LAYER_1
 40
0.1693
 41
0.1693
 66
1
 10
0
 20
0
 30
0
  0
VERTEX
  8
LAYER_1
 10
133.7474
 20
190.3453
  0
VERTEX
  8
LAYER_1
 10
130.8476
 20
191.1073
  0
SEQEND
  0
POLYLINE
  8
LAYER_1
 40
0.0847
 41
0.0847
 66
1
 10
0
 20
0
 30
0
  0
VERTEX
  8
LAYER_1
 10
83.7729
 20
182.1115
  0
VERTEX
  8
LAYER_1
 10
83.7729
 20
190.3453
  0
SEQEND
  0
POLYLINE
  8
LAYER_1
 40
0.0847
 41
0.0847
 66
1
 10
0
 20
0
 30
0
  0
VERTEX
  8
LAYER_1
 10
133.7474
 20
182.1115
  0
VERTEX
  8
LAYER_1
 10
133.7474
 20
190.3453
  0
SEQEND
  0
POLYLINE
  8
LAYER_1
 40
0.0847
 41
0.0847
 66
1
 10
0
 20
0
 30
0
  0
VERTEX
  8
LAYER_1
 10
83.7729
 20
190.3453
  0
VERTEX
  8
LAYER_1
 10
133.7474
 20
190.3453
  0
SEQEND
  0
TEXT
  8
LAYER_1
 10
106.887
 20
191.0923
 11
106.887
 21
191.0923
 40
3.0419
 41
0.5
  1
100
  0
POLYLINE
  8
LAYER_1
 40
0.0847
 41
0.0847
 66
1
 10
0
 20
0
 30
0
  0
VERTEX
  8
LAYER_1
 10
100.7909
 20
146.6997
  0
VERTEX
  8
LAYER_1
 10
116.7083
 20
162.617
  0
SEQEND
  0
TEXT
  8
LAYER_1
 10
117.0006
 20
164.0794
 11
117.0006
 21
164.0794
 40
2.5777
 41
0.5
 50
44.9007404
  1
%%c
  0
TEXT
  8
LAYER_1
 10
118.8494
 20
165.7655
 11
118.8494
 21
165.7655
 40
3.0417
 41
0.5
 50
44.9007404
  1
4
  0
TEXT
  8
LAYER_1
 10
119.7384
 20
166.6542
 11
119.7384
 21
166.6542
 40
3.0417
 41
0.5
 50
44.9007404
  1
5
  0
POLYLINE
  8
LAYER_1
 40
0.0847
 41
0.0847
 66
1
 10
0
 20
0
 30
0
  0
VERTEX
  8
LAYER_1
 10
116.7083
 20
162.617
  0
VERTEX
  8
LAYER_1
 10
121.1109
 20
167.0197
  0
SEQEND
  0
POLYLINE
  8
LAYER_1
 40
0.1693
 41
0.1693
 66
1
 10
0
 20
0
 30
0
  0
VERTEX
  8
LAYER_1
 10
100.7909
 20
146.6997
  0
VERTEX
  8
LAYER_1
 10
102.2938
 20
149.3032
  0
SEQEND
  0
POLYLINE
  8
LAYER_1
 40
0.1693
 41
0.1693
 66
1
 10
0
 20
0
 30
0
  0
VERTEX
  8
LAYER_1
 10
100.7909
 20
146.6997
  0
VERTEX
  8
LAYER_1
 10
103.3944
 20
148.2025
  0
SEQEND
  0
POLYLINE
  8
LAYER_1
 40
0.1693
 41
0.1693
 66
1
 10
0
 20
0
 30
0
  0
VERTEX
  8
LAYER_1
 10
116.7083
 20
162.617
  0
VERTEX
  8
LAYER_1
 10
115.2054
 20
160.0135
  0
SEQEND
  0
POLYLINE
  8
LAYER_1
 40
0.1693
 41
0.1693
 66
1
 10
0
 20
0
 30
0
  0
VERTEX
  8
LAYER_1
 10
116.7083
 20
162.617
  0
VERTEX
  8
LAYER_1
 10
114.1048
 20
161.1142
  0
SEQEND
  0
POLYLINE
  8
LAYER_1
 40
0.1693
 41
0.1693
 66
1
 10
0
 20
0
 30
0
  0
VERTEX
  8
LAYER_1
 10
83.7729
 20
116.6642
  0
VERTEX
  8
LAYER_1
 10
133.7474
 20
116.6642
  0
SEQEND
  0
POLYLINE
  8
LAYER_1
 40
0.1693
 41
0.1693
 66
1
 10
0
 20
0
 30
0
  0
VERTEX
  8
LAYER_1
 10
83.7729
 20
116.6642
  0
VERTEX
  8
LAYER_1
 10
83.7729
 20
118.167
  0
SEQEND
  0
POLYLINE
  8
LAYER_1
 40
0.1693
 41
0.1693
 66
1
 10
0
 20
0
 30
0
  0
VERTEX
  8
LAYER_1
 10
133.7474
 20
116.6642
  0
VERTEX
  8
LAYER_1
 10
133.7474
 20
118.167
  0
SEQEND
  0
POLYLINE
  8
LAYER_1
 40
0.1693
 41
0.1693
 66
1
 10
0
 20
0
 30
0
  0
VERTEX
  8
LAYER_1
 10
83.7729
 20
118.167
  0
VERTEX
  8
LAYER_1
 10
133.7474
 20
118.167
  0
SEQEND
  0
POLYLINE
  8
LAYER_1
 40
0.0847
 41
0.0847
 66
1
 10
0
 20
0
 30
0
  0
VERTEX
  8
LAYER_1
 10
97.5101
 20
116.6642
  0
VERTEX
  8
LAYER_1
 10
97.5101
 20
117.024
  0
SEQEND
  0
POLYLINE
  8
LAYER_1
 40
0.0847
 41
0.0847
 66
1
 10
0
 20
0
 30
0
  0
VERTEX
  8
LAYER_1
 10
97.5101
 20
117.786
  0
VERTEX
  8
LAYER_1
 10
97.5101
 20
118.167
  0
SEQEND
  0
POLYLINE
  8
LAYER_1
 40
0.0847
 41
0.0847
 66
1
 10
0
 20
0
 30
0
  0
VERTEX
  8
LAYER_1
 10
119.9891
 20
116.6642
  0
VERTEX
  8
LAYER_1
 10
119.9891
 20
117.024
  0
SEQEND
  0
POLYLINE
  8
LAYER_1
 40
0.0847
 41
0.0847
 66
1
 10
0
 20
0
 30
0
  0
VERTEX
  8
LAYER_1
 10
119.9891
 20
117.786
  0
VERTEX
  8
LAYER_1
 10
119.9891
 20
118.167
  0
SEQEND
  0
POLYLINE
  8
LAYER_1
 40
0.0847
 41
0.0847
 66
1
 10
0
 20
0
 30
0
  0
VERTEX
  8
LAYER_1
 10
108.7496
 20
109.658
  0
VERTEX
  8
LAYER_1
 10
108.7496
 20
111.8593
  0
SEQEND
  0
POLYLINE
  8
LAYER_1
 40
0.0847
 41
0.0847
 66
1
 10
0
 20
0
 30
0
  0
VERTEX
  8
LAYER_1
 10
108.7496
 20
112.7272
  0
VERTEX
  8
LAYER_1
 10
108.7496
 20
113.6162
  0
SEQEND
  0
POLYLINE
  8
LAYER_1
 40
0.0847
 41
0.0847
 66
1
 10
0
 20
0
 30
0
  0
VERTEX
  8
LAYER_1
 10
108.7496
 20
114.5052
  0
VERTEX
  8
LAYER_1
 10
108.7496
 20
118.9078
  0
SEQEND
  0
POLYLINE
  8
LAYER_1
 40
0.0847
 41
0.0847
 66
1
 10
0
 20
0
 30
0
  0
VERTEX
  8
LAYER_1
 10
108.7496
 20
119.7968
  0
VERTEX
  8
LAYER_1
 10
108.7496
 20
120.6858
  0
SEQEND
  0
POLYLINE
  8
LAYER_1
 40
0.0847
 41
0.0847
 66
1
 10
0
 20
0
 30
0
  0
VERTEX
  8
LAYER_1
 10
108.7496
 20
121.5537
  0
VERTEX
  8
LAYER_1
 10
108.7496
 20
125.9775
  0
SEQEND
  0
POLYLINE
  8
LAYER_1
 40
0.0847
 41
0.0847
 66
1
 10
0
 20
0
 30
0
  0
VERTEX
  8
LAYER_1
 10
108.7496
 20
126.8665
  0
VERTEX
  8
LAYER_1
 10
108.7496
 20
127.7343
  0
SEQEND
  0
POLYLINE
  8
LAYER_1
 40
0.0847
 41
0.0847
 66
1
 10
0
 20
0
 30
0
  0
VERTEX
  8
LAYER_1
 10
108.7496
 20
128.6233
  0
VERTEX
  8
LAYER_1
 10
108.7496
 20
133.026
  0
SEQEND
  0
POLYLINE
  8
LAYER_1
 40
0.0847
 41
0.0847
 66
1
 10
0
 20
0
 30
0
  0
VERTEX
  8
LAYER_1
 10
108.7496
 20
133.915
  0
VERTEX
  8
LAYER_1
 10
108.7496
 20
134.804
  0
SEQEND
  0
POLYLINE
  8
LAYER_1
 40
0.0847
 41
0.0847
 66
1
 10
0
 20
0
 30
0
  0
VERTEX
  8
LAYER_1
 10
108.7496
 20
135.6718
  0
VERTEX
  8
LAYER_1
 10
108.7496
 20
140.0956
  0
SEQEND
  0
POLYLINE
  8
LAYER_1
 40
0.0847
 41
0.0847
 66
1
 10
0
 20
0
 30
0
  0
VERTEX
  8
LAYER_1
 10
108.7496
 20
140.9846
  0
VERTEX
  8
LAYER_1
 10
108.7496
 20
141.8525
  0
SEQEND
  0
POLYLINE
  8
LAYER_1
 40
0.0847
 41
0.0847
 66
1
 10
0
 20
0
 30
0
  0
VERTEX
  8
LAYER_1
 10
108.7496
 20
142.7415
  0
VERTEX
  8
LAYER_1
 10
108.7496
 20
147.1441
  0
SEQEND
  0
POLYLINE
  8
LAYER_1
 40
0.0847
 41
0.0847
 66
1
 10
0
 20
0
 30
0
  0
VERTEX
  8
LAYER_1
 10
108.7496
 20
148.0331
  0
VERTEX
  8
LAYER_1
 10
108.7496
 20
148.9221
  0
SEQEND
  0
POLYLINE
  8
LAYER_1
 40
0.0847
 41
0.0847
 66
1
 10
0
 20
0
 30
0
  0
VERTEX
  8
LAYER_1
 10
108.7496
 20
149.8111
  0
VERTEX
  8
LAYER_1
 10
108.7496
 20
154.2138
  0
SEQEND
  0
POLYLINE
  8
LAYER_1
 40
0.0847
 41
0.0847
 66
1
 10
0
 20
0
 30
0
  0
VERTEX
  8
LAYER_1
 10
108.7496
 20
155.1028
  0
VERTEX
  8
LAYER_1
 10
108.7496
 20
155.9706
  0
SEQEND
  0
POLYLINE
  8
LAYER_1
 40
0.0847
 41
0.0847
 66
1
 10
0
 20
0
 30
0
  0
VERTEX
  8
LAYER_1
 10
108.7496
 20
156.8596
  0
VERTEX
  8
LAYER_1
 10
108.7496
 20
161.2835
  0
SEQEND
  0
POLYLINE
  8
LAYER_1
 40
0.0847
 41
0.0847
 66
1
 10
0
 20
0
 30
0
  0
VERTEX
  8
LAYER_1
 10
108.7496
 20
162.1513
  0
VERTEX
  8
LAYER_1
 10
108.7496
 20
163.0403
  0
SEQEND
  0
POLYLINE
  8
LAYER_1
 40
0.0847
 41
0.0847
 66
1
 10
0
 20
0
 30
0
  0
VERTEX
  8
LAYER_1
 10
108.7496
 20
163.9293
  0
VERTEX
  8
LAYER_1
 10
108.7496
 20
168.332
  0
SEQEND
  0
POLYLINE
  8
LAYER_1
 40
0.0847
 41
0.0847
 66
1
 10
0
 20
0
 30
0
  0
VERTEX
  8
LAYER_1
 10
108.7496
 20
169.221
  0
VERTEX
  8
LAYER_1
 10
108.7496
 20
170.0888
  0
SEQEND
  0
POLYLINE
  8
LAYER_1
 40
0.0847
 41
0.0847
 66
1
 10
0
 20
0
 30
0
  0
VERTEX
  8
LAYER_1
 10
108.7496
 20
170.9778
  0
VERTEX
  8
LAYER_1
 10
108.7496
 20
175.4017
  0
SEQEND
  0
POLYLINE
  8
LAYER_1
 40
0.0847
 41
0.0847
 66
1
 10
0
 20
0
 30
0
  0
VERTEX
  8
LAYER_1
 10
108.7496
 20
176.2695
  0
VERTEX
  8
LAYER_1
 10
108.7496
 20
177.1585
  0
SEQEND
  0
POLYLINE
  8
LAYER_1
 40
0.0847
 41
0.0847
 66
1
 10
0
 20
0
 30
0
  0
VERTEX
  8
LAYER_1
 10
108.7496
 20
178.0475
  0
VERTEX
  8
LAYER_1
 10
108.7496
 20
182.4502
  0
SEQEND
  0
POLYLINE
  8
LAYER_1
 40
0.0847
 41
0.0847
 66
1
 10
0
 20
0
 30
0
  0
VERTEX
  8
LAYER_1
 10
108.7496
 20
183.3392
  0
VERTEX
  8
LAYER_1
 10
108.7496
 20
184.2282
  0
SEQEND
  0
POLYLINE
  8
LAYER_1
 40
0.0847
 41
0.0847
 66
1
 10
0
 20
0
 30
0
  0
VERTEX
  8
LAYER_1
 10
108.7496
 20
185.096
  0
VERTEX
  8
LAYER_1
 10
108.7496
 20
187.3185
  0
SEQEND
  0
POLYLINE
  8
LAYER_1
 40
0.0847
 41
0.0847
 66
1
 10
0
 20
0
 30
0
  0
VERTEX
  8
LAYER_1
 10
120.5183
 20
215.2373
  0
VERTEX
  8
LAYER_1
 10
120.5183
 20
217.354
  0
SEQEND
  0
POLYLINE
  8
LAYER_1
 40
0.0847
 41
0.0847
 66
1
 10
0
 20
0
 30
0
  0
VERTEX
  8
LAYER_1
 10
120.5183
 20
218.2007
  0
VERTEX
  8
LAYER_1
 10
120.5183
 20
219.0473
  0
SEQEND
  0
POLYLINE
  8
LAYER_1
 40
0.0847
 41
0.0847
 66
1
 10
0
 20
0
 30
0
  0
VERTEX
  8
LAYER_1
 10
120.5183
 20
219.894
  0
VERTEX
  8
LAYER_1
 10
120.5183
 20
224.1273
  0
SEQEND
  0
POLYLINE
  8
LAYER_1
 40
0.0847
 41
0.0847
 66
1
 10
0
 20
0
 30
0
  0
VERTEX
  8
LAYER_1
 10
120.5183
 20
224.974
  0
VERTEX
  8
LAYER_1
 10
120.5183
 20
225.8206
  0
SEQEND
  0
POLYLINE
  8
LAYER_1
 40
0.0847
 41
0.0847
 66
1
 10
0
 20
0
 30
0
  0
VERTEX
  8
LAYER_1
 10
120.5183
 20
226.6885
  0
VERTEX
  8
LAYER_1
 10
120.5183
 20
230.9218
  0
SEQEND
  0
POLYLINE
  8
LAYER_1
 40
0.0847
 41
0.0847
 66
1
 10
0
 20
0
 30
0
  0
VERTEX
  8
LAYER_1
 10
120.5183
 20
231.7685
  0
VERTEX
  8
LAYER_1
 10
120.5183
 20
232.6151
  0
SEQEND
  0
POLYLINE
  8
LAYER_1
 40
0.0847
 41
0.0847
 66
1
 10
0
 20
0
 30
0
  0
VERTEX
  8
LAYER_1
 10
120.5183
 20
233.4618
  0
VERTEX
  8
LAYER_1
 10
120.5183
 20
237.7163
  0
SEQEND
  0
POLYLINE
  8
LAYER_1
 40
0.0847
 41
0.0847
 66
1
 10
0
 20
0
 30
0
  0
VERTEX
  8
LAYER_1
 10
120.5183
 20
238.563
  0
VERTEX
  8
LAYER_1
 10
120.5183
 20
239.4096
  0
SEQEND
  0
POLYLINE
  8
LAYER_1
 40
0.0847
 41
0.0847
 66
1
 10
0
 20
0
 30
0
  0
VERTEX
  8
LAYER_1
 10
120.5183
 20
240.2563
  0
VERTEX
  8
LAYER_1
 10
120.5183
 20
244.4896
  0
SEQEND
  0
POLYLINE
  8
LAYER_1
 40
0.0847
 41
0.0847
 66
1
 10
0
 20
0
 30
0
  0
VERTEX
  8
LAYER_1
 10
120.5183
 20
245.3363
  0
VERTEX
  8
LAYER_1
 10
120.5183
 20
246.183
  0
SEQEND
  0
POLYLINE
  8
LAYER_1
 40
0.0847
 41
0.0847
 66
1
 10
0
 20
0
 30
0
  0
VERTEX
  8
LAYER_1
 10
120.5183
 20
247.0296
  0
VERTEX
  8
LAYER_1
 10
120.5183
 20
251.2841
  0
SEQEND
  0
POLYLINE
  8
LAYER_1
 40
0.0847
 41
0.0847
 66
1
 10
0
 20
0
 30
0
  0
VERTEX
  8
LAYER_1
 10
120.5183
 20
252.1308
  0
VERTEX
  8
LAYER_1
 10
120.5183
 20
252.9775
  0
SEQEND
  0
POLYLINE
  8
LAYER_1
 40
0.0847
 41
0.0847
 66
1
 10
0
 20
0
 30
0
  0
VERTEX
  8
LAYER_1
 10
120.5183
 20
253.8241
  0
VERTEX
  8
LAYER_1
 10
120.5183
 20
258.0575
  0
SEQEND
  0
POLYLINE
  8
LAYER_1
 40
0.0847
 41
0.0847
 66
1
 10
0
 20
0
 30
0
  0
VERTEX
  8
LAYER_1
 10
120.5183
 20
258.9041
  0
VERTEX
  8
LAYER_1
 10
120.5183
 20
259.772
  0
SEQEND
  0
POLYLINE
  8
LAYER_1
 40
0.0847
 41
0.0847
 66
1
 10
0
 20
0
 30
0
  0
VERTEX
  8
LAYER_1
 10
120.5183
 20
260.6186
  0
VERTEX
  8
LAYER_1
 10
120.5183
 20
264.852
  0
SEQEND
  0
POLYLINE
  8
LAYER_1
 40
0.0847
 41
0.0847
 66
1
 10
0
 20
0
 30
0
  0
VERTEX
  8
LAYER_1
 10
120.5183
 20
265.6986
  0
VERTEX
  8
LAYER_1
 10
120.5183
 20
266.5453
  0
SEQEND
  0
POLYLINE
  8
LAYER_1
 40
0.0847
 41
0.0847
 66
1
 10
0
 20
0
 30
0
  0
VERTEX
  8
LAYER_1
 10
120.5183
 20
267.392
  0
VERTEX
  8
LAYER_1
 10
120.5183
 20
271.6465
  0
SEQEND
  0
POLYLINE
  8
LAYER_1
 40
0.0847
 41
0.0847
 66
1
 10
0
 20
0
 30
0
  0
VERTEX
  8
LAYER_1
 10
120.5183
 20
272.4931
  0
VERTEX
  8
LAYER_1
 10
120.5183
 20
273.3398
  0
SEQEND
  0
POLYLINE
  8
LAYER_1
 40
0.0847
 41
0.0847
 66
1
 10
0
 20
0
 30
0
  0
VERTEX
  8
LAYER_1
 10
120.5183
 20
274.1865
  0
VERTEX
  8
LAYER_1
 10
120.5183
 20
278.4198
  0
SEQEND
  0
POLYLINE
  8
LAYER_1
 40
0.0847
 41
0.0847
 66
1
 10
0
 20
0
 30
0
  0
VERTEX
  8
LAYER_1
 10
120.5183
 20
279.2665
  0
VERTEX
  8
LAYER_1
 10
120.5183
 20
280.1132
  0
SEQEND
  0
POLYLINE
  8
LAYER_1
 40
0.0847
 41
0.0847
 66
1
 10
0
 20
0
 30
0
  0
VERTEX
  8
LAYER_1
 10
120.5183
 20
280.9598
  0
VERTEX
  8
LAYER_1
 10
120.5183
 20
285.2143
  0
SEQEND
  0
POLYLINE
  8
LAYER_1
 40
0.0847
 41
0.0847
 66
1
 10
0
 20
0
 30
0
  0
VERTEX
  8
LAYER_1
 10
120.5183
 20
286.061
  0
VERTEX
  8
LAYER_1
 10
120.5183
 20
286.9077
  0
SEQEND
  0
POLYLINE
  8
LAYER_1
 40
0.0847
 41
0.0847
 66
1
 10
0
 20
0
 30
0
  0
VERTEX
  8
LAYER_1
 10
120.5183
 20
287.7543
  0
VERTEX
  8
LAYER_1
 10
120.5183
 20
291.9876
  0
SEQEND
  0
POLYLINE
  8
LAYER_1
 40
0.0847
 41
0.0847
 66
1
 10
0
 20
0
 30
0
  0
VERTEX
  8
LAYER_1
 10
120.5183
 20
292.8343
  0
VERTEX
  8
LAYER_1
 10
120.5183
 20
293.7022
  0
SEQEND
  0
POLYLINE
  8
LAYER_1
 40
0.0847
 41
0.0847
 66
1
 10
0
 20
0
 30
0
  0
VERTEX
  8
LAYER_1
 10
120.5183
 20
294.5488
  0
VERTEX
  8
LAYER_1
 10
120.5183
 20
298.7822
  0
SEQEND
  0
POLYLINE
  8
LAYER_1
 40
0.0847
 41
0.0847
 66
1
 10
0
 20
0
 30
0
  0
VERTEX
  8
LAYER_1
 10
120.5183
 20
299.6288
  0
VERTEX
  8
LAYER_1
 10
120.5183
 20
300.4755
  0
SEQEND
  0
POLYLINE
  8
LAYER_1
 40
0.0847
 41
0.0847
 66
1
 10
0
 20
0
 30
0
  0
VERTEX
  8
LAYER_1
 10
120.5183
 20
301.3222
  0
VERTEX
  8
LAYER_1
 10
120.5183
 20
305.5767
  0
SEQEND
  0
POLYLINE
  8
LAYER_1
 40
0.0847
 41
0.0847
 66
1
 10
0
 20
0
 30
0
  0
VERTEX
  8
LAYER_1
 10
120.5183
 20
306.4233
  0
VERTEX
  8
LAYER_1
 10
120.5183
 20
307.27
  0
SEQEND
  0
POLYLINE
  8
LAYER_1
 40
0.0847
 41
0.0847
 66
1
 10
0
 20
0
 30
0
  0
VERTEX
  8
LAYER_1
 10
120.5183
 20
308.1167
  0
VERTEX
  8
LAYER_1
 10
120.5183
 20
312.35
  0
SEQEND
  0
POLYLINE
  8
LAYER_1
 40
0.0847
 41
0.0847
 66
1
 10
0
 20
0
 30
0
  0
VERTEX
  8
LAYER_1
 10
120.5183
 20
313.1967
  0
VERTEX
  8
LAYER_1
 10
120.5183
 20
314.0433
  0
SEQEND
  0
POLYLINE
  8
LAYER_1
 40
0.0847
 41
0.0847
 66
1
 10
0
 20
0
 30
0
  0
VERTEX
  8
LAYER_1
 10
120.5183
 20
314.89
  0
VERTEX
  8
LAYER_1
 10
120.5183
 20
319.1445
  0
SEQEND
  0
POLYLINE
  8
LAYER_1
 40
0.0847
 41
0.0847
 66
1
 10
0
 20
0
 30
0
  0
VERTEX
  8
LAYER_1
 10
120.5183
 20
319.9912
  0
VERTEX
  8
LAYER_1
 10
120.5183
 20
320.8378
  0
SEQEND
  0
POLYLINE
  8
LAYER_1
 40
0.0847
 41
0.0847
 66
1
 10
0
 20
0
 30
0
  0
VERTEX
  8
LAYER_1
 10
120.5183
 20
321.6845
  0
VERTEX
  8
LAYER_1
 10
120.5183
 20
325.9178
  0
SEQEND
  0
POLYLINE
  8
LAYER_1
 40
0.0847
 41
0.0847
 66
1
 10
0
 20
0
 30
0
  0
VERTEX
  8
LAYER_1
 10
120.5183
 20
326.7857
  0
VERTEX
  8
LAYER_1
 10
120.5183
 20
327.6323
  0
SEQEND
  0
POLYLINE
  8
LAYER_1
 40
0.0847
 41
0.0847
 66
1
 10
0
 20
0
 30
0
  0
VERTEX
  8
LAYER_1
 10
120.5183
 20
328.479
  0
VERTEX
  8
LAYER_1
 10
120.5183
 20
332.7123
  0
SEQEND
  0
POLYLINE
  8
LAYER_1
 40
0.0847
 41
0.0847
 66
1
 10
0
 20
0
 30
0
  0
VERTEX
  8
LAYER_1
 10
120.5183
 20
333.559
  0
VERTEX
  8
LAYER_1
 10
120.5183
 20
334.4057
  0
SEQEND
  0
POLYLINE
  8
LAYER_1
 40
0.0847
 41
0.0847
 66
1
 10
0
 20
0
 30
0
  0
VERTEX
  8
LAYER_1
 10
120.5183
 20
335.2523
  0
VERTEX
  8
LAYER_1
 10
120.5183
 20
337.3902
  0
SEQEND
  0
POLYLINE
  8
LAYER_1
 40
0.0847
 41
0.0847
 66
1
 10
0
 20
0
 30
0
  0
VERTEX
  8
LAYER_1
 10
74.5866
 20
111.6688
  0
VERTEX
  8
LAYER_1
 10
74.5866
 20
116.6642
  0
SEQEND
  0
POLYLINE
  8
LAYER_1
 40
0.0847
 41
0.0847
 66
1
 10
0
 20
0
 30
0
  0
VERTEX
  8
LAYER_1
 10
74.5866
 20
118.167
  0
VERTEX
  8
LAYER_1
 10
74.5866
 20
123.1623
  0
SEQEND
  0
POLYLINE
  8
LAYER_1
 40
0.0847
 41
0.0847
 66
1
 10
0
 20
0
 30
0
  0
VERTEX
  8
LAYER_1
 10
74.5866
 20
116.6642
  0
VERTEX
  8
LAYER_1
 10
74.5866
 20
118.167
  0
SEQEND
  0
POLYLINE
  8
LAYER_1
 40
0.1693
 41
0.1693
 66
1
 10
0
 20
0
 30
0
  0
VERTEX
  8
LAYER_1
 10
74.5866
 20
116.6642
  0
VERTEX
  8
LAYER_1
 10
75.3486
 20
113.7643
  0
SEQEND
  0
POLYLINE
  8
LAYER_1
 40
0.1693
 41
0.1693
 66
1
 10
0
 20
0
 30
0
  0
VERTEX
  8
LAYER_1
 10
74.5866
 20
116.6642
  0
VERTEX
  8
LAYER_1
 10
73.8034
 20
113.7643
  0
SEQEND
  0
POLYLINE
  8
LAYER_1
 40
0.1693
 41
0.1693
 66
1
 10
0
 20
0
 30
0
  0
VERTEX
  8
LAYER_1
 10
74.5866
 20
118.167
  0
VERTEX
  8
LAYER_1
 10
73.8034
 20
121.0668
  0
SEQEND
  0
POLYLINE
  8
LAYER_1
 40
0.1693
 41
0.1693
 66
1
 10
0
 20
0
 30
0
  0
VERTEX
  8
LAYER_1
 10
74.5866
 20
118.167
  0
VERTEX
  8
LAYER_1
 10
75.3486
 20
121.0668
  0
SEQEND
  0
POLYLINE
  8
LAYER_1
 40
0.0847
 41
0.0847
 66
1
 10
0
 20
0
 30
0
  0
VERTEX
  8
LAYER_1
 10
74.5866
 20
116.6642
  0
VERTEX
  8
LAYER_1
 10
82.3336
 20
116.6642
  0
SEQEND
  0
POLYLINE
  8
LAYER_1
 40
0.0847
 41
0.0847
 66
1
 10
0
 20
0
 30
0
  0
VERTEX
  8
LAYER_1
 10
74.5866
 20
118.167
  0
VERTEX
  8
LAYER_1
 10
82.3336
 20
118.167
  0
SEQEND
  0
TEXT
  8
LAYER_1
 10
73.8822
 20
116.7913
 11
73.8822
 21
116.7913
 40
3.0419
 41
0.5
 50
89.99999999
  1
3
  0
TEXT
  8
LAYER_1
 10
121.767
 20
289.2421
 11
121.767
 21
289.2421
 40
3.0419
 41
0.5
  1
68
  0
POLYLINE
  8
LAYER_1
 40
0.0847
 41
0.0847
 66
1
 10
0
 20
0
 30
0
  0
VERTEX
  8
LAYER_1
 10
196.3161
 20
267.5825
  0
VERTEX
  8
LAYER_1
 10
196.3161
 20
269.7626
  0
SEQEND
  0
POLYLINE
  8
LAYER_1
 40
0.0847
 41
0.0847
 66
1
 10
0
 20
0
 30
0
  0
VERTEX
  8
LAYER_1
 10
196.3161
 20
270.6517
  0
VERTEX
  8
LAYER_1
 10
196.3161
 20
271.5195
  0
SEQEND
  0
POLYLINE
  8
LAYER_1
 40
0.0847
 41
0.0847
 66
1
 10
0
 20
0
 30
0
  0
VERTEX
  8
LAYER_1
 10
196.3161
 20
272.4085
  0
VERTEX
  8
LAYER_1
 10
196.3161
 20
276.79
  0
SEQEND
  0
POLYLINE
  8
LAYER_1
 40
0.0847
 41
0.0847
 66
1
 10
0
 20
0
 30
0
  0
VERTEX
  8
LAYER_1
 10
196.3161
 20
277.6578
  0
VERTEX
  8
LAYER_1
 10
196.3161
 20
278.5468
  0
SEQEND
  0
POLYLINE
  8
LAYER_1
 40
0.0847
 41
0.0847
 66
1
 10
0
 20
0
 30
0
  0
VERTEX
  8
LAYER_1
 10
196.3161
 20
279.4146
  0
VERTEX
  8
LAYER_1
 10
196.3161
 20
283.7961
  0
SEQEND
  0
POLYLINE
  8
LAYER_1
 40
0.0847
 41
0.0847
 66
1
 10
0
 20
0
 30
0
  0
VERTEX
  8
LAYER_1
 10
196.3161
 20
284.6851
  0
VERTEX
  8
LAYER_1
 10
196.3161
 20
285.553
  0
SEQEND
  0
POLYLINE
  8
LAYER_1
 40
0.0847
 41
0.0847
 66
1
 10
0
 20
0
 30
0
  0
VERTEX
  8
LAYER_1
 10
196.3161
 20
286.442
  0
VERTEX
  8
LAYER_1
 10
196.3161
 20
290.8235
  0
SEQEND
  0
POLYLINE
  8
LAYER_1
 40
0.0847
 41
0.0847
 66
1
 10
0
 20
0
 30
0
  0
VERTEX
  8
LAYER_1
 10
196.3161
 20
291.7125
  0
VERTEX
  8
LAYER_1
 10
196.3161
 20
292.5803
  0
SEQEND
  0
POLYLINE
  8
LAYER_1
 40
0.0847
 41
0.0847
 66
1
 10
0
 20
0
 30
0
  0
VERTEX
  8
LAYER_1
 10
196.3161
 20
293.4693
  0
VERTEX
  8
LAYER_1
 10
196.3161
 20
297.8508
  0
SEQEND
  0
POLYLINE
  8
LAYER_1
 40
0.0847
 41
0.0847
 66
1
 10
0
 20
0
 30
0
  0
VERTEX
  8
LAYER_1
 10
196.3161
 20
298.7186
  0
VERTEX
  8
LAYER_1
 10
196.3161
 20
299.6076
  0
SEQEND
  0
POLYLINE
  8
LAYER_1
 40
0.0847
 41
0.0847
 66
1
 10
0
 20
0
 30
0
  0
VERTEX
  8
LAYER_1
 10
196.3161
 20
300.4755
  0
VERTEX
  8
LAYER_1
 10
196.3161
 20
304.857
  0
SEQEND
  0
POLYLINE
  8
LAYER_1
 40
0.0847
 41
0.0847
 66
1
 10
0
 20
0
 30
0
  0
VERTEX
  8
LAYER_1
 10
196.3161
 20
305.746
  0
VERTEX
  8
LAYER_1
 10
196.3161
 20
306.6138
  0
SEQEND
  0
POLYLINE
  8
LAYER_1
 40
0.0847
 41
0.0847
 66
1
 10
0
 20
0
 30
0
  0
VERTEX
  8
LAYER_1
 10
196.3161
 20
307.5028
  0
VERTEX
  8
LAYER_1
 10
196.3161
 20
309.7041
  0
SEQEND
  0
POLYLINE
  8
LAYER_1
 40
0.0847
 41
0.0847
 66
1
 10
0
 20
0
 30
0
  0
VERTEX
  8
LAYER_1
 10
210.5401
 20
221.9259
 42
0.4137560001
  0
VERTEX
  8
LAYER_1
 10
196.2949
 20
236.1499
 42
0.4140629593
  0
VERTEX
  8
LAYER_1
 10
182.0709
 20
221.9259
 42
0.413753013
  0
VERTEX
  8
LAYER_1
 10
196.2949
 20
207.6808
 42
0.4134469035
  0
VERTEX
  8
LAYER_1
 10
210.5401
 20
221.9259
  0
SEQEND
  0
POLYLINE
  8
LAYER_1
 40
0.0847
 41
0.0847
 66
1
 10
0
 20
0
 30
0
  0
VERTEX
  8
LAYER_1
 10
181.3089
 20
244.4685
  0
VERTEX
  8
LAYER_1
 10
211.3021
 20
244.4685
  0
SEQEND
  0
POLYLINE
  8
LAYER_1
 40
0.1693
 41
0.1693
 66
1
 10
0
 20
0
 30
0
  0
VERTEX
  8
LAYER_1
 10
181.3089
 20
244.4685
  0
VERTEX
  8
LAYER_1
 10
181.3089
 20
244.9765
  0
SEQEND
  0
POLYLINE
  8
LAYER_1
 40
0.1693
 41
0.1693
 66
1
 10
0
 20
0
 30
0
  0
VERTEX
  8
LAYER_1
 10
211.3021
 20
244.4685
  0
VERTEX
  8
LAYER_1
 10
211.3021
 20
244.9765
  0
SEQEND
  0
POLYLINE
  8
LAYER_1
 40
0.1693
 41
0.1693
 66
1
 10
0
 20
0
 30
0
  0
VERTEX
  8
LAYER_1
 10
184.9496
 20
240.468
  0
VERTEX
  8
LAYER_1
 10
184.9496
 20
243.7065
  0
SEQEND
  0
POLYLINE
  8
LAYER_1
 40
0.1693
 41
0.1693
 66
1
 10
0
 20
0
 30
0
  0
VERTEX
  8
LAYER_1
 10
181.3089
 20
244.4685
  0
VERTEX
  8
LAYER_1
 10
182.0709
 20
243.7065
  0
SEQEND
  0
POLYLINE
  8
LAYER_1
 40
0.1693
 41
0.1693
 66
1
 10
0
 20
0
 30
0
  0
VERTEX
  8
LAYER_1
 10
207.6826
 20
240.468
  0
VERTEX
  8
LAYER_1
 10
207.6826
 20
243.7065
  0
SEQEND
  0
POLYLINE
  8
LAYER_1
 40
0.1693
 41
0.1693
 66
1
 10
0
 20
0
 30
0
  0
VERTEX
  8
LAYER_1
 10
182.0709
 20
243.7065
  0
VERTEX
  8
LAYER_1
 10
210.5613
 20
243.7065
  0
SEQEND
  0
POLYLINE
  8
LAYER_1
 40
0.1693
 41
0.1693
 66
1
 10
0
 20
0
 30
0
  0
VERTEX
  8
LAYER_1
 10
211.3021
 20
244.4685
  0
VERTEX
  8
LAYER_1
 10
210.5613
 20
243.7065
  0
SEQEND
  0
POLYLINE
  8
LAYER_1
 40
0.0847
 41
0.0847
 66
1
 10
0
 20
0
 30
0
  0
VERTEX
  8
LAYER_1
 10
120.5183
 20
227.9162
  0
VERTEX
  8
LAYER_1
 10
120.5183
 20
230.9007
  0
SEQEND
  0
POLYLINE
  8
LAYER_1
 40
0.1693
 41
0.1693
 66
1
 10
0
 20
0
 30
0
  0
VERTEX
  8
LAYER_1
 10
109.1518
 20
227.9162
  0
VERTEX
  8
LAYER_1
 10
131.8848
 20
227.9162
  0
SEQEND
  0
POLYLINE
  8
LAYER_1
 40
0.1693
 41
0.1693
 66
1
 10
0
 20
0
 30
0
  0
VERTEX
  8
LAYER_1
 10
105.5111
 20
232.4035
  0
VERTEX
  8
LAYER_1
 10
135.5043
 20
232.4035
  0
SEQEND
  0
POLYLINE
  8
LAYER_1
 40
0.0847
 41
0.0847
 66
1
 10
0
 20
0
 30
0
  0
VERTEX
  8
LAYER_1
 10
130.5089
 20
227.9162
  0
VERTEX
  8
LAYER_1
 10
130.5089
 20
228.4665
  0
SEQEND
  0
POLYLINE
  8
LAYER_1
 40
0.0847
 41
0.0847
 66
1
 10
0
 20
0
 30
0
  0
VERTEX
  8
LAYER_1
 10
130.5089
 20
229.5883
  0
VERTEX
  8
LAYER_1
 10
130.5089
 20
230.7102
  0
SEQEND
  0
POLYLINE
  8
LAYER_1
 40
0.0847
 41
0.0847
 66
1
 10
0
 20
0
 30
0
  0
VERTEX
  8
LAYER_1
 10
130.5089
 20
231.832
  0
VERTEX
  8
LAYER_1
 10
130.5089
 20
232.4035
  0
SEQEND
  0
POLYLINE
  8
LAYER_1
 40
0.0847
 41
0.0847
 66
1
 10
0
 20
0
 30
0
  0
VERTEX
  8
LAYER_1
 10
110.5276
 20
227.9161
  0
VERTEX
  8
LAYER_1
 10
110.5276
 20
228.4665
  0
SEQEND
  0
POLYLINE
  8
LAYER_1
 40
0.0847
 41
0.0847
 66
1
 10
0
 20
0
 30
0
  0
VERTEX
  8
LAYER_1
 10
110.5276
 20
229.5883
  0
VERTEX
  8
LAYER_1
 10
110.5276
 20
230.7101
  0
SEQEND
  0
POLYLINE
  8
LAYER_1
 40
0.0847
 41
0.0847
 66
1
 10
0
 20
0
 30
0
  0
VERTEX
  8
LAYER_1
 10
110.5276
 20
231.832
  0
VERTEX
  8
LAYER_1
 10
110.5276
 20
232.4035
  0
SEQEND
  0
POLYLINE
  8
LAYER_1
 40
0.0847
 41
0.0847
 66
1
 10
0
 20
0
 30
0
  0
VERTEX
  8
LAYER_1
 10
105.5111
 20
231.8955
  0
VERTEX
  8
LAYER_1
 10
135.5043
 20
231.8955
  0
SEQEND
  0
POLYLINE
  8
LAYER_1
 40
0.1693
 41
0.1693
 66
1
 10
0
 20
0
 30
0
  0
VERTEX
  8
LAYER_1
 10
105.5111
 20
231.8955
  0
VERTEX
  8
LAYER_1
 10
105.5111
 20
232.4035
  0
SEQEND
  0
POLYLINE
  8
LAYER_1
 40
0.1693
 41
0.1693
 66
1
 10
0
 20
0
 30
0
  0
VERTEX
  8
LAYER_1
 10
135.5043
 20
231.8955
  0
VERTEX
  8
LAYER_1
 10
135.5043
 20
232.4035
  0
SEQEND
  0
POLYLINE
  8
LAYER_1
 40
0.1693
 41
0.1693
 66
1
 10
0
 20
0
 30
0
  0
VERTEX
  8
LAYER_1
 10
109.1518
 20
227.9162
  0
VERTEX
  8
LAYER_1
 10
109.1518
 20
231.1547
  0
SEQEND
  0
POLYLINE
  8
LAYER_1
 40
0.1693
 41
0.1693
 66
1
 10
0
 20
0
 30
0
  0
VERTEX
  8
LAYER_1
 10
105.5111
 20
231.8955
  0
VERTEX
  8
LAYER_1
 10
106.2731
 20
231.1547
  0
SEQEND
  0
POLYLINE
  8
LAYER_1
 40
0.1693
 41
0.1693
 66
1
 10
0
 20
0
 30
0
  0
VERTEX
  8
LAYER_1
 10
131.8848
 20
227.9162
  0
VERTEX
  8
LAYER_1
 10
131.8848
 20
231.1547
  0
SEQEND
  0
POLYLINE
  8
LAYER_1
 40
0.1693
 41
0.1693
 66
1
 10
0
 20
0
 30
0
  0
VERTEX
  8
LAYER_1
 10
106.2731
 20
231.1547
  0
VERTEX
  8
LAYER_1
 10
134.7634
 20
231.1547
  0
SEQEND
  0
POLYLINE
  8
LAYER_1
 40
0.1693
 41
0.1693
 66
1
 10
0
 20
0
 30
0
  0
VERTEX
  8
LAYER_1
 10
135.5043
 20
231.8955
  0
VERTEX
  8
LAYER_1
 10
134.7634
 20
231.1547
  0
SEQEND
  0
POLYLINE
  8
LAYER_1
 40
0.0847
 41
0.0847
 66
1
 10
0
 20
0
 30
0
  0
VERTEX
  8
LAYER_1
 10
196.3161
 20
299.269
  0
VERTEX
  8
LAYER_1
 10
196.3161
 20
301.047
  0
SEQEND
  0
POLYLINE
  8
LAYER_1
 40
0.1693
 41
0.1693
 66
1
 10
0
 20
0
 30
0
  0
VERTEX
  8
LAYER_1
 10
180.8221
 20
300.7718
  0
VERTEX
  8
LAYER_1
 10
211.8101
 20
300.7718
  0
SEQEND
  0
POLYLINE
  8
LAYER_1
 40
0.1693
 41
0.1693
 66
1
 10
0
 20
0
 30
0
  0
VERTEX
  8
LAYER_1
 10
182.4942
 20
303.5235
  0
VERTEX
  8
LAYER_1
 10
210.1167
 20
303.5235
  0
SEQEND
  0
POLYLINE
  8
LAYER_1
 40
0.0847
 41
0.0847
 66
1
 10
0
 20
0
 30
0
  0
VERTEX
  8
LAYER_1
 10
185.5634
 20
300.7718
  0
VERTEX
  8
LAYER_1
 10
185.5634
 20
301.4492
  0
SEQEND
  0
POLYLINE
  8
LAYER_1
 40
0.0847
 41
0.0847
 66
1
 10
0
 20
0
 30
0
  0
VERTEX
  8
LAYER_1
 10
185.5634
 20
302.825
  0
VERTEX
  8
LAYER_1
 10
185.5634
 20
303.5235
  0
SEQEND
  0
POLYLINE
  8
LAYER_1
 40
0.0847
 41
0.0847
 66
1
 10
0
 20
0
 30
0
  0
VERTEX
  8
LAYER_1
 10
207.0476
 20
300.7718
  0
VERTEX
  8
LAYER_1
 10
207.0476
 20
301.4492
  0
SEQEND
  0
POLYLINE
  8
LAYER_1
 40
0.0847
 41
0.0847
 66
1
 10
0
 20
0
 30
0
  0
VERTEX
  8
LAYER_1
 10
207.0476
 20
302.825
  0
VERTEX
  8
LAYER_1
 10
207.0476
 20
303.5235
  0
SEQEND
  0
POLYLINE
  8
LAYER_1
 40
0.1693
 41
0.1693
 66
1
 10
0
 20
0
 30
0
  0
VERTEX
  8
LAYER_1
 10
211.8101
 20
300.7718
  0
VERTEX
  8
LAYER_1
 10
211.8101
 20
303.5235
  0
SEQEND
  0
POLYLINE
  8
LAYER_1
 40
0.1693
 41
0.1693
 66
1
 10
0
 20
0
 30
0
  0
VERTEX
  8
LAYER_1
 10
180.8221
 20
300.7718
  0
VERTEX
  8
LAYER_1
 10
180.8221
 20
303.5235
  0
VERTEX
  8
LAYER_1
 10
211.8101
 20
303.5235
  0
SEQEND
  0
POLYLINE
  8
LAYER_1
 40
0.1693
 41
0.1693
 66
1
 10
0
 20
0
 30
0
  0
VERTEX
  8
LAYER_1
 10
180.8221
 20
302.2323
  0
VERTEX
  8
LAYER_1
 10
180.8221
 20
303.5235
  0
SEQEND
  0
POLYLINE
  8
LAYER_1
 40
0.0847
 41
0.0847
 66
1
 10
0
 20
0
 30
0
  0
VERTEX
  8
LAYER_1
 10
90.4616
 20
268.1328
  0
VERTEX
  8
LAYER_1
 10
105.0243
 20
268.1328
  0
SEQEND
  0
POLYLINE
  8
LAYER_1
 40
0.0847
 41
0.0847
 66
1
 10
0
 20
0
 30
0
  0
VERTEX
  8
LAYER_1
 10
90.4616
 20
268.1328
  0
VERTEX
  8
LAYER_1
 10
105.0243
 20
268.1328
  0
SEQEND
  0
POLYLINE
  8
LAYER_1
 40
0.1693
 41
0.1693
 66
1
 10
0
 20
0
 30
0
  0
VERTEX
  8
LAYER_1
 10
105.0031
 20
268.1328
 42
0.405506404
  0
VERTEX
  8
LAYER_1
 10
104.7703
 20
267.8788
 42
0.3595050628
  0
VERTEX
  8
LAYER_1
 10
105.0031
 20
267.6248
  0
SEQEND
  0
POLYLINE
  8
LAYER_1
 40
0.1693
 41
0.1693
 66
1
 10
0
 20
0
 30
0
  0
VERTEX
  8
LAYER_1
 10
135.9911
 20
267.6248
  0
VERTEX
  8
LAYER_1
 10
136.0123
 20
267.6248
 42
0.3749391935
  0
VERTEX
  8
LAYER_1
 10
136.2663
 20
267.8788
 42
0.3890123142
  0
VERTEX
  8
LAYER_1
 10
136.0123
 20
268.1328
  0
VERTEX
  8
LAYER_1
 10
135.9911
 20
268.1328
  0
SEQEND
  0
POLYLINE
  8
LAYER_1
 40
0.1693
 41
0.1693
 66
1
 10
0
 20
0
 30
0
  0
VERTEX
  8
LAYER_1
 10
135.9911
 20
267.6248
  0
VERTEX
  8
LAYER_1
 10
136.0123
 20
267.6248
 42
0.3749391935
  0
VERTEX
  8
LAYER_1
 10
136.2663
 20
267.8788
 42
0.3890123142
  0
VERTEX
  8
LAYER_1
 10
136.0123
 20
268.1328
  0
VERTEX
  8
LAYER_1
 10
135.9911
 20
268.1328
  0
SEQEND
  0
POLYLINE
  8
LAYER_1
 40
0.1693
 41
0.1693
 66
1
 10
0
 20
0
 30
0
  0
VERTEX
  8
LAYER_1
 10
105.0243
 20
267.646
  0
VERTEX
  8
LAYER_1
 10
136.0123
 20
267.646
  0
SEQEND
  0
POLYLINE
  8
LAYER_1
 40
0.1693
 41
0.1693
 66
1
 10
0
 20
0
 30
0
  0
VERTEX
  8
LAYER_1
 10
105.0243
 20
268.1328
  0
VERTEX
  8
LAYER_1
 10
136.0123
 20
268.1328
  0
SEQEND
  0
POLYLINE
  8
LAYER_1
 40
0.1693
 41
0.1693
 66
1
 10
0
 20
0
 30
0
  0
VERTEX
  8
LAYER_1
 10
108.3474
 20
266.6723
  0
VERTEX
  8
LAYER_1
 10
105.0243
 20
267.646
  0
SEQEND
  0
POLYLINE
  8
LAYER_1
 40
0.1693
 41
0.1693
 66
1
 10
0
 20
0
 30
0
  0
VERTEX
  8
LAYER_1
 10
132.6891
 20
266.6723
  0
VERTEX
  8
LAYER_1
 10
136.0123
 20
267.646
  0
SEQEND
  0
POLYLINE
  8
LAYER_1
 40
0.1693
 41
0.1693
 66
1
 10
0
 20
0
 30
0
  0
VERTEX
  8
LAYER_1
 10
109.2999
 20
266.1432
 42
0.1022528386
  0
VERTEX
  8
LAYER_1
 10
108.3263
 20
266.6723
  0
SEQEND
  0
POLYLINE
  8
LAYER_1
 40
0.1693
 41
0.1693
 66
1
 10
0
 20
0
 30
0
  0
VERTEX
  8
LAYER_1
 10
110.1466
 20
254.3957
  0
VERTEX
  8
LAYER_1
 10
110.1466
 20
263.1375
  0
SEQEND
  0
POLYLINE
  8
LAYER_1
 40
0.1693
 41
0.1693
 66
1
 10
0
 20
0
 30
0
  0
VERTEX
  8
LAYER_1
 10
132.6679
 20
266.6723
 42
0.1003372403
  0
VERTEX
  8
LAYER_1
 10
131.7366
 20
266.1432
  0
SEQEND
  0
POLYLINE
  8
LAYER_1
 40
0.1693
 41
0.1693
 66
1
 10
0
 20
0
 30
0
  0
VERTEX
  8
LAYER_1
 10
130.8899
 20
254.3957
  0
VERTEX
  8
LAYER_1
 10
130.8899
 20
263.1375
  0
SEQEND
  0
POLYLINE
  8
LAYER_1
 40
0.0847
 41
0.0847
 66
1
 10
0
 20
0
 30
0
  0
VERTEX
  8
LAYER_1
 10
110.1466
 20
264.2593
  0
VERTEX
  8
LAYER_1
 10
110.1043
 20
264.6827
  0
SEQEND
  0
POLYLINE
  8
LAYER_1
 40
0.0847
 41
0.0847
 66
1
 10
0
 20
0
 30
0
  0
VERTEX
  8
LAYER_1
 10
109.9561
 20
265.1907
  0
VERTEX
  8
LAYER_1
 10
109.9349
 20
265.233
  0
VERTEX
  8
LAYER_1
 10
109.7233
 20
265.6563
  0
SEQEND
  0
POLYLINE
  8
LAYER_1
 40
0.0847
 41
0.0847
 66
1
 10
0
 20
0
 30
0
  0
VERTEX
  8
LAYER_1
 10
109.3846
 20
266.0585
  0
VERTEX
  8
LAYER_1
 10
109.3211
 20
266.122
  0
SEQEND
  0
POLYLINE
  8
LAYER_1
 40
0.0847
 41
0.0847
 66
1
 10
0
 20
0
 30
0
  0
VERTEX
  8
LAYER_1
 10
110.1466
 20
263.1375
  0
VERTEX
  8
LAYER_1
 10
110.1466
 20
263.4127
  0
SEQEND
  0
POLYLINE
  8
LAYER_1
 40
0.0847
 41
0.0847
 66
1
 10
0
 20
0
 30
0
  0
VERTEX
  8
LAYER_1
 10
110.1466
 20
263.963
  0
VERTEX
  8
LAYER_1
 10
110.1466
 20
264.2593
  0
SEQEND
  0
POLYLINE
  8
LAYER_1
 40
0.0847
 41
0.0847
 66
1
 10
0
 20
0
 30
0
  0
VERTEX
  8
LAYER_1
 10
131.7366
 20
266.1432
  0
VERTEX
  8
LAYER_1
 10
131.3979
 20
265.7833
  0
SEQEND
  0
POLYLINE
  8
LAYER_1
 40
0.0847
 41
0.0847
 66
1
 10
0
 20
0
 30
0
  0
VERTEX
  8
LAYER_1
 10
130.9746
 20
264.9367
  0
VERTEX
  8
LAYER_1
 10
130.9534
 20
264.8943
  0
VERTEX
  8
LAYER_1
 10
130.9111
 20
264.471
  0
SEQEND
  0
POLYLINE
  8
LAYER_1
 40
0.0847
 41
0.0847
 66
1
 10
0
 20
0
 30
0
  0
VERTEX
  8
LAYER_1
 10
130.8899
 20
264.2593
  0
SEQEND
  0
POLYLINE
  8
LAYER_1
 40
0.0847
 41
0.0847
 66
1
 10
0
 20
0
 30
0
  0
VERTEX
  8
LAYER_1
 10
130.8899
 20
263.1375
  0
VERTEX
  8
LAYER_1
 10
130.8899
 20
263.4127
  0
SEQEND
  0
POLYLINE
  8
LAYER_1
 40
0.0847
 41
0.0847
 66
1
 10
0
 20
0
 30
0
  0
VERTEX
  8
LAYER_1
 10
130.8899
 20
263.963
  0
VERTEX
  8
LAYER_1
 10
130.8899
 20
264.2594
  0
SEQEND
  0
ENDSEC
  0
EOF
