  0
SECTION
  2
HEADER
  9
$ACADVER
  1
AC1009
  9
$LUNITS
 70
2
  9
$LUPREC
 70
4
  9
$LTSCALE
 40
1.0
  9
$EXTMIN
 10
-30.3177
 20
33.3285
 30
0
  9
$EXTMAX
 10
251.6749
 20
230.337
 30
0
  0
ENDSEC
  0
SECTION
  2
TABLES
  0
TABLE
  2
LTYPE
 70
256
  0
LTYPE
  2
AIGENLINE001
 70
64
  3
generate AI->DXF Converter
 72
65
 73
4
 40
0.5753
 49
0.2876
 49
-0.2876
 49
0
 49
0
  0
ENDTAB
  0
TABLE
  2
LAYER
 70
1
  0
LAYER
  2
LAYER_1
 70
64
 62
7
  6
CONTINUOUS
  0
ENDTAB
  0
TABLE
  2
STYLE
 70
6
  0
STYLE
  2
STANDARD
 70
0
 40
0
 50
0
 71
0
 41
0
 42
0
  3
TXT
  4
BIGFONT
  0
ENDTAB
  0
ENDSEC
  0
SECTION
  2
BLOCKS
  0
BLOCK
  8
LAYER_1
  2
AIGNBL01040006
 70
64
 10
0
 20
0
 30
0
  3
AIGNBL01040006
  0
POLYLINE
  8
LAYER_1
 40
0.05
 41
0.05
 66
1
 10
0
 20
0
 30
0
 70
1
  0
VERTEX
  8
LAYER_1
 10
105.4311
 20
39.1418
  0
VERTEX
  8
LAYER_1
 10
104.9422
 20
37.9567
  0
VERTEX
  8
LAYER_1
 10
104.3142
 20
37.9567
  0
VERTEX
  8
LAYER_1
 10
105.9137
 20
41.7225
  0
VERTEX
  8
LAYER_1
 10
106.6468
 20
41.7225
  0
VERTEX
  8
LAYER_1
 10
108.2533
 20
37.9567
  0
VERTEX
  8
LAYER_1
 10
107.6032
 20
37.9567
  0
VERTEX
  8
LAYER_1
 10
107.1006
 20
39.1418
  0
SEQEND
  0
POLYLINE
  8
LAYER_1
 40
0.05
 41
0.05
 66
1
 10
0
 20
0
 30
0
 70
1
  0
VERTEX
  8
LAYER_1
 10
106.9748
 20
39.5207
  0
VERTEX
  8
LAYER_1
 10
106.5138
 20
40.6056
  0
VERTEX
  8
LAYER_1
 10
106.2692
 20
41.2926
  0
VERTEX
  8
LAYER_1
 10
106.2555
 20
41.2926
  0
VERTEX
  8
LAYER_1
 10
106.0178
 20
40.6101
  0
VERTEX
  8
LAYER_1
 10
105.5571
 20
39.5207
  0
SEQEND
  0
ENDBLK
  0
BLOCK
  8
LAYER_1
  2
AIGNBL01040007
 70
64
 10
0
 20
0
 30
0
  3
AIGNBL01040007
  0
POLYLINE
  8
LAYER_1
 40
0.05
 41
0.05
 66
1
 10
0
 20
0
 30
0
 70
1
  0
VERTEX
  8
LAYER_1
 10
112.6186
 20
37.4034
 42
-0.0155848755
  0
VERTEX
  8
LAYER_1
 10
110.8164
 20
37.8395
  0
VERTEX
  8
LAYER_1
 10
110.5298
 20
37.895
 42
-0.08356944747
  0
VERTEX
  8
LAYER_1
 10
109.6658
 20
38.0612
 42
-0.0975043791
  0
VERTEX
  8
LAYER_1
 10
109.0046
 20
38.4671
 42
-0.2129077902
  0
VERTEX
  8
LAYER_1
 10
108.4559
 20
39.7998
 42
-0.0968494152
  0
VERTEX
  8
LAYER_1
 10
108.6005
 20
40.5732
 42
-0.2046438079
  0
VERTEX
  8
LAYER_1
 10
109.648
 20
41.5974
 42
-0.09824750395
  0
VERTEX
  8
LAYER_1
 10
110.649
 20
41.7838
 42
-0.08554009695
  0
VERTEX
  8
LAYER_1
 10
111.5176
 20
41.6425
 42
-0.1004336034
  0
VERTEX
  8
LAYER_1
 10
112.1827
 20
41.2483
 42
-0.2141019095
  0
VERTEX
  8
LAYER_1
 10
112.7581
 20
39.8784
 42
-0.09540850229
  0
VERTEX
  8
LAYER_1
 10
112.6192
 20
39.1106
 42
-0.2143210227
  0
VERTEX
  8
LAYER_1
 10
111.5963
 20
38.1321
 42
-0.02338900436
  0
VERTEX
  8
LAYER_1
 10
111.4172
 20
38.0738
  0
VERTEX
  8
LAYER_1
 10
111.4172
 20
38.0514
 42
0.01711211955
  0
VERTEX
  8
LAYER_1
 10
112.7936
 20
37.8113
  0
SEQEND
  0
POLYLINE
  8
LAYER_1
 40
0.05
 41
0.05
 66
1
 10
0
 20
0
 30
0
 70
1
  0
VERTEX
  8
LAYER_1
 10
112.1159
 20
39.857
 42
0.1071543648
  0
VERTEX
  8
LAYER_1
 10
111.9646
 20
40.5618
 42
0.2976507644
  0
VERTEX
  8
LAYER_1
 10
110.6276
 20
41.3873
 42
0.1072356843
  0
VERTEX
  8
LAYER_1
 10
109.9378
 20
41.2478
 42
0.2385874916
  0
VERTEX
  8
LAYER_1
 10
109.1508
 20
40.2422
 42
0.05751786988
  0
VERTEX
  8
LAYER_1
 10
109.1052
 20
39.8122
 42
0.2180663696
  0
VERTEX
  8
LAYER_1
 10
109.6358
 20
38.6168
 42
0.1772758138
  0
VERTEX
  8
LAYER_1
 10
110.5997
 20
38.2912
 42
0.1075185771
  0
VERTEX
  8
LAYER_1
 10
111.2811
 20
38.4302
 42
0.2370926009
  0
VERTEX
  8
LAYER_1
 10
112.0682
 20
39.4298
 42
0.05601310134
  0
SEQEND
  0
ENDBLK
  0
BLOCK
  8
LAYER_1
  2
AIGNBL01040008
 70
64
 10
0
 20
0
 30
0
  3
AIGNBL01040008
  0
POLYLINE
  8
LAYER_1
 40
0.05
 41
0.05
 66
1
 10
0
 20
0
 30
0
 70
1
  0
VERTEX
  8
LAYER_1
 10
114.0855
 20
41.7225
  0
VERTEX
  8
LAYER_1
 10
114.0855
 20
39.4932
 42
0.1145199457
  0
VERTEX
  8
LAYER_1
 10
114.2194
 20
38.8274
 42
0.1464896694
  0
VERTEX
  8
LAYER_1
 10
114.5697
 20
38.4422
 42
0.1362580474
  0
VERTEX
  8
LAYER_1
 10
115.1821
 20
38.2912
 42
0.1219300979
  0
VERTEX
  8
LAYER_1
 10
115.8052
 20
38.4259
 42
0.1503016186
  0
VERTEX
  8
LAYER_1
 10
116.177
 20
38.7949
 42
0.1256239276
  0
VERTEX
  8
LAYER_1
 10
116.3276
 20
39.4932
  0
VERTEX
  8
LAYER_1
 10
116.3276
 20
41.7225
  0
VERTEX
  8
LAYER_1
 10
116.9422
 20
41.7225
  0
VERTEX
  8
LAYER_1
 10
116.9422
 20
39.5266
 42
-0.09997665689
  0
VERTEX
  8
LAYER_1
 10
116.8073
 20
38.7839
 42
-0.1215019174
  0
VERTEX
  8
LAYER_1
 10
116.434
 20
38.2772
 42
-0.1106228669
  0
VERTEX
  8
LAYER_1
 10
115.8085
 20
37.9706
 42
-0.06128517916
  0
VERTEX
  8
LAYER_1
 10
115.161
 20
37.895
 42
-0.09418763513
  0
VERTEX
  8
LAYER_1
 10
114.3419
 20
38.0331
 42
-0.2431628294
  0
VERTEX
  8
LAYER_1
 10
113.5384
 20
38.9438
 42
-0.06320488118
  0
VERTEX
  8
LAYER_1
 10
113.4709
 20
39.5045
  0
VERTEX
  8
LAYER_1
 10
113.4709
 20
41.7225
  0
SEQEND
  0
ENDBLK
  0
BLOCK
  8
LAYER_1
  2
AIGNBL01040009
 70
64
 10
0
 20
0
 30
0
  3
AIGNBL01040009
  0
POLYLINE
  8
LAYER_1
 40
0.05
 41
0.05
 66
1
 10
0
 20
0
 30
0
 70
1
  0
VERTEX
  8
LAYER_1
 10
118.6885
 20
39.1418
  0
VERTEX
  8
LAYER_1
 10
118.1993
 20
37.9567
  0
VERTEX
  8
LAYER_1
 10
117.5712
 20
37.9567
  0
VERTEX
  8
LAYER_1
 10
119.1705
 20
41.7225
  0
VERTEX
  8
LAYER_1
 10
119.9036
 20
41.7225
  0
VERTEX
  8
LAYER_1
 10
121.51
 20
37.9567
  0
VERTEX
  8
LAYER_1
 10
120.8606
 20
37.9567
  0
VERTEX
  8
LAYER_1
 10
120.358
 20
39.1418
  0
SEQEND
  0
POLYLINE
  8
LAYER_1
 40
0.05
 41
0.05
 66
1
 10
0
 20
0
 30
0
 70
1
  0
VERTEX
  8
LAYER_1
 10
120.2319
 20
39.5207
  0
VERTEX
  8
LAYER_1
 10
119.7706
 20
40.6056
  0
VERTEX
  8
LAYER_1
 10
119.526
 20
41.2926
  0
VERTEX
  8
LAYER_1
 10
119.5122
 20
41.2926
  0
VERTEX
  8
LAYER_1
 10
119.2748
 20
40.6101
  0
VERTEX
  8
LAYER_1
 10
118.8139
 20
39.5207
  0
SEQEND
  0
ENDBLK
  0
BLOCK
  8
LAYER_1
  2
AIGNBL0104000A
 70
64
 10
0
 20
0
 30
0
  3
AIGNBL0104000A
  0
POLYLINE
  8
LAYER_1
 40
0.05
 41
0.05
 66
1
 10
0
 20
0
 30
0
 70
1
  0
VERTEX
  8
LAYER_1
 10
122.5508
 20
41.6777
 42
-0.03246092253
  0
VERTEX
  8
LAYER_1
 10
123.7176
 20
41.7508
 42
-0.08084549745
  0
VERTEX
  8
LAYER_1
 10
124.6741
 20
41.619
 42
-0.07819914268
  0
VERTEX
  8
LAYER_1
 10
125.0374
 20
41.4379
 42
-0.2484709269
  0
VERTEX
  8
LAYER_1
 10
125.4491
 20
40.6497
 42
-0.226147
  0
VERTEX
  8
LAYER_1
 10
125.086
 20
39.8456
 42
-0.109727648
  0
VERTEX
  8
LAYER_1
 10
124.4577
 20
39.5323
 42
-0.06565380896
  0
VERTEX
  8
LAYER_1
 10
123.6473
 20
39.4319
 42
-0.06238309955
  0
VERTEX
  8
LAYER_1
 10
123.1588
 20
39.4653
  0
VERTEX
  8
LAYER_1
 10
123.1588
 20
37.9567
  0
VERTEX
  8
LAYER_1
 10
122.5508
 20
37.9567
  0
SEQEND
  0
POLYLINE
  8
LAYER_1
 40
0.05
 41
0.05
 66
1
 10
0
 20
0
 30
0
 70
1
  0
VERTEX
  8
LAYER_1
 10
123.1588
 20
39.8622
 42
0.04203451964
  0
VERTEX
  8
LAYER_1
 10
123.6611
 20
39.8229
 42
0.1032111168
  0
VERTEX
  8
LAYER_1
 10
124.3803
 20
39.9502
 42
0.1555938032
  0
VERTEX
  8
LAYER_1
 10
124.7451
 20
40.2546
 42
0.1352673748
  0
VERTEX
  8
LAYER_1
 10
124.8421
 20
40.6273
 42
0.1737047371
  0
VERTEX
  8
LAYER_1
 10
124.7073
 20
41.0346
 42
0.1517050813
  0
VERTEX
  8
LAYER_1
 10
124.2862
 20
41.2941
 42
0.06879756253
  0
VERTEX
  8
LAYER_1
 10
123.7317
 20
41.3649
 42
0.06336983159
  0
VERTEX
  8
LAYER_1
 10
123.1588
 20
41.3257
  0
SEQEND
  0
ENDBLK
  0
BLOCK
  8
LAYER_1
  2
AIGNBL0104000B
 70
64
 10
0
 20
0
 30
0
  3
AIGNBL0104000B
  0
POLYLINE
  8
LAYER_1
 40
0.05
 41
0.05
 66
1
 10
0
 20
0
 30
0
 70
1
  0
VERTEX
  8
LAYER_1
 10
127.0011
 20
41.4207
 42
-0.2767461975
  0
VERTEX
  8
LAYER_1
 10
126.8616
 20
41.1806
 42
-0.1265294091
  0
VERTEX
  8
LAYER_1
 10
126.6094
 20
41.1189
 42
-0.2237518698
  0
VERTEX
  8
LAYER_1
 10
126.2991
 20
41.2513
 42
-0.1708341408
  0
VERTEX
  8
LAYER_1
 10
126.2391
 20
41.4207
 42
-0.2643879937
  0
VERTEX
  8
LAYER_1
 10
126.3885
 20
41.6678
 42
-0.1290073663
  0
VERTEX
  8
LAYER_1
 10
126.6232
 20
41.7277
 42
-0.225342086
  0
VERTEX
  8
LAYER_1
 10
126.94
 20
41.597
 42
-0.1691136206
  0
SEQEND
  0
POLYLINE
  8
LAYER_1
 40
0.05
 41
0.05
 66
1
 10
0
 20
0
 30
0
 70
1
  0
VERTEX
  8
LAYER_1
 10
126.3156
 20
37.9567
  0
VERTEX
  8
LAYER_1
 10
126.3156
 20
40.6607
  0
VERTEX
  8
LAYER_1
 10
126.9302
 20
40.6607
  0
VERTEX
  8
LAYER_1
 10
126.9302
 20
37.9567
  0
SEQEND
  0
ENDBLK
  0
BLOCK
  8
LAYER_1
  2
AIGNBL0104000C
 70
64
 10
0
 20
0
 30
0
  3
AIGNBL0104000C
  0
POLYLINE
  8
LAYER_1
 40
0.05
 41
0.05
 66
1
 10
0
 20
0
 30
0
 70
1
  0
VERTEX
  8
LAYER_1
 10
128.8019
 20
39.1418
  0
VERTEX
  8
LAYER_1
 10
128.3137
 20
37.9567
  0
VERTEX
  8
LAYER_1
 10
127.6846
 20
37.9567
  0
VERTEX
  8
LAYER_1
 10
129.2842
 20
41.7225
  0
VERTEX
  8
LAYER_1
 10
130.018
 20
41.7225
  0
VERTEX
  8
LAYER_1
 10
131.6245
 20
37.9567
  0
VERTEX
  8
LAYER_1
 10
130.9747
 20
37.9567
  0
VERTEX
  8
LAYER_1
 10
130.4721
 20
39.1418
  0
SEQEND
  0
POLYLINE
  8
LAYER_1
 40
0.05
 41
0.05
 66
1
 10
0
 20
0
 30
0
 70
1
  0
VERTEX
  8
LAYER_1
 10
130.346
 20
39.5207
  0
VERTEX
  8
LAYER_1
 10
129.885
 20
40.6056
  0
VERTEX
  8
LAYER_1
 10
129.6411
 20
41.2926
  0
VERTEX
  8
LAYER_1
 10
129.6263
 20
41.2926
  0
VERTEX
  8
LAYER_1
 10
129.3893
 20
40.6101
  0
VERTEX
  8
LAYER_1
 10
128.9283
 20
39.5207
  0
SEQEND
  0
ENDBLK
  0
BLOCK
  8
LAYER_1
  2
AIGNBL01030005
 70
64
 10
0
 20
0
 30
0
  3
AIGNBL01030005
  0
INSERT
  8
LAYER_1
  2
AIGNBL01040006
 10
0
 20
0
 30
0
  0
INSERT
  8
LAYER_1
  2
AIGNBL01040007
 10
0
 20
0
 30
0
  0
INSERT
  8
LAYER_1
  2
AIGNBL01040008
 10
0
 20
0
 30
0
  0
INSERT
  8
LAYER_1
  2
AIGNBL01040009
 10
0
 20
0
 30
0
  0
INSERT
  8
LAYER_1
  2
AIGNBL0104000A
 10
0
 20
0
 30
0
  0
INSERT
  8
LAYER_1
  2
AIGNBL0104000B
 10
0
 20
0
 30
0
  0
INSERT
  8
LAYER_1
  2
AIGNBL0104000C
 10
0
 20
0
 30
0
  0
ENDBLK
  0
BLOCK
  8
LAYER_1
  2
AIGNBL0103000E
 70
64
 10
0
 20
0
 30
0
  3
AIGNBL0103000E
  0
POLYLINE
  8
LAYER_1
 40
0.05
 41
0.05
 66
1
 10
0
 20
0
 30
0
 70
1
  0
VERTEX
  8
LAYER_1
 10
104.4241
 20
36.0574
  0
VERTEX
  8
LAYER_1
 10
104.9773
 20
36.0574
  0
VERTEX
  8
LAYER_1
 10
104.9773
 20
35.9637
  0
VERTEX
  8
LAYER_1
 10
104.319
 20
35.9637
  0
VERTEX
  8
LAYER_1
 10
104.319
 20
36.9969
  0
VERTEX
  8
LAYER_1
 10
104.9598
 20
36.9969
  0
VERTEX
  8
LAYER_1
 10
104.9598
 20
36.9035
  0
VERTEX
  8
LAYER_1
 10
104.4241
 20
36.9035
  0
VERTEX
  8
LAYER_1
 10
104.4241
 20
36.549
  0
VERTEX
  8
LAYER_1
 10
104.9246
 20
36.549
  0
VERTEX
  8
LAYER_1
 10
104.9246
 20
36.4557
  0
VERTEX
  8
LAYER_1
 10
104.4241
 20
36.4557
  0
SEQEND
  0
ENDBLK
  0
BLOCK
  8
LAYER_1
  2
AIGNBL0103000F
 70
64
 10
0
 20
0
 30
0
  3
AIGNBL0103000F
  0
POLYLINE
  8
LAYER_1
 40
0.05
 41
0.05
 66
1
 10
0
 20
0
 30
0
 70
1
  0
VERTEX
  8
LAYER_1
 10
106.117
 20
36.117
  0
VERTEX
  8
LAYER_1
 10
106.1197
 20
36.117
  0
VERTEX
  8
LAYER_1
 10
106.1197
 20
36.9969
  0
VERTEX
  8
LAYER_1
 10
106.2248
 20
36.9969
  0
VERTEX
  8
LAYER_1
 10
106.2248
 20
35.9637
  0
VERTEX
  8
LAYER_1
 10
106.0939
 20
35.9637
  0
VERTEX
  8
LAYER_1
 10
105.4927
 20
36.8525
  0
VERTEX
  8
LAYER_1
 10
105.4893
 20
36.8525
  0
VERTEX
  8
LAYER_1
 10
105.4893
 20
35.9637
  0
VERTEX
  8
LAYER_1
 10
105.3845
 20
35.9637
  0
VERTEX
  8
LAYER_1
 10
105.3845
 20
36.9969
  0
VERTEX
  8
LAYER_1
 10
105.5158
 20
36.9969
  0
SEQEND
  0
ENDBLK
  0
BLOCK
  8
LAYER_1
  2
AIGNBL01030010
 70
64
 10
0
 20
0
 30
0
  3
AIGNBL01030010
  0
POLYLINE
  8
LAYER_1
 40
0.05
 41
0.05
 66
1
 10
0
 20
0
 30
0
 70
1
  0
VERTEX
  8
LAYER_1
 10
106.6978
 20
36.1756
  0
VERTEX
  8
LAYER_1
 10
106.7523
 20
36.0725
 42
0.1804993832
  0
VERTEX
  8
LAYER_1
 10
106.8656
 20
36.0309
  0
VERTEX
  8
LAYER_1
 10
106.9548
 20
36.0505
  0
VERTEX
  8
LAYER_1
 10
107.011
 20
36.1039
  0
VERTEX
  8
LAYER_1
 10
107.0399
 20
36.1804
  0
VERTEX
  8
LAYER_1
 10
107.0482
 20
36.27
  0
VERTEX
  8
LAYER_1
 10
107.0482
 20
36.9969
  0
VERTEX
  8
LAYER_1
 10
107.1533
 20
36.9969
  0
VERTEX
  8
LAYER_1
 10
107.1533
 20
36.2614
  0
VERTEX
  8
LAYER_1
 10
107.1419
 20
36.1535
  0
VERTEX
  8
LAYER_1
 10
107.1006
 20
36.0485
  0
VERTEX
  8
LAYER_1
 10
107.0158
 20
35.9689
  0
VERTEX
  8
LAYER_1
 10
106.877
 20
35.9375
 42
-0.1845892347
  0
VERTEX
  8
LAYER_1
 10
106.6923
 20
35.9974
 42
-0.176191571
  0
VERTEX
  8
LAYER_1
 10
106.6
 20
36.149
  0
SEQEND
  0
ENDBLK
  0
BLOCK
  8
LAYER_1
  2
AIGNBL01030011
 70
64
 10
0
 20
0
 30
0
  3
AIGNBL01030011
  0
POLYLINE
  8
LAYER_1
 40
0.05
 41
0.05
 66
1
 10
0
 20
0
 30
0
 70
1
  0
VERTEX
  8
LAYER_1
 10
108.6416
 20
36.4805
 42
-0.10394313
  0
VERTEX
  8
LAYER_1
 10
108.6005
 20
36.2631
 42
-0.1002538824
  0
VERTEX
  8
LAYER_1
 10
108.4879
 20
36.0915
  0
VERTEX
  8
LAYER_1
 10
108.317
 20
35.9785
 42
-0.09506675375
  0
VERTEX
  8
LAYER_1
 10
108.1031
 20
35.9375
 42
-0.1010866674
  0
VERTEX
  8
LAYER_1
 10
107.8895
 20
35.9785
 42
-0.1005668876
  0
VERTEX
  8
LAYER_1
 10
107.7186
 20
36.0915
 42
-0.09506076213
  0
VERTEX
  8
LAYER_1
 10
107.6053
 20
36.2631
 42
-0.09316585798
  0
VERTEX
  8
LAYER_1
 10
107.5646
 20
36.4805
 42
-0.1029152058
  0
VERTEX
  8
LAYER_1
 10
107.6053
 20
36.6978
 42
-0.1008913794
  0
VERTEX
  8
LAYER_1
 10
107.7186
 20
36.8694
 42
-0.09625543395
  0
VERTEX
  8
LAYER_1
 10
107.8895
 20
36.9824
 42
-0.09521573462
  0
VERTEX
  8
LAYER_1
 10
108.1031
 20
37.0234
 42
-0.101175466
  0
VERTEX
  8
LAYER_1
 10
108.317
 20
36.9824
 42
-0.09853409661
  0
VERTEX
  8
LAYER_1
 10
108.4879
 20
36.8694
 42
-0.09556553869
  0
VERTEX
  8
LAYER_1
 10
108.6005
 20
36.6978
 42
-0.09420719768
  0
SEQEND
  0
POLYLINE
  8
LAYER_1
 40
0.05
 41
0.05
 66
1
 10
0
 20
0
 30
0
 70
1
  0
VERTEX
  8
LAYER_1
 10
108.5306
 20
36.4798
  0
VERTEX
  8
LAYER_1
 10
108.5017
 20
36.6517
  0
VERTEX
  8
LAYER_1
 10
108.4169
 20
36.795
  0
VERTEX
  8
LAYER_1
 10
108.2819
 20
36.8932
  0
VERTEX
  8
LAYER_1
 10
108.1031
 20
36.93
  0
VERTEX
  8
LAYER_1
 10
107.9243
 20
36.8932
  0
VERTEX
  8
LAYER_1
 10
107.7896
 20
36.795
  0
VERTEX
  8
LAYER_1
 10
107.7048
 20
36.6517
  0
VERTEX
  8
LAYER_1
 10
107.6755
 20
36.4798
  0
VERTEX
  8
LAYER_1
 10
107.7048
 20
36.3079
  0
VERTEX
  8
LAYER_1
 10
107.7896
 20
36.1649
  0
VERTEX
  8
LAYER_1
 10
107.9243
 20
36.0674
 42
0.1008280473
  0
VERTEX
  8
LAYER_1
 10
108.1031
 20
36.0309
  0
VERTEX
  8
LAYER_1
 10
108.2819
 20
36.0674
  0
VERTEX
  8
LAYER_1
 10
108.4169
 20
36.1649
  0
VERTEX
  8
LAYER_1
 10
108.5017
 20
36.3079
  0
SEQEND
  0
ENDBLK
  0
BLOCK
  8
LAYER_1
  2
AIGNBL01030012
 70
64
 10
0
 20
0
 30
0
  3
AIGNBL01030012
  0
POLYLINE
  8
LAYER_1
 40
0.05
 41
0.05
 66
1
 10
0
 20
0
 30
0
 70
1
  0
VERTEX
  8
LAYER_1
 10
109.4163
 20
35.9637
  0
VERTEX
  8
LAYER_1
 10
109.3116
 20
35.9637
  0
VERTEX
  8
LAYER_1
 10
109.3116
 20
36.4091
  0
VERTEX
  8
LAYER_1
 10
108.9247
 20
36.9969
  0
VERTEX
  8
LAYER_1
 10
109.056
 20
36.9969
  0
VERTEX
  8
LAYER_1
 10
109.3671
 20
36.4967
  0
VERTEX
  8
LAYER_1
 10
109.6806
 20
36.9969
  0
VERTEX
  8
LAYER_1
 10
109.8029
 20
36.9969
  0
VERTEX
  8
LAYER_1
 10
109.4163
 20
36.4091
  0
SEQEND
  0
ENDBLK
  0
BLOCK
  8
LAYER_1
  2
AIGNBL01030013
 70
64
 10
0
 20
0
 30
0
  3
AIGNBL01030013
  0
POLYLINE
  8
LAYER_1
 40
0.05
 41
0.05
 66
1
 10
0
 20
0
 30
0
 70
1
  0
VERTEX
  8
LAYER_1
 10
110.7079
 20
36.9969
  0
VERTEX
  8
LAYER_1
 10
111.0155
 20
36.9969
  0
VERTEX
  8
LAYER_1
 10
111.1341
 20
36.9845
  0
VERTEX
  8
LAYER_1
 10
111.2409
 20
36.9421
  0
VERTEX
  8
LAYER_1
 10
111.3187
 20
36.8611
  0
VERTEX
  8
LAYER_1
 10
111.3483
 20
36.733
 42
-0.1790346201
  0
VERTEX
  8
LAYER_1
 10
111.2984
 20
36.5907
 42
-0.1642259289
  0
VERTEX
  8
LAYER_1
 10
111.1651
 20
36.5111
  0
VERTEX
  8
LAYER_1
 10
111.1651
 20
36.5084
 42
-0.1734673322
  0
VERTEX
  8
LAYER_1
 10
111.3318
 20
36.4302
 42
-0.1921994171
  0
VERTEX
  8
LAYER_1
 10
111.3979
 20
36.2496
  0
VERTEX
  8
LAYER_1
 10
111.3708
 20
36.1325
  0
VERTEX
  8
LAYER_1
 10
111.2946
 20
36.0419
  0
VERTEX
  8
LAYER_1
 10
111.1737
 20
35.9844
  0
VERTEX
  8
LAYER_1
 10
111.0138
 20
35.9637
  0
VERTEX
  8
LAYER_1
 10
110.7079
 20
35.9637
  0
SEQEND
  0
POLYLINE
  8
LAYER_1
 40
0.05
 41
0.05
 66
1
 10
0
 20
0
 30
0
 70
1
  0
VERTEX
  8
LAYER_1
 10
110.813
 20
36.5445
  0
VERTEX
  8
LAYER_1
 10
111.0245
 20
36.5445
  0
VERTEX
  8
LAYER_1
 10
111.1013
 20
36.5535
  0
VERTEX
  8
LAYER_1
 10
111.1716
 20
36.5831
  0
VERTEX
  8
LAYER_1
 10
111.2236
 20
36.6396
  0
VERTEX
  8
LAYER_1
 10
111.2433
 20
36.7258
  0
VERTEX
  8
LAYER_1
 10
111.2236
 20
36.8095
  0
VERTEX
  8
LAYER_1
 10
111.1706
 20
36.8656
  0
VERTEX
  8
LAYER_1
 10
111.0917
 20
36.897
  0
VERTEX
  8
LAYER_1
 10
110.9952
 20
36.9066
  0
VERTEX
  8
LAYER_1
 10
110.813
 20
36.9066
  0
SEQEND
  0
POLYLINE
  8
LAYER_1
 40
0.05
 41
0.05
 66
1
 10
0
 20
0
 30
0
 70
1
  0
VERTEX
  8
LAYER_1
 10
110.813
 20
36.0543
  0
VERTEX
  8
LAYER_1
 10
111.0087
 20
36.0543
  0
VERTEX
  8
LAYER_1
 10
111.1172
 20
36.0653
  0
VERTEX
  8
LAYER_1
 10
111.2078
 20
36.1001
  0
VERTEX
  8
LAYER_1
 10
111.2695
 20
36.1632
  0
VERTEX
  8
LAYER_1
 10
111.2929
 20
36.2559
 42
0.2557371221
  0
VERTEX
  8
LAYER_1
 10
111.2236
 20
36.4081
 42
0.1381508151
  0
VERTEX
  8
LAYER_1
 10
111.0276
 20
36.4584
  0
VERTEX
  8
LAYER_1
 10
110.813
 20
36.4584
  0
SEQEND
  0
ENDBLK
  0
BLOCK
  8
LAYER_1
  2
AIGNBL01030014
 70
64
 10
0
 20
0
 30
0
  3
AIGNBL01030014
  0
POLYLINE
  8
LAYER_1
 40
0.05
 41
0.05
 66
1
 10
0
 20
0
 30
0
 70
1
  0
VERTEX
  8
LAYER_1
 10
111.83
 20
35.9637
  0
VERTEX
  8
LAYER_1
 10
111.7146
 20
35.9637
  0
VERTEX
  8
LAYER_1
 10
112.1614
 20
36.9969
  0
VERTEX
  8
LAYER_1
 10
112.2637
 20
36.9969
  0
VERTEX
  8
LAYER_1
 10
112.7071
 20
35.9637
  0
VERTEX
  8
LAYER_1
 10
112.5903
 20
35.9637
  0
VERTEX
  8
LAYER_1
 10
112.4763
 20
36.2352
  0
VERTEX
  8
LAYER_1
 10
111.9423
 20
36.2352
  0
SEQEND
  0
POLYLINE
  8
LAYER_1
 40
0.05
 41
0.05
 66
1
 10
0
 20
0
 30
0
 70
1
  0
VERTEX
  8
LAYER_1
 10
111.9815
 20
36.3316
  0
VERTEX
  8
LAYER_1
 10
112.437
 20
36.3316
  0
VERTEX
  8
LAYER_1
 10
112.2093
 20
36.8804
  0
SEQEND
  0
ENDBLK
  0
BLOCK
  8
LAYER_1
  2
AIGNBL01030015
 70
64
 10
0
 20
0
 30
0
  3
AIGNBL01030015
  0
POLYLINE
  8
LAYER_1
 40
0.05
 41
0.05
 66
1
 10
0
 20
0
 30
0
 70
1
  0
VERTEX
  8
LAYER_1
 10
113.3916
 20
35.9637
  0
VERTEX
  8
LAYER_1
 10
113.2865
 20
35.9637
  0
VERTEX
  8
LAYER_1
 10
113.2865
 20
36.9035
  0
VERTEX
  8
LAYER_1
 10
112.9403
 20
36.9035
  0
VERTEX
  8
LAYER_1
 10
112.9403
 20
36.9969
  0
VERTEX
  8
LAYER_1
 10
113.7372
 20
36.9969
  0
VERTEX
  8
LAYER_1
 10
113.7372
 20
36.9035
  0
VERTEX
  8
LAYER_1
 10
113.3916
 20
36.9035
  0
SEQEND
  0
ENDBLK
  0
BLOCK
  8
LAYER_1
  2
AIGNBL01030016
 70
64
 10
0
 20
0
 30
0
  3
AIGNBL01030016
  0
POLYLINE
  8
LAYER_1
 40
0.05
 41
0.05
 66
1
 10
0
 20
0
 30
0
 70
1
  0
VERTEX
  8
LAYER_1
 10
114.0934
 20
36.9969
  0
VERTEX
  8
LAYER_1
 10
114.1981
 20
36.9969
  0
VERTEX
  8
LAYER_1
 10
114.1981
 20
36.549
  0
VERTEX
  8
LAYER_1
 10
114.7618
 20
36.549
  0
VERTEX
  8
LAYER_1
 10
114.7618
 20
36.9969
  0
VERTEX
  8
LAYER_1
 10
114.8668
 20
36.9969
  0
VERTEX
  8
LAYER_1
 10
114.8668
 20
35.9637
  0
VERTEX
  8
LAYER_1
 10
114.7618
 20
35.9637
  0
VERTEX
  8
LAYER_1
 10
114.7618
 20
36.4529
  0
VERTEX
  8
LAYER_1
 10
114.1981
 20
36.4529
  0
VERTEX
  8
LAYER_1
 10
114.1981
 20
35.9637
  0
VERTEX
  8
LAYER_1
 10
114.0934
 20
35.9637
  0
SEQEND
  0
ENDBLK
  0
BLOCK
  8
LAYER_1
  2
AIGNBL01030017
 70
64
 10
0
 20
0
 30
0
  3
AIGNBL01030017
  0
POLYLINE
  8
LAYER_1
 40
0.05
 41
0.05
 66
1
 10
0
 20
0
 30
0
 70
1
  0
VERTEX
  8
LAYER_1
 10
115.4473
 20
35.9637
  0
VERTEX
  8
LAYER_1
 10
115.3423
 20
35.9637
  0
VERTEX
  8
LAYER_1
 10
115.3423
 20
36.9969
  0
VERTEX
  8
LAYER_1
 10
115.6461
 20
36.9969
  0
VERTEX
  8
LAYER_1
 10
115.7867
 20
36.9824
  0
VERTEX
  8
LAYER_1
 10
115.8993
 20
36.9349
  0
VERTEX
  8
LAYER_1
 10
115.9727
 20
36.8494
  0
VERTEX
  8
LAYER_1
 10
115.9989
 20
36.7213
  0
VERTEX
  8
LAYER_1
 10
115.9789
 20
36.6176
  0
VERTEX
  8
LAYER_1
 10
115.9235
 20
36.5366
  0
VERTEX
  8
LAYER_1
 10
115.8401
 20
36.4818
  0
VERTEX
  8
LAYER_1
 10
115.735
 20
36.4557
  0
VERTEX
  8
LAYER_1
 10
116.0371
 20
35.9637
  0
VERTEX
  8
LAYER_1
 10
115.9086
 20
35.9637
  0
VERTEX
  8
LAYER_1
 10
115.6227
 20
36.4467
  0
VERTEX
  8
LAYER_1
 10
115.4473
 20
36.4467
  0
SEQEND
  0
POLYLINE
  8
LAYER_1
 40
0.05
 41
0.05
 66
1
 10
0
 20
0
 30
0
 70
1
  0
VERTEX
  8
LAYER_1
 10
115.4473
 20
36.5373
  0
VERTEX
  8
LAYER_1
 10
115.6299
 20
36.5373
 42
0.1654500383
  0
VERTEX
  8
LAYER_1
 10
115.8256
 20
36.5831
 42
0.2503949893
  0
VERTEX
  8
LAYER_1
 10
115.8942
 20
36.7213
  0
VERTEX
  8
LAYER_1
 10
115.8749
 20
36.8071
  0
VERTEX
  8
LAYER_1
 10
115.8225
 20
36.8643
  0
VERTEX
  8
LAYER_1
 10
115.7409
 20
36.8963
  0
VERTEX
  8
LAYER_1
 10
115.6344
 20
36.9066
  0
VERTEX
  8
LAYER_1
 10
115.4473
 20
36.9066
  0
SEQEND
  0
ENDBLK
  0
BLOCK
  8
LAYER_1
  2
AIGNBL01030018
 70
64
 10
0
 20
0
 30
0
  3
AIGNBL01030018
  0
POLYLINE
  8
LAYER_1
 40
0.05
 41
0.05
 66
1
 10
0
 20
0
 30
0
 70
1
  0
VERTEX
  8
LAYER_1
 10
117.4393
 20
36.4805
 42
-0.1005163161
  0
VERTEX
  8
LAYER_1
 10
117.3986
 20
36.2631
 42
-0.1003846159
  0
VERTEX
  8
LAYER_1
 10
117.2853
 20
36.0915
 42
-0.09584766738
  0
VERTEX
  8
LAYER_1
 10
117.1147
 20
35.9785
 42
-0.09506713234
  0
VERTEX
  8
LAYER_1
 10
116.9008
 20
35.9375
 42
-0.101175466
  0
VERTEX
  8
LAYER_1
 10
116.6869
 20
35.9785
 42
-0.09967088569
  0
VERTEX
  8
LAYER_1
 10
116.5163
 20
36.0915
 42
-0.09574135652
  0
VERTEX
  8
LAYER_1
 10
116.4033
 20
36.2631
 42
-0.09293305267
  0
VERTEX
  8
LAYER_1
 10
116.3627
 20
36.4805
 42
-0.1024980643
  0
VERTEX
  8
LAYER_1
 10
116.4033
 20
36.6978
 42
-0.1015030268
  0
VERTEX
  8
LAYER_1
 10
116.5163
 20
36.8694
 42
-0.09577113234
  0
VERTEX
  8
LAYER_1
 10
116.6869
 20
36.9824
 42
-0.09506675375
  0
VERTEX
  8
LAYER_1
 10
116.9008
 20
37.0234
 42
-0.1014233705
  0
VERTEX
  8
LAYER_1
 10
117.1147
 20
36.9824
 42
-0.1017041996
  0
VERTEX
  8
LAYER_1
 10
117.2853
 20
36.8694
 42
-0.09506500802
  0
VERTEX
  8
LAYER_1
 10
117.3986
 20
36.6978
 42
-0.09299771213
  0
SEQEND
  0
POLYLINE
  8
LAYER_1
 40
0.05
 41
0.05
 66
1
 10
0
 20
0
 30
0
 70
1
  0
VERTEX
  8
LAYER_1
 10
117.3284
 20
36.4798
  0
VERTEX
  8
LAYER_1
 10
117.2991
 20
36.6517
  0
VERTEX
  8
LAYER_1
 10
117.2143
 20
36.795
  0
VERTEX
  8
LAYER_1
 10
117.0796
 20
36.8932
  0
VERTEX
  8
LAYER_1
 10
116.9008
 20
36.93
  0
VERTEX
  8
LAYER_1
 10
116.722
 20
36.8932
  0
VERTEX
  8
LAYER_1
 10
116.587
 20
36.795
  0
VERTEX
  8
LAYER_1
 10
116.5022
 20
36.6517
  0
VERTEX
  8
LAYER_1
 10
116.4733
 20
36.4798
  0
VERTEX
  8
LAYER_1
 10
116.5022
 20
36.3079
  0
VERTEX
  8
LAYER_1
 10
116.587
 20
36.1649
  0
VERTEX
  8
LAYER_1
 10
116.722
 20
36.0674
  0
VERTEX
  8
LAYER_1
 10
116.9008
 20
36.0309
 42
0.1157330551
  0
VERTEX
  8
LAYER_1
 10
117.0796
 20
36.0674
  0
VERTEX
  8
LAYER_1
 10
117.2143
 20
36.1649
  0
VERTEX
  8
LAYER_1
 10
117.2991
 20
36.3079
  0
SEQEND
  0
ENDBLK
  0
BLOCK
  8
LAYER_1
  2
AIGNBL01030019
 70
64
 10
0
 20
0
 30
0
  3
AIGNBL01030019
  0
POLYLINE
  8
LAYER_1
 40
0.05
 41
0.05
 66
1
 10
0
 20
0
 30
0
 70
1
  0
VERTEX
  8
LAYER_1
 10
118.881
 20
36.4805
 42
-0.1041417444
  0
VERTEX
  8
LAYER_1
 10
118.84
 20
36.2631
 42
-0.1002538824
  0
VERTEX
  8
LAYER_1
 10
118.7274
 20
36.0915
 42
-0.09536265516
  0
VERTEX
  8
LAYER_1
 10
118.5565
 20
35.9785
 42
-0.09506675375
  0
VERTEX
  8
LAYER_1
 10
118.3426
 20
35.9375
 42
-0.101822328
  0
VERTEX
  8
LAYER_1
 10
118.129
 20
35.9785
 42
-0.102112669
  0
VERTEX
  8
LAYER_1
 10
117.9581
 20
36.0915
 42
-0.09462334812
  0
VERTEX
  8
LAYER_1
 10
117.8447
 20
36.2631
 42
-0.09290316602
  0
VERTEX
  8
LAYER_1
 10
117.8041
 20
36.4805
 42
-0.1018782207
  0
VERTEX
  8
LAYER_1
 10
117.8447
 20
36.6978
 42
-0.1006850025
  0
VERTEX
  8
LAYER_1
 10
117.9581
 20
36.8694
 42
-0.09625543395
  0
VERTEX
  8
LAYER_1
 10
118.129
 20
36.9824
 42
-0.09528409444
  0
VERTEX
  8
LAYER_1
 10
118.3426
 20
37.0234
 42
-0.101175466
  0
VERTEX
  8
LAYER_1
 10
118.5565
 20
36.9824
 42
-0.09853409661
  0
VERTEX
  8
LAYER_1
 10
118.7274
 20
36.8694
 42
-0.09556553869
  0
VERTEX
  8
LAYER_1
 10
118.84
 20
36.6978
 42
-0.09400765476
  0
SEQEND
  0
POLYLINE
  8
LAYER_1
 40
0.05
 41
0.05
 66
1
 10
0
 20
0
 30
0
 70
1
  0
VERTEX
  8
LAYER_1
 10
118.7701
 20
36.4798
  0
VERTEX
  8
LAYER_1
 10
118.7412
 20
36.6517
  0
VERTEX
  8
LAYER_1
 10
118.6564
 20
36.795
  0
VERTEX
  8
LAYER_1
 10
118.5214
 20
36.8932
  0
VERTEX
  8
LAYER_1
 10
118.3426
 20
36.93
  0
VERTEX
  8
LAYER_1
 10
118.1638
 20
36.8932
  0
VERTEX
  8
LAYER_1
 10
118.0291
 20
36.795
  0
VERTEX
  8
LAYER_1
 10
117.9443
 20
36.6517
  0
VERTEX
  8
LAYER_1
 10
117.9151
 20
36.4798
  0
VERTEX
  8
LAYER_1
 10
117.9443
 20
36.3079
  0
VERTEX
  8
LAYER_1
 10
118.0291
 20
36.1649
  0
VERTEX
  8
LAYER_1
 10
118.1638
 20
36.0674
 42
0.1008280473
  0
VERTEX
  8
LAYER_1
 10
118.3426
 20
36.0309
  0
VERTEX
  8
LAYER_1
 10
118.5214
 20
36.0674
  0
VERTEX
  8
LAYER_1
 10
118.6564
 20
36.1649
  0
VERTEX
  8
LAYER_1
 10
118.7412
 20
36.3079
  0
SEQEND
  0
ENDBLK
  0
BLOCK
  8
LAYER_1
  2
AIGNBL0103001A
 70
64
 10
0
 20
0
 30
0
  3
AIGNBL0103001A
  0
POLYLINE
  8
LAYER_1
 40
0.05
 41
0.05
 66
1
 10
0
 20
0
 30
0
 70
1
  0
VERTEX
  8
LAYER_1
 10
119.8119
 20
36.1418
  0
VERTEX
  8
LAYER_1
 10
119.8136
 20
36.1418
  0
VERTEX
  8
LAYER_1
 10
120.1592
 20
36.9969
  0
VERTEX
  8
LAYER_1
 10
120.3201
 20
36.9969
  0
VERTEX
  8
LAYER_1
 10
120.3201
 20
35.9637
  0
VERTEX
  8
LAYER_1
 10
120.2146
 20
35.9637
  0
VERTEX
  8
LAYER_1
 10
120.2146
 20
36.8611
  0
VERTEX
  8
LAYER_1
 10
120.2119
 20
36.8611
  0
VERTEX
  8
LAYER_1
 10
119.8384
 20
35.9637
  0
VERTEX
  8
LAYER_1
 10
119.783
 20
35.9637
  0
VERTEX
  8
LAYER_1
 10
119.4092
 20
36.8611
  0
VERTEX
  8
LAYER_1
 10
119.4064
 20
36.8611
  0
VERTEX
  8
LAYER_1
 10
119.4064
 20
35.9637
  0
VERTEX
  8
LAYER_1
 10
119.3014
 20
35.9637
  0
VERTEX
  8
LAYER_1
 10
119.3014
 20
36.9969
  0
VERTEX
  8
LAYER_1
 10
119.4619
 20
36.9969
  0
SEQEND
  0
ENDBLK
  0
BLOCK
  8
LAYER_1
  2
AIGNBL0103001B
 70
64
 10
0
 20
0
 30
0
  3
AIGNBL0103001B
  0
POLYLINE
  8
LAYER_1
 40
0.05
 41
0.05
 66
1
 10
0
 20
0
 30
0
 70
1
  0
VERTEX
  8
LAYER_1
 10
121.4666
 20
36.0574
  0
VERTEX
  8
LAYER_1
 10
122.0199
 20
36.0574
  0
VERTEX
  8
LAYER_1
 10
122.0199
 20
35.9637
  0
VERTEX
  8
LAYER_1
 10
121.3615
 20
35.9637
  0
VERTEX
  8
LAYER_1
 10
121.3615
 20
36.9969
  0
VERTEX
  8
LAYER_1
 10
122.0023
 20
36.9969
  0
VERTEX
  8
LAYER_1
 10
122.0023
 20
36.9035
  0
VERTEX
  8
LAYER_1
 10
121.4666
 20
36.9035
  0
VERTEX
  8
LAYER_1
 10
121.4666
 20
36.549
  0
VERTEX
  8
LAYER_1
 10
121.9672
 20
36.549
  0
VERTEX
  8
LAYER_1
 10
121.9672
 20
36.4557
  0
VERTEX
  8
LAYER_1
 10
121.4666
 20
36.4557
  0
SEQEND
  0
ENDBLK
  0
BLOCK
  8
LAYER_1
  2
AIGNBL0103001C
 70
64
 10
0
 20
0
 30
0
  3
AIGNBL0103001C
  0
POLYLINE
  8
LAYER_1
 40
0.05
 41
0.05
 66
1
 10
0
 20
0
 30
0
 70
1
  0
VERTEX
  8
LAYER_1
 10
122.765
 20
36.5797
  0
VERTEX
  8
LAYER_1
 10
123.0472
 20
36.9969
  0
VERTEX
  8
LAYER_1
 10
123.1723
 20
36.9969
  0
VERTEX
  8
LAYER_1
 10
122.8298
 20
36.5053
  0
VERTEX
  8
LAYER_1
 10
123.2091
 20
35.9637
  0
VERTEX
  8
LAYER_1
 10
123.0779
 20
35.9637
  0
VERTEX
  8
LAYER_1
 10
122.7623
 20
36.4295
  0
VERTEX
  8
LAYER_1
 10
122.4488
 20
35.9637
  0
VERTEX
  8
LAYER_1
 10
122.3172
 20
35.9637
  0
VERTEX
  8
LAYER_1
 10
122.6969
 20
36.5066
  0
VERTEX
  8
LAYER_1
 10
122.351
 20
36.9969
  0
VERTEX
  8
LAYER_1
 10
122.4825
 20
36.9969
  0
SEQEND
  0
ENDBLK
  0
BLOCK
  8
LAYER_1
  2
AIGNBL0103001D
 70
64
 10
0
 20
0
 30
0
  3
AIGNBL0103001D
  0
POLYLINE
  8
LAYER_1
 40
0.05
 41
0.05
 66
1
 10
0
 20
0
 30
0
 70
1
  0
VERTEX
  8
LAYER_1
 10
123.5753
 20
36.9969
  0
VERTEX
  8
LAYER_1
 10
123.8675
 20
36.9969
  0
VERTEX
  8
LAYER_1
 10
124.0105
 20
36.9804
  0
VERTEX
  8
LAYER_1
 10
124.1203
 20
36.929
  0
VERTEX
  8
LAYER_1
 10
124.1913
 20
36.8429
  0
VERTEX
  8
LAYER_1
 10
124.2158
 20
36.7213
  0
VERTEX
  8
LAYER_1
 10
124.1906
 20
36.5993
  0
VERTEX
  8
LAYER_1
 10
124.119
 20
36.5132
  0
VERTEX
  8
LAYER_1
 10
124.0081
 20
36.4615
  0
VERTEX
  8
LAYER_1
 10
123.8644
 20
36.444
  0
VERTEX
  8
LAYER_1
 10
123.6804
 20
36.444
  0
VERTEX
  8
LAYER_1
 10
123.6804
 20
35.9637
  0
VERTEX
  8
LAYER_1
 10
123.5753
 20
35.9637
  0
SEQEND
  0
POLYLINE
  8
LAYER_1
 40
0.05
 41
0.05
 66
1
 10
0
 20
0
 30
0
 70
1
  0
VERTEX
  8
LAYER_1
 10
123.6804
 20
36.5328
  0
VERTEX
  8
LAYER_1
 10
123.8582
 20
36.5328
 42
0.1829203509
  0
VERTEX
  8
LAYER_1
 10
124.0466
 20
36.581
 42
0.2345943979
  0
VERTEX
  8
LAYER_1
 10
124.111
 20
36.7213
 42
0.2650437466
  0
VERTEX
  8
LAYER_1
 10
124.0446
 20
36.8622
 42
0.1264027561
  0
VERTEX
  8
LAYER_1
 10
123.8582
 20
36.9066
  0
VERTEX
  8
LAYER_1
 10
123.6804
 20
36.9066
  0
SEQEND
  0
ENDBLK
  0
BLOCK
  8
LAYER_1
  2
AIGNBL0103001E
 70
64
 10
0
 20
0
 30
0
  3
AIGNBL0103001E
  0
POLYLINE
  8
LAYER_1
 40
0.05
 41
0.05
 66
1
 10
0
 20
0
 30
0
 70
1
  0
VERTEX
  8
LAYER_1
 10
124.7281
 20
36.0574
  0
VERTEX
  8
LAYER_1
 10
125.2813
 20
36.0574
  0
VERTEX
  8
LAYER_1
 10
125.2813
 20
35.9637
  0
VERTEX
  8
LAYER_1
 10
124.623
 20
35.9637
  0
VERTEX
  8
LAYER_1
 10
124.623
 20
36.9969
  0
VERTEX
  8
LAYER_1
 10
125.2638
 20
36.9969
  0
VERTEX
  8
LAYER_1
 10
125.2638
 20
36.9035
  0
VERTEX
  8
LAYER_1
 10
124.7281
 20
36.9035
  0
VERTEX
  8
LAYER_1
 10
124.7281
 20
36.549
  0
VERTEX
  8
LAYER_1
 10
125.2286
 20
36.549
  0
VERTEX
  8
LAYER_1
 10
125.2286
 20
36.4557
  0
VERTEX
  8
LAYER_1
 10
124.7281
 20
36.4557
  0
SEQEND
  0
ENDBLK
  0
BLOCK
  8
LAYER_1
  2
AIGNBL0103001F
 70
64
 10
0
 20
0
 30
0
  3
AIGNBL0103001F
  0
POLYLINE
  8
LAYER_1
 40
0.05
 41
0.05
 66
1
 10
0
 20
0
 30
0
 70
1
  0
VERTEX
  8
LAYER_1
 10
125.7933
 20
35.9637
  0
VERTEX
  8
LAYER_1
 10
125.6882
 20
35.9637
  0
VERTEX
  8
LAYER_1
 10
125.6882
 20
36.9969
  0
VERTEX
  8
LAYER_1
 10
125.9921
 20
36.9969
  0
VERTEX
  8
LAYER_1
 10
126.1326
 20
36.9824
  0
VERTEX
  8
LAYER_1
 10
126.2453
 20
36.9349
  0
VERTEX
  8
LAYER_1
 10
126.319
 20
36.8494
  0
VERTEX
  8
LAYER_1
 10
126.3449
 20
36.7213
  0
VERTEX
  8
LAYER_1
 10
126.3249
 20
36.6176
  0
VERTEX
  8
LAYER_1
 10
126.2694
 20
36.5366
  0
VERTEX
  8
LAYER_1
 10
126.186
 20
36.4818
  0
VERTEX
  8
LAYER_1
 10
126.0809
 20
36.4557
  0
VERTEX
  8
LAYER_1
 10
126.3831
 20
35.9637
  0
VERTEX
  8
LAYER_1
 10
126.2546
 20
35.9637
  0
VERTEX
  8
LAYER_1
 10
125.9687
 20
36.4467
  0
VERTEX
  8
LAYER_1
 10
125.7933
 20
36.4467
  0
SEQEND
  0
POLYLINE
  8
LAYER_1
 40
0.05
 41
0.05
 66
1
 10
0
 20
0
 30
0
 70
1
  0
VERTEX
  8
LAYER_1
 10
125.7933
 20
36.5373
  0
VERTEX
  8
LAYER_1
 10
125.9759
 20
36.5373
 42
0.1663801652
  0
VERTEX
  8
LAYER_1
 10
126.1716
 20
36.5831
 42
0.2503091692
  0
VERTEX
  8
LAYER_1
 10
126.2401
 20
36.7213
  0
VERTEX
  8
LAYER_1
 10
126.2212
 20
36.8071
  0
VERTEX
  8
LAYER_1
 10
126.1685
 20
36.8643
  0
VERTEX
  8
LAYER_1
 10
126.0868
 20
36.8963
  0
VERTEX
  8
LAYER_1
 10
125.9804
 20
36.9066
  0
VERTEX
  8
LAYER_1
 10
125.7933
 20
36.9066
  0
SEQEND
  0
ENDBLK
  0
BLOCK
  8
LAYER_1
  2
AIGNBL01030020
 70
64
 10
0
 20
0
 30
0
  3
AIGNBL01030020
  0
POLYLINE
  8
LAYER_1
 40
0.05
 41
0.05
 66
1
 10
0
 20
0
 30
0
 70
1
  0
VERTEX
  8
LAYER_1
 10
126.8688
 20
35.9637
  0
VERTEX
  8
LAYER_1
 10
126.7641
 20
35.9637
  0
VERTEX
  8
LAYER_1
 10
126.7641
 20
36.9969
  0
VERTEX
  8
LAYER_1
 10
126.8688
 20
36.9969
  0
SEQEND
  0
ENDBLK
  0
BLOCK
  8
LAYER_1
  2
AIGNBL01030021
 70
64
 10
0
 20
0
 30
0
  3
AIGNBL01030021
  0
POLYLINE
  8
LAYER_1
 40
0.05
 41
0.05
 66
1
 10
0
 20
0
 30
0
 70
1
  0
VERTEX
  8
LAYER_1
 10
127.4497
 20
36.0574
  0
VERTEX
  8
LAYER_1
 10
128.0026
 20
36.0574
  0
VERTEX
  8
LAYER_1
 10
128.0026
 20
35.9637
  0
VERTEX
  8
LAYER_1
 10
127.3446
 20
35.9637
  0
VERTEX
  8
LAYER_1
 10
127.3446
 20
36.9969
  0
VERTEX
  8
LAYER_1
 10
127.9854
 20
36.9969
  0
VERTEX
  8
LAYER_1
 10
127.9854
 20
36.9035
  0
VERTEX
  8
LAYER_1
 10
127.4497
 20
36.9035
  0
VERTEX
  8
LAYER_1
 10
127.4497
 20
36.549
  0
VERTEX
  8
LAYER_1
 10
127.9503
 20
36.549
  0
VERTEX
  8
LAYER_1
 10
127.9503
 20
36.4557
  0
VERTEX
  8
LAYER_1
 10
127.4497
 20
36.4557
  0
SEQEND
  0
ENDBLK
  0
BLOCK
  8
LAYER_1
  2
AIGNBL01030022
 70
64
 10
0
 20
0
 30
0
  3
AIGNBL01030022
  0
POLYLINE
  8
LAYER_1
 40
0.05
 41
0.05
 66
1
 10
0
 20
0
 30
0
 70
1
  0
VERTEX
  8
LAYER_1
 10
129.1426
 20
36.117
  0
VERTEX
  8
LAYER_1
 10
129.1454
 20
36.117
  0
VERTEX
  8
LAYER_1
 10
129.1454
 20
36.9969
  0
VERTEX
  8
LAYER_1
 10
129.2504
 20
36.9969
  0
VERTEX
  8
LAYER_1
 10
129.2504
 20
35.9637
  0
VERTEX
  8
LAYER_1
 10
129.1192
 20
35.9637
  0
VERTEX
  8
LAYER_1
 10
128.518
 20
36.8525
  0
VERTEX
  8
LAYER_1
 10
128.5149
 20
36.8525
  0
VERTEX
  8
LAYER_1
 10
128.5149
 20
35.9637
  0
VERTEX
  8
LAYER_1
 10
128.4098
 20
35.9637
  0
VERTEX
  8
LAYER_1
 10
128.4098
 20
36.9969
  0
VERTEX
  8
LAYER_1
 10
128.5414
 20
36.9969
  0
SEQEND
  0
ENDBLK
  0
BLOCK
  8
LAYER_1
  2
AIGNBL01030023
 70
64
 10
0
 20
0
 30
0
  3
AIGNBL01030023
  0
POLYLINE
  8
LAYER_1
 40
0.05
 41
0.05
 66
1
 10
0
 20
0
 30
0
 70
1
  0
VERTEX
  8
LAYER_1
 10
130.5961
 20
36.1315
  0
VERTEX
  8
LAYER_1
 10
130.5324
 20
36.0571
  0
VERTEX
  8
LAYER_1
 10
130.4463
 20
35.9954
  0
VERTEX
  8
LAYER_1
 10
130.3381
 20
35.953
  0
VERTEX
  8
LAYER_1
 10
130.2092
 20
35.9375
 42
-0.1009408553
  0
VERTEX
  8
LAYER_1
 10
129.9932
 20
35.9785
 42
-0.1036559164
  0
VERTEX
  8
LAYER_1
 10
129.8227
 20
36.0915
 42
-0.09812017057
  0
VERTEX
  8
LAYER_1
 10
129.7111
 20
36.2631
 42
-0.09255697562
  0
VERTEX
  8
LAYER_1
 10
129.6707
 20
36.4805
 42
-0.1035456296
  0
VERTEX
  8
LAYER_1
 10
129.7117
 20
36.6978
 42
-0.1005534539
  0
VERTEX
  8
LAYER_1
 10
129.8244
 20
36.8694
 42
-0.09536265516
  0
VERTEX
  8
LAYER_1
 10
129.9953
 20
36.9824
 42
-0.09506675375
  0
VERTEX
  8
LAYER_1
 10
130.2092
 20
37.0234
  0
VERTEX
  8
LAYER_1
 10
130.3208
 20
37.0114
  0
VERTEX
  8
LAYER_1
 10
130.4239
 20
36.9779
  0
VERTEX
  8
LAYER_1
 10
130.5113
 20
36.9263
  0
VERTEX
  8
LAYER_1
 10
130.5771
 20
36.8584
  0
VERTEX
  8
LAYER_1
 10
130.4896
 20
36.794
  0
VERTEX
  8
LAYER_1
 10
130.4463
 20
36.8439
  0
VERTEX
  8
LAYER_1
 10
130.3829
 20
36.8877
  0
VERTEX
  8
LAYER_1
 10
130.3033
 20
36.9183
  0
VERTEX
  8
LAYER_1
 10
130.2106
 20
36.93
  0
VERTEX
  8
LAYER_1
 10
130.0304
 20
36.8935
  0
VERTEX
  8
LAYER_1
 10
129.8954
 20
36.7954
  0
VERTEX
  8
LAYER_1
 10
129.8106
 20
36.652
  0
VERTEX
  8
LAYER_1
 10
129.7817
 20
36.4805
  0
VERTEX
  8
LAYER_1
 10
129.8116
 20
36.3089
  0
VERTEX
  8
LAYER_1
 10
129.8971
 20
36.1656
  0
VERTEX
  8
LAYER_1
 10
130.0321
 20
36.0674
 42
0.1009931409
  0
VERTEX
  8
LAYER_1
 10
130.2106
 20
36.0309
  0
VERTEX
  8
LAYER_1
 10
130.3798
 20
36.0674
 42
0.1319081761
  0
VERTEX
  8
LAYER_1
 10
130.5141
 20
36.1842
  0
SEQEND
  0
ENDBLK
  0
BLOCK
  8
LAYER_1
  2
AIGNBL01030024
 70
64
 10
0
 20
0
 30
0
  3
AIGNBL01030024
  0
POLYLINE
  8
LAYER_1
 40
0.05
 41
0.05
 66
1
 10
0
 20
0
 30
0
 70
1
  0
VERTEX
  8
LAYER_1
 10
131.0832
 20
36.0574
  0
VERTEX
  8
LAYER_1
 10
131.6365
 20
36.0574
  0
VERTEX
  8
LAYER_1
 10
131.6365
 20
35.9637
  0
VERTEX
  8
LAYER_1
 10
130.9782
 20
35.9637
  0
VERTEX
  8
LAYER_1
 10
130.9782
 20
36.9969
  0
VERTEX
  8
LAYER_1
 10
131.619
 20
36.9969
  0
VERTEX
  8
LAYER_1
 10
131.619
 20
36.9035
  0
VERTEX
  8
LAYER_1
 10
131.0832
 20
36.9035
  0
VERTEX
  8
LAYER_1
 10
131.0832
 20
36.549
  0
VERTEX
  8
LAYER_1
 10
131.5838
 20
36.549
  0
VERTEX
  8
LAYER_1
 10
131.5838
 20
36.4557
  0
VERTEX
  8
LAYER_1
 10
131.0832
 20
36.4557
  0
SEQEND
  0
ENDBLK
  0
BLOCK
  8
LAYER_1
  2
AIGNBL01020004
 70
64
 10
0
 20
0
 30
0
  3
AIGNBL01020004
  0
INSERT
  8
LAYER_1
  2
AIGNBL01030005
 10
0
 20
0
 30
0
  0
ENDBLK
  0
BLOCK
  8
LAYER_1
  2
AIGNBL0102000D
 70
64
 10
0
 20
0
 30
0
  3
AIGNBL0102000D
  0
INSERT
  8
LAYER_1
  2
AIGNBL0103000E
 10
0
 20
0
 30
0
  0
INSERT
  8
LAYER_1
  2
AIGNBL0103000F
 10
0
 20
0
 30
0
  0
INSERT
  8
LAYER_1
  2
AIGNBL01030010
 10
0
 20
0
 30
0
  0
INSERT
  8
LAYER_1
  2
AIGNBL01030011
 10
0
 20
0
 30
0
  0
INSERT
  8
LAYER_1
  2
AIGNBL01030012
 10
0
 20
0
 30
0
  0
INSERT
  8
LAYER_1
  2
AIGNBL01030013
 10
0
 20
0
 30
0
  0
INSERT
  8
LAYER_1
  2
AIGNBL01030014
 10
0
 20
0
 30
0
  0
INSERT
  8
LAYER_1
  2
AIGNBL01030015
 10
0
 20
0
 30
0
  0
INSERT
  8
LAYER_1
  2
AIGNBL01030016
 10
0
 20
0
 30
0
  0
INSERT
  8
LAYER_1
  2
AIGNBL01030017
 10
0
 20
0
 30
0
  0
INSERT
  8
LAYER_1
  2
AIGNBL01030018
 10
0
 20
0
 30
0
  0
INSERT
  8
LAYER_1
  2
AIGNBL01030019
 10
0
 20
0
 30
0
  0
INSERT
  8
LAYER_1
  2
AIGNBL0103001A
 10
0
 20
0
 30
0
  0
INSERT
  8
LAYER_1
  2
AIGNBL0103001B
 10
0
 20
0
 30
0
  0
INSERT
  8
LAYER_1
  2
AIGNBL0103001C
 10
0
 20
0
 30
0
  0
INSERT
  8
LAYER_1
  2
AIGNBL0103001D
 10
0
 20
0
 30
0
  0
INSERT
  8
LAYER_1
  2
AIGNBL0103001E
 10
0
 20
0
 30
0
  0
INSERT
  8
LAYER_1
  2
AIGNBL0103001F
 10
0
 20
0
 30
0
  0
INSERT
  8
LAYER_1
  2
AIGNBL01030020
 10
0
 20
0
 30
0
  0
INSERT
  8
LAYER_1
  2
AIGNBL01030021
 10
0
 20
0
 30
0
  0
INSERT
  8
LAYER_1
  2
AIGNBL01030022
 10
0
 20
0
 30
0
  0
INSERT
  8
LAYER_1
  2
AIGNBL01030023
 10
0
 20
0
 30
0
  0
INSERT
  8
LAYER_1
  2
AIGNBL01030024
 10
0
 20
0
 30
0
  0
ENDBLK
  0
BLOCK
  8
LAYER_1
  2
AIGNBL01010002
 70
64
 10
0
 20
0
 30
0
  3
AIGNBL01010002
  0
POLYLINE
  8
LAYER_1
 40
0.7056
 41
0.7056
 66
1
 10
0
 20
0
 30
0
 70
1
  0
VERTEX
  8
LAYER_1
 10
251.6749
 20
230.337
  0
VERTEX
  8
LAYER_1
 10
251.6749
 20
33.3285
  0
VERTEX
  8
LAYER_1
 10
-30.3177
 20
33.3285
  0
VERTEX
  8
LAYER_1
 10
-30.3177
 20
230.337
  0
SEQEND
  0
ENDBLK
  0
BLOCK
  8
LAYER_1
  2
AIGNBL01010003
 70
64
 10
0
 20
0
 30
0
  3
AIGNBL01010003
  0
INSERT
  8
LAYER_1
  2
AIGNBL01020004
 10
0
 20
0
 30
0
  0
INSERT
  8
LAYER_1
  2
AIGNBL0102000D
 10
0
 20
0
 30
0
  0
ENDBLK
  0
BLOCK
  8
LAYER_1
  2
AIGNBL01010025
 70
64
 10
0
 20
0
 30
0
  3
AIGNBL01010025
  0
POLYLINE
  8
LAYER_1
 40
0.0882
 41
0.0882
 66
1
 10
0
 20
0
 30
0
  0
VERTEX
  8
LAYER_1
 10
105.7983
 20
112.3596
  0
VERTEX
  8
LAYER_1
 10
162.3304
 20
112.3596
  0
SEQEND
  0
ENDBLK
  0
BLOCK
  8
LAYER_1
  2
AIGNBL01010026
 70
64
 10
0
 20
0
 30
0
  3
AIGNBL01010026
  0
POLYLINE
  8
LAYER_1
 40
0.0882
 41
0.0882
 66
1
 10
0
 20
0
 30
0
 70
1
  0
VERTEX
  8
LAYER_1
 10
164.5565
 20
112.3421
  0
VERTEX
  8
LAYER_1
 10
162.3275
 20
112.3421
  0
VERTEX
  8
LAYER_1
 10
162.0966
 20
110.6428
  0
VERTEX
  8
LAYER_1
 10
162.0529
 20
110.2963
  0
VERTEX
  8
LAYER_1
 10
161.9947
 20
109.9519
  0
VERTEX
  8
LAYER_1
 10
161.9365
 20
109.6075
  0
VERTEX
  8
LAYER_1
 10
161.864
 20
109.2659
  0
VERTEX
  8
LAYER_1
 10
161.7914
 20
108.9242
  0
VERTEX
  8
LAYER_1
 10
161.7046
 20
108.5859
  0
VERTEX
  8
LAYER_1
 10
161.6177
 20
108.2476
  0
VERTEX
  8
LAYER_1
 10
161.5168
 20
107.9132
 42
-0.04082380318
  0
VERTEX
  8
LAYER_1
 10
160.613
 20
106.0716
 42
-0.04082219075
  0
VERTEX
  8
LAYER_1
 10
159.422
 20
104.4014
 42
-0.04082344724
  0
VERTEX
  8
LAYER_1
 10
157.9754
 20
102.9469
 42
-0.04082606374
  0
VERTEX
  8
LAYER_1
 10
156.3116
 20
101.7468
  0
VERTEX
  8
LAYER_1
 10
155.9359
 20
101.5255
  0
VERTEX
  8
LAYER_1
 10
155.5542
 20
101.3148
  0
VERTEX
  8
LAYER_1
 10
155.1725
 20
101.1041
  0
VERTEX
  8
LAYER_1
 10
154.7851
 20
100.9041
  0
VERTEX
  8
LAYER_1
 10
154.3977
 20
100.704
  0
VERTEX
  8
LAYER_1
 10
154.0048
 20
100.5149
  0
VERTEX
  8
LAYER_1
 10
153.612
 20
100.3257
  0
VERTEX
  8
LAYER_1
 10
153.214
 20
100.1475
 42
0.04115404488
  0
VERTEX
  8
LAYER_1
 10
150.1607
 20
98.7604
 42
0.04115730198
  0
VERTEX
  8
LAYER_1
 10
147.3758
 20
96.8919
 42
0.04115519025
  0
VERTEX
  8
LAYER_1
 10
144.9346
 20
94.5924
 42
0.04115926925
  0
VERTEX
  8
LAYER_1
 10
142.903
 20
91.9242
 42
-0.05453240936
  0
VERTEX
  8
LAYER_1
 10
142.3335
 20
91.2491
 42
-0.05453196535
  0
VERTEX
  8
LAYER_1
 10
141.6315
 20
90.7131
 42
-0.05452959879
  0
VERTEX
  8
LAYER_1
 10
140.8302
 20
90.3415
 42
-0.05452791722
  0
VERTEX
  8
LAYER_1
 10
139.9675
 20
90.152
  0
VERTEX
  8
LAYER_1
 10
138.1683
 20
88.3528
  0
VERTEX
  8
LAYER_1
 10
138.1683
 20
85.9539
  0
VERTEX
  8
LAYER_1
 10
146.5645
 20
85.9539
  0
VERTEX
  8
LAYER_1
 10
146.5645
 20
90.152
  0
VERTEX
  8
LAYER_1
 10
145.5146
 20
90.152
 42
-0.04656818652
  0
VERTEX
  8
LAYER_1
 10
146.9651
 20
92.6146
 42
-0.0465699344
  0
VERTEX
  8
LAYER_1
 10
148.8462
 20
94.7663
 42
-0.04656891455
  0
VERTEX
  8
LAYER_1
 10
151.0931
 20
96.5327
 42
-0.04656335068
  0
VERTEX
  8
LAYER_1
 10
153.628
 20
97.8527
  0
VERTEX
  8
LAYER_1
 10
153.8336
 20
97.937
  0
VERTEX
  8
LAYER_1
 10
154.0386
 20
98.0223
  0
VERTEX
  8
LAYER_1
 10
154.2437
 20
98.1076
  0
VERTEX
  8
LAYER_1
 10
154.4484
 20
98.194
  0
VERTEX
  8
LAYER_1
 10
154.6531
 20
98.2803
  0
VERTEX
  8
LAYER_1
 10
154.8573
 20
98.3677
  0
VERTEX
  8
LAYER_1
 10
155.0615
 20
98.4551
  0
VERTEX
  8
LAYER_1
 10
155.2653
 20
98.5435
  0
VERTEX
  8
LAYER_1
 10
156.0128
 20
98.9153
  0
VERTEX
  8
LAYER_1
 10
156.7286
 20
99.345
  0
VERTEX
  8
LAYER_1
 10
157.4444
 20
99.7748
  0
VERTEX
  8
LAYER_1
 10
158.124
 20
100.2597
  0
VERTEX
  8
LAYER_1
 10
158.8037
 20
100.7447
  0
VERTEX
  8
LAYER_1
 10
159.4428
 20
101.2818
  0
VERTEX
  8
LAYER_1
 10
160.082
 20
101.819
  0
VERTEX
  8
LAYER_1
 10
160.6767
 20
102.405
 42
0.03829479463
  0
VERTEX
  8
LAYER_1
 10
161.9589
 20
103.9307
 42
0.03830479135
  0
VERTEX
  8
LAYER_1
 10
162.9933
 20
105.6341
 42
0.03830623076
  0
VERTEX
  8
LAYER_1
 10
163.7559
 20
107.4754
 42
0.03829770333
  0
VERTEX
  8
LAYER_1
 10
164.2286
 20
109.4114
  0
SEQEND
  0
ENDBLK
  0
BLOCK
  8
LAYER_1
  2
AIGNBL01010027
 70
64
 10
0
 20
0
 30
0
  3
AIGNBL01010027
  0
POLYLINE
  8
LAYER_1
 40
0.0882
 41
0.0882
 66
1
 10
0
 20
0
 30
0
 70
1
  0
VERTEX
  8
LAYER_1
 10
103.5838
 20
112.3421
  0
VERTEX
  8
LAYER_1
 10
105.8128
 20
112.3421
  0
VERTEX
  8
LAYER_1
 10
106.0436
 20
110.6428
  0
VERTEX
  8
LAYER_1
 10
106.0873
 20
110.2963
  0
VERTEX
  8
LAYER_1
 10
106.1455
 20
109.9519
  0
VERTEX
  8
LAYER_1
 10
106.2037
 20
109.6075
  0
VERTEX
  8
LAYER_1
 10
106.2763
 20
109.2659
  0
VERTEX
  8
LAYER_1
 10
106.3489
 20
108.9242
  0
VERTEX
  8
LAYER_1
 10
106.4357
 20
108.5859
  0
VERTEX
  8
LAYER_1
 10
106.5225
 20
108.2476
  0
VERTEX
  8
LAYER_1
 10
106.6234
 20
107.9132
 42
0.04082381125
  0
VERTEX
  8
LAYER_1
 10
107.5272
 20
106.0716
 42
0.04082335637
  0
VERTEX
  8
LAYER_1
 10
108.7183
 20
104.4014
 42
0.04082307227
  0
VERTEX
  8
LAYER_1
 10
110.1649
 20
102.9469
 42
0.04082500372
  0
VERTEX
  8
LAYER_1
 10
111.8286
 20
101.7468
  0
VERTEX
  8
LAYER_1
 10
112.2044
 20
101.5255
  0
VERTEX
  8
LAYER_1
 10
112.5861
 20
101.3148
  0
VERTEX
  8
LAYER_1
 10
112.9678
 20
101.1041
  0
VERTEX
  8
LAYER_1
 10
113.3552
 20
100.9041
  0
VERTEX
  8
LAYER_1
 10
113.7426
 20
100.704
  0
VERTEX
  8
LAYER_1
 10
114.1354
 20
100.5149
  0
VERTEX
  8
LAYER_1
 10
114.5283
 20
100.3257
  0
VERTEX
  8
LAYER_1
 10
114.9262
 20
100.1475
 42
-0.04115567478
  0
VERTEX
  8
LAYER_1
 10
117.9795
 20
98.7604
 42
-0.04115949755
  0
VERTEX
  8
LAYER_1
 10
120.7644
 20
96.8919
 42
-0.04115525203
  0
VERTEX
  8
LAYER_1
 10
123.2056
 20
94.5924
 42
-0.04115934095
  0
VERTEX
  8
LAYER_1
 10
125.2372
 20
91.9242
 42
0.05453496628
  0
VERTEX
  8
LAYER_1
 10
125.8068
 20
91.2491
 42
0.05455002053
  0
VERTEX
  8
LAYER_1
 10
126.5088
 20
90.7131
 42
0.05453793627
  0
VERTEX
  8
LAYER_1
 10
127.3101
 20
90.3415
 42
0.0545280766
  0
VERTEX
  8
LAYER_1
 10
128.1728
 20
90.152
  0
VERTEX
  8
LAYER_1
 10
129.972
 20
88.3528
  0
VERTEX
  8
LAYER_1
 10
129.972
 20
85.9539
  0
VERTEX
  8
LAYER_1
 10
121.5757
 20
85.9539
  0
VERTEX
  8
LAYER_1
 10
121.5757
 20
90.152
  0
VERTEX
  8
LAYER_1
 10
122.6257
 20
90.152
 42
0.04656445565
  0
VERTEX
  8
LAYER_1
 10
121.1752
 20
92.6146
 42
0.04656422618
  0
VERTEX
  8
LAYER_1
 10
119.294
 20
94.7663
 42
0.04656578169
  0
VERTEX
  8
LAYER_1
 10
117.0471
 20
96.5327
 42
0.04656758674
  0
VERTEX
  8
LAYER_1
 10
114.5122
 20
97.8527
  0
VERTEX
  8
LAYER_1
 10
114.3067
 20
97.937
  0
VERTEX
  8
LAYER_1
 10
114.1016
 20
98.0223
  0
VERTEX
  8
LAYER_1
 10
113.8965
 20
98.1076
  0
VERTEX
  8
LAYER_1
 10
113.6919
 20
98.194
  0
VERTEX
  8
LAYER_1
 10
113.4872
 20
98.2803
  0
VERTEX
  8
LAYER_1
 10
113.283
 20
98.3677
  0
VERTEX
  8
LAYER_1
 10
113.0788
 20
98.4551
  0
VERTEX
  8
LAYER_1
 10
112.875
 20
98.5435
  0
VERTEX
  8
LAYER_1
 10
112.1274
 20
98.9153
  0
VERTEX
  8
LAYER_1
 10
111.4116
 20
99.345
  0
VERTEX
  8
LAYER_1
 10
110.6958
 20
99.7748
  0
VERTEX
  8
LAYER_1
 10
110.0162
 20
100.2597
  0
VERTEX
  8
LAYER_1
 10
109.3366
 20
100.7447
  0
VERTEX
  8
LAYER_1
 10
108.6974
 20
101.2818
  0
VERTEX
  8
LAYER_1
 10
108.0583
 20
101.819
  0
VERTEX
  8
LAYER_1
 10
107.4636
 20
102.405
 42
-0.03830254329
  0
VERTEX
  8
LAYER_1
 10
106.1814
 20
103.9307
 42
-0.03830543481
  0
VERTEX
  8
LAYER_1
 10
105.1469
 20
105.6341
 42
-0.03830862001
  0
VERTEX
  8
LAYER_1
 10
104.3844
 20
107.4754
 42
-0.03830122966
  0
VERTEX
  8
LAYER_1
 10
103.9116
 20
109.4114
  0
SEQEND
  0
ENDBLK
  0
BLOCK
  8
LAYER_1
  2
AIGNBL01010028
 70
64
 10
0
 20
0
 30
0
  3
AIGNBL01010028
  0
POLYLINE
  8
LAYER_1
 40
0.05
 41
0.05
 66
1
 10
0
 20
0
 30
0
  0
VERTEX
  8
LAYER_1
 10
129.9683
 20
85.9554
  0
VERTEX
  8
LAYER_1
 10
138.1604
 20
85.9554
  0
SEQEND
  0
ENDBLK
  0
BLOCK
  8
LAYER_1
  2
AIGNBL01010029
 70
64
 10
0
 20
0
 30
0
  3
AIGNBL01010029
  0
POLYLINE
  8
LAYER_1
 40
0.0882
 41
0.0882
 66
1
 10
0
 20
0
 30
0
  0
VERTEX
  8
LAYER_1
 10
129.9683
 20
88.3251
  0
VERTEX
  8
LAYER_1
 10
138.1604
 20
88.3251
  0
SEQEND
  0
ENDBLK
  0
BLOCK
  8
LAYER_1
  2
AIGNBL0101002A
 70
64
 10
0
 20
0
 30
0
  3
AIGNBL0101002A
  0
POLYLINE
  8
LAYER_1
 40
0.0882
 41
0.0882
 66
1
 10
0
 20
0
 30
0
  0
VERTEX
  8
LAYER_1
 10
128.1403
 20
90.153
  0
VERTEX
  8
LAYER_1
 10
139.9884
 20
90.153
  0
SEQEND
  0
ENDBLK
  0
BLOCK
  8
LAYER_1
  2
AIGNBL0101002B
 70
64
 10
0
 20
0
 30
0
  3
AIGNBL0101002B
  0
POLYLINE
  8
LAYER_1
 40
0.0882
 41
0.0882
 66
1
 10
0
 20
0
 30
0
 70
1
  0
VERTEX
  8
LAYER_1
 10
138.1604
 20
175.9724
 42
0.4142099449
  0
VERTEX
  8
LAYER_1
 10
134.0644
 20
180.0684
 42
0.4142164691
  0
VERTEX
  8
LAYER_1
 10
129.9683
 20
175.9724
 42
0.4142150811
  0
VERTEX
  8
LAYER_1
 10
134.0644
 20
171.8764
 42
0.4142085573
  0
SEQEND
  0
ENDBLK
  0
BLOCK
  8
LAYER_1
  2
AIGNBL0101002C
 70
64
 10
0
 20
0
 30
0
  3
AIGNBL0101002C
  0
POLYLINE
  8
LAYER_1
 40
0.0882
 41
0.0882
 66
1
 10
0
 20
0
 30
0
 70
1
  0
VERTEX
  8
LAYER_1
 10
162.3304
 20
175.9724
 42
0.414213112
  0
VERTEX
  8
LAYER_1
 10
134.0644
 20
204.2384
 42
0.4142141207
  0
VERTEX
  8
LAYER_1
 10
105.7983
 20
175.9724
 42
0.4142139824
  0
VERTEX
  8
LAYER_1
 10
134.0644
 20
147.7064
 42
0.414212974
  0
SEQEND
  0
ENDBLK
  0
BLOCK
  8
LAYER_1
  2
AIGNBL0101002D
 70
64
 10
0
 20
0
 30
0
  3
AIGNBL0101002D
  0
POLYLINE
  8
LAYER_1
 40
0.0882
 41
0.0882
 66
1
 10
0
 20
0
 30
0
 70
1
  0
VERTEX
  8
LAYER_1
 10
164.5646
 20
176.0063
 42
0.05043183834
  0
VERTEX
  8
LAYER_1
 10
163.9449
 20
182.1463
 42
0.09832102093
  0
VERTEX
  8
LAYER_1
 10
159.3556
 20
193.0403
 42
0.07169581331
  0
VERTEX
  8
LAYER_1
 10
153.4654
 20
199.5156
 42
0.07232263584
  0
VERTEX
  8
LAYER_1
 10
145.9365
 20
204.0784
 42
0.10035076
  0
VERTEX
  8
LAYER_1
 10
134.0644
 20
206.4726
 42
0.05032098046
  0
VERTEX
  8
LAYER_1
 10
127.9175
 20
205.8536
 42
0.09814794288
  0
VERTEX
  8
LAYER_1
 10
117.0114
 20
201.2694
 42
0.1438482219
  0
VERTEX
  8
LAYER_1
 10
105.961
 20
187.8652
 42
0.1005401237
  0
VERTEX
  8
LAYER_1
 10
103.5641
 20
176.0063
 42
0.05043180584
  0
VERTEX
  8
LAYER_1
 10
104.1838
 20
169.8663
 42
0.09832084632
  0
VERTEX
  8
LAYER_1
 10
108.7731
 20
158.9723
 42
0.07169574949
  0
VERTEX
  8
LAYER_1
 10
114.6634
 20
152.497
 42
0.07232271411
  0
VERTEX
  8
LAYER_1
 10
122.1923
 20
147.9341
 42
0.100350994
  0
VERTEX
  8
LAYER_1
 10
134.0644
 20
145.5399
 42
0.05032157272
  0
VERTEX
  8
LAYER_1
 10
140.2113
 20
146.1589
 42
0.09814851391
  0
VERTEX
  8
LAYER_1
 10
151.1174
 20
150.7431
 42
0.1438477056
  0
VERTEX
  8
LAYER_1
 10
162.1677
 20
164.1474
 42
0.1005396958
  0
SEQEND
  0
ENDBLK
  0
BLOCK
  8
LAYER_1
  2
AIGNBL0101002E
 70
64
 10
0
 20
0
 30
0
  3
AIGNBL0101002E
  0
POLYLINE
  8
LAYER_1
 40
0.0882
 41
0.0882
 66
1
 10
0
 20
0
 30
0
 70
1
  0
VERTEX
  8
LAYER_1
 10
139.9884
 20
176.0063
 42
0.3311742779
  0
VERTEX
  8
LAYER_1
 10
135.5449
 20
181.711
 42
0.06270725442
  0
VERTEX
  8
LAYER_1
 10
134.0644
 20
181.8964
 42
0.3286532772
  0
VERTEX
  8
LAYER_1
 10
128.3268
 20
177.4783
 42
0.06340437165
  0
VERTEX
  8
LAYER_1
 10
128.1403
 20
176.0063
 42
0.3311745153
  0
VERTEX
  8
LAYER_1
 10
132.5839
 20
170.3015
 42
0.06270606182
  0
VERTEX
  8
LAYER_1
 10
134.0644
 20
170.1161
 42
0.3286597434
  0
VERTEX
  8
LAYER_1
 10
139.8019
 20
174.5342
 42
0.06340276246
  0
SEQEND
  0
ENDBLK
  0
BLOCK
  8
LAYER_1
  2
AIGNBL0101002F
 70
64
 10
0
 20
0
 30
0
  3
AIGNBL0101002F
  0
POLYLINE
  8
LAYER_1
 40
0.05
 41
0.05
 66
1
 10
0
 20
0
 30
0
  0
VERTEX
  8
LAYER_1
 10
103.5641
 20
113.1721
  0
VERTEX
  8
LAYER_1
 10
103.5641
 20
124.4108
  0
SEQEND
  0
ENDBLK
  0
BLOCK
  8
LAYER_1
  2
AIGNBL01010030
 70
64
 10
0
 20
0
 30
0
  3
AIGNBL01010030
  0
POLYLINE
  8
LAYER_1
 40
0.05
 41
0.05
 66
1
 10
0
 20
0
 30
0
  0
VERTEX
  8
LAYER_1
 10
164.5641
 20
113.1721
  0
VERTEX
  8
LAYER_1
 10
164.5641
 20
124.4108
  0
SEQEND
  0
ENDBLK
  0
BLOCK
  8
LAYER_1
  2
AIGNBL01010031
 70
64
 10
0
 20
0
 30
0
  3
AIGNBL01010031
  0
POLYLINE
  8
LAYER_1
 40
0.05
 41
0.05
 66
1
 10
0
 20
0
 30
0
  0
VERTEX
  8
LAYER_1
 10
103.5641
 20
124.4108
  0
VERTEX
  8
LAYER_1
 10
164.5646
 20
124.4108
  0
SEQEND
  0
ENDBLK
  0
BLOCK
  8
LAYER_1
  2
AIGNBL01010032
 70
64
 10
0
 20
0
 30
0
  3
AIGNBL01010032
  0
POLYLINE
  8
LAYER_1
 40
0.05
 41
0.05
 66
1
 10
0
 20
0
 30
0
 70
1
  0
VERTEX
  8
LAYER_1
 10
103.7672
 20
124.4108
  0
VERTEX
  8
LAYER_1
 10
103.7672
 20
124.3431
  0
VERTEX
  8
LAYER_1
 10
103.6995
 20
124.2754
  0
VERTEX
  8
LAYER_1
 10
103.6318
 20
124.2754
  0
VERTEX
  8
LAYER_1
 10
103.6318
 20
124.2077
  0
VERTEX
  8
LAYER_1
 10
103.5641
 20
124.2077
  0
VERTEX
  8
LAYER_1
 10
103.5641
 20
124.2754
  0
VERTEX
  8
LAYER_1
 10
103.4964
 20
124.2754
  0
VERTEX
  8
LAYER_1
 10
103.4287
 20
124.2754
  0
VERTEX
  8
LAYER_1
 10
103.4287
 20
124.3431
  0
VERTEX
  8
LAYER_1
 10
103.361
 20
124.4108
  0
VERTEX
  8
LAYER_1
 10
103.361
 20
124.4785
  0
VERTEX
  8
LAYER_1
 10
103.4287
 20
124.4785
  0
VERTEX
  8
LAYER_1
 10
103.4287
 20
124.5462
  0
VERTEX
  8
LAYER_1
 10
103.4287
 20
124.6139
  0
VERTEX
  8
LAYER_1
 10
103.4964
 20
124.6139
  0
VERTEX
  8
LAYER_1
 10
103.5641
 20
124.6139
  0
VERTEX
  8
LAYER_1
 10
103.6318
 20
124.6139
  0
VERTEX
  8
LAYER_1
 10
103.6995
 20
124.6139
  0
VERTEX
  8
LAYER_1
 10
103.6995
 20
124.5462
  0
VERTEX
  8
LAYER_1
 10
103.7672
 20
124.5462
  0
VERTEX
  8
LAYER_1
 10
103.7672
 20
124.4785
  0
SEQEND
  0
ENDBLK
  0
BLOCK
  8
LAYER_1
  2
AIGNBL01010033
 70
64
 10
0
 20
0
 30
0
  3
AIGNBL01010033
  0
POLYLINE
  8
LAYER_1
 66
1
 10
0
 20
0
 30
0
 70
1
  0
VERTEX
  8
LAYER_1
 10
103.7672
 20
124.4108
  0
VERTEX
  8
LAYER_1
 10
103.7672
 20
124.3431
  0
VERTEX
  8
LAYER_1
 10
103.6995
 20
124.2754
  0
VERTEX
  8
LAYER_1
 10
103.6318
 20
124.2754
  0
VERTEX
  8
LAYER_1
 10
103.6318
 20
124.2077
  0
VERTEX
  8
LAYER_1
 10
103.5641
 20
124.2077
  0
VERTEX
  8
LAYER_1
 10
103.5641
 20
124.2754
  0
VERTEX
  8
LAYER_1
 10
103.4964
 20
124.2754
  0
VERTEX
  8
LAYER_1
 10
103.4287
 20
124.2754
  0
VERTEX
  8
LAYER_1
 10
103.4287
 20
124.3431
  0
VERTEX
  8
LAYER_1
 10
103.361
 20
124.4108
  0
VERTEX
  8
LAYER_1
 10
103.361
 20
124.4785
  0
VERTEX
  8
LAYER_1
 10
103.4287
 20
124.4785
  0
VERTEX
  8
LAYER_1
 10
103.4287
 20
124.5462
  0
VERTEX
  8
LAYER_1
 10
103.4287
 20
124.6139
  0
VERTEX
  8
LAYER_1
 10
103.4964
 20
124.6139
  0
VERTEX
  8
LAYER_1
 10
103.5641
 20
124.6139
  0
VERTEX
  8
LAYER_1
 10
103.6318
 20
124.6139
  0
VERTEX
  8
LAYER_1
 10
103.6995
 20
124.6139
  0
VERTEX
  8
LAYER_1
 10
103.6995
 20
124.5462
  0
VERTEX
  8
LAYER_1
 10
103.7672
 20
124.5462
  0
VERTEX
  8
LAYER_1
 10
103.7672
 20
124.4785
  0
SEQEND
  0
ENDBLK
  0
BLOCK
  8
LAYER_1
  2
AIGNBL01010034
 70
64
 10
0
 20
0
 30
0
  3
AIGNBL01010034
  0
POLYLINE
  8
LAYER_1
 40
0.05
 41
0.05
 66
1
 10
0
 20
0
 30
0
 70
1
  0
VERTEX
  8
LAYER_1
 10
103.7672
 20
124.4108
  0
VERTEX
  8
LAYER_1
 10
103.7672
 20
124.3431
  0
VERTEX
  8
LAYER_1
 10
103.6995
 20
124.2754
  0
VERTEX
  8
LAYER_1
 10
103.6318
 20
124.2754
  0
VERTEX
  8
LAYER_1
 10
103.6318
 20
124.2077
  0
VERTEX
  8
LAYER_1
 10
103.5641
 20
124.2077
  0
VERTEX
  8
LAYER_1
 10
103.5641
 20
124.2754
  0
VERTEX
  8
LAYER_1
 10
103.4964
 20
124.2754
  0
VERTEX
  8
LAYER_1
 10
103.4287
 20
124.2754
  0
VERTEX
  8
LAYER_1
 10
103.4287
 20
124.3431
  0
VERTEX
  8
LAYER_1
 10
103.361
 20
124.4108
  0
VERTEX
  8
LAYER_1
 10
103.361
 20
124.4785
  0
VERTEX
  8
LAYER_1
 10
103.4287
 20
124.4785
  0
VERTEX
  8
LAYER_1
 10
103.4287
 20
124.5462
  0
VERTEX
  8
LAYER_1
 10
103.4287
 20
124.6139
  0
VERTEX
  8
LAYER_1
 10
103.4964
 20
124.6139
  0
VERTEX
  8
LAYER_1
 10
103.5641
 20
124.6139
  0
VERTEX
  8
LAYER_1
 10
103.6318
 20
124.6139
  0
VERTEX
  8
LAYER_1
 10
103.6995
 20
124.6139
  0
VERTEX
  8
LAYER_1
 10
103.6995
 20
124.5462
  0
VERTEX
  8
LAYER_1
 10
103.7672
 20
124.5462
  0
VERTEX
  8
LAYER_1
 10
103.7672
 20
124.4785
  0
SEQEND
  0
ENDBLK
  0
BLOCK
  8
LAYER_1
  2
AIGNBL01010035
 70
64
 10
0
 20
0
 30
0
  3
AIGNBL01010035
  0
POLYLINE
  8
LAYER_1
 40
0.05
 41
0.05
 66
1
 10
0
 20
0
 30
0
 70
1
  0
VERTEX
  8
LAYER_1
 10
164.3615
 20
124.4108
  0
VERTEX
  8
LAYER_1
 10
164.3615
 20
124.4785
  0
VERTEX
  8
LAYER_1
 10
164.3615
 20
124.5462
  0
VERTEX
  8
LAYER_1
 10
164.4292
 20
124.5462
  0
VERTEX
  8
LAYER_1
 10
164.4292
 20
124.6139
  0
VERTEX
  8
LAYER_1
 10
164.4969
 20
124.6139
  0
VERTEX
  8
LAYER_1
 10
164.5646
 20
124.6139
  0
VERTEX
  8
LAYER_1
 10
164.6323
 20
124.6139
  0
VERTEX
  8
LAYER_1
 10
164.7
 20
124.6139
  0
VERTEX
  8
LAYER_1
 10
164.7
 20
124.5462
  0
VERTEX
  8
LAYER_1
 10
164.7677
 20
124.5462
  0
VERTEX
  8
LAYER_1
 10
164.7677
 20
124.4785
  0
VERTEX
  8
LAYER_1
 10
164.7677
 20
124.4108
  0
VERTEX
  8
LAYER_1
 10
164.7677
 20
124.3431
  0
VERTEX
  8
LAYER_1
 10
164.7
 20
124.3431
  0
VERTEX
  8
LAYER_1
 10
164.7
 20
124.2754
  0
VERTEX
  8
LAYER_1
 10
164.6323
 20
124.2754
  0
VERTEX
  8
LAYER_1
 10
164.5646
 20
124.2077
  0
VERTEX
  8
LAYER_1
 10
164.4969
 20
124.2077
  0
VERTEX
  8
LAYER_1
 10
164.4969
 20
124.2754
  0
VERTEX
  8
LAYER_1
 10
164.4292
 20
124.2754
  0
VERTEX
  8
LAYER_1
 10
164.4292
 20
124.3431
  0
VERTEX
  8
LAYER_1
 10
164.3615
 20
124.3431
  0
SEQEND
  0
ENDBLK
  0
BLOCK
  8
LAYER_1
  2
AIGNBL01010036
 70
64
 10
0
 20
0
 30
0
  3
AIGNBL01010036
  0
POLYLINE
  8
LAYER_1
 66
1
 10
0
 20
0
 30
0
 70
1
  0
VERTEX
  8
LAYER_1
 10
164.3615
 20
124.4108
  0
VERTEX
  8
LAYER_1
 10
164.3615
 20
124.4785
  0
VERTEX
  8
LAYER_1
 10
164.3615
 20
124.5462
  0
VERTEX
  8
LAYER_1
 10
164.4292
 20
124.5462
  0
VERTEX
  8
LAYER_1
 10
164.4292
 20
124.6139
  0
VERTEX
  8
LAYER_1
 10
164.4969
 20
124.6139
  0
VERTEX
  8
LAYER_1
 10
164.5646
 20
124.6139
  0
VERTEX
  8
LAYER_1
 10
164.6323
 20
124.6139
  0
VERTEX
  8
LAYER_1
 10
164.7
 20
124.6139
  0
VERTEX
  8
LAYER_1
 10
164.7
 20
124.5462
  0
VERTEX
  8
LAYER_1
 10
164.7677
 20
124.5462
  0
VERTEX
  8
LAYER_1
 10
164.7677
 20
124.4785
  0
VERTEX
  8
LAYER_1
 10
164.7677
 20
124.4108
  0
VERTEX
  8
LAYER_1
 10
164.7677
 20
124.3431
  0
VERTEX
  8
LAYER_1
 10
164.7
 20
124.3431
  0
VERTEX
  8
LAYER_1
 10
164.7
 20
124.2754
  0
VERTEX
  8
LAYER_1
 10
164.6323
 20
124.2754
  0
VERTEX
  8
LAYER_1
 10
164.5646
 20
124.2077
  0
VERTEX
  8
LAYER_1
 10
164.4969
 20
124.2077
  0
VERTEX
  8
LAYER_1
 10
164.4969
 20
124.2754
  0
VERTEX
  8
LAYER_1
 10
164.4292
 20
124.2754
  0
VERTEX
  8
LAYER_1
 10
164.4292
 20
124.3431
  0
VERTEX
  8
LAYER_1
 10
164.3615
 20
124.3431
  0
SEQEND
  0
ENDBLK
  0
BLOCK
  8
LAYER_1
  2
AIGNBL01010037
 70
64
 10
0
 20
0
 30
0
  3
AIGNBL01010037
  0
POLYLINE
  8
LAYER_1
 40
0.05
 41
0.05
 66
1
 10
0
 20
0
 30
0
 70
1
  0
VERTEX
  8
LAYER_1
 10
164.3615
 20
124.4108
  0
VERTEX
  8
LAYER_1
 10
164.3615
 20
124.4785
  0
VERTEX
  8
LAYER_1
 10
164.3615
 20
124.5462
  0
VERTEX
  8
LAYER_1
 10
164.4292
 20
124.5462
  0
VERTEX
  8
LAYER_1
 10
164.4292
 20
124.6139
  0
VERTEX
  8
LAYER_1
 10
164.4969
 20
124.6139
  0
VERTEX
  8
LAYER_1
 10
164.5646
 20
124.6139
  0
VERTEX
  8
LAYER_1
 10
164.6323
 20
124.6139
  0
VERTEX
  8
LAYER_1
 10
164.7
 20
124.6139
  0
VERTEX
  8
LAYER_1
 10
164.7
 20
124.5462
  0
VERTEX
  8
LAYER_1
 10
164.7677
 20
124.5462
  0
VERTEX
  8
LAYER_1
 10
164.7677
 20
124.4785
  0
VERTEX
  8
LAYER_1
 10
164.7677
 20
124.4108
  0
VERTEX
  8
LAYER_1
 10
164.7677
 20
124.3431
  0
VERTEX
  8
LAYER_1
 10
164.7
 20
124.3431
  0
VERTEX
  8
LAYER_1
 10
164.7
 20
124.2754
  0
VERTEX
  8
LAYER_1
 10
164.6323
 20
124.2754
  0
VERTEX
  8
LAYER_1
 10
164.5646
 20
124.2077
  0
VERTEX
  8
LAYER_1
 10
164.4969
 20
124.2077
  0
VERTEX
  8
LAYER_1
 10
164.4969
 20
124.2754
  0
VERTEX
  8
LAYER_1
 10
164.4292
 20
124.2754
  0
VERTEX
  8
LAYER_1
 10
164.4292
 20
124.3431
  0
VERTEX
  8
LAYER_1
 10
164.3615
 20
124.3431
  0
SEQEND
  0
ENDBLK
  0
BLOCK
  8
LAYER_1
  2
AIGNBL01010038
 70
64
 10
0
 20
0
 30
0
  3
AIGNBL01010038
  0
TEXT
  8
LAYER_1
 10
128.7611
 20
126.187
 11
128.7611
 21
126.187
 40
3.6537
 41
0.5
  1
%%c305
  0
ENDBLK
  0
BLOCK
  8
LAYER_1
  2
AIGNBL01010039
 70
64
 10
0
 20
0
 30
0
  3
AIGNBL01010039
  0
POLYLINE
  8
LAYER_1
 40
0.05
 41
0.05
 66
1
 10
0
 20
0
 30
0
  0
VERTEX
  8
LAYER_1
 10
103.5641
 20
200.008
  0
VERTEX
  8
LAYER_1
 10
103.5641
 20
211.2468
  0
SEQEND
  0
ENDBLK
  0
BLOCK
  8
LAYER_1
  2
AIGNBL0101003A
 70
64
 10
0
 20
0
 30
0
  3
AIGNBL0101003A
  0
POLYLINE
  8
LAYER_1
 40
0.05
 41
0.05
 66
1
 10
0
 20
0
 30
0
  0
VERTEX
  8
LAYER_1
 10
164.5641
 20
200.008
  0
VERTEX
  8
LAYER_1
 10
164.5641
 20
211.2468
  0
SEQEND
  0
ENDBLK
  0
BLOCK
  8
LAYER_1
  2
AIGNBL0101003B
 70
64
 10
0
 20
0
 30
0
  3
AIGNBL0101003B
  0
POLYLINE
  8
LAYER_1
 40
0.05
 41
0.05
 66
1
 10
0
 20
0
 30
0
  0
VERTEX
  8
LAYER_1
 10
103.5641
 20
211.2468
  0
VERTEX
  8
LAYER_1
 10
164.5646
 20
211.2468
  0
SEQEND
  0
ENDBLK
  0
BLOCK
  8
LAYER_1
  2
AIGNBL0101003C
 70
64
 10
0
 20
0
 30
0
  3
AIGNBL0101003C
  0
POLYLINE
  8
LAYER_1
 40
0.05
 41
0.05
 66
1
 10
0
 20
0
 30
0
 70
1
  0
VERTEX
  8
LAYER_1
 10
103.7672
 20
211.2468
  0
VERTEX
  8
LAYER_1
 10
103.7672
 20
211.1791
  0
VERTEX
  8
LAYER_1
 10
103.6995
 20
211.1114
  0
VERTEX
  8
LAYER_1
 10
103.6318
 20
211.1114
  0
VERTEX
  8
LAYER_1
 10
103.6318
 20
211.0437
  0
VERTEX
  8
LAYER_1
 10
103.5641
 20
211.0437
  0
VERTEX
  8
LAYER_1
 10
103.5641
 20
211.1114
  0
VERTEX
  8
LAYER_1
 10
103.4964
 20
211.1114
  0
VERTEX
  8
LAYER_1
 10
103.4287
 20
211.1114
  0
VERTEX
  8
LAYER_1
 10
103.4287
 20
211.1791
  0
VERTEX
  8
LAYER_1
 10
103.361
 20
211.2468
  0
VERTEX
  8
LAYER_1
 10
103.361
 20
211.3145
  0
VERTEX
  8
LAYER_1
 10
103.4287
 20
211.3145
  0
VERTEX
  8
LAYER_1
 10
103.4287
 20
211.3822
  0
VERTEX
  8
LAYER_1
 10
103.4287
 20
211.4499
  0
VERTEX
  8
LAYER_1
 10
103.4964
 20
211.4499
  0
VERTEX
  8
LAYER_1
 10
103.5641
 20
211.4499
  0
VERTEX
  8
LAYER_1
 10
103.6318
 20
211.4499
  0
VERTEX
  8
LAYER_1
 10
103.6995
 20
211.4499
  0
VERTEX
  8
LAYER_1
 10
103.6995
 20
211.3822
  0
VERTEX
  8
LAYER_1
 10
103.7672
 20
211.3822
  0
VERTEX
  8
LAYER_1
 10
103.7672
 20
211.3145
  0
SEQEND
  0
ENDBLK
  0
BLOCK
  8
LAYER_1
  2
AIGNBL0101003D
 70
64
 10
0
 20
0
 30
0
  3
AIGNBL0101003D
  0
POLYLINE
  8
LAYER_1
 66
1
 10
0
 20
0
 30
0
 70
1
  0
VERTEX
  8
LAYER_1
 10
103.7672
 20
211.2468
  0
VERTEX
  8
LAYER_1
 10
103.7672
 20
211.1791
  0
VERTEX
  8
LAYER_1
 10
103.6995
 20
211.1114
  0
VERTEX
  8
LAYER_1
 10
103.6318
 20
211.1114
  0
VERTEX
  8
LAYER_1
 10
103.6318
 20
211.0436
  0
VERTEX
  8
LAYER_1
 10
103.5641
 20
211.0436
  0
VERTEX
  8
LAYER_1
 10
103.5641
 20
211.1114
  0
VERTEX
  8
LAYER_1
 10
103.4964
 20
211.1114
  0
VERTEX
  8
LAYER_1
 10
103.4287
 20
211.1114
  0
VERTEX
  8
LAYER_1
 10
103.4287
 20
211.1791
  0
VERTEX
  8
LAYER_1
 10
103.361
 20
211.2468
  0
VERTEX
  8
LAYER_1
 10
103.361
 20
211.3145
  0
VERTEX
  8
LAYER_1
 10
103.4287
 20
211.3145
  0
VERTEX
  8
LAYER_1
 10
103.4287
 20
211.3822
  0
VERTEX
  8
LAYER_1
 10
103.4287
 20
211.4499
  0
VERTEX
  8
LAYER_1
 10
103.4964
 20
211.4499
  0
VERTEX
  8
LAYER_1
 10
103.5641
 20
211.4499
  0
VERTEX
  8
LAYER_1
 10
103.6318
 20
211.4499
  0
VERTEX
  8
LAYER_1
 10
103.6995
 20
211.4499
  0
VERTEX
  8
LAYER_1
 10
103.6995
 20
211.3822
  0
VERTEX
  8
LAYER_1
 10
103.7672
 20
211.3822
  0
VERTEX
  8
LAYER_1
 10
103.7672
 20
211.3145
  0
SEQEND
  0
ENDBLK
  0
BLOCK
  8
LAYER_1
  2
AIGNBL0101003E
 70
64
 10
0
 20
0
 30
0
  3
AIGNBL0101003E
  0
POLYLINE
  8
LAYER_1
 40
0.05
 41
0.05
 66
1
 10
0
 20
0
 30
0
 70
1
  0
VERTEX
  8
LAYER_1
 10
103.7672
 20
211.2468
  0
VERTEX
  8
LAYER_1
 10
103.7672
 20
211.1791
  0
VERTEX
  8
LAYER_1
 10
103.6995
 20
211.1114
  0
VERTEX
  8
LAYER_1
 10
103.6318
 20
211.1114
  0
VERTEX
  8
LAYER_1
 10
103.6318
 20
211.0436
  0
VERTEX
  8
LAYER_1
 10
103.5641
 20
211.0436
  0
VERTEX
  8
LAYER_1
 10
103.5641
 20
211.1114
  0
VERTEX
  8
LAYER_1
 10
103.4964
 20
211.1114
  0
VERTEX
  8
LAYER_1
 10
103.4287
 20
211.1114
  0
VERTEX
  8
LAYER_1
 10
103.4287
 20
211.1791
  0
VERTEX
  8
LAYER_1
 10
103.361
 20
211.2468
  0
VERTEX
  8
LAYER_1
 10
103.361
 20
211.3145
  0
VERTEX
  8
LAYER_1
 10
103.4287
 20
211.3145
  0
VERTEX
  8
LAYER_1
 10
103.4287
 20
211.3822
  0
VERTEX
  8
LAYER_1
 10
103.4287
 20
211.4499
  0
VERTEX
  8
LAYER_1
 10
103.4964
 20
211.4499
  0
VERTEX
  8
LAYER_1
 10
103.5641
 20
211.4499
  0
VERTEX
  8
LAYER_1
 10
103.6318
 20
211.4499
  0
VERTEX
  8
LAYER_1
 10
103.6995
 20
211.4499
  0
VERTEX
  8
LAYER_1
 10
103.6995
 20
211.3822
  0
VERTEX
  8
LAYER_1
 10
103.7672
 20
211.3822
  0
VERTEX
  8
LAYER_1
 10
103.7672
 20
211.3145
  0
SEQEND
  0
ENDBLK
  0
BLOCK
  8
LAYER_1
  2
AIGNBL0101003F
 70
64
 10
0
 20
0
 30
0
  3
AIGNBL0101003F
  0
POLYLINE
  8
LAYER_1
 40
0.05
 41
0.05
 66
1
 10
0
 20
0
 30
0
 70
1
  0
VERTEX
  8
LAYER_1
 10
164.3615
 20
211.2468
  0
VERTEX
  8
LAYER_1
 10
164.3615
 20
211.3145
  0
VERTEX
  8
LAYER_1
 10
164.3615
 20
211.3822
  0
VERTEX
  8
LAYER_1
 10
164.4292
 20
211.3822
  0
VERTEX
  8
LAYER_1
 10
164.4292
 20
211.4499
  0
VERTEX
  8
LAYER_1
 10
164.4969
 20
211.4499
  0
VERTEX
  8
LAYER_1
 10
164.5646
 20
211.4499
  0
VERTEX
  8
LAYER_1
 10
164.6323
 20
211.4499
  0
VERTEX
  8
LAYER_1
 10
164.7
 20
211.4499
  0
VERTEX
  8
LAYER_1
 10
164.7
 20
211.3822
  0
VERTEX
  8
LAYER_1
 10
164.7677
 20
211.3822
  0
VERTEX
  8
LAYER_1
 10
164.7677
 20
211.3145
  0
VERTEX
  8
LAYER_1
 10
164.7677
 20
211.2468
  0
VERTEX
  8
LAYER_1
 10
164.7677
 20
211.1791
  0
VERTEX
  8
LAYER_1
 10
164.7
 20
211.1791
  0
VERTEX
  8
LAYER_1
 10
164.7
 20
211.1114
  0
VERTEX
  8
LAYER_1
 10
164.6323
 20
211.1114
  0
VERTEX
  8
LAYER_1
 10
164.5646
 20
211.0437
  0
VERTEX
  8
LAYER_1
 10
164.4969
 20
211.0437
  0
VERTEX
  8
LAYER_1
 10
164.4969
 20
211.1114
  0
VERTEX
  8
LAYER_1
 10
164.4292
 20
211.1114
  0
VERTEX
  8
LAYER_1
 10
164.4292
 20
211.1791
  0
VERTEX
  8
LAYER_1
 10
164.3615
 20
211.1791
  0
SEQEND
  0
ENDBLK
  0
BLOCK
  8
LAYER_1
  2
AIGNBL01010040
 70
64
 10
0
 20
0
 30
0
  3
AIGNBL01010040
  0
POLYLINE
  8
LAYER_1
 66
1
 10
0
 20
0
 30
0
 70
1
  0
VERTEX
  8
LAYER_1
 10
164.3615
 20
211.2468
  0
VERTEX
  8
LAYER_1
 10
164.3615
 20
211.3145
  0
VERTEX
  8
LAYER_1
 10
164.3615
 20
211.3822
  0
VERTEX
  8
LAYER_1
 10
164.4292
 20
211.3822
  0
VERTEX
  8
LAYER_1
 10
164.4292
 20
211.4499
  0
VERTEX
  8
LAYER_1
 10
164.4969
 20
211.4499
  0
VERTEX
  8
LAYER_1
 10
164.5646
 20
211.4499
  0
VERTEX
  8
LAYER_1
 10
164.6323
 20
211.4499
  0
VERTEX
  8
LAYER_1
 10
164.7
 20
211.4499
  0
VERTEX
  8
LAYER_1
 10
164.7
 20
211.3822
  0
VERTEX
  8
LAYER_1
 10
164.7677
 20
211.3822
  0
VERTEX
  8
LAYER_1
 10
164.7677
 20
211.3145
  0
VERTEX
  8
LAYER_1
 10
164.7677
 20
211.2468
  0
VERTEX
  8
LAYER_1
 10
164.7677
 20
211.1791
  0
VERTEX
  8
LAYER_1
 10
164.7
 20
211.1791
  0
VERTEX
  8
LAYER_1
 10
164.7
 20
211.1114
  0
VERTEX
  8
LAYER_1
 10
164.6323
 20
211.1114
  0
VERTEX
  8
LAYER_1
 10
164.5646
 20
211.0436
  0
VERTEX
  8
LAYER_1
 10
164.4969
 20
211.0436
  0
VERTEX
  8
LAYER_1
 10
164.4969
 20
211.1114
  0
VERTEX
  8
LAYER_1
 10
164.4292
 20
211.1114
  0
VERTEX
  8
LAYER_1
 10
164.4292
 20
211.1791
  0
VERTEX
  8
LAYER_1
 10
164.3615
 20
211.1791
  0
SEQEND
  0
ENDBLK
  0
BLOCK
  8
LAYER_1
  2
AIGNBL01010041
 70
64
 10
0
 20
0
 30
0
  3
AIGNBL01010041
  0
POLYLINE
  8
LAYER_1
 40
0.05
 41
0.05
 66
1
 10
0
 20
0
 30
0
 70
1
  0
VERTEX
  8
LAYER_1
 10
164.3615
 20
211.2468
  0
VERTEX
  8
LAYER_1
 10
164.3615
 20
211.3145
  0
VERTEX
  8
LAYER_1
 10
164.3615
 20
211.3822
  0
VERTEX
  8
LAYER_1
 10
164.4292
 20
211.3822
  0
VERTEX
  8
LAYER_1
 10
164.4292
 20
211.4499
  0
VERTEX
  8
LAYER_1
 10
164.4969
 20
211.4499
  0
VERTEX
  8
LAYER_1
 10
164.5646
 20
211.4499
  0
VERTEX
  8
LAYER_1
 10
164.6323
 20
211.4499
  0
VERTEX
  8
LAYER_1
 10
164.7
 20
211.4499
  0
VERTEX
  8
LAYER_1
 10
164.7
 20
211.3822
  0
VERTEX
  8
LAYER_1
 10
164.7677
 20
211.3822
  0
VERTEX
  8
LAYER_1
 10
164.7677
 20
211.3145
  0
VERTEX
  8
LAYER_1
 10
164.7677
 20
211.2468
  0
VERTEX
  8
LAYER_1
 10
164.7677
 20
211.1791
  0
VERTEX
  8
LAYER_1
 10
164.7
 20
211.1791
  0
VERTEX
  8
LAYER_1
 10
164.7
 20
211.1114
  0
VERTEX
  8
LAYER_1
 10
164.6323
 20
211.1114
  0
VERTEX
  8
LAYER_1
 10
164.5646
 20
211.0436
  0
VERTEX
  8
LAYER_1
 10
164.4969
 20
211.0436
  0
VERTEX
  8
LAYER_1
 10
164.4969
 20
211.1114
  0
VERTEX
  8
LAYER_1
 10
164.4292
 20
211.1114
  0
VERTEX
  8
LAYER_1
 10
164.4292
 20
211.1791
  0
VERTEX
  8
LAYER_1
 10
164.3615
 20
211.1791
  0
SEQEND
  0
ENDBLK
  0
BLOCK
  8
LAYER_1
  2
AIGNBL01010042
 70
64
 10
0
 20
0
 30
0
  3
AIGNBL01010042
  0
TEXT
  8
LAYER_1
 10
128.7611
 20
213.023
 11
128.7611
 21
213.023
 40
3.6537
 41
0.5
  1
%%c305
  0
ENDBLK
  0
BLOCK
  8
LAYER_1
  2
AIGNBL01010043
 70
64
 10
0
 20
0
 30
0
  3
AIGNBL01010043
  0
POLYLINE
  8
LAYER_1
 40
0.05
 41
0.05
 66
1
 10
0
 20
0
 30
0
  0
VERTEX
  8
LAYER_1
 10
121.5732
 20
85.143
  0
VERTEX
  8
LAYER_1
 10
121.5732
 20
67.9464
  0
SEQEND
  0
ENDBLK
  0
BLOCK
  8
LAYER_1
  2
AIGNBL01010044
 70
64
 10
0
 20
0
 30
0
  3
AIGNBL01010044
  0
POLYLINE
  8
LAYER_1
 40
0.05
 41
0.05
 66
1
 10
0
 20
0
 30
0
  0
VERTEX
  8
LAYER_1
 10
146.5556
 20
85.143
  0
VERTEX
  8
LAYER_1
 10
146.5556
 20
67.9464
  0
SEQEND
  0
ENDBLK
  0
BLOCK
  8
LAYER_1
  2
AIGNBL01010045
 70
64
 10
0
 20
0
 30
0
  3
AIGNBL01010045
  0
POLYLINE
  8
LAYER_1
 40
0.05
 41
0.05
 66
1
 10
0
 20
0
 30
0
  0
VERTEX
  8
LAYER_1
 10
121.5732
 20
67.9464
  0
VERTEX
  8
LAYER_1
 10
146.5556
 20
67.9464
  0
SEQEND
  0
ENDBLK
  0
BLOCK
  8
LAYER_1
  2
AIGNBL01010046
 70
64
 10
0
 20
0
 30
0
  3
AIGNBL01010046
  0
POLYLINE
  8
LAYER_1
 40
0.05
 41
0.05
 66
1
 10
0
 20
0
 30
0
 70
1
  0
VERTEX
  8
LAYER_1
 10
121.7763
 20
67.9464
  0
VERTEX
  8
LAYER_1
 10
121.7763
 20
67.8787
  0
VERTEX
  8
LAYER_1
 10
121.7086
 20
67.8787
  0
VERTEX
  8
LAYER_1
 10
121.7086
 20
67.811
  0
VERTEX
  8
LAYER_1
 10
121.6409
 20
67.811
  0
VERTEX
  8
LAYER_1
 10
121.6409
 20
67.7433
  0
VERTEX
  8
LAYER_1
 10
121.5732
 20
67.7433
  0
VERTEX
  8
LAYER_1
 10
121.5054
 20
67.7433
  0
VERTEX
  8
LAYER_1
 10
121.5054
 20
67.811
  0
VERTEX
  8
LAYER_1
 10
121.4377
 20
67.811
  0
VERTEX
  8
LAYER_1
 10
121.4377
 20
67.8787
  0
VERTEX
  8
LAYER_1
 10
121.37
 20
67.8787
  0
VERTEX
  8
LAYER_1
 10
121.37
 20
67.9464
  0
VERTEX
  8
LAYER_1
 10
121.37
 20
68.0141
  0
VERTEX
  8
LAYER_1
 10
121.37
 20
68.0818
  0
VERTEX
  8
LAYER_1
 10
121.4377
 20
68.0818
  0
VERTEX
  8
LAYER_1
 10
121.4377
 20
68.1496
  0
VERTEX
  8
LAYER_1
 10
121.5054
 20
68.1496
  0
VERTEX
  8
LAYER_1
 10
121.5732
 20
68.1496
  0
VERTEX
  8
LAYER_1
 10
121.6409
 20
68.1496
  0
VERTEX
  8
LAYER_1
 10
121.7086
 20
68.1496
  0
VERTEX
  8
LAYER_1
 10
121.7086
 20
68.0818
  0
VERTEX
  8
LAYER_1
 10
121.7763
 20
68.0818
  0
VERTEX
  8
LAYER_1
 10
121.7763
 20
68.0141
  0
SEQEND
  0
ENDBLK
  0
BLOCK
  8
LAYER_1
  2
AIGNBL01010047
 70
64
 10
0
 20
0
 30
0
  3
AIGNBL01010047
  0
POLYLINE
  8
LAYER_1
 66
1
 10
0
 20
0
 30
0
 70
1
  0
VERTEX
  8
LAYER_1
 10
121.7763
 20
67.9464
  0
VERTEX
  8
LAYER_1
 10
121.7763
 20
67.8787
  0
VERTEX
  8
LAYER_1
 10
121.7086
 20
67.8787
  0
VERTEX
  8
LAYER_1
 10
121.7086
 20
67.811
  0
VERTEX
  8
LAYER_1
 10
121.6409
 20
67.811
  0
VERTEX
  8
LAYER_1
 10
121.6409
 20
67.7433
  0
VERTEX
  8
LAYER_1
 10
121.5732
 20
67.7433
  0
VERTEX
  8
LAYER_1
 10
121.5054
 20
67.7433
  0
VERTEX
  8
LAYER_1
 10
121.5054
 20
67.811
  0
VERTEX
  8
LAYER_1
 10
121.4377
 20
67.811
  0
VERTEX
  8
LAYER_1
 10
121.4377
 20
67.8787
  0
VERTEX
  8
LAYER_1
 10
121.37
 20
67.8787
  0
VERTEX
  8
LAYER_1
 10
121.37
 20
67.9464
  0
VERTEX
  8
LAYER_1
 10
121.37
 20
68.0141
  0
VERTEX
  8
LAYER_1
 10
121.37
 20
68.0818
  0
VERTEX
  8
LAYER_1
 10
121.4377
 20
68.0818
  0
VERTEX
  8
LAYER_1
 10
121.4377
 20
68.1495
  0
VERTEX
  8
LAYER_1
 10
121.5054
 20
68.1495
  0
VERTEX
  8
LAYER_1
 10
121.5732
 20
68.1495
  0
VERTEX
  8
LAYER_1
 10
121.6409
 20
68.1495
  0
VERTEX
  8
LAYER_1
 10
121.7086
 20
68.1495
  0
VERTEX
  8
LAYER_1
 10
121.7086
 20
68.0818
  0
VERTEX
  8
LAYER_1
 10
121.7763
 20
68.0818
  0
VERTEX
  8
LAYER_1
 10
121.7763
 20
68.0141
  0
SEQEND
  0
ENDBLK
  0
BLOCK
  8
LAYER_1
  2
AIGNBL01010048
 70
64
 10
0
 20
0
 30
0
  3
AIGNBL01010048
  0
POLYLINE
  8
LAYER_1
 40
0.05
 41
0.05
 66
1
 10
0
 20
0
 30
0
 70
1
  0
VERTEX
  8
LAYER_1
 10
121.7763
 20
67.9464
  0
VERTEX
  8
LAYER_1
 10
121.7763
 20
67.8787
  0
VERTEX
  8
LAYER_1
 10
121.7086
 20
67.8787
  0
VERTEX
  8
LAYER_1
 10
121.7086
 20
67.811
  0
VERTEX
  8
LAYER_1
 10
121.6409
 20
67.811
  0
VERTEX
  8
LAYER_1
 10
121.6409
 20
67.7433
  0
VERTEX
  8
LAYER_1
 10
121.5732
 20
67.7433
  0
VERTEX
  8
LAYER_1
 10
121.5054
 20
67.7433
  0
VERTEX
  8
LAYER_1
 10
121.5054
 20
67.811
  0
VERTEX
  8
LAYER_1
 10
121.4377
 20
67.811
  0
VERTEX
  8
LAYER_1
 10
121.4377
 20
67.8787
  0
VERTEX
  8
LAYER_1
 10
121.37
 20
67.8787
  0
VERTEX
  8
LAYER_1
 10
121.37
 20
67.9464
  0
VERTEX
  8
LAYER_1
 10
121.37
 20
68.0141
  0
VERTEX
  8
LAYER_1
 10
121.37
 20
68.0818
  0
VERTEX
  8
LAYER_1
 10
121.4377
 20
68.0818
  0
VERTEX
  8
LAYER_1
 10
121.4377
 20
68.1495
  0
VERTEX
  8
LAYER_1
 10
121.5054
 20
68.1495
  0
VERTEX
  8
LAYER_1
 10
121.5732
 20
68.1495
  0
VERTEX
  8
LAYER_1
 10
121.6409
 20
68.1495
  0
VERTEX
  8
LAYER_1
 10
121.7086
 20
68.1495
  0
VERTEX
  8
LAYER_1
 10
121.7086
 20
68.0818
  0
VERTEX
  8
LAYER_1
 10
121.7763
 20
68.0818
  0
VERTEX
  8
LAYER_1
 10
121.7763
 20
68.0141
  0
SEQEND
  0
ENDBLK
  0
BLOCK
  8
LAYER_1
  2
AIGNBL01010049
 70
64
 10
0
 20
0
 30
0
  3
AIGNBL01010049
  0
POLYLINE
  8
LAYER_1
 40
0.05
 41
0.05
 66
1
 10
0
 20
0
 30
0
 70
1
  0
VERTEX
  8
LAYER_1
 10
146.3525
 20
67.9464
  0
VERTEX
  8
LAYER_1
 10
146.3525
 20
68.0141
  0
VERTEX
  8
LAYER_1
 10
146.4202
 20
68.0818
  0
VERTEX
  8
LAYER_1
 10
146.4202
 20
68.1496
  0
VERTEX
  8
LAYER_1
 10
146.4879
 20
68.1496
  0
VERTEX
  8
LAYER_1
 10
146.5556
 20
68.1496
  0
VERTEX
  8
LAYER_1
 10
146.6233
 20
68.1496
  0
VERTEX
  8
LAYER_1
 10
146.691
 20
68.1496
  0
VERTEX
  8
LAYER_1
 10
146.691
 20
68.0818
  0
VERTEX
  8
LAYER_1
 10
146.7587
 20
68.0818
  0
VERTEX
  8
LAYER_1
 10
146.7587
 20
68.0141
  0
VERTEX
  8
LAYER_1
 10
146.7587
 20
67.9464
  0
VERTEX
  8
LAYER_1
 10
146.7587
 20
67.8787
  0
VERTEX
  8
LAYER_1
 10
146.7587
 20
67.811
  0
VERTEX
  8
LAYER_1
 10
146.691
 20
67.811
  0
VERTEX
  8
LAYER_1
 10
146.6233
 20
67.811
  0
VERTEX
  8
LAYER_1
 10
146.6233
 20
67.7433
  0
VERTEX
  8
LAYER_1
 10
146.5556
 20
67.7433
  0
VERTEX
  8
LAYER_1
 10
146.4879
 20
67.7433
  0
VERTEX
  8
LAYER_1
 10
146.4879
 20
67.811
  0
VERTEX
  8
LAYER_1
 10
146.4202
 20
67.811
  0
VERTEX
  8
LAYER_1
 10
146.4202
 20
67.8787
  0
VERTEX
  8
LAYER_1
 10
146.3525
 20
67.8787
  0
SEQEND
  0
ENDBLK
  0
BLOCK
  8
LAYER_1
  2
AIGNBL0101004A
 70
64
 10
0
 20
0
 30
0
  3
AIGNBL0101004A
  0
POLYLINE
  8
LAYER_1
 66
1
 10
0
 20
0
 30
0
 70
1
  0
VERTEX
  8
LAYER_1
 10
146.3525
 20
67.9464
  0
VERTEX
  8
LAYER_1
 10
146.3525
 20
68.0141
  0
VERTEX
  8
LAYER_1
 10
146.4202
 20
68.0818
  0
VERTEX
  8
LAYER_1
 10
146.4202
 20
68.1495
  0
VERTEX
  8
LAYER_1
 10
146.4879
 20
68.1495
  0
VERTEX
  8
LAYER_1
 10
146.5556
 20
68.1495
  0
VERTEX
  8
LAYER_1
 10
146.6233
 20
68.1495
  0
VERTEX
  8
LAYER_1
 10
146.691
 20
68.1495
  0
VERTEX
  8
LAYER_1
 10
146.691
 20
68.0818
  0
VERTEX
  8
LAYER_1
 10
146.7587
 20
68.0818
  0
VERTEX
  8
LAYER_1
 10
146.7587
 20
68.0141
  0
VERTEX
  8
LAYER_1
 10
146.7587
 20
67.9464
  0
VERTEX
  8
LAYER_1
 10
146.7587
 20
67.8787
  0
VERTEX
  8
LAYER_1
 10
146.7587
 20
67.811
  0
VERTEX
  8
LAYER_1
 10
146.691
 20
67.811
  0
VERTEX
  8
LAYER_1
 10
146.6233
 20
67.811
  0
VERTEX
  8
LAYER_1
 10
146.6233
 20
67.7433
  0
VERTEX
  8
LAYER_1
 10
146.5556
 20
67.7433
  0
VERTEX
  8
LAYER_1
 10
146.4879
 20
67.7433
  0
VERTEX
  8
LAYER_1
 10
146.4879
 20
67.811
  0
VERTEX
  8
LAYER_1
 10
146.4202
 20
67.811
  0
VERTEX
  8
LAYER_1
 10
146.4202
 20
67.8787
  0
VERTEX
  8
LAYER_1
 10
146.3525
 20
67.8787
  0
SEQEND
  0
ENDBLK
  0
BLOCK
  8
LAYER_1
  2
AIGNBL0101004B
 70
64
 10
0
 20
0
 30
0
  3
AIGNBL0101004B
  0
POLYLINE
  8
LAYER_1
 40
0.05
 41
0.05
 66
1
 10
0
 20
0
 30
0
 70
1
  0
VERTEX
  8
LAYER_1
 10
146.3525
 20
67.9464
  0
VERTEX
  8
LAYER_1
 10
146.3525
 20
68.0141
  0
VERTEX
  8
LAYER_1
 10
146.4202
 20
68.0818
  0
VERTEX
  8
LAYER_1
 10
146.4202
 20
68.1495
  0
VERTEX
  8
LAYER_1
 10
146.4879
 20
68.1495
  0
VERTEX
  8
LAYER_1
 10
146.5556
 20
68.1495
  0
VERTEX
  8
LAYER_1
 10
146.6233
 20
68.1495
  0
VERTEX
  8
LAYER_1
 10
146.691
 20
68.1495
  0
VERTEX
  8
LAYER_1
 10
146.691
 20
68.0818
  0
VERTEX
  8
LAYER_1
 10
146.7587
 20
68.0818
  0
VERTEX
  8
LAYER_1
 10
146.7587
 20
68.0141
  0
VERTEX
  8
LAYER_1
 10
146.7587
 20
67.9464
  0
VERTEX
  8
LAYER_1
 10
146.7587
 20
67.8787
  0
VERTEX
  8
LAYER_1
 10
146.7587
 20
67.811
  0
VERTEX
  8
LAYER_1
 10
146.691
 20
67.811
  0
VERTEX
  8
LAYER_1
 10
146.6233
 20
67.811
  0
VERTEX
  8
LAYER_1
 10
146.6233
 20
67.7433
  0
VERTEX
  8
LAYER_1
 10
146.5556
 20
67.7433
  0
VERTEX
  8
LAYER_1
 10
146.4879
 20
67.7433
  0
VERTEX
  8
LAYER_1
 10
146.4879
 20
67.811
  0
VERTEX
  8
LAYER_1
 10
146.4202
 20
67.811
  0
VERTEX
  8
LAYER_1
 10
146.4202
 20
67.8787
  0
VERTEX
  8
LAYER_1
 10
146.3525
 20
67.8787
  0
SEQEND
  0
ENDBLK
  0
BLOCK
  8
LAYER_1
  2
AIGNBL0101004C
 70
64
 10
0
 20
0
 30
0
  3
AIGNBL0101004C
  0
POLYLINE
  8
LAYER_1
 40
0.05
 41
0.05
 66
1
 10
0
 20
0
 30
0
  0
VERTEX
  8
LAYER_1
 10
129.9683
 20
85.143
  0
VERTEX
  8
LAYER_1
 10
129.9683
 20
76.2739
  0
SEQEND
  0
ENDBLK
  0
BLOCK
  8
LAYER_1
  2
AIGNBL0101004D
 70
64
 10
0
 20
0
 30
0
  3
AIGNBL0101004D
  0
POLYLINE
  8
LAYER_1
 40
0.05
 41
0.05
 66
1
 10
0
 20
0
 30
0
  0
VERTEX
  8
LAYER_1
 10
138.1604
 20
85.143
  0
VERTEX
  8
LAYER_1
 10
138.1604
 20
76.2739
  0
SEQEND
  0
ENDBLK
  0
BLOCK
  8
LAYER_1
  2
AIGNBL0101004E
 70
64
 10
0
 20
0
 30
0
  3
AIGNBL0101004E
  0
POLYLINE
  8
LAYER_1
 40
0.05
 41
0.05
 66
1
 10
0
 20
0
 30
0
  0
VERTEX
  8
LAYER_1
 10
129.9683
 20
76.2739
  0
VERTEX
  8
LAYER_1
 10
138.1604
 20
76.2739
  0
SEQEND
  0
ENDBLK
  0
BLOCK
  8
LAYER_1
  2
AIGNBL0101004F
 70
64
 10
0
 20
0
 30
0
  3
AIGNBL0101004F
  0
POLYLINE
  8
LAYER_1
 40
0.05
 41
0.05
 66
1
 10
0
 20
0
 30
0
 70
1
  0
VERTEX
  8
LAYER_1
 10
130.1714
 20
76.2739
  0
VERTEX
  8
LAYER_1
 10
130.1714
 20
76.2062
  0
VERTEX
  8
LAYER_1
 10
130.1714
 20
76.1385
  0
VERTEX
  8
LAYER_1
 10
130.1037
 20
76.1385
  0
VERTEX
  8
LAYER_1
 10
130.1037
 20
76.0708
  0
VERTEX
  8
LAYER_1
 10
130.036
 20
76.0708
  0
VERTEX
  8
LAYER_1
 10
129.9683
 20
76.0708
  0
VERTEX
  8
LAYER_1
 10
129.9006
 20
76.0708
  0
VERTEX
  8
LAYER_1
 10
129.8329
 20
76.0708
  0
VERTEX
  8
LAYER_1
 10
129.8329
 20
76.1385
  0
VERTEX
  8
LAYER_1
 10
129.7652
 20
76.1385
  0
VERTEX
  8
LAYER_1
 10
129.7652
 20
76.2062
  0
VERTEX
  8
LAYER_1
 10
129.7652
 20
76.2739
  0
VERTEX
  8
LAYER_1
 10
129.7652
 20
76.3416
  0
VERTEX
  8
LAYER_1
 10
129.8329
 20
76.3416
  0
VERTEX
  8
LAYER_1
 10
129.8329
 20
76.4093
  0
VERTEX
  8
LAYER_1
 10
129.9006
 20
76.4093
  0
VERTEX
  8
LAYER_1
 10
129.9006
 20
76.477
  0
VERTEX
  8
LAYER_1
 10
129.9683
 20
76.477
  0
VERTEX
  8
LAYER_1
 10
130.036
 20
76.477
  0
VERTEX
  8
LAYER_1
 10
130.036
 20
76.4093
  0
VERTEX
  8
LAYER_1
 10
130.1037
 20
76.4093
  0
VERTEX
  8
LAYER_1
 10
130.1714
 20
76.3416
  0
SEQEND
  0
ENDBLK
  0
BLOCK
  8
LAYER_1
  2
AIGNBL01010050
 70
64
 10
0
 20
0
 30
0
  3
AIGNBL01010050
  0
POLYLINE
  8
LAYER_1
 66
1
 10
0
 20
0
 30
0
 70
1
  0
VERTEX
  8
LAYER_1
 10
130.1714
 20
76.2739
  0
VERTEX
  8
LAYER_1
 10
130.1714
 20
76.2062
  0
VERTEX
  8
LAYER_1
 10
130.1714
 20
76.1385
  0
VERTEX
  8
LAYER_1
 10
130.1037
 20
76.1385
  0
VERTEX
  8
LAYER_1
 10
130.1037
 20
76.0708
  0
VERTEX
  8
LAYER_1
 10
130.036
 20
76.0708
  0
VERTEX
  8
LAYER_1
 10
129.9683
 20
76.0708
  0
VERTEX
  8
LAYER_1
 10
129.9006
 20
76.0708
  0
VERTEX
  8
LAYER_1
 10
129.8329
 20
76.0708
  0
VERTEX
  8
LAYER_1
 10
129.8329
 20
76.1385
  0
VERTEX
  8
LAYER_1
 10
129.7652
 20
76.1385
  0
VERTEX
  8
LAYER_1
 10
129.7652
 20
76.2062
  0
VERTEX
  8
LAYER_1
 10
129.7652
 20
76.2739
  0
VERTEX
  8
LAYER_1
 10
129.7652
 20
76.3416
  0
VERTEX
  8
LAYER_1
 10
129.8329
 20
76.3416
  0
VERTEX
  8
LAYER_1
 10
129.8329
 20
76.4093
  0
VERTEX
  8
LAYER_1
 10
129.9006
 20
76.4093
  0
VERTEX
  8
LAYER_1
 10
129.9006
 20
76.477
  0
VERTEX
  8
LAYER_1
 10
129.9683
 20
76.477
  0
VERTEX
  8
LAYER_1
 10
130.036
 20
76.477
  0
VERTEX
  8
LAYER_1
 10
130.036
 20
76.4093
  0
VERTEX
  8
LAYER_1
 10
130.1037
 20
76.4093
  0
VERTEX
  8
LAYER_1
 10
130.1714
 20
76.3416
  0
SEQEND
  0
ENDBLK
  0
BLOCK
  8
LAYER_1
  2
AIGNBL01010051
 70
64
 10
0
 20
0
 30
0
  3
AIGNBL01010051
  0
POLYLINE
  8
LAYER_1
 40
0.05
 41
0.05
 66
1
 10
0
 20
0
 30
0
 70
1
  0
VERTEX
  8
LAYER_1
 10
130.1714
 20
76.2739
  0
VERTEX
  8
LAYER_1
 10
130.1714
 20
76.2062
  0
VERTEX
  8
LAYER_1
 10
130.1714
 20
76.1385
  0
VERTEX
  8
LAYER_1
 10
130.1037
 20
76.1385
  0
VERTEX
  8
LAYER_1
 10
130.1037
 20
76.0708
  0
VERTEX
  8
LAYER_1
 10
130.036
 20
76.0708
  0
VERTEX
  8
LAYER_1
 10
129.9683
 20
76.0708
  0
VERTEX
  8
LAYER_1
 10
129.9006
 20
76.0708
  0
VERTEX
  8
LAYER_1
 10
129.8329
 20
76.0708
  0
VERTEX
  8
LAYER_1
 10
129.8329
 20
76.1385
  0
VERTEX
  8
LAYER_1
 10
129.7652
 20
76.1385
  0
VERTEX
  8
LAYER_1
 10
129.7652
 20
76.2062
  0
VERTEX
  8
LAYER_1
 10
129.7652
 20
76.2739
  0
VERTEX
  8
LAYER_1
 10
129.7652
 20
76.3416
  0
VERTEX
  8
LAYER_1
 10
129.8329
 20
76.3416
  0
VERTEX
  8
LAYER_1
 10
129.8329
 20
76.4093
  0
VERTEX
  8
LAYER_1
 10
129.9006
 20
76.4093
  0
VERTEX
  8
LAYER_1
 10
129.9006
 20
76.477
  0
VERTEX
  8
LAYER_1
 10
129.9683
 20
76.477
  0
VERTEX
  8
LAYER_1
 10
130.036
 20
76.477
  0
VERTEX
  8
LAYER_1
 10
130.036
 20
76.4093
  0
VERTEX
  8
LAYER_1
 10
130.1037
 20
76.4093
  0
VERTEX
  8
LAYER_1
 10
130.1714
 20
76.3416
  0
SEQEND
  0
ENDBLK
  0
BLOCK
  8
LAYER_1
  2
AIGNBL01010052
 70
64
 10
0
 20
0
 30
0
  3
AIGNBL01010052
  0
POLYLINE
  8
LAYER_1
 40
0.05
 41
0.05
 66
1
 10
0
 20
0
 30
0
 70
1
  0
VERTEX
  8
LAYER_1
 10
137.9573
 20
76.2739
  0
VERTEX
  8
LAYER_1
 10
137.9573
 20
76.3416
  0
VERTEX
  8
LAYER_1
 10
138.025
 20
76.3416
  0
VERTEX
  8
LAYER_1
 10
138.025
 20
76.4093
  0
VERTEX
  8
LAYER_1
 10
138.0927
 20
76.4093
  0
VERTEX
  8
LAYER_1
 10
138.0927
 20
76.477
  0
VERTEX
  8
LAYER_1
 10
138.1604
 20
76.477
  0
VERTEX
  8
LAYER_1
 10
138.2281
 20
76.477
  0
VERTEX
  8
LAYER_1
 10
138.2281
 20
76.4093
  0
VERTEX
  8
LAYER_1
 10
138.2958
 20
76.4093
  0
VERTEX
  8
LAYER_1
 10
138.3635
 20
76.3416
  0
VERTEX
  8
LAYER_1
 10
138.3635
 20
76.2739
  0
VERTEX
  8
LAYER_1
 10
138.3635
 20
76.2062
  0
VERTEX
  8
LAYER_1
 10
138.3635
 20
76.1385
  0
VERTEX
  8
LAYER_1
 10
138.2958
 20
76.1385
  0
VERTEX
  8
LAYER_1
 10
138.2958
 20
76.0708
  0
VERTEX
  8
LAYER_1
 10
138.2281
 20
76.0708
  0
VERTEX
  8
LAYER_1
 10
138.1604
 20
76.0708
  0
VERTEX
  8
LAYER_1
 10
138.0927
 20
76.0708
  0
VERTEX
  8
LAYER_1
 10
138.025
 20
76.0708
  0
VERTEX
  8
LAYER_1
 10
138.025
 20
76.1385
  0
VERTEX
  8
LAYER_1
 10
137.9573
 20
76.2062
  0
SEQEND
  0
ENDBLK
  0
BLOCK
  8
LAYER_1
  2
AIGNBL01010053
 70
64
 10
0
 20
0
 30
0
  3
AIGNBL01010053
  0
POLYLINE
  8
LAYER_1
 66
1
 10
0
 20
0
 30
0
 70
1
  0
VERTEX
  8
LAYER_1
 10
137.9573
 20
76.2739
  0
VERTEX
  8
LAYER_1
 10
137.9573
 20
76.3416
  0
VERTEX
  8
LAYER_1
 10
138.025
 20
76.3416
  0
VERTEX
  8
LAYER_1
 10
138.025
 20
76.4093
  0
VERTEX
  8
LAYER_1
 10
138.0927
 20
76.4093
  0
VERTEX
  8
LAYER_1
 10
138.0927
 20
76.477
  0
VERTEX
  8
LAYER_1
 10
138.1604
 20
76.477
  0
VERTEX
  8
LAYER_1
 10
138.2281
 20
76.477
  0
VERTEX
  8
LAYER_1
 10
138.2281
 20
76.4093
  0
VERTEX
  8
LAYER_1
 10
138.2958
 20
76.4093
  0
VERTEX
  8
LAYER_1
 10
138.3635
 20
76.3416
  0
VERTEX
  8
LAYER_1
 10
138.3635
 20
76.2739
  0
VERTEX
  8
LAYER_1
 10
138.3635
 20
76.2062
  0
VERTEX
  8
LAYER_1
 10
138.3635
 20
76.1385
  0
VERTEX
  8
LAYER_1
 10
138.2958
 20
76.1385
  0
VERTEX
  8
LAYER_1
 10
138.2958
 20
76.0708
  0
VERTEX
  8
LAYER_1
 10
138.2281
 20
76.0708
  0
VERTEX
  8
LAYER_1
 10
138.1604
 20
76.0708
  0
VERTEX
  8
LAYER_1
 10
138.0927
 20
76.0708
  0
VERTEX
  8
LAYER_1
 10
138.025
 20
76.0708
  0
VERTEX
  8
LAYER_1
 10
138.025
 20
76.1385
  0
VERTEX
  8
LAYER_1
 10
137.9573
 20
76.2062
  0
SEQEND
  0
ENDBLK
  0
BLOCK
  8
LAYER_1
  2
AIGNBL01010054
 70
64
 10
0
 20
0
 30
0
  3
AIGNBL01010054
  0
POLYLINE
  8
LAYER_1
 40
0.05
 41
0.05
 66
1
 10
0
 20
0
 30
0
 70
1
  0
VERTEX
  8
LAYER_1
 10
137.9573
 20
76.2739
  0
VERTEX
  8
LAYER_1
 10
137.9573
 20
76.3416
  0
VERTEX
  8
LAYER_1
 10
138.025
 20
76.3416
  0
VERTEX
  8
LAYER_1
 10
138.025
 20
76.4093
  0
VERTEX
  8
LAYER_1
 10
138.0927
 20
76.4093
  0
VERTEX
  8
LAYER_1
 10
138.0927
 20
76.477
  0
VERTEX
  8
LAYER_1
 10
138.1604
 20
76.477
  0
VERTEX
  8
LAYER_1
 10
138.2281
 20
76.477
  0
VERTEX
  8
LAYER_1
 10
138.2281
 20
76.4093
  0
VERTEX
  8
LAYER_1
 10
138.2958
 20
76.4093
  0
VERTEX
  8
LAYER_1
 10
138.3635
 20
76.3416
  0
VERTEX
  8
LAYER_1
 10
138.3635
 20
76.2739
  0
VERTEX
  8
LAYER_1
 10
138.3635
 20
76.2062
  0
VERTEX
  8
LAYER_1
 10
138.3635
 20
76.1385
  0
VERTEX
  8
LAYER_1
 10
138.2958
 20
76.1385
  0
VERTEX
  8
LAYER_1
 10
138.2958
 20
76.0708
  0
VERTEX
  8
LAYER_1
 10
138.2281
 20
76.0708
  0
VERTEX
  8
LAYER_1
 10
138.1604
 20
76.0708
  0
VERTEX
  8
LAYER_1
 10
138.0927
 20
76.0708
  0
VERTEX
  8
LAYER_1
 10
138.025
 20
76.0708
  0
VERTEX
  8
LAYER_1
 10
138.025
 20
76.1385
  0
VERTEX
  8
LAYER_1
 10
137.9573
 20
76.2062
  0
SEQEND
  0
ENDBLK
  0
BLOCK
  8
LAYER_1
  2
AIGNBL01010055
 70
64
 10
0
 20
0
 30
0
  3
AIGNBL01010055
  0
POLYLINE
  8
LAYER_1
 40
0.05
 41
0.05
 66
1
 10
0
 20
0
 30
0
  0
VERTEX
  8
LAYER_1
 10
147.368
 20
90.153
  0
VERTEX
  8
LAYER_1
 10
154.5445
 20
90.153
  0
SEQEND
  0
ENDBLK
  0
BLOCK
  8
LAYER_1
  2
AIGNBL01010056
 70
64
 10
0
 20
0
 30
0
  3
AIGNBL01010056
  0
POLYLINE
  8
LAYER_1
 40
0.05
 41
0.05
 66
1
 10
0
 20
0
 30
0
  0
VERTEX
  8
LAYER_1
 10
147.368
 20
85.9554
  0
VERTEX
  8
LAYER_1
 10
154.5445
 20
85.9554
  0
SEQEND
  0
ENDBLK
  0
BLOCK
  8
LAYER_1
  2
AIGNBL01010057
 70
64
 10
0
 20
0
 30
0
  3
AIGNBL01010057
  0
POLYLINE
  8
LAYER_1
 40
0.05
 41
0.05
 66
1
 10
0
 20
0
 30
0
  0
VERTEX
  8
LAYER_1
 10
154.5445
 20
90.153
  0
VERTEX
  8
LAYER_1
 10
154.5445
 20
85.9554
  0
SEQEND
  0
ENDBLK
  0
BLOCK
  8
LAYER_1
  2
AIGNBL01010058
 70
64
 10
0
 20
0
 30
0
  3
AIGNBL01010058
  0
POLYLINE
  8
LAYER_1
 40
0.05
 41
0.05
 66
1
 10
0
 20
0
 30
0
 70
1
  0
VERTEX
  8
LAYER_1
 10
154.5445
 20
89.9499
  0
VERTEX
  8
LAYER_1
 10
154.4768
 20
89.9499
  0
VERTEX
  8
LAYER_1
 10
154.4768
 20
90.0176
  0
VERTEX
  8
LAYER_1
 10
154.4091
 20
90.0176
  0
VERTEX
  8
LAYER_1
 10
154.4091
 20
90.0853
  0
VERTEX
  8
LAYER_1
 10
154.3414
 20
90.0853
  0
VERTEX
  8
LAYER_1
 10
154.3414
 20
90.153
  0
VERTEX
  8
LAYER_1
 10
154.3414
 20
90.2207
  0
VERTEX
  8
LAYER_1
 10
154.4091
 20
90.2207
  0
VERTEX
  8
LAYER_1
 10
154.4091
 20
90.2884
  0
VERTEX
  8
LAYER_1
 10
154.4768
 20
90.2884
  0
VERTEX
  8
LAYER_1
 10
154.4768
 20
90.3561
  0
VERTEX
  8
LAYER_1
 10
154.5445
 20
90.3561
  0
VERTEX
  8
LAYER_1
 10
154.6122
 20
90.3561
  0
VERTEX
  8
LAYER_1
 10
154.6799
 20
90.3561
  0
VERTEX
  8
LAYER_1
 10
154.6799
 20
90.2884
  0
VERTEX
  8
LAYER_1
 10
154.7476
 20
90.2884
  0
VERTEX
  8
LAYER_1
 10
154.7476
 20
90.2207
  0
VERTEX
  8
LAYER_1
 10
154.7476
 20
90.153
  0
VERTEX
  8
LAYER_1
 10
154.7476
 20
90.0853
  0
VERTEX
  8
LAYER_1
 10
154.7476
 20
90.0176
  0
VERTEX
  8
LAYER_1
 10
154.6799
 20
90.0176
  0
VERTEX
  8
LAYER_1
 10
154.6799
 20
89.9499
  0
VERTEX
  8
LAYER_1
 10
154.6122
 20
89.9499
  0
SEQEND
  0
ENDBLK
  0
BLOCK
  8
LAYER_1
  2
AIGNBL01010059
 70
64
 10
0
 20
0
 30
0
  3
AIGNBL01010059
  0
POLYLINE
  8
LAYER_1
 66
1
 10
0
 20
0
 30
0
 70
1
  0
VERTEX
  8
LAYER_1
 10
154.5445
 20
89.9499
  0
VERTEX
  8
LAYER_1
 10
154.4768
 20
89.9499
  0
VERTEX
  8
LAYER_1
 10
154.4768
 20
90.0176
  0
VERTEX
  8
LAYER_1
 10
154.4091
 20
90.0176
  0
VERTEX
  8
LAYER_1
 10
154.4091
 20
90.0853
  0
VERTEX
  8
LAYER_1
 10
154.3414
 20
90.0853
  0
VERTEX
  8
LAYER_1
 10
154.3414
 20
90.153
  0
VERTEX
  8
LAYER_1
 10
154.3414
 20
90.2207
  0
VERTEX
  8
LAYER_1
 10
154.4091
 20
90.2207
  0
VERTEX
  8
LAYER_1
 10
154.4091
 20
90.2884
  0
VERTEX
  8
LAYER_1
 10
154.4768
 20
90.2884
  0
VERTEX
  8
LAYER_1
 10
154.4768
 20
90.3561
  0
VERTEX
  8
LAYER_1
 10
154.5445
 20
90.3561
  0
VERTEX
  8
LAYER_1
 10
154.6122
 20
90.3561
  0
VERTEX
  8
LAYER_1
 10
154.6799
 20
90.3561
  0
VERTEX
  8
LAYER_1
 10
154.6799
 20
90.2884
  0
VERTEX
  8
LAYER_1
 10
154.7476
 20
90.2884
  0
VERTEX
  8
LAYER_1
 10
154.7476
 20
90.2207
  0
VERTEX
  8
LAYER_1
 10
154.7476
 20
90.153
  0
VERTEX
  8
LAYER_1
 10
154.7476
 20
90.0853
  0
VERTEX
  8
LAYER_1
 10
154.7476
 20
90.0176
  0
VERTEX
  8
LAYER_1
 10
154.6799
 20
90.0176
  0
VERTEX
  8
LAYER_1
 10
154.6799
 20
89.9499
  0
VERTEX
  8
LAYER_1
 10
154.6122
 20
89.9499
  0
SEQEND
  0
ENDBLK
  0
BLOCK
  8
LAYER_1
  2
AIGNBL0101005A
 70
64
 10
0
 20
0
 30
0
  3
AIGNBL0101005A
  0
POLYLINE
  8
LAYER_1
 40
0.05
 41
0.05
 66
1
 10
0
 20
0
 30
0
 70
1
  0
VERTEX
  8
LAYER_1
 10
154.5445
 20
89.9499
  0
VERTEX
  8
LAYER_1
 10
154.4768
 20
89.9499
  0
VERTEX
  8
LAYER_1
 10
154.4768
 20
90.0176
  0
VERTEX
  8
LAYER_1
 10
154.4091
 20
90.0176
  0
VERTEX
  8
LAYER_1
 10
154.4091
 20
90.0853
  0
VERTEX
  8
LAYER_1
 10
154.3414
 20
90.0853
  0
VERTEX
  8
LAYER_1
 10
154.3414
 20
90.153
  0
VERTEX
  8
LAYER_1
 10
154.3414
 20
90.2207
  0
VERTEX
  8
LAYER_1
 10
154.4091
 20
90.2207
  0
VERTEX
  8
LAYER_1
 10
154.4091
 20
90.2884
  0
VERTEX
  8
LAYER_1
 10
154.4768
 20
90.2884
  0
VERTEX
  8
LAYER_1
 10
154.4768
 20
90.3561
  0
VERTEX
  8
LAYER_1
 10
154.5445
 20
90.3561
  0
VERTEX
  8
LAYER_1
 10
154.6122
 20
90.3561
  0
VERTEX
  8
LAYER_1
 10
154.6799
 20
90.3561
  0
VERTEX
  8
LAYER_1
 10
154.6799
 20
90.2884
  0
VERTEX
  8
LAYER_1
 10
154.7476
 20
90.2884
  0
VERTEX
  8
LAYER_1
 10
154.7476
 20
90.2207
  0
VERTEX
  8
LAYER_1
 10
154.7476
 20
90.153
  0
VERTEX
  8
LAYER_1
 10
154.7476
 20
90.0853
  0
VERTEX
  8
LAYER_1
 10
154.7476
 20
90.0176
  0
VERTEX
  8
LAYER_1
 10
154.6799
 20
90.0176
  0
VERTEX
  8
LAYER_1
 10
154.6799
 20
89.9499
  0
VERTEX
  8
LAYER_1
 10
154.6122
 20
89.9499
  0
SEQEND
  0
ENDBLK
  0
BLOCK
  8
LAYER_1
  2
AIGNBL0101005B
 70
64
 10
0
 20
0
 30
0
  3
AIGNBL0101005B
  0
POLYLINE
  8
LAYER_1
 40
0.05
 41
0.05
 66
1
 10
0
 20
0
 30
0
 70
1
  0
VERTEX
  8
LAYER_1
 10
154.5445
 20
86.1586
  0
VERTEX
  8
LAYER_1
 10
154.6122
 20
86.1586
  0
VERTEX
  8
LAYER_1
 10
154.6799
 20
86.1586
  0
VERTEX
  8
LAYER_1
 10
154.6799
 20
86.0909
  0
VERTEX
  8
LAYER_1
 10
154.7476
 20
86.0909
  0
VERTEX
  8
LAYER_1
 10
154.7476
 20
86.0232
  0
VERTEX
  8
LAYER_1
 10
154.7476
 20
85.9554
  0
VERTEX
  8
LAYER_1
 10
154.7476
 20
85.8877
  0
VERTEX
  8
LAYER_1
 10
154.7476
 20
85.82
  0
VERTEX
  8
LAYER_1
 10
154.6799
 20
85.82
  0
VERTEX
  8
LAYER_1
 10
154.6799
 20
85.7523
  0
VERTEX
  8
LAYER_1
 10
154.6122
 20
85.7523
  0
VERTEX
  8
LAYER_1
 10
154.5445
 20
85.7523
  0
VERTEX
  8
LAYER_1
 10
154.4768
 20
85.7523
  0
VERTEX
  8
LAYER_1
 10
154.4768
 20
85.82
  0
VERTEX
  8
LAYER_1
 10
154.4091
 20
85.82
  0
VERTEX
  8
LAYER_1
 10
154.4091
 20
85.8877
  0
VERTEX
  8
LAYER_1
 10
154.3414
 20
85.8877
  0
VERTEX
  8
LAYER_1
 10
154.3414
 20
85.9554
  0
VERTEX
  8
LAYER_1
 10
154.3414
 20
86.0232
  0
VERTEX
  8
LAYER_1
 10
154.4091
 20
86.0232
  0
VERTEX
  8
LAYER_1
 10
154.4091
 20
86.0909
  0
VERTEX
  8
LAYER_1
 10
154.4768
 20
86.0909
  0
VERTEX
  8
LAYER_1
 10
154.4768
 20
86.1586
  0
SEQEND
  0
ENDBLK
  0
BLOCK
  8
LAYER_1
  2
AIGNBL0101005C
 70
64
 10
0
 20
0
 30
0
  3
AIGNBL0101005C
  0
POLYLINE
  8
LAYER_1
 66
1
 10
0
 20
0
 30
0
 70
1
  0
VERTEX
  8
LAYER_1
 10
154.5445
 20
86.1586
  0
VERTEX
  8
LAYER_1
 10
154.6122
 20
86.1586
  0
VERTEX
  8
LAYER_1
 10
154.6799
 20
86.1586
  0
VERTEX
  8
LAYER_1
 10
154.6799
 20
86.0909
  0
VERTEX
  8
LAYER_1
 10
154.7476
 20
86.0909
  0
VERTEX
  8
LAYER_1
 10
154.7476
 20
86.0232
  0
VERTEX
  8
LAYER_1
 10
154.7476
 20
85.9554
  0
VERTEX
  8
LAYER_1
 10
154.7476
 20
85.8877
  0
VERTEX
  8
LAYER_1
 10
154.7476
 20
85.82
  0
VERTEX
  8
LAYER_1
 10
154.6799
 20
85.82
  0
VERTEX
  8
LAYER_1
 10
154.6799
 20
85.7523
  0
VERTEX
  8
LAYER_1
 10
154.6122
 20
85.7523
  0
VERTEX
  8
LAYER_1
 10
154.5445
 20
85.7523
  0
VERTEX
  8
LAYER_1
 10
154.4768
 20
85.7523
  0
VERTEX
  8
LAYER_1
 10
154.4768
 20
85.82
  0
VERTEX
  8
LAYER_1
 10
154.4091
 20
85.82
  0
VERTEX
  8
LAYER_1
 10
154.4091
 20
85.8877
  0
VERTEX
  8
LAYER_1
 10
154.3414
 20
85.8877
  0
VERTEX
  8
LAYER_1
 10
154.3414
 20
85.9554
  0
VERTEX
  8
LAYER_1
 10
154.3414
 20
86.0232
  0
VERTEX
  8
LAYER_1
 10
154.4091
 20
86.0232
  0
VERTEX
  8
LAYER_1
 10
154.4091
 20
86.0909
  0
VERTEX
  8
LAYER_1
 10
154.4768
 20
86.0909
  0
VERTEX
  8
LAYER_1
 10
154.4768
 20
86.1586
  0
SEQEND
  0
ENDBLK
  0
BLOCK
  8
LAYER_1
  2
AIGNBL0101005D
 70
64
 10
0
 20
0
 30
0
  3
AIGNBL0101005D
  0
POLYLINE
  8
LAYER_1
 40
0.05
 41
0.05
 66
1
 10
0
 20
0
 30
0
 70
1
  0
VERTEX
  8
LAYER_1
 10
154.5445
 20
86.1586
  0
VERTEX
  8
LAYER_1
 10
154.6122
 20
86.1586
  0
VERTEX
  8
LAYER_1
 10
154.6799
 20
86.1586
  0
VERTEX
  8
LAYER_1
 10
154.6799
 20
86.0909
  0
VERTEX
  8
LAYER_1
 10
154.7476
 20
86.0909
  0
VERTEX
  8
LAYER_1
 10
154.7476
 20
86.0232
  0
VERTEX
  8
LAYER_1
 10
154.7476
 20
85.9554
  0
VERTEX
  8
LAYER_1
 10
154.7476
 20
85.8877
  0
VERTEX
  8
LAYER_1
 10
154.7476
 20
85.82
  0
VERTEX
  8
LAYER_1
 10
154.6799
 20
85.82
  0
VERTEX
  8
LAYER_1
 10
154.6799
 20
85.7523
  0
VERTEX
  8
LAYER_1
 10
154.6122
 20
85.7523
  0
VERTEX
  8
LAYER_1
 10
154.5445
 20
85.7523
  0
VERTEX
  8
LAYER_1
 10
154.4768
 20
85.7523
  0
VERTEX
  8
LAYER_1
 10
154.4768
 20
85.82
  0
VERTEX
  8
LAYER_1
 10
154.4091
 20
85.82
  0
VERTEX
  8
LAYER_1
 10
154.4091
 20
85.8877
  0
VERTEX
  8
LAYER_1
 10
154.3414
 20
85.8877
  0
VERTEX
  8
LAYER_1
 10
154.3414
 20
85.9554
  0
VERTEX
  8
LAYER_1
 10
154.3414
 20
86.0232
  0
VERTEX
  8
LAYER_1
 10
154.4091
 20
86.0232
  0
VERTEX
  8
LAYER_1
 10
154.4091
 20
86.0909
  0
VERTEX
  8
LAYER_1
 10
154.4768
 20
86.0909
  0
VERTEX
  8
LAYER_1
 10
154.4768
 20
86.1586
  0
SEQEND
  0
ENDBLK
  0
BLOCK
  8
LAYER_1
  2
AIGNBL0101005E
 70
64
 10
0
 20
0
 30
0
  3
AIGNBL0101005E
  0
TEXT
  8
LAYER_1
 10
153.1073
 20
86.4165
 11
153.1073
 21
86.4165
 40
3.6537
 41
0.5
 50
89.99999999
  1
21
  0
ENDBLK
  0
BLOCK
  8
LAYER_1
  2
AIGNBL0101005F
 70
64
 10
0
 20
0
 30
0
  3
AIGNBL0101005F
  0
POLYLINE
  8
LAYER_1
 40
0.05
 41
0.05
 66
1
 10
0
 20
0
 30
0
  0
VERTEX
  8
LAYER_1
 10
165.377
 20
112.3596
  0
VERTEX
  8
LAYER_1
 10
176.2772
 20
112.3596
  0
SEQEND
  0
ENDBLK
  0
BLOCK
  8
LAYER_1
  2
AIGNBL01010060
 70
64
 10
0
 20
0
 30
0
  3
AIGNBL01010060
  0
POLYLINE
  8
LAYER_1
 40
0.05
 41
0.05
 66
1
 10
0
 20
0
 30
0
  0
VERTEX
  8
LAYER_1
 10
147.368
 20
85.9554
  0
VERTEX
  8
LAYER_1
 10
176.2772
 20
85.9554
  0
SEQEND
  0
ENDBLK
  0
BLOCK
  8
LAYER_1
  2
AIGNBL01010061
 70
64
 10
0
 20
0
 30
0
  3
AIGNBL01010061
  0
POLYLINE
  8
LAYER_1
 40
0.05
 41
0.05
 66
1
 10
0
 20
0
 30
0
  0
VERTEX
  8
LAYER_1
 10
176.2772
 20
112.3596
  0
VERTEX
  8
LAYER_1
 10
176.2772
 20
85.9554
  0
SEQEND
  0
ENDBLK
  0
BLOCK
  8
LAYER_1
  2
AIGNBL01010062
 70
64
 10
0
 20
0
 30
0
  3
AIGNBL01010062
  0
POLYLINE
  8
LAYER_1
 40
0.05
 41
0.05
 66
1
 10
0
 20
0
 30
0
 70
1
  0
VERTEX
  8
LAYER_1
 10
176.2772
 20
112.1565
  0
VERTEX
  8
LAYER_1
 10
176.2095
 20
112.1565
  0
VERTEX
  8
LAYER_1
 10
176.1418
 20
112.1565
  0
VERTEX
  8
LAYER_1
 10
176.1418
 20
112.2242
  0
VERTEX
  8
LAYER_1
 10
176.0741
 20
112.2242
  0
VERTEX
  8
LAYER_1
 10
176.0741
 20
112.2919
  0
VERTEX
  8
LAYER_1
 10
176.0741
 20
112.3596
  0
VERTEX
  8
LAYER_1
 10
176.0741
 20
112.4273
  0
VERTEX
  8
LAYER_1
 10
176.0741
 20
112.495
  0
VERTEX
  8
LAYER_1
 10
176.1418
 20
112.495
  0
VERTEX
  8
LAYER_1
 10
176.2095
 20
112.5627
  0
VERTEX
  8
LAYER_1
 10
176.2772
 20
112.5627
  0
VERTEX
  8
LAYER_1
 10
176.3449
 20
112.5627
  0
VERTEX
  8
LAYER_1
 10
176.3449
 20
112.495
  0
VERTEX
  8
LAYER_1
 10
176.4126
 20
112.495
  0
VERTEX
  8
LAYER_1
 10
176.4126
 20
112.4273
  0
VERTEX
  8
LAYER_1
 10
176.4126
 20
112.3596
  0
VERTEX
  8
LAYER_1
 10
176.4803
 20
112.3596
  0
VERTEX
  8
LAYER_1
 10
176.4803
 20
112.2919
  0
VERTEX
  8
LAYER_1
 10
176.4126
 20
112.2919
  0
VERTEX
  8
LAYER_1
 10
176.4126
 20
112.2242
  0
VERTEX
  8
LAYER_1
 10
176.3449
 20
112.1565
  0
SEQEND
  0
ENDBLK
  0
BLOCK
  8
LAYER_1
  2
AIGNBL01010063
 70
64
 10
0
 20
0
 30
0
  3
AIGNBL01010063
  0
POLYLINE
  8
LAYER_1
 66
1
 10
0
 20
0
 30
0
 70
1
  0
VERTEX
  8
LAYER_1
 10
176.2772
 20
112.1565
  0
VERTEX
  8
LAYER_1
 10
176.2095
 20
112.1565
  0
VERTEX
  8
LAYER_1
 10
176.1418
 20
112.1565
  0
VERTEX
  8
LAYER_1
 10
176.1418
 20
112.2242
  0
VERTEX
  8
LAYER_1
 10
176.0741
 20
112.2242
  0
VERTEX
  8
LAYER_1
 10
176.0741
 20
112.2919
  0
VERTEX
  8
LAYER_1
 10
176.0741
 20
112.3596
  0
VERTEX
  8
LAYER_1
 10
176.0741
 20
112.4273
  0
VERTEX
  8
LAYER_1
 10
176.0741
 20
112.495
  0
VERTEX
  8
LAYER_1
 10
176.1418
 20
112.495
  0
VERTEX
  8
LAYER_1
 10
176.2095
 20
112.5627
  0
VERTEX
  8
LAYER_1
 10
176.2772
 20
112.5627
  0
VERTEX
  8
LAYER_1
 10
176.3449
 20
112.5627
  0
VERTEX
  8
LAYER_1
 10
176.3449
 20
112.495
  0
VERTEX
  8
LAYER_1
 10
176.4126
 20
112.495
  0
VERTEX
  8
LAYER_1
 10
176.4126
 20
112.4273
  0
VERTEX
  8
LAYER_1
 10
176.4126
 20
112.3596
  0
VERTEX
  8
LAYER_1
 10
176.4803
 20
112.3596
  0
VERTEX
  8
LAYER_1
 10
176.4803
 20
112.2919
  0
VERTEX
  8
LAYER_1
 10
176.4126
 20
112.2919
  0
VERTEX
  8
LAYER_1
 10
176.4126
 20
112.2242
  0
VERTEX
  8
LAYER_1
 10
176.3449
 20
112.1565
  0
SEQEND
  0
ENDBLK
  0
BLOCK
  8
LAYER_1
  2
AIGNBL01010064
 70
64
 10
0
 20
0
 30
0
  3
AIGNBL01010064
  0
POLYLINE
  8
LAYER_1
 40
0.05
 41
0.05
 66
1
 10
0
 20
0
 30
0
 70
1
  0
VERTEX
  8
LAYER_1
 10
176.2772
 20
112.1565
  0
VERTEX
  8
LAYER_1
 10
176.2095
 20
112.1565
  0
VERTEX
  8
LAYER_1
 10
176.1418
 20
112.1565
  0
VERTEX
  8
LAYER_1
 10
176.1418
 20
112.2242
  0
VERTEX
  8
LAYER_1
 10
176.0741
 20
112.2242
  0
VERTEX
  8
LAYER_1
 10
176.0741
 20
112.2919
  0
VERTEX
  8
LAYER_1
 10
176.0741
 20
112.3596
  0
VERTEX
  8
LAYER_1
 10
176.0741
 20
112.4273
  0
VERTEX
  8
LAYER_1
 10
176.0741
 20
112.495
  0
VERTEX
  8
LAYER_1
 10
176.1418
 20
112.495
  0
VERTEX
  8
LAYER_1
 10
176.2095
 20
112.5627
  0
VERTEX
  8
LAYER_1
 10
176.2772
 20
112.5627
  0
VERTEX
  8
LAYER_1
 10
176.3449
 20
112.5627
  0
VERTEX
  8
LAYER_1
 10
176.3449
 20
112.495
  0
VERTEX
  8
LAYER_1
 10
176.4126
 20
112.495
  0
VERTEX
  8
LAYER_1
 10
176.4126
 20
112.4273
  0
VERTEX
  8
LAYER_1
 10
176.4126
 20
112.3596
  0
VERTEX
  8
LAYER_1
 10
176.4803
 20
112.3596
  0
VERTEX
  8
LAYER_1
 10
176.4803
 20
112.2919
  0
VERTEX
  8
LAYER_1
 10
176.4126
 20
112.2919
  0
VERTEX
  8
LAYER_1
 10
176.4126
 20
112.2242
  0
VERTEX
  8
LAYER_1
 10
176.3449
 20
112.1565
  0
SEQEND
  0
ENDBLK
  0
BLOCK
  8
LAYER_1
  2
AIGNBL01010065
 70
64
 10
0
 20
0
 30
0
  3
AIGNBL01010065
  0
POLYLINE
  8
LAYER_1
 40
0.05
 41
0.05
 66
1
 10
0
 20
0
 30
0
 70
1
  0
VERTEX
  8
LAYER_1
 10
176.2772
 20
86.1586
  0
VERTEX
  8
LAYER_1
 10
176.3449
 20
86.1586
  0
VERTEX
  8
LAYER_1
 10
176.3449
 20
86.0909
  0
VERTEX
  8
LAYER_1
 10
176.4126
 20
86.0909
  0
VERTEX
  8
LAYER_1
 10
176.4126
 20
86.0232
  0
VERTEX
  8
LAYER_1
 10
176.4803
 20
86.0232
  0
VERTEX
  8
LAYER_1
 10
176.4803
 20
85.9554
  0
VERTEX
  8
LAYER_1
 10
176.4803
 20
85.8877
  0
VERTEX
  8
LAYER_1
 10
176.4126
 20
85.8877
  0
VERTEX
  8
LAYER_1
 10
176.4126
 20
85.82
  0
VERTEX
  8
LAYER_1
 10
176.3449
 20
85.82
  0
VERTEX
  8
LAYER_1
 10
176.3449
 20
85.7523
  0
VERTEX
  8
LAYER_1
 10
176.2772
 20
85.7523
  0
VERTEX
  8
LAYER_1
 10
176.2095
 20
85.7523
  0
VERTEX
  8
LAYER_1
 10
176.1418
 20
85.7523
  0
VERTEX
  8
LAYER_1
 10
176.1418
 20
85.82
  0
VERTEX
  8
LAYER_1
 10
176.0741
 20
85.82
  0
VERTEX
  8
LAYER_1
 10
176.0741
 20
85.8877
  0
VERTEX
  8
LAYER_1
 10
176.0741
 20
85.9554
  0
VERTEX
  8
LAYER_1
 10
176.0741
 20
86.0232
  0
VERTEX
  8
LAYER_1
 10
176.0741
 20
86.0909
  0
VERTEX
  8
LAYER_1
 10
176.1418
 20
86.0909
  0
VERTEX
  8
LAYER_1
 10
176.1418
 20
86.1586
  0
VERTEX
  8
LAYER_1
 10
176.2095
 20
86.1586
  0
SEQEND
  0
ENDBLK
  0
BLOCK
  8
LAYER_1
  2
AIGNBL01010066
 70
64
 10
0
 20
0
 30
0
  3
AIGNBL01010066
  0
POLYLINE
  8
LAYER_1
 66
1
 10
0
 20
0
 30
0
 70
1
  0
VERTEX
  8
LAYER_1
 10
176.2772
 20
86.1586
  0
VERTEX
  8
LAYER_1
 10
176.3449
 20
86.1586
  0
VERTEX
  8
LAYER_1
 10
176.3449
 20
86.0909
  0
VERTEX
  8
LAYER_1
 10
176.4126
 20
86.0909
  0
VERTEX
  8
LAYER_1
 10
176.4126
 20
86.0232
  0
VERTEX
  8
LAYER_1
 10
176.4803
 20
86.0232
  0
VERTEX
  8
LAYER_1
 10
176.4803
 20
85.9554
  0
VERTEX
  8
LAYER_1
 10
176.4803
 20
85.8877
  0
VERTEX
  8
LAYER_1
 10
176.4126
 20
85.8877
  0
VERTEX
  8
LAYER_1
 10
176.4126
 20
85.82
  0
VERTEX
  8
LAYER_1
 10
176.3449
 20
85.82
  0
VERTEX
  8
LAYER_1
 10
176.3449
 20
85.7523
  0
VERTEX
  8
LAYER_1
 10
176.2772
 20
85.7523
  0
VERTEX
  8
LAYER_1
 10
176.2095
 20
85.7523
  0
VERTEX
  8
LAYER_1
 10
176.1418
 20
85.7523
  0
VERTEX
  8
LAYER_1
 10
176.1418
 20
85.82
  0
VERTEX
  8
LAYER_1
 10
176.0741
 20
85.82
  0
VERTEX
  8
LAYER_1
 10
176.0741
 20
85.8877
  0
VERTEX
  8
LAYER_1
 10
176.0741
 20
85.9554
  0
VERTEX
  8
LAYER_1
 10
176.0741
 20
86.0232
  0
VERTEX
  8
LAYER_1
 10
176.0741
 20
86.0909
  0
VERTEX
  8
LAYER_1
 10
176.1418
 20
86.0909
  0
VERTEX
  8
LAYER_1
 10
176.1418
 20
86.1586
  0
VERTEX
  8
LAYER_1
 10
176.2095
 20
86.1586
  0
SEQEND
  0
ENDBLK
  0
BLOCK
  8
LAYER_1
  2
AIGNBL01010067
 70
64
 10
0
 20
0
 30
0
  3
AIGNBL01010067
  0
POLYLINE
  8
LAYER_1
 40
0.05
 41
0.05
 66
1
 10
0
 20
0
 30
0
 70
1
  0
VERTEX
  8
LAYER_1
 10
176.2772
 20
86.1586
  0
VERTEX
  8
LAYER_1
 10
176.3449
 20
86.1586
  0
VERTEX
  8
LAYER_1
 10
176.3449
 20
86.0909
  0
VERTEX
  8
LAYER_1
 10
176.4126
 20
86.0909
  0
VERTEX
  8
LAYER_1
 10
176.4126
 20
86.0232
  0
VERTEX
  8
LAYER_1
 10
176.4803
 20
86.0232
  0
VERTEX
  8
LAYER_1
 10
176.4803
 20
85.9554
  0
VERTEX
  8
LAYER_1
 10
176.4803
 20
85.8877
  0
VERTEX
  8
LAYER_1
 10
176.4126
 20
85.8877
  0
VERTEX
  8
LAYER_1
 10
176.4126
 20
85.82
  0
VERTEX
  8
LAYER_1
 10
176.3449
 20
85.82
  0
VERTEX
  8
LAYER_1
 10
176.3449
 20
85.7523
  0
VERTEX
  8
LAYER_1
 10
176.2772
 20
85.7523
  0
VERTEX
  8
LAYER_1
 10
176.2095
 20
85.7523
  0
VERTEX
  8
LAYER_1
 10
176.1418
 20
85.7523
  0
VERTEX
  8
LAYER_1
 10
176.1418
 20
85.82
  0
VERTEX
  8
LAYER_1
 10
176.0741
 20
85.82
  0
VERTEX
  8
LAYER_1
 10
176.0741
 20
85.8877
  0
VERTEX
  8
LAYER_1
 10
176.0741
 20
85.9554
  0
VERTEX
  8
LAYER_1
 10
176.0741
 20
86.0232
  0
VERTEX
  8
LAYER_1
 10
176.0741
 20
86.0909
  0
VERTEX
  8
LAYER_1
 10
176.1418
 20
86.0909
  0
VERTEX
  8
LAYER_1
 10
176.1418
 20
86.1586
  0
VERTEX
  8
LAYER_1
 10
176.2095
 20
86.1586
  0
SEQEND
  0
ENDBLK
  0
BLOCK
  8
LAYER_1
  2
AIGNBL01010068
 70
64
 10
0
 20
0
 30
0
  3
AIGNBL01010068
  0
TEXT
  8
LAYER_1
 10
174.737
 20
96.4893
 11
174.737
 21
96.4893
 40
3.6537
 41
0.5
 50
89.99999999
  1
132
  0
ENDBLK
  0
ENDSEC
  0
SECTION
  2
ENTITIES
  0
TEXT
  8
LAYER_1
 10
-26.2556
 20
43.1712
 11
-26.2556
 21
43.1712
 40
3.2991
 41
0.5
  1
仕様
  0
POLYLINE
  8
LAYER_1
 40
0.3528
 41
0.3528
 66
1
 10
0
 20
0
 30
0
  0
VERTEX
  8
LAYER_1
 10
250.6748
 20
51.9507
  0
VERTEX
  8
LAYER_1
 10
-29.3346
 20
51.9507
  0
SEQEND
  0
INSERT
  8
LAYER_1
  2
AIGNBL01010002
 10
0
 20
0
 30
0
  0
POLYLINE
  8
LAYER_1
 40
0.3528
 41
0.3528
 66
1
 10
0
 20
0
 30
0
  0
VERTEX
  8
LAYER_1
 10
-29.3178
 20
229.3369
  0
VERTEX
  8
LAYER_1
 10
-29.3178
 20
34.3283
  0
VERTEX
  8
LAYER_1
 10
250.6748
 20
34.3283
  0
VERTEX
  8
LAYER_1
 10
250.6748
 20
229.3369
  0
VERTEX
  8
LAYER_1
 10
-29.3178
 20
229.3369
  0
SEQEND
  0
POLYLINE
  8
LAYER_1
 40
0.3528
 41
0.3528
 66
1
 10
0
 20
0
 30
0
  0
VERTEX
  8
LAYER_1
 10
250.6748
 20
60.4597
  0
VERTEX
  8
LAYER_1
 10
-29.3346
 20
60.4597
  0
SEQEND
  0
POLYLINE
  8
LAYER_1
 40
0.3528
 41
0.3528
 66
1
 10
0
 20
0
 30
0
  0
VERTEX
  8
LAYER_1
 10
250.6748
 20
43.4416
  0
VERTEX
  8
LAYER_1
 10
100.3837
 20
43.4416
  0
SEQEND
  0
TEXT
  8
LAYER_1
 10
188.1725
 20
45.7175
 11
188.1725
 21
45.7175
 40
3.7609
 41
0.5
  1
-
  0
TEXT
  8
LAYER_1
 10
182.8808
 20
49.4743
 11
182.8808
 21
49.4743
 40
2.1994
 41
0.5
  1
縮尺
  0
POLYLINE
  8
LAYER_1
 40
0.3528
 41
0.3528
 66
1
 10
0
 20
0
 30
0
  0
VERTEX
  8
LAYER_1
 10
181.3526
 20
43.4416
  0
VERTEX
  8
LAYER_1
 10
181.3526
 20
51.9507
  0
SEQEND
  0
TEXT
  8
LAYER_1
 10
101.641
 20
57.9834
 11
101.641
 21
57.9834
 40
2.1994
 41
0.5
  1
品番
  0
TEXT
  8
LAYER_1
 10
-28.1609
 20
57.9834
 11
-28.1609
 21
57.9834
 40
2.1994
 41
0.5
  1
品名
  0
TEXT
  8
LAYER_1
 10
101.641
 20
49.4743
 11
101.641
 21
49.4743
 40
2.1994
 41
0.5
  1
重量
  0
TEXT
  8
LAYER_1
 10
105.0013
 20
54.1714
 11
105.0013
 21
54.1714
 40
4.6883
 41
0.5
  1
SC-WBACH-30-
  0
TEXT
  8
LAYER_1
 10
107.1887
 20
45.7175
 11
107.1887
 21
45.7175
 40
3.7609
 41
0.5
  1
3.3kg
  0
POLYLINE
  8
LAYER_1
 40
0.3528
 41
0.3528
 66
1
 10
0
 20
0
 30
0
  0
VERTEX
  8
LAYER_1
 10
100.3837
 20
34.9539
  0
VERTEX
  8
LAYER_1
 10
100.3837
 20
60.4597
  0
SEQEND
  0
TEXT
  8
LAYER_1
 10
-15.2256
 20
54.786
 11
-15.2256
 21
54.786
 40
4.1459
 41
0.5
  1
Achilleion300 アヒリオン300ガラス手洗器
  0
TEXT
  8
LAYER_1
 10
-15.6835
 20
43.9625
 11
-15.6835
 21
43.9625
 40
3.5536
 41
0.5
  1
●サイズ  W305×D305×H132mm●水栓取付穴：なし
  0
TEXT
  8
LAYER_1
 10
-15.6835
 20
39.2124
 11
-15.6835
 21
39.2124
 40
3.1172
 41
0.5
  1
●オーバーフローなし●排水金具別途●設置方法：カウンター置き
  0
TEXT
  8
LAYER_1
 10
-21.3096
 20
205.1359
 11
-21.3096
 21
205.1359
 40
2.5977
 41
0.5
  1
※本製品は吹きガラスによる一品生産品ですので、
  0
TEXT
  8
LAYER_1
 10
-21.327
 20
200.3859
 11
-21.327
 21
200.3859
 40
2.9614
 41
0.5
  1
サイズ、彫刻(エングレビング)は同じ品番であっても
  0
TEXT
  8
LAYER_1
 10
-21.3096
 20
195.6359
 11
-21.3096
 21
195.6359
 40
2.5977
 41
0.5
  1
多少の違いが生じます。また、製品の特性上、小さな気泡が
  0
TEXT
  8
LAYER_1
 10
-21.3096
 20
190.8859
 11
-21.3096
 21
190.8859
 40
2.9614
 41
0.5
  1
入る場合もございます。予めご了承ください。 
  0
TEXT
  8
LAYER_1
 10
-21.3096
 20
186.1358
 11
-21.3096
 21
186.1358
 40
2.9614
 41
0.5
  1
※混合栓のご使用は可能ですが、45℃までの温度設定で
  0
TEXT
  8
LAYER_1
 10
-21.4497
 20
181.3859
 11
-21.4497
 21
181.3859
 40
2.5977
 41
0.5
  1
ご使用ください。熱湯の吐水はしないでください。
  0
TEXT
  8
LAYER_1
 10
134.702
 20
39.5359
 11
134.702
 21
39.5359
 40
3.3848
 41
0.5
  1
●TEL 0120-65-1232●FAX 06-6532-1580
  0
TEXT
  8
LAYER_1
 10
134.702
 20
36.0212
 11
134.702
 21
36.0212
 40
3.3848
 41
0.5
  1
hits@hiratatile.co.jp
  0
TEXT
  8
LAYER_1
 10
240.3591
 20
225.8432
 11
240.3591
 21
225.8432
 40
2.073
 41
0.5
  1
230907RT
  0
INSERT
  8
LAYER_1
  2
AIGNBL01010003
 10
0
 20
0
 30
0
  0
TEXT
  8
LAYER_1
 10
129.9098
 20
78.4552
 11
129.9098
 21
78.4552
 40
3.6537
 41
0.5
  1
%%c41
  0
TEXT
  8
LAYER_1
 10
128.2855
 20
69.5578
 11
128.2855
 21
69.5578
 40
3.6537
 41
0.5
  1
%%c125
  0
INSERT
  8
LAYER_1
  2
AIGNBL01010025
 10
0
 20
0
 30
0
  0
INSERT
  8
LAYER_1
  2
AIGNBL01010026
 10
0
 20
0
 30
0
  0
INSERT
  8
LAYER_1
  2
AIGNBL01010027
 10
0
 20
0
 30
0
  0
INSERT
  8
LAYER_1
  2
AIGNBL01010028
 10
0
 20
0
 30
0
  0
INSERT
  8
LAYER_1
  2
AIGNBL01010029
 10
0
 20
0
 30
0
  0
INSERT
  8
LAYER_1
  2
AIGNBL0101002A
 10
0
 20
0
 30
0
  0
INSERT
  8
LAYER_1
  2
AIGNBL0101002B
 10
0
 20
0
 30
0
  0
INSERT
  8
LAYER_1
  2
AIGNBL0101002C
 10
0
 20
0
 30
0
  0
INSERT
  8
LAYER_1
  2
AIGNBL0101002D
 10
0
 20
0
 30
0
  0
INSERT
  8
LAYER_1
  2
AIGNBL0101002E
 10
0
 20
0
 30
0
  0
INSERT
  8
LAYER_1
  2
AIGNBL0101002F
 10
0
 20
0
 30
0
  0
INSERT
  8
LAYER_1
  2
AIGNBL01010030
 10
0
 20
0
 30
0
  0
INSERT
  8
LAYER_1
  2
AIGNBL01010031
 10
0
 20
0
 30
0
  0
INSERT
  8
LAYER_1
  2
AIGNBL01010032
 10
0
 20
0
 30
0
  0
INSERT
  8
LAYER_1
  2
AIGNBL01010033
 10
0
 20
0
 30
0
  0
INSERT
  8
LAYER_1
  2
AIGNBL01010034
 10
0
 20
0
 30
0
  0
INSERT
  8
LAYER_1
  2
AIGNBL01010035
 10
0
 20
0
 30
0
  0
INSERT
  8
LAYER_1
  2
AIGNBL01010036
 10
0
 20
0
 30
0
  0
INSERT
  8
LAYER_1
  2
AIGNBL01010037
 10
0
 20
0
 30
0
  0
INSERT
  8
LAYER_1
  2
AIGNBL01010038
 10
0
 20
0
 30
0
  0
INSERT
  8
LAYER_1
  2
AIGNBL01010039
 10
0
 20
0
 30
0
  0
INSERT
  8
LAYER_1
  2
AIGNBL0101003A
 10
0
 20
0
 30
0
  0
INSERT
  8
LAYER_1
  2
AIGNBL0101003B
 10
0
 20
0
 30
0
  0
INSERT
  8
LAYER_1
  2
AIGNBL0101003C
 10
0
 20
0
 30
0
  0
INSERT
  8
LAYER_1
  2
AIGNBL0101003D
 10
0
 20
0
 30
0
  0
INSERT
  8
LAYER_1
  2
AIGNBL0101003E
 10
0
 20
0
 30
0
  0
INSERT
  8
LAYER_1
  2
AIGNBL0101003F
 10
0
 20
0
 30
0
  0
INSERT
  8
LAYER_1
  2
AIGNBL01010040
 10
0
 20
0
 30
0
  0
INSERT
  8
LAYER_1
  2
AIGNBL01010041
 10
0
 20
0
 30
0
  0
INSERT
  8
LAYER_1
  2
AIGNBL01010042
 10
0
 20
0
 30
0
  0
INSERT
  8
LAYER_1
  2
AIGNBL01010043
 10
0
 20
0
 30
0
  0
INSERT
  8
LAYER_1
  2
AIGNBL01010044
 10
0
 20
0
 30
0
  0
INSERT
  8
LAYER_1
  2
AIGNBL01010045
 10
0
 20
0
 30
0
  0
INSERT
  8
LAYER_1
  2
AIGNBL01010046
 10
0
 20
0
 30
0
  0
INSERT
  8
LAYER_1
  2
AIGNBL01010047
 10
0
 20
0
 30
0
  0
INSERT
  8
LAYER_1
  2
AIGNBL01010048
 10
0
 20
0
 30
0
  0
INSERT
  8
LAYER_1
  2
AIGNBL01010049
 10
0
 20
0
 30
0
  0
INSERT
  8
LAYER_1
  2
AIGNBL0101004A
 10
0
 20
0
 30
0
  0
INSERT
  8
LAYER_1
  2
AIGNBL0101004B
 10
0
 20
0
 30
0
  0
INSERT
  8
LAYER_1
  2
AIGNBL0101004C
 10
0
 20
0
 30
0
  0
INSERT
  8
LAYER_1
  2
AIGNBL0101004D
 10
0
 20
0
 30
0
  0
INSERT
  8
LAYER_1
  2
AIGNBL0101004E
 10
0
 20
0
 30
0
  0
INSERT
  8
LAYER_1
  2
AIGNBL0101004F
 10
0
 20
0
 30
0
  0
INSERT
  8
LAYER_1
  2
AIGNBL01010050
 10
0
 20
0
 30
0
  0
INSERT
  8
LAYER_1
  2
AIGNBL01010051
 10
0
 20
0
 30
0
  0
INSERT
  8
LAYER_1
  2
AIGNBL01010052
 10
0
 20
0
 30
0
  0
INSERT
  8
LAYER_1
  2
AIGNBL01010053
 10
0
 20
0
 30
0
  0
INSERT
  8
LAYER_1
  2
AIGNBL01010054
 10
0
 20
0
 30
0
  0
INSERT
  8
LAYER_1
  2
AIGNBL01010055
 10
0
 20
0
 30
0
  0
INSERT
  8
LAYER_1
  2
AIGNBL01010056
 10
0
 20
0
 30
0
  0
INSERT
  8
LAYER_1
  2
AIGNBL01010057
 10
0
 20
0
 30
0
  0
INSERT
  8
LAYER_1
  2
AIGNBL01010058
 10
0
 20
0
 30
0
  0
INSERT
  8
LAYER_1
  2
AIGNBL01010059
 10
0
 20
0
 30
0
  0
INSERT
  8
LAYER_1
  2
AIGNBL0101005A
 10
0
 20
0
 30
0
  0
INSERT
  8
LAYER_1
  2
AIGNBL0101005B
 10
0
 20
0
 30
0
  0
INSERT
  8
LAYER_1
  2
AIGNBL0101005C
 10
0
 20
0
 30
0
  0
INSERT
  8
LAYER_1
  2
AIGNBL0101005D
 10
0
 20
0
 30
0
  0
INSERT
  8
LAYER_1
  2
AIGNBL0101005E
 10
0
 20
0
 30
0
  0
INSERT
  8
LAYER_1
  2
AIGNBL0101005F
 10
0
 20
0
 30
0
  0
INSERT
  8
LAYER_1
  2
AIGNBL01010060
 10
0
 20
0
 30
0
  0
INSERT
  8
LAYER_1
  2
AIGNBL01010061
 10
0
 20
0
 30
0
  0
INSERT
  8
LAYER_1
  2
AIGNBL01010062
 10
0
 20
0
 30
0
  0
INSERT
  8
LAYER_1
  2
AIGNBL01010063
 10
0
 20
0
 30
0
  0
INSERT
  8
LAYER_1
  2
AIGNBL01010064
 10
0
 20
0
 30
0
  0
INSERT
  8
LAYER_1
  2
AIGNBL01010065
 10
0
 20
0
 30
0
  0
INSERT
  8
LAYER_1
  2
AIGNBL01010066
 10
0
 20
0
 30
0
  0
INSERT
  8
LAYER_1
  2
AIGNBL01010067
 10
0
 20
0
 30
0
  0
INSERT
  8
LAYER_1
  2
AIGNBL01010068
 10
0
 20
0
 30
0
  0
CIRCLE
  8
LAYER_1
  6
AIGENLINE001
 62
1
 10
134.0644
 20
175.9724
 40
5.3
  0
TEXT
  8
LAYER_1
 10
122.8596
 20
165.3122
 11
122.8596
 21
165.3122
 40
3.1022
 41
0.5
  1
カウンター開口
  0
TEXT
  8
LAYER_1
 10
122.8596
 20
161.5852
 11
122.8596
 21
161.5852
 40
3.6606
 41
0.5
  1
53-55mm
  0
ENDSEC
  0
EOF
