  0
SECTION
  2
HEADER
  9
$ACADVER
  1
AC1009
  9
$LUNITS
 70
2
  9
$LUPREC
 70
4
  9
$LTSCALE
 40
1.0
  9
$EXTMIN
 10
-33.2277
 20
49.7179
 30
0
  9
$EXTMAX
 10
245.4165
 20
241.3791
 30
0
  0
ENDSEC
  0
SECTION
  2
TABLES
  0
TABLE
  2
LTYPE
 70
256
  0
ENDTAB
  0
TABLE
  2
LAYER
 70
1
  0
LAYER
  2
LAYER_1
 70
64
 62
7
  6
CONTINUOUS
  0
ENDTAB
  0
TABLE
  2
STYLE
 70
6
  0
STYLE
  2
STANDARD
 70
0
 40
0
 50
0
 71
0
 41
0
 42
0
  3
TXT
  4
BIGFONT
  0
ENDTAB
  0
ENDSEC
  0
SECTION
  2
BLOCKS
  0
BLOCK
  8
LAYER_1
  2
AIGNBL01040009
 70
64
 10
0
 20
0
 30
0
  3
AIGNBL01040009
  0
POLYLINE
  8
LAYER_1
 40
0.05
 41
0.05
 66
1
 10
0
 20
0
 30
0
 70
1
  0
VERTEX
  8
LAYER_1
 10
157.5551
 20
53.6067
  0
VERTEX
  8
LAYER_1
 10
157.0662
 20
52.4216
  0
VERTEX
  8
LAYER_1
 10
156.4382
 20
52.4216
  0
VERTEX
  8
LAYER_1
 10
158.0377
 20
56.1874
  0
VERTEX
  8
LAYER_1
 10
158.7709
 20
56.1874
  0
VERTEX
  8
LAYER_1
 10
160.3773
 20
52.4216
  0
VERTEX
  8
LAYER_1
 10
159.7272
 20
52.4216
  0
VERTEX
  8
LAYER_1
 10
159.2246
 20
53.6067
  0
SEQEND
  0
POLYLINE
  8
LAYER_1
 40
0.05
 41
0.05
 66
1
 10
0
 20
0
 30
0
 70
1
  0
VERTEX
  8
LAYER_1
 10
159.0988
 20
53.9856
  0
VERTEX
  8
LAYER_1
 10
158.6379
 20
55.0705
  0
VERTEX
  8
LAYER_1
 10
158.3933
 20
55.7575
  0
VERTEX
  8
LAYER_1
 10
158.3795
 20
55.7575
  0
VERTEX
  8
LAYER_1
 10
158.1418
 20
55.075
  0
VERTEX
  8
LAYER_1
 10
157.6812
 20
53.9856
  0
SEQEND
  0
ENDBLK
  0
BLOCK
  8
LAYER_1
  2
AIGNBL0104000A
 70
64
 10
0
 20
0
 30
0
  3
AIGNBL0104000A
  0
POLYLINE
  8
LAYER_1
 40
0.05
 41
0.05
 66
1
 10
0
 20
0
 30
0
 70
1
  0
VERTEX
  8
LAYER_1
 10
164.7426
 20
51.8683
 42
-0.01559967508
  0
VERTEX
  8
LAYER_1
 10
162.9405
 20
52.3044
  0
VERTEX
  8
LAYER_1
 10
162.6538
 20
52.3599
 42
-0.08356944747
  0
VERTEX
  8
LAYER_1
 10
161.7898
 20
52.5261
 42
-0.0975043791
  0
VERTEX
  8
LAYER_1
 10
161.1286
 20
52.932
 42
-0.2129077902
  0
VERTEX
  8
LAYER_1
 10
160.5799
 20
54.2647
 42
-0.09684612991
  0
VERTEX
  8
LAYER_1
 10
160.7245
 20
55.0381
 42
-0.2046351071
  0
VERTEX
  8
LAYER_1
 10
161.772
 20
56.0624
 42
-0.09825619238
  0
VERTEX
  8
LAYER_1
 10
162.773
 20
56.2488
 42
-0.08554836282
  0
VERTEX
  8
LAYER_1
 10
163.6416
 20
56.1075
 42
-0.1004347897
  0
VERTEX
  8
LAYER_1
 10
164.3067
 20
55.7132
 42
-0.2140895568
  0
VERTEX
  8
LAYER_1
 10
164.8821
 20
54.3433
 42
-0.09539620281
  0
VERTEX
  8
LAYER_1
 10
164.7432
 20
53.5755
 42
-0.2143310008
  0
VERTEX
  8
LAYER_1
 10
163.7204
 20
52.597
 42
-0.02339132607
  0
VERTEX
  8
LAYER_1
 10
163.5413
 20
52.5387
  0
VERTEX
  8
LAYER_1
 10
163.5413
 20
52.5163
 42
0.01711831943
  0
VERTEX
  8
LAYER_1
 10
164.9176
 20
52.2762
  0
SEQEND
  0
POLYLINE
  8
LAYER_1
 40
0.05
 41
0.05
 66
1
 10
0
 20
0
 30
0
 70
1
  0
VERTEX
  8
LAYER_1
 10
164.2399
 20
54.3219
 42
0.1071511414
  0
VERTEX
  8
LAYER_1
 10
164.0886
 20
55.0267
 42
0.2976450246
  0
VERTEX
  8
LAYER_1
 10
162.7517
 20
55.8522
 42
0.1072291499
  0
VERTEX
  8
LAYER_1
 10
162.0618
 20
55.7127
 42
0.2386106109
  0
VERTEX
  8
LAYER_1
 10
161.2749
 20
54.7071
 42
0.05752849981
  0
VERTEX
  8
LAYER_1
 10
161.2293
 20
54.2771
 42
0.218096749
  0
VERTEX
  8
LAYER_1
 10
161.7599
 20
53.0817
 42
0.1772796408
  0
VERTEX
  8
LAYER_1
 10
162.7237
 20
52.7561
 42
0.1075185771
  0
VERTEX
  8
LAYER_1
 10
163.4051
 20
52.8951
 42
0.2370926009
  0
VERTEX
  8
LAYER_1
 10
164.1922
 20
53.8947
 42
0.05601310134
  0
SEQEND
  0
ENDBLK
  0
BLOCK
  8
LAYER_1
  2
AIGNBL0104000B
 70
64
 10
0
 20
0
 30
0
  3
AIGNBL0104000B
  0
POLYLINE
  8
LAYER_1
 40
0.05
 41
0.05
 66
1
 10
0
 20
0
 30
0
 70
1
  0
VERTEX
  8
LAYER_1
 10
166.2095
 20
56.1874
  0
VERTEX
  8
LAYER_1
 10
166.2095
 20
53.9581
 42
0.114533087
  0
VERTEX
  8
LAYER_1
 10
166.3434
 20
53.2923
 42
0.1464774934
  0
VERTEX
  8
LAYER_1
 10
166.6938
 20
52.9071
 42
0.1362552487
  0
VERTEX
  8
LAYER_1
 10
167.3061
 20
52.7561
 42
0.1219300979
  0
VERTEX
  8
LAYER_1
 10
167.9292
 20
52.8908
 42
0.1503016186
  0
VERTEX
  8
LAYER_1
 10
168.301
 20
53.2598
 42
0.1256239276
  0
VERTEX
  8
LAYER_1
 10
168.4516
 20
53.9581
  0
VERTEX
  8
LAYER_1
 10
168.4516
 20
56.1874
  0
VERTEX
  8
LAYER_1
 10
169.0662
 20
56.1874
  0
VERTEX
  8
LAYER_1
 10
169.0662
 20
53.9915
 42
-0.09997505101
  0
VERTEX
  8
LAYER_1
 10
168.9313
 20
53.2488
 42
-0.1214984503
  0
VERTEX
  8
LAYER_1
 10
168.558
 20
52.7421
 42
-0.1106235892
  0
VERTEX
  8
LAYER_1
 10
167.9326
 20
52.4355
 42
-0.06128954947
  0
VERTEX
  8
LAYER_1
 10
167.2851
 20
52.3599
 42
-0.09418508724
  0
VERTEX
  8
LAYER_1
 10
166.4659
 20
52.498
 42
-0.2431728796
  0
VERTEX
  8
LAYER_1
 10
165.6624
 20
53.4087
 42
-0.06320085329
  0
VERTEX
  8
LAYER_1
 10
165.5949
 20
53.9695
  0
VERTEX
  8
LAYER_1
 10
165.5949
 20
56.1874
  0
SEQEND
  0
ENDBLK
  0
BLOCK
  8
LAYER_1
  2
AIGNBL0104000C
 70
64
 10
0
 20
0
 30
0
  3
AIGNBL0104000C
  0
POLYLINE
  8
LAYER_1
 40
0.05
 41
0.05
 66
1
 10
0
 20
0
 30
0
 70
1
  0
VERTEX
  8
LAYER_1
 10
170.8125
 20
53.6067
  0
VERTEX
  8
LAYER_1
 10
170.3233
 20
52.4216
  0
VERTEX
  8
LAYER_1
 10
169.6953
 20
52.4216
  0
VERTEX
  8
LAYER_1
 10
171.2945
 20
56.1874
  0
VERTEX
  8
LAYER_1
 10
172.0276
 20
56.1874
  0
VERTEX
  8
LAYER_1
 10
173.634
 20
52.4216
  0
VERTEX
  8
LAYER_1
 10
172.9846
 20
52.4216
  0
VERTEX
  8
LAYER_1
 10
172.482
 20
53.6067
  0
SEQEND
  0
POLYLINE
  8
LAYER_1
 40
0.05
 41
0.05
 66
1
 10
0
 20
0
 30
0
 70
1
  0
VERTEX
  8
LAYER_1
 10
172.3559
 20
53.9856
  0
VERTEX
  8
LAYER_1
 10
171.8946
 20
55.0705
  0
VERTEX
  8
LAYER_1
 10
171.65
 20
55.7575
  0
VERTEX
  8
LAYER_1
 10
171.6362
 20
55.7575
  0
VERTEX
  8
LAYER_1
 10
171.3989
 20
55.075
  0
VERTEX
  8
LAYER_1
 10
170.9379
 20
53.9856
  0
SEQEND
  0
ENDBLK
  0
BLOCK
  8
LAYER_1
  2
AIGNBL0104000D
 70
64
 10
0
 20
0
 30
0
  3
AIGNBL0104000D
  0
POLYLINE
  8
LAYER_1
 40
0.05
 41
0.05
 66
1
 10
0
 20
0
 30
0
 70
1
  0
VERTEX
  8
LAYER_1
 10
174.6748
 20
56.1426
 42
-0.03245981043
  0
VERTEX
  8
LAYER_1
 10
175.8416
 20
56.2157
 42
-0.08081710393
  0
VERTEX
  8
LAYER_1
 10
176.7981
 20
56.0839
 42
-0.07812211839
  0
VERTEX
  8
LAYER_1
 10
177.1615
 20
55.9029
 42
-0.2483368586
  0
VERTEX
  8
LAYER_1
 10
177.5731
 20
55.1146
 42
-0.226147
  0
VERTEX
  8
LAYER_1
 10
177.21
 20
54.3105
 42
-0.1097236176
  0
VERTEX
  8
LAYER_1
 10
176.5818
 20
53.9972
 42
-0.06566039781
  0
VERTEX
  8
LAYER_1
 10
175.7714
 20
53.8968
 42
-0.06232747682
  0
VERTEX
  8
LAYER_1
 10
175.2828
 20
53.9302
  0
VERTEX
  8
LAYER_1
 10
175.2828
 20
52.4216
  0
VERTEX
  8
LAYER_1
 10
174.6748
 20
52.4216
  0
SEQEND
  0
POLYLINE
  8
LAYER_1
 40
0.05
 41
0.05
 66
1
 10
0
 20
0
 30
0
 70
1
  0
VERTEX
  8
LAYER_1
 10
175.2828
 20
54.3271
 42
0.04202445636
  0
VERTEX
  8
LAYER_1
 10
175.7852
 20
54.2878
 42
0.1032333559
  0
VERTEX
  8
LAYER_1
 10
176.5043
 20
54.4151
 42
0.1555698608
  0
VERTEX
  8
LAYER_1
 10
176.8691
 20
54.7196
 42
0.1352698132
  0
VERTEX
  8
LAYER_1
 10
176.9661
 20
55.0922
 42
0.1736824711
  0
VERTEX
  8
LAYER_1
 10
176.8313
 20
55.4995
 42
0.151721714
  0
VERTEX
  8
LAYER_1
 10
176.4102
 20
55.759
 42
0.06880216409
  0
VERTEX
  8
LAYER_1
 10
175.8558
 20
55.8298
 42
0.06336772289
  0
VERTEX
  8
LAYER_1
 10
175.2828
 20
55.7906
  0
SEQEND
  0
ENDBLK
  0
BLOCK
  8
LAYER_1
  2
AIGNBL0104000E
 70
64
 10
0
 20
0
 30
0
  3
AIGNBL0104000E
  0
POLYLINE
  8
LAYER_1
 40
0.05
 41
0.05
 66
1
 10
0
 20
0
 30
0
 70
1
  0
VERTEX
  8
LAYER_1
 10
179.1252
 20
55.8856
 42
-0.276560599
  0
VERTEX
  8
LAYER_1
 10
178.9856
 20
55.6455
 42
-0.1265502936
  0
VERTEX
  8
LAYER_1
 10
178.7335
 20
55.5838
 42
-0.22367962
  0
VERTEX
  8
LAYER_1
 10
178.4232
 20
55.7162
 42
-0.1709078449
  0
VERTEX
  8
LAYER_1
 10
178.3631
 20
55.8856
 42
-0.2643879937
  0
VERTEX
  8
LAYER_1
 10
178.5125
 20
56.1327
 42
-0.1290073663
  0
VERTEX
  8
LAYER_1
 10
178.7472
 20
56.1926
 42
-0.2253241111
  0
VERTEX
  8
LAYER_1
 10
179.0641
 20
56.0619
 42
-0.1691304651
  0
SEQEND
  0
POLYLINE
  8
LAYER_1
 40
0.05
 41
0.05
 66
1
 10
0
 20
0
 30
0
 70
1
  0
VERTEX
  8
LAYER_1
 10
178.4396
 20
52.4216
  0
VERTEX
  8
LAYER_1
 10
178.4396
 20
55.1256
  0
VERTEX
  8
LAYER_1
 10
179.0542
 20
55.1256
  0
VERTEX
  8
LAYER_1
 10
179.0542
 20
52.4216
  0
SEQEND
  0
ENDBLK
  0
BLOCK
  8
LAYER_1
  2
AIGNBL0104000F
 70
64
 10
0
 20
0
 30
0
  3
AIGNBL0104000F
  0
POLYLINE
  8
LAYER_1
 40
0.05
 41
0.05
 66
1
 10
0
 20
0
 30
0
 70
1
  0
VERTEX
  8
LAYER_1
 10
180.9259
 20
53.6067
  0
VERTEX
  8
LAYER_1
 10
180.4377
 20
52.4216
  0
VERTEX
  8
LAYER_1
 10
179.8087
 20
52.4216
  0
VERTEX
  8
LAYER_1
 10
181.4082
 20
56.1874
  0
VERTEX
  8
LAYER_1
 10
182.142
 20
56.1874
  0
VERTEX
  8
LAYER_1
 10
183.7485
 20
52.4216
  0
VERTEX
  8
LAYER_1
 10
183.0987
 20
52.4216
  0
VERTEX
  8
LAYER_1
 10
182.5961
 20
53.6067
  0
SEQEND
  0
POLYLINE
  8
LAYER_1
 40
0.05
 41
0.05
 66
1
 10
0
 20
0
 30
0
 70
1
  0
VERTEX
  8
LAYER_1
 10
182.47
 20
53.9856
  0
VERTEX
  8
LAYER_1
 10
182.009
 20
55.0705
  0
VERTEX
  8
LAYER_1
 10
181.7651
 20
55.7575
  0
VERTEX
  8
LAYER_1
 10
181.7503
 20
55.7575
  0
VERTEX
  8
LAYER_1
 10
181.5133
 20
55.075
  0
VERTEX
  8
LAYER_1
 10
181.0523
 20
53.9856
  0
SEQEND
  0
ENDBLK
  0
BLOCK
  8
LAYER_1
  2
AIGNBL01030008
 70
64
 10
0
 20
0
 30
0
  3
AIGNBL01030008
  0
INSERT
  8
LAYER_1
  2
AIGNBL01040009
 10
0
 20
0
 30
0
  0
INSERT
  8
LAYER_1
  2
AIGNBL0104000A
 10
0
 20
0
 30
0
  0
INSERT
  8
LAYER_1
  2
AIGNBL0104000B
 10
0
 20
0
 30
0
  0
INSERT
  8
LAYER_1
  2
AIGNBL0104000C
 10
0
 20
0
 30
0
  0
INSERT
  8
LAYER_1
  2
AIGNBL0104000D
 10
0
 20
0
 30
0
  0
INSERT
  8
LAYER_1
  2
AIGNBL0104000E
 10
0
 20
0
 30
0
  0
INSERT
  8
LAYER_1
  2
AIGNBL0104000F
 10
0
 20
0
 30
0
  0
ENDBLK
  0
BLOCK
  8
LAYER_1
  2
AIGNBL01030011
 70
64
 10
0
 20
0
 30
0
  3
AIGNBL01030011
  0
POLYLINE
  8
LAYER_1
 40
0.05
 41
0.05
 66
1
 10
0
 20
0
 30
0
 70
1
  0
VERTEX
  8
LAYER_1
 10
156.5481
 20
50.5223
  0
VERTEX
  8
LAYER_1
 10
157.1013
 20
50.5223
  0
VERTEX
  8
LAYER_1
 10
157.1013
 20
50.4286
  0
VERTEX
  8
LAYER_1
 10
156.443
 20
50.4286
  0
VERTEX
  8
LAYER_1
 10
156.443
 20
51.4618
  0
VERTEX
  8
LAYER_1
 10
157.0838
 20
51.4618
  0
VERTEX
  8
LAYER_1
 10
157.0838
 20
51.3684
  0
VERTEX
  8
LAYER_1
 10
156.5481
 20
51.3684
  0
VERTEX
  8
LAYER_1
 10
156.5481
 20
51.0139
  0
VERTEX
  8
LAYER_1
 10
157.0486
 20
51.0139
  0
VERTEX
  8
LAYER_1
 10
157.0486
 20
50.9206
  0
VERTEX
  8
LAYER_1
 10
156.5481
 20
50.9206
  0
SEQEND
  0
ENDBLK
  0
BLOCK
  8
LAYER_1
  2
AIGNBL01030012
 70
64
 10
0
 20
0
 30
0
  3
AIGNBL01030012
  0
POLYLINE
  8
LAYER_1
 40
0.05
 41
0.05
 66
1
 10
0
 20
0
 30
0
 70
1
  0
VERTEX
  8
LAYER_1
 10
158.241
 20
50.5819
  0
VERTEX
  8
LAYER_1
 10
158.2438
 20
50.5819
  0
VERTEX
  8
LAYER_1
 10
158.2438
 20
51.4618
  0
VERTEX
  8
LAYER_1
 10
158.3488
 20
51.4618
  0
VERTEX
  8
LAYER_1
 10
158.3488
 20
50.4286
  0
VERTEX
  8
LAYER_1
 10
158.2179
 20
50.4286
  0
VERTEX
  8
LAYER_1
 10
157.6168
 20
51.3174
  0
VERTEX
  8
LAYER_1
 10
157.6133
 20
51.3174
  0
VERTEX
  8
LAYER_1
 10
157.6133
 20
50.4286
  0
VERTEX
  8
LAYER_1
 10
157.5086
 20
50.4286
  0
VERTEX
  8
LAYER_1
 10
157.5086
 20
51.4618
  0
VERTEX
  8
LAYER_1
 10
157.6398
 20
51.4618
  0
SEQEND
  0
ENDBLK
  0
BLOCK
  8
LAYER_1
  2
AIGNBL01030013
 70
64
 10
0
 20
0
 30
0
  3
AIGNBL01030013
  0
POLYLINE
  8
LAYER_1
 40
0.05
 41
0.05
 66
1
 10
0
 20
0
 30
0
 70
1
  0
VERTEX
  8
LAYER_1
 10
158.8218
 20
50.6405
  0
VERTEX
  8
LAYER_1
 10
158.8763
 20
50.5375
 42
0.1809219053
  0
VERTEX
  8
LAYER_1
 10
158.9896
 20
50.4958
  0
VERTEX
  8
LAYER_1
 10
159.0788
 20
50.5154
  0
VERTEX
  8
LAYER_1
 10
159.135
 20
50.5688
  0
VERTEX
  8
LAYER_1
 10
159.1639
 20
50.6453
  0
VERTEX
  8
LAYER_1
 10
159.1722
 20
50.7349
  0
VERTEX
  8
LAYER_1
 10
159.1722
 20
51.4618
  0
VERTEX
  8
LAYER_1
 10
159.2773
 20
51.4618
  0
VERTEX
  8
LAYER_1
 10
159.2773
 20
50.7263
  0
VERTEX
  8
LAYER_1
 10
159.2659
 20
50.6184
  0
VERTEX
  8
LAYER_1
 10
159.2246
 20
50.5134
  0
VERTEX
  8
LAYER_1
 10
159.1398
 20
50.4338
  0
VERTEX
  8
LAYER_1
 10
159.001
 20
50.4024
 42
-0.1846674817
  0
VERTEX
  8
LAYER_1
 10
158.8163
 20
50.4624
 42
-0.1764563828
  0
VERTEX
  8
LAYER_1
 10
158.724
 20
50.6139
  0
SEQEND
  0
ENDBLK
  0
BLOCK
  8
LAYER_1
  2
AIGNBL01030014
 70
64
 10
0
 20
0
 30
0
  3
AIGNBL01030014
  0
POLYLINE
  8
LAYER_1
 40
0.05
 41
0.05
 66
1
 10
0
 20
0
 30
0
 70
1
  0
VERTEX
  8
LAYER_1
 10
160.7656
 20
50.9454
 42
-0.103587114
  0
VERTEX
  8
LAYER_1
 10
160.7246
 20
50.728
 42
-0.1000549391
  0
VERTEX
  8
LAYER_1
 10
160.6119
 20
50.5564
  0
VERTEX
  8
LAYER_1
 10
160.441
 20
50.4434
 42
-0.09506675375
  0
VERTEX
  8
LAYER_1
 10
160.2271
 20
50.4024
 42
-0.1010765979
  0
VERTEX
  8
LAYER_1
 10
160.0135
 20
50.4434
 42
-0.1005668876
  0
VERTEX
  8
LAYER_1
 10
159.8426
 20
50.5564
 42
-0.09506076213
  0
VERTEX
  8
LAYER_1
 10
159.7293
 20
50.728
 42
-0.0931359716
  0
VERTEX
  8
LAYER_1
 10
159.6886
 20
50.9454
 42
-0.1020962526
  0
VERTEX
  8
LAYER_1
 10
159.7293
 20
51.1628
 42
-0.1007559602
  0
VERTEX
  8
LAYER_1
 10
159.8426
 20
51.3343
 42
-0.09625543395
  0
VERTEX
  8
LAYER_1
 10
160.0135
 20
51.4473
 42
-0.0952064105
  0
VERTEX
  8
LAYER_1
 10
160.2271
 20
51.4883
 42
-0.101175466
  0
VERTEX
  8
LAYER_1
 10
160.441
 20
51.4473
 42
-0.09853409661
  0
VERTEX
  8
LAYER_1
 10
160.6119
 20
51.3343
 42
-0.09562840933
  0
VERTEX
  8
LAYER_1
 10
160.7246
 20
51.1628
 42
-0.09393796777
  0
SEQEND
  0
POLYLINE
  8
LAYER_1
 40
0.05
 41
0.05
 66
1
 10
0
 20
0
 30
0
 70
1
  0
VERTEX
  8
LAYER_1
 10
160.6546
 20
50.9447
  0
VERTEX
  8
LAYER_1
 10
160.6257
 20
51.1166
  0
VERTEX
  8
LAYER_1
 10
160.5409
 20
51.2599
  0
VERTEX
  8
LAYER_1
 10
160.4059
 20
51.3581
  0
VERTEX
  8
LAYER_1
 10
160.2271
 20
51.395
  0
VERTEX
  8
LAYER_1
 10
160.0483
 20
51.3581
  0
VERTEX
  8
LAYER_1
 10
159.9136
 20
51.2599
  0
VERTEX
  8
LAYER_1
 10
159.8289
 20
51.1166
  0
VERTEX
  8
LAYER_1
 10
159.7996
 20
50.9447
  0
VERTEX
  8
LAYER_1
 10
159.8289
 20
50.7728
  0
VERTEX
  8
LAYER_1
 10
159.9136
 20
50.6298
  0
VERTEX
  8
LAYER_1
 10
160.0483
 20
50.5323
 42
0.1008257054
  0
VERTEX
  8
LAYER_1
 10
160.2271
 20
50.4958
  0
VERTEX
  8
LAYER_1
 10
160.4059
 20
50.5323
  0
VERTEX
  8
LAYER_1
 10
160.5409
 20
50.6298
  0
VERTEX
  8
LAYER_1
 10
160.6257
 20
50.7728
  0
SEQEND
  0
ENDBLK
  0
BLOCK
  8
LAYER_1
  2
AIGNBL01030015
 70
64
 10
0
 20
0
 30
0
  3
AIGNBL01030015
  0
POLYLINE
  8
LAYER_1
 40
0.05
 41
0.05
 66
1
 10
0
 20
0
 30
0
 70
1
  0
VERTEX
  8
LAYER_1
 10
161.5404
 20
50.4286
  0
VERTEX
  8
LAYER_1
 10
161.4356
 20
50.4286
  0
VERTEX
  8
LAYER_1
 10
161.4356
 20
50.874
  0
VERTEX
  8
LAYER_1
 10
161.0488
 20
51.4618
  0
VERTEX
  8
LAYER_1
 10
161.18
 20
51.4618
  0
VERTEX
  8
LAYER_1
 10
161.4911
 20
50.9616
  0
VERTEX
  8
LAYER_1
 10
161.8046
 20
51.4618
  0
VERTEX
  8
LAYER_1
 10
161.9269
 20
51.4618
  0
VERTEX
  8
LAYER_1
 10
161.5404
 20
50.874
  0
SEQEND
  0
ENDBLK
  0
BLOCK
  8
LAYER_1
  2
AIGNBL01030016
 70
64
 10
0
 20
0
 30
0
  3
AIGNBL01030016
  0
POLYLINE
  8
LAYER_1
 40
0.05
 41
0.05
 66
1
 10
0
 20
0
 30
0
 70
1
  0
VERTEX
  8
LAYER_1
 10
162.8319
 20
51.4618
  0
VERTEX
  8
LAYER_1
 10
163.1396
 20
51.4618
  0
VERTEX
  8
LAYER_1
 10
163.2581
 20
51.4494
  0
VERTEX
  8
LAYER_1
 10
163.3649
 20
51.407
  0
VERTEX
  8
LAYER_1
 10
163.4427
 20
51.3261
  0
VERTEX
  8
LAYER_1
 10
163.4724
 20
51.1979
 42
-0.1787887146
  0
VERTEX
  8
LAYER_1
 10
163.4224
 20
51.0556
 42
-0.1642670326
  0
VERTEX
  8
LAYER_1
 10
163.2891
 20
50.976
  0
VERTEX
  8
LAYER_1
 10
163.2891
 20
50.9733
 42
-0.1734673322
  0
VERTEX
  8
LAYER_1
 10
163.4558
 20
50.8951
 42
-0.1923137572
  0
VERTEX
  8
LAYER_1
 10
163.522
 20
50.7146
  0
VERTEX
  8
LAYER_1
 10
163.4948
 20
50.5974
  0
VERTEX
  8
LAYER_1
 10
163.4186
 20
50.5068
  0
VERTEX
  8
LAYER_1
 10
163.2977
 20
50.4493
  0
VERTEX
  8
LAYER_1
 10
163.1379
 20
50.4286
  0
VERTEX
  8
LAYER_1
 10
162.8319
 20
50.4286
  0
SEQEND
  0
POLYLINE
  8
LAYER_1
 40
0.05
 41
0.05
 66
1
 10
0
 20
0
 30
0
 70
1
  0
VERTEX
  8
LAYER_1
 10
162.937
 20
51.0094
  0
VERTEX
  8
LAYER_1
 10
163.1485
 20
51.0094
  0
VERTEX
  8
LAYER_1
 10
163.2254
 20
51.0184
  0
VERTEX
  8
LAYER_1
 10
163.2956
 20
51.048
  0
VERTEX
  8
LAYER_1
 10
163.3477
 20
51.1045
  0
VERTEX
  8
LAYER_1
 10
163.3673
 20
51.1907
  0
VERTEX
  8
LAYER_1
 10
163.3477
 20
51.2744
  0
VERTEX
  8
LAYER_1
 10
163.2946
 20
51.3305
  0
VERTEX
  8
LAYER_1
 10
163.2157
 20
51.3619
  0
VERTEX
  8
LAYER_1
 10
163.1192
 20
51.3715
  0
VERTEX
  8
LAYER_1
 10
162.937
 20
51.3715
  0
SEQEND
  0
POLYLINE
  8
LAYER_1
 40
0.05
 41
0.05
 66
1
 10
0
 20
0
 30
0
 70
1
  0
VERTEX
  8
LAYER_1
 10
162.937
 20
50.5192
  0
VERTEX
  8
LAYER_1
 10
163.1327
 20
50.5192
  0
VERTEX
  8
LAYER_1
 10
163.2412
 20
50.5302
  0
VERTEX
  8
LAYER_1
 10
163.3318
 20
50.565
  0
VERTEX
  8
LAYER_1
 10
163.3935
 20
50.6281
  0
VERTEX
  8
LAYER_1
 10
163.4169
 20
50.7208
 42
0.2554060681
  0
VERTEX
  8
LAYER_1
 10
163.3477
 20
50.873
 42
0.1380642909
  0
VERTEX
  8
LAYER_1
 10
163.1516
 20
50.9233
  0
VERTEX
  8
LAYER_1
 10
162.937
 20
50.9233
  0
SEQEND
  0
ENDBLK
  0
BLOCK
  8
LAYER_1
  2
AIGNBL01030017
 70
64
 10
0
 20
0
 30
0
  3
AIGNBL01030017
  0
POLYLINE
  8
LAYER_1
 40
0.05
 41
0.05
 66
1
 10
0
 20
0
 30
0
 70
1
  0
VERTEX
  8
LAYER_1
 10
163.954
 20
50.4286
  0
VERTEX
  8
LAYER_1
 10
163.8386
 20
50.4286
  0
VERTEX
  8
LAYER_1
 10
164.2854
 20
51.4618
  0
VERTEX
  8
LAYER_1
 10
164.3877
 20
51.4618
  0
VERTEX
  8
LAYER_1
 10
164.8311
 20
50.4286
  0
VERTEX
  8
LAYER_1
 10
164.7143
 20
50.4286
  0
VERTEX
  8
LAYER_1
 10
164.6003
 20
50.7001
  0
VERTEX
  8
LAYER_1
 10
164.0663
 20
50.7001
  0
SEQEND
  0
POLYLINE
  8
LAYER_1
 40
0.05
 41
0.05
 66
1
 10
0
 20
0
 30
0
 70
1
  0
VERTEX
  8
LAYER_1
 10
164.1056
 20
50.7965
  0
VERTEX
  8
LAYER_1
 10
164.561
 20
50.7965
  0
VERTEX
  8
LAYER_1
 10
164.3333
 20
51.3454
  0
SEQEND
  0
ENDBLK
  0
BLOCK
  8
LAYER_1
  2
AIGNBL01030018
 70
64
 10
0
 20
0
 30
0
  3
AIGNBL01030018
  0
POLYLINE
  8
LAYER_1
 40
0.05
 41
0.05
 66
1
 10
0
 20
0
 30
0
 70
1
  0
VERTEX
  8
LAYER_1
 10
165.5157
 20
50.4286
  0
VERTEX
  8
LAYER_1
 10
165.4106
 20
50.4286
  0
VERTEX
  8
LAYER_1
 10
165.4106
 20
51.3684
  0
VERTEX
  8
LAYER_1
 10
165.0644
 20
51.3684
  0
VERTEX
  8
LAYER_1
 10
165.0644
 20
51.4618
  0
VERTEX
  8
LAYER_1
 10
165.8612
 20
51.4618
  0
VERTEX
  8
LAYER_1
 10
165.8612
 20
51.3684
  0
VERTEX
  8
LAYER_1
 10
165.5157
 20
51.3684
  0
SEQEND
  0
ENDBLK
  0
BLOCK
  8
LAYER_1
  2
AIGNBL01030019
 70
64
 10
0
 20
0
 30
0
  3
AIGNBL01030019
  0
POLYLINE
  8
LAYER_1
 40
0.05
 41
0.05
 66
1
 10
0
 20
0
 30
0
 70
1
  0
VERTEX
  8
LAYER_1
 10
166.2174
 20
51.4618
  0
VERTEX
  8
LAYER_1
 10
166.3221
 20
51.4618
  0
VERTEX
  8
LAYER_1
 10
166.3221
 20
51.0139
  0
VERTEX
  8
LAYER_1
 10
166.8858
 20
51.0139
  0
VERTEX
  8
LAYER_1
 10
166.8858
 20
51.4618
  0
VERTEX
  8
LAYER_1
 10
166.9908
 20
51.4618
  0
VERTEX
  8
LAYER_1
 10
166.9908
 20
50.4286
  0
VERTEX
  8
LAYER_1
 10
166.8858
 20
50.4286
  0
VERTEX
  8
LAYER_1
 10
166.8858
 20
50.9178
  0
VERTEX
  8
LAYER_1
 10
166.3221
 20
50.9178
  0
VERTEX
  8
LAYER_1
 10
166.3221
 20
50.4286
  0
VERTEX
  8
LAYER_1
 10
166.2174
 20
50.4286
  0
SEQEND
  0
ENDBLK
  0
BLOCK
  8
LAYER_1
  2
AIGNBL0103001A
 70
64
 10
0
 20
0
 30
0
  3
AIGNBL0103001A
  0
POLYLINE
  8
LAYER_1
 40
0.05
 41
0.05
 66
1
 10
0
 20
0
 30
0
 70
1
  0
VERTEX
  8
LAYER_1
 10
167.5713
 20
50.4286
  0
VERTEX
  8
LAYER_1
 10
167.4663
 20
50.4286
  0
VERTEX
  8
LAYER_1
 10
167.4663
 20
51.4618
  0
VERTEX
  8
LAYER_1
 10
167.7701
 20
51.4618
  0
VERTEX
  8
LAYER_1
 10
167.9107
 20
51.4473
  0
VERTEX
  8
LAYER_1
 10
168.0233
 20
51.3998
  0
VERTEX
  8
LAYER_1
 10
168.0967
 20
51.3143
  0
VERTEX
  8
LAYER_1
 10
168.1229
 20
51.1862
  0
VERTEX
  8
LAYER_1
 10
168.1029
 20
51.0825
  0
VERTEX
  8
LAYER_1
 10
168.0475
 20
51.0015
  0
VERTEX
  8
LAYER_1
 10
167.9641
 20
50.9467
  0
VERTEX
  8
LAYER_1
 10
167.859
 20
50.9206
  0
VERTEX
  8
LAYER_1
 10
168.1611
 20
50.4286
  0
VERTEX
  8
LAYER_1
 10
168.0327
 20
50.4286
  0
VERTEX
  8
LAYER_1
 10
167.7467
 20
50.9116
  0
VERTEX
  8
LAYER_1
 10
167.5713
 20
50.9116
  0
SEQEND
  0
POLYLINE
  8
LAYER_1
 40
0.05
 41
0.05
 66
1
 10
0
 20
0
 30
0
 70
1
  0
VERTEX
  8
LAYER_1
 10
167.5713
 20
51.0022
  0
VERTEX
  8
LAYER_1
 10
167.7539
 20
51.0022
 42
0.1657798624
  0
VERTEX
  8
LAYER_1
 10
167.9496
 20
51.048
 42
0.2503949893
  0
VERTEX
  8
LAYER_1
 10
168.0182
 20
51.1862
  0
VERTEX
  8
LAYER_1
 10
167.9989
 20
51.272
  0
VERTEX
  8
LAYER_1
 10
167.9465
 20
51.3292
  0
VERTEX
  8
LAYER_1
 10
167.8649
 20
51.3612
  0
VERTEX
  8
LAYER_1
 10
167.7584
 20
51.3715
  0
VERTEX
  8
LAYER_1
 10
167.5713
 20
51.3715
  0
SEQEND
  0
ENDBLK
  0
BLOCK
  8
LAYER_1
  2
AIGNBL0103001B
 70
64
 10
0
 20
0
 30
0
  3
AIGNBL0103001B
  0
POLYLINE
  8
LAYER_1
 40
0.05
 41
0.05
 66
1
 10
0
 20
0
 30
0
 70
1
  0
VERTEX
  8
LAYER_1
 10
169.5633
 20
50.9454
 42
-0.1000954639
  0
VERTEX
  8
LAYER_1
 10
169.5227
 20
50.728
 42
-0.1001905425
  0
VERTEX
  8
LAYER_1
 10
169.4093
 20
50.5564
 42
-0.09598116796
  0
VERTEX
  8
LAYER_1
 10
169.2388
 20
50.4434
 42
-0.09506675375
  0
VERTEX
  8
LAYER_1
 10
169.0249
 20
50.4024
 42
-0.1012184087
  0
VERTEX
  8
LAYER_1
 10
168.8109
 20
50.4434
 42
-0.1000476754
  0
VERTEX
  8
LAYER_1
 10
168.6404
 20
50.5564
 42
-0.09638651026
  0
VERTEX
  8
LAYER_1
 10
168.5274
 20
50.728
 42
-0.0931359716
  0
VERTEX
  8
LAYER_1
 10
168.4867
 20
50.9454
 42
-0.1020962526
  0
VERTEX
  8
LAYER_1
 10
168.5274
 20
51.1628
 42
-0.101889112
  0
VERTEX
  8
LAYER_1
 10
168.6404
 20
51.3343
 42
-0.09563682649
  0
VERTEX
  8
LAYER_1
 10
168.8109
 20
51.4473
 42
-0.0950295922
  0
VERTEX
  8
LAYER_1
 10
169.0249
 20
51.4883
 42
-0.101175466
  0
VERTEX
  8
LAYER_1
 10
169.2388
 20
51.4473
 42
-0.101575919
  0
VERTEX
  8
LAYER_1
 10
169.4093
 20
51.3343
 42
-0.09449174073
  0
VERTEX
  8
LAYER_1
 10
169.5227
 20
51.1628
 42
-0.09273041258
  0
SEQEND
  0
POLYLINE
  8
LAYER_1
 40
0.05
 41
0.05
 66
1
 10
0
 20
0
 30
0
 70
1
  0
VERTEX
  8
LAYER_1
 10
169.4524
 20
50.9447
  0
VERTEX
  8
LAYER_1
 10
169.4231
 20
51.1166
  0
VERTEX
  8
LAYER_1
 10
169.3383
 20
51.2599
  0
VERTEX
  8
LAYER_1
 10
169.2036
 20
51.3581
  0
VERTEX
  8
LAYER_1
 10
169.0249
 20
51.395
  0
VERTEX
  8
LAYER_1
 10
168.846
 20
51.3581
  0
VERTEX
  8
LAYER_1
 10
168.711
 20
51.2599
  0
VERTEX
  8
LAYER_1
 10
168.6262
 20
51.1166
  0
VERTEX
  8
LAYER_1
 10
168.5973
 20
50.9447
  0
VERTEX
  8
LAYER_1
 10
168.6262
 20
50.7728
  0
VERTEX
  8
LAYER_1
 10
168.711
 20
50.6298
  0
VERTEX
  8
LAYER_1
 10
168.846
 20
50.5323
  0
VERTEX
  8
LAYER_1
 10
169.0249
 20
50.4958
  0
VERTEX
  8
LAYER_1
 10
169.2036
 20
50.5323
  0
VERTEX
  8
LAYER_1
 10
169.3383
 20
50.6298
  0
VERTEX
  8
LAYER_1
 10
169.4231
 20
50.7728
  0
SEQEND
  0
ENDBLK
  0
BLOCK
  8
LAYER_1
  2
AIGNBL0103001C
 70
64
 10
0
 20
0
 30
0
  3
AIGNBL0103001C
  0
POLYLINE
  8
LAYER_1
 40
0.05
 41
0.05
 66
1
 10
0
 20
0
 30
0
 70
1
  0
VERTEX
  8
LAYER_1
 10
171.0051
 20
50.9454
 42
-0.1041417444
  0
VERTEX
  8
LAYER_1
 10
170.9641
 20
50.728
 42
-0.1000549391
  0
VERTEX
  8
LAYER_1
 10
170.8514
 20
50.5564
 42
-0.09536478376
  0
VERTEX
  8
LAYER_1
 10
170.6805
 20
50.4434
 42
-0.09507606236
  0
VERTEX
  8
LAYER_1
 10
170.4666
 20
50.4024
 42
-0.101822328
  0
VERTEX
  8
LAYER_1
 10
170.253
 20
50.4434
 42
-0.102112669
  0
VERTEX
  8
LAYER_1
 10
170.0821
 20
50.5564
 42
-0.09442769366
  0
VERTEX
  8
LAYER_1
 10
169.9688
 20
50.728
 42
-0.0931359716
  0
VERTEX
  8
LAYER_1
 10
169.9281
 20
50.9454
 42
-0.1020962526
  0
VERTEX
  8
LAYER_1
 10
169.9688
 20
51.1628
 42
-0.1007688052
  0
VERTEX
  8
LAYER_1
 10
170.0821
 20
51.3343
 42
-0.09625543395
  0
VERTEX
  8
LAYER_1
 10
170.253
 20
51.4473
 42
-0.09528409444
  0
VERTEX
  8
LAYER_1
 10
170.4666
 20
51.4883
 42
-0.101185532
  0
VERTEX
  8
LAYER_1
 10
170.6805
 20
51.4473
 42
-0.09904343471
  0
VERTEX
  8
LAYER_1
 10
170.8514
 20
51.3343
 42
-0.09562840933
  0
VERTEX
  8
LAYER_1
 10
170.9641
 20
51.1628
 42
-0.09397287008
  0
SEQEND
  0
POLYLINE
  8
LAYER_1
 40
0.05
 41
0.05
 66
1
 10
0
 20
0
 30
0
 70
1
  0
VERTEX
  8
LAYER_1
 10
170.8941
 20
50.9447
  0
VERTEX
  8
LAYER_1
 10
170.8652
 20
51.1166
  0
VERTEX
  8
LAYER_1
 10
170.7804
 20
51.2599
  0
VERTEX
  8
LAYER_1
 10
170.6454
 20
51.3581
  0
VERTEX
  8
LAYER_1
 10
170.4666
 20
51.395
  0
VERTEX
  8
LAYER_1
 10
170.2878
 20
51.3581
  0
VERTEX
  8
LAYER_1
 10
170.1531
 20
51.2599
  0
VERTEX
  8
LAYER_1
 10
170.0684
 20
51.1166
  0
VERTEX
  8
LAYER_1
 10
170.0391
 20
50.9447
  0
VERTEX
  8
LAYER_1
 10
170.0684
 20
50.7728
  0
VERTEX
  8
LAYER_1
 10
170.1531
 20
50.6298
  0
VERTEX
  8
LAYER_1
 10
170.2878
 20
50.5323
  0
VERTEX
  8
LAYER_1
 10
170.4666
 20
50.4958
  0
VERTEX
  8
LAYER_1
 10
170.6454
 20
50.5323
  0
VERTEX
  8
LAYER_1
 10
170.7804
 20
50.6298
  0
VERTEX
  8
LAYER_1
 10
170.8652
 20
50.7728
  0
SEQEND
  0
ENDBLK
  0
BLOCK
  8
LAYER_1
  2
AIGNBL0103001D
 70
64
 10
0
 20
0
 30
0
  3
AIGNBL0103001D
  0
POLYLINE
  8
LAYER_1
 40
0.05
 41
0.05
 66
1
 10
0
 20
0
 30
0
 70
1
  0
VERTEX
  8
LAYER_1
 10
171.9359
 20
50.6067
  0
VERTEX
  8
LAYER_1
 10
171.9377
 20
50.6067
  0
VERTEX
  8
LAYER_1
 10
172.2832
 20
51.4618
  0
VERTEX
  8
LAYER_1
 10
172.4441
 20
51.4618
  0
VERTEX
  8
LAYER_1
 10
172.4441
 20
50.4286
  0
VERTEX
  8
LAYER_1
 10
172.3387
 20
50.4286
  0
VERTEX
  8
LAYER_1
 10
172.3387
 20
51.3261
  0
VERTEX
  8
LAYER_1
 10
172.3359
 20
51.3261
  0
VERTEX
  8
LAYER_1
 10
171.9625
 20
50.4286
  0
VERTEX
  8
LAYER_1
 10
171.907
 20
50.4286
  0
VERTEX
  8
LAYER_1
 10
171.5332
 20
51.3261
  0
VERTEX
  8
LAYER_1
 10
171.5305
 20
51.3261
  0
VERTEX
  8
LAYER_1
 10
171.5305
 20
50.4286
  0
VERTEX
  8
LAYER_1
 10
171.4254
 20
50.4286
  0
VERTEX
  8
LAYER_1
 10
171.4254
 20
51.4618
  0
VERTEX
  8
LAYER_1
 10
171.5859
 20
51.4618
  0
SEQEND
  0
ENDBLK
  0
BLOCK
  8
LAYER_1
  2
AIGNBL0103001E
 70
64
 10
0
 20
0
 30
0
  3
AIGNBL0103001E
  0
POLYLINE
  8
LAYER_1
 40
0.05
 41
0.05
 66
1
 10
0
 20
0
 30
0
 70
1
  0
VERTEX
  8
LAYER_1
 10
173.5906
 20
50.5223
  0
VERTEX
  8
LAYER_1
 10
174.1439
 20
50.5223
  0
VERTEX
  8
LAYER_1
 10
174.1439
 20
50.4286
  0
VERTEX
  8
LAYER_1
 10
173.4855
 20
50.4286
  0
VERTEX
  8
LAYER_1
 10
173.4855
 20
51.4618
  0
VERTEX
  8
LAYER_1
 10
174.1263
 20
51.4618
  0
VERTEX
  8
LAYER_1
 10
174.1263
 20
51.3684
  0
VERTEX
  8
LAYER_1
 10
173.5906
 20
51.3684
  0
VERTEX
  8
LAYER_1
 10
173.5906
 20
51.0139
  0
VERTEX
  8
LAYER_1
 10
174.0912
 20
51.0139
  0
VERTEX
  8
LAYER_1
 10
174.0912
 20
50.9206
  0
VERTEX
  8
LAYER_1
 10
173.5906
 20
50.9206
  0
SEQEND
  0
ENDBLK
  0
BLOCK
  8
LAYER_1
  2
AIGNBL0103001F
 70
64
 10
0
 20
0
 30
0
  3
AIGNBL0103001F
  0
POLYLINE
  8
LAYER_1
 40
0.05
 41
0.05
 66
1
 10
0
 20
0
 30
0
 70
1
  0
VERTEX
  8
LAYER_1
 10
174.8891
 20
51.0446
  0
VERTEX
  8
LAYER_1
 10
175.1712
 20
51.4618
  0
VERTEX
  8
LAYER_1
 10
175.2963
 20
51.4618
  0
VERTEX
  8
LAYER_1
 10
174.9538
 20
50.9702
  0
VERTEX
  8
LAYER_1
 10
175.3332
 20
50.4286
  0
VERTEX
  8
LAYER_1
 10
175.2019
 20
50.4286
  0
VERTEX
  8
LAYER_1
 10
174.8863
 20
50.8944
  0
VERTEX
  8
LAYER_1
 10
174.5728
 20
50.4286
  0
VERTEX
  8
LAYER_1
 10
174.4412
 20
50.4286
  0
VERTEX
  8
LAYER_1
 10
174.8209
 20
50.9715
  0
VERTEX
  8
LAYER_1
 10
174.475
 20
51.4618
  0
VERTEX
  8
LAYER_1
 10
174.6066
 20
51.4618
  0
SEQEND
  0
ENDBLK
  0
BLOCK
  8
LAYER_1
  2
AIGNBL01030020
 70
64
 10
0
 20
0
 30
0
  3
AIGNBL01030020
  0
POLYLINE
  8
LAYER_1
 40
0.05
 41
0.05
 66
1
 10
0
 20
0
 30
0
 70
1
  0
VERTEX
  8
LAYER_1
 10
175.6994
 20
51.4618
  0
VERTEX
  8
LAYER_1
 10
175.9915
 20
51.4618
  0
VERTEX
  8
LAYER_1
 10
176.1345
 20
51.4453
  0
VERTEX
  8
LAYER_1
 10
176.2444
 20
51.3939
  0
VERTEX
  8
LAYER_1
 10
176.3154
 20
51.3078
  0
VERTEX
  8
LAYER_1
 10
176.3398
 20
51.1862
  0
VERTEX
  8
LAYER_1
 10
176.3147
 20
51.0642
  0
VERTEX
  8
LAYER_1
 10
176.243
 20
50.9781
  0
VERTEX
  8
LAYER_1
 10
176.1321
 20
50.9264
  0
VERTEX
  8
LAYER_1
 10
175.9884
 20
50.9089
  0
VERTEX
  8
LAYER_1
 10
175.8044
 20
50.9089
  0
VERTEX
  8
LAYER_1
 10
175.8044
 20
50.4286
  0
VERTEX
  8
LAYER_1
 10
175.6994
 20
50.4286
  0
SEQEND
  0
POLYLINE
  8
LAYER_1
 40
0.05
 41
0.05
 66
1
 10
0
 20
0
 30
0
 70
1
  0
VERTEX
  8
LAYER_1
 10
175.8044
 20
50.9977
  0
VERTEX
  8
LAYER_1
 10
175.9822
 20
50.9977
 42
0.1829203509
  0
VERTEX
  8
LAYER_1
 10
176.1706
 20
51.0459
 42
0.2347011275
  0
VERTEX
  8
LAYER_1
 10
176.2351
 20
51.1862
 42
0.26486771
  0
VERTEX
  8
LAYER_1
 10
176.1686
 20
51.3271
 42
0.126412566
  0
VERTEX
  8
LAYER_1
 10
175.9822
 20
51.3715
  0
VERTEX
  8
LAYER_1
 10
175.8044
 20
51.3715
  0
SEQEND
  0
ENDBLK
  0
BLOCK
  8
LAYER_1
  2
AIGNBL01030021
 70
64
 10
0
 20
0
 30
0
  3
AIGNBL01030021
  0
POLYLINE
  8
LAYER_1
 40
0.05
 41
0.05
 66
1
 10
0
 20
0
 30
0
 70
1
  0
VERTEX
  8
LAYER_1
 10
176.8521
 20
50.5223
  0
VERTEX
  8
LAYER_1
 10
177.4054
 20
50.5223
  0
VERTEX
  8
LAYER_1
 10
177.4054
 20
50.4286
  0
VERTEX
  8
LAYER_1
 10
176.747
 20
50.4286
  0
VERTEX
  8
LAYER_1
 10
176.747
 20
51.4618
  0
VERTEX
  8
LAYER_1
 10
177.3878
 20
51.4618
  0
VERTEX
  8
LAYER_1
 10
177.3878
 20
51.3684
  0
VERTEX
  8
LAYER_1
 10
176.8521
 20
51.3684
  0
VERTEX
  8
LAYER_1
 10
176.8521
 20
51.0139
  0
VERTEX
  8
LAYER_1
 10
177.3527
 20
51.0139
  0
VERTEX
  8
LAYER_1
 10
177.3527
 20
50.9206
  0
VERTEX
  8
LAYER_1
 10
176.8521
 20
50.9206
  0
SEQEND
  0
ENDBLK
  0
BLOCK
  8
LAYER_1
  2
AIGNBL01030022
 70
64
 10
0
 20
0
 30
0
  3
AIGNBL01030022
  0
POLYLINE
  8
LAYER_1
 40
0.05
 41
0.05
 66
1
 10
0
 20
0
 30
0
 70
1
  0
VERTEX
  8
LAYER_1
 10
177.9173
 20
50.4286
  0
VERTEX
  8
LAYER_1
 10
177.8122
 20
50.4286
  0
VERTEX
  8
LAYER_1
 10
177.8122
 20
51.4618
  0
VERTEX
  8
LAYER_1
 10
178.1161
 20
51.4618
  0
VERTEX
  8
LAYER_1
 10
178.2567
 20
51.4473
  0
VERTEX
  8
LAYER_1
 10
178.3693
 20
51.3998
  0
VERTEX
  8
LAYER_1
 10
178.443
 20
51.3143
  0
VERTEX
  8
LAYER_1
 10
178.4689
 20
51.1862
  0
VERTEX
  8
LAYER_1
 10
178.4489
 20
51.0825
  0
VERTEX
  8
LAYER_1
 10
178.3934
 20
51.0015
  0
VERTEX
  8
LAYER_1
 10
178.3101
 20
50.9467
  0
VERTEX
  8
LAYER_1
 10
178.205
 20
50.9206
  0
VERTEX
  8
LAYER_1
 10
178.5071
 20
50.4286
  0
VERTEX
  8
LAYER_1
 10
178.3786
 20
50.4286
  0
VERTEX
  8
LAYER_1
 10
178.0927
 20
50.9116
  0
VERTEX
  8
LAYER_1
 10
177.9173
 20
50.9116
  0
SEQEND
  0
POLYLINE
  8
LAYER_1
 40
0.05
 41
0.05
 66
1
 10
0
 20
0
 30
0
 70
1
  0
VERTEX
  8
LAYER_1
 10
177.9173
 20
51.0022
  0
VERTEX
  8
LAYER_1
 10
178.0999
 20
51.0022
 42
0.1667734107
  0
VERTEX
  8
LAYER_1
 10
178.2956
 20
51.048
 42
0.2503091692
  0
VERTEX
  8
LAYER_1
 10
178.3641
 20
51.1862
  0
VERTEX
  8
LAYER_1
 10
178.3452
 20
51.272
  0
VERTEX
  8
LAYER_1
 10
178.2925
 20
51.3292
  0
VERTEX
  8
LAYER_1
 10
178.2108
 20
51.3612
  0
VERTEX
  8
LAYER_1
 10
178.1044
 20
51.3715
  0
VERTEX
  8
LAYER_1
 10
177.9173
 20
51.3715
  0
SEQEND
  0
ENDBLK
  0
BLOCK
  8
LAYER_1
  2
AIGNBL01030023
 70
64
 10
0
 20
0
 30
0
  3
AIGNBL01030023
  0
POLYLINE
  8
LAYER_1
 40
0.05
 41
0.05
 66
1
 10
0
 20
0
 30
0
 70
1
  0
VERTEX
  8
LAYER_1
 10
178.9929
 20
50.4286
  0
VERTEX
  8
LAYER_1
 10
178.8882
 20
50.4286
  0
VERTEX
  8
LAYER_1
 10
178.8882
 20
51.4618
  0
VERTEX
  8
LAYER_1
 10
178.9929
 20
51.4618
  0
SEQEND
  0
ENDBLK
  0
BLOCK
  8
LAYER_1
  2
AIGNBL01030024
 70
64
 10
0
 20
0
 30
0
  3
AIGNBL01030024
  0
POLYLINE
  8
LAYER_1
 40
0.05
 41
0.05
 66
1
 10
0
 20
0
 30
0
 70
1
  0
VERTEX
  8
LAYER_1
 10
179.5737
 20
50.5223
  0
VERTEX
  8
LAYER_1
 10
180.1267
 20
50.5223
  0
VERTEX
  8
LAYER_1
 10
180.1267
 20
50.4286
  0
VERTEX
  8
LAYER_1
 10
179.4687
 20
50.4286
  0
VERTEX
  8
LAYER_1
 10
179.4687
 20
51.4618
  0
VERTEX
  8
LAYER_1
 10
180.1094
 20
51.4618
  0
VERTEX
  8
LAYER_1
 10
180.1094
 20
51.3684
  0
VERTEX
  8
LAYER_1
 10
179.5737
 20
51.3684
  0
VERTEX
  8
LAYER_1
 10
179.5737
 20
51.0139
  0
VERTEX
  8
LAYER_1
 10
180.0743
 20
51.0139
  0
VERTEX
  8
LAYER_1
 10
180.0743
 20
50.9206
  0
VERTEX
  8
LAYER_1
 10
179.5737
 20
50.9206
  0
SEQEND
  0
ENDBLK
  0
BLOCK
  8
LAYER_1
  2
AIGNBL01030025
 70
64
 10
0
 20
0
 30
0
  3
AIGNBL01030025
  0
POLYLINE
  8
LAYER_1
 40
0.05
 41
0.05
 66
1
 10
0
 20
0
 30
0
 70
1
  0
VERTEX
  8
LAYER_1
 10
181.2666
 20
50.5819
  0
VERTEX
  8
LAYER_1
 10
181.2694
 20
50.5819
  0
VERTEX
  8
LAYER_1
 10
181.2694
 20
51.4618
  0
VERTEX
  8
LAYER_1
 10
181.3745
 20
51.4618
  0
VERTEX
  8
LAYER_1
 10
181.3745
 20
50.4286
  0
VERTEX
  8
LAYER_1
 10
181.2432
 20
50.4286
  0
VERTEX
  8
LAYER_1
 10
180.642
 20
51.3174
  0
VERTEX
  8
LAYER_1
 10
180.6389
 20
51.3174
  0
VERTEX
  8
LAYER_1
 10
180.6389
 20
50.4286
  0
VERTEX
  8
LAYER_1
 10
180.5339
 20
50.4286
  0
VERTEX
  8
LAYER_1
 10
180.5339
 20
51.4618
  0
VERTEX
  8
LAYER_1
 10
180.6655
 20
51.4618
  0
SEQEND
  0
ENDBLK
  0
BLOCK
  8
LAYER_1
  2
AIGNBL01030026
 70
64
 10
0
 20
0
 30
0
  3
AIGNBL01030026
  0
POLYLINE
  8
LAYER_1
 40
0.05
 41
0.05
 66
1
 10
0
 20
0
 30
0
 70
1
  0
VERTEX
  8
LAYER_1
 10
182.7201
 20
50.5964
  0
VERTEX
  8
LAYER_1
 10
182.6564
 20
50.522
  0
VERTEX
  8
LAYER_1
 10
182.5703
 20
50.4603
  0
VERTEX
  8
LAYER_1
 10
182.4621
 20
50.4179
  0
VERTEX
  8
LAYER_1
 10
182.3333
 20
50.4024
 42
-0.100982896
  0
VERTEX
  8
LAYER_1
 10
182.1172
 20
50.4434
 42
-0.1036559164
  0
VERTEX
  8
LAYER_1
 10
181.9467
 20
50.5564
 42
-0.09812017057
  0
VERTEX
  8
LAYER_1
 10
181.8351
 20
50.728
 42
-0.09232404316
  0
VERTEX
  8
LAYER_1
 10
181.7948
 20
50.9454
 42
-0.1039024847
  0
VERTEX
  8
LAYER_1
 10
181.8358
 20
51.1628
 42
-0.1006255151
  0
VERTEX
  8
LAYER_1
 10
181.9484
 20
51.3343
 42
-0.09509197705
  0
VERTEX
  8
LAYER_1
 10
182.1193
 20
51.4473
 42
-0.0950295922
  0
VERTEX
  8
LAYER_1
 10
182.3333
 20
51.4883
  0
VERTEX
  8
LAYER_1
 10
182.4449
 20
51.4763
  0
VERTEX
  8
LAYER_1
 10
182.5479
 20
51.4428
  0
VERTEX
  8
LAYER_1
 10
182.6354
 20
51.3912
  0
VERTEX
  8
LAYER_1
 10
182.7012
 20
51.3233
  0
VERTEX
  8
LAYER_1
 10
182.6137
 20
51.2589
  0
VERTEX
  8
LAYER_1
 10
182.5703
 20
51.3088
  0
VERTEX
  8
LAYER_1
 10
182.5069
 20
51.3526
  0
VERTEX
  8
LAYER_1
 10
182.4273
 20
51.3832
  0
VERTEX
  8
LAYER_1
 10
182.3346
 20
51.395
  0
VERTEX
  8
LAYER_1
 10
182.1544
 20
51.3584
  0
VERTEX
  8
LAYER_1
 10
182.0194
 20
51.2603
  0
VERTEX
  8
LAYER_1
 10
181.9346
 20
51.1169
  0
VERTEX
  8
LAYER_1
 10
181.9057
 20
50.9454
  0
VERTEX
  8
LAYER_1
 10
181.9357
 20
50.7738
  0
VERTEX
  8
LAYER_1
 10
182.0211
 20
50.6305
  0
VERTEX
  8
LAYER_1
 10
182.1562
 20
50.5323
 42
0.1010490553
  0
VERTEX
  8
LAYER_1
 10
182.3346
 20
50.4958
  0
VERTEX
  8
LAYER_1
 10
182.5038
 20
50.5323
 42
0.1324826472
  0
VERTEX
  8
LAYER_1
 10
182.6381
 20
50.6491
  0
SEQEND
  0
ENDBLK
  0
BLOCK
  8
LAYER_1
  2
AIGNBL01030027
 70
64
 10
0
 20
0
 30
0
  3
AIGNBL01030027
  0
POLYLINE
  8
LAYER_1
 40
0.05
 41
0.05
 66
1
 10
0
 20
0
 30
0
 70
1
  0
VERTEX
  8
LAYER_1
 10
183.2073
 20
50.5223
  0
VERTEX
  8
LAYER_1
 10
183.7606
 20
50.5223
  0
VERTEX
  8
LAYER_1
 10
183.7606
 20
50.4286
  0
VERTEX
  8
LAYER_1
 10
183.1022
 20
50.4286
  0
VERTEX
  8
LAYER_1
 10
183.1022
 20
51.4618
  0
VERTEX
  8
LAYER_1
 10
183.743
 20
51.4618
  0
VERTEX
  8
LAYER_1
 10
183.743
 20
51.3684
  0
VERTEX
  8
LAYER_1
 10
183.2073
 20
51.3684
  0
VERTEX
  8
LAYER_1
 10
183.2073
 20
51.0139
  0
VERTEX
  8
LAYER_1
 10
183.7078
 20
51.0139
  0
VERTEX
  8
LAYER_1
 10
183.7078
 20
50.9206
  0
VERTEX
  8
LAYER_1
 10
183.2073
 20
50.9206
  0
SEQEND
  0
ENDBLK
  0
BLOCK
  8
LAYER_1
  2
AIGNBL01020003
 70
64
 10
0
 20
0
 30
0
  3
AIGNBL01020003
  0
POLYLINE
  8
LAYER_1
 40
0.05
 41
0.05
 66
1
 10
0
 20
0
 30
0
 70
1
  0
VERTEX
  8
LAYER_1
 10
112.0887
 20
183.0535
  0
VERTEX
  8
LAYER_1
 10
99.6004
 20
183.0535
  0
VERTEX
  8
LAYER_1
 10
99.6004
 20
182.9212
  0
VERTEX
  8
LAYER_1
 10
112.0887
 20
182.9212
  0
SEQEND
  0
ENDBLK
  0
BLOCK
  8
LAYER_1
  2
AIGNBL01020004
 70
64
 10
0
 20
0
 30
0
  3
AIGNBL01020004
  0
POLYLINE
  8
LAYER_1
 40
0.0847
 41
0.0847
 66
1
 10
0
 20
0
 30
0
 70
1
  0
VERTEX
  8
LAYER_1
 10
112.0887
 20
183.0535
  0
VERTEX
  8
LAYER_1
 10
99.6004
 20
183.0535
  0
VERTEX
  8
LAYER_1
 10
99.6004
 20
182.9212
  0
VERTEX
  8
LAYER_1
 10
112.0887
 20
182.9212
  0
SEQEND
  0
ENDBLK
  0
BLOCK
  8
LAYER_1
  2
AIGNBL01020007
 70
64
 10
0
 20
0
 30
0
  3
AIGNBL01020007
  0
INSERT
  8
LAYER_1
  2
AIGNBL01030008
 10
0
 20
0
 30
0
  0
ENDBLK
  0
BLOCK
  8
LAYER_1
  2
AIGNBL01020010
 70
64
 10
0
 20
0
 30
0
  3
AIGNBL01020010
  0
INSERT
  8
LAYER_1
  2
AIGNBL01030011
 10
0
 20
0
 30
0
  0
INSERT
  8
LAYER_1
  2
AIGNBL01030012
 10
0
 20
0
 30
0
  0
INSERT
  8
LAYER_1
  2
AIGNBL01030013
 10
0
 20
0
 30
0
  0
INSERT
  8
LAYER_1
  2
AIGNBL01030014
 10
0
 20
0
 30
0
  0
INSERT
  8
LAYER_1
  2
AIGNBL01030015
 10
0
 20
0
 30
0
  0
INSERT
  8
LAYER_1
  2
AIGNBL01030016
 10
0
 20
0
 30
0
  0
INSERT
  8
LAYER_1
  2
AIGNBL01030017
 10
0
 20
0
 30
0
  0
INSERT
  8
LAYER_1
  2
AIGNBL01030018
 10
0
 20
0
 30
0
  0
INSERT
  8
LAYER_1
  2
AIGNBL01030019
 10
0
 20
0
 30
0
  0
INSERT
  8
LAYER_1
  2
AIGNBL0103001A
 10
0
 20
0
 30
0
  0
INSERT
  8
LAYER_1
  2
AIGNBL0103001B
 10
0
 20
0
 30
0
  0
INSERT
  8
LAYER_1
  2
AIGNBL0103001C
 10
0
 20
0
 30
0
  0
INSERT
  8
LAYER_1
  2
AIGNBL0103001D
 10
0
 20
0
 30
0
  0
INSERT
  8
LAYER_1
  2
AIGNBL0103001E
 10
0
 20
0
 30
0
  0
INSERT
  8
LAYER_1
  2
AIGNBL0103001F
 10
0
 20
0
 30
0
  0
INSERT
  8
LAYER_1
  2
AIGNBL01030020
 10
0
 20
0
 30
0
  0
INSERT
  8
LAYER_1
  2
AIGNBL01030021
 10
0
 20
0
 30
0
  0
INSERT
  8
LAYER_1
  2
AIGNBL01030022
 10
0
 20
0
 30
0
  0
INSERT
  8
LAYER_1
  2
AIGNBL01030023
 10
0
 20
0
 30
0
  0
INSERT
  8
LAYER_1
  2
AIGNBL01030024
 10
0
 20
0
 30
0
  0
INSERT
  8
LAYER_1
  2
AIGNBL01030025
 10
0
 20
0
 30
0
  0
INSERT
  8
LAYER_1
  2
AIGNBL01030026
 10
0
 20
0
 30
0
  0
INSERT
  8
LAYER_1
  2
AIGNBL01030027
 10
0
 20
0
 30
0
  0
ENDBLK
  0
BLOCK
  8
LAYER_1
  2
AIGNBL01010002
 70
64
 10
0
 20
0
 30
0
  3
AIGNBL01010002
  0
INSERT
  8
LAYER_1
  2
AIGNBL01020003
 10
0
 20
0
 30
0
  0
INSERT
  8
LAYER_1
  2
AIGNBL01020004
 10
0
 20
0
 30
0
  0
POLYLINE
  8
LAYER_1
 40
0.0847
 41
0.0847
 66
1
 10
0
 20
0
 30
0
  0
VERTEX
  8
LAYER_1
 10
108.0141
 20
152.0443
  0
VERTEX
  8
LAYER_1
 10
108.0935
 20
152.0443
  0
SEQEND
  0
POLYLINE
  8
LAYER_1
 40
0.0847
 41
0.0847
 66
1
 10
0
 20
0
 30
0
  0
VERTEX
  8
LAYER_1
 10
108.2523
 20
152.0972
  0
VERTEX
  8
LAYER_1
 10
108.3316
 20
152.1237
  0
SEQEND
  0
POLYLINE
  8
LAYER_1
 40
0.0847
 41
0.0847
 66
1
 10
0
 20
0
 30
0
  0
VERTEX
  8
LAYER_1
 10
107.6437
 20
152.0443
  0
VERTEX
  8
LAYER_1
 10
107.6702
 20
152.0443
  0
SEQEND
  0
POLYLINE
  8
LAYER_1
 40
0.0847
 41
0.0847
 66
1
 10
0
 20
0
 30
0
  0
VERTEX
  8
LAYER_1
 10
107.776
 20
152.0443
  0
VERTEX
  8
LAYER_1
 10
107.8289
 20
152.0178
  0
VERTEX
  8
LAYER_1
 10
107.8554
 20
152.0178
  0
SEQEND
  0
POLYLINE
  8
LAYER_1
 40
0.0847
 41
0.0847
 66
1
 10
0
 20
0
 30
0
  0
VERTEX
  8
LAYER_1
 10
107.9612
 20
152.0179
  0
VERTEX
  8
LAYER_1
 10
108.0141
 20
152.0443
  0
SEQEND
  0
POLYLINE
  8
LAYER_1
 40
0.0847
 41
0.0847
 66
1
 10
0
 20
0
 30
0
  0
VERTEX
  8
LAYER_1
 10
103.0135
 20
154.2404
  0
VERTEX
  8
LAYER_1
 10
103.0929
 20
154.2668
  0
SEQEND
  0
POLYLINE
  8
LAYER_1
 40
0.0847
 41
0.0847
 66
1
 10
0
 20
0
 30
0
  0
VERTEX
  8
LAYER_1
 10
103.2516
 20
154.3462
  0
VERTEX
  8
LAYER_1
 10
103.3575
 20
154.3991
  0
VERTEX
  8
LAYER_1
 10
103.4368
 20
154.4256
  0
SEQEND
  0
POLYLINE
  8
LAYER_1
 40
0.0847
 41
0.0847
 66
1
 10
0
 20
0
 30
0
  0
VERTEX
  8
LAYER_1
 10
103.5956
 20
154.4785
  0
VERTEX
  8
LAYER_1
 10
103.675
 20
154.5049
  0
VERTEX
  8
LAYER_1
 10
103.7014
 20
154.5049
  0
SEQEND
  0
POLYLINE
  8
LAYER_1
 40
0.0847
 41
0.0847
 66
1
 10
0
 20
0
 30
0
  0
VERTEX
  8
LAYER_1
 10
103.8073
 20
154.5049
  0
VERTEX
  8
LAYER_1
 10
103.8602
 20
154.5314
  0
VERTEX
  8
LAYER_1
 10
103.8866
 20
154.5314
  0
SEQEND
  0
POLYLINE
  8
LAYER_1
 40
0.0847
 41
0.0847
 66
1
 10
0
 20
0
 30
0
  0
VERTEX
  8
LAYER_1
 10
103.9925
 20
154.5314
  0
VERTEX
  8
LAYER_1
 10
104.0454
 20
154.5049
  0
VERTEX
  8
LAYER_1
 10
104.1248
 20
154.4785
  0
SEQEND
  0
POLYLINE
  8
LAYER_1
 40
0.0847
 41
0.0847
 66
1
 10
0
 20
0
 30
0
  0
VERTEX
  8
LAYER_1
 10
104.2835
 20
154.4256
  0
VERTEX
  8
LAYER_1
 10
104.3629
 20
154.3991
  0
VERTEX
  8
LAYER_1
 10
104.4423
 20
154.3726
  0
SEQEND
  0
POLYLINE
  8
LAYER_1
 40
0.0847
 41
0.0847
 66
1
 10
0
 20
0
 30
0
  0
VERTEX
  8
LAYER_1
 10
104.601
 20
154.2933
  0
VERTEX
  8
LAYER_1
 10
104.7068
 20
154.2403
  0
VERTEX
  8
LAYER_1
 10
104.7862
 20
154.1874
  0
SEQEND
  0
POLYLINE
  8
LAYER_1
 40
0.0847
 41
0.0847
 66
1
 10
0
 20
0
 30
0
  0
VERTEX
  8
LAYER_1
 10
104.945
 20
154.0816
  0
VERTEX
  8
LAYER_1
 10
105.0243
 20
154.0022
  0
VERTEX
  8
LAYER_1
 10
105.1037
 20
153.9493
  0
SEQEND
  0
POLYLINE
  8
LAYER_1
 40
0.0847
 41
0.0847
 66
1
 10
0
 20
0
 30
0
  0
VERTEX
  8
LAYER_1
 10
105.2625
 20
153.817
  0
VERTEX
  8
LAYER_1
 10
105.3418
 20
153.7376
  0
VERTEX
  8
LAYER_1
 10
105.4212
 20
153.6847
  0
SEQEND
  0
POLYLINE
  8
LAYER_1
 40
0.0847
 41
0.0847
 66
1
 10
0
 20
0
 30
0
  0
VERTEX
  8
LAYER_1
 10
105.58
 20
153.526
  0
VERTEX
  8
LAYER_1
 10
105.6594
 20
153.4466
  0
VERTEX
  8
LAYER_1
 10
105.7387
 20
153.3672
  0
SEQEND
  0
POLYLINE
  8
LAYER_1
 40
0.0847
 41
0.0847
 66
1
 10
0
 20
0
 30
0
  0
VERTEX
  8
LAYER_1
 10
105.9239
 20
153.2085
  0
VERTEX
  8
LAYER_1
 10
106.0298
 20
153.1027
  0
VERTEX
  8
LAYER_1
 10
106.1091
 20
153.0498
  0
SEQEND
  0
POLYLINE
  8
LAYER_1
 40
0.0847
 41
0.0847
 66
1
 10
0
 20
0
 30
0
  0
VERTEX
  8
LAYER_1
 10
106.2679
 20
152.891
  0
VERTEX
  8
LAYER_1
 10
106.3473
 20
152.8116
  0
VERTEX
  8
LAYER_1
 10
106.4266
 20
152.7587
  0
SEQEND
  0
POLYLINE
  8
LAYER_1
 40
0.0847
 41
0.0847
 66
1
 10
0
 20
0
 30
0
  0
VERTEX
  8
LAYER_1
 10
106.5854
 20
152.6265
  0
VERTEX
  8
LAYER_1
 10
106.6648
 20
152.5471
  0
VERTEX
  8
LAYER_1
 10
106.7441
 20
152.4942
  0
SEQEND
  0
POLYLINE
  8
LAYER_1
 40
0.0847
 41
0.0847
 66
1
 10
0
 20
0
 30
0
  0
VERTEX
  8
LAYER_1
 10
106.9029
 20
152.3884
  0
VERTEX
  8
LAYER_1
 10
106.9823
 20
152.309
  0
VERTEX
  8
LAYER_1
 10
107.0616
 20
152.2825
  0
SEQEND
  0
POLYLINE
  8
LAYER_1
 40
0.0847
 41
0.0847
 66
1
 10
0
 20
0
 30
0
  0
VERTEX
  8
LAYER_1
 10
107.2204
 20
152.1767
  0
VERTEX
  8
LAYER_1
 10
107.3262
 20
152.1238
  0
VERTEX
  8
LAYER_1
 10
107.4056
 20
152.1238
  0
SEQEND
  0
POLYLINE
  8
LAYER_1
 40
0.0847
 41
0.0847
 66
1
 10
0
 20
0
 30
0
  0
VERTEX
  8
LAYER_1
 10
107.5644
 20
152.0709
  0
VERTEX
  8
LAYER_1
 10
107.6437
 20
152.0444
  0
SEQEND
  0
POLYLINE
  8
LAYER_1
 40
0.0847
 41
0.0847
 66
1
 10
0
 20
0
 30
0
  0
VERTEX
  8
LAYER_1
 10
102.7225
 20
154.0288
  0
VERTEX
  8
LAYER_1
 10
102.7754
 20
154.0817
  0
SEQEND
  0
POLYLINE
  8
LAYER_1
 40
0.0847
 41
0.0847
 66
1
 10
0
 20
0
 30
0
  0
VERTEX
  8
LAYER_1
 10
102.9341
 20
154.1875
  0
VERTEX
  8
LAYER_1
 10
103.0135
 20
154.2404
  0
SEQEND
  0
POLYLINE
  8
LAYER_1
 40
0.0847
 41
0.0847
 66
1
 10
0
 20
0
 30
0
  0
VERTEX
  8
LAYER_1
 10
108.3316
 20
152.1238
  0
VERTEX
  8
LAYER_1
 10
108.411
 20
152.1502
  0
SEQEND
  0
POLYLINE
  8
LAYER_1
 40
0.0847
 41
0.0847
 66
1
 10
0
 20
0
 30
0
  0
VERTEX
  8
LAYER_1
 10
108.5698
 20
152.2561
  0
VERTEX
  8
LAYER_1
 10
108.6756
 20
152.309
  0
VERTEX
  8
LAYER_1
 10
108.7285
 20
152.3619
  0
SEQEND
  0
POLYLINE
  8
LAYER_1
 40
0.0847
 41
0.0847
 66
1
 10
0
 20
0
 30
0
  0
VERTEX
  8
LAYER_1
 10
108.8873
 20
152.4677
  0
VERTEX
  8
LAYER_1
 10
108.9666
 20
152.5206
  0
SEQEND
  0
POLYLINE
  8
LAYER_1
 40
0.0847
 41
0.0847
 66
1
 10
0
 20
0
 30
0
  0
VERTEX
  8
LAYER_1
 10
199.9568
 20
187.234
  0
VERTEX
  8
LAYER_1
 10
206.7302
 20
187.234
  0
SEQEND
  0
POLYLINE
  8
LAYER_1
 40
0.0847
 41
0.0847
 66
1
 10
0
 20
0
 30
0
  0
VERTEX
  8
LAYER_1
 10
105.8446
 20
143.7894
  0
VERTEX
  8
LAYER_1
 10
105.8446
 20
146.6469
  0
SEQEND
  0
POLYLINE
  8
LAYER_1
 40
0.0847
 41
0.0847
 66
1
 10
0
 20
0
 30
0
  0
VERTEX
  8
LAYER_1
 10
105.8446
 20
147.8111
  0
VERTEX
  8
LAYER_1
 10
105.8446
 20
148.9487
  0
SEQEND
  0
POLYLINE
  8
LAYER_1
 40
0.0847
 41
0.0847
 66
1
 10
0
 20
0
 30
0
  0
VERTEX
  8
LAYER_1
 10
105.8446
 20
150.1129
  0
VERTEX
  8
LAYER_1
 10
105.8446
 20
155.8808
  0
SEQEND
  0
POLYLINE
  8
LAYER_1
 40
0.0847
 41
0.0847
 66
1
 10
0
 20
0
 30
0
  0
VERTEX
  8
LAYER_1
 10
105.8446
 20
157.0185
  0
VERTEX
  8
LAYER_1
 10
105.8446
 20
158.1827
  0
SEQEND
  0
POLYLINE
  8
LAYER_1
 40
0.0847
 41
0.0847
 66
1
 10
0
 20
0
 30
0
  0
VERTEX
  8
LAYER_1
 10
105.8446
 20
159.3204
  0
VERTEX
  8
LAYER_1
 10
105.8446
 20
165.0883
  0
SEQEND
  0
POLYLINE
  8
LAYER_1
 40
0.0847
 41
0.0847
 66
1
 10
0
 20
0
 30
0
  0
VERTEX
  8
LAYER_1
 10
105.8446
 20
166.226
  0
VERTEX
  8
LAYER_1
 10
105.8446
 20
167.3902
  0
SEQEND
  0
POLYLINE
  8
LAYER_1
 40
0.0847
 41
0.0847
 66
1
 10
0
 20
0
 30
0
  0
VERTEX
  8
LAYER_1
 10
105.8446
 20
168.5279
  0
VERTEX
  8
LAYER_1
 10
105.8446
 20
174.2958
  0
SEQEND
  0
POLYLINE
  8
LAYER_1
 40
0.0847
 41
0.0847
 66
1
 10
0
 20
0
 30
0
  0
VERTEX
  8
LAYER_1
 10
105.8446
 20
175.4599
  0
VERTEX
  8
LAYER_1
 10
105.8446
 20
176.5976
  0
SEQEND
  0
POLYLINE
  8
LAYER_1
 40
0.0847
 41
0.0847
 66
1
 10
0
 20
0
 30
0
  0
VERTEX
  8
LAYER_1
 10
105.8446
 20
177.7618
  0
VERTEX
  8
LAYER_1
 10
105.8446
 20
183.5032
  0
SEQEND
  0
POLYLINE
  8
LAYER_1
 40
0.0847
 41
0.0847
 66
1
 10
0
 20
0
 30
0
  0
VERTEX
  8
LAYER_1
 10
105.8446
 20
184.6674
  0
VERTEX
  8
LAYER_1
 10
105.8446
 20
185.8051
  0
SEQEND
  0
POLYLINE
  8
LAYER_1
 40
0.0847
 41
0.0847
 66
1
 10
0
 20
0
 30
0
  0
VERTEX
  8
LAYER_1
 10
105.8446
 20
186.9693
  0
VERTEX
  8
LAYER_1
 10
105.8446
 20
192.7107
  0
SEQEND
  0
POLYLINE
  8
LAYER_1
 40
0.0847
 41
0.0847
 66
1
 10
0
 20
0
 30
0
  0
VERTEX
  8
LAYER_1
 10
105.8446
 20
193.8749
  0
VERTEX
  8
LAYER_1
 10
105.8446
 20
195.0126
  0
SEQEND
  0
POLYLINE
  8
LAYER_1
 40
0.0847
 41
0.0847
 66
1
 10
0
 20
0
 30
0
  0
VERTEX
  8
LAYER_1
 10
105.8446
 20
196.1768
  0
VERTEX
  8
LAYER_1
 10
105.8446
 20
201.9447
  0
SEQEND
  0
POLYLINE
  8
LAYER_1
 40
0.0847
 41
0.0847
 66
1
 10
0
 20
0
 30
0
  0
VERTEX
  8
LAYER_1
 10
105.8446
 20
203.0824
  0
VERTEX
  8
LAYER_1
 10
105.8446
 20
204.2465
  0
SEQEND
  0
POLYLINE
  8
LAYER_1
 40
0.0847
 41
0.0847
 66
1
 10
0
 20
0
 30
0
  0
VERTEX
  8
LAYER_1
 10
105.8446
 20
205.3842
  0
VERTEX
  8
LAYER_1
 10
105.8446
 20
211.1521
  0
SEQEND
  0
POLYLINE
  8
LAYER_1
 40
0.0847
 41
0.0847
 66
1
 10
0
 20
0
 30
0
  0
VERTEX
  8
LAYER_1
 10
105.8446
 20
212.2898
  0
VERTEX
  8
LAYER_1
 10
105.8446
 20
213.454
  0
SEQEND
  0
POLYLINE
  8
LAYER_1
 40
0.0847
 41
0.0847
 66
1
 10
0
 20
0
 30
0
  0
VERTEX
  8
LAYER_1
 10
105.8446
 20
214.5917
  0
VERTEX
  8
LAYER_1
 10
105.8446
 20
220.3596
  0
SEQEND
  0
POLYLINE
  8
LAYER_1
 40
0.0847
 41
0.0847
 66
1
 10
0
 20
0
 30
0
  0
VERTEX
  8
LAYER_1
 10
105.8446
 20
221.5238
  0
VERTEX
  8
LAYER_1
 10
105.8446
 20
222.6615
  0
SEQEND
  0
POLYLINE
  8
LAYER_1
 40
0.0847
 41
0.0847
 66
1
 10
0
 20
0
 30
0
  0
VERTEX
  8
LAYER_1
 10
105.8446
 20
223.8256
  0
VERTEX
  8
LAYER_1
 10
105.8446
 20
226.7096
  0
SEQEND
  0
POLYLINE
  8
LAYER_1
 40
0.0847
 41
0.0847
 66
1
 10
0
 20
0
 30
0
  0
VERTEX
  8
LAYER_1
 10
199.9568
 20
187.2339
  0
VERTEX
  8
LAYER_1
 10
206.7301
 20
187.2339
  0
SEQEND
  0
POLYLINE
  8
LAYER_1
 40
0.254
 41
0.254
 66
1
 10
0
 20
0
 30
0
  0
VERTEX
  8
LAYER_1
 10
16.9445
 20
187.2339
  0
VERTEX
  8
LAYER_1
 10
97.7483
 20
187.2339
  0
SEQEND
  0
POLYLINE
  8
LAYER_1
 40
0.254
 41
0.254
 66
1
 10
0
 20
0
 30
0
  0
VERTEX
  8
LAYER_1
 10
113.9408
 20
187.2339
  0
VERTEX
  8
LAYER_1
 10
194.7445
 20
187.2339
  0
SEQEND
  0
POLYLINE
  8
LAYER_1
 40
0.0847
 41
0.0847
 66
1
 10
0
 20
0
 30
0
  0
VERTEX
  8
LAYER_1
 10
194.7445
 20
187.2339
  0
VERTEX
  8
LAYER_1
 10
194.5064
 20
186.89
  0
SEQEND
  0
POLYLINE
  8
LAYER_1
 40
0.0847
 41
0.0847
 66
1
 10
0
 20
0
 30
0
  0
VERTEX
  8
LAYER_1
 10
18.532
 20
184.0589
  0
VERTEX
  8
LAYER_1
 10
18.5585
 20
183.715
  0
VERTEX
  8
LAYER_1
 10
18.532
 20
183.3975
  0
VERTEX
  8
LAYER_1
 10
18.3997
 20
182.8154
  0
VERTEX
  8
LAYER_1
 10
18.1881
 20
182.2598
  0
VERTEX
  8
LAYER_1
 10
17.897
 20
181.6777
  0
VERTEX
  8
LAYER_1
 10
17.5531
 20
181.0956
  0
VERTEX
  8
LAYER_1
 10
17.1827
 20
180.54
  0
VERTEX
  8
LAYER_1
 10
16.7329
 20
179.8785
  0
SEQEND
  0
POLYLINE
  8
LAYER_1
 40
0.0847
 41
0.0847
 66
1
 10
0
 20
0
 30
0
  0
VERTEX
  8
LAYER_1
 10
18.3997
 20
184.6146
  0
VERTEX
  8
LAYER_1
 10
18.532
 20
184.0589
  0
SEQEND
  0
POLYLINE
  8
LAYER_1
 40
0.0847
 41
0.0847
 66
1
 10
0
 20
0
 30
0
  0
VERTEX
  8
LAYER_1
 10
18.1881
 20
185.1966
  0
VERTEX
  8
LAYER_1
 10
18.3997
 20
184.6146
  0
SEQEND
  0
POLYLINE
  8
LAYER_1
 40
0.0847
 41
0.0847
 66
1
 10
0
 20
0
 30
0
  0
VERTEX
  8
LAYER_1
 10
17.897
 20
185.7523
  0
VERTEX
  8
LAYER_1
 10
18.1881
 20
185.1966
  0
SEQEND
  0
POLYLINE
  8
LAYER_1
 40
0.0847
 41
0.0847
 66
1
 10
0
 20
0
 30
0
  0
VERTEX
  8
LAYER_1
 10
17.5531
 20
186.3344
  0
VERTEX
  8
LAYER_1
 10
17.897
 20
185.7523
  0
SEQEND
  0
POLYLINE
  8
LAYER_1
 40
0.0847
 41
0.0847
 66
1
 10
0
 20
0
 30
0
  0
VERTEX
  8
LAYER_1
 10
17.1827
 20
186.89
  0
VERTEX
  8
LAYER_1
 10
17.5531
 20
186.3344
  0
SEQEND
  0
POLYLINE
  8
LAYER_1
 40
0.0847
 41
0.0847
 66
1
 10
0
 20
0
 30
0
  0
VERTEX
  8
LAYER_1
 10
16.9445
 20
187.234
  0
VERTEX
  8
LAYER_1
 10
17.1827
 20
186.89
  0
SEQEND
  0
POLYLINE
  8
LAYER_1
 40
0.0847
 41
0.0847
 66
1
 10
0
 20
0
 30
0
  0
VERTEX
  8
LAYER_1
 10
193.157
 20
184.059
  0
VERTEX
  8
LAYER_1
 10
193.1306
 20
183.715
  0
VERTEX
  8
LAYER_1
 10
193.157
 20
183.3975
  0
VERTEX
  8
LAYER_1
 10
193.2893
 20
182.8154
  0
VERTEX
  8
LAYER_1
 10
193.501
 20
182.2598
  0
VERTEX
  8
LAYER_1
 10
193.792
 20
181.6777
  0
VERTEX
  8
LAYER_1
 10
194.136
 20
181.0956
  0
VERTEX
  8
LAYER_1
 10
194.5064
 20
180.54
  0
VERTEX
  8
LAYER_1
 10
194.9562
 20
179.8785
  0
SEQEND
  0
POLYLINE
  8
LAYER_1
 40
0.0847
 41
0.0847
 66
1
 10
0
 20
0
 30
0
  0
VERTEX
  8
LAYER_1
 10
193.2893
 20
184.6146
  0
VERTEX
  8
LAYER_1
 10
193.157
 20
184.059
  0
SEQEND
  0
POLYLINE
  8
LAYER_1
 40
0.0847
 41
0.0847
 66
1
 10
0
 20
0
 30
0
  0
VERTEX
  8
LAYER_1
 10
193.501
 20
185.1967
  0
VERTEX
  8
LAYER_1
 10
193.2893
 20
184.6146
  0
SEQEND
  0
POLYLINE
  8
LAYER_1
 40
0.0847
 41
0.0847
 66
1
 10
0
 20
0
 30
0
  0
VERTEX
  8
LAYER_1
 10
193.792
 20
185.7523
  0
VERTEX
  8
LAYER_1
 10
193.501
 20
185.1967
  0
SEQEND
  0
POLYLINE
  8
LAYER_1
 40
0.0847
 41
0.0847
 66
1
 10
0
 20
0
 30
0
  0
VERTEX
  8
LAYER_1
 10
194.136
 20
186.3344
  0
VERTEX
  8
LAYER_1
 10
193.792
 20
185.7523
  0
SEQEND
  0
POLYLINE
  8
LAYER_1
 40
0.0847
 41
0.0847
 66
1
 10
0
 20
0
 30
0
  0
VERTEX
  8
LAYER_1
 10
194.5064
 20
186.89
  0
VERTEX
  8
LAYER_1
 10
194.136
 20
186.3344
  0
SEQEND
  0
POLYLINE
  8
LAYER_1
 40
0.0847
 41
0.0847
 66
1
 10
0
 20
0
 30
0
  0
VERTEX
  8
LAYER_1
 10
113.9408
 20
183.8473
  0
VERTEX
  8
LAYER_1
 10
117.3539
 20
187.234
  0
SEQEND
  0
POLYLINE
  8
LAYER_1
 40
0.0847
 41
0.0847
 66
1
 10
0
 20
0
 30
0
  0
VERTEX
  8
LAYER_1
 10
17.5531
 20
186.3608
  0
VERTEX
  8
LAYER_1
 10
18.4262
 20
187.234
  0
SEQEND
  0
POLYLINE
  8
LAYER_1
 40
0.0847
 41
0.0847
 66
1
 10
0
 20
0
 30
0
  0
VERTEX
  8
LAYER_1
 10
18.532
 20
183.8208
  0
VERTEX
  8
LAYER_1
 10
21.9452
 20
187.234
  0
SEQEND
  0
POLYLINE
  8
LAYER_1
 40
0.1905
 41
0.1905
 66
1
 10
0
 20
0
 30
0
  0
VERTEX
  8
LAYER_1
 10
99.0977
 20
187.2339
  0
VERTEX
  8
LAYER_1
 10
112.5914
 20
187.2339
  0
SEQEND
  0
POLYLINE
  8
LAYER_1
 40
0.1905
 41
0.1905
 66
1
 10
0
 20
0
 30
0
  0
VERTEX
  8
LAYER_1
 10
100.8704
 20
187.2339
  0
VERTEX
  8
LAYER_1
 10
100.8704
 20
187.7366
  0
SEQEND
  0
POLYLINE
  8
LAYER_1
 40
0.1905
 41
0.1905
 66
1
 10
0
 20
0
 30
0
  0
VERTEX
  8
LAYER_1
 10
110.8187
 20
187.2339
  0
VERTEX
  8
LAYER_1
 10
110.8187
 20
187.7366
  0
SEQEND
  0
POLYLINE
  8
LAYER_1
 40
0.1905
 41
0.1905
 66
1
 10
0
 20
0
 30
0
  0
VERTEX
  8
LAYER_1
 10
100.8704
 20
187.7366
  0
VERTEX
  8
LAYER_1
 10
110.8187
 20
187.7366
  0
SEQEND
  0
POLYLINE
  8
LAYER_1
 40
0.1905
 41
0.1905
 66
1
 10
0
 20
0
 30
0
  0
VERTEX
  8
LAYER_1
 10
99.0977
 20
183.4769
  0
VERTEX
  8
LAYER_1
 10
99.0977
 20
187.2339
  0
SEQEND
  0
POLYLINE
  8
LAYER_1
 40
0.1905
 41
0.1905
 66
1
 10
0
 20
0
 30
0
  0
VERTEX
  8
LAYER_1
 10
99.0977
 20
183.4769
  0
VERTEX
  8
LAYER_1
 10
112.5914
 20
183.4769
  0
VERTEX
  8
LAYER_1
 10
112.5914
 20
187.2339
  0
SEQEND
  0
POLYLINE
  8
LAYER_1
 40
0.1905
 41
0.1905
 66
1
 10
0
 20
0
 30
0
  0
VERTEX
  8
LAYER_1
 10
109.8397
 20
184.9321
  0
VERTEX
  8
LAYER_1
 10
109.8397
 20
185.1702
  0
SEQEND
  0
POLYLINE
  8
LAYER_1
 40
0.1693
 41
0.1693
 66
1
 10
0
 20
0
 30
0
  0
VERTEX
  8
LAYER_1
 10
90.2341
 20
192.4727
  0
VERTEX
  8
LAYER_1
 10
91.4777
 20
192.4727
  0
SEQEND
  0
POLYLINE
  8
LAYER_1
 40
0.1693
 41
0.1693
 66
1
 10
0
 20
0
 30
0
  0
VERTEX
  8
LAYER_1
 10
120.2114
 20
192.4727
  0
VERTEX
  8
LAYER_1
 10
121.455
 20
192.4727
  0
SEQEND
  0
POLYLINE
  8
LAYER_1
 40
0.1693
 41
0.1693
 66
1
 10
0
 20
0
 30
0
  0
VERTEX
  8
LAYER_1
 10
90.2341
 20
187.2339
  0
VERTEX
  8
LAYER_1
 10
90.2341
 20
192.4727
  0
SEQEND
  0
POLYLINE
  8
LAYER_1
 40
0.1693
 41
0.1693
 66
1
 10
0
 20
0
 30
0
  0
VERTEX
  8
LAYER_1
 10
90.2341
 20
187.2339
  0
VERTEX
  8
LAYER_1
 10
99.0977
 20
187.2339
  0
SEQEND
  0
POLYLINE
  8
LAYER_1
 40
0.1693
 41
0.1693
 66
1
 10
0
 20
0
 30
0
  0
VERTEX
  8
LAYER_1
 10
112.5914
 20
187.2339
  0
VERTEX
  8
LAYER_1
 10
121.455
 20
187.2339
  0
VERTEX
  8
LAYER_1
 10
121.455
 20
192.4727
  0
SEQEND
  0
POLYLINE
  8
LAYER_1
 40
0.0847
 41
0.0847
 66
1
 10
0
 20
0
 30
0
  0
VERTEX
  8
LAYER_1
 10
97.7748
 20
193.1606
  0
VERTEX
  8
LAYER_1
 10
113.9143
 20
193.1606
  0
SEQEND
  0
POLYLINE
  8
LAYER_1
 40
0.0847
 41
0.0847
 66
1
 10
0
 20
0
 30
0
  0
VERTEX
  8
LAYER_1
 10
101.8493
 20
184.9321
  0
VERTEX
  8
LAYER_1
 10
102.5108
 20
184.9321
  0
SEQEND
  0
POLYLINE
  8
LAYER_1
 40
0.0847
 41
0.0847
 66
1
 10
0
 20
0
 30
0
  0
VERTEX
  8
LAYER_1
 10
103.8337
 20
184.9321
  0
VERTEX
  8
LAYER_1
 10
105.1566
 20
184.9321
  0
SEQEND
  0
POLYLINE
  8
LAYER_1
 40
0.0847
 41
0.0847
 66
1
 10
0
 20
0
 30
0
  0
VERTEX
  8
LAYER_1
 10
106.506
 20
184.9321
  0
VERTEX
  8
LAYER_1
 10
107.8289
 20
184.9321
  0
SEQEND
  0
POLYLINE
  8
LAYER_1
 40
0.0847
 41
0.0847
 66
1
 10
0
 20
0
 30
0
  0
VERTEX
  8
LAYER_1
 10
109.1518
 20
184.9321
  0
VERTEX
  8
LAYER_1
 10
109.8397
 20
184.9321
  0
SEQEND
  0
POLYLINE
  8
LAYER_1
 40
0.0847
 41
0.0847
 66
1
 10
0
 20
0
 30
0
  0
VERTEX
  8
LAYER_1
 10
101.8493
 20
185.1702
  0
VERTEX
  8
LAYER_1
 10
102.5108
 20
185.1702
  0
SEQEND
  0
POLYLINE
  8
LAYER_1
 40
0.0847
 41
0.0847
 66
1
 10
0
 20
0
 30
0
  0
VERTEX
  8
LAYER_1
 10
103.8337
 20
185.1702
  0
VERTEX
  8
LAYER_1
 10
105.1566
 20
185.1702
  0
SEQEND
  0
POLYLINE
  8
LAYER_1
 40
0.0847
 41
0.0847
 66
1
 10
0
 20
0
 30
0
  0
VERTEX
  8
LAYER_1
 10
106.506
 20
185.1702
  0
VERTEX
  8
LAYER_1
 10
107.8289
 20
185.1702
  0
SEQEND
  0
POLYLINE
  8
LAYER_1
 40
0.0847
 41
0.0847
 66
1
 10
0
 20
0
 30
0
  0
VERTEX
  8
LAYER_1
 10
109.1518
 20
185.1702
  0
VERTEX
  8
LAYER_1
 10
109.8397
 20
185.1702
  0
SEQEND
  0
POLYLINE
  8
LAYER_1
 40
0.0847
 41
0.0847
 66
1
 10
0
 20
0
 30
0
  0
VERTEX
  8
LAYER_1
 10
110.5806
 20
187.7366
  0
VERTEX
  8
LAYER_1
 10
110.4218
 20
187.1016
  0
SEQEND
  0
POLYLINE
  8
LAYER_1
 40
0.0847
 41
0.0847
 66
1
 10
0
 20
0
 30
0
  0
VERTEX
  8
LAYER_1
 10
110.0514
 20
185.8316
  0
VERTEX
  8
LAYER_1
 10
109.8397
 20
185.1702
  0
SEQEND
  0
POLYLINE
  8
LAYER_1
 40
0.0847
 41
0.0847
 66
1
 10
0
 20
0
 30
0
  0
VERTEX
  8
LAYER_1
 10
112.3268
 20
183.4768
  0
VERTEX
  8
LAYER_1
 10
111.7183
 20
183.8208
  0
SEQEND
  0
POLYLINE
  8
LAYER_1
 40
0.0847
 41
0.0847
 66
1
 10
0
 20
0
 30
0
  0
VERTEX
  8
LAYER_1
 10
110.4747
 20
184.5616
  0
VERTEX
  8
LAYER_1
 10
109.8397
 20
184.932
  0
SEQEND
  0
POLYLINE
  8
LAYER_1
 40
0.0847
 41
0.0847
 66
1
 10
0
 20
0
 30
0
  0
VERTEX
  8
LAYER_1
 10
101.1085
 20
187.7366
  0
VERTEX
  8
LAYER_1
 10
101.2672
 20
187.1016
  0
SEQEND
  0
POLYLINE
  8
LAYER_1
 40
0.0847
 41
0.0847
 66
1
 10
0
 20
0
 30
0
  0
VERTEX
  8
LAYER_1
 10
101.6377
 20
185.8316
  0
VERTEX
  8
LAYER_1
 10
101.8493
 20
185.1702
  0
SEQEND
  0
POLYLINE
  8
LAYER_1
 40
0.0847
 41
0.0847
 66
1
 10
0
 20
0
 30
0
  0
VERTEX
  8
LAYER_1
 10
99.3622
 20
183.4768
  0
VERTEX
  8
LAYER_1
 10
99.9708
 20
183.8208
  0
SEQEND
  0
POLYLINE
  8
LAYER_1
 40
0.0847
 41
0.0847
 66
1
 10
0
 20
0
 30
0
  0
VERTEX
  8
LAYER_1
 10
101.2143
 20
184.5616
  0
VERTEX
  8
LAYER_1
 10
101.8493
 20
184.932
  0
VERTEX
  8
LAYER_1
 10
101.8493
 20
184.985
  0
SEQEND
  0
POLYLINE
  8
LAYER_1
 40
0.0847
 41
0.0847
 66
1
 10
0
 20
0
 30
0
  0
VERTEX
  8
LAYER_1
 10
101.8493
 20
185.0908
  0
VERTEX
  8
LAYER_1
 10
101.8493
 20
185.1702
  0
SEQEND
  0
POLYLINE
  8
LAYER_1
 40
0.0847
 41
0.0847
 66
1
 10
0
 20
0
 30
0
  0
VERTEX
  8
LAYER_1
 10
109.8397
 20
184.9321
  0
VERTEX
  8
LAYER_1
 10
109.8397
 20
184.985
  0
SEQEND
  0
POLYLINE
  8
LAYER_1
 40
0.0847
 41
0.0847
 66
1
 10
0
 20
0
 30
0
  0
VERTEX
  8
LAYER_1
 10
109.8397
 20
185.0908
  0
VERTEX
  8
LAYER_1
 10
109.8397
 20
185.1702
  0
SEQEND
  0
POLYLINE
  8
LAYER_1
 40
0.0847
 41
0.0847
 66
1
 10
0
 20
0
 30
0
  0
VERTEX
  8
LAYER_1
 10
97.7748
 20
193.1606
  0
VERTEX
  8
LAYER_1
 10
98.1452
 20
192.7637
  0
SEQEND
  0
POLYLINE
  8
LAYER_1
 40
0.0847
 41
0.0847
 66
1
 10
0
 20
0
 30
0
  0
VERTEX
  8
LAYER_1
 10
98.886
 20
191.9435
  0
VERTEX
  8
LAYER_1
 10
99.6268
 20
191.0968
  0
SEQEND
  0
POLYLINE
  8
LAYER_1
 40
0.0847
 41
0.0847
 66
1
 10
0
 20
0
 30
0
  0
VERTEX
  8
LAYER_1
 10
100.3677
 20
190.2766
  0
VERTEX
  8
LAYER_1
 10
100.7381
 20
189.8533
  0
VERTEX
  8
LAYER_1
 10
101.3731
 20
189.8533
  0
SEQEND
  0
POLYLINE
  8
LAYER_1
 40
0.0847
 41
0.0847
 66
1
 10
0
 20
0
 30
0
  0
VERTEX
  8
LAYER_1
 10
102.6431
 20
189.8533
  0
VERTEX
  8
LAYER_1
 10
103.9131
 20
189.8533
  0
SEQEND
  0
POLYLINE
  8
LAYER_1
 40
0.0847
 41
0.0847
 66
1
 10
0
 20
0
 30
0
  0
VERTEX
  8
LAYER_1
 10
105.1831
 20
189.8533
  0
VERTEX
  8
LAYER_1
 10
106.4795
 20
189.8533
  0
SEQEND
  0
POLYLINE
  8
LAYER_1
 40
0.0847
 41
0.0847
 66
1
 10
0
 20
0
 30
0
  0
VERTEX
  8
LAYER_1
 10
107.7495
 20
189.8533
  0
VERTEX
  8
LAYER_1
 10
109.0195
 20
189.8533
  0
SEQEND
  0
POLYLINE
  8
LAYER_1
 40
0.0847
 41
0.0847
 66
1
 10
0
 20
0
 30
0
  0
VERTEX
  8
LAYER_1
 10
110.2895
 20
189.8533
  0
VERTEX
  8
LAYER_1
 10
110.951
 20
189.8533
  0
VERTEX
  8
LAYER_1
 10
111.3214
 20
190.2501
  0
SEQEND
  0
POLYLINE
  8
LAYER_1
 40
0.0847
 41
0.0847
 66
1
 10
0
 20
0
 30
0
  0
VERTEX
  8
LAYER_1
 10
112.0622
 20
191.0704
  0
VERTEX
  8
LAYER_1
 10
112.8031
 20
191.917
  0
SEQEND
  0
POLYLINE
  8
LAYER_1
 40
0.0847
 41
0.0847
 66
1
 10
0
 20
0
 30
0
  0
VERTEX
  8
LAYER_1
 10
113.5439
 20
192.7373
  0
VERTEX
  8
LAYER_1
 10
113.9143
 20
193.1606
  0
SEQEND
  0
POLYLINE
  8
LAYER_1
 40
0.0847
 41
0.0847
 66
1
 10
0
 20
0
 30
0
  0
VERTEX
  8
LAYER_1
 10
110.951
 20
187.2339
  0
VERTEX
  8
LAYER_1
 10
110.951
 20
187.8689
  0
SEQEND
  0
POLYLINE
  8
LAYER_1
 40
0.0847
 41
0.0847
 66
1
 10
0
 20
0
 30
0
  0
VERTEX
  8
LAYER_1
 10
110.951
 20
189.1919
  0
VERTEX
  8
LAYER_1
 10
110.951
 20
189.8533
  0
SEQEND
  0
POLYLINE
  8
LAYER_1
 40
0.0847
 41
0.0847
 66
1
 10
0
 20
0
 30
0
  0
VERTEX
  8
LAYER_1
 10
100.7381
 20
187.2339
  0
VERTEX
  8
LAYER_1
 10
100.7381
 20
187.8689
  0
SEQEND
  0
POLYLINE
  8
LAYER_1
 40
0.0847
 41
0.0847
 66
1
 10
0
 20
0
 30
0
  0
VERTEX
  8
LAYER_1
 10
100.7381
 20
189.1919
  0
VERTEX
  8
LAYER_1
 10
100.7381
 20
189.8533
  0
SEQEND
  0
POLYLINE
  8
LAYER_1
 40
0.1905
 41
0.1905
 66
1
 10
0
 20
0
 30
0
  0
VERTEX
  8
LAYER_1
 10
110.951
 20
189.8533
  0
VERTEX
  8
LAYER_1
 10
113.9143
 20
193.1606
  0
SEQEND
  0
POLYLINE
  8
LAYER_1
 40
0.1905
 41
0.1905
 66
1
 10
0
 20
0
 30
0
  0
VERTEX
  8
LAYER_1
 10
97.7748
 20
193.1606
  0
VERTEX
  8
LAYER_1
 10
100.7381
 20
189.8533
  0
SEQEND
  0
POLYLINE
  8
LAYER_1
 40
0.1905
 41
0.1905
 66
1
 10
0
 20
0
 30
0
  0
VERTEX
  8
LAYER_1
 10
110.951
 20
187.2339
  0
VERTEX
  8
LAYER_1
 10
110.951
 20
189.8533
  0
SEQEND
  0
POLYLINE
  8
LAYER_1
 40
0.1905
 41
0.1905
 66
1
 10
0
 20
0
 30
0
  0
VERTEX
  8
LAYER_1
 10
100.7381
 20
189.8533
  0
VERTEX
  8
LAYER_1
 10
110.951
 20
189.8533
  0
SEQEND
  0
POLYLINE
  8
LAYER_1
 40
0.1905
 41
0.1905
 66
1
 10
0
 20
0
 30
0
  0
VERTEX
  8
LAYER_1
 10
100.7381
 20
187.2339
  0
VERTEX
  8
LAYER_1
 10
100.7381
 20
189.8533
  0
SEQEND
  0
POLYLINE
  8
LAYER_1
 40
0.1905
 41
0.1905
 66
1
 10
0
 20
0
 30
0
  0
VERTEX
  8
LAYER_1
 10
97.7748
 20
193.1606
  0
VERTEX
  8
LAYER_1
 10
113.9143
 20
193.1606
  0
SEQEND
  0
POLYLINE
  8
LAYER_1
 40
0.1905
 41
0.1905
 66
1
 10
0
 20
0
 30
0
  0
VERTEX
  8
LAYER_1
 10
143.9445
 20
220.2275
  0
VERTEX
  8
LAYER_1
 10
143.8122
 20
219.0898
  0
SEQEND
  0
POLYLINE
  8
LAYER_1
 40
0.1905
 41
0.1905
 66
1
 10
0
 20
0
 30
0
  0
VERTEX
  8
LAYER_1
 10
67.7445
 20
220.2275
  0
VERTEX
  8
LAYER_1
 10
143.9445
 20
220.2275
  0
SEQEND
  0
POLYLINE
  8
LAYER_1
 40
0.1905
 41
0.1905
 66
1
 10
0
 20
0
 30
0
  0
VERTEX
  8
LAYER_1
 10
67.7445
 20
220.2275
  0
VERTEX
  8
LAYER_1
 10
67.8768
 20
219.0898
  0
SEQEND
  0
POLYLINE
  8
LAYER_1
 40
0.1905
 41
0.1905
 66
1
 10
0
 20
0
 30
0
  0
VERTEX
  8
LAYER_1
 10
140.9283
 20
220.2275
  0
VERTEX
  8
LAYER_1
 10
140.8489
 20
219.4866
  0
SEQEND
  0
POLYLINE
  8
LAYER_1
 40
0.1905
 41
0.1905
 66
1
 10
0
 20
0
 30
0
  0
VERTEX
  8
LAYER_1
 10
117.1687
 20
194.9862
  0
VERTEX
  8
LAYER_1
 10
116.8777
 20
194.5893
  0
SEQEND
  0
POLYLINE
  8
LAYER_1
 40
0.1905
 41
0.1905
 66
1
 10
0
 20
0
 30
0
  0
VERTEX
  8
LAYER_1
 10
117.4862
 20
195.4096
  0
VERTEX
  8
LAYER_1
 10
117.1687
 20
194.9862
  0
SEQEND
  0
POLYLINE
  8
LAYER_1
 40
0.1905
 41
0.1905
 66
1
 10
0
 20
0
 30
0
  0
VERTEX
  8
LAYER_1
 10
117.8037
 20
195.8065
  0
VERTEX
  8
LAYER_1
 10
117.4862
 20
195.4096
  0
SEQEND
  0
POLYLINE
  8
LAYER_1
 40
0.1905
 41
0.1905
 66
1
 10
0
 20
0
 30
0
  0
VERTEX
  8
LAYER_1
 10
118.1477
 20
196.2033
  0
VERTEX
  8
LAYER_1
 10
117.8037
 20
195.8065
  0
SEQEND
  0
POLYLINE
  8
LAYER_1
 40
0.1905
 41
0.1905
 66
1
 10
0
 20
0
 30
0
  0
VERTEX
  8
LAYER_1
 10
118.4652
 20
196.6002
  0
VERTEX
  8
LAYER_1
 10
118.1477
 20
196.2033
  0
SEQEND
  0
POLYLINE
  8
LAYER_1
 40
0.1905
 41
0.1905
 66
1
 10
0
 20
0
 30
0
  0
VERTEX
  8
LAYER_1
 10
118.8091
 20
197.0236
  0
VERTEX
  8
LAYER_1
 10
118.4652
 20
196.6002
  0
SEQEND
  0
POLYLINE
  8
LAYER_1
 40
0.1905
 41
0.1905
 66
1
 10
0
 20
0
 30
0
  0
VERTEX
  8
LAYER_1
 10
119.1795
 20
197.4469
  0
VERTEX
  8
LAYER_1
 10
118.8091
 20
197.0236
  0
SEQEND
  0
POLYLINE
  8
LAYER_1
 40
0.1905
 41
0.1905
 66
1
 10
0
 20
0
 30
0
  0
VERTEX
  8
LAYER_1
 10
119.55
 20
197.8438
  0
VERTEX
  8
LAYER_1
 10
119.1795
 20
197.4469
  0
SEQEND
  0
POLYLINE
  8
LAYER_1
 40
0.1905
 41
0.1905
 66
1
 10
0
 20
0
 30
0
  0
VERTEX
  8
LAYER_1
 10
119.9204
 20
198.2671
  0
VERTEX
  8
LAYER_1
 10
119.5499
 20
197.8438
  0
SEQEND
  0
POLYLINE
  8
LAYER_1
 40
0.1905
 41
0.1905
 66
1
 10
0
 20
0
 30
0
  0
VERTEX
  8
LAYER_1
 10
120.2908
 20
198.6905
  0
VERTEX
  8
LAYER_1
 10
119.9204
 20
198.2671
  0
SEQEND
  0
POLYLINE
  8
LAYER_1
 40
0.1905
 41
0.1905
 66
1
 10
0
 20
0
 30
0
  0
VERTEX
  8
LAYER_1
 10
120.6877
 20
199.1138
  0
VERTEX
  8
LAYER_1
 10
120.2908
 20
198.6905
  0
SEQEND
  0
POLYLINE
  8
LAYER_1
 40
0.1905
 41
0.1905
 66
1
 10
0
 20
0
 30
0
  0
VERTEX
  8
LAYER_1
 10
121.0845
 20
199.5372
  0
VERTEX
  8
LAYER_1
 10
120.6877
 20
199.1138
  0
SEQEND
  0
POLYLINE
  8
LAYER_1
 40
0.1905
 41
0.1905
 66
1
 10
0
 20
0
 30
0
  0
VERTEX
  8
LAYER_1
 10
121.4814
 20
199.9605
  0
VERTEX
  8
LAYER_1
 10
121.0845
 20
199.5372
  0
SEQEND
  0
POLYLINE
  8
LAYER_1
 40
0.1905
 41
0.1905
 66
1
 10
0
 20
0
 30
0
  0
VERTEX
  8
LAYER_1
 10
122.4339
 20
200.7807
  0
VERTEX
  8
LAYER_1
 10
121.9047
 20
200.3574
  0
SEQEND
  0
POLYLINE
  8
LAYER_1
 40
0.1905
 41
0.1905
 66
1
 10
0
 20
0
 30
0
  0
VERTEX
  8
LAYER_1
 10
122.9895
 20
201.1512
  0
VERTEX
  8
LAYER_1
 10
122.4339
 20
200.7807
  0
SEQEND
  0
POLYLINE
  8
LAYER_1
 40
0.1905
 41
0.1905
 66
1
 10
0
 20
0
 30
0
  0
VERTEX
  8
LAYER_1
 10
123.5452
 20
201.4951
  0
VERTEX
  8
LAYER_1
 10
122.9895
 20
201.1512
  0
SEQEND
  0
POLYLINE
  8
LAYER_1
 40
0.1905
 41
0.1905
 66
1
 10
0
 20
0
 30
0
  0
VERTEX
  8
LAYER_1
 10
124.1273
 20
201.8391
  0
VERTEX
  8
LAYER_1
 10
123.5452
 20
201.4951
  0
SEQEND
  0
POLYLINE
  8
LAYER_1
 40
0.1905
 41
0.1905
 66
1
 10
0
 20
0
 30
0
  0
VERTEX
  8
LAYER_1
 10
124.7093
 20
202.1301
  0
VERTEX
  8
LAYER_1
 10
124.1273
 20
201.8391
  0
SEQEND
  0
POLYLINE
  8
LAYER_1
 40
0.1905
 41
0.1905
 66
1
 10
0
 20
0
 30
0
  0
VERTEX
  8
LAYER_1
 10
125.2914
 20
202.3947
  0
VERTEX
  8
LAYER_1
 10
124.7093
 20
202.1301
  0
SEQEND
  0
POLYLINE
  8
LAYER_1
 40
0.1905
 41
0.1905
 66
1
 10
0
 20
0
 30
0
  0
VERTEX
  8
LAYER_1
 10
125.9
 20
202.6593
  0
VERTEX
  8
LAYER_1
 10
125.2914
 20
202.3947
  0
SEQEND
  0
POLYLINE
  8
LAYER_1
 40
0.1905
 41
0.1905
 66
1
 10
0
 20
0
 30
0
  0
VERTEX
  8
LAYER_1
 10
126.5085
 20
202.8974
  0
VERTEX
  8
LAYER_1
 10
125.9
 20
202.6592
  0
SEQEND
  0
POLYLINE
  8
LAYER_1
 40
0.1905
 41
0.1905
 66
1
 10
0
 20
0
 30
0
  0
VERTEX
  8
LAYER_1
 10
127.1171
 20
203.1355
  0
VERTEX
  8
LAYER_1
 10
126.5085
 20
202.8974
  0
SEQEND
  0
POLYLINE
  8
LAYER_1
 40
0.1905
 41
0.1905
 66
1
 10
0
 20
0
 30
0
  0
VERTEX
  8
LAYER_1
 10
127.7256
 20
203.3736
  0
VERTEX
  8
LAYER_1
 10
127.1171
 20
203.1355
  0
SEQEND
  0
POLYLINE
  8
LAYER_1
 40
0.1905
 41
0.1905
 66
1
 10
0
 20
0
 30
0
  0
VERTEX
  8
LAYER_1
 10
128.3606
 20
203.5853
  0
VERTEX
  8
LAYER_1
 10
127.7256
 20
203.3736
  0
SEQEND
  0
POLYLINE
  8
LAYER_1
 40
0.1905
 41
0.1905
 66
1
 10
0
 20
0
 30
0
  0
VERTEX
  8
LAYER_1
 10
128.9691
 20
203.8234
  0
VERTEX
  8
LAYER_1
 10
128.3606
 20
203.5852
  0
SEQEND
  0
POLYLINE
  8
LAYER_1
 40
0.1905
 41
0.1905
 66
1
 10
0
 20
0
 30
0
  0
VERTEX
  8
LAYER_1
 10
129.5777
 20
204.0615
  0
VERTEX
  8
LAYER_1
 10
128.9691
 20
203.8234
  0
SEQEND
  0
POLYLINE
  8
LAYER_1
 40
0.1905
 41
0.1905
 66
1
 10
0
 20
0
 30
0
  0
VERTEX
  8
LAYER_1
 10
130.2127
 20
204.3261
  0
VERTEX
  8
LAYER_1
 10
129.5777
 20
204.0615
  0
SEQEND
  0
POLYLINE
  8
LAYER_1
 40
0.1905
 41
0.1905
 66
1
 10
0
 20
0
 30
0
  0
VERTEX
  8
LAYER_1
 10
130.8212
 20
204.5906
  0
VERTEX
  8
LAYER_1
 10
130.2127
 20
204.326
  0
SEQEND
  0
POLYLINE
  8
LAYER_1
 40
0.1905
 41
0.1905
 66
1
 10
0
 20
0
 30
0
  0
VERTEX
  8
LAYER_1
 10
131.4033
 20
204.8552
  0
VERTEX
  8
LAYER_1
 10
130.8212
 20
204.5906
  0
SEQEND
  0
POLYLINE
  8
LAYER_1
 40
0.1905
 41
0.1905
 66
1
 10
0
 20
0
 30
0
  0
VERTEX
  8
LAYER_1
 10
132.0119
 20
205.1727
  0
VERTEX
  8
LAYER_1
 10
131.4033
 20
204.8552
  0
SEQEND
  0
POLYLINE
  8
LAYER_1
 40
0.1905
 41
0.1905
 66
1
 10
0
 20
0
 30
0
  0
VERTEX
  8
LAYER_1
 10
132.594
 20
205.4637
  0
VERTEX
  8
LAYER_1
 10
132.0119
 20
205.1727
  0
SEQEND
  0
POLYLINE
  8
LAYER_1
 40
0.1905
 41
0.1905
 66
1
 10
0
 20
0
 30
0
  0
VERTEX
  8
LAYER_1
 10
133.176
 20
205.8077
  0
VERTEX
  8
LAYER_1
 10
132.594
 20
205.4637
  0
SEQEND
  0
POLYLINE
  8
LAYER_1
 40
0.1905
 41
0.1905
 66
1
 10
0
 20
0
 30
0
  0
VERTEX
  8
LAYER_1
 10
133.7317
 20
206.1781
  0
VERTEX
  8
LAYER_1
 10
133.176
 20
205.8077
  0
SEQEND
  0
POLYLINE
  8
LAYER_1
 40
0.1905
 41
0.1905
 66
1
 10
0
 20
0
 30
0
  0
VERTEX
  8
LAYER_1
 10
134.2873
 20
206.5486
  0
VERTEX
  8
LAYER_1
 10
133.7317
 20
206.1781
  0
SEQEND
  0
POLYLINE
  8
LAYER_1
 40
0.1905
 41
0.1905
 66
1
 10
0
 20
0
 30
0
  0
VERTEX
  8
LAYER_1
 10
134.8165
 20
206.9719
  0
VERTEX
  8
LAYER_1
 10
134.2873
 20
206.5486
  0
SEQEND
  0
POLYLINE
  8
LAYER_1
 40
0.1905
 41
0.1905
 66
1
 10
0
 20
0
 30
0
  0
VERTEX
  8
LAYER_1
 10
135.3456
 20
207.3953
  0
VERTEX
  8
LAYER_1
 10
134.8165
 20
206.9719
  0
SEQEND
  0
POLYLINE
  8
LAYER_1
 40
0.1905
 41
0.1905
 66
1
 10
0
 20
0
 30
0
  0
VERTEX
  8
LAYER_1
 10
135.8484
 20
207.8715
  0
VERTEX
  8
LAYER_1
 10
135.3456
 20
207.3953
  0
SEQEND
  0
POLYLINE
  8
LAYER_1
 40
0.1905
 41
0.1905
 66
1
 10
0
 20
0
 30
0
  0
VERTEX
  8
LAYER_1
 10
136.3246
 20
208.3742
  0
VERTEX
  8
LAYER_1
 10
135.8483
 20
207.8715
  0
SEQEND
  0
POLYLINE
  8
LAYER_1
 40
0.1905
 41
0.1905
 66
1
 10
0
 20
0
 30
0
  0
VERTEX
  8
LAYER_1
 10
136.8008
 20
208.9299
  0
VERTEX
  8
LAYER_1
 10
136.3246
 20
208.3742
  0
SEQEND
  0
POLYLINE
  8
LAYER_1
 40
0.1905
 41
0.1905
 66
1
 10
0
 20
0
 30
0
  0
VERTEX
  8
LAYER_1
 10
137.2506
 20
209.4855
  0
VERTEX
  8
LAYER_1
 10
136.8008
 20
208.9299
  0
SEQEND
  0
POLYLINE
  8
LAYER_1
 40
0.1905
 41
0.1905
 66
1
 10
0
 20
0
 30
0
  0
VERTEX
  8
LAYER_1
 10
137.674
 20
210.1205
  0
VERTEX
  8
LAYER_1
 10
137.2506
 20
209.4855
  0
SEQEND
  0
POLYLINE
  8
LAYER_1
 40
0.1905
 41
0.1905
 66
1
 10
0
 20
0
 30
0
  0
VERTEX
  8
LAYER_1
 10
138.0973
 20
210.7555
  0
VERTEX
  8
LAYER_1
 10
137.6739
 20
210.1205
  0
SEQEND
  0
POLYLINE
  8
LAYER_1
 40
0.1905
 41
0.1905
 66
1
 10
0
 20
0
 30
0
  0
VERTEX
  8
LAYER_1
 10
138.4677
 20
211.4699
  0
VERTEX
  8
LAYER_1
 10
138.0973
 20
210.7555
  0
SEQEND
  0
POLYLINE
  8
LAYER_1
 40
0.1905
 41
0.1905
 66
1
 10
0
 20
0
 30
0
  0
VERTEX
  8
LAYER_1
 10
138.8381
 20
212.2107
  0
VERTEX
  8
LAYER_1
 10
138.4677
 20
211.4698
  0
SEQEND
  0
POLYLINE
  8
LAYER_1
 40
0.1905
 41
0.1905
 66
1
 10
0
 20
0
 30
0
  0
VERTEX
  8
LAYER_1
 10
139.1821
 20
212.978
  0
VERTEX
  8
LAYER_1
 10
138.8381
 20
212.2107
  0
SEQEND
  0
POLYLINE
  8
LAYER_1
 40
0.1905
 41
0.1905
 66
1
 10
0
 20
0
 30
0
  0
VERTEX
  8
LAYER_1
 10
139.4996
 20
213.7982
  0
VERTEX
  8
LAYER_1
 10
139.1821
 20
212.9779
  0
SEQEND
  0
POLYLINE
  8
LAYER_1
 40
0.1905
 41
0.1905
 66
1
 10
0
 20
0
 30
0
  0
VERTEX
  8
LAYER_1
 10
139.7906
 20
214.6713
  0
VERTEX
  8
LAYER_1
 10
139.4996
 20
213.7982
  0
SEQEND
  0
POLYLINE
  8
LAYER_1
 40
0.1905
 41
0.1905
 66
1
 10
0
 20
0
 30
0
  0
VERTEX
  8
LAYER_1
 10
140.0552
 20
215.5709
  0
VERTEX
  8
LAYER_1
 10
139.7906
 20
214.6713
  0
SEQEND
  0
POLYLINE
  8
LAYER_1
 40
0.1905
 41
0.1905
 66
1
 10
0
 20
0
 30
0
  0
VERTEX
  8
LAYER_1
 10
140.2933
 20
216.4969
  0
VERTEX
  8
LAYER_1
 10
140.0552
 20
215.5708
  0
SEQEND
  0
POLYLINE
  8
LAYER_1
 40
0.1905
 41
0.1905
 66
1
 10
0
 20
0
 30
0
  0
VERTEX
  8
LAYER_1
 10
140.505
 20
217.4758
  0
VERTEX
  8
LAYER_1
 10
140.2933
 20
216.4969
  0
SEQEND
  0
POLYLINE
  8
LAYER_1
 40
0.1905
 41
0.1905
 66
1
 10
0
 20
0
 30
0
  0
VERTEX
  8
LAYER_1
 10
140.6902
 20
218.4813
  0
VERTEX
  8
LAYER_1
 10
140.505
 20
217.4758
  0
SEQEND
  0
POLYLINE
  8
LAYER_1
 40
0.1905
 41
0.1905
 66
1
 10
0
 20
0
 30
0
  0
VERTEX
  8
LAYER_1
 10
123.8627
 20
198.0819
  0
VERTEX
  8
LAYER_1
 10
123.5188
 20
197.7644
  0
SEQEND
  0
POLYLINE
  8
LAYER_1
 40
0.1905
 41
0.1905
 66
1
 10
0
 20
0
 30
0
  0
VERTEX
  8
LAYER_1
 10
124.2331
 20
198.3729
  0
VERTEX
  8
LAYER_1
 10
123.8627
 20
198.0819
  0
SEQEND
  0
POLYLINE
  8
LAYER_1
 40
0.1905
 41
0.1905
 66
1
 10
0
 20
0
 30
0
  0
VERTEX
  8
LAYER_1
 10
124.63
 20
198.664
  0
VERTEX
  8
LAYER_1
 10
124.2331
 20
198.3729
  0
SEQEND
  0
POLYLINE
  8
LAYER_1
 40
0.1905
 41
0.1905
 66
1
 10
0
 20
0
 30
0
  0
VERTEX
  8
LAYER_1
 10
125.0533
 20
198.9285
  0
VERTEX
  8
LAYER_1
 10
124.63
 20
198.6639
  0
SEQEND
  0
POLYLINE
  8
LAYER_1
 40
0.1905
 41
0.1905
 66
1
 10
0
 20
0
 30
0
  0
VERTEX
  8
LAYER_1
 10
125.5296
 20
199.1666
  0
VERTEX
  8
LAYER_1
 10
125.0533
 20
198.9285
  0
SEQEND
  0
POLYLINE
  8
LAYER_1
 40
0.1905
 41
0.1905
 66
1
 10
0
 20
0
 30
0
  0
VERTEX
  8
LAYER_1
 10
126.0058
 20
199.4312
  0
VERTEX
  8
LAYER_1
 10
125.5296
 20
199.1666
  0
SEQEND
  0
POLYLINE
  8
LAYER_1
 40
0.1905
 41
0.1905
 66
1
 10
0
 20
0
 30
0
  0
VERTEX
  8
LAYER_1
 10
126.5085
 20
199.6429
  0
VERTEX
  8
LAYER_1
 10
126.0058
 20
199.4312
  0
SEQEND
  0
POLYLINE
  8
LAYER_1
 40
0.1905
 41
0.1905
 66
1
 10
0
 20
0
 30
0
  0
VERTEX
  8
LAYER_1
 10
127.0377
 20
199.881
  0
VERTEX
  8
LAYER_1
 10
126.5085
 20
199.6428
  0
SEQEND
  0
POLYLINE
  8
LAYER_1
 40
0.1905
 41
0.1905
 66
1
 10
0
 20
0
 30
0
  0
VERTEX
  8
LAYER_1
 10
127.5933
 20
200.0926
  0
VERTEX
  8
LAYER_1
 10
127.0377
 20
199.881
  0
SEQEND
  0
POLYLINE
  8
LAYER_1
 40
0.1905
 41
0.1905
 66
1
 10
0
 20
0
 30
0
  0
VERTEX
  8
LAYER_1
 10
128.1754
 20
200.3308
  0
VERTEX
  8
LAYER_1
 10
127.5933
 20
200.0926
  0
SEQEND
  0
POLYLINE
  8
LAYER_1
 40
0.1905
 41
0.1905
 66
1
 10
0
 20
0
 30
0
  0
VERTEX
  8
LAYER_1
 10
128.784
 20
200.5689
  0
VERTEX
  8
LAYER_1
 10
128.1754
 20
200.3307
  0
SEQEND
  0
POLYLINE
  8
LAYER_1
 40
0.1905
 41
0.1905
 66
1
 10
0
 20
0
 30
0
  0
VERTEX
  8
LAYER_1
 10
129.419
 20
200.7805
  0
VERTEX
  8
LAYER_1
 10
128.784
 20
200.5688
  0
SEQEND
  0
POLYLINE
  8
LAYER_1
 40
0.1905
 41
0.1905
 66
1
 10
0
 20
0
 30
0
  0
VERTEX
  8
LAYER_1
 10
130.054
 20
201.0451
  0
VERTEX
  8
LAYER_1
 10
129.419
 20
200.7805
  0
SEQEND
  0
POLYLINE
  8
LAYER_1
 40
0.1905
 41
0.1905
 66
1
 10
0
 20
0
 30
0
  0
VERTEX
  8
LAYER_1
 10
130.689
 20
201.2832
  0
VERTEX
  8
LAYER_1
 10
130.054
 20
201.0451
  0
SEQEND
  0
POLYLINE
  8
LAYER_1
 40
0.1905
 41
0.1905
 66
1
 10
0
 20
0
 30
0
  0
VERTEX
  8
LAYER_1
 10
131.3504
 20
201.5478
  0
VERTEX
  8
LAYER_1
 10
130.689
 20
201.2832
  0
SEQEND
  0
POLYLINE
  8
LAYER_1
 40
0.1905
 41
0.1905
 66
1
 10
0
 20
0
 30
0
  0
VERTEX
  8
LAYER_1
 10
132.0384
 20
201.8388
  0
VERTEX
  8
LAYER_1
 10
131.3504
 20
201.5478
  0
SEQEND
  0
POLYLINE
  8
LAYER_1
 40
0.1905
 41
0.1905
 66
1
 10
0
 20
0
 30
0
  0
VERTEX
  8
LAYER_1
 10
132.6998
 20
202.1563
  0
VERTEX
  8
LAYER_1
 10
132.0384
 20
201.8388
  0
SEQEND
  0
POLYLINE
  8
LAYER_1
 40
0.1905
 41
0.1905
 66
1
 10
0
 20
0
 30
0
  0
VERTEX
  8
LAYER_1
 10
133.3877
 20
202.5003
  0
VERTEX
  8
LAYER_1
 10
132.6998
 20
202.1563
  0
SEQEND
  0
POLYLINE
  8
LAYER_1
 40
0.1905
 41
0.1905
 66
1
 10
0
 20
0
 30
0
  0
VERTEX
  8
LAYER_1
 10
134.0756
 20
202.8707
  0
VERTEX
  8
LAYER_1
 10
133.3877
 20
202.5003
  0
SEQEND
  0
POLYLINE
  8
LAYER_1
 40
0.1905
 41
0.1905
 66
1
 10
0
 20
0
 30
0
  0
VERTEX
  8
LAYER_1
 10
134.7371
 20
203.2411
  0
VERTEX
  8
LAYER_1
 10
134.0756
 20
202.8707
  0
SEQEND
  0
POLYLINE
  8
LAYER_1
 40
0.1905
 41
0.1905
 66
1
 10
0
 20
0
 30
0
  0
VERTEX
  8
LAYER_1
 10
135.3986
 20
203.6645
  0
VERTEX
  8
LAYER_1
 10
134.7371
 20
203.2411
  0
SEQEND
  0
POLYLINE
  8
LAYER_1
 40
0.1905
 41
0.1905
 66
1
 10
0
 20
0
 30
0
  0
VERTEX
  8
LAYER_1
 10
136.06
 20
204.1407
  0
VERTEX
  8
LAYER_1
 10
135.3986
 20
203.6645
  0
SEQEND
  0
POLYLINE
  8
LAYER_1
 40
0.1905
 41
0.1905
 66
1
 10
0
 20
0
 30
0
  0
VERTEX
  8
LAYER_1
 10
136.695
 20
204.6435
  0
VERTEX
  8
LAYER_1
 10
136.06
 20
204.1407
  0
SEQEND
  0
POLYLINE
  8
LAYER_1
 40
0.1905
 41
0.1905
 66
1
 10
0
 20
0
 30
0
  0
VERTEX
  8
LAYER_1
 10
137.33
 20
205.1726
  0
VERTEX
  8
LAYER_1
 10
136.695
 20
204.6435
  0
SEQEND
  0
POLYLINE
  8
LAYER_1
 40
0.1905
 41
0.1905
 66
1
 10
0
 20
0
 30
0
  0
VERTEX
  8
LAYER_1
 10
137.9386
 20
205.7283
  0
VERTEX
  8
LAYER_1
 10
137.33
 20
205.1726
  0
SEQEND
  0
POLYLINE
  8
LAYER_1
 40
0.1905
 41
0.1905
 66
1
 10
0
 20
0
 30
0
  0
VERTEX
  8
LAYER_1
 10
138.5471
 20
206.3633
  0
VERTEX
  8
LAYER_1
 10
137.9386
 20
205.7283
  0
SEQEND
  0
POLYLINE
  8
LAYER_1
 40
0.1905
 41
0.1905
 66
1
 10
0
 20
0
 30
0
  0
VERTEX
  8
LAYER_1
 10
139.1027
 20
207.0247
  0
VERTEX
  8
LAYER_1
 10
138.5471
 20
206.3633
  0
SEQEND
  0
POLYLINE
  8
LAYER_1
 40
0.1905
 41
0.1905
 66
1
 10
0
 20
0
 30
0
  0
VERTEX
  8
LAYER_1
 10
139.6584
 20
207.7126
  0
VERTEX
  8
LAYER_1
 10
139.1027
 20
207.0247
  0
SEQEND
  0
POLYLINE
  8
LAYER_1
 40
0.1905
 41
0.1905
 66
1
 10
0
 20
0
 30
0
  0
VERTEX
  8
LAYER_1
 10
140.1611
 20
208.4535
  0
VERTEX
  8
LAYER_1
 10
139.6584
 20
207.7126
  0
SEQEND
  0
POLYLINE
  8
LAYER_1
 40
0.1905
 41
0.1905
 66
1
 10
0
 20
0
 30
0
  0
VERTEX
  8
LAYER_1
 10
140.6638
 20
209.2472
  0
VERTEX
  8
LAYER_1
 10
140.1611
 20
208.4534
  0
SEQEND
  0
POLYLINE
  8
LAYER_1
 40
0.1905
 41
0.1905
 66
1
 10
0
 20
0
 30
0
  0
VERTEX
  8
LAYER_1
 10
141.14
 20
210.0674
  0
VERTEX
  8
LAYER_1
 10
140.6638
 20
209.2472
  0
SEQEND
  0
POLYLINE
  8
LAYER_1
 40
0.1905
 41
0.1905
 66
1
 10
0
 20
0
 30
0
  0
VERTEX
  8
LAYER_1
 10
141.5634
 20
210.9405
  0
VERTEX
  8
LAYER_1
 10
141.14
 20
210.0674
  0
SEQEND
  0
POLYLINE
  8
LAYER_1
 40
0.1905
 41
0.1905
 66
1
 10
0
 20
0
 30
0
  0
VERTEX
  8
LAYER_1
 10
141.9602
 20
211.8401
  0
VERTEX
  8
LAYER_1
 10
141.5634
 20
210.9405
  0
SEQEND
  0
POLYLINE
  8
LAYER_1
 40
0.1905
 41
0.1905
 66
1
 10
0
 20
0
 30
0
  0
VERTEX
  8
LAYER_1
 10
142.3307
 20
212.7926
  0
VERTEX
  8
LAYER_1
 10
141.9602
 20
211.8401
  0
SEQEND
  0
POLYLINE
  8
LAYER_1
 40
0.1905
 41
0.1905
 66
1
 10
0
 20
0
 30
0
  0
VERTEX
  8
LAYER_1
 10
142.6482
 20
213.7715
  0
VERTEX
  8
LAYER_1
 10
142.3307
 20
212.7926
  0
SEQEND
  0
POLYLINE
  8
LAYER_1
 40
0.1905
 41
0.1905
 66
1
 10
0
 20
0
 30
0
  0
VERTEX
  8
LAYER_1
 10
142.9657
 20
214.777
  0
VERTEX
  8
LAYER_1
 10
142.6482
 20
213.7715
  0
SEQEND
  0
POLYLINE
  8
LAYER_1
 40
0.1905
 41
0.1905
 66
1
 10
0
 20
0
 30
0
  0
VERTEX
  8
LAYER_1
 10
143.2302
 20
215.8353
  0
VERTEX
  8
LAYER_1
 10
142.9657
 20
214.777
  0
SEQEND
  0
POLYLINE
  8
LAYER_1
 40
0.1905
 41
0.1905
 66
1
 10
0
 20
0
 30
0
  0
VERTEX
  8
LAYER_1
 10
143.4419
 20
216.8936
  0
VERTEX
  8
LAYER_1
 10
143.2302
 20
215.8353
  0
SEQEND
  0
POLYLINE
  8
LAYER_1
 40
0.1905
 41
0.1905
 66
1
 10
0
 20
0
 30
0
  0
VERTEX
  8
LAYER_1
 10
143.6536
 20
217.9785
  0
VERTEX
  8
LAYER_1
 10
143.4419
 20
216.8936
  0
SEQEND
  0
POLYLINE
  8
LAYER_1
 40
0.1905
 41
0.1905
 66
1
 10
0
 20
0
 30
0
  0
VERTEX
  8
LAYER_1
 10
143.8123
 20
219.0897
  0
VERTEX
  8
LAYER_1
 10
143.6536
 20
217.9785
  0
SEQEND
  0
POLYLINE
  8
LAYER_1
 40
0.1905
 41
0.1905
 66
1
 10
0
 20
0
 30
0
  0
VERTEX
  8
LAYER_1
 10
120.3702
 20
193.2399
  0
VERTEX
  8
LAYER_1
 10
120.2115
 20
192.4726
  0
SEQEND
  0
POLYLINE
  8
LAYER_1
 40
0.1905
 41
0.1905
 66
1
 10
0
 20
0
 30
0
  0
VERTEX
  8
LAYER_1
 10
120.873
 20
194.5893
  0
VERTEX
  8
LAYER_1
 10
120.6084
 20
193.9278
  0
SEQEND
  0
POLYLINE
  8
LAYER_1
 40
0.1905
 41
0.1905
 66
1
 10
0
 20
0
 30
0
  0
VERTEX
  8
LAYER_1
 10
121.2169
 20
195.1978
  0
VERTEX
  8
LAYER_1
 10
120.8729
 20
194.5893
  0
SEQEND
  0
POLYLINE
  8
LAYER_1
 40
0.1905
 41
0.1905
 66
1
 10
0
 20
0
 30
0
  0
VERTEX
  8
LAYER_1
 10
121.5873
 20
195.7799
  0
VERTEX
  8
LAYER_1
 10
121.2169
 20
195.1978
  0
SEQEND
  0
POLYLINE
  8
LAYER_1
 40
0.1905
 41
0.1905
 66
1
 10
0
 20
0
 30
0
  0
VERTEX
  8
LAYER_1
 10
122.0107
 20
196.3091
  0
VERTEX
  8
LAYER_1
 10
121.5873
 20
195.7799
  0
SEQEND
  0
POLYLINE
  8
LAYER_1
 40
0.1905
 41
0.1905
 66
1
 10
0
 20
0
 30
0
  0
VERTEX
  8
LAYER_1
 10
122.4604
 20
196.8118
  0
VERTEX
  8
LAYER_1
 10
122.0106
 20
196.3091
  0
SEQEND
  0
POLYLINE
  8
LAYER_1
 40
0.1905
 41
0.1905
 66
1
 10
0
 20
0
 30
0
  0
VERTEX
  8
LAYER_1
 10
122.9896
 20
197.2881
  0
VERTEX
  8
LAYER_1
 10
122.4604
 20
196.8118
  0
SEQEND
  0
POLYLINE
  8
LAYER_1
 40
0.1905
 41
0.1905
 66
1
 10
0
 20
0
 30
0
  0
VERTEX
  8
LAYER_1
 10
123.5188
 20
197.7643
  0
VERTEX
  8
LAYER_1
 10
122.9896
 20
197.2881
  0
SEQEND
  0
POLYLINE
  8
LAYER_1
 40
0.1905
 41
0.1905
 66
1
 10
0
 20
0
 30
0
  0
VERTEX
  8
LAYER_1
 10
120.6084
 20
193.9279
  0
VERTEX
  8
LAYER_1
 10
120.3702
 20
193.2399
  0
SEQEND
  0
POLYLINE
  8
LAYER_1
 40
0.1905
 41
0.1905
 66
1
 10
0
 20
0
 30
0
  0
VERTEX
  8
LAYER_1
 10
120.2115
 20
192.4727
  0
VERTEX
  8
LAYER_1
 10
121.455
 20
192.4727
  0
SEQEND
  0
POLYLINE
  8
LAYER_1
 40
0.1905
 41
0.1905
 66
1
 10
0
 20
0
 30
0
  0
VERTEX
  8
LAYER_1
 10
121.9048
 20
200.3572
  0
VERTEX
  8
LAYER_1
 10
121.4815
 20
199.9604
  0
SEQEND
  0
POLYLINE
  8
LAYER_1
 40
0.1905
 41
0.1905
 66
1
 10
0
 20
0
 30
0
  0
VERTEX
  8
LAYER_1
 10
140.849
 20
219.4866
  0
VERTEX
  8
LAYER_1
 10
140.6902
 20
218.4812
  0
SEQEND
  0
POLYLINE
  8
LAYER_1
 40
0.1905
 41
0.1905
 66
1
 10
0
 20
0
 30
0
  0
VERTEX
  8
LAYER_1
 10
121.455
 20
187.2339
  0
VERTEX
  8
LAYER_1
 10
121.455
 20
192.4726
  0
SEQEND
  0
POLYLINE
  8
LAYER_1
 40
0.1905
 41
0.1905
 66
1
 10
0
 20
0
 30
0
  0
VERTEX
  8
LAYER_1
 10
113.8879
 20
193.1341
  0
VERTEX
  8
LAYER_1
 10
113.9144
 20
193.1341
 42
0.1446919196
  0
VERTEX
  8
LAYER_1
 10
115.9486
 20
193.748
 42
0.08115742739
  0
VERTEX
  8
LAYER_1
 10
116.8777
 20
194.5893
  0
SEQEND
  0
POLYLINE
  8
LAYER_1
 40
0.1905
 41
0.1905
 66
1
 10
0
 20
0
 30
0
  0
VERTEX
  8
LAYER_1
 10
70.7609
 20
220.2275
  0
VERTEX
  8
LAYER_1
 10
70.8402
 20
219.4866
  0
SEQEND
  0
POLYLINE
  8
LAYER_1
 40
0.1905
 41
0.1905
 66
1
 10
0
 20
0
 30
0
  0
VERTEX
  8
LAYER_1
 10
94.5204
 20
194.9862
  0
VERTEX
  8
LAYER_1
 10
94.8115
 20
194.5893
  0
SEQEND
  0
POLYLINE
  8
LAYER_1
 40
0.1905
 41
0.1905
 66
1
 10
0
 20
0
 30
0
  0
VERTEX
  8
LAYER_1
 10
94.2029
 20
195.4095
  0
VERTEX
  8
LAYER_1
 10
94.5204
 20
194.9862
  0
SEQEND
  0
POLYLINE
  8
LAYER_1
 40
0.1905
 41
0.1905
 66
1
 10
0
 20
0
 30
0
  0
VERTEX
  8
LAYER_1
 10
93.8854
 20
195.8064
  0
VERTEX
  8
LAYER_1
 10
94.2029
 20
195.4095
  0
SEQEND
  0
POLYLINE
  8
LAYER_1
 40
0.1905
 41
0.1905
 66
1
 10
0
 20
0
 30
0
  0
VERTEX
  8
LAYER_1
 10
93.5415
 20
196.2033
  0
VERTEX
  8
LAYER_1
 10
93.8854
 20
195.8064
  0
SEQEND
  0
POLYLINE
  8
LAYER_1
 40
0.1905
 41
0.1905
 66
1
 10
0
 20
0
 30
0
  0
VERTEX
  8
LAYER_1
 10
93.224
 20
196.6002
  0
VERTEX
  8
LAYER_1
 10
93.5415
 20
196.2033
  0
SEQEND
  0
POLYLINE
  8
LAYER_1
 40
0.1905
 41
0.1905
 66
1
 10
0
 20
0
 30
0
  0
VERTEX
  8
LAYER_1
 10
92.88
 20
197.0236
  0
VERTEX
  8
LAYER_1
 10
93.224
 20
196.6002
  0
SEQEND
  0
POLYLINE
  8
LAYER_1
 40
0.1905
 41
0.1905
 66
1
 10
0
 20
0
 30
0
  0
VERTEX
  8
LAYER_1
 10
92.5096
 20
197.4469
  0
VERTEX
  8
LAYER_1
 10
92.88
 20
197.0236
  0
SEQEND
  0
POLYLINE
  8
LAYER_1
 40
0.1905
 41
0.1905
 66
1
 10
0
 20
0
 30
0
  0
VERTEX
  8
LAYER_1
 10
92.1392
 20
197.8438
  0
VERTEX
  8
LAYER_1
 10
92.5096
 20
197.4469
  0
SEQEND
  0
POLYLINE
  8
LAYER_1
 40
0.1905
 41
0.1905
 66
1
 10
0
 20
0
 30
0
  0
VERTEX
  8
LAYER_1
 10
91.7688
 20
198.2671
  0
VERTEX
  8
LAYER_1
 10
92.1392
 20
197.8438
  0
SEQEND
  0
POLYLINE
  8
LAYER_1
 40
0.1905
 41
0.1905
 66
1
 10
0
 20
0
 30
0
  0
VERTEX
  8
LAYER_1
 10
91.3984
 20
198.6905
  0
VERTEX
  8
LAYER_1
 10
91.7688
 20
198.2671
  0
SEQEND
  0
POLYLINE
  8
LAYER_1
 40
0.1905
 41
0.1905
 66
1
 10
0
 20
0
 30
0
  0
VERTEX
  8
LAYER_1
 10
91.0015
 20
199.1138
  0
VERTEX
  8
LAYER_1
 10
91.3984
 20
198.6905
  0
SEQEND
  0
POLYLINE
  8
LAYER_1
 40
0.1905
 41
0.1905
 66
1
 10
0
 20
0
 30
0
  0
VERTEX
  8
LAYER_1
 10
90.6046
 20
199.5372
  0
VERTEX
  8
LAYER_1
 10
91.0015
 20
199.1138
  0
SEQEND
  0
POLYLINE
  8
LAYER_1
 40
0.1905
 41
0.1905
 66
1
 10
0
 20
0
 30
0
  0
VERTEX
  8
LAYER_1
 10
90.2077
 20
199.9605
  0
VERTEX
  8
LAYER_1
 10
90.6046
 20
199.5372
  0
SEQEND
  0
POLYLINE
  8
LAYER_1
 40
0.1905
 41
0.1905
 66
1
 10
0
 20
0
 30
0
  0
VERTEX
  8
LAYER_1
 10
89.2552
 20
200.7807
  0
VERTEX
  8
LAYER_1
 10
89.7844
 20
200.3574
  0
SEQEND
  0
POLYLINE
  8
LAYER_1
 40
0.1905
 41
0.1905
 66
1
 10
0
 20
0
 30
0
  0
VERTEX
  8
LAYER_1
 10
88.6996
 20
201.1511
  0
VERTEX
  8
LAYER_1
 10
89.2552
 20
200.7807
  0
SEQEND
  0
POLYLINE
  8
LAYER_1
 40
0.1905
 41
0.1905
 66
1
 10
0
 20
0
 30
0
  0
VERTEX
  8
LAYER_1
 10
88.144
 20
201.4951
  0
VERTEX
  8
LAYER_1
 10
88.6996
 20
201.1511
  0
SEQEND
  0
POLYLINE
  8
LAYER_1
 40
0.1905
 41
0.1905
 66
1
 10
0
 20
0
 30
0
  0
VERTEX
  8
LAYER_1
 10
87.5619
 20
201.8391
  0
VERTEX
  8
LAYER_1
 10
88.144
 20
201.4951
  0
SEQEND
  0
POLYLINE
  8
LAYER_1
 40
0.1905
 41
0.1905
 66
1
 10
0
 20
0
 30
0
  0
VERTEX
  8
LAYER_1
 10
86.9798
 20
202.1301
  0
VERTEX
  8
LAYER_1
 10
87.5619
 20
201.839
  0
SEQEND
  0
POLYLINE
  8
LAYER_1
 40
0.1905
 41
0.1905
 66
1
 10
0
 20
0
 30
0
  0
VERTEX
  8
LAYER_1
 10
86.3977
 20
202.3947
  0
VERTEX
  8
LAYER_1
 10
86.9798
 20
202.1301
  0
SEQEND
  0
POLYLINE
  8
LAYER_1
 40
0.1905
 41
0.1905
 66
1
 10
0
 20
0
 30
0
  0
VERTEX
  8
LAYER_1
 10
85.7892
 20
202.6592
  0
VERTEX
  8
LAYER_1
 10
86.3977
 20
202.3946
  0
SEQEND
  0
POLYLINE
  8
LAYER_1
 40
0.1905
 41
0.1905
 66
1
 10
0
 20
0
 30
0
  0
VERTEX
  8
LAYER_1
 10
85.1806
 20
202.8974
  0
VERTEX
  8
LAYER_1
 10
85.7892
 20
202.6592
  0
SEQEND
  0
POLYLINE
  8
LAYER_1
 40
0.1905
 41
0.1905
 66
1
 10
0
 20
0
 30
0
  0
VERTEX
  8
LAYER_1
 10
84.5721
 20
203.1355
  0
VERTEX
  8
LAYER_1
 10
85.1806
 20
202.8973
  0
SEQEND
  0
POLYLINE
  8
LAYER_1
 40
0.1905
 41
0.1905
 66
1
 10
0
 20
0
 30
0
  0
VERTEX
  8
LAYER_1
 10
83.9636
 20
203.3736
  0
VERTEX
  8
LAYER_1
 10
84.5721
 20
203.1354
  0
SEQEND
  0
POLYLINE
  8
LAYER_1
 40
0.1905
 41
0.1905
 66
1
 10
0
 20
0
 30
0
  0
VERTEX
  8
LAYER_1
 10
83.3286
 20
203.5852
  0
VERTEX
  8
LAYER_1
 10
83.9635
 20
203.3736
  0
SEQEND
  0
POLYLINE
  8
LAYER_1
 40
0.1905
 41
0.1905
 66
1
 10
0
 20
0
 30
0
  0
VERTEX
  8
LAYER_1
 10
82.72
 20
203.8234
  0
VERTEX
  8
LAYER_1
 10
83.3285
 20
203.5852
  0
SEQEND
  0
POLYLINE
  8
LAYER_1
 40
0.1905
 41
0.1905
 66
1
 10
0
 20
0
 30
0
  0
VERTEX
  8
LAYER_1
 10
82.1115
 20
204.0615
  0
VERTEX
  8
LAYER_1
 10
82.72
 20
203.8233
  0
SEQEND
  0
POLYLINE
  8
LAYER_1
 40
0.1905
 41
0.1905
 66
1
 10
0
 20
0
 30
0
  0
VERTEX
  8
LAYER_1
 10
81.4765
 20
204.326
  0
VERTEX
  8
LAYER_1
 10
82.1115
 20
204.0614
  0
SEQEND
  0
POLYLINE
  8
LAYER_1
 40
0.1905
 41
0.1905
 66
1
 10
0
 20
0
 30
0
  0
VERTEX
  8
LAYER_1
 10
80.8679
 20
204.5906
  0
VERTEX
  8
LAYER_1
 10
81.4765
 20
204.326
  0
SEQEND
  0
POLYLINE
  8
LAYER_1
 40
0.1905
 41
0.1905
 66
1
 10
0
 20
0
 30
0
  0
VERTEX
  8
LAYER_1
 10
80.2858
 20
204.8552
  0
VERTEX
  8
LAYER_1
 10
80.8679
 20
204.5906
  0
SEQEND
  0
POLYLINE
  8
LAYER_1
 40
0.1905
 41
0.1905
 66
1
 10
0
 20
0
 30
0
  0
VERTEX
  8
LAYER_1
 10
79.6773
 20
205.1727
  0
VERTEX
  8
LAYER_1
 10
80.2858
 20
204.8552
  0
SEQEND
  0
POLYLINE
  8
LAYER_1
 40
0.1905
 41
0.1905
 66
1
 10
0
 20
0
 30
0
  0
VERTEX
  8
LAYER_1
 10
79.0952
 20
205.4637
  0
VERTEX
  8
LAYER_1
 10
79.6773
 20
205.1727
  0
SEQEND
  0
POLYLINE
  8
LAYER_1
 40
0.1905
 41
0.1905
 66
1
 10
0
 20
0
 30
0
  0
VERTEX
  8
LAYER_1
 10
78.5131
 20
205.8077
  0
VERTEX
  8
LAYER_1
 10
79.0952
 20
205.4637
  0
SEQEND
  0
POLYLINE
  8
LAYER_1
 40
0.1905
 41
0.1905
 66
1
 10
0
 20
0
 30
0
  0
VERTEX
  8
LAYER_1
 10
77.9575
 20
206.1781
  0
VERTEX
  8
LAYER_1
 10
78.5131
 20
205.8077
  0
SEQEND
  0
POLYLINE
  8
LAYER_1
 40
0.1905
 41
0.1905
 66
1
 10
0
 20
0
 30
0
  0
VERTEX
  8
LAYER_1
 10
77.4019
 20
206.5485
  0
VERTEX
  8
LAYER_1
 10
77.9575
 20
206.1781
  0
SEQEND
  0
POLYLINE
  8
LAYER_1
 40
0.1905
 41
0.1905
 66
1
 10
0
 20
0
 30
0
  0
VERTEX
  8
LAYER_1
 10
76.8727
 20
206.9719
  0
VERTEX
  8
LAYER_1
 10
77.4019
 20
206.5485
  0
SEQEND
  0
POLYLINE
  8
LAYER_1
 40
0.1905
 41
0.1905
 66
1
 10
0
 20
0
 30
0
  0
VERTEX
  8
LAYER_1
 10
76.3435
 20
207.3952
  0
VERTEX
  8
LAYER_1
 10
76.8727
 20
206.9719
  0
SEQEND
  0
POLYLINE
  8
LAYER_1
 40
0.1905
 41
0.1905
 66
1
 10
0
 20
0
 30
0
  0
VERTEX
  8
LAYER_1
 10
75.8408
 20
207.8715
  0
VERTEX
  8
LAYER_1
 10
76.3435
 20
207.3952
  0
SEQEND
  0
POLYLINE
  8
LAYER_1
 40
0.1905
 41
0.1905
 66
1
 10
0
 20
0
 30
0
  0
VERTEX
  8
LAYER_1
 10
75.3646
 20
208.3742
  0
VERTEX
  8
LAYER_1
 10
75.8408
 20
207.8715
  0
SEQEND
  0
POLYLINE
  8
LAYER_1
 40
0.1905
 41
0.1905
 66
1
 10
0
 20
0
 30
0
  0
VERTEX
  8
LAYER_1
 10
74.8883
 20
208.9298
  0
VERTEX
  8
LAYER_1
 10
75.3646
 20
208.3742
  0
SEQEND
  0
POLYLINE
  8
LAYER_1
 40
0.1905
 41
0.1905
 66
1
 10
0
 20
0
 30
0
  0
VERTEX
  8
LAYER_1
 10
74.4385
 20
209.4855
  0
VERTEX
  8
LAYER_1
 10
74.8883
 20
208.9298
  0
SEQEND
  0
POLYLINE
  8
LAYER_1
 40
0.1905
 41
0.1905
 66
1
 10
0
 20
0
 30
0
  0
VERTEX
  8
LAYER_1
 10
74.0152
 20
210.1205
  0
VERTEX
  8
LAYER_1
 10
74.4385
 20
209.4855
  0
SEQEND
  0
POLYLINE
  8
LAYER_1
 40
0.1905
 41
0.1905
 66
1
 10
0
 20
0
 30
0
  0
VERTEX
  8
LAYER_1
 10
73.5919
 20
210.7555
  0
VERTEX
  8
LAYER_1
 10
74.0152
 20
210.1205
  0
SEQEND
  0
POLYLINE
  8
LAYER_1
 40
0.1905
 41
0.1905
 66
1
 10
0
 20
0
 30
0
  0
VERTEX
  8
LAYER_1
 10
73.2214
 20
211.4698
  0
VERTEX
  8
LAYER_1
 10
73.5919
 20
210.7554
  0
SEQEND
  0
POLYLINE
  8
LAYER_1
 40
0.1905
 41
0.1905
 66
1
 10
0
 20
0
 30
0
  0
VERTEX
  8
LAYER_1
 10
72.851
 20
212.2107
  0
VERTEX
  8
LAYER_1
 10
73.2214
 20
211.4698
  0
SEQEND
  0
POLYLINE
  8
LAYER_1
 40
0.1905
 41
0.1905
 66
1
 10
0
 20
0
 30
0
  0
VERTEX
  8
LAYER_1
 10
72.5071
 20
212.9779
  0
VERTEX
  8
LAYER_1
 10
72.851
 20
212.2106
  0
SEQEND
  0
POLYLINE
  8
LAYER_1
 40
0.1905
 41
0.1905
 66
1
 10
0
 20
0
 30
0
  0
VERTEX
  8
LAYER_1
 10
72.1896
 20
213.7982
  0
VERTEX
  8
LAYER_1
 10
72.5071
 20
212.9779
  0
SEQEND
  0
POLYLINE
  8
LAYER_1
 40
0.1905
 41
0.1905
 66
1
 10
0
 20
0
 30
0
  0
VERTEX
  8
LAYER_1
 10
71.8985
 20
214.6713
  0
VERTEX
  8
LAYER_1
 10
72.1896
 20
213.7981
  0
SEQEND
  0
POLYLINE
  8
LAYER_1
 40
0.1905
 41
0.1905
 66
1
 10
0
 20
0
 30
0
  0
VERTEX
  8
LAYER_1
 10
71.6339
 20
215.5708
  0
VERTEX
  8
LAYER_1
 10
71.8985
 20
214.6712
  0
SEQEND
  0
POLYLINE
  8
LAYER_1
 40
0.1905
 41
0.1905
 66
1
 10
0
 20
0
 30
0
  0
VERTEX
  8
LAYER_1
 10
71.3958
 20
216.4969
  0
VERTEX
  8
LAYER_1
 10
71.6339
 20
215.5708
  0
SEQEND
  0
POLYLINE
  8
LAYER_1
 40
0.1905
 41
0.1905
 66
1
 10
0
 20
0
 30
0
  0
VERTEX
  8
LAYER_1
 10
71.1842
 20
217.4758
  0
VERTEX
  8
LAYER_1
 10
71.3958
 20
216.4968
  0
SEQEND
  0
POLYLINE
  8
LAYER_1
 40
0.1905
 41
0.1905
 66
1
 10
0
 20
0
 30
0
  0
VERTEX
  8
LAYER_1
 10
70.999
 20
218.4812
  0
VERTEX
  8
LAYER_1
 10
71.1842
 20
217.4758
  0
SEQEND
  0
POLYLINE
  8
LAYER_1
 40
0.1905
 41
0.1905
 66
1
 10
0
 20
0
 30
0
  0
VERTEX
  8
LAYER_1
 10
87.8264
 20
198.0819
  0
VERTEX
  8
LAYER_1
 10
88.1704
 20
197.7644
  0
SEQEND
  0
POLYLINE
  8
LAYER_1
 40
0.1905
 41
0.1905
 66
1
 10
0
 20
0
 30
0
  0
VERTEX
  8
LAYER_1
 10
87.456
 20
198.3729
  0
VERTEX
  8
LAYER_1
 10
87.8264
 20
198.0818
  0
SEQEND
  0
POLYLINE
  8
LAYER_1
 40
0.1905
 41
0.1905
 66
1
 10
0
 20
0
 30
0
  0
VERTEX
  8
LAYER_1
 10
87.0592
 20
198.6639
  0
VERTEX
  8
LAYER_1
 10
87.456
 20
198.3729
  0
SEQEND
  0
POLYLINE
  8
LAYER_1
 40
0.1905
 41
0.1905
 66
1
 10
0
 20
0
 30
0
  0
VERTEX
  8
LAYER_1
 10
86.6358
 20
198.9285
  0
VERTEX
  8
LAYER_1
 10
87.0592
 20
198.6639
  0
SEQEND
  0
POLYLINE
  8
LAYER_1
 40
0.1905
 41
0.1905
 66
1
 10
0
 20
0
 30
0
  0
VERTEX
  8
LAYER_1
 10
86.1596
 20
199.1666
  0
VERTEX
  8
LAYER_1
 10
86.6358
 20
198.9285
  0
SEQEND
  0
POLYLINE
  8
LAYER_1
 40
0.1905
 41
0.1905
 66
1
 10
0
 20
0
 30
0
  0
VERTEX
  8
LAYER_1
 10
85.6833
 20
199.4312
  0
VERTEX
  8
LAYER_1
 10
86.1596
 20
199.1666
  0
SEQEND
  0
POLYLINE
  8
LAYER_1
 40
0.1905
 41
0.1905
 66
1
 10
0
 20
0
 30
0
  0
VERTEX
  8
LAYER_1
 10
85.1806
 20
199.6428
  0
VERTEX
  8
LAYER_1
 10
85.6833
 20
199.4312
  0
SEQEND
  0
POLYLINE
  8
LAYER_1
 40
0.1905
 41
0.1905
 66
1
 10
0
 20
0
 30
0
  0
VERTEX
  8
LAYER_1
 10
84.6514
 20
199.881
  0
VERTEX
  8
LAYER_1
 10
85.1806
 20
199.6428
  0
SEQEND
  0
POLYLINE
  8
LAYER_1
 40
0.1905
 41
0.1905
 66
1
 10
0
 20
0
 30
0
  0
VERTEX
  8
LAYER_1
 10
84.0958
 20
200.0926
  0
VERTEX
  8
LAYER_1
 10
84.6514
 20
199.8809
  0
SEQEND
  0
POLYLINE
  8
LAYER_1
 40
0.1905
 41
0.1905
 66
1
 10
0
 20
0
 30
0
  0
VERTEX
  8
LAYER_1
 10
83.5137
 20
200.3307
  0
VERTEX
  8
LAYER_1
 10
84.0958
 20
200.0926
  0
SEQEND
  0
POLYLINE
  8
LAYER_1
 40
0.1905
 41
0.1905
 66
1
 10
0
 20
0
 30
0
  0
VERTEX
  8
LAYER_1
 10
82.9052
 20
200.5688
  0
VERTEX
  8
LAYER_1
 10
83.5137
 20
200.3307
  0
SEQEND
  0
POLYLINE
  8
LAYER_1
 40
0.1905
 41
0.1905
 66
1
 10
0
 20
0
 30
0
  0
VERTEX
  8
LAYER_1
 10
82.2702
 20
200.7805
  0
VERTEX
  8
LAYER_1
 10
82.9052
 20
200.5688
  0
SEQEND
  0
POLYLINE
  8
LAYER_1
 40
0.1905
 41
0.1905
 66
1
 10
0
 20
0
 30
0
  0
VERTEX
  8
LAYER_1
 10
81.6352
 20
201.0451
  0
VERTEX
  8
LAYER_1
 10
82.2702
 20
200.7805
  0
SEQEND
  0
POLYLINE
  8
LAYER_1
 40
0.1905
 41
0.1905
 66
1
 10
0
 20
0
 30
0
  0
VERTEX
  8
LAYER_1
 10
81.0002
 20
201.2832
  0
VERTEX
  8
LAYER_1
 10
81.6352
 20
201.0451
  0
SEQEND
  0
POLYLINE
  8
LAYER_1
 40
0.1905
 41
0.1905
 66
1
 10
0
 20
0
 30
0
  0
VERTEX
  8
LAYER_1
 10
80.3387
 20
201.5478
  0
VERTEX
  8
LAYER_1
 10
81.0002
 20
201.2832
  0
SEQEND
  0
POLYLINE
  8
LAYER_1
 40
0.1905
 41
0.1905
 66
1
 10
0
 20
0
 30
0
  0
VERTEX
  8
LAYER_1
 10
79.6508
 20
201.8388
  0
VERTEX
  8
LAYER_1
 10
80.3387
 20
201.5477
  0
SEQEND
  0
POLYLINE
  8
LAYER_1
 40
0.1905
 41
0.1905
 66
1
 10
0
 20
0
 30
0
  0
VERTEX
  8
LAYER_1
 10
78.9894
 20
202.1563
  0
VERTEX
  8
LAYER_1
 10
79.6508
 20
201.8388
  0
SEQEND
  0
POLYLINE
  8
LAYER_1
 40
0.1905
 41
0.1905
 66
1
 10
0
 20
0
 30
0
  0
VERTEX
  8
LAYER_1
 10
78.3014
 20
202.5003
  0
VERTEX
  8
LAYER_1
 10
78.9894
 20
202.1563
  0
SEQEND
  0
POLYLINE
  8
LAYER_1
 40
0.1905
 41
0.1905
 66
1
 10
0
 20
0
 30
0
  0
VERTEX
  8
LAYER_1
 10
77.6135
 20
202.8707
  0
VERTEX
  8
LAYER_1
 10
78.3014
 20
202.5003
  0
SEQEND
  0
POLYLINE
  8
LAYER_1
 40
0.1905
 41
0.1905
 66
1
 10
0
 20
0
 30
0
  0
VERTEX
  8
LAYER_1
 10
76.9521
 20
203.2411
  0
VERTEX
  8
LAYER_1
 10
77.6135
 20
202.8707
  0
SEQEND
  0
POLYLINE
  8
LAYER_1
 40
0.1905
 41
0.1905
 66
1
 10
0
 20
0
 30
0
  0
VERTEX
  8
LAYER_1
 10
76.2906
 20
203.6645
  0
VERTEX
  8
LAYER_1
 10
76.9521
 20
203.2411
  0
SEQEND
  0
POLYLINE
  8
LAYER_1
 40
0.1905
 41
0.1905
 66
1
 10
0
 20
0
 30
0
  0
VERTEX
  8
LAYER_1
 10
75.6292
 20
204.1407
  0
VERTEX
  8
LAYER_1
 10
76.2906
 20
203.6645
  0
SEQEND
  0
POLYLINE
  8
LAYER_1
 40
0.1905
 41
0.1905
 66
1
 10
0
 20
0
 30
0
  0
VERTEX
  8
LAYER_1
 10
74.9942
 20
204.6434
  0
VERTEX
  8
LAYER_1
 10
75.6291
 20
204.1407
  0
SEQEND
  0
POLYLINE
  8
LAYER_1
 40
0.1905
 41
0.1905
 66
1
 10
0
 20
0
 30
0
  0
VERTEX
  8
LAYER_1
 10
74.3592
 20
205.1726
  0
VERTEX
  8
LAYER_1
 10
74.9941
 20
204.6434
  0
SEQEND
  0
POLYLINE
  8
LAYER_1
 40
0.1905
 41
0.1905
 66
1
 10
0
 20
0
 30
0
  0
VERTEX
  8
LAYER_1
 10
73.7506
 20
205.7282
  0
VERTEX
  8
LAYER_1
 10
74.3591
 20
205.1726
  0
SEQEND
  0
POLYLINE
  8
LAYER_1
 40
0.1905
 41
0.1905
 66
1
 10
0
 20
0
 30
0
  0
VERTEX
  8
LAYER_1
 10
73.1421
 20
206.3632
  0
VERTEX
  8
LAYER_1
 10
73.7506
 20
205.7282
  0
SEQEND
  0
POLYLINE
  8
LAYER_1
 40
0.1905
 41
0.1905
 66
1
 10
0
 20
0
 30
0
  0
VERTEX
  8
LAYER_1
 10
72.5864
 20
207.0247
  0
VERTEX
  8
LAYER_1
 10
73.1421
 20
206.3632
  0
SEQEND
  0
POLYLINE
  8
LAYER_1
 40
0.1905
 41
0.1905
 66
1
 10
0
 20
0
 30
0
  0
VERTEX
  8
LAYER_1
 10
72.0308
 20
207.7126
  0
VERTEX
  8
LAYER_1
 10
72.5864
 20
207.0247
  0
SEQEND
  0
POLYLINE
  8
LAYER_1
 40
0.1905
 41
0.1905
 66
1
 10
0
 20
0
 30
0
  0
VERTEX
  8
LAYER_1
 10
71.5281
 20
208.4534
  0
VERTEX
  8
LAYER_1
 10
72.0308
 20
207.7126
  0
SEQEND
  0
POLYLINE
  8
LAYER_1
 40
0.1905
 41
0.1905
 66
1
 10
0
 20
0
 30
0
  0
VERTEX
  8
LAYER_1
 10
71.0254
 20
209.2472
  0
VERTEX
  8
LAYER_1
 10
71.5281
 20
208.4534
  0
SEQEND
  0
POLYLINE
  8
LAYER_1
 40
0.1905
 41
0.1905
 66
1
 10
0
 20
0
 30
0
  0
VERTEX
  8
LAYER_1
 10
70.5492
 20
210.0674
  0
VERTEX
  8
LAYER_1
 10
71.0254
 20
209.2472
  0
SEQEND
  0
POLYLINE
  8
LAYER_1
 40
0.1905
 41
0.1905
 66
1
 10
0
 20
0
 30
0
  0
VERTEX
  8
LAYER_1
 10
70.1258
 20
210.9405
  0
VERTEX
  8
LAYER_1
 10
70.5491
 20
210.0674
  0
SEQEND
  0
POLYLINE
  8
LAYER_1
 40
0.1905
 41
0.1905
 66
1
 10
0
 20
0
 30
0
  0
VERTEX
  8
LAYER_1
 10
69.7289
 20
211.8401
  0
VERTEX
  8
LAYER_1
 10
70.1258
 20
210.9405
  0
SEQEND
  0
POLYLINE
  8
LAYER_1
 40
0.1905
 41
0.1905
 66
1
 10
0
 20
0
 30
0
  0
VERTEX
  8
LAYER_1
 10
69.3585
 20
212.7927
  0
VERTEX
  8
LAYER_1
 10
69.7289
 20
211.8402
  0
SEQEND
  0
POLYLINE
  8
LAYER_1
 40
0.1905
 41
0.1905
 66
1
 10
0
 20
0
 30
0
  0
VERTEX
  8
LAYER_1
 10
69.041
 20
213.7716
  0
VERTEX
  8
LAYER_1
 10
69.3585
 20
212.7926
  0
SEQEND
  0
POLYLINE
  8
LAYER_1
 40
0.1905
 41
0.1905
 66
1
 10
0
 20
0
 30
0
  0
VERTEX
  8
LAYER_1
 10
68.7235
 20
214.777
  0
VERTEX
  8
LAYER_1
 10
69.041
 20
213.7716
  0
SEQEND
  0
POLYLINE
  8
LAYER_1
 40
0.1905
 41
0.1905
 66
1
 10
0
 20
0
 30
0
  0
VERTEX
  8
LAYER_1
 10
68.4589
 20
215.8354
  0
VERTEX
  8
LAYER_1
 10
68.7235
 20
214.777
  0
SEQEND
  0
POLYLINE
  8
LAYER_1
 40
0.1905
 41
0.1905
 66
1
 10
0
 20
0
 30
0
  0
VERTEX
  8
LAYER_1
 10
68.0356
 20
217.9785
  0
VERTEX
  8
LAYER_1
 10
68.2472
 20
216.8937
  0
SEQEND
  0
POLYLINE
  8
LAYER_1
 40
0.1905
 41
0.1905
 66
1
 10
0
 20
0
 30
0
  0
VERTEX
  8
LAYER_1
 10
67.8768
 20
219.0898
  0
VERTEX
  8
LAYER_1
 10
68.0356
 20
217.9785
  0
SEQEND
  0
POLYLINE
  8
LAYER_1
 40
0.1905
 41
0.1905
 66
1
 10
0
 20
0
 30
0
  0
VERTEX
  8
LAYER_1
 10
91.3189
 20
193.24
  0
VERTEX
  8
LAYER_1
 10
91.4777
 20
192.4727
  0
SEQEND
  0
POLYLINE
  8
LAYER_1
 40
0.1905
 41
0.1905
 66
1
 10
0
 20
0
 30
0
  0
VERTEX
  8
LAYER_1
 10
90.8162
 20
194.5893
  0
VERTEX
  8
LAYER_1
 10
91.0808
 20
193.9279
  0
SEQEND
  0
POLYLINE
  8
LAYER_1
 40
0.1905
 41
0.1905
 66
1
 10
0
 20
0
 30
0
  0
VERTEX
  8
LAYER_1
 10
90.4722
 20
195.1979
  0
VERTEX
  8
LAYER_1
 10
90.8162
 20
194.5893
  0
SEQEND
  0
POLYLINE
  8
LAYER_1
 40
0.1905
 41
0.1905
 66
1
 10
0
 20
0
 30
0
  0
VERTEX
  8
LAYER_1
 10
90.1018
 20
195.78
  0
VERTEX
  8
LAYER_1
 10
90.4722
 20
195.1979
  0
SEQEND
  0
POLYLINE
  8
LAYER_1
 40
0.1905
 41
0.1905
 66
1
 10
0
 20
0
 30
0
  0
VERTEX
  8
LAYER_1
 10
89.6785
 20
196.3092
  0
VERTEX
  8
LAYER_1
 10
90.1018
 20
195.78
  0
SEQEND
  0
POLYLINE
  8
LAYER_1
 40
0.1905
 41
0.1905
 66
1
 10
0
 20
0
 30
0
  0
VERTEX
  8
LAYER_1
 10
89.2287
 20
196.8119
  0
VERTEX
  8
LAYER_1
 10
89.6785
 20
196.3092
  0
SEQEND
  0
POLYLINE
  8
LAYER_1
 40
0.1905
 41
0.1905
 66
1
 10
0
 20
0
 30
0
  0
VERTEX
  8
LAYER_1
 10
88.6995
 20
197.2881
  0
VERTEX
  8
LAYER_1
 10
89.2287
 20
196.8119
  0
SEQEND
  0
POLYLINE
  8
LAYER_1
 40
0.1905
 41
0.1905
 66
1
 10
0
 20
0
 30
0
  0
VERTEX
  8
LAYER_1
 10
88.1704
 20
197.7644
  0
VERTEX
  8
LAYER_1
 10
88.6995
 20
197.2881
  0
SEQEND
  0
POLYLINE
  8
LAYER_1
 40
0.1905
 41
0.1905
 66
1
 10
0
 20
0
 30
0
  0
VERTEX
  8
LAYER_1
 10
91.0808
 20
193.9279
  0
VERTEX
  8
LAYER_1
 10
91.3189
 20
193.24
  0
SEQEND
  0
POLYLINE
  8
LAYER_1
 40
0.1905
 41
0.1905
 66
1
 10
0
 20
0
 30
0
  0
VERTEX
  8
LAYER_1
 10
90.2341
 20
192.4727
  0
VERTEX
  8
LAYER_1
 10
91.4776
 20
192.4727
  0
SEQEND
  0
POLYLINE
  8
LAYER_1
 40
0.1905
 41
0.1905
 66
1
 10
0
 20
0
 30
0
  0
VERTEX
  8
LAYER_1
 10
89.7843
 20
200.3573
  0
VERTEX
  8
LAYER_1
 10
90.2077
 20
199.9604
  0
SEQEND
  0
POLYLINE
  8
LAYER_1
 40
0.1905
 41
0.1905
 66
1
 10
0
 20
0
 30
0
  0
VERTEX
  8
LAYER_1
 10
70.8402
 20
219.4867
  0
VERTEX
  8
LAYER_1
 10
70.9989
 20
218.4812
  0
SEQEND
  0
POLYLINE
  8
LAYER_1
 40
0.1905
 41
0.1905
 66
1
 10
0
 20
0
 30
0
  0
VERTEX
  8
LAYER_1
 10
90.2341
 20
187.234
  0
VERTEX
  8
LAYER_1
 10
90.2341
 20
192.4727
  0
SEQEND
  0
POLYLINE
  8
LAYER_1
 40
0.1905
 41
0.1905
 66
1
 10
0
 20
0
 30
0
  0
VERTEX
  8
LAYER_1
 10
94.785
 20
194.6158
 42
0.2250331052
  0
VERTEX
  8
LAYER_1
 10
97.7483
 20
193.1341
  0
SEQEND
  0
POLYLINE
  8
LAYER_1
 40
0.1905
 41
0.1905
 66
1
 10
0
 20
0
 30
0
  0
VERTEX
  8
LAYER_1
 10
68.2473
 20
216.8938
  0
VERTEX
  8
LAYER_1
 10
68.4589
 20
215.8354
  0
SEQEND
  0
POLYLINE
  8
LAYER_1
 40
0.1693
 41
0.1693
 66
1
 10
0
 20
0
 30
0
  0
VERTEX
  8
LAYER_1
 10
99.7327
 20
182.3127
  0
VERTEX
  8
LAYER_1
 10
111.9564
 20
182.3127
  0
VERTEX
  8
LAYER_1
 10
111.9564
 20
182.9212
  0
SEQEND
  0
POLYLINE
  8
LAYER_1
 40
0.1693
 41
0.1693
 66
1
 10
0
 20
0
 30
0
  0
VERTEX
  8
LAYER_1
 10
99.7327
 20
182.9212
  0
VERTEX
  8
LAYER_1
 10
111.9564
 20
182.9212
  0
SEQEND
  0
POLYLINE
  8
LAYER_1
 40
0.1693
 41
0.1693
 66
1
 10
0
 20
0
 30
0
  0
VERTEX
  8
LAYER_1
 10
99.7327
 20
182.3127
  0
VERTEX
  8
LAYER_1
 10
99.7327
 20
182.9212
  0
SEQEND
  0
POLYLINE
  8
LAYER_1
 40
0.1693
 41
0.1693
 66
1
 10
0
 20
0
 30
0
  0
VERTEX
  8
LAYER_1
 10
101.1085
 20
180.831
  0
VERTEX
  8
LAYER_1
 10
101.1085
 20
182.3127
  0
SEQEND
  0
POLYLINE
  8
LAYER_1
 40
0.1693
 41
0.1693
 66
1
 10
0
 20
0
 30
0
  0
VERTEX
  8
LAYER_1
 10
101.1085
 20
180.831
  0
VERTEX
  8
LAYER_1
 10
110.5806
 20
180.831
  0
VERTEX
  8
LAYER_1
 10
110.5806
 20
182.3127
  0
SEQEND
  0
POLYLINE
  8
LAYER_1
 40
0.1693
 41
0.1693
 66
1
 10
0
 20
0
 30
0
  0
VERTEX
  8
LAYER_1
 10
101.9287
 20
184.932
  0
VERTEX
  8
LAYER_1
 10
99.3622
 20
183.4239
  0
SEQEND
  0
POLYLINE
  8
LAYER_1
 40
0.1693
 41
0.1693
 66
1
 10
0
 20
0
 30
0
  0
VERTEX
  8
LAYER_1
 10
99.3622
 20
183.0535
  0
VERTEX
  8
LAYER_1
 10
99.3622
 20
183.4239
  0
SEQEND
  0
POLYLINE
  8
LAYER_1
 40
0.1693
 41
0.1693
 66
1
 10
0
 20
0
 30
0
  0
VERTEX
  8
LAYER_1
 10
99.3622
 20
183.0535
  0
VERTEX
  8
LAYER_1
 10
112.3268
 20
183.0535
  0
VERTEX
  8
LAYER_1
 10
112.3268
 20
183.4239
  0
SEQEND
  0
POLYLINE
  8
LAYER_1
 40
0.1693
 41
0.1693
 66
1
 10
0
 20
0
 30
0
  0
VERTEX
  8
LAYER_1
 10
109.7604
 20
184.932
  0
VERTEX
  8
LAYER_1
 10
112.3268
 20
183.4239
  0
SEQEND
  0
POLYLINE
  8
LAYER_1
 40
0.1693
 41
0.1693
 66
1
 10
0
 20
0
 30
0
  0
VERTEX
  8
LAYER_1
 10
101.9287
 20
184.932
  0
VERTEX
  8
LAYER_1
 10
109.7603
 20
184.932
  0
SEQEND
  0
POLYLINE
  8
LAYER_1
 40
0.0847
 41
0.0847
 66
1
 10
0
 20
0
 30
0
  0
VERTEX
  8
LAYER_1
 10
99.3623
 20
183.4239
  0
VERTEX
  8
LAYER_1
 10
112.3268
 20
183.4239
  0
SEQEND
  0
POLYLINE
  8
LAYER_1
 40
0.1693
 41
0.1693
 66
1
 10
0
 20
0
 30
0
  0
VERTEX
  8
LAYER_1
 10
99.6004
 20
182.9212
  0
VERTEX
  8
LAYER_1
 10
99.6004
 20
183.0535
  0
SEQEND
  0
POLYLINE
  8
LAYER_1
 40
0.1693
 41
0.1693
 66
1
 10
0
 20
0
 30
0
  0
VERTEX
  8
LAYER_1
 10
99.6004
 20
182.9212
  0
VERTEX
  8
LAYER_1
 10
112.0887
 20
182.9212
  0
VERTEX
  8
LAYER_1
 10
112.0887
 20
183.0535
  0
SEQEND
  0
POLYLINE
  8
LAYER_1
 40
0.1693
 41
0.1693
 66
1
 10
0
 20
0
 30
0
  0
VERTEX
  8
LAYER_1
 10
99.6004
 20
183.0535
  0
VERTEX
  8
LAYER_1
 10
112.0887
 20
183.0535
  0
SEQEND
  0
POLYLINE
  8
LAYER_1
 40
0.0847
 41
0.0847
 66
1
 10
0
 20
0
 30
0
  0
VERTEX
  8
LAYER_1
 10
105.8446
 20
180.831
  0
VERTEX
  8
LAYER_1
 10
105.8446
 20
182.3127
  0
SEQEND
  0
POLYLINE
  8
LAYER_1
 40
0.0847
 41
0.0847
 66
1
 10
0
 20
0
 30
0
  0
VERTEX
  8
LAYER_1
 10
102.061
 20
187.5514
  0
VERTEX
  8
LAYER_1
 10
102.6695
 20
187.5514
  0
SEQEND
  0
POLYLINE
  8
LAYER_1
 40
0.0847
 41
0.0847
 66
1
 10
0
 20
0
 30
0
  0
VERTEX
  8
LAYER_1
 10
103.9396
 20
187.5514
  0
VERTEX
  8
LAYER_1
 10
105.2096
 20
187.5514
  0
SEQEND
  0
POLYLINE
  8
LAYER_1
 40
0.0847
 41
0.0847
 66
1
 10
0
 20
0
 30
0
  0
VERTEX
  8
LAYER_1
 10
106.4531
 20
187.5514
  0
VERTEX
  8
LAYER_1
 10
107.7231
 20
187.5514
  0
SEQEND
  0
POLYLINE
  8
LAYER_1
 40
0.0847
 41
0.0847
 66
1
 10
0
 20
0
 30
0
  0
VERTEX
  8
LAYER_1
 10
108.9931
 20
187.5514
  0
VERTEX
  8
LAYER_1
 10
109.6281
 20
187.5514
  0
SEQEND
  0
POLYLINE
  8
LAYER_1
 40
0.0847
 41
0.0847
 66
1
 10
0
 20
0
 30
0
  0
VERTEX
  8
LAYER_1
 10
101.8758
 20
187.7366
  0
VERTEX
  8
LAYER_1
 10
102.5373
 20
187.7366
  0
SEQEND
  0
POLYLINE
  8
LAYER_1
 40
0.0847
 41
0.0847
 66
1
 10
0
 20
0
 30
0
  0
VERTEX
  8
LAYER_1
 10
103.8602
 20
187.7366
  0
VERTEX
  8
LAYER_1
 10
105.1831
 20
187.7366
  0
SEQEND
  0
POLYLINE
  8
LAYER_1
 40
0.0847
 41
0.0847
 66
1
 10
0
 20
0
 30
0
  0
VERTEX
  8
LAYER_1
 10
106.506
 20
187.7366
  0
VERTEX
  8
LAYER_1
 10
107.8289
 20
187.7366
  0
SEQEND
  0
POLYLINE
  8
LAYER_1
 40
0.0847
 41
0.0847
 66
1
 10
0
 20
0
 30
0
  0
VERTEX
  8
LAYER_1
 10
109.1519
 20
187.7366
  0
VERTEX
  8
LAYER_1
 10
109.8133
 20
187.7366
  0
SEQEND
  0
POLYLINE
  8
LAYER_1
 40
0.1693
 41
0.1693
 66
1
 10
0
 20
0
 30
0
  0
VERTEX
  8
LAYER_1
 10
102.061
 20
187.5514
  0
VERTEX
  8
LAYER_1
 10
101.8758
 20
187.7366
  0
SEQEND
  0
POLYLINE
  8
LAYER_1
 40
0.1693
 41
0.1693
 66
1
 10
0
 20
0
 30
0
  0
VERTEX
  8
LAYER_1
 10
109.6281
 20
187.5514
  0
VERTEX
  8
LAYER_1
 10
109.8133
 20
187.7366
  0
SEQEND
  0
POLYLINE
  8
LAYER_1
 40
0.1693
 41
0.1693
 66
1
 10
0
 20
0
 30
0
  0
VERTEX
  8
LAYER_1
 10
99.2829
 20
191.9964
 42
0.390056353
  0
VERTEX
  8
LAYER_1
 10
99.1506
 20
191.8906
  0
SEQEND
  0
POLYLINE
  8
LAYER_1
 40
0.1693
 41
0.1693
 66
1
 10
0
 20
0
 30
0
  0
VERTEX
  8
LAYER_1
 10
99.1506
 20
191.8377
  0
VERTEX
  8
LAYER_1
 10
99.1506
 20
191.8112
 42
0.2987960569
  0
VERTEX
  8
LAYER_1
 10
99.23
 20
191.7054
  0
SEQEND
  0
POLYLINE
  8
LAYER_1
 40
0.1693
 41
0.1693
 66
1
 10
0
 20
0
 30
0
  0
VERTEX
  8
LAYER_1
 10
99.1506
 20
191.8112
  0
VERTEX
  8
LAYER_1
 10
99.1506
 20
191.8641
  0
SEQEND
  0
POLYLINE
  8
LAYER_1
 40
0.1693
 41
0.1693
 66
1
 10
0
 20
0
 30
0
  0
VERTEX
  8
LAYER_1
 10
99.2564
 20
191.6789
  0
VERTEX
  8
LAYER_1
 10
100.4735
 20
191.2556
  0
SEQEND
  0
POLYLINE
  8
LAYER_1
 40
0.1693
 41
0.1693
 66
1
 10
0
 20
0
 30
0
  0
VERTEX
  8
LAYER_1
 10
101.2408
 20
190.356
 42
0.2767774771
  0
VERTEX
  8
LAYER_1
 10
100.4206
 20
191.2821
  0
SEQEND
  0
POLYLINE
  8
LAYER_1
 40
0.1693
 41
0.1693
 66
1
 10
0
 20
0
 30
0
  0
VERTEX
  8
LAYER_1
 10
99.3093
 20
191.97
  0
VERTEX
  8
LAYER_1
 10
112.3797
 20
191.97
  0
SEQEND
  0
POLYLINE
  8
LAYER_1
 40
0.1693
 41
0.1693
 66
1
 10
0
 20
0
 30
0
  0
VERTEX
  8
LAYER_1
 10
112.512
 20
191.8906
 42
0.4415047716
  0
VERTEX
  8
LAYER_1
 10
112.4062
 20
191.9964
  0
VERTEX
  8
LAYER_1
 10
112.3533
 20
191.9964
  0
SEQEND
  0
POLYLINE
  8
LAYER_1
 40
0.1693
 41
0.1693
 66
1
 10
0
 20
0
 30
0
  0
VERTEX
  8
LAYER_1
 10
112.4062
 20
191.7054
 42
0.390056353
  0
VERTEX
  8
LAYER_1
 10
112.5385
 20
191.8112
 42
0.5037895123
  0
VERTEX
  8
LAYER_1
 10
112.512
 20
191.8377
  0
SEQEND
  0
POLYLINE
  8
LAYER_1
 40
0.1693
 41
0.1693
 66
1
 10
0
 20
0
 30
0
  0
VERTEX
  8
LAYER_1
 10
112.5385
 20
191.8112
  0
VERTEX
  8
LAYER_1
 10
112.5385
 20
191.8641
  0
SEQEND
  0
POLYLINE
  8
LAYER_1
 40
0.1693
 41
0.1693
 66
1
 10
0
 20
0
 30
0
  0
VERTEX
  8
LAYER_1
 10
112.4327
 20
191.6789
  0
VERTEX
  8
LAYER_1
 10
111.2156
 20
191.2556
  0
SEQEND
  0
POLYLINE
  8
LAYER_1
 40
0.1693
 41
0.1693
 66
1
 10
0
 20
0
 30
0
  0
VERTEX
  8
LAYER_1
 10
111.2156
 20
191.2821
 42
0.2568453835
  0
VERTEX
  8
LAYER_1
 10
110.4218
 20
190.356
  0
SEQEND
  0
POLYLINE
  8
LAYER_1
 40
0.1693
 41
0.1693
 66
1
 10
0
 20
0
 30
0
  0
VERTEX
  8
LAYER_1
 10
101.8758
 20
187.7366
  0
VERTEX
  8
LAYER_1
 10
101.2937
 20
190.356
  0
SEQEND
  0
POLYLINE
  8
LAYER_1
 40
0.1693
 41
0.1693
 66
1
 10
0
 20
0
 30
0
  0
VERTEX
  8
LAYER_1
 10
109.8133
 20
187.7366
  0
VERTEX
  8
LAYER_1
 10
110.3954
 20
190.356
  0
SEQEND
  0
POLYLINE
  8
LAYER_1
 40
0.0847
 41
0.0847
 66
1
 10
0
 20
0
 30
0
  0
VERTEX
  8
LAYER_1
 10
100.4735
 20
191.2556
  0
VERTEX
  8
LAYER_1
 10
111.2156
 20
191.2556
  0
SEQEND
  0
POLYLINE
  8
LAYER_1
 40
0.0847
 41
0.0847
 66
1
 10
0
 20
0
 30
0
  0
VERTEX
  8
LAYER_1
 10
99.2564
 20
191.6789
  0
VERTEX
  8
LAYER_1
 10
112.4327
 20
191.6789
  0
SEQEND
  0
POLYLINE
  8
LAYER_1
 40
0.1693
 41
0.1693
 66
1
 10
0
 20
0
 30
0
  0
VERTEX
  8
LAYER_1
 10
102.1933
 20
180.6194
  0
VERTEX
  8
LAYER_1
 10
101.8758
 20
180.3548
  0
VERTEX
  8
LAYER_1
 10
102.1933
 20
180.1166
  0
VERTEX
  8
LAYER_1
 10
101.8758
 20
179.852
  0
SEQEND
  0
POLYLINE
  8
LAYER_1
 40
0.1693
 41
0.1693
 66
1
 10
0
 20
0
 30
0
  0
VERTEX
  8
LAYER_1
 10
101.8758
 20
176.8623
  0
VERTEX
  8
LAYER_1
 10
102.1933
 20
176.6241
  0
VERTEX
  8
LAYER_1
 10
101.8758
 20
176.3595
  0
VERTEX
  8
LAYER_1
 10
102.1933
 20
176.1214
  0
VERTEX
  8
LAYER_1
 10
101.8758
 20
175.8568
  0
VERTEX
  8
LAYER_1
 10
102.1933
 20
175.6187
  0
VERTEX
  8
LAYER_1
 10
101.8758
 20
175.3541
  0
VERTEX
  8
LAYER_1
 10
102.1933
 20
175.116
  0
VERTEX
  8
LAYER_1
 10
101.8758
 20
174.8514
  0
VERTEX
  8
LAYER_1
 10
102.1933
 20
174.6133
  0
VERTEX
  8
LAYER_1
 10
101.8758
 20
174.3487
  0
VERTEX
  8
LAYER_1
 10
102.1933
 20
174.1106
  0
VERTEX
  8
LAYER_1
 10
101.8758
 20
173.8725
  0
VERTEX
  8
LAYER_1
 10
102.1933
 20
173.6079
  0
SEQEND
  0
POLYLINE
  8
LAYER_1
 40
0.1693
 41
0.1693
 66
1
 10
0
 20
0
 30
0
  0
VERTEX
  8
LAYER_1
 10
101.8758
 20
169.8508
  0
VERTEX
  8
LAYER_1
 10
102.1933
 20
169.6126
  0
VERTEX
  8
LAYER_1
 10
101.8758
 20
169.3745
  0
VERTEX
  8
LAYER_1
 10
102.1933
 20
169.1099
  0
VERTEX
  8
LAYER_1
 10
101.8758
 20
168.8718
  0
VERTEX
  8
LAYER_1
 10
102.1933
 20
168.6072
  0
VERTEX
  8
LAYER_1
 10
101.8758
 20
168.3691
  0
VERTEX
  8
LAYER_1
 10
102.1933
 20
168.131
  0
VERTEX
  8
LAYER_1
 10
101.8758
 20
167.8664
  0
VERTEX
  8
LAYER_1
 10
102.1933
 20
167.6283
  0
SEQEND
  0
POLYLINE
  8
LAYER_1
 40
0.1693
 41
0.1693
 66
1
 10
0
 20
0
 30
0
  0
VERTEX
  8
LAYER_1
 10
109.4958
 20
180.8046
  0
VERTEX
  8
LAYER_1
 10
109.8133
 20
180.5664
  0
VERTEX
  8
LAYER_1
 10
109.4958
 20
180.3018
  0
VERTEX
  8
LAYER_1
 10
109.8133
 20
180.0637
  0
VERTEX
  8
LAYER_1
 10
109.4958
 20
179.7991
  0
SEQEND
  0
POLYLINE
  8
LAYER_1
 40
0.1693
 41
0.1693
 66
1
 10
0
 20
0
 30
0
  0
VERTEX
  8
LAYER_1
 10
109.4958
 20
176.8093
  0
VERTEX
  8
LAYER_1
 10
109.8133
 20
176.5712
  0
VERTEX
  8
LAYER_1
 10
109.4958
 20
176.3066
  0
VERTEX
  8
LAYER_1
 10
109.8133
 20
176.0685
  0
VERTEX
  8
LAYER_1
 10
109.4958
 20
175.8039
  0
VERTEX
  8
LAYER_1
 10
109.8133
 20
175.5658
  0
VERTEX
  8
LAYER_1
 10
109.4958
 20
175.3012
  0
VERTEX
  8
LAYER_1
 10
109.8133
 20
175.0631
  0
VERTEX
  8
LAYER_1
 10
109.4958
 20
174.7985
  0
VERTEX
  8
LAYER_1
 10
109.8133
 20
174.5604
  0
VERTEX
  8
LAYER_1
 10
109.4958
 20
174.3223
  0
VERTEX
  8
LAYER_1
 10
109.8133
 20
174.0577
  0
VERTEX
  8
LAYER_1
 10
109.4958
 20
173.8195
  0
VERTEX
  8
LAYER_1
 10
109.8133
 20
173.5814
  0
SEQEND
  0
POLYLINE
  8
LAYER_1
 40
0.1693
 41
0.1693
 66
1
 10
0
 20
0
 30
0
  0
VERTEX
  8
LAYER_1
 10
109.4958
 20
169.8243
  0
VERTEX
  8
LAYER_1
 10
109.8133
 20
169.5597
  0
VERTEX
  8
LAYER_1
 10
109.4958
 20
169.3216
  0
VERTEX
  8
LAYER_1
 10
109.8133
 20
169.057
  0
VERTEX
  8
LAYER_1
 10
109.4958
 20
168.8189
  0
VERTEX
  8
LAYER_1
 10
109.8133
 20
168.5808
  0
VERTEX
  8
LAYER_1
 10
109.4958
 20
168.3162
  0
VERTEX
  8
LAYER_1
 10
109.8133
 20
168.0781
  0
VERTEX
  8
LAYER_1
 10
109.4958
 20
167.8135
  0
VERTEX
  8
LAYER_1
 10
109.8133
 20
167.5754
  0
SEQEND
  0
POLYLINE
  8
LAYER_1
 40
0.1693
 41
0.1693
 66
1
 10
0
 20
0
 30
0
  0
VERTEX
  8
LAYER_1
 10
109.4693
 20
167.2843
  0
VERTEX
  8
LAYER_1
 10
109.337
 20
166.9933
  0
SEQEND
  0
POLYLINE
  8
LAYER_1
 40
0.1693
 41
0.1693
 66
1
 10
0
 20
0
 30
0
  0
VERTEX
  8
LAYER_1
 10
109.8133
 20
167.5754
  0
VERTEX
  8
LAYER_1
 10
109.4693
 20
167.2843
  0
SEQEND
  0
POLYLINE
  8
LAYER_1
 40
0.1693
 41
0.1693
 66
1
 10
0
 20
0
 30
0
  0
VERTEX
  8
LAYER_1
 10
102.1933
 20
167.6283
  0
VERTEX
  8
LAYER_1
 10
101.8758
 20
167.3637
  0
VERTEX
  8
LAYER_1
 10
109.5487
 20
167.3637
  0
SEQEND
  0
POLYLINE
  8
LAYER_1
 40
0.1693
 41
0.1693
 66
1
 10
0
 20
0
 30
0
  0
VERTEX
  8
LAYER_1
 10
102.1933
 20
167.3637
  0
VERTEX
  8
LAYER_1
 10
102.352
 20
166.9933
  0
VERTEX
  8
LAYER_1
 10
109.337
 20
166.9933
  0
SEQEND
  0
POLYLINE
  8
LAYER_1
 40
0.1693
 41
0.1693
 66
1
 10
0
 20
0
 30
0
  0
VERTEX
  8
LAYER_1
 10
102.1933
 20
170.1154
  0
VERTEX
  8
LAYER_1
 10
101.8758
 20
169.8508
  0
SEQEND
  0
POLYLINE
  8
LAYER_1
 40
0.1693
 41
0.1693
 66
1
 10
0
 20
0
 30
0
  0
VERTEX
  8
LAYER_1
 10
109.8133
 20
170.0624
  0
VERTEX
  8
LAYER_1
 10
109.4958
 20
169.8243
  0
SEQEND
  0
POLYLINE
  8
LAYER_1
 40
0.1693
 41
0.1693
 66
1
 10
0
 20
0
 30
0
  0
VERTEX
  8
LAYER_1
 10
99.0977
 20
193.7162
  0
VERTEX
  8
LAYER_1
 10
112.5914
 20
193.7162
  0
SEQEND
  0
POLYLINE
  8
LAYER_1
 40
0.1693
 41
0.1693
 66
1
 10
0
 20
0
 30
0
  0
VERTEX
  8
LAYER_1
 10
99.0977
 20
194.2189
  0
VERTEX
  8
LAYER_1
 10
112.5914
 20
194.2189
  0
SEQEND
  0
POLYLINE
  8
LAYER_1
 40
0.1693
 41
0.1693
 66
1
 10
0
 20
0
 30
0
  0
VERTEX
  8
LAYER_1
 10
99.0977
 20
193.7162
  0
VERTEX
  8
LAYER_1
 10
99.0977
 20
194.2983
  0
SEQEND
  0
POLYLINE
  8
LAYER_1
 40
0.1693
 41
0.1693
 66
1
 10
0
 20
0
 30
0
  0
VERTEX
  8
LAYER_1
 10
99.2829
 20
194.5364
 42
0.3749730509
  0
VERTEX
  8
LAYER_1
 10
99.1241
 20
194.3247
  0
SEQEND
  0
POLYLINE
  8
LAYER_1
 40
0.1693
 41
0.1693
 66
1
 10
0
 20
0
 30
0
  0
VERTEX
  8
LAYER_1
 10
112.5914
 20
193.7162
  0
VERTEX
  8
LAYER_1
 10
112.5914
 20
194.2983
  0
SEQEND
  0
POLYLINE
  8
LAYER_1
 40
0.1693
 41
0.1693
 66
1
 10
0
 20
0
 30
0
  0
VERTEX
  8
LAYER_1
 10
112.3798
 20
194.5364
 42
0.06274423036
  0
VERTEX
  8
LAYER_1
 10
107.5612
 20
195.5257
 42
0.02013355958
  0
VERTEX
  8
LAYER_1
 10
105.8446
 20
195.5947
 42
0.06028214968
  0
VERTEX
  8
LAYER_1
 10
100.8118
 20
194.9906
 42
0.0206475449
  0
VERTEX
  8
LAYER_1
 10
99.2564
 20
194.5364
  0
SEQEND
  0
POLYLINE
  8
LAYER_1
 40
0.1693
 41
0.1693
 66
1
 10
0
 20
0
 30
0
  0
VERTEX
  8
LAYER_1
 10
112.565
 20
194.3247
 42
0.3288060629
  0
VERTEX
  8
LAYER_1
 10
112.3533
 20
194.5364
  0
SEQEND
  0
POLYLINE
  8
LAYER_1
 40
0.0847
 41
0.0847
 66
1
 10
0
 20
0
 30
0
  0
VERTEX
  8
LAYER_1
 10
99.177
 20
194.4835
  0
VERTEX
  8
LAYER_1
 10
112.512
 20
194.4835
  0
SEQEND
  0
POLYLINE
  8
LAYER_1
 40
0.1693
 41
0.1693
 66
1
 10
0
 20
0
 30
0
  0
VERTEX
  8
LAYER_1
 10
101.6112
 20
191.97
  0
VERTEX
  8
LAYER_1
 10
101.6112
 20
193.7162
  0
SEQEND
  0
POLYLINE
  8
LAYER_1
 40
0.1693
 41
0.1693
 66
1
 10
0
 20
0
 30
0
  0
VERTEX
  8
LAYER_1
 10
104.4952
 20
191.97
  0
VERTEX
  8
LAYER_1
 10
104.4952
 20
193.7162
  0
SEQEND
  0
POLYLINE
  8
LAYER_1
 40
0.1693
 41
0.1693
 66
1
 10
0
 20
0
 30
0
  0
VERTEX
  8
LAYER_1
 10
107.1939
 20
191.97
  0
VERTEX
  8
LAYER_1
 10
107.1939
 20
193.7162
  0
SEQEND
  0
POLYLINE
  8
LAYER_1
 40
0.1693
 41
0.1693
 66
1
 10
0
 20
0
 30
0
  0
VERTEX
  8
LAYER_1
 10
110.0779
 20
191.97
  0
VERTEX
  8
LAYER_1
 10
110.0779
 20
193.7162
  0
SEQEND
  0
POLYLINE
  8
LAYER_1
 40
0.1693
 41
0.1693
 66
1
 10
0
 20
0
 30
0
  0
VERTEX
  8
LAYER_1
 10
99.6004
 20
191.6789
  0
VERTEX
  8
LAYER_1
 10
112.0887
 20
191.6789
  0
SEQEND
  0
POLYLINE
  8
LAYER_1
 40
0.1693
 41
0.1693
 66
1
 10
0
 20
0
 30
0
  0
VERTEX
  8
LAYER_1
 10
99.6004
 20
191.4408
  0
VERTEX
  8
LAYER_1
 10
99.6004
 20
191.6789
  0
SEQEND
  0
POLYLINE
  8
LAYER_1
 40
0.1693
 41
0.1693
 66
1
 10
0
 20
0
 30
0
  0
VERTEX
  8
LAYER_1
 10
99.6004
 20
191.4408
  0
VERTEX
  8
LAYER_1
 10
112.0887
 20
191.4408
  0
VERTEX
  8
LAYER_1
 10
112.0887
 20
191.6789
  0
SEQEND
  0
POLYLINE
  8
LAYER_1
 40
0.0847
 41
0.0847
 66
1
 10
0
 20
0
 30
0
  0
VERTEX
  8
LAYER_1
 10
99.812
 20
191.6789
  0
VERTEX
  8
LAYER_1
 10
100.0502
 20
191.4408
  0
SEQEND
  0
POLYLINE
  8
LAYER_1
 40
0.0847
 41
0.0847
 66
1
 10
0
 20
0
 30
0
  0
VERTEX
  8
LAYER_1
 10
100.8704
 20
191.6789
  0
VERTEX
  8
LAYER_1
 10
101.1085
 20
191.4408
  0
SEQEND
  0
POLYLINE
  8
LAYER_1
 40
0.0847
 41
0.0847
 66
1
 10
0
 20
0
 30
0
  0
VERTEX
  8
LAYER_1
 10
101.9287
 20
191.6789
  0
VERTEX
  8
LAYER_1
 10
102.1668
 20
191.4408
  0
SEQEND
  0
POLYLINE
  8
LAYER_1
 40
0.0847
 41
0.0847
 66
1
 10
0
 20
0
 30
0
  0
VERTEX
  8
LAYER_1
 10
102.987
 20
191.6789
  0
VERTEX
  8
LAYER_1
 10
103.2251
 20
191.4408
  0
SEQEND
  0
POLYLINE
  8
LAYER_1
 40
0.0847
 41
0.0847
 66
1
 10
0
 20
0
 30
0
  0
VERTEX
  8
LAYER_1
 10
104.0454
 20
191.6789
  0
VERTEX
  8
LAYER_1
 10
104.2835
 20
191.4408
  0
SEQEND
  0
POLYLINE
  8
LAYER_1
 40
0.0847
 41
0.0847
 66
1
 10
0
 20
0
 30
0
  0
VERTEX
  8
LAYER_1
 10
105.1037
 20
191.6789
  0
VERTEX
  8
LAYER_1
 10
105.3418
 20
191.4408
  0
SEQEND
  0
POLYLINE
  8
LAYER_1
 40
0.0847
 41
0.0847
 66
1
 10
0
 20
0
 30
0
  0
VERTEX
  8
LAYER_1
 10
106.1356
 20
191.6789
  0
VERTEX
  8
LAYER_1
 10
106.3737
 20
191.4408
  0
SEQEND
  0
POLYLINE
  8
LAYER_1
 40
0.0847
 41
0.0847
 66
1
 10
0
 20
0
 30
0
  0
VERTEX
  8
LAYER_1
 10
107.1939
 20
191.6789
  0
VERTEX
  8
LAYER_1
 10
107.4585
 20
191.4408
  0
SEQEND
  0
POLYLINE
  8
LAYER_1
 40
0.0847
 41
0.0847
 66
1
 10
0
 20
0
 30
0
  0
VERTEX
  8
LAYER_1
 10
108.2522
 20
191.6789
  0
VERTEX
  8
LAYER_1
 10
108.5168
 20
191.4408
  0
SEQEND
  0
POLYLINE
  8
LAYER_1
 40
0.0847
 41
0.0847
 66
1
 10
0
 20
0
 30
0
  0
VERTEX
  8
LAYER_1
 10
109.3106
 20
191.6789
  0
VERTEX
  8
LAYER_1
 10
109.5751
 20
191.4408
  0
SEQEND
  0
POLYLINE
  8
LAYER_1
 40
0.0847
 41
0.0847
 66
1
 10
0
 20
0
 30
0
  0
VERTEX
  8
LAYER_1
 10
110.3689
 20
191.6789
  0
VERTEX
  8
LAYER_1
 10
110.6335
 20
191.4408
  0
SEQEND
  0
POLYLINE
  8
LAYER_1
 40
0.0847
 41
0.0847
 66
1
 10
0
 20
0
 30
0
  0
VERTEX
  8
LAYER_1
 10
111.4272
 20
191.6789
  0
VERTEX
  8
LAYER_1
 10
111.6918
 20
191.4408
  0
SEQEND
  0
POLYLINE
  8
LAYER_1
 40
0.1693
 41
0.1693
 66
1
 10
0
 20
0
 30
0
  0
VERTEX
  8
LAYER_1
 10
102.1933
 20
170.6181
  0
VERTEX
  8
LAYER_1
 10
101.8758
 20
170.3535
  0
VERTEX
  8
LAYER_1
 10
102.1933
 20
170.1154
  0
SEQEND
  0
POLYLINE
  8
LAYER_1
 40
0.1693
 41
0.1693
 66
1
 10
0
 20
0
 30
0
  0
VERTEX
  8
LAYER_1
 10
109.8133
 20
170.5652
  0
VERTEX
  8
LAYER_1
 10
109.4958
 20
170.3006
  0
VERTEX
  8
LAYER_1
 10
109.8133
 20
170.0624
  0
SEQEND
  0
POLYLINE
  8
LAYER_1
 40
0.1693
 41
0.1693
 66
1
 10
0
 20
0
 30
0
  0
VERTEX
  8
LAYER_1
 10
101.9287
 20
180.831
  0
VERTEX
  8
LAYER_1
 10
102.1933
 20
180.6193
  0
SEQEND
  0
POLYLINE
  8
LAYER_1
 40
0.1693
 41
0.1693
 66
1
 10
0
 20
0
 30
0
  0
VERTEX
  8
LAYER_1
 10
109.5223
 20
180.831
  0
VERTEX
  8
LAYER_1
 10
109.4958
 20
180.8045
  0
SEQEND
  0
POLYLINE
  8
LAYER_1
 40
0.1693
 41
0.1693
 66
1
 10
0
 20
0
 30
0
  0
VERTEX
  8
LAYER_1
 10
101.8758
 20
170.8562
  0
VERTEX
  8
LAYER_1
 10
102.1933
 20
170.6181
  0
SEQEND
  0
POLYLINE
  8
LAYER_1
 40
0.1693
 41
0.1693
 66
1
 10
0
 20
0
 30
0
  0
VERTEX
  8
LAYER_1
 10
109.4958
 20
170.8033
  0
VERTEX
  8
LAYER_1
 10
109.8133
 20
170.5652
  0
SEQEND
  0
POLYLINE
  8
LAYER_1
 40
0.1693
 41
0.1693
 66
1
 10
0
 20
0
 30
0
  0
VERTEX
  8
LAYER_1
 10
102.1933
 20
173.6079
  0
VERTEX
  8
LAYER_1
 10
101.8758
 20
173.3697
  0
SEQEND
  0
POLYLINE
  8
LAYER_1
 40
0.1693
 41
0.1693
 66
1
 10
0
 20
0
 30
0
  0
VERTEX
  8
LAYER_1
 10
109.8133
 20
173.5814
  0
VERTEX
  8
LAYER_1
 10
109.4958
 20
173.3168
  0
SEQEND
  0
POLYLINE
  8
LAYER_1
 40
0.0847
 41
0.0847
 66
1
 10
0
 20
0
 30
0
  0
VERTEX
  8
LAYER_1
 10
106.8764
 20
155.3516
  0
VERTEX
  8
LAYER_1
 10
148.4689
 20
140.191
  0
SEQEND
  0
TEXT
  8
LAYER_1
 10
136.6952
 20
230.4936
 11
136.6952
 21
230.4936
 40
3.2224
 41
0.5
  1
ë╗Å¤âLâââbâvâëâEâôâh
  0
TEXT
  8
LAYER_1
 10
152.041
 20
145.377
 11
152.041
 21
145.377
 40
3.2224
 41
0.5
  1
âXâèâbâvâpâbâLâô
  0
TEXT
  8
LAYER_1
 10
163.8942
 20
150.8009
 11
163.8942
 21
150.8009
 40
3.2224
 41
0.5
  1
ÄOèpâpâbâLâô
  0
POLYLINE
  8
LAYER_1
 40
0.0847
 41
0.0847
 66
1
 10
0
 20
0
 30
0
  0
VERTEX
  8
LAYER_1
 10
110.3954
 20
184.1648
  0
VERTEX
  8
LAYER_1
 10
163.2856
 20
152.2824
  0
SEQEND
  0
POLYLINE
  8
LAYER_1
 40
0.0847
 41
0.0847
 66
1
 10
0
 20
0
 30
0
  0
VERTEX
  8
LAYER_1
 10
108.9931
 20
183.1064
  0
VERTEX
  8
LAYER_1
 10
151.3529
 20
146.6997
  0
SEQEND
  0
POLYLINE
  8
LAYER_1
 40
0.0847
 41
0.0847
 66
1
 10
0
 20
0
 30
0
  0
VERTEX
  8
LAYER_1
 10
106.8764
 20
194.8539
  0
VERTEX
  8
LAYER_1
 10
136.695
 20
230.2816
  0
SEQEND
  0
TEXT
  8
LAYER_1
 10
159.2902
 20
194.3249
 11
159.2902
 21
194.3249
 40
3.2224
 41
0.5
  1
örÉàû┌ÄM
  0
TEXT
  8
LAYER_1
 10
158.761
 20
202.5531
 11
158.761
 21
202.5531
 40
3.2224
 41
0.5
  1
âXâ|âôâWâpâbâLâô
  0
POLYLINE
  8
LAYER_1
 40
0.0847
 41
0.0847
 66
1
 10
0
 20
0
 30
0
  0
VERTEX
  8
LAYER_1
 10
111.0833
 20
191.5202
  0
VERTEX
  8
LAYER_1
 10
158.7612
 20
203.6645
  0
SEQEND
  0
POLYLINE
  8
LAYER_1
 40
0.0847
 41
0.0847
 66
1
 10
0
 20
0
 30
0
  0
VERTEX
  8
LAYER_1
 10
109.4429
 20
190.5941
  0
VERTEX
  8
LAYER_1
 10
158.7877
 20
194.8275
  0
SEQEND
  0
POLYLINE
  8
LAYER_1
 40
0.0847
 41
0.0847
 66
1
 10
0
 20
0
 30
0
  0
VERTEX
  8
LAYER_1
 10
102.7225
 20
154.0287
  0
VERTEX
  8
LAYER_1
 10
102.7225
 20
155.087
  0
SEQEND
  0
POLYLINE
  8
LAYER_1
 40
0.0847
 41
0.0847
 66
1
 10
0
 20
0
 30
0
  0
VERTEX
  8
LAYER_1
 10
102.7225
 20
157.2567
  0
VERTEX
  8
LAYER_1
 10
102.7225
 20
159.4262
  0
SEQEND
  0
POLYLINE
  8
LAYER_1
 40
0.0847
 41
0.0847
 66
1
 10
0
 20
0
 30
0
  0
VERTEX
  8
LAYER_1
 10
102.7225
 20
161.5694
  0
VERTEX
  8
LAYER_1
 10
102.7225
 20
163.7389
  0
SEQEND
  0
POLYLINE
  8
LAYER_1
 40
0.0847
 41
0.0847
 66
1
 10
0
 20
0
 30
0
  0
VERTEX
  8
LAYER_1
 10
102.7225
 20
165.9086
  0
VERTEX
  8
LAYER_1
 10
102.7225
 20
166.9933
  0
SEQEND
  0
POLYLINE
  8
LAYER_1
 40
0.0847
 41
0.0847
 66
1
 10
0
 20
0
 30
0
  0
VERTEX
  8
LAYER_1
 10
108.9666
 20
152.5206
  0
VERTEX
  8
LAYER_1
 10
108.9666
 20
153.7112
  0
SEQEND
  0
POLYLINE
  8
LAYER_1
 40
0.0847
 41
0.0847
 66
1
 10
0
 20
0
 30
0
  0
VERTEX
  8
LAYER_1
 10
108.9666
 20
156.119
  0
VERTEX
  8
LAYER_1
 10
108.9666
 20
158.5267
  0
SEQEND
  0
POLYLINE
  8
LAYER_1
 40
0.0847
 41
0.0847
 66
1
 10
0
 20
0
 30
0
  0
VERTEX
  8
LAYER_1
 10
108.9666
 20
160.9608
  0
VERTEX
  8
LAYER_1
 10
108.9666
 20
163.3685
  0
SEQEND
  0
POLYLINE
  8
LAYER_1
 40
0.0847
 41
0.0847
 66
1
 10
0
 20
0
 30
0
  0
VERTEX
  8
LAYER_1
 10
108.9666
 20
165.7762
  0
VERTEX
  8
LAYER_1
 10
108.9666
 20
166.9933
  0
SEQEND
  0
POLYLINE
  8
LAYER_1
 40
0.0847
 41
0.0847
 66
1
 10
0
 20
0
 30
0
  0
VERTEX
  8
LAYER_1
 10
18.0029
 20
179.7462
  0
VERTEX
  8
LAYER_1
 10
25.4906
 20
187.2339
  0
SEQEND
  0
POLYLINE
  8
LAYER_1
 40
0.0847
 41
0.0847
 66
1
 10
0
 20
0
 30
0
  0
VERTEX
  8
LAYER_1
 10
95.7375
 20
179.7462
  0
VERTEX
  8
LAYER_1
 10
97.7483
 20
181.7306
  0
SEQEND
  0
POLYLINE
  8
LAYER_1
 40
0.0847
 41
0.0847
 66
1
 10
0
 20
0
 30
0
  0
VERTEX
  8
LAYER_1
 10
21.5218
 20
179.7462
  0
VERTEX
  8
LAYER_1
 10
29.036
 20
187.2339
  0
SEQEND
  0
POLYLINE
  8
LAYER_1
 40
0.0847
 41
0.0847
 66
1
 10
0
 20
0
 30
0
  0
VERTEX
  8
LAYER_1
 10
25.0673
 20
179.7462
  0
VERTEX
  8
LAYER_1
 10
32.555
 20
187.2339
  0
SEQEND
  0
POLYLINE
  8
LAYER_1
 40
0.0847
 41
0.0847
 66
1
 10
0
 20
0
 30
0
  0
VERTEX
  8
LAYER_1
 10
28.5862
 20
179.7462
  0
VERTEX
  8
LAYER_1
 10
36.1004
 20
187.2339
  0
SEQEND
  0
POLYLINE
  8
LAYER_1
 40
0.0847
 41
0.0847
 66
1
 10
0
 20
0
 30
0
  0
VERTEX
  8
LAYER_1
 10
32.1316
 20
179.7462
  0
VERTEX
  8
LAYER_1
 10
39.6193
 20
187.2339
  0
SEQEND
  0
POLYLINE
  8
LAYER_1
 40
0.0847
 41
0.0847
 66
1
 10
0
 20
0
 30
0
  0
VERTEX
  8
LAYER_1
 10
35.677
 20
179.7462
  0
VERTEX
  8
LAYER_1
 10
43.1647
 20
187.2339
  0
SEQEND
  0
POLYLINE
  8
LAYER_1
 40
0.0847
 41
0.0847
 66
1
 10
0
 20
0
 30
0
  0
VERTEX
  8
LAYER_1
 10
39.196
 20
179.7462
  0
VERTEX
  8
LAYER_1
 10
46.6837
 20
187.2339
  0
SEQEND
  0
POLYLINE
  8
LAYER_1
 40
0.0847
 41
0.0847
 66
1
 10
0
 20
0
 30
0
  0
VERTEX
  8
LAYER_1
 10
42.7414
 20
179.7462
  0
VERTEX
  8
LAYER_1
 10
50.2291
 20
187.2339
  0
SEQEND
  0
POLYLINE
  8
LAYER_1
 40
0.0847
 41
0.0847
 66
1
 10
0
 20
0
 30
0
  0
VERTEX
  8
LAYER_1
 10
46.2604
 20
179.7462
  0
VERTEX
  8
LAYER_1
 10
53.7745
 20
187.2339
  0
SEQEND
  0
POLYLINE
  8
LAYER_1
 40
0.0847
 41
0.0847
 66
1
 10
0
 20
0
 30
0
  0
VERTEX
  8
LAYER_1
 10
49.8058
 20
179.7462
  0
VERTEX
  8
LAYER_1
 10
57.2935
 20
187.2339
  0
SEQEND
  0
POLYLINE
  8
LAYER_1
 40
0.0847
 41
0.0847
 66
1
 10
0
 20
0
 30
0
  0
VERTEX
  8
LAYER_1
 10
53.3247
 20
179.7462
  0
VERTEX
  8
LAYER_1
 10
60.8389
 20
187.2339
  0
SEQEND
  0
POLYLINE
  8
LAYER_1
 40
0.0847
 41
0.0847
 66
1
 10
0
 20
0
 30
0
  0
VERTEX
  8
LAYER_1
 10
56.8702
 20
179.7462
  0
VERTEX
  8
LAYER_1
 10
64.3579
 20
187.2339
  0
SEQEND
  0
POLYLINE
  8
LAYER_1
 40
0.0847
 41
0.0847
 66
1
 10
0
 20
0
 30
0
  0
VERTEX
  8
LAYER_1
 10
60.4156
 20
179.7462
  0
VERTEX
  8
LAYER_1
 10
67.9033
 20
187.2339
  0
SEQEND
  0
POLYLINE
  8
LAYER_1
 40
0.0847
 41
0.0847
 66
1
 10
0
 20
0
 30
0
  0
VERTEX
  8
LAYER_1
 10
63.9345
 20
179.7462
  0
VERTEX
  8
LAYER_1
 10
71.4222
 20
187.2339
  0
SEQEND
  0
POLYLINE
  8
LAYER_1
 40
0.0847
 41
0.0847
 66
1
 10
0
 20
0
 30
0
  0
VERTEX
  8
LAYER_1
 10
67.4799
 20
179.7462
  0
VERTEX
  8
LAYER_1
 10
74.9676
 20
187.2339
  0
SEQEND
  0
POLYLINE
  8
LAYER_1
 40
0.0847
 41
0.0847
 66
1
 10
0
 20
0
 30
0
  0
VERTEX
  8
LAYER_1
 10
70.9989
 20
179.7462
  0
VERTEX
  8
LAYER_1
 10
78.5131
 20
187.2339
  0
SEQEND
  0
POLYLINE
  8
LAYER_1
 40
0.0847
 41
0.0847
 66
1
 10
0
 20
0
 30
0
  0
VERTEX
  8
LAYER_1
 10
74.5443
 20
179.7462
  0
VERTEX
  8
LAYER_1
 10
82.032
 20
187.2339
  0
SEQEND
  0
POLYLINE
  8
LAYER_1
 40
0.0847
 41
0.0847
 66
1
 10
0
 20
0
 30
0
  0
VERTEX
  8
LAYER_1
 10
78.0633
 20
179.7462
  0
VERTEX
  8
LAYER_1
 10
85.5774
 20
187.2339
  0
SEQEND
  0
POLYLINE
  8
LAYER_1
 40
0.0847
 41
0.0847
 66
1
 10
0
 20
0
 30
0
  0
VERTEX
  8
LAYER_1
 10
81.6087
 20
179.7462
  0
VERTEX
  8
LAYER_1
 10
89.0964
 20
187.2339
  0
SEQEND
  0
POLYLINE
  8
LAYER_1
 40
0.0847
 41
0.0847
 66
1
 10
0
 20
0
 30
0
  0
VERTEX
  8
LAYER_1
 10
85.1541
 20
179.7462
  0
VERTEX
  8
LAYER_1
 10
92.6418
 20
187.2339
  0
SEQEND
  0
POLYLINE
  8
LAYER_1
 40
0.0847
 41
0.0847
 66
1
 10
0
 20
0
 30
0
  0
VERTEX
  8
LAYER_1
 10
88.6731
 20
179.7462
  0
VERTEX
  8
LAYER_1
 10
96.1608
 20
187.2339
  0
SEQEND
  0
POLYLINE
  8
LAYER_1
 40
0.0847
 41
0.0847
 66
1
 10
0
 20
0
 30
0
  0
VERTEX
  8
LAYER_1
 10
92.2185
 20
179.7462
  0
VERTEX
  8
LAYER_1
 10
97.7483
 20
185.276
  0
SEQEND
  0
POLYLINE
  8
LAYER_1
 40
0.0847
 41
0.0847
 66
1
 10
0
 20
0
 30
0
  0
VERTEX
  8
LAYER_1
 10
191.1462
 20
179.7462
  0
VERTEX
  8
LAYER_1
 10
193.5539
 20
182.1539
  0
SEQEND
  0
POLYLINE
  8
LAYER_1
 40
0.0847
 41
0.0847
 66
1
 10
0
 20
0
 30
0
  0
VERTEX
  8
LAYER_1
 10
187.6008
 20
179.7462
  0
VERTEX
  8
LAYER_1
 10
194.083
 20
186.202
  0
SEQEND
  0
POLYLINE
  8
LAYER_1
 40
0.0847
 41
0.0847
 66
1
 10
0
 20
0
 30
0
  0
VERTEX
  8
LAYER_1
 10
184.0553
 20
179.7462
  0
VERTEX
  8
LAYER_1
 10
191.5695
 20
187.2339
  0
SEQEND
  0
POLYLINE
  8
LAYER_1
 40
0.0847
 41
0.0847
 66
1
 10
0
 20
0
 30
0
  0
VERTEX
  8
LAYER_1
 10
180.5364
 20
179.7462
  0
VERTEX
  8
LAYER_1
 10
188.0241
 20
187.2339
  0
SEQEND
  0
POLYLINE
  8
LAYER_1
 40
0.0847
 41
0.0847
 66
1
 10
0
 20
0
 30
0
  0
VERTEX
  8
LAYER_1
 10
176.991
 20
179.7462
  0
VERTEX
  8
LAYER_1
 10
184.5051
 20
187.2339
  0
SEQEND
  0
POLYLINE
  8
LAYER_1
 40
0.0847
 41
0.0847
 66
1
 10
0
 20
0
 30
0
  0
VERTEX
  8
LAYER_1
 10
173.472
 20
179.7462
  0
VERTEX
  8
LAYER_1
 10
180.9597
 20
187.2339
  0
SEQEND
  0
POLYLINE
  8
LAYER_1
 40
0.0847
 41
0.0847
 66
1
 10
0
 20
0
 30
0
  0
VERTEX
  8
LAYER_1
 10
169.9266
 20
179.7462
  0
VERTEX
  8
LAYER_1
 10
177.4407
 20
187.2339
  0
SEQEND
  0
POLYLINE
  8
LAYER_1
 40
0.0847
 41
0.0847
 66
1
 10
0
 20
0
 30
0
  0
VERTEX
  8
LAYER_1
 10
166.4076
 20
179.7462
  0
VERTEX
  8
LAYER_1
 10
173.8953
 20
187.2339
  0
SEQEND
  0
POLYLINE
  8
LAYER_1
 40
0.0847
 41
0.0847
 66
1
 10
0
 20
0
 30
0
  0
VERTEX
  8
LAYER_1
 10
162.8622
 20
179.7462
  0
VERTEX
  8
LAYER_1
 10
170.3499
 20
187.2339
  0
SEQEND
  0
POLYLINE
  8
LAYER_1
 40
0.0847
 41
0.0847
 66
1
 10
0
 20
0
 30
0
  0
VERTEX
  8
LAYER_1
 10
159.3168
 20
179.7462
  0
VERTEX
  8
LAYER_1
 10
166.8309
 20
187.2339
  0
SEQEND
  0
POLYLINE
  8
LAYER_1
 40
0.0847
 41
0.0847
 66
1
 10
0
 20
0
 30
0
  0
VERTEX
  8
LAYER_1
 10
155.7978
 20
179.7462
  0
VERTEX
  8
LAYER_1
 10
163.2855
 20
187.2339
  0
SEQEND
  0
POLYLINE
  8
LAYER_1
 40
0.0847
 41
0.0847
 66
1
 10
0
 20
0
 30
0
  0
VERTEX
  8
LAYER_1
 10
152.2524
 20
179.7462
  0
VERTEX
  8
LAYER_1
 10
159.7665
 20
187.2339
  0
SEQEND
  0
POLYLINE
  8
LAYER_1
 40
0.0847
 41
0.0847
 66
1
 10
0
 20
0
 30
0
  0
VERTEX
  8
LAYER_1
 10
148.7334
 20
179.7462
  0
VERTEX
  8
LAYER_1
 10
156.2211
 20
187.2339
  0
SEQEND
  0
POLYLINE
  8
LAYER_1
 40
0.0847
 41
0.0847
 66
1
 10
0
 20
0
 30
0
  0
VERTEX
  8
LAYER_1
 10
141.669
 20
179.7462
  0
VERTEX
  8
LAYER_1
 10
149.1567
 20
187.2339
  0
SEQEND
  0
POLYLINE
  8
LAYER_1
 40
0.0847
 41
0.0847
 66
1
 10
0
 20
0
 30
0
  0
VERTEX
  8
LAYER_1
 10
145.188
 20
179.7462
  0
VERTEX
  8
LAYER_1
 10
152.7022
 20
187.2339
  0
SEQEND
  0
POLYLINE
  8
LAYER_1
 40
0.0847
 41
0.0847
 66
1
 10
0
 20
0
 30
0
  0
VERTEX
  8
LAYER_1
 10
138.1236
 20
179.7462
  0
VERTEX
  8
LAYER_1
 10
145.6113
 20
187.2339
  0
SEQEND
  0
POLYLINE
  8
LAYER_1
 40
0.0847
 41
0.0847
 66
1
 10
0
 20
0
 30
0
  0
VERTEX
  8
LAYER_1
 10
134.5782
 20
179.7462
  0
VERTEX
  8
LAYER_1
 10
142.0924
 20
187.2339
  0
SEQEND
  0
POLYLINE
  8
LAYER_1
 40
0.0847
 41
0.0847
 66
1
 10
0
 20
0
 30
0
  0
VERTEX
  8
LAYER_1
 10
131.0593
 20
179.7462
  0
VERTEX
  8
LAYER_1
 10
138.547
 20
187.2339
  0
SEQEND
  0
POLYLINE
  8
LAYER_1
 40
0.0847
 41
0.0847
 66
1
 10
0
 20
0
 30
0
  0
VERTEX
  8
LAYER_1
 10
127.5138
 20
179.7462
  0
VERTEX
  8
LAYER_1
 10
135.028
 20
187.2339
  0
SEQEND
  0
POLYLINE
  8
LAYER_1
 40
0.0847
 41
0.0847
 66
1
 10
0
 20
0
 30
0
  0
VERTEX
  8
LAYER_1
 10
123.9949
 20
179.7462
  0
VERTEX
  8
LAYER_1
 10
131.4826
 20
187.2339
  0
SEQEND
  0
POLYLINE
  8
LAYER_1
 40
0.0847
 41
0.0847
 66
1
 10
0
 20
0
 30
0
  0
VERTEX
  8
LAYER_1
 10
120.4495
 20
179.7462
  0
VERTEX
  8
LAYER_1
 10
127.9636
 20
187.2339
  0
SEQEND
  0
POLYLINE
  8
LAYER_1
 40
0.0847
 41
0.0847
 66
1
 10
0
 20
0
 30
0
  0
VERTEX
  8
LAYER_1
 10
116.9305
 20
179.7462
  0
VERTEX
  8
LAYER_1
 10
124.4182
 20
187.2339
  0
SEQEND
  0
POLYLINE
  8
LAYER_1
 40
0.0847
 41
0.0847
 66
1
 10
0
 20
0
 30
0
  0
VERTEX
  8
LAYER_1
 10
194.9561
 20
179.8785
  0
VERTEX
  8
LAYER_1
 10
195.0619
 20
179.7462
  0
SEQEND
  0
POLYLINE
  8
LAYER_1
 40
0.0847
 41
0.0847
 66
1
 10
0
 20
0
 30
0
  0
VERTEX
  8
LAYER_1
 10
194.6651
 20
179.7462
  0
VERTEX
  8
LAYER_1
 10
194.9032
 20
179.9579
  0
SEQEND
  0
POLYLINE
  8
LAYER_1
 40
0.0847
 41
0.0847
 66
1
 10
0
 20
0
 30
0
  0
VERTEX
  8
LAYER_1
 10
16.7328
 20
179.8785
  0
VERTEX
  8
LAYER_1
 10
16.6269
 20
179.7462
  0
SEQEND
  0
POLYLINE
  8
LAYER_1
 40
0.0847
 41
0.0847
 66
1
 10
0
 20
0
 30
0
  0
VERTEX
  8
LAYER_1
 10
206.7301
 20
179.7462
  0
VERTEX
  8
LAYER_1
 10
206.7301
 20
187.2339
  0
SEQEND
  0
POLYLINE
  8
LAYER_1
 40
0.1693
 41
0.1693
 66
1
 10
0
 20
0
 30
0
  0
VERTEX
  8
LAYER_1
 10
206.7302
 20
187.2339
  0
VERTEX
  8
LAYER_1
 10
205.7777
 20
190.8587
  0
SEQEND
  0
POLYLINE
  8
LAYER_1
 40
0.1693
 41
0.1693
 66
1
 10
0
 20
0
 30
0
  0
VERTEX
  8
LAYER_1
 10
206.7302
 20
187.2339
  0
VERTEX
  8
LAYER_1
 10
207.7091
 20
190.8587
  0
SEQEND
  0
POLYLINE
  8
LAYER_1
 40
0.1693
 41
0.1693
 66
1
 10
0
 20
0
 30
0
  0
VERTEX
  8
LAYER_1
 10
206.7302
 20
179.7462
  0
VERTEX
  8
LAYER_1
 10
207.7091
 20
176.1214
  0
SEQEND
  0
POLYLINE
  8
LAYER_1
 40
0.1693
 41
0.1693
 66
1
 10
0
 20
0
 30
0
  0
VERTEX
  8
LAYER_1
 10
206.7302
 20
179.7462
  0
VERTEX
  8
LAYER_1
 10
205.7777
 20
176.1214
  0
SEQEND
  0
POLYLINE
  8
LAYER_1
 40
0.0847
 41
0.0847
 66
1
 10
0
 20
0
 30
0
  0
VERTEX
  8
LAYER_1
 10
199.9568
 20
187.2339
  0
VERTEX
  8
LAYER_1
 10
206.7301
 20
187.2339
  0
SEQEND
  0
POLYLINE
  8
LAYER_1
 40
0.0847
 41
0.0847
 66
1
 10
0
 20
0
 30
0
  0
VERTEX
  8
LAYER_1
 10
199.9568
 20
179.7462
  0
VERTEX
  8
LAYER_1
 10
206.7301
 20
179.7462
  0
SEQEND
  0
TEXT
  8
LAYER_1
 10
205.8221
 20
181.4661
 11
205.8221
 21
181.4661
 40
4.5757
 41
0.5
 50
89.99999999
  1
30
  0
POLYLINE
  8
LAYER_1
 40
0.254
 41
0.254
 66
1
 10
0
 20
0
 30
0
  0
VERTEX
  8
LAYER_1
 10
16.627
 20
179.7462
  0
VERTEX
  8
LAYER_1
 10
97.7483
 20
179.7462
  0
VERTEX
  8
LAYER_1
 10
97.7483
 20
187.2339
  0
SEQEND
  0
POLYLINE
  8
LAYER_1
 40
0.0847
 41
0.0847
 66
1
 10
0
 20
0
 30
0
  0
VERTEX
  8
LAYER_1
 10
113.9408
 20
180.3018
  0
VERTEX
  8
LAYER_1
 10
120.8729
 20
187.2339
  0
SEQEND
  0
POLYLINE
  8
LAYER_1
 40
0.254
 41
0.254
 66
1
 10
0
 20
0
 30
0
  0
VERTEX
  8
LAYER_1
 10
113.9408
 20
179.7462
  0
VERTEX
  8
LAYER_1
 10
113.9408
 20
187.2339
  0
SEQEND
  0
POLYLINE
  8
LAYER_1
 40
0.254
 41
0.254
 66
1
 10
0
 20
0
 30
0
  0
VERTEX
  8
LAYER_1
 10
113.9408
 20
179.7462
  0
VERTEX
  8
LAYER_1
 10
195.062
 20
179.7462
  0
SEQEND
  0
POLYLINE
  8
LAYER_1
 40
0.1693
 41
0.1693
 66
1
 10
0
 20
0
 30
0
  0
VERTEX
  8
LAYER_1
 10
95.8697
 20
178.9789
  0
VERTEX
  8
LAYER_1
 10
115.8193
 20
178.9789
  0
VERTEX
  8
LAYER_1
 10
115.8193
 20
179.7462
  0
SEQEND
  0
POLYLINE
  8
LAYER_1
 40
0.1693
 41
0.1693
 66
1
 10
0
 20
0
 30
0
  0
VERTEX
  8
LAYER_1
 10
95.8697
 20
179.7462
  0
VERTEX
  8
LAYER_1
 10
115.8193
 20
179.7462
  0
SEQEND
  0
POLYLINE
  8
LAYER_1
 40
0.1693
 41
0.1693
 66
1
 10
0
 20
0
 30
0
  0
VERTEX
  8
LAYER_1
 10
95.8697
 20
178.9789
  0
VERTEX
  8
LAYER_1
 10
95.8697
 20
179.7462
  0
SEQEND
  0
POLYLINE
  8
LAYER_1
 40
0.0847
 41
0.0847
 66
1
 10
0
 20
0
 30
0
  0
VERTEX
  8
LAYER_1
 10
101.7435
 20
178.9789
  0
VERTEX
  8
LAYER_1
 10
101.7435
 20
179.1641
  0
SEQEND
  0
POLYLINE
  8
LAYER_1
 40
0.0847
 41
0.0847
 66
1
 10
0
 20
0
 30
0
  0
VERTEX
  8
LAYER_1
 10
101.7435
 20
179.5345
  0
VERTEX
  8
LAYER_1
 10
101.7435
 20
179.7462
  0
SEQEND
  0
POLYLINE
  8
LAYER_1
 40
0.0847
 41
0.0847
 66
1
 10
0
 20
0
 30
0
  0
VERTEX
  8
LAYER_1
 10
109.9456
 20
178.9789
  0
VERTEX
  8
LAYER_1
 10
109.9456
 20
179.1641
  0
SEQEND
  0
POLYLINE
  8
LAYER_1
 40
0.0847
 41
0.0847
 66
1
 10
0
 20
0
 30
0
  0
VERTEX
  8
LAYER_1
 10
109.9456
 20
179.5345
  0
VERTEX
  8
LAYER_1
 10
109.9456
 20
179.7462
  0
SEQEND
  0
POLYLINE
  8
LAYER_1
 40
0.1693
 41
0.1693
 66
1
 10
0
 20
0
 30
0
  0
VERTEX
  8
LAYER_1
 10
99.7327
 20
178.9789
  0
VERTEX
  8
LAYER_1
 10
111.9564
 20
178.9789
  0
SEQEND
  0
POLYLINE
  8
LAYER_1
 40
0.1693
 41
0.1693
 66
1
 10
0
 20
0
 30
0
  0
VERTEX
  8
LAYER_1
 10
111.9564
 20
178.3704
  0
VERTEX
  8
LAYER_1
 10
111.9564
 20
178.9789
  0
SEQEND
  0
POLYLINE
  8
LAYER_1
 40
0.1693
 41
0.1693
 66
1
 10
0
 20
0
 30
0
  0
VERTEX
  8
LAYER_1
 10
99.7327
 20
178.3704
  0
VERTEX
  8
LAYER_1
 10
111.9564
 20
178.3704
  0
SEQEND
  0
POLYLINE
  8
LAYER_1
 40
0.1693
 41
0.1693
 66
1
 10
0
 20
0
 30
0
  0
VERTEX
  8
LAYER_1
 10
110.5806
 20
176.8887
  0
VERTEX
  8
LAYER_1
 10
110.5806
 20
178.3704
  0
SEQEND
  0
POLYLINE
  8
LAYER_1
 40
0.1693
 41
0.1693
 66
1
 10
0
 20
0
 30
0
  0
VERTEX
  8
LAYER_1
 10
101.1085
 20
176.8887
  0
VERTEX
  8
LAYER_1
 10
110.5806
 20
176.8887
  0
SEQEND
  0
POLYLINE
  8
LAYER_1
 40
0.1693
 41
0.1693
 66
1
 10
0
 20
0
 30
0
  0
VERTEX
  8
LAYER_1
 10
101.1085
 20
176.8887
  0
VERTEX
  8
LAYER_1
 10
101.1085
 20
178.3704
  0
SEQEND
  0
POLYLINE
  8
LAYER_1
 40
0.1693
 41
0.1693
 66
1
 10
0
 20
0
 30
0
  0
VERTEX
  8
LAYER_1
 10
99.7327
 20
178.3704
  0
VERTEX
  8
LAYER_1
 10
99.7327
 20
178.9789
  0
SEQEND
  0
POLYLINE
  8
LAYER_1
 40
0.0847
 41
0.0847
 66
1
 10
0
 20
0
 30
0
  0
VERTEX
  8
LAYER_1
 10
105.8446
 20
176.8887
  0
VERTEX
  8
LAYER_1
 10
105.8446
 20
178.3704
  0
SEQEND
  0
POLYLINE
  8
LAYER_1
 40
0.1693
 41
0.1693
 66
1
 10
0
 20
0
 30
0
  0
VERTEX
  8
LAYER_1
 10
101.8758
 20
173.3698
  0
VERTEX
  8
LAYER_1
 10
102.1933
 20
173.1316
  0
VERTEX
  8
LAYER_1
 10
101.8758
 20
172.8671
  0
VERTEX
  8
LAYER_1
 10
102.1933
 20
172.6289
  0
VERTEX
  8
LAYER_1
 10
101.8758
 20
172.3643
  0
VERTEX
  8
LAYER_1
 10
102.1933
 20
172.1262
  0
VERTEX
  8
LAYER_1
 10
101.8758
 20
171.8616
  0
VERTEX
  8
LAYER_1
 10
102.1933
 20
171.6235
  0
SEQEND
  0
POLYLINE
  8
LAYER_1
 40
0.1693
 41
0.1693
 66
1
 10
0
 20
0
 30
0
  0
VERTEX
  8
LAYER_1
 10
109.4958
 20
173.3169
  0
VERTEX
  8
LAYER_1
 10
109.8133
 20
173.0787
  0
VERTEX
  8
LAYER_1
 10
109.4958
 20
172.8141
  0
VERTEX
  8
LAYER_1
 10
109.8133
 20
172.576
  0
VERTEX
  8
LAYER_1
 10
109.4958
 20
172.3114
  0
VERTEX
  8
LAYER_1
 10
109.8133
 20
172.0733
  0
VERTEX
  8
LAYER_1
 10
109.4958
 20
171.8087
  0
VERTEX
  8
LAYER_1
 10
109.8133
 20
171.5706
  0
SEQEND
  0
POLYLINE
  8
LAYER_1
 40
0.1693
 41
0.1693
 66
1
 10
0
 20
0
 30
0
  0
VERTEX
  8
LAYER_1
 10
102.1933
 20
171.6235
  0
VERTEX
  8
LAYER_1
 10
101.8758
 20
171.3589
  0
SEQEND
  0
POLYLINE
  8
LAYER_1
 40
0.1693
 41
0.1693
 66
1
 10
0
 20
0
 30
0
  0
VERTEX
  8
LAYER_1
 10
109.8133
 20
171.5706
  0
VERTEX
  8
LAYER_1
 10
109.4958
 20
171.306
  0
SEQEND
  0
POLYLINE
  8
LAYER_1
 40
0.1693
 41
0.1693
 66
1
 10
0
 20
0
 30
0
  0
VERTEX
  8
LAYER_1
 10
101.8758
 20
171.3589
  0
VERTEX
  8
LAYER_1
 10
102.1933
 20
171.1208
  0
VERTEX
  8
LAYER_1
 10
101.8758
 20
170.8562
  0
SEQEND
  0
POLYLINE
  8
LAYER_1
 40
0.1693
 41
0.1693
 66
1
 10
0
 20
0
 30
0
  0
VERTEX
  8
LAYER_1
 10
109.4958
 20
171.306
  0
VERTEX
  8
LAYER_1
 10
109.8133
 20
171.0679
  0
VERTEX
  8
LAYER_1
 10
109.4958
 20
170.8033
  0
SEQEND
  0
POLYLINE
  8
LAYER_1
 40
0.1693
 41
0.1693
 66
1
 10
0
 20
0
 30
0
  0
VERTEX
  8
LAYER_1
 10
101.9287
 20
176.8887
  0
VERTEX
  8
LAYER_1
 10
101.8758
 20
176.8622
  0
SEQEND
  0
POLYLINE
  8
LAYER_1
 40
0.1693
 41
0.1693
 66
1
 10
0
 20
0
 30
0
  0
VERTEX
  8
LAYER_1
 10
109.5752
 20
176.8887
  0
VERTEX
  8
LAYER_1
 10
109.4958
 20
176.8093
  0
SEQEND
  0
POLYLINE
  8
LAYER_1
 40
0.1693
 41
0.1693
 66
1
 10
0
 20
0
 30
0
  0
VERTEX
  8
LAYER_1
 10
101.8758
 20
179.852
  0
VERTEX
  8
LAYER_1
 10
102.0345
 20
179.7462
  0
SEQEND
  0
POLYLINE
  8
LAYER_1
 40
0.1693
 41
0.1693
 66
1
 10
0
 20
0
 30
0
  0
VERTEX
  8
LAYER_1
 10
109.4958
 20
179.7991
  0
VERTEX
  8
LAYER_1
 10
109.5752
 20
179.7462
  0
SEQEND
  0
POLYLINE
  8
LAYER_1
 40
0.0847
 41
0.0847
 66
1
 10
0
 20
0
 30
0
  0
VERTEX
  8
LAYER_1
 10
66.0777
 20
171.9145
  0
VERTEX
  8
LAYER_1
 10
101.4789
 20
181.2543
  0
SEQEND
  0
POLYLINE
  8
LAYER_1
 40
0.0847
 41
0.0847
 66
1
 10
0
 20
0
 30
0
  0
VERTEX
  8
LAYER_1
 10
66.0777
 20
171.9145
  0
VERTEX
  8
LAYER_1
 10
101.6906
 20
177.6031
  0
SEQEND
  0
POLYLINE
  8
LAYER_1
 40
0.0847
 41
0.0847
 66
1
 10
0
 20
0
 30
0
  0
VERTEX
  8
LAYER_1
 10
64.4902
 20
158.0239
  0
VERTEX
  8
LAYER_1
 10
97.6954
 20
179.2435
  0
SEQEND
  0
TEXT
  8
LAYER_1
 10
149.6332
 20
174.4546
 11
149.6332
 21
174.4546
 40
5.3169
 41
0.5
  1
ôVö┬èJî¹Éíû@üF53055
  0
TEXT
  8
LAYER_1
 10
39.6985
 20
170.2213
 11
39.6985
 21
170.2213
 40
3.2224
 41
0.5
  1
örÉàû┌ÄMùpâiâbâg
  0
TEXT
  8
LAYER_1
 10
16.7063
 20
156.2249
 11
16.7063
 21
156.2249
 40
3.2224
 41
0.5
  1
â{âEâïî┼ÆÞö┬üiâoâbâNâvâîü[âgüj
  0
TEXT
  8
LAYER_1
 10
150.5589
 20
138.4716
 11
150.5589
 21
138.4716
 40
3.8024
 41
0.5
  1
örÉàâgâëâbâv%%c25
  0
ENDBLK
  0
BLOCK
  8
LAYER_1
  2
AIGNBL01010005
 70
64
 10
0
 20
0
 30
0
  3
AIGNBL01010005
  0
POLYLINE
  8
LAYER_1
 40
0.1693
 41
0.1693
 66
1
 10
0
 20
0
 30
0
  0
VERTEX
  8
LAYER_1
 10
26.0715
 20
106.8309
  0
VERTEX
  8
LAYER_1
 10
179.4451
 20
106.8309
  0
SEQEND
  0
TEXT
  8
LAYER_1
 10
45.7988
 20
100.354
 11
45.7988
 21
100.354
 40
3.1022
 41
0.5
  1
üyâZâbâgôÓùeüz
  0
TEXT
  8
LAYER_1
 10
45.4602
 20
75.5255
 11
45.4602
 21
75.5255
 40
3.1022
 41
0.5
  1
üEörÉàâgâëâbâv
  0
TEXT
  8
LAYER_1
 10
45.4602
 20
70.5301
 11
45.4602
 21
70.5301
 40
3.1022
 41
0.5
  1
üEë╗Å¤âLâââbâvâëâEâôâhüiâNâìâÇüj
  0
TEXT
  8
LAYER_1
 10
45.4602
 20
65.5347
 11
45.4602
 21
65.5347
 40
3.6606
 41
0.5
  1
üEörÉàâgâëâbâvüiSâgâëâbâvé▄é¢é═Pâgâëâbâvé▄é¢é═â{âgâïâëâbâvüj
  0
TEXT
  8
LAYER_1
 10
140.668
 20
108.461
 11
140.668
 21
108.461
 40
3.6606
 41
0.5
  1
üªôVö┬î·ü@30055å@æ╬ë×
  0
TEXT
  8
LAYER_1
 10
45.4602
 20
95.5067
 11
45.4602
 21
95.5067
 40
3.6606
 41
0.5
  1
üEAchilleion âVâèü[âYü@örÉàÉ­üiörÉàû┌ÄMüj
  0
TEXT
  8
LAYER_1
 10
45.4602
 20
85.5163
 11
45.4602
 21
85.5163
 40
3.6606
 41
0.5
  1
üEörÉàû┌ÄMùpâiâbâgü~2
  0
TEXT
  8
LAYER_1
 10
45.4602
 20
80.5209
 11
45.4602
 21
80.5209
 40
3.1022
 41
0.5
  1
üEâ{âEâïî┼ÆÞö┬üiâoâbâNâvâîü[âgüj
  0
TEXT
  8
LAYER_1
 10
45.4602
 20
90.5113
 11
45.4602
 21
90.5113
 40
3.1022
 41
0.5
  1
üEörÉàâpâbâLâôüiâXâ|âôâWâpâbâLâôüEÄOèpâpâbâLâôüEâXâèâbâvâpâbâLâôüj
  0
ENDBLK
  0
BLOCK
  8
LAYER_1
  2
AIGNBL01010006
 70
64
 10
0
 20
0
 30
0
  3
AIGNBL01010006
  0
INSERT
  8
LAYER_1
  2
AIGNBL01020007
 10
0
 20
0
 30
0
  0
INSERT
  8
LAYER_1
  2
AIGNBL01020010
 10
0
 20
0
 30
0
  0
ENDBLK
  0
ENDSEC
  0
SECTION
  2
ENTITIES
  0
TEXT
  8
LAYER_1
 10
46.4327
 20
132.5069
 11
46.4327
 21
132.5069
 40
3.6606
 41
0.5
  1
üªÅÒïLÄµéÞòté»É}é═üASLAVIA CRYSTAL AchilleionâRâôâvâèü[âgâZâbâgé­ùpéóé¢éÓé╠éãé╚éÞé▄éÀüB
  0
TEXT
  8
LAYER_1
 10
56.5033
 20
237.4843
 11
56.5033
 21
237.4843
 40
5.1558
 41
0.5
  1
AchilieionüiâAâqâèâIâôüj300É¶û╩â{âEâï ÄµéÞòté»É}
  0
INSERT
  8
LAYER_1
  2
AIGNBL01010002
 10
0
 20
0
 30
0
  0
INSERT
  8
LAYER_1
  2
AIGNBL01010005
 10
0
 20
0
 30
0
  0
TEXT
  8
LAYER_1
 10
186.826
 20
54.0008
 11
186.826
 21
54.0008
 40
3.3848
 41
0.5
  1
ü£TEL 0120-65-1232ü£FAX 06-6532-1580
  0
TEXT
  8
LAYER_1
 10
186.826
 20
50.4861
 11
186.826
 21
50.4861
 40
3.3848
 41
0.5
  1
hits@hiratatile.co.jp
  0
INSERT
  8
LAYER_1
  2
AIGNBL01010006
 10
0
 20
0
 30
0
  0
ENDSEC
  0
EOF
