  0
SECTION
  2
HEADER
  9
$ACADVER
  1
AC1009
  9
$LUNITS
 70
2
  9
$LUPREC
 70
4
  9
$LTSCALE
 40
1.0
  9
$EXTMIN
 10
-39.0348
 20
51.8049
 30
0
  9
$EXTMAX
 10
248.7669
 20
243.3583
 30
0
  0
ENDSEC
  0
SECTION
  2
TABLES
  0
TABLE
  2
LTYPE
 70
256
  0
ENDTAB
  0
TABLE
  2
LAYER
 70
1
  0
LAYER
  2
LAYER_1
 70
64
 62
7
  6
CONTINUOUS
  0
ENDTAB
  0
TABLE
  2
STYLE
 70
6
  0
STYLE
  2
STANDARD
 70
0
 40
0
 50
0
 71
0
 41
0
 42
0
  3
TXT
  4
BIGFONT
  0
ENDTAB
  0
ENDSEC
  0
SECTION
  2
BLOCKS
  0
BLOCK
  8
LAYER_1
  2
AIGNBL01040008
 70
64
 10
0
 20
0
 30
0
  3
AIGNBL01040008
  0
POLYLINE
  8
LAYER_1
 40
0.05
 41
0.05
 66
1
 10
0
 20
0
 30
0
 70
1
  0
VERTEX
  8
LAYER_1
 10
149.883
 20
55.7499
  0
VERTEX
  8
LAYER_1
 10
149.3941
 20
54.5649
  0
VERTEX
  8
LAYER_1
 10
148.7661
 20
54.5649
  0
VERTEX
  8
LAYER_1
 10
150.3656
 20
58.3307
  0
VERTEX
  8
LAYER_1
 10
151.0988
 20
58.3307
  0
VERTEX
  8
LAYER_1
 10
152.7052
 20
54.5649
  0
VERTEX
  8
LAYER_1
 10
152.0551
 20
54.5649
  0
VERTEX
  8
LAYER_1
 10
151.5525
 20
55.7499
  0
SEQEND
  0
POLYLINE
  8
LAYER_1
 40
0.05
 41
0.05
 66
1
 10
0
 20
0
 30
0
 70
1
  0
VERTEX
  8
LAYER_1
 10
151.4267
 20
56.1289
  0
VERTEX
  8
LAYER_1
 10
150.9658
 20
57.2138
  0
VERTEX
  8
LAYER_1
 10
150.7212
 20
57.9007
  0
VERTEX
  8
LAYER_1
 10
150.7074
 20
57.9007
  0
VERTEX
  8
LAYER_1
 10
150.4697
 20
57.2182
  0
VERTEX
  8
LAYER_1
 10
150.0091
 20
56.1289
  0
SEQEND
  0
ENDBLK
  0
BLOCK
  8
LAYER_1
  2
AIGNBL01040009
 70
64
 10
0
 20
0
 30
0
  3
AIGNBL01040009
  0
POLYLINE
  8
LAYER_1
 40
0.05
 41
0.05
 66
1
 10
0
 20
0
 30
0
 70
1
  0
VERTEX
  8
LAYER_1
 10
157.0705
 20
54.0116
 42
-0.01559608074
  0
VERTEX
  8
LAYER_1
 10
155.2684
 20
54.4477
  0
VERTEX
  8
LAYER_1
 10
154.9817
 20
54.5032
 42
-0.08358905353
  0
VERTEX
  8
LAYER_1
 10
154.1177
 20
54.6693
 42
-0.09751246673
  0
VERTEX
  8
LAYER_1
 10
153.4565
 20
55.0753
 42
-0.2129005167
  0
VERTEX
  8
LAYER_1
 10
152.9078
 20
56.408
 42
-0.09685143224
  0
VERTEX
  8
LAYER_1
 10
153.0524
 20
57.1814
 42
-0.2046325641
  0
VERTEX
  8
LAYER_1
 10
154.0999
 20
58.2056
 42
-0.09825434011
  0
VERTEX
  8
LAYER_1
 10
155.1009
 20
58.392
 42
-0.08554836282
  0
VERTEX
  8
LAYER_1
 10
155.9695
 20
58.2507
 42
-0.1004347897
  0
VERTEX
  8
LAYER_1
 10
156.6346
 20
57.8564
 42
-0.2140895568
  0
VERTEX
  8
LAYER_1
 10
157.21
 20
56.4865
 42
-0.09540200113
  0
VERTEX
  8
LAYER_1
 10
157.0711
 20
55.7188
 42
-0.2143255494
  0
VERTEX
  8
LAYER_1
 10
156.0483
 20
54.7403
 42
-0.02339086401
  0
VERTEX
  8
LAYER_1
 10
155.8692
 20
54.682
  0
VERTEX
  8
LAYER_1
 10
155.8692
 20
54.6596
 42
0.01715285326
  0
VERTEX
  8
LAYER_1
 10
157.2455
 20
54.4194
  0
SEQEND
  0
POLYLINE
  8
LAYER_1
 40
0.05
 41
0.05
 66
1
 10
0
 20
0
 30
0
 70
1
  0
VERTEX
  8
LAYER_1
 10
156.5679
 20
56.4652
 42
0.1071638435
  0
VERTEX
  8
LAYER_1
 10
156.4166
 20
57.1699
 42
0.2976166227
  0
VERTEX
  8
LAYER_1
 10
155.0796
 20
57.9955
 42
0.1072356843
  0
VERTEX
  8
LAYER_1
 10
154.3898
 20
57.856
 42
0.2385874916
  0
VERTEX
  8
LAYER_1
 10
153.6028
 20
56.8504
 42
0.05751786988
  0
VERTEX
  8
LAYER_1
 10
153.5572
 20
56.4204
 42
0.218058121
  0
VERTEX
  8
LAYER_1
 10
154.0878
 20
55.225
 42
0.1772828752
  0
VERTEX
  8
LAYER_1
 10
155.0517
 20
54.8994
 42
0.1075205619
  0
VERTEX
  8
LAYER_1
 10
155.733
 20
55.0384
 42
0.2370768657
  0
VERTEX
  8
LAYER_1
 10
156.5202
 20
56.038
 42
0.05602139055
  0
SEQEND
  0
ENDBLK
  0
BLOCK
  8
LAYER_1
  2
AIGNBL0104000A
 70
64
 10
0
 20
0
 30
0
  3
AIGNBL0104000A
  0
POLYLINE
  8
LAYER_1
 40
0.05
 41
0.05
 66
1
 10
0
 20
0
 30
0
 70
1
  0
VERTEX
  8
LAYER_1
 10
158.5374
 20
58.3307
  0
VERTEX
  8
LAYER_1
 10
158.5374
 20
56.1013
 42
0.1145419645
  0
VERTEX
  8
LAYER_1
 10
158.6713
 20
55.4355
 42
0.146474021
  0
VERTEX
  8
LAYER_1
 10
159.0217
 20
55.0504
 42
0.136249447
  0
VERTEX
  8
LAYER_1
 10
159.634
 20
54.8994
 42
0.1219252591
  0
VERTEX
  8
LAYER_1
 10
160.2571
 20
55.0341
 42
0.1502970876
  0
VERTEX
  8
LAYER_1
 10
160.6289
 20
55.4031
 42
0.1256330146
  0
VERTEX
  8
LAYER_1
 10
160.7795
 20
56.1013
  0
VERTEX
  8
LAYER_1
 10
160.7795
 20
58.3307
  0
VERTEX
  8
LAYER_1
 10
161.3941
 20
58.3307
  0
VERTEX
  8
LAYER_1
 10
161.3941
 20
56.1348
 42
-0.09997505101
  0
VERTEX
  8
LAYER_1
 10
161.2592
 20
55.3921
 42
-0.1214984503
  0
VERTEX
  8
LAYER_1
 10
160.8859
 20
54.8854
 42
-0.1106235892
  0
VERTEX
  8
LAYER_1
 10
160.2605
 20
54.5788
 42
-0.06128954947
  0
VERTEX
  8
LAYER_1
 10
159.613
 20
54.5032
 42
-0.09418225932
  0
VERTEX
  8
LAYER_1
 10
158.7938
 20
54.6413
 42
-0.2431666463
  0
VERTEX
  8
LAYER_1
 10
157.9903
 20
55.552
 42
-0.06320556818
  0
VERTEX
  8
LAYER_1
 10
157.9228
 20
56.1127
  0
VERTEX
  8
LAYER_1
 10
157.9228
 20
58.3307
  0
SEQEND
  0
ENDBLK
  0
BLOCK
  8
LAYER_1
  2
AIGNBL0104000B
 70
64
 10
0
 20
0
 30
0
  3
AIGNBL0104000B
  0
POLYLINE
  8
LAYER_1
 40
0.05
 41
0.05
 66
1
 10
0
 20
0
 30
0
 70
1
  0
VERTEX
  8
LAYER_1
 10
163.1404
 20
55.7499
  0
VERTEX
  8
LAYER_1
 10
162.6512
 20
54.5649
  0
VERTEX
  8
LAYER_1
 10
162.0232
 20
54.5649
  0
VERTEX
  8
LAYER_1
 10
163.6224
 20
58.3307
  0
VERTEX
  8
LAYER_1
 10
164.3555
 20
58.3307
  0
VERTEX
  8
LAYER_1
 10
165.962
 20
54.5649
  0
VERTEX
  8
LAYER_1
 10
165.3126
 20
54.5649
  0
VERTEX
  8
LAYER_1
 10
164.8099
 20
55.7499
  0
SEQEND
  0
POLYLINE
  8
LAYER_1
 40
0.05
 41
0.05
 66
1
 10
0
 20
0
 30
0
 70
1
  0
VERTEX
  8
LAYER_1
 10
164.6838
 20
56.1289
  0
VERTEX
  8
LAYER_1
 10
164.2225
 20
57.2138
  0
VERTEX
  8
LAYER_1
 10
163.9779
 20
57.9007
  0
VERTEX
  8
LAYER_1
 10
163.9641
 20
57.9007
  0
VERTEX
  8
LAYER_1
 10
163.7268
 20
57.2182
  0
VERTEX
  8
LAYER_1
 10
163.2658
 20
56.1289
  0
SEQEND
  0
ENDBLK
  0
BLOCK
  8
LAYER_1
  2
AIGNBL0104000C
 70
64
 10
0
 20
0
 30
0
  3
AIGNBL0104000C
  0
POLYLINE
  8
LAYER_1
 40
0.05
 41
0.05
 66
1
 10
0
 20
0
 30
0
 70
1
  0
VERTEX
  8
LAYER_1
 10
167.0027
 20
58.2859
 42
-0.03243103605
  0
VERTEX
  8
LAYER_1
 10
168.1696
 20
58.3589
 42
-0.0808140334
  0
VERTEX
  8
LAYER_1
 10
169.126
 20
58.2271
 42
-0.07818660191
  0
VERTEX
  8
LAYER_1
 10
169.4894
 20
58.0461
 42
-0.2484404511
  0
VERTEX
  8
LAYER_1
 10
169.9011
 20
57.2579
 42
-0.226189009
  0
VERTEX
  8
LAYER_1
 10
169.538
 20
56.4538
 42
-0.1097250921
  0
VERTEX
  8
LAYER_1
 10
168.9097
 20
56.1405
 42
-0.0656688505
  0
VERTEX
  8
LAYER_1
 10
168.0993
 20
56.04
 42
-0.06238309955
  0
VERTEX
  8
LAYER_1
 10
167.6108
 20
56.0734
  0
VERTEX
  8
LAYER_1
 10
167.6108
 20
54.5649
  0
VERTEX
  8
LAYER_1
 10
167.0027
 20
54.5649
  0
SEQEND
  0
POLYLINE
  8
LAYER_1
 40
0.05
 41
0.05
 66
1
 10
0
 20
0
 30
0
 70
1
  0
VERTEX
  8
LAYER_1
 10
167.6108
 20
56.4703
 42
0.04195491068
  0
VERTEX
  8
LAYER_1
 10
168.1131
 20
56.4311
 42
0.103220324
  0
VERTEX
  8
LAYER_1
 10
168.8322
 20
56.5584
 42
0.1556055465
  0
VERTEX
  8
LAYER_1
 10
169.197
 20
56.8628
 42
0.1352465059
  0
VERTEX
  8
LAYER_1
 10
169.294
 20
57.2355
 42
0.1736824711
  0
VERTEX
  8
LAYER_1
 10
169.1592
 20
57.6428
 42
0.151721714
  0
VERTEX
  8
LAYER_1
 10
168.7381
 20
57.9023
 42
0.06880216409
  0
VERTEX
  8
LAYER_1
 10
168.1837
 20
57.9731
 42
0.06324318977
  0
VERTEX
  8
LAYER_1
 10
167.6108
 20
57.9338
  0
SEQEND
  0
ENDBLK
  0
BLOCK
  8
LAYER_1
  2
AIGNBL0104000D
 70
64
 10
0
 20
0
 30
0
  3
AIGNBL0104000D
  0
POLYLINE
  8
LAYER_1
 40
0.05
 41
0.05
 66
1
 10
0
 20
0
 30
0
 70
1
  0
VERTEX
  8
LAYER_1
 10
171.4531
 20
58.0289
 42
-0.276560599
  0
VERTEX
  8
LAYER_1
 10
171.3135
 20
57.7888
 42
-0.1265502936
  0
VERTEX
  8
LAYER_1
 10
171.0614
 20
57.7271
 42
-0.22367962
  0
VERTEX
  8
LAYER_1
 10
170.7511
 20
57.8595
 42
-0.1709078449
  0
VERTEX
  8
LAYER_1
 10
170.691
 20
58.0289
 42
-0.2644657541
  0
VERTEX
  8
LAYER_1
 10
170.8404
 20
58.2759
 42
-0.1289461134
  0
VERTEX
  8
LAYER_1
 10
171.0751
 20
58.3358
 42
-0.2252711891
  0
VERTEX
  8
LAYER_1
 10
171.392
 20
58.2052
 42
-0.1691711204
  0
SEQEND
  0
POLYLINE
  8
LAYER_1
 40
0.05
 41
0.05
 66
1
 10
0
 20
0
 30
0
 70
1
  0
VERTEX
  8
LAYER_1
 10
170.7675
 20
54.5649
  0
VERTEX
  8
LAYER_1
 10
170.7675
 20
57.2689
  0
VERTEX
  8
LAYER_1
 10
171.3821
 20
57.2689
  0
VERTEX
  8
LAYER_1
 10
171.3821
 20
54.5649
  0
SEQEND
  0
ENDBLK
  0
BLOCK
  8
LAYER_1
  2
AIGNBL0104000E
 70
64
 10
0
 20
0
 30
0
  3
AIGNBL0104000E
  0
POLYLINE
  8
LAYER_1
 40
0.05
 41
0.05
 66
1
 10
0
 20
0
 30
0
 70
1
  0
VERTEX
  8
LAYER_1
 10
173.2538
 20
55.7499
  0
VERTEX
  8
LAYER_1
 10
172.7657
 20
54.5649
  0
VERTEX
  8
LAYER_1
 10
172.1366
 20
54.5649
  0
VERTEX
  8
LAYER_1
 10
173.7362
 20
58.3307
  0
VERTEX
  8
LAYER_1
 10
174.47
 20
58.3307
  0
VERTEX
  8
LAYER_1
 10
176.0764
 20
54.5649
  0
VERTEX
  8
LAYER_1
 10
175.4267
 20
54.5649
  0
VERTEX
  8
LAYER_1
 10
174.924
 20
55.7499
  0
SEQEND
  0
POLYLINE
  8
LAYER_1
 40
0.05
 41
0.05
 66
1
 10
0
 20
0
 30
0
 70
1
  0
VERTEX
  8
LAYER_1
 10
174.7979
 20
56.1289
  0
VERTEX
  8
LAYER_1
 10
174.337
 20
57.2138
  0
VERTEX
  8
LAYER_1
 10
174.0931
 20
57.9007
  0
VERTEX
  8
LAYER_1
 10
174.0782
 20
57.9007
  0
VERTEX
  8
LAYER_1
 10
173.8412
 20
57.2182
  0
VERTEX
  8
LAYER_1
 10
173.3803
 20
56.1289
  0
SEQEND
  0
ENDBLK
  0
BLOCK
  8
LAYER_1
  2
AIGNBL01030007
 70
64
 10
0
 20
0
 30
0
  3
AIGNBL01030007
  0
INSERT
  8
LAYER_1
  2
AIGNBL01040008
 10
0
 20
0
 30
0
  0
INSERT
  8
LAYER_1
  2
AIGNBL01040009
 10
0
 20
0
 30
0
  0
INSERT
  8
LAYER_1
  2
AIGNBL0104000A
 10
0
 20
0
 30
0
  0
INSERT
  8
LAYER_1
  2
AIGNBL0104000B
 10
0
 20
0
 30
0
  0
INSERT
  8
LAYER_1
  2
AIGNBL0104000C
 10
0
 20
0
 30
0
  0
INSERT
  8
LAYER_1
  2
AIGNBL0104000D
 10
0
 20
0
 30
0
  0
INSERT
  8
LAYER_1
  2
AIGNBL0104000E
 10
0
 20
0
 30
0
  0
ENDBLK
  0
BLOCK
  8
LAYER_1
  2
AIGNBL01030010
 70
64
 10
0
 20
0
 30
0
  3
AIGNBL01030010
  0
POLYLINE
  8
LAYER_1
 40
0.05
 41
0.05
 66
1
 10
0
 20
0
 30
0
 70
1
  0
VERTEX
  8
LAYER_1
 10
148.876
 20
52.6656
  0
VERTEX
  8
LAYER_1
 10
149.4293
 20
52.6656
  0
VERTEX
  8
LAYER_1
 10
149.4293
 20
52.5718
  0
VERTEX
  8
LAYER_1
 10
148.7709
 20
52.5718
  0
VERTEX
  8
LAYER_1
 10
148.7709
 20
53.605
  0
VERTEX
  8
LAYER_1
 10
149.4117
 20
53.605
  0
VERTEX
  8
LAYER_1
 10
149.4117
 20
53.5117
  0
VERTEX
  8
LAYER_1
 10
148.876
 20
53.5117
  0
VERTEX
  8
LAYER_1
 10
148.876
 20
53.1572
  0
VERTEX
  8
LAYER_1
 10
149.3766
 20
53.1572
  0
VERTEX
  8
LAYER_1
 10
149.3766
 20
53.0638
  0
VERTEX
  8
LAYER_1
 10
148.876
 20
53.0638
  0
SEQEND
  0
ENDBLK
  0
BLOCK
  8
LAYER_1
  2
AIGNBL01030011
 70
64
 10
0
 20
0
 30
0
  3
AIGNBL01030011
  0
POLYLINE
  8
LAYER_1
 40
0.05
 41
0.05
 66
1
 10
0
 20
0
 30
0
 70
1
  0
VERTEX
  8
LAYER_1
 10
150.5689
 20
52.7252
  0
VERTEX
  8
LAYER_1
 10
150.5717
 20
52.7252
  0
VERTEX
  8
LAYER_1
 10
150.5717
 20
53.605
  0
VERTEX
  8
LAYER_1
 10
150.6768
 20
53.605
  0
VERTEX
  8
LAYER_1
 10
150.6768
 20
52.5718
  0
VERTEX
  8
LAYER_1
 10
150.5458
 20
52.5718
  0
VERTEX
  8
LAYER_1
 10
149.9447
 20
53.4607
  0
VERTEX
  8
LAYER_1
 10
149.9412
 20
53.4607
  0
VERTEX
  8
LAYER_1
 10
149.9412
 20
52.5718
  0
VERTEX
  8
LAYER_1
 10
149.8365
 20
52.5718
  0
VERTEX
  8
LAYER_1
 10
149.8365
 20
53.605
  0
VERTEX
  8
LAYER_1
 10
149.9677
 20
53.605
  0
SEQEND
  0
ENDBLK
  0
BLOCK
  8
LAYER_1
  2
AIGNBL01030012
 70
64
 10
0
 20
0
 30
0
  3
AIGNBL01030012
  0
POLYLINE
  8
LAYER_1
 40
0.05
 41
0.05
 66
1
 10
0
 20
0
 30
0
 70
1
  0
VERTEX
  8
LAYER_1
 10
151.1498
 20
52.7837
  0
VERTEX
  8
LAYER_1
 10
151.2042
 20
52.6807
 42
0.1808193332
  0
VERTEX
  8
LAYER_1
 10
151.3175
 20
52.639
  0
VERTEX
  8
LAYER_1
 10
151.4068
 20
52.6587
  0
VERTEX
  8
LAYER_1
 10
151.4629
 20
52.7121
  0
VERTEX
  8
LAYER_1
 10
151.4919
 20
52.7886
  0
VERTEX
  8
LAYER_1
 10
151.5001
 20
52.8781
  0
VERTEX
  8
LAYER_1
 10
151.5001
 20
53.605
  0
VERTEX
  8
LAYER_1
 10
151.6052
 20
53.605
  0
VERTEX
  8
LAYER_1
 10
151.6052
 20
52.8695
  0
VERTEX
  8
LAYER_1
 10
151.5938
 20
52.7617
  0
VERTEX
  8
LAYER_1
 10
151.5525
 20
52.6566
  0
VERTEX
  8
LAYER_1
 10
151.4678
 20
52.577
  0
VERTEX
  8
LAYER_1
 10
151.3289
 20
52.5457
 42
-0.1845231376
  0
VERTEX
  8
LAYER_1
 10
151.1443
 20
52.6056
 42
-0.1765285731
  0
VERTEX
  8
LAYER_1
 10
151.0519
 20
52.7572
  0
SEQEND
  0
ENDBLK
  0
BLOCK
  8
LAYER_1
  2
AIGNBL01030013
 70
64
 10
0
 20
0
 30
0
  3
AIGNBL01030013
  0
POLYLINE
  8
LAYER_1
 40
0.05
 41
0.05
 66
1
 10
0
 20
0
 30
0
 70
1
  0
VERTEX
  8
LAYER_1
 10
153.0935
 20
53.0886
 42
-0.1039024845
  0
VERTEX
  8
LAYER_1
 10
153.0525
 20
52.8712
 42
-0.100426525
  0
VERTEX
  8
LAYER_1
 10
152.9398
 20
52.6997
 42
-0.09534953409
  0
VERTEX
  8
LAYER_1
 10
152.7689
 20
52.5867
 42
-0.09515264368
  0
VERTEX
  8
LAYER_1
 10
152.555
 20
52.5457
 42
-0.1010765979
  0
VERTEX
  8
LAYER_1
 10
152.3414
 20
52.5867
 42
-0.1005668876
  0
VERTEX
  8
LAYER_1
 10
152.1705
 20
52.6997
 42
-0.09429605145
  0
VERTEX
  8
LAYER_1
 10
152.0572
 20
52.8712
 42
-0.09313545426
  0
VERTEX
  8
LAYER_1
 10
152.0165
 20
53.0886
 42
-0.1023371638
  0
VERTEX
  8
LAYER_1
 10
152.0572
 20
53.306
 42
-0.100391096
  0
VERTEX
  8
LAYER_1
 10
152.1705
 20
53.4776
 42
-0.09625543395
  0
VERTEX
  8
LAYER_1
 10
152.3414
 20
53.5906
 42
-0.0952064105
  0
VERTEX
  8
LAYER_1
 10
152.555
 20
53.6316
 42
-0.1014334603
  0
VERTEX
  8
LAYER_1
 10
152.7689
 20
53.5906
 42
-0.09904343471
  0
VERTEX
  8
LAYER_1
 10
152.9398
 20
53.4776
 42
-0.09575770406
  0
VERTEX
  8
LAYER_1
 10
153.0525
 20
53.306
 42
-0.09397357601
  0
SEQEND
  0
POLYLINE
  8
LAYER_1
 40
0.05
 41
0.05
 66
1
 10
0
 20
0
 30
0
 70
1
  0
VERTEX
  8
LAYER_1
 10
152.9826
 20
53.0879
  0
VERTEX
  8
LAYER_1
 10
152.9536
 20
53.2598
  0
VERTEX
  8
LAYER_1
 10
152.8689
 20
53.4032
  0
VERTEX
  8
LAYER_1
 10
152.7338
 20
53.5013
 42
0.1018863245
  0
VERTEX
  8
LAYER_1
 10
152.555
 20
53.5382
  0
VERTEX
  8
LAYER_1
 10
152.3762
 20
53.5013
  0
VERTEX
  8
LAYER_1
 10
152.2415
 20
53.4032
  0
VERTEX
  8
LAYER_1
 10
152.1568
 20
53.2598
  0
VERTEX
  8
LAYER_1
 10
152.1275
 20
53.0879
  0
VERTEX
  8
LAYER_1
 10
152.1568
 20
52.916
  0
VERTEX
  8
LAYER_1
 10
152.2415
 20
52.773
  0
VERTEX
  8
LAYER_1
 10
152.3762
 20
52.6756
  0
VERTEX
  8
LAYER_1
 10
152.555
 20
52.639
 42
0.1154686557
  0
VERTEX
  8
LAYER_1
 10
152.7338
 20
52.6756
  0
VERTEX
  8
LAYER_1
 10
152.8689
 20
52.773
  0
VERTEX
  8
LAYER_1
 10
152.9536
 20
52.916
  0
SEQEND
  0
ENDBLK
  0
BLOCK
  8
LAYER_1
  2
AIGNBL01030014
 70
64
 10
0
 20
0
 30
0
  3
AIGNBL01030014
  0
POLYLINE
  8
LAYER_1
 40
0.05
 41
0.05
 66
1
 10
0
 20
0
 30
0
 70
1
  0
VERTEX
  8
LAYER_1
 10
153.8683
 20
52.5718
  0
VERTEX
  8
LAYER_1
 10
153.7636
 20
52.5718
  0
VERTEX
  8
LAYER_1
 10
153.7636
 20
53.0173
  0
VERTEX
  8
LAYER_1
 10
153.3767
 20
53.605
  0
VERTEX
  8
LAYER_1
 10
153.5079
 20
53.605
  0
VERTEX
  8
LAYER_1
 10
153.819
 20
53.1048
  0
VERTEX
  8
LAYER_1
 10
154.1325
 20
53.605
  0
VERTEX
  8
LAYER_1
 10
154.2548
 20
53.605
  0
VERTEX
  8
LAYER_1
 10
153.8683
 20
53.0173
  0
SEQEND
  0
ENDBLK
  0
BLOCK
  8
LAYER_1
  2
AIGNBL01030015
 70
64
 10
0
 20
0
 30
0
  3
AIGNBL01030015
  0
POLYLINE
  8
LAYER_1
 40
0.05
 41
0.05
 66
1
 10
0
 20
0
 30
0
 70
1
  0
VERTEX
  8
LAYER_1
 10
155.1599
 20
53.605
  0
VERTEX
  8
LAYER_1
 10
155.4675
 20
53.605
  0
VERTEX
  8
LAYER_1
 10
155.586
 20
53.5926
  0
VERTEX
  8
LAYER_1
 10
155.6928
 20
53.5503
  0
VERTEX
  8
LAYER_1
 10
155.7707
 20
53.4693
  0
VERTEX
  8
LAYER_1
 10
155.8003
 20
53.3411
 42
-0.1786845194
  0
VERTEX
  8
LAYER_1
 10
155.7503
 20
53.1989
 42
-0.1642670326
  0
VERTEX
  8
LAYER_1
 10
155.617
 20
53.1193
  0
VERTEX
  8
LAYER_1
 10
155.617
 20
53.1165
 42
-0.1739536767
  0
VERTEX
  8
LAYER_1
 10
155.7837
 20
53.0383
 42
-0.1923594805
  0
VERTEX
  8
LAYER_1
 10
155.8499
 20
52.8578
  0
VERTEX
  8
LAYER_1
 10
155.8227
 20
52.7407
  0
VERTEX
  8
LAYER_1
 10
155.7466
 20
52.6501
  0
VERTEX
  8
LAYER_1
 10
155.6256
 20
52.5925
  0
VERTEX
  8
LAYER_1
 10
155.4658
 20
52.5718
  0
VERTEX
  8
LAYER_1
 10
155.1599
 20
52.5718
  0
SEQEND
  0
POLYLINE
  8
LAYER_1
 40
0.05
 41
0.05
 66
1
 10
0
 20
0
 30
0
 70
1
  0
VERTEX
  8
LAYER_1
 10
155.2649
 20
53.1527
  0
VERTEX
  8
LAYER_1
 10
155.4764
 20
53.1527
  0
VERTEX
  8
LAYER_1
 10
155.5533
 20
53.1617
  0
VERTEX
  8
LAYER_1
 10
155.6236
 20
53.1913
  0
VERTEX
  8
LAYER_1
 10
155.6756
 20
53.2478
  0
VERTEX
  8
LAYER_1
 10
155.6952
 20
53.3339
  0
VERTEX
  8
LAYER_1
 10
155.6756
 20
53.4176
  0
VERTEX
  8
LAYER_1
 10
155.6225
 20
53.4738
  0
VERTEX
  8
LAYER_1
 10
155.5437
 20
53.5051
  0
VERTEX
  8
LAYER_1
 10
155.4472
 20
53.5148
  0
VERTEX
  8
LAYER_1
 10
155.2649
 20
53.5148
  0
SEQEND
  0
POLYLINE
  8
LAYER_1
 40
0.05
 41
0.05
 66
1
 10
0
 20
0
 30
0
 70
1
  0
VERTEX
  8
LAYER_1
 10
155.2649
 20
52.6625
  0
VERTEX
  8
LAYER_1
 10
155.4606
 20
52.6625
  0
VERTEX
  8
LAYER_1
 10
155.5691
 20
52.6735
  0
VERTEX
  8
LAYER_1
 10
155.6597
 20
52.7083
  0
VERTEX
  8
LAYER_1
 10
155.7214
 20
52.7713
  0
VERTEX
  8
LAYER_1
 10
155.7448
 20
52.864
 42
0.255979908
  0
VERTEX
  8
LAYER_1
 10
155.6756
 20
53.0163
 42
0.1381236768
  0
VERTEX
  8
LAYER_1
 10
155.4795
 20
53.0666
  0
VERTEX
  8
LAYER_1
 10
155.2649
 20
53.0666
  0
SEQEND
  0
ENDBLK
  0
BLOCK
  8
LAYER_1
  2
AIGNBL01030016
 70
64
 10
0
 20
0
 30
0
  3
AIGNBL01030016
  0
POLYLINE
  8
LAYER_1
 40
0.05
 41
0.05
 66
1
 10
0
 20
0
 30
0
 70
1
  0
VERTEX
  8
LAYER_1
 10
156.2819
 20
52.5718
  0
VERTEX
  8
LAYER_1
 10
156.1665
 20
52.5718
  0
VERTEX
  8
LAYER_1
 10
156.6133
 20
53.605
  0
VERTEX
  8
LAYER_1
 10
156.7156
 20
53.605
  0
VERTEX
  8
LAYER_1
 10
157.1591
 20
52.5718
  0
VERTEX
  8
LAYER_1
 10
157.0423
 20
52.5718
  0
VERTEX
  8
LAYER_1
 10
156.9282
 20
52.8433
  0
VERTEX
  8
LAYER_1
 10
156.3942
 20
52.8433
  0
SEQEND
  0
POLYLINE
  8
LAYER_1
 40
0.05
 41
0.05
 66
1
 10
0
 20
0
 30
0
 70
1
  0
VERTEX
  8
LAYER_1
 10
156.4335
 20
52.9398
  0
VERTEX
  8
LAYER_1
 10
156.8889
 20
52.9398
  0
VERTEX
  8
LAYER_1
 10
156.6612
 20
53.4886
  0
SEQEND
  0
ENDBLK
  0
BLOCK
  8
LAYER_1
  2
AIGNBL01030017
 70
64
 10
0
 20
0
 30
0
  3
AIGNBL01030017
  0
POLYLINE
  8
LAYER_1
 40
0.05
 41
0.05
 66
1
 10
0
 20
0
 30
0
 70
1
  0
VERTEX
  8
LAYER_1
 10
157.8436
 20
52.5718
  0
VERTEX
  8
LAYER_1
 10
157.7385
 20
52.5718
  0
VERTEX
  8
LAYER_1
 10
157.7385
 20
53.5117
  0
VERTEX
  8
LAYER_1
 10
157.3923
 20
53.5117
  0
VERTEX
  8
LAYER_1
 10
157.3923
 20
53.605
  0
VERTEX
  8
LAYER_1
 10
158.1891
 20
53.605
  0
VERTEX
  8
LAYER_1
 10
158.1891
 20
53.5117
  0
VERTEX
  8
LAYER_1
 10
157.8436
 20
53.5117
  0
SEQEND
  0
ENDBLK
  0
BLOCK
  8
LAYER_1
  2
AIGNBL01030018
 70
64
 10
0
 20
0
 30
0
  3
AIGNBL01030018
  0
POLYLINE
  8
LAYER_1
 40
0.05
 41
0.05
 66
1
 10
0
 20
0
 30
0
 70
1
  0
VERTEX
  8
LAYER_1
 10
158.5454
 20
53.605
  0
VERTEX
  8
LAYER_1
 10
158.6501
 20
53.605
  0
VERTEX
  8
LAYER_1
 10
158.6501
 20
53.1572
  0
VERTEX
  8
LAYER_1
 10
159.2137
 20
53.1572
  0
VERTEX
  8
LAYER_1
 10
159.2137
 20
53.605
  0
VERTEX
  8
LAYER_1
 10
159.3188
 20
53.605
  0
VERTEX
  8
LAYER_1
 10
159.3188
 20
52.5718
  0
VERTEX
  8
LAYER_1
 10
159.2137
 20
52.5718
  0
VERTEX
  8
LAYER_1
 10
159.2137
 20
53.0611
  0
VERTEX
  8
LAYER_1
 10
158.6501
 20
53.0611
  0
VERTEX
  8
LAYER_1
 10
158.6501
 20
52.5718
  0
VERTEX
  8
LAYER_1
 10
158.5454
 20
52.5718
  0
SEQEND
  0
ENDBLK
  0
BLOCK
  8
LAYER_1
  2
AIGNBL01030019
 70
64
 10
0
 20
0
 30
0
  3
AIGNBL01030019
  0
POLYLINE
  8
LAYER_1
 40
0.05
 41
0.05
 66
1
 10
0
 20
0
 30
0
 70
1
  0
VERTEX
  8
LAYER_1
 10
159.8993
 20
52.5718
  0
VERTEX
  8
LAYER_1
 10
159.7942
 20
52.5718
  0
VERTEX
  8
LAYER_1
 10
159.7942
 20
53.605
  0
VERTEX
  8
LAYER_1
 10
160.098
 20
53.605
  0
VERTEX
  8
LAYER_1
 10
160.2386
 20
53.5906
  0
VERTEX
  8
LAYER_1
 10
160.3513
 20
53.543
  0
VERTEX
  8
LAYER_1
 10
160.4246
 20
53.4576
  0
VERTEX
  8
LAYER_1
 10
160.4508
 20
53.3294
  0
VERTEX
  8
LAYER_1
 10
160.4309
 20
53.2258
  0
VERTEX
  8
LAYER_1
 10
160.3754
 20
53.1448
  0
VERTEX
  8
LAYER_1
 10
160.292
 20
53.09
  0
VERTEX
  8
LAYER_1
 10
160.1869
 20
53.0638
  0
VERTEX
  8
LAYER_1
 10
160.4891
 20
52.5718
  0
VERTEX
  8
LAYER_1
 10
160.3606
 20
52.5718
  0
VERTEX
  8
LAYER_1
 10
160.0746
 20
53.0549
  0
VERTEX
  8
LAYER_1
 10
159.8993
 20
53.0549
  0
SEQEND
  0
POLYLINE
  8
LAYER_1
 40
0.05
 41
0.05
 66
1
 10
0
 20
0
 30
0
 70
1
  0
VERTEX
  8
LAYER_1
 10
159.8993
 20
53.1455
  0
VERTEX
  8
LAYER_1
 10
160.0819
 20
53.1455
 42
0.1657307197
  0
VERTEX
  8
LAYER_1
 10
160.2775
 20
53.1913
 42
0.250658542
  0
VERTEX
  8
LAYER_1
 10
160.3461
 20
53.3294
  0
VERTEX
  8
LAYER_1
 10
160.3268
 20
53.4152
  0
VERTEX
  8
LAYER_1
 10
160.2744
 20
53.4724
  0
VERTEX
  8
LAYER_1
 10
160.1928
 20
53.5044
  0
VERTEX
  8
LAYER_1
 10
160.0863
 20
53.5148
  0
VERTEX
  8
LAYER_1
 10
159.8993
 20
53.5148
  0
SEQEND
  0
ENDBLK
  0
BLOCK
  8
LAYER_1
  2
AIGNBL0103001A
 70
64
 10
0
 20
0
 30
0
  3
AIGNBL0103001A
  0
POLYLINE
  8
LAYER_1
 40
0.05
 41
0.05
 66
1
 10
0
 20
0
 30
0
 70
1
  0
VERTEX
  8
LAYER_1
 10
161.8912
 20
53.0886
 42
-0.1004784931
  0
VERTEX
  8
LAYER_1
 10
161.8506
 20
52.8712
 42
-0.101062718
  0
VERTEX
  8
LAYER_1
 10
161.7372
 20
52.6997
 42
-0.09599561719
  0
VERTEX
  8
LAYER_1
 10
161.5667
 20
52.5867
 42
-0.09506675375
  0
VERTEX
  8
LAYER_1
 10
161.3528
 20
52.5457
 42
-0.1012184087
  0
VERTEX
  8
LAYER_1
 10
161.1388
 20
52.5867
 42
-0.1005543844
  0
VERTEX
  8
LAYER_1
 10
160.9683
 20
52.6997
 42
-0.09624726654
  0
VERTEX
  8
LAYER_1
 10
160.8553
 20
52.8712
 42
-0.09313545426
  0
VERTEX
  8
LAYER_1
 10
160.8146
 20
53.0886
 42
-0.1023371638
  0
VERTEX
  8
LAYER_1
 10
160.8553
 20
53.306
 42
-0.1010044242
  0
VERTEX
  8
LAYER_1
 10
160.9683
 20
53.4776
 42
-0.09563682649
  0
VERTEX
  8
LAYER_1
 10
161.1388
 20
53.5906
 42
-0.0950295922
  0
VERTEX
  8
LAYER_1
 10
161.3528
 20
53.6316
 42
-0.101175466
  0
VERTEX
  8
LAYER_1
 10
161.5667
 20
53.5906
 42
-0.1020868526
  0
VERTEX
  8
LAYER_1
 10
161.7372
 20
53.4776
 42
-0.09463339148
  0
VERTEX
  8
LAYER_1
 10
161.8506
 20
53.306
 42
-0.09275565523
  0
SEQEND
  0
POLYLINE
  8
LAYER_1
 40
0.05
 41
0.05
 66
1
 10
0
 20
0
 30
0
 70
1
  0
VERTEX
  8
LAYER_1
 10
161.7803
 20
53.0879
  0
VERTEX
  8
LAYER_1
 10
161.751
 20
53.2598
  0
VERTEX
  8
LAYER_1
 10
161.6662
 20
53.4032
  0
VERTEX
  8
LAYER_1
 10
161.5316
 20
53.5013
  0
VERTEX
  8
LAYER_1
 10
161.3528
 20
53.5382
 42
0.1143752939
  0
VERTEX
  8
LAYER_1
 10
161.1739
 20
53.5013
  0
VERTEX
  8
LAYER_1
 10
161.0389
 20
53.4032
  0
VERTEX
  8
LAYER_1
 10
160.9542
 20
53.2598
  0
VERTEX
  8
LAYER_1
 10
160.9252
 20
53.0879
  0
VERTEX
  8
LAYER_1
 10
160.9542
 20
52.916
  0
VERTEX
  8
LAYER_1
 10
161.0389
 20
52.773
  0
VERTEX
  8
LAYER_1
 10
161.1739
 20
52.6756
 42
0.1010368749
  0
VERTEX
  8
LAYER_1
 10
161.3528
 20
52.639
  0
VERTEX
  8
LAYER_1
 10
161.5316
 20
52.6756
  0
VERTEX
  8
LAYER_1
 10
161.6662
 20
52.773
  0
VERTEX
  8
LAYER_1
 10
161.751
 20
52.916
  0
SEQEND
  0
ENDBLK
  0
BLOCK
  8
LAYER_1
  2
AIGNBL0103001B
 70
64
 10
0
 20
0
 30
0
  3
AIGNBL0103001B
  0
POLYLINE
  8
LAYER_1
 40
0.05
 41
0.05
 66
1
 10
0
 20
0
 30
0
 70
1
  0
VERTEX
  8
LAYER_1
 10
163.333
 20
53.0886
 42
-0.1039024845
  0
VERTEX
  8
LAYER_1
 10
163.292
 20
52.8712
 42
-0.100426525
  0
VERTEX
  8
LAYER_1
 10
163.1793
 20
52.6997
 42
-0.09523311055
  0
VERTEX
  8
LAYER_1
 10
163.0085
 20
52.5867
 42
-0.0950295922
  0
VERTEX
  8
LAYER_1
 10
162.7945
 20
52.5457
 42
-0.101822328
  0
VERTEX
  8
LAYER_1
 10
162.5809
 20
52.5867
 42
-0.1021160132
  0
VERTEX
  8
LAYER_1
 10
162.41
 20
52.6997
 42
-0.09429605145
  0
VERTEX
  8
LAYER_1
 10
162.2967
 20
52.8712
 42
-0.09293253763
  0
VERTEX
  8
LAYER_1
 10
162.2561
 20
53.0886
 42
-0.102539173
  0
VERTEX
  8
LAYER_1
 10
162.2967
 20
53.306
 42
-0.100391096
  0
VERTEX
  8
LAYER_1
 10
162.41
 20
53.4776
 42
-0.09625117665
  0
VERTEX
  8
LAYER_1
 10
162.5809
 20
53.5906
 42
-0.09528409444
  0
VERTEX
  8
LAYER_1
 10
162.7945
 20
53.6316
 42
-0.1012184087
  0
VERTEX
  8
LAYER_1
 10
163.0085
 20
53.5906
 42
-0.09890806397
  0
VERTEX
  8
LAYER_1
 10
163.1793
 20
53.4776
 42
-0.09575770406
  0
VERTEX
  8
LAYER_1
 10
163.292
 20
53.306
 42
-0.093973576
  0
SEQEND
  0
POLYLINE
  8
LAYER_1
 40
0.05
 41
0.05
 66
1
 10
0
 20
0
 30
0
 70
1
  0
VERTEX
  8
LAYER_1
 10
163.2221
 20
53.0879
  0
VERTEX
  8
LAYER_1
 10
163.1931
 20
53.2598
  0
VERTEX
  8
LAYER_1
 10
163.1084
 20
53.4032
  0
VERTEX
  8
LAYER_1
 10
162.9733
 20
53.5013
 42
0.1018863245
  0
VERTEX
  8
LAYER_1
 10
162.7945
 20
53.5382
  0
VERTEX
  8
LAYER_1
 10
162.6157
 20
53.5013
  0
VERTEX
  8
LAYER_1
 10
162.481
 20
53.4032
  0
VERTEX
  8
LAYER_1
 10
162.3963
 20
53.2598
  0
VERTEX
  8
LAYER_1
 10
162.367
 20
53.0879
  0
VERTEX
  8
LAYER_1
 10
162.3963
 20
52.916
  0
VERTEX
  8
LAYER_1
 10
162.481
 20
52.773
  0
VERTEX
  8
LAYER_1
 10
162.6157
 20
52.6756
  0
VERTEX
  8
LAYER_1
 10
162.7945
 20
52.639
 42
0.1154686558
  0
VERTEX
  8
LAYER_1
 10
162.9733
 20
52.6756
  0
VERTEX
  8
LAYER_1
 10
163.1084
 20
52.773
  0
VERTEX
  8
LAYER_1
 10
163.1931
 20
52.916
  0
SEQEND
  0
ENDBLK
  0
BLOCK
  8
LAYER_1
  2
AIGNBL0103001C
 70
64
 10
0
 20
0
 30
0
  3
AIGNBL0103001C
  0
POLYLINE
  8
LAYER_1
 40
0.05
 41
0.05
 66
1
 10
0
 20
0
 30
0
 70
1
  0
VERTEX
  8
LAYER_1
 10
164.2639
 20
52.75
  0
VERTEX
  8
LAYER_1
 10
164.2656
 20
52.75
  0
VERTEX
  8
LAYER_1
 10
164.6111
 20
53.605
  0
VERTEX
  8
LAYER_1
 10
164.772
 20
53.605
  0
VERTEX
  8
LAYER_1
 10
164.772
 20
52.5718
  0
VERTEX
  8
LAYER_1
 10
164.6666
 20
52.5718
  0
VERTEX
  8
LAYER_1
 10
164.6666
 20
53.4693
  0
VERTEX
  8
LAYER_1
 10
164.6638
 20
53.4693
  0
VERTEX
  8
LAYER_1
 10
164.2904
 20
52.5718
  0
VERTEX
  8
LAYER_1
 10
164.2349
 20
52.5718
  0
VERTEX
  8
LAYER_1
 10
163.8611
 20
53.4693
  0
VERTEX
  8
LAYER_1
 10
163.8584
 20
53.4693
  0
VERTEX
  8
LAYER_1
 10
163.8584
 20
52.5718
  0
VERTEX
  8
LAYER_1
 10
163.7533
 20
52.5718
  0
VERTEX
  8
LAYER_1
 10
163.7533
 20
53.605
  0
VERTEX
  8
LAYER_1
 10
163.9138
 20
53.605
  0
SEQEND
  0
ENDBLK
  0
BLOCK
  8
LAYER_1
  2
AIGNBL0103001D
 70
64
 10
0
 20
0
 30
0
  3
AIGNBL0103001D
  0
POLYLINE
  8
LAYER_1
 40
0.05
 41
0.05
 66
1
 10
0
 20
0
 30
0
 70
1
  0
VERTEX
  8
LAYER_1
 10
165.9185
 20
52.6656
  0
VERTEX
  8
LAYER_1
 10
166.4718
 20
52.6656
  0
VERTEX
  8
LAYER_1
 10
166.4718
 20
52.5718
  0
VERTEX
  8
LAYER_1
 10
165.8135
 20
52.5718
  0
VERTEX
  8
LAYER_1
 10
165.8135
 20
53.605
  0
VERTEX
  8
LAYER_1
 10
166.4543
 20
53.605
  0
VERTEX
  8
LAYER_1
 10
166.4543
 20
53.5117
  0
VERTEX
  8
LAYER_1
 10
165.9185
 20
53.5117
  0
VERTEX
  8
LAYER_1
 10
165.9185
 20
53.1572
  0
VERTEX
  8
LAYER_1
 10
166.4191
 20
53.1572
  0
VERTEX
  8
LAYER_1
 10
166.4191
 20
53.0638
  0
VERTEX
  8
LAYER_1
 10
165.9185
 20
53.0638
  0
SEQEND
  0
ENDBLK
  0
BLOCK
  8
LAYER_1
  2
AIGNBL0103001E
 70
64
 10
0
 20
0
 30
0
  3
AIGNBL0103001E
  0
POLYLINE
  8
LAYER_1
 40
0.05
 41
0.05
 66
1
 10
0
 20
0
 30
0
 70
1
  0
VERTEX
  8
LAYER_1
 10
167.217
 20
53.1878
  0
VERTEX
  8
LAYER_1
 10
167.4991
 20
53.605
  0
VERTEX
  8
LAYER_1
 10
167.6242
 20
53.605
  0
VERTEX
  8
LAYER_1
 10
167.2818
 20
53.1134
  0
VERTEX
  8
LAYER_1
 10
167.6611
 20
52.5718
  0
VERTEX
  8
LAYER_1
 10
167.5298
 20
52.5718
  0
VERTEX
  8
LAYER_1
 10
167.2142
 20
53.0376
  0
VERTEX
  8
LAYER_1
 10
166.9007
 20
52.5718
  0
VERTEX
  8
LAYER_1
 10
166.7691
 20
52.5718
  0
VERTEX
  8
LAYER_1
 10
167.1488
 20
53.1148
  0
VERTEX
  8
LAYER_1
 10
166.8029
 20
53.605
  0
VERTEX
  8
LAYER_1
 10
166.9345
 20
53.605
  0
SEQEND
  0
ENDBLK
  0
BLOCK
  8
LAYER_1
  2
AIGNBL0103001F
 70
64
 10
0
 20
0
 30
0
  3
AIGNBL0103001F
  0
POLYLINE
  8
LAYER_1
 40
0.05
 41
0.05
 66
1
 10
0
 20
0
 30
0
 70
1
  0
VERTEX
  8
LAYER_1
 10
168.0273
 20
53.605
  0
VERTEX
  8
LAYER_1
 10
168.3194
 20
53.605
  0
VERTEX
  8
LAYER_1
 10
168.4624
 20
53.5885
  0
VERTEX
  8
LAYER_1
 10
168.5723
 20
53.5372
  0
VERTEX
  8
LAYER_1
 10
168.6433
 20
53.451
  0
VERTEX
  8
LAYER_1
 10
168.6677
 20
53.3294
  0
VERTEX
  8
LAYER_1
 10
168.6426
 20
53.2075
  0
VERTEX
  8
LAYER_1
 10
168.5709
 20
53.1214
  0
VERTEX
  8
LAYER_1
 10
168.46
 20
53.0697
  0
VERTEX
  8
LAYER_1
 10
168.3163
 20
53.0521
  0
VERTEX
  8
LAYER_1
 10
168.1323
 20
53.0521
  0
VERTEX
  8
LAYER_1
 10
168.1323
 20
52.5718
  0
VERTEX
  8
LAYER_1
 10
168.0273
 20
52.5718
  0
SEQEND
  0
POLYLINE
  8
LAYER_1
 40
0.05
 41
0.05
 66
1
 10
0
 20
0
 30
0
 70
1
  0
VERTEX
  8
LAYER_1
 10
168.1323
 20
53.141
  0
VERTEX
  8
LAYER_1
 10
168.3101
 20
53.141
 42
0.1826246746
  0
VERTEX
  8
LAYER_1
 10
168.4986
 20
53.1892
 42
0.2345266981
  0
VERTEX
  8
LAYER_1
 10
168.563
 20
53.3294
 42
0.2654535919
  0
VERTEX
  8
LAYER_1
 10
168.4965
 20
53.4703
 42
0.1267184139
  0
VERTEX
  8
LAYER_1
 10
168.3101
 20
53.5148
  0
VERTEX
  8
LAYER_1
 10
168.1323
 20
53.5148
  0
SEQEND
  0
ENDBLK
  0
BLOCK
  8
LAYER_1
  2
AIGNBL01030020
 70
64
 10
0
 20
0
 30
0
  3
AIGNBL01030020
  0
POLYLINE
  8
LAYER_1
 40
0.05
 41
0.05
 66
1
 10
0
 20
0
 30
0
 70
1
  0
VERTEX
  8
LAYER_1
 10
169.18
 20
52.6656
  0
VERTEX
  8
LAYER_1
 10
169.7333
 20
52.6656
  0
VERTEX
  8
LAYER_1
 10
169.7333
 20
52.5718
  0
VERTEX
  8
LAYER_1
 10
169.0749
 20
52.5718
  0
VERTEX
  8
LAYER_1
 10
169.0749
 20
53.605
  0
VERTEX
  8
LAYER_1
 10
169.7157
 20
53.605
  0
VERTEX
  8
LAYER_1
 10
169.7157
 20
53.5117
  0
VERTEX
  8
LAYER_1
 10
169.18
 20
53.5117
  0
VERTEX
  8
LAYER_1
 10
169.18
 20
53.1572
  0
VERTEX
  8
LAYER_1
 10
169.6806
 20
53.1572
  0
VERTEX
  8
LAYER_1
 10
169.6806
 20
53.0638
  0
VERTEX
  8
LAYER_1
 10
169.18
 20
53.0638
  0
SEQEND
  0
ENDBLK
  0
BLOCK
  8
LAYER_1
  2
AIGNBL01030021
 70
64
 10
0
 20
0
 30
0
  3
AIGNBL01030021
  0
POLYLINE
  8
LAYER_1
 40
0.05
 41
0.05
 66
1
 10
0
 20
0
 30
0
 70
1
  0
VERTEX
  8
LAYER_1
 10
170.2452
 20
52.5718
  0
VERTEX
  8
LAYER_1
 10
170.1401
 20
52.5718
  0
VERTEX
  8
LAYER_1
 10
170.1401
 20
53.605
  0
VERTEX
  8
LAYER_1
 10
170.444
 20
53.605
  0
VERTEX
  8
LAYER_1
 10
170.5846
 20
53.5906
  0
VERTEX
  8
LAYER_1
 10
170.6972
 20
53.543
  0
VERTEX
  8
LAYER_1
 10
170.771
 20
53.4576
  0
VERTEX
  8
LAYER_1
 10
170.7968
 20
53.3294
  0
VERTEX
  8
LAYER_1
 10
170.7768
 20
53.2258
  0
VERTEX
  8
LAYER_1
 10
170.7213
 20
53.1448
  0
VERTEX
  8
LAYER_1
 10
170.638
 20
53.09
  0
VERTEX
  8
LAYER_1
 10
170.5329
 20
53.0638
  0
VERTEX
  8
LAYER_1
 10
170.835
 20
52.5718
  0
VERTEX
  8
LAYER_1
 10
170.7065
 20
52.5718
  0
VERTEX
  8
LAYER_1
 10
170.4206
 20
53.0549
  0
VERTEX
  8
LAYER_1
 10
170.2452
 20
53.0549
  0
SEQEND
  0
POLYLINE
  8
LAYER_1
 40
0.05
 41
0.05
 66
1
 10
0
 20
0
 30
0
 70
1
  0
VERTEX
  8
LAYER_1
 10
170.2452
 20
53.1455
  0
VERTEX
  8
LAYER_1
 10
170.4278
 20
53.1455
 42
0.1667734107
  0
VERTEX
  8
LAYER_1
 10
170.6235
 20
53.1913
 42
0.250658542
  0
VERTEX
  8
LAYER_1
 10
170.6921
 20
53.3294
  0
VERTEX
  8
LAYER_1
 10
170.6731
 20
53.4152
  0
VERTEX
  8
LAYER_1
 10
170.6204
 20
53.4724
  0
VERTEX
  8
LAYER_1
 10
170.5387
 20
53.5044
  0
VERTEX
  8
LAYER_1
 10
170.4323
 20
53.5148
  0
VERTEX
  8
LAYER_1
 10
170.2452
 20
53.5148
  0
SEQEND
  0
ENDBLK
  0
BLOCK
  8
LAYER_1
  2
AIGNBL01030022
 70
64
 10
0
 20
0
 30
0
  3
AIGNBL01030022
  0
POLYLINE
  8
LAYER_1
 40
0.05
 41
0.05
 66
1
 10
0
 20
0
 30
0
 70
1
  0
VERTEX
  8
LAYER_1
 10
171.3208
 20
52.5718
  0
VERTEX
  8
LAYER_1
 10
171.2161
 20
52.5718
  0
VERTEX
  8
LAYER_1
 10
171.2161
 20
53.605
  0
VERTEX
  8
LAYER_1
 10
171.3208
 20
53.605
  0
SEQEND
  0
ENDBLK
  0
BLOCK
  8
LAYER_1
  2
AIGNBL01030023
 70
64
 10
0
 20
0
 30
0
  3
AIGNBL01030023
  0
POLYLINE
  8
LAYER_1
 40
0.05
 41
0.05
 66
1
 10
0
 20
0
 30
0
 70
1
  0
VERTEX
  8
LAYER_1
 10
171.9016
 20
52.6656
  0
VERTEX
  8
LAYER_1
 10
172.4546
 20
52.6656
  0
VERTEX
  8
LAYER_1
 10
172.4546
 20
52.5718
  0
VERTEX
  8
LAYER_1
 10
171.7966
 20
52.5718
  0
VERTEX
  8
LAYER_1
 10
171.7966
 20
53.605
  0
VERTEX
  8
LAYER_1
 10
172.4374
 20
53.605
  0
VERTEX
  8
LAYER_1
 10
172.4374
 20
53.5117
  0
VERTEX
  8
LAYER_1
 10
171.9016
 20
53.5117
  0
VERTEX
  8
LAYER_1
 10
171.9016
 20
53.1572
  0
VERTEX
  8
LAYER_1
 10
172.4022
 20
53.1572
  0
VERTEX
  8
LAYER_1
 10
172.4022
 20
53.0638
  0
VERTEX
  8
LAYER_1
 10
171.9016
 20
53.0638
  0
SEQEND
  0
ENDBLK
  0
BLOCK
  8
LAYER_1
  2
AIGNBL01030024
 70
64
 10
0
 20
0
 30
0
  3
AIGNBL01030024
  0
POLYLINE
  8
LAYER_1
 40
0.05
 41
0.05
 66
1
 10
0
 20
0
 30
0
 70
1
  0
VERTEX
  8
LAYER_1
 10
173.5945
 20
52.7252
  0
VERTEX
  8
LAYER_1
 10
173.5973
 20
52.7252
  0
VERTEX
  8
LAYER_1
 10
173.5973
 20
53.605
  0
VERTEX
  8
LAYER_1
 10
173.7024
 20
53.605
  0
VERTEX
  8
LAYER_1
 10
173.7024
 20
52.5718
  0
VERTEX
  8
LAYER_1
 10
173.5711
 20
52.5718
  0
VERTEX
  8
LAYER_1
 10
172.97
 20
53.4607
  0
VERTEX
  8
LAYER_1
 10
172.9668
 20
53.4607
  0
VERTEX
  8
LAYER_1
 10
172.9668
 20
52.5718
  0
VERTEX
  8
LAYER_1
 10
172.8618
 20
52.5718
  0
VERTEX
  8
LAYER_1
 10
172.8618
 20
53.605
  0
VERTEX
  8
LAYER_1
 10
172.9934
 20
53.605
  0
SEQEND
  0
ENDBLK
  0
BLOCK
  8
LAYER_1
  2
AIGNBL01030025
 70
64
 10
0
 20
0
 30
0
  3
AIGNBL01030025
  0
POLYLINE
  8
LAYER_1
 40
0.05
 41
0.05
 66
1
 10
0
 20
0
 30
0
 70
1
  0
VERTEX
  8
LAYER_1
 10
175.0481
 20
52.7396
  0
VERTEX
  8
LAYER_1
 10
174.9843
 20
52.6652
  0
VERTEX
  8
LAYER_1
 10
174.8982
 20
52.6036
  0
VERTEX
  8
LAYER_1
 10
174.79
 20
52.5612
  0
VERTEX
  8
LAYER_1
 10
174.6612
 20
52.5457
 42
-0.1011939289
  0
VERTEX
  8
LAYER_1
 10
174.4452
 20
52.5867
 42
-0.1043036755
  0
VERTEX
  8
LAYER_1
 10
174.2746
 20
52.6997
 42
-0.09799648565
  0
VERTEX
  8
LAYER_1
 10
174.163
 20
52.8712
 42
-0.09232353501
  0
VERTEX
  8
LAYER_1
 10
174.1227
 20
53.0886
 42
-0.1041417446
  0
VERTEX
  8
LAYER_1
 10
174.1637
 20
53.306
 42
-0.1000549391
  0
VERTEX
  8
LAYER_1
 10
174.2764
 20
53.4776
 42
-0.09522802185
  0
VERTEX
  8
LAYER_1
 10
174.4472
 20
53.5906
 42
-0.0950295922
  0
VERTEX
  8
LAYER_1
 10
174.6612
 20
53.6316
  0
VERTEX
  8
LAYER_1
 10
174.7728
 20
53.6195
  0
VERTEX
  8
LAYER_1
 10
174.8758
 20
53.5861
  0
VERTEX
  8
LAYER_1
 10
174.9633
 20
53.5344
  0
VERTEX
  8
LAYER_1
 10
175.0291
 20
53.4666
  0
VERTEX
  8
LAYER_1
 10
174.9416
 20
53.4021
  0
VERTEX
  8
LAYER_1
 10
174.8982
 20
53.4521
  0
VERTEX
  8
LAYER_1
 10
174.8348
 20
53.4958
  0
VERTEX
  8
LAYER_1
 10
174.7552
 20
53.5265
  0
VERTEX
  8
LAYER_1
 10
174.6625
 20
53.5382
  0
VERTEX
  8
LAYER_1
 10
174.4823
 20
53.5017
  0
VERTEX
  8
LAYER_1
 10
174.3473
 20
53.4035
  0
VERTEX
  8
LAYER_1
 10
174.2626
 20
53.2602
  0
VERTEX
  8
LAYER_1
 10
174.2336
 20
53.0886
  0
VERTEX
  8
LAYER_1
 10
174.2636
 20
52.9171
  0
VERTEX
  8
LAYER_1
 10
174.349
 20
52.7737
  0
VERTEX
  8
LAYER_1
 10
174.4841
 20
52.6756
 42
0.1013142651
  0
VERTEX
  8
LAYER_1
 10
174.6625
 20
52.639
  0
VERTEX
  8
LAYER_1
 10
174.8317
 20
52.6756
 42
0.1322996151
  0
VERTEX
  8
LAYER_1
 10
174.966
 20
52.7923
  0
SEQEND
  0
ENDBLK
  0
BLOCK
  8
LAYER_1
  2
AIGNBL01030026
 70
64
 10
0
 20
0
 30
0
  3
AIGNBL01030026
  0
POLYLINE
  8
LAYER_1
 40
0.05
 41
0.05
 66
1
 10
0
 20
0
 30
0
 70
1
  0
VERTEX
  8
LAYER_1
 10
175.5352
 20
52.6656
  0
VERTEX
  8
LAYER_1
 10
176.0885
 20
52.6656
  0
VERTEX
  8
LAYER_1
 10
176.0885
 20
52.5718
  0
VERTEX
  8
LAYER_1
 10
175.4301
 20
52.5718
  0
VERTEX
  8
LAYER_1
 10
175.4301
 20
53.605
  0
VERTEX
  8
LAYER_1
 10
176.0709
 20
53.605
  0
VERTEX
  8
LAYER_1
 10
176.0709
 20
53.5117
  0
VERTEX
  8
LAYER_1
 10
175.5352
 20
53.5117
  0
VERTEX
  8
LAYER_1
 10
175.5352
 20
53.1572
  0
VERTEX
  8
LAYER_1
 10
176.0358
 20
53.1572
  0
VERTEX
  8
LAYER_1
 10
176.0358
 20
53.0638
  0
VERTEX
  8
LAYER_1
 10
175.5352
 20
53.0638
  0
SEQEND
  0
ENDBLK
  0
BLOCK
  8
LAYER_1
  2
AIGNBL01020003
 70
64
 10
0
 20
0
 30
0
  3
AIGNBL01020003
  0
POLYLINE
  8
LAYER_1
 40
0.05
 41
0.05
 66
1
 10
0
 20
0
 30
0
 70
1
  0
VERTEX
  8
LAYER_1
 10
11.743
 20
152.5111
  0
VERTEX
  8
LAYER_1
 10
11.743
 20
151.7914
  0
VERTEX
  8
LAYER_1
 10
96.6001
 20
151.7914
  0
VERTEX
  8
LAYER_1
 10
96.6001
 20
152.5111
  0
SEQEND
  0
ENDBLK
  0
BLOCK
  8
LAYER_1
  2
AIGNBL01020004
 70
64
 10
0
 20
0
 30
0
  3
AIGNBL01020004
  0
POLYLINE
  8
LAYER_1
 40
0.0847
 41
0.0847
 66
1
 10
0
 20
0
 30
0
 70
1
  0
VERTEX
  8
LAYER_1
 10
11.743
 20
152.5111
  0
VERTEX
  8
LAYER_1
 10
11.743
 20
151.7914
  0
VERTEX
  8
LAYER_1
 10
96.6001
 20
151.7914
  0
VERTEX
  8
LAYER_1
 10
96.6001
 20
152.5111
  0
SEQEND
  0
ENDBLK
  0
BLOCK
  8
LAYER_1
  2
AIGNBL01020006
 70
64
 10
0
 20
0
 30
0
  3
AIGNBL01020006
  0
INSERT
  8
LAYER_1
  2
AIGNBL01030007
 10
0
 20
0
 30
0
  0
ENDBLK
  0
BLOCK
  8
LAYER_1
  2
AIGNBL0102000F
 70
64
 10
0
 20
0
 30
0
  3
AIGNBL0102000F
  0
INSERT
  8
LAYER_1
  2
AIGNBL01030010
 10
0
 20
0
 30
0
  0
INSERT
  8
LAYER_1
  2
AIGNBL01030011
 10
0
 20
0
 30
0
  0
INSERT
  8
LAYER_1
  2
AIGNBL01030012
 10
0
 20
0
 30
0
  0
INSERT
  8
LAYER_1
  2
AIGNBL01030013
 10
0
 20
0
 30
0
  0
INSERT
  8
LAYER_1
  2
AIGNBL01030014
 10
0
 20
0
 30
0
  0
INSERT
  8
LAYER_1
  2
AIGNBL01030015
 10
0
 20
0
 30
0
  0
INSERT
  8
LAYER_1
  2
AIGNBL01030016
 10
0
 20
0
 30
0
  0
INSERT
  8
LAYER_1
  2
AIGNBL01030017
 10
0
 20
0
 30
0
  0
INSERT
  8
LAYER_1
  2
AIGNBL01030018
 10
0
 20
0
 30
0
  0
INSERT
  8
LAYER_1
  2
AIGNBL01030019
 10
0
 20
0
 30
0
  0
INSERT
  8
LAYER_1
  2
AIGNBL0103001A
 10
0
 20
0
 30
0
  0
INSERT
  8
LAYER_1
  2
AIGNBL0103001B
 10
0
 20
0
 30
0
  0
INSERT
  8
LAYER_1
  2
AIGNBL0103001C
 10
0
 20
0
 30
0
  0
INSERT
  8
LAYER_1
  2
AIGNBL0103001D
 10
0
 20
0
 30
0
  0
INSERT
  8
LAYER_1
  2
AIGNBL0103001E
 10
0
 20
0
 30
0
  0
INSERT
  8
LAYER_1
  2
AIGNBL0103001F
 10
0
 20
0
 30
0
  0
INSERT
  8
LAYER_1
  2
AIGNBL01030020
 10
0
 20
0
 30
0
  0
INSERT
  8
LAYER_1
  2
AIGNBL01030021
 10
0
 20
0
 30
0
  0
INSERT
  8
LAYER_1
  2
AIGNBL01030022
 10
0
 20
0
 30
0
  0
INSERT
  8
LAYER_1
  2
AIGNBL01030023
 10
0
 20
0
 30
0
  0
INSERT
  8
LAYER_1
  2
AIGNBL01030024
 10
0
 20
0
 30
0
  0
INSERT
  8
LAYER_1
  2
AIGNBL01030025
 10
0
 20
0
 30
0
  0
INSERT
  8
LAYER_1
  2
AIGNBL01030026
 10
0
 20
0
 30
0
  0
ENDBLK
  0
BLOCK
  8
LAYER_1
  2
AIGNBL01010002
 70
64
 10
0
 20
0
 30
0
  3
AIGNBL01010002
  0
POLYLINE
  8
LAYER_1
 40
0.05
 41
0.05
 66
1
 10
0
 20
0
 30
0
 70
1
  0
VERTEX
  8
LAYER_1
 10
161.3701
 20
111.3207
  0
VERTEX
  8
LAYER_1
 10
161.3701
 20
110.8974
  0
VERTEX
  8
LAYER_1
 10
160.6716
 20
110.8974
  0
VERTEX
  8
LAYER_1
 10
160.6716
 20
111.3207
  0
SEQEND
  0
POLYLINE
  8
LAYER_1
 40
0.0847
 41
0.0847
 66
1
 10
0
 20
0
 30
0
 70
1
  0
VERTEX
  8
LAYER_1
 10
161.3701
 20
111.3207
  0
VERTEX
  8
LAYER_1
 10
161.3701
 20
110.8974
  0
VERTEX
  8
LAYER_1
 10
160.6716
 20
110.8974
  0
VERTEX
  8
LAYER_1
 10
160.6716
 20
111.3207
  0
SEQEND
  0
POLYLINE
  8
LAYER_1
 40
0.05
 41
0.05
 66
1
 10
0
 20
0
 30
0
 70
1
  0
VERTEX
  8
LAYER_1
 10
226.4153
 20
111.3207
  0
VERTEX
  8
LAYER_1
 10
226.4153
 20
110.8974
  0
VERTEX
  8
LAYER_1
 10
227.135
 20
110.8974
  0
VERTEX
  8
LAYER_1
 10
227.135
 20
111.3207
  0
SEQEND
  0
POLYLINE
  8
LAYER_1
 40
0.0847
 41
0.0847
 66
1
 10
0
 20
0
 30
0
 70
1
  0
VERTEX
  8
LAYER_1
 10
226.4153
 20
111.3207
  0
VERTEX
  8
LAYER_1
 10
226.4153
 20
110.8974
  0
VERTEX
  8
LAYER_1
 10
227.135
 20
110.8974
  0
VERTEX
  8
LAYER_1
 10
227.135
 20
111.3207
  0
SEQEND
  0
POLYLINE
  8
LAYER_1
 40
0.05
 41
0.05
 66
1
 10
0
 20
0
 30
0
 70
1
  0
VERTEX
  8
LAYER_1
 10
11.743
 20
111.3207
  0
VERTEX
  8
LAYER_1
 10
11.743
 20
110.8974
  0
VERTEX
  8
LAYER_1
 10
12.4626
 20
110.8974
  0
VERTEX
  8
LAYER_1
 10
12.4626
 20
111.3207
  0
SEQEND
  0
POLYLINE
  8
LAYER_1
 40
0.0847
 41
0.0847
 66
1
 10
0
 20
0
 30
0
 70
1
  0
VERTEX
  8
LAYER_1
 10
11.743
 20
111.3207
  0
VERTEX
  8
LAYER_1
 10
11.743
 20
110.8974
  0
VERTEX
  8
LAYER_1
 10
12.4626
 20
110.8974
  0
VERTEX
  8
LAYER_1
 10
12.4626
 20
111.3207
  0
SEQEND
  0
POLYLINE
  8
LAYER_1
 40
0.05
 41
0.05
 66
1
 10
0
 20
0
 30
0
 70
1
  0
VERTEX
  8
LAYER_1
 10
96.6001
 20
111.3207
  0
VERTEX
  8
LAYER_1
 10
96.6001
 20
110.8974
  0
VERTEX
  8
LAYER_1
 10
95.8805
 20
110.8974
  0
VERTEX
  8
LAYER_1
 10
95.8805
 20
111.3207
  0
SEQEND
  0
POLYLINE
  8
LAYER_1
 40
0.0847
 41
0.0847
 66
1
 10
0
 20
0
 30
0
 70
1
  0
VERTEX
  8
LAYER_1
 10
96.6001
 20
111.3207
  0
VERTEX
  8
LAYER_1
 10
96.6001
 20
110.8974
  0
VERTEX
  8
LAYER_1
 10
95.8805
 20
110.8974
  0
VERTEX
  8
LAYER_1
 10
95.8805
 20
111.3207
  0
SEQEND
  0
POLYLINE
  8
LAYER_1
 40
0.05
 41
0.05
 66
1
 10
0
 20
0
 30
0
 70
1
  0
VERTEX
  8
LAYER_1
 10
95.8805
 20
218.2547
  0
VERTEX
  8
LAYER_1
 10
95.8805
 20
152.5111
  0
VERTEX
  8
LAYER_1
 10
96.6001
 20
152.5111
  0
VERTEX
  8
LAYER_1
 10
96.6001
 20
218.2547
  0
SEQEND
  0
POLYLINE
  8
LAYER_1
 40
0.0847
 41
0.0847
 66
1
 10
0
 20
0
 30
0
 70
1
  0
VERTEX
  8
LAYER_1
 10
95.8805
 20
218.2547
  0
VERTEX
  8
LAYER_1
 10
95.8805
 20
152.5111
  0
VERTEX
  8
LAYER_1
 10
96.6001
 20
152.5111
  0
VERTEX
  8
LAYER_1
 10
96.6001
 20
218.2547
  0
SEQEND
  0
POLYLINE
  8
LAYER_1
 40
0.05
 41
0.05
 66
1
 10
0
 20
0
 30
0
 70
1
  0
VERTEX
  8
LAYER_1
 10
11.743
 20
218.2547
  0
VERTEX
  8
LAYER_1
 10
11.743
 20
152.5111
  0
VERTEX
  8
LAYER_1
 10
12.4626
 20
152.5111
  0
VERTEX
  8
LAYER_1
 10
12.4626
 20
218.2547
  0
SEQEND
  0
POLYLINE
  8
LAYER_1
 40
0.0847
 41
0.0847
 66
1
 10
0
 20
0
 30
0
 70
1
  0
VERTEX
  8
LAYER_1
 10
11.743
 20
218.2547
  0
VERTEX
  8
LAYER_1
 10
11.743
 20
152.5111
  0
VERTEX
  8
LAYER_1
 10
12.4626
 20
152.5111
  0
VERTEX
  8
LAYER_1
 10
12.4626
 20
218.2547
  0
SEQEND
  0
INSERT
  8
LAYER_1
  2
AIGNBL01020003
 10
0
 20
0
 30
0
  0
INSERT
  8
LAYER_1
  2
AIGNBL01020004
 10
0
 20
0
 30
0
  0
POLYLINE
  8
LAYER_1
 40
0.05
 41
0.05
 66
1
 10
0
 20
0
 30
0
 70
1
  0
VERTEX
  8
LAYER_1
 10
12.4626
 20
218.2547
  0
VERTEX
  8
LAYER_1
 10
12.4626
 20
217.535
  0
VERTEX
  8
LAYER_1
 10
95.8805
 20
217.535
  0
VERTEX
  8
LAYER_1
 10
95.8805
 20
218.2547
  0
SEQEND
  0
POLYLINE
  8
LAYER_1
 40
0.0847
 41
0.0847
 66
1
 10
0
 20
0
 30
0
 70
1
  0
VERTEX
  8
LAYER_1
 10
12.4626
 20
218.2547
  0
VERTEX
  8
LAYER_1
 10
12.4626
 20
217.535
  0
VERTEX
  8
LAYER_1
 10
95.8805
 20
217.535
  0
VERTEX
  8
LAYER_1
 10
95.8805
 20
218.2547
  0
SEQEND
  0
POLYLINE
  8
LAYER_1
 40
0.05
 41
0.05
 66
1
 10
0
 20
0
 30
0
 70
1
  0
VERTEX
  8
LAYER_1
 10
202.9834
 20
172.5135
  0
VERTEX
  8
LAYER_1
 10
202.9834
 20
170.3969
  0
VERTEX
  8
LAYER_1
 10
199.4486
 20
170.3969
  0
VERTEX
  8
LAYER_1
 10
199.4486
 20
172.5135
  0
SEQEND
  0
POLYLINE
  8
LAYER_1
 40
0.0847
 41
0.0847
 66
1
 10
0
 20
0
 30
0
 70
1
  0
VERTEX
  8
LAYER_1
 10
202.9834
 20
172.5135
  0
VERTEX
  8
LAYER_1
 10
202.9834
 20
170.3969
  0
VERTEX
  8
LAYER_1
 10
199.4486
 20
170.3969
  0
VERTEX
  8
LAYER_1
 10
199.4486
 20
172.5135
  0
SEQEND
  0
POLYLINE
  8
LAYER_1
 40
0.0847
 41
0.0847
 66
1
 10
0
 20
0
 30
0
  0
VERTEX
  8
LAYER_1
 10
14.8545
 20
154.2044
  0
VERTEX
  8
LAYER_1
 10
14.8545
 20
215.8417
  0
SEQEND
  0
POLYLINE
  8
LAYER_1
 40
0.0847
 41
0.0847
 66
1
 10
0
 20
0
 30
0
  0
VERTEX
  8
LAYER_1
 10
48.0226
 20
178.8635
  0
VERTEX
  8
LAYER_1
 10
60.3205
 20
178.8635
  0
VERTEX
  8
LAYER_1
 10
60.3205
 20
191.1614
  0
SEQEND
  0
POLYLINE
  8
LAYER_1
 40
0.0847
 41
0.0847
 66
1
 10
0
 20
0
 30
0
  0
VERTEX
  8
LAYER_1
 10
48.0226
 20
191.1614
  0
VERTEX
  8
LAYER_1
 10
60.3205
 20
191.1614
  0
SEQEND
  0
POLYLINE
  8
LAYER_1
 40
0.0847
 41
0.0847
 66
1
 10
0
 20
0
 30
0
  0
VERTEX
  8
LAYER_1
 10
48.0226
 20
178.8635
  0
VERTEX
  8
LAYER_1
 10
48.0226
 20
191.1614
  0
SEQEND
  0
POLYLINE
  8
LAYER_1
 40
0.0847
 41
0.0847
 66
1
 10
0
 20
0
 30
0
  0
VERTEX
  8
LAYER_1
 10
59.0928
 20
185.0442
 42
0.4143451434
  0
VERTEX
  8
LAYER_1
 10
54.1398
 20
189.9761
 42
0.4152381095
  0
VERTEX
  8
LAYER_1
 10
49.208
 20
185.0442
 42
0.4143452381
  0
VERTEX
  8
LAYER_1
 10
54.1398
 20
180.0912
 42
0.4134593264
  0
VERTEX
  8
LAYER_1
 10
59.0928
 20
185.0442
  0
SEQEND
  0
POLYLINE
  8
LAYER_1
 40
0.0847
 41
0.0847
 66
1
 10
0
 20
0
 30
0
  0
VERTEX
  8
LAYER_1
 10
57.3995
 20
185.0442
 42
0.4153059738
  0
VERTEX
  8
LAYER_1
 10
54.1398
 20
188.2827
 42
0.4166697295
  0
VERTEX
  8
LAYER_1
 10
50.9013
 20
185.0442
 42
0.415305526
  0
VERTEX
  8
LAYER_1
 10
54.1398
 20
181.7846
 42
0.4139581349
  0
VERTEX
  8
LAYER_1
 10
57.3995
 20
185.0442
  0
SEQEND
  0
POLYLINE
  8
LAYER_1
 40
0.0847
 41
0.0847
 66
1
 10
0
 20
0
 30
0
  0
VERTEX
  8
LAYER_1
 10
14.8545
 20
154.2044
  0
VERTEX
  8
LAYER_1
 10
93.4886
 20
154.2044
  0
SEQEND
  0
POLYLINE
  8
LAYER_1
 40
0.0847
 41
0.0847
 66
1
 10
0
 20
0
 30
0
  0
VERTEX
  8
LAYER_1
 10
14.8545
 20
215.8417
  0
VERTEX
  8
LAYER_1
 10
93.4886
 20
215.8417
  0
SEQEND
  0
POLYLINE
  8
LAYER_1
 40
0.0847
 41
0.0847
 66
1
 10
0
 20
0
 30
0
  0
VERTEX
  8
LAYER_1
 10
93.4886
 20
154.2044
  0
VERTEX
  8
LAYER_1
 10
93.4886
 20
215.8417
  0
SEQEND
  0
POLYLINE
  8
LAYER_1
 40
0.0847
 41
0.0847
 66
1
 10
0
 20
0
 30
0
  0
VERTEX
  8
LAYER_1
 10
14.8545
 20
215.8417
  0
VERTEX
  8
LAYER_1
 10
48.0226
 20
191.1614
  0
SEQEND
  0
POLYLINE
  8
LAYER_1
 40
0.0847
 41
0.0847
 66
1
 10
0
 20
0
 30
0
  0
VERTEX
  8
LAYER_1
 10
60.3205
 20
191.1614
  0
VERTEX
  8
LAYER_1
 10
93.4886
 20
215.8417
  0
SEQEND
  0
POLYLINE
  8
LAYER_1
 40
0.0847
 41
0.0847
 66
1
 10
0
 20
0
 30
0
  0
VERTEX
  8
LAYER_1
 10
48.0226
 20
178.8636
  0
VERTEX
  8
LAYER_1
 10
14.8545
 20
154.2044
  0
SEQEND
  0
POLYLINE
  8
LAYER_1
 40
0.0847
 41
0.0847
 66
1
 10
0
 20
0
 30
0
  0
VERTEX
  8
LAYER_1
 10
60.3205
 20
178.8636
  0
VERTEX
  8
LAYER_1
 10
93.4886
 20
154.2044
  0
SEQEND
  0
POLYLINE
  8
LAYER_1
 40
0.0847
 41
0.0847
 66
1
 10
0
 20
0
 30
0
  0
VERTEX
  8
LAYER_1
 10
12.4415
 20
218.2336
 42
0.4219000516
  0
VERTEX
  8
LAYER_1
 10
11.7641
 20
217.5562
  0
SEQEND
  0
POLYLINE
  8
LAYER_1
 40
0.0847
 41
0.0847
 66
1
 10
0
 20
0
 30
0
  0
VERTEX
  8
LAYER_1
 10
11.743
 20
152.5111
  0
VERTEX
  8
LAYER_1
 10
11.743
 20
217.5351
  0
SEQEND
  0
POLYLINE
  8
LAYER_1
 40
0.0847
 41
0.0847
 66
1
 10
0
 20
0
 30
0
  0
VERTEX
  8
LAYER_1
 10
11.7641
 20
152.5322
  0
VERTEX
  8
LAYER_1
 10
11.7641
 20
152.5111
 42
0.4039727447
  0
VERTEX
  8
LAYER_1
 10
12.4415
 20
151.8126
  0
SEQEND
  0
POLYLINE
  8
LAYER_1
 40
0.0847
 41
0.0847
 66
1
 10
0
 20
0
 30
0
  0
VERTEX
  8
LAYER_1
 10
12.4626
 20
151.7914
  0
VERTEX
  8
LAYER_1
 10
95.8805
 20
151.7914
  0
SEQEND
  0
POLYLINE
  8
LAYER_1
 40
0.0847
 41
0.0847
 66
1
 10
0
 20
0
 30
0
  0
VERTEX
  8
LAYER_1
 10
95.8593
 20
151.8126
  0
VERTEX
  8
LAYER_1
 10
95.8805
 20
151.8126
 42
0.4090878421
  0
VERTEX
  8
LAYER_1
 10
96.579
 20
152.5111
  0
VERTEX
  8
LAYER_1
 10
96.579
 20
152.5322
  0
SEQEND
  0
POLYLINE
  8
LAYER_1
 40
0.0847
 41
0.0847
 66
1
 10
0
 20
0
 30
0
  0
VERTEX
  8
LAYER_1
 10
12.4626
 20
218.2547
  0
VERTEX
  8
LAYER_1
 10
95.8805
 20
218.2547
  0
SEQEND
  0
POLYLINE
  8
LAYER_1
 40
0.0847
 41
0.0847
 66
1
 10
0
 20
0
 30
0
  0
VERTEX
  8
LAYER_1
 10
96.6001
 20
152.5111
  0
VERTEX
  8
LAYER_1
 10
96.6001
 20
217.5351
  0
SEQEND
  0
POLYLINE
  8
LAYER_1
 40
0.0847
 41
0.0847
 66
1
 10
0
 20
0
 30
0
  0
VERTEX
  8
LAYER_1
 10
96.579
 20
217.5562
 42
0.4039212126
  0
VERTEX
  8
LAYER_1
 10
95.8805
 20
218.2336
  0
VERTEX
  8
LAYER_1
 10
95.8593
 20
218.2336
  0
SEQEND
  0
POLYLINE
  8
LAYER_1
 40
0.0847
 41
0.0847
 66
1
 10
0
 20
0
 30
0
  0
VERTEX
  8
LAYER_1
 10
54.161
 20
91.4664
  0
VERTEX
  8
LAYER_1
 10
54.161
 20
94.0699
  0
SEQEND
  0
POLYLINE
  8
LAYER_1
 40
0.0847
 41
0.0847
 66
1
 10
0
 20
0
 30
0
  0
VERTEX
  8
LAYER_1
 10
54.161
 20
95.1071
  0
VERTEX
  8
LAYER_1
 10
54.161
 20
96.1654
  0
SEQEND
  0
POLYLINE
  8
LAYER_1
 40
0.0847
 41
0.0847
 66
1
 10
0
 20
0
 30
0
  0
VERTEX
  8
LAYER_1
 10
54.161
 20
97.2026
  0
VERTEX
  8
LAYER_1
 10
54.161
 20
102.4307
  0
SEQEND
  0
POLYLINE
  8
LAYER_1
 40
0.0847
 41
0.0847
 66
1
 10
0
 20
0
 30
0
  0
VERTEX
  8
LAYER_1
 10
54.161
 20
103.4891
  0
VERTEX
  8
LAYER_1
 10
54.161
 20
104.5262
  0
SEQEND
  0
POLYLINE
  8
LAYER_1
 40
0.0847
 41
0.0847
 66
1
 10
0
 20
0
 30
0
  0
VERTEX
  8
LAYER_1
 10
54.161
 20
105.5634
  0
VERTEX
  8
LAYER_1
 10
54.161
 20
110.8127
  0
SEQEND
  0
POLYLINE
  8
LAYER_1
 40
0.0847
 41
0.0847
 66
1
 10
0
 20
0
 30
0
  0
VERTEX
  8
LAYER_1
 10
54.161
 20
111.8499
  0
VERTEX
  8
LAYER_1
 10
54.161
 20
112.8871
  0
SEQEND
  0
POLYLINE
  8
LAYER_1
 40
0.0847
 41
0.0847
 66
1
 10
0
 20
0
 30
0
  0
VERTEX
  8
LAYER_1
 10
54.161
 20
113.9454
  0
VERTEX
  8
LAYER_1
 10
54.161
 20
119.1736
  0
SEQEND
  0
POLYLINE
  8
LAYER_1
 40
0.0847
 41
0.0847
 66
1
 10
0
 20
0
 30
0
  0
VERTEX
  8
LAYER_1
 10
54.161
 20
120.2107
  0
VERTEX
  8
LAYER_1
 10
54.161
 20
121.2691
  0
SEQEND
  0
POLYLINE
  8
LAYER_1
 40
0.0847
 41
0.0847
 66
1
 10
0
 20
0
 30
0
  0
VERTEX
  8
LAYER_1
 10
54.161
 20
122.3062
  0
VERTEX
  8
LAYER_1
 10
54.161
 20
124.9309
  0
SEQEND
  0
POLYLINE
  8
LAYER_1
 40
0.1693
 41
0.1693
 66
1
 10
0
 20
0
 30
0
  0
VERTEX
  8
LAYER_1
 10
160.6716
 20
111.3207
  0
VERTEX
  8
LAYER_1
 10
160.6716
 20
113.0141
  0
SEQEND
  0
POLYLINE
  8
LAYER_1
 40
0.1693
 41
0.1693
 66
1
 10
0
 20
0
 30
0
  0
VERTEX
  8
LAYER_1
 10
160.6716
 20
111.3207
  0
VERTEX
  8
LAYER_1
 10
162.6613
 20
111.3207
  0
SEQEND
  0
POLYLINE
  8
LAYER_1
 40
0.1693
 41
0.1693
 66
1
 10
0
 20
0
 30
0
  0
VERTEX
  8
LAYER_1
 10
188.9503
 20
100.4199
  0
VERTEX
  8
LAYER_1
 10
190.6436
 20
98.7266
  0
SEQEND
  0
POLYLINE
  8
LAYER_1
 40
0.1693
 41
0.1693
 66
1
 10
0
 20
0
 30
0
  0
VERTEX
  8
LAYER_1
 10
198.8563
 20
100.4199
  0
VERTEX
  8
LAYER_1
 10
197.1418
 20
98.7266
  0
SEQEND
  0
POLYLINE
  8
LAYER_1
 40
0.1693
 41
0.1693
 66
1
 10
0
 20
0
 30
0
  0
VERTEX
  8
LAYER_1
 10
187.7862
 20
100.4199
  0
VERTEX
  8
LAYER_1
 10
200.0205
 20
100.4199
  0
SEQEND
  0
POLYLINE
  8
LAYER_1
 40
0.1693
 41
0.1693
 66
1
 10
0
 20
0
 30
0
  0
VERTEX
  8
LAYER_1
 10
163.0635
 20
113.0141
  0
VERTEX
  8
LAYER_1
 10
187.7861
 20
100.4199
  0
SEQEND
  0
POLYLINE
  8
LAYER_1
 40
0.1693
 41
0.1693
 66
1
 10
0
 20
0
 30
0
  0
VERTEX
  8
LAYER_1
 10
227.135
 20
111.3207
  0
VERTEX
  8
LAYER_1
 10
227.135
 20
113.0141
  0
SEQEND
  0
POLYLINE
  8
LAYER_1
 40
0.1693
 41
0.1693
 66
1
 10
0
 20
0
 30
0
  0
VERTEX
  8
LAYER_1
 10
225.1241
 20
111.3207
  0
VERTEX
  8
LAYER_1
 10
227.135
 20
111.3207
  0
SEQEND
  0
POLYLINE
  8
LAYER_1
 40
0.1693
 41
0.1693
 66
1
 10
0
 20
0
 30
0
  0
VERTEX
  8
LAYER_1
 10
224.722
 20
113.0141
  0
VERTEX
  8
LAYER_1
 10
200.0205
 20
100.4199
  0
SEQEND
  0
POLYLINE
  8
LAYER_1
 40
0.1693
 41
0.1693
 66
1
 10
0
 20
0
 30
0
  0
VERTEX
  8
LAYER_1
 10
160.6716
 20
113.0141
  0
VERTEX
  8
LAYER_1
 10
227.135
 20
113.0141
  0
SEQEND
  0
POLYLINE
  8
LAYER_1
 40
0.1693
 41
0.1693
 66
1
 10
0
 20
0
 30
0
  0
VERTEX
  8
LAYER_1
 10
162.6613
 20
111.3207
  0
VERTEX
  8
LAYER_1
 10
187.3628
 20
98.7266
  0
SEQEND
  0
POLYLINE
  8
LAYER_1
 40
0.1693
 41
0.1693
 66
1
 10
0
 20
0
 30
0
  0
VERTEX
  8
LAYER_1
 10
225.1241
 20
111.3207
  0
VERTEX
  8
LAYER_1
 10
200.4226
 20
98.7266
  0
SEQEND
  0
POLYLINE
  8
LAYER_1
 40
0.1693
 41
0.1693
 66
1
 10
0
 20
0
 30
0
  0
VERTEX
  8
LAYER_1
 10
187.3628
 20
98.7266
  0
VERTEX
  8
LAYER_1
 10
200.4226
 20
98.7266
  0
SEQEND
  0
POLYLINE
  8
LAYER_1
 40
0.1693
 41
0.1693
 66
1
 10
0
 20
0
 30
0
  0
VERTEX
  8
LAYER_1
 10
160.6716
 20
111.3207
  0
VERTEX
  8
LAYER_1
 10
160.6716
 20
113.0141
  0
SEQEND
  0
POLYLINE
  8
LAYER_1
 40
0.1693
 41
0.1693
 66
1
 10
0
 20
0
 30
0
  0
VERTEX
  8
LAYER_1
 10
160.6716
 20
110.8974
  0
VERTEX
  8
LAYER_1
 10
160.6716
 20
113.0141
  0
SEQEND
  0
POLYLINE
  8
LAYER_1
 40
0.1693
 41
0.1693
 66
1
 10
0
 20
0
 30
0
  0
VERTEX
  8
LAYER_1
 10
160.6716
 20
110.8974
  0
VERTEX
  8
LAYER_1
 10
161.6453
 20
110.8974
  0
SEQEND
  0
POLYLINE
  8
LAYER_1
 40
0.0847
 41
0.0847
 66
1
 10
0
 20
0
 30
0
  0
VERTEX
  8
LAYER_1
 10
154.0676
 20
109.4792
  0
VERTEX
  8
LAYER_1
 10
157.6024
 20
113.0141
  0
SEQEND
  0
POLYLINE
  8
LAYER_1
 40
0.0847
 41
0.0847
 66
1
 10
0
 20
0
 30
0
  0
VERTEX
  8
LAYER_1
 10
152.078
 20
109.4792
  0
VERTEX
  8
LAYER_1
 10
155.6128
 20
113.0141
  0
SEQEND
  0
POLYLINE
  8
LAYER_1
 40
0.0847
 41
0.0847
 66
1
 10
0
 20
0
 30
0
  0
VERTEX
  8
LAYER_1
 10
150.0671
 20
109.4792
  0
VERTEX
  8
LAYER_1
 10
153.6231
 20
113.0141
  0
SEQEND
  0
POLYLINE
  8
LAYER_1
 40
0.1693
 41
0.1693
 66
1
 10
0
 20
0
 30
0
  0
VERTEX
  8
LAYER_1
 10
161.6449
 20
109.4792
  0
VERTEX
  8
LAYER_1
 10
161.6449
 20
110.8974
  0
SEQEND
  0
POLYLINE
  8
LAYER_1
 40
0.0847
 41
0.0847
 66
1
 10
0
 20
0
 30
0
  0
VERTEX
  8
LAYER_1
 10
160.0786
 20
109.4792
  0
VERTEX
  8
LAYER_1
 10
161.4968
 20
110.8974
  0
SEQEND
  0
POLYLINE
  8
LAYER_1
 40
0.0847
 41
0.0847
 66
1
 10
0
 20
0
 30
0
  0
VERTEX
  8
LAYER_1
 10
158.0678
 20
109.4792
  0
VERTEX
  8
LAYER_1
 10
160.6712
 20
112.0616
  0
SEQEND
  0
POLYLINE
  8
LAYER_1
 40
0.0847
 41
0.0847
 66
1
 10
0
 20
0
 30
0
  0
VERTEX
  8
LAYER_1
 10
156.0781
 20
109.4792
  0
VERTEX
  8
LAYER_1
 10
159.6129
 20
113.0141
  0
SEQEND
  0
POLYLINE
  8
LAYER_1
 40
0.0847
 41
0.0847
 66
1
 10
0
 20
0
 30
0
  0
VERTEX
  8
LAYER_1
 10
193.9029
 20
91.4664
  0
VERTEX
  8
LAYER_1
 10
193.9029
 20
94.0699
  0
SEQEND
  0
POLYLINE
  8
LAYER_1
 40
0.0847
 41
0.0847
 66
1
 10
0
 20
0
 30
0
  0
VERTEX
  8
LAYER_1
 10
193.9029
 20
95.1071
  0
VERTEX
  8
LAYER_1
 10
193.9029
 20
96.1654
  0
SEQEND
  0
POLYLINE
  8
LAYER_1
 40
0.0847
 41
0.0847
 66
1
 10
0
 20
0
 30
0
  0
VERTEX
  8
LAYER_1
 10
193.9029
 20
97.2026
  0
VERTEX
  8
LAYER_1
 10
193.9029
 20
102.4307
  0
SEQEND
  0
POLYLINE
  8
LAYER_1
 40
0.0847
 41
0.0847
 66
1
 10
0
 20
0
 30
0
  0
VERTEX
  8
LAYER_1
 10
193.9029
 20
103.4891
  0
VERTEX
  8
LAYER_1
 10
193.9029
 20
104.5262
  0
SEQEND
  0
POLYLINE
  8
LAYER_1
 40
0.0847
 41
0.0847
 66
1
 10
0
 20
0
 30
0
  0
VERTEX
  8
LAYER_1
 10
193.9029
 20
105.5634
  0
VERTEX
  8
LAYER_1
 10
193.9029
 20
110.8127
  0
SEQEND
  0
POLYLINE
  8
LAYER_1
 40
0.0847
 41
0.0847
 66
1
 10
0
 20
0
 30
0
  0
VERTEX
  8
LAYER_1
 10
193.9029
 20
111.8499
  0
VERTEX
  8
LAYER_1
 10
193.9029
 20
112.8871
  0
SEQEND
  0
POLYLINE
  8
LAYER_1
 40
0.0847
 41
0.0847
 66
1
 10
0
 20
0
 30
0
  0
VERTEX
  8
LAYER_1
 10
193.9029
 20
113.9454
  0
VERTEX
  8
LAYER_1
 10
193.9029
 20
119.1736
  0
SEQEND
  0
POLYLINE
  8
LAYER_1
 40
0.0847
 41
0.0847
 66
1
 10
0
 20
0
 30
0
  0
VERTEX
  8
LAYER_1
 10
193.9029
 20
120.2107
  0
VERTEX
  8
LAYER_1
 10
193.9029
 20
121.2691
  0
SEQEND
  0
POLYLINE
  8
LAYER_1
 40
0.0847
 41
0.0847
 66
1
 10
0
 20
0
 30
0
  0
VERTEX
  8
LAYER_1
 10
193.9029
 20
122.3062
  0
VERTEX
  8
LAYER_1
 10
193.9029
 20
124.9309
  0
SEQEND
  0
POLYLINE
  8
LAYER_1
 40
0.1693
 41
0.1693
 66
1
 10
0
 20
0
 30
0
  0
VERTEX
  8
LAYER_1
 10
227.135
 20
111.3207
  0
VERTEX
  8
LAYER_1
 10
227.135
 20
113.0141
  0
SEQEND
  0
POLYLINE
  8
LAYER_1
 40
0.1693
 41
0.1693
 66
1
 10
0
 20
0
 30
0
  0
VERTEX
  8
LAYER_1
 10
227.135
 20
110.8974
  0
VERTEX
  8
LAYER_1
 10
227.135
 20
113.014
  0
SEQEND
  0
POLYLINE
  8
LAYER_1
 40
0.1693
 41
0.1693
 66
1
 10
0
 20
0
 30
0
  0
VERTEX
  8
LAYER_1
 10
226.1401
 20
110.8974
  0
VERTEX
  8
LAYER_1
 10
227.1349
 20
110.8974
  0
SEQEND
  0
POLYLINE
  8
LAYER_1
 40
0.1693
 41
0.1693
 66
1
 10
0
 20
0
 30
0
  0
VERTEX
  8
LAYER_1
 10
226.1401
 20
109.4792
  0
VERTEX
  8
LAYER_1
 10
226.1401
 20
110.8974
  0
SEQEND
  0
POLYLINE
  8
LAYER_1
 40
0.1693
 41
0.1693
 66
1
 10
0
 20
0
 30
0
  0
VERTEX
  8
LAYER_1
 10
227.135
 20
113.014
  0
VERTEX
  8
LAYER_1
 10
238.7343
 20
113.014
  0
SEQEND
  0
POLYLINE
  8
LAYER_1
 40
0.1693
 41
0.1693
 66
1
 10
0
 20
0
 30
0
  0
VERTEX
  8
LAYER_1
 10
226.1401
 20
109.4792
  0
VERTEX
  8
LAYER_1
 10
238.7343
 20
109.4792
  0
SEQEND
  0
POLYLINE
  8
LAYER_1
 40
0.1693
 41
0.1693
 66
1
 10
0
 20
0
 30
0
  0
VERTEX
  8
LAYER_1
 10
149.0511
 20
113.014
  0
VERTEX
  8
LAYER_1
 10
160.6716
 20
113.014
  0
SEQEND
  0
POLYLINE
  8
LAYER_1
 40
0.1693
 41
0.1693
 66
1
 10
0
 20
0
 30
0
  0
VERTEX
  8
LAYER_1
 10
149.0511
 20
109.4792
  0
VERTEX
  8
LAYER_1
 10
161.6453
 20
109.4792
  0
SEQEND
  0
POLYLINE
  8
LAYER_1
 40
0.0847
 41
0.0847
 66
1
 10
0
 20
0
 30
0
  0
VERTEX
  8
LAYER_1
 10
149.0508
 20
112.4425
  0
VERTEX
  8
LAYER_1
 10
149.6223
 20
113.0141
  0
SEQEND
  0
POLYLINE
  8
LAYER_1
 40
0.0847
 41
0.0847
 66
1
 10
0
 20
0
 30
0
  0
VERTEX
  8
LAYER_1
 10
149.0508
 20
110.4529
  0
VERTEX
  8
LAYER_1
 10
151.6119
 20
113.014
  0
SEQEND
  0
POLYLINE
  8
LAYER_1
 40
0.0847
 41
0.0847
 66
1
 10
0
 20
0
 30
0
  0
VERTEX
  8
LAYER_1
 10
238.0354
 20
109.4792
  0
VERTEX
  8
LAYER_1
 10
238.7339
 20
110.1777
  0
SEQEND
  0
POLYLINE
  8
LAYER_1
 40
0.0847
 41
0.0847
 66
1
 10
0
 20
0
 30
0
  0
VERTEX
  8
LAYER_1
 10
236.0458
 20
109.4792
  0
VERTEX
  8
LAYER_1
 10
238.7339
 20
112.1885
  0
SEQEND
  0
POLYLINE
  8
LAYER_1
 40
0.0847
 41
0.0847
 66
1
 10
0
 20
0
 30
0
  0
VERTEX
  8
LAYER_1
 10
234.0349
 20
109.4792
  0
VERTEX
  8
LAYER_1
 10
237.5697
 20
113.014
  0
SEQEND
  0
POLYLINE
  8
LAYER_1
 40
0.0847
 41
0.0847
 66
1
 10
0
 20
0
 30
0
  0
VERTEX
  8
LAYER_1
 10
232.0453
 20
109.4792
  0
VERTEX
  8
LAYER_1
 10
235.5801
 20
113.014
  0
SEQEND
  0
POLYLINE
  8
LAYER_1
 40
0.0847
 41
0.0847
 66
1
 10
0
 20
0
 30
0
  0
VERTEX
  8
LAYER_1
 10
230.0344
 20
109.4792
  0
VERTEX
  8
LAYER_1
 10
233.5692
 20
113.014
  0
SEQEND
  0
POLYLINE
  8
LAYER_1
 40
0.0847
 41
0.0847
 66
1
 10
0
 20
0
 30
0
  0
VERTEX
  8
LAYER_1
 10
228.0447
 20
109.4792
  0
VERTEX
  8
LAYER_1
 10
231.5796
 20
113.014
  0
SEQEND
  0
POLYLINE
  8
LAYER_1
 40
0.0847
 41
0.0847
 66
1
 10
0
 20
0
 30
0
  0
VERTEX
  8
LAYER_1
 10
226.1397
 20
109.585
  0
VERTEX
  8
LAYER_1
 10
229.5687
 20
113.014
  0
SEQEND
  0
POLYLINE
  8
LAYER_1
 40
0.0847
 41
0.0847
 66
1
 10
0
 20
0
 30
0
  0
VERTEX
  8
LAYER_1
 10
227.1346
 20
112.5695
  0
VERTEX
  8
LAYER_1
 10
227.5791
 20
113.014
  0
SEQEND
  0
POLYLINE
  8
LAYER_1
 40
0.1693
 41
0.1693
 66
1
 10
0
 20
0
 30
0
  0
VERTEX
  8
LAYER_1
 10
226.1398
 20
110.8974
  0
VERTEX
  8
LAYER_1
 10
227.1346
 20
110.8974
  0
SEQEND
  0
POLYLINE
  8
LAYER_1
 40
0.0847
 41
0.0847
 66
1
 10
0
 20
0
 30
0
  0
VERTEX
  8
LAYER_1
 10
160.6716
 20
123.7032
  0
VERTEX
  8
LAYER_1
 10
227.135
 20
123.7032
  0
SEQEND
  0
POLYLINE
  8
LAYER_1
 40
0.1693
 41
0.1693
 66
1
 10
0
 20
0
 30
0
  0
VERTEX
  8
LAYER_1
 10
160.6716
 20
123.7032
  0
VERTEX
  8
LAYER_1
 10
162.7036
 20
124.2536
  0
SEQEND
  0
POLYLINE
  8
LAYER_1
 40
0.1693
 41
0.1693
 66
1
 10
0
 20
0
 30
0
  0
VERTEX
  8
LAYER_1
 10
160.6716
 20
123.7032
  0
VERTEX
  8
LAYER_1
 10
162.7036
 20
123.1529
  0
SEQEND
  0
POLYLINE
  8
LAYER_1
 40
0.1693
 41
0.1693
 66
1
 10
0
 20
0
 30
0
  0
VERTEX
  8
LAYER_1
 10
227.135
 20
123.7032
  0
VERTEX
  8
LAYER_1
 10
225.0818
 20
123.1529
  0
SEQEND
  0
POLYLINE
  8
LAYER_1
 40
0.1693
 41
0.1693
 66
1
 10
0
 20
0
 30
0
  0
VERTEX
  8
LAYER_1
 10
227.135
 20
123.7032
  0
VERTEX
  8
LAYER_1
 10
225.0818
 20
124.2536
  0
SEQEND
  0
POLYLINE
  8
LAYER_1
 40
0.0847
 41
0.0847
 66
1
 10
0
 20
0
 30
0
  0
VERTEX
  8
LAYER_1
 10
160.6716
 20
115.427
  0
VERTEX
  8
LAYER_1
 10
160.6716
 20
123.7032
  0
SEQEND
  0
POLYLINE
  8
LAYER_1
 40
0.0847
 41
0.0847
 66
1
 10
0
 20
0
 30
0
  0
VERTEX
  8
LAYER_1
 10
227.135
 20
115.427
  0
VERTEX
  8
LAYER_1
 10
227.135
 20
123.7032
  0
SEQEND
  0
TEXT
  8
LAYER_1
 10
192.1249
 20
124.2746
 11
192.1249
 21
124.2746
 40
2.5779
 41
0.5
  1
470
  0
POLYLINE
  8
LAYER_1
 40
0.0847
 41
0.0847
 66
1
 10
0
 20
0
 30
0
  0
VERTEX
  8
LAYER_1
 10
232.5744
 20
121.8194
  0
VERTEX
  8
LAYER_1
 10
248.7669
 20
121.8194
  0
SEQEND
  0
POLYLINE
  8
LAYER_1
 40
0.0847
 41
0.0847
 66
1
 10
0
 20
0
 30
0
  0
VERTEX
  8
LAYER_1
 10
227.1346
 20
113.0141
  0
VERTEX
  8
LAYER_1
 10
232.5744
 20
121.8194
  0
SEQEND
  0
POLYLINE
  8
LAYER_1
 40
0.1693
 41
0.1693
 66
1
 10
0
 20
0
 30
0
  0
VERTEX
  8
LAYER_1
 10
227.135
 20
113.014
  0
VERTEX
  8
LAYER_1
 10
227.7488
 20
115.0461
  0
SEQEND
  0
POLYLINE
  8
LAYER_1
 40
0.1693
 41
0.1693
 66
1
 10
0
 20
0
 30
0
  0
VERTEX
  8
LAYER_1
 10
227.135
 20
113.014
  0
VERTEX
  8
LAYER_1
 10
228.6801
 20
114.4746
  0
SEQEND
  0
POLYLINE
  8
LAYER_1
 40
0.1693
 41
0.1693
 66
1
 10
0
 20
0
 30
0
  0
VERTEX
  8
LAYER_1
 10
37.143
 20
74.9987
  0
VERTEX
  8
LAYER_1
 10
37.143
 20
79.3802
  0
SEQEND
  0
POLYLINE
  8
LAYER_1
 40
0.1693
 41
0.1693
 66
1
 10
0
 20
0
 30
0
  0
VERTEX
  8
LAYER_1
 10
37.143
 20
74.9987
  0
VERTEX
  8
LAYER_1
 10
71.0731
 20
74.9987
  0
VERTEX
  8
LAYER_1
 10
71.0731
 20
79.3802
  0
SEQEND
  0
POLYLINE
  8
LAYER_1
 40
0.1693
 41
0.1693
 66
1
 10
0
 20
0
 30
0
  0
VERTEX
  8
LAYER_1
 10
37.143
 20
79.3802
  0
VERTEX
  8
LAYER_1
 10
71.0731
 20
79.3802
  0
SEQEND
  0
POLYLINE
  8
LAYER_1
 40
0.1693
 41
0.1693
 66
1
 10
0
 20
0
 30
0
  0
VERTEX
  8
LAYER_1
 10
180.7165
 20
74.9987
  0
VERTEX
  8
LAYER_1
 10
180.7165
 20
79.3802
  0
SEQEND
  0
POLYLINE
  8
LAYER_1
 40
0.1693
 41
0.1693
 66
1
 10
0
 20
0
 30
0
  0
VERTEX
  8
LAYER_1
 10
180.7165
 20
74.9987
  0
VERTEX
  8
LAYER_1
 10
214.6254
 20
74.9987
  0
VERTEX
  8
LAYER_1
 10
214.6254
 20
79.3802
  0
SEQEND
  0
POLYLINE
  8
LAYER_1
 40
0.1693
 41
0.1693
 66
1
 10
0
 20
0
 30
0
  0
VERTEX
  8
LAYER_1
 10
180.7165
 20
79.3802
  0
VERTEX
  8
LAYER_1
 10
214.6254
 20
79.3802
  0
SEQEND
  0
POLYLINE
  8
LAYER_1
 40
0.254
 41
0.254
 66
1
 10
0
 20
0
 30
0
  0
VERTEX
  8
LAYER_1
 10
160.8198
 20
94.8107
  0
VERTEX
  8
LAYER_1
 10
160.8198
 20
96.4194
  0
SEQEND
  0
POLYLINE
  8
LAYER_1
 40
0.254
 41
0.254
 66
1
 10
0
 20
0
 30
0
  0
VERTEX
  8
LAYER_1
 10
160.8198
 20
97.4989
  0
VERTEX
  8
LAYER_1
 10
160.8198
 20
100.7374
  0
SEQEND
  0
POLYLINE
  8
LAYER_1
 40
0.254
 41
0.254
 66
1
 10
0
 20
0
 30
0
  0
VERTEX
  8
LAYER_1
 10
160.8198
 20
101.8169
  0
VERTEX
  8
LAYER_1
 10
160.8198
 20
105.0554
  0
SEQEND
  0
POLYLINE
  8
LAYER_1
 40
0.254
 41
0.254
 66
1
 10
0
 20
0
 30
0
  0
VERTEX
  8
LAYER_1
 10
160.8198
 20
106.1349
  0
VERTEX
  8
LAYER_1
 10
160.8198
 20
107.7647
  0
SEQEND
  0
POLYLINE
  8
LAYER_1
 40
0.0847
 41
0.0847
 66
1
 10
0
 20
0
 30
0
  0
VERTEX
  8
LAYER_1
 10
160.9891
 20
111.109
  0
VERTEX
  8
LAYER_1
 10
145.8338
 20
92.4189
  0
SEQEND
  0
POLYLINE
  8
LAYER_1
 40
0.254
 41
0.254
 66
1
 10
0
 20
0
 30
0
  0
VERTEX
  8
LAYER_1
 10
160.8198
 20
94.8107
  0
VERTEX
  8
LAYER_1
 10
162.111
 20
94.8107
  0
SEQEND
  0
POLYLINE
  8
LAYER_1
 40
0.254
 41
0.254
 66
1
 10
0
 20
0
 30
0
  0
VERTEX
  8
LAYER_1
 10
162.9788
 20
94.8107
  0
VERTEX
  8
LAYER_1
 10
165.6034
 20
94.8107
  0
SEQEND
  0
POLYLINE
  8
LAYER_1
 40
0.254
 41
0.254
 66
1
 10
0
 20
0
 30
0
  0
VERTEX
  8
LAYER_1
 10
166.4713
 20
94.8107
  0
VERTEX
  8
LAYER_1
 10
169.0748
 20
94.8107
  0
SEQEND
  0
POLYLINE
  8
LAYER_1
 40
0.254
 41
0.254
 66
1
 10
0
 20
0
 30
0
  0
VERTEX
  8
LAYER_1
 10
169.9426
 20
94.8107
  0
VERTEX
  8
LAYER_1
 10
172.5673
 20
94.8107
  0
SEQEND
  0
POLYLINE
  8
LAYER_1
 40
0.254
 41
0.254
 66
1
 10
0
 20
0
 30
0
  0
VERTEX
  8
LAYER_1
 10
173.4352
 20
94.8107
  0
VERTEX
  8
LAYER_1
 10
176.0386
 20
94.8107
  0
SEQEND
  0
POLYLINE
  8
LAYER_1
 40
0.254
 41
0.254
 66
1
 10
0
 20
0
 30
0
  0
VERTEX
  8
LAYER_1
 10
176.9065
 20
94.8107
  0
VERTEX
  8
LAYER_1
 10
179.5311
 20
94.8107
  0
SEQEND
  0
POLYLINE
  8
LAYER_1
 40
0.254
 41
0.254
 66
1
 10
0
 20
0
 30
0
  0
VERTEX
  8
LAYER_1
 10
180.399
 20
94.8107
  0
VERTEX
  8
LAYER_1
 10
183.0025
 20
94.8107
  0
SEQEND
  0
POLYLINE
  8
LAYER_1
 40
0.254
 41
0.254
 66
1
 10
0
 20
0
 30
0
  0
VERTEX
  8
LAYER_1
 10
183.8703
 20
94.8107
  0
VERTEX
  8
LAYER_1
 10
186.495
 20
94.8107
  0
SEQEND
  0
POLYLINE
  8
LAYER_1
 40
0.254
 41
0.254
 66
1
 10
0
 20
0
 30
0
  0
VERTEX
  8
LAYER_1
 10
187.3629
 20
94.8107
  0
VERTEX
  8
LAYER_1
 10
189.9663
 20
94.8107
  0
SEQEND
  0
POLYLINE
  8
LAYER_1
 40
0.254
 41
0.254
 66
1
 10
0
 20
0
 30
0
  0
VERTEX
  8
LAYER_1
 10
190.8554
 20
94.8107
  0
VERTEX
  8
LAYER_1
 10
193.4588
 20
94.8107
  0
SEQEND
  0
POLYLINE
  8
LAYER_1
 40
0.254
 41
0.254
 66
1
 10
0
 20
0
 30
0
  0
VERTEX
  8
LAYER_1
 10
194.3267
 20
94.8107
  0
VERTEX
  8
LAYER_1
 10
196.9302
 20
94.8107
  0
SEQEND
  0
POLYLINE
  8
LAYER_1
 40
0.254
 41
0.254
 66
1
 10
0
 20
0
 30
0
  0
VERTEX
  8
LAYER_1
 10
197.8192
 20
94.8107
  0
VERTEX
  8
LAYER_1
 10
200.4227
 20
94.8107
  0
SEQEND
  0
POLYLINE
  8
LAYER_1
 40
0.254
 41
0.254
 66
1
 10
0
 20
0
 30
0
  0
VERTEX
  8
LAYER_1
 10
201.2906
 20
94.8107
  0
VERTEX
  8
LAYER_1
 10
203.9152
 20
94.8107
  0
SEQEND
  0
POLYLINE
  8
LAYER_1
 40
0.254
 41
0.254
 66
1
 10
0
 20
0
 30
0
  0
VERTEX
  8
LAYER_1
 10
204.7831
 20
94.8107
  0
VERTEX
  8
LAYER_1
 10
207.3865
 20
94.8107
  0
SEQEND
  0
POLYLINE
  8
LAYER_1
 40
0.254
 41
0.254
 66
1
 10
0
 20
0
 30
0
  0
VERTEX
  8
LAYER_1
 10
208.2544
 20
94.8107
  0
VERTEX
  8
LAYER_1
 10
210.8791
 20
94.8107
  0
SEQEND
  0
POLYLINE
  8
LAYER_1
 40
0.254
 41
0.254
 66
1
 10
0
 20
0
 30
0
  0
VERTEX
  8
LAYER_1
 10
211.7469
 20
94.8107
  0
VERTEX
  8
LAYER_1
 10
214.3504
 20
94.8107
  0
SEQEND
  0
POLYLINE
  8
LAYER_1
 40
0.254
 41
0.254
 66
1
 10
0
 20
0
 30
0
  0
VERTEX
  8
LAYER_1
 10
215.2183
 20
94.8107
  0
VERTEX
  8
LAYER_1
 10
217.8429
 20
94.8107
  0
SEQEND
  0
POLYLINE
  8
LAYER_1
 40
0.254
 41
0.254
 66
1
 10
0
 20
0
 30
0
  0
VERTEX
  8
LAYER_1
 10
218.7108
 20
94.8107
  0
VERTEX
  8
LAYER_1
 10
221.3143
 20
94.8107
  0
SEQEND
  0
POLYLINE
  8
LAYER_1
 40
0.254
 41
0.254
 66
1
 10
0
 20
0
 30
0
  0
VERTEX
  8
LAYER_1
 10
222.1821
 20
94.8107
  0
VERTEX
  8
LAYER_1
 10
224.8068
 20
94.8107
  0
SEQEND
  0
POLYLINE
  8
LAYER_1
 40
0.254
 41
0.254
 66
1
 10
0
 20
0
 30
0
  0
VERTEX
  8
LAYER_1
 10
225.6746
 20
94.8107
  0
VERTEX
  8
LAYER_1
 10
226.9869
 20
94.8107
  0
VERTEX
  8
LAYER_1
 10
226.9869
 20
96.4194
  0
SEQEND
  0
POLYLINE
  8
LAYER_1
 40
0.254
 41
0.254
 66
1
 10
0
 20
0
 30
0
  0
VERTEX
  8
LAYER_1
 10
226.9869
 20
97.4989
  0
VERTEX
  8
LAYER_1
 10
226.9869
 20
100.7374
  0
SEQEND
  0
POLYLINE
  8
LAYER_1
 40
0.254
 41
0.254
 66
1
 10
0
 20
0
 30
0
  0
VERTEX
  8
LAYER_1
 10
226.9869
 20
101.8169
  0
VERTEX
  8
LAYER_1
 10
226.9869
 20
105.0554
  0
SEQEND
  0
POLYLINE
  8
LAYER_1
 40
0.254
 41
0.254
 66
1
 10
0
 20
0
 30
0
  0
VERTEX
  8
LAYER_1
 10
226.9869
 20
106.1349
  0
VERTEX
  8
LAYER_1
 10
226.9869
 20
107.7647
  0
SEQEND
  0
TEXT
  8
LAYER_1
 10
-35.0778
 20
90.1965
 11
-35.0778
 21
90.1965
 40
2.1846
 41
0.5
  1
付属：専用特殊コーキングテープ（透明）
  0
TEXT
  8
LAYER_1
 10
136.6047
 20
90.2387
 11
136.6047
 21
90.2387
 40
2.1846
 41
0.5
  1
付属：専用特殊コーキングテープ（透明）
  0
TEXT
  8
LAYER_1
 10
232.6805
 20
126.8359
 11
232.6805
 21
126.8359
 40
2.1846
 41
0.5
  1
要コーキング
  0
TEXT
  8
LAYER_1
 10
232.6802
 20
123.7878
 11
232.6802
 21
123.7878
 40
2.1846
 41
0.5
  1
（透明推奨）
  0
TEXT
  8
LAYER_1
 10
9.901
 20
84.8202
 11
9.901
 21
84.8202
 40
2.1846
 41
0.5
  1
※天板から下が見えないようにするためには、点線エリアに造作を施してください。
  0
POLYLINE
  8
LAYER_1
 40
0.0847
 41
0.0847
 66
1
 10
0
 20
0
 30
0
  0
VERTEX
  8
LAYER_1
 10
160.6716
 20
113.014
  0
VERTEX
  8
LAYER_1
 10
154.5968
 20
121.8194
  0
SEQEND
  0
POLYLINE
  8
LAYER_1
 40
0.1693
 41
0.1693
 66
1
 10
0
 20
0
 30
0
  0
VERTEX
  8
LAYER_1
 10
160.6716
 20
113.014
  0
VERTEX
  8
LAYER_1
 10
159.0418
 20
114.3899
  0
SEQEND
  0
POLYLINE
  8
LAYER_1
 40
0.1693
 41
0.1693
 66
1
 10
0
 20
0
 30
0
  0
VERTEX
  8
LAYER_1
 10
160.6716
 20
113.014
  0
VERTEX
  8
LAYER_1
 10
159.952
 20
115.0037
  0
SEQEND
  0
POLYLINE
  8
LAYER_1
 40
0.0847
 41
0.0847
 66
1
 10
0
 20
0
 30
0
  0
VERTEX
  8
LAYER_1
 10
49.9276
 20
226.0229
  0
VERTEX
  8
LAYER_1
 10
51.24
 20
226.0229
  0
SEQEND
  0
POLYLINE
  8
LAYER_1
 40
0.0847
 41
0.0847
 66
1
 10
0
 20
0
 30
0
  0
VERTEX
  8
LAYER_1
 10
51.7691
 20
226.0229
  0
VERTEX
  8
LAYER_1
 10
52.2983
 20
226.0229
  0
SEQEND
  0
POLYLINE
  8
LAYER_1
 40
0.0847
 41
0.0847
 66
1
 10
0
 20
0
 30
0
  0
VERTEX
  8
LAYER_1
 10
52.8275
 20
226.0229
  0
VERTEX
  8
LAYER_1
 10
54.161
 20
226.0229
  0
SEQEND
  0
POLYLINE
  8
LAYER_1
 40
0.0847
 41
0.0847
 66
1
 10
0
 20
0
 30
0
  0
VERTEX
  8
LAYER_1
 10
49.9276
 20
226.0229
  0
VERTEX
  8
LAYER_1
 10
51.24
 20
225.2609
  0
SEQEND
  0
POLYLINE
  8
LAYER_1
 40
0.0847
 41
0.0847
 66
1
 10
0
 20
0
 30
0
  0
VERTEX
  8
LAYER_1
 10
51.7691
 20
224.9646
  0
VERTEX
  8
LAYER_1
 10
52.2983
 20
224.6471
  0
SEQEND
  0
POLYLINE
  8
LAYER_1
 40
0.0847
 41
0.0847
 66
1
 10
0
 20
0
 30
0
  0
VERTEX
  8
LAYER_1
 10
52.8275
 20
224.3507
  0
VERTEX
  8
LAYER_1
 10
54.161
 20
223.5676
  0
SEQEND
  0
TEXT
  8
LAYER_1
 10
47.0274
 20
224.5275
 11
47.0274
 21
224.5275
 40
4.305
 41
0.5
  1
B
  0
POLYLINE
  8
LAYER_1
 40
0.0847
 41
0.0847
 66
1
 10
0
 20
0
 30
0
  0
VERTEX
  8
LAYER_1
 10
119.9046
 20
189.2564
  0
VERTEX
  8
LAYER_1
 10
119.1638
 20
187.9441
  0
SEQEND
  0
POLYLINE
  8
LAYER_1
 40
0.0847
 41
0.0847
 66
1
 10
0
 20
0
 30
0
  0
VERTEX
  8
LAYER_1
 10
118.8463
 20
187.4149
  0
VERTEX
  8
LAYER_1
 10
118.55
 20
186.8857
  0
SEQEND
  0
POLYLINE
  8
LAYER_1
 40
0.0847
 41
0.0847
 66
1
 10
0
 20
0
 30
0
  0
VERTEX
  8
LAYER_1
 10
118.2325
 20
186.3566
  0
VERTEX
  8
LAYER_1
 10
117.4705
 20
185.0231
  0
SEQEND
  0
POLYLINE
  8
LAYER_1
 40
0.0847
 41
0.0847
 66
1
 10
0
 20
0
 30
0
  0
VERTEX
  8
LAYER_1
 10
119.9046
 20
185.0231
  0
VERTEX
  8
LAYER_1
 10
119.9046
 20
186.3354
  0
SEQEND
  0
POLYLINE
  8
LAYER_1
 40
0.0847
 41
0.0847
 66
1
 10
0
 20
0
 30
0
  0
VERTEX
  8
LAYER_1
 10
119.9046
 20
186.8646
  0
VERTEX
  8
LAYER_1
 10
119.9046
 20
187.3937
  0
SEQEND
  0
POLYLINE
  8
LAYER_1
 40
0.0847
 41
0.0847
 66
1
 10
0
 20
0
 30
0
  0
VERTEX
  8
LAYER_1
 10
119.9046
 20
187.9229
  0
VERTEX
  8
LAYER_1
 10
119.9046
 20
189.2564
  0
SEQEND
  0
TEXT
  8
LAYER_1
 10
118.3382
 20
190.1318
 11
118.3382
 21
190.1318
 40
4.305
 41
0.5
  1
A'
  0
POLYLINE
  8
LAYER_1
 40
0.0847
 41
0.0847
 66
1
 10
0
 20
0
 30
0
  0
VERTEX
  8
LAYER_1
 10
-13.0855
 20
189.2564
  0
VERTEX
  8
LAYER_1
 10
-12.3235
 20
187.9441
  0
SEQEND
  0
POLYLINE
  8
LAYER_1
 40
0.0847
 41
0.0847
 66
1
 10
0
 20
0
 30
0
  0
VERTEX
  8
LAYER_1
 10
-12.0272
 20
187.4149
  0
VERTEX
  8
LAYER_1
 10
-11.7097
 20
186.8857
  0
SEQEND
  0
POLYLINE
  8
LAYER_1
 40
0.0847
 41
0.0847
 66
1
 10
0
 20
0
 30
0
  0
VERTEX
  8
LAYER_1
 10
-11.4134
 20
186.3566
  0
VERTEX
  8
LAYER_1
 10
-10.6302
 20
185.0231
  0
SEQEND
  0
POLYLINE
  8
LAYER_1
 40
0.0847
 41
0.0847
 66
1
 10
0
 20
0
 30
0
  0
VERTEX
  8
LAYER_1
 10
-13.0855
 20
185.0231
  0
VERTEX
  8
LAYER_1
 10
-13.0855
 20
186.3354
  0
SEQEND
  0
POLYLINE
  8
LAYER_1
 40
0.0847
 41
0.0847
 66
1
 10
0
 20
0
 30
0
  0
VERTEX
  8
LAYER_1
 10
-13.0855
 20
186.8646
  0
VERTEX
  8
LAYER_1
 10
-13.0855
 20
187.3937
  0
SEQEND
  0
POLYLINE
  8
LAYER_1
 40
0.0847
 41
0.0847
 66
1
 10
0
 20
0
 30
0
  0
VERTEX
  8
LAYER_1
 10
-13.0855
 20
187.9229
  0
VERTEX
  8
LAYER_1
 10
-13.0855
 20
189.2564
  0
SEQEND
  0
TEXT
  8
LAYER_1
 10
-13.8899
 20
190.2165
 11
-13.8899
 21
190.2165
 40
4.305
 41
0.5
  1
A
  0
POLYLINE
  8
LAYER_1
 40
0.0847
 41
0.0847
 66
1
 10
0
 20
0
 30
0
  0
VERTEX
  8
LAYER_1
 10
-13.0855
 20
185.0231
  0
VERTEX
  8
LAYER_1
 10
-10.9054
 20
185.0231
  0
SEQEND
  0
POLYLINE
  8
LAYER_1
 40
0.0847
 41
0.0847
 66
1
 10
0
 20
0
 30
0
  0
VERTEX
  8
LAYER_1
 10
-10.0375
 20
185.0231
  0
VERTEX
  8
LAYER_1
 10
-9.1485
 20
185.0231
  0
SEQEND
  0
POLYLINE
  8
LAYER_1
 40
0.0847
 41
0.0847
 66
1
 10
0
 20
0
 30
0
  0
VERTEX
  8
LAYER_1
 10
-8.2807
 20
185.0231
  0
VERTEX
  8
LAYER_1
 10
-3.8992
 20
185.0231
  0
SEQEND
  0
POLYLINE
  8
LAYER_1
 40
0.0847
 41
0.0847
 66
1
 10
0
 20
0
 30
0
  0
VERTEX
  8
LAYER_1
 10
-3.0314
 20
185.0231
  0
VERTEX
  8
LAYER_1
 10
-2.1635
 20
185.0231
  0
SEQEND
  0
POLYLINE
  8
LAYER_1
 40
0.0847
 41
0.0847
 66
1
 10
0
 20
0
 30
0
  0
VERTEX
  8
LAYER_1
 10
-1.2745
 20
185.0231
  0
VERTEX
  8
LAYER_1
 10
3.0858
 20
185.0231
  0
SEQEND
  0
POLYLINE
  8
LAYER_1
 40
0.0847
 41
0.0847
 66
1
 10
0
 20
0
 30
0
  0
VERTEX
  8
LAYER_1
 10
3.9748
 20
185.0231
  0
VERTEX
  8
LAYER_1
 10
4.8426
 20
185.0231
  0
SEQEND
  0
POLYLINE
  8
LAYER_1
 40
0.0847
 41
0.0847
 66
1
 10
0
 20
0
 30
0
  0
VERTEX
  8
LAYER_1
 10
5.7105
 20
185.0231
  0
VERTEX
  8
LAYER_1
 10
10.092
 20
185.0231
  0
SEQEND
  0
POLYLINE
  8
LAYER_1
 40
0.0847
 41
0.0847
 66
1
 10
0
 20
0
 30
0
  0
VERTEX
  8
LAYER_1
 10
10.9598
 20
185.0231
  0
VERTEX
  8
LAYER_1
 10
11.8488
 20
185.0231
  0
SEQEND
  0
POLYLINE
  8
LAYER_1
 40
0.0847
 41
0.0847
 66
1
 10
0
 20
0
 30
0
  0
VERTEX
  8
LAYER_1
 10
12.7166
 20
185.0231
  0
VERTEX
  8
LAYER_1
 10
17.0981
 20
185.0231
  0
SEQEND
  0
POLYLINE
  8
LAYER_1
 40
0.0847
 41
0.0847
 66
1
 10
0
 20
0
 30
0
  0
VERTEX
  8
LAYER_1
 10
17.966
 20
185.0231
  0
VERTEX
  8
LAYER_1
 10
18.8338
 20
185.0231
  0
SEQEND
  0
POLYLINE
  8
LAYER_1
 40
0.0847
 41
0.0847
 66
1
 10
0
 20
0
 30
0
  0
VERTEX
  8
LAYER_1
 10
19.7228
 20
185.0231
  0
VERTEX
  8
LAYER_1
 10
24.0831
 20
185.0231
  0
SEQEND
  0
POLYLINE
  8
LAYER_1
 40
0.0847
 41
0.0847
 66
1
 10
0
 20
0
 30
0
  0
VERTEX
  8
LAYER_1
 10
24.9721
 20
185.0231
  0
VERTEX
  8
LAYER_1
 10
25.84
 20
185.0231
  0
SEQEND
  0
POLYLINE
  8
LAYER_1
 40
0.0847
 41
0.0847
 66
1
 10
0
 20
0
 30
0
  0
VERTEX
  8
LAYER_1
 10
26.7078
 20
185.0231
  0
VERTEX
  8
LAYER_1
 10
31.0893
 20
185.0231
  0
SEQEND
  0
POLYLINE
  8
LAYER_1
 40
0.0847
 41
0.0847
 66
1
 10
0
 20
0
 30
0
  0
VERTEX
  8
LAYER_1
 10
31.9571
 20
185.0231
  0
VERTEX
  8
LAYER_1
 10
32.8461
 20
185.0231
  0
SEQEND
  0
POLYLINE
  8
LAYER_1
 40
0.0847
 41
0.0847
 66
1
 10
0
 20
0
 30
0
  0
VERTEX
  8
LAYER_1
 10
33.714
 20
185.0231
  0
VERTEX
  8
LAYER_1
 10
38.0955
 20
185.0231
  0
SEQEND
  0
POLYLINE
  8
LAYER_1
 40
0.0847
 41
0.0847
 66
1
 10
0
 20
0
 30
0
  0
VERTEX
  8
LAYER_1
 10
38.9633
 20
185.0231
  0
VERTEX
  8
LAYER_1
 10
39.8311
 20
185.0231
  0
SEQEND
  0
POLYLINE
  8
LAYER_1
 40
0.0847
 41
0.0847
 66
1
 10
0
 20
0
 30
0
  0
VERTEX
  8
LAYER_1
 10
40.7201
 20
185.0231
  0
VERTEX
  8
LAYER_1
 10
45.0805
 20
185.0231
  0
SEQEND
  0
POLYLINE
  8
LAYER_1
 40
0.0847
 41
0.0847
 66
1
 10
0
 20
0
 30
0
  0
VERTEX
  8
LAYER_1
 10
45.9695
 20
185.0231
  0
VERTEX
  8
LAYER_1
 10
46.8373
 20
185.0231
  0
SEQEND
  0
POLYLINE
  8
LAYER_1
 40
0.0847
 41
0.0847
 66
1
 10
0
 20
0
 30
0
  0
VERTEX
  8
LAYER_1
 10
47.7051
 20
185.0231
  0
VERTEX
  8
LAYER_1
 10
52.0866
 20
185.0231
  0
SEQEND
  0
POLYLINE
  8
LAYER_1
 40
0.0847
 41
0.0847
 66
1
 10
0
 20
0
 30
0
  0
VERTEX
  8
LAYER_1
 10
52.9545
 20
185.0231
  0
VERTEX
  8
LAYER_1
 10
53.8435
 20
185.0231
  0
SEQEND
  0
POLYLINE
  8
LAYER_1
 40
0.0847
 41
0.0847
 66
1
 10
0
 20
0
 30
0
  0
VERTEX
  8
LAYER_1
 10
54.7113
 20
185.0231
  0
VERTEX
  8
LAYER_1
 10
59.0928
 20
185.0231
  0
SEQEND
  0
POLYLINE
  8
LAYER_1
 40
0.0847
 41
0.0847
 66
1
 10
0
 20
0
 30
0
  0
VERTEX
  8
LAYER_1
 10
59.9606
 20
185.0231
  0
VERTEX
  8
LAYER_1
 10
60.8285
 20
185.0231
  0
SEQEND
  0
POLYLINE
  8
LAYER_1
 40
0.0847
 41
0.0847
 66
1
 10
0
 20
0
 30
0
  0
VERTEX
  8
LAYER_1
 10
61.7175
 20
185.0231
  0
VERTEX
  8
LAYER_1
 10
66.0778
 20
185.0231
  0
SEQEND
  0
POLYLINE
  8
LAYER_1
 40
0.0847
 41
0.0847
 66
1
 10
0
 20
0
 30
0
  0
VERTEX
  8
LAYER_1
 10
66.9668
 20
185.0231
  0
VERTEX
  8
LAYER_1
 10
67.8346
 20
185.0231
  0
SEQEND
  0
POLYLINE
  8
LAYER_1
 40
0.0847
 41
0.0847
 66
1
 10
0
 20
0
 30
0
  0
VERTEX
  8
LAYER_1
 10
68.7025
 20
185.0231
  0
VERTEX
  8
LAYER_1
 10
73.084
 20
185.0231
  0
SEQEND
  0
POLYLINE
  8
LAYER_1
 40
0.0847
 41
0.0847
 66
1
 10
0
 20
0
 30
0
  0
VERTEX
  8
LAYER_1
 10
73.9518
 20
185.0231
  0
VERTEX
  8
LAYER_1
 10
74.8408
 20
185.0231
  0
SEQEND
  0
POLYLINE
  8
LAYER_1
 40
0.0847
 41
0.0847
 66
1
 10
0
 20
0
 30
0
  0
VERTEX
  8
LAYER_1
 10
75.7087
 20
185.0231
  0
VERTEX
  8
LAYER_1
 10
80.0902
 20
185.0231
  0
SEQEND
  0
POLYLINE
  8
LAYER_1
 40
0.0847
 41
0.0847
 66
1
 10
0
 20
0
 30
0
  0
VERTEX
  8
LAYER_1
 10
80.958
 20
185.0231
  0
VERTEX
  8
LAYER_1
 10
81.8258
 20
185.0231
  0
SEQEND
  0
POLYLINE
  8
LAYER_1
 40
0.0847
 41
0.0847
 66
1
 10
0
 20
0
 30
0
  0
VERTEX
  8
LAYER_1
 10
82.7148
 20
185.0231
  0
VERTEX
  8
LAYER_1
 10
87.0752
 20
185.0231
  0
SEQEND
  0
POLYLINE
  8
LAYER_1
 40
0.0847
 41
0.0847
 66
1
 10
0
 20
0
 30
0
  0
VERTEX
  8
LAYER_1
 10
87.9642
 20
185.0231
  0
VERTEX
  8
LAYER_1
 10
88.832
 20
185.0231
  0
SEQEND
  0
POLYLINE
  8
LAYER_1
 40
0.0847
 41
0.0847
 66
1
 10
0
 20
0
 30
0
  0
VERTEX
  8
LAYER_1
 10
89.6998
 20
185.0231
  0
VERTEX
  8
LAYER_1
 10
94.0813
 20
185.0231
  0
SEQEND
  0
POLYLINE
  8
LAYER_1
 40
0.0847
 41
0.0847
 66
1
 10
0
 20
0
 30
0
  0
VERTEX
  8
LAYER_1
 10
94.9492
 20
185.0231
  0
VERTEX
  8
LAYER_1
 10
95.8382
 20
185.0231
  0
SEQEND
  0
POLYLINE
  8
LAYER_1
 40
0.0847
 41
0.0847
 66
1
 10
0
 20
0
 30
0
  0
VERTEX
  8
LAYER_1
 10
96.706
 20
185.0231
  0
VERTEX
  8
LAYER_1
 10
101.0875
 20
185.0231
  0
SEQEND
  0
POLYLINE
  8
LAYER_1
 40
0.0847
 41
0.0847
 66
1
 10
0
 20
0
 30
0
  0
VERTEX
  8
LAYER_1
 10
101.9553
 20
185.0231
  0
VERTEX
  8
LAYER_1
 10
102.8232
 20
185.0231
  0
SEQEND
  0
POLYLINE
  8
LAYER_1
 40
0.0847
 41
0.0847
 66
1
 10
0
 20
0
 30
0
  0
VERTEX
  8
LAYER_1
 10
103.7122
 20
185.0231
  0
VERTEX
  8
LAYER_1
 10
108.0725
 20
185.0231
  0
SEQEND
  0
POLYLINE
  8
LAYER_1
 40
0.0847
 41
0.0847
 66
1
 10
0
 20
0
 30
0
  0
VERTEX
  8
LAYER_1
 10
108.9615
 20
185.0231
  0
VERTEX
  8
LAYER_1
 10
109.8293
 20
185.0231
  0
SEQEND
  0
POLYLINE
  8
LAYER_1
 40
0.0847
 41
0.0847
 66
1
 10
0
 20
0
 30
0
  0
VERTEX
  8
LAYER_1
 10
110.6972
 20
185.0231
  0
VERTEX
  8
LAYER_1
 10
115.0787
 20
185.0231
  0
SEQEND
  0
POLYLINE
  8
LAYER_1
 40
0.0847
 41
0.0847
 66
1
 10
0
 20
0
 30
0
  0
VERTEX
  8
LAYER_1
 10
115.9465
 20
185.0231
  0
VERTEX
  8
LAYER_1
 10
116.8355
 20
185.0231
  0
SEQEND
  0
POLYLINE
  8
LAYER_1
 40
0.0847
 41
0.0847
 66
1
 10
0
 20
0
 30
0
  0
VERTEX
  8
LAYER_1
 10
117.7034
 20
185.0231
  0
VERTEX
  8
LAYER_1
 10
119.9047
 20
185.0231
  0
SEQEND
  0
POLYLINE
  8
LAYER_1
 40
0.0847
 41
0.0847
 66
1
 10
0
 20
0
 30
0
  0
VERTEX
  8
LAYER_1
 10
54.161
 20
143.24
  0
VERTEX
  8
LAYER_1
 10
54.161
 20
145.3779
  0
SEQEND
  0
POLYLINE
  8
LAYER_1
 40
0.0847
 41
0.0847
 66
1
 10
0
 20
0
 30
0
  0
VERTEX
  8
LAYER_1
 10
54.161
 20
146.2457
  0
VERTEX
  8
LAYER_1
 10
54.161
 20
147.1135
  0
SEQEND
  0
POLYLINE
  8
LAYER_1
 40
0.0847
 41
0.0847
 66
1
 10
0
 20
0
 30
0
  0
VERTEX
  8
LAYER_1
 10
54.161
 20
147.9814
  0
VERTEX
  8
LAYER_1
 10
54.161
 20
152.2782
  0
SEQEND
  0
POLYLINE
  8
LAYER_1
 40
0.0847
 41
0.0847
 66
1
 10
0
 20
0
 30
0
  0
VERTEX
  8
LAYER_1
 10
54.161
 20
153.1461
  0
VERTEX
  8
LAYER_1
 10
54.161
 20
154.0139
  0
SEQEND
  0
POLYLINE
  8
LAYER_1
 40
0.0847
 41
0.0847
 66
1
 10
0
 20
0
 30
0
  0
VERTEX
  8
LAYER_1
 10
54.161
 20
154.8605
  0
VERTEX
  8
LAYER_1
 10
54.161
 20
159.1786
  0
SEQEND
  0
POLYLINE
  8
LAYER_1
 40
0.0847
 41
0.0847
 66
1
 10
0
 20
0
 30
0
  0
VERTEX
  8
LAYER_1
 10
54.161
 20
160.0464
  0
VERTEX
  8
LAYER_1
 10
54.161
 20
160.9142
  0
SEQEND
  0
POLYLINE
  8
LAYER_1
 40
0.0847
 41
0.0847
 66
1
 10
0
 20
0
 30
0
  0
VERTEX
  8
LAYER_1
 10
54.161
 20
161.7609
  0
VERTEX
  8
LAYER_1
 10
54.161
 20
166.0789
  0
SEQEND
  0
POLYLINE
  8
LAYER_1
 40
0.0847
 41
0.0847
 66
1
 10
0
 20
0
 30
0
  0
VERTEX
  8
LAYER_1
 10
54.161
 20
166.9467
  0
VERTEX
  8
LAYER_1
 10
54.161
 20
167.8146
  0
SEQEND
  0
POLYLINE
  8
LAYER_1
 40
0.0847
 41
0.0847
 66
1
 10
0
 20
0
 30
0
  0
VERTEX
  8
LAYER_1
 10
54.161
 20
168.6612
  0
VERTEX
  8
LAYER_1
 10
54.161
 20
172.9792
  0
SEQEND
  0
POLYLINE
  8
LAYER_1
 40
0.0847
 41
0.0847
 66
1
 10
0
 20
0
 30
0
  0
VERTEX
  8
LAYER_1
 10
54.161
 20
173.847
  0
VERTEX
  8
LAYER_1
 10
54.161
 20
174.6937
  0
SEQEND
  0
POLYLINE
  8
LAYER_1
 40
0.0847
 41
0.0847
 66
1
 10
0
 20
0
 30
0
  0
VERTEX
  8
LAYER_1
 10
54.161
 20
175.5615
  0
VERTEX
  8
LAYER_1
 10
54.161
 20
179.8795
  0
SEQEND
  0
POLYLINE
  8
LAYER_1
 40
0.0847
 41
0.0847
 66
1
 10
0
 20
0
 30
0
  0
VERTEX
  8
LAYER_1
 10
54.161
 20
180.7474
  0
VERTEX
  8
LAYER_1
 10
54.161
 20
181.594
  0
SEQEND
  0
POLYLINE
  8
LAYER_1
 40
0.0847
 41
0.0847
 66
1
 10
0
 20
0
 30
0
  0
VERTEX
  8
LAYER_1
 10
54.161
 20
182.4619
  0
VERTEX
  8
LAYER_1
 10
54.161
 20
186.7799
  0
SEQEND
  0
POLYLINE
  8
LAYER_1
 40
0.0847
 41
0.0847
 66
1
 10
0
 20
0
 30
0
  0
VERTEX
  8
LAYER_1
 10
54.161
 20
187.6477
  0
VERTEX
  8
LAYER_1
 10
54.161
 20
188.4944
  0
SEQEND
  0
POLYLINE
  8
LAYER_1
 40
0.0847
 41
0.0847
 66
1
 10
0
 20
0
 30
0
  0
VERTEX
  8
LAYER_1
 10
54.161
 20
189.3622
  0
VERTEX
  8
LAYER_1
 10
54.161
 20
193.6802
  0
SEQEND
  0
POLYLINE
  8
LAYER_1
 40
0.0847
 41
0.0847
 66
1
 10
0
 20
0
 30
0
  0
VERTEX
  8
LAYER_1
 10
54.161
 20
194.548
  0
VERTEX
  8
LAYER_1
 10
54.161
 20
195.3947
  0
SEQEND
  0
POLYLINE
  8
LAYER_1
 40
0.0847
 41
0.0847
 66
1
 10
0
 20
0
 30
0
  0
VERTEX
  8
LAYER_1
 10
54.161
 20
196.2625
  0
VERTEX
  8
LAYER_1
 10
54.161
 20
200.5805
  0
SEQEND
  0
POLYLINE
  8
LAYER_1
 40
0.0847
 41
0.0847
 66
1
 10
0
 20
0
 30
0
  0
VERTEX
  8
LAYER_1
 10
54.161
 20
201.4272
  0
VERTEX
  8
LAYER_1
 10
54.161
 20
202.295
  0
SEQEND
  0
POLYLINE
  8
LAYER_1
 40
0.0847
 41
0.0847
 66
1
 10
0
 20
0
 30
0
  0
VERTEX
  8
LAYER_1
 10
54.161
 20
203.1629
  0
VERTEX
  8
LAYER_1
 10
54.161
 20
207.4809
  0
SEQEND
  0
POLYLINE
  8
LAYER_1
 40
0.0847
 41
0.0847
 66
1
 10
0
 20
0
 30
0
  0
VERTEX
  8
LAYER_1
 10
54.161
 20
208.3275
  0
VERTEX
  8
LAYER_1
 10
54.161
 20
209.1954
  0
SEQEND
  0
POLYLINE
  8
LAYER_1
 40
0.0847
 41
0.0847
 66
1
 10
0
 20
0
 30
0
  0
VERTEX
  8
LAYER_1
 10
54.161
 20
210.0632
  0
VERTEX
  8
LAYER_1
 10
54.161
 20
214.3812
  0
SEQEND
  0
POLYLINE
  8
LAYER_1
 40
0.0847
 41
0.0847
 66
1
 10
0
 20
0
 30
0
  0
VERTEX
  8
LAYER_1
 10
54.161
 20
215.2279
  0
VERTEX
  8
LAYER_1
 10
54.161
 20
216.0957
  0
SEQEND
  0
POLYLINE
  8
LAYER_1
 40
0.0847
 41
0.0847
 66
1
 10
0
 20
0
 30
0
  0
VERTEX
  8
LAYER_1
 10
54.161
 20
216.9635
  0
VERTEX
  8
LAYER_1
 10
54.161
 20
221.2604
  0
SEQEND
  0
POLYLINE
  8
LAYER_1
 40
0.0847
 41
0.0847
 66
1
 10
0
 20
0
 30
0
  0
VERTEX
  8
LAYER_1
 10
54.161
 20
222.1282
  0
VERTEX
  8
LAYER_1
 10
54.161
 20
222.996
  0
SEQEND
  0
POLYLINE
  8
LAYER_1
 40
0.0847
 41
0.0847
 66
1
 10
0
 20
0
 30
0
  0
VERTEX
  8
LAYER_1
 10
54.161
 20
223.8639
  0
VERTEX
  8
LAYER_1
 10
54.161
 20
226.0229
  0
SEQEND
  0
POLYLINE
  8
LAYER_1
 40
0.0847
 41
0.0847
 66
1
 10
0
 20
0
 30
0
  0
VERTEX
  8
LAYER_1
 10
49.9277
 20
143.24
  0
VERTEX
  8
LAYER_1
 10
51.24
 20
143.24
  0
SEQEND
  0
POLYLINE
  8
LAYER_1
 40
0.0847
 41
0.0847
 66
1
 10
0
 20
0
 30
0
  0
VERTEX
  8
LAYER_1
 10
51.7692
 20
143.24
  0
VERTEX
  8
LAYER_1
 10
52.2984
 20
143.24
  0
SEQEND
  0
POLYLINE
  8
LAYER_1
 40
0.0847
 41
0.0847
 66
1
 10
0
 20
0
 30
0
  0
VERTEX
  8
LAYER_1
 10
52.8275
 20
143.24
  0
VERTEX
  8
LAYER_1
 10
54.161
 20
143.24
  0
SEQEND
  0
POLYLINE
  8
LAYER_1
 40
0.0847
 41
0.0847
 66
1
 10
0
 20
0
 30
0
  0
VERTEX
  8
LAYER_1
 10
49.9277
 20
143.24
  0
VERTEX
  8
LAYER_1
 10
51.24
 20
144.002
  0
SEQEND
  0
POLYLINE
  8
LAYER_1
 40
0.0847
 41
0.0847
 66
1
 10
0
 20
0
 30
0
  0
VERTEX
  8
LAYER_1
 10
51.7692
 20
144.2984
  0
VERTEX
  8
LAYER_1
 10
52.2984
 20
144.6159
  0
SEQEND
  0
POLYLINE
  8
LAYER_1
 40
0.0847
 41
0.0847
 66
1
 10
0
 20
0
 30
0
  0
VERTEX
  8
LAYER_1
 10
52.8275
 20
144.9122
  0
VERTEX
  8
LAYER_1
 10
54.161
 20
145.6954
  0
SEQEND
  0
TEXT
  8
LAYER_1
 10
46.562
 20
141.9989
 11
46.562
 21
141.9989
 40
4.305
 41
0.5
  1
B'
  0
POLYLINE
  8
LAYER_1
 40
0.1693
 41
0.1693
 66
1
 10
0
 20
0
 30
0
  0
VERTEX
  8
LAYER_1
 10
49.2291
 20
100.4199
  0
VERTEX
  8
LAYER_1
 10
50.9225
 20
98.7266
  0
SEQEND
  0
POLYLINE
  8
LAYER_1
 40
0.1693
 41
0.1693
 66
1
 10
0
 20
0
 30
0
  0
VERTEX
  8
LAYER_1
 10
59.114
 20
100.4199
  0
VERTEX
  8
LAYER_1
 10
57.4206
 20
98.7266
  0
SEQEND
  0
POLYLINE
  8
LAYER_1
 40
0.1693
 41
0.1693
 66
1
 10
0
 20
0
 30
0
  0
VERTEX
  8
LAYER_1
 10
48.0438
 20
100.4199
  0
VERTEX
  8
LAYER_1
 10
60.2993
 20
100.4199
  0
SEQEND
  0
POLYLINE
  8
LAYER_1
 40
0.1693
 41
0.1693
 66
1
 10
0
 20
0
 30
0
  0
VERTEX
  8
LAYER_1
 10
11.743
 20
111.3207
  0
VERTEX
  8
LAYER_1
 10
11.743
 20
113.0141
  0
SEQEND
  0
POLYLINE
  8
LAYER_1
 40
0.1693
 41
0.1693
 66
1
 10
0
 20
0
 30
0
  0
VERTEX
  8
LAYER_1
 10
14.8545
 20
113.014
  0
VERTEX
  8
LAYER_1
 10
48.0438
 20
100.4199
  0
SEQEND
  0
POLYLINE
  8
LAYER_1
 40
0.1693
 41
0.1693
 66
1
 10
0
 20
0
 30
0
  0
VERTEX
  8
LAYER_1
 10
11.743
 20
111.3207
  0
VERTEX
  8
LAYER_1
 10
14.537
 20
111.3207
  0
VERTEX
  8
LAYER_1
 10
47.7475
 20
98.7266
  0
SEQEND
  0
POLYLINE
  8
LAYER_1
 40
0.1693
 41
0.1693
 66
1
 10
0
 20
0
 30
0
  0
VERTEX
  8
LAYER_1
 10
93.785
 20
111.3207
  0
VERTEX
  8
LAYER_1
 10
96.6001
 20
111.3207
  0
SEQEND
  0
POLYLINE
  8
LAYER_1
 40
0.1693
 41
0.1693
 66
1
 10
0
 20
0
 30
0
  0
VERTEX
  8
LAYER_1
 10
93.4886
 20
113.014
  0
VERTEX
  8
LAYER_1
 10
60.2993
 20
100.4199
  0
SEQEND
  0
POLYLINE
  8
LAYER_1
 40
0.1693
 41
0.1693
 66
1
 10
0
 20
0
 30
0
  0
VERTEX
  8
LAYER_1
 10
93.785
 20
111.3207
  0
VERTEX
  8
LAYER_1
 10
60.5956
 20
98.7266
  0
SEQEND
  0
POLYLINE
  8
LAYER_1
 40
0.1693
 41
0.1693
 66
1
 10
0
 20
0
 30
0
  0
VERTEX
  8
LAYER_1
 10
11.743
 20
113.014
  0
VERTEX
  8
LAYER_1
 10
96.6001
 20
113.014
  0
SEQEND
  0
POLYLINE
  8
LAYER_1
 40
0.1693
 41
0.1693
 66
1
 10
0
 20
0
 30
0
  0
VERTEX
  8
LAYER_1
 10
96.6001
 20
111.3207
  0
VERTEX
  8
LAYER_1
 10
96.6001
 20
113.0141
  0
SEQEND
  0
POLYLINE
  8
LAYER_1
 40
0.1693
 41
0.1693
 66
1
 10
0
 20
0
 30
0
  0
VERTEX
  8
LAYER_1
 10
47.7475
 20
98.7265
  0
VERTEX
  8
LAYER_1
 10
60.5956
 20
98.7265
  0
SEQEND
  0
POLYLINE
  8
LAYER_1
 40
0.0847
 41
0.0847
 66
1
 10
0
 20
0
 30
0
  0
VERTEX
  8
LAYER_1
 10
11.743
 20
123.7032
  0
VERTEX
  8
LAYER_1
 10
96.6001
 20
123.7032
  0
SEQEND
  0
POLYLINE
  8
LAYER_1
 40
0.1693
 41
0.1693
 66
1
 10
0
 20
0
 30
0
  0
VERTEX
  8
LAYER_1
 10
11.743
 20
123.7032
  0
VERTEX
  8
LAYER_1
 10
13.7961
 20
124.2536
  0
SEQEND
  0
POLYLINE
  8
LAYER_1
 40
0.1693
 41
0.1693
 66
1
 10
0
 20
0
 30
0
  0
VERTEX
  8
LAYER_1
 10
11.743
 20
123.7032
  0
VERTEX
  8
LAYER_1
 10
13.7961
 20
123.1529
  0
SEQEND
  0
POLYLINE
  8
LAYER_1
 40
0.1693
 41
0.1693
 66
1
 10
0
 20
0
 30
0
  0
VERTEX
  8
LAYER_1
 10
96.6001
 20
123.7032
  0
VERTEX
  8
LAYER_1
 10
94.547
 20
123.1529
  0
SEQEND
  0
POLYLINE
  8
LAYER_1
 40
0.1693
 41
0.1693
 66
1
 10
0
 20
0
 30
0
  0
VERTEX
  8
LAYER_1
 10
96.6001
 20
123.7032
  0
VERTEX
  8
LAYER_1
 10
94.547
 20
124.2536
  0
SEQEND
  0
POLYLINE
  8
LAYER_1
 40
0.0847
 41
0.0847
 66
1
 10
0
 20
0
 30
0
  0
VERTEX
  8
LAYER_1
 10
11.743
 20
115.427
  0
VERTEX
  8
LAYER_1
 10
11.743
 20
123.7032
  0
SEQEND
  0
POLYLINE
  8
LAYER_1
 40
0.0847
 41
0.0847
 66
1
 10
0
 20
0
 30
0
  0
VERTEX
  8
LAYER_1
 10
96.6001
 20
115.427
  0
VERTEX
  8
LAYER_1
 10
96.6001
 20
123.7032
  0
SEQEND
  0
TEXT
  8
LAYER_1
 10
52.4039
 20
124.2746
 11
52.4039
 21
124.2746
 40
2.5779
 41
0.5
  1
600
  0
POLYLINE
  8
LAYER_1
 40
0.1693
 41
0.1693
 66
1
 10
0
 20
0
 30
0
  0
VERTEX
  8
LAYER_1
 10
11.743
 20
111.3207
  0
VERTEX
  8
LAYER_1
 10
11.743
 20
113.0141
  0
SEQEND
  0
POLYLINE
  8
LAYER_1
 40
0.1693
 41
0.1693
 66
1
 10
0
 20
0
 30
0
  0
VERTEX
  8
LAYER_1
 10
11.743
 20
110.8974
  0
VERTEX
  8
LAYER_1
 10
11.743
 20
113.014
  0
SEQEND
  0
POLYLINE
  8
LAYER_1
 40
0.1693
 41
0.1693
 66
1
 10
0
 20
0
 30
0
  0
VERTEX
  8
LAYER_1
 10
11.743
 20
110.8974
  0
VERTEX
  8
LAYER_1
 10
12.7378
 20
110.8974
  0
SEQEND
  0
POLYLINE
  8
LAYER_1
 40
0.0847
 41
0.0847
 66
1
 10
0
 20
0
 30
0
  0
VERTEX
  8
LAYER_1
 10
5.1601
 20
109.4792
  0
VERTEX
  8
LAYER_1
 10
8.695
 20
113.0141
  0
SEQEND
  0
POLYLINE
  8
LAYER_1
 40
0.0847
 41
0.0847
 66
1
 10
0
 20
0
 30
0
  0
VERTEX
  8
LAYER_1
 10
3.1493
 20
109.4792
  0
VERTEX
  8
LAYER_1
 10
6.6841
 20
113.0141
  0
SEQEND
  0
POLYLINE
  8
LAYER_1
 40
0.0847
 41
0.0847
 66
1
 10
0
 20
0
 30
0
  0
VERTEX
  8
LAYER_1
 10
1.1596
 20
109.4792
  0
VERTEX
  8
LAYER_1
 10
4.6945
 20
113.0141
  0
SEQEND
  0
POLYLINE
  8
LAYER_1
 40
0.0847
 41
0.0847
 66
1
 10
0
 20
0
 30
0
  0
VERTEX
  8
LAYER_1
 10
-0.8512
 20
109.4792
  0
VERTEX
  8
LAYER_1
 10
2.6836
 20
113.0141
  0
SEQEND
  0
POLYLINE
  8
LAYER_1
 40
0.0847
 41
0.0847
 66
1
 10
0
 20
0
 30
0
  0
VERTEX
  8
LAYER_1
 10
-2.8409
 20
109.4792
  0
VERTEX
  8
LAYER_1
 10
0.694
 20
113.0141
  0
SEQEND
  0
POLYLINE
  8
LAYER_1
 40
0.0847
 41
0.0847
 66
1
 10
0
 20
0
 30
0
  0
VERTEX
  8
LAYER_1
 10
-4.8517
 20
109.4792
  0
VERTEX
  8
LAYER_1
 10
-1.3169
 20
113.0141
  0
SEQEND
  0
POLYLINE
  8
LAYER_1
 40
0.0847
 41
0.0847
 66
1
 10
0
 20
0
 30
0
  0
VERTEX
  8
LAYER_1
 10
-6.8414
 20
109.4792
  0
VERTEX
  8
LAYER_1
 10
-3.3065
 20
113.0141
  0
SEQEND
  0
POLYLINE
  8
LAYER_1
 40
0.0847
 41
0.0847
 66
1
 10
0
 20
0
 30
0
  0
VERTEX
  8
LAYER_1
 10
-8.8522
 20
109.4792
  0
VERTEX
  8
LAYER_1
 10
-5.2962
 20
113.0141
  0
SEQEND
  0
POLYLINE
  8
LAYER_1
 40
0.0847
 41
0.0847
 66
1
 10
0
 20
0
 30
0
  0
VERTEX
  8
LAYER_1
 10
-10.8419
 20
109.4792
  0
VERTEX
  8
LAYER_1
 10
-7.307
 20
113.0141
  0
SEQEND
  0
POLYLINE
  8
LAYER_1
 40
0.0847
 41
0.0847
 66
1
 10
0
 20
0
 30
0
  0
VERTEX
  8
LAYER_1
 10
-12.8315
 20
109.4792
  0
VERTEX
  8
LAYER_1
 10
-9.2967
 20
113.0141
  0
SEQEND
  0
POLYLINE
  8
LAYER_1
 40
0.0847
 41
0.0847
 66
1
 10
0
 20
0
 30
0
  0
VERTEX
  8
LAYER_1
 10
-14.8424
 20
109.4792
  0
VERTEX
  8
LAYER_1
 10
-11.3075
 20
113.0141
  0
SEQEND
  0
POLYLINE
  8
LAYER_1
 40
0.1693
 41
0.1693
 66
1
 10
0
 20
0
 30
0
  0
VERTEX
  8
LAYER_1
 10
12.7378
 20
109.4792
  0
VERTEX
  8
LAYER_1
 10
12.7378
 20
110.8974
  0
SEQEND
  0
POLYLINE
  8
LAYER_1
 40
0.0847
 41
0.0847
 66
1
 10
0
 20
0
 30
0
  0
VERTEX
  8
LAYER_1
 10
11.1503
 20
109.4792
  0
VERTEX
  8
LAYER_1
 10
12.5685
 20
110.8974
  0
SEQEND
  0
POLYLINE
  8
LAYER_1
 40
0.0847
 41
0.0847
 66
1
 10
0
 20
0
 30
0
  0
VERTEX
  8
LAYER_1
 10
9.1606
 20
109.4792
  0
VERTEX
  8
LAYER_1
 10
11.743
 20
112.0616
  0
SEQEND
  0
POLYLINE
  8
LAYER_1
 40
0.0847
 41
0.0847
 66
1
 10
0
 20
0
 30
0
  0
VERTEX
  8
LAYER_1
 10
7.1498
 20
109.4792
  0
VERTEX
  8
LAYER_1
 10
10.6846
 20
113.0141
  0
SEQEND
  0
POLYLINE
  8
LAYER_1
 40
0.1693
 41
0.1693
 66
1
 10
0
 20
0
 30
0
  0
VERTEX
  8
LAYER_1
 10
-16.5357
 20
113.014
  0
VERTEX
  8
LAYER_1
 10
11.743
 20
113.014
  0
SEQEND
  0
POLYLINE
  8
LAYER_1
 40
0.1693
 41
0.1693
 66
1
 10
0
 20
0
 30
0
  0
VERTEX
  8
LAYER_1
 10
-16.5357
 20
109.4792
  0
VERTEX
  8
LAYER_1
 10
12.7378
 20
109.4792
  0
SEQEND
  0
POLYLINE
  8
LAYER_1
 40
0.0847
 41
0.0847
 66
1
 10
0
 20
0
 30
0
  0
VERTEX
  8
LAYER_1
 10
-16.5357
 20
111.7864
  0
VERTEX
  8
LAYER_1
 10
-15.308
 20
113.0141
  0
SEQEND
  0
POLYLINE
  8
LAYER_1
 40
0.0847
 41
0.0847
 66
1
 10
0
 20
0
 30
0
  0
VERTEX
  8
LAYER_1
 10
-16.5357
 20
109.7755
  0
VERTEX
  8
LAYER_1
 10
-13.2972
 20
113.0141
  0
SEQEND
  0
TEXT
  8
LAYER_1
 10
-15.5407
 20
106.4525
 11
-15.5407
 21
106.4525
 40
2.5779
 41
0.5
  1
天板厚：25mm以上
  0
POLYLINE
  8
LAYER_1
 40
0.0847
 41
0.0847
 66
1
 10
0
 20
0
 30
0
  0
VERTEX
  8
LAYER_1
 10
-22.7587
 20
109.4792
  0
VERTEX
  8
LAYER_1
 10
-22.7587
 20
113.0141
  0
SEQEND
  0
POLYLINE
  8
LAYER_1
 40
0.1693
 41
0.1693
 66
1
 10
0
 20
0
 30
0
  0
VERTEX
  8
LAYER_1
 10
-22.7587
 20
113.014
  0
VERTEX
  8
LAYER_1
 10
-23.2879
 20
115.0672
  0
SEQEND
  0
POLYLINE
  8
LAYER_1
 40
0.1693
 41
0.1693
 66
1
 10
0
 20
0
 30
0
  0
VERTEX
  8
LAYER_1
 10
-22.7587
 20
113.014
  0
VERTEX
  8
LAYER_1
 10
-22.2084
 20
115.0672
  0
SEQEND
  0
POLYLINE
  8
LAYER_1
 40
0.1693
 41
0.1693
 66
1
 10
0
 20
0
 30
0
  0
VERTEX
  8
LAYER_1
 10
-22.7587
 20
109.4792
  0
VERTEX
  8
LAYER_1
 10
-22.2084
 20
107.4261
  0
SEQEND
  0
POLYLINE
  8
LAYER_1
 40
0.1693
 41
0.1693
 66
1
 10
0
 20
0
 30
0
  0
VERTEX
  8
LAYER_1
 10
-22.7587
 20
109.4792
  0
VERTEX
  8
LAYER_1
 10
-23.2879
 20
107.4261
  0
SEQEND
  0
POLYLINE
  8
LAYER_1
 40
0.0847
 41
0.0847
 66
1
 10
0
 20
0
 30
0
  0
VERTEX
  8
LAYER_1
 10
-22.7587
 20
113.014
  0
VERTEX
  8
LAYER_1
 10
-17.8692
 20
113.014
  0
SEQEND
  0
POLYLINE
  8
LAYER_1
 40
0.0847
 41
0.0847
 66
1
 10
0
 20
0
 30
0
  0
VERTEX
  8
LAYER_1
 10
-22.7587
 20
109.4792
  0
VERTEX
  8
LAYER_1
 10
-17.8692
 20
109.4792
  0
SEQEND
  0
TEXT
  8
LAYER_1
 10
-23.267
 20
110.0932
 11
-23.267
 21
110.0932
 40
2.5779
 41
0.5
 50
89.99999999
  1
25
  0
POLYLINE
  8
LAYER_1
 40
0.0847
 41
0.0847
 66
1
 10
0
 20
0
 30
0
  0
VERTEX
  8
LAYER_1
 10
11.743
 20
113.014
  0
VERTEX
  8
LAYER_1
 10
2.9376
 20
121.8194
  0
SEQEND
  0
POLYLINE
  8
LAYER_1
 40
0.1693
 41
0.1693
 66
1
 10
0
 20
0
 30
0
  0
VERTEX
  8
LAYER_1
 10
11.743
 20
113.014
  0
VERTEX
  8
LAYER_1
 10
9.9015
 20
114.0724
  0
SEQEND
  0
POLYLINE
  8
LAYER_1
 40
0.1693
 41
0.1693
 66
1
 10
0
 20
0
 30
0
  0
VERTEX
  8
LAYER_1
 10
11.743
 20
113.014
  0
VERTEX
  8
LAYER_1
 10
10.6846
 20
114.8555
  0
SEQEND
  0
POLYLINE
  8
LAYER_1
 40
0.0847
 41
0.0847
 66
1
 10
0
 20
0
 30
0
  0
VERTEX
  8
LAYER_1
 10
-13.2549
 20
121.8194
  0
VERTEX
  8
LAYER_1
 10
2.9376
 20
121.8194
  0
SEQEND
  0
POLYLINE
  8
LAYER_1
 40
0.254
 41
0.254
 66
1
 10
0
 20
0
 30
0
  0
VERTEX
  8
LAYER_1
 10
10.5365
 20
94.8107
  0
VERTEX
  8
LAYER_1
 10
10.5365
 20
96.4406
  0
SEQEND
  0
POLYLINE
  8
LAYER_1
 40
0.254
 41
0.254
 66
1
 10
0
 20
0
 30
0
  0
VERTEX
  8
LAYER_1
 10
10.5365
 20
97.5201
  0
VERTEX
  8
LAYER_1
 10
10.5365
 20
100.7797
  0
SEQEND
  0
POLYLINE
  8
LAYER_1
 40
0.254
 41
0.254
 66
1
 10
0
 20
0
 30
0
  0
VERTEX
  8
LAYER_1
 10
10.5365
 20
101.8804
  0
VERTEX
  8
LAYER_1
 10
10.5365
 20
105.1401
  0
SEQEND
  0
POLYLINE
  8
LAYER_1
 40
0.254
 41
0.254
 66
1
 10
0
 20
0
 30
0
  0
VERTEX
  8
LAYER_1
 10
10.5365
 20
106.2195
  0
VERTEX
  8
LAYER_1
 10
10.5365
 20
107.8706
  0
SEQEND
  0
POLYLINE
  8
LAYER_1
 40
0.0847
 41
0.0847
 66
1
 10
0
 20
0
 30
0
  0
VERTEX
  8
LAYER_1
 10
11.997
 20
111.0032
  0
VERTEX
  8
LAYER_1
 10
-0.5125
 20
92.4401
  0
SEQEND
  0
TEXT
  8
LAYER_1
 10
-12.0277
 20
125.8623
 11
-12.0277
 21
125.8623
 40
2.1846
 41
0.5
  1
要コーキング
  0
TEXT
  8
LAYER_1
 10
-12.0273
 20
123.2588
 11
-12.0273
 21
123.2588
 40
2.1846
 41
0.5
  1
（透明推奨）
  0
POLYLINE
  8
LAYER_1
 40
0.0847
 41
0.0847
 66
1
 10
0
 20
0
 30
0
  0
VERTEX
  8
LAYER_1
 10
105.7018
 20
107.3626
  0
VERTEX
  8
LAYER_1
 10
105.7018
 20
110.8974
  0
SEQEND
  0
POLYLINE
  8
LAYER_1
 40
0.0847
 41
0.0847
 66
1
 10
0
 20
0
 30
0
  0
VERTEX
  8
LAYER_1
 10
105.7018
 20
113.014
  0
VERTEX
  8
LAYER_1
 10
105.7018
 20
116.5489
  0
SEQEND
  0
POLYLINE
  8
LAYER_1
 40
0.1693
 41
0.1693
 66
1
 10
0
 20
0
 30
0
  0
VERTEX
  8
LAYER_1
 10
105.7018
 20
110.8974
  0
VERTEX
  8
LAYER_1
 10
106.2521
 20
108.8442
  0
SEQEND
  0
POLYLINE
  8
LAYER_1
 40
0.1693
 41
0.1693
 66
1
 10
0
 20
0
 30
0
  0
VERTEX
  8
LAYER_1
 10
105.7018
 20
110.8974
  0
VERTEX
  8
LAYER_1
 10
105.1726
 20
108.8442
  0
SEQEND
  0
POLYLINE
  8
LAYER_1
 40
0.1693
 41
0.1693
 66
1
 10
0
 20
0
 30
0
  0
VERTEX
  8
LAYER_1
 10
105.7018
 20
113.014
  0
VERTEX
  8
LAYER_1
 10
105.1726
 20
115.0672
  0
SEQEND
  0
POLYLINE
  8
LAYER_1
 40
0.1693
 41
0.1693
 66
1
 10
0
 20
0
 30
0
  0
VERTEX
  8
LAYER_1
 10
105.7018
 20
113.014
  0
VERTEX
  8
LAYER_1
 10
106.2521
 20
115.0672
  0
SEQEND
  0
TEXT
  8
LAYER_1
 10
105.1514
 20
113.9669
 11
105.1514
 21
113.9669
 40
2.5779
 41
0.5
 50
89.99999999
  1
15
  0
POLYLINE
  8
LAYER_1
 40
0.0847
 41
0.0847
 66
1
 10
0
 20
0
 30
0
  0
VERTEX
  8
LAYER_1
 10
97.2351
 20
110.8974
  0
VERTEX
  8
LAYER_1
 10
105.7018
 20
110.8974
  0
SEQEND
  0
POLYLINE
  8
LAYER_1
 40
0.1693
 41
0.1693
 66
1
 10
0
 20
0
 30
0
  0
VERTEX
  8
LAYER_1
 10
96.6001
 20
111.3207
  0
VERTEX
  8
LAYER_1
 10
96.6001
 20
113.0141
  0
SEQEND
  0
POLYLINE
  8
LAYER_1
 40
0.1693
 41
0.1693
 66
1
 10
0
 20
0
 30
0
  0
VERTEX
  8
LAYER_1
 10
96.6001
 20
111.3207
  0
VERTEX
  8
LAYER_1
 10
96.6001
 20
113.0141
  0
SEQEND
  0
POLYLINE
  8
LAYER_1
 40
0.1693
 41
0.1693
 66
1
 10
0
 20
0
 30
0
  0
VERTEX
  8
LAYER_1
 10
96.6001
 20
111.3207
  0
VERTEX
  8
LAYER_1
 10
96.6001
 20
113.0141
  0
SEQEND
  0
POLYLINE
  8
LAYER_1
 40
0.1693
 41
0.1693
 66
1
 10
0
 20
0
 30
0
  0
VERTEX
  8
LAYER_1
 10
96.6001
 20
110.8974
  0
VERTEX
  8
LAYER_1
 10
96.6001
 20
113.014
  0
SEQEND
  0
POLYLINE
  8
LAYER_1
 40
0.1693
 41
0.1693
 66
1
 10
0
 20
0
 30
0
  0
VERTEX
  8
LAYER_1
 10
95.6053
 20
110.8974
  0
VERTEX
  8
LAYER_1
 10
96.6001
 20
110.8974
  0
SEQEND
  0
POLYLINE
  8
LAYER_1
 40
0.1693
 41
0.1693
 66
1
 10
0
 20
0
 30
0
  0
VERTEX
  8
LAYER_1
 10
95.6053
 20
109.4792
  0
VERTEX
  8
LAYER_1
 10
95.6053
 20
110.8974
  0
SEQEND
  0
POLYLINE
  8
LAYER_1
 40
0.0847
 41
0.0847
 66
1
 10
0
 20
0
 30
0
  0
VERTEX
  8
LAYER_1
 10
120.8571
 20
109.4792
  0
VERTEX
  8
LAYER_1
 10
124.392
 20
113.0141
  0
SEQEND
  0
POLYLINE
  8
LAYER_1
 40
0.0847
 41
0.0847
 66
1
 10
0
 20
0
 30
0
  0
VERTEX
  8
LAYER_1
 10
118.8463
 20
109.4792
  0
VERTEX
  8
LAYER_1
 10
122.3811
 20
113.0141
  0
SEQEND
  0
POLYLINE
  8
LAYER_1
 40
0.0847
 41
0.0847
 66
1
 10
0
 20
0
 30
0
  0
VERTEX
  8
LAYER_1
 10
116.8566
 20
109.4792
  0
VERTEX
  8
LAYER_1
 10
120.3915
 20
113.0141
  0
SEQEND
  0
POLYLINE
  8
LAYER_1
 40
0.0847
 41
0.0847
 66
1
 10
0
 20
0
 30
0
  0
VERTEX
  8
LAYER_1
 10
114.8458
 20
109.4792
  0
VERTEX
  8
LAYER_1
 10
118.3806
 20
113.0141
  0
SEQEND
  0
POLYLINE
  8
LAYER_1
 40
0.0847
 41
0.0847
 66
1
 10
0
 20
0
 30
0
  0
VERTEX
  8
LAYER_1
 10
112.8561
 20
109.4792
  0
VERTEX
  8
LAYER_1
 10
116.3909
 20
113.0141
  0
SEQEND
  0
POLYLINE
  8
LAYER_1
 40
0.0847
 41
0.0847
 66
1
 10
0
 20
0
 30
0
  0
VERTEX
  8
LAYER_1
 10
110.8453
 20
109.4792
  0
VERTEX
  8
LAYER_1
 10
114.3801
 20
113.0141
  0
SEQEND
  0
POLYLINE
  8
LAYER_1
 40
0.0847
 41
0.0847
 66
1
 10
0
 20
0
 30
0
  0
VERTEX
  8
LAYER_1
 10
108.8556
 20
109.4792
  0
VERTEX
  8
LAYER_1
 10
112.3904
 20
113.0141
  0
SEQEND
  0
POLYLINE
  8
LAYER_1
 40
0.0847
 41
0.0847
 66
1
 10
0
 20
0
 30
0
  0
VERTEX
  8
LAYER_1
 10
106.8448
 20
109.4792
  0
VERTEX
  8
LAYER_1
 10
110.3796
 20
113.0141
  0
SEQEND
  0
POLYLINE
  8
LAYER_1
 40
0.0847
 41
0.0847
 66
1
 10
0
 20
0
 30
0
  0
VERTEX
  8
LAYER_1
 10
104.8763
 20
109.4792
  0
VERTEX
  8
LAYER_1
 10
108.3899
 20
113.0141
  0
SEQEND
  0
POLYLINE
  8
LAYER_1
 40
0.0847
 41
0.0847
 66
1
 10
0
 20
0
 30
0
  0
VERTEX
  8
LAYER_1
 10
102.8654
 20
109.4792
  0
VERTEX
  8
LAYER_1
 10
106.3791
 20
113.0141
  0
SEQEND
  0
POLYLINE
  8
LAYER_1
 40
0.0847
 41
0.0847
 66
1
 10
0
 20
0
 30
0
  0
VERTEX
  8
LAYER_1
 10
100.8758
 20
109.4792
  0
VERTEX
  8
LAYER_1
 10
104.4106
 20
113.0141
  0
SEQEND
  0
POLYLINE
  8
LAYER_1
 40
0.0847
 41
0.0847
 66
1
 10
0
 20
0
 30
0
  0
VERTEX
  8
LAYER_1
 10
98.8649
 20
109.4792
  0
VERTEX
  8
LAYER_1
 10
102.3998
 20
113.0141
  0
SEQEND
  0
POLYLINE
  8
LAYER_1
 40
0.0847
 41
0.0847
 66
1
 10
0
 20
0
 30
0
  0
VERTEX
  8
LAYER_1
 10
96.8753
 20
109.4792
  0
VERTEX
  8
LAYER_1
 10
100.4101
 20
113.0141
  0
SEQEND
  0
POLYLINE
  8
LAYER_1
 40
0.0847
 41
0.0847
 66
1
 10
0
 20
0
 30
0
  0
VERTEX
  8
LAYER_1
 10
95.6052
 20
110.2201
  0
VERTEX
  8
LAYER_1
 10
96.2826
 20
110.8974
  0
SEQEND
  0
POLYLINE
  8
LAYER_1
 40
0.0847
 41
0.0847
 66
1
 10
0
 20
0
 30
0
  0
VERTEX
  8
LAYER_1
 10
96.6001
 20
111.1937
  0
VERTEX
  8
LAYER_1
 10
98.3992
 20
113.0141
  0
SEQEND
  0
POLYLINE
  8
LAYER_1
 40
0.0847
 41
0.0847
 66
1
 10
0
 20
0
 30
0
  0
VERTEX
  8
LAYER_1
 10
105.7017
 20
110.8974
  0
VERTEX
  8
LAYER_1
 10
105.7017
 20
113.0141
  0
SEQEND
  0
POLYLINE
  8
LAYER_1
 40
0.0847
 41
0.0847
 66
1
 10
0
 20
0
 30
0
  0
VERTEX
  8
LAYER_1
 10
98.8861
 20
113.0141
  0
VERTEX
  8
LAYER_1
 10
105.7017
 20
113.0141
  0
SEQEND
  0
POLYLINE
  8
LAYER_1
 40
0.1693
 41
0.1693
 66
1
 10
0
 20
0
 30
0
  0
VERTEX
  8
LAYER_1
 10
95.6053
 20
109.4792
  0
VERTEX
  8
LAYER_1
 10
124.8576
 20
109.4792
  0
SEQEND
  0
POLYLINE
  8
LAYER_1
 40
0.0847
 41
0.0847
 66
1
 10
0
 20
0
 30
0
  0
VERTEX
  8
LAYER_1
 10
122.8468
 20
109.4792
  0
VERTEX
  8
LAYER_1
 10
124.8576
 20
111.4901
  0
SEQEND
  0
POLYLINE
  8
LAYER_1
 40
0.1693
 41
0.1693
 66
1
 10
0
 20
0
 30
0
  0
VERTEX
  8
LAYER_1
 10
96.6001
 20
113.014
  0
VERTEX
  8
LAYER_1
 10
124.8576
 20
113.014
  0
SEQEND
  0
POLYLINE
  8
LAYER_1
 40
0.254
 41
0.254
 66
1
 10
0
 20
0
 30
0
  0
VERTEX
  8
LAYER_1
 10
97.8066
 20
94.8107
  0
VERTEX
  8
LAYER_1
 10
97.8066
 20
96.4406
  0
SEQEND
  0
POLYLINE
  8
LAYER_1
 40
0.254
 41
0.254
 66
1
 10
0
 20
0
 30
0
  0
VERTEX
  8
LAYER_1
 10
97.8066
 20
97.5201
  0
VERTEX
  8
LAYER_1
 10
97.8066
 20
100.7797
  0
SEQEND
  0
POLYLINE
  8
LAYER_1
 40
0.254
 41
0.254
 66
1
 10
0
 20
0
 30
0
  0
VERTEX
  8
LAYER_1
 10
97.8066
 20
101.8804
  0
VERTEX
  8
LAYER_1
 10
97.8066
 20
105.1401
  0
SEQEND
  0
POLYLINE
  8
LAYER_1
 40
0.254
 41
0.254
 66
1
 10
0
 20
0
 30
0
  0
VERTEX
  8
LAYER_1
 10
97.8066
 20
106.2195
  0
VERTEX
  8
LAYER_1
 10
97.8066
 20
107.8706
  0
SEQEND
  0
TEXT
  8
LAYER_1
 10
93.4883
 20
102.0707
 11
93.4883
 21
102.0707
 40
2.5779
 41
0.5
  1
7
  0
POLYLINE
  8
LAYER_1
 40
0.0847
 41
0.0847
 66
1
 10
0
 20
0
 30
0
  0
VERTEX
  8
LAYER_1
 10
96.6001
 20
101.2242
  0
VERTEX
  8
LAYER_1
 10
96.6001
 20
108.5267
  0
SEQEND
  0
POLYLINE
  8
LAYER_1
 40
0.0847
 41
0.0847
 66
1
 10
0
 20
0
 30
0
  0
VERTEX
  8
LAYER_1
 10
95.6053
 20
101.2242
  0
VERTEX
  8
LAYER_1
 10
95.6053
 20
108.5267
  0
SEQEND
  0
POLYLINE
  8
LAYER_1
 40
0.1693
 41
0.1693
 66
1
 10
0
 20
0
 30
0
  0
VERTEX
  8
LAYER_1
 10
96.6001
 20
101.2242
  0
VERTEX
  8
LAYER_1
 10
98.6533
 20
100.6739
  0
SEQEND
  0
POLYLINE
  8
LAYER_1
 40
0.1693
 41
0.1693
 66
1
 10
0
 20
0
 30
0
  0
VERTEX
  8
LAYER_1
 10
96.6001
 20
101.2242
  0
VERTEX
  8
LAYER_1
 10
98.6533
 20
101.7746
  0
SEQEND
  0
POLYLINE
  8
LAYER_1
 40
0.1693
 41
0.1693
 66
1
 10
0
 20
0
 30
0
  0
VERTEX
  8
LAYER_1
 10
95.6053
 20
101.2242
  0
VERTEX
  8
LAYER_1
 10
93.5521
 20
101.7746
  0
SEQEND
  0
POLYLINE
  8
LAYER_1
 40
0.1693
 41
0.1693
 66
1
 10
0
 20
0
 30
0
  0
VERTEX
  8
LAYER_1
 10
95.6053
 20
101.2242
  0
VERTEX
  8
LAYER_1
 10
93.5521
 20
100.6739
  0
SEQEND
  0
POLYLINE
  8
LAYER_1
 40
0.0847
 41
0.0847
 66
1
 10
0
 20
0
 30
0
  0
VERTEX
  8
LAYER_1
 10
95.6053
 20
101.2242
  0
VERTEX
  8
LAYER_1
 10
96.6001
 20
101.2242
  0
VERTEX
  8
LAYER_1
 10
100.135
 20
101.2242
  0
SEQEND
  0
POLYLINE
  8
LAYER_1
 40
0.0847
 41
0.0847
 66
1
 10
0
 20
0
 30
0
  0
VERTEX
  8
LAYER_1
 10
92.0705
 20
101.2242
  0
VERTEX
  8
LAYER_1
 10
95.6053
 20
101.2242
  0
SEQEND
  0
POLYLINE
  8
LAYER_1
 40
0.0847
 41
0.0847
 66
1
 10
0
 20
0
 30
0
  0
VERTEX
  8
LAYER_1
 10
96.6001
 20
113.014
  0
VERTEX
  8
LAYER_1
 10
103.3523
 20
121.8194
  0
VERTEX
  8
LAYER_1
 10
154.5968
 20
121.8194
  0
SEQEND
  0
POLYLINE
  8
LAYER_1
 40
0.1693
 41
0.1693
 66
1
 10
0
 20
0
 30
0
  0
VERTEX
  8
LAYER_1
 10
96.6001
 20
113.014
  0
VERTEX
  8
LAYER_1
 10
97.4045
 20
114.9614
  0
SEQEND
  0
POLYLINE
  8
LAYER_1
 40
0.1693
 41
0.1693
 66
1
 10
0
 20
0
 30
0
  0
VERTEX
  8
LAYER_1
 10
96.6001
 20
113.014
  0
VERTEX
  8
LAYER_1
 10
98.2723
 20
114.3052
  0
SEQEND
  0
POLYLINE
  8
LAYER_1
 40
0.254
 41
0.254
 66
1
 10
0
 20
0
 30
0
  0
VERTEX
  8
LAYER_1
 10
10.5365
 20
94.8107
  0
VERTEX
  8
LAYER_1
 10
11.8276
 20
94.8107
  0
SEQEND
  0
POLYLINE
  8
LAYER_1
 40
0.254
 41
0.254
 66
1
 10
0
 20
0
 30
0
  0
VERTEX
  8
LAYER_1
 10
12.7166
 20
94.8107
  0
VERTEX
  8
LAYER_1
 10
15.3201
 20
94.8107
  0
SEQEND
  0
POLYLINE
  8
LAYER_1
 40
0.254
 41
0.254
 66
1
 10
0
 20
0
 30
0
  0
VERTEX
  8
LAYER_1
 10
16.188
 20
94.8107
  0
VERTEX
  8
LAYER_1
 10
18.8126
 20
94.8107
  0
SEQEND
  0
POLYLINE
  8
LAYER_1
 40
0.254
 41
0.254
 66
1
 10
0
 20
0
 30
0
  0
VERTEX
  8
LAYER_1
 10
19.6805
 20
94.8107
  0
VERTEX
  8
LAYER_1
 10
22.3051
 20
94.8107
  0
SEQEND
  0
POLYLINE
  8
LAYER_1
 40
0.254
 41
0.254
 66
1
 10
0
 20
0
 30
0
  0
VERTEX
  8
LAYER_1
 10
23.1729
 20
94.8107
  0
VERTEX
  8
LAYER_1
 10
25.7976
 20
94.8107
  0
SEQEND
  0
POLYLINE
  8
LAYER_1
 40
0.254
 41
0.254
 66
1
 10
0
 20
0
 30
0
  0
VERTEX
  8
LAYER_1
 10
26.6654
 20
94.8107
  0
VERTEX
  8
LAYER_1
 10
29.2901
 20
94.8107
  0
SEQEND
  0
POLYLINE
  8
LAYER_1
 40
0.254
 41
0.254
 66
1
 10
0
 20
0
 30
0
  0
VERTEX
  8
LAYER_1
 10
30.1579
 20
94.8107
  0
VERTEX
  8
LAYER_1
 10
32.7826
 20
94.8107
  0
SEQEND
  0
POLYLINE
  8
LAYER_1
 40
0.254
 41
0.254
 66
1
 10
0
 20
0
 30
0
  0
VERTEX
  8
LAYER_1
 10
33.6504
 20
94.8107
  0
VERTEX
  8
LAYER_1
 10
36.2751
 20
94.8107
  0
SEQEND
  0
POLYLINE
  8
LAYER_1
 40
0.254
 41
0.254
 66
1
 10
0
 20
0
 30
0
  0
VERTEX
  8
LAYER_1
 10
37.1429
 20
94.8107
  0
VERTEX
  8
LAYER_1
 10
39.7676
 20
94.8107
  0
SEQEND
  0
POLYLINE
  8
LAYER_1
 40
0.254
 41
0.254
 66
1
 10
0
 20
0
 30
0
  0
VERTEX
  8
LAYER_1
 10
40.6354
 20
94.8107
  0
VERTEX
  8
LAYER_1
 10
43.2601
 20
94.8107
  0
SEQEND
  0
POLYLINE
  8
LAYER_1
 40
0.254
 41
0.254
 66
1
 10
0
 20
0
 30
0
  0
VERTEX
  8
LAYER_1
 10
44.1279
 20
94.8107
  0
VERTEX
  8
LAYER_1
 10
46.7526
 20
94.8107
  0
SEQEND
  0
POLYLINE
  8
LAYER_1
 40
0.254
 41
0.254
 66
1
 10
0
 20
0
 30
0
  0
VERTEX
  8
LAYER_1
 10
47.6204
 20
94.8107
  0
VERTEX
  8
LAYER_1
 10
50.2239
 20
94.8107
  0
SEQEND
  0
POLYLINE
  8
LAYER_1
 40
0.254
 41
0.254
 66
1
 10
0
 20
0
 30
0
  0
VERTEX
  8
LAYER_1
 10
51.1129
 20
94.8107
  0
VERTEX
  8
LAYER_1
 10
53.7164
 20
94.8107
  0
SEQEND
  0
POLYLINE
  8
LAYER_1
 40
0.254
 41
0.254
 66
1
 10
0
 20
0
 30
0
  0
VERTEX
  8
LAYER_1
 10
54.6054
 20
94.8107
  0
VERTEX
  8
LAYER_1
 10
57.2089
 20
94.8107
  0
SEQEND
  0
POLYLINE
  8
LAYER_1
 40
0.254
 41
0.254
 66
1
 10
0
 20
0
 30
0
  0
VERTEX
  8
LAYER_1
 10
58.0979
 20
94.8107
  0
VERTEX
  8
LAYER_1
 10
60.7014
 20
94.8107
  0
SEQEND
  0
POLYLINE
  8
LAYER_1
 40
0.254
 41
0.254
 66
1
 10
0
 20
0
 30
0
  0
VERTEX
  8
LAYER_1
 10
61.5693
 20
94.8107
  0
VERTEX
  8
LAYER_1
 10
64.1939
 20
94.8107
  0
SEQEND
  0
POLYLINE
  8
LAYER_1
 40
0.254
 41
0.254
 66
1
 10
0
 20
0
 30
0
  0
VERTEX
  8
LAYER_1
 10
65.0618
 20
94.8107
  0
VERTEX
  8
LAYER_1
 10
67.6864
 20
94.8107
  0
SEQEND
  0
POLYLINE
  8
LAYER_1
 40
0.254
 41
0.254
 66
1
 10
0
 20
0
 30
0
  0
VERTEX
  8
LAYER_1
 10
68.5543
 20
94.8107
  0
VERTEX
  8
LAYER_1
 10
71.1789
 20
94.8107
  0
SEQEND
  0
POLYLINE
  8
LAYER_1
 40
0.254
 41
0.254
 66
1
 10
0
 20
0
 30
0
  0
VERTEX
  8
LAYER_1
 10
72.0468
 20
94.8107
  0
VERTEX
  8
LAYER_1
 10
74.6714
 20
94.8107
  0
SEQEND
  0
POLYLINE
  8
LAYER_1
 40
0.254
 41
0.254
 66
1
 10
0
 20
0
 30
0
  0
VERTEX
  8
LAYER_1
 10
75.5393
 20
94.8107
  0
VERTEX
  8
LAYER_1
 10
78.1639
 20
94.8107
  0
SEQEND
  0
POLYLINE
  8
LAYER_1
 40
0.254
 41
0.254
 66
1
 10
0
 20
0
 30
0
  0
VERTEX
  8
LAYER_1
 10
79.0318
 20
94.8107
  0
VERTEX
  8
LAYER_1
 10
81.6564
 20
94.8107
  0
SEQEND
  0
POLYLINE
  8
LAYER_1
 40
0.254
 41
0.254
 66
1
 10
0
 20
0
 30
0
  0
VERTEX
  8
LAYER_1
 10
82.5243
 20
94.8107
  0
VERTEX
  8
LAYER_1
 10
85.1489
 20
94.8107
  0
SEQEND
  0
POLYLINE
  8
LAYER_1
 40
0.254
 41
0.254
 66
1
 10
0
 20
0
 30
0
  0
VERTEX
  8
LAYER_1
 10
86.0168
 20
94.8107
  0
VERTEX
  8
LAYER_1
 10
88.6414
 20
94.8107
  0
SEQEND
  0
POLYLINE
  8
LAYER_1
 40
0.254
 41
0.254
 66
1
 10
0
 20
0
 30
0
  0
VERTEX
  8
LAYER_1
 10
89.5092
 20
94.8107
  0
VERTEX
  8
LAYER_1
 10
92.1339
 20
94.8107
  0
SEQEND
  0
POLYLINE
  8
LAYER_1
 40
0.254
 41
0.254
 66
1
 10
0
 20
0
 30
0
  0
VERTEX
  8
LAYER_1
 10
93.0017
 20
94.8107
  0
VERTEX
  8
LAYER_1
 10
95.6052
 20
94.8107
  0
SEQEND
  0
POLYLINE
  8
LAYER_1
 40
0.254
 41
0.254
 66
1
 10
0
 20
0
 30
0
  0
VERTEX
  8
LAYER_1
 10
96.4942
 20
94.8107
  0
VERTEX
  8
LAYER_1
 10
97.8066
 20
94.8107
  0
SEQEND
  0
POLYLINE
  8
LAYER_1
 40
0.0847
 41
0.0847
 66
1
 10
0
 20
0
 30
0
  0
VERTEX
  8
LAYER_1
 10
96.6001
 20
151.7914
  0
VERTEX
  8
LAYER_1
 10
96.6001
 20
152.5111
  0
VERTEX
  8
LAYER_1
 10
96.6001
 20
218.2547
  0
SEQEND
  0
POLYLINE
  8
LAYER_1
 40
0.0847
 41
0.0847
 66
1
 10
0
 20
0
 30
0
  0
VERTEX
  8
LAYER_1
 10
95.8805
 20
152.5111
  0
VERTEX
  8
LAYER_1
 10
95.8805
 20
217.5351
  0
SEQEND
  0
POLYLINE
  8
LAYER_1
 40
0.0847
 41
0.0847
 66
1
 10
0
 20
0
 30
0
  0
VERTEX
  8
LAYER_1
 10
12.4626
 20
152.5111
  0
VERTEX
  8
LAYER_1
 10
12.4626
 20
217.5351
  0
SEQEND
  0
POLYLINE
  8
LAYER_1
 40
0.0847
 41
0.0847
 66
1
 10
0
 20
0
 30
0
  0
VERTEX
  8
LAYER_1
 10
12.4626
 20
152.5111
  0
VERTEX
  8
LAYER_1
 10
12.4626
 20
217.5351
  0
SEQEND
  0
POLYLINE
  8
LAYER_1
 40
0.0847
 41
0.0847
 66
1
 10
0
 20
0
 30
0
  0
VERTEX
  8
LAYER_1
 10
11.743
 20
151.7914
  0
VERTEX
  8
LAYER_1
 10
11.743
 20
218.2547
  0
SEQEND
  0
POLYLINE
  8
LAYER_1
 40
0.0847
 41
0.0847
 66
1
 10
0
 20
0
 30
0
  0
VERTEX
  8
LAYER_1
 10
12.4626
 20
152.5111
  0
VERTEX
  8
LAYER_1
 10
96.6001
 20
152.5111
  0
SEQEND
  0
POLYLINE
  8
LAYER_1
 40
0.0847
 41
0.0847
 66
1
 10
0
 20
0
 30
0
  0
VERTEX
  8
LAYER_1
 10
11.743
 20
151.7914
  0
VERTEX
  8
LAYER_1
 10
96.6001
 20
151.7914
  0
SEQEND
  0
POLYLINE
  8
LAYER_1
 40
0.0847
 41
0.0847
 66
1
 10
0
 20
0
 30
0
  0
VERTEX
  8
LAYER_1
 10
11.743
 20
218.2547
  0
VERTEX
  8
LAYER_1
 10
96.6001
 20
218.2547
  0
SEQEND
  0
POLYLINE
  8
LAYER_1
 40
0.0847
 41
0.0847
 66
1
 10
0
 20
0
 30
0
  0
VERTEX
  8
LAYER_1
 10
12.4626
 20
217.535
  0
VERTEX
  8
LAYER_1
 10
95.8805
 20
217.535
  0
SEQEND
  0
TEXT
  8
LAYER_1
 10
117.4702
 20
210.8887
 11
117.4702
 21
210.8887
 40
2.1846
 41
0.5
  1
付属：専用特殊コーキングテープ（透明）
  0
POLYLINE
  8
LAYER_1
 40
0.0847
 41
0.0847
 66
1
 10
0
 20
0
 30
0
  0
VERTEX
  8
LAYER_1
 10
107.5433
 20
211.4814
  0
VERTEX
  8
LAYER_1
 10
116.3486
 20
211.4814
  0
SEQEND
  0
POLYLINE
  8
LAYER_1
 40
0.0847
 41
0.0847
 66
1
 10
0
 20
0
 30
0
  0
VERTEX
  8
LAYER_1
 10
96.2826
 20
200.1996
  0
VERTEX
  8
LAYER_1
 10
107.5433
 20
211.4814
  0
SEQEND
  0
POLYLINE
  8
LAYER_1
 40
0.254
 41
0.254
 66
1
 10
0
 20
0
 30
0
  0
VERTEX
  8
LAYER_1
 10
84.7045
 20
118.7291
  0
VERTEX
  8
LAYER_1
 10
85.6146
 20
118.7291
  0
SEQEND
  0
POLYLINE
  8
LAYER_1
 40
0.254
 41
0.254
 66
1
 10
0
 20
0
 30
0
  0
VERTEX
  8
LAYER_1
 10
87.4561
 20
118.7291
  0
VERTEX
  8
LAYER_1
 10
89.2764
 20
118.7291
  0
SEQEND
  0
POLYLINE
  8
LAYER_1
 40
0.254
 41
0.254
 66
1
 10
0
 20
0
 30
0
  0
VERTEX
  8
LAYER_1
 10
91.118
 20
118.7291
  0
VERTEX
  8
LAYER_1
 10
92.9594
 20
118.7291
  0
SEQEND
  0
POLYLINE
  8
LAYER_1
 40
0.254
 41
0.254
 66
1
 10
0
 20
0
 30
0
  0
VERTEX
  8
LAYER_1
 10
94.801
 20
118.7291
  0
VERTEX
  8
LAYER_1
 10
96.6424
 20
118.7291
  0
SEQEND
  0
POLYLINE
  8
LAYER_1
 40
0.254
 41
0.254
 66
1
 10
0
 20
0
 30
0
  0
VERTEX
  8
LAYER_1
 10
98.4628
 20
118.7291
  0
VERTEX
  8
LAYER_1
 10
100.3043
 20
118.7291
  0
SEQEND
  0
POLYLINE
  8
LAYER_1
 40
0.254
 41
0.254
 66
1
 10
0
 20
0
 30
0
  0
VERTEX
  8
LAYER_1
 10
102.1458
 20
118.7291
  0
VERTEX
  8
LAYER_1
 10
103.9873
 20
118.7291
  0
SEQEND
  0
POLYLINE
  8
LAYER_1
 40
0.254
 41
0.254
 66
1
 10
0
 20
0
 30
0
  0
VERTEX
  8
LAYER_1
 10
105.8288
 20
118.7291
  0
VERTEX
  8
LAYER_1
 10
107.6491
 20
118.7291
  0
SEQEND
  0
POLYLINE
  8
LAYER_1
 40
0.254
 41
0.254
 66
1
 10
0
 20
0
 30
0
  0
VERTEX
  8
LAYER_1
 10
109.4906
 20
118.7291
  0
VERTEX
  8
LAYER_1
 10
110.422
 20
118.7291
  0
SEQEND
  0
POLYLINE
  8
LAYER_1
 40
0.254
 41
0.254
 66
1
 10
0
 20
0
 30
0
  0
VERTEX
  8
LAYER_1
 10
110.422
 20
104.3146
  0
VERTEX
  8
LAYER_1
 10
110.422
 20
105.2036
  0
SEQEND
  0
POLYLINE
  8
LAYER_1
 40
0.254
 41
0.254
 66
1
 10
0
 20
0
 30
0
  0
VERTEX
  8
LAYER_1
 10
110.422
 20
107.0027
  0
VERTEX
  8
LAYER_1
 10
110.422
 20
108.8019
  0
SEQEND
  0
POLYLINE
  8
LAYER_1
 40
0.254
 41
0.254
 66
1
 10
0
 20
0
 30
0
  0
VERTEX
  8
LAYER_1
 10
110.422
 20
110.6011
  0
VERTEX
  8
LAYER_1
 10
110.422
 20
112.4214
  0
SEQEND
  0
POLYLINE
  8
LAYER_1
 40
0.254
 41
0.254
 66
1
 10
0
 20
0
 30
0
  0
VERTEX
  8
LAYER_1
 10
110.422
 20
114.2206
  0
VERTEX
  8
LAYER_1
 10
110.422
 20
116.0197
  0
SEQEND
  0
POLYLINE
  8
LAYER_1
 40
0.254
 41
0.254
 66
1
 10
0
 20
0
 30
0
  0
VERTEX
  8
LAYER_1
 10
110.422
 20
117.8189
  0
VERTEX
  8
LAYER_1
 10
110.422
 20
118.7291
  0
SEQEND
  0
POLYLINE
  8
LAYER_1
 40
0.254
 41
0.254
 66
1
 10
0
 20
0
 30
0
  0
VERTEX
  8
LAYER_1
 10
84.7045
 20
104.3146
  0
VERTEX
  8
LAYER_1
 10
85.6146
 20
104.3146
  0
SEQEND
  0
POLYLINE
  8
LAYER_1
 40
0.254
 41
0.254
 66
1
 10
0
 20
0
 30
0
  0
VERTEX
  8
LAYER_1
 10
87.4561
 20
104.3146
  0
VERTEX
  8
LAYER_1
 10
89.2765
 20
104.3146
  0
SEQEND
  0
POLYLINE
  8
LAYER_1
 40
0.254
 41
0.254
 66
1
 10
0
 20
0
 30
0
  0
VERTEX
  8
LAYER_1
 10
91.118
 20
104.3146
  0
VERTEX
  8
LAYER_1
 10
92.9595
 20
104.3146
  0
SEQEND
  0
POLYLINE
  8
LAYER_1
 40
0.254
 41
0.254
 66
1
 10
0
 20
0
 30
0
  0
VERTEX
  8
LAYER_1
 10
94.801
 20
104.3146
  0
VERTEX
  8
LAYER_1
 10
96.6425
 20
104.3146
  0
SEQEND
  0
POLYLINE
  8
LAYER_1
 40
0.254
 41
0.254
 66
1
 10
0
 20
0
 30
0
  0
VERTEX
  8
LAYER_1
 10
98.4628
 20
104.3146
  0
VERTEX
  8
LAYER_1
 10
100.3043
 20
104.3146
  0
SEQEND
  0
POLYLINE
  8
LAYER_1
 40
0.254
 41
0.254
 66
1
 10
0
 20
0
 30
0
  0
VERTEX
  8
LAYER_1
 10
102.1458
 20
104.3146
  0
VERTEX
  8
LAYER_1
 10
103.9873
 20
104.3146
  0
SEQEND
  0
POLYLINE
  8
LAYER_1
 40
0.254
 41
0.254
 66
1
 10
0
 20
0
 30
0
  0
VERTEX
  8
LAYER_1
 10
105.8288
 20
104.3146
  0
VERTEX
  8
LAYER_1
 10
107.6491
 20
104.3146
  0
SEQEND
  0
POLYLINE
  8
LAYER_1
 40
0.254
 41
0.254
 66
1
 10
0
 20
0
 30
0
  0
VERTEX
  8
LAYER_1
 10
109.4906
 20
104.3146
  0
VERTEX
  8
LAYER_1
 10
110.422
 20
104.3146
  0
SEQEND
  0
POLYLINE
  8
LAYER_1
 40
0.254
 41
0.254
 66
1
 10
0
 20
0
 30
0
  0
VERTEX
  8
LAYER_1
 10
84.7045
 20
104.3146
  0
VERTEX
  8
LAYER_1
 10
84.7045
 20
105.2036
  0
SEQEND
  0
POLYLINE
  8
LAYER_1
 40
0.254
 41
0.254
 66
1
 10
0
 20
0
 30
0
  0
VERTEX
  8
LAYER_1
 10
84.7045
 20
107.0027
  0
VERTEX
  8
LAYER_1
 10
84.7045
 20
108.8019
  0
SEQEND
  0
POLYLINE
  8
LAYER_1
 40
0.254
 41
0.254
 66
1
 10
0
 20
0
 30
0
  0
VERTEX
  8
LAYER_1
 10
84.7045
 20
110.6011
  0
VERTEX
  8
LAYER_1
 10
84.7045
 20
112.4214
  0
SEQEND
  0
POLYLINE
  8
LAYER_1
 40
0.254
 41
0.254
 66
1
 10
0
 20
0
 30
0
  0
VERTEX
  8
LAYER_1
 10
84.7045
 20
114.2206
  0
VERTEX
  8
LAYER_1
 10
84.7045
 20
116.0197
  0
SEQEND
  0
POLYLINE
  8
LAYER_1
 40
0.254
 41
0.254
 66
1
 10
0
 20
0
 30
0
  0
VERTEX
  8
LAYER_1
 10
84.7045
 20
117.8189
  0
VERTEX
  8
LAYER_1
 10
84.7045
 20
118.7291
  0
SEQEND
  0
POLYLINE
  8
LAYER_1
 40
0.1693
 41
0.1693
 66
1
 10
0
 20
0
 30
0
  0
VERTEX
  8
LAYER_1
 10
167.6139
 20
181.0014
  0
VERTEX
  8
LAYER_1
 10
148.8391
 20
175.5616
  0
SEQEND
  0
POLYLINE
  8
LAYER_1
 40
0.1693
 41
0.1693
 66
1
 10
0
 20
0
 30
0
  0
VERTEX
  8
LAYER_1
 10
168.8204
 20
172.5136
  0
VERTEX
  8
LAYER_1
 10
148.8391
 20
166.7139
  0
SEQEND
  0
POLYLINE
  8
LAYER_1
 40
0.1693
 41
0.1693
 66
1
 10
0
 20
0
 30
0
  0
VERTEX
  8
LAYER_1
 10
168.8204
 20
172.5136
  0
VERTEX
  8
LAYER_1
 10
202.9834
 20
172.5136
  0
VERTEX
  8
LAYER_1
 10
202.9834
 20
181.0014
  0
SEQEND
  0
POLYLINE
  8
LAYER_1
 40
0.1693
 41
0.1693
 66
1
 10
0
 20
0
 30
0
  0
VERTEX
  8
LAYER_1
 10
202.9834
 20
172.5136
  0
VERTEX
  8
LAYER_1
 10
202.9834
 20
181.0014
  0
SEQEND
  0
POLYLINE
  8
LAYER_1
 40
0.1693
 41
0.1693
 66
1
 10
0
 20
0
 30
0
  0
VERTEX
  8
LAYER_1
 10
202.9834
 20
172.5136
  0
VERTEX
  8
LAYER_1
 10
202.9834
 20
181.0014
  0
SEQEND
  0
POLYLINE
  8
LAYER_1
 40
0.1693
 41
0.1693
 66
1
 10
0
 20
0
 30
0
  0
VERTEX
  8
LAYER_1
 10
202.9834
 20
170.3969
  0
VERTEX
  8
LAYER_1
 10
202.9834
 20
181.0014
  0
SEQEND
  0
POLYLINE
  8
LAYER_1
 40
0.1693
 41
0.1693
 66
1
 10
0
 20
0
 30
0
  0
VERTEX
  8
LAYER_1
 10
198.0304
 20
170.3969
  0
VERTEX
  8
LAYER_1
 10
202.9834
 20
170.3969
  0
SEQEND
  0
POLYLINE
  8
LAYER_1
 40
0.1693
 41
0.1693
 66
1
 10
0
 20
0
 30
0
  0
VERTEX
  8
LAYER_1
 10
198.0304
 20
163.3272
  0
VERTEX
  8
LAYER_1
 10
198.0304
 20
170.3969
  0
SEQEND
  0
POLYLINE
  8
LAYER_1
 40
0.0847
 41
0.0847
 66
1
 10
0
 20
0
 30
0
  0
VERTEX
  8
LAYER_1
 10
234.3528
 20
163.3272
  0
VERTEX
  8
LAYER_1
 10
240.8298
 20
169.8042
  0
SEQEND
  0
POLYLINE
  8
LAYER_1
 40
0.0847
 41
0.0847
 66
1
 10
0
 20
0
 30
0
  0
VERTEX
  8
LAYER_1
 10
224.341
 20
163.3272
  0
VERTEX
  8
LAYER_1
 10
240.8298
 20
179.7949
  0
SEQEND
  0
POLYLINE
  8
LAYER_1
 40
0.0847
 41
0.0847
 66
1
 10
0
 20
0
 30
0
  0
VERTEX
  8
LAYER_1
 10
214.3503
 20
163.3272
  0
VERTEX
  8
LAYER_1
 10
232.0245
 20
181.0014
  0
SEQEND
  0
POLYLINE
  8
LAYER_1
 40
0.0847
 41
0.0847
 66
1
 10
0
 20
0
 30
0
  0
VERTEX
  8
LAYER_1
 10
204.3596
 20
163.3272
  0
VERTEX
  8
LAYER_1
 10
222.0338
 20
181.0014
  0
SEQEND
  0
POLYLINE
  8
LAYER_1
 40
0.0847
 41
0.0847
 66
1
 10
0
 20
0
 30
0
  0
VERTEX
  8
LAYER_1
 10
198.0308
 20
167.0102
  0
VERTEX
  8
LAYER_1
 10
201.4174
 20
170.3969
  0
SEQEND
  0
POLYLINE
  8
LAYER_1
 40
0.0847
 41
0.0847
 66
1
 10
0
 20
0
 30
0
  0
VERTEX
  8
LAYER_1
 10
202.9838
 20
171.9632
  0
VERTEX
  8
LAYER_1
 10
212.0219
 20
181.0014
  0
SEQEND
  0
POLYLINE
  8
LAYER_1
 40
0.0847
 41
0.0847
 66
1
 10
0
 20
0
 30
0
  0
VERTEX
  8
LAYER_1
 10
214.3926
 20
181.0014
  0
VERTEX
  8
LAYER_1
 10
240.8298
 20
181.0014
  0
SEQEND
  0
POLYLINE
  8
LAYER_1
 40
0.1693
 41
0.1693
 66
1
 10
0
 20
0
 30
0
  0
VERTEX
  8
LAYER_1
 10
198.0308
 20
163.3272
  0
VERTEX
  8
LAYER_1
 10
240.8298
 20
163.3272
  0
SEQEND
  0
POLYLINE
  8
LAYER_1
 40
0.1693
 41
0.1693
 66
1
 10
0
 20
0
 30
0
  0
VERTEX
  8
LAYER_1
 10
202.9838
 20
181.0014
  0
VERTEX
  8
LAYER_1
 10
240.8298
 20
181.0014
  0
SEQEND
  0
POLYLINE
  8
LAYER_1
 40
0.1693
 41
0.1693
 66
1
 10
0
 20
0
 30
0
  0
VERTEX
  8
LAYER_1
 10
148.8395
 20
181.0014
  0
VERTEX
  8
LAYER_1
 10
202.2641
 20
181.0014
  0
SEQEND
  0
POLYLINE
  8
LAYER_1
 40
0.1693
 41
0.1693
 66
1
 10
0
 20
0
 30
0
  0
VERTEX
  8
LAYER_1
 10
202.2641
 20
172.5135
  0
VERTEX
  8
LAYER_1
 10
202.2641
 20
181.0014
  0
SEQEND
  0
POLYLINE
  8
LAYER_1
 40
0.1693
 41
0.1693
 66
1
 10
0
 20
0
 30
0
  0
VERTEX
  8
LAYER_1
 10
168.8208
 20
172.5135
  0
VERTEX
  8
LAYER_1
 10
202.2641
 20
172.5135
  0
SEQEND
  0
POLYLINE
  8
LAYER_1
 40
0.0847
 41
0.0847
 66
1
 10
0
 20
0
 30
0
  0
VERTEX
  8
LAYER_1
 10
202.2641
 20
181.0014
  0
VERTEX
  8
LAYER_1
 10
202.9838
 20
181.0014
  0
SEQEND
  0
POLYLINE
  8
LAYER_1
 40
0.0847
 41
0.0847
 66
1
 10
0
 20
0
 30
0
  0
VERTEX
  8
LAYER_1
 10
202.9203
 20
172.5136
  0
VERTEX
  8
LAYER_1
 10
202.9838
 20
172.5771
  0
SEQEND
  0
POLYLINE
  8
LAYER_1
 40
0.0847
 41
0.0847
 66
1
 10
0
 20
0
 30
0
  0
VERTEX
  8
LAYER_1
 10
202.2641
 20
172.8734
  0
VERTEX
  8
LAYER_1
 10
202.9838
 20
173.5719
  0
SEQEND
  0
POLYLINE
  8
LAYER_1
 40
0.0847
 41
0.0847
 66
1
 10
0
 20
0
 30
0
  0
VERTEX
  8
LAYER_1
 10
202.2641
 20
173.8682
  0
VERTEX
  8
LAYER_1
 10
202.9838
 20
174.5667
  0
SEQEND
  0
POLYLINE
  8
LAYER_1
 40
0.0847
 41
0.0847
 66
1
 10
0
 20
0
 30
0
  0
VERTEX
  8
LAYER_1
 10
202.2641
 20
174.8631
  0
VERTEX
  8
LAYER_1
 10
202.9838
 20
175.5827
  0
SEQEND
  0
POLYLINE
  8
LAYER_1
 40
0.0847
 41
0.0847
 66
1
 10
0
 20
0
 30
0
  0
VERTEX
  8
LAYER_1
 10
202.2641
 20
175.8791
  0
VERTEX
  8
LAYER_1
 10
202.9838
 20
176.5776
  0
SEQEND
  0
POLYLINE
  8
LAYER_1
 40
0.0847
 41
0.0847
 66
1
 10
0
 20
0
 30
0
  0
VERTEX
  8
LAYER_1
 10
202.2641
 20
176.8739
  0
VERTEX
  8
LAYER_1
 10
202.9838
 20
177.5724
  0
SEQEND
  0
POLYLINE
  8
LAYER_1
 40
0.0847
 41
0.0847
 66
1
 10
0
 20
0
 30
0
  0
VERTEX
  8
LAYER_1
 10
202.2641
 20
177.8687
  0
VERTEX
  8
LAYER_1
 10
202.9838
 20
178.5672
  0
SEQEND
  0
POLYLINE
  8
LAYER_1
 40
0.0847
 41
0.0847
 66
1
 10
0
 20
0
 30
0
  0
VERTEX
  8
LAYER_1
 10
202.2641
 20
178.8636
  0
VERTEX
  8
LAYER_1
 10
202.9838
 20
179.5832
  0
SEQEND
  0
POLYLINE
  8
LAYER_1
 40
0.0847
 41
0.0847
 66
1
 10
0
 20
0
 30
0
  0
VERTEX
  8
LAYER_1
 10
202.2641
 20
179.8584
  0
VERTEX
  8
LAYER_1
 10
202.9838
 20
180.5781
  0
SEQEND
  0
POLYLINE
  8
LAYER_1
 40
0.0847
 41
0.0847
 66
1
 10
0
 20
0
 30
0
  0
VERTEX
  8
LAYER_1
 10
202.2641
 20
180.8744
  0
VERTEX
  8
LAYER_1
 10
202.4123
 20
181.0014
  0
SEQEND
  0
POLYLINE
  8
LAYER_1
 40
0.0847
 41
0.0847
 66
1
 10
0
 20
0
 30
0
  0
VERTEX
  8
LAYER_1
 10
202.6663
 20
180.5357
  0
VERTEX
  8
LAYER_1
 10
189.9028
 20
193.2992
  0
SEQEND
  0
POLYLINE
  8
LAYER_1
 40
0.0847
 41
0.0847
 66
1
 10
0
 20
0
 30
0
  0
VERTEX
  8
LAYER_1
 10
178.1976
 20
193.2992
  0
VERTEX
  8
LAYER_1
 10
189.9028
 20
193.2992
  0
SEQEND
  0
POLYLINE
  8
LAYER_1
 40
0.1693
 41
0.1693
 66
1
 10
0
 20
0
 30
0
  0
VERTEX
  8
LAYER_1
 10
180.7161
 20
152.0454
  0
VERTEX
  8
LAYER_1
 10
180.7161
 20
156.4057
  0
SEQEND
  0
POLYLINE
  8
LAYER_1
 40
0.1693
 41
0.1693
 66
1
 10
0
 20
0
 30
0
  0
VERTEX
  8
LAYER_1
 10
180.7161
 20
152.0454
  0
VERTEX
  8
LAYER_1
 10
214.6251
 20
152.0454
  0
VERTEX
  8
LAYER_1
 10
214.6251
 20
156.4057
  0
SEQEND
  0
POLYLINE
  8
LAYER_1
 40
0.1693
 41
0.1693
 66
1
 10
0
 20
0
 30
0
  0
VERTEX
  8
LAYER_1
 10
180.7161
 20
156.4057
  0
VERTEX
  8
LAYER_1
 10
214.6251
 20
156.4057
  0
SEQEND
  0
TEXT
  8
LAYER_1
 10
142.0447
 20
192.9605
 11
142.0447
 21
192.9605
 40
2.5779
 41
0.5
  1
推奨：信越シリコーン KE-450
  0
TEXT
  8
LAYER_1
 10
150.0032
 20
190.0184
 11
150.0032
 21
190.0184
 40
2.5779
 41
0.5
  1
ハイクリヤー(高透明)
  0
TEXT
  8
LAYER_1
 10
116.6235
 20
125.6082
 11
116.6235
 21
125.6082
 40
2.1846
 41
0.5
  1
推奨：信越シリコーン
  0
TEXT
  8
LAYER_1
 10
112.9617
 20
122.7507
 11
112.9617
 21
122.7507
 40
2.5779
 41
0.5
  1
KE-450ハイクリヤー(高透明)
  0
TEXT
  8
LAYER_1
 10
47.4719
 20
76.3323
 11
47.4719
 21
76.3323
 40
2.5779
 41
0.5
  1
A0A'断面図
  0
TEXT
  8
LAYER_1
 10
191.0455
 20
76.3321
 11
191.0455
 21
76.3321
 40
2.5779
 41
0.5
  1
B0B'断面図
  0
TEXT
  8
LAYER_1
 10
191.0455
 20
153.4635
 11
191.0455
 21
153.4635
 40
2.1846
 41
0.5
  1
縁部詳細図
  0
ENDBLK
  0
BLOCK
  8
LAYER_1
  2
AIGNBL01010005
 70
64
 10
0
 20
0
 30
0
  3
AIGNBL01010005
  0
INSERT
  8
LAYER_1
  2
AIGNBL01020006
 10
0
 20
0
 30
0
  0
INSERT
  8
LAYER_1
  2
AIGNBL0102000F
 10
0
 20
0
 30
0
  0
ENDBLK
  0
ENDSEC
  0
SECTION
  2
ENTITIES
  0
POLYLINE
  8
LAYER_1
 40
0.0847
 41
0.0847
 66
1
 10
0
 20
0
 30
0
  0
VERTEX
  8
LAYER_1
 10
50.2677
 20
226.1773
  0
VERTEX
  8
LAYER_1
 10
51.5801
 20
226.1773
  0
SEQEND
  0
POLYLINE
  8
LAYER_1
 40
0.0847
 41
0.0847
 66
1
 10
0
 20
0
 30
0
  0
VERTEX
  8
LAYER_1
 10
52.1092
 20
226.1773
  0
VERTEX
  8
LAYER_1
 10
52.6384
 20
226.1773
  0
SEQEND
  0
POLYLINE
  8
LAYER_1
 40
0.0847
 41
0.0847
 66
1
 10
0
 20
0
 30
0
  0
VERTEX
  8
LAYER_1
 10
53.1676
 20
226.1773
  0
VERTEX
  8
LAYER_1
 10
54.5011
 20
226.1773
  0
SEQEND
  0
POLYLINE
  8
LAYER_1
 40
0.0847
 41
0.0847
 66
1
 10
0
 20
0
 30
0
  0
VERTEX
  8
LAYER_1
 10
50.2677
 20
226.1773
  0
VERTEX
  8
LAYER_1
 10
51.5801
 20
225.4153
  0
SEQEND
  0
POLYLINE
  8
LAYER_1
 40
0.0847
 41
0.0847
 66
1
 10
0
 20
0
 30
0
  0
VERTEX
  8
LAYER_1
 10
52.1092
 20
225.119
  0
VERTEX
  8
LAYER_1
 10
52.6384
 20
224.8015
  0
SEQEND
  0
TEXT
  8
LAYER_1
 10
36.1276
 20
239.4636
 11
36.1276
 21
239.4636
 40
5.1558
 41
0.5
  1
Rhapsody600天板開口参考図
  0
POLYLINE
  8
LAYER_1
 40
0.0847
 41
0.0847
 66
1
 10
0
 20
0
 30
0
  0
VERTEX
  8
LAYER_1
 10
-36.5579
 20
105.4637
  0
VERTEX
  8
LAYER_1
 10
-36.5579
 20
108.9985
  0
SEQEND
  0
POLYLINE
  8
LAYER_1
 40
0.1693
 41
0.1693
 66
1
 10
0
 20
0
 30
0
  0
VERTEX
  8
LAYER_1
 10
-36.5579
 20
108.9985
  0
VERTEX
  8
LAYER_1
 10
-37.1083
 20
111.0517
  0
SEQEND
  0
POLYLINE
  8
LAYER_1
 40
0.1693
 41
0.1693
 66
1
 10
0
 20
0
 30
0
  0
VERTEX
  8
LAYER_1
 10
-36.5579
 20
108.9985
  0
VERTEX
  8
LAYER_1
 10
-36.0076
 20
111.0517
  0
SEQEND
  0
POLYLINE
  8
LAYER_1
 40
0.1693
 41
0.1693
 66
1
 10
0
 20
0
 30
0
  0
VERTEX
  8
LAYER_1
 10
-36.5579
 20
105.4637
  0
VERTEX
  8
LAYER_1
 10
-36.0076
 20
103.4105
  0
SEQEND
  0
POLYLINE
  8
LAYER_1
 40
0.1693
 41
0.1693
 66
1
 10
0
 20
0
 30
0
  0
VERTEX
  8
LAYER_1
 10
-36.5579
 20
105.4637
  0
VERTEX
  8
LAYER_1
 10
-37.1083
 20
103.4105
  0
SEQEND
  0
POLYLINE
  8
LAYER_1
 40
0.0847
 41
0.0847
 66
1
 10
0
 20
0
 30
0
  0
VERTEX
  8
LAYER_1
 10
-36.5579
 20
108.9985
  0
VERTEX
  8
LAYER_1
 10
-31.6896
 20
108.9985
  0
SEQEND
  0
POLYLINE
  8
LAYER_1
 40
0.0847
 41
0.0847
 66
1
 10
0
 20
0
 30
0
  0
VERTEX
  8
LAYER_1
 10
-36.5579
 20
105.4637
  0
VERTEX
  8
LAYER_1
 10
-31.6896
 20
105.4637
  0
SEQEND
  0
TEXT
  8
LAYER_1
 10
-37.0873
 20
106.0769
 11
-37.0873
 21
106.0769
 40
2.5779
 41
0.5
 50
89.99999999
  1
25
  0
TEXT
  8
LAYER_1
 10
107.5753
 20
240.0565
 11
107.5753
 21
240.0565
 40
2.9274
 41
0.5
  1
※埋め込み（オーバーカウンター／ドロップイン）
  0
INSERT
  8
LAYER_1
  2
AIGNBL01010002
 10
0
 20
0
 30
0
  0
TEXT
  8
LAYER_1
 10
179.1539
 20
56.1441
 11
179.1539
 21
56.1441
 40
3.3848
 41
0.5
  1
●TEL 0120-65-1232●FAX 06-6532-1580
  0
TEXT
  8
LAYER_1
 10
179.1539
 20
52.6294
 11
179.1539
 21
52.6294
 40
3.3848
 41
0.5
  1
hits@hiratatile.co.jp
  0
INSERT
  8
LAYER_1
  2
AIGNBL01010005
 10
0
 20
0
 30
0
  0
POLYLINE
  8
LAYER_1
 40
0.254
 41
0.254
 66
1
 10
0
 20
0
 30
0
  0
VERTEX
  8
LAYER_1
 10
-37.6156
 20
66.4584
  0
VERTEX
  8
LAYER_1
 10
246.5014
 20
66.4584
  0
SEQEND
  0
ENDSEC
  0
EOF
