  0
SECTION
  2
HEADER
  9
$ACADVER
  1
AC1009
  9
$LUNITS
 70
2
  9
$LUPREC
 70
4
  9
$LTSCALE
 40
1.0
  9
$EXTMIN
 10
-37.6156
 20
51.8049
 30
0
  9
$EXTMAX
 10
246.5014
 20
246.9636
 30
0
  0
ENDSEC
  0
SECTION
  2
TABLES
  0
TABLE
  2
LTYPE
 70
256
  0
ENDTAB
  0
TABLE
  2
LAYER
 70
1
  0
LAYER
  2
LAYER_1
 70
64
 62
7
  6
CONTINUOUS
  0
ENDTAB
  0
TABLE
  2
STYLE
 70
6
  0
STYLE
  2
STANDARD
 70
0
 40
0
 50
0
 71
0
 41
0
 42
0
  3
TXT
  4
BIGFONT
  0
ENDTAB
  0
ENDSEC
  0
SECTION
  2
BLOCKS
  0
BLOCK
  8
LAYER_1
  2
AIGNBL01040005
 70
64
 10
0
 20
0
 30
0
  3
AIGNBL01040005
  0
POLYLINE
  8
LAYER_1
 40
0.05
 41
0.05
 66
1
 10
0
 20
0
 30
0
 70
1
  0
VERTEX
  8
LAYER_1
 10
149.883
 20
55.7499
  0
VERTEX
  8
LAYER_1
 10
149.3941
 20
54.5649
  0
VERTEX
  8
LAYER_1
 10
148.7661
 20
54.5649
  0
VERTEX
  8
LAYER_1
 10
150.3656
 20
58.3307
  0
VERTEX
  8
LAYER_1
 10
151.0988
 20
58.3307
  0
VERTEX
  8
LAYER_1
 10
152.7052
 20
54.5649
  0
VERTEX
  8
LAYER_1
 10
152.0551
 20
54.5649
  0
VERTEX
  8
LAYER_1
 10
151.5525
 20
55.7499
  0
SEQEND
  0
POLYLINE
  8
LAYER_1
 40
0.05
 41
0.05
 66
1
 10
0
 20
0
 30
0
 70
1
  0
VERTEX
  8
LAYER_1
 10
151.4267
 20
56.1289
  0
VERTEX
  8
LAYER_1
 10
150.9658
 20
57.2138
  0
VERTEX
  8
LAYER_1
 10
150.7212
 20
57.9007
  0
VERTEX
  8
LAYER_1
 10
150.7074
 20
57.9007
  0
VERTEX
  8
LAYER_1
 10
150.4697
 20
57.2182
  0
VERTEX
  8
LAYER_1
 10
150.0091
 20
56.1289
  0
SEQEND
  0
ENDBLK
  0
BLOCK
  8
LAYER_1
  2
AIGNBL01040006
 70
64
 10
0
 20
0
 30
0
  3
AIGNBL01040006
  0
POLYLINE
  8
LAYER_1
 40
0.05
 41
0.05
 66
1
 10
0
 20
0
 30
0
 70
1
  0
VERTEX
  8
LAYER_1
 10
157.0705
 20
54.0116
 42
-0.01559608074
  0
VERTEX
  8
LAYER_1
 10
155.2684
 20
54.4477
  0
VERTEX
  8
LAYER_1
 10
154.9817
 20
54.5032
 42
-0.08358905353
  0
VERTEX
  8
LAYER_1
 10
154.1177
 20
54.6693
 42
-0.09751246673
  0
VERTEX
  8
LAYER_1
 10
153.4565
 20
55.0753
 42
-0.2129005167
  0
VERTEX
  8
LAYER_1
 10
152.9078
 20
56.408
 42
-0.09685143224
  0
VERTEX
  8
LAYER_1
 10
153.0524
 20
57.1814
 42
-0.2046325641
  0
VERTEX
  8
LAYER_1
 10
154.0999
 20
58.2056
 42
-0.09825434011
  0
VERTEX
  8
LAYER_1
 10
155.1009
 20
58.392
 42
-0.08554836282
  0
VERTEX
  8
LAYER_1
 10
155.9695
 20
58.2507
 42
-0.1004347897
  0
VERTEX
  8
LAYER_1
 10
156.6346
 20
57.8564
 42
-0.2140895568
  0
VERTEX
  8
LAYER_1
 10
157.21
 20
56.4865
 42
-0.09540200113
  0
VERTEX
  8
LAYER_1
 10
157.0711
 20
55.7188
 42
-0.2143255494
  0
VERTEX
  8
LAYER_1
 10
156.0483
 20
54.7403
 42
-0.02339086401
  0
VERTEX
  8
LAYER_1
 10
155.8692
 20
54.682
  0
VERTEX
  8
LAYER_1
 10
155.8692
 20
54.6596
 42
0.01715285326
  0
VERTEX
  8
LAYER_1
 10
157.2455
 20
54.4194
  0
SEQEND
  0
POLYLINE
  8
LAYER_1
 40
0.05
 41
0.05
 66
1
 10
0
 20
0
 30
0
 70
1
  0
VERTEX
  8
LAYER_1
 10
156.5679
 20
56.4652
 42
0.1071638435
  0
VERTEX
  8
LAYER_1
 10
156.4166
 20
57.1699
 42
0.2976166227
  0
VERTEX
  8
LAYER_1
 10
155.0796
 20
57.9955
 42
0.1072356843
  0
VERTEX
  8
LAYER_1
 10
154.3898
 20
57.856
 42
0.2385874916
  0
VERTEX
  8
LAYER_1
 10
153.6028
 20
56.8504
 42
0.05751786988
  0
VERTEX
  8
LAYER_1
 10
153.5572
 20
56.4204
 42
0.218058121
  0
VERTEX
  8
LAYER_1
 10
154.0878
 20
55.225
 42
0.1772828752
  0
VERTEX
  8
LAYER_1
 10
155.0517
 20
54.8994
 42
0.1075205619
  0
VERTEX
  8
LAYER_1
 10
155.733
 20
55.0384
 42
0.2370768657
  0
VERTEX
  8
LAYER_1
 10
156.5202
 20
56.038
 42
0.05602139055
  0
SEQEND
  0
ENDBLK
  0
BLOCK
  8
LAYER_1
  2
AIGNBL01040007
 70
64
 10
0
 20
0
 30
0
  3
AIGNBL01040007
  0
POLYLINE
  8
LAYER_1
 40
0.05
 41
0.05
 66
1
 10
0
 20
0
 30
0
 70
1
  0
VERTEX
  8
LAYER_1
 10
158.5374
 20
58.3307
  0
VERTEX
  8
LAYER_1
 10
158.5374
 20
56.1013
 42
0.1145419645
  0
VERTEX
  8
LAYER_1
 10
158.6713
 20
55.4355
 42
0.146474021
  0
VERTEX
  8
LAYER_1
 10
159.0217
 20
55.0504
 42
0.136249447
  0
VERTEX
  8
LAYER_1
 10
159.634
 20
54.8994
 42
0.1219252591
  0
VERTEX
  8
LAYER_1
 10
160.2571
 20
55.0341
 42
0.1502970876
  0
VERTEX
  8
LAYER_1
 10
160.6289
 20
55.4031
 42
0.1256330146
  0
VERTEX
  8
LAYER_1
 10
160.7795
 20
56.1013
  0
VERTEX
  8
LAYER_1
 10
160.7795
 20
58.3307
  0
VERTEX
  8
LAYER_1
 10
161.3941
 20
58.3307
  0
VERTEX
  8
LAYER_1
 10
161.3941
 20
56.1348
 42
-0.09997505101
  0
VERTEX
  8
LAYER_1
 10
161.2592
 20
55.3921
 42
-0.1214984503
  0
VERTEX
  8
LAYER_1
 10
160.8859
 20
54.8854
 42
-0.1106235892
  0
VERTEX
  8
LAYER_1
 10
160.2605
 20
54.5788
 42
-0.06128954947
  0
VERTEX
  8
LAYER_1
 10
159.613
 20
54.5032
 42
-0.09418225932
  0
VERTEX
  8
LAYER_1
 10
158.7938
 20
54.6413
 42
-0.2431666463
  0
VERTEX
  8
LAYER_1
 10
157.9903
 20
55.552
 42
-0.06320556818
  0
VERTEX
  8
LAYER_1
 10
157.9228
 20
56.1127
  0
VERTEX
  8
LAYER_1
 10
157.9228
 20
58.3307
  0
SEQEND
  0
ENDBLK
  0
BLOCK
  8
LAYER_1
  2
AIGNBL01040008
 70
64
 10
0
 20
0
 30
0
  3
AIGNBL01040008
  0
POLYLINE
  8
LAYER_1
 40
0.05
 41
0.05
 66
1
 10
0
 20
0
 30
0
 70
1
  0
VERTEX
  8
LAYER_1
 10
163.1404
 20
55.7499
  0
VERTEX
  8
LAYER_1
 10
162.6512
 20
54.5649
  0
VERTEX
  8
LAYER_1
 10
162.0232
 20
54.5649
  0
VERTEX
  8
LAYER_1
 10
163.6224
 20
58.3307
  0
VERTEX
  8
LAYER_1
 10
164.3555
 20
58.3307
  0
VERTEX
  8
LAYER_1
 10
165.962
 20
54.5649
  0
VERTEX
  8
LAYER_1
 10
165.3126
 20
54.5649
  0
VERTEX
  8
LAYER_1
 10
164.8099
 20
55.7499
  0
SEQEND
  0
POLYLINE
  8
LAYER_1
 40
0.05
 41
0.05
 66
1
 10
0
 20
0
 30
0
 70
1
  0
VERTEX
  8
LAYER_1
 10
164.6838
 20
56.1289
  0
VERTEX
  8
LAYER_1
 10
164.2225
 20
57.2138
  0
VERTEX
  8
LAYER_1
 10
163.9779
 20
57.9007
  0
VERTEX
  8
LAYER_1
 10
163.9641
 20
57.9007
  0
VERTEX
  8
LAYER_1
 10
163.7268
 20
57.2182
  0
VERTEX
  8
LAYER_1
 10
163.2658
 20
56.1289
  0
SEQEND
  0
ENDBLK
  0
BLOCK
  8
LAYER_1
  2
AIGNBL01040009
 70
64
 10
0
 20
0
 30
0
  3
AIGNBL01040009
  0
POLYLINE
  8
LAYER_1
 40
0.05
 41
0.05
 66
1
 10
0
 20
0
 30
0
 70
1
  0
VERTEX
  8
LAYER_1
 10
167.0027
 20
58.2859
 42
-0.03243103605
  0
VERTEX
  8
LAYER_1
 10
168.1696
 20
58.3589
 42
-0.0808140334
  0
VERTEX
  8
LAYER_1
 10
169.126
 20
58.2271
 42
-0.07818660191
  0
VERTEX
  8
LAYER_1
 10
169.4894
 20
58.0461
 42
-0.2484404511
  0
VERTEX
  8
LAYER_1
 10
169.9011
 20
57.2579
 42
-0.226189009
  0
VERTEX
  8
LAYER_1
 10
169.538
 20
56.4538
 42
-0.1097250921
  0
VERTEX
  8
LAYER_1
 10
168.9097
 20
56.1405
 42
-0.0656688505
  0
VERTEX
  8
LAYER_1
 10
168.0993
 20
56.04
 42
-0.06238309955
  0
VERTEX
  8
LAYER_1
 10
167.6108
 20
56.0734
  0
VERTEX
  8
LAYER_1
 10
167.6108
 20
54.5649
  0
VERTEX
  8
LAYER_1
 10
167.0027
 20
54.5649
  0
SEQEND
  0
POLYLINE
  8
LAYER_1
 40
0.05
 41
0.05
 66
1
 10
0
 20
0
 30
0
 70
1
  0
VERTEX
  8
LAYER_1
 10
167.6108
 20
56.4703
 42
0.04195491068
  0
VERTEX
  8
LAYER_1
 10
168.1131
 20
56.4311
 42
0.103220324
  0
VERTEX
  8
LAYER_1
 10
168.8322
 20
56.5584
 42
0.1556055465
  0
VERTEX
  8
LAYER_1
 10
169.197
 20
56.8628
 42
0.1352465059
  0
VERTEX
  8
LAYER_1
 10
169.294
 20
57.2355
 42
0.1736824711
  0
VERTEX
  8
LAYER_1
 10
169.1592
 20
57.6428
 42
0.151721714
  0
VERTEX
  8
LAYER_1
 10
168.7381
 20
57.9023
 42
0.06880216409
  0
VERTEX
  8
LAYER_1
 10
168.1837
 20
57.9731
 42
0.06324318977
  0
VERTEX
  8
LAYER_1
 10
167.6108
 20
57.9338
  0
SEQEND
  0
ENDBLK
  0
BLOCK
  8
LAYER_1
  2
AIGNBL0104000A
 70
64
 10
0
 20
0
 30
0
  3
AIGNBL0104000A
  0
POLYLINE
  8
LAYER_1
 40
0.05
 41
0.05
 66
1
 10
0
 20
0
 30
0
 70
1
  0
VERTEX
  8
LAYER_1
 10
171.4531
 20
58.0289
 42
-0.276560599
  0
VERTEX
  8
LAYER_1
 10
171.3135
 20
57.7888
 42
-0.1265502936
  0
VERTEX
  8
LAYER_1
 10
171.0614
 20
57.7271
 42
-0.22367962
  0
VERTEX
  8
LAYER_1
 10
170.7511
 20
57.8595
 42
-0.1709078449
  0
VERTEX
  8
LAYER_1
 10
170.691
 20
58.0289
 42
-0.2644657541
  0
VERTEX
  8
LAYER_1
 10
170.8404
 20
58.2759
 42
-0.1289461134
  0
VERTEX
  8
LAYER_1
 10
171.0751
 20
58.3358
 42
-0.2252711891
  0
VERTEX
  8
LAYER_1
 10
171.392
 20
58.2052
 42
-0.1691711204
  0
SEQEND
  0
POLYLINE
  8
LAYER_1
 40
0.05
 41
0.05
 66
1
 10
0
 20
0
 30
0
 70
1
  0
VERTEX
  8
LAYER_1
 10
170.7675
 20
54.5649
  0
VERTEX
  8
LAYER_1
 10
170.7675
 20
57.2689
  0
VERTEX
  8
LAYER_1
 10
171.3821
 20
57.2689
  0
VERTEX
  8
LAYER_1
 10
171.3821
 20
54.5649
  0
SEQEND
  0
ENDBLK
  0
BLOCK
  8
LAYER_1
  2
AIGNBL0104000B
 70
64
 10
0
 20
0
 30
0
  3
AIGNBL0104000B
  0
POLYLINE
  8
LAYER_1
 40
0.05
 41
0.05
 66
1
 10
0
 20
0
 30
0
 70
1
  0
VERTEX
  8
LAYER_1
 10
173.2538
 20
55.7499
  0
VERTEX
  8
LAYER_1
 10
172.7657
 20
54.5649
  0
VERTEX
  8
LAYER_1
 10
172.1366
 20
54.5649
  0
VERTEX
  8
LAYER_1
 10
173.7362
 20
58.3307
  0
VERTEX
  8
LAYER_1
 10
174.47
 20
58.3307
  0
VERTEX
  8
LAYER_1
 10
176.0764
 20
54.5649
  0
VERTEX
  8
LAYER_1
 10
175.4267
 20
54.5649
  0
VERTEX
  8
LAYER_1
 10
174.924
 20
55.7499
  0
SEQEND
  0
POLYLINE
  8
LAYER_1
 40
0.05
 41
0.05
 66
1
 10
0
 20
0
 30
0
 70
1
  0
VERTEX
  8
LAYER_1
 10
174.7979
 20
56.1289
  0
VERTEX
  8
LAYER_1
 10
174.337
 20
57.2138
  0
VERTEX
  8
LAYER_1
 10
174.0931
 20
57.9007
  0
VERTEX
  8
LAYER_1
 10
174.0782
 20
57.9007
  0
VERTEX
  8
LAYER_1
 10
173.8412
 20
57.2182
  0
VERTEX
  8
LAYER_1
 10
173.3803
 20
56.1289
  0
SEQEND
  0
ENDBLK
  0
BLOCK
  8
LAYER_1
  2
AIGNBL01030004
 70
64
 10
0
 20
0
 30
0
  3
AIGNBL01030004
  0
INSERT
  8
LAYER_1
  2
AIGNBL01040005
 10
0
 20
0
 30
0
  0
INSERT
  8
LAYER_1
  2
AIGNBL01040006
 10
0
 20
0
 30
0
  0
INSERT
  8
LAYER_1
  2
AIGNBL01040007
 10
0
 20
0
 30
0
  0
INSERT
  8
LAYER_1
  2
AIGNBL01040008
 10
0
 20
0
 30
0
  0
INSERT
  8
LAYER_1
  2
AIGNBL01040009
 10
0
 20
0
 30
0
  0
INSERT
  8
LAYER_1
  2
AIGNBL0104000A
 10
0
 20
0
 30
0
  0
INSERT
  8
LAYER_1
  2
AIGNBL0104000B
 10
0
 20
0
 30
0
  0
ENDBLK
  0
BLOCK
  8
LAYER_1
  2
AIGNBL0103000D
 70
64
 10
0
 20
0
 30
0
  3
AIGNBL0103000D
  0
POLYLINE
  8
LAYER_1
 40
0.05
 41
0.05
 66
1
 10
0
 20
0
 30
0
 70
1
  0
VERTEX
  8
LAYER_1
 10
148.876
 20
52.6656
  0
VERTEX
  8
LAYER_1
 10
149.4293
 20
52.6656
  0
VERTEX
  8
LAYER_1
 10
149.4293
 20
52.5718
  0
VERTEX
  8
LAYER_1
 10
148.7709
 20
52.5718
  0
VERTEX
  8
LAYER_1
 10
148.7709
 20
53.605
  0
VERTEX
  8
LAYER_1
 10
149.4117
 20
53.605
  0
VERTEX
  8
LAYER_1
 10
149.4117
 20
53.5117
  0
VERTEX
  8
LAYER_1
 10
148.876
 20
53.5117
  0
VERTEX
  8
LAYER_1
 10
148.876
 20
53.1572
  0
VERTEX
  8
LAYER_1
 10
149.3766
 20
53.1572
  0
VERTEX
  8
LAYER_1
 10
149.3766
 20
53.0638
  0
VERTEX
  8
LAYER_1
 10
148.876
 20
53.0638
  0
SEQEND
  0
ENDBLK
  0
BLOCK
  8
LAYER_1
  2
AIGNBL0103000E
 70
64
 10
0
 20
0
 30
0
  3
AIGNBL0103000E
  0
POLYLINE
  8
LAYER_1
 40
0.05
 41
0.05
 66
1
 10
0
 20
0
 30
0
 70
1
  0
VERTEX
  8
LAYER_1
 10
150.5689
 20
52.7252
  0
VERTEX
  8
LAYER_1
 10
150.5717
 20
52.7252
  0
VERTEX
  8
LAYER_1
 10
150.5717
 20
53.605
  0
VERTEX
  8
LAYER_1
 10
150.6768
 20
53.605
  0
VERTEX
  8
LAYER_1
 10
150.6768
 20
52.5718
  0
VERTEX
  8
LAYER_1
 10
150.5458
 20
52.5718
  0
VERTEX
  8
LAYER_1
 10
149.9447
 20
53.4607
  0
VERTEX
  8
LAYER_1
 10
149.9412
 20
53.4607
  0
VERTEX
  8
LAYER_1
 10
149.9412
 20
52.5718
  0
VERTEX
  8
LAYER_1
 10
149.8365
 20
52.5718
  0
VERTEX
  8
LAYER_1
 10
149.8365
 20
53.605
  0
VERTEX
  8
LAYER_1
 10
149.9677
 20
53.605
  0
SEQEND
  0
ENDBLK
  0
BLOCK
  8
LAYER_1
  2
AIGNBL0103000F
 70
64
 10
0
 20
0
 30
0
  3
AIGNBL0103000F
  0
POLYLINE
  8
LAYER_1
 40
0.05
 41
0.05
 66
1
 10
0
 20
0
 30
0
 70
1
  0
VERTEX
  8
LAYER_1
 10
151.1498
 20
52.7837
  0
VERTEX
  8
LAYER_1
 10
151.2042
 20
52.6807
 42
0.1808193332
  0
VERTEX
  8
LAYER_1
 10
151.3175
 20
52.639
  0
VERTEX
  8
LAYER_1
 10
151.4068
 20
52.6587
  0
VERTEX
  8
LAYER_1
 10
151.4629
 20
52.7121
  0
VERTEX
  8
LAYER_1
 10
151.4919
 20
52.7886
  0
VERTEX
  8
LAYER_1
 10
151.5001
 20
52.8781
  0
VERTEX
  8
LAYER_1
 10
151.5001
 20
53.605
  0
VERTEX
  8
LAYER_1
 10
151.6052
 20
53.605
  0
VERTEX
  8
LAYER_1
 10
151.6052
 20
52.8695
  0
VERTEX
  8
LAYER_1
 10
151.5938
 20
52.7617
  0
VERTEX
  8
LAYER_1
 10
151.5525
 20
52.6566
  0
VERTEX
  8
LAYER_1
 10
151.4678
 20
52.577
  0
VERTEX
  8
LAYER_1
 10
151.3289
 20
52.5457
 42
-0.1845231376
  0
VERTEX
  8
LAYER_1
 10
151.1443
 20
52.6056
 42
-0.1765285731
  0
VERTEX
  8
LAYER_1
 10
151.0519
 20
52.7572
  0
SEQEND
  0
ENDBLK
  0
BLOCK
  8
LAYER_1
  2
AIGNBL01030010
 70
64
 10
0
 20
0
 30
0
  3
AIGNBL01030010
  0
POLYLINE
  8
LAYER_1
 40
0.05
 41
0.05
 66
1
 10
0
 20
0
 30
0
 70
1
  0
VERTEX
  8
LAYER_1
 10
153.0935
 20
53.0886
 42
-0.1039024845
  0
VERTEX
  8
LAYER_1
 10
153.0525
 20
52.8712
 42
-0.100426525
  0
VERTEX
  8
LAYER_1
 10
152.9398
 20
52.6997
 42
-0.09534953409
  0
VERTEX
  8
LAYER_1
 10
152.7689
 20
52.5867
 42
-0.09515264368
  0
VERTEX
  8
LAYER_1
 10
152.555
 20
52.5457
 42
-0.1010765979
  0
VERTEX
  8
LAYER_1
 10
152.3414
 20
52.5867
 42
-0.1005668876
  0
VERTEX
  8
LAYER_1
 10
152.1705
 20
52.6997
 42
-0.09429605145
  0
VERTEX
  8
LAYER_1
 10
152.0572
 20
52.8712
 42
-0.09313545426
  0
VERTEX
  8
LAYER_1
 10
152.0165
 20
53.0886
 42
-0.1023371638
  0
VERTEX
  8
LAYER_1
 10
152.0572
 20
53.306
 42
-0.100391096
  0
VERTEX
  8
LAYER_1
 10
152.1705
 20
53.4776
 42
-0.09625543395
  0
VERTEX
  8
LAYER_1
 10
152.3414
 20
53.5906
 42
-0.0952064105
  0
VERTEX
  8
LAYER_1
 10
152.555
 20
53.6316
 42
-0.1014334603
  0
VERTEX
  8
LAYER_1
 10
152.7689
 20
53.5906
 42
-0.09904343471
  0
VERTEX
  8
LAYER_1
 10
152.9398
 20
53.4776
 42
-0.09575770406
  0
VERTEX
  8
LAYER_1
 10
153.0525
 20
53.306
 42
-0.09397357601
  0
SEQEND
  0
POLYLINE
  8
LAYER_1
 40
0.05
 41
0.05
 66
1
 10
0
 20
0
 30
0
 70
1
  0
VERTEX
  8
LAYER_1
 10
152.9826
 20
53.0879
  0
VERTEX
  8
LAYER_1
 10
152.9536
 20
53.2598
  0
VERTEX
  8
LAYER_1
 10
152.8689
 20
53.4032
  0
VERTEX
  8
LAYER_1
 10
152.7338
 20
53.5013
 42
0.1018863245
  0
VERTEX
  8
LAYER_1
 10
152.555
 20
53.5382
  0
VERTEX
  8
LAYER_1
 10
152.3762
 20
53.5013
  0
VERTEX
  8
LAYER_1
 10
152.2415
 20
53.4032
  0
VERTEX
  8
LAYER_1
 10
152.1568
 20
53.2598
  0
VERTEX
  8
LAYER_1
 10
152.1275
 20
53.0879
  0
VERTEX
  8
LAYER_1
 10
152.1568
 20
52.916
  0
VERTEX
  8
LAYER_1
 10
152.2415
 20
52.773
  0
VERTEX
  8
LAYER_1
 10
152.3762
 20
52.6756
  0
VERTEX
  8
LAYER_1
 10
152.555
 20
52.639
 42
0.1154686557
  0
VERTEX
  8
LAYER_1
 10
152.7338
 20
52.6756
  0
VERTEX
  8
LAYER_1
 10
152.8689
 20
52.773
  0
VERTEX
  8
LAYER_1
 10
152.9536
 20
52.916
  0
SEQEND
  0
ENDBLK
  0
BLOCK
  8
LAYER_1
  2
AIGNBL01030011
 70
64
 10
0
 20
0
 30
0
  3
AIGNBL01030011
  0
POLYLINE
  8
LAYER_1
 40
0.05
 41
0.05
 66
1
 10
0
 20
0
 30
0
 70
1
  0
VERTEX
  8
LAYER_1
 10
153.8683
 20
52.5718
  0
VERTEX
  8
LAYER_1
 10
153.7636
 20
52.5718
  0
VERTEX
  8
LAYER_1
 10
153.7636
 20
53.0173
  0
VERTEX
  8
LAYER_1
 10
153.3767
 20
53.605
  0
VERTEX
  8
LAYER_1
 10
153.5079
 20
53.605
  0
VERTEX
  8
LAYER_1
 10
153.819
 20
53.1048
  0
VERTEX
  8
LAYER_1
 10
154.1325
 20
53.605
  0
VERTEX
  8
LAYER_1
 10
154.2548
 20
53.605
  0
VERTEX
  8
LAYER_1
 10
153.8683
 20
53.0173
  0
SEQEND
  0
ENDBLK
  0
BLOCK
  8
LAYER_1
  2
AIGNBL01030012
 70
64
 10
0
 20
0
 30
0
  3
AIGNBL01030012
  0
POLYLINE
  8
LAYER_1
 40
0.05
 41
0.05
 66
1
 10
0
 20
0
 30
0
 70
1
  0
VERTEX
  8
LAYER_1
 10
155.1599
 20
53.605
  0
VERTEX
  8
LAYER_1
 10
155.4675
 20
53.605
  0
VERTEX
  8
LAYER_1
 10
155.586
 20
53.5926
  0
VERTEX
  8
LAYER_1
 10
155.6928
 20
53.5503
  0
VERTEX
  8
LAYER_1
 10
155.7707
 20
53.4693
  0
VERTEX
  8
LAYER_1
 10
155.8003
 20
53.3411
 42
-0.1786845194
  0
VERTEX
  8
LAYER_1
 10
155.7503
 20
53.1989
 42
-0.1642670326
  0
VERTEX
  8
LAYER_1
 10
155.617
 20
53.1193
  0
VERTEX
  8
LAYER_1
 10
155.617
 20
53.1165
 42
-0.1739536767
  0
VERTEX
  8
LAYER_1
 10
155.7837
 20
53.0383
 42
-0.1923594805
  0
VERTEX
  8
LAYER_1
 10
155.8499
 20
52.8578
  0
VERTEX
  8
LAYER_1
 10
155.8227
 20
52.7407
  0
VERTEX
  8
LAYER_1
 10
155.7466
 20
52.6501
  0
VERTEX
  8
LAYER_1
 10
155.6256
 20
52.5925
  0
VERTEX
  8
LAYER_1
 10
155.4658
 20
52.5718
  0
VERTEX
  8
LAYER_1
 10
155.1599
 20
52.5718
  0
SEQEND
  0
POLYLINE
  8
LAYER_1
 40
0.05
 41
0.05
 66
1
 10
0
 20
0
 30
0
 70
1
  0
VERTEX
  8
LAYER_1
 10
155.2649
 20
53.1527
  0
VERTEX
  8
LAYER_1
 10
155.4764
 20
53.1527
  0
VERTEX
  8
LAYER_1
 10
155.5533
 20
53.1617
  0
VERTEX
  8
LAYER_1
 10
155.6236
 20
53.1913
  0
VERTEX
  8
LAYER_1
 10
155.6756
 20
53.2478
  0
VERTEX
  8
LAYER_1
 10
155.6952
 20
53.3339
  0
VERTEX
  8
LAYER_1
 10
155.6756
 20
53.4176
  0
VERTEX
  8
LAYER_1
 10
155.6225
 20
53.4738
  0
VERTEX
  8
LAYER_1
 10
155.5437
 20
53.5051
  0
VERTEX
  8
LAYER_1
 10
155.4472
 20
53.5148
  0
VERTEX
  8
LAYER_1
 10
155.2649
 20
53.5148
  0
SEQEND
  0
POLYLINE
  8
LAYER_1
 40
0.05
 41
0.05
 66
1
 10
0
 20
0
 30
0
 70
1
  0
VERTEX
  8
LAYER_1
 10
155.2649
 20
52.6625
  0
VERTEX
  8
LAYER_1
 10
155.4606
 20
52.6625
  0
VERTEX
  8
LAYER_1
 10
155.5691
 20
52.6735
  0
VERTEX
  8
LAYER_1
 10
155.6597
 20
52.7083
  0
VERTEX
  8
LAYER_1
 10
155.7214
 20
52.7713
  0
VERTEX
  8
LAYER_1
 10
155.7448
 20
52.864
 42
0.255979908
  0
VERTEX
  8
LAYER_1
 10
155.6756
 20
53.0163
 42
0.1381236768
  0
VERTEX
  8
LAYER_1
 10
155.4795
 20
53.0666
  0
VERTEX
  8
LAYER_1
 10
155.2649
 20
53.0666
  0
SEQEND
  0
ENDBLK
  0
BLOCK
  8
LAYER_1
  2
AIGNBL01030013
 70
64
 10
0
 20
0
 30
0
  3
AIGNBL01030013
  0
POLYLINE
  8
LAYER_1
 40
0.05
 41
0.05
 66
1
 10
0
 20
0
 30
0
 70
1
  0
VERTEX
  8
LAYER_1
 10
156.2819
 20
52.5718
  0
VERTEX
  8
LAYER_1
 10
156.1665
 20
52.5718
  0
VERTEX
  8
LAYER_1
 10
156.6133
 20
53.605
  0
VERTEX
  8
LAYER_1
 10
156.7156
 20
53.605
  0
VERTEX
  8
LAYER_1
 10
157.1591
 20
52.5718
  0
VERTEX
  8
LAYER_1
 10
157.0423
 20
52.5718
  0
VERTEX
  8
LAYER_1
 10
156.9282
 20
52.8433
  0
VERTEX
  8
LAYER_1
 10
156.3942
 20
52.8433
  0
SEQEND
  0
POLYLINE
  8
LAYER_1
 40
0.05
 41
0.05
 66
1
 10
0
 20
0
 30
0
 70
1
  0
VERTEX
  8
LAYER_1
 10
156.4335
 20
52.9398
  0
VERTEX
  8
LAYER_1
 10
156.8889
 20
52.9398
  0
VERTEX
  8
LAYER_1
 10
156.6612
 20
53.4886
  0
SEQEND
  0
ENDBLK
  0
BLOCK
  8
LAYER_1
  2
AIGNBL01030014
 70
64
 10
0
 20
0
 30
0
  3
AIGNBL01030014
  0
POLYLINE
  8
LAYER_1
 40
0.05
 41
0.05
 66
1
 10
0
 20
0
 30
0
 70
1
  0
VERTEX
  8
LAYER_1
 10
157.8436
 20
52.5718
  0
VERTEX
  8
LAYER_1
 10
157.7385
 20
52.5718
  0
VERTEX
  8
LAYER_1
 10
157.7385
 20
53.5117
  0
VERTEX
  8
LAYER_1
 10
157.3923
 20
53.5117
  0
VERTEX
  8
LAYER_1
 10
157.3923
 20
53.605
  0
VERTEX
  8
LAYER_1
 10
158.1891
 20
53.605
  0
VERTEX
  8
LAYER_1
 10
158.1891
 20
53.5117
  0
VERTEX
  8
LAYER_1
 10
157.8436
 20
53.5117
  0
SEQEND
  0
ENDBLK
  0
BLOCK
  8
LAYER_1
  2
AIGNBL01030015
 70
64
 10
0
 20
0
 30
0
  3
AIGNBL01030015
  0
POLYLINE
  8
LAYER_1
 40
0.05
 41
0.05
 66
1
 10
0
 20
0
 30
0
 70
1
  0
VERTEX
  8
LAYER_1
 10
158.5454
 20
53.605
  0
VERTEX
  8
LAYER_1
 10
158.6501
 20
53.605
  0
VERTEX
  8
LAYER_1
 10
158.6501
 20
53.1572
  0
VERTEX
  8
LAYER_1
 10
159.2137
 20
53.1572
  0
VERTEX
  8
LAYER_1
 10
159.2137
 20
53.605
  0
VERTEX
  8
LAYER_1
 10
159.3188
 20
53.605
  0
VERTEX
  8
LAYER_1
 10
159.3188
 20
52.5718
  0
VERTEX
  8
LAYER_1
 10
159.2137
 20
52.5718
  0
VERTEX
  8
LAYER_1
 10
159.2137
 20
53.0611
  0
VERTEX
  8
LAYER_1
 10
158.6501
 20
53.0611
  0
VERTEX
  8
LAYER_1
 10
158.6501
 20
52.5718
  0
VERTEX
  8
LAYER_1
 10
158.5454
 20
52.5718
  0
SEQEND
  0
ENDBLK
  0
BLOCK
  8
LAYER_1
  2
AIGNBL01030016
 70
64
 10
0
 20
0
 30
0
  3
AIGNBL01030016
  0
POLYLINE
  8
LAYER_1
 40
0.05
 41
0.05
 66
1
 10
0
 20
0
 30
0
 70
1
  0
VERTEX
  8
LAYER_1
 10
159.8993
 20
52.5718
  0
VERTEX
  8
LAYER_1
 10
159.7942
 20
52.5718
  0
VERTEX
  8
LAYER_1
 10
159.7942
 20
53.605
  0
VERTEX
  8
LAYER_1
 10
160.098
 20
53.605
  0
VERTEX
  8
LAYER_1
 10
160.2386
 20
53.5906
  0
VERTEX
  8
LAYER_1
 10
160.3513
 20
53.543
  0
VERTEX
  8
LAYER_1
 10
160.4246
 20
53.4576
  0
VERTEX
  8
LAYER_1
 10
160.4508
 20
53.3294
  0
VERTEX
  8
LAYER_1
 10
160.4309
 20
53.2258
  0
VERTEX
  8
LAYER_1
 10
160.3754
 20
53.1448
  0
VERTEX
  8
LAYER_1
 10
160.292
 20
53.09
  0
VERTEX
  8
LAYER_1
 10
160.1869
 20
53.0638
  0
VERTEX
  8
LAYER_1
 10
160.4891
 20
52.5718
  0
VERTEX
  8
LAYER_1
 10
160.3606
 20
52.5718
  0
VERTEX
  8
LAYER_1
 10
160.0746
 20
53.0549
  0
VERTEX
  8
LAYER_1
 10
159.8993
 20
53.0549
  0
SEQEND
  0
POLYLINE
  8
LAYER_1
 40
0.05
 41
0.05
 66
1
 10
0
 20
0
 30
0
 70
1
  0
VERTEX
  8
LAYER_1
 10
159.8993
 20
53.1455
  0
VERTEX
  8
LAYER_1
 10
160.0819
 20
53.1455
 42
0.1657307197
  0
VERTEX
  8
LAYER_1
 10
160.2775
 20
53.1913
 42
0.250658542
  0
VERTEX
  8
LAYER_1
 10
160.3461
 20
53.3294
  0
VERTEX
  8
LAYER_1
 10
160.3268
 20
53.4152
  0
VERTEX
  8
LAYER_1
 10
160.2744
 20
53.4724
  0
VERTEX
  8
LAYER_1
 10
160.1928
 20
53.5044
  0
VERTEX
  8
LAYER_1
 10
160.0863
 20
53.5148
  0
VERTEX
  8
LAYER_1
 10
159.8993
 20
53.5148
  0
SEQEND
  0
ENDBLK
  0
BLOCK
  8
LAYER_1
  2
AIGNBL01030017
 70
64
 10
0
 20
0
 30
0
  3
AIGNBL01030017
  0
POLYLINE
  8
LAYER_1
 40
0.05
 41
0.05
 66
1
 10
0
 20
0
 30
0
 70
1
  0
VERTEX
  8
LAYER_1
 10
161.8912
 20
53.0886
 42
-0.1004784931
  0
VERTEX
  8
LAYER_1
 10
161.8506
 20
52.8712
 42
-0.101062718
  0
VERTEX
  8
LAYER_1
 10
161.7372
 20
52.6997
 42
-0.09599561719
  0
VERTEX
  8
LAYER_1
 10
161.5667
 20
52.5867
 42
-0.09506675375
  0
VERTEX
  8
LAYER_1
 10
161.3528
 20
52.5457
 42
-0.1012184087
  0
VERTEX
  8
LAYER_1
 10
161.1388
 20
52.5867
 42
-0.1005543844
  0
VERTEX
  8
LAYER_1
 10
160.9683
 20
52.6997
 42
-0.09624726654
  0
VERTEX
  8
LAYER_1
 10
160.8553
 20
52.8712
 42
-0.09313545426
  0
VERTEX
  8
LAYER_1
 10
160.8146
 20
53.0886
 42
-0.1023371638
  0
VERTEX
  8
LAYER_1
 10
160.8553
 20
53.306
 42
-0.1010044242
  0
VERTEX
  8
LAYER_1
 10
160.9683
 20
53.4776
 42
-0.09563682649
  0
VERTEX
  8
LAYER_1
 10
161.1388
 20
53.5906
 42
-0.0950295922
  0
VERTEX
  8
LAYER_1
 10
161.3528
 20
53.6316
 42
-0.101175466
  0
VERTEX
  8
LAYER_1
 10
161.5667
 20
53.5906
 42
-0.1020868526
  0
VERTEX
  8
LAYER_1
 10
161.7372
 20
53.4776
 42
-0.09463339148
  0
VERTEX
  8
LAYER_1
 10
161.8506
 20
53.306
 42
-0.09275565523
  0
SEQEND
  0
POLYLINE
  8
LAYER_1
 40
0.05
 41
0.05
 66
1
 10
0
 20
0
 30
0
 70
1
  0
VERTEX
  8
LAYER_1
 10
161.7803
 20
53.0879
  0
VERTEX
  8
LAYER_1
 10
161.751
 20
53.2598
  0
VERTEX
  8
LAYER_1
 10
161.6662
 20
53.4032
  0
VERTEX
  8
LAYER_1
 10
161.5316
 20
53.5013
  0
VERTEX
  8
LAYER_1
 10
161.3528
 20
53.5382
 42
0.1143752939
  0
VERTEX
  8
LAYER_1
 10
161.1739
 20
53.5013
  0
VERTEX
  8
LAYER_1
 10
161.0389
 20
53.4032
  0
VERTEX
  8
LAYER_1
 10
160.9542
 20
53.2598
  0
VERTEX
  8
LAYER_1
 10
160.9252
 20
53.0879
  0
VERTEX
  8
LAYER_1
 10
160.9542
 20
52.916
  0
VERTEX
  8
LAYER_1
 10
161.0389
 20
52.773
  0
VERTEX
  8
LAYER_1
 10
161.1739
 20
52.6756
 42
0.1010368749
  0
VERTEX
  8
LAYER_1
 10
161.3528
 20
52.639
  0
VERTEX
  8
LAYER_1
 10
161.5316
 20
52.6756
  0
VERTEX
  8
LAYER_1
 10
161.6662
 20
52.773
  0
VERTEX
  8
LAYER_1
 10
161.751
 20
52.916
  0
SEQEND
  0
ENDBLK
  0
BLOCK
  8
LAYER_1
  2
AIGNBL01030018
 70
64
 10
0
 20
0
 30
0
  3
AIGNBL01030018
  0
POLYLINE
  8
LAYER_1
 40
0.05
 41
0.05
 66
1
 10
0
 20
0
 30
0
 70
1
  0
VERTEX
  8
LAYER_1
 10
163.333
 20
53.0886
 42
-0.1039024845
  0
VERTEX
  8
LAYER_1
 10
163.292
 20
52.8712
 42
-0.100426525
  0
VERTEX
  8
LAYER_1
 10
163.1793
 20
52.6997
 42
-0.09523311055
  0
VERTEX
  8
LAYER_1
 10
163.0085
 20
52.5867
 42
-0.0950295922
  0
VERTEX
  8
LAYER_1
 10
162.7945
 20
52.5457
 42
-0.101822328
  0
VERTEX
  8
LAYER_1
 10
162.5809
 20
52.5867
 42
-0.1021160132
  0
VERTEX
  8
LAYER_1
 10
162.41
 20
52.6997
 42
-0.09429605145
  0
VERTEX
  8
LAYER_1
 10
162.2967
 20
52.8712
 42
-0.09293253763
  0
VERTEX
  8
LAYER_1
 10
162.2561
 20
53.0886
 42
-0.102539173
  0
VERTEX
  8
LAYER_1
 10
162.2967
 20
53.306
 42
-0.100391096
  0
VERTEX
  8
LAYER_1
 10
162.41
 20
53.4776
 42
-0.09625117665
  0
VERTEX
  8
LAYER_1
 10
162.5809
 20
53.5906
 42
-0.09528409444
  0
VERTEX
  8
LAYER_1
 10
162.7945
 20
53.6316
 42
-0.1012184087
  0
VERTEX
  8
LAYER_1
 10
163.0085
 20
53.5906
 42
-0.09890806397
  0
VERTEX
  8
LAYER_1
 10
163.1793
 20
53.4776
 42
-0.09575770406
  0
VERTEX
  8
LAYER_1
 10
163.292
 20
53.306
 42
-0.093973576
  0
SEQEND
  0
POLYLINE
  8
LAYER_1
 40
0.05
 41
0.05
 66
1
 10
0
 20
0
 30
0
 70
1
  0
VERTEX
  8
LAYER_1
 10
163.2221
 20
53.0879
  0
VERTEX
  8
LAYER_1
 10
163.1931
 20
53.2598
  0
VERTEX
  8
LAYER_1
 10
163.1084
 20
53.4032
  0
VERTEX
  8
LAYER_1
 10
162.9733
 20
53.5013
 42
0.1018863245
  0
VERTEX
  8
LAYER_1
 10
162.7945
 20
53.5382
  0
VERTEX
  8
LAYER_1
 10
162.6157
 20
53.5013
  0
VERTEX
  8
LAYER_1
 10
162.481
 20
53.4032
  0
VERTEX
  8
LAYER_1
 10
162.3963
 20
53.2598
  0
VERTEX
  8
LAYER_1
 10
162.367
 20
53.0879
  0
VERTEX
  8
LAYER_1
 10
162.3963
 20
52.916
  0
VERTEX
  8
LAYER_1
 10
162.481
 20
52.773
  0
VERTEX
  8
LAYER_1
 10
162.6157
 20
52.6756
  0
VERTEX
  8
LAYER_1
 10
162.7945
 20
52.639
 42
0.1154686558
  0
VERTEX
  8
LAYER_1
 10
162.9733
 20
52.6756
  0
VERTEX
  8
LAYER_1
 10
163.1084
 20
52.773
  0
VERTEX
  8
LAYER_1
 10
163.1931
 20
52.916
  0
SEQEND
  0
ENDBLK
  0
BLOCK
  8
LAYER_1
  2
AIGNBL01030019
 70
64
 10
0
 20
0
 30
0
  3
AIGNBL01030019
  0
POLYLINE
  8
LAYER_1
 40
0.05
 41
0.05
 66
1
 10
0
 20
0
 30
0
 70
1
  0
VERTEX
  8
LAYER_1
 10
164.2639
 20
52.75
  0
VERTEX
  8
LAYER_1
 10
164.2656
 20
52.75
  0
VERTEX
  8
LAYER_1
 10
164.6111
 20
53.605
  0
VERTEX
  8
LAYER_1
 10
164.772
 20
53.605
  0
VERTEX
  8
LAYER_1
 10
164.772
 20
52.5718
  0
VERTEX
  8
LAYER_1
 10
164.6666
 20
52.5718
  0
VERTEX
  8
LAYER_1
 10
164.6666
 20
53.4693
  0
VERTEX
  8
LAYER_1
 10
164.6638
 20
53.4693
  0
VERTEX
  8
LAYER_1
 10
164.2904
 20
52.5718
  0
VERTEX
  8
LAYER_1
 10
164.2349
 20
52.5718
  0
VERTEX
  8
LAYER_1
 10
163.8611
 20
53.4693
  0
VERTEX
  8
LAYER_1
 10
163.8584
 20
53.4693
  0
VERTEX
  8
LAYER_1
 10
163.8584
 20
52.5718
  0
VERTEX
  8
LAYER_1
 10
163.7533
 20
52.5718
  0
VERTEX
  8
LAYER_1
 10
163.7533
 20
53.605
  0
VERTEX
  8
LAYER_1
 10
163.9138
 20
53.605
  0
SEQEND
  0
ENDBLK
  0
BLOCK
  8
LAYER_1
  2
AIGNBL0103001A
 70
64
 10
0
 20
0
 30
0
  3
AIGNBL0103001A
  0
POLYLINE
  8
LAYER_1
 40
0.05
 41
0.05
 66
1
 10
0
 20
0
 30
0
 70
1
  0
VERTEX
  8
LAYER_1
 10
165.9185
 20
52.6656
  0
VERTEX
  8
LAYER_1
 10
166.4718
 20
52.6656
  0
VERTEX
  8
LAYER_1
 10
166.4718
 20
52.5718
  0
VERTEX
  8
LAYER_1
 10
165.8135
 20
52.5718
  0
VERTEX
  8
LAYER_1
 10
165.8135
 20
53.605
  0
VERTEX
  8
LAYER_1
 10
166.4543
 20
53.605
  0
VERTEX
  8
LAYER_1
 10
166.4543
 20
53.5117
  0
VERTEX
  8
LAYER_1
 10
165.9185
 20
53.5117
  0
VERTEX
  8
LAYER_1
 10
165.9185
 20
53.1572
  0
VERTEX
  8
LAYER_1
 10
166.4191
 20
53.1572
  0
VERTEX
  8
LAYER_1
 10
166.4191
 20
53.0638
  0
VERTEX
  8
LAYER_1
 10
165.9185
 20
53.0638
  0
SEQEND
  0
ENDBLK
  0
BLOCK
  8
LAYER_1
  2
AIGNBL0103001B
 70
64
 10
0
 20
0
 30
0
  3
AIGNBL0103001B
  0
POLYLINE
  8
LAYER_1
 40
0.05
 41
0.05
 66
1
 10
0
 20
0
 30
0
 70
1
  0
VERTEX
  8
LAYER_1
 10
167.217
 20
53.1878
  0
VERTEX
  8
LAYER_1
 10
167.4991
 20
53.605
  0
VERTEX
  8
LAYER_1
 10
167.6242
 20
53.605
  0
VERTEX
  8
LAYER_1
 10
167.2818
 20
53.1134
  0
VERTEX
  8
LAYER_1
 10
167.6611
 20
52.5718
  0
VERTEX
  8
LAYER_1
 10
167.5298
 20
52.5718
  0
VERTEX
  8
LAYER_1
 10
167.2142
 20
53.0376
  0
VERTEX
  8
LAYER_1
 10
166.9007
 20
52.5718
  0
VERTEX
  8
LAYER_1
 10
166.7691
 20
52.5718
  0
VERTEX
  8
LAYER_1
 10
167.1488
 20
53.1148
  0
VERTEX
  8
LAYER_1
 10
166.8029
 20
53.605
  0
VERTEX
  8
LAYER_1
 10
166.9345
 20
53.605
  0
SEQEND
  0
ENDBLK
  0
BLOCK
  8
LAYER_1
  2
AIGNBL0103001C
 70
64
 10
0
 20
0
 30
0
  3
AIGNBL0103001C
  0
POLYLINE
  8
LAYER_1
 40
0.05
 41
0.05
 66
1
 10
0
 20
0
 30
0
 70
1
  0
VERTEX
  8
LAYER_1
 10
168.0273
 20
53.605
  0
VERTEX
  8
LAYER_1
 10
168.3194
 20
53.605
  0
VERTEX
  8
LAYER_1
 10
168.4624
 20
53.5885
  0
VERTEX
  8
LAYER_1
 10
168.5723
 20
53.5372
  0
VERTEX
  8
LAYER_1
 10
168.6433
 20
53.451
  0
VERTEX
  8
LAYER_1
 10
168.6677
 20
53.3294
  0
VERTEX
  8
LAYER_1
 10
168.6426
 20
53.2075
  0
VERTEX
  8
LAYER_1
 10
168.5709
 20
53.1214
  0
VERTEX
  8
LAYER_1
 10
168.46
 20
53.0697
  0
VERTEX
  8
LAYER_1
 10
168.3163
 20
53.0521
  0
VERTEX
  8
LAYER_1
 10
168.1323
 20
53.0521
  0
VERTEX
  8
LAYER_1
 10
168.1323
 20
52.5718
  0
VERTEX
  8
LAYER_1
 10
168.0273
 20
52.5718
  0
SEQEND
  0
POLYLINE
  8
LAYER_1
 40
0.05
 41
0.05
 66
1
 10
0
 20
0
 30
0
 70
1
  0
VERTEX
  8
LAYER_1
 10
168.1323
 20
53.141
  0
VERTEX
  8
LAYER_1
 10
168.3101
 20
53.141
 42
0.1826246746
  0
VERTEX
  8
LAYER_1
 10
168.4986
 20
53.1892
 42
0.2345266981
  0
VERTEX
  8
LAYER_1
 10
168.563
 20
53.3294
 42
0.2654535919
  0
VERTEX
  8
LAYER_1
 10
168.4965
 20
53.4703
 42
0.1267184139
  0
VERTEX
  8
LAYER_1
 10
168.3101
 20
53.5148
  0
VERTEX
  8
LAYER_1
 10
168.1323
 20
53.5148
  0
SEQEND
  0
ENDBLK
  0
BLOCK
  8
LAYER_1
  2
AIGNBL0103001D
 70
64
 10
0
 20
0
 30
0
  3
AIGNBL0103001D
  0
POLYLINE
  8
LAYER_1
 40
0.05
 41
0.05
 66
1
 10
0
 20
0
 30
0
 70
1
  0
VERTEX
  8
LAYER_1
 10
169.18
 20
52.6656
  0
VERTEX
  8
LAYER_1
 10
169.7333
 20
52.6656
  0
VERTEX
  8
LAYER_1
 10
169.7333
 20
52.5718
  0
VERTEX
  8
LAYER_1
 10
169.0749
 20
52.5718
  0
VERTEX
  8
LAYER_1
 10
169.0749
 20
53.605
  0
VERTEX
  8
LAYER_1
 10
169.7157
 20
53.605
  0
VERTEX
  8
LAYER_1
 10
169.7157
 20
53.5117
  0
VERTEX
  8
LAYER_1
 10
169.18
 20
53.5117
  0
VERTEX
  8
LAYER_1
 10
169.18
 20
53.1572
  0
VERTEX
  8
LAYER_1
 10
169.6806
 20
53.1572
  0
VERTEX
  8
LAYER_1
 10
169.6806
 20
53.0638
  0
VERTEX
  8
LAYER_1
 10
169.18
 20
53.0638
  0
SEQEND
  0
ENDBLK
  0
BLOCK
  8
LAYER_1
  2
AIGNBL0103001E
 70
64
 10
0
 20
0
 30
0
  3
AIGNBL0103001E
  0
POLYLINE
  8
LAYER_1
 40
0.05
 41
0.05
 66
1
 10
0
 20
0
 30
0
 70
1
  0
VERTEX
  8
LAYER_1
 10
170.2452
 20
52.5718
  0
VERTEX
  8
LAYER_1
 10
170.1401
 20
52.5718
  0
VERTEX
  8
LAYER_1
 10
170.1401
 20
53.605
  0
VERTEX
  8
LAYER_1
 10
170.444
 20
53.605
  0
VERTEX
  8
LAYER_1
 10
170.5846
 20
53.5906
  0
VERTEX
  8
LAYER_1
 10
170.6972
 20
53.543
  0
VERTEX
  8
LAYER_1
 10
170.771
 20
53.4576
  0
VERTEX
  8
LAYER_1
 10
170.7968
 20
53.3294
  0
VERTEX
  8
LAYER_1
 10
170.7768
 20
53.2258
  0
VERTEX
  8
LAYER_1
 10
170.7213
 20
53.1448
  0
VERTEX
  8
LAYER_1
 10
170.638
 20
53.09
  0
VERTEX
  8
LAYER_1
 10
170.5329
 20
53.0638
  0
VERTEX
  8
LAYER_1
 10
170.835
 20
52.5718
  0
VERTEX
  8
LAYER_1
 10
170.7065
 20
52.5718
  0
VERTEX
  8
LAYER_1
 10
170.4206
 20
53.0549
  0
VERTEX
  8
LAYER_1
 10
170.2452
 20
53.0549
  0
SEQEND
  0
POLYLINE
  8
LAYER_1
 40
0.05
 41
0.05
 66
1
 10
0
 20
0
 30
0
 70
1
  0
VERTEX
  8
LAYER_1
 10
170.2452
 20
53.1455
  0
VERTEX
  8
LAYER_1
 10
170.4278
 20
53.1455
 42
0.1667734107
  0
VERTEX
  8
LAYER_1
 10
170.6235
 20
53.1913
 42
0.250658542
  0
VERTEX
  8
LAYER_1
 10
170.6921
 20
53.3294
  0
VERTEX
  8
LAYER_1
 10
170.6731
 20
53.4152
  0
VERTEX
  8
LAYER_1
 10
170.6204
 20
53.4724
  0
VERTEX
  8
LAYER_1
 10
170.5387
 20
53.5044
  0
VERTEX
  8
LAYER_1
 10
170.4323
 20
53.5148
  0
VERTEX
  8
LAYER_1
 10
170.2452
 20
53.5148
  0
SEQEND
  0
ENDBLK
  0
BLOCK
  8
LAYER_1
  2
AIGNBL0103001F
 70
64
 10
0
 20
0
 30
0
  3
AIGNBL0103001F
  0
POLYLINE
  8
LAYER_1
 40
0.05
 41
0.05
 66
1
 10
0
 20
0
 30
0
 70
1
  0
VERTEX
  8
LAYER_1
 10
171.3208
 20
52.5718
  0
VERTEX
  8
LAYER_1
 10
171.2161
 20
52.5718
  0
VERTEX
  8
LAYER_1
 10
171.2161
 20
53.605
  0
VERTEX
  8
LAYER_1
 10
171.3208
 20
53.605
  0
SEQEND
  0
ENDBLK
  0
BLOCK
  8
LAYER_1
  2
AIGNBL01030020
 70
64
 10
0
 20
0
 30
0
  3
AIGNBL01030020
  0
POLYLINE
  8
LAYER_1
 40
0.05
 41
0.05
 66
1
 10
0
 20
0
 30
0
 70
1
  0
VERTEX
  8
LAYER_1
 10
171.9016
 20
52.6656
  0
VERTEX
  8
LAYER_1
 10
172.4546
 20
52.6656
  0
VERTEX
  8
LAYER_1
 10
172.4546
 20
52.5718
  0
VERTEX
  8
LAYER_1
 10
171.7966
 20
52.5718
  0
VERTEX
  8
LAYER_1
 10
171.7966
 20
53.605
  0
VERTEX
  8
LAYER_1
 10
172.4374
 20
53.605
  0
VERTEX
  8
LAYER_1
 10
172.4374
 20
53.5117
  0
VERTEX
  8
LAYER_1
 10
171.9016
 20
53.5117
  0
VERTEX
  8
LAYER_1
 10
171.9016
 20
53.1572
  0
VERTEX
  8
LAYER_1
 10
172.4022
 20
53.1572
  0
VERTEX
  8
LAYER_1
 10
172.4022
 20
53.0638
  0
VERTEX
  8
LAYER_1
 10
171.9016
 20
53.0638
  0
SEQEND
  0
ENDBLK
  0
BLOCK
  8
LAYER_1
  2
AIGNBL01030021
 70
64
 10
0
 20
0
 30
0
  3
AIGNBL01030021
  0
POLYLINE
  8
LAYER_1
 40
0.05
 41
0.05
 66
1
 10
0
 20
0
 30
0
 70
1
  0
VERTEX
  8
LAYER_1
 10
173.5945
 20
52.7252
  0
VERTEX
  8
LAYER_1
 10
173.5973
 20
52.7252
  0
VERTEX
  8
LAYER_1
 10
173.5973
 20
53.605
  0
VERTEX
  8
LAYER_1
 10
173.7024
 20
53.605
  0
VERTEX
  8
LAYER_1
 10
173.7024
 20
52.5718
  0
VERTEX
  8
LAYER_1
 10
173.5711
 20
52.5718
  0
VERTEX
  8
LAYER_1
 10
172.97
 20
53.4607
  0
VERTEX
  8
LAYER_1
 10
172.9668
 20
53.4607
  0
VERTEX
  8
LAYER_1
 10
172.9668
 20
52.5718
  0
VERTEX
  8
LAYER_1
 10
172.8618
 20
52.5718
  0
VERTEX
  8
LAYER_1
 10
172.8618
 20
53.605
  0
VERTEX
  8
LAYER_1
 10
172.9934
 20
53.605
  0
SEQEND
  0
ENDBLK
  0
BLOCK
  8
LAYER_1
  2
AIGNBL01030022
 70
64
 10
0
 20
0
 30
0
  3
AIGNBL01030022
  0
POLYLINE
  8
LAYER_1
 40
0.05
 41
0.05
 66
1
 10
0
 20
0
 30
0
 70
1
  0
VERTEX
  8
LAYER_1
 10
175.0481
 20
52.7396
  0
VERTEX
  8
LAYER_1
 10
174.9843
 20
52.6652
  0
VERTEX
  8
LAYER_1
 10
174.8982
 20
52.6036
  0
VERTEX
  8
LAYER_1
 10
174.79
 20
52.5612
  0
VERTEX
  8
LAYER_1
 10
174.6612
 20
52.5457
 42
-0.1011939289
  0
VERTEX
  8
LAYER_1
 10
174.4452
 20
52.5867
 42
-0.1043036755
  0
VERTEX
  8
LAYER_1
 10
174.2746
 20
52.6997
 42
-0.09799648565
  0
VERTEX
  8
LAYER_1
 10
174.163
 20
52.8712
 42
-0.09232353501
  0
VERTEX
  8
LAYER_1
 10
174.1227
 20
53.0886
 42
-0.1041417446
  0
VERTEX
  8
LAYER_1
 10
174.1637
 20
53.306
 42
-0.1000549391
  0
VERTEX
  8
LAYER_1
 10
174.2764
 20
53.4776
 42
-0.09522802185
  0
VERTEX
  8
LAYER_1
 10
174.4472
 20
53.5906
 42
-0.0950295922
  0
VERTEX
  8
LAYER_1
 10
174.6612
 20
53.6316
  0
VERTEX
  8
LAYER_1
 10
174.7728
 20
53.6195
  0
VERTEX
  8
LAYER_1
 10
174.8758
 20
53.5861
  0
VERTEX
  8
LAYER_1
 10
174.9633
 20
53.5344
  0
VERTEX
  8
LAYER_1
 10
175.0291
 20
53.4666
  0
VERTEX
  8
LAYER_1
 10
174.9416
 20
53.4021
  0
VERTEX
  8
LAYER_1
 10
174.8982
 20
53.4521
  0
VERTEX
  8
LAYER_1
 10
174.8348
 20
53.4958
  0
VERTEX
  8
LAYER_1
 10
174.7552
 20
53.5265
  0
VERTEX
  8
LAYER_1
 10
174.6625
 20
53.5382
  0
VERTEX
  8
LAYER_1
 10
174.4823
 20
53.5017
  0
VERTEX
  8
LAYER_1
 10
174.3473
 20
53.4035
  0
VERTEX
  8
LAYER_1
 10
174.2626
 20
53.2602
  0
VERTEX
  8
LAYER_1
 10
174.2336
 20
53.0886
  0
VERTEX
  8
LAYER_1
 10
174.2636
 20
52.9171
  0
VERTEX
  8
LAYER_1
 10
174.349
 20
52.7737
  0
VERTEX
  8
LAYER_1
 10
174.4841
 20
52.6756
 42
0.1013142651
  0
VERTEX
  8
LAYER_1
 10
174.6625
 20
52.639
  0
VERTEX
  8
LAYER_1
 10
174.8317
 20
52.6756
 42
0.1322996151
  0
VERTEX
  8
LAYER_1
 10
174.966
 20
52.7923
  0
SEQEND
  0
ENDBLK
  0
BLOCK
  8
LAYER_1
  2
AIGNBL01030023
 70
64
 10
0
 20
0
 30
0
  3
AIGNBL01030023
  0
POLYLINE
  8
LAYER_1
 40
0.05
 41
0.05
 66
1
 10
0
 20
0
 30
0
 70
1
  0
VERTEX
  8
LAYER_1
 10
175.5352
 20
52.6656
  0
VERTEX
  8
LAYER_1
 10
176.0885
 20
52.6656
  0
VERTEX
  8
LAYER_1
 10
176.0885
 20
52.5718
  0
VERTEX
  8
LAYER_1
 10
175.4301
 20
52.5718
  0
VERTEX
  8
LAYER_1
 10
175.4301
 20
53.605
  0
VERTEX
  8
LAYER_1
 10
176.0709
 20
53.605
  0
VERTEX
  8
LAYER_1
 10
176.0709
 20
53.5117
  0
VERTEX
  8
LAYER_1
 10
175.5352
 20
53.5117
  0
VERTEX
  8
LAYER_1
 10
175.5352
 20
53.1572
  0
VERTEX
  8
LAYER_1
 10
176.0358
 20
53.1572
  0
VERTEX
  8
LAYER_1
 10
176.0358
 20
53.0638
  0
VERTEX
  8
LAYER_1
 10
175.5352
 20
53.0638
  0
SEQEND
  0
ENDBLK
  0
BLOCK
  8
LAYER_1
  2
AIGNBL01020003
 70
64
 10
0
 20
0
 30
0
  3
AIGNBL01020003
  0
INSERT
  8
LAYER_1
  2
AIGNBL01030004
 10
0
 20
0
 30
0
  0
ENDBLK
  0
BLOCK
  8
LAYER_1
  2
AIGNBL0102000C
 70
64
 10
0
 20
0
 30
0
  3
AIGNBL0102000C
  0
INSERT
  8
LAYER_1
  2
AIGNBL0103000D
 10
0
 20
0
 30
0
  0
INSERT
  8
LAYER_1
  2
AIGNBL0103000E
 10
0
 20
0
 30
0
  0
INSERT
  8
LAYER_1
  2
AIGNBL0103000F
 10
0
 20
0
 30
0
  0
INSERT
  8
LAYER_1
  2
AIGNBL01030010
 10
0
 20
0
 30
0
  0
INSERT
  8
LAYER_1
  2
AIGNBL01030011
 10
0
 20
0
 30
0
  0
INSERT
  8
LAYER_1
  2
AIGNBL01030012
 10
0
 20
0
 30
0
  0
INSERT
  8
LAYER_1
  2
AIGNBL01030013
 10
0
 20
0
 30
0
  0
INSERT
  8
LAYER_1
  2
AIGNBL01030014
 10
0
 20
0
 30
0
  0
INSERT
  8
LAYER_1
  2
AIGNBL01030015
 10
0
 20
0
 30
0
  0
INSERT
  8
LAYER_1
  2
AIGNBL01030016
 10
0
 20
0
 30
0
  0
INSERT
  8
LAYER_1
  2
AIGNBL01030017
 10
0
 20
0
 30
0
  0
INSERT
  8
LAYER_1
  2
AIGNBL01030018
 10
0
 20
0
 30
0
  0
INSERT
  8
LAYER_1
  2
AIGNBL01030019
 10
0
 20
0
 30
0
  0
INSERT
  8
LAYER_1
  2
AIGNBL0103001A
 10
0
 20
0
 30
0
  0
INSERT
  8
LAYER_1
  2
AIGNBL0103001B
 10
0
 20
0
 30
0
  0
INSERT
  8
LAYER_1
  2
AIGNBL0103001C
 10
0
 20
0
 30
0
  0
INSERT
  8
LAYER_1
  2
AIGNBL0103001D
 10
0
 20
0
 30
0
  0
INSERT
  8
LAYER_1
  2
AIGNBL0103001E
 10
0
 20
0
 30
0
  0
INSERT
  8
LAYER_1
  2
AIGNBL0103001F
 10
0
 20
0
 30
0
  0
INSERT
  8
LAYER_1
  2
AIGNBL01030020
 10
0
 20
0
 30
0
  0
INSERT
  8
LAYER_1
  2
AIGNBL01030021
 10
0
 20
0
 30
0
  0
INSERT
  8
LAYER_1
  2
AIGNBL01030022
 10
0
 20
0
 30
0
  0
INSERT
  8
LAYER_1
  2
AIGNBL01030023
 10
0
 20
0
 30
0
  0
ENDBLK
  0
BLOCK
  8
LAYER_1
  2
AIGNBL01010002
 70
64
 10
0
 20
0
 30
0
  3
AIGNBL01010002
  0
INSERT
  8
LAYER_1
  2
AIGNBL01020003
 10
0
 20
0
 30
0
  0
INSERT
  8
LAYER_1
  2
AIGNBL0102000C
 10
0
 20
0
 30
0
  0
ENDBLK
  0
BLOCK
  8
LAYER_1
  2
AIGNBL01010024
 70
64
 10
0
 20
0
 30
0
  3
AIGNBL01010024
  0
POLYLINE
  8
LAYER_1
 40
0.05
 41
0.05
 66
1
 10
0
 20
0
 30
0
 70
1
  0
VERTEX
  8
LAYER_1
 10
0.316
 20
156.2706
  0
VERTEX
  8
LAYER_1
 10
0.316
 20
155.5721
  0
VERTEX
  8
LAYER_1
 10
113.4307
 20
155.5721
  0
VERTEX
  8
LAYER_1
 10
113.4307
 20
156.2706
  0
SEQEND
  0
ENDBLK
  0
BLOCK
  8
LAYER_1
  2
AIGNBL01010025
 70
64
 10
0
 20
0
 30
0
  3
AIGNBL01010025
  0
POLYLINE
  8
LAYER_1
 40
0.0847
 41
0.0847
 66
1
 10
0
 20
0
 30
0
 70
1
  0
VERTEX
  8
LAYER_1
 10
0.316
 20
156.2706
  0
VERTEX
  8
LAYER_1
 10
0.316
 20
155.5721
  0
VERTEX
  8
LAYER_1
 10
113.4307
 20
155.5721
  0
VERTEX
  8
LAYER_1
 10
113.4307
 20
156.2706
  0
SEQEND
  0
ENDBLK
  0
ENDSEC
  0
SECTION
  2
ENTITIES
  0
TEXT
  8
LAYER_1
 10
179.1539
 20
56.1441
 11
179.1539
 21
56.1441
 40
3.3848
 41
0.5
  1
●TEL 0120-65-1232●FAX 06-6532-1580
  0
TEXT
  8
LAYER_1
 10
179.1539
 20
52.6294
 11
179.1539
 21
52.6294
 40
3.3848
 41
0.5
  1
hits@hiratatile.co.jp
  0
INSERT
  8
LAYER_1
  2
AIGNBL01010002
 10
0
 20
0
 30
0
  0
POLYLINE
  8
LAYER_1
 40
0.254
 41
0.254
 66
1
 10
0
 20
0
 30
0
  0
VERTEX
  8
LAYER_1
 10
-37.6156
 20
66.4584
  0
VERTEX
  8
LAYER_1
 10
246.5014
 20
66.4584
  0
SEQEND
  0
POLYLINE
  8
LAYER_1
 40
0.05
 41
0.05
 66
1
 10
0
 20
0
 30
0
 70
1
  0
VERTEX
  8
LAYER_1
 10
0.316
 20
222.0143
  0
VERTEX
  8
LAYER_1
 10
0.316
 20
156.2706
  0
VERTEX
  8
LAYER_1
 10
1.0145
 20
156.2706
  0
VERTEX
  8
LAYER_1
 10
1.0145
 20
222.0143
  0
SEQEND
  0
POLYLINE
  8
LAYER_1
 40
0.0847
 41
0.0847
 66
1
 10
0
 20
0
 30
0
 70
1
  0
VERTEX
  8
LAYER_1
 10
0.316
 20
222.0143
  0
VERTEX
  8
LAYER_1
 10
0.316
 20
156.2706
  0
VERTEX
  8
LAYER_1
 10
1.0145
 20
156.2706
  0
VERTEX
  8
LAYER_1
 10
1.0145
 20
222.0143
  0
SEQEND
  0
INSERT
  8
LAYER_1
  2
AIGNBL01010024
 10
0
 20
0
 30
0
  0
INSERT
  8
LAYER_1
  2
AIGNBL01010025
 10
0
 20
0
 30
0
  0
POLYLINE
  8
LAYER_1
 40
0.05
 41
0.05
 66
1
 10
0
 20
0
 30
0
 70
1
  0
VERTEX
  8
LAYER_1
 10
1.0145
 20
222.0143
  0
VERTEX
  8
LAYER_1
 10
1.0145
 20
221.2946
  0
VERTEX
  8
LAYER_1
 10
112.711
 20
221.2946
  0
VERTEX
  8
LAYER_1
 10
112.711
 20
222.0143
  0
SEQEND
  0
POLYLINE
  8
LAYER_1
 40
0.0847
 41
0.0847
 66
1
 10
0
 20
0
 30
0
 70
1
  0
VERTEX
  8
LAYER_1
 10
1.0145
 20
222.0143
  0
VERTEX
  8
LAYER_1
 10
1.0145
 20
221.2946
  0
VERTEX
  8
LAYER_1
 10
112.711
 20
221.2946
  0
VERTEX
  8
LAYER_1
 10
112.711
 20
222.0143
  0
SEQEND
  0
POLYLINE
  8
LAYER_1
 40
0.05
 41
0.05
 66
1
 10
0
 20
0
 30
0
 70
1
  0
VERTEX
  8
LAYER_1
 10
112.711
 20
222.0143
  0
VERTEX
  8
LAYER_1
 10
112.711
 20
156.2706
  0
VERTEX
  8
LAYER_1
 10
113.4307
 20
156.2706
  0
VERTEX
  8
LAYER_1
 10
113.4307
 20
222.0143
  0
SEQEND
  0
POLYLINE
  8
LAYER_1
 40
0.0847
 41
0.0847
 66
1
 10
0
 20
0
 30
0
 70
1
  0
VERTEX
  8
LAYER_1
 10
112.711
 20
222.0143
  0
VERTEX
  8
LAYER_1
 10
112.711
 20
156.2706
  0
VERTEX
  8
LAYER_1
 10
113.4307
 20
156.2706
  0
VERTEX
  8
LAYER_1
 10
113.4307
 20
222.0143
  0
SEQEND
  0
POLYLINE
  8
LAYER_1
 40
0.05
 41
0.05
 66
1
 10
0
 20
0
 30
0
 70
1
  0
VERTEX
  8
LAYER_1
 10
113.4307
 20
110.9104
  0
VERTEX
  8
LAYER_1
 10
113.4307
 20
110.4871
  0
VERTEX
  8
LAYER_1
 10
112.711
 20
110.4871
  0
VERTEX
  8
LAYER_1
 10
112.711
 20
110.9104
  0
SEQEND
  0
POLYLINE
  8
LAYER_1
 40
0.0847
 41
0.0847
 66
1
 10
0
 20
0
 30
0
 70
1
  0
VERTEX
  8
LAYER_1
 10
113.4307
 20
110.9104
  0
VERTEX
  8
LAYER_1
 10
113.4307
 20
110.4871
  0
VERTEX
  8
LAYER_1
 10
112.711
 20
110.4871
  0
VERTEX
  8
LAYER_1
 10
112.711
 20
110.9104
  0
SEQEND
  0
POLYLINE
  8
LAYER_1
 40
0.05
 41
0.05
 66
1
 10
0
 20
0
 30
0
 70
1
  0
VERTEX
  8
LAYER_1
 10
0.316
 20
110.9104
  0
VERTEX
  8
LAYER_1
 10
0.316
 20
110.4871
  0
VERTEX
  8
LAYER_1
 10
1.0145
 20
110.4871
  0
VERTEX
  8
LAYER_1
 10
1.0145
 20
110.9104
  0
SEQEND
  0
POLYLINE
  8
LAYER_1
 40
0.0847
 41
0.0847
 66
1
 10
0
 20
0
 30
0
 70
1
  0
VERTEX
  8
LAYER_1
 10
0.316
 20
110.9104
  0
VERTEX
  8
LAYER_1
 10
0.316
 20
110.4871
  0
VERTEX
  8
LAYER_1
 10
1.0145
 20
110.4871
  0
VERTEX
  8
LAYER_1
 10
1.0145
 20
110.9104
  0
SEQEND
  0
POLYLINE
  8
LAYER_1
 40
0.05
 41
0.05
 66
1
 10
0
 20
0
 30
0
 70
1
  0
VERTEX
  8
LAYER_1
 10
164.0825
 20
110.9104
  0
VERTEX
  8
LAYER_1
 10
164.0825
 20
110.4871
  0
VERTEX
  8
LAYER_1
 10
163.384
 20
110.4871
  0
VERTEX
  8
LAYER_1
 10
163.384
 20
110.9104
  0
SEQEND
  0
POLYLINE
  8
LAYER_1
 40
0.0847
 41
0.0847
 66
1
 10
0
 20
0
 30
0
 70
1
  0
VERTEX
  8
LAYER_1
 10
164.0825
 20
110.9104
  0
VERTEX
  8
LAYER_1
 10
164.0825
 20
110.4871
  0
VERTEX
  8
LAYER_1
 10
163.384
 20
110.4871
  0
VERTEX
  8
LAYER_1
 10
163.384
 20
110.9104
  0
SEQEND
  0
POLYLINE
  8
LAYER_1
 40
0.05
 41
0.05
 66
1
 10
0
 20
0
 30
0
 70
1
  0
VERTEX
  8
LAYER_1
 10
229.1277
 20
110.9104
  0
VERTEX
  8
LAYER_1
 10
229.1277
 20
110.4871
  0
VERTEX
  8
LAYER_1
 10
229.8473
 20
110.4871
  0
VERTEX
  8
LAYER_1
 10
229.8473
 20
110.9104
  0
SEQEND
  0
POLYLINE
  8
LAYER_1
 40
0.0847
 41
0.0847
 66
1
 10
0
 20
0
 30
0
 70
1
  0
VERTEX
  8
LAYER_1
 10
229.1277
 20
110.9104
  0
VERTEX
  8
LAYER_1
 10
229.1277
 20
110.4871
  0
VERTEX
  8
LAYER_1
 10
229.8473
 20
110.4871
  0
VERTEX
  8
LAYER_1
 10
229.8473
 20
110.9104
  0
SEQEND
  0
POLYLINE
  8
LAYER_1
 40
0.05
 41
0.05
 66
1
 10
0
 20
0
 30
0
 70
1
  0
VERTEX
  8
LAYER_1
 10
205.6962
 20
176.0826
  0
VERTEX
  8
LAYER_1
 10
205.6962
 20
173.9448
  0
VERTEX
  8
LAYER_1
 10
202.1613
 20
173.9448
  0
VERTEX
  8
LAYER_1
 10
202.1613
 20
176.0826
  0
SEQEND
  0
POLYLINE
  8
LAYER_1
 40
0.0847
 41
0.0847
 66
1
 10
0
 20
0
 30
0
 70
1
  0
VERTEX
  8
LAYER_1
 10
205.6962
 20
176.0826
  0
VERTEX
  8
LAYER_1
 10
205.6962
 20
173.9448
  0
VERTEX
  8
LAYER_1
 10
202.1613
 20
173.9448
  0
VERTEX
  8
LAYER_1
 10
202.1613
 20
176.0826
  0
SEQEND
  0
POLYLINE
  8
LAYER_1
 40
0.0847
 41
0.0847
 66
1
 10
0
 20
0
 30
0
  0
VERTEX
  8
LAYER_1
 10
113.4307
 20
155.5721
  0
VERTEX
  8
LAYER_1
 10
113.4307
 20
156.2706
  0
SEQEND
  0
POLYLINE
  8
LAYER_1
 40
0.0847
 41
0.0847
 66
1
 10
0
 20
0
 30
0
  0
VERTEX
  8
LAYER_1
 10
7.3857
 20
157.9428
  0
VERTEX
  8
LAYER_1
 10
7.3857
 20
219.6013
  0
SEQEND
  0
POLYLINE
  8
LAYER_1
 40
0.0847
 41
0.0847
 66
1
 10
0
 20
0
 30
0
  0
VERTEX
  8
LAYER_1
 10
7.3857
 20
157.9428
  0
VERTEX
  8
LAYER_1
 10
106.361
 20
157.9428
  0
SEQEND
  0
POLYLINE
  8
LAYER_1
 40
0.0847
 41
0.0847
 66
1
 10
0
 20
0
 30
0
  0
VERTEX
  8
LAYER_1
 10
7.3857
 20
219.6013
  0
VERTEX
  8
LAYER_1
 10
106.361
 20
219.6013
  0
SEQEND
  0
POLYLINE
  8
LAYER_1
 40
0.0847
 41
0.0847
 66
1
 10
0
 20
0
 30
0
  0
VERTEX
  8
LAYER_1
 10
106.361
 20
157.9428
  0
VERTEX
  8
LAYER_1
 10
106.361
 20
219.6013
  0
SEQEND
  0
POLYLINE
  8
LAYER_1
 40
0.0847
 41
0.0847
 66
1
 10
0
 20
0
 30
0
  0
VERTEX
  8
LAYER_1
 10
50.735
 20
182.6231
  0
VERTEX
  8
LAYER_1
 10
63.0328
 20
182.6231
  0
VERTEX
  8
LAYER_1
 10
63.0328
 20
194.9209
  0
SEQEND
  0
POLYLINE
  8
LAYER_1
 40
0.0847
 41
0.0847
 66
1
 10
0
 20
0
 30
0
  0
VERTEX
  8
LAYER_1
 10
50.735
 20
194.9209
  0
VERTEX
  8
LAYER_1
 10
63.0328
 20
194.9209
  0
SEQEND
  0
POLYLINE
  8
LAYER_1
 40
0.0847
 41
0.0847
 66
1
 10
0
 20
0
 30
0
  0
VERTEX
  8
LAYER_1
 10
50.735
 20
182.6231
  0
VERTEX
  8
LAYER_1
 10
50.735
 20
194.9209
  0
SEQEND
  0
POLYLINE
  8
LAYER_1
 40
0.0847
 41
0.0847
 66
1
 10
0
 20
0
 30
0
  0
VERTEX
  8
LAYER_1
 10
63.0328
 20
194.9209
  0
VERTEX
  8
LAYER_1
 10
106.361
 20
219.6013
  0
SEQEND
  0
POLYLINE
  8
LAYER_1
 40
0.0847
 41
0.0847
 66
1
 10
0
 20
0
 30
0
  0
VERTEX
  8
LAYER_1
 10
63.0328
 20
182.6231
  0
VERTEX
  8
LAYER_1
 10
106.361
 20
157.9428
  0
SEQEND
  0
POLYLINE
  8
LAYER_1
 40
0.0847
 41
0.0847
 66
1
 10
0
 20
0
 30
0
  0
VERTEX
  8
LAYER_1
 10
50.735
 20
182.6231
  0
VERTEX
  8
LAYER_1
 10
7.3857
 20
157.9428
  0
SEQEND
  0
POLYLINE
  8
LAYER_1
 40
0.0847
 41
0.0847
 66
1
 10
0
 20
0
 30
0
  0
VERTEX
  8
LAYER_1
 10
50.735
 20
194.9209
  0
VERTEX
  8
LAYER_1
 10
7.3857
 20
219.6013
  0
SEQEND
  0
POLYLINE
  8
LAYER_1
 40
0.0847
 41
0.0847
 66
1
 10
0
 20
0
 30
0
  0
VERTEX
  8
LAYER_1
 10
61.8052
 20
188.8038
 42
0.4143411989
  0
VERTEX
  8
LAYER_1
 10
56.8522
 20
193.7356
 42
0.4152361454
  0
VERTEX
  8
LAYER_1
 10
51.9203
 20
188.8038
 42
0.4143491743
  0
VERTEX
  8
LAYER_1
 10
56.8522
 20
183.8508
 42
0.4134612679
  0
VERTEX
  8
LAYER_1
 10
61.8052
 20
188.8038
  0
SEQEND
  0
POLYLINE
  8
LAYER_1
 40
0.0847
 41
0.0847
 66
1
 10
0
 20
0
 30
0
  0
VERTEX
  8
LAYER_1
 10
60.1118
 20
188.8038
 42
0.4152999125
  0
VERTEX
  8
LAYER_1
 10
56.8522
 20
192.0423
 42
0.4166667208
  0
VERTEX
  8
LAYER_1
 10
53.6137
 20
188.8038
 42
0.4153115679
  0
VERTEX
  8
LAYER_1
 10
56.8522
 20
185.5441
 42
0.413961091
  0
VERTEX
  8
LAYER_1
 10
60.1118
 20
188.8038
  0
SEQEND
  0
POLYLINE
  8
LAYER_1
 40
0.0847
 41
0.0847
 66
1
 10
0
 20
0
 30
0
  0
VERTEX
  8
LAYER_1
 10
0.9933
 20
221.9931
 42
0.4218414234
  0
VERTEX
  8
LAYER_1
 10
0.316
 20
221.3158
  0
SEQEND
  0
POLYLINE
  8
LAYER_1
 40
0.0847
 41
0.0847
 66
1
 10
0
 20
0
 30
0
  0
VERTEX
  8
LAYER_1
 10
1.0145
 20
222.0143
  0
VERTEX
  8
LAYER_1
 10
112.711
 20
222.0143
  0
SEQEND
  0
POLYLINE
  8
LAYER_1
 40
0.0847
 41
0.0847
 66
1
 10
0
 20
0
 30
0
  0
VERTEX
  8
LAYER_1
 10
113.4095
 20
221.3158
 42
0.4039199071
  0
VERTEX
  8
LAYER_1
 10
112.711
 20
221.9931
  0
VERTEX
  8
LAYER_1
 10
112.6898
 20
221.9931
  0
SEQEND
  0
POLYLINE
  8
LAYER_1
 40
0.0847
 41
0.0847
 66
1
 10
0
 20
0
 30
0
  0
VERTEX
  8
LAYER_1
 10
113.4307
 20
156.2706
  0
VERTEX
  8
LAYER_1
 10
113.4307
 20
221.2946
  0
SEQEND
  0
POLYLINE
  8
LAYER_1
 40
0.0847
 41
0.0847
 66
1
 10
0
 20
0
 30
0
  0
VERTEX
  8
LAYER_1
 10
112.6898
 20
155.5721
  0
VERTEX
  8
LAYER_1
 10
112.711
 20
155.5721
 42
0.4090949283
  0
VERTEX
  8
LAYER_1
 10
113.4095
 20
156.2706
  0
VERTEX
  8
LAYER_1
 10
113.4095
 20
156.2918
  0
SEQEND
  0
POLYLINE
  8
LAYER_1
 40
0.0847
 41
0.0847
 66
1
 10
0
 20
0
 30
0
  0
VERTEX
  8
LAYER_1
 10
0.316
 20
156.2706
  0
VERTEX
  8
LAYER_1
 10
0.316
 20
221.2946
  0
SEQEND
  0
POLYLINE
  8
LAYER_1
 40
0.0847
 41
0.0847
 66
1
 10
0
 20
0
 30
0
  0
VERTEX
  8
LAYER_1
 10
1.0145
 20
155.5721
  0
VERTEX
  8
LAYER_1
 10
112.711
 20
155.5721
  0
SEQEND
  0
POLYLINE
  8
LAYER_1
 40
0.0847
 41
0.0847
 66
1
 10
0
 20
0
 30
0
  0
VERTEX
  8
LAYER_1
 10
0.316
 20
156.2918
  0
VERTEX
  8
LAYER_1
 10
0.316
 20
156.2706
 42
0.4039238453
  0
VERTEX
  8
LAYER_1
 10
0.9933
 20
155.5721
  0
SEQEND
  0
POLYLINE
  8
LAYER_1
 40
0.0847
 41
0.0847
 66
1
 10
0
 20
0
 30
0
  0
VERTEX
  8
LAYER_1
 10
0.316
 20
121.0916
  0
VERTEX
  8
LAYER_1
 10
0.316
 20
121.5149
  0
SEQEND
  0
POLYLINE
  8
LAYER_1
 40
0.0847
 41
0.0847
 66
1
 10
0
 20
0
 30
0
  0
VERTEX
  8
LAYER_1
 10
0.316
 20
122.4039
  0
VERTEX
  8
LAYER_1
 10
0.316
 20
123.2718
  0
SEQEND
  0
POLYLINE
  8
LAYER_1
 40
0.0847
 41
0.0847
 66
1
 10
0
 20
0
 30
0
  0
VERTEX
  8
LAYER_1
 10
0.316
 20
124.1608
  0
VERTEX
  8
LAYER_1
 10
0.316
 20
125.0286
  0
SEQEND
  0
POLYLINE
  8
LAYER_1
 40
0.0847
 41
0.0847
 66
1
 10
0
 20
0
 30
0
  0
VERTEX
  8
LAYER_1
 10
0.316
 20
125.9176
  0
VERTEX
  8
LAYER_1
 10
0.316
 20
126.8066
  0
SEQEND
  0
POLYLINE
  8
LAYER_1
 40
0.0847
 41
0.0847
 66
1
 10
0
 20
0
 30
0
  0
VERTEX
  8
LAYER_1
 10
0.316
 20
127.6744
  0
VERTEX
  8
LAYER_1
 10
0.316
 20
128.5634
  0
SEQEND
  0
POLYLINE
  8
LAYER_1
 40
0.0847
 41
0.0847
 66
1
 10
0
 20
0
 30
0
  0
VERTEX
  8
LAYER_1
 10
0.316
 20
129.4313
  0
VERTEX
  8
LAYER_1
 10
0.316
 20
130.3203
  0
SEQEND
  0
POLYLINE
  8
LAYER_1
 40
0.0847
 41
0.0847
 66
1
 10
0
 20
0
 30
0
  0
VERTEX
  8
LAYER_1
 10
0.316
 20
131.1881
  0
VERTEX
  8
LAYER_1
 10
0.316
 20
132.0771
  0
SEQEND
  0
POLYLINE
  8
LAYER_1
 40
0.0847
 41
0.0847
 66
1
 10
0
 20
0
 30
0
  0
VERTEX
  8
LAYER_1
 10
0.316
 20
132.945
  0
VERTEX
  8
LAYER_1
 10
0.316
 20
133.834
  0
SEQEND
  0
POLYLINE
  8
LAYER_1
 40
0.0847
 41
0.0847
 66
1
 10
0
 20
0
 30
0
  0
VERTEX
  8
LAYER_1
 10
0.316
 20
134.723
  0
VERTEX
  8
LAYER_1
 10
0.316
 20
135.5908
  0
SEQEND
  0
POLYLINE
  8
LAYER_1
 40
0.0847
 41
0.0847
 66
1
 10
0
 20
0
 30
0
  0
VERTEX
  8
LAYER_1
 10
0.316
 20
136.4798
  0
VERTEX
  8
LAYER_1
 10
0.316
 20
137.3476
  0
SEQEND
  0
POLYLINE
  8
LAYER_1
 40
0.0847
 41
0.0847
 66
1
 10
0
 20
0
 30
0
  0
VERTEX
  8
LAYER_1
 10
0.316
 20
138.2366
  0
VERTEX
  8
LAYER_1
 10
0.316
 20
139.1045
  0
SEQEND
  0
POLYLINE
  8
LAYER_1
 40
0.0847
 41
0.0847
 66
1
 10
0
 20
0
 30
0
  0
VERTEX
  8
LAYER_1
 10
0.316
 20
139.9935
  0
VERTEX
  8
LAYER_1
 10
0.316
 20
140.8613
  0
SEQEND
  0
POLYLINE
  8
LAYER_1
 40
0.0847
 41
0.0847
 66
1
 10
0
 20
0
 30
0
  0
VERTEX
  8
LAYER_1
 10
0.316
 20
141.7503
  0
VERTEX
  8
LAYER_1
 10
0.316
 20
142.6181
  0
SEQEND
  0
POLYLINE
  8
LAYER_1
 40
0.0847
 41
0.0847
 66
1
 10
0
 20
0
 30
0
  0
VERTEX
  8
LAYER_1
 10
0.316
 20
143.5071
  0
VERTEX
  8
LAYER_1
 10
0.316
 20
144.3961
  0
SEQEND
  0
POLYLINE
  8
LAYER_1
 40
0.0847
 41
0.0847
 66
1
 10
0
 20
0
 30
0
  0
VERTEX
  8
LAYER_1
 10
0.316
 20
145.264
  0
VERTEX
  8
LAYER_1
 10
0.316
 20
146.153
  0
SEQEND
  0
POLYLINE
  8
LAYER_1
 40
0.0847
 41
0.0847
 66
1
 10
0
 20
0
 30
0
  0
VERTEX
  8
LAYER_1
 10
0.316
 20
147.0208
  0
VERTEX
  8
LAYER_1
 10
0.316
 20
147.9098
  0
SEQEND
  0
POLYLINE
  8
LAYER_1
 40
0.0847
 41
0.0847
 66
1
 10
0
 20
0
 30
0
  0
VERTEX
  8
LAYER_1
 10
0.316
 20
148.7777
  0
VERTEX
  8
LAYER_1
 10
0.316
 20
149.6667
  0
SEQEND
  0
POLYLINE
  8
LAYER_1
 40
0.0847
 41
0.0847
 66
1
 10
0
 20
0
 30
0
  0
VERTEX
  8
LAYER_1
 10
0.316
 20
150.5345
  0
VERTEX
  8
LAYER_1
 10
0.316
 20
151.4235
  0
SEQEND
  0
POLYLINE
  8
LAYER_1
 40
0.0847
 41
0.0847
 66
1
 10
0
 20
0
 30
0
  0
VERTEX
  8
LAYER_1
 10
0.316
 20
152.3125
  0
VERTEX
  8
LAYER_1
 10
0.316
 20
153.1803
  0
SEQEND
  0
POLYLINE
  8
LAYER_1
 40
0.0847
 41
0.0847
 66
1
 10
0
 20
0
 30
0
  0
VERTEX
  8
LAYER_1
 10
0.316
 20
154.0693
  0
VERTEX
  8
LAYER_1
 10
0.316
 20
154.9372
  0
SEQEND
  0
POLYLINE
  8
LAYER_1
 40
0.0847
 41
0.0847
 66
1
 10
0
 20
0
 30
0
  0
VERTEX
  8
LAYER_1
 10
0.316
 20
155.8262
  0
VERTEX
  8
LAYER_1
 10
0.316
 20
156.2707
  0
SEQEND
  0
POLYLINE
  8
LAYER_1
 40
0.0847
 41
0.0847
 66
1
 10
0
 20
0
 30
0
  0
VERTEX
  8
LAYER_1
 10
113.4307
 20
121.0917
  0
VERTEX
  8
LAYER_1
 10
113.4307
 20
121.515
  0
SEQEND
  0
POLYLINE
  8
LAYER_1
 40
0.0847
 41
0.0847
 66
1
 10
0
 20
0
 30
0
  0
VERTEX
  8
LAYER_1
 10
113.4307
 20
122.404
  0
VERTEX
  8
LAYER_1
 10
113.4307
 20
123.2718
  0
SEQEND
  0
POLYLINE
  8
LAYER_1
 40
0.0847
 41
0.0847
 66
1
 10
0
 20
0
 30
0
  0
VERTEX
  8
LAYER_1
 10
113.4307
 20
124.1608
  0
VERTEX
  8
LAYER_1
 10
113.4307
 20
125.0287
  0
SEQEND
  0
POLYLINE
  8
LAYER_1
 40
0.0847
 41
0.0847
 66
1
 10
0
 20
0
 30
0
  0
VERTEX
  8
LAYER_1
 10
113.4307
 20
125.9177
  0
VERTEX
  8
LAYER_1
 10
113.4307
 20
126.8067
  0
SEQEND
  0
POLYLINE
  8
LAYER_1
 40
0.0847
 41
0.0847
 66
1
 10
0
 20
0
 30
0
  0
VERTEX
  8
LAYER_1
 10
113.4307
 20
127.6745
  0
VERTEX
  8
LAYER_1
 10
113.4307
 20
128.5635
  0
SEQEND
  0
POLYLINE
  8
LAYER_1
 40
0.0847
 41
0.0847
 66
1
 10
0
 20
0
 30
0
  0
VERTEX
  8
LAYER_1
 10
113.4307
 20
129.4314
  0
VERTEX
  8
LAYER_1
 10
113.4307
 20
130.3204
  0
SEQEND
  0
POLYLINE
  8
LAYER_1
 40
0.0847
 41
0.0847
 66
1
 10
0
 20
0
 30
0
  0
VERTEX
  8
LAYER_1
 10
113.4307
 20
131.1882
  0
VERTEX
  8
LAYER_1
 10
113.4307
 20
132.0772
  0
SEQEND
  0
POLYLINE
  8
LAYER_1
 40
0.0847
 41
0.0847
 66
1
 10
0
 20
0
 30
0
  0
VERTEX
  8
LAYER_1
 10
113.4307
 20
132.945
  0
VERTEX
  8
LAYER_1
 10
113.4307
 20
133.834
  0
SEQEND
  0
POLYLINE
  8
LAYER_1
 40
0.0847
 41
0.0847
 66
1
 10
0
 20
0
 30
0
  0
VERTEX
  8
LAYER_1
 10
113.4307
 20
134.723
  0
VERTEX
  8
LAYER_1
 10
113.4307
 20
135.5909
  0
SEQEND
  0
POLYLINE
  8
LAYER_1
 40
0.0847
 41
0.0847
 66
1
 10
0
 20
0
 30
0
  0
VERTEX
  8
LAYER_1
 10
113.4307
 20
136.4799
  0
VERTEX
  8
LAYER_1
 10
113.4307
 20
137.3477
  0
SEQEND
  0
POLYLINE
  8
LAYER_1
 40
0.0847
 41
0.0847
 66
1
 10
0
 20
0
 30
0
  0
VERTEX
  8
LAYER_1
 10
113.4307
 20
138.2367
  0
VERTEX
  8
LAYER_1
 10
113.4307
 20
139.1045
  0
SEQEND
  0
POLYLINE
  8
LAYER_1
 40
0.0847
 41
0.0847
 66
1
 10
0
 20
0
 30
0
  0
VERTEX
  8
LAYER_1
 10
113.4307
 20
139.9935
  0
VERTEX
  8
LAYER_1
 10
113.4307
 20
140.8614
  0
SEQEND
  0
POLYLINE
  8
LAYER_1
 40
0.0847
 41
0.0847
 66
1
 10
0
 20
0
 30
0
  0
VERTEX
  8
LAYER_1
 10
113.4307
 20
141.7504
  0
VERTEX
  8
LAYER_1
 10
113.4307
 20
142.6182
  0
SEQEND
  0
POLYLINE
  8
LAYER_1
 40
0.0847
 41
0.0847
 66
1
 10
0
 20
0
 30
0
  0
VERTEX
  8
LAYER_1
 10
113.4307
 20
143.5072
  0
VERTEX
  8
LAYER_1
 10
113.4307
 20
144.3962
  0
SEQEND
  0
POLYLINE
  8
LAYER_1
 40
0.0847
 41
0.0847
 66
1
 10
0
 20
0
 30
0
  0
VERTEX
  8
LAYER_1
 10
113.4307
 20
145.2641
  0
VERTEX
  8
LAYER_1
 10
113.4307
 20
146.1531
  0
SEQEND
  0
POLYLINE
  8
LAYER_1
 40
0.0847
 41
0.0847
 66
1
 10
0
 20
0
 30
0
  0
VERTEX
  8
LAYER_1
 10
113.4307
 20
147.0209
  0
VERTEX
  8
LAYER_1
 10
113.4307
 20
147.9099
  0
SEQEND
  0
POLYLINE
  8
LAYER_1
 40
0.0847
 41
0.0847
 66
1
 10
0
 20
0
 30
0
  0
VERTEX
  8
LAYER_1
 10
113.4307
 20
148.7777
  0
VERTEX
  8
LAYER_1
 10
113.4307
 20
149.6667
  0
SEQEND
  0
POLYLINE
  8
LAYER_1
 40
0.0847
 41
0.0847
 66
1
 10
0
 20
0
 30
0
  0
VERTEX
  8
LAYER_1
 10
113.4307
 20
150.5346
  0
VERTEX
  8
LAYER_1
 10
113.4307
 20
151.4236
  0
SEQEND
  0
POLYLINE
  8
LAYER_1
 40
0.0847
 41
0.0847
 66
1
 10
0
 20
0
 30
0
  0
VERTEX
  8
LAYER_1
 10
113.4307
 20
152.3126
  0
VERTEX
  8
LAYER_1
 10
113.4307
 20
153.1804
  0
SEQEND
  0
POLYLINE
  8
LAYER_1
 40
0.0847
 41
0.0847
 66
1
 10
0
 20
0
 30
0
  0
VERTEX
  8
LAYER_1
 10
113.4307
 20
154.0694
  0
VERTEX
  8
LAYER_1
 10
113.4307
 20
154.9372
  0
SEQEND
  0
POLYLINE
  8
LAYER_1
 40
0.0847
 41
0.0847
 66
1
 10
0
 20
0
 30
0
  0
VERTEX
  8
LAYER_1
 10
113.4307
 20
155.8262
  0
VERTEX
  8
LAYER_1
 10
113.4307
 20
156.2707
  0
SEQEND
  0
POLYLINE
  8
LAYER_1
 40
0.0847
 41
0.0847
 66
1
 10
0
 20
0
 30
0
  0
VERTEX
  8
LAYER_1
 10
52.64
 20
229.7826
  0
VERTEX
  8
LAYER_1
 10
53.9523
 20
229.7826
  0
SEQEND
  0
POLYLINE
  8
LAYER_1
 40
0.0847
 41
0.0847
 66
1
 10
0
 20
0
 30
0
  0
VERTEX
  8
LAYER_1
 10
54.4815
 20
229.7826
  0
VERTEX
  8
LAYER_1
 10
55.0107
 20
229.7826
  0
SEQEND
  0
POLYLINE
  8
LAYER_1
 40
0.0847
 41
0.0847
 66
1
 10
0
 20
0
 30
0
  0
VERTEX
  8
LAYER_1
 10
55.5398
 20
229.7826
  0
VERTEX
  8
LAYER_1
 10
56.8733
 20
229.7826
  0
SEQEND
  0
POLYLINE
  8
LAYER_1
 40
0.0847
 41
0.0847
 66
1
 10
0
 20
0
 30
0
  0
VERTEX
  8
LAYER_1
 10
52.64
 20
229.7826
  0
VERTEX
  8
LAYER_1
 10
53.9523
 20
229.0206
  0
SEQEND
  0
POLYLINE
  8
LAYER_1
 40
0.0847
 41
0.0847
 66
1
 10
0
 20
0
 30
0
  0
VERTEX
  8
LAYER_1
 10
54.4815
 20
228.7242
  0
VERTEX
  8
LAYER_1
 10
55.0107
 20
228.4067
  0
SEQEND
  0
POLYLINE
  8
LAYER_1
 40
0.0847
 41
0.0847
 66
1
 10
0
 20
0
 30
0
  0
VERTEX
  8
LAYER_1
 10
55.5398
 20
228.1104
  0
VERTEX
  8
LAYER_1
 10
56.8733
 20
227.3272
  0
SEQEND
  0
TEXT
  8
LAYER_1
 10
49.7401
 20
228.3085
 11
49.7401
 21
228.3085
 40
4.305
 41
0.5
  1
B
  0
POLYLINE
  8
LAYER_1
 40
0.0847
 41
0.0847
 66
1
 10
0
 20
0
 30
0
  0
VERTEX
  8
LAYER_1
 10
122.617
 20
193.0159
  0
VERTEX
  8
LAYER_1
 10
121.8762
 20
191.7036
  0
SEQEND
  0
POLYLINE
  8
LAYER_1
 40
0.0847
 41
0.0847
 66
1
 10
0
 20
0
 30
0
  0
VERTEX
  8
LAYER_1
 10
121.5587
 20
191.1744
  0
VERTEX
  8
LAYER_1
 10
121.2623
 20
190.6453
  0
SEQEND
  0
POLYLINE
  8
LAYER_1
 40
0.0847
 41
0.0847
 66
1
 10
0
 20
0
 30
0
  0
VERTEX
  8
LAYER_1
 10
120.9448
 20
190.1161
  0
VERTEX
  8
LAYER_1
 10
120.1828
 20
188.7826
  0
SEQEND
  0
POLYLINE
  8
LAYER_1
 40
0.0847
 41
0.0847
 66
1
 10
0
 20
0
 30
0
  0
VERTEX
  8
LAYER_1
 10
122.617
 20
188.7826
  0
VERTEX
  8
LAYER_1
 10
122.617
 20
190.0949
  0
SEQEND
  0
POLYLINE
  8
LAYER_1
 40
0.0847
 41
0.0847
 66
1
 10
0
 20
0
 30
0
  0
VERTEX
  8
LAYER_1
 10
122.617
 20
190.6241
  0
VERTEX
  8
LAYER_1
 10
122.617
 20
191.1533
  0
SEQEND
  0
POLYLINE
  8
LAYER_1
 40
0.0847
 41
0.0847
 66
1
 10
0
 20
0
 30
0
  0
VERTEX
  8
LAYER_1
 10
122.617
 20
191.6824
  0
VERTEX
  8
LAYER_1
 10
122.617
 20
193.0159
  0
SEQEND
  0
TEXT
  8
LAYER_1
 10
121.0507
 20
193.8914
 11
121.0507
 21
193.8914
 40
4.305
 41
0.5
  1
A'
  0
POLYLINE
  8
LAYER_1
 40
0.0847
 41
0.0847
 66
1
 10
0
 20
0
 30
0
  0
VERTEX
  8
LAYER_1
 10
-10.3732
 20
193.0159
  0
VERTEX
  8
LAYER_1
 10
-9.6112
 20
191.7036
  0
SEQEND
  0
POLYLINE
  8
LAYER_1
 40
0.0847
 41
0.0847
 66
1
 10
0
 20
0
 30
0
  0
VERTEX
  8
LAYER_1
 10
-9.3148
 20
191.1744
  0
VERTEX
  8
LAYER_1
 10
-8.9973
 20
190.6453
  0
SEQEND
  0
POLYLINE
  8
LAYER_1
 40
0.0847
 41
0.0847
 66
1
 10
0
 20
0
 30
0
  0
VERTEX
  8
LAYER_1
 10
-8.701
 20
190.1161
  0
VERTEX
  8
LAYER_1
 10
-7.9178
 20
188.7826
  0
SEQEND
  0
POLYLINE
  8
LAYER_1
 40
0.0847
 41
0.0847
 66
1
 10
0
 20
0
 30
0
  0
VERTEX
  8
LAYER_1
 10
-10.3732
 20
188.7826
  0
VERTEX
  8
LAYER_1
 10
-10.3732
 20
190.0949
  0
SEQEND
  0
POLYLINE
  8
LAYER_1
 40
0.0847
 41
0.0847
 66
1
 10
0
 20
0
 30
0
  0
VERTEX
  8
LAYER_1
 10
-10.3732
 20
190.6241
  0
VERTEX
  8
LAYER_1
 10
-10.3732
 20
191.1533
  0
SEQEND
  0
POLYLINE
  8
LAYER_1
 40
0.0847
 41
0.0847
 66
1
 10
0
 20
0
 30
0
  0
VERTEX
  8
LAYER_1
 10
-10.3732
 20
191.6824
  0
VERTEX
  8
LAYER_1
 10
-10.3732
 20
193.0159
  0
SEQEND
  0
TEXT
  8
LAYER_1
 10
-11.1779
 20
193.976
 11
-11.1779
 21
193.976
 40
4.305
 41
0.5
  1
A
  0
POLYLINE
  8
LAYER_1
 40
0.0847
 41
0.0847
 66
1
 10
0
 20
0
 30
0
  0
VERTEX
  8
LAYER_1
 10
-10.3732
 20
188.7826
  0
VERTEX
  8
LAYER_1
 10
-8.193
 20
188.7826
  0
SEQEND
  0
POLYLINE
  8
LAYER_1
 40
0.0847
 41
0.0847
 66
1
 10
0
 20
0
 30
0
  0
VERTEX
  8
LAYER_1
 10
-7.3252
 20
188.7826
  0
VERTEX
  8
LAYER_1
 10
-6.4362
 20
188.7826
  0
SEQEND
  0
POLYLINE
  8
LAYER_1
 40
0.0847
 41
0.0847
 66
1
 10
0
 20
0
 30
0
  0
VERTEX
  8
LAYER_1
 10
-5.5683
 20
188.7826
  0
VERTEX
  8
LAYER_1
 10
-1.1868
 20
188.7826
  0
SEQEND
  0
POLYLINE
  8
LAYER_1
 40
0.0847
 41
0.0847
 66
1
 10
0
 20
0
 30
0
  0
VERTEX
  8
LAYER_1
 10
-0.319
 20
188.7826
  0
VERTEX
  8
LAYER_1
 10
0.5488
 20
188.7826
  0
SEQEND
  0
POLYLINE
  8
LAYER_1
 40
0.0847
 41
0.0847
 66
1
 10
0
 20
0
 30
0
  0
VERTEX
  8
LAYER_1
 10
1.4378
 20
188.7826
  0
VERTEX
  8
LAYER_1
 10
5.7982
 20
188.7826
  0
SEQEND
  0
POLYLINE
  8
LAYER_1
 40
0.0847
 41
0.0847
 66
1
 10
0
 20
0
 30
0
  0
VERTEX
  8
LAYER_1
 10
6.6872
 20
188.7826
  0
VERTEX
  8
LAYER_1
 10
7.555
 20
188.7826
  0
SEQEND
  0
POLYLINE
  8
LAYER_1
 40
0.0847
 41
0.0847
 66
1
 10
0
 20
0
 30
0
  0
VERTEX
  8
LAYER_1
 10
8.4228
 20
188.7826
  0
VERTEX
  8
LAYER_1
 10
12.8043
 20
188.7826
  0
SEQEND
  0
POLYLINE
  8
LAYER_1
 40
0.0847
 41
0.0847
 66
1
 10
0
 20
0
 30
0
  0
VERTEX
  8
LAYER_1
 10
13.6722
 20
188.7826
  0
VERTEX
  8
LAYER_1
 10
14.5612
 20
188.7826
  0
SEQEND
  0
POLYLINE
  8
LAYER_1
 40
0.0847
 41
0.0847
 66
1
 10
0
 20
0
 30
0
  0
VERTEX
  8
LAYER_1
 10
15.429
 20
188.7826
  0
VERTEX
  8
LAYER_1
 10
19.8105
 20
188.7826
  0
SEQEND
  0
POLYLINE
  8
LAYER_1
 40
0.0847
 41
0.0847
 66
1
 10
0
 20
0
 30
0
  0
VERTEX
  8
LAYER_1
 10
20.6783
 20
188.7826
  0
VERTEX
  8
LAYER_1
 10
21.5462
 20
188.7826
  0
SEQEND
  0
POLYLINE
  8
LAYER_1
 40
0.0847
 41
0.0847
 66
1
 10
0
 20
0
 30
0
  0
VERTEX
  8
LAYER_1
 10
22.4352
 20
188.7826
  0
VERTEX
  8
LAYER_1
 10
26.7955
 20
188.7826
  0
SEQEND
  0
POLYLINE
  8
LAYER_1
 40
0.0847
 41
0.0847
 66
1
 10
0
 20
0
 30
0
  0
VERTEX
  8
LAYER_1
 10
27.6845
 20
188.7826
  0
VERTEX
  8
LAYER_1
 10
28.5523
 20
188.7826
  0
SEQEND
  0
POLYLINE
  8
LAYER_1
 40
0.0847
 41
0.0847
 66
1
 10
0
 20
0
 30
0
  0
VERTEX
  8
LAYER_1
 10
29.4202
 20
188.7826
  0
VERTEX
  8
LAYER_1
 10
33.8017
 20
188.7826
  0
SEQEND
  0
POLYLINE
  8
LAYER_1
 40
0.0847
 41
0.0847
 66
1
 10
0
 20
0
 30
0
  0
VERTEX
  8
LAYER_1
 10
34.6695
 20
188.7826
  0
VERTEX
  8
LAYER_1
 10
35.5585
 20
188.7826
  0
SEQEND
  0
POLYLINE
  8
LAYER_1
 40
0.0847
 41
0.0847
 66
1
 10
0
 20
0
 30
0
  0
VERTEX
  8
LAYER_1
 10
36.4263
 20
188.7826
  0
VERTEX
  8
LAYER_1
 10
40.8078
 20
188.7826
  0
SEQEND
  0
POLYLINE
  8
LAYER_1
 40
0.0847
 41
0.0847
 66
1
 10
0
 20
0
 30
0
  0
VERTEX
  8
LAYER_1
 10
41.6757
 20
188.7826
  0
VERTEX
  8
LAYER_1
 10
42.5435
 20
188.7826
  0
SEQEND
  0
POLYLINE
  8
LAYER_1
 40
0.0847
 41
0.0847
 66
1
 10
0
 20
0
 30
0
  0
VERTEX
  8
LAYER_1
 10
43.4325
 20
188.7826
  0
VERTEX
  8
LAYER_1
 10
47.7928
 20
188.7826
  0
SEQEND
  0
POLYLINE
  8
LAYER_1
 40
0.0847
 41
0.0847
 66
1
 10
0
 20
0
 30
0
  0
VERTEX
  8
LAYER_1
 10
48.6818
 20
188.7826
  0
VERTEX
  8
LAYER_1
 10
49.5497
 20
188.7826
  0
SEQEND
  0
POLYLINE
  8
LAYER_1
 40
0.0847
 41
0.0847
 66
1
 10
0
 20
0
 30
0
  0
VERTEX
  8
LAYER_1
 10
50.4175
 20
188.7826
  0
VERTEX
  8
LAYER_1
 10
54.799
 20
188.7826
  0
SEQEND
  0
POLYLINE
  8
LAYER_1
 40
0.0847
 41
0.0847
 66
1
 10
0
 20
0
 30
0
  0
VERTEX
  8
LAYER_1
 10
55.6668
 20
188.7826
  0
VERTEX
  8
LAYER_1
 10
56.5558
 20
188.7826
  0
SEQEND
  0
POLYLINE
  8
LAYER_1
 40
0.0847
 41
0.0847
 66
1
 10
0
 20
0
 30
0
  0
VERTEX
  8
LAYER_1
 10
57.4237
 20
188.7826
  0
VERTEX
  8
LAYER_1
 10
61.8052
 20
188.7826
  0
SEQEND
  0
POLYLINE
  8
LAYER_1
 40
0.0847
 41
0.0847
 66
1
 10
0
 20
0
 30
0
  0
VERTEX
  8
LAYER_1
 10
62.673
 20
188.7826
  0
VERTEX
  8
LAYER_1
 10
63.5408
 20
188.7826
  0
SEQEND
  0
POLYLINE
  8
LAYER_1
 40
0.0847
 41
0.0847
 66
1
 10
0
 20
0
 30
0
  0
VERTEX
  8
LAYER_1
 10
64.4299
 20
188.7826
  0
VERTEX
  8
LAYER_1
 10
68.7902
 20
188.7826
  0
SEQEND
  0
POLYLINE
  8
LAYER_1
 40
0.0847
 41
0.0847
 66
1
 10
0
 20
0
 30
0
  0
VERTEX
  8
LAYER_1
 10
69.6792
 20
188.7826
  0
VERTEX
  8
LAYER_1
 10
70.547
 20
188.7826
  0
SEQEND
  0
POLYLINE
  8
LAYER_1
 40
0.0847
 41
0.0847
 66
1
 10
0
 20
0
 30
0
  0
VERTEX
  8
LAYER_1
 10
71.4149
 20
188.7826
  0
VERTEX
  8
LAYER_1
 10
75.7964
 20
188.7826
  0
SEQEND
  0
POLYLINE
  8
LAYER_1
 40
0.0847
 41
0.0847
 66
1
 10
0
 20
0
 30
0
  0
VERTEX
  8
LAYER_1
 10
76.6642
 20
188.7826
  0
VERTEX
  8
LAYER_1
 10
77.5532
 20
188.7826
  0
SEQEND
  0
POLYLINE
  8
LAYER_1
 40
0.0847
 41
0.0847
 66
1
 10
0
 20
0
 30
0
  0
VERTEX
  8
LAYER_1
 10
78.421
 20
188.7826
  0
VERTEX
  8
LAYER_1
 10
82.8025
 20
188.7826
  0
SEQEND
  0
POLYLINE
  8
LAYER_1
 40
0.0847
 41
0.0847
 66
1
 10
0
 20
0
 30
0
  0
VERTEX
  8
LAYER_1
 10
83.6704
 20
188.7826
  0
VERTEX
  8
LAYER_1
 10
84.5382
 20
188.7826
  0
SEQEND
  0
POLYLINE
  8
LAYER_1
 40
0.0847
 41
0.0847
 66
1
 10
0
 20
0
 30
0
  0
VERTEX
  8
LAYER_1
 10
85.4272
 20
188.7826
  0
VERTEX
  8
LAYER_1
 10
89.7875
 20
188.7826
  0
SEQEND
  0
POLYLINE
  8
LAYER_1
 40
0.0847
 41
0.0847
 66
1
 10
0
 20
0
 30
0
  0
VERTEX
  8
LAYER_1
 10
90.6765
 20
188.7826
  0
VERTEX
  8
LAYER_1
 10
91.5444
 20
188.7826
  0
SEQEND
  0
POLYLINE
  8
LAYER_1
 40
0.0847
 41
0.0847
 66
1
 10
0
 20
0
 30
0
  0
VERTEX
  8
LAYER_1
 10
92.4122
 20
188.7826
  0
VERTEX
  8
LAYER_1
 10
96.7937
 20
188.7826
  0
SEQEND
  0
POLYLINE
  8
LAYER_1
 40
0.0847
 41
0.0847
 66
1
 10
0
 20
0
 30
0
  0
VERTEX
  8
LAYER_1
 10
97.6615
 20
188.7826
  0
VERTEX
  8
LAYER_1
 10
98.5505
 20
188.7826
  0
SEQEND
  0
POLYLINE
  8
LAYER_1
 40
0.0847
 41
0.0847
 66
1
 10
0
 20
0
 30
0
  0
VERTEX
  8
LAYER_1
 10
99.4184
 20
188.7826
  0
VERTEX
  8
LAYER_1
 10
103.7999
 20
188.7826
  0
SEQEND
  0
POLYLINE
  8
LAYER_1
 40
0.0847
 41
0.0847
 66
1
 10
0
 20
0
 30
0
  0
VERTEX
  8
LAYER_1
 10
104.6677
 20
188.7826
  0
VERTEX
  8
LAYER_1
 10
105.5355
 20
188.7826
  0
SEQEND
  0
POLYLINE
  8
LAYER_1
 40
0.0847
 41
0.0847
 66
1
 10
0
 20
0
 30
0
  0
VERTEX
  8
LAYER_1
 10
106.4246
 20
188.7826
  0
VERTEX
  8
LAYER_1
 10
110.7849
 20
188.7826
  0
SEQEND
  0
POLYLINE
  8
LAYER_1
 40
0.0847
 41
0.0847
 66
1
 10
0
 20
0
 30
0
  0
VERTEX
  8
LAYER_1
 10
111.6739
 20
188.7826
  0
VERTEX
  8
LAYER_1
 10
112.5417
 20
188.7826
  0
SEQEND
  0
POLYLINE
  8
LAYER_1
 40
0.0847
 41
0.0847
 66
1
 10
0
 20
0
 30
0
  0
VERTEX
  8
LAYER_1
 10
113.4096
 20
188.7826
  0
VERTEX
  8
LAYER_1
 10
117.7911
 20
188.7826
  0
SEQEND
  0
POLYLINE
  8
LAYER_1
 40
0.0847
 41
0.0847
 66
1
 10
0
 20
0
 30
0
  0
VERTEX
  8
LAYER_1
 10
118.6589
 20
188.7826
  0
VERTEX
  8
LAYER_1
 10
119.5479
 20
188.7826
  0
SEQEND
  0
POLYLINE
  8
LAYER_1
 40
0.0847
 41
0.0847
 66
1
 10
0
 20
0
 30
0
  0
VERTEX
  8
LAYER_1
 10
120.4157
 20
188.7826
  0
VERTEX
  8
LAYER_1
 10
122.6171
 20
188.7826
  0
SEQEND
  0
POLYLINE
  8
LAYER_1
 40
0.0847
 41
0.0847
 66
1
 10
0
 20
0
 30
0
  0
VERTEX
  8
LAYER_1
 10
56.8734
 20
146.9996
  0
VERTEX
  8
LAYER_1
 10
56.8734
 20
149.1374
  0
SEQEND
  0
POLYLINE
  8
LAYER_1
 40
0.0847
 41
0.0847
 66
1
 10
0
 20
0
 30
0
  0
VERTEX
  8
LAYER_1
 10
56.8734
 20
150.0053
  0
VERTEX
  8
LAYER_1
 10
56.8734
 20
150.8731
  0
SEQEND
  0
POLYLINE
  8
LAYER_1
 40
0.0847
 41
0.0847
 66
1
 10
0
 20
0
 30
0
  0
VERTEX
  8
LAYER_1
 10
56.8734
 20
151.7409
  0
VERTEX
  8
LAYER_1
 10
56.8734
 20
156.0378
  0
SEQEND
  0
POLYLINE
  8
LAYER_1
 40
0.0847
 41
0.0847
 66
1
 10
0
 20
0
 30
0
  0
VERTEX
  8
LAYER_1
 10
56.8734
 20
156.9056
  0
VERTEX
  8
LAYER_1
 10
56.8734
 20
157.7735
  0
SEQEND
  0
POLYLINE
  8
LAYER_1
 40
0.0847
 41
0.0847
 66
1
 10
0
 20
0
 30
0
  0
VERTEX
  8
LAYER_1
 10
56.8734
 20
158.6201
  0
VERTEX
  8
LAYER_1
 10
56.8734
 20
162.9381
  0
SEQEND
  0
POLYLINE
  8
LAYER_1
 40
0.0847
 41
0.0847
 66
1
 10
0
 20
0
 30
0
  0
VERTEX
  8
LAYER_1
 10
56.8734
 20
163.8059
  0
VERTEX
  8
LAYER_1
 10
56.8734
 20
164.6738
  0
SEQEND
  0
POLYLINE
  8
LAYER_1
 40
0.0847
 41
0.0847
 66
1
 10
0
 20
0
 30
0
  0
VERTEX
  8
LAYER_1
 10
56.8734
 20
165.5204
  0
VERTEX
  8
LAYER_1
 10
56.8734
 20
169.8384
  0
SEQEND
  0
POLYLINE
  8
LAYER_1
 40
0.0847
 41
0.0847
 66
1
 10
0
 20
0
 30
0
  0
VERTEX
  8
LAYER_1
 10
56.8734
 20
170.7063
  0
VERTEX
  8
LAYER_1
 10
56.8734
 20
171.5741
  0
SEQEND
  0
POLYLINE
  8
LAYER_1
 40
0.0847
 41
0.0847
 66
1
 10
0
 20
0
 30
0
  0
VERTEX
  8
LAYER_1
 10
56.8734
 20
172.4208
  0
VERTEX
  8
LAYER_1
 10
56.8734
 20
176.7388
  0
SEQEND
  0
POLYLINE
  8
LAYER_1
 40
0.0847
 41
0.0847
 66
1
 10
0
 20
0
 30
0
  0
VERTEX
  8
LAYER_1
 10
56.8734
 20
177.6066
  0
VERTEX
  8
LAYER_1
 10
56.8734
 20
178.4533
  0
SEQEND
  0
POLYLINE
  8
LAYER_1
 40
0.0847
 41
0.0847
 66
1
 10
0
 20
0
 30
0
  0
VERTEX
  8
LAYER_1
 10
56.8734
 20
179.3211
  0
VERTEX
  8
LAYER_1
 10
56.8734
 20
183.6391
  0
SEQEND
  0
POLYLINE
  8
LAYER_1
 40
0.0847
 41
0.0847
 66
1
 10
0
 20
0
 30
0
  0
VERTEX
  8
LAYER_1
 10
56.8734
 20
184.5069
  0
VERTEX
  8
LAYER_1
 10
56.8734
 20
185.3536
  0
SEQEND
  0
POLYLINE
  8
LAYER_1
 40
0.0847
 41
0.0847
 66
1
 10
0
 20
0
 30
0
  0
VERTEX
  8
LAYER_1
 10
56.8734
 20
186.2214
  0
VERTEX
  8
LAYER_1
 10
56.8734
 20
190.5394
  0
SEQEND
  0
POLYLINE
  8
LAYER_1
 40
0.0847
 41
0.0847
 66
1
 10
0
 20
0
 30
0
  0
VERTEX
  8
LAYER_1
 10
56.8734
 20
191.4073
  0
VERTEX
  8
LAYER_1
 10
56.8734
 20
192.2539
  0
SEQEND
  0
POLYLINE
  8
LAYER_1
 40
0.0847
 41
0.0847
 66
1
 10
0
 20
0
 30
0
  0
VERTEX
  8
LAYER_1
 10
56.8734
 20
193.1218
  0
VERTEX
  8
LAYER_1
 10
56.8734
 20
197.4398
  0
SEQEND
  0
POLYLINE
  8
LAYER_1
 40
0.0847
 41
0.0847
 66
1
 10
0
 20
0
 30
0
  0
VERTEX
  8
LAYER_1
 10
56.8734
 20
198.3076
  0
VERTEX
  8
LAYER_1
 10
56.8734
 20
199.1543
  0
SEQEND
  0
POLYLINE
  8
LAYER_1
 40
0.0847
 41
0.0847
 66
1
 10
0
 20
0
 30
0
  0
VERTEX
  8
LAYER_1
 10
56.8734
 20
200.0221
  0
VERTEX
  8
LAYER_1
 10
56.8734
 20
204.3401
  0
SEQEND
  0
POLYLINE
  8
LAYER_1
 40
0.0847
 41
0.0847
 66
1
 10
0
 20
0
 30
0
  0
VERTEX
  8
LAYER_1
 10
56.8734
 20
205.1868
  0
VERTEX
  8
LAYER_1
 10
56.8734
 20
206.0546
  0
SEQEND
  0
POLYLINE
  8
LAYER_1
 40
0.0847
 41
0.0847
 66
1
 10
0
 20
0
 30
0
  0
VERTEX
  8
LAYER_1
 10
56.8734
 20
206.9224
  0
VERTEX
  8
LAYER_1
 10
56.8734
 20
211.2404
  0
SEQEND
  0
POLYLINE
  8
LAYER_1
 40
0.0847
 41
0.0847
 66
1
 10
0
 20
0
 30
0
  0
VERTEX
  8
LAYER_1
 10
56.8734
 20
212.0871
  0
VERTEX
  8
LAYER_1
 10
56.8734
 20
212.9549
  0
SEQEND
  0
POLYLINE
  8
LAYER_1
 40
0.0847
 41
0.0847
 66
1
 10
0
 20
0
 30
0
  0
VERTEX
  8
LAYER_1
 10
56.8734
 20
213.8228
  0
VERTEX
  8
LAYER_1
 10
56.8734
 20
218.1408
  0
SEQEND
  0
POLYLINE
  8
LAYER_1
 40
0.0847
 41
0.0847
 66
1
 10
0
 20
0
 30
0
  0
VERTEX
  8
LAYER_1
 10
56.8734
 20
218.9874
  0
VERTEX
  8
LAYER_1
 10
56.8734
 20
219.8553
  0
SEQEND
  0
POLYLINE
  8
LAYER_1
 40
0.0847
 41
0.0847
 66
1
 10
0
 20
0
 30
0
  0
VERTEX
  8
LAYER_1
 10
56.8734
 20
220.7231
  0
VERTEX
  8
LAYER_1
 10
56.8734
 20
225.0199
  0
SEQEND
  0
POLYLINE
  8
LAYER_1
 40
0.0847
 41
0.0847
 66
1
 10
0
 20
0
 30
0
  0
VERTEX
  8
LAYER_1
 10
56.8734
 20
225.8878
  0
VERTEX
  8
LAYER_1
 10
56.8734
 20
226.7556
  0
SEQEND
  0
POLYLINE
  8
LAYER_1
 40
0.0847
 41
0.0847
 66
1
 10
0
 20
0
 30
0
  0
VERTEX
  8
LAYER_1
 10
56.8734
 20
227.6234
  0
VERTEX
  8
LAYER_1
 10
56.8734
 20
229.7824
  0
SEQEND
  0
POLYLINE
  8
LAYER_1
 40
0.0847
 41
0.0847
 66
1
 10
0
 20
0
 30
0
  0
VERTEX
  8
LAYER_1
 10
52.6401
 20
146.9996
  0
VERTEX
  8
LAYER_1
 10
53.9524
 20
146.9996
  0
SEQEND
  0
POLYLINE
  8
LAYER_1
 40
0.0847
 41
0.0847
 66
1
 10
0
 20
0
 30
0
  0
VERTEX
  8
LAYER_1
 10
54.4816
 20
146.9996
  0
VERTEX
  8
LAYER_1
 10
55.0107
 20
146.9996
  0
SEQEND
  0
POLYLINE
  8
LAYER_1
 40
0.0847
 41
0.0847
 66
1
 10
0
 20
0
 30
0
  0
VERTEX
  8
LAYER_1
 10
55.5399
 20
146.9996
  0
VERTEX
  8
LAYER_1
 10
56.8734
 20
146.9996
  0
SEQEND
  0
POLYLINE
  8
LAYER_1
 40
0.0847
 41
0.0847
 66
1
 10
0
 20
0
 30
0
  0
VERTEX
  8
LAYER_1
 10
52.6401
 20
146.9996
  0
VERTEX
  8
LAYER_1
 10
53.9524
 20
147.7616
  0
SEQEND
  0
POLYLINE
  8
LAYER_1
 40
0.0847
 41
0.0847
 66
1
 10
0
 20
0
 30
0
  0
VERTEX
  8
LAYER_1
 10
54.4816
 20
148.0579
  0
VERTEX
  8
LAYER_1
 10
55.0107
 20
148.3754
  0
SEQEND
  0
POLYLINE
  8
LAYER_1
 40
0.0847
 41
0.0847
 66
1
 10
0
 20
0
 30
0
  0
VERTEX
  8
LAYER_1
 10
55.5399
 20
148.6718
  0
VERTEX
  8
LAYER_1
 10
56.8734
 20
149.4549
  0
SEQEND
  0
TEXT
  8
LAYER_1
 10
49.274
 20
145.7584
 11
49.274
 21
145.7584
 40
4.305
 41
0.5
  1
B'
  0
POLYLINE
  8
LAYER_1
 40
0.0847
 41
0.0847
 66
1
 10
0
 20
0
 30
0
  0
VERTEX
  8
LAYER_1
 10
1.0145
 20
156.2706
  0
VERTEX
  8
LAYER_1
 10
1.0145
 20
221.2946
  0
SEQEND
  0
POLYLINE
  8
LAYER_1
 40
0.0847
 41
0.0847
 66
1
 10
0
 20
0
 30
0
  0
VERTEX
  8
LAYER_1
 10
1.0145
 20
156.2706
  0
VERTEX
  8
LAYER_1
 10
1.0145
 20
221.2946
  0
SEQEND
  0
POLYLINE
  8
LAYER_1
 40
0.0847
 41
0.0847
 66
1
 10
0
 20
0
 30
0
  0
VERTEX
  8
LAYER_1
 10
1.0145
 20
156.2706
  0
VERTEX
  8
LAYER_1
 10
113.4307
 20
156.2706
  0
SEQEND
  0
POLYLINE
  8
LAYER_1
 40
0.0847
 41
0.0847
 66
1
 10
0
 20
0
 30
0
  0
VERTEX
  8
LAYER_1
 10
0.316
 20
155.5721
  0
VERTEX
  8
LAYER_1
 10
113.4307
 20
155.5721
  0
SEQEND
  0
POLYLINE
  8
LAYER_1
 40
0.0847
 41
0.0847
 66
1
 10
0
 20
0
 30
0
  0
VERTEX
  8
LAYER_1
 10
0.316
 20
155.5721
  0
VERTEX
  8
LAYER_1
 10
0.316
 20
222.0143
  0
VERTEX
  8
LAYER_1
 10
113.4307
 20
222.0143
  0
SEQEND
  0
POLYLINE
  8
LAYER_1
 40
0.0847
 41
0.0847
 66
1
 10
0
 20
0
 30
0
  0
VERTEX
  8
LAYER_1
 10
113.4307
 20
156.2706
  0
VERTEX
  8
LAYER_1
 10
113.4307
 20
222.0143
  0
SEQEND
  0
POLYLINE
  8
LAYER_1
 40
0.0847
 41
0.0847
 66
1
 10
0
 20
0
 30
0
  0
VERTEX
  8
LAYER_1
 10
1.0145
 20
221.2946
  0
VERTEX
  8
LAYER_1
 10
112.711
 20
221.2946
  0
SEQEND
  0
POLYLINE
  8
LAYER_1
 40
0.0847
 41
0.0847
 66
1
 10
0
 20
0
 30
0
  0
VERTEX
  8
LAYER_1
 10
112.711
 20
156.2706
  0
VERTEX
  8
LAYER_1
 10
112.711
 20
221.2946
  0
SEQEND
  0
POLYLINE
  8
LAYER_1
 40
0.0847
 41
0.0847
 66
1
 10
0
 20
0
 30
0
  0
VERTEX
  8
LAYER_1
 10
113.1132
 20
203.9591
  0
VERTEX
  8
LAYER_1
 10
124.3738
 20
215.2409
  0
VERTEX
  8
LAYER_1
 10
133.2003
 20
215.2409
  0
SEQEND
  0
TEXT
  8
LAYER_1
 10
38.4998
 20
243.0689
 11
38.4998
 21
243.0689
 40
5.1558
 41
0.5
  1
Rhapsody800天板開口参考図
  0
POLYLINE
  8
LAYER_1
 40
0.1693
 41
0.1693
 66
1
 10
0
 20
0
 30
0
  0
VERTEX
  8
LAYER_1
 10
0.316
 20
112.6038
  0
VERTEX
  8
LAYER_1
 10
113.4307
 20
112.6038
  0
SEQEND
  0
POLYLINE
  8
LAYER_1
 40
0.1693
 41
0.1693
 66
1
 10
0
 20
0
 30
0
  0
VERTEX
  8
LAYER_1
 10
51.9415
 20
100.0096
  0
VERTEX
  8
LAYER_1
 10
53.6348
 20
98.3163
  0
SEQEND
  0
POLYLINE
  8
LAYER_1
 40
0.1693
 41
0.1693
 66
1
 10
0
 20
0
 30
0
  0
VERTEX
  8
LAYER_1
 10
61.8263
 20
100.0096
  0
VERTEX
  8
LAYER_1
 10
60.133
 20
98.3163
  0
SEQEND
  0
POLYLINE
  8
LAYER_1
 40
0.1693
 41
0.1693
 66
1
 10
0
 20
0
 30
0
  0
VERTEX
  8
LAYER_1
 10
50.7562
 20
100.0096
  0
VERTEX
  8
LAYER_1
 10
63.0117
 20
100.0096
  0
SEQEND
  0
POLYLINE
  8
LAYER_1
 40
0.1693
 41
0.1693
 66
1
 10
0
 20
0
 30
0
  0
VERTEX
  8
LAYER_1
 10
7.3857
 20
112.6038
  0
VERTEX
  8
LAYER_1
 10
50.7562
 20
100.0096
  0
SEQEND
  0
POLYLINE
  8
LAYER_1
 40
0.1693
 41
0.1693
 66
1
 10
0
 20
0
 30
0
  0
VERTEX
  8
LAYER_1
 10
0.316
 20
110.9104
  0
VERTEX
  8
LAYER_1
 10
7.1528
 20
110.9104
  0
SEQEND
  0
POLYLINE
  8
LAYER_1
 40
0.1693
 41
0.1693
 66
1
 10
0
 20
0
 30
0
  0
VERTEX
  8
LAYER_1
 10
106.5938
 20
110.9104
  0
VERTEX
  8
LAYER_1
 10
113.4307
 20
110.9104
  0
SEQEND
  0
POLYLINE
  8
LAYER_1
 40
0.1693
 41
0.1693
 66
1
 10
0
 20
0
 30
0
  0
VERTEX
  8
LAYER_1
 10
106.361
 20
112.6038
  0
VERTEX
  8
LAYER_1
 10
63.0117
 20
100.0096
  0
SEQEND
  0
POLYLINE
  8
LAYER_1
 40
0.1693
 41
0.1693
 66
1
 10
0
 20
0
 30
0
  0
VERTEX
  8
LAYER_1
 10
7.1528
 20
110.9104
  0
VERTEX
  8
LAYER_1
 10
50.5233
 20
98.3163
  0
SEQEND
  0
POLYLINE
  8
LAYER_1
 40
0.1693
 41
0.1693
 66
1
 10
0
 20
0
 30
0
  0
VERTEX
  8
LAYER_1
 10
106.5938
 20
110.9104
  0
VERTEX
  8
LAYER_1
 10
63.2445
 20
98.3163
  0
SEQEND
  0
POLYLINE
  8
LAYER_1
 40
0.1693
 41
0.1693
 66
1
 10
0
 20
0
 30
0
  0
VERTEX
  8
LAYER_1
 10
106.5938
 20
110.9104
  0
VERTEX
  8
LAYER_1
 10
113.4307
 20
110.9104
  0
SEQEND
  0
POLYLINE
  8
LAYER_1
 40
0.1693
 41
0.1693
 66
1
 10
0
 20
0
 30
0
  0
VERTEX
  8
LAYER_1
 10
50.5233
 20
98.3163
  0
VERTEX
  8
LAYER_1
 10
63.2445
 20
98.3163
  0
SEQEND
  0
POLYLINE
  8
LAYER_1
 40
0.0847
 41
0.0847
 66
1
 10
0
 20
0
 30
0
  0
VERTEX
  8
LAYER_1
 10
122.5535
 20
106.9523
  0
VERTEX
  8
LAYER_1
 10
122.5535
 20
110.4871
  0
SEQEND
  0
POLYLINE
  8
LAYER_1
 40
0.0847
 41
0.0847
 66
1
 10
0
 20
0
 30
0
  0
VERTEX
  8
LAYER_1
 10
122.5535
 20
112.6038
  0
VERTEX
  8
LAYER_1
 10
122.5535
 20
116.1386
  0
SEQEND
  0
POLYLINE
  8
LAYER_1
 40
0.1693
 41
0.1693
 66
1
 10
0
 20
0
 30
0
  0
VERTEX
  8
LAYER_1
 10
122.5535
 20
110.4871
  0
VERTEX
  8
LAYER_1
 10
123.1038
 20
108.4339
  0
SEQEND
  0
POLYLINE
  8
LAYER_1
 40
0.1693
 41
0.1693
 66
1
 10
0
 20
0
 30
0
  0
VERTEX
  8
LAYER_1
 10
122.5535
 20
110.4871
  0
VERTEX
  8
LAYER_1
 10
122.0032
 20
108.4339
  0
SEQEND
  0
POLYLINE
  8
LAYER_1
 40
0.1693
 41
0.1693
 66
1
 10
0
 20
0
 30
0
  0
VERTEX
  8
LAYER_1
 10
122.5535
 20
112.6038
  0
VERTEX
  8
LAYER_1
 10
122.0032
 20
114.6569
  0
SEQEND
  0
POLYLINE
  8
LAYER_1
 40
0.1693
 41
0.1693
 66
1
 10
0
 20
0
 30
0
  0
VERTEX
  8
LAYER_1
 10
122.5535
 20
112.6038
  0
VERTEX
  8
LAYER_1
 10
123.1038
 20
114.6569
  0
SEQEND
  0
TEXT
  8
LAYER_1
 10
121.9819
 20
113.5772
 11
121.9819
 21
113.5772
 40
2.5779
 41
0.5
 50
89.99999999
  1
15
  0
POLYLINE
  8
LAYER_1
 40
0.0847
 41
0.0847
 66
1
 10
0
 20
0
 30
0
  0
VERTEX
  8
LAYER_1
 10
114.0657
 20
110.4871
  0
VERTEX
  8
LAYER_1
 10
122.5535
 20
110.4871
  0
SEQEND
  0
POLYLINE
  8
LAYER_1
 40
0.0847
 41
0.0847
 66
1
 10
0
 20
0
 30
0
  0
VERTEX
  8
LAYER_1
 10
56.8733
 20
91.0561
  0
VERTEX
  8
LAYER_1
 10
56.8733
 20
93.6596
  0
SEQEND
  0
POLYLINE
  8
LAYER_1
 40
0.0847
 41
0.0847
 66
1
 10
0
 20
0
 30
0
  0
VERTEX
  8
LAYER_1
 10
56.8733
 20
94.6968
  0
VERTEX
  8
LAYER_1
 10
56.8733
 20
95.7551
  0
SEQEND
  0
POLYLINE
  8
LAYER_1
 40
0.0847
 41
0.0847
 66
1
 10
0
 20
0
 30
0
  0
VERTEX
  8
LAYER_1
 10
56.8733
 20
96.7923
  0
VERTEX
  8
LAYER_1
 10
56.8733
 20
102.0204
  0
SEQEND
  0
POLYLINE
  8
LAYER_1
 40
0.0847
 41
0.0847
 66
1
 10
0
 20
0
 30
0
  0
VERTEX
  8
LAYER_1
 10
56.8733
 20
103.0788
  0
VERTEX
  8
LAYER_1
 10
56.8733
 20
104.1159
  0
SEQEND
  0
POLYLINE
  8
LAYER_1
 40
0.0847
 41
0.0847
 66
1
 10
0
 20
0
 30
0
  0
VERTEX
  8
LAYER_1
 10
56.8733
 20
105.1531
  0
VERTEX
  8
LAYER_1
 10
56.8733
 20
110.4024
  0
SEQEND
  0
POLYLINE
  8
LAYER_1
 40
0.0847
 41
0.0847
 66
1
 10
0
 20
0
 30
0
  0
VERTEX
  8
LAYER_1
 10
56.8733
 20
111.4396
  0
VERTEX
  8
LAYER_1
 10
56.8733
 20
112.4768
  0
SEQEND
  0
POLYLINE
  8
LAYER_1
 40
0.0847
 41
0.0847
 66
1
 10
0
 20
0
 30
0
  0
VERTEX
  8
LAYER_1
 10
56.8733
 20
113.5351
  0
VERTEX
  8
LAYER_1
 10
56.8733
 20
118.7633
  0
SEQEND
  0
POLYLINE
  8
LAYER_1
 40
0.0847
 41
0.0847
 66
1
 10
0
 20
0
 30
0
  0
VERTEX
  8
LAYER_1
 10
56.8733
 20
119.8004
  0
VERTEX
  8
LAYER_1
 10
56.8733
 20
120.8588
  0
SEQEND
  0
POLYLINE
  8
LAYER_1
 40
0.0847
 41
0.0847
 66
1
 10
0
 20
0
 30
0
  0
VERTEX
  8
LAYER_1
 10
56.8733
 20
121.8959
  0
VERTEX
  8
LAYER_1
 10
56.8733
 20
124.5206
  0
SEQEND
  0
POLYLINE
  8
LAYER_1
 40
0.1693
 41
0.1693
 66
1
 10
0
 20
0
 30
0
  0
VERTEX
  8
LAYER_1
 10
0.316
 20
110.9104
  0
VERTEX
  8
LAYER_1
 10
0.316
 20
112.6038
  0
SEQEND
  0
POLYLINE
  8
LAYER_1
 40
0.1693
 41
0.1693
 66
1
 10
0
 20
0
 30
0
  0
VERTEX
  8
LAYER_1
 10
113.4307
 20
110.9104
  0
VERTEX
  8
LAYER_1
 10
113.4307
 20
112.6038
  0
SEQEND
  0
POLYLINE
  8
LAYER_1
 40
0.1693
 41
0.1693
 66
1
 10
0
 20
0
 30
0
  0
VERTEX
  8
LAYER_1
 10
113.4307
 20
110.9104
  0
VERTEX
  8
LAYER_1
 10
113.4307
 20
112.6038
  0
SEQEND
  0
POLYLINE
  8
LAYER_1
 40
0.1693
 41
0.1693
 66
1
 10
0
 20
0
 30
0
  0
VERTEX
  8
LAYER_1
 10
113.4307
 20
110.9104
  0
VERTEX
  8
LAYER_1
 10
113.4307
 20
112.6038
  0
SEQEND
  0
POLYLINE
  8
LAYER_1
 40
0.1693
 41
0.1693
 66
1
 10
0
 20
0
 30
0
  0
VERTEX
  8
LAYER_1
 10
0.316
 20
110.4871
  0
VERTEX
  8
LAYER_1
 10
0.316
 20
112.6038
  0
SEQEND
  0
POLYLINE
  8
LAYER_1
 40
0.1693
 41
0.1693
 66
1
 10
0
 20
0
 30
0
  0
VERTEX
  8
LAYER_1
 10
0.316
 20
110.4871
  0
VERTEX
  8
LAYER_1
 10
1.3108
 20
110.4871
  0
SEQEND
  0
POLYLINE
  8
LAYER_1
 40
0.1693
 41
0.1693
 66
1
 10
0
 20
0
 30
0
  0
VERTEX
  8
LAYER_1
 10
113.4307
 20
110.4871
  0
VERTEX
  8
LAYER_1
 10
113.4307
 20
112.6038
  0
SEQEND
  0
POLYLINE
  8
LAYER_1
 40
0.1693
 41
0.1693
 66
1
 10
0
 20
0
 30
0
  0
VERTEX
  8
LAYER_1
 10
112.4358
 20
110.4871
  0
VERTEX
  8
LAYER_1
 10
113.4307
 20
110.4871
  0
SEQEND
  0
POLYLINE
  8
LAYER_1
 40
0.1693
 41
0.1693
 66
1
 10
0
 20
0
 30
0
  0
VERTEX
  8
LAYER_1
 10
112.4358
 20
109.0689
  0
VERTEX
  8
LAYER_1
 10
112.4358
 20
110.4871
  0
SEQEND
  0
POLYLINE
  8
LAYER_1
 40
0.0847
 41
0.0847
 66
1
 10
0
 20
0
 30
0
  0
VERTEX
  8
LAYER_1
 10
137.7085
 20
109.0689
  0
VERTEX
  8
LAYER_1
 10
141.2433
 20
112.6038
  0
SEQEND
  0
POLYLINE
  8
LAYER_1
 40
0.0847
 41
0.0847
 66
1
 10
0
 20
0
 30
0
  0
VERTEX
  8
LAYER_1
 10
135.6976
 20
109.0689
  0
VERTEX
  8
LAYER_1
 10
139.2325
 20
112.6038
  0
SEQEND
  0
POLYLINE
  8
LAYER_1
 40
0.0847
 41
0.0847
 66
1
 10
0
 20
0
 30
0
  0
VERTEX
  8
LAYER_1
 10
133.708
 20
109.0689
  0
VERTEX
  8
LAYER_1
 10
137.2428
 20
112.6038
  0
SEQEND
  0
POLYLINE
  8
LAYER_1
 40
0.0847
 41
0.0847
 66
1
 10
0
 20
0
 30
0
  0
VERTEX
  8
LAYER_1
 10
131.6971
 20
109.0689
  0
VERTEX
  8
LAYER_1
 10
135.232
 20
112.6038
  0
SEQEND
  0
POLYLINE
  8
LAYER_1
 40
0.0847
 41
0.0847
 66
1
 10
0
 20
0
 30
0
  0
VERTEX
  8
LAYER_1
 10
129.7075
 20
109.0689
  0
VERTEX
  8
LAYER_1
 10
133.2423
 20
112.6038
  0
SEQEND
  0
POLYLINE
  8
LAYER_1
 40
0.0847
 41
0.0847
 66
1
 10
0
 20
0
 30
0
  0
VERTEX
  8
LAYER_1
 10
127.6966
 20
109.0689
  0
VERTEX
  8
LAYER_1
 10
131.2315
 20
112.6038
  0
SEQEND
  0
POLYLINE
  8
LAYER_1
 40
0.0847
 41
0.0847
 66
1
 10
0
 20
0
 30
0
  0
VERTEX
  8
LAYER_1
 10
125.707
 20
109.0689
  0
VERTEX
  8
LAYER_1
 10
129.2418
 20
112.6038
  0
SEQEND
  0
POLYLINE
  8
LAYER_1
 40
0.0847
 41
0.0847
 66
1
 10
0
 20
0
 30
0
  0
VERTEX
  8
LAYER_1
 10
123.6961
 20
109.0689
  0
VERTEX
  8
LAYER_1
 10
127.231
 20
112.6038
  0
SEQEND
  0
POLYLINE
  8
LAYER_1
 40
0.0847
 41
0.0847
 66
1
 10
0
 20
0
 30
0
  0
VERTEX
  8
LAYER_1
 10
121.7064
 20
109.0689
  0
VERTEX
  8
LAYER_1
 10
125.2413
 20
112.6038
  0
SEQEND
  0
POLYLINE
  8
LAYER_1
 40
0.0847
 41
0.0847
 66
1
 10
0
 20
0
 30
0
  0
VERTEX
  8
LAYER_1
 10
119.6956
 20
109.0689
  0
VERTEX
  8
LAYER_1
 10
123.2304
 20
112.6038
  0
SEQEND
  0
POLYLINE
  8
LAYER_1
 40
0.0847
 41
0.0847
 66
1
 10
0
 20
0
 30
0
  0
VERTEX
  8
LAYER_1
 10
117.7059
 20
109.0689
  0
VERTEX
  8
LAYER_1
 10
121.2408
 20
112.6038
  0
SEQEND
  0
POLYLINE
  8
LAYER_1
 40
0.0847
 41
0.0847
 66
1
 10
0
 20
0
 30
0
  0
VERTEX
  8
LAYER_1
 10
115.6951
 20
109.0689
  0
VERTEX
  8
LAYER_1
 10
119.2299
 20
112.6038
  0
SEQEND
  0
POLYLINE
  8
LAYER_1
 40
0.0847
 41
0.0847
 66
1
 10
0
 20
0
 30
0
  0
VERTEX
  8
LAYER_1
 10
113.7054
 20
109.0689
  0
VERTEX
  8
LAYER_1
 10
117.2403
 20
112.6038
  0
SEQEND
  0
POLYLINE
  8
LAYER_1
 40
0.0847
 41
0.0847
 66
1
 10
0
 20
0
 30
0
  0
VERTEX
  8
LAYER_1
 10
112.4354
 20
109.8098
  0
VERTEX
  8
LAYER_1
 10
113.1128
 20
110.4871
  0
SEQEND
  0
POLYLINE
  8
LAYER_1
 40
0.0847
 41
0.0847
 66
1
 10
0
 20
0
 30
0
  0
VERTEX
  8
LAYER_1
 10
113.4303
 20
110.7834
  0
VERTEX
  8
LAYER_1
 10
115.2294
 20
112.6038
  0
SEQEND
  0
POLYLINE
  8
LAYER_1
 40
0.0847
 41
0.0847
 66
1
 10
0
 20
0
 30
0
  0
VERTEX
  8
LAYER_1
 10
-6.2672
 20
109.069
  0
VERTEX
  8
LAYER_1
 10
-2.7324
 20
112.6038
  0
SEQEND
  0
POLYLINE
  8
LAYER_1
 40
0.0847
 41
0.0847
 66
1
 10
0
 20
0
 30
0
  0
VERTEX
  8
LAYER_1
 10
-8.2781
 20
109.069
  0
VERTEX
  8
LAYER_1
 10
-4.7432
 20
112.6038
  0
SEQEND
  0
POLYLINE
  8
LAYER_1
 40
0.0847
 41
0.0847
 66
1
 10
0
 20
0
 30
0
  0
VERTEX
  8
LAYER_1
 10
-10.2677
 20
109.069
  0
VERTEX
  8
LAYER_1
 10
-6.7329
 20
112.6038
  0
SEQEND
  0
POLYLINE
  8
LAYER_1
 40
0.0847
 41
0.0847
 66
1
 10
0
 20
0
 30
0
  0
VERTEX
  8
LAYER_1
 10
-12.2786
 20
109.069
  0
VERTEX
  8
LAYER_1
 10
-8.7437
 20
112.6038
  0
SEQEND
  0
POLYLINE
  8
LAYER_1
 40
0.0847
 41
0.0847
 66
1
 10
0
 20
0
 30
0
  0
VERTEX
  8
LAYER_1
 10
-14.2682
 20
109.069
  0
VERTEX
  8
LAYER_1
 10
-10.7334
 20
112.6038
  0
SEQEND
  0
POLYLINE
  8
LAYER_1
 40
0.0847
 41
0.0847
 66
1
 10
0
 20
0
 30
0
  0
VERTEX
  8
LAYER_1
 10
-16.2791
 20
109.069
  0
VERTEX
  8
LAYER_1
 10
-12.7442
 20
112.6038
  0
SEQEND
  0
POLYLINE
  8
LAYER_1
 40
0.0847
 41
0.0847
 66
1
 10
0
 20
0
 30
0
  0
VERTEX
  8
LAYER_1
 10
-18.2687
 20
109.069
  0
VERTEX
  8
LAYER_1
 10
-14.7339
 20
112.6038
  0
SEQEND
  0
POLYLINE
  8
LAYER_1
 40
0.0847
 41
0.0847
 66
1
 10
0
 20
0
 30
0
  0
VERTEX
  8
LAYER_1
 10
-20.2796
 20
109.069
  0
VERTEX
  8
LAYER_1
 10
-16.7447
 20
112.6038
  0
SEQEND
  0
POLYLINE
  8
LAYER_1
 40
0.0847
 41
0.0847
 66
1
 10
0
 20
0
 30
0
  0
VERTEX
  8
LAYER_1
 10
-22.2692
 20
109.069
  0
VERTEX
  8
LAYER_1
 10
-18.7344
 20
112.6038
  0
SEQEND
  0
POLYLINE
  8
LAYER_1
 40
0.0847
 41
0.0847
 66
1
 10
0
 20
0
 30
0
  0
VERTEX
  8
LAYER_1
 10
-24.2801
 20
109.069
  0
VERTEX
  8
LAYER_1
 10
-20.7452
 20
112.6038
  0
SEQEND
  0
POLYLINE
  8
LAYER_1
 40
0.0847
 41
0.0847
 66
1
 10
0
 20
0
 30
0
  0
VERTEX
  8
LAYER_1
 10
-26.2697
 20
109.069
  0
VERTEX
  8
LAYER_1
 10
-22.7349
 20
112.6038
  0
SEQEND
  0
POLYLINE
  8
LAYER_1
 40
0.0847
 41
0.0847
 66
1
 10
0
 20
0
 30
0
  0
VERTEX
  8
LAYER_1
 10
122.5531
 20
110.4871
  0
VERTEX
  8
LAYER_1
 10
122.5531
 20
112.6038
  0
SEQEND
  0
POLYLINE
  8
LAYER_1
 40
0.0847
 41
0.0847
 66
1
 10
0
 20
0
 30
0
  0
VERTEX
  8
LAYER_1
 10
115.7163
 20
112.6038
  0
VERTEX
  8
LAYER_1
 10
122.5531
 20
112.6038
  0
SEQEND
  0
POLYLINE
  8
LAYER_1
 40
0.1693
 41
0.1693
 66
1
 10
0
 20
0
 30
0
  0
VERTEX
  8
LAYER_1
 10
1.3108
 20
109.0689
  0
VERTEX
  8
LAYER_1
 10
1.3108
 20
110.4871
  0
SEQEND
  0
POLYLINE
  8
LAYER_1
 40
0.0847
 41
0.0847
 66
1
 10
0
 20
0
 30
0
  0
VERTEX
  8
LAYER_1
 10
-0.2767
 20
109.0689
  0
VERTEX
  8
LAYER_1
 10
1.1415
 20
110.4871
  0
SEQEND
  0
POLYLINE
  8
LAYER_1
 40
0.0847
 41
0.0847
 66
1
 10
0
 20
0
 30
0
  0
VERTEX
  8
LAYER_1
 10
-2.2663
 20
109.0689
  0
VERTEX
  8
LAYER_1
 10
0.316
 20
111.6513
  0
SEQEND
  0
POLYLINE
  8
LAYER_1
 40
0.0847
 41
0.0847
 66
1
 10
0
 20
0
 30
0
  0
VERTEX
  8
LAYER_1
 10
-4.2772
 20
109.0689
  0
VERTEX
  8
LAYER_1
 10
-0.7423
 20
112.6038
  0
SEQEND
  0
POLYLINE
  8
LAYER_1
 40
0.1693
 41
0.1693
 66
1
 10
0
 20
0
 30
0
  0
VERTEX
  8
LAYER_1
 10
-27.9627
 20
112.6038
  0
VERTEX
  8
LAYER_1
 10
0.316
 20
112.6038
  0
SEQEND
  0
POLYLINE
  8
LAYER_1
 40
0.1693
 41
0.1693
 66
1
 10
0
 20
0
 30
0
  0
VERTEX
  8
LAYER_1
 10
-27.9627
 20
109.0689
  0
VERTEX
  8
LAYER_1
 10
1.3108
 20
109.0689
  0
SEQEND
  0
POLYLINE
  8
LAYER_1
 40
0.0847
 41
0.0847
 66
1
 10
0
 20
0
 30
0
  0
VERTEX
  8
LAYER_1
 10
-27.9627
 20
111.3761
  0
VERTEX
  8
LAYER_1
 10
-26.735
 20
112.6038
  0
SEQEND
  0
POLYLINE
  8
LAYER_1
 40
0.0847
 41
0.0847
 66
1
 10
0
 20
0
 30
0
  0
VERTEX
  8
LAYER_1
 10
-27.9627
 20
109.3653
  0
VERTEX
  8
LAYER_1
 10
-24.7453
 20
112.6038
  0
SEQEND
  0
TEXT
  8
LAYER_1
 10
-26.968
 20
106.0633
 11
-26.968
 21
106.0633
 40
2.5779
 41
0.5
  1
天板厚：25mm以上
  0
POLYLINE
  8
LAYER_1
 40
0.0847
 41
0.0847
 66
1
 10
0
 20
0
 30
0
  0
VERTEX
  8
LAYER_1
 10
-34.1857
 20
109.0689
  0
VERTEX
  8
LAYER_1
 10
-34.1857
 20
112.6038
  0
SEQEND
  0
POLYLINE
  8
LAYER_1
 40
0.1693
 41
0.1693
 66
1
 10
0
 20
0
 30
0
  0
VERTEX
  8
LAYER_1
 10
-34.1857
 20
112.6038
  0
VERTEX
  8
LAYER_1
 10
-34.736
 20
114.6569
  0
SEQEND
  0
POLYLINE
  8
LAYER_1
 40
0.1693
 41
0.1693
 66
1
 10
0
 20
0
 30
0
  0
VERTEX
  8
LAYER_1
 10
-34.1857
 20
112.6038
  0
VERTEX
  8
LAYER_1
 10
-33.6353
 20
114.6569
  0
SEQEND
  0
POLYLINE
  8
LAYER_1
 40
0.1693
 41
0.1693
 66
1
 10
0
 20
0
 30
0
  0
VERTEX
  8
LAYER_1
 10
-34.1857
 20
109.0689
  0
VERTEX
  8
LAYER_1
 10
-33.6353
 20
107.0158
  0
SEQEND
  0
POLYLINE
  8
LAYER_1
 40
0.1693
 41
0.1693
 66
1
 10
0
 20
0
 30
0
  0
VERTEX
  8
LAYER_1
 10
-34.1857
 20
109.0689
  0
VERTEX
  8
LAYER_1
 10
-34.736
 20
107.0158
  0
SEQEND
  0
POLYLINE
  8
LAYER_1
 40
0.0847
 41
0.0847
 66
1
 10
0
 20
0
 30
0
  0
VERTEX
  8
LAYER_1
 10
-34.1857
 20
112.6038
  0
VERTEX
  8
LAYER_1
 10
-29.3173
 20
112.6038
  0
SEQEND
  0
POLYLINE
  8
LAYER_1
 40
0.0847
 41
0.0847
 66
1
 10
0
 20
0
 30
0
  0
VERTEX
  8
LAYER_1
 10
-34.1857
 20
109.0689
  0
VERTEX
  8
LAYER_1
 10
-29.3173
 20
109.0689
  0
SEQEND
  0
TEXT
  8
LAYER_1
 10
-34.715
 20
109.6825
 11
-34.715
 21
109.6825
 40
2.5779
 41
0.5
 50
89.99999999
  1
25
  0
POLYLINE
  8
LAYER_1
 40
0.1693
 41
0.1693
 66
1
 10
0
 20
0
 30
0
  0
VERTEX
  8
LAYER_1
 10
112.4358
 20
109.0689
  0
VERTEX
  8
LAYER_1
 10
141.7093
 20
109.0689
  0
SEQEND
  0
POLYLINE
  8
LAYER_1
 40
0.0847
 41
0.0847
 66
1
 10
0
 20
0
 30
0
  0
VERTEX
  8
LAYER_1
 10
139.6985
 20
109.0689
  0
VERTEX
  8
LAYER_1
 10
141.7093
 20
111.0798
  0
SEQEND
  0
POLYLINE
  8
LAYER_1
 40
0.1693
 41
0.1693
 66
1
 10
0
 20
0
 30
0
  0
VERTEX
  8
LAYER_1
 10
113.4307
 20
112.6038
  0
VERTEX
  8
LAYER_1
 10
141.7093
 20
112.6038
  0
SEQEND
  0
POLYLINE
  8
LAYER_1
 40
0.0847
 41
0.0847
 66
1
 10
0
 20
0
 30
0
  0
VERTEX
  8
LAYER_1
 10
0.316
 20
123.3141
  0
VERTEX
  8
LAYER_1
 10
113.4307
 20
123.3141
  0
SEQEND
  0
POLYLINE
  8
LAYER_1
 40
0.1693
 41
0.1693
 66
1
 10
0
 20
0
 30
0
  0
VERTEX
  8
LAYER_1
 10
0.316
 20
123.3141
  0
VERTEX
  8
LAYER_1
 10
2.3692
 20
123.8644
  0
SEQEND
  0
POLYLINE
  8
LAYER_1
 40
0.1693
 41
0.1693
 66
1
 10
0
 20
0
 30
0
  0
VERTEX
  8
LAYER_1
 10
0.316
 20
123.3141
  0
VERTEX
  8
LAYER_1
 10
2.3692
 20
122.7638
  0
SEQEND
  0
POLYLINE
  8
LAYER_1
 40
0.1693
 41
0.1693
 66
1
 10
0
 20
0
 30
0
  0
VERTEX
  8
LAYER_1
 10
113.4307
 20
123.3141
  0
VERTEX
  8
LAYER_1
 10
111.3775
 20
122.7638
  0
SEQEND
  0
POLYLINE
  8
LAYER_1
 40
0.1693
 41
0.1693
 66
1
 10
0
 20
0
 30
0
  0
VERTEX
  8
LAYER_1
 10
113.4307
 20
123.3141
  0
VERTEX
  8
LAYER_1
 10
111.3775
 20
123.8644
  0
SEQEND
  0
POLYLINE
  8
LAYER_1
 40
0.0847
 41
0.0847
 66
1
 10
0
 20
0
 30
0
  0
VERTEX
  8
LAYER_1
 10
0.316
 20
115.0168
  0
VERTEX
  8
LAYER_1
 10
0.316
 20
123.3141
  0
SEQEND
  0
POLYLINE
  8
LAYER_1
 40
0.0847
 41
0.0847
 66
1
 10
0
 20
0
 30
0
  0
VERTEX
  8
LAYER_1
 10
113.4307
 20
115.0168
  0
VERTEX
  8
LAYER_1
 10
113.4307
 20
123.3141
  0
SEQEND
  0
TEXT
  8
LAYER_1
 10
55.1166
 20
123.8642
 11
55.1166
 21
123.8642
 40
2.5779
 41
0.5
  1
800
  0
POLYLINE
  8
LAYER_1
 40
0.1693
 41
0.1693
 66
1
 10
0
 20
0
 30
0
  0
VERTEX
  8
LAYER_1
 10
163.384
 20
110.9104
  0
VERTEX
  8
LAYER_1
 10
163.384
 20
112.6038
  0
SEQEND
  0
POLYLINE
  8
LAYER_1
 40
0.1693
 41
0.1693
 66
1
 10
0
 20
0
 30
0
  0
VERTEX
  8
LAYER_1
 10
163.384
 20
110.9104
  0
VERTEX
  8
LAYER_1
 10
165.3737
 20
110.9104
  0
SEQEND
  0
POLYLINE
  8
LAYER_1
 40
0.1693
 41
0.1693
 66
1
 10
0
 20
0
 30
0
  0
VERTEX
  8
LAYER_1
 10
191.6627
 20
100.0096
  0
VERTEX
  8
LAYER_1
 10
193.356
 20
98.3163
  0
SEQEND
  0
POLYLINE
  8
LAYER_1
 40
0.1693
 41
0.1693
 66
1
 10
0
 20
0
 30
0
  0
VERTEX
  8
LAYER_1
 10
201.5687
 20
100.0096
  0
VERTEX
  8
LAYER_1
 10
199.8542
 20
98.3163
  0
SEQEND
  0
POLYLINE
  8
LAYER_1
 40
0.1693
 41
0.1693
 66
1
 10
0
 20
0
 30
0
  0
VERTEX
  8
LAYER_1
 10
190.4985
 20
100.0096
  0
VERTEX
  8
LAYER_1
 10
202.7328
 20
100.0096
  0
SEQEND
  0
POLYLINE
  8
LAYER_1
 40
0.1693
 41
0.1693
 66
1
 10
0
 20
0
 30
0
  0
VERTEX
  8
LAYER_1
 10
165.7758
 20
112.6038
  0
VERTEX
  8
LAYER_1
 10
190.4985
 20
100.0096
  0
SEQEND
  0
POLYLINE
  8
LAYER_1
 40
0.1693
 41
0.1693
 66
1
 10
0
 20
0
 30
0
  0
VERTEX
  8
LAYER_1
 10
229.8473
 20
110.9105
  0
VERTEX
  8
LAYER_1
 10
229.8473
 20
112.6038
  0
SEQEND
  0
POLYLINE
  8
LAYER_1
 40
0.1693
 41
0.1693
 66
1
 10
0
 20
0
 30
0
  0
VERTEX
  8
LAYER_1
 10
227.8365
 20
110.9105
  0
VERTEX
  8
LAYER_1
 10
229.8473
 20
110.9105
  0
SEQEND
  0
POLYLINE
  8
LAYER_1
 40
0.1693
 41
0.1693
 66
1
 10
0
 20
0
 30
0
  0
VERTEX
  8
LAYER_1
 10
227.4343
 20
112.6038
  0
VERTEX
  8
LAYER_1
 10
202.7328
 20
100.0096
  0
SEQEND
  0
POLYLINE
  8
LAYER_1
 40
0.1693
 41
0.1693
 66
1
 10
0
 20
0
 30
0
  0
VERTEX
  8
LAYER_1
 10
163.384
 20
112.6038
  0
VERTEX
  8
LAYER_1
 10
229.8473
 20
112.6038
  0
SEQEND
  0
POLYLINE
  8
LAYER_1
 40
0.1693
 41
0.1693
 66
1
 10
0
 20
0
 30
0
  0
VERTEX
  8
LAYER_1
 10
165.3737
 20
110.9105
  0
VERTEX
  8
LAYER_1
 10
190.0751
 20
98.3163
  0
SEQEND
  0
POLYLINE
  8
LAYER_1
 40
0.1693
 41
0.1693
 66
1
 10
0
 20
0
 30
0
  0
VERTEX
  8
LAYER_1
 10
227.8365
 20
110.9105
  0
VERTEX
  8
LAYER_1
 10
203.135
 20
98.3163
  0
SEQEND
  0
POLYLINE
  8
LAYER_1
 40
0.1693
 41
0.1693
 66
1
 10
0
 20
0
 30
0
  0
VERTEX
  8
LAYER_1
 10
190.0752
 20
98.3163
  0
VERTEX
  8
LAYER_1
 10
203.135
 20
98.3163
  0
SEQEND
  0
POLYLINE
  8
LAYER_1
 40
0.1693
 41
0.1693
 66
1
 10
0
 20
0
 30
0
  0
VERTEX
  8
LAYER_1
 10
163.384
 20
110.9105
  0
VERTEX
  8
LAYER_1
 10
163.384
 20
112.6038
  0
SEQEND
  0
POLYLINE
  8
LAYER_1
 40
0.1693
 41
0.1693
 66
1
 10
0
 20
0
 30
0
  0
VERTEX
  8
LAYER_1
 10
163.384
 20
110.4871
  0
VERTEX
  8
LAYER_1
 10
163.384
 20
112.6038
  0
SEQEND
  0
POLYLINE
  8
LAYER_1
 40
0.1693
 41
0.1693
 66
1
 10
0
 20
0
 30
0
  0
VERTEX
  8
LAYER_1
 10
163.384
 20
110.4871
  0
VERTEX
  8
LAYER_1
 10
164.3576
 20
110.4871
  0
SEQEND
  0
POLYLINE
  8
LAYER_1
 40
0.0847
 41
0.0847
 66
1
 10
0
 20
0
 30
0
  0
VERTEX
  8
LAYER_1
 10
156.7797
 20
109.0689
  0
VERTEX
  8
LAYER_1
 10
160.3145
 20
112.6038
  0
SEQEND
  0
POLYLINE
  8
LAYER_1
 40
0.0847
 41
0.0847
 66
1
 10
0
 20
0
 30
0
  0
VERTEX
  8
LAYER_1
 10
154.79
 20
109.0689
  0
VERTEX
  8
LAYER_1
 10
158.3248
 20
112.6038
  0
SEQEND
  0
POLYLINE
  8
LAYER_1
 40
0.0847
 41
0.0847
 66
1
 10
0
 20
0
 30
0
  0
VERTEX
  8
LAYER_1
 10
152.7791
 20
109.0689
  0
VERTEX
  8
LAYER_1
 10
156.314
 20
112.6038
  0
SEQEND
  0
POLYLINE
  8
LAYER_1
 40
0.1693
 41
0.1693
 66
1
 10
0
 20
0
 30
0
  0
VERTEX
  8
LAYER_1
 10
164.3573
 20
109.0689
  0
VERTEX
  8
LAYER_1
 10
164.3573
 20
110.4871
  0
SEQEND
  0
POLYLINE
  8
LAYER_1
 40
0.0847
 41
0.0847
 66
1
 10
0
 20
0
 30
0
  0
VERTEX
  8
LAYER_1
 10
162.7913
 20
109.0689
  0
VERTEX
  8
LAYER_1
 10
164.2095
 20
110.4871
  0
SEQEND
  0
POLYLINE
  8
LAYER_1
 40
0.0847
 41
0.0847
 66
1
 10
0
 20
0
 30
0
  0
VERTEX
  8
LAYER_1
 10
160.7805
 20
109.0689
  0
VERTEX
  8
LAYER_1
 10
163.384
 20
111.6513
  0
SEQEND
  0
POLYLINE
  8
LAYER_1
 40
0.0847
 41
0.0847
 66
1
 10
0
 20
0
 30
0
  0
VERTEX
  8
LAYER_1
 10
158.7908
 20
109.0689
  0
VERTEX
  8
LAYER_1
 10
162.3257
 20
112.6038
  0
SEQEND
  0
POLYLINE
  8
LAYER_1
 40
0.0847
 41
0.0847
 66
1
 10
0
 20
0
 30
0
  0
VERTEX
  8
LAYER_1
 10
196.6157
 20
91.0561
  0
VERTEX
  8
LAYER_1
 10
196.6157
 20
93.6596
  0
SEQEND
  0
POLYLINE
  8
LAYER_1
 40
0.0847
 41
0.0847
 66
1
 10
0
 20
0
 30
0
  0
VERTEX
  8
LAYER_1
 10
196.6157
 20
94.6968
  0
VERTEX
  8
LAYER_1
 10
196.6157
 20
95.7551
  0
SEQEND
  0
POLYLINE
  8
LAYER_1
 40
0.0847
 41
0.0847
 66
1
 10
0
 20
0
 30
0
  0
VERTEX
  8
LAYER_1
 10
196.6157
 20
96.7923
  0
VERTEX
  8
LAYER_1
 10
196.6157
 20
102.0204
  0
SEQEND
  0
POLYLINE
  8
LAYER_1
 40
0.0847
 41
0.0847
 66
1
 10
0
 20
0
 30
0
  0
VERTEX
  8
LAYER_1
 10
196.6157
 20
103.0788
  0
VERTEX
  8
LAYER_1
 10
196.6157
 20
104.116
  0
SEQEND
  0
POLYLINE
  8
LAYER_1
 40
0.0847
 41
0.0847
 66
1
 10
0
 20
0
 30
0
  0
VERTEX
  8
LAYER_1
 10
196.6157
 20
105.1531
  0
VERTEX
  8
LAYER_1
 10
196.6157
 20
110.4025
  0
SEQEND
  0
POLYLINE
  8
LAYER_1
 40
0.0847
 41
0.0847
 66
1
 10
0
 20
0
 30
0
  0
VERTEX
  8
LAYER_1
 10
196.6157
 20
111.4396
  0
VERTEX
  8
LAYER_1
 10
196.6157
 20
112.4768
  0
SEQEND
  0
POLYLINE
  8
LAYER_1
 40
0.0847
 41
0.0847
 66
1
 10
0
 20
0
 30
0
  0
VERTEX
  8
LAYER_1
 10
196.6157
 20
113.5351
  0
VERTEX
  8
LAYER_1
 10
196.6157
 20
118.7633
  0
SEQEND
  0
POLYLINE
  8
LAYER_1
 40
0.0847
 41
0.0847
 66
1
 10
0
 20
0
 30
0
  0
VERTEX
  8
LAYER_1
 10
196.6157
 20
119.8005
  0
VERTEX
  8
LAYER_1
 10
196.6157
 20
120.8588
  0
SEQEND
  0
POLYLINE
  8
LAYER_1
 40
0.0847
 41
0.0847
 66
1
 10
0
 20
0
 30
0
  0
VERTEX
  8
LAYER_1
 10
196.6157
 20
121.896
  0
VERTEX
  8
LAYER_1
 10
196.6157
 20
124.5206
  0
SEQEND
  0
POLYLINE
  8
LAYER_1
 40
0.1693
 41
0.1693
 66
1
 10
0
 20
0
 30
0
  0
VERTEX
  8
LAYER_1
 10
229.847
 20
110.9104
  0
VERTEX
  8
LAYER_1
 10
229.847
 20
112.6038
  0
SEQEND
  0
POLYLINE
  8
LAYER_1
 40
0.1693
 41
0.1693
 66
1
 10
0
 20
0
 30
0
  0
VERTEX
  8
LAYER_1
 10
229.847
 20
110.4871
  0
VERTEX
  8
LAYER_1
 10
229.847
 20
112.6038
  0
SEQEND
  0
POLYLINE
  8
LAYER_1
 40
0.1693
 41
0.1693
 66
1
 10
0
 20
0
 30
0
  0
VERTEX
  8
LAYER_1
 10
228.8521
 20
110.4871
  0
VERTEX
  8
LAYER_1
 10
229.847
 20
110.4871
  0
SEQEND
  0
POLYLINE
  8
LAYER_1
 40
0.1693
 41
0.1693
 66
1
 10
0
 20
0
 30
0
  0
VERTEX
  8
LAYER_1
 10
228.8521
 20
109.0689
  0
VERTEX
  8
LAYER_1
 10
228.8521
 20
110.4871
  0
SEQEND
  0
POLYLINE
  8
LAYER_1
 40
0.1693
 41
0.1693
 66
1
 10
0
 20
0
 30
0
  0
VERTEX
  8
LAYER_1
 10
229.847
 20
112.6038
  0
VERTEX
  8
LAYER_1
 10
241.4463
 20
112.6038
  0
SEQEND
  0
POLYLINE
  8
LAYER_1
 40
0.1693
 41
0.1693
 66
1
 10
0
 20
0
 30
0
  0
VERTEX
  8
LAYER_1
 10
228.8521
 20
109.0689
  0
VERTEX
  8
LAYER_1
 10
241.4463
 20
109.0689
  0
SEQEND
  0
POLYLINE
  8
LAYER_1
 40
0.1693
 41
0.1693
 66
1
 10
0
 20
0
 30
0
  0
VERTEX
  8
LAYER_1
 10
151.7631
 20
112.6038
  0
VERTEX
  8
LAYER_1
 10
163.3836
 20
112.6038
  0
SEQEND
  0
POLYLINE
  8
LAYER_1
 40
0.1693
 41
0.1693
 66
1
 10
0
 20
0
 30
0
  0
VERTEX
  8
LAYER_1
 10
151.7631
 20
109.0689
  0
VERTEX
  8
LAYER_1
 10
164.3573
 20
109.0689
  0
SEQEND
  0
POLYLINE
  8
LAYER_1
 40
0.0847
 41
0.0847
 66
1
 10
0
 20
0
 30
0
  0
VERTEX
  8
LAYER_1
 10
151.7635
 20
112.0534
  0
VERTEX
  8
LAYER_1
 10
152.335
 20
112.6038
  0
SEQEND
  0
POLYLINE
  8
LAYER_1
 40
0.0847
 41
0.0847
 66
1
 10
0
 20
0
 30
0
  0
VERTEX
  8
LAYER_1
 10
151.7635
 20
110.0426
  0
VERTEX
  8
LAYER_1
 10
154.3247
 20
112.6038
  0
SEQEND
  0
POLYLINE
  8
LAYER_1
 40
0.0847
 41
0.0847
 66
1
 10
0
 20
0
 30
0
  0
VERTEX
  8
LAYER_1
 10
240.7482
 20
109.0689
  0
VERTEX
  8
LAYER_1
 10
241.4467
 20
109.7674
  0
SEQEND
  0
POLYLINE
  8
LAYER_1
 40
0.0847
 41
0.0847
 66
1
 10
0
 20
0
 30
0
  0
VERTEX
  8
LAYER_1
 10
238.7585
 20
109.0689
  0
VERTEX
  8
LAYER_1
 10
241.4467
 20
111.7783
  0
SEQEND
  0
POLYLINE
  8
LAYER_1
 40
0.0847
 41
0.0847
 66
1
 10
0
 20
0
 30
0
  0
VERTEX
  8
LAYER_1
 10
236.7477
 20
109.0689
  0
VERTEX
  8
LAYER_1
 10
240.2825
 20
112.6038
  0
SEQEND
  0
POLYLINE
  8
LAYER_1
 40
0.0847
 41
0.0847
 66
1
 10
0
 20
0
 30
0
  0
VERTEX
  8
LAYER_1
 10
234.758
 20
109.0689
  0
VERTEX
  8
LAYER_1
 10
238.2928
 20
112.6038
  0
SEQEND
  0
POLYLINE
  8
LAYER_1
 40
0.0847
 41
0.0847
 66
1
 10
0
 20
0
 30
0
  0
VERTEX
  8
LAYER_1
 10
232.7472
 20
109.0689
  0
VERTEX
  8
LAYER_1
 10
236.282
 20
112.6038
  0
SEQEND
  0
POLYLINE
  8
LAYER_1
 40
0.0847
 41
0.0847
 66
1
 10
0
 20
0
 30
0
  0
VERTEX
  8
LAYER_1
 10
230.7575
 20
109.0689
  0
VERTEX
  8
LAYER_1
 10
234.2923
 20
112.6038
  0
SEQEND
  0
POLYLINE
  8
LAYER_1
 40
0.0847
 41
0.0847
 66
1
 10
0
 20
0
 30
0
  0
VERTEX
  8
LAYER_1
 10
228.8525
 20
109.1748
  0
VERTEX
  8
LAYER_1
 10
232.2815
 20
112.6038
  0
SEQEND
  0
POLYLINE
  8
LAYER_1
 40
0.0847
 41
0.0847
 66
1
 10
0
 20
0
 30
0
  0
VERTEX
  8
LAYER_1
 10
229.8473
 20
112.1593
  0
VERTEX
  8
LAYER_1
 10
230.2918
 20
112.6038
  0
SEQEND
  0
POLYLINE
  8
LAYER_1
 40
0.1693
 41
0.1693
 66
1
 10
0
 20
0
 30
0
  0
VERTEX
  8
LAYER_1
 10
228.8525
 20
110.4871
  0
VERTEX
  8
LAYER_1
 10
229.8473
 20
110.4871
  0
SEQEND
  0
POLYLINE
  8
LAYER_1
 40
0.0847
 41
0.0847
 66
1
 10
0
 20
0
 30
0
  0
VERTEX
  8
LAYER_1
 10
163.384
 20
123.3141
  0
VERTEX
  8
LAYER_1
 10
229.8473
 20
123.3141
  0
SEQEND
  0
POLYLINE
  8
LAYER_1
 40
0.1693
 41
0.1693
 66
1
 10
0
 20
0
 30
0
  0
VERTEX
  8
LAYER_1
 10
163.384
 20
123.3141
  0
VERTEX
  8
LAYER_1
 10
165.416
 20
123.8644
  0
SEQEND
  0
POLYLINE
  8
LAYER_1
 40
0.1693
 41
0.1693
 66
1
 10
0
 20
0
 30
0
  0
VERTEX
  8
LAYER_1
 10
163.384
 20
123.3141
  0
VERTEX
  8
LAYER_1
 10
165.416
 20
122.7638
  0
SEQEND
  0
POLYLINE
  8
LAYER_1
 40
0.1693
 41
0.1693
 66
1
 10
0
 20
0
 30
0
  0
VERTEX
  8
LAYER_1
 10
229.8473
 20
123.3141
  0
VERTEX
  8
LAYER_1
 10
227.7942
 20
122.7638
  0
SEQEND
  0
POLYLINE
  8
LAYER_1
 40
0.1693
 41
0.1693
 66
1
 10
0
 20
0
 30
0
  0
VERTEX
  8
LAYER_1
 10
229.8473
 20
123.3141
  0
VERTEX
  8
LAYER_1
 10
227.7942
 20
123.8644
  0
SEQEND
  0
POLYLINE
  8
LAYER_1
 40
0.0847
 41
0.0847
 66
1
 10
0
 20
0
 30
0
  0
VERTEX
  8
LAYER_1
 10
163.384
 20
115.0168
  0
VERTEX
  8
LAYER_1
 10
163.384
 20
123.3141
  0
SEQEND
  0
POLYLINE
  8
LAYER_1
 40
0.0847
 41
0.0847
 66
1
 10
0
 20
0
 30
0
  0
VERTEX
  8
LAYER_1
 10
229.8473
 20
115.0168
  0
VERTEX
  8
LAYER_1
 10
229.8473
 20
123.3141
  0
SEQEND
  0
TEXT
  8
LAYER_1
 10
194.8376
 20
123.8645
 11
194.8376
 21
123.8645
 40
2.5779
 41
0.5
  1
470
  0
POLYLINE
  8
LAYER_1
 40
0.1693
 41
0.1693
 66
1
 10
0
 20
0
 30
0
  0
VERTEX
  8
LAYER_1
 10
39.8553
 20
74.5884
  0
VERTEX
  8
LAYER_1
 10
39.8553
 20
78.97
  0
SEQEND
  0
POLYLINE
  8
LAYER_1
 40
0.1693
 41
0.1693
 66
1
 10
0
 20
0
 30
0
  0
VERTEX
  8
LAYER_1
 10
39.8553
 20
74.5884
  0
VERTEX
  8
LAYER_1
 10
73.7855
 20
74.5884
  0
VERTEX
  8
LAYER_1
 10
73.7855
 20
78.97
  0
SEQEND
  0
POLYLINE
  8
LAYER_1
 40
0.1693
 41
0.1693
 66
1
 10
0
 20
0
 30
0
  0
VERTEX
  8
LAYER_1
 10
39.8553
 20
78.9699
  0
VERTEX
  8
LAYER_1
 10
73.7855
 20
78.9699
  0
SEQEND
  0
POLYLINE
  8
LAYER_1
 40
0.1693
 41
0.1693
 66
1
 10
0
 20
0
 30
0
  0
VERTEX
  8
LAYER_1
 10
183.4288
 20
74.5884
  0
VERTEX
  8
LAYER_1
 10
183.4288
 20
78.97
  0
SEQEND
  0
POLYLINE
  8
LAYER_1
 40
0.1693
 41
0.1693
 66
1
 10
0
 20
0
 30
0
  0
VERTEX
  8
LAYER_1
 10
183.4288
 20
74.5884
  0
VERTEX
  8
LAYER_1
 10
217.3378
 20
74.5884
  0
VERTEX
  8
LAYER_1
 10
217.3378
 20
78.97
  0
SEQEND
  0
POLYLINE
  8
LAYER_1
 40
0.1693
 41
0.1693
 66
1
 10
0
 20
0
 30
0
  0
VERTEX
  8
LAYER_1
 10
183.4288
 20
78.9699
  0
VERTEX
  8
LAYER_1
 10
217.3378
 20
78.9699
  0
SEQEND
  0
POLYLINE
  8
LAYER_1
 40
0.254
 41
0.254
 66
1
 10
0
 20
0
 30
0
  0
VERTEX
  8
LAYER_1
 10
-0.8905
 20
94.4004
  0
VERTEX
  8
LAYER_1
 10
-0.8905
 20
96.0303
  0
SEQEND
  0
POLYLINE
  8
LAYER_1
 40
0.254
 41
0.254
 66
1
 10
0
 20
0
 30
0
  0
VERTEX
  8
LAYER_1
 10
-0.8905
 20
97.1098
  0
VERTEX
  8
LAYER_1
 10
-0.8905
 20
100.3694
  0
SEQEND
  0
POLYLINE
  8
LAYER_1
 40
0.254
 41
0.254
 66
1
 10
0
 20
0
 30
0
  0
VERTEX
  8
LAYER_1
 10
-0.8905
 20
101.4701
  0
VERTEX
  8
LAYER_1
 10
-0.8905
 20
104.7298
  0
SEQEND
  0
POLYLINE
  8
LAYER_1
 40
0.254
 41
0.254
 66
1
 10
0
 20
0
 30
0
  0
VERTEX
  8
LAYER_1
 10
-0.8905
 20
105.8093
  0
VERTEX
  8
LAYER_1
 10
-0.8905
 20
107.4603
  0
SEQEND
  0
POLYLINE
  8
LAYER_1
 40
0.254
 41
0.254
 66
1
 10
0
 20
0
 30
0
  0
VERTEX
  8
LAYER_1
 10
-0.8905
 20
94.4004
  0
VERTEX
  8
LAYER_1
 10
0.3795
 20
94.4004
  0
SEQEND
  0
POLYLINE
  8
LAYER_1
 40
0.254
 41
0.254
 66
1
 10
0
 20
0
 30
0
  0
VERTEX
  8
LAYER_1
 10
1.2262
 20
94.4004
  0
VERTEX
  8
LAYER_1
 10
3.7662
 20
94.4004
  0
SEQEND
  0
POLYLINE
  8
LAYER_1
 40
0.254
 41
0.254
 66
1
 10
0
 20
0
 30
0
  0
VERTEX
  8
LAYER_1
 10
4.6128
 20
94.4004
  0
VERTEX
  8
LAYER_1
 10
7.174
 20
94.4004
  0
SEQEND
  0
POLYLINE
  8
LAYER_1
 40
0.254
 41
0.254
 66
1
 10
0
 20
0
 30
0
  0
VERTEX
  8
LAYER_1
 10
8.0207
 20
94.4004
  0
VERTEX
  8
LAYER_1
 10
10.5607
 20
94.4004
  0
SEQEND
  0
POLYLINE
  8
LAYER_1
 40
0.254
 41
0.254
 66
1
 10
0
 20
0
 30
0
  0
VERTEX
  8
LAYER_1
 10
11.4073
 20
94.4004
  0
VERTEX
  8
LAYER_1
 10
13.9685
 20
94.4004
  0
SEQEND
  0
POLYLINE
  8
LAYER_1
 40
0.254
 41
0.254
 66
1
 10
0
 20
0
 30
0
  0
VERTEX
  8
LAYER_1
 10
14.8152
 20
94.4004
  0
VERTEX
  8
LAYER_1
 10
17.3552
 20
94.4004
  0
SEQEND
  0
POLYLINE
  8
LAYER_1
 40
0.254
 41
0.254
 66
1
 10
0
 20
0
 30
0
  0
VERTEX
  8
LAYER_1
 10
18.2018
 20
94.4004
  0
VERTEX
  8
LAYER_1
 10
20.763
 20
94.4004
  0
SEQEND
  0
POLYLINE
  8
LAYER_1
 40
0.254
 41
0.254
 66
1
 10
0
 20
0
 30
0
  0
VERTEX
  8
LAYER_1
 10
21.6097
 20
94.4004
  0
VERTEX
  8
LAYER_1
 10
24.1497
 20
94.4004
  0
SEQEND
  0
POLYLINE
  8
LAYER_1
 40
0.254
 41
0.254
 66
1
 10
0
 20
0
 30
0
  0
VERTEX
  8
LAYER_1
 10
25.0175
 20
94.4004
  0
VERTEX
  8
LAYER_1
 10
27.5575
 20
94.4004
  0
SEQEND
  0
POLYLINE
  8
LAYER_1
 40
0.254
 41
0.254
 66
1
 10
0
 20
0
 30
0
  0
VERTEX
  8
LAYER_1
 10
28.4042
 20
94.4004
  0
VERTEX
  8
LAYER_1
 10
30.9442
 20
94.4004
  0
SEQEND
  0
POLYLINE
  8
LAYER_1
 40
0.254
 41
0.254
 66
1
 10
0
 20
0
 30
0
  0
VERTEX
  8
LAYER_1
 10
31.812
 20
94.4004
  0
VERTEX
  8
LAYER_1
 10
34.352
 20
94.4004
  0
SEQEND
  0
POLYLINE
  8
LAYER_1
 40
0.254
 41
0.254
 66
1
 10
0
 20
0
 30
0
  0
VERTEX
  8
LAYER_1
 10
35.1987
 20
94.4004
  0
VERTEX
  8
LAYER_1
 10
37.7599
 20
94.4004
  0
SEQEND
  0
POLYLINE
  8
LAYER_1
 40
0.254
 41
0.254
 66
1
 10
0
 20
0
 30
0
  0
VERTEX
  8
LAYER_1
 10
38.6065
 20
94.4004
  0
VERTEX
  8
LAYER_1
 10
41.1465
 20
94.4004
  0
SEQEND
  0
POLYLINE
  8
LAYER_1
 40
0.254
 41
0.254
 66
1
 10
0
 20
0
 30
0
  0
VERTEX
  8
LAYER_1
 10
41.9932
 20
94.4004
  0
VERTEX
  8
LAYER_1
 10
44.5544
 20
94.4004
  0
SEQEND
  0
POLYLINE
  8
LAYER_1
 40
0.254
 41
0.254
 66
1
 10
0
 20
0
 30
0
  0
VERTEX
  8
LAYER_1
 10
45.401
 20
94.4004
  0
VERTEX
  8
LAYER_1
 10
47.941
 20
94.4004
  0
SEQEND
  0
POLYLINE
  8
LAYER_1
 40
0.254
 41
0.254
 66
1
 10
0
 20
0
 30
0
  0
VERTEX
  8
LAYER_1
 10
48.7877
 20
94.4004
  0
VERTEX
  8
LAYER_1
 10
51.3489
 20
94.4004
  0
SEQEND
  0
POLYLINE
  8
LAYER_1
 40
0.254
 41
0.254
 66
1
 10
0
 20
0
 30
0
  0
VERTEX
  8
LAYER_1
 10
52.1955
 20
94.4004
  0
VERTEX
  8
LAYER_1
 10
54.7355
 20
94.4004
  0
SEQEND
  0
POLYLINE
  8
LAYER_1
 40
0.254
 41
0.254
 66
1
 10
0
 20
0
 30
0
  0
VERTEX
  8
LAYER_1
 10
55.5822
 20
94.4004
  0
VERTEX
  8
LAYER_1
 10
58.1434
 20
94.4004
  0
SEQEND
  0
POLYLINE
  8
LAYER_1
 40
0.254
 41
0.254
 66
1
 10
0
 20
0
 30
0
  0
VERTEX
  8
LAYER_1
 10
58.99
 20
94.4004
  0
VERTEX
  8
LAYER_1
 10
61.53
 20
94.4004
  0
SEQEND
  0
POLYLINE
  8
LAYER_1
 40
0.254
 41
0.254
 66
1
 10
0
 20
0
 30
0
  0
VERTEX
  8
LAYER_1
 10
62.3767
 20
94.4004
  0
VERTEX
  8
LAYER_1
 10
64.9379
 20
94.4004
  0
SEQEND
  0
POLYLINE
  8
LAYER_1
 40
0.254
 41
0.254
 66
1
 10
0
 20
0
 30
0
  0
VERTEX
  8
LAYER_1
 10
65.7845
 20
94.4004
  0
VERTEX
  8
LAYER_1
 10
68.3245
 20
94.4004
  0
SEQEND
  0
POLYLINE
  8
LAYER_1
 40
0.254
 41
0.254
 66
1
 10
0
 20
0
 30
0
  0
VERTEX
  8
LAYER_1
 10
69.1712
 20
94.4004
  0
VERTEX
  8
LAYER_1
 10
71.7324
 20
94.4004
  0
SEQEND
  0
POLYLINE
  8
LAYER_1
 40
0.254
 41
0.254
 66
1
 10
0
 20
0
 30
0
  0
VERTEX
  8
LAYER_1
 10
72.579
 20
94.4004
  0
VERTEX
  8
LAYER_1
 10
75.119
 20
94.4004
  0
SEQEND
  0
POLYLINE
  8
LAYER_1
 40
0.254
 41
0.254
 66
1
 10
0
 20
0
 30
0
  0
VERTEX
  8
LAYER_1
 10
75.9657
 20
94.4004
  0
VERTEX
  8
LAYER_1
 10
78.5269
 20
94.4004
  0
SEQEND
  0
POLYLINE
  8
LAYER_1
 40
0.254
 41
0.254
 66
1
 10
0
 20
0
 30
0
  0
VERTEX
  8
LAYER_1
 10
79.3735
 20
94.4004
  0
VERTEX
  8
LAYER_1
 10
81.9135
 20
94.4004
  0
SEQEND
  0
POLYLINE
  8
LAYER_1
 40
0.254
 41
0.254
 66
1
 10
0
 20
0
 30
0
  0
VERTEX
  8
LAYER_1
 10
82.7814
 20
94.4004
  0
VERTEX
  8
LAYER_1
 10
85.3214
 20
94.4004
  0
SEQEND
  0
POLYLINE
  8
LAYER_1
 40
0.254
 41
0.254
 66
1
 10
0
 20
0
 30
0
  0
VERTEX
  8
LAYER_1
 10
86.168
 20
94.4004
  0
VERTEX
  8
LAYER_1
 10
88.708
 20
94.4004
  0
SEQEND
  0
POLYLINE
  8
LAYER_1
 40
0.254
 41
0.254
 66
1
 10
0
 20
0
 30
0
  0
VERTEX
  8
LAYER_1
 10
89.5759
 20
94.4004
  0
VERTEX
  8
LAYER_1
 10
92.1159
 20
94.4004
  0
SEQEND
  0
POLYLINE
  8
LAYER_1
 40
0.254
 41
0.254
 66
1
 10
0
 20
0
 30
0
  0
VERTEX
  8
LAYER_1
 10
92.9626
 20
94.4004
  0
VERTEX
  8
LAYER_1
 10
95.5237
 20
94.4004
  0
SEQEND
  0
POLYLINE
  8
LAYER_1
 40
0.254
 41
0.254
 66
1
 10
0
 20
0
 30
0
  0
VERTEX
  8
LAYER_1
 10
96.3704
 20
94.4004
  0
VERTEX
  8
LAYER_1
 10
98.9104
 20
94.4004
  0
SEQEND
  0
POLYLINE
  8
LAYER_1
 40
0.254
 41
0.254
 66
1
 10
0
 20
0
 30
0
  0
VERTEX
  8
LAYER_1
 10
99.7571
 20
94.4004
  0
VERTEX
  8
LAYER_1
 10
102.3182
 20
94.4004
  0
SEQEND
  0
POLYLINE
  8
LAYER_1
 40
0.254
 41
0.254
 66
1
 10
0
 20
0
 30
0
  0
VERTEX
  8
LAYER_1
 10
103.1649
 20
94.4004
  0
VERTEX
  8
LAYER_1
 10
105.7049
 20
94.4004
  0
SEQEND
  0
POLYLINE
  8
LAYER_1
 40
0.254
 41
0.254
 66
1
 10
0
 20
0
 30
0
  0
VERTEX
  8
LAYER_1
 10
106.5516
 20
94.4004
  0
VERTEX
  8
LAYER_1
 10
109.1127
 20
94.4004
  0
SEQEND
  0
POLYLINE
  8
LAYER_1
 40
0.254
 41
0.254
 66
1
 10
0
 20
0
 30
0
  0
VERTEX
  8
LAYER_1
 10
109.9594
 20
94.4004
  0
VERTEX
  8
LAYER_1
 10
112.4994
 20
94.4004
  0
SEQEND
  0
POLYLINE
  8
LAYER_1
 40
0.254
 41
0.254
 66
1
 10
0
 20
0
 30
0
  0
VERTEX
  8
LAYER_1
 10
113.3461
 20
94.4004
  0
VERTEX
  8
LAYER_1
 10
114.6372
 20
94.4004
  0
VERTEX
  8
LAYER_1
 10
114.6372
 20
96.0303
  0
SEQEND
  0
POLYLINE
  8
LAYER_1
 40
0.254
 41
0.254
 66
1
 10
0
 20
0
 30
0
  0
VERTEX
  8
LAYER_1
 10
114.6372
 20
97.1098
  0
VERTEX
  8
LAYER_1
 10
114.6372
 20
100.3694
  0
SEQEND
  0
POLYLINE
  8
LAYER_1
 40
0.254
 41
0.254
 66
1
 10
0
 20
0
 30
0
  0
VERTEX
  8
LAYER_1
 10
114.6372
 20
101.4701
  0
VERTEX
  8
LAYER_1
 10
114.6372
 20
104.7298
  0
SEQEND
  0
POLYLINE
  8
LAYER_1
 40
0.254
 41
0.254
 66
1
 10
0
 20
0
 30
0
  0
VERTEX
  8
LAYER_1
 10
114.6372
 20
105.8092
  0
VERTEX
  8
LAYER_1
 10
114.6372
 20
107.4603
  0
SEQEND
  0
POLYLINE
  8
LAYER_1
 40
0.0847
 41
0.0847
 66
1
 10
0
 20
0
 30
0
  0
VERTEX
  8
LAYER_1
 10
0.57
 20
110.5929
  0
VERTEX
  8
LAYER_1
 10
-11.9607
 20
92.0298
  0
SEQEND
  0
TEXT
  8
LAYER_1
 10
110.3191
 20
101.6606
 11
110.3191
 21
101.6606
 40
2.5779
 41
0.5
  1
7
  0
POLYLINE
  8
LAYER_1
 40
0.0847
 41
0.0847
 66
1
 10
0
 20
0
 30
0
  0
VERTEX
  8
LAYER_1
 10
113.4307
 20
100.8139
  0
VERTEX
  8
LAYER_1
 10
113.4307
 20
108.1376
  0
SEQEND
  0
POLYLINE
  8
LAYER_1
 40
0.0847
 41
0.0847
 66
1
 10
0
 20
0
 30
0
  0
VERTEX
  8
LAYER_1
 10
112.4358
 20
100.8139
  0
VERTEX
  8
LAYER_1
 10
112.4358
 20
108.1376
  0
SEQEND
  0
POLYLINE
  8
LAYER_1
 40
0.1693
 41
0.1693
 66
1
 10
0
 20
0
 30
0
  0
VERTEX
  8
LAYER_1
 10
113.4307
 20
100.8139
  0
VERTEX
  8
LAYER_1
 10
115.4838
 20
100.2636
  0
SEQEND
  0
POLYLINE
  8
LAYER_1
 40
0.1693
 41
0.1693
 66
1
 10
0
 20
0
 30
0
  0
VERTEX
  8
LAYER_1
 10
113.4307
 20
100.8139
  0
VERTEX
  8
LAYER_1
 10
115.4838
 20
101.3643
  0
SEQEND
  0
POLYLINE
  8
LAYER_1
 40
0.1693
 41
0.1693
 66
1
 10
0
 20
0
 30
0
  0
VERTEX
  8
LAYER_1
 10
112.4358
 20
100.8139
  0
VERTEX
  8
LAYER_1
 10
110.3827
 20
101.3643
  0
SEQEND
  0
POLYLINE
  8
LAYER_1
 40
0.1693
 41
0.1693
 66
1
 10
0
 20
0
 30
0
  0
VERTEX
  8
LAYER_1
 10
112.4358
 20
100.8139
  0
VERTEX
  8
LAYER_1
 10
110.3827
 20
100.2636
  0
SEQEND
  0
POLYLINE
  8
LAYER_1
 40
0.0847
 41
0.0847
 66
1
 10
0
 20
0
 30
0
  0
VERTEX
  8
LAYER_1
 10
112.4358
 20
100.8139
  0
VERTEX
  8
LAYER_1
 10
113.4307
 20
100.8139
  0
VERTEX
  8
LAYER_1
 10
116.9655
 20
100.8139
  0
SEQEND
  0
POLYLINE
  8
LAYER_1
 40
0.0847
 41
0.0847
 66
1
 10
0
 20
0
 30
0
  0
VERTEX
  8
LAYER_1
 10
108.901
 20
100.8139
  0
VERTEX
  8
LAYER_1
 10
112.4358
 20
100.8139
  0
SEQEND
  0
POLYLINE
  8
LAYER_1
 40
0.254
 41
0.254
 66
1
 10
0
 20
0
 30
0
  0
VERTEX
  8
LAYER_1
 10
163.511
 20
94.4004
  0
VERTEX
  8
LAYER_1
 10
163.511
 20
96.0091
  0
SEQEND
  0
POLYLINE
  8
LAYER_1
 40
0.254
 41
0.254
 66
1
 10
0
 20
0
 30
0
  0
VERTEX
  8
LAYER_1
 10
163.511
 20
97.0886
  0
VERTEX
  8
LAYER_1
 10
163.511
 20
100.3271
  0
SEQEND
  0
POLYLINE
  8
LAYER_1
 40
0.254
 41
0.254
 66
1
 10
0
 20
0
 30
0
  0
VERTEX
  8
LAYER_1
 10
163.511
 20
101.4066
  0
VERTEX
  8
LAYER_1
 10
163.511
 20
104.6451
  0
SEQEND
  0
POLYLINE
  8
LAYER_1
 40
0.254
 41
0.254
 66
1
 10
0
 20
0
 30
0
  0
VERTEX
  8
LAYER_1
 10
163.511
 20
105.7246
  0
VERTEX
  8
LAYER_1
 10
163.511
 20
107.3544
  0
SEQEND
  0
POLYLINE
  8
LAYER_1
 40
0.0847
 41
0.0847
 66
1
 10
0
 20
0
 30
0
  0
VERTEX
  8
LAYER_1
 10
163.68
 20
110.6988
  0
VERTEX
  8
LAYER_1
 10
148.5458
 20
92.0298
  0
SEQEND
  0
POLYLINE
  8
LAYER_1
 40
0.254
 41
0.254
 66
1
 10
0
 20
0
 30
0
  0
VERTEX
  8
LAYER_1
 10
163.511
 20
94.4004
  0
VERTEX
  8
LAYER_1
 10
164.8022
 20
94.4004
  0
SEQEND
  0
POLYLINE
  8
LAYER_1
 40
0.254
 41
0.254
 66
1
 10
0
 20
0
 30
0
  0
VERTEX
  8
LAYER_1
 10
165.67
 20
94.4004
  0
VERTEX
  8
LAYER_1
 10
168.2946
 20
94.4004
  0
SEQEND
  0
POLYLINE
  8
LAYER_1
 40
0.254
 41
0.254
 66
1
 10
0
 20
0
 30
0
  0
VERTEX
  8
LAYER_1
 10
169.1625
 20
94.4004
  0
VERTEX
  8
LAYER_1
 10
171.766
 20
94.4004
  0
SEQEND
  0
POLYLINE
  8
LAYER_1
 40
0.254
 41
0.254
 66
1
 10
0
 20
0
 30
0
  0
VERTEX
  8
LAYER_1
 10
172.655
 20
94.4004
  0
VERTEX
  8
LAYER_1
 10
175.2585
 20
94.4004
  0
SEQEND
  0
POLYLINE
  8
LAYER_1
 40
0.254
 41
0.254
 66
1
 10
0
 20
0
 30
0
  0
VERTEX
  8
LAYER_1
 10
176.1264
 20
94.4004
  0
VERTEX
  8
LAYER_1
 10
178.751
 20
94.4004
  0
SEQEND
  0
POLYLINE
  8
LAYER_1
 40
0.254
 41
0.254
 66
1
 10
0
 20
0
 30
0
  0
VERTEX
  8
LAYER_1
 10
179.6189
 20
94.4004
  0
VERTEX
  8
LAYER_1
 10
182.2224
 20
94.4004
  0
SEQEND
  0
POLYLINE
  8
LAYER_1
 40
0.254
 41
0.254
 66
1
 10
0
 20
0
 30
0
  0
VERTEX
  8
LAYER_1
 10
183.0902
 20
94.4004
  0
VERTEX
  8
LAYER_1
 10
185.7149
 20
94.4004
  0
SEQEND
  0
POLYLINE
  8
LAYER_1
 40
0.254
 41
0.254
 66
1
 10
0
 20
0
 30
0
  0
VERTEX
  8
LAYER_1
 10
186.5827
 20
94.4004
  0
VERTEX
  8
LAYER_1
 10
189.1862
 20
94.4004
  0
SEQEND
  0
POLYLINE
  8
LAYER_1
 40
0.254
 41
0.254
 66
1
 10
0
 20
0
 30
0
  0
VERTEX
  8
LAYER_1
 10
190.0541
 20
94.4004
  0
VERTEX
  8
LAYER_1
 10
192.6787
 20
94.4004
  0
SEQEND
  0
POLYLINE
  8
LAYER_1
 40
0.254
 41
0.254
 66
1
 10
0
 20
0
 30
0
  0
VERTEX
  8
LAYER_1
 10
193.5466
 20
94.4004
  0
VERTEX
  8
LAYER_1
 10
196.1501
 20
94.4004
  0
SEQEND
  0
POLYLINE
  8
LAYER_1
 40
0.254
 41
0.254
 66
1
 10
0
 20
0
 30
0
  0
VERTEX
  8
LAYER_1
 10
197.0391
 20
94.4004
  0
VERTEX
  8
LAYER_1
 10
199.6426
 20
94.4004
  0
SEQEND
  0
POLYLINE
  8
LAYER_1
 40
0.254
 41
0.254
 66
1
 10
0
 20
0
 30
0
  0
VERTEX
  8
LAYER_1
 10
200.5104
 20
94.4004
  0
VERTEX
  8
LAYER_1
 10
203.1351
 20
94.4004
  0
SEQEND
  0
POLYLINE
  8
LAYER_1
 40
0.254
 41
0.254
 66
1
 10
0
 20
0
 30
0
  0
VERTEX
  8
LAYER_1
 10
204.0029
 20
94.4004
  0
VERTEX
  8
LAYER_1
 10
206.6064
 20
94.4004
  0
SEQEND
  0
POLYLINE
  8
LAYER_1
 40
0.254
 41
0.254
 66
1
 10
0
 20
0
 30
0
  0
VERTEX
  8
LAYER_1
 10
207.4743
 20
94.4004
  0
VERTEX
  8
LAYER_1
 10
210.0989
 20
94.4004
  0
SEQEND
  0
POLYLINE
  8
LAYER_1
 40
0.254
 41
0.254
 66
1
 10
0
 20
0
 30
0
  0
VERTEX
  8
LAYER_1
 10
210.9668
 20
94.4004
  0
VERTEX
  8
LAYER_1
 10
213.5703
 20
94.4004
  0
SEQEND
  0
POLYLINE
  8
LAYER_1
 40
0.254
 41
0.254
 66
1
 10
0
 20
0
 30
0
  0
VERTEX
  8
LAYER_1
 10
214.4381
 20
94.4004
  0
VERTEX
  8
LAYER_1
 10
217.0628
 20
94.4004
  0
SEQEND
  0
POLYLINE
  8
LAYER_1
 40
0.254
 41
0.254
 66
1
 10
0
 20
0
 30
0
  0
VERTEX
  8
LAYER_1
 10
217.9306
 20
94.4004
  0
VERTEX
  8
LAYER_1
 10
220.5341
 20
94.4004
  0
SEQEND
  0
POLYLINE
  8
LAYER_1
 40
0.254
 41
0.254
 66
1
 10
0
 20
0
 30
0
  0
VERTEX
  8
LAYER_1
 10
221.4231
 20
94.4004
  0
VERTEX
  8
LAYER_1
 10
224.0266
 20
94.4004
  0
SEQEND
  0
POLYLINE
  8
LAYER_1
 40
0.254
 41
0.254
 66
1
 10
0
 20
0
 30
0
  0
VERTEX
  8
LAYER_1
 10
224.8945
 20
94.4004
  0
VERTEX
  8
LAYER_1
 10
227.5191
 20
94.4004
  0
SEQEND
  0
POLYLINE
  8
LAYER_1
 40
0.254
 41
0.254
 66
1
 10
0
 20
0
 30
0
  0
VERTEX
  8
LAYER_1
 10
228.387
 20
94.4004
  0
VERTEX
  8
LAYER_1
 10
229.6993
 20
94.4004
  0
VERTEX
  8
LAYER_1
 10
229.6993
 20
96.0091
  0
SEQEND
  0
POLYLINE
  8
LAYER_1
 40
0.254
 41
0.254
 66
1
 10
0
 20
0
 30
0
  0
VERTEX
  8
LAYER_1
 10
229.6993
 20
97.0886
  0
VERTEX
  8
LAYER_1
 10
229.6993
 20
100.3271
  0
SEQEND
  0
POLYLINE
  8
LAYER_1
 40
0.254
 41
0.254
 66
1
 10
0
 20
0
 30
0
  0
VERTEX
  8
LAYER_1
 10
229.6993
 20
101.4066
  0
VERTEX
  8
LAYER_1
 10
229.6993
 20
104.6451
  0
SEQEND
  0
POLYLINE
  8
LAYER_1
 40
0.254
 41
0.254
 66
1
 10
0
 20
0
 30
0
  0
VERTEX
  8
LAYER_1
 10
229.6993
 20
105.7246
  0
VERTEX
  8
LAYER_1
 10
229.6993
 20
107.3544
  0
SEQEND
  0
TEXT
  8
LAYER_1
 10
134.3221
 20
214.6483
 11
134.3221
 21
214.6483
 40
2.1846
 41
0.5
  1
付属：専用特殊コーキングテープ（透明）
  0
TEXT
  8
LAYER_1
 10
-32.3654
 20
89.7862
 11
-32.3654
 21
89.7862
 40
2.1846
 41
0.5
  1
付属：専用特殊コーキングテープ（透明）
  0
TEXT
  8
LAYER_1
 10
139.3171
 20
89.8284
 11
139.3171
 21
89.8284
 40
2.1846
 41
0.5
  1
付属：専用特殊コーキングテープ（透明）
  0
TEXT
  8
LAYER_1
 10
12.6137
 20
84.4098
 11
12.6137
 21
84.4098
 40
2.1846
 41
0.5
  1
※天板から下が見えないようにするためには、点線エリアに造作を施してください。
  0
POLYLINE
  8
LAYER_1
 40
0.0847
 41
0.0847
 66
1
 10
0
 20
0
 30
0
  0
VERTEX
  8
LAYER_1
 10
113.4307
 20
112.6038
  0
VERTEX
  8
LAYER_1
 10
120.1828
 20
121.4091
  0
SEQEND
  0
POLYLINE
  8
LAYER_1
 40
0.0847
 41
0.0847
 66
1
 10
0
 20
0
 30
0
  0
VERTEX
  8
LAYER_1
 10
163.384
 20
112.6038
  0
VERTEX
  8
LAYER_1
 10
157.3092
 20
121.4091
  0
SEQEND
  0
POLYLINE
  8
LAYER_1
 40
0.0847
 41
0.0847
 66
1
 10
0
 20
0
 30
0
  0
VERTEX
  8
LAYER_1
 10
120.1828
 20
121.4091
  0
VERTEX
  8
LAYER_1
 10
157.3092
 20
121.4091
  0
SEQEND
  0
POLYLINE
  8
LAYER_1
 40
0.1693
 41
0.1693
 66
1
 10
0
 20
0
 30
0
  0
VERTEX
  8
LAYER_1
 10
113.4307
 20
112.6038
  0
VERTEX
  8
LAYER_1
 10
114.235
 20
114.5723
  0
SEQEND
  0
POLYLINE
  8
LAYER_1
 40
0.1693
 41
0.1693
 66
1
 10
0
 20
0
 30
0
  0
VERTEX
  8
LAYER_1
 10
113.4307
 20
112.6038
  0
VERTEX
  8
LAYER_1
 10
115.1028
 20
113.8949
  0
SEQEND
  0
POLYLINE
  8
LAYER_1
 40
0.1693
 41
0.1693
 66
1
 10
0
 20
0
 30
0
  0
VERTEX
  8
LAYER_1
 10
163.384
 20
112.6038
  0
VERTEX
  8
LAYER_1
 10
161.7542
 20
113.9796
  0
SEQEND
  0
POLYLINE
  8
LAYER_1
 40
0.1693
 41
0.1693
 66
1
 10
0
 20
0
 30
0
  0
VERTEX
  8
LAYER_1
 10
163.384
 20
112.6038
  0
VERTEX
  8
LAYER_1
 10
162.6643
 20
114.5934
  0
SEQEND
  0
TEXT
  8
LAYER_1
 10
107.7911
 20
243.6618
 11
107.7911
 21
243.6618
 40
2.9274
 41
0.5
  1
※埋め込み（オーバーカウンター／ドロップイン）
  0
POLYLINE
  8
LAYER_1
 40
0.1693
 41
0.1693
 66
1
 10
0
 20
0
 30
0
  0
VERTEX
  8
LAYER_1
 10
170.3267
 20
184.5493
  0
VERTEX
  8
LAYER_1
 10
151.5518
 20
179.1094
  0
SEQEND
  0
POLYLINE
  8
LAYER_1
 40
0.1693
 41
0.1693
 66
1
 10
0
 20
0
 30
0
  0
VERTEX
  8
LAYER_1
 10
171.5332
 20
176.0826
  0
VERTEX
  8
LAYER_1
 10
151.5518
 20
170.2829
  0
SEQEND
  0
POLYLINE
  8
LAYER_1
 40
0.1693
 41
0.1693
 66
1
 10
0
 20
0
 30
0
  0
VERTEX
  8
LAYER_1
 10
171.5332
 20
176.0826
  0
VERTEX
  8
LAYER_1
 10
205.6962
 20
176.0826
  0
VERTEX
  8
LAYER_1
 10
205.6962
 20
184.5493
  0
SEQEND
  0
POLYLINE
  8
LAYER_1
 40
0.1693
 41
0.1693
 66
1
 10
0
 20
0
 30
0
  0
VERTEX
  8
LAYER_1
 10
205.6962
 20
176.0826
  0
VERTEX
  8
LAYER_1
 10
205.6962
 20
184.5493
  0
SEQEND
  0
POLYLINE
  8
LAYER_1
 40
0.1693
 41
0.1693
 66
1
 10
0
 20
0
 30
0
  0
VERTEX
  8
LAYER_1
 10
205.6962
 20
176.0826
  0
VERTEX
  8
LAYER_1
 10
205.6962
 20
184.5493
  0
SEQEND
  0
POLYLINE
  8
LAYER_1
 40
0.1693
 41
0.1693
 66
1
 10
0
 20
0
 30
0
  0
VERTEX
  8
LAYER_1
 10
205.6962
 20
173.9448
  0
VERTEX
  8
LAYER_1
 10
205.6962
 20
184.5493
  0
SEQEND
  0
POLYLINE
  8
LAYER_1
 40
0.1693
 41
0.1693
 66
1
 10
0
 20
0
 30
0
  0
VERTEX
  8
LAYER_1
 10
200.7432
 20
173.9448
  0
VERTEX
  8
LAYER_1
 10
205.6962
 20
173.9448
  0
SEQEND
  0
POLYLINE
  8
LAYER_1
 40
0.1693
 41
0.1693
 66
1
 10
0
 20
0
 30
0
  0
VERTEX
  8
LAYER_1
 10
200.7432
 20
166.8751
  0
VERTEX
  8
LAYER_1
 10
200.7432
 20
173.9448
  0
SEQEND
  0
POLYLINE
  8
LAYER_1
 40
0.0847
 41
0.0847
 66
1
 10
0
 20
0
 30
0
  0
VERTEX
  8
LAYER_1
 10
237.0652
 20
166.8751
  0
VERTEX
  8
LAYER_1
 10
243.5422
 20
173.3521
  0
SEQEND
  0
POLYLINE
  8
LAYER_1
 40
0.0847
 41
0.0847
 66
1
 10
0
 20
0
 30
0
  0
VERTEX
  8
LAYER_1
 10
227.0533
 20
166.8751
  0
VERTEX
  8
LAYER_1
 10
243.5422
 20
183.3428
  0
SEQEND
  0
POLYLINE
  8
LAYER_1
 40
0.0847
 41
0.0847
 66
1
 10
0
 20
0
 30
0
  0
VERTEX
  8
LAYER_1
 10
217.0627
 20
166.8751
  0
VERTEX
  8
LAYER_1
 10
234.7368
 20
184.5493
  0
SEQEND
  0
POLYLINE
  8
LAYER_1
 40
0.0847
 41
0.0847
 66
1
 10
0
 20
0
 30
0
  0
VERTEX
  8
LAYER_1
 10
207.072
 20
166.8751
  0
VERTEX
  8
LAYER_1
 10
224.7462
 20
184.5493
  0
SEQEND
  0
POLYLINE
  8
LAYER_1
 40
0.0847
 41
0.0847
 66
1
 10
0
 20
0
 30
0
  0
VERTEX
  8
LAYER_1
 10
200.7432
 20
170.5581
  0
VERTEX
  8
LAYER_1
 10
204.1298
 20
173.9448
  0
SEQEND
  0
POLYLINE
  8
LAYER_1
 40
0.0847
 41
0.0847
 66
1
 10
0
 20
0
 30
0
  0
VERTEX
  8
LAYER_1
 10
205.6962
 20
175.5111
  0
VERTEX
  8
LAYER_1
 10
214.7343
 20
184.5493
  0
SEQEND
  0
POLYLINE
  8
LAYER_1
 40
0.0847
 41
0.0847
 66
1
 10
0
 20
0
 30
0
  0
VERTEX
  8
LAYER_1
 10
217.105
 20
184.5493
  0
VERTEX
  8
LAYER_1
 10
243.5422
 20
184.5493
  0
SEQEND
  0
POLYLINE
  8
LAYER_1
 40
0.1693
 41
0.1693
 66
1
 10
0
 20
0
 30
0
  0
VERTEX
  8
LAYER_1
 10
200.7428
 20
166.8751
  0
VERTEX
  8
LAYER_1
 10
243.5418
 20
166.8751
  0
SEQEND
  0
POLYLINE
  8
LAYER_1
 40
0.1693
 41
0.1693
 66
1
 10
0
 20
0
 30
0
  0
VERTEX
  8
LAYER_1
 10
205.6958
 20
184.5493
  0
VERTEX
  8
LAYER_1
 10
243.5418
 20
184.5493
  0
SEQEND
  0
POLYLINE
  8
LAYER_1
 40
0.1693
 41
0.1693
 66
1
 10
0
 20
0
 30
0
  0
VERTEX
  8
LAYER_1
 10
151.5515
 20
184.5493
  0
VERTEX
  8
LAYER_1
 10
204.9762
 20
184.5493
  0
SEQEND
  0
POLYLINE
  8
LAYER_1
 40
0.1693
 41
0.1693
 66
1
 10
0
 20
0
 30
0
  0
VERTEX
  8
LAYER_1
 10
204.9762
 20
176.0826
  0
VERTEX
  8
LAYER_1
 10
204.9762
 20
184.5493
  0
SEQEND
  0
POLYLINE
  8
LAYER_1
 40
0.1693
 41
0.1693
 66
1
 10
0
 20
0
 30
0
  0
VERTEX
  8
LAYER_1
 10
171.5328
 20
176.0826
  0
VERTEX
  8
LAYER_1
 10
204.9762
 20
176.0826
  0
SEQEND
  0
POLYLINE
  8
LAYER_1
 40
0.0847
 41
0.0847
 66
1
 10
0
 20
0
 30
0
  0
VERTEX
  8
LAYER_1
 10
204.9762
 20
184.5493
  0
VERTEX
  8
LAYER_1
 10
205.6958
 20
184.5493
  0
SEQEND
  0
POLYLINE
  8
LAYER_1
 40
0.0847
 41
0.0847
 66
1
 10
0
 20
0
 30
0
  0
VERTEX
  8
LAYER_1
 10
205.6323
 20
176.0826
  0
VERTEX
  8
LAYER_1
 10
205.6958
 20
176.1249
  0
SEQEND
  0
POLYLINE
  8
LAYER_1
 40
0.0847
 41
0.0847
 66
1
 10
0
 20
0
 30
0
  0
VERTEX
  8
LAYER_1
 10
204.9762
 20
176.4213
  0
VERTEX
  8
LAYER_1
 10
205.6958
 20
177.1198
  0
SEQEND
  0
POLYLINE
  8
LAYER_1
 40
0.0847
 41
0.0847
 66
1
 10
0
 20
0
 30
0
  0
VERTEX
  8
LAYER_1
 10
204.9762
 20
177.4161
  0
VERTEX
  8
LAYER_1
 10
205.6958
 20
178.1358
  0
SEQEND
  0
POLYLINE
  8
LAYER_1
 40
0.0847
 41
0.0847
 66
1
 10
0
 20
0
 30
0
  0
VERTEX
  8
LAYER_1
 10
204.9762
 20
178.4109
  0
VERTEX
  8
LAYER_1
 10
205.6958
 20
179.1306
  0
SEQEND
  0
POLYLINE
  8
LAYER_1
 40
0.0847
 41
0.0847
 66
1
 10
0
 20
0
 30
0
  0
VERTEX
  8
LAYER_1
 10
204.9762
 20
179.4269
  0
VERTEX
  8
LAYER_1
 10
205.6958
 20
180.1255
  0
SEQEND
  0
POLYLINE
  8
LAYER_1
 40
0.0847
 41
0.0847
 66
1
 10
0
 20
0
 30
0
  0
VERTEX
  8
LAYER_1
 10
204.9762
 20
180.4218
  0
VERTEX
  8
LAYER_1
 10
205.6958
 20
181.1203
  0
SEQEND
  0
POLYLINE
  8
LAYER_1
 40
0.0847
 41
0.0847
 66
1
 10
0
 20
0
 30
0
  0
VERTEX
  8
LAYER_1
 10
204.9762
 20
181.4166
  0
VERTEX
  8
LAYER_1
 10
205.6958
 20
182.1151
  0
SEQEND
  0
POLYLINE
  8
LAYER_1
 40
0.0847
 41
0.0847
 66
1
 10
0
 20
0
 30
0
  0
VERTEX
  8
LAYER_1
 10
204.9762
 20
182.4115
  0
VERTEX
  8
LAYER_1
 10
205.6958
 20
183.1311
  0
SEQEND
  0
POLYLINE
  8
LAYER_1
 40
0.0847
 41
0.0847
 66
1
 10
0
 20
0
 30
0
  0
VERTEX
  8
LAYER_1
 10
204.9762
 20
183.4275
  0
VERTEX
  8
LAYER_1
 10
205.6958
 20
184.126
  0
SEQEND
  0
POLYLINE
  8
LAYER_1
 40
0.0847
 41
0.0847
 66
1
 10
0
 20
0
 30
0
  0
VERTEX
  8
LAYER_1
 10
204.9762
 20
184.4223
  0
VERTEX
  8
LAYER_1
 10
205.1243
 20
184.5493
  0
SEQEND
  0
POLYLINE
  8
LAYER_1
 40
0.0847
 41
0.0847
 66
1
 10
0
 20
0
 30
0
  0
VERTEX
  8
LAYER_1
 10
205.3783
 20
184.0836
  0
VERTEX
  8
LAYER_1
 10
192.6148
 20
196.8471
  0
SEQEND
  0
POLYLINE
  8
LAYER_1
 40
0.0847
 41
0.0847
 66
1
 10
0
 20
0
 30
0
  0
VERTEX
  8
LAYER_1
 10
180.9097
 20
196.8471
  0
VERTEX
  8
LAYER_1
 10
192.6148
 20
196.8471
  0
SEQEND
  0
POLYLINE
  8
LAYER_1
 40
0.254
 41
0.254
 66
1
 10
0
 20
0
 30
0
  0
VERTEX
  8
LAYER_1
 10
101.5562
 20
118.3188
  0
VERTEX
  8
LAYER_1
 10
102.4663
 20
118.3188
  0
SEQEND
  0
POLYLINE
  8
LAYER_1
 40
0.254
 41
0.254
 66
1
 10
0
 20
0
 30
0
  0
VERTEX
  8
LAYER_1
 10
104.3078
 20
118.3188
  0
VERTEX
  8
LAYER_1
 10
106.1282
 20
118.3188
  0
SEQEND
  0
POLYLINE
  8
LAYER_1
 40
0.254
 41
0.254
 66
1
 10
0
 20
0
 30
0
  0
VERTEX
  8
LAYER_1
 10
107.9697
 20
118.3188
  0
VERTEX
  8
LAYER_1
 10
109.8112
 20
118.3188
  0
SEQEND
  0
POLYLINE
  8
LAYER_1
 40
0.254
 41
0.254
 66
1
 10
0
 20
0
 30
0
  0
VERTEX
  8
LAYER_1
 10
111.6527
 20
118.3188
  0
VERTEX
  8
LAYER_1
 10
113.4942
 20
118.3188
  0
SEQEND
  0
POLYLINE
  8
LAYER_1
 40
0.254
 41
0.254
 66
1
 10
0
 20
0
 30
0
  0
VERTEX
  8
LAYER_1
 10
115.3145
 20
118.3188
  0
VERTEX
  8
LAYER_1
 10
117.156
 20
118.3188
  0
SEQEND
  0
POLYLINE
  8
LAYER_1
 40
0.254
 41
0.254
 66
1
 10
0
 20
0
 30
0
  0
VERTEX
  8
LAYER_1
 10
118.9975
 20
118.3188
  0
VERTEX
  8
LAYER_1
 10
120.839
 20
118.3188
  0
SEQEND
  0
POLYLINE
  8
LAYER_1
 40
0.254
 41
0.254
 66
1
 10
0
 20
0
 30
0
  0
VERTEX
  8
LAYER_1
 10
122.6805
 20
118.3188
  0
VERTEX
  8
LAYER_1
 10
124.5008
 20
118.3188
  0
SEQEND
  0
POLYLINE
  8
LAYER_1
 40
0.254
 41
0.254
 66
1
 10
0
 20
0
 30
0
  0
VERTEX
  8
LAYER_1
 10
126.3423
 20
118.3188
  0
VERTEX
  8
LAYER_1
 10
127.2737
 20
118.3188
  0
SEQEND
  0
POLYLINE
  8
LAYER_1
 40
0.254
 41
0.254
 66
1
 10
0
 20
0
 30
0
  0
VERTEX
  8
LAYER_1
 10
127.2737
 20
103.9043
  0
VERTEX
  8
LAYER_1
 10
127.2737
 20
104.7933
  0
SEQEND
  0
POLYLINE
  8
LAYER_1
 40
0.254
 41
0.254
 66
1
 10
0
 20
0
 30
0
  0
VERTEX
  8
LAYER_1
 10
127.2737
 20
106.5924
  0
VERTEX
  8
LAYER_1
 10
127.2737
 20
108.3916
  0
SEQEND
  0
POLYLINE
  8
LAYER_1
 40
0.254
 41
0.254
 66
1
 10
0
 20
0
 30
0
  0
VERTEX
  8
LAYER_1
 10
127.2737
 20
110.1908
  0
VERTEX
  8
LAYER_1
 10
127.2737
 20
112.0111
  0
SEQEND
  0
POLYLINE
  8
LAYER_1
 40
0.254
 41
0.254
 66
1
 10
0
 20
0
 30
0
  0
VERTEX
  8
LAYER_1
 10
127.2737
 20
113.8103
  0
VERTEX
  8
LAYER_1
 10
127.2737
 20
115.6095
  0
SEQEND
  0
POLYLINE
  8
LAYER_1
 40
0.254
 41
0.254
 66
1
 10
0
 20
0
 30
0
  0
VERTEX
  8
LAYER_1
 10
127.2737
 20
117.4086
  0
VERTEX
  8
LAYER_1
 10
127.2737
 20
118.3188
  0
SEQEND
  0
POLYLINE
  8
LAYER_1
 40
0.254
 41
0.254
 66
1
 10
0
 20
0
 30
0
  0
VERTEX
  8
LAYER_1
 10
101.5562
 20
103.9043
  0
VERTEX
  8
LAYER_1
 10
102.4663
 20
103.9043
  0
SEQEND
  0
POLYLINE
  8
LAYER_1
 40
0.254
 41
0.254
 66
1
 10
0
 20
0
 30
0
  0
VERTEX
  8
LAYER_1
 10
104.3078
 20
103.9043
  0
VERTEX
  8
LAYER_1
 10
106.1282
 20
103.9043
  0
SEQEND
  0
POLYLINE
  8
LAYER_1
 40
0.254
 41
0.254
 66
1
 10
0
 20
0
 30
0
  0
VERTEX
  8
LAYER_1
 10
107.9697
 20
103.9043
  0
VERTEX
  8
LAYER_1
 10
109.8112
 20
103.9043
  0
SEQEND
  0
POLYLINE
  8
LAYER_1
 40
0.254
 41
0.254
 66
1
 10
0
 20
0
 30
0
  0
VERTEX
  8
LAYER_1
 10
111.6527
 20
103.9043
  0
VERTEX
  8
LAYER_1
 10
113.4942
 20
103.9043
  0
SEQEND
  0
POLYLINE
  8
LAYER_1
 40
0.254
 41
0.254
 66
1
 10
0
 20
0
 30
0
  0
VERTEX
  8
LAYER_1
 10
115.3145
 20
103.9043
  0
VERTEX
  8
LAYER_1
 10
117.156
 20
103.9043
  0
SEQEND
  0
POLYLINE
  8
LAYER_1
 40
0.254
 41
0.254
 66
1
 10
0
 20
0
 30
0
  0
VERTEX
  8
LAYER_1
 10
118.9975
 20
103.9043
  0
VERTEX
  8
LAYER_1
 10
120.839
 20
103.9043
  0
SEQEND
  0
POLYLINE
  8
LAYER_1
 40
0.254
 41
0.254
 66
1
 10
0
 20
0
 30
0
  0
VERTEX
  8
LAYER_1
 10
122.6805
 20
103.9043
  0
VERTEX
  8
LAYER_1
 10
124.5008
 20
103.9043
  0
SEQEND
  0
POLYLINE
  8
LAYER_1
 40
0.254
 41
0.254
 66
1
 10
0
 20
0
 30
0
  0
VERTEX
  8
LAYER_1
 10
126.3424
 20
103.9043
  0
VERTEX
  8
LAYER_1
 10
127.2737
 20
103.9043
  0
SEQEND
  0
POLYLINE
  8
LAYER_1
 40
0.254
 41
0.254
 66
1
 10
0
 20
0
 30
0
  0
VERTEX
  8
LAYER_1
 10
101.5562
 20
103.9043
  0
VERTEX
  8
LAYER_1
 10
101.5562
 20
104.7933
  0
SEQEND
  0
POLYLINE
  8
LAYER_1
 40
0.254
 41
0.254
 66
1
 10
0
 20
0
 30
0
  0
VERTEX
  8
LAYER_1
 10
101.5562
 20
106.5925
  0
VERTEX
  8
LAYER_1
 10
101.5562
 20
108.3916
  0
SEQEND
  0
POLYLINE
  8
LAYER_1
 40
0.254
 41
0.254
 66
1
 10
0
 20
0
 30
0
  0
VERTEX
  8
LAYER_1
 10
101.5562
 20
110.1908
  0
VERTEX
  8
LAYER_1
 10
101.5562
 20
112.0111
  0
SEQEND
  0
POLYLINE
  8
LAYER_1
 40
0.254
 41
0.254
 66
1
 10
0
 20
0
 30
0
  0
VERTEX
  8
LAYER_1
 10
101.5562
 20
113.8103
  0
VERTEX
  8
LAYER_1
 10
101.5562
 20
115.6095
  0
SEQEND
  0
POLYLINE
  8
LAYER_1
 40
0.254
 41
0.254
 66
1
 10
0
 20
0
 30
0
  0
VERTEX
  8
LAYER_1
 10
101.5562
 20
117.4086
  0
VERTEX
  8
LAYER_1
 10
101.5562
 20
118.3188
  0
SEQEND
  0
POLYLINE
  8
LAYER_1
 40
0.1693
 41
0.1693
 66
1
 10
0
 20
0
 30
0
  0
VERTEX
  8
LAYER_1
 10
183.4288
 20
155.5933
  0
VERTEX
  8
LAYER_1
 10
183.4288
 20
159.9536
  0
SEQEND
  0
POLYLINE
  8
LAYER_1
 40
0.1693
 41
0.1693
 66
1
 10
0
 20
0
 30
0
  0
VERTEX
  8
LAYER_1
 10
183.4288
 20
155.5933
  0
VERTEX
  8
LAYER_1
 10
217.3378
 20
155.5933
  0
VERTEX
  8
LAYER_1
 10
217.3378
 20
159.9536
  0
SEQEND
  0
POLYLINE
  8
LAYER_1
 40
0.1693
 41
0.1693
 66
1
 10
0
 20
0
 30
0
  0
VERTEX
  8
LAYER_1
 10
183.4288
 20
159.9536
  0
VERTEX
  8
LAYER_1
 10
217.3378
 20
159.9536
  0
SEQEND
  0
TEXT
  8
LAYER_1
 10
144.7573
 20
196.5084
 11
144.7573
 21
196.5084
 40
2.5779
 41
0.5
  1
推奨：信越シリコーン KE-450
  0
TEXT
  8
LAYER_1
 10
152.7159
 20
193.5874
 11
152.7159
 21
193.5874
 40
2.5779
 41
0.5
  1
ハイクリヤー(高透明)
  0
TEXT
  8
LAYER_1
 10
126.7232
 20
125.2827
 11
126.7232
 21
125.2827
 40
2.1846
 41
0.5
  1
推奨：信越シリコーン
  0
TEXT
  8
LAYER_1
 10
123.0614
 20
122.4038
 11
123.0614
 21
122.4038
 40
2.5779
 41
0.5
  1
KE-450ハイクリヤー(高透明)
  0
TEXT
  8
LAYER_1
 10
50.1846
 20
75.9431
 11
50.1846
 21
75.9431
 40
2.5779
 41
0.5
  1
A0A'断面図
  0
TEXT
  8
LAYER_1
 10
193.7579
 20
75.9429
 11
193.7579
 21
75.9429
 40
2.5779
 41
0.5
  1
B0B'断面図
  0
TEXT
  8
LAYER_1
 10
193.7579
 20
157.0113
 11
193.7579
 21
157.0113
 40
2.1846
 41
0.5
  1
縁部詳細図
  0
ENDSEC
  0
EOF
